999
DXF file: E5V_assy_2.dxf
999
Pro/ENGINEER 2014200 by Parametric Technology Corporation
  0
SECTION
  2
HEADER
  9
$ACADVER
  1
AC1021
  9
$DWGCODEPAGE
  3
ANSI_1252
  9
$EXTMAX
 10
22.0
 20
17.0
 30
0.0
  9
$EXTMIN
 10
0.0
 20
0.0
 30
0.0
  9
$LIMMIN
 10
0.0
 20
0.0
  9
$LIMMAX
 10
22.0
 20
17.0
  9
$VIEWCTR
 10
11.0
 20
8.5
  9
$VIEWSIZE
 40
17.0
  9
$CLAYER
  8
0
  9
$LTSCALE
 40
1.21
  9
$CELTYPE
  6
BYLAYER
  9
$DIMSCALE
 40
1.0
  9
$DIMASZ
 40
0.1875
  9
$DIMEXO
 40
0.0625
  9
$DIMDLI
 40
0.836
  9
$DIMEXE
 40
0.125
  9
$DIMCEN
 40
0.198
  9
$DIMLFAC
 40
1.0
  9
$DIMBLK
  1
_FILLED
  9
$DIMTXT
 40
0.1
  9
$DIMTOL
 70
0
  9
$DIMLIM
 70
0
  9
$DIMTFAC
 40
1.0
  9
$DIMGAP
 40
0.09
  9
$DIMDSEP
 70
46
  9
$AUNITS
 70
0
  9
$PDMODE
 70
3
  9
$PDSIZE
 40
0.3125
  9
$HANDSEED
  5
3F0
  9
$TILEMODE
 70
1
  9
$MEASUREMENT
 70
0
  9
$INSUNITS
 70
1
  0
ENDSEC
  0
SECTION
  2
CLASSES
  0
CLASS
  1
ACDBDICTIONARYWDFLT
  2
AcDbDictionaryWithDefault
  3
AutoCAD 2000
 90
0
 91
1
280
0
281
0
  0
CLASS
  1
ACDBPLACEHOLDER
  2
AcDbPlaceHolder
  3
AutoCAD 2000
 90
0
 91
1
280
0
281
0
  0
CLASS
  1
LAYOUT
  2
AcDbLayout
  3
AutoCAD 2000
 90
0
 91
0
280
0
281
0
  0
CLASS
  1
RASTERVARIABLES
  2
AcDbRasterVariables
  3
ISM
 90
0
 91
1
280
0
281
0
  0
CLASS
  1
IMAGEDEF
  2
AcDbRasterImageDef
  3
ISM
 90
0
 91
1
280
0
281
0
  0
CLASS
  1
IMAGEDEF_REACTOR
  2
AcDbRasterImageDefReactor
  3
ISM
 90
0
 91
1
280
0
281
0
  0
CLASS
  1
IMAGE
  2
AcDbRasterImage
  3
ISM
 90
127
 91
1
280
0
281
1
  0
CLASS
  1
TABLESTYLE
  2
AcDbTableStyle
  3
ObjectDBX Classes
 90
2047
 91
1
280
0
281
0
  0
CLASS
  1
ACAD_TABLE
  2
AcDbTable
  3
ObjectDBX Classes
 90
1025
 91
3
280
0
281
1
  0
ENDSEC
  0
SECTION
  2
TABLES
  0
TABLE
  2
VPORT
  5
8
100
AcDbSymbolTable
 70
2
  0
VPORT
  5
1F4
100
AcDbSymbolTableRecord
100
AcDbViewportTableRecord
  2
*ACTIVE
 70
0
 10
0.0
 20
0.0
 11
1.0
 21
1.0
 12
11.0
 22
8.5
 13
0.0
 23
0.0
 14
1.0
 24
1.0
 15
0.0
 25
0.0
 16
0.0
 26
0.0
 36
1.0
 17
0.0
 27
0.0
 37
0.0
 40
17.0
 41
1.2941176471
 42
50.0
 43
0.0
 44
0.0
 50
0.0
 51
0.0
 71
0
 72
100
 73
1
 74
1
 75
0
 76
0
 77
0
 78
0
  0
ENDTAB
  0
TABLE
  2
LTYPE
  5
5
100
AcDbSymbolTable
 70
6
  0
LTYPE
  5
14
100
AcDbSymbolTableRecord
100
AcDbLinetypeTableRecord
  2
BYBLOCK
 70
0
  3

 72
65
 73
0
 40
0.0
  0
LTYPE
  5
15
100
AcDbSymbolTableRecord
100
AcDbLinetypeTableRecord
  2
BYLAYER
 70
0
  3

 72
65
 73
0
 40
0.0
  0
LTYPE
  5
16
100
AcDbSymbolTableRecord
100
AcDbLinetypeTableRecord
  2
CONTINUOUS
 70
64
  3
Solid line
 72
65
 73
0
 40
0.0
  0
LTYPE
  5
1F5
100
AcDbSymbolTableRecord
100
AcDbLinetypeTableRecord
  2
CENTER
 70
64
  3
____ _ ____ _ ____ _ ____ _ ____ _ ____ _ ____
 72
65
 73
4
 40
0.6
 49
0.375
 74
0
 49
-0.075
 74
0
 49
0.075
 74
0
 49
-0.075
 74
0
  0
LTYPE
  5
1F6
100
AcDbSymbolTableRecord
100
AcDbLinetypeTableRecord
  2
HIDDEN
 70
64
  3
- - - - - - - - - - - - - - - - - - - -
 72
65
 73
2
 40
0.2
 49
0.1
 74
0
 49
-0.1
 74
0
  0
LTYPE
  5
1F7
100
AcDbSymbolTableRecord
100
AcDbLinetypeTableRecord
  2
PHANTOM
 70
64
  3
_____ _ _ _____ _ _ _____ _ _ _____
 72
65
 73
6
 40
0.8
 49
0.45
 74
0
 49
-0.05
 74
0
 49
0.1
 74
0
 49
-0.05
 74
0
 49
0.1
 74
0
 49
-0.05
 74
0
  0
LTYPE
  5
1F8
100
AcDbSymbolTableRecord
100
AcDbLinetypeTableRecord
  2
DOT
 70
64
  3
. . . . . . . . . . . . . . . . . . . .
 72
65
 73
2
 40
0.2
 49
0.1
 74
0
 49
-0.1
 74
0
  0
LTYPE
  5
1F9
100
AcDbSymbolTableRecord
100
AcDbLinetypeTableRecord
  2
DASHED
 70
64
  3
- - - - - - - - - - - - - - - - - - - -
 72
65
 73
2
 40
0.2
 49
0.1
 74
0
 49
-0.1
 74
0
  0
ENDTAB
  0
TABLE
  2
LAYER
  5
2
100
AcDbSymbolTable
 70
36
  0
LAYER
  5
10
100
AcDbSymbolTableRecord
100
AcDbLayerTableRecord
  2
0
 70
0
 62
7
  6
CONTINUOUS
370
-3
390
F
  0
LAYER
  5
1FA
100
AcDbSymbolTableRecord
100
AcDbLayerTableRecord
  2
DEFAULT_1
 70
0
 62
7
  6
CENTER
370
-3
390
F
  0
LAYER
  5
1FB
100
AcDbSymbolTableRecord
100
AcDbLayerTableRecord
  2
DEFAULT_2
 70
0
 62
8
  6
HIDDEN
370
-3
390
F
  0
LAYER
  5
1FC
100
AcDbSymbolTableRecord
100
AcDbLayerTableRecord
  2
DEFAULT_3
 70
0
 62
7
  6
PHANTOM
370
-3
390
F
  0
LAYER
  5
1FD
100
AcDbSymbolTableRecord
100
AcDbLayerTableRecord
  2
01___PRT_ALL_DTM_PLN
 70
0
 62
7
  6
CONTINUOUS
370
-3
390
F
  0
LAYER
  5
1FE
100
AcDbSymbolTableRecord
100
AcDbLayerTableRecord
  2
01___PRT_DEF_DTM_PLN
 70
0
 62
7
  6
CONTINUOUS
370
-3
390
F
  0
LAYER
  5
1FF
100
AcDbSymbolTableRecord
100
AcDbLayerTableRecord
  2
02___PRT_ALL_AXES
 70
0
 62
7
  6
CONTINUOUS
370
-3
390
F
  0
LAYER
  5
200
100
AcDbSymbolTableRecord
100
AcDbLayerTableRecord
  2
03___PRT_ALL_CURVES
 70
0
 62
7
  6
CONTINUOUS
370
-3
390
F
  0
LAYER
  5
201
100
AcDbSymbolTableRecord
100
AcDbLayerTableRecord
  2
04___PRT_ALL_DTM_PNT
 70
0
 62
7
  6
CONTINUOUS
370
-3
390
F
  0
LAYER
  5
202
100
AcDbSymbolTableRecord
100
AcDbLayerTableRecord
  2
05___PRT_ALL_DTM_CSYS
 70
0
 62
7
  6
CONTINUOUS
370
-3
390
F
  0
LAYER
  5
203
100
AcDbSymbolTableRecord
100
AcDbLayerTableRecord
  2
05___PRT_DEF_DTM_CSYS
 70
0
 62
7
  6
CONTINUOUS
370
-3
390
F
  0
LAYER
  5
204
100
AcDbSymbolTableRecord
100
AcDbLayerTableRecord
  2
06___PRT_ALL_SURFS
 70
0
 62
7
  6
CONTINUOUS
370
-3
390
F
  0
LAYER
  5
205
100
AcDbSymbolTableRecord
100
AcDbLayerTableRecord
  2
DATUM_PLANES
 70
0
 62
7
  6
CONTINUOUS
370
-3
390
F
  0
LAYER
  5
206
100
AcDbSymbolTableRecord
100
AcDbLayerTableRecord
  2
PORT_AREAS
 70
0
 62
7
  6
CONTINUOUS
370
-3
390
F
  0
LAYER
  5
207
100
AcDbSymbolTableRecord
100
AcDbLayerTableRecord
  2
SUNNBOMCOSMETIC
 70
0
 62
7
  6
CONTINUOUS
370
-3
390
F
  0
LAYER
  5
208
100
AcDbSymbolTableRecord
100
AcDbLayerTableRecord
  2
SUNNBOMSTAMPING
 70
0
 62
7
  6
CONTINUOUS
370
-3
390
F
  0
LAYER
  5
209
100
AcDbSymbolTableRecord
100
AcDbLayerTableRecord
  2
THREADS
 70
0
 62
7
  6
CONTINUOUS
370
-3
390
F
  0
ENDTAB
  0
TABLE
  2
STYLE
  5
3
100
AcDbSymbolTable
 70
1
  0
STYLE
  5
11
100
AcDbSymbolTableRecord
100
AcDbTextStyleTableRecord
  2
STANDARD
 70
0
 40
0.0
 41
0.8
 50
0.0
 71
0
 42
0.2
  3
txt
  4

  0
STYLE
  5
20A
100
AcDbSymbolTableRecord
100
AcDbTextStyleTableRecord
  2
TEXTSTYLE_1
 70
0
 40
0.0
 41
0.8
 50
0.0
 71
0
 42
0.2
  3
gdt
  4

  0
ENDTAB
  0
TABLE
  2
VIEW
  5
6
100
AcDbSymbolTable
 70
0
  0
ENDTAB
  0
TABLE
  2
UCS
  5
7
100
AcDbSymbolTable
 70
0
  0
ENDTAB
  0
TABLE
  2
APPID
  5
9
100
AcDbSymbolTable
 70
1
  0
APPID
  5
20B
100
AcDbSymbolTableRecord
100
AcDbRegAppTableRecord
  2
ACAD
 70
0
  0
ENDTAB
  0
TABLE
  2
BLOCK_RECORD
  5
1
100
AcDbSymbolTable
 70
0
  0
BLOCK_RECORD
  5
20C
100
AcDbSymbolTableRecord
100
AcDbBlockTableRecord
  2
*Model_Space
  0
BLOCK_RECORD
  5
20D
100
AcDbSymbolTableRecord
100
AcDbBlockTableRecord
  2
*Paper_Space
  0
BLOCK_RECORD
  5
20E
100
AcDbSymbolTableRecord
100
AcDbBlockTableRecord
  2
SUN_FIRST_THIRD_ANGLE_BL0
  0
BLOCK_RECORD
  5
20F
100
AcDbSymbolTableRecord
100
AcDbBlockTableRecord
  2
*T1
  0
BLOCK_RECORD
  5
210
100
AcDbSymbolTableRecord
100
AcDbBlockTableRecord
  2
*T2
  0
BLOCK_RECORD
  5
211
100
AcDbSymbolTableRecord
100
AcDbBlockTableRecord
  2
*T3
  0
ENDTAB
  0
TABLE
  2
DIMSTYLE
  5
A
100
AcDbSymbolTable
 70
1
100
AcDbDimStyleTable
 71
0
  0
DIMSTYLE
105
212
100
AcDbSymbolTableRecord
100
AcDbDimStyleTableRecord
  2
STANDARD
 70
0
  3

  4

 40
1.0
 41
0.1875
 42
0.0625
 43
0.38
 44
0.125
 45
0.0
 46
0.0
 47
0.001
 48
0.001
140
0.1
141
0.09
142
0.0
143
25.4
144
1.0
145
0.0
146
1.0
147
0.09
 71
0.0
 72
0.0
 73
1
 74
1
 75
0
 76
0
 77
0
 78
4
170
0
171
2
172
0
173
0
174
0
175
0
176
0
177
0
178
0
270
2
271
3
272
3
273
2
274
2
275
0
280
0
281
0
282
0
283
1
284
4
285
0
286
0
287
3
288
0
340
11
278
46
  0
ENDTAB
  0
ENDSEC
  0
SECTION
  2
BLOCKS
  0
BLOCK
  5
20
100
AcDbEntity
  8
0
100
AcDbBlockBegin
  2
*Model_Space
 70
0
 10
0.0
 20
0.0
 30
0.0
  3
*Model_Space
  1

  0
ENDBLK
  5
21
100
AcDbEntity
  8
0
100
AcDbBlockEnd
  0
BLOCK
  5
1C
100
AcDbEntity
  8
0
100
AcDbBlockBegin
  2
*Paper_Space
 70
0
 10
0.0
 20
0.0
 30
0.0
  3
*Paper_Space
  1

  0
ENDBLK
  5
1D
100
AcDbEntity
  8
0
100
AcDbBlockEnd
  0
BLOCK
  5
213
100
AcDbEntity
  8
0
100
AcDbBlockBegin
 62
2
  6
CONTINUOUS
  2
SUN_FIRST_THIRD_ANGLE_BL0
 70
64
 10
20.4816717061
 20
1.2289683772
  3
SUN_FIRST_THIRD_ANGLE_BL0
  1

  0
TEXT
  5
214
100
AcDbEntity
  8
0
100
AcDbText
 62
2
  6
CONTINUOUS
 10
19.4750896608
 20
1.4136269581
  7
STANDARD
 40
0.08
  1
FIRST ANGLE
 41
0.8
 72
0
100
AcDbText
  0
TEXT
  5
215
100
AcDbEntity
  8
0
100
AcDbText
 62
2
  6
CONTINUOUS
 10
20.7842537513
 20
1.4047600029
  7
STANDARD
 40
0.08
  1
THIRD ANGLE
 41
0.8
 72
0
100
AcDbText
  0
LINE
  5
216
100
AcDbEntity
  8
0
100
AcDbLine
 62
7
  6
CONTINUOUS
 10
19.4767170086
 20
1.1727031207
 11
19.6334271527
 21
1.1717972817
  0
LINE
  5
217
100
AcDbEntity
  8
0
100
AcDbLine
 62
7
  6
CONTINUOUS
 10
19.6596964832
 20
1.1717972817
 11
19.6950230232
 21
1.171593082
  0
LINE
  5
218
100
AcDbEntity
  8
0
100
AcDbLine
 62
7
  6
CONTINUOUS
 10
19.7194818561
 20
1.1708914427
 11
19.8852396156
 21
1.1699333054
  0
LINE
  5
219
100
AcDbEntity
  8
0
100
AcDbLine
 62
7
  6
CONTINUOUS
 10
19.4758111696
 20
1.2723454088
 11
19.88525039
 21
1.3511534004
  0
LINE
  5
21A
100
AcDbEntity
  8
0
100
AcDbLine
 62
7
  6
CONTINUOUS
 10
19.88525039
 20
1.3511534004
 11
19.8831348489
 21
0.9851647912
  0
LINE
  5
21B
100
AcDbEntity
  8
0
100
AcDbLine
 62
7
  6
CONTINUOUS
 10
19.8831348489
 20
0.9851647912
 11
19.4767170086
 21
1.0658141206
  0
LINE
  5
21C
100
AcDbEntity
  8
0
100
AcDbLine
 62
7
  6
CONTINUOUS
 10
19.4767170086
 20
1.0658141206
 11
19.4779056764
 21
1.2714536432
  0
CIRCLE
  5
21D
100
AcDbEntity
  8
0
100
AcDbCircle
 62
7
  6
CONTINUOUS
 10
20.2068232291
 20
1.1717972817
 40
0.175742101
  0
CIRCLE
  5
21E
100
AcDbEntity
  8
0
100
AcDbCircle
 62
7
  6
CONTINUOUS
 10
20.2068232291
 20
1.1717972817
 40
0.1005522074
  0
LINE
  5
21F
100
AcDbEntity
  8
0
100
AcDbLine
 62
7
  6
CONTINUOUS
 10
20.2077290681
 20
1.3756110529
 11
20.2071171714
 21
1.2379342989
  0
LINE
  5
220
100
AcDbEntity
  8
0
100
AcDbLine
 62
7
  6
CONTINUOUS
 10
20.2077290681
 20
1.2016899681
 11
20.2074674401
 21
1.1428236749
  0
LINE
  5
221
100
AcDbEntity
  8
0
100
AcDbLine
 62
7
  6
CONTINUOUS
 10
20.208634907
 20
1.101141841
 11
20.2080230104
 21
0.963465087
  0
LINE
  5
222
100
AcDbEntity
  8
0
100
AcDbLine
 62
7
  6
CONTINUOUS
 10
20.0066328138
 20
1.1745147986
 11
20.1443095678
 21
1.1739029019
  0
LINE
  5
223
100
AcDbEntity
  8
0
100
AcDbLine
 62
7
  6
CONTINUOUS
 10
20.1832714155
 20
1.1727031207
 11
20.238153505
 21
1.172335442
  0
LINE
  5
224
100
AcDbEntity
  8
0
100
AcDbLine
 62
7
  6
CONTINUOUS
 10
20.2756669918
 20
1.1717972817
 11
20.407916871
 21
1.1712095044
  0
CIRCLE
  5
225
100
AcDbEntity
  8
0
100
AcDbCircle
 62
7
  6
CONTINUOUS
 10
20.7509457401
 20
1.1693297793
 40
0.1722024983
  0
CIRCLE
  5
226
100
AcDbEntity
  8
0
100
AcDbCircle
 62
7
  6
CONTINUOUS
 10
20.7509457401
 20
1.1693297793
 40
0.0985164967
  0
LINE
  5
227
100
AcDbEntity
  8
0
100
AcDbLine
 62
7
  6
CONTINUOUS
 10
20.7169767782
 20
1.170462078
 11
20.7825395137
 21
1.1682766535
  0
LINE
  5
228
100
AcDbEntity
  8
0
100
AcDbLine
 62
7
  6
CONTINUOUS
 10
20.8177513651
 20
1.1693297793
 11
20.947965719
 21
1.1693297793
  0
LINE
  5
229
100
AcDbEntity
  8
0
100
AcDbLine
 62
7
  6
CONTINUOUS
 10
20.6875370113
 20
1.170462078
 11
20.5573226574
 21
1.170462078
  0
LINE
  5
22A
100
AcDbEntity
  8
0
100
AcDbLine
 62
7
  6
CONTINUOUS
 10
20.7486811426
 20
1.1987695462
 11
20.7486811426
 21
1.1432869085
  0
LINE
  5
22B
100
AcDbEntity
  8
0
100
AcDbLine
 62
7
  6
CONTINUOUS
 10
20.7498134414
 20
1.1059210505
 11
20.7498134414
 21
0.9757066966
  0
LINE
  5
22C
100
AcDbEntity
  8
0
100
AcDbLine
 62
7
  6
CONTINUOUS
 10
20.7486811426
 20
1.2338708068
 11
20.7486811426
 21
1.3640851607
  0
LINE
  5
22D
100
AcDbEntity
  8
0
100
AcDbLine
 62
7
  6
CONTINUOUS
 10
21.0702539817
 20
1.2701043662
 11
21.4790138229
 21
1.3448360823
  0
LINE
  5
22E
100
AcDbEntity
  8
0
100
AcDbLine
 62
7
  6
CONTINUOUS
 10
21.4790138229
 20
1.3448360823
 11
21.4790138229
 21
0.9779712941
  0
LINE
  5
22F
100
AcDbEntity
  8
0
100
AcDbLine
 62
7
  6
CONTINUOUS
 10
21.4790138229
 20
0.9779712941
 11
21.069121683
 21
1.0617614
  0
LINE
  5
230
100
AcDbEntity
  8
0
100
AcDbLine
 62
7
  6
CONTINUOUS
 10
21.0702539817
 20
1.2701043662
 11
21.069121683
 21
1.0617614
  0
LINE
  5
231
100
AcDbEntity
  8
0
100
AcDbLine
 62
7
  6
CONTINUOUS
 10
21.4790138229
 20
1.1693297793
 11
21.3159628059
 21
1.1693297793
  0
LINE
  5
232
100
AcDbEntity
  8
0
100
AcDbLine
 62
7
  6
CONTINUOUS
 10
21.2876553377
 20
1.1693297793
 11
21.2502894796
 21
1.1693297793
  0
LINE
  5
233
100
AcDbEntity
  8
0
100
AcDbLine
 62
7
  6
CONTINUOUS
 10
21.2208497126
 20
1.1659328831
 11
21.0713862804
 21
1.1659328831
  0
LINE
  5
234
100
AcDbEntity
  8
0
100
AcDbLine
 62
7
  6
CONTINUOUS
 10
20.4796138713
 20
1.5284908897
 11
20.4766766948
 21
0.9294458646
  0
ENDBLK
  5
235
100
AcDbEntity
  8
0
  6
BYBLOCK
 62
0
100
AcDbBlockEnd
  0
BLOCK
  5
236
100
AcDbEntity
  8
0
100
AcDbBlockBegin
  2
*T1
 70
1
 10
0.0
 20
0.0
  3
*T1
  1

  0
LINE
  5
237
100
AcDbEntity
  8
0
100
AcDbLine
 62
2
  6
CONTINUOUS
 10
9.275
 20
0.0
 11
-0.0
 21
0.0
  0
LINE
  5
238
100
AcDbEntity
  8
0
100
AcDbLine
 62
2
  6
CONTINUOUS
 10
9.275
 20
0.0
 11
9.275
 21
1.25
  0
LINE
  5
239
100
AcDbEntity
  8
0
100
AcDbLine
 62
2
  6
CONTINUOUS
 10
9.275
 20
0.625
 11
-0.0
 21
0.625
  0
LINE
  5
23A
100
AcDbEntity
  8
0
100
AcDbLine
 62
2
  6
CONTINUOUS
 10
9.275
 20
1.25
 11
-0.0
 21
1.25
  0
LINE
  5
23B
100
AcDbEntity
  8
0
100
AcDbLine
 62
2
  6
CONTINUOUS
 10
6.8
 20
0.0
 11
6.8
 21
1.25
  0
LINE
  5
23C
100
AcDbEntity
  8
0
100
AcDbLine
 62
2
  6
CONTINUOUS
 10
6.4
 20
0.0
 11
6.4
 21
0.625
  0
LINE
  5
23D
100
AcDbEntity
  8
0
100
AcDbLine
 62
2
  6
CONTINUOUS
 10
5.9
 20
0.0
 11
5.9
 21
0.625
  0
LINE
  5
23E
100
AcDbEntity
  8
0
100
AcDbLine
 62
2
  6
CONTINUOUS
 10
5.2
 20
0.0
 11
5.2
 21
0.625
  0
LINE
  5
23F
100
AcDbEntity
  8
0
100
AcDbLine
 62
2
  6
CONTINUOUS
 10
4.1
 20
0.0
 11
4.1
 21
1.25
  0
LINE
  5
240
100
AcDbEntity
  8
0
100
AcDbLine
 62
2
  6
CONTINUOUS
 10
-0.0
 20
0.0
 11
-0.0
 21
1.25
  0
MTEXT
  5
241
100
AcDbEntity
  8
0
100
AcDbMText
 62
2
  6
CONTINUOUS
  7
STANDARD
 71
2
 72
1
 10
6.6
 20
0.325
 30
0.0
 11
1.0
 21
0.0
 31
0.0
 44
0.9
  1
2
 40
0.125
 41
0.2
  0
MTEXT
  5
242
100
AcDbEntity
  8
0
100
AcDbMText
 62
2
  6
CONTINUOUS
  7
STANDARD
 71
2
 72
1
 10
6.15
 20
0.325
 30
0.0
 11
1.0
 21
0.0
 31
0.0
 44
0.9
  1
C
 40
0.125
 41
0.2
  0
MTEXT
  5
243
100
AcDbEntity
  8
0
100
AcDbMText
 62
2
  6
CONTINUOUS
  7
STANDARD
 71
2
 72
1
 10
5.55
 20
0.325
 30
0.0
 11
1.0
 21
0.0
 31
0.0
 44
0.9
  1
1.000
 40
0.125
 41
1.0
  0
MTEXT
  5
244
100
AcDbEntity
  8
0
100
AcDbMText
 62
2
  6
CONTINUOUS
  7
STANDARD
 71
2
 72
1
 10
4.65
 20
0.325
 30
0.0
 11
1.0
 21
0.0
 31
0.0
 44
0.9
  1
Jun-16-20
 40
0.125
 41
1.8
  0
MTEXT
  5
245
100
AcDbEntity
  8
0
100
AcDbMText
 62
2
  6
CONTINUOUS
  7
STANDARD
 71
2
 72
1
 10
2.05
 20
0.4625
 30
0.0
 11
1.0
 21
0.0
 31
0.0
 44
0.9
  1
T-11A Line mount\P(See Notes for Body Features)
 40
0.125
 41
5.8
  0
MTEXT
  5
246
100
AcDbEntity
  8
0
100
AcDbMText
 62
2
  6
CONTINUOUS
  7
STANDARD
 71
1
 72
1
 10
6.45
 20
0.5625
 30
0.0
 11
1.0
 21
0.0
 31
0.0
 44
0.9
  1
SHEET
 40
0.06
 41
0.48
  0
MTEXT
  5
247
100
AcDbEntity
  8
0
100
AcDbMText
 62
2
  6
CONTINUOUS
  7
STANDARD
 71
1
 72
1
 10
5.95
 20
0.5625
 30
0.0
 11
1.0
 21
0.0
 31
0.0
 44
0.9
  1
DWG SIZE
 40
0.06
 41
0.768
  0
MTEXT
  5
248
100
AcDbEntity
  8
0
100
AcDbMText
 62
2
  6
CONTINUOUS
  7
STANDARD
 71
1
 72
1
 10
5.25
 20
0.5625
 30
0.0
 11
1.0
 21
0.0
 31
0.0
 44
0.9
  1
SCALE
 40
0.06
 41
0.48
  0
MTEXT
  5
249
100
AcDbEntity
  8
0
100
AcDbMText
 62
2
  6
CONTINUOUS
  7
STANDARD
 71
1
 72
1
 10
4.15
 20
0.5625
 30
0.0
 11
1.0
 21
0.0
 31
0.0
 44
0.9
  1
DATE
 40
0.06
 41
0.384
  0
MTEXT
  5
24A
100
AcDbEntity
  8
0
100
AcDbMText
 62
2
  6
CONTINUOUS
  7
STANDARD
 71
1
 72
1
 10
0.05
 20
0.5625
 30
0.0
 11
1.0
 21
0.0
 31
0.0
 44
0.9
  1
DESCRIPTION
 40
0.06
 41
1.056
  0
MTEXT
  5
24B
100
AcDbEntity
  8
0
100
AcDbMText
 62
2
  6
CONTINUOUS
  7
STANDARD
 71
2
 72
1
 10
5.45
 20
1.0375
 30
0.0
 11
1.0
 21
0.0
 31
0.0
 44
0.9
  1
ALL DIMENSIONS IN INCH\PVIEWS ARE THIRD ANGLE
 40
0.12
 41
4.224
  0
MTEXT
  5
24C
100
AcDbEntity
  8
0
100
AcDbMText
 62
2
  6
CONTINUOUS
  7
STANDARD
 71
2
 72
1
 10
2.05
 20
0.95
 30
0.0
 11
1.0
 21
0.0
 31
0.0
 44
0.9
  1
E5V
 40
0.125
 41
0.6
  0
MTEXT
  5
24D
100
AcDbEntity
  8
0
100
AcDbMText
 62
2
  6
CONTINUOUS
  7
STANDARD
 71
1
 72
1
 10
0.05
 20
1.1875
 30
0.0
 11
1.0
 21
0.0
 31
0.0
 44
0.9
  1
MODEL
 40
0.06
 41
0.48
  0
ENDBLK
  5
24E
100
AcDbEntity
  8
0
  6
BYBLOCK
 62
0
100
AcDbBlockEnd
  0
BLOCK
  5
24F
100
AcDbEntity
  8
0
100
AcDbBlockBegin
  2
*T2
 70
1
 10
0.0
 20
0.0
  3
*T2
  1

  0
LINE
  5
250
100
AcDbEntity
  8
0
100
AcDbLine
 62
2
  6
CONTINUOUS
 10
0.0
 20
0.0
 11
9.055
 21
0.0
  0
LINE
  5
251
100
AcDbEntity
  8
0
100
AcDbLine
 62
2
  6
CONTINUOUS
 10
0.0
 20
0.0
 11
0.0
 21
-2.594
  0
LINE
  5
252
100
AcDbEntity
  8
0
100
AcDbLine
 62
2
  6
CONTINUOUS
 10
0.0
 20
-0.344
 11
9.055
 21
-0.344
  0
LINE
  5
253
100
AcDbEntity
  8
0
100
AcDbLine
 62
2
  6
CONTINUOUS
 10
0.0
 20
-0.594
 11
9.055
 21
-0.594
  0
LINE
  5
254
100
AcDbEntity
  8
0
100
AcDbLine
 62
2
  6
CONTINUOUS
 10
0.0
 20
-0.844
 11
9.055
 21
-0.844
  0
LINE
  5
255
100
AcDbEntity
  8
0
100
AcDbLine
 62
2
  6
CONTINUOUS
 10
0.0
 20
-1.094
 11
9.055
 21
-1.094
  0
LINE
  5
256
100
AcDbEntity
  8
0
100
AcDbLine
 62
2
  6
CONTINUOUS
 10
0.0
 20
-1.344
 11
9.055
 21
-1.344
  0
LINE
  5
257
100
AcDbEntity
  8
0
100
AcDbLine
 62
2
  6
CONTINUOUS
 10
0.0
 20
-1.594
 11
9.055
 21
-1.594
  0
LINE
  5
258
100
AcDbEntity
  8
0
100
AcDbLine
 62
2
  6
CONTINUOUS
 10
0.0
 20
-1.844
 11
9.055
 21
-1.844
  0
LINE
  5
259
100
AcDbEntity
  8
0
100
AcDbLine
 62
2
  6
CONTINUOUS
 10
0.0
 20
-2.094
 11
9.055
 21
-2.094
  0
LINE
  5
25A
100
AcDbEntity
  8
0
100
AcDbLine
 62
2
  6
CONTINUOUS
 10
0.0
 20
-2.344
 11
9.055
 21
-2.344
  0
LINE
  5
25B
100
AcDbEntity
  8
0
100
AcDbLine
 62
2
  6
CONTINUOUS
 10
0.0
 20
-2.594
 11
9.055
 21
-2.594
  0
LINE
  5
25C
100
AcDbEntity
  8
0
100
AcDbLine
 62
2
  6
CONTINUOUS
 10
3.055
 20
0.0
 11
3.055
 21
-2.594
  0
LINE
  5
25D
100
AcDbEntity
  8
0
100
AcDbLine
 62
2
  6
CONTINUOUS
 10
9.055
 20
0.0
 11
9.055
 21
-2.594
  0
MTEXT
  5
25E
100
AcDbEntity
  8
0
100
AcDbMText
 62
2
  6
CONTINUOUS
  7
STANDARD
 71
2
 72
1
 10
1.5275
 20
-0.0995
 30
0.0
 11
1.0
 21
0.0
 31
0.0
 44
0.9
  1
Technical Data
 40
0.145
 41
3.248
  0
MTEXT
  5
25F
100
AcDbEntity
  8
0
100
AcDbMText
 62
2
  6
CONTINUOUS
  7
STANDARD
 71
2
 72
1
 10
4.555
 20
-0.0995
 30
0.0
 11
1.0
 21
0.0
 31
0.0
 44
0.9
  1
U.S. Units
 40
0.145
 41
2.32
  0
MTEXT
  5
260
100
AcDbEntity
  8
0
100
AcDbMText
 62
2
  6
CONTINUOUS
  7
STANDARD
 71
2
 72
1
 10
7.555
 20
-0.0995
 30
0.0
 11
1.0
 21
0.0
 31
0.0
 44
0.9
  1
Metric Units
 40
0.145
 41
2.784
  0
MTEXT
  5
261
100
AcDbEntity
  8
0
100
AcDbMText
 62
2
  6
CONTINUOUS
  7
STANDARD
 71
2
 72
1
 10
1.5275
 20
-0.4065
 30
0.0
 11
1.0
 21
0.0
 31
0.0
 44
0.9
  1
Cavity
 40
0.125
 41
1.2
  0
MTEXT
  5
262
100
AcDbEntity
  8
0
100
AcDbMText
 62
2
  6
CONTINUOUS
  7
STANDARD
 71
2
 72
1
 10
6.055
 20
-0.4065
 30
0.0
 11
1.0
 21
0.0
 31
0.0
 44
0.9
  1
T-11A
 40
0.125
 41
1.0
  0
MTEXT
  5
263
100
AcDbEntity
  8
0
100
AcDbMText
 62
2
  6
CONTINUOUS
  7
STANDARD
 71
2
 72
1
 10
1.5275
 20
-0.6565
 30
0.0
 11
1.0
 21
0.0
 31
0.0
 44
0.9
  1
Body Features
 40
0.125
 41
2.6
  0
MTEXT
  5
264
100
AcDbEntity
  8
0
100
AcDbMText
 62
2
  6
CONTINUOUS
  7
STANDARD
 71
2
 72
1
 10
6.055
 20
-0.6565
 30
0.0
 11
1.0
 21
0.0
 31
0.0
 44
0.9
  1
(See Notes)
 40
0.125
 41
2.2
  0
MTEXT
  5
265
100
AcDbEntity
  8
0
100
AcDbMText
 62
2
  6
CONTINUOUS
  7
STANDARD
 71
2
 72
1
 10
1.5275
 20
-0.9065
 30
0.0
 11
1.0
 21
0.0
 31
0.0
 44
0.9
  1
Body Type
 40
0.125
 41
1.8
  0
MTEXT
  5
266
100
AcDbEntity
  8
0
100
AcDbMText
 62
2
  6
CONTINUOUS
  7
STANDARD
 71
2
 72
1
 10
6.055
 20
-0.9065
 30
0.0
 11
1.0
 21
0.0
 31
0.0
 44
0.9
  1
Line mount
 40
0.125
 41
2.0
  0
MTEXT
  5
267
100
AcDbEntity
  8
0
100
AcDbMText
 62
2
  6
CONTINUOUS
  7
STANDARD
 71
2
 72
1
 10
1.5275
 20
-1.1565
 30
0.0
 11
1.0
 21
0.0
 31
0.0
 44
0.9
  1
Interface
 40
0.125
 41
1.8
  0
MTEXT
  5
268
100
AcDbEntity
  8
0
100
AcDbMText
 62
2
  6
CONTINUOUS
  7
STANDARD
 71
2
 72
1
 10
6.055
 20
-1.1565
 30
0.0
 11
1.0
 21
0.0
 31
0.0
 44
0.9
  1
None
 40
0.125
 41
0.8
  0
MTEXT
  5
269
100
AcDbEntity
  8
0
100
AcDbMText
 62
2
  6
CONTINUOUS
  7
STANDARD
 71
2
 72
1
 10
1.5275
 20
-1.4065
 30
0.0
 11
1.0
 21
0.0
 31
0.0
 44
0.9
  1
Open Cavity Quantity
 40
0.125
 41
4.0
  0
MTEXT
  5
26A
100
AcDbEntity
  8
0
100
AcDbMText
 62
2
  6
CONTINUOUS
  7
STANDARD
 71
2
 72
1
 10
6.055
 20
-1.4065
 30
0.0
 11
1.0
 21
0.0
 31
0.0
 44
0.9
  1
1
 40
0.125
 41
0.2
  0
MTEXT
  5
26B
100
AcDbEntity
  8
0
100
AcDbMText
 62
2
  6
CONTINUOUS
  7
STANDARD
 71
2
 72
1
 10
1.5275
 20
-1.6565
 30
0.0
 11
1.0
 21
0.0
 31
0.0
 44
0.9
  1
Weight
 40
0.125
 41
1.2
  0
MTEXT
  5
26C
100
AcDbEntity
  8
0
100
AcDbMText
 62
2
  6
CONTINUOUS
  7
STANDARD
 71
2
 72
1
 10
4.555
 20
-1.6565
 30
0.0
 11
1.0
 21
0.0
 31
0.0
 44
0.9
  1
1.859 lb.
 40
0.125
 41
1.8
  0
MTEXT
  5
26D
100
AcDbEntity
  8
0
100
AcDbMText
 62
2
  6
CONTINUOUS
  7
STANDARD
 71
2
 72
1
 10
7.555
 20
-1.6565
 30
0.0
 11
1.0
 21
0.0
 31
0.0
 44
0.9
  1
0,843 kg.
 40
0.125
 41
1.8
  0
MTEXT
  5
26E
100
AcDbEntity
  8
0
100
AcDbMText
 62
2
  6
CONTINUOUS
  7
STANDARD
 71
2
 72
1
 10
1.5275
 20
-1.9065
 30
0.0
 11
1.0
 21
0.0
 31
0.0
 44
0.9
  1
Mounting Hole Thread
 40
0.125
 41
4.0
  0
MTEXT
  5
26F
100
AcDbEntity
  8
0
100
AcDbMText
 62
2
  6
CONTINUOUS
  7
STANDARD
 71
2
 72
1
 10
6.055
 20
-1.9065
 30
0.0
 11
1.0
 21
0.0
 31
0.0
 44
0.9
  1
M10x1.5 - 6H
 40
0.125
 41
2.4
  0
MTEXT
  5
270
100
AcDbEntity
  8
0
100
AcDbMText
 62
2
  6
CONTINUOUS
  7
STANDARD
 71
2
 72
1
 10
1.5275
 20
-2.1565
 30
0.0
 11
1.0
 21
0.0
 31
0.0
 44
0.9
  1
Mounting Hole Depth
 40
0.125
 41
3.8
  0
MTEXT
  5
271
100
AcDbEntity
  8
0
100
AcDbMText
 62
2
  6
CONTINUOUS
  7
STANDARD
 71
2
 72
1
 10
4.555
 20
-2.1565
 30
0.0
 11
1.0
 21
0.0
 31
0.0
 44
0.9
  1
.62 in.
 40
0.125
 41
1.4
  0
MTEXT
  5
272
100
AcDbEntity
  8
0
100
AcDbMText
 62
2
  6
CONTINUOUS
  7
STANDARD
 71
2
 72
1
 10
7.555
 20
-2.1565
 30
0.0
 11
1.0
 21
0.0
 31
0.0
 44
0.9
  1
15,7 mm
 40
0.125
 41
1.4
  0
MTEXT
  5
273
100
AcDbEntity
  8
0
100
AcDbMText
 62
2
  6
CONTINUOUS
  7
STANDARD
 71
2
 72
1
 10
1.5275
 20
-2.4065
 30
0.0
 11
1.0
 21
0.0
 31
0.0
 44
0.9
  1
Mounting Hole Quantity
 40
0.125
 41
4.4
  0
MTEXT
  5
274
100
AcDbEntity
  8
0
100
AcDbMText
 62
2
  6
CONTINUOUS
  7
STANDARD
 71
2
 72
1
 10
6.055
 20
-2.4065
 30
0.0
 11
1.0
 21
0.0
 31
0.0
 44
0.9
  1
2
 40
0.125
 41
0.2
  0
ENDBLK
  5
275
100
AcDbEntity
  8
0
  6
BYBLOCK
 62
0
100
AcDbBlockEnd
  0
BLOCK
  5
276
100
AcDbEntity
  8
0
100
AcDbBlockBegin
  2
*T3
 70
1
 10
0.0
 20
0.0
  3
*T3
  1

  0
LINE
  5
277
100
AcDbEntity
  8
0
100
AcDbLine
 62
2
  6
CONTINUOUS
 10
0.0
 20
0.0
 11
4.6
 21
0.0
  0
LINE
  5
278
100
AcDbEntity
  8
0
100
AcDbLine
 62
2
  6
CONTINUOUS
 10
0.0
 20
0.0
 11
0.0
 21
-1.43775
  0
LINE
  5
279
100
AcDbEntity
  8
0
100
AcDbLine
 62
2
  6
CONTINUOUS
 10
0.0
 20
-0.34375
 11
4.6
 21
-0.34375
  0
LINE
  5
27A
100
AcDbEntity
  8
0
100
AcDbLine
 62
2
  6
CONTINUOUS
 10
0.0
 20
-0.68775
 11
4.6
 21
-0.68775
  0
LINE
  5
27B
100
AcDbEntity
  8
0
100
AcDbLine
 62
2
  6
CONTINUOUS
 10
0.0
 20
-0.93775
 11
4.6
 21
-0.93775
  0
LINE
  5
27C
100
AcDbEntity
  8
0
100
AcDbLine
 62
2
  6
CONTINUOUS
 10
0.0
 20
-1.18775
 11
4.6
 21
-1.18775
  0
LINE
  5
27D
100
AcDbEntity
  8
0
100
AcDbLine
 62
2
  6
CONTINUOUS
 10
0.0
 20
-1.43775
 11
4.6
 21
-1.43775
  0
LINE
  5
27E
100
AcDbEntity
  8
0
100
AcDbLine
 62
2
  6
CONTINUOUS
 10
1.3
 20
-0.34375
 11
1.3
 21
-1.43775
  0
LINE
  5
27F
100
AcDbEntity
  8
0
100
AcDbLine
 62
2
  6
CONTINUOUS
 10
3.3
 20
-0.34375
 11
3.3
 21
-1.43775
  0
LINE
  5
280
100
AcDbEntity
  8
0
100
AcDbLine
 62
2
  6
CONTINUOUS
 10
4.6
 20
0.0
 11
4.6
 21
-1.43775
  0
MTEXT
  5
281
100
AcDbEntity
  8
0
100
AcDbMText
 62
2
  6
CONTINUOUS
  7
STANDARD
 71
2
 72
1
 10
2.3
 20
-0.099375
 30
0.0
 11
1.0
 21
0.0
 31
0.0
 44
0.9
  1
Port Headings
 40
0.145
 41
3.016
  0
MTEXT
  5
282
100
AcDbEntity
  8
0
100
AcDbMText
 62
2
  6
CONTINUOUS
  7
STANDARD
 71
2
 72
1
 10
0.65
 20
-0.44325
 30
0.0
 11
1.0
 21
0.0
 31
0.0
 44
0.9
  1
Product
 40
0.145
 41
1.624
  0
MTEXT
  5
283
100
AcDbEntity
  8
0
100
AcDbMText
 62
2
  6
CONTINUOUS
  7
STANDARD
 71
2
 72
1
 10
2.3
 20
-0.44325
 30
0.0
 11
1.0
 21
0.0
 31
0.0
 44
0.9
  1
Port
 40
0.145
 41
0.928
  0
MTEXT
  5
284
100
AcDbEntity
  8
0
100
AcDbMText
 62
2
  6
CONTINUOUS
  7
STANDARD
 71
2
 72
1
 10
3.95
 20
-0.44325
 30
0.0
 11
1.0
 21
0.0
 31
0.0
 44
0.9
  1
Size
 40
0.145
 41
0.928
  0
MTEXT
  5
285
100
AcDbEntity
  8
0
100
AcDbMText
 62
2
  6
CONTINUOUS
  7
STANDARD
 71
2
 72
1
 10
0.65
 20
-0.75025
 30
0.0
 11
1.0
 21
0.0
 31
0.0
 44
0.9
  1
E5V
 40
0.125
 41
0.6
  0
MTEXT
  5
286
100
AcDbEntity
  8
0
100
AcDbMText
 62
2
  6
CONTINUOUS
  7
STANDARD
 71
2
 72
1
 10
2.3
 20
-0.75025
 30
0.0
 11
1.0
 21
0.0
 31
0.0
 44
0.9
  1
Ports 1 &  2
 40
0.125
 41
2.4
  0
MTEXT
  5
287
100
AcDbEntity
  8
0
100
AcDbMText
 62
2
  6
CONTINUOUS
  7
STANDARD
 71
2
 72
1
 10
3.95
 20
-0.75025
 30
0.0
 11
1.0
 21
0.0
 31
0.0
 44
0.9
  1
1/2" BSPP
 40
0.125
 41
1.8
  0
MTEXT
  5
288
100
AcDbEntity
  8
0
100
AcDbMText
 62
2
  6
CONTINUOUS
  7
STANDARD
 71
2
 72
1
 10
0.65
 20
-1.00025
 30
0.0
 11
1.0
 21
0.0
 31
0.0
 44
0.9
  1
E5V
 40
0.125
 41
0.6
  0
MTEXT
  5
289
100
AcDbEntity
  8
0
100
AcDbMText
 62
2
  6
CONTINUOUS
  7
STANDARD
 71
2
 72
1
 10
2.3
 20
-1.00025
 30
0.0
 11
1.0
 21
0.0
 31
0.0
 44
0.9
  1
Port 3
 40
0.125
 41
1.2
  0
MTEXT
  5
28A
100
AcDbEntity
  8
0
100
AcDbMText
 62
2
  6
CONTINUOUS
  7
STANDARD
 71
2
 72
1
 10
3.95
 20
-1.00025
 30
0.0
 11
1.0
 21
0.0
 31
0.0
 44
0.9
  1
3/8" BSPP
 40
0.125
 41
1.8
  0
MTEXT
  5
28B
100
AcDbEntity
  8
0
100
AcDbMText
 62
2
  6
CONTINUOUS
  7
STANDARD
 71
2
 72
1
 10
0.65
 20
-1.25025
 30
0.0
 11
1.0
 21
0.0
 31
0.0
 44
0.9
  1
E5V
 40
0.125
 41
0.6
  0
MTEXT
  5
28C
100
AcDbEntity
  8
0
100
AcDbMText
 62
2
  6
CONTINUOUS
  7
STANDARD
 71
2
 72
1
 10
2.3
 20
-1.25025
 30
0.0
 11
1.0
 21
0.0
 31
0.0
 44
0.9
  1
Gage Port
 40
0.125
 41
1.8
  0
MTEXT
  5
28D
100
AcDbEntity
  8
0
100
AcDbMText
 62
2
  6
CONTINUOUS
  7
STANDARD
 71
2
 72
1
 10
3.95
 20
-1.25025
 30
0.0
 11
1.0
 21
0.0
 31
0.0
 44
0.9
  1
1/4" BSPP
 40
0.125
 41
1.8
  0
ENDBLK
  5
28E
100
AcDbEntity
  8
0
  6
BYBLOCK
 62
0
100
AcDbBlockEnd
  0
ENDSEC
  0
SECTION
  2
ENTITIES
  0
IMAGE
  5
28F
100
AcDbEntity
  8
0
100
AcDbRasterImage
 62
7
  6
CONTINUOUS
 10
19.2297077316
 20
0.3094318264
 30
0.0
 11
0.0066666667
 21
0.0
 31
0.0
 12
0.0
 22
0.0066666667
 32
0.0
 13
369.0
 23
92.0
340
       3ED
 70
9
280
0
281
50
282
50
283
0
360
       3E7
 71
1
 91
2
 14
-0.5
 24
-0.5
 14
368.5
 24
91.5
  0
INSERT
  5
290
100
AcDbEntity
  8
0
100
AcDbBlockReference
 62
2
  6
CONTINUOUS
  2
SUN_FIRST_THIRD_ANGLE_BL0
 10
20.4816717061
 20
1.2289683772
  0
ACAD_TABLE
  5
291
100
AcDbEntity
  8
0
 62
2
  6
CONTINUOUS
100
AcDbBlockReference
  2
*T1
 10
12.42375
 20
0.30125
 30
0.0
100
AcDbTable
342
       3EF
343
20F
 11
1.0
 21
0.0
 31
0.0
 90
6
 91
4
 92
6
 93
20
 94
0
 95
0
 96
0
 70
1
 41
0.0
141
0.525
141
0.1
141
0.525
141
0.1
142
4.1
142
1.1
142
0.7
142
0.5
142
0.4
142
2.475
171
1
172
0
173
0
174
0
175
1
176
1
 91
33
178
0
145
0.0
301
CELL_VALUE
 90
4
  1
T-11A Line mount\P(See Notes for Body Features)
304
ACVALUE_END
170
2
140
0.125
171
1
172
0
173
0
174
0
175
1
176
1
 91
33
178
0
145
0.0
301
CELL_VALUE
 90
4
  1
Jun-16-20
304
ACVALUE_END
170
5
140
0.125
171
1
172
0
173
0
174
0
175
1
176
1
 91
33
178
0
145
0.0
301
CELL_VALUE
 90
4
  1
1.000
304
ACVALUE_END
170
5
140
0.125
171
1
172
0
173
0
174
0
175
1
176
1
 91
33
178
0
145
0.0
301
CELL_VALUE
 90
4
  1
C
304
ACVALUE_END
170
5
140
0.125
171
1
172
0
173
0
174
0
175
1
176
1
 91
33
178
0
145
0.0
301
CELL_VALUE
 90
4
  1
2
304
ACVALUE_END
170
5
140
0.125
171
1
172
0
173
0
174
0
175
1
176
1
 91
33
178
0
145
0.0
301
CELL_VALUE
 90
4
  1
 
304
ACVALUE_END
170
1
140
0.125
171
1
172
0
173
0
174
0
175
1
176
1
 91
33
178
0
145
0.0
301
CELL_VALUE
 90
4
  1
DESCRIPTION
304
ACVALUE_END
170
1
140
0.06
171
1
172
0
173
0
174
0
175
1
176
1
 91
33
178
0
145
0.0
301
CELL_VALUE
 90
4
  1
DATE
304
ACVALUE_END
170
1
140
0.06
171
1
172
0
173
0
174
0
175
1
176
1
 91
33
178
0
145
0.0
301
CELL_VALUE
 90
4
  1
SCALE
304
ACVALUE_END
170
1
140
0.06
171
1
172
0
173
0
174
0
175
1
176
1
 91
33
178
0
145
0.0
301
CELL_VALUE
 90
4
  1
DWG SIZE
304
ACVALUE_END
170
1
140
0.06
171
1
172
0
173
0
174
0
175
1
176
1
 91
33
178
0
145
0.0
301
CELL_VALUE
 90
4
  1
SHEET
304
ACVALUE_END
170
1
140
0.06
171
1
172
0
173
0
174
0
175
1
176
1
 91
33
178
0
145
0.0
301
CELL_VALUE
 90
4
  1
 
304
ACVALUE_END
170
1
140
0.125
171
1
172
0
173
0
174
0
175
1
176
1
 91
33
178
0
145
0.0
301
CELL_VALUE
 90
4
  1
E5V
304
ACVALUE_END
170
5
140
0.125
171
1
172
0
173
0
174
0
175
4
176
1
 91
33
178
0
145
0.0
301
CELL_VALUE
 90
4
  1
ALL DIMENSIONS IN INCH\PVIEWS ARE THIRD ANGLE
304
ACVALUE_END
170
5
140
0.12
171
1
172
0
173
1
174
0
175
1
176
1
 91
1
178
0
145
0.0
170
1
171
1
172
0
173
1
174
0
175
1
176
1
 91
1
178
0
145
0.0
170
1
171
1
172
0
173
1
174
0
175
1
176
1
 91
1
178
0
145
0.0
170
5
171
1
172
0
173
0
174
0
175
1
176
1
 91
33
178
0
145
0.0
301
CELL_VALUE
 90
4
  1
 
304
ACVALUE_END
170
1
140
0.125
171
1
172
0
173
0
174
0
175
1
176
1
 91
33
178
0
145
0.0
301
CELL_VALUE
 90
4
  1
MODEL
304
ACVALUE_END
170
1
140
0.06
171
1
172
0
173
0
174
0
175
1
176
1
 91
33
178
0
145
0.0
301
CELL_VALUE
 90
4
  1
 
304
ACVALUE_END
170
1
140
0.125
171
1
172
0
173
0
174
0
175
1
176
1
 91
33
178
0
145
0.0
301
CELL_VALUE
 90
4
  1
 
304
ACVALUE_END
170
1
140
0.125
171
1
172
0
173
0
174
0
175
1
176
1
 91
33
178
0
145
0.0
301
CELL_VALUE
 90
4
  1
 
304
ACVALUE_END
170
1
140
0.125
171
1
172
0
173
0
174
0
175
1
176
1
 91
33
178
0
145
0.0
301
CELL_VALUE
 90
4
  1
 
304
ACVALUE_END
170
1
140
0.125
171
1
172
0
173
0
174
0
175
1
176
1
 91
33
178
0
145
0.0
301
CELL_VALUE
 90
4
  1
 
304
ACVALUE_END
170
1
140
0.125
  0
ACAD_TABLE
  5
292
100
AcDbEntity
  8
0
 62
2
  6
CONTINUOUS
100
AcDbBlockReference
  2
*T2
 10
12.4237499994
 20
16.47875
 30
0.0
100
AcDbTable
342
       3EE
343
210
 11
1.0
 21
0.0
 31
0.0
 90
22
 91
10
 92
3
 93
16
 94
0
 95
0
 96
0
 41
0.028
141
0.344
141
0.25
141
0.25
141
0.25
141
0.25
141
0.25
141
0.25
141
0.25
141
0.25
141
0.25
142
3.055
142
3.0
142
3.0
171
1
172
0
173
0
174
0
175
1
176
1
 91
33
178
0
145
0.0
301
CELL_VALUE
 90
4
  1
Technical Data
304
ACVALUE_END
170
5
140
0.145
171
1
172
0
173
0
174
0
175
1
176
1
 91
33
178
0
145
0.0
301
CELL_VALUE
 90
4
  1
U.S. Units
304
ACVALUE_END
170
5
140
0.145
171
1
172
0
173
0
174
0
175
1
176
1
 91
33
178
0
145
0.0
301
CELL_VALUE
 90
4
  1
Metric Units
304
ACVALUE_END
170
5
140
0.145
171
1
172
0
173
0
174
0
175
1
176
1
 91
33
178
0
145
0.0
301
CELL_VALUE
 90
4
  1
Cavity
304
ACVALUE_END
170
5
140
0.125
171
1
172
0
173
0
174
0
175
2
176
1
 91
33
178
0
145
0.0
301
CELL_VALUE
 90
4
  1
T-11A
304
ACVALUE_END
170
5
140
0.125
171
1
172
0
173
1
174
0
175
1
176
1
 91
1
178
0
145
0.0
170
1
171
1
172
0
173
0
174
0
175
1
176
1
 91
33
178
0
145
0.0
301
CELL_VALUE
 90
4
  1
Body Features
304
ACVALUE_END
170
5
140
0.125
171
1
172
0
173
0
174
0
175
2
176
1
 91
33
178
0
145
0.0
301
CELL_VALUE
 90
4
  1
(See Notes)
304
ACVALUE_END
170
5
140
0.125
171
1
172
0
173
1
174
0
175
1
176
1
 91
1
178
0
145
0.0
170
1
171
1
172
0
173
0
174
0
175
1
176
1
 91
33
178
0
145
0.0
301
CELL_VALUE
 90
4
  1
Body Type
304
ACVALUE_END
170
5
140
0.125
171
1
172
0
173
0
174
0
175
2
176
1
 91
33
178
0
145
0.0
301
CELL_VALUE
 90
4
  1
Line mount
304
ACVALUE_END
170
5
140
0.125
171
1
172
0
173
1
174
0
175
1
176
1
 91
1
178
0
145
0.0
170
1
171
1
172
0
173
0
174
0
175
1
176
1
 91
33
178
0
145
0.0
301
CELL_VALUE
 90
4
  1
Interface
304
ACVALUE_END
170
5
140
0.125
171
1
172
0
173
0
174
0
175
2
176
1
 91
33
178
0
145
0.0
301
CELL_VALUE
 90
4
  1
None
304
ACVALUE_END
170
5
140
0.125
171
1
172
0
173
1
174
0
175
1
176
1
 91
1
178
0
145
0.0
170
1
171
1
172
0
173
0
174
0
175
1
176
1
 91
33
178
0
145
0.0
301
CELL_VALUE
 90
4
  1
Open Cavity Quantity
304
ACVALUE_END
170
5
140
0.125
171
1
172
0
173
0
174
0
175
2
176
1
 91
33
178
0
145
0.0
301
CELL_VALUE
 90
4
  1
1
304
ACVALUE_END
170
5
140
0.125
171
1
172
0
173
1
174
0
175
1
176
1
 91
1
178
0
145
0.0
170
1
171
1
172
0
173
0
174
0
175
1
176
1
 91
33
178
0
145
0.0
301
CELL_VALUE
 90
4
  1
Weight
304
ACVALUE_END
170
5
140
0.125
171
1
172
0
173
0
174
0
175
1
176
1
 91
33
178
0
145
0.0
301
CELL_VALUE
 90
4
  1
1.859 lb.
304
ACVALUE_END
170
5
140
0.125
171
1
172
0
173
0
174
0
175
1
176
1
 91
33
178
0
145
0.0
301
CELL_VALUE
 90
4
  1
0,843 kg.
304
ACVALUE_END
170
5
140
0.125
171
1
172
0
173
0
174
0
175
1
176
1
 91
33
178
0
145
0.0
301
CELL_VALUE
 90
4
  1
Mounting Hole Thread
304
ACVALUE_END
170
5
140
0.125
171
1
172
0
173
0
174
0
175
2
176
1
 91
33
178
0
145
0.0
301
CELL_VALUE
 90
4
  1
M10x1.5 - 6H
304
ACVALUE_END
170
5
140
0.125
171
1
172
0
173
1
174
0
175
1
176
1
 91
1
178
0
145
0.0
170
1
171
1
172
0
173
0
174
0
175
1
176
1
 91
33
178
0
145
0.0
301
CELL_VALUE
 90
4
  1
Mounting Hole Depth
304
ACVALUE_END
170
5
140
0.125
171
1
172
0
173
0
174
0
175
1
176
1
 91
33
178
0
145
0.0
301
CELL_VALUE
 90
4
  1
.62 in.
304
ACVALUE_END
170
5
140
0.125
171
1
172
0
173
0
174
0
175
1
176
1
 91
33
178
0
145
0.0
301
CELL_VALUE
 90
4
  1
15,7 mm
304
ACVALUE_END
170
5
140
0.125
171
1
172
0
173
0
174
0
175
1
176
1
 91
33
178
0
145
0.0
301
CELL_VALUE
 90
4
  1
Mounting Hole Quantity
304
ACVALUE_END
170
5
140
0.125
171
1
172
0
173
0
174
0
175
2
176
1
 91
33
178
0
145
0.0
301
CELL_VALUE
 90
4
  1
2
304
ACVALUE_END
170
5
140
0.125
171
1
172
0
173
1
174
0
175
1
176
1
 91
1
178
0
145
0.0
170
1
  0
ACAD_TABLE
  5
293
100
AcDbEntity
  8
0
 62
2
  6
CONTINUOUS
100
AcDbBlockReference
  2
*T3
 10
0.52125
 20
1.959
 30
0.0
100
AcDbTable
342
       3EE
343
211
 11
1.0
 21
0.0
 31
0.0
 90
22
 91
5
 92
3
 93
16
 94
0
 95
0
 96
0
 41
0.05
141
0.34375
141
0.344
141
0.25
141
0.25
141
0.25
142
1.3
142
2.0
142
1.3
171
1
172
0
173
0
174
0
175
3
176
1
 91
33
178
0
145
0.0
301
CELL_VALUE
 90
4
  1
Port Headings
304
ACVALUE_END
170
5
140
0.145
171
1
172
0
173
1
174
0
175
1
176
1
 91
1
178
0
145
0.0
170
1
171
1
172
0
173
1
174
0
175
1
176
1
 91
1
178
0
145
0.0
170
1
171
1
172
0
173
0
174
0
175
1
176
1
 91
33
178
0
145
0.0
301
CELL_VALUE
 90
4
  1
Product
304
ACVALUE_END
170
5
140
0.145
171
1
172
0
173
0
174
0
175
1
176
1
 91
33
178
0
145
0.0
301
CELL_VALUE
 90
4
  1
Port
304
ACVALUE_END
170
5
140
0.145
171
1
172
0
173
0
174
0
175
1
176
1
 91
33
178
0
145
0.0
301
CELL_VALUE
 90
4
  1
Size
304
ACVALUE_END
170
5
140
0.145
171
1
172
0
173
0
174
0
175
1
176
1
 91
33
178
0
145
0.0
301
CELL_VALUE
 90
4
  1
E5V
304
ACVALUE_END
170
5
140
0.125
171
1
172
0
173
0
174
0
175
1
176
1
 91
33
178
0
145
0.0
301
CELL_VALUE
 90
4
  1
Ports 1 &  2
304
ACVALUE_END
170
5
140
0.125
171
1
172
0
173
0
174
0
175
1
176
1
 91
33
178
0
145
0.0
301
CELL_VALUE
 90
4
  1
1/2" BSPP
304
ACVALUE_END
170
5
140
0.125
171
1
172
0
173
0
174
0
175
1
176
1
 91
33
178
0
145
0.0
301
CELL_VALUE
 90
4
  1
E5V
304
ACVALUE_END
170
5
140
0.125
171
1
172
0
173
0
174
0
175
1
176
1
 91
33
178
0
145
0.0
301
CELL_VALUE
 90
4
  1
Port 3
304
ACVALUE_END
170
5
140
0.125
171
1
172
0
173
0
174
0
175
1
176
1
 91
33
178
0
145
0.0
301
CELL_VALUE
 90
4
  1
3/8" BSPP
304
ACVALUE_END
170
5
140
0.125
171
1
172
0
173
0
174
0
175
1
176
1
 91
33
178
0
145
0.0
301
CELL_VALUE
 90
4
  1
E5V
304
ACVALUE_END
170
5
140
0.125
171
1
172
0
173
0
174
0
175
1
176
1
 91
33
178
0
145
0.0
301
CELL_VALUE
 90
4
  1
Gage Port
304
ACVALUE_END
170
5
140
0.125
171
1
172
0
173
0
174
0
175
1
176
1
 91
33
178
0
145
0.0
301
CELL_VALUE
 90
4
  1
1/4" BSPP
304
ACVALUE_END
170
5
140
0.125
  0
MTEXT
  5
294
100
AcDbEntity
  8
0
100
AcDbMText
 62
2
  6
CONTINUOUS
  7
STANDARD
 71
1
 72
1
 10
0.52125
 20
5.75995
 30
0.0
 11
1.0
 21
0.0
 31
0.0
 44
0.6
  3
Notes\P \P1. Important: Carefully consider\P   the maximum system pressure. The\P   pressure rating of the manifold is\P   dependent on the manifold material,\P   with the port type/size a secondary\P   consideration. Manifolds\P   constructed of alu
  1
minum are not\P   rated for pressures higher than\P   3000 psi (210 bar), regardless of\P   the port type/size specified.\P2. Body Features: Through port 2\P   with reverse flow check and high\P   capacity port 3.
 40
0.1
 41
3.04
  0
LINE
  5
295
100
AcDbEntity
  8
0
100
AcDbLine
 62
7
  6
CONTINUOUS
 10
0.30125
 20
0.30125
 11
0.30125
 21
16.69875
  0
LINE
  5
296
100
AcDbEntity
  8
0
100
AcDbLine
 62
7
  6
CONTINUOUS
 10
0.30125
 20
0.30125
 11
21.69875
 21
0.30125
  0
LINE
  5
297
100
AcDbEntity
  8
0
100
AcDbLine
 62
7
  6
CONTINUOUS
 10
0.30125
 20
16.69875
 11
21.69875
 21
16.69875
  0
LINE
  5
298
100
AcDbEntity
  8
0
100
AcDbLine
 62
7
  6
CONTINUOUS
 10
21.69875
 20
0.30125
 11
21.69875
 21
16.69875
  0
LINE
  5
299
100
AcDbEntity
  8
0
100
AcDbLine
 62
7
  6
CONTINUOUS
 10
9.4690691062
 20
6.3730020072
 11
11.883883815
 21
6.2055340384
  0
LINE
  5
29A
100
AcDbEntity
  8
0
100
AcDbLine
 62
7
  6
CONTINUOUS
 10
10.116116185
 20
10.2580013853
 11
9.4690691062
 21
9.6330018641
  0
LINE
  5
29B
100
AcDbEntity
  8
0
100
AcDbLine
 62
7
  6
CONTINUOUS
 10
11.1787853215
 20
10.722397311
 11
11.2039509339
 21
10.7348286417
  0
LINE
  5
29C
100
AcDbEntity
  8
0
100
AcDbLine
 62
4
  6
CONTINUOUS
 10
10.7175283394
 20
6.7288151313
 11
10.7030394515
 21
6.7298199391
  0
LINE
  5
29D
100
AcDbEntity
  8
0
100
AcDbLine
 62
4
  6
CONTINUOUS
 10
10.7175283394
 20
6.7771114267
 11
10.7030394515
 21
6.7781162345
  0
LINE
  5
29E
100
AcDbEntity
  8
0
100
AcDbLine
 62
4
  6
CONTINUOUS
 10
10.7030394515
 20
6.8457310425
 11
10.7175283394
 21
6.8447262347
  0
LINE
  5
29F
100
AcDbEntity
  8
0
100
AcDbLine
 62
7
  6
CONTINUOUS
 10
9.4690691062
 20
6.3730020072
 11
9.4690691062
 21
9.6330018641
  0
LINE
  5
2A0
100
AcDbEntity
  8
0
100
AcDbLine
 62
4
  6
CONTINUOUS
 10
10.7030394515
 20
6.7298199391
 11
10.6885505636
 21
6.7404840032
  0
LINE
  5
2A1
100
AcDbEntity
  8
0
100
AcDbLine
 62
4
  6
CONTINUOUS
 10
10.7030394515
 20
6.7781162345
 11
10.6885505636
 21
6.7887802986
  0
LINE
  5
2A2
100
AcDbEntity
  8
0
100
AcDbLine
 62
4
  6
CONTINUOUS
 10
10.7175283394
 20
6.8447262347
 11
10.7320172274
 21
6.834062168
  0
LINE
  5
2A3
100
AcDbEntity
  8
0
100
AcDbLine
 62
4
  6
CONTINUOUS
 10
9.6598394693
 20
7.7024090158
 11
9.6525950254
 21
7.7125706829
  0
LINE
  5
2A4
100
AcDbEntity
  8
0
100
AcDbLine
 62
4
  6
CONTINUOUS
 10
9.6381061375
 20
9.019507317
 11
9.6381061375
 21
9.0581443509
  0
LINE
  5
2A5
100
AcDbEntity
  8
0
100
AcDbLine
 62
4
  6
CONTINUOUS
 10
9.6525950254
 20
7.7125706829
 11
9.6525950254
 21
7.7318891955
  0
LINE
  5
2A6
100
AcDbEntity
  8
0
100
AcDbLine
 62
4
  6
CONTINUOUS
 10
9.7105505771
 20
9.0144832781
 11
9.7033061331
 21
8.9860079061
  0
LINE
  5
2A7
100
AcDbEntity
  8
0
100
AcDbLine
 62
4
  6
CONTINUOUS
 10
9.6381061375
 20
9.0581443509
 11
9.6453505814
 21
9.0673012059
  0
LINE
  5
2A8
100
AcDbEntity
  8
0
100
AcDbLine
 62
4
  6
CONTINUOUS
 10
9.7033061331
 20
8.9860079061
 11
9.6888172452
 21
8.9676941944
  0
LINE
  5
2A9
100
AcDbEntity
  8
0
100
AcDbLine
 62
4
  6
CONTINUOUS
 10
9.6743283573
 20
7.6917449517
 11
9.6598394693
 21
7.7024090158
  0
LINE
  5
2AA
100
AcDbEntity
  8
0
100
AcDbLine
 62
4
  6
CONTINUOUS
 10
10.1341781197
 20
7.4383812515
 11
10.1424574526
 21
7.4322875018
  0
LINE
  5
2AB
100
AcDbEntity
  8
0
100
AcDbLine
 62
4
  6
CONTINUOUS
 10
10.1755748949
 20
7.4244712234
 11
10.1838542279
 21
7.4183774737
  0
LINE
  5
2AC
100
AcDbEntity
  8
0
100
AcDbLine
 62
4
  6
CONTINUOUS
 10
10.1424574526
 20
7.3881308902
 11
10.1341781197
 21
7.3969844314
  0
LINE
  5
2AD
100
AcDbEntity
  8
0
100
AcDbLine
 62
4
  6
CONTINUOUS
 10
10.1838542279
 20
7.4597742964
 11
10.1755748949
 21
7.468627835
  0
LINE
  5
2AE
100
AcDbEntity
  8
0
100
AcDbLine
 62
4
  6
CONTINUOUS
 10
10.6885505636
 20
6.7404840032
 11
10.6813061196
 21
6.7506456703
  0
LINE
  5
2AF
100
AcDbEntity
  8
0
100
AcDbLine
 62
4
  6
CONTINUOUS
 10
9.6453505814
 20
9.0673012059
 11
9.6598394693
 21
9.0759556571
  0
LINE
  5
2B0
100
AcDbEntity
  8
0
100
AcDbLine
 62
4
  6
CONTINUOUS
 10
11.202216096
 20
7.2815189225
 11
11.1690986381
 21
7.283815626
  0
LINE
  5
2B1
100
AcDbEntity
  8
0
100
AcDbLine
 62
4
  6
CONTINUOUS
 10
10.3025251642
 20
7.3439127005
 11
10.2997653866
 21
7.3441040917
  0
LINE
  5
2B2
100
AcDbEntity
  8
0
100
AcDbLine
 62
4
  6
CONTINUOUS
 10
10.8544827944
 20
7.338751765
 11
10.8130859638
 21
7.341622645
  0
LINE
  5
2B3
100
AcDbEntity
  8
0
100
AcDbLine
 62
4
  6
CONTINUOUS
 10
10.6833759169
 20
7.3506180673
 11
10.6502584745
 21
7.3529147697
  0
LINE
  5
2B4
100
AcDbEntity
  8
0
100
AcDbLine
 62
4
  6
CONTINUOUS
 10
10.6171409769
 20
7.3552114759
 11
10.5840235346
 21
7.3575081784
  0
LINE
  5
2B5
100
AcDbEntity
  8
0
100
AcDbLine
 62
4
  6
CONTINUOUS
 10
10.2500892231
 20
7.3806666015
 11
10.2169716702
 21
7.3829633116
  0
LINE
  5
2B6
100
AcDbEntity
  8
0
100
AcDbLine
 62
4
  6
CONTINUOUS
 10
10.1755748949
 20
7.3858341877
 11
10.1424574526
 21
7.3881308902
  0
LINE
  5
2B7
100
AcDbEntity
  8
0
100
AcDbLine
 62
4
  6
CONTINUOUS
 10
10.5012298735
 20
7.3632499383
 11
10.542626704
 21
7.3603790583
  0
LINE
  5
2B8
100
AcDbEntity
  8
0
100
AcDbLine
 62
4
  6
CONTINUOUS
 10
10.5260679829
 20
7.4029242332
 11
10.4929505405
 21
7.4052209356
  0
LINE
  5
2B9
100
AcDbEntity
  8
0
100
AcDbLine
 62
4
  6
CONTINUOUS
 10
11.2104954609
 20
7.39685585
 11
11.1773780022
 21
7.3991525536
  0
LINE
  5
2BA
100
AcDbEntity
  8
0
100
AcDbLine
 62
4
  6
CONTINUOUS
 10
11.1111430899
 20
7.4037459603
 11
11.0863049874
 21
7.4054684886
  0
LINE
  5
2BB
100
AcDbEntity
  8
0
100
AcDbLine
 62
4
  6
CONTINUOUS
 10
10.45155371
 20
7.4494886392
 11
10.4101568794
 21
7.4523595191
  0
LINE
  5
2BC
100
AcDbEntity
  8
0
100
AcDbLine
 62
4
  6
CONTINUOUS
 10
10.1755748949
 20
7.468627835
 11
10.1424574526
 21
7.4709245375
  0
LINE
  5
2BD
100
AcDbEntity
  8
0
100
AcDbLine
 62
4
  6
CONTINUOUS
 10
10.2169716702
 20
7.4657569589
 11
10.2500892231
 21
7.4634602488
  0
LINE
  5
2BE
100
AcDbEntity
  8
0
100
AcDbLine
 62
4
  6
CONTINUOUS
 10
10.3522013277
 20
7.4563787503
 11
10.3687600489
 21
7.4552303991
  0
LINE
  5
2BF
100
AcDbEntity
  8
0
100
AcDbLine
 62
4
  6
CONTINUOUS
 10
10.4929505405
 20
7.4466177592
 11
10.5260679829
 21
7.4443210568
  0
LINE
  5
2C0
100
AcDbEntity
  8
0
100
AcDbLine
 62
4
  6
CONTINUOUS
 10
10.6502584745
 20
7.435708417
 11
10.6833759169
 21
7.4334117145
  0
LINE
  5
2C1
100
AcDbEntity
  8
0
100
AcDbLine
 62
4
  6
CONTINUOUS
 10
10.1424574526
 20
7.4322875018
 11
10.1755748949
 21
7.4244712234
  0
LINE
  5
2C2
100
AcDbEntity
  8
0
100
AcDbLine
 62
4
  6
CONTINUOUS
 10
10.5260679829
 20
7.4443210568
 11
10.542626704
 21
7.4348933407
  0
LINE
  5
2C3
100
AcDbEntity
  8
0
100
AcDbLine
 62
4
  6
CONTINUOUS
 10
10.6833759169
 20
7.4334117145
 11
10.699934638
 21
7.4239839984
  0
LINE
  5
2C4
100
AcDbEntity
  8
0
100
AcDbLine
 62
4
  6
CONTINUOUS
 10
10.2500892231
 20
7.4634602488
 11
10.258368556
 21
7.4546067102
  0
LINE
  5
2C5
100
AcDbEntity
  8
0
100
AcDbLine
 62
4
  6
CONTINUOUS
 10
10.3687600489
 20
7.4552303991
 11
10.3770394371
 21
7.4463768567
  0
LINE
  5
2C6
100
AcDbEntity
  8
0
100
AcDbLine
 62
4
  6
CONTINUOUS
 10
10.4598330982
 20
7.4406350968
 11
10.45155371
 21
7.4494886392
  0
LINE
  5
2C7
100
AcDbEntity
  8
0
100
AcDbLine
 62
4
  6
CONTINUOUS
 10
10.6885505636
 20
6.7887802986
 11
10.6740616757
 21
6.8091036225
  0
LINE
  5
2C8
100
AcDbEntity
  8
0
100
AcDbLine
 62
4
  6
CONTINUOUS
 10
10.7320172274
 20
6.834062168
 11
10.7392616713
 21
6.8239005052
  0
LINE
  5
2C9
100
AcDbEntity
  8
0
100
AcDbLine
 62
4
  6
CONTINUOUS
 10
9.7033061331
 20
9.0439634578
 11
9.7105505771
 21
9.0144832781
  0
LINE
  5
2CA
100
AcDbEntity
  8
0
100
AcDbLine
 62
4
  6
CONTINUOUS
 10
9.7033061331
 20
7.7766686636
 11
9.7105505771
 21
7.8051440356
  0
LINE
  5
2CB
100
AcDbEntity
  8
0
100
AcDbLine
 62
4
  6
CONTINUOUS
 10
9.6888172452
 20
8.9676941944
 11
9.6743283573
 21
8.9590397458
  0
LINE
  5
2CC
100
AcDbEntity
  8
0
100
AcDbLine
 62
4
  6
CONTINUOUS
 10
10.7716891333
 20
7.454885054
 11
10.7551304121
 21
7.4560334053
  0
LINE
  5
2CD
100
AcDbEntity
  8
0
100
AcDbLine
 62
4
  6
CONTINUOUS
 10
11.7414097477
 20
7.5483923703
 11
11.7269208598
 21
7.5493971781
  0
LINE
  5
2CE
100
AcDbEntity
  8
0
100
AcDbLine
 62
4
  6
CONTINUOUS
 10
9.6888172452
 20
7.6907401439
 11
9.6743283573
 21
7.6917449517
  0
LINE
  5
2CF
100
AcDbEntity
  8
0
100
AcDbLine
 62
4
  6
CONTINUOUS
 10
10.8130859638
 20
7.341622645
 11
10.8048066032
 21
7.3504761881
  0
LINE
  5
2D0
100
AcDbEntity
  8
0
100
AcDbLine
 62
4
  6
CONTINUOUS
 10
10.5840235346
 20
7.3575081784
 11
10.5785039793
 21
7.3661703283
  0
LINE
  5
2D1
100
AcDbEntity
  8
0
100
AcDbLine
 62
4
  6
CONTINUOUS
 10
10.4929505405
 20
7.38038284
 11
10.5012298735
 21
7.3632499383
  0
LINE
  5
2D2
100
AcDbEntity
  8
0
100
AcDbLine
 62
4
  6
CONTINUOUS
 10
10.1341781197
 20
7.4632193462
 11
10.1341781197
 21
7.4383812515
  0
LINE
  5
2D3
100
AcDbEntity
  8
0
100
AcDbLine
 62
4
  6
CONTINUOUS
 10
10.1838542279
 20
7.4183774737
 11
10.1838542279
 21
7.3935393815
  0
LINE
  5
2D4
100
AcDbEntity
  8
0
100
AcDbLine
 62
4
  6
CONTINUOUS
 10
10.258368556
 20
7.4546067102
 11
10.258368556
 21
7.3883717953
  0
LINE
  5
2D5
100
AcDbEntity
  8
0
100
AcDbLine
 62
4
  6
CONTINUOUS
 10
10.7923875712
 20
7.6460828272
 11
10.7427113836
 21
7.6495278825
  0
LINE
  5
2D6
100
AcDbEntity
  8
0
100
AcDbLine
 62
4
  6
CONTINUOUS
 10
10.709593924
 20
7.6518245861
 11
10.6599177328
 21
7.6552696417
  0
LINE
  5
2D7
100
AcDbEntity
  8
0
100
AcDbLine
 62
4
  6
CONTINUOUS
 10
10.6764764678
 20
7.7037974737
 11
10.709593924
 21
7.7015007703
  0
LINE
  5
2D8
100
AcDbEntity
  8
0
100
AcDbLine
 62
4
  6
CONTINUOUS
 10
10.7592701116
 20
7.698055715
 11
10.7923875712
 21
7.6957590114
  0
LINE
  5
2D9
100
AcDbEntity
  8
0
100
AcDbLine
 62
4
  6
CONTINUOUS
 10
11.7631430796
 20
7.6627962621
 11
11.7051875279
 21
7.6668154932
  0
LINE
  5
2DA
100
AcDbEntity
  8
0
100
AcDbLine
 62
4
  6
CONTINUOUS
 10
9.7105505771
 20
7.8051440356
 11
9.6525950254
 21
7.8091632668
  0
LINE
  5
2DB
100
AcDbEntity
  8
0
100
AcDbLine
 62
4
  6
CONTINUOUS
 10
10.7923875712
 20
7.7619939306
 11
10.7427113836
 21
7.7654389859
  0
LINE
  5
2DC
100
AcDbEntity
  8
0
100
AcDbLine
 62
4
  6
CONTINUOUS
 10
10.709593924
 20
7.7677356895
 11
10.6764764678
 21
7.7700323929
  0
LINE
  5
2DD
100
AcDbEntity
  8
0
100
AcDbLine
 62
4
  6
CONTINUOUS
 10
10.2390500374
 20
7.9836179512
 11
10.1948934292
 21
8.0087585299
  0
LINE
  5
2DE
100
AcDbEntity
  8
0
100
AcDbLine
 62
4
  6
CONTINUOUS
 10
11.1608192741
 20
7.3671834457
 11
11.2187748258
 21
7.3134880268
  0
LINE
  5
2DF
100
AcDbEntity
  8
0
100
AcDbLine
 62
4
  6
CONTINUOUS
 10
10.3853188056
 20
7.9293175695
 11
10.3687600844
 21
7.9470246488
  0
LINE
  5
2E0
100
AcDbEntity
  8
0
100
AcDbLine
 62
4
  6
CONTINUOUS
 10
10.6599177328
 20
7.7215045574
 11
10.6764764678
 21
7.7037974737
  0
LINE
  5
2E1
100
AcDbEntity
  8
0
100
AcDbLine
 62
4
  6
CONTINUOUS
 10
10.4763917996
 20
7.9230016359
 11
10.4598330784
 21
7.9407087152
  0
LINE
  5
2E2
100
AcDbEntity
  8
0
100
AcDbLine
 62
4
  6
CONTINUOUS
 10
9.6453505814
 20
8.9707086177
 11
9.6381061375
 21
8.9808702849
  0
LINE
  5
2E3
100
AcDbEntity
  8
0
100
AcDbLine
 62
4
  6
CONTINUOUS
 10
9.6888172452
 20
9.0642867826
 11
9.7033061331
 21
9.0439634578
  0
LINE
  5
2E4
100
AcDbEntity
  8
0
100
AcDbLine
 62
4
  6
CONTINUOUS
 10
10.3025251642
 20
7.4598238039
 11
10.3025251642
 21
7.3770301567
  0
LINE
  5
2E5
100
AcDbEntity
  8
0
100
AcDbLine
 62
4
  6
CONTINUOUS
 10
10.3025251642
 20
7.352192068
 11
10.3025251642
 21
7.3439127005
  0
LINE
  5
2E6
100
AcDbEntity
  8
0
100
AcDbLine
 62
4
  6
CONTINUOUS
 10
10.3218436433
 20
8.0496306904
 11
10.3218436433
 21
7.9337195869
  0
LINE
  5
2E7
100
AcDbEntity
  8
0
100
AcDbLine
 62
4
  6
CONTINUOUS
 10
10.3687600844
 20
7.9470246488
 11
10.3687600844
 21
8.0298182943
  0
LINE
  5
2E8
100
AcDbEntity
  8
0
100
AcDbLine
 62
4
  6
CONTINUOUS
 10
10.3770394371
 20
7.4463768567
 11
10.3770394371
 21
7.3387451181
  0
LINE
  5
2E9
100
AcDbEntity
  8
0
100
AcDbLine
 62
4
  6
CONTINUOUS
 10
10.4101568794
 20
7.4523595191
 11
10.4101568794
 21
7.3695658719
  0
LINE
  5
2EA
100
AcDbEntity
  8
0
100
AcDbLine
 62
4
  6
CONTINUOUS
 10
10.4267156361
 20
8.042357793
 11
10.4267156361
 21
7.9264466895
  0
LINE
  5
2EB
100
AcDbEntity
  8
0
100
AcDbLine
 62
4
  6
CONTINUOUS
 10
10.4598330982
 20
7.3661208144
 11
10.4598330982
 21
7.4406350968
  0
LINE
  5
2EC
100
AcDbEntity
  8
0
100
AcDbLine
 62
4
  6
CONTINUOUS
 10
10.4598330784
 20
7.9407087152
 11
10.4598330784
 21
8.0235023607
  0
LINE
  5
2ED
100
AcDbEntity
  8
0
100
AcDbLine
 62
4
  6
CONTINUOUS
 10
9.6525950254
 20
7.7318891955
 11
9.6598394693
 21
7.7410460548
  0
LINE
  5
2EE
100
AcDbEntity
  8
0
100
AcDbLine
 62
4
  6
CONTINUOUS
 10
9.6888172452
 20
7.7583549553
 11
9.7033061331
 21
7.7766686636
  0
LINE
  5
2EF
100
AcDbEntity
  8
0
100
AcDbLine
 62
4
  6
CONTINUOUS
 10
11.0918245575
 20
7.8803212292
 11
11.0504277407
 21
7.8831921082
  0
LINE
  5
2F0
100
AcDbEntity
  8
0
100
AcDbLine
 62
4
  6
CONTINUOUS
 10
10.8876002445
 20
7.8944842334
 11
10.8213653322
 21
7.8990776402
  0
LINE
  5
2F1
100
AcDbEntity
  8
0
100
AcDbLine
 62
4
  6
CONTINUOUS
 10
10.7882478623
 20
7.9013743445
 11
10.7385716711
 21
7.9048194001
  0
LINE
  5
2F2
100
AcDbEntity
  8
0
100
AcDbLine
 62
4
  6
CONTINUOUS
 10
10.5978224583
 20
7.9145803911
 11
10.564705016
 21
7.9168770935
  0
LINE
  5
2F3
100
AcDbEntity
  8
0
100
AcDbLine
 62
4
  6
CONTINUOUS
 10
10.501229909
 20
7.9212791072
 11
10.4763917996
 21
7.9230016359
  0
LINE
  5
2F4
100
AcDbEntity
  8
0
100
AcDbLine
 62
4
  6
CONTINUOUS
 10
10.4267156361
 20
7.9264466895
 11
10.3853188056
 21
7.9293175695
  0
LINE
  5
2F5
100
AcDbEntity
  8
0
100
AcDbLine
 62
4
  6
CONTINUOUS
 10
10.3218436433
 20
7.9337195869
 11
10.2721674798
 21
7.9371646406
  0
LINE
  5
2F6
100
AcDbEntity
  8
0
100
AcDbLine
 62
4
  6
CONTINUOUS
 10
10.2887262009
 20
7.9856924736
 11
10.3218436433
 21
7.9833957712
  0
LINE
  5
2F7
100
AcDbEntity
  8
0
100
AcDbLine
 62
4
  6
CONTINUOUS
 10
10.7551303923
 20
7.9533472331
 11
10.7882478623
 21
7.9510505287
  0
LINE
  5
2F8
100
AcDbEntity
  8
0
100
AcDbLine
 62
4
  6
CONTINUOUS
 10
10.9759134609
 20
7.9711533349
 11
10.9317568527
 21
7.974215606
  0
LINE
  5
2F9
100
AcDbEntity
  8
0
100
AcDbLine
 62
4
  6
CONTINUOUS
 10
11.1690986381
 20
7.283815626
 11
11.1608192741
 21
7.2926691693
  0
LINE
  5
2FA
100
AcDbEntity
  8
0
100
AcDbLine
 62
4
  6
CONTINUOUS
 10
10.501229909
 20
8.0371902106
 11
10.5177886302
 21
8.0194831296
  0
LINE
  5
2FB
100
AcDbEntity
  8
0
100
AcDbLine
 62
4
  6
CONTINUOUS
 10
11.127701818
 20
7.3860388788
 11
11.1111430899
 21
7.4037459603
  0
LINE
  5
2FC
100
AcDbEntity
  8
0
100
AcDbLine
 62
4
  6
CONTINUOUS
 10
10.5978224583
 20
8.0304914945
 11
10.6143811795
 21
8.0127844135
  0
LINE
  5
2FD
100
AcDbEntity
  8
0
100
AcDbLine
 62
4
  6
CONTINUOUS
 10
11.2187748258
 20
7.3880023092
 11
11.2104954609
 21
7.39685585
  0
LINE
  5
2FE
100
AcDbEntity
  8
0
100
AcDbLine
 62
4
  6
CONTINUOUS
 10
10.7716891333
 20
7.3444935249
 11
10.7468510239
 21
7.4290097009
  0
LINE
  5
2FF
100
AcDbEntity
  8
0
100
AcDbLine
 62
4
  6
CONTINUOUS
 10
10.6268002767
 20
7.657566345
 11
10.5936828205
 21
7.7757741519
  0
LINE
  5
300
100
AcDbEntity
  8
0
100
AcDbLine
 62
4
  6
CONTINUOUS
 10
10.4929505405
 20
7.4466177592
 11
10.4929505405
 21
7.38038284
  0
LINE
  5
301
100
AcDbEntity
  8
0
100
AcDbLine
 62
4
  6
CONTINUOUS
 10
10.5177886302
 20
8.0194831296
 11
10.5177886302
 21
7.936689484
  0
LINE
  5
302
100
AcDbEntity
  8
0
100
AcDbLine
 62
4
  6
CONTINUOUS
 10
10.542626704
 20
7.4348933407
 11
10.542626704
 21
7.410055246
  0
LINE
  5
303
100
AcDbEntity
  8
0
100
AcDbLine
 62
4
  6
CONTINUOUS
 10
10.5785039793
 20
7.3661703283
 11
10.5785039793
 21
7.3827290564
  0
LINE
  5
304
100
AcDbEntity
  8
0
100
AcDbLine
 62
4
  6
CONTINUOUS
 10
10.6143811795
 20
8.0127844135
 11
10.6143811795
 21
7.929990768
  0
LINE
  5
305
100
AcDbEntity
  8
0
100
AcDbLine
 62
4
  6
CONTINUOUS
 10
10.6171409769
 20
7.4380051232
 11
10.6171409769
 21
7.3552114759
  0
LINE
  5
306
100
AcDbEntity
  8
0
100
AcDbLine
 62
4
  6
CONTINUOUS
 10
10.6502584745
 20
7.3197973135
 11
10.6502584745
 21
7.435708417
  0
LINE
  5
307
100
AcDbEntity
  8
0
100
AcDbLine
 62
4
  6
CONTINUOUS
 10
9.7105505771
 20
7.7085514517
 11
9.7033061331
 21
7.6993945924
  0
LINE
  5
308
100
AcDbEntity
  8
0
100
AcDbLine
 62
7
  6
CONTINUOUS
 10
12.0559560582
 20
10.1957633737
 11
12.0571750287
 21
10.1969189081
  0
LINE
  5
309
100
AcDbEntity
  8
0
100
AcDbLine
 62
7
  6
CONTINUOUS
 10
11.9967049262
 20
10.1406239753
 11
12.0559560624
 21
10.1957633776
  0
LINE
  5
30A
100
AcDbEntity
  8
0
100
AcDbLine
 62
4
  6
CONTINUOUS
 10
10.7882478623
 20
8.0172854479
 11
10.7385716711
 21
8.0207305035
  0
LINE
  5
30B
100
AcDbEntity
  8
0
100
AcDbLine
 62
4
  6
CONTINUOUS
 10
10.3218436433
 20
8.0496306904
 11
10.2721674798
 21
8.053075744
  0
LINE
  5
30C
100
AcDbEntity
  8
0
100
AcDbLine
 62
4
  6
CONTINUOUS
 10
10.3853188056
 20
8.0452286729
 11
10.4267156361
 21
8.042357793
  0
LINE
  5
30D
100
AcDbEntity
  8
0
100
AcDbLine
 62
4
  6
CONTINUOUS
 10
10.4763917996
 20
8.0389127393
 11
10.501229909
 21
8.0371902106
  0
LINE
  5
30E
100
AcDbEntity
  8
0
100
AcDbLine
 62
4
  6
CONTINUOUS
 10
10.564705016
 20
8.032788197
 11
10.5978224583
 21
8.0304914945
  0
LINE
  5
30F
100
AcDbEntity
  8
0
100
AcDbLine
 62
4
  6
CONTINUOUS
 10
11.0504277407
 20
7.9991032116
 11
11.0918245575
 21
7.9962323326
  0
LINE
  5
310
100
AcDbEntity
  8
0
100
AcDbLine
 62
4
  6
CONTINUOUS
 10
11.1580594767
 20
7.9419627377
 11
11.113902865
 21
7.9671033149
  0
LINE
  5
311
100
AcDbEntity
  8
0
100
AcDbLine
 62
4
  6
CONTINUOUS
 10
9.6598394693
 20
8.9600445536
 11
9.6453505814
 21
8.9707086177
  0
LINE
  5
312
100
AcDbEntity
  8
0
100
AcDbLine
 62
4
  6
CONTINUOUS
 10
11.0504277407
 20
7.8831921082
 11
11.0338690127
 21
7.9008991879
  0
LINE
  5
313
100
AcDbEntity
  8
0
100
AcDbLine
 62
4
  6
CONTINUOUS
 10
11.0366288101
 20
7.2930024398
 11
10.9786732584
 21
7.4129327744
  0
LINE
  5
314
100
AcDbEntity
  8
0
100
AcDbLine
 62
4
  6
CONTINUOUS
 10
10.6599177328
 20
7.7546220153
 11
10.6599177328
 21
7.7215045574
  0
LINE
  5
315
100
AcDbEntity
  8
0
100
AcDbLine
 62
4
  6
CONTINUOUS
 10
10.6740616757
 20
6.8091036225
 11
10.6740616757
 21
6.8187628823
  0
LINE
  5
316
100
AcDbEntity
  8
0
100
AcDbLine
 62
4
  6
CONTINUOUS
 10
10.6813061196
 20
6.7506456703
 11
10.6813061196
 21
6.7603049266
  0
LINE
  5
317
100
AcDbEntity
  8
0
100
AcDbLine
 62
4
  6
CONTINUOUS
 10
10.699934638
 20
7.4239839984
 11
10.699934638
 21
7.3577490835
  0
LINE
  5
318
100
AcDbEntity
  8
0
100
AcDbLine
 62
4
  6
CONTINUOUS
 10
10.709593924
 20
7.7015007703
 11
10.709593924
 21
7.6518245861
  0
LINE
  5
319
100
AcDbEntity
  8
0
100
AcDbLine
 62
4
  6
CONTINUOUS
 10
10.7882478623
 20
8.0172854479
 11
10.7882478623
 21
7.9013743445
  0
LINE
  5
31A
100
AcDbEntity
  8
0
100
AcDbLine
 62
4
  6
CONTINUOUS
 10
10.7923875712
 20
7.7619939306
 11
10.7923875712
 21
7.6460828272
  0
LINE
  5
31B
100
AcDbEntity
  8
0
100
AcDbLine
 62
4
  6
CONTINUOUS
 10
10.8048066032
 20
7.3504761881
 11
10.8048066032
 21
7.4249904678
  0
LINE
  5
31C
100
AcDbEntity
  8
0
100
AcDbLine
 62
4
  6
CONTINUOUS
 10
10.5936828205
 20
7.7757741519
 11
10.5605653644
 21
7.6621597518
  0
LINE
  5
31D
100
AcDbEntity
  8
0
100
AcDbLine
 62
4
  6
CONTINUOUS
 10
10.2997653866
 20
7.3441040917
 11
10.3025251642
 21
7.352192068
  0
LINE
  5
31E
100
AcDbEntity
  8
0
100
AcDbLine
 62
4
  6
CONTINUOUS
 10
12.0814005657
 20
9.9013204345
 11
12.0852828481
 21
9.9050704315
  0
LINE
  5
31F
100
AcDbEntity
  8
0
100
AcDbLine
 62
4
  6
CONTINUOUS
 10
12.1435170839
 20
9.9613203872
 11
12.1473993663
 21
9.9650703842
  0
LINE
  5
320
100
AcDbEntity
  8
0
100
AcDbLine
 62
4
  6
CONTINUOUS
 10
12.1687519194
 20
9.9856953679
 11
12.1765164841
 21
9.993195362
  0
LINE
  5
321
100
AcDbEntity
  8
0
100
AcDbLine
 62
4
  6
CONTINUOUS
 10
12.2924275876
 20
9.9851568997
 11
12.2846630228
 21
9.9776569056
  0
LINE
  5
322
100
AcDbEntity
  8
0
100
AcDbLine
 62
4
  6
CONTINUOUS
 10
12.2633104697
 20
9.9570319219
 11
12.2594281873
 21
9.9532819248
  0
LINE
  5
323
100
AcDbEntity
  8
0
100
AcDbLine
 62
4
  6
CONTINUOUS
 10
12.2011939515
 20
9.8970319692
 11
12.1973116691
 21
9.8932819721
  0
LINE
  5
324
100
AcDbEntity
  8
0
100
AcDbLine
 62
4
  6
CONTINUOUS
 10
11.7269208598
 20
7.5493971781
 11
11.7124319718
 21
7.5600612422
  0
LINE
  5
325
100
AcDbEntity
  8
0
100
AcDbLine
 62
4
  6
CONTINUOUS
 10
9.6743283573
 20
9.0749508493
 11
9.6888172452
 21
9.0642867826
  0
LINE
  5
326
100
AcDbEntity
  8
0
100
AcDbLine
 62
4
  6
CONTINUOUS
 10
10.9538351568
 20
7.8898908266
 11
10.9207176869
 21
8.0080986344
  0
LINE
  5
327
100
AcDbEntity
  8
0
100
AcDbLine
 62
4
  6
CONTINUOUS
 10
10.8544827746
 20
8.0126920412
 11
10.8544827746
 21
7.8967809377
  0
LINE
  5
328
100
AcDbEntity
  8
0
100
AcDbLine
 62
4
  6
CONTINUOUS
 10
10.8544827944
 20
7.4215454123
 11
10.8544827944
 21
7.3056343089
  0
LINE
  5
329
100
AcDbEntity
  8
0
100
AcDbLine
 62
4
  6
CONTINUOUS
 10
10.9786732584
 20
7.4129327744
 11
10.9786732584
 21
7.2970216709
  0
LINE
  5
32A
100
AcDbEntity
  8
0
100
AcDbLine
 62
7
  6
CONTINUOUS
 10
11.883883815
 20
9.4655338952
 11
12.5309308938
 21
10.0905334165
  0
LINE
  5
32B
100
AcDbEntity
  8
0
100
AcDbLine
 62
4
  6
CONTINUOUS
 10
10.3687600844
 20
8.0298182943
 11
10.3853188056
 21
8.0452286729
  0
LINE
  5
32C
100
AcDbEntity
  8
0
100
AcDbLine
 62
4
  6
CONTINUOUS
 10
10.4598330784
 20
8.0235023607
 11
10.4763917996
 21
8.0389127393
  0
LINE
  5
32D
100
AcDbEntity
  8
0
100
AcDbLine
 62
4
  6
CONTINUOUS
 10
9.6598394693
 20
7.7410460548
 11
9.6888172452
 21
7.7583549553
  0
LINE
  5
32E
100
AcDbEntity
  8
0
100
AcDbLine
 62
4
  6
CONTINUOUS
 10
9.7033061331
 20
7.6993945924
 11
9.6888172452
 21
7.6907401439
  0
LINE
  5
32F
100
AcDbEntity
  8
0
100
AcDbLine
 62
4
  6
CONTINUOUS
 10
11.0338690127
 20
7.9008991879
 11
11.0338690127
 21
7.9836928335
  0
LINE
  5
330
100
AcDbEntity
  8
0
100
AcDbLine
 62
4
  6
CONTINUOUS
 10
11.0366288101
 20
7.4089135432
 11
11.0366288101
 21
7.2930024398
  0
LINE
  5
331
100
AcDbEntity
  8
0
100
AcDbLine
 62
4
  6
CONTINUOUS
 10
11.0697462662
 20
7.39005811
 11
11.0697462662
 21
7.2907057364
  0
LINE
  5
332
100
AcDbEntity
  8
0
100
AcDbLine
 62
4
  6
CONTINUOUS
 10
11.0918245575
 20
7.9962323326
 11
11.0918245575
 21
7.8803212292
  0
LINE
  5
333
100
AcDbEntity
  8
0
100
AcDbLine
 62
7
  6
CONTINUOUS
 10
11.1057018541
 20
10.2549688138
 11
11.1057018541
 21
10.6755680395
  0
LINE
  5
334
100
AcDbEntity
  8
0
100
AcDbLine
 62
4
  6
CONTINUOUS
 10
11.127701818
 20
7.2866865052
 11
11.127701818
 21
7.3860388788
  0
LINE
  5
335
100
AcDbEntity
  8
0
100
AcDbLine
 62
7
  6
CONTINUOUS
 10
11.1573372717
 20
9.9758463684
 11
11.1573372717
 21
10.155847147
  0
LINE
  5
336
100
AcDbEntity
  8
0
100
AcDbLine
 62
4
  6
CONTINUOUS
 10
11.1608192741
 20
7.3837421755
 11
11.1608192741
 21
7.3671834457
  0
LINE
  5
337
100
AcDbEntity
  8
0
100
AcDbLine
 62
4
  6
CONTINUOUS
 10
10.986952613
 20
8.0035052267
 11
10.9538351568
 21
7.8898908266
  0
LINE
  5
338
100
AcDbEntity
  8
0
100
AcDbLine
 62
4
  6
CONTINUOUS
 10
10.7551304121
 20
7.4560334053
 11
10.7220129698
 21
7.3479385785
  0
LINE
  5
339
100
AcDbEntity
  8
0
100
AcDbLine
 62
4
  6
CONTINUOUS
 10
10.5177886302
 20
7.936689484
 11
10.501229909
 21
7.9212791072
  0
LINE
  5
33A
100
AcDbEntity
  8
0
100
AcDbLine
 62
4
  6
CONTINUOUS
 10
10.6143811795
 20
7.929990768
 11
10.5978224583
 21
7.9145803911
  0
LINE
  5
33B
100
AcDbEntity
  8
0
100
AcDbLine
 62
4
  6
CONTINUOUS
 10
10.1424574526
 20
7.4709245375
 11
10.1341781197
 21
7.4632193462
  0
LINE
  5
33C
100
AcDbEntity
  8
0
100
AcDbLine
 62
4
  6
CONTINUOUS
 10
10.1948934292
 20
8.0087585299
 11
10.2390500374
 21
8.0277745646
  0
LINE
  5
33D
100
AcDbEntity
  8
0
100
AcDbLine
 62
4
  6
CONTINUOUS
 10
11.7124319718
 20
7.5600612422
 11
11.7051875279
 21
7.5702229094
  0
LINE
  5
33E
100
AcDbEntity
  8
0
100
AcDbLine
 62
7
  6
CONTINUOUS
 10
11.218756666
 20
10.1457664379
 11
11.218756666
 21
10.5663656636
  0
LINE
  5
33F
100
AcDbEntity
  8
0
100
AcDbLine
 62
4
  6
CONTINUOUS
 10
11.2187748258
 20
7.3134880268
 11
11.2187748258
 21
7.2969292987
  0
LINE
  5
340
100
AcDbEntity
  8
0
100
AcDbLine
 62
7
  6
CONTINUOUS
 10
11.2606368935
 20
10.1349270511
 11
11.2606368935
 21
10.5555262769
  0
LINE
  5
341
100
AcDbEntity
  8
0
100
AcDbLine
 62
4
  6
CONTINUOUS
 10
10.1838542279
 20
7.3935393815
 11
10.1755748949
 21
7.3858341877
  0
LINE
  5
342
100
AcDbEntity
  8
0
100
AcDbLine
 62
4
  6
CONTINUOUS
 10
10.258368556
 20
7.3883717953
 11
10.2500892231
 21
7.3806666015
  0
LINE
  5
343
100
AcDbEntity
  8
0
100
AcDbLine
 62
4
  6
CONTINUOUS
 10
10.6764764678
 20
7.7700323929
 11
10.6599177328
 21
7.7546220153
  0
LINE
  5
344
100
AcDbEntity
  8
0
100
AcDbLine
 62
4
  6
CONTINUOUS
 10
9.6743283573
 20
8.9590397458
 11
9.6598394693
 21
8.9600445536
  0
LINE
  5
345
100
AcDbEntity
  8
0
100
AcDbLine
 62
4
  6
CONTINUOUS
 10
11.4279668564
 20
8.7176496233
 11
11.4279668564
 21
8.8335607267
  0
LINE
  5
346
100
AcDbEntity
  8
0
100
AcDbLine
 62
4
  6
CONTINUOUS
 10
11.0338690127
 20
7.9836928335
 11
11.0504277407
 21
7.9991032116
  0
LINE
  5
347
100
AcDbEntity
  8
0
100
AcDbLine
 62
4
  6
CONTINUOUS
 10
11.113902865
 20
7.9229467016
 11
11.1580594767
 21
7.9419627377
  0
LINE
  5
348
100
AcDbEntity
  8
0
100
AcDbLine
 62
4
  6
CONTINUOUS
 10
9.6670839133
 20
9.0174977015
 11
9.6381061375
 21
9.019507317
  0
LINE
  5
349
100
AcDbEntity
  8
0
100
AcDbLine
 62
4
  6
CONTINUOUS
 10
9.6598394693
 20
9.0759556571
 11
9.6743283573
 21
9.0749508493
  0
LINE
  5
34A
100
AcDbEntity
  8
0
100
AcDbLine
 62
7
  6
CONTINUOUS
 10
11.6825628724
 20
10.1056663851
 11
11.6825628724
 21
10.5262656108
  0
LINE
  5
34B
100
AcDbEntity
  8
0
100
AcDbLine
 62
4
  6
CONTINUOUS
 10
11.7051875279
 20
7.5702229094
 11
11.7051875279
 21
7.589541422
  0
LINE
  5
34C
100
AcDbEntity
  8
0
100
AcDbLine
 62
7
  6
CONTINUOUS
 10
11.7397723111
 20
10.1096338802
 11
11.7397723111
 21
10.5302331059
  0
LINE
  5
34D
100
AcDbEntity
  8
0
100
AcDbLine
 62
7
  6
CONTINUOUS
 10
11.883883815
 20
6.2055340384
 11
11.883883815
 21
9.4655338952
  0
LINE
  5
34E
100
AcDbEntity
  8
0
100
AcDbLine
 62
4
  6
CONTINUOUS
 10
10.6740616757
 20
6.8187628823
 11
10.6885505636
 21
6.8370765914
  0
LINE
  5
34F
100
AcDbEntity
  8
0
100
AcDbLine
 62
4
  6
CONTINUOUS
 10
10.6813061196
 20
6.7603049266
 11
10.6885505636
 21
6.7694617791
  0
LINE
  5
350
100
AcDbEntity
  8
0
100
AcDbLine
 62
4
  6
CONTINUOUS
 10
11.0863049874
 20
7.4054684886
 11
11.0697462662
 21
7.39005811
  0
LINE
  5
351
100
AcDbEntity
  8
0
100
AcDbLine
 62
4
  6
CONTINUOUS
 10
11.1773780022
 20
7.3991525536
 11
11.1608192741
 21
7.3837421755
  0
LINE
  5
352
100
AcDbEntity
  8
0
100
AcDbLine
 62
4
  6
CONTINUOUS
 10
10.542626704
 20
7.410055246
 11
10.5260679829
 21
7.4029242332
  0
LINE
  5
353
100
AcDbEntity
  8
0
100
AcDbLine
 62
4
  6
CONTINUOUS
 10
10.699934638
 20
7.3577490835
 11
10.6833759169
 21
7.3506180673
  0
LINE
  5
354
100
AcDbEntity
  8
0
100
AcDbLine
 62
7
  6
CONTINUOUS
 10
12.0123372717
 20
9.9759021612
 11
12.0123372717
 21
10.1551715138
  0
LINE
  5
355
100
AcDbEntity
  8
0
100
AcDbLine
 62
7
  6
CONTINUOUS
 10
12.0486434781
 20
10.18957559
 11
12.0486434781
 21
10.6101748158
  0
LINE
  5
356
100
AcDbEntity
  8
0
100
AcDbLine
 62
7
  6
CONTINUOUS
 10
12.0639726892
 20
10.2043824719
 11
12.0639726892
 21
10.6249816976
  0
LINE
  5
357
100
AcDbEntity
  8
0
100
AcDbLine
 62
4
  6
CONTINUOUS
 10
11.7558986356
 20
7.6343208901
 11
11.7631430796
 21
7.6627962621
  0
LINE
  5
358
100
AcDbEntity
  8
0
100
AcDbLine
 62
4
  6
CONTINUOUS
 10
11.7051875279
 20
7.589541422
 11
11.7124319718
 21
7.5986982813
  0
LINE
  5
359
100
AcDbEntity
  8
0
100
AcDbLine
 62
7
  6
CONTINUOUS
 10
12.2576720222
 20
8.3724283674
 11
12.2566572474
 21
8.3714661733
  0
LINE
  5
35A
100
AcDbEntity
  8
0
100
AcDbLine
 62
4
  6
CONTINUOUS
 10
11.2187748258
 20
7.2969292987
 11
11.202216096
 21
7.2815189225
  0
LINE
  5
35B
100
AcDbEntity
  8
0
100
AcDbLine
 62
4
  6
CONTINUOUS
 10
12.1973116691
 20
9.8932819721
 11
12.1837701278
 21
9.890201847
  0
LINE
  5
35C
100
AcDbEntity
  8
0
100
AcDbLine
 62
7
  6
CONTINUOUS
 10
9.4690691062
 20
9.6330018641
 11
11.883883815
 21
9.4655338952
  0
LINE
  5
35D
100
AcDbEntity
  8
0
100
AcDbLine
 62
4
  6
CONTINUOUS
 10
11.7414097477
 20
7.6160071818
 11
11.7558986356
 21
7.6343208901
  0
LINE
  5
35E
100
AcDbEntity
  8
0
100
AcDbLine
 62
4
  6
CONTINUOUS
 10
11.7631430796
 20
7.5662036782
 11
11.7558986356
 21
7.5570468189
  0
LINE
  5
35F
100
AcDbEntity
  8
0
100
AcDbLine
 62
4
  6
CONTINUOUS
 10
11.7124319718
 20
7.5986982813
 11
11.7414097477
 21
7.6160071818
  0
LINE
  5
360
100
AcDbEntity
  8
0
100
AcDbLine
 62
4
  6
CONTINUOUS
 10
11.7558986356
 20
7.5570468189
 11
11.7414097477
 21
7.5483923703
  0
LINE
  5
361
100
AcDbEntity
  8
0
100
AcDbLine
 62
4
  6
CONTINUOUS
 10
10.6885505636
 20
6.8370765914
 11
10.7030394515
 21
6.8457310425
  0
LINE
  5
362
100
AcDbEntity
  8
0
100
AcDbLine
 62
4
  6
CONTINUOUS
 10
12.0852828481
 20
9.9050704315
 11
12.0988243868
 21
9.9081505569
  0
LINE
  5
363
100
AcDbEntity
  8
0
100
AcDbLine
 62
4
  6
CONTINUOUS
 10
12.2594281873
 20
9.9532819248
 11
12.245886646
 21
9.9502017997
  0
LINE
  5
364
100
AcDbEntity
  8
0
100
AcDbLine
 62
4
  6
CONTINUOUS
 10
12.1473993663
 20
9.9650703842
 11
12.160940905
 21
9.9681505096
  0
LINE
  5
365
100
AcDbEntity
  8
0
100
AcDbLine
 62
4
  6
CONTINUOUS
 10
12.1765164841
 20
9.993195362
 11
12.1900580228
 21
9.9962754874
  0
LINE
  5
366
100
AcDbEntity
  8
0
100
AcDbLine
 62
4
  6
CONTINUOUS
 10
12.1837701278
 20
9.890201847
 11
12.1605693285
 21
9.8877915936
  0
LINE
  5
367
100
AcDbEntity
  8
0
100
AcDbLine
 62
4
  6
CONTINUOUS
 10
12.0988243868
 20
9.9081505569
 11
12.1104247912
 21
9.9093556832
  0
LINE
  5
368
100
AcDbEntity
  8
0
100
AcDbLine
 62
4
  6
CONTINUOUS
 10
10.6885505636
 20
6.7694617791
 11
10.7030394515
 21
6.7781162345
  0
LINE
  5
369
100
AcDbEntity
  8
0
100
AcDbLine
 62
4
  6
CONTINUOUS
 10
10.7320172274
 20
6.7374695798
 11
10.7175283394
 21
6.7288151313
  0
LINE
  5
36A
100
AcDbEntity
  8
0
100
AcDbLine
 62
4
  6
CONTINUOUS
 10
12.245886646
 20
9.9502017997
 11
12.2226858467
 21
9.9477915463
  0
LINE
  5
36B
100
AcDbEntity
  8
0
100
AcDbLine
 62
4
  6
CONTINUOUS
 10
12.160940905
 20
9.9681505096
 11
12.1725413094
 21
9.9693556359
  0
LINE
  5
36C
100
AcDbEntity
  8
0
100
AcDbLine
 62
4
  6
CONTINUOUS
 10
12.1900580228
 20
9.9962754874
 11
12.2132588248
 21
9.9986857405
  0
LINE
  5
36D
100
AcDbEntity
  8
0
100
AcDbLine
 62
4
  6
CONTINUOUS
 10
12.1066354012
 20
9.9256954153
 11
12.2380756342
 21
9.9326569411
  0
LINE
  5
36E
100
AcDbEntity
  8
0
100
AcDbLine
 62
4
  6
CONTINUOUS
 10
12.1605693285
 20
9.8877915936
 11
12.1296504114
 21
9.8879262107
  0
LINE
  5
36F
100
AcDbEntity
  8
0
100
AcDbLine
 62
4
  6
CONTINUOUS
 10
12.2226858467
 20
9.9477915463
 11
12.1917669296
 21
9.9479261634
  0
LINE
  5
370
100
AcDbEntity
  8
0
100
AcDbLine
 62
7
  6
CONTINUOUS
 10
11.1729696172
 20
10.1406239753
 11
11.1630332764
 21
10.1498707835
  0
LINE
  5
371
100
AcDbEntity
  8
0
100
AcDbLine
 62
7
  6
CONTINUOUS
 10
12.5309308938
 20
6.8305335596
 11
12.5309308938
 21
10.0905334165
  0
LINE
  5
372
100
AcDbEntity
  8
0
100
AcDbLine
 62
4
  6
CONTINUOUS
 10
12.2132588248
 20
9.9986857405
 11
12.2441777418
 21
9.9985511235
  0
LINE
  5
373
100
AcDbEntity
  8
0
100
AcDbLine
 62
4
  6
CONTINUOUS
 10
12.2846630228
 20
9.9776569056
 11
12.1687519194
 21
9.9856953679
  0
LINE
  5
374
100
AcDbEntity
  8
0
100
AcDbLine
 62
4
  6
CONTINUOUS
 10
12.1296504114
 20
9.8879262107
 11
12.1026137768
 21
9.8918108248
  0
LINE
  5
375
100
AcDbEntity
  8
0
100
AcDbLine
 62
4
  6
CONTINUOUS
 10
12.1917669296
 20
9.9479261634
 11
12.164730295
 21
9.9518107775
  0
LINE
  5
376
100
AcDbEntity
  8
0
100
AcDbLine
 62
4
  6
CONTINUOUS
 10
12.2441777418
 20
9.9985511235
 11
12.2712143765
 21
9.9946665094
  0
LINE
  5
377
100
AcDbEntity
  8
0
100
AcDbLine
 62
4
  6
CONTINUOUS
 10
12.2225465046
 20
9.9176569529
 11
12.1221645307
 21
9.9406954034
  0
LINE
  5
378
100
AcDbEntity
  8
0
100
AcDbLine
 62
4
  6
CONTINUOUS
 10
12.1026137768
 20
9.8918108248
 11
12.0871775396
 21
9.8969005657
  0
LINE
  5
379
100
AcDbEntity
  8
0
100
AcDbLine
 62
7
  6
CONTINUOUS
 10
12.5309308938
 20
10.0905334165
 11
12.0123372717
 21
10.1264980063
  0
LINE
  5
37A
100
AcDbEntity
  8
0
100
AcDbLine
 62
7
  6
CONTINUOUS
 10
11.1360899019
 20
10.1872659678
 11
10.116116185
 21
10.2580013853
  0
LINE
  5
37B
100
AcDbEntity
  8
0
100
AcDbLine
 62
4
  6
CONTINUOUS
 10
12.1876988573
 20
9.9039967085
 11
12.195416975
 21
9.9014518381
  0
LINE
  5
37C
100
AcDbEntity
  8
0
100
AcDbLine
 62
4
  6
CONTINUOUS
 10
12.164730295
 20
9.9518107775
 11
12.1492940578
 21
9.9569005184
  0
LINE
  5
37D
100
AcDbEntity
  8
0
100
AcDbLine
 62
4
  6
CONTINUOUS
 10
12.2498153755
 20
9.9639966612
 11
12.2575334932
 21
9.9614517908
  0
LINE
  5
37E
100
AcDbEntity
  8
0
100
AcDbLine
 62
4
  6
CONTINUOUS
 10
12.2712143765
 20
9.9946665094
 11
12.2866506111
 21
9.9895767686
  0
LINE
  5
37F
100
AcDbEntity
  8
0
100
AcDbLine
 62
4
  6
CONTINUOUS
 10
12.0871775396
 20
9.8969005657
 11
12.0814005657
 21
9.9013204345
  0
LINE
  5
380
100
AcDbEntity
  8
0
100
AcDbLine
 62
4
  6
CONTINUOUS
 10
12.195416975
 20
9.9014518381
 11
12.2011939515
 21
9.8970319692
  0
LINE
  5
381
100
AcDbEntity
  8
0
100
AcDbLine
 62
4
  6
CONTINUOUS
 10
12.1492940578
 20
9.9569005184
 11
12.1435170839
 21
9.9613203872
  0
LINE
  5
382
100
AcDbEntity
  8
0
100
AcDbLine
 62
4
  6
CONTINUOUS
 10
12.2575334932
 20
9.9614517908
 11
12.2633104697
 21
9.9570319219
  0
LINE
  5
383
100
AcDbEntity
  8
0
100
AcDbLine
 62
4
  6
CONTINUOUS
 10
12.2866506111
 20
9.9895767686
 11
12.2924275876
 21
9.9851568997
  0
LINE
  5
384
100
AcDbEntity
  8
0
100
AcDbLine
 62
7
  6
CONTINUOUS
 10
11.883883815
 20
6.2055340384
 11
12.5309308938
 21
6.8305335596
  0
LINE
  5
385
100
AcDbEntity
  8
0
100
AcDbLine
 62
7
  6
CONTINUOUS
 10
11.9820264336
 20
10.7267753587
 11
11.9657236094
 21
10.7348286417
  0
ARC
  5
386
100
AcDbEntity
  8
0
100
AcDbCircle
 62
7
  6
CONTINUOUS
 10
11.5926395283
 20
11.8167698324
 40
1.7134646816
100
AcDbArc
 50
273.0082884861
 51
274.9259735842
  0
ARC
  5
387
100
AcDbEntity
  8
0
100
AcDbCircle
 62
7
  6
CONTINUOUS
 10
11.5926395283
 20
12.2373690581
 40
1.7134646816
100
AcDbArc
 50
273.0082884861
 51
274.9259735842
  0
ARC
  5
388
100
AcDbEntity
  8
0
100
AcDbCircle
 62
7
  6
CONTINUOUS
 10
11.0875714742
 20
9.3144854223
 40
0.4977306779
100
AcDbArc
 50
261.9834714223
 51
266.0220251534
  0
ARC
  5
389
100
AcDbEntity
  8
0
100
AcDbCircle
 62
7
  6
CONTINUOUS
 10
11.1957255013
 20
9.3263796421
 40
0.3691119556
100
AcDbArc
 50
211.4447953126
 51
236.5827482155
  0
ARC
  5
38A
100
AcDbEntity
  8
0
100
AcDbCircle
 62
7
  6
CONTINUOUS
 10
10.8038870568
 20
9.0704211697
 40
0.2816051968
100
AcDbArc
 50
157.0281090398
 51
160.0515709158
  0
ARC
  5
38B
100
AcDbEntity
  8
0
100
AcDbCircle
 62
7
  6
CONTINUOUS
 10
10.8606879155
 20
8.8308657605
 40
0.1705580931
100
AcDbArc
 50
198.7149370405
 51
198.8974527446
  0
ARC
  5
38C
100
AcDbEntity
  8
0
100
AcDbCircle
 62
7
  6
CONTINUOUS
 10
10.7191792844
 20
8.7287243612
 40
0.14102199
100
AcDbArc
 50
116.2882859095
 51
116.4981890976
  0
ARC
  5
38D
100
AcDbEntity
  8
0
100
AcDbCircle
 62
7
  6
CONTINUOUS
 10
10.7137572334
 20
8.7394991947
 40
0.1289599232
100
AcDbArc
 50
116.4781720824
 51
119.0504725598
  0
SPLINE
  5
38E
100
AcDbEntity
  8
0
100
AcDbSpline
 62
7
  6
CONTINUOUS
 70
0
 71
3
 72
9
 73
5
 74
0
 42
0.0000001
 43
0.0000001
 44
0.0000000001
 40
0.0
 40
0.0
 40
0.0
 40
0.0
 40
0.4864210225
 40
1.0
 40
1.0
 40
1.0
 40
1.0
 10
12.0639726892
 20
10.2043824719
 30
0.0
 10
12.0629589822
 20
10.2030961218
 30
0.0
 10
12.0607724921
 20
10.200531337
 30
0.0
 10
12.058418773
 20
10.1981202729
 30
0.0
 10
12.0571750287
 20
10.1969189081
 30
0.0
  0
SPLINE
  5
38F
100
AcDbEntity
  8
0
100
AcDbSpline
 62
7
  6
CONTINUOUS
 70
0
 71
3
 72
9
 73
5
 74
0
 42
0.0000001
 43
0.0000001
 44
0.0000000001
 40
0.0
 40
0.0
 40
0.0
 40
0.0
 40
0.5135789775
 40
1.0
 40
1.0
 40
1.0
 40
1.0
 10
11.1124995146
 20
10.6830316033
 30
0.0
 10
11.1112557704
 20
10.6818302385
 30
0.0
 10
11.1089020513
 20
10.6794191744
 30
0.0
 10
11.1067155611
 20
10.6768543896
 30
0.0
 10
11.1057018541
 20
10.6755680395
 30
0.0
  0
SPLINE
  5
390
100
AcDbEntity
  8
0
100
AcDbSpline
 62
7
  6
CONTINUOUS
 70
0
 71
3
 72
9
 73
5
 74
0
 42
0.0000001
 43
0.0000001
 44
0.0000000001
 40
0.0
 40
0.0
 40
0.0
 40
0.0
 40
0.5134917843
 40
1.0
 40
1.0
 40
1.0
 40
1.0
 10
11.1210310652
 20
10.6903749213
 30
0.0
 10
11.119507432
 20
10.6891944273
 30
0.0
 10
11.1165941259
 20
10.6868247229
 30
0.0
 10
11.1138129846
 20
10.684300318
 30
0.0
 10
11.1124995146
 20
10.6830316033
 30
0.0
  0
SPLINE
  5
391
100
AcDbEntity
  8
0
100
AcDbSpline
 62
7
  6
CONTINUOUS
 70
0
 71
3
 72
21
 73
17
 74
0
 42
0.0000001
 43
0.0000001
 44
0.0000000001
 40
0.0
 40
0.0
 40
0.0
 40
0.0
 40
0.1552847778
 40
0.3037675224
 40
0.3751527953
 40
0.4444666907
 40
0.5115812513
 40
0.5763697456
 40
0.6387130726
 40
0.6985013802
 40
0.75563826
 40
0.8100514809
 40
0.8616894053
 40
0.9105385226
 40
0.9566200086
 40
1.0
 40
1.0
 40
1.0
 40
1.0
 10
11.1057018541
 20
10.2549688138
 30
0.0
 10
11.1079243451
 20
10.2491174602
 30
0.0
 10
11.1123849341
 20
10.2377134608
 30
0.0
 10
11.1182372904
 20
10.2237679362
 30
0.0
 10
11.1229944406
 20
10.213126004
 30
0.0
 10
11.12654272
 20
10.2055375905
 30
0.0
 10
11.1301173768
 20
10.1982565662
 30
0.0
 10
11.1337174722
 20
10.1913028841
 30
0.0
 10
11.1373416415
 20
10.1846964906
 30
0.0
 10
11.1409877262
 20
10.1784567054
 30
0.0
 10
11.1446541576
 20
10.1726025448
 30
0.0
 10
11.1483376195
 20
10.1671510233
 30
0.0
 10
11.1520359972
 20
10.1621182528
 30
0.0
 10
11.155745724
 20
10.1575173635
 30
0.0
 10
11.1594634306
 20
10.1533594943
 30
0.0
 10
11.1620207889
 20
10.1508132947
 30
0.0
 10
11.1633007859
 20
10.149622047
 30
0.0
  0
SPLINE
  5
392
100
AcDbEntity
  8
0
100
AcDbSpline
 62
7
  6
CONTINUOUS
 70
0
 71
3
 72
23
 73
19
 74
0
 42
0.0000001
 43
0.0000001
 44
0.0000000001
 40
0.0
 40
0.0
 40
0.0
 40
0.0
 40
0.0809714987
 40
0.1598878899
 40
0.2366108848
 40
0.3110078346
 40
0.3829543555
 40
0.452338501
 40
0.5190632519
 40
0.5830593386
 40
0.6442825111
 40
0.7027298252
 40
0.7584316548
 40
0.8114689998
 40
0.8619596659
 40
0.910071818
 40
0.9560056935
 40
1.0
 40
1.0
 40
1.0
 40
1.0
 10
12.0639726892
 20
10.6249816976
 30
0.0
 10
12.0623246238
 20
10.6281596458
 30
0.0
 10
12.0590255552
 20
10.6344118259
 30
0.0
 10
12.0539945276
 20
10.6435840611
 30
0.0
 10
12.0489422754
 20
10.6524113765
 30
0.0
 10
12.0438697389
 20
10.6608698339
 30
0.0
 10
12.0387776718
 20
10.6689355179
 30
0.0
 10
12.0336679421
 20
10.6765855521
 30
0.0
 10
12.0285417778
 20
10.6837977171
 30
0.0
 10
12.0234021044
 20
10.6905524746
 30
0.0
 10
12.0182505399
 20
10.6968319108
 30
0.0
 10
12.0130908716
 20
10.7026225478
 30
0.0
 10
12.0079249809
 20
10.7079131571
 30
0.0
 10
12.0027571408
 20
10.7126983934
 30
0.0
 10
11.9975894215
 20
10.7169752597
 30
0.0
 10
11.9924260285
 20
10.7207473571
 30
0.0
 10
11.9872695563
 20
10.7240200318
 30
0.0
 10
11.9837694257
 20
10.7259143385
 30
0.0
 10
11.9820255443
 20
10.726775798
 30
0.0
  0
SPLINE
  5
393
100
AcDbEntity
  8
0
100
AcDbSpline
 62
7
  6
CONTINUOUS
 70
0
 71
3
 72
46
 73
42
 74
0
 42
0.0000001
 43
0.0000001
 44
0.0000000001
 40
0.0
 40
0.0
 40
0.0
 40
0.0
 40
0.0099874877
 40
0.0204476974
 40
0.0313773321
 40
0.0427709641
 40
0.0546220461
 40
0.0669229866
 40
0.0928356094
 40
0.1204266613
 40
0.1495981687
 40
0.1802404541
 40
0.2122337752
 40
0.2454491038
 40
0.2797499018
 40
0.3149932014
 40
0.3510301972
 40
0.3877076002
 40
0.4248685405
 40
0.462353288
 40
0.500000408
 40
0.5376475404
 40
0.5751322603
 40
0.612293149
 40
0.6489704979
 40
0.6850073789
 40
0.7202505939
 40
0.7545513209
 40
0.7877664595
 40
0.8197596255
 40
0.8504018125
 40
0.8795730869
 40
0.9071639551
 40
0.9203360434
 40
0.9330775683
 40
0.945378314
 40
0.9572292775
 40
0.9686228886
 40
0.9795523843
 40
0.9900125565
 40
1.0
 40
1.0
 40
1.0
 40
1.0
 10
11.9657254847
 20
10.7348276615
 30
0.0
 10
11.9634084926
 20
10.7359722217
 30
0.0
 10
11.9586252855
 20
10.7382360914
 30
0.0
 10
11.9511856988
 20
10.7414897024
 30
0.0
 10
11.9433230586
 20
10.7446760491
 30
0.0
 10
11.9350465696
 20
10.747791653
 30
0.0
 10
11.9263656456
 20
10.7508329357
 30
0.0
 10
11.9140503065
 20
10.7548537777
 30
0.0
 10
11.897707636
 20
10.7596481397
 30
0.0
 10
11.8769806969
 20
10.7649564522
 30
0.0
 10
11.8549060503
 20
10.7698905723
 30
0.0
 10
11.8315853004
 20
10.7744274046
 30
0.0
 10
11.807125561
 20
10.7785454969
 30
0.0
 10
11.7816395399
 20
10.7822257012
 30
0.0
 10
11.7552447423
 20
10.7854508183
 30
0.0
 10
11.7280629213
 20
10.7882056017
 30
0.0
 10
11.7002195495
 20
10.7904772888
 30
0.0
 10
11.6718432048
 20
10.7922553116
 30
0.0
 10
11.6430649348
 20
10.7935312115
 30
0.0
 10
11.6140176691
 20
10.7942991291
 30
0.0
 10
11.5848355971
 20
10.7945555386
 30
0.0
 10
11.5556535322
 20
10.7942990937
 30
0.0
 10
11.5266062864
 20
10.7935310723
 30
0.0
 10
11.4978280531
 20
10.7922551322
 30
0.0
 10
11.4694517669
 20
10.7904770826
 30
0.0
 10
11.4416084693
 20
10.7882052923
 30
0.0
 10
11.414426723
 20
10.7854504671
 30
0.0
 10
11.3880320186
 20
10.7822253328
 30
0.0
 10
11.3625461152
 20
10.7785450307
 30
0.0
 10
11.3380865183
 20
10.7744268915
 30
0.0
 10
11.3147658324
 20
10.7698900746
 30
0.0
 10
11.2926915644
 20
10.764955802
 30
0.0
 10
11.2751581999
 20
10.7604656424
 30
0.0
 10
11.2618415632
 20
10.7566773134
 30
0.0
 10
11.2523821858
 20
10.7537954408
 30
0.0
 10
11.2433068713
 20
10.7508322073
 30
0.0
 10
11.2346260521
 20
10.7477909416
 30
0.0
 10
11.2263496178
 20
10.7446753822
 30
0.0
 10
11.2184870781
 20
10.7414889247
 30
0.0
 10
11.2110475758
 20
10.7382352653
 30
0.0
 10
11.206264383
 20
10.7359714153
 30
0.0
 10
11.2039474041
 20
10.7348268543
 30
0.0
  0
SPLINE
  5
394
100
AcDbEntity
  8
0
100
AcDbSpline
 62
7
  6
CONTINUOUS
 70
0
 71
3
 72
9
 73
5
 74
0
 42
0.0000001
 43
0.0000001
 44
0.0000000001
 40
0.0
 40
0.0
 40
0.0
 40
0.0
 40
0.496008294
 40
1.0
 40
1.0
 40
1.0
 40
1.0
 10
11.1788125606
 20
10.7224107629
 30
0.0
 10
11.1690164937
 20
10.7175714898
 30
0.0
 10
11.1495198292
 20
10.7072969765
 30
0.0
 10
11.1305044125
 20
10.6961637964
 30
0.0
 10
11.1210310652
 20
10.6903749213
 30
0.0
  0
SPLINE
  5
395
100
AcDbEntity
  8
0
100
AcDbSpline
 62
7
  6
CONTINUOUS
 70
0
 71
3
 72
9
 73
5
 74
0
 42
0.0000001
 43
0.0000001
 44
0.0000000001
 40
0.0
 40
0.0
 40
0.0
 40
0.0
 40
0.4867517121
 40
1.0
 40
1.0
 40
1.0
 40
1.0
 10
11.218756666
 20
10.1457664379
 30
0.0
 10
11.2254945661
 20
10.1437972669
 30
0.0
 10
11.2394058678
 20
10.1399846065
 30
0.0
 10
11.2534221122
 20
10.1365807471
 30
0.0
 10
11.2606368935
 20
10.1349270511
 30
0.0
  0
SPLINE
  5
396
100
AcDbEntity
  8
0
100
AcDbSpline
 62
7
  6
CONTINUOUS
 70
0
 71
3
 72
9
 73
5
 74
0
 42
0.0000001
 43
0.0000001
 44
0.0000000001
 40
0.0
 40
0.0
 40
0.0
 40
0.0
 40
0.2585900006
 40
1.0
 40
1.0
 40
1.0
 40
1.0
 10
12.0486434781
 20
10.18957559
 30
0.0
 10
12.0492963133
 20
10.1900813995
 30
0.0
 10
12.0518008419
 20
10.1920630503
 30
0.0
 10
12.0542226851
 20
10.1941502891
 30
0.0
 10
12.0559560577
 20
10.1957633738
 30
0.0
  0
SPLINE
  5
397
100
AcDbEntity
  8
0
100
AcDbSpline
 62
7
  6
CONTINUOUS
 70
0
 71
3
 72
9
 73
5
 74
0
 42
0.0000001
 43
0.0000001
 44
0.0000000001
 40
0.0
 40
0.0
 40
0.0
 40
0.0
 40
0.5134917843
 40
1.0
 40
1.0
 40
1.0
 40
1.0
 10
12.0486434781
 20
10.6101748158
 30
0.0
 10
12.0501671114
 20
10.6113553099
 30
0.0
 10
12.0530804174
 20
10.6137250143
 30
0.0
 10
12.0558615587
 20
10.6162494192
 30
0.0
 10
12.0571750287
 20
10.6175181339
 30
0.0
  0
SPLINE
  5
398
100
AcDbEntity
  8
0
100
AcDbSpline
 62
7
  6
CONTINUOUS
 70
0
 71
3
 72
9
 73
5
 74
0
 42
0.0000001
 43
0.0000001
 44
0.0000000001
 40
0.0
 40
0.0
 40
0.0
 40
0.0
 40
0.4867517121
 40
1.0
 40
1.0
 40
1.0
 40
1.0
 10
11.218756666
 20
10.5663656636
 30
0.0
 10
11.2254945661
 20
10.5643964926
 30
0.0
 10
11.2394058678
 20
10.5605838323
 30
0.0
 10
11.2534221122
 20
10.5571799728
 30
0.0
 10
11.2606368935
 20
10.5555262769
 30
0.0
  0
SPLINE
  5
399
100
AcDbEntity
  8
0
100
AcDbSpline
 62
7
  6
CONTINUOUS
 70
0
 71
3
 72
9
 73
5
 74
0
 42
0.0000001
 43
0.0000001
 44
0.0000000001
 40
0.0
 40
0.0
 40
0.0
 40
0.0
 40
0.5135789775
 40
1.0
 40
1.0
 40
1.0
 40
1.0
 10
12.0571750287
 20
10.6175181339
 30
0.0
 10
12.058418773
 20
10.6187194986
 30
0.0
 10
12.0607724921
 20
10.6211305628
 30
0.0
 10
12.0629589822
 20
10.6236953475
 30
0.0
 10
12.0639726892
 20
10.6249816976
 30
0.0
  0
SPLINE
  5
39A
100
AcDbEntity
  8
0
100
AcDbSpline
 62
7
  6
CONTINUOUS
 70
0
 71
3
 72
23
 73
19
 74
0
 42
0.0000001
 43
0.0000001
 44
0.0000000001
 40
0.0
 40
0.0
 40
0.0
 40
0.0
 40
0.0421785856
 40
0.0850534373
 40
0.1291226147
 40
0.1749466526
 40
0.2231084649
 40
0.2741717322
 40
0.3286399951
 40
0.3869169438
 40
0.44928418
 40
0.5158962693
 40
0.5867820207
 40
0.6618606059
 40
0.7409667875
 40
0.8238724696
 40
0.910312794
 40
1.0
 40
1.0
 40
1.0
 40
1.0
 10
11.1057018541
 20
10.6755680395
 30
0.0
 10
11.1080199085
 20
10.6755597911
 30
0.0
 10
11.1126969831
 20
10.675320774
 30
0.0
 10
11.1197231438
 20
10.6742412862
 30
0.0
 10
11.1267921053
 20
10.6723772651
 30
0.0
 10
11.1338952636
 20
10.6696709037
 30
0.0
 10
11.1410238351
 20
10.6660727778
 30
0.0
 10
11.148168701
 20
10.6615443317
 30
0.0
 10
11.1553208251
 20
10.6560590058
 30
0.0
 10
11.1624720878
 20
10.6496051429
 30
0.0
 10
11.1696151428
 20
10.6421863581
 30
0.0
 10
11.1767425376
 20
10.6338208389
 30
0.0
 10
11.1838476801
 20
10.6245412023
 30
0.0
 10
11.1909250442
 20
10.6143922308
 30
0.0
 10
11.1979695886
 20
10.6034274227
 30
0.0
 10
11.2049776943
 20
10.5917061712
 30
0.0
 10
11.2119469416
 20
10.5792910003
 30
0.0
 10
11.2164874703
 20
10.5707413311
 30
0.0
 10
11.218756666
 20
10.5663656636
 30
0.0
  0
SPLINE
  5
39B
100
AcDbEntity
  8
0
100
AcDbSpline
 62
7
  6
CONTINUOUS
 70
0
 71
3
 72
21
 73
17
 74
0
 42
0.0000001
 43
0.0000001
 44
0.0000000001
 40
0.0
 40
0.0
 40
0.0
 40
0.0
 40
0.1230814817
 40
0.1847942657
 40
0.2466337258
 40
0.3086097846
 40
0.3707312098
 40
0.4330051319
 40
0.4954352436
 40
0.5580223626
 40
0.6207641208
 40
0.6836547008
 40
0.7466862848
 40
0.8098488395
 40
0.8731308835
 40
1.0
 40
1.0
 40
1.0
 40
1.0
 10
11.2606368935
 20
10.5555262769
 30
0.0
 10
11.2778895341
 20
10.5587786603
 30
0.0
 10
11.3039206717
 20
10.5630293788
 30
0.0
 10
11.3388572619
 20
10.5671967282
 30
0.0
 10
11.3652239595
 20
10.5695187745
 30
0.0
 10
11.3917110263
 20
10.5709784746
 30
0.0
 10
11.4182950854
 20
10.5715286164
 30
0.0
 10
11.4449469497
 20
10.5711321849
 30
0.0
 10
11.4716334426
 20
10.5697671972
 30
0.0
 10
11.4983192144
 20
10.5674283737
 30
0.0
 10
11.5249689175
 20
10.5641260843
 30
0.0
 10
11.5515495816
 20
10.5598870647
 30
0.0
 10
11.578032425
 20
10.5547524234
 30
0.0
 10
11.6043943023
 20
10.5487726756
 30
0.0
 10
11.6393849768
 20
10.5397435559
 30
0.0
 10
11.6653634353
 20
10.5318935347
 30
0.0
 10
11.6825628724
 20
10.5262656108
 30
0.0
  0
SPLINE
  5
39C
100
AcDbEntity
  8
0
100
AcDbSpline
 62
7
  6
CONTINUOUS
 70
0
 71
3
 72
28
 73
24
 74
0
 42
0.0000001
 43
0.0000001
 44
0.0000000001
 40
0.0
 40
0.0
 40
0.0
 40
0.0
 40
0.0640274484
 40
0.1279405369
 40
0.1917105404
 40
0.2553123355
 40
0.3187161223
 40
0.3818930725
 40
0.4133919091
 40
0.4448254452
 40
0.4761912782
 40
0.5074882562
 40
0.5387156619
 40
0.5698732312
 40
0.6009621492
 40
0.6319833386
 40
0.6938248821
 40
0.7554274775
 40
0.8168179251
 40
0.8780243018
 40
0.9085700262
 40
0.9390802882
 40
1.0
 40
1.0
 40
1.0
 40
1.0
 10
11.2606368935
 20
10.1349270511
 30
0.0
 10
11.2689377442
 20
10.1306439274
 30
0.0
 10
11.2856688039
 20
10.1223605401
 30
0.0
 10
11.3111879702
 20
10.1108985538
 30
0.0
 10
11.3371117485
 20
10.1005442913
 30
0.0
 10
11.3634249236
 20
10.0914422354
 30
0.0
 10
11.3900927533
 20
10.0837387609
 30
0.0
 10
11.4125881854
 20
10.0785945291
 30
0.0
 10
11.4306922575
 20
10.0753074736
 30
0.0
 10
11.4442995129
 20
10.073268747
 30
0.0
 10
11.4579348405
 20
10.0716620698
 30
0.0
 10
11.4715846916
 20
10.0704949929
 30
0.0
 10
11.485234625
 20
10.069767843
 30
0.0
 10
11.4988705324
 20
10.0694823106
 30
0.0
 10
11.5124785818
 20
10.0696327842
 30
0.0
 10
11.5305474062
 20
10.0704060598
 30
0.0
 10
11.5530068957
 20
10.0724214635
 30
0.0
 10
11.5796878525
 20
10.0764225701
 30
0.0
 10
11.6060142142
 20
10.0818732843
 30
0.0
 10
11.6276426868
 20
10.0875091092
 30
0.0
 10
11.6447382817
 20
10.0926004673
 30
0.0
 10
11.6616788029
 20
10.0980506954
 30
0.0
 10
11.6742476474
 20
10.1025291701
 30
0.0
 10
11.6825628724
 20
10.1056663851
 30
0.0
  0
SPLINE
  5
39D
100
AcDbEntity
  8
0
100
AcDbSpline
 62
7
  6
CONTINUOUS
 70
0
 71
3
 72
23
 73
19
 74
0
 42
0.0000001
 43
0.0000001
 44
0.0000000001
 40
0.0
 40
0.0
 40
0.0
 40
0.0
 40
0.0678267902
 40
0.1349724863
 40
0.2013861734
 40
0.2670282176
 40
0.331868046
 40
0.3958905056
 40
0.459098674
 40
0.5215154569
 40
0.5831842269
 40
0.6441654231
 40
0.7045325895
 40
0.7643678524
 40
0.8237547389
 40
0.882773787
 40
0.9415010872
 40
1.0
 40
1.0
 40
1.0
 40
1.0
 10
11.7397723111
 20
10.5302331059
 30
0.0
 10
11.7460474278
 20
10.5340676393
 30
0.0
 10
11.7586307533
 20
10.5415425699
 30
0.0
 10
11.777710711
 20
10.5521655558
 30
0.0
 10
11.7969014428
 20
10.5620828957
 30
0.0
 10
11.8161949084
 20
10.5712311704
 30
0.0
 10
11.8355790909
 20
10.5795504165
 30
0.0
 10
11.8550372536
 20
10.5869870682
 30
0.0
 10
11.8745488943
 20
10.5934963525
 30
0.0
 10
11.894089907
 20
10.5990470634
 30
0.0
 10
11.9136340265
 20
10.6036239945
 30
0.0
 10
11.9331548764
 20
10.6072276622
 30
0.0
 10
11.9526273115
 20
10.6098756407
 30
0.0
 10
11.9720290722
 20
10.6116012057
 30
0.0
 10
11.9913420375
 20
10.6124488086
 30
0.0
 10
12.0105528066
 20
10.6124720409
 30
0.0
 10
12.0296519548
 20
10.6117303183
 30
0.0
 10
12.0423283747
 20
10.6107648471
 30
0.0
 10
12.0486434781
 20
10.6101748158
 30
0.0
  0
SPLINE
  5
39E
100
AcDbEntity
  8
0
100
AcDbSpline
 62
7
  6
CONTINUOUS
 70
0
 71
3
 72
27
 73
23
 74
0
 42
0.0000001
 43
0.0000001
 44
0.0000000001
 40
0.0
 40
0.0
 40
0.0
 40
0.0
 40
0.0572742999
 40
0.1144994563
 40
0.1717869223
 40
0.2292938811
 40
0.2872150422
 40
0.3457779489
 40
0.3753824125
 40
0.4052383009
 40
0.4353731703
 40
0.4658134574
 40
0.496580671
 40
0.5276935314
 40
0.5591655803
 40
0.5910057323
 40
0.6557946642
 40
0.7220564543
 40
0.7897212757
 40
0.8586828413
 40
0.9288200633
 40
1.0
 40
1.0
 40
1.0
 40
1.0
 10
11.7397723111
 20
10.1096338802
 30
0.0
 10
11.7458475822
 20
10.1074996545
 30
0.0
 10
11.7581053053
 20
10.1035433816
 30
0.0
 10
11.7768090867
 20
10.0986815701
 30
0.0
 10
11.7958171505
 20
10.0950341034
 30
0.0
 10
11.8151179669
 20
10.0927438228
 30
0.0
 10
11.8346838142
 20
10.0919503028
 30
0.0
 10
11.8511149652
 20
10.0926385814
 30
0.0
 10
11.8643138099
 20
10.0940344685
 30
0.0
 10
11.8742798199
 20
10.0955206295
 30
0.0
 10
11.8842658159
 20
10.0974464773
 30
0.0
 10
11.8942613006
 20
10.0998157573
 30
0.0
 10
11.9042562884
 20
10.1026250937
 30
0.0
 10
11.9142396595
 20
10.1058721721
 30
0.0
 10
11.924201921
 20
10.1095478139
 30
0.0
 10
11.9375193227
 20
10.1150388225
 30
0.0
 10
11.9540612358
 20
10.1229338965
 30
0.0
 10
11.9735704496
 20
10.1338478972
 30
0.0
 10
11.9928161925
 20
10.1461123803
 30
0.0
 10
12.0117754134
 20
10.1595779362
 30
0.0
 10
12.0304388465
 20
10.174099717
 30
0.0
 10
12.0426027674
 20
10.1843266046
 30
0.0
 10
12.0486434781
 20
10.18957559
 30
0.0
  0
SPLINE
  5
39F
100
AcDbEntity
  8
0
100
AcDbSpline
 62
7
  6
CONTINUOUS
 70
0
 71
3
 72
11
 73
7
 74
0
 42
0.0000001
 43
0.0000001
 44
0.0000000001
 40
0.0
 40
0.0
 40
0.0
 40
0.0
 40
0.2706149479
 40
0.5274053283
 40
0.7704747911
 40
1.0
 40
1.0
 40
1.0
 40
1.0
 10
11.2039474041
 20
10.7348268543
 30
0.0
 10
11.201688855
 20
10.7337111569
 30
0.0
 10
11.1973222239
 20
10.7314645478
 30
0.0
 10
11.1910693408
 20
10.7279478133
 30
0.0
 10
11.18529224
 20
10.7243767965
 30
0.0
 10
11.1816594337
 20
10.7218918326
 30
0.0
 10
11.1799288781
 20
10.7206387466
 30
0.0
  0
SPLINE
  5
3A0
100
AcDbEntity
  8
0
100
AcDbSpline
 62
7
  6
CONTINUOUS
 70
0
 71
3
 72
9
 73
5
 74
0
 42
0.0000001
 43
0.0000001
 44
0.0000000001
 40
0.0
 40
0.0
 40
0.0
 40
0.0
 40
0.5180906156
 40
1.0
 40
1.0
 40
1.0
 40
1.0
 10
11.1799288781
 20
10.7206387466
 30
0.0
 10
11.1780307183
 20
10.7192642993
 30
0.0
 10
11.1744435367
 20
10.7165031486
 30
0.0
 10
11.1710570193
 20
10.7134967893
 30
0.0
 10
11.1694891418
 20
10.7119823358
 30
0.0
  0
SPLINE
  5
3A1
100
AcDbEntity
  8
0
100
AcDbSpline
 62
7
  6
CONTINUOUS
 70
0
 71
3
 72
21
 73
17
 74
0
 42
0.0000001
 43
0.0000001
 44
0.0000000001
 40
0.0
 40
0.0
 40
0.0
 40
0.0
 40
0.0777184714
 40
0.1509844854
 40
0.2201919876
 40
0.2858049512
 40
0.3483762676
 40
0.408511364
 40
0.4668501382
 40
0.524040419
 40
0.5806986783
 40
0.6373921441
 40
0.6946119011
 40
0.7527677984
 40
0.8730351627
 40
1.0
 40
1.0
 40
1.0
 40
1.0
 10
11.1633007859
 20
10.149622047
 30
0.0
 10
11.1644625508
 20
10.1485408336
 30
0.0
 10
11.1667848248
 20
10.146508671
 30
0.0
 10
11.1703736497
 20
10.1437930658
 30
0.0
 10
11.1739573508
 20
10.141500778
 30
0.0
 10
11.1775336969
 20
10.1396294647
 30
0.0
 10
11.1810989799
 20
10.138172153
 30
0.0
 10
11.1846499958
 20
10.1371203909
 30
0.0
 10
11.1881832739
 20
10.136463852
 30
0.0
 10
11.1916951421
 20
10.1361885016
 30
0.0
 10
11.1951826383
 20
10.1362801782
 30
0.0
 10
11.1986432697
 20
10.136721834
 30
0.0
 10
11.2020757094
 20
10.1374962409
 30
0.0
 10
11.2066634938
 20
10.1389652595
 30
0.0
 10
11.2123498888
 20
10.1415838481
 30
0.0
 10
11.2166335989
 20
10.1442782902
 30
0.0
 10
11.218756666
 20
10.1457664379
 30
0.0
  0
SPLINE
  5
3A2
100
AcDbEntity
  8
0
100
AcDbSpline
 62
7
  6
CONTINUOUS
 70
0
 71
3
 72
55
 73
51
 74
0
 42
0.0000001
 43
0.0000001
 44
0.0000000001
 40
0.0
 40
0.0
 40
0.0
 40
0.0
 40
0.0077403341
 40
0.0160536402
 40
0.0249598623
 40
0.0344711287
 40
0.0445943245
 40
0.0553311103
 40
0.0666791717
 40
0.0786331753
 40
0.0911842811
 40
0.1043217537
 40
0.1180322524
 40
0.1323005199
 40
0.147109859
 40
0.1624414338
 40
0.1782755067
 40
0.1945906822
 40
0.2285722865
 40
0.2641945926
 40
0.3012498561
 40
0.3395178674
 40
0.37876815
 40
0.4187620874
 40
0.4592551245
 40
0.4999987486
 40
0.5407423938
 40
0.5812354618
 40
0.6212294331
 40
0.6604797572
 40
0.6987478627
 40
0.7358032525
 40
0.7714256644
 40
0.8054073565
 40
0.8217226506
 40
0.8375567141
 40
0.8528884296
 40
0.8676978103
 40
0.8819661512
 40
0.8956767913
 40
0.9088142361
 40
0.9213654962
 40
0.9333195839
 40
0.9446677912
 40
0.955404691
 40
0.9655276214
 40
0.9750389343
 40
0.9839457869
 40
0.992260156
 40
1.0
 40
1.0
 40
1.0
 40
1.0
 10
11.1729695978
 20
10.1406240591
 30
0.0
 10
11.1745775557
 20
10.1391277274
 30
0.0
 10
11.178038941
 20
10.1361585293
 30
0.0
 10
11.183717258
 20
10.1319177027
 30
0.0
 10
11.1900539087
 20
10.1277410257
 30
0.0
 10
11.1970382769
 20
10.1236346262
 30
0.0
 10
11.2046597268
 20
10.1196051819
 30
0.0
 10
11.2129059777
 20
10.1156589011
 30
0.0
 10
11.2217638151
 20
10.1118020694
 30
0.0
 10
11.2312190126
 20
10.1080413013
 30
0.0
 10
11.2412561169
 20
10.1043823372
 30
0.0
 10
11.2518588614
 20
10.1008315805
 30
0.0
 10
11.2630098759
 20
10.0973947096
 30
0.0
 10
11.2746909077
 20
10.0940773583
 30
0.0
 10
11.2868828319
 20
10.0908852808
 30
0.0
 10
11.2995655838
 20
10.0878234214
 30
0.0
 10
11.3127183705
 20
10.0848971271
 30
0.0
 10
11.3311034299
 20
10.0811313587
 30
0.0
 10
11.3551042107
 20
10.0768168926
 30
0.0
 10
11.3850382778
 20
10.0723169535
 30
0.0
 10
11.4162873638
 20
10.0684571328
 30
0.0
 10
11.4486458344
 20
10.0652632513
 30
0.0
 10
11.4819009229
 20
10.0627567112
 30
0.0
 10
11.5158337413
 20
10.0609542405
 30
0.0
 10
11.5502209146
 20
10.0598678915
 30
0.0
 10
11.5848360389
 20
10.0595049295
 30
0.0
 10
11.6194511729
 20
10.0598678197
 30
0.0
 10
11.6538383719
 20
10.0609541289
 30
0.0
 10
11.6877712224
 20
10.0627565655
 30
0.0
 10
11.7210263618
 20
10.0652630688
 30
0.0
 10
11.7533849137
 20
10.0684568827
 30
0.0
 10
11.7846341006
 20
10.0723166388
 30
0.0
 10
11.8145682684
 20
10.0768165272
 30
0.0
 10
11.838569132
 20
10.0811310252
 30
0.0
 10
11.8569542731
 20
10.0848966754
 30
0.0
 10
11.8701071161
 20
10.0878230431
 30
0.0
 10
11.8827899417
 20
10.090884804
 30
0.0
 10
11.8949819373
 20
10.0940768988
 30
0.0
 10
11.9066630405
 20
10.097394261
 30
0.0
 10
11.9178141426
 20
10.1008310306
 30
0.0
 10
11.9284169381
 20
10.1043818733
 30
0.0
 10
11.9384541474
 20
10.1080407222
 30
0.0
 10
11.9479094434
 20
10.1118015428
 30
0.0
 10
11.9567673626
 20
10.1156584251
 30
0.0
 10
11.9650136827
 20
10.1196045608
 30
0.0
 10
11.9726350969
 20
10.1236340054
 30
0.0
 10
11.9796196818
 20
10.1277402673
 30
0.0
 10
11.9859566875
 20
10.1319173153
 30
0.0
 10
11.9916351981
 20
10.1361584408
 30
0.0
 10
11.9950968393
 20
10.1391275883
 30
0.0
 10
11.9967047144
 20
10.1406238047
 30
0.0
  0
SPLINE
  5
3A3
100
AcDbEntity
  8
0
100
AcDbSpline
 62
7
  6
CONTINUOUS
 70
0
 71
3
 72
69
 73
65
 74
0
 42
0.0000001
 43
0.0000001
 44
0.0000000001
 40
0.0
 40
0.0
 40
0.0
 40
0.0
 40
0.0078486444
 40
0.011525491
 40
0.0150505467
 40
0.0216952296
 40
0.024852921
 40
0.0279250607
 40
0.0309333397
 40
0.0339009863
 40
0.0368522248
 40
0.0398117036
 40
0.0428038878
 40
0.0458523906
 40
0.0489793775
 40
0.052205239
 40
0.0590208104
 40
0.0626451385
 40
0.0664292117
 40
0.0745139269
 40
0.08334171
 40
0.0929552291
 40
0.1033806187
 40
0.114631552
 40
0.126711678
 40
0.1396167584
 40
0.1533361209
 40
0.1678536007
 40
0.1831486278
 40
0.1991964446
 40
0.2159691279
 40
0.2334353586
 40
0.2515614594
 40
0.2703108941
 40
0.2896453365
 40
0.3095240288
 40
0.3299048522
 40
0.3719941041
 40
0.4155466199
 40
0.4601767864
 40
0.5054862054
 40
0.5510685731
 40
0.5965143891
 40
0.6414157219
 40
0.6853710257
 40
0.7279898963
 40
0.7486810452
 40
0.7688992635
 40
0.7886011676
 40
0.807744993
 40
0.8262908348
 40
0.8442008993
 40
0.8614395705
 40
0.8779739633
 40
0.8937737718
 40
0.9088121872
 40
0.9230656404
 40
0.9365152112
 40
0.9491461963
 40
0.9609499952
 40
0.9719245224
 40
0.9820776763
 40
0.9914266394
 40
1.0
 40
1.0
 40
1.0
 40
1.0
 10
11.1694891418
 20
10.7119823358
 30
0.0
 10
11.16774734
 20
10.7102998844
 30
0.0
 10
11.1653011543
 20
10.7077062189
 30
0.0
 10
11.1624271701
 20
10.7040551592
 30
0.0
 10
11.1600023629
 20
10.7005353247
 30
0.0
 10
11.1580174703
 20
10.6969129315
 30
0.0
 10
11.1565472893
 20
10.6932183561
 30
0.0
 10
11.1557218999
 20
10.690486154
 30
0.0
 10
11.1551566667
 20
10.6877482667
 30
0.0
 10
11.1548521018
 20
10.6850066151
 30
0.0
 10
11.1548085232
 20
10.6822634424
 30
0.0
 10
11.1550260283
 20
10.6795209926
 30
0.0
 10
11.1555045892
 20
10.6767815315
 30
0.0
 10
11.1562434555
 20
10.6740472298
 30
0.0
 10
11.157241598
 20
10.6713198239
 30
0.0
 10
11.1589474736
 20
10.6676280886
 30
0.0
 10
11.1611603437
 20
10.6640188196
 30
0.0
 10
11.1638041036
 20
10.6605136708
 30
0.0
 10
11.1669086555
 20
10.656874965
 30
0.0
 10
11.1714563566
 20
10.6523747478
 30
0.0
 10
11.1777841582
 20
10.647169573
 30
0.0
 10
11.1850847492
 20
10.6420542733
 30
0.0
 10
11.1933411581
 20
10.6370392517
 30
0.0
 10
11.2025352002
 20
10.6321353497
 30
0.0
 10
11.2126457842
 20
10.6273536384
 30
0.0
 10
11.2236495375
 20
10.6227053205
 30
0.0
 10
11.2355206739
 20
10.618201474
 30
0.0
 10
11.2482311599
 20
10.613852833
 30
0.0
 10
11.2617508216
 20
10.6096700253
 30
0.0
 10
11.2760474158
 20
10.6056630044
 30
0.0
 10
11.2910867758
 20
10.6018417024
 30
0.0
 10
11.3068328731
 20
10.5982151424
 30
0.0
 10
11.3232479448
 20
10.5947924056
 30
0.0
 10
11.340292583
 20
10.5915814918
 30
0.0
 10
11.3579258183
 20
10.58859053
 30
0.0
 10
11.3761053001
 20
10.5858263866
 30
0.0
 10
11.4012848364
 20
10.5824163165
 30
0.0
 10
11.4338012674
 20
10.5787872431
 30
0.0
 10
11.4738642936
 20
10.5754718399
 30
0.0
 10
11.5149941213
 20
10.5731834432
 30
0.0
 10
11.5567952296
 20
10.571944457
 30
0.0
 10
11.598865932
 20
10.5717670734
 30
0.0
 10
11.6408017535
 20
10.5726530346
 30
0.0
 10
11.6821996786
 20
10.5745936141
 30
0.0
 10
11.7226615732
 20
10.5775698452
 30
0.0
 10
11.7555931027
 20
10.5809205562
 30
0.0
 10
11.7811678676
 20
10.5841132294
 30
0.0
 10
11.7996872693
 20
10.5867221779
 30
0.0
 10
11.8176894322
 20
10.5895626505
 30
0.0
 10
11.8351311107
 20
10.592627785
 30
0.0
 10
11.851970362
 20
10.595910197
 30
0.0
 10
11.8681667441
 20
10.599401813
 30
0.0
 10
11.8836813678
 20
10.6030943162
 30
0.0
 10
11.8984770531
 20
10.6069785395
 30
0.0
 10
11.9125183534
 20
10.6110453177
 30
0.0
 10
11.92577177
 20
10.6152844669
 30
0.0
 10
11.9382057039
 20
10.6196861098
 30
0.0
 10
11.9497907617
 20
10.6242392406
 30
0.0
 10
11.9604994754
 20
10.6289334266
 30
0.0
 10
11.9703070072
 20
10.6337568994
 30
0.0
 10
11.9791906418
 20
10.638699098
 30
0.0
 10
11.9871308788
 20
10.6437489429
 30
0.0
 10
11.9941082241
 20
10.6488952435
 30
0.0
 10
11.9982827679
 20
10.6525355514
 30
0.0
 10
12.0001854016
 20
10.6543733545
 30
0.0
  0
SPLINE
  5
3A4
100
AcDbEntity
  8
0
100
AcDbSpline
 62
7
  6
CONTINUOUS
 70
0
 71
3
 72
28
 73
24
 74
0
 42
0.0000001
 43
0.0000001
 44
0.0000000001
 40
0.0
 40
0.0
 40
0.0
 40
0.0
 40
0.0683417894
 40
0.1318944582
 40
0.1911916903
 40
0.2469424229
 40
0.2737771035
 40
0.300072871
 40
0.3259647135
 40
0.3515944959
 40
0.3771085711
 40
0.4026553861
 40
0.4283829391
 40
0.454436097
 40
0.5080318425
 40
0.5644895246
 40
0.594076777
 40
0.6246829784
 40
0.6892404913
 40
0.7587126008
 40
0.8334899805
 40
0.91385377
 40
1.0
 40
1.0
 40
1.0
 40
1.0
 10
12.0001854016
 20
10.6543733545
 30
0.0
 10
12.0016497668
 20
10.6557878227
 30
0.0
 10
12.004370507
 20
10.658630749
 30
0.0
 10
12.0079088408
 20
10.6631063258
 30
0.0
 10
12.0107401922
 20
10.6676248969
 30
0.0
 10
12.0125253217
 20
10.6714714532
 30
0.0
 10
12.013571705
 20
10.674544284
 30
0.0
 10
12.0141662498
 20
10.6768244152
 30
0.0
 10
12.0145797218
 20
10.6791077903
 30
0.0
 10
12.0148119997
 20
10.6813933252
 30
0.0
 10
12.0148629242
 20
10.6836798207
 30
0.0
 10
12.0147324567
 20
10.6859660485
 30
0.0
 10
12.0144205187
 20
10.6882508967
 30
0.0
 10
12.0137570141
 20
10.6913219473
 30
0.0
 10
12.0124527563
 20
10.6951773062
 30
0.0
 10
12.0105878162
 20
10.6989091481
 30
0.0
 10
12.0087611729
 20
10.7018672707
 30
0.0
 10
12.0066309305
 20
10.7049147911
 30
0.0
 10
12.003499946
 20
10.7087015351
 30
0.0
 10
11.9991093669
 20
10.7131180698
 30
0.0
 10
11.9940279418
 20
10.7174810171
 30
0.0
 10
11.9882644573
 20
10.7217842216
 30
0.0
 10
11.9841186255
 20
10.7245132021
 30
0.0
 10
11.9819404807
 20
10.7258703542
 30
0.0
  0
SPLINE
  5
3A5
100
AcDbEntity
  8
0
100
AcDbSpline
 62
7
  6
CONTINUOUS
 70
0
 71
3
 72
9
 73
5
 74
0
 42
0.0000001
 43
0.0000001
 44
0.0000000001
 40
0.0
 40
0.0
 40
0.0
 40
0.0
 40
0.4830467495
 40
1.0
 40
1.0
 40
1.0
 40
1.0
 10
11.9819404807
 20
10.7258703542
 30
0.0
 10
11.9794081736
 20
10.7274481768
 30
0.0
 10
11.9740704935
 20
10.7305629289
 30
0.0
 10
11.9685883075
 20
10.733413469
 30
0.0
 10
11.9657254847
 20
10.7348276615
 30
0.0
  0
SPLINE
  5
3A6
100
AcDbEntity
  8
0
100
AcDbSpline
 62
7
  6
CONTINUOUS
 70
0
 71
3
 72
47
 73
43
 74
0
 42
0.0000001
 43
0.0000001
 44
0.0000000001
 40
0.0
 40
0.0
 40
0.0
 40
0.0
 40
0.0958288778
 40
0.1428190813
 40
0.1890973258
 40
0.2345927051
 40
0.2792365599
 40
0.3229622087
 40
0.36570484
 40
0.4074019633
 40
0.4479935495
 40
0.4874221989
 40
0.5256333955
 40
0.562575849
 40
0.5982017357
 40
0.6324670006
 40
0.6653317986
 40
0.696761026
 40
0.7267248024
 40
0.7551991569
 40
0.7821669874
 40
0.8076191674
 40
0.8315558892
 40
0.8429599089
 40
0.8539904626
 40
0.8646510953
 40
0.8749464064
 40
0.8848822263
 40
0.8944655538
 40
0.903704898
 40
0.9126103679
 40
0.9211937503
 40
0.9294688928
 40
0.9374517342
 40
0.945160509
 40
0.9598347361
 40
0.9668566082
 40
0.9737035131
 40
0.9804067666
 40
0.9870000197
 40
0.9935188069
 40
1.0
 40
1.0
 40
1.0
 40
1.0
 10
11.4734157647
 20
9.8810522173
 30
0.0
 10
11.4622029688
 20
9.8818298274
 30
0.0
 10
11.4455038873
 20
9.8831749529
 30
0.0
 10
11.4234312571
 20
9.8853498505
 30
0.0
 10
11.4072543408
 20
9.8871429914
 30
0.0
 10
11.3913743916
 20
9.8891056494
 30
0.0
 10
11.375817966
 20
9.8912345321
 30
0.0
 10
11.3606110747
 20
9.893526052
 30
0.0
 10
11.3457791247
 20
9.8959763717
 30
0.0
 10
11.3313469016
 20
9.8985813677
 30
0.0
 10
11.3173385067
 20
9.9013366536
 30
0.0
 10
11.3037773318
 20
9.9042375977
 30
0.0
 10
11.2906860134
 20
9.9072793313
 30
0.0
 10
11.2780863831
 20
9.9104567307
 30
0.0
 10
11.265999435
 20
9.9137644485
 30
0.0
 10
11.2544452952
 20
9.9171969292
 30
0.0
 10
11.2434431744
 20
9.9207484141
 30
0.0
 10
11.2330113233
 20
9.9244129329
 30
0.0
 10
11.2231670001
 20
9.9281843492
 30
0.0
 10
11.2139264656
 20
9.9320563765
 30
0.0
 10
11.2053048347
 20
9.9360226035
 30
0.0
 10
11.1973163627
 20
9.9400764503
 30
0.0
 10
11.1911008833
 20
9.943576541
 30
0.0
 10
11.18646462
 20
9.9464211981
 30
0.0
 10
11.1832101999
 20
9.9485378755
 30
0.0
 10
11.1801235709
 20
9.9506713693
 30
0.0
 10
11.1772060098
 20
9.9528208518
 30
0.0
 10
11.1744586968
 20
9.9549854143
 30
0.0
 10
11.1718827879
 20
9.9571642267
 30
0.0
 10
11.1694793423
 20
9.9593564163
 30
0.0
 10
11.1672493413
 20
9.9615610968
 30
0.0
 10
11.1651937481
 20
9.963777472
 30
0.0
 10
11.1633134467
 20
9.9660045939
 30
0.0
 10
11.1616091281
 20
9.9682418502
 30
0.0
 10
11.1596058162
 20
9.9711879522
 30
0.0
 10
11.157910877
 20
9.9742036459
 30
0.0
 10
11.1565680325
 20
9.9772726692
 30
0.0
 10
11.1557549171
 20
9.9795466369
 30
0.0
 10
11.1551219188
 20
9.9818250766
 30
0.0
 10
11.1546694117
 20
9.984107067
 30
0.0
 10
11.1543977256
 20
9.9863912727
 30
0.0
 10
11.1543372836
 20
9.9879167156
 30
0.0
 10
11.1543372804
 20
9.988676892
 30
0.0
  0
SPLINE
  5
3A7
100
AcDbEntity
  8
0
100
AcDbSpline
 62
7
  6
CONTINUOUS
 70
0
 71
3
 72
48
 73
44
 74
0
 42
0.0000001
 43
0.0000001
 44
0.0000000001
 40
0.0
 40
0.0
 40
0.0
 40
0.0
 40
0.0311434631
 40
0.0624399956
 40
0.0938836138
 40
0.1254646847
 40
0.1571709829
 40
0.1889877595
 40
0.22089807
 40
0.2528831302
 40
0.2849226987
 40
0.3169954772
 40
0.3490795248
 40
0.3811526835
 40
0.413193006
 40
0.4451791789
 40
0.4770909382
 40
0.5089094729
 40
0.5406178044
 40
0.5722011384
 40
0.6036471904
 40
0.6349464615
 40
0.6660924706
 40
0.6970819377
 40
0.7279148953
 40
0.7432762698
 40
0.7586000727
 40
0.7738872515
 40
0.789138954
 40
0.8043565275
 40
0.819541513
 40
0.8346956329
 40
0.8498207866
 40
0.8649190411
 40
0.8799926163
 40
0.8950438755
 40
0.9100753135
 40
0.9250895394
 40
0.9400892632
 40
0.9550772817
 40
0.9700564603
 40
0.9850297153
 40
1.0
 40
1.0
 40
1.0
 40
1.0
 10
10.0727727834
 20
7.2883675393
 30
0.0
 10
10.0839766019
 20
7.2875905519
 30
0.0
 10
10.1063907693
 20
7.285212678
 30
0.0
 10
10.1397402687
 20
7.2792227734
 30
0.0
 10
10.1727325684
 20
7.2708327117
 30
0.0
 10
10.2051894715
 20
7.260087587
 30
0.0
 10
10.2369385693
 20
7.2470450245
 30
0.0
 10
10.2678104897
 20
7.2317747818
 30
0.0
 10
10.2976407598
 20
7.2143584327
 30
0.0
 10
10.3262704557
 20
7.1948890189
 30
0.0
 10
10.3535470198
 20
7.1734703952
 30
0.0
 10
10.3793251012
 20
7.1502167889
 30
0.0
 10
10.4034673638
 20
7.1252522129
 30
0.0
 10
10.4258450944
 20
7.0987096949
 30
0.0
 10
10.4463389877
 20
7.0707306901
 30
0.0
 10
10.4648397724
 20
7.0414643071
 30
0.0
 10
10.4812486755
 20
7.0110664549
 30
0.0
 10
10.4954780939
 20
6.9796991204
 30
0.0
 10
10.5074520006
 20
6.9475294611
 30
0.0
 10
10.5171062609
 20
6.9147289142
 30
0.0
 10
10.5243891487
 20
6.8814723202
 30
0.0
 10
10.5292615311
 20
6.8479370956
 30
0.0
 10
10.5316969564
 20
6.8143017782
 30
0.0
 10
10.5316822948
 20
6.7807470789
 30
0.0
 10
10.5296248547
 20
6.7529620185
 30
0.0
 10
10.5267563721
 20
6.7309597758
 30
0.0
 10
10.5240012189
 20
6.7146080078
 30
0.0
 10
10.5206434789
 20
6.6984098548
 30
0.0
 10
10.516687567
 20
6.6823866752
 30
0.0
 10
10.5121387899
 20
6.6665599447
 30
0.0
 10
10.5070032289
 20
6.6509507791
 30
0.0
 10
10.5012876857
 20
6.6355800544
 30
0.0
 10
10.4949998104
 20
6.6204682986
 30
0.0
 10
10.4881480158
 20
6.6056356931
 30
0.0
 10
10.4807414022
 20
6.5911020782
 30
0.0
 10
10.472789875
 20
6.576886869
 30
0.0
 10
10.4643040765
 20
6.5630090454
 30
0.0
 10
10.4552952999
 20
6.5494871787
 30
0.0
 10
10.445775583
 20
6.5363393315
 30
0.0
 10
10.4357576866
 20
6.5235830696
 30
0.0
 10
10.425254898
 20
6.511235404
 30
0.0
 10
10.414281481
 20
6.4993130703
 30
0.0
 10
10.4066610918
 20
6.4916581714
 30
0.0
 10
10.4027782191
 20
6.4879075941
 30
0.0
  0
SPLINE
  5
3A8
100
AcDbEntity
  8
0
100
AcDbSpline
 62
7
  6
CONTINUOUS
 70
0
 71
3
 72
51
 73
47
 74
0
 42
0.0000001
 43
0.0000001
 44
0.0000000001
 40
0.0
 40
0.0
 40
0.0
 40
0.0
 40
0.0311429623
 40
0.0624390393
 40
0.0938821581
 40
0.1254627405
 40
0.1571685478
 40
0.1889848322
 40
0.2208946479
 40
0.2528792128
 40
0.2849182853
 40
0.3169905665
 40
0.3490741169
 40
0.3811467786
 40
0.413186604
 40
0.4451722806
 40
0.4770835444
 40
0.5089015852
 40
0.5406094235
 40
0.5721922667
 40
0.6036378301
 40
0.6349366131
 40
0.6505313541
 40
0.6660872357
 40
0.6816039492
 40
0.6970813947
 40
0.7125196809
 40
0.727919126
 40
0.7432802612
 40
0.7586038263
 40
0.7738907665
 40
0.789142231
 40
0.8043595683
 40
0.8195443173
 40
0.8346982008
 40
0.8498231194
 40
0.8649211391
 40
0.8799944797
 40
0.8950455049
 40
0.9100767091
 40
0.9250907018
 40
0.9400901927
 40
0.9550779784
 40
0.9700569243
 40
0.9850299475
 40
1.0
 40
1.0
 40
1.0
 40
1.0
 10
10.6764764606
 20
9.3995493677
 30
0.0
 10
10.6905107186
 20
9.3985760886
 30
0.0
 10
10.7185874351
 20
9.3955974793
 30
0.0
 10
10.7603621031
 20
9.3880943523
 30
0.0
 10
10.8016893258
 20
9.3775846499
 30
0.0
 10
10.8423458934
 20
9.3641249735
 30
0.0
 10
10.8821158441
 20
9.3477874346
 30
0.0
 10
10.920786991
 20
9.3286593919
 30
0.0
 10
10.9581533725
 20
9.3068431388
 30
0.0
 10
10.9940158303
 20
9.2824550778
 30
0.0
 10
11.0281833304
 20
9.255625407
 30
0.0
 10
11.0604737945
 20
9.2264971885
 30
0.0
 10
11.0907151359
 20
9.1952257139
 30
0.0
 10
11.1187462091
 20
9.1619776985
 30
0.0
 10
11.1444174963
 20
9.1269302701
 30
0.0
 10
11.1675921553
 20
9.0902702353
 30
0.0
 10
11.188146451
 20
9.0521928916
 30
0.0
 10
11.2059706639
 20
9.0129011264
 30
0.0
 10
11.2209695226
 20
8.9726044228
 30
0.0
 10
11.2330627377
 20
8.9315171334
 30
0.0
 10
11.2421854555
 20
8.8898597831
 30
0.0
 10
11.2472779899
 20
8.8548071517
 30
0.0
 10
11.2498198158
 20
8.8267070506
 30
0.0
 10
11.2509585922
 20
8.8056523171
 30
0.0
 10
11.2513301881
 20
8.7846233142
 30
0.0
 10
11.2509341794
 20
8.7636477793
 30
0.0
 10
11.2497710422
 20
8.7427538119
 30
0.0
 10
11.247842297
 20
8.7219692929
 30
0.0
 10
11.2451505392
 20
8.7013219835
 30
0.0
 10
11.2416993474
 20
8.6808394564
 30
0.0
 10
11.2374932779
 20
8.6605490773
 30
0.0
 10
11.2325379562
 20
8.6404779461
 30
0.0
 10
11.2268400041
 20
8.6206528693
 30
0.0
 10
11.2204069932
 20
8.6011003384
 30
0.0
 10
11.2132474908
 20
8.5818464824
 30
0.0
 10
11.2053710817
 20
8.5629170141
 30
0.0
 10
11.1967882702
 20
8.5443372273
 30
0.0
 10
11.1875104777
 20
8.5261319662
 30
0.0
 10
11.1775501179
 20
8.5083255464
 30
0.0
 10
11.1669205002
 20
8.490941755
 30
0.0
 10
11.1556357946
 20
8.4740038411
 30
0.0
 10
11.1437110652
 20
8.4575344391
 30
0.0
 10
11.1311622884
 20
8.4415555603
 30
0.0
 10
11.1180061407
 20
8.4260884874
 30
0.0
 10
11.1042604645
 20
8.411154202
 30
0.0
 10
11.0947148851
 20
8.4015654607
 30
0.0
 10
11.0898510691
 20
8.3968673702
 30
0.0
  0
SPLINE
  5
3A9
100
AcDbEntity
  8
0
100
AcDbSpline
 62
7
  6
CONTINUOUS
 70
0
 71
3
 72
18
 73
14
 74
0
 42
0.0000001
 43
0.0000001
 44
0.0000000001
 40
0.0
 40
0.0
 40
0.0
 40
0.0
 40
0.150467608
 40
0.291710008
 40
0.4244359371
 40
0.549562455
 40
0.6682139939
 40
0.7255497488
 40
0.7817912909
 40
0.8371402503
 40
0.8918093826
 40
0.9460201179
 40
1.0
 40
1.0
 40
1.0
 40
1.0
 10
12.2721120623
 20
8.5442610373
 30
0.0
 10
12.2737941812
 20
8.5458858395
 30
0.0
 10
12.2771560306
 20
8.5489343866
 30
0.0
 10
12.2823618273
 20
8.5529970961
 30
0.0
 10
12.2875615094
 20
8.5563949415
 30
0.0
 10
12.2927496937
 20
8.5591223455
 30
0.0
 10
12.2971103054
 20
8.5608518275
 30
0.0
 10
12.3005724385
 20
8.5618793822
 30
0.0
 10
12.30313216
 20
8.5624716502
 30
0.0
 10
12.3056833895
 20
8.5628937747
 30
0.0
 10
12.3082254119
 20
8.5631456065
 30
0.0
 10
12.3107572164
 20
8.5632270144
 30
0.0
 10
12.3124392745
 20
8.5631675219
 30
0.0
 10
12.3132762663
 20
8.5631094799
 30
0.0
  0
SPLINE
  5
3AA
100
AcDbEntity
  8
0
100
AcDbSpline
 62
7
  6
CONTINUOUS
 70
0
 71
3
 72
25
 73
21
 74
0
 42
0.0000001
 43
0.0000001
 44
0.0000000001
 40
0.0
 40
0.0
 40
0.0
 40
0.0
 40
0.0895392159
 40
0.1754798535
 40
0.2577444537
 40
0.3362845756
 40
0.4110646073
 40
0.4820682236
 40
0.5492961021
 40
0.6127682088
 40
0.6725272618
 40
0.7286451734
 40
0.7812330297
 40
0.8304553191
 40
0.8765480499
 40
0.9198406227
 40
0.9405840007
 40
0.9608059161
 40
0.9805826323
 40
1.0
 40
1.0
 40
1.0
 40
1.0
 10
10.5547307807
 20
9.0769415536
 30
0.0
 10
10.5549219253
 20
9.074364782
 30
0.0
 10
10.5554295703
 20
9.0693234615
 30
0.0
 10
10.5565835665
 20
9.0619719495
 30
0.0
 10
10.5580889633
 20
9.0550083655
 30
0.0
 10
10.5599176557
 20
9.0484563332
 30
0.0
 10
10.5620402891
 20
9.042336341
 30
0.0
 10
10.5644263885
 20
9.0366665837
 30
0.0
 10
10.5670449597
 20
9.0314629758
 30
0.0
 10
10.5698648226
 20
9.0267394901
 30
0.0
 10
10.5728549796
 20
9.0225084263
 30
0.0
 10
10.5759849434
 20
9.0187806661
 30
0.0
 10
10.5792249496
 20
9.0155659446
 30
0.0
 10
10.5825465591
 20
9.0128730341
 30
0.0
 10
10.5859218489
 20
9.0107104209
 30
0.0
 10
10.5887993271
 20
9.0093374195
 30
0.0
 10
10.5910936254
 20
9.0085268821
 30
0.0
 10
10.5927861831
 20
9.0080646305
 30
0.0
 10
10.5944714676
 20
9.0077402616
 30
0.0
 10
10.5955970557
 20
9.0076153288
 30
0.0
 10
10.5961560476
 20
9.0075766154
 30
0.0
  0
SPLINE
  5
3AB
100
AcDbEntity
  8
0
100
AcDbSpline
 62
7
  6
CONTINUOUS
 70
0
 71
3
 72
13
 73
9
 74
0
 42
0.0000001
 43
0.0000001
 44
0.0000000001
 40
0.0
 40
0.0
 40
0.0
 40
0.0
 40
0.1245145868
 40
0.24904779
 40
0.3736797929
 40
0.4984834057
 40
0.7486852101
 40
1.0
 40
1.0
 40
1.0
 40
1.0
 10
10.5268446052
 20
9.1171670494
 30
0.0
 10
10.5275416347
 20
9.1152396484
 30
0.0
 10
10.529085709
 20
9.1114371384
 30
0.0
 10
10.5318102658
 20
9.1059172461
 30
0.0
 10
10.5349047691
 20
9.1005906557
 30
0.0
 10
10.5394766281
 20
9.0937488322
 30
0.0
 10
10.5459400944
 20
9.0856896368
 30
0.0
 10
10.551719098
 20
9.0797774872
 30
0.0
 10
10.5547307807
 20
9.0769415536
 30
0.0
  0
SPLINE
  5
3AC
100
AcDbEntity
  8
0
100
AcDbSpline
 62
7
  6
CONTINUOUS
 70
0
 71
3
 72
11
 73
7
 74
0
 42
0.0000001
 43
0.0000001
 44
0.0000000001
 40
0.0
 40
0.0
 40
0.0
 40
0.0
 40
0.2594003768
 40
0.5131201433
 40
0.7602737773
 40
1.0
 40
1.0
 40
1.0
 40
1.0
 10
10.5391781475
 20
9.1664975987
 30
0.0
 10
10.5376772525
 20
9.1623565139
 30
0.0
 10
10.5349076832
 20
9.1540909475
 30
0.0
 10
10.5314398609
 20
9.1416497624
 30
0.0
 10
10.5287172499
 20
9.1293662724
 30
0.0
 10
10.5273820925
 20
9.121202023
 30
0.0
 10
10.5268446052
 20
9.1171670494
 30
0.0
  0
SPLINE
  5
3AD
100
AcDbEntity
  8
0
100
AcDbSpline
 62
7
  6
CONTINUOUS
 70
0
 71
3
 72
32
 73
28
 74
0
 42
0.0000001
 43
0.0000001
 44
0.0000000001
 40
0.0
 40
0.0
 40
0.0
 40
0.0
 40
0.0633099684
 40
0.1265185035
 40
0.1580844845
 40
0.1896138993
 40
0.2211026301
 40
0.2525465056
 40
0.2839422056
 40
0.3152874699
 40
0.3465812977
 40
0.3778241234
 40
0.4090181364
 40
0.4401673676
 40
0.4712773768
 40
0.5023548295
 40
0.5334070614
 40
0.5644416568
 40
0.595466187
 40
0.6264877936
 40
0.6575127459
 40
0.6885462444
 40
0.7506420619
 40
0.8128222008
 40
0.8751032427
 40
0.937495049
 40
1.0
 40
1.0
 40
1.0
 40
1.0
 10
10.9169214553
 20
8.6941804005
 30
0.0
 10
10.9132449724
 20
8.691613954
 30
0.0
 10
10.9057062888
 20
8.6867524387
 30
0.0
 10
10.8958088955
 20
8.6814850175
 30
0.0
 10
10.8876296413
 20
8.6778560482
 30
0.0
 10
10.8813738726
 20
8.6754524256
 30
0.0
 10
10.8750056688
 20
8.6733918658
 30
0.0
 10
10.8685392046
 20
8.6716996674
 30
0.0
 10
10.86199257
 20
8.6703998723
 30
0.0
 10
10.8553875788
 20
8.6695139378
 30
0.0
 10
10.8487495149
 20
8.6690594326
 30
0.0
 10
10.84210642
 20
8.6690487236
 30
0.0
 10
10.8354880071
 20
8.6694879651
 30
0.0
 10
10.8289243186
 20
8.6703765577
 30
0.0
 10
10.8224443101
 20
8.6717070878
 30
0.0
 10
10.8160745468
 20
8.673465862
 30
0.0
 10
10.80983817
 20
8.6756338977
 30
0.0
 10
10.8037542337
 20
8.678188191
 30
0.0
 10
10.7978374165
 20
8.6811030651
 30
0.0
 10
10.7920982222
 20
8.6843515152
 30
0.0
 10
10.7865432293
 20
8.6879064805
 30
0.0
 10
10.7793863833
 20
8.6930198387
 30
0.0
 10
10.770907066
 20
8.7000516732
 30
0.0
 10
10.7614733016
 20
8.7093203362
 30
0.0
 10
10.7527358865
 20
8.7192729765
 30
0.0
 10
10.7446488857
 20
8.7297863421
 30
0.0
 10
10.7396624888
 20
8.7370981594
 30
0.0
 10
10.7372619139
 20
8.7408173557
 30
0.0
  0
SPLINE
  5
3AE
100
AcDbEntity
  8
0
100
AcDbSpline
 62
7
  6
CONTINUOUS
 70
0
 71
3
 72
11
 73
7
 74
0
 42
0.0000001
 43
0.0000001
 44
0.0000000001
 40
0.0
 40
0.0
 40
0.0
 40
0.0
 40
0.2533135271
 40
0.5043296944
 40
0.7531806624
 40
1.0
 40
1.0
 40
1.0
 40
1.0
 10
10.7372619139
 20
8.7408173557
 30
0.0
 10
10.7337673968
 20
8.7434156217
 30
0.0
 10
10.7269464192
 20
8.7487748628
 30
0.0
 10
10.7171932714
 20
8.7572989587
 30
0.0
 10
10.7079676926
 20
8.7662312705
 30
0.0
 10
10.7021450398
 20
8.7724578238
 30
0.0
 10
10.6993229448
 20
8.7756261972
 30
0.0
  0
SPLINE
  5
3AF
100
AcDbEntity
  8
0
100
AcDbSpline
 62
7
  6
CONTINUOUS
 70
0
 71
3
 72
13
 73
9
 74
0
 42
0.0000001
 43
0.0000001
 44
0.0000000001
 40
0.0
 40
0.0
 40
0.0
 40
0.0
 40
0.2378442991
 40
0.4854949984
 40
0.6122182735
 40
0.7404296127
 40
0.869801639
 40
1.0
 40
1.0
 40
1.0
 40
1.0
 10
11.0442257799
 20
8.7344658278
 30
0.0
 10
11.0347929747
 20
8.7295291639
 30
0.0
 10
11.0151638394
 20
8.7201487804
 30
0.0
 10
10.9895190792
 20
8.7103797119
 30
0.0
 10
10.9679822956
 20
8.7038506372
 30
0.0
 10
10.951283903
 20
8.69968373
 30
0.0
 10
10.9342359371
 20
8.6963748392
 30
0.0
 10
10.9227164273
 20
8.6948001155
 30
0.0
 10
10.9169214553
 20
8.6941804005
 30
0.0
  0
SPLINE
  5
3B0
100
AcDbEntity
  8
0
100
AcDbSpline
 62
7
  6
CONTINUOUS
 70
0
 71
3
 72
23
 73
19
 74
0
 42
0.0000001
 43
0.0000001
 44
0.0000000001
 40
0.0
 40
0.0
 40
0.0
 40
0.0
 40
0.0664669691
 40
0.1324126198
 40
0.1978693394
 40
0.2628700374
 40
0.3915509143
 40
0.5185595675
 40
0.5814171555
 40
0.6437809068
 40
0.7055799018
 40
0.7667084138
 40
0.8270066705
 40
0.8862431905
 40
0.9153651522
 40
0.9440800137
 40
0.9723215143
 40
1.0
 40
1.0
 40
1.0
 40
1.0
 10
10.6991477981
 20
8.7761405048
 30
0.0
 10
10.6961104386
 20
8.7795666762
 30
0.0
 10
10.6902370451
 20
8.7865518099
 30
0.0
 10
10.6820039992
 20
8.7974216451
 30
0.0
 10
10.674373837
 20
8.808601052
 30
0.0
 10
10.6650234954
 20
8.8238139708
 30
0.0
 10
10.6547711952
 20
8.843418406
 30
0.0
 10
10.6463300571
 20
8.8637038459
 30
0.0
 10
10.6406750813
 20
8.8801373937
 30
0.0
 10
10.636987171
 20
8.8924853621
 30
0.0
 10
10.6338356359
 20
8.9048578067
 30
0.0
 10
10.6312210506
 20
8.9172094541
 30
0.0
 10
10.629149034
 20
8.9294845591
 30
0.0
 10
10.6278765337
 20
8.939649276
 30
0.0
 10
10.6271485505
 20
8.947681727
 30
0.0
 10
10.6267537839
 20
8.953598813
 30
0.0
 10
10.6265112469
 20
8.9594245559
 30
0.0
 10
10.6264545156
 20
8.963276869
 30
0.0
 10
10.626454629
 20
8.9651835394
 30
0.0
  0
SPLINE
  5
3B1
100
AcDbEntity
  8
0
100
AcDbSpline
 62
7
  6
CONTINUOUS
 70
0
 71
3
 72
52
 73
48
 74
0
 42
0.0000001
 43
0.0000001
 44
0.0000000001
 40
0.0
 40
0.0
 40
0.0
 40
0.0
 40
0.0055575409
 40
0.0111779669
 40
0.0169218944
 40
0.0228457784
 40
0.0290005385
 40
0.0354309383
 40
0.0421753664
 40
0.0492662129
 40
0.0567302428
 40
0.0645893498
 40
0.0728610114
 40
0.0815590518
 40
0.0906939685
 40
0.1002735876
 40
0.1103032329
 40
0.1207862668
 40
0.1317241336
 40
0.1431168099
 40
0.1549627623
 40
0.1672593293
 40
0.180002627
 40
0.1931878784
 40
0.2068092924
 40
0.2208603496
 40
0.2353336718
 40
0.2502212706
 40
0.2812030867
 40
0.3137301822
 40
0.3477175443
 40
0.3830726942
 40
0.4196965467
 40
0.4574841626
 40
0.4963254275
 40
0.5361056779
 40
0.5767062924
 40
0.6180052566
 40
0.6598777114
 40
0.7021964885
 40
0.7448326391
 40
0.7876559545
 40
0.8305354925
 40
0.8733400712
 40
0.9159388564
 40
0.9582016962
 40
1.0
 40
1.0
 40
1.0
 40
1.0
 10
12.0153372629
 20
9.9886773778
 30
0.0
 10
12.0153372674
 20
9.9876124041
 30
0.0
 10
12.0152180628
 20
9.9854685502
 30
0.0
 10
12.0146829239
 20
9.9822642147
 30
0.0
 10
12.0137924082
 20
9.9790670185
 30
0.0
 10
12.0125481813
 20
9.9758806897
 30
0.0
 10
12.0109523563
 20
9.9727077833
 30
0.0
 10
12.0090070169
 20
9.9695507668
 30
0.0
 10
12.0067144381
 20
9.9664117644
 30
0.0
 10
12.0040768097
 20
9.9632929402
 30
0.0
 10
12.0010965466
 20
9.9601963391
 30
0.0
 10
11.9977760938
 20
9.957124173
 30
0.0
 10
11.9941182007
 20
9.9540785739
 30
0.0
 10
11.9901257484
 20
9.9510618587
 30
0.0
 10
11.9858019585
 20
9.9480762421
 30
0.0
 10
11.9811502388
 20
9.9451241028
 30
0.0
 10
11.9761743379
 20
9.942207691
 30
0.0
 10
11.9708782164
 20
9.9393293946
 30
0.0
 10
11.9652661594
 20
9.9364914567
 30
0.0
 10
11.9593426745
 20
9.9336962356
 30
0.0
 10
11.9531125735
 20
9.9309459375
 30
0.0
 10
11.9465808942
 20
9.9282428646
 30
0.0
 10
11.9397529578
 20
9.9255891669
 30
0.0
 10
11.9326343109
 20
9.9229870724
 30
0.0
 10
11.9252307635
 20
9.92043866
 30
0.0
 10
11.9175483508
 20
9.9179460759
 30
0.0
 10
11.9095933413
 20
9.9155112971
 30
0.0
 10
11.8984838949
 20
9.9123020849
 30
0.0
 10
11.8839581888
 20
9.908460468
 30
0.0
 10
11.8657724511
 20
9.9041706055
 30
0.0
 10
11.8466669268
 20
9.900155956
 30
0.0
 10
11.8267041172
 20
9.8964297962
 30
0.0
 10
11.8059492049
 20
9.8930044685
 30
0.0
 10
11.7844700725
 20
9.8898913071
 30
0.0
 10
11.7623369972
 20
9.8871006105
 30
0.0
 10
11.7396224316
 20
9.8846416057
 30
0.0
 10
11.7164007539
 20
9.88252242
 30
0.0
 10
11.6927480204
 20
9.8807500549
 30
0.0
 10
11.6687417127
 20
9.8793303645
 30
0.0
 10
11.6444604798
 20
9.8782680366
 30
0.0
 10
11.6199838783
 20
9.8775665787
 30
0.0
 10
11.5953921095
 20
9.8772283061
 30
0.0
 10
11.5707657549
 20
9.8772543362
 30
0.0
 10
11.5461855102
 20
9.8776445812
 30
0.0
 10
11.5217319096
 20
9.8783977568
 30
0.0
 10
11.4974851435
 20
9.8795113683
 30
0.0
 10
11.4814062479
 20
9.8804980754
 30
0.0
 10
11.4734157647
 20
9.8810522173
 30
0.0
  0
SPLINE
  5
3B2
100
AcDbEntity
  8
0
100
AcDbSpline
 62
7
  6
CONTINUOUS
 70
0
 71
3
 72
91
 73
87
 74
0
 42
0.0000001
 43
0.0000001
 44
0.0000000001
 40
0.0
 40
0.0
 40
0.0
 40
0.0
 40
0.0027164146
 40
0.005453202
 40
0.008230252
 40
0.0110665198
 40
0.0139797053
 40
0.0169859824
 40
0.0200999174
 40
0.023334401
 40
0.0267007187
 40
0.0302086385
 40
0.0338665091
 40
0.0376814414
 40
0.0416593691
 40
0.0458052582
 40
0.0501231421
 40
0.0546162891
 40
0.0592872586
 40
0.064137982
 40
0.0691698666
 40
0.0743837897
 40
0.079780237
 40
0.0853592528
 40
0.0911205635
 40
0.0970635488
 40
0.1031872988
 40
0.1094906474
 40
0.1226297881
 40
0.1364673429
 40
0.1509860432
 40
0.166165828
 40
0.1819841602
 40
0.1984162836
 40
0.2154354412
 40
0.2330130641
 40
0.2511189358
 40
0.2697213391
 40
0.2887871904
 40
0.3082821639
 40
0.3281708096
 40
0.3484166635
 40
0.368982358
 40
0.3898297276
 40
0.4109199118
 40
0.4322134566
 40
0.4536704139
 40
0.4752504412
 40
0.4969128994
 40
0.5186169519
 40
0.5403216628
 40
0.5619860952
 40
0.5835694083
 40
0.6050309559
 40
0.6263303839
 40
0.6474277291
 40
0.6682835187
 40
0.688858872
 40
0.7091156002
 40
0.7290163102
 40
0.7485245085
 40
0.7676047097
 40
0.7862225487
 40
0.8043448976
 40
0.8219399925
 40
0.8389775679
 40
0.8554290014
 40
0.8712674776
 40
0.8864681732
 40
0.9010084737
 40
0.9148682315
 40
0.9280300795
 40
0.9343449284
 40
0.9404802779
 40
0.9464349254
 40
0.952207944
 40
0.9577987094
 40
0.9632068925
 40
0.9684325652
 40
0.9734761403
 40
0.9783384919
 40
0.9830209404
 40
0.9875254382
 40
0.9918545985
 40
0.9960115586
 40
1.0
 40
1.0
 40
1.0
 40
1.0
 10
12.2309478582
 20
7.3759607933
 30
0.0
 10
12.2298373634
 20
7.3760378015
 30
0.0
 10
12.2276137308
 20
7.3762928971
 30
0.0
 10
12.2243065839
 20
7.3769755362
 30
0.0
 10
12.221024445
 20
7.3779581117
 30
0.0
 10
12.2177696163
 20
7.3792395775
 30
0.0
 10
12.2145438304
 20
7.380818907
 30
0.0
 10
12.2113486853
 20
7.3826947571
 30
0.0
 10
12.2081857022
 20
7.3848658748
 30
0.0
 10
12.2050562553
 20
7.387330834
 30
0.0
 10
12.2019617045
 20
7.3900882114
 30
0.0
 10
12.1989034024
 20
7.3931365127
 30
0.0
 10
12.1958826423
 20
7.3964741152
 30
0.0
 10
12.1929008234
 20
7.4000993699
 30
0.0
 10
12.1899592301
 20
7.4040104244
 30
0.0
 10
12.1870592831
 20
7.4082053855
 30
0.0
 10
12.1842022952
 20
7.4126821586
 30
0.0
 10
12.1813896562
 20
7.4174385567
 30
0.0
 10
12.178622719
 20
7.4224722327
 30
0.0
 10
12.1759028112
 20
7.4277806956
 30
0.0
 10
12.1732313086
 20
7.4333613327
 30
0.0
 10
12.1706094778
 20
7.4392113609
 30
0.0
 10
12.1680386773
 20
7.4453278905
 30
0.0
 10
12.1655201372
 20
7.4517078635
 30
0.0
 10
12.1630551523
 20
7.4583481095
 30
0.0
 10
12.1606449445
 20
7.4652453064
 30
0.0
 10
12.1582906991
 20
7.4723960186
 30
0.0
 10
12.1551849463
 20
7.4824023551
 30
0.0
 10
12.1514621392
 20
7.4955247232
 30
0.0
 10
12.1472956746
 20
7.5120129274
 30
0.0
 10
12.1433790105
 20
7.5294202906
 30
0.0
 10
12.1397200945
 20
7.5477119177
 30
0.0
 10
12.1363263733
 20
7.5668512792
 30
0.0
 10
12.1332047525
 20
7.5868000328
 30
0.0
 10
12.1303615851
 20
7.6075181875
 30
0.0
 10
12.1278026581
 20
7.6289641721
 30
0.0
 10
12.1255331803
 20
7.6510949318
 30
0.0
 10
12.1235577719
 20
7.6738660173
 30
0.0
 10
12.1218804557
 20
7.6972316786
 30
0.0
 10
12.1205046491
 20
7.7211449589
 30
0.0
 10
12.1194331583
 20
7.7455577905
 30
0.0
 10
12.1186681707
 20
7.7704210934
 30
0.0
 10
12.1182112522
 20
7.7956848751
 30
0.0
 10
12.1180633455
 20
7.8212983341
 30
0.0
 10
12.118224768
 20
7.8472099622
 30
0.0
 10
12.1186952118
 20
7.8733676492
 30
0.0
 10
12.1194737445
 20
7.8997187879
 30
0.0
 10
12.1205588109
 20
7.9262103802
 30
0.0
 10
12.1219482367
 20
7.9527891436
 30
0.0
 10
12.1236392306
 20
7.9794016201
 30
0.0
 10
12.1256283922
 20
8.0059942834
 30
0.0
 10
12.1279117189
 20
8.0325136478
 30
0.0
 10
12.1304846141
 20
8.0589063757
 30
0.0
 10
12.1333418964
 20
8.0851193852
 30
0.0
 10
12.1364778095
 20
8.1110999568
 30
0.0
 10
12.1398860345
 20
8.13679584
 30
0.0
 10
12.1435597013
 20
8.1621553598
 30
0.0
 10
12.1474914011
 20
8.1871275216
 30
0.0
 10
12.1516732037
 20
8.2116621146
 30
0.0
 10
12.1560966721
 20
8.2357098128
 30
0.0
 10
12.1607528801
 20
8.2592222754
 30
0.0
 10
12.1656324296
 20
8.2821522451
 30
0.0
 10
12.1707254689
 20
8.3044536447
 30
0.0
 10
12.1760217136
 20
8.3260816723
 30
0.0
 10
12.1815104649
 20
8.3469928958
 30
0.0
 10
12.1871806317
 20
8.3671453446
 30
0.0
 10
12.1930207551
 20
8.3864985956
 30
0.0
 10
12.199019032
 20
8.4050138663
 30
0.0
 10
12.2051633406
 20
8.422654078
 30
0.0
 10
12.2114412719
 20
8.4393840175
 30
0.0
 10
12.2178401497
 20
8.4551701543
 30
0.0
 10
12.2233357551
 20
8.4676795503
 30
0.0
 10
12.2277908809
 20
8.4771831269
 30
0.0
 10
12.2311082678
 20
8.4839569553
 30
0.0
 10
12.2344462022
 20
8.490472183
 30
0.0
 10
12.2378030398
 20
8.4967255578
 30
0.0
 10
12.2411770694
 20
8.5027139659
 30
0.0
 10
12.2445666483
 20
8.5084344085
 30
0.0
 10
12.2479700404
 20
8.5138840617
 30
0.0
 10
12.2513856088
 20
8.5190601899
 30
0.0
 10
12.254811603
 20
8.5239602387
 30
0.0
 10
12.2582463673
 20
8.5285817749
 30
0.0
 10
12.2616882412
 20
8.5329225427
 30
0.0
 10
12.265135608
 20
8.5369804441
 30
0.0
 10
12.268586654
 20
8.5407532778
 30
0.0
 10
12.2709364935
 20
8.543125525
 30
0.0
 10
12.2721120623
 20
8.5442610373
 30
0.0
  0
SPLINE
  5
3B3
100
AcDbEntity
  8
0
100
AcDbSpline
 62
7
  6
CONTINUOUS
 70
0
 71
3
 72
64
 73
60
 74
0
 42
0.0000001
 43
0.0000001
 44
0.0000000001
 40
0.0
 40
0.0
 40
0.0
 40
0.0
 40
0.0036899171
 40
0.0075220509
 40
0.0114999147
 40
0.0156263711
 40
0.0199037842
 40
0.0243340462
 40
0.0336577491
 40
0.0436055052
 40
0.0541794161
 40
0.0653773962
 40
0.0771938899
 40
0.0896203779
 40
0.1026457317
 40
0.116256577
 40
0.1304375629
 40
0.1451715332
 40
0.1604396972
 40
0.1762218171
 40
0.1924963225
 40
0.2092403855
 40
0.2264300592
 40
0.2440403769
 40
0.2620454078
 40
0.2804183377
 40
0.2991315723
 40
0.337464377
 40
0.3768104773
 40
0.416927532
 40
0.457566968
 40
0.498476051
 40
0.5393999116
 40
0.5800835632
 40
0.6202739153
 40
0.6597218218
 40
0.698184094
 40
0.7169721221
 40
0.7354263331
 40
0.7535189619
 40
0.7712230211
 40
0.7885123599
 40
0.8053617693
 40
0.8217470726
 40
0.8376451827
 40
0.8530342052
 40
0.8678935889
 40
0.8822042145
 40
0.89594852
 40
0.909110705
 40
0.9216769353
 40
0.9336355467
 40
0.9449773553
 40
0.9556960798
 40
0.9657888174
 40
0.9752566
 40
0.984105233
 40
0.9923468705
 40
1.0
 40
1.0
 40
1.0
 40
1.0
 10
12.2021957398
 20
7.5724925066
 30
0.0
 10
12.2015544494
 20
7.5732810025
 30
0.0
 10
12.2002803908
 20
7.5749156617
 30
0.0
 10
12.1984284452
 20
7.5774862295
 30
0.0
 10
12.1966008065
 20
7.5802200005
 30
0.0
 10
12.1947982093
 20
7.5831157757
 30
0.0
 10
12.1930213503
 20
7.5861724062
 30
0.0
 10
12.1906470223
 20
7.5905353199
 30
0.0
 10
12.1877567511
 20
7.5963923876
 30
0.0
 10
12.1844593514
 20
7.6039253616
 30
0.0
 10
12.1812814348
 20
7.612066106
 30
0.0
 10
12.1782282068
 20
7.6208012693
 30
0.0
 10
12.1753046921
 20
7.6301167107
 30
0.0
 10
12.1725157644
 20
7.6399971835
 30
0.0
 10
12.1698660629
 20
7.6504264603
 30
0.0
 10
12.1673600183
 20
7.6613873573
 30
0.0
 10
12.1650018412
 20
7.6728617842
 30
0.0
 10
12.1627954886
 20
7.6848307661
 30
0.0
 10
12.1607446521
 20
7.6972744816
 30
0.0
 10
12.1588527773
 20
7.7101723107
 30
0.0
 10
12.1571230518
 20
7.7235028679
 30
0.0
 10
12.1555583685
 20
7.7372440323
 30
0.0
 10
12.1541613515
 20
7.7513729934
 30
0.0
 10
12.1529343538
 20
7.765866296
 30
0.0
 10
12.1518794425
 20
7.7806998645
 30
0.0
 10
12.1509983583
 20
7.7958490779
 30
0.0
 10
12.150049845
 20
7.8166013591
 30
0.0
 10
12.149317835
 20
7.8431442933
 30
0.0
 10
12.1491548083
 20
7.8755922971
 30
0.0
 10
12.1497018589
 20
7.9086714964
 30
0.0
 10
12.150955474
 20
7.9421621502
 30
0.0
 10
12.1529074574
 20
7.9758419299
 30
0.0
 10
12.1555448921
 20
8.0094871888
 30
0.0
 10
12.158850217
 20
8.0428745142
 30
0.0
 10
12.1628014045
 20
8.0757822745
 30
0.0
 10
12.1673720481
 20
8.1079918829
 30
0.0
 10
12.1717046517
 20
8.1342744701
 30
0.0
 10
12.1754653828
 20
8.1547851366
 30
0.0
 10
12.1783986859
 20
8.1697421431
 30
0.0
 10
12.1814617485
 20
8.1843682062
 30
0.0
 10
12.1846494843
 20
8.1986390528
 30
0.0
 10
12.1879565792
 20
8.2125309751
 30
0.0
 10
12.1913775195
 20
8.2260209101
 30
0.0
 10
12.1949065884
 20
8.2390864728
 30
0.0
 10
12.1985378991
 20
8.2517059857
 30
0.0
 10
12.2022654031
 20
8.2638585187
 30
0.0
 10
12.2060828696
 20
8.2755239397
 30
0.0
 10
12.2099839247
 20
8.2866829396
 30
0.0
 10
12.2139620709
 20
8.2973170607
 30
0.0
 10
12.2180106782
 20
8.3074087465
 30
0.0
 10
12.2221229957
 20
8.3169413805
 30
0.0
 10
12.226292194
 20
8.325899303
 30
0.0
 10
12.2305113887
 20
8.334267848
 30
0.0
 10
12.2347736197
 20
8.3420334061
 30
0.0
 10
12.2390719546
 20
8.3491834415
 30
0.0
 10
12.243399461
 20
8.3557064364
 30
0.0
 10
12.2477495041
 20
8.3615922704
 30
0.0
 10
12.2521150959
 20
8.3668311691
 30
0.0
 10
12.255141067
 20
8.3700016554
 30
0.0
 10
12.2566572474
 20
8.3714661733
 30
0.0
  0
SPLINE
  5
3B4
100
AcDbEntity
  8
0
100
AcDbSpline
 62
7
  6
CONTINUOUS
 70
0
 71
3
 72
9
 73
5
 74
0
 42
0.0000001
 43
0.0000001
 44
0.0000000001
 40
0.0
 40
0.0
 40
0.0
 40
0.0
 40
0.4960909153
 40
1.0
 40
1.0
 40
1.0
 40
1.0
 10
12.1920761881
 20
7.5991849645
 30
0.0
 10
12.1910572823
 20
7.5992556234
 30
0.0
 10
12.1890106106
 20
7.5995333054
 30
0.0
 10
12.1870173515
 20
7.6000725308
 30
0.0
 10
12.1860341617
 20
7.6004036471
 30
0.0
  0
SPLINE
  5
3B5
100
AcDbEntity
  8
0
100
AcDbSpline
 62
7
  6
CONTINUOUS
 70
0
 71
3
 72
9
 73
5
 74
0
 42
0.0000001
 43
0.0000001
 44
0.0000000001
 40
0.0
 40
0.0
 40
0.0
 40
0.0
 40
0.4959902741
 40
1.0
 40
1.0
 40
1.0
 40
1.0
 10
12.2439642361
 20
8.3473878738
 30
0.0
 10
12.2429319582
 20
8.34745946
 30
0.0
 10
12.2408388351
 20
8.3474652442
 30
0.0
 10
12.2387634364
 20
8.3471976071
 30
0.0
 10
12.237730787
 20
8.3469994624
 30
0.0
  0
SPLINE
  5
3B6
100
AcDbEntity
  8
0
100
AcDbSpline
 62
7
  6
CONTINUOUS
 70
0
 71
3
 72
25
 73
21
 74
0
 42
0.0000001
 43
0.0000001
 44
0.0000000001
 40
0.0
 40
0.0
 40
0.0
 40
0.0
 40
0.0616475282
 40
0.0924812782
 40
0.1233236452
 40
0.1850399949
 40
0.2468243989
 40
0.277751634
 40
0.3087038677
 40
0.3706878948
 40
0.4328012861
 40
0.4950619216
 40
0.5574860801
 40
0.6200882709
 40
0.6828811113
 40
0.7458751472
 40
0.8090789555
 40
0.8724985283
 40
0.936138578
 40
1.0
 40
1.0
 40
1.0
 40
1.0
 10
9.7427673477
 20
7.1711978951
 30
0.0
 10
9.7480978361
 20
7.1763467657
 30
0.0
 10
9.7563044081
 20
7.1838578943
 30
0.0
 10
9.7676364982
 20
7.1934194322
 30
0.0
 10
9.7792280019
 20
7.2026786292
 30
0.0
 10
9.7941876252
 20
7.2136713912
 30
0.0
 10
9.8097232965
 20
7.2238523866
 30
0.0
 10
9.8224756142
 20
7.2314970365
 30
0.0
 10
9.8354482237
 20
7.2388105241
 30
0.0
 10
9.8520468661
 20
7.2473124063
 30
0.0
 10
9.8725101602
 20
7.2564574879
 30
0.0
 10
9.8934775523
 20
7.2645279831
 30
0.0
 10
9.914895867
 20
7.2715034124
 30
0.0
 10
9.9367112445
 20
7.2773663189
 30
0.0
 10
9.9588687076
 20
7.2821019757
 30
0.0
 10
9.9813124867
 20
7.2856985369
 30
0.0
 10
10.0039859946
 20
7.2881469823
 30
0.0
 10
10.0268324056
 20
7.2894412488
 30
0.0
 10
10.0497934056
 20
7.2895781229
 30
0.0
 10
10.0651138906
 20
7.2888986853
 30
0.0
 10
10.0727727834
 20
7.2883675393
 30
0.0
  0
SPLINE
  5
3B7
100
AcDbEntity
  8
0
100
AcDbSpline
 62
7
  6
CONTINUOUS
 70
0
 71
3
 72
23
 73
19
 74
0
 42
0.0000001
 43
0.0000001
 44
0.0000000001
 40
0.0
 40
0.0
 40
0.0
 40
0.0
 40
0.0616482097
 40
0.123319447
 40
0.1850364789
 40
0.2468215645
 40
0.3086962086
 40
0.3706809238
 40
0.4327950069
 40
0.4950563354
 40
0.5574811816
 40
0.620084074
 40
0.6828775998
 40
0.7458723259
 40
0.8090769666
 40
0.8724967557
 40
0.9361385685
 40
1.0
 40
1.0
 40
1.0
 40
1.0
 10
9.8775485645
 20
7.0580791037
 30
0.0
 10
9.8809151896
 20
7.0613310001
 30
0.0
 10
9.8878260577
 20
7.0676562363
 30
0.0
 10
9.8986894281
 20
7.0765750273
 30
0.0
 10
9.9100245249
 20
7.0849043012
 30
0.0
 10
9.9218023997
 20
7.0926227103
 30
0.0
 10
9.9339934699
 20
7.0997109255
 30
0.0
 10
9.9465669885
 20
7.1061510757
 30
0.0
 10
9.9594912834
 20
7.1119269533
 30
0.0
 10
9.9727337791
 20
7.1170240458
 30
0.0
 10
9.9862611095
 20
7.1214295567
 30
0.0
 10
10.0000391995
 20
7.1251324228
 30
0.0
 10
10.0140333447
 20
7.1281233499
 30
0.0
 10
10.0282083305
 20
7.1303948429
 30
0.0
 10
10.0425283724
 20
7.1319411878
 30
0.0
 10
10.0569576922
 20
7.1327586467
 30
0.0
 10
10.0714593226
 20
7.1328450538
 30
0.0
 10
10.0811354163
 20
7.1324159561
 30
0.0
 10
10.085972544
 20
7.1320805001
 30
0.0
  0
SPLINE
  5
3B8
100
AcDbEntity
  8
0
100
AcDbSpline
 62
7
  6
CONTINUOUS
 70
0
 71
3
 72
39
 73
35
 74
0
 42
0.0000001
 43
0.0000001
 44
0.0000000001
 40
0.0
 40
0.0
 40
0.0
 40
0.0
 40
0.0299393048
 40
0.0599022805
 40
0.0899120376
 40
0.1199905841
 40
0.1501583161
 40
0.1804335571
 40
0.2108321567
 40
0.2413671582
 40
0.2720485418
 40
0.3028830453
 40
0.333874066
 40
0.3650216372
 40
0.3963224773
 40
0.427770107
 40
0.459355027
 40
0.4910649499
 40
0.5228850821
 40
0.5547984438
 40
0.586786223
 40
0.6188281554
 40
0.6509029263
 40
0.6829885863
 40
0.7150629767
 40
0.747104156
 40
0.7790908247
 40
0.8110027395
 40
0.8428211156
 40
0.8745290113
 40
0.906111652
 40
0.937556897
 40
0.9688549576
 40
1.0
 40
1.0
 40
1.0
 40
1.0
 10
10.2943965235
 20
6.6265263665
 30
0.0
 10
10.2993007728
 20
6.6312634876
 30
0.0
 10
10.3087458087
 20
6.6411304538
 30
0.0
 10
10.3217174176
 20
6.6570004524
 30
0.0
 10
10.3334299468
 20
6.6738612357
 30
0.0
 10
10.3438196277
 20
6.6916213242
 30
0.0
 10
10.3528313166
 20
6.7101859027
 30
0.0
 10
10.3604168915
 20
6.7294554841
 30
0.0
 10
10.3665360106
 20
6.7493269553
 30
0.0
 10
10.371156177
 20
6.7696940053
 30
0.0
 10
10.3742529491
 20
6.7904477334
 30
0.0
 10
10.3758100481
 20
6.8114772292
 30
0.0
 10
10.3758194187
 20
6.8326701711
 30
0.0
 10
10.3742812613
 20
6.8539134215
 30
0.0
 10
10.3712040195
 20
6.8750936256
 30
0.0
 10
10.3666043231
 20
6.8960978081
 30
0.0
 10
10.360506903
 20
6.9168139698
 30
0.0
 10
10.3529444592
 20
6.9371316805
 30
0.0
 10
10.3439574658
 20
6.9569426566
 30
0.0
 10
10.3335939574
 20
6.9761413297
 30
0.0
 10
10.3219092725
 20
6.9946254012
 30
0.0
 10
10.3089657588
 20
7.012296379
 30
0.0
 10
10.294832449
 20
7.0290600991
 30
0.0
 10
10.2795847029
 20
7.0448272311
 30
0.0
 10
10.2633037943
 20
7.0595137375
 30
0.0
 10
10.2460764845
 20
7.0730413188
 30
0.0
 10
10.2279945662
 20
7.0853378256
 30
0.0
 10
10.2091543764
 20
7.0963376392
 30
0.0
 10
10.1896563044
 20
7.105982023
 30
0.0
 10
10.169604225
 20
7.114219441
 30
0.0
 10
10.1491050993
 20
7.1210058449
 30
0.0
 10
10.12826784
 20
7.126304839
 30
0.0
 10
10.1072049759
 20
7.1300879611
 30
0.0
 10
10.0930486506
 20
7.1315897705
 30
0.0
 10
10.085972544
 20
7.1320805001
 30
0.0
  0
SPLINE
  5
3B9
100
AcDbEntity
  8
0
100
AcDbSpline
 62
7
  6
CONTINUOUS
 70
0
 71
3
 72
27
 73
23
 74
0
 42
0.0000001
 43
0.0000001
 44
0.0000000001
 40
0.0
 40
0.0
 40
0.0
 40
0.0
 40
0.0616468919
 40
0.092480324
 40
0.1233223738
 40
0.1850380873
 40
0.2468218549
 40
0.2777487728
 40
0.3087006876
 40
0.3706840776
 40
0.4327968309
 40
0.4950568274
 40
0.5574803452
 40
0.6200818953
 40
0.6828740866
 40
0.7143476821
 40
0.745872711
 40
0.809075826
 40
0.8724948563
 40
0.9042889874
 40
0.9361391032
 40
1.0
 40
1.0
 40
1.0
 40
1.0
 10
10.2631018521
 20
9.2527795639
 30
0.0
 10
10.2697789827
 20
9.2592291837
 30
0.0
 10
10.2800588097
 20
9.2686378026
 30
0.0
 10
10.2942537006
 20
9.2806148828
 30
0.0
 10
10.3087736064
 20
9.2922131608
 30
0.0
 10
10.3275124679
 20
9.3059830127
 30
0.0
 10
10.3469729299
 20
9.3187359842
 30
0.0
 10
10.3629468511
 20
9.3283119027
 30
0.0
 10
10.3791967439
 20
9.3374729504
 30
0.0
 10
10.39998869
 20
9.3481226484
 30
0.0
 10
10.4256216274
 20
9.3595780203
 30
0.0
 10
10.4518859822
 20
9.3696873357
 30
0.0
 10
10.4787152724
 20
9.3784249569
 30
0.0
 10
10.5060415684
 20
9.3857689375
 30
0.0
 10
10.5291537424
 20
9.3907085914
 30
0.0
 10
10.547819358
 20
9.3939480413
 30
0.0
 10
10.5666234464
 20
9.3967150164
 30
0.0
 10
10.5903121803
 20
9.3992731476
 30
0.0
 10
10.6141407363
 20
9.400622983
 30
0.0
 10
10.6332737249
 20
9.4009798303
 30
0.0
 10
10.6524757716
 20
9.400853594
 30
0.0
 10
10.666882688
 20
9.4002146981
 30
0.0
 10
10.6764764606
 20
9.3995493677
 30
0.0
  0
SPLINE
  5
3BA
100
AcDbEntity
  8
0
100
AcDbSpline
 62
7
  6
CONTINUOUS
 70
0
 71
3
 72
23
 73
19
 74
0
 42
0.0000001
 43
0.0000001
 44
0.0000000001
 40
0.0
 40
0.0
 40
0.0
 40
0.0
 40
0.0616482071
 40
0.1233194423
 40
0.1850364754
 40
0.2468215648
 40
0.3086962113
 40
0.3706809251
 40
0.4327950039
 40
0.4950563299
 40
0.5574811805
 40
0.6200840695
 40
0.682877611
 40
0.7458723236
 40
0.8090769236
 40
0.8724969197
 40
0.9361382346
 40
1.0
 40
1.0
 40
1.0
 40
1.0
 10
10.4304403442
 20
9.108543914
 30
0.0
 10
10.4346486183
 20
9.1126087917
 30
0.0
 10
10.4432872193
 20
9.1205153194
 30
0.0
 10
10.4568664177
 20
9.1316638242
 30
0.0
 10
10.471035282
 20
9.1420754272
 30
0.0
 10
10.4857576279
 20
9.1517234365
 30
0.0
 10
10.5009964739
 20
9.1605836928
 30
0.0
 10
10.5167133779
 20
9.1686338682
 30
0.0
 10
10.5328687417
 20
9.1758537235
 30
0.0
 10
10.5494218557
 20
9.1822251035
 30
0.0
 10
10.566331017
 20
9.1877319977
 30
0.0
 10
10.5835536333
 20
9.192360574
 30
0.0
 10
10.6010463184
 20
9.1960992149
 30
0.0
 10
10.6187650461
 20
9.1989385843
 30
0.0
 10
10.6366651117
 20
9.2008715323
 30
0.0
 10
10.6547017308
 20
9.2018933396
 30
0.0
 10
10.6728287728
 20
9.2020013695
 30
0.0
 10
10.6849238741
 20
9.2014649849
 30
0.0
 10
10.6909703154
 20
9.2010456628
 30
0.0
  0
SPLINE
  5
3BB
100
AcDbEntity
  8
0
100
AcDbSpline
 62
7
  6
CONTINUOUS
 70
0
 71
3
 72
40
 73
36
 74
0
 42
0.0000001
 43
0.0000001
 44
0.0000000001
 40
0.0
 40
0.0
 40
0.0
 40
0.0
 40
0.0149709509
 40
0.029944873
 40
0.0599076764
 40
0.0899172612
 40
0.1199956351
 40
0.150163194
 40
0.1804382612
 40
0.2108366869
 40
0.2413715135
 40
0.2720527202
 40
0.3028870458
 40
0.3338778888
 40
0.3650252823
 40
0.3963259433
 40
0.427773392
 40
0.4593581298
 40
0.4910678708
 40
0.5228878207
 40
0.5548009994
 40
0.586788595
 40
0.6188303434
 40
0.6509049301
 40
0.6829904059
 40
0.7150646125
 40
0.747105608
 40
0.7790920925
 40
0.8110038238
 40
0.8428220182
 40
0.8745297298
 40
0.9061121975
 40
0.9375572463
 40
0.9688551314
 40
1.0
 40
1.0
 40
1.0
 40
1.0
 10
10.9515002866
 20
8.569102999
 30
0.0
 10
10.9545657207
 20
8.5720639789
 30
0.0
 10
10.9605819364
 20
8.5781073976
 30
0.0
 10
10.9721340223
 20
8.5906582684
 30
0.0
 10
10.9856519807
 20
8.6071961685
 30
0.0
 10
11.0002919181
 20
8.6282714285
 30
0.0
 10
11.0132792129
 20
8.6504717333
 30
0.0
 10
11.0245437752
 20
8.6736774025
 30
0.0
 10
11.0340257628
 20
8.697764392
 30
0.0
 10
11.0416746446
 20
8.722603732
 30
0.0
 10
11.0474498442
 20
8.7480625474
 30
0.0
 10
11.0513208186
 20
8.7740047051
 30
0.0
 10
11.0532672096
 20
8.8002915735
 30
0.0
 10
11.0532789242
 20
8.8267827516
 30
0.0
 10
11.0513562105
 20
8.8533368142
 30
0.0
 10
11.0475096479
 20
8.8798120678
 30
0.0
 10
11.0417600342
 20
8.9060672969
 30
0.0
 10
11.0341382735
 20
8.9319625032
 30
0.0
 10
11.0246852147
 20
8.9573596405
 30
0.0
 10
11.0134514694
 20
8.9821233592
 30
0.0
 10
11.0004970843
 20
9.0061217009
 30
0.0
 10
10.9858912298
 20
9.0292267917
 30
0.0
 10
10.969711829
 20
9.0513155077
 30
0.0
 10
10.9520451915
 20
9.0722701574
 30
0.0
 10
10.9329855157
 20
9.0919790789
 30
0.0
 10
10.9126343884
 20
9.1103372219
 30
0.0
 10
10.891100247
 20
9.1272466941
 30
0.0
 10
10.8684978388
 20
9.1426173123
 30
0.0
 10
10.8449475992
 20
9.1563670747
 30
0.0
 10
10.8205750167
 20
9.1684225679
 30
0.0
 10
10.7955099205
 20
9.1787193549
 30
0.0
 10
10.7698860116
 20
9.1872023467
 30
0.0
 10
10.743839438
 20
9.193826087
 30
0.0
 10
10.717510859
 20
9.1985549861
 30
0.0
 10
10.6998154501
 20
9.2004322506
 30
0.0
 10
10.6909703154
 20
9.2010456628
 30
0.0
  0
SPLINE
  5
3BC
100
AcDbEntity
  8
0
100
AcDbSpline
 62
7
  6
CONTINUOUS
 70
0
 71
3
 72
42
 73
38
 74
0
 42
0.0000001
 43
0.0000001
 44
0.0000000001
 40
0.0
 40
0.0
 40
0.0
 40
0.0
 40
0.0311011277
 40
0.0467101807
 40
0.0623554097
 40
0.0937478689
 40
0.1252743287
 40
0.1569236549
 40
0.1886822748
 40
0.2205346111
 40
0.2524633413
 40
0.2844497426
 40
0.3164740385
 40
0.3485157641
 40
0.3805541384
 40
0.4125684408
 40
0.4445383879
 40
0.476444503
 40
0.5082684769
 40
0.5399935126
 40
0.5716046495
 40
0.6030890619
 40
0.6344363262
 40
0.6656386502
 40
0.6966910599
 40
0.7275915373
 40
0.7583411035
 40
0.788943843
 40
0.8194068642
 40
0.8497401938
 40
0.8648647176
 40
0.8799618248
 40
0.9100765936
 40
0.9401072013
 40
0.955099593
 40
0.9700783213
 40
1.0
 40
1.0
 40
1.0
 40
1.0
 10
10.2441116203
 20
6.7989704077
 30
0.0
 10
10.2394697138
 20
6.799292325
 30
0.0
 10
10.2325120545
 20
6.8000226526
 30
0.0
 10
10.2232963296
 20
6.8014806671
 30
0.0
 10
10.2140936483
 20
6.803266307
 30
0.0
 10
10.202676868
 20
6.8061038071
 30
0.0
 10
10.1892020973
 20
6.81045261
 30
0.0
 10
10.1760029628
 20
6.8157274739
 30
0.0
 10
10.1631459949
 20
6.8219018121
 30
0.0
 10
10.1506954924
 20
6.82894462
 30
0.0
 10
10.1387138507
 20
6.8368205424
 30
0.0
 10
10.1272610778
 20
6.8454900697
 30
0.0
 10
10.1163945445
 20
6.854909731
 30
0.0
 10
10.1061686875
 20
6.865032311
 30
0.0
 10
10.0966347426
 20
6.8758070844
 30
0.0
 10
10.0878404895
 20
6.8871800681
 30
0.0
 10
10.0798300152
 20
6.8990942888
 30
0.0
 10
10.072643494
 20
6.9114900656
 30
0.0
 10
10.0663169878
 20
6.9243053058
 30
0.0
 10
10.0608822665
 20
6.9374758125
 30
0.0
 10
10.0563666479
 20
6.9509356018
 30
0.0
 10
10.0527928608
 20
6.96461723
 30
0.0
 10
10.0501789296
 20
6.9784521267
 30
0.0
 10
10.0485380824
 20
6.9923709355
 30
0.0
 10
10.0478786797
 20
7.0063038534
 30
0.0
 10
10.0482041738
 20
7.0201809911
 30
0.0
 10
10.0495130641
 20
7.0339326686
 30
0.0
 10
10.0517989795
 20
7.0474899542
 30
0.0
 10
10.0550504015
 20
7.0607842999
 30
0.0
 10
10.0585551432
 20
7.0716004381
 30
0.0
 10
10.0618231593
 20
7.0800520726
 30
0.0
 10
10.0653900659
 20
7.088346411
 30
0.0
 10
10.070413221
 20
7.0984330826
 30
0.0
 10
10.0761711617
 20
7.1081009988
 30
0.0
 10
10.0811948425
 20
7.1155429328
 30
0.0
 10
10.0864861524
 20
7.1227762804
 30
0.0
 10
10.0907590302
 20
7.1279707277
 30
0.0
 10
10.0937320803
 20
7.1313175023
 30
0.0
  0
SPLINE
  5
3BD
100
AcDbEntity
  8
0
100
AcDbSpline
 62
7
  6
CONTINUOUS
 70
0
 71
3
 72
42
 73
38
 74
0
 42
0.0000001
 43
0.0000001
 44
0.0000000001
 40
0.0
 40
0.0
 40
0.0
 40
0.0
 40
0.0309100383
 40
0.0464157567
 40
0.0619528783
 40
0.0931172307
 40
0.1244008752
 40
0.1557961623
 40
0.1872938863
 40
0.2188833608
 40
0.2505526092
 40
0.2822885335
 40
0.3140771077
 40
0.3459035758
 40
0.3777526591
 40
0.4096087676
 40
0.4414562147
 40
0.4732794328
 40
0.5050631881
 40
0.5367927913
 40
0.5684543039
 40
0.6000347367
 40
0.6315222388
 40
0.6629062738
 40
0.6941777833
 40
0.7253293315
 40
0.7563552321
 40
0.7872516525
 40
0.8180166935
 40
0.8486504427
 40
0.8639205349
 40
0.8791587573
 40
0.9095382227
 40
0.939798665
 40
0.9548886114
 40
0.9699519373
 40
1.0
 40
1.0
 40
1.0
 40
1.0
 10
10.2296169955
 20
6.6912748637
 30
0.0
 10
10.2236452288
 20
6.6916890072
 30
0.0
 10
10.2146938227
 20
6.6925872123
 30
0.0
 10
10.2028216048
 20
6.6943285016
 30
0.0
 10
10.1909587558
 20
6.6964374873
 30
0.0
 10
10.1762145848
 20
6.6997544105
 30
0.0
 10
10.1587443571
 20
6.704800751
 30
0.0
 10
10.1415439034
 20
6.7108981513
 30
0.0
 10
10.124679006
 20
6.7180232803
 30
0.0
 10
10.108213656
 20
6.726149008
 30
0.0
 10
10.0922104577
 20
6.7352443834
 30
0.0
 10
10.0767302191
 20
6.7452747895
 30
0.0
 10
10.0618317699
 20
6.7562020631
 30
0.0
 10
10.0475717269
 20
6.7679846431
 30
0.0
 10
10.0340042845
 20
6.7805777264
 30
0.0
 10
10.0211810087
 20
6.7939334376
 30
0.0
 10
10.0091506435
 20
6.8080010096
 30
0.0
 10
9.9979589264
 20
6.8227269754
 30
0.0
 10
9.9876484157
 20
6.8380553697
 30
0.0
 10
9.9782583298
 20
6.8539279401
 30
0.0
 10
9.9698243989
 20
6.8702843665
 30
0.0
 10
9.9623787293
 20
6.8870624885
 30
0.0
 10
9.955949682
 20
6.9041985394
 30
0.0
 10
9.9505617643
 20
6.9216273872
 30
0.0
 10
9.9462355362
 20
6.9392827759
 30
0.0
 10
9.942987533
 20
6.9570975893
 30
0.0
 10
9.9408301934
 20
6.9750040516
 30
0.0
 10
9.9397718386
 20
6.9929341747
 30
0.0
 10
9.9398165334
 20
7.0108193034
 30
0.0
 10
9.9407741697
 20
7.0256467329
 30
0.0
 10
9.9420910936
 20
7.037415876
 30
0.0
 10
9.9437697484
 20
7.0490891595
 30
0.0
 10
9.9465477327
 20
7.0635295268
 30
0.0
 10
9.9502303506
 20
7.0777365806
 30
0.0
 10
9.9537074591
 20
7.0889097526
 30
0.0
 10
9.9575281117
 20
7.099926174
 30
0.0
 10
9.9607892008
 20
7.1080397375
 30
0.0
 10
9.9631337317
 20
7.113365712
 30
0.0
  0
SPLINE
  5
3BE
100
AcDbEntity
  8
0
100
AcDbSpline
 62
7
  6
CONTINUOUS
 70
0
 71
3
 72
71
 73
67
 74
0
 42
0.0000001
 43
0.0000001
 44
0.0000000001
 40
0.0
 40
0.0
 40
0.0
 40
0.0
 40
0.0156216999
 40
0.0311907601
 40
0.0467067152
 40
0.0621710784
 40
0.077585053
 40
0.0929506336
 40
0.1082702315
 40
0.1235467316
 40
0.138783465
 40
0.1539841696
 40
0.1691529587
 40
0.1842942792
 40
0.1994128685
 40
0.2145137046
 40
0.2296019546
 40
0.2446829194
 40
0.2597619773
 40
0.2748445271
 40
0.2899359306
 40
0.3050414555
 40
0.3201662189
 40
0.3353151329
 40
0.3504928541
 40
0.3657037359
 40
0.3809517858
 40
0.396240626
 40
0.4115734582
 40
0.4269530343
 40
0.4423816324
 40
0.4578610404
 40
0.473392542
 40
0.4889769091
 40
0.5046143984
 40
0.5203047543
 40
0.5360472179
 40
0.5518405389
 40
0.567682992
 40
0.5835723963
 40
0.5995061391
 40
0.6154812041
 40
0.6314942032
 40
0.6475414081
 40
0.6636187857
 40
0.6797220347
 40
0.695846626
 40
0.7119878442
 40
0.7281408286
 40
0.7443006159
 40
0.7604621826
 40
0.7766204897
 40
0.7927705272
 40
0.8089073579
 40
0.8250261591
 40
0.8411222652
 40
0.85719121
 40
0.8732287678
 40
0.8892309905
 40
0.9051942484
 40
0.9211152564
 40
0.9369911048
 40
0.9528193679
 40
0.9685977669
 40
0.9843253049
 40
1.0
 40
1.0
 40
1.0
 40
1.0
 10
10.0769138849
 20
6.5099675708
 30
0.0
 10
10.0821989625
 20
6.5096010494
 30
0.0
 10
10.0927710159
 20
6.5091265256
 30
0.0
 10
10.1086165931
 20
6.5091951192
 30
0.0
 10
10.1243865206
 20
6.5100452127
 30
0.0
 10
10.1400421426
 20
6.5116746643
 30
0.0
 10
10.1555460002
 20
6.514079692
 30
0.0
 10
10.1708606329
 20
6.5172545022
 30
0.0
 10
10.1859491479
 20
6.5211914925
 30
0.0
 10
10.2007751644
 20
6.5258811973
 30
0.0
 10
10.2153029343
 20
6.5313123423
 30
0.0
 10
10.229497421
 20
6.5374718679
 30
0.0
 10
10.2433243833
 20
6.5443449593
 30
0.0
 10
10.2567504638
 20
6.5519150707
 30
0.0
 10
10.2697432793
 20
6.5601639546
 30
0.0
 10
10.2822714873
 20
6.5690717298
 30
0.0
 10
10.2943048632
 20
6.5786169246
 30
0.0
 10
10.3058143732
 20
6.5887765288
 30
0.0
 10
10.3167722443
 20
6.5995260484
 30
0.0
 10
10.3271520534
 20
6.6108395451
 30
0.0
 10
10.3369287736
 20
6.6226897225
 30
0.0
 10
10.3460788334
 20
6.6350479917
 30
0.0
 10
10.3545801743
 20
6.6478845403
 30
0.0
 10
10.3624122988
 20
6.6611684062
 30
0.0
 10
10.369556344
 20
6.6748675391
 30
0.0
 10
10.3759951173
 20
6.6889488883
 30
0.0
 10
10.3817131248
 20
6.7033784897
 30
0.0
 10
10.3866966113
 20
6.7181215455
 30
0.0
 10
10.3909335884
 20
6.7331425088
 30
0.0
 10
10.3944138751
 20
6.7484051647
 30
0.0
 10
10.3971291345
 20
6.7638727176
 30
0.0
 10
10.399072866
 20
6.7795078882
 30
0.0
 10
10.4002404252
 20
6.7952730003
 30
0.0
 10
10.400629032
 20
6.811130071
 30
0.0
 10
10.4002377776
 20
6.8270408996
 30
0.0
 10
10.3990676536
 20
6.8429671614
 30
0.0
 10
10.3971215208
 20
6.8588705011
 30
0.0
 10
10.3944041009
 20
6.8747126237
 30
0.0
 10
10.3909219664
 20
6.8904553854
 30
0.0
 10
10.3866835199
 20
6.9060608816
 30
0.0
 10
10.3816989991
 20
6.9214915445
 30
0.0
 10
10.3759804397
 20
6.936710233
 30
0.0
 10
10.369541633
 20
6.9516803166
 30
0.0
 10
10.3623980976
 20
6.9663657638
 30
0.0
 10
10.3545670384
 20
6.9807312251
 30
0.0
 10
10.3460673179
 20
6.9947421226
 30
0.0
 10
10.3369194194
 20
7.0083647414
 30
0.0
 10
10.327145375
 20
7.0215662974
 30
0.0
 10
10.3167687176
 20
7.0343150172
 30
0.0
 10
10.3058144243
 20
7.0465802124
 30
0.0
 10
10.2943088576
 20
7.0583323526
 30
0.0
 10
10.2822797213
 20
7.0695431555
 30
0.0
 10
10.2697559728
 20
7.0801856379
 30
0.0
 10
10.2567677545
 20
7.0902341782
 30
0.0
 10
10.2433463234
 20
7.0996645787
 30
0.0
 10
10.2295239748
 20
7.1084541184
 30
0.0
 10
10.2153339788
 20
7.1165816301
 30
0.0
 10
10.2008104918
 20
7.1240275418
 30
0.0
 10
10.1859884691
 20
7.130773914
 30
0.0
 10
10.1709035832
 20
7.1368044828
 30
0.0
 10
10.1555921451
 20
7.1421046938
 30
0.0
 10
10.1400909885
 20
7.1466617747
 30
0.0
 10
10.1244375179
 20
7.1504646759
 30
0.0
 10
10.1086691641
 20
7.1535043489
 30
0.0
 10
10.0928245376
 20
7.1557732203
 30
0.0
 10
10.0822168916
 20
7.156770148
 30
0.0
 10
10.0769138849
 20
7.1571379127
 30
0.0
  0
SPLINE
  5
3BF
100
AcDbEntity
  8
0
100
AcDbSpline
 62
7
  6
CONTINUOUS
 70
0
 71
3
 72
23
 73
19
 74
0
 42
0.0000001
 43
0.0000001
 44
0.0000000001
 40
0.0
 40
0.0
 40
0.0
 40
0.0
 40
0.0638614315
 40
0.1275032443
 40
0.1909230334
 40
0.2541276741
 40
0.3171224002
 40
0.379915926
 40
0.4425188184
 40
0.5049436646
 40
0.5672049931
 40
0.6293190762
 40
0.6913037914
 40
0.7531784355
 40
0.8149635211
 40
0.876680553
 40
0.9383517903
 40
1.0
 40
1.0
 40
1.0
 40
1.0
 10
10.085972544
 20
6.55252497
 30
0.0
 10
10.0908096717
 20
6.5521895141
 30
0.0
 10
10.1004857654
 20
6.5517604163
 30
0.0
 10
10.1149873959
 20
6.5518468234
 30
0.0
 10
10.1294167156
 20
6.5526642823
 30
0.0
 10
10.1437367575
 20
6.5542106272
 30
0.0
 10
10.1579117434
 20
6.5564821203
 30
0.0
 10
10.1719058885
 20
6.5594730473
 30
0.0
 10
10.1856839785
 20
6.5631759134
 30
0.0
 10
10.1992113089
 20
6.5675814243
 30
0.0
 10
10.2124538046
 20
6.5726785169
 30
0.0
 10
10.2253780995
 20
6.5784543944
 30
0.0
 10
10.2379516181
 20
6.5848945446
 30
0.0
 10
10.2501426884
 20
6.5919827598
 30
0.0
 10
10.2619205631
 20
6.5997011689
 30
0.0
 10
10.2732556599
 20
6.6080304429
 30
0.0
 10
10.2841190303
 20
6.6169492338
 30
0.0
 10
10.2910298984
 20
6.62327447
 30
0.0
 10
10.2943965235
 20
6.6265263665
 30
0.0
  0
SPLINE
  5
3C0
100
AcDbEntity
  8
0
100
AcDbSpline
 62
7
  6
CONTINUOUS
 70
0
 71
3
 72
15
 73
11
 74
0
 42
0.0000001
 43
0.0000001
 44
0.0000000001
 40
0.0
 40
0.0
 40
0.0
 40
0.0
 40
0.126591165
 40
0.2527058305
 40
0.3783441182
 40
0.5035201729
 40
0.628248939
 40
0.7525528762
 40
0.8764591152
 40
1.0
 40
1.0
 40
1.0
 40
1.0
 10
10.2296169955
 20
6.6912748637
 30
0.0
 10
10.234886324
 20
6.6909094346
 30
0.0
 10
10.2454272592
 20
6.6904654853
 30
0.0
 10
10.2612198825
 20
6.6906664218
 30
0.0
 10
10.2769189887
 20
6.6917349117
 30
0.0
 10
10.2924769592
 20
6.6936677319
 30
0.0
 10
10.3078475089
 20
6.6964592351
 30
0.0
 10
10.3229847767
 20
6.7001011562
 30
0.0
 10
10.3378429017
 20
6.7045824368
 30
0.0
 10
10.3475475056
 20
6.7081261392
 30
0.0
 10
10.3523366081
 20
6.7100328527
 30
0.0
  0
SPLINE
  5
3C1
100
AcDbEntity
  8
0
100
AcDbSpline
 62
7
  6
CONTINUOUS
 70
0
 71
3
 72
23
 73
19
 74
0
 42
0.0000001
 43
0.0000001
 44
0.0000000001
 40
0.0
 40
0.0
 40
0.0
 40
0.0
 40
0.0617844529
 40
0.1238392896
 40
0.186137536
 40
0.248646776
 40
0.3113302366
 40
0.374147515
 40
0.4370554511
 40
0.5000090258
 40
0.562962287
 40
0.6258692896
 40
0.6886850344
 40
0.751366394
 40
0.8138730112
 40
0.876168157
 40
0.9382195325
 40
1.0
 40
1.0
 40
1.0
 40
1.0
 10
10.3515962899
 20
6.9391940181
 30
0.0
 10
10.346736858
 20
6.9403486715
 30
0.0
 10
10.3370780525
 20
6.9430215417
 30
0.0
 10
10.3228929417
 20
6.9480798677
 30
0.0
 10
10.309053858
 20
6.9541685874
 30
0.0
 10
10.2956399585
 20
6.9612529798
 30
0.0
 10
10.2827266862
 20
6.9692930056
 30
0.0
 10
10.2703870082
 20
6.9782431803
 30
0.0
 10
10.2586905586
 20
6.9880529207
 30
0.0
 10
10.2477033705
 20
6.998666804
 30
0.0
 10
10.2374874774
 20
7.0100248869
 30
0.0
 10
10.228100574
 20
7.0220630403
 30
0.0
 10
10.2195956939
 20
7.0347132996
 30
0.0
 10
10.2120209064
 20
7.0479042761
 30
0.0
 10
10.2054190722
 20
7.0615614337
 30
0.0
 10
10.1998275093
 20
7.0756079562
 30
0.0
 10
10.1952781271
 20
7.0899634956
 30
0.0
 10
10.1929513306
 20
7.0997108419
 30
0.0
 10
10.1919707075
 20
7.1046080311
 30
0.0
  0
SPLINE
  5
3C2
100
AcDbEntity
  8
0
100
AcDbSpline
 62
7
  6
CONTINUOUS
 70
0
 71
3
 72
26
 73
22
 74
0
 42
0.0000001
 43
0.0000001
 44
0.0000000001
 40
0.0
 40
0.0
 40
0.0
 40
0.0
 40
0.0638511682
 40
0.0956975755
 40
0.1274886265
 40
0.1909036373
 40
0.2541054412
 40
0.3170998724
 40
0.3798951292
 40
0.4425013523
 40
0.5049306686
 40
0.5671970385
 40
0.6293161388
 40
0.6913052054
 40
0.7222594259
 40
0.7531882241
 40
0.8149742874
 40
0.8766895641
 40
0.9075300836
 40
0.9383610445
 40
1.0
 40
1.0
 40
1.0
 40
1.0
 10
10.6806175621
 20
8.2540975635
 30
0.0
 10
10.6900876159
 20
8.253440813
 30
0.0
 10
10.704308506
 20
8.2528055899
 30
0.0
 10
10.7232632235
 20
8.2526655668
 30
0.0
 10
10.7421510588
 20
8.2529962618
 30
0.0
 10
10.7656767856
 20
8.2542903077
 30
0.0
 10
10.7937220548
 20
8.2572533081
 30
0.0
 10
10.8214907889
 20
8.2616180043
 30
0.0
 10
10.8489144309
 20
8.2673737351
 30
0.0
 10
10.8759258211
 20
8.274506469
 30
0.0
 10
10.9024586133
 20
8.2829987504
 30
0.0
 10
10.9284478075
 20
8.2928298739
 30
0.0
 10
10.9538291897
 20
8.3039755244
 30
0.0
 10
10.9744330562
 20
8.3143419807
 30
0.0
 10
10.9905466906
 20
8.3232623477
 30
0.0
 10
11.0063939229
 20
8.332588532
 30
0.0
 10
11.0257146685
 20
8.3450125644
 30
0.0
 10
11.0443408789
 20
8.3584330668
 30
0.0
 10
11.0587876632
 20
8.3697408051
 30
0.0
 10
11.0729205997
 20
8.3814199323
 30
0.0
 10
11.0831675273
 20
8.3905976215
 30
0.0
 10
11.0898290555
 20
8.3968905743
 30
0.0
  0
SPLINE
  5
3C3
100
AcDbEntity
  8
0
100
AcDbSpline
 62
7
  6
CONTINUOUS
 70
0
 71
3
 72
50
 73
46
 74
0
 42
0.0000001
 43
0.0000001
 44
0.0000000001
 40
0.0
 40
0.0
 40
0.0
 40
0.0
 40
0.0311369714
 40
0.0624263546
 40
0.0938621886
 40
0.1254349924
 40
0.1571326827
 40
0.1889406916
 40
0.2208422754
 40
0.2528188673
 40
0.2848504513
 40
0.3169159519
 40
0.3489936453
 40
0.3810615746
 40
0.4130979691
 40
0.4450816618
 40
0.4769924995
 40
0.5088117352
 40
0.5405224075
 40
0.5721096878
 40
0.6035611965
 40
0.6348672863
 40
0.6660212683
 40
0.6815425357
 40
0.697024718
 40
0.712467884
 40
0.7278723095
 40
0.7432384761
 40
0.7585670749
 40
0.7738590015
 40
0.7891153506
 40
0.8043374148
 40
0.8195266788
 40
0.8346848091
 40
0.8498136476
 40
0.8649152045
 40
0.8799916443
 40
0.8950452746
 40
0.9100785364
 40
0.9250939882
 40
0.9400942907
 40
0.955082194
 40
0.9700605213
 40
0.9850321508
 40
1.0
 40
1.0
 40
1.0
 40
1.0
 10
10.6806175621
 20
8.2540975635
 30
0.0
 10
10.6666456472
 20
8.255066519
 30
0.0
 10
10.6386937293
 20
8.2580273087
 30
0.0
 10
10.5971022092
 20
8.2654770243
 30
0.0
 10
10.5559522123
 20
8.2759071162
 30
0.0
 10
10.5154640339
 20
8.2892619627
 30
0.0
 10
10.4758508363
 20
8.3054705966
 30
0.0
 10
10.43732211
 20
8.3244471402
 30
0.0
 10
10.400081261
 20
8.3460910213
 30
0.0
 10
10.3643249847
 20
8.3702877128
 30
0.0
 10
10.3302421356
 20
8.396909272
 30
0.0
 10
10.2980126678
 20
8.425814906
 30
0.0
 10
10.2678068693
 20
8.4568519256
 30
0.0
 10
10.2397842846
 20
8.4898563233
 30
0.0
 10
10.2140929851
 20
8.5246537637
 30
0.0
 10
10.1908688374
 20
8.5610604979
 30
0.0
 10
10.1702346009
 20
8.5988842074
 30
0.0
 10
10.1522995413
 20
8.6379251601
 30
0.0
 10
10.1371586461
 20
8.6779771666
 30
0.0
 10
10.1248921804
 20
8.7188285361
 30
0.0
 10
10.1155653939
 20
8.76026385
 30
0.0
 10
10.1092278907
 20
8.8020626212
 30
0.0
 10
10.1064625098
 20
8.8370628422
 30
0.0
 10
10.1057765921
 20
8.8650180196
 30
0.0
 10
10.1060234795
 20
8.8859131824
 30
0.0
 10
10.1070308924
 20
8.9067326527
 30
0.0
 10
10.1087974879
 20
8.9274492195
 30
0.0
 10
10.1113209896
 20
8.9480353643
 30
0.0
 10
10.1145980249
 20
8.9684638651
 30
0.0
 10
10.1186242713
 20
8.9887076739
 30
0.0
 10
10.1233944588
 20
9.0087399809
 30
0.0
 10
10.1289022553
 20
9.0285342684
 30
0.0
 10
10.1351403656
 20
9.0480643338
 30
0.0
 10
10.1421005838
 20
9.0673043029
 30
0.0
 10
10.1497737005
 20
9.0862286971
 30
0.0
 10
10.1581495354
 20
9.1048124681
 30
0.0
 10
10.1672170347
 20
9.1230309933
 30
0.0
 10
10.17696422
 20
9.1408601309
 30
0.0
 10
10.1873781531
 20
9.1582762876
 30
0.0
 10
10.1984450589
 20
9.1752563902
 30
0.0
 10
10.2101503281
 20
9.191777928
 30
0.0
 10
10.2224784076
 20
9.2078190195
 30
0.0
 10
10.2354130461
 20
9.2233585001
 30
0.0
 10
10.2489368652
 20
9.2383754712
 30
0.0
 10
10.2583348613
 20
9.2480264899
 30
0.0
 10
10.2631250081
 20
9.2527574496
 30
0.0
  0
SPLINE
  5
3C4
100
AcDbEntity
  8
0
100
AcDbSpline
 62
7
  6
CONTINUOUS
 70
0
 71
3
 72
71
 73
67
 74
0
 42
0.0000001
 43
0.0000001
 44
0.0000000001
 40
0.0
 40
0.0
 40
0.0
 40
0.0
 40
0.0156747647
 40
0.0314021969
 40
0.0471806424
 40
0.063008895
 40
0.0788847426
 40
0.094805752
 40
0.1107690083
 40
0.1267712322
 40
0.1428087906
 40
0.1588777355
 40
0.1749738409
 40
0.1910926414
 40
0.2072294721
 40
0.2233795104
 40
0.2395378179
 40
0.2556993843
 40
0.2718591711
 40
0.2880121554
 40
0.3041533738
 40
0.3202779654
 40
0.3363812143
 40
0.3524585917
 40
0.3685057968
 40
0.3845187961
 40
0.4004938611
 40
0.4164276032
 40
0.4323170071
 40
0.4481594608
 40
0.4639527827
 40
0.4796952466
 40
0.4953856019
 40
0.5110230902
 40
0.5266074569
 40
0.5421389591
 40
0.557618368
 40
0.5730469665
 40
0.5884265419
 40
0.6037593735
 40
0.6190482136
 40
0.6342962639
 40
0.6495071459
 40
0.664684867
 40
0.679833781
 40
0.6949585443
 40
0.7100640695
 40
0.7251554732
 40
0.7402380227
 40
0.7553170801
 40
0.7703980446
 40
0.785486295
 40
0.8005871318
 40
0.8157057215
 40
0.8308470418
 40
0.8460158301
 40
0.861216534
 40
0.8764532674
 40
0.8917297688
 40
0.907049366
 40
0.9224149487
 40
0.9378289221
 40
0.9532932743
 40
0.9688092755
 40
0.9843782302
 40
1.0
 40
1.0
 40
1.0
 40
1.0
 10
10.6806175621
 20
8.4279642225
 30
0.0
 10
10.6740481366
 20
8.4284198137
 30
0.0
 10
10.6609073351
 20
8.4296548006
 30
0.0
 10
10.6412789157
 20
8.4324655115
 30
0.0
 10
10.6217450108
 20
8.4362310561
 30
0.0
 10
10.6023533866
 20
8.4409421304
 30
0.0
 10
10.5831504668
 20
8.4465874729
 30
0.0
 10
10.5641825635
 20
8.4531533972
 30
0.0
 10
10.5454953117
 20
8.4606240908
 30
0.0
 10
10.5271337003
 20
8.4689815354
 30
0.0
 10
10.5091419213
 20
8.4782055841
 30
0.0
 10
10.491563276
 20
8.4882740055
 30
0.0
 10
10.4744400705
 20
8.4991625423
 30
0.0
 10
10.4578135151
 20
8.5108449683
 30
0.0
 10
10.4417236257
 20
8.5232931514
 30
0.0
 10
10.4262091288
 20
8.5364771203
 30
0.0
 10
10.4113073693
 20
8.5503651378
 30
0.0
 10
10.3970542136
 20
8.5649237677
 30
0.0
 10
10.3834839676
 20
8.5801179623
 30
0.0
 10
10.370629297
 20
8.5959111478
 30
0.0
 10
10.3585211492
 20
8.6122653121
 30
0.0
 10
10.3471886789
 20
8.6291410946
 30
0.0
 10
10.3366591785
 20
8.6464978808
 30
0.0
 10
10.3269580143
 20
8.6642938992
 30
0.0
 10
10.318108556
 20
8.6824863172
 30
0.0
 10
10.310132124
 20
8.7010313465
 30
0.0
 10
10.3030479434
 20
8.7198843505
 30
0.0
 10
10.2968730965
 20
8.7389999497
 30
0.0
 10
10.291622482
 20
8.7583321307
 30
0.0
 10
10.2873087787
 20
8.7778343552
 30
0.0
 10
10.2839424167
 20
8.7974596712
 30
0.0
 10
10.281531542
 20
8.8171608246
 30
0.0
 10
10.2800819984
 20
8.8368903733
 30
0.0
 10
10.2795973195
 20
8.8566008021
 30
0.0
 10
10.2800787186
 20
8.8762446358
 30
0.0
 10
10.2815250849
 20
8.8957745524
 30
0.0
 10
10.2839329847
 20
8.9151434969
 30
0.0
 10
10.2872966702
 20
8.9343047933
 30
0.0
 10
10.2916080847
 20
8.9532122588
 30
0.0
 10
10.2968568789
 20
8.9718203165
 30
0.0
 10
10.3030304445
 20
8.9900841044
 30
0.0
 10
10.3101139412
 20
9.0079595832
 30
0.0
 10
10.3180903318
 20
9.0254036431
 30
0.0
 10
10.3269404218
 20
9.0423742087
 30
0.0
 10
10.3366429058
 20
9.0588303402
 30
0.0
 10
10.3471744134
 20
9.0747323362
 30
0.0
 10
10.3585095611
 20
9.0900418351
 30
0.0
 10
10.3706210238
 20
9.1047219031
 30
0.0
 10
10.3834795988
 20
9.1187371251
 30
0.0
 10
10.3970542769
 20
9.1320536913
 30
0.0
 10
10.4113123176
 20
9.1446394794
 30
0.0
 10
10.4262193293
 20
9.1564641324
 30
0.0
 10
10.4417393506
 20
9.1674991355
 30
0.0
 10
10.4578349349
 20
9.1777178924
 30
0.0
 10
10.4744672498
 20
9.1870957801
 30
0.0
 10
10.4915961707
 20
9.1956102096
 30
0.0
 10
10.5091803795
 20
9.2032406792
 30
0.0
 10
10.5271774646
 20
9.2099688235
 30
0.0
 10
10.5455440235
 20
9.2157784559
 30
0.0
 10
10.5642357704
 20
9.2206556112
 30
0.0
 10
10.5832076307
 20
9.2245885759
 30
0.0
 10
10.6024138967
 20
9.227567943
 30
0.0
 10
10.6218081879
 20
9.2295865333
 30
0.0
 10
10.6413440395
 20
9.2306396173
 30
0.0
 10
10.6609736394
 20
9.2307246108
 30
0.0
 10
10.6740703472
 20
9.2301367567
 30
0.0
 10
10.6806175621
 20
9.2296827058
 30
0.0
  0
SPLINE
  5
3C5
100
AcDbEntity
  8
0
100
AcDbSpline
 62
7
  6
CONTINUOUS
 70
0
 71
3
 72
40
 73
36
 74
0
 42
0.0000001
 43
0.0000001
 44
0.0000000001
 40
0.0
 40
0.0
 40
0.0
 40
0.0
 40
0.0311448686
 40
0.0624427537
 40
0.0938878025
 40
0.1254702702
 40
0.1571779818
 40
0.1889961762
 40
0.2209079075
 40
0.252894392
 40
0.2849353875
 40
0.3170095941
 40
0.3490950699
 40
0.3811696566
 40
0.413211405
 40
0.4451990006
 40
0.4771121793
 40
0.5089321292
 40
0.5406418702
 40
0.572226608
 40
0.6036740567
 40
0.6349747177
 40
0.6661221112
 40
0.6971129542
 40
0.7279472798
 40
0.7586284865
 40
0.7891633131
 40
0.8195617388
 40
0.849836806
 40
0.8800043649
 40
0.9100827388
 40
0.9400923236
 40
0.970055127
 40
0.9850290491
 40
1.0
 40
1.0
 40
1.0
 40
1.0
 10
10.6909703154
 20
8.4766012502
 30
0.0
 10
10.6821251807
 20
8.4772146623
 30
0.0
 10
10.6644297718
 20
8.4790919269
 30
0.0
 10
10.6381011928
 20
8.483820826
 30
0.0
 10
10.6120546191
 20
8.4904445663
 30
0.0
 10
10.5864307103
 20
8.4989275581
 30
0.0
 10
10.561365614
 20
8.5092243451
 30
0.0
 10
10.5369930315
 20
8.5212798383
 30
0.0
 10
10.513442792
 20
8.5350296007
 30
0.0
 10
10.4908403838
 20
8.5504002189
 30
0.0
 10
10.4693062424
 20
8.5673096911
 30
0.0
 10
10.4489551151
 20
8.5856678341
 30
0.0
 10
10.4298954392
 20
8.6053767555
 30
0.0
 10
10.4122288017
 20
8.6263314053
 30
0.0
 10
10.3960494009
 20
8.6484201213
 30
0.0
 10
10.3814435465
 20
8.6715252121
 30
0.0
 10
10.3684891613
 20
8.6955235538
 30
0.0
 10
10.3572554161
 20
8.7202872725
 30
0.0
 10
10.3478023572
 20
8.7456844098
 30
0.0
 10
10.3401805966
 20
8.771579616
 30
0.0
 10
10.3344309829
 20
8.7978348451
 30
0.0
 10
10.3305844202
 20
8.8243100988
 30
0.0
 10
10.3286617066
 20
8.8508641614
 30
0.0
 10
10.3286734212
 20
8.8773553395
 30
0.0
 10
10.3306198121
 20
8.9036422079
 30
0.0
 10
10.3344907865
 20
8.9295843656
 30
0.0
 10
10.3402659861
 20
8.955043181
 30
0.0
 10
10.3479148679
 20
8.979882521
 30
0.0
 10
10.3573968556
 20
9.0039695105
 30
0.0
 10
10.3686614179
 20
9.0271751797
 30
0.0
 10
10.3816487126
 20
9.0493754845
 30
0.0
 10
10.3962886501
 20
9.0704507445
 30
0.0
 10
10.4098066085
 20
9.0869886446
 30
0.0
 10
10.4213586944
 20
9.0995395154
 30
0.0
 10
10.42737491
 20
9.1055829341
 30
0.0
 10
10.4304403442
 20
9.108543914
 30
0.0
  0
SPLINE
  5
3C6
100
AcDbEntity
  8
0
100
AcDbSpline
 62
7
  6
CONTINUOUS
 70
0
 71
3
 72
91
 73
87
 74
0
 42
0.0000001
 43
0.0000001
 44
0.0000000001
 40
0.0
 40
0.0
 40
0.0
 40
0.0
 40
0.0027164146
 40
0.005453202
 40
0.008230252
 40
0.0110665198
 40
0.0139797053
 40
0.0169859824
 40
0.0200999174
 40
0.023334401
 40
0.0267007187
 40
0.0302086385
 40
0.0338665091
 40
0.0376814414
 40
0.0416593691
 40
0.0458052582
 40
0.0501231421
 40
0.0546162891
 40
0.0592872586
 40
0.064137982
 40
0.0691698666
 40
0.0743837897
 40
0.079780237
 40
0.0853592528
 40
0.0911205635
 40
0.0970635488
 40
0.1031872988
 40
0.1094906474
 40
0.1226297881
 40
0.1364673429
 40
0.1509860432
 40
0.166165828
 40
0.1819841602
 40
0.1984162836
 40
0.2154354412
 40
0.2330130641
 40
0.2511189358
 40
0.2697213391
 40
0.2887871904
 40
0.3082821639
 40
0.3281708096
 40
0.3484166635
 40
0.368982358
 40
0.3898297276
 40
0.4109199118
 40
0.4322134566
 40
0.4536704139
 40
0.4752504412
 40
0.4969128994
 40
0.5186169519
 40
0.5403216628
 40
0.5619860952
 40
0.5835694083
 40
0.6050309559
 40
0.6263303839
 40
0.6474277291
 40
0.6682835187
 40
0.688858872
 40
0.7091156002
 40
0.7290163102
 40
0.7485245085
 40
0.7676047097
 40
0.7862225487
 40
0.8043448976
 40
0.8219399925
 40
0.8389775679
 40
0.8554290014
 40
0.8712674776
 40
0.8864681732
 40
0.9010084737
 40
0.9148682315
 40
0.9280300795
 40
0.9343449284
 40
0.9404802779
 40
0.9464349254
 40
0.952207944
 40
0.9577987094
 40
0.9632068925
 40
0.9684325652
 40
0.9734761403
 40
0.9783384919
 40
0.9830209404
 40
0.9875254382
 40
0.9918545985
 40
0.9960115586
 40
1.0
 40
1.0
 40
1.0
 40
1.0
 10
12.3132762663
 20
8.5631094799
 30
0.0
 10
12.3143867612
 20
8.5630324716
 30
0.0
 10
12.3166103938
 20
8.5627773761
 30
0.0
 10
12.3199175406
 20
8.562094737
 30
0.0
 10
12.3231996795
 20
8.5611121615
 30
0.0
 10
12.3264545083
 20
8.5598306957
 30
0.0
 10
12.3296802942
 20
8.5582513662
 30
0.0
 10
12.3328754393
 20
8.5563755161
 30
0.0
 10
12.3360384224
 20
8.5542043984
 30
0.0
 10
12.3391678693
 20
8.5517394392
 30
0.0
 10
12.3422624201
 20
8.5489820617
 30
0.0
 10
12.3453207222
 20
8.5459337605
 30
0.0
 10
12.3483414823
 20
8.5425961579
 30
0.0
 10
12.3513233012
 20
8.5389709033
 30
0.0
 10
12.3542648945
 20
8.5350598488
 30
0.0
 10
12.3571648414
 20
8.5308648877
 30
0.0
 10
12.3600218293
 20
8.5263881146
 30
0.0
 10
12.3628344684
 20
8.5216317165
 30
0.0
 10
12.3656014055
 20
8.5165980405
 30
0.0
 10
12.3683213133
 20
8.5112895776
 30
0.0
 10
12.3709928159
 20
8.5057089405
 30
0.0
 10
12.3736146467
 20
8.4998589123
 30
0.0
 10
12.3761854473
 20
8.4937423827
 30
0.0
 10
12.3787039874
 20
8.4873624097
 30
0.0
 10
12.3811689723
 20
8.4807221637
 30
0.0
 10
12.38357918
 20
8.4738249668
 30
0.0
 10
12.3859334255
 20
8.4666742546
 30
0.0
 10
12.3890391783
 20
8.4566679181
 30
0.0
 10
12.3927619853
 20
8.44354555
 30
0.0
 10
12.39692845
 20
8.4270573458
 30
0.0
 10
12.400845114
 20
8.4096499826
 30
0.0
 10
12.4045040301
 20
8.3913583555
 30
0.0
 10
12.4078977512
 20
8.372218994
 30
0.0
 10
12.4110193721
 20
8.3522702404
 30
0.0
 10
12.4138625395
 20
8.3315520857
 30
0.0
 10
12.4164214665
 20
8.3101061011
 30
0.0
 10
12.4186909443
 20
8.2879753414
 30
0.0
 10
12.4206663526
 20
8.2652042559
 30
0.0
 10
12.4223436689
 20
8.2418385946
 30
0.0
 10
12.4237194755
 20
8.2179253143
 30
0.0
 10
12.4247909662
 20
8.1935124826
 30
0.0
 10
12.4255559539
 20
8.1686491798
 30
0.0
 10
12.4260128724
 20
8.1433853981
 30
0.0
 10
12.4261607791
 20
8.1177719391
 30
0.0
 10
12.4259993566
 20
8.091860311
 30
0.0
 10
12.4255289127
 20
8.065702624
 30
0.0
 10
12.4247503801
 20
8.0393514853
 30
0.0
 10
12.4236653136
 20
8.012859893
 30
0.0
 10
12.4222758878
 20
7.9862811296
 30
0.0
 10
12.4205848939
 20
7.9596686531
 30
0.0
 10
12.4185957324
 20
7.9330759898
 30
0.0
 10
12.4163124057
 20
7.9065566254
 30
0.0
 10
12.4137395104
 20
7.8801638975
 30
0.0
 10
12.4108822282
 20
7.853950888
 30
0.0
 10
12.4077463151
 20
7.8279703164
 30
0.0
 10
12.4043380901
 20
7.8022744332
 30
0.0
 10
12.4006644233
 20
7.7769149134
 30
0.0
 10
12.3967327234
 20
7.7519427516
 30
0.0
 10
12.3925509209
 20
7.7274081586
 30
0.0
 10
12.3881274525
 20
7.7033604604
 30
0.0
 10
12.3834712444
 20
7.6798479978
 30
0.0
 10
12.378591695
 20
7.656918028
 30
0.0
 10
12.3734986556
 20
7.6346166285
 30
0.0
 10
12.368202411
 20
7.6129886009
 30
0.0
 10
12.3627136597
 20
7.5920773774
 30
0.0
 10
12.3570434929
 20
7.5719249286
 30
0.0
 10
12.3512033695
 20
7.5525716776
 30
0.0
 10
12.3452050926
 20
7.5340564069
 30
0.0
 10
12.3390607839
 20
7.5164161952
 30
0.0
 10
12.3327828527
 20
7.4996862557
 30
0.0
 10
12.3263839749
 20
7.4839001189
 30
0.0
 10
12.3208883695
 20
7.4713907229
 30
0.0
 10
12.3164332436
 20
7.4618871463
 30
0.0
 10
12.3131158567
 20
7.4551133179
 30
0.0
 10
12.3097779223
 20
7.4485980902
 30
0.0
 10
12.3064210847
 20
7.4423447154
 30
0.0
 10
12.3030470551
 20
7.4363563073
 30
0.0
 10
12.2996574762
 20
7.4306358647
 30
0.0
 10
12.2962540842
 20
7.4251862115
 30
0.0
 10
12.2928385157
 20
7.4200100833
 30
0.0
 10
12.2894125216
 20
7.4151100345
 30
0.0
 10
12.2859777572
 20
7.4104884983
 30
0.0
 10
12.2825358833
 20
7.4061477305
 30
0.0
 10
12.2790885166
 20
7.4020898291
 30
0.0
 10
12.2756374705
 20
7.3983169954
 30
0.0
 10
12.2732876311
 20
7.3959447482
 30
0.0
 10
12.2721120623
 20
7.3948092359
 30
0.0
  0
SPLINE
  5
3C7
100
AcDbEntity
  8
0
100
AcDbSpline
 62
7
  6
CONTINUOUS
 70
0
 71
3
 72
15
 73
11
 74
0
 42
0.0000001
 43
0.0000001
 44
0.0000000001
 40
0.0
 40
0.0
 40
0.0
 40
0.0
 40
0.1265090885
 40
0.2525691733
 40
0.3781798773
 40
0.503353056
 40
0.6281009553
 40
0.7524422595
 40
0.8763995821
 40
1.0
 40
1.0
 40
1.0
 40
1.0
 10
10.8824962507
 20
8.6616011085
 30
0.0
 10
10.8887049392
 20
8.6611705344
 30
0.0
 10
10.9011246909
 20
8.6606280694
 30
0.0
 10
10.9197365474
 20
8.660776785
 30
0.0
 10
10.938250491
 20
8.6618889905
 30
0.0
 10
10.9566166368
 20
8.6639617023
 30
0.0
 10
10.9747864529
 20
8.6669895418
 30
0.0
 10
10.9927117857
 20
8.6709645441
 30
0.0
 10
11.0103443994
 20
8.6758759861
 30
0.0
 10
11.0218904116
 20
8.6797718147
 30
0.0
 10
11.027597081
 20
8.6818709848
 30
0.0
  0
SPLINE
  5
3C8
100
AcDbEntity
  8
0
100
AcDbSpline
 62
7
  6
CONTINUOUS
 70
0
 71
3
 72
51
 73
47
 74
0
 42
0.0000001
 43
0.0000001
 44
0.0000000001
 40
0.0
 40
0.0
 40
0.0
 40
0.0
 40
0.0311429623
 40
0.0624390393
 40
0.0938821581
 40
0.1254627405
 40
0.1571685478
 40
0.1889848322
 40
0.2208946479
 40
0.2528792128
 40
0.2849182853
 40
0.3169905665
 40
0.3490741169
 40
0.3811467786
 40
0.413186604
 40
0.4451722806
 40
0.4770835444
 40
0.5089015852
 40
0.5406094235
 40
0.5721922667
 40
0.6036378301
 40
0.6349366131
 40
0.6505313541
 40
0.6660872357
 40
0.6816039492
 40
0.6970813947
 40
0.7125196809
 40
0.727919126
 40
0.7432802612
 40
0.7586038263
 40
0.7738907665
 40
0.789142231
 40
0.8043595683
 40
0.8195443173
 40
0.8346982008
 40
0.8498231194
 40
0.8649211391
 40
0.8799944797
 40
0.8950455049
 40
0.9100767091
 40
0.9250907018
 40
0.9400901927
 40
0.9550779784
 40
0.9700569243
 40
0.9850299475
 40
1.0
 40
1.0
 40
1.0
 40
1.0
 10
10.6764764606
 20
8.2500975663
 30
0.0
 10
10.6624422026
 20
8.2510708454
 30
0.0
 10
10.6343654862
 20
8.2540494547
 30
0.0
 10
10.5925908182
 20
8.2615525818
 30
0.0
 10
10.5512635954
 20
8.2720622842
 30
0.0
 10
10.5106070279
 20
8.2855219606
 30
0.0
 10
10.4708370771
 20
8.3018594995
 30
0.0
 10
10.4321659303
 20
8.3209875422
 30
0.0
 10
10.3947995488
 20
8.3428037952
 30
0.0
 10
10.3589370909
 20
8.3671918563
 30
0.0
 10
10.3247695908
 20
8.394021527
 30
0.0
 10
10.2924791267
 20
8.4231497456
 30
0.0
 10
10.2622377853
 20
8.4544212202
 30
0.0
 10
10.2342067122
 20
8.4876692356
 30
0.0
 10
10.2085354249
 20
8.522716664
 30
0.0
 10
10.1853607659
 20
8.5593766988
 30
0.0
 10
10.1648064702
 20
8.5974540425
 30
0.0
 10
10.1469822574
 20
8.6367458076
 30
0.0
 10
10.1319833986
 20
8.6770425113
 30
0.0
 10
10.1198901835
 20
8.7181298007
 30
0.0
 10
10.1107674658
 20
8.759787151
 30
0.0
 10
10.1056749314
 20
8.7948397824
 30
0.0
 10
10.1031331055
 20
8.8229398834
 30
0.0
 10
10.101994329
 20
8.843994617
 30
0.0
 10
10.1016227331
 20
8.8650236198
 30
0.0
 10
10.1020187418
 20
8.8859991548
 30
0.0
 10
10.103181879
 20
8.9068931221
 30
0.0
 10
10.1051106243
 20
8.9276776411
 30
0.0
 10
10.1078023821
 20
8.9483249505
 30
0.0
 10
10.1112535739
 20
8.9688074777
 30
0.0
 10
10.1154596433
 20
8.9890978568
 30
0.0
 10
10.120414965
 20
9.0091689879
 30
0.0
 10
10.1261129171
 20
9.0289940648
 30
0.0
 10
10.132545928
 20
9.0485465956
 30
0.0
 10
10.1397054304
 20
9.0678004517
 30
0.0
 10
10.1475818395
 20
9.0867299199
 30
0.0
 10
10.1561646511
 20
9.1053097068
 30
0.0
 10
10.1654424435
 20
9.1235149679
 30
0.0
 10
10.1754028034
 20
9.1413213877
 30
0.0
 10
10.186032421
 20
9.1587051791
 30
0.0
 10
10.1973171267
 20
9.175643093
 30
0.0
 10
10.209241856
 20
9.192112495
 30
0.0
 10
10.2217906328
 20
9.2080913737
 30
0.0
 10
10.2349467805
 20
9.2235584466
 30
0.0
 10
10.2486924567
 20
9.238492732
 30
0.0
 10
10.2582380361
 20
9.2480814733
 30
0.0
 10
10.2631018521
 20
9.2527795639
 30
0.0
  0
SPLINE
  5
3C9
100
AcDbEntity
  8
0
100
AcDbSpline
 62
7
  6
CONTINUOUS
 70
0
 71
3
 72
39
 73
35
 74
0
 42
0.0000001
 43
0.0000001
 44
0.0000000001
 40
0.0
 40
0.0
 40
0.0
 40
0.0
 40
0.0307757621
 40
0.0616668105
 40
0.0926697649
 40
0.1237806572
 40
0.1549938255
 40
0.1863026158
 40
0.2176992141
 40
0.2491748354
 40
0.2807198001
 40
0.3123236574
 40
0.3439753025
 40
0.3756631036
 40
0.4073750314
 40
0.4390987922
 40
0.4708219624
 40
0.5025321252
 40
0.5342170059
 40
0.565864607
 40
0.5974633411
 40
0.6290021602
 40
0.6604706814
 40
0.6918593059
 40
0.7231593334
 40
0.7543630667
 40
0.7854639097
 40
0.8164564506
 40
0.8473365465
 40
0.8781013554
 40
0.9087494751
 40
0.939280724
 40
0.9696967744
 40
1.0
 40
1.0
 40
1.0
 40
1.0
 10
10.8824962507
 20
8.6616011085
 30
0.0
 10
10.8758379013
 20
8.6620628666
 30
0.0
 10
10.8625188441
 20
8.6633545951
 30
0.0
 10
10.8426411642
 20
8.6663802737
 30
0.0
 10
10.8228839793
 20
8.6704887231
 30
0.0
 10
10.8033079386
 20
8.6756673145
 30
0.0
 10
10.7839720485
 20
8.6819003762
 30
0.0
 10
10.7649349039
 20
8.6891689512
 30
0.0
 10
10.746254098
 20
8.6974510036
 30
0.0
 10
10.7279861666
 20
8.7067214157
 30
0.0
 10
10.7101863866
 20
8.7169520943
 30
0.0
 10
10.6929086184
 20
8.7281120439
 30
0.0
 10
10.6762051417
 20
8.7401674644
 30
0.0
 10
10.6601264993
 20
8.7530818518
 30
0.0
 10
10.6447213446
 20
8.7668161088
 30
0.0
 10
10.630036296
 20
8.7813286622
 30
0.0
 10
10.6161157959
 20
8.796575588
 30
0.0
 10
10.6030019773
 20
8.8125107442
 30
0.0
 10
10.5907345372
 20
8.8290859088
 30
0.0
 10
10.5793506158
 20
8.8462509251
 30
0.0
 10
10.5688846856
 20
8.8639538525
 30
0.0
 10
10.5593684473
 20
8.8821411235
 30
0.0
 10
10.5508307342
 20
8.9007577037
 30
0.0
 10
10.5432974251
 20
8.919747258
 30
0.0
 10
10.536791366
 20
8.9390523194
 30
0.0
 10
10.5313323004
 20
8.9586144616
 30
0.0
 10
10.5269368104
 20
8.9783744741
 30
0.0
 10
10.5236182621
 20
8.9982725428
 30
0.0
 10
10.5213867738
 20
9.0182484184
 30
0.0
 10
10.5202491633
 20
9.0382416373
 30
0.0
 10
10.5202089626
 20
9.0581915677
 30
0.0
 10
10.5212663712
 20
9.0780380457
 30
0.0
 10
10.5234181602
 20
9.0977200644
 30
0.0
 10
10.5255822521
 20
9.1107175654
 30
0.0
 10
10.5268446052
 20
9.1171670494
 30
0.0
  0
SPLINE
  5
3CA
100
AcDbEntity
  8
0
100
AcDbSpline
 62
7
  6
CONTINUOUS
 70
0
 71
3
 72
23
 73
19
 74
0
 42
0.0000001
 43
0.0000001
 44
0.0000000001
 40
0.0
 40
0.0
 40
0.0
 40
0.0
 40
0.0629303499
 40
0.1259936995
 40
0.1891493768
 40
0.2523534237
 40
0.3155614411
 40
0.3787288952
 40
0.441812046
 40
0.5047688244
 40
0.5675596722
 40
0.6301483469
 40
0.6925026863
 40
0.7545953032
 40
0.8164042064
 40
0.8779133838
 40
0.9391126793
 40
1.0
 40
1.0
 40
1.0
 40
1.0
 10
10.7372619139
 20
8.7408173557
 30
0.0
 10
10.7299215534
 20
8.7450177387
 30
0.0
 10
10.7155139796
 20
8.7539435906
 30
0.0
 10
10.694869593
 20
8.7688081286
 30
0.0
 10
10.6752719269
 20
8.7850872499
 30
0.0
 10
10.6568291006
 20
8.802691565
 30
0.0
 10
10.6396411879
 20
8.8215253221
 30
0.0
 10
10.6238019008
 20
8.8414858906
 30
0.0
 10
10.6093975471
 20
8.8624646136
 30
0.0
 10
10.5965066549
 20
8.8843472529
 30
0.0
 10
10.5851995166
 20
8.9070146497
 30
0.0
 10
10.5755378836
 20
8.9303433931
 30
0.0
 10
10.5675745667
 20
8.9542064321
 30
0.0
 10
10.5613531264
 20
8.978473817
 30
0.0
 10
10.5569076954
 20
9.0030132199
 30
0.0
 10
10.5542628523
 20
9.0276913474
 30
0.0
 10
10.5534330483
 20
9.0523719209
 30
0.0
 10
10.5540951917
 20
9.0687836451
 30
0.0
 10
10.5547307807
 20
9.0769415536
 30
0.0
  0
SPLINE
  5
3CB
100
AcDbEntity
  8
0
100
AcDbSpline
 62
7
  6
CONTINUOUS
 70
0
 71
3
 72
71
 73
67
 74
0
 42
0.0000001
 43
0.0000001
 44
0.0000000001
 40
0.0
 40
0.0
 40
0.0
 40
0.0
 40
0.0156217698
 40
0.0311907245
 40
0.0467067257
 40
0.0621710779
 40
0.0775850513
 40
0.092950634
 40
0.1082702312
 40
0.1235467326
 40
0.138783466
 40
0.1539841699
 40
0.1691529582
 40
0.1842942785
 40
0.1994128682
 40
0.214513705
 40
0.2296019554
 40
0.2446829199
 40
0.2597619773
 40
0.2748445268
 40
0.2899359305
 40
0.3050414557
 40
0.320166219
 40
0.335315133
 40
0.3504928541
 40
0.3657037361
 40
0.3809517864
 40
0.3962406265
 40
0.4115734581
 40
0.4269530335
 40
0.442381632
 40
0.4578610409
 40
0.4733925431
 40
0.4889769098
 40
0.5046143981
 40
0.5203047534
 40
0.5360472173
 40
0.5518405392
 40
0.5676829929
 40
0.5835723968
 40
0.5995061389
 40
0.6154812039
 40
0.6314942032
 40
0.6475414083
 40
0.6636187857
 40
0.6797220346
 40
0.6958466262
 40
0.7119878446
 40
0.7281408289
 40
0.7443006157
 40
0.7604621821
 40
0.7766204896
 40
0.7927705279
 40
0.8089073586
 40
0.8250261591
 40
0.8411222645
 40
0.8571912094
 40
0.8732287678
 40
0.8892309917
 40
0.905194248
 40
0.9211152574
 40
0.936991105
 40
0.9528193576
 40
0.9685978031
 40
0.9843252353
 40
1.0
 40
1.0
 40
1.0
 40
1.0
 10
10.6806175621
 20
8.4279642225
 30
0.0
 10
10.687164777
 20
8.4275101716
 30
0.0
 10
10.7002614848
 20
8.4269223175
 30
0.0
 10
10.7198910848
 20
8.427007311
 30
0.0
 10
10.7394269364
 20
8.428060395
 30
0.0
 10
10.7588212275
 20
8.4300789853
 30
0.0
 10
10.7780274935
 20
8.4330583524
 30
0.0
 10
10.7969993538
 20
8.4369913171
 30
0.0
 10
10.8156911007
 20
8.4418684724
 30
0.0
 10
10.8340576597
 20
8.4476781048
 30
0.0
 10
10.8520547447
 20
8.4544062491
 30
0.0
 10
10.8696389535
 20
8.4620367187
 30
0.0
 10
10.8867678745
 20
8.4705511482
 30
0.0
 10
10.9034001893
 20
8.4799290359
 30
0.0
 10
10.9194957736
 20
8.4901477928
 30
0.0
 10
10.935015795
 20
8.5011827959
 30
0.0
 10
10.9499228066
 20
8.5130074489
 30
0.0
 10
10.9641808473
 20
8.525593237
 30
0.0
 10
10.9777555255
 20
8.5389098032
 30
0.0
 10
10.9906141005
 20
8.5529250253
 30
0.0
 10
11.0027255632
 20
8.5676050932
 30
0.0
 10
11.0140607109
 20
8.5829145921
 30
0.0
 10
11.0245922184
 20
8.5988165881
 30
0.0
 10
11.0342947025
 20
8.6152727196
 30
0.0
 10
11.0431447924
 20
8.6322432852
 30
0.0
 10
11.051121183
 20
8.6496873452
 30
0.0
 10
11.0582046797
 20
8.6675628239
 30
0.0
 10
11.0643782453
 20
8.6858266118
 30
0.0
 10
11.0696270395
 20
8.7044346695
 30
0.0
 10
11.073938454
 20
8.723342135
 30
0.0
 10
11.0773021395
 20
8.7425034314
 30
0.0
 10
11.0797100393
 20
8.7618723759
 30
0.0
 10
11.0811564056
 20
8.7814022926
 30
0.0
 10
11.0816378047
 20
8.8010461262
 30
0.0
 10
11.0811531259
 20
8.820756555
 30
0.0
 10
11.0797035822
 20
8.8404861037
 30
0.0
 10
11.0772927076
 20
8.8601872571
 30
0.0
 10
11.0739263455
 20
8.8798125732
 30
0.0
 10
11.0696126423
 20
8.8993147976
 30
0.0
 10
11.0643620277
 20
8.9186469786
 30
0.0
 10
11.0581871808
 20
8.9377625778
 30
0.0
 10
11.0511030002
 20
8.9566155818
 30
0.0
 10
11.0431265683
 20
8.9751606111
 30
0.0
 10
11.03427711
 20
8.9933530291
 30
0.0
 10
11.0245759457
 20
9.0111490475
 30
0.0
 10
11.0140464453
 20
9.0285058337
 30
0.0
 10
11.002713975
 20
9.0453816162
 30
0.0
 10
10.9906058272
 20
9.0617357805
 30
0.0
 10
10.9777511567
 20
9.0775289661
 30
0.0
 10
10.9641809107
 20
9.0927231606
 30
0.0
 10
10.949927755
 20
9.1072817905
 30
0.0
 10
10.9350259955
 20
9.121169808
 30
0.0
 10
10.9195114985
 20
9.1343537769
 30
0.0
 10
10.9034216092
 20
9.14680196
 30
0.0
 10
10.8867950537
 20
9.158484386
 30
0.0
 10
10.8696718482
 20
9.1693729228
 30
0.0
 10
10.8520932029
 20
9.1794413442
 30
0.0
 10
10.8341014239
 20
9.1886653929
 30
0.0
 10
10.8157398126
 20
9.1970228375
 30
0.0
 10
10.7970525608
 20
9.2044935311
 30
0.0
 10
10.7780846574
 20
9.2110594554
 30
0.0
 10
10.7588817377
 20
9.2167047979
 30
0.0
 10
10.7394901135
 20
9.2214158722
 30
0.0
 10
10.7199562085
 20
9.2251814168
 30
0.0
 10
10.7003277891
 20
9.2279921277
 30
0.0
 10
10.6871869876
 20
9.2292271146
 30
0.0
 10
10.6806175621
 20
9.2296827058
 30
0.0
  0
SPLINE
  5
3CC
100
AcDbEntity
  8
0
100
AcDbSpline
 62
7
  6
CONTINUOUS
 70
0
 71
3
 72
18
 73
14
 74
0
 42
0.0000001
 43
0.0000001
 44
0.0000000001
 40
0.0
 40
0.0
 40
0.0
 40
0.0
 40
0.150467608
 40
0.291710008
 40
0.4244359371
 40
0.549562455
 40
0.6682139939
 40
0.7255497488
 40
0.7817912909
 40
0.8371402503
 40
0.8918093826
 40
0.9460201179
 40
1.0
 40
1.0
 40
1.0
 40
1.0
 10
12.2721120623
 20
7.3948092359
 30
0.0
 10
12.2704299434
 20
7.3931844337
 30
0.0
 10
12.2670680939
 20
7.3901358866
 30
0.0
 10
12.2618622973
 20
7.3860731771
 30
0.0
 10
12.2566626151
 20
7.3826753317
 30
0.0
 10
12.2514744309
 20
7.3799479277
 30
0.0
 10
12.2471138191
 20
7.3782184457
 30
0.0
 10
12.243651686
 20
7.377190891
 30
0.0
 10
12.2410919645
 20
7.376598623
 30
0.0
 10
12.2385407351
 20
7.3761764985
 30
0.0
 10
12.2359987126
 20
7.3759246667
 30
0.0
 10
12.2334669081
 20
7.3758432588
 30
0.0
 10
12.2317848501
 20
7.3759027513
 30
0.0
 10
12.2309478582
 20
7.3759607933
 30
0.0
  0
SPLINE
  5
3CD
100
AcDbEntity
  8
0
100
AcDbSpline
 62
7
  6
CONTINUOUS
 70
0
 71
3
 72
23
 73
19
 74
0
 42
0.0000001
 43
0.0000001
 44
0.0000000001
 40
0.0
 40
0.0
 40
0.0
 40
0.0
 40
0.0638617654
 40
0.1275030803
 40
0.1909230764
 40
0.2541276764
 40
0.317122389
 40
0.3799159305
 40
0.4425188195
 40
0.5049436701
 40
0.5672049961
 40
0.6293190749
 40
0.6913037887
 40
0.7531784352
 40
0.8149635246
 40
0.8766805577
 40
0.9383517929
 40
1.0
 40
1.0
 40
1.0
 40
1.0
 10
10.6909703154
 20
8.4766012502
 30
0.0
 10
10.6970167567
 20
8.476181928
 30
0.0
 10
10.709111858
 20
8.4756455435
 30
0.0
 10
10.7272389
 20
8.4757535734
 30
0.0
 10
10.745275519
 20
8.4767753807
 30
0.0
 10
10.7631755847
 20
8.4787083287
 30
0.0
 10
10.7808943124
 20
8.4815476981
 30
0.0
 10
10.7983869974
 20
8.485286339
 30
0.0
 10
10.8156096137
 20
8.4899149152
 30
0.0
 10
10.8325187751
 20
8.4954218094
 30
0.0
 10
10.8490718891
 20
8.5017931895
 30
0.0
 10
10.8652272528
 20
8.5090130448
 30
0.0
 10
10.8809441569
 20
8.5170632202
 30
0.0
 10
10.8961830028
 20
8.5259234764
 30
0.0
 10
10.9109053488
 20
8.5355714858
 30
0.0
 10
10.9250742131
 20
8.5459830888
 30
0.0
 10
10.9386534114
 20
8.5571315935
 30
0.0
 10
10.9472920124
 20
8.5650381213
 30
0.0
 10
10.9515002866
 20
8.569102999
 30
0.0
  0
SPLINE
  5
3CE
100
AcDbEntity
  8
0
100
AcDbSpline
 62
7
  6
CONTINUOUS
 70
0
 71
3
 72
14
 73
10
 74
0
 42
0.0000001
 43
0.0000001
 44
0.0000000001
 40
0.0
 40
0.0
 40
0.0
 40
0.0
 40
0.2468095252
 40
0.3742647725
 40
0.503067683
 40
0.6318125103
 40
0.7588005484
 40
0.8821544709
 40
1.0
 40
1.0
 40
1.0
 40
1.0
 10
10.8166819163
 20
8.8889862656
 30
0.0
 10
10.8321603721
 20
8.8806841902
 30
0.0
 10
10.8561556543
 20
8.8690353202
 30
0.0
 10
10.8892752314
 20
8.8554209591
 30
0.0
 10
10.9150504965
 20
8.8461012085
 30
0.0
 10
10.9411809856
 20
8.8379418927
 30
0.0
 10
10.9672806196
 20
8.8310757722
 30
0.0
 10
10.9929112242
 20
8.8255886199
 30
0.0
 10
11.0098536422
 20
8.8227859146
 30
0.0
 10
11.0181585681
 20
8.8216186288
 30
0.0
  0
SPLINE
  5
3CF
100
AcDbEntity
  8
0
100
AcDbSpline
 62
7
  6
CONTINUOUS
 70
0
 71
3
 72
48
 73
44
 74
0
 42
0.0000001
 43
0.0000001
 44
0.0000000001
 40
0.0
 40
0.0
 40
0.0
 40
0.0
 40
0.0311434631
 40
0.0624399956
 40
0.0938836138
 40
0.1254646847
 40
0.1571709829
 40
0.1889877595
 40
0.22089807
 40
0.2528831302
 40
0.2849226987
 40
0.3169954772
 40
0.3490795248
 40
0.3811526835
 40
0.413193006
 40
0.4451791789
 40
0.4770909382
 40
0.5089094729
 40
0.5406178044
 40
0.5722011384
 40
0.6036471904
 40
0.6349464615
 40
0.6660924706
 40
0.6970819377
 40
0.7279148953
 40
0.7432762698
 40
0.7586000727
 40
0.7738872515
 40
0.789138954
 40
0.8043565275
 40
0.819541513
 40
0.8346956329
 40
0.8498207866
 40
0.8649190411
 40
0.8799926163
 40
0.8950438755
 40
0.9100753135
 40
0.9250895394
 40
0.9400892632
 40
0.9550772817
 40
0.9700564603
 40
0.9850297153
 40
1.0
 40
1.0
 40
1.0
 40
1.0
 10
10.0727727834
 20
6.37073795
 30
0.0
 10
10.0615689649
 20
6.3715149374
 30
0.0
 10
10.0391547975
 20
6.3738928112
 30
0.0
 10
10.0058052981
 20
6.3798827159
 30
0.0
 10
9.9728129985
 20
6.3882727776
 30
0.0
 10
9.9403560953
 20
6.3990179023
 30
0.0
 10
9.9086069975
 20
6.4120604647
 30
0.0
 10
9.8777350771
 20
6.4273307075
 30
0.0
 10
9.847904807
 20
6.4447470566
 30
0.0
 10
9.8192751112
 20
6.4642164703
 30
0.0
 10
9.7919985471
 20
6.4856350941
 30
0.0
 10
9.7662204657
 20
6.5088887004
 30
0.0
 10
9.742078203
 20
6.5338532764
 30
0.0
 10
9.7197004725
 20
6.5603957944
 30
0.0
 10
9.6992065792
 20
6.5883747992
 30
0.0
 10
9.6807057944
 20
6.6176411821
 30
0.0
 10
9.6642968914
 20
6.6480390344
 30
0.0
 10
9.650067473
 20
6.6794063689
 30
0.0
 10
9.6380935663
 20
6.7115760282
 30
0.0
 10
9.6284393059
 20
6.7443765751
 30
0.0
 10
9.6211564182
 20
6.7776331691
 30
0.0
 10
9.6162840357
 20
6.8111683937
 30
0.0
 10
9.6138486104
 20
6.844803711
 30
0.0
 10
9.6138632721
 20
6.8783584104
 30
0.0
 10
9.6159207122
 20
6.9061434708
 30
0.0
 10
9.6187891947
 20
6.9281457134
 30
0.0
 10
9.621544348
 20
6.9444974815
 30
0.0
 10
9.6249020879
 20
6.9606956345
 30
0.0
 10
9.6288579999
 20
6.9767188141
 30
0.0
 10
9.633406777
 20
6.9925455446
 30
0.0
 10
9.6385423379
 20
7.0081547102
 30
0.0
 10
9.6442578811
 20
7.0235254349
 30
0.0
 10
9.6505457564
 20
7.0386371907
 30
0.0
 10
9.6573975511
 20
7.0534697962
 30
0.0
 10
9.6648041646
 20
7.0680034111
 30
0.0
 10
9.6727556918
 20
7.0822186203
 30
0.0
 10
9.6812414903
 20
7.0960964439
 30
0.0
 10
9.690250267
 20
7.1096183105
 30
0.0
 10
9.6997699838
 20
7.1227661578
 30
0.0
 10
9.7097878803
 20
7.1355224197
 30
0.0
 10
9.7202906689
 20
7.1478700852
 30
0.0
 10
9.7312640858
 20
7.159792419
 30
0.0
 10
9.738884475
 20
7.1674473179
 30
0.0
 10
9.7427673477
 20
7.1711978951
 30
0.0
  0
LINE
  5
3D0
100
AcDbEntity
  8
0
100
AcDbLine
 62
7
  6
CONTINUOUS
 10
10.8160753442
 20
8.889083848
 11
10.8166819163
 21
8.8889862656
  0
SPLINE
  5
3D1
100
AcDbEntity
  8
0
100
AcDbSpline
 62
7
  6
CONTINUOUS
 70
0
 71
3
 72
86
 73
82
 74
0
 42
0.0000001
 43
0.0000001
 44
0.0000000001
 40
0.0
 40
0.0
 40
0.0
 40
0.0
 40
0.0039390907
 40
0.0080415659
 40
0.0123109441
 40
0.0167502227
 40
0.021361921
 40
0.026147967
 40
0.0311096625
 40
0.0362478931
 40
0.0415631048
 40
0.0470554108
 40
0.0527245748
 40
0.0585700361
 40
0.0645909914
 40
0.0707863348
 40
0.0836943853
 40
0.0972815595
 40
0.111531765
 40
0.1264262574
 40
0.1419439385
 40
0.1580616011
 40
0.1747541304
 40
0.1919946807
 40
0.2097548342
 40
0.2280047396
 40
0.2467132371
 40
0.265847975
 40
0.2853755173
 40
0.3052614463
 40
0.3254704675
 40
0.3459665065
 40
0.3667128044
 40
0.3876720104
 40
0.4088062735
 40
0.4300773332
 40
0.4514466118
 40
0.4943238235
 40
0.5371270201
 40
0.5584039422
 40
0.5795460009
 40
0.6005149191
 40
0.6212728233
 40
0.6417823344
 40
0.6620066591
 40
0.6819096852
 40
0.7014560788
 40
0.7206113795
 40
0.7393420995
 40
0.7576158281
 40
0.7754013395
 40
0.792668711
 40
0.8093894525
 40
0.8255366409
 40
0.841085072
 40
0.8560114351
 40
0.8702945165
 40
0.8839154428
 40
0.8968579824
 40
0.9091089109
 40
0.9149720777
 40
0.9206589955
 40
0.9261691143
 40
0.9315021435
 40
0.9366581519
 40
0.9416375726
 40
0.9464412271
 40
0.9510704312
 40
0.9555269626
 40
0.9598132173
 40
0.9639322048
 40
0.9678876727
 40
0.9716842022
 40
0.9753272697
 40
0.9788234334
 40
0.9821803724
 40
0.988510768
 40
0.9915096234
 40
0.9944139081
 40
0.9972385616
 40
1.0
 40
1.0
 40
1.0
 40
1.0
 10
12.2566572474
 20
7.395881031
 30
0.0
 10
12.2578108237
 20
7.3969953002
 30
0.0
 10
12.2601167575
 20
7.3993213092
 30
0.0
 10
12.2635046594
 20
7.403017098
 30
0.0
 10
12.2668890947
 20
7.4069876881
 30
0.0
 10
12.2702683227
 20
7.4112310009
 30
0.0
 10
12.2736408259
 20
7.4157450443
 30
0.0
 10
12.2770050174
 20
7.4205277106
 30
0.0
 10
12.2803593542
 20
7.4255767025
 30
0.0
 10
12.2837021678
 20
7.4308896242
 30
0.0
 10
12.2870319007
 20
7.4364639038
 30
0.0
 10
12.2903469325
 20
7.4422968805
 30
0.0
 10
12.2936456715
 20
7.4483857532
 30
0.0
 10
12.2969265437
 20
7.4547275846
 30
0.0
 10
12.3001879463
 20
7.46131934
 30
0.0
 10
12.3045684585
 20
7.4705641262
 30
0.0
 10
12.3099745892
 20
7.4827296727
 30
0.0
 10
12.3162740073
 20
7.498079305
 30
0.0
 10
12.3224588808
 20
7.5143436586
 30
0.0
 10
12.3285171797
 20
7.5314913205
 30
0.0
 10
12.3344371154
 20
7.549489312
 30
0.0
 10
12.3402071595
 20
7.5683029049
 30
0.0
 10
12.3458160759
 20
7.5878957695
 30
0.0
 10
12.3512529447
 20
7.6082300313
 30
0.0
 10
12.3565071811
 20
7.6292663595
 30
0.0
 10
12.3615685578
 20
7.6509640467
 30
0.0
 10
12.3664272247
 20
7.6732810915
 30
0.0
 10
12.3710737276
 20
7.6961742816
 30
0.0
 10
12.375499027
 20
7.7195992774
 30
0.0
 10
12.3796945194
 20
7.7435106992
 30
0.0
 10
12.383652049
 20
7.7678622187
 30
0.0
 10
12.3873639241
 20
7.7926066512
 30
0.0
 10
12.390822931
 20
7.8176960468
 30
0.0
 10
12.3940223505
 20
7.8430817868
 30
0.0
 10
12.39695596
 20
7.8687146635
 30
0.0
 10
12.3996180893
 20
7.8945450306
 30
0.0
 10
12.402802042
 20
7.9292192878
 30
0.0
 10
12.4060681791
 20
7.9726871086
 30
0.0
 10
12.4083772575
 20
8.016178638
 30
0.0
 10
12.409638113
 20
8.0508556029
 30
0.0
 10
12.4102857723
 20
8.0766572213
 30
0.0
 10
12.4106361232
 20
8.10225323
 30
0.0
 10
12.4106884796
 20
8.1275940575
 30
0.0
 10
12.4104427609
 20
8.1526305821
 30
0.0
 10
12.40989946
 20
8.1773142862
 30
0.0
 10
12.4090596523
 20
8.2015973365
 30
0.0
 10
12.4079249945
 20
8.2254326828
 30
0.0
 10
12.4064977183
 20
8.2487741487
 30
0.0
 10
12.404780626
 20
8.2715765211
 30
0.0
 10
12.4027770862
 20
8.2937956387
 30
0.0
 10
12.4004910273
 20
8.3153884795
 30
0.0
 10
12.3979269301
 20
8.3363132486
 30
0.0
 10
12.3950898242
 20
8.3565294648
 30
0.0
 10
12.3919852741
 20
8.3759980424
 30
0.0
 10
12.3886193673
 20
8.3946813691
 30
0.0
 10
12.3849987018
 20
8.4125433918
 30
0.0
 10
12.3811303705
 20
8.4295496716
 30
0.0
 10
12.3770219425
 20
8.4456675522
 30
0.0
 10
12.37268144
 20
8.4608659392
 30
0.0
 10
12.3688236707
 20
8.47291101
 30
0.0
 10
12.3656184454
 20
8.4820569966
 30
0.0
 10
12.363196978
 20
8.4885680277
 30
0.0
 10
12.3607239793
 20
8.4948281682
 30
0.0
 10
12.3582005785
 20
8.5008344125
 30
0.0
 10
12.3556280084
 20
8.5065838787
 30
0.0
 10
12.3530075121
 20
8.5120738191
 30
0.0
 10
12.3503402999
 20
8.5173015945
 30
0.0
 10
12.347627691
 20
8.5222647321
 30
0.0
 10
12.3448709014
 20
8.5269608451
 30
0.0
 10
12.3420712652
 20
8.5313877219
 30
0.0
 10
12.3392300458
 20
8.5355432536
 30
0.0
 10
12.3363485371
 20
8.5394254541
 30
0.0
 10
12.3334280367
 20
8.5430325236
 30
0.0
 10
12.330469868
 20
8.5463626064
 30
0.0
 10
12.3274750309
 20
8.5494144268
 30
0.0
 10
12.3235132478
 20
8.5530385923
 30
0.0
 10
12.3194039361
 20
8.5561954611
 30
0.0
 10
12.3151578067
 20
8.5588063078
 30
0.0
 10
12.3120001463
 20
8.5604440927
 30
0.0
 10
12.3088143973
 20
8.5617950925
 30
0.0
 10
12.306652189
 20
8.5625107443
 30
0.0
 10
12.305570667
 20
8.562818124
 30
0.0
  0
SPLINE
  5
3D2
100
AcDbEntity
  8
0
100
AcDbSpline
 62
7
  6
CONTINUOUS
 70
0
 71
3
 72
15
 73
11
 74
0
 42
0.0000001
 43
0.0000001
 44
0.0000000001
 40
0.0
 40
0.0
 40
0.0
 40
0.0
 40
0.1467401624
 40
0.2861907547
 40
0.4187569855
 40
0.5449534187
 40
0.6653964211
 40
0.7808090116
 40
0.8920273574
 40
1.0
 40
1.0
 40
1.0
 40
1.0
 10
12.2566572474
 20
7.395881031
 30
0.0
 10
12.2552945947
 20
7.3945648095
 30
0.0
 10
12.2525706175
 20
7.3920650433
 30
0.0
 10
12.2483792511
 20
7.3886448617
 30
0.0
 10
12.2441918972
 20
7.3856550193
 30
0.0
 10
12.240011417
 20
7.3830981621
 30
0.0
 10
12.2358403225
 20
7.3809766925
 30
0.0
 10
12.2316811474
 20
7.3792928817
 30
0.0
 10
12.2275374269
 20
7.3780492299
 30
0.0
 10
12.2247536544
 20
7.3775084539
 30
0.0
 10
12.2233730594
 20
7.3773154932
 30
0.0
  0
SPLINE
  5
3D3
100
AcDbEntity
  8
0
100
AcDbSpline
 62
7
  6
CONTINUOUS
 70
0
 71
3
 72
28
 73
24
 74
0
 42
0.0000001
 43
0.0000001
 44
0.0000000001
 40
0.0
 40
0.0
 40
0.0
 40
0.0
 40
0.075586486
 40
0.1466186449
 40
0.2134346186
 40
0.2764747341
 40
0.3362787133
 40
0.3934907744
 40
0.4213687662
 40
0.4488871414
 40
0.4761523432
 40
0.5032741136
 40
0.5303640302
 40
0.5575341327
 40
0.5848953814
 40
0.61255619
 40
0.6406212621
 40
0.6691904178
 40
0.7281874797
 40
0.7902492613
 40
0.8559439887
 40
0.9257370602
 40
1.0
 40
1.0
 40
1.0
 40
1.0
 10
12.2566572474
 20
7.56974769
 30
0.0
 10
12.2555038429
 20
7.5686335867
 30
0.0
 10
12.2531985941
 20
7.5665409688
 30
0.0
 10
12.2496309696
 20
7.5637453889
 30
0.0
 10
12.2460675816
 20
7.5613974811
 30
0.0
 10
12.2425115258
 20
7.5595008133
 30
0.0
 10
12.2389662655
 20
7.5580587517
 30
0.0
 10
12.2359971712
 20
7.5572318134
 30
0.0
 10
12.2336444924
 20
7.5568087328
 30
0.0
 10
12.2319009654
 20
7.5566086636
 30
0.0
 10
12.230164148
 20
7.5565233864
 30
0.0
 10
12.2284345477
 20
7.5565528871
 30
0.0
 10
12.2267127467
 20
7.5566971809
 30
0.0
 10
12.2249993161
 20
7.5569562547
 30
0.0
 10
12.2232948125
 20
7.5573299767
 30
0.0
 10
12.2215997841
 20
7.557818162
 30
0.0
 10
12.219914713
 20
7.5584206701
 30
0.0
 10
12.2176581432
 20
7.5593862269
 30
0.0
 10
12.2148555409
 20
7.5608927422
 30
0.0
 10
12.2115805102
 20
7.5631341349
 30
0.0
 10
12.2083593926
 20
7.5658245697
 30
0.0
 10
12.2051952577
 20
7.5689600099
 30
0.0
 10
12.2031898532
 20
7.5712701986
 30
0.0
 10
12.2021957398
 20
7.5724925066
 30
0.0
  0
SPLINE
  5
3D4
100
AcDbEntity
  8
0
100
AcDbSpline
 62
7
  6
CONTINUOUS
 70
0
 71
3
 72
18
 73
14
 74
0
 42
0.0000001
 43
0.0000001
 44
0.0000000001
 40
0.0
 40
0.0
 40
0.0
 40
0.0
 40
0.150467008
 40
0.2917141408
 40
0.4244426259
 40
0.4879099277
 40
0.549609295
 40
0.6682624161
 40
0.7817883561
 40
0.8371380822
 40
0.8918079419
 40
0.9460193459
 40
1.0
 40
1.0
 40
1.0
 40
1.0
 10
12.2180202121
 20
7.6110642128
 30
0.0
 10
12.2169600644
 20
7.6100401888
 30
0.0
 10
12.2148411911
 20
7.608118814
 30
0.0
 10
12.2115603516
 20
7.6055583271
 30
0.0
 10
12.2087891069
 20
7.60374742
 30
0.0
 10
12.2065792969
 20
7.6025211219
 30
0.0
 10
12.2044344966
 20
7.6014683151
 30
0.0
 10
12.201752814
 20
7.6004044892
 30
0.0
 10
12.199023431
 20
7.5996785037
 30
0.0
 10
12.1968616725
 20
7.5993208866
 30
0.0
 10
12.1952595151
 20
7.5991621438
 30
0.0
 10
12.1936638365
 20
7.5991108794
 30
0.0
 10
12.1926037079
 20
7.5991483821
 30
0.0
 10
12.1920761881
 20
7.5991849645
 30
0.0
  0
SPLINE
  5
3D5
100
AcDbEntity
  8
0
100
AcDbSpline
 62
7
  6
CONTINUOUS
 70
0
 71
3
 72
41
 73
37
 74
0
 42
0.0000001
 43
0.0000001
 44
0.0000000001
 40
0.0
 40
0.0
 40
0.0
 40
0.0
 40
0.007210972
 40
0.0143616842
 40
0.0214865215
 40
0.0286207747
 40
0.0358004685
 40
0.0430618266
 40
0.0504401225
 40
0.0579696628
 40
0.0656830315
 40
0.0736105406
 40
0.0902107816
 40
0.1079733264
 40
0.1270518394
 40
0.1475621876
 40
0.1695869619
 40
0.1931804346
 40
0.2183732006
 40
0.2451762941
 40
0.2735846364
 40
0.3035798702
 40
0.3351326789
 40
0.3682045496
 40
0.4027491455
 40
0.4387131999
 40
0.476037071
 40
0.5146551878
 40
0.554496101
 40
0.5954822256
 40
0.6375298439
 40
0.6805489706
 40
0.7244430152
 40
0.8144363056
 40
0.9066131655
 40
1.0
 40
1.0
 40
1.0
 40
1.0
 10
10.5961560476
 20
9.0075766154
 30
0.0
 10
10.5966663561
 20
9.0075412737
 30
0.0
 10
10.5976858284
 20
9.0075092991
 30
0.0
 10
10.5992098791
 20
9.0075802441
 30
0.0
 10
10.600718307
 20
9.007770448
 30
0.0
 10
10.602208907
 20
9.0080800317
 30
0.0
 10
10.6036797136
 20
9.0085089716
 30
0.0
 10
10.6051288991
 20
9.0090569938
 30
0.0
 10
10.6065547377
 20
9.0097239155
 30
0.0
 10
10.6079556926
 20
9.0105092831
 30
0.0
 10
10.6093304769
 20
9.0114125795
 30
0.0
 10
10.6111546536
 20
9.0127945803
 30
0.0
 10
10.6133662582
 20
9.0148332974
 30
0.0
 10
10.6158550671
 20
9.0177015002
 30
0.0
 10
10.618217214
 20
9.0210205842
 30
0.0
 10
10.6204519838
 20
9.0247816469
 30
0.0
 10
10.6225611428
 20
9.0289754115
 30
0.0
 10
10.6245481606
 20
9.0335915935
 30
0.0
 10
10.6264185268
 20
9.0386189842
 30
0.0
 10
10.6281794316
 20
9.0440455562
 30
0.0
 10
10.6298396822
 20
9.0498585461
 30
0.0
 10
10.6314096408
 20
9.056044513
 30
0.0
 10
10.6329010448
 20
9.062589416
 30
0.0
 10
10.6343267339
 20
9.0694786715
 30
0.0
 10
10.6357005221
 20
9.0766971289
 30
0.0
 10
10.63703708
 20
9.0842290127
 30
0.0
 10
10.6383516723
 20
9.0920578607
 30
0.0
 10
10.639660012
 20
9.1001664091
 30
0.0
 10
10.6409781266
 20
9.1085364457
 30
0.0
 10
10.6423221726
 20
9.1171486614
 30
0.0
 10
10.64370824
 20
9.1259825034
 30
0.0
 10
10.6451522367
 20
9.135016051
 30
0.0
 10
10.6471922661
 20
9.1473985159
 30
0.0
 10
10.6499571337
 20
9.1631956667
 30
0.0
 10
10.6537080361
 20
9.182381387
 30
0.0
 10
10.6565657263
 20
9.1952331705
 30
0.0
 10
10.6581041979
 20
9.2016767125
 30
0.0
  0
SPLINE
  5
3D6
100
AcDbEntity
  8
0
100
AcDbSpline
 62
7
  6
CONTINUOUS
 70
0
 71
3
 72
11
 73
7
 74
0
 42
0.0000001
 43
0.0000001
 44
0.0000000001
 40
0.0
 40
0.0
 40
0.0
 40
0.0
 40
0.2594370022
 40
0.5108816001
 40
0.7568384274
 40
1.0
 40
1.0
 40
1.0
 40
1.0
 10
12.0124715627
 20
10.0015119319
 30
0.0
 10
12.0129398479
 20
10.0004667529
 30
0.0
 10
12.0137674933
 20
9.9983643044
 30
0.0
 10
12.0146722692
 20
9.9951419285
 30
0.0
 10
12.0152160829
 20
9.9919119289
 30
0.0
 10
12.0153372584
 20
9.98975082
 30
0.0
 10
12.0153372629
 20
9.9886773778
 30
0.0
  0
SPLINE
  5
3D7
100
AcDbEntity
  8
0
100
AcDbSpline
 62
7
  6
CONTINUOUS
 70
0
 71
3
 72
25
 73
21
 74
0
 42
0.0000001
 43
0.0000001
 44
0.0000000001
 40
0.0
 40
0.0
 40
0.0
 40
0.0
 40
0.0616475282
 40
0.0924812782
 40
0.1233236452
 40
0.1850399949
 40
0.2468243989
 40
0.277751634
 40
0.3087038677
 40
0.3706878948
 40
0.4328012861
 40
0.4950619216
 40
0.5574860801
 40
0.6200882709
 40
0.6828811113
 40
0.7458751472
 40
0.8090789555
 40
0.8724985283
 40
0.936138578
 40
1.0
 40
1.0
 40
1.0
 40
1.0
 10
10.4027782191
 20
6.4879075941
 30
0.0
 10
10.3974477307
 20
6.4827587236
 30
0.0
 10
10.3892411587
 20
6.475247595
 30
0.0
 10
10.3779090686
 20
6.4656860571
 30
0.0
 10
10.3663175649
 20
6.4564268601
 30
0.0
 10
10.3513579417
 20
6.445434098
 30
0.0
 10
10.3358222703
 20
6.4352531027
 30
0.0
 10
10.3230699527
 20
6.4276084528
 30
0.0
 10
10.3100973432
 20
6.4202949652
 30
0.0
 10
10.2934987008
 20
6.4117930829
 30
0.0
 10
10.2730354067
 20
6.4026480014
 30
0.0
 10
10.2520680145
 20
6.3945775062
 30
0.0
 10
10.2306496999
 20
6.3876020769
 30
0.0
 10
10.2088343223
 20
6.3817391704
 30
0.0
 10
10.1866768593
 20
6.3770035135
 30
0.0
 10
10.1642330802
 20
6.3734069524
 30
0.0
 10
10.1415595723
 20
6.3709585069
 30
0.0
 10
10.1187131612
 20
6.3696642405
 30
0.0
 10
10.0957521612
 20
6.3695273664
 30
0.0
 10
10.0804316762
 20
6.3702068039
 30
0.0
 10
10.0727727834
 20
6.37073795
 30
0.0
  0
SPLINE
  5
3D8
100
AcDbEntity
  8
0
100
AcDbSpline
 62
7
  6
CONTINUOUS
 70
0
 71
3
 72
23
 73
19
 74
0
 42
0.0000001
 43
0.0000001
 44
0.0000000001
 40
0.0
 40
0.0
 40
0.0
 40
0.0
 40
0.0772138963
 40
0.1531832613
 40
0.2277300034
 40
0.3006883923
 40
0.3718934185
 40
0.4411873788
 40
0.5084187089
 40
0.5734430834
 40
0.6361241993
 40
0.6963346109
 40
0.7539567745
 40
0.8088842875
 40
0.8610233239
 40
0.9102943601
 40
0.9566344195
 40
1.0
 40
1.0
 40
1.0
 40
1.0
 10
10.8160753442
 20
8.889083848
 30
0.0
 10
10.8118733009
 20
8.8887611592
 30
0.0
 10
10.8035412573
 20
8.8880631111
 30
0.0
 10
10.7911707123
 20
8.8868471104
 30
0.0
 10
10.7790504219
 20
8.8854728915
 30
0.0
 10
10.7672108042
 20
8.8839439669
 30
0.0
 10
10.7556812687
 20
8.8822641394
 30
0.0
 10
10.7444906226
 20
8.8804376479
 30
0.0
 10
10.7336667486
 20
8.8784690838
 30
0.0
 10
10.7232366156
 20
8.8763634034
 30
0.0
 10
10.7132261921
 20
8.8741259074
 30
0.0
 10
10.7036603795
 20
8.8717622273
 30
0.0
 10
10.6945629451
 20
8.86927831
 30
0.0
 10
10.6859564396
 20
8.8666804019
 30
0.0
 10
10.6778621619
 20
8.8639750413
 30
0.0
 10
10.6702999802
 20
8.8611689764
 30
0.0
 10
10.6632886581
 20
8.8582693062
 30
0.0
 10
10.6588444923
 20
8.8562097274
 30
0.0
 10
10.656722352
 20
8.8551614336
 30
0.0
  0
SPLINE
  5
3D9
100
AcDbEntity
  8
0
100
AcDbSpline
 62
7
  6
CONTINUOUS
 70
0
 71
3
 72
21
 73
17
 74
0
 42
0.0000001
 43
0.0000001
 44
0.0000000001
 40
0.0
 40
0.0
 40
0.0
 40
0.0
 40
0.0616087725
 40
0.1232657602
 40
0.184989319
 40
0.2467971878
 40
0.308706313
 40
0.3707327268
 40
0.4328913971
 40
0.4951960705
 40
0.5576592081
 40
0.6202918313
 40
0.6831034069
 40
0.7461021697
 40
0.8726489419
 40
1.0
 40
1.0
 40
1.0
 40
1.0
 10
10.3752001695
 20
6.8401394438
 30
0.0
 10
10.3729752204
 20
6.8382936144
 30
0.0
 10
10.368432246
 20
6.8347090404
 30
0.0
 10
10.361359989
 20
6.8296701474
 30
0.0
 10
10.3540420217
 20
6.824977546
 30
0.0
 10
10.3464938718
 20
6.8206412811
 30
0.0
 10
10.3387313204
 20
6.8166703699
 30
0.0
 10
10.3307706677
 20
6.8130731121
 30
0.0
 10
10.3226285798
 20
6.8098570668
 30
0.0
 10
10.3143221312
 20
6.8070289597
 30
0.0
 10
10.3058687276
 20
6.8045946684
 30
0.0
 10
10.2972861305
 20
6.8025593075
 30
0.0
 10
10.2885921145
 20
6.8009271277
 30
0.0
 10
10.2768603695
 20
6.7992906944
 30
0.0
 10
10.2620028304
 20
6.7982722616
 30
0.0
 10
10.2500731258
 20
6.7985569759
 30
0.0
 10
10.2441116203
 20
6.7989704077
 30
0.0
  0
SPLINE
  5
3DA
100
AcDbEntity
  8
0
100
AcDbSpline
 62
7
  6
CONTINUOUS
 70
0
 71
3
 72
11
 73
7
 74
0
 42
0.0000001
 43
0.0000001
 44
0.0000000001
 40
0.0
 40
0.0
 40
0.0
 40
0.0
 40
0.2432171928
 40
0.4892062507
 40
0.7406383268
 40
1.0
 40
1.0
 40
1.0
 40
1.0
 10
11.1543372804
 20
9.988676892
 30
0.0
 10
11.154337276
 20
9.9897457342
 30
0.0
 10
11.1544573522
 20
9.9918974634
 30
0.0
 10
11.1549964387
 20
9.9951135544
 30
0.0
 10
11.1558933781
 20
9.9983221387
 30
0.0
 10
11.1567140069
 20
10.0004159451
 30
0.0
 10
11.1571783611
 20
10.0014568573
 30
0.0
  0
SPLINE
  5
3DB
100
AcDbEntity
  8
0
100
AcDbSpline
 62
7
  6
CONTINUOUS
 70
0
 71
3
 72
27
 73
23
 74
0
 42
0.0000001
 43
0.0000001
 44
0.0000000001
 40
0.0
 40
0.0
 40
0.0
 40
0.0
 40
0.0616468919
 40
0.092480324
 40
0.1233223738
 40
0.1850380873
 40
0.2468218549
 40
0.2777487728
 40
0.3087006876
 40
0.3706840776
 40
0.4327968309
 40
0.4950568274
 40
0.5574803452
 40
0.6200818953
 40
0.6828740866
 40
0.7143476821
 40
0.745872711
 40
0.809075826
 40
0.8724948563
 40
0.9042889874
 40
0.9361391032
 40
1.0
 40
1.0
 40
1.0
 40
1.0
 10
11.0898510691
 20
8.3968673702
 30
0.0
 10
11.0831739386
 20
8.3904177503
 30
0.0
 10
11.0728941115
 20
8.3810091314
 30
0.0
 10
11.0586992207
 20
8.3690320513
 30
0.0
 10
11.0441793148
 20
8.3574337733
 30
0.0
 10
11.0254404534
 20
8.3436639213
 30
0.0
 10
11.0059799914
 20
8.3309109499
 30
0.0
 10
10.9900060701
 20
8.3213350314
 30
0.0
 10
10.9737561774
 20
8.3121739837
 30
0.0
 10
10.9529642312
 20
8.3015242857
 30
0.0
 10
10.9273312938
 20
8.2900689138
 30
0.0
 10
10.901066939
 20
8.2799595984
 30
0.0
 10
10.8742376488
 20
8.2712219772
 30
0.0
 10
10.8469113528
 20
8.2638779965
 30
0.0
 10
10.8237991789
 20
8.2589383427
 30
0.0
 10
10.8051335632
 20
8.2556988928
 30
0.0
 10
10.7863294748
 20
8.2529319177
 30
0.0
 10
10.762640741
 20
8.2503737864
 30
0.0
 10
10.7388121849
 20
8.249023951
 30
0.0
 10
10.7196791964
 20
8.2486671038
 30
0.0
 10
10.7004771496
 20
8.24879334
 30
0.0
 10
10.6860702332
 20
8.2494322359
 30
0.0
 10
10.6764764606
 20
8.2500975663
 30
0.0
  0
SPLINE
  5
3DC
100
AcDbEntity
  8
0
100
AcDbSpline
 62
7
  6
CONTINUOUS
 70
0
 71
3
 72
94
 73
90
 74
0
 42
0.0000001
 43
0.0000001
 44
0.0000000001
 40
0.0
 40
0.0
 40
0.0
 40
0.0
 40
0.0042067424
 40
0.0086075207
 40
0.0132068055
 40
0.0180083081
 40
0.0230150438
 40
0.0282291866
 40
0.0336520718
 40
0.0392844708
 40
0.0451265555
 40
0.0511780678
 40
0.0574382557
 40
0.0639059723
 40
0.0705797218
 40
0.0774576307
 40
0.0918166637
 40
0.106963036
 40
0.1228722614
 40
0.1395164096
 40
0.1568645009
 40
0.1748828316
 40
0.1935352497
 40
0.2127833934
 40
0.2325869017
 40
0.2529036149
 40
0.2736897561
 40
0.294900102
 40
0.3164881462
 40
0.3384062565
 40
0.3606058283
 40
0.3830374351
 40
0.4056509809
 40
0.428395848
 40
0.4512210441
 40
0.4740753475
 40
0.4969074533
 40
0.5196661186
 40
0.5423003107
 40
0.5647593531
 40
0.5869930724
 40
0.6089519455
 40
0.6305872482
 40
0.6518512057
 40
0.6726971477
 40
0.693079669
 40
0.7129547903
 40
0.7322801267
 40
0.7510150672
 40
0.7691209668
 40
0.7865613576
 40
0.8033021866
 40
0.8193120912
 40
0.8345627126
 40
0.8490290789
 40
0.8626900818
 40
0.8692134624
 40
0.8755296878
 40
0.8816374943
 40
0.8875360586
 40
0.8932249277
 40
0.898704201
 40
0.9039744583
 40
0.9090369231
 40
0.9138934947
 40
0.9185468289
 40
0.923000513
 40
0.9272590847
 40
0.9313283041
 40
0.9352152008
 40
0.9389283442
 40
0.9424779984
 40
0.9458763116
 40
0.949137545
 40
0.952278132
 40
0.955316811
 40
0.9582744813
 40
0.9611740125
 40
0.9640398039
 40
0.9668971994
 40
0.9697717834
 40
0.9726886544
 40
0.975671739
 40
0.9787432816
 40
0.9852254311
 40
0.9886743433
 40
0.9922790841
 40
0.9960512073
 40
1.0
 40
1.0
 40
1.0
 40
1.0
 10
12.2566572474
 20
7.56974769
 30
0.0
 10
12.2575534446
 20
7.57061335
 30
0.0
 10
12.2593446457
 20
7.5724290512
 30
0.0
 10
12.2619701384
 20
7.5753302149
 30
0.0
 10
12.2645922943
 20
7.5784676566
 30
0.0
 10
12.2672094721
 20
7.5818393572
 30
0.0
 10
12.2698202217
 20
7.5854433765
 30
0.0
 10
12.2724230355
 20
7.5892776336
 30
0.0
 10
12.275016433
 20
7.5933398627
 30
0.0
 10
12.2775988201
 20
7.5976276854
 30
0.0
 10
12.280168722
 20
7.6021385408
 30
0.0
 10
12.2827245755
 20
7.6068697773
 30
0.0
 10
12.285264886
 20
7.6118185817
 30
0.0
 10
12.2877881313
 20
7.6169820155
 30
0.0
 10
12.2902928059
 20
7.6223570172
 30
0.0
 10
12.2936539459
 20
7.6299102314
 30
0.0
 10
12.2977896966
 20
7.639863609
 30
0.0
 10
12.3025866261
 20
7.6524324867
 30
0.0
 10
12.3072746454
 20
7.6657619685
 30
0.0
 10
12.31184248
 20
7.6798202585
 30
0.0
 10
12.3162791344
 20
7.694573936
 30
0.0
 10
12.3205739281
 20
7.709987824
 30
0.0
 10
12.3247165224
 20
7.7260251472
 30
0.0
 10
12.3286969469
 20
7.742647607
 30
0.0
 10
12.332505627
 20
7.7598154834
 30
0.0
 10
12.3361334038
 20
7.7774877351
 30
0.0
 10
12.339571556
 20
7.7956221018
 30
0.0
 10
12.3428118207
 20
7.814175209
 30
0.0
 10
12.3458464128
 20
7.8331026722
 30
0.0
 10
12.3486680432
 20
7.8523592048
 30
0.0
 10
12.351269936
 20
7.8718987267
 30
0.0
 10
12.3536458478
 20
7.8916744756
 30
0.0
 10
12.355790079
 20
7.9116391209
 30
0.0
 10
12.3576974876
 20
7.9317448781
 30
0.0
 10
12.3593635014
 20
7.951943624
 30
0.0
 10
12.3607841286
 20
7.9721870116
 30
0.0
 10
12.3619559676
 20
7.992426586
 30
0.0
 10
12.3628762153
 20
8.0126139012
 30
0.0
 10
12.3635426767
 20
8.0327006367
 30
0.0
 10
12.3639537674
 20
8.0526387148
 30
0.0
 10
12.3641085173
 20
8.0723804154
 30
0.0
 10
12.3640065734
 20
8.0918784906
 30
0.0
 10
12.3636482007
 20
8.1110862784
 30
0.0
 10
12.3630342822
 20
8.1299578149
 30
0.0
 10
12.3621663172
 20
8.1484479468
 30
0.0
 10
12.3610464213
 20
8.1665124414
 30
0.0
 10
12.3596773185
 20
8.184108095
 30
0.0
 10
12.3580623358
 20
8.2011928366
 30
0.0
 10
12.3562053948
 20
8.2177258318
 30
0.0
 10
12.3541110042
 20
8.233667584
 30
0.0
 10
12.3517842478
 20
8.2489800334
 30
0.0
 10
12.3492307737
 20
8.2636266632
 30
0.0
 10
12.3464567801
 20
8.277572576
 30
0.0
 10
12.3434690025
 20
8.2907846668
 30
0.0
 10
12.3402746611
 20
8.3032314523
 30
0.0
 10
12.3374046384
 20
8.3130876461
 30
0.0
 10
12.3350027866
 20
8.3205608673
 30
0.0
 10
12.333182332
 20
8.3258699018
 30
0.0
 10
12.3313161435
 20
8.3309664129
 30
0.0
 10
12.3294053564
 20
8.3358473943
 30
0.0
 10
12.3274510572
 20
8.3405099395
 30
0.0
 10
12.3254544545
 20
8.3449513061
 30
0.0
 10
12.3234166858
 20
8.3491688646
 30
0.0
 10
12.3213389611
 20
8.3531601381
 30
0.0
 10
12.3192224956
 20
8.3569227913
 30
0.0
 10
12.3170684692
 20
8.3604546066
 30
0.0
 10
12.3148781572
 20
8.3637535501
 30
0.0
 10
12.3126527125
 20
8.3668176627
 30
0.0
 10
12.3103934101
 20
8.3696451885
 30
0.0
 10
12.3081014052
 20
8.3722344322
 30
0.0
 10
12.305777905
 20
8.3745838486
 30
0.0
 10
12.3034240923
 20
8.3766919893
 30
0.0
 10
12.3010411028
 20
8.3785574259
 30
0.0
 10
12.2986301793
 20
8.3801788889
 30
0.0
 10
12.2961925087
 20
8.3815549995
 30
0.0
 10
12.2937294975
 20
8.3826845827
 30
0.0
 10
12.2912426292
 20
8.3835663927
 30
0.0
 10
12.2887336511
 20
8.384199414
 30
0.0
 10
12.2862045036
 20
8.3845828566
 30
0.0
 10
12.2836572973
 20
8.3847161861
 30
0.0
 10
12.2810941996
 20
8.3845994143
 30
0.0
 10
12.2785173811
 20
8.3842327562
 30
0.0
 10
12.2759286516
 20
8.3836168675
 30
0.0
 10
12.272401386
 20
8.3824438804
 30
0.0
 10
12.2689110607
 20
8.3807741478
 30
0.0
 10
12.2654900519
 20
8.3786804299
 30
0.0
 10
12.2628661436
 20
8.3768333285
 30
0.0
 10
12.2602398759
 20
8.374743663
 30
0.0
 10
12.2585282121
 20
8.3732252895
 30
0.0
 10
12.2576720225
 20
8.3724284733
 30
0.0
  0
SPLINE
  5
3DD
100
AcDbEntity
  8
0
100
AcDbSpline
 62
7
  6
CONTINUOUS
 70
0
 71
3
 72
80
 73
76
 74
0
 42
0.0000001
 43
0.0000001
 44
0.0000000001
 40
0.0
 40
0.0
 40
0.0
 40
0.0
 40
0.0039883799
 40
0.0081453752
 40
0.0124746386
 40
0.0169792156
 40
0.021661669
 40
0.0265240231
 40
0.0315676328
 40
0.0367933336
 40
0.042201574
 40
0.0477923628
 40
0.0595195651
 40
0.0719693889
 40
0.0851313116
 40
0.0989911574
 40
0.1135315518
 40
0.1287323373
 40
0.1445709047
 40
0.1610224436
 40
0.1780601318
 40
0.1956553356
 40
0.2137777909
 40
0.2323957448
 40
0.2514760677
 40
0.2709843863
 40
0.2908852167
 40
0.311142073
 40
0.3317175598
 40
0.3736702008
 40
0.4164307353
 40
0.4596780682
 40
0.5030864323
 40
0.5463285118
 40
0.5890785868
 40
0.6310156693
 40
0.6515815081
 40
0.6718274996
 40
0.6917162816
 40
0.711211397
 40
0.7302773921
 40
0.7488799298
 40
0.7669859313
 40
0.7845636874
 40
0.801582979
 40
0.818015225
 40
0.8338336755
 40
0.8490135854
 40
0.8635324141
 40
0.8773700842
 40
0.8905093296
 40
0.9029360806
 40
0.9146399417
 40
0.9202190025
 40
0.9256155028
 40
0.9308294768
 40
0.9358613995
 40
0.940712184
 40
0.9453831863
 40
0.9498763813
 40
0.9541943136
 40
0.9583402313
 40
0.9623182136
 40
0.9661331738
 40
0.9697910847
 40
0.9732990446
 40
0.9766653897
 40
0.9798999101
 40
0.9830138747
 40
0.9860201789
 40
0.9889333931
 40
0.9917696852
 40
0.9945467564
 40
0.9972835667
 40
1.0
 40
1.0
 40
1.0
 40
1.0
 10
12.2180202121
 20
7.6110642128
 30
0.0
 10
12.2187611
 20
7.6117798556
 30
0.0
 10
12.220242072
 20
7.6132749575
 30
0.0
 10
12.2224170958
 20
7.6156527934
 30
0.0
 10
12.2245898417
 20
7.6182103057
 30
0.0
 10
12.2267590966
 20
7.620946108
 30
0.0
 10
12.2289238692
 20
7.623858832
 30
0.0
 10
12.2310830935
 20
7.626947089
 30
0.0
 10
12.2332357475
 20
7.6302093513
 30
0.0
 10
12.2353807608
 20
7.6336439944
 30
0.0
 10
12.2375170452
 20
7.6372493259
 30
0.0
 10
12.2403983895
 20
7.6423633658
 30
0.0
 10
12.2439632787
 20
7.6491774179
 30
0.0
 10
12.2481241555
 20
7.6578790533
 30
0.0
 10
12.2522251751
 20
7.6672138322
 30
0.0
 10
12.2562580787
 20
7.6771631206
 30
0.0
 10
12.2602147531
 20
7.6877071741
 30
0.0
 10
12.2640872157
 20
7.698824944
 30
0.0
 10
12.2678676438
 20
7.7104942146
 30
0.0
 10
12.2715483904
 20
7.72269163
 30
0.0
 10
12.2751220201
 20
7.7353927427
 30
0.0
 10
12.2785813157
 20
7.748572071
 30
0.0
 10
12.2819192872
 20
7.7622031631
 30
0.0
 10
12.2851291853
 20
7.7762586507
 30
0.0
 10
12.2882045284
 20
7.7907102972
 30
0.0
 10
12.2911391146
 20
7.8055290607
 30
0.0
 10
12.2939270137
 20
7.8206851519
 30
0.0
 10
12.2965626195
 20
7.8361481291
 30
0.0
 10
12.2998879332
 20
7.8572692813
 30
0.0
 10
12.3036188386
 20
7.8842078883
 30
0.0
 10
12.3073849528
 20
7.9170437607
 30
0.0
 10
12.3104379253
 20
7.9503311897
 30
0.0
 10
12.3127531393
 20
7.9838026484
 30
0.0
 10
12.3143120157
 20
8.0171893561
 30
0.0
 10
12.3151020847
 20
8.0502229792
 30
0.0
 10
12.3151149603
 20
8.0774095067
 30
0.0
 10
12.3147285704
 20
8.0987780168
 30
0.0
 10
12.3142464238
 20
8.1144481759
 30
0.0
 10
12.3135711219
 20
8.1298344058
 30
0.0
 10
12.3127040242
 20
8.1449058019
 30
0.0
 10
12.311646903
 20
8.1596320608
 30
0.0
 10
12.3104019024
 20
8.1739835866
 30
0.0
 10
12.3089715638
 20
8.1879315456
 30
0.0
 10
12.3073588023
 20
8.2014479271
 30
0.0
 10
12.3055669004
 20
8.214505594
 30
0.0
 10
12.303599497
 20
8.2270783435
 30
0.0
 10
12.3014606014
 20
8.2391409714
 30
0.0
 10
12.299154571
 20
8.2506693248
 30
0.0
 10
12.2966860967
 20
8.2616403535
 30
0.0
 10
12.2940601846
 20
8.2720321462
 30
0.0
 10
12.2912821633
 20
8.2818240711
 30
0.0
 10
12.2883576476
 20
8.2909965757
 30
0.0
 10
12.2857636424
 20
8.298220172
 30
0.0
 10
12.2836128166
 20
8.3036688183
 30
0.0
 10
12.2819925566
 20
8.3075237891
 30
0.0
 10
12.2803401548
 20
8.311210793
 30
0.0
 10
12.2786564232
 20
8.3147280078
 30
0.0
 10
12.2769422193
 20
8.3180736973
 30
0.0
 10
12.2751983387
 20
8.3212461873
 30
0.0
 10
12.2734256754
 20
8.324243931
 30
0.0
 10
12.2716250662
 20
8.3270654453
 30
0.0
 10
12.2697973513
 20
8.329709329
 30
0.0
 10
12.2679434336
 20
8.332174308
 30
0.0
 10
12.2660641214
 20
8.3344591341
 30
0.0
 10
12.2641602903
 20
8.3365626826
 30
0.0
 10
12.2622327989
 20
8.3384839031
 30
0.0
 10
12.2602824436
 20
8.3402217485
 30
0.0
 10
12.2583101156
 20
8.3417753194
 30
0.0
 10
12.2563166392
 20
8.3431436838
 30
0.0
 10
12.2543028934
 20
8.3443259537
 30
0.0
 10
12.2522698415
 20
8.3453213518
 30
0.0
 10
12.2502184821
 20
8.346129017
 30
0.0
 10
12.2481499063
 20
8.3467482884
 30
0.0
 10
12.2460655784
 20
8.3471785683
 30
0.0
 10
12.2446641274
 20
8.3473393379
 30
0.0
 10
12.2439642361
 20
8.3473878738
 30
0.0
  0
SPLINE
  5
3DE
100
AcDbEntity
  8
0
100
AcDbSpline
 62
7
  6
CONTINUOUS
 70
0
 71
3
 72
15
 73
11
 74
0
 42
0.0000001
 43
0.0000001
 44
0.0000000001
 40
0.0
 40
0.0
 40
0.0
 40
0.0
 40
0.1237799956
 40
0.2478582445
 40
0.3722643229
 40
0.497024337
 40
0.6221614033
 40
0.7476927499
 40
0.8736372527
 40
1.0
 40
1.0
 40
1.0
 40
1.0
 10
11.0411904031
 20
8.7220426588
 30
0.0
 10
11.0363711122
 20
8.7198611498
 30
0.0
 10
11.0266061538
 20
8.7157415363
 30
0.0
 10
11.0116429552
 20
8.7103165951
 30
0.0
 10
10.99638158
 20
8.7056513123
 30
0.0
 10
10.9808590197
 20
8.7017570193
 30
0.0
 10
10.9651123444
 20
8.6986429773
 30
0.0
 10
10.9491790034
 20
8.6963164973
 30
0.0
 10
10.93309772
 20
8.6947832648
 30
0.0
 10
10.9223207024
 20
8.6942930591
 30
0.0
 10
10.9169214553
 20
8.6941804005
 30
0.0
  0
SPLINE
  5
3DF
100
AcDbEntity
  8
0
100
AcDbSpline
 62
7
  6
CONTINUOUS
 70
0
 71
3
 72
24
 73
20
 74
0
 42
0.0000001
 43
0.0000001
 44
0.0000000001
 40
0.0
 40
0.0
 40
0.0
 40
0.0
 40
0.0638490882
 40
0.1274807
 40
0.1908950954
 40
0.2540971377
 40
0.317092336
 40
0.3798888963
 40
0.4424968285
 40
0.5049281454
 40
0.5671966695
 40
0.6293179274
 40
0.6913089943
 40
0.7222640826
 40
0.7531936504
 40
0.8149808901
 40
0.8766966711
 40
0.9383623942
 40
1.0
 40
1.0
 40
1.0
 40
1.0
 10
10.0769138849
 20
6.3747379471
 30
0.0
 10
10.0844490686
 20
6.3742153803
 30
0.0
 10
10.0995220371
 20
6.3735408458
 30
0.0
 10
10.1221133073
 20
6.3736479048
 30
0.0
 10
10.1445954655
 20
6.3748752666
 30
0.0
 10
10.1669129322
 20
6.3772199423
 30
0.0
 10
10.1890116017
 20
6.3806763399
 30
0.0
 10
10.2108375332
 20
6.3852360533
 30
0.0
 10
10.2323375614
 20
6.3908880501
 30
0.0
 10
10.2534592435
 20
6.3976185873
 30
0.0
 10
10.2741511725
 20
6.4054113638
 30
0.0
 10
10.2943625587
 20
6.4142472416
 30
0.0
 10
10.3107727491
 20
6.4224663316
 30
0.0
 10
10.3236087616
 20
6.4295395192
 30
0.0
 10
10.3362340072
 20
6.4369347944
 30
0.0
 10
10.3516295819
 20
6.4467874323
 30
0.0
 10
10.3694404854
 20
6.4595566881
 30
0.0
 10
10.386538478
 20
6.4732370238
 30
0.0
 10
10.3974364872
 20
6.4829446727
 30
0.0
 10
10.4027510489
 20
6.4879370494
 30
0.0
  0
SPLINE
  5
3E0
100
AcDbEntity
  8
0
100
AcDbSpline
 62
7
  6
CONTINUOUS
 70
0
 71
3
 72
46
 73
42
 74
0
 42
0.0000001
 43
0.0000001
 44
0.0000000001
 40
0.0
 40
0.0
 40
0.0
 40
0.0
 40
0.0311360737
 40
0.0624243431
 40
0.0938589563
 40
0.125430401
 40
0.1571266513
 40
0.1889331808
 40
0.2208332973
 40
0.2528084886
 40
0.2848387932
 40
0.3169031931
 40
0.3489800185
 40
0.3810473625
 40
0.4130834985
 40
0.4450672969
 40
0.4769786317
 40
0.5087987729
 40
0.5405107625
 40
0.572099764
 40
0.6035533755
 40
0.6348619098
 40
0.6660186292
 40
0.6970199214
 40
0.7278654223
 40
0.7585580764
 40
0.7891041187
 40
0.8043276851
 40
0.8195183984
 40
0.8346779122
 40
0.8498080531
 40
0.8649108169
 40
0.8799883548
 40
0.8950429597
 40
0.9100770595
 40
0.9250931997
 40
0.9400940281
 40
0.9550822837
 40
0.9700607789
 40
0.9850323811
 40
1.0
 40
1.0
 40
1.0
 40
1.0
 10
10.0769138849
 20
6.3747379471
 30
0.0
 10
10.0657724194
 20
6.3755106104
 30
0.0
 10
10.0434830678
 20
6.3778706675
 30
0.0
 10
10.0103167445
 20
6.3838071735
 30
0.0
 10
9.9775017073
 20
6.3921176587
 30
0.0
 10
9.9452132309
 20
6.40275797
 30
0.0
 10
9.9136209486
 20
6.415671688
 30
0.0
 10
9.8828915168
 20
6.4307904743
 30
0.0
 10
9.8531868464
 20
6.4480344749
 30
0.0
 10
9.8246634636
 20
6.4673126121
 30
0.0
 10
9.7974716443
 20
6.4885231349
 30
0.0
 10
9.7717547025
 20
6.5115542029
 30
0.0
 10
9.7476481644
 20
6.5362843726
 30
0.0
 10
9.7252790708
 20
6.5625832626
 30
0.0
 10
9.7047653898
 20
6.5903122964
 30
0.0
 10
9.6862153262
 20
6.6193253518
 30
0.0
 10
9.6697267332
 20
6.649469525
 30
0.0
 10
9.6553867028
 20
6.6805859878
 30
0.0
 10
9.6432710443
 20
6.7125107655
 30
0.0
 10
9.6334438237
 20
6.7450755781
 30
0.0
 10
9.6259571496
 20
6.778108766
 30
0.0
 10
9.6208508464
 20
6.8114361424
 30
0.0
 10
9.6181521491
 20
6.8448819291
 30
0.0
 10
9.617875644
 20
6.8782695587
 30
0.0
 10
9.6200233163
 20
6.9114230951
 30
0.0
 10
9.6245838099
 20
6.9441662387
 30
0.0
 10
9.6303830471
 20
6.9710010383
 30
0.0
 10
9.6362006558
 20
6.9920832509
 30
0.0
 10
9.6411414727
 20
7.007669876
 30
0.0
 10
9.6466578097
 20
7.023026411
 30
0.0
 10
9.6527424785
 20
7.0381328384
 30
0.0
 10
9.6593873801
 20
7.0529691424
 30
0.0
 10
9.6665837692
 20
7.0675157317
 30
0.0
 10
9.6743221779
 20
7.0817533588
 30
0.0
 10
9.682592335
 20
7.0956632392
 30
0.0
 10
9.6913833448
 20
7.1092269754
 30
0.0
 10
9.7006836249
 20
7.1224266276
 30
0.0
 10
9.7104808248
 20
7.1352447692
 30
0.0
 10
9.7207620911
 20
7.1476645019
 30
0.0
 10
9.7315136345
 20
7.1596691625
 30
0.0
 10
9.7389864036
 20
7.1673861076
 30
0.0
 10
9.7427955915
 20
7.1711694324
 30
0.0
  0
SPLINE
  5
3E1
100
AcDbEntity
  8
0
100
AcDbSpline
 62
7
  6
CONTINUOUS
 70
0
 71
3
 72
23
 73
19
 74
0
 42
0.0000001
 43
0.0000001
 44
0.0000000001
 40
0.0
 40
0.0
 40
0.0
 40
0.0
 40
0.0434722387
 40
0.0899076031
 40
0.1392613545
 40
0.1914695281
 40
0.2464518088
 40
0.3041138021
 40
0.3643487698
 40
0.4270389846
 40
0.4920568361
 40
0.5592659755
 40
0.6285221017
 40
0.6996738882
 40
0.7725638014
 40
0.8470269551
 40
0.9228986526
 40
1.0
 40
1.0
 40
1.0
 40
1.0
 10
10.6567128697
 20
8.8551558347
 30
0.0
 10
10.6588512654
 20
8.8562032131
 30
0.0
 10
10.6633274978
 20
8.8582608123
 30
0.0
 10
10.6703857244
 20
8.8611576739
 30
0.0
 10
10.6779938534
 20
8.8639603863
 30
0.0
 10
10.6861330245
 20
8.8666618763
 30
0.0
 10
10.6947832731
 20
8.8692554157
 30
0.0
 10
10.7039232141
 20
8.8717344888
 30
0.0
 10
10.7135302248
 20
8.8740928673
 30
0.0
 10
10.7235804714
 20
8.8763246182
 30
0.0
 10
10.7340489856
 20
8.8784241387
 30
0.0
 10
10.7449097332
 20
8.8803861514
 30
0.0
 10
10.756135692
 20
8.8822057271
 30
0.0
 10
10.7676989317
 20
8.883878293
 30
0.0
 10
10.7795705949
 20
8.8853996323
 30
0.0
 10
10.7917212599
 20
8.886765976
 30
0.0
 10
10.8041204388
 20
8.887973825
 30
0.0
 10
10.8124709485
 20
8.8886663754
 30
0.0
 10
10.8166819163
 20
8.8889862656
 30
0.0
  0
SPLINE
  5
3E2
100
AcDbEntity
  8
0
100
AcDbSpline
 62
7
  6
CONTINUOUS
 70
0
 71
3
 72
71
 73
67
 74
0
 42
0.0000001
 43
0.0000001
 44
0.0000000001
 40
0.0
 40
0.0
 40
0.0
 40
0.0
 40
0.0156746951
 40
0.0314022331
 40
0.0471806321
 40
0.0630088952
 40
0.0788847436
 40
0.0948057516
 40
0.1107690095
 40
0.1267712322
 40
0.14280879
 40
0.1588777348
 40
0.1749738409
 40
0.1910926421
 40
0.2072294728
 40
0.2233795103
 40
0.2395378174
 40
0.2556993841
 40
0.2718591714
 40
0.2880121558
 40
0.304153374
 40
0.3202779653
 40
0.3363812143
 40
0.3524585919
 40
0.3685057968
 40
0.3845187959
 40
0.4004938609
 40
0.4164276037
 40
0.432317008
 40
0.4481594611
 40
0.4639527821
 40
0.4796952457
 40
0.4953856016
 40
0.5110230909
 40
0.526607458
 40
0.5421389596
 40
0.5576183676
 40
0.5730469657
 40
0.5884265418
 40
0.603759374
 40
0.6190482142
 40
0.6342962641
 40
0.6495071459
 40
0.6646848671
 40
0.6798337811
 40
0.6949585445
 40
0.7100640694
 40
0.7251554729
 40
0.7402380227
 40
0.7553170806
 40
0.7703980454
 40
0.7854862954
 40
0.8005871315
 40
0.8157057208
 40
0.8308470413
 40
0.8460158304
 40
0.861216535
 40
0.8764532684
 40
0.8917297685
 40
0.9070493664
 40
0.922414947
 40
0.9378289216
 40
0.9532932848
 40
0.9688092399
 40
0.9843783001
 40
1.0
 40
1.0
 40
1.0
 40
1.0
 10
10.0769138849
 20
6.5099675708
 30
0.0
 10
10.0716108782
 20
6.5103353355
 30
0.0
 10
10.0610032322
 20
6.5113322632
 30
0.0
 10
10.0451586058
 20
6.5136011346
 30
0.0
 10
10.0293902519
 20
6.5166408076
 30
0.0
 10
10.0137367813
 20
6.5204437089
 30
0.0
 10
9.9982356247
 20
6.5250007898
 30
0.0
 10
9.9829241867
 20
6.5303010007
 30
0.0
 10
9.9678393007
 20
6.5363315695
 30
0.0
 10
9.953017278
 20
6.5430779418
 30
0.0
 10
9.938493791
 20
6.5505238534
 30
0.0
 10
9.924303795
 20
6.5586513651
 30
0.0
 10
9.9104814464
 20
6.5674409049
 30
0.0
 10
9.8970600154
 20
6.5768713054
 30
0.0
 10
9.8840717971
 20
6.5869198457
 30
0.0
 10
9.8715480485
 20
6.597562328
 30
0.0
 10
9.8595189122
 20
6.608773131
 30
0.0
 10
9.8480133455
 20
6.6205252711
 30
0.0
 10
9.8370590522
 20
6.6327904664
 30
0.0
 10
9.8266823949
 20
6.6455391861
 30
0.0
 10
9.8169083505
 20
6.6587407421
 30
0.0
 10
9.8077604519
 20
6.6723633609
 30
0.0
 10
9.7992607314
 20
6.6863742585
 30
0.0
 10
9.7914296723
 20
6.7007397197
 30
0.0
 10
9.7842861368
 20
6.715425167
 30
0.0
 10
9.7778473302
 20
6.7303952506
 30
0.0
 10
9.7721287707
 20
6.745613939
 30
0.0
 10
9.76714425
 20
6.761044602
 30
0.0
 10
9.7629058035
 20
6.7766500982
 30
0.0
 10
9.759423669
 20
6.7923928598
 30
0.0
 10
9.7567062491
 20
6.8082349824
 30
0.0
 10
9.7547601162
 20
6.8241383221
 30
0.0
 10
9.7535899922
 20
6.8400645839
 30
0.0
 10
9.7531987378
 20
6.8559754125
 30
0.0
 10
9.7535873447
 20
6.8718324833
 30
0.0
 10
9.7547549038
 20
6.8875975954
 30
0.0
 10
9.7566986354
 20
6.9032327659
 30
0.0
 10
9.7594138947
 20
6.9187003189
 30
0.0
 10
9.7628941815
 20
6.9339629747
 30
0.0
 10
9.7671311585
 20
6.948983938
 30
0.0
 10
9.7721146451
 20
6.9637269938
 30
0.0
 10
9.7778326526
 20
6.9781565952
 30
0.0
 10
9.7842714258
 20
6.9922379444
 30
0.0
 10
9.791415471
 20
7.0059370773
 30
0.0
 10
9.7992475956
 20
7.0192209432
 30
0.0
 10
9.8077489364
 20
7.0320574918
 30
0.0
 10
9.8168989962
 20
7.044415761
 30
0.0
 10
9.8266757165
 20
7.0562659384
 30
0.0
 10
9.8370555256
 20
7.0675794351
 30
0.0
 10
9.8480133966
 20
7.0783289548
 30
0.0
 10
9.8595229067
 20
7.0884885589
 30
0.0
 10
9.8715562826
 20
7.0980337537
 30
0.0
 10
9.8840844905
 20
7.1069415289
 30
0.0
 10
9.897077306
 20
7.1151904128
 30
0.0
 10
9.9105033866
 20
7.1227605242
 30
0.0
 10
9.9243303488
 20
7.1296336156
 30
0.0
 10
9.9385248355
 20
7.1357931413
 30
0.0
 10
9.9530526054
 20
7.1412242862
 30
0.0
 10
9.9678786219
 20
7.145913991
 30
0.0
 10
9.9829671369
 20
7.1498509814
 30
0.0
 10
9.9982817696
 20
7.1530257915
 30
0.0
 10
10.0137856272
 20
7.1554308192
 30
0.0
 10
10.0294412492
 20
7.1570602708
 30
0.0
 10
10.0452111767
 20
7.1579103643
 30
0.0
 10
10.0610567539
 20
7.157978958
 30
0.0
 10
10.0716288074
 20
7.1575044341
 30
0.0
 10
10.0769138849
 20
7.1571379127
 30
0.0
  0
SPLINE
  5
3E3
100
AcDbEntity
  8
0
100
AcDbSpline
 62
7
  6
CONTINUOUS
 70
0
 71
3
 72
39
 73
35
 74
0
 42
0.0000001
 43
0.0000001
 44
0.0000000001
 40
0.0
 40
0.0
 40
0.0
 40
0.0
 40
0.0311450424
 40
0.062443103
 40
0.093888348
 40
0.1254709887
 40
0.1571788844
 40
0.1889972605
 40
0.2209091753
 40
0.252895844
 40
0.2849370233
 40
0.3170114137
 40
0.3490970737
 40
0.3811718446
 40
0.413213777
 40
0.4452015562
 40
0.4771149179
 40
0.5089350501
 40
0.540644973
 40
0.572229893
 40
0.6036775227
 40
0.6349783628
 40
0.666125934
 40
0.6971169547
 40
0.7279514582
 40
0.7586328418
 40
0.7891678433
 40
0.8195664429
 40
0.8498416839
 40
0.8800094159
 40
0.9100879624
 40
0.9400977195
 40
0.9700606952
 40
1.0
 40
1.0
 40
1.0
 40
1.0
 10
10.085972544
 20
6.55252497
 30
0.0
 10
10.0788964374
 20
6.5530156997
 30
0.0
 10
10.0647401122
 20
6.554517509
 30
0.0
 10
10.043677248
 20
6.5583006312
 30
0.0
 10
10.0228399887
 20
6.5635996253
 30
0.0
 10
10.0023408631
 20
6.5703860291
 30
0.0
 10
9.9822887836
 20
6.5786234471
 30
0.0
 10
9.9627907117
 20
6.5882678309
 30
0.0
 10
9.9439505218
 20
6.5992676445
 30
0.0
 10
9.9258686035
 20
6.6115641513
 30
0.0
 10
9.9086412937
 20
6.6250917326
 30
0.0
 10
9.8923603851
 20
6.639778239
 30
0.0
 10
9.8771126391
 20
6.655545371
 30
0.0
 10
9.8629793292
 20
6.6723090911
 30
0.0
 10
9.8500358155
 20
6.689980069
 30
0.0
 10
9.8383511306
 20
6.7084641404
 30
0.0
 10
9.8279876222
 20
6.7276628135
 30
0.0
 10
9.8190006288
 20
6.7474737896
 30
0.0
 10
9.811438185
 20
6.7677915004
 30
0.0
 10
9.805340765
 20
6.788507662
 30
0.0
 10
9.8007410686
 20
6.8095118445
 30
0.0
 10
9.7976638267
 20
6.8306920486
 30
0.0
 10
9.7961256693
 20
6.851935299
 30
0.0
 10
9.79613504
 20
6.8731282409
 30
0.0
 10
9.797692139
 20
6.8941577367
 30
0.0
 10
9.8007889111
 20
6.9149114648
 30
0.0
 10
9.8054090774
 20
6.9352785148
 30
0.0
 10
9.8115281966
 20
6.9551499861
 30
0.0
 10
9.8191137714
 20
6.9744195674
 30
0.0
 10
9.8281254603
 20
6.9929841459
 30
0.0
 10
9.8385151413
 20
7.0107442345
 30
0.0
 10
9.8502276704
 20
7.0276050178
 30
0.0
 10
9.8631992794
 20
7.0434750163
 30
0.0
 10
9.8726443153
 20
7.0533419825
 30
0.0
 10
9.8775485645
 20
7.0580791037
 30
0.0
  0
SPLINE
  5
3E4
100
AcDbEntity
  8
0
100
AcDbSpline
 62
7
  6
CONTINUOUS
 70
0
 71
3
 72
61
 73
57
 74
0
 42
0.0000001
 43
0.0000001
 44
0.0000000001
 40
0.0
 40
0.0
 40
0.0
 40
0.0
 40
0.0170381658
 40
0.0336897866
 40
0.0498973321
 40
0.0655897194
 40
0.0806892663
 40
0.0951063377
 40
0.1087472269
 40
0.1152475847
 40
0.1215193431
 40
0.1275525776
 40
0.1333393821
 40
0.1388745147
 40
0.1441556761
 40
0.1491853887
 40
0.1539709424
 40
0.1585256105
 40
0.1628695615
 40
0.1670289815
 40
0.1710372428
 40
0.1749320766
 40
0.1787553009
 40
0.1825493189
 40
0.1863552555
 40
0.1902105768
 40
0.1941473788
 40
0.2023586203
 40
0.2066738613
 40
0.2111417272
 40
0.2157678282
 40
0.2205549345
 40
0.2255035663
 40
0.2306118548
 40
0.2412938716
 40
0.2525709389
 40
0.2644034276
 40
0.2767529587
 40
0.2895798323
 40
0.3028510274
 40
0.3165334007
 40
0.3305995406
 40
0.3450256402
 40
0.3597883408
 40
0.3902540223
 40
0.4218713109
 40
0.4545468308
 40
0.4882057439
 40
0.522793497
 40
0.5582652819
 40
0.5945877062
 40
0.6696771373
 40
0.7478959468
 40
0.829113744
 40
0.9132005469
 40
1.0
 40
1.0
 40
1.0
 40
1.0
 10
10.626454629
 20
8.9651835394
 30
0.0
 10
10.6264547176
 20
8.9666731007
 30
0.0
 10
10.6264888907
 20
8.9696185721
 30
0.0
 10
10.6266504532
 20
8.9739783457
 30
0.0
 10
10.6269261091
 20
8.9782146275
 30
0.0
 10
10.6273214109
 20
8.9823052511
 30
0.0
 10
10.6278417975
 20
8.9862242385
 30
0.0
 10
10.6284935036
 20
8.9899417775
 30
0.0
 10
10.6291611342
 20
8.9928900815
 30
0.0
 10
10.6297733704
 20
8.9951169628
 30
0.0
 10
10.6302619447
 20
8.9966871064
 30
0.0
 10
10.6307877812
 20
8.9981792442
 30
0.0
 10
10.631351444
 20
8.9995884624
 30
0.0
 10
10.63195303
 20
9.0009101062
 30
0.0
 10
10.6325929088
 20
9.0021396217
 30
0.0
 10
10.6332709215
 20
9.0032729664
 30
0.0
 10
10.6339869102
 20
9.0043065338
 30
0.0
 10
10.6347406423
 20
9.0052371668
 30
0.0
 10
10.635531274
 20
9.0060626828
 30
0.0
 10
10.6363583477
 20
9.006781044
 30
0.0
 10
10.6372203668
 20
9.0073917074
 30
0.0
 10
10.638116221
 20
9.0078941545
 30
0.0
 10
10.6390439245
 20
9.0082895067
 30
0.0
 10
10.640001632
 20
9.0085793968
 30
0.0
 10
10.6409873069
 20
9.0087664539
 30
0.0
 10
10.6419990921
 20
9.0088544296
 30
0.0
 10
10.6433998281
 20
9.0088444736
 30
0.0
 10
10.6448324395
 20
9.0086475589
 30
0.0
 10
10.6462771621
 20
9.0082988921
 30
0.0
 10
10.647398955
 20
9.0079560048
 30
0.0
 10
10.6485397054
 20
9.00754067
 30
0.0
 10
10.6496988789
 20
9.0070571435
 30
0.0
 10
10.6508757713
 20
9.0065095601
 30
0.0
 10
10.6524919879
 20
9.0056871942
 30
0.0
 10
10.6545498973
 20
9.0045163348
 30
0.0
 10
10.6570469298
 20
9.0029362405
 30
0.0
 10
10.6596056545
 20
9.0011851592
 30
0.0
 10
10.6622238615
 20
8.9992837201
 30
0.0
 10
10.6649012682
 20
8.9972512331
 30
0.0
 10
10.6676362417
 20
8.9951027783
 30
0.0
 10
10.6704290745
 20
8.9928531119
 30
0.0
 10
10.6732792609
 20
8.990513982
 30
0.0
 10
10.6761864572
 20
8.9880956034
 30
0.0
 10
10.6801816912
 20
8.9847433683
 30
0.0
 10
10.6853110743
 20
8.9804046836
 30
0.0
 10
10.6916388956
 20
8.9750579417
 30
0.0
 10
10.6982028272
 20
8.9695581324
 30
0.0
 10
10.7050064824
 20
8.9639403485
 30
0.0
 10
10.7120512936
 20
8.9582311952
 30
0.0
 10
10.7193407136
 20
8.952454803
 30
0.0
 10
10.729501174
 20
8.9446017275
 30
0.0
 10
10.7428207402
 20
8.934726926
 30
0.0
 10
10.7596454046
 20
8.9230030568
 30
0.0
 10
10.7774894738
 20
8.911383484
 30
0.0
 10
10.7963483114
 20
8.8999691452
 30
0.0
 10
10.8093894042
 20
8.8926730867
 30
0.0
 10
10.8160753442
 20
8.889083848
 30
0.0
  0
SPLINE
  5
3E5
100
AcDbEntity
  8
0
100
AcDbSpline
 62
4
  6
CONTINUOUS
 70
0
 71
3
 72
403
 73
399
 74
0
 42
0.0000001
 43
0.0000001
 44
0.0000000001
 40
0.0
 40
0.0
 40
0.0
 40
0.0
 40
0.015625
 40
0.0234375
 40
0.03125
 40
0.0390625
 40
0.04296875
 40
0.046875
 40
0.05078125
 40
0.0546875
 40
0.056640625
 40
0.05859375
 40
0.0595703125
 40
0.060546875
 40
0.0615234375
 40
0.0620117188
 40
0.0622558594
 40
0.0625
 40
0.0627441406
 40
0.0629882812
 40
0.0634765625
 40
0.064453125
 40
0.0654296875
 40
0.06640625
 40
0.068359375
 40
0.0703125
 40
0.07421875
 40
0.078125
 40
0.08203125
 40
0.0859375
 40
0.09375
 40
0.1015625
 40
0.10546875
 40
0.109375
 40
0.11328125
 40
0.1171875
 40
0.119140625
 40
0.12109375
 40
0.1220703125
 40
0.123046875
 40
0.1240234375
 40
0.1245117188
 40
0.1247558594
 40
0.125
 40
0.1252441406
 40
0.1254882812
 40
0.1259765625
 40
0.126953125
 40
0.1279296875
 40
0.12890625
 40
0.130859375
 40
0.1328125
 40
0.13671875
 40
0.140625
 40
0.14453125
 40
0.1484375
 40
0.15625
 40
0.1640625
 40
0.16796875
 40
0.171875
 40
0.17578125
 40
0.1796875
 40
0.181640625
 40
0.18359375
 40
0.1845703125
 40
0.185546875
 40
0.1865234375
 40
0.1870117188
 40
0.1872558594
 40
0.1875
 40
0.1877441406
 40
0.1879882812
 40
0.1884765625
 40
0.189453125
 40
0.1904296875
 40
0.19140625
 40
0.193359375
 40
0.1953125
 40
0.19921875
 40
0.203125
 40
0.20703125
 40
0.2109375
 40
0.21875
 40
0.2265625
 40
0.23046875
 40
0.234375
 40
0.23828125
 40
0.2421875
 40
0.244140625
 40
0.24609375
 40
0.2470703125
 40
0.248046875
 40
0.2490234375
 40
0.2495117188
 40
0.2497558594
 40
0.25
 40
0.2502441406
 40
0.2504882812
 40
0.2509765625
 40
0.251953125
 40
0.2529296875
 40
0.25390625
 40
0.255859375
 40
0.2578125
 40
0.26171875
 40
0.265625
 40
0.26953125
 40
0.2734375
 40
0.28125
 40
0.2890625
 40
0.29296875
 40
0.296875
 40
0.30078125
 40
0.3046875
 40
0.306640625
 40
0.30859375
 40
0.3095703125
 40
0.310546875
 40
0.3115234375
 40
0.3120117188
 40
0.3122558594
 40
0.3125
 40
0.3127441406
 40
0.3129882812
 40
0.3134765625
 40
0.314453125
 40
0.3154296875
 40
0.31640625
 40
0.318359375
 40
0.3203125
 40
0.32421875
 40
0.328125
 40
0.33203125
 40
0.3359375
 40
0.34375
 40
0.3515625
 40
0.35546875
 40
0.359375
 40
0.36328125
 40
0.3671875
 40
0.369140625
 40
0.37109375
 40
0.3720703125
 40
0.373046875
 40
0.3740234375
 40
0.3745117188
 40
0.3747558594
 40
0.375
 40
0.3752441406
 40
0.3754882812
 40
0.3759765625
 40
0.376953125
 40
0.3779296875
 40
0.37890625
 40
0.380859375
 40
0.3828125
 40
0.38671875
 40
0.390625
 40
0.39453125
 40
0.3984375
 40
0.40625
 40
0.4140625
 40
0.41796875
 40
0.421875
 40
0.42578125
 40
0.4296875
 40
0.431640625
 40
0.43359375
 40
0.4345703125
 40
0.435546875
 40
0.4365234375
 40
0.4370117188
 40
0.4372558594
 40
0.4375
 40
0.4377441406
 40
0.4379882812
 40
0.4384765625
 40
0.439453125
 40
0.4404296875
 40
0.44140625
 40
0.443359375
 40
0.4453125
 40
0.44921875
 40
0.453125
 40
0.45703125
 40
0.4609375
 40
0.46875
 40
0.4765625
 40
0.48046875
 40
0.484375
 40
0.48828125
 40
0.4921875
 40
0.494140625
 40
0.49609375
 40
0.4970703125
 40
0.498046875
 40
0.4990234375
 40
0.4995117188
 40
0.4997558594
 40
0.5
 40
0.5002441406
 40
0.5004882812
 40
0.5009765625
 40
0.501953125
 40
0.5029296875
 40
0.50390625
 40
0.505859375
 40
0.5078125
 40
0.51171875
 40
0.515625
 40
0.51953125
 40
0.5234375
 40
0.53125
 40
0.5390625
 40
0.54296875
 40
0.546875
 40
0.55078125
 40
0.5546875
 40
0.556640625
 40
0.55859375
 40
0.5595703125
 40
0.560546875
 40
0.5615234375
 40
0.5620117188
 40
0.5622558594
 40
0.5625
 40
0.5627441406
 40
0.5629882812
 40
0.5634765625
 40
0.564453125
 40
0.5654296875
 40
0.56640625
 40
0.568359375
 40
0.5703125
 40
0.57421875
 40
0.578125
 40
0.58203125
 40
0.5859375
 40
0.59375
 40
0.6015625
 40
0.60546875
 40
0.609375
 40
0.61328125
 40
0.6171875
 40
0.619140625
 40
0.62109375
 40
0.6220703125
 40
0.623046875
 40
0.6240234375
 40
0.6245117188
 40
0.6247558594
 40
0.625
 40
0.6252441406
 40
0.6254882812
 40
0.6259765625
 40
0.626953125
 40
0.6279296875
 40
0.62890625
 40
0.630859375
 40
0.6328125
 40
0.63671875
 40
0.640625
 40
0.64453125
 40
0.6484375
 40
0.65625
 40
0.6640625
 40
0.66796875
 40
0.671875
 40
0.67578125
 40
0.6796875
 40
0.681640625
 40
0.68359375
 40
0.6845703125
 40
0.685546875
 40
0.6865234375
 40
0.6870117188
 40
0.6872558594
 40
0.6875
 40
0.6877441406
 40
0.6879882812
 40
0.6884765625
 40
0.689453125
 40
0.6904296875
 40
0.69140625
 40
0.693359375
 40
0.6953125
 40
0.69921875
 40
0.703125
 40
0.70703125
 40
0.7109375
 40
0.71875
 40
0.7265625
 40
0.73046875
 40
0.734375
 40
0.73828125
 40
0.7421875
 40
0.744140625
 40
0.74609375
 40
0.7470703125
 40
0.748046875
 40
0.7490234375
 40
0.7495117188
 40
0.7497558594
 40
0.75
 40
0.7502441406
 40
0.7504882812
 40
0.7509765625
 40
0.751953125
 40
0.7529296875
 40
0.75390625
 40
0.755859375
 40
0.7578125
 40
0.76171875
 40
0.765625
 40
0.76953125
 40
0.7734375
 40
0.78125
 40
0.7890625
 40
0.79296875
 40
0.796875
 40
0.80078125
 40
0.8046875
 40
0.806640625
 40
0.80859375
 40
0.8095703125
 40
0.810546875
 40
0.8115234375
 40
0.8120117188
 40
0.8122558594
 40
0.8125
 40
0.8127441406
 40
0.8129882812
 40
0.8134765625
 40
0.814453125
 40
0.8154296875
 40
0.81640625
 40
0.818359375
 40
0.8203125
 40
0.82421875
 40
0.828125
 40
0.83203125
 40
0.8359375
 40
0.84375
 40
0.8515625
 40
0.85546875
 40
0.859375
 40
0.86328125
 40
0.8671875
 40
0.869140625
 40
0.87109375
 40
0.8720703125
 40
0.873046875
 40
0.8740234375
 40
0.8745117188
 40
0.8747558594
 40
0.875
 40
0.8752441406
 40
0.8754882812
 40
0.8759765625
 40
0.876953125
 40
0.8779296875
 40
0.87890625
 40
0.880859375
 40
0.8828125
 40
0.88671875
 40
0.890625
 40
0.89453125
 40
0.8984375
 40
0.90625
 40
0.9140625
 40
0.91796875
 40
0.921875
 40
0.92578125
 40
0.9296875
 40
0.931640625
 40
0.93359375
 40
0.9345703125
 40
0.935546875
 40
0.9365234375
 40
0.9370117188
 40
0.9372558594
 40
0.9375
 40
0.9377441406
 40
0.9379882812
 40
0.9384765625
 40
0.939453125
 40
0.9404296875
 40
0.94140625
 40
0.943359375
 40
0.9453125
 40
0.94921875
 40
0.953125
 40
0.95703125
 40
0.9609375
 40
0.96875
 40
0.9765625
 40
0.984375
 40
1.0
 40
1.0
 40
1.0
 40
1.0
 10
10.9082986675
 20
7.3598577171
 30
0.0
 10
10.9086058791
 20
7.356703225
 30
0.0
 10
10.9090666966
 20
7.3519714868
 30
0.0
 10
10.90968112
 20
7.3456625026
 30
0.0
 10
10.9101419375
 20
7.3409307644
 30
0.0
 10
10.9105259519
 20
7.3369876492
 30
0.0
 10
10.9108331639
 20
7.3338331571
 30
0.0
 10
10.9110635717
 20
7.3314672879
 30
0.0
 10
10.9112939841
 20
7.3291014193
 30
0.0
 10
10.9114859799
 20
7.3271298603
 30
0.0
 10
10.9116396091
 20
7.3255526172
 30
0.0
 10
10.9117355533
 20
7.3245668308
 30
0.0
 10
10.9118124783
 20
7.3237782234
 30
0.0
 10
10.9118697075
 20
7.3231867082
 30
0.0
 10
10.9119188762
 20
7.3226939689
 30
0.0
 10
10.9119503945
 20
7.3223486783
 30
0.0
 10
10.9119729327
 20
7.322151952
 30
0.0
 10
10.9119770814
 20
7.3220027662
 30
0.0
 10
10.9120299864
 20
7.3218598532
 30
0.0
 10
10.9120835197
 20
7.3216671145
 30
0.0
 10
10.9121851267
 20
7.3213308412
 30
0.0
 10
10.9123261369
 20
7.3208499178
 30
0.0
 10
10.9124971224
 20
7.3202730379
 30
0.0
 10
10.9127244837
 20
7.3195037849
 30
0.0
 10
10.9130088973
 20
7.3185422461
 30
0.0
 10
10.9134638407
 20
7.3170037686
 30
0.0
 10
10.9140325605
 20
7.315080677
 30
0.0
 10
10.9147150068
 20
7.3127729649
 30
0.0
 10
10.9153974579
 20
7.3104652533
 30
0.0
 10
10.9163073909
 20
7.3073883044
 30
0.0
 10
10.9174448079
 20
7.3035421183
 30
0.0
 10
10.9185822244
 20
7.2996959321
 30
0.0
 10
10.9194921581
 20
7.2966189833
 30
0.0
 10
10.9201746072
 20
7.2943112713
 30
0.0
 10
10.9208570608
 20
7.2920035609
 30
0.0
 10
10.9214257583
 20
7.2900804641
 30
0.0
 10
10.9218807471
 20
7.2885419972
 30
0.0
 10
10.9221650452
 20
7.2875804314
 30
0.0
 10
10.9223926436
 20
7.2868112337
 30
0.0
 10
10.9225629046
 20
7.2862341852
 30
0.0
 10
10.9227061815
 20
7.285753789
 30
0.0
 10
10.9228037422
 20
7.2854165747
 30
0.0
 10
10.9228637586
 20
7.2852253438
 30
0.0
 10
10.9228967494
 20
7.2850777993
 30
0.0
 10
10.9229756928
 20
7.2849460084
 30
0.0
 10
10.9230649219
 20
7.2847647921
 30
0.0
 10
10.923228541
 20
7.2844502239
 30
0.0
 10
10.9234583781
 20
7.2839995023
 30
0.0
 10
10.9237358539
 20
7.2834592092
 30
0.0
 10
10.9241052379
 20
7.2827386184
 30
0.0
 10
10.9245671677
 20
7.2818379483
 30
0.0
 10
10.9253061437
 20
7.280396838
 30
0.0
 10
10.926229902
 20
7.2785954631
 30
0.0
 10
10.9273383956
 20
7.2764338077
 30
0.0
 10
10.9284468935
 20
7.2742721538
 30
0.0
 10
10.9299248892
 20
7.271389948
 30
0.0
 10
10.9317723845
 20
7.267787191
 30
0.0
 10
10.9336198794
 20
7.2641844339
 30
0.0
 10
10.9350978757
 20
7.2613022284
 30
0.0
 10
10.9362063718
 20
7.2591405737
 30
0.0
 10
10.9373148722
 20
7.2569789211
 30
0.0
 10
10.9382386093
 20
7.2551775376
 30
0.0
 10
10.9389776287
 20
7.2537364449
 30
0.0
 10
10.939439448
 20
7.2528357298
 30
0.0
 10
10.9398090587
 20
7.2521152314
 30
0.0
 10
10.9400858417
 20
7.2515746558
 30
0.0
 10
10.9403178463
 20
7.2511248182
 30
0.0
 10
10.9404775961
 20
7.2508086719
 30
0.0
 10
10.9405730248
 20
7.2506299842
 30
0.0
 10
10.940632925
 20
7.2504904263
 30
0.0
 10
10.9407374391
 20
7.2503720533
 30
0.0
 10
10.9408612294
 20
7.250206833
 30
0.0
 10
10.9410851129
 20
7.2499211404
 30
0.0
 10
10.9414011558
 20
7.2495112082
 30
0.0
 10
10.9417820299
 20
7.24902006
 30
0.0
 10
10.9422892953
 20
7.2483649266
 30
0.0
 10
10.942923571
 20
7.247546102
 30
0.0
 10
10.9439383038
 20
7.2462359311
 30
0.0
 10
10.9452067569
 20
7.2445982352
 30
0.0
 10
10.9467288847
 20
7.2426329925
 30
0.0
 10
10.9482510168
 20
7.2406677519
 30
0.0
 10
10.9502805248
 20
7.2380474303
 30
0.0
 10
10.9528174103
 20
7.2347720286
 30
0.0
 10
10.9553542954
 20
7.2314966267
 30
0.0
 10
10.9573838039
 20
7.2288763055
 30
0.0
 10
10.9589059344
 20
7.2269110637
 30
0.0
 10
10.9604280681
 20
7.2249458254
 30
0.0
 10
10.9616965031
 20
7.2233081159
 30
0.0
 10
10.9627112728
 20
7.2219979728
 30
0.0
 10
10.9633454544
 20
7.2211790776
 30
0.0
 10
10.9638529131
 20
7.2205240891
 30
0.0
 10
10.9642331964
 20
7.2200324983
 30
0.0
 10
10.9645510877
 20
7.2196239507
 30
0.0
 10
10.9647716716
 20
7.2193357863
 30
0.0
 10
10.9649007487
 20
7.2191745266
 30
0.0
 10
10.9649890234
 20
7.2190439879
 30
0.0
 10
10.9651099161
 20
7.218950122
 30
0.0
 10
10.9652597288
 20
7.2188121756
 30
0.0
 10
10.9655272021
 20
7.2185767293
 30
0.0
 10
10.9659065354
 20
7.2182372615
 30
0.0
 10
10.9663629217
 20
7.2178312339
 30
0.0
 10
10.9669710223
 20
7.217289398
 30
0.0
 10
10.9677312899
 20
7.2166122625
 30
0.0
 10
10.9689476389
 20
7.2155287566
 30
0.0
 10
10.9704681023
 20
7.2141744049
 30
0.0
 10
10.9722926467
 20
7.2125491696
 30
0.0
 10
10.9741171942
 20
7.2109239379
 30
0.0
 10
10.9765499232
 20
7.2087569611
 30
0.0
 10
10.9795908348
 20
7.2060482405
 30
0.0
 10
10.9826317461
 20
7.2033395195
 30
0.0
 10
10.9850644754
 20
7.2011725432
 30
0.0
 10
10.9868890218
 20
7.19954731
 30
0.0
 10
10.9887135707
 20
7.1979220805
 30
0.0
 10
10.99023402
 20
7.1965677108
 30
0.0
 10
10.9914503978
 20
7.1954842414
 30
0.0
 10
10.9922105919
 20
7.1948070132
 30
0.0
 10
10.9928188435
 20
7.1942653676
 30
0.0
 10
10.9932747687
 20
7.1938587583
 30
0.0
 10
10.9936555443
 20
7.1935211107
 30
0.0
 10
10.9939204428
 20
7.193282415
 30
0.0
 10
10.9940743811
 20
7.193149675
 30
0.0
 10
10.9941826014
 20
7.1930398166
 30
0.0
 10
10.9943184714
 20
7.1929693431
 30
0.0
 10
10.9944899868
 20
7.1928616405
 30
0.0
 10
10.9947946323
 20
7.1926795618
 30
0.0
 10
10.9952274909
 20
7.1924161029
 30
0.0
 10
10.9957479268
 20
7.1921013846
 30
0.0
 10
10.9964414901
 20
7.1916812599
 30
0.0
 10
10.9973085645
 20
7.1911562753
 30
0.0
 10
10.9986958164
 20
7.1903162043
 30
0.0
 10
11.0004299042
 20
7.1892661483
 30
0.0
 10
11.0025107998
 20
7.1880060671
 30
0.0
 10
11.004591698
 20
7.1867459896
 30
0.0
 10
11.0073662279
 20
7.185065885
 30
0.0
 10
11.0108343908
 20
7.1829657548
 30
0.0
 10
11.0143025534
 20
7.1808656241
 30
0.0
 10
11.0170770837
 20
7.1791855201
 30
0.0
 10
11.0191579809
 20
7.1779254409
 30
0.0
 10
11.02123888
 20
7.1766653661
 30
0.0
 10
11.0229729569
 20
7.1756152904
 30
0.0
 10
11.0243602311
 20
7.1747752595
 30
0.0
 10
11.0252272485
 20
7.1742501726
 30
0.0
 10
11.0259209289
 20
7.1738302581
 30
0.0
 10
11.0264410072
 20
7.1735148976
 30
0.0
 10
11.0268749846
 20
7.1732534478
 30
0.0
 10
11.0271776328
 20
7.1730677826
 30
0.0
 10
11.0273523485
 20
7.1729658265
 30
0.0
 10
11.0274783883
 20
7.1728777017
 30
0.0
 10
11.0276235288
 20
7.1728341386
 30
0.0
 10
11.0278103869
 20
7.1727605108
 30
0.0
 10
11.0281404928
 20
7.1726389043
 30
0.0
 10
11.0286104498
 20
7.1724613945
 30
0.0
 10
11.0291750928
 20
7.1722500033
 30
0.0
 10
11.0299277075
 20
7.1719675824
 30
0.0
 10
11.030868559
 20
7.1716147501
 30
0.0
 10
11.0323738749
 20
7.17105011
 30
0.0
 10
11.0342555358
 20
7.1703443471
 30
0.0
 10
11.036513522
 20
7.1694974156
 30
0.0
 10
11.03877151
 20
7.1686504884
 30
0.0
 10
11.0417821601
 20
7.1675212507
 30
0.0
 10
11.0455454729
 20
7.1661097041
 30
0.0
 10
11.0493087855
 20
7.1646981571
 30
0.0
 10
11.0523194358
 20
7.16356892
 30
0.0
 10
11.0545774231
 20
7.162721991
 30
0.0
 10
11.0568354119
 20
7.1618750665
 30
0.0
 10
11.0587170648
 20
7.1611692819
 30
0.0
 10
11.0602223968
 20
7.1606046861
 30
0.0
 10
11.0611632075
 20
7.1602517412
 30
0.0
 10
11.061915906
 20
7.1599695513
 30
0.0
 10
11.0624802929
 20
7.1597574543
 30
0.0
 10
11.0629510511
 20
7.1595821529
 30
0.0
 10
11.0632797267
 20
7.1594566039
 30
0.0
 10
11.0634688766
 20
7.159389293
 30
0.0
 10
11.0636069774
 20
7.1593263266
 30
0.0
 10
11.0637594572
 20
7.1593110774
 30
0.0
 10
11.0639577481
 20
7.1592741009
 30
0.0
 10
11.064307094
 20
7.1592171469
 30
0.0
 10
11.0648049379
 20
7.1591317297
 30
0.0
 10
11.0654028734
 20
7.1590309644
 30
0.0
 10
11.0661999382
 20
7.1588960046
 30
0.0
 10
11.0671963317
 20
7.1587275123
 30
0.0
 10
11.0687905263
 20
7.1584578088
 30
0.0
 10
11.0707832816
 20
7.1581207191
 30
0.0
 10
11.0731745828
 20
7.1577161944
 30
0.0
 10
11.0755658853
 20
7.1573116743
 30
0.0
 10
11.0787542882
 20
7.1567723125
 30
0.0
 10
11.0827397921
 20
7.156098111
 30
0.0
 10
11.0867252959
 20
7.155423909
 30
0.0
 10
11.0899136988
 20
7.1548845479
 30
0.0
 10
11.0923050012
 20
7.1544800258
 30
0.0
 10
11.0946963031
 20
7.1540755085
 30
0.0
 10
11.0966890561
 20
7.1537383957
 30
0.0
 10
11.0982832555
 20
7.1534687394
 30
0.0
 10
11.0992796368
 20
7.1533001268
 30
0.0
 10
11.1000767264
 20
7.1531654139
 30
0.0
 10
11.1006745862
 20
7.1530638943
 30
0.0
 10
11.1011726672
 20
7.1529808373
 30
0.0
 10
11.1015215896
 20
7.1529196698
 30
0.0
 10
11.1017205591
 20
7.1528894444
 30
0.0
 10
11.1018709547
 20
7.1528534581
 30
0.0
 10
11.1020168836
 20
7.152868377
 30
0.0
 10
11.1022130135
 20
7.1528705126
 30
0.0
 10
11.102555515
 20
7.152882523
 30
0.0
 10
11.1030451824
 20
7.1528953554
 30
0.0
 10
11.1036326208
 20
7.1529126056
 30
0.0
 10
11.1044159287
 20
7.1529349592
 30
0.0
 10
11.1053950441
 20
7.1529631227
 30
0.0
 10
11.1069616397
 20
7.1530080605
 30
0.0
 10
11.1089198805
 20
7.1530642752
 30
0.0
 10
11.111269771
 20
7.1531317147
 30
0.0
 10
11.1136196611
 20
7.153199159
 30
0.0
 10
11.1167528481
 20
7.1532890831
 30
0.0
 10
11.1206693317
 20
7.1534014888
 30
0.0
 10
11.1245858154
 20
7.1535138941
 30
0.0
 10
11.1277190022
 20
7.1536038189
 30
0.0
 10
11.1300688926
 20
7.1536712612
 30
0.0
 10
11.1324187821
 20
7.1537387082
 30
0.0
 10
11.1343770262
 20
7.1537948994
 30
0.0
 10
11.135943615
 20
7.1538398853
 30
0.0
 10
11.1369227477
 20
7.1538679264
 30
0.0
 10
11.1377060203
 20
7.1538905312
 30
0.0
 10
11.1382935667
 20
7.153907014
 30
0.0
 10
11.1387828961
 20
7.1539222476
 30
0.0
 10
11.1391260008
 20
7.1539299714
 30
0.0
 10
11.1393211642
 20
7.1539389751
 30
0.0
 10
11.1394700622
 20
7.1539327976
 30
0.0
 10
11.1396093063
 20
7.153976046
 30
0.0
 10
11.1397983324
 20
7.1540164703
 30
0.0
 10
11.1401275593
 20
7.1540952453
 30
0.0
 10
11.1405987035
 20
7.1542035816
 30
0.0
 10
11.1411637256
 20
7.1543353826
 30
0.0
 10
11.141917211
 20
7.1545104895
 30
0.0
 10
11.1428590257
 20
7.1547295881
 30
0.0
 10
11.1443659527
 20
7.1550800257
 30
0.0
 10
11.1462496035
 20
7.1555181139
 30
0.0
 10
11.1485099878
 20
7.1560438021
 30
0.0
 10
11.1507703712
 20
7.156569495
 30
0.0
 10
11.1537842161
 20
7.1572704172
 30
0.0
 10
11.157551522
 20
7.1581465706
 30
0.0
 10
11.1613188281
 20
7.1590227236
 30
0.0
 10
11.1643326728
 20
7.1597236464
 30
0.0
 10
11.1665930567
 20
7.1602493374
 30
0.0
 10
11.1688534389
 20
7.1607750329
 30
0.0
 10
11.1707370964
 20
7.1612130984
 30
0.0
 10
11.1722440097
 20
7.1615635823
 30
0.0
 10
11.1731858593
 20
7.1617825629
 30
0.0
 10
11.1739392731
 20
7.1619579119
 30
0.0
 10
11.1745045139
 20
7.1620889733
 30
0.0
 10
11.1749749738
 20
7.1621996237
 30
0.0
 10
11.1753054223
 20
7.1622742677
 30
0.0
 10
11.1754924911
 20
7.1623213109
 30
0.0
 10
11.1756377476
 20
7.1623442281
 30
0.0
 10
11.1757640638
 20
7.1624144115
 30
0.0
 10
11.1759390919
 20
7.1624915023
 30
0.0
 10
11.1762423131
 20
7.162634093
 30
0.0
 10
11.1766770955
 20
7.1628337778
 30
0.0
 10
11.1771981456
 20
7.1630751186
 30
0.0
 10
11.1778931195
 20
7.163396306
 30
0.0
 10
11.1787617547
 20
7.1637979958
 30
0.0
 10
11.1801516169
 20
7.1644405845
 30
0.0
 10
11.1818889288
 20
7.1652438598
 30
0.0
 10
11.18397371
 20
7.1662077733
 30
0.0
 10
11.1860584893
 20
7.1671716913
 30
0.0
 10
11.1888381957
 20
7.1684569138
 30
0.0
 10
11.1923128285
 20
7.1700634424
 30
0.0
 10
11.1957874614
 20
7.1716699707
 30
0.0
 10
11.1985671675
 20
7.1729551937
 30
0.0
 10
11.2006519477
 20
7.1739191099
 30
0.0
 10
11.2027367256
 20
7.1748830304
 30
0.0
 10
11.2044740477
 20
7.1756862838
 30
0.0
 10
11.2058638892
 20
7.1763289173
 30
0.0
 10
11.206732577
 20
7.176730493
 30
0.0
 10
11.2074274428
 20
7.1770519146
 30
0.0
 10
11.2079488234
 20
7.1772925397
 30
0.0
 10
11.2083825715
 20
7.1774944638
 30
0.0
 10
11.2086876391
 20
7.177633057
 30
0.0
 10
11.2088597088
 20
7.1777165527
 30
0.0
 10
11.2089951126
 20
7.1777670626
 30
0.0
 10
11.2091062376
 20
7.1778638701
 30
0.0
 10
11.209262873
 20
7.1779767977
 30
0.0
 10
11.2095330392
 20
7.1781819452
 30
0.0
 10
11.2099210538
 20
7.1784710792
 30
0.0
 10
11.2103857883
 20
7.1788197238
 30
0.0
 10
11.2110057427
 20
7.1792839952
 30
0.0
 10
11.2117805801
 20
7.1798645358
 30
0.0
 10
11.213020379
 20
7.1807932882
 30
0.0
 10
11.2145701074
 20
7.1819542673
 30
0.0
 10
11.2164297902
 20
7.1833474257
 30
0.0
 10
11.2182894706
 20
7.1847405885
 30
0.0
 10
11.2207690453
 20
7.1865981373
 30
0.0
 10
11.2238685134
 20
7.188920074
 30
0.0
 10
11.2269679817
 20
7.1912420103
 30
0.0
 10
11.229447556
 20
7.1930995597
 30
0.0
 10
11.2313072377
 20
7.1944927209
 30
0.0
 10
11.2331669157
 20
7.1958858854
 30
0.0
 10
11.2347166589
 20
7.1970468454
 30
0.0
 10
11.2359564275
 20
7.1979756369
 30
0.0
 10
11.2367313421
 20
7.1985560779
 30
0.0
 10
11.2373511382
 20
7.1990205536
 30
0.0
 10
11.2378163563
 20
7.1993685739
 30
0.0
 10
11.238202858
 20
7.1996596613
 30
0.0
 10
11.2384757249
 20
7.1998613218
 30
0.0
 10
11.2386280331
 20
7.1999798363
 30
0.0
 10
11.2387524499
 20
7.2000594826
 30
0.0
 10
11.2388379318
 20
7.2001744471
 30
0.0
 10
11.2389654887
 20
7.2003154138
 30
0.0
 10
11.2391823857
 20
7.2005678452
 30
0.0
 10
11.2394955466
 20
7.2009254607
 30
0.0
 10
11.2398699237
 20
7.2013558838
 30
0.0
 10
11.2403695877
 20
7.2019293326
 30
0.0
 10
11.2409939984
 20
7.2026462972
 30
0.0
 10
11.2419931502
 20
7.2037933548
 30
0.0
 10
11.2432420575
 20
7.2052272062
 30
0.0
 10
11.2447407601
 20
7.2069478152
 30
0.0
 10
11.2462394591
 20
7.2086684276
 30
0.0
 10
11.2482377256
 20
7.2109625763
 30
0.0
 10
11.2507355583
 20
7.2138302626
 30
0.0
 10
11.2532333913
 20
7.2166979486
 30
0.0
 10
11.2552316572
 20
7.2189920978
 30
0.0
 10
11.2567303578
 20
7.2207127089
 30
0.0
 10
11.2582290544
 20
7.2224333229
 30
0.0
 10
11.2594779805
 20
7.2238671588
 30
0.0
 10
11.2604770938
 20
7.2250142479
 30
0.0
 10
11.2611016024
 20
7.2257311322
 30
0.0
 10
11.2616010656
 20
7.2263047458
 30
0.0
 10
11.2619760564
 20
7.2267346653
 30
0.0
 10
11.2622872971
 20
7.2270938564
 30
0.0
 10
11.262507622
 20
7.2273434752
 30
0.0
 10
11.2626296863
 20
7.2274889483
 30
0.0
 10
11.2627320397
 20
7.2275900705
 30
0.0
 10
11.2627930905
 20
7.2277217065
 30
0.0
 10
11.2628888985
 20
7.2278865776
 30
0.0
 10
11.26304985
 20
7.2281800611
 30
0.0
 10
11.26328329
 20
7.2285967306
 30
0.0
 10
11.263561916
 20
7.2290978437
 30
0.0
 10
11.2639339419
 20
7.229765607
 30
0.0
 10
11.2643987946
 20
7.2306004437
 30
0.0
 10
11.2651426595
 20
7.2319361084
 30
0.0
 10
11.266072456
 20
7.2336057146
 30
0.0
 10
11.2671882266
 20
7.2356092312
 30
0.0
 10
11.2683039933
 20
7.2376127507
 30
0.0
 10
11.2697916836
 20
7.240284109
 30
0.0
 10
11.271651296
 20
7.2436233073
 30
0.0
 10
11.2735109087
 20
7.2469625053
 30
0.0
 10
11.2749985984
 20
7.249633864
 30
0.0
 10
11.2761143669
 20
7.2516373824
 30
0.0
 10
11.2772301309
 20
7.253640903
 30
0.0
 10
11.278159948
 20
7.2553104968
 30
0.0
 10
11.278903771
 20
7.2566461868
 30
0.0
 10
11.2793687301
 20
7.2574809591
 30
0.0
 10
11.2797405377
 20
7.2581488545
 30
0.0
 10
11.2800198306
 20
7.2586495638
 30
0.0
 10
11.280251184
 20
7.2590674969
 30
0.0
 10
11.2804158605
 20
7.2593587247
 30
0.0
 10
11.2805057
 20
7.25952721
 30
0.0
 10
11.2805850839
 20
7.2596477445
 30
0.0
 10
11.2806185815
 20
7.2597905619
 30
0.0
 10
11.2806792506
 20
7.2599732126
 30
0.0
 10
11.2807779642
 20
7.2602964727
 30
0.0
 10
11.2809228824
 20
7.2607563796
 30
0.0
 10
11.2810951154
 20
7.2613090782
 30
0.0
 10
11.2813253423
 20
7.2620457266
 30
0.0
 10
11.2816129264
 20
7.2629666341
 30
0.0
 10
11.2820731725
 20
7.2644400319
 30
0.0
 10
11.2826484418
 20
7.2662817976
 30
0.0
 10
11.2833387813
 20
7.2684919086
 30
0.0
 10
11.2840291165
 20
7.2707020217
 30
0.0
 10
11.2849495649
 20
7.2736488385
 30
0.0
 10
11.2861001249
 20
7.2773323597
 30
0.0
 10
11.2872506853
 20
7.2810158807
 30
0.0
 10
11.2881711331
 20
7.2839626977
 30
0.0
 10
11.2888614702
 20
7.28617281
 30
0.0
 10
11.2895518026
 20
7.288382924
 30
0.0
 10
11.2901270941
 20
7.2902246804
 30
0.0
 10
11.2905872948
 20
7.2916980973
 30
0.0
 10
11.2908749943
 20
7.292618956
 30
0.0
 10
11.2911049844
 20
7.2933557046
 30
0.0
 10
11.291277941
 20
7.293908097
 30
0.0
 10
11.2914205952
 20
7.2943689621
 30
0.0
 10
11.2915233504
 20
7.2946905115
 30
0.0
 10
11.2915775438
 20
7.2948759032
 30
0.0
 10
11.2916309329
 20
7.2950103014
 30
0.0
 10
11.2916356075
 20
7.2951624571
 30
0.0
 10
11.2916588325
 20
7.2953591374
 30
0.0
 10
11.2916915593
 20
7.2957062139
 30
0.0
 10
11.2917424509
 20
7.2962005286
 30
0.0
 10
11.2918017492
 20
7.2967943521
 30
0.0
 10
11.2918814324
 20
7.2975858911
 30
0.0
 10
11.2919808245
 20
7.2985753922
 30
0.0
 10
11.2921399703
 20
7.3001585507
 30
0.0
 10
11.292338862
 20
7.3021375137
 30
0.0
 10
11.2925775493
 20
7.3045122629
 30
0.0
 10
11.2928162321
 20
7.3068870138
 30
0.0
 10
11.2931344773
 20
7.3100533478
 30
0.0
 10
11.2935322833
 20
7.3140112654
 30
0.0
 10
11.2940096508
 20
7.3187607665
 30
0.0
 10
11.2946461406
 20
7.3250934347
 30
0.0
 10
11.295123508
 20
7.3298429358
 30
0.0
 10
11.2954417529
 20
7.3330092699
 30
0.0
  0
SPLINE
  5
3E6
100
AcDbEntity
  8
0
100
AcDbSpline
 62
4
  6
CONTINUOUS
 70
0
 71
3
 72
403
 73
399
 74
0
 42
0.0000001
 43
0.0000001
 44
0.0000000001
 40
0.0
 40
0.0
 40
0.0
 40
0.0
 40
0.015625
 40
0.0234375
 40
0.03125
 40
0.0390625
 40
0.04296875
 40
0.046875
 40
0.05078125
 40
0.0546875
 40
0.056640625
 40
0.05859375
 40
0.0595703125
 40
0.060546875
 40
0.0615234375
 40
0.0620117188
 40
0.0622558594
 40
0.0625
 40
0.0627441406
 40
0.0629882812
 40
0.0634765625
 40
0.064453125
 40
0.0654296875
 40
0.06640625
 40
0.068359375
 40
0.0703125
 40
0.07421875
 40
0.078125
 40
0.08203125
 40
0.0859375
 40
0.09375
 40
0.1015625
 40
0.10546875
 40
0.109375
 40
0.11328125
 40
0.1171875
 40
0.119140625
 40
0.12109375
 40
0.1220703125
 40
0.123046875
 40
0.1240234375
 40
0.1245117188
 40
0.1247558594
 40
0.125
 40
0.1252441406
 40
0.1254882812
 40
0.1259765625
 40
0.126953125
 40
0.1279296875
 40
0.12890625
 40
0.130859375
 40
0.1328125
 40
0.13671875
 40
0.140625
 40
0.14453125
 40
0.1484375
 40
0.15625
 40
0.1640625
 40
0.16796875
 40
0.171875
 40
0.17578125
 40
0.1796875
 40
0.181640625
 40
0.18359375
 40
0.1845703125
 40
0.185546875
 40
0.1865234375
 40
0.1870117188
 40
0.1872558594
 40
0.1875
 40
0.1877441406
 40
0.1879882812
 40
0.1884765625
 40
0.189453125
 40
0.1904296875
 40
0.19140625
 40
0.193359375
 40
0.1953125
 40
0.19921875
 40
0.203125
 40
0.20703125
 40
0.2109375
 40
0.21875
 40
0.2265625
 40
0.23046875
 40
0.234375
 40
0.23828125
 40
0.2421875
 40
0.244140625
 40
0.24609375
 40
0.2470703125
 40
0.248046875
 40
0.2490234375
 40
0.2495117188
 40
0.2497558594
 40
0.25
 40
0.2502441406
 40
0.2504882812
 40
0.2509765625
 40
0.251953125
 40
0.2529296875
 40
0.25390625
 40
0.255859375
 40
0.2578125
 40
0.26171875
 40
0.265625
 40
0.26953125
 40
0.2734375
 40
0.28125
 40
0.2890625
 40
0.29296875
 40
0.296875
 40
0.30078125
 40
0.3046875
 40
0.306640625
 40
0.30859375
 40
0.3095703125
 40
0.310546875
 40
0.3115234375
 40
0.3120117188
 40
0.3122558594
 40
0.3125
 40
0.3127441406
 40
0.3129882812
 40
0.3134765625
 40
0.314453125
 40
0.3154296875
 40
0.31640625
 40
0.318359375
 40
0.3203125
 40
0.32421875
 40
0.328125
 40
0.33203125
 40
0.3359375
 40
0.34375
 40
0.3515625
 40
0.35546875
 40
0.359375
 40
0.36328125
 40
0.3671875
 40
0.369140625
 40
0.37109375
 40
0.3720703125
 40
0.373046875
 40
0.3740234375
 40
0.3745117188
 40
0.3747558594
 40
0.375
 40
0.3752441406
 40
0.3754882812
 40
0.3759765625
 40
0.376953125
 40
0.3779296875
 40
0.37890625
 40
0.380859375
 40
0.3828125
 40
0.38671875
 40
0.390625
 40
0.39453125
 40
0.3984375
 40
0.40625
 40
0.4140625
 40
0.41796875
 40
0.421875
 40
0.42578125
 40
0.4296875
 40
0.431640625
 40
0.43359375
 40
0.4345703125
 40
0.435546875
 40
0.4365234375
 40
0.4370117188
 40
0.4372558594
 40
0.4375
 40
0.4377441406
 40
0.4379882812
 40
0.4384765625
 40
0.439453125
 40
0.4404296875
 40
0.44140625
 40
0.443359375
 40
0.4453125
 40
0.44921875
 40
0.453125
 40
0.45703125
 40
0.4609375
 40
0.46875
 40
0.4765625
 40
0.48046875
 40
0.484375
 40
0.48828125
 40
0.4921875
 40
0.494140625
 40
0.49609375
 40
0.4970703125
 40
0.498046875
 40
0.4990234375
 40
0.4995117188
 40
0.4997558594
 40
0.5
 40
0.5002441406
 40
0.5004882812
 40
0.5009765625
 40
0.501953125
 40
0.5029296875
 40
0.50390625
 40
0.505859375
 40
0.5078125
 40
0.51171875
 40
0.515625
 40
0.51953125
 40
0.5234375
 40
0.53125
 40
0.5390625
 40
0.54296875
 40
0.546875
 40
0.55078125
 40
0.5546875
 40
0.556640625
 40
0.55859375
 40
0.5595703125
 40
0.560546875
 40
0.5615234375
 40
0.5620117188
 40
0.5622558594
 40
0.5625
 40
0.5627441406
 40
0.5629882812
 40
0.5634765625
 40
0.564453125
 40
0.5654296875
 40
0.56640625
 40
0.568359375
 40
0.5703125
 40
0.57421875
 40
0.578125
 40
0.58203125
 40
0.5859375
 40
0.59375
 40
0.6015625
 40
0.60546875
 40
0.609375
 40
0.61328125
 40
0.6171875
 40
0.619140625
 40
0.62109375
 40
0.6220703125
 40
0.623046875
 40
0.6240234375
 40
0.6245117188
 40
0.6247558594
 40
0.625
 40
0.6252441406
 40
0.6254882812
 40
0.6259765625
 40
0.626953125
 40
0.6279296875
 40
0.62890625
 40
0.630859375
 40
0.6328125
 40
0.63671875
 40
0.640625
 40
0.64453125
 40
0.6484375
 40
0.65625
 40
0.6640625
 40
0.66796875
 40
0.671875
 40
0.67578125
 40
0.6796875
 40
0.681640625
 40
0.68359375
 40
0.6845703125
 40
0.685546875
 40
0.6865234375
 40
0.6870117188
 40
0.6872558594
 40
0.6875
 40
0.6877441406
 40
0.6879882812
 40
0.6884765625
 40
0.689453125
 40
0.6904296875
 40
0.69140625
 40
0.693359375
 40
0.6953125
 40
0.69921875
 40
0.703125
 40
0.70703125
 40
0.7109375
 40
0.71875
 40
0.7265625
 40
0.73046875
 40
0.734375
 40
0.73828125
 40
0.7421875
 40
0.744140625
 40
0.74609375
 40
0.7470703125
 40
0.748046875
 40
0.7490234375
 40
0.7495117188
 40
0.7497558594
 40
0.75
 40
0.7502441406
 40
0.7504882812
 40
0.7509765625
 40
0.751953125
 40
0.7529296875
 40
0.75390625
 40
0.755859375
 40
0.7578125
 40
0.76171875
 40
0.765625
 40
0.76953125
 40
0.7734375
 40
0.78125
 40
0.7890625
 40
0.79296875
 40
0.796875
 40
0.80078125
 40
0.8046875
 40
0.806640625
 40
0.80859375
 40
0.8095703125
 40
0.810546875
 40
0.8115234375
 40
0.8120117188
 40
0.8122558594
 40
0.8125
 40
0.8127441406
 40
0.8129882812
 40
0.8134765625
 40
0.814453125
 40
0.8154296875
 40
0.81640625
 40
0.818359375
 40
0.8203125
 40
0.82421875
 40
0.828125
 40
0.83203125
 40
0.8359375
 40
0.84375
 40
0.8515625
 40
0.85546875
 40
0.859375
 40
0.86328125
 40
0.8671875
 40
0.869140625
 40
0.87109375
 40
0.8720703125
 40
0.873046875
 40
0.8740234375
 40
0.8745117188
 40
0.8747558594
 40
0.875
 40
0.8752441406
 40
0.8754882812
 40
0.8759765625
 40
0.876953125
 40
0.8779296875
 40
0.87890625
 40
0.880859375
 40
0.8828125
 40
0.88671875
 40
0.890625
 40
0.89453125
 40
0.8984375
 40
0.90625
 40
0.9140625
 40
0.91796875
 40
0.921875
 40
0.92578125
 40
0.9296875
 40
0.931640625
 40
0.93359375
 40
0.9345703125
 40
0.935546875
 40
0.9365234375
 40
0.9370117188
 40
0.9372558594
 40
0.9375
 40
0.9377441406
 40
0.9379882812
 40
0.9384765625
 40
0.939453125
 40
0.9404296875
 40
0.94140625
 40
0.943359375
 40
0.9453125
 40
0.94921875
 40
0.953125
 40
0.95703125
 40
0.9609375
 40
0.96875
 40
0.9765625
 40
0.984375
 40
1.0
 40
1.0
 40
1.0
 40
1.0
 10
11.2954417529
 20
7.3330092529
 30
0.0
 10
11.2951345413
 20
7.336163745
 30
0.0
 10
11.2946737238
 20
7.3408954832
 30
0.0
 10
11.2940593005
 20
7.3472044675
 30
0.0
 10
11.2935984829
 20
7.3519362056
 30
0.0
 10
11.2932144685
 20
7.3558793208
 30
0.0
 10
11.2929072565
 20
7.3590338129
 30
0.0
 10
11.2926768488
 20
7.3613996821
 30
0.0
 10
11.2924464363
 20
7.3637655507
 30
0.0
 10
11.2922544405
 20
7.3657371098
 30
0.0
 10
11.2921008113
 20
7.3673143528
 30
0.0
 10
11.2920048671
 20
7.3683001393
 30
0.0
 10
11.2919279421
 20
7.3690887466
 30
0.0
 10
11.2918707129
 20
7.3696802618
 30
0.0
 10
11.2918215442
 20
7.3701730011
 30
0.0
 10
11.291790026
 20
7.3705182917
 30
0.0
 10
11.2917674877
 20
7.370715018
 30
0.0
 10
11.2917633391
 20
7.3708642038
 30
0.0
 10
11.291710434
 20
7.3710071168
 30
0.0
 10
11.2916569007
 20
7.3711998555
 30
0.0
 10
11.2915552937
 20
7.3715361288
 30
0.0
 10
11.2914142835
 20
7.3720170522
 30
0.0
 10
11.291243298
 20
7.3725939322
 30
0.0
 10
11.2910159368
 20
7.3733631851
 30
0.0
 10
11.2907315231
 20
7.374324724
 30
0.0
 10
11.2902765798
 20
7.3758632014
 30
0.0
 10
11.2897078599
 20
7.377786293
 30
0.0
 10
11.2890254136
 20
7.3800940052
 30
0.0
 10
11.2883429626
 20
7.3824017167
 30
0.0
 10
11.2874330295
 20
7.3854786656
 30
0.0
 10
11.2862956125
 20
7.3893248517
 30
0.0
 10
11.285158196
 20
7.3931710379
 30
0.0
 10
11.2842482623
 20
7.3962479867
 30
0.0
 10
11.2835658132
 20
7.3985556987
 30
0.0
 10
11.2828833597
 20
7.4008634092
 30
0.0
 10
11.2823146621
 20
7.4027865059
 30
0.0
 10
11.2818596734
 20
7.4043249728
 30
0.0
 10
11.2815753752
 20
7.4052865386
 30
0.0
 10
11.2813477768
 20
7.4060557364
 30
0.0
 10
11.2811775158
 20
7.4066327848
 30
0.0
 10
11.281034239
 20
7.407113181
 30
0.0
 10
11.2809366783
 20
7.4074503954
 30
0.0
 10
11.2808766618
 20
7.4076416263
 30
0.0
 10
11.2808436711
 20
7.4077891707
 30
0.0
 10
11.2807647276
 20
7.4079209616
 30
0.0
 10
11.2806754985
 20
7.4081021779
 30
0.0
 10
11.2805118794
 20
7.4084167461
 30
0.0
 10
11.2802820423
 20
7.4088674677
 30
0.0
 10
11.2800045665
 20
7.4094077608
 30
0.0
 10
11.2796351826
 20
7.4101283516
 30
0.0
 10
11.2791732528
 20
7.4110290217
 30
0.0
 10
11.2784342768
 20
7.4124701321
 30
0.0
 10
11.2775105184
 20
7.4142715069
 30
0.0
 10
11.2764020249
 20
7.4164331623
 30
0.0
 10
11.2752935269
 20
7.4185948162
 30
0.0
 10
11.2738155312
 20
7.421477022
 30
0.0
 10
11.2719680359
 20
7.425079779
 30
0.0
 10
11.2701205411
 20
7.4286825361
 30
0.0
 10
11.2686425447
 20
7.4315647416
 30
0.0
 10
11.2675340486
 20
7.4337263963
 30
0.0
 10
11.2664255482
 20
7.4358880489
 30
0.0
 10
11.2655018111
 20
7.4376894324
 30
0.0
 10
11.2647627917
 20
7.4391305251
 30
0.0
 10
11.2643009724
 20
7.4400312402
 30
0.0
 10
11.2639313617
 20
7.4407517386
 30
0.0
 10
11.2636545787
 20
7.4412923142
 30
0.0
 10
11.2634225741
 20
7.4417421518
 30
0.0
 10
11.2632628243
 20
7.4420582981
 30
0.0
 10
11.2631673956
 20
7.4422369858
 30
0.0
 10
11.2631074954
 20
7.4423765437
 30
0.0
 10
11.2630029813
 20
7.4424949168
 30
0.0
 10
11.262879191
 20
7.442660137
 30
0.0
 10
11.2626553075
 20
7.4429458296
 30
0.0
 10
11.2623392646
 20
7.4433557618
 30
0.0
 10
11.2619583905
 20
7.4438469101
 30
0.0
 10
11.2614511252
 20
7.4445020435
 30
0.0
 10
11.2608168494
 20
7.4453208681
 30
0.0
 10
11.2598021167
 20
7.4466310389
 30
0.0
 10
11.2585336635
 20
7.4482687348
 30
0.0
 10
11.2570115357
 20
7.4502339775
 30
0.0
 10
11.2554894036
 20
7.4521992181
 30
0.0
 10
11.2534598957
 20
7.4548195397
 30
0.0
 10
11.2509230102
 20
7.4580949414
 30
0.0
 10
11.248386125
 20
7.4613703433
 30
0.0
 10
11.2463566165
 20
7.4639906645
 30
0.0
 10
11.244834486
 20
7.4659559063
 30
0.0
 10
11.2433123523
 20
7.4679211446
 30
0.0
 10
11.2420439174
 20
7.4695588541
 30
0.0
 10
11.2410291476
 20
7.4708689972
 30
0.0
 10
11.2403949661
 20
7.4716878924
 30
0.0
 10
11.2398875073
 20
7.472342881
 30
0.0
 10
11.239507224
 20
7.4728344717
 30
0.0
 10
11.2391893327
 20
7.4732430193
 30
0.0
 10
11.2389687488
 20
7.4735311837
 30
0.0
 10
11.2388396717
 20
7.4736924434
 30
0.0
 10
11.2387513971
 20
7.4738229821
 30
0.0
 10
11.2386305044
 20
7.473916848
 30
0.0
 10
11.2384806916
 20
7.4740547945
 30
0.0
 10
11.2382132183
 20
7.4742902407
 30
0.0
 10
11.237833885
 20
7.4746297085
 30
0.0
 10
11.2373774988
 20
7.4750357361
 30
0.0
 10
11.2367693982
 20
7.4755775721
 30
0.0
 10
11.2360091305
 20
7.4762547075
 30
0.0
 10
11.2347927815
 20
7.4773382134
 30
0.0
 10
11.2332723182
 20
7.4786925652
 30
0.0
 10
11.2314477737
 20
7.4803178004
 30
0.0
 10
11.2296232262
 20
7.4819430321
 30
0.0
 10
11.2271904973
 20
7.484110009
 30
0.0
 10
11.2241495857
 20
7.4868187296
 30
0.0
 10
11.2211086743
 20
7.4895274505
 30
0.0
 10
11.218675945
 20
7.4916944268
 30
0.0
 10
11.2168513987
 20
7.4933196601
 30
0.0
 10
11.2150268497
 20
7.4949448896
 30
0.0
 10
11.2135064005
 20
7.4962992592
 30
0.0
 10
11.2122900226
 20
7.4973827286
 30
0.0
 10
11.2115298285
 20
7.4980599568
 30
0.0
 10
11.210921577
 20
7.4986016024
 30
0.0
 10
11.2104656518
 20
7.4990082118
 30
0.0
 10
11.2100848761
 20
7.4993458593
 30
0.0
 10
11.2098199776
 20
7.499584555
 30
0.0
 10
11.2096660393
 20
7.499717295
 30
0.0
 10
11.209557819
 20
7.4998271534
 30
0.0
 10
11.2094219491
 20
7.4998976269
 30
0.0
 10
11.2092504336
 20
7.5000053295
 30
0.0
 10
11.2089457881
 20
7.5001874082
 30
0.0
 10
11.2085129295
 20
7.5004508671
 30
0.0
 10
11.2079924936
 20
7.5007655854
 30
0.0
 10
11.2072989303
 20
7.5011857101
 30
0.0
 10
11.2064318559
 20
7.5017106947
 30
0.0
 10
11.205044604
 20
7.5025507657
 30
0.0
 10
11.2033105162
 20
7.5036008217
 30
0.0
 10
11.2012296207
 20
7.5048609029
 30
0.0
 10
11.1991487225
 20
7.5061209804
 30
0.0
 10
11.1963741925
 20
7.507801085
 30
0.0
 10
11.1929060297
 20
7.5099012153
 30
0.0
 10
11.189437867
 20
7.5120013459
 30
0.0
 10
11.1866633367
 20
7.5136814499
 30
0.0
 10
11.1845824395
 20
7.5149415291
 30
0.0
 10
11.1825015404
 20
7.516201604
 30
0.0
 10
11.1807674636
 20
7.5172516797
 30
0.0
 10
11.1793801893
 20
7.5180917105
 30
0.0
 10
11.1785131719
 20
7.5186167974
 30
0.0
 10
11.1778194916
 20
7.519036712
 30
0.0
 10
11.1772994133
 20
7.5193520724
 30
0.0
 10
11.1768654358
 20
7.5196135222
 30
0.0
 10
11.1765627876
 20
7.5197991875
 30
0.0
 10
11.176388072
 20
7.5199011436
 30
0.0
 10
11.1762620321
 20
7.5199892684
 30
0.0
 10
11.1761168916
 20
7.5200328315
 30
0.0
 10
11.1759300335
 20
7.5201064592
 30
0.0
 10
11.1755999276
 20
7.5202280657
 30
0.0
 10
11.1751299706
 20
7.5204055755
 30
0.0
 10
11.1745653276
 20
7.5206169667
 30
0.0
 10
11.1738127129
 20
7.5208993876
 30
0.0
 10
11.1728718614
 20
7.52125222
 30
0.0
 10
11.1713665455
 20
7.52181686
 30
0.0
 10
11.1694848846
 20
7.522522623
 30
0.0
 10
11.1672268984
 20
7.5233695544
 30
0.0
 10
11.1649689104
 20
7.5242164816
 30
0.0
 10
11.1619582604
 20
7.5253457193
 30
0.0
 10
11.1581949476
 20
7.5267572659
 30
0.0
 10
11.1544316349
 20
7.5281688129
 30
0.0
 10
11.1514209846
 20
7.52929805
 30
0.0
 10
11.1491629973
 20
7.530144979
 30
0.0
 10
11.1469050086
 20
7.5309919035
 30
0.0
 10
11.1450233556
 20
7.5316976881
 30
0.0
 10
11.1435180236
 20
7.532262284
 30
0.0
 10
11.142577213
 20
7.5326152289
 30
0.0
 10
11.1418245144
 20
7.5328974187
 30
0.0
 10
11.1412601275
 20
7.5331095158
 30
0.0
 10
11.1407893693
 20
7.5332848171
 30
0.0
 10
11.1404606937
 20
7.5334103661
 30
0.0
 10
11.1402715438
 20
7.533477677
 30
0.0
 10
11.140133443
 20
7.5335406434
 30
0.0
 10
11.1399809632
 20
7.5335558926
 30
0.0
 10
11.1397826723
 20
7.5335928691
 30
0.0
 10
11.1394333264
 20
7.5336498231
 30
0.0
 10
11.1389354825
 20
7.5337352403
 30
0.0
 10
11.138337547
 20
7.5338360056
 30
0.0
 10
11.1375404822
 20
7.5339709654
 30
0.0
 10
11.1365440887
 20
7.5341394577
 30
0.0
 10
11.1349498941
 20
7.5344091613
 30
0.0
 10
11.1329571389
 20
7.5347462509
 30
0.0
 10
11.1305658377
 20
7.5351507756
 30
0.0
 10
11.1281745351
 20
7.5355552957
 30
0.0
 10
11.1249861322
 20
7.5360946575
 30
0.0
 10
11.1210006284
 20
7.5367688591
 30
0.0
 10
11.1170151246
 20
7.5374430611
 30
0.0
 10
11.1138267216
 20
7.5379824222
 30
0.0
 10
11.1114354192
 20
7.5383869443
 30
0.0
 10
11.1090441173
 20
7.5387914615
 30
0.0
 10
11.1070513643
 20
7.5391285743
 30
0.0
 10
11.105457165
 20
7.5393982307
 30
0.0
 10
11.1044607836
 20
7.5395668432
 30
0.0
 10
11.103663694
 20
7.5397015561
 30
0.0
 10
11.1030658343
 20
7.5398030758
 30
0.0
 10
11.1025677532
 20
7.5398861327
 30
0.0
 10
11.1022188308
 20
7.5399473002
 30
0.0
 10
11.1020198614
 20
7.5399775256
 30
0.0
 10
11.1018694658
 20
7.540013512
 30
0.0
 10
11.1017235368
 20
7.539998593
 30
0.0
 10
11.1015274069
 20
7.5399964574
 30
0.0
 10
11.1011849054
 20
7.539984447
 30
0.0
 10
11.100695238
 20
7.5399716146
 30
0.0
 10
11.1001077997
 20
7.5399543644
 30
0.0
 10
11.0993244918
 20
7.5399320108
 30
0.0
 10
11.0983453763
 20
7.5399038473
 30
0.0
 10
11.0967787807
 20
7.5398589095
 30
0.0
 10
11.0948205399
 20
7.5398026948
 30
0.0
 10
11.0924706494
 20
7.5397352553
 30
0.0
 10
11.0901207593
 20
7.539667811
 30
0.0
 10
11.0869875723
 20
7.5395778869
 30
0.0
 10
11.0830710887
 20
7.5394654812
 30
0.0
 10
11.079154605
 20
7.5393530759
 30
0.0
 10
11.0760214182
 20
7.5392631511
 30
0.0
 10
11.0736715278
 20
7.5391957088
 30
0.0
 10
11.0713216383
 20
7.5391282618
 30
0.0
 10
11.0693633942
 20
7.5390720706
 30
0.0
 10
11.0677968054
 20
7.5390270847
 30
0.0
 10
11.0668176727
 20
7.5389990436
 30
0.0
 10
11.0660344002
 20
7.5389764388
 30
0.0
 10
11.0654468538
 20
7.538959956
 30
0.0
 10
11.0649575244
 20
7.5389447225
 30
0.0
 10
11.0646144196
 20
7.5389369986
 30
0.0
 10
11.0644192563
 20
7.538927995
 30
0.0
 10
11.0642703582
 20
7.5389341724
 30
0.0
 10
11.0641311142
 20
7.538890924
 30
0.0
 10
11.063942088
 20
7.5388504997
 30
0.0
 10
11.0636128612
 20
7.5387717247
 30
0.0
 10
11.0631417169
 20
7.5386633884
 30
0.0
 10
11.0625766948
 20
7.5385315874
 30
0.0
 10
11.0618232095
 20
7.5383564805
 30
0.0
 10
11.0608813947
 20
7.5381373819
 30
0.0
 10
11.0593744677
 20
7.5377869443
 30
0.0
 10
11.057490817
 20
7.5373488561
 30
0.0
 10
11.0552304326
 20
7.5368231679
 30
0.0
 10
11.0529700492
 20
7.536297475
 30
0.0
 10
11.0499562044
 20
7.5355965528
 30
0.0
 10
11.0461888984
 20
7.5347203994
 30
0.0
 10
11.0424215923
 20
7.5338442465
 30
0.0
 10
11.0394077477
 20
7.5331433236
 30
0.0
 10
11.0371473637
 20
7.5326176326
 30
0.0
 10
11.0348869815
 20
7.5320919371
 30
0.0
 10
11.0330033241
 20
7.5316538717
 30
0.0
 10
11.0314964107
 20
7.5313033877
 30
0.0
 10
11.0305545611
 20
7.5310844071
 30
0.0
 10
11.0298011473
 20
7.5309090581
 30
0.0
 10
11.0292359066
 20
7.5307779967
 30
0.0
 10
11.0287654466
 20
7.5306673463
 30
0.0
 10
11.0284349981
 20
7.5305927023
 30
0.0
 10
11.0282479294
 20
7.5305456591
 30
0.0
 10
11.0281026729
 20
7.5305227419
 30
0.0
 10
11.0279763567
 20
7.5304525585
 30
0.0
 10
11.0278013285
 20
7.5303754677
 30
0.0
 10
11.0274981073
 20
7.5302328771
 30
0.0
 10
11.0270633249
 20
7.5300331922
 30
0.0
 10
11.0265422749
 20
7.5297918514
 30
0.0
 10
11.0258473009
 20
7.529470664
 30
0.0
 10
11.0249786658
 20
7.5290689743
 30
0.0
 10
11.0235888036
 20
7.5284263855
 30
0.0
 10
11.0218514916
 20
7.5276231102
 30
0.0
 10
11.0197667105
 20
7.5266591967
 30
0.0
 10
11.0176819311
 20
7.5256952787
 30
0.0
 10
11.0149022247
 20
7.5244100563
 30
0.0
 10
11.011427592
 20
7.5228035276
 30
0.0
 10
11.007952959
 20
7.5211969994
 30
0.0
 10
11.0051732529
 20
7.5199117763
 30
0.0
 10
11.0030884727
 20
7.5189478602
 30
0.0
 10
11.0010036949
 20
7.5179839396
 30
0.0
 10
10.9992663727
 20
7.5171806862
 30
0.0
 10
10.9978765312
 20
7.5165380527
 30
0.0
 10
10.9970078434
 20
7.516136477
 30
0.0
 10
10.9963129776
 20
7.5158150554
 30
0.0
 10
10.995791597
 20
7.5155744303
 30
0.0
 10
10.9953578489
 20
7.5153725062
 30
0.0
 10
10.9950527813
 20
7.515233913
 30
0.0
 10
10.9948807116
 20
7.5151504173
 30
0.0
 10
10.9947453078
 20
7.5150999074
 30
0.0
 10
10.9946341828
 20
7.5150030999
 30
0.0
 10
10.9944775474
 20
7.5148901723
 30
0.0
 10
10.9942073812
 20
7.5146850249
 30
0.0
 10
10.9938193667
 20
7.5143958908
 30
0.0
 10
10.9933546322
 20
7.5140472462
 30
0.0
 10
10.9927346777
 20
7.5135829748
 30
0.0
 10
10.9919598403
 20
7.5130024343
 30
0.0
 10
10.9907200414
 20
7.5120736819
 30
0.0
 10
10.989170313
 20
7.5109127027
 30
0.0
 10
10.9873106303
 20
7.5095195444
 30
0.0
 10
10.9854509498
 20
7.5081263815
 30
0.0
 10
10.9829713751
 20
7.5062688327
 30
0.0
 10
10.9798719071
 20
7.503946896
 30
0.0
 10
10.9767724387
 20
7.5016249597
 30
0.0
 10
10.9742928644
 20
7.4997674103
 30
0.0
 10
10.9724331827
 20
7.4983742491
 30
0.0
 10
10.9705735048
 20
7.4969810846
 30
0.0
 10
10.9690237615
 20
7.4958201247
 30
0.0
 10
10.9677839929
 20
7.4948913331
 30
0.0
 10
10.9670090784
 20
7.4943108921
 30
0.0
 10
10.9663892822
 20
7.4938464164
 30
0.0
 10
10.9659240642
 20
7.4934983961
 30
0.0
 10
10.9655375624
 20
7.4932073088
 30
0.0
 10
10.9652646955
 20
7.4930056482
 30
0.0
 10
10.9651123874
 20
7.4928871338
 30
0.0
 10
10.9649879706
 20
7.4928074874
 30
0.0
 10
10.9649024886
 20
7.4926925229
 30
0.0
 10
10.9647749317
 20
7.4925515563
 30
0.0
 10
10.9645580348
 20
7.4922991248
 30
0.0
 10
10.9642448739
 20
7.4919415093
 30
0.0
 10
10.9638704968
 20
7.4915110862
 30
0.0
 10
10.9633708327
 20
7.4909376374
 30
0.0
 10
10.962746422
 20
7.4902206728
 30
0.0
 10
10.9617472702
 20
7.4890736152
 30
0.0
 10
10.9604983629
 20
7.4876397639
 30
0.0
 10
10.9589996603
 20
7.4859191548
 30
0.0
 10
10.9575009614
 20
7.4841985424
 30
0.0
 10
10.9555026948
 20
7.4819043937
 30
0.0
 10
10.9530048622
 20
7.4790367074
 30
0.0
 10
10.9505070292
 20
7.4761690214
 30
0.0
 10
10.9485087632
 20
7.4738748723
 30
0.0
 10
10.9470100627
 20
7.4721542612
 30
0.0
 10
10.9455113661
 20
7.4704336472
 30
0.0
 10
10.9442624399
 20
7.4689998113
 30
0.0
 10
10.9432633266
 20
7.4678527222
 30
0.0
 10
10.942638818
 20
7.4671358378
 30
0.0
 10
10.9421393549
 20
7.4665622242
 30
0.0
 10
10.941764364
 20
7.4661323047
 30
0.0
 10
10.9414531234
 20
7.4657731137
 30
0.0
 10
10.9412327984
 20
7.4655234948
 30
0.0
 10
10.9411107341
 20
7.4653780217
 30
0.0
 10
10.9410083808
 20
7.4652768995
 30
0.0
 10
10.9409473299
 20
7.4651452635
 30
0.0
 10
10.940851522
 20
7.4649803924
 30
0.0
 10
10.9406905704
 20
7.4646869089
 30
0.0
 10
10.9404571304
 20
7.4642702394
 30
0.0
 10
10.9401785045
 20
7.4637691263
 30
0.0
 10
10.9398064785
 20
7.463101363
 30
0.0
 10
10.9393416258
 20
7.4622665263
 30
0.0
 10
10.938597761
 20
7.4609308617
 30
0.0
 10
10.9376679644
 20
7.4592612554
 30
0.0
 10
10.9365521938
 20
7.4572577388
 30
0.0
 10
10.9354364271
 20
7.4552542193
 30
0.0
 10
10.9339487368
 20
7.452582861
 30
0.0
 10
10.9320891244
 20
7.4492436628
 30
0.0
 10
10.9302295117
 20
7.4459044647
 30
0.0
 10
10.928741822
 20
7.443233106
 30
0.0
 10
10.9276260536
 20
7.4412295876
 30
0.0
 10
10.9265102895
 20
7.439226067
 30
0.0
 10
10.9255804725
 20
7.4375564732
 30
0.0
 10
10.9248366494
 20
7.4362207833
 30
0.0
 10
10.9243716903
 20
7.4353860109
 30
0.0
 10
10.9239998827
 20
7.4347181155
 30
0.0
 10
10.9237205898
 20
7.4342174062
 30
0.0
 10
10.9234892365
 20
7.4337994732
 30
0.0
 10
10.9233245599
 20
7.4335082453
 30
0.0
 10
10.9232347204
 20
7.4333397601
 30
0.0
 10
10.9231553365
 20
7.4332192255
 30
0.0
 10
10.9231218389
 20
7.4330764081
 30
0.0
 10
10.9230611698
 20
7.4328937574
 30
0.0
 10
10.9229624562
 20
7.4325704973
 30
0.0
 10
10.922817538
 20
7.4321105904
 30
0.0
 10
10.922645305
 20
7.4315578918
 30
0.0
 10
10.9224150781
 20
7.4308212434
 30
0.0
 10
10.922127494
 20
7.4299003359
 30
0.0
 10
10.921667248
 20
7.4284269382
 30
0.0
 10
10.9210919787
 20
7.4265851724
 30
0.0
 10
10.9204016391
 20
7.4243750614
 30
0.0
 10
10.9197113039
 20
7.4221649483
 30
0.0
 10
10.9187908555
 20
7.4192181315
 30
0.0
 10
10.9176402955
 20
7.4155346104
 30
0.0
 10
10.9164897351
 20
7.4118510893
 30
0.0
 10
10.9155692873
 20
7.4089042723
 30
0.0
 10
10.9148789503
 20
7.40669416
 30
0.0
 10
10.9141886178
 20
7.404484046
 30
0.0
 10
10.9136133263
 20
7.4026422896
 30
0.0
 10
10.9131531256
 20
7.4011688727
 30
0.0
 10
10.9128654261
 20
7.4002480141
 30
0.0
 10
10.9126354361
 20
7.3995112654
 30
0.0
 10
10.9124624794
 20
7.398958873
 30
0.0
 10
10.9123198253
 20
7.3984980079
 30
0.0
 10
10.91221707
 20
7.3981764585
 30
0.0
 10
10.9121628767
 20
7.3979910669
 30
0.0
 10
10.9121094876
 20
7.3978566687
 30
0.0
 10
10.9121048129
 20
7.3977045129
 30
0.0
 10
10.9120815879
 20
7.3975078326
 30
0.0
 10
10.9120488612
 20
7.3971607561
 30
0.0
 10
10.9119979695
 20
7.3966664414
 30
0.0
 10
10.9119386712
 20
7.396072618
 30
0.0
 10
10.911858988
 20
7.3952810789
 30
0.0
 10
10.9117595959
 20
7.3942915778
 30
0.0
 10
10.9116004501
 20
7.3927084193
 30
0.0
 10
10.9114015585
 20
7.3907294563
 30
0.0
 10
10.9111628711
 20
7.3883547071
 30
0.0
 10
10.9109241884
 20
7.3859799562
 30
0.0
 10
10.9106059431
 20
7.3828136223
 30
0.0
 10
10.9102081371
 20
7.3788557046
 30
0.0
 10
10.9097307697
 20
7.3741062035
 30
0.0
 10
10.9090942798
 20
7.3677735354
 30
0.0
 10
10.9086169124
 20
7.3630240342
 30
0.0
 10
10.9082986675
 20
7.3598577002
 30
0.0
  0
ENDSEC
  0
SECTION
  2
OBJECTS
  0
DICTIONARY
  5
C
100
AcDbDictionary
280
0
281
1
  3
ACAD_GROUP
350
D
  3
ACAD_MLINESTYLE
350
17
  3
ACAD_LAYOUT
350
1A
  3
ACAD_PLOTSETTINGS
350
19
  3
ACAD_PLOTSTYLENAME
350
E
  3
ACAD_IMAGE_DICT
350
       3E8
  3
ACAD_IMAGE_VARS
350
       3E9
  3
ACAD_TABLESTYLE
350
       3EA
  0
IMAGEDEF_REACTOR
  5
3E7
100
AcDbRasterImageDefReactor
 90
2
330
28F
  0
DICTIONARY
  5
D
102
{ACAD_REACTORS
330
C
102
}
100
AcDbDictionary
280
0
281
1
  0
ACDBDICTIONARYWDFLT
  5
E
102
{ACAD_REACTORS
330
C
102
}
100
AcDbDictionary
281
1
  3
Normal
350
F
100
AcDbDictionaryWithDefault
340
F
  0
DICTIONARY
  5
3E8
330
C
100
AcDbDictionary
281
1
  3
E5V_assy_2_img_1
350
       3ED
  0
RASTERVARIABLES
  5
3E9
330
C
100
AcDbRasterVariables
 90
0
 70
0
 71
1
 72
5
  0
DICTIONARY
  5
17
102
{ACAD_REACTORS
330
C
102
}
100
AcDbDictionary
280
0
281
1
  3
Standard
350
18
  0
DICTIONARY
  5
3EA
330
C
100
AcDbDictionary
281
1
  3
Standard
350
       3EE
  3
Standard1
350
       3EF
  0
DICTIONARY
  5
19
102
{ACAD_REACTORS
330
C
102
}
100
AcDbDictionary
281
1
  0
DICTIONARY
  5
1A
102
{ACAD_REACTORS
330
C
102
}
100
AcDbDictionary
281
1
  3
Model
350
3EB
  3
Layout1
350
3EC
  0
ACDBPLACEHOLDER
  5
F
102
{ACAD_REACTORS
330
E
102
}
  0
MLINESTYLE
  5
18
102
{ACAD_REACTORS
330
17
102
}
100
AcDbMlineStyle
  2
STANDARD
 70
0
  3

 62
256
 51
90.0
 52
90.0
 71
2
 49
0.5
 62
256
  6
BYLAYER
 49
-0.5
 62
256
  6
BYLAYER
  0
LAYOUT
  5
3EB
102
{ACAD_REACTORS
330
1A
102
}
100
AcDbPlotSettings
  1

  2
none_device
  4
ANSI_C_(22.00_x_17.00_Inches)
  6

 40
0.0
 41
0.0
 42
0.0
 43
0.0
 44
558.8
 45
431.8
 46
0.0
 47
0.0
 48
0.0
 49
0.0
140
0.0
141
0.0
142
1.0
143
1.0
 70
1024
 72
0
 73
0
 74
0
  7

 75
0
147
1.0
148
0.0
149
0.0
100
AcDbLayout
  1
Model
 70
0
 71
0
 10
0.0
 20
0.0
 11
22.0
 21
17.0
 12
0.0
 22
0.0
 32
0.0
 14
0.0
 24
0.0
 34
0.0
 15
0.0
 25
0.0
 35
0.0
146
0.0
 13
0.0
 23
0.0
 33
0.0
 16
1.0
 26
0.0
 36
0.0
 17
0.0
 27
1.0
 37
0.0
 76
0
330
20C
345
0
346
0
  0
LAYOUT
  5
3EC
102
{ACAD_REACTORS
330
1A
102
}
100
AcDbPlotSettings
  1

  2
none_device
  4
ANSI_C_(22.00_x_17.00_Inches)
  6

 40
0.0
 41
0.0
 42
0.0
 43
0.0
 44
558.8
 45
431.8
 46
0.0
 47
0.0
 48
0.0
 49
0.0
140
0.0
141
0.0
142
1.0
143
1.0
 70
0
 72
0
 73
0
 74
0
  7

 75
0
147
1.0
148
0.0
149
0.0
100
AcDbLayout
  1
Layout1
 70
0
 71
1
 10
0.0
 20
0.0
 11
22.0
 21
17.0
 12
0.0
 22
0.0
 32
0.0
 14
0.0
 24
0.0
 34
0.0
 15
0.0
 25
0.0
 35
0.0
146
0.0
 13
0.0
 23
0.0
 33
0.0
 16
1.0
 26
0.0
 36
0.0
 17
0.0
 27
1.0
 37
0.0
 76
0
330
20D
345
0
346
0
  0
IMAGEDEF
  5
3ED
102
{ACAD_REACTORS
330
3E8
330
3E7
102
}
100
AcDbRasterImageDef
 90
0
  1
E5V_assy_2_img_1.png
 10
369.0
 20
92.0
 11
0.0066666667
 21
0.0066666667
280
1
281
0
  0
TABLESTYLE
  5
3EE
102
{ACAD_REACTORS
330
3EA
330
292
330
293
102
}
330
3EA
100
AcDbTableStyle
  3
Standard
 70
0
 71
0
 40
0.06
 41
0.06
280
1
281
1
  7
Standard
140
0.18
170
1
 62
0
 63
7
283
0
  7
Standard
140
0.18
170
1
 62
0
 63
7
283
0
  7
Standard
140
0.18
170
1
 62
0
 63
7
283
0
  0
TABLESTYLE
  5
3EF
102
{ACAD_REACTORS
330
3EA
330
291
102
}
330
3EA
100
AcDbTableStyle
  3
Standard1
 70
1
 71
0
 40
0.06
 41
0.06
280
1
281
1
  7
Standard
140
0.18
170
1
 62
0
 63
7
283
0
  7
Standard
140
0.18
170
1
 62
0
 63
7
283
0
  7
Standard
140
0.18
170
1
 62
0
 63
7
283
0
  0
ENDSEC
  0
EOF
