999
DXF file: E5U_assy_2.dxf
999
Pro/ENGINEER 2014200 by Parametric Technology Corporation
  0
SECTION
  2
HEADER
  9
$ACADVER
  1
AC1021
  9
$DWGCODEPAGE
  3
ANSI_1252
  9
$EXTMAX
 10
22.0
 20
17.0
 30
0.0
  9
$EXTMIN
 10
0.0
 20
0.0
 30
0.0
  9
$LIMMIN
 10
0.0
 20
0.0
  9
$LIMMAX
 10
22.0
 20
17.0
  9
$VIEWCTR
 10
11.0
 20
8.5
  9
$VIEWSIZE
 40
17.0
  9
$CLAYER
  8
0
  9
$LTSCALE
 40
1.21
  9
$CELTYPE
  6
BYLAYER
  9
$DIMSCALE
 40
1.0
  9
$DIMASZ
 40
0.1875
  9
$DIMEXO
 40
0.0625
  9
$DIMDLI
 40
0.836
  9
$DIMEXE
 40
0.125
  9
$DIMCEN
 40
0.198
  9
$DIMLFAC
 40
1.0
  9
$DIMBLK
  1
_FILLED
  9
$DIMTXT
 40
0.1
  9
$DIMTOL
 70
0
  9
$DIMLIM
 70
0
  9
$DIMTFAC
 40
1.0
  9
$DIMGAP
 40
0.09
  9
$DIMDSEP
 70
46
  9
$AUNITS
 70
0
  9
$PDMODE
 70
3
  9
$PDSIZE
 40
0.3125
  9
$HANDSEED
  5
3D2
  9
$TILEMODE
 70
1
  9
$MEASUREMENT
 70
0
  9
$INSUNITS
 70
1
  0
ENDSEC
  0
SECTION
  2
CLASSES
  0
CLASS
  1
ACDBDICTIONARYWDFLT
  2
AcDbDictionaryWithDefault
  3
AutoCAD 2000
 90
0
 91
1
280
0
281
0
  0
CLASS
  1
ACDBPLACEHOLDER
  2
AcDbPlaceHolder
  3
AutoCAD 2000
 90
0
 91
1
280
0
281
0
  0
CLASS
  1
LAYOUT
  2
AcDbLayout
  3
AutoCAD 2000
 90
0
 91
0
280
0
281
0
  0
CLASS
  1
RASTERVARIABLES
  2
AcDbRasterVariables
  3
ISM
 90
0
 91
1
280
0
281
0
  0
CLASS
  1
IMAGEDEF
  2
AcDbRasterImageDef
  3
ISM
 90
0
 91
1
280
0
281
0
  0
CLASS
  1
IMAGEDEF_REACTOR
  2
AcDbRasterImageDefReactor
  3
ISM
 90
0
 91
1
280
0
281
0
  0
CLASS
  1
IMAGE
  2
AcDbRasterImage
  3
ISM
 90
127
 91
1
280
0
281
1
  0
CLASS
  1
TABLESTYLE
  2
AcDbTableStyle
  3
ObjectDBX Classes
 90
2047
 91
1
280
0
281
0
  0
CLASS
  1
ACAD_TABLE
  2
AcDbTable
  3
ObjectDBX Classes
 90
1025
 91
3
280
0
281
1
  0
ENDSEC
  0
SECTION
  2
TABLES
  0
TABLE
  2
VPORT
  5
8
100
AcDbSymbolTable
 70
2
  0
VPORT
  5
1F4
100
AcDbSymbolTableRecord
100
AcDbViewportTableRecord
  2
*ACTIVE
 70
0
 10
0.0
 20
0.0
 11
1.0
 21
1.0
 12
11.0
 22
8.5
 13
0.0
 23
0.0
 14
1.0
 24
1.0
 15
0.0
 25
0.0
 16
0.0
 26
0.0
 36
1.0
 17
0.0
 27
0.0
 37
0.0
 40
17.0
 41
1.2941176471
 42
50.0
 43
0.0
 44
0.0
 50
0.0
 51
0.0
 71
0
 72
100
 73
1
 74
1
 75
0
 76
0
 77
0
 78
0
  0
ENDTAB
  0
TABLE
  2
LTYPE
  5
5
100
AcDbSymbolTable
 70
6
  0
LTYPE
  5
14
100
AcDbSymbolTableRecord
100
AcDbLinetypeTableRecord
  2
BYBLOCK
 70
0
  3

 72
65
 73
0
 40
0.0
  0
LTYPE
  5
15
100
AcDbSymbolTableRecord
100
AcDbLinetypeTableRecord
  2
BYLAYER
 70
0
  3

 72
65
 73
0
 40
0.0
  0
LTYPE
  5
16
100
AcDbSymbolTableRecord
100
AcDbLinetypeTableRecord
  2
CONTINUOUS
 70
64
  3
Solid line
 72
65
 73
0
 40
0.0
  0
LTYPE
  5
1F5
100
AcDbSymbolTableRecord
100
AcDbLinetypeTableRecord
  2
CENTER
 70
64
  3
____ _ ____ _ ____ _ ____ _ ____ _ ____ _ ____
 72
65
 73
4
 40
0.6
 49
0.375
 74
0
 49
-0.075
 74
0
 49
0.075
 74
0
 49
-0.075
 74
0
  0
LTYPE
  5
1F6
100
AcDbSymbolTableRecord
100
AcDbLinetypeTableRecord
  2
HIDDEN
 70
64
  3
- - - - - - - - - - - - - - - - - - - -
 72
65
 73
2
 40
0.2
 49
0.1
 74
0
 49
-0.1
 74
0
  0
LTYPE
  5
1F7
100
AcDbSymbolTableRecord
100
AcDbLinetypeTableRecord
  2
PHANTOM
 70
64
  3
_____ _ _ _____ _ _ _____ _ _ _____
 72
65
 73
6
 40
0.8
 49
0.45
 74
0
 49
-0.05
 74
0
 49
0.1
 74
0
 49
-0.05
 74
0
 49
0.1
 74
0
 49
-0.05
 74
0
  0
LTYPE
  5
1F8
100
AcDbSymbolTableRecord
100
AcDbLinetypeTableRecord
  2
DOT
 70
64
  3
. . . . . . . . . . . . . . . . . . . .
 72
65
 73
2
 40
0.2
 49
0.1
 74
0
 49
-0.1
 74
0
  0
LTYPE
  5
1F9
100
AcDbSymbolTableRecord
100
AcDbLinetypeTableRecord
  2
DASHED
 70
64
  3
- - - - - - - - - - - - - - - - - - - -
 72
65
 73
2
 40
0.2
 49
0.1
 74
0
 49
-0.1
 74
0
  0
ENDTAB
  0
TABLE
  2
LAYER
  5
2
100
AcDbSymbolTable
 70
36
  0
LAYER
  5
10
100
AcDbSymbolTableRecord
100
AcDbLayerTableRecord
  2
0
 70
0
 62
7
  6
CONTINUOUS
370
-3
390
F
  0
LAYER
  5
1FA
100
AcDbSymbolTableRecord
100
AcDbLayerTableRecord
  2
DEFAULT_1
 70
0
 62
7
  6
CENTER
370
-3
390
F
  0
LAYER
  5
1FB
100
AcDbSymbolTableRecord
100
AcDbLayerTableRecord
  2
DEFAULT_2
 70
0
 62
8
  6
HIDDEN
370
-3
390
F
  0
LAYER
  5
1FC
100
AcDbSymbolTableRecord
100
AcDbLayerTableRecord
  2
DEFAULT_3
 70
0
 62
7
  6
PHANTOM
370
-3
390
F
  0
LAYER
  5
1FD
100
AcDbSymbolTableRecord
100
AcDbLayerTableRecord
  2
01___PRT_ALL_DTM_PLN
 70
0
 62
7
  6
CONTINUOUS
370
-3
390
F
  0
LAYER
  5
1FE
100
AcDbSymbolTableRecord
100
AcDbLayerTableRecord
  2
01___PRT_DEF_DTM_PLN
 70
0
 62
7
  6
CONTINUOUS
370
-3
390
F
  0
LAYER
  5
1FF
100
AcDbSymbolTableRecord
100
AcDbLayerTableRecord
  2
02___PRT_ALL_AXES
 70
0
 62
7
  6
CONTINUOUS
370
-3
390
F
  0
LAYER
  5
200
100
AcDbSymbolTableRecord
100
AcDbLayerTableRecord
  2
03___PRT_ALL_CURVES
 70
0
 62
7
  6
CONTINUOUS
370
-3
390
F
  0
LAYER
  5
201
100
AcDbSymbolTableRecord
100
AcDbLayerTableRecord
  2
04___PRT_ALL_DTM_PNT
 70
0
 62
7
  6
CONTINUOUS
370
-3
390
F
  0
LAYER
  5
202
100
AcDbSymbolTableRecord
100
AcDbLayerTableRecord
  2
05___PRT_ALL_DTM_CSYS
 70
0
 62
7
  6
CONTINUOUS
370
-3
390
F
  0
LAYER
  5
203
100
AcDbSymbolTableRecord
100
AcDbLayerTableRecord
  2
05___PRT_DEF_DTM_CSYS
 70
0
 62
7
  6
CONTINUOUS
370
-3
390
F
  0
LAYER
  5
204
100
AcDbSymbolTableRecord
100
AcDbLayerTableRecord
  2
06___PRT_ALL_SURFS
 70
0
 62
7
  6
CONTINUOUS
370
-3
390
F
  0
LAYER
  5
205
100
AcDbSymbolTableRecord
100
AcDbLayerTableRecord
  2
DATUM_PLANES
 70
0
 62
7
  6
CONTINUOUS
370
-3
390
F
  0
LAYER
  5
206
100
AcDbSymbolTableRecord
100
AcDbLayerTableRecord
  2
PORT_AREAS
 70
0
 62
7
  6
CONTINUOUS
370
-3
390
F
  0
LAYER
  5
207
100
AcDbSymbolTableRecord
100
AcDbLayerTableRecord
  2
SUNNBOMCOSMETIC
 70
0
 62
7
  6
CONTINUOUS
370
-3
390
F
  0
LAYER
  5
208
100
AcDbSymbolTableRecord
100
AcDbLayerTableRecord
  2
SUNNBOMSTAMPING
 70
0
 62
7
  6
CONTINUOUS
370
-3
390
F
  0
LAYER
  5
209
100
AcDbSymbolTableRecord
100
AcDbLayerTableRecord
  2
THREADS
 70
0
 62
7
  6
CONTINUOUS
370
-3
390
F
  0
ENDTAB
  0
TABLE
  2
STYLE
  5
3
100
AcDbSymbolTable
 70
1
  0
STYLE
  5
11
100
AcDbSymbolTableRecord
100
AcDbTextStyleTableRecord
  2
STANDARD
 70
0
 40
0.0
 41
0.8
 50
0.0
 71
0
 42
0.2
  3
txt
  4

  0
STYLE
  5
20A
100
AcDbSymbolTableRecord
100
AcDbTextStyleTableRecord
  2
TEXTSTYLE_1
 70
0
 40
0.0
 41
0.8
 50
0.0
 71
0
 42
0.2
  3
gdt
  4

  0
ENDTAB
  0
TABLE
  2
VIEW
  5
6
100
AcDbSymbolTable
 70
0
  0
ENDTAB
  0
TABLE
  2
UCS
  5
7
100
AcDbSymbolTable
 70
0
  0
ENDTAB
  0
TABLE
  2
APPID
  5
9
100
AcDbSymbolTable
 70
1
  0
APPID
  5
20B
100
AcDbSymbolTableRecord
100
AcDbRegAppTableRecord
  2
ACAD
 70
0
  0
ENDTAB
  0
TABLE
  2
BLOCK_RECORD
  5
1
100
AcDbSymbolTable
 70
0
  0
BLOCK_RECORD
  5
20C
100
AcDbSymbolTableRecord
100
AcDbBlockTableRecord
  2
*Model_Space
  0
BLOCK_RECORD
  5
20D
100
AcDbSymbolTableRecord
100
AcDbBlockTableRecord
  2
*Paper_Space
  0
BLOCK_RECORD
  5
20E
100
AcDbSymbolTableRecord
100
AcDbBlockTableRecord
  2
SUN_FIRST_THIRD_ANGLE_BL0
  0
BLOCK_RECORD
  5
20F
100
AcDbSymbolTableRecord
100
AcDbBlockTableRecord
  2
*T1
  0
BLOCK_RECORD
  5
210
100
AcDbSymbolTableRecord
100
AcDbBlockTableRecord
  2
*T2
  0
BLOCK_RECORD
  5
211
100
AcDbSymbolTableRecord
100
AcDbBlockTableRecord
  2
*T3
  0
ENDTAB
  0
TABLE
  2
DIMSTYLE
  5
A
100
AcDbSymbolTable
 70
1
100
AcDbDimStyleTable
 71
0
  0
DIMSTYLE
105
212
100
AcDbSymbolTableRecord
100
AcDbDimStyleTableRecord
  2
STANDARD
 70
0
  3

  4

 40
1.0
 41
0.1875
 42
0.0625
 43
0.38
 44
0.125
 45
0.0
 46
0.0
 47
0.001
 48
0.001
140
0.1
141
0.09
142
0.0
143
25.4
144
1.0
145
0.0
146
1.0
147
0.09
 71
0.0
 72
0.0
 73
1
 74
1
 75
0
 76
0
 77
0
 78
4
170
0
171
2
172
0
173
0
174
0
175
0
176
0
177
0
178
0
270
2
271
3
272
3
273
2
274
2
275
0
280
0
281
0
282
0
283
1
284
4
285
0
286
0
287
3
288
0
340
11
278
46
  0
ENDTAB
  0
ENDSEC
  0
SECTION
  2
BLOCKS
  0
BLOCK
  5
20
100
AcDbEntity
  8
0
100
AcDbBlockBegin
  2
*Model_Space
 70
0
 10
0.0
 20
0.0
 30
0.0
  3
*Model_Space
  1

  0
ENDBLK
  5
21
100
AcDbEntity
  8
0
100
AcDbBlockEnd
  0
BLOCK
  5
1C
100
AcDbEntity
  8
0
100
AcDbBlockBegin
  2
*Paper_Space
 70
0
 10
0.0
 20
0.0
 30
0.0
  3
*Paper_Space
  1

  0
ENDBLK
  5
1D
100
AcDbEntity
  8
0
100
AcDbBlockEnd
  0
BLOCK
  5
213
100
AcDbEntity
  8
0
100
AcDbBlockBegin
 62
2
  6
CONTINUOUS
  2
SUN_FIRST_THIRD_ANGLE_BL0
 70
64
 10
20.4816717061
 20
1.2289683772
  3
SUN_FIRST_THIRD_ANGLE_BL0
  1

  0
TEXT
  5
214
100
AcDbEntity
  8
0
100
AcDbText
 62
2
  6
CONTINUOUS
 10
19.4750896608
 20
1.4136269581
  7
STANDARD
 40
0.08
  1
FIRST ANGLE
 41
0.8
 72
0
100
AcDbText
  0
TEXT
  5
215
100
AcDbEntity
  8
0
100
AcDbText
 62
2
  6
CONTINUOUS
 10
20.7842537513
 20
1.4047600029
  7
STANDARD
 40
0.08
  1
THIRD ANGLE
 41
0.8
 72
0
100
AcDbText
  0
LINE
  5
216
100
AcDbEntity
  8
0
100
AcDbLine
 62
7
  6
CONTINUOUS
 10
19.4767170086
 20
1.1727031207
 11
19.6334271527
 21
1.1717972817
  0
LINE
  5
217
100
AcDbEntity
  8
0
100
AcDbLine
 62
7
  6
CONTINUOUS
 10
19.6596964832
 20
1.1717972817
 11
19.6950230232
 21
1.171593082
  0
LINE
  5
218
100
AcDbEntity
  8
0
100
AcDbLine
 62
7
  6
CONTINUOUS
 10
19.7194818561
 20
1.1708914427
 11
19.8852396156
 21
1.1699333054
  0
LINE
  5
219
100
AcDbEntity
  8
0
100
AcDbLine
 62
7
  6
CONTINUOUS
 10
19.4758111696
 20
1.2723454088
 11
19.88525039
 21
1.3511534004
  0
LINE
  5
21A
100
AcDbEntity
  8
0
100
AcDbLine
 62
7
  6
CONTINUOUS
 10
19.88525039
 20
1.3511534004
 11
19.8831348489
 21
0.9851647912
  0
LINE
  5
21B
100
AcDbEntity
  8
0
100
AcDbLine
 62
7
  6
CONTINUOUS
 10
19.8831348489
 20
0.9851647912
 11
19.4767170086
 21
1.0658141206
  0
LINE
  5
21C
100
AcDbEntity
  8
0
100
AcDbLine
 62
7
  6
CONTINUOUS
 10
19.4767170086
 20
1.0658141206
 11
19.4779056764
 21
1.2714536432
  0
CIRCLE
  5
21D
100
AcDbEntity
  8
0
100
AcDbCircle
 62
7
  6
CONTINUOUS
 10
20.2068232291
 20
1.1717972817
 40
0.175742101
  0
CIRCLE
  5
21E
100
AcDbEntity
  8
0
100
AcDbCircle
 62
7
  6
CONTINUOUS
 10
20.2068232291
 20
1.1717972817
 40
0.1005522074
  0
LINE
  5
21F
100
AcDbEntity
  8
0
100
AcDbLine
 62
7
  6
CONTINUOUS
 10
20.2077290681
 20
1.3756110529
 11
20.2071171714
 21
1.2379342989
  0
LINE
  5
220
100
AcDbEntity
  8
0
100
AcDbLine
 62
7
  6
CONTINUOUS
 10
20.2077290681
 20
1.2016899681
 11
20.2074674401
 21
1.1428236749
  0
LINE
  5
221
100
AcDbEntity
  8
0
100
AcDbLine
 62
7
  6
CONTINUOUS
 10
20.208634907
 20
1.101141841
 11
20.2080230104
 21
0.963465087
  0
LINE
  5
222
100
AcDbEntity
  8
0
100
AcDbLine
 62
7
  6
CONTINUOUS
 10
20.0066328138
 20
1.1745147986
 11
20.1443095678
 21
1.1739029019
  0
LINE
  5
223
100
AcDbEntity
  8
0
100
AcDbLine
 62
7
  6
CONTINUOUS
 10
20.1832714155
 20
1.1727031207
 11
20.238153505
 21
1.172335442
  0
LINE
  5
224
100
AcDbEntity
  8
0
100
AcDbLine
 62
7
  6
CONTINUOUS
 10
20.2756669918
 20
1.1717972817
 11
20.407916871
 21
1.1712095044
  0
CIRCLE
  5
225
100
AcDbEntity
  8
0
100
AcDbCircle
 62
7
  6
CONTINUOUS
 10
20.7509457401
 20
1.1693297793
 40
0.1722024983
  0
CIRCLE
  5
226
100
AcDbEntity
  8
0
100
AcDbCircle
 62
7
  6
CONTINUOUS
 10
20.7509457401
 20
1.1693297793
 40
0.0985164967
  0
LINE
  5
227
100
AcDbEntity
  8
0
100
AcDbLine
 62
7
  6
CONTINUOUS
 10
20.7169767782
 20
1.170462078
 11
20.7825395137
 21
1.1682766535
  0
LINE
  5
228
100
AcDbEntity
  8
0
100
AcDbLine
 62
7
  6
CONTINUOUS
 10
20.8177513651
 20
1.1693297793
 11
20.947965719
 21
1.1693297793
  0
LINE
  5
229
100
AcDbEntity
  8
0
100
AcDbLine
 62
7
  6
CONTINUOUS
 10
20.6875370113
 20
1.170462078
 11
20.5573226574
 21
1.170462078
  0
LINE
  5
22A
100
AcDbEntity
  8
0
100
AcDbLine
 62
7
  6
CONTINUOUS
 10
20.7486811426
 20
1.1987695462
 11
20.7486811426
 21
1.1432869085
  0
LINE
  5
22B
100
AcDbEntity
  8
0
100
AcDbLine
 62
7
  6
CONTINUOUS
 10
20.7498134414
 20
1.1059210505
 11
20.7498134414
 21
0.9757066966
  0
LINE
  5
22C
100
AcDbEntity
  8
0
100
AcDbLine
 62
7
  6
CONTINUOUS
 10
20.7486811426
 20
1.2338708068
 11
20.7486811426
 21
1.3640851607
  0
LINE
  5
22D
100
AcDbEntity
  8
0
100
AcDbLine
 62
7
  6
CONTINUOUS
 10
21.0702539817
 20
1.2701043662
 11
21.4790138229
 21
1.3448360823
  0
LINE
  5
22E
100
AcDbEntity
  8
0
100
AcDbLine
 62
7
  6
CONTINUOUS
 10
21.4790138229
 20
1.3448360823
 11
21.4790138229
 21
0.9779712941
  0
LINE
  5
22F
100
AcDbEntity
  8
0
100
AcDbLine
 62
7
  6
CONTINUOUS
 10
21.4790138229
 20
0.9779712941
 11
21.069121683
 21
1.0617614
  0
LINE
  5
230
100
AcDbEntity
  8
0
100
AcDbLine
 62
7
  6
CONTINUOUS
 10
21.0702539817
 20
1.2701043662
 11
21.069121683
 21
1.0617614
  0
LINE
  5
231
100
AcDbEntity
  8
0
100
AcDbLine
 62
7
  6
CONTINUOUS
 10
21.4790138229
 20
1.1693297793
 11
21.3159628059
 21
1.1693297793
  0
LINE
  5
232
100
AcDbEntity
  8
0
100
AcDbLine
 62
7
  6
CONTINUOUS
 10
21.2876553377
 20
1.1693297793
 11
21.2502894796
 21
1.1693297793
  0
LINE
  5
233
100
AcDbEntity
  8
0
100
AcDbLine
 62
7
  6
CONTINUOUS
 10
21.2208497126
 20
1.1659328831
 11
21.0713862804
 21
1.1659328831
  0
LINE
  5
234
100
AcDbEntity
  8
0
100
AcDbLine
 62
7
  6
CONTINUOUS
 10
20.4796138713
 20
1.5284908897
 11
20.4766766948
 21
0.9294458646
  0
ENDBLK
  5
235
100
AcDbEntity
  8
0
  6
BYBLOCK
 62
0
100
AcDbBlockEnd
  0
BLOCK
  5
236
100
AcDbEntity
  8
0
100
AcDbBlockBegin
  2
*T1
 70
1
 10
0.0
 20
0.0
  3
*T1
  1

  0
LINE
  5
237
100
AcDbEntity
  8
0
100
AcDbLine
 62
2
  6
CONTINUOUS
 10
9.275
 20
0.0
 11
-0.0
 21
0.0
  0
LINE
  5
238
100
AcDbEntity
  8
0
100
AcDbLine
 62
2
  6
CONTINUOUS
 10
9.275
 20
0.0
 11
9.275
 21
1.25
  0
LINE
  5
239
100
AcDbEntity
  8
0
100
AcDbLine
 62
2
  6
CONTINUOUS
 10
9.275
 20
0.625
 11
-0.0
 21
0.625
  0
LINE
  5
23A
100
AcDbEntity
  8
0
100
AcDbLine
 62
2
  6
CONTINUOUS
 10
9.275
 20
1.25
 11
-0.0
 21
1.25
  0
LINE
  5
23B
100
AcDbEntity
  8
0
100
AcDbLine
 62
2
  6
CONTINUOUS
 10
6.8
 20
0.0
 11
6.8
 21
1.25
  0
LINE
  5
23C
100
AcDbEntity
  8
0
100
AcDbLine
 62
2
  6
CONTINUOUS
 10
6.4
 20
0.0
 11
6.4
 21
0.625
  0
LINE
  5
23D
100
AcDbEntity
  8
0
100
AcDbLine
 62
2
  6
CONTINUOUS
 10
5.9
 20
0.0
 11
5.9
 21
0.625
  0
LINE
  5
23E
100
AcDbEntity
  8
0
100
AcDbLine
 62
2
  6
CONTINUOUS
 10
5.2
 20
0.0
 11
5.2
 21
0.625
  0
LINE
  5
23F
100
AcDbEntity
  8
0
100
AcDbLine
 62
2
  6
CONTINUOUS
 10
4.1
 20
0.0
 11
4.1
 21
1.25
  0
LINE
  5
240
100
AcDbEntity
  8
0
100
AcDbLine
 62
2
  6
CONTINUOUS
 10
-0.0
 20
0.0
 11
-0.0
 21
1.25
  0
MTEXT
  5
241
100
AcDbEntity
  8
0
100
AcDbMText
 62
2
  6
CONTINUOUS
  7
STANDARD
 71
2
 72
1
 10
6.6
 20
0.325
 30
0.0
 11
1.0
 21
0.0
 31
0.0
 44
0.9
  1
2
 40
0.125
 41
0.2
  0
MTEXT
  5
242
100
AcDbEntity
  8
0
100
AcDbMText
 62
2
  6
CONTINUOUS
  7
STANDARD
 71
2
 72
1
 10
6.15
 20
0.325
 30
0.0
 11
1.0
 21
0.0
 31
0.0
 44
0.9
  1
C
 40
0.125
 41
0.2
  0
MTEXT
  5
243
100
AcDbEntity
  8
0
100
AcDbMText
 62
2
  6
CONTINUOUS
  7
STANDARD
 71
2
 72
1
 10
5.55
 20
0.325
 30
0.0
 11
1.0
 21
0.0
 31
0.0
 44
0.9
  1
1.000
 40
0.125
 41
1.0
  0
MTEXT
  5
244
100
AcDbEntity
  8
0
100
AcDbMText
 62
2
  6
CONTINUOUS
  7
STANDARD
 71
2
 72
1
 10
4.65
 20
0.325
 30
0.0
 11
1.0
 21
0.0
 31
0.0
 44
0.9
  1
Feb-19-24
 40
0.125
 41
1.8
  0
MTEXT
  5
245
100
AcDbEntity
  8
0
100
AcDbMText
 62
2
  6
CONTINUOUS
  7
STANDARD
 71
2
 72
1
 10
2.05
 20
0.4625
 30
0.0
 11
1.0
 21
0.0
 31
0.0
 44
0.9
  1
T-11A Line mount\P(See Notes for Body Features)
 40
0.125
 41
5.8
  0
MTEXT
  5
246
100
AcDbEntity
  8
0
100
AcDbMText
 62
2
  6
CONTINUOUS
  7
STANDARD
 71
1
 72
1
 10
6.45
 20
0.5625
 30
0.0
 11
1.0
 21
0.0
 31
0.0
 44
0.9
  1
SHEET
 40
0.06
 41
0.48
  0
MTEXT
  5
247
100
AcDbEntity
  8
0
100
AcDbMText
 62
2
  6
CONTINUOUS
  7
STANDARD
 71
1
 72
1
 10
5.95
 20
0.5625
 30
0.0
 11
1.0
 21
0.0
 31
0.0
 44
0.9
  1
DWG SIZE
 40
0.06
 41
0.768
  0
MTEXT
  5
248
100
AcDbEntity
  8
0
100
AcDbMText
 62
2
  6
CONTINUOUS
  7
STANDARD
 71
1
 72
1
 10
5.25
 20
0.5625
 30
0.0
 11
1.0
 21
0.0
 31
0.0
 44
0.9
  1
SCALE
 40
0.06
 41
0.48
  0
MTEXT
  5
249
100
AcDbEntity
  8
0
100
AcDbMText
 62
2
  6
CONTINUOUS
  7
STANDARD
 71
1
 72
1
 10
4.15
 20
0.5625
 30
0.0
 11
1.0
 21
0.0
 31
0.0
 44
0.9
  1
DATE
 40
0.06
 41
0.384
  0
MTEXT
  5
24A
100
AcDbEntity
  8
0
100
AcDbMText
 62
2
  6
CONTINUOUS
  7
STANDARD
 71
1
 72
1
 10
0.05
 20
0.5625
 30
0.0
 11
1.0
 21
0.0
 31
0.0
 44
0.9
  1
DESCRIPTION
 40
0.06
 41
1.056
  0
MTEXT
  5
24B
100
AcDbEntity
  8
0
100
AcDbMText
 62
2
  6
CONTINUOUS
  7
STANDARD
 71
2
 72
1
 10
5.45
 20
1.0375
 30
0.0
 11
1.0
 21
0.0
 31
0.0
 44
0.9
  1
ALL DIMENSIONS IN INCH\PVIEWS ARE THIRD ANGLE
 40
0.12
 41
4.224
  0
MTEXT
  5
24C
100
AcDbEntity
  8
0
100
AcDbMText
 62
2
  6
CONTINUOUS
  7
STANDARD
 71
2
 72
1
 10
2.05
 20
0.95
 30
0.0
 11
1.0
 21
0.0
 31
0.0
 44
0.9
  1
E5U
 40
0.125
 41
0.6
  0
MTEXT
  5
24D
100
AcDbEntity
  8
0
100
AcDbMText
 62
2
  6
CONTINUOUS
  7
STANDARD
 71
1
 72
1
 10
0.05
 20
1.1875
 30
0.0
 11
1.0
 21
0.0
 31
0.0
 44
0.9
  1
MODEL
 40
0.06
 41
0.48
  0
ENDBLK
  5
24E
100
AcDbEntity
  8
0
  6
BYBLOCK
 62
0
100
AcDbBlockEnd
  0
BLOCK
  5
24F
100
AcDbEntity
  8
0
100
AcDbBlockBegin
  2
*T2
 70
1
 10
0.0
 20
0.0
  3
*T2
  1

  0
LINE
  5
250
100
AcDbEntity
  8
0
100
AcDbLine
 62
2
  6
CONTINUOUS
 10
0.0
 20
0.0
 11
9.055
 21
0.0
  0
LINE
  5
251
100
AcDbEntity
  8
0
100
AcDbLine
 62
2
  6
CONTINUOUS
 10
0.0
 20
0.0
 11
0.0
 21
-2.844
  0
LINE
  5
252
100
AcDbEntity
  8
0
100
AcDbLine
 62
2
  6
CONTINUOUS
 10
0.0
 20
-0.344
 11
9.055
 21
-0.344
  0
LINE
  5
253
100
AcDbEntity
  8
0
100
AcDbLine
 62
2
  6
CONTINUOUS
 10
0.0
 20
-0.594
 11
9.055
 21
-0.594
  0
LINE
  5
254
100
AcDbEntity
  8
0
100
AcDbLine
 62
2
  6
CONTINUOUS
 10
0.0
 20
-0.844
 11
9.055
 21
-0.844
  0
LINE
  5
255
100
AcDbEntity
  8
0
100
AcDbLine
 62
2
  6
CONTINUOUS
 10
0.0
 20
-1.094
 11
9.055
 21
-1.094
  0
LINE
  5
256
100
AcDbEntity
  8
0
100
AcDbLine
 62
2
  6
CONTINUOUS
 10
0.0
 20
-1.344
 11
9.055
 21
-1.344
  0
LINE
  5
257
100
AcDbEntity
  8
0
100
AcDbLine
 62
2
  6
CONTINUOUS
 10
0.0
 20
-1.594
 11
9.055
 21
-1.594
  0
LINE
  5
258
100
AcDbEntity
  8
0
100
AcDbLine
 62
2
  6
CONTINUOUS
 10
0.0
 20
-1.844
 11
9.055
 21
-1.844
  0
LINE
  5
259
100
AcDbEntity
  8
0
100
AcDbLine
 62
2
  6
CONTINUOUS
 10
0.0
 20
-2.094
 11
9.055
 21
-2.094
  0
LINE
  5
25A
100
AcDbEntity
  8
0
100
AcDbLine
 62
2
  6
CONTINUOUS
 10
0.0
 20
-2.344
 11
9.055
 21
-2.344
  0
LINE
  5
25B
100
AcDbEntity
  8
0
100
AcDbLine
 62
2
  6
CONTINUOUS
 10
0.0
 20
-2.594
 11
9.055
 21
-2.594
  0
LINE
  5
25C
100
AcDbEntity
  8
0
100
AcDbLine
 62
2
  6
CONTINUOUS
 10
0.0
 20
-2.844
 11
9.055
 21
-2.844
  0
LINE
  5
25D
100
AcDbEntity
  8
0
100
AcDbLine
 62
2
  6
CONTINUOUS
 10
3.055
 20
0.0
 11
3.055
 21
-2.844
  0
LINE
  5
25E
100
AcDbEntity
  8
0
100
AcDbLine
 62
2
  6
CONTINUOUS
 10
9.055
 20
0.0
 11
9.055
 21
-2.844
  0
MTEXT
  5
25F
100
AcDbEntity
  8
0
100
AcDbMText
 62
2
  6
CONTINUOUS
  7
STANDARD
 71
2
 72
1
 10
1.5275
 20
-0.0995
 30
0.0
 11
1.0
 21
0.0
 31
0.0
 44
0.9
  1
Technical Data
 40
0.145
 41
3.248
  0
MTEXT
  5
260
100
AcDbEntity
  8
0
100
AcDbMText
 62
2
  6
CONTINUOUS
  7
STANDARD
 71
2
 72
1
 10
4.555
 20
-0.0995
 30
0.0
 11
1.0
 21
0.0
 31
0.0
 44
0.9
  1
U.S. Units
 40
0.145
 41
2.32
  0
MTEXT
  5
261
100
AcDbEntity
  8
0
100
AcDbMText
 62
2
  6
CONTINUOUS
  7
STANDARD
 71
2
 72
1
 10
7.555
 20
-0.0995
 30
0.0
 11
1.0
 21
0.0
 31
0.0
 44
0.9
  1
Metric Units
 40
0.145
 41
2.784
  0
MTEXT
  5
262
100
AcDbEntity
  8
0
100
AcDbMText
 62
2
  6
CONTINUOUS
  7
STANDARD
 71
2
 72
1
 10
1.5275
 20
-0.4065
 30
0.0
 11
1.0
 21
0.0
 31
0.0
 44
0.9
  1
Cavity
 40
0.125
 41
1.2
  0
MTEXT
  5
263
100
AcDbEntity
  8
0
100
AcDbMText
 62
2
  6
CONTINUOUS
  7
STANDARD
 71
2
 72
1
 10
6.055
 20
-0.4065
 30
0.0
 11
1.0
 21
0.0
 31
0.0
 44
0.9
  1
T-11A
 40
0.125
 41
1.0
  0
MTEXT
  5
264
100
AcDbEntity
  8
0
100
AcDbMText
 62
2
  6
CONTINUOUS
  7
STANDARD
 71
2
 72
1
 10
1.5275
 20
-0.6565
 30
0.0
 11
1.0
 21
0.0
 31
0.0
 44
0.9
  1
Body Features
 40
0.125
 41
2.6
  0
MTEXT
  5
265
100
AcDbEntity
  8
0
100
AcDbMText
 62
2
  6
CONTINUOUS
  7
STANDARD
 71
2
 72
1
 10
6.055
 20
-0.6565
 30
0.0
 11
1.0
 21
0.0
 31
0.0
 44
0.9
  1
(See Notes)
 40
0.125
 41
2.2
  0
MTEXT
  5
266
100
AcDbEntity
  8
0
100
AcDbMText
 62
2
  6
CONTINUOUS
  7
STANDARD
 71
2
 72
1
 10
1.5275
 20
-0.9065
 30
0.0
 11
1.0
 21
0.0
 31
0.0
 44
0.9
  1
Body Type
 40
0.125
 41
1.8
  0
MTEXT
  5
267
100
AcDbEntity
  8
0
100
AcDbMText
 62
2
  6
CONTINUOUS
  7
STANDARD
 71
2
 72
1
 10
6.055
 20
-0.9065
 30
0.0
 11
1.0
 21
0.0
 31
0.0
 44
0.9
  1
Line mount
 40
0.125
 41
2.0
  0
MTEXT
  5
268
100
AcDbEntity
  8
0
100
AcDbMText
 62
2
  6
CONTINUOUS
  7
STANDARD
 71
2
 72
1
 10
1.5275
 20
-1.1565
 30
0.0
 11
1.0
 21
0.0
 31
0.0
 44
0.9
  1
Interface
 40
0.125
 41
1.8
  0
MTEXT
  5
269
100
AcDbEntity
  8
0
100
AcDbMText
 62
2
  6
CONTINUOUS
  7
STANDARD
 71
2
 72
1
 10
6.055
 20
-1.1565
 30
0.0
 11
1.0
 21
0.0
 31
0.0
 44
0.9
  1
None
 40
0.125
 41
0.8
  0
MTEXT
  5
26A
100
AcDbEntity
  8
0
100
AcDbMText
 62
2
  6
CONTINUOUS
  7
STANDARD
 71
2
 72
1
 10
1.5275
 20
-1.4065
 30
0.0
 11
1.0
 21
0.0
 31
0.0
 44
0.9
  1
Open Cavity Quantity
 40
0.125
 41
4.0
  0
MTEXT
  5
26B
100
AcDbEntity
  8
0
100
AcDbMText
 62
2
  6
CONTINUOUS
  7
STANDARD
 71
2
 72
1
 10
6.055
 20
-1.4065
 30
0.0
 11
1.0
 21
0.0
 31
0.0
 44
0.9
  1
1
 40
0.125
 41
0.2
  0
MTEXT
  5
26C
100
AcDbEntity
  8
0
100
AcDbMText
 62
2
  6
CONTINUOUS
  7
STANDARD
 71
2
 72
1
 10
1.5275
 20
-1.6565
 30
0.0
 11
1.0
 21
0.0
 31
0.0
 44
0.9
  1
Weight
 40
0.125
 41
1.2
  0
MTEXT
  5
26D
100
AcDbEntity
  8
0
100
AcDbMText
 62
2
  6
CONTINUOUS
  7
STANDARD
 71
2
 72
1
 10
4.555
 20
-1.6565
 30
0.0
 11
1.0
 21
0.0
 31
0.0
 44
0.9
  1
1.914 lb.
 40
0.125
 41
1.8
  0
MTEXT
  5
26E
100
AcDbEntity
  8
0
100
AcDbMText
 62
2
  6
CONTINUOUS
  7
STANDARD
 71
2
 72
1
 10
7.555
 20
-1.6565
 30
0.0
 11
1.0
 21
0.0
 31
0.0
 44
0.9
  1
0,868 kg.
 40
0.125
 41
1.8
  0
MTEXT
  5
26F
100
AcDbEntity
  8
0
100
AcDbMText
 62
2
  6
CONTINUOUS
  7
STANDARD
 71
2
 72
1
 10
1.5275
 20
-1.9065
 30
0.0
 11
1.0
 21
0.0
 31
0.0
 44
0.9
  1
Mounting Hole Thread
 40
0.125
 41
4.0
  0
MTEXT
  5
270
100
AcDbEntity
  8
0
100
AcDbMText
 62
2
  6
CONTINUOUS
  7
STANDARD
 71
2
 72
1
 10
6.055
 20
-1.9065
 30
0.0
 11
1.0
 21
0.0
 31
0.0
 44
0.9
  1
M10x1.5 - 6H
 40
0.125
 41
2.4
  0
MTEXT
  5
271
100
AcDbEntity
  8
0
100
AcDbMText
 62
2
  6
CONTINUOUS
  7
STANDARD
 71
2
 72
1
 10
1.5275
 20
-2.1565
 30
0.0
 11
1.0
 21
0.0
 31
0.0
 44
0.9
  1
Mounting Hole Depth
 40
0.125
 41
3.8
  0
MTEXT
  5
272
100
AcDbEntity
  8
0
100
AcDbMText
 62
2
  6
CONTINUOUS
  7
STANDARD
 71
2
 72
1
 10
4.555
 20
-2.1565
 30
0.0
 11
1.0
 21
0.0
 31
0.0
 44
0.9
  1
.62 in.
 40
0.125
 41
1.4
  0
MTEXT
  5
273
100
AcDbEntity
  8
0
100
AcDbMText
 62
2
  6
CONTINUOUS
  7
STANDARD
 71
2
 72
1
 10
7.555
 20
-2.1565
 30
0.0
 11
1.0
 21
0.0
 31
0.0
 44
0.9
  1
15,7 mm
 40
0.125
 41
1.4
  0
MTEXT
  5
274
100
AcDbEntity
  8
0
100
AcDbMText
 62
2
  6
CONTINUOUS
  7
STANDARD
 71
2
 72
1
 10
1.5275
 20
-2.4065
 30
0.0
 11
1.0
 21
0.0
 31
0.0
 44
0.9
  1
Mounting Hole Quantity
 40
0.125
 41
4.4
  0
MTEXT
  5
275
100
AcDbEntity
  8
0
100
AcDbMText
 62
2
  6
CONTINUOUS
  7
STANDARD
 71
2
 72
1
 10
6.055
 20
-2.4065
 30
0.0
 11
1.0
 21
0.0
 31
0.0
 44
0.9
  1
2
 40
0.125
 41
0.2
  0
MTEXT
  5
276
100
AcDbEntity
  8
0
100
AcDbMText
 62
2
  6
CONTINUOUS
  7
STANDARD
 71
2
 72
1
 10
1.5275
 20
-2.6565
 30
0.0
 11
1.0
 21
0.0
 31
0.0
 44
0.9
  1
Includes integral cartridge(s)
 40
0.125
 41
6.0
  0
MTEXT
  5
277
100
AcDbEntity
  8
0
100
AcDbMText
 62
2
  6
CONTINUOUS
  7
STANDARD
 71
2
 72
1
 10
6.055
 20
-2.6565
 30
0.0
 11
1.0
 21
0.0
 31
0.0
 44
0.9
  1
Yes (see Included Components)
 40
0.125
 41
5.8
  0
ENDBLK
  5
278
100
AcDbEntity
  8
0
  6
BYBLOCK
 62
0
100
AcDbBlockEnd
  0
BLOCK
  5
279
100
AcDbEntity
  8
0
100
AcDbBlockBegin
  2
*T3
 70
1
 10
0.0
 20
0.0
  3
*T3
  1

  0
LINE
  5
27A
100
AcDbEntity
  8
0
100
AcDbLine
 62
2
  6
CONTINUOUS
 10
0.0
 20
0.0
 11
4.6
 21
0.0
  0
LINE
  5
27B
100
AcDbEntity
  8
0
100
AcDbLine
 62
2
  6
CONTINUOUS
 10
0.0
 20
0.0
 11
0.0
 21
-1.43775
  0
LINE
  5
27C
100
AcDbEntity
  8
0
100
AcDbLine
 62
2
  6
CONTINUOUS
 10
0.0
 20
-0.34375
 11
4.6
 21
-0.34375
  0
LINE
  5
27D
100
AcDbEntity
  8
0
100
AcDbLine
 62
2
  6
CONTINUOUS
 10
0.0
 20
-0.68775
 11
4.6
 21
-0.68775
  0
LINE
  5
27E
100
AcDbEntity
  8
0
100
AcDbLine
 62
2
  6
CONTINUOUS
 10
0.0
 20
-0.93775
 11
4.6
 21
-0.93775
  0
LINE
  5
27F
100
AcDbEntity
  8
0
100
AcDbLine
 62
2
  6
CONTINUOUS
 10
0.0
 20
-1.18775
 11
4.6
 21
-1.18775
  0
LINE
  5
280
100
AcDbEntity
  8
0
100
AcDbLine
 62
2
  6
CONTINUOUS
 10
0.0
 20
-1.43775
 11
4.6
 21
-1.43775
  0
LINE
  5
281
100
AcDbEntity
  8
0
100
AcDbLine
 62
2
  6
CONTINUOUS
 10
1.3
 20
-0.34375
 11
1.3
 21
-1.43775
  0
LINE
  5
282
100
AcDbEntity
  8
0
100
AcDbLine
 62
2
  6
CONTINUOUS
 10
3.3
 20
-0.34375
 11
3.3
 21
-1.43775
  0
LINE
  5
283
100
AcDbEntity
  8
0
100
AcDbLine
 62
2
  6
CONTINUOUS
 10
4.6
 20
0.0
 11
4.6
 21
-1.43775
  0
MTEXT
  5
284
100
AcDbEntity
  8
0
100
AcDbMText
 62
2
  6
CONTINUOUS
  7
STANDARD
 71
2
 72
1
 10
2.3
 20
-0.099375
 30
0.0
 11
1.0
 21
0.0
 31
0.0
 44
0.9
  1
Port Headings
 40
0.145
 41
3.016
  0
MTEXT
  5
285
100
AcDbEntity
  8
0
100
AcDbMText
 62
2
  6
CONTINUOUS
  7
STANDARD
 71
2
 72
1
 10
0.65
 20
-0.44325
 30
0.0
 11
1.0
 21
0.0
 31
0.0
 44
0.9
  1
Product
 40
0.145
 41
1.624
  0
MTEXT
  5
286
100
AcDbEntity
  8
0
100
AcDbMText
 62
2
  6
CONTINUOUS
  7
STANDARD
 71
2
 72
1
 10
2.3
 20
-0.44325
 30
0.0
 11
1.0
 21
0.0
 31
0.0
 44
0.9
  1
Port
 40
0.145
 41
0.928
  0
MTEXT
  5
287
100
AcDbEntity
  8
0
100
AcDbMText
 62
2
  6
CONTINUOUS
  7
STANDARD
 71
2
 72
1
 10
3.95
 20
-0.44325
 30
0.0
 11
1.0
 21
0.0
 31
0.0
 44
0.9
  1
Size
 40
0.145
 41
0.928
  0
MTEXT
  5
288
100
AcDbEntity
  8
0
100
AcDbMText
 62
2
  6
CONTINUOUS
  7
STANDARD
 71
2
 72
1
 10
0.65
 20
-0.75025
 30
0.0
 11
1.0
 21
0.0
 31
0.0
 44
0.9
  1
E5U
 40
0.125
 41
0.6
  0
MTEXT
  5
289
100
AcDbEntity
  8
0
100
AcDbMText
 62
2
  6
CONTINUOUS
  7
STANDARD
 71
2
 72
1
 10
2.3
 20
-0.75025
 30
0.0
 11
1.0
 21
0.0
 31
0.0
 44
0.9
  1
Ports 1 &  2
 40
0.125
 41
2.4
  0
MTEXT
  5
28A
100
AcDbEntity
  8
0
100
AcDbMText
 62
2
  6
CONTINUOUS
  7
STANDARD
 71
2
 72
1
 10
3.95
 20
-0.75025
 30
0.0
 11
1.0
 21
0.0
 31
0.0
 44
0.9
  1
3/8" BSPP
 40
0.125
 41
1.8
  0
MTEXT
  5
28B
100
AcDbEntity
  8
0
100
AcDbMText
 62
2
  6
CONTINUOUS
  7
STANDARD
 71
2
 72
1
 10
0.65
 20
-1.00025
 30
0.0
 11
1.0
 21
0.0
 31
0.0
 44
0.9
  1
E5U
 40
0.125
 41
0.6
  0
MTEXT
  5
28C
100
AcDbEntity
  8
0
100
AcDbMText
 62
2
  6
CONTINUOUS
  7
STANDARD
 71
2
 72
1
 10
2.3
 20
-1.00025
 30
0.0
 11
1.0
 21
0.0
 31
0.0
 44
0.9
  1
Port 3
 40
0.125
 41
1.2
  0
MTEXT
  5
28D
100
AcDbEntity
  8
0
100
AcDbMText
 62
2
  6
CONTINUOUS
  7
STANDARD
 71
2
 72
1
 10
3.95
 20
-1.00025
 30
0.0
 11
1.0
 21
0.0
 31
0.0
 44
0.9
  1
3/8" BSPP
 40
0.125
 41
1.8
  0
MTEXT
  5
28E
100
AcDbEntity
  8
0
100
AcDbMText
 62
2
  6
CONTINUOUS
  7
STANDARD
 71
2
 72
1
 10
0.65
 20
-1.25025
 30
0.0
 11
1.0
 21
0.0
 31
0.0
 44
0.9
  1
E5U
 40
0.125
 41
0.6
  0
MTEXT
  5
28F
100
AcDbEntity
  8
0
100
AcDbMText
 62
2
  6
CONTINUOUS
  7
STANDARD
 71
2
 72
1
 10
2.3
 20
-1.25025
 30
0.0
 11
1.0
 21
0.0
 31
0.0
 44
0.9
  1
Gage Port
 40
0.125
 41
1.8
  0
MTEXT
  5
290
100
AcDbEntity
  8
0
100
AcDbMText
 62
2
  6
CONTINUOUS
  7
STANDARD
 71
2
 72
1
 10
3.95
 20
-1.25025
 30
0.0
 11
1.0
 21
0.0
 31
0.0
 44
0.9
  1
1/4" BSPP
 40
0.125
 41
1.8
  0
ENDBLK
  5
291
100
AcDbEntity
  8
0
  6
BYBLOCK
 62
0
100
AcDbBlockEnd
  0
ENDSEC
  0
SECTION
  2
ENTITIES
  0
IMAGE
  5
292
100
AcDbEntity
  8
0
100
AcDbRasterImage
 62
7
  6
CONTINUOUS
 10
19.2297077316
 20
0.3094318264
 30
0.0
 11
0.0066666667
 21
0.0
 31
0.0
 12
0.0
 22
0.0066666667
 32
0.0
 13
369.0
 23
92.0
340
       3CF
 70
9
280
0
281
50
282
50
283
0
360
       3C9
 71
1
 91
2
 14
-0.5
 24
-0.5
 14
368.5
 24
91.5
  0
INSERT
  5
293
100
AcDbEntity
  8
0
100
AcDbBlockReference
 62
2
  6
CONTINUOUS
  2
SUN_FIRST_THIRD_ANGLE_BL0
 10
20.4816717061
 20
1.2289683772
  0
ACAD_TABLE
  5
294
100
AcDbEntity
  8
0
 62
2
  6
CONTINUOUS
100
AcDbBlockReference
  2
*T1
 10
12.42375
 20
0.30125
 30
0.0
100
AcDbTable
342
       3D1
343
20F
 11
1.0
 21
0.0
 31
0.0
 90
6
 91
4
 92
6
 93
20
 94
0
 95
0
 96
0
 70
1
 41
0.0
141
0.525
141
0.1
141
0.525
141
0.1
142
4.1
142
1.1
142
0.7
142
0.5
142
0.4
142
2.475
171
1
172
0
173
0
174
0
175
1
176
1
 91
33
178
0
145
0.0
301
CELL_VALUE
 90
4
  1
T-11A Line mount\P(See Notes for Body Features)
304
ACVALUE_END
170
2
140
0.125
171
1
172
0
173
0
174
0
175
1
176
1
 91
33
178
0
145
0.0
301
CELL_VALUE
 90
4
  1
Feb-19-24
304
ACVALUE_END
170
5
140
0.125
171
1
172
0
173
0
174
0
175
1
176
1
 91
33
178
0
145
0.0
301
CELL_VALUE
 90
4
  1
1.000
304
ACVALUE_END
170
5
140
0.125
171
1
172
0
173
0
174
0
175
1
176
1
 91
33
178
0
145
0.0
301
CELL_VALUE
 90
4
  1
C
304
ACVALUE_END
170
5
140
0.125
171
1
172
0
173
0
174
0
175
1
176
1
 91
33
178
0
145
0.0
301
CELL_VALUE
 90
4
  1
2
304
ACVALUE_END
170
5
140
0.125
171
1
172
0
173
0
174
0
175
1
176
1
 91
33
178
0
145
0.0
301
CELL_VALUE
 90
4
  1
 
304
ACVALUE_END
170
1
140
0.125
171
1
172
0
173
0
174
0
175
1
176
1
 91
33
178
0
145
0.0
301
CELL_VALUE
 90
4
  1
DESCRIPTION
304
ACVALUE_END
170
1
140
0.06
171
1
172
0
173
0
174
0
175
1
176
1
 91
33
178
0
145
0.0
301
CELL_VALUE
 90
4
  1
DATE
304
ACVALUE_END
170
1
140
0.06
171
1
172
0
173
0
174
0
175
1
176
1
 91
33
178
0
145
0.0
301
CELL_VALUE
 90
4
  1
SCALE
304
ACVALUE_END
170
1
140
0.06
171
1
172
0
173
0
174
0
175
1
176
1
 91
33
178
0
145
0.0
301
CELL_VALUE
 90
4
  1
DWG SIZE
304
ACVALUE_END
170
1
140
0.06
171
1
172
0
173
0
174
0
175
1
176
1
 91
33
178
0
145
0.0
301
CELL_VALUE
 90
4
  1
SHEET
304
ACVALUE_END
170
1
140
0.06
171
1
172
0
173
0
174
0
175
1
176
1
 91
33
178
0
145
0.0
301
CELL_VALUE
 90
4
  1
 
304
ACVALUE_END
170
1
140
0.125
171
1
172
0
173
0
174
0
175
1
176
1
 91
33
178
0
145
0.0
301
CELL_VALUE
 90
4
  1
E5U
304
ACVALUE_END
170
5
140
0.125
171
1
172
0
173
0
174
0
175
4
176
1
 91
33
178
0
145
0.0
301
CELL_VALUE
 90
4
  1
ALL DIMENSIONS IN INCH\PVIEWS ARE THIRD ANGLE
304
ACVALUE_END
170
5
140
0.12
171
1
172
0
173
1
174
0
175
1
176
1
 91
1
178
0
145
0.0
170
1
171
1
172
0
173
1
174
0
175
1
176
1
 91
1
178
0
145
0.0
170
1
171
1
172
0
173
1
174
0
175
1
176
1
 91
1
178
0
145
0.0
170
5
171
1
172
0
173
0
174
0
175
1
176
1
 91
33
178
0
145
0.0
301
CELL_VALUE
 90
4
  1
 
304
ACVALUE_END
170
1
140
0.125
171
1
172
0
173
0
174
0
175
1
176
1
 91
33
178
0
145
0.0
301
CELL_VALUE
 90
4
  1
MODEL
304
ACVALUE_END
170
1
140
0.06
171
1
172
0
173
0
174
0
175
1
176
1
 91
33
178
0
145
0.0
301
CELL_VALUE
 90
4
  1
 
304
ACVALUE_END
170
1
140
0.125
171
1
172
0
173
0
174
0
175
1
176
1
 91
33
178
0
145
0.0
301
CELL_VALUE
 90
4
  1
 
304
ACVALUE_END
170
1
140
0.125
171
1
172
0
173
0
174
0
175
1
176
1
 91
33
178
0
145
0.0
301
CELL_VALUE
 90
4
  1
 
304
ACVALUE_END
170
1
140
0.125
171
1
172
0
173
0
174
0
175
1
176
1
 91
33
178
0
145
0.0
301
CELL_VALUE
 90
4
  1
 
304
ACVALUE_END
170
1
140
0.125
171
1
172
0
173
0
174
0
175
1
176
1
 91
33
178
0
145
0.0
301
CELL_VALUE
 90
4
  1
 
304
ACVALUE_END
170
1
140
0.125
  0
ACAD_TABLE
  5
295
100
AcDbEntity
  8
0
 62
2
  6
CONTINUOUS
100
AcDbBlockReference
  2
*T2
 10
12.4237499994
 20
16.47875
 30
0.0
100
AcDbTable
342
       3D0
343
210
 11
1.0
 21
0.0
 31
0.0
 90
22
 91
11
 92
3
 93
16
 94
0
 95
0
 96
0
 41
0.028
141
0.344
141
0.25
141
0.25
141
0.25
141
0.25
141
0.25
141
0.25
141
0.25
141
0.25
141
0.25
141
0.25
142
3.055
142
3.0
142
3.0
171
1
172
0
173
0
174
0
175
1
176
1
 91
33
178
0
145
0.0
301
CELL_VALUE
 90
4
  1
Technical Data
304
ACVALUE_END
170
5
140
0.145
171
1
172
0
173
0
174
0
175
1
176
1
 91
33
178
0
145
0.0
301
CELL_VALUE
 90
4
  1
U.S. Units
304
ACVALUE_END
170
5
140
0.145
171
1
172
0
173
0
174
0
175
1
176
1
 91
33
178
0
145
0.0
301
CELL_VALUE
 90
4
  1
Metric Units
304
ACVALUE_END
170
5
140
0.145
171
1
172
0
173
0
174
0
175
1
176
1
 91
33
178
0
145
0.0
301
CELL_VALUE
 90
4
  1
Cavity
304
ACVALUE_END
170
5
140
0.125
171
1
172
0
173
0
174
0
175
2
176
1
 91
33
178
0
145
0.0
301
CELL_VALUE
 90
4
  1
T-11A
304
ACVALUE_END
170
5
140
0.125
171
1
172
0
173
1
174
0
175
1
176
1
 91
1
178
0
145
0.0
170
1
171
1
172
0
173
0
174
0
175
1
176
1
 91
33
178
0
145
0.0
301
CELL_VALUE
 90
4
  1
Body Features
304
ACVALUE_END
170
5
140
0.125
171
1
172
0
173
0
174
0
175
2
176
1
 91
33
178
0
145
0.0
301
CELL_VALUE
 90
4
  1
(See Notes)
304
ACVALUE_END
170
5
140
0.125
171
1
172
0
173
1
174
0
175
1
176
1
 91
1
178
0
145
0.0
170
1
171
1
172
0
173
0
174
0
175
1
176
1
 91
33
178
0
145
0.0
301
CELL_VALUE
 90
4
  1
Body Type
304
ACVALUE_END
170
5
140
0.125
171
1
172
0
173
0
174
0
175
2
176
1
 91
33
178
0
145
0.0
301
CELL_VALUE
 90
4
  1
Line mount
304
ACVALUE_END
170
5
140
0.125
171
1
172
0
173
1
174
0
175
1
176
1
 91
1
178
0
145
0.0
170
1
171
1
172
0
173
0
174
0
175
1
176
1
 91
33
178
0
145
0.0
301
CELL_VALUE
 90
4
  1
Interface
304
ACVALUE_END
170
5
140
0.125
171
1
172
0
173
0
174
0
175
2
176
1
 91
33
178
0
145
0.0
301
CELL_VALUE
 90
4
  1
None
304
ACVALUE_END
170
5
140
0.125
171
1
172
0
173
1
174
0
175
1
176
1
 91
1
178
0
145
0.0
170
1
171
1
172
0
173
0
174
0
175
1
176
1
 91
33
178
0
145
0.0
301
CELL_VALUE
 90
4
  1
Open Cavity Quantity
304
ACVALUE_END
170
5
140
0.125
171
1
172
0
173
0
174
0
175
2
176
1
 91
33
178
0
145
0.0
301
CELL_VALUE
 90
4
  1
1
304
ACVALUE_END
170
5
140
0.125
171
1
172
0
173
1
174
0
175
1
176
1
 91
1
178
0
145
0.0
170
1
171
1
172
0
173
0
174
0
175
1
176
1
 91
33
178
0
145
0.0
301
CELL_VALUE
 90
4
  1
Weight
304
ACVALUE_END
170
5
140
0.125
171
1
172
0
173
0
174
0
175
1
176
1
 91
33
178
0
145
0.0
301
CELL_VALUE
 90
4
  1
1.914 lb.
304
ACVALUE_END
170
5
140
0.125
171
1
172
0
173
0
174
0
175
1
176
1
 91
33
178
0
145
0.0
301
CELL_VALUE
 90
4
  1
0,868 kg.
304
ACVALUE_END
170
5
140
0.125
171
1
172
0
173
0
174
0
175
1
176
1
 91
33
178
0
145
0.0
301
CELL_VALUE
 90
4
  1
Mounting Hole Thread
304
ACVALUE_END
170
5
140
0.125
171
1
172
0
173
0
174
0
175
2
176
1
 91
33
178
0
145
0.0
301
CELL_VALUE
 90
4
  1
M10x1.5 - 6H
304
ACVALUE_END
170
5
140
0.125
171
1
172
0
173
1
174
0
175
1
176
1
 91
1
178
0
145
0.0
170
1
171
1
172
0
173
0
174
0
175
1
176
1
 91
33
178
0
145
0.0
301
CELL_VALUE
 90
4
  1
Mounting Hole Depth
304
ACVALUE_END
170
5
140
0.125
171
1
172
0
173
0
174
0
175
1
176
1
 91
33
178
0
145
0.0
301
CELL_VALUE
 90
4
  1
.62 in.
304
ACVALUE_END
170
5
140
0.125
171
1
172
0
173
0
174
0
175
1
176
1
 91
33
178
0
145
0.0
301
CELL_VALUE
 90
4
  1
15,7 mm
304
ACVALUE_END
170
5
140
0.125
171
1
172
0
173
0
174
0
175
1
176
1
 91
33
178
0
145
0.0
301
CELL_VALUE
 90
4
  1
Mounting Hole Quantity
304
ACVALUE_END
170
5
140
0.125
171
1
172
0
173
0
174
0
175
2
176
1
 91
33
178
0
145
0.0
301
CELL_VALUE
 90
4
  1
2
304
ACVALUE_END
170
5
140
0.125
171
1
172
0
173
1
174
0
175
1
176
1
 91
1
178
0
145
0.0
170
1
171
1
172
0
173
0
174
0
175
1
176
1
 91
33
178
0
145
0.0
301
CELL_VALUE
 90
4
  1
Includes integral cartridge(s)
304
ACVALUE_END
170
5
140
0.125
171
1
172
0
173
0
174
0
175
2
176
1
 91
33
178
0
145
0.0
301
CELL_VALUE
 90
4
  1
Yes (see Included Components)
304
ACVALUE_END
170
5
140
0.125
171
1
172
0
173
1
174
0
175
1
176
1
 91
1
178
0
145
0.0
170
1
  0
ACAD_TABLE
  5
296
100
AcDbEntity
  8
0
 62
2
  6
CONTINUOUS
100
AcDbBlockReference
  2
*T3
 10
0.52125
 20
1.959
 30
0.0
100
AcDbTable
342
       3D0
343
211
 11
1.0
 21
0.0
 31
0.0
 90
22
 91
5
 92
3
 93
16
 94
0
 95
0
 96
0
 41
0.05
141
0.34375
141
0.344
141
0.25
141
0.25
141
0.25
142
1.3
142
2.0
142
1.3
171
1
172
0
173
0
174
0
175
3
176
1
 91
33
178
0
145
0.0
301
CELL_VALUE
 90
4
  1
Port Headings
304
ACVALUE_END
170
5
140
0.145
171
1
172
0
173
1
174
0
175
1
176
1
 91
1
178
0
145
0.0
170
1
171
1
172
0
173
1
174
0
175
1
176
1
 91
1
178
0
145
0.0
170
1
171
1
172
0
173
0
174
0
175
1
176
1
 91
33
178
0
145
0.0
301
CELL_VALUE
 90
4
  1
Product
304
ACVALUE_END
170
5
140
0.145
171
1
172
0
173
0
174
0
175
1
176
1
 91
33
178
0
145
0.0
301
CELL_VALUE
 90
4
  1
Port
304
ACVALUE_END
170
5
140
0.145
171
1
172
0
173
0
174
0
175
1
176
1
 91
33
178
0
145
0.0
301
CELL_VALUE
 90
4
  1
Size
304
ACVALUE_END
170
5
140
0.145
171
1
172
0
173
0
174
0
175
1
176
1
 91
33
178
0
145
0.0
301
CELL_VALUE
 90
4
  1
E5U
304
ACVALUE_END
170
5
140
0.125
171
1
172
0
173
0
174
0
175
1
176
1
 91
33
178
0
145
0.0
301
CELL_VALUE
 90
4
  1
Ports 1 &  2
304
ACVALUE_END
170
5
140
0.125
171
1
172
0
173
0
174
0
175
1
176
1
 91
33
178
0
145
0.0
301
CELL_VALUE
 90
4
  1
3/8" BSPP
304
ACVALUE_END
170
5
140
0.125
171
1
172
0
173
0
174
0
175
1
176
1
 91
33
178
0
145
0.0
301
CELL_VALUE
 90
4
  1
E5U
304
ACVALUE_END
170
5
140
0.125
171
1
172
0
173
0
174
0
175
1
176
1
 91
33
178
0
145
0.0
301
CELL_VALUE
 90
4
  1
Port 3
304
ACVALUE_END
170
5
140
0.125
171
1
172
0
173
0
174
0
175
1
176
1
 91
33
178
0
145
0.0
301
CELL_VALUE
 90
4
  1
3/8" BSPP
304
ACVALUE_END
170
5
140
0.125
171
1
172
0
173
0
174
0
175
1
176
1
 91
33
178
0
145
0.0
301
CELL_VALUE
 90
4
  1
E5U
304
ACVALUE_END
170
5
140
0.125
171
1
172
0
173
0
174
0
175
1
176
1
 91
33
178
0
145
0.0
301
CELL_VALUE
 90
4
  1
Gage Port
304
ACVALUE_END
170
5
140
0.125
171
1
172
0
173
0
174
0
175
1
176
1
 91
33
178
0
145
0.0
301
CELL_VALUE
 90
4
  1
1/4" BSPP
304
ACVALUE_END
170
5
140
0.125
  0
MTEXT
  5
297
100
AcDbEntity
  8
0
100
AcDbMText
 62
2
  6
CONTINUOUS
  7
STANDARD
 71
1
 72
1
 10
0.52125
 20
5.75995
 30
0.0
 11
1.0
 21
0.0
 31
0.0
 44
0.6
  3
Notes\P \P1. Important: Carefully consider\P   the maximum system pressure. The\P   pressure rating of the manifold is\P   dependent on the manifold material,\P   with the port type/size a secondary\P   consideration. Manifolds\P   constructed of alu
  3
minum are not\P   rated for pressures higher than\P   3000 psi (210 bar), regardless of\P   the port type/size specified.\P2. This drawing is for reference\P   only. It is generated by an\P   automated process and does not fall\P   under Sun's docume
  1
nt control\P   process.\P3. Body Features: Through port 2\P   with reverse flow check and high\P   capacity port 3.
 40
0.1
 41
3.04
  0
LINE
  5
298
100
AcDbEntity
  8
0
100
AcDbLine
 62
7
  6
CONTINUOUS
 10
0.30125
 20
0.30125
 11
0.30125
 21
16.69875
  0
LINE
  5
299
100
AcDbEntity
  8
0
100
AcDbLine
 62
7
  6
CONTINUOUS
 10
0.30125
 20
0.30125
 11
21.69875
 21
0.30125
  0
LINE
  5
29A
100
AcDbEntity
  8
0
100
AcDbLine
 62
7
  6
CONTINUOUS
 10
0.30125
 20
16.69875
 11
21.69875
 21
16.69875
  0
LINE
  5
29B
100
AcDbEntity
  8
0
100
AcDbLine
 62
7
  6
CONTINUOUS
 10
21.69875
 20
0.30125
 11
21.69875
 21
16.69875
  0
LINE
  5
29C
100
AcDbEntity
  8
0
100
AcDbLine
 62
7
  6
CONTINUOUS
 10
9.4690691062
 20
6.3730020072
 11
11.883883815
 21
6.2055340384
  0
LINE
  5
29D
100
AcDbEntity
  8
0
100
AcDbLine
 62
7
  6
CONTINUOUS
 10
10.116116185
 20
10.2580013853
 11
9.4690691062
 21
9.6330018641
  0
LINE
  5
29E
100
AcDbEntity
  8
0
100
AcDbLine
 62
7
  6
CONTINUOUS
 10
11.1787853215
 20
10.722397311
 11
11.2039509339
 21
10.7348286417
  0
LINE
  5
29F
100
AcDbEntity
  8
0
100
AcDbLine
 62
4
  6
CONTINUOUS
 10
10.7175283394
 20
6.7288151313
 11
10.7030394515
 21
6.7298199391
  0
LINE
  5
2A0
100
AcDbEntity
  8
0
100
AcDbLine
 62
4
  6
CONTINUOUS
 10
10.7175283394
 20
6.7771114267
 11
10.7030394515
 21
6.7781162345
  0
LINE
  5
2A1
100
AcDbEntity
  8
0
100
AcDbLine
 62
4
  6
CONTINUOUS
 10
10.7030394515
 20
6.8457310425
 11
10.7175283394
 21
6.8447262347
  0
LINE
  5
2A2
100
AcDbEntity
  8
0
100
AcDbLine
 62
7
  6
CONTINUOUS
 10
9.4690691062
 20
6.3730020072
 11
9.4690691062
 21
9.6330018641
  0
LINE
  5
2A3
100
AcDbEntity
  8
0
100
AcDbLine
 62
4
  6
CONTINUOUS
 10
9.5704913325
 20
9.0628334536
 11
9.5777357765
 21
9.0719903086
  0
LINE
  5
2A4
100
AcDbEntity
  8
0
100
AcDbLine
 62
4
  6
CONTINUOUS
 10
10.7030394515
 20
6.7298199391
 11
10.6885505636
 21
6.7404840032
  0
LINE
  5
2A5
100
AcDbEntity
  8
0
100
AcDbLine
 62
4
  6
CONTINUOUS
 10
10.7030394515
 20
6.7781162345
 11
10.6885505636
 21
6.7887802986
  0
LINE
  5
2A6
100
AcDbEntity
  8
0
100
AcDbLine
 62
4
  6
CONTINUOUS
 10
10.7175283394
 20
6.8447262347
 11
10.7320172274
 21
6.834062168
  0
LINE
  5
2A7
100
AcDbEntity
  8
0
100
AcDbLine
 62
4
  6
CONTINUOUS
 10
9.6067135523
 20
7.6964340543
 11
9.5922246644
 21
7.7070981184
  0
LINE
  5
2A8
100
AcDbEntity
  8
0
100
AcDbLine
 62
4
  6
CONTINUOUS
 10
9.5922246644
 20
7.7070981184
 11
9.5849802204
 21
7.7172597855
  0
LINE
  5
2A9
100
AcDbEntity
  8
0
100
AcDbLine
 62
4
  6
CONTINUOUS
 10
9.5704913325
 20
9.0241964197
 11
9.5704913325
 21
9.0628334536
  0
LINE
  5
2AA
100
AcDbEntity
  8
0
100
AcDbLine
 62
4
  6
CONTINUOUS
 10
9.5849802204
 20
7.7172597855
 11
9.5849802204
 21
7.7365782982
  0
LINE
  5
2AB
100
AcDbEntity
  8
0
100
AcDbLine
 62
4
  6
CONTINUOUS
 10
9.6429357722
 20
9.0191723807
 11
9.6356913282
 21
8.9906970088
  0
LINE
  5
2AC
100
AcDbEntity
  8
0
100
AcDbLine
 62
4
  6
CONTINUOUS
 10
9.6356913282
 20
8.9906970088
 11
9.6212024403
 21
8.972383297
  0
LINE
  5
2AD
100
AcDbEntity
  8
0
100
AcDbLine
 62
4
  6
CONTINUOUS
 10
10.6885505636
 20
6.7404840032
 11
10.6813061196
 21
6.7506456703
  0
LINE
  5
2AE
100
AcDbEntity
  8
0
100
AcDbLine
 62
4
  6
CONTINUOUS
 10
9.6356913282
 20
7.7813577663
 11
9.6429357722
 21
7.8098331383
  0
LINE
  5
2AF
100
AcDbEntity
  8
0
100
AcDbLine
 62
4
  6
CONTINUOUS
 10
9.5777357765
 20
9.0719903086
 11
9.5922246644
 21
9.0806447597
  0
LINE
  5
2B0
100
AcDbEntity
  8
0
100
AcDbLine
 62
4
  6
CONTINUOUS
 10
9.6212024403
 20
8.972383297
 11
9.6067135523
 21
8.9637288485
  0
LINE
  5
2B1
100
AcDbEntity
  8
0
100
AcDbLine
 62
4
  6
CONTINUOUS
 10
10.6885505636
 20
6.7887802986
 11
10.6740616757
 21
6.8091036225
  0
LINE
  5
2B2
100
AcDbEntity
  8
0
100
AcDbLine
 62
4
  6
CONTINUOUS
 10
10.7320172274
 20
6.834062168
 11
10.7392616713
 21
6.8239005052
  0
LINE
  5
2B3
100
AcDbEntity
  8
0
100
AcDbLine
 62
4
  6
CONTINUOUS
 10
9.6356913282
 20
9.0486525605
 11
9.6429357722
 21
9.0191723807
  0
LINE
  5
2B4
100
AcDbEntity
  8
0
100
AcDbLine
 62
4
  6
CONTINUOUS
 10
10.0582838952
 20
7.6892656892
 11
10.0582838952
 21
7.7182434657
  0
LINE
  5
2B5
100
AcDbEntity
  8
0
100
AcDbLine
 62
4
  6
CONTINUOUS
 10
11.0522216293
 20
7.5334025437
 11
10.9942660763
 21
7.5374217749
  0
LINE
  5
2B6
100
AcDbEntity
  8
0
100
AcDbLine
 62
4
  6
CONTINUOUS
 10
11.1681327353
 20
7.5253640812
 11
11.2260882883
 21
7.5213448499
  0
LINE
  5
2B7
100
AcDbEntity
  8
0
100
AcDbLine
 62
4
  6
CONTINUOUS
 10
10.258713516
 20
7.6174102947
 11
10.2442246277
 21
7.6184151025
  0
LINE
  5
2B8
100
AcDbEntity
  8
0
100
AcDbLine
 62
4
  6
CONTINUOUS
 10
11.2260882883
 20
7.5793004029
 11
11.1681327353
 21
7.5833196342
  0
LINE
  5
2B9
100
AcDbEntity
  8
0
100
AcDbLine
 62
4
  6
CONTINUOUS
 10
10.6764764606
 20
7.6174161126
 11
10.6185209076
 21
7.6214353439
  0
LINE
  5
2BA
100
AcDbEntity
  8
0
100
AcDbLine
 62
4
  6
CONTINUOUS
 10
10.5798838723
 20
7.6241148314
 11
10.5219283193
 21
7.6281340626
  0
LINE
  5
2BB
100
AcDbEntity
  8
0
100
AcDbLine
 62
4
  6
CONTINUOUS
 10
10.2128320365
 20
7.6495699626
 11
10.1548764835
 21
7.6535891939
  0
LINE
  5
2BC
100
AcDbEntity
  8
0
100
AcDbLine
 62
4
  6
CONTINUOUS
 10
10.1162394482
 20
7.6562686814
 11
10.0582838952
 21
7.6602879127
  0
LINE
  5
2BD
100
AcDbEntity
  8
0
100
AcDbLine
 62
4
  6
CONTINUOUS
 10
10.4253357309
 20
7.6348327814
 11
10.4639727662
 21
7.6321532939
  0
LINE
  5
2BE
100
AcDbEntity
  8
0
100
AcDbLine
 62
4
  6
CONTINUOUS
 10
10.8203994173
 20
7.6074350217
 11
10.8783549703
 21
7.6034157904
  0
LINE
  5
2BF
100
AcDbEntity
  8
0
100
AcDbLine
 62
4
  6
CONTINUOUS
 10
11.7414097477
 20
7.5483923703
 11
11.7269208598
 21
7.5493971781
  0
LINE
  5
2C0
100
AcDbEntity
  8
0
100
AcDbLine
 62
4
  6
CONTINUOUS
 10
9.6212024403
 20
7.6954292465
 11
9.6067135523
 21
7.6964340543
  0
LINE
  5
2C1
100
AcDbEntity
  8
0
100
AcDbLine
 62
4
  6
CONTINUOUS
 10
10.1162394482
 20
7.6562686814
 11
10.1162394482
 21
7.6852464579
  0
LINE
  5
2C2
100
AcDbEntity
  8
0
100
AcDbLine
 62
4
  6
CONTINUOUS
 10
10.2128320365
 20
7.6495699626
 11
10.2128320365
 21
7.7075255157
  0
LINE
  5
2C3
100
AcDbEntity
  8
0
100
AcDbLine
 62
4
  6
CONTINUOUS
 10
10.2514690719
 20
7.7048460282
 11
10.2514690719
 21
7.6468904751
  0
LINE
  5
2C4
100
AcDbEntity
  8
0
100
AcDbLine
 62
4
  6
CONTINUOUS
 10
10.4832912839
 20
7.6501320678
 11
10.4253357309
 21
7.6541512991
  0
LINE
  5
2C5
100
AcDbEntity
  8
0
100
AcDbLine
 62
4
  6
CONTINUOUS
 10
10.1162394482
 20
7.6852464579
 11
10.0582838952
 21
7.6892656892
  0
LINE
  5
2C6
100
AcDbEntity
  8
0
100
AcDbLine
 62
4
  6
CONTINUOUS
 10
10.3866986956
 20
7.6954678219
 11
10.3287431426
 21
7.6994870532
  0
LINE
  5
2C7
100
AcDbEntity
  8
0
100
AcDbLine
 62
4
  6
CONTINUOUS
 10
10.2128320365
 20
7.7075255157
 11
10.1548764835
 21
7.7115447469
  0
LINE
  5
2C8
100
AcDbEntity
  8
0
100
AcDbLine
 62
4
  6
CONTINUOUS
 10
10.0582838952
 20
7.7182434657
 11
10.1162394482
 21
7.7142242344
  0
LINE
  5
2C9
100
AcDbEntity
  8
0
100
AcDbLine
 62
4
  6
CONTINUOUS
 10
10.4253357309
 20
7.6927883344
 11
10.4832912839
 21
7.6887691031
  0
LINE
  5
2CA
100
AcDbEntity
  8
0
100
AcDbLine
 62
4
  6
CONTINUOUS
 10
10.6185209076
 20
7.6793908969
 11
10.6764764606
 21
7.6753716656
  0
LINE
  5
2CB
100
AcDbEntity
  8
0
100
AcDbLine
 62
4
  6
CONTINUOUS
 10
10.715113496
 20
7.6726921781
 11
10.773069049
 21
7.6686729469
  0
LINE
  5
2CC
100
AcDbEntity
  8
0
100
AcDbLine
 62
4
  6
CONTINUOUS
 10
11.0811994058
 20
7.6473040341
 11
11.1391549588
 21
7.6432848028
  0
LINE
  5
2CD
100
AcDbEntity
  8
0
100
AcDbLine
 62
4
  6
CONTINUOUS
 10
11.1681327353
 20
7.6412751872
 11
11.2260882883
 21
7.6372559559
  0
LINE
  5
2CE
100
AcDbEntity
  8
0
100
AcDbLine
 62
4
  6
CONTINUOUS
 10
10.715113496
 20
7.7306477311
 11
10.7537505313
 21
7.7279682436
  0
LINE
  5
2CF
100
AcDbEntity
  8
0
100
AcDbLine
 62
4
  6
CONTINUOUS
 10
11.7631430796
 20
7.6627962621
 11
11.7051875279
 21
7.6668154932
  0
LINE
  5
2D0
100
AcDbEntity
  8
0
100
AcDbLine
 62
4
  6
CONTINUOUS
 10
9.6429357722
 20
7.8098331383
 11
9.5849802204
 21
7.8138523694
  0
LINE
  5
2D1
100
AcDbEntity
  8
0
100
AcDbLine
 62
4
  6
CONTINUOUS
 10
9.5777357765
 20
8.9753977204
 11
9.5704913325
 21
8.9855593875
  0
LINE
  5
2D2
100
AcDbEntity
  8
0
100
AcDbLine
 62
4
  6
CONTINUOUS
 10
9.6212024403
 20
9.0689758852
 11
9.6356913282
 21
9.0486525605
  0
LINE
  5
2D3
100
AcDbEntity
  8
0
100
AcDbLine
 62
4
  6
CONTINUOUS
 10
10.2901061072
 20
7.7021665407
 11
10.2901061072
 21
7.5862554346
  0
LINE
  5
2D4
100
AcDbEntity
  8
0
100
AcDbLine
 62
4
  6
CONTINUOUS
 10
10.3218436534
 20
8.2911121751
 11
10.3218436534
 21
8.175201069
  0
LINE
  5
2D5
100
AcDbEntity
  8
0
100
AcDbLine
 62
4
  6
CONTINUOUS
 10
10.3287431426
 20
7.6994870532
 11
10.3287431426
 21
7.6415315001
  0
LINE
  5
2D6
100
AcDbEntity
  8
0
100
AcDbLine
 62
4
  6
CONTINUOUS
 10
10.3687600955
 20
8.1885061312
 11
10.3687600955
 21
8.2712997786
  0
LINE
  5
2D7
100
AcDbEntity
  8
0
100
AcDbLine
 62
4
  6
CONTINUOUS
 10
10.3866986956
 20
7.6375122689
 11
10.3866986956
 21
7.6954678219
  0
LINE
  5
2D8
100
AcDbEntity
  8
0
100
AcDbLine
 62
4
  6
CONTINUOUS
 10
10.4253357309
 20
7.6348327814
 11
10.4253357309
 21
7.6927883344
  0
LINE
  5
2D9
100
AcDbEntity
  8
0
100
AcDbLine
 62
4
  6
CONTINUOUS
 10
10.4267156485
 20
8.2838392775
 11
10.4267156485
 21
8.1679281715
  0
LINE
  5
2DA
100
AcDbEntity
  8
0
100
AcDbLine
 62
4
  6
CONTINUOUS
 10
10.4598330916
 20
8.1821901974
 11
10.4598330916
 21
8.2649838449
  0
LINE
  5
2DB
100
AcDbEntity
  8
0
100
AcDbLine
 62
4
  6
CONTINUOUS
 10
9.5849802204
 20
7.7365782982
 11
9.5922246644
 21
7.7457351575
  0
LINE
  5
2DC
100
AcDbEntity
  8
0
100
AcDbLine
 62
4
  6
CONTINUOUS
 10
9.6212024403
 20
7.763044058
 11
9.6356913282
 21
7.7813577663
  0
LINE
  5
2DD
100
AcDbEntity
  8
0
100
AcDbLine
 62
4
  6
CONTINUOUS
 10
9.6429357722
 20
7.7132405544
 11
9.6356913282
 21
7.704083695
  0
LINE
  5
2DE
100
AcDbEntity
  8
0
100
AcDbLine
 62
4
  6
CONTINUOUS
 10
10.7882478877
 20
7.8878513923
 11
10.7385716989
 21
7.8912964477
  0
LINE
  5
2DF
100
AcDbEntity
  8
0
100
AcDbLine
 62
4
  6
CONTINUOUS
 10
10.7054542386
 20
7.8935931514
 11
10.6557780463
 21
7.897038207
  0
LINE
  5
2E0
100
AcDbEntity
  8
0
100
AcDbLine
 62
4
  6
CONTINUOUS
 10
10.6723367817
 20
7.9455660401
 11
10.7054542386
 21
7.9432693367
  0
LINE
  5
2E1
100
AcDbEntity
  8
0
100
AcDbLine
 62
4
  6
CONTINUOUS
 10
10.7551304274
 20
7.9398242813
 11
10.7882478877
 21
7.9375275776
  0
LINE
  5
2E2
100
AcDbEntity
  8
0
100
AcDbLine
 62
4
  6
CONTINUOUS
 10
10.2390500457
 20
8.2250994344
 11
10.1948934365
 21
8.2502400137
  0
LINE
  5
2E3
100
AcDbEntity
  8
0
100
AcDbLine
 62
4
  6
CONTINUOUS
 10
10.3853188171
 20
8.1707990515
 11
10.3687600955
 21
8.1885061312
  0
LINE
  5
2E4
100
AcDbEntity
  8
0
100
AcDbLine
 62
4
  6
CONTINUOUS
 10
10.6557780463
 20
7.9632731242
 11
10.6723367817
 21
7.9455660401
  0
LINE
  5
2E5
100
AcDbEntity
  8
0
100
AcDbLine
 62
4
  6
CONTINUOUS
 10
10.6226605894
 20
7.9986872863
 11
10.6061018679
 21
8.0163943677
  0
LINE
  5
2E6
100
AcDbEntity
  8
0
100
AcDbLine
 62
4
  6
CONTINUOUS
 10
10.4763918132
 20
8.1644831178
 11
10.4598330916
 21
8.1821901974
  0
LINE
  5
2E7
100
AcDbEntity
  8
0
100
AcDbLine
 62
4
  6
CONTINUOUS
 10
10.4832912839
 20
7.6887691031
 11
10.4832912839
 21
7.6501320678
  0
LINE
  5
2E8
100
AcDbEntity
  8
0
100
AcDbLine
 62
4
  6
CONTINUOUS
 10
10.5177886446
 20
8.2609646136
 11
10.5177886446
 21
8.1781709662
  0
LINE
  5
2E9
100
AcDbEntity
  8
0
100
AcDbLine
 62
4
  6
CONTINUOUS
 10
10.5647050364
 20
8.0027065175
 11
10.5647050364
 21
7.9033541417
  0
LINE
  5
2EA
100
AcDbEntity
  8
0
100
AcDbLine
 62
4
  6
CONTINUOUS
 10
10.5798838723
 20
7.6241148314
 11
10.5798838723
 21
7.6820703844
  0
LINE
  5
2EB
100
AcDbEntity
  8
0
100
AcDbLine
 62
4
  6
CONTINUOUS
 10
10.6143811961
 20
8.2542658974
 11
10.6143811961
 21
8.17147225
  0
LINE
  5
2EC
100
AcDbEntity
  8
0
100
AcDbLine
 62
4
  6
CONTINUOUS
 10
10.6185209076
 20
7.5634797909
 11
10.6185209076
 21
7.6793908969
  0
LINE
  5
2ED
100
AcDbEntity
  8
0
100
AcDbLine
 62
4
  6
CONTINUOUS
 10
10.6226605894
 20
7.8993349104
 11
10.6226605894
 21
7.9986872863
  0
LINE
  5
2EE
100
AcDbEntity
  8
0
100
AcDbLine
 62
4
  6
CONTINUOUS
 10
10.6557780463
 20
7.9963905828
 11
10.6557780463
 21
7.9632731242
  0
LINE
  5
2EF
100
AcDbEntity
  8
0
100
AcDbLine
 62
7
  6
CONTINUOUS
 10
12.0559560582
 20
10.1957633737
 11
12.0571750287
 21
10.1969189081
  0
LINE
  5
2F0
100
AcDbEntity
  8
0
100
AcDbLine
 62
7
  6
CONTINUOUS
 10
11.9967049262
 20
10.1406239753
 11
12.0559560624
 21
10.1957633776
  0
LINE
  5
2F1
100
AcDbEntity
  8
0
100
AcDbLine
 62
4
  6
CONTINUOUS
 10
10.7882478877
 20
8.0037624983
 11
10.7385716989
 21
8.0072075537
  0
LINE
  5
2F2
100
AcDbEntity
  8
0
100
AcDbLine
 62
4
  6
CONTINUOUS
 10
10.7054542386
 20
8.0095042574
 11
10.6723367817
 21
8.0118009608
  0
LINE
  5
2F3
100
AcDbEntity
  8
0
100
AcDbLine
 62
4
  6
CONTINUOUS
 10
10.6061018679
 20
8.0163943677
 11
10.5812637718
 21
8.0181168955
  0
LINE
  5
2F4
100
AcDbEntity
  8
0
100
AcDbLine
 62
4
  6
CONTINUOUS
 10
11.0918245848
 20
8.1218027101
 11
11.0504277671
 21
8.1246735891
  0
LINE
  5
2F5
100
AcDbEntity
  8
0
100
AcDbLine
 62
4
  6
CONTINUOUS
 10
10.8876002673
 20
8.1359657146
 11
10.8213653535
 21
8.1405591215
  0
LINE
  5
2F6
100
AcDbEntity
  8
0
100
AcDbLine
 62
4
  6
CONTINUOUS
 10
10.7882478828
 20
8.1428558259
 11
10.7385716906
 21
8.1463008815
  0
LINE
  5
2F7
100
AcDbEntity
  8
0
100
AcDbLine
 62
4
  6
CONTINUOUS
 10
10.5978224746
 20
8.1560618728
 11
10.5647050315
 21
8.1583585753
  0
LINE
  5
2F8
100
AcDbEntity
  8
0
100
AcDbLine
 62
4
  6
CONTINUOUS
 10
10.5012299231
 20
8.162760589
 11
10.4763918132
 21
8.1644831178
  0
LINE
  5
2F9
100
AcDbEntity
  8
0
100
AcDbLine
 62
4
  6
CONTINUOUS
 10
10.4267156485
 20
8.1679281715
 11
10.3853188171
 21
8.1707990515
  0
LINE
  5
2FA
100
AcDbEntity
  8
0
100
AcDbLine
 62
4
  6
CONTINUOUS
 10
10.3218436534
 20
8.175201069
 11
10.2721674888
 21
8.1786461228
  0
LINE
  5
2FB
100
AcDbEntity
  8
0
100
AcDbLine
 62
4
  6
CONTINUOUS
 10
9.5922246644
 20
8.9647336563
 11
9.5777357765
 21
8.9753977204
  0
LINE
  5
2FC
100
AcDbEntity
  8
0
100
AcDbLine
 62
4
  6
CONTINUOUS
 10
9.6067135523
 20
9.0796399519
 11
9.6212024403
 21
9.0689758852
  0
LINE
  5
2FD
100
AcDbEntity
  8
0
100
AcDbLine
 62
4
  6
CONTINUOUS
 10
10.5012299231
 20
8.278671695
 11
10.5177886446
 21
8.2609646136
  0
LINE
  5
2FE
100
AcDbEntity
  8
0
100
AcDbLine
 62
4
  6
CONTINUOUS
 10
10.5978224746
 20
8.2719729788
 11
10.6143811961
 21
8.2542658974
  0
LINE
  5
2FF
100
AcDbEntity
  8
0
100
AcDbLine
 62
4
  6
CONTINUOUS
 10
10.6740616757
 20
6.8091036225
 11
10.6740616757
 21
6.8187628823
  0
LINE
  5
300
100
AcDbEntity
  8
0
100
AcDbLine
 62
4
  6
CONTINUOUS
 10
10.6764764606
 20
7.6753716656
 11
10.6764764606
 21
7.6174161126
  0
LINE
  5
301
100
AcDbEntity
  8
0
100
AcDbLine
 62
4
  6
CONTINUOUS
 10
10.6813061196
 20
6.7506456703
 11
10.6813061196
 21
6.7603049266
  0
LINE
  5
302
100
AcDbEntity
  8
0
100
AcDbLine
 62
4
  6
CONTINUOUS
 10
10.7054542386
 20
7.9432693367
 11
10.7054542386
 21
7.8935931514
  0
LINE
  5
303
100
AcDbEntity
  8
0
100
AcDbLine
 62
4
  6
CONTINUOUS
 10
10.715113496
 20
7.6147366251
 11
10.715113496
 21
7.7306477311
  0
LINE
  5
304
100
AcDbEntity
  8
0
100
AcDbLine
 62
4
  6
CONTINUOUS
 10
10.773069049
 20
7.6686729469
 11
10.773069049
 21
7.6107173939
  0
LINE
  5
305
100
AcDbEntity
  8
0
100
AcDbLine
 62
4
  6
CONTINUOUS
 10
10.7882478828
 20
8.2587669319
 11
10.7882478828
 21
8.1428558259
  0
LINE
  5
306
100
AcDbEntity
  8
0
100
AcDbLine
 62
4
  6
CONTINUOUS
 10
10.7882478877
 20
8.0037624983
 11
10.7882478877
 21
7.8878513923
  0
LINE
  5
307
100
AcDbEntity
  8
0
100
AcDbLine
 62
4
  6
CONTINUOUS
 10
10.8203994173
 20
7.6653905747
 11
10.8203994173
 21
7.6074350217
  0
LINE
  5
308
100
AcDbEntity
  8
0
100
AcDbLine
 62
4
  6
CONTINUOUS
 10
12.0814005657
 20
9.9013204345
 11
12.0852828481
 21
9.9050704315
  0
LINE
  5
309
100
AcDbEntity
  8
0
100
AcDbLine
 62
4
  6
CONTINUOUS
 10
12.1435170839
 20
9.9613203872
 11
12.1473993663
 21
9.9650703842
  0
LINE
  5
30A
100
AcDbEntity
  8
0
100
AcDbLine
 62
4
  6
CONTINUOUS
 10
12.1687519194
 20
9.9856953679
 11
12.1765164841
 21
9.993195362
  0
LINE
  5
30B
100
AcDbEntity
  8
0
100
AcDbLine
 62
4
  6
CONTINUOUS
 10
12.2924275876
 20
9.9851568997
 11
12.2846630228
 21
9.9776569056
  0
LINE
  5
30C
100
AcDbEntity
  8
0
100
AcDbLine
 62
4
  6
CONTINUOUS
 10
12.2633104697
 20
9.9570319219
 11
12.2594281873
 21
9.9532819248
  0
LINE
  5
30D
100
AcDbEntity
  8
0
100
AcDbLine
 62
4
  6
CONTINUOUS
 10
12.2011939515
 20
9.8970319692
 11
12.1973116691
 21
9.8932819721
  0
LINE
  5
30E
100
AcDbEntity
  8
0
100
AcDbLine
 62
4
  6
CONTINUOUS
 10
10.3687600955
 20
8.2712997786
 11
10.3853188171
 21
8.2867101575
  0
LINE
  5
30F
100
AcDbEntity
  8
0
100
AcDbLine
 62
4
  6
CONTINUOUS
 10
10.4598330916
 20
8.2649838449
 11
10.4763918132
 21
8.2803942238
  0
LINE
  5
310
100
AcDbEntity
  8
0
100
AcDbLine
 62
4
  6
CONTINUOUS
 10
10.2887262103
 20
8.2271739569
 11
10.3218436534
 21
8.2248772544
  0
LINE
  5
311
100
AcDbEntity
  8
0
100
AcDbLine
 62
4
  6
CONTINUOUS
 10
10.7551304121
 20
8.1948287156
 11
10.7882478828
 21
8.1925320112
  0
LINE
  5
312
100
AcDbEntity
  8
0
100
AcDbLine
 62
4
  6
CONTINUOUS
 10
10.9759134857
 20
8.2126348178
 11
10.9317568765
 21
8.215697089
  0
LINE
  5
313
100
AcDbEntity
  8
0
100
AcDbLine
 62
4
  6
CONTINUOUS
 10
10.7882478828
 20
8.2587669319
 11
10.7385716906
 21
8.2622119875
  0
LINE
  5
314
100
AcDbEntity
  8
0
100
AcDbLine
 62
4
  6
CONTINUOUS
 10
10.3218436534
 20
8.2911121751
 11
10.2721674888
 21
8.2945572288
  0
LINE
  5
315
100
AcDbEntity
  8
0
100
AcDbLine
 62
4
  6
CONTINUOUS
 10
10.3853188171
 20
8.2867101575
 11
10.4267156485
 21
8.2838392775
  0
LINE
  5
316
100
AcDbEntity
  8
0
100
AcDbLine
 62
4
  6
CONTINUOUS
 10
10.4763918132
 20
8.2803942238
 11
10.5012299231
 21
8.278671695
  0
LINE
  5
317
100
AcDbEntity
  8
0
100
AcDbLine
 62
4
  6
CONTINUOUS
 10
10.5647050315
 20
8.2742696813
 11
10.5978224746
 21
8.2719729788
  0
LINE
  5
318
100
AcDbEntity
  8
0
100
AcDbLine
 62
4
  6
CONTINUOUS
 10
11.0504277671
 20
8.2405846952
 11
11.0918245848
 21
8.2377138161
  0
LINE
  5
319
100
AcDbEntity
  8
0
100
AcDbLine
 62
4
  6
CONTINUOUS
 10
11.1580595055
 20
8.18344422
 11
11.1139028928
 21
8.2085847978
  0
LINE
  5
31A
100
AcDbEntity
  8
0
100
AcDbLine
 62
4
  6
CONTINUOUS
 10
11.7269208598
 20
7.5493971781
 11
11.7124319718
 21
7.5600612422
  0
LINE
  5
31B
100
AcDbEntity
  8
0
100
AcDbLine
 62
4
  6
CONTINUOUS
 10
11.0504277671
 20
8.1246735891
 11
11.0338690387
 21
8.1423806693
  0
LINE
  5
31C
100
AcDbEntity
  8
0
100
AcDbLine
 62
4
  6
CONTINUOUS
 10
10.8544827966
 20
8.254173525
 11
10.8544827966
 21
8.138262419
  0
LINE
  5
31D
100
AcDbEntity
  8
0
100
AcDbLine
 62
4
  6
CONTINUOUS
 10
10.8783549703
 20
7.6613713434
 11
10.8783549703
 21
7.5454602374
  0
LINE
  5
31E
100
AcDbEntity
  8
0
100
AcDbLine
 62
4
  6
CONTINUOUS
 10
10.9942660763
 20
7.5374217749
 11
10.9942660763
 21
7.6533328809
  0
LINE
  5
31F
100
AcDbEntity
  8
0
100
AcDbLine
 62
7
  6
CONTINUOUS
 10
11.883883815
 20
9.4655338952
 11
12.5309308938
 21
10.0905334165
  0
LINE
  5
320
100
AcDbEntity
  8
0
100
AcDbLine
 62
4
  6
CONTINUOUS
 10
10.5177886446
 20
8.1781709662
 11
10.5012299231
 21
8.162760589
  0
LINE
  5
321
100
AcDbEntity
  8
0
100
AcDbLine
 62
4
  6
CONTINUOUS
 10
10.6143811961
 20
8.17147225
 11
10.5978224746
 21
8.1560618728
  0
LINE
  5
322
100
AcDbEntity
  8
0
100
AcDbLine
 62
4
  6
CONTINUOUS
 10
9.5922246644
 20
7.7457351575
 11
9.6212024403
 21
7.763044058
  0
LINE
  5
323
100
AcDbEntity
  8
0
100
AcDbLine
 62
4
  6
CONTINUOUS
 10
9.6356913282
 20
7.704083695
 11
9.6212024403
 21
7.6954292465
  0
LINE
  5
324
100
AcDbEntity
  8
0
100
AcDbLine
 62
4
  6
CONTINUOUS
 10
10.1948934365
 20
8.2502400137
 11
10.2390500457
 21
8.2692560488
  0
LINE
  5
325
100
AcDbEntity
  8
0
100
AcDbLine
 62
4
  6
CONTINUOUS
 10
10.9538351811
 20
8.1313723077
 11
10.9207177104
 21
8.2495801182
  0
LINE
  5
326
100
AcDbEntity
  8
0
100
AcDbLine
 62
4
  6
CONTINUOUS
 10
11.0338690387
 20
8.1423806693
 11
11.0338690387
 21
8.2251743167
  0
LINE
  5
327
100
AcDbEntity
  8
0
100
AcDbLine
 62
4
  6
CONTINUOUS
 10
11.0522216293
 20
7.5334025437
 11
11.0522216293
 21
7.6493136497
  0
LINE
  5
328
100
AcDbEntity
  8
0
100
AcDbLine
 62
4
  6
CONTINUOUS
 10
11.0811994058
 20
7.531392928
 11
11.0811994058
 21
7.6473040341
  0
LINE
  5
329
100
AcDbEntity
  8
0
100
AcDbLine
 62
4
  6
CONTINUOUS
 10
11.0918245848
 20
8.2377138161
 11
11.0918245848
 21
8.1218027101
  0
LINE
  5
32A
100
AcDbEntity
  8
0
100
AcDbLine
 62
7
  6
CONTINUOUS
 10
11.1057018541
 20
10.2549688138
 11
11.1057018541
 21
10.6755680395
  0
LINE
  5
32B
100
AcDbEntity
  8
0
100
AcDbLine
 62
4
  6
CONTINUOUS
 10
11.1391549588
 20
7.6432848028
 11
11.1391549588
 21
7.5273736968
  0
LINE
  5
32C
100
AcDbEntity
  8
0
100
AcDbLine
 62
7
  6
CONTINUOUS
 10
11.1573372717
 20
9.9758463684
 11
11.1573372717
 21
10.155847147
  0
LINE
  5
32D
100
AcDbEntity
  8
0
100
AcDbLine
 62
4
  6
CONTINUOUS
 10
11.1681327353
 20
7.5833196342
 11
11.1681327353
 21
7.6412751872
  0
LINE
  5
32E
100
AcDbEntity
  8
0
100
AcDbLine
 62
4
  6
CONTINUOUS
 10
10.986952638
 20
8.2449867103
 11
10.9538351811
 21
8.1313723077
  0
LINE
  5
32F
100
AcDbEntity
  8
0
100
AcDbLine
 62
4
  6
CONTINUOUS
 10
10.5812637718
 20
8.0181168955
 11
10.5647050364
 21
8.0027065175
  0
LINE
  5
330
100
AcDbEntity
  8
0
100
AcDbLine
 62
4
  6
CONTINUOUS
 10
10.6723367817
 20
8.0118009608
 11
10.6557780463
 21
7.9963905828
  0
LINE
  5
331
100
AcDbEntity
  8
0
100
AcDbLine
 62
4
  6
CONTINUOUS
 10
11.7124319718
 20
7.5600612422
 11
11.7051875279
 21
7.5702229094
  0
LINE
  5
332
100
AcDbEntity
  8
0
100
AcDbLine
 62
7
  6
CONTINUOUS
 10
11.218756666
 20
10.1457664379
 11
11.218756666
 21
10.5663656636
  0
LINE
  5
333
100
AcDbEntity
  8
0
100
AcDbLine
 62
4
  6
CONTINUOUS
 10
11.2260882883
 20
7.5213448499
 11
11.2260882883
 21
7.5793004029
  0
LINE
  5
334
100
AcDbEntity
  8
0
100
AcDbLine
 62
7
  6
CONTINUOUS
 10
11.2606368935
 20
10.1349270511
 11
11.2606368935
 21
10.5555262769
  0
LINE
  5
335
100
AcDbEntity
  8
0
100
AcDbLine
 62
4
  6
CONTINUOUS
 10
11.3139875727
 20
8.7255541135
 11
11.3139875727
 21
8.8414652169
  0
LINE
  5
336
100
AcDbEntity
  8
0
100
AcDbLine
 62
4
  6
CONTINUOUS
 10
11.0338690387
 20
8.2251743167
 11
11.0504277671
 21
8.2405846952
  0
LINE
  5
337
100
AcDbEntity
  8
0
100
AcDbLine
 62
4
  6
CONTINUOUS
 10
11.1139028928
 20
8.1644281834
 11
11.1580595055
 21
8.18344422
  0
LINE
  5
338
100
AcDbEntity
  8
0
100
AcDbLine
 62
4
  6
CONTINUOUS
 10
9.6067135523
 20
8.9637288485
 11
9.5922246644
 21
8.9647336563
  0
LINE
  5
339
100
AcDbEntity
  8
0
100
AcDbLine
 62
4
  6
CONTINUOUS
 10
9.5994691084
 20
9.0221868041
 11
9.5704913325
 21
9.0241964197
  0
LINE
  5
33A
100
AcDbEntity
  8
0
100
AcDbLine
 62
4
  6
CONTINUOUS
 10
9.5922246644
 20
9.0806447597
 11
9.6067135523
 21
9.0796399519
  0
LINE
  5
33B
100
AcDbEntity
  8
0
100
AcDbLine
 62
7
  6
CONTINUOUS
 10
11.6825628724
 20
10.1056663851
 11
11.6825628724
 21
10.5262656108
  0
LINE
  5
33C
100
AcDbEntity
  8
0
100
AcDbLine
 62
4
  6
CONTINUOUS
 10
11.7051875279
 20
7.5702229094
 11
11.7051875279
 21
7.589541422
  0
LINE
  5
33D
100
AcDbEntity
  8
0
100
AcDbLine
 62
7
  6
CONTINUOUS
 10
11.7397723111
 20
10.1096338802
 11
11.7397723111
 21
10.5302331059
  0
LINE
  5
33E
100
AcDbEntity
  8
0
100
AcDbLine
 62
7
  6
CONTINUOUS
 10
11.883883815
 20
6.2055340384
 11
11.883883815
 21
9.4655338952
  0
LINE
  5
33F
100
AcDbEntity
  8
0
100
AcDbLine
 62
4
  6
CONTINUOUS
 10
10.6740616757
 20
6.8187628823
 11
10.6885505636
 21
6.8370765914
  0
LINE
  5
340
100
AcDbEntity
  8
0
100
AcDbLine
 62
4
  6
CONTINUOUS
 10
10.6813061196
 20
6.7603049266
 11
10.6885505636
 21
6.7694617791
  0
LINE
  5
341
100
AcDbEntity
  8
0
100
AcDbLine
 62
7
  6
CONTINUOUS
 10
12.0123372717
 20
9.9759021612
 11
12.0123372717
 21
10.1551715138
  0
LINE
  5
342
100
AcDbEntity
  8
0
100
AcDbLine
 62
7
  6
CONTINUOUS
 10
12.0486434781
 20
10.18957559
 11
12.0486434781
 21
10.6101748158
  0
LINE
  5
343
100
AcDbEntity
  8
0
100
AcDbLine
 62
7
  6
CONTINUOUS
 10
12.0639726892
 20
10.2043824719
 11
12.0639726892
 21
10.6249816976
  0
LINE
  5
344
100
AcDbEntity
  8
0
100
AcDbLine
 62
4
  6
CONTINUOUS
 10
11.7558986356
 20
7.6343208901
 11
11.7631430796
 21
7.6627962621
  0
LINE
  5
345
100
AcDbEntity
  8
0
100
AcDbLine
 62
4
  6
CONTINUOUS
 10
11.7051875279
 20
7.589541422
 11
11.7124319718
 21
7.5986982813
  0
LINE
  5
346
100
AcDbEntity
  8
0
100
AcDbLine
 62
7
  6
CONTINUOUS
 10
12.2574764957
 20
8.2949688803
 11
12.2566572474
 21
8.2941921026
  0
LINE
  5
347
100
AcDbEntity
  8
0
100
AcDbLine
 62
4
  6
CONTINUOUS
 10
12.1973116691
 20
9.8932819721
 11
12.1837701278
 21
9.890201847
  0
LINE
  5
348
100
AcDbEntity
  8
0
100
AcDbLine
 62
7
  6
CONTINUOUS
 10
9.4690691062
 20
9.6330018641
 11
11.883883815
 21
9.4655338952
  0
LINE
  5
349
100
AcDbEntity
  8
0
100
AcDbLine
 62
4
  6
CONTINUOUS
 10
11.7414097477
 20
7.6160071818
 11
11.7558986356
 21
7.6343208901
  0
LINE
  5
34A
100
AcDbEntity
  8
0
100
AcDbLine
 62
4
  6
CONTINUOUS
 10
11.7631430796
 20
7.5662036782
 11
11.7558986356
 21
7.5570468189
  0
LINE
  5
34B
100
AcDbEntity
  8
0
100
AcDbLine
 62
4
  6
CONTINUOUS
 10
11.7124319718
 20
7.5986982813
 11
11.7414097477
 21
7.6160071818
  0
LINE
  5
34C
100
AcDbEntity
  8
0
100
AcDbLine
 62
4
  6
CONTINUOUS
 10
11.7558986356
 20
7.5570468189
 11
11.7414097477
 21
7.5483923703
  0
LINE
  5
34D
100
AcDbEntity
  8
0
100
AcDbLine
 62
4
  6
CONTINUOUS
 10
10.6885505636
 20
6.8370765914
 11
10.7030394515
 21
6.8457310425
  0
LINE
  5
34E
100
AcDbEntity
  8
0
100
AcDbLine
 62
4
  6
CONTINUOUS
 10
12.0852828481
 20
9.9050704315
 11
12.0988243868
 21
9.9081505569
  0
LINE
  5
34F
100
AcDbEntity
  8
0
100
AcDbLine
 62
4
  6
CONTINUOUS
 10
12.2594281873
 20
9.9532819248
 11
12.245886646
 21
9.9502017997
  0
LINE
  5
350
100
AcDbEntity
  8
0
100
AcDbLine
 62
4
  6
CONTINUOUS
 10
12.1473993663
 20
9.9650703842
 11
12.160940905
 21
9.9681505096
  0
LINE
  5
351
100
AcDbEntity
  8
0
100
AcDbLine
 62
4
  6
CONTINUOUS
 10
12.1765164841
 20
9.993195362
 11
12.1900580228
 21
9.9962754874
  0
LINE
  5
352
100
AcDbEntity
  8
0
100
AcDbLine
 62
4
  6
CONTINUOUS
 10
12.1837701278
 20
9.890201847
 11
12.1605693285
 21
9.8877915936
  0
LINE
  5
353
100
AcDbEntity
  8
0
100
AcDbLine
 62
4
  6
CONTINUOUS
 10
12.0988243868
 20
9.9081505569
 11
12.1104247912
 21
9.9093556832
  0
LINE
  5
354
100
AcDbEntity
  8
0
100
AcDbLine
 62
4
  6
CONTINUOUS
 10
10.6885505636
 20
6.7694617791
 11
10.7030394515
 21
6.7781162345
  0
LINE
  5
355
100
AcDbEntity
  8
0
100
AcDbLine
 62
4
  6
CONTINUOUS
 10
10.7320172274
 20
6.7374695798
 11
10.7175283394
 21
6.7288151313
  0
LINE
  5
356
100
AcDbEntity
  8
0
100
AcDbLine
 62
4
  6
CONTINUOUS
 10
12.245886646
 20
9.9502017997
 11
12.2226858467
 21
9.9477915463
  0
LINE
  5
357
100
AcDbEntity
  8
0
100
AcDbLine
 62
4
  6
CONTINUOUS
 10
12.160940905
 20
9.9681505096
 11
12.1725413094
 21
9.9693556359
  0
LINE
  5
358
100
AcDbEntity
  8
0
100
AcDbLine
 62
4
  6
CONTINUOUS
 10
12.1900580228
 20
9.9962754874
 11
12.2132588248
 21
9.9986857405
  0
LINE
  5
359
100
AcDbEntity
  8
0
100
AcDbLine
 62
4
  6
CONTINUOUS
 10
12.1066354012
 20
9.9256954153
 11
12.2380756342
 21
9.9326569411
  0
LINE
  5
35A
100
AcDbEntity
  8
0
100
AcDbLine
 62
4
  6
CONTINUOUS
 10
12.1605693285
 20
9.8877915936
 11
12.1296504114
 21
9.8879262107
  0
LINE
  5
35B
100
AcDbEntity
  8
0
100
AcDbLine
 62
4
  6
CONTINUOUS
 10
12.2226858467
 20
9.9477915463
 11
12.1917669296
 21
9.9479261634
  0
LINE
  5
35C
100
AcDbEntity
  8
0
100
AcDbLine
 62
7
  6
CONTINUOUS
 10
11.1729696172
 20
10.1406239753
 11
11.1630332764
 21
10.1498707835
  0
LINE
  5
35D
100
AcDbEntity
  8
0
100
AcDbLine
 62
7
  6
CONTINUOUS
 10
12.5309308938
 20
6.8305335596
 11
12.5309308938
 21
10.0905334165
  0
LINE
  5
35E
100
AcDbEntity
  8
0
100
AcDbLine
 62
4
  6
CONTINUOUS
 10
12.2132588248
 20
9.9986857405
 11
12.2441777418
 21
9.9985511235
  0
LINE
  5
35F
100
AcDbEntity
  8
0
100
AcDbLine
 62
4
  6
CONTINUOUS
 10
12.2846630228
 20
9.9776569056
 11
12.1687519194
 21
9.9856953679
  0
LINE
  5
360
100
AcDbEntity
  8
0
100
AcDbLine
 62
4
  6
CONTINUOUS
 10
12.1296504114
 20
9.8879262107
 11
12.1026137768
 21
9.8918108248
  0
LINE
  5
361
100
AcDbEntity
  8
0
100
AcDbLine
 62
4
  6
CONTINUOUS
 10
12.1917669296
 20
9.9479261634
 11
12.164730295
 21
9.9518107775
  0
LINE
  5
362
100
AcDbEntity
  8
0
100
AcDbLine
 62
4
  6
CONTINUOUS
 10
12.2441777418
 20
9.9985511235
 11
12.2712143765
 21
9.9946665094
  0
LINE
  5
363
100
AcDbEntity
  8
0
100
AcDbLine
 62
4
  6
CONTINUOUS
 10
12.2225465046
 20
9.9176569529
 11
12.1221645307
 21
9.9406954034
  0
LINE
  5
364
100
AcDbEntity
  8
0
100
AcDbLine
 62
4
  6
CONTINUOUS
 10
12.1026137768
 20
9.8918108248
 11
12.0871775396
 21
9.8969005657
  0
LINE
  5
365
100
AcDbEntity
  8
0
100
AcDbLine
 62
7
  6
CONTINUOUS
 10
12.5309308938
 20
10.0905334165
 11
12.0123372717
 21
10.1264980063
  0
LINE
  5
366
100
AcDbEntity
  8
0
100
AcDbLine
 62
7
  6
CONTINUOUS
 10
11.1360899019
 20
10.1872659678
 11
10.116116185
 21
10.2580013853
  0
LINE
  5
367
100
AcDbEntity
  8
0
100
AcDbLine
 62
4
  6
CONTINUOUS
 10
12.1876988573
 20
9.9039967085
 11
12.195416975
 21
9.9014518381
  0
LINE
  5
368
100
AcDbEntity
  8
0
100
AcDbLine
 62
4
  6
CONTINUOUS
 10
12.164730295
 20
9.9518107775
 11
12.1492940578
 21
9.9569005184
  0
LINE
  5
369
100
AcDbEntity
  8
0
100
AcDbLine
 62
4
  6
CONTINUOUS
 10
12.2498153755
 20
9.9639966612
 11
12.2575334932
 21
9.9614517908
  0
LINE
  5
36A
100
AcDbEntity
  8
0
100
AcDbLine
 62
4
  6
CONTINUOUS
 10
12.2712143765
 20
9.9946665094
 11
12.2866506111
 21
9.9895767686
  0
LINE
  5
36B
100
AcDbEntity
  8
0
100
AcDbLine
 62
4
  6
CONTINUOUS
 10
12.0871775396
 20
9.8969005657
 11
12.0814005657
 21
9.9013204345
  0
LINE
  5
36C
100
AcDbEntity
  8
0
100
AcDbLine
 62
4
  6
CONTINUOUS
 10
12.195416975
 20
9.9014518381
 11
12.2011939515
 21
9.8970319692
  0
LINE
  5
36D
100
AcDbEntity
  8
0
100
AcDbLine
 62
4
  6
CONTINUOUS
 10
12.1492940578
 20
9.9569005184
 11
12.1435170839
 21
9.9613203872
  0
LINE
  5
36E
100
AcDbEntity
  8
0
100
AcDbLine
 62
4
  6
CONTINUOUS
 10
12.2575334932
 20
9.9614517908
 11
12.2633104697
 21
9.9570319219
  0
LINE
  5
36F
100
AcDbEntity
  8
0
100
AcDbLine
 62
4
  6
CONTINUOUS
 10
12.2866506111
 20
9.9895767686
 11
12.2924275876
 21
9.9851568997
  0
LINE
  5
370
100
AcDbEntity
  8
0
100
AcDbLine
 62
7
  6
CONTINUOUS
 10
11.883883815
 20
6.2055340384
 11
12.5309308938
 21
6.8305335596
  0
LINE
  5
371
100
AcDbEntity
  8
0
100
AcDbLine
 62
7
  6
CONTINUOUS
 10
11.9820264336
 20
10.7267753587
 11
11.9657236094
 21
10.7348286417
  0
ARC
  5
372
100
AcDbEntity
  8
0
100
AcDbCircle
 62
7
  6
CONTINUOUS
 10
11.5926395283
 20
11.8167698324
 40
1.7134646816
100
AcDbArc
 50
273.0082884861
 51
274.9259735842
  0
ARC
  5
373
100
AcDbEntity
  8
0
100
AcDbCircle
 62
7
  6
CONTINUOUS
 10
11.5926395283
 20
12.2373690581
 40
1.7134646816
100
AcDbArc
 50
273.0082884861
 51
274.9259735842
  0
ARC
  5
374
100
AcDbEntity
  8
0
100
AcDbCircle
 62
7
  6
CONTINUOUS
 10
10.8856173924
 20
8.937607299
 40
0.1832522299
100
AcDbArc
 50
269.6586305798
 51
273.823931522
  0
ARC
  5
375
100
AcDbEntity
  8
0
100
AcDbCircle
 62
7
  6
CONTINUOUS
 10
10.8856215992
 20
8.9228495401
 40
0.1684947832
100
AcDbArc
 50
265.2439701726
 51
269.6273011508
  0
ARC
  5
376
100
AcDbEntity
  8
0
100
AcDbCircle
 62
7
  6
CONTINUOUS
 10
12.2422998678
 20
8.2532501758
 40
0.0190272897
100
AcDbArc
 50
86.0666590647
 51
96.8902592653
  0
ARC
  5
377
100
AcDbEntity
  8
0
100
AcDbCircle
 62
7
  6
CONTINUOUS
 10
12.2034216025
 20
7.6926462465
 40
0.0190222684
100
AcDbArc
 50
255.3340835031
 51
265.9998373143
  0
SPLINE
  5
378
100
AcDbEntity
  8
0
100
AcDbSpline
 62
7
  6
CONTINUOUS
 70
0
 71
3
 72
9
 73
5
 74
0
 42
0.0000001
 43
0.0000001
 44
0.0000000001
 40
0.0
 40
0.0
 40
0.0
 40
0.0
 40
0.4864210225
 40
1.0
 40
1.0
 40
1.0
 40
1.0
 10
12.0639726892
 20
10.2043824719
 30
0.0
 10
12.0629589822
 20
10.2030961218
 30
0.0
 10
12.0607724921
 20
10.200531337
 30
0.0
 10
12.058418773
 20
10.1981202729
 30
0.0
 10
12.0571750287
 20
10.1969189081
 30
0.0
  0
SPLINE
  5
379
100
AcDbEntity
  8
0
100
AcDbSpline
 62
7
  6
CONTINUOUS
 70
0
 71
3
 72
9
 73
5
 74
0
 42
0.0000001
 43
0.0000001
 44
0.0000000001
 40
0.0
 40
0.0
 40
0.0
 40
0.0
 40
0.5135789775
 40
1.0
 40
1.0
 40
1.0
 40
1.0
 10
11.1124995146
 20
10.6830316033
 30
0.0
 10
11.1112557704
 20
10.6818302385
 30
0.0
 10
11.1089020513
 20
10.6794191744
 30
0.0
 10
11.1067155611
 20
10.6768543896
 30
0.0
 10
11.1057018541
 20
10.6755680395
 30
0.0
  0
SPLINE
  5
37A
100
AcDbEntity
  8
0
100
AcDbSpline
 62
7
  6
CONTINUOUS
 70
0
 71
3
 72
9
 73
5
 74
0
 42
0.0000001
 43
0.0000001
 44
0.0000000001
 40
0.0
 40
0.0
 40
0.0
 40
0.0
 40
0.5134917843
 40
1.0
 40
1.0
 40
1.0
 40
1.0
 10
11.1210310652
 20
10.6903749213
 30
0.0
 10
11.119507432
 20
10.6891944273
 30
0.0
 10
11.1165941259
 20
10.6868247229
 30
0.0
 10
11.1138129846
 20
10.684300318
 30
0.0
 10
11.1124995146
 20
10.6830316033
 30
0.0
  0
SPLINE
  5
37B
100
AcDbEntity
  8
0
100
AcDbSpline
 62
7
  6
CONTINUOUS
 70
0
 71
3
 72
21
 73
17
 74
0
 42
0.0000001
 43
0.0000001
 44
0.0000000001
 40
0.0
 40
0.0
 40
0.0
 40
0.0
 40
0.1552847778
 40
0.3037675224
 40
0.3751527953
 40
0.4444666907
 40
0.5115812513
 40
0.5763697456
 40
0.6387130726
 40
0.6985013802
 40
0.75563826
 40
0.8100514809
 40
0.8616894053
 40
0.9105385226
 40
0.9566200086
 40
1.0
 40
1.0
 40
1.0
 40
1.0
 10
11.1057018541
 20
10.2549688138
 30
0.0
 10
11.1079243451
 20
10.2491174602
 30
0.0
 10
11.1123849341
 20
10.2377134608
 30
0.0
 10
11.1182372904
 20
10.2237679362
 30
0.0
 10
11.1229944406
 20
10.213126004
 30
0.0
 10
11.12654272
 20
10.2055375905
 30
0.0
 10
11.1301173768
 20
10.1982565662
 30
0.0
 10
11.1337174722
 20
10.1913028841
 30
0.0
 10
11.1373416415
 20
10.1846964906
 30
0.0
 10
11.1409877262
 20
10.1784567054
 30
0.0
 10
11.1446541576
 20
10.1726025448
 30
0.0
 10
11.1483376195
 20
10.1671510233
 30
0.0
 10
11.1520359972
 20
10.1621182528
 30
0.0
 10
11.155745724
 20
10.1575173635
 30
0.0
 10
11.1594634306
 20
10.1533594943
 30
0.0
 10
11.1620207889
 20
10.1508132947
 30
0.0
 10
11.1633007859
 20
10.149622047
 30
0.0
  0
SPLINE
  5
37C
100
AcDbEntity
  8
0
100
AcDbSpline
 62
7
  6
CONTINUOUS
 70
0
 71
3
 72
23
 73
19
 74
0
 42
0.0000001
 43
0.0000001
 44
0.0000000001
 40
0.0
 40
0.0
 40
0.0
 40
0.0
 40
0.0809714987
 40
0.1598878899
 40
0.2366108848
 40
0.3110078346
 40
0.3829543555
 40
0.452338501
 40
0.5190632519
 40
0.5830593386
 40
0.6442825111
 40
0.7027298252
 40
0.7584316548
 40
0.8114689998
 40
0.8619596659
 40
0.910071818
 40
0.9560056935
 40
1.0
 40
1.0
 40
1.0
 40
1.0
 10
12.0639726892
 20
10.6249816976
 30
0.0
 10
12.0623246238
 20
10.6281596458
 30
0.0
 10
12.0590255552
 20
10.6344118259
 30
0.0
 10
12.0539945276
 20
10.6435840611
 30
0.0
 10
12.0489422754
 20
10.6524113765
 30
0.0
 10
12.0438697389
 20
10.6608698339
 30
0.0
 10
12.0387776718
 20
10.6689355179
 30
0.0
 10
12.0336679421
 20
10.6765855521
 30
0.0
 10
12.0285417778
 20
10.6837977171
 30
0.0
 10
12.0234021044
 20
10.6905524746
 30
0.0
 10
12.0182505399
 20
10.6968319108
 30
0.0
 10
12.0130908716
 20
10.7026225478
 30
0.0
 10
12.0079249809
 20
10.7079131571
 30
0.0
 10
12.0027571408
 20
10.7126983934
 30
0.0
 10
11.9975894215
 20
10.7169752597
 30
0.0
 10
11.9924260285
 20
10.7207473571
 30
0.0
 10
11.9872695563
 20
10.7240200318
 30
0.0
 10
11.9837694257
 20
10.7259143385
 30
0.0
 10
11.9820255443
 20
10.726775798
 30
0.0
  0
SPLINE
  5
37D
100
AcDbEntity
  8
0
100
AcDbSpline
 62
7
  6
CONTINUOUS
 70
0
 71
3
 72
46
 73
42
 74
0
 42
0.0000001
 43
0.0000001
 44
0.0000000001
 40
0.0
 40
0.0
 40
0.0
 40
0.0
 40
0.0099874877
 40
0.0204476974
 40
0.0313773321
 40
0.0427709641
 40
0.0546220461
 40
0.0669229866
 40
0.0928356094
 40
0.1204266613
 40
0.1495981687
 40
0.1802404541
 40
0.2122337752
 40
0.2454491038
 40
0.2797499018
 40
0.3149932014
 40
0.3510301972
 40
0.3877076002
 40
0.4248685405
 40
0.462353288
 40
0.500000408
 40
0.5376475404
 40
0.5751322603
 40
0.612293149
 40
0.6489704979
 40
0.6850073789
 40
0.7202505939
 40
0.7545513209
 40
0.7877664595
 40
0.8197596255
 40
0.8504018125
 40
0.8795730869
 40
0.9071639551
 40
0.9203360434
 40
0.9330775683
 40
0.945378314
 40
0.9572292775
 40
0.9686228886
 40
0.9795523843
 40
0.9900125565
 40
1.0
 40
1.0
 40
1.0
 40
1.0
 10
11.9657254847
 20
10.7348276615
 30
0.0
 10
11.9634084926
 20
10.7359722217
 30
0.0
 10
11.9586252855
 20
10.7382360914
 30
0.0
 10
11.9511856988
 20
10.7414897024
 30
0.0
 10
11.9433230586
 20
10.7446760491
 30
0.0
 10
11.9350465696
 20
10.747791653
 30
0.0
 10
11.9263656456
 20
10.7508329357
 30
0.0
 10
11.9140503065
 20
10.7548537777
 30
0.0
 10
11.897707636
 20
10.7596481397
 30
0.0
 10
11.8769806969
 20
10.7649564522
 30
0.0
 10
11.8549060503
 20
10.7698905723
 30
0.0
 10
11.8315853004
 20
10.7744274046
 30
0.0
 10
11.807125561
 20
10.7785454969
 30
0.0
 10
11.7816395399
 20
10.7822257012
 30
0.0
 10
11.7552447423
 20
10.7854508183
 30
0.0
 10
11.7280629213
 20
10.7882056017
 30
0.0
 10
11.7002195495
 20
10.7904772888
 30
0.0
 10
11.6718432048
 20
10.7922553116
 30
0.0
 10
11.6430649348
 20
10.7935312115
 30
0.0
 10
11.6140176691
 20
10.7942991291
 30
0.0
 10
11.5848355971
 20
10.7945555386
 30
0.0
 10
11.5556535322
 20
10.7942990937
 30
0.0
 10
11.5266062864
 20
10.7935310723
 30
0.0
 10
11.4978280531
 20
10.7922551322
 30
0.0
 10
11.4694517669
 20
10.7904770826
 30
0.0
 10
11.4416084693
 20
10.7882052923
 30
0.0
 10
11.414426723
 20
10.7854504671
 30
0.0
 10
11.3880320186
 20
10.7822253328
 30
0.0
 10
11.3625461152
 20
10.7785450307
 30
0.0
 10
11.3380865183
 20
10.7744268915
 30
0.0
 10
11.3147658324
 20
10.7698900746
 30
0.0
 10
11.2926915644
 20
10.764955802
 30
0.0
 10
11.2751581999
 20
10.7604656424
 30
0.0
 10
11.2618415632
 20
10.7566773134
 30
0.0
 10
11.2523821858
 20
10.7537954408
 30
0.0
 10
11.2433068713
 20
10.7508322073
 30
0.0
 10
11.2346260521
 20
10.7477909416
 30
0.0
 10
11.2263496178
 20
10.7446753822
 30
0.0
 10
11.2184870781
 20
10.7414889247
 30
0.0
 10
11.2110475758
 20
10.7382352653
 30
0.0
 10
11.206264383
 20
10.7359714153
 30
0.0
 10
11.2039474041
 20
10.7348268543
 30
0.0
  0
SPLINE
  5
37E
100
AcDbEntity
  8
0
100
AcDbSpline
 62
7
  6
CONTINUOUS
 70
0
 71
3
 72
9
 73
5
 74
0
 42
0.0000001
 43
0.0000001
 44
0.0000000001
 40
0.0
 40
0.0
 40
0.0
 40
0.0
 40
0.496008294
 40
1.0
 40
1.0
 40
1.0
 40
1.0
 10
11.1788125606
 20
10.7224107629
 30
0.0
 10
11.1690164937
 20
10.7175714898
 30
0.0
 10
11.1495198292
 20
10.7072969765
 30
0.0
 10
11.1305044125
 20
10.6961637964
 30
0.0
 10
11.1210310652
 20
10.6903749213
 30
0.0
  0
SPLINE
  5
37F
100
AcDbEntity
  8
0
100
AcDbSpline
 62
7
  6
CONTINUOUS
 70
0
 71
3
 72
9
 73
5
 74
0
 42
0.0000001
 43
0.0000001
 44
0.0000000001
 40
0.0
 40
0.0
 40
0.0
 40
0.0
 40
0.4867517121
 40
1.0
 40
1.0
 40
1.0
 40
1.0
 10
11.218756666
 20
10.1457664379
 30
0.0
 10
11.2254945661
 20
10.1437972669
 30
0.0
 10
11.2394058678
 20
10.1399846065
 30
0.0
 10
11.2534221122
 20
10.1365807471
 30
0.0
 10
11.2606368935
 20
10.1349270511
 30
0.0
  0
SPLINE
  5
380
100
AcDbEntity
  8
0
100
AcDbSpline
 62
7
  6
CONTINUOUS
 70
0
 71
3
 72
9
 73
5
 74
0
 42
0.0000001
 43
0.0000001
 44
0.0000000001
 40
0.0
 40
0.0
 40
0.0
 40
0.0
 40
0.2585900006
 40
1.0
 40
1.0
 40
1.0
 40
1.0
 10
12.0486434781
 20
10.18957559
 30
0.0
 10
12.0492963133
 20
10.1900813995
 30
0.0
 10
12.0518008419
 20
10.1920630503
 30
0.0
 10
12.0542226851
 20
10.1941502891
 30
0.0
 10
12.0559560577
 20
10.1957633738
 30
0.0
  0
SPLINE
  5
381
100
AcDbEntity
  8
0
100
AcDbSpline
 62
7
  6
CONTINUOUS
 70
0
 71
3
 72
9
 73
5
 74
0
 42
0.0000001
 43
0.0000001
 44
0.0000000001
 40
0.0
 40
0.0
 40
0.0
 40
0.0
 40
0.5134917843
 40
1.0
 40
1.0
 40
1.0
 40
1.0
 10
12.0486434781
 20
10.6101748158
 30
0.0
 10
12.0501671114
 20
10.6113553099
 30
0.0
 10
12.0530804174
 20
10.6137250143
 30
0.0
 10
12.0558615587
 20
10.6162494192
 30
0.0
 10
12.0571750287
 20
10.6175181339
 30
0.0
  0
SPLINE
  5
382
100
AcDbEntity
  8
0
100
AcDbSpline
 62
7
  6
CONTINUOUS
 70
0
 71
3
 72
9
 73
5
 74
0
 42
0.0000001
 43
0.0000001
 44
0.0000000001
 40
0.0
 40
0.0
 40
0.0
 40
0.0
 40
0.4867517121
 40
1.0
 40
1.0
 40
1.0
 40
1.0
 10
11.218756666
 20
10.5663656636
 30
0.0
 10
11.2254945661
 20
10.5643964926
 30
0.0
 10
11.2394058678
 20
10.5605838323
 30
0.0
 10
11.2534221122
 20
10.5571799728
 30
0.0
 10
11.2606368935
 20
10.5555262769
 30
0.0
  0
SPLINE
  5
383
100
AcDbEntity
  8
0
100
AcDbSpline
 62
7
  6
CONTINUOUS
 70
0
 71
3
 72
9
 73
5
 74
0
 42
0.0000001
 43
0.0000001
 44
0.0000000001
 40
0.0
 40
0.0
 40
0.0
 40
0.0
 40
0.5135789775
 40
1.0
 40
1.0
 40
1.0
 40
1.0
 10
12.0571750287
 20
10.6175181339
 30
0.0
 10
12.058418773
 20
10.6187194986
 30
0.0
 10
12.0607724921
 20
10.6211305628
 30
0.0
 10
12.0629589822
 20
10.6236953475
 30
0.0
 10
12.0639726892
 20
10.6249816976
 30
0.0
  0
SPLINE
  5
384
100
AcDbEntity
  8
0
100
AcDbSpline
 62
7
  6
CONTINUOUS
 70
0
 71
3
 72
23
 73
19
 74
0
 42
0.0000001
 43
0.0000001
 44
0.0000000001
 40
0.0
 40
0.0
 40
0.0
 40
0.0
 40
0.0421785856
 40
0.0850534373
 40
0.1291226147
 40
0.1749466526
 40
0.2231084649
 40
0.2741717322
 40
0.3286399951
 40
0.3869169438
 40
0.44928418
 40
0.5158962693
 40
0.5867820207
 40
0.6618606059
 40
0.7409667875
 40
0.8238724696
 40
0.910312794
 40
1.0
 40
1.0
 40
1.0
 40
1.0
 10
11.1057018541
 20
10.6755680395
 30
0.0
 10
11.1080199085
 20
10.6755597911
 30
0.0
 10
11.1126969831
 20
10.675320774
 30
0.0
 10
11.1197231438
 20
10.6742412862
 30
0.0
 10
11.1267921053
 20
10.6723772651
 30
0.0
 10
11.1338952636
 20
10.6696709037
 30
0.0
 10
11.1410238351
 20
10.6660727778
 30
0.0
 10
11.148168701
 20
10.6615443317
 30
0.0
 10
11.1553208251
 20
10.6560590058
 30
0.0
 10
11.1624720878
 20
10.6496051429
 30
0.0
 10
11.1696151428
 20
10.6421863581
 30
0.0
 10
11.1767425376
 20
10.6338208389
 30
0.0
 10
11.1838476801
 20
10.6245412023
 30
0.0
 10
11.1909250442
 20
10.6143922308
 30
0.0
 10
11.1979695886
 20
10.6034274227
 30
0.0
 10
11.2049776943
 20
10.5917061712
 30
0.0
 10
11.2119469416
 20
10.5792910003
 30
0.0
 10
11.2164874703
 20
10.5707413311
 30
0.0
 10
11.218756666
 20
10.5663656636
 30
0.0
  0
SPLINE
  5
385
100
AcDbEntity
  8
0
100
AcDbSpline
 62
7
  6
CONTINUOUS
 70
0
 71
3
 72
21
 73
17
 74
0
 42
0.0000001
 43
0.0000001
 44
0.0000000001
 40
0.0
 40
0.0
 40
0.0
 40
0.0
 40
0.1230814817
 40
0.1847942657
 40
0.2466337258
 40
0.3086097846
 40
0.3707312098
 40
0.4330051319
 40
0.4954352436
 40
0.5580223626
 40
0.6207641208
 40
0.6836547008
 40
0.7466862848
 40
0.8098488395
 40
0.8731308835
 40
1.0
 40
1.0
 40
1.0
 40
1.0
 10
11.2606368935
 20
10.5555262769
 30
0.0
 10
11.2778895341
 20
10.5587786603
 30
0.0
 10
11.3039206717
 20
10.5630293788
 30
0.0
 10
11.3388572619
 20
10.5671967282
 30
0.0
 10
11.3652239595
 20
10.5695187745
 30
0.0
 10
11.3917110263
 20
10.5709784746
 30
0.0
 10
11.4182950854
 20
10.5715286164
 30
0.0
 10
11.4449469497
 20
10.5711321849
 30
0.0
 10
11.4716334426
 20
10.5697671972
 30
0.0
 10
11.4983192144
 20
10.5674283737
 30
0.0
 10
11.5249689175
 20
10.5641260843
 30
0.0
 10
11.5515495816
 20
10.5598870647
 30
0.0
 10
11.578032425
 20
10.5547524234
 30
0.0
 10
11.6043943023
 20
10.5487726756
 30
0.0
 10
11.6393849768
 20
10.5397435559
 30
0.0
 10
11.6653634353
 20
10.5318935347
 30
0.0
 10
11.6825628724
 20
10.5262656108
 30
0.0
  0
SPLINE
  5
386
100
AcDbEntity
  8
0
100
AcDbSpline
 62
7
  6
CONTINUOUS
 70
0
 71
3
 72
28
 73
24
 74
0
 42
0.0000001
 43
0.0000001
 44
0.0000000001
 40
0.0
 40
0.0
 40
0.0
 40
0.0
 40
0.0640274484
 40
0.1279405369
 40
0.1917105404
 40
0.2553123355
 40
0.3187161223
 40
0.3818930725
 40
0.4133919091
 40
0.4448254452
 40
0.4761912782
 40
0.5074882562
 40
0.5387156619
 40
0.5698732312
 40
0.6009621492
 40
0.6319833386
 40
0.6938248821
 40
0.7554274775
 40
0.8168179251
 40
0.8780243018
 40
0.9085700262
 40
0.9390802882
 40
1.0
 40
1.0
 40
1.0
 40
1.0
 10
11.2606368935
 20
10.1349270511
 30
0.0
 10
11.2689377442
 20
10.1306439274
 30
0.0
 10
11.2856688039
 20
10.1223605401
 30
0.0
 10
11.3111879702
 20
10.1108985538
 30
0.0
 10
11.3371117485
 20
10.1005442913
 30
0.0
 10
11.3634249236
 20
10.0914422354
 30
0.0
 10
11.3900927533
 20
10.0837387609
 30
0.0
 10
11.4125881854
 20
10.0785945291
 30
0.0
 10
11.4306922575
 20
10.0753074736
 30
0.0
 10
11.4442995129
 20
10.073268747
 30
0.0
 10
11.4579348405
 20
10.0716620698
 30
0.0
 10
11.4715846916
 20
10.0704949929
 30
0.0
 10
11.485234625
 20
10.069767843
 30
0.0
 10
11.4988705324
 20
10.0694823106
 30
0.0
 10
11.5124785818
 20
10.0696327842
 30
0.0
 10
11.5305474062
 20
10.0704060598
 30
0.0
 10
11.5530068957
 20
10.0724214635
 30
0.0
 10
11.5796878525
 20
10.0764225701
 30
0.0
 10
11.6060142142
 20
10.0818732843
 30
0.0
 10
11.6276426868
 20
10.0875091092
 30
0.0
 10
11.6447382817
 20
10.0926004673
 30
0.0
 10
11.6616788029
 20
10.0980506954
 30
0.0
 10
11.6742476474
 20
10.1025291701
 30
0.0
 10
11.6825628724
 20
10.1056663851
 30
0.0
  0
SPLINE
  5
387
100
AcDbEntity
  8
0
100
AcDbSpline
 62
7
  6
CONTINUOUS
 70
0
 71
3
 72
23
 73
19
 74
0
 42
0.0000001
 43
0.0000001
 44
0.0000000001
 40
0.0
 40
0.0
 40
0.0
 40
0.0
 40
0.0678267902
 40
0.1349724863
 40
0.2013861734
 40
0.2670282176
 40
0.331868046
 40
0.3958905056
 40
0.459098674
 40
0.5215154569
 40
0.5831842269
 40
0.6441654231
 40
0.7045325895
 40
0.7643678524
 40
0.8237547389
 40
0.882773787
 40
0.9415010872
 40
1.0
 40
1.0
 40
1.0
 40
1.0
 10
11.7397723111
 20
10.5302331059
 30
0.0
 10
11.7460474278
 20
10.5340676393
 30
0.0
 10
11.7586307533
 20
10.5415425699
 30
0.0
 10
11.777710711
 20
10.5521655558
 30
0.0
 10
11.7969014428
 20
10.5620828957
 30
0.0
 10
11.8161949084
 20
10.5712311704
 30
0.0
 10
11.8355790909
 20
10.5795504165
 30
0.0
 10
11.8550372536
 20
10.5869870682
 30
0.0
 10
11.8745488943
 20
10.5934963525
 30
0.0
 10
11.894089907
 20
10.5990470634
 30
0.0
 10
11.9136340265
 20
10.6036239945
 30
0.0
 10
11.9331548764
 20
10.6072276622
 30
0.0
 10
11.9526273115
 20
10.6098756407
 30
0.0
 10
11.9720290722
 20
10.6116012057
 30
0.0
 10
11.9913420375
 20
10.6124488086
 30
0.0
 10
12.0105528066
 20
10.6124720409
 30
0.0
 10
12.0296519548
 20
10.6117303183
 30
0.0
 10
12.0423283747
 20
10.6107648471
 30
0.0
 10
12.0486434781
 20
10.6101748158
 30
0.0
  0
SPLINE
  5
388
100
AcDbEntity
  8
0
100
AcDbSpline
 62
7
  6
CONTINUOUS
 70
0
 71
3
 72
27
 73
23
 74
0
 42
0.0000001
 43
0.0000001
 44
0.0000000001
 40
0.0
 40
0.0
 40
0.0
 40
0.0
 40
0.0572742999
 40
0.1144994563
 40
0.1717869223
 40
0.2292938811
 40
0.2872150422
 40
0.3457779489
 40
0.3753824125
 40
0.4052383009
 40
0.4353731703
 40
0.4658134574
 40
0.496580671
 40
0.5276935314
 40
0.5591655803
 40
0.5910057323
 40
0.6557946642
 40
0.7220564543
 40
0.7897212757
 40
0.8586828413
 40
0.9288200633
 40
1.0
 40
1.0
 40
1.0
 40
1.0
 10
11.7397723111
 20
10.1096338802
 30
0.0
 10
11.7458475822
 20
10.1074996545
 30
0.0
 10
11.7581053053
 20
10.1035433816
 30
0.0
 10
11.7768090867
 20
10.0986815701
 30
0.0
 10
11.7958171505
 20
10.0950341034
 30
0.0
 10
11.8151179669
 20
10.0927438228
 30
0.0
 10
11.8346838142
 20
10.0919503028
 30
0.0
 10
11.8511149652
 20
10.0926385814
 30
0.0
 10
11.8643138099
 20
10.0940344685
 30
0.0
 10
11.8742798199
 20
10.0955206295
 30
0.0
 10
11.8842658159
 20
10.0974464773
 30
0.0
 10
11.8942613006
 20
10.0998157573
 30
0.0
 10
11.9042562884
 20
10.1026250937
 30
0.0
 10
11.9142396595
 20
10.1058721721
 30
0.0
 10
11.924201921
 20
10.1095478139
 30
0.0
 10
11.9375193227
 20
10.1150388225
 30
0.0
 10
11.9540612358
 20
10.1229338965
 30
0.0
 10
11.9735704496
 20
10.1338478972
 30
0.0
 10
11.9928161925
 20
10.1461123803
 30
0.0
 10
12.0117754134
 20
10.1595779362
 30
0.0
 10
12.0304388465
 20
10.174099717
 30
0.0
 10
12.0426027674
 20
10.1843266046
 30
0.0
 10
12.0486434781
 20
10.18957559
 30
0.0
  0
SPLINE
  5
389
100
AcDbEntity
  8
0
100
AcDbSpline
 62
7
  6
CONTINUOUS
 70
0
 71
3
 72
11
 73
7
 74
0
 42
0.0000001
 43
0.0000001
 44
0.0000000001
 40
0.0
 40
0.0
 40
0.0
 40
0.0
 40
0.2706149479
 40
0.5274053283
 40
0.7704747911
 40
1.0
 40
1.0
 40
1.0
 40
1.0
 10
11.2039474041
 20
10.7348268543
 30
0.0
 10
11.201688855
 20
10.7337111569
 30
0.0
 10
11.1973222239
 20
10.7314645478
 30
0.0
 10
11.1910693408
 20
10.7279478133
 30
0.0
 10
11.18529224
 20
10.7243767965
 30
0.0
 10
11.1816594337
 20
10.7218918326
 30
0.0
 10
11.1799288781
 20
10.7206387466
 30
0.0
  0
SPLINE
  5
38A
100
AcDbEntity
  8
0
100
AcDbSpline
 62
7
  6
CONTINUOUS
 70
0
 71
3
 72
9
 73
5
 74
0
 42
0.0000001
 43
0.0000001
 44
0.0000000001
 40
0.0
 40
0.0
 40
0.0
 40
0.0
 40
0.5180906156
 40
1.0
 40
1.0
 40
1.0
 40
1.0
 10
11.1799288781
 20
10.7206387466
 30
0.0
 10
11.1780307183
 20
10.7192642993
 30
0.0
 10
11.1744435367
 20
10.7165031486
 30
0.0
 10
11.1710570193
 20
10.7134967893
 30
0.0
 10
11.1694891418
 20
10.7119823358
 30
0.0
  0
SPLINE
  5
38B
100
AcDbEntity
  8
0
100
AcDbSpline
 62
7
  6
CONTINUOUS
 70
0
 71
3
 72
21
 73
17
 74
0
 42
0.0000001
 43
0.0000001
 44
0.0000000001
 40
0.0
 40
0.0
 40
0.0
 40
0.0
 40
0.0777184714
 40
0.1509844854
 40
0.2201919876
 40
0.2858049512
 40
0.3483762676
 40
0.408511364
 40
0.4668501382
 40
0.524040419
 40
0.5806986783
 40
0.6373921441
 40
0.6946119011
 40
0.7527677984
 40
0.8730351627
 40
1.0
 40
1.0
 40
1.0
 40
1.0
 10
11.1633007859
 20
10.149622047
 30
0.0
 10
11.1644625508
 20
10.1485408336
 30
0.0
 10
11.1667848248
 20
10.146508671
 30
0.0
 10
11.1703736497
 20
10.1437930658
 30
0.0
 10
11.1739573508
 20
10.141500778
 30
0.0
 10
11.1775336969
 20
10.1396294647
 30
0.0
 10
11.1810989799
 20
10.138172153
 30
0.0
 10
11.1846499958
 20
10.1371203909
 30
0.0
 10
11.1881832739
 20
10.136463852
 30
0.0
 10
11.1916951421
 20
10.1361885016
 30
0.0
 10
11.1951826383
 20
10.1362801782
 30
0.0
 10
11.1986432697
 20
10.136721834
 30
0.0
 10
11.2020757094
 20
10.1374962409
 30
0.0
 10
11.2066634938
 20
10.1389652595
 30
0.0
 10
11.2123498888
 20
10.1415838481
 30
0.0
 10
11.2166335989
 20
10.1442782902
 30
0.0
 10
11.218756666
 20
10.1457664379
 30
0.0
  0
SPLINE
  5
38C
100
AcDbEntity
  8
0
100
AcDbSpline
 62
7
  6
CONTINUOUS
 70
0
 71
3
 72
55
 73
51
 74
0
 42
0.0000001
 43
0.0000001
 44
0.0000000001
 40
0.0
 40
0.0
 40
0.0
 40
0.0
 40
0.0077403341
 40
0.0160536402
 40
0.0249598623
 40
0.0344711287
 40
0.0445943245
 40
0.0553311103
 40
0.0666791717
 40
0.0786331753
 40
0.0911842811
 40
0.1043217537
 40
0.1180322524
 40
0.1323005199
 40
0.147109859
 40
0.1624414338
 40
0.1782755067
 40
0.1945906822
 40
0.2285722865
 40
0.2641945926
 40
0.3012498561
 40
0.3395178674
 40
0.37876815
 40
0.4187620874
 40
0.4592551245
 40
0.4999987486
 40
0.5407423938
 40
0.5812354618
 40
0.6212294331
 40
0.6604797572
 40
0.6987478627
 40
0.7358032525
 40
0.7714256644
 40
0.8054073565
 40
0.8217226506
 40
0.8375567141
 40
0.8528884296
 40
0.8676978103
 40
0.8819661512
 40
0.8956767913
 40
0.9088142361
 40
0.9213654962
 40
0.9333195839
 40
0.9446677912
 40
0.955404691
 40
0.9655276214
 40
0.9750389343
 40
0.9839457869
 40
0.992260156
 40
1.0
 40
1.0
 40
1.0
 40
1.0
 10
11.1729695978
 20
10.1406240591
 30
0.0
 10
11.1745775557
 20
10.1391277274
 30
0.0
 10
11.178038941
 20
10.1361585293
 30
0.0
 10
11.183717258
 20
10.1319177027
 30
0.0
 10
11.1900539087
 20
10.1277410257
 30
0.0
 10
11.1970382769
 20
10.1236346262
 30
0.0
 10
11.2046597268
 20
10.1196051819
 30
0.0
 10
11.2129059777
 20
10.1156589011
 30
0.0
 10
11.2217638151
 20
10.1118020694
 30
0.0
 10
11.2312190126
 20
10.1080413013
 30
0.0
 10
11.2412561169
 20
10.1043823372
 30
0.0
 10
11.2518588614
 20
10.1008315805
 30
0.0
 10
11.2630098759
 20
10.0973947096
 30
0.0
 10
11.2746909077
 20
10.0940773583
 30
0.0
 10
11.2868828319
 20
10.0908852808
 30
0.0
 10
11.2995655838
 20
10.0878234214
 30
0.0
 10
11.3127183705
 20
10.0848971271
 30
0.0
 10
11.3311034299
 20
10.0811313587
 30
0.0
 10
11.3551042107
 20
10.0768168926
 30
0.0
 10
11.3850382778
 20
10.0723169535
 30
0.0
 10
11.4162873638
 20
10.0684571328
 30
0.0
 10
11.4486458344
 20
10.0652632513
 30
0.0
 10
11.4819009229
 20
10.0627567112
 30
0.0
 10
11.5158337413
 20
10.0609542405
 30
0.0
 10
11.5502209146
 20
10.0598678915
 30
0.0
 10
11.5848360389
 20
10.0595049295
 30
0.0
 10
11.6194511729
 20
10.0598678197
 30
0.0
 10
11.6538383719
 20
10.0609541289
 30
0.0
 10
11.6877712224
 20
10.0627565655
 30
0.0
 10
11.7210263618
 20
10.0652630688
 30
0.0
 10
11.7533849137
 20
10.0684568827
 30
0.0
 10
11.7846341006
 20
10.0723166388
 30
0.0
 10
11.8145682684
 20
10.0768165272
 30
0.0
 10
11.838569132
 20
10.0811310252
 30
0.0
 10
11.8569542731
 20
10.0848966754
 30
0.0
 10
11.8701071161
 20
10.0878230431
 30
0.0
 10
11.8827899417
 20
10.090884804
 30
0.0
 10
11.8949819373
 20
10.0940768988
 30
0.0
 10
11.9066630405
 20
10.097394261
 30
0.0
 10
11.9178141426
 20
10.1008310306
 30
0.0
 10
11.9284169381
 20
10.1043818733
 30
0.0
 10
11.9384541474
 20
10.1080407222
 30
0.0
 10
11.9479094434
 20
10.1118015428
 30
0.0
 10
11.9567673626
 20
10.1156584251
 30
0.0
 10
11.9650136827
 20
10.1196045608
 30
0.0
 10
11.9726350969
 20
10.1236340054
 30
0.0
 10
11.9796196818
 20
10.1277402673
 30
0.0
 10
11.9859566875
 20
10.1319173153
 30
0.0
 10
11.9916351981
 20
10.1361584408
 30
0.0
 10
11.9950968393
 20
10.1391275883
 30
0.0
 10
11.9967047144
 20
10.1406238047
 30
0.0
  0
SPLINE
  5
38D
100
AcDbEntity
  8
0
100
AcDbSpline
 62
7
  6
CONTINUOUS
 70
0
 71
3
 72
69
 73
65
 74
0
 42
0.0000001
 43
0.0000001
 44
0.0000000001
 40
0.0
 40
0.0
 40
0.0
 40
0.0
 40
0.0078486444
 40
0.011525491
 40
0.0150505467
 40
0.0216952296
 40
0.024852921
 40
0.0279250607
 40
0.0309333397
 40
0.0339009863
 40
0.0368522248
 40
0.0398117036
 40
0.0428038878
 40
0.0458523906
 40
0.0489793775
 40
0.052205239
 40
0.0590208104
 40
0.0626451385
 40
0.0664292117
 40
0.0745139269
 40
0.08334171
 40
0.0929552291
 40
0.1033806187
 40
0.114631552
 40
0.126711678
 40
0.1396167584
 40
0.1533361209
 40
0.1678536007
 40
0.1831486278
 40
0.1991964446
 40
0.2159691279
 40
0.2334353586
 40
0.2515614594
 40
0.2703108941
 40
0.2896453365
 40
0.3095240288
 40
0.3299048522
 40
0.3719941041
 40
0.4155466199
 40
0.4601767864
 40
0.5054862054
 40
0.5510685731
 40
0.5965143891
 40
0.6414157219
 40
0.6853710257
 40
0.7279898963
 40
0.7486810452
 40
0.7688992635
 40
0.7886011676
 40
0.807744993
 40
0.8262908348
 40
0.8442008993
 40
0.8614395705
 40
0.8779739633
 40
0.8937737718
 40
0.9088121872
 40
0.9230656404
 40
0.9365152112
 40
0.9491461963
 40
0.9609499952
 40
0.9719245224
 40
0.9820776763
 40
0.9914266394
 40
1.0
 40
1.0
 40
1.0
 40
1.0
 10
11.1694891418
 20
10.7119823358
 30
0.0
 10
11.16774734
 20
10.7102998844
 30
0.0
 10
11.1653011543
 20
10.7077062189
 30
0.0
 10
11.1624271701
 20
10.7040551592
 30
0.0
 10
11.1600023629
 20
10.7005353247
 30
0.0
 10
11.1580174703
 20
10.6969129315
 30
0.0
 10
11.1565472893
 20
10.6932183561
 30
0.0
 10
11.1557218999
 20
10.690486154
 30
0.0
 10
11.1551566667
 20
10.6877482667
 30
0.0
 10
11.1548521018
 20
10.6850066151
 30
0.0
 10
11.1548085232
 20
10.6822634424
 30
0.0
 10
11.1550260283
 20
10.6795209926
 30
0.0
 10
11.1555045892
 20
10.6767815315
 30
0.0
 10
11.1562434555
 20
10.6740472298
 30
0.0
 10
11.157241598
 20
10.6713198239
 30
0.0
 10
11.1589474736
 20
10.6676280886
 30
0.0
 10
11.1611603437
 20
10.6640188196
 30
0.0
 10
11.1638041036
 20
10.6605136708
 30
0.0
 10
11.1669086555
 20
10.656874965
 30
0.0
 10
11.1714563566
 20
10.6523747478
 30
0.0
 10
11.1777841582
 20
10.647169573
 30
0.0
 10
11.1850847492
 20
10.6420542733
 30
0.0
 10
11.1933411581
 20
10.6370392517
 30
0.0
 10
11.2025352002
 20
10.6321353497
 30
0.0
 10
11.2126457842
 20
10.6273536384
 30
0.0
 10
11.2236495375
 20
10.6227053205
 30
0.0
 10
11.2355206739
 20
10.618201474
 30
0.0
 10
11.2482311599
 20
10.613852833
 30
0.0
 10
11.2617508216
 20
10.6096700253
 30
0.0
 10
11.2760474158
 20
10.6056630044
 30
0.0
 10
11.2910867758
 20
10.6018417024
 30
0.0
 10
11.3068328731
 20
10.5982151424
 30
0.0
 10
11.3232479448
 20
10.5947924056
 30
0.0
 10
11.340292583
 20
10.5915814918
 30
0.0
 10
11.3579258183
 20
10.58859053
 30
0.0
 10
11.3761053001
 20
10.5858263866
 30
0.0
 10
11.4012848364
 20
10.5824163165
 30
0.0
 10
11.4338012674
 20
10.5787872431
 30
0.0
 10
11.4738642936
 20
10.5754718399
 30
0.0
 10
11.5149941213
 20
10.5731834432
 30
0.0
 10
11.5567952296
 20
10.571944457
 30
0.0
 10
11.598865932
 20
10.5717670734
 30
0.0
 10
11.6408017535
 20
10.5726530346
 30
0.0
 10
11.6821996786
 20
10.5745936141
 30
0.0
 10
11.7226615732
 20
10.5775698452
 30
0.0
 10
11.7555931027
 20
10.5809205562
 30
0.0
 10
11.7811678676
 20
10.5841132294
 30
0.0
 10
11.7996872693
 20
10.5867221779
 30
0.0
 10
11.8176894322
 20
10.5895626505
 30
0.0
 10
11.8351311107
 20
10.592627785
 30
0.0
 10
11.851970362
 20
10.595910197
 30
0.0
 10
11.8681667441
 20
10.599401813
 30
0.0
 10
11.8836813678
 20
10.6030943162
 30
0.0
 10
11.8984770531
 20
10.6069785395
 30
0.0
 10
11.9125183534
 20
10.6110453177
 30
0.0
 10
11.92577177
 20
10.6152844669
 30
0.0
 10
11.9382057039
 20
10.6196861098
 30
0.0
 10
11.9497907617
 20
10.6242392406
 30
0.0
 10
11.9604994754
 20
10.6289334266
 30
0.0
 10
11.9703070072
 20
10.6337568994
 30
0.0
 10
11.9791906418
 20
10.638699098
 30
0.0
 10
11.9871308788
 20
10.6437489429
 30
0.0
 10
11.9941082241
 20
10.6488952435
 30
0.0
 10
11.9982827679
 20
10.6525355514
 30
0.0
 10
12.0001854016
 20
10.6543733545
 30
0.0
  0
SPLINE
  5
38E
100
AcDbEntity
  8
0
100
AcDbSpline
 62
7
  6
CONTINUOUS
 70
0
 71
3
 72
28
 73
24
 74
0
 42
0.0000001
 43
0.0000001
 44
0.0000000001
 40
0.0
 40
0.0
 40
0.0
 40
0.0
 40
0.0683417894
 40
0.1318944582
 40
0.1911916903
 40
0.2469424229
 40
0.2737771035
 40
0.300072871
 40
0.3259647135
 40
0.3515944959
 40
0.3771085711
 40
0.4026553861
 40
0.4283829391
 40
0.454436097
 40
0.5080318425
 40
0.5644895246
 40
0.594076777
 40
0.6246829784
 40
0.6892404913
 40
0.7587126008
 40
0.8334899805
 40
0.91385377
 40
1.0
 40
1.0
 40
1.0
 40
1.0
 10
12.0001854016
 20
10.6543733545
 30
0.0
 10
12.0016497668
 20
10.6557878227
 30
0.0
 10
12.004370507
 20
10.658630749
 30
0.0
 10
12.0079088408
 20
10.6631063258
 30
0.0
 10
12.0107401922
 20
10.6676248969
 30
0.0
 10
12.0125253217
 20
10.6714714532
 30
0.0
 10
12.013571705
 20
10.674544284
 30
0.0
 10
12.0141662498
 20
10.6768244152
 30
0.0
 10
12.0145797218
 20
10.6791077903
 30
0.0
 10
12.0148119997
 20
10.6813933252
 30
0.0
 10
12.0148629242
 20
10.6836798207
 30
0.0
 10
12.0147324567
 20
10.6859660485
 30
0.0
 10
12.0144205187
 20
10.6882508967
 30
0.0
 10
12.0137570141
 20
10.6913219473
 30
0.0
 10
12.0124527563
 20
10.6951773062
 30
0.0
 10
12.0105878162
 20
10.6989091481
 30
0.0
 10
12.0087611729
 20
10.7018672707
 30
0.0
 10
12.0066309305
 20
10.7049147911
 30
0.0
 10
12.003499946
 20
10.7087015351
 30
0.0
 10
11.9991093669
 20
10.7131180698
 30
0.0
 10
11.9940279418
 20
10.7174810171
 30
0.0
 10
11.9882644573
 20
10.7217842216
 30
0.0
 10
11.9841186255
 20
10.7245132021
 30
0.0
 10
11.9819404807
 20
10.7258703542
 30
0.0
  0
SPLINE
  5
38F
100
AcDbEntity
  8
0
100
AcDbSpline
 62
7
  6
CONTINUOUS
 70
0
 71
3
 72
9
 73
5
 74
0
 42
0.0000001
 43
0.0000001
 44
0.0000000001
 40
0.0
 40
0.0
 40
0.0
 40
0.0
 40
0.4830467495
 40
1.0
 40
1.0
 40
1.0
 40
1.0
 10
11.9819404807
 20
10.7258703542
 30
0.0
 10
11.9794081736
 20
10.7274481768
 30
0.0
 10
11.9740704935
 20
10.7305629289
 30
0.0
 10
11.9685883075
 20
10.733413469
 30
0.0
 10
11.9657254847
 20
10.7348276615
 30
0.0
  0
SPLINE
  5
390
100
AcDbEntity
  8
0
100
AcDbSpline
 62
7
  6
CONTINUOUS
 70
0
 71
3
 72
47
 73
43
 74
0
 42
0.0000001
 43
0.0000001
 44
0.0000000001
 40
0.0
 40
0.0
 40
0.0
 40
0.0
 40
0.0958288778
 40
0.1428190813
 40
0.1890973258
 40
0.2345927051
 40
0.2792365599
 40
0.3229622087
 40
0.36570484
 40
0.4074019633
 40
0.4479935495
 40
0.4874221989
 40
0.5256333955
 40
0.562575849
 40
0.5982017357
 40
0.6324670006
 40
0.6653317986
 40
0.696761026
 40
0.7267248024
 40
0.7551991569
 40
0.7821669874
 40
0.8076191674
 40
0.8315558892
 40
0.8429599089
 40
0.8539904626
 40
0.8646510953
 40
0.8749464064
 40
0.8848822263
 40
0.8944655538
 40
0.903704898
 40
0.9126103679
 40
0.9211937503
 40
0.9294688928
 40
0.9374517342
 40
0.945160509
 40
0.9598347361
 40
0.9668566082
 40
0.9737035131
 40
0.9804067666
 40
0.9870000197
 40
0.9935188069
 40
1.0
 40
1.0
 40
1.0
 40
1.0
 10
11.4734157647
 20
9.8810522173
 30
0.0
 10
11.4622029688
 20
9.8818298274
 30
0.0
 10
11.4455038873
 20
9.8831749529
 30
0.0
 10
11.4234312571
 20
9.8853498505
 30
0.0
 10
11.4072543408
 20
9.8871429914
 30
0.0
 10
11.3913743916
 20
9.8891056494
 30
0.0
 10
11.375817966
 20
9.8912345321
 30
0.0
 10
11.3606110747
 20
9.893526052
 30
0.0
 10
11.3457791247
 20
9.8959763717
 30
0.0
 10
11.3313469016
 20
9.8985813677
 30
0.0
 10
11.3173385067
 20
9.9013366536
 30
0.0
 10
11.3037773318
 20
9.9042375977
 30
0.0
 10
11.2906860134
 20
9.9072793313
 30
0.0
 10
11.2780863831
 20
9.9104567307
 30
0.0
 10
11.265999435
 20
9.9137644485
 30
0.0
 10
11.2544452952
 20
9.9171969292
 30
0.0
 10
11.2434431744
 20
9.9207484141
 30
0.0
 10
11.2330113233
 20
9.9244129329
 30
0.0
 10
11.2231670001
 20
9.9281843492
 30
0.0
 10
11.2139264656
 20
9.9320563765
 30
0.0
 10
11.2053048347
 20
9.9360226035
 30
0.0
 10
11.1973163627
 20
9.9400764503
 30
0.0
 10
11.1911008833
 20
9.943576541
 30
0.0
 10
11.18646462
 20
9.9464211981
 30
0.0
 10
11.1832101999
 20
9.9485378755
 30
0.0
 10
11.1801235709
 20
9.9506713693
 30
0.0
 10
11.1772060098
 20
9.9528208518
 30
0.0
 10
11.1744586968
 20
9.9549854143
 30
0.0
 10
11.1718827879
 20
9.9571642267
 30
0.0
 10
11.1694793423
 20
9.9593564163
 30
0.0
 10
11.1672493413
 20
9.9615610968
 30
0.0
 10
11.1651937481
 20
9.963777472
 30
0.0
 10
11.1633134467
 20
9.9660045939
 30
0.0
 10
11.1616091281
 20
9.9682418502
 30
0.0
 10
11.1596058162
 20
9.9711879522
 30
0.0
 10
11.157910877
 20
9.9742036459
 30
0.0
 10
11.1565680325
 20
9.9772726692
 30
0.0
 10
11.1557549171
 20
9.9795466369
 30
0.0
 10
11.1551219188
 20
9.9818250766
 30
0.0
 10
11.1546694117
 20
9.984107067
 30
0.0
 10
11.1543977256
 20
9.9863912727
 30
0.0
 10
11.1543372836
 20
9.9879167156
 30
0.0
 10
11.1543372804
 20
9.988676892
 30
0.0
  0
SPLINE
  5
391
100
AcDbEntity
  8
0
100
AcDbSpline
 62
7
  6
CONTINUOUS
 70
0
 71
3
 72
48
 73
44
 74
0
 42
0.0000001
 43
0.0000001
 44
0.0000000001
 40
0.0
 40
0.0
 40
0.0
 40
0.0
 40
0.0311434631
 40
0.0624399956
 40
0.0938836138
 40
0.1254646847
 40
0.1571709829
 40
0.1889877595
 40
0.22089807
 40
0.2528831302
 40
0.2849226987
 40
0.3169954772
 40
0.3490795248
 40
0.3811526835
 40
0.413193006
 40
0.4451791789
 40
0.4770909382
 40
0.5089094729
 40
0.5406178044
 40
0.5722011384
 40
0.6036471904
 40
0.6349464615
 40
0.6660924706
 40
0.6970819377
 40
0.7279148953
 40
0.7432762698
 40
0.7586000727
 40
0.7738872515
 40
0.789138954
 40
0.8043565275
 40
0.819541513
 40
0.8346956329
 40
0.8498207866
 40
0.8649190411
 40
0.8799926163
 40
0.8950438755
 40
0.9100753135
 40
0.9250895394
 40
0.9400892632
 40
0.9550772817
 40
0.9700564603
 40
0.9850297153
 40
1.0
 40
1.0
 40
1.0
 40
1.0
 10
10.0727727834
 20
7.2883675393
 30
0.0
 10
10.0839766019
 20
7.2875905519
 30
0.0
 10
10.1063907693
 20
7.285212678
 30
0.0
 10
10.1397402687
 20
7.2792227734
 30
0.0
 10
10.1727325684
 20
7.2708327117
 30
0.0
 10
10.2051894715
 20
7.260087587
 30
0.0
 10
10.2369385693
 20
7.2470450245
 30
0.0
 10
10.2678104897
 20
7.2317747818
 30
0.0
 10
10.2976407598
 20
7.2143584327
 30
0.0
 10
10.3262704557
 20
7.1948890189
 30
0.0
 10
10.3535470198
 20
7.1734703952
 30
0.0
 10
10.3793251012
 20
7.1502167889
 30
0.0
 10
10.4034673638
 20
7.1252522129
 30
0.0
 10
10.4258450944
 20
7.0987096949
 30
0.0
 10
10.4463389877
 20
7.0707306901
 30
0.0
 10
10.4648397724
 20
7.0414643071
 30
0.0
 10
10.4812486755
 20
7.0110664549
 30
0.0
 10
10.4954780939
 20
6.9796991204
 30
0.0
 10
10.5074520006
 20
6.9475294611
 30
0.0
 10
10.5171062609
 20
6.9147289142
 30
0.0
 10
10.5243891487
 20
6.8814723202
 30
0.0
 10
10.5292615311
 20
6.8479370956
 30
0.0
 10
10.5316969564
 20
6.8143017782
 30
0.0
 10
10.5316822948
 20
6.7807470789
 30
0.0
 10
10.5296248547
 20
6.7529620185
 30
0.0
 10
10.5267563721
 20
6.7309597758
 30
0.0
 10
10.5240012189
 20
6.7146080078
 30
0.0
 10
10.5206434789
 20
6.6984098548
 30
0.0
 10
10.516687567
 20
6.6823866752
 30
0.0
 10
10.5121387899
 20
6.6665599447
 30
0.0
 10
10.5070032289
 20
6.6509507791
 30
0.0
 10
10.5012876857
 20
6.6355800544
 30
0.0
 10
10.4949998104
 20
6.6204682986
 30
0.0
 10
10.4881480158
 20
6.6056356931
 30
0.0
 10
10.4807414022
 20
6.5911020782
 30
0.0
 10
10.472789875
 20
6.576886869
 30
0.0
 10
10.4643040765
 20
6.5630090454
 30
0.0
 10
10.4552952999
 20
6.5494871787
 30
0.0
 10
10.445775583
 20
6.5363393315
 30
0.0
 10
10.4357576866
 20
6.5235830696
 30
0.0
 10
10.425254898
 20
6.511235404
 30
0.0
 10
10.414281481
 20
6.4993130703
 30
0.0
 10
10.4066610918
 20
6.4916581714
 30
0.0
 10
10.4027782191
 20
6.4879075941
 30
0.0
  0
SPLINE
  5
392
100
AcDbEntity
  8
0
100
AcDbSpline
 62
7
  6
CONTINUOUS
 70
0
 71
3
 72
48
 73
44
 74
0
 42
0.0000001
 43
0.0000001
 44
0.0000000001
 40
0.0
 40
0.0
 40
0.0
 40
0.0
 40
0.0311434631
 40
0.0624399956
 40
0.0938836138
 40
0.1254646847
 40
0.1571709829
 40
0.1889877595
 40
0.22089807
 40
0.2528831302
 40
0.2849226987
 40
0.3169954772
 40
0.3490795248
 40
0.3811526835
 40
0.413193006
 40
0.4451791789
 40
0.4770909382
 40
0.5089094729
 40
0.5406178044
 40
0.5722011384
 40
0.6036471904
 40
0.6349464615
 40
0.6660924706
 40
0.6970819377
 40
0.7279148953
 40
0.7432762698
 40
0.7586000727
 40
0.7738872515
 40
0.789138954
 40
0.8043565275
 40
0.819541513
 40
0.8346956329
 40
0.8498207866
 40
0.8649190411
 40
0.8799926163
 40
0.8950438755
 40
0.9100753135
 40
0.9250895394
 40
0.9400892632
 40
0.9550772817
 40
0.9700564603
 40
0.9850297153
 40
1.0
 40
1.0
 40
1.0
 40
1.0
 10
10.6764764606
 20
9.2836382617
 30
0.0
 10
10.6876802791
 20
9.2828612742
 30
0.0
 10
10.7100944465
 20
9.2804834004
 30
0.0
 10
10.7434439459
 20
9.2744934957
 30
0.0
 10
10.7764362456
 20
9.2661034341
 30
0.0
 10
10.8088931487
 20
9.2553583094
 30
0.0
 10
10.8406422465
 20
9.2423157469
 30
0.0
 10
10.8715141669
 20
9.2270455042
 30
0.0
 10
10.901344437
 20
9.2096291551
 30
0.0
 10
10.9299741329
 20
9.1901597413
 30
0.0
 10
10.957250697
 20
9.1687411176
 30
0.0
 10
10.9830287784
 20
9.1454875113
 30
0.0
 10
11.007171041
 20
9.1205229353
 30
0.0
 10
11.0295487716
 20
9.0939804173
 30
0.0
 10
11.0500426649
 20
9.0660014125
 30
0.0
 10
11.0685434496
 20
9.0367350295
 30
0.0
 10
11.0849523527
 20
9.0063371773
 30
0.0
 10
11.0991817711
 20
8.9749698428
 30
0.0
 10
11.1111556778
 20
8.9428001835
 30
0.0
 10
11.1208099381
 20
8.9099996366
 30
0.0
 10
11.1280928259
 20
8.8767430426
 30
0.0
 10
11.1329652083
 20
8.843207818
 30
0.0
 10
11.1354006336
 20
8.8095725006
 30
0.0
 10
11.135385972
 20
8.7760178013
 30
0.0
 10
11.1333285319
 20
8.7482327409
 30
0.0
 10
11.1304600493
 20
8.7262304982
 30
0.0
 10
11.1277048961
 20
8.7098787302
 30
0.0
 10
11.1243471561
 20
8.6936805772
 30
0.0
 10
11.1203912442
 20
8.6776573976
 30
0.0
 10
11.1158424671
 20
8.6618306671
 30
0.0
 10
11.1107069061
 20
8.6462215015
 30
0.0
 10
11.1049913629
 20
8.6308507767
 30
0.0
 10
11.0987034876
 20
8.615739021
 30
0.0
 10
11.091851693
 20
8.6009064155
 30
0.0
 10
11.0844450794
 20
8.5863728006
 30
0.0
 10
11.0764935522
 20
8.5721575914
 30
0.0
 10
11.0680077537
 20
8.5582797678
 30
0.0
 10
11.0589989771
 20
8.5447579011
 30
0.0
 10
11.0494792602
 20
8.5316100539
 30
0.0
 10
11.0394613638
 20
8.518853792
 30
0.0
 10
11.0289585752
 20
8.5065061264
 30
0.0
 10
11.0179851582
 20
8.4945837927
 30
0.0
 10
11.010364769
 20
8.4869288938
 30
0.0
 10
11.0064818963
 20
8.4831783165
 30
0.0
  0
SPLINE
  5
393
100
AcDbEntity
  8
0
100
AcDbSpline
 62
7
  6
CONTINUOUS
 70
0
 71
3
 72
19
 73
15
 74
0
 42
0.0000001
 43
0.0000001
 44
0.0000000001
 40
0.0
 40
0.0
 40
0.0
 40
0.0
 40
0.150460937
 40
0.2916987357
 40
0.424419542
 40
0.4878837275
 40
0.5495802504
 40
0.6682271673
 40
0.7255606103
 40
0.7817998831
 40
0.8371466721
 40
0.8918135967
 40
0.94602219
 40
1.0
 40
1.0
 40
1.0
 40
1.0
 10
12.2721120623
 20
8.4283499313
 30
0.0
 10
12.2734549335
 20
8.4296470453
 30
0.0
 10
12.2761388288
 20
8.4320808002
 30
0.0
 10
12.2802945816
 20
8.4353240578
 30
0.0
 10
12.2838047689
 20
8.4376178699
 30
0.0
 10
12.2866039188
 20
8.4391711735
 30
0.0
 10
12.2893204892
 20
8.4405047177
 30
0.0
 10
12.2920688661
 20
8.4415947704
 30
0.0
 10
12.2948327056
 20
8.44241504
 30
0.0
 10
12.296876213
 20
8.4428878482
 30
0.0
 10
12.2989129177
 20
8.4432248447
 30
0.0
 10
12.3009422818
 20
8.4434258625
 30
0.0
 10
12.3029634849
 20
8.4434908238
 30
0.0
 10
12.3043063148
 20
8.4434433331
 30
0.0
 10
12.3049745069
 20
8.4433969938
 30
0.0
  0
SPLINE
  5
394
100
AcDbEntity
  8
0
100
AcDbSpline
 62
7
  6
CONTINUOUS
 70
0
 71
3
 72
22
 73
18
 74
0
 42
0.0000001
 43
0.0000001
 44
0.0000000001
 40
0.0
 40
0.0
 40
0.0
 40
0.0
 40
0.1653179427
 40
0.2442759621
 40
0.3205111936
 40
0.3938879049
 40
0.4643021815
 40
0.5316806418
 40
0.595977312
 40
0.6571692279
 40
0.7152518685
 40
0.7702353603
 40
0.8221421539
 40
0.8710074584
 40
0.9168822573
 40
0.9598426901
 40
1.0
 40
1.0
 40
1.0
 40
1.0
 10
10.6232675354
 20
9.1241191753
 30
0.0
 10
10.6213401871
 20
9.1175345002
 30
0.0
 10
10.6190367841
 20
9.1076284166
 30
0.0
 10
10.6172552734
 20
9.0944400005
 30
0.0
 10
10.6165873679
 20
9.0849704418
 30
0.0
 10
10.6165451457
 20
9.0758324365
 30
0.0
 10
10.6170978228
 20
9.0670790989
 30
0.0
 10
10.6182079789
 20
9.0587588554
 30
0.0
 10
10.6198326797
 20
9.0509140109
 30
0.0
 10
10.6219249243
 20
9.0435810409
 30
0.0
 10
10.6244349468
 20
9.0367908941
 30
0.0
 10
10.6273113709
 20
9.0305696278
 30
0.0
 10
10.6305021986
 20
9.0249390898
 30
0.0
 10
10.6339554918
 20
9.0199178126
 30
0.0
 10
10.6376204184
 20
9.0155213293
 30
0.0
 10
10.6414463302
 20
9.0117640595
 30
0.0
 10
10.6441622905
 20
9.0096228153
 30
0.0
 10
10.6455325428
 20
9.0086741684
 30
0.0
  0
SPLINE
  5
395
100
AcDbEntity
  8
0
100
AcDbSpline
 62
7
  6
CONTINUOUS
 70
0
 71
3
 72
34
 73
30
 74
0
 42
0.0000001
 43
0.0000001
 44
0.0000000001
 40
0.0
 40
0.0
 40
0.0
 40
0.0
 40
0.0324786263
 40
0.0648608656
 40
0.0971178534
 40
0.1292269015
 40
0.1611701297
 40
0.1929359567
 40
0.224518714
 40
0.2559185706
 40
0.2871409433
 40
0.3181958018
 40
0.3490969972
 40
0.3798615268
 40
0.4105087509
 40
0.4410596652
 40
0.4715364195
 40
0.5019621363
 40
0.5323602222
 40
0.5627540904
 40
0.5931675577
 40
0.6236241831
 40
0.6847495304
 40
0.746326061
 40
0.7773429593
 40
0.8085364912
 40
0.8715144852
 40
0.9353549665
 40
1.0
 40
1.0
 40
1.0
 40
1.0
 10
10.8716511768
 20
8.7549349211
 30
0.0
 10
10.8676522396
 20
8.7551851286
 30
0.0
 10
10.859677641
 20
8.755893849
 30
0.0
 10
10.8478118466
 20
8.7575911781
 30
0.0
 10
10.8360999041
 20
8.7599211584
 30
0.0
 10
10.8245859516
 20
8.7628769142
 30
0.0
 10
10.8133105694
 20
8.7664458692
 30
0.0
 10
10.8023106751
 20
8.7706101632
 30
0.0
 10
10.791618594
 20
8.7753476527
 30
0.0
 10
10.7812617426
 20
8.7806328201
 30
0.0
 10
10.7712624962
 20
8.786437807
 30
0.0
 10
10.7616383179
 20
8.7927333736
 30
0.0
 10
10.7524020355
 20
8.7994897429
 30
0.0
 10
10.7435622793
 20
8.8066773589
 30
0.0
 10
10.7351240269
 20
8.8142674968
 30
0.0
 10
10.7270891443
 20
8.8222326906
 30
0.0
 10
10.7194568652
 20
8.8305470422
 30
0.0
 10
10.7122243171
 20
8.8391864489
 30
0.0
 10
10.7053870135
 20
8.8481287507
 30
0.0
 10
10.6989391743
 20
8.8573536516
 30
0.0
 10
10.6928740519
 20
8.8668430341
 30
0.0
 10
10.6852795469
 20
8.8798402976
 30
0.0
 10
10.6766977387
 20
8.8966947429
 30
0.0
 10
10.6693210282
 20
8.9141819114
 30
0.0
 10
10.6640948118
 20
8.9285333166
 30
0.0
 10
10.6592795068
 20
8.9432098824
 30
0.0
 10
10.6540714981
 20
8.9620080712
 30
0.0
 10
10.6490900547
 20
8.985108524
 30
0.0
 10
10.6465895309
 20
9.0007695273
 30
0.0
 10
10.6455325428
 20
9.0086741684
 30
0.0
  0
SPLINE
  5
396
100
AcDbEntity
  8
0
100
AcDbSpline
 62
7
  6
CONTINUOUS
 70
0
 71
3
 72
52
 73
48
 74
0
 42
0.0000001
 43
0.0000001
 44
0.0000000001
 40
0.0
 40
0.0
 40
0.0
 40
0.0
 40
0.0055575409
 40
0.0111779669
 40
0.0169218944
 40
0.0228457784
 40
0.0290005385
 40
0.0354309383
 40
0.0421753664
 40
0.0492662129
 40
0.0567302428
 40
0.0645893498
 40
0.0728610114
 40
0.0815590518
 40
0.0906939685
 40
0.1002735876
 40
0.1103032329
 40
0.1207862668
 40
0.1317241336
 40
0.1431168099
 40
0.1549627623
 40
0.1672593293
 40
0.180002627
 40
0.1931878784
 40
0.2068092924
 40
0.2208603496
 40
0.2353336718
 40
0.2502212706
 40
0.2812030867
 40
0.3137301822
 40
0.3477175443
 40
0.3830726942
 40
0.4196965467
 40
0.4574841626
 40
0.4963254275
 40
0.5361056779
 40
0.5767062924
 40
0.6180052566
 40
0.6598777114
 40
0.7021964885
 40
0.7448326391
 40
0.7876559545
 40
0.8305354925
 40
0.8733400712
 40
0.9159388564
 40
0.9582016962
 40
1.0
 40
1.0
 40
1.0
 40
1.0
 10
12.0153372629
 20
9.9886773778
 30
0.0
 10
12.0153372674
 20
9.9876124041
 30
0.0
 10
12.0152180628
 20
9.9854685502
 30
0.0
 10
12.0146829239
 20
9.9822642147
 30
0.0
 10
12.0137924082
 20
9.9790670185
 30
0.0
 10
12.0125481813
 20
9.9758806897
 30
0.0
 10
12.0109523563
 20
9.9727077833
 30
0.0
 10
12.0090070169
 20
9.9695507668
 30
0.0
 10
12.0067144381
 20
9.9664117644
 30
0.0
 10
12.0040768097
 20
9.9632929402
 30
0.0
 10
12.0010965466
 20
9.9601963391
 30
0.0
 10
11.9977760938
 20
9.957124173
 30
0.0
 10
11.9941182007
 20
9.9540785739
 30
0.0
 10
11.9901257484
 20
9.9510618587
 30
0.0
 10
11.9858019585
 20
9.9480762421
 30
0.0
 10
11.9811502388
 20
9.9451241028
 30
0.0
 10
11.9761743379
 20
9.942207691
 30
0.0
 10
11.9708782164
 20
9.9393293946
 30
0.0
 10
11.9652661594
 20
9.9364914567
 30
0.0
 10
11.9593426745
 20
9.9336962356
 30
0.0
 10
11.9531125735
 20
9.9309459375
 30
0.0
 10
11.9465808942
 20
9.9282428646
 30
0.0
 10
11.9397529578
 20
9.9255891669
 30
0.0
 10
11.9326343109
 20
9.9229870724
 30
0.0
 10
11.9252307635
 20
9.92043866
 30
0.0
 10
11.9175483508
 20
9.9179460759
 30
0.0
 10
11.9095933413
 20
9.9155112971
 30
0.0
 10
11.8984838949
 20
9.9123020849
 30
0.0
 10
11.8839581888
 20
9.908460468
 30
0.0
 10
11.8657724511
 20
9.9041706055
 30
0.0
 10
11.8466669268
 20
9.900155956
 30
0.0
 10
11.8267041172
 20
9.8964297962
 30
0.0
 10
11.8059492049
 20
9.8930044685
 30
0.0
 10
11.7844700725
 20
9.8898913071
 30
0.0
 10
11.7623369972
 20
9.8871006105
 30
0.0
 10
11.7396224316
 20
9.8846416057
 30
0.0
 10
11.7164007539
 20
9.88252242
 30
0.0
 10
11.6927480204
 20
9.8807500549
 30
0.0
 10
11.6687417127
 20
9.8793303645
 30
0.0
 10
11.6444604798
 20
9.8782680366
 30
0.0
 10
11.6199838783
 20
9.8775665787
 30
0.0
 10
11.5953921095
 20
9.8772283061
 30
0.0
 10
11.5707657549
 20
9.8772543362
 30
0.0
 10
11.5461855102
 20
9.8776445812
 30
0.0
 10
11.5217319096
 20
9.8783977568
 30
0.0
 10
11.4974851435
 20
9.8795113683
 30
0.0
 10
11.4814062479
 20
9.8804980754
 30
0.0
 10
11.4734157647
 20
9.8810522173
 30
0.0
  0
SPLINE
  5
397
100
AcDbEntity
  8
0
100
AcDbSpline
 62
7
  6
CONTINUOUS
 70
0
 71
3
 72
86
 73
82
 74
0
 42
0.0000001
 43
0.0000001
 44
0.0000000001
 40
0.0
 40
0.0
 40
0.0
 40
0.0
 40
0.0027164229
 40
0.0054532199
 40
0.0082302803
 40
0.0110665652
 40
0.0139797601
 40
0.0169860612
 40
0.0201000083
 40
0.0233345154
 40
0.0267008552
 40
0.0302087911
 40
0.0338666949
 40
0.0376816386
 40
0.0416596027
 40
0.0458055094
 40
0.0501234214
 40
0.0546165986
 40
0.0592875859
 40
0.0641383491
 40
0.0691702497
 40
0.0743842108
 40
0.0797806815
 40
0.0853597253
 40
0.0911210701
 40
0.0970640767
 40
0.1094907819
 40
0.1226299857
 40
0.1364676026
 40
0.1509863633
 40
0.166166208
 40
0.1819846021
 40
0.1984167887
 40
0.2154360082
 40
0.2330136911
 40
0.2511196222
 40
0.2697220861
 40
0.2887880011
 40
0.3082830385
 40
0.3281717446
 40
0.3484176561
 40
0.3689834073
 40
0.3898308346
 40
0.4109210783
 40
0.4322146819
 40
0.4536716962
 40
0.4969136001
 40
0.5403217884
 40
0.5835689461
 40
0.6050305436
 40
0.6263300209
 40
0.6474274143
 40
0.6682832501
 40
0.6888586484
 40
0.7091154216
 40
0.7290161766
 40
0.7485244187
 40
0.7676046599
 40
0.7862225346
 40
0.8043449193
 40
0.8219400528
 40
0.8389776685
 40
0.8554291414
 40
0.8712676506
 40
0.8864683732
 40
0.9010086996
 40
0.9148684857
 40
0.9280303658
 40
0.9404801448
 40
0.9464347977
 40
0.952207837
 40
0.9577986052
 40
0.9632068066
 40
0.9684324934
 40
0.9734760794
 40
0.9783384382
 40
0.9830208843
 40
0.9875254058
 40
0.9918546018
 40
0.9960115767
 40
1.0
 40
1.0
 40
1.0
 40
1.0
 10
12.2392496177
 20
7.4956732794
 30
0.0
 10
12.2383630887
 20
7.4957347604
 30
0.0
 10
12.2365879231
 20
7.4959384419
 30
0.0
 10
12.2339477682
 20
7.4964834225
 30
0.0
 10
12.2313275719
 20
7.497267843
 30
0.0
 10
12.2287291962
 20
7.498290911
 30
0.0
 10
12.226153974
 20
7.4995517064
 30
0.0
 10
12.223603254
 20
7.5010492895
 30
0.0
 10
12.2210781692
 20
7.5027825292
 30
0.0
 10
12.2185798861
 20
7.5047503881
 30
0.0
 10
12.2161094529
 20
7.5069516759
 30
0.0
 10
12.2136679411
 20
7.5093852017
 30
0.0
 10
12.2112564394
 20
7.5120497117
 30
0.0
 10
12.208875971
 20
7.5149438207
 30
0.0
 10
12.2065276721
 20
7.5180661264
 30
0.0
 10
12.2042125748
 20
7.5214150515
 30
0.0
 10
12.2019317973
 20
7.5249889669
 30
0.0
 10
12.1996864243
 20
7.5287861099
 30
0.0
 10
12.197477513
 20
7.5328046002
 30
0.0
 10
12.1953061856
 20
7.5370424725
 30
0.0
 10
12.1931734558
 20
7.5414976107
 30
0.0
 10
12.1910804209
 20
7.5461678213
 30
0.0
 10
12.1890280954
 20
7.5510507762
 30
0.0
 10
12.1870175052
 20
7.5561440441
 30
0.0
 10
12.1850496585
 20
7.5614450995
 30
0.0
 10
12.1824453604
 20
7.5688978904
 30
0.0
 10
12.1793135867
 20
7.5787208952
 30
0.0
 10
12.1757947587
 20
7.5911238789
 30
0.0
 10
12.1724686074
 20
7.6042868554
 30
0.0
 10
12.1693418664
 20
7.6181834757
 30
0.0
 10
12.1664208926
 20
7.6327860571
 30
0.0
 10
12.1637116293
 20
7.648065389
 30
0.0
 10
12.1612195898
 20
7.663990876
 30
0.0
 10
12.158949844
 20
7.6805305869
 30
0.0
 10
12.1569070117
 20
7.6976513355
 30
0.0
 10
12.1550952515
 20
7.7153187507
 30
0.0
 10
12.1535182527
 20
7.73349735
 30
0.0
 10
12.152179229
 20
7.7521506107
 30
0.0
 10
12.1510809068
 20
7.7712410447
 30
0.0
 10
12.1502255235
 20
7.7907302766
 30
0.0
 10
12.1496148252
 20
7.8105791249
 30
0.0
 10
12.1492500635
 20
7.8307476806
 30
0.0
 10
12.149131991
 20
7.8511953921
 30
0.0
 10
12.1492608688
 20
7.8718811303
 30
0.0
 10
12.1496364297
 20
7.8927633287
 30
0.0
 10
12.1504672989
 20
7.9208834039
 30
0.0
 10
12.1521170381
 20
7.9562146901
 30
0.0
 10
12.1550496348
 20
7.9986116934
 30
0.0
 10
12.1582802544
 20
8.0338368559
 30
0.0
 10
12.1613291924
 20
8.0618086655
 30
0.0
 10
12.1638326689
 20
8.082549458
 30
0.0
 10
12.1665535183
 20
8.1030629525
 30
0.0
 10
12.1694862807
 20
8.1233079274
 30
0.0
 10
12.1726250338
 20
8.1432436652
 30
0.0
 10
12.1759634478
 20
8.1628300844
 30
0.0
 10
12.1794947873
 20
8.182027807
 30
0.0
 10
12.1832119268
 20
8.2007982403
 30
0.0
 10
12.1871073653
 20
8.2191036563
 30
0.0
 10
12.1911732383
 20
8.2369072709
 30
0.0
 10
12.1954013324
 20
8.2541733211
 30
0.0
 10
12.1997831061
 20
8.2708671367
 30
0.0
 10
12.2043097062
 20
8.2869552108
 30
0.0
 10
12.2089719853
 20
8.302405271
 30
0.0
 10
12.2137605234
 20
8.3171863489
 30
0.0
 10
12.2186656432
 20
8.3312688585
 30
0.0
 10
12.2236774337
 20
8.344624642
 30
0.0
 10
12.228785784
 20
8.3572271088
 30
0.0
 10
12.2339803927
 20
8.3690510407
 30
0.0
 10
12.238436064
 20
8.3783695008
 30
0.0
 10
12.242042697
 20
8.3854092878
 30
0.0
 10
12.2447225232
 20
8.3904014792
 30
0.0
 10
12.2474160827
 20
8.3951821301
 30
0.0
 10
12.2501220401
 20
8.3997488693
 30
0.0
 10
12.2528390365
 20
8.4040994281
 30
0.0
 10
12.2555657507
 20
8.4082316247
 30
0.0
 10
12.2583007754
 20
8.4121434247
 30
0.0
 10
12.2610428163
 20
8.4158328777
 30
0.0
 10
12.2637905298
 20
8.4192982029
 30
0.0
 10
12.2665426419
 20
8.422537707
 30
0.0
 10
12.2692976765
 20
8.4255496314
 30
0.0
 10
12.2711735903
 20
8.4274434369
 30
0.0
 10
12.2721120623
 20
8.4283499313
 30
0.0
  0
SPLINE
  5
398
100
AcDbEntity
  8
0
100
AcDbSpline
 62
7
  6
CONTINUOUS
 70
0
 71
3
 72
59
 73
55
 74
0
 42
0.0000001
 43
0.0000001
 44
0.0000000001
 40
0.0
 40
0.0
 40
0.0
 40
0.0
 40
0.0075208311
 40
0.0156241766
 40
0.0243311007
 40
0.0336549386
 40
0.0436028077
 40
0.0541768317
 40
0.0653749453
 40
0.0771915599
 40
0.08961816
 40
0.10264364
 40
0.1162546046
 40
0.1304357049
 40
0.1451697937
 40
0.1604380695
 40
0.1762203028
 40
0.1924949219
 40
0.2092390877
 40
0.2264288677
 40
0.2440392968
 40
0.2620444227
 40
0.2991300734
 40
0.337463055
 40
0.3768093382
 40
0.4169265582
 40
0.4575661491
 40
0.4984753803
 40
0.5393993789
 40
0.5800831581
 40
0.6202736296
 40
0.6597216473
 40
0.6981840261
 40
0.7354256484
 40
0.7535183302
 40
0.7712224299
 40
0.7885118037
 40
0.8053612647
 40
0.8217466086
 40
0.8376447426
 40
0.8530338123
 40
0.8678932395
 40
0.8822038834
 40
0.8959482262
 40
0.9091104572
 40
0.9216767058
 40
0.9336353451
 40
0.9449771968
 40
0.955695942
 40
0.9657887114
 40
0.9752565152
 40
0.9841051685
 40
0.9923468893
 40
1.0
 40
1.0
 40
1.0
 40
1.0
 10
12.2126938908
 20
7.6492380105
 30
0.0
 10
12.2116387877
 20
7.6505353243
 30
0.0
 10
12.2095599101
 20
7.6533235264
 30
0.0
 10
12.2066343789
 20
7.6578781992
 30
0.0
 10
12.2037923823
 20
7.6629500838
 30
0.0
 10
12.2010384254
 20
7.6685308655
 30
0.0
 10
12.1983766547
 20
7.6746118566
 30
0.0
 10
12.1958113706
 20
7.6811833176
 30
0.0
 10
12.1933467422
 20
7.6882346536
 30
0.0
 10
12.1909868154
 20
7.6957543878
 30
0.0
 10
12.188735526
 20
7.7037302291
 30
0.0
 10
12.1865966349
 20
7.7121490792
 30
0.0
 10
12.1845737019
 20
7.7209970646
 30
0.0
 10
12.1826701301
 20
7.7302595814
 30
0.0
 10
12.18088912
 20
7.7399213139
 30
0.0
 10
12.1792336421
 20
7.7499662614
 30
0.0
 10
12.1777064847
 20
7.7603777795
 30
0.0
 10
12.1763102213
 20
7.7711386039
 30
0.0
 10
12.1750471771
 20
7.7822308787
 30
0.0
 10
12.1739194845
 20
7.7936361887
 30
0.0
 10
12.1729290263
 20
7.8053356156
 30
0.0
 10
12.1717824027
 20
7.8214599039
 30
0.0
 10
12.1707133522
 20
7.8422068601
 30
0.0
 10
12.1700097169
 20
7.8677165303
 30
0.0
 10
12.1698781896
 20
7.8939095581
 30
0.0
 10
12.170319794
 20
7.920611975
 30
0.0
 10
12.1713317683
 20
7.9476465534
 30
0.0
 10
12.1729074904
 20
7.9748337831
 30
0.0
 10
12.1750365126
 20
8.001993141
 30
0.0
 10
12.1777046799
 20
8.02894429
 30
0.0
 10
12.180894206
 20
8.0555082823
 30
0.0
 10
12.1845837488
 20
8.0815088281
 30
0.0
 10
12.1887486527
 20
8.1067732532
 30
0.0
 10
12.1926285829
 20
8.127266567
 30
0.0
 10
12.195957364
 20
8.1431617219
 30
0.0
 10
12.198530611
 20
8.1546815297
 30
0.0
 10
12.2012001927
 20
8.1658954487
 30
0.0
 10
12.2039616658
 20
8.1767848795
 30
0.0
 10
12.2068104276
 20
8.187331742
 30
0.0
 10
12.2097417315
 20
8.1975185384
 30
0.0
 10
12.2127506695
 20
8.2073283823
 30
0.0
 10
12.2158322293
 20
8.2167450159
 30
0.0
 10
12.2189812778
 20
8.2257528468
 30
0.0
 10
12.2221925442
 20
8.2343369873
 30
0.0
 10
12.2254606826
 20
8.2424832635
 30
0.0
 10
12.2287802653
 20
8.2501782505
 30
0.0
 10
12.2321457585
 20
8.2574093174
 30
0.0
 10
12.2355515969
 20
8.2641646316
 30
0.0
 10
12.2389921911
 20
8.270433193
 30
0.0
 10
12.2424619291
 20
8.2762048832
 30
0.0
 10
12.2459551979
 20
8.2814704217
 30
0.0
 10
12.2494666781
 20
8.28622163
 30
0.0
 10
12.2529907103
 20
8.290450603
 30
0.0
 10
12.2554333528
 20
8.2930099112
 30
0.0
 10
12.2566572474
 20
8.2941921026
 30
0.0
  0
SPLINE
  5
399
100
AcDbEntity
  8
0
100
AcDbSpline
 62
7
  6
CONTINUOUS
 70
0
 71
3
 72
25
 73
21
 74
0
 42
0.0000001
 43
0.0000001
 44
0.0000000001
 40
0.0
 40
0.0
 40
0.0
 40
0.0
 40
0.0616475282
 40
0.0924812782
 40
0.1233236452
 40
0.1850399949
 40
0.2468243989
 40
0.277751634
 40
0.3087038677
 40
0.3706878948
 40
0.4328012861
 40
0.4950619216
 40
0.5574860801
 40
0.6200882709
 40
0.6828811113
 40
0.7458751472
 40
0.8090789555
 40
0.8724985283
 40
0.936138578
 40
1.0
 40
1.0
 40
1.0
 40
1.0
 10
9.7427673477
 20
7.1711978951
 30
0.0
 10
9.7480978361
 20
7.1763467657
 30
0.0
 10
9.7563044081
 20
7.1838578943
 30
0.0
 10
9.7676364982
 20
7.1934194322
 30
0.0
 10
9.7792280019
 20
7.2026786292
 30
0.0
 10
9.7941876252
 20
7.2136713912
 30
0.0
 10
9.8097232965
 20
7.2238523866
 30
0.0
 10
9.8224756142
 20
7.2314970365
 30
0.0
 10
9.8354482237
 20
7.2388105241
 30
0.0
 10
9.8520468661
 20
7.2473124063
 30
0.0
 10
9.8725101602
 20
7.2564574879
 30
0.0
 10
9.8934775523
 20
7.2645279831
 30
0.0
 10
9.914895867
 20
7.2715034124
 30
0.0
 10
9.9367112445
 20
7.2773663189
 30
0.0
 10
9.9588687076
 20
7.2821019757
 30
0.0
 10
9.9813124867
 20
7.2856985369
 30
0.0
 10
10.0039859946
 20
7.2881469823
 30
0.0
 10
10.0268324056
 20
7.2894412488
 30
0.0
 10
10.0497934056
 20
7.2895781229
 30
0.0
 10
10.0651138906
 20
7.2888986853
 30
0.0
 10
10.0727727834
 20
7.2883675393
 30
0.0
  0
SPLINE
  5
39A
100
AcDbEntity
  8
0
100
AcDbSpline
 62
7
  6
CONTINUOUS
 70
0
 71
3
 72
23
 73
19
 74
0
 42
0.0000001
 43
0.0000001
 44
0.0000000001
 40
0.0
 40
0.0
 40
0.0
 40
0.0
 40
0.0616482097
 40
0.123319447
 40
0.1850364789
 40
0.2468215645
 40
0.3086962086
 40
0.3706809238
 40
0.4327950069
 40
0.4950563354
 40
0.5574811816
 40
0.620084074
 40
0.6828775998
 40
0.7458723259
 40
0.8090769666
 40
0.8724967557
 40
0.9361385685
 40
1.0
 40
1.0
 40
1.0
 40
1.0
 10
9.8775485645
 20
7.0580791037
 30
0.0
 10
9.8809151896
 20
7.0613310001
 30
0.0
 10
9.8878260577
 20
7.0676562363
 30
0.0
 10
9.8986894281
 20
7.0765750273
 30
0.0
 10
9.9100245249
 20
7.0849043012
 30
0.0
 10
9.9218023997
 20
7.0926227103
 30
0.0
 10
9.9339934699
 20
7.0997109255
 30
0.0
 10
9.9465669885
 20
7.1061510757
 30
0.0
 10
9.9594912834
 20
7.1119269533
 30
0.0
 10
9.9727337791
 20
7.1170240458
 30
0.0
 10
9.9862611095
 20
7.1214295567
 30
0.0
 10
10.0000391995
 20
7.1251324228
 30
0.0
 10
10.0140333447
 20
7.1281233499
 30
0.0
 10
10.0282083305
 20
7.1303948429
 30
0.0
 10
10.0425283724
 20
7.1319411878
 30
0.0
 10
10.0569576922
 20
7.1327586467
 30
0.0
 10
10.0714593226
 20
7.1328450538
 30
0.0
 10
10.0811354163
 20
7.1324159561
 30
0.0
 10
10.085972544
 20
7.1320805001
 30
0.0
  0
SPLINE
  5
39B
100
AcDbEntity
  8
0
100
AcDbSpline
 62
7
  6
CONTINUOUS
 70
0
 71
3
 72
39
 73
35
 74
0
 42
0.0000001
 43
0.0000001
 44
0.0000000001
 40
0.0
 40
0.0
 40
0.0
 40
0.0
 40
0.0299393048
 40
0.0599022805
 40
0.0899120376
 40
0.1199905841
 40
0.1501583161
 40
0.1804335571
 40
0.2108321567
 40
0.2413671582
 40
0.2720485418
 40
0.3028830453
 40
0.333874066
 40
0.3650216372
 40
0.3963224773
 40
0.427770107
 40
0.459355027
 40
0.4910649499
 40
0.5228850821
 40
0.5547984438
 40
0.586786223
 40
0.6188281554
 40
0.6509029263
 40
0.6829885863
 40
0.7150629767
 40
0.747104156
 40
0.7790908247
 40
0.8110027395
 40
0.8428211156
 40
0.8745290113
 40
0.906111652
 40
0.937556897
 40
0.9688549576
 40
1.0
 40
1.0
 40
1.0
 40
1.0
 10
10.2943965235
 20
6.6265263665
 30
0.0
 10
10.2993007728
 20
6.6312634876
 30
0.0
 10
10.3087458087
 20
6.6411304538
 30
0.0
 10
10.3217174176
 20
6.6570004524
 30
0.0
 10
10.3334299468
 20
6.6738612357
 30
0.0
 10
10.3438196277
 20
6.6916213242
 30
0.0
 10
10.3528313166
 20
6.7101859027
 30
0.0
 10
10.3604168915
 20
6.7294554841
 30
0.0
 10
10.3665360106
 20
6.7493269553
 30
0.0
 10
10.371156177
 20
6.7696940053
 30
0.0
 10
10.3742529491
 20
6.7904477334
 30
0.0
 10
10.3758100481
 20
6.8114772292
 30
0.0
 10
10.3758194187
 20
6.8326701711
 30
0.0
 10
10.3742812613
 20
6.8539134215
 30
0.0
 10
10.3712040195
 20
6.8750936256
 30
0.0
 10
10.3666043231
 20
6.8960978081
 30
0.0
 10
10.360506903
 20
6.9168139698
 30
0.0
 10
10.3529444592
 20
6.9371316805
 30
0.0
 10
10.3439574658
 20
6.9569426566
 30
0.0
 10
10.3335939574
 20
6.9761413297
 30
0.0
 10
10.3219092725
 20
6.9946254012
 30
0.0
 10
10.3089657588
 20
7.012296379
 30
0.0
 10
10.294832449
 20
7.0290600991
 30
0.0
 10
10.2795847029
 20
7.0448272311
 30
0.0
 10
10.2633037943
 20
7.0595137375
 30
0.0
 10
10.2460764845
 20
7.0730413188
 30
0.0
 10
10.2279945662
 20
7.0853378256
 30
0.0
 10
10.2091543764
 20
7.0963376392
 30
0.0
 10
10.1896563044
 20
7.105982023
 30
0.0
 10
10.169604225
 20
7.114219441
 30
0.0
 10
10.1491050993
 20
7.1210058449
 30
0.0
 10
10.12826784
 20
7.126304839
 30
0.0
 10
10.1072049759
 20
7.1300879611
 30
0.0
 10
10.0930486506
 20
7.1315897705
 30
0.0
 10
10.085972544
 20
7.1320805001
 30
0.0
  0
SPLINE
  5
39C
100
AcDbEntity
  8
0
100
AcDbSpline
 62
7
  6
CONTINUOUS
 70
0
 71
3
 72
25
 73
21
 74
0
 42
0.0000001
 43
0.0000001
 44
0.0000000001
 40
0.0
 40
0.0
 40
0.0
 40
0.0
 40
0.0616475282
 40
0.0924812782
 40
0.1233236452
 40
0.1850399949
 40
0.2468243989
 40
0.277751634
 40
0.3087038677
 40
0.3706878948
 40
0.4328012861
 40
0.4950619216
 40
0.5574860801
 40
0.6200882709
 40
0.6828811113
 40
0.7458751472
 40
0.8090789555
 40
0.8724985283
 40
0.936138578
 40
1.0
 40
1.0
 40
1.0
 40
1.0
 10
10.3464710249
 20
9.1664686175
 30
0.0
 10
10.3518015133
 20
9.1716174881
 30
0.0
 10
10.3600080853
 20
9.1791286167
 30
0.0
 10
10.3713401754
 20
9.1886901546
 30
0.0
 10
10.3829316791
 20
9.1979493516
 30
0.0
 10
10.3978913024
 20
9.2089421136
 30
0.0
 10
10.4134269737
 20
9.219123109
 30
0.0
 10
10.4261792914
 20
9.2267677589
 30
0.0
 10
10.4391519009
 20
9.2340812465
 30
0.0
 10
10.4557505433
 20
9.2425831287
 30
0.0
 10
10.4762138374
 20
9.2517282103
 30
0.0
 10
10.4971812295
 20
9.2597987054
 30
0.0
 10
10.5185995442
 20
9.2667741348
 30
0.0
 10
10.5404149218
 20
9.2726370413
 30
0.0
 10
10.5625723848
 20
9.2773726981
 30
0.0
 10
10.5850161639
 20
9.2809692593
 30
0.0
 10
10.6076896718
 20
9.2834177047
 30
0.0
 10
10.6305360828
 20
9.2847119712
 30
0.0
 10
10.6534970828
 20
9.2848488453
 30
0.0
 10
10.6688175678
 20
9.2841694077
 30
0.0
 10
10.6764764606
 20
9.2836382617
 30
0.0
  0
SPLINE
  5
39D
100
AcDbEntity
  8
0
100
AcDbSpline
 62
7
  6
CONTINUOUS
 70
0
 71
3
 72
23
 73
19
 74
0
 42
0.0000001
 43
0.0000001
 44
0.0000000001
 40
0.0
 40
0.0
 40
0.0
 40
0.0
 40
0.0616482097
 40
0.123319447
 40
0.1850364789
 40
0.2468215645
 40
0.3086962086
 40
0.3706809238
 40
0.4327950069
 40
0.4950563354
 40
0.5574811816
 40
0.620084074
 40
0.6828775998
 40
0.7458723259
 40
0.8090769666
 40
0.8724967557
 40
0.9361385685
 40
1.0
 40
1.0
 40
1.0
 40
1.0
 10
10.4812522417
 20
9.053349826
 30
0.0
 10
10.4846188668
 20
9.0566017225
 30
0.0
 10
10.4915297349
 20
9.0629269587
 30
0.0
 10
10.5023931053
 20
9.0718457497
 30
0.0
 10
10.5137282021
 20
9.0801750236
 30
0.0
 10
10.5255060769
 20
9.0878934327
 30
0.0
 10
10.5376971471
 20
9.0949816479
 30
0.0
 10
10.5502706657
 20
9.1014217981
 30
0.0
 10
10.5631949606
 20
9.1071976756
 30
0.0
 10
10.5764374563
 20
9.1122947682
 30
0.0
 10
10.5899647867
 20
9.1167002791
 30
0.0
 10
10.6037428767
 20
9.1204031452
 30
0.0
 10
10.6177370219
 20
9.1233940722
 30
0.0
 10
10.6319120077
 20
9.1256655653
 30
0.0
 10
10.6462320496
 20
9.1272119102
 30
0.0
 10
10.6606613694
 20
9.1280293691
 30
0.0
 10
10.6751629998
 20
9.1281157762
 30
0.0
 10
10.6848390935
 20
9.1276866785
 30
0.0
 10
10.6896762212
 20
9.1273512225
 30
0.0
  0
SPLINE
  5
39E
100
AcDbEntity
  8
0
100
AcDbSpline
 62
7
  6
CONTINUOUS
 70
0
 71
3
 72
39
 73
35
 74
0
 42
0.0000001
 43
0.0000001
 44
0.0000000001
 40
0.0
 40
0.0
 40
0.0
 40
0.0
 40
0.0299393048
 40
0.0599022805
 40
0.0899120376
 40
0.1199905841
 40
0.1501583161
 40
0.1804335571
 40
0.2108321567
 40
0.2413671582
 40
0.2720485418
 40
0.3028830453
 40
0.333874066
 40
0.3650216372
 40
0.3963224773
 40
0.427770107
 40
0.459355027
 40
0.4910649499
 40
0.5228850821
 40
0.5547984438
 40
0.586786223
 40
0.6188281554
 40
0.6509029263
 40
0.6829885863
 40
0.7150629767
 40
0.747104156
 40
0.7790908247
 40
0.8110027395
 40
0.8428211156
 40
0.8745290113
 40
0.906111652
 40
0.937556897
 40
0.9688549576
 40
1.0
 40
1.0
 40
1.0
 40
1.0
 10
10.8981002007
 20
8.6217970889
 30
0.0
 10
10.90300445
 20
8.62653421
 30
0.0
 10
10.9124494859
 20
8.6364011762
 30
0.0
 10
10.9254210948
 20
8.6522711748
 30
0.0
 10
10.937133624
 20
8.669131958
 30
0.0
 10
10.9475233049
 20
8.6868920466
 30
0.0
 10
10.9565349938
 20
8.7054566251
 30
0.0
 10
10.9641205687
 20
8.7247262065
 30
0.0
 10
10.9702396878
 20
8.7445976777
 30
0.0
 10
10.9748598542
 20
8.7649647277
 30
0.0
 10
10.9779566263
 20
8.7857184558
 30
0.0
 10
10.9795137253
 20
8.8067479516
 30
0.0
 10
10.9795230959
 20
8.8279408935
 30
0.0
 10
10.9779849385
 20
8.8491841439
 30
0.0
 10
10.9749076967
 20
8.870364348
 30
0.0
 10
10.9703080003
 20
8.8913685305
 30
0.0
 10
10.9642105802
 20
8.9120846921
 30
0.0
 10
10.9566481364
 20
8.9324024029
 30
0.0
 10
10.947661143
 20
8.952213379
 30
0.0
 10
10.9372976346
 20
8.9714120521
 30
0.0
 10
10.9256129497
 20
8.9898961236
 30
0.0
 10
10.912669436
 20
9.0075671014
 30
0.0
 10
10.8985361262
 20
9.0243308215
 30
0.0
 10
10.8832883801
 20
9.0400979535
 30
0.0
 10
10.8670074715
 20
9.0547844599
 30
0.0
 10
10.8497801618
 20
9.0683120412
 30
0.0
 10
10.8316982434
 20
9.080608548
 30
0.0
 10
10.8128580536
 20
9.0916083616
 30
0.0
 10
10.7933599816
 20
9.1012527454
 30
0.0
 10
10.7733079022
 20
9.1094901634
 30
0.0
 10
10.7528087765
 20
9.1162765673
 30
0.0
 10
10.7319715172
 20
9.1215755614
 30
0.0
 10
10.7109086531
 20
9.1253586835
 30
0.0
 10
10.6967523278
 20
9.1268604928
 30
0.0
 10
10.6896762212
 20
9.1273512225
 30
0.0
  0
SPLINE
  5
39F
100
AcDbEntity
  8
0
100
AcDbSpline
 62
7
  6
CONTINUOUS
 70
0
 71
3
 72
13
 73
9
 74
0
 42
0.0000001
 43
0.0000001
 44
0.0000000001
 40
0.0
 40
0.0
 40
0.0
 40
0.0
 40
0.2470507745
 40
0.4965355557
 40
0.6219919135
 40
0.7477848066
 40
0.8738250557
 40
1.0
 40
1.0
 40
1.0
 40
1.0
 10
10.9754977363
 20
8.7704844712
 30
0.0
 10
10.9693246045
 20
8.7683027634
 30
0.0
 10
10.9567744035
 20
8.7643107528
 30
0.0
 10
10.9407485569
 20
8.7603899216
 30
0.0
 10
10.9277028583
 20
8.7579437636
 30
0.0
 10
10.9178102659
 20
8.7564721258
 30
0.0
 10
10.9078491423
 20
8.7553839938
 30
0.0
 10
10.9011785917
 20
8.7549243198
 30
0.0
 10
10.8978386046
 20
8.7547630436
 30
0.0
  0
SPLINE
  5
3A0
100
AcDbEntity
  8
0
100
AcDbSpline
 62
7
  6
CONTINUOUS
 70
0
 71
3
 72
11
 73
7
 74
0
 42
0.0000001
 43
0.0000001
 44
0.0000000001
 40
0.0
 40
0.0
 40
0.0
 40
0.0
 40
0.2594370022
 40
0.5108816001
 40
0.7568384274
 40
1.0
 40
1.0
 40
1.0
 40
1.0
 10
12.0124715627
 20
10.0015119319
 30
0.0
 10
12.0129398479
 20
10.0004667529
 30
0.0
 10
12.0137674933
 20
9.9983643044
 30
0.0
 10
12.0146722692
 20
9.9951419285
 30
0.0
 10
12.0152160829
 20
9.9919119289
 30
0.0
 10
12.0153372584
 20
9.98975082
 30
0.0
 10
12.0153372629
 20
9.9886773778
 30
0.0
  0
SPLINE
  5
3A1
100
AcDbEntity
  8
0
100
AcDbSpline
 62
7
  6
CONTINUOUS
 70
0
 71
3
 72
24
 73
20
 74
0
 42
0.0000001
 43
0.0000001
 44
0.0000000001
 40
0.0
 40
0.0
 40
0.0
 40
0.0
 40
0.0638490882
 40
0.1274807
 40
0.1908950954
 40
0.2540971377
 40
0.317092336
 40
0.3798888963
 40
0.4424968285
 40
0.5049281454
 40
0.5671966695
 40
0.6293179274
 40
0.6913089943
 40
0.7222640826
 40
0.7531936504
 40
0.8149808901
 40
0.8766966711
 40
0.9383623942
 40
1.0
 40
1.0
 40
1.0
 40
1.0
 10
10.0769138849
 20
6.3747379471
 30
0.0
 10
10.0844490686
 20
6.3742153803
 30
0.0
 10
10.0995220371
 20
6.3735408458
 30
0.0
 10
10.1221133073
 20
6.3736479048
 30
0.0
 10
10.1445954655
 20
6.3748752666
 30
0.0
 10
10.1669129322
 20
6.3772199423
 30
0.0
 10
10.1890116017
 20
6.3806763399
 30
0.0
 10
10.2108375332
 20
6.3852360533
 30
0.0
 10
10.2323375614
 20
6.3908880501
 30
0.0
 10
10.2534592435
 20
6.3976185873
 30
0.0
 10
10.2741511725
 20
6.4054113638
 30
0.0
 10
10.2943625587
 20
6.4142472416
 30
0.0
 10
10.3107727491
 20
6.4224663316
 30
0.0
 10
10.3236087616
 20
6.4295395192
 30
0.0
 10
10.3362340072
 20
6.4369347944
 30
0.0
 10
10.3516295819
 20
6.4467874323
 30
0.0
 10
10.3694404854
 20
6.4595566881
 30
0.0
 10
10.386538478
 20
6.4732370238
 30
0.0
 10
10.3974364872
 20
6.4829446727
 30
0.0
 10
10.4027510489
 20
6.4879370494
 30
0.0
  0
SPLINE
  5
3A2
100
AcDbEntity
  8
0
100
AcDbSpline
 62
7
  6
CONTINUOUS
 70
0
 71
3
 72
46
 73
42
 74
0
 42
0.0000001
 43
0.0000001
 44
0.0000000001
 40
0.0
 40
0.0
 40
0.0
 40
0.0
 40
0.0311360737
 40
0.0624243431
 40
0.0938589563
 40
0.125430401
 40
0.1571266513
 40
0.1889331808
 40
0.2208332973
 40
0.2528084886
 40
0.2848387932
 40
0.3169031931
 40
0.3489800185
 40
0.3810473625
 40
0.4130834985
 40
0.4450672969
 40
0.4769786317
 40
0.5087987729
 40
0.5405107625
 40
0.572099764
 40
0.6035533755
 40
0.6348619098
 40
0.6660186292
 40
0.6970199214
 40
0.7278654223
 40
0.7585580764
 40
0.7891041187
 40
0.8043276851
 40
0.8195183984
 40
0.8346779122
 40
0.8498080531
 40
0.8649108169
 40
0.8799883548
 40
0.8950429597
 40
0.9100770595
 40
0.9250931997
 40
0.9400940281
 40
0.9550822837
 40
0.9700607789
 40
0.9850323811
 40
1.0
 40
1.0
 40
1.0
 40
1.0
 10
10.0769138849
 20
6.3747379471
 30
0.0
 10
10.0657724194
 20
6.3755106104
 30
0.0
 10
10.0434830678
 20
6.3778706675
 30
0.0
 10
10.0103167445
 20
6.3838071735
 30
0.0
 10
9.9775017073
 20
6.3921176587
 30
0.0
 10
9.9452132309
 20
6.40275797
 30
0.0
 10
9.9136209486
 20
6.415671688
 30
0.0
 10
9.8828915168
 20
6.4307904743
 30
0.0
 10
9.8531868464
 20
6.4480344749
 30
0.0
 10
9.8246634636
 20
6.4673126121
 30
0.0
 10
9.7974716443
 20
6.4885231349
 30
0.0
 10
9.7717547025
 20
6.5115542029
 30
0.0
 10
9.7476481644
 20
6.5362843726
 30
0.0
 10
9.7252790708
 20
6.5625832626
 30
0.0
 10
9.7047653898
 20
6.5903122964
 30
0.0
 10
9.6862153262
 20
6.6193253518
 30
0.0
 10
9.6697267332
 20
6.649469525
 30
0.0
 10
9.6553867028
 20
6.6805859878
 30
0.0
 10
9.6432710443
 20
6.7125107655
 30
0.0
 10
9.6334438237
 20
6.7450755781
 30
0.0
 10
9.6259571496
 20
6.778108766
 30
0.0
 10
9.6208508464
 20
6.8114361424
 30
0.0
 10
9.6181521491
 20
6.8448819291
 30
0.0
 10
9.617875644
 20
6.8782695587
 30
0.0
 10
9.6200233163
 20
6.9114230951
 30
0.0
 10
9.6245838099
 20
6.9441662387
 30
0.0
 10
9.6303830471
 20
6.9710010383
 30
0.0
 10
9.6362006558
 20
6.9920832509
 30
0.0
 10
9.6411414727
 20
7.007669876
 30
0.0
 10
9.6466578097
 20
7.023026411
 30
0.0
 10
9.6527424785
 20
7.0381328384
 30
0.0
 10
9.6593873801
 20
7.0529691424
 30
0.0
 10
9.6665837692
 20
7.0675157317
 30
0.0
 10
9.6743221779
 20
7.0817533588
 30
0.0
 10
9.682592335
 20
7.0956632392
 30
0.0
 10
9.6913833448
 20
7.1092269754
 30
0.0
 10
9.7006836249
 20
7.1224266276
 30
0.0
 10
9.7104808248
 20
7.1352447692
 30
0.0
 10
9.7207620911
 20
7.1476645019
 30
0.0
 10
9.7315136345
 20
7.1596691625
 30
0.0
 10
9.7389864036
 20
7.1673861076
 30
0.0
 10
9.7427955915
 20
7.1711694324
 30
0.0
  0
SPLINE
  5
3A3
100
AcDbEntity
  8
0
100
AcDbSpline
 62
7
  6
CONTINUOUS
 70
0
 71
3
 72
71
 73
67
 74
0
 42
0.0000001
 43
0.0000001
 44
0.0000000001
 40
0.0
 40
0.0
 40
0.0
 40
0.0
 40
0.0156746951
 40
0.0314022331
 40
0.0471806321
 40
0.0630088952
 40
0.0788847436
 40
0.0948057516
 40
0.1107690095
 40
0.1267712322
 40
0.14280879
 40
0.1588777348
 40
0.1749738409
 40
0.1910926421
 40
0.2072294728
 40
0.2233795103
 40
0.2395378174
 40
0.2556993841
 40
0.2718591714
 40
0.2880121558
 40
0.304153374
 40
0.3202779653
 40
0.3363812143
 40
0.3524585919
 40
0.3685057968
 40
0.3845187959
 40
0.4004938609
 40
0.4164276037
 40
0.432317008
 40
0.4481594611
 40
0.4639527821
 40
0.4796952457
 40
0.4953856016
 40
0.5110230909
 40
0.526607458
 40
0.5421389596
 40
0.5576183676
 40
0.5730469657
 40
0.5884265418
 40
0.603759374
 40
0.6190482142
 40
0.6342962641
 40
0.6495071459
 40
0.6646848671
 40
0.6798337811
 40
0.6949585445
 40
0.7100640694
 40
0.7251554729
 40
0.7402380227
 40
0.7553170806
 40
0.7703980454
 40
0.7854862954
 40
0.8005871315
 40
0.8157057208
 40
0.8308470413
 40
0.8460158304
 40
0.861216535
 40
0.8764532684
 40
0.8917297685
 40
0.9070493664
 40
0.922414947
 40
0.9378289216
 40
0.9532932848
 40
0.9688092399
 40
0.9843783001
 40
1.0
 40
1.0
 40
1.0
 40
1.0
 10
10.0769138849
 20
6.5099675708
 30
0.0
 10
10.0716108782
 20
6.5103353355
 30
0.0
 10
10.0610032322
 20
6.5113322632
 30
0.0
 10
10.0451586058
 20
6.5136011346
 30
0.0
 10
10.0293902519
 20
6.5166408076
 30
0.0
 10
10.0137367813
 20
6.5204437089
 30
0.0
 10
9.9982356247
 20
6.5250007898
 30
0.0
 10
9.9829241867
 20
6.5303010007
 30
0.0
 10
9.9678393007
 20
6.5363315695
 30
0.0
 10
9.953017278
 20
6.5430779418
 30
0.0
 10
9.938493791
 20
6.5505238534
 30
0.0
 10
9.924303795
 20
6.5586513651
 30
0.0
 10
9.9104814464
 20
6.5674409049
 30
0.0
 10
9.8970600154
 20
6.5768713054
 30
0.0
 10
9.8840717971
 20
6.5869198457
 30
0.0
 10
9.8715480485
 20
6.597562328
 30
0.0
 10
9.8595189122
 20
6.608773131
 30
0.0
 10
9.8480133455
 20
6.6205252711
 30
0.0
 10
9.8370590522
 20
6.6327904664
 30
0.0
 10
9.8266823949
 20
6.6455391861
 30
0.0
 10
9.8169083505
 20
6.6587407421
 30
0.0
 10
9.8077604519
 20
6.6723633609
 30
0.0
 10
9.7992607314
 20
6.6863742585
 30
0.0
 10
9.7914296723
 20
6.7007397197
 30
0.0
 10
9.7842861368
 20
6.715425167
 30
0.0
 10
9.7778473302
 20
6.7303952506
 30
0.0
 10
9.7721287707
 20
6.745613939
 30
0.0
 10
9.76714425
 20
6.761044602
 30
0.0
 10
9.7629058035
 20
6.7766500982
 30
0.0
 10
9.759423669
 20
6.7923928598
 30
0.0
 10
9.7567062491
 20
6.8082349824
 30
0.0
 10
9.7547601162
 20
6.8241383221
 30
0.0
 10
9.7535899922
 20
6.8400645839
 30
0.0
 10
9.7531987378
 20
6.8559754125
 30
0.0
 10
9.7535873447
 20
6.8718324833
 30
0.0
 10
9.7547549038
 20
6.8875975954
 30
0.0
 10
9.7566986354
 20
6.9032327659
 30
0.0
 10
9.7594138947
 20
6.9187003189
 30
0.0
 10
9.7628941815
 20
6.9339629747
 30
0.0
 10
9.7671311585
 20
6.948983938
 30
0.0
 10
9.7721146451
 20
6.9637269938
 30
0.0
 10
9.7778326526
 20
6.9781565952
 30
0.0
 10
9.7842714258
 20
6.9922379444
 30
0.0
 10
9.791415471
 20
7.0059370773
 30
0.0
 10
9.7992475956
 20
7.0192209432
 30
0.0
 10
9.8077489364
 20
7.0320574918
 30
0.0
 10
9.8168989962
 20
7.044415761
 30
0.0
 10
9.8266757165
 20
7.0562659384
 30
0.0
 10
9.8370555256
 20
7.0675794351
 30
0.0
 10
9.8480133966
 20
7.0783289548
 30
0.0
 10
9.8595229067
 20
7.0884885589
 30
0.0
 10
9.8715562826
 20
7.0980337537
 30
0.0
 10
9.8840844905
 20
7.1069415289
 30
0.0
 10
9.897077306
 20
7.1151904128
 30
0.0
 10
9.9105033866
 20
7.1227605242
 30
0.0
 10
9.9243303488
 20
7.1296336156
 30
0.0
 10
9.9385248355
 20
7.1357931413
 30
0.0
 10
9.9530526054
 20
7.1412242862
 30
0.0
 10
9.9678786219
 20
7.145913991
 30
0.0
 10
9.9829671369
 20
7.1498509814
 30
0.0
 10
9.9982817696
 20
7.1530257915
 30
0.0
 10
10.0137856272
 20
7.1554308192
 30
0.0
 10
10.0294412492
 20
7.1570602708
 30
0.0
 10
10.0452111767
 20
7.1579103643
 30
0.0
 10
10.0610567539
 20
7.157978958
 30
0.0
 10
10.0716288074
 20
7.1575044341
 30
0.0
 10
10.0769138849
 20
7.1571379127
 30
0.0
  0
SPLINE
  5
3A4
100
AcDbEntity
  8
0
100
AcDbSpline
 62
7
  6
CONTINUOUS
 70
0
 71
3
 72
39
 73
35
 74
0
 42
0.0000001
 43
0.0000001
 44
0.0000000001
 40
0.0
 40
0.0
 40
0.0
 40
0.0
 40
0.0311450424
 40
0.062443103
 40
0.093888348
 40
0.1254709887
 40
0.1571788844
 40
0.1889972605
 40
0.2209091753
 40
0.252895844
 40
0.2849370233
 40
0.3170114137
 40
0.3490970737
 40
0.3811718446
 40
0.413213777
 40
0.4452015562
 40
0.4771149179
 40
0.5089350501
 40
0.540644973
 40
0.572229893
 40
0.6036775227
 40
0.6349783628
 40
0.666125934
 40
0.6971169547
 40
0.7279514582
 40
0.7586328418
 40
0.7891678433
 40
0.8195664429
 40
0.8498416839
 40
0.8800094159
 40
0.9100879624
 40
0.9400977195
 40
0.9700606952
 40
1.0
 40
1.0
 40
1.0
 40
1.0
 10
10.085972544
 20
6.55252497
 30
0.0
 10
10.0788964374
 20
6.5530156997
 30
0.0
 10
10.0647401122
 20
6.554517509
 30
0.0
 10
10.043677248
 20
6.5583006312
 30
0.0
 10
10.0228399887
 20
6.5635996253
 30
0.0
 10
10.0023408631
 20
6.5703860291
 30
0.0
 10
9.9822887836
 20
6.5786234471
 30
0.0
 10
9.9627907117
 20
6.5882678309
 30
0.0
 10
9.9439505218
 20
6.5992676445
 30
0.0
 10
9.9258686035
 20
6.6115641513
 30
0.0
 10
9.9086412937
 20
6.6250917326
 30
0.0
 10
9.8923603851
 20
6.639778239
 30
0.0
 10
9.8771126391
 20
6.655545371
 30
0.0
 10
9.8629793292
 20
6.6723090911
 30
0.0
 10
9.8500358155
 20
6.689980069
 30
0.0
 10
9.8383511306
 20
6.7084641404
 30
0.0
 10
9.8279876222
 20
6.7276628135
 30
0.0
 10
9.8190006288
 20
6.7474737896
 30
0.0
 10
9.811438185
 20
6.7677915004
 30
0.0
 10
9.805340765
 20
6.788507662
 30
0.0
 10
9.8007410686
 20
6.8095118445
 30
0.0
 10
9.7976638267
 20
6.8306920486
 30
0.0
 10
9.7961256693
 20
6.851935299
 30
0.0
 10
9.79613504
 20
6.8731282409
 30
0.0
 10
9.797692139
 20
6.8941577367
 30
0.0
 10
9.8007889111
 20
6.9149114648
 30
0.0
 10
9.8054090774
 20
6.9352785148
 30
0.0
 10
9.8115281966
 20
6.9551499861
 30
0.0
 10
9.8191137714
 20
6.9744195674
 30
0.0
 10
9.8281254603
 20
6.9929841459
 30
0.0
 10
9.8385151413
 20
7.0107442345
 30
0.0
 10
9.8502276704
 20
7.0276050178
 30
0.0
 10
9.8631992794
 20
7.0434750163
 30
0.0
 10
9.8726443153
 20
7.0533419825
 30
0.0
 10
9.8775485645
 20
7.0580791037
 30
0.0
  0
SPLINE
  5
3A5
100
AcDbEntity
  8
0
100
AcDbSpline
 62
7
  6
CONTINUOUS
 70
0
 71
3
 72
42
 73
38
 74
0
 42
0.0000001
 43
0.0000001
 44
0.0000000001
 40
0.0
 40
0.0
 40
0.0
 40
0.0
 40
0.0311011277
 40
0.0467101807
 40
0.0623554097
 40
0.0937478689
 40
0.1252743287
 40
0.1569236549
 40
0.1886822748
 40
0.2205346111
 40
0.2524633413
 40
0.2844497426
 40
0.3164740385
 40
0.3485157641
 40
0.3805541384
 40
0.4125684408
 40
0.4445383879
 40
0.476444503
 40
0.5082684769
 40
0.5399935126
 40
0.5716046495
 40
0.6030890619
 40
0.6344363262
 40
0.6656386502
 40
0.6966910599
 40
0.7275915373
 40
0.7583411035
 40
0.788943843
 40
0.8194068642
 40
0.8497401938
 40
0.8648647176
 40
0.8799618248
 40
0.9100765936
 40
0.9401072013
 40
0.955099593
 40
0.9700783213
 40
1.0
 40
1.0
 40
1.0
 40
1.0
 10
10.2441116203
 20
6.7989704077
 30
0.0
 10
10.2394697138
 20
6.799292325
 30
0.0
 10
10.2325120545
 20
6.8000226526
 30
0.0
 10
10.2232963296
 20
6.8014806671
 30
0.0
 10
10.2140936483
 20
6.803266307
 30
0.0
 10
10.202676868
 20
6.8061038071
 30
0.0
 10
10.1892020973
 20
6.81045261
 30
0.0
 10
10.1760029628
 20
6.8157274739
 30
0.0
 10
10.1631459949
 20
6.8219018121
 30
0.0
 10
10.1506954924
 20
6.82894462
 30
0.0
 10
10.1387138507
 20
6.8368205424
 30
0.0
 10
10.1272610778
 20
6.8454900697
 30
0.0
 10
10.1163945445
 20
6.854909731
 30
0.0
 10
10.1061686875
 20
6.865032311
 30
0.0
 10
10.0966347426
 20
6.8758070844
 30
0.0
 10
10.0878404895
 20
6.8871800681
 30
0.0
 10
10.0798300152
 20
6.8990942888
 30
0.0
 10
10.072643494
 20
6.9114900656
 30
0.0
 10
10.0663169878
 20
6.9243053058
 30
0.0
 10
10.0608822665
 20
6.9374758125
 30
0.0
 10
10.0563666479
 20
6.9509356018
 30
0.0
 10
10.0527928608
 20
6.96461723
 30
0.0
 10
10.0501789296
 20
6.9784521267
 30
0.0
 10
10.0485380824
 20
6.9923709355
 30
0.0
 10
10.0478786797
 20
7.0063038534
 30
0.0
 10
10.0482041738
 20
7.0201809911
 30
0.0
 10
10.0495130641
 20
7.0339326686
 30
0.0
 10
10.0517989795
 20
7.0474899542
 30
0.0
 10
10.0550504015
 20
7.0607842999
 30
0.0
 10
10.0585551432
 20
7.0716004381
 30
0.0
 10
10.0618231593
 20
7.0800520726
 30
0.0
 10
10.0653900659
 20
7.088346411
 30
0.0
 10
10.070413221
 20
7.0984330826
 30
0.0
 10
10.0761711617
 20
7.1081009988
 30
0.0
 10
10.0811948425
 20
7.1155429328
 30
0.0
 10
10.0864861524
 20
7.1227762804
 30
0.0
 10
10.0907590302
 20
7.1279707277
 30
0.0
 10
10.0937320803
 20
7.1313175023
 30
0.0
  0
SPLINE
  5
3A6
100
AcDbEntity
  8
0
100
AcDbSpline
 62
7
  6
CONTINUOUS
 70
0
 71
3
 72
42
 73
38
 74
0
 42
0.0000001
 43
0.0000001
 44
0.0000000001
 40
0.0
 40
0.0
 40
0.0
 40
0.0
 40
0.0309100383
 40
0.0464157567
 40
0.0619528783
 40
0.0931172307
 40
0.1244008752
 40
0.1557961623
 40
0.1872938863
 40
0.2188833608
 40
0.2505526092
 40
0.2822885335
 40
0.3140771077
 40
0.3459035758
 40
0.3777526591
 40
0.4096087676
 40
0.4414562147
 40
0.4732794328
 40
0.5050631881
 40
0.5367927913
 40
0.5684543039
 40
0.6000347367
 40
0.6315222388
 40
0.6629062738
 40
0.6941777833
 40
0.7253293315
 40
0.7563552321
 40
0.7872516525
 40
0.8180166935
 40
0.8486504427
 40
0.8639205349
 40
0.8791587573
 40
0.9095382227
 40
0.939798665
 40
0.9548886114
 40
0.9699519373
 40
1.0
 40
1.0
 40
1.0
 40
1.0
 10
10.2296169955
 20
6.6912748637
 30
0.0
 10
10.2236452288
 20
6.6916890072
 30
0.0
 10
10.2146938227
 20
6.6925872123
 30
0.0
 10
10.2028216048
 20
6.6943285016
 30
0.0
 10
10.1909587558
 20
6.6964374873
 30
0.0
 10
10.1762145848
 20
6.6997544105
 30
0.0
 10
10.1587443571
 20
6.704800751
 30
0.0
 10
10.1415439034
 20
6.7108981513
 30
0.0
 10
10.124679006
 20
6.7180232803
 30
0.0
 10
10.108213656
 20
6.726149008
 30
0.0
 10
10.0922104577
 20
6.7352443834
 30
0.0
 10
10.0767302191
 20
6.7452747895
 30
0.0
 10
10.0618317699
 20
6.7562020631
 30
0.0
 10
10.0475717269
 20
6.7679846431
 30
0.0
 10
10.0340042845
 20
6.7805777264
 30
0.0
 10
10.0211810087
 20
6.7939334376
 30
0.0
 10
10.0091506435
 20
6.8080010096
 30
0.0
 10
9.9979589264
 20
6.8227269754
 30
0.0
 10
9.9876484157
 20
6.8380553697
 30
0.0
 10
9.9782583298
 20
6.8539279401
 30
0.0
 10
9.9698243989
 20
6.8702843665
 30
0.0
 10
9.9623787293
 20
6.8870624885
 30
0.0
 10
9.955949682
 20
6.9041985394
 30
0.0
 10
9.9505617643
 20
6.9216273872
 30
0.0
 10
9.9462355362
 20
6.9392827759
 30
0.0
 10
9.942987533
 20
6.9570975893
 30
0.0
 10
9.9408301934
 20
6.9750040516
 30
0.0
 10
9.9397718386
 20
6.9929341747
 30
0.0
 10
9.9398165334
 20
7.0108193034
 30
0.0
 10
9.9407741697
 20
7.0256467329
 30
0.0
 10
9.9420910936
 20
7.037415876
 30
0.0
 10
9.9437697484
 20
7.0490891595
 30
0.0
 10
9.9465477327
 20
7.0635295268
 30
0.0
 10
9.9502303506
 20
7.0777365806
 30
0.0
 10
9.9537074591
 20
7.0889097526
 30
0.0
 10
9.9575281117
 20
7.099926174
 30
0.0
 10
9.9607892008
 20
7.1080397375
 30
0.0
 10
9.9631337317
 20
7.113365712
 30
0.0
  0
SPLINE
  5
3A7
100
AcDbEntity
  8
0
100
AcDbSpline
 62
7
  6
CONTINUOUS
 70
0
 71
3
 72
71
 73
67
 74
0
 42
0.0000001
 43
0.0000001
 44
0.0000000001
 40
0.0
 40
0.0
 40
0.0
 40
0.0
 40
0.0156216999
 40
0.0311907601
 40
0.0467067152
 40
0.0621710784
 40
0.077585053
 40
0.0929506336
 40
0.1082702315
 40
0.1235467316
 40
0.138783465
 40
0.1539841696
 40
0.1691529587
 40
0.1842942792
 40
0.1994128685
 40
0.2145137046
 40
0.2296019546
 40
0.2446829194
 40
0.2597619773
 40
0.2748445271
 40
0.2899359306
 40
0.3050414555
 40
0.3201662189
 40
0.3353151329
 40
0.3504928541
 40
0.3657037359
 40
0.3809517858
 40
0.396240626
 40
0.4115734582
 40
0.4269530343
 40
0.4423816324
 40
0.4578610404
 40
0.473392542
 40
0.4889769091
 40
0.5046143984
 40
0.5203047543
 40
0.5360472179
 40
0.5518405389
 40
0.567682992
 40
0.5835723963
 40
0.5995061391
 40
0.6154812041
 40
0.6314942032
 40
0.6475414081
 40
0.6636187857
 40
0.6797220347
 40
0.695846626
 40
0.7119878442
 40
0.7281408286
 40
0.7443006159
 40
0.7604621826
 40
0.7766204897
 40
0.7927705272
 40
0.8089073579
 40
0.8250261591
 40
0.8411222652
 40
0.85719121
 40
0.8732287678
 40
0.8892309905
 40
0.9051942484
 40
0.9211152564
 40
0.9369911048
 40
0.9528193679
 40
0.9685977669
 40
0.9843253049
 40
1.0
 40
1.0
 40
1.0
 40
1.0
 10
10.0769138849
 20
6.5099675708
 30
0.0
 10
10.0821989625
 20
6.5096010494
 30
0.0
 10
10.0927710159
 20
6.5091265256
 30
0.0
 10
10.1086165931
 20
6.5091951192
 30
0.0
 10
10.1243865206
 20
6.5100452127
 30
0.0
 10
10.1400421426
 20
6.5116746643
 30
0.0
 10
10.1555460002
 20
6.514079692
 30
0.0
 10
10.1708606329
 20
6.5172545022
 30
0.0
 10
10.1859491479
 20
6.5211914925
 30
0.0
 10
10.2007751644
 20
6.5258811973
 30
0.0
 10
10.2153029343
 20
6.5313123423
 30
0.0
 10
10.229497421
 20
6.5374718679
 30
0.0
 10
10.2433243833
 20
6.5443449593
 30
0.0
 10
10.2567504638
 20
6.5519150707
 30
0.0
 10
10.2697432793
 20
6.5601639546
 30
0.0
 10
10.2822714873
 20
6.5690717298
 30
0.0
 10
10.2943048632
 20
6.5786169246
 30
0.0
 10
10.3058143732
 20
6.5887765288
 30
0.0
 10
10.3167722443
 20
6.5995260484
 30
0.0
 10
10.3271520534
 20
6.6108395451
 30
0.0
 10
10.3369287736
 20
6.6226897225
 30
0.0
 10
10.3460788334
 20
6.6350479917
 30
0.0
 10
10.3545801743
 20
6.6478845403
 30
0.0
 10
10.3624122988
 20
6.6611684062
 30
0.0
 10
10.369556344
 20
6.6748675391
 30
0.0
 10
10.3759951173
 20
6.6889488883
 30
0.0
 10
10.3817131248
 20
6.7033784897
 30
0.0
 10
10.3866966113
 20
6.7181215455
 30
0.0
 10
10.3909335884
 20
6.7331425088
 30
0.0
 10
10.3944138751
 20
6.7484051647
 30
0.0
 10
10.3971291345
 20
6.7638727176
 30
0.0
 10
10.399072866
 20
6.7795078882
 30
0.0
 10
10.4002404252
 20
6.7952730003
 30
0.0
 10
10.400629032
 20
6.811130071
 30
0.0
 10
10.4002377776
 20
6.8270408996
 30
0.0
 10
10.3990676536
 20
6.8429671614
 30
0.0
 10
10.3971215208
 20
6.8588705011
 30
0.0
 10
10.3944041009
 20
6.8747126237
 30
0.0
 10
10.3909219664
 20
6.8904553854
 30
0.0
 10
10.3866835199
 20
6.9060608816
 30
0.0
 10
10.3816989991
 20
6.9214915445
 30
0.0
 10
10.3759804397
 20
6.936710233
 30
0.0
 10
10.369541633
 20
6.9516803166
 30
0.0
 10
10.3623980976
 20
6.9663657638
 30
0.0
 10
10.3545670384
 20
6.9807312251
 30
0.0
 10
10.3460673179
 20
6.9947421226
 30
0.0
 10
10.3369194194
 20
7.0083647414
 30
0.0
 10
10.327145375
 20
7.0215662974
 30
0.0
 10
10.3167687176
 20
7.0343150172
 30
0.0
 10
10.3058144243
 20
7.0465802124
 30
0.0
 10
10.2943088576
 20
7.0583323526
 30
0.0
 10
10.2822797213
 20
7.0695431555
 30
0.0
 10
10.2697559728
 20
7.0801856379
 30
0.0
 10
10.2567677545
 20
7.0902341782
 30
0.0
 10
10.2433463234
 20
7.0996645787
 30
0.0
 10
10.2295239748
 20
7.1084541184
 30
0.0
 10
10.2153339788
 20
7.1165816301
 30
0.0
 10
10.2008104918
 20
7.1240275418
 30
0.0
 10
10.1859884691
 20
7.130773914
 30
0.0
 10
10.1709035832
 20
7.1368044828
 30
0.0
 10
10.1555921451
 20
7.1421046938
 30
0.0
 10
10.1400909885
 20
7.1466617747
 30
0.0
 10
10.1244375179
 20
7.1504646759
 30
0.0
 10
10.1086691641
 20
7.1535043489
 30
0.0
 10
10.0928245376
 20
7.1557732203
 30
0.0
 10
10.0822168916
 20
7.156770148
 30
0.0
 10
10.0769138849
 20
7.1571379127
 30
0.0
  0
SPLINE
  5
3A8
100
AcDbEntity
  8
0
100
AcDbSpline
 62
7
  6
CONTINUOUS
 70
0
 71
3
 72
23
 73
19
 74
0
 42
0.0000001
 43
0.0000001
 44
0.0000000001
 40
0.0
 40
0.0
 40
0.0
 40
0.0
 40
0.0638614315
 40
0.1275032443
 40
0.1909230334
 40
0.2541276741
 40
0.3171224002
 40
0.379915926
 40
0.4425188184
 40
0.5049436646
 40
0.5672049931
 40
0.6293190762
 40
0.6913037914
 40
0.7531784355
 40
0.8149635211
 40
0.876680553
 40
0.9383517903
 40
1.0
 40
1.0
 40
1.0
 40
1.0
 10
10.085972544
 20
6.55252497
 30
0.0
 10
10.0908096717
 20
6.5521895141
 30
0.0
 10
10.1004857654
 20
6.5517604163
 30
0.0
 10
10.1149873959
 20
6.5518468234
 30
0.0
 10
10.1294167156
 20
6.5526642823
 30
0.0
 10
10.1437367575
 20
6.5542106272
 30
0.0
 10
10.1579117434
 20
6.5564821203
 30
0.0
 10
10.1719058885
 20
6.5594730473
 30
0.0
 10
10.1856839785
 20
6.5631759134
 30
0.0
 10
10.1992113089
 20
6.5675814243
 30
0.0
 10
10.2124538046
 20
6.5726785169
 30
0.0
 10
10.2253780995
 20
6.5784543944
 30
0.0
 10
10.2379516181
 20
6.5848945446
 30
0.0
 10
10.2501426884
 20
6.5919827598
 30
0.0
 10
10.2619205631
 20
6.5997011689
 30
0.0
 10
10.2732556599
 20
6.6080304429
 30
0.0
 10
10.2841190303
 20
6.6169492338
 30
0.0
 10
10.2910298984
 20
6.62327447
 30
0.0
 10
10.2943965235
 20
6.6265263665
 30
0.0
  0
SPLINE
  5
3A9
100
AcDbEntity
  8
0
100
AcDbSpline
 62
7
  6
CONTINUOUS
 70
0
 71
3
 72
15
 73
11
 74
0
 42
0.0000001
 43
0.0000001
 44
0.0000000001
 40
0.0
 40
0.0
 40
0.0
 40
0.0
 40
0.126591165
 40
0.2527058305
 40
0.3783441182
 40
0.5035201729
 40
0.628248939
 40
0.7525528762
 40
0.8764591152
 40
1.0
 40
1.0
 40
1.0
 40
1.0
 10
10.2296169955
 20
6.6912748637
 30
0.0
 10
10.234886324
 20
6.6909094346
 30
0.0
 10
10.2454272592
 20
6.6904654853
 30
0.0
 10
10.2612198825
 20
6.6906664218
 30
0.0
 10
10.2769189887
 20
6.6917349117
 30
0.0
 10
10.2924769592
 20
6.6936677319
 30
0.0
 10
10.3078475089
 20
6.6964592351
 30
0.0
 10
10.3229847767
 20
6.7001011562
 30
0.0
 10
10.3378429017
 20
6.7045824368
 30
0.0
 10
10.3475475056
 20
6.7081261392
 30
0.0
 10
10.3523366081
 20
6.7100328527
 30
0.0
  0
SPLINE
  5
3AA
100
AcDbEntity
  8
0
100
AcDbSpline
 62
7
  6
CONTINUOUS
 70
0
 71
3
 72
23
 73
19
 74
0
 42
0.0000001
 43
0.0000001
 44
0.0000000001
 40
0.0
 40
0.0
 40
0.0
 40
0.0
 40
0.0617844529
 40
0.1238392896
 40
0.186137536
 40
0.248646776
 40
0.3113302366
 40
0.374147515
 40
0.4370554511
 40
0.5000090258
 40
0.562962287
 40
0.6258692896
 40
0.6886850344
 40
0.751366394
 40
0.8138730112
 40
0.876168157
 40
0.9382195325
 40
1.0
 40
1.0
 40
1.0
 40
1.0
 10
10.3515962899
 20
6.9391940181
 30
0.0
 10
10.346736858
 20
6.9403486715
 30
0.0
 10
10.3370780525
 20
6.9430215417
 30
0.0
 10
10.3228929417
 20
6.9480798677
 30
0.0
 10
10.309053858
 20
6.9541685874
 30
0.0
 10
10.2956399585
 20
6.9612529798
 30
0.0
 10
10.2827266862
 20
6.9692930056
 30
0.0
 10
10.2703870082
 20
6.9782431803
 30
0.0
 10
10.2586905586
 20
6.9880529207
 30
0.0
 10
10.2477033705
 20
6.998666804
 30
0.0
 10
10.2374874774
 20
7.0100248869
 30
0.0
 10
10.228100574
 20
7.0220630403
 30
0.0
 10
10.2195956939
 20
7.0347132996
 30
0.0
 10
10.2120209064
 20
7.0479042761
 30
0.0
 10
10.2054190722
 20
7.0615614337
 30
0.0
 10
10.1998275093
 20
7.0756079562
 30
0.0
 10
10.1952781271
 20
7.0899634956
 30
0.0
 10
10.1929513306
 20
7.0997108419
 30
0.0
 10
10.1919707075
 20
7.1046080311
 30
0.0
  0
SPLINE
  5
3AB
100
AcDbEntity
  8
0
100
AcDbSpline
 62
7
  6
CONTINUOUS
 70
0
 71
3
 72
86
 73
82
 74
0
 42
0.0000001
 43
0.0000001
 44
0.0000000001
 40
0.0
 40
0.0
 40
0.0
 40
0.0
 40
0.0027164229
 40
0.0054532199
 40
0.0082302803
 40
0.0110665652
 40
0.0139797601
 40
0.0169860612
 40
0.0201000083
 40
0.0233345154
 40
0.0267008552
 40
0.0302087911
 40
0.0338666949
 40
0.0376816386
 40
0.0416596027
 40
0.0458055094
 40
0.0501234214
 40
0.0546165986
 40
0.0592875859
 40
0.0641383491
 40
0.0691702497
 40
0.0743842108
 40
0.0797806815
 40
0.0853597253
 40
0.0911210701
 40
0.0970640767
 40
0.1094907819
 40
0.1226299857
 40
0.1364676026
 40
0.1509863633
 40
0.166166208
 40
0.1819846021
 40
0.1984167887
 40
0.2154360082
 40
0.2330136911
 40
0.2511196222
 40
0.2697220861
 40
0.2887880011
 40
0.3082830385
 40
0.3281717446
 40
0.3484176561
 40
0.3689834073
 40
0.3898308346
 40
0.4109210783
 40
0.4322146819
 40
0.4536716962
 40
0.4969136001
 40
0.5403217884
 40
0.5835689461
 40
0.6050305436
 40
0.6263300209
 40
0.6474274143
 40
0.6682832501
 40
0.6888586484
 40
0.7091154216
 40
0.7290161766
 40
0.7485244187
 40
0.7676046599
 40
0.7862225346
 40
0.8043449193
 40
0.8219400528
 40
0.8389776685
 40
0.8554291414
 40
0.8712676506
 40
0.8864683732
 40
0.9010086996
 40
0.9148684857
 40
0.9280303658
 40
0.9404801448
 40
0.9464347977
 40
0.952207837
 40
0.9577986052
 40
0.9632068066
 40
0.9684324934
 40
0.9734760794
 40
0.9783384382
 40
0.9830208843
 40
0.9875254058
 40
0.9918546018
 40
0.9960115767
 40
1.0
 40
1.0
 40
1.0
 40
1.0
 10
12.3049745069
 20
8.4433969938
 30
0.0
 10
12.3058610359
 20
8.4433355128
 30
0.0
 10
12.3076362014
 20
8.4431318313
 30
0.0
 10
12.3102763564
 20
8.4425868506
 30
0.0
 10
12.3128965526
 20
8.4418024302
 30
0.0
 10
12.3154949283
 20
8.4407793622
 30
0.0
 10
12.3180701505
 20
8.4395185668
 30
0.0
 10
12.3206208706
 20
8.4380209837
 30
0.0
 10
12.3231459554
 20
8.436287744
 30
0.0
 10
12.3256442385
 20
8.434319885
 30
0.0
 10
12.3281146716
 20
8.4321185973
 30
0.0
 10
12.3305561834
 20
8.4296850715
 30
0.0
 10
12.3329676852
 20
8.4270205615
 30
0.0
 10
12.3353481535
 20
8.4241264525
 30
0.0
 10
12.3376964525
 20
8.4210041468
 30
0.0
 10
12.3400115498
 20
8.4176552217
 30
0.0
 10
12.3422923273
 20
8.4140813063
 30
0.0
 10
12.3445377002
 20
8.4102841633
 30
0.0
 10
12.3467466116
 20
8.406265673
 30
0.0
 10
12.3489179389
 20
8.4020278007
 30
0.0
 10
12.3510506687
 20
8.3975726625
 30
0.0
 10
12.3531437036
 20
8.3929024519
 30
0.0
 10
12.3551960292
 20
8.3880194969
 30
0.0
 10
12.3572066193
 20
8.382926229
 30
0.0
 10
12.359174466
 20
8.3776251737
 30
0.0
 10
12.3617787641
 20
8.3701723828
 30
0.0
 10
12.3649105379
 20
8.360349378
 30
0.0
 10
12.3684293658
 20
8.3479463943
 30
0.0
 10
12.3717555171
 20
8.3347834178
 30
0.0
 10
12.3748822582
 20
8.3208867975
 30
0.0
 10
12.377803232
 20
8.3062842161
 30
0.0
 10
12.3805124953
 20
8.2910048842
 30
0.0
 10
12.3830045348
 20
8.2750793972
 30
0.0
 10
12.3852742806
 20
8.2585396863
 30
0.0
 10
12.3873171128
 20
8.2414189377
 30
0.0
 10
12.3891288731
 20
8.2237515225
 30
0.0
 10
12.3907058719
 20
8.2055729232
 30
0.0
 10
12.3920448956
 20
8.1869196625
 30
0.0
 10
12.3931432178
 20
8.1678292285
 30
0.0
 10
12.393998601
 20
8.1483399966
 30
0.0
 10
12.3946092993
 20
8.1284911483
 30
0.0
 10
12.3949740611
 20
8.1083225925
 30
0.0
 10
12.3950921335
 20
8.0878748811
 30
0.0
 10
12.3949632557
 20
8.0671891429
 30
0.0
 10
12.3945876948
 20
8.0463069445
 30
0.0
 10
12.3937568256
 20
8.0181868693
 30
0.0
 10
12.3921070865
 20
7.9828555831
 30
0.0
 10
12.3891744897
 20
7.9404585798
 30
0.0
 10
12.3859438701
 20
7.9052334173
 30
0.0
 10
12.3828949321
 20
7.8772616077
 30
0.0
 10
12.3803914557
 20
7.8565208152
 30
0.0
 10
12.3776706062
 20
7.8360073207
 30
0.0
 10
12.3747378438
 20
7.8157623458
 30
0.0
 10
12.3715990907
 20
7.795826608
 30
0.0
 10
12.3682606767
 20
7.7762401888
 30
0.0
 10
12.3647293373
 20
7.7570424662
 30
0.0
 10
12.3610121978
 20
7.7382720329
 30
0.0
 10
12.3571167593
 20
7.7199666169
 30
0.0
 10
12.3530508862
 20
7.7021630023
 30
0.0
 10
12.3488227922
 20
7.684896952
 30
0.0
 10
12.3444410184
 20
7.6682031365
 30
0.0
 10
12.3399144184
 20
7.6521150624
 30
0.0
 10
12.3352521392
 20
7.6366650022
 30
0.0
 10
12.3304636012
 20
7.6218839242
 30
0.0
 10
12.3255584814
 20
7.6078014147
 30
0.0
 10
12.3205466908
 20
7.5944456312
 30
0.0
 10
12.3154383406
 20
7.5818431644
 30
0.0
 10
12.3102437319
 20
7.5700192325
 30
0.0
 10
12.3057880606
 20
7.5607007724
 30
0.0
 10
12.3021814276
 20
7.5536609854
 30
0.0
 10
12.2995016014
 20
7.548668794
 30
0.0
 10
12.2968080418
 20
7.5438881431
 30
0.0
 10
12.2941020845
 20
7.5393214039
 30
0.0
 10
12.291385088
 20
7.5349708451
 30
0.0
 10
12.2886583738
 20
7.5308386485
 30
0.0
 10
12.2859233492
 20
7.5269268485
 30
0.0
 10
12.2831813082
 20
7.5232373955
 30
0.0
 10
12.2804335948
 20
7.5197720703
 30
0.0
 10
12.2776814826
 20
7.5165325661
 30
0.0
 10
12.2749264481
 20
7.5135206418
 30
0.0
 10
12.2730505343
 20
7.5116268363
 30
0.0
 10
12.2721120623
 20
7.5107203419
 30
0.0
  0
SPLINE
  5
3AC
100
AcDbEntity
  8
0
100
AcDbSpline
 62
7
  6
CONTINUOUS
 70
0
 71
3
 72
24
 73
20
 74
0
 42
0.0000001
 43
0.0000001
 44
0.0000000001
 40
0.0
 40
0.0
 40
0.0
 40
0.0
 40
0.0638490882
 40
0.1274807
 40
0.1908950954
 40
0.2540971377
 40
0.317092336
 40
0.3798888963
 40
0.4424968285
 40
0.5049281454
 40
0.5671966695
 40
0.6293179274
 40
0.6913089943
 40
0.7222640826
 40
0.7531936504
 40
0.8149808901
 40
0.8766966711
 40
0.9383623942
 40
1.0
 40
1.0
 40
1.0
 40
1.0
 10
10.6806175621
 20
8.3700086695
 30
0.0
 10
10.6881527458
 20
8.3694861027
 30
0.0
 10
10.7032257144
 20
8.3688115682
 30
0.0
 10
10.7258169845
 20
8.3689186272
 30
0.0
 10
10.7482991427
 20
8.370145989
 30
0.0
 10
10.7706166094
 20
8.3724906647
 30
0.0
 10
10.7927152789
 20
8.3759470622
 30
0.0
 10
10.8145412104
 20
8.3805067757
 30
0.0
 10
10.8360412386
 20
8.3861587725
 30
0.0
 10
10.8571629207
 20
8.3928893097
 30
0.0
 10
10.8778548497
 20
8.4006820862
 30
0.0
 10
10.8980662359
 20
8.409517964
 30
0.0
 10
10.9144764263
 20
8.417737054
 30
0.0
 10
10.9273124388
 20
8.4248102416
 30
0.0
 10
10.9399376844
 20
8.4322055168
 30
0.0
 10
10.9553332591
 20
8.4420581547
 30
0.0
 10
10.9731441626
 20
8.4548274105
 30
0.0
 10
10.9902421552
 20
8.4685077462
 30
0.0
 10
11.0011401644
 20
8.4782153951
 30
0.0
 10
11.0064547261
 20
8.4832077718
 30
0.0
  0
SPLINE
  5
3AD
100
AcDbEntity
  8
0
100
AcDbSpline
 62
7
  6
CONTINUOUS
 70
0
 71
3
 72
46
 73
42
 74
0
 42
0.0000001
 43
0.0000001
 44
0.0000000001
 40
0.0
 40
0.0
 40
0.0
 40
0.0
 40
0.0311360737
 40
0.0624243431
 40
0.0938589563
 40
0.125430401
 40
0.1571266513
 40
0.1889331808
 40
0.2208332973
 40
0.2528084886
 40
0.2848387932
 40
0.3169031931
 40
0.3489800185
 40
0.3810473625
 40
0.4130834985
 40
0.4450672969
 40
0.4769786317
 40
0.5087987729
 40
0.5405107625
 40
0.572099764
 40
0.6035533755
 40
0.6348619098
 40
0.6660186292
 40
0.6970199214
 40
0.7278654223
 40
0.7585580764
 40
0.7891041187
 40
0.8043276851
 40
0.8195183984
 40
0.8346779122
 40
0.8498080531
 40
0.8649108169
 40
0.8799883548
 40
0.8950429597
 40
0.9100770595
 40
0.9250931997
 40
0.9400940281
 40
0.9550822837
 40
0.9700607789
 40
0.9850323811
 40
1.0
 40
1.0
 40
1.0
 40
1.0
 10
10.6806175621
 20
8.3700086695
 30
0.0
 10
10.6694760966
 20
8.3707813327
 30
0.0
 10
10.647186745
 20
8.3731413899
 30
0.0
 10
10.6140204217
 20
8.3790778959
 30
0.0
 10
10.5812053845
 20
8.3873883811
 30
0.0
 10
10.5489169081
 20
8.3980286924
 30
0.0
 10
10.5173246258
 20
8.4109424104
 30
0.0
 10
10.486595194
 20
8.4260611966
 30
0.0
 10
10.4568905236
 20
8.4433051973
 30
0.0
 10
10.4283671408
 20
8.4625833345
 30
0.0
 10
10.4011753215
 20
8.4837938573
 30
0.0
 10
10.3754583797
 20
8.5068249253
 30
0.0
 10
10.3513518416
 20
8.531555095
 30
0.0
 10
10.328982748
 20
8.557853985
 30
0.0
 10
10.308469067
 20
8.5855830188
 30
0.0
 10
10.2899190034
 20
8.6145960741
 30
0.0
 10
10.2734304104
 20
8.6447402474
 30
0.0
 10
10.25909038
 20
8.6758567101
 30
0.0
 10
10.2469747216
 20
8.7077814879
 30
0.0
 10
10.2371475009
 20
8.7403463005
 30
0.0
 10
10.2296608268
 20
8.7733794884
 30
0.0
 10
10.2245545236
 20
8.8067068648
 30
0.0
 10
10.2218558263
 20
8.8401526515
 30
0.0
 10
10.2215793212
 20
8.8735402811
 30
0.0
 10
10.2237269935
 20
8.9066938175
 30
0.0
 10
10.2282874871
 20
8.9394369611
 30
0.0
 10
10.2340867243
 20
8.9662717607
 30
0.0
 10
10.239904333
 20
8.9873539733
 30
0.0
 10
10.2448451499
 20
9.0029405984
 30
0.0
 10
10.2503614869
 20
9.0182971334
 30
0.0
 10
10.2564461557
 20
9.0334035608
 30
0.0
 10
10.2630910573
 20
9.0482398648
 30
0.0
 10
10.2702874464
 20
9.0627864541
 30
0.0
 10
10.2780258551
 20
9.0770240812
 30
0.0
 10
10.2862960122
 20
9.0909339616
 30
0.0
 10
10.295087022
 20
9.1044976978
 30
0.0
 10
10.3043873021
 20
9.11769735
 30
0.0
 10
10.314184502
 20
9.1305154916
 30
0.0
 10
10.3244657683
 20
9.1429352243
 30
0.0
 10
10.3352173118
 20
9.1549398849
 30
0.0
 10
10.3426900808
 20
9.16265683
 30
0.0
 10
10.3464992687
 20
9.1664401548
 30
0.0
  0
SPLINE
  5
3AE
100
AcDbEntity
  8
0
100
AcDbSpline
 62
7
  6
CONTINUOUS
 70
0
 71
3
 72
71
 73
67
 74
0
 42
0.0000001
 43
0.0000001
 44
0.0000000001
 40
0.0
 40
0.0
 40
0.0
 40
0.0
 40
0.0156746951
 40
0.0314022331
 40
0.0471806321
 40
0.0630088952
 40
0.0788847436
 40
0.0948057516
 40
0.1107690095
 40
0.1267712322
 40
0.14280879
 40
0.1588777348
 40
0.1749738409
 40
0.1910926421
 40
0.2072294728
 40
0.2233795103
 40
0.2395378174
 40
0.2556993841
 40
0.2718591714
 40
0.2880121558
 40
0.304153374
 40
0.3202779653
 40
0.3363812143
 40
0.3524585919
 40
0.3685057968
 40
0.3845187959
 40
0.4004938609
 40
0.4164276037
 40
0.432317008
 40
0.4481594611
 40
0.4639527821
 40
0.4796952457
 40
0.4953856016
 40
0.5110230909
 40
0.526607458
 40
0.5421389596
 40
0.5576183676
 40
0.5730469657
 40
0.5884265418
 40
0.603759374
 40
0.6190482142
 40
0.6342962641
 40
0.6495071459
 40
0.6646848671
 40
0.6798337811
 40
0.6949585445
 40
0.7100640694
 40
0.7251554729
 40
0.7402380227
 40
0.7553170806
 40
0.7703980454
 40
0.7854862954
 40
0.8005871315
 40
0.8157057208
 40
0.8308470413
 40
0.8460158304
 40
0.861216535
 40
0.8764532684
 40
0.8917297685
 40
0.9070493664
 40
0.922414947
 40
0.9378289216
 40
0.9532932848
 40
0.9688092399
 40
0.9843783001
 40
1.0
 40
1.0
 40
1.0
 40
1.0
 10
10.6806175621
 20
8.5052382932
 30
0.0
 10
10.6753145555
 20
8.5056060579
 30
0.0
 10
10.6647069094
 20
8.5066029856
 30
0.0
 10
10.648862283
 20
8.508871857
 30
0.0
 10
10.6330939291
 20
8.51191153
 30
0.0
 10
10.6174404585
 20
8.5157144312
 30
0.0
 10
10.6019393019
 20
8.5202715122
 30
0.0
 10
10.5866278639
 20
8.5255717231
 30
0.0
 10
10.5715429779
 20
8.5316022919
 30
0.0
 10
10.5567209552
 20
8.5383486642
 30
0.0
 10
10.5421974682
 20
8.5457945758
 30
0.0
 10
10.5280074722
 20
8.5539220875
 30
0.0
 10
10.5141851236
 20
8.5627116273
 30
0.0
 10
10.5007636926
 20
8.5721420277
 30
0.0
 10
10.4877754743
 20
8.5821905681
 30
0.0
 10
10.4752517257
 20
8.5928330504
 30
0.0
 10
10.4632225894
 20
8.6040438534
 30
0.0
 10
10.4517170227
 20
8.6157959935
 30
0.0
 10
10.4407627294
 20
8.6280611888
 30
0.0
 10
10.4303860721
 20
8.6408099085
 30
0.0
 10
10.4206120277
 20
8.6540114645
 30
0.0
 10
10.4114641291
 20
8.6676340833
 30
0.0
 10
10.4029644086
 20
8.6816449809
 30
0.0
 10
10.3951333495
 20
8.6960104421
 30
0.0
 10
10.387989814
 20
8.7106958894
 30
0.0
 10
10.3815510074
 20
8.7256659729
 30
0.0
 10
10.3758324479
 20
8.7408846614
 30
0.0
 10
10.3708479272
 20
8.7563153244
 30
0.0
 10
10.3666094807
 20
8.7719208206
 30
0.0
 10
10.3631273462
 20
8.7876635822
 30
0.0
 10
10.3604099263
 20
8.8035057048
 30
0.0
 10
10.3584637934
 20
8.8194090445
 30
0.0
 10
10.3572936694
 20
8.8353353063
 30
0.0
 10
10.356902415
 20
8.8512461349
 30
0.0
 10
10.3572910219
 20
8.8671032056
 30
0.0
 10
10.358458581
 20
8.8828683178
 30
0.0
 10
10.3604023126
 20
8.8985034883
 30
0.0
 10
10.3631175719
 20
8.9139710413
 30
0.0
 10
10.3665978587
 20
8.9292336971
 30
0.0
 10
10.3708348357
 20
8.9442546604
 30
0.0
 10
10.3758183223
 20
8.9589977162
 30
0.0
 10
10.3815363298
 20
8.9734273176
 30
0.0
 10
10.387975103
 20
8.9875086668
 30
0.0
 10
10.3951191482
 20
9.0012077997
 30
0.0
 10
10.4029512728
 20
9.0144916656
 30
0.0
 10
10.4114526136
 20
9.0273282142
 30
0.0
 10
10.4206026734
 20
9.0396864834
 30
0.0
 10
10.4303793937
 20
9.0515366608
 30
0.0
 10
10.4407592028
 20
9.0628501575
 30
0.0
 10
10.4517170738
 20
9.0735996772
 30
0.0
 10
10.4632265839
 20
9.0837592813
 30
0.0
 10
10.4752599598
 20
9.0933044761
 30
0.0
 10
10.4877881677
 20
9.1022122513
 30
0.0
 10
10.5007809832
 20
9.1104611352
 30
0.0
 10
10.5142070638
 20
9.1180312466
 30
0.0
 10
10.528034026
 20
9.124904338
 30
0.0
 10
10.5422285127
 20
9.1310638636
 30
0.0
 10
10.5567562826
 20
9.1364950086
 30
0.0
 10
10.5715822991
 20
9.1411847134
 30
0.0
 10
10.5866708141
 20
9.1451217038
 30
0.0
 10
10.6019854468
 20
9.1482965139
 30
0.0
 10
10.6174893044
 20
9.1507015416
 30
0.0
 10
10.6331449264
 20
9.1523309932
 30
0.0
 10
10.6489148539
 20
9.1531810867
 30
0.0
 10
10.6647604311
 20
9.1532496803
 30
0.0
 10
10.6753324846
 20
9.1527751565
 30
0.0
 10
10.6806175621
 20
9.1524086351
 30
0.0
  0
SPLINE
  5
3AF
100
AcDbEntity
  8
0
100
AcDbSpline
 62
7
  6
CONTINUOUS
 70
0
 71
3
 72
39
 73
35
 74
0
 42
0.0000001
 43
0.0000001
 44
0.0000000001
 40
0.0
 40
0.0
 40
0.0
 40
0.0
 40
0.0311450424
 40
0.062443103
 40
0.093888348
 40
0.1254709887
 40
0.1571788844
 40
0.1889972605
 40
0.2209091753
 40
0.252895844
 40
0.2849370233
 40
0.3170114137
 40
0.3490970737
 40
0.3811718446
 40
0.413213777
 40
0.4452015562
 40
0.4771149179
 40
0.5089350501
 40
0.540644973
 40
0.572229893
 40
0.6036775227
 40
0.6349783628
 40
0.666125934
 40
0.6971169547
 40
0.7279514582
 40
0.7586328418
 40
0.7891678433
 40
0.8195664429
 40
0.8498416839
 40
0.8800094159
 40
0.9100879624
 40
0.9400977195
 40
0.9700606952
 40
1.0
 40
1.0
 40
1.0
 40
1.0
 10
10.6896762212
 20
8.5477956924
 30
0.0
 10
10.6826001146
 20
8.5482864221
 30
0.0
 10
10.6684437894
 20
8.5497882314
 30
0.0
 10
10.6473809252
 20
8.5535713535
 30
0.0
 10
10.6265436659
 20
8.5588703476
 30
0.0
 10
10.6060445403
 20
8.5656567515
 30
0.0
 10
10.5859924608
 20
8.5738941695
 30
0.0
 10
10.5664943889
 20
8.5835385533
 30
0.0
 10
10.547654199
 20
8.5945383669
 30
0.0
 10
10.5295722807
 20
8.6068348737
 30
0.0
 10
10.5123449709
 20
8.620362455
 30
0.0
 10
10.4960640623
 20
8.6350489614
 30
0.0
 10
10.4808163163
 20
8.6508160934
 30
0.0
 10
10.4666830064
 20
8.6675798135
 30
0.0
 10
10.4537394928
 20
8.6852507913
 30
0.0
 10
10.4420548078
 20
8.7037348628
 30
0.0
 10
10.4316912994
 20
8.7229335359
 30
0.0
 10
10.422704306
 20
8.742744512
 30
0.0
 10
10.4151418622
 20
8.7630622228
 30
0.0
 10
10.4090444422
 20
8.7837783844
 30
0.0
 10
10.4044447458
 20
8.8047825669
 30
0.0
 10
10.4013675039
 20
8.825962771
 30
0.0
 10
10.3998293465
 20
8.8472060214
 30
0.0
 10
10.3998387172
 20
8.8683989633
 30
0.0
 10
10.4013958162
 20
8.8894284591
 30
0.0
 10
10.4044925883
 20
8.9101821872
 30
0.0
 10
10.4091127546
 20
8.9305492372
 30
0.0
 10
10.4152318738
 20
8.9504207084
 30
0.0
 10
10.4228174486
 20
8.9696902898
 30
0.0
 10
10.4318291375
 20
8.9882548683
 30
0.0
 10
10.4422188185
 20
9.0060149569
 30
0.0
 10
10.4539313476
 20
9.0228757401
 30
0.0
 10
10.4669029566
 20
9.0387457387
 30
0.0
 10
10.4763479925
 20
9.0486127049
 30
0.0
 10
10.4812522417
 20
9.053349826
 30
0.0
  0
SPLINE
  5
3B0
100
AcDbEntity
  8
0
100
AcDbSpline
 62
7
  6
CONTINUOUS
 70
0
 71
3
 72
42
 73
38
 74
0
 42
0.0000001
 43
0.0000001
 44
0.0000000001
 40
0.0
 40
0.0
 40
0.0
 40
0.0
 40
0.030950188
 40
0.0464774893
 40
0.0620372708
 40
0.0932494662
 40
0.124584051
 40
0.1560327876
 40
0.1875856277
 40
0.2192309696
 40
0.2509558177
 40
0.2827459956
 40
0.3145863606
 40
0.3464610324
 40
0.3783536282
 40
0.4102475033
 40
0.4421259943
 40
0.4739726627
 40
0.5057715355
 40
0.5375073423
 40
0.5691657438
 40
0.6007335511
 40
0.632198932
 40
0.663551602
 40
0.694782997
 40
0.7258864241
 40
0.7568571881
 40
0.7876926912
 40
0.8183925009
 40
0.8489583864
 40
0.8641942749
 40
0.8793983571
 40
0.9097104691
 40
0.9399069839
 40
0.9549670886
 40
0.9700022758
 40
1.0
 40
1.0
 40
1.0
 40
1.0
 10
10.836159826
 20
8.7076405896
 30
0.0
 10
10.8303940306
 20
8.7080404488
 30
0.0
 10
10.8217514832
 20
8.7089159318
 30
0.0
 10
10.810291908
 20
8.7106240636
 30
0.0
 10
10.7988427378
 20
8.7126979834
 30
0.0
 10
10.7846178365
 20
8.7159673039
 30
0.0
 10
10.7677757971
 20
8.7209496546
 30
0.0
 10
10.751210306
 20
8.726975291
 30
0.0
 10
10.7349886563
 20
8.7340197373
 30
0.0
 10
10.7191762334
 20
8.74205449
 30
0.0
 10
10.7038369031
 20
8.7510470417
 30
0.0
 10
10.6890325809
 20
8.7609610337
 30
0.0
 10
10.6748230324
 20
8.7717563977
 30
0.0
 10
10.6612656206
 20
8.7833895181
 30
0.0
 10
10.6484150805
 20
8.7958134064
 30
0.0
 10
10.6363232982
 20
8.8089778904
 30
0.0
 10
10.625039104
 20
8.8228298146
 30
0.0
 10
10.6146080759
 20
8.837313254
 30
0.0
 10
10.6050723575
 20
8.8523697375
 30
0.0
 10
10.5964704881
 20
8.8679384823
 30
0.0
 10
10.5888372481
 20
8.8839566369
 30
0.0
 10
10.5822035188
 20
8.9003595328
 30
0.0
 10
10.576596158
 20
8.9170809424
 30
0.0
 10
10.5720378909
 20
8.9340533454
 30
0.0
 10
10.5685472171
 20
8.9512081938
 30
0.0
 10
10.5661383368
 20
8.9684762015
 30
0.0
 10
10.564821082
 20
8.9857875669
 30
0.0
 10
10.5646009089
 20
9.0030724511
 30
0.0
 10
10.5654787449
 20
9.0202605231
 30
0.0
 10
10.5671244651
 20
9.0344622369
 30
0.0
 10
10.5689857445
 20
9.0457031683
 30
0.0
 10
10.5712028617
 20
9.0568310606
 30
0.0
 10
10.5746444163
 20
9.070555536
 30
0.0
 10
10.5789750903
 20
9.0839978147
 30
0.0
 10
10.5829583195
 20
9.0945306176
 30
0.0
 10
10.5872757651
 20
9.1048901965
 30
0.0
 10
10.5908993179
 20
9.1124881293
 30
0.0
 10
10.5934796194
 20
9.1174602507
 30
0.0
  0
SPLINE
  5
3B1
100
AcDbEntity
  8
0
100
AcDbSpline
 62
7
  6
CONTINUOUS
 70
0
 71
3
 72
42
 73
38
 74
0
 42
0.0000001
 43
0.0000001
 44
0.0000000001
 40
0.0
 40
0.0
 40
0.0
 40
0.0
 40
0.0309100383
 40
0.0464157567
 40
0.0619528783
 40
0.0931172307
 40
0.1244008752
 40
0.1557961623
 40
0.1872938863
 40
0.2188833608
 40
0.2505526092
 40
0.2822885335
 40
0.3140771077
 40
0.3459035758
 40
0.3777526591
 40
0.4096087676
 40
0.4414562147
 40
0.4732794328
 40
0.5050631881
 40
0.5367927913
 40
0.5684543039
 40
0.6000347367
 40
0.6315222388
 40
0.6629062738
 40
0.6941777833
 40
0.7253293315
 40
0.7563552321
 40
0.7872516525
 40
0.8180166935
 40
0.8486504427
 40
0.8639205349
 40
0.8791587573
 40
0.9095382227
 40
0.939798665
 40
0.9548886114
 40
0.9699519373
 40
1.0
 40
1.0
 40
1.0
 40
1.0
 10
10.8333206727
 20
8.6865455861
 30
0.0
 10
10.827348906
 20
8.6869597295
 30
0.0
 10
10.8183974999
 20
8.6878579347
 30
0.0
 10
10.806525282
 20
8.689599224
 30
0.0
 10
10.794662433
 20
8.6917082097
 30
0.0
 10
10.779918262
 20
8.6950251329
 30
0.0
 10
10.7624480343
 20
8.7000714733
 30
0.0
 10
10.7452475806
 20
8.7061688737
 30
0.0
 10
10.7283826832
 20
8.7132940027
 30
0.0
 10
10.7119173332
 20
8.7214197304
 30
0.0
 10
10.6959141349
 20
8.7305151058
 30
0.0
 10
10.6804338963
 20
8.7405455119
 30
0.0
 10
10.6655354471
 20
8.7514727855
 30
0.0
 10
10.6512754041
 20
8.7632553655
 30
0.0
 10
10.6377079617
 20
8.7758484488
 30
0.0
 10
10.6248846859
 20
8.78920416
 30
0.0
 10
10.6128543207
 20
8.803271732
 30
0.0
 10
10.6016626036
 20
8.8179976977
 30
0.0
 10
10.5913520929
 20
8.8333260921
 30
0.0
 10
10.581962007
 20
8.8491986625
 30
0.0
 10
10.5735280761
 20
8.8655550889
 30
0.0
 10
10.5660824065
 20
8.8823332109
 30
0.0
 10
10.5596533592
 20
8.8994692618
 30
0.0
 10
10.5542654415
 20
8.9168981096
 30
0.0
 10
10.5499392134
 20
8.9345534983
 30
0.0
 10
10.5466912102
 20
8.9523683117
 30
0.0
 10
10.5445338706
 20
8.970274774
 30
0.0
 10
10.5434755158
 20
8.9882048971
 30
0.0
 10
10.5435202106
 20
9.0060900258
 30
0.0
 10
10.5444778469
 20
9.0209174552
 30
0.0
 10
10.5457947708
 20
9.0326865984
 30
0.0
 10
10.5474734256
 20
9.0443598819
 30
0.0
 10
10.5502514099
 20
9.0588002492
 30
0.0
 10
10.5539340278
 20
9.073007303
 30
0.0
 10
10.5574111363
 20
9.084180475
 30
0.0
 10
10.5612317889
 20
9.0951968964
 30
0.0
 10
10.564492878
 20
9.1033104599
 30
0.0
 10
10.5668374089
 20
9.1086364344
 30
0.0
  0
SPLINE
  5
3B2
100
AcDbEntity
  8
0
100
AcDbSpline
 62
7
  6
CONTINUOUS
 70
0
 71
3
 72
71
 73
67
 74
0
 42
0.0000001
 43
0.0000001
 44
0.0000000001
 40
0.0
 40
0.0
 40
0.0
 40
0.0
 40
0.0156216999
 40
0.0311907601
 40
0.0467067152
 40
0.0621710784
 40
0.077585053
 40
0.0929506336
 40
0.1082702315
 40
0.1235467316
 40
0.138783465
 40
0.1539841696
 40
0.1691529587
 40
0.1842942792
 40
0.1994128685
 40
0.2145137046
 40
0.2296019546
 40
0.2446829194
 40
0.2597619773
 40
0.2748445271
 40
0.2899359306
 40
0.3050414555
 40
0.3201662189
 40
0.3353151329
 40
0.3504928541
 40
0.3657037359
 40
0.3809517858
 40
0.396240626
 40
0.4115734582
 40
0.4269530343
 40
0.4423816324
 40
0.4578610404
 40
0.473392542
 40
0.4889769091
 40
0.5046143984
 40
0.5203047543
 40
0.5360472179
 40
0.5518405389
 40
0.567682992
 40
0.5835723963
 40
0.5995061391
 40
0.6154812041
 40
0.6314942032
 40
0.6475414081
 40
0.6636187857
 40
0.6797220347
 40
0.695846626
 40
0.7119878442
 40
0.7281408286
 40
0.7443006159
 40
0.7604621826
 40
0.7766204897
 40
0.7927705272
 40
0.8089073579
 40
0.8250261591
 40
0.8411222652
 40
0.85719121
 40
0.8732287678
 40
0.8892309905
 40
0.9051942484
 40
0.9211152564
 40
0.9369911048
 40
0.9528193679
 40
0.9685977669
 40
0.9843253049
 40
1.0
 40
1.0
 40
1.0
 40
1.0
 10
10.6806175621
 20
8.5052382932
 30
0.0
 10
10.6859026397
 20
8.5048717718
 30
0.0
 10
10.6964746931
 20
8.504397248
 30
0.0
 10
10.7123202703
 20
8.5044658416
 30
0.0
 10
10.7280901978
 20
8.5053159351
 30
0.0
 10
10.7437458198
 20
8.5069453867
 30
0.0
 10
10.7592496774
 20
8.5093504144
 30
0.0
 10
10.7745643101
 20
8.5125252245
 30
0.0
 10
10.7896528251
 20
8.5164622149
 30
0.0
 10
10.8044788417
 20
8.5211519197
 30
0.0
 10
10.8190066115
 20
8.5265830647
 30
0.0
 10
10.8332010982
 20
8.5327425903
 30
0.0
 10
10.8470280605
 20
8.5396156817
 30
0.0
 10
10.860454141
 20
8.5471857931
 30
0.0
 10
10.8734469565
 20
8.555434677
 30
0.0
 10
10.8859751645
 20
8.5643424522
 30
0.0
 10
10.8980085404
 20
8.573887647
 30
0.0
 10
10.9095180504
 20
8.5840472511
 30
0.0
 10
10.9204759215
 20
8.5947967708
 30
0.0
 10
10.9308557306
 20
8.6061102675
 30
0.0
 10
10.9406324508
 20
8.6179604449
 30
0.0
 10
10.9497825106
 20
8.6303187141
 30
0.0
 10
10.9582838515
 20
8.6431552627
 30
0.0
 10
10.966115976
 20
8.6564391286
 30
0.0
 10
10.9732600212
 20
8.6701382615
 30
0.0
 10
10.9796987945
 20
8.6842196107
 30
0.0
 10
10.985416802
 20
8.6986492121
 30
0.0
 10
10.9904002885
 20
8.7133922679
 30
0.0
 10
10.9946372656
 20
8.7284132312
 30
0.0
 10
10.9981175523
 20
8.743675887
 30
0.0
 10
11.0008328117
 20
8.75914344
 30
0.0
 10
11.0027765432
 20
8.7747786105
 30
0.0
 10
11.0039441024
 20
8.7905437227
 30
0.0
 10
11.0043327092
 20
8.8064007934
 30
0.0
 10
11.0039414548
 20
8.822311622
 30
0.0
 10
11.0027713308
 20
8.8382378838
 30
0.0
 10
11.000825198
 20
8.8541412235
 30
0.0
 10
10.9981077781
 20
8.8699833461
 30
0.0
 10
10.9946256436
 20
8.8857261077
 30
0.0
 10
10.9903871971
 20
8.9013316039
 30
0.0
 10
10.9854026763
 20
8.9167622669
 30
0.0
 10
10.9796841169
 20
8.9319809554
 30
0.0
 10
10.9732453102
 20
8.9469510389
 30
0.0
 10
10.9661017748
 20
8.9616364862
 30
0.0
 10
10.9582707156
 20
8.9760019475
 30
0.0
 10
10.9497709951
 20
8.990012845
 30
0.0
 10
10.9406230966
 20
9.0036354638
 30
0.0
 10
10.9308490522
 20
9.0168370198
 30
0.0
 10
10.9204723948
 20
9.0295857395
 30
0.0
 10
10.9095181015
 20
9.0418509348
 30
0.0
 10
10.8980125348
 20
9.0536030749
 30
0.0
 10
10.8859833985
 20
9.0648138779
 30
0.0
 10
10.87345965
 20
9.0754563602
 30
0.0
 10
10.8604714317
 20
9.0855049006
 30
0.0
 10
10.8470500006
 20
9.094935301
 30
0.0
 10
10.833227652
 20
9.1037248408
 30
0.0
 10
10.819037656
 20
9.1118523525
 30
0.0
 10
10.804514169
 20
9.1192982641
 30
0.0
 10
10.7896921463
 20
9.1260446364
 30
0.0
 10
10.7746072604
 20
9.1320752052
 30
0.0
 10
10.7592958223
 20
9.1373754162
 30
0.0
 10
10.7437946657
 20
9.1419324971
 30
0.0
 10
10.7281411951
 20
9.1457353983
 30
0.0
 10
10.7123728413
 20
9.1487750713
 30
0.0
 10
10.6965282148
 20
9.1510439427
 30
0.0
 10
10.6859205688
 20
9.1520408704
 30
0.0
 10
10.6806175621
 20
9.1524086351
 30
0.0
  0
SPLINE
  5
3B3
100
AcDbEntity
  8
0
100
AcDbSpline
 62
7
  6
CONTINUOUS
 70
0
 71
3
 72
23
 73
19
 74
0
 42
0.0000001
 43
0.0000001
 44
0.0000000001
 40
0.0
 40
0.0
 40
0.0
 40
0.0
 40
0.0638614315
 40
0.1275032443
 40
0.1909230334
 40
0.2541276741
 40
0.3171224002
 40
0.379915926
 40
0.4425188184
 40
0.5049436646
 40
0.5672049931
 40
0.6293190762
 40
0.6913037914
 40
0.7531784355
 40
0.8149635211
 40
0.876680553
 40
0.9383517903
 40
1.0
 40
1.0
 40
1.0
 40
1.0
 10
10.6896762212
 20
8.5477956924
 30
0.0
 10
10.6945133489
 20
8.5474602364
 30
0.0
 10
10.7041894426
 20
8.5470311387
 30
0.0
 10
10.7186910731
 20
8.5471175458
 30
0.0
 10
10.7331203928
 20
8.5479350047
 30
0.0
 10
10.7474404347
 20
8.5494813496
 30
0.0
 10
10.7616154206
 20
8.5517528427
 30
0.0
 10
10.7756095657
 20
8.5547437697
 30
0.0
 10
10.7893876557
 20
8.5584466358
 30
0.0
 10
10.8029149861
 20
8.5628521467
 30
0.0
 10
10.8161574818
 20
8.5679492393
 30
0.0
 10
10.8290817767
 20
8.5737251168
 30
0.0
 10
10.8416552953
 20
8.580165267
 30
0.0
 10
10.8538463656
 20
8.5872534822
 30
0.0
 10
10.8656242403
 20
8.5949718913
 30
0.0
 10
10.8769593371
 20
8.6033011653
 30
0.0
 10
10.8878227075
 20
8.6122199562
 30
0.0
 10
10.8947335756
 20
8.6185451924
 30
0.0
 10
10.8981002007
 20
8.6217970889
 30
0.0
  0
SPLINE
  5
3B4
100
AcDbEntity
  8
0
100
AcDbSpline
 62
7
  6
CONTINUOUS
 70
0
 71
3
 72
15
 73
11
 74
0
 42
0.0000001
 43
0.0000001
 44
0.0000000001
 40
0.0
 40
0.0
 40
0.0
 40
0.0
 40
0.126591165
 40
0.2527058305
 40
0.3783441182
 40
0.5035201729
 40
0.628248939
 40
0.7525528762
 40
0.8764591152
 40
1.0
 40
1.0
 40
1.0
 40
1.0
 10
10.8333206727
 20
8.6865455861
 30
0.0
 10
10.8385900012
 20
8.6861801569
 30
0.0
 10
10.8491309364
 20
8.6857362077
 30
0.0
 10
10.8649235597
 20
8.6859371442
 30
0.0
 10
10.8806226659
 20
8.687005634
 30
0.0
 10
10.8961806364
 20
8.6889384543
 30
0.0
 10
10.9115511861
 20
8.6917299575
 30
0.0
 10
10.9266884539
 20
8.6953718786
 30
0.0
 10
10.9415465789
 20
8.6998531592
 30
0.0
 10
10.9512511828
 20
8.7033968616
 30
0.0
 10
10.9560402853
 20
8.7053035751
 30
0.0
  0
SPLINE
  5
3B5
100
AcDbEntity
  8
0
100
AcDbSpline
 62
7
  6
CONTINUOUS
 70
0
 71
3
 72
28
 73
24
 74
0
 42
0.0000001
 43
0.0000001
 44
0.0000000001
 40
0.0
 40
0.0
 40
0.0
 40
0.0
 40
0.0312401753
 40
0.0619793577
 40
0.0922604653
 40
0.122149066
 40
0.1517240513
 40
0.181069342
 40
0.2102677157
 40
0.239397351
 40
0.2977160035
 40
0.3565220683
 40
0.4161792328
 40
0.4464157723
 40
0.4769544605
 40
0.5389950804
 40
0.6023791693
 40
0.6670751938
 40
0.7329350382
 40
0.7996742882
 40
0.866853733
 40
0.9338748356
 40
1.0
 40
1.0
 40
1.0
 40
1.0
 10
10.7199196379
 20
9.1235311692
 30
0.0
 10
10.7203729309
 20
9.1198269271
 30
0.0
 10
10.721496007
 20
9.1125031734
 30
0.0
 10
10.7238266026
 20
9.1017247252
 30
0.0
 10
10.7267500752
 20
9.0912593407
 30
0.0
 10
10.7302252438
 20
9.081111557
 30
0.0
 10
10.7342127459
 20
9.0712750059
 30
0.0
 10
10.7386770154
 20
9.0617370502
 30
0.0
 10
10.7435873634
 20
9.0524814322
 30
0.0
 10
10.7506954969
 20
9.0404914797
 30
0.0
 10
10.7606103207
 20
9.0260775396
 30
0.0
 10
10.7739576763
 20
9.0096871616
 30
0.0
 10
10.7861659987
 20
8.996762127
 30
0.0
 10
10.7965615324
 20
8.9868139613
 30
0.0
 10
10.807488224
 20
8.9770200063
 30
0.0
 10
10.8219475145
 20
8.9652505329
 30
0.0
 10
10.8403955378
 20
8.9519823825
 30
0.0
 10
10.8599577394
 20
8.939547323
 30
0.0
 10
10.8805306146
 20
8.9280239872
 30
0.0
 10
10.9019689655
 20
8.9175121136
 30
0.0
 10
10.9240742008
 20
8.9081251779
 30
0.0
 10
10.9465871922
 20
8.8999784063
 30
0.0
 10
10.9618264319
 20
8.8953904237
 30
0.0
 10
10.9694511657
 20
8.8933264517
 30
0.0
  0
SPLINE
  5
3B6
100
AcDbEntity
  8
0
100
AcDbSpline
 62
7
  6
CONTINUOUS
 70
0
 71
3
 72
48
 73
44
 74
0
 42
0.0000001
 43
0.0000001
 44
0.0000000001
 40
0.0
 40
0.0
 40
0.0
 40
0.0
 40
0.0311434631
 40
0.0624399956
 40
0.0938836138
 40
0.1254646847
 40
0.1571709829
 40
0.1889877595
 40
0.22089807
 40
0.2528831302
 40
0.2849226987
 40
0.3169954772
 40
0.3490795248
 40
0.3811526835
 40
0.413193006
 40
0.4451791789
 40
0.4770909382
 40
0.5089094729
 40
0.5406178044
 40
0.5722011384
 40
0.6036471904
 40
0.6349464615
 40
0.6660924706
 40
0.6970819377
 40
0.7279148953
 40
0.7432762698
 40
0.7586000727
 40
0.7738872515
 40
0.789138954
 40
0.8043565275
 40
0.819541513
 40
0.8346956329
 40
0.8498207866
 40
0.8649190411
 40
0.8799926163
 40
0.8950438755
 40
0.9100753135
 40
0.9250895394
 40
0.9400892632
 40
0.9550772817
 40
0.9700564603
 40
0.9850297153
 40
1.0
 40
1.0
 40
1.0
 40
1.0
 10
10.6764764606
 20
8.3660086724
 30
0.0
 10
10.6652726421
 20
8.3667856598
 30
0.0
 10
10.6428584747
 20
8.3691635336
 30
0.0
 10
10.6095089753
 20
8.3751534383
 30
0.0
 10
10.5765166757
 20
8.3835435
 30
0.0
 10
10.5440597725
 20
8.3942886247
 30
0.0
 10
10.5123106747
 20
8.4073311871
 30
0.0
 10
10.4814387543
 20
8.4226014298
 30
0.0
 10
10.4516084842
 20
8.440017779
 30
0.0
 10
10.4229787884
 20
8.4594871927
 30
0.0
 10
10.3957022243
 20
8.4809058165
 30
0.0
 10
10.3699241429
 20
8.5041594228
 30
0.0
 10
10.3457818802
 20
8.5291239988
 30
0.0
 10
10.3234041497
 20
8.5556665168
 30
0.0
 10
10.3029102564
 20
8.5836455216
 30
0.0
 10
10.2844094716
 20
8.6129119045
 30
0.0
 10
10.2680005686
 20
8.6433097568
 30
0.0
 10
10.2537711502
 20
8.6746770912
 30
0.0
 10
10.2417972435
 20
8.7068467506
 30
0.0
 10
10.2321429831
 20
8.7396472974
 30
0.0
 10
10.2248600954
 20
8.7729038915
 30
0.0
 10
10.2199877129
 20
8.8064391161
 30
0.0
 10
10.2175522876
 20
8.8400744334
 30
0.0
 10
10.2175669493
 20
8.8736291328
 30
0.0
 10
10.2196243894
 20
8.9014141932
 30
0.0
 10
10.2224928719
 20
8.9234164358
 30
0.0
 10
10.2252480252
 20
8.9397682038
 30
0.0
 10
10.2286057652
 20
8.9559663569
 30
0.0
 10
10.2325616771
 20
8.9719895365
 30
0.0
 10
10.2371104542
 20
8.987816267
 30
0.0
 10
10.2422460151
 20
9.0034254325
 30
0.0
 10
10.2479615583
 20
9.0187961573
 30
0.0
 10
10.2542494336
 20
9.0339079131
 30
0.0
 10
10.2611012283
 20
9.0487405186
 30
0.0
 10
10.2685078418
 20
9.0632741335
 30
0.0
 10
10.276459369
 20
9.0774893427
 30
0.0
 10
10.2849451675
 20
9.0913671663
 30
0.0
 10
10.2939539442
 20
9.1048890329
 30
0.0
 10
10.303473661
 20
9.1180368802
 30
0.0
 10
10.3134915575
 20
9.1307931421
 30
0.0
 10
10.3239943461
 20
9.1431408076
 30
0.0
 10
10.334967763
 20
9.1550631414
 30
0.0
 10
10.3425881522
 20
9.1627180403
 30
0.0
 10
10.3464710249
 20
9.1664686175
 30
0.0
  0
SPLINE
  5
3B7
100
AcDbEntity
  8
0
100
AcDbSpline
 62
7
  6
CONTINUOUS
 70
0
 71
3
 72
19
 73
15
 74
0
 42
0.0000001
 43
0.0000001
 44
0.0000000001
 40
0.0
 40
0.0
 40
0.0
 40
0.0
 40
0.150460937
 40
0.2916987357
 40
0.424419542
 40
0.4878837275
 40
0.5495802504
 40
0.6682271673
 40
0.7255606103
 40
0.7817998831
 40
0.8371466721
 40
0.8918135967
 40
0.94602219
 40
1.0
 40
1.0
 40
1.0
 40
1.0
 10
12.2721120623
 20
7.5107203419
 30
0.0
 10
12.2707691911
 20
7.5094232279
 30
0.0
 10
12.2680852958
 20
7.506989473
 30
0.0
 10
12.263929543
 20
7.5037462154
 30
0.0
 10
12.2604193557
 20
7.5014524033
 30
0.0
 10
12.2576202058
 20
7.4998990997
 30
0.0
 10
12.2549036354
 20
7.4985655555
 30
0.0
 10
12.2521552585
 20
7.4974755028
 30
0.0
 10
12.249391419
 20
7.4966552332
 30
0.0
 10
12.2473479116
 20
7.496182425
 30
0.0
 10
12.2453112069
 20
7.4958454285
 30
0.0
 10
12.2432818427
 20
7.4956444107
 30
0.0
 10
12.2412606397
 20
7.4955794494
 30
0.0
 10
12.2399178098
 20
7.4956269401
 30
0.0
 10
12.2392496177
 20
7.4956732794
 30
0.0
  0
SPLINE
  5
3B8
100
AcDbEntity
  8
0
100
AcDbSpline
 62
7
  6
CONTINUOUS
 70
0
 71
3
 72
48
 73
44
 74
0
 42
0.0000001
 43
0.0000001
 44
0.0000000001
 40
0.0
 40
0.0
 40
0.0
 40
0.0
 40
0.0311434631
 40
0.0624399956
 40
0.0938836138
 40
0.1254646847
 40
0.1571709829
 40
0.1889877595
 40
0.22089807
 40
0.2528831302
 40
0.2849226987
 40
0.3169954772
 40
0.3490795248
 40
0.3811526835
 40
0.413193006
 40
0.4451791789
 40
0.4770909382
 40
0.5089094729
 40
0.5406178044
 40
0.5722011384
 40
0.6036471904
 40
0.6349464615
 40
0.6660924706
 40
0.6970819377
 40
0.7279148953
 40
0.7432762698
 40
0.7586000727
 40
0.7738872515
 40
0.789138954
 40
0.8043565275
 40
0.819541513
 40
0.8346956329
 40
0.8498207866
 40
0.8649190411
 40
0.8799926163
 40
0.8950438755
 40
0.9100753135
 40
0.9250895394
 40
0.9400892632
 40
0.9550772817
 40
0.9700564603
 40
0.9850297153
 40
1.0
 40
1.0
 40
1.0
 40
1.0
 10
10.0727727834
 20
6.37073795
 30
0.0
 10
10.0615689649
 20
6.3715149374
 30
0.0
 10
10.0391547975
 20
6.3738928112
 30
0.0
 10
10.0058052981
 20
6.3798827159
 30
0.0
 10
9.9728129985
 20
6.3882727776
 30
0.0
 10
9.9403560953
 20
6.3990179023
 30
0.0
 10
9.9086069975
 20
6.4120604647
 30
0.0
 10
9.8777350771
 20
6.4273307075
 30
0.0
 10
9.847904807
 20
6.4447470566
 30
0.0
 10
9.8192751112
 20
6.4642164703
 30
0.0
 10
9.7919985471
 20
6.4856350941
 30
0.0
 10
9.7662204657
 20
6.5088887004
 30
0.0
 10
9.742078203
 20
6.5338532764
 30
0.0
 10
9.7197004725
 20
6.5603957944
 30
0.0
 10
9.6992065792
 20
6.5883747992
 30
0.0
 10
9.6807057944
 20
6.6176411821
 30
0.0
 10
9.6642968914
 20
6.6480390344
 30
0.0
 10
9.650067473
 20
6.6794063689
 30
0.0
 10
9.6380935663
 20
6.7115760282
 30
0.0
 10
9.6284393059
 20
6.7443765751
 30
0.0
 10
9.6211564182
 20
6.7776331691
 30
0.0
 10
9.6162840357
 20
6.8111683937
 30
0.0
 10
9.6138486104
 20
6.844803711
 30
0.0
 10
9.6138632721
 20
6.8783584104
 30
0.0
 10
9.6159207122
 20
6.9061434708
 30
0.0
 10
9.6187891947
 20
6.9281457134
 30
0.0
 10
9.621544348
 20
6.9444974815
 30
0.0
 10
9.6249020879
 20
6.9606956345
 30
0.0
 10
9.6288579999
 20
6.9767188141
 30
0.0
 10
9.633406777
 20
6.9925455446
 30
0.0
 10
9.6385423379
 20
7.0081547102
 30
0.0
 10
9.6442578811
 20
7.0235254349
 30
0.0
 10
9.6505457564
 20
7.0386371907
 30
0.0
 10
9.6573975511
 20
7.0534697962
 30
0.0
 10
9.6648041646
 20
7.0680034111
 30
0.0
 10
9.6727556918
 20
7.0822186203
 30
0.0
 10
9.6812414903
 20
7.0960964439
 30
0.0
 10
9.690250267
 20
7.1096183105
 30
0.0
 10
9.6997699838
 20
7.1227661578
 30
0.0
 10
9.7097878803
 20
7.1355224197
 30
0.0
 10
9.7202906689
 20
7.1478700852
 30
0.0
 10
9.7312640858
 20
7.159792419
 30
0.0
 10
9.738884475
 20
7.1674473179
 30
0.0
 10
9.7427673477
 20
7.1711978951
 30
0.0
  0
SPLINE
  5
3B9
100
AcDbEntity
  8
0
100
AcDbSpline
 62
7
  6
CONTINUOUS
 70
0
 71
3
 72
25
 73
21
 74
0
 42
0.0000001
 43
0.0000001
 44
0.0000000001
 40
0.0
 40
0.0
 40
0.0
 40
0.0
 40
0.0616475282
 40
0.0924812782
 40
0.1233236452
 40
0.1850399949
 40
0.2468243989
 40
0.277751634
 40
0.3087038677
 40
0.3706878948
 40
0.4328012861
 40
0.4950619216
 40
0.5574860801
 40
0.6200882709
 40
0.6828811113
 40
0.7458751472
 40
0.8090789555
 40
0.8724985283
 40
0.936138578
 40
1.0
 40
1.0
 40
1.0
 40
1.0
 10
10.4027782191
 20
6.4879075941
 30
0.0
 10
10.3974477307
 20
6.4827587236
 30
0.0
 10
10.3892411587
 20
6.475247595
 30
0.0
 10
10.3779090686
 20
6.4656860571
 30
0.0
 10
10.3663175649
 20
6.4564268601
 30
0.0
 10
10.3513579417
 20
6.445434098
 30
0.0
 10
10.3358222703
 20
6.4352531027
 30
0.0
 10
10.3230699527
 20
6.4276084528
 30
0.0
 10
10.3100973432
 20
6.4202949652
 30
0.0
 10
10.2934987008
 20
6.4117930829
 30
0.0
 10
10.2730354067
 20
6.4026480014
 30
0.0
 10
10.2520680145
 20
6.3945775062
 30
0.0
 10
10.2306496999
 20
6.3876020769
 30
0.0
 10
10.2088343223
 20
6.3817391704
 30
0.0
 10
10.1866768593
 20
6.3770035135
 30
0.0
 10
10.1642330802
 20
6.3734069524
 30
0.0
 10
10.1415595723
 20
6.3709585069
 30
0.0
 10
10.1187131612
 20
6.3696642405
 30
0.0
 10
10.0957521612
 20
6.3695273664
 30
0.0
 10
10.0804316762
 20
6.3702068039
 30
0.0
 10
10.0727727834
 20
6.37073795
 30
0.0
  0
SPLINE
  5
3BA
100
AcDbEntity
  8
0
100
AcDbSpline
 62
7
  6
CONTINUOUS
 70
0
 71
3
 72
81
 73
77
 74
0
 42
0.0000001
 43
0.0000001
 44
0.0000000001
 40
0.0
 40
0.0
 40
0.0
 40
0.0
 40
0.0039265969
 40
0.0080153213
 40
0.0122696421
 40
0.0166924926
 40
0.0212863518
 40
0.0260531663
 40
0.0309942425
 40
0.0361104541
 40
0.0414022712
 40
0.0468697881
 40
0.0525128166
 40
0.0583308053
 40
0.0704878107
 40
0.0833319863
 40
0.0968505465
 40
0.1110277198
 40
0.1258451092
 40
0.1412819794
 40
0.1573155145
 40
0.1739210212
 40
0.1910721019
 40
0.2087407976
 40
0.2268977225
 40
0.2455121993
 40
0.2645523737
 40
0.2839853198
 40
0.3037771356
 40
0.3238930436
 40
0.3442974932
 40
0.3649542529
 40
0.4068762245
 40
0.4493595769
 40
0.4920990469
 40
0.5347870221
 40
0.5771163665
 40
0.5980517321
 40
0.6187839141
 40
0.6392759139
 40
0.6594912933
 40
0.6793942639
 40
0.6989497806
 40
0.718123645
 40
0.7368825983
 40
0.7551944177
 40
0.7730280207
 40
0.7903535805
 40
0.8071426575
 40
0.8233683217
 40
0.8390052944
 40
0.8540301135
 40
0.8684213314
 40
0.8821597546
 40
0.8952287055
 40
0.9076143594
 40
0.919306174
 40
0.9248899059
 40
0.930298042
 40
0.9355304608
 40
0.9405873795
 40
0.9454694318
 40
0.9501776195
 40
0.9547134671
 40
0.9590790005
 40
0.963276832
 40
0.9673102807
 40
0.9711833694
 40
0.974901018
 40
0.978469083
 40
0.9818944848
 40
0.9883482352
 40
0.9913997823
 40
0.9943494344
 40
0.9972110504
 40
1.0
 40
1.0
 40
1.0
 40
1.0
 10
12.2566572474
 20
7.511792137
 30
0.0
 10
12.2575737176
 20
7.5126773792
 30
0.0
 10
12.2594057063
 20
7.5145249351
 30
0.0
 10
12.2620975613
 20
7.5174598111
 30
0.0
 10
12.2647867069
 20
7.5206120182
 30
0.0
 10
12.2674717399
 20
7.5239799214
 30
0.0
 10
12.2701514807
 20
7.5275619329
 30
0.0
 10
12.2728246679
 20
7.5313564134
 30
0.0
 10
12.2754900997
 20
7.5353615576
 30
0.0
 10
12.2781464802
 20
7.539575476
 30
0.0
 10
12.2807925411
 20
7.543996164
 30
0.0
 10
12.2834270495
 20
7.5486215069
 30
0.0
 10
12.2860487314
 20
7.5534493288
 30
0.0
 10
12.2895773361
 20
7.560253283
 30
0.0
 10
12.2939389008
 20
7.5692553968
 30
0.0
 10
12.2990281608
 20
7.5806742244
 30
0.0
 10
12.3040368776
 20
7.5928405467
 30
0.0
 10
12.3089554092
 20
7.6057311288
 30
0.0
 10
12.3137742856
 20
7.6193214754
 30
0.0
 10
12.318484222
 20
7.633585643
 30
0.0
 10
12.3230761358
 20
7.648496377
 30
0.0
 10
12.3275411697
 20
7.6640251546
 30
0.0
 10
12.3318707086
 20
7.6801422484
 30
0.0
 10
12.3360564015
 20
7.6968167807
 30
0.0
 10
12.3400901822
 20
7.7140167862
 30
0.0
 10
12.3439642753
 20
7.7317092814
 30
0.0
 10
12.3476712144
 20
7.7498603325
 30
0.0
 10
12.3512038532
 20
7.7684351184
 30
0.0
 10
12.3545553885
 20
7.7873979979
 30
0.0
 10
12.357719363
 20
7.806712569
 30
0.0
 10
12.3606897108
 20
7.8263417868
 30
0.0
 10
12.364402383
 20
7.853013479
 30
0.0
 10
12.3685126303
 20
7.8868610861
 30
0.0
 10
12.3725689501
 20
7.9279234141
 30
0.0
 10
12.3757417246
 20
7.9693128496
 30
0.0
 10
12.3780065567
 20
8.0107116893
 30
0.0
 10
12.3791271041
 20
8.0450785821
 30
0.0
 10
12.3795513217
 20
8.0723330613
 30
0.0
 10
12.379632675
 20
8.0925043635
 30
0.0
 10
12.379478306
 20
8.1124415856
 30
0.0
 10
12.3790885068
 20
8.1321064864
 30
0.0
 10
12.378464047
 20
8.1514613088
 30
0.0
 10
12.3776061403
 20
8.1704689044
 30
0.0
 10
12.3765164615
 20
8.1890927948
 30
0.0
 10
12.3751971321
 20
8.207297246
 30
0.0
 10
12.3736507162
 20
8.225047333
 30
0.0
 10
12.3718802161
 20
8.2423090079
 30
0.0
 10
12.3698890664
 20
8.2590491707
 30
0.0
 10
12.3676811388
 20
8.2752357385
 30
0.0
 10
12.3652607229
 20
8.2908377079
 30
0.0
 10
12.3626325195
 20
8.3058252142
 30
0.0
 10
12.3598016292
 20
8.3201695921
 30
0.0
 10
12.3567735425
 20
8.3338434498
 30
0.0
 10
12.3535541361
 20
8.3468207108
 30
0.0
 10
12.3501496443
 20
8.3590767545
 30
0.0
 10
12.3465666342
 20
8.3705881901
 30
0.0
 10
12.3433909487
 20
8.3796769246
 30
0.0
 10
12.3407584648
 20
8.3865515056
 30
0.0
 10
12.338774108
 20
8.3914285103
 30
0.0
 10
12.3367503892
 20
8.3961036266
 30
0.0
 10
12.3346882248
 20
8.4005746338
 30
0.0
 10
12.3325886398
 20
8.4048394251
 30
0.0
 10
12.3304525722
 20
8.4088959653
 30
0.0
 10
12.3282810573
 20
8.4127423521
 30
0.0
 10
12.3260750973
 20
8.4163767721
 30
0.0
 10
12.3238356781
 20
8.4197975013
 30
0.0
 10
12.3215638714
 20
8.4230029534
 30
0.0
 10
12.3192606217
 20
8.4259916073
 30
0.0
 10
12.3169270474
 20
8.4287620042
 30
0.0
 10
12.3145639139
 20
8.4313130566
 30
0.0
 10
12.3114377445
 20
8.4343591285
 30
0.0
 10
12.3081945701
 20
8.4370407833
 30
0.0
 10
12.3048383528
 20
8.4392973825
 30
0.0
 10
12.3023434757
 20
8.4407333566
 30
0.0
 10
12.2998256716
 20
8.4419431043
 30
0.0
 10
12.2981133969
 20
8.4426056662
 30
0.0
 10
12.2972564936
 20
8.4428968448
 30
0.0
  0
SPLINE
  5
3BB
100
AcDbEntity
  8
0
100
AcDbSpline
 62
7
  6
CONTINUOUS
 70
0
 71
3
 72
21
 73
17
 74
0
 42
0.0000001
 43
0.0000001
 44
0.0000000001
 40
0.0
 40
0.0
 40
0.0
 40
0.0
 40
0.0616087725
 40
0.1232657602
 40
0.184989319
 40
0.2467971878
 40
0.308706313
 40
0.3707327268
 40
0.4328913971
 40
0.4951960705
 40
0.5576592081
 40
0.6202918313
 40
0.6831034069
 40
0.7461021697
 40
0.8726489419
 40
1.0
 40
1.0
 40
1.0
 40
1.0
 10
10.3752001695
 20
6.8401394438
 30
0.0
 10
10.3729752204
 20
6.8382936144
 30
0.0
 10
10.368432246
 20
6.8347090404
 30
0.0
 10
10.361359989
 20
6.8296701474
 30
0.0
 10
10.3540420217
 20
6.824977546
 30
0.0
 10
10.3464938718
 20
6.8206412811
 30
0.0
 10
10.3387313204
 20
6.8166703699
 30
0.0
 10
10.3307706677
 20
6.8130731121
 30
0.0
 10
10.3226285798
 20
6.8098570668
 30
0.0
 10
10.3143221312
 20
6.8070289597
 30
0.0
 10
10.3058687276
 20
6.8045946684
 30
0.0
 10
10.2972861305
 20
6.8025593075
 30
0.0
 10
10.2885921145
 20
6.8009271277
 30
0.0
 10
10.2768603695
 20
6.7992906944
 30
0.0
 10
10.2620028304
 20
6.7982722616
 30
0.0
 10
10.2500731258
 20
6.7985569759
 30
0.0
 10
10.2441116203
 20
6.7989704077
 30
0.0
  0
SPLINE
  5
3BC
100
AcDbEntity
  8
0
100
AcDbSpline
 62
7
  6
CONTINUOUS
 70
0
 71
3
 72
15
 73
11
 74
0
 42
0.0000001
 43
0.0000001
 44
0.0000000001
 40
0.0
 40
0.0
 40
0.0
 40
0.0
 40
0.1457213483
 40
0.2845991187
 40
0.4169826454
 40
0.5433126665
 40
0.664117082
 40
0.7800117701
 40
0.8917048522
 40
1.0
 40
1.0
 40
1.0
 40
1.0
 10
12.2566572474
 20
7.511792137
 30
0.0
 10
12.2556285304
 20
7.5107984726
 30
0.0
 10
12.2535719839
 20
7.5089059677
 30
0.0
 10
12.2504121423
 20
7.5063015383
 30
0.0
 10
12.2472550909
 20
7.504003343
 30
0.0
 10
12.2441028253
 20
7.5020131788
 30
0.0
 10
12.2409570624
 20
7.5003326398
 30
0.0
 10
12.237819507
 20
7.4989631795
 30
0.0
 10
12.2346924734
 20
7.4979064161
 30
0.0
 10
12.2325884467
 20
7.4974047565
 30
0.0
 10
12.2315436669
 20
7.497209241
 30
0.0
  0
SPLINE
  5
3BD
100
AcDbEntity
  8
0
100
AcDbSpline
 62
7
  6
CONTINUOUS
 70
0
 71
3
 72
23
 73
19
 74
0
 42
0.0000001
 43
0.0000001
 44
0.0000000001
 40
0.0
 40
0.0
 40
0.0
 40
0.0
 40
0.0755963493
 40
0.1466389404
 40
0.2134644447
 40
0.2765130444
 40
0.3363250756
 40
0.3935451244
 40
0.4489211068
 40
0.5032859965
 40
0.5575238004
 40
0.612525131
 40
0.6691411996
 40
0.728147006
 40
0.7902177883
 40
0.855922422
 40
0.9257258939
 40
1.0
 40
1.0
 40
1.0
 40
1.0
 10
12.2566572474
 20
7.6470217607
 30
0.0
 10
12.255726184
 20
7.6461224224
 30
0.0
 10
12.2538652951
 20
7.64443319
 30
0.0
 10
12.2509853831
 20
7.6421764851
 30
0.0
 10
12.2481088486
 20
7.6402811727
 30
0.0
 10
12.2452383329
 20
7.638750118
 30
0.0
 10
12.2423762425
 20
7.6375860605
 30
0.0
 10
12.2395255101
 20
7.636791916
 30
0.0
 10
12.2366898907
 20
7.6363704168
 30
0.0
 10
12.2338741021
 20
7.6363236377
 30
0.0
 10
12.2310835498
 20
7.6366521734
 30
0.0
 10
12.2283236636
 20
7.63735516
 30
0.0
 10
12.2255990941
 20
7.6384301046
 30
0.0
 10
12.2229135031
 20
7.6398739858
 30
0.0
 10
12.2202695553
 20
7.6416834034
 30
0.0
 10
12.2176694311
 20
7.6438552856
 30
0.0
 10
12.2151151983
 20
7.646386384
 30
0.0
 10
12.2134963795
 20
7.6482513016
 30
0.0
 10
12.2126938908
 20
7.6492380105
 30
0.0
  0
SPLINE
  5
3BE
100
AcDbEntity
  8
0
100
AcDbSpline
 62
7
  6
CONTINUOUS
 70
0
 71
3
 72
25
 73
21
 74
0
 42
0.0000001
 43
0.0000001
 44
0.0000000001
 40
0.0
 40
0.0
 40
0.0
 40
0.0
 40
0.0659012881
 40
0.1328537246
 40
0.2005336236
 40
0.2686124454
 40
0.3367591995
 40
0.4046424567
 40
0.4719324451
 40
0.5383031341
 40
0.6034343328
 40
0.6670138179
 40
0.7287395089
 40
0.7883217236
 40
0.8454855718
 40
0.8999735263
 40
0.9261398577
 40
0.9515500175
 40
0.9761781561
 40
1.0
 40
1.0
 40
1.0
 40
1.0
 10
10.9706966332
 20
8.8887789063
 30
0.0
 10
10.9645502969
 20
8.8892773991
 30
0.0
 10
10.9521489339
 20
8.8901550163
 30
0.0
 10
10.933407925
 20
8.8911123562
 30
0.0
 10
10.9144483531
 20
8.8917181178
 30
0.0
 10
10.8953690444
 20
8.8919690958
 30
0.0
 10
10.876269343
 20
8.8918639702
 30
0.0
 10
10.8572487318
 20
8.8914032934
 30
0.0
 10
10.8384062683
 20
8.890589495
 30
0.0
 10
10.8198400738
 20
8.8894268647
 30
0.0
 10
10.8016468136
 20
8.8879215327
 30
0.0
 10
10.7839211826
 20
8.8860814405
 30
0.0
 10
10.7667554186
 20
8.8839162984
 30
0.0
 10
10.7502387415
 20
8.881437552
 30
0.0
 10
10.7344570953
 20
8.8786582766
 30
0.0
 10
10.7218214101
 20
8.8760704015
 30
0.0
 10
10.7121473704
 20
8.8738524766
 30
0.0
 10
10.7052236444
 20
8.872145784
 30
0.0
 10
10.698542566
 20
8.8703756928
 30
0.0
 10
10.6941820735
 20
8.8691337981
 30
0.0
 10
10.6920445177
 20
8.8685016925
 30
0.0
  0
SPLINE
  5
3BF
100
AcDbEntity
  8
0
100
AcDbSpline
 62
7
  6
CONTINUOUS
 70
0
 71
3
 72
18
 73
14
 74
0
 42
0.0000001
 43
0.0000001
 44
0.0000000001
 40
0.0
 40
0.0
 40
0.0
 40
0.0
 40
0.1504654776
 40
0.2917138659
 40
0.4244431221
 40
0.4879103299
 40
0.5496094336
 40
0.6682621302
 40
0.7817883943
 40
0.837138095
 40
0.8918079579
 40
0.9460193786
 40
1.0
 40
1.0
 40
1.0
 40
1.0
 10
12.2228498415
 20
7.6831737182
 30
0.0
 10
12.222001732
 20
7.6823545073
 30
0.0
 10
12.2203066301
 20
7.6808174148
 30
0.0
 10
12.2176819632
 20
7.6787690132
 30
0.0
 10
12.2154649526
 20
7.6773202821
 30
0.0
 10
12.2136971026
 20
7.6763392413
 30
0.0
 10
12.2119812703
 20
7.6754969926
 30
0.0
 10
12.2098359179
 20
7.6746459586
 30
0.0
 10
12.2076524205
 20
7.6740651406
 30
0.0
 10
12.2059230081
 20
7.6737790631
 30
0.0
 10
12.2046412827
 20
7.6736520719
 30
0.0
 10
12.2033647405
 20
7.6736110397
 30
0.0
 10
12.2025166376
 20
7.6736410493
 30
0.0
 10
12.2020946223
 20
7.6736703191
 30
0.0
  0
SPLINE
  5
3C0
100
AcDbEntity
  8
0
100
AcDbSpline
 62
7
  6
CONTINUOUS
 70
0
 71
3
 72
25
 73
21
 74
0
 42
0.0000001
 43
0.0000001
 44
0.0000000001
 40
0.0
 40
0.0
 40
0.0
 40
0.0
 40
0.0616475282
 40
0.0924812782
 40
0.1233236452
 40
0.1850399949
 40
0.2468243989
 40
0.277751634
 40
0.3087038677
 40
0.3706878948
 40
0.4328012861
 40
0.4950619216
 40
0.5574860801
 40
0.6200882709
 40
0.6828811113
 40
0.7458751472
 40
0.8090789555
 40
0.8724985283
 40
0.936138578
 40
1.0
 40
1.0
 40
1.0
 40
1.0
 10
11.0064818963
 20
8.4831783165
 30
0.0
 10
11.0011514079
 20
8.478029446
 30
0.0
 10
10.9929448359
 20
8.4705183173
 30
0.0
 10
10.9816127458
 20
8.4609567794
 30
0.0
 10
10.9700212421
 20
8.4516975825
 30
0.0
 10
10.9550616189
 20
8.4407048204
 30
0.0
 10
10.9395259475
 20
8.4305238251
 30
0.0
 10
10.9267736299
 20
8.4228791751
 30
0.0
 10
10.9138010204
 20
8.4155656876
 30
0.0
 10
10.897202378
 20
8.4070638053
 30
0.0
 10
10.8767390839
 20
8.3979187238
 30
0.0
 10
10.8557716917
 20
8.3898482286
 30
0.0
 10
10.8343533771
 20
8.3828727993
 30
0.0
 10
10.8125379995
 20
8.3770098928
 30
0.0
 10
10.7903805365
 20
8.3722742359
 30
0.0
 10
10.7679367574
 20
8.3686776748
 30
0.0
 10
10.7452632495
 20
8.3662292293
 30
0.0
 10
10.7224168384
 20
8.3649349629
 30
0.0
 10
10.6994558384
 20
8.3647980888
 30
0.0
 10
10.6841353534
 20
8.3654775263
 30
0.0
 10
10.6764764606
 20
8.3660086724
 30
0.0
  0
SPLINE
  5
3C1
100
AcDbEntity
  8
0
100
AcDbSpline
 62
7
  6
CONTINUOUS
 70
0
 71
3
 72
11
 73
7
 74
0
 42
0.0000001
 43
0.0000001
 44
0.0000000001
 40
0.0
 40
0.0
 40
0.0
 40
0.0
 40
0.2432171928
 40
0.4892062507
 40
0.7406383268
 40
1.0
 40
1.0
 40
1.0
 40
1.0
 10
11.1543372804
 20
9.988676892
 30
0.0
 10
11.154337276
 20
9.9897457342
 30
0.0
 10
11.1544573522
 20
9.9918974634
 30
0.0
 10
11.1549964387
 20
9.9951135544
 30
0.0
 10
11.1558933781
 20
9.9983221387
 30
0.0
 10
11.1567140069
 20
10.0004159451
 30
0.0
 10
11.1571783611
 20
10.0014568573
 30
0.0
  0
SPLINE
  5
3C2
100
AcDbEntity
  8
0
100
AcDbSpline
 62
7
  6
CONTINUOUS
 70
0
 71
3
 72
21
 73
17
 74
0
 42
0.0000001
 43
0.0000001
 44
0.0000000001
 40
0.0
 40
0.0
 40
0.0
 40
0.0
 40
0.0393338015
 40
0.0826381209
 40
0.1297819277
 40
0.1805996069
 40
0.234899649
 40
0.2924725644
 40
0.3530975999
 40
0.4165484596
 40
0.4825984418
 40
0.551024527
 40
0.6216099211
 40
0.6941463786
 40
0.8442905706
 40
1.0
 40
1.0
 40
1.0
 40
1.0
 10
10.6300688761
 20
9.0257650093
 30
0.0
 10
10.6306094856
 20
9.0271578087
 30
0.0
 10
10.6318011067
 20
9.0300624218
 30
0.0
 10
10.6337974585
 20
9.0345701233
 30
0.0
 10
10.6360737992
 20
9.0394294739
 30
0.0
 10
10.6386113916
 20
9.0446266675
 30
0.0
 10
10.6413896362
 20
9.0501466121
 30
0.0
 10
10.6443864032
 20
9.0559732725
 30
0.0
 10
10.6475784645
 20
9.0620901752
 30
0.0
 10
10.6509418419
 20
9.0684808021
 30
0.0
 10
10.6544520964
 20
9.0751289572
 30
0.0
 10
10.6580845851
 20
9.0820190235
 30
0.0
 10
10.6618146149
 20
9.0891361787
 30
0.0
 10
10.6669444308
 20
9.099024019
 30
0.0
 10
10.6734500608
 20
9.1118404727
 30
0.0
 10
10.6785192495
 20
9.1222948176
 30
0.0
 10
10.6810340983
 20
9.1276479141
 30
0.0
  0
SPLINE
  5
3C3
100
AcDbEntity
  8
0
100
AcDbSpline
 62
7
  6
CONTINUOUS
 70
0
 71
3
 72
15
 73
11
 74
0
 42
0.0000001
 43
0.0000001
 44
0.0000000001
 40
0.0
 40
0.0
 40
0.0
 40
0.0
 40
0.1234146483
 40
0.2472051949
 40
0.3714195023
 40
0.496098397
 40
0.6212750148
 40
0.7469745234
 40
0.8732133695
 40
1.0
 40
1.0
 40
1.0
 40
1.0
 10
10.9661585173
 20
8.7317816424
 30
0.0
 10
10.961194033
 20
8.7294173131
 30
0.0
 10
10.9510901665
 20
8.725009028
 30
0.0
 10
10.93551013
 20
8.7193973644
 30
0.0
 10
10.9195426439
 20
8.7147976861
 30
0.0
 10
10.9032508575
 20
8.7112282399
 30
0.0
 10
10.8866981455
 20
8.7087027228
 30
0.0
 10
10.8699488953
 20
8.7072309241
 30
0.0
 10
10.8530692207
 20
8.7068183928
 30
0.0
 10
10.8417952707
 20
8.7072497702
 30
0.0
 10
10.836159826
 20
8.7076405896
 30
0.0
  0
SPLINE
  5
3C4
100
AcDbEntity
  8
0
100
AcDbSpline
 62
7
  6
CONTINUOUS
 70
0
 71
3
 72
25
 73
21
 74
0
 42
0.0000001
 43
0.0000001
 44
0.0000000001
 40
0.0
 40
0.0
 40
0.0
 40
0.0
 40
0.0238621787
 40
0.0485268126
 40
0.0739696321
 40
0.1001648246
 40
0.1546994472
 40
0.2118958261
 40
0.2714973998
 40
0.3332304341
 40
0.3968065819
 40
0.4619252375
 40
0.5282757644
 40
0.5955396475
 40
0.663392597
 40
0.7315066253
 40
0.7995521172
 40
0.8671998838
 40
0.9341232407
 40
1.0
 40
1.0
 40
1.0
 40
1.0
 10
10.6920782174
 20
8.8684290234
 30
0.0
 10
10.6942199251
 20
8.8690593736
 30
0.0
 10
10.6985882642
 20
8.8702977929
 30
0.0
 10
10.7052803019
 20
8.8720629972
 30
0.0
 10
10.7122137051
 20
8.873764864
 30
0.0
 10
10.7218983174
 20
8.8759761915
 30
0.0
 10
10.7345442083
 20
8.8785561947
 30
0.0
 10
10.750334608
 20
8.8813268796
 30
0.0
 10
10.7668558866
 20
8.8837976486
 30
0.0
 10
10.7840225014
 20
8.885955538
 30
0.0
 10
10.8017456699
 20
8.887789197
 30
0.0
 10
10.8199336265
 20
8.8892889982
 30
0.0
 10
10.8384921755
 20
8.8904470687
 30
0.0
 10
10.8573251726
 20
8.8912573327
 30
0.0
 10
10.8763350339
 20
8.8917155394
 30
0.0
 10
10.8954232509
 20
8.8918192867
 30
0.0
 10
10.9144908949
 20
8.8915680329
 30
0.0
 10
10.9334391826
 20
8.8909630941
 30
0.0
 10
10.9521698199
 20
8.8900076484
 30
0.0
 10
10.96456468
 20
8.8891320502
 30
0.0
 10
10.9707080106
 20
8.8886347516
 30
0.0
  0
SPLINE
  5
3C5
100
AcDbEntity
  8
0
100
AcDbSpline
 62
7
  6
CONTINUOUS
 70
0
 71
3
 72
89
 73
85
 74
0
 42
0.0000001
 43
0.0000001
 44
0.0000000001
 40
0.0
 40
0.0
 40
0.0
 40
0.0
 40
0.0042067176
 40
0.0086075182
 40
0.0132068565
 40
0.0180083985
 40
0.0230151352
 40
0.0282292892
 40
0.0336521953
 40
0.0392846142
 40
0.0451267332
 40
0.0511782523
 40
0.057438473
 40
0.0639062088
 40
0.0774574128
 40
0.0918164972
 40
0.1069629166
 40
0.1228721915
 40
0.1395164005
 40
0.1568645628
 40
0.1748829647
 40
0.1935354495
 40
0.2127836562
 40
0.2325872325
 40
0.252904022
 40
0.2736902421
 40
0.2949006664
 40
0.3164887887
 40
0.3384069787
 40
0.3606066331
 40
0.40565106
 40
0.4512204319
 40
0.4969061584
 40
0.5422983178
 40
0.5647574504
 40
0.5869912584
 40
0.6089502156
 40
0.6305856006
 40
0.6518496429
 40
0.6726956743
 40
0.6930782846
 40
0.7129534877
 40
0.7322789019
 40
0.7510139201
 40
0.7691198994
 40
0.78656037
 40
0.8033012735
 40
0.819311249
 40
0.834561942
 40
0.8490283811
 40
0.8626894539
 40
0.8692128564
 40
0.8755291186
 40
0.8816369571
 40
0.8875355418
 40
0.8932244566
 40
0.8987037418
 40
0.9039740412
 40
0.9090365263
 40
0.9138931207
 40
0.9185464931
 40
0.923000184
 40
0.9272587984
 40
0.931328027
 40
0.935214951
 40
0.9389281193
 40
0.9424777833
 40
0.9458761287
 40
0.9491373679
 40
0.9522779789
 40
0.9553166713
 40
0.9582743545
 40
0.9611739017
 40
0.9640397036
 40
0.966897109
 40
0.9697717021
 40
0.9726885815
 40
0.9756716761
 40
0.978743233
 40
0.9852253708
 40
0.9886742922
 40
0.992279072
 40
0.9960512271
 40
1.0
 40
1.0
 40
1.0
 40
1.0
 10
12.2566572474
 20
7.6470217607
 30
0.0
 10
12.2573806764
 20
7.6477205395
 30
0.0
 10
12.2588265775
 20
7.6491862212
 30
0.0
 10
12.2609459495
 20
7.6515281244
 30
0.0
 10
12.2630626454
 20
7.6540607629
 30
0.0
 10
12.2651753075
 20
7.6567825068
 30
0.0
 10
12.267282784
 20
7.6596917693
 30
0.0
 10
12.26938384
 20
7.6627868904
 30
0.0
 10
12.2714773024
 20
7.6660660365
 30
0.0
 10
12.273561889
 20
7.6695272867
 30
0.0
 10
12.2756363765
 20
7.6731685835
 30
0.0
 10
12.2776995458
 20
7.676987766
 30
0.0
 10
12.2797501564
 20
7.6809825879
 30
0.0
 10
12.2825089425
 20
7.6866281228
 30
0.0
 10
12.2859097071
 20
7.6941132494
 30
0.0
 10
12.2898605363
 20
7.7036212642
 30
0.0
 10
12.2937327561
 20
7.7137673042
 30
0.0
 10
12.2975170625
 20
7.7245272105
 30
0.0
 10
12.3012043496
 20
7.7358754696
 30
0.0
 10
12.3047857418
 20
7.74778506
 30
0.0
 10
12.3082526209
 20
7.7602275933
 30
0.0
 10
12.3115966421
 20
7.7731733762
 30
0.0
 10
12.3148097579
 20
7.7865914953
 30
0.0
 10
12.3178842362
 20
7.8004498912
 30
0.0
 10
12.320812681
 20
7.8147154365
 30
0.0
 10
12.3235880552
 20
7.8293540152
 30
0.0
 10
12.3262036913
 20
7.8443306136
 30
0.0
 10
12.3286532985
 20
7.8596093965
 30
0.0
 10
12.3309310179
 20
7.8751538344
 30
0.0
 10
12.3337449229
 20
7.8962860391
 30
0.0
 10
12.3367894283
 20
7.9230899052
 30
0.0
 10
12.3396656887
 20
7.9555544254
 30
0.0
 10
12.3417543951
 20
7.9881624071
 30
0.0
 10
12.3428260264
 20
8.0152903837
 30
0.0
 10
12.3432701103
 20
8.0368251545
 30
0.0
 10
12.3433950192
 20
8.0527612412
 30
0.0
 10
12.34331273
 20
8.0685006416
 30
0.0
 10
12.3430234407
 20
8.0840057199
 30
0.0
 10
12.3425278709
 20
8.0992393672
 30
0.0
 10
12.3418272302
 20
8.1141651372
 30
0.0
 10
12.3409232236
 20
8.1287473212
 30
0.0
 10
12.3398180463
 20
8.1429510416
 30
0.0
 10
12.3385143871
 20
8.1567423381
 30
0.0
 10
12.3370154134
 20
8.1700882502
 30
0.0
 10
12.3353247648
 20
8.1829568967
 30
0.0
 10
12.333446545
 20
8.1953175531
 30
0.0
 10
12.33138531
 20
8.2071407405
 30
0.0
 10
12.3291460649
 20
8.2183982891
 30
0.0
 10
12.3267342488
 20
8.2290634779
 30
0.0
 10
12.3241556875
 20
8.239110892
 30
0.0
 10
12.3218389322
 20
8.2470671046
 30
0.0
 10
12.319900081
 20
8.2530997071
 30
0.0
 10
12.3184305635
 20
8.2573853182
 30
0.0
 10
12.3169241277
 20
8.2614993748
 30
0.0
 10
12.315381674
 20
8.2654394457
 30
0.0
 10
12.3138041293
 20
8.2692031981
 30
0.0
 10
12.312192394
 20
8.2727883969
 30
0.0
 10
12.3105474675
 20
8.2761929434
 30
0.0
 10
12.3088702626
 20
8.2794148183
 30
0.0
 10
12.3071617857
 20
8.2824521431
 30
0.0
 10
12.305423015
 20
8.2853031429
 30
0.0
 10
12.3036549053
 20
8.2879661367
 30
0.0
 10
12.3018584932
 20
8.2904396012
 30
0.0
 10
12.3000346989
 20
8.292722055
 30
0.0
 10
12.2981845361
 20
8.2948121789
 30
0.0
 10
12.296308949
 20
8.2967087117
 30
0.0
 10
12.2944088647
 20
8.2984104495
 30
0.0
 10
12.2924852751
 20
8.2999163232
 30
0.0
 10
12.2905390844
 20
8.3012251892
 30
0.0
 10
12.2885713447
 20
8.3023360581
 30
0.0
 10
12.2865831265
 20
8.3032478914
 30
0.0
 10
12.2845756538
 20
8.3039597106
 30
0.0
 10
12.2825503419
 20
8.3044707423
 30
0.0
 10
12.2805087364
 20
8.3047802377
 30
0.0
 10
12.2784525623
 20
8.3048879095
 30
0.0
 10
12.2763835574
 20
8.3047936347
 30
0.0
 10
12.2743034759
 20
8.304497675
 30
0.0
 10
12.2722137755
 20
8.3040005261
 30
0.0
 10
12.2693664766
 20
8.303053652
 30
0.0
 10
12.2665489833
 20
8.3017058257
 30
0.0
 10
12.2637874439
 20
8.3000157277
 30
0.0
 10
12.2616693401
 20
8.2985246925
 30
0.0
 10
12.259549339
 20
8.2968378551
 30
0.0
 10
12.2581676326
 20
8.2956121896
 30
0.0
 10
12.2574764959
 20
8.2949689845
 30
0.0
  0
SPLINE
  5
3C6
100
AcDbEntity
  8
0
100
AcDbSpline
 62
7
  6
CONTINUOUS
 70
0
 71
3
 72
71
 73
67
 74
0
 42
0.0000001
 43
0.0000001
 44
0.0000000001
 40
0.0
 40
0.0
 40
0.0
 40
0.0
 40
0.0081437796
 40
0.0169764944
 40
0.0265203572
 40
0.036788946
 40
0.0477874262
 40
0.0595147139
 40
0.0719646374
 40
0.0851266892
 40
0.0989866515
 40
0.1135271529
 40
0.1287280704
 40
0.1445667873
 40
0.1610184588
 40
0.1780562784
 40
0.1956516403
 40
0.2137742567
 40
0.2323923599
 40
0.2514728407
 40
0.2709813306
 40
0.2908823304
 40
0.331714196
 40
0.3736671919
 40
0.4164280894
 40
0.4596757878
 40
0.5030845187
 40
0.5463269661
 40
0.5890774011
 40
0.6310148392
 40
0.6718261955
 40
0.6917151494
 40
0.7112104217
 40
0.7302765759
 40
0.7488792807
 40
0.7669854333
 40
0.7845633329
 40
0.8015827708
 40
0.8180151583
 40
0.8338337398
 40
0.8490137809
 40
0.8635327339
 40
0.8773705134
 40
0.8905098736
 40
0.9029367398
 40
0.9146406912
 40
0.9256156748
 40
0.9358608589
 40
0.9407116707
 40
0.9453827353
 40
0.9498759528
 40
0.9541939198
 40
0.9583398901
 40
0.962317885
 40
0.9661328882
 40
0.9697908358
 40
0.9732988084
 40
0.9766651979
 40
0.9798997406
 40
0.9830137253
 40
0.9860200664
 40
0.9889332967
 40
0.9917696143
 40
0.9945467127
 40
0.9972835433
 40
1.0
 40
1.0
 40
1.0
 40
1.0
 10
12.2228498415
 20
7.6831737182
 30
0.0
 10
12.2240600726
 20
7.6843427117
 30
0.0
 10
12.2264742401
 20
7.6868934514
 30
0.0
 10
12.2299432182
 20
7.6911398572
 30
0.0
 10
12.233397286
 20
7.6959500374
 30
0.0
 10
12.2368297766
 20
7.7013144136
 30
0.0
 10
12.2402343296
 20
7.7072229718
 30
0.0
 10
12.2436042886
 20
7.7136642251
 30
0.0
 10
12.2469330028
 20
7.7206256048
 30
0.0
 10
12.2502138076
 20
7.7280934126
 30
0.0
 10
12.2534401317
 20
7.7360528494
 30
0.0
 10
12.2566054779
 20
7.7444880847
 30
0.0
 10
12.2597034468
 20
7.7533823022
 30
0.0
 10
12.2627277822
 20
7.7627177234
 30
0.0
 10
12.2656723824
 20
7.7724756538
 30
0.0
 10
12.2685312924
 20
7.78263654
 30
0.0
 10
12.2712987242
 20
7.7931800048
 30
0.0
 10
12.2739690974
 20
7.8040848809
 30
0.0
 10
12.2765370212
 20
7.8153292697
 30
0.0
 10
12.278997294
 20
7.8268905826
 30
0.0
 10
12.2813449735
 20
7.8387456048
 30
0.0
 10
12.2843443003
 20
7.8550514547
 30
0.0
 10
12.2877697353
 20
7.8759919786
 30
0.0
 10
12.2913287612
 20
7.9016885785
 30
0.0
 10
12.2943416268
 20
7.9279573787
 30
0.0
 10
12.2967840155
 20
7.9545872916
 30
0.0
 10
12.2986361822
 20
7.9813644736
 30
0.0
 10
12.2998832779
 20
8.0080738106
 30
0.0
 10
12.3005153676
 20
8.0345008072
 30
0.0
 10
12.3005275164
 20
8.0604330881
 30
0.0
 10
12.3000170709
 20
8.0816358471
 30
0.0
 10
12.2992905827
 20
8.0981898631
 30
0.0
 10
12.2985968863
 20
8.11024699
 30
0.0
 10
12.2977511917
 20
8.1220279937
 30
0.0
 10
12.2967551963
 20
8.1335092167
 30
0.0
 10
12.2956109233
 20
8.1446675839
 30
0.0
 10
12.2943207118
 20
8.1554806877
 30
0.0
 10
12.2928871918
 20
8.1659268212
 30
0.0
 10
12.2913132703
 20
8.1759850213
 30
0.0
 10
12.2896021517
 20
8.1856351236
 30
0.0
 10
12.2877573288
 20
8.1948578072
 30
0.0
 10
12.2857825509
 20
8.2036346282
 30
0.0
 10
12.2836818171
 20
8.211948066
 30
0.0
 10
12.2814594002
 20
8.2197815886
 30
0.0
 10
12.2791197965
 20
8.2271196593
 30
0.0
 10
12.2766676815
 20
8.2339478682
 30
0.0
 10
12.2741079448
 20
8.2402526775
 30
0.0
 10
12.2718499783
 20
8.2451460234
 30
0.0
 10
12.2699874477
 20
8.2487812964
 30
0.0
 10
12.2685923512
 20
8.2513193025
 30
0.0
 10
12.2671742093
 20
8.2537174895
 30
0.0
 10
12.2657337176
 20
8.2559746982
 30
0.0
 10
12.2642715662
 20
8.2580898183
 30
0.0
 10
12.2627884078
 20
8.2600617853
 30
0.0
 10
12.2612849701
 20
8.2618896539
 30
0.0
 10
12.2597619134
 20
8.2635725012
 30
0.0
 10
12.2582198976
 20
8.2651094555
 30
0.0
 10
12.2566596353
 20
8.2664997539
 30
0.0
 10
12.2550817652
 20
8.2677426043
 30
0.0
 10
12.2534869748
 20
8.2688372799
 30
0.0
 10
12.2518759964
 20
8.2697831265
 30
0.0
 10
12.2502495402
 20
8.2705794187
 30
0.0
 10
12.2486084565
 20
8.2712255543
 30
0.0
 10
12.2469536011
 20
8.2717209952
 30
0.0
 10
12.2452861311
 20
8.2720651835
 30
0.0
 10
12.2441649735
 20
8.2721938133
 30
0.0
 10
12.2436050607
 20
8.2722326473
 30
0.0
  0
SPLINE
  5
3C7
100
AcDbEntity
  8
0
100
AcDbSpline
 62
4
  6
CONTINUOUS
 70
0
 71
3
 72
395
 73
391
 74
0
 42
0.0000001
 43
0.0000001
 44
0.0000000001
 40
0.0
 40
0.0
 40
0.0
 40
0.0
 40
0.015625
 40
0.0234375
 40
0.03125
 40
0.0390625
 40
0.04296875
 40
0.046875
 40
0.05078125
 40
0.0546875
 40
0.056640625
 40
0.05859375
 40
0.0595703125
 40
0.060546875
 40
0.0615234375
 40
0.0620117188
 40
0.0622558594
 40
0.0625
 40
0.0627441406
 40
0.0629882812
 40
0.0634765625
 40
0.064453125
 40
0.0654296875
 40
0.06640625
 40
0.068359375
 40
0.0703125
 40
0.07421875
 40
0.078125
 40
0.08203125
 40
0.0859375
 40
0.09375
 40
0.1015625
 40
0.10546875
 40
0.109375
 40
0.11328125
 40
0.1171875
 40
0.119140625
 40
0.12109375
 40
0.1220703125
 40
0.123046875
 40
0.1240234375
 40
0.1245117188
 40
0.125
 40
0.1254882812
 40
0.1259765625
 40
0.126953125
 40
0.1279296875
 40
0.12890625
 40
0.130859375
 40
0.1328125
 40
0.13671875
 40
0.140625
 40
0.14453125
 40
0.1484375
 40
0.15625
 40
0.1640625
 40
0.16796875
 40
0.171875
 40
0.17578125
 40
0.1796875
 40
0.181640625
 40
0.18359375
 40
0.1845703125
 40
0.185546875
 40
0.1865234375
 40
0.1870117188
 40
0.1872558594
 40
0.1875
 40
0.1877441406
 40
0.1879882812
 40
0.1884765625
 40
0.189453125
 40
0.1904296875
 40
0.19140625
 40
0.193359375
 40
0.1953125
 40
0.19921875
 40
0.203125
 40
0.20703125
 40
0.2109375
 40
0.21875
 40
0.2265625
 40
0.23046875
 40
0.234375
 40
0.23828125
 40
0.2421875
 40
0.244140625
 40
0.24609375
 40
0.2470703125
 40
0.248046875
 40
0.2490234375
 40
0.2495117188
 40
0.25
 40
0.2504882812
 40
0.2509765625
 40
0.251953125
 40
0.2529296875
 40
0.25390625
 40
0.255859375
 40
0.2578125
 40
0.26171875
 40
0.265625
 40
0.26953125
 40
0.2734375
 40
0.28125
 40
0.2890625
 40
0.29296875
 40
0.296875
 40
0.30078125
 40
0.3046875
 40
0.306640625
 40
0.30859375
 40
0.3095703125
 40
0.310546875
 40
0.3115234375
 40
0.3120117188
 40
0.3125
 40
0.3129882812
 40
0.3134765625
 40
0.314453125
 40
0.3154296875
 40
0.31640625
 40
0.318359375
 40
0.3203125
 40
0.32421875
 40
0.328125
 40
0.33203125
 40
0.3359375
 40
0.34375
 40
0.3515625
 40
0.35546875
 40
0.359375
 40
0.36328125
 40
0.3671875
 40
0.369140625
 40
0.37109375
 40
0.3720703125
 40
0.373046875
 40
0.3740234375
 40
0.3745117188
 40
0.375
 40
0.3754882812
 40
0.3759765625
 40
0.376953125
 40
0.3779296875
 40
0.37890625
 40
0.380859375
 40
0.3828125
 40
0.38671875
 40
0.390625
 40
0.39453125
 40
0.3984375
 40
0.40625
 40
0.4140625
 40
0.41796875
 40
0.421875
 40
0.42578125
 40
0.4296875
 40
0.431640625
 40
0.43359375
 40
0.4345703125
 40
0.435546875
 40
0.4365234375
 40
0.4370117188
 40
0.4372558594
 40
0.4375
 40
0.4377441406
 40
0.4379882812
 40
0.4384765625
 40
0.439453125
 40
0.4404296875
 40
0.44140625
 40
0.443359375
 40
0.4453125
 40
0.44921875
 40
0.453125
 40
0.45703125
 40
0.4609375
 40
0.46875
 40
0.4765625
 40
0.48046875
 40
0.484375
 40
0.48828125
 40
0.4921875
 40
0.494140625
 40
0.49609375
 40
0.4970703125
 40
0.498046875
 40
0.4990234375
 40
0.4995117188
 40
0.4997558594
 40
0.5
 40
0.5002441406
 40
0.5004882812
 40
0.5009765625
 40
0.501953125
 40
0.5029296875
 40
0.50390625
 40
0.505859375
 40
0.5078125
 40
0.51171875
 40
0.515625
 40
0.51953125
 40
0.5234375
 40
0.53125
 40
0.5390625
 40
0.54296875
 40
0.546875
 40
0.55078125
 40
0.5546875
 40
0.556640625
 40
0.55859375
 40
0.5595703125
 40
0.560546875
 40
0.5615234375
 40
0.5620117188
 40
0.5622558594
 40
0.5625
 40
0.5627441406
 40
0.5629882812
 40
0.5634765625
 40
0.564453125
 40
0.5654296875
 40
0.56640625
 40
0.568359375
 40
0.5703125
 40
0.57421875
 40
0.578125
 40
0.58203125
 40
0.5859375
 40
0.59375
 40
0.6015625
 40
0.60546875
 40
0.609375
 40
0.61328125
 40
0.6171875
 40
0.619140625
 40
0.62109375
 40
0.6220703125
 40
0.623046875
 40
0.6240234375
 40
0.6245117188
 40
0.6247558594
 40
0.625
 40
0.6252441406
 40
0.6254882812
 40
0.6259765625
 40
0.626953125
 40
0.6279296875
 40
0.62890625
 40
0.630859375
 40
0.6328125
 40
0.63671875
 40
0.640625
 40
0.64453125
 40
0.6484375
 40
0.65625
 40
0.6640625
 40
0.66796875
 40
0.671875
 40
0.67578125
 40
0.6796875
 40
0.681640625
 40
0.68359375
 40
0.6845703125
 40
0.685546875
 40
0.6865234375
 40
0.6870117188
 40
0.6872558594
 40
0.6875
 40
0.6877441406
 40
0.6879882812
 40
0.6884765625
 40
0.689453125
 40
0.6904296875
 40
0.69140625
 40
0.693359375
 40
0.6953125
 40
0.69921875
 40
0.703125
 40
0.70703125
 40
0.7109375
 40
0.71875
 40
0.7265625
 40
0.73046875
 40
0.734375
 40
0.73828125
 40
0.7421875
 40
0.744140625
 40
0.74609375
 40
0.7470703125
 40
0.748046875
 40
0.7490234375
 40
0.7495117188
 40
0.7497558594
 40
0.75
 40
0.7502441406
 40
0.7504882812
 40
0.7509765625
 40
0.751953125
 40
0.7529296875
 40
0.75390625
 40
0.755859375
 40
0.7578125
 40
0.76171875
 40
0.765625
 40
0.76953125
 40
0.7734375
 40
0.78125
 40
0.7890625
 40
0.79296875
 40
0.796875
 40
0.80078125
 40
0.8046875
 40
0.806640625
 40
0.80859375
 40
0.8095703125
 40
0.810546875
 40
0.8115234375
 40
0.8120117188
 40
0.8122558594
 40
0.8125
 40
0.8127441406
 40
0.8129882812
 40
0.8134765625
 40
0.814453125
 40
0.8154296875
 40
0.81640625
 40
0.818359375
 40
0.8203125
 40
0.82421875
 40
0.828125
 40
0.83203125
 40
0.8359375
 40
0.84375
 40
0.8515625
 40
0.85546875
 40
0.859375
 40
0.86328125
 40
0.8671875
 40
0.869140625
 40
0.87109375
 40
0.8720703125
 40
0.873046875
 40
0.8740234375
 40
0.8745117188
 40
0.8747558594
 40
0.875
 40
0.8752441406
 40
0.8754882812
 40
0.8759765625
 40
0.876953125
 40
0.8779296875
 40
0.87890625
 40
0.880859375
 40
0.8828125
 40
0.88671875
 40
0.890625
 40
0.89453125
 40
0.8984375
 40
0.90625
 40
0.9140625
 40
0.91796875
 40
0.921875
 40
0.92578125
 40
0.9296875
 40
0.931640625
 40
0.93359375
 40
0.9345703125
 40
0.935546875
 40
0.9365234375
 40
0.9370117188
 40
0.9372558594
 40
0.9375
 40
0.9377441406
 40
0.9379882812
 40
0.9384765625
 40
0.939453125
 40
0.9404296875
 40
0.94140625
 40
0.943359375
 40
0.9453125
 40
0.94921875
 40
0.953125
 40
0.95703125
 40
0.9609375
 40
0.96875
 40
0.9765625
 40
0.984375
 40
1.0
 40
1.0
 40
1.0
 40
1.0
 10
10.9363105233
 20
7.5993965592
 30
0.0
 10
10.9365864619
 20
7.596563183
 30
0.0
 10
10.9370003699
 20
7.5923131186
 30
0.0
 10
10.9375522471
 20
7.5866463662
 30
0.0
 10
10.9379661551
 20
7.5823963019
 30
0.0
 10
10.9383110782
 20
7.5788545816
 30
0.0
 10
10.9385870171
 20
7.5760212054
 30
0.0
 10
10.9387939702
 20
7.5738961731
 30
0.0
 10
10.9390009275
 20
7.5717711414
 30
0.0
 10
10.9391733788
 20
7.5700002799
 30
0.0
 10
10.9393113692
 20
7.5685835945
 30
0.0
 10
10.9393975466
 20
7.5676981576
 30
0.0
 10
10.9394666409
 20
7.5669898276
 30
0.0
 10
10.9395180444
 20
7.5664585265
 30
0.0
 10
10.9395622079
 20
7.5660159463
 30
0.0
 10
10.9395905176
 20
7.5657058051
 30
0.0
 10
10.9396107616
 20
7.5655291047
 30
0.0
 10
10.9396144879
 20
7.5653951055
 30
0.0
 10
10.9396620074
 20
7.5652667405
 30
0.0
 10
10.9397100912
 20
7.5650936219
 30
0.0
 10
10.939801355
 20
7.56479158
 30
0.0
 10
10.9399280109
 20
7.5643596129
 30
0.0
 10
10.9400815907
 20
7.5638414573
 30
0.0
 10
10.9402858074
 20
7.5631505115
 30
0.0
 10
10.9405412687
 20
7.5622868538
 30
0.0
 10
10.9409499005
 20
7.5609049878
 30
0.0
 10
10.9414607267
 20
7.55917766
 30
0.0
 10
10.9420737025
 20
7.5571048646
 30
0.0
 10
10.9426866825
 20
7.5550320698
 30
0.0
 10
10.9435039876
 20
7.5522683431
 30
0.0
 10
10.9445256195
 20
7.5488136848
 30
0.0
 10
10.9455472517
 20
7.5453590267
 30
0.0
 10
10.9463645564
 20
7.5425952998
 30
0.0
 10
10.9469775378
 20
7.5405225056
 30
0.0
 10
10.9475905081
 20
7.5384497077
 30
0.0
 10
10.9481013514
 20
7.5367223879
 30
0.0
 10
10.9485099483
 20
7.5353405055
 30
0.0
 10
10.9487654983
 20
7.5344768896
 30
0.0
 10
10.9489695331
 20
7.533785858
 30
0.0
 10
10.9491236687
 20
7.5332679647
 30
0.0
 10
10.9492485854
 20
7.5328351768
 30
0.0
 10
10.9493564352
 20
7.5324916605
 30
0.0
 10
10.9494156911
 20
7.5322266075
 30
0.0
 10
10.9495575146
 20
7.5319898604
 30
0.0
 10
10.9497177707
 20
7.53166431
 30
0.0
 10
10.9499279863
 20
7.5312607644
 30
0.0
 10
10.9501760094
 20
7.5307750575
 30
0.0
 10
10.9505081864
 20
7.5301279556
 30
0.0
 10
10.950922901
 20
7.5293189046
 30
0.0
 10
10.9515867275
 20
7.5280245199
 30
0.0
 10
10.9524164135
 20
7.5264065059
 30
0.0
 10
10.9534120783
 20
7.5244649032
 30
0.0
 10
10.954407732
 20
7.5225232968
 30
0.0
 10
10.9557352742
 20
7.5199344895
 30
0.0
 10
10.9573947006
 20
7.51669848
 30
0.0
 10
10.9590541273
 20
7.5134624706
 30
0.0
 10
10.9603816689
 20
7.5108736632
 30
0.0
 10
10.9613773242
 20
7.5089320571
 30
0.0
 10
10.9623729832
 20
7.5069904529
 30
0.0
 10
10.9632026872
 20
7.5053724438
 30
0.0
 10
10.9638664771
 20
7.5040780491
 30
0.0
 10
10.9642812849
 20
7.5032690235
 30
0.0
 10
10.9646132706
 20
7.5026218693
 30
0.0
 10
10.964861878
 20
7.5021363223
 30
0.0
 10
10.9650702654
 20
7.5017322766
 30
0.0
 10
10.9652137532
 20
7.5014483128
 30
0.0
 10
10.9652994677
 20
7.5012878149
 30
0.0
 10
10.9653532702
 20
7.5011624635
 30
0.0
 10
10.9654471452
 20
7.5010561404
 30
0.0
 10
10.965558334
 20
7.5009077389
 30
0.0
 10
10.965759427
 20
7.5006511288
 30
0.0
 10
10.9660432979
 20
7.5002829262
 30
0.0
 10
10.9663854004
 20
7.4998417751
 30
0.0
 10
10.966841028
 20
7.4992533319
 30
0.0
 10
10.9674107367
 20
7.4985178607
 30
0.0
 10
10.9683221734
 20
7.4973410605
 30
0.0
 10
10.9694615025
 20
7.4958700761
 30
0.0
 10
10.9708286833
 20
7.494104888
 30
0.0
 10
10.9721958678
 20
7.4923397018
 30
0.0
 10
10.9740187792
 20
7.4899861195
 30
0.0
 10
10.9762974188
 20
7.4870441418
 30
0.0
 10
10.9785760586
 20
7.4841021643
 30
0.0
 10
10.9803989697
 20
7.4817485816
 30
0.0
 10
10.9817661551
 20
7.4799833968
 30
0.0
 10
10.9831333326
 20
7.4782182032
 30
0.0
 10
10.9842726718
 20
7.4767472361
 30
0.0
 10
10.985184088
 20
7.4755704005
 30
0.0
 10
10.9857538487
 20
7.4748350195
 30
0.0
 10
10.9862093696
 20
7.4742463912
 30
0.0
 10
10.9865517979
 20
7.4738058055
 30
0.0
 10
10.9868346494
 20
7.4734358339
 30
0.0
 10
10.9870665498
 20
7.4731461743
 30
0.0
 10
10.9872251207
 20
7.4729116666
 30
0.0
 10
10.9874422996
 20
7.4727430523
 30
0.0
 10
10.9877113989
 20
7.4724952158
 30
0.0
 10
10.9880547971
 20
7.4721933174
 30
0.0
 10
10.9884638684
 20
7.471827659
 30
0.0
 10
10.9890103469
 20
7.4713412951
 30
0.0
 10
10.9896930855
 20
7.4707329361
 30
0.0
 10
10.9907856682
 20
7.4697597875
 30
0.0
 10
10.9921513276
 20
7.4685432743
 30
0.0
 10
10.9937901484
 20
7.4670834916
 30
0.0
 10
10.9954289613
 20
7.4656237001
 30
0.0
 10
10.997614048
 20
7.4636773145
 30
0.0
 10
11.0003454053
 20
7.4612443314
 30
0.0
 10
11.0030767633
 20
7.458811349
 30
0.0
 10
11.0052618489
 20
7.4568649621
 30
0.0
 10
11.006900665
 20
7.4554051745
 30
0.0
 10
11.0085394743
 20
7.4539453772
 30
0.0
 10
11.0099051696
 20
7.4527289093
 30
0.0
 10
11.010997679
 20
7.4517556684
 30
0.0
 10
11.0116806039
 20
7.4511475444
 30
0.0
 10
11.0122267
 20
7.450660698
 30
0.0
 10
11.0126369397
 20
7.4502965141
 30
0.0
 10
11.0129766823
 20
7.4499900023
 30
0.0
 10
11.0132532397
 20
7.4497515779
 30
0.0
 10
11.0134476421
 20
7.4495542198
 30
0.0
 10
11.0136917252
 20
7.4494276283
 30
0.0
 10
11.0139998152
 20
7.44923412
 30
0.0
 10
11.0143908819
 20
7.4490007158
 30
0.0
 10
11.0148576133
 20
7.4487170006
 30
0.0
 10
11.015480812
 20
7.4483399816
 30
0.0
 10
11.0162595056
 20
7.4478682736
 30
0.0
 10
11.0175055857
 20
7.4471137836
 30
0.0
 10
11.0190631273
 20
7.4461705877
 30
0.0
 10
11.0209322024
 20
7.4450387884
 30
0.0
 10
11.0228012708
 20
7.4439069796
 30
0.0
 10
11.0252933642
 20
7.4423979044
 30
0.0
 10
11.0284084803
 20
7.4405115593
 30
0.0
 10
11.0315235968
 20
7.438625215
 30
0.0
 10
11.0340156894
 20
7.4371161384
 30
0.0
 10
11.0358847602
 20
7.4359843339
 30
0.0
 10
11.0377538263
 20
7.4348525185
 30
0.0
 10
11.0393113958
 20
7.4339093727
 30
0.0
 10
11.0405574191
 20
7.4331547806
 30
0.0
 10
11.0413362572
 20
7.4326833322
 30
0.0
 10
11.0419591593
 20
7.4323057805
 30
0.0
 10
11.042426797
 20
7.4320236927
 30
0.0
 10
11.042815028
 20
7.4317851967
 30
0.0
 10
11.0431289033
 20
7.4316020767
 30
0.0
 10
11.0433553185
 20
7.43144376
 30
0.0
 10
11.0436160536
 20
7.4313655116
 30
0.0
 10
11.043951712
 20
7.4312332115
 30
0.0
 10
11.0443753982
 20
7.4310774323
 30
0.0
 10
11.0448820611
 20
7.43088639
 30
0.0
 10
11.0455582265
 20
7.4306331015
 30
0.0
 10
11.0464032228
 20
7.4303159996
 30
0.0
 10
11.0477553344
 20
7.4298089112
 30
0.0
 10
11.0494454336
 20
7.4291749564
 30
0.0
 10
11.0514735699
 20
7.4284142511
 30
0.0
 10
11.0535017015
 20
7.427653535
 30
0.0
 10
11.0562058787
 20
7.4266392506
 30
0.0
 10
11.0595860997
 20
7.4253713938
 30
0.0
 10
11.0629663208
 20
7.4241035373
 30
0.0
 10
11.0656704977
 20
7.4230892525
 30
0.0
 10
11.0676986301
 20
7.4223285378
 30
0.0
 10
11.0697267637
 20
7.4215678271
 30
0.0
 10
11.0714168712
 20
7.4209338889
 30
0.0
 10
11.0727689659
 20
7.4204267668
 30
0.0
 10
11.0736140054
 20
7.4201097504
 30
0.0
 10
11.0742900819
 20
7.4198562865
 30
0.0
 10
11.0747970163
 20
7.4196657802
 30
0.0
 10
11.075219853
 20
7.4195083238
 30
0.0
 10
11.0755150706
 20
7.4193955553
 30
0.0
 10
11.0756849658
 20
7.4193350964
 30
0.0
 10
11.0758090084
 20
7.4192785397
 30
0.0
 10
11.0759459663
 20
7.4192648429
 30
0.0
 10
11.0761240719
 20
7.4192316304
 30
0.0
 10
11.0764378557
 20
7.4191804741
 30
0.0
 10
11.0768850208
 20
7.4191037521
 30
0.0
 10
11.0774220887
 20
7.4190132444
 30
0.0
 10
11.0781380151
 20
7.418892023
 30
0.0
 10
11.0790329793
 20
7.4187406826
 30
0.0
 10
11.0804648907
 20
7.4184984339
 30
0.0
 10
11.0822547907
 20
7.4181956587
 30
0.0
 10
11.0844026661
 20
7.4178323132
 30
0.0
 10
11.0865505427
 20
7.4174689718
 30
0.0
 10
11.0894143777
 20
7.4169845151
 30
0.0
 10
11.0929941716
 20
7.4163789448
 30
0.0
 10
11.0965739655
 20
7.4157733741
 30
0.0
 10
11.0994378006
 20
7.415288918
 30
0.0
 10
11.101585677
 20
7.4149255748
 30
0.0
 10
11.1037335531
 20
7.414562236
 30
0.0
 10
11.105523451
 20
7.41425944
 30
0.0
 10
11.1069553666
 20
7.4140172337
 30
0.0
 10
11.10785032
 20
7.4138657853
 30
0.0
 10
11.1085662687
 20
7.4137447857
 30
0.0
 10
11.1091032685
 20
7.4136536004
 30
0.0
 10
11.1095506467
 20
7.4135789983
 30
0.0
 10
11.1098640501
 20
7.4135240575
 30
0.0
 10
11.1100427651
 20
7.4134969089
 30
0.0
 10
11.110177851
 20
7.4134645858
 30
0.0
 10
11.1103089249
 20
7.4134779861
 30
0.0
 10
11.1104850895
 20
7.4134799043
 30
0.0
 10
11.1107927256
 20
7.413490692
 30
0.0
 10
11.1112325466
 20
7.4135022182
 30
0.0
 10
11.1117601858
 20
7.4135177124
 30
0.0
 10
11.1124637558
 20
7.4135377905
 30
0.0
 10
11.1133432009
 20
7.413563087
 30
0.0
 10
11.1147503227
 20
7.4136034503
 30
0.0
 10
11.1165092217
 20
7.4136539426
 30
0.0
 10
11.1186199018
 20
7.413714517
 30
0.0
 10
11.1207305816
 20
7.4137750957
 30
0.0
 10
11.1235448214
 20
7.4138558658
 30
0.0
 10
11.1270626212
 20
7.4139568291
 30
0.0
 10
11.130580421
 20
7.4140577919
 30
0.0
 10
11.1333946607
 20
7.4141385626
 30
0.0
 10
11.1355053407
 20
7.4141991396
 30
0.0
 10
11.1376160199
 20
7.4142597207
 30
0.0
 10
11.1393749219
 20
7.4143101918
 30
0.0
 10
11.1407820376
 20
7.4143505983
 30
0.0
 10
11.1416614981
 20
7.4143757849
 30
0.0
 10
11.1423650364
 20
7.4143960887
 30
0.0
 10
11.1428927727
 20
7.4144108936
 30
0.0
 10
11.1433322901
 20
7.4144245764
 30
0.0
 10
11.1436404681
 20
7.414431514
 30
0.0
 10
11.1438157645
 20
7.4144396011
 30
0.0
 10
11.1439495053
 20
7.4144340525
 30
0.0
 10
11.1440745748
 20
7.4144728984
 30
0.0
 10
11.1442443587
 20
7.4145092076
 30
0.0
 10
11.1445400714
 20
7.4145799636
 30
0.0
 10
11.144963255
 20
7.4146772717
 30
0.0
 10
11.1454707598
 20
7.4147956558
 30
0.0
 10
11.1461475431
 20
7.4149529375
 30
0.0
 10
11.1469934845
 20
7.4151497326
 30
0.0
 10
11.1483470118
 20
7.4154644969
 30
0.0
 10
11.1500389137
 20
7.4158579893
 30
0.0
 10
11.152069199
 20
7.4163301644
 30
0.0
 10
11.1540994836
 20
7.4168023436
 30
0.0
 10
11.1568065299
 20
7.4174319145
 30
0.0
 10
11.1601903378
 20
7.4182188786
 30
0.0
 10
11.1635741457
 20
7.4190058424
 30
0.0
 10
11.1662811919
 20
7.4196354139
 30
0.0
 10
11.1683114769
 20
7.4201075914
 30
0.0
 10
11.1703417603
 20
7.4205797729
 30
0.0
 10
11.1720336683
 20
7.4209732449
 30
0.0
 10
11.1733871833
 20
7.4212880509
 30
0.0
 10
11.174233156
 20
7.4214847401
 30
0.0
 10
11.174909875
 20
7.4216422392
 30
0.0
 10
11.1754175763
 20
7.421759959
 30
0.0
 10
11.1758401451
 20
7.4218593456
 30
0.0
 10
11.1761369551
 20
7.4219263911
 30
0.0
 10
11.176304981
 20
7.4219686455
 30
0.0
 10
11.1764354509
 20
7.4219892298
 30
0.0
 10
11.1765489085
 20
7.4220522687
 30
0.0
 10
11.1767061195
 20
7.422121512
 30
0.0
 10
11.1769784738
 20
7.4222495874
 30
0.0
 10
11.177368997
 20
7.4224289451
 30
0.0
 10
11.177837006
 20
7.4226457183
 30
0.0
 10
11.1784612341
 20
7.4229342099
 30
0.0
 10
11.1792414453
 20
7.4232950091
 30
0.0
 10
11.1804898246
 20
7.4238721846
 30
0.0
 10
11.1820502845
 20
7.4245936894
 30
0.0
 10
11.1839228424
 20
7.42545948
 30
0.0
 10
11.1857953988
 20
7.4263252747
 30
0.0
 10
11.1882921411
 20
7.4274796661
 30
0.0
 10
11.1914130688
 20
7.428922656
 30
0.0
 10
11.1945339966
 20
7.4303656454
 30
0.0
 10
11.1970307387
 20
7.4315200374
 30
0.0
 10
11.1989032958
 20
7.4323858304
 30
0.0
 10
11.2007758508
 20
7.4332516273
 30
0.0
 10
11.2023363198
 20
7.4339731124
 30
0.0
 10
11.2035846805
 20
7.4345503282
 30
0.0
 10
11.204364939
 20
7.4349110249
 30
0.0
 10
11.20498907
 20
7.4351997269
 30
0.0
 10
11.205457376
 20
7.4354158573
 30
0.0
 10
11.20584697
 20
7.4355972262
 30
0.0
 10
11.2061209829
 20
7.4357217112
 30
0.0
 10
11.2062755365
 20
7.4357967073
 30
0.0
 10
11.2063971567
 20
7.4358420754
 30
0.0
 10
11.2064969696
 20
7.4359290283
 30
0.0
 10
11.20663766
 20
7.4360304603
 30
0.0
 10
11.2068803243
 20
7.4362147244
 30
0.0
 10
11.2072288404
 20
7.4364744257
 30
0.0
 10
11.2076462666
 20
7.4367875795
 30
0.0
 10
11.2082031119
 20
7.4372045898
 30
0.0
 10
11.2088990737
 20
7.4377260334
 30
0.0
 10
11.2100126655
 20
7.4385602422
 30
0.0
 10
11.2114046372
 20
7.4396030378
 30
0.0
 10
11.2130750109
 20
7.4408543777
 30
0.0
 10
11.2147453826
 20
7.4421057216
 30
0.0
 10
11.2169725456
 20
7.4437741787
 30
0.0
 10
11.219756499
 20
7.4458597506
 30
0.0
 10
11.2225404526
 20
7.4479453221
 30
0.0
 10
11.2247676152
 20
7.4496137797
 30
0.0
 10
11.226437988
 20
7.4508651221
 30
0.0
 10
11.2281083575
 20
7.4521164676
 30
0.0
 10
11.2295003425
 20
7.453159246
 30
0.0
 10
11.2306139071
 20
7.4539934899
 30
0.0
 10
11.2313099382
 20
7.4545148441
 30
0.0
 10
11.2318666413
 20
7.4549320379
 30
0.0
 10
11.2322845019
 20
7.455244631
 30
0.0
 10
11.2326316591
 20
7.4555060866
 30
0.0
 10
11.2328767491
 20
7.4556872189
 30
0.0
 10
11.2330135529
 20
7.455793669
 30
0.0
 10
11.2331253045
 20
7.4558652076
 30
0.0
 10
11.2332020847
 20
7.4559684692
 30
0.0
 10
11.2333166568
 20
7.4560950859
 30
0.0
 10
11.2335114744
 20
7.4563218208
 30
0.0
 10
11.2337927567
 20
7.4566430323
 30
0.0
 10
11.2341290235
 20
7.4570296399
 30
0.0
 10
11.2345778236
 20
7.4575447137
 30
0.0
 10
11.2351386715
 20
7.4581886939
 30
0.0
 10
11.2360361133
 20
7.4592189851
 30
0.0
 10
11.2371578863
 20
7.4605068756
 30
0.0
 10
11.2385040264
 20
7.4620523328
 30
0.0
 10
11.2398501632
 20
7.4635977931
 30
0.0
 10
11.2416450134
 20
7.4656584058
 30
0.0
 10
11.2438885758
 20
7.468234172
 30
0.0
 10
11.2461321384
 20
7.4708099379
 30
0.0
 10
11.2479269881
 20
7.472870551
 30
0.0
 10
11.2492731264
 20
7.4744160101
 30
0.0
 10
11.250619261
 20
7.4759614718
 30
0.0
 10
11.251741051
 20
7.4772493484
 30
0.0
 10
11.2526384582
 20
7.4782796679
 30
0.0
 10
11.2531993941
 20
7.478923576
 30
0.0
 10
11.2536480137
 20
7.4794387979
 30
0.0
 10
11.2539848318
 20
7.4798249531
 30
0.0
 10
11.2542643893
 20
7.4801475798
 30
0.0
 10
11.254462286
 20
7.4803717884
 30
0.0
 10
11.2545719246
 20
7.4805024529
 30
0.0
 10
11.2546638587
 20
7.4805932811
 30
0.0
 10
11.2547186948
 20
7.4807115171
 30
0.0
 10
11.2548047499
 20
7.4808596049
 30
0.0
 10
11.2549493171
 20
7.4811232128
 30
0.0
 10
11.2551589938
 20
7.4814974669
 30
0.0
 10
11.2554092566
 20
7.4819475685
 30
0.0
 10
11.2557434116
 20
7.4825473559
 30
0.0
 10
11.2561609441
 20
7.4832972093
 30
0.0
 10
11.2568290861
 20
7.4844969081
 30
0.0
 10
11.2576642327
 20
7.4859965544
 30
0.0
 10
11.258666422
 20
7.4877961202
 30
0.0
 10
11.2596686076
 20
7.4895956887
 30
0.0
 10
11.2610048564
 20
7.4919951124
 30
0.0
 10
11.262675167
 20
7.4949943923
 30
0.0
 10
11.2643454778
 20
7.4979936721
 30
0.0
 10
11.2656817261
 20
7.5003930961
 30
0.0
 10
11.2666839133
 20
7.5021926636
 30
0.0
 10
11.2676860967
 20
7.503992233
 30
0.0
 10
11.2685212617
 20
7.5054918682
 30
0.0
 10
11.2691893662
 20
7.5066915897
 30
0.0
 10
11.2696069942
 20
7.5074413853
 30
0.0
 10
11.2699409531
 20
7.5080412914
 30
0.0
 10
11.270191815
 20
7.5084910302
 30
0.0
 10
11.2703996174
 20
7.5088664192
 30
0.0
 10
11.2705475305
 20
7.5091280011
 30
0.0
 10
11.2706282247
 20
7.5092793352
 30
0.0
 10
11.2706995276
 20
7.5093875998
 30
0.0
 10
11.2707296152
 20
7.5095158789
 30
0.0
 10
11.2707841084
 20
7.5096799364
 30
0.0
 10
11.2708727733
 20
7.5099702898
 30
0.0
 10
11.2710029394
 20
7.5103833798
 30
0.0
 10
11.2711576397
 20
7.5108798157
 30
0.0
 10
11.2713644303
 20
7.511541476
 30
0.0
 10
11.2716227394
 20
7.5123686384
 30
0.0
 10
11.2720361341
 20
7.5136920496
 30
0.0
 10
11.272552843
 20
7.5153463302
 30
0.0
 10
11.2731729085
 20
7.5173314599
 30
0.0
 10
11.2737929701
 20
7.5193165915
 30
0.0
 10
11.2746197202
 20
7.5219634329
 30
0.0
 10
11.2756531573
 20
7.525271985
 30
0.0
 10
11.2766865948
 20
7.5285805369
 30
0.0
 10
11.2775133443
 20
7.5312273786
 30
0.0
 10
11.2781334076
 20
7.5332125094
 30
0.0
 10
11.2787534667
 20
7.5351976418
 30
0.0
 10
11.2792701956
 20
7.536851914
 30
0.0
 10
11.2796835495
 20
7.5381753425
 30
0.0
 10
11.2799419622
 20
7.539002461
 30
0.0
 10
11.2801485401
 20
7.5396642113
 30
0.0
 10
11.2803038904
 20
7.5401603721
 30
0.0
 10
11.2804320229
 20
7.5405743228
 30
0.0
 10
11.2805243181
 20
7.5408631397
 30
0.0
 10
11.2805729947
 20
7.5410296591
 30
0.0
 10
11.280620949
 20
7.5411503761
 30
0.0
 10
11.2806251478
 20
7.5412870429
 30
0.0
 10
11.2806460085
 20
7.5414637019
 30
0.0
 10
11.2806754039
 20
7.5417754472
 30
0.0
 10
11.2807211149
 20
7.5422194425
 30
0.0
 10
11.2807743768
 20
7.5427528169
 30
0.0
 10
11.2808459486
 20
7.5434637801
 30
0.0
 10
11.2809352229
 20
7.5443525535
 30
0.0
 10
11.2810781683
 20
7.5457745522
 30
0.0
 10
11.2812568135
 20
7.5475520639
 30
0.0
 10
11.2814712033
 20
7.5496850723
 30
0.0
 10
11.281685589
 20
7.5518180821
 30
0.0
 10
11.281971438
 20
7.5546620947
 30
0.0
 10
11.2823287488
 20
7.5582171106
 30
0.0
 10
11.282757522
 20
7.5624831297
 30
0.0
 10
11.2833292195
 20
7.5681711551
 30
0.0
 10
11.2837579926
 20
7.5724371742
 30
0.0
 10
11.2840438414
 20
7.5752811869
 30
0.0
  0
SPLINE
  5
3C8
100
AcDbEntity
  8
0
100
AcDbSpline
 62
4
  6
CONTINUOUS
 70
0
 71
3
 72
395
 73
391
 74
0
 42
0.0000001
 43
0.0000001
 44
0.0000000001
 40
0.0
 40
0.0
 40
0.0
 40
0.0
 40
0.015625
 40
0.0234375
 40
0.03125
 40
0.0390625
 40
0.04296875
 40
0.046875
 40
0.05078125
 40
0.0546875
 40
0.056640625
 40
0.05859375
 40
0.0595703125
 40
0.060546875
 40
0.0615234375
 40
0.0620117188
 40
0.0622558594
 40
0.0625
 40
0.0627441406
 40
0.0629882812
 40
0.0634765625
 40
0.064453125
 40
0.0654296875
 40
0.06640625
 40
0.068359375
 40
0.0703125
 40
0.07421875
 40
0.078125
 40
0.08203125
 40
0.0859375
 40
0.09375
 40
0.1015625
 40
0.10546875
 40
0.109375
 40
0.11328125
 40
0.1171875
 40
0.119140625
 40
0.12109375
 40
0.1220703125
 40
0.123046875
 40
0.1240234375
 40
0.1245117188
 40
0.125
 40
0.1254882812
 40
0.1259765625
 40
0.126953125
 40
0.1279296875
 40
0.12890625
 40
0.130859375
 40
0.1328125
 40
0.13671875
 40
0.140625
 40
0.14453125
 40
0.1484375
 40
0.15625
 40
0.1640625
 40
0.16796875
 40
0.171875
 40
0.17578125
 40
0.1796875
 40
0.181640625
 40
0.18359375
 40
0.1845703125
 40
0.185546875
 40
0.1865234375
 40
0.1870117188
 40
0.1872558594
 40
0.1875
 40
0.1877441406
 40
0.1879882812
 40
0.1884765625
 40
0.189453125
 40
0.1904296875
 40
0.19140625
 40
0.193359375
 40
0.1953125
 40
0.19921875
 40
0.203125
 40
0.20703125
 40
0.2109375
 40
0.21875
 40
0.2265625
 40
0.23046875
 40
0.234375
 40
0.23828125
 40
0.2421875
 40
0.244140625
 40
0.24609375
 40
0.2470703125
 40
0.248046875
 40
0.2490234375
 40
0.2495117188
 40
0.25
 40
0.2504882812
 40
0.2509765625
 40
0.251953125
 40
0.2529296875
 40
0.25390625
 40
0.255859375
 40
0.2578125
 40
0.26171875
 40
0.265625
 40
0.26953125
 40
0.2734375
 40
0.28125
 40
0.2890625
 40
0.29296875
 40
0.296875
 40
0.30078125
 40
0.3046875
 40
0.306640625
 40
0.30859375
 40
0.3095703125
 40
0.310546875
 40
0.3115234375
 40
0.3120117188
 40
0.3125
 40
0.3129882812
 40
0.3134765625
 40
0.314453125
 40
0.3154296875
 40
0.31640625
 40
0.318359375
 40
0.3203125
 40
0.32421875
 40
0.328125
 40
0.33203125
 40
0.3359375
 40
0.34375
 40
0.3515625
 40
0.35546875
 40
0.359375
 40
0.36328125
 40
0.3671875
 40
0.369140625
 40
0.37109375
 40
0.3720703125
 40
0.373046875
 40
0.3740234375
 40
0.3745117188
 40
0.375
 40
0.3754882812
 40
0.3759765625
 40
0.376953125
 40
0.3779296875
 40
0.37890625
 40
0.380859375
 40
0.3828125
 40
0.38671875
 40
0.390625
 40
0.39453125
 40
0.3984375
 40
0.40625
 40
0.4140625
 40
0.41796875
 40
0.421875
 40
0.42578125
 40
0.4296875
 40
0.431640625
 40
0.43359375
 40
0.4345703125
 40
0.435546875
 40
0.4365234375
 40
0.4370117188
 40
0.4372558594
 40
0.4375
 40
0.4377441406
 40
0.4379882812
 40
0.4384765625
 40
0.439453125
 40
0.4404296875
 40
0.44140625
 40
0.443359375
 40
0.4453125
 40
0.44921875
 40
0.453125
 40
0.45703125
 40
0.4609375
 40
0.46875
 40
0.4765625
 40
0.48046875
 40
0.484375
 40
0.48828125
 40
0.4921875
 40
0.494140625
 40
0.49609375
 40
0.4970703125
 40
0.498046875
 40
0.4990234375
 40
0.4995117188
 40
0.4997558594
 40
0.5
 40
0.5002441406
 40
0.5004882812
 40
0.5009765625
 40
0.501953125
 40
0.5029296875
 40
0.50390625
 40
0.505859375
 40
0.5078125
 40
0.51171875
 40
0.515625
 40
0.51953125
 40
0.5234375
 40
0.53125
 40
0.5390625
 40
0.54296875
 40
0.546875
 40
0.55078125
 40
0.5546875
 40
0.556640625
 40
0.55859375
 40
0.5595703125
 40
0.560546875
 40
0.5615234375
 40
0.5620117188
 40
0.5622558594
 40
0.5625
 40
0.5627441406
 40
0.5629882812
 40
0.5634765625
 40
0.564453125
 40
0.5654296875
 40
0.56640625
 40
0.568359375
 40
0.5703125
 40
0.57421875
 40
0.578125
 40
0.58203125
 40
0.5859375
 40
0.59375
 40
0.6015625
 40
0.60546875
 40
0.609375
 40
0.61328125
 40
0.6171875
 40
0.619140625
 40
0.62109375
 40
0.6220703125
 40
0.623046875
 40
0.6240234375
 40
0.6245117188
 40
0.6247558594
 40
0.625
 40
0.6252441406
 40
0.6254882812
 40
0.6259765625
 40
0.626953125
 40
0.6279296875
 40
0.62890625
 40
0.630859375
 40
0.6328125
 40
0.63671875
 40
0.640625
 40
0.64453125
 40
0.6484375
 40
0.65625
 40
0.6640625
 40
0.66796875
 40
0.671875
 40
0.67578125
 40
0.6796875
 40
0.681640625
 40
0.68359375
 40
0.6845703125
 40
0.685546875
 40
0.6865234375
 40
0.6870117188
 40
0.6872558594
 40
0.6875
 40
0.6877441406
 40
0.6879882812
 40
0.6884765625
 40
0.689453125
 40
0.6904296875
 40
0.69140625
 40
0.693359375
 40
0.6953125
 40
0.69921875
 40
0.703125
 40
0.70703125
 40
0.7109375
 40
0.71875
 40
0.7265625
 40
0.73046875
 40
0.734375
 40
0.73828125
 40
0.7421875
 40
0.744140625
 40
0.74609375
 40
0.7470703125
 40
0.748046875
 40
0.7490234375
 40
0.7495117188
 40
0.7497558594
 40
0.75
 40
0.7502441406
 40
0.7504882812
 40
0.7509765625
 40
0.751953125
 40
0.7529296875
 40
0.75390625
 40
0.755859375
 40
0.7578125
 40
0.76171875
 40
0.765625
 40
0.76953125
 40
0.7734375
 40
0.78125
 40
0.7890625
 40
0.79296875
 40
0.796875
 40
0.80078125
 40
0.8046875
 40
0.806640625
 40
0.80859375
 40
0.8095703125
 40
0.810546875
 40
0.8115234375
 40
0.8120117188
 40
0.8122558594
 40
0.8125
 40
0.8127441406
 40
0.8129882812
 40
0.8134765625
 40
0.814453125
 40
0.8154296875
 40
0.81640625
 40
0.818359375
 40
0.8203125
 40
0.82421875
 40
0.828125
 40
0.83203125
 40
0.8359375
 40
0.84375
 40
0.8515625
 40
0.85546875
 40
0.859375
 40
0.86328125
 40
0.8671875
 40
0.869140625
 40
0.87109375
 40
0.8720703125
 40
0.873046875
 40
0.8740234375
 40
0.8745117188
 40
0.8747558594
 40
0.875
 40
0.8752441406
 40
0.8754882812
 40
0.8759765625
 40
0.876953125
 40
0.8779296875
 40
0.87890625
 40
0.880859375
 40
0.8828125
 40
0.88671875
 40
0.890625
 40
0.89453125
 40
0.8984375
 40
0.90625
 40
0.9140625
 40
0.91796875
 40
0.921875
 40
0.92578125
 40
0.9296875
 40
0.931640625
 40
0.93359375
 40
0.9345703125
 40
0.935546875
 40
0.9365234375
 40
0.9370117188
 40
0.9372558594
 40
0.9375
 40
0.9377441406
 40
0.9379882812
 40
0.9384765625
 40
0.939453125
 40
0.9404296875
 40
0.94140625
 40
0.943359375
 40
0.9453125
 40
0.94921875
 40
0.953125
 40
0.95703125
 40
0.9609375
 40
0.96875
 40
0.9765625
 40
0.984375
 40
1.0
 40
1.0
 40
1.0
 40
1.0
 10
11.2840438414
 20
7.5752811717
 30
0.0
 10
11.2837679027
 20
7.5781145479
 30
0.0
 10
11.2833539948
 20
7.5823646122
 30
0.0
 10
11.2828021175
 20
7.5880313646
 30
0.0
 10
11.2823882096
 20
7.592281429
 30
0.0
 10
11.2820432864
 20
7.5958231493
 30
0.0
 10
11.2817673475
 20
7.5986565254
 30
0.0
 10
11.2815603944
 20
7.6007815577
 30
0.0
 10
11.2813534371
 20
7.6029065895
 30
0.0
 10
11.2811809858
 20
7.6046774509
 30
0.0
 10
11.2810429955
 20
7.6060941363
 30
0.0
 10
11.2809568181
 20
7.6069795733
 30
0.0
 10
11.2808877238
 20
7.6076879032
 30
0.0
 10
11.2808363203
 20
7.6082192044
 30
0.0
 10
11.2807921568
 20
7.6086617845
 30
0.0
 10
11.280763847
 20
7.6089719258
 30
0.0
 10
11.280743603
 20
7.6091486261
 30
0.0
 10
11.2807398767
 20
7.6092826253
 30
0.0
 10
11.2806923572
 20
7.6094109903
 30
0.0
 10
11.2806442734
 20
7.6095841089
 30
0.0
 10
11.2805530096
 20
7.6098861508
 30
0.0
 10
11.2804263537
 20
7.6103181179
 30
0.0
 10
11.280272774
 20
7.6108362736
 30
0.0
 10
11.2800685573
 20
7.6115272193
 30
0.0
 10
11.2798130959
 20
7.612390877
 30
0.0
 10
11.2794044642
 20
7.613772743
 30
0.0
 10
11.2788936379
 20
7.6155000708
 30
0.0
 10
11.2782806622
 20
7.6175728662
 30
0.0
 10
11.2776676822
 20
7.6196456611
 30
0.0
 10
11.276850377
 20
7.6224093877
 30
0.0
 10
11.2758287451
 20
7.625864046
 30
0.0
 10
11.274807113
 20
7.6293187042
 30
0.0
 10
11.2739898083
 20
7.632082431
 30
0.0
 10
11.2733768268
 20
7.6341552252
 30
0.0
 10
11.2727638565
 20
7.6362280232
 30
0.0
 10
11.2722530133
 20
7.6379553429
 30
0.0
 10
11.2718444163
 20
7.6393372254
 30
0.0
 10
11.2715888663
 20
7.6402008412
 30
0.0
 10
11.2713848316
 20
7.6408918728
 30
0.0
 10
11.2712306959
 20
7.6414097662
 30
0.0
 10
11.2711057792
 20
7.641842554
 30
0.0
 10
11.2709979295
 20
7.6421860704
 30
0.0
 10
11.2709386736
 20
7.6424511233
 30
0.0
 10
11.2707968501
 20
7.6426878704
 30
0.0
 10
11.270636594
 20
7.6430134208
 30
0.0
 10
11.2704263784
 20
7.6434169665
 30
0.0
 10
11.2701783552
 20
7.6439026733
 30
0.0
 10
11.2698461783
 20
7.6445497752
 30
0.0
 10
11.2694314636
 20
7.6453588263
 30
0.0
 10
11.2687676371
 20
7.6466532109
 30
0.0
 10
11.2679379511
 20
7.648271225
 30
0.0
 10
11.2669422863
 20
7.6502128276
 30
0.0
 10
11.2659466326
 20
7.6521544341
 30
0.0
 10
11.2646190904
 20
7.6547432413
 30
0.0
 10
11.2629596641
 20
7.6579792508
 30
0.0
 10
11.2613002373
 20
7.6612152603
 30
0.0
 10
11.2599726957
 20
7.6638040677
 30
0.0
 10
11.2589770405
 20
7.6657456737
 30
0.0
 10
11.2579813814
 20
7.6676872779
 30
0.0
 10
11.2571516775
 20
7.6693052871
 30
0.0
 10
11.2564878876
 20
7.6705996817
 30
0.0
 10
11.2560730798
 20
7.6714087073
 30
0.0
 10
11.2557410941
 20
7.6720558615
 30
0.0
 10
11.2554924866
 20
7.6725414085
 30
0.0
 10
11.2552840992
 20
7.6729454543
 30
0.0
 10
11.2551406114
 20
7.6732294181
 30
0.0
 10
11.255054897
 20
7.673389916
 30
0.0
 10
11.2550010944
 20
7.6735152674
 30
0.0
 10
11.2549072195
 20
7.6736215905
 30
0.0
 10
11.2547960306
 20
7.6737699919
 30
0.0
 10
11.2545949376
 20
7.674026602
 30
0.0
 10
11.2543110667
 20
7.6743948046
 30
0.0
 10
11.2539689643
 20
7.6748359557
 30
0.0
 10
11.2535133367
 20
7.6754243989
 30
0.0
 10
11.2529436279
 20
7.6761598701
 30
0.0
 10
11.2520321913
 20
7.6773366703
 30
0.0
 10
11.2508928621
 20
7.6788076547
 30
0.0
 10
11.2495256814
 20
7.6805728428
 30
0.0
 10
11.2481584968
 20
7.682338029
 30
0.0
 10
11.2463355855
 20
7.6846916113
 30
0.0
 10
11.2440569458
 20
7.6876335891
 30
0.0
 10
11.2417783061
 20
7.6905755665
 30
0.0
 10
11.239955395
 20
7.6929291493
 30
0.0
 10
11.2385882096
 20
7.694694334
 30
0.0
 10
11.2372210321
 20
7.6964595277
 30
0.0
 10
11.2360816929
 20
7.6979304947
 30
0.0
 10
11.2351702767
 20
7.6991073303
 30
0.0
 10
11.2346005159
 20
7.6998427114
 30
0.0
 10
11.234144995
 20
7.7004313396
 30
0.0
 10
11.2338025667
 20
7.7008719253
 30
0.0
 10
11.2335197152
 20
7.701241897
 30
0.0
 10
11.2332878148
 20
7.7015315565
 30
0.0
 10
11.2331292439
 20
7.7017660643
 30
0.0
 10
11.2329120651
 20
7.7019346786
 30
0.0
 10
11.2326429657
 20
7.702182515
 30
0.0
 10
11.2322995676
 20
7.7024844135
 30
0.0
 10
11.2318904963
 20
7.7028500719
 30
0.0
 10
11.2313440178
 20
7.7033364357
 30
0.0
 10
11.2306612792
 20
7.7039447948
 30
0.0
 10
11.2295686965
 20
7.7049179433
 30
0.0
 10
11.2282030371
 20
7.7061344566
 30
0.0
 10
11.2265642162
 20
7.7075942392
 30
0.0
 10
11.2249254033
 20
7.7090540307
 30
0.0
 10
11.2227403166
 20
7.7110004163
 30
0.0
 10
11.2200089593
 20
7.7134333995
 30
0.0
 10
11.2172776013
 20
7.7158663818
 30
0.0
 10
11.2150925157
 20
7.7178127687
 30
0.0
 10
11.2134536997
 20
7.7192725564
 30
0.0
 10
11.2118148904
 20
7.7207323536
 30
0.0
 10
11.2104491951
 20
7.7219488215
 30
0.0
 10
11.2093566856
 20
7.7229220625
 30
0.0
 10
11.2086737607
 20
7.7235301864
 30
0.0
 10
11.2081276646
 20
7.7240170329
 30
0.0
 10
11.207717425
 20
7.7243812168
 30
0.0
 10
11.2073776824
 20
7.7246877285
 30
0.0
 10
11.207101125
 20
7.724926153
 30
0.0
 10
11.2069067225
 20
7.7251235111
 30
0.0
 10
11.2066626394
 20
7.7252501025
 30
0.0
 10
11.2063545494
 20
7.7254436108
 30
0.0
 10
11.2059634828
 20
7.725677015
 30
0.0
 10
11.2054967514
 20
7.7259607303
 30
0.0
 10
11.2048735527
 20
7.7263377493
 30
0.0
 10
11.2040948591
 20
7.7268094572
 30
0.0
 10
11.202848779
 20
7.7275639473
 30
0.0
 10
11.2012912373
 20
7.7285071431
 30
0.0
 10
11.1994221622
 20
7.7296389424
 30
0.0
 10
11.1975530939
 20
7.7307707513
 30
0.0
 10
11.1950610004
 20
7.7322798264
 30
0.0
 10
11.1919458844
 20
7.7341661716
 30
0.0
 10
11.1888307679
 20
7.7360525158
 30
0.0
 10
11.1863386752
 20
7.7375615924
 30
0.0
 10
11.1844696044
 20
7.738693397
 30
0.0
 10
11.1826005383
 20
7.7398252123
 30
0.0
 10
11.1810429688
 20
7.7407683582
 30
0.0
 10
11.1797969455
 20
7.7415229502
 30
0.0
 10
11.1790181074
 20
7.7419943986
 30
0.0
 10
11.1783952053
 20
7.7423719503
 30
0.0
 10
11.1779275676
 20
7.7426540382
 30
0.0
 10
11.1775393366
 20
7.7428925342
 30
0.0
 10
11.1772254613
 20
7.7430756542
 30
0.0
 10
11.1769990461
 20
7.7432339709
 30
0.0
 10
11.176738311
 20
7.7433122193
 30
0.0
 10
11.1764026526
 20
7.7434445194
 30
0.0
 10
11.1759789664
 20
7.7436002985
 30
0.0
 10
11.1754723035
 20
7.7437913409
 30
0.0
 10
11.1747961381
 20
7.7440446294
 30
0.0
 10
11.1739511419
 20
7.7443617312
 30
0.0
 10
11.1725990302
 20
7.7448688197
 30
0.0
 10
11.1709089311
 20
7.7455027744
 30
0.0
 10
11.1688807948
 20
7.7462634798
 30
0.0
 10
11.1668526631
 20
7.7470241959
 30
0.0
 10
11.1641484859
 20
7.7480384803
 30
0.0
 10
11.160768265
 20
7.749306337
 30
0.0
 10
11.1573880439
 20
7.7505741935
 30
0.0
 10
11.1546838669
 20
7.7515884784
 30
0.0
 10
11.1526557345
 20
7.7523491931
 30
0.0
 10
11.1506276009
 20
7.7531099037
 30
0.0
 10
11.1489374934
 20
7.753743842
 30
0.0
 10
11.1475853988
 20
7.754250964
 30
0.0
 10
11.1467403593
 20
7.7545679804
 30
0.0
 10
11.1460642827
 20
7.7548214444
 30
0.0
 10
11.1455573483
 20
7.7550119507
 30
0.0
 10
11.1451345116
 20
7.755169407
 30
0.0
 10
11.144839294
 20
7.7552821756
 30
0.0
 10
11.1446693989
 20
7.7553426345
 30
0.0
 10
11.1445453563
 20
7.7553991911
 30
0.0
 10
11.1444083983
 20
7.755412888
 30
0.0
 10
11.1442302927
 20
7.7554461004
 30
0.0
 10
11.143916509
 20
7.7554972567
 30
0.0
 10
11.1434693438
 20
7.7555739788
 30
0.0
 10
11.142932276
 20
7.7556644865
 30
0.0
 10
11.1422163495
 20
7.7557857079
 30
0.0
 10
11.1413213853
 20
7.7559370482
 30
0.0
 10
11.1398894739
 20
7.756179297
 30
0.0
 10
11.1380995739
 20
7.7564820721
 30
0.0
 10
11.1359516986
 20
7.7568454177
 30
0.0
 10
11.133803822
 20
7.7572087591
 30
0.0
 10
11.130939987
 20
7.7576932158
 30
0.0
 10
11.127360193
 20
7.7582987861
 30
0.0
 10
11.1237803991
 20
7.7589043567
 30
0.0
 10
11.120916564
 20
7.7593888128
 30
0.0
 10
11.1187686876
 20
7.759752156
 30
0.0
 10
11.1166208116
 20
7.7601154949
 30
0.0
 10
11.1148309137
 20
7.7604182908
 30
0.0
 10
11.113398998
 20
7.7606604971
 30
0.0
 10
11.1125040447
 20
7.7608119455
 30
0.0
 10
11.1117880959
 20
7.7609329451
 30
0.0
 10
11.1112510962
 20
7.7610241305
 30
0.0
 10
11.110803718
 20
7.7610987325
 30
0.0
 10
11.1104903146
 20
7.7611536734
 30
0.0
 10
11.1103115995
 20
7.761180822
 30
0.0
 10
11.1101765137
 20
7.761213145
 30
0.0
 10
11.1100454398
 20
7.7611997447
 30
0.0
 10
11.1098692751
 20
7.7611978265
 30
0.0
 10
11.1095616391
 20
7.7611870388
 30
0.0
 10
11.1091218181
 20
7.7611755127
 30
0.0
 10
11.1085941788
 20
7.7611600185
 30
0.0
 10
11.1078906088
 20
7.7611399404
 30
0.0
 10
11.1070111638
 20
7.7611146438
 30
0.0
 10
11.1056040419
 20
7.7610742805
 30
0.0
 10
11.103845143
 20
7.7610237883
 30
0.0
 10
11.1017344628
 20
7.7609632139
 30
0.0
 10
11.0996237831
 20
7.7609026351
 30
0.0
 10
11.0968095432
 20
7.760821865
 30
0.0
 10
11.0932917435
 20
7.7607209018
 30
0.0
 10
11.0897739437
 20
7.7606199389
 30
0.0
 10
11.0869597039
 20
7.7605391682
 30
0.0
 10
11.0848490239
 20
7.7604785913
 30
0.0
 10
11.0827383447
 20
7.7604180101
 30
0.0
 10
11.0809794428
 20
7.760367539
 30
0.0
 10
11.079572327
 20
7.7603271325
 30
0.0
 10
11.0786928665
 20
7.7603019459
 30
0.0
 10
11.0779893283
 20
7.7602816421
 30
0.0
 10
11.077461592
 20
7.7602668373
 30
0.0
 10
11.0770220745
 20
7.7602531544
 30
0.0
 10
11.0767138966
 20
7.7602462168
 30
0.0
 10
11.0765386002
 20
7.7602381297
 30
0.0
 10
11.0764048594
 20
7.7602436784
 30
0.0
 10
11.0762797899
 20
7.7602048325
 30
0.0
 10
11.0761100059
 20
7.7601685232
 30
0.0
 10
11.0758142932
 20
7.7600977672
 30
0.0
 10
11.0753911097
 20
7.7600004592
 30
0.0
 10
11.0748836048
 20
7.759882075
 30
0.0
 10
11.0742068216
 20
7.7597247934
 30
0.0
 10
11.0733608802
 20
7.7595279982
 30
0.0
 10
11.0720073529
 20
7.7592132339
 30
0.0
 10
11.070315451
 20
7.7588197415
 30
0.0
 10
11.0682851656
 20
7.7583475665
 30
0.0
 10
11.0662548811
 20
7.7578753872
 30
0.0
 10
11.0635478347
 20
7.7572458164
 30
0.0
 10
11.0601640269
 20
7.7564588522
 30
0.0
 10
11.056780219
 20
7.7556718884
 30
0.0
 10
11.0540731728
 20
7.755042317
 30
0.0
 10
11.0520428877
 20
7.7545701395
 30
0.0
 10
11.0500126043
 20
7.7540979579
 30
0.0
 10
11.0483206964
 20
7.7537044859
 30
0.0
 10
11.0469671814
 20
7.75338968
 30
0.0
 10
11.0461212087
 20
7.7531929908
 30
0.0
 10
11.0454444897
 20
7.7530354917
 30
0.0
 10
11.0449367884
 20
7.7529177718
 30
0.0
 10
11.0445142195
 20
7.7528183853
 30
0.0
 10
11.0442174095
 20
7.7527513398
 30
0.0
 10
11.0440493837
 20
7.7527090854
 30
0.0
 10
11.0439189137
 20
7.7526885011
 30
0.0
 10
11.0438054561
 20
7.7526254621
 30
0.0
 10
11.0436482452
 20
7.7525562188
 30
0.0
 10
11.0433758908
 20
7.7524281434
 30
0.0
 10
11.0429853677
 20
7.7522487857
 30
0.0
 10
11.0425173586
 20
7.7520320125
 30
0.0
 10
11.0418931305
 20
7.7517435209
 30
0.0
 10
11.0411129193
 20
7.7513827217
 30
0.0
 10
11.03986454
 20
7.7508055462
 30
0.0
 10
11.0383040802
 20
7.7500840414
 30
0.0
 10
11.0364315222
 20
7.7492182508
 30
0.0
 10
11.0345589659
 20
7.7483524562
 30
0.0
 10
11.0320622236
 20
7.7471980647
 30
0.0
 10
11.0289412959
 20
7.7457550749
 30
0.0
 10
11.025820368
 20
7.7443120854
 30
0.0
 10
11.0233236259
 20
7.7431576934
 30
0.0
 10
11.0214510688
 20
7.7422919004
 30
0.0
 10
11.0195785138
 20
7.7414261035
 30
0.0
 10
11.0180180448
 20
7.7407046185
 30
0.0
 10
11.0167696841
 20
7.7401274027
 30
0.0
 10
11.0159894256
 20
7.739766706
 30
0.0
 10
11.0153652946
 20
7.7394780039
 30
0.0
 10
11.0148969887
 20
7.7392618736
 30
0.0
 10
11.0145073946
 20
7.7390805046
 30
0.0
 10
11.0142333817
 20
7.7389560197
 30
0.0
 10
11.0140788281
 20
7.7388810236
 30
0.0
 10
11.013957208
 20
7.7388356554
 30
0.0
 10
11.0138573951
 20
7.7387487025
 30
0.0
 10
11.0137167046
 20
7.7386472706
 30
0.0
 10
11.0134740404
 20
7.7384630064
 30
0.0
 10
11.0131255243
 20
7.7382033052
 30
0.0
 10
11.0127080981
 20
7.7378901513
 30
0.0
 10
11.0121512528
 20
7.7374731411
 30
0.0
 10
11.011455291
 20
7.7369516974
 30
0.0
 10
11.0103416991
 20
7.7361174887
 30
0.0
 10
11.0089497275
 20
7.735074693
 30
0.0
 10
11.0072793537
 20
7.7338233531
 30
0.0
 10
11.005608982
 20
7.7325720093
 30
0.0
 10
11.0033818191
 20
7.7309035522
 30
0.0
 10
11.0005978657
 20
7.7288179803
 30
0.0
 10
10.997813912
 20
7.7267324087
 30
0.0
 10
10.9955867494
 20
7.7250639511
 30
0.0
 10
10.9939163766
 20
7.7238126087
 30
0.0
 10
10.9922460071
 20
7.7225612633
 30
0.0
 10
10.9908540221
 20
7.7215184849
 30
0.0
 10
10.9897404575
 20
7.720684241
 30
0.0
 10
10.9890444265
 20
7.7201628867
 30
0.0
 10
10.9884877233
 20
7.719745693
 30
0.0
 10
10.9880698628
 20
7.7194330999
 30
0.0
 10
10.9877227055
 20
7.7191716442
 30
0.0
 10
10.9874776155
 20
7.718990512
 30
0.0
 10
10.9873408118
 20
7.7188840618
 30
0.0
 10
10.9872290601
 20
7.7188125232
 30
0.0
 10
10.9871522799
 20
7.7187092617
 30
0.0
 10
10.9870377079
 20
7.7185826449
 30
0.0
 10
10.9868428902
 20
7.7183559101
 30
0.0
 10
10.986561608
 20
7.7180346985
 30
0.0
 10
10.9862253411
 20
7.717648091
 30
0.0
 10
10.9857765411
 20
7.7171330172
 30
0.0
 10
10.9852156931
 20
7.716489037
 30
0.0
 10
10.9843182513
 20
7.7154587457
 30
0.0
 10
10.9831964783
 20
7.7141708552
 30
0.0
 10
10.9818503382
 20
7.712625398
 30
0.0
 10
10.9805042014
 20
7.7110799377
 30
0.0
 10
10.9787093512
 20
7.7090193251
 30
0.0
 10
10.9764657889
 20
7.7064435589
 30
0.0
 10
10.9742222262
 20
7.7038677929
 30
0.0
 10
10.9724273765
 20
7.7018071799
 30
0.0
 10
10.9710812383
 20
7.7002617208
 30
0.0
 10
10.9697351036
 20
7.6987162591
 30
0.0
 10
10.9686133136
 20
7.6974283825
 30
0.0
 10
10.9677159064
 20
7.6963980629
 30
0.0
 10
10.9671549706
 20
7.6957541548
 30
0.0
 10
10.966706351
 20
7.695238933
 30
0.0
 10
10.9663695328
 20
7.6948527777
 30
0.0
 10
10.9660899754
 20
7.694530151
 30
0.0
 10
10.9658920787
 20
7.6943059424
 30
0.0
 10
10.9657824401
 20
7.694175278
 30
0.0
 10
10.9656905059
 20
7.6940844497
 30
0.0
 10
10.9656356698
 20
7.6939662138
 30
0.0
 10
10.9655496148
 20
7.6938181259
 30
0.0
 10
10.9654050475
 20
7.693554518
 30
0.0
 10
10.9651953709
 20
7.6931802639
 30
0.0
 10
10.964945108
 20
7.6927301623
 30
0.0
 10
10.964610953
 20
7.692130375
 30
0.0
 10
10.9641934206
 20
7.6913805216
 30
0.0
 10
10.9635252785
 20
7.6901808228
 30
0.0
 10
10.9626901319
 20
7.6886811764
 30
0.0
 10
10.9616879427
 20
7.6868816106
 30
0.0
 10
10.960685757
 20
7.6850820421
 30
0.0
 10
10.9593495082
 20
7.6826826185
 30
0.0
 10
10.9576791977
 20
7.6796833385
 30
0.0
 10
10.9560088868
 20
7.6766840588
 30
0.0
 10
10.9546726385
 20
7.6742846348
 30
0.0
 10
10.9536704513
 20
7.6724850673
 30
0.0
 10
10.952668268
 20
7.6706854978
 30
0.0
 10
10.951833103
 20
7.6691858626
 30
0.0
 10
10.9511649984
 20
7.6679861411
 30
0.0
 10
10.9507473705
 20
7.6672363456
 30
0.0
 10
10.9504134115
 20
7.6666364395
 30
0.0
 10
10.9501625497
 20
7.6661867006
 30
0.0
 10
10.9499547472
 20
7.6658113116
 30
0.0
 10
10.9498068342
 20
7.6655497297
 30
0.0
 10
10.94972614
 20
7.6653983957
 30
0.0
 10
10.9496548371
 20
7.6652901311
 30
0.0
 10
10.9496247494
 20
7.665161852
 30
0.0
 10
10.9495702562
 20
7.6649977944
 30
0.0
 10
10.9494815913
 20
7.664707441
 30
0.0
 10
10.9493514253
 20
7.6642943511
 30
0.0
 10
10.9491967249
 20
7.6637979152
 30
0.0
 10
10.9489899343
 20
7.6631362549
 30
0.0
 10
10.9487316252
 20
7.6623090925
 30
0.0
 10
10.9483182306
 20
7.6609856813
 30
0.0
 10
10.9478015216
 20
7.6593314006
 30
0.0
 10
10.9471814561
 20
7.6573462709
 30
0.0
 10
10.9465613946
 20
7.6553611393
 30
0.0
 10
10.9457346445
 20
7.6527142979
 30
0.0
 10
10.9447012073
 20
7.6494057459
 30
0.0
 10
10.9436677699
 20
7.646097194
 30
0.0
 10
10.9428410203
 20
7.6434503523
 30
0.0
 10
10.9422209571
 20
7.6414652214
 30
0.0
 10
10.941600898
 20
7.639480089
 30
0.0
 10
10.9410841691
 20
7.6378258168
 30
0.0
 10
10.9406708151
 20
7.6365023884
 30
0.0
 10
10.9404124024
 20
7.6356752698
 30
0.0
 10
10.9402058245
 20
7.6350135195
 30
0.0
 10
10.9400504742
 20
7.6345173587
 30
0.0
 10
10.9399223417
 20
7.634103408
 30
0.0
 10
10.9398300466
 20
7.6338145911
 30
0.0
 10
10.9397813699
 20
7.6336480717
 30
0.0
 10
10.9397334157
 20
7.6335273548
 30
0.0
 10
10.9397292169
 20
7.6333906879
 30
0.0
 10
10.9397083561
 20
7.633214029
 30
0.0
 10
10.9396789608
 20
7.6329022836
 30
0.0
 10
10.9396332497
 20
7.6324582884
 30
0.0
 10
10.9395799878
 20
7.631924914
 30
0.0
 10
10.9395084161
 20
7.6312139507
 30
0.0
 10
10.9394191417
 20
7.6303251773
 30
0.0
 10
10.9392761964
 20
7.6289031786
 30
0.0
 10
10.9390975512
 20
7.6271256669
 30
0.0
 10
10.9388831613
 20
7.6249926586
 30
0.0
 10
10.9386687756
 20
7.6228596487
 30
0.0
 10
10.9383829266
 20
7.6200156361
 30
0.0
 10
10.9380256158
 20
7.6164606202
 30
0.0
 10
10.9375968426
 20
7.6121946012
 30
0.0
 10
10.9370251452
 20
7.6065065757
 30
0.0
 10
10.936596372
 20
7.6022405567
 30
0.0
 10
10.9363105233
 20
7.599396544
 30
0.0
  0
ENDSEC
  0
SECTION
  2
OBJECTS
  0
DICTIONARY
  5
C
100
AcDbDictionary
280
0
281
1
  3
ACAD_GROUP
350
D
  3
ACAD_MLINESTYLE
350
17
  3
ACAD_LAYOUT
350
1A
  3
ACAD_PLOTSETTINGS
350
19
  3
ACAD_PLOTSTYLENAME
350
E
  3
ACAD_IMAGE_DICT
350
       3CA
  3
ACAD_IMAGE_VARS
350
       3CB
  3
ACAD_TABLESTYLE
350
       3CC
  0
IMAGEDEF_REACTOR
  5
3C9
100
AcDbRasterImageDefReactor
 90
2
330
292
  0
DICTIONARY
  5
D
102
{ACAD_REACTORS
330
C
102
}
100
AcDbDictionary
280
0
281
1
  0
ACDBDICTIONARYWDFLT
  5
E
102
{ACAD_REACTORS
330
C
102
}
100
AcDbDictionary
281
1
  3
Normal
350
F
100
AcDbDictionaryWithDefault
340
F
  0
DICTIONARY
  5
3CA
330
C
100
AcDbDictionary
281
1
  3
E5U_assy_2_img_1
350
       3CF
  0
RASTERVARIABLES
  5
3CB
330
C
100
AcDbRasterVariables
 90
0
 70
0
 71
1
 72
5
  0
DICTIONARY
  5
17
102
{ACAD_REACTORS
330
C
102
}
100
AcDbDictionary
280
0
281
1
  3
Standard
350
18
  0
DICTIONARY
  5
3CC
330
C
100
AcDbDictionary
281
1
  3
Standard
350
       3D0
  3
Standard1
350
       3D1
  0
DICTIONARY
  5
19
102
{ACAD_REACTORS
330
C
102
}
100
AcDbDictionary
281
1
  0
DICTIONARY
  5
1A
102
{ACAD_REACTORS
330
C
102
}
100
AcDbDictionary
281
1
  3
Model
350
3CD
  3
Layout1
350
3CE
  0
ACDBPLACEHOLDER
  5
F
102
{ACAD_REACTORS
330
E
102
}
  0
MLINESTYLE
  5
18
102
{ACAD_REACTORS
330
17
102
}
100
AcDbMlineStyle
  2
STANDARD
 70
0
  3

 62
256
 51
90.0
 52
90.0
 71
2
 49
0.5
 62
256
  6
BYLAYER
 49
-0.5
 62
256
  6
BYLAYER
  0
LAYOUT
  5
3CD
102
{ACAD_REACTORS
330
1A
102
}
100
AcDbPlotSettings
  1

  2
none_device
  4
ANSI_C_(22.00_x_17.00_Inches)
  6

 40
0.0
 41
0.0
 42
0.0
 43
0.0
 44
558.8
 45
431.8
 46
0.0
 47
0.0
 48
0.0
 49
0.0
140
0.0
141
0.0
142
1.0
143
1.0
 70
1024
 72
0
 73
0
 74
0
  7

 75
0
147
1.0
148
0.0
149
0.0
100
AcDbLayout
  1
Model
 70
0
 71
0
 10
0.0
 20
0.0
 11
22.0
 21
17.0
 12
0.0
 22
0.0
 32
0.0
 14
0.0
 24
0.0
 34
0.0
 15
0.0
 25
0.0
 35
0.0
146
0.0
 13
0.0
 23
0.0
 33
0.0
 16
1.0
 26
0.0
 36
0.0
 17
0.0
 27
1.0
 37
0.0
 76
0
330
20C
345
0
346
0
  0
LAYOUT
  5
3CE
102
{ACAD_REACTORS
330
1A
102
}
100
AcDbPlotSettings
  1

  2
none_device
  4
ANSI_C_(22.00_x_17.00_Inches)
  6

 40
0.0
 41
0.0
 42
0.0
 43
0.0
 44
558.8
 45
431.8
 46
0.0
 47
0.0
 48
0.0
 49
0.0
140
0.0
141
0.0
142
1.0
143
1.0
 70
0
 72
0
 73
0
 74
0
  7

 75
0
147
1.0
148
0.0
149
0.0
100
AcDbLayout
  1
Layout1
 70
0
 71
1
 10
0.0
 20
0.0
 11
22.0
 21
17.0
 12
0.0
 22
0.0
 32
0.0
 14
0.0
 24
0.0
 34
0.0
 15
0.0
 25
0.0
 35
0.0
146
0.0
 13
0.0
 23
0.0
 33
0.0
 16
1.0
 26
0.0
 36
0.0
 17
0.0
 27
1.0
 37
0.0
 76
0
330
20D
345
0
346
0
  0
IMAGEDEF
  5
3CF
102
{ACAD_REACTORS
330
3CA
330
3C9
102
}
100
AcDbRasterImageDef
 90
0
  1
E5U_assy_2_img_1.png
 10
369.0
 20
92.0
 11
0.0066666667
 21
0.0066666667
280
1
281
0
  0
TABLESTYLE
  5
3D0
102
{ACAD_REACTORS
330
3CC
330
295
330
296
102
}
330
3CC
100
AcDbTableStyle
  3
Standard
 70
0
 71
0
 40
0.06
 41
0.06
280
1
281
1
  7
Standard
140
0.18
170
1
 62
0
 63
7
283
0
  7
Standard
140
0.18
170
1
 62
0
 63
7
283
0
  7
Standard
140
0.18
170
1
 62
0
 63
7
283
0
  0
TABLESTYLE
  5
3D1
102
{ACAD_REACTORS
330
3CC
330
294
102
}
330
3CC
100
AcDbTableStyle
  3
Standard1
 70
1
 71
0
 40
0.06
 41
0.06
280
1
281
1
  7
Standard
140
0.18
170
1
 62
0
 63
7
283
0
  7
Standard
140
0.18
170
1
 62
0
 63
7
283
0
  7
Standard
140
0.18
170
1
 62
0
 63
7
283
0
  0
ENDSEC
  0
EOF
