999
DXF file: E4I_assy_2.dxf
999
Pro/ENGINEER 2014200 by Parametric Technology Corporation
  0
SECTION
  2
HEADER
  9
$ACADVER
  1
AC1021
  9
$DWGCODEPAGE
  3
ANSI_1252
  9
$EXTMAX
 10
22.0
 20
17.0
 30
0.0
  9
$EXTMIN
 10
0.0
 20
0.0
 30
0.0
  9
$LIMMIN
 10
0.0
 20
0.0
  9
$LIMMAX
 10
22.0
 20
17.0
  9
$VIEWCTR
 10
11.0
 20
8.5
  9
$VIEWSIZE
 40
17.0
  9
$CLAYER
  8
0
  9
$LTSCALE
 40
1.21
  9
$CELTYPE
  6
BYLAYER
  9
$DIMSCALE
 40
1.0
  9
$DIMASZ
 40
0.1875
  9
$DIMEXO
 40
0.0625
  9
$DIMDLI
 40
0.836
  9
$DIMEXE
 40
0.125
  9
$DIMCEN
 40
0.198
  9
$DIMLFAC
 40
1.0
  9
$DIMBLK
  1
_FILLED
  9
$DIMTXT
 40
0.1
  9
$DIMTOL
 70
0
  9
$DIMLIM
 70
0
  9
$DIMTFAC
 40
1.0
  9
$DIMGAP
 40
0.09
  9
$DIMDSEP
 70
46
  9
$AUNITS
 70
0
  9
$PDMODE
 70
3
  9
$PDSIZE
 40
0.3125
  9
$HANDSEED
  5
374
  9
$TILEMODE
 70
1
  9
$MEASUREMENT
 70
0
  9
$INSUNITS
 70
1
  0
ENDSEC
  0
SECTION
  2
CLASSES
  0
CLASS
  1
ACDBDICTIONARYWDFLT
  2
AcDbDictionaryWithDefault
  3
AutoCAD 2000
 90
0
 91
1
280
0
281
0
  0
CLASS
  1
ACDBPLACEHOLDER
  2
AcDbPlaceHolder
  3
AutoCAD 2000
 90
0
 91
1
280
0
281
0
  0
CLASS
  1
LAYOUT
  2
AcDbLayout
  3
AutoCAD 2000
 90
0
 91
0
280
0
281
0
  0
CLASS
  1
RASTERVARIABLES
  2
AcDbRasterVariables
  3
ISM
 90
0
 91
1
280
0
281
0
  0
CLASS
  1
IMAGEDEF
  2
AcDbRasterImageDef
  3
ISM
 90
0
 91
1
280
0
281
0
  0
CLASS
  1
IMAGEDEF_REACTOR
  2
AcDbRasterImageDefReactor
  3
ISM
 90
0
 91
1
280
0
281
0
  0
CLASS
  1
IMAGE
  2
AcDbRasterImage
  3
ISM
 90
127
 91
1
280
0
281
1
  0
CLASS
  1
TABLESTYLE
  2
AcDbTableStyle
  3
ObjectDBX Classes
 90
2047
 91
1
280
0
281
0
  0
CLASS
  1
ACAD_TABLE
  2
AcDbTable
  3
ObjectDBX Classes
 90
1025
 91
3
280
0
281
1
  0
ENDSEC
  0
SECTION
  2
TABLES
  0
TABLE
  2
VPORT
  5
8
100
AcDbSymbolTable
 70
2
  0
VPORT
  5
1F4
100
AcDbSymbolTableRecord
100
AcDbViewportTableRecord
  2
*ACTIVE
 70
0
 10
0.0
 20
0.0
 11
1.0
 21
1.0
 12
11.0
 22
8.5
 13
0.0
 23
0.0
 14
1.0
 24
1.0
 15
0.0
 25
0.0
 16
0.0
 26
0.0
 36
1.0
 17
0.0
 27
0.0
 37
0.0
 40
17.0
 41
1.2941176471
 42
50.0
 43
0.0
 44
0.0
 50
0.0
 51
0.0
 71
0
 72
100
 73
1
 74
1
 75
0
 76
0
 77
0
 78
0
  0
ENDTAB
  0
TABLE
  2
LTYPE
  5
5
100
AcDbSymbolTable
 70
6
  0
LTYPE
  5
14
100
AcDbSymbolTableRecord
100
AcDbLinetypeTableRecord
  2
BYBLOCK
 70
0
  3

 72
65
 73
0
 40
0.0
  0
LTYPE
  5
15
100
AcDbSymbolTableRecord
100
AcDbLinetypeTableRecord
  2
BYLAYER
 70
0
  3

 72
65
 73
0
 40
0.0
  0
LTYPE
  5
16
100
AcDbSymbolTableRecord
100
AcDbLinetypeTableRecord
  2
CONTINUOUS
 70
64
  3
Solid line
 72
65
 73
0
 40
0.0
  0
LTYPE
  5
1F5
100
AcDbSymbolTableRecord
100
AcDbLinetypeTableRecord
  2
CENTER
 70
64
  3
____ _ ____ _ ____ _ ____ _ ____ _ ____ _ ____
 72
65
 73
4
 40
0.6
 49
0.375
 74
0
 49
-0.075
 74
0
 49
0.075
 74
0
 49
-0.075
 74
0
  0
LTYPE
  5
1F6
100
AcDbSymbolTableRecord
100
AcDbLinetypeTableRecord
  2
HIDDEN
 70
64
  3
- - - - - - - - - - - - - - - - - - - -
 72
65
 73
2
 40
0.2
 49
0.1
 74
0
 49
-0.1
 74
0
  0
LTYPE
  5
1F7
100
AcDbSymbolTableRecord
100
AcDbLinetypeTableRecord
  2
PHANTOM
 70
64
  3
_____ _ _ _____ _ _ _____ _ _ _____
 72
65
 73
6
 40
0.8
 49
0.45
 74
0
 49
-0.05
 74
0
 49
0.1
 74
0
 49
-0.05
 74
0
 49
0.1
 74
0
 49
-0.05
 74
0
  0
LTYPE
  5
1F8
100
AcDbSymbolTableRecord
100
AcDbLinetypeTableRecord
  2
DOT
 70
64
  3
. . . . . . . . . . . . . . . . . . . .
 72
65
 73
2
 40
0.2
 49
0.1
 74
0
 49
-0.1
 74
0
  0
LTYPE
  5
1F9
100
AcDbSymbolTableRecord
100
AcDbLinetypeTableRecord
  2
DASHED
 70
64
  3
- - - - - - - - - - - - - - - - - - - -
 72
65
 73
2
 40
0.2
 49
0.1
 74
0
 49
-0.1
 74
0
  0
ENDTAB
  0
TABLE
  2
LAYER
  5
2
100
AcDbSymbolTable
 70
36
  0
LAYER
  5
10
100
AcDbSymbolTableRecord
100
AcDbLayerTableRecord
  2
0
 70
0
 62
7
  6
CONTINUOUS
370
-3
390
F
  0
LAYER
  5
1FA
100
AcDbSymbolTableRecord
100
AcDbLayerTableRecord
  2
DEFAULT_1
 70
0
 62
7
  6
CENTER
370
-3
390
F
  0
LAYER
  5
1FB
100
AcDbSymbolTableRecord
100
AcDbLayerTableRecord
  2
DEFAULT_2
 70
0
 62
8
  6
HIDDEN
370
-3
390
F
  0
LAYER
  5
1FC
100
AcDbSymbolTableRecord
100
AcDbLayerTableRecord
  2
DEFAULT_3
 70
0
 62
7
  6
PHANTOM
370
-3
390
F
  0
LAYER
  5
1FD
100
AcDbSymbolTableRecord
100
AcDbLayerTableRecord
  2
01___PRT_ALL_DTM_PLN
 70
0
 62
7
  6
CONTINUOUS
370
-3
390
F
  0
LAYER
  5
1FE
100
AcDbSymbolTableRecord
100
AcDbLayerTableRecord
  2
01___PRT_DEF_DTM_PLN
 70
0
 62
7
  6
CONTINUOUS
370
-3
390
F
  0
LAYER
  5
1FF
100
AcDbSymbolTableRecord
100
AcDbLayerTableRecord
  2
02___PRT_ALL_AXES
 70
0
 62
7
  6
CONTINUOUS
370
-3
390
F
  0
LAYER
  5
200
100
AcDbSymbolTableRecord
100
AcDbLayerTableRecord
  2
03___PRT_ALL_CURVES
 70
0
 62
7
  6
CONTINUOUS
370
-3
390
F
  0
LAYER
  5
201
100
AcDbSymbolTableRecord
100
AcDbLayerTableRecord
  2
04___PRT_ALL_DTM_PNT
 70
0
 62
7
  6
CONTINUOUS
370
-3
390
F
  0
LAYER
  5
202
100
AcDbSymbolTableRecord
100
AcDbLayerTableRecord
  2
05___PRT_ALL_DTM_CSYS
 70
0
 62
7
  6
CONTINUOUS
370
-3
390
F
  0
LAYER
  5
203
100
AcDbSymbolTableRecord
100
AcDbLayerTableRecord
  2
05___PRT_DEF_DTM_CSYS
 70
0
 62
7
  6
CONTINUOUS
370
-3
390
F
  0
LAYER
  5
204
100
AcDbSymbolTableRecord
100
AcDbLayerTableRecord
  2
06___PRT_ALL_SURFS
 70
0
 62
7
  6
CONTINUOUS
370
-3
390
F
  0
LAYER
  5
205
100
AcDbSymbolTableRecord
100
AcDbLayerTableRecord
  2
DATUM_PLANES
 70
0
 62
7
  6
CONTINUOUS
370
-3
390
F
  0
LAYER
  5
206
100
AcDbSymbolTableRecord
100
AcDbLayerTableRecord
  2
PORT_AREAS
 70
0
 62
7
  6
CONTINUOUS
370
-3
390
F
  0
LAYER
  5
207
100
AcDbSymbolTableRecord
100
AcDbLayerTableRecord
  2
SUNNBOMCOSMETIC
 70
0
 62
7
  6
CONTINUOUS
370
-3
390
F
  0
LAYER
  5
208
100
AcDbSymbolTableRecord
100
AcDbLayerTableRecord
  2
SUNNBOMSTAMPING
 70
0
 62
7
  6
CONTINUOUS
370
-3
390
F
  0
LAYER
  5
209
100
AcDbSymbolTableRecord
100
AcDbLayerTableRecord
  2
THREADS
 70
0
 62
7
  6
CONTINUOUS
370
-3
390
F
  0
ENDTAB
  0
TABLE
  2
STYLE
  5
3
100
AcDbSymbolTable
 70
1
  0
STYLE
  5
11
100
AcDbSymbolTableRecord
100
AcDbTextStyleTableRecord
  2
STANDARD
 70
0
 40
0.0
 41
0.8
 50
0.0
 71
0
 42
0.2
  3
txt
  4

  0
STYLE
  5
20A
100
AcDbSymbolTableRecord
100
AcDbTextStyleTableRecord
  2
TEXTSTYLE_1
 70
0
 40
0.0
 41
0.8
 50
0.0
 71
0
 42
0.2
  3
gdt
  4

  0
ENDTAB
  0
TABLE
  2
VIEW
  5
6
100
AcDbSymbolTable
 70
0
  0
ENDTAB
  0
TABLE
  2
UCS
  5
7
100
AcDbSymbolTable
 70
0
  0
ENDTAB
  0
TABLE
  2
APPID
  5
9
100
AcDbSymbolTable
 70
1
  0
APPID
  5
20B
100
AcDbSymbolTableRecord
100
AcDbRegAppTableRecord
  2
ACAD
 70
0
  0
ENDTAB
  0
TABLE
  2
BLOCK_RECORD
  5
1
100
AcDbSymbolTable
 70
0
  0
BLOCK_RECORD
  5
20C
100
AcDbSymbolTableRecord
100
AcDbBlockTableRecord
  2
*Model_Space
  0
BLOCK_RECORD
  5
20D
100
AcDbSymbolTableRecord
100
AcDbBlockTableRecord
  2
*Paper_Space
  0
BLOCK_RECORD
  5
20E
100
AcDbSymbolTableRecord
100
AcDbBlockTableRecord
  2
SUN_FIRST_THIRD_ANGLE_BL0
  0
BLOCK_RECORD
  5
20F
100
AcDbSymbolTableRecord
100
AcDbBlockTableRecord
  2
*T1
  0
BLOCK_RECORD
  5
210
100
AcDbSymbolTableRecord
100
AcDbBlockTableRecord
  2
*T2
  0
BLOCK_RECORD
  5
211
100
AcDbSymbolTableRecord
100
AcDbBlockTableRecord
  2
*T3
  0
ENDTAB
  0
TABLE
  2
DIMSTYLE
  5
A
100
AcDbSymbolTable
 70
1
100
AcDbDimStyleTable
 71
0
  0
DIMSTYLE
105
212
100
AcDbSymbolTableRecord
100
AcDbDimStyleTableRecord
  2
STANDARD
 70
0
  3

  4

 40
1.0
 41
0.1875
 42
0.0625
 43
0.38
 44
0.125
 45
0.0
 46
0.0
 47
0.001
 48
0.001
140
0.1
141
0.09
142
0.0
143
25.4
144
1.0
145
0.0
146
1.0
147
0.09
 71
0.0
 72
0.0
 73
1
 74
1
 75
0
 76
0
 77
0
 78
4
170
0
171
2
172
0
173
0
174
0
175
0
176
0
177
0
178
0
270
2
271
3
272
3
273
2
274
2
275
0
280
0
281
0
282
0
283
1
284
4
285
0
286
0
287
3
288
0
340
11
278
46
  0
ENDTAB
  0
ENDSEC
  0
SECTION
  2
BLOCKS
  0
BLOCK
  5
20
100
AcDbEntity
  8
0
100
AcDbBlockBegin
  2
*Model_Space
 70
0
 10
0.0
 20
0.0
 30
0.0
  3
*Model_Space
  1

  0
ENDBLK
  5
21
100
AcDbEntity
  8
0
100
AcDbBlockEnd
  0
BLOCK
  5
1C
100
AcDbEntity
  8
0
100
AcDbBlockBegin
  2
*Paper_Space
 70
0
 10
0.0
 20
0.0
 30
0.0
  3
*Paper_Space
  1

  0
ENDBLK
  5
1D
100
AcDbEntity
  8
0
100
AcDbBlockEnd
  0
BLOCK
  5
213
100
AcDbEntity
  8
0
100
AcDbBlockBegin
 62
2
  6
CONTINUOUS
  2
SUN_FIRST_THIRD_ANGLE_BL0
 70
64
 10
20.4816717061
 20
1.2289683772
  3
SUN_FIRST_THIRD_ANGLE_BL0
  1

  0
TEXT
  5
214
100
AcDbEntity
  8
0
100
AcDbText
 62
2
  6
CONTINUOUS
 10
19.4750896608
 20
1.4136269581
  7
STANDARD
 40
0.08
  1
FIRST ANGLE
 41
0.8
 72
0
100
AcDbText
  0
TEXT
  5
215
100
AcDbEntity
  8
0
100
AcDbText
 62
2
  6
CONTINUOUS
 10
20.7842537513
 20
1.4047600029
  7
STANDARD
 40
0.08
  1
THIRD ANGLE
 41
0.8
 72
0
100
AcDbText
  0
LINE
  5
216
100
AcDbEntity
  8
0
100
AcDbLine
 62
7
  6
CONTINUOUS
 10
19.4767170086
 20
1.1727031207
 11
19.6334271527
 21
1.1717972817
  0
LINE
  5
217
100
AcDbEntity
  8
0
100
AcDbLine
 62
7
  6
CONTINUOUS
 10
19.6596964832
 20
1.1717972817
 11
19.6950230232
 21
1.171593082
  0
LINE
  5
218
100
AcDbEntity
  8
0
100
AcDbLine
 62
7
  6
CONTINUOUS
 10
19.7194818561
 20
1.1708914427
 11
19.8852396156
 21
1.1699333054
  0
LINE
  5
219
100
AcDbEntity
  8
0
100
AcDbLine
 62
7
  6
CONTINUOUS
 10
19.4758111696
 20
1.2723454088
 11
19.88525039
 21
1.3511534004
  0
LINE
  5
21A
100
AcDbEntity
  8
0
100
AcDbLine
 62
7
  6
CONTINUOUS
 10
19.88525039
 20
1.3511534004
 11
19.8831348489
 21
0.9851647912
  0
LINE
  5
21B
100
AcDbEntity
  8
0
100
AcDbLine
 62
7
  6
CONTINUOUS
 10
19.8831348489
 20
0.9851647912
 11
19.4767170086
 21
1.0658141206
  0
LINE
  5
21C
100
AcDbEntity
  8
0
100
AcDbLine
 62
7
  6
CONTINUOUS
 10
19.4767170086
 20
1.0658141206
 11
19.4779056764
 21
1.2714536432
  0
CIRCLE
  5
21D
100
AcDbEntity
  8
0
100
AcDbCircle
 62
7
  6
CONTINUOUS
 10
20.2068232291
 20
1.1717972817
 40
0.175742101
  0
CIRCLE
  5
21E
100
AcDbEntity
  8
0
100
AcDbCircle
 62
7
  6
CONTINUOUS
 10
20.2068232291
 20
1.1717972817
 40
0.1005522074
  0
LINE
  5
21F
100
AcDbEntity
  8
0
100
AcDbLine
 62
7
  6
CONTINUOUS
 10
20.2077290681
 20
1.3756110529
 11
20.2071171714
 21
1.2379342989
  0
LINE
  5
220
100
AcDbEntity
  8
0
100
AcDbLine
 62
7
  6
CONTINUOUS
 10
20.2077290681
 20
1.2016899681
 11
20.2074674401
 21
1.1428236749
  0
LINE
  5
221
100
AcDbEntity
  8
0
100
AcDbLine
 62
7
  6
CONTINUOUS
 10
20.208634907
 20
1.101141841
 11
20.2080230104
 21
0.963465087
  0
LINE
  5
222
100
AcDbEntity
  8
0
100
AcDbLine
 62
7
  6
CONTINUOUS
 10
20.0066328138
 20
1.1745147986
 11
20.1443095678
 21
1.1739029019
  0
LINE
  5
223
100
AcDbEntity
  8
0
100
AcDbLine
 62
7
  6
CONTINUOUS
 10
20.1832714155
 20
1.1727031207
 11
20.238153505
 21
1.172335442
  0
LINE
  5
224
100
AcDbEntity
  8
0
100
AcDbLine
 62
7
  6
CONTINUOUS
 10
20.2756669918
 20
1.1717972817
 11
20.407916871
 21
1.1712095044
  0
CIRCLE
  5
225
100
AcDbEntity
  8
0
100
AcDbCircle
 62
7
  6
CONTINUOUS
 10
20.7509457401
 20
1.1693297793
 40
0.1722024983
  0
CIRCLE
  5
226
100
AcDbEntity
  8
0
100
AcDbCircle
 62
7
  6
CONTINUOUS
 10
20.7509457401
 20
1.1693297793
 40
0.0985164967
  0
LINE
  5
227
100
AcDbEntity
  8
0
100
AcDbLine
 62
7
  6
CONTINUOUS
 10
20.7169767782
 20
1.170462078
 11
20.7825395137
 21
1.1682766535
  0
LINE
  5
228
100
AcDbEntity
  8
0
100
AcDbLine
 62
7
  6
CONTINUOUS
 10
20.8177513651
 20
1.1693297793
 11
20.947965719
 21
1.1693297793
  0
LINE
  5
229
100
AcDbEntity
  8
0
100
AcDbLine
 62
7
  6
CONTINUOUS
 10
20.6875370113
 20
1.170462078
 11
20.5573226574
 21
1.170462078
  0
LINE
  5
22A
100
AcDbEntity
  8
0
100
AcDbLine
 62
7
  6
CONTINUOUS
 10
20.7486811426
 20
1.1987695462
 11
20.7486811426
 21
1.1432869085
  0
LINE
  5
22B
100
AcDbEntity
  8
0
100
AcDbLine
 62
7
  6
CONTINUOUS
 10
20.7498134414
 20
1.1059210505
 11
20.7498134414
 21
0.9757066966
  0
LINE
  5
22C
100
AcDbEntity
  8
0
100
AcDbLine
 62
7
  6
CONTINUOUS
 10
20.7486811426
 20
1.2338708068
 11
20.7486811426
 21
1.3640851607
  0
LINE
  5
22D
100
AcDbEntity
  8
0
100
AcDbLine
 62
7
  6
CONTINUOUS
 10
21.0702539817
 20
1.2701043662
 11
21.4790138229
 21
1.3448360823
  0
LINE
  5
22E
100
AcDbEntity
  8
0
100
AcDbLine
 62
7
  6
CONTINUOUS
 10
21.4790138229
 20
1.3448360823
 11
21.4790138229
 21
0.9779712941
  0
LINE
  5
22F
100
AcDbEntity
  8
0
100
AcDbLine
 62
7
  6
CONTINUOUS
 10
21.4790138229
 20
0.9779712941
 11
21.069121683
 21
1.0617614
  0
LINE
  5
230
100
AcDbEntity
  8
0
100
AcDbLine
 62
7
  6
CONTINUOUS
 10
21.0702539817
 20
1.2701043662
 11
21.069121683
 21
1.0617614
  0
LINE
  5
231
100
AcDbEntity
  8
0
100
AcDbLine
 62
7
  6
CONTINUOUS
 10
21.4790138229
 20
1.1693297793
 11
21.3159628059
 21
1.1693297793
  0
LINE
  5
232
100
AcDbEntity
  8
0
100
AcDbLine
 62
7
  6
CONTINUOUS
 10
21.2876553377
 20
1.1693297793
 11
21.2502894796
 21
1.1693297793
  0
LINE
  5
233
100
AcDbEntity
  8
0
100
AcDbLine
 62
7
  6
CONTINUOUS
 10
21.2208497126
 20
1.1659328831
 11
21.0713862804
 21
1.1659328831
  0
LINE
  5
234
100
AcDbEntity
  8
0
100
AcDbLine
 62
7
  6
CONTINUOUS
 10
20.4796138713
 20
1.5284908897
 11
20.4766766948
 21
0.9294458646
  0
ENDBLK
  5
235
100
AcDbEntity
  8
0
  6
BYBLOCK
 62
0
100
AcDbBlockEnd
  0
BLOCK
  5
236
100
AcDbEntity
  8
0
100
AcDbBlockBegin
  2
*T1
 70
1
 10
0.0
 20
0.0
  3
*T1
  1

  0
LINE
  5
237
100
AcDbEntity
  8
0
100
AcDbLine
 62
2
  6
CONTINUOUS
 10
9.275
 20
0.0
 11
-0.0
 21
0.0
  0
LINE
  5
238
100
AcDbEntity
  8
0
100
AcDbLine
 62
2
  6
CONTINUOUS
 10
9.275
 20
0.0
 11
9.275
 21
1.25
  0
LINE
  5
239
100
AcDbEntity
  8
0
100
AcDbLine
 62
2
  6
CONTINUOUS
 10
9.275
 20
0.625
 11
-0.0
 21
0.625
  0
LINE
  5
23A
100
AcDbEntity
  8
0
100
AcDbLine
 62
2
  6
CONTINUOUS
 10
9.275
 20
1.25
 11
-0.0
 21
1.25
  0
LINE
  5
23B
100
AcDbEntity
  8
0
100
AcDbLine
 62
2
  6
CONTINUOUS
 10
6.8
 20
0.0
 11
6.8
 21
1.25
  0
LINE
  5
23C
100
AcDbEntity
  8
0
100
AcDbLine
 62
2
  6
CONTINUOUS
 10
6.4
 20
0.0
 11
6.4
 21
0.625
  0
LINE
  5
23D
100
AcDbEntity
  8
0
100
AcDbLine
 62
2
  6
CONTINUOUS
 10
5.9
 20
0.0
 11
5.9
 21
0.625
  0
LINE
  5
23E
100
AcDbEntity
  8
0
100
AcDbLine
 62
2
  6
CONTINUOUS
 10
5.2
 20
0.0
 11
5.2
 21
0.625
  0
LINE
  5
23F
100
AcDbEntity
  8
0
100
AcDbLine
 62
2
  6
CONTINUOUS
 10
4.1
 20
0.0
 11
4.1
 21
1.25
  0
LINE
  5
240
100
AcDbEntity
  8
0
100
AcDbLine
 62
2
  6
CONTINUOUS
 10
-0.0
 20
0.0
 11
-0.0
 21
1.25
  0
MTEXT
  5
241
100
AcDbEntity
  8
0
100
AcDbMText
 62
2
  6
CONTINUOUS
  7
STANDARD
 71
2
 72
1
 10
6.6
 20
0.325
 30
0.0
 11
1.0
 21
0.0
 31
0.0
 44
0.9
  1
2
 40
0.125
 41
0.2
  0
MTEXT
  5
242
100
AcDbEntity
  8
0
100
AcDbMText
 62
2
  6
CONTINUOUS
  7
STANDARD
 71
2
 72
1
 10
6.15
 20
0.325
 30
0.0
 11
1.0
 21
0.0
 31
0.0
 44
0.9
  1
C
 40
0.125
 41
0.2
  0
MTEXT
  5
243
100
AcDbEntity
  8
0
100
AcDbMText
 62
2
  6
CONTINUOUS
  7
STANDARD
 71
2
 72
1
 10
5.55
 20
0.325
 30
0.0
 11
1.0
 21
0.0
 31
0.0
 44
0.9
  1
1.000
 40
0.125
 41
1.0
  0
MTEXT
  5
244
100
AcDbEntity
  8
0
100
AcDbMText
 62
2
  6
CONTINUOUS
  7
STANDARD
 71
2
 72
1
 10
4.65
 20
0.325
 30
0.0
 11
1.0
 21
0.0
 31
0.0
 44
0.9
  1
May-22-23
 40
0.125
 41
1.8
  0
MTEXT
  5
245
100
AcDbEntity
  8
0
100
AcDbMText
 62
2
  6
CONTINUOUS
  7
STANDARD
 71
2
 72
1
 10
2.05
 20
0.4625
 30
0.0
 11
1.0
 21
0.0
 31
0.0
 44
0.9
  1
T-11A Line mount\P(See Technical Data for Body Features)
 40
0.125
 41
7.6
  0
MTEXT
  5
246
100
AcDbEntity
  8
0
100
AcDbMText
 62
2
  6
CONTINUOUS
  7
STANDARD
 71
1
 72
1
 10
6.45
 20
0.5625
 30
0.0
 11
1.0
 21
0.0
 31
0.0
 44
0.9
  1
SHEET
 40
0.06
 41
0.48
  0
MTEXT
  5
247
100
AcDbEntity
  8
0
100
AcDbMText
 62
2
  6
CONTINUOUS
  7
STANDARD
 71
1
 72
1
 10
5.95
 20
0.5625
 30
0.0
 11
1.0
 21
0.0
 31
0.0
 44
0.9
  1
DWG SIZE
 40
0.06
 41
0.768
  0
MTEXT
  5
248
100
AcDbEntity
  8
0
100
AcDbMText
 62
2
  6
CONTINUOUS
  7
STANDARD
 71
1
 72
1
 10
5.25
 20
0.5625
 30
0.0
 11
1.0
 21
0.0
 31
0.0
 44
0.9
  1
SCALE
 40
0.06
 41
0.48
  0
MTEXT
  5
249
100
AcDbEntity
  8
0
100
AcDbMText
 62
2
  6
CONTINUOUS
  7
STANDARD
 71
1
 72
1
 10
4.15
 20
0.5625
 30
0.0
 11
1.0
 21
0.0
 31
0.0
 44
0.9
  1
DATE
 40
0.06
 41
0.384
  0
MTEXT
  5
24A
100
AcDbEntity
  8
0
100
AcDbMText
 62
2
  6
CONTINUOUS
  7
STANDARD
 71
1
 72
1
 10
0.05
 20
0.5625
 30
0.0
 11
1.0
 21
0.0
 31
0.0
 44
0.9
  1
DESCRIPTION
 40
0.06
 41
1.056
  0
MTEXT
  5
24B
100
AcDbEntity
  8
0
100
AcDbMText
 62
2
  6
CONTINUOUS
  7
STANDARD
 71
2
 72
1
 10
5.45
 20
1.0375
 30
0.0
 11
1.0
 21
0.0
 31
0.0
 44
0.9
  1
ALL DIMENSIONS IN INCH\PVIEWS ARE THIRD ANGLE
 40
0.12
 41
4.224
  0
MTEXT
  5
24C
100
AcDbEntity
  8
0
100
AcDbMText
 62
2
  6
CONTINUOUS
  7
STANDARD
 71
2
 72
1
 10
2.05
 20
0.95
 30
0.0
 11
1.0
 21
0.0
 31
0.0
 44
0.9
  1
E4I
 40
0.125
 41
0.6
  0
MTEXT
  5
24D
100
AcDbEntity
  8
0
100
AcDbMText
 62
2
  6
CONTINUOUS
  7
STANDARD
 71
1
 72
1
 10
0.05
 20
1.1875
 30
0.0
 11
1.0
 21
0.0
 31
0.0
 44
0.9
  1
MODEL
 40
0.06
 41
0.48
  0
ENDBLK
  5
24E
100
AcDbEntity
  8
0
  6
BYBLOCK
 62
0
100
AcDbBlockEnd
  0
BLOCK
  5
24F
100
AcDbEntity
  8
0
100
AcDbBlockBegin
  2
*T2
 70
1
 10
0.0
 20
0.0
  3
*T2
  1

  0
LINE
  5
250
100
AcDbEntity
  8
0
100
AcDbLine
 62
2
  6
CONTINUOUS
 10
0.0
 20
0.0
 11
9.055
 21
0.0
  0
LINE
  5
251
100
AcDbEntity
  8
0
100
AcDbLine
 62
2
  6
CONTINUOUS
 10
0.0
 20
0.0
 11
0.0
 21
-2.844
  0
LINE
  5
252
100
AcDbEntity
  8
0
100
AcDbLine
 62
2
  6
CONTINUOUS
 10
0.0
 20
-0.344
 11
9.055
 21
-0.344
  0
LINE
  5
253
100
AcDbEntity
  8
0
100
AcDbLine
 62
2
  6
CONTINUOUS
 10
0.0
 20
-0.594
 11
9.055
 21
-0.594
  0
LINE
  5
254
100
AcDbEntity
  8
0
100
AcDbLine
 62
2
  6
CONTINUOUS
 10
0.0
 20
-0.844
 11
9.055
 21
-0.844
  0
LINE
  5
255
100
AcDbEntity
  8
0
100
AcDbLine
 62
2
  6
CONTINUOUS
 10
0.0
 20
-1.094
 11
9.055
 21
-1.094
  0
LINE
  5
256
100
AcDbEntity
  8
0
100
AcDbLine
 62
2
  6
CONTINUOUS
 10
0.0
 20
-1.344
 11
9.055
 21
-1.344
  0
LINE
  5
257
100
AcDbEntity
  8
0
100
AcDbLine
 62
2
  6
CONTINUOUS
 10
0.0
 20
-1.594
 11
9.055
 21
-1.594
  0
LINE
  5
258
100
AcDbEntity
  8
0
100
AcDbLine
 62
2
  6
CONTINUOUS
 10
0.0
 20
-1.844
 11
9.055
 21
-1.844
  0
LINE
  5
259
100
AcDbEntity
  8
0
100
AcDbLine
 62
2
  6
CONTINUOUS
 10
0.0
 20
-2.094
 11
9.055
 21
-2.094
  0
LINE
  5
25A
100
AcDbEntity
  8
0
100
AcDbLine
 62
2
  6
CONTINUOUS
 10
0.0
 20
-2.344
 11
9.055
 21
-2.344
  0
LINE
  5
25B
100
AcDbEntity
  8
0
100
AcDbLine
 62
2
  6
CONTINUOUS
 10
0.0
 20
-2.594
 11
9.055
 21
-2.594
  0
LINE
  5
25C
100
AcDbEntity
  8
0
100
AcDbLine
 62
2
  6
CONTINUOUS
 10
0.0
 20
-2.844
 11
9.055
 21
-2.844
  0
LINE
  5
25D
100
AcDbEntity
  8
0
100
AcDbLine
 62
2
  6
CONTINUOUS
 10
3.055
 20
0.0
 11
3.055
 21
-2.844
  0
LINE
  5
25E
100
AcDbEntity
  8
0
100
AcDbLine
 62
2
  6
CONTINUOUS
 10
9.055
 20
0.0
 11
9.055
 21
-2.844
  0
MTEXT
  5
25F
100
AcDbEntity
  8
0
100
AcDbMText
 62
2
  6
CONTINUOUS
  7
STANDARD
 71
2
 72
1
 10
1.5275
 20
-0.0995
 30
0.0
 11
1.0
 21
0.0
 31
0.0
 44
0.9
  1
Technical Data
 40
0.145
 41
3.248
  0
MTEXT
  5
260
100
AcDbEntity
  8
0
100
AcDbMText
 62
2
  6
CONTINUOUS
  7
STANDARD
 71
2
 72
1
 10
4.555
 20
-0.0995
 30
0.0
 11
1.0
 21
0.0
 31
0.0
 44
0.9
  1
U.S. Units
 40
0.145
 41
2.32
  0
MTEXT
  5
261
100
AcDbEntity
  8
0
100
AcDbMText
 62
2
  6
CONTINUOUS
  7
STANDARD
 71
2
 72
1
 10
7.555
 20
-0.0995
 30
0.0
 11
1.0
 21
0.0
 31
0.0
 44
0.9
  1
Metric Units
 40
0.145
 41
2.784
  0
MTEXT
  5
262
100
AcDbEntity
  8
0
100
AcDbMText
 62
2
  6
CONTINUOUS
  7
STANDARD
 71
2
 72
1
 10
1.5275
 20
-0.4065
 30
0.0
 11
1.0
 21
0.0
 31
0.0
 44
0.9
  1
Cavity
 40
0.125
 41
1.2
  0
MTEXT
  5
263
100
AcDbEntity
  8
0
100
AcDbMText
 62
2
  6
CONTINUOUS
  7
STANDARD
 71
2
 72
1
 10
6.055
 20
-0.4065
 30
0.0
 11
1.0
 21
0.0
 31
0.0
 44
0.9
  1
T-11A
 40
0.125
 41
1.0
  0
MTEXT
  5
264
100
AcDbEntity
  8
0
100
AcDbMText
 62
2
  6
CONTINUOUS
  7
STANDARD
 71
2
 72
1
 10
1.5275
 20
-0.6565
 30
0.0
 11
1.0
 21
0.0
 31
0.0
 44
0.9
  1
Body Features
 40
0.125
 41
2.6
  0
MTEXT
  5
265
100
AcDbEntity
  8
0
100
AcDbMText
 62
2
  6
CONTINUOUS
  7
STANDARD
 71
2
 72
1
 10
6.055
 20
-0.6565
 30
0.0
 11
1.0
 21
0.0
 31
0.0
 44
0.9
  1
Ninety degree with reverse flow check - reducing
 40
0.125
 41
9.6
  0
MTEXT
  5
266
100
AcDbEntity
  8
0
100
AcDbMText
 62
2
  6
CONTINUOUS
  7
STANDARD
 71
2
 72
1
 10
1.5275
 20
-0.9065
 30
0.0
 11
1.0
 21
0.0
 31
0.0
 44
0.9
  1
Body Type
 40
0.125
 41
1.8
  0
MTEXT
  5
267
100
AcDbEntity
  8
0
100
AcDbMText
 62
2
  6
CONTINUOUS
  7
STANDARD
 71
2
 72
1
 10
6.055
 20
-0.9065
 30
0.0
 11
1.0
 21
0.0
 31
0.0
 44
0.9
  1
Line mount
 40
0.125
 41
2.0
  0
MTEXT
  5
268
100
AcDbEntity
  8
0
100
AcDbMText
 62
2
  6
CONTINUOUS
  7
STANDARD
 71
2
 72
1
 10
1.5275
 20
-1.1565
 30
0.0
 11
1.0
 21
0.0
 31
0.0
 44
0.9
  1
Interface
 40
0.125
 41
1.8
  0
MTEXT
  5
269
100
AcDbEntity
  8
0
100
AcDbMText
 62
2
  6
CONTINUOUS
  7
STANDARD
 71
2
 72
1
 10
6.055
 20
-1.1565
 30
0.0
 11
1.0
 21
0.0
 31
0.0
 44
0.9
  1
None
 40
0.125
 41
0.8
  0
MTEXT
  5
26A
100
AcDbEntity
  8
0
100
AcDbMText
 62
2
  6
CONTINUOUS
  7
STANDARD
 71
2
 72
1
 10
1.5275
 20
-1.4065
 30
0.0
 11
1.0
 21
0.0
 31
0.0
 44
0.9
  1
Open Cavity Quantity
 40
0.125
 41
4.0
  0
MTEXT
  5
26B
100
AcDbEntity
  8
0
100
AcDbMText
 62
2
  6
CONTINUOUS
  7
STANDARD
 71
2
 72
1
 10
6.055
 20
-1.4065
 30
0.0
 11
1.0
 21
0.0
 31
0.0
 44
0.9
  1
1
 40
0.125
 41
0.2
  0
MTEXT
  5
26C
100
AcDbEntity
  8
0
100
AcDbMText
 62
2
  6
CONTINUOUS
  7
STANDARD
 71
2
 72
1
 10
1.5275
 20
-1.6565
 30
0.0
 11
1.0
 21
0.0
 31
0.0
 44
0.9
  1
Weight
 40
0.125
 41
1.2
  0
MTEXT
  5
26D
100
AcDbEntity
  8
0
100
AcDbMText
 62
2
  6
CONTINUOUS
  7
STANDARD
 71
2
 72
1
 10
4.555
 20
-1.6565
 30
0.0
 11
1.0
 21
0.0
 31
0.0
 44
0.9
  1
1.244 lb.
 40
0.125
 41
1.8
  0
MTEXT
  5
26E
100
AcDbEntity
  8
0
100
AcDbMText
 62
2
  6
CONTINUOUS
  7
STANDARD
 71
2
 72
1
 10
7.555
 20
-1.6565
 30
0.0
 11
1.0
 21
0.0
 31
0.0
 44
0.9
  1
0,564 kg.
 40
0.125
 41
1.8
  0
MTEXT
  5
26F
100
AcDbEntity
  8
0
100
AcDbMText
 62
2
  6
CONTINUOUS
  7
STANDARD
 71
2
 72
1
 10
1.5275
 20
-1.9065
 30
0.0
 11
1.0
 21
0.0
 31
0.0
 44
0.9
  1
Mounting Hole Diameter
 40
0.125
 41
4.4
  0
MTEXT
  5
270
100
AcDbEntity
  8
0
100
AcDbMText
 62
2
  6
CONTINUOUS
  7
STANDARD
 71
2
 72
1
 10
4.555
 20
-1.9065
 30
0.0
 11
1.0
 21
0.0
 31
0.0
 44
0.9
  1
.34 in.
 40
0.125
 41
1.4
  0
MTEXT
  5
271
100
AcDbEntity
  8
0
100
AcDbMText
 62
2
  6
CONTINUOUS
  7
STANDARD
 71
2
 72
1
 10
7.555
 20
-1.9065
 30
0.0
 11
1.0
 21
0.0
 31
0.0
 44
0.9
  1
8.6 mm
 40
0.125
 41
1.2
  0
MTEXT
  5
272
100
AcDbEntity
  8
0
100
AcDbMText
 62
2
  6
CONTINUOUS
  7
STANDARD
 71
2
 72
1
 10
1.5275
 20
-2.1565
 30
0.0
 11
1.0
 21
0.0
 31
0.0
 44
0.9
  1
Mounting Hole Depth
 40
0.125
 41
3.8
  0
MTEXT
  5
273
100
AcDbEntity
  8
0
100
AcDbMText
 62
2
  6
CONTINUOUS
  7
STANDARD
 71
2
 72
1
 10
6.055
 20
-2.1565
 30
0.0
 11
1.0
 21
0.0
 31
0.0
 44
0.9
  1
Through
 40
0.125
 41
1.4
  0
MTEXT
  5
274
100
AcDbEntity
  8
0
100
AcDbMText
 62
2
  6
CONTINUOUS
  7
STANDARD
 71
2
 72
1
 10
1.5275
 20
-2.4065
 30
0.0
 11
1.0
 21
0.0
 31
0.0
 44
0.9
  1
Mounting Hole Quantity
 40
0.125
 41
4.4
  0
MTEXT
  5
275
100
AcDbEntity
  8
0
100
AcDbMText
 62
2
  6
CONTINUOUS
  7
STANDARD
 71
2
 72
1
 10
6.055
 20
-2.4065
 30
0.0
 11
1.0
 21
0.0
 31
0.0
 44
0.9
  1
2
 40
0.125
 41
0.2
  0
MTEXT
  5
276
100
AcDbEntity
  8
0
100
AcDbMText
 62
2
  6
CONTINUOUS
  7
STANDARD
 71
2
 72
1
 10
1.5275
 20
-2.6565
 30
0.0
 11
1.0
 21
0.0
 31
0.0
 44
0.9
  1
Includes integral cartridge(s)
 40
0.125
 41
6.0
  0
MTEXT
  5
277
100
AcDbEntity
  8
0
100
AcDbMText
 62
2
  6
CONTINUOUS
  7
STANDARD
 71
2
 72
1
 10
6.055
 20
-2.6565
 30
0.0
 11
1.0
 21
0.0
 31
0.0
 44
0.9
  1
Yes (see Included Components)
 40
0.125
 41
5.8
  0
ENDBLK
  5
278
100
AcDbEntity
  8
0
  6
BYBLOCK
 62
0
100
AcDbBlockEnd
  0
BLOCK
  5
279
100
AcDbEntity
  8
0
100
AcDbBlockBegin
  2
*T3
 70
1
 10
0.0
 20
0.0
  3
*T3
  1

  0
LINE
  5
27A
100
AcDbEntity
  8
0
100
AcDbLine
 62
2
  6
CONTINUOUS
 10
0.0
 20
0.0
 11
4.6
 21
0.0
  0
LINE
  5
27B
100
AcDbEntity
  8
0
100
AcDbLine
 62
2
  6
CONTINUOUS
 10
0.0
 20
0.0
 11
0.0
 21
-1.18775
  0
LINE
  5
27C
100
AcDbEntity
  8
0
100
AcDbLine
 62
2
  6
CONTINUOUS
 10
0.0
 20
-0.34375
 11
4.6
 21
-0.34375
  0
LINE
  5
27D
100
AcDbEntity
  8
0
100
AcDbLine
 62
2
  6
CONTINUOUS
 10
0.0
 20
-0.68775
 11
4.6
 21
-0.68775
  0
LINE
  5
27E
100
AcDbEntity
  8
0
100
AcDbLine
 62
2
  6
CONTINUOUS
 10
0.0
 20
-0.93775
 11
4.6
 21
-0.93775
  0
LINE
  5
27F
100
AcDbEntity
  8
0
100
AcDbLine
 62
2
  6
CONTINUOUS
 10
0.0
 20
-1.18775
 11
4.6
 21
-1.18775
  0
LINE
  5
280
100
AcDbEntity
  8
0
100
AcDbLine
 62
2
  6
CONTINUOUS
 10
1.3
 20
-0.34375
 11
1.3
 21
-1.18775
  0
LINE
  5
281
100
AcDbEntity
  8
0
100
AcDbLine
 62
2
  6
CONTINUOUS
 10
3.3
 20
-0.34375
 11
3.3
 21
-1.18775
  0
LINE
  5
282
100
AcDbEntity
  8
0
100
AcDbLine
 62
2
  6
CONTINUOUS
 10
4.6
 20
0.0
 11
4.6
 21
-1.18775
  0
MTEXT
  5
283
100
AcDbEntity
  8
0
100
AcDbMText
 62
2
  6
CONTINUOUS
  7
STANDARD
 71
2
 72
1
 10
2.3
 20
-0.099375
 30
0.0
 11
1.0
 21
0.0
 31
0.0
 44
0.9
  1
Port Headings
 40
0.145
 41
3.016
  0
MTEXT
  5
284
100
AcDbEntity
  8
0
100
AcDbMText
 62
2
  6
CONTINUOUS
  7
STANDARD
 71
2
 72
1
 10
0.65
 20
-0.44325
 30
0.0
 11
1.0
 21
0.0
 31
0.0
 44
0.9
  1
Product
 40
0.145
 41
1.624
  0
MTEXT
  5
285
100
AcDbEntity
  8
0
100
AcDbMText
 62
2
  6
CONTINUOUS
  7
STANDARD
 71
2
 72
1
 10
2.3
 20
-0.44325
 30
0.0
 11
1.0
 21
0.0
 31
0.0
 44
0.9
  1
Port
 40
0.145
 41
0.928
  0
MTEXT
  5
286
100
AcDbEntity
  8
0
100
AcDbMText
 62
2
  6
CONTINUOUS
  7
STANDARD
 71
2
 72
1
 10
3.95
 20
-0.44325
 30
0.0
 11
1.0
 21
0.0
 31
0.0
 44
0.9
  1
Size
 40
0.145
 41
0.928
  0
MTEXT
  5
287
100
AcDbEntity
  8
0
100
AcDbMText
 62
2
  6
CONTINUOUS
  7
STANDARD
 71
2
 72
1
 10
0.65
 20
-0.75025
 30
0.0
 11
1.0
 21
0.0
 31
0.0
 44
0.9
  1
E4I
 40
0.125
 41
0.6
  0
MTEXT
  5
288
100
AcDbEntity
  8
0
100
AcDbMText
 62
2
  6
CONTINUOUS
  7
STANDARD
 71
2
 72
1
 10
2.3
 20
-0.75025
 30
0.0
 11
1.0
 21
0.0
 31
0.0
 44
0.9
  1
Ports 1, 2, 3
 40
0.125
 41
2.6
  0
MTEXT
  5
289
100
AcDbEntity
  8
0
100
AcDbMText
 62
2
  6
CONTINUOUS
  7
STANDARD
 71
2
 72
1
 10
3.95
 20
-0.75025
 30
0.0
 11
1.0
 21
0.0
 31
0.0
 44
0.9
  1
SAE 6
 40
0.125
 41
1.0
  0
MTEXT
  5
28A
100
AcDbEntity
  8
0
100
AcDbMText
 62
2
  6
CONTINUOUS
  7
STANDARD
 71
2
 72
1
 10
0.65
 20
-1.00025
 30
0.0
 11
1.0
 21
0.0
 31
0.0
 44
0.9
  1
E4I
 40
0.125
 41
0.6
  0
MTEXT
  5
28B
100
AcDbEntity
  8
0
100
AcDbMText
 62
2
  6
CONTINUOUS
  7
STANDARD
 71
2
 72
1
 10
2.3
 20
-1.00025
 30
0.0
 11
1.0
 21
0.0
 31
0.0
 44
0.9
  1
Gage Port
 40
0.125
 41
1.8
  0
MTEXT
  5
28C
100
AcDbEntity
  8
0
100
AcDbMText
 62
2
  6
CONTINUOUS
  7
STANDARD
 71
2
 72
1
 10
3.95
 20
-1.00025
 30
0.0
 11
1.0
 21
0.0
 31
0.0
 44
0.9
  1
1/4" NPTF
 40
0.125
 41
1.8
  0
ENDBLK
  5
28D
100
AcDbEntity
  8
0
  6
BYBLOCK
 62
0
100
AcDbBlockEnd
  0
ENDSEC
  0
SECTION
  2
ENTITIES
  0
IMAGE
  5
28E
100
AcDbEntity
  8
0
100
AcDbRasterImage
 62
7
  6
CONTINUOUS
 10
19.2297077316
 20
0.3094318264
 30
0.0
 11
0.0066666667
 21
0.0
 31
0.0
 12
0.0
 22
0.0066666667
 32
0.0
 13
369.0
 23
92.0
340
       371
 70
9
280
0
281
50
282
50
283
0
360
       36B
 71
1
 91
2
 14
-0.5
 24
-0.5
 14
368.5
 24
91.5
  0
INSERT
  5
28F
100
AcDbEntity
  8
0
100
AcDbBlockReference
 62
2
  6
CONTINUOUS
  2
SUN_FIRST_THIRD_ANGLE_BL0
 10
20.4816717061
 20
1.2289683772
  0
ACAD_TABLE
  5
290
100
AcDbEntity
  8
0
 62
2
  6
CONTINUOUS
100
AcDbBlockReference
  2
*T1
 10
12.42375
 20
0.30125
 30
0.0
100
AcDbTable
342
       373
343
20F
 11
1.0
 21
0.0
 31
0.0
 90
6
 91
4
 92
6
 93
20
 94
0
 95
0
 96
0
 70
1
 41
0.0
141
0.525
141
0.1
141
0.525
141
0.1
142
4.1
142
1.1
142
0.7
142
0.5
142
0.4
142
2.475
171
1
172
0
173
0
174
0
175
1
176
1
 91
33
178
0
145
0.0
301
CELL_VALUE
 90
4
  1
T-11A Line mount\P(See Technical Data for Body Features)
304
ACVALUE_END
170
2
140
0.125
171
1
172
0
173
0
174
0
175
1
176
1
 91
33
178
0
145
0.0
301
CELL_VALUE
 90
4
  1
May-22-23
304
ACVALUE_END
170
5
140
0.125
171
1
172
0
173
0
174
0
175
1
176
1
 91
33
178
0
145
0.0
301
CELL_VALUE
 90
4
  1
1.000
304
ACVALUE_END
170
5
140
0.125
171
1
172
0
173
0
174
0
175
1
176
1
 91
33
178
0
145
0.0
301
CELL_VALUE
 90
4
  1
C
304
ACVALUE_END
170
5
140
0.125
171
1
172
0
173
0
174
0
175
1
176
1
 91
33
178
0
145
0.0
301
CELL_VALUE
 90
4
  1
2
304
ACVALUE_END
170
5
140
0.125
171
1
172
0
173
0
174
0
175
1
176
1
 91
33
178
0
145
0.0
301
CELL_VALUE
 90
4
  1
 
304
ACVALUE_END
170
1
140
0.125
171
1
172
0
173
0
174
0
175
1
176
1
 91
33
178
0
145
0.0
301
CELL_VALUE
 90
4
  1
DESCRIPTION
304
ACVALUE_END
170
1
140
0.06
171
1
172
0
173
0
174
0
175
1
176
1
 91
33
178
0
145
0.0
301
CELL_VALUE
 90
4
  1
DATE
304
ACVALUE_END
170
1
140
0.06
171
1
172
0
173
0
174
0
175
1
176
1
 91
33
178
0
145
0.0
301
CELL_VALUE
 90
4
  1
SCALE
304
ACVALUE_END
170
1
140
0.06
171
1
172
0
173
0
174
0
175
1
176
1
 91
33
178
0
145
0.0
301
CELL_VALUE
 90
4
  1
DWG SIZE
304
ACVALUE_END
170
1
140
0.06
171
1
172
0
173
0
174
0
175
1
176
1
 91
33
178
0
145
0.0
301
CELL_VALUE
 90
4
  1
SHEET
304
ACVALUE_END
170
1
140
0.06
171
1
172
0
173
0
174
0
175
1
176
1
 91
33
178
0
145
0.0
301
CELL_VALUE
 90
4
  1
 
304
ACVALUE_END
170
1
140
0.125
171
1
172
0
173
0
174
0
175
1
176
1
 91
33
178
0
145
0.0
301
CELL_VALUE
 90
4
  1
E4I
304
ACVALUE_END
170
5
140
0.125
171
1
172
0
173
0
174
0
175
4
176
1
 91
33
178
0
145
0.0
301
CELL_VALUE
 90
4
  1
ALL DIMENSIONS IN INCH\PVIEWS ARE THIRD ANGLE
304
ACVALUE_END
170
5
140
0.12
171
1
172
0
173
1
174
0
175
1
176
1
 91
1
178
0
145
0.0
170
1
171
1
172
0
173
1
174
0
175
1
176
1
 91
1
178
0
145
0.0
170
1
171
1
172
0
173
1
174
0
175
1
176
1
 91
1
178
0
145
0.0
170
5
171
1
172
0
173
0
174
0
175
1
176
1
 91
33
178
0
145
0.0
301
CELL_VALUE
 90
4
  1
 
304
ACVALUE_END
170
1
140
0.125
171
1
172
0
173
0
174
0
175
1
176
1
 91
33
178
0
145
0.0
301
CELL_VALUE
 90
4
  1
MODEL
304
ACVALUE_END
170
1
140
0.06
171
1
172
0
173
0
174
0
175
1
176
1
 91
33
178
0
145
0.0
301
CELL_VALUE
 90
4
  1
 
304
ACVALUE_END
170
1
140
0.125
171
1
172
0
173
0
174
0
175
1
176
1
 91
33
178
0
145
0.0
301
CELL_VALUE
 90
4
  1
 
304
ACVALUE_END
170
1
140
0.125
171
1
172
0
173
0
174
0
175
1
176
1
 91
33
178
0
145
0.0
301
CELL_VALUE
 90
4
  1
 
304
ACVALUE_END
170
1
140
0.125
171
1
172
0
173
0
174
0
175
1
176
1
 91
33
178
0
145
0.0
301
CELL_VALUE
 90
4
  1
 
304
ACVALUE_END
170
1
140
0.125
171
1
172
0
173
0
174
0
175
1
176
1
 91
33
178
0
145
0.0
301
CELL_VALUE
 90
4
  1
 
304
ACVALUE_END
170
1
140
0.125
  0
ACAD_TABLE
  5
291
100
AcDbEntity
  8
0
 62
2
  6
CONTINUOUS
100
AcDbBlockReference
  2
*T2
 10
12.4237499994
 20
16.47875
 30
0.0
100
AcDbTable
342
       372
343
210
 11
1.0
 21
0.0
 31
0.0
 90
22
 91
11
 92
3
 93
16
 94
0
 95
0
 96
0
 41
0.028
141
0.344
141
0.25
141
0.25
141
0.25
141
0.25
141
0.25
141
0.25
141
0.25
141
0.25
141
0.25
141
0.25
142
3.055
142
3.0
142
3.0
171
1
172
0
173
0
174
0
175
1
176
1
 91
33
178
0
145
0.0
301
CELL_VALUE
 90
4
  1
Technical Data
304
ACVALUE_END
170
5
140
0.145
171
1
172
0
173
0
174
0
175
1
176
1
 91
33
178
0
145
0.0
301
CELL_VALUE
 90
4
  1
U.S. Units
304
ACVALUE_END
170
5
140
0.145
171
1
172
0
173
0
174
0
175
1
176
1
 91
33
178
0
145
0.0
301
CELL_VALUE
 90
4
  1
Metric Units
304
ACVALUE_END
170
5
140
0.145
171
1
172
0
173
0
174
0
175
1
176
1
 91
33
178
0
145
0.0
301
CELL_VALUE
 90
4
  1
Cavity
304
ACVALUE_END
170
5
140
0.125
171
1
172
0
173
0
174
0
175
2
176
1
 91
33
178
0
145
0.0
301
CELL_VALUE
 90
4
  1
T-11A
304
ACVALUE_END
170
5
140
0.125
171
1
172
0
173
1
174
0
175
1
176
1
 91
1
178
0
145
0.0
170
1
171
1
172
0
173
0
174
0
175
1
176
1
 91
33
178
0
145
0.0
301
CELL_VALUE
 90
4
  1
Body Features
304
ACVALUE_END
170
5
140
0.125
171
1
172
0
173
0
174
0
175
2
176
1
 91
33
178
0
145
0.0
301
CELL_VALUE
 90
4
  1
Ninety degree with reverse flow check - reducing
304
ACVALUE_END
170
5
140
0.125
171
1
172
0
173
1
174
0
175
1
176
1
 91
1
178
0
145
0.0
170
1
171
1
172
0
173
0
174
0
175
1
176
1
 91
33
178
0
145
0.0
301
CELL_VALUE
 90
4
  1
Body Type
304
ACVALUE_END
170
5
140
0.125
171
1
172
0
173
0
174
0
175
2
176
1
 91
33
178
0
145
0.0
301
CELL_VALUE
 90
4
  1
Line mount
304
ACVALUE_END
170
5
140
0.125
171
1
172
0
173
1
174
0
175
1
176
1
 91
1
178
0
145
0.0
170
1
171
1
172
0
173
0
174
0
175
1
176
1
 91
33
178
0
145
0.0
301
CELL_VALUE
 90
4
  1
Interface
304
ACVALUE_END
170
5
140
0.125
171
1
172
0
173
0
174
0
175
2
176
1
 91
33
178
0
145
0.0
301
CELL_VALUE
 90
4
  1
None
304
ACVALUE_END
170
5
140
0.125
171
1
172
0
173
1
174
0
175
1
176
1
 91
1
178
0
145
0.0
170
1
171
1
172
0
173
0
174
0
175
1
176
1
 91
33
178
0
145
0.0
301
CELL_VALUE
 90
4
  1
Open Cavity Quantity
304
ACVALUE_END
170
5
140
0.125
171
1
172
0
173
0
174
0
175
2
176
1
 91
33
178
0
145
0.0
301
CELL_VALUE
 90
4
  1
1
304
ACVALUE_END
170
5
140
0.125
171
1
172
0
173
1
174
0
175
1
176
1
 91
1
178
0
145
0.0
170
1
171
1
172
0
173
0
174
0
175
1
176
1
 91
33
178
0
145
0.0
301
CELL_VALUE
 90
4
  1
Weight
304
ACVALUE_END
170
5
140
0.125
171
1
172
0
173
0
174
0
175
1
176
1
 91
33
178
0
145
0.0
301
CELL_VALUE
 90
4
  1
1.244 lb.
304
ACVALUE_END
170
5
140
0.125
171
1
172
0
173
0
174
0
175
1
176
1
 91
33
178
0
145
0.0
301
CELL_VALUE
 90
4
  1
0,564 kg.
304
ACVALUE_END
170
5
140
0.125
171
1
172
0
173
0
174
0
175
1
176
1
 91
33
178
0
145
0.0
301
CELL_VALUE
 90
4
  1
Mounting Hole Diameter
304
ACVALUE_END
170
5
140
0.125
171
1
172
0
173
0
174
0
175
1
176
1
 91
33
178
0
145
0.0
301
CELL_VALUE
 90
4
  1
.34 in.
304
ACVALUE_END
170
5
140
0.125
171
1
172
0
173
0
174
0
175
1
176
1
 91
33
178
0
145
0.0
301
CELL_VALUE
 90
4
  1
8.6 mm
304
ACVALUE_END
170
5
140
0.125
171
1
172
0
173
0
174
0
175
1
176
1
 91
33
178
0
145
0.0
301
CELL_VALUE
 90
4
  1
Mounting Hole Depth
304
ACVALUE_END
170
5
140
0.125
171
1
172
0
173
0
174
0
175
2
176
1
 91
33
178
0
145
0.0
301
CELL_VALUE
 90
4
  1
Through
304
ACVALUE_END
170
5
140
0.125
171
1
172
0
173
1
174
0
175
1
176
1
 91
1
178
0
145
0.0
170
1
171
1
172
0
173
0
174
0
175
1
176
1
 91
33
178
0
145
0.0
301
CELL_VALUE
 90
4
  1
Mounting Hole Quantity
304
ACVALUE_END
170
5
140
0.125
171
1
172
0
173
0
174
0
175
2
176
1
 91
33
178
0
145
0.0
301
CELL_VALUE
 90
4
  1
2
304
ACVALUE_END
170
5
140
0.125
171
1
172
0
173
1
174
0
175
1
176
1
 91
1
178
0
145
0.0
170
1
171
1
172
0
173
0
174
0
175
1
176
1
 91
33
178
0
145
0.0
301
CELL_VALUE
 90
4
  1
Includes integral cartridge(s)
304
ACVALUE_END
170
5
140
0.125
171
1
172
0
173
0
174
0
175
2
176
1
 91
33
178
0
145
0.0
301
CELL_VALUE
 90
4
  1
Yes (see Included Components)
304
ACVALUE_END
170
5
140
0.125
171
1
172
0
173
1
174
0
175
1
176
1
 91
1
178
0
145
0.0
170
1
  0
ACAD_TABLE
  5
292
100
AcDbEntity
  8
0
 62
2
  6
CONTINUOUS
100
AcDbBlockReference
  2
*T3
 10
0.52125
 20
1.709
 30
0.0
100
AcDbTable
342
       372
343
211
 11
1.0
 21
0.0
 31
0.0
 90
22
 91
4
 92
3
 93
16
 94
0
 95
0
 96
0
 41
0.05
141
0.34375
141
0.344
141
0.25
141
0.25
142
1.3
142
2.0
142
1.3
171
1
172
0
173
0
174
0
175
3
176
1
 91
33
178
0
145
0.0
301
CELL_VALUE
 90
4
  1
Port Headings
304
ACVALUE_END
170
5
140
0.145
171
1
172
0
173
1
174
0
175
1
176
1
 91
1
178
0
145
0.0
170
1
171
1
172
0
173
1
174
0
175
1
176
1
 91
1
178
0
145
0.0
170
1
171
1
172
0
173
0
174
0
175
1
176
1
 91
33
178
0
145
0.0
301
CELL_VALUE
 90
4
  1
Product
304
ACVALUE_END
170
5
140
0.145
171
1
172
0
173
0
174
0
175
1
176
1
 91
33
178
0
145
0.0
301
CELL_VALUE
 90
4
  1
Port
304
ACVALUE_END
170
5
140
0.145
171
1
172
0
173
0
174
0
175
1
176
1
 91
33
178
0
145
0.0
301
CELL_VALUE
 90
4
  1
Size
304
ACVALUE_END
170
5
140
0.145
171
1
172
0
173
0
174
0
175
1
176
1
 91
33
178
0
145
0.0
301
CELL_VALUE
 90
4
  1
E4I
304
ACVALUE_END
170
5
140
0.125
171
1
172
0
173
0
174
0
175
1
176
1
 91
33
178
0
145
0.0
301
CELL_VALUE
 90
4
  1
Ports 1, 2, 3
304
ACVALUE_END
170
5
140
0.125
171
1
172
0
173
0
174
0
175
1
176
1
 91
33
178
0
145
0.0
301
CELL_VALUE
 90
4
  1
SAE 6
304
ACVALUE_END
170
5
140
0.125
171
1
172
0
173
0
174
0
175
1
176
1
 91
33
178
0
145
0.0
301
CELL_VALUE
 90
4
  1
E4I
304
ACVALUE_END
170
5
140
0.125
171
1
172
0
173
0
174
0
175
1
176
1
 91
33
178
0
145
0.0
301
CELL_VALUE
 90
4
  1
Gage Port
304
ACVALUE_END
170
5
140
0.125
171
1
172
0
173
0
174
0
175
1
176
1
 91
33
178
0
145
0.0
301
CELL_VALUE
 90
4
  1
1/4" NPTF
304
ACVALUE_END
170
5
140
0.125
  0
MTEXT
  5
293
100
AcDbEntity
  8
0
100
AcDbMText
 62
2
  6
CONTINUOUS
  7
STANDARD
 71
1
 72
1
 10
0.52125
 20
5.75995
 30
0.0
 11
1.0
 21
0.0
 31
0.0
 44
0.6
  3
Notes\P \P1. Important: Carefully consider\P   the maximum system pressure. The\P   pressure rating of the manifold is\P   dependent on the manifold material,\P   with the port type/size a secondary\P   consideration. Manifolds\P   constructed of alu
  3
minum are not\P   rated for pressures higher than\P   3000 psi (210 bar), regardless of\P   the port type/size specified.\P2. This drawing is for reference\P   only. It is generated by an\P   automated process and does not fall\P   under Sun's docume
  1
nt control\P   process.
 40
0.1
 41
3.04
  0
LINE
  5
294
100
AcDbEntity
  8
0
100
AcDbLine
 62
7
  6
CONTINUOUS
 10
0.30125
 20
0.30125
 11
0.30125
 21
16.69875
  0
LINE
  5
295
100
AcDbEntity
  8
0
100
AcDbLine
 62
7
  6
CONTINUOUS
 10
0.30125
 20
0.30125
 11
21.69875
 21
0.30125
  0
LINE
  5
296
100
AcDbEntity
  8
0
100
AcDbLine
 62
7
  6
CONTINUOUS
 10
0.30125
 20
16.69875
 11
21.69875
 21
16.69875
  0
LINE
  5
297
100
AcDbEntity
  8
0
100
AcDbLine
 62
7
  6
CONTINUOUS
 10
21.69875
 20
0.30125
 11
21.69875
 21
16.69875
  0
LINE
  5
298
100
AcDbEntity
  8
0
100
AcDbLine
 62
7
  6
CONTINUOUS
 10
9.7128729444
 20
10.7425635365
 11
9.389349405
 21
10.4300637758
  0
LINE
  5
299
100
AcDbEntity
  8
0
100
AcDbLine
 62
4
  6
CONTINUOUS
 10
9.6288989878
 20
9.956568046
 11
9.6216545439
 21
9.9474111936
  0
LINE
  5
29A
100
AcDbEntity
  8
0
100
AcDbLine
 62
4
  6
CONTINUOUS
 10
9.6361434318
 20
9.8981100904
 11
9.6216545439
 21
9.8797963812
  0
LINE
  5
29B
100
AcDbEntity
  8
0
100
AcDbLine
 62
4
  6
CONTINUOUS
 10
9.5781878801
 20
9.9794033928
 11
9.592676768
 21
9.9880578413
  0
LINE
  5
29C
100
AcDbEntity
  8
0
100
AcDbLine
 62
4
  6
CONTINUOUS
 10
9.6216545439
 20
9.9474111936
 11
9.6071656559
 21
9.9387567382
  0
LINE
  5
29D
100
AcDbEntity
  8
0
100
AcDbLine
 62
4
  6
CONTINUOUS
 10
9.6216545439
 20
9.8797963812
 11
9.6071656559
 21
9.8711419301
  0
LINE
  5
29E
100
AcDbEntity
  8
0
100
AcDbLine
 62
7
  6
CONTINUOUS
 10
11.2065145113
 20
6.3251270685
 11
11.2228173394
 21
6.3170737835
  0
LINE
  5
29F
100
AcDbEntity
  8
0
100
AcDbLine
 62
7
  6
CONTINUOUS
 10
9.389349405
 20
6.9285824481
 11
12.2871270556
 21
6.7276208855
  0
LINE
  5
2A0
100
AcDbEntity
  8
0
100
AcDbLine
 62
7
  6
CONTINUOUS
 10
9.389349405
 20
6.9285824481
 11
9.389349405
 21
10.4300637758
  0
LINE
  5
2A1
100
AcDbEntity
  8
0
100
AcDbLine
 62
4
  6
CONTINUOUS
 10
9.6288989878
 20
9.9662273023
 11
9.6288989878
 21
9.956568046
  0
LINE
  5
2A2
100
AcDbEntity
  8
0
100
AcDbLine
 62
4
  6
CONTINUOUS
 10
9.6288989878
 20
7.9184643874
 11
9.6288989878
 21
7.8025532839
  0
LINE
  5
2A3
100
AcDbEntity
  8
0
100
AcDbLine
 62
4
  6
CONTINUOUS
 10
9.6361434318
 20
9.9077693502
 11
9.6361434318
 21
9.8981100904
  0
LINE
  5
2A4
100
AcDbEntity
  8
0
100
AcDbLine
 62
4
  6
CONTINUOUS
 10
11.1748634168
 20
7.3785165881
 11
11.1603745288
 21
7.3795213959
  0
LINE
  5
2A5
100
AcDbEntity
  8
0
100
AcDbLine
 62
4
  6
CONTINUOUS
 10
11.1676189728
 20
7.4369745437
 11
11.1965967487
 21
7.4349649281
  0
LINE
  5
2A6
100
AcDbEntity
  8
0
100
AcDbLine
 62
4
  6
CONTINUOUS
 10
11.1603745288
 20
7.4954324993
 11
11.1748634168
 21
7.4944276915
  0
LINE
  5
2A7
100
AcDbEntity
  8
0
100
AcDbLine
 62
4
  6
CONTINUOUS
 10
11.1603745288
 20
7.3795213959
 11
11.1458856409
 21
7.3901854626
  0
LINE
  5
2A8
100
AcDbEntity
  8
0
100
AcDbLine
 62
4
  6
CONTINUOUS
 10
10.2886264026
 20
8.976765432
 11
10.2886264026
 21
8.918809879
  0
LINE
  5
2A9
100
AcDbEntity
  8
0
100
AcDbLine
 62
4
  6
CONTINUOUS
 10
10.3465819556
 20
8.9147906477
 11
10.3465819556
 21
8.8568350947
  0
LINE
  5
2AA
100
AcDbEntity
  8
0
100
AcDbLine
 62
4
  6
CONTINUOUS
 10
10.3755597321
 20
8.8548254791
 11
10.3755597321
 21
8.9707365851
  0
LINE
  5
2AB
100
AcDbEntity
  8
0
100
AcDbLine
 62
4
  6
CONTINUOUS
 10
10.4228901062
 20
8.2603964658
 11
10.4228901062
 21
8.3763075718
  0
LINE
  5
2AC
100
AcDbEntity
  8
0
100
AcDbLine
 62
4
  6
CONTINUOUS
 10
10.4335152851
 20
8.9667173538
 11
10.4335152851
 21
8.8508062478
  0
LINE
  5
2AD
100
AcDbEntity
  8
0
100
AcDbLine
 62
4
  6
CONTINUOUS
 10
10.4624930616
 20
8.9647077382
 11
10.4624930616
 21
8.8487966322
  0
LINE
  5
2AE
100
AcDbEntity
  8
0
100
AcDbLine
 62
4
  6
CONTINUOUS
 10
11.1748634168
 20
7.4944276915
 11
11.1893523047
 21
7.4837636274
  0
LINE
  5
2AF
100
AcDbEntity
  8
0
100
AcDbLine
 62
4
  6
CONTINUOUS
 10
10.4808456523
 20
8.3557296126
 11
10.4808456523
 21
8.2729359652
  0
LINE
  5
2B0
100
AcDbEntity
  8
0
100
AcDbLine
 62
4
  6
CONTINUOUS
 10
10.5204486146
 20
8.960688507
 11
10.5204486146
 21
8.8447774009
  0
LINE
  5
2B1
100
AcDbEntity
  8
0
100
AcDbLine
 62
4
  6
CONTINUOUS
 10
10.6363597207
 20
8.8367389384
 11
10.6363597207
 21
8.9526500445
  0
LINE
  5
2B2
100
AcDbEntity
  8
0
100
AcDbLine
 62
4
  6
CONTINUOUS
 10
10.527762053
 20
8.2531235716
 11
10.5608795099
 21
8.3667379741
  0
LINE
  5
2B3
100
AcDbEntity
  8
0
100
AcDbLine
 62
7
  6
CONTINUOUS
 10
12.2871270556
 20
10.2291022132
 11
12.610650595
 21
10.5416019738
  0
LINE
  5
2B4
100
AcDbEntity
  8
0
100
AcDbLine
 62
4
  6
CONTINUOUS
 10
10.3566551855
 20
8.3146660619
 11
10.4008117981
 21
8.2895254841
  0
LINE
  5
2B5
100
AcDbEntity
  8
0
100
AcDbLine
 62
4
  6
CONTINUOUS
 10
10.4642869238
 20
8.3734366927
 11
10.4808456523
 21
8.3557296126
  0
LINE
  5
2B6
100
AcDbEntity
  8
0
100
AcDbLine
 62
4
  6
CONTINUOUS
 10
11.1458856409
 20
7.3901854626
 11
11.131396753
 21
7.4105087873
  0
LINE
  5
2B7
100
AcDbEntity
  8
0
100
AcDbLine
 62
4
  6
CONTINUOUS
 10
11.1893523047
 20
7.4837636274
 11
11.1965967487
 21
7.4736019603
  0
LINE
  5
2B8
100
AcDbEntity
  8
0
100
AcDbLine
 62
4
  6
CONTINUOUS
 10
9.5781878801
 20
9.8828108046
 11
9.5709434361
 21
9.8929724674
  0
LINE
  5
2B9
100
AcDbEntity
  8
0
100
AcDbLine
 62
4
  6
CONTINUOUS
 10
10.5608795099
 20
8.3667379741
 11
10.5939969806
 21
8.2485301637
  0
LINE
  5
2BA
100
AcDbEntity
  8
0
100
AcDbLine
 62
4
  6
CONTINUOUS
 10
10.6602318943
 20
8.2439367569
 11
10.6602318943
 21
8.3598478629
  0
LINE
  5
2BB
100
AcDbEntity
  8
0
100
AcDbLine
 62
4
  6
CONTINUOUS
 10
10.6943152737
 20
8.8327197072
 11
10.6943152737
 21
8.8906752602
  0
LINE
  5
2BC
100
AcDbEntity
  8
0
100
AcDbLine
 62
4
  6
CONTINUOUS
 10
10.7264668081
 20
8.23934335
 11
10.7264668081
 21
8.355254456
  0
LINE
  5
2BD
100
AcDbEntity
  8
0
100
AcDbLine
 62
4
  6
CONTINUOUS
 10
10.7402657508
 20
8.4933908233
 11
10.7402657508
 21
8.6093019293
  0
LINE
  5
2BE
100
AcDbEntity
  8
0
100
AcDbLine
 62
4
  6
CONTINUOUS
 10
10.741645642
 20
8.829437335
 11
10.741645642
 21
8.887392888
  0
LINE
  5
2BF
100
AcDbEntity
  8
0
100
AcDbLine
 62
4
  6
CONTINUOUS
 10
10.799601195
 20
8.8833736568
 11
10.799601195
 21
8.7674625507
  0
LINE
  5
2C0
100
AcDbEntity
  8
0
100
AcDbLine
 62
4
  6
CONTINUOUS
 10
10.8382382303
 20
8.8227386162
 11
10.8382382303
 21
8.8806941692
  0
LINE
  5
2C1
100
AcDbEntity
  8
0
100
AcDbLine
 62
4
  6
CONTINUOUS
 10
10.8230593999
 20
8.5124871586
 11
10.8478974891
 21
8.6018376429
  0
LINE
  5
2C2
100
AcDbEntity
  8
0
100
AcDbLine
 62
4
  6
CONTINUOUS
 10
10.4808456523
 20
8.2729359652
 11
10.4642869238
 21
8.2575255867
  0
LINE
  5
2C3
100
AcDbEntity
  8
0
100
AcDbLine
 62
4
  6
CONTINUOUS
 10
11.1293958739
 20
8.2114001244
 11
11.0879990424
 21
8.2142710044
  0
LINE
  5
2C4
100
AcDbEntity
  8
0
100
AcDbLine
 62
4
  6
CONTINUOUS
 10
11.0383228778
 20
8.2177160581
 11
11.0134847678
 21
8.2194385869
  0
LINE
  5
2C5
100
AcDbEntity
  8
0
100
AcDbLine
 62
4
  6
CONTINUOUS
 10
10.9500096594
 20
8.2238406006
 11
10.9168922163
 21
8.2261373031
  0
LINE
  5
2C6
100
AcDbEntity
  8
0
100
AcDbLine
 62
4
  6
CONTINUOUS
 10
10.4642869238
 20
8.2575255867
 11
10.4228901062
 21
8.2603964658
  0
LINE
  5
2C7
100
AcDbEntity
  8
0
100
AcDbLine
 62
4
  6
CONTINUOUS
 10
10.7264668081
 20
8.23934335
 11
10.7761430004
 21
8.2358982943
  0
LINE
  5
2C8
100
AcDbEntity
  8
0
100
AcDbLine
 62
4
  6
CONTINUOUS
 10
11.1928710376
 20
8.2069981068
 11
11.2425472022
 21
8.2035530531
  0
LINE
  5
2C9
100
AcDbEntity
  8
0
100
AcDbLine
 62
4
  6
CONTINUOUS
 10
10.5388012053
 20
8.2854754641
 11
10.5829578145
 21
8.2824131928
  0
LINE
  5
2CA
100
AcDbEntity
  8
0
100
AcDbLine
 62
4
  6
CONTINUOUS
 10
11.2259884806
 20
8.270936325
 11
11.1928710376
 21
8.2732330275
  0
LINE
  5
2CB
100
AcDbEntity
  8
0
100
AcDbLine
 62
4
  6
CONTINUOUS
 10
10.7595842788
 20
8.3032815663
 11
10.7264668081
 21
8.3055782707
  0
LINE
  5
2CC
100
AcDbEntity
  8
0
100
AcDbLine
 62
4
  6
CONTINUOUS
 10
10.4228901062
 20
8.3763075718
 11
10.4642869238
 21
8.3734366927
  0
LINE
  5
2CD
100
AcDbEntity
  8
0
100
AcDbLine
 62
4
  6
CONTINUOUS
 10
10.6271144236
 20
8.3621445673
 11
10.6933493374
 21
8.3575511604
  0
LINE
  5
2CE
100
AcDbEntity
  8
0
100
AcDbLine
 62
4
  6
CONTINUOUS
 10
10.7264668081
 20
8.355254456
 11
10.7761430004
 21
8.3518094004
  0
LINE
  5
2CF
100
AcDbEntity
  8
0
100
AcDbLine
 62
4
  6
CONTINUOUS
 10
10.9168922163
 20
8.3420484091
 11
10.9500096594
 21
8.3397517066
  0
LINE
  5
2D0
100
AcDbEntity
  8
0
100
AcDbLine
 62
4
  6
CONTINUOUS
 10
11.0134847678
 20
8.3353496929
 11
11.0383228778
 21
8.3336271641
  0
LINE
  5
2D1
100
AcDbEntity
  8
0
100
AcDbLine
 62
4
  6
CONTINUOUS
 10
11.0879990424
 20
8.3301821104
 11
11.1293958739
 21
8.3273112304
  0
LINE
  5
2D2
100
AcDbEntity
  8
0
100
AcDbLine
 62
4
  6
CONTINUOUS
 10
11.1928710376
 20
8.3229092128
 11
11.2425472022
 21
8.3194641591
  0
LINE
  5
2D3
100
AcDbEntity
  8
0
100
AcDbLine
 62
4
  6
CONTINUOUS
 10
10.9168922163
 20
8.2261373031
 11
10.9003334948
 21
8.2438443845
  0
LINE
  5
2D4
100
AcDbEntity
  8
0
100
AcDbLine
 62
4
  6
CONTINUOUS
 10
11.0134847678
 20
8.2194385869
 11
10.9969260463
 21
8.2371456683
  0
LINE
  5
2D5
100
AcDbEntity
  8
0
100
AcDbLine
 62
4
  6
CONTINUOUS
 10
9.6216545439
 20
9.928092674
 11
9.6361434318
 21
9.9077693502
  0
LINE
  5
2D6
100
AcDbEntity
  8
0
100
AcDbLine
 62
4
  6
CONTINUOUS
 10
9.6216545439
 20
9.9763889694
 11
9.6288989878
 21
9.9662273023
  0
LINE
  5
2D7
100
AcDbEntity
  8
0
100
AcDbLine
 62
4
  6
CONTINUOUS
 10
10.8616964399
 20
8.4849695764
 11
10.8616964399
 21
8.5429251294
  0
LINE
  5
2D8
100
AcDbEntity
  8
0
100
AcDbLine
 62
4
  6
CONTINUOUS
 10
10.8961937833
 20
8.934630491
 11
10.8961937833
 21
8.818719385
  0
LINE
  5
2D9
100
AcDbEntity
  8
0
100
AcDbLine
 62
4
  6
CONTINUOUS
 10
10.9003334948
 20
8.2438443845
 11
10.9003334948
 21
8.3266380319
  0
LINE
  5
2DA
100
AcDbEntity
  8
0
100
AcDbLine
 62
4
  6
CONTINUOUS
 10
10.9348308187
 20
8.8739954505
 11
10.9348308187
 21
8.8160398975
  0
LINE
  5
2DB
100
AcDbEntity
  8
0
100
AcDbLine
 62
4
  6
CONTINUOUS
 10
10.9362107144
 20
8.4798019939
 11
10.9362107144
 21
8.5957130999
  0
LINE
  5
2DC
100
AcDbEntity
  8
0
100
AcDbLine
 62
4
  6
CONTINUOUS
 10
10.9969260463
 20
8.2371456683
 11
10.9969260463
 21
8.3199393157
  0
LINE
  5
2DD
100
AcDbEntity
  8
0
100
AcDbLine
 62
4
  6
CONTINUOUS
 10
10.4008117981
 20
8.3336820985
 11
10.3566551855
 21
8.3146660619
  0
LINE
  5
2DE
100
AcDbEntity
  8
0
100
AcDbLine
 62
4
  6
CONTINUOUS
 10
10.7402657508
 20
8.4933908233
 11
10.7899419396
 21
8.4899457679
  0
LINE
  5
2DF
100
AcDbEntity
  8
0
100
AcDbLine
 62
4
  6
CONTINUOUS
 10
10.8810149529
 20
8.5084679274
 11
10.8230593999
 21
8.5124871586
  0
LINE
  5
2E0
100
AcDbEntity
  8
0
100
AcDbLine
 62
4
  6
CONTINUOUS
 10
11.2756646452
 20
8.2730108474
 11
11.3198212544
 21
8.2478702682
  0
LINE
  5
2E1
100
AcDbEntity
  8
0
100
AcDbLine
 62
4
  6
CONTINUOUS
 10
11.0383228778
 20
8.3336271641
 11
11.0548815993
 21
8.3159200844
  0
LINE
  5
2E2
100
AcDbEntity
  8
0
100
AcDbLine
 62
4
  6
CONTINUOUS
 10
11.1293958739
 20
8.3273112304
 11
11.1459545954
 21
8.3096041507
  0
LINE
  5
2E3
100
AcDbEntity
  8
0
100
AcDbLine
 62
4
  6
CONTINUOUS
 10
11.131396753
 20
7.4105087873
 11
11.124152309
 21
7.4399889671
  0
LINE
  5
2E4
100
AcDbEntity
  8
0
100
AcDbLine
 62
4
  6
CONTINUOUS
 10
11.031423407
 20
8.8093411787
 11
11.031423407
 21
8.8479782141
  0
LINE
  5
2E5
100
AcDbEntity
  8
0
100
AcDbLine
 62
4
  6
CONTINUOUS
 10
11.0548815993
 20
8.3159200844
 11
11.0548815993
 21
8.233126437
  0
LINE
  5
2E6
100
AcDbEntity
  8
0
100
AcDbLine
 62
4
  6
CONTINUOUS
 10
11.0879990424
 20
8.2142710044
 11
11.0879990424
 21
8.3301821104
  0
LINE
  5
2E7
100
AcDbEntity
  8
0
100
AcDbLine
 62
4
  6
CONTINUOUS
 10
11.08937896
 20
8.8632775005
 11
11.08937896
 21
8.8053219475
  0
LINE
  5
2E8
100
AcDbEntity
  8
0
100
AcDbLine
 62
7
  6
CONTINUOUS
 10
11.1245682596
 20
6.8082446118
 11
11.1245682596
 21
6.4269207276
  0
LINE
  5
2E9
100
AcDbEntity
  8
0
100
AcDbLine
 62
4
  6
CONTINUOUS
 10
11.1280159954
 20
8.860598013
 11
11.1280159954
 21
8.80264246
  0
LINE
  5
2EA
100
AcDbEntity
  8
0
100
AcDbLine
 62
4
  6
CONTINUOUS
 10
11.1459545954
 20
8.3096041507
 11
11.1459545954
 21
8.2268105033
  0
LINE
  5
2EB
100
AcDbEntity
  8
0
100
AcDbLine
 62
4
  6
CONTINUOUS
 10
11.1859715484
 20
8.7986232287
 11
11.1859715484
 21
8.8565787817
  0
LINE
  5
2EC
100
AcDbEntity
  8
0
100
AcDbLine
 62
4
  6
CONTINUOUS
 10
11.1928710376
 20
8.2069981068
 11
11.1928710376
 21
8.3229092128
  0
LINE
  5
2ED
100
AcDbEntity
  8
0
100
AcDbLine
 62
4
  6
CONTINUOUS
 10
11.1965967487
 20
7.4349649281
 11
11.1965967487
 21
7.3963278942
  0
LINE
  5
2EE
100
AcDbEntity
  8
0
100
AcDbLine
 62
4
  6
CONTINUOUS
 10
10.9003334948
 20
8.3266380319
 11
10.9168922163
 21
8.3420484091
  0
LINE
  5
2EF
100
AcDbEntity
  8
0
100
AcDbLine
 62
4
  6
CONTINUOUS
 10
10.9969260463
 20
8.3199393157
 11
11.0134847678
 21
8.3353496929
  0
LINE
  5
2F0
100
AcDbEntity
  8
0
100
AcDbLine
 62
4
  6
CONTINUOUS
 10
10.7733832111
 20
8.5573290403
 11
10.7402657508
 21
8.559625744
  0
LINE
  5
2F1
100
AcDbEntity
  8
0
100
AcDbLine
 62
4
  6
CONTINUOUS
 10
10.7402657508
 20
8.6093019293
 11
10.7899419396
 21
8.6058568739
  0
LINE
  5
2F2
100
AcDbEntity
  8
0
100
AcDbLine
 62
4
  6
CONTINUOUS
 10
11.2246085837
 20
8.7959437412
 11
11.2246085837
 21
8.9118548472
  0
LINE
  5
2F3
100
AcDbEntity
  8
0
100
AcDbLine
 62
7
  6
CONTINUOUS
 10
11.2376230716
 20
6.7383175774
 11
11.2376230716
 21
6.3177183517
  0
LINE
  5
2F4
100
AcDbEntity
  8
0
100
AcDbLine
 62
4
  6
CONTINUOUS
 10
11.2632456191
 20
8.7932642537
 11
11.2632456191
 21
8.8512198067
  0
LINE
  5
2F5
100
AcDbEntity
  8
0
100
AcDbLine
 62
7
  6
CONTINUOUS
 10
11.2795032991
 20
6.7274781907
 11
11.2795032991
 21
6.3068789649
  0
LINE
  5
2F6
100
AcDbEntity
  8
0
100
AcDbLine
 62
4
  6
CONTINUOUS
 10
11.3018826544
 20
8.8485403192
 11
11.3018826544
 21
8.7905847662
  0
LINE
  5
2F7
100
AcDbEntity
  8
0
100
AcDbLine
 62
4
  6
CONTINUOUS
 10
11.124152309
 20
7.4399889671
 11
11.131396753
 21
7.468464339
  0
LINE
  5
2F8
100
AcDbEntity
  8
0
100
AcDbLine
 62
4
  6
CONTINUOUS
 10
11.0548815993
 20
8.233126437
 11
11.0383228778
 21
8.2177160581
  0
LINE
  5
2F9
100
AcDbEntity
  8
0
100
AcDbLine
 62
4
  6
CONTINUOUS
 10
11.1459545954
 20
8.2268105033
 11
11.1293958739
 21
8.2114001244
  0
LINE
  5
2FA
100
AcDbEntity
  8
0
100
AcDbLine
 62
4
  6
CONTINUOUS
 10
12.1127774397
 20
8.8676467311
 11
12.1272663276
 21
8.8763011796
  0
LINE
  5
2FB
100
AcDbEntity
  8
0
100
AcDbLine
 62
4
  6
CONTINUOUS
 10
12.1562441035
 20
8.8259952686
 11
12.1272663276
 21
8.8086863681
  0
LINE
  5
2FC
100
AcDbEntity
  8
0
100
AcDbLine
 62
4
  6
CONTINUOUS
 10
11.3198212544
 20
8.2478702682
 11
11.2756646452
 21
8.2288542331
  0
LINE
  5
2FD
100
AcDbEntity
  8
0
100
AcDbLine
 62
4
  6
CONTINUOUS
 10
10.799601195
 20
8.7674625507
 11
10.7609641596
 21
8.7701420382
  0
LINE
  5
2FE
100
AcDbEntity
  8
0
100
AcDbLine
 62
4
  6
CONTINUOUS
 10
11.4564307958
 20
8.7798668162
 11
11.3984752428
 21
8.7838860475
  0
LINE
  5
2FF
100
AcDbEntity
  8
0
100
AcDbLine
 62
4
  6
CONTINUOUS
 10
11.08937896
 20
8.8053219475
 11
11.031423407
 21
8.8093411787
  0
LINE
  5
300
100
AcDbEntity
  8
0
100
AcDbLine
 62
4
  6
CONTINUOUS
 10
10.8961937833
 20
8.818719385
 11
10.8382382303
 21
8.8227386162
  0
LINE
  5
301
100
AcDbEntity
  8
0
100
AcDbLine
 62
4
  6
CONTINUOUS
 10
10.799601195
 20
8.8254181037
 11
10.741645642
 21
8.829437335
  0
LINE
  5
302
100
AcDbEntity
  8
0
100
AcDbLine
 62
4
  6
CONTINUOUS
 10
10.4335152851
 20
8.8508062478
 11
10.3755597321
 21
8.8548254791
  0
LINE
  5
303
100
AcDbEntity
  8
0
100
AcDbLine
 62
4
  6
CONTINUOUS
 10
10.3465819556
 20
8.8568350947
 11
10.2886264026
 21
8.8608543259
  0
LINE
  5
304
100
AcDbEntity
  8
0
100
AcDbLine
 62
4
  6
CONTINUOUS
 10
11.1280159954
 20
8.80264246
 11
11.1859715484
 21
8.7986232287
  0
LINE
  5
305
100
AcDbEntity
  8
0
100
AcDbLine
 62
4
  6
CONTINUOUS
 10
11.3018826544
 20
8.7905847662
 11
11.3598382074
 21
8.786565535
  0
LINE
  5
306
100
AcDbEntity
  8
0
100
AcDbLine
 62
4
  6
CONTINUOUS
 10
12.1055329957
 20
8.7618972879
 11
12.1634885474
 21
8.7578780567
  0
LINE
  5
307
100
AcDbEntity
  8
0
100
AcDbLine
 62
4
  6
CONTINUOUS
 10
11.3984752428
 20
8.812863824
 11
11.4564307958
 21
8.8088445927
  0
LINE
  5
308
100
AcDbEntity
  8
0
100
AcDbLine
 62
4
  6
CONTINUOUS
 10
11.031423407
 20
8.8479782141
 11
11.08937896
 21
8.8439589828
  0
LINE
  5
309
100
AcDbEntity
  8
0
100
AcDbLine
 62
4
  6
CONTINUOUS
 10
11.08937896
 20
8.8632775005
 11
11.0507419247
 21
8.865956988
  0
LINE
  5
30A
100
AcDbEntity
  8
0
100
AcDbLine
 62
4
  6
CONTINUOUS
 10
10.6943152737
 20
8.8906752602
 11
10.6363597207
 21
8.8946944914
  0
LINE
  5
30B
100
AcDbEntity
  8
0
100
AcDbLine
 62
4
  6
CONTINUOUS
 10
10.2886264026
 20
8.918809879
 11
10.3465819556
 21
8.9147906477
  0
LINE
  5
30C
100
AcDbEntity
  8
0
100
AcDbLine
 62
4
  6
CONTINUOUS
 10
10.8382382303
 20
8.8806941692
 11
10.8961937833
 21
8.876674938
  0
LINE
  5
30D
100
AcDbEntity
  8
0
100
AcDbLine
 62
4
  6
CONTINUOUS
 10
10.9348308187
 20
8.8739954505
 11
10.9927863717
 21
8.8699762192
  0
LINE
  5
30E
100
AcDbEntity
  8
0
100
AcDbLine
 62
4
  6
CONTINUOUS
 10
11.3018826544
 20
8.8485403192
 11
11.3598382074
 21
8.844521088
  0
LINE
  5
30F
100
AcDbEntity
  8
0
100
AcDbLine
 62
4
  6
CONTINUOUS
 10
11.3984752428
 20
8.8418416005
 11
11.4564307958
 21
8.8378223692
  0
LINE
  5
310
100
AcDbEntity
  8
0
100
AcDbLine
 62
4
  6
CONTINUOUS
 10
9.592676768
 20
9.8721467379
 11
9.5781878801
 21
9.8828108046
  0
LINE
  5
311
100
AcDbEntity
  8
0
100
AcDbLine
 62
4
  6
CONTINUOUS
 10
9.6071656559
 20
9.9387567382
 11
9.6216545439
 21
9.928092674
  0
LINE
  5
312
100
AcDbEntity
  8
0
100
AcDbLine
 62
4
  6
CONTINUOUS
 10
9.6071656559
 20
9.9870530336
 11
9.6216545439
 21
9.9763889694
  0
LINE
  5
313
100
AcDbEntity
  8
0
100
AcDbLine
 62
4
  6
CONTINUOUS
 10
11.3984752428
 20
8.8418416005
 11
11.3984752428
 21
8.812863824
  0
LINE
  5
314
100
AcDbEntity
  8
0
100
AcDbLine
 62
4
  6
CONTINUOUS
 10
11.4564307958
 20
8.8088445927
 11
11.4564307958
 21
8.7798668162
  0
LINE
  5
315
100
AcDbEntity
  8
0
100
AcDbLine
 62
4
  6
CONTINUOUS
 10
11.2560011749
 20
8.8806999871
 11
11.2704900632
 21
8.8796951793
  0
LINE
  5
316
100
AcDbEntity
  8
0
100
AcDbLine
 62
4
  6
CONTINUOUS
 10
10.3465819556
 20
8.9727462007
 11
10.2886264026
 21
8.976765432
  0
LINE
  5
317
100
AcDbEntity
  8
0
100
AcDbLine
 62
4
  6
CONTINUOUS
 10
10.4624930616
 20
8.9647077382
 11
10.5204486146
 21
8.960688507
  0
LINE
  5
318
100
AcDbEntity
  8
0
100
AcDbLine
 62
4
  6
CONTINUOUS
 10
12.1272663276
 20
8.8763011796
 11
12.1417552155
 21
8.8752963718
  0
LINE
  5
319
100
AcDbEntity
  8
0
100
AcDbLine
 62
7
  6
CONTINUOUS
 10
11.701429278
 20
6.6982175246
 11
11.701429278
 21
6.2776182989
  0
LINE
  5
31A
100
AcDbEntity
  8
0
100
AcDbLine
 62
7
  6
CONTINUOUS
 10
11.7586387166
 20
6.7021850197
 11
11.7586387166
 21
6.281585794
  0
LINE
  5
31B
100
AcDbEntity
  8
0
100
AcDbLine
 62
4
  6
CONTINUOUS
 10
12.1055329957
 20
8.8584898717
 11
12.1127774397
 21
8.8676467311
  0
LINE
  5
31C
100
AcDbEntity
  8
0
100
AcDbLine
 62
4
  6
CONTINUOUS
 10
12.1272663276
 20
8.8086863681
 11
12.1127774397
 21
8.7903726598
  0
LINE
  5
31D
100
AcDbEntity
  8
0
100
AcDbLine
 62
4
  6
CONTINUOUS
 10
12.1634885474
 20
8.8351521279
 11
12.1562441035
 21
8.8259952686
  0
LINE
  5
31E
100
AcDbEntity
  8
0
100
AcDbLine
 62
4
  6
CONTINUOUS
 10
11.131396753
 20
7.468464339
 11
11.1458856409
 21
7.4867780508
  0
LINE
  5
31F
100
AcDbEntity
  8
0
100
AcDbLine
 62
4
  6
CONTINUOUS
 10
11.1965967487
 20
7.3963278942
 11
11.1893523047
 21
7.3871710392
  0
LINE
  5
320
100
AcDbEntity
  8
0
100
AcDbLine
 62
4
  6
CONTINUOUS
 10
11.1458856409
 20
7.4867780508
 11
11.1603745288
 21
7.4954324993
  0
LINE
  5
321
100
AcDbEntity
  8
0
100
AcDbLine
 62
7
  6
CONTINUOUS
 10
12.0675098836
 20
6.7428513881
 11
12.0675098836
 21
6.3615275038
  0
LINE
  5
322
100
AcDbEntity
  8
0
100
AcDbLine
 62
7
  6
CONTINUOUS
 10
12.0828390948
 20
6.7417883037
 11
12.0828390948
 21
6.3763343857
  0
LINE
  5
323
100
AcDbEntity
  8
0
100
AcDbLine
 62
4
  6
CONTINUOUS
 10
12.1127774397
 20
8.7903726598
 11
12.1055329957
 21
8.7618972879
  0
LINE
  5
324
100
AcDbEntity
  8
0
100
AcDbLine
 62
4
  6
CONTINUOUS
 10
11.1893523047
 20
7.3871710392
 11
11.1748634168
 21
7.3785165881
  0
LINE
  5
325
100
AcDbEntity
  8
0
100
AcDbLine
 62
4
  6
CONTINUOUS
 10
12.1417552155
 20
8.8752963718
 11
12.1562441035
 21
8.8646323077
  0
LINE
  5
326
100
AcDbEntity
  8
0
100
AcDbLine
 62
4
  6
CONTINUOUS
 10
12.1634885474
 20
8.8544706406
 11
12.1634885474
 21
8.8351521279
  0
LINE
  5
327
100
AcDbEntity
  8
0
100
AcDbLine
 62
7
  6
CONTINUOUS
 10
12.2871270556
 20
6.7276208855
 11
12.2871270556
 21
10.2291022132
  0
LINE
  5
328
100
AcDbEntity
  8
0
100
AcDbLine
 62
4
  6
CONTINUOUS
 10
9.6071656559
 20
9.8711419301
 11
9.592676768
 21
9.8721467379
  0
LINE
  5
329
100
AcDbEntity
  8
0
100
AcDbLine
 62
4
  6
CONTINUOUS
 10
12.1562441035
 20
8.8646323077
 11
12.1634885474
 21
8.8544706406
  0
LINE
  5
32A
100
AcDbEntity
  8
0
100
AcDbLine
 62
4
  6
CONTINUOUS
 10
9.592676768
 20
9.9397615459
 11
9.6071656559
 21
9.9387567382
  0
LINE
  5
32B
100
AcDbEntity
  8
0
100
AcDbLine
 62
4
  6
CONTINUOUS
 10
9.592676768
 20
9.9880578413
 11
9.6071656559
 21
9.9870530336
  0
LINE
  5
32C
100
AcDbEntity
  8
0
100
AcDbLine
 62
7
  6
CONTINUOUS
 10
12.610650595
 20
7.0401206461
 11
12.610650595
 21
10.5416019738
  0
LINE
  5
32D
100
AcDbEntity
  8
0
100
AcDbLine
 62
7
  6
CONTINUOUS
 10
9.389349405
 20
10.4300637758
 11
12.2871270556
 21
10.2291022132
  0
LINE
  5
32E
100
AcDbEntity
  8
0
100
AcDbLine
 62
7
  6
CONTINUOUS
 10
12.2871270556
 20
6.7276208855
 11
12.610650595
 21
7.0401206461
  0
LINE
  5
32F
100
AcDbEntity
  8
0
100
AcDbLine
 62
7
  6
CONTINUOUS
 10
12.610650595
 20
10.5416019738
 11
9.7128729444
 21
10.7425635365
  0
LINE
  5
330
100
AcDbEntity
  8
0
100
AcDbLine
 62
7
  6
CONTINUOUS
 10
12.0097556245
 20
6.3295051128
 11
11.984590015
 21
6.3170737835
  0
ARC
  5
331
100
AcDbEntity
  8
0
100
AcDbCircle
 62
7
  6
CONTINUOUS
 10
11.6115059339
 20
8.4093209719
 40
1.7134646816
100
AcDbArc
 50
273.0082884861
 51
274.9259735842
  0
ARC
  5
332
100
AcDbEntity
  8
0
100
AcDbCircle
 62
7
  6
CONTINUOUS
 10
11.6115059339
 20
7.9887217461
 40
1.7134646816
100
AcDbArc
 50
273.0082884861
 51
274.9259735842
  0
ARC
  5
333
100
AcDbEntity
  8
0
100
AcDbCircle
 62
7
  6
CONTINUOUS
 10
11.7472714954
 20
6.860440605
 40
0.5922756118
100
AcDbArc
 50
293.5909107106
 51
296.3039528614
  0
ARC
  5
334
100
AcDbEntity
  8
0
100
AcDbCircle
 62
7
  6
CONTINUOUS
 10
10.858383409
 20
7.9344852077
 40
0.23895774
100
AcDbArc
 50
243.7500818994
 51
248.0688736721
  0
SPLINE
  5
335
100
AcDbEntity
  8
0
100
AcDbSpline
 62
7
  6
CONTINUOUS
 70
0
 71
3
 72
9
 73
5
 74
0
 42
0.0000001
 43
0.0000001
 44
0.0000000001
 40
0.0
 40
0.0
 40
0.0
 40
0.0
 40
0.4865082157
 40
1.0
 40
1.0
 40
1.0
 40
1.0
 10
12.0760414342
 20
6.3688708219
 30
0.0
 10
12.0747279642
 20
6.3676021072
 30
0.0
 10
12.0719468229
 20
6.3650777023
 30
0.0
 10
12.0690335169
 20
6.3627079979
 30
0.0
 10
12.0675098836
 20
6.3615275038
 30
0.0
  0
SPLINE
  5
336
100
AcDbEntity
  8
0
100
AcDbSpline
 62
7
  6
CONTINUOUS
 70
0
 71
3
 72
9
 73
5
 74
0
 42
0.0000001
 43
0.0000001
 44
0.0000000001
 40
0.0
 40
0.0
 40
0.0
 40
0.0
 40
0.4864210225
 40
1.0
 40
1.0
 40
1.0
 40
1.0
 10
12.0828390948
 20
6.3763343857
 30
0.0
 10
12.0818253878
 20
6.3750480356
 30
0.0
 10
12.0796388976
 20
6.3724832508
 30
0.0
 10
12.0772851785
 20
6.3700721867
 30
0.0
 10
12.0760414342
 20
6.3688708219
 30
0.0
  0
SPLINE
  5
337
100
AcDbEntity
  8
0
100
AcDbSpline
 62
7
  6
CONTINUOUS
 70
0
 71
3
 72
9
 73
5
 74
0
 42
0.0000001
 43
0.0000001
 44
0.0000000001
 40
0.0
 40
0.0
 40
0.0
 40
0.0
 40
0.503991706
 40
1.0
 40
1.0
 40
1.0
 40
1.0
 10
12.0675098836
 20
6.3615275038
 30
0.0
 10
12.0580365361
 20
6.3557386286
 30
0.0
 10
12.0390211191
 20
6.3446054483
 30
0.0
 10
12.0195244542
 20
6.3343309348
 30
0.0
 10
12.0097283871
 20
6.3294916617
 30
0.0
  0
SPLINE
  5
338
100
AcDbEntity
  8
0
100
AcDbSpline
 62
7
  6
CONTINUOUS
 70
0
 71
3
 72
23
 73
19
 74
0
 42
0.0000001
 43
0.0000001
 44
0.0000000001
 40
0.0
 40
0.0
 40
0.0
 40
0.0
 40
0.0439943064
 40
0.0899281819
 40
0.1380403338
 40
0.1885309998
 40
0.2415683448
 40
0.2972701743
 40
0.3557174883
 40
0.4169406608
 40
0.4809367475
 40
0.5476614984
 40
0.617045644
 40
0.688992165
 40
0.7633891149
 40
0.8401121098
 40
0.9190285012
 40
1.0
 40
1.0
 40
1.0
 40
1.0
 10
11.206515405
 20
6.3251266269
 30
0.0
 10
11.2047715237
 20
6.3259880864
 30
0.0
 10
11.201271393
 20
6.3278823931
 30
0.0
 10
11.1961149208
 20
6.3311550678
 30
0.0
 10
11.1909515278
 20
6.3349271652
 30
0.0
 10
11.1857838084
 20
6.3392040315
 30
0.0
 10
11.1806159683
 20
6.3439892678
 30
0.0
 10
11.1754500776
 20
6.3492798771
 30
0.0
 10
11.1702904092
 20
6.3550705141
 30
0.0
 10
11.1651388447
 20
6.3613499503
 30
0.0
 10
11.1599991712
 20
6.3681047078
 30
0.0
 10
11.1548730069
 20
6.3753168728
 30
0.0
 10
11.1497632772
 20
6.3829669071
 30
0.0
 10
11.1446712101
 20
6.3910325911
 30
0.0
 10
11.1395986736
 20
6.3994910486
 30
0.0
 10
11.1345464214
 20
6.408318364
 30
0.0
 10
11.1295153937
 20
6.4174905993
 30
0.0
 10
11.1262163251
 20
6.4237427794
 30
0.0
 10
11.1245682596
 20
6.4269207276
 30
0.0
  0
SPLINE
  5
339
100
AcDbEntity
  8
0
100
AcDbSpline
 62
7
  6
CONTINUOUS
 70
0
 71
3
 72
46
 73
42
 74
0
 42
0.0000001
 43
0.0000001
 44
0.0000000001
 40
0.0
 40
0.0
 40
0.0
 40
0.0
 40
0.0099874435
 40
0.0204476157
 40
0.0313771114
 40
0.0427707225
 40
0.054621686
 40
0.0669224317
 40
0.0796639566
 40
0.0928360449
 40
0.1204269131
 40
0.1495981875
 40
0.1802403745
 40
0.2122335405
 40
0.2454486791
 40
0.2797494061
 40
0.3149926211
 40
0.3510295021
 40
0.387706851
 40
0.4248677397
 40
0.4623524596
 40
0.499999592
 40
0.537646712
 40
0.5751314595
 40
0.6122923998
 40
0.6489698028
 40
0.6850067986
 40
0.7202500982
 40
0.7545508962
 40
0.7877662248
 40
0.8197595459
 40
0.8504018313
 40
0.8795733387
 40
0.9071643906
 40
0.9330770134
 40
0.9453779539
 40
0.9572290359
 40
0.9686226679
 40
0.9795523026
 40
0.9900125123
 40
1.0
 40
1.0
 40
1.0
 40
1.0
 10
11.9845935448
 20
6.3170755709
 30
0.0
 10
11.9822765659
 20
6.3159310098
 30
0.0
 10
11.9774933731
 20
6.3136671598
 30
0.0
 10
11.9700538708
 20
6.3104135005
 30
0.0
 10
11.9621913311
 20
6.307227043
 30
0.0
 10
11.9539148968
 20
6.3041114836
 30
0.0
 10
11.9452340775
 20
6.3010702178
 30
0.0
 10
11.9361587631
 20
6.2981069844
 30
0.0
 10
11.9266993856
 20
6.2952251118
 30
0.0
 10
11.913382749
 20
6.2914367828
 30
0.0
 10
11.8958493845
 20
6.2869466232
 30
0.0
 10
11.8737751165
 20
6.2820123505
 30
0.0
 10
11.8504544306
 20
6.2774755337
 30
0.0
 10
11.8259948337
 20
6.2733573945
 30
0.0
 10
11.8005089302
 20
6.2696770924
 30
0.0
 10
11.7741142258
 20
6.266451958
 30
0.0
 10
11.7469324796
 20
6.2636971329
 30
0.0
 10
11.719089182
 20
6.2614253426
 30
0.0
 10
11.6907128957
 20
6.259647293
 30
0.0
 10
11.6619346625
 20
6.2583713529
 30
0.0
 10
11.6328874167
 20
6.2576033315
 30
0.0
 10
11.6037053518
 20
6.2573468866
 30
0.0
 10
11.5745232798
 20
6.257603296
 30
0.0
 10
11.545476014
 20
6.2583712137
 30
0.0
 10
11.516697744
 20
6.2596471135
 30
0.0
 10
11.4883213993
 20
6.2614251364
 30
0.0
 10
11.4604780276
 20
6.2636968235
 30
0.0
 10
11.4332962066
 20
6.2664516069
 30
0.0
 10
11.406901409
 20
6.2696767239
 30
0.0
 10
11.3814153879
 20
6.2733569283
 30
0.0
 10
11.3569556485
 20
6.2774750206
 30
0.0
 10
11.3336348986
 20
6.2820118529
 30
0.0
 10
11.311560252
 20
6.2869459729
 30
0.0
 10
11.2908333129
 20
6.2922542855
 30
0.0
 10
11.2744906424
 20
6.2970486475
 30
0.0
 10
11.2621753032
 20
6.3010694894
 30
0.0
 10
11.2534943792
 20
6.3041107721
 30
0.0
 10
11.2452178902
 20
6.307226376
 30
0.0
 10
11.2373552501
 20
6.3104127228
 30
0.0
 10
11.2299156633
 20
6.3136663338
 30
0.0
 10
11.2251324562
 20
6.3159302035
 30
0.0
 10
11.2228154642
 20
6.3170747636
 30
0.0
  0
SPLINE
  5
33A
100
AcDbEntity
  8
0
100
AcDbSpline
 62
7
  6
CONTINUOUS
 70
0
 71
3
 72
9
 73
5
 74
0
 42
0.0000001
 43
0.0000001
 44
0.0000000001
 40
0.0
 40
0.0
 40
0.0
 40
0.0
 40
0.5132482879
 40
1.0
 40
1.0
 40
1.0
 40
1.0
 10
11.2795032991
 20
6.7274781907
 30
0.0
 10
11.2722885177
 20
6.7291318866
 30
0.0
 10
11.2582722734
 20
6.7325357461
 30
0.0
 10
11.2443609716
 20
6.7363484064
 30
0.0
 10
11.2376230716
 20
6.7383175774
 30
0.0
  0
SPLINE
  5
33B
100
AcDbEntity
  8
0
100
AcDbSpline
 62
7
  6
CONTINUOUS
 70
0
 71
3
 72
17
 73
13
 74
0
 42
0.0000001
 43
0.0000001
 44
0.0000000001
 40
0.0
 40
0.0
 40
0.0
 40
0.0
 40
0.131593939
 40
0.2633887997
 40
0.3943193775
 40
0.5233296479
 40
0.64938366
 40
0.7714770019
 40
0.8307377895
 40
0.888652
 40
0.9451084391
 40
1.0
 40
1.0
 40
1.0
 40
1.0
 10
11.6509171416
 20
6.771663033
 30
0.0
 10
11.6376837352
 20
6.7712824107
 30
0.0
 10
11.6111863355
 20
6.7708439807
 30
0.0
 10
11.571513701
 20
6.7711407118
 30
0.0
 10
11.532119287
 20
6.7723870274
 30
0.0
 10
11.493344057
 20
6.7745718898
 30
0.0
 10
11.4555234611
 20
6.7776761
 30
0.0
 10
11.4247757681
 20
6.7810385203
 30
0.0
 10
11.4009098147
 20
6.7841823056
 30
0.0
 10
11.3836274525
 20
6.7867274356
 30
0.0
 10
11.3668218134
 20
6.7894775502
 30
0.0
 10
11.3557982106
 20
6.7914728815
 30
0.0
 10
11.3503733628
 20
6.7925058149
 30
0.0
  0
SPLINE
  5
33C
100
AcDbEntity
  8
0
100
AcDbSpline
 62
7
  6
CONTINUOUS
 70
0
 71
3
 72
9
 73
5
 74
0
 42
0.0000001
 43
0.0000001
 44
0.0000000001
 40
0.0
 40
0.0
 40
0.0
 40
0.0
 40
0.5132482879
 40
1.0
 40
1.0
 40
1.0
 40
1.0
 10
11.2795032991
 20
6.3068789649
 30
0.0
 10
11.2722885177
 20
6.3085326609
 30
0.0
 10
11.2582722734
 20
6.3119365203
 30
0.0
 10
11.2443609716
 20
6.3157491807
 30
0.0
 10
11.2376230716
 20
6.3177183517
 30
0.0
  0
SPLINE
  5
33D
100
AcDbEntity
  8
0
100
AcDbSpline
 62
7
  6
CONTINUOUS
 70
0
 71
3
 72
11
 73
7
 74
0
 42
0.0000001
 43
0.0000001
 44
0.0000000001
 40
0.0
 40
0.0
 40
0.0
 40
0.0
 40
0.2432253995
 40
0.4912799274
 40
0.7437055985
 40
1.0
 40
1.0
 40
1.0
 40
1.0
 10
11.8360239493
 20
6.7590337364
 30
0.0
 10
11.8293071172
 20
6.7550779632
 30
0.0
 10
11.8159788569
 20
6.7466771342
 30
0.0
 10
11.7964969748
 20
6.7329302399
 30
0.0
 10
11.7773259526
 20
6.7180620183
 30
0.0
 10
11.7648389603
 20
6.7075726289
 30
0.0
 10
11.7586387166
 20
6.7021850197
 30
0.0
  0
SPLINE
  5
33E
100
AcDbEntity
  8
0
100
AcDbSpline
 62
7
  6
CONTINUOUS
 70
0
 71
3
 72
21
 73
17
 74
0
 42
0.0000001
 43
0.0000001
 44
0.0000000001
 40
0.0
 40
0.0
 40
0.0
 40
0.0
 40
0.1230814817
 40
0.1847942657
 40
0.2466337258
 40
0.3086097846
 40
0.3707312098
 40
0.4330051319
 40
0.4954352436
 40
0.5580223626
 40
0.6207641208
 40
0.6836547008
 40
0.7466862848
 40
0.8098488395
 40
0.8731308835
 40
1.0
 40
1.0
 40
1.0
 40
1.0
 10
11.701429278
 20
6.2776182989
 30
0.0
 10
11.6841766374
 20
6.2743659155
 30
0.0
 10
11.6581454998
 20
6.270115197
 30
0.0
 10
11.6232089096
 20
6.2659478476
 30
0.0
 10
11.596842212
 20
6.2636258012
 30
0.0
 10
11.5703551452
 20
6.2621661011
 30
0.0
 10
11.5437710861
 20
6.2616159593
 30
0.0
 10
11.5171192218
 20
6.2620123909
 30
0.0
 10
11.4904327289
 20
6.2633773786
 30
0.0
 10
11.4637469571
 20
6.2657162021
 30
0.0
 10
11.437097254
 20
6.2690184914
 30
0.0
 10
11.4105165899
 20
6.2732575111
 30
0.0
 10
11.3840337466
 20
6.2783921523
 30
0.0
 10
11.3576718692
 20
6.2843719002
 30
0.0
 10
11.3226811947
 20
6.2934010198
 30
0.0
 10
11.2967027362
 20
6.3012510411
 30
0.0
 10
11.2795032991
 20
6.3068789649
 30
0.0
  0
SPLINE
  5
33F
100
AcDbEntity
  8
0
100
AcDbSpline
 62
7
  6
CONTINUOUS
 70
0
 71
3
 72
28
 73
24
 74
0
 42
0.0000001
 43
0.0000001
 44
0.0000000001
 40
0.0
 40
0.0
 40
0.0
 40
0.0
 40
0.0640274484
 40
0.1279405369
 40
0.1917105404
 40
0.2553123355
 40
0.3187161223
 40
0.3818930725
 40
0.4133919091
 40
0.4448254452
 40
0.4761912782
 40
0.5074882562
 40
0.5387156619
 40
0.5698732312
 40
0.6009621492
 40
0.6319833386
 40
0.6938248821
 40
0.7554274775
 40
0.8168179251
 40
0.8780243018
 40
0.9085700262
 40
0.9390802882
 40
1.0
 40
1.0
 40
1.0
 40
1.0
 10
11.701429278
 20
6.6982175246
 30
0.0
 10
11.6931284273
 20
6.7025006483
 30
0.0
 10
11.6763973676
 20
6.7107840356
 30
0.0
 10
11.6508782013
 20
6.722246022
 30
0.0
 10
11.624954423
 20
6.7326002844
 30
0.0
 10
11.5986412479
 20
6.7417023404
 30
0.0
 10
11.5719734182
 20
6.7494058148
 30
0.0
 10
11.5494779861
 20
6.7545500467
 30
0.0
 10
11.531373914
 20
6.7578371021
 30
0.0
 10
11.5177666586
 20
6.7598758288
 30
0.0
 10
11.504131331
 20
6.761482506
 30
0.0
 10
11.4904814799
 20
6.7626495829
 30
0.0
 10
11.4768315465
 20
6.7633767327
 30
0.0
 10
11.4631956391
 20
6.7636622651
 30
0.0
 10
11.4495875897
 20
6.7635117916
 30
0.0
 10
11.4315187653
 20
6.762738516
 30
0.0
 10
11.4090592758
 20
6.7607231122
 30
0.0
 10
11.382378319
 20
6.7567220057
 30
0.0
 10
11.3560519573
 20
6.7512712914
 30
0.0
 10
11.3344234847
 20
6.7456354665
 30
0.0
 10
11.3173278898
 20
6.7405441084
 30
0.0
 10
11.3003873686
 20
6.7350938803
 30
0.0
 10
11.2878185241
 20
6.7306154057
 30
0.0
 10
11.2795032991
 20
6.7274781907
 30
0.0
  0
SPLINE
  5
340
100
AcDbEntity
  8
0
100
AcDbSpline
 62
7
  6
CONTINUOUS
 70
0
 71
3
 72
13
 73
9
 74
0
 42
0.0000001
 43
0.0000001
 44
0.0000000001
 40
0.0
 40
0.0
 40
0.0
 40
0.0
 40
0.2392401476
 40
0.3604630295
 40
0.4832816768
 40
0.6081576999
 40
0.7355839368
 40
1.0
 40
1.0
 40
1.0
 40
1.0
 10
11.2376230716
 20
6.3177183517
 30
0.0
 10
11.2350510601
 20
6.3177275038
 30
0.0
 10
11.2311718337
 20
6.3179463957
 30
0.0
 10
11.2260254741
 20
6.3186752135
 30
0.0
 10
11.2221347149
 20
6.3194569521
 30
0.0
 10
11.2182316966
 20
6.3204816833
 30
0.0
 10
11.2129484779
 20
6.3222058881
 30
0.0
 10
11.2090640815
 20
6.3238676069
 30
0.0
 10
11.206515405
 20
6.3251266269
 30
0.0
  0
SPLINE
  5
341
100
AcDbEntity
  8
0
100
AcDbSpline
 62
7
  6
CONTINUOUS
 70
0
 71
3
 72
14
 73
10
 74
0
 42
0.0000001
 43
0.0000001
 44
0.0000000001
 40
0.0
 40
0.0
 40
0.0
 40
0.0
 40
0.2696294493
 40
0.4000826278
 40
0.5273422312
 40
0.6511852899
 40
0.7713928731
 40
0.8877388029
 40
1.0
 40
1.0
 40
1.0
 40
1.0
 10
11.2376230716
 20
6.7383175774
 30
0.0
 10
11.2353828618
 20
6.7442155809
 30
0.0
 10
11.2319718618
 20
6.7529348182
 30
0.0
 10
11.2272606745
 20
6.7643397509
 30
0.0
 10
11.2237380573
 20
6.7725439083
 30
0.0
 10
11.2201874299
 20
6.7804740638
 30
0.0
 10
11.2166091507
 20
6.78811078
 30
0.0
 10
11.2130041011
 20
6.7954340503
 30
0.0
 10
11.2105379331
 20
6.8001815081
 30
0.0
 10
11.2092980831
 20
6.8024973189
 30
0.0
  0
SPLINE
  5
342
100
AcDbEntity
  8
0
100
AcDbSpline
 62
7
  6
CONTINUOUS
 70
0
 71
3
 72
15
 73
11
 74
0
 42
0.0000001
 43
0.0000001
 44
0.0000000001
 40
0.0
 40
0.0
 40
0.0
 40
0.0
 40
0.1319943798
 40
0.2615530082
 40
0.3887795478
 40
0.5138991626
 40
0.6372282088
 40
0.759125931
 40
0.8799459217
 40
1.0
 40
1.0
 40
1.0
 40
1.0
 10
11.9843023616
 20
6.3176636997
 30
0.0
 10
11.9749803544
 20
6.3136014175
 30
0.0
 10
11.9562794724
 20
6.3060622345
 30
0.0
 10
11.9278409127
 20
6.2966007939
 30
0.0
 10
11.8993449249
 20
6.2891874183
 30
0.0
 10
11.8708764255
 20
6.283848544
 30
0.0
 10
11.8425164758
 20
6.2805336715
 30
0.0
 10
11.8143322091
 20
6.2791257434
 30
0.0
 10
11.7863710472
 20
6.2794610795
 30
0.0
 10
11.7678474202
 20
6.2807254085
 30
0.0
 10
11.7586387166
 20
6.281585794
 30
0.0
  0
SPLINE
  5
343
100
AcDbEntity
  8
0
100
AcDbSpline
 62
7
  6
CONTINUOUS
 70
0
 71
3
 72
86
 73
82
 74
0
 42
0.0000001
 43
0.0000001
 44
0.0000000001
 40
0.0
 40
0.0
 40
0.0
 40
0.0
 40
0.0039801735
 40
0.0081241171
 40
0.0124359931
 40
0.016919361
 40
0.0215772361
 40
0.0264119817
 40
0.0314252561
 40
0.0366182449
 40
0.0419916453
 40
0.0475457694
 40
0.0532805541
 40
0.0591955582
 40
0.0652900785
 40
0.0715630739
 40
0.0846387684
 40
0.0984101018
 40
0.112860694
 40
0.1279712428
 40
0.1437198619
 40
0.1600823544
 40
0.1770324406
 40
0.1945419645
 40
0.2125810668
 40
0.2311183398
 40
0.2501209668
 40
0.2695548486
 40
0.289384725
 40
0.3095742955
 40
0.3300863312
 40
0.3508827821
 40
0.3719248818
 40
0.3931732491
 40
0.4145879914
 40
0.4577543474
 40
0.501099203
 40
0.5442952951
 40
0.5657359749
 40
0.587017582
 40
0.6081001434
 40
0.6289441761
 40
0.6495107926
 40
0.6697618048
 40
0.6896598276
 40
0.709168385
 40
0.7282520204
 40
0.7468764117
 40
0.7650084972
 40
0.7826166038
 40
0.7996705814
 40
0.8161419537
 40
0.8320040874
 40
0.8472323859
 40
0.8618045214
 40
0.8757007003
 40
0.8889039845
 40
0.9014006969
 40
0.9073810972
 40
0.9131815075
 40
0.9188013673
 40
0.9242405009
 40
0.9294990443
 40
0.9345775709
 40
0.9394770909
 40
0.9441990928
 40
0.9487456636
 40
0.9531194621
 40
0.9573238984
 40
0.9613631411
 40
0.9652422549
 40
0.9689673208
 40
0.9725454977
 40
0.9759852252
 40
0.9824864215
 40
0.9855752926
 40
0.9885737717
 40
0.9914977072
 40
0.9943643167
 40
0.9971920017
 40
1.0
 40
1.0
 40
1.0
 40
1.0
 10
11.211537751
 20
10.471162682
 30
0.0
 10
11.2105474736
 20
10.4702061474
 30
0.0
 10
11.2084812003
 20
10.4682998394
 30
0.0
 10
11.2052005885
 20
10.4655155259
 30
0.0
 10
11.2016790656
 20
10.4627511735
 30
0.0
 10
11.1979185647
 20
10.4600082714
 30
0.0
 10
11.1939209324
 20
10.4572880874
 30
0.0
 10
11.1896881134
 20
10.4545919586
 30
0.0
 10
11.1852222295
 20
10.4519211587
 30
0.0
 10
11.180525494
 20
10.4492770777
 30
0.0
 10
11.1756002762
 20
10.4466610006
 30
0.0
 10
11.1704490351
 20
10.4440742448
 30
0.0
 10
11.1650743467
 20
10.4415181195
 30
0.0
 10
11.1594789212
 20
10.4389938803
 30
0.0
 10
11.1536655501
 20
10.4365028261
 30
0.0
 10
11.1455146947
 20
10.4331813251
 30
0.0
 10
11.1347956366
 20
10.4291304342
 30
0.0
 10
11.1212841448
 20
10.4244860288
 30
0.0
 10
11.1069790132
 20
10.4200028835
 30
0.0
 10
11.0919090826
 20
10.4156901105
 30
0.0
 10
11.0761046041
 20
10.4115564893
 30
0.0
 10
11.0595974146
 20
10.4076104399
 30
0.0
 10
11.0424207938
 20
10.403859998
 30
0.0
 10
11.0246094063
 20
10.4003128028
 30
0.0
 10
11.0061992181
 20
10.3969760794
 30
0.0
 10
10.9872274216
 20
10.3938566235
 30
0.0
 10
10.9677323582
 20
10.3909607883
 30
0.0
 10
10.9477534403
 20
10.3882944699
 30
0.0
 10
10.9273310698
 20
10.3858630918
 30
0.0
 10
10.9065065521
 20
10.3836716003
 30
0.0
 10
10.8853220111
 20
10.3817244537
 30
0.0
 10
10.863820299
 20
10.3800256116
 30
0.0
 10
10.8420449266
 20
10.378578537
 30
0.0
 10
10.8200399142
 20
10.3773861495
 30
0.0
 10
10.790375773
 20
10.3761359649
 30
0.0
 10
10.7530495898
 20
10.3752278845
 30
0.0
 10
10.7081778065
 20
10.375180538
 30
0.0
 10
10.6708305327
 20
10.3760096928
 30
0.0
 10
10.6411330244
 20
10.3771968624
 30
0.0
 10
10.6190910254
 20
10.3783426507
 30
0.0
 10
10.5972705997
 20
10.3797436032
 30
0.0
 10
10.5757158599
 20
10.3813968972
 30
0.0
 10
10.5544704259
 20
10.3832991641
 30
0.0
 10
10.5335772742
 20
10.3854465342
 30
0.0
 10
10.5130786671
 20
10.3878346382
 30
0.0
 10
10.4930160638
 20
10.3904586175
 30
0.0
 10
10.4734300363
 20
10.3933131327
 30
0.0
 10
10.454360185
 20
10.3963923762
 30
0.0
 10
10.4358450539
 20
10.3996900779
 30
0.0
 10
10.4179220497
 20
10.4031995202
 30
0.0
 10
10.4006273658
 20
10.4069135545
 30
0.0
 10
10.3839959063
 20
10.410824615
 30
0.0
 10
10.3680612119
 20
10.4149247352
 30
0.0
 10
10.3528553769
 20
10.4192055672
 30
0.0
 10
10.3384089954
 20
10.4236583954
 30
0.0
 10
10.3247510057
 20
10.4282741661
 30
0.0
 10
10.311908908
 20
10.4330435086
 30
0.0
 10
10.3017648118
 20
10.4371965018
 30
0.0
 10
10.2940851939
 20
10.4405961683
 30
0.0
 10
10.2886298858
 20
10.4431408489
 30
0.0
 10
10.2833970669
 20
10.4457166238
 30
0.0
 10
10.2783893375
 20
10.4483221741
 30
0.0
 10
10.2736092216
 20
10.4509562287
 30
0.0
 10
10.2690591028
 20
10.453617455
 30
0.0
 10
10.2647412477
 20
10.4563045224
 30
0.0
 10
10.2606578263
 20
10.4590161372
 30
0.0
 10
10.256810843
 20
10.4617509169
 30
0.0
 10
10.2532022421
 20
10.464507586
 30
0.0
 10
10.249833791
 20
10.4672847751
 30
0.0
 10
10.2467071837
 20
10.4700811742
 30
0.0
 10
10.2438239816
 20
10.4728955093
 30
0.0
 10
10.241185675
 20
10.4757263444
 30
0.0
 10
10.2387934619
 20
10.4785727833
 30
0.0
 10
10.2359871131
 20
10.4823154727
 30
0.0
 10
10.2336041009
 20
10.4861590801
 30
0.0
 10
10.2317120612
 20
10.4900847392
 30
0.0
 10
10.2305689159
 20
10.492988067
 30
0.0
 10
10.229678662
 20
10.495898445
 30
0.0
 10
10.229042128
 20
10.4988144891
 30
0.0
 10
10.2286599064
 20
10.5017340934
 30
0.0
 10
10.2285748173
 20
10.5036846233
 30
0.0
 10
10.2285748129
 20
10.5046559584
 30
0.0
  0
SPLINE
  5
344
100
AcDbEntity
  8
0
100
AcDbSpline
 62
7
  6
CONTINUOUS
 70
0
 71
3
 72
19
 73
15
 74
0
 42
0.0000001
 43
0.0000001
 44
0.0000000001
 40
0.0
 40
0.0
 40
0.0
 40
0.0
 40
0.150460937
 40
0.2916987357
 40
0.424419542
 40
0.4878837275
 40
0.5495802504
 40
0.6682271673
 40
0.7255606103
 40
0.7817998831
 40
0.8371466721
 40
0.8918135967
 40
0.94602219
 40
1.0
 40
1.0
 40
1.0
 40
1.0
 10
12.4488888253
 20
9.3508455073
 30
0.0
 10
12.4502797571
 20
9.3521890443
 30
0.0
 10
12.4530597076
 20
9.354709902
 30
0.0
 10
12.4573641927
 20
9.3580692341
 30
0.0
 10
12.4610000077
 20
9.3604451406
 30
0.0
 10
12.4638993377
 20
9.3620540361
 30
0.0
 10
12.4667131327
 20
9.3634353071
 30
0.0
 10
12.4695598726
 20
9.3645643722
 30
0.0
 10
12.4724226284
 20
9.3654139988
 30
0.0
 10
12.4745392719
 20
9.3659037286
 30
0.0
 10
12.4766488692
 20
9.366252786
 30
0.0
 10
12.4787508632
 20
9.3664609981
 30
0.0
 10
12.4808444041
 20
9.3665282844
 30
0.0
 10
12.4822352931
 20
9.366479094
 30
0.0
 10
12.4829273995
 20
9.3664310963
 30
0.0
  0
SPLINE
  5
345
100
AcDbEntity
  8
0
100
AcDbSpline
 62
7
  6
CONTINUOUS
 70
0
 71
3
 72
21
 73
17
 74
0
 42
0.0000001
 43
0.0000001
 44
0.0000000001
 40
0.0
 40
0.0
 40
0.0
 40
0.0
 40
0.1273176366
 40
0.2537999756
 40
0.3167619475
 40
0.3795355041
 40
0.4421314991
 40
0.5045621439
 40
0.5668413432
 40
0.6289845283
 40
0.6910084528
 40
0.7529310935
 40
0.8147714495
 40
0.8765493365
 40
0.9382852194
 40
1.0
 40
1.0
 40
1.0
 40
1.0
 10
11.487340424
 20
9.982232838
 30
0.0
 10
11.487340424
 20
9.9769355881
 30
0.0
 10
11.4868347666
 20
9.9663690238
 30
0.0
 10
11.4849250625
 20
9.9533064674
 30
0.0
 10
11.4826425415
 20
9.9430600338
 30
0.0
 10
11.480561005
 20
9.9355022607
 30
0.0
 10
11.4781122174
 20
9.9280787767
 30
0.0
 10
11.4753017896
 20
9.9208064968
 30
0.0
 10
11.4721362222
 20
9.9137022349
 30
0.0
 10
11.4686227709
 20
9.9067823746
 30
0.0
 10
11.4647695176
 20
9.9000628903
 30
0.0
 10
11.460585371
 20
9.8935592583
 30
0.0
 10
11.4560799687
 20
9.8872865056
 30
0.0
 10
11.4512636214
 20
9.8812590737
 30
0.0
 10
11.4461476628
 20
9.8754910271
 30
0.0
 10
11.4425444596
 20
9.8718267871
 30
0.0
 10
11.4406976008
 20
9.8700428582
 30
0.0
  0
SPLINE
  5
346
100
AcDbEntity
  8
0
100
AcDbSpline
 62
7
  6
CONTINUOUS
 70
0
 71
3
 72
21
 73
17
 74
0
 42
0.0000001
 43
0.0000001
 44
0.0000000001
 40
0.0
 40
0.0
 40
0.0
 40
0.0
 40
0.1273176366
 40
0.2537999756
 40
0.3167619475
 40
0.3795355041
 40
0.4421314991
 40
0.5045621439
 40
0.5668413432
 40
0.6289845283
 40
0.6910084528
 40
0.7529310935
 40
0.8147714495
 40
0.8765493365
 40
0.9382852194
 40
1.0
 40
1.0
 40
1.0
 40
1.0
 10
10.5214145405
 20
7.1514423462
 30
0.0
 10
10.5214145405
 20
7.1461450962
 30
0.0
 10
10.5209088831
 20
7.135578532
 30
0.0
 10
10.518999179
 20
7.1225159756
 30
0.0
 10
10.516716658
 20
7.1122695419
 30
0.0
 10
10.5146351215
 20
7.1047117688
 30
0.0
 10
10.5121863339
 20
7.0972882849
 30
0.0
 10
10.5093759061
 20
7.090016005
 30
0.0
 10
10.5062103387
 20
7.0829117431
 30
0.0
 10
10.5026968873
 20
7.0759918827
 30
0.0
 10
10.4988436341
 20
7.0692723985
 30
0.0
 10
10.4946594875
 20
7.0627687665
 30
0.0
 10
10.4901540852
 20
7.0564960138
 30
0.0
 10
10.4853377379
 20
7.0504685819
 30
0.0
 10
10.4802217793
 20
7.0447005353
 30
0.0
 10
10.476618576
 20
7.0410362953
 30
0.0
 10
10.4747717172
 20
7.0392523664
 30
0.0
  0
SPLINE
  5
347
100
AcDbEntity
  8
0
100
AcDbSpline
 62
7
  6
CONTINUOUS
 70
0
 71
3
 72
15
 73
11
 74
0
 42
0.0000001
 43
0.0000001
 44
0.0000000001
 40
0.0
 40
0.0
 40
0.0
 40
0.0
 40
0.1250403866
 40
0.2500921959
 40
0.3751626431
 40
0.5002440021
 40
0.6253130837
 40
0.7503325146
 40
0.8752501369
 40
1.0
 40
1.0
 40
1.0
 40
1.0
 10
10.7300387667
 20
7.8097178722
 30
0.0
 10
10.7300387667
 20
7.8058282927
 30
0.0
 10
10.7302779443
 20
7.7980466566
 30
0.0
 10
10.7313534698
 20
7.7864192518
 30
0.0
 10
10.7331433176
 20
7.7748784082
 30
0.0
 10
10.7356433376
 20
7.7634698103
 30
0.0
 10
10.7388473475
 20
7.7522401323
 30
0.0
 10
10.7427468234
 20
7.7412377541
 30
0.0
 10
10.7473298356
 20
7.7305132825
 30
0.0
 10
10.7508345443
 20
7.7235756323
 30
0.0
 10
10.7526954095
 20
7.7201703732
 30
0.0
  0
SPLINE
  5
348
100
AcDbEntity
  8
0
100
AcDbSpline
 62
7
  6
CONTINUOUS
 70
0
 71
3
 72
34
 73
30
 74
0
 42
0.0000001
 43
0.0000001
 44
0.0000000001
 40
0.0
 40
0.0
 40
0.0
 40
0.0
 40
0.0309194861
 40
0.0617736404
 40
0.0925919495
 40
0.1234088182
 40
0.1542563169
 40
0.185166469
 40
0.2472889159
 40
0.3100498056
 40
0.3737145767
 40
0.4385552684
 40
0.4715017169
 40
0.5048309943
 40
0.572658296
 40
0.6071068558
 40
0.6417940623
 40
0.6765470633
 40
0.7111129297
 40
0.7451749981
 40
0.7784002193
 40
0.8105032031
 40
0.8412981878
 40
0.8707158536
 40
0.8987866376
 40
0.9256087844
 40
0.9513177402
 40
0.9760641289
 40
1.0
 40
1.0
 40
1.0
 40
1.0
 10
10.7691346571
 20
7.7128200056
 30
0.0
 10
10.771075115
 20
7.7104058495
 30
0.0
 10
10.7750827683
 20
7.7056862523
 30
0.0
 10
10.7814499842
 20
7.6989362842
 30
0.0
 10
10.7881420519
 20
7.692523085
 30
0.0
 10
10.7951371223
 20
7.6864434159
 30
0.0
 10
10.8024162849
 20
7.6806922319
 30
0.0
 10
10.8124929281
 20
7.6734433747
 30
0.0
 10
10.825744876
 20
7.6651625048
 30
0.0
 10
10.8425273877
 20
7.6564577996
 30
0.0
 10
10.8601538435
 20
7.6489065284
 30
0.0
 10
10.8754292325
 20
7.6435556795
 30
0.0
 10
10.8880147063
 20
7.6397921752
 30
0.0
 10
10.9009955689
 20
7.636327204
 30
0.0
 10
10.9142658345
 20
7.6333867654
 30
0.0
 10
10.92776677
 20
7.6309382302
 30
0.0
 10
10.9380509266
 20
7.6293365206
 30
0.0
 10
10.948382197
 20
7.6279818135
 30
0.0
 10
10.9586804608
 20
7.626879354
 30
0.0
 10
10.9688496282
 20
7.626035994
 30
0.0
 10
10.9787903338
 20
7.6254589459
 30
0.0
 10
10.9884158112
 20
7.6251544786
 30
0.0
 10
10.997664823
 20
7.625127059
 30
0.0
 10
11.0065065731
 20
7.6253793077
 30
0.0
 10
11.0149373411
 20
7.6259126512
 30
0.0
 10
11.0229724058
 20
7.6267281914
 30
0.0
 10
11.030637625
 20
7.6278274715
 30
0.0
 10
11.037962355
 20
7.6292127199
 30
0.0
 10
11.0427079841
 20
7.6303458108
 30
0.0
 10
11.0450252688
 20
7.63096181
 30
0.0
  0
SPLINE
  5
349
100
AcDbEntity
  8
0
100
AcDbSpline
 62
7
  6
CONTINUOUS
 70
0
 71
3
 72
21
 73
17
 74
0
 42
0.0000001
 43
0.0000001
 44
0.0000000001
 40
0.0
 40
0.0
 40
0.0
 40
0.0
 40
0.12731758
 40
0.2538000122
 40
0.3167619425
 40
0.3795355005
 40
0.4421315041
 40
0.5045621466
 40
0.5668413435
 40
0.6289845285
 40
0.6910084568
 40
0.7529310961
 40
0.8147714484
 40
0.8765493394
 40
0.9382852242
 40
1.0
 40
1.0
 40
1.0
 40
1.0
 10
11.0599070911
 20
7.706346225
 30
0.0
 10
11.0599070911
 20
7.6998478565
 30
0.0
 10
11.0592867756
 20
7.6868853821
 30
0.0
 10
11.0569440661
 20
7.6708609637
 30
0.0
 10
11.0541439902
 20
7.6582912075
 30
0.0
 10
11.0515904699
 20
7.649019756
 30
0.0
 10
11.0485864455
 20
7.6399130347
 30
0.0
 10
11.0451387662
 20
7.630991807
 30
0.0
 10
11.0412554126
 20
7.6222766996
 30
0.0
 10
11.036945316
 20
7.6137877952
 30
0.0
 10
11.0322183633
 20
7.605544703
 30
0.0
 10
11.027085471
 20
7.5975664183
 30
0.0
 10
11.0215584956
 20
7.5898713542
 30
0.0
 10
11.0156500839
 20
7.5824772234
 30
0.0
 10
11.0093740918
 20
7.5754013215
 30
0.0
 10
11.0049538896
 20
7.570906229
 30
0.0
 10
11.0026882602
 20
7.5687178107
 30
0.0
  0
SPLINE
  5
34A
100
AcDbEntity
  8
0
100
AcDbSpline
 62
7
  6
CONTINUOUS
 70
0
 71
3
 72
41
 73
37
 74
0
 42
0.0000001
 43
0.0000001
 44
0.0000000001
 40
0.0
 40
0.0
 40
0.0
 40
0.0
 40
0.0310750003
 40
0.046674464
 40
0.062312494
 40
0.0936974057
 40
0.1252262387
 40
0.1568876805
 40
0.1886675201
 40
0.2205491599
 40
0.2525139229
 40
0.268523588
 40
0.2845462912
 40
0.3166149974
 40
0.3487024468
 40
0.3807858411
 40
0.4128424624
 40
0.4448501254
 40
0.4767876212
 40
0.5086351486
 40
0.5403747235
 40
0.5719905626
 40
0.6034694315
 40
0.6348009518
 40
0.6659778585
 40
0.6969962
 40
0.7278554736
 40
0.7585586902
 40
0.7891123605
 40
0.8195263996
 40
0.849813947
 40
0.8799911023
 40
0.9100765789
 40
0.9400912834
 40
0.9700578297
 40
1.0
 40
1.0
 40
1.0
 40
1.0
 10
11.0599070911
 20
7.706346225
 30
0.0
 10
11.0599070911
 20
7.7113970852
 30
0.0
 10
11.0596247596
 20
7.7189872597
 30
0.0
 10
11.0586923251
 20
7.7290739706
 30
0.0
 10
11.0573857933
 20
7.739170338
 30
0.0
 10
11.0550567518
 20
7.7517360312
 30
0.0
 10
11.0511719077
 20
7.7666223755
 30
0.0
 10
11.046214955
 20
7.7812548441
 30
0.0
 10
11.0402132004
 20
7.7955527423
 30
0.0
 10
11.0331999534
 20
7.8094373521
 30
0.0
 10
11.0265472389
 20
7.8205957016
 30
0.0
 10
11.0207608544
 20
7.8292418426
 30
0.0
 10
11.0146679029
 20
7.8376955971
 30
0.0
 10
11.00650143
 20
7.8478661312
 30
0.0
 10
10.9958791658
 20
7.8593656443
 30
0.0
 10
10.9844885475
 20
7.8701022784
 30
0.0
 10
10.9723923595
 20
7.8800167044
 30
0.0
 10
10.9596569046
 20
7.8890545797
 30
0.0
 10
10.9463520802
 20
7.8971662209
 30
0.0
 10
10.9325508821
 20
7.9043070415
 30
0.0
 10
10.9183290406
 20
7.910437751
 30
0.0
 10
10.9037646025
 20
7.9155245817
 30
0.0
 10
10.8889375106
 20
7.9195394722
 30
0.0
 10
10.8739291706
 20
7.9224602242
 30
0.0
 10
10.8588220113
 20
7.9242706276
 30
0.0
 10
10.8436990373
 20
7.9249605553
 30
0.0
 10
10.8286433787
 20
7.9245260255
 30
0.0
 10
10.8137378384
 20
7.9229692317
 30
0.0
 10
10.7990644391
 20
7.9202985443
 30
0.0
 10
10.7847039698
 20
7.9165284715
 30
0.0
 10
10.7707355463
 20
7.9116795974
 30
0.0
 10
10.7572361428
 20
7.9057784525
 30
0.0
 10
10.7442802601
 20
7.8988574765
 30
0.0
 10
10.7319391304
 20
7.8909544782
 30
0.0
 10
10.7202817025
 20
7.8821137993
 30
0.0
 10
10.7130056279
 20
7.8756243689
 30
0.0
 10
10.7095051992
 20
7.8722432323
 30
0.0
  0
SPLINE
  5
34B
100
AcDbEntity
  8
0
100
AcDbSpline
 62
7
  6
CONTINUOUS
 70
0
 71
3
 72
18
 73
14
 74
0
 42
0.0000001
 43
0.0000001
 44
0.0000000001
 40
0.0
 40
0.0
 40
0.0
 40
0.0
 40
0.0548621106
 40
0.1099281304
 40
0.165399556
 40
0.2214731722
 40
0.2783387379
 40
0.3361775111
 40
0.4554063056
 40
0.5804414047
 40
0.7123341351
 40
0.8519581983
 40
1.0
 40
1.0
 40
1.0
 40
1.0
 10
11.2285748055
 20
10.5046565932
 30
0.0
 10
11.2285748087
 20
10.5039504472
 30
0.0
 10
11.2285299962
 20
10.5025351251
 30
0.0
 10
11.2283285
 20
10.5004144421
 30
0.0
 10
11.2279927496
 20
10.4982949828
 30
0.0
 10
11.2275228719
 20
10.4961775206
 30
0.0
 10
11.2269190649
 20
10.4940625844
 30
0.0
 10
11.2259259143
 20
10.491218566
 30
0.0
 10
11.2243348972
 20
10.4876614636
 30
0.0
 10
11.2219132639
 20
10.4834605074
 30
0.0
 10
11.2189638313
 20
10.4792867368
 30
0.0
 10
11.2154910864
 20
10.4751443581
 30
0.0
 10
11.2129082823
 20
10.4724865137
 30
0.0
 10
11.211537751
 20
10.471162682
 30
0.0
  0
SPLINE
  5
34C
100
AcDbEntity
  8
0
100
AcDbSpline
 62
7
  6
CONTINUOUS
 70
0
 71
3
 72
15
 73
11
 74
0
 42
0.0000001
 43
0.0000001
 44
0.0000000001
 40
0.0
 40
0.0
 40
0.0
 40
0.0
 40
0.1263002801
 40
0.2520664912
 40
0.3773706276
 40
0.5022997573
 40
0.6269457515
 40
0.7513954617
 40
0.8757268497
 40
1.0
 40
1.0
 40
1.0
 40
1.0
 10
10.7552862768
 20
7.9045421961
 30
0.0
 10
10.7532239204
 20
7.9009098224
 30
0.0
 10
10.7493333733
 20
7.8935295897
 30
0.0
 10
10.7442241554
 20
7.8821339621
 30
0.0
 10
10.7398735873
 20
7.8704754206
 30
0.0
 10
10.736297122
 20
7.8585953685
 30
0.0
 10
10.7335056851
 20
7.8465357439
 30
0.0
 10
10.731506938
 20
7.8343396082
 30
0.0
 10
10.730305897
 20
7.8220522189
 30
0.0
 10
10.7300387667
 20
7.8138278456
 30
0.0
 10
10.7300387667
 20
7.8097178722
 30
0.0
  0
SPLINE
  5
34D
100
AcDbEntity
  8
0
100
AcDbSpline
 62
7
  6
CONTINUOUS
 70
0
 71
3
 72
42
 73
38
 74
0
 42
0.0000001
 43
0.0000001
 44
0.0000000001
 40
0.0
 40
0.0
 40
0.0
 40
0.0
 40
0.0299419663
 40
0.0449235352
 40
0.0599142051
 40
0.0899287052
 40
0.1200139767
 40
0.135092661
 40
0.150196701
 40
0.1804840414
 40
0.210897872
 40
0.2414513324
 40
0.2721543376
 40
0.3030133986
 40
0.3340315263
 40
0.3652082187
 40
0.3965395244
 40
0.4280181782
 40
0.4596338019
 40
0.4913731609
 40
0.5232204716
 40
0.55515775
 40
0.5871651943
 40
0.6192215961
 40
0.6513047701
 40
0.6833919991
 40
0.7154604852
 40
0.7474878032
 40
0.7794523473
 40
0.8113337692
 40
0.8431133916
 40
0.8747746171
 40
0.9063032365
 40
0.9376879249
 40
0.9533258257
 40
0.968925233
 40
1.0
 40
1.0
 40
1.0
 40
1.0
 10
11.2017047434
 20
10.1174664103
 30
0.0
 10
11.2045581661
 20
10.1202226054
 30
0.0
 10
11.209006475
 20
10.1241899127
 30
0.0
 10
11.2152362624
 20
10.1291124518
 30
0.0
 10
11.2216644239
 20
10.1337900586
 30
0.0
 10
11.2300521325
 20
10.1391614602
 30
0.0
 10
11.2388476667
 20
10.1438598753
 30
0.0
 10
11.2461016882
 20
10.1472023753
 30
0.0
 10
11.2535055842
 20
10.150268893
 30
0.0
 10
11.263004428
 20
10.1535663195
 30
0.0
 10
11.2747103278
 20
10.1566394321
 30
0.0
 10
11.2866716543
 20
10.1588165163
 30
0.0
 10
11.2988221226
 20
10.1600855534
 30
0.0
 10
11.3110949867
 20
10.160439773
 30
0.0
 10
11.3234227178
 20
10.1598773715
 30
0.0
 10
11.3357375596
 20
10.1584015976
 30
0.0
 10
11.3479718474
 20
10.1560207049
 30
0.0
 10
11.3600583884
 20
10.1527479065
 30
0.0
 10
11.3719308228
 20
10.1486012975
 30
0.0
 10
11.3835239837
 20
10.1436037521
 30
0.0
 10
11.3947742493
 20
10.1377827968
 30
0.0
 10
11.4056198879
 20
10.1311704594
 30
0.0
 10
11.4160013918
 20
10.1238030923
 30
0.0
 10
11.4258617998
 20
10.1157211738
 30
0.0
 10
11.4351470055
 20
10.1069690877
 30
0.0
 10
11.4438060516
 20
10.0975948815
 30
0.0
 10
11.451791406
 20
10.0876500054
 30
0.0
 10
11.4590592202
 20
10.0771890321
 30
0.0
 10
11.4655695682
 20
10.0662693639
 30
0.0
 10
11.4712866637
 20
10.0549509087
 30
0.0
 10
11.4761790549
 20
10.0432958021
 30
0.0
 10
11.4802198042
 20
10.0313678985
 30
0.0
 10
11.4833865929
 20
10.0192330624
 30
0.0
 10
11.4852851499
 20
10.0089899408
 30
0.0
 10
11.4863501874
 20
10.0007597235
 30
0.0
 10
11.4871102769
 20
9.9925373797
 30
0.0
 10
11.487340424
 20
9.9863501243
 30
0.0
 10
11.487340424
 20
9.982232838
 30
0.0
  0
SPLINE
  5
34E
100
AcDbEntity
  8
0
100
AcDbSpline
 62
7
  6
CONTINUOUS
 70
0
 71
3
 72
42
 73
38
 74
0
 42
0.0000001
 43
0.0000001
 44
0.0000000001
 40
0.0
 40
0.0
 40
0.0
 40
0.0
 40
0.0299419663
 40
0.0449235352
 40
0.0599142051
 40
0.0899287052
 40
0.1200139767
 40
0.135092661
 40
0.150196701
 40
0.1804840414
 40
0.210897872
 40
0.2414513324
 40
0.2721543376
 40
0.3030133986
 40
0.3340315263
 40
0.3652082187
 40
0.3965395244
 40
0.4280181782
 40
0.4596338019
 40
0.4913731609
 40
0.5232204716
 40
0.55515775
 40
0.5871651943
 40
0.6192215961
 40
0.6513047701
 40
0.6833919991
 40
0.7154604852
 40
0.7474878032
 40
0.7794523473
 40
0.8113337692
 40
0.8431133916
 40
0.8747746171
 40
0.9063032365
 40
0.9376879249
 40
0.9533258257
 40
0.968925233
 40
1.0
 40
1.0
 40
1.0
 40
1.0
 10
10.2357788599
 20
7.2866759185
 30
0.0
 10
10.2386322826
 20
7.2894321136
 30
0.0
 10
10.2430805915
 20
7.2933994209
 30
0.0
 10
10.2493103789
 20
7.29832196
 30
0.0
 10
10.2557385403
 20
7.3029995668
 30
0.0
 10
10.2641262489
 20
7.3083709684
 30
0.0
 10
10.2729217831
 20
7.3130693834
 30
0.0
 10
10.2801758046
 20
7.3164118835
 30
0.0
 10
10.2875797007
 20
7.3194784012
 30
0.0
 10
10.2970785445
 20
7.3227758277
 30
0.0
 10
10.3087844443
 20
7.3258489403
 30
0.0
 10
10.3207457707
 20
7.3280260245
 30
0.0
 10
10.3328962391
 20
7.3292950616
 30
0.0
 10
10.3451691031
 20
7.3296492812
 30
0.0
 10
10.3574968342
 20
7.3290868797
 30
0.0
 10
10.3698116761
 20
7.3276111058
 30
0.0
 10
10.3820459638
 20
7.325230213
 30
0.0
 10
10.3941325049
 20
7.3219574147
 30
0.0
 10
10.4060049393
 20
7.3178108057
 30
0.0
 10
10.4175981002
 20
7.3128132602
 30
0.0
 10
10.4288483658
 20
7.306992305
 30
0.0
 10
10.4396940044
 20
7.3003799676
 30
0.0
 10
10.4500755083
 20
7.2930126005
 30
0.0
 10
10.4599359162
 20
7.284930682
 30
0.0
 10
10.469221122
 20
7.2761785959
 30
0.0
 10
10.4778801681
 20
7.2668043897
 30
0.0
 10
10.4858655225
 20
7.2568595136
 30
0.0
 10
10.4931333367
 20
7.2463985403
 30
0.0
 10
10.4996436847
 20
7.2354788721
 30
0.0
 10
10.5053607802
 20
7.2241604169
 30
0.0
 10
10.5102531714
 20
7.2125053103
 30
0.0
 10
10.5142939207
 20
7.2005774067
 30
0.0
 10
10.5174607094
 20
7.1884425706
 30
0.0
 10
10.5193592663
 20
7.178199449
 30
0.0
 10
10.5204243039
 20
7.1699692317
 30
0.0
 10
10.5211843934
 20
7.1617468879
 30
0.0
 10
10.5214145405
 20
7.1555596325
 30
0.0
 10
10.5214145405
 20
7.1514423462
 30
0.0
  0
SPLINE
  5
34F
100
AcDbEntity
  8
0
100
AcDbSpline
 62
7
  6
CONTINUOUS
 70
0
 71
3
 72
85
 73
81
 74
0
 42
0.0000001
 43
0.0000001
 44
0.0000000001
 40
0.0
 40
0.0
 40
0.0
 40
0.0
 40
0.0027164321
 40
0.0054532385
 40
0.0082303085
 40
0.011066603
 40
0.0139798079
 40
0.0169861193
 40
0.0233311764
 40
0.0266975277
 40
0.0302054756
 40
0.033863392
 40
0.0376783486
 40
0.0416563264
 40
0.0458022472
 40
0.050120174
 40
0.0546133665
 40
0.0592843698
 40
0.0641351496
 40
0.0691670674
 40
0.0743810463
 40
0.0797775355
 40
0.0853565984
 40
0.0911179629
 40
0.0970609898
 40
0.1094877374
 40
0.1226269862
 40
0.1364646504
 40
0.1509834607
 40
0.1661633573
 40
0.1819818055
 40
0.1984140483
 40
0.2154333259
 40
0.233011069
 40
0.2511170619
 40
0.2697195894
 40
0.2887855696
 40
0.3082806737
 40
0.3281694478
 40
0.3484154285
 40
0.36898125
 40
0.3898287485
 40
0.4109190644
 40
0.4322127408
 40
0.4536698284
 40
0.4969118802
 40
0.5403202169
 40
0.5835675225
 40
0.6050291933
 40
0.6263287434
 40
0.6474262089
 40
0.6682821161
 40
0.6888575847
 40
0.7091144272
 40
0.7290152501
 40
0.748523559
 40
0.7676038654
 40
0.7862218038
 40
0.8043442504
 40
0.821939444
 40
0.838977118
 40
0.8554286471
 40
0.8712672105
 40
0.8864679851
 40
0.9010083612
 40
0.9148681946
 40
0.9280301198
 40
0.9404799413
 40
0.9464346146
 40
0.9522076736
 40
0.9577984609
 40
0.9632066809
 40
0.9684323855
 40
0.9734759888
 40
0.9783383641
 40
0.9830208263
 40
0.9875253632
 40
0.991854574
 40
0.996011563
 40
1.0
 40
1.0
 40
1.0
 40
1.0
 10
12.4148502511
 20
8.3847888489
 30
0.0
 10
12.4139319937
 20
8.3848525303
 30
0.0
 10
12.4120932956
 20
8.3850635016
 30
0.0
 10
12.4093586522
 20
8.385627986
 30
0.0
 10
12.4066446754
 20
8.3864404837
 30
0.0
 10
12.4039533251
 20
8.3875001542
 30
0.0
 10
12.4012858599
 20
8.3888061216
 30
0.0
 10
12.3976992649
 20
8.3909118704
 30
0.0
 10
12.3942273974
 20
8.3934898141
 30
0.0
 10
12.3908820621
 20
8.3964707746
 30
0.0
 10
12.388352977
 20
8.3989915476
 30
0.0
 10
12.3858552239
 20
8.4017513755
 30
0.0
 10
12.3833895441
 20
8.4047490756
 30
0.0
 10
12.3809572053
 20
8.4079831233
 30
0.0
 10
12.3785592506
 20
8.4114519058
 30
0.0
 10
12.3761968456
 20
8.4151537294
 30
0.0
 10
12.3738711118
 20
8.4190867702
 30
0.0
 10
12.3715831448
 20
8.4232490801
 30
0.0
 10
12.3693341068
 20
8.4276386237
 30
0.0
 10
12.3671250477
 20
8.4322532089
 30
0.0
 10
12.3649571041
 20
8.4370905639
 30
0.0
 10
12.362831327
 20
8.4421482772
 30
0.0
 10
12.3607487788
 20
8.4474238305
 30
0.0
 10
12.3587105039
 20
8.4529146079
 30
0.0
 10
12.3560129994
 20
8.4606341302
 30
0.0
 10
12.3527691411
 20
8.4708086952
 30
0.0
 10
12.3491243761
 20
8.4836555751
 30
0.0
 10
12.3456791836
 20
8.4972896476
 30
0.0
 10
12.3424405381
 20
8.5116836206
 30
0.0
 10
12.3394150242
 20
8.5268088207
 30
0.0
 10
12.3366087979
 20
8.5426349919
 30
0.0
 10
12.3340275696
 20
8.5591304437
 30
0.0
 10
12.3316765908
 20
8.5762621022
 30
0.0
 10
12.3295606466
 20
8.5939955933
 30
0.0
 10
12.3276840444
 20
8.612295316
 30
0.0
 10
12.3260506056
 20
8.6311245179
 30
0.0
 10
12.324663659
 20
8.6504453689
 30
0.0
 10
12.3235260284
 20
8.6702190395
 30
0.0
 10
12.3226400315
 20
8.6904057808
 30
0.0
 10
12.3220074766
 20
8.7109650089
 30
0.0
 10
12.3216296602
 20
8.7318553866
 30
0.0
 10
12.321507362
 20
8.7530349109
 30
0.0
 10
12.3216408523
 20
8.7744609808
 30
0.0
 10
12.3220298543
 20
8.7960905421
 30
0.0
 10
12.3228904599
 20
8.82521702
 30
0.0
 10
12.3245992423
 20
8.8618127943
 30
0.0
 10
12.3276367952
 20
8.905727164
 30
0.0
 10
12.3309830369
 20
8.9422130166
 30
0.0
 10
12.3341410948
 20
8.9711859225
 30
0.0
 10
12.3367341694
 20
8.9926690171
 30
0.0
 10
12.3395523966
 20
9.0139166787
 30
0.0
 10
12.342590121
 20
9.0348862107
 30
0.0
 10
12.3458412084
 20
9.055535438
 30
0.0
 10
12.3492991025
 20
9.0758228449
 30
0.0
 10
12.3529568268
 20
9.0957076438
 30
0.0
 10
12.3568070007
 20
9.1151498611
 30
0.0
 10
12.3608418549
 20
9.1341104182
 30
0.0
 10
12.3650532434
 20
9.1525512149
 30
0.0
 10
12.3694326588
 20
9.170435208
 30
0.0
 10
12.3739712539
 20
9.1877264864
 30
0.0
 10
12.3786598586
 20
9.2043903442
 30
0.0
 10
12.3834889982
 20
9.2203933539
 30
0.0
 10
12.3884489155
 20
9.2357034389
 30
0.0
 10
12.393529587
 20
9.250289954
 30
0.0
 10
12.3987207469
 20
9.264123734
 30
0.0
 10
12.4040119223
 20
9.2771772364
 30
0.0
 10
12.4093924433
 20
9.2894243406
 30
0.0
 10
12.4140075807
 20
9.2990763035
 30
0.0
 10
12.4177432932
 20
9.3063680408
 30
0.0
 10
12.420519029
 20
9.3115389001
 30
0.0
 10
12.4233089896
 20
9.3164906479
 30
0.0
 10
12.4261117918
 20
9.3212208284
 30
0.0
 10
12.4289260281
 20
9.3257270913
 30
0.0
 10
12.4317503299
 20
9.3300071771
 30
0.0
 10
12.4345832397
 20
9.3340589783
 30
0.0
 10
12.4374234168
 20
9.337880475
 30
0.0
 10
12.4402694695
 20
9.3414698223
 30
0.0
 10
12.4431200783
 20
9.3448252666
 30
0.0
 10
12.4459737141
 20
9.3479449861
 30
0.0
 10
12.4479167659
 20
9.3499065699
 30
0.0
 10
12.4488888253
 20
9.3508455073
 30
0.0
  0
SPLINE
  5
350
100
AcDbEntity
  8
0
100
AcDbSpline
 62
7
  6
CONTINUOUS
 70
0
 71
3
 72
69
 73
65
 74
0
 42
0.0000001
 43
0.0000001
 44
0.0000000001
 40
0.0
 40
0.0
 40
0.0
 40
0.0
 40
0.0027657402
 40
0.0055963553
 40
0.0085080911
 40
0.0115156967
 40
0.0178667996
 40
0.0212353113
 40
0.0247436653
 40
0.0283994338
 40
0.0322090038
 40
0.0361777958
 40
0.0403102804
 40
0.0446101029
 40
0.0490802516
 40
0.0537230166
 40
0.0585401382
 40
0.0687013017
 40
0.0795694665
 40
0.0911435793
 40
0.1034178049
 40
0.1163822484
 40
0.1300235546
 40
0.1443254217
 40
0.1592689411
 40
0.1748328378
 40
0.1909937689
 40
0.2077265353
 40
0.2250042061
 40
0.2427982797
 40
0.2610788599
 40
0.279814761
 40
0.2989735871
 40
0.318521885
 40
0.33842525
 40
0.379154494
 40
0.4208711548
 40
0.4632749119
 40
0.5060590493
 40
0.5489133288
 40
0.5915268684
 40
0.6335910135
 40
0.6748021886
 40
0.7148648384
 40
0.734376445
 40
0.7534952556
 40
0.772187907
 40
0.7904221276
 40
0.808166856
 40
0.8253923173
 40
0.842070154
 40
0.8581736158
 40
0.8736776688
 40
0.8885591508
 40
0.9027970236
 40
0.9163726233
 40
0.9292699066
 40
0.9414758331
 40
0.9529808904
 40
0.9637796861
 40
0.9738716562
 40
0.9832621515
 40
0.9919644655
 40
1.0
 40
1.0
 40
1.0
 40
1.0
 10
12.3924043401
 20
8.5702517905
 30
0.0
 10
12.3918433858
 20
8.5704165314
 30
0.0
 10
12.3907220049
 20
8.5707983724
 30
0.0
 10
12.3890703691
 20
8.5715146445
 30
0.0
 10
12.3874333845
 20
8.572379562
 30
0.0
 10
12.3852319422
 20
8.5737547136
 30
0.0
 10
12.3831020155
 20
8.5754122229
 30
0.0
 10
12.3810486296
 20
8.5773114313
 30
0.0
 10
12.3794963894
 20
8.5789091482
 30
0.0
 10
12.3779632539
 20
8.5806510868
 30
0.0
 10
12.3764496736
 20
8.5825365264
 30
0.0
 10
12.3749564006
 20
8.5845645504
 30
0.0
 10
12.3734840786
 20
8.5867341968
 30
0.0
 10
12.3720333568
 20
8.5890444225
 30
0.0
 10
12.3706049476
 20
8.5914941546
 30
0.0
 10
12.3691994668
 20
8.5940822194
 30
0.0
 10
12.3673235147
 20
8.5977819056
 30
0.0
 10
12.3650481747
 20
8.6027518977
 30
0.0
 10
12.3624662426
 20
8.6091440913
 30
0.0
 10
12.3599911265
 20
8.6160546165
 30
0.0
 10
12.3576275919
 20
8.6234702884
 30
0.0
 10
12.3553801959
 20
8.631377089
 30
0.0
 10
12.353253296
 20
8.6397599135
 30
0.0
 10
12.3512510442
 20
8.6486027166
 30
0.0
 10
12.3493773652
 20
8.6578885204
 30
0.0
 10
12.3476359109
 20
8.6675994536
 30
0.0
 10
12.3460300876
 20
8.6777168028
 30
0.0
 10
12.3445630488
 20
8.6882210566
 30
0.0
 10
12.3432376657
 20
8.6990919368
 30
0.0
 10
12.3420565233
 20
8.7103084423
 30
0.0
 10
12.341021938
 20
8.7218488994
 30
0.0
 10
12.3401359442
 20
8.7336910031
 30
0.0
 10
12.3394002719
 20
8.7458118488
 30
0.0
 10
12.3388163414
 20
8.758188014
 30
0.0
 10
12.338237292
 20
8.775127802
 30
0.0
 10
12.3379074087
 20
8.7967630641
 30
0.0
 10
12.3381293075
 20
8.823156142
 30
0.0
 10
12.338964689
 20
8.8499715134
 30
0.0
 10
12.3404072065
 20
8.8770018223
 30
0.0
 10
12.3424457599
 20
8.904038195
 30
0.0
 10
12.3450645991
 20
8.9308716496
 30
0.0
 10
12.3482433426
 20
8.9572948637
 30
0.0
 10
12.3519572949
 20
8.9831035448
 30
0.0
 10
12.355504469
 20
9.0041135361
 30
0.0
 10
12.3585958237
 20
9.0204589733
 30
0.0
 10
12.3610086287
 20
9.0323341472
 30
0.0
 10
12.3635313529
 20
9.0439102516
 30
0.0
 10
12.3661591206
 20
9.0551649234
 30
0.0
 10
12.3688868112
 20
9.0660764109
 30
0.0
 10
12.3717091273
 20
9.0766236328
 30
0.0
 10
12.3746205936
 20
9.0867862176
 30
0.0
 10
12.3776155398
 20
9.0965445584
 30
0.0
 10
12.3806881398
 20
9.105879843
 30
0.0
 10
12.3838324305
 20
9.1147740869
 30
0.0
 10
12.3870423039
 20
9.1232101871
 30
0.0
 10
12.3903115192
 20
9.1311719644
 30
0.0
 10
12.3936337447
 20
9.1386441851
 30
0.0
 10
12.3970025816
 20
9.1456126033
 30
0.0
 10
12.4004115441
 20
9.1520640265
 30
0.0
 10
12.4038541636
 20
9.1579863405
 30
0.0
 10
12.407323967
 20
9.1633684622
 30
0.0
 10
12.4108147672
 20
9.1682007138
 30
0.0
 10
12.4143200727
 20
9.1724738199
 30
0.0
 10
12.4167574587
 20
9.1750445527
 30
0.0
 10
12.4179791963
 20
9.1762246606
 30
0.0
  0
SPLINE
  5
351
100
AcDbEntity
  8
0
100
AcDbSpline
 62
7
  6
CONTINUOUS
 70
0
 71
3
 72
15
 73
11
 74
0
 42
0.0000001
 43
0.0000001
 44
0.0000000001
 40
0.0
 40
0.0
 40
0.0
 40
0.0
 40
0.1080210985
 40
0.2193202637
 40
0.334817274
 40
0.4553248504
 40
0.5815480537
 40
0.7140884021
 40
0.8534419956
 40
1.0
 40
1.0
 40
1.0
 40
1.0
 10
12.4350953958
 20
9.1858418848
 30
0.0
 10
12.4343850331
 20
9.1857365751
 30
0.0
 10
12.4329530077
 20
9.1854470929
 30
0.0
 10
12.430822078
 20
9.1847930767
 30
0.0
 10
12.4286833283
 20
9.1839151555
 30
0.0
 10
12.4265385608
 20
9.1828144759
 30
0.0
 10
12.4243890099
 20
9.1814922045
 30
0.0
 10
12.4222359698
 20
9.1799495194
 30
0.0
 10
12.420080912
 20
9.1781878095
 30
0.0
 10
12.4186799806
 20
9.1769015664
 30
0.0
 10
12.4179791963
 20
9.1762246606
 30
0.0
  0
SPLINE
  5
352
100
AcDbEntity
  8
0
100
AcDbSpline
 62
7
  6
CONTINUOUS
 70
0
 71
3
 72
28
 73
24
 74
0
 42
0.0000001
 43
0.0000001
 44
0.0000000001
 40
0.0
 40
0.0
 40
0.0
 40
0.0
 40
0.0611415118
 40
0.1224379342
 40
0.1531676369
 40
0.1839589936
 40
0.2148174572
 40
0.2457465978
 40
0.2767481281
 40
0.3078218679
 40
0.3389656487
 40
0.370175693
 40
0.4014470368
 40
0.4327736977
 40
0.4955626199
 40
0.5584972491
 40
0.6215304823
 40
0.6846222659
 40
0.7477397991
 40
0.8108564614
 40
0.8739503677
 40
0.9370035174
 40
1.0
 40
1.0
 40
1.0
 40
1.0
 10
10.7303009523
 20
7.8174761075
 30
0.0
 10
10.7341490526
 20
7.8162210486
 30
0.0
 10
10.7419108877
 20
7.8138745746
 30
0.0
 10
10.7517586575
 20
7.8114361592
 30
0.0
 10
10.7597289056
 20
7.8098241749
 30
0.0
 10
10.7657579011
 20
7.8087929043
 30
0.0
 10
10.7718293023
 20
7.8079488407
 30
0.0
 10
10.7779384871
 20
7.8072980352
 30
0.0
 10
10.7840797386
 20
7.8068440142
 30
0.0
 10
10.790246616
 20
7.806587642
 30
0.0
 10
10.7964322842
 20
7.8065270156
 30
0.0
 10
10.8026298845
 20
7.8066574038
 30
0.0
 10
10.808832947
 20
7.806971865
 30
0.0
 10
10.8171087772
 20
7.8076253059
 30
0.0
 10
10.8274373063
 20
7.808855514
 30
0.0
 10
10.8397681875
 20
7.8109005539
 30
0.0
 10
10.8520295745
 20
7.8134245263
 30
0.0
 10
10.8642143077
 20
7.81634445
 30
0.0
 10
10.8763219002
 20
7.8195885872
 30
0.0
 10
10.8883553227
 20
7.8230969506
 30
0.0
 10
10.9003192488
 20
7.8268202616
 30
0.0
 10
10.9122187922
 20
7.8307183829
 30
0.0
 10
10.9201163892
 20
7.8334133319
 30
0.0
 10
10.9240564216
 20
7.8347802127
 30
0.0
  0
SPLINE
  5
353
100
AcDbEntity
  8
0
100
AcDbSpline
 62
7
  6
CONTINUOUS
 70
0
 71
3
 72
21
 73
17
 74
0
 42
0.0000001
 43
0.0000001
 44
0.0000000001
 40
0.0
 40
0.0
 40
0.0
 40
0.0
 40
0.0502040522
 40
0.1026339313
 40
0.1571827326
 40
0.2137407366
 40
0.272187593
 40
0.3323971291
 40
0.3942367989
 40
0.4575685519
 40
0.5222494762
 40
0.5881322996
 40
0.6550659254
 40
0.7228959522
 40
0.8606112561
 40
1.0
 40
1.0
 40
1.0
 40
1.0
 10
10.9240564216
 20
7.8347802127
 30
0.0
 10
10.9210006885
 20
7.8356443071
 30
0.0
 10
10.9147297976
 20
7.8373269705
 30
0.0
 10
10.9050674246
 20
7.8396729669
 30
0.0
 10
10.8949630927
 20
7.8418913191
 30
0.0
 10
10.8844422537
 20
7.8439764271
 30
0.0
 10
10.8735310617
 20
7.8459230174
 30
0.0
 10
10.86225685
 20
7.8477261753
 30
0.0
 10
10.8506478139
 20
7.8493813528
 30
0.0
 10
10.8387330118
 20
7.8508843735
 30
0.0
 10
10.8265422701
 20
7.8522314473
 30
0.0
 10
10.8141061171
 20
7.8534191677
 30
0.0
 10
10.8014556776
 20
7.8544445602
 30
0.0
 10
10.7842586994
 20
7.8555975522
 30
0.0
 10
10.7624614354
 20
7.8566115089
 30
0.0
 10
10.7449351094
 20
7.8569668596
 30
0.0
 10
10.7361185919
 20
7.8570318484
 30
0.0
  0
SPLINE
  5
354
100
AcDbEntity
  8
0
100
AcDbSpline
 62
7
  6
CONTINUOUS
 70
0
 71
3
 72
79
 73
75
 74
0
 42
0.0000001
 43
0.0000001
 44
0.0000000001
 40
0.0
 40
0.0
 40
0.0
 40
0.0
 40
0.0040392313
 40
0.0082525338
 40
0.0126437201
 40
0.0172159436
 40
0.021971843
 40
0.0269134965
 40
0.0320422903
 40
0.0373590327
 40
0.0485568756
 40
0.060506245
 40
0.0732001109
 40
0.0866269065
 40
0.1007712141
 40
0.1156142552
 40
0.131134351
 40
0.1473072548
 40
0.1641063907
 40
0.1815030749
 40
0.199466751
 40
0.2179651586
 40
0.2369644596
 40
0.2564293865
 40
0.2763234022
 40
0.2966088188
 40
0.3172468945
 40
0.3381979633
 40
0.380875756
 40
0.4243116087
 40
0.4681664489
 40
0.5120970243
 40
0.5557593335
 40
0.5988120402
 40
0.6409199204
 40
0.6615177502
 40
0.6817582301
 40
0.701602735
 40
0.7210136901
 40
0.7399547143
 40
0.7583907213
 40
0.776288043
 40
0.7936145951
 40
0.8103400535
 40
0.8264359952
 40
0.8418760902
 40
0.856636367
 40
0.8706954996
 40
0.8840351069
 40
0.8966401721
 40
0.9084996274
 40
0.9196070533
 40
0.9248786363
 40
0.9299624335
 40
0.9348593921
 40
0.9395710558
 40
0.9440994932
 40
0.9484474773
 40
0.952618565
 40
0.9566171123
 40
0.9604485183
 40
0.964119263
 40
0.9676370441
 40
0.9710110106
 40
0.9742517935
 40
0.9773716985
 40
0.9803848017
 40
0.9833069156
 40
0.9861556011
 40
0.9889499514
 40
0.9917102944
 40
0.9944577977
 40
0.9972139422
 40
1.0
 40
1.0
 40
1.0
 40
1.0
 10
12.4179791963
 20
8.5792824646
 30
0.0
 10
12.4186016071
 20
8.5798836674
 30
0.0
 10
12.4198457272
 20
8.5811407392
 30
0.0
 10
12.4216721547
 20
8.5831419849
 30
0.0
 10
12.4234966012
 20
8.5852969534
 30
0.0
 10
12.4253179996
 20
8.5876044333
 30
0.0
 10
12.4271354882
 20
8.5900632205
 30
0.0
 10
12.4289481354
 20
8.5926720981
 30
0.0
 10
12.4307550666
 20
8.5954297337
 30
0.0
 10
12.4331977636
 20
8.599371462
 30
0.0
 10
12.4362233267
 20
8.6046685445
 30
0.0
 10
12.4397562181
 20
8.6114880534
 30
0.0
 10
12.4432442007
 20
8.6188624029
 30
0.0
 10
12.4466800026
 20
8.6267763597
 30
0.0
 10
12.4500564592
 20
8.6352136923
 30
0.0
 10
12.4533665108
 20
8.6441569517
 30
0.0
 10
12.4566032178
 20
8.6535876125
 30
0.0
 10
12.4597597817
 20
8.6634860998
 30
0.0
 10
12.4628295738
 20
8.6738318321
 30
0.0
 10
12.4658061577
 20
8.6846032668
 30
0.0
 10
12.4686832846
 20
8.6957779619
 30
0.0
 10
12.4714549097
 20
8.7073326252
 30
0.0
 10
12.4741152176
 20
8.7192431566
 30
0.0
 10
12.4766586345
 20
8.7314847001
 30
0.0
 10
12.4790798276
 20
8.7440317086
 30
0.0
 10
12.4813737084
 20
8.7568579881
 30
0.0
 10
12.4835354921
 20
8.7699367776
 30
0.0
 10
12.486252258
 20
8.7877847462
 30
0.0
 10
12.4892801416
 20
8.8105238002
 30
0.0
 10
12.4923012691
 20
8.8382060192
 30
0.0
 10
12.4947065246
 20
8.8662179586
 30
0.0
 10
12.496475789
 20
8.8943258112
 30
0.0
 10
12.4975943425
 20
8.9222951694
 30
0.0
 10
12.4980529338
 20
8.9498925796
 30
0.0
 10
12.4978810703
 20
8.9725519405
 30
0.0
 10
12.4974034261
 20
8.9903161446
 30
0.0
 10
12.4968821679
 20
9.0033066415
 30
0.0
 10
12.4961964416
 20
9.0160348665
 30
0.0
 10
12.4953476747
 20
9.0284742675
 30
0.0
 10
12.4943376778
 20
9.0405988762
 30
0.0
 10
12.4931685879
 20
9.0523833945
 30
0.0
 10
12.4918428731
 20
9.0638032353
 30
0.0
 10
12.4903633335
 20
9.0748345857
 30
0.0
 10
12.4887331072
 20
9.0854544614
 30
0.0
 10
12.4869556432
 20
9.095640751
 30
0.0
 10
12.4850346928
 20
9.1053722635
 30
0.0
 10
12.4829743145
 20
9.1146287868
 30
0.0
 10
12.4807788671
 20
9.1233911476
 30
0.0
 10
12.4784529783
 20
9.1316412271
 30
0.0
 10
12.4760015179
 20
9.1393620931
 30
0.0
 10
12.4734296063
 20
9.1465377861
 30
0.0
 10
12.4711524211
 20
9.1521450269
 30
0.0
 10
12.4692680891
 20
9.1563397965
 30
0.0
 10
12.4678527529
 20
9.1592854348
 30
0.0
 10
12.4664113638
 20
9.1620841717
 30
0.0
 10
12.4649446765
 20
9.164734594
 30
0.0
 10
12.4634534071
 20
9.1672353307
 30
0.0
 10
12.4619382982
 20
9.1695851008
 30
0.0
 10
12.4604001296
 20
9.1717827242
 30
0.0
 10
12.4588396018
 20
9.1738270496
 30
0.0
 10
12.4572574888
 20
9.1757170455
 30
0.0
 10
12.4556545332
 20
9.1774517395
 30
0.0
 10
12.45403143
 20
9.1790301777
 30
0.0
 10
12.4523889535
 20
9.1804515384
 30
0.0
 10
12.4507278077
 20
9.1817149782
 30
0.0
 10
12.4490487309
 20
9.1828196944
 30
0.0
 10
12.4473525324
 20
9.1837649807
 30
0.0
 10
12.4456400095
 20
9.1845500504
 30
0.0
 10
12.4439121034
 20
9.1851742556
 30
0.0
 10
12.4421698344
 20
9.1856370201
 30
0.0
 10
12.4404143311
 20
9.1859377957
 30
0.0
 10
12.4386467846
 20
9.1860763449
 30
0.0
 10
12.4368686258
 20
9.1860525506
 30
0.0
 10
12.4356858215
 20
9.1859294141
 30
0.0
 10
12.4350953958
 20
9.1858418848
 30
0.0
  0
SPLINE
  5
355
100
AcDbEntity
  8
0
100
AcDbSpline
 62
7
  6
CONTINUOUS
 70
0
 71
3
 72
37
 73
33
 74
0
 42
0.0000001
 43
0.0000001
 44
0.0000000001
 40
0.0
 40
0.0
 40
0.0
 40
0.0
 40
0.0246577498
 40
0.0505244833
 40
0.0775425698
 40
0.1056492404
 40
0.1347771459
 40
0.1648548379
 40
0.1958071993
 40
0.2275558371
 40
0.2600194445
 40
0.2931141549
 40
0.3267538871
 40
0.3608506727
 40
0.3953149768
 40
0.4300560139
 40
0.4999992176
 40
0.569942444
 40
0.6046835148
 40
0.6391478696
 40
0.6732447175
 40
0.706884519
 40
0.7399793067
 40
0.7724430038
 40
0.8041917508
 40
0.8351442419
 40
0.865222074
 40
0.894350119
 40
0.9224569298
 40
0.9494751642
 40
0.9753420622
 40
1.0
 40
1.0
 40
1.0
 40
1.0
 10
12.347843179
 20
8.6668506274
 30
0.0
 10
12.3490562056
 20
8.6702093476
 30
0.0
 10
12.3514425788
 20
8.6771275843
 30
0.0
 10
12.3548336948
 20
8.6878345128
 30
0.0
 10
12.3581149793
 20
8.6990968151
 30
0.0
 10
12.3612770733
 20
8.7108827338
 30
0.0
 10
12.3643110096
 20
8.7231591556
 30
0.0
 10
12.3672081727
 20
8.7358915164
 30
0.0
 10
12.369960343
 20
8.7490439598
 30
0.0
 10
12.3725597127
 20
8.7625794255
 30
0.0
 10
12.374998913
 20
8.7764597603
 30
0.0
 10
12.3772710331
 20
8.7906458269
 30
0.0
 10
12.3793696395
 20
8.8050976215
 30
0.0
 10
12.381288784
 20
8.8197743774
 30
0.0
 10
12.3830230598
 20
8.834634724
 30
0.0
 10
12.3850868169
 20
8.8546814601
 30
0.0
 10
12.3871701793
 20
8.8798890895
 30
0.0
 10
12.38858638
 20
8.9051429922
 30
0.0
 10
12.3893096045
 20
8.9252827115
 30
0.0
 10
12.3896432352
 20
8.940240216
 30
0.0
 10
12.3897684224
 20
8.9550414114
 30
0.0
 10
12.38968481
 20
8.9696445759
 30
0.0
 10
12.389392664
 20
8.9840085116
 30
0.0
 10
12.3888928356
 20
8.9980927116
 30
0.0
 10
12.388186769
 20
9.0118574613
 30
0.0
 10
12.3872764956
 20
9.0252639555
 30
0.0
 10
12.3861646293
 20
9.0382744077
 30
0.0
 10
12.3848543592
 20
9.0508521672
 30
0.0
 10
12.3833494481
 20
9.0629618108
 30
0.0
 10
12.3816542106
 20
9.0745693081
 30
0.0
 10
12.379773525
 20
9.0856419152
 30
0.0
 10
12.3783649986
 20
9.0928233899
 30
0.0
 10
12.3776272116
 20
9.0963174276
 30
0.0
  0
SPLINE
  5
356
100
AcDbEntity
  8
0
100
AcDbSpline
 62
7
  6
CONTINUOUS
 70
0
 71
3
 72
15
 73
11
 74
0
 42
0.0000001
 43
0.0000001
 44
0.0000000001
 40
0.0
 40
0.0
 40
0.0
 40
0.0
 40
0.1217236304
 40
0.2462438056
 40
0.3726437035
 40
0.4999886223
 40
0.6273349796
 40
0.753739171
 40
0.8782664908
 40
1.0
 40
1.0
 40
1.0
 40
1.0
 10
12.3380700717
 20
8.7943985299
 30
0.0
 10
12.3392313489
 20
8.8015079384
 30
0.0
 10
12.3413981733
 20
8.8159204369
 30
0.0
 10
12.3441593536
 20
8.8378019026
 30
0.0
 10
12.3464543149
 20
8.8600716866
 30
0.0
 10
12.3482648249
 20
8.8825538009
 30
0.0
 10
12.3495765414
 20
8.9050707783
 30
0.0
 10
12.3503791488
 20
8.9274448718
 30
0.0
 10
12.3506664232
 20
8.9494992537
 30
0.0
 10
12.350510866
 20
8.9640739029
 30
0.0
 10
12.350342595
 20
8.9712761499
 30
0.0
  0
SPLINE
  5
357
100
AcDbEntity
  8
0
100
AcDbSpline
 62
7
  6
CONTINUOUS
 70
0
 71
3
 72
61
 73
57
 74
0
 42
0.0000001
 43
0.0000001
 44
0.0000000001
 40
0.0
 40
0.0
 40
0.0
 40
0.0
 40
0.0085500831
 40
0.0176518282
 40
0.0273119388
 40
0.0375330487
 40
0.0483143346
 40
0.0596520489
 40
0.0715399689
 40
0.0839696868
 40
0.0969308502
 40
0.110411427
 40
0.1243978625
 40
0.1388751847
 40
0.1538271778
 40
0.1692364905
 40
0.185084685
 40
0.2013523522
 40
0.2180192038
 40
0.2350641067
 40
0.252465154
 40
0.2701997535
 40
0.2882446631
 40
0.3065760341
 40
0.3439996166
 40
0.3822705894
 40
0.4211822648
 40
0.4605233554
 40
0.5000795412
 40
0.5396349815
 40
0.5789738425
 40
0.6178818121
 40
0.6561476434
 40
0.6935646733
 40
0.711892258
 40
0.729933038
 40
0.7476631939
 40
0.7650594851
 40
0.7820993091
 40
0.7987607922
 40
0.8150228167
 40
0.8308650777
 40
0.846268195
 40
0.8612137644
 40
0.8756844182
 40
0.889663959
 40
0.9031374659
 40
0.9160913786
 40
0.9285136711
 40
0.9403940542
 40
0.9517241379
 40
0.9624977005
 40
0.972711059
 40
0.9823634567
 40
0.9914575366
 40
1.0
 40
1.0
 40
1.0
 40
1.0
 10
11.1987740935
 20
10.4607658596
 30
0.0
 10
11.1965349526
 20
10.462368421
 30
0.0
 10
11.1918152467
 20
10.4655428414
 30
0.0
 10
11.1842798562
 20
10.4700853834
 30
0.0
 10
11.1760799268
 20
10.4745501083
 30
0.0
 10
11.1672273695
 20
10.4789304834
 30
0.0
 10
11.1577347002
 20
10.483220322
 30
0.0
 10
11.1476155588
 20
10.4874134243
 30
0.0
 10
11.1368845004
 20
10.4915036878
 30
0.0
 10
11.1255570338
 20
10.495485133
 30
0.0
 10
11.1136495826
 20
10.499351949
 30
0.0
 10
11.1011794368
 20
10.5030984592
 30
0.0
 10
11.0881647302
 20
10.5067191491
 30
0.0
 10
11.074624423
 20
10.5102087165
 30
0.0
 10
11.0605782533
 20
10.5135620339
 30
0.0
 10
11.0460467061
 20
10.5167741577
 30
0.0
 10
11.031050994
 20
10.519840377
 30
0.0
 10
11.0156130164
 20
10.5227561922
 30
0.0
 10
10.9997553195
 20
10.525517306
 30
0.0
 10
10.9835010737
 20
10.5281196623
 30
0.0
 10
10.9668740347
 20
10.5305594508
 30
0.0
 10
10.9498985094
 20
10.5328330748
 30
0.0
 10
10.9325992902
 20
10.534937208
 30
0.0
 10
10.9089736448
 20
10.537530336
 30
0.0
 10
10.8788186345
 20
10.5403177547
 30
0.0
 10
10.8419992796
 20
10.5429219378
 30
0.0
 10
10.8045170742
 20
10.54479238
 30
0.0
 10
10.7665911452
 20
10.5459180633
 30
0.0
 10
10.7284430592
 20
10.546292291
 30
0.0
 10
10.6902957426
 20
10.5459128603
 30
0.0
 10
10.652372119
 20
10.544782022
 30
0.0
 10
10.6148937405
 20
10.5429064594
 30
0.0
 10
10.5780797107
 20
10.5402972725
 30
0.0
 10
10.5479300886
 20
10.5375057149
 30
0.0
 10
10.5243094869
 20
10.5349093411
 30
0.0
 10
10.5070145658
 20
10.5328028366
 30
0.0
 10
10.4900436812
 20
10.5305269005
 30
0.0
 10
10.4734216215
 20
10.5280848504
 30
0.0
 10
10.4571726906
 20
10.5254802672
 30
0.0
 10
10.4413206301
 20
10.5227169893
 30
0.0
 10
10.4258886014
 20
10.5197990789
 30
0.0
 10
10.41089915
 20
10.5167308085
 30
0.0
 10
10.3963741609
 20
10.5135166972
 30
0.0
 10
10.3823348313
 20
10.5101614762
 30
0.0
 10
10.368801646
 20
10.5066700628
 30
0.0
 10
10.3557943321
 20
10.503047589
 30
0.0
 10
10.343331827
 20
10.4992993893
 30
0.0
 10
10.3314322622
 20
10.4954309576
 30
0.0
 10
10.3201129232
 20
10.4914479575
 30
0.0
 10
10.3093902049
 20
10.4873562374
 30
0.0
 10
10.2992796062
 20
10.4831617699
 30
0.0
 10
10.2897956885
 20
10.4788706266
 30
0.0
 10
10.2809520572
 20
10.4744890432
 30
0.0
 10
10.272761205
 20
10.4700232128
 30
0.0
 10
10.2652350834
 20
10.4654796302
 30
0.0
 10
10.260521763
 20
10.4623045236
 30
0.0
 10
10.2582858707
 20
10.460701641
 30
0.0
  0
SPLINE
  5
358
100
AcDbEntity
  8
0
100
AcDbSpline
 62
7
  6
CONTINUOUS
 70
0
 71
3
 72
46
 73
42
 74
0
 42
0.0000001
 43
0.0000001
 44
0.0000000001
 40
0.0
 40
0.0
 40
0.0
 40
0.0
 40
0.0112073763
 40
0.0228002203
 40
0.0347721982
 40
0.0471162545
 40
0.0598246425
 40
0.0728890297
 40
0.1000488613
 40
0.1285188471
 40
0.158213824
 40
0.1890420372
 40
0.2209059277
 40
0.2537028361
 40
0.2873256502
 40
0.321663413
 40
0.3566019035
 40
0.3920242006
 40
0.4278112336
 40
0.4638423255
 40
0.4999957306
 40
0.5361491696
 40
0.5721803632
 40
0.6079675654
 40
0.6433900987
 40
0.6783288914
 40
0.712667021
 40
0.7462902652
 40
0.7790876647
 40
0.8109521051
 40
0.8417809244
 40
0.8714765603
 40
0.8999472544
 40
0.9136966633
 40
0.9271084882
 40
0.9401732573
 40
0.9528820575
 40
0.9652265139
 40
0.9771989212
 40
0.9887921818
 40
1.0
 40
1.0
 40
1.0
 40
1.0
 10
11.0821199427
 20
10.4131999105
 30
0.0
 10
11.0796109365
 20
10.414134568
 30
0.0
 10
11.0744861981
 20
10.4159815736
 30
0.0
 10
11.0666170993
 20
10.4186447609
 30
0.0
 10
11.0584417341
 20
10.4212455707
 30
0.0
 10
11.0499675309
 20
10.4237816053
 30
0.0
 10
11.0412021236
 20
10.4262506079
 30
0.0
 10
11.0289786208
 20
10.4294921544
 30
0.0
 10
11.013024802
 20
10.4333488855
 30
0.0
 10
10.9930906609
 20
10.4376179105
 30
0.0
 10
10.9721988129
 20
10.4415700386
 30
0.0
 10
10.9504248584
 20
10.4451908105
 30
0.0
 10
10.9278474638
 20
10.4484669553
 30
0.0
 10
10.9045483137
 20
10.4513864799
 30
0.0
 10
10.8806117295
 20
10.4539387002
 30
0.0
 10
10.8561243756
 20
10.4561142811
 30
0.0
 10
10.8311749318
 20
10.457905268
 30
0.0
 10
10.8058537685
 20
10.459305115
 30
0.0
 10
10.7802526147
 20
10.4603087068
 30
0.0
 10
10.7544642221
 20
10.460912377
 30
0.0
 10
10.7285820258
 20
10.4611139203
 30
0.0
 10
10.7026998034
 20
10.4609126007
 30
0.0
 10
10.6769113327
 20
10.4603091537
 30
0.0
 10
10.651310049
 20
10.4593057836
 30
0.0
 10
10.6259887043
 20
10.4579061561
 30
0.0
 10
10.6010390282
 20
10.4561153855
 30
0.0
 10
10.5765513917
 20
10.4539400172
 30
0.0
 10
10.5526144767
 20
10.4513880045
 30
0.0
 10
10.5293149447
 20
10.4484686825
 30
0.0
 10
10.5067371325
 20
10.4451927322
 30
0.0
 10
10.4849626775
 20
10.4415721545
 30
0.0
 10
10.4640704201
 20
10.4376201883
 30
0.0
 10
10.4472686322
 20
10.4340223451
 30
0.0
 10
10.4343304642
 20
10.4309810142
 30
0.0
 10
10.4250063989
 20
10.4286528997
 30
0.0
 10
10.4159574196
 20
10.4262533039
 30
0.0
 10
10.4071916974
 20
10.4237844043
 30
0.0
 10
10.3987171649
 20
10.4212484266
 30
0.0
 10
10.3905414611
 20
10.4186477018
 30
0.0
 10
10.3826720188
 20
10.4159845691
 30
0.0
 10
10.3775470424
 20
10.4141376194
 30
0.0
 10
10.3750379159
 20
10.4132029822
 30
0.0
  0
SPLINE
  5
359
100
AcDbEntity
  8
0
100
AcDbSpline
 62
7
  6
CONTINUOUS
 70
0
 71
3
 72
21
 73
17
 74
0
 42
0.0000001
 43
0.0000001
 44
0.0000000001
 40
0.0
 40
0.0
 40
0.0
 40
0.0
 40
0.1273176366
 40
0.2537999756
 40
0.3167619475
 40
0.3795355041
 40
0.4421314991
 40
0.5045621439
 40
0.5668413432
 40
0.6289845283
 40
0.6910084528
 40
0.7529310935
 40
0.8147714495
 40
0.8765493365
 40
0.9382852194
 40
1.0
 40
1.0
 40
1.0
 40
1.0
 10
10.1891360366
 20
7.1744859387
 30
0.0
 10
10.1891360366
 20
7.1797831886
 30
0.0
 10
10.189641694
 20
7.1903497528
 30
0.0
 10
10.1915513981
 20
7.2034123093
 30
0.0
 10
10.1938339191
 20
7.2136587429
 30
0.0
 10
10.1959154556
 20
7.221216516
 30
0.0
 10
10.1983642432
 20
7.22864
 30
0.0
 10
10.201174671
 20
7.2359122798
 30
0.0
 10
10.2043402384
 20
7.2430165417
 30
0.0
 10
10.2078536898
 20
7.2499364021
 30
0.0
 10
10.211706943
 20
7.2566558863
 30
0.0
 10
10.2158910896
 20
7.2631595183
 30
0.0
 10
10.2203964919
 20
7.269432271
 30
0.0
 10
10.2252128392
 20
7.2754597029
 30
0.0
 10
10.2303287978
 20
7.2812277495
 30
0.0
 10
10.2339320011
 20
7.2848919895
 30
0.0
 10
10.2357788599
 20
7.2866759185
 30
0.0
  0
SPLINE
  5
35A
100
AcDbEntity
  8
0
100
AcDbSpline
 62
7
  6
CONTINUOUS
 70
0
 71
3
 72
17
 73
13
 74
0
 42
0.0000001
 43
0.0000001
 44
0.0000000001
 40
0.0
 40
0.0
 40
0.0
 40
0.0
 40
0.1231209635
 40
0.1850408257
 40
0.247176436
 40
0.3095102791
 40
0.3720267826
 40
0.497511232
 40
0.6234125524
 40
0.7494279319
 40
0.8751387502
 40
1.0
 40
1.0
 40
1.0
 40
1.0
 10
10.9240564216
 20
7.8347802127
 30
0.0
 10
10.9225298154
 20
7.8380335473
 30
0.0
 10
10.9202632722
 20
7.8429362581
 30
0.0
 10
10.9173152868
 20
7.8495212571
 30
0.0
 10
10.9151387579
 20
7.8545074122
 30
0.0
 10
10.9130102223
 20
7.8595332131
 30
0.0
 10
10.9102448622
 20
7.8662967354
 30
0.0
 10
10.9069600593
 20
7.874851795
 30
0.0
 10
10.9033930218
 20
7.8852772825
 30
0.0
 10
10.9003166035
 20
7.89586699
 30
0.0
 10
10.8978686702
 20
7.9065900687
 30
0.0
 10
10.8967445957
 20
7.9138255784
 30
0.0
 10
10.8963327451
 20
7.9174467336
 30
0.0
  0
SPLINE
  5
35B
100
AcDbEntity
  8
0
100
AcDbSpline
 62
7
  6
CONTINUOUS
 70
0
 71
3
 72
18
 73
14
 74
0
 42
0.0000001
 43
0.0000001
 44
0.0000000001
 40
0.0
 40
0.0
 40
0.0
 40
0.0
 40
0.0548621106
 40
0.1099281304
 40
0.165399556
 40
0.2214731722
 40
0.2783387379
 40
0.3361775111
 40
0.4554063056
 40
0.5804414047
 40
0.7123341351
 40
0.8519581983
 40
1.0
 40
1.0
 40
1.0
 40
1.0
 10
10.2285748129
 20
10.5046559584
 30
0.0
 10
10.2285748097
 20
10.5053621043
 30
0.0
 10
10.2286196223
 20
10.5067774264
 30
0.0
 10
10.2288211185
 20
10.5088981094
 30
0.0
 10
10.2291568689
 20
10.5110175687
 30
0.0
 10
10.2296267465
 20
10.5131350309
 30
0.0
 10
10.2302305536
 20
10.5152499671
 30
0.0
 10
10.2312237042
 20
10.5180939855
 30
0.0
 10
10.2328147212
 20
10.521651088
 30
0.0
 10
10.2352363545
 20
10.5258520441
 30
0.0
 10
10.2381857872
 20
10.5300258147
 30
0.0
 10
10.2416585321
 20
10.5341681934
 30
0.0
 10
10.2442413361
 20
10.5368260379
 30
0.0
 10
10.2456118675
 20
10.5381498695
 30
0.0
  0
SPLINE
  5
35C
100
AcDbEntity
  8
0
100
AcDbSpline
 62
7
  6
CONTINUOUS
 70
0
 71
3
 72
41
 73
37
 74
0
 42
0.0000001
 43
0.0000001
 44
0.0000000001
 40
0.0
 40
0.0
 40
0.0
 40
0.0
 40
0.0299421703
 40
0.0599087166
 40
0.0899234211
 40
0.1200088977
 40
0.150186053
 40
0.1804736004
 40
0.2108876395
 40
0.2414413098
 40
0.2721445264
 40
0.3030038
 40
0.3340221415
 40
0.3651990482
 40
0.3965305685
 40
0.4280094374
 40
0.4596252765
 40
0.4913648514
 40
0.5232123788
 40
0.5551498746
 40
0.5871575376
 40
0.6192141589
 40
0.6512975532
 40
0.6833850026
 40
0.7154537088
 40
0.731476412
 40
0.7474860771
 40
0.7794508401
 40
0.8113324799
 40
0.8431123195
 40
0.8747737613
 40
0.9063025943
 40
0.937687506
 40
0.953325536
 40
0.9689249997
 40
1.0
 40
1.0
 40
1.0
 40
1.0
 10
11.0026882602
 20
7.5687178107
 30
0.0
 10
10.9991878314
 20
7.5653366741
 30
0.0
 10
10.9919117569
 20
7.5588472438
 30
0.0
 10
10.980254329
 20
7.5500065648
 30
0.0
 10
10.9679131993
 20
7.5421035665
 30
0.0
 10
10.9549573166
 20
7.5351825905
 30
0.0
 10
10.9414579131
 20
7.5292814457
 30
0.0
 10
10.9274894896
 20
7.5244325715
 30
0.0
 10
10.9131290203
 20
7.5206624988
 30
0.0
 10
10.898455621
 20
7.5179918114
 30
0.0
 10
10.8835500807
 20
7.5164350176
 30
0.0
 10
10.8684944221
 20
7.5160004877
 30
0.0
 10
10.853371448
 20
7.5166904154
 30
0.0
 10
10.8382642887
 20
7.5185008189
 30
0.0
 10
10.8232559488
 20
7.5214215708
 30
0.0
 10
10.8084288568
 20
7.5254364613
 30
0.0
 10
10.7938644187
 20
7.5305232921
 30
0.0
 10
10.7796425773
 20
7.5366540015
 30
0.0
 10
10.7658413792
 20
7.5437948222
 30
0.0
 10
10.7525365547
 20
7.5519064634
 30
0.0
 10
10.7398010999
 20
7.5609443386
 30
0.0
 10
10.7277049118
 20
7.5708587647
 30
0.0
 10
10.7163142936
 20
7.5815953987
 30
0.0
 10
10.7056920294
 20
7.5930949119
 30
0.0
 10
10.6975255565
 20
7.603265446
 30
0.0
 10
10.691432605
 20
7.6117192004
 30
0.0
 10
10.6856462205
 20
7.6203653414
 30
0.0
 10
10.6789935059
 20
7.631523691
 30
0.0
 10
10.671980259
 20
7.6454083007
 30
0.0
 10
10.6659785044
 20
7.6597061989
 30
0.0
 10
10.6610215517
 20
7.6743386675
 30
0.0
 10
10.6571367076
 20
7.6892250119
 30
0.0
 10
10.654807666
 20
7.7017907051
 30
0.0
 10
10.6535011343
 20
7.7118870725
 30
0.0
 10
10.6525686998
 20
7.7219737833
 30
0.0
 10
10.6522863683
 20
7.7295639579
 30
0.0
 10
10.6522863683
 20
7.7346148181
 30
0.0
  0
SPLINE
  5
35D
100
AcDbEntity
  8
0
100
AcDbSpline
 62
7
  6
CONTINUOUS
 70
0
 71
3
 72
21
 73
17
 74
0
 42
0.0000001
 43
0.0000001
 44
0.0000000001
 40
0.0
 40
0.0
 40
0.0
 40
0.0
 40
0.0617147758
 40
0.1234506606
 40
0.1852285516
 40
0.2470689039
 40
0.3089915432
 40
0.3710154715
 40
0.4331586565
 40
0.4954378534
 40
0.5578684959
 40
0.6204644995
 40
0.6832380575
 40
0.7461999878
 40
0.87268242
 40
1.0
 40
1.0
 40
1.0
 40
1.0
 10
10.7095051992
 20
7.8722432323
 30
0.0
 10
10.7072395697
 20
7.870054814
 30
0.0
 10
10.7028193676
 20
7.8655597216
 30
0.0
 10
10.6965433755
 20
7.8584838196
 30
0.0
 10
10.6906349637
 20
7.8510896889
 30
0.0
 10
10.6851079883
 20
7.8433946247
 30
0.0
 10
10.6799750961
 20
7.83541634
 30
0.0
 10
10.6752481433
 20
7.8271732479
 30
0.0
 10
10.6709380468
 20
7.8186843434
 30
0.0
 10
10.6670546932
 20
7.809969236
 30
0.0
 10
10.6636070139
 20
7.8010480083
 30
0.0
 10
10.6606029895
 20
7.7919412871
 30
0.0
 10
10.6580494692
 20
7.7826698356
 30
0.0
 10
10.6552493933
 20
7.7701000794
 30
0.0
 10
10.6529066837
 20
7.754075661
 30
0.0
 10
10.6522863683
 20
7.7411131866
 30
0.0
 10
10.6522863683
 20
7.7346148181
 30
0.0
  0
SPLINE
  5
35E
100
AcDbEntity
  8
0
100
AcDbSpline
 62
7
  6
CONTINUOUS
 70
0
 71
3
 72
42
 73
38
 74
0
 42
0.0000001
 43
0.0000001
 44
0.0000000001
 40
0.0
 40
0.0
 40
0.0
 40
0.0
 40
0.0299419663
 40
0.0449235352
 40
0.0599142051
 40
0.0899287052
 40
0.1200139767
 40
0.135092661
 40
0.150196701
 40
0.1804840414
 40
0.210897872
 40
0.2414513324
 40
0.2721543376
 40
0.3030133986
 40
0.3340315263
 40
0.3652082187
 40
0.3965395244
 40
0.4280181782
 40
0.4596338019
 40
0.4913731609
 40
0.5232204716
 40
0.55515775
 40
0.5871651943
 40
0.6192215961
 40
0.6513047701
 40
0.6833919991
 40
0.7154604852
 40
0.7474878032
 40
0.7794523473
 40
0.8113337692
 40
0.8431133916
 40
0.8747746171
 40
0.9063032365
 40
0.9376879249
 40
0.9533258257
 40
0.968925233
 40
1.0
 40
1.0
 40
1.0
 40
1.0
 10
11.4406976008
 20
9.8700428582
 30
0.0
 10
11.437844178
 20
9.867286663
 30
0.0
 10
11.4333958691
 20
9.8633193557
 30
0.0
 10
11.4271660817
 20
9.8583968166
 30
0.0
 10
11.4207379203
 20
9.8537192098
 30
0.0
 10
11.4123502117
 20
9.8483478083
 30
0.0
 10
11.4035546775
 20
9.8436493932
 30
0.0
 10
11.396300656
 20
9.8403068932
 30
0.0
 10
11.3888967599
 20
9.8372403754
 30
0.0
 10
11.3793979161
 20
9.8339429489
 30
0.0
 10
11.3676920163
 20
9.8308698363
 30
0.0
 10
11.3557306899
 20
9.8286927522
 30
0.0
 10
11.3435802216
 20
9.8274237151
 30
0.0
 10
11.3313073575
 20
9.8270694955
 30
0.0
 10
11.3189796264
 20
9.8276318969
 30
0.0
 10
11.3066647845
 20
9.8291076708
 30
0.0
 10
11.2944304968
 20
9.8314885636
 30
0.0
 10
11.2823439558
 20
9.8347613619
 30
0.0
 10
11.2704715213
 20
9.838907971
 30
0.0
 10
11.2588783604
 20
9.8439055164
 30
0.0
 10
11.2476280949
 20
9.8497264717
 30
0.0
 10
11.2367824563
 20
9.856338809
 30
0.0
 10
11.2264009523
 20
9.8637061761
 30
0.0
 10
11.2165405444
 20
9.8717880946
 30
0.0
 10
11.2072553386
 20
9.8805401807
 30
0.0
 10
11.1985962925
 20
9.889914387
 30
0.0
 10
11.1906109381
 20
9.899859263
 30
0.0
 10
11.1833431239
 20
9.9103202363
 30
0.0
 10
11.1768327759
 20
9.9212399045
 30
0.0
 10
11.1711156804
 20
9.9325583598
 30
0.0
 10
11.1662232892
 20
9.9442134664
 30
0.0
 10
11.16218254
 20
9.95614137
 30
0.0
 10
11.1590157513
 20
9.9682762061
 30
0.0
 10
11.1571171943
 20
9.9785193276
 30
0.0
 10
11.1560521567
 20
9.986749545
 30
0.0
 10
11.1552920673
 20
9.9949718887
 30
0.0
 10
11.1550619201
 20
10.0011591441
 30
0.0
 10
11.1550619201
 20
10.0052764305
 30
0.0
  0
SPLINE
  5
35F
100
AcDbEntity
  8
0
100
AcDbSpline
 62
7
  6
CONTINUOUS
 70
0
 71
3
 72
86
 73
82
 74
0
 42
0.0000001
 43
0.0000001
 44
0.0000000001
 40
0.0
 40
0.0
 40
0.0
 40
0.0
 40
0.0039801735
 40
0.0081241171
 40
0.0124359931
 40
0.016919361
 40
0.0215772361
 40
0.0264119817
 40
0.0314252561
 40
0.0366182449
 40
0.0419916453
 40
0.0475457694
 40
0.0532805541
 40
0.0591955582
 40
0.0652900785
 40
0.0715630739
 40
0.0846387684
 40
0.0984101018
 40
0.112860694
 40
0.1279712428
 40
0.1437198619
 40
0.1600823544
 40
0.1770324406
 40
0.1945419645
 40
0.2125810668
 40
0.2311183398
 40
0.2501209668
 40
0.2695548486
 40
0.289384725
 40
0.3095742955
 40
0.3300863312
 40
0.3508827821
 40
0.3719248818
 40
0.3931732491
 40
0.4145879914
 40
0.4577543474
 40
0.501099203
 40
0.5442952951
 40
0.5657359749
 40
0.587017582
 40
0.6081001434
 40
0.6289441761
 40
0.6495107926
 40
0.6697618048
 40
0.6896598276
 40
0.709168385
 40
0.7282520204
 40
0.7468764117
 40
0.7650084972
 40
0.7826166038
 40
0.7996705814
 40
0.8161419537
 40
0.8320040874
 40
0.8472323859
 40
0.8618045214
 40
0.8757007003
 40
0.8889039845
 40
0.9014006969
 40
0.9073810972
 40
0.9131815075
 40
0.9188013673
 40
0.9242405009
 40
0.9294990443
 40
0.9345775709
 40
0.9394770909
 40
0.9441990928
 40
0.9487456636
 40
0.9531194621
 40
0.9573238984
 40
0.9613631411
 40
0.9652422549
 40
0.9689673208
 40
0.9725454977
 40
0.9759852252
 40
0.9824864215
 40
0.9855752926
 40
0.9885737717
 40
0.9914977072
 40
0.9943643167
 40
0.9971920017
 40
1.0
 40
1.0
 40
1.0
 40
1.0
 10
10.2456118675
 20
10.5381498695
 30
0.0
 10
10.2466021449
 20
10.5391064041
 30
0.0
 10
10.2486684182
 20
10.5410127121
 30
0.0
 10
10.2519490299
 20
10.5437970256
 30
0.0
 10
10.2554705528
 20
10.546561378
 30
0.0
 10
10.2592310537
 20
10.5493042801
 30
0.0
 10
10.263228686
 20
10.5520244642
 30
0.0
 10
10.267461505
 20
10.5547205929
 30
0.0
 10
10.271927389
 20
10.5573913928
 30
0.0
 10
10.2766241245
 20
10.5600354738
 30
0.0
 10
10.2815493423
 20
10.5626515509
 30
0.0
 10
10.2867005834
 20
10.5652383067
 30
0.0
 10
10.2920752718
 20
10.567794432
 30
0.0
 10
10.2976706973
 20
10.5703186712
 30
0.0
 10
10.3034840684
 20
10.5728097254
 30
0.0
 10
10.3116349237
 20
10.5761312264
 30
0.0
 10
10.3223539819
 20
10.5801821173
 30
0.0
 10
10.3358654736
 20
10.5848265227
 30
0.0
 10
10.3501706053
 20
10.589309668
 30
0.0
 10
10.3652405359
 20
10.593622441
 30
0.0
 10
10.3810450144
 20
10.5977560622
 30
0.0
 10
10.3975522038
 20
10.6017021116
 30
0.0
 10
10.4147288246
 20
10.6054525535
 30
0.0
 10
10.4325402122
 20
10.6089997487
 30
0.0
 10
10.4509504004
 20
10.6123364721
 30
0.0
 10
10.4699221969
 20
10.6154559281
 30
0.0
 10
10.4894172603
 20
10.6183517632
 30
0.0
 10
10.5093961782
 20
10.6210180816
 30
0.0
 10
10.5298185486
 20
10.6234494597
 30
0.0
 10
10.5506430663
 20
10.6256409512
 30
0.0
 10
10.5718276074
 20
10.6275880978
 30
0.0
 10
10.5933293194
 20
10.6292869399
 30
0.0
 10
10.6151046918
 20
10.6307340145
 30
0.0
 10
10.6371097042
 20
10.631926402
 30
0.0
 10
10.6667738454
 20
10.6331765866
 30
0.0
 10
10.7041000287
 20
10.6340846671
 30
0.0
 10
10.748971812
 20
10.6341320135
 30
0.0
 10
10.7863190858
 20
10.6333028587
 30
0.0
 10
10.8160165941
 20
10.6321156891
 30
0.0
 10
10.838058593
 20
10.6309699008
 30
0.0
 10
10.8598790187
 20
10.6295689483
 30
0.0
 10
10.8814337585
 20
10.6279156543
 30
0.0
 10
10.9026791925
 20
10.6260133874
 30
0.0
 10
10.9235723443
 20
10.6238660173
 30
0.0
 10
10.9440709513
 20
10.6214779133
 30
0.0
 10
10.9641335547
 20
10.618853934
 30
0.0
 10
10.9837195822
 20
10.6159994188
 30
0.0
 10
11.0027894334
 20
10.6129201753
 30
0.0
 10
11.0213045646
 20
10.6096224736
 30
0.0
 10
11.0392275688
 20
10.6061130313
 30
0.0
 10
11.0565222526
 20
10.6023989971
 30
0.0
 10
11.0731537122
 20
10.5984879365
 30
0.0
 10
11.0890884066
 20
10.5943878163
 30
0.0
 10
11.1042942416
 20
10.5901069843
 30
0.0
 10
11.118740623
 20
10.5856541561
 30
0.0
 10
11.1323986128
 20
10.5810383854
 30
0.0
 10
11.1452407104
 20
10.576269043
 30
0.0
 10
11.1553848067
 20
10.5721160497
 30
0.0
 10
11.1630644246
 20
10.5687163832
 30
0.0
 10
11.1685197326
 20
10.5661717026
 30
0.0
 10
11.1737525516
 20
10.5635959277
 30
0.0
 10
11.178760281
 20
10.5609903775
 30
0.0
 10
11.1835403969
 20
10.5583563228
 30
0.0
 10
11.1880905156
 20
10.5556950965
 30
0.0
 10
11.1924083707
 20
10.5530080291
 30
0.0
 10
11.1964917921
 20
10.5502964143
 30
0.0
 10
11.2003387754
 20
10.5475616346
 30
0.0
 10
11.2039473763
 20
10.5448049655
 30
0.0
 10
11.2073158274
 20
10.5420277764
 30
0.0
 10
11.2104424347
 20
10.5392313773
 30
0.0
 10
11.2133256368
 20
10.5364170422
 30
0.0
 10
11.2159639434
 20
10.5335862071
 30
0.0
 10
11.2183561566
 20
10.5307397682
 30
0.0
 10
11.2211625054
 20
10.5269970788
 30
0.0
 10
11.2235455176
 20
10.5231534714
 30
0.0
 10
11.2254375572
 20
10.5192278123
 30
0.0
 10
11.2265807026
 20
10.5163244845
 30
0.0
 10
11.2274709565
 20
10.5134141065
 30
0.0
 10
11.2281074904
 20
10.5104980625
 30
0.0
 10
11.2284897121
 20
10.5075784581
 30
0.0
 10
11.2285748011
 20
10.5056279282
 30
0.0
 10
11.2285748055
 20
10.5046565932
 30
0.0
  0
SPLINE
  5
360
100
AcDbEntity
  8
0
100
AcDbSpline
 62
7
  6
CONTINUOUS
 70
0
 71
3
 72
42
 73
38
 74
0
 42
0.0000001
 43
0.0000001
 44
0.0000000001
 40
0.0
 40
0.0
 40
0.0
 40
0.0
 40
0.0299419663
 40
0.0449235352
 40
0.0599142051
 40
0.0899287052
 40
0.1200139767
 40
0.135092661
 40
0.150196701
 40
0.1804840414
 40
0.210897872
 40
0.2414513324
 40
0.2721543376
 40
0.3030133986
 40
0.3340315263
 40
0.3652082187
 40
0.3965395244
 40
0.4280181782
 40
0.4596338019
 40
0.4913731609
 40
0.5232204716
 40
0.55515775
 40
0.5871651943
 40
0.6192215961
 40
0.6513047701
 40
0.6833919991
 40
0.7154604852
 40
0.7474878032
 40
0.7794523473
 40
0.8113337692
 40
0.8431133916
 40
0.8747746171
 40
0.9063032365
 40
0.9376879249
 40
0.9533258257
 40
0.968925233
 40
1.0
 40
1.0
 40
1.0
 40
1.0
 10
10.4747717172
 20
7.0392523664
 30
0.0
 10
10.4719182945
 20
7.0364961712
 30
0.0
 10
10.4674699856
 20
7.0325288639
 30
0.0
 10
10.4612401982
 20
7.0276063248
 30
0.0
 10
10.4548120368
 20
7.022928718
 30
0.0
 10
10.4464243282
 20
7.0175573165
 30
0.0
 10
10.437628794
 20
7.0128589014
 30
0.0
 10
10.4303747725
 20
7.0095164013
 30
0.0
 10
10.4229708764
 20
7.0064498836
 30
0.0
 10
10.4134720326
 20
7.0031524571
 30
0.0
 10
10.4017661328
 20
7.0000793445
 30
0.0
 10
10.3898048064
 20
6.9979022604
 30
0.0
 10
10.377654338
 20
6.9966332233
 30
0.0
 10
10.3653814739
 20
6.9962790037
 30
0.0
 10
10.3530537428
 20
6.9968414051
 30
0.0
 10
10.340738901
 20
6.998317179
 30
0.0
 10
10.3285046132
 20
7.0006980718
 30
0.0
 10
10.3164180722
 20
7.0039708701
 30
0.0
 10
10.3045456378
 20
7.0081174792
 30
0.0
 10
10.2929524769
 20
7.0131150246
 30
0.0
 10
10.2817022113
 20
7.0189359798
 30
0.0
 10
10.2708565727
 20
7.0255483172
 30
0.0
 10
10.2604750688
 20
7.0329156843
 30
0.0
 10
10.2506146609
 20
7.0409976028
 30
0.0
 10
10.2413294551
 20
7.0497496889
 30
0.0
 10
10.232670409
 20
7.0591238951
 30
0.0
 10
10.2246850546
 20
7.0690687712
 30
0.0
 10
10.2174172404
 20
7.0795297445
 30
0.0
 10
10.2109068924
 20
7.0904494127
 30
0.0
 10
10.2051897969
 20
7.101767868
 30
0.0
 10
10.2002974057
 20
7.1134229746
 30
0.0
 10
10.1962566564
 20
7.1253508782
 30
0.0
 10
10.1930898677
 20
7.1374857143
 30
0.0
 10
10.1911913108
 20
7.1477288358
 30
0.0
 10
10.1901262732
 20
7.1559590532
 30
0.0
 10
10.1893661837
 20
7.1641813969
 30
0.0
 10
10.1891360366
 20
7.1703686523
 30
0.0
 10
10.1891360366
 20
7.1744859387
 30
0.0
  0
SPLINE
  5
361
100
AcDbEntity
  8
0
100
AcDbSpline
 62
7
  6
CONTINUOUS
 70
0
 71
3
 72
77
 73
73
 74
0
 42
0.0000001
 43
0.0000001
 44
0.0000000001
 40
0.0
 40
0.0
 40
0.0
 40
0.0
 40
0.0038706026
 40
0.007897555
 40
0.0120841512
 40
0.0164331819
 40
0.020947023
 40
0.025627568
 40
0.0304761145
 40
0.0354935354
 40
0.0406803421
 40
0.0460366756
 40
0.0572566241
 40
0.0691495001
 40
0.0817069872
 40
0.0949175162
 40
0.1087666891
 40
0.123237611
 40
0.1383111867
 40
0.1539663533
 40
0.1701802692
 40
0.1869284637
 40
0.2041849812
 40
0.2219225225
 40
0.2401125583
 40
0.2587254303
 40
0.2777304402
 40
0.2970959575
 40
0.3167895122
 40
0.3367778793
 40
0.3570271563
 40
0.3981693121
 40
0.4399351608
 40
0.4820376681
 40
0.5241868512
 40
0.566092315
 40
0.6074658067
 40
0.6278645245
 40
0.6480244266
 40
0.6679112272
 40
0.6874912561
 40
0.7067315404
 40
0.725599898
 40
0.7440650306
 40
0.7620966053
 40
0.7796653479
 40
0.7967431466
 40
0.813303177
 40
0.8293200099
 40
0.8447697371
 40
0.8596301189
 40
0.8738807709
 40
0.8875033714
 40
0.9004818891
 40
0.9128028812
 40
0.9244558733
 40
0.9354338586
 40
0.940668945
 40
0.9457345533
 40
0.9506311149
 40
0.9553593999
 40
0.9599205869
 40
0.9643163518
 40
0.9685488337
 40
0.9726207945
 40
0.9765356312
 40
0.9802974531
 40
0.9839112367
 40
0.9873828354
 40
0.9907191586
 40
0.993928254
 40
1.0
 40
1.0
 40
1.0
 40
1.0
 10
12.4179791963
 20
8.4025180279
 30
0.0
 10
12.4189075295
 20
8.403414729
 30
0.0
 10
12.4207632791
 20
8.4052844744
 30
0.0
 10
12.4234912835
 20
8.4082513319
 30
0.0
 10
12.4262166698
 20
8.4114337464
 30
0.0
 10
12.4289380622
 20
8.4148301366
 30
0.0
 10
12.4316543178
 20
8.4184389602
 30
0.0
 10
12.434364212
 20
8.4222586399
 30
0.0
 10
12.4370665773
 20
8.4262874395
 30
0.0
 10
12.4397601646
 20
8.4305235324
 30
0.0
 10
12.4424437483
 20
8.4349650012
 30
0.0
 10
12.4460630078
 20
8.4412557257
 30
0.0
 10
12.4505447626
 20
8.4496273891
 30
0.0
 10
12.4557836828
 20
8.4603084735
 30
0.0
 10
12.4609538706
 20
8.4717553122
 30
0.0
 10
12.4660458267
 20
8.4839470204
 30
0.0
 10
12.4710501886
 20
8.4968615067
 30
0.0
 10
12.4759577405
 20
8.5104752209
 30
0.0
 10
12.4807594318
 20
8.5247633058
 30
0.0
 10
12.4854464005
 20
8.5396996321
 30
0.0
 10
12.4900099896
 20
8.5552568572
 30
0.0
 10
12.4944417751
 20
8.5714064712
 30
0.0
 10
12.4987335816
 20
8.5881188549
 30
0.0
 10
12.5028774889
 20
8.6053633449
 30
0.0
 10
12.5068658494
 20
8.6231082938
 30
0.0
 10
12.5106913009
 20
8.6413211249
 30
0.0
 10
12.5143467931
 20
8.6599683892
 30
0.0
 10
12.5178255893
 20
8.6790158357
 30
0.0
 10
12.5211212699
 20
8.6984284685
 30
0.0
 10
12.5242277819
 20
8.7181706512
 30
0.0
 10
12.5281303693
 20
8.745025927
 30
0.0
 10
12.532488303
 20
8.7791507185
 30
0.0
 10
12.5368553861
 20
8.8206104554
 30
0.0
 10
12.5403548638
 20
8.8624894437
 30
0.0
 10
12.5429610317
 20
8.9044801344
 30
0.0
 10
12.5446547132
 20
8.9462741647
 30
0.0
 10
12.545298643
 20
8.9808435721
 30
0.0
 10
12.545341665
 20
9.0081650532
 30
0.0
 10
12.5451399982
 20
9.0283206036
 30
0.0
 10
12.5447050129
 20
9.0481994005
 30
0.0
 10
12.5440375051
 20
9.0677649468
 30
0.0
 10
12.5431387214
 20
9.0869812853
 30
0.0
 10
12.5420103339
 20
9.1058131152
 30
0.0
 10
12.5406544478
 20
9.1242258477
 30
0.0
 10
12.5390735845
 20
9.1421856697
 30
0.0
 10
12.5372706807
 20
9.1596596032
 30
0.0
 10
12.5352490807
 20
9.1766155719
 30
0.0
 10
12.5330125462
 20
9.1930224669
 30
0.0
 10
12.5305652357
 20
9.2088502043
 30
0.0
 10
12.5279116966
 20
9.2240697771
 30
0.0
 10
12.5250568533
 20
9.2386533156
 30
0.0
 10
12.5220060063
 20
9.252574149
 30
0.0
 10
12.5187648229
 20
9.2658068729
 30
0.0
 10
12.5153393098
 20
9.2783273722
 30
0.0
 10
12.5117357919
 20
9.2901129663
 30
0.0
 10
12.5079609008
 20
9.301142158
 30
0.0
 10
12.5046273889
 20
9.3098187281
 30
0.0
 10
12.501872035
 20
9.3163580108
 30
0.0
 10
12.4997997483
 20
9.3209831126
 30
0.0
 10
12.4976899147
 20
9.3254046993
 30
0.0
 10
12.4955434532
 20
9.3296207722
 30
0.0
 10
12.4933613129
 20
9.3336294091
 30
0.0
 10
12.4911445131
 20
9.3374288195
 30
0.0
 10
12.4888939882
 20
9.3410172673
 30
0.0
 10
12.4866107542
 20
9.3443931478
 30
0.0
 10
12.4842958054
 20
9.3475549483
 30
0.0
 10
12.4819500992
 20
9.3505012076
 30
0.0
 10
12.4795746472
 20
9.3532306454
 30
0.0
 10
12.4771704887
 20
9.3557419056
 30
0.0
 10
12.4747382591
 20
9.3580340677
 30
0.0
 10
12.4715199244
 20
9.3607457622
 30
0.0
 10
12.4689770401
 20
9.3625294001
 30
0.0
 10
12.467240692
 20
9.3635707556
 30
0.0
  0
SPLINE
  5
362
100
AcDbEntity
  8
0
100
AcDbSpline
 62
7
  6
CONTINUOUS
 70
0
 71
3
 72
71
 73
67
 74
0
 42
0.0000001
 43
0.0000001
 44
0.0000000001
 40
0.0
 40
0.0
 40
0.0
 40
0.0
 40
0.0155841583
 40
0.0311159808
 40
0.0465952391
 40
0.0620238824
 40
0.0774034512
 40
0.0927362817
 40
0.1080251233
 40
0.1232731726
 40
0.138484055
 40
0.1536617764
 40
0.1688106901
 40
0.183935453
 40
0.1990409778
 40
0.2141323818
 40
0.2292149321
 40
0.24429399
 40
0.2593749541
 40
0.2744632037
 40
0.28956404
 40
0.3046826301
 40
0.319823951
 40
0.3349927394
 40
0.3501934432
 40
0.3654301763
 40
0.380706678
 40
0.3960262757
 40
0.4113918557
 40
0.4268058382
 40
0.442270158
 40
0.4577862479
 40
0.4733550295
 40
0.4889769098
 40
0.5046517843
 40
0.5203790419
 40
0.5361575758
 40
0.5519857968
 40
0.5678616544
 40
0.5837826609
 40
0.5997459173
 40
0.6157481415
 40
0.6317856999
 40
0.6478546445
 40
0.6639507497
 40
0.6800695506
 40
0.696206382
 40
0.7123564201
 40
0.7285147268
 40
0.7446762928
 40
0.7608360801
 40
0.7769890652
 40
0.7931302837
 40
0.8092548746
 40
0.8253581231
 40
0.8414355008
 40
0.8574827062
 40
0.8734957056
 40
0.8894707696
 40
0.9054045137
 40
0.9212939168
 40
0.9371363628
 40
0.9529297287
 40
0.9686720424
 40
0.9843627193
 40
1.0
 40
1.0
 40
1.0
 40
1.0
 10
11.1086974777
 20
7.6844741222
 30
0.0
 10
11.1086974777
 20
7.6800567754
 30
0.0
 10
11.1084812882
 20
7.6712353504
 30
0.0
 10
11.107505465
 20
7.6580588068
 30
0.0
 10
11.1058808082
 20
7.6449904789
 30
0.0
 10
11.1036113662
 20
7.6320624212
 30
0.0
 10
11.1007024594
 20
7.6193055609
 30
0.0
 10
11.0971611021
 20
7.6067507307
 30
0.0
 10
11.0929958013
 20
7.5944281761
 30
0.0
 10
11.0882165739
 20
7.5823676124
 30
0.0
 10
11.0828349169
 20
7.5705981244
 30
0.0
 10
11.0768637728
 20
7.5591481035
 30
0.0
 10
11.0703175113
 20
7.5480451759
 30
0.0
 10
11.0632119142
 20
7.5373161201
 30
0.0
 10
11.0555641078
 20
7.526986817
 30
0.0
 10
11.0473925257
 20
7.5170821867
 30
0.0
 10
11.0387168626
 20
7.5076261306
 30
0.0
 10
11.0295580357
 20
7.4986414671
 30
0.0
 10
11.0199381473
 20
7.4901498579
 30
0.0
 10
11.0098804054
 20
7.4821717788
 30
0.0
 10
10.9994090724
 20
7.4747264667
 30
0.0
 10
10.9885494043
 20
7.4678318782
 30
0.0
 10
10.9773275981
 20
7.4615046339
 30
0.0
 10
10.9657707335
 20
7.455759963
 30
0.0
 10
10.9539066892
 20
7.4506116947
 30
0.0
 10
10.9417640793
 20
7.4460722198
 30
0.0
 10
10.9293721838
 20
7.4421524677
 30
0.0
 10
10.9167608841
 20
7.4388618633
 30
0.0
 10
10.9039605901
 20
7.4362082942
 30
0.0
 10
10.8910021578
 20
7.4341981213
 30
0.0
 10
10.8779168183
 20
7.432836158
 30
0.0
 10
10.864736103
 20
7.4321256656
 30
0.0
 10
10.8514917712
 20
7.4320683241
 30
0.0
 10
10.8382157296
 20
7.4326642257
 30
0.0
 10
10.8249399549
 20
7.4339119011
 30
0.0
 10
10.8116964191
 20
7.4358083169
 30
0.0
 10
10.7985170152
 20
7.43834889
 30
0.0
 10
10.7854334774
 20
7.4415274733
 30
0.0
 10
10.7724773023
 20
7.445336375
 30
0.0
 10
10.7596796782
 20
7.449766399
 30
0.0
 10
10.7470714108
 20
7.4548068609
 30
0.0
 10
10.7346828535
 20
7.4604456188
 30
0.0
 10
10.7225438239
 20
7.466669077
 30
0.0
 10
10.7106835332
 20
7.4734622285
 30
0.0
 10
10.6991305247
 20
7.4808087071
 30
0.0
 10
10.6879126042
 20
7.4886908212
 30
0.0
 10
10.6770567786
 20
7.4970896003
 30
0.0
 10
10.6665891731
 20
7.505984816
 30
0.0
 10
10.6565349747
 20
7.5153550446
 30
0.0
 10
10.6469183821
 20
7.5251777286
 30
0.0
 10
10.6377625456
 20
7.5354292267
 30
0.0
 10
10.629089517
 20
7.5460848723
 30
0.0
 10
10.6209201713
 20
7.5571190125
 30
0.0
 10
10.6132741713
 20
7.5685050848
 30
0.0
 10
10.6061699284
 20
7.580215686
 30
0.0
 10
10.5996245576
 20
7.5922226344
 30
0.0
 10
10.5936538396
 20
7.6044970376
 30
0.0
 10
10.5882721546
 20
7.617009348
 30
0.0
 10
10.5834924658
 20
7.6297294468
 30
0.0
 10
10.5793263005
 20
7.6426267179
 30
0.0
 10
10.5757837152
 20
7.6556701131
 30
0.0
 10
10.5728732641
 20
7.6688282562
 30
0.0
 10
10.5706020158
 20
7.6820693863
 30
0.0
 10
10.5689753527
 20
7.6953618572
 30
0.0
 10
10.5679973848
 20
7.7086730897
 30
0.0
 10
10.5677789829
 20
7.7175545428
 30
0.0
 10
10.5677789829
 20
7.7219869473
 30
0.0
  0
SPLINE
  5
363
100
AcDbEntity
  8
0
100
AcDbSpline
 62
7
  6
CONTINUOUS
 70
0
 71
3
 72
71
 73
67
 74
0
 42
0.0000001
 43
0.0000001
 44
0.0000000001
 40
0.0
 40
0.0
 40
0.0
 40
0.0
 40
0.0155841583
 40
0.0311159808
 40
0.0465952391
 40
0.0620238824
 40
0.0774034512
 40
0.0927362817
 40
0.1080251233
 40
0.1232731726
 40
0.138484055
 40
0.1536617764
 40
0.1688106901
 40
0.183935453
 40
0.1990409778
 40
0.2141323818
 40
0.2292149321
 40
0.24429399
 40
0.2593749541
 40
0.2744632037
 40
0.28956404
 40
0.3046826301
 40
0.319823951
 40
0.3349927394
 40
0.3501934432
 40
0.3654301763
 40
0.380706678
 40
0.3960262757
 40
0.4113918557
 40
0.4268058382
 40
0.442270158
 40
0.4577862479
 40
0.4733550295
 40
0.4889769098
 40
0.5046517843
 40
0.5203790419
 40
0.5361575758
 40
0.5519857968
 40
0.5678616544
 40
0.5837826609
 40
0.5997459173
 40
0.6157481415
 40
0.6317856999
 40
0.6478546445
 40
0.6639507497
 40
0.6800695506
 40
0.696206382
 40
0.7123564201
 40
0.7285147268
 40
0.7446762928
 40
0.7608360801
 40
0.7769890652
 40
0.7931302837
 40
0.8092548746
 40
0.8253581231
 40
0.8414355008
 40
0.8574827062
 40
0.8734957056
 40
0.8894707696
 40
0.9054045137
 40
0.9212939168
 40
0.9371363628
 40
0.9529297287
 40
0.9686720424
 40
0.9843627193
 40
1.0
 40
1.0
 40
1.0
 40
1.0
 10
10.5677789829
 20
7.7219869473
 30
0.0
 10
10.5677789829
 20
7.7264042941
 30
0.0
 10
10.5679951724
 20
7.7352257191
 30
0.0
 10
10.5689709957
 20
7.7484022627
 30
0.0
 10
10.5705956525
 20
7.7614705906
 30
0.0
 10
10.5728650944
 20
7.7743986483
 30
0.0
 10
10.5757740013
 20
7.7871555086
 30
0.0
 10
10.5793153585
 20
7.7997103388
 30
0.0
 10
10.5834806593
 20
7.8120328934
 30
0.0
 10
10.5882598868
 20
7.8240934571
 30
0.0
 10
10.5936415437
 20
7.8358629451
 30
0.0
 10
10.5996126878
 20
7.847312966
 30
0.0
 10
10.6061589494
 20
7.8584158936
 30
0.0
 10
10.6132645464
 20
7.8691449494
 30
0.0
 10
10.6209123528
 20
7.8794742525
 30
0.0
 10
10.6290839349
 20
7.8893788828
 30
0.0
 10
10.637759598
 20
7.8988349389
 30
0.0
 10
10.6469184249
 20
7.9078196024
 30
0.0
 10
10.6565383133
 20
7.9163112116
 30
0.0
 10
10.6665960552
 20
7.9242892907
 30
0.0
 10
10.6770673882
 20
7.9317346028
 30
0.0
 10
10.6879270563
 20
7.9386291913
 30
0.0
 10
10.6991488625
 20
7.9449564356
 30
0.0
 10
10.7107057271
 20
7.9507011065
 30
0.0
 10
10.7225697714
 20
7.9558493748
 30
0.0
 10
10.7347123813
 20
7.9603888497
 30
0.0
 10
10.7471042768
 20
7.9643086018
 30
0.0
 10
10.7597155765
 20
7.9675992062
 30
0.0
 10
10.7725158706
 20
7.9702527753
 30
0.0
 10
10.7854743028
 20
7.9722629482
 30
0.0
 10
10.7985596424
 20
7.9736249115
 30
0.0
 10
10.8117403576
 20
7.9743354039
 30
0.0
 10
10.8249846894
 20
7.9743927454
 30
0.0
 10
10.8382607311
 20
7.9737968438
 30
0.0
 10
10.8515365057
 20
7.9725491684
 30
0.0
 10
10.8647800415
 20
7.9706527526
 30
0.0
 10
10.8779594454
 20
7.9681121795
 30
0.0
 10
10.8910429832
 20
7.9649335962
 30
0.0
 10
10.9039991584
 20
7.9611246945
 30
0.0
 10
10.9167967825
 20
7.9566946704
 30
0.0
 10
10.9294050499
 20
7.9516542086
 30
0.0
 10
10.9417936071
 20
7.9460154506
 30
0.0
 10
10.9539326367
 20
7.9397919925
 30
0.0
 10
10.9657929274
 20
7.932998841
 30
0.0
 10
10.9773459359
 20
7.9256523624
 30
0.0
 10
10.9885638564
 20
7.9177702483
 30
0.0
 10
10.999419682
 20
7.9093714691
 30
0.0
 10
11.0098872876
 20
7.9004762535
 30
0.0
 10
11.0199414859
 20
7.8911060249
 30
0.0
 10
11.0295580785
 20
7.8812833409
 30
0.0
 10
11.038713915
 20
7.8710318428
 30
0.0
 10
11.0473869437
 20
7.8603761972
 30
0.0
 10
11.0555562893
 20
7.849342057
 30
0.0
 10
11.0632022894
 20
7.8379559847
 30
0.0
 10
11.0703065322
 20
7.8262453834
 30
0.0
 10
11.0768519031
 20
7.8142384351
 30
0.0
 10
11.082822621
 20
7.8019640319
 30
0.0
 10
11.088204306
 20
7.7894517215
 30
0.0
 10
11.0929839948
 20
7.7767316227
 30
0.0
 10
11.0971501602
 20
7.7638343516
 30
0.0
 10
11.1006927454
 20
7.7507909563
 30
0.0
 10
11.1036031965
 20
7.7376328133
 30
0.0
 10
11.1058744448
 20
7.7243916832
 30
0.0
 10
11.1075011079
 20
7.7110992123
 30
0.0
 10
11.1084790758
 20
7.6977879798
 30
0.0
 10
11.1086974777
 20
7.6889065267
 30
0.0
 10
11.1086974777
 20
7.6844741222
 30
0.0
  0
SPLINE
  5
364
100
AcDbEntity
  8
0
100
AcDbSpline
 62
7
  6
CONTINUOUS
 70
0
 71
3
 72
85
 73
81
 74
0
 42
0.0000001
 43
0.0000001
 44
0.0000000001
 40
0.0
 40
0.0
 40
0.0
 40
0.0
 40
0.0027164321
 40
0.0054532385
 40
0.0082303085
 40
0.011066603
 40
0.0139798079
 40
0.0169861193
 40
0.0233311764
 40
0.0266975277
 40
0.0302054756
 40
0.033863392
 40
0.0376783486
 40
0.0416563264
 40
0.0458022472
 40
0.050120174
 40
0.0546133665
 40
0.0592843698
 40
0.0641351496
 40
0.0691670674
 40
0.0743810463
 40
0.0797775355
 40
0.0853565984
 40
0.0911179629
 40
0.0970609898
 40
0.1094877374
 40
0.1226269862
 40
0.1364646504
 40
0.1509834607
 40
0.1661633573
 40
0.1819818055
 40
0.1984140483
 40
0.2154333259
 40
0.233011069
 40
0.2511170619
 40
0.2697195894
 40
0.2887855696
 40
0.3082806737
 40
0.3281694478
 40
0.3484154285
 40
0.36898125
 40
0.3898287485
 40
0.4109190644
 40
0.4322127408
 40
0.4536698284
 40
0.4969118802
 40
0.5403202169
 40
0.5835675225
 40
0.6050291933
 40
0.6263287434
 40
0.6474262089
 40
0.6682821161
 40
0.6888575847
 40
0.7091144272
 40
0.7290152501
 40
0.748523559
 40
0.7676038654
 40
0.7862218038
 40
0.8043442504
 40
0.821939444
 40
0.838977118
 40
0.8554286471
 40
0.8712672105
 40
0.8864679851
 40
0.9010083612
 40
0.9148681946
 40
0.9280301198
 40
0.9404799413
 40
0.9464346146
 40
0.9522076736
 40
0.9577984609
 40
0.9632066809
 40
0.9684323855
 40
0.9734759888
 40
0.9783383641
 40
0.9830208263
 40
0.9875253632
 40
0.991854574
 40
0.996011563
 40
1.0
 40
1.0
 40
1.0
 40
1.0
 10
12.4829273995
 20
9.3664310963
 30
0.0
 10
12.4838456569
 20
9.3663674149
 30
0.0
 10
12.485684355
 20
9.3661564436
 30
0.0
 10
12.4884189983
 20
9.3655919592
 30
0.0
 10
12.4911329751
 20
9.3647794614
 30
0.0
 10
12.4938243255
 20
9.363719791
 30
0.0
 10
12.4964917906
 20
9.3624138235
 30
0.0
 10
12.5000783856
 20
9.3603080748
 30
0.0
 10
12.5035502532
 20
9.3577301311
 30
0.0
 10
12.5068955885
 20
9.3547491706
 30
0.0
 10
12.5094246736
 20
9.3522283976
 30
0.0
 10
12.5119224267
 20
9.3494685697
 30
0.0
 10
12.5143881064
 20
9.3464708696
 30
0.0
 10
12.5168204453
 20
9.3432368218
 30
0.0
 10
12.5192184
 20
9.3397680394
 30
0.0
 10
12.521580805
 20
9.3360662158
 30
0.0
 10
12.5239065387
 20
9.332133175
 30
0.0
 10
12.5261945058
 20
9.3279708651
 30
0.0
 10
12.5284435438
 20
9.3235813215
 30
0.0
 10
12.5306526029
 20
9.3189667363
 30
0.0
 10
12.5328205464
 20
9.3141293813
 30
0.0
 10
12.5349463236
 20
9.3090716679
 30
0.0
 10
12.5370288717
 20
9.3037961147
 30
0.0
 10
12.5390671466
 20
9.2983053373
 30
0.0
 10
12.5417646512
 20
9.2905858149
 30
0.0
 10
12.5450085095
 20
9.28041125
 30
0.0
 10
12.5486532744
 20
9.26756437
 30
0.0
 10
12.552098467
 20
9.2539302976
 30
0.0
 10
12.5553371124
 20
9.2395363246
 30
0.0
 10
12.5583626263
 20
9.2244111244
 30
0.0
 10
12.5611688527
 20
9.2085849533
 30
0.0
 10
12.563750081
 20
9.1920895015
 30
0.0
 10
12.5661010598
 20
9.174957843
 30
0.0
 10
12.568217004
 20
9.1572243519
 30
0.0
 10
12.5700936061
 20
9.1389246291
 30
0.0
 10
12.5717270449
 20
9.1200954273
 30
0.0
 10
12.5731139915
 20
9.1007745762
 30
0.0
 10
12.5742516221
 20
9.0810009057
 30
0.0
 10
12.5751376191
 20
9.0608141644
 30
0.0
 10
12.575770174
 20
9.0402549363
 30
0.0
 10
12.5761479903
 20
9.0193645585
 30
0.0
 10
12.5762702886
 20
8.9981850343
 30
0.0
 10
12.5761367983
 20
8.9767589644
 30
0.0
 10
12.5757477963
 20
8.9551294031
 30
0.0
 10
12.5748871907
 20
8.9260029252
 30
0.0
 10
12.5731784083
 20
8.8894071508
 30
0.0
 10
12.5701408554
 20
8.8454927812
 30
0.0
 10
12.5667946136
 20
8.8090069286
 30
0.0
 10
12.5636365557
 20
8.7800340227
 30
0.0
 10
12.5610434812
 20
8.7585509281
 30
0.0
 10
12.558225254
 20
8.7373032664
 30
0.0
 10
12.5551875295
 20
8.7163337345
 30
0.0
 10
12.5519364421
 20
8.6956845072
 30
0.0
 10
12.548478548
 20
8.6753971003
 30
0.0
 10
12.5448208238
 20
8.6555123014
 30
0.0
 10
12.5409706499
 20
8.6360700841
 30
0.0
 10
12.5369357956
 20
8.6171095269
 30
0.0
 10
12.5327244072
 20
8.5986687303
 30
0.0
 10
12.5283449918
 20
8.5807847372
 30
0.0
 10
12.5238063967
 20
8.5634934588
 30
0.0
 10
12.519117792
 20
8.546829601
 30
0.0
 10
12.5142886524
 20
8.5308265912
 30
0.0
 10
12.5093287351
 20
8.5155165063
 30
0.0
 10
12.5042480636
 20
8.5009299912
 30
0.0
 10
12.4990569037
 20
8.4870962112
 30
0.0
 10
12.4937657283
 20
8.4740427087
 30
0.0
 10
12.4883852073
 20
8.4617956046
 30
0.0
 10
12.4837700698
 20
8.4521436417
 30
0.0
 10
12.4800343574
 20
8.4448519044
 30
0.0
 10
12.4772586216
 20
8.4396810451
 30
0.0
 10
12.4744686609
 20
8.4347292973
 30
0.0
 10
12.4716658588
 20
8.4299991168
 30
0.0
 10
12.4688516225
 20
8.4254928538
 30
0.0
 10
12.4660273206
 20
8.4212127681
 30
0.0
 10
12.4631944109
 20
8.4171609668
 30
0.0
 10
12.4603542337
 20
8.4133394702
 30
0.0
 10
12.4575081811
 20
8.4097501229
 30
0.0
 10
12.4546575722
 20
8.4063946786
 30
0.0
 10
12.4518039365
 20
8.403274959
 30
0.0
 10
12.4498608847
 20
8.4013133752
 30
0.0
 10
12.4488888253
 20
8.4003744379
 30
0.0
  0
SPLINE
  5
365
100
AcDbEntity
  8
0
100
AcDbSpline
 62
7
  6
CONTINUOUS
 70
0
 71
3
 72
19
 73
15
 74
0
 42
0.0000001
 43
0.0000001
 44
0.0000000001
 40
0.0
 40
0.0
 40
0.0
 40
0.0
 40
0.150460937
 40
0.2916987357
 40
0.424419542
 40
0.4878837275
 40
0.5495802504
 40
0.6682271673
 40
0.7255606103
 40
0.7817998831
 40
0.8371466721
 40
0.8918135967
 40
0.94602219
 40
1.0
 40
1.0
 40
1.0
 40
1.0
 10
12.4488888253
 20
8.4003744379
 30
0.0
 10
12.4474978935
 20
8.3990309008
 30
0.0
 10
12.4447179429
 20
8.3965100431
 30
0.0
 10
12.4404134579
 20
8.3931507111
 30
0.0
 10
12.4367776429
 20
8.3907748046
 30
0.0
 10
12.4338783129
 20
8.3891659091
 30
0.0
 10
12.4310645178
 20
8.387784638
 30
0.0
 10
12.428217778
 20
8.386655573
 30
0.0
 10
12.4253550221
 20
8.3858059464
 30
0.0
 10
12.4232383787
 20
8.3853162165
 30
0.0
 10
12.4211287814
 20
8.3849671592
 30
0.0
 10
12.4190267873
 20
8.3847589471
 30
0.0
 10
12.4169332465
 20
8.3846916608
 30
0.0
 10
12.4155423574
 20
8.3847408511
 30
0.0
 10
12.4148502511
 20
8.3847888489
 30
0.0
  0
SPLINE
  5
366
100
AcDbEntity
  8
0
100
AcDbSpline
 62
7
  6
CONTINUOUS
 70
0
 71
3
 72
11
 73
7
 74
0
 42
0.0000001
 43
0.0000001
 44
0.0000000001
 40
0.0
 40
0.0
 40
0.0
 40
0.0
 40
0.2753135921
 40
0.5326610546
 40
0.7735605812
 40
1.0
 40
1.0
 40
1.0
 40
1.0
 10
12.4179791963
 20
8.4025180279
 30
0.0
 10
12.4164978779
 20
8.4010871842
 30
0.0
 10
12.4135375895
 20
8.3984136663
 30
0.0
 10
12.4089431021
 20
8.3948842632
 30
0.0
 10
12.4043550722
 20
8.3919817225
 30
0.0
 10
12.4012153958
 20
8.390424876
 30
0.0
 10
12.3996554572
 20
8.3897646333
 30
0.0
  0
SPLINE
  5
367
100
AcDbEntity
  8
0
100
AcDbSpline
 62
7
  6
CONTINUOUS
 70
0
 71
3
 72
19
 73
15
 74
0
 42
0.0000001
 43
0.0000001
 44
0.0000000001
 40
0.0
 40
0.0
 40
0.0
 40
0.0
 40
0.1528795208
 40
0.2945793324
 40
0.4262315104
 40
0.5493503634
 40
0.6083254411
 40
0.665912816
 40
0.7224099102
 40
0.7781332482
 40
0.8334138109
 40
0.8885914131
 40
0.9440077679
 40
1.0
 40
1.0
 40
1.0
 40
1.0
 10
12.4179791963
 20
8.5792824646
 30
0.0
 10
12.4169351322
 20
8.5782739762
 30
0.0
 10
12.4148489224
 20
8.5764051407
 30
0.0
 10
12.4115962406
 20
8.5739863593
 30
0.0
 10
12.4083480068
 20
8.5720681689
 30
0.0
 10
12.4056081749
 20
8.5708746475
 30
0.0
 10
12.4034359389
 20
8.5701902451
 30
0.0
 10
12.4018352779
 20
8.5698118838
 30
0.0
 10
12.4002408745
 20
8.5695615272
 30
0.0
 10
12.3986534471
 20
8.5694393614
 30
0.0
 10
12.3970738341
 20
8.5694455879
 30
0.0
 10
12.3955028455
 20
8.569580201
 30
0.0
 10
12.3939414359
 20
8.5698430749
 30
0.0
 10
12.3929144438
 20
8.5701019833
 30
0.0
 10
12.3924043401
 20
8.5702517905
 30
0.0
  0
SPLINE
  5
368
100
AcDbEntity
  8
0
100
AcDbSpline
 62
7
  6
CONTINUOUS
 70
0
 71
3
 72
21
 73
17
 74
0
 42
0.0000001
 43
0.0000001
 44
0.0000000001
 40
0.0
 40
0.0
 40
0.0
 40
0.0
 40
0.1273176366
 40
0.2537999756
 40
0.3167619475
 40
0.3795355041
 40
0.4421314991
 40
0.5045621439
 40
0.5668413432
 40
0.6289845283
 40
0.6910084528
 40
0.7529310935
 40
0.8147714495
 40
0.8765493365
 40
0.9382852194
 40
1.0
 40
1.0
 40
1.0
 40
1.0
 10
11.1550619201
 20
10.0052764305
 30
0.0
 10
11.1550619201
 20
10.0105736804
 30
0.0
 10
11.1555675776
 20
10.0211402446
 30
0.0
 10
11.1574772816
 20
10.0342028011
 30
0.0
 10
11.1597598026
 20
10.0444492347
 30
0.0
 10
11.1618413391
 20
10.0520070078
 30
0.0
 10
11.1642901267
 20
10.0594304918
 30
0.0
 10
11.1671005545
 20
10.0667027716
 30
0.0
 10
11.1702661219
 20
10.0738070335
 30
0.0
 10
11.1737795733
 20
10.0807268939
 30
0.0
 10
11.1776328266
 20
10.0874463782
 30
0.0
 10
11.1818169731
 20
10.0939500101
 30
0.0
 10
11.1863223755
 20
10.1002227628
 30
0.0
 10
11.1911387227
 20
10.1062501947
 30
0.0
 10
11.1962546813
 20
10.1120182413
 30
0.0
 10
11.1998578846
 20
10.1156824814
 30
0.0
 10
11.2017047434
 20
10.1174664103
 30
0.0
  0
SPLINE
  5
369
100
AcDbEntity
  8
0
100
AcDbSpline
 62
4
  6
CONTINUOUS
 70
0
 71
3
 72
397
 73
393
 74
0
 42
0.0000001
 43
0.0000001
 44
0.0000000001
 40
0.0
 40
0.0
 40
0.0
 40
0.0
 40
0.015625
 40
0.0234375
 40
0.03125
 40
0.0390625
 40
0.04296875
 40
0.046875
 40
0.05078125
 40
0.0546875
 40
0.056640625
 40
0.05859375
 40
0.0595703125
 40
0.060546875
 40
0.0615234375
 40
0.0620117188
 40
0.0622558594
 40
0.0625
 40
0.0627441406
 40
0.0629882812
 40
0.0634765625
 40
0.064453125
 40
0.0654296875
 40
0.06640625
 40
0.068359375
 40
0.0703125
 40
0.07421875
 40
0.078125
 40
0.08203125
 40
0.0859375
 40
0.09375
 40
0.1015625
 40
0.10546875
 40
0.109375
 40
0.11328125
 40
0.1171875
 40
0.119140625
 40
0.12109375
 40
0.1220703125
 40
0.123046875
 40
0.1240234375
 40
0.1245117188
 40
0.1247558594
 40
0.125
 40
0.1252441406
 40
0.1254882812
 40
0.1259765625
 40
0.126953125
 40
0.1279296875
 40
0.12890625
 40
0.130859375
 40
0.1328125
 40
0.13671875
 40
0.140625
 40
0.14453125
 40
0.1484375
 40
0.15625
 40
0.1640625
 40
0.16796875
 40
0.171875
 40
0.17578125
 40
0.1796875
 40
0.181640625
 40
0.18359375
 40
0.1845703125
 40
0.185546875
 40
0.1865234375
 40
0.1870117188
 40
0.1872558594
 40
0.1875
 40
0.1877441406
 40
0.1879882812
 40
0.1884765625
 40
0.189453125
 40
0.1904296875
 40
0.19140625
 40
0.193359375
 40
0.1953125
 40
0.19921875
 40
0.203125
 40
0.20703125
 40
0.2109375
 40
0.21875
 40
0.2265625
 40
0.23046875
 40
0.234375
 40
0.23828125
 40
0.2421875
 40
0.244140625
 40
0.24609375
 40
0.2470703125
 40
0.248046875
 40
0.2490234375
 40
0.2495117188
 40
0.2497558594
 40
0.25
 40
0.2502441406
 40
0.2504882812
 40
0.2509765625
 40
0.251953125
 40
0.2529296875
 40
0.25390625
 40
0.255859375
 40
0.2578125
 40
0.26171875
 40
0.265625
 40
0.26953125
 40
0.2734375
 40
0.28125
 40
0.2890625
 40
0.29296875
 40
0.296875
 40
0.30078125
 40
0.3046875
 40
0.306640625
 40
0.30859375
 40
0.3095703125
 40
0.310546875
 40
0.3115234375
 40
0.3120117188
 40
0.3122558594
 40
0.3125
 40
0.3127441406
 40
0.3129882812
 40
0.3134765625
 40
0.314453125
 40
0.3154296875
 40
0.31640625
 40
0.318359375
 40
0.3203125
 40
0.32421875
 40
0.328125
 40
0.33203125
 40
0.3359375
 40
0.34375
 40
0.3515625
 40
0.35546875
 40
0.359375
 40
0.36328125
 40
0.3671875
 40
0.369140625
 40
0.37109375
 40
0.3720703125
 40
0.373046875
 40
0.3740234375
 40
0.3745117188
 40
0.3747558594
 40
0.375
 40
0.3752441406
 40
0.3754882812
 40
0.3759765625
 40
0.376953125
 40
0.3779296875
 40
0.37890625
 40
0.380859375
 40
0.3828125
 40
0.38671875
 40
0.390625
 40
0.39453125
 40
0.3984375
 40
0.40625
 40
0.4140625
 40
0.41796875
 40
0.421875
 40
0.42578125
 40
0.4296875
 40
0.431640625
 40
0.43359375
 40
0.4345703125
 40
0.435546875
 40
0.4365234375
 40
0.4370117188
 40
0.4372558594
 40
0.4375
 40
0.4377441406
 40
0.4379882812
 40
0.4384765625
 40
0.439453125
 40
0.4404296875
 40
0.44140625
 40
0.443359375
 40
0.4453125
 40
0.44921875
 40
0.453125
 40
0.45703125
 40
0.4609375
 40
0.46875
 40
0.4765625
 40
0.48046875
 40
0.484375
 40
0.48828125
 40
0.4921875
 40
0.494140625
 40
0.49609375
 40
0.4970703125
 40
0.498046875
 40
0.4990234375
 40
0.4995117188
 40
0.4997558594
 40
0.5
 40
0.5002441406
 40
0.5004882812
 40
0.5009765625
 40
0.501953125
 40
0.5029296875
 40
0.50390625
 40
0.505859375
 40
0.5078125
 40
0.51171875
 40
0.515625
 40
0.51953125
 40
0.5234375
 40
0.53125
 40
0.5390625
 40
0.54296875
 40
0.546875
 40
0.55078125
 40
0.5546875
 40
0.556640625
 40
0.55859375
 40
0.5595703125
 40
0.560546875
 40
0.5615234375
 40
0.5620117188
 40
0.5622558594
 40
0.5625
 40
0.5627441406
 40
0.5629882812
 40
0.5634765625
 40
0.564453125
 40
0.5654296875
 40
0.56640625
 40
0.568359375
 40
0.5703125
 40
0.57421875
 40
0.578125
 40
0.58203125
 40
0.5859375
 40
0.59375
 40
0.6015625
 40
0.60546875
 40
0.609375
 40
0.61328125
 40
0.6171875
 40
0.619140625
 40
0.62109375
 40
0.6220703125
 40
0.623046875
 40
0.6240234375
 40
0.6245117188
 40
0.625
 40
0.6254882812
 40
0.6259765625
 40
0.626953125
 40
0.6279296875
 40
0.62890625
 40
0.630859375
 40
0.6328125
 40
0.63671875
 40
0.640625
 40
0.64453125
 40
0.6484375
 40
0.65625
 40
0.6640625
 40
0.66796875
 40
0.671875
 40
0.67578125
 40
0.6796875
 40
0.681640625
 40
0.68359375
 40
0.6845703125
 40
0.685546875
 40
0.6865234375
 40
0.6870117188
 40
0.6872558594
 40
0.6875
 40
0.6877441406
 40
0.6879882812
 40
0.6884765625
 40
0.689453125
 40
0.6904296875
 40
0.69140625
 40
0.693359375
 40
0.6953125
 40
0.69921875
 40
0.703125
 40
0.70703125
 40
0.7109375
 40
0.71875
 40
0.7265625
 40
0.73046875
 40
0.734375
 40
0.73828125
 40
0.7421875
 40
0.744140625
 40
0.74609375
 40
0.7470703125
 40
0.748046875
 40
0.7490234375
 40
0.7495117188
 40
0.7497558594
 40
0.75
 40
0.7502441406
 40
0.7504882812
 40
0.7509765625
 40
0.751953125
 40
0.7529296875
 40
0.75390625
 40
0.755859375
 40
0.7578125
 40
0.76171875
 40
0.765625
 40
0.76953125
 40
0.7734375
 40
0.78125
 40
0.7890625
 40
0.79296875
 40
0.796875
 40
0.80078125
 40
0.8046875
 40
0.806640625
 40
0.80859375
 40
0.8095703125
 40
0.810546875
 40
0.8115234375
 40
0.8120117188
 40
0.8125
 40
0.8129882812
 40
0.8134765625
 40
0.814453125
 40
0.8154296875
 40
0.81640625
 40
0.818359375
 40
0.8203125
 40
0.82421875
 40
0.828125
 40
0.83203125
 40
0.8359375
 40
0.84375
 40
0.8515625
 40
0.85546875
 40
0.859375
 40
0.86328125
 40
0.8671875
 40
0.869140625
 40
0.87109375
 40
0.8720703125
 40
0.873046875
 40
0.8740234375
 40
0.8745117188
 40
0.875
 40
0.8754882812
 40
0.8759765625
 40
0.876953125
 40
0.8779296875
 40
0.87890625
 40
0.880859375
 40
0.8828125
 40
0.88671875
 40
0.890625
 40
0.89453125
 40
0.8984375
 40
0.90625
 40
0.9140625
 40
0.91796875
 40
0.921875
 40
0.92578125
 40
0.9296875
 40
0.931640625
 40
0.93359375
 40
0.9345703125
 40
0.935546875
 40
0.9365234375
 40
0.9370117188
 40
0.9372558594
 40
0.9375
 40
0.9377441406
 40
0.9379882812
 40
0.9384765625
 40
0.939453125
 40
0.9404296875
 40
0.94140625
 40
0.943359375
 40
0.9453125
 40
0.94921875
 40
0.953125
 40
0.95703125
 40
0.9609375
 40
0.96875
 40
0.9765625
 40
0.984375
 40
1.0
 40
1.0
 40
1.0
 40
1.0
 10
10.4045375086
 20
8.7369047574
 30
0.0
 10
10.4073517484
 20
8.7369855279
 30
0.0
 10
10.4115731081
 20
8.7371066835
 30
0.0
 10
10.4172015878
 20
8.7372682244
 30
0.0
 10
10.4214229475
 20
8.7373893801
 30
0.0
 10
10.4249407472
 20
8.7374903429
 30
0.0
 10
10.427754987
 20
8.7375711137
 30
0.0
 10
10.429865667
 20
8.7376316906
 30
0.0
 10
10.4319763462
 20
8.7376922718
 30
0.0
 10
10.4337352482
 20
8.7377427429
 30
0.0
 10
10.4351423639
 20
8.7377831494
 30
0.0
 10
10.4360218244
 20
8.737808336
 30
0.0
 10
10.4367253627
 20
8.7378286397
 30
0.0
 10
10.437253099
 20
8.7378434446
 30
0.0
 10
10.4376926164
 20
8.7378571275
 30
0.0
 10
10.4380007943
 20
8.737864065
 30
0.0
 10
10.4381760908
 20
8.7378721522
 30
0.0
 10
10.4383098315
 20
8.7378666035
 30
0.0
 10
10.438434901
 20
8.7379054494
 30
0.0
 10
10.438604685
 20
8.7379417586
 30
0.0
 10
10.4389003977
 20
8.7380125147
 30
0.0
 10
10.4393235812
 20
8.7381098227
 30
0.0
 10
10.4398310861
 20
8.7382282069
 30
0.0
 10
10.4405078694
 20
8.7383854885
 30
0.0
 10
10.4413538108
 20
8.7385822837
 30
0.0
 10
10.4427073381
 20
8.738897048
 30
0.0
 10
10.44439924
 20
8.7392905404
 30
0.0
 10
10.4464295253
 20
8.7397627154
 30
0.0
 10
10.4484598099
 20
8.7402348947
 30
0.0
 10
10.4511668562
 20
8.7408644655
 30
0.0
 10
10.454550664
 20
8.7416514297
 30
0.0
 10
10.457934472
 20
8.7424383934
 30
0.0
 10
10.4606415181
 20
8.7430679649
 30
0.0
 10
10.4626718032
 20
8.7435401424
 30
0.0
 10
10.4647020866
 20
8.744012324
 30
0.0
 10
10.4663939946
 20
8.744405796
 30
0.0
 10
10.4677475096
 20
8.7447206019
 30
0.0
 10
10.4685934823
 20
8.7449172911
 30
0.0
 10
10.4692702013
 20
8.7450747902
 30
0.0
 10
10.4697779026
 20
8.7451925101
 30
0.0
 10
10.4702004714
 20
8.7452918966
 30
0.0
 10
10.4704972814
 20
8.7453589421
 30
0.0
 10
10.4706653072
 20
8.7454011965
 30
0.0
 10
10.4707957772
 20
8.7454217808
 30
0.0
 10
10.4709092348
 20
8.7454848198
 30
0.0
 10
10.4710664458
 20
8.7455540631
 30
0.0
 10
10.4713388001
 20
8.7456821385
 30
0.0
 10
10.4717293232
 20
8.7458614961
 30
0.0
 10
10.4721973323
 20
8.7460782693
 30
0.0
 10
10.4728215604
 20
8.746366761
 30
0.0
 10
10.4736017716
 20
8.7467275602
 30
0.0
 10
10.4748501509
 20
8.7473047357
 30
0.0
 10
10.4764106108
 20
8.7480262405
 30
0.0
 10
10.4782831687
 20
8.7488920311
 30
0.0
 10
10.480155725
 20
8.7497578257
 30
0.0
 10
10.4826524674
 20
8.7509122172
 30
0.0
 10
10.4857733951
 20
8.752355207
 30
0.0
 10
10.4888943229
 20
8.7537981965
 30
0.0
 10
10.491391065
 20
8.7549525885
 30
0.0
 10
10.4932636221
 20
8.7558183814
 30
0.0
 10
10.4951361771
 20
8.7566841784
 30
0.0
 10
10.4966966461
 20
8.7574056634
 30
0.0
 10
10.4979450068
 20
8.7579828792
 30
0.0
 10
10.4987252653
 20
8.7583435759
 30
0.0
 10
10.4993493963
 20
8.758632278
 30
0.0
 10
10.4998177023
 20
8.7588484083
 30
0.0
 10
10.5002072963
 20
8.7590297772
 30
0.0
 10
10.5004813092
 20
8.7591542622
 30
0.0
 10
10.5006358628
 20
8.7592292583
 30
0.0
 10
10.500757483
 20
8.7592746265
 30
0.0
 10
10.5008572958
 20
8.7593615794
 30
0.0
 10
10.5009979863
 20
8.7594630113
 30
0.0
 10
10.5012406506
 20
8.7596472755
 30
0.0
 10
10.5015891667
 20
8.7599069767
 30
0.0
 10
10.5020065929
 20
8.7602201306
 30
0.0
 10
10.5025634382
 20
8.7606371408
 30
0.0
 10
10.5032594
 20
8.7611585845
 30
0.0
 10
10.5043729918
 20
8.7619927932
 30
0.0
 10
10.5057649635
 20
8.7630355888
 30
0.0
 10
10.5074353372
 20
8.7642869287
 30
0.0
 10
10.5091057089
 20
8.7655382726
 30
0.0
 10
10.5113328719
 20
8.7672067297
 30
0.0
 10
10.5141168253
 20
8.7692923016
 30
0.0
 10
10.5169007789
 20
8.7713778732
 30
0.0
 10
10.5191279415
 20
8.7730463308
 30
0.0
 10
10.5207983143
 20
8.7742976732
 30
0.0
 10
10.5224686838
 20
8.7755490186
 30
0.0
 10
10.5238606688
 20
8.776591797
 30
0.0
 10
10.5249742334
 20
8.7774260409
 30
0.0
 10
10.5256702645
 20
8.7779473951
 30
0.0
 10
10.5262269676
 20
8.7783645889
 30
0.0
 10
10.5266448282
 20
8.778677182
 30
0.0
 10
10.5269919854
 20
8.7789386377
 30
0.0
 10
10.5272370754
 20
8.7791197699
 30
0.0
 10
10.5273738792
 20
8.77922622
 30
0.0
 10
10.5274856308
 20
8.7792977587
 30
0.0
 10
10.527562411
 20
8.7794010202
 30
0.0
 10
10.5276769831
 20
8.779527637
 30
0.0
 10
10.5278718007
 20
8.7797543718
 30
0.0
 10
10.5281530829
 20
8.7800755833
 30
0.0
 10
10.5284893498
 20
8.7804621909
 30
0.0
 10
10.5289381499
 20
8.7809772647
 30
0.0
 10
10.5294989978
 20
8.7816212449
 30
0.0
 10
10.5303964396
 20
8.7826515361
 30
0.0
 10
10.5315182126
 20
8.7839394266
 30
0.0
 10
10.5328643527
 20
8.7854848839
 30
0.0
 10
10.5342104895
 20
8.7870303442
 30
0.0
 10
10.5360053397
 20
8.7890909568
 30
0.0
 10
10.5382489021
 20
8.791666723
 30
0.0
 10
10.5404924647
 20
8.794242489
 30
0.0
 10
10.5422873144
 20
8.796303102
 30
0.0
 10
10.5436334526
 20
8.7978485611
 30
0.0
 10
10.5449795873
 20
8.7993940228
 30
0.0
 10
10.5461013773
 20
8.8006818994
 30
0.0
 10
10.5469987845
 20
8.801712219
 30
0.0
 10
10.5475597204
 20
8.8023561271
 30
0.0
 10
10.54800834
 20
8.8028713489
 30
0.0
 10
10.5483451581
 20
8.8032575042
 30
0.0
 10
10.5486247156
 20
8.8035801308
 30
0.0
 10
10.5488226122
 20
8.8038043394
 30
0.0
 10
10.5489322509
 20
8.8039350039
 30
0.0
 10
10.549024185
 20
8.8040258322
 30
0.0
 10
10.5490790211
 20
8.8041440681
 30
0.0
 10
10.5491650761
 20
8.8042921559
 30
0.0
 10
10.5493096434
 20
8.8045557639
 30
0.0
 10
10.5495193201
 20
8.8049300179
 30
0.0
 10
10.5497695829
 20
8.8053801196
 30
0.0
 10
10.5501037379
 20
8.8059799069
 30
0.0
 10
10.5505212703
 20
8.8067297603
 30
0.0
 10
10.5511894124
 20
8.8079294591
 30
0.0
 10
10.552024559
 20
8.8094291054
 30
0.0
 10
10.5530267482
 20
8.8112286713
 30
0.0
 10
10.5540289339
 20
8.8130282397
 30
0.0
 10
10.5553651827
 20
8.8154276634
 30
0.0
 10
10.5570354933
 20
8.8184269434
 30
0.0
 10
10.5587058041
 20
8.8214262231
 30
0.0
 10
10.5600420524
 20
8.8238256471
 30
0.0
 10
10.5610442396
 20
8.8256252146
 30
0.0
 10
10.5620464229
 20
8.827424784
 30
0.0
 10
10.562881588
 20
8.8289244193
 30
0.0
 10
10.5635496925
 20
8.8301241408
 30
0.0
 10
10.5639673204
 20
8.8308739363
 30
0.0
 10
10.5643012794
 20
8.8314738424
 30
0.0
 10
10.5645521413
 20
8.8319235813
 30
0.0
 10
10.5647599437
 20
8.8322989703
 30
0.0
 10
10.5649078568
 20
8.8325605522
 30
0.0
 10
10.5649885509
 20
8.8327118862
 30
0.0
 10
10.5650598539
 20
8.8328201508
 30
0.0
 10
10.5650899415
 20
8.8329484299
 30
0.0
 10
10.5651444347
 20
8.8331124874
 30
0.0
 10
10.5652330996
 20
8.8334028408
 30
0.0
 10
10.5653632657
 20
8.8338159308
 30
0.0
 10
10.565517966
 20
8.8343123667
 30
0.0
 10
10.5657247566
 20
8.834974027
 30
0.0
 10
10.5659830657
 20
8.8358011894
 30
0.0
 10
10.5663964604
 20
8.8371246006
 30
0.0
 10
10.5669131693
 20
8.8387788813
 30
0.0
 10
10.5675332348
 20
8.840764011
 30
0.0
 10
10.5681532964
 20
8.8427491425
 30
0.0
 10
10.5689800465
 20
8.845395984
 30
0.0
 10
10.5700134836
 20
8.848704536
 30
0.0
 10
10.5710469211
 20
8.8520130879
 30
0.0
 10
10.5718736706
 20
8.8546599296
 30
0.0
 10
10.5724937339
 20
8.8566450605
 30
0.0
 10
10.5731137929
 20
8.8586301928
 30
0.0
 10
10.5736305219
 20
8.8602844651
 30
0.0
 10
10.5740438758
 20
8.8616078935
 30
0.0
 10
10.5743022885
 20
8.862435012
 30
0.0
 10
10.5745088664
 20
8.8630967624
 30
0.0
 10
10.5746642167
 20
8.8635929232
 30
0.0
 10
10.5747923492
 20
8.8640068739
 30
0.0
 10
10.5748846444
 20
8.8642956907
 30
0.0
 10
10.574933321
 20
8.8644622102
 30
0.0
 10
10.5749812753
 20
8.8645829271
 30
0.0
 10
10.574985474
 20
8.8647195939
 30
0.0
 10
10.5750063348
 20
8.8648962528
 30
0.0
 10
10.5750357301
 20
8.865207998
 30
0.0
 10
10.5750814412
 20
8.865651993
 30
0.0
 10
10.5751347031
 20
8.8661853672
 30
0.0
 10
10.5752062749
 20
8.8668963301
 30
0.0
 10
10.5752955492
 20
8.8677851031
 30
0.0
 10
10.5754384946
 20
8.8692071012
 30
0.0
 10
10.5756171398
 20
8.8709846121
 30
0.0
 10
10.5758315296
 20
8.8731176195
 30
0.0
 10
10.5760459153
 20
8.8752506284
 30
0.0
 10
10.5763317643
 20
8.8780946397
 30
0.0
 10
10.5766890751
 20
8.8816496541
 30
0.0
 10
10.5770463862
 20
8.8852046684
 30
0.0
 10
10.5773322347
 20
8.8880486798
 30
0.0
 10
10.5775466221
 20
8.8901816884
 30
0.0
 10
10.5777610053
 20
8.8923146969
 30
0.0
 10
10.5779396714
 20
8.8940922043
 30
0.0
 10
10.578082574
 20
8.8955142096
 30
0.0
 10
10.5781719572
 20
8.8964029642
 30
0.0
 10
10.5782433056
 20
8.8971139649
 30
0.0
 10
10.5782972498
 20
8.8976472236
 30
0.0
 10
10.5783408261
 20
8.8980915798
 30
0.0
 10
10.5783740324
 20
8.8984026803
 30
0.0
 10
10.578388787
 20
8.8985803722
 30
0.0
 10
10.5784117418
 20
8.8987138661
 30
0.0
 10
10.5783892515
 20
8.8988464997
 30
0.0
 10
10.5783751163
 20
8.8990236446
 30
0.0
 10
10.5783429939
 20
8.8993335084
 30
0.0
 10
10.5783009661
 20
8.899776244
 30
0.0
 10
10.57824888
 20
8.9003074955
 30
0.0
 10
10.5781800091
 20
8.9010158417
 30
0.0
 10
10.5780937229
 20
8.9019012707
 30
0.0
 10
10.5779557753
 20
8.9033179592
 30
0.0
 10
10.577783303
 20
8.9050888191
 30
0.0
 10
10.5775763525
 20
8.9072138514
 30
0.0
 10
10.5773693976
 20
8.9093388835
 30
0.0
 10
10.5770934593
 20
8.9121722597
 30
0.0
 10
10.5767485358
 20
8.91571398
 30
0.0
 10
10.5764036127
 20
8.9192557003
 30
0.0
 10
10.5761276738
 20
8.9220890765
 30
0.0
 10
10.5759207207
 20
8.9242141088
 30
0.0
 10
10.5757137634
 20
8.9263391405
 30
0.0
 10
10.5755413121
 20
8.928110002
 30
0.0
 10
10.5754033218
 20
8.9295266874
 30
0.0
 10
10.5753171444
 20
8.9304121243
 30
0.0
 10
10.5752480501
 20
8.9311204543
 30
0.0
 10
10.5751966466
 20
8.9316517554
 30
0.0
 10
10.5751524831
 20
8.9320943356
 30
0.0
 10
10.5751241733
 20
8.9324044768
 30
0.0
 10
10.5751039293
 20
8.9325811771
 30
0.0
 10
10.575100203
 20
8.9327151764
 30
0.0
 10
10.5750526835
 20
8.9328435413
 30
0.0
 10
10.5750045997
 20
8.9330166599
 30
0.0
 10
10.5749133359
 20
8.9333187018
 30
0.0
 10
10.57478668
 20
8.933750669
 30
0.0
 10
10.5746331003
 20
8.9342688246
 30
0.0
 10
10.5744288836
 20
8.9349597704
 30
0.0
 10
10.5741734222
 20
8.9358234281
 30
0.0
 10
10.5737647904
 20
8.9372052941
 30
0.0
 10
10.5732539642
 20
8.9389326219
 30
0.0
 10
10.5726409884
 20
8.9410054173
 30
0.0
 10
10.5720280085
 20
8.9430782121
 30
0.0
 10
10.5712107033
 20
8.9458419388
 30
0.0
 10
10.5701890714
 20
8.949296597
 30
0.0
 10
10.5691674393
 20
8.9527512552
 30
0.0
 10
10.5683501346
 20
8.9555149821
 30
0.0
 10
10.5677371531
 20
8.9575877762
 30
0.0
 10
10.5671241828
 20
8.9596605742
 30
0.0
 10
10.5666133395
 20
8.961387894
 30
0.0
 10
10.5662047426
 20
8.9627697764
 30
0.0
 10
10.5659491926
 20
8.9636333923
 30
0.0
 10
10.5657451578
 20
8.9643244239
 30
0.0
 10
10.5655910222
 20
8.9648423172
 30
0.0
 10
10.5654661055
 20
8.965275105
 30
0.0
 10
10.5653582557
 20
8.9656186214
 30
0.0
 10
10.5652989999
 20
8.9658836744
 30
0.0
 10
10.5651571763
 20
8.9661204215
 30
0.0
 10
10.5649969203
 20
8.9664459719
 30
0.0
 10
10.5647867046
 20
8.9668495175
 30
0.0
 10
10.5645386815
 20
8.9673352243
 30
0.0
 10
10.5642065046
 20
8.9679823263
 30
0.0
 10
10.5637917899
 20
8.9687913773
 30
0.0
 10
10.5631279634
 20
8.9700857619
 30
0.0
 10
10.5622982774
 20
8.971703776
 30
0.0
 10
10.5613026126
 20
8.9736453787
 30
0.0
 10
10.5603069589
 20
8.9755869851
 30
0.0
 10
10.5589794167
 20
8.9781757924
 30
0.0
 10
10.5573199903
 20
8.9814118019
 30
0.0
 10
10.5556605636
 20
8.9846478113
 30
0.0
 10
10.554333022
 20
8.9872366187
 30
0.0
 10
10.5533373668
 20
8.9891782247
 30
0.0
 10
10.5523417077
 20
8.9911198289
 30
0.0
 10
10.5515120038
 20
8.9927378381
 30
0.0
 10
10.5508482139
 20
8.9940322328
 30
0.0
 10
10.550433406
 20
8.9948412583
 30
0.0
 10
10.5501014204
 20
8.9954884126
 30
0.0
 10
10.5498528129
 20
8.9959739595
 30
0.0
 10
10.5496444255
 20
8.9963780053
 30
0.0
 10
10.5495009377
 20
8.9966619691
 30
0.0
 10
10.5494152233
 20
8.996822467
 30
0.0
 10
10.5493614207
 20
8.9969478184
 30
0.0
 10
10.5492675458
 20
8.9970541415
 30
0.0
 10
10.5491563569
 20
8.997202543
 30
0.0
 10
10.5489552639
 20
8.9974591531
 30
0.0
 10
10.548671393
 20
8.9978273557
 30
0.0
 10
10.5483292905
 20
8.9982685068
 30
0.0
 10
10.547873663
 20
8.99885695
 30
0.0
 10
10.5473039542
 20
8.9995924212
 30
0.0
 10
10.5463925176
 20
9.0007692214
 30
0.0
 10
10.5452531884
 20
9.0022402058
 30
0.0
 10
10.5438860077
 20
9.0040053938
 30
0.0
 10
10.5425188231
 20
9.0057705801
 30
0.0
 10
10.5406959118
 20
9.0081241624
 30
0.0
 10
10.538417272
 20
9.01106614
 30
0.0
 10
10.5361386326
 20
9.0140081178
 30
0.0
 10
10.5343157208
 20
9.0163616998
 30
0.0
 10
10.5329485376
 20
9.0181268871
 30
0.0
 10
10.5315813517
 20
9.0198920712
 30
0.0
 10
10.5304420388
 20
9.0213630678
 30
0.0
 10
10.5295305689
 20
9.0225398431
 30
0.0
 10
10.5289609448
 20
9.0232753777
 30
0.0
 10
10.5285051435
 20
9.0238636908
 30
0.0
 10
10.5281635717
 20
9.0243052394
 30
0.0
 10
10.5278780406
 20
9.0246721983
 30
0.0
 10
10.5276799113
 20
9.0249310286
 30
0.0
 10
10.5275639738
 20
9.0250758727
 30
0.0
 10
10.5274846852
 20
9.025193123
 30
0.0
 10
10.5273760989
 20
9.0252774337
 30
0.0
 10
10.5272415366
 20
9.0254013377
 30
0.0
 10
10.5270012911
 20
9.0256128164
 30
0.0
 10
10.5266605725
 20
9.0259177276
 30
0.0
 10
10.5262506448
 20
9.026282423
 30
0.0
 10
10.5257044466
 20
9.026769102
 30
0.0
 10
10.5250215714
 20
9.0273773075
 30
0.0
 10
10.5239290424
 20
9.0283505164
 30
0.0
 10
10.5225633567
 20
9.0295670001
 30
0.0
 10
10.5209245443
 20
9.0310267922
 30
0.0
 10
10.5192857291
 20
9.0324865812
 30
0.0
 10
10.5171006432
 20
9.0344329677
 30
0.0
 10
10.5143692855
 20
9.0368659504
 30
0.0
 10
10.5116379276
 20
9.0392989329
 30
0.0
 10
10.509452842
 20
9.0412453198
 30
0.0
 10
10.507814026
 20
9.0427051074
 30
0.0
 10
10.5061752167
 20
9.0441649046
 30
0.0
 10
10.5048095214
 20
9.0453813726
 30
0.0
 10
10.5037170119
 20
9.0463546135
 30
0.0
 10
10.503034087
 20
9.0469627374
 30
0.0
 10
10.5024879909
 20
9.0474495839
 30
0.0
 10
10.5020777513
 20
9.0478137678
 30
0.0
 10
10.5017380086
 20
9.0481202796
 30
0.0
 10
10.5014614513
 20
9.048358704
 30
0.0
 10
10.5012670488
 20
9.0485560621
 30
0.0
 10
10.5010229657
 20
9.0486826536
 30
0.0
 10
10.5007148757
 20
9.0488761619
 30
0.0
 10
10.5003238091
 20
9.0491095661
 30
0.0
 10
10.4998570777
 20
9.0493932813
 30
0.0
 10
10.4992338789
 20
9.0497703003
 30
0.0
 10
10.4984551854
 20
9.0502420083
 30
0.0
 10
10.4972091053
 20
9.0509964983
 30
0.0
 10
10.4956515636
 20
9.0519396941
 30
0.0
 10
10.4937824885
 20
9.0530714935
 30
0.0
 10
10.4919134202
 20
9.0542033023
 30
0.0
 10
10.4894213267
 20
9.0557123774
 30
0.0
 10
10.4863062107
 20
9.0575987226
 30
0.0
 10
10.4831910942
 20
9.0594850669
 30
0.0
 10
10.4806990015
 20
9.0609941434
 30
0.0
 10
10.4788299307
 20
9.062125948
 30
0.0
 10
10.4769608646
 20
9.0632577634
 30
0.0
 10
10.4754032951
 20
9.0642009092
 30
0.0
 10
10.4741572718
 20
9.0649555012
 30
0.0
 10
10.4733784337
 20
9.0654269497
 30
0.0
 10
10.4727555316
 20
9.0658045014
 30
0.0
 10
10.4722878939
 20
9.0660865892
 30
0.0
 10
10.4718996629
 20
9.0663250852
 30
0.0
 10
10.4715857876
 20
9.0665082052
 30
0.0
 10
10.4713593724
 20
9.0666665219
 30
0.0
 10
10.4710986373
 20
9.0667447703
 30
0.0
 10
10.4707629789
 20
9.0668770704
 30
0.0
 10
10.4703392927
 20
9.0670328495
 30
0.0
 10
10.4698326298
 20
9.0672238919
 30
0.0
 10
10.4691564644
 20
9.0674771804
 30
0.0
 10
10.4683114682
 20
9.0677942823
 30
0.0
 10
10.4669593565
 20
9.0683013707
 30
0.0
 10
10.4652692574
 20
9.0689353255
 30
0.0
 10
10.4632411211
 20
9.0696960308
 30
0.0
 10
10.4612129894
 20
9.0704567469
 30
0.0
 10
10.4585088122
 20
9.0714710313
 30
0.0
 10
10.4551285913
 20
9.0727388881
 30
0.0
 10
10.4517483702
 20
9.0740067445
 30
0.0
 10
10.4490441932
 20
9.0750210294
 30
0.0
 10
10.4470160608
 20
9.0757817441
 30
0.0
 10
10.4449879272
 20
9.0765424547
 30
0.0
 10
10.4432978197
 20
9.077176393
 30
0.0
 10
10.4419457251
 20
9.077683515
 30
0.0
 10
10.4411006855
 20
9.0780005314
 30
0.0
 10
10.440424609
 20
9.0782539954
 30
0.0
 10
10.4399176746
 20
9.0784445017
 30
0.0
 10
10.4394948379
 20
9.078601958
 30
0.0
 10
10.4391996203
 20
9.0787147266
 30
0.0
 10
10.4390297252
 20
9.0787751855
 30
0.0
 10
10.4389056826
 20
9.0788317422
 30
0.0
 10
10.4387687246
 20
9.078845439
 30
0.0
 10
10.4385906189
 20
9.0788786515
 30
0.0
 10
10.438276835
 20
9.0789298078
 30
0.0
 10
10.4378296697
 20
9.0790065298
 30
0.0
 10
10.4372926015
 20
9.0790970376
 30
0.0
 10
10.4365766748
 20
9.079218259
 30
0.0
 10
10.4356817102
 20
9.0793695994
 30
0.0
 10
10.4342497982
 20
9.0796118481
 30
0.0
 10
10.4324598974
 20
9.0799146234
 30
0.0
 10
10.4303120211
 20
9.080277969
 30
0.0
 10
10.4281641435
 20
9.0806413105
 30
0.0
 10
10.4253003072
 20
9.0811257672
 30
0.0
 10
10.4217205117
 20
9.0817313377
 30
0.0
 10
10.4174247571
 20
9.0824580224
 30
0.0
 10
10.4116970844
 20
9.0834269354
 30
0.0
 10
10.4074013298
 20
9.0841536201
 30
0.0
 10
10.4045374934
 20
9.0846380765
 30
0.0
  0
SPLINE
  5
36A
100
AcDbEntity
  8
0
100
AcDbSpline
 62
4
  6
CONTINUOUS
 70
0
 71
3
 72
397
 73
393
 74
0
 42
0.0000001
 43
0.0000001
 44
0.0000000001
 40
0.0
 40
0.0
 40
0.0
 40
0.0
 40
0.015625
 40
0.0234375
 40
0.03125
 40
0.0390625
 40
0.04296875
 40
0.046875
 40
0.05078125
 40
0.0546875
 40
0.056640625
 40
0.05859375
 40
0.0595703125
 40
0.060546875
 40
0.0615234375
 40
0.0620117188
 40
0.0622558594
 40
0.0625
 40
0.0627441406
 40
0.0629882812
 40
0.0634765625
 40
0.064453125
 40
0.0654296875
 40
0.06640625
 40
0.068359375
 40
0.0703125
 40
0.07421875
 40
0.078125
 40
0.08203125
 40
0.0859375
 40
0.09375
 40
0.1015625
 40
0.10546875
 40
0.109375
 40
0.11328125
 40
0.1171875
 40
0.119140625
 40
0.12109375
 40
0.1220703125
 40
0.123046875
 40
0.1240234375
 40
0.1245117188
 40
0.1247558594
 40
0.125
 40
0.1252441406
 40
0.1254882812
 40
0.1259765625
 40
0.126953125
 40
0.1279296875
 40
0.12890625
 40
0.130859375
 40
0.1328125
 40
0.13671875
 40
0.140625
 40
0.14453125
 40
0.1484375
 40
0.15625
 40
0.1640625
 40
0.16796875
 40
0.171875
 40
0.17578125
 40
0.1796875
 40
0.181640625
 40
0.18359375
 40
0.1845703125
 40
0.185546875
 40
0.1865234375
 40
0.1870117188
 40
0.1872558594
 40
0.1875
 40
0.1877441406
 40
0.1879882812
 40
0.1884765625
 40
0.189453125
 40
0.1904296875
 40
0.19140625
 40
0.193359375
 40
0.1953125
 40
0.19921875
 40
0.203125
 40
0.20703125
 40
0.2109375
 40
0.21875
 40
0.2265625
 40
0.23046875
 40
0.234375
 40
0.23828125
 40
0.2421875
 40
0.244140625
 40
0.24609375
 40
0.2470703125
 40
0.248046875
 40
0.2490234375
 40
0.2495117188
 40
0.2497558594
 40
0.25
 40
0.2502441406
 40
0.2504882812
 40
0.2509765625
 40
0.251953125
 40
0.2529296875
 40
0.25390625
 40
0.255859375
 40
0.2578125
 40
0.26171875
 40
0.265625
 40
0.26953125
 40
0.2734375
 40
0.28125
 40
0.2890625
 40
0.29296875
 40
0.296875
 40
0.30078125
 40
0.3046875
 40
0.306640625
 40
0.30859375
 40
0.3095703125
 40
0.310546875
 40
0.3115234375
 40
0.3120117188
 40
0.3122558594
 40
0.3125
 40
0.3127441406
 40
0.3129882812
 40
0.3134765625
 40
0.314453125
 40
0.3154296875
 40
0.31640625
 40
0.318359375
 40
0.3203125
 40
0.32421875
 40
0.328125
 40
0.33203125
 40
0.3359375
 40
0.34375
 40
0.3515625
 40
0.35546875
 40
0.359375
 40
0.36328125
 40
0.3671875
 40
0.369140625
 40
0.37109375
 40
0.3720703125
 40
0.373046875
 40
0.3740234375
 40
0.3745117188
 40
0.3747558594
 40
0.375
 40
0.3752441406
 40
0.3754882812
 40
0.3759765625
 40
0.376953125
 40
0.3779296875
 40
0.37890625
 40
0.380859375
 40
0.3828125
 40
0.38671875
 40
0.390625
 40
0.39453125
 40
0.3984375
 40
0.40625
 40
0.4140625
 40
0.41796875
 40
0.421875
 40
0.42578125
 40
0.4296875
 40
0.431640625
 40
0.43359375
 40
0.4345703125
 40
0.435546875
 40
0.4365234375
 40
0.4370117188
 40
0.4372558594
 40
0.4375
 40
0.4377441406
 40
0.4379882812
 40
0.4384765625
 40
0.439453125
 40
0.4404296875
 40
0.44140625
 40
0.443359375
 40
0.4453125
 40
0.44921875
 40
0.453125
 40
0.45703125
 40
0.4609375
 40
0.46875
 40
0.4765625
 40
0.48046875
 40
0.484375
 40
0.48828125
 40
0.4921875
 40
0.494140625
 40
0.49609375
 40
0.4970703125
 40
0.498046875
 40
0.4990234375
 40
0.4995117188
 40
0.4997558594
 40
0.5
 40
0.5002441406
 40
0.5004882812
 40
0.5009765625
 40
0.501953125
 40
0.5029296875
 40
0.50390625
 40
0.505859375
 40
0.5078125
 40
0.51171875
 40
0.515625
 40
0.51953125
 40
0.5234375
 40
0.53125
 40
0.5390625
 40
0.54296875
 40
0.546875
 40
0.55078125
 40
0.5546875
 40
0.556640625
 40
0.55859375
 40
0.5595703125
 40
0.560546875
 40
0.5615234375
 40
0.5620117188
 40
0.5622558594
 40
0.5625
 40
0.5627441406
 40
0.5629882812
 40
0.5634765625
 40
0.564453125
 40
0.5654296875
 40
0.56640625
 40
0.568359375
 40
0.5703125
 40
0.57421875
 40
0.578125
 40
0.58203125
 40
0.5859375
 40
0.59375
 40
0.6015625
 40
0.60546875
 40
0.609375
 40
0.61328125
 40
0.6171875
 40
0.619140625
 40
0.62109375
 40
0.6220703125
 40
0.623046875
 40
0.6240234375
 40
0.6245117188
 40
0.625
 40
0.6254882812
 40
0.6259765625
 40
0.626953125
 40
0.6279296875
 40
0.62890625
 40
0.630859375
 40
0.6328125
 40
0.63671875
 40
0.640625
 40
0.64453125
 40
0.6484375
 40
0.65625
 40
0.6640625
 40
0.66796875
 40
0.671875
 40
0.67578125
 40
0.6796875
 40
0.681640625
 40
0.68359375
 40
0.6845703125
 40
0.685546875
 40
0.6865234375
 40
0.6870117188
 40
0.6872558594
 40
0.6875
 40
0.6877441406
 40
0.6879882812
 40
0.6884765625
 40
0.689453125
 40
0.6904296875
 40
0.69140625
 40
0.693359375
 40
0.6953125
 40
0.69921875
 40
0.703125
 40
0.70703125
 40
0.7109375
 40
0.71875
 40
0.7265625
 40
0.73046875
 40
0.734375
 40
0.73828125
 40
0.7421875
 40
0.744140625
 40
0.74609375
 40
0.7470703125
 40
0.748046875
 40
0.7490234375
 40
0.7495117188
 40
0.7497558594
 40
0.75
 40
0.7502441406
 40
0.7504882812
 40
0.7509765625
 40
0.751953125
 40
0.7529296875
 40
0.75390625
 40
0.755859375
 40
0.7578125
 40
0.76171875
 40
0.765625
 40
0.76953125
 40
0.7734375
 40
0.78125
 40
0.7890625
 40
0.79296875
 40
0.796875
 40
0.80078125
 40
0.8046875
 40
0.806640625
 40
0.80859375
 40
0.8095703125
 40
0.810546875
 40
0.8115234375
 40
0.8120117188
 40
0.8125
 40
0.8129882812
 40
0.8134765625
 40
0.814453125
 40
0.8154296875
 40
0.81640625
 40
0.818359375
 40
0.8203125
 40
0.82421875
 40
0.828125
 40
0.83203125
 40
0.8359375
 40
0.84375
 40
0.8515625
 40
0.85546875
 40
0.859375
 40
0.86328125
 40
0.8671875
 40
0.869140625
 40
0.87109375
 40
0.8720703125
 40
0.873046875
 40
0.8740234375
 40
0.8745117188
 40
0.875
 40
0.8754882812
 40
0.8759765625
 40
0.876953125
 40
0.8779296875
 40
0.87890625
 40
0.880859375
 40
0.8828125
 40
0.88671875
 40
0.890625
 40
0.89453125
 40
0.8984375
 40
0.90625
 40
0.9140625
 40
0.91796875
 40
0.921875
 40
0.92578125
 40
0.9296875
 40
0.931640625
 40
0.93359375
 40
0.9345703125
 40
0.935546875
 40
0.9365234375
 40
0.9370117188
 40
0.9372558594
 40
0.9375
 40
0.9377441406
 40
0.9379882812
 40
0.9384765625
 40
0.939453125
 40
0.9404296875
 40
0.94140625
 40
0.943359375
 40
0.9453125
 40
0.94921875
 40
0.953125
 40
0.95703125
 40
0.9609375
 40
0.96875
 40
0.9765625
 40
0.984375
 40
1.0
 40
1.0
 40
1.0
 40
1.0
 10
10.4045375086
 20
9.0846380755
 30
0.0
 10
10.4017232688
 20
9.0845573051
 30
0.0
 10
10.3975019091
 20
9.0844361494
 30
0.0
 10
10.3918734295
 20
9.0842746086
 30
0.0
 10
10.3876520698
 20
9.0841534529
 30
0.0
 10
10.38413427
 20
9.08405249
 30
0.0
 10
10.3813200302
 20
9.0839717192
 30
0.0
 10
10.3792093502
 20
9.0839111423
 30
0.0
 10
10.377098671
 20
9.0838505611
 30
0.0
 10
10.3753397691
 20
9.08380009
 30
0.0
 10
10.3739326533
 20
9.0837596835
 30
0.0
 10
10.3730531928
 20
9.0837344969
 30
0.0
 10
10.3723496546
 20
9.0837141932
 30
0.0
 10
10.3718219183
 20
9.0836993883
 30
0.0
 10
10.3713824008
 20
9.0836857055
 30
0.0
 10
10.3710742229
 20
9.0836787679
 30
0.0
 10
10.3708989265
 20
9.0836706808
 30
0.0
 10
10.3707651857
 20
9.0836762294
 30
0.0
 10
10.3706401162
 20
9.0836373835
 30
0.0
 10
10.3704703322
 20
9.0836010743
 30
0.0
 10
10.3701746195
 20
9.0835303182
 30
0.0
 10
10.369751436
 20
9.0834330102
 30
0.0
 10
10.3692439311
 20
9.083314626
 30
0.0
 10
10.3685671478
 20
9.0831573444
 30
0.0
 10
10.3677212065
 20
9.0829605493
 30
0.0
 10
10.3663676791
 20
9.082645785
 30
0.0
 10
10.3646757773
 20
9.0822522925
 30
0.0
 10
10.3626454919
 20
9.0817801175
 30
0.0
 10
10.3606152073
 20
9.0813079383
 30
0.0
 10
10.357908161
 20
9.0806783674
 30
0.0
 10
10.3545243532
 20
9.0798914032
 30
0.0
 10
10.3511405452
 20
9.0791044395
 30
0.0
 10
10.3484334991
 20
9.078474868
 30
0.0
 10
10.346403214
 20
9.0780026905
 30
0.0
 10
10.3443729306
 20
9.0775305089
 30
0.0
 10
10.3426810227
 20
9.0771370369
 30
0.0
 10
10.3413275077
 20
9.076822231
 30
0.0
 10
10.3404815349
 20
9.0766255418
 30
0.0
 10
10.339804816
 20
9.0764680427
 30
0.0
 10
10.3392971147
 20
9.0763503229
 30
0.0
 10
10.3388745458
 20
9.0762509363
 30
0.0
 10
10.3385777358
 20
9.0761838908
 30
0.0
 10
10.33840971
 20
9.0761416364
 30
0.0
 10
10.33827924
 20
9.0761210521
 30
0.0
 10
10.3381657824
 20
9.0760580131
 30
0.0
 10
10.3380085714
 20
9.0759887698
 30
0.0
 10
10.3377362171
 20
9.0758606944
 30
0.0
 10
10.337345694
 20
9.0756813368
 30
0.0
 10
10.3368776849
 20
9.0754645636
 30
0.0
 10
10.3362534568
 20
9.0751760719
 30
0.0
 10
10.3354732456
 20
9.0748152728
 30
0.0
 10
10.3342248663
 20
9.0742380972
 30
0.0
 10
10.3326644064
 20
9.0735165924
 30
0.0
 10
10.3307918485
 20
9.0726508018
 30
0.0
 10
10.3289192922
 20
9.0717850072
 30
0.0
 10
10.3264225498
 20
9.0706306158
 30
0.0
 10
10.3233016221
 20
9.0691876259
 30
0.0
 10
10.3201806943
 20
9.0677446364
 30
0.0
 10
10.3176839522
 20
9.0665902444
 30
0.0
 10
10.3158113951
 20
9.0657244515
 30
0.0
 10
10.3139388401
 20
9.0648586545
 30
0.0
 10
10.3123783711
 20
9.0641371695
 30
0.0
 10
10.3111300104
 20
9.0635599537
 30
0.0
 10
10.3103497519
 20
9.063199257
 30
0.0
 10
10.3097256209
 20
9.062910555
 30
0.0
 10
10.309257315
 20
9.0626944246
 30
0.0
 10
10.3088677209
 20
9.0625130557
 30
0.0
 10
10.308593708
 20
9.0623885707
 30
0.0
 10
10.3084391544
 20
9.0623135746
 30
0.0
 10
10.3083175343
 20
9.0622682064
 30
0.0
 10
10.3082177214
 20
9.0621812536
 30
0.0
 10
10.3080770309
 20
9.0620798216
 30
0.0
 10
10.3078343667
 20
9.0618955574
 30
0.0
 10
10.3074858506
 20
9.0616358562
 30
0.0
 10
10.3070684243
 20
9.0613227023
 30
0.0
 10
10.306511579
 20
9.0609056921
 30
0.0
 10
10.3058156173
 20
9.0603842485
 30
0.0
 10
10.3047020254
 20
9.0595500397
 30
0.0
 10
10.3033100538
 20
9.0585072441
 30
0.0
 10
10.30163968
 20
9.0572559042
 30
0.0
 10
10.2999693083
 20
9.0560045603
 30
0.0
 10
10.2977421454
 20
9.0543361032
 30
0.0
 10
10.2949581919
 20
9.0522505313
 30
0.0
 10
10.2921742383
 20
9.0501649597
 30
0.0
 10
10.2899470757
 20
9.0484965021
 30
0.0
 10
10.2882767029
 20
9.0472451597
 30
0.0
 10
10.2866063334
 20
9.0459938143
 30
0.0
 10
10.2852143484
 20
9.0449510359
 30
0.0
 10
10.2841007838
 20
9.044116792
 30
0.0
 10
10.2834047527
 20
9.0435954378
 30
0.0
 10
10.2828480496
 20
9.043178244
 30
0.0
 10
10.2824301891
 20
9.0428656509
 30
0.0
 10
10.2820830318
 20
9.0426041952
 30
0.0
 10
10.2818379418
 20
9.042423063
 30
0.0
 10
10.281701138
 20
9.0423166129
 30
0.0
 10
10.2815893864
 20
9.0422450743
 30
0.0
 10
10.2815126062
 20
9.0421418127
 30
0.0
 10
10.2813980341
 20
9.042015196
 30
0.0
 10
10.2812032165
 20
9.0417884611
 30
0.0
 10
10.2809219343
 20
9.0414672496
 30
0.0
 10
10.2805856674
 20
9.041080642
 30
0.0
 10
10.2801368673
 20
9.0405655682
 30
0.0
 10
10.2795760194
 20
9.039921588
 30
0.0
 10
10.2786785776
 20
9.0388912968
 30
0.0
 10
10.2775568046
 20
9.0376034063
 30
0.0
 10
10.2762106645
 20
9.036057949
 30
0.0
 10
10.2748645277
 20
9.0345124888
 30
0.0
 10
10.2730696775
 20
9.0324518761
 30
0.0
 10
10.2708261152
 20
9.0298761099
 30
0.0
 10
10.2685825525
 20
9.027300344
 30
0.0
 10
10.2667877028
 20
9.0252397309
 30
0.0
 10
10.2654415646
 20
9.0236942718
 30
0.0
 10
10.2640954299
 20
9.0221488101
 30
0.0
 10
10.2629736399
 20
9.0208609335
 30
0.0
 10
10.2620762327
 20
9.0198306139
 30
0.0
 10
10.2615152969
 20
9.0191867059
 30
0.0
 10
10.2610666772
 20
9.018671484
 30
0.0
 10
10.2607298591
 20
9.0182853288
 30
0.0
 10
10.2604503016
 20
9.0179627021
 30
0.0
 10
10.260252405
 20
9.0177384935
 30
0.0
 10
10.2601427663
 20
9.017607829
 30
0.0
 10
10.2600508322
 20
9.0175170008
 30
0.0
 10
10.2599959961
 20
9.0173987648
 30
0.0
 10
10.2599099411
 20
9.017250677
 30
0.0
 10
10.2597653738
 20
9.016987069
 30
0.0
 10
10.2595556972
 20
9.016612815
 30
0.0
 10
10.2593054343
 20
9.0161627134
 30
0.0
 10
10.2589712793
 20
9.015562926
 30
0.0
 10
10.2585537469
 20
9.0148130726
 30
0.0
 10
10.2578856048
 20
9.0136133738
 30
0.0
 10
10.2570504582
 20
9.0121137275
 30
0.0
 10
10.256048269
 20
9.0103141616
 30
0.0
 10
10.2550460833
 20
9.0085145932
 30
0.0
 10
10.2537098345
 20
9.0061151695
 30
0.0
 10
10.252039524
 20
9.0031158895
 30
0.0
 10
10.2503692131
 20
9.0001166098
 30
0.0
 10
10.2490329648
 20
8.9977171858
 30
0.0
 10
10.2480307776
 20
8.9959176183
 30
0.0
 10
10.2470285943
 20
8.9941180489
 30
0.0
 10
10.2461934292
 20
8.9926184137
 30
0.0
 10
10.2455253247
 20
8.9914186921
 30
0.0
 10
10.2451076968
 20
8.9906688966
 30
0.0
 10
10.2447737378
 20
8.9900689905
 30
0.0
 10
10.244522876
 20
8.9896192516
 30
0.0
 10
10.2443150735
 20
8.9892438627
 30
0.0
 10
10.2441671605
 20
8.9889822808
 30
0.0
 10
10.2440864663
 20
8.9888309467
 30
0.0
 10
10.2440151634
 20
8.9887226821
 30
0.0
 10
10.2439850757
 20
8.988594403
 30
0.0
 10
10.2439305825
 20
8.9884303455
 30
0.0
 10
10.2438419176
 20
8.9881399921
 30
0.0
 10
10.2437117516
 20
8.9877269021
 30
0.0
 10
10.2435570512
 20
8.9872304662
 30
0.0
 10
10.2433502606
 20
8.9865688059
 30
0.0
 10
10.2430919515
 20
8.9857416435
 30
0.0
 10
10.2426785569
 20
8.9844182323
 30
0.0
 10
10.2421618479
 20
8.9827639516
 30
0.0
 10
10.2415417824
 20
8.980778822
 30
0.0
 10
10.2409217209
 20
8.9787936904
 30
0.0
 10
10.2400949707
 20
8.9761468489
 30
0.0
 10
10.2390615336
 20
8.9728382969
 30
0.0
 10
10.2380280961
 20
8.969529745
 30
0.0
 10
10.2372013466
 20
8.9668829033
 30
0.0
 10
10.2365812833
 20
8.9648977725
 30
0.0
 10
10.2359612243
 20
8.9629126401
 30
0.0
 10
10.2354444953
 20
8.9612583678
 30
0.0
 10
10.2350311414
 20
8.9599349394
 30
0.0
 10
10.2347727287
 20
8.9591078209
 30
0.0
 10
10.2345661508
 20
8.9584460705
 30
0.0
 10
10.2344108005
 20
8.9579499098
 30
0.0
 10
10.234282668
 20
8.957535959
 30
0.0
 10
10.2341903729
 20
8.9572471422
 30
0.0
 10
10.2341416962
 20
8.9570806227
 30
0.0
 10
10.2340937419
 20
8.9569599058
 30
0.0
 10
10.2340895432
 20
8.956823239
 30
0.0
 10
10.2340686824
 20
8.9566465801
 30
0.0
 10
10.2340392871
 20
8.9563348349
 30
0.0
 10
10.233993576
 20
8.9558908399
 30
0.0
 10
10.2339403141
 20
8.9553574657
 30
0.0
 10
10.2338687423
 20
8.9546465028
 30
0.0
 10
10.233779468
 20
8.9537577298
 30
0.0
 10
10.2336365226
 20
8.9523357317
 30
0.0
 10
10.2334578775
 20
8.9505582208
 30
0.0
 10
10.2332434876
 20
8.9484252134
 30
0.0
 10
10.2330291019
 20
8.9462922045
 30
0.0
 10
10.2327432529
 20
8.9434481932
 30
0.0
 10
10.2323859421
 20
8.9398931788
 30
0.0
 10
10.232028631
 20
8.9363381645
 30
0.0
 10
10.2317427826
 20
8.9334941531
 30
0.0
 10
10.2315283951
 20
8.9313611445
 30
0.0
 10
10.231314012
 20
8.929228136
 30
0.0
 10
10.2311353458
 20
8.9274506287
 30
0.0
 10
10.2309924432
 20
8.9260286233
 30
0.0
 10
10.2309030601
 20
8.9251398687
 30
0.0
 10
10.2308317117
 20
8.924428868
 30
0.0
 10
10.2307777674
 20
8.9238956093
 30
0.0
 10
10.2307341911
 20
8.9234512531
 30
0.0
 10
10.2307009849
 20
8.9231401526
 30
0.0
 10
10.2306862302
 20
8.9229624608
 30
0.0
 10
10.2306632754
 20
8.9228289668
 30
0.0
 10
10.2306857657
 20
8.9226963332
 30
0.0
 10
10.2306999009
 20
8.9225191883
 30
0.0
 10
10.2307320233
 20
8.9222093245
 30
0.0
 10
10.2307740511
 20
8.9217665889
 30
0.0
 10
10.2308261372
 20
8.9212353375
 30
0.0
 10
10.2308950081
 20
8.9205269912
 30
0.0
 10
10.2309812943
 20
8.9196415622
 30
0.0
 10
10.2311192419
 20
8.9182248737
 30
0.0
 10
10.2312917142
 20
8.9164540138
 30
0.0
 10
10.2314986647
 20
8.9143289815
 30
0.0
 10
10.2317056196
 20
8.9122039494
 30
0.0
 10
10.2319815579
 20
8.9093705732
 30
0.0
 10
10.2323264814
 20
8.9058288529
 30
0.0
 10
10.2326714045
 20
8.9022871326
 30
0.0
 10
10.2329473434
 20
8.8994537564
 30
0.0
 10
10.2331542965
 20
8.8973287242
 30
0.0
 10
10.2333612538
 20
8.8952036924
 30
0.0
 10
10.2335337051
 20
8.893432831
 30
0.0
 10
10.2336716954
 20
8.8920161456
 30
0.0
 10
10.2337578728
 20
8.8911307086
 30
0.0
 10
10.2338269671
 20
8.8904223787
 30
0.0
 10
10.2338783707
 20
8.8898910775
 30
0.0
 10
10.2339225341
 20
8.8894484973
 30
0.0
 10
10.2339508439
 20
8.8891383561
 30
0.0
 10
10.2339710879
 20
8.8889616558
 30
0.0
 10
10.2339748142
 20
8.8888276566
 30
0.0
 10
10.2340223337
 20
8.8886992916
 30
0.0
 10
10.2340704175
 20
8.888526173
 30
0.0
 10
10.2341616813
 20
8.8882241311
 30
0.0
 10
10.2342883372
 20
8.887792164
 30
0.0
 10
10.2344419169
 20
8.8872740083
 30
0.0
 10
10.2346461337
 20
8.8865830626
 30
0.0
 10
10.234901595
 20
8.8857194049
 30
0.0
 10
10.2353102268
 20
8.8843375389
 30
0.0
 10
10.235821053
 20
8.882610211
 30
0.0
 10
10.2364340288
 20
8.8805374157
 30
0.0
 10
10.2370470087
 20
8.8784646208
 30
0.0
 10
10.2378643139
 20
8.8757008942
 30
0.0
 10
10.2388859458
 20
8.8722462359
 30
0.0
 10
10.239907578
 20
8.8687915777
 30
0.0
 10
10.2407248827
 20
8.8660278508
 30
0.0
 10
10.2413378641
 20
8.8639550567
 30
0.0
 10
10.2419508344
 20
8.8618822587
 30
0.0
 10
10.2424616777
 20
8.860154939
 30
0.0
 10
10.2428702746
 20
8.8587730565
 30
0.0
 10
10.2431258246
 20
8.8579094406
 30
0.0
 10
10.2433298594
 20
8.857218409
 30
0.0
 10
10.243483995
 20
8.8567005157
 30
0.0
 10
10.2436089117
 20
8.8562677279
 30
0.0
 10
10.2437167615
 20
8.8559242115
 30
0.0
 10
10.2437760173
 20
8.8556591586
 30
0.0
 10
10.2439178409
 20
8.8554224114
 30
0.0
 10
10.2440780969
 20
8.855096861
 30
0.0
 10
10.2442883126
 20
8.8546933154
 30
0.0
 10
10.2445363357
 20
8.8542076086
 30
0.0
 10
10.2448685127
 20
8.8535605067
 30
0.0
 10
10.2452832273
 20
8.8527514556
 30
0.0
 10
10.2459470538
 20
8.851457071
 30
0.0
 10
10.2467767398
 20
8.8498390569
 30
0.0
 10
10.2477724046
 20
8.8478974543
 30
0.0
 10
10.2487680583
 20
8.8459558478
 30
0.0
 10
10.2500956005
 20
8.8433670405
 30
0.0
 10
10.2517550269
 20
8.840131031
 30
0.0
 10
10.2534144536
 20
8.8368950216
 30
0.0
 10
10.2547419952
 20
8.8343062142
 30
0.0
 10
10.2557376505
 20
8.8323646082
 30
0.0
 10
10.2567333095
 20
8.830423004
 30
0.0
 10
10.2575630135
 20
8.8288049948
 30
0.0
 10
10.2582268034
 20
8.8275106001
 30
0.0
 10
10.2586416112
 20
8.8267015746
 30
0.0
 10
10.2589735968
 20
8.8260544203
 30
0.0
 10
10.2592222043
 20
8.8255688734
 30
0.0
 10
10.2594305917
 20
8.8251648276
 30
0.0
 10
10.2595740795
 20
8.8248808638
 30
0.0
 10
10.259659794
 20
8.8247203659
 30
0.0
 10
10.2597135965
 20
8.8245950145
 30
0.0
 10
10.2598074714
 20
8.8244886914
 30
0.0
 10
10.2599186603
 20
8.8243402899
 30
0.0
 10
10.2601197533
 20
8.8240836799
 30
0.0
 10
10.2604036242
 20
8.8237154772
 30
0.0
 10
10.2607457267
 20
8.8232743261
 30
0.0
 10
10.2612013543
 20
8.822685883
 30
0.0
 10
10.261771063
 20
8.8219504117
 30
0.0
 10
10.2626824996
 20
8.8207736115
 30
0.0
 10
10.2638218288
 20
8.8193026271
 30
0.0
 10
10.2651890095
 20
8.8175374391
 30
0.0
 10
10.2665561941
 20
8.8157722528
 30
0.0
 10
10.2683791055
 20
8.8134186705
 30
0.0
 10
10.2706577452
 20
8.8104766929
 30
0.0
 10
10.2729363846
 20
8.8075347151
 30
0.0
 10
10.2747592964
 20
8.8051811331
 30
0.0
 10
10.2761264796
 20
8.8034159458
 30
0.0
 10
10.2774936655
 20
8.8016507617
 30
0.0
 10
10.2786329784
 20
8.8001797651
 30
0.0
 10
10.2795444483
 20
8.7990029898
 30
0.0
 10
10.2801140724
 20
8.7982674552
 30
0.0
 10
10.2805698737
 20
8.7976791421
 30
0.0
 10
10.2809114455
 20
8.7972375935
 30
0.0
 10
10.2811969766
 20
8.7968706346
 30
0.0
 10
10.2813951059
 20
8.7966118043
 30
0.0
 10
10.2815110434
 20
8.7964669602
 30
0.0
 10
10.281590332
 20
8.7963497099
 30
0.0
 10
10.2816989183
 20
8.7962653992
 30
0.0
 10
10.2818334807
 20
8.7961414952
 30
0.0
 10
10.2820737262
 20
8.7959300165
 30
0.0
 10
10.2824144447
 20
8.7956251054
 30
0.0
 10
10.2828243724
 20
8.7952604099
 30
0.0
 10
10.2833705706
 20
8.7947737309
 30
0.0
 10
10.2840534458
 20
8.7941655254
 30
0.0
 10
10.2851459748
 20
8.7931923165
 30
0.0
 10
10.2865116605
 20
8.7919758328
 30
0.0
 10
10.2881504729
 20
8.7905160407
 30
0.0
 10
10.2897892881
 20
8.7890562517
 30
0.0
 10
10.291974374
 20
8.7871098653
 30
0.0
 10
10.2947057317
 20
8.7846768825
 30
0.0
 10
10.2974370896
 20
8.7822439
 30
0.0
 10
10.2996221752
 20
8.7802975131
 30
0.0
 10
10.3012609912
 20
8.7788377255
 30
0.0
 10
10.3028998005
 20
8.7773779283
 30
0.0
 10
10.3042654958
 20
8.7761614604
 30
0.0
 10
10.3053580053
 20
8.7751882194
 30
0.0
 10
10.3060409302
 20
8.7745800955
 30
0.0
 10
10.3065870263
 20
8.774093249
 30
0.0
 10
10.306997266
 20
8.7737290651
 30
0.0
 10
10.3073370086
 20
8.7734225534
 30
0.0
 10
10.3076135659
 20
8.7731841289
 30
0.0
 10
10.3078079684
 20
8.7729867708
 30
0.0
 10
10.3080520515
 20
8.7728601794
 30
0.0
 10
10.3083601415
 20
8.772666671
 30
0.0
 10
10.3087512081
 20
8.7724332669
 30
0.0
 10
10.3092179396
 20
8.7721495516
 30
0.0
 10
10.3098411383
 20
8.7717725326
 30
0.0
 10
10.3106198319
 20
8.7713008246
 30
0.0
 10
10.311865912
 20
8.7705463346
 30
0.0
 10
10.3134234536
 20
8.7696031388
 30
0.0
 10
10.3152925287
 20
8.7684713395
 30
0.0
 10
10.317161597
 20
8.7673395306
 30
0.0
 10
10.3196536905
 20
8.7658304555
 30
0.0
 10
10.3227688065
 20
8.7639441103
 30
0.0
 10
10.325883923
 20
8.762057766
 30
0.0
 10
10.3283760157
 20
8.7605486895
 30
0.0
 10
10.3302450865
 20
8.7594168849
 30
0.0
 10
10.3321141526
 20
8.7582850695
 30
0.0
 10
10.3336717221
 20
8.7573419237
 30
0.0
 10
10.3349177454
 20
8.7565873317
 30
0.0
 10
10.3356965835
 20
8.7561158833
 30
0.0
 10
10.3363194856
 20
8.7557383315
 30
0.0
 10
10.3367871233
 20
8.7554562437
 30
0.0
 10
10.3371753543
 20
8.7552177477
 30
0.0
 10
10.3374892296
 20
8.7550346277
 30
0.0
 10
10.3377156448
 20
8.754876311
 30
0.0
 10
10.3379763799
 20
8.7547980626
 30
0.0
 10
10.3383120383
 20
8.7546657625
 30
0.0
 10
10.3387357245
 20
8.7545099834
 30
0.0
 10
10.3392423874
 20
8.754318941
 30
0.0
 10
10.3399185528
 20
8.7540656525
 30
0.0
 10
10.340763549
 20
8.7537485506
 30
0.0
 10
10.3421156607
 20
8.7532414622
 30
0.0
 10
10.3438057598
 20
8.7526075074
 30
0.0
 10
10.3458338962
 20
8.7518468021
 30
0.0
 10
10.3478620278
 20
8.751086086
 30
0.0
 10
10.350566205
 20
8.7500718016
 30
0.0
 10
10.353946426
 20
8.7488039448
 30
0.0
 10
10.357326647
 20
8.7475360884
 30
0.0
 10
10.360030824
 20
8.7465218035
 30
0.0
 10
10.3620589564
 20
8.7457610888
 30
0.0
 10
10.36408709
 20
8.7450003782
 30
0.0
 10
10.3657771975
 20
8.7443664399
 30
0.0
 10
10.3671292921
 20
8.7438593179
 30
0.0
 10
10.3679743317
 20
8.7435423015
 30
0.0
 10
10.3686504082
 20
8.7432888375
 30
0.0
 10
10.3691573426
 20
8.7430983312
 30
0.0
 10
10.3695801793
 20
8.7429408749
 30
0.0
 10
10.3698753969
 20
8.7428281063
 30
0.0
 10
10.370045292
 20
8.7427676474
 30
0.0
 10
10.3701693346
 20
8.7427110908
 30
0.0
 10
10.3703062927
 20
8.7426973939
 30
0.0
 10
10.3704843983
 20
8.7426641815
 30
0.0
 10
10.3707981822
 20
8.7426130252
 30
0.0
 10
10.3712453476
 20
8.7425363031
 30
0.0
 10
10.3717824157
 20
8.7424457953
 30
0.0
 10
10.3724983424
 20
8.7423245739
 30
0.0
 10
10.3733933071
 20
8.7421732335
 30
0.0
 10
10.3748252191
 20
8.7419309848
 30
0.0
 10
10.3766151198
 20
8.7416282095
 30
0.0
 10
10.3787629961
 20
8.741264864
 30
0.0
 10
10.3809108737
 20
8.7409015225
 30
0.0
 10
10.38377471
 20
8.7404170657
 30
0.0
 10
10.3873545055
 20
8.7398114952
 30
0.0
 10
10.3916502601
 20
8.7390848105
 30
0.0
 10
10.3973779329
 20
8.7381158976
 30
0.0
 10
10.4016736874
 20
8.7373892128
 30
0.0
 10
10.4045375238
 20
8.7369047564
 30
0.0
  0
ENDSEC
  0
SECTION
  2
OBJECTS
  0
DICTIONARY
  5
C
100
AcDbDictionary
280
0
281
1
  3
ACAD_GROUP
350
D
  3
ACAD_MLINESTYLE
350
17
  3
ACAD_LAYOUT
350
1A
  3
ACAD_PLOTSETTINGS
350
19
  3
ACAD_PLOTSTYLENAME
350
E
  3
ACAD_IMAGE_DICT
350
       36C
  3
ACAD_IMAGE_VARS
350
       36D
  3
ACAD_TABLESTYLE
350
       36E
  0
IMAGEDEF_REACTOR
  5
36B
100
AcDbRasterImageDefReactor
 90
2
330
28E
  0
DICTIONARY
  5
D
102
{ACAD_REACTORS
330
C
102
}
100
AcDbDictionary
280
0
281
1
  0
ACDBDICTIONARYWDFLT
  5
E
102
{ACAD_REACTORS
330
C
102
}
100
AcDbDictionary
281
1
  3
Normal
350
F
100
AcDbDictionaryWithDefault
340
F
  0
DICTIONARY
  5
36C
330
C
100
AcDbDictionary
281
1
  3
E4I_assy_2_img_1
350
       371
  0
RASTERVARIABLES
  5
36D
330
C
100
AcDbRasterVariables
 90
0
 70
0
 71
1
 72
5
  0
DICTIONARY
  5
17
102
{ACAD_REACTORS
330
C
102
}
100
AcDbDictionary
280
0
281
1
  3
Standard
350
18
  0
DICTIONARY
  5
36E
330
C
100
AcDbDictionary
281
1
  3
Standard
350
       372
  3
Standard1
350
       373
  0
DICTIONARY
  5
19
102
{ACAD_REACTORS
330
C
102
}
100
AcDbDictionary
281
1
  0
DICTIONARY
  5
1A
102
{ACAD_REACTORS
330
C
102
}
100
AcDbDictionary
281
1
  3
Model
350
36F
  3
Layout1
350
370
  0
ACDBPLACEHOLDER
  5
F
102
{ACAD_REACTORS
330
E
102
}
  0
MLINESTYLE
  5
18
102
{ACAD_REACTORS
330
17
102
}
100
AcDbMlineStyle
  2
STANDARD
 70
0
  3

 62
256
 51
90.0
 52
90.0
 71
2
 49
0.5
 62
256
  6
BYLAYER
 49
-0.5
 62
256
  6
BYLAYER
  0
LAYOUT
  5
36F
102
{ACAD_REACTORS
330
1A
102
}
100
AcDbPlotSettings
  1

  2
none_device
  4
ANSI_C_(22.00_x_17.00_Inches)
  6

 40
0.0
 41
0.0
 42
0.0
 43
0.0
 44
558.8
 45
431.8
 46
0.0
 47
0.0
 48
0.0
 49
0.0
140
0.0
141
0.0
142
1.0
143
1.0
 70
1024
 72
0
 73
0
 74
0
  7

 75
0
147
1.0
148
0.0
149
0.0
100
AcDbLayout
  1
Model
 70
0
 71
0
 10
0.0
 20
0.0
 11
22.0
 21
17.0
 12
0.0
 22
0.0
 32
0.0
 14
0.0
 24
0.0
 34
0.0
 15
0.0
 25
0.0
 35
0.0
146
0.0
 13
0.0
 23
0.0
 33
0.0
 16
1.0
 26
0.0
 36
0.0
 17
0.0
 27
1.0
 37
0.0
 76
0
330
20C
345
0
346
0
  0
LAYOUT
  5
370
102
{ACAD_REACTORS
330
1A
102
}
100
AcDbPlotSettings
  1

  2
none_device
  4
ANSI_C_(22.00_x_17.00_Inches)
  6

 40
0.0
 41
0.0
 42
0.0
 43
0.0
 44
558.8
 45
431.8
 46
0.0
 47
0.0
 48
0.0
 49
0.0
140
0.0
141
0.0
142
1.0
143
1.0
 70
0
 72
0
 73
0
 74
0
  7

 75
0
147
1.0
148
0.0
149
0.0
100
AcDbLayout
  1
Layout1
 70
0
 71
1
 10
0.0
 20
0.0
 11
22.0
 21
17.0
 12
0.0
 22
0.0
 32
0.0
 14
0.0
 24
0.0
 34
0.0
 15
0.0
 25
0.0
 35
0.0
146
0.0
 13
0.0
 23
0.0
 33
0.0
 16
1.0
 26
0.0
 36
0.0
 17
0.0
 27
1.0
 37
0.0
 76
0
330
20D
345
0
346
0
  0
IMAGEDEF
  5
371
102
{ACAD_REACTORS
330
36C
330
36B
102
}
100
AcDbRasterImageDef
 90
0
  1
E4I_assy_2_img_1.png
 10
369.0
 20
92.0
 11
0.0066666667
 21
0.0066666667
280
1
281
0
  0
TABLESTYLE
  5
372
102
{ACAD_REACTORS
330
36E
330
291
330
292
102
}
330
36E
100
AcDbTableStyle
  3
Standard
 70
0
 71
0
 40
0.06
 41
0.06
280
1
281
1
  7
Standard
140
0.18
170
1
 62
0
 63
7
283
0
  7
Standard
140
0.18
170
1
 62
0
 63
7
283
0
  7
Standard
140
0.18
170
1
 62
0
 63
7
283
0
  0
TABLESTYLE
  5
373
102
{ACAD_REACTORS
330
36E
330
290
102
}
330
36E
100
AcDbTableStyle
  3
Standard1
 70
1
 71
0
 40
0.06
 41
0.06
280
1
281
1
  7
Standard
140
0.18
170
1
 62
0
 63
7
283
0
  7
Standard
140
0.18
170
1
 62
0
 63
7
283
0
  7
Standard
140
0.18
170
1
 62
0
 63
7
283
0
  0
ENDSEC
  0
EOF
