999
DXF file: E3V_assy_2.dxf
999
Pro/ENGINEER 2014200 by Parametric Technology Corporation
  0
SECTION
  2
HEADER
  9
$ACADVER
  1
AC1021
  9
$DWGCODEPAGE
  3
ANSI_1252
  9
$EXTMAX
 10
22.0
 20
17.0
 30
0.0
  9
$EXTMIN
 10
0.0
 20
0.0
 30
0.0
  9
$LIMMIN
 10
0.0
 20
0.0
  9
$LIMMAX
 10
22.0
 20
17.0
  9
$VIEWCTR
 10
11.0
 20
8.5
  9
$VIEWSIZE
 40
17.0
  9
$CLAYER
  8
0
  9
$LTSCALE
 40
1.21
  9
$CELTYPE
  6
BYLAYER
  9
$DIMSCALE
 40
1.0
  9
$DIMASZ
 40
0.1875
  9
$DIMEXO
 40
0.0625
  9
$DIMDLI
 40
0.836
  9
$DIMEXE
 40
0.125
  9
$DIMCEN
 40
0.198
  9
$DIMLFAC
 40
1.0
  9
$DIMBLK
  1
_FILLED
  9
$DIMTXT
 40
0.1
  9
$DIMTOL
 70
0
  9
$DIMLIM
 70
0
  9
$DIMTFAC
 40
1.0
  9
$DIMGAP
 40
0.09
  9
$DIMDSEP
 70
46
  9
$AUNITS
 70
0
  9
$PDMODE
 70
3
  9
$PDSIZE
 40
0.3125
  9
$HANDSEED
  5
3F2
  9
$TILEMODE
 70
1
  9
$MEASUREMENT
 70
0
  9
$INSUNITS
 70
1
  0
ENDSEC
  0
SECTION
  2
CLASSES
  0
CLASS
  1
ACDBDICTIONARYWDFLT
  2
AcDbDictionaryWithDefault
  3
AutoCAD 2000
 90
0
 91
1
280
0
281
0
  0
CLASS
  1
ACDBPLACEHOLDER
  2
AcDbPlaceHolder
  3
AutoCAD 2000
 90
0
 91
1
280
0
281
0
  0
CLASS
  1
LAYOUT
  2
AcDbLayout
  3
AutoCAD 2000
 90
0
 91
0
280
0
281
0
  0
CLASS
  1
RASTERVARIABLES
  2
AcDbRasterVariables
  3
ISM
 90
0
 91
1
280
0
281
0
  0
CLASS
  1
IMAGEDEF
  2
AcDbRasterImageDef
  3
ISM
 90
0
 91
1
280
0
281
0
  0
CLASS
  1
IMAGEDEF_REACTOR
  2
AcDbRasterImageDefReactor
  3
ISM
 90
0
 91
1
280
0
281
0
  0
CLASS
  1
IMAGE
  2
AcDbRasterImage
  3
ISM
 90
127
 91
1
280
0
281
1
  0
CLASS
  1
TABLESTYLE
  2
AcDbTableStyle
  3
ObjectDBX Classes
 90
2047
 91
1
280
0
281
0
  0
CLASS
  1
ACAD_TABLE
  2
AcDbTable
  3
ObjectDBX Classes
 90
1025
 91
3
280
0
281
1
  0
ENDSEC
  0
SECTION
  2
TABLES
  0
TABLE
  2
VPORT
  5
8
100
AcDbSymbolTable
 70
2
  0
VPORT
  5
1F4
100
AcDbSymbolTableRecord
100
AcDbViewportTableRecord
  2
*ACTIVE
 70
0
 10
0.0
 20
0.0
 11
1.0
 21
1.0
 12
11.0
 22
8.5
 13
0.0
 23
0.0
 14
1.0
 24
1.0
 15
0.0
 25
0.0
 16
0.0
 26
0.0
 36
1.0
 17
0.0
 27
0.0
 37
0.0
 40
17.0
 41
1.2941176471
 42
50.0
 43
0.0
 44
0.0
 50
0.0
 51
0.0
 71
0
 72
100
 73
1
 74
1
 75
0
 76
0
 77
0
 78
0
  0
ENDTAB
  0
TABLE
  2
LTYPE
  5
5
100
AcDbSymbolTable
 70
6
  0
LTYPE
  5
14
100
AcDbSymbolTableRecord
100
AcDbLinetypeTableRecord
  2
BYBLOCK
 70
0
  3

 72
65
 73
0
 40
0.0
  0
LTYPE
  5
15
100
AcDbSymbolTableRecord
100
AcDbLinetypeTableRecord
  2
BYLAYER
 70
0
  3

 72
65
 73
0
 40
0.0
  0
LTYPE
  5
16
100
AcDbSymbolTableRecord
100
AcDbLinetypeTableRecord
  2
CONTINUOUS
 70
64
  3
Solid line
 72
65
 73
0
 40
0.0
  0
LTYPE
  5
1F5
100
AcDbSymbolTableRecord
100
AcDbLinetypeTableRecord
  2
CENTER
 70
64
  3
____ _ ____ _ ____ _ ____ _ ____ _ ____ _ ____
 72
65
 73
4
 40
0.6
 49
0.375
 74
0
 49
-0.075
 74
0
 49
0.075
 74
0
 49
-0.075
 74
0
  0
LTYPE
  5
1F6
100
AcDbSymbolTableRecord
100
AcDbLinetypeTableRecord
  2
HIDDEN
 70
64
  3
- - - - - - - - - - - - - - - - - - - -
 72
65
 73
2
 40
0.2
 49
0.1
 74
0
 49
-0.1
 74
0
  0
LTYPE
  5
1F7
100
AcDbSymbolTableRecord
100
AcDbLinetypeTableRecord
  2
PHANTOM
 70
64
  3
_____ _ _ _____ _ _ _____ _ _ _____
 72
65
 73
6
 40
0.8
 49
0.45
 74
0
 49
-0.05
 74
0
 49
0.1
 74
0
 49
-0.05
 74
0
 49
0.1
 74
0
 49
-0.05
 74
0
  0
LTYPE
  5
1F8
100
AcDbSymbolTableRecord
100
AcDbLinetypeTableRecord
  2
DOT
 70
64
  3
. . . . . . . . . . . . . . . . . . . .
 72
65
 73
2
 40
0.2
 49
0.1
 74
0
 49
-0.1
 74
0
  0
LTYPE
  5
1F9
100
AcDbSymbolTableRecord
100
AcDbLinetypeTableRecord
  2
DASHED
 70
64
  3
- - - - - - - - - - - - - - - - - - - -
 72
65
 73
2
 40
0.2
 49
0.1
 74
0
 49
-0.1
 74
0
  0
ENDTAB
  0
TABLE
  2
LAYER
  5
2
100
AcDbSymbolTable
 70
36
  0
LAYER
  5
10
100
AcDbSymbolTableRecord
100
AcDbLayerTableRecord
  2
0
 70
0
 62
7
  6
CONTINUOUS
370
-3
390
F
  0
LAYER
  5
1FA
100
AcDbSymbolTableRecord
100
AcDbLayerTableRecord
  2
DEFAULT_1
 70
0
 62
7
  6
CENTER
370
-3
390
F
  0
LAYER
  5
1FB
100
AcDbSymbolTableRecord
100
AcDbLayerTableRecord
  2
DEFAULT_2
 70
0
 62
8
  6
HIDDEN
370
-3
390
F
  0
LAYER
  5
1FC
100
AcDbSymbolTableRecord
100
AcDbLayerTableRecord
  2
DEFAULT_3
 70
0
 62
7
  6
PHANTOM
370
-3
390
F
  0
LAYER
  5
1FD
100
AcDbSymbolTableRecord
100
AcDbLayerTableRecord
  2
01___PRT_ALL_DTM_PLN
 70
0
 62
7
  6
CONTINUOUS
370
-3
390
F
  0
LAYER
  5
1FE
100
AcDbSymbolTableRecord
100
AcDbLayerTableRecord
  2
01___PRT_DEF_DTM_PLN
 70
0
 62
7
  6
CONTINUOUS
370
-3
390
F
  0
LAYER
  5
1FF
100
AcDbSymbolTableRecord
100
AcDbLayerTableRecord
  2
02___PRT_ALL_AXES
 70
0
 62
7
  6
CONTINUOUS
370
-3
390
F
  0
LAYER
  5
200
100
AcDbSymbolTableRecord
100
AcDbLayerTableRecord
  2
03___PRT_ALL_CURVES
 70
0
 62
7
  6
CONTINUOUS
370
-3
390
F
  0
LAYER
  5
201
100
AcDbSymbolTableRecord
100
AcDbLayerTableRecord
  2
04___PRT_ALL_DTM_PNT
 70
0
 62
7
  6
CONTINUOUS
370
-3
390
F
  0
LAYER
  5
202
100
AcDbSymbolTableRecord
100
AcDbLayerTableRecord
  2
05___PRT_ALL_DTM_CSYS
 70
0
 62
7
  6
CONTINUOUS
370
-3
390
F
  0
LAYER
  5
203
100
AcDbSymbolTableRecord
100
AcDbLayerTableRecord
  2
05___PRT_DEF_DTM_CSYS
 70
0
 62
7
  6
CONTINUOUS
370
-3
390
F
  0
LAYER
  5
204
100
AcDbSymbolTableRecord
100
AcDbLayerTableRecord
  2
06___PRT_ALL_SURFS
 70
0
 62
7
  6
CONTINUOUS
370
-3
390
F
  0
LAYER
  5
205
100
AcDbSymbolTableRecord
100
AcDbLayerTableRecord
  2
DATUM_PLANES
 70
0
 62
7
  6
CONTINUOUS
370
-3
390
F
  0
LAYER
  5
206
100
AcDbSymbolTableRecord
100
AcDbLayerTableRecord
  2
PORT_AREAS
 70
0
 62
7
  6
CONTINUOUS
370
-3
390
F
  0
LAYER
  5
207
100
AcDbSymbolTableRecord
100
AcDbLayerTableRecord
  2
SUNNBOMCOSMETIC
 70
0
 62
7
  6
CONTINUOUS
370
-3
390
F
  0
LAYER
  5
208
100
AcDbSymbolTableRecord
100
AcDbLayerTableRecord
  2
SUNNBOMSTAMPING
 70
0
 62
7
  6
CONTINUOUS
370
-3
390
F
  0
LAYER
  5
209
100
AcDbSymbolTableRecord
100
AcDbLayerTableRecord
  2
THREADS
 70
0
 62
7
  6
CONTINUOUS
370
-3
390
F
  0
ENDTAB
  0
TABLE
  2
STYLE
  5
3
100
AcDbSymbolTable
 70
1
  0
STYLE
  5
11
100
AcDbSymbolTableRecord
100
AcDbTextStyleTableRecord
  2
STANDARD
 70
0
 40
0.0
 41
0.8
 50
0.0
 71
0
 42
0.2
  3
txt
  4

  0
STYLE
  5
20A
100
AcDbSymbolTableRecord
100
AcDbTextStyleTableRecord
  2
TEXTSTYLE_1
 70
0
 40
0.0
 41
0.8
 50
0.0
 71
0
 42
0.2
  3
gdt
  4

  0
ENDTAB
  0
TABLE
  2
VIEW
  5
6
100
AcDbSymbolTable
 70
0
  0
ENDTAB
  0
TABLE
  2
UCS
  5
7
100
AcDbSymbolTable
 70
0
  0
ENDTAB
  0
TABLE
  2
APPID
  5
9
100
AcDbSymbolTable
 70
1
  0
APPID
  5
20B
100
AcDbSymbolTableRecord
100
AcDbRegAppTableRecord
  2
ACAD
 70
0
  0
ENDTAB
  0
TABLE
  2
BLOCK_RECORD
  5
1
100
AcDbSymbolTable
 70
0
  0
BLOCK_RECORD
  5
20C
100
AcDbSymbolTableRecord
100
AcDbBlockTableRecord
  2
*Model_Space
  0
BLOCK_RECORD
  5
20D
100
AcDbSymbolTableRecord
100
AcDbBlockTableRecord
  2
*Paper_Space
  0
BLOCK_RECORD
  5
20E
100
AcDbSymbolTableRecord
100
AcDbBlockTableRecord
  2
SUN_FIRST_THIRD_ANGLE_BL0
  0
BLOCK_RECORD
  5
20F
100
AcDbSymbolTableRecord
100
AcDbBlockTableRecord
  2
*T1
  0
BLOCK_RECORD
  5
210
100
AcDbSymbolTableRecord
100
AcDbBlockTableRecord
  2
*T2
  0
BLOCK_RECORD
  5
211
100
AcDbSymbolTableRecord
100
AcDbBlockTableRecord
  2
*T3
  0
ENDTAB
  0
TABLE
  2
DIMSTYLE
  5
A
100
AcDbSymbolTable
 70
1
100
AcDbDimStyleTable
 71
0
  0
DIMSTYLE
105
212
100
AcDbSymbolTableRecord
100
AcDbDimStyleTableRecord
  2
STANDARD
 70
0
  3

  4

 40
1.0
 41
0.1875
 42
0.0625
 43
0.38
 44
0.125
 45
0.0
 46
0.0
 47
0.001
 48
0.001
140
0.1
141
0.09
142
0.0
143
25.4
144
1.0
145
0.0
146
1.0
147
0.09
 71
0.0
 72
0.0
 73
1
 74
1
 75
0
 76
0
 77
0
 78
4
170
0
171
2
172
0
173
0
174
0
175
0
176
0
177
0
178
0
270
2
271
3
272
3
273
2
274
2
275
0
280
0
281
0
282
0
283
1
284
4
285
0
286
0
287
3
288
0
340
11
278
46
  0
ENDTAB
  0
ENDSEC
  0
SECTION
  2
BLOCKS
  0
BLOCK
  5
20
100
AcDbEntity
  8
0
100
AcDbBlockBegin
  2
*Model_Space
 70
0
 10
0.0
 20
0.0
 30
0.0
  3
*Model_Space
  1

  0
ENDBLK
  5
21
100
AcDbEntity
  8
0
100
AcDbBlockEnd
  0
BLOCK
  5
1C
100
AcDbEntity
  8
0
100
AcDbBlockBegin
  2
*Paper_Space
 70
0
 10
0.0
 20
0.0
 30
0.0
  3
*Paper_Space
  1

  0
ENDBLK
  5
1D
100
AcDbEntity
  8
0
100
AcDbBlockEnd
  0
BLOCK
  5
213
100
AcDbEntity
  8
0
100
AcDbBlockBegin
 62
2
  6
CONTINUOUS
  2
SUN_FIRST_THIRD_ANGLE_BL0
 70
64
 10
20.4816717061
 20
1.2289683772
  3
SUN_FIRST_THIRD_ANGLE_BL0
  1

  0
TEXT
  5
214
100
AcDbEntity
  8
0
100
AcDbText
 62
2
  6
CONTINUOUS
 10
19.4750896608
 20
1.4136269581
  7
STANDARD
 40
0.08
  1
FIRST ANGLE
 41
0.8
 72
0
100
AcDbText
  0
TEXT
  5
215
100
AcDbEntity
  8
0
100
AcDbText
 62
2
  6
CONTINUOUS
 10
20.7842537513
 20
1.4047600029
  7
STANDARD
 40
0.08
  1
THIRD ANGLE
 41
0.8
 72
0
100
AcDbText
  0
LINE
  5
216
100
AcDbEntity
  8
0
100
AcDbLine
 62
7
  6
CONTINUOUS
 10
19.4767170086
 20
1.1727031207
 11
19.6334271527
 21
1.1717972817
  0
LINE
  5
217
100
AcDbEntity
  8
0
100
AcDbLine
 62
7
  6
CONTINUOUS
 10
19.6596964832
 20
1.1717972817
 11
19.6950230232
 21
1.171593082
  0
LINE
  5
218
100
AcDbEntity
  8
0
100
AcDbLine
 62
7
  6
CONTINUOUS
 10
19.7194818561
 20
1.1708914427
 11
19.8852396156
 21
1.1699333054
  0
LINE
  5
219
100
AcDbEntity
  8
0
100
AcDbLine
 62
7
  6
CONTINUOUS
 10
19.4758111696
 20
1.2723454088
 11
19.88525039
 21
1.3511534004
  0
LINE
  5
21A
100
AcDbEntity
  8
0
100
AcDbLine
 62
7
  6
CONTINUOUS
 10
19.88525039
 20
1.3511534004
 11
19.8831348489
 21
0.9851647912
  0
LINE
  5
21B
100
AcDbEntity
  8
0
100
AcDbLine
 62
7
  6
CONTINUOUS
 10
19.8831348489
 20
0.9851647912
 11
19.4767170086
 21
1.0658141206
  0
LINE
  5
21C
100
AcDbEntity
  8
0
100
AcDbLine
 62
7
  6
CONTINUOUS
 10
19.4767170086
 20
1.0658141206
 11
19.4779056764
 21
1.2714536432
  0
CIRCLE
  5
21D
100
AcDbEntity
  8
0
100
AcDbCircle
 62
7
  6
CONTINUOUS
 10
20.2068232291
 20
1.1717972817
 40
0.175742101
  0
CIRCLE
  5
21E
100
AcDbEntity
  8
0
100
AcDbCircle
 62
7
  6
CONTINUOUS
 10
20.2068232291
 20
1.1717972817
 40
0.1005522074
  0
LINE
  5
21F
100
AcDbEntity
  8
0
100
AcDbLine
 62
7
  6
CONTINUOUS
 10
20.2077290681
 20
1.3756110529
 11
20.2071171714
 21
1.2379342989
  0
LINE
  5
220
100
AcDbEntity
  8
0
100
AcDbLine
 62
7
  6
CONTINUOUS
 10
20.2077290681
 20
1.2016899681
 11
20.2074674401
 21
1.1428236749
  0
LINE
  5
221
100
AcDbEntity
  8
0
100
AcDbLine
 62
7
  6
CONTINUOUS
 10
20.208634907
 20
1.101141841
 11
20.2080230104
 21
0.963465087
  0
LINE
  5
222
100
AcDbEntity
  8
0
100
AcDbLine
 62
7
  6
CONTINUOUS
 10
20.0066328138
 20
1.1745147986
 11
20.1443095678
 21
1.1739029019
  0
LINE
  5
223
100
AcDbEntity
  8
0
100
AcDbLine
 62
7
  6
CONTINUOUS
 10
20.1832714155
 20
1.1727031207
 11
20.238153505
 21
1.172335442
  0
LINE
  5
224
100
AcDbEntity
  8
0
100
AcDbLine
 62
7
  6
CONTINUOUS
 10
20.2756669918
 20
1.1717972817
 11
20.407916871
 21
1.1712095044
  0
CIRCLE
  5
225
100
AcDbEntity
  8
0
100
AcDbCircle
 62
7
  6
CONTINUOUS
 10
20.7509457401
 20
1.1693297793
 40
0.1722024983
  0
CIRCLE
  5
226
100
AcDbEntity
  8
0
100
AcDbCircle
 62
7
  6
CONTINUOUS
 10
20.7509457401
 20
1.1693297793
 40
0.0985164967
  0
LINE
  5
227
100
AcDbEntity
  8
0
100
AcDbLine
 62
7
  6
CONTINUOUS
 10
20.7169767782
 20
1.170462078
 11
20.7825395137
 21
1.1682766535
  0
LINE
  5
228
100
AcDbEntity
  8
0
100
AcDbLine
 62
7
  6
CONTINUOUS
 10
20.8177513651
 20
1.1693297793
 11
20.947965719
 21
1.1693297793
  0
LINE
  5
229
100
AcDbEntity
  8
0
100
AcDbLine
 62
7
  6
CONTINUOUS
 10
20.6875370113
 20
1.170462078
 11
20.5573226574
 21
1.170462078
  0
LINE
  5
22A
100
AcDbEntity
  8
0
100
AcDbLine
 62
7
  6
CONTINUOUS
 10
20.7486811426
 20
1.1987695462
 11
20.7486811426
 21
1.1432869085
  0
LINE
  5
22B
100
AcDbEntity
  8
0
100
AcDbLine
 62
7
  6
CONTINUOUS
 10
20.7498134414
 20
1.1059210505
 11
20.7498134414
 21
0.9757066966
  0
LINE
  5
22C
100
AcDbEntity
  8
0
100
AcDbLine
 62
7
  6
CONTINUOUS
 10
20.7486811426
 20
1.2338708068
 11
20.7486811426
 21
1.3640851607
  0
LINE
  5
22D
100
AcDbEntity
  8
0
100
AcDbLine
 62
7
  6
CONTINUOUS
 10
21.0702539817
 20
1.2701043662
 11
21.4790138229
 21
1.3448360823
  0
LINE
  5
22E
100
AcDbEntity
  8
0
100
AcDbLine
 62
7
  6
CONTINUOUS
 10
21.4790138229
 20
1.3448360823
 11
21.4790138229
 21
0.9779712941
  0
LINE
  5
22F
100
AcDbEntity
  8
0
100
AcDbLine
 62
7
  6
CONTINUOUS
 10
21.4790138229
 20
0.9779712941
 11
21.069121683
 21
1.0617614
  0
LINE
  5
230
100
AcDbEntity
  8
0
100
AcDbLine
 62
7
  6
CONTINUOUS
 10
21.0702539817
 20
1.2701043662
 11
21.069121683
 21
1.0617614
  0
LINE
  5
231
100
AcDbEntity
  8
0
100
AcDbLine
 62
7
  6
CONTINUOUS
 10
21.4790138229
 20
1.1693297793
 11
21.3159628059
 21
1.1693297793
  0
LINE
  5
232
100
AcDbEntity
  8
0
100
AcDbLine
 62
7
  6
CONTINUOUS
 10
21.2876553377
 20
1.1693297793
 11
21.2502894796
 21
1.1693297793
  0
LINE
  5
233
100
AcDbEntity
  8
0
100
AcDbLine
 62
7
  6
CONTINUOUS
 10
21.2208497126
 20
1.1659328831
 11
21.0713862804
 21
1.1659328831
  0
LINE
  5
234
100
AcDbEntity
  8
0
100
AcDbLine
 62
7
  6
CONTINUOUS
 10
20.4796138713
 20
1.5284908897
 11
20.4766766948
 21
0.9294458646
  0
ENDBLK
  5
235
100
AcDbEntity
  8
0
  6
BYBLOCK
 62
0
100
AcDbBlockEnd
  0
BLOCK
  5
236
100
AcDbEntity
  8
0
100
AcDbBlockBegin
  2
*T1
 70
1
 10
0.0
 20
0.0
  3
*T1
  1

  0
LINE
  5
237
100
AcDbEntity
  8
0
100
AcDbLine
 62
2
  6
CONTINUOUS
 10
9.275
 20
0.0
 11
-0.0
 21
0.0
  0
LINE
  5
238
100
AcDbEntity
  8
0
100
AcDbLine
 62
2
  6
CONTINUOUS
 10
9.275
 20
0.0
 11
9.275
 21
1.25
  0
LINE
  5
239
100
AcDbEntity
  8
0
100
AcDbLine
 62
2
  6
CONTINUOUS
 10
9.275
 20
0.625
 11
-0.0
 21
0.625
  0
LINE
  5
23A
100
AcDbEntity
  8
0
100
AcDbLine
 62
2
  6
CONTINUOUS
 10
9.275
 20
1.25
 11
-0.0
 21
1.25
  0
LINE
  5
23B
100
AcDbEntity
  8
0
100
AcDbLine
 62
2
  6
CONTINUOUS
 10
6.8
 20
0.0
 11
6.8
 21
1.25
  0
LINE
  5
23C
100
AcDbEntity
  8
0
100
AcDbLine
 62
2
  6
CONTINUOUS
 10
6.4
 20
0.0
 11
6.4
 21
0.625
  0
LINE
  5
23D
100
AcDbEntity
  8
0
100
AcDbLine
 62
2
  6
CONTINUOUS
 10
5.9
 20
0.0
 11
5.9
 21
0.625
  0
LINE
  5
23E
100
AcDbEntity
  8
0
100
AcDbLine
 62
2
  6
CONTINUOUS
 10
5.2
 20
0.0
 11
5.2
 21
0.625
  0
LINE
  5
23F
100
AcDbEntity
  8
0
100
AcDbLine
 62
2
  6
CONTINUOUS
 10
4.1
 20
0.0
 11
4.1
 21
1.25
  0
LINE
  5
240
100
AcDbEntity
  8
0
100
AcDbLine
 62
2
  6
CONTINUOUS
 10
-0.0
 20
0.0
 11
-0.0
 21
1.25
  0
MTEXT
  5
241
100
AcDbEntity
  8
0
100
AcDbMText
 62
2
  6
CONTINUOUS
  7
STANDARD
 71
2
 72
1
 10
6.6
 20
0.325
 30
0.0
 11
1.0
 21
0.0
 31
0.0
 44
0.9
  1
2
 40
0.125
 41
0.2
  0
MTEXT
  5
242
100
AcDbEntity
  8
0
100
AcDbMText
 62
2
  6
CONTINUOUS
  7
STANDARD
 71
2
 72
1
 10
6.15
 20
0.325
 30
0.0
 11
1.0
 21
0.0
 31
0.0
 44
0.9
  1
C
 40
0.125
 41
0.2
  0
MTEXT
  5
243
100
AcDbEntity
  8
0
100
AcDbMText
 62
2
  6
CONTINUOUS
  7
STANDARD
 71
2
 72
1
 10
5.55
 20
0.325
 30
0.0
 11
1.0
 21
0.0
 31
0.0
 44
0.9
  1
1.000
 40
0.125
 41
1.0
  0
MTEXT
  5
244
100
AcDbEntity
  8
0
100
AcDbMText
 62
2
  6
CONTINUOUS
  7
STANDARD
 71
2
 72
1
 10
4.65
 20
0.325
 30
0.0
 11
1.0
 21
0.0
 31
0.0
 44
0.9
  1
Jun-02-20
 40
0.125
 41
1.8
  0
MTEXT
  5
245
100
AcDbEntity
  8
0
100
AcDbMText
 62
2
  6
CONTINUOUS
  7
STANDARD
 71
2
 72
1
 10
2.05
 20
0.4625
 30
0.0
 11
1.0
 21
0.0
 31
0.0
 44
0.9
  1
T-11A Line mount\PThrough port 2 with reverse flow check
 40
0.125
 41
7.6
  0
MTEXT
  5
246
100
AcDbEntity
  8
0
100
AcDbMText
 62
2
  6
CONTINUOUS
  7
STANDARD
 71
1
 72
1
 10
6.45
 20
0.5625
 30
0.0
 11
1.0
 21
0.0
 31
0.0
 44
0.9
  1
SHEET
 40
0.06
 41
0.48
  0
MTEXT
  5
247
100
AcDbEntity
  8
0
100
AcDbMText
 62
2
  6
CONTINUOUS
  7
STANDARD
 71
1
 72
1
 10
5.95
 20
0.5625
 30
0.0
 11
1.0
 21
0.0
 31
0.0
 44
0.9
  1
DWG SIZE
 40
0.06
 41
0.768
  0
MTEXT
  5
248
100
AcDbEntity
  8
0
100
AcDbMText
 62
2
  6
CONTINUOUS
  7
STANDARD
 71
1
 72
1
 10
5.25
 20
0.5625
 30
0.0
 11
1.0
 21
0.0
 31
0.0
 44
0.9
  1
SCALE
 40
0.06
 41
0.48
  0
MTEXT
  5
249
100
AcDbEntity
  8
0
100
AcDbMText
 62
2
  6
CONTINUOUS
  7
STANDARD
 71
1
 72
1
 10
4.15
 20
0.5625
 30
0.0
 11
1.0
 21
0.0
 31
0.0
 44
0.9
  1
DATE
 40
0.06
 41
0.384
  0
MTEXT
  5
24A
100
AcDbEntity
  8
0
100
AcDbMText
 62
2
  6
CONTINUOUS
  7
STANDARD
 71
1
 72
1
 10
0.05
 20
0.5625
 30
0.0
 11
1.0
 21
0.0
 31
0.0
 44
0.9
  1
DESCRIPTION
 40
0.06
 41
1.056
  0
MTEXT
  5
24B
100
AcDbEntity
  8
0
100
AcDbMText
 62
2
  6
CONTINUOUS
  7
STANDARD
 71
2
 72
1
 10
5.45
 20
1.0375
 30
0.0
 11
1.0
 21
0.0
 31
0.0
 44
0.9
  1
ALL DIMENSIONS IN INCH\PVIEWS ARE THIRD ANGLE
 40
0.12
 41
4.224
  0
MTEXT
  5
24C
100
AcDbEntity
  8
0
100
AcDbMText
 62
2
  6
CONTINUOUS
  7
STANDARD
 71
2
 72
1
 10
2.05
 20
0.95
 30
0.0
 11
1.0
 21
0.0
 31
0.0
 44
0.9
  1
E3V
 40
0.125
 41
0.6
  0
MTEXT
  5
24D
100
AcDbEntity
  8
0
100
AcDbMText
 62
2
  6
CONTINUOUS
  7
STANDARD
 71
1
 72
1
 10
0.05
 20
1.1875
 30
0.0
 11
1.0
 21
0.0
 31
0.0
 44
0.9
  1
MODEL
 40
0.06
 41
0.48
  0
ENDBLK
  5
24E
100
AcDbEntity
  8
0
  6
BYBLOCK
 62
0
100
AcDbBlockEnd
  0
BLOCK
  5
24F
100
AcDbEntity
  8
0
100
AcDbBlockBegin
  2
*T2
 70
1
 10
0.0
 20
0.0
  3
*T2
  1

  0
LINE
  5
250
100
AcDbEntity
  8
0
100
AcDbLine
 62
2
  6
CONTINUOUS
 10
0.0
 20
0.0
 11
9.055
 21
0.0
  0
LINE
  5
251
100
AcDbEntity
  8
0
100
AcDbLine
 62
2
  6
CONTINUOUS
 10
0.0
 20
0.0
 11
0.0
 21
-2.594
  0
LINE
  5
252
100
AcDbEntity
  8
0
100
AcDbLine
 62
2
  6
CONTINUOUS
 10
0.0
 20
-0.344
 11
9.055
 21
-0.344
  0
LINE
  5
253
100
AcDbEntity
  8
0
100
AcDbLine
 62
2
  6
CONTINUOUS
 10
0.0
 20
-0.594
 11
9.055
 21
-0.594
  0
LINE
  5
254
100
AcDbEntity
  8
0
100
AcDbLine
 62
2
  6
CONTINUOUS
 10
0.0
 20
-0.844
 11
9.055
 21
-0.844
  0
LINE
  5
255
100
AcDbEntity
  8
0
100
AcDbLine
 62
2
  6
CONTINUOUS
 10
0.0
 20
-1.094
 11
9.055
 21
-1.094
  0
LINE
  5
256
100
AcDbEntity
  8
0
100
AcDbLine
 62
2
  6
CONTINUOUS
 10
0.0
 20
-1.344
 11
9.055
 21
-1.344
  0
LINE
  5
257
100
AcDbEntity
  8
0
100
AcDbLine
 62
2
  6
CONTINUOUS
 10
0.0
 20
-1.594
 11
9.055
 21
-1.594
  0
LINE
  5
258
100
AcDbEntity
  8
0
100
AcDbLine
 62
2
  6
CONTINUOUS
 10
0.0
 20
-1.844
 11
9.055
 21
-1.844
  0
LINE
  5
259
100
AcDbEntity
  8
0
100
AcDbLine
 62
2
  6
CONTINUOUS
 10
0.0
 20
-2.094
 11
9.055
 21
-2.094
  0
LINE
  5
25A
100
AcDbEntity
  8
0
100
AcDbLine
 62
2
  6
CONTINUOUS
 10
0.0
 20
-2.344
 11
9.055
 21
-2.344
  0
LINE
  5
25B
100
AcDbEntity
  8
0
100
AcDbLine
 62
2
  6
CONTINUOUS
 10
0.0
 20
-2.594
 11
9.055
 21
-2.594
  0
LINE
  5
25C
100
AcDbEntity
  8
0
100
AcDbLine
 62
2
  6
CONTINUOUS
 10
3.055
 20
0.0
 11
3.055
 21
-2.594
  0
LINE
  5
25D
100
AcDbEntity
  8
0
100
AcDbLine
 62
2
  6
CONTINUOUS
 10
9.055
 20
0.0
 11
9.055
 21
-2.594
  0
MTEXT
  5
25E
100
AcDbEntity
  8
0
100
AcDbMText
 62
2
  6
CONTINUOUS
  7
STANDARD
 71
2
 72
1
 10
1.5275
 20
-0.0995
 30
0.0
 11
1.0
 21
0.0
 31
0.0
 44
0.9
  1
Technical Data
 40
0.145
 41
3.248
  0
MTEXT
  5
25F
100
AcDbEntity
  8
0
100
AcDbMText
 62
2
  6
CONTINUOUS
  7
STANDARD
 71
2
 72
1
 10
4.555
 20
-0.0995
 30
0.0
 11
1.0
 21
0.0
 31
0.0
 44
0.9
  1
U.S. Units
 40
0.145
 41
2.32
  0
MTEXT
  5
260
100
AcDbEntity
  8
0
100
AcDbMText
 62
2
  6
CONTINUOUS
  7
STANDARD
 71
2
 72
1
 10
7.555
 20
-0.0995
 30
0.0
 11
1.0
 21
0.0
 31
0.0
 44
0.9
  1
Metric Units
 40
0.145
 41
2.784
  0
MTEXT
  5
261
100
AcDbEntity
  8
0
100
AcDbMText
 62
2
  6
CONTINUOUS
  7
STANDARD
 71
2
 72
1
 10
1.5275
 20
-0.4065
 30
0.0
 11
1.0
 21
0.0
 31
0.0
 44
0.9
  1
Cavity
 40
0.125
 41
1.2
  0
MTEXT
  5
262
100
AcDbEntity
  8
0
100
AcDbMText
 62
2
  6
CONTINUOUS
  7
STANDARD
 71
2
 72
1
 10
6.055
 20
-0.4065
 30
0.0
 11
1.0
 21
0.0
 31
0.0
 44
0.9
  1
T-11A
 40
0.125
 41
1.0
  0
MTEXT
  5
263
100
AcDbEntity
  8
0
100
AcDbMText
 62
2
  6
CONTINUOUS
  7
STANDARD
 71
2
 72
1
 10
1.5275
 20
-0.6565
 30
0.0
 11
1.0
 21
0.0
 31
0.0
 44
0.9
  1
Body Features
 40
0.125
 41
2.6
  0
MTEXT
  5
264
100
AcDbEntity
  8
0
100
AcDbMText
 62
2
  6
CONTINUOUS
  7
STANDARD
 71
2
 72
1
 10
6.055
 20
-0.6565
 30
0.0
 11
1.0
 21
0.0
 31
0.0
 44
0.9
  1
Through port 2 with reverse flow check
 40
0.125
 41
7.6
  0
MTEXT
  5
265
100
AcDbEntity
  8
0
100
AcDbMText
 62
2
  6
CONTINUOUS
  7
STANDARD
 71
2
 72
1
 10
1.5275
 20
-0.9065
 30
0.0
 11
1.0
 21
0.0
 31
0.0
 44
0.9
  1
Body Type
 40
0.125
 41
1.8
  0
MTEXT
  5
266
100
AcDbEntity
  8
0
100
AcDbMText
 62
2
  6
CONTINUOUS
  7
STANDARD
 71
2
 72
1
 10
6.055
 20
-0.9065
 30
0.0
 11
1.0
 21
0.0
 31
0.0
 44
0.9
  1
Line mount
 40
0.125
 41
2.0
  0
MTEXT
  5
267
100
AcDbEntity
  8
0
100
AcDbMText
 62
2
  6
CONTINUOUS
  7
STANDARD
 71
2
 72
1
 10
1.5275
 20
-1.1565
 30
0.0
 11
1.0
 21
0.0
 31
0.0
 44
0.9
  1
Interface
 40
0.125
 41
1.8
  0
MTEXT
  5
268
100
AcDbEntity
  8
0
100
AcDbMText
 62
2
  6
CONTINUOUS
  7
STANDARD
 71
2
 72
1
 10
6.055
 20
-1.1565
 30
0.0
 11
1.0
 21
0.0
 31
0.0
 44
0.9
  1
None
 40
0.125
 41
0.8
  0
MTEXT
  5
269
100
AcDbEntity
  8
0
100
AcDbMText
 62
2
  6
CONTINUOUS
  7
STANDARD
 71
2
 72
1
 10
1.5275
 20
-1.4065
 30
0.0
 11
1.0
 21
0.0
 31
0.0
 44
0.9
  1
Open Cavity Quantity
 40
0.125
 41
4.0
  0
MTEXT
  5
26A
100
AcDbEntity
  8
0
100
AcDbMText
 62
2
  6
CONTINUOUS
  7
STANDARD
 71
2
 72
1
 10
6.055
 20
-1.4065
 30
0.0
 11
1.0
 21
0.0
 31
0.0
 44
0.9
  1
1
 40
0.125
 41
0.2
  0
MTEXT
  5
26B
100
AcDbEntity
  8
0
100
AcDbMText
 62
2
  6
CONTINUOUS
  7
STANDARD
 71
2
 72
1
 10
1.5275
 20
-1.6565
 30
0.0
 11
1.0
 21
0.0
 31
0.0
 44
0.9
  1
Weight
 40
0.125
 41
1.2
  0
MTEXT
  5
26C
100
AcDbEntity
  8
0
100
AcDbMText
 62
2
  6
CONTINUOUS
  7
STANDARD
 71
2
 72
1
 10
4.555
 20
-1.6565
 30
0.0
 11
1.0
 21
0.0
 31
0.0
 44
0.9
  1
2.207 lb.
 40
0.125
 41
1.8
  0
MTEXT
  5
26D
100
AcDbEntity
  8
0
100
AcDbMText
 62
2
  6
CONTINUOUS
  7
STANDARD
 71
2
 72
1
 10
7.555
 20
-1.6565
 30
0.0
 11
1.0
 21
0.0
 31
0.0
 44
0.9
  1
1,001 kg.
 40
0.125
 41
1.8
  0
MTEXT
  5
26E
100
AcDbEntity
  8
0
100
AcDbMText
 62
2
  6
CONTINUOUS
  7
STANDARD
 71
2
 72
1
 10
1.5275
 20
-1.9065
 30
0.0
 11
1.0
 21
0.0
 31
0.0
 44
0.9
  1
Mounting Hole Thread
 40
0.125
 41
4.0
  0
MTEXT
  5
26F
100
AcDbEntity
  8
0
100
AcDbMText
 62
2
  6
CONTINUOUS
  7
STANDARD
 71
2
 72
1
 10
6.055
 20
-1.9065
 30
0.0
 11
1.0
 21
0.0
 31
0.0
 44
0.9
  1
M10x1.5 - 6H
 40
0.125
 41
2.4
  0
MTEXT
  5
270
100
AcDbEntity
  8
0
100
AcDbMText
 62
2
  6
CONTINUOUS
  7
STANDARD
 71
2
 72
1
 10
1.5275
 20
-2.1565
 30
0.0
 11
1.0
 21
0.0
 31
0.0
 44
0.9
  1
Mounting Hole Depth
 40
0.125
 41
3.8
  0
MTEXT
  5
271
100
AcDbEntity
  8
0
100
AcDbMText
 62
2
  6
CONTINUOUS
  7
STANDARD
 71
2
 72
1
 10
4.555
 20
-2.1565
 30
0.0
 11
1.0
 21
0.0
 31
0.0
 44
0.9
  1
.62 in.
 40
0.125
 41
1.4
  0
MTEXT
  5
272
100
AcDbEntity
  8
0
100
AcDbMText
 62
2
  6
CONTINUOUS
  7
STANDARD
 71
2
 72
1
 10
7.555
 20
-2.1565
 30
0.0
 11
1.0
 21
0.0
 31
0.0
 44
0.9
  1
15,7 mm
 40
0.125
 41
1.4
  0
MTEXT
  5
273
100
AcDbEntity
  8
0
100
AcDbMText
 62
2
  6
CONTINUOUS
  7
STANDARD
 71
2
 72
1
 10
1.5275
 20
-2.4065
 30
0.0
 11
1.0
 21
0.0
 31
0.0
 44
0.9
  1
Mounting Hole Quantity
 40
0.125
 41
4.4
  0
MTEXT
  5
274
100
AcDbEntity
  8
0
100
AcDbMText
 62
2
  6
CONTINUOUS
  7
STANDARD
 71
2
 72
1
 10
6.055
 20
-2.4065
 30
0.0
 11
1.0
 21
0.0
 31
0.0
 44
0.9
  1
2
 40
0.125
 41
0.2
  0
ENDBLK
  5
275
100
AcDbEntity
  8
0
  6
BYBLOCK
 62
0
100
AcDbBlockEnd
  0
BLOCK
  5
276
100
AcDbEntity
  8
0
100
AcDbBlockBegin
  2
*T3
 70
1
 10
0.0
 20
0.0
  3
*T3
  1

  0
LINE
  5
277
100
AcDbEntity
  8
0
100
AcDbLine
 62
2
  6
CONTINUOUS
 10
0.0
 20
0.0
 11
4.6
 21
0.0
  0
LINE
  5
278
100
AcDbEntity
  8
0
100
AcDbLine
 62
2
  6
CONTINUOUS
 10
0.0
 20
0.0
 11
0.0
 21
-1.43775
  0
LINE
  5
279
100
AcDbEntity
  8
0
100
AcDbLine
 62
2
  6
CONTINUOUS
 10
0.0
 20
-0.34375
 11
4.6
 21
-0.34375
  0
LINE
  5
27A
100
AcDbEntity
  8
0
100
AcDbLine
 62
2
  6
CONTINUOUS
 10
0.0
 20
-0.68775
 11
4.6
 21
-0.68775
  0
LINE
  5
27B
100
AcDbEntity
  8
0
100
AcDbLine
 62
2
  6
CONTINUOUS
 10
0.0
 20
-0.93775
 11
4.6
 21
-0.93775
  0
LINE
  5
27C
100
AcDbEntity
  8
0
100
AcDbLine
 62
2
  6
CONTINUOUS
 10
0.0
 20
-1.18775
 11
4.6
 21
-1.18775
  0
LINE
  5
27D
100
AcDbEntity
  8
0
100
AcDbLine
 62
2
  6
CONTINUOUS
 10
0.0
 20
-1.43775
 11
4.6
 21
-1.43775
  0
LINE
  5
27E
100
AcDbEntity
  8
0
100
AcDbLine
 62
2
  6
CONTINUOUS
 10
1.3
 20
-0.34375
 11
1.3
 21
-1.43775
  0
LINE
  5
27F
100
AcDbEntity
  8
0
100
AcDbLine
 62
2
  6
CONTINUOUS
 10
3.3
 20
-0.34375
 11
3.3
 21
-1.43775
  0
LINE
  5
280
100
AcDbEntity
  8
0
100
AcDbLine
 62
2
  6
CONTINUOUS
 10
4.6
 20
0.0
 11
4.6
 21
-1.43775
  0
MTEXT
  5
281
100
AcDbEntity
  8
0
100
AcDbMText
 62
2
  6
CONTINUOUS
  7
STANDARD
 71
2
 72
1
 10
2.3
 20
-0.099375
 30
0.0
 11
1.0
 21
0.0
 31
0.0
 44
0.9
  1
Port Headings
 40
0.145
 41
3.016
  0
MTEXT
  5
282
100
AcDbEntity
  8
0
100
AcDbMText
 62
2
  6
CONTINUOUS
  7
STANDARD
 71
2
 72
1
 10
0.65
 20
-0.44325
 30
0.0
 11
1.0
 21
0.0
 31
0.0
 44
0.9
  1
Product
 40
0.145
 41
1.624
  0
MTEXT
  5
283
100
AcDbEntity
  8
0
100
AcDbMText
 62
2
  6
CONTINUOUS
  7
STANDARD
 71
2
 72
1
 10
2.3
 20
-0.44325
 30
0.0
 11
1.0
 21
0.0
 31
0.0
 44
0.9
  1
Port
 40
0.145
 41
0.928
  0
MTEXT
  5
284
100
AcDbEntity
  8
0
100
AcDbMText
 62
2
  6
CONTINUOUS
  7
STANDARD
 71
2
 72
1
 10
3.95
 20
-0.44325
 30
0.0
 11
1.0
 21
0.0
 31
0.0
 44
0.9
  1
Size
 40
0.145
 41
0.928
  0
MTEXT
  5
285
100
AcDbEntity
  8
0
100
AcDbMText
 62
2
  6
CONTINUOUS
  7
STANDARD
 71
2
 72
1
 10
0.65
 20
-0.75025
 30
0.0
 11
1.0
 21
0.0
 31
0.0
 44
0.9
  1
E3V
 40
0.125
 41
0.6
  0
MTEXT
  5
286
100
AcDbEntity
  8
0
100
AcDbMText
 62
2
  6
CONTINUOUS
  7
STANDARD
 71
2
 72
1
 10
2.3
 20
-0.75025
 30
0.0
 11
1.0
 21
0.0
 31
0.0
 44
0.9
  1
Ports 1 &  2
 40
0.125
 41
2.4
  0
MTEXT
  5
287
100
AcDbEntity
  8
0
100
AcDbMText
 62
2
  6
CONTINUOUS
  7
STANDARD
 71
2
 72
1
 10
3.95
 20
-0.75025
 30
0.0
 11
1.0
 21
0.0
 31
0.0
 44
0.9
  1
1/2" BSPP
 40
0.125
 41
1.8
  0
MTEXT
  5
288
100
AcDbEntity
  8
0
100
AcDbMText
 62
2
  6
CONTINUOUS
  7
STANDARD
 71
2
 72
1
 10
0.65
 20
-1.00025
 30
0.0
 11
1.0
 21
0.0
 31
0.0
 44
0.9
  1
E3V
 40
0.125
 41
0.6
  0
MTEXT
  5
289
100
AcDbEntity
  8
0
100
AcDbMText
 62
2
  6
CONTINUOUS
  7
STANDARD
 71
2
 72
1
 10
2.3
 20
-1.00025
 30
0.0
 11
1.0
 21
0.0
 31
0.0
 44
0.9
  1
Port 3
 40
0.125
 41
1.2
  0
MTEXT
  5
28A
100
AcDbEntity
  8
0
100
AcDbMText
 62
2
  6
CONTINUOUS
  7
STANDARD
 71
2
 72
1
 10
3.95
 20
-1.00025
 30
0.0
 11
1.0
 21
0.0
 31
0.0
 44
0.9
  1
1/4" BSPP
 40
0.125
 41
1.8
  0
MTEXT
  5
28B
100
AcDbEntity
  8
0
100
AcDbMText
 62
2
  6
CONTINUOUS
  7
STANDARD
 71
2
 72
1
 10
0.65
 20
-1.25025
 30
0.0
 11
1.0
 21
0.0
 31
0.0
 44
0.9
  1
E3V
 40
0.125
 41
0.6
  0
MTEXT
  5
28C
100
AcDbEntity
  8
0
100
AcDbMText
 62
2
  6
CONTINUOUS
  7
STANDARD
 71
2
 72
1
 10
2.3
 20
-1.25025
 30
0.0
 11
1.0
 21
0.0
 31
0.0
 44
0.9
  1
Gage Port
 40
0.125
 41
1.8
  0
MTEXT
  5
28D
100
AcDbEntity
  8
0
100
AcDbMText
 62
2
  6
CONTINUOUS
  7
STANDARD
 71
2
 72
1
 10
3.95
 20
-1.25025
 30
0.0
 11
1.0
 21
0.0
 31
0.0
 44
0.9
  1
1/4" BSPP
 40
0.125
 41
1.8
  0
ENDBLK
  5
28E
100
AcDbEntity
  8
0
  6
BYBLOCK
 62
0
100
AcDbBlockEnd
  0
ENDSEC
  0
SECTION
  2
ENTITIES
  0
IMAGE
  5
28F
100
AcDbEntity
  8
0
100
AcDbRasterImage
 62
7
  6
CONTINUOUS
 10
19.2297077316
 20
0.3094318264
 30
0.0
 11
0.0066666667
 21
0.0
 31
0.0
 12
0.0
 22
0.0066666667
 32
0.0
 13
369.0
 23
92.0
340
       3EF
 70
9
280
0
281
50
282
50
283
0
360
       3E9
 71
1
 91
2
 14
-0.5
 24
-0.5
 14
368.5
 24
91.5
  0
INSERT
  5
290
100
AcDbEntity
  8
0
100
AcDbBlockReference
 62
2
  6
CONTINUOUS
  2
SUN_FIRST_THIRD_ANGLE_BL0
 10
20.4816717061
 20
1.2289683772
  0
ACAD_TABLE
  5
291
100
AcDbEntity
  8
0
 62
2
  6
CONTINUOUS
100
AcDbBlockReference
  2
*T1
 10
12.42375
 20
0.30125
 30
0.0
100
AcDbTable
342
       3F1
343
20F
 11
1.0
 21
0.0
 31
0.0
 90
6
 91
4
 92
6
 93
20
 94
0
 95
0
 96
0
 70
1
 41
0.0
141
0.525
141
0.1
141
0.525
141
0.1
142
4.1
142
1.1
142
0.7
142
0.5
142
0.4
142
2.475
171
1
172
0
173
0
174
0
175
1
176
1
 91
33
178
0
145
0.0
301
CELL_VALUE
 90
4
  1
T-11A Line mount\PThrough port 2 with reverse flow check
304
ACVALUE_END
170
2
140
0.125
171
1
172
0
173
0
174
0
175
1
176
1
 91
33
178
0
145
0.0
301
CELL_VALUE
 90
4
  1
Jun-02-20
304
ACVALUE_END
170
5
140
0.125
171
1
172
0
173
0
174
0
175
1
176
1
 91
33
178
0
145
0.0
301
CELL_VALUE
 90
4
  1
1.000
304
ACVALUE_END
170
5
140
0.125
171
1
172
0
173
0
174
0
175
1
176
1
 91
33
178
0
145
0.0
301
CELL_VALUE
 90
4
  1
C
304
ACVALUE_END
170
5
140
0.125
171
1
172
0
173
0
174
0
175
1
176
1
 91
33
178
0
145
0.0
301
CELL_VALUE
 90
4
  1
2
304
ACVALUE_END
170
5
140
0.125
171
1
172
0
173
0
174
0
175
1
176
1
 91
33
178
0
145
0.0
301
CELL_VALUE
 90
4
  1
 
304
ACVALUE_END
170
1
140
0.125
171
1
172
0
173
0
174
0
175
1
176
1
 91
33
178
0
145
0.0
301
CELL_VALUE
 90
4
  1
DESCRIPTION
304
ACVALUE_END
170
1
140
0.06
171
1
172
0
173
0
174
0
175
1
176
1
 91
33
178
0
145
0.0
301
CELL_VALUE
 90
4
  1
DATE
304
ACVALUE_END
170
1
140
0.06
171
1
172
0
173
0
174
0
175
1
176
1
 91
33
178
0
145
0.0
301
CELL_VALUE
 90
4
  1
SCALE
304
ACVALUE_END
170
1
140
0.06
171
1
172
0
173
0
174
0
175
1
176
1
 91
33
178
0
145
0.0
301
CELL_VALUE
 90
4
  1
DWG SIZE
304
ACVALUE_END
170
1
140
0.06
171
1
172
0
173
0
174
0
175
1
176
1
 91
33
178
0
145
0.0
301
CELL_VALUE
 90
4
  1
SHEET
304
ACVALUE_END
170
1
140
0.06
171
1
172
0
173
0
174
0
175
1
176
1
 91
33
178
0
145
0.0
301
CELL_VALUE
 90
4
  1
 
304
ACVALUE_END
170
1
140
0.125
171
1
172
0
173
0
174
0
175
1
176
1
 91
33
178
0
145
0.0
301
CELL_VALUE
 90
4
  1
E3V
304
ACVALUE_END
170
5
140
0.125
171
1
172
0
173
0
174
0
175
4
176
1
 91
33
178
0
145
0.0
301
CELL_VALUE
 90
4
  1
ALL DIMENSIONS IN INCH\PVIEWS ARE THIRD ANGLE
304
ACVALUE_END
170
5
140
0.12
171
1
172
0
173
1
174
0
175
1
176
1
 91
1
178
0
145
0.0
170
1
171
1
172
0
173
1
174
0
175
1
176
1
 91
1
178
0
145
0.0
170
1
171
1
172
0
173
1
174
0
175
1
176
1
 91
1
178
0
145
0.0
170
5
171
1
172
0
173
0
174
0
175
1
176
1
 91
33
178
0
145
0.0
301
CELL_VALUE
 90
4
  1
 
304
ACVALUE_END
170
1
140
0.125
171
1
172
0
173
0
174
0
175
1
176
1
 91
33
178
0
145
0.0
301
CELL_VALUE
 90
4
  1
MODEL
304
ACVALUE_END
170
1
140
0.06
171
1
172
0
173
0
174
0
175
1
176
1
 91
33
178
0
145
0.0
301
CELL_VALUE
 90
4
  1
 
304
ACVALUE_END
170
1
140
0.125
171
1
172
0
173
0
174
0
175
1
176
1
 91
33
178
0
145
0.0
301
CELL_VALUE
 90
4
  1
 
304
ACVALUE_END
170
1
140
0.125
171
1
172
0
173
0
174
0
175
1
176
1
 91
33
178
0
145
0.0
301
CELL_VALUE
 90
4
  1
 
304
ACVALUE_END
170
1
140
0.125
171
1
172
0
173
0
174
0
175
1
176
1
 91
33
178
0
145
0.0
301
CELL_VALUE
 90
4
  1
 
304
ACVALUE_END
170
1
140
0.125
171
1
172
0
173
0
174
0
175
1
176
1
 91
33
178
0
145
0.0
301
CELL_VALUE
 90
4
  1
 
304
ACVALUE_END
170
1
140
0.125
  0
ACAD_TABLE
  5
292
100
AcDbEntity
  8
0
 62
2
  6
CONTINUOUS
100
AcDbBlockReference
  2
*T2
 10
12.4237499994
 20
16.47875
 30
0.0
100
AcDbTable
342
       3F0
343
210
 11
1.0
 21
0.0
 31
0.0
 90
22
 91
10
 92
3
 93
16
 94
0
 95
0
 96
0
 41
0.028
141
0.344
141
0.25
141
0.25
141
0.25
141
0.25
141
0.25
141
0.25
141
0.25
141
0.25
141
0.25
142
3.055
142
3.0
142
3.0
171
1
172
0
173
0
174
0
175
1
176
1
 91
33
178
0
145
0.0
301
CELL_VALUE
 90
4
  1
Technical Data
304
ACVALUE_END
170
5
140
0.145
171
1
172
0
173
0
174
0
175
1
176
1
 91
33
178
0
145
0.0
301
CELL_VALUE
 90
4
  1
U.S. Units
304
ACVALUE_END
170
5
140
0.145
171
1
172
0
173
0
174
0
175
1
176
1
 91
33
178
0
145
0.0
301
CELL_VALUE
 90
4
  1
Metric Units
304
ACVALUE_END
170
5
140
0.145
171
1
172
0
173
0
174
0
175
1
176
1
 91
33
178
0
145
0.0
301
CELL_VALUE
 90
4
  1
Cavity
304
ACVALUE_END
170
5
140
0.125
171
1
172
0
173
0
174
0
175
2
176
1
 91
33
178
0
145
0.0
301
CELL_VALUE
 90
4
  1
T-11A
304
ACVALUE_END
170
5
140
0.125
171
1
172
0
173
1
174
0
175
1
176
1
 91
1
178
0
145
0.0
170
1
171
1
172
0
173
0
174
0
175
1
176
1
 91
33
178
0
145
0.0
301
CELL_VALUE
 90
4
  1
Body Features
304
ACVALUE_END
170
5
140
0.125
171
1
172
0
173
0
174
0
175
2
176
1
 91
33
178
0
145
0.0
301
CELL_VALUE
 90
4
  1
Through port 2 with reverse flow check
304
ACVALUE_END
170
5
140
0.125
171
1
172
0
173
1
174
0
175
1
176
1
 91
1
178
0
145
0.0
170
1
171
1
172
0
173
0
174
0
175
1
176
1
 91
33
178
0
145
0.0
301
CELL_VALUE
 90
4
  1
Body Type
304
ACVALUE_END
170
5
140
0.125
171
1
172
0
173
0
174
0
175
2
176
1
 91
33
178
0
145
0.0
301
CELL_VALUE
 90
4
  1
Line mount
304
ACVALUE_END
170
5
140
0.125
171
1
172
0
173
1
174
0
175
1
176
1
 91
1
178
0
145
0.0
170
1
171
1
172
0
173
0
174
0
175
1
176
1
 91
33
178
0
145
0.0
301
CELL_VALUE
 90
4
  1
Interface
304
ACVALUE_END
170
5
140
0.125
171
1
172
0
173
0
174
0
175
2
176
1
 91
33
178
0
145
0.0
301
CELL_VALUE
 90
4
  1
None
304
ACVALUE_END
170
5
140
0.125
171
1
172
0
173
1
174
0
175
1
176
1
 91
1
178
0
145
0.0
170
1
171
1
172
0
173
0
174
0
175
1
176
1
 91
33
178
0
145
0.0
301
CELL_VALUE
 90
4
  1
Open Cavity Quantity
304
ACVALUE_END
170
5
140
0.125
171
1
172
0
173
0
174
0
175
2
176
1
 91
33
178
0
145
0.0
301
CELL_VALUE
 90
4
  1
1
304
ACVALUE_END
170
5
140
0.125
171
1
172
0
173
1
174
0
175
1
176
1
 91
1
178
0
145
0.0
170
1
171
1
172
0
173
0
174
0
175
1
176
1
 91
33
178
0
145
0.0
301
CELL_VALUE
 90
4
  1
Weight
304
ACVALUE_END
170
5
140
0.125
171
1
172
0
173
0
174
0
175
1
176
1
 91
33
178
0
145
0.0
301
CELL_VALUE
 90
4
  1
2.207 lb.
304
ACVALUE_END
170
5
140
0.125
171
1
172
0
173
0
174
0
175
1
176
1
 91
33
178
0
145
0.0
301
CELL_VALUE
 90
4
  1
1,001 kg.
304
ACVALUE_END
170
5
140
0.125
171
1
172
0
173
0
174
0
175
1
176
1
 91
33
178
0
145
0.0
301
CELL_VALUE
 90
4
  1
Mounting Hole Thread
304
ACVALUE_END
170
5
140
0.125
171
1
172
0
173
0
174
0
175
2
176
1
 91
33
178
0
145
0.0
301
CELL_VALUE
 90
4
  1
M10x1.5 - 6H
304
ACVALUE_END
170
5
140
0.125
171
1
172
0
173
1
174
0
175
1
176
1
 91
1
178
0
145
0.0
170
1
171
1
172
0
173
0
174
0
175
1
176
1
 91
33
178
0
145
0.0
301
CELL_VALUE
 90
4
  1
Mounting Hole Depth
304
ACVALUE_END
170
5
140
0.125
171
1
172
0
173
0
174
0
175
1
176
1
 91
33
178
0
145
0.0
301
CELL_VALUE
 90
4
  1
.62 in.
304
ACVALUE_END
170
5
140
0.125
171
1
172
0
173
0
174
0
175
1
176
1
 91
33
178
0
145
0.0
301
CELL_VALUE
 90
4
  1
15,7 mm
304
ACVALUE_END
170
5
140
0.125
171
1
172
0
173
0
174
0
175
1
176
1
 91
33
178
0
145
0.0
301
CELL_VALUE
 90
4
  1
Mounting Hole Quantity
304
ACVALUE_END
170
5
140
0.125
171
1
172
0
173
0
174
0
175
2
176
1
 91
33
178
0
145
0.0
301
CELL_VALUE
 90
4
  1
2
304
ACVALUE_END
170
5
140
0.125
171
1
172
0
173
1
174
0
175
1
176
1
 91
1
178
0
145
0.0
170
1
  0
ACAD_TABLE
  5
293
100
AcDbEntity
  8
0
 62
2
  6
CONTINUOUS
100
AcDbBlockReference
  2
*T3
 10
0.52125
 20
1.959
 30
0.0
100
AcDbTable
342
       3F0
343
211
 11
1.0
 21
0.0
 31
0.0
 90
22
 91
5
 92
3
 93
16
 94
0
 95
0
 96
0
 41
0.05
141
0.34375
141
0.344
141
0.25
141
0.25
141
0.25
142
1.3
142
2.0
142
1.3
171
1
172
0
173
0
174
0
175
3
176
1
 91
33
178
0
145
0.0
301
CELL_VALUE
 90
4
  1
Port Headings
304
ACVALUE_END
170
5
140
0.145
171
1
172
0
173
1
174
0
175
1
176
1
 91
1
178
0
145
0.0
170
1
171
1
172
0
173
1
174
0
175
1
176
1
 91
1
178
0
145
0.0
170
1
171
1
172
0
173
0
174
0
175
1
176
1
 91
33
178
0
145
0.0
301
CELL_VALUE
 90
4
  1
Product
304
ACVALUE_END
170
5
140
0.145
171
1
172
0
173
0
174
0
175
1
176
1
 91
33
178
0
145
0.0
301
CELL_VALUE
 90
4
  1
Port
304
ACVALUE_END
170
5
140
0.145
171
1
172
0
173
0
174
0
175
1
176
1
 91
33
178
0
145
0.0
301
CELL_VALUE
 90
4
  1
Size
304
ACVALUE_END
170
5
140
0.145
171
1
172
0
173
0
174
0
175
1
176
1
 91
33
178
0
145
0.0
301
CELL_VALUE
 90
4
  1
E3V
304
ACVALUE_END
170
5
140
0.125
171
1
172
0
173
0
174
0
175
1
176
1
 91
33
178
0
145
0.0
301
CELL_VALUE
 90
4
  1
Ports 1 &  2
304
ACVALUE_END
170
5
140
0.125
171
1
172
0
173
0
174
0
175
1
176
1
 91
33
178
0
145
0.0
301
CELL_VALUE
 90
4
  1
1/2" BSPP
304
ACVALUE_END
170
5
140
0.125
171
1
172
0
173
0
174
0
175
1
176
1
 91
33
178
0
145
0.0
301
CELL_VALUE
 90
4
  1
E3V
304
ACVALUE_END
170
5
140
0.125
171
1
172
0
173
0
174
0
175
1
176
1
 91
33
178
0
145
0.0
301
CELL_VALUE
 90
4
  1
Port 3
304
ACVALUE_END
170
5
140
0.125
171
1
172
0
173
0
174
0
175
1
176
1
 91
33
178
0
145
0.0
301
CELL_VALUE
 90
4
  1
1/4" BSPP
304
ACVALUE_END
170
5
140
0.125
171
1
172
0
173
0
174
0
175
1
176
1
 91
33
178
0
145
0.0
301
CELL_VALUE
 90
4
  1
E3V
304
ACVALUE_END
170
5
140
0.125
171
1
172
0
173
0
174
0
175
1
176
1
 91
33
178
0
145
0.0
301
CELL_VALUE
 90
4
  1
Gage Port
304
ACVALUE_END
170
5
140
0.125
171
1
172
0
173
0
174
0
175
1
176
1
 91
33
178
0
145
0.0
301
CELL_VALUE
 90
4
  1
1/4" BSPP
304
ACVALUE_END
170
5
140
0.125
  0
MTEXT
  5
294
100
AcDbEntity
  8
0
100
AcDbMText
 62
2
  6
CONTINUOUS
  7
STANDARD
 71
1
 72
1
 10
0.52125
 20
5.75995
 30
0.0
 11
1.0
 21
0.0
 31
0.0
 44
0.6
  3
Notes\P \P1. Important: Carefully consider\P   the maximum system pressure. The\P   pressure rating of the manifold is\P   dependent on the manifold material,\P   with the port type/size a secondary\P   consideration. Manifolds\P   constructed of alu
  1
minum are not\P   rated for pressures higher than\P   3000 psi (210 bar), regardless of\P   the port type/size specified.
 40
0.1
 41
3.04
  0
LINE
  5
295
100
AcDbEntity
  8
0
100
AcDbLine
 62
7
  6
CONTINUOUS
 10
0.30125
 20
0.30125
 11
0.30125
 21
16.69875
  0
LINE
  5
296
100
AcDbEntity
  8
0
100
AcDbLine
 62
7
  6
CONTINUOUS
 10
0.30125
 20
0.30125
 11
21.69875
 21
0.30125
  0
LINE
  5
297
100
AcDbEntity
  8
0
100
AcDbLine
 62
7
  6
CONTINUOUS
 10
0.30125
 20
16.69875
 11
21.69875
 21
16.69875
  0
LINE
  5
298
100
AcDbEntity
  8
0
100
AcDbLine
 62
7
  6
CONTINUOUS
 10
21.69875
 20
0.30125
 11
21.69875
 21
16.69875
  0
LINE
  5
299
100
AcDbEntity
  8
0
100
AcDbLine
 62
7
  6
CONTINUOUS
 10
9.4067730324
 20
6.3459052392
 11
11.881475181
 21
6.1742840623
  0
LINE
  5
29A
100
AcDbEntity
  8
0
100
AcDbLine
 62
7
  6
CONTINUOUS
 10
10.118524819
 20
10.4141453049
 11
9.4067730324
 21
9.7266458315
  0
LINE
  5
29B
100
AcDbEntity
  8
0
100
AcDbLine
 62
7
  6
CONTINUOUS
 10
11.2410813953
 20
10.753647287
 11
11.2662470077
 21
10.7660786177
  0
LINE
  5
29C
100
AcDbEntity
  8
0
100
AcDbLine
 62
4
  6
CONTINUOUS
 10
11.2396174436
 20
6.675679988
 11
11.2251285556
 21
6.6766847958
  0
LINE
  5
29D
100
AcDbEntity
  8
0
100
AcDbLine
 62
4
  6
CONTINUOUS
 10
11.2396174436
 20
6.7239762834
 11
11.2251285556
 21
6.7249810912
  0
LINE
  5
29E
100
AcDbEntity
  8
0
100
AcDbLine
 62
4
  6
CONTINUOUS
 10
11.2251285556
 20
6.7925958992
 11
11.2396174436
 21
6.7915910914
  0
LINE
  5
29F
100
AcDbEntity
  8
0
100
AcDbLine
 62
4
  6
CONTINUOUS
 10
9.5376559845
 20
7.6794654538
 11
9.5304115406
 21
7.6896271209
  0
LINE
  5
2A0
100
AcDbEntity
  8
0
100
AcDbLine
 62
7
  6
CONTINUOUS
 10
9.4067730324
 20
9.7266458315
 11
9.4067730324
 21
6.3459052392
  0
LINE
  5
2A1
100
AcDbEntity
  8
0
100
AcDbLine
 62
4
  6
CONTINUOUS
 10
9.5159226526
 20
8.9366763153
 11
9.5159226526
 21
8.9753133492
  0
LINE
  5
2A2
100
AcDbEntity
  8
0
100
AcDbLine
 62
4
  6
CONTINUOUS
 10
9.5521448724
 20
7.6688013897
 11
9.5376559845
 21
7.6794654538
  0
LINE
  5
2A3
100
AcDbEntity
  8
0
100
AcDbLine
 62
4
  6
CONTINUOUS
 10
9.5304115406
 20
7.6896271209
 11
9.5304115406
 21
7.7089456336
  0
LINE
  5
2A4
100
AcDbEntity
  8
0
100
AcDbLine
 62
4
  6
CONTINUOUS
 10
9.5883670923
 20
8.9316522763
 11
9.5811226483
 21
8.9031769044
  0
LINE
  5
2A5
100
AcDbEntity
  8
0
100
AcDbLine
 62
4
  6
CONTINUOUS
 10
9.5159226526
 20
8.9753133492
 11
9.5231670966
 21
8.9844702042
  0
LINE
  5
2A6
100
AcDbEntity
  8
0
100
AcDbLine
 62
4
  6
CONTINUOUS
 10
9.5811226483
 20
8.9031769044
 11
9.5666337604
 21
8.8848631926
  0
LINE
  5
2A7
100
AcDbEntity
  8
0
100
AcDbLine
 62
4
  6
CONTINUOUS
 10
11.2251285556
 20
6.6766847958
 11
11.2106396677
 21
6.6873488599
  0
LINE
  5
2A8
100
AcDbEntity
  8
0
100
AcDbLine
 62
4
  6
CONTINUOUS
 10
11.2251285556
 20
6.7249810912
 11
11.2106396677
 21
6.7356451553
  0
LINE
  5
2A9
100
AcDbEntity
  8
0
100
AcDbLine
 62
4
  6
CONTINUOUS
 10
10.1008597947
 20
7.5589933541
 11
10.1091391276
 21
7.5528996044
  0
LINE
  5
2AA
100
AcDbEntity
  8
0
100
AcDbLine
 62
4
  6
CONTINUOUS
 10
10.1091391276
 20
7.5087429928
 11
10.1008597947
 21
7.5175965339
  0
LINE
  5
2AB
100
AcDbEntity
  8
0
100
AcDbLine
 62
4
  6
CONTINUOUS
 10
9.5811226483
 20
7.7537251017
 11
9.5883670923
 21
7.7822004737
  0
LINE
  5
2AC
100
AcDbEntity
  8
0
100
AcDbLine
 62
4
  6
CONTINUOUS
 10
10.9057170001
 20
10.1425146622
 11
10.9134815648
 21
10.1500146563
  0
LINE
  5
2AD
100
AcDbEntity
  8
0
100
AcDbLine
 62
4
  6
CONTINUOUS
 10
10.934834118
 20
10.1706396401
 11
10.9387164004
 21
10.1743896371
  0
LINE
  5
2AE
100
AcDbEntity
  8
0
100
AcDbLine
 62
4
  6
CONTINUOUS
 10
10.9969506361
 20
10.2306395928
 11
11.0008329185
 21
10.2343895898
  0
LINE
  5
2AF
100
AcDbEntity
  8
0
100
AcDbLine
 62
4
  6
CONTINUOUS
 10
11.116744022
 20
10.2263511275
 11
11.1128617396
 21
10.2226011304
  0
LINE
  5
2B0
100
AcDbEntity
  8
0
100
AcDbLine
 62
4
  6
CONTINUOUS
 10
11.0546275038
 20
10.1663511748
 11
11.0507452214
 21
10.1626011777
  0
LINE
  5
2B1
100
AcDbEntity
  8
0
100
AcDbLine
 62
4
  6
CONTINUOUS
 10
11.0293926683
 20
10.141976194
 11
11.0216281035
 21
10.1344761999
  0
LINE
  5
2B2
100
AcDbEntity
  8
0
100
AcDbLine
 62
4
  6
CONTINUOUS
 10
9.5231670966
 20
8.9844702042
 11
9.5376559845
 21
8.9931246553
  0
LINE
  5
2B3
100
AcDbEntity
  8
0
100
AcDbLine
 62
4
  6
CONTINUOUS
 10
10.1091391276
 20
7.5528996044
 11
10.14225657
 21
7.545083326
  0
LINE
  5
2B4
100
AcDbEntity
  8
0
100
AcDbLine
 62
4
  6
CONTINUOUS
 10
10.14225657
 20
7.545083326
 11
10.1505359029
 21
7.5389895763
  0
LINE
  5
2B5
100
AcDbEntity
  8
0
100
AcDbLine
 62
4
  6
CONTINUOUS
 10
11.2396174436
 20
6.7915910914
 11
11.2541063315
 21
6.7809270247
  0
LINE
  5
2B6
100
AcDbEntity
  8
0
100
AcDbLine
 62
4
  6
CONTINUOUS
 10
10.1505359029
 20
7.580386399
 11
10.14225657
 21
7.5892399376
  0
LINE
  5
2B7
100
AcDbEntity
  8
0
100
AcDbLine
 62
4
  6
CONTINUOUS
 10
10.2167708981
 20
7.5840723514
 11
10.2250502311
 21
7.5752188128
  0
LINE
  5
2B8
100
AcDbEntity
  8
0
100
AcDbLine
 62
4
  6
CONTINUOUS
 10
10.3354417239
 20
7.5758425017
 11
10.3437211122
 21
7.5669889593
  0
LINE
  5
2B9
100
AcDbEntity
  8
0
100
AcDbLine
 62
4
  6
CONTINUOUS
 10
9.5811226483
 20
8.9611324561
 11
9.5883670923
 21
8.9316522763
  0
LINE
  5
2BA
100
AcDbEntity
  8
0
100
AcDbLine
 62
4
  6
CONTINUOUS
 10
9.5666337604
 20
8.8848631926
 11
9.5521448724
 21
8.8762087441
  0
LINE
  5
2BB
100
AcDbEntity
  8
0
100
AcDbLine
 62
4
  6
CONTINUOUS
 10
11.1688977711
 20
7.4021310251
 11
11.1357803132
 21
7.4044277286
  0
LINE
  5
2BC
100
AcDbEntity
  8
0
100
AcDbLine
 62
4
  6
CONTINUOUS
 10
10.2692068393
 20
7.4645248031
 11
10.2664470616
 21
7.4647161943
  0
LINE
  5
2BD
100
AcDbEntity
  8
0
100
AcDbLine
 62
4
  6
CONTINUOUS
 10
10.8211644694
 20
7.4593638676
 11
10.7797676389
 21
7.4622347475
  0
LINE
  5
2BE
100
AcDbEntity
  8
0
100
AcDbLine
 62
4
  6
CONTINUOUS
 10
10.6500575919
 20
7.4712301699
 11
10.6169401496
 21
7.4735268723
  0
LINE
  5
2BF
100
AcDbEntity
  8
0
100
AcDbLine
 62
4
  6
CONTINUOUS
 10
10.583822652
 20
7.4758235785
 11
10.5507052096
 21
7.478120281
  0
LINE
  5
2C0
100
AcDbEntity
  8
0
100
AcDbLine
 62
4
  6
CONTINUOUS
 10
10.2167708981
 20
7.5012787041
 11
10.1836533453
 21
7.5035754142
  0
LINE
  5
2C1
100
AcDbEntity
  8
0
100
AcDbLine
 62
4
  6
CONTINUOUS
 10
10.14225657
 20
7.5064462903
 11
10.1091391276
 21
7.5087429928
  0
LINE
  5
2C2
100
AcDbEntity
  8
0
100
AcDbLine
 62
4
  6
CONTINUOUS
 10
10.4679115485
 20
7.4838620409
 11
10.5093083791
 21
7.4809911609
  0
LINE
  5
2C3
100
AcDbEntity
  8
0
100
AcDbLine
 62
4
  6
CONTINUOUS
 10
10.4927496579
 20
7.5235363358
 11
10.4596322156
 21
7.5258330382
  0
LINE
  5
2C4
100
AcDbEntity
  8
0
100
AcDbLine
 62
4
  6
CONTINUOUS
 10
11.177177136
 20
7.5174679526
 11
11.1440596772
 21
7.5197646562
  0
LINE
  5
2C5
100
AcDbEntity
  8
0
100
AcDbLine
 62
4
  6
CONTINUOUS
 10
11.0778247649
 20
7.5243580629
 11
11.0529866624
 21
7.5260805912
  0
LINE
  5
2C6
100
AcDbEntity
  8
0
100
AcDbLine
 62
4
  6
CONTINUOUS
 10
10.418235385
 20
7.5701007418
 11
10.3768385545
 21
7.5729716217
  0
LINE
  5
2C7
100
AcDbEntity
  8
0
100
AcDbLine
 62
4
  6
CONTINUOUS
 10
10.14225657
 20
7.5892399376
 11
10.1091391276
 21
7.59153664
  0
LINE
  5
2C8
100
AcDbEntity
  8
0
100
AcDbLine
 62
4
  6
CONTINUOUS
 10
10.1836533453
 20
7.5863690615
 11
10.2167708981
 21
7.5840723514
  0
LINE
  5
2C9
100
AcDbEntity
  8
0
100
AcDbLine
 62
4
  6
CONTINUOUS
 10
10.3188830028
 20
7.5769908529
 11
10.3354417239
 21
7.5758425017
  0
LINE
  5
2CA
100
AcDbEntity
  8
0
100
AcDbLine
 62
4
  6
CONTINUOUS
 10
10.4596322156
 20
7.5672298618
 11
10.4927496579
 21
7.5649331594
  0
LINE
  5
2CB
100
AcDbEntity
  8
0
100
AcDbLine
 62
4
  6
CONTINUOUS
 10
10.6169401496
 20
7.5563205196
 11
10.6500575919
 21
7.5540238171
  0
LINE
  5
2CC
100
AcDbEntity
  8
0
100
AcDbLine
 62
4
  6
CONTINUOUS
 10
10.7383708083
 20
7.5754971566
 11
10.7218120871
 21
7.5766455078
  0
LINE
  5
2CD
100
AcDbEntity
  8
0
100
AcDbLine
 62
4
  6
CONTINUOUS
 10
11.7322396619
 20
7.5176113025
 11
11.717750774
 21
7.5186161103
  0
LINE
  5
2CE
100
AcDbEntity
  8
0
100
AcDbLine
 62
4
  6
CONTINUOUS
 10
9.5666337604
 20
7.6677965819
 11
9.5521448724
 21
7.6688013897
  0
LINE
  5
2CF
100
AcDbEntity
  8
0
100
AcDbLine
 62
4
  6
CONTINUOUS
 10
10.4927496579
 20
7.5649331594
 11
10.5093083791
 21
7.5555054433
  0
LINE
  5
2D0
100
AcDbEntity
  8
0
100
AcDbLine
 62
4
  6
CONTINUOUS
 10
10.6500575919
 20
7.5540238171
 11
10.6666163131
 21
7.544596101
  0
LINE
  5
2D1
100
AcDbEntity
  8
0
100
AcDbLine
 62
4
  6
CONTINUOUS
 10
10.4265147733
 20
7.5612471994
 11
10.418235385
 21
7.5701007418
  0
LINE
  5
2D2
100
AcDbEntity
  8
0
100
AcDbLine
 62
4
  6
CONTINUOUS
 10
9.5231670966
 20
8.887877616
 11
9.5159226526
 21
8.8980392831
  0
LINE
  5
2D3
100
AcDbEntity
  8
0
100
AcDbLine
 62
4
  6
CONTINUOUS
 10
10.5507052096
 20
7.478120281
 11
10.5451856543
 21
7.4867824309
  0
LINE
  5
2D4
100
AcDbEntity
  8
0
100
AcDbLine
 62
4
  6
CONTINUOUS
 10
10.4596322156
 20
7.5009949426
 11
10.4679115485
 21
7.4838620409
  0
LINE
  5
2D5
100
AcDbEntity
  8
0
100
AcDbLine
 62
4
  6
CONTINUOUS
 10
10.1008597947
 20
7.5838314488
 11
10.1008597947
 21
7.5589933541
  0
LINE
  5
2D6
100
AcDbEntity
  8
0
100
AcDbLine
 62
4
  6
CONTINUOUS
 10
10.1505359029
 20
7.5389895763
 11
10.1505359029
 21
7.5141514841
  0
LINE
  5
2D7
100
AcDbEntity
  8
0
100
AcDbLine
 62
4
  6
CONTINUOUS
 10
10.2250502311
 20
7.5752188128
 11
10.2250502311
 21
7.5089838979
  0
LINE
  5
2D8
100
AcDbEntity
  8
0
100
AcDbLine
 62
4
  6
CONTINUOUS
 10
10.2692068393
 20
7.5804359065
 11
10.2692068393
 21
7.4976422593
  0
LINE
  5
2D9
100
AcDbEntity
  8
0
100
AcDbLine
 62
4
  6
CONTINUOUS
 10
10.2692068393
 20
7.4728041706
 11
10.2692068393
 21
7.4645248031
  0
LINE
  5
2DA
100
AcDbEntity
  8
0
100
AcDbLine
 62
4
  6
CONTINUOUS
 10
11.7539729938
 20
7.6320151943
 11
11.6960174421
 21
7.6360344255
  0
LINE
  5
2DB
100
AcDbEntity
  8
0
100
AcDbLine
 62
4
  6
CONTINUOUS
 10
9.5883670923
 20
7.7822004737
 11
9.5304115406
 21
7.7862197048
  0
LINE
  5
2DC
100
AcDbEntity
  8
0
100
AcDbLine
 62
4
  6
CONTINUOUS
 10
10.7590692463
 20
7.7666949298
 11
10.7093930586
 21
7.7701399851
  0
LINE
  5
2DD
100
AcDbEntity
  8
0
100
AcDbLine
 62
4
  6
CONTINUOUS
 10
10.6431581429
 20
7.7747333921
 11
10.676275599
 21
7.7724366887
  0
LINE
  5
2DE
100
AcDbEntity
  8
0
100
AcDbLine
 62
4
  6
CONTINUOUS
 10
10.2057317125
 20
8.1042300538
 11
10.1615751043
 21
8.1293706325
  0
LINE
  5
2DF
100
AcDbEntity
  8
0
100
AcDbLine
 62
4
  6
CONTINUOUS
 10
10.7797676389
 20
7.4622347475
 11
10.7714882783
 21
7.4710882906
  0
LINE
  5
2E0
100
AcDbEntity
  8
0
100
AcDbLine
 62
4
  6
CONTINUOUS
 10
10.3520004806
 20
8.0499296721
 11
10.3354417594
 21
8.0676367514
  0
LINE
  5
2E1
100
AcDbEntity
  8
0
100
AcDbLine
 62
4
  6
CONTINUOUS
 10
10.6293591993
 20
7.7922490801
 11
10.6431581429
 21
7.7747333921
  0
LINE
  5
2E2
100
AcDbEntity
  8
0
100
AcDbLine
 62
4
  6
CONTINUOUS
 10
9.5666337604
 20
8.9814557808
 11
9.5811226483
 21
8.9611324561
  0
LINE
  5
2E3
100
AcDbEntity
  8
0
100
AcDbLine
 62
4
  6
CONTINUOUS
 10
11.2106396677
 20
6.6873488599
 11
11.2033952237
 21
6.697510527
  0
LINE
  5
2E4
100
AcDbEntity
  8
0
100
AcDbLine
 62
4
  6
CONTINUOUS
 10
11.2106396677
 20
6.7356451553
 11
11.1961507798
 21
6.7559684792
  0
LINE
  5
2E5
100
AcDbEntity
  8
0
100
AcDbLine
 62
4
  6
CONTINUOUS
 10
11.2541063315
 20
6.7809270247
 11
11.2613507755
 21
6.7707653619
  0
LINE
  5
2E6
100
AcDbEntity
  8
0
100
AcDbLine
 62
4
  6
CONTINUOUS
 10
10.2885253183
 20
8.170242793
 11
10.2885253183
 21
8.0543316895
  0
LINE
  5
2E7
100
AcDbEntity
  8
0
100
AcDbLine
 62
4
  6
CONTINUOUS
 10
10.3354417594
 20
8.0676367514
 11
10.3354417594
 21
8.1504303969
  0
LINE
  5
2E8
100
AcDbEntity
  8
0
100
AcDbLine
 62
4
  6
CONTINUOUS
 10
10.3437211122
 20
7.5669889593
 11
10.3437211122
 21
7.4593572207
  0
LINE
  5
2E9
100
AcDbEntity
  8
0
100
AcDbLine
 62
4
  6
CONTINUOUS
 10
10.3768385545
 20
7.5729716217
 11
10.3768385545
 21
7.4901779745
  0
LINE
  5
2EA
100
AcDbEntity
  8
0
100
AcDbLine
 62
4
  6
CONTINUOUS
 10
10.3933973111
 20
8.1629698956
 11
10.3933973111
 21
8.0470587921
  0
LINE
  5
2EB
100
AcDbEntity
  8
0
100
AcDbLine
 62
4
  6
CONTINUOUS
 10
10.4265147733
 20
7.486732917
 11
10.4265147733
 21
7.5612471994
  0
LINE
  5
2EC
100
AcDbEntity
  8
0
100
AcDbLine
 62
4
  6
CONTINUOUS
 10
10.4265147535
 20
8.0613208178
 11
10.4265147535
 21
8.1441144633
  0
LINE
  5
2ED
100
AcDbEntity
  8
0
100
AcDbLine
 62
4
  6
CONTINUOUS
 10
10.4596322156
 20
7.5672298618
 11
10.4596322156
 21
7.5009949426
  0
LINE
  5
2EE
100
AcDbEntity
  8
0
100
AcDbLine
 62
4
  6
CONTINUOUS
 10
9.5304115406
 20
7.7089456336
 11
9.5376559845
 21
7.7181024929
  0
LINE
  5
2EF
100
AcDbEntity
  8
0
100
AcDbLine
 62
4
  6
CONTINUOUS
 10
9.5666337604
 20
7.7354113934
 11
9.5811226483
 21
7.7537251017
  0
LINE
  5
2F0
100
AcDbEntity
  8
0
100
AcDbLine
 62
4
  6
CONTINUOUS
 10
9.5883670923
 20
7.6856078898
 11
9.5811226483
 21
7.6764510304
  0
LINE
  5
2F1
100
AcDbEntity
  8
0
100
AcDbLine
 62
4
  6
CONTINUOUS
 10
10.6431581429
 20
7.8244095763
 11
10.6597168709
 21
7.8232612246
  0
LINE
  5
2F2
100
AcDbEntity
  8
0
100
AcDbLine
 62
4
  6
CONTINUOUS
 10
10.7259517867
 20
7.8186678176
 11
10.7590692463
 21
7.816371114
  0
LINE
  5
2F3
100
AcDbEntity
  8
0
100
AcDbLine
 62
4
  6
CONTINUOUS
 10
10.7590692463
 20
7.8826060332
 11
10.7093930586
 21
7.8860510885
  0
LINE
  5
2F4
100
AcDbEntity
  8
0
100
AcDbLine
 62
4
  6
CONTINUOUS
 10
10.676275599
 20
7.8883477921
 11
10.6348787823
 21
7.8912186711
  0
LINE
  5
2F5
100
AcDbEntity
  8
0
100
AcDbLine
 62
4
  6
CONTINUOUS
 10
9.5376559845
 20
8.8772135519
 11
9.5231670966
 21
8.887877616
  0
LINE
  5
2F6
100
AcDbEntity
  8
0
100
AcDbLine
 62
4
  6
CONTINUOUS
 10
11.1275009491
 20
7.4877955483
 11
11.1854565009
 21
7.4341001294
  0
LINE
  5
2F7
100
AcDbEntity
  8
0
100
AcDbLine
 62
4
  6
CONTINUOUS
 10
10.6265994079
 20
7.84211666
 11
10.6431581429
 21
7.8244095763
  0
LINE
  5
2F8
100
AcDbEntity
  8
0
100
AcDbLine
 62
4
  6
CONTINUOUS
 10
10.4430734746
 20
8.0436137385
 11
10.4265147535
 21
8.0613208178
  0
LINE
  5
2F9
100
AcDbEntity
  8
0
100
AcDbLine
 62
4
  6
CONTINUOUS
 10
11.1357803132
 20
7.4044277286
 11
11.1275009491
 21
7.4132812719
  0
LINE
  5
2FA
100
AcDbEntity
  8
0
100
AcDbLine
 62
4
  6
CONTINUOUS
 10
10.467911584
 20
8.1578023132
 11
10.4844703052
 21
8.1400952322
  0
LINE
  5
2FB
100
AcDbEntity
  8
0
100
AcDbLine
 62
4
  6
CONTINUOUS
 10
11.094383493
 20
7.5066509814
 11
11.0778247649
 21
7.5243580629
  0
LINE
  5
2FC
100
AcDbEntity
  8
0
100
AcDbLine
 62
4
  6
CONTINUOUS
 10
10.5645041334
 20
8.1511035971
 11
10.5810628545
 21
8.1333965161
  0
LINE
  5
2FD
100
AcDbEntity
  8
0
100
AcDbLine
 62
4
  6
CONTINUOUS
 10
11.1854565009
 20
7.5086144118
 11
11.177177136
 21
7.5174679526
  0
LINE
  5
2FE
100
AcDbEntity
  8
0
100
AcDbLine
 62
4
  6
CONTINUOUS
 10
10.7383708083
 20
7.4651056275
 11
10.7135326989
 21
7.5496218035
  0
LINE
  5
2FF
100
AcDbEntity
  8
0
100
AcDbLine
 62
4
  6
CONTINUOUS
 10
10.5934819517
 20
7.7781784476
 11
10.5603644956
 21
7.8963862545
  0
LINE
  5
300
100
AcDbEntity
  8
0
100
AcDbLine
 62
4
  6
CONTINUOUS
 10
10.4844703052
 20
8.1400952322
 11
10.4844703052
 21
8.0573015866
  0
LINE
  5
301
100
AcDbEntity
  8
0
100
AcDbLine
 62
4
  6
CONTINUOUS
 10
10.5093083791
 20
7.5555054433
 11
10.5093083791
 21
7.5306673486
  0
LINE
  5
302
100
AcDbEntity
  8
0
100
AcDbLine
 62
4
  6
CONTINUOUS
 10
10.5451856543
 20
7.4867824309
 11
10.5451856543
 21
7.503341159
  0
LINE
  5
303
100
AcDbEntity
  8
0
100
AcDbLine
 62
4
  6
CONTINUOUS
 10
10.5810628545
 20
8.1333965161
 11
10.5810628545
 21
8.0506028706
  0
LINE
  5
304
100
AcDbEntity
  8
0
100
AcDbLine
 62
4
  6
CONTINUOUS
 10
10.583822652
 20
7.5586172258
 11
10.583822652
 21
7.4758235785
  0
LINE
  5
305
100
AcDbEntity
  8
0
100
AcDbLine
 62
4
  6
CONTINUOUS
 10
10.6169401496
 20
7.4404094161
 11
10.6169401496
 21
7.5563205196
  0
LINE
  5
306
100
AcDbEntity
  8
0
100
AcDbLine
 62
4
  6
CONTINUOUS
 10
10.6265994079
 20
7.8835134828
 11
10.6265994079
 21
7.84211666
  0
LINE
  5
307
100
AcDbEntity
  8
0
100
AcDbLine
 62
4
  6
CONTINUOUS
 10
10.6293591993
 20
7.8170871757
 11
10.6293591993
 21
7.7922490801
  0
LINE
  5
308
100
AcDbEntity
  8
0
100
AcDbLine
 62
4
  6
CONTINUOUS
 10
10.2664470616
 20
7.4647161943
 11
10.2692068393
 21
7.4728041706
  0
LINE
  5
309
100
AcDbEntity
  8
0
100
AcDbLine
 62
7
  6
CONTINUOUS
 10
12.118252132
 20
10.2270133498
 11
12.1194711025
 21
10.2281688842
  0
LINE
  5
30A
100
AcDbEntity
  8
0
100
AcDbLine
 62
7
  6
CONTINUOUS
 10
12.059001
 20
10.1718739513
 11
12.1182521362
 21
10.2270133537
  0
LINE
  5
30B
100
AcDbEntity
  8
0
100
AcDbLine
 62
4
  6
CONTINUOUS
 10
11.0585062325
 20
8.0009333318
 11
11.0171094158
 21
8.0038042108
  0
LINE
  5
30C
100
AcDbEntity
  8
0
100
AcDbLine
 62
4
  6
CONTINUOUS
 10
10.8542819196
 20
8.015096336
 11
10.7880470073
 21
8.0196897428
  0
LINE
  5
30D
100
AcDbEntity
  8
0
100
AcDbLine
 62
4
  6
CONTINUOUS
 10
10.7549295373
 20
8.0219864471
 11
10.7052533462
 21
8.0254315027
  0
LINE
  5
30E
100
AcDbEntity
  8
0
100
AcDbLine
 62
4
  6
CONTINUOUS
 10
10.5645041334
 20
8.0351924937
 11
10.531386691
 21
8.0374891961
  0
LINE
  5
30F
100
AcDbEntity
  8
0
100
AcDbLine
 62
4
  6
CONTINUOUS
 10
10.467911584
 20
8.0418912098
 11
10.4430734746
 21
8.0436137385
  0
LINE
  5
310
100
AcDbEntity
  8
0
100
AcDbLine
 62
4
  6
CONTINUOUS
 10
10.3933973111
 20
8.0470587921
 11
10.3520004806
 21
8.0499296721
  0
LINE
  5
311
100
AcDbEntity
  8
0
100
AcDbLine
 62
4
  6
CONTINUOUS
 10
10.2885253183
 20
8.0543316895
 11
10.2388491548
 21
8.0577767432
  0
LINE
  5
312
100
AcDbEntity
  8
0
100
AcDbLine
 62
4
  6
CONTINUOUS
 10
10.255407876
 20
8.1063045762
 11
10.2885253183
 21
8.1040078738
  0
LINE
  5
313
100
AcDbEntity
  8
0
100
AcDbLine
 62
4
  6
CONTINUOUS
 10
10.7218120674
 20
8.0739593357
 11
10.7549295373
 21
8.0716626313
  0
LINE
  5
314
100
AcDbEntity
  8
0
100
AcDbLine
 62
4
  6
CONTINUOUS
 10
10.942595136
 20
8.0917654375
 11
10.8984385278
 21
8.0948277086
  0
LINE
  5
315
100
AcDbEntity
  8
0
100
AcDbLine
 62
4
  6
CONTINUOUS
 10
10.7549295373
 20
8.1378975505
 11
10.7052533462
 21
8.1413426061
  0
LINE
  5
316
100
AcDbEntity
  8
0
100
AcDbLine
 62
4
  6
CONTINUOUS
 10
10.2885253183
 20
8.170242793
 11
10.2388491548
 21
8.1736878466
  0
LINE
  5
317
100
AcDbEntity
  8
0
100
AcDbLine
 62
4
  6
CONTINUOUS
 10
10.3520004806
 20
8.1658407755
 11
10.3933973111
 21
8.1629698956
  0
LINE
  5
318
100
AcDbEntity
  8
0
100
AcDbLine
 62
4
  6
CONTINUOUS
 10
10.4430734746
 20
8.1595248419
 11
10.467911584
 21
8.1578023132
  0
LINE
  5
319
100
AcDbEntity
  8
0
100
AcDbLine
 62
4
  6
CONTINUOUS
 10
10.531386691
 20
8.1534002996
 11
10.5645041334
 21
8.1511035971
  0
LINE
  5
31A
100
AcDbEntity
  8
0
100
AcDbLine
 62
4
  6
CONTINUOUS
 10
11.0171094158
 20
8.1197153142
 11
11.0585062325
 21
8.1168444352
  0
LINE
  5
31B
100
AcDbEntity
  8
0
100
AcDbLine
 62
4
  6
CONTINUOUS
 10
9.5521448724
 20
8.9921198475
 11
9.5666337604
 21
8.9814557808
  0
LINE
  5
31C
100
AcDbEntity
  8
0
100
AcDbLine
 62
4
  6
CONTINUOUS
 10
11.717750774
 20
7.5186161103
 11
11.7032618861
 21
7.5292801744
  0
LINE
  5
31D
100
AcDbEntity
  8
0
100
AcDbLine
 62
4
  6
CONTINUOUS
 10
11.0033104851
 20
7.4136145424
 11
10.9453549334
 21
7.533544877
  0
LINE
  5
31E
100
AcDbEntity
  8
0
100
AcDbLine
 62
4
  6
CONTINUOUS
 10
10.6666163131
 20
7.544596101
 11
10.6666163131
 21
7.4783611861
  0
LINE
  5
31F
100
AcDbEntity
  8
0
100
AcDbLine
 62
4
  6
CONTINUOUS
 10
10.7549295373
 20
8.1378975505
 11
10.7549295373
 21
8.0219864471
  0
LINE
  5
320
100
AcDbEntity
  8
0
100
AcDbLine
 62
4
  6
CONTINUOUS
 10
10.7590692463
 20
7.8826060332
 11
10.7590692463
 21
7.7666949298
  0
LINE
  5
321
100
AcDbEntity
  8
0
100
AcDbLine
 62
4
  6
CONTINUOUS
 10
10.7714882783
 20
7.4710882906
 11
10.7714882783
 21
7.5456025704
  0
LINE
  5
322
100
AcDbEntity
  8
0
100
AcDbLine
 62
4
  6
CONTINUOUS
 10
10.8211644496
 20
8.1333041438
 11
10.8211644496
 21
8.0173930403
  0
LINE
  5
323
100
AcDbEntity
  8
0
100
AcDbLine
 62
4
  6
CONTINUOUS
 10
10.8211644694
 20
7.5421575149
 11
10.8211644694
 21
7.4262464115
  0
LINE
  5
324
100
AcDbEntity
  8
0
100
AcDbLine
 62
4
  6
CONTINUOUS
 10
10.5603644956
 20
7.8963862545
 11
10.5272470394
 21
7.7827718544
  0
LINE
  5
325
100
AcDbEntity
  8
0
100
AcDbLine
 62
4
  6
CONTINUOUS
 10
10.3354417594
 20
8.1504303969
 11
10.3520004806
 21
8.1658407755
  0
LINE
  5
326
100
AcDbEntity
  8
0
100
AcDbLine
 62
4
  6
CONTINUOUS
 10
11.1247411517
 20
8.0625748403
 11
11.0805845401
 21
8.0877154175
  0
LINE
  5
327
100
AcDbEntity
  8
0
100
AcDbLine
 62
4
  6
CONTINUOUS
 10
11.0171094158
 20
8.0038042108
 11
11.0005506877
 21
8.0215112905
  0
LINE
  5
328
100
AcDbEntity
  8
0
100
AcDbLine
 62
4
  6
CONTINUOUS
 10
10.9205168319
 20
8.0105029292
 11
10.8873993619
 21
8.128710737
  0
LINE
  5
329
100
AcDbEntity
  8
0
100
AcDbLine
 62
4
  6
CONTINUOUS
 10
10.9453549334
 20
7.533544877
 11
10.9453549334
 21
7.4176337735
  0
LINE
  5
32A
100
AcDbEntity
  8
0
100
AcDbLine
 62
4
  6
CONTINUOUS
 10
11.0005506877
 20
8.0215112905
 11
11.0005506877
 21
8.1043049361
  0
LINE
  5
32B
100
AcDbEntity
  8
0
100
AcDbLine
 62
4
  6
CONTINUOUS
 10
11.0033104851
 20
7.5295256458
 11
11.0033104851
 21
7.4136145424
  0
LINE
  5
32C
100
AcDbEntity
  8
0
100
AcDbLine
 62
4
  6
CONTINUOUS
 10
10.7218120871
 20
7.5766455078
 11
10.6886946448
 21
7.4685506811
  0
LINE
  5
32D
100
AcDbEntity
  8
0
100
AcDbLine
 62
7
  6
CONTINUOUS
 10
12.5932269676
 20
10.242524128
 11
11.881475181
 21
9.5550246546
  0
LINE
  5
32E
100
AcDbEntity
  8
0
100
AcDbLine
 62
4
  6
CONTINUOUS
 10
10.4265147535
 20
8.1441144633
 11
10.4430734746
 21
8.1595248419
  0
LINE
  5
32F
100
AcDbEntity
  8
0
100
AcDbLine
 62
4
  6
CONTINUOUS
 10
10.4844703052
 20
8.0573015866
 11
10.467911584
 21
8.0418912098
  0
LINE
  5
330
100
AcDbEntity
  8
0
100
AcDbLine
 62
4
  6
CONTINUOUS
 10
9.5376559845
 20
7.7181024929
 11
9.5666337604
 21
7.7354113934
  0
LINE
  5
331
100
AcDbEntity
  8
0
100
AcDbLine
 62
4
  6
CONTINUOUS
 10
9.5811226483
 20
7.6764510304
 11
9.5666337604
 21
7.6677965819
  0
LINE
  5
332
100
AcDbEntity
  8
0
100
AcDbLine
 62
4
  6
CONTINUOUS
 10
10.1615751043
 20
8.1293706325
 11
10.2057317125
 21
8.1483866672
  0
LINE
  5
333
100
AcDbEntity
  8
0
100
AcDbLine
 62
4
  6
CONTINUOUS
 10
11.7032618861
 20
7.5292801744
 11
11.6960174421
 21
7.5394418416
  0
LINE
  5
334
100
AcDbEntity
  8
0
100
AcDbLine
 62
4
  6
CONTINUOUS
 10
11.0364279413
 20
7.5106702126
 11
11.0364279413
 21
7.411317839
  0
LINE
  5
335
100
AcDbEntity
  8
0
100
AcDbLine
 62
4
  6
CONTINUOUS
 10
11.0585062325
 20
8.1168444352
 11
11.0585062325
 21
8.0009333318
  0
LINE
  5
336
100
AcDbEntity
  8
0
100
AcDbLine
 62
4
  6
CONTINUOUS
 10
11.094383493
 20
7.4072986078
 11
11.094383493
 21
7.5066509814
  0
LINE
  5
337
100
AcDbEntity
  8
0
100
AcDbLine
 62
4
  6
CONTINUOUS
 10
11.1275009491
 20
7.5043542781
 11
11.1275009491
 21
7.4877955483
  0
LINE
  5
338
100
AcDbEntity
  8
0
100
AcDbLine
 62
7
  6
CONTINUOUS
 10
11.1679979279
 20
10.2862187898
 11
11.1679979279
 21
10.7068180156
  0
LINE
  5
339
100
AcDbEntity
  8
0
100
AcDbLine
 62
4
  6
CONTINUOUS
 10
11.1854565009
 20
7.4341001294
 11
11.1854565009
 21
7.4175414013
  0
LINE
  5
33A
100
AcDbEntity
  8
0
100
AcDbLine
 62
4
  6
CONTINUOUS
 10
11.1961507798
 20
6.7559684792
 11
11.1961507798
 21
6.7656277389
  0
LINE
  5
33B
100
AcDbEntity
  8
0
100
AcDbLine
 62
4
  6
CONTINUOUS
 10
11.2033952237
 20
6.697510527
 11
11.2033952237
 21
6.7071697833
  0
LINE
  5
33C
100
AcDbEntity
  8
0
100
AcDbLine
 62
4
  6
CONTINUOUS
 10
10.953634288
 20
8.1241173293
 11
10.9205168319
 21
8.0105029292
  0
LINE
  5
33D
100
AcDbEntity
  8
0
100
AcDbLine
 62
4
  6
CONTINUOUS
 10
10.5810628545
 20
8.0506028706
 11
10.5645041334
 21
8.0351924937
  0
LINE
  5
33E
100
AcDbEntity
  8
0
100
AcDbLine
 62
4
  6
CONTINUOUS
 10
10.1091391276
 20
7.59153664
 11
10.1008597947
 21
7.5838314488
  0
LINE
  5
33F
100
AcDbEntity
  8
0
100
AcDbLine
 62
4
  6
CONTINUOUS
 10
10.1505359029
 20
7.5141514841
 11
10.14225657
 21
7.5064462903
  0
LINE
  5
340
100
AcDbEntity
  8
0
100
AcDbLine
 62
4
  6
CONTINUOUS
 10
10.6348787823
 20
7.8912186711
 11
10.6265994079
 21
7.8835134828
  0
LINE
  5
341
100
AcDbEntity
  8
0
100
AcDbLine
 62
4
  6
CONTINUOUS
 10
10.2250502311
 20
7.5089838979
 11
10.2167708981
 21
7.5012787041
  0
LINE
  5
342
100
AcDbEntity
  8
0
100
AcDbLine
 62
7
  6
CONTINUOUS
 10
11.2196333455
 20
10.1252888891
 11
11.2196333455
 21
10.1870971231
  0
LINE
  5
343
100
AcDbEntity
  8
0
100
AcDbLine
 62
7
  6
CONTINUOUS
 10
11.2810527399
 20
10.1770164139
 11
11.2810527399
 21
10.5976156397
  0
LINE
  5
344
100
AcDbEntity
  8
0
100
AcDbLine
 62
7
  6
CONTINUOUS
 10
11.3229329674
 20
10.1661770272
 11
11.3229329674
 21
10.5867762529
  0
LINE
  5
345
100
AcDbEntity
  8
0
100
AcDbLine
 62
4
  6
CONTINUOUS
 10
11.3965802432
 20
8.6826136811
 11
11.3965802432
 21
8.7985247845
  0
LINE
  5
346
100
AcDbEntity
  8
0
100
AcDbLine
 62
4
  6
CONTINUOUS
 10
11.0005506877
 20
8.1043049361
 11
11.0171094158
 21
8.1197153142
  0
LINE
  5
347
100
AcDbEntity
  8
0
100
AcDbLine
 62
4
  6
CONTINUOUS
 10
9.5521448724
 20
8.8762087441
 11
9.5376559845
 21
8.8772135519
  0
LINE
  5
348
100
AcDbEntity
  8
0
100
AcDbLine
 62
4
  6
CONTINUOUS
 10
9.5449004285
 20
8.9346666997
 11
9.5159226526
 21
8.9366763153
  0
LINE
  5
349
100
AcDbEntity
  8
0
100
AcDbLine
 62
4
  6
CONTINUOUS
 10
9.5376559845
 20
8.9931246553
 11
9.5521448724
 21
8.9921198475
  0
LINE
  5
34A
100
AcDbEntity
  8
0
100
AcDbLine
 62
4
  6
CONTINUOUS
 10
10.6431581429
 20
7.8244095763
 11
10.6293591993
 21
7.8170871757
  0
LINE
  5
34B
100
AcDbEntity
  8
0
100
AcDbLine
 62
4
  6
CONTINUOUS
 10
11.0805845401
 20
8.0435588041
 11
11.1247411517
 21
8.0625748403
  0
LINE
  5
34C
100
AcDbEntity
  8
0
100
AcDbLine
 62
4
  6
CONTINUOUS
 10
11.6960174421
 20
7.5394418416
 11
11.6960174421
 21
7.5587603542
  0
LINE
  5
34D
100
AcDbEntity
  8
0
100
AcDbLine
 62
7
  6
CONTINUOUS
 10
11.7448589463
 20
10.1369163612
 11
11.7448589463
 21
10.5575155869
  0
LINE
  5
34E
100
AcDbEntity
  8
0
100
AcDbLine
 62
4
  6
CONTINUOUS
 10
11.0529866624
 20
7.5260805912
 11
11.0364279413
 21
7.5106702126
  0
LINE
  5
34F
100
AcDbEntity
  8
0
100
AcDbLine
 62
4
  6
CONTINUOUS
 10
10.5093083791
 20
7.5306673486
 11
10.4927496579
 21
7.5235363358
  0
LINE
  5
350
100
AcDbEntity
  8
0
100
AcDbLine
 62
7
  6
CONTINUOUS
 10
11.8020683849
 20
10.1408838562
 11
11.8020683849
 21
10.561483082
  0
LINE
  5
351
100
AcDbEntity
  8
0
100
AcDbLine
 62
7
  6
CONTINUOUS
 10
11.881475181
 20
9.5550246546
 11
11.881475181
 21
6.1742840623
  0
LINE
  5
352
100
AcDbEntity
  8
0
100
AcDbLine
 62
4
  6
CONTINUOUS
 10
11.7467285499
 20
7.6035398223
 11
11.7539729938
 21
7.6320151943
  0
LINE
  5
353
100
AcDbEntity
  8
0
100
AcDbLine
 62
4
  6
CONTINUOUS
 10
11.1440596772
 20
7.5197646562
 11
11.1275009491
 21
7.5043542781
  0
LINE
  5
354
100
AcDbEntity
  8
0
100
AcDbLine
 62
4
  6
CONTINUOUS
 10
11.1854565009
 20
7.4175414013
 11
11.1688977711
 21
7.4021310251
  0
LINE
  5
355
100
AcDbEntity
  8
0
100
AcDbLine
 62
4
  6
CONTINUOUS
 10
10.6666163131
 20
7.4783611861
 11
10.6500575919
 21
7.4712301699
  0
LINE
  5
356
100
AcDbEntity
  8
0
100
AcDbLine
 62
7
  6
CONTINUOUS
 10
12.0746333455
 20
10.1253445873
 11
12.0746333455
 21
10.1864214899
  0
LINE
  5
357
100
AcDbEntity
  8
0
100
AcDbLine
 62
7
  6
CONTINUOUS
 10
12.1109395519
 20
10.2208255661
 11
12.1109395519
 21
10.6414247919
  0
LINE
  5
358
100
AcDbEntity
  8
0
100
AcDbLine
 62
7
  6
CONTINUOUS
 10
12.1262687631
 20
10.2356324479
 11
12.1262687631
 21
10.6562316737
  0
LINE
  5
359
100
AcDbEntity
  8
0
100
AcDbLine
 62
4
  6
CONTINUOUS
 10
11.6960174421
 20
7.5587603542
 11
11.7032618861
 21
7.5679172135
  0
LINE
  5
35A
100
AcDbEntity
  8
0
100
AcDbLine
 62
4
  6
CONTINUOUS
 10
11.7322396619
 20
7.585226114
 11
11.7467285499
 21
7.6035398223
  0
LINE
  5
35B
100
AcDbEntity
  8
0
100
AcDbLine
 62
7
  6
CONTINUOUS
 10
12.3199681321
 20
8.4036783696
 11
12.3189533212
 21
8.4027161494
  0
LINE
  5
35C
100
AcDbEntity
  8
0
100
AcDbLine
 62
7
  6
CONTINUOUS
 10
9.4067730324
 20
9.7266458315
 11
11.881475181
 21
9.5550246546
  0
LINE
  5
35D
100
AcDbEntity
  8
0
100
AcDbLine
 62
4
  6
CONTINUOUS
 10
11.7539729938
 20
7.5354226104
 11
11.7467285499
 21
7.5262657511
  0
LINE
  5
35E
100
AcDbEntity
  8
0
100
AcDbLine
 62
4
  6
CONTINUOUS
 10
11.1961507798
 20
6.7656277389
 11
11.2106396677
 21
6.7839414481
  0
LINE
  5
35F
100
AcDbEntity
  8
0
100
AcDbLine
 62
4
  6
CONTINUOUS
 10
11.2033952237
 20
6.7071697833
 11
11.2106396677
 21
6.7163266358
  0
LINE
  5
360
100
AcDbEntity
  8
0
100
AcDbLine
 62
4
  6
CONTINUOUS
 10
11.7032618861
 20
7.5679172135
 11
11.7322396619
 21
7.585226114
  0
LINE
  5
361
100
AcDbEntity
  8
0
100
AcDbLine
 62
4
  6
CONTINUOUS
 10
11.7467285499
 20
7.5262657511
 11
11.7322396619
 21
7.5176113025
  0
LINE
  5
362
100
AcDbEntity
  8
0
100
AcDbLine
 62
4
  6
CONTINUOUS
 10
10.9114939766
 20
10.1380947933
 11
10.9057170001
 21
10.1425146622
  0
LINE
  5
363
100
AcDbEntity
  8
0
100
AcDbLine
 62
4
  6
CONTINUOUS
 10
10.9406110945
 20
10.1662197711
 11
10.934834118
 21
10.1706396401
  0
LINE
  5
364
100
AcDbEntity
  8
0
100
AcDbLine
 62
4
  6
CONTINUOUS
 10
10.9269302112
 20
10.1330050526
 11
10.9114939766
 21
10.1380947933
  0
LINE
  5
365
100
AcDbEntity
  8
0
100
AcDbLine
 62
4
  6
CONTINUOUS
 10
11.0488505299
 20
10.1707710435
 11
11.0546275038
 21
10.1663511748
  0
LINE
  5
366
100
AcDbEntity
  8
0
100
AcDbLine
 62
4
  6
CONTINUOUS
 10
11.0027276127
 20
10.2262197238
 11
10.9969506361
 21
10.2306395928
  0
LINE
  5
367
100
AcDbEntity
  8
0
100
AcDbLine
 62
4
  6
CONTINUOUS
 10
11.110967048
 20
10.2307709962
 11
11.116744022
 21
10.2263511275
  0
LINE
  5
368
100
AcDbEntity
  8
0
100
AcDbLine
 62
7
  6
CONTINUOUS
 10
11.235265691
 20
10.1718739513
 11
11.2253293502
 21
10.1811207595
  0
LINE
  5
369
100
AcDbEntity
  8
0
100
AcDbLine
 62
7
  6
CONTINUOUS
 10
12.5932269676
 20
6.8617835357
 11
12.5932269676
 21
10.242524128
  0
LINE
  5
36A
100
AcDbEntity
  8
0
100
AcDbLine
 62
4
  6
CONTINUOUS
 10
11.2106396677
 20
6.7839414481
 11
11.2251285556
 21
6.7925958992
  0
LINE
  5
36B
100
AcDbEntity
  8
0
100
AcDbLine
 62
4
  6
CONTINUOUS
 10
11.2106396677
 20
6.7163266358
 11
11.2251285556
 21
6.7249810912
  0
LINE
  5
36C
100
AcDbEntity
  8
0
100
AcDbLine
 62
4
  6
CONTINUOUS
 10
11.2541063315
 20
6.6843344365
 11
11.2396174436
 21
6.675679988
  0
LINE
  5
36D
100
AcDbEntity
  8
0
100
AcDbLine
 62
4
  6
CONTINUOUS
 10
11.0216281035
 20
10.1344761999
 11
11.0080865648
 21
10.1313960746
  0
LINE
  5
36E
100
AcDbEntity
  8
0
100
AcDbLine
 62
4
  6
CONTINUOUS
 10
11.0507452214
 20
10.1626011777
 11
11.0372036827
 21
10.1595210524
  0
LINE
  5
36F
100
AcDbEntity
  8
0
100
AcDbLine
 62
4
  6
CONTINUOUS
 10
10.9387164004
 20
10.1743896371
 11
10.9522579416
 21
10.1774697623
  0
LINE
  5
370
100
AcDbEntity
  8
0
100
AcDbLine
 62
4
  6
CONTINUOUS
 10
11.1128617396
 20
10.2226011304
 11
11.0993202009
 21
10.2195210051
  0
LINE
  5
371
100
AcDbEntity
  8
0
100
AcDbLine
 62
4
  6
CONTINUOUS
 10
11.0008329185
 20
10.2343895898
 11
11.0143744598
 21
10.237469715
  0
LINE
  5
372
100
AcDbEntity
  8
0
100
AcDbLine
 62
4
  6
CONTINUOUS
 10
11.0080865648
 20
10.1313960746
 11
10.9848857629
 21
10.1289858214
  0
LINE
  5
373
100
AcDbEntity
  8
0
100
AcDbLine
 62
4
  6
CONTINUOUS
 10
11.0372036827
 20
10.1595210524
 11
11.0256032783
 21
10.158315926
  0
LINE
  5
374
100
AcDbEntity
  8
0
100
AcDbLine
 62
4
  6
CONTINUOUS
 10
10.9522579416
 20
10.1774697623
 11
10.975458741
 21
10.1798800156
  0
LINE
  5
375
100
AcDbEntity
  8
0
100
AcDbLine
 62
4
  6
CONTINUOUS
 10
11.0993202009
 20
10.2195210051
 11
11.0877197965
 21
10.2183158787
  0
LINE
  5
376
100
AcDbEntity
  8
0
100
AcDbLine
 62
4
  6
CONTINUOUS
 10
11.0915091864
 20
10.2019761467
 11
10.9600689535
 21
10.1950146208
  0
LINE
  5
377
100
AcDbEntity
  8
0
100
AcDbLine
 62
4
  6
CONTINUOUS
 10
10.9848857629
 20
10.1289858214
 11
10.9539668458
 21
10.1291204385
  0
LINE
  5
378
100
AcDbEntity
  8
0
100
AcDbLine
 62
4
  6
CONTINUOUS
 10
10.975458741
 20
10.1798800156
 11
11.006377658
 21
10.1797453985
  0
LINE
  5
379
100
AcDbEntity
  8
0
100
AcDbLine
 62
4
  6
CONTINUOUS
 10
10.9134815648
 20
10.1500146563
 11
11.0293926683
 21
10.141976194
  0
LINE
  5
37A
100
AcDbEntity
  8
0
100
AcDbLine
 62
4
  6
CONTINUOUS
 10
10.9539668458
 20
10.1291204385
 11
10.9269302112
 21
10.1330050526
  0
LINE
  5
37B
100
AcDbEntity
  8
0
100
AcDbLine
 62
4
  6
CONTINUOUS
 10
11.006377658
 20
10.1797453985
 11
11.0334142927
 21
10.1758607844
  0
LINE
  5
37C
100
AcDbEntity
  8
0
100
AcDbLine
 62
4
  6
CONTINUOUS
 10
10.975598083
 20
10.210014609
 11
11.0759800569
 21
10.1869761585
  0
LINE
  5
37D
100
AcDbEntity
  8
0
100
AcDbLine
 62
4
  6
CONTINUOUS
 10
10.9483292122
 20
10.1636749007
 11
10.9406110945
 21
10.1662197711
  0
LINE
  5
37E
100
AcDbEntity
  8
0
100
AcDbLine
 62
4
  6
CONTINUOUS
 10
11.0334142927
 20
10.1758607844
 11
11.0488505299
 21
10.1707710435
  0
LINE
  5
37F
100
AcDbEntity
  8
0
100
AcDbLine
 62
4
  6
CONTINUOUS
 10
11.0104457304
 20
10.2236748534
 11
11.0027276127
 21
10.2262197238
  0
LINE
  5
380
100
AcDbEntity
  8
0
100
AcDbLine
 62
4
  6
CONTINUOUS
 10
11.0955308109
 20
10.2358607371
 11
11.110967048
 21
10.2307709962
  0
LINE
  5
381
100
AcDbEntity
  8
0
100
AcDbLine
 62
4
  6
CONTINUOUS
 10
11.0143744598
 20
10.237469715
 11
11.0375752592
 21
10.2398799683
  0
LINE
  5
382
100
AcDbEntity
  8
0
100
AcDbLine
 62
4
  6
CONTINUOUS
 10
11.0375752592
 20
10.2398799683
 11
11.0684941762
 21
10.2397453512
  0
LINE
  5
383
100
AcDbEntity
  8
0
100
AcDbLine
 62
7
  6
CONTINUOUS
 10
10.118524819
 20
10.4141453049
 11
11.1679979279
 21
10.3413640976
  0
LINE
  5
384
100
AcDbEntity
  8
0
100
AcDbLine
 62
7
  6
CONTINUOUS
 10
12.1262687631
 20
10.2749077895
 11
12.5932269676
 21
10.242524128
  0
LINE
  5
385
100
AcDbEntity
  8
0
100
AcDbLine
 62
4
  6
CONTINUOUS
 10
11.0684941762
 20
10.2397453512
 11
11.0955308109
 21
10.2358607371
  0
LINE
  5
386
100
AcDbEntity
  8
0
100
AcDbLine
 62
7
  6
CONTINUOUS
 10
11.881475181
 20
6.1742840623
 11
12.5932269676
 21
6.8617835357
  0
LINE
  5
387
100
AcDbEntity
  8
0
100
AcDbLine
 62
7
  6
CONTINUOUS
 10
12.0443225075
 20
10.7580253347
 11
12.0280196833
 21
10.7660786177
  0
ARC
  5
388
100
AcDbEntity
  8
0
100
AcDbCircle
 62
7
  6
CONTINUOUS
 10
11.6549356022
 20
11.8480198084
 40
1.7134646816
100
AcDbArc
 50
273.0082884861
 51
274.9259735842
  0
ARC
  5
389
100
AcDbEntity
  8
0
100
AcDbCircle
 62
7
  6
CONTINUOUS
 10
11.6549356022
 20
12.2686190342
 40
1.7134646816
100
AcDbArc
 50
273.0082884861
 51
274.9259735842
  0
ARC
  5
38A
100
AcDbEntity
  8
0
100
AcDbCircle
 62
7
  6
CONTINUOUS
 10
10.9522951269
 20
5.1604999037
 40
1.606272746
100
AcDbArc
 50
91.4757755535
 51
93.1848017572
  0
ARC
  5
38B
100
AcDbEntity
  8
0
100
AcDbCircle
 62
7
  6
CONTINUOUS
 10
10.9093208849
 20
6.9540090858
 40
0.1954319986
100
AcDbArc
 50
268.2574871112
 51
270.7506272418
  0
ARC
  5
38C
100
AcDbEntity
  8
0
100
AcDbCircle
 62
7
  6
CONTINUOUS
 10
10.9229839893
 20
8.8621157366
 40
0.1705580931
100
AcDbArc
 50
198.7149370405
 51
198.8974527446
  0
ARC
  5
38D
100
AcDbEntity
  8
0
100
AcDbCircle
 62
7
  6
CONTINUOUS
 10
10.7815114131
 20
8.759901626
 40
0.1411031442
100
AcDbArc
 50
116.2883327043
 51
116.4926657892
  0
ARC
  5
38E
100
AcDbEntity
  8
0
100
AcDbCircle
 62
7
  6
CONTINUOUS
 10
10.7761214205
 20
8.7706159771
 40
0.1291095137
100
AcDbArc
 50
116.4729155948
 51
119.0172945007
  0
SPLINE
  5
38F
100
AcDbEntity
  8
0
100
AcDbSpline
 62
7
  6
CONTINUOUS
 70
0
 71
3
 72
9
 73
5
 74
0
 42
0.0000001
 43
0.0000001
 44
0.0000000001
 40
0.0
 40
0.0
 40
0.0
 40
0.0
 40
0.4864210225
 40
1.0
 40
1.0
 40
1.0
 40
1.0
 10
12.1262687631
 20
10.2356324479
 30
0.0
 10
12.1252550561
 20
10.2343460978
 30
0.0
 10
12.1230685659
 20
10.2317813131
 30
0.0
 10
12.1207148468
 20
10.2293702489
 30
0.0
 10
12.1194711025
 20
10.2281688842
 30
0.0
  0
SPLINE
  5
390
100
AcDbEntity
  8
0
100
AcDbSpline
 62
7
  6
CONTINUOUS
 70
0
 71
3
 72
9
 73
5
 74
0
 42
0.0000001
 43
0.0000001
 44
0.0000000001
 40
0.0
 40
0.0
 40
0.0
 40
0.0
 40
0.5135789775
 40
1.0
 40
1.0
 40
1.0
 40
1.0
 10
11.1747955885
 20
10.7142815793
 30
0.0
 10
11.1735518442
 20
10.7130802146
 30
0.0
 10
11.1711981251
 20
10.7106691504
 30
0.0
 10
11.1690116349
 20
10.7081043657
 30
0.0
 10
11.1679979279
 20
10.7068180156
 30
0.0
  0
SPLINE
  5
391
100
AcDbEntity
  8
0
100
AcDbSpline
 62
7
  6
CONTINUOUS
 70
0
 71
3
 72
9
 73
5
 74
0
 42
0.0000001
 43
0.0000001
 44
0.0000000001
 40
0.0
 40
0.0
 40
0.0
 40
0.0
 40
0.5134917843
 40
1.0
 40
1.0
 40
1.0
 40
1.0
 10
11.1833271391
 20
10.7216248974
 30
0.0
 10
11.1818035058
 20
10.7204444033
 30
0.0
 10
11.1788901998
 20
10.7180746989
 30
0.0
 10
11.1761090585
 20
10.715550294
 30
0.0
 10
11.1747955885
 20
10.7142815793
 30
0.0
  0
SPLINE
  5
392
100
AcDbEntity
  8
0
100
AcDbSpline
 62
7
  6
CONTINUOUS
 70
0
 71
3
 72
21
 73
17
 74
0
 42
0.0000001
 43
0.0000001
 44
0.0000000001
 40
0.0
 40
0.0
 40
0.0
 40
0.0
 40
0.1552847778
 40
0.3037675224
 40
0.3751527953
 40
0.4444666907
 40
0.5115812513
 40
0.5763697456
 40
0.6387130726
 40
0.6985013802
 40
0.75563826
 40
0.8100514809
 40
0.8616894053
 40
0.9105385226
 40
0.9566200086
 40
1.0
 40
1.0
 40
1.0
 40
1.0
 10
11.1679979279
 20
10.2862187898
 30
0.0
 10
11.1702204189
 20
10.2803674362
 30
0.0
 10
11.1746810079
 20
10.2689634369
 30
0.0
 10
11.1805333642
 20
10.2550179122
 30
0.0
 10
11.1852905144
 20
10.2443759801
 30
0.0
 10
11.1888387939
 20
10.2367875665
 30
0.0
 10
11.1924134507
 20
10.2295065423
 30
0.0
 10
11.196013546
 20
10.2225528602
 30
0.0
 10
11.1996377154
 20
10.2159464666
 30
0.0
 10
11.2032838
 20
10.2097066814
 30
0.0
 10
11.2069502314
 20
10.2038525209
 30
0.0
 10
11.2106336934
 20
10.1984009994
 30
0.0
 10
11.2143320711
 20
10.1933682288
 30
0.0
 10
11.2180417978
 20
10.1887673396
 30
0.0
 10
11.2217595044
 20
10.1846094704
 30
0.0
 10
11.2243168628
 20
10.1820632708
 30
0.0
 10
11.2255968597
 20
10.180872023
 30
0.0
  0
SPLINE
  5
393
100
AcDbEntity
  8
0
100
AcDbSpline
 62
7
  6
CONTINUOUS
 70
0
 71
3
 72
23
 73
19
 74
0
 42
0.0000001
 43
0.0000001
 44
0.0000000001
 40
0.0
 40
0.0
 40
0.0
 40
0.0
 40
0.0809714987
 40
0.1598878899
 40
0.2366108848
 40
0.3110078346
 40
0.3829543555
 40
0.452338501
 40
0.5190632519
 40
0.5830593386
 40
0.6442825111
 40
0.7027298252
 40
0.7584316548
 40
0.8114689998
 40
0.8619596659
 40
0.910071818
 40
0.9560056935
 40
1.0
 40
1.0
 40
1.0
 40
1.0
 10
12.1262687631
 20
10.6562316737
 30
0.0
 10
12.1246206976
 20
10.6594096218
 30
0.0
 10
12.1213216291
 20
10.6656618019
 30
0.0
 10
12.1162906014
 20
10.6748340371
 30
0.0
 10
12.1112383492
 20
10.6836613525
 30
0.0
 10
12.1061658128
 20
10.69211981
 30
0.0
 10
12.1010737456
 20
10.7001854939
 30
0.0
 10
12.095964016
 20
10.7078355281
 30
0.0
 10
12.0908378517
 20
10.7150476931
 30
0.0
 10
12.0856981783
 20
10.7218024507
 30
0.0
 10
12.0805466138
 20
10.7280818868
 30
0.0
 10
12.0753869454
 20
10.7338725238
 30
0.0
 10
12.0702210547
 20
10.7391631331
 30
0.0
 10
12.0650532146
 20
10.7439483694
 30
0.0
 10
12.0598854953
 20
10.7482252357
 30
0.0
 10
12.0547221023
 20
10.7519973331
 30
0.0
 10
12.0495656301
 20
10.7552700079
 30
0.0
 10
12.0460654995
 20
10.7571643145
 30
0.0
 10
12.0443216182
 20
10.7580257741
 30
0.0
  0
SPLINE
  5
394
100
AcDbEntity
  8
0
100
AcDbSpline
 62
7
  6
CONTINUOUS
 70
0
 71
3
 72
46
 73
42
 74
0
 42
0.0000001
 43
0.0000001
 44
0.0000000001
 40
0.0
 40
0.0
 40
0.0
 40
0.0
 40
0.0099874877
 40
0.0204476974
 40
0.0313773321
 40
0.0427709641
 40
0.0546220461
 40
0.0669229866
 40
0.0928356094
 40
0.1204266613
 40
0.1495981687
 40
0.1802404541
 40
0.2122337752
 40
0.2454491038
 40
0.2797499018
 40
0.3149932014
 40
0.3510301972
 40
0.3877076002
 40
0.4248685405
 40
0.462353288
 40
0.500000408
 40
0.5376475404
 40
0.5751322603
 40
0.612293149
 40
0.6489704979
 40
0.6850073789
 40
0.7202505939
 40
0.7545513209
 40
0.7877664595
 40
0.8197596255
 40
0.8504018125
 40
0.8795730869
 40
0.9071639551
 40
0.9203360434
 40
0.9330775683
 40
0.945378314
 40
0.9572292775
 40
0.9686228886
 40
0.9795523843
 40
0.9900125565
 40
1.0
 40
1.0
 40
1.0
 40
1.0
 10
12.0280215585
 20
10.7660776376
 30
0.0
 10
12.0257045665
 20
10.7672221978
 30
0.0
 10
12.0209213594
 20
10.7694860674
 30
0.0
 10
12.0134817726
 20
10.7727396785
 30
0.0
 10
12.0056191325
 20
10.7759260252
 30
0.0
 10
11.9973426435
 20
10.7790416291
 30
0.0
 10
11.9886617195
 20
10.7820829118
 30
0.0
 10
11.9763463803
 20
10.7861037538
 30
0.0
 10
11.9600037098
 20
10.7908981158
 30
0.0
 10
11.9392767707
 20
10.7962064283
 30
0.0
 10
11.9172021241
 20
10.8011405484
 30
0.0
 10
11.8938813742
 20
10.8056773807
 30
0.0
 10
11.8694216348
 20
10.809795473
 30
0.0
 10
11.8439356137
 20
10.8134756773
 30
0.0
 10
11.8175408161
 20
10.8167007943
 30
0.0
 10
11.7903589951
 20
10.8194555777
 30
0.0
 10
11.7625156233
 20
10.8217272648
 30
0.0
 10
11.7341392787
 20
10.8235052877
 30
0.0
 10
11.7053610087
 20
10.8247811876
 30
0.0
 10
11.6763137429
 20
10.8255491052
 30
0.0
 10
11.6471316709
 20
10.8258055146
 30
0.0
 10
11.617949606
 20
10.8255490698
 30
0.0
 10
11.5889023602
 20
10.8247810483
 30
0.0
 10
11.560124127
 20
10.8235051082
 30
0.0
 10
11.5317478407
 20
10.8217270587
 30
0.0
 10
11.5039045431
 20
10.8194552683
 30
0.0
 10
11.4767227969
 20
10.8167004432
 30
0.0
 10
11.4503280925
 20
10.8134753088
 30
0.0
 10
11.424842189
 20
10.8097950067
 30
0.0
 10
11.4003825921
 20
10.8056768676
 30
0.0
 10
11.3770619062
 20
10.8011400507
 30
0.0
 10
11.3549876382
 20
10.7962057781
 30
0.0
 10
11.3374542737
 20
10.7917156184
 30
0.0
 10
11.3241376371
 20
10.7879272894
 30
0.0
 10
11.3146782596
 20
10.7850454169
 30
0.0
 10
11.3056029452
 20
10.7820821834
 30
0.0
 10
11.2969221259
 20
10.7790409177
 30
0.0
 10
11.2886456916
 20
10.7759253582
 30
0.0
 10
11.2807831519
 20
10.7727389007
 30
0.0
 10
11.2733436496
 20
10.7694852414
 30
0.0
 10
11.2685604568
 20
10.7672213914
 30
0.0
 10
11.2662434779
 20
10.7660768303
 30
0.0
  0
SPLINE
  5
395
100
AcDbEntity
  8
0
100
AcDbSpline
 62
7
  6
CONTINUOUS
 70
0
 71
3
 72
9
 73
5
 74
0
 42
0.0000001
 43
0.0000001
 44
0.0000000001
 40
0.0
 40
0.0
 40
0.0
 40
0.0
 40
0.496008294
 40
1.0
 40
1.0
 40
1.0
 40
1.0
 10
11.2411086344
 20
10.753660739
 30
0.0
 10
11.2313125675
 20
10.7488214659
 30
0.0
 10
11.2118159031
 20
10.7385469526
 30
0.0
 10
11.1928004864
 20
10.7274137725
 30
0.0
 10
11.1833271391
 20
10.7216248974
 30
0.0
  0
SPLINE
  5
396
100
AcDbEntity
  8
0
100
AcDbSpline
 62
7
  6
CONTINUOUS
 70
0
 71
3
 72
9
 73
5
 74
0
 42
0.0000001
 43
0.0000001
 44
0.0000000001
 40
0.0
 40
0.0
 40
0.0
 40
0.0
 40
0.4867517121
 40
1.0
 40
1.0
 40
1.0
 40
1.0
 10
11.2810527399
 20
10.1770164139
 30
0.0
 10
11.2877906399
 20
10.175047243
 30
0.0
 10
11.3017019417
 20
10.1712345826
 30
0.0
 10
11.315718186
 20
10.1678307232
 30
0.0
 10
11.3229329674
 20
10.1661770272
 30
0.0
  0
SPLINE
  5
397
100
AcDbEntity
  8
0
100
AcDbSpline
 62
7
  6
CONTINUOUS
 70
0
 71
3
 72
9
 73
5
 74
0
 42
0.0000001
 43
0.0000001
 44
0.0000000001
 40
0.0
 40
0.0
 40
0.0
 40
0.0
 40
0.2585900006
 40
1.0
 40
1.0
 40
1.0
 40
1.0
 10
12.1109395519
 20
10.2208255661
 30
0.0
 10
12.1115923871
 20
10.2213313755
 30
0.0
 10
12.1140969158
 20
10.2233130264
 30
0.0
 10
12.1165187589
 20
10.2254002652
 30
0.0
 10
12.1182521315
 20
10.2270133498
 30
0.0
  0
SPLINE
  5
398
100
AcDbEntity
  8
0
100
AcDbSpline
 62
7
  6
CONTINUOUS
 70
0
 71
3
 72
9
 73
5
 74
0
 42
0.0000001
 43
0.0000001
 44
0.0000000001
 40
0.0
 40
0.0
 40
0.0
 40
0.0
 40
0.5134917843
 40
1.0
 40
1.0
 40
1.0
 40
1.0
 10
12.1109395519
 20
10.6414247919
 30
0.0
 10
12.1124631852
 20
10.6426052859
 30
0.0
 10
12.1153764912
 20
10.6449749903
 30
0.0
 10
12.1181576325
 20
10.6474993952
 30
0.0
 10
12.1194711025
 20
10.6487681099
 30
0.0
  0
SPLINE
  5
399
100
AcDbEntity
  8
0
100
AcDbSpline
 62
7
  6
CONTINUOUS
 70
0
 71
3
 72
9
 73
5
 74
0
 42
0.0000001
 43
0.0000001
 44
0.0000000001
 40
0.0
 40
0.0
 40
0.0
 40
0.0
 40
0.4867517121
 40
1.0
 40
1.0
 40
1.0
 40
1.0
 10
11.2810527399
 20
10.5976156397
 30
0.0
 10
11.2877906399
 20
10.5956464687
 30
0.0
 10
11.3017019417
 20
10.5918338083
 30
0.0
 10
11.315718186
 20
10.5884299489
 30
0.0
 10
11.3229329674
 20
10.5867762529
 30
0.0
  0
SPLINE
  5
39A
100
AcDbEntity
  8
0
100
AcDbSpline
 62
7
  6
CONTINUOUS
 70
0
 71
3
 72
9
 73
5
 74
0
 42
0.0000001
 43
0.0000001
 44
0.0000000001
 40
0.0
 40
0.0
 40
0.0
 40
0.0
 40
0.5135789775
 40
1.0
 40
1.0
 40
1.0
 40
1.0
 10
12.1194711025
 20
10.6487681099
 30
0.0
 10
12.1207148468
 20
10.6499694747
 30
0.0
 10
12.1230685659
 20
10.6523805388
 30
0.0
 10
12.1252550561
 20
10.6549453236
 30
0.0
 10
12.1262687631
 20
10.6562316737
 30
0.0
  0
SPLINE
  5
39B
100
AcDbEntity
  8
0
100
AcDbSpline
 62
7
  6
CONTINUOUS
 70
0
 71
3
 72
23
 73
19
 74
0
 42
0.0000001
 43
0.0000001
 44
0.0000000001
 40
0.0
 40
0.0
 40
0.0
 40
0.0
 40
0.0421785856
 40
0.0850534373
 40
0.1291226147
 40
0.1749466526
 40
0.2231084649
 40
0.2741717322
 40
0.3286399951
 40
0.3869169438
 40
0.44928418
 40
0.5158962693
 40
0.5867820207
 40
0.6618606059
 40
0.7409667875
 40
0.8238724696
 40
0.910312794
 40
1.0
 40
1.0
 40
1.0
 40
1.0
 10
11.1679979279
 20
10.7068180156
 30
0.0
 10
11.1703159823
 20
10.7068097672
 30
0.0
 10
11.1749930569
 20
10.70657075
 30
0.0
 10
11.1820192176
 20
10.7054912623
 30
0.0
 10
11.1890881791
 20
10.7036272412
 30
0.0
 10
11.1961913374
 20
10.7009208798
 30
0.0
 10
11.2033199089
 20
10.6973227539
 30
0.0
 10
11.2104647748
 20
10.6927943077
 30
0.0
 10
11.2176168989
 20
10.6873089819
 30
0.0
 10
11.2247681616
 20
10.680855119
 30
0.0
 10
11.2319112167
 20
10.6734363342
 30
0.0
 10
11.2390386115
 20
10.665070815
 30
0.0
 10
11.2461437539
 20
10.6557911784
 30
0.0
 10
11.2532211181
 20
10.6456422069
 30
0.0
 10
11.2602656624
 20
10.6346773987
 30
0.0
 10
11.2672737682
 20
10.6229561473
 30
0.0
 10
11.2742430154
 20
10.6105409763
 30
0.0
 10
11.2787835441
 20
10.6019913072
 30
0.0
 10
11.2810527399
 20
10.5976156397
 30
0.0
  0
SPLINE
  5
39C
100
AcDbEntity
  8
0
100
AcDbSpline
 62
7
  6
CONTINUOUS
 70
0
 71
3
 72
21
 73
17
 74
0
 42
0.0000001
 43
0.0000001
 44
0.0000000001
 40
0.0
 40
0.0
 40
0.0
 40
0.0
 40
0.1230814817
 40
0.1847942657
 40
0.2466337258
 40
0.3086097846
 40
0.3707312098
 40
0.4330051319
 40
0.4954352436
 40
0.5580223626
 40
0.6207641208
 40
0.6836547008
 40
0.7466862848
 40
0.8098488395
 40
0.8731308835
 40
1.0
 40
1.0
 40
1.0
 40
1.0
 10
11.3229329674
 20
10.5867762529
 30
0.0
 10
11.3401856079
 20
10.5900286364
 30
0.0
 10
11.3662167455
 20
10.5942793548
 30
0.0
 10
11.4011533357
 20
10.5984467042
 30
0.0
 10
11.4275200334
 20
10.6007687506
 30
0.0
 10
11.4540071001
 20
10.6022284507
 30
0.0
 10
11.4805911592
 20
10.6027785925
 30
0.0
 10
11.5072430235
 20
10.6023821609
 30
0.0
 10
11.5339295164
 20
10.6010171733
 30
0.0
 10
11.5606152882
 20
10.5986783498
 30
0.0
 10
11.5872649913
 20
10.5953760604
 30
0.0
 10
11.6138456555
 20
10.5911370407
 30
0.0
 10
11.6403284988
 20
10.5860023995
 30
0.0
 10
11.6666903761
 20
10.5800226517
 30
0.0
 10
11.7016810506
 20
10.570993532
 30
0.0
 10
11.7276595092
 20
10.5631435107
 30
0.0
 10
11.7448589463
 20
10.5575155869
 30
0.0
  0
SPLINE
  5
39D
100
AcDbEntity
  8
0
100
AcDbSpline
 62
7
  6
CONTINUOUS
 70
0
 71
3
 72
28
 73
24
 74
0
 42
0.0000001
 43
0.0000001
 44
0.0000000001
 40
0.0
 40
0.0
 40
0.0
 40
0.0
 40
0.0640274484
 40
0.1279405369
 40
0.1917105404
 40
0.2553123355
 40
0.3187161223
 40
0.3818930725
 40
0.4133919091
 40
0.4448254452
 40
0.4761912782
 40
0.5074882562
 40
0.5387156619
 40
0.5698732312
 40
0.6009621492
 40
0.6319833386
 40
0.6938248821
 40
0.7554274775
 40
0.8168179251
 40
0.8780243018
 40
0.9085700262
 40
0.9390802882
 40
1.0
 40
1.0
 40
1.0
 40
1.0
 10
11.3229329674
 20
10.1661770272
 30
0.0
 10
11.331233818
 20
10.1618939035
 30
0.0
 10
11.3479648777
 20
10.1536105162
 30
0.0
 10
11.373484044
 20
10.1421485299
 30
0.0
 10
11.3994078223
 20
10.1317942674
 30
0.0
 10
11.4257209974
 20
10.1226922114
 30
0.0
 10
11.4523888271
 20
10.114988737
 30
0.0
 10
11.4748842592
 20
10.1098445051
 30
0.0
 10
11.4929883313
 20
10.1065574497
 30
0.0
 10
11.5065955867
 20
10.1045187231
 30
0.0
 10
11.5202309143
 20
10.1029120459
 30
0.0
 10
11.5338807655
 20
10.1017449689
 30
0.0
 10
11.5475306988
 20
10.1010178191
 30
0.0
 10
11.5611666062
 20
10.1007322867
 30
0.0
 10
11.5747746556
 20
10.1008827602
 30
0.0
 10
11.5928434801
 20
10.1016560358
 30
0.0
 10
11.6153029696
 20
10.1036714396
 30
0.0
 10
11.6419839263
 20
10.1076725462
 30
0.0
 10
11.668310288
 20
10.1131232604
 30
0.0
 10
11.6899387606
 20
10.1187590853
 30
0.0
 10
11.7070343555
 20
10.1238504434
 30
0.0
 10
11.7239748767
 20
10.1293006715
 30
0.0
 10
11.7365437212
 20
10.1337791461
 30
0.0
 10
11.7448589463
 20
10.1369163612
 30
0.0
  0
SPLINE
  5
39E
100
AcDbEntity
  8
0
100
AcDbSpline
 62
7
  6
CONTINUOUS
 70
0
 71
3
 72
23
 73
19
 74
0
 42
0.0000001
 43
0.0000001
 44
0.0000000001
 40
0.0
 40
0.0
 40
0.0
 40
0.0
 40
0.0678267902
 40
0.1349724863
 40
0.2013861734
 40
0.2670282176
 40
0.331868046
 40
0.3958905056
 40
0.459098674
 40
0.5215154569
 40
0.5831842269
 40
0.6441654231
 40
0.7045325895
 40
0.7643678524
 40
0.8237547389
 40
0.882773787
 40
0.9415010872
 40
1.0
 40
1.0
 40
1.0
 40
1.0
 10
11.8020683849
 20
10.561483082
 30
0.0
 10
11.8083435016
 20
10.5653176154
 30
0.0
 10
11.8209268272
 20
10.572792546
 30
0.0
 10
11.8400067848
 20
10.5834155319
 30
0.0
 10
11.8591975166
 20
10.5933328717
 30
0.0
 10
11.8784909823
 20
10.6024811465
 30
0.0
 10
11.8978751647
 20
10.6108003926
 30
0.0
 10
11.9173333274
 20
10.6182370442
 30
0.0
 10
11.9368449681
 20
10.6247463286
 30
0.0
 10
11.9563859808
 20
10.6302970394
 30
0.0
 10
11.9759301003
 20
10.6348739706
 30
0.0
 10
11.9954509502
 20
10.6384776383
 30
0.0
 10
12.0149233853
 20
10.6411256167
 30
0.0
 10
12.034325146
 20
10.6428511818
 30
0.0
 10
12.0536381114
 20
10.6436987846
 30
0.0
 10
12.0728488804
 20
10.6437220169
 30
0.0
 10
12.0919480287
 20
10.6429802944
 30
0.0
 10
12.1046244485
 20
10.6420148231
 30
0.0
 10
12.1109395519
 20
10.6414247919
 30
0.0
  0
SPLINE
  5
39F
100
AcDbEntity
  8
0
100
AcDbSpline
 62
7
  6
CONTINUOUS
 70
0
 71
3
 72
27
 73
23
 74
0
 42
0.0000001
 43
0.0000001
 44
0.0000000001
 40
0.0
 40
0.0
 40
0.0
 40
0.0
 40
0.0572742999
 40
0.1144994563
 40
0.1717869223
 40
0.2292938811
 40
0.2872150422
 40
0.3457779489
 40
0.3753824125
 40
0.4052383009
 40
0.4353731703
 40
0.4658134574
 40
0.496580671
 40
0.5276935314
 40
0.5591655803
 40
0.5910057323
 40
0.6557946642
 40
0.7220564543
 40
0.7897212757
 40
0.8586828413
 40
0.9288200633
 40
1.0
 40
1.0
 40
1.0
 40
1.0
 10
11.8020683849
 20
10.1408838562
 30
0.0
 10
11.808143656
 20
10.1387496306
 30
0.0
 10
11.8204013791
 20
10.1347933576
 30
0.0
 10
11.8391051606
 20
10.1299315462
 30
0.0
 10
11.8581132243
 20
10.1262840794
 30
0.0
 10
11.8774140407
 20
10.1239937989
 30
0.0
 10
11.896979888
 20
10.1232002788
 30
0.0
 10
11.913411039
 20
10.1238885575
 30
0.0
 10
11.9266098837
 20
10.1252844445
 30
0.0
 10
11.9365758937
 20
10.1267706055
 30
0.0
 10
11.9465618898
 20
10.1286964533
 30
0.0
 10
11.9565573745
 20
10.1310657333
 30
0.0
 10
11.9665523623
 20
10.1338750698
 30
0.0
 10
11.9765357334
 20
10.1371221482
 30
0.0
 10
11.9864979948
 20
10.14079779
 30
0.0
 10
11.9998153965
 20
10.1462887986
 30
0.0
 10
12.0163573096
 20
10.1541838726
 30
0.0
 10
12.0358665234
 20
10.1650978733
 30
0.0
 10
12.0551122663
 20
10.1773623564
 30
0.0
 10
12.0740714872
 20
10.1908279122
 30
0.0
 10
12.0927349204
 20
10.205349693
 30
0.0
 10
12.1048988412
 20
10.2155765807
 30
0.0
 10
12.1109395519
 20
10.2208255661
 30
0.0
  0
SPLINE
  5
3A0
100
AcDbEntity
  8
0
100
AcDbSpline
 62
7
  6
CONTINUOUS
 70
0
 71
3
 72
11
 73
7
 74
0
 42
0.0000001
 43
0.0000001
 44
0.0000000001
 40
0.0
 40
0.0
 40
0.0
 40
0.0
 40
0.2706149479
 40
0.5274053283
 40
0.7704747911
 40
1.0
 40
1.0
 40
1.0
 40
1.0
 10
11.2662434779
 20
10.7660768303
 30
0.0
 10
11.2639849288
 20
10.7649611329
 30
0.0
 10
11.2596182977
 20
10.7627145239
 30
0.0
 10
11.2533654146
 20
10.7591977894
 30
0.0
 10
11.2475883139
 20
10.7556267726
 30
0.0
 10
11.2439555075
 20
10.7531418086
 30
0.0
 10
11.2422249519
 20
10.7518887226
 30
0.0
  0
SPLINE
  5
3A1
100
AcDbEntity
  8
0
100
AcDbSpline
 62
7
  6
CONTINUOUS
 70
0
 71
3
 72
9
 73
5
 74
0
 42
0.0000001
 43
0.0000001
 44
0.0000000001
 40
0.0
 40
0.0
 40
0.0
 40
0.0
 40
0.5180906156
 40
1.0
 40
1.0
 40
1.0
 40
1.0
 10
11.2422249519
 20
10.7518887226
 30
0.0
 10
11.2403267921
 20
10.7505142754
 30
0.0
 10
11.2367396106
 20
10.7477531246
 30
0.0
 10
11.2333530931
 20
10.7447467653
 30
0.0
 10
11.2317852156
 20
10.7432323118
 30
0.0
  0
SPLINE
  5
3A2
100
AcDbEntity
  8
0
100
AcDbSpline
 62
7
  6
CONTINUOUS
 70
0
 71
3
 72
21
 73
17
 74
0
 42
0.0000001
 43
0.0000001
 44
0.0000000001
 40
0.0
 40
0.0
 40
0.0
 40
0.0
 40
0.0777184714
 40
0.1509844854
 40
0.2201919876
 40
0.2858049512
 40
0.3483762676
 40
0.408511364
 40
0.4668501382
 40
0.524040419
 40
0.5806986783
 40
0.6373921441
 40
0.6946119011
 40
0.7527677984
 40
0.8730351627
 40
1.0
 40
1.0
 40
1.0
 40
1.0
 10
11.2255968597
 20
10.180872023
 30
0.0
 10
11.2267586246
 20
10.1797908096
 30
0.0
 10
11.2290808986
 20
10.1777586471
 30
0.0
 10
11.2326697235
 20
10.1750430419
 30
0.0
 10
11.2362534246
 20
10.1727507541
 30
0.0
 10
11.2398297707
 20
10.1708794408
 30
0.0
 10
11.2433950537
 20
10.1694221291
 30
0.0
 10
11.2469460697
 20
10.168370367
 30
0.0
 10
11.2504793478
 20
10.1677138281
 30
0.0
 10
11.253991216
 20
10.1674384777
 30
0.0
 10
11.2574787121
 20
10.1675301543
 30
0.0
 10
11.2609393435
 20
10.16797181
 30
0.0
 10
11.2643717832
 20
10.168746217
 30
0.0
 10
11.2689595676
 20
10.1702152356
 30
0.0
 10
11.2746459626
 20
10.1728338242
 30
0.0
 10
11.2789296728
 20
10.1755282663
 30
0.0
 10
11.2810527399
 20
10.1770164139
 30
0.0
  0
SPLINE
  5
3A3
100
AcDbEntity
  8
0
100
AcDbSpline
 62
7
  6
CONTINUOUS
 70
0
 71
3
 72
55
 73
51
 74
0
 42
0.0000001
 43
0.0000001
 44
0.0000000001
 40
0.0
 40
0.0
 40
0.0
 40
0.0
 40
0.0077403341
 40
0.0160536402
 40
0.0249598623
 40
0.0344711287
 40
0.0445943245
 40
0.0553311103
 40
0.0666791717
 40
0.0786331753
 40
0.0911842811
 40
0.1043217537
 40
0.1180322524
 40
0.1323005199
 40
0.147109859
 40
0.1624414338
 40
0.1782755067
 40
0.1945906822
 40
0.2285722865
 40
0.2641945926
 40
0.3012498561
 40
0.3395178674
 40
0.37876815
 40
0.4187620874
 40
0.4592551245
 40
0.4999987486
 40
0.5407423938
 40
0.5812354618
 40
0.6212294331
 40
0.6604797572
 40
0.6987478627
 40
0.7358032525
 40
0.7714256644
 40
0.8054073565
 40
0.8217226506
 40
0.8375567141
 40
0.8528884296
 40
0.8676978103
 40
0.8819661512
 40
0.8956767913
 40
0.9088142361
 40
0.9213654962
 40
0.9333195839
 40
0.9446677912
 40
0.955404691
 40
0.9655276214
 40
0.9750389343
 40
0.9839457869
 40
0.992260156
 40
1.0
 40
1.0
 40
1.0
 40
1.0
 10
11.2352656716
 20
10.1718740352
 30
0.0
 10
11.2368736295
 20
10.1703777035
 30
0.0
 10
11.2403350149
 20
10.1674085054
 30
0.0
 10
11.2460133318
 20
10.1631676788
 30
0.0
 10
11.2523499825
 20
10.1589910017
 30
0.0
 10
11.2593343507
 20
10.1548846023
 30
0.0
 10
11.2669558006
 20
10.150855158
 30
0.0
 10
11.2752020515
 20
10.1469088772
 30
0.0
 10
11.2840598889
 20
10.1430520454
 30
0.0
 10
11.2935150864
 20
10.1392912773
 30
0.0
 10
11.3035521907
 20
10.1356323132
 30
0.0
 10
11.3141549353
 20
10.1320815566
 30
0.0
 10
11.3253059497
 20
10.1286446857
 30
0.0
 10
11.3369869816
 20
10.1253273344
 30
0.0
 10
11.3491789058
 20
10.1221352568
 30
0.0
 10
11.3618616576
 20
10.1190733975
 30
0.0
 10
11.3750144443
 20
10.1161471032
 30
0.0
 10
11.3933995037
 20
10.1123813348
 30
0.0
 10
11.4174002846
 20
10.1080668687
 30
0.0
 10
11.4473343517
 20
10.1035669296
 30
0.0
 10
11.4785834376
 20
10.0997071089
 30
0.0
 10
11.5109419082
 20
10.0965132274
 30
0.0
 10
11.5441969968
 20
10.0940066873
 30
0.0
 10
11.5781298152
 20
10.0922042166
 30
0.0
 10
11.6125169885
 20
10.0911178676
 30
0.0
 10
11.6471321127
 20
10.0907549055
 30
0.0
 10
11.6817472467
 20
10.0911177958
 30
0.0
 10
11.7161344458
 20
10.0922041049
 30
0.0
 10
11.7500672962
 20
10.0940065416
 30
0.0
 10
11.7833224356
 20
10.0965130449
 30
0.0
 10
11.8156809875
 20
10.0997068587
 30
0.0
 10
11.8469301744
 20
10.1035666149
 30
0.0
 10
11.8768643422
 20
10.1080665032
 30
0.0
 10
11.9008652058
 20
10.1123810012
 30
0.0
 10
11.919250347
 20
10.1161466515
 30
0.0
 10
11.9324031899
 20
10.1190730192
 30
0.0
 10
11.9450860155
 20
10.12213478
 30
0.0
 10
11.9572780111
 20
10.1253268749
 30
0.0
 10
11.9689591143
 20
10.128644237
 30
0.0
 10
11.9801102164
 20
10.1320810067
 30
0.0
 10
11.990713012
 20
10.1356318494
 30
0.0
 10
12.0007502212
 20
10.1392906983
 30
0.0
 10
12.0102055172
 20
10.1430515188
 30
0.0
 10
12.0190634365
 20
10.1469084012
 30
0.0
 10
12.0273097566
 20
10.1508545368
 30
0.0
 10
12.0349311707
 20
10.1548839814
 30
0.0
 10
12.0419157556
 20
10.1589902434
 30
0.0
 10
12.0482527614
 20
10.1631672913
 30
0.0
 10
12.0539312719
 20
10.1674084169
 30
0.0
 10
12.0573929131
 20
10.1703775644
 30
0.0
 10
12.0590007883
 20
10.1718737808
 30
0.0
  0
SPLINE
  5
3A4
100
AcDbEntity
  8
0
100
AcDbSpline
 62
7
  6
CONTINUOUS
 70
0
 71
3
 72
69
 73
65
 74
0
 42
0.0000001
 43
0.0000001
 44
0.0000000001
 40
0.0
 40
0.0
 40
0.0
 40
0.0
 40
0.0078486444
 40
0.011525491
 40
0.0150505467
 40
0.0216952296
 40
0.024852921
 40
0.0279250607
 40
0.0309333397
 40
0.0339009863
 40
0.0368522248
 40
0.0398117036
 40
0.0428038878
 40
0.0458523906
 40
0.0489793775
 40
0.052205239
 40
0.0590208104
 40
0.0626451385
 40
0.0664292117
 40
0.0745139269
 40
0.08334171
 40
0.0929552291
 40
0.1033806187
 40
0.114631552
 40
0.126711678
 40
0.1396167584
 40
0.1533361209
 40
0.1678536007
 40
0.1831486278
 40
0.1991964446
 40
0.2159691279
 40
0.2334353586
 40
0.2515614594
 40
0.2703108941
 40
0.2896453365
 40
0.3095240288
 40
0.3299048522
 40
0.3719941041
 40
0.4155466199
 40
0.4601767864
 40
0.5054862054
 40
0.5510685731
 40
0.5965143891
 40
0.6414157219
 40
0.6853710257
 40
0.7279898963
 40
0.7486810452
 40
0.7688992635
 40
0.7886011676
 40
0.807744993
 40
0.8262908348
 40
0.8442008993
 40
0.8614395705
 40
0.8779739633
 40
0.8937737718
 40
0.9088121872
 40
0.9230656404
 40
0.9365152112
 40
0.9491461963
 40
0.9609499952
 40
0.9719245224
 40
0.9820776763
 40
0.9914266394
 40
1.0
 40
1.0
 40
1.0
 40
1.0
 10
11.2317852156
 20
10.7432323118
 30
0.0
 10
11.2300434138
 20
10.7415498604
 30
0.0
 10
11.2275972281
 20
10.738956195
 30
0.0
 10
11.2247232439
 20
10.7353051353
 30
0.0
 10
11.2222984367
 20
10.7317853008
 30
0.0
 10
11.2203135441
 20
10.7281629076
 30
0.0
 10
11.2188433631
 20
10.7244683322
 30
0.0
 10
11.2180179737
 20
10.72173613
 30
0.0
 10
11.2174527405
 20
10.7189982428
 30
0.0
 10
11.2171481756
 20
10.7162565912
 30
0.0
 10
11.2171045971
 20
10.7135134185
 30
0.0
 10
11.2173221021
 20
10.7107709687
 30
0.0
 10
11.217800663
 20
10.7080315076
 30
0.0
 10
11.2185395293
 20
10.7052972059
 30
0.0
 10
11.2195376718
 20
10.7025698
 30
0.0
 10
11.2212435474
 20
10.6988780647
 30
0.0
 10
11.2234564175
 20
10.6952687956
 30
0.0
 10
11.2261001774
 20
10.6917636469
 30
0.0
 10
11.2292047294
 20
10.6881249411
 30
0.0
 10
11.2337524304
 20
10.6836247239
 30
0.0
 10
11.240080232
 20
10.6784195491
 30
0.0
 10
11.247380823
 20
10.6733042494
 30
0.0
 10
11.2556372319
 20
10.6682892277
 30
0.0
 10
11.2648312741
 20
10.6633853258
 30
0.0
 10
11.274941858
 20
10.6586036144
 30
0.0
 10
11.2859456113
 20
10.6539552966
 30
0.0
 10
11.2978167477
 20
10.6494514501
 30
0.0
 10
11.3105272337
 20
10.645102809
 30
0.0
 10
11.3240468954
 20
10.6409200014
 30
0.0
 10
11.3383434897
 20
10.6369129805
 30
0.0
 10
11.3533828496
 20
10.6330916784
 30
0.0
 10
11.3691289469
 20
10.6294651185
 30
0.0
 10
11.3855440187
 20
10.6260423817
 30
0.0
 10
11.4025886568
 20
10.6228314679
 30
0.0
 10
11.4202218921
 20
10.6198405061
 30
0.0
 10
11.438401374
 20
10.6170763627
 30
0.0
 10
11.4635809103
 20
10.6136662925
 30
0.0
 10
11.4960973412
 20
10.6100372191
 30
0.0
 10
11.5361603674
 20
10.6067218159
 30
0.0
 10
11.5772901951
 20
10.6044334193
 30
0.0
 10
11.6190913035
 20
10.6031944331
 30
0.0
 10
11.6611620058
 20
10.6030170495
 30
0.0
 10
11.7030978274
 20
10.6039030106
 30
0.0
 10
11.7444957524
 20
10.6058435902
 30
0.0
 10
11.784957647
 20
10.6088198213
 30
0.0
 10
11.8178891765
 20
10.6121705322
 30
0.0
 10
11.8434639414
 20
10.6153632055
 30
0.0
 10
11.8619833431
 20
10.6179721539
 30
0.0
 10
11.879985506
 20
10.6208126266
 30
0.0
 10
11.8974271845
 20
10.623877761
 30
0.0
 10
11.9142664359
 20
10.627160173
 30
0.0
 10
11.930462818
 20
10.6306517891
 30
0.0
 10
11.9459774416
 20
10.6343442922
 30
0.0
 10
11.960773127
 20
10.6382285155
 30
0.0
 10
11.9748144272
 20
10.6422952938
 30
0.0
 10
11.9880678438
 20
10.6465344429
 30
0.0
 10
12.0005017777
 20
10.6509360858
 30
0.0
 10
12.0120868355
 20
10.6554892167
 30
0.0
 10
12.0227955492
 20
10.6601834026
 30
0.0
 10
12.0326030811
 20
10.6650068754
 30
0.0
 10
12.0414867156
 20
10.6699490741
 30
0.0
 10
12.0494269526
 20
10.6749989189
 30
0.0
 10
12.0564042979
 20
10.6801452196
 30
0.0
 10
12.0605788418
 20
10.6837855275
 30
0.0
 10
12.0624814754
 20
10.6856233306
 30
0.0
  0
SPLINE
  5
3A5
100
AcDbEntity
  8
0
100
AcDbSpline
 62
7
  6
CONTINUOUS
 70
0
 71
3
 72
28
 73
24
 74
0
 42
0.0000001
 43
0.0000001
 44
0.0000000001
 40
0.0
 40
0.0
 40
0.0
 40
0.0
 40
0.0683417894
 40
0.1318944582
 40
0.1911916903
 40
0.2469424229
 40
0.2737771035
 40
0.300072871
 40
0.3259647135
 40
0.3515944959
 40
0.3771085711
 40
0.4026553861
 40
0.4283829391
 40
0.454436097
 40
0.5080318425
 40
0.5644895246
 40
0.594076777
 40
0.6246829784
 40
0.6892404913
 40
0.7587126008
 40
0.8334899805
 40
0.91385377
 40
1.0
 40
1.0
 40
1.0
 40
1.0
 10
12.0624814754
 20
10.6856233306
 30
0.0
 10
12.0639458406
 20
10.6870377988
 30
0.0
 10
12.0666665808
 20
10.6898807251
 30
0.0
 10
12.0702049146
 20
10.6943563018
 30
0.0
 10
12.073036266
 20
10.698874873
 30
0.0
 10
12.0748213955
 20
10.7027214293
 30
0.0
 10
12.0758677788
 20
10.70579426
 30
0.0
 10
12.0764623236
 20
10.7080743913
 30
0.0
 10
12.0768757957
 20
10.7103577664
 30
0.0
 10
12.0771080735
 20
10.7126433012
 30
0.0
 10
12.077158998
 20
10.7149297967
 30
0.0
 10
12.0770285305
 20
10.7172160246
 30
0.0
 10
12.0767165925
 20
10.7195008728
 30
0.0
 10
12.0760530879
 20
10.7225719234
 30
0.0
 10
12.0747488302
 20
10.7264272823
 30
0.0
 10
12.0728838901
 20
10.7301591241
 30
0.0
 10
12.0710572467
 20
10.7331172468
 30
0.0
 10
12.0689270043
 20
10.7361647671
 30
0.0
 10
12.0657960198
 20
10.7399515112
 30
0.0
 10
12.0614054407
 20
10.7443680459
 30
0.0
 10
12.0563240156
 20
10.7487309931
 30
0.0
 10
12.0505605311
 20
10.7530341976
 30
0.0
 10
12.0464146993
 20
10.7557631782
 30
0.0
 10
12.0442365545
 20
10.7571203303
 30
0.0
  0
SPLINE
  5
3A6
100
AcDbEntity
  8
0
100
AcDbSpline
 62
7
  6
CONTINUOUS
 70
0
 71
3
 72
9
 73
5
 74
0
 42
0.0000001
 43
0.0000001
 44
0.0000000001
 40
0.0
 40
0.0
 40
0.0
 40
0.0
 40
0.4830467495
 40
1.0
 40
1.0
 40
1.0
 40
1.0
 10
12.0442365545
 20
10.7571203303
 30
0.0
 10
12.0417042474
 20
10.7586981528
 30
0.0
 10
12.0363665673
 20
10.7618129049
 30
0.0
 10
12.0308843813
 20
10.764663445
 30
0.0
 10
12.0280215585
 20
10.7660776376
 30
0.0
  0
SPLINE
  5
3A7
100
AcDbEntity
  8
0
100
AcDbSpline
 62
7
  6
CONTINUOUS
 70
0
 71
3
 72
18
 73
14
 74
0
 42
0.0000001
 43
0.0000001
 44
0.0000000001
 40
0.0
 40
0.0
 40
0.0
 40
0.0
 40
0.1504673397
 40
0.291710036
 40
0.4244360001
 40
0.5495624032
 40
0.6682140019
 40
0.7255497517
 40
0.7817912955
 40
0.8371402647
 40
0.891809381
 40
0.9460201143
 40
1.0
 40
1.0
 40
1.0
 40
1.0
 10
12.3344081361
 20
8.5755110134
 30
0.0
 10
12.3360902515
 20
8.5771358121
 30
0.0
 10
12.3394521018
 20
8.5801843567
 30
0.0
 10
12.3446578949
 20
8.5842470687
 30
0.0
 10
12.3498575778
 20
8.5876449161
 30
0.0
 10
12.3550457623
 20
8.590372314
 30
0.0
 10
12.3594063686
 20
8.5921018035
 30
0.0
 10
12.3628685028
 20
8.593129354
 30
0.0
 10
12.3654282234
 20
8.5937216214
 30
0.0
 10
12.3679794508
 20
8.5941437534
 30
0.0
 10
12.3705214731
 20
8.5943955794
 30
0.0
 10
12.3730532762
 20
8.5944769856
 30
0.0
 10
12.3747353341
 20
8.5944175014
 30
0.0
 10
12.3755723257
 20
8.5943594596
 30
0.0
  0
SPLINE
  5
3A8
100
AcDbEntity
  8
0
100
AcDbSpline
 62
7
  6
CONTINUOUS
 70
0
 71
3
 72
36
 73
32
 74
0
 42
0.0000001
 43
0.0000001
 44
0.0000000001
 40
0.0
 40
0.0
 40
0.0
 40
0.0
 40
0.0916962898
 40
0.1811618425
 40
0.2679298174
 40
0.3101617831
 40
0.3515528884
 40
0.3920508491
 40
0.4316051136
 40
0.4701670897
 40
0.5076902599
 40
0.5441302807
 40
0.5794453006
 40
0.6135961286
 40
0.6465463769
 40
0.6782628744
 40
0.7087159643
 40
0.7378797695
 40
0.7657327896
 40
0.7922584677
 40
0.8174457516
 40
0.8412900974
 40
0.8637946067
 40
0.8849712835
 40
0.9048429411
 40
0.9234455356
 40
0.9408308663
 40
0.9570701431
 40
0.97225807
 40
0.9865168954
 40
1.0
 40
1.0
 40
1.0
 40
1.0
 10
11.5354049277
 20
10.0327464757
 30
0.0
 10
11.5249829624
 20
10.0334692415
 30
0.0
 10
11.5044065685
 20
10.0351099732
 30
0.0
 10
11.4740355345
 20
10.0381987599
 30
0.0
 10
11.4493352571
 20
10.0412862695
 30
0.0
 10
11.4301202337
 20
10.0440528067
 30
0.0
 10
11.4161499829
 20
10.0462474288
 30
0.0
 10
11.4025110187
 20
10.0485772052
 30
0.0
 10
11.3892228713
 20
10.0510388176
 30
0.0
 10
11.3763045816
 20
10.0536287044
 30
0.0
 10
11.363774649
 20
10.0563431263
 30
0.0
 10
11.3516510174
 20
10.0591781868
 30
0.0
 10
11.3399510338
 20
10.0621297939
 30
0.0
 10
11.3286914268
 20
10.0651936823
 30
0.0
 10
11.3178882897
 20
10.0683654541
 30
0.0
 10
11.3075570413
 20
10.0716405385
 30
0.0
 10
11.2977124011
 20
10.0750142088
 30
0.0
 10
11.2883683805
 20
10.0784816344
 30
0.0
 10
11.2795382404
 20
10.0820378456
 30
0.0
 10
11.2712344632
 20
10.0856777456
 30
0.0
 10
11.2634687521
 20
10.0893961808
 30
0.0
 10
11.2562519895
 20
10.0931879205
 30
0.0
 10
11.2495942036
 20
10.0970476737
 30
0.0
 10
11.2435045912
 20
10.1009701944
 30
0.0
 10
11.2379914976
 20
10.1049503043
 30
0.0
 10
11.233062419
 20
10.1089829231
 30
0.0
 10
11.2287241179
 20
10.1130632754
 30
0.0
 10
11.2249828131
 20
10.1171867709
 30
0.0
 10
11.2218442161
 20
10.1213495006
 30
0.0
 10
11.2193145557
 20
10.1255463213
 30
0.0
 10
11.2180067438
 20
10.1284342775
 30
0.0
 10
11.2174672801
 20
10.1298725724
 30
0.0
  0
SPLINE
  5
3A9
100
AcDbEntity
  8
0
100
AcDbSpline
 62
7
  6
CONTINUOUS
 70
0
 71
3
 72
44
 73
40
 74
0
 42
0.0000001
 43
0.0000001
 44
0.0000000001
 40
0.0
 40
0.0
 40
0.0
 40
0.0
 40
0.0311441543
 40
0.0624413527
 40
0.0938856704
 40
0.1254674301
 40
0.1571744232
 40
0.1889918967
 40
0.2209029056
 40
0.2528886665
 40
0.2849289365
 40
0.3170024165
 40
0.3490871655
 40
0.3811610253
 40
0.4132020474
 40
0.4451889174
 40
0.477101372
 40
0.5089205996
 40
0.5406296198
 40
0.5722136396
 40
0.603660374
 40
0.6349603231
 40
0.6661070065
 40
0.6970971441
 40
0.7279307688
 40
0.7586112764
 40
0.7891454071
 40
0.8195431409
 40
0.8498175195
 40
0.8649161013
 40
0.8799900027
 40
0.8950415891
 40
0.9100733537
 40
0.9250879052
 40
0.9400879559
 40
0.9550763011
 40
0.9700558055
 40
0.9850293877
 40
1.0
 40
1.0
 40
1.0
 40
1.0
 10
10.6740678266
 20
7.1659883772
 30
0.0
 10
10.6844461257
 20
7.1652686397
 30
0.0
 10
10.7052087641
 20
7.1630659749
 30
0.0
 10
10.7361009947
 20
7.157517402
 30
0.0
 10
10.7666623427
 20
7.1497455353
 30
0.0
 10
10.7967277493
 20
7.139792127
 30
0.0
 10
10.8261374878
 20
7.1277105351
 30
0.0
 10
10.8547346855
 20
7.1135654183
 30
0.0
 10
10.8823669902
 20
7.097432336
 30
0.0
 10
10.9088871524
 20
7.0793974222
 30
0.0
 10
10.9341538943
 20
7.0595569425
 30
0.0
 10
10.9580325778
 20
7.0380167016
 30
0.0
 10
10.9803959285
 20
7.014891518
 30
0.0
 10
11.0011247761
 20
6.9903046805
 30
0.0
 10
11.0201086082
 20
6.9643872149
 30
0.0
 10
11.0372461381
 20
6.9372771995
 30
0.0
 10
11.0524459345
 20
6.909119101
 30
0.0
 10
11.06562685
 20
6.8800629644
 30
0.0
 10
11.0767184031
 20
6.8502636102
 30
0.0
 10
11.0856612335
 20
6.8198798601
 30
0.0
 10
11.0924074291
 20
6.7890736901
 30
0.0
 10
11.0969206971
 20
6.7580093576
 30
0.0
 10
11.0991766064
 20
6.7268525556
 30
0.0
 10
11.0991628148
 20
6.6957695493
 30
0.0
 10
11.0968790167
 20
6.6649262503
 30
0.0
 10
11.0923370278
 20
6.6344874811
 30
0.0
 10
11.0855606238
 20
6.6046156158
 30
0.0
 10
11.0765862112
 20
6.5754714418
 30
0.0
 10
11.0673050924
 20
6.5518954045
 30
0.0
 10
11.0588357431
 20
6.5335616542
 30
0.0
 10
11.0519747415
 20
6.5200987782
 30
0.0
 10
11.0446090817
 20
6.5069310449
 30
0.0
 10
11.0367484551
 20
6.4940758078
 30
0.0
 10
11.028403401
 20
6.4815503132
 30
0.0
 10
11.0195850858
 20
6.4693712535
 30
0.0
 10
11.0103052531
 20
6.457554964
 30
0.0
 10
11.0005762701
 20
6.4461171593
 30
0.0
 10
10.9904113756
 20
6.4350733115
 30
0.0
 10
10.983352404
 20
6.4279825129
 30
0.0
 10
10.979755621
 20
6.4245082961
 30
0.0
  0
SPLINE
  5
3AA
100
AcDbEntity
  8
0
100
AcDbSpline
 62
7
  6
CONTINUOUS
 70
0
 71
3
 72
50
 73
46
 74
0
 42
0.0000001
 43
0.0000001
 44
0.0000000001
 40
0.0
 40
0.0
 40
0.0
 40
0.0
 40
0.0311431289
 40
0.0624393576
 40
0.0938826422
 40
0.1254633877
 40
0.1571693586
 40
0.1889858073
 40
0.2208957881
 40
0.2528805179
 40
0.2849197558
 40
0.3169922025
 40
0.3490759178
 40
0.3811487443
 40
0.413188734
 40
0.4451745738
 40
0.4770860011
 40
0.5089042032
 40
0.5406122026
 40
0.5721952059
 40
0.6036409272
 40
0.6349398689
 40
0.6660855498
 40
0.6816023422
 40
0.6970798651
 40
0.7125182278
 40
0.7279177509
 40
0.7432789634
 40
0.7586026044
 40
0.7738896213
 40
0.7891411632
 40
0.8043585763
 40
0.8195434009
 40
0.8346973614
 40
0.8498223561
 40
0.8649204511
 40
0.879993868
 40
0.8950449698
 40
0.9100762497
 40
0.9250903183
 40
0.940089886
 40
0.9550777481
 40
0.9700567702
 40
0.9850298702
 40
1.0
 40
1.0
 40
1.0
 40
1.0
 10
10.6740678266
 20
9.3682993917
 30
0.0
 10
10.6881021039
 20
9.3673261112
 30
0.0
 10
10.7161788522
 20
9.3643474993
 30
0.0
 10
10.7579535671
 20
9.3568443502
 30
0.0
 10
10.7992808371
 20
9.3463346388
 30
0.0
 10
10.8399374471
 20
9.3328749229
 30
0.0
 10
10.879707442
 20
9.3165373576
 30
0.0
 10
10.9183786274
 20
9.2974092751
 30
0.0
 10
10.955745034
 20
9.275592964
 30
0.0
 10
10.9916075346
 20
9.2512048731
 30
0.0
 10
11.0257750398
 20
9.2243751252
 30
0.0
 10
11.0580655344
 20
9.1952468647
 30
0.0
 10
11.0883068808
 20
9.1639753222
 30
0.0
 10
11.1163379431
 20
9.1307272331
 30
0.0
 10
11.1420092528
 20
9.0956797577
 30
0.0
 10
11.1651838631
 20
9.0590196351
 30
0.0
 10
11.1857381704
 20
9.0209422367
 30
0.0
 10
11.2035623356
 20
8.9816504189
 30
0.0
 10
11.2185611522
 20
8.9413535639
 30
0.0
 10
11.230654338
 20
8.9002665365
 30
0.0
 10
11.2397770119
 20
8.8586079465
 30
0.0
 10
11.2458802145
 20
8.8166014457
 30
0.0
 10
11.2484256382
 20
8.7814430858
 30
0.0
 10
11.2489215549
 20
8.7533724375
 30
0.0
 10
11.2485255057
 20
8.7323966787
 30
0.0
 10
11.2473623085
 20
8.7115027474
 30
0.0
 10
11.245433552
 20
8.6907181933
 30
0.0
 10
11.2427417435
 20
8.6700708718
 30
0.0
 10
11.2392904795
 20
8.6495883344
 30
0.0
 10
11.2350843822
 20
8.6292979397
 30
0.0
 10
11.2301290252
 20
8.6092267943
 30
0.0
 10
11.2244309965
 20
8.589401717
 30
0.0
 10
11.2179979337
 20
8.5698491813
 30
0.0
 10
11.2108384055
 20
8.5505953114
 30
0.0
 10
11.2029619255
 20
8.5316658485
 30
0.0
 10
11.1943790435
 20
8.513086071
 30
0.0
 10
11.1851012205
 20
8.4948808011
 30
0.0
 10
11.1751408025
 20
8.4770743876
 30
0.0
 10
11.1645111078
 20
8.4596906176
 30
0.0
 10
11.1532263547
 20
8.442752709
 30
0.0
 10
11.1413015806
 20
8.4262833109
 30
0.0
 10
11.1287527292
 20
8.4103044611
 30
0.0
 10
11.1155965166
 20
8.3948374143
 30
0.0
 10
11.1018508074
 20
8.3799031267
 30
0.0
 10
11.0923051678
 20
8.370314423
 30
0.0
 10
11.0874413391
 20
8.3656163339
 30
0.0
  0
SPLINE
  5
3AB
100
AcDbEntity
  8
0
100
AcDbSpline
 62
7
  6
CONTINUOUS
 70
0
 71
3
 72
31
 73
27
 74
0
 42
0.0000001
 43
0.0000001
 44
0.0000000001
 40
0.0
 40
0.0
 40
0.0
 40
0.0
 40
0.092385693
 40
0.1816390509
 40
0.2674086155
 40
0.3493871893
 40
0.4273210507
 40
0.5010132421
 40
0.5703213315
 40
0.6351526646
 40
0.6658809932
 40
0.6954757073
 40
0.72393744
 40
0.7512699509
 40
0.7774798741
 40
0.8025781497
 40
0.8265798463
 40
0.849506257
 40
0.8713853022
 40
0.8922541354
 40
0.912160497
 40
0.9311656306
 40
0.9493465508
 40
0.9667985045
 40
0.9836373985
 40
1.0
 40
1.0
 40
1.0
 40
1.0
 10
10.6233110703
 20
9.1683578451
 30
0.0
 10
10.6221466448
 20
9.1639726449
 30
0.0
 10
10.6201212638
 20
9.1552778089
 30
0.0
 10
10.6179798913
 20
9.1423113894
 30
0.0
 10
10.6167740039
 20
9.1297371665
 30
0.0
 10
10.616476896
 20
9.1176645366
 30
0.0
 10
10.6170441965
 20
9.1061950602
 30
0.0
 10
10.6184164049
 20
9.0954203548
 30
0.0
 10
10.62052149
 20
9.0854214393
 30
0.0
 10
10.6228596106
 20
9.0776575224
 30
0.0
 10
10.6250337281
 20
9.0719063891
 30
0.0
 10
10.6267652989
 20
9.0679027802
 30
0.0
 10
10.6286155563
 20
9.0641375902
 30
0.0
 10
10.6305731146
 20
9.0606159803
 30
0.0
 10
10.6326265888
 20
9.0573427634
 30
0.0
 10
10.6347646012
 20
9.0543223128
 30
0.0
 10
10.6369759523
 20
9.0515586706
 30
0.0
 10
10.6392495382
 20
9.0490555424
 30
0.0
 10
10.6415745164
 20
9.0468163764
 30
0.0
 10
10.6439402479
 20
9.0448443631
 30
0.0
 10
10.646336413
 20
9.0431425084
 30
0.0
 10
10.6487529959
 20
9.0417136424
 30
0.0
 10
10.6511802622
 20
9.0405604824
 30
0.0
 10
10.653608944
 20
9.0396856509
 30
0.0
 10
10.6560293923
 20
9.0390916607
 30
0.0
 10
10.6576507346
 20
9.0388820773
 30
0.0
 10
10.6584524014
 20
9.0388265758
 30
0.0
  0
SPLINE
  5
3AC
100
AcDbEntity
  8
0
100
AcDbSpline
 62
7
  6
CONTINUOUS
 70
0
 71
3
 72
33
 73
29
 74
0
 42
0.0000001
 43
0.0000001
 44
0.0000000001
 40
0.0
 40
0.0
 40
0.0
 40
0.0
 40
0.0313257604
 40
0.0626139601
 40
0.0938615473
 40
0.1250716984
 40
0.1562465231
 40
0.1873902865
 40
0.2185086335
 40
0.2496083767
 40
0.2806972933
 40
0.3117838545
 40
0.3428770444
 40
0.3739858665
 40
0.4051189589
 40
0.436284378
 40
0.4674891953
 40
0.4987390469
 40
0.5613710472
 40
0.6242036806
 40
0.6556931762
 40
0.6872153233
 40
0.7502913939
 40
0.8133091759
 40
0.8447463559
 40
0.8760957286
 40
0.9384005225
 40
1.0
 40
1.0
 40
1.0
 40
1.0
 10
10.9033782083
 20
6.7586674602
 30
0.0
 10
10.8999859622
 20
6.7587709022
 30
0.0
 10
10.8932095801
 20
6.7591556751
 30
0.0
 10
10.8830972931
 20
6.7602701683
 30
0.0
 10
10.8730710714
 20
6.7619217494
 30
0.0
 10
10.8631601562
 20
6.7641072205
 30
0.0
 10
10.8533923028
 20
6.7668208906
 30
0.0
 10
10.843794433
 20
6.7700541266
 30
0.0
 10
10.8343919226
 20
6.7737958076
 30
0.0
 10
10.8252084854
 20
6.7780325848
 30
0.0
 10
10.8162659938
 20
6.7827491759
 30
0.0
 10
10.8075843556
 20
6.7879286582
 30
0.0
 10
10.7991814789
 20
6.7935527778
 30
0.0
 10
10.7910733811
 20
6.7996023294
 30
0.0
 10
10.7832742906
 20
6.8060574349
 30
0.0
 10
10.7757968127
 20
6.8128976342
 30
0.0
 10
10.7686518973
 20
6.8201024065
 30
0.0
 10
10.7595766901
 20
6.8301726531
 30
0.0
 10
10.7491094233
 20
6.8435734115
 30
0.0
 10
10.7398823606
 20
6.8578846405
 30
0.0
 10
10.7332594127
 20
6.8698060925
 30
0.0
 10
10.7271450866
 20
6.8820257737
 30
0.0
 10
10.7204866926
 20
6.8977736754
 30
0.0
 10
10.7151709686
 20
6.9140136117
 30
0.0
 10
10.7117454184
 20
6.9272092537
 30
0.0
 10
10.7088876484
 20
6.9404604241
 30
0.0
 10
10.706370558
 20
6.9571116797
 30
0.0
 10
10.705491649
 20
6.9705257293
 30
0.0
 10
10.7053466042
 20
6.9771978207
 30
0.0
  0
SPLINE
  5
3AD
100
AcDbEntity
  8
0
100
AcDbSpline
 62
7
  6
CONTINUOUS
 70
0
 71
3
 72
23
 73
19
 74
0
 42
0.0000001
 43
0.0000001
 44
0.0000000001
 40
0.0
 40
0.0
 40
0.0
 40
0.0
 40
0.0657733183
 40
0.1313757969
 40
0.1967108811
 40
0.2616911163
 40
0.326241448
 40
0.3903006122
 40
0.4538221661
 40
0.5167746567
 40
0.5791407806
 40
0.6409158645
 40
0.7021061177
 40
0.7627265324
 40
0.8227989152
 40
0.8823486964
 40
0.9414069063
 40
1.0
 40
1.0
 40
1.0
 40
1.0
 10
10.9468216438
 20
8.7237890331
 30
0.0
 10
10.9422354002
 20
8.7238200223
 30
0.0
 10
10.9330746084
 20
8.7241104757
 30
0.0
 10
10.9193993725
 20
8.7252479613
 30
0.0
 10
10.9058568368
 20
8.7270937692
 30
0.0
 10
10.8925042286
 20
8.7296466407
 30
0.0
 10
10.879395657
 20
8.7328973345
 30
0.0
 10
10.8665813825
 20
8.7368292098
 30
0.0
 10
10.8541064954
 20
8.7414190971
 30
0.0
 10
10.8420101691
 20
8.746638437
 30
0.0
 10
10.8303252385
 20
8.7524545307
 30
0.0
 10
10.8190781533
 20
8.7588318075
 30
0.0
 10
10.8082892292
 20
8.7657330086
 30
0.0
 10
10.7979730917
 20
8.7731202288
 30
0.0
 10
10.7881394223
 20
8.7809557419
 30
0.0
 10
10.7787933226
 20
8.7892027954
 30
0.0
 10
10.7699369066
 20
8.7978255875
 30
0.0
 10
10.7643364913
 20
8.8038252596
 30
0.0
 10
10.7616190186
 20
8.8068761733
 30
0.0
  0
SPLINE
  5
3AE
100
AcDbEntity
  8
0
100
AcDbSpline
 62
7
  6
CONTINUOUS
 70
0
 71
3
 72
13
 73
9
 74
0
 42
0.0000001
 43
0.0000001
 44
0.0000000001
 40
0.0
 40
0.0
 40
0.0
 40
0.0
 40
0.2455405504
 40
0.4949931894
 40
0.620772202
 40
0.7469911092
 40
0.8734643215
 40
1.0
 40
1.0
 40
1.0
 40
1.0
 10
11.048201148
 20
8.7407197353
 30
0.0
 10
11.040187699
 20
8.7380409324
 30
0.0
 10
11.0238383627
 20
8.7332031703
 30
0.0
 10
11.0029313005
 20
8.7287055802
 30
0.0
 10
10.9858657045
 20
8.7261227538
 30
0.0
 10
10.972912699
 20
8.7247271426
 30
0.0
 10
10.9598846371
 20
8.7239069834
 30
0.0
 10
10.9511757865
 20
8.7237596121
 30
0.0
 10
10.9468216438
 20
8.7237890331
 30
0.0
  0
SPLINE
  5
3AF
100
AcDbEntity
  8
0
100
AcDbSpline
 62
7
  6
CONTINUOUS
 70
0
 71
3
 72
24
 73
20
 74
0
 42
0.0000001
 43
0.0000001
 44
0.0000000001
 40
0.0
 40
0.0
 40
0.0
 40
0.0
 40
0.0664696696
 40
0.1324181238
 40
0.1978770479
 40
0.262879749
 40
0.3915639146
 40
0.455296335
 40
0.5186037623
 40
0.5814617934
 40
0.6438250641
 40
0.7056236521
 40
0.766749327
 40
0.8270425747
 40
0.8862726477
 40
0.9153889961
 40
0.9440983726
 40
0.9723305728
 40
1.0
 40
1.0
 40
1.0
 40
1.0
 10
10.761443872
 20
8.8073904808
 30
0.0
 10
10.7584047178
 20
8.8108186765
 30
0.0
 10
10.7525279542
 20
8.8178080479
 30
0.0
 10
10.7442905457
 20
8.8286846303
 30
0.0
 10
10.7366566823
 20
8.8398712403
 30
0.0
 10
10.7273026346
 20
8.8550934511
 30
0.0
 10
10.7190693549
 20
8.8708424598
 30
0.0
 10
10.7119485035
 20
8.8869698326
 30
0.0
 10
10.7071765227
 20
8.8991620127
 30
0.0
 10
10.7029498368
 20
8.9114534431
 30
0.0
 10
10.6992628394
 20
8.9238088945
 30
0.0
 10
10.6961127031
 20
8.9361887248
 30
0.0
 10
10.6935003105
 20
8.9485473509
 30
0.0
 10
10.6914311964
 20
8.9608288965
 30
0.0
 10
10.6901615736
 20
8.9709984775
 30
0.0
 10
10.6894365787
 20
8.9790344404
 30
0.0
 10
10.6890440616
 20
8.9849535398
 30
0.0
 10
10.6888043835
 20
8.9907809682
 30
0.0
 10
10.6887495065
 20
8.9946341645
 30
0.0
 10
10.6887507032
 20
8.9965412593
 30
0.0
  0
SPLINE
  5
3B0
100
AcDbEntity
  8
0
100
AcDbSpline
 62
7
  6
CONTINUOUS
 70
0
 71
3
 72
23
 73
19
 74
0
 42
0.0000001
 43
0.0000001
 44
0.0000000001
 40
0.0
 40
0.0
 40
0.0
 40
0.0
 40
0.0616482057
 40
0.123319439
 40
0.1850364697
 40
0.2468215573
 40
0.308696204
 40
0.3706809203
 40
0.4327950036
 40
0.4950563332
 40
0.5574811873
 40
0.6200840738
 40
0.6828776141
 40
0.7458723365
 40
0.8090768798
 40
0.872497055
 40
0.9361379958
 40
1.0
 40
1.0
 40
1.0
 40
1.0
 10
10.3683800321
 20
7.0574536809
 30
0.0
 10
10.3733177301
 20
7.0622231189
 30
0.0
 10
10.3834536979
 20
7.0715000415
 30
0.0
 10
10.3993866067
 20
7.0845808769
 30
0.0
 10
10.4160113878
 20
7.0967970807
 30
0.0
 10
10.4332855731
 20
7.108117351
 30
0.0
 10
10.45116578
 20
7.1185133311
 30
0.0
 10
10.4696069063
 20
7.1279588184
 30
0.0
 10
10.4885624917
 20
7.136430061
 30
0.0
 10
10.5079847694
 20
7.1439057576
 30
0.0
 10
10.5278248051
 20
7.1503671269
 30
0.0
 10
10.5480326213
 20
7.1557979504
 30
0.0
 10
10.5685573143
 20
7.1601845987
 30
0.0
 10
10.5893472232
 20
7.1635161028
 30
0.0
 10
10.6103499196
 20
7.1657840928
 30
0.0
 10
10.631512797
 20
7.166982981
 30
0.0
 10
10.6527818015
 20
7.1671097495
 30
0.0
 10
10.6669733299
 20
7.1664803823
 30
0.0
 10
10.6740678266
 20
7.1659883772
 30
0.0
  0
SPLINE
  5
3B1
100
AcDbEntity
  8
0
100
AcDbSpline
 62
7
  6
CONTINUOUS
 70
0
 71
3
 72
23
 73
19
 74
0
 42
0.0000001
 43
0.0000001
 44
0.0000000001
 40
0.0
 40
0.0
 40
0.0
 40
0.0
 40
0.0616482106
 40
0.123319444
 40
0.1850364734
 40
0.2468215626
 40
0.3086962119
 40
0.3706809251
 40
0.4327950031
 40
0.4950563302
 40
0.5574811826
 40
0.6200840855
 40
0.6828775753
 40
0.7458723551
 40
0.8090769809
 40
0.8724965648
 40
0.9361390258
 40
1.0
 40
1.0
 40
1.0
 40
1.0
 10
10.5227080392
 20
6.9215058052
 30
0.0
 10
10.5253452229
 20
6.9240531304
 30
0.0
 10
10.5307587555
 20
6.929007878
 30
0.0
 10
10.5392683915
 20
6.9359942672
 30
0.0
 10
10.5481475434
 20
6.9425188747
 30
0.0
 10
10.5573735391
 20
6.9485649722
 30
0.0
 10
10.5669232201
 20
6.9541173927
 30
0.0
 10
10.5767724817
 20
6.9591621654
 30
0.0
 10
10.5868965068
 20
6.9636866136
 30
0.0
 10
10.5972697891
 20
6.9676793523
 30
0.0
 10
10.6078662024
 20
6.971130326
 30
0.0
 10
10.6186590418
 20
6.9740308906
 30
0.0
 10
10.6296211224
 20
6.9763737884
 30
0.0
 10
10.6407248597
 20
6.9781531366
 30
0.0
 10
10.6519422165
 20
6.9793644333
 30
0.0
 10
10.6632452089
 20
6.980004782
 30
0.0
 10
10.6746048185
 20
6.98007245
 30
0.0
 10
10.6821844368
 20
6.9797363344
 30
0.0
 10
10.685973493
 20
6.9794735625
 30
0.0
  0
SPLINE
  5
3B2
100
AcDbEntity
  8
0
100
AcDbSpline
 62
7
  6
CONTINUOUS
 70
0
 71
3
 72
41
 73
37
 74
0
 42
0.0000001
 43
0.0000001
 44
0.0000000001
 40
0.0
 40
0.0
 40
0.0
 40
0.0
 40
0.0299390219
 40
0.059901714
 40
0.089911187
 40
0.1199894485
 40
0.1501568949
 40
0.1804318493
 40
0.2108301609
 40
0.2413648728
 40
0.272045965
 40
0.3028801764
 40
0.3338709045
 40
0.3650181821
 40
0.396318727
 40
0.4277660593
 40
0.4593506796
 40
0.4910603016
 40
0.5228801323
 40
0.5547931918
 40
0.5867806682
 40
0.6188222973
 40
0.6508967648
 40
0.6829821217
 40
0.715056209
 40
0.7310844894
 40
0.7471017679
 40
0.7790881331
 40
0.8109997454
 40
0.8269239678
 40
0.8428226015
 40
0.8745301998
 40
0.9061125375
 40
0.937557485
 40
0.9688552819
 40
1.0
 40
1.0
 40
1.0
 40
1.0
 10
10.8492389468
 20
6.5834561545
 30
0.0
 10
10.8530806
 20
6.5871669085
 30
0.0
 10
10.860479219
 20
6.5948960239
 30
0.0
 10
10.8706403063
 20
6.6073275287
 30
0.0
 10
10.8798151236
 20
6.6205351398
 30
0.0
 10
10.8879537074
 20
6.6344472089
 30
0.0
 10
10.8950128624
 20
6.6489894625
 30
0.0
 10
10.9009548925
 20
6.6640839692
 30
0.0
 10
10.9057481992
 20
6.6796499556
 30
0.0
 10
10.9093673325
 20
6.6956041434
 30
0.0
 10
10.9117931461
 20
6.7118612287
 30
0.0
 10
10.9130128803
 20
6.7283343332
 30
0.0
 10
10.9130202212
 20
6.7449354713
 30
0.0
 10
10.9118153252
 20
6.7615760176
 30
0.0
 10
10.9094048104
 20
6.7781671765
 30
0.0
 10
10.9058017107
 20
6.7946204517
 30
0.0
 10
10.9010254012
 20
6.8108481121
 30
0.0
 10
10.8951014903
 20
6.8267636529
 30
0.0
 10
10.8880616801
 20
6.8422822516
 30
0.0
 10
10.8799435991
 20
6.8573212106
 30
0.0
 10
10.8707905897
 20
6.8718004026
 30
0.0
 10
10.8606515227
 20
6.885642655
 30
0.0
 10
10.8495803698
 20
6.8987742929
 30
0.0
 10
10.8376365493
 20
6.9111250191
 30
0.0
 10
10.8270052156
 20
6.920715141
 30
0.0
 10
10.818128686
 20
6.9279333422
 30
0.0
 10
10.8090231074
 20
6.9348345472
 30
0.0
 10
10.7972241077
 20
6.9428584997
 30
0.0
 10
10.7849159006
 20
6.9500444922
 30
0.0
 10
10.7748108147
 20
6.9552614736
 30
0.0
 10
10.7645639368
 20
6.9601094777
 30
0.0
 10
10.7514847525
 20
6.9654825089
 30
0.0
 10
10.7354273884
 20
6.9707983882
 30
0.0
 10
10.7191047888
 20
6.9749493077
 30
0.0
 10
10.7026055642
 20
6.977912738
 30
0.0
 10
10.6915164379
 20
6.979089158
 30
0.0
 10
10.685973493
 20
6.9794735625
 30
0.0
  0
SPLINE
  5
3B3
100
AcDbEntity
  8
0
100
AcDbSpline
 62
7
  6
CONTINUOUS
 70
0
 71
3
 72
27
 73
23
 74
0
 42
0.0000001
 43
0.0000001
 44
0.0000000001
 40
0.0
 40
0.0
 40
0.0
 40
0.0
 40
0.06164689
 40
0.0924803204
 40
0.1233223709
 40
0.1850380842
 40
0.2468218522
 40
0.2777487695
 40
0.3087006862
 40
0.3706840773
 40
0.432796832
 40
0.4950568298
 40
0.5574803489
 40
0.6200818994
 40
0.6828740929
 40
0.7143476873
 40
0.7458727129
 40
0.8090758403
 40
0.872494838
 40
0.9042889691
 40
0.9361391443
 40
1.0
 40
1.0
 40
1.0
 40
1.0
 10
10.260694314
 20
9.221530648
 30
0.0
 10
10.2673714313
 20
9.227980236
 30
0.0
 10
10.2776512635
 20
9.2373887792
 30
0.0
 10
10.291846134
 20
9.2493657851
 30
0.0
 10
10.3063660248
 20
9.2609639812
 30
0.0
 10
10.3251048545
 20
9.274733744
 30
0.0
 10
10.3445652863
 20
9.2874866172
 30
0.0
 10
10.3605391632
 20
9.2970624879
 30
0.0
 10
10.3767890314
 20
9.3062234519
 30
0.0
 10
10.3975809229
 20
9.3168730837
 30
0.0
 10
10.4232137956
 20
9.3283283698
 30
0.0
 10
10.4494780771
 20
9.3384376121
 30
0.0
 10
10.4763072888
 20
9.3471751674
 30
0.0
 10
10.503633501
 20
9.354519094
 30
0.0
 10
10.5267456026
 20
9.3594587044
 30
0.0
 10
10.5454111559
 20
9.3626981374
 30
0.0
 10
10.5642151852
 20
9.3654650815
 30
0.0
 10
10.5879038365
 20
9.3680231918
 30
0.0
 10
10.6117323095
 20
9.3693730146
 30
0.0
 10
10.6308652376
 20
9.3697298554
 30
0.0
 10
10.6500672221
 20
9.3696036124
 30
0.0
 10
10.6644740926
 20
9.3689647194
 30
0.0
 10
10.6740678266
 20
9.3682993917
 30
0.0
  0
SPLINE
  5
3B4
100
AcDbEntity
  8
0
100
AcDbSpline
 62
7
  6
CONTINUOUS
 70
0
 71
3
 72
23
 73
19
 74
0
 42
0.0000001
 43
0.0000001
 44
0.0000000001
 40
0.0
 40
0.0
 40
0.0
 40
0.0
 40
0.0616482071
 40
0.1233194423
 40
0.1850364754
 40
0.2468215648
 40
0.3086962113
 40
0.3706809251
 40
0.4327950039
 40
0.4950563299
 40
0.5574811805
 40
0.6200840695
 40
0.682877611
 40
0.7458723236
 40
0.8090769236
 40
0.8724969197
 40
0.9361382346
 40
1.0
 40
1.0
 40
1.0
 40
1.0
 10
10.4280317101
 20
9.0772939379
 30
0.0
 10
10.4322399843
 20
9.0813588157
 30
0.0
 10
10.4408785853
 20
9.0892653434
 30
0.0
 10
10.4544577836
 20
9.1004138481
 30
0.0
 10
10.468626648
 20
9.1108254511
 30
0.0
 10
10.4833489939
 20
9.1204734605
 30
0.0
 10
10.4985878398
 20
9.1293337168
 30
0.0
 10
10.5143047439
 20
9.1373838921
 30
0.0
 10
10.5304601076
 20
9.1446037474
 30
0.0
 10
10.5470132217
 20
9.1509751275
 30
0.0
 10
10.563922383
 20
9.1564820217
 30
0.0
 10
10.5811449993
 20
9.1611105979
 30
0.0
 10
10.5986376844
 20
9.1648492389
 30
0.0
 10
10.616356412
 20
9.1676886083
 30
0.0
 10
10.6342564777
 20
9.1696215562
 30
0.0
 10
10.6522930967
 20
9.1706433635
 30
0.0
 10
10.6704201387
 20
9.1707513934
 30
0.0
 10
10.6825152401
 20
9.1702150089
 30
0.0
 10
10.6885616813
 20
9.1697956868
 30
0.0
  0
SPLINE
  5
3B5
100
AcDbEntity
  8
0
100
AcDbSpline
 62
7
  6
CONTINUOUS
 70
0
 71
3
 72
39
 73
35
 74
0
 42
0.0000001
 43
0.0000001
 44
0.0000000001
 40
0.0
 40
0.0
 40
0.0
 40
0.0
 40
0.0299393047
 40
0.0599022801
 40
0.0899120371
 40
0.1199905837
 40
0.1501583157
 40
0.1804335568
 40
0.2108321569
 40
0.2413671588
 40
0.2720485416
 40
0.3028830442
 40
0.3338740651
 40
0.3650216374
 40
0.3963224781
 40
0.4277701073
 40
0.4593550264
 40
0.4910649494
 40
0.522885082
 40
0.5547984439
 40
0.586786223
 40
0.6188281554
 40
0.6509029262
 40
0.6829885862
 40
0.7150629769
 40
0.7471041563
 40
0.7790908245
 40
0.8110027389
 40
0.842821116
 40
0.8745290096
 40
0.9061116585
 40
0.9375568878
 40
0.9688549526
 40
1.0
 40
1.0
 40
1.0
 40
1.0
 10
10.9490916525
 20
8.5378530229
 30
0.0
 10
10.9552219538
 20
8.543774435
 30
0.0
 10
10.9670282611
 20
8.5561081294
 30
0.0
 10
10.9832427757
 20
8.575945626
 30
0.0
 10
10.9978834375
 20
8.5970216047
 30
0.0
 10
11.0108705376
 20
8.6192217163
 30
0.0
 10
11.0221351523
 20
8.6424274375
 30
0.0
 10
11.0316171258
 20
8.6665144129
 30
0.0
 10
11.0392660114
 20
8.6913537568
 30
0.0
 10
11.04504121
 20
8.7168125711
 30
0.0
 10
11.0489121847
 20
8.7427547291
 30
0.0
 10
11.0508585755
 20
8.7690415974
 30
0.0
 10
11.0508702901
 20
8.7955327755
 30
0.0
 10
11.0489475765
 20
8.8220868381
 30
0.0
 10
11.0451010138
 20
8.8485620918
 30
0.0
 10
11.0393514001
 20
8.8748173209
 30
0.0
 10
11.0317296395
 20
8.9007125271
 30
0.0
 10
11.0222765807
 20
8.9261096644
 30
0.0
 10
11.0110428354
 20
8.9508733831
 30
0.0
 10
10.9980884503
 20
8.9748717248
 30
0.0
 10
10.9834825958
 20
8.9979768156
 30
0.0
 10
10.967303195
 20
9.0200655317
 30
0.0
 10
10.9496365575
 20
9.0410201814
 30
0.0
 10
10.9305768816
 20
9.0607291028
 30
0.0
 10
10.9102257543
 20
9.0790872458
 30
0.0
 10
10.8886916129
 20
9.095996718
 30
0.0
 10
10.8660892048
 20
9.1113673362
 30
0.0
 10
10.8425389652
 20
9.1251170986
 30
0.0
 10
10.8181663827
 20
9.1371725918
 30
0.0
 10
10.7931012864
 20
9.1474693788
 30
0.0
 10
10.7674773776
 20
9.1559523706
 30
0.0
 10
10.7414308039
 20
9.1625761109
 30
0.0
 10
10.7151022249
 20
9.16730501
 30
0.0
 10
10.697406816
 20
9.1691822746
 30
0.0
 10
10.6885616813
 20
9.1697956868
 30
0.0
  0
SPLINE
  5
3B6
100
AcDbEntity
  8
0
100
AcDbSpline
 62
7
  6
CONTINUOUS
 70
0
 71
3
 72
11
 73
7
 74
0
 42
0.0000001
 43
0.0000001
 44
0.0000000001
 40
0.0
 40
0.0
 40
0.0
 40
0.0
 40
0.2897492774
 40
0.5460389192
 40
0.7796344763
 40
1.0
 40
1.0
 40
1.0
 40
1.0
 10
11.21746727
 20
10.1298725722
 30
0.0
 10
11.2173198768
 20
10.1302655487
 30
0.0
 10
11.2170708418
 20
10.1310174246
 30
0.0
 10
11.2168091376
 20
10.1321175214
 30
0.0
 10
11.2166648324
 20
10.1331376051
 30
0.0
 10
11.2166333455
 20
10.1337955355
 30
0.0
 10
11.2166333455
 20
10.1341147401
 30
0.0
  0
SPLINE
  5
3B7
100
AcDbEntity
  8
0
100
AcDbSpline
 62
7
  6
CONTINUOUS
 70
0
 71
3
 72
11
 73
7
 74
0
 42
0.0000001
 43
0.0000001
 44
0.0000000001
 40
0.0
 40
0.0
 40
0.0
 40
0.0
 40
0.2203655244
 40
0.4539610799
 40
0.7102507243
 40
1.0
 40
1.0
 40
1.0
 40
1.0
 10
12.0776333455
 20
10.1341147401
 30
0.0
 10
12.0776333455
 20
10.1337955355
 30
0.0
 10
12.0776018586
 20
10.1331376051
 30
0.0
 10
12.0774575534
 20
10.1321175214
 30
0.0
 10
12.0771958492
 20
10.1310174246
 30
0.0
 10
12.0769468142
 20
10.1302655487
 30
0.0
 10
12.076799421
 20
10.1298725722
 30
0.0
  0
SPLINE
  5
3B8
100
AcDbEntity
  8
0
100
AcDbSpline
 62
7
  6
CONTINUOUS
 70
0
 71
3
 72
50
 73
46
 74
0
 42
0.0000001
 43
0.0000001
 44
0.0000000001
 40
0.0
 40
0.0
 40
0.0
 40
0.0
 40
0.0057940444
 40
0.0118133012
 40
0.0180949137
 40
0.0246707923
 40
0.0315680343
 40
0.038809168
 40
0.0464128131
 40
0.0543939714
 40
0.0627646715
 40
0.0715341833
 40
0.0807095567
 40
0.0902957495
 40
0.1002960479
 40
0.110712136
 40
0.1215444071
 40
0.1327920086
 40
0.1444530581
 40
0.1565246872
 40
0.1690031768
 40
0.1818840157
 40
0.1951619657
 40
0.208831145
 40
0.2373157919
 40
0.2672802406
 40
0.298657941
 40
0.3313753898
 40
0.3653529206
 40
0.4005053791
 40
0.4367427165
 40
0.4739705258
 40
0.5120905366
 40
0.5510010812
 40
0.5905975399
 40
0.6307727714
 40
0.6714175329
 40
0.7124208942
 40
0.7536706433
 40
0.7950536982
 40
0.8364564909
 40
0.8777654243
 40
0.9188671243
 40
0.9596492066
 40
1.0
 40
1.0
 40
1.0
 40
1.0
 10
12.0767994205
 20
10.1298725722
 30
0.0
 10
12.0764159163
 20
10.1288500896
 30
0.0
 10
12.0755351285
 20
10.1268013103
 30
0.0
 10
12.0739207286
 20
10.1237929819
 30
0.0
 10
12.0719923059
 20
10.1207989573
 30
0.0
 10
12.0697519186
 20
10.1178214221
 30
0.0
 10
12.0672013524
 20
10.1148621692
 30
0.0
 10
12.064342696
 20
10.1119229944
 30
0.0
 10
12.0611780226
 20
10.1090058284
 30
0.0
 10
12.0577096955
 20
10.1061125065
 30
0.0
 10
12.053940165
 20
10.1032450324
 30
0.0
 10
12.0498721718
 20
10.1004053052
 30
0.0
 10
12.0455086003
 20
10.0975953613
 30
0.0
 10
12.0408526103
 20
10.0948171336
 30
0.0
 10
12.0359075357
 20
10.0920726525
 30
0.0
 10
12.0306769652
 20
10.0893638551
 30
0.0
 10
12.0251646767
 20
10.0866927373
 30
0.0
 10
12.0193746827
 20
10.0840612177
 30
0.0
 10
12.0133111919
 20
10.0814712384
 30
0.0
 10
12.0069786295
 20
10.0789246839
 30
0.0
 10
12.0003816173
 20
10.0764234284
 30
0.0
 10
11.9935249819
 20
10.073969315
 30
0.0
 10
11.9864137327
 20
10.0715641216
 30
0.0
 10
11.9764624611
 20
10.0683810601
 30
0.0
 10
11.9634192967
 20
10.0645478133
 30
0.0
 10
11.9470467164
 20
10.0602310008
 30
0.0
 10
11.9297932364
 20
10.05614919
 30
0.0
 10
11.9117094711
 20
10.0523144819
 30
0.0
 10
11.892848347
 20
10.0487382644
 30
0.0
 10
11.8732651808
 20
10.0454311492
 30
0.0
 10
11.8530174334
 20
10.0424029477
 30
0.0
 10
11.8321645527
 20
10.03966264
 30
0.0
 10
11.8107677864
 20
10.037218349
 30
0.0
 10
11.7888899985
 20
10.0350773178
 30
0.0
 10
11.7665954802
 20
10.0332458889
 30
0.0
 10
11.7439497581
 20
10.031729486
 30
0.0
 10
11.7210193989
 20
10.0305325989
 30
0.0
 10
11.6978718124
 20
10.0296587707
 30
0.0
 10
11.67457505
 20
10.0291105878
 30
0.0
 10
11.6511976074
 20
10.0288896731
 30
0.0
 10
11.627808211
 20
10.028996679
 30
0.0
 10
11.6044756445
 20
10.0294312917
 30
0.0
 10
11.5812684648
 20
10.0301922208
 30
0.0
 10
11.5582549981
 20
10.0312772174
 30
0.0
 10
11.5429918564
 20
10.0322203204
 30
0.0
 10
11.5354049277
 20
10.0327464757
 30
0.0
  0
SPLINE
  5
3B9
100
AcDbEntity
  8
0
100
AcDbSpline
 62
7
  6
CONTINUOUS
 70
0
 71
3
 72
91
 73
87
 74
0
 42
0.0000001
 43
0.0000001
 44
0.0000000001
 40
0.0
 40
0.0
 40
0.0
 40
0.0
 40
0.0027164149
 40
0.0054532017
 40
0.0082302519
 40
0.0110665199
 40
0.0139797039
 40
0.0169859829
 40
0.0200999141
 40
0.0233344008
 40
0.0267007145
 40
0.0302086362
 40
0.0338665065
 40
0.0376814358
 40
0.0416593677
 40
0.0458052497
 40
0.0501231396
 40
0.0546162795
 40
0.059287253
 40
0.0641379749
 40
0.0691698569
 40
0.0743837851
 40
0.0797802236
 40
0.0853592475
 40
0.091120549
 40
0.0970635401
 40
0.1031872872
 40
0.1094906342
 40
0.122629771
 40
0.1364673248
 40
0.150986028
 40
0.1661658166
 40
0.1819841497
 40
0.1984162706
 40
0.2154354241
 40
0.2330130434
 40
0.251118914
 40
0.2697213196
 40
0.2887871741
 40
0.3082821495
 40
0.3281707942
 40
0.3484166458
 40
0.3689823383
 40
0.3898297074
 40
0.4109198931
 40
0.4322134396
 40
0.4536703979
 40
0.4752504252
 40
0.496912883
 40
0.5186169358
 40
0.5403216477
 40
0.5619860811
 40
0.5835693946
 40
0.6050309417
 40
0.6263303693
 40
0.647427715
 40
0.6682835069
 40
0.6888588628
 40
0.7091155924
 40
0.7290163019
 40
0.7485244988
 40
0.7676046989
 40
0.7862225381
 40
0.8043448897
 40
0.8219399883
 40
0.8389775652
 40
0.8554289983
 40
0.8712674731
 40
0.8864681675
 40
0.9010084679
 40
0.9148682273
 40
0.928030078
 40
0.9343449249
 40
0.9404802778
 40
0.9464349222
 40
0.9522079436
 40
0.9577987067
 40
0.9632068911
 40
0.9684325654
 40
0.9734761401
 40
0.9783384911
 40
0.9830209352
 40
0.9875254368
 40
0.9918546053
 40
0.9960115672
 40
1.0
 40
1.0
 40
1.0
 40
1.0
 10
12.2932439465
 20
7.4072107657
 30
0.0
 10
12.2921334515
 20
7.4072877738
 30
0.0
 10
12.2899098202
 20
7.407542878
 30
0.0
 10
12.2866026708
 20
7.4082255036
 30
0.0
 10
12.283320533
 20
7.4092080846
 30
0.0
 10
12.2800657056
 20
7.410489551
 30
0.0
 10
12.2768399141
 20
7.4120688706
 30
0.0
 10
12.2736447781
 20
7.4139447332
 30
0.0
 10
12.2704817823
 20
7.4161158333
 30
0.0
 10
12.2673523485
 20
7.4185808066
 30
0.0
 10
12.2642577855
 20
7.4213381704
 30
0.0
 10
12.2611994907
 20
7.4243864782
 30
0.0
 10
12.2581787299
 20
7.4277240789
 30
0.0
 10
12.2551969038
 20
7.4313493287
 30
0.0
 10
12.2522553237
 20
7.4352603898
 30
0.0
 10
12.2493553588
 20
7.4394553402
 30
0.0
 10
12.2464983893
 20
7.4439321213
 30
0.0
 10
12.2436857332
 20
7.4486885106
 30
0.0
 10
12.2409188072
 20
7.4537221909
 30
0.0
 10
12.2381988956
 20
7.4590306515
 30
0.0
 10
12.235527388
 20
7.464611287
 30
0.0
 10
12.2329055694
 20
7.4704613177
 30
0.0
 10
12.2303347509
 20
7.476577842
 30
0.0
 10
12.2278162299
 20
7.4829578182
 30
0.0
 10
12.2253512265
 20
7.4895980594
 30
0.0
 10
12.222941032
 20
7.4964952585
 30
0.0
 10
12.2205867796
 20
7.5036459688
 30
0.0
 10
12.2174810285
 20
7.5136523025
 30
0.0
 10
12.2137582179
 20
7.5267746669
 30
0.0
 10
12.2095917526
 20
7.5432628703
 30
0.0
 10
12.2056750899
 20
7.5606702364
 30
0.0
 10
12.202016176
 20
7.5789618674
 30
0.0
 10
12.1986224553
 20
7.5981012301
 30
0.0
 10
12.1955008329
 20
7.6180499813
 30
0.0
 10
12.1926576629
 20
7.6387681317
 30
0.0
 10
12.1900987334
 20
7.6602141126
 30
0.0
 10
12.187829254
 20
7.6823448714
 30
0.0
 10
12.1858538468
 20
7.7051159592
 30
0.0
 10
12.1841765328
 20
7.7284816239
 30
0.0
 10
12.1828007278
 20
7.7523949063
 30
0.0
 10
12.1817292362
 20
7.7768077375
 30
0.0
 10
12.1809642461
 20
7.8016710384
 30
0.0
 10
12.1805073247
 20
7.8269348184
 30
0.0
 10
12.180359416
 20
7.8525482772
 30
0.0
 10
12.1805208393
 20
7.8784599068
 30
0.0
 10
12.1809912853
 20
7.9046175958
 30
0.0
 10
12.1817698198
 20
7.9309687359
 30
0.0
 10
12.1828548867
 20
7.9574603286
 30
0.0
 10
12.1842443106
 20
7.9840390925
 30
0.0
 10
12.1859353017
 20
8.0106515698
 30
0.0
 10
12.1879244611
 20
8.0372442345
 30
0.0
 10
12.1902077882
 20
8.0637636002
 30
0.0
 10
12.1927806851
 20
8.0901563287
 30
0.0
 10
12.1956379691
 20
8.116369338
 30
0.0
 10
12.1987738832
 20
8.1423499096
 30
0.0
 10
12.2021821076
 20
8.1680457942
 30
0.0
 10
12.2058557722
 20
8.1934053169
 30
0.0
 10
12.20978747
 20
8.2183774819
 30
0.0
 10
12.2139692726
 20
8.2429120766
 30
0.0
 10
12.2183927423
 20
8.2669597747
 30
0.0
 10
12.2230489517
 20
8.2904722361
 30
0.0
 10
12.2279285021
 20
8.3134022049
 30
0.0
 10
12.2330215417
 20
8.3357036053
 30
0.0
 10
12.2383177853
 20
8.3573316362
 30
0.0
 10
12.2438065348
 20
8.3782428638
 30
0.0
 10
12.2494767017
 20
8.3983953149
 30
0.0
 10
12.2553168259
 20
8.4177485659
 30
0.0
 10
12.2613151037
 20
8.4362638351
 30
0.0
 10
12.2674594131
 20
8.4539040457
 30
0.0
 10
12.2737373444
 20
8.4706339855
 30
0.0
 10
12.2801362232
 20
8.4864201238
 30
0.0
 10
12.2856318243
 20
8.4989295231
 30
0.0
 10
12.2900869559
 20
8.508433099
 30
0.0
 10
12.293404337
 20
8.5152069295
 30
0.0
 10
12.2967422782
 20
8.5217221553
 30
0.0
 10
12.30009911
 20
8.527975532
 30
0.0
 10
12.3034731435
 20
8.5339639389
 30
0.0
 10
12.3068627208
 20
8.5396843828
 30
0.0
 10
12.3102661132
 20
8.5451340371
 30
0.0
 10
12.3136816841
 20
8.5503101641
 30
0.0
 10
12.3171076736
 20
8.5552102135
 30
0.0
 10
12.3205424398
 20
8.5598317478
 30
0.0
 10
12.3239843141
 20
8.5641725194
 30
0.0
 10
12.3274316866
 20
8.5682304234
 30
0.0
 10
12.330882733
 20
8.5720032576
 30
0.0
 10
12.3332325698
 20
8.5743755035
 30
0.0
 10
12.3344081361
 20
8.5755110134
 30
0.0
  0
SPLINE
  5
3BA
100
AcDbEntity
  8
0
100
AcDbSpline
 62
7
  6
CONTINUOUS
 70
0
 71
3
 72
61
 73
57
 74
0
 42
0.0000001
 43
0.0000001
 44
0.0000000001
 40
0.0
 40
0.0
 40
0.0
 40
0.0
 40
0.007520736
 40
0.0156240064
 40
0.0243308314
 40
0.0336545627
 40
0.0436023576
 40
0.0541762911
 40
0.065374298
 40
0.0771908404
 40
0.0896173637
 40
0.1026427459
 40
0.1162536401
 40
0.1304346776
 40
0.1451686827
 40
0.1604368921
 40
0.1762190747
 40
0.1924936262
 40
0.2092377338
 40
0.2264274719
 40
0.2440378492
 40
0.2620429285
 40
0.2804159201
 40
0.2991292233
 40
0.337462144
 40
0.3768083795
 40
0.4169255651
 40
0.4575651352
 40
0.4984743559
 40
0.5393983541
 40
0.5800821394
 40
0.6202726307
 40
0.6597206676
 40
0.6981830696
 40
0.7169711587
 40
0.73542544
 40
0.7535181279
 40
0.7712222409
 40
0.788511644
 40
0.8053611137
 40
0.821746466
 40
0.8376446296
 40
0.8530337122
 40
0.8678931419
 40
0.8822038118
 40
0.8959481707
 40
0.9091104
 40
0.921676668
 40
0.9336353219
 40
0.9449771721
 40
0.9556959291
 40
0.9657887028
 40
0.9752565161
 40
0.9841051753
 40
0.9923468585
 40
1.0
 40
1.0
 40
1.0
 40
1.0
 10
12.2644918422
 20
7.6037424413
 30
0.0
 10
12.2631847771
 20
7.6053495368
 30
0.0
 10
12.2606094069
 20
7.6088035
 30
0.0
 10
12.2569852444
 20
7.6144457918
 30
0.0
 10
12.253464528
 20
7.6207287848
 30
0.0
 10
12.2500528725
 20
7.627642209
 30
0.0
 10
12.246755447
 20
7.6351753152
 30
0.0
 10
12.243577532
 20
7.6433160135
 30
0.0
 10
12.2405242948
 20
7.6520511832
 30
0.0
 10
12.2376007904
 20
7.6613666234
 30
0.0
 10
12.2348118589
 20
7.6712470937
 30
0.0
 10
12.2321621485
 20
7.6816763643
 30
0.0
 10
12.2296561076
 20
7.6926372615
 30
0.0
 10
12.227297935
 20
7.7041116887
 30
0.0
 10
12.2250915734
 20
7.716080666
 30
0.0
 10
12.2230407333
 20
7.7285243797
 30
0.0
 10
12.2211488674
 20
7.7414222106
 30
0.0
 10
12.2194191366
 20
7.7547527659
 30
0.0
 10
12.2178544452
 20
7.7684939276
 30
0.0
 10
12.2164574344
 20
7.78262289
 30
0.0
 10
12.2152304385
 20
7.7971161934
 30
0.0
 10
12.2141755178
 20
7.81194976
 30
0.0
 10
12.2132944337
 20
7.8270989738
 30
0.0
 10
12.2123459294
 20
7.8478512562
 30
0.0
 10
12.2116139015
 20
7.8743941925
 30
0.0
 10
12.2114508875
 20
7.9068421971
 30
0.0
 10
12.2119979291
 20
7.9399214
 30
0.0
 10
12.2132515422
 20
7.973412057
 30
0.0
 10
12.2152035324
 20
8.0070918403
 30
0.0
 10
12.2178409533
 20
8.0407371042
 30
0.0
 10
12.2211462916
 20
8.0741244333
 30
0.0
 10
12.2250974673
 20
8.1070321992
 30
0.0
 10
12.2296681169
 20
8.1392418121
 30
0.0
 10
12.234000717
 20
8.1655244025
 30
0.0
 10
12.2377614534
 20
8.1860350728
 30
0.0
 10
12.2406947486
 20
8.2009920842
 30
0.0
 10
12.2437578143
 20
8.2156181492
 30
0.0
 10
12.2469455547
 20
8.2298889964
 30
0.0
 10
12.2502526452
 20
8.2437809229
 30
0.0
 10
12.253673584
 20
8.2572708614
 30
0.0
 10
12.2572026576
 20
8.2703364242
 30
0.0
 10
12.260833969
 20
8.2829559393
 30
0.0
 10
12.2645614677
 20
8.2951084771
 30
0.0
 10
12.268378938
 20
8.3067738989
 30
0.0
 10
12.2722799963
 20
8.3179328991
 30
0.0
 10
12.2762581379
 20
8.3285670247
 30
0.0
 10
12.2803067464
 20
8.3386587125
 30
0.0
 10
12.2844190672
 20
8.348191346
 30
0.0
 10
12.2885882649
 20
8.3571492706
 30
0.0
 10
12.2928074575
 20
8.3655178189
 30
0.0
 10
12.2970696914
 20
8.3732833775
 30
0.0
 10
12.3013680282
 20
8.3804334122
 30
0.0
 10
12.305695531
 20
8.3869564099
 30
0.0
 10
12.3100455776
 20
8.3928422474
 30
0.0
 10
12.3144111728
 20
8.3980811446
 30
0.0
 10
12.3174371434
 20
8.4012516339
 30
0.0
 10
12.3189533212
 20
8.4027161494
 30
0.0
  0
SPLINE
  5
3BB
100
AcDbEntity
  8
0
100
AcDbSpline
 62
7
  6
CONTINUOUS
 70
0
 71
3
 72
9
 73
5
 74
0
 42
0.0000001
 43
0.0000001
 44
0.0000000001
 40
0.0
 40
0.0
 40
0.0
 40
0.0
 40
0.4959653682
 40
1.0
 40
1.0
 40
1.0
 40
1.0
 10
12.3062603099
 20
8.3786378499
 30
0.0
 10
12.3052247497
 20
8.3787096637
 30
0.0
 10
12.3031248204
 20
8.378715019
 30
0.0
 10
12.3010428478
 20
8.3784452218
 30
0.0
 10
12.3000069681
 20
8.3782456133
 30
0.0
  0
SPLINE
  5
3BC
100
AcDbEntity
  8
0
100
AcDbSpline
 62
7
  6
CONTINUOUS
 70
0
 71
3
 72
9
 73
5
 74
0
 42
0.0000001
 43
0.0000001
 44
0.0000000001
 40
0.0
 40
0.0
 40
0.0
 40
0.0
 40
0.4960832116
 40
1.0
 40
1.0
 40
1.0
 40
1.0
 10
12.2543722619
 20
7.6304349405
 30
0.0
 10
12.2533523277
 20
7.6305056708
 30
0.0
 10
12.2513035636
 20
7.6307837761
 30
0.0
 10
12.2493083555
 20
7.6313239448
 30
0.0
 10
12.2483242248
 20
7.6316556483
 30
0.0
  0
SPLINE
  5
3BD
100
AcDbEntity
  8
0
100
AcDbSpline
 62
7
  6
CONTINUOUS
 70
0
 71
3
 72
44
 73
40
 74
0
 42
0.0000001
 43
0.0000001
 44
0.0000000001
 40
0.0
 40
0.0
 40
0.0
 40
0.0
 40
0.0311441543
 40
0.0624413527
 40
0.0938856704
 40
0.1254674301
 40
0.1571744232
 40
0.1889918967
 40
0.2209029056
 40
0.2528886665
 40
0.2849289365
 40
0.3170024165
 40
0.3490871655
 40
0.3811610253
 40
0.4132020474
 40
0.4451889174
 40
0.477101372
 40
0.5089205996
 40
0.5406296198
 40
0.5722136396
 40
0.603660374
 40
0.6349603231
 40
0.6661070065
 40
0.6970971441
 40
0.7279307688
 40
0.7586112764
 40
0.7891454071
 40
0.8195431409
 40
0.8498175195
 40
0.8649161013
 40
0.8799900027
 40
0.8950415891
 40
0.9100733537
 40
0.9250879052
 40
0.9400879559
 40
0.9550763011
 40
0.9700558055
 40
0.9850293877
 40
1.0
 40
1.0
 40
1.0
 40
1.0
 10
10.6740678266
 20
6.3159735997
 30
0.0
 10
10.6636895274
 20
6.3166933372
 30
0.0
 10
10.6429268891
 20
6.318896002
 30
0.0
 10
10.6120346584
 20
6.324444575
 30
0.0
 10
10.5814733105
 20
6.3322164416
 30
0.0
 10
10.5514079038
 20
6.3421698499
 30
0.0
 10
10.5219981653
 20
6.3542514419
 30
0.0
 10
10.4934009677
 20
6.3683965586
 30
0.0
 10
10.465768663
 20
6.384529641
 30
0.0
 10
10.4392485008
 20
6.4025645547
 30
0.0
 10
10.4139817588
 20
6.4224050345
 30
0.0
 10
10.3901030753
 20
6.4439452754
 30
0.0
 10
10.3677397247
 20
6.467070459
 30
0.0
 10
10.3470108771
 20
6.4916572964
 30
0.0
 10
10.328027045
 20
6.5175747621
 30
0.0
 10
10.3108895151
 20
6.5446847774
 30
0.0
 10
10.2956897187
 20
6.572842876
 30
0.0
 10
10.2825088032
 20
6.6018990126
 30
0.0
 10
10.27141725
 20
6.6316983667
 30
0.0
 10
10.2624744196
 20
6.6620821169
 30
0.0
 10
10.255728224
 20
6.6928882868
 30
0.0
 10
10.251214956
 20
6.7239526194
 30
0.0
 10
10.2489590468
 20
6.7551094214
 30
0.0
 10
10.2489728384
 20
6.7861924277
 30
0.0
 10
10.2512566365
 20
6.8170357267
 30
0.0
 10
10.2557986253
 20
6.8474744958
 30
0.0
 10
10.2625750293
 20
6.8773463611
 30
0.0
 10
10.271549442
 20
6.9064905352
 30
0.0
 10
10.2808305607
 20
6.9300665725
 30
0.0
 10
10.28929991
 20
6.9484003228
 30
0.0
 10
10.2961609116
 20
6.9618631988
 30
0.0
 10
10.3035265714
 20
6.9750309321
 30
0.0
 10
10.3113871981
 20
6.9878861691
 30
0.0
 10
10.3197322521
 20
7.0004116638
 30
0.0
 10
10.3285505674
 20
7.0125907234
 30
0.0
 10
10.3378304001
 20
7.024407013
 30
0.0
 10
10.347559383
 20
7.0358448177
 30
0.0
 10
10.3577242775
 20
7.0468886654
 30
0.0
 10
10.3647832492
 20
7.0539794641
 30
0.0
 10
10.3683800321
 20
7.0574536809
 30
0.0
  0
SPLINE
  5
3BE
100
AcDbEntity
  8
0
100
AcDbSpline
 62
7
  6
CONTINUOUS
 70
0
 71
3
 72
36
 73
32
 74
0
 42
0.0000001
 43
0.0000001
 44
0.0000000001
 40
0.0
 40
0.0
 40
0.0
 40
0.0
 40
0.0164361087
 40
0.0327259515
 40
0.0490693065
 40
0.06567003
 40
0.0827285897
 40
0.1004330892
 40
0.1189537091
 40
0.1384391772
 40
0.1590152016
 40
0.1807853288
 40
0.2038319876
 40
0.2282188647
 40
0.2539928652
 40
0.2811863109
 40
0.3098189269
 40
0.3398995587
 40
0.3714277633
 40
0.4043951335
 40
0.4387863427
 40
0.4745802232
 40
0.5117503922
 40
0.550266025
 40
0.5900921299
 40
0.6311900422
 40
0.6735176673
 40
0.7170294014
 40
0.8074069197
 40
0.9018923443
 40
1.0
 40
1.0
 40
1.0
 40
1.0
 10
10.6584524014
 20
9.0388265758
 30
0.0
 10
10.6592531823
 20
9.0387711356
 30
0.0
 10
10.6608560318
 20
9.0387555138
 30
0.0
 10
10.6632427402
 20
9.0390295423
 30
0.0
 10
10.6655846964
 20
9.0396014073
 30
0.0
 10
10.6678731678
 20
9.0404706181
 30
0.0
 10
10.6701011412
 20
9.041635336
 30
0.0
 10
10.6722627183
 20
9.0430931772
 30
0.0
 10
10.6743533773
 20
9.0448411835
 30
0.0
 10
10.6763698776
 20
9.0468760136
 30
0.0
 10
10.6783098264
 20
9.049194265
 30
0.0
 10
10.6801720942
 20
9.0517919562
 30
0.0
 10
10.6819559846
 20
9.0546651169
 30
0.0
 10
10.6836620694
 20
9.0578090959
 30
0.0
 10
10.6852913062
 20
9.0612191253
 30
0.0
 10
10.6868457285
 20
9.0648898919
 30
0.0
 10
10.6883279493
 20
9.068815825
 30
0.0
 10
10.6897413106
 20
9.0729910164
 30
0.0
 10
10.6910899417
 20
9.0774092376
 30
0.0
 10
10.6923783667
 20
9.0820640705
 30
0.0
 10
10.6936119692
 20
9.0869487826
 30
0.0
 10
10.6947963255
 20
9.0920565095
 30
0.0
 10
10.6959377703
 20
9.0973801102
 30
0.0
 10
10.6970427734
 20
9.1029122944
 30
0.0
 10
10.6981183502
 20
9.1086455123
 30
0.0
 10
10.6991716583
 20
9.1145720076
 30
0.0
 10
10.700210195
 20
9.1206837368
 30
0.0
 10
10.7016029457
 20
9.1291763109
 30
0.0
 10
10.7033404804
 20
9.1401934366
 30
0.0
 10
10.7054665307
 20
9.1538484548
 30
0.0
 10
10.7069444764
 20
9.1631374381
 30
0.0
 10
10.7077162012
 20
9.1678662082
 30
0.0
  0
SPLINE
  5
3BF
100
AcDbEntity
  8
0
100
AcDbSpline
 62
7
  6
CONTINUOUS
 70
0
 71
3
 72
50
 73
46
 74
0
 42
0.0000001
 43
0.0000001
 44
0.0000000001
 40
0.0
 40
0.0
 40
0.0
 40
0.0
 40
0.0311431289
 40
0.0624393576
 40
0.0938826422
 40
0.1254633877
 40
0.1571693586
 40
0.1889858073
 40
0.2208957881
 40
0.2528805179
 40
0.2849197558
 40
0.3169922025
 40
0.3490759178
 40
0.3811487443
 40
0.413188734
 40
0.4451745738
 40
0.4770860011
 40
0.5089042032
 40
0.5406122026
 40
0.5721952059
 40
0.6036409272
 40
0.6349398689
 40
0.6660855498
 40
0.6816023422
 40
0.6970798651
 40
0.7125182278
 40
0.7279177509
 40
0.7432789634
 40
0.7586026044
 40
0.7738896213
 40
0.7891411632
 40
0.8043585763
 40
0.8195434009
 40
0.8346973614
 40
0.8498223561
 40
0.8649204511
 40
0.879993868
 40
0.8950449698
 40
0.9100762497
 40
0.9250903183
 40
0.940089886
 40
0.9550777481
 40
0.9700567702
 40
0.9850298702
 40
1.0
 40
1.0
 40
1.0
 40
1.0
 10
10.6740678266
 20
8.2188475903
 30
0.0
 10
10.6600335492
 20
8.2198208707
 30
0.0
 10
10.6319568009
 20
8.2227994827
 30
0.0
 10
10.590182086
 20
8.2303026317
 30
0.0
 10
10.5488548161
 20
8.2408123432
 30
0.0
 10
10.508198206
 20
8.254272059
 30
0.0
 10
10.4684282112
 20
8.2706096243
 30
0.0
 10
10.4297570258
 20
8.2897377068
 30
0.0
 10
10.3923906191
 20
8.3115540179
 30
0.0
 10
10.3565281186
 20
8.3359421088
 30
0.0
 10
10.3223606134
 20
8.3627718568
 30
0.0
 10
10.2900701187
 20
8.3919001172
 30
0.0
 10
10.2598287723
 20
8.4231716597
 30
0.0
 10
10.23179771
 20
8.4564197488
 30
0.0
 10
10.2061264003
 20
8.4914672242
 30
0.0
 10
10.18295179
 20
8.5281273468
 30
0.0
 10
10.1623974828
 20
8.5662047452
 30
0.0
 10
10.1445733175
 20
8.605496563
 30
0.0
 10
10.129574501
 20
8.645793418
 30
0.0
 10
10.1174813152
 20
8.6868804455
 30
0.0
 10
10.1083586413
 20
8.7285390354
 30
0.0
 10
10.1022554387
 20
8.7705455362
 30
0.0
 10
10.0997100149
 20
8.8057038962
 30
0.0
 10
10.0992140983
 20
8.8337745445
 30
0.0
 10
10.0996101474
 20
8.8547503032
 30
0.0
 10
10.1007733446
 20
8.8756442345
 30
0.0
 10
10.1027021011
 20
8.8964287886
 30
0.0
 10
10.1053939097
 20
8.9170761102
 30
0.0
 10
10.1088451736
 20
8.9375586476
 30
0.0
 10
10.1130512709
 20
8.9578490422
 30
0.0
 10
10.118006628
 20
8.9779201876
 30
0.0
 10
10.1237046567
 20
8.9977452649
 30
0.0
 10
10.1301377194
 20
9.0172978006
 30
0.0
 10
10.1372972476
 20
9.0365516705
 30
0.0
 10
10.1451737276
 20
9.0554811334
 30
0.0
 10
10.1537566096
 20
9.0740609109
 30
0.0
 10
10.1630344326
 20
9.0922661809
 30
0.0
 10
10.1729948506
 20
9.1100725943
 30
0.0
 10
10.1836245453
 20
9.1274563644
 30
0.0
 10
10.1949092984
 20
9.1443942729
 30
0.0
 10
10.2068340725
 20
9.1608636711
 30
0.0
 10
10.2193829239
 20
9.1768425208
 30
0.0
 10
10.2325391365
 20
9.1923095676
 30
0.0
 10
10.2462848458
 20
9.2072438552
 30
0.0
 10
10.2558304853
 20
9.216832559
 30
0.0
 10
10.260694314
 20
9.221530648
 30
0.0
  0
SPLINE
  5
3C0
100
AcDbEntity
  8
0
100
AcDbSpline
 62
7
  6
CONTINUOUS
 70
0
 71
3
 72
15
 73
11
 74
0
 42
0.0000001
 43
0.0000001
 44
0.0000000001
 40
0.0
 40
0.0
 40
0.0
 40
0.0
 40
0.1265090885
 40
0.2525691733
 40
0.3781798773
 40
0.503353056
 40
0.6281009553
 40
0.7524422595
 40
0.8763995821
 40
1.0
 40
1.0
 40
1.0
 40
1.0
 10
10.8800876166
 20
8.6303511324
 30
0.0
 10
10.8862963052
 20
8.6299205584
 30
0.0
 10
10.8987160568
 20
8.6293780933
 30
0.0
 10
10.9173279133
 20
8.6295268089
 30
0.0
 10
10.935841857
 20
8.6306390144
 30
0.0
 10
10.9542080027
 20
8.6327117262
 30
0.0
 10
10.9723778189
 20
8.6357395657
 30
0.0
 10
10.9903031517
 20
8.639714568
 30
0.0
 10
11.0079357654
 20
8.64462601
 30
0.0
 10
11.0194817776
 20
8.6485218386
 30
0.0
 10
11.025188447
 20
8.6506210088
 30
0.0
  0
SPLINE
  5
3C1
100
AcDbEntity
  8
0
100
AcDbSpline
 62
7
  6
CONTINUOUS
 70
0
 71
3
 72
14
 73
10
 74
0
 42
0.0000001
 43
0.0000001
 44
0.0000000001
 40
0.0
 40
0.0
 40
0.0
 40
0.0
 40
0.2430947759
 40
0.3682068221
 40
0.4949299065
 40
0.622490821
 40
0.7499424057
 40
0.8761820023
 40
1.0
 40
1.0
 40
1.0
 40
1.0
 10
10.8789779902
 20
8.9202362416
 30
0.0
 10
10.8914744293
 20
8.9135336105
 30
0.0
 10
10.9107413368
 20
8.9039947896
 30
0.0
 10
10.9372236892
 20
8.8924869485
 30
0.0
 10
10.9578170816
 20
8.8843675955
 30
0.0
 10
10.9788119053
 20
8.8769325944
 30
0.0
 10
11.0000343019
 20
8.8702666477
 30
0.0
 10
11.021276556
 20
8.8644429134
 30
0.0
 10
11.0354825323
 20
8.8611141755
 30
0.0
 10
11.0425451527
 20
8.8596019808
 30
0.0
  0
SPLINE
  5
3C2
100
AcDbEntity
  8
0
100
AcDbSpline
 62
7
  6
CONTINUOUS
 70
0
 71
3
 72
23
 73
19
 74
0
 42
0.0000001
 43
0.0000001
 44
0.0000000001
 40
0.0
 40
0.0
 40
0.0
 40
0.0
 40
0.0638609742
 40
0.1275034352
 40
0.1909230191
 40
0.2541276449
 40
0.3171224247
 40
0.3799159145
 40
0.4425188174
 40
0.5049436698
 40
0.5672049969
 40
0.6293190749
 40
0.6913037881
 40
0.7531784374
 40
0.8149635266
 40
0.876680556
 40
0.9383517894
 40
1.0
 40
1.0
 40
1.0
 40
1.0
 10
10.685973493
 20
6.5254883972
 30
0.0
 10
10.6897625492
 20
6.5252256253
 30
0.0
 10
10.6973421675
 20
6.5248895097
 30
0.0
 10
10.7087017772
 20
6.5249571777
 30
0.0
 10
10.7200047695
 20
6.5255975264
 30
0.0
 10
10.7312221264
 20
6.5268088231
 30
0.0
 10
10.7423258637
 20
6.5285881714
 30
0.0
 10
10.7532879442
 20
6.5309310691
 30
0.0
 10
10.7640807837
 20
6.5338316338
 30
0.0
 10
10.7746771969
 20
6.5372826074
 30
0.0
 10
10.7850504792
 20
6.5412753461
 30
0.0
 10
10.7951745043
 20
6.5457997943
 30
0.0
 10
10.8050237659
 20
6.550844567
 30
0.0
 10
10.8145734469
 20
6.5563969875
 30
0.0
 10
10.8237994426
 20
6.562443085
 30
0.0
 10
10.8326785946
 20
6.5689676925
 30
0.0
 10
10.8411882306
 20
6.5759540817
 30
0.0
 10
10.8466017632
 20
6.5809088293
 30
0.0
 10
10.8492389468
 20
6.5834561545
 30
0.0
  0
SPLINE
  5
3C3
100
AcDbEntity
  8
0
100
AcDbSpline
 62
7
  6
CONTINUOUS
 70
0
 71
3
 72
23
 73
19
 74
0
 42
0.0000001
 43
0.0000001
 44
0.0000000001
 40
0.0
 40
0.0
 40
0.0
 40
0.0
 40
0.0616482057
 40
0.123319439
 40
0.1850364697
 40
0.2468215573
 40
0.308696204
 40
0.3706809203
 40
0.4327950036
 40
0.4950563332
 40
0.5574811873
 40
0.6200840738
 40
0.6828776141
 40
0.7458723365
 40
0.8090768798
 40
0.872497055
 40
0.9361379958
 40
1.0
 40
1.0
 40
1.0
 40
1.0
 10
10.979755621
 20
6.4245082961
 30
0.0
 10
10.9748179231
 20
6.4197388581
 30
0.0
 10
10.9646819553
 20
6.4104619355
 30
0.0
 10
10.9487490465
 20
6.3973811001
 30
0.0
 10
10.9321242654
 20
6.3851648962
 30
0.0
 10
10.91485008
 20
6.373844626
 30
0.0
 10
10.8969698731
 20
6.3634486459
 30
0.0
 10
10.8785287469
 20
6.3540031585
 30
0.0
 10
10.8595731614
 20
6.345531916
 30
0.0
 10
10.8401508837
 20
6.3380562193
 30
0.0
 10
10.820310848
 20
6.33159485
 30
0.0
 10
10.8001030319
 20
6.3261640265
 30
0.0
 10
10.7795783389
 20
6.3217773783
 30
0.0
 10
10.75878843
 20
6.3184458742
 30
0.0
 10
10.7377857336
 20
6.3161778842
 30
0.0
 10
10.7166228561
 20
6.314978996
 30
0.0
 10
10.6953538517
 20
6.3148522275
 30
0.0
 10
10.6811623233
 20
6.3154815947
 30
0.0
 10
10.6740678266
 20
6.3159735997
 30
0.0
  0
LINE
  5
3C4
100
AcDbEntity
  8
0
100
AcDbLine
 62
7
  6
CONTINUOUS
 10
10.8783714181
 20
8.9203338241
 11
10.8789779902
 21
8.9202362416
  0
SPLINE
  5
3C5
100
AcDbEntity
  8
0
100
AcDbSpline
 62
7
  6
CONTINUOUS
 70
0
 71
3
 72
15
 73
11
 74
0
 42
0.0000001
 43
0.0000001
 44
0.0000000001
 40
0.0
 40
0.0
 40
0.0
 40
0.0
 40
0.1235887255
 40
0.2475361694
 40
0.371870259
 40
0.4966146223
 40
0.6217886068
 40
0.7474038826
 40
0.8734764763
 40
1.0
 40
1.0
 40
1.0
 40
1.0
 10
10.9092696802
 20
6.6963706564
 30
0.0
 10
10.9060282849
 20
6.6951598022
 30
0.0
 10
10.8994682389
 20
6.6929120037
 30
0.0
 10
10.8894453262
 20
6.6900764583
 30
0.0
 10
10.8792519681
 20
6.687779647
 30
0.0
 10
10.8689162319
 20
6.6860279234
 30
0.0
 10
10.8584661756
 20
6.6848260138
 30
0.0
 10
10.8479299881
 20
6.6841770481
 30
0.0
 10
10.8373368123
 20
6.684082893
 30
0.0
 10
10.8302676269
 20
6.6843895423
 30
0.0
 10
10.8267337726
 20
6.6846346159
 30
0.0
  0
SPLINE
  5
3C6
100
AcDbEntity
  8
0
100
AcDbSpline
 62
7
  6
CONTINUOUS
 70
0
 71
3
 72
11
 73
7
 74
0
 42
0.0000001
 43
0.0000001
 44
0.0000000001
 40
0.0
 40
0.0
 40
0.0
 40
0.0
 40
0.2522347022
 40
0.5029338439
 40
0.7521563242
 40
1.0
 40
1.0
 40
1.0
 40
1.0
 10
10.8231474737
 20
6.6579882957
 30
0.0
 10
10.8297947635
 20
6.6575273046
 30
0.0
 10
10.8430966754
 20
6.6571876999
 30
0.0
 10
10.8629520301
 20
6.6584463729
 30
0.0
 10
10.8825000051
 20
6.6614641397
 30
0.0
 10
10.8952625375
 20
6.6646433412
 30
0.0
 10
10.9015360417
 20
6.6665167702
 30
0.0
  0
SPLINE
  5
3C7
100
AcDbEntity
  8
0
100
AcDbSpline
 62
7
  6
CONTINUOUS
 70
0
 71
3
 72
27
 73
23
 74
0
 42
0.0000001
 43
0.0000001
 44
0.0000000001
 40
0.0
 40
0.0
 40
0.0
 40
0.0
 40
0.06164689
 40
0.0924803204
 40
0.1233223709
 40
0.1850380842
 40
0.2468218522
 40
0.2777487695
 40
0.3087006862
 40
0.3706840773
 40
0.432796832
 40
0.4950568298
 40
0.5574803489
 40
0.6200818994
 40
0.6828740929
 40
0.7143476873
 40
0.7458727129
 40
0.8090758403
 40
0.872494838
 40
0.9042889691
 40
0.9361391443
 40
1.0
 40
1.0
 40
1.0
 40
1.0
 10
11.0874413391
 20
8.3656163339
 30
0.0
 10
11.0807642219
 20
8.3591667459
 30
0.0
 10
11.0704843897
 20
8.3497582027
 30
0.0
 10
11.0562895192
 20
8.3377811968
 30
0.0
 10
11.0417696284
 20
8.3261830007
 30
0.0
 10
11.0230307986
 20
8.312413238
 30
0.0
 10
11.0035703669
 20
8.2996603647
 30
0.0
 10
10.9875964899
 20
8.2900844941
 30
0.0
 10
10.9713466218
 20
8.28092353
 30
0.0
 10
10.9505547303
 20
8.2702738983
 30
0.0
 10
10.9249218575
 20
8.2588186121
 30
0.0
 10
10.8986575761
 20
8.2487093698
 30
0.0
 10
10.8718283643
 20
8.2399718145
 30
0.0
 10
10.8445021521
 20
8.2326278879
 30
0.0
 10
10.8213900506
 20
8.2276882775
 30
0.0
 10
10.8027244973
 20
8.2244488445
 30
0.0
 10
10.7839204679
 20
8.2216819004
 30
0.0
 10
10.7602318166
 20
8.2191237901
 30
0.0
 10
10.7364033436
 20
8.2177739673
 30
0.0
 10
10.7172704156
 20
8.2174171265
 30
0.0
 10
10.698068431
 20
8.2175433695
 30
0.0
 10
10.6836615606
 20
8.2181822626
 30
0.0
 10
10.6740678266
 20
8.2188475903
 30
0.0
  0
SPLINE
  5
3C8
100
AcDbEntity
  8
0
100
AcDbSpline
 62
7
  6
CONTINUOUS
 70
0
 71
3
 72
15
 73
11
 74
0
 42
0.0000001
 43
0.0000001
 44
0.0000000001
 40
0.0
 40
0.0
 40
0.0
 40
0.0
 40
0.1234490274
 40
0.2472724137
 40
0.3715129969
 40
0.4962072077
 40
0.6213845257
 40
0.7470672806
 40
0.8732699725
 40
1.0
 40
1.0
 40
1.0
 40
1.0
 10
11.0387283126
 20
8.6907684838
 30
0.0
 10
11.0328008476
 20
8.6880866919
 30
0.0
 10
11.0207536844
 20
8.6830911039
 30
0.0
 10
11.0022189914
 20
8.6767436274
 30
0.0
 10
10.983258903
 20
8.6715529937
 30
0.0
 10
10.9639429345
 20
8.6675382945
 30
0.0
 10
10.9443407427
 20
8.664713813
 30
0.0
 10
10.924523019
 20
8.6630897032
 30
0.0
 10
10.9045622877
 20
8.6626716375
 30
0.0
 10
10.8912333086
 20
8.6631969646
 30
0.0
 10
10.8845704903
 20
8.6636590326
 30
0.0
  0
SPLINE
  5
3C9
100
AcDbEntity
  8
0
100
AcDbSpline
 62
7
  6
CONTINUOUS
 70
0
 71
3
 72
15
 73
11
 74
0
 42
0.0000001
 43
0.0000001
 44
0.0000000001
 40
0.0
 40
0.0
 40
0.0
 40
0.0
 40
0.1265435369
 40
0.2498718337
 40
0.3713381771
 40
0.4923645349
 40
0.6143898056
 40
0.7388149646
 40
0.8669542867
 40
1.0
 40
1.0
 40
1.0
 40
1.0
 10
11.2174672801
 20
10.1298725724
 30
0.0
 10
11.217066816
 20
10.1309402724
 30
0.0
 10
11.21637947
 20
10.1330894467
 30
0.0
 10
11.2157043607
 20
10.1363734345
 30
0.0
 10
11.215402802
 20
10.139663249
 30
0.0
 10
11.2154757715
 20
10.1429543035
 30
0.0
 10
11.2159229809
 20
10.1462423805
 30
0.0
 10
11.2167434039
 20
10.1495234695
 30
0.0
 10
11.2179350601
 20
10.1527936845
 30
0.0
 10
11.2189540925
 20
10.1549197408
 30
0.0
 10
11.2195192107
 20
10.1559771251
 30
0.0
  0
SPLINE
  5
3CA
100
AcDbEntity
  8
0
100
AcDbSpline
 62
7
  6
CONTINUOUS
 70
0
 71
3
 72
11
 73
7
 74
0
 42
0.0000001
 43
0.0000001
 44
0.0000000001
 40
0.0
 40
0.0
 40
0.0
 40
0.0
 40
0.2428904492
 40
0.4886891857
 40
0.7401944715
 40
1.0
 40
1.0
 40
1.0
 40
1.0
 10
11.2166333466
 20
10.1341147401
 30
0.0
 10
11.2166333424
 20
10.1352106473
 30
0.0
 10
11.2167597101
 20
10.1374175862
 30
0.0
 10
11.2173266303
 20
10.1407155439
 30
0.0
 10
11.2182698833
 20
10.1440052824
 30
0.0
 10
11.2191319857
 20
10.1461499153
 30
0.0
 10
11.2196196427
 20
10.1472158922
 30
0.0
  0
SPLINE
  5
3CB
100
AcDbEntity
  8
0
100
AcDbSpline
 62
7
  6
CONTINUOUS
 70
0
 71
3
 72
67
 73
63
 74
0
 42
0.0000001
 43
0.0000001
 44
0.0000000001
 40
0.0
 40
0.0
 40
0.0
 40
0.0
 40
0.0156220966
 40
0.0311918772
 40
0.0467082963
 40
0.0621731833
 40
0.0775876961
 40
0.0929537886
 40
0.1082739099
 40
0.1235509305
 40
0.1387881816
 40
0.1539894018
 40
0.1691587055
 40
0.1843005414
 40
0.199419645
 40
0.214520994
 40
0.2296097563
 40
0.2446912337
 40
0.2597708042
 40
0.2748538661
 40
0.2899457823
 40
0.3050518212
 40
0.3201770991
 40
0.3353265272
 40
0.350504763
 40
0.365716162
 40
0.3809647316
 40
0.3962540914
 40
0.4115874434
 40
0.4269675414
 40
0.4423966649
 40
0.4578765993
 40
0.4734086283
 40
0.4889935247
 40
0.5046315458
 40
0.5203224346
 40
0.5360654325
 40
0.5518592907
 40
0.5677022833
 40
0.5835922269
 40
0.5995265098
 40
0.615502118
 40
0.6315156627
 40
0.6475634128
 40
0.6636413355
 40
0.6797451315
 40
0.712003519
 40
0.7443089063
 40
0.7766214013
 40
0.8089008649
 40
0.8250202137
 40
0.8411168656
 40
0.8571863565
 40
0.8732244603
 40
0.889227227
 40
0.9051910288
 40
0.921112568
 40
0.9369889723
 40
0.9528177709
 40
0.9685966419
 40
0.9843249058
 40
1.0
 40
1.0
 40
1.0
 40
1.0
 10
10.6782089281
 20
6.4890106265
 30
0.0
 10
10.6823896251
 20
6.4887206942
 30
0.0
 10
10.6907526084
 20
6.4883453387
 30
0.0
 10
10.7032871679
 20
6.4883995765
 30
0.0
 10
10.7157619202
 20
6.4890720475
 30
0.0
 10
10.7281462055
 20
6.4903610063
 30
0.0
 10
10.74041045
 20
6.4922635037
 30
0.0
 10
10.7525250096
 20
6.4947749309
 30
0.0
 10
10.7644607025
 20
6.4978892508
 30
0.0
 10
10.776188751
 20
6.5015990046
 30
0.0
 10
10.7876808627
 20
6.5058952971
 30
0.0
 10
10.7989093312
 20
6.5107677696
 30
0.0
 10
10.8098470791
 20
6.5162046877
 30
0.0
 10
10.8204677191
 20
6.522192969
 30
0.0
 10
10.8307456144
 20
6.5287182122
 30
0.0
 10
10.8406559829
 20
6.5357646677
 30
0.0
 10
10.8501749228
 20
6.5433153427
 30
0.0
 10
10.8592794651
 20
6.5513520393
 30
0.0
 10
10.867947627
 20
6.5598553956
 30
0.0
 10
10.8761585193
 20
6.5688048789
 30
0.0
 10
10.8838923489
 20
6.5781788945
 30
0.0
 10
10.8911304623
 20
6.5879548347
 30
0.0
 10
10.8978553885
 20
6.5981091297
 30
0.0
 10
10.9040509448
 20
6.6086172644
 30
0.0
 10
10.9097022161
 20
6.619453885
 30
0.0
 10
10.9147955873
 20
6.6305928571
 30
0.0
 10
10.9193187741
 20
6.642007324
 30
0.0
 10
10.9232609224
 20
6.6536697453
 30
0.0
 10
10.9266125657
 20
6.6655519976
 30
0.0
 10
10.9293656458
 20
6.6776254376
 30
0.0
 10
10.9315135302
 20
6.6898609663
 30
0.0
 10
10.9330511011
 20
6.7022290873
 30
0.0
 10
10.9339746943
 20
6.7146999964
 30
0.0
 10
10.9342821064
 20
6.7272436492
 30
0.0
 10
10.9339725999
 20
6.7398298269
 30
0.0
 10
10.933046978
 20
6.7524282126
 30
0.0
 10
10.9315075075
 20
6.765008467
 30
0.0
 10
10.9293579137
 20
6.777540297
 30
0.0
 10
10.9266033723
 20
6.789993523
 30
0.0
 10
10.9232505669
 20
6.8023381671
 30
0.0
 10
10.9193075996
 20
6.8145445166
 30
0.0
 10
10.9147839783
 20
6.8265831823
 30
0.0
 10
10.9096905715
 20
6.8384251964
 30
0.0
 10
10.9040397393
 20
6.8500419902
 30
0.0
 10
10.8978448927
 20
6.86140589
 30
0.0
 10
10.8888763869
 20
6.8761897951
 30
0.0
 10
10.8763825629
 20
6.8938990606
 30
0.0
 10
10.8594960346
 20
6.9136997074
 30
0.0
 10
10.8408661663
 20
6.9318777648
 30
0.0
 10
10.8240250216
 20
6.9455377426
 30
0.0
 10
10.8098645654
 20
6.9554872433
 30
0.0
 10
10.7989303009
 20
6.9624403027
 30
0.0
 10
10.7877054295
 20
6.9688695005
 30
0.0
 10
10.776216695
 20
6.9747595728
 30
0.0
 10
10.7644918082
 20
6.9800962411
 30
0.0
 10
10.7525589839
 20
6.9848666768
 30
0.0
 10
10.7404469525
 20
6.9890593904
 30
0.0
 10
10.7281848457
 20
6.9926642579
 30
0.0
 10
10.7158022608
 20
6.9956725113
 30
0.0
 10
10.7033287552
 20
6.9980770421
 30
0.0
 10
10.6907949448
 20
6.9998717984
 30
0.0
 10
10.682403808
 20
7.0006604288
 30
0.0
 10
10.6782089281
 20
7.0009513447
 30
0.0
  0
SPLINE
  5
3CC
100
AcDbEntity
  8
0
100
AcDbSpline
 62
7
  6
CONTINUOUS
 70
0
 71
3
 72
11
 73
7
 74
0
 42
0.0000001
 43
0.0000001
 44
0.0000000001
 40
0.0
 40
0.0
 40
0.0
 40
0.0
 40
0.2430309523
 40
0.4889114475
 40
0.7403853657
 40
1.0
 40
1.0
 40
1.0
 40
1.0
 10
12.0776333444
 20
10.1341147401
 30
0.0
 10
12.0776333402
 20
10.1351990662
 30
0.0
 10
12.0775096711
 20
10.1373823726
 30
0.0
 10
12.0769547521
 20
10.1406452987
 30
0.0
 10
12.0760314323
 20
10.1439003072
 30
0.0
 10
12.0751872043
 20
10.1460232144
 30
0.0
 10
12.0747095776
 20
10.1470784734
 30
0.0
  0
SPLINE
  5
3CD
100
AcDbEntity
  8
0
100
AcDbSpline
 62
7
  6
CONTINUOUS
 70
0
 71
3
 72
23
 73
19
 74
0
 42
0.0000001
 43
0.0000001
 44
0.0000000001
 40
0.0
 40
0.0
 40
0.0
 40
0.0
 40
0.0772136532
 40
0.1531833779
 40
0.2277299957
 40
0.3006884048
 40
0.3718934466
 40
0.4411873793
 40
0.5084187236
 40
0.5734431211
 40
0.6361242532
 40
0.6963346369
 40
0.7539567764
 40
0.8088843111
 40
0.8610233903
 40
0.9102944382
 40
0.956634448
 40
1.0
 40
1.0
 40
1.0
 40
1.0
 10
10.8783714181
 20
8.9203338241
 30
0.0
 10
10.8741693881
 20
8.9200111362
 30
0.0
 10
10.8658373388
 20
8.9193130861
 30
0.0
 10
10.8534667945
 20
8.918097088
 30
0.0
 10
10.841346491
 20
8.9167228664
 30
0.0
 10
10.8295068785
 20
8.9151939441
 30
0.0
 10
10.8179773432
 20
8.9135141158
 30
0.0
 10
10.8067866979
 20
8.9116876219
 30
0.0
 10
10.7959628238
 20
8.909719059
 30
0.0
 10
10.785532688
 20
8.9076133801
 30
0.0
 10
10.7755222639
 20
8.9053758862
 30
0.0
 10
10.7659564545
 20
8.9030122027
 30
0.0
 10
10.756859023
 20
8.900528283
 30
0.0
 10
10.7482525152
 20
8.8979303767
 30
0.0
 10
10.7401582326
 20
8.8952250192
 30
0.0
 10
10.7325960501
 20
8.8924189564
 30
0.0
 10
10.7255847349
 20
8.8895192799
 30
0.0
 10
10.7211405733
 20
8.8874597029
 30
0.0
 10
10.7190184352
 20
8.8864114083
 30
0.0
  0
SPLINE
  5
3CE
100
AcDbEntity
  8
0
100
AcDbSpline
 62
7
  6
CONTINUOUS
 70
0
 71
3
 72
88
 73
84
 74
0
 42
0.0000001
 43
0.0000001
 44
0.0000000001
 40
0.0
 40
0.0
 40
0.0
 40
0.0
 40
0.0039385771
 40
0.008040498
 40
0.0123092759
 40
0.0167478965
 40
0.021358873
 40
0.0261441438
 40
0.0311050106
 40
0.0362423567
 40
0.0415566314
 40
0.0470479395
 40
0.0527160572
 40
0.0585604156
 40
0.0645802166
 40
0.0707743577
 40
0.0836798495
 40
0.0972642747
 40
0.1115115545
 40
0.1264029602
 40
0.1419174104
 40
0.1580317106
 40
0.1747207585
 40
0.1919577273
 40
0.2097142195
 40
0.2279604045
 40
0.2466651434
 40
0.2657961005
 40
0.2853198566
 40
0.305202016
 40
0.3254073068
 40
0.3458996773
 40
0.3666423896
 40
0.3875981109
 40
0.4087290096
 40
0.4299968474
 40
0.4513630683
 40
0.4942347376
 40
0.5370332801
 40
0.5583082567
 40
0.5794486483
 40
0.6004161926
 40
0.6211730305
 40
0.6416817987
 40
0.661905721
 40
0.6818086997
 40
0.7013554106
 40
0.7205113992
 40
0.7392431856
 40
0.7575183691
 40
0.7753057334
 40
0.7925753624
 40
0.809298764
 40
0.8254490083
 40
0.8410008881
 40
0.8559310906
 40
0.8702183963
 40
0.8838439214
 40
0.8967914115
 40
0.9030068237
 40
0.9090480465
 40
0.9149139527
 40
0.9206036917
 40
0.9261166916
 40
0.9314526531
 40
0.9366116564
 40
0.9415940975
 40
0.9464008204
 40
0.9510331048
 40
0.9554927295
 40
0.9597820774
 40
0.9639041269
 40
0.9678626301
 40
0.9716621234
 40
0.9753080779
 40
0.9788070144
 40
0.9821665795
 40
0.98539574
 40
0.9885048207
 40
0.9915056561
 40
0.9944116179
 40
0.9972376074
 40
1.0
 40
1.0
 40
1.0
 40
1.0
 10
12.3189533212
 20
7.427131007
 30
0.0
 10
12.3201066763
 20
7.4282450625
 30
0.0
 10
12.3224121709
 20
7.4305706108
 30
0.0
 10
12.3257994448
 20
7.4342656355
 30
0.0
 10
12.3291832605
 20
7.4382353625
 30
0.0
 10
12.3325618663
 20
7.4424777139
 30
0.0
 10
12.335933752
 20
7.4469906911
 30
0.0
 10
12.3392973253
 20
7.4517721952
 30
0.0
 10
12.3426510521
 20
7.4568199288
 30
0.0
 10
12.3459932667
 20
7.4621314969
 30
0.0
 10
12.3493223996
 20
7.4677043331
 30
0.0
 10
12.3526368496
 20
7.4735357703
 30
0.0
 10
12.3559350049
 20
7.4796230183
 30
0.0
 10
12.3592153112
 20
7.4859631343
 30
0.0
 10
12.3624761566
 20
7.4925530899
 30
0.0
 10
12.3668559219
 20
7.5017953202
 30
0.0
 10
12.3722611614
 20
7.513957467
 30
0.0
 10
12.378559586
 20
7.5293027818
 30
0.0
 10
12.3847435294
 20
7.545562529
 30
0.0
 10
12.3908009668
 20
7.5627053191
 30
0.0
 10
12.3967201138
 20
7.5806981961
 30
0.0
 10
12.4024894492
 20
7.5995064517
 30
0.0
 10
12.4080977457
 20
7.6190937766
 30
0.0
 10
12.4135340869
 20
7.6394223217
 30
0.0
 10
12.4187878926
 20
7.6604527842
 30
0.0
 10
12.4238489394
 20
7.6821444857
 30
0.0
 10
12.4287073788
 20
7.7044554528
 30
0.0
 10
12.433353763
 20
7.7273424979
 30
0.0
 10
12.4377790597
 20
7.7507613068
 30
0.0
 10
12.4419746671
 20
7.7746665295
 30
0.0
 10
12.4459324312
 20
7.799011869
 30
0.0
 10
12.4496446611
 20
7.8237501722
 30
0.0
 10
12.4531041426
 20
7.8488335185
 30
0.0
 10
12.4563041613
 20
7.8742133171
 30
0.0
 10
12.4592384993
 20
7.8998403885
 30
0.0
 10
12.461901486
 20
7.9256651166
 30
0.0
 10
12.4650867687
 20
7.9603322708
 30
0.0
 10
12.468354866
 20
8.0037918468
 30
0.0
 10
12.4706662899
 20
8.0472756207
 30
0.0
 10
12.4719292872
 20
8.081947007
 30
0.0
 10
12.4725786747
 20
8.1077449654
 30
0.0
 10
12.4729308674
 20
8.1333377039
 30
0.0
 10
12.4729851748
 20
8.1586756748
 30
0.0
 10
12.472741516
 20
8.183709781
 30
0.0
 10
12.4722003824
 20
8.2083915299
 30
0.0
 10
12.4713628459
 20
8.2326731111
 30
0.0
 10
12.4702305553
 20
8.2565074928
 30
0.0
 10
12.4688057326
 20
8.2798485142
 30
0.0
 10
12.4670911745
 20
8.3026509786
 30
0.0
 10
12.4650902466
 20
8.3248707432
 30
0.0
 10
12.4628068725
 20
8.3464648045
 30
0.0
 10
12.460245528
 20
8.3673913824
 30
0.0
 10
12.4574112327
 20
8.3876100037
 30
0.0
 10
12.4543095385
 20
8.4070815864
 30
0.0
 10
12.4509465269
 20
8.4257685298
 30
0.0
 10
12.4473287889
 20
8.4436347734
 30
0.0
 10
12.4434634147
 20
8.4606459459
 30
0.0
 10
12.4393579515
 20
8.4767691889
 30
0.0
 10
12.4356952625
 20
8.4896086372
 30
0.0
 10
12.4326425658
 20
8.4994060151
 30
0.0
 10
12.4303292504
 20
8.5064127571
 30
0.0
 10
12.427962051
 20
8.5131751473
 30
0.0
 10
12.4255420967
 20
8.5196899394
 30
0.0
 10
12.4230705816
 20
8.5259540028
 30
0.0
 10
12.4205486502
 20
8.5319643172
 30
0.0
 10
12.4179775701
 20
8.5377180151
 30
0.0
 10
12.4153585199
 20
8.5432123268
 30
0.0
 10
12.4126927794
 20
8.548444636
 30
0.0
 10
12.4099816094
 20
8.5534124486
 30
0.0
 10
12.4072262543
 20
8.5581133858
 30
0.0
 10
12.4044280532
 20
8.5625452404
 30
0.0
 10
12.4015882306
 20
8.5667058768
 30
0.0
 10
12.3987081336
 20
8.5705933498
 30
0.0
 10
12.3957890215
 20
8.5742057948
 30
0.0
 10
12.3928321725
 20
8.5775414724
 30
0.0
 10
12.3898389014
 20
8.5805987943
 30
0.0
 10
12.3868104151
 20
8.5833761817
 30
0.0
 10
12.38374805
 20
8.5858722584
 30
0.0
 10
12.3806530283
 20
8.5880856056
 30
0.0
 10
12.3775267138
 20
8.5900149266
 30
0.0
 10
12.3743704055
 20
8.591659009
 30
0.0
 10
12.3711858769
 20
8.5930165089
 30
0.0
 10
12.3690243428
 20
8.5937366709
 30
0.0
 10
12.367943133
 20
8.5940463088
 30
0.0
  0
SPLINE
  5
3CF
100
AcDbEntity
  8
0
100
AcDbSpline
 62
7
  6
CONTINUOUS
 70
0
 71
3
 72
15
 73
11
 74
0
 42
0.0000001
 43
0.0000001
 44
0.0000000001
 40
0.0
 40
0.0
 40
0.0
 40
0.0
 40
0.1467556313
 40
0.2862151517
 40
0.4187841468
 40
0.5449781079
 40
0.6654150807
 40
0.7808201665
 40
0.8920314677
 40
1.0
 40
1.0
 40
1.0
 40
1.0
 10
12.3189533212
 20
7.427131007
 30
0.0
 10
12.3175894936
 20
7.4258136506
 30
0.0
 10
12.3148631633
 20
7.4233118382
 30
0.0
 10
12.3106680807
 20
7.4198891694
 30
0.0
 10
12.3064770135
 20
7.4168976071
 30
0.0
 10
12.3022928398
 20
7.4143398025
 30
0.0
 10
12.2981180697
 20
7.4122181769
 30
0.0
 10
12.2939552516
 20
7.4105349846
 30
0.0
 10
12.2898079199
 20
7.4092927605
 30
0.0
 10
12.287021802
 20
7.4087534911
 30
0.0
 10
12.285640072
 20
7.4085614163
 30
0.0
  0
SPLINE
  5
3D0
100
AcDbEntity
  8
0
100
AcDbSpline
 62
7
  6
CONTINUOUS
 70
0
 71
3
 72
23
 73
19
 74
0
 42
0.0000001
 43
0.0000001
 44
0.0000000001
 40
0.0
 40
0.0
 40
0.0
 40
0.0
 40
0.0755970481
 40
0.1466395192
 40
0.2134651039
 40
0.2765141432
 40
0.3363266137
 40
0.3935468688
 40
0.4489231172
 40
0.5032882226
 40
0.5575261408
 40
0.6125274601
 40
0.6691434874
 40
0.7281489695
 40
0.7902195499
 40
0.8559235776
 40
0.9257266248
 40
1.0
 40
1.0
 40
1.0
 40
1.0
 10
12.3189533212
 20
7.600997666
 30
0.0
 10
12.3177999206
 20
7.5998835665
 30
0.0
 10
12.3154946699
 20
7.5977909522
 30
0.0
 10
12.3119270563
 20
7.594995369
 30
0.0
 10
12.3083636426
 20
7.5926474605
 30
0.0
 10
12.3048076684
 20
7.5907507942
 30
0.0
 10
12.3012621406
 20
7.589308725
 30
0.0
 10
12.2977306716
 20
7.588324936
 30
0.0
 10
12.2942179347
 20
7.5878027385
 30
0.0
 10
12.2907297572
 20
7.5877447496
 30
0.0
 10
12.2872728458
 20
7.5881516997
 30
0.0
 10
12.2838539114
 20
7.5890224783
 30
0.0
 10
12.2804787489
 20
7.5903540848
 30
0.0
 10
12.2771518332
 20
7.5921426502
 30
0.0
 10
12.2738765541
 20
7.5943841095
 30
0.0
 10
12.2706555052
 20
7.5970745126
 30
0.0
 10
12.2674913621
 20
7.6002099636
 30
0.0
 10
12.2654859534
 20
7.6025201367
 30
0.0
 10
12.2644918422
 20
7.6037424413
 30
0.0
  0
SPLINE
  5
3D1
100
AcDbEntity
  8
0
100
AcDbSpline
 62
7
  6
CONTINUOUS
 70
0
 71
3
 72
18
 73
14
 74
0
 42
0.0000001
 43
0.0000001
 44
0.0000000001
 40
0.0
 40
0.0
 40
0.0
 40
0.0
 40
0.150467008
 40
0.2917141408
 40
0.4244426259
 40
0.4879099277
 40
0.549609295
 40
0.6682624161
 40
0.7817883561
 40
0.8371380822
 40
0.8918079419
 40
0.9460193459
 40
1.0
 40
1.0
 40
1.0
 40
1.0
 10
12.2803162859
 20
7.6423141889
 30
0.0
 10
12.2792561383
 20
7.6412901649
 30
0.0
 10
12.277137265
 20
7.6393687901
 30
0.0
 10
12.2738564254
 20
7.6368083031
 30
0.0
 10
12.2710851808
 20
7.634997396
 30
0.0
 10
12.2688753707
 20
7.6337710979
 30
0.0
 10
12.2667305704
 20
7.6327182911
 30
0.0
 10
12.2640488878
 20
7.6316544653
 30
0.0
 10
12.2613195048
 20
7.6309284797
 30
0.0
 10
12.2591577463
 20
7.6305708627
 30
0.0
 10
12.257555589
 20
7.6304121199
 30
0.0
 10
12.2559599103
 20
7.6303608555
 30
0.0
 10
12.2548997817
 20
7.6303983582
 30
0.0
 10
12.2543722619
 20
7.6304349405
 30
0.0
  0
SPLINE
  5
3D2
100
AcDbEntity
  8
0
100
AcDbSpline
 62
7
  6
CONTINUOUS
 70
0
 71
3
 72
18
 73
14
 74
0
 42
0.0000001
 43
0.0000001
 44
0.0000000001
 40
0.0
 40
0.0
 40
0.0
 40
0.0
 40
0.1504673397
 40
0.291710036
 40
0.4244360001
 40
0.5495624032
 40
0.6682140019
 40
0.7255497517
 40
0.7817912955
 40
0.8371402647
 40
0.891809381
 40
0.9460201143
 40
1.0
 40
1.0
 40
1.0
 40
1.0
 10
12.3344081361
 20
7.426059212
 30
0.0
 10
12.3327260207
 20
7.4244344132
 30
0.0
 10
12.3293641705
 20
7.4213858686
 30
0.0
 10
12.3241583773
 20
7.4173231566
 30
0.0
 10
12.3189586945
 20
7.4139253092
 30
0.0
 10
12.3137705099
 20
7.4111979113
 30
0.0
 10
12.3094099037
 20
7.4094684219
 30
0.0
 10
12.3059477695
 20
7.4084408713
 30
0.0
 10
12.3033880488
 20
7.4078486039
 30
0.0
 10
12.3008368215
 20
7.4074264719
 30
0.0
 10
12.2982947991
 20
7.4071746459
 30
0.0
 10
12.295762996
 20
7.4070932397
 30
0.0
 10
12.2940809382
 20
7.407152724
 30
0.0
 10
12.2932439465
 20
7.4072107657
 30
0.0
  0
SPLINE
  5
3D3
100
AcDbEntity
  8
0
100
AcDbSpline
 62
7
  6
CONTINUOUS
 70
0
 71
3
 72
92
 73
88
 74
0
 42
0.0000001
 43
0.0000001
 44
0.0000000001
 40
0.0
 40
0.0
 40
0.0
 40
0.0
 40
0.0042067366
 40
0.0086075244
 40
0.0132068283
 40
0.0180083448
 40
0.0230150823
 40
0.0282292321
 40
0.0336521258
 40
0.0392845348
 40
0.0451266321
 40
0.0511781492
 40
0.0574383514
 40
0.0639060741
 40
0.0705798373
 40
0.077457758
 40
0.0918168161
 40
0.1069632118
 40
0.1228724598
 40
0.1395166315
 40
0.1568647495
 40
0.1748831121
 40
0.1935355649
 40
0.21278374
 40
0.2325872776
 40
0.25290402
 40
0.2736901926
 40
0.2949005737
 40
0.3164886563
 40
0.3384068041
 40
0.3606064109
 40
0.3830380523
 40
0.4056516338
 40
0.451220911
 40
0.4969065388
 40
0.5196652416
 40
0.5422994728
 40
0.5647585554
 40
0.5869923134
 40
0.6089512217
 40
0.6305865578
 40
0.65185055
 40
0.6726965308
 40
0.6930790933
 40
0.7129542534
 40
0.7322796223
 40
0.7510145912
 40
0.7691205189
 40
0.7865609415
 40
0.8033018079
 40
0.8193117499
 40
0.8345624012
 40
0.8490287911
 40
0.8626898153
 40
0.8692132197
 40
0.8755294441
 40
0.8816372756
 40
0.8875358419
 40
0.8932247283
 40
0.8987040149
 40
0.903974277
 40
0.9090367625
 40
0.9138933332
 40
0.9185466869
 40
0.9230003746
 40
0.927258958
 40
0.9313281896
 40
0.9352150892
 40
0.9389282476
 40
0.9424779032
 40
0.9458762283
 40
0.9491374667
 40
0.9522780607
 40
0.9553167475
 40
0.9582744218
 40
0.9611739598
 40
0.9640397557
 40
0.9668971558
 40
0.9697717436
 40
0.972688619
 40
0.9756717075
 40
0.9787432566
 40
0.9852254055
 40
0.9886743218
 40
0.9922790758
 40
0.9960512115
 40
1.0
 40
1.0
 40
1.0
 40
1.0
 10
12.3189533212
 20
7.600997666
 30
0.0
 10
12.3198495156
 20
7.6018633234
 30
0.0
 10
12.3216407136
 20
7.6036790228
 30
0.0
 10
12.3242662059
 20
7.6065801866
 30
0.0
 10
12.3268883678
 20
7.6097176302
 30
0.0
 10
12.3295055455
 20
7.6130893343
 30
0.0
 10
12.3321162968
 20
7.616693351
 30
0.0
 10
12.3347191057
 20
7.6205276076
 30
0.0
 10
12.3373125038
 20
7.6245898351
 30
0.0
 10
12.3398948928
 20
7.6288776571
 30
0.0
 10
12.3424647907
 20
7.6333885135
 30
0.0
 10
12.3450206496
 20
7.6381197469
 30
0.0
 10
12.3475609529
 20
7.6430685524
 30
0.0
 10
12.3500842041
 20
7.6482319831
 30
0.0
 10
12.3525888748
 20
7.6536069854
 30
0.0
 10
12.3559500159
 20
7.6611601993
 30
0.0
 10
12.3600857644
 20
7.6711135766
 30
0.0
 10
12.364882694
 20
7.6836824512
 30
0.0
 10
12.3695707134
 20
7.6970119283
 30
0.0
 10
12.3741385486
 20
7.7110702131
 30
0.0
 10
12.3785752035
 20
7.7258238873
 30
0.0
 10
12.382869996
 20
7.7412377748
 30
0.0
 10
12.3870125877
 20
7.7572750983
 30
0.0
 10
12.3909930117
 20
7.773897556
 30
0.0
 10
12.3948016926
 20
7.7910654277
 30
0.0
 10
12.3984294709
 20
7.8087376734
 30
0.0
 10
12.4018676246
 20
7.8268720354
 30
0.0
 10
12.4051078896
 20
7.8454251403
 30
0.0
 10
12.4081424789
 20
7.8643526024
 30
0.0
 10
12.4109641083
 20
7.883609135
 30
0.0
 10
12.4135659973
 20
7.9031486484
 30
0.0
 10
12.415941928
 20
7.9229244124
 30
0.0
 10
12.4188080232
 20
7.9496108837
 30
0.0
 10
12.4217846181
 20
7.9832099212
 30
0.0
 10
12.4239437213
 20
8.0169144048
 30
0.0
 10
12.4251722943
 20
8.0438637886
 30
0.0
 10
12.4258387463
 20
8.0639505453
 30
0.0
 10
12.426249844
 20
8.0838886169
 30
0.0
 10
12.4264045938
 20
8.1036303178
 30
0.0
 10
12.4263026484
 20
8.1231283898
 30
0.0
 10
12.4259442739
 20
8.1423361742
 30
0.0
 10
12.4253303555
 20
8.1612077088
 30
0.0
 10
12.4244623938
 20
8.1796978419
 30
0.0
 10
12.4233425024
 20
8.1977623399
 30
0.0
 10
12.4219734027
 20
8.2153579957
 30
0.0
 10
12.4203584195
 20
8.2324427364
 30
0.0
 10
12.4185014773
 20
8.2489757282
 30
0.0
 10
12.416407086
 20
8.2649174779
 30
0.0
 10
12.4140803309
 20
8.2802299289
 30
0.0
 10
12.4115268609
 20
8.2948765646
 30
0.0
 10
12.4087528723
 20
8.3088224843
 30
0.0
 10
12.4057650948
 20
8.3220345781
 30
0.0
 10
12.4025707564
 20
8.3344813639
 30
0.0
 10
12.3997007223
 20
8.3443375562
 30
0.0
 10
12.3972988901
 20
8.3518107829
 30
0.0
 10
12.3954784168
 20
8.3571198154
 30
0.0
 10
12.3936122481
 20
8.3622163317
 30
0.0
 10
12.3917014469
 20
8.3670973118
 30
0.0
 10
12.3897471555
 20
8.3717598608
 30
0.0
 10
12.3877505566
 20
8.3762012314
 30
0.0
 10
12.3857127769
 20
8.3804187879
 30
0.0
 10
12.3836350707
 20
8.3844100704
 30
0.0
 10
12.3815185859
 20
8.3881727172
 30
0.0
 10
12.3793645777
 20
8.3917045425
 30
0.0
 10
12.3771742548
 20
8.3950034831
 30
0.0
 10
12.374948814
 20
8.3980675999
 30
0.0
 10
12.3726895185
 20
8.4008951337
 30
0.0
 10
12.3703975014
 20
8.4034843698
 30
0.0
 10
12.3680740178
 20
8.4058338027
 30
0.0
 10
12.3657201903
 20
8.4079419309
 30
0.0
 10
12.363337213
 20
8.4098073829
 30
0.0
 10
12.3609262842
 20
8.4114288423
 30
0.0
 10
12.3584886147
 20
8.4128049552
 30
0.0
 10
12.3560256081
 20
8.4139345519
 30
0.0
 10
12.3535387349
 20
8.4148163492
 30
0.0
 10
12.351029762
 20
8.4154493913
 30
0.0
 10
12.3485006121
 20
8.415832821
 30
0.0
 10
12.3459534077
 20
8.4159661649
 30
0.0
 10
12.3433903103
 20
8.4158493936
 30
0.0
 10
12.340813493
 20
8.4154827368
 30
0.0
 10
12.3382247614
 20
8.4148668576
 30
0.0
 10
12.3346975013
 20
8.4136938656
 30
0.0
 10
12.3312071745
 20
8.4120241464
 30
0.0
 10
12.3277861655
 20
8.4099304326
 30
0.0
 10
12.3251622534
 20
8.4080833312
 30
0.0
 10
12.3225359852
 20
8.4059936657
 30
0.0
 10
12.3208243204
 20
8.4044752957
 30
0.0
 10
12.3199681324
 20
8.4036784826
 30
0.0
  0
SPLINE
  5
3D4
100
AcDbEntity
  8
0
100
AcDbSpline
 62
7
  6
CONTINUOUS
 70
0
 71
3
 72
80
 73
76
 74
0
 42
0.0000001
 43
0.0000001
 44
0.0000000001
 40
0.0
 40
0.0
 40
0.0
 40
0.0
 40
0.0039883799
 40
0.0081453752
 40
0.0124746386
 40
0.0169792156
 40
0.021661669
 40
0.0265240231
 40
0.0315676328
 40
0.0367933336
 40
0.042201574
 40
0.0477923628
 40
0.0595195651
 40
0.0719693889
 40
0.0851313116
 40
0.0989911574
 40
0.1135315518
 40
0.1287323373
 40
0.1445709047
 40
0.1610224436
 40
0.1780601318
 40
0.1956553356
 40
0.2137777909
 40
0.2323957448
 40
0.2514760677
 40
0.2709843863
 40
0.2908852167
 40
0.311142073
 40
0.3317175598
 40
0.3736702008
 40
0.4164307353
 40
0.4596780682
 40
0.5030864323
 40
0.5463285118
 40
0.5890785868
 40
0.6310156693
 40
0.6515815081
 40
0.6718274996
 40
0.6917162816
 40
0.711211397
 40
0.7302773921
 40
0.7488799298
 40
0.7669859313
 40
0.7845636874
 40
0.801582979
 40
0.818015225
 40
0.8338336755
 40
0.8490135854
 40
0.8635324141
 40
0.8773700842
 40
0.8905093296
 40
0.9029360806
 40
0.9146399417
 40
0.9202190025
 40
0.9256155028
 40
0.9308294768
 40
0.9358613995
 40
0.940712184
 40
0.9453831863
 40
0.9498763813
 40
0.9541943136
 40
0.9583402313
 40
0.9623182136
 40
0.9661331738
 40
0.9697910847
 40
0.9732990446
 40
0.9766653897
 40
0.9798999101
 40
0.9830138747
 40
0.9860201789
 40
0.9889333931
 40
0.9917696852
 40
0.9945467564
 40
0.9972835667
 40
1.0
 40
1.0
 40
1.0
 40
1.0
 10
12.2803162859
 20
7.6423141889
 30
0.0
 10
12.2810571738
 20
7.6430298317
 30
0.0
 10
12.2825381459
 20
7.6445249335
 30
0.0
 10
12.2847131696
 20
7.6469027694
 30
0.0
 10
12.2868859156
 20
7.6494602818
 30
0.0
 10
12.2890551705
 20
7.652196084
 30
0.0
 10
12.291219943
 20
7.655108808
 30
0.0
 10
12.2933791673
 20
7.658197065
 30
0.0
 10
12.2955318213
 20
7.6614593274
 30
0.0
 10
12.2976768346
 20
7.6648939705
 30
0.0
 10
12.2998131191
 20
7.668499302
 30
0.0
 10
12.3026944633
 20
7.6736133419
 30
0.0
 10
12.3062593526
 20
7.680427394
 30
0.0
 10
12.3104202293
 20
7.6891290294
 30
0.0
 10
12.314521249
 20
7.6984638082
 30
0.0
 10
12.3185541525
 20
7.7084130967
 30
0.0
 10
12.3225108269
 20
7.7189571501
 30
0.0
 10
12.3263832895
 20
7.73007492
 30
0.0
 10
12.3301637177
 20
7.7417441907
 30
0.0
 10
12.3338444642
 20
7.7539416061
 30
0.0
 10
12.3374180939
 20
7.7666427188
 30
0.0
 10
12.3408773895
 20
7.7798220471
 30
0.0
 10
12.344215361
 20
7.7934531392
 30
0.0
 10
12.3474252591
 20
7.8075086268
 30
0.0
 10
12.3505006022
 20
7.8219602733
 30
0.0
 10
12.3534351884
 20
7.8367790367
 30
0.0
 10
12.3562230875
 20
7.8519351279
 30
0.0
 10
12.3588586934
 20
7.8673981052
 30
0.0
 10
12.362184007
 20
7.8885192574
 30
0.0
 10
12.3659149124
 20
7.9154578643
 30
0.0
 10
12.3696810266
 20
7.9482937368
 30
0.0
 10
12.3727339991
 20
7.9815811658
 30
0.0
 10
12.3750492131
 20
8.0150526244
 30
0.0
 10
12.3766080895
 20
8.0484393322
 30
0.0
 10
12.3773981586
 20
8.0814729552
 30
0.0
 10
12.3774110342
 20
8.1086594828
 30
0.0
 10
12.3770246442
 20
8.1300279928
 30
0.0
 10
12.3765424976
 20
8.1456981519
 30
0.0
 10
12.3758671957
 20
8.1610843819
 30
0.0
 10
12.375000098
 20
8.1761557779
 30
0.0
 10
12.3739429768
 20
8.1908820368
 30
0.0
 10
12.3726979762
 20
8.2052335626
 30
0.0
 10
12.3712676376
 20
8.2191815216
 30
0.0
 10
12.3696548761
 20
8.2326979032
 30
0.0
 10
12.3678629742
 20
8.2457555701
 30
0.0
 10
12.3658955709
 20
8.2583283195
 30
0.0
 10
12.3637566753
 20
8.2703909475
 30
0.0
 10
12.3614506449
 20
8.2819193008
 30
0.0
 10
12.3589821705
 20
8.2928903296
 30
0.0
 10
12.3563562584
 20
8.3032821222
 30
0.0
 10
12.3535782371
 20
8.3130740471
 30
0.0
 10
12.3506537214
 20
8.3222465517
 30
0.0
 10
12.3480597162
 20
8.329470148
 30
0.0
 10
12.3459088904
 20
8.3349187943
 30
0.0
 10
12.3442886304
 20
8.3387737652
 30
0.0
 10
12.3426362286
 20
8.342460769
 30
0.0
 10
12.3409524971
 20
8.3459779839
 30
0.0
 10
12.3392382931
 20
8.3493236733
 30
0.0
 10
12.3374944125
 20
8.3524961633
 30
0.0
 10
12.3357217492
 20
8.3554939071
 30
0.0
 10
12.3339211401
 20
8.3583154214
 30
0.0
 10
12.3320934251
 20
8.360959305
 30
0.0
 10
12.3302395074
 20
8.363424284
 30
0.0
 10
12.3283601953
 20
8.3657091102
 30
0.0
 10
12.3264563641
 20
8.3678126587
 30
0.0
 10
12.3245288727
 20
8.3697338791
 30
0.0
 10
12.3225785174
 20
8.3714717246
 30
0.0
 10
12.3206061894
 20
8.3730252954
 30
0.0
 10
12.3186127131
 20
8.3743936599
 30
0.0
 10
12.3165989672
 20
8.3755759298
 30
0.0
 10
12.3145659154
 20
8.3765713279
 30
0.0
 10
12.3125145559
 20
8.377378993
 30
0.0
 10
12.3104459801
 20
8.3779982645
 30
0.0
 10
12.3083616522
 20
8.3784285444
 30
0.0
 10
12.3069602012
 20
8.3785893139
 30
0.0
 10
12.3062603099
 20
8.3786378499
 30
0.0
  0
SPLINE
  5
3D5
100
AcDbEntity
  8
0
100
AcDbSpline
 62
7
  6
CONTINUOUS
 70
0
 71
3
 72
26
 73
22
 74
0
 42
0.0000001
 43
0.0000001
 44
0.0000000001
 40
0.0
 40
0.0
 40
0.0
 40
0.0
 40
0.0638511251
 40
0.095697601
 40
0.1274886603
 40
0.1909036336
 40
0.2541054532
 40
0.3170998782
 40
0.3798951353
 40
0.442501356
 40
0.5049306701
 40
0.5671970377
 40
0.629316136
 40
0.6913052011
 40
0.7222594202
 40
0.7531882183
 40
0.8149742816
 40
0.8766895593
 40
0.9075300783
 40
0.9383610413
 40
1.0
 40
1.0
 40
1.0
 40
1.0
 10
10.6782089281
 20
8.2228475874
 30
0.0
 10
10.6876790223
 20
8.2221908341
 30
0.0
 10
10.7018999868
 20
8.2215556122
 30
0.0
 10
10.7208548031
 20
8.2214155902
 30
0.0
 10
10.7397427376
 20
8.2217462963
 30
0.0
 10
10.7632685778
 20
8.2230403675
 30
0.0
 10
10.7913139794
 20
8.2260034045
 30
0.0
 10
10.8190828472
 20
8.2303681564
 30
0.0
 10
10.8465066158
 20
8.2361239532
 30
0.0
 10
10.8735181274
 20
8.2432567671
 30
0.0
 10
10.9000510338
 20
8.2517491409
 30
0.0
 10
10.9260403352
 20
8.2615803676
 30
0.0
 10
10.9514218129
 20
8.2727261388
 30
0.0
 10
10.9720257605
 20
8.2830926882
 30
0.0
 10
10.9881394328
 20
8.2920131735
 30
0.0
 10
11.0039867309
 20
8.3013394247
 30
0.0
 10
11.0233075213
 20
8.3137635987
 30
0.0
 10
11.0419337864
 20
8.3271842203
 30
0.0
 10
11.0563805815
 20
8.3384920924
 30
0.0
 10
11.0705135621
 20
8.3501713101
 30
0.0
 10
11.0807604779
 20
8.3593491155
 30
0.0
 10
11.0874220261
 20
8.3656421138
 30
0.0
  0
SPLINE
  5
3D6
100
AcDbEntity
  8
0
100
AcDbSpline
 62
7
  6
CONTINUOUS
 70
0
 71
3
 72
49
 73
45
 74
0
 42
0.0000001
 43
0.0000001
 44
0.0000000001
 40
0.0
 40
0.0
 40
0.0
 40
0.0
 40
0.0311371401
 40
0.0624266774
 40
0.0938626806
 40
0.1254356501
 40
0.1571335071
 40
0.1889416832
 40
0.220843435
 40
0.2528201951
 40
0.284851947
 40
0.3169176157
 40
0.3489954766
 40
0.3810635726
 40
0.4131001332
 40
0.445083991
 40
0.4769949919
 40
0.5088143907
 40
0.5405252238
 40
0.5721126631
 40
0.6035643308
 40
0.6348705762
 40
0.6660247136
 40
0.6970231967
 40
0.7124664393
 40
0.7278709399
 40
0.7432371833
 40
0.7585658584
 40
0.7738578597
 40
0.7891142846
 40
0.804336425
 40
0.8195257637
 40
0.834683969
 40
0.8498128838
 40
0.8649145158
 40
0.8799910306
 40
0.8950447374
 40
0.9100780751
 40
0.9250936023
 40
0.9400939816
 40
0.9550819619
 40
0.9700603657
 40
0.9850320725
 40
1.0
 40
1.0
 40
1.0
 40
1.0
 10
10.6782089281
 20
8.2228475874
 30
0.0
 10
10.6642369772
 20
8.2238165455
 30
0.0
 10
10.6362849938
 20
8.2267773423
 30
0.0
 10
10.5946933773
 20
8.2342270947
 30
0.0
 10
10.5535432857
 20
8.2446572178
 30
0.0
 10
10.5130550168
 20
8.2580121264
 30
0.0
 10
10.4734417385
 20
8.2742208346
 30
0.0
 10
10.434912928
 20
8.2931974436
 30
0.0
 10
10.3976720217
 20
8.3148414341
 30
0.0
 10
10.3619156824
 20
8.3390382174
 30
0.0
 10
10.3278327835
 20
8.3656598838
 30
0.0
 10
10.2956033004
 20
8.3945656552
 30
0.0
 10
10.2653974584
 20
8.4256027764
 30
0.0
 10
10.237374884
 20
8.4586073185
 30
0.0
 10
10.2116836015
 20
8.4934048956
 30
0.0
 10
10.1884594521
 20
8.5298117488
 30
0.0
 10
10.1678252932
 20
8.5676356119
 30
0.0
 10
10.1498902682
 20
8.6066766926
 30
0.0
 10
10.1347494448
 20
8.6467288076
 30
0.0
 10
10.1224831061
 20
8.6875803975
 30
0.0
 10
10.1131563755
 20
8.7290155037
 30
0.0
 10
10.1068190494
 20
8.7708155655
 30
0.0
 10
10.1035048894
 20
8.8127580828
 30
0.0
 10
10.1032774316
 20
8.8476936594
 30
0.0
 10
10.1046224127
 20
8.8754847419
 30
0.0
 10
10.1063891071
 20
8.8962015465
 30
0.0
 10
10.1089126663
 20
8.9167876741
 30
0.0
 10
10.1121897992
 20
8.9372162187
 30
0.0
 10
10.1162161708
 20
8.9574600426
 30
0.0
 10
10.1209864301
 20
8.9774923778
 30
0.0
 10
10.1264943201
 20
8.997286685
 30
0.0
 10
10.1327325649
 20
9.016816753
 30
0.0
 10
10.1396928754
 20
9.0360567344
 30
0.0
 10
10.1473660811
 20
9.0549811404
 30
0.0
 10
10.1557420536
 20
9.0735648979
 30
0.0
 10
10.1648096647
 20
9.0917834159
 30
0.0
 10
10.1745569373
 20
9.1096125569
 30
0.0
 10
10.184971006
 20
9.1270286854
 30
0.0
 10
10.1960380381
 20
9.1440087587
 30
0.0
 10
10.2077433975
 20
9.1605302885
 30
0.0
 10
10.2200716066
 20
9.1765713396
 30
0.0
 10
10.2330063795
 20
9.1921107677
 30
0.0
 10
10.2465302905
 20
9.2071277198
 30
0.0
 10
10.2559283818
 20
9.21677869
 30
0.0
 10
10.2607185615
 20
9.2215096394
 30
0.0
  0
SPLINE
  5
3D7
100
AcDbEntity
  8
0
100
AcDbSpline
 62
7
  6
CONTINUOUS
 70
0
 71
3
 72
71
 73
67
 74
0
 42
0.0000001
 43
0.0000001
 44
0.0000000001
 40
0.0
 40
0.0
 40
0.0
 40
0.0
 40
0.0156747439
 40
0.0314022082
 40
0.0471806388
 40
0.0630088954
 40
0.0788847426
 40
0.0948057519
 40
0.1107690087
 40
0.1267712324
 40
0.1428087906
 40
0.1588777352
 40
0.1749738406
 40
0.1910926413
 40
0.2072294725
 40
0.2233795109
 40
0.239537818
 40
0.255699384
 40
0.2718591706
 40
0.2880121553
 40
0.3041533743
 40
0.3202779661
 40
0.3363812146
 40
0.3524585914
 40
0.3685057961
 40
0.3845187957
 40
0.4004938614
 40
0.4164276041
 40
0.4323170079
 40
0.4481594607
 40
0.4639527819
 40
0.4796952457
 40
0.4953856017
 40
0.5110230908
 40
0.5266074579
 40
0.5421389597
 40
0.5576183678
 40
0.5730469656
 40
0.5884265412
 40
0.6037593735
 40
0.6190482143
 40
0.6342962647
 40
0.6495071464
 40
0.6646848669
 40
0.6798337803
 40
0.6949585438
 40
0.7100640694
 40
0.7251554736
 40
0.7402380233
 40
0.7553170806
 40
0.7703980447
 40
0.7854862946
 40
0.8005871313
 40
0.8157057213
 40
0.830847042
 40
0.8460158305
 40
0.8612165344
 40
0.8764532676
 40
0.8917297685
 40
0.907049366
 40
0.9224149485
 40
0.9378289216
 40
0.953293278
 40
0.9688092644
 40
0.9843782511
 40
1.0
 40
1.0
 40
1.0
 40
1.0
 10
10.6782089281
 20
8.3967142464
 30
0.0
 10
10.6716395113
 20
8.397169837
 30
0.0
 10
10.6584987055
 20
8.3984048278
 30
0.0
 10
10.6388702868
 20
8.4012155328
 30
0.0
 10
10.6193363741
 20
8.4049810843
 30
0.0
 10
10.5999447535
 20
8.4096921531
 30
0.0
 10
10.580741832
 20
8.4153374948
 30
0.0
 10
10.5617739283
 20
8.4219034181
 30
0.0
 10
10.5430866781
 20
8.4293741161
 30
0.0
 10
10.5247250684
 20
8.4377315642
 30
0.0
 10
10.5067332895
 20
8.4469556122
 30
0.0
 10
10.4891546428
 20
8.4570240306
 30
0.0
 10
10.4720314348
 20
8.4679125635
 30
0.0
 10
10.4554048771
 20
8.4795949868
 30
0.0
 10
10.4393149887
 20
8.4920431718
 30
0.0
 10
10.423800498
 20
8.5052271482
 30
0.0
 10
10.4088987414
 20
8.5191151681
 30
0.0
 10
10.3946455841
 20
8.5336737958
 30
0.0
 10
10.3810753334
 20
8.5488679859
 30
0.0
 10
10.3682206575
 20
8.5646611675
 30
0.0
 10
10.3561125069
 20
8.5810153304
 30
0.0
 10
10.3447800427
 20
8.5978911175
 30
0.0
 10
10.3342505519
 20
8.615247909
 30
0.0
 10
10.3245493906
 20
8.6330439281
 30
0.0
 10
10.3156999274
 20
8.6512363433
 30
0.0
 10
10.3077234871
 20
8.6697813692
 30
0.0
 10
10.3006392989
 20
8.6886343711
 30
0.0
 10
10.2944644528
 20
8.7077499713
 30
0.0
 10
10.2892138489
 20
8.7270821551
 30
0.0
 10
10.2849001558
 20
8.7465843809
 30
0.0
 10
10.281533795
 20
8.7662096963
 30
0.0
 10
10.279122912
 20
8.7859108485
 30
0.0
 10
10.2776733575
 20
8.805640397
 30
0.0
 10
10.2771886722
 20
8.8253508266
 30
0.0
 10
10.2776700777
 20
8.8449946606
 30
0.0
 10
10.2791164549
 20
8.864524576
 30
0.0
 10
10.2815243631
 20
8.8838935185
 30
0.0
 10
10.2848880475
 20
8.9030548144
 30
0.0
 10
10.2891994516
 20
8.9219622821
 30
0.0
 10
10.2944482352
 20
8.9405703437
 30
0.0
 10
10.3006217998
 20
8.9588341327
 30
0.0
 10
10.3077053042
 20
8.9767096087
 30
0.0
 10
10.3156817033
 20
8.9941536644
 30
0.0
 10
10.3245317982
 20
9.0111242266
 30
0.0
 10
10.3342342793
 20
9.027580359
 30
0.0
 10
10.3447657771
 20
9.0434823613
 30
0.0
 10
10.3561009186
 20
9.0587918656
 30
0.0
 10
10.3682123842
 20
9.0734719321
 30
0.0
 10
10.3810709647
 20
9.0874871494
 30
0.0
 10
10.3946456474
 20
9.1008037105
 30
0.0
 10
10.4089036897
 20
9.1133894961
 30
0.0
 10
10.4238106984
 20
9.1252141519
 30
0.0
 10
10.4393307136
 20
9.1362491634
 30
0.0
 10
10.4554262971
 20
9.1464679224
 30
0.0
 10
10.4720586141
 20
9.1558458071
 30
0.0
 10
10.4891875375
 20
9.1643602322
 30
0.0
 10
10.5067717476
 20
9.1719906987
 30
0.0
 10
10.5247688324
 20
9.1787188423
 30
0.0
 10
10.5431353899
 20
9.1845284785
 30
0.0
 10
10.5618271355
 20
9.1894056384
 30
0.0
 10
10.5807989959
 20
9.193338602
 30
0.0
 10
10.6000052638
 20
9.1963179681
 30
0.0
 10
10.6193995507
 20
9.1983365533
 30
0.0
 10
10.638935411
 20
9.1993896432
 30
0.0
 10
10.6585650095
 20
9.1994746308
 30
0.0
 10
10.6716617219
 20
9.19888678
 30
0.0
 10
10.6782089281
 20
9.1984327298
 30
0.0
  0
SPLINE
  5
3D8
100
AcDbEntity
  8
0
100
AcDbSpline
 62
7
  6
CONTINUOUS
 70
0
 71
3
 72
39
 73
35
 74
0
 42
0.0000001
 43
0.0000001
 44
0.0000000001
 40
0.0
 40
0.0
 40
0.0
 40
0.0
 40
0.0311450474
 40
0.0624431122
 40
0.0938883415
 40
0.1254709904
 40
0.157178884
 40
0.1889972611
 40
0.2209091755
 40
0.2528958437
 40
0.2849370231
 40
0.3170114138
 40
0.3490970738
 40
0.3811718446
 40
0.413213777
 40
0.4452015561
 40
0.477114918
 40
0.5089350506
 40
0.5406449736
 40
0.5722298927
 40
0.6036775219
 40
0.6349783626
 40
0.6661259349
 40
0.6971169558
 40
0.7279514584
 40
0.7586328412
 40
0.7891678431
 40
0.8195664432
 40
0.8498416843
 40
0.8800094163
 40
0.9100879629
 40
0.9400977199
 40
0.9700606953
 40
1.0
 40
1.0
 40
1.0
 40
1.0
 10
10.6885616813
 20
8.4453512741
 30
0.0
 10
10.6797165466
 20
8.4459646863
 30
0.0
 10
10.6620211377
 20
8.4478419509
 30
0.0
 10
10.6356925587
 20
8.45257085
 30
0.0
 10
10.6096459851
 20
8.4591945903
 30
0.0
 10
10.5840220762
 20
8.4676775821
 30
0.0
 10
10.55895698
 20
8.477974369
 30
0.0
 10
10.5345843975
 20
8.4900298623
 30
0.0
 10
10.5110341579
 20
8.5037796247
 30
0.0
 10
10.4884317497
 20
8.5191502429
 30
0.0
 10
10.4668976084
 20
8.5360597151
 30
0.0
 10
10.446546481
 20
8.5544178581
 30
0.0
 10
10.4274868052
 20
8.5741267795
 30
0.0
 10
10.4098201677
 20
8.5950814292
 30
0.0
 10
10.3936407669
 20
8.6171701452
 30
0.0
 10
10.3790349124
 20
8.6402752361
 30
0.0
 10
10.3660805273
 20
8.6642735777
 30
0.0
 10
10.354846782
 20
8.6890372964
 30
0.0
 10
10.3453937232
 20
8.7144344337
 30
0.0
 10
10.3377719625
 20
8.74032964
 30
0.0
 10
10.3320223489
 20
8.7665848691
 30
0.0
 10
10.3281757862
 20
8.7930601228
 30
0.0
 10
10.3262530725
 20
8.8196141853
 30
0.0
 10
10.3262647871
 20
8.8461053635
 30
0.0
 10
10.328211178
 20
8.8723922318
 30
0.0
 10
10.3320821527
 20
8.8983343898
 30
0.0
 10
10.3378573513
 20
8.9237932041
 30
0.0
 10
10.3455062369
 20
8.948632548
 30
0.0
 10
10.3549882104
 20
8.9727195234
 30
0.0
 10
10.3662528251
 20
8.9959252446
 30
0.0
 10
10.3792399251
 20
9.0181253562
 30
0.0
 10
10.393880587
 20
9.0392013349
 30
0.0
 10
10.4100951015
 20
9.0590388315
 30
0.0
 10
10.4219014088
 20
9.0713725259
 30
0.0
 10
10.4280317101
 20
9.0772939379
 30
0.0
  0
SPLINE
  5
3D9
100
AcDbEntity
  8
0
100
AcDbSpline
 62
7
  6
CONTINUOUS
 70
0
 71
3
 72
42
 73
38
 74
0
 42
0.0000001
 43
0.0000001
 44
0.0000000001
 40
0.0
 40
0.0
 40
0.0
 40
0.0
 40
0.0309382555
 40
0.0464590299
 40
0.062012076
 40
0.0932100335
 40
0.1245294254
 40
0.1559622431
 40
0.1874986776
 40
0.2191274093
 40
0.2508357496
 40
0.2826098484
 40
0.3144348996
 40
0.3462953615
 40
0.3781751823
 40
0.4100580325
 40
0.4419275391
 40
0.4737675206
 40
0.5055622198
 40
0.5372965325
 40
0.5689562302
 40
0.6005281722
 40
0.6320005074
 40
0.663362861
 40
0.6946065038
 40
0.7257245024
 40
0.756711846
 40
0.7875655471
 40
0.8182847146
 40
0.8488705952
 40
0.8641165001
 40
0.8793305355
 40
0.9096621371
 40
0.9398769192
 40
0.9549454445
 40
0.9699884918
 40
1.0
 40
1.0
 40
1.0
 40
1.0
 10
10.8845704903
 20
8.6636590326
 30
0.0
 10
10.8775544335
 20
8.6641455978
 30
0.0
 10
10.8670378099
 20
8.6652079253
 30
0.0
 10
10.8530922007
 20
8.6672767056
 30
0.0
 10
10.8391587566
 20
8.669786692
 30
0.0
 10
10.8218453998
 20
8.6737407367
 30
0.0
 10
10.8013419652
 20
8.6797636229
 30
0.0
 10
10.7811691663
 20
8.6870457236
 30
0.0
 10
10.7614075013
 20
8.6955579874
 30
0.0
 10
10.7421352201
 20
8.7052665776
 30
0.0
 10
10.7234287898
 20
8.7161329081
 30
0.0
 10
10.705362385
 20
8.728113819
 30
0.0
 10
10.6880076536
 20
8.7411617424
 30
0.0
 10
10.6714334198
 20
8.7552248912
 30
0.0
 10
10.655705417
 20
8.7702474633
 30
0.0
 10
10.6408860288
 20
8.7861698616
 30
0.0
 10
10.6270340435
 20
8.8029289284
 30
0.0
 10
10.6142044221
 20
8.8204581948
 30
0.0
 10
10.6024480825
 20
8.8386881414
 30
0.0
 10
10.5918116976
 20
8.8575464722
 30
0.0
 10
10.582337511
 20
8.8769583984
 30
0.0
 10
10.5740631703
 20
8.896846933
 30
0.0
 10
10.5670215783
 20
8.9171331928
 30
0.0
 10
10.5612407616
 20
8.9377367096
 30
0.0
 10
10.5567437583
 20
8.9585757415
 30
0.0
 10
10.5535485278
 20
8.9795676108
 30
0.0
 10
10.5516678667
 20
9.0006289654
 30
0.0
 10
10.5511093945
 20
9.021676343
 30
0.0
 10
10.5518753728
 20
9.0426256231
 30
0.0
 10
10.5536171588
 20
9.0599528255
 30
0.0
 10
10.5556689397
 20
9.0736793845
 30
0.0
 10
10.5581514858
 20
9.0872758755
 30
0.0
 10
10.5620653612
 20
9.1040603692
 30
0.0
 10
10.5670559247
 20
9.1205224185
 30
0.0
 10
10.5716776812
 20
9.1334359883
 30
0.0
 10
10.5767053474
 20
9.1461467432
 30
0.0
 10
10.5809441563
 20
9.1554811271
 30
0.0
 10
10.5839704434
 20
9.1615954166
 30
0.0
  0
SPLINE
  5
3DA
100
AcDbEntity
  8
0
100
AcDbSpline
 62
7
  6
CONTINUOUS
 70
0
 71
3
 72
42
 73
38
 74
0
 42
0.0000001
 43
0.0000001
 44
0.0000000001
 40
0.0
 40
0.0
 40
0.0
 40
0.0
 40
0.0308930851
 40
0.0463894941
 40
0.061917015
 40
0.0930611005
 40
0.124323057
 40
0.1556955903
 40
0.1871697999
 40
0.2187353904
 40
0.2503808013
 40
0.282093383
 40
0.3138595731
 40
0.3456650857
 40
0.3774951058
 40
0.4093344902
 40
0.4411679701
 40
0.4729803557
 40
0.50475674
 40
0.5364826998
 40
0.5681444919
 40
0.5997292432
 40
0.631225132
 40
0.6626215588
 40
0.6939093036
 40
0.7250806691
 40
0.7561296052
 40
0.7870518148
 40
0.8178448367
 40
0.8485081045
 40
0.8637932448
 40
0.8790466205
 40
0.9094563936
 40
0.9397462622
 40
0.9548502441
 40
0.969927044
 40
1.0
 40
1.0
 40
1.0
 40
1.0
 10
10.8800876166
 20
8.6303511324
 30
0.0
 10
10.8727210867
 20
8.630862003
 30
0.0
 10
10.8616789726
 20
8.6319654758
 30
0.0
 10
10.8470322343
 20
8.6340987712
 30
0.0
 10
10.8323963418
 20
8.6366797513
 30
0.0
 10
10.8142028252
 20
8.6407348618
 30
0.0
 10
10.7926386068
 20
8.6468996562
 30
0.0
 10
10.7713985843
 20
8.654345342
 30
0.0
 10
10.7505618649
 20
8.6630441912
 30
0.0
 10
10.7302054536
 20
8.6729639356
 30
0.0
 10
10.7104047335
 20
8.6840677789
 30
0.0
 10
10.6912329832
 20
8.6963145587
 30
0.0
 10
10.6727611639
 20
8.7096588928
 30
0.0
 10
10.6550576436
 20
8.7240513478
 30
0.0
 10
10.6381879503
 20
8.7394386211
 30
0.0
 10
10.6222145305
 20
8.755763737
 30
0.0
 10
10.6071965191
 20
8.7729662563
 30
0.0
 10
10.5931895231
 20
8.790982499
 30
0.0
 10
10.580245416
 20
8.8097457777
 30
0.0
 10
10.5684121474
 20
8.829186643
 30
0.0
 10
10.5577335663
 20
8.8492331385
 30
0.0
 10
10.5482492591
 20
8.869811065
 30
0.0
 10
10.5399944038
 20
8.8908442522
 30
0.0
 10
10.5329996392
 20
8.91225484
 30
0.0
 10
10.5272909511
 20
8.9339635589
 30
0.0
 10
10.5228895764
 20
8.9558900378
 30
0.0
 10
10.5198119169
 20
8.9779530364
 30
0.0
 10
10.5180695008
 20
9.0000709742
 30
0.0
 10
10.5176688465
 20
9.0221613751
 30
0.0
 10
10.5184554592
 20
9.0405001383
 30
0.0
 10
10.5197566304
 20
9.0550729354
 30
0.0
 10
10.5214998728
 20
9.0695384733
 30
0.0
 10
10.5245090262
 20
9.0874546585
 30
0.0
 10
10.5286240797
 20
9.1051131229
 30
0.0
 10
10.5325671182
 20
9.1190212032
 30
0.0
 10
10.5369319067
 20
9.1327477968
 30
0.0
 10
10.5406909055
 20
9.1428741499
 30
0.0
 10
10.5434067421
 20
9.1495295487
 30
0.0
  0
SPLINE
  5
3DB
100
AcDbEntity
  8
0
100
AcDbSpline
 62
7
  6
CONTINUOUS
 70
0
 71
3
 72
15
 73
11
 74
0
 42
0.0000001
 43
0.0000001
 44
0.0000000001
 40
0.0
 40
0.0
 40
0.0
 40
0.0
 40
0.1331280495
 40
0.2613154534
 40
0.3857579216
 40
0.50777547
 40
0.6287754839
 40
0.7502044769
 40
0.8734925105
 40
1.0
 40
1.0
 40
1.0
 40
1.0
 10
12.0747087012
 20
10.1560495145
 30
0.0
 10
12.0752780161
 20
10.1549894077
 30
0.0
 10
12.0763048335
 20
10.1528578371
 30
0.0
 10
12.0775066508
 20
10.1495786493
 30
0.0
 10
12.0783351171
 20
10.146288434
 30
0.0
 10
12.0787883553
 20
10.1429911383
 30
0.0
 10
12.0788651604
 20
10.1396907891
 30
0.0
 10
12.0785654076
 20
10.1363916486
 30
0.0
 10
12.0778898877
 20
10.1330983719
 30
0.0
 10
12.0772009849
 20
10.1309432066
 30
0.0
 10
12.0767994205
 20
10.1298725722
 30
0.0
  0
SPLINE
  5
3DC
100
AcDbEntity
  8
0
100
AcDbSpline
 62
7
  6
CONTINUOUS
 70
0
 71
3
 72
23
 73
19
 74
0
 42
0.0000001
 43
0.0000001
 44
0.0000000001
 40
0.0
 40
0.0
 40
0.0
 40
0.0
 40
0.0434722387
 40
0.0899076031
 40
0.1392613544
 40
0.191469528
 40
0.2464518087
 40
0.3041138021
 40
0.3643487698
 40
0.4270389845
 40
0.492056836
 40
0.5592659754
 40
0.6285221017
 40
0.6996738881
 40
0.7725638014
 40
0.8470269551
 40
0.9228986526
 40
1.0
 40
1.0
 40
1.0
 40
1.0
 10
10.7190089435
 20
8.8864058107
 30
0.0
 10
10.7211473391
 20
8.8874531891
 30
0.0
 10
10.7256235715
 20
8.8895107884
 30
0.0
 10
10.7326817982
 20
8.8924076499
 30
0.0
 10
10.7402899271
 20
8.8952103624
 30
0.0
 10
10.7484290983
 20
8.8979118523
 30
0.0
 10
10.7570793469
 20
8.9005053918
 30
0.0
 10
10.7662192879
 20
8.9029844648
 30
0.0
 10
10.7758262986
 20
8.9053428434
 30
0.0
 10
10.7858765452
 20
8.9075745943
 30
0.0
 10
10.7963450594
 20
8.9096741148
 30
0.0
 10
10.807205807
 20
8.9116361275
 30
0.0
 10
10.8184317658
 20
8.9134557031
 30
0.0
 10
10.8299950055
 20
8.915128269
 30
0.0
 10
10.8418666687
 20
8.9166496084
 30
0.0
 10
10.8540173337
 20
8.9180159521
 30
0.0
 10
10.8664165126
 20
8.9192238011
 30
0.0
 10
10.8747670223
 20
8.9199163514
 30
0.0
 10
10.8789779902
 20
8.9202362416
 30
0.0
  0
SPLINE
  5
3DD
100
AcDbEntity
  8
0
100
AcDbSpline
 62
7
  6
CONTINUOUS
 70
0
 71
3
 72
71
 73
67
 74
0
 42
0.0000001
 43
0.0000001
 44
0.0000000001
 40
0.0
 40
0.0
 40
0.0
 40
0.0
 40
0.0156217489
 40
0.0311907356
 40
0.046706722
 40
0.0621710784
 40
0.0775850515
 40
0.092950634
 40
0.1082702315
 40
0.1235467324
 40
0.1387834656
 40
0.1539841695
 40
0.169152958
 40
0.1842942787
 40
0.1994128687
 40
0.2145137054
 40
0.2296019553
 40
0.2446829194
 40
0.2597619767
 40
0.2748445264
 40
0.2899359306
 40
0.3050414562
 40
0.3201662197
 40
0.3353151331
 40
0.3504928536
 40
0.3657037353
 40
0.3809517857
 40
0.3962406265
 40
0.4115734588
 40
0.4269530344
 40
0.4423816322
 40
0.4578610403
 40
0.4733925421
 40
0.4889769092
 40
0.5046143983
 40
0.5203047543
 40
0.5360472181
 40
0.5518405393
 40
0.5676829921
 40
0.5835723959
 40
0.5995061386
 40
0.6154812043
 40
0.6314942039
 40
0.6475414086
 40
0.6636187854
 40
0.6797220339
 40
0.6958466257
 40
0.7119878447
 40
0.7281408294
 40
0.744300616
 40
0.760462182
 40
0.7766204891
 40
0.7927705275
 40
0.8089073587
 40
0.8250261594
 40
0.8411222648
 40
0.8571912094
 40
0.8732287676
 40
0.8892309913
 40
0.9051942481
 40
0.9211152574
 40
0.9369911046
 40
0.9528193612
 40
0.9685977918
 40
0.9843252561
 40
1.0
 40
1.0
 40
1.0
 40
1.0
 10
10.6782089281
 20
8.3967142464
 30
0.0
 10
10.6847561342
 20
8.3962601961
 30
0.0
 10
10.6978528467
 20
8.3956723453
 30
0.0
 10
10.7174824452
 20
8.395757333
 30
0.0
 10
10.7370183054
 20
8.3968104229
 30
0.0
 10
10.7564125924
 20
8.3988290081
 30
0.0
 10
10.7756188602
 20
8.4018083742
 30
0.0
 10
10.7945907207
 20
8.4057413377
 30
0.0
 10
10.8132824663
 20
8.4106184977
 30
0.0
 10
10.8316490237
 20
8.4164281339
 30
0.0
 10
10.8496461086
 20
8.4231562775
 30
0.0
 10
10.8672303187
 20
8.430786744
 30
0.0
 10
10.884359242
 20
8.4393011691
 30
0.0
 10
10.900991559
 20
8.4486790538
 30
0.0
 10
10.9170871425
 20
8.4588978127
 30
0.0
 10
10.9326071577
 20
8.4699328243
 30
0.0
 10
10.9475141665
 20
8.4817574801
 30
0.0
 10
10.9617722087
 20
8.4943432657
 30
0.0
 10
10.9753468915
 20
8.5076598268
 30
0.0
 10
10.988205472
 20
8.5216750441
 30
0.0
 10
11.0003169375
 20
8.5363551106
 30
0.0
 10
11.011652079
 20
8.5516646148
 30
0.0
 10
11.0221835768
 20
8.5675666172
 30
0.0
 10
11.031886058
 20
8.5840227496
 30
0.0
 10
11.0407361529
 20
8.6009933118
 30
0.0
 10
11.0487125519
 20
8.6184373674
 30
0.0
 10
11.0557960563
 20
8.6363128435
 30
0.0
 10
11.061969621
 20
8.6545766325
 30
0.0
 10
11.0672184045
 20
8.673184694
 30
0.0
 10
11.0715298087
 20
8.6920921618
 30
0.0
 10
11.074893493
 20
8.7112534577
 30
0.0
 10
11.0773014012
 20
8.7306224002
 30
0.0
 10
11.0787477784
 20
8.7501523156
 30
0.0
 10
11.0792291839
 20
8.7697961496
 30
0.0
 10
11.0787444986
 20
8.7895065791
 30
0.0
 10
11.0772949441
 20
8.8092361277
 30
0.0
 10
11.0748840611
 20
8.8289372798
 30
0.0
 10
11.0715177003
 20
8.8485625952
 30
0.0
 10
11.0672040073
 20
8.8680648211
 30
0.0
 10
11.0619534033
 20
8.8873970049
 30
0.0
 10
11.0557785572
 20
8.9065126051
 30
0.0
 10
11.0486943691
 20
8.925365607
 30
0.0
 10
11.0407179288
 20
8.9439106329
 30
0.0
 10
11.0318684656
 20
8.9621030481
 30
0.0
 10
11.0221673042
 20
8.9798990672
 30
0.0
 10
11.0116378134
 20
8.9972558587
 30
0.0
 10
11.0003053493
 20
9.0141316457
 30
0.0
 10
10.9881971987
 20
9.0304858087
 30
0.0
 10
10.9753425227
 20
9.0462789903
 30
0.0
 10
10.961772272
 20
9.0614731804
 30
0.0
 10
10.9475191148
 20
9.0760318081
 30
0.0
 10
10.9326173581
 20
9.0899198279
 30
0.0
 10
10.9171028674
 20
9.1031038044
 30
0.0
 10
10.901012979
 20
9.1155519893
 30
0.0
 10
10.8843864213
 20
9.1272344127
 30
0.0
 10
10.8672632133
 20
9.1381229456
 30
0.0
 10
10.8496845667
 20
9.148191364
 30
0.0
 10
10.8316927878
 20
9.157415412
 30
0.0
 10
10.8133311781
 20
9.1657728601
 30
0.0
 10
10.7946439279
 20
9.1732435581
 30
0.0
 10
10.7756760241
 20
9.1798094814
 30
0.0
 10
10.7564731026
 20
9.1854548231
 30
0.0
 10
10.7370814821
 20
9.1901658919
 30
0.0
 10
10.7175475694
 20
9.1939314434
 30
0.0
 10
10.6979191506
 20
9.1967421484
 30
0.0
 10
10.6847783449
 20
9.1979771392
 30
0.0
 10
10.6782089281
 20
9.1984327298
 30
0.0
  0
SPLINE
  5
3DE
100
AcDbEntity
  8
0
100
AcDbSpline
 62
7
  6
CONTINUOUS
 70
0
 71
3
 72
24
 73
20
 74
0
 42
0.0000001
 43
0.0000001
 44
0.0000000001
 40
0.0
 40
0.0
 40
0.0
 40
0.0
 40
0.0638479197
 40
0.1274790272
 40
0.190892855
 40
0.254094742
 40
0.3170899765
 40
0.3798867868
 40
0.4424951323
 40
0.5049269755
 40
0.5671960872
 40
0.6293179347
 40
0.6913095318
 40
0.7531892677
 40
0.8149767208
 40
0.8766924545
 40
0.9075327504
 40
0.9383631671
 40
1.0
 40
1.0
 40
1.0
 40
1.0
 10
10.6782089281
 20
6.3199735969
 30
0.0
 10
10.6851797817
 20
6.3194901665
 30
0.0
 10
10.6991239303
 20
6.3188657083
 30
0.0
 10
10.7200234051
 20
6.3189627135
 30
0.0
 10
10.7408222214
 20
6.3200947936
 30
0.0
 10
10.7614690513
 20
6.3222591528
 30
0.0
 10
10.7819140063
 20
6.3254506733
 30
0.0
 10
10.8021072986
 20
6.3296616013
 30
0.0
 10
10.8219998661
 20
6.3348817786
 30
0.0
 10
10.8415433329
 20
6.3410985618
 30
0.0
 10
10.8606901742
 20
6.3482968818
 30
0.0
 10
10.8793938293
 20
6.3564592779
 30
0.0
 10
10.897608785
 20
6.3655659229
 30
0.0
 10
10.9152908037
 20
6.3755947585
 30
0.0
 10
10.9323965985
 20
6.3865212165
 30
0.0
 10
10.9461406339
 20
6.3963554466
 30
0.0
 10
10.9568041736
 20
6.4046423862
 30
0.0
 10
10.9672385444
 20
6.4132020139
 30
0.0
 10
10.9748068769
 20
6.4199291828
 30
0.0
 10
10.9797285554
 20
6.4245422477
 30
0.0
  0
SPLINE
  5
3DF
100
AcDbEntity
  8
0
100
AcDbSpline
 62
7
  6
CONTINUOUS
 70
0
 71
3
 72
45
 73
41
 74
0
 42
0.0000001
 43
0.0000001
 44
0.0000000001
 40
0.0
 40
0.0
 40
0.0
 40
0.0
 40
0.0311356388
 40
0.0624233814
 40
0.093857438
 40
0.1254282622
 40
0.1571238634
 40
0.1889297283
 40
0.2208291837
 40
0.2528037395
 40
0.2848334564
 40
0.3168973376
 40
0.3489737345
 40
0.3810407598
 40
0.413076705
 40
0.4450604546
 40
0.4769718926
 40
0.508792296
 40
0.5405047097
 40
0.5720942928
 40
0.6035486342
 40
0.6348580333
 40
0.6660157319
 40
0.6970180921
 40
0.7278647191
 40
0.7585585217
 40
0.7891056963
 40
0.8195156391
 40
0.8346756507
 40
0.8498062587
 40
0.864909454
 40
0.8799873791
 40
0.8950423247
 40
0.9100767127
 40
0.9250930815
 40
0.9400940767
 40
0.955082432
 40
0.9700609537
 40
0.9850325079
 40
1.0
 40
1.0
 40
1.0
 40
1.0
 10
10.6782089281
 20
6.3199735969
 30
0.0
 10
10.667892954
 20
6.3206890121
 30
0.0
 10
10.6472550739
 20
6.3228738709
 30
0.0
 10
10.6165459355
 20
6.3283690757
 30
0.0
 10
10.5861617736
 20
6.3360614239
 30
0.0
 10
10.5562647227
 20
6.3459100805
 30
0.0
 10
10.5270117365
 20
6.3578629015
 30
0.0
 10
10.4985569887
 20
6.3718566755
 30
0.0
 10
10.4710502523
 20
6.3878175158
 30
0.0
 10
10.4446363695
 20
6.4056612445
 30
0.0
 10
10.419454392
 20
6.4252937715
 30
0.0
 10
10.3956368851
 20
6.4466116174
 30
0.0
 10
10.3733092626
 20
6.4695024881
 30
0.0
 10
10.3525891362
 20
6.4938458475
 30
0.0
 10
10.3335856348
 20
6.5195134909
 30
0.0
 10
10.3163988929
 20
6.5463702724
 30
0.0
 10
10.3011195426
 20
6.5742748086
 30
0.0
 10
10.2878282108
 20
6.6030801912
 30
0.0
 10
10.2765950517
 20
6.6326347377
 30
0.0
 10
10.2674794506
 20
6.6627828169
 30
0.0
 10
10.2605297137
 20
6.6933656468
 30
0.0
 10
10.2557827392
 20
6.7242221021
 30
0.0
 10
10.2532638324
 20
6.7551895579
 30
0.0
 10
10.2529866259
 20
6.7861047751
 30
0.0
 10
10.2549529397
 20
6.8168046127
 30
0.0
 10
10.2591528487
 20
6.8471273608
 30
0.0
 10
10.2655641144
 20
6.8769118408
 30
0.0
 10
10.2727307603
 20
6.9011820416
 30
0.0
 10
10.2795309846
 20
6.9201645784
 30
0.0
 10
10.2851525696
 20
6.9341575676
 30
0.0
 10
10.2912927874
 20
6.9479007964
 30
0.0
 10
10.2979436699
 20
6.9613763583
 30
0.0
 10
10.3050963568
 20
6.9745664232
 30
0.0
 10
10.3127414473
 20
6.9874535816
 30
0.0
 10
10.3208688807
 20
7.000020791
 30
0.0
 10
10.3294678736
 20
7.0122515041
 30
0.0
 10
10.3385271169
 20
7.024129519
 30
0.0
 10
10.3480346999
 20
7.0356392108
 30
0.0
 10
10.3579778178
 20
7.0467652129
 30
0.0
 10
10.3648892366
 20
7.0539179324
 30
0.0
 10
10.3684123651
 20
7.0574248341
 30
0.0
  0
SPLINE
  5
3E0
100
AcDbEntity
  8
0
100
AcDbSpline
 62
7
  6
CONTINUOUS
 70
0
 71
3
 72
60
 73
56
 74
0
 42
0.0000001
 43
0.0000001
 44
0.0000000001
 40
0.0
 40
0.0
 40
0.0
 40
0.0
 40
0.0170295095
 40
0.0336732667
 40
0.0498697174
 40
0.0655512205
 40
0.08063684
 40
0.0950389984
 40
0.1086629443
 40
0.1151541656
 40
0.1214163425
 40
0.1274398664
 40
0.1332167581
 40
0.1387416735
 40
0.1440130491
 40
0.1490329526
 40
0.1538092905
 40
0.1626841019
 40
0.1668375028
 40
0.1708406987
 40
0.1747324061
 40
0.1785539114
 40
0.182347862
 40
0.186155233
 40
0.1900131393
 40
0.1939536989
 40
0.2021744383
 40
0.2064952126
 40
0.2109685605
 40
0.2203909614
 40
0.2304570662
 40
0.2411501449
 40
0.2524362725
 40
0.2642784223
 40
0.2766352173
 40
0.2894701898
 40
0.3027478941
 40
0.3305084703
 40
0.3449391722
 40
0.3597067089
 40
0.3747933787
 40
0.3901814882
 40
0.4218066191
 40
0.4380210202
 40
0.4544889231
 40
0.4881544602
 40
0.5227479054
 40
0.5582251994
 40
0.5945525138
 40
0.6317023874
 40
0.6696527122
 40
0.7478791928
 40
0.8291035858
 40
0.9131958996
 40
1.0
 40
1.0
 40
1.0
 40
1.0
 10
10.6887507032
 20
8.9965412593
 30
0.0
 10
10.688751637
 20
8.9980294368
 30
0.0
 10
10.6887875857
 20
9.0009722025
 30
0.0
 10
10.6889515124
 20
9.0053276376
 30
0.0
 10
10.6892299138
 20
9.0095593375
 30
0.0
 10
10.6896276841
 20
9.0136448343
 30
0.0
 10
10.6901508396
 20
9.0175582769
 30
0.0
 10
10.6908051479
 20
9.0212696899
 30
0.0
 10
10.6914751911
 20
9.0242124784
 30
0.0
 10
10.6920892667
 20
9.0264346137
 30
0.0
 10
10.6925792426
 20
9.0280009962
 30
0.0
 10
10.6931064837
 20
9.029489226
 30
0.0
 10
10.6936713988
 20
9.0308944466
 30
0.0
 10
10.6942744643
 20
9.032211887
 30
0.0
 10
10.6949155127
 20
9.0334371492
 30
0.0
 10
10.6955949636
 20
9.0345662402
 30
0.0
 10
10.6965282095
 20
9.0359054194
 30
0.0
 10
10.6975582447
 20
9.0370831722
 30
0.0
 10
10.6986868342
 20
9.038056585
 30
0.0
 10
10.699550059
 20
9.0386626979
 30
0.0
 10
10.700446703
 20
9.0391610311
 30
0.0
 10
10.7013752718
 20
9.0395521856
 30
0.0
 10
10.702333708
 20
9.039838022
 30
0.0
 10
10.7033199803
 20
9.040021471
 30
0.0
 10
10.7043323318
 20
9.0401056723
 30
0.0
 10
10.7057338087
 20
9.0400913532
 30
0.0
 10
10.7071668444
 20
9.0398903105
 30
0.0
 10
10.7086119362
 20
9.0395381948
 30
0.0
 10
10.7101342906
 20
9.0390696486
 30
0.0
 10
10.7120834257
 20
9.0382954614
 30
0.0
 10
10.7144516479
 20
9.037130057
 30
0.0
 10
10.7168854971
 20
9.0357422317
 30
0.0
 10
10.7193829215
 20
9.0341601217
 30
0.0
 10
10.7219412705
 20
9.0324068163
 30
0.0
 10
10.7245597851
 20
9.0305043999
 30
0.0
 10
10.7272367452
 20
9.0284705005
 30
0.0
 10
10.7309385999
 20
9.025561571
 30
0.0
 10
10.7346943434
 20
9.0224965505
 30
0.0
 10
10.7385210958
 20
9.0193135352
 30
0.0
 10
10.7414856176
 20
9.0168258745
 30
0.0
 10
10.7445073889
 20
9.0142763264
 30
0.0
 10
10.7486514148
 20
9.0107724454
 30
0.0
 10
10.7528718769
 20
9.0072063216
 30
0.0
 10
10.7571755204
 20
9.0035924775
 30
0.0
 10
10.7616266711
 20
8.9998770595
 30
0.0
 10
10.7673360802
 20
8.9951627159
 30
0.0
 10
10.7743795704
 20
8.9894555156
 30
0.0
 10
10.7816671803
 20
8.9836809022
 30
0.0
 10
10.7892012104
 20
8.9778586205
 30
0.0
 10
10.7969840723
 20
8.9720061735
 30
0.0
 10
10.8078049109
 20
8.9641035898
 30
0.0
 10
10.821960833
 20
8.9542400429
 30
0.0
 10
10.8397991408
 20
8.9426250372
 30
0.0
 10
10.8586515149
 20
8.9312150735
 30
0.0
 10
10.8716879347
 20
8.9239217439
 30
0.0
 10
10.8783714181
 20
8.9203338241
 30
0.0
  0
SPLINE
  5
3E1
100
AcDbEntity
  8
0
100
AcDbSpline
 62
7
  6
CONTINUOUS
 70
0
 71
3
 72
67
 73
63
 74
0
 42
0.0000001
 43
0.0000001
 44
0.0000000001
 40
0.0
 40
0.0
 40
0.0
 40
0.0
 40
0.0156750942
 40
0.0314033581
 40
0.0471822291
 40
0.0630110277
 40
0.078887432
 40
0.0948089712
 40
0.110772773
 40
0.1267755397
 40
0.1428136435
 40
0.1588831344
 40
0.1749797863
 40
0.1910991351
 40
0.2233785987
 40
0.2556910937
 40
0.287996481
 40
0.3202548685
 40
0.3363586645
 40
0.3524365872
 40
0.3684843373
 40
0.384497882
 40
0.4004734902
 40
0.4164077731
 40
0.4322977167
 40
0.4481407093
 40
0.4639345675
 40
0.4796775654
 40
0.4953684542
 40
0.5110064753
 40
0.5265913717
 40
0.5421234007
 40
0.5576033351
 40
0.5730324586
 40
0.5884125566
 40
0.6037459086
 40
0.6190352684
 40
0.634283838
 40
0.649495237
 40
0.6646734728
 40
0.6798229009
 40
0.6949481788
 40
0.7100542177
 40
0.7251461339
 40
0.7402291958
 40
0.7553087663
 40
0.7703902437
 40
0.785479006
 40
0.800580355
 40
0.8156994586
 40
0.8308412945
 40
0.8460105982
 40
0.8612118184
 40
0.8764490695
 40
0.8917260901
 40
0.9070462114
 40
0.9224123039
 40
0.9378268167
 40
0.9532917037
 40
0.9688081228
 40
0.9843779034
 40
1.0
 40
1.0
 40
1.0
 40
1.0
 10
10.6782089281
 20
6.4890106265
 30
0.0
 10
10.6740140481
 20
6.4893015424
 30
0.0
 10
10.6656229114
 20
6.4900901728
 30
0.0
 10
10.653089101
 20
6.4918849291
 30
0.0
 10
10.6406155954
 20
6.4942894599
 30
0.0
 10
10.6282330104
 20
6.4972977133
 30
0.0
 10
10.6159709036
 20
6.5009025808
 30
0.0
 10
10.6038588723
 20
6.5050952944
 30
0.0
 10
10.5919260479
 20
6.5098657301
 30
0.0
 10
10.5802011612
 20
6.5152023984
 30
0.0
 10
10.5687124266
 20
6.5210924707
 30
0.0
 10
10.5574875552
 20
6.5275216686
 30
0.0
 10
10.5465532907
 20
6.5344747279
 30
0.0
 10
10.5323928345
 20
6.5444242286
 30
0.0
 10
10.5155516899
 20
6.5580842064
 30
0.0
 10
10.4969218215
 20
6.5762622638
 30
0.0
 10
10.4800352933
 20
6.5960629106
 30
0.0
 10
10.4675414692
 20
6.6137721761
 30
0.0
 10
10.4585729635
 20
6.6285560813
 30
0.0
 10
10.4523781168
 20
6.639919981
 30
0.0
 10
10.4467272846
 20
6.6515367748
 30
0.0
 10
10.4416338779
 20
6.6633787889
 30
0.0
 10
10.4371102565
 20
6.6754174546
 30
0.0
 10
10.4331672892
 20
6.6876238041
 30
0.0
 10
10.4298144839
 20
6.6999684482
 30
0.0
 10
10.4270599424
 20
6.7124216742
 30
0.0
 10
10.4249103486
 20
6.7249535042
 30
0.0
 10
10.4233708781
 20
6.7375337586
 30
0.0
 10
10.4224452562
 20
6.7501321443
 30
0.0
 10
10.4221357498
 20
6.762718322
 30
0.0
 10
10.4224431619
 20
6.7752619748
 30
0.0
 10
10.423366755
 20
6.7877328839
 30
0.0
 10
10.4249043259
 20
6.8001010049
 30
0.0
 10
10.4270522103
 20
6.8123365336
 30
0.0
 10
10.4298052904
 20
6.8244099737
 30
0.0
 10
10.4331569338
 20
6.8362922259
 30
0.0
 10
10.437099082
 20
6.8479546472
 30
0.0
 10
10.4416222688
 20
6.8593691141
 30
0.0
 10
10.4467156401
 20
6.8705080862
 30
0.0
 10
10.4523669113
 20
6.8813447068
 30
0.0
 10
10.4585624677
 20
6.8918528415
 30
0.0
 10
10.4652873938
 20
6.9020071365
 30
0.0
 10
10.4725255073
 20
6.9117830767
 30
0.0
 10
10.4802593368
 20
6.9211570923
 30
0.0
 10
10.4884702292
 20
6.9301065756
 30
0.0
 10
10.497138391
 20
6.9386099319
 30
0.0
 10
10.5062429334
 20
6.9466466286
 30
0.0
 10
10.5157618732
 20
6.9541973035
 30
0.0
 10
10.5256722418
 20
6.961243759
 30
0.0
 10
10.535950137
 20
6.9677690022
 30
0.0
 10
10.5465707771
 20
6.9737572835
 30
0.0
 10
10.557508525
 20
6.9791942017
 30
0.0
 10
10.5687369935
 20
6.9840666741
 30
0.0
 10
10.5802291052
 20
6.9883629666
 30
0.0
 10
10.5919571536
 20
6.9920727204
 30
0.0
 10
10.6038928466
 20
6.9951870403
 30
0.0
 10
10.6160074061
 20
6.9976984675
 30
0.0
 10
10.6282716506
 20
6.9996009649
 30
0.0
 10
10.640655936
 20
7.0008899237
 30
0.0
 10
10.6531306883
 20
7.0015623947
 30
0.0
 10
10.6656652477
 20
7.0016166326
 30
0.0
 10
10.674028231
 20
7.0012412771
 30
0.0
 10
10.6782089281
 20
7.0009513447
 30
0.0
  0
SPLINE
  5
3E2
100
AcDbEntity
  8
0
100
AcDbSpline
 62
7
  6
CONTINUOUS
 70
0
 71
3
 72
23
 73
19
 74
0
 42
0.0000001
 43
0.0000001
 44
0.0000000001
 40
0.0
 40
0.0
 40
0.0
 40
0.0
 40
0.0638617654
 40
0.1275030803
 40
0.1909230764
 40
0.2541276764
 40
0.317122389
 40
0.3799159305
 40
0.4425188195
 40
0.5049436701
 40
0.5672049961
 40
0.6293190749
 40
0.6913037887
 40
0.7531784352
 40
0.8149635246
 40
0.8766805577
 40
0.9383517929
 40
1.0
 40
1.0
 40
1.0
 40
1.0
 10
10.6885616813
 20
8.4453512741
 30
0.0
 10
10.6946081226
 20
8.444931952
 30
0.0
 10
10.7067032239
 20
8.4443955674
 30
0.0
 10
10.7248302659
 20
8.4445035974
 30
0.0
 10
10.742866885
 20
8.4455254046
 30
0.0
 10
10.7607669506
 20
8.4474583526
 30
0.0
 10
10.7784856783
 20
8.450297722
 30
0.0
 10
10.7959783634
 20
8.454036363
 30
0.0
 10
10.8132009797
 20
8.4586649392
 30
0.0
 10
10.830110141
 20
8.4641718334
 30
0.0
 10
10.846663255
 20
8.4705432134
 30
0.0
 10
10.8628186188
 20
8.4777630687
 30
0.0
 10
10.8785355228
 20
8.4858132441
 30
0.0
 10
10.8937743688
 20
8.4946735004
 30
0.0
 10
10.9084967147
 20
8.5043215098
 30
0.0
 10
10.922665579
 20
8.5147331128
 30
0.0
 10
10.9362447774
 20
8.5258816175
 30
0.0
 10
10.9448833784
 20
8.5337881452
 30
0.0
 10
10.9490916525
 20
8.5378530229
 30
0.0
  0
SPLINE
  5
3E3
100
AcDbEntity
  8
0
100
AcDbSpline
 62
7
  6
CONTINUOUS
 70
0
 71
3
 72
41
 73
37
 74
0
 42
0.0000001
 43
0.0000001
 44
0.0000000001
 40
0.0
 40
0.0
 40
0.0
 40
0.0
 40
0.0311447181
 40
0.062442515
 40
0.0938874625
 40
0.1254698002
 40
0.1571773985
 40
0.1730760322
 40
0.1890002546
 40
0.2209118669
 40
0.2528982321
 40
0.2689155106
 40
0.284943791
 40
0.3170178783
 40
0.3491032352
 40
0.3811777027
 40
0.4132193318
 40
0.4452068082
 40
0.4771198677
 40
0.5089396984
 40
0.5406493204
 40
0.5722339407
 40
0.603681273
 40
0.6349818179
 40
0.6661290955
 40
0.6971198236
 40
0.727954035
 40
0.7586351272
 40
0.7891698391
 40
0.8195681507
 40
0.8498431051
 40
0.8800105515
 40
0.910088813
 40
0.940098286
 40
0.9700609781
 40
1.0
 40
1.0
 40
1.0
 40
1.0
 10
10.685973493
 20
6.5254883972
 30
0.0
 10
10.6804305481
 20
6.5258728018
 30
0.0
 10
10.6693414219
 20
6.5270492218
 30
0.0
 10
10.6528421972
 20
6.530012652
 30
0.0
 10
10.6365195976
 20
6.5341635715
 30
0.0
 10
10.6204622335
 20
6.5394794508
 30
0.0
 10
10.6073830492
 20
6.544852482
 30
0.0
 10
10.5971361714
 20
6.5497004862
 30
0.0
 10
10.5870310855
 20
6.5549174675
 30
0.0
 10
10.5747228784
 20
6.5621034601
 30
0.0
 10
10.5629238786
 20
6.5701274125
 30
0.0
 10
10.5538183
 20
6.5770286176
 30
0.0
 10
10.5449417704
 20
6.5842468187
 30
0.0
 10
10.5343104367
 20
6.5938369406
 30
0.0
 10
10.5223666163
 20
6.6061876668
 30
0.0
 10
10.5112954633
 20
6.6193193047
 30
0.0
 10
10.5011563963
 20
6.6331615572
 30
0.0
 10
10.4920033869
 20
6.6476407491
 30
0.0
 10
10.483885306
 20
6.6626797081
 30
0.0
 10
10.4768454958
 20
6.6781983068
 30
0.0
 10
10.4709215848
 20
6.6941138476
 30
0.0
 10
10.4661452753
 20
6.710341508
 30
0.0
 10
10.4625421757
 20
6.7267947832
 30
0.0
 10
10.4601316609
 20
6.7433859422
 30
0.0
 10
10.4589267648
 20
6.7600264884
 30
0.0
 10
10.4589341057
 20
6.7766276266
 30
0.0
 10
10.46015384
 20
6.7931007311
 30
0.0
 10
10.4625796535
 20
6.8093578163
 30
0.0
 10
10.4661987868
 20
6.8253120041
 30
0.0
 10
10.4709920935
 20
6.8408779906
 30
0.0
 10
10.4769341237
 20
6.8559724972
 30
0.0
 10
10.4839932786
 20
6.8705147508
 30
0.0
 10
10.4921318624
 20
6.88442682
 30
0.0
 10
10.5013066797
 20
6.897634431
 30
0.0
 10
10.511467767
 20
6.9100659358
 30
0.0
 10
10.5188663861
 20
6.9177950512
 30
0.0
 10
10.5227080392
 20
6.9215058052
 30
0.0
  0
SPLINE
  5
3E4
100
AcDbEntity
  8
0
100
AcDbSpline
 62
7
  6
CONTINUOUS
 70
0
 71
3
 72
39
 73
35
 74
0
 42
0.0000001
 43
0.0000001
 44
0.0000000001
 40
0.0
 40
0.0
 40
0.0
 40
0.0
 40
0.0308961411
 40
0.0619204523
 40
0.0930682029
 40
0.1243342762
 40
0.1557110328
 40
0.1871896249
 40
0.2187596565
 40
0.2504095069
 40
0.2821264471
 40
0.3138968366
 40
0.3457063088
 40
0.3775399692
 40
0.4093825971
 40
0.4412188516
 40
0.4730334777
 40
0.5048115117
 40
0.536538484
 40
0.5682006173
 40
0.5997850172
 40
0.6312798558
 40
0.6626745425
 40
0.6939598828
 40
0.7251282214
 40
0.7561735677
 40
0.7870917013
 40
0.8178802548
 40
0.8485387714
 40
0.8790687362
 40
0.9094735779
 40
0.9397586411
 40
0.9699311265
 40
1.0
 40
1.0
 40
1.0
 40
1.0
 10
10.8267337726
 20
6.6846346159
 30
0.0
 10
10.8225794128
 20
6.6849227217
 30
0.0
 10
10.8142688842
 20
6.6857537841
 30
0.0
 10
10.8018776572
 20
6.6877522573
 30
0.0
 10
10.7895788158
 20
6.6904979479
 30
0.0
 10
10.777418772
 20
6.6939804463
 30
0.0
 10
10.7654425514
 20
6.6981868198
 30
0.0
 10
10.7536947544
 20
6.7031013308
 30
0.0
 10
10.7422190506
 20
6.7087056746
 30
0.0
 10
10.7310581145
 20
6.7149789626
 30
0.0
 10
10.7202534438
 20
6.7218978361
 30
0.0
 10
10.7098452116
 20
6.7294365389
 30
0.0
 10
10.6998721179
 20
6.7375670178
 30
0.0
 10
10.6903712467
 20
6.7462590248
 30
0.0
 10
10.6813779284
 20
6.7554802282
 30
0.0
 10
10.6729256085
 20
6.7651963323
 30
0.0
 10
10.6650457257
 20
6.7753712052
 30
0.0
 10
10.6577675955
 20
6.7859670124
 30
0.0
 10
10.6511183016
 20
6.796944356
 30
0.0
 10
10.6451225962
 20
6.8082624202
 30
0.0
 10
10.6398028079
 20
6.8198791217
 30
0.0
 10
10.635178759
 20
6.8317512647
 30
0.0
 10
10.631267692
 20
6.8438347001
 30
0.0
 10
10.6280842047
 20
6.856084488
 30
0.0
 10
10.6256401959
 20
6.8684550633
 30
0.0
 10
10.6239448197
 20
6.8809004034
 30
0.0
 10
10.6230044481
 20
6.8933741977
 30
0.0
 10
10.6228226485
 20
6.9058300201
 30
0.0
 10
10.6234001664
 20
6.9182214955
 30
0.0
 10
10.6247349286
 20
6.9305024908
 30
0.0
 10
10.6268220196
 20
6.9426272137
 30
0.0
 10
10.6296538026
 20
6.9545506498
 30
0.0
 10
10.6332195543
 20
6.9662277422
 30
0.0
 10
10.636082408
 20
6.9738329202
 30
0.0
 10
10.6376311737
 20
6.9775781563
 30
0.0
  0
SPLINE
  5
3E5
100
AcDbEntity
  8
0
100
AcDbSpline
 62
7
  6
CONTINUOUS
 70
0
 71
3
 72
39
 73
35
 74
0
 42
0.0000001
 43
0.0000001
 44
0.0000000001
 40
0.0
 40
0.0
 40
0.0
 40
0.0
 40
0.0308543313
 40
0.0618327495
 40
0.0929305123
 40
0.1241432587
 40
0.1554639095
 40
0.1868844477
 40
0.2183953831
 40
0.2499861028
 40
0.2816449543
 40
0.3133594169
 40
0.3451162629
 40
0.3769017292
 40
0.4087016925
 40
0.4405018472
 40
0.4722878852
 40
0.5040456758
 40
0.5357614439
 40
0.5674219452
 40
0.5990146375
 40
0.6305278458
 40
0.6619509174
 40
0.6932743683
 40
0.7244900173
 40
0.7555911062
 40
0.7865724051
 40
0.8174302998
 40
0.8481628606
 40
0.8787698897
 40
0.9092529457
 40
0.9396153419
 40
0.9698621206
 40
1.0
 40
1.0
 40
1.0
 40
1.0
 10
10.8231474737
 20
6.6579882957
 30
0.0
 10
10.8186732672
 20
6.658298583
 30
0.0
 10
10.8097229957
 20
6.6591845489
 30
0.0
 10
10.7963735948
 20
6.6612968539
 30
0.0
 10
10.7831172414
 20
6.6641880658
 30
0.0
 10
10.7700007507
 20
6.6678478879
 30
0.0
 10
10.7570695242
 20
6.6722636429
 30
0.0
 10
10.7443686131
 20
6.6774198637
 30
0.0
 10
10.7319421738
 20
6.6832985964
 30
0.0
 10
10.719833429
 20
6.6898793465
 30
0.0
 10
10.7080844901
 20
6.6971391982
 30
0.0
 10
10.6967362162
 20
6.7050528731
 30
0.0
 10
10.6858280707
 20
6.7135928227
 30
0.0
 10
10.6753979878
 20
6.7227293277
 30
0.0
 10
10.6654822414
 20
6.7324305999
 30
0.0
 10
10.6561153204
 20
6.7426628918
 30
0.0
 10
10.6473298092
 20
6.7533906138
 30
0.0
 10
10.6391562754
 20
6.7645764564
 30
0.0
 10
10.6316231646
 20
6.7761815188
 30
0.0
 10
10.6247567016
 20
6.7881654435
 30
0.0
 10
10.6185807937
 20
6.8004865523
 30
0.0
 10
10.6131169524
 20
6.8131019937
 30
0.0
 10
10.6083842195
 20
6.8259678912
 30
0.0
 10
10.6043991012
 20
6.8390394941
 30
0.0
 10
10.6011755097
 20
6.8522713315
 30
0.0
 10
10.5987247151
 20
6.8656173693
 30
0.0
 10
10.597055305
 20
6.8790311678
 30
0.0
 10
10.5961731543
 20
6.8924660432
 30
0.0
 10
10.5960813985
 20
6.9058752239
 30
0.0
 10
10.5967804245
 20
6.9192120319
 30
0.0
 10
10.5982678503
 20
6.9324299725
 30
0.0
 10
10.6005386168
 20
6.9454831668
 30
0.0
 10
10.6035846819
 20
6.9583255014
 30
0.0
 10
10.6061300767
 20
6.9667325816
 30
0.0
 10
10.6075281332
 20
6.9708843204
 30
0.0
  0
SPLINE
  5
3E6
100
AcDbEntity
  8
0
100
AcDbSpline
 62
7
  6
CONTINUOUS
 70
0
 71
3
 72
91
 73
87
 74
0
 42
0.0000001
 43
0.0000001
 44
0.0000000001
 40
0.0
 40
0.0
 40
0.0
 40
0.0
 40
0.0027164149
 40
0.0054532017
 40
0.0082302519
 40
0.0110665199
 40
0.0139797039
 40
0.0169859829
 40
0.0200999141
 40
0.0233344008
 40
0.0267007145
 40
0.0302086362
 40
0.0338665065
 40
0.0376814358
 40
0.0416593677
 40
0.0458052497
 40
0.0501231396
 40
0.0546162795
 40
0.059287253
 40
0.0641379749
 40
0.0691698569
 40
0.0743837851
 40
0.0797802236
 40
0.0853592475
 40
0.091120549
 40
0.0970635401
 40
0.1031872872
 40
0.1094906342
 40
0.122629771
 40
0.1364673248
 40
0.150986028
 40
0.1661658166
 40
0.1819841497
 40
0.1984162706
 40
0.2154354241
 40
0.2330130434
 40
0.251118914
 40
0.2697213196
 40
0.2887871741
 40
0.3082821495
 40
0.3281707942
 40
0.3484166458
 40
0.3689823383
 40
0.3898297074
 40
0.4109198931
 40
0.4322134396
 40
0.4536703979
 40
0.4752504252
 40
0.496912883
 40
0.5186169358
 40
0.5403216477
 40
0.5619860811
 40
0.5835693946
 40
0.6050309417
 40
0.6263303693
 40
0.647427715
 40
0.6682835069
 40
0.6888588628
 40
0.7091155924
 40
0.7290163019
 40
0.7485244988
 40
0.7676046989
 40
0.7862225381
 40
0.8043448897
 40
0.8219399883
 40
0.8389775652
 40
0.8554289983
 40
0.8712674731
 40
0.8864681675
 40
0.9010084679
 40
0.9148682273
 40
0.928030078
 40
0.9343449249
 40
0.9404802778
 40
0.9464349222
 40
0.9522079436
 40
0.9577987067
 40
0.9632068911
 40
0.9684325654
 40
0.9734761401
 40
0.9783384911
 40
0.9830209352
 40
0.9875254368
 40
0.9918546053
 40
0.9960115672
 40
1.0
 40
1.0
 40
1.0
 40
1.0
 10
12.3755723257
 20
8.5943594596
 30
0.0
 10
12.3766828207
 20
8.5942824516
 30
0.0
 10
12.378906452
 20
8.5940273474
 30
0.0
 10
12.3822136015
 20
8.5933447217
 30
0.0
 10
12.3854957392
 20
8.5923621407
 30
0.0
 10
12.3887505666
 20
8.5910806743
 30
0.0
 10
12.3919763581
 20
8.5895013547
 30
0.0
 10
12.3951714941
 20
8.5876254921
 30
0.0
 10
12.3983344899
 20
8.585454392
 30
0.0
 10
12.4014639237
 20
8.5829894187
 30
0.0
 10
12.4045584867
 20
8.5802320549
 30
0.0
 10
12.4076167815
 20
8.5771837471
 30
0.0
 10
12.4106375423
 20
8.5738461464
 30
0.0
 10
12.4136193684
 20
8.5702208966
 30
0.0
 10
12.4165609485
 20
8.5663098355
 30
0.0
 10
12.4194609134
 20
8.5621148852
 30
0.0
 10
12.422317883
 20
8.557638104
 30
0.0
 10
12.425130539
 20
8.5528817147
 30
0.0
 10
12.4278974651
 20
8.5478480344
 30
0.0
 10
12.4306173766
 20
8.5425395738
 30
0.0
 10
12.4332888842
 20
8.5369589383
 30
0.0
 10
12.4359107029
 20
8.5311089076
 30
0.0
 10
12.4384815213
 20
8.5249923834
 30
0.0
 10
12.4410000423
 20
8.5186124071
 30
0.0
 10
12.4434650457
 20
8.5119721659
 30
0.0
 10
12.4458752402
 20
8.5050749668
 30
0.0
 10
12.4482294927
 20
8.4979242565
 30
0.0
 10
12.4513352437
 20
8.4879179228
 30
0.0
 10
12.4550580543
 20
8.4747955584
 30
0.0
 10
12.4592245196
 20
8.458307355
 30
0.0
 10
12.4631411823
 20
8.4408999889
 30
0.0
 10
12.4668000962
 20
8.422608358
 30
0.0
 10
12.470193817
 20
8.4034689953
 30
0.0
 10
12.4733154394
 20
8.3835202441
 30
0.0
 10
12.4761586093
 20
8.3628020936
 30
0.0
 10
12.4787175389
 20
8.3413561127
 30
0.0
 10
12.4809870182
 20
8.3192253539
 30
0.0
 10
12.4829624254
 20
8.2964542661
 30
0.0
 10
12.4846397394
 20
8.2730886014
 30
0.0
 10
12.4860155444
 20
8.2491753191
 30
0.0
 10
12.487087036
 20
8.2247624878
 30
0.0
 10
12.4878520261
 20
8.1998991869
 30
0.0
 10
12.4883089475
 20
8.1746354069
 30
0.0
 10
12.4884568562
 20
8.1490219481
 30
0.0
 10
12.4882954329
 20
8.1231103185
 30
0.0
 10
12.487824987
 20
8.0969526295
 30
0.0
 10
12.4870464524
 20
8.0706014894
 30
0.0
 10
12.4859613855
 20
8.0441098967
 30
0.0
 10
12.4845719616
 20
8.0175311329
 30
0.0
 10
12.4828809705
 20
7.9909186555
 30
0.0
 10
12.4808918111
 20
7.9643259908
 30
0.0
 10
12.478608484
 20
7.9378066251
 30
0.0
 10
12.4760355871
 20
7.9114138967
 30
0.0
 10
12.4731783031
 20
7.8852008873
 30
0.0
 10
12.470042389
 20
7.8592203157
 30
0.0
 10
12.4666341646
 20
7.8335244312
 30
0.0
 10
12.4629605001
 20
7.8081649085
 30
0.0
 10
12.4590288022
 20
7.7831927434
 30
0.0
 10
12.4548469996
 20
7.7586581487
 30
0.0
 10
12.45042353
 20
7.7346104506
 30
0.0
 10
12.4457673206
 20
7.7110979892
 30
0.0
 10
12.4408877702
 20
7.6881680204
 30
0.0
 10
12.4357947306
 20
7.66586662
 30
0.0
 10
12.430498487
 20
7.6442385891
 30
0.0
 10
12.4250097374
 20
7.6233273615
 30
0.0
 10
12.4193395705
 20
7.6031749104
 30
0.0
 10
12.4134994463
 20
7.5838216595
 30
0.0
 10
12.4075011685
 20
7.5653063902
 30
0.0
 10
12.4013568591
 20
7.5476661796
 30
0.0
 10
12.3950789278
 20
7.5309362398
 30
0.0
 10
12.388680049
 20
7.5151501015
 30
0.0
 10
12.383184448
 20
7.5026407022
 30
0.0
 10
12.3787293163
 20
7.4931371263
 30
0.0
 10
12.3754119352
 20
7.4863632958
 30
0.0
 10
12.372073994
 20
7.4798480701
 30
0.0
 10
12.3687171623
 20
7.4735946933
 30
0.0
 10
12.3653431287
 20
7.4676062864
 30
0.0
 10
12.3619535514
 20
7.4618858425
 30
0.0
 10
12.358550159
 20
7.4564361882
 30
0.0
 10
12.3551345881
 20
7.4512600612
 30
0.0
 10
12.3517085986
 20
7.4463600118
 30
0.0
 10
12.3482738324
 20
7.4417384775
 30
0.0
 10
12.3448319581
 20
7.437397706
 30
0.0
 10
12.3413845856
 20
7.4333398019
 30
0.0
 10
12.3379335392
 20
7.4295669678
 30
0.0
 10
12.3355837024
 20
7.4271947218
 30
0.0
 10
12.3344081361
 20
7.426059212
 30
0.0
  0
SPLINE
  5
3E7
100
AcDbEntity
  8
0
100
AcDbSpline
 62
4
  6
CONTINUOUS
 70
0
 71
3
 72
403
 73
399
 74
0
 42
0.0000001
 43
0.0000001
 44
0.0000000001
 40
0.0
 40
0.0
 40
0.0
 40
0.0
 40
0.015625
 40
0.0234375
 40
0.03125
 40
0.0390625
 40
0.04296875
 40
0.046875
 40
0.05078125
 40
0.0546875
 40
0.056640625
 40
0.05859375
 40
0.0595703125
 40
0.060546875
 40
0.0615234375
 40
0.0620117188
 40
0.0622558594
 40
0.0625
 40
0.0627441406
 40
0.0629882812
 40
0.0634765625
 40
0.064453125
 40
0.0654296875
 40
0.06640625
 40
0.068359375
 40
0.0703125
 40
0.07421875
 40
0.078125
 40
0.08203125
 40
0.0859375
 40
0.09375
 40
0.1015625
 40
0.10546875
 40
0.109375
 40
0.11328125
 40
0.1171875
 40
0.119140625
 40
0.12109375
 40
0.1220703125
 40
0.123046875
 40
0.1240234375
 40
0.1245117188
 40
0.1247558594
 40
0.125
 40
0.1252441406
 40
0.1254882812
 40
0.1259765625
 40
0.126953125
 40
0.1279296875
 40
0.12890625
 40
0.130859375
 40
0.1328125
 40
0.13671875
 40
0.140625
 40
0.14453125
 40
0.1484375
 40
0.15625
 40
0.1640625
 40
0.16796875
 40
0.171875
 40
0.17578125
 40
0.1796875
 40
0.181640625
 40
0.18359375
 40
0.1845703125
 40
0.185546875
 40
0.1865234375
 40
0.1870117188
 40
0.1872558594
 40
0.1875
 40
0.1877441406
 40
0.1879882812
 40
0.1884765625
 40
0.189453125
 40
0.1904296875
 40
0.19140625
 40
0.193359375
 40
0.1953125
 40
0.19921875
 40
0.203125
 40
0.20703125
 40
0.2109375
 40
0.21875
 40
0.2265625
 40
0.23046875
 40
0.234375
 40
0.23828125
 40
0.2421875
 40
0.244140625
 40
0.24609375
 40
0.2470703125
 40
0.248046875
 40
0.2490234375
 40
0.2495117188
 40
0.2497558594
 40
0.25
 40
0.2502441406
 40
0.2504882812
 40
0.2509765625
 40
0.251953125
 40
0.2529296875
 40
0.25390625
 40
0.255859375
 40
0.2578125
 40
0.26171875
 40
0.265625
 40
0.26953125
 40
0.2734375
 40
0.28125
 40
0.2890625
 40
0.29296875
 40
0.296875
 40
0.30078125
 40
0.3046875
 40
0.306640625
 40
0.30859375
 40
0.3095703125
 40
0.310546875
 40
0.3115234375
 40
0.3120117188
 40
0.3122558594
 40
0.3125
 40
0.3127441406
 40
0.3129882812
 40
0.3134765625
 40
0.314453125
 40
0.3154296875
 40
0.31640625
 40
0.318359375
 40
0.3203125
 40
0.32421875
 40
0.328125
 40
0.33203125
 40
0.3359375
 40
0.34375
 40
0.3515625
 40
0.35546875
 40
0.359375
 40
0.36328125
 40
0.3671875
 40
0.369140625
 40
0.37109375
 40
0.3720703125
 40
0.373046875
 40
0.3740234375
 40
0.3745117188
 40
0.3747558594
 40
0.375
 40
0.3752441406
 40
0.3754882812
 40
0.3759765625
 40
0.376953125
 40
0.3779296875
 40
0.37890625
 40
0.380859375
 40
0.3828125
 40
0.38671875
 40
0.390625
 40
0.39453125
 40
0.3984375
 40
0.40625
 40
0.4140625
 40
0.41796875
 40
0.421875
 40
0.42578125
 40
0.4296875
 40
0.431640625
 40
0.43359375
 40
0.4345703125
 40
0.435546875
 40
0.4365234375
 40
0.4370117188
 40
0.4372558594
 40
0.4375
 40
0.4377441406
 40
0.4379882812
 40
0.4384765625
 40
0.439453125
 40
0.4404296875
 40
0.44140625
 40
0.443359375
 40
0.4453125
 40
0.44921875
 40
0.453125
 40
0.45703125
 40
0.4609375
 40
0.46875
 40
0.4765625
 40
0.48046875
 40
0.484375
 40
0.48828125
 40
0.4921875
 40
0.494140625
 40
0.49609375
 40
0.4970703125
 40
0.498046875
 40
0.4990234375
 40
0.4995117188
 40
0.4997558594
 40
0.5
 40
0.5002441406
 40
0.5004882812
 40
0.5009765625
 40
0.501953125
 40
0.5029296875
 40
0.50390625
 40
0.505859375
 40
0.5078125
 40
0.51171875
 40
0.515625
 40
0.51953125
 40
0.5234375
 40
0.53125
 40
0.5390625
 40
0.54296875
 40
0.546875
 40
0.55078125
 40
0.5546875
 40
0.556640625
 40
0.55859375
 40
0.5595703125
 40
0.560546875
 40
0.5615234375
 40
0.5620117188
 40
0.5622558594
 40
0.5625
 40
0.5627441406
 40
0.5629882812
 40
0.5634765625
 40
0.564453125
 40
0.5654296875
 40
0.56640625
 40
0.568359375
 40
0.5703125
 40
0.57421875
 40
0.578125
 40
0.58203125
 40
0.5859375
 40
0.59375
 40
0.6015625
 40
0.60546875
 40
0.609375
 40
0.61328125
 40
0.6171875
 40
0.619140625
 40
0.62109375
 40
0.6220703125
 40
0.623046875
 40
0.6240234375
 40
0.6245117188
 40
0.6247558594
 40
0.625
 40
0.6252441406
 40
0.6254882812
 40
0.6259765625
 40
0.626953125
 40
0.6279296875
 40
0.62890625
 40
0.630859375
 40
0.6328125
 40
0.63671875
 40
0.640625
 40
0.64453125
 40
0.6484375
 40
0.65625
 40
0.6640625
 40
0.66796875
 40
0.671875
 40
0.67578125
 40
0.6796875
 40
0.681640625
 40
0.68359375
 40
0.6845703125
 40
0.685546875
 40
0.6865234375
 40
0.6870117188
 40
0.6872558594
 40
0.6875
 40
0.6877441406
 40
0.6879882812
 40
0.6884765625
 40
0.689453125
 40
0.6904296875
 40
0.69140625
 40
0.693359375
 40
0.6953125
 40
0.69921875
 40
0.703125
 40
0.70703125
 40
0.7109375
 40
0.71875
 40
0.7265625
 40
0.73046875
 40
0.734375
 40
0.73828125
 40
0.7421875
 40
0.744140625
 40
0.74609375
 40
0.7470703125
 40
0.748046875
 40
0.7490234375
 40
0.7495117188
 40
0.7497558594
 40
0.75
 40
0.7502441406
 40
0.7504882812
 40
0.7509765625
 40
0.751953125
 40
0.7529296875
 40
0.75390625
 40
0.755859375
 40
0.7578125
 40
0.76171875
 40
0.765625
 40
0.76953125
 40
0.7734375
 40
0.78125
 40
0.7890625
 40
0.79296875
 40
0.796875
 40
0.80078125
 40
0.8046875
 40
0.806640625
 40
0.80859375
 40
0.8095703125
 40
0.810546875
 40
0.8115234375
 40
0.8120117188
 40
0.8122558594
 40
0.8125
 40
0.8127441406
 40
0.8129882812
 40
0.8134765625
 40
0.814453125
 40
0.8154296875
 40
0.81640625
 40
0.818359375
 40
0.8203125
 40
0.82421875
 40
0.828125
 40
0.83203125
 40
0.8359375
 40
0.84375
 40
0.8515625
 40
0.85546875
 40
0.859375
 40
0.86328125
 40
0.8671875
 40
0.869140625
 40
0.87109375
 40
0.8720703125
 40
0.873046875
 40
0.8740234375
 40
0.8745117188
 40
0.8747558594
 40
0.875
 40
0.8752441406
 40
0.8754882812
 40
0.8759765625
 40
0.876953125
 40
0.8779296875
 40
0.87890625
 40
0.880859375
 40
0.8828125
 40
0.88671875
 40
0.890625
 40
0.89453125
 40
0.8984375
 40
0.90625
 40
0.9140625
 40
0.91796875
 40
0.921875
 40
0.92578125
 40
0.9296875
 40
0.931640625
 40
0.93359375
 40
0.9345703125
 40
0.935546875
 40
0.9365234375
 40
0.9370117188
 40
0.9372558594
 40
0.9375
 40
0.9377441406
 40
0.9379882812
 40
0.9384765625
 40
0.939453125
 40
0.9404296875
 40
0.94140625
 40
0.943359375
 40
0.9453125
 40
0.94921875
 40
0.953125
 40
0.95703125
 40
0.9609375
 40
0.96875
 40
0.9765625
 40
0.984375
 40
1.0
 40
1.0
 40
1.0
 40
1.0
 10
10.8749803425
 20
7.4804698197
 30
0.0
 10
10.8752875542
 20
7.4773153276
 30
0.0
 10
10.8757483717
 20
7.4725835894
 30
0.0
 10
10.876362795
 20
7.4662746052
 30
0.0
 10
10.8768236125
 20
7.461542867
 30
0.0
 10
10.877207627
 20
7.4575997518
 30
0.0
 10
10.8775148389
 20
7.4544452597
 30
0.0
 10
10.8777452467
 20
7.4520793905
 30
0.0
 10
10.8779756591
 20
7.4497135219
 30
0.0
 10
10.878167655
 20
7.4477419629
 30
0.0
 10
10.8783212842
 20
7.4461647198
 30
0.0
 10
10.8784172284
 20
7.4451789334
 30
0.0
 10
10.8784941533
 20
7.444390326
 30
0.0
 10
10.8785513826
 20
7.4437988108
 30
0.0
 10
10.8786005513
 20
7.4433060715
 30
0.0
 10
10.8786320695
 20
7.4429607809
 30
0.0
 10
10.8786546078
 20
7.4427640546
 30
0.0
 10
10.8786587564
 20
7.4426148688
 30
0.0
 10
10.8787116615
 20
7.4424719558
 30
0.0
 10
10.8787651947
 20
7.4422792171
 30
0.0
 10
10.8788668017
 20
7.4419429438
 30
0.0
 10
10.879007812
 20
7.4414620204
 30
0.0
 10
10.8791787974
 20
7.4408851405
 30
0.0
 10
10.8794061587
 20
7.4401158875
 30
0.0
 10
10.8796905724
 20
7.4391543487
 30
0.0
 10
10.8801455157
 20
7.4376158712
 30
0.0
 10
10.8807142355
 20
7.4356927796
 30
0.0
 10
10.8813966819
 20
7.4333850675
 30
0.0
 10
10.8820791329
 20
7.4310773559
 30
0.0
 10
10.882989066
 20
7.428000407
 30
0.0
 10
10.8841264829
 20
7.4241542209
 30
0.0
 10
10.8852638995
 20
7.4203080347
 30
0.0
 10
10.8861738332
 20
7.4172310859
 30
0.0
 10
10.8868562823
 20
7.4149233739
 30
0.0
 10
10.8875387358
 20
7.4126156635
 30
0.0
 10
10.8881074334
 20
7.4106925667
 30
0.0
 10
10.8885624221
 20
7.4091540998
 30
0.0
 10
10.8888467202
 20
7.408192534
 30
0.0
 10
10.8890743186
 20
7.4074233363
 30
0.0
 10
10.8892445796
 20
7.4068462878
 30
0.0
 10
10.8893878565
 20
7.4063658916
 30
0.0
 10
10.8894854172
 20
7.4060286773
 30
0.0
 10
10.8895454337
 20
7.4058374463
 30
0.0
 10
10.8895784244
 20
7.4056899019
 30
0.0
 10
10.8896573679
 20
7.405558111
 30
0.0
 10
10.889746597
 20
7.4053768947
 30
0.0
 10
10.8899102161
 20
7.4050623265
 30
0.0
 10
10.8901400532
 20
7.4046116049
 30
0.0
 10
10.8904175289
 20
7.4040713118
 30
0.0
 10
10.8907869129
 20
7.403350721
 30
0.0
 10
10.8912488427
 20
7.4024500509
 30
0.0
 10
10.8919878187
 20
7.4010089406
 30
0.0
 10
10.892911577
 20
7.3992075657
 30
0.0
 10
10.8940200706
 20
7.3970459103
 30
0.0
 10
10.8951285686
 20
7.3948842564
 30
0.0
 10
10.8966065643
 20
7.3920020506
 30
0.0
 10
10.8984540595
 20
7.3883992936
 30
0.0
 10
10.9003015544
 20
7.3847965365
 30
0.0
 10
10.9017795507
 20
7.381914331
 30
0.0
 10
10.9028880469
 20
7.3797526763
 30
0.0
 10
10.9039965473
 20
7.3775910237
 30
0.0
 10
10.9049202843
 20
7.3757896402
 30
0.0
 10
10.9056593037
 20
7.3743485475
 30
0.0
 10
10.9061211231
 20
7.3734478324
 30
0.0
 10
10.9064907338
 20
7.372727334
 30
0.0
 10
10.9067675168
 20
7.3721867584
 30
0.0
 10
10.9069995214
 20
7.3717369208
 30
0.0
 10
10.9071592711
 20
7.3714207745
 30
0.0
 10
10.9072546999
 20
7.3712420868
 30
0.0
 10
10.9073146001
 20
7.3711025289
 30
0.0
 10
10.9074191141
 20
7.3709841558
 30
0.0
 10
10.9075429044
 20
7.3708189356
 30
0.0
 10
10.9077667879
 20
7.370533243
 30
0.0
 10
10.9080828309
 20
7.3701233108
 30
0.0
 10
10.9084637049
 20
7.3696321626
 30
0.0
 10
10.9089709703
 20
7.3689770292
 30
0.0
 10
10.9096052461
 20
7.3681582046
 30
0.0
 10
10.9106199788
 20
7.3668480337
 30
0.0
 10
10.9118884319
 20
7.3652103378
 30
0.0
 10
10.9134105598
 20
7.3632450951
 30
0.0
 10
10.9149326918
 20
7.3612798545
 30
0.0
 10
10.9169621998
 20
7.3586595329
 30
0.0
 10
10.9194990853
 20
7.3553841312
 30
0.0
 10
10.9220359705
 20
7.3521087293
 30
0.0
 10
10.9240654789
 20
7.3494884081
 30
0.0
 10
10.9255876095
 20
7.3475231663
 30
0.0
 10
10.9271097431
 20
7.345557928
 30
0.0
 10
10.9283781781
 20
7.3439202185
 30
0.0
 10
10.9293929479
 20
7.3426100754
 30
0.0
 10
10.9300271294
 20
7.3417911802
 30
0.0
 10
10.9305345881
 20
7.3411361917
 30
0.0
 10
10.9309148714
 20
7.3406446009
 30
0.0
 10
10.9312327627
 20
7.3402360533
 30
0.0
 10
10.9314533466
 20
7.3399478889
 30
0.0
 10
10.9315824237
 20
7.3397866292
 30
0.0
 10
10.9316706984
 20
7.3396560905
 30
0.0
 10
10.9317915911
 20
7.3395622246
 30
0.0
 10
10.9319414039
 20
7.3394242782
 30
0.0
 10
10.9322088772
 20
7.3391888319
 30
0.0
 10
10.9325882105
 20
7.3388493641
 30
0.0
 10
10.9330445967
 20
7.3384433365
 30
0.0
 10
10.9336526973
 20
7.3379015006
 30
0.0
 10
10.934412965
 20
7.3372243651
 30
0.0
 10
10.9356293139
 20
7.3361408592
 30
0.0
 10
10.9371497773
 20
7.3347865075
 30
0.0
 10
10.9389743217
 20
7.3331612722
 30
0.0
 10
10.9407988693
 20
7.3315360405
 30
0.0
 10
10.9432315982
 20
7.3293690637
 30
0.0
 10
10.9462725098
 20
7.3266603431
 30
0.0
 10
10.9493134211
 20
7.3239516221
 30
0.0
 10
10.9517461505
 20
7.3217846458
 30
0.0
 10
10.9535706968
 20
7.3201594125
 30
0.0
 10
10.9553952458
 20
7.3185341831
 30
0.0
 10
10.956915695
 20
7.3171798134
 30
0.0
 10
10.9581320728
 20
7.316096344
 30
0.0
 10
10.958892267
 20
7.3154191158
 30
0.0
 10
10.9595005185
 20
7.3148774702
 30
0.0
 10
10.9599564437
 20
7.3144708609
 30
0.0
 10
10.9603372194
 20
7.3141332133
 30
0.0
 10
10.9606021178
 20
7.3138945176
 30
0.0
 10
10.9607560561
 20
7.3137617776
 30
0.0
 10
10.9608642765
 20
7.3136519192
 30
0.0
 10
10.9610001464
 20
7.3135814457
 30
0.0
 10
10.9611716618
 20
7.3134737431
 30
0.0
 10
10.9614763074
 20
7.3132916644
 30
0.0
 10
10.961909166
 20
7.3130282055
 30
0.0
 10
10.9624296019
 20
7.3127134872
 30
0.0
 10
10.9631231652
 20
7.3122933625
 30
0.0
 10
10.9639902396
 20
7.3117683779
 30
0.0
 10
10.9653774914
 20
7.3109283069
 30
0.0
 10
10.9671115793
 20
7.3098782509
 30
0.0
 10
10.9691924748
 20
7.3086181697
 30
0.0
 10
10.971273373
 20
7.3073580922
 30
0.0
 10
10.974047903
 20
7.3056779876
 30
0.0
 10
10.9775160658
 20
7.3035778574
 30
0.0
 10
10.9809842284
 20
7.3014777267
 30
0.0
 10
10.9837587587
 20
7.2997976227
 30
0.0
 10
10.985839656
 20
7.2985375435
 30
0.0
 10
10.987920555
 20
7.2972774686
 30
0.0
 10
10.9896546319
 20
7.296227393
 30
0.0
 10
10.9910419061
 20
7.2953873621
 30
0.0
 10
10.9919089235
 20
7.2948622752
 30
0.0
 10
10.9926026039
 20
7.2944423607
 30
0.0
 10
10.9931226822
 20
7.2941270002
 30
0.0
 10
10.9935566597
 20
7.2938655504
 30
0.0
 10
10.9938593078
 20
7.2936798852
 30
0.0
 10
10.9940340235
 20
7.2935779291
 30
0.0
 10
10.9941600633
 20
7.2934898043
 30
0.0
 10
10.9943052038
 20
7.2934462412
 30
0.0
 10
10.994492062
 20
7.2933726134
 30
0.0
 10
10.9948221679
 20
7.2932510069
 30
0.0
 10
10.9952921248
 20
7.2930734971
 30
0.0
 10
10.9958567678
 20
7.2928621059
 30
0.0
 10
10.9966093826
 20
7.292579685
 30
0.0
 10
10.997550234
 20
7.2922268526
 30
0.0
 10
10.99905555
 20
7.2916622126
 30
0.0
 10
11.0009372108
 20
7.2909564497
 30
0.0
 10
11.003195197
 20
7.2901095182
 30
0.0
 10
11.005453185
 20
7.289262591
 30
0.0
 10
11.0084638351
 20
7.2881333533
 30
0.0
 10
11.0122271479
 20
7.2867218067
 30
0.0
 10
11.0159904606
 20
7.2853102597
 30
0.0
 10
11.0190011108
 20
7.2841810226
 30
0.0
 10
11.0212590982
 20
7.2833340936
 30
0.0
 10
11.0235170869
 20
7.2824871691
 30
0.0
 10
11.0253987399
 20
7.2817813845
 30
0.0
 10
11.0269040719
 20
7.2812167887
 30
0.0
 10
11.0278448825
 20
7.2808638438
 30
0.0
 10
11.0285975811
 20
7.2805816539
 30
0.0
 10
11.029161968
 20
7.2803695569
 30
0.0
 10
11.0296327262
 20
7.2801942555
 30
0.0
 10
11.0299614017
 20
7.2800687065
 30
0.0
 10
11.0301505517
 20
7.2800013956
 30
0.0
 10
11.0302886524
 20
7.2799384292
 30
0.0
 10
11.0304411323
 20
7.27992318
 30
0.0
 10
11.0306394232
 20
7.2798862035
 30
0.0
 10
11.0309887691
 20
7.2798292495
 30
0.0
 10
11.0314866129
 20
7.2797438323
 30
0.0
 10
11.0320845485
 20
7.279643067
 30
0.0
 10
11.0328816132
 20
7.2795081072
 30
0.0
 10
11.0338780067
 20
7.2793396149
 30
0.0
 10
11.0354722013
 20
7.2790699114
 30
0.0
 10
11.0374649566
 20
7.2787328217
 30
0.0
 10
11.0398562578
 20
7.278328297
 30
0.0
 10
11.0422475604
 20
7.2779237769
 30
0.0
 10
11.0454359633
 20
7.2773844151
 30
0.0
 10
11.0494214671
 20
7.2767102135
 30
0.0
 10
11.0534069709
 20
7.2760360115
 30
0.0
 10
11.0565953739
 20
7.2754966505
 30
0.0
 10
11.0589866762
 20
7.2750921284
 30
0.0
 10
11.0613779782
 20
7.2746876111
 30
0.0
 10
11.0633707311
 20
7.2743504983
 30
0.0
 10
11.0649649305
 20
7.274080842
 30
0.0
 10
11.0659613119
 20
7.2739122294
 30
0.0
 10
11.0667584015
 20
7.2737775165
 30
0.0
 10
11.0673562612
 20
7.2736759969
 30
0.0
 10
11.0678543423
 20
7.2735929399
 30
0.0
 10
11.0682032647
 20
7.2735317724
 30
0.0
 10
11.0684022341
 20
7.273501547
 30
0.0
 10
11.0685526297
 20
7.2734655607
 30
0.0
 10
11.0686985586
 20
7.2734804796
 30
0.0
 10
11.0688946886
 20
7.2734826152
 30
0.0
 10
11.0692371901
 20
7.2734946256
 30
0.0
 10
11.0697268574
 20
7.273507458
 30
0.0
 10
11.0703142958
 20
7.2735247082
 30
0.0
 10
11.0710976037
 20
7.2735470618
 30
0.0
 10
11.0720767192
 20
7.2735752253
 30
0.0
 10
11.0736433148
 20
7.2736201631
 30
0.0
 10
11.0756015556
 20
7.2736763778
 30
0.0
 10
11.0779514461
 20
7.2737438173
 30
0.0
 10
11.0803013362
 20
7.2738112616
 30
0.0
 10
11.0834345231
 20
7.2739011857
 30
0.0
 10
11.0873510068
 20
7.2740135914
 30
0.0
 10
11.0912674904
 20
7.2741259967
 30
0.0
 10
11.0944006773
 20
7.2742159215
 30
0.0
 10
11.0967505677
 20
7.2742833638
 30
0.0
 10
11.0991004571
 20
7.2743508108
 30
0.0
 10
11.1010587012
 20
7.274407002
 30
0.0
 10
11.1026252901
 20
7.2744519879
 30
0.0
 10
11.1036044227
 20
7.274480029
 30
0.0
 10
11.1043876953
 20
7.2745026338
 30
0.0
 10
11.1049752417
 20
7.2745191166
 30
0.0
 10
11.1054645711
 20
7.2745343502
 30
0.0
 10
11.1058076759
 20
7.274542074
 30
0.0
 10
11.1060028392
 20
7.2745510777
 30
0.0
 10
11.1061517373
 20
7.2745449002
 30
0.0
 10
11.1062909813
 20
7.2745881486
 30
0.0
 10
11.1064800075
 20
7.2746285729
 30
0.0
 10
11.1068092343
 20
7.2747073479
 30
0.0
 10
11.1072803786
 20
7.2748156842
 30
0.0
 10
11.1078454006
 20
7.2749474852
 30
0.0
 10
11.108598886
 20
7.2751225921
 30
0.0
 10
11.1095407007
 20
7.2753416907
 30
0.0
 10
11.1110476278
 20
7.2756921283
 30
0.0
 10
11.1129312785
 20
7.2761302165
 30
0.0
 10
11.1151916628
 20
7.2766559047
 30
0.0
 10
11.1174520462
 20
7.2771815976
 30
0.0
 10
11.1204658911
 20
7.2778825198
 30
0.0
 10
11.1242331971
 20
7.2787586732
 30
0.0
 10
11.1280005031
 20
7.2796348262
 30
0.0
 10
11.1310143478
 20
7.280335749
 30
0.0
 10
11.1332747318
 20
7.28086144
 30
0.0
 10
11.135535114
 20
7.2813871355
 30
0.0
 10
11.1374187714
 20
7.281825201
 30
0.0
 10
11.1389256847
 20
7.2821756849
 30
0.0
 10
11.1398675343
 20
7.2823946655
 30
0.0
 10
11.1406209481
 20
7.2825700145
 30
0.0
 10
11.1411861889
 20
7.2827010759
 30
0.0
 10
11.1416566489
 20
7.2828117263
 30
0.0
 10
11.1419870973
 20
7.2828863703
 30
0.0
 10
11.1421741661
 20
7.2829334135
 30
0.0
 10
11.1423194226
 20
7.2829563307
 30
0.0
 10
11.1424457388
 20
7.2830265141
 30
0.0
 10
11.142620767
 20
7.2831036049
 30
0.0
 10
11.1429239882
 20
7.2832461956
 30
0.0
 10
11.1433587706
 20
7.2834458804
 30
0.0
 10
11.1438798206
 20
7.2836872212
 30
0.0
 10
11.1445747946
 20
7.2840084086
 30
0.0
 10
11.1454434297
 20
7.2844100983
 30
0.0
 10
11.1468332919
 20
7.2850526871
 30
0.0
 10
11.1485706039
 20
7.2858559624
 30
0.0
 10
11.150655385
 20
7.2868198759
 30
0.0
 10
11.1527401643
 20
7.2877837939
 30
0.0
 10
11.1555198707
 20
7.2890690164
 30
0.0
 10
11.1589945035
 20
7.290675545
 30
0.0
 10
11.1624691364
 20
7.2922820733
 30
0.0
 10
11.1652488425
 20
7.2935672963
 30
0.0
 10
11.1673336227
 20
7.2945312125
 30
0.0
 10
11.1694184006
 20
7.295495133
 30
0.0
 10
11.1711557227
 20
7.2962983864
 30
0.0
 10
11.1725455642
 20
7.2969410199
 30
0.0
 10
11.1734142521
 20
7.2973425956
 30
0.0
 10
11.1741091178
 20
7.2976640172
 30
0.0
 10
11.1746304985
 20
7.2979046423
 30
0.0
 10
11.1750642465
 20
7.2981065664
 30
0.0
 10
11.1753693142
 20
7.2982451596
 30
0.0
 10
11.1755413839
 20
7.2983286553
 30
0.0
 10
11.1756767876
 20
7.2983791652
 30
0.0
 10
11.1757879126
 20
7.2984759727
 30
0.0
 10
11.175944548
 20
7.2985889003
 30
0.0
 10
11.1762147142
 20
7.2987940478
 30
0.0
 10
11.1766027288
 20
7.2990831818
 30
0.0
 10
11.1770674633
 20
7.2994318264
 30
0.0
 10
11.1776874177
 20
7.2998960978
 30
0.0
 10
11.1784622552
 20
7.3004766384
 30
0.0
 10
11.1797020541
 20
7.3014053908
 30
0.0
 10
11.1812517825
 20
7.3025663699
 30
0.0
 10
11.1831114652
 20
7.3039595283
 30
0.0
 10
11.1849711456
 20
7.3053526911
 30
0.0
 10
11.1874507203
 20
7.3072102399
 30
0.0
 10
11.1905501884
 20
7.3095321766
 30
0.0
 10
11.1936496568
 20
7.3118541129
 30
0.0
 10
11.196129231
 20
7.3137116623
 30
0.0
 10
11.1979889127
 20
7.3151048235
 30
0.0
 10
11.1998485907
 20
7.316497988
 30
0.0
 10
11.201398334
 20
7.317658948
 30
0.0
 10
11.2026381026
 20
7.3185877395
 30
0.0
 10
11.2034130171
 20
7.3191681805
 30
0.0
 10
11.2040328133
 20
7.3196326562
 30
0.0
 10
11.2044980313
 20
7.3199806765
 30
0.0
 10
11.204884533
 20
7.3202717639
 30
0.0
 10
11.2051573999
 20
7.3204734244
 30
0.0
 10
11.2053097081
 20
7.3205919389
 30
0.0
 10
11.2054341249
 20
7.3206715852
 30
0.0
 10
11.2055196069
 20
7.3207865497
 30
0.0
 10
11.2056471638
 20
7.3209275164
 30
0.0
 10
11.2058640607
 20
7.3211799478
 30
0.0
 10
11.2061772216
 20
7.3215375633
 30
0.0
 10
11.2065515987
 20
7.3219679864
 30
0.0
 10
11.2070512628
 20
7.3225414352
 30
0.0
 10
11.2076756735
 20
7.3232583998
 30
0.0
 10
11.2086748253
 20
7.3244054574
 30
0.0
 10
11.2099237325
 20
7.3258393088
 30
0.0
 10
11.2114224352
 20
7.3275599178
 30
0.0
 10
11.2129211341
 20
7.3292805302
 30
0.0
 10
11.2149194006
 20
7.3315746789
 30
0.0
 10
11.2174172333
 20
7.3344423652
 30
0.0
 10
11.2199150663
 20
7.3373100512
 30
0.0
 10
11.2219133323
 20
7.3396042004
 30
0.0
 10
11.2234120328
 20
7.3413248114
 30
0.0
 10
11.2249107294
 20
7.3430454255
 30
0.0
 10
11.2261596555
 20
7.3444792614
 30
0.0
 10
11.2271587689
 20
7.3456263505
 30
0.0
 10
11.2277832774
 20
7.3463432348
 30
0.0
 10
11.2282827406
 20
7.3469168484
 30
0.0
 10
11.2286577315
 20
7.3473467679
 30
0.0
 10
11.2289689721
 20
7.347705959
 30
0.0
 10
11.229189297
 20
7.3479555778
 30
0.0
 10
11.2293113614
 20
7.3481010509
 30
0.0
 10
11.2294137147
 20
7.3482021731
 30
0.0
 10
11.2294747656
 20
7.3483338091
 30
0.0
 10
11.2295705735
 20
7.3484986802
 30
0.0
 10
11.229731525
 20
7.3487921637
 30
0.0
 10
11.2299649651
 20
7.3492088332
 30
0.0
 10
11.230243591
 20
7.3497099463
 30
0.0
 10
11.2306156169
 20
7.3503777096
 30
0.0
 10
11.2310804697
 20
7.3512125463
 30
0.0
 10
11.2318243345
 20
7.352548211
 30
0.0
 10
11.2327541311
 20
7.3542178172
 30
0.0
 10
11.2338699017
 20
7.3562213338
 30
0.0
 10
11.2349856684
 20
7.3582248533
 30
0.0
 10
11.2364733587
 20
7.3608962116
 30
0.0
 10
11.238332971
 20
7.3642354099
 30
0.0
 10
11.2401925837
 20
7.3675746079
 30
0.0
 10
11.2416802735
 20
7.3702459666
 30
0.0
 10
11.2427960419
 20
7.372249485
 30
0.0
 10
11.243911806
 20
7.3742530056
 30
0.0
 10
11.244841623
 20
7.3759225994
 30
0.0
 10
11.245585446
 20
7.3772582894
 30
0.0
 10
11.2460504051
 20
7.3780930617
 30
0.0
 10
11.2464222127
 20
7.3787609571
 30
0.0
 10
11.2467015056
 20
7.3792616664
 30
0.0
 10
11.246932859
 20
7.3796795995
 30
0.0
 10
11.2470975355
 20
7.3799708273
 30
0.0
 10
11.2471873751
 20
7.3801393126
 30
0.0
 10
11.247266759
 20
7.3802598471
 30
0.0
 10
11.2473002565
 20
7.3804026645
 30
0.0
 10
11.2473609256
 20
7.3805853152
 30
0.0
 10
11.2474596392
 20
7.3809085753
 30
0.0
 10
11.2476045574
 20
7.3813684822
 30
0.0
 10
11.2477767905
 20
7.3819211808
 30
0.0
 10
11.2480070174
 20
7.3826578292
 30
0.0
 10
11.2482946015
 20
7.3835787367
 30
0.0
 10
11.2487548475
 20
7.3850521344
 30
0.0
 10
11.2493301168
 20
7.3868939002
 30
0.0
 10
11.2500204564
 20
7.3891040112
 30
0.0
 10
11.2507107915
 20
7.3913141243
 30
0.0
 10
11.25163124
 20
7.3942609411
 30
0.0
 10
11.2527818
 20
7.3979444623
 30
0.0
 10
11.2539323603
 20
7.4016279833
 30
0.0
 10
11.2548528081
 20
7.4045748003
 30
0.0
 10
11.2555431452
 20
7.4067849126
 30
0.0
 10
11.2562334776
 20
7.4089950266
 30
0.0
 10
11.2568087692
 20
7.410836783
 30
0.0
 10
11.2572689699
 20
7.4123101999
 30
0.0
 10
11.2575566693
 20
7.4132310586
 30
0.0
 10
11.2577866594
 20
7.4139678072
 30
0.0
 10
11.257959616
 20
7.4145201996
 30
0.0
 10
11.2581022702
 20
7.4149810647
 30
0.0
 10
11.2582050255
 20
7.4153026141
 30
0.0
 10
11.2582592188
 20
7.4154880058
 30
0.0
 10
11.2583126079
 20
7.4156224039
 30
0.0
 10
11.2583172825
 20
7.4157745597
 30
0.0
 10
11.2583405075
 20
7.41597124
 30
0.0
 10
11.2583732343
 20
7.4163183165
 30
0.0
 10
11.2584241259
 20
7.4168126312
 30
0.0
 10
11.2584834242
 20
7.4174064547
 30
0.0
 10
11.2585631074
 20
7.4181979937
 30
0.0
 10
11.2586624996
 20
7.4191874948
 30
0.0
 10
11.2588216454
 20
7.4207706533
 30
0.0
 10
11.259020537
 20
7.4227496163
 30
0.0
 10
11.2592592244
 20
7.4251243655
 30
0.0
 10
11.2594979071
 20
7.4274991164
 30
0.0
 10
11.2598161524
 20
7.4306654504
 30
0.0
 10
11.2602139584
 20
7.434623368
 30
0.0
 10
11.2606913258
 20
7.4393728691
 30
0.0
 10
11.2613278157
 20
7.4457055373
 30
0.0
 10
11.2618051831
 20
7.4504550384
 30
0.0
 10
11.262123428
 20
7.4536213724
 30
0.0
  0
SPLINE
  5
3E8
100
AcDbEntity
  8
0
100
AcDbSpline
 62
4
  6
CONTINUOUS
 70
0
 71
3
 72
403
 73
399
 74
0
 42
0.0000001
 43
0.0000001
 44
0.0000000001
 40
0.0
 40
0.0
 40
0.0
 40
0.0
 40
0.015625
 40
0.0234375
 40
0.03125
 40
0.0390625
 40
0.04296875
 40
0.046875
 40
0.05078125
 40
0.0546875
 40
0.056640625
 40
0.05859375
 40
0.0595703125
 40
0.060546875
 40
0.0615234375
 40
0.0620117188
 40
0.0622558594
 40
0.0625
 40
0.0627441406
 40
0.0629882812
 40
0.0634765625
 40
0.064453125
 40
0.0654296875
 40
0.06640625
 40
0.068359375
 40
0.0703125
 40
0.07421875
 40
0.078125
 40
0.08203125
 40
0.0859375
 40
0.09375
 40
0.1015625
 40
0.10546875
 40
0.109375
 40
0.11328125
 40
0.1171875
 40
0.119140625
 40
0.12109375
 40
0.1220703125
 40
0.123046875
 40
0.1240234375
 40
0.1245117188
 40
0.1247558594
 40
0.125
 40
0.1252441406
 40
0.1254882812
 40
0.1259765625
 40
0.126953125
 40
0.1279296875
 40
0.12890625
 40
0.130859375
 40
0.1328125
 40
0.13671875
 40
0.140625
 40
0.14453125
 40
0.1484375
 40
0.15625
 40
0.1640625
 40
0.16796875
 40
0.171875
 40
0.17578125
 40
0.1796875
 40
0.181640625
 40
0.18359375
 40
0.1845703125
 40
0.185546875
 40
0.1865234375
 40
0.1870117188
 40
0.1872558594
 40
0.1875
 40
0.1877441406
 40
0.1879882812
 40
0.1884765625
 40
0.189453125
 40
0.1904296875
 40
0.19140625
 40
0.193359375
 40
0.1953125
 40
0.19921875
 40
0.203125
 40
0.20703125
 40
0.2109375
 40
0.21875
 40
0.2265625
 40
0.23046875
 40
0.234375
 40
0.23828125
 40
0.2421875
 40
0.244140625
 40
0.24609375
 40
0.2470703125
 40
0.248046875
 40
0.2490234375
 40
0.2495117188
 40
0.2497558594
 40
0.25
 40
0.2502441406
 40
0.2504882812
 40
0.2509765625
 40
0.251953125
 40
0.2529296875
 40
0.25390625
 40
0.255859375
 40
0.2578125
 40
0.26171875
 40
0.265625
 40
0.26953125
 40
0.2734375
 40
0.28125
 40
0.2890625
 40
0.29296875
 40
0.296875
 40
0.30078125
 40
0.3046875
 40
0.306640625
 40
0.30859375
 40
0.3095703125
 40
0.310546875
 40
0.3115234375
 40
0.3120117188
 40
0.3122558594
 40
0.3125
 40
0.3127441406
 40
0.3129882812
 40
0.3134765625
 40
0.314453125
 40
0.3154296875
 40
0.31640625
 40
0.318359375
 40
0.3203125
 40
0.32421875
 40
0.328125
 40
0.33203125
 40
0.3359375
 40
0.34375
 40
0.3515625
 40
0.35546875
 40
0.359375
 40
0.36328125
 40
0.3671875
 40
0.369140625
 40
0.37109375
 40
0.3720703125
 40
0.373046875
 40
0.3740234375
 40
0.3745117188
 40
0.3747558594
 40
0.375
 40
0.3752441406
 40
0.3754882812
 40
0.3759765625
 40
0.376953125
 40
0.3779296875
 40
0.37890625
 40
0.380859375
 40
0.3828125
 40
0.38671875
 40
0.390625
 40
0.39453125
 40
0.3984375
 40
0.40625
 40
0.4140625
 40
0.41796875
 40
0.421875
 40
0.42578125
 40
0.4296875
 40
0.431640625
 40
0.43359375
 40
0.4345703125
 40
0.435546875
 40
0.4365234375
 40
0.4370117188
 40
0.4372558594
 40
0.4375
 40
0.4377441406
 40
0.4379882812
 40
0.4384765625
 40
0.439453125
 40
0.4404296875
 40
0.44140625
 40
0.443359375
 40
0.4453125
 40
0.44921875
 40
0.453125
 40
0.45703125
 40
0.4609375
 40
0.46875
 40
0.4765625
 40
0.48046875
 40
0.484375
 40
0.48828125
 40
0.4921875
 40
0.494140625
 40
0.49609375
 40
0.4970703125
 40
0.498046875
 40
0.4990234375
 40
0.4995117188
 40
0.4997558594
 40
0.5
 40
0.5002441406
 40
0.5004882812
 40
0.5009765625
 40
0.501953125
 40
0.5029296875
 40
0.50390625
 40
0.505859375
 40
0.5078125
 40
0.51171875
 40
0.515625
 40
0.51953125
 40
0.5234375
 40
0.53125
 40
0.5390625
 40
0.54296875
 40
0.546875
 40
0.55078125
 40
0.5546875
 40
0.556640625
 40
0.55859375
 40
0.5595703125
 40
0.560546875
 40
0.5615234375
 40
0.5620117188
 40
0.5622558594
 40
0.5625
 40
0.5627441406
 40
0.5629882812
 40
0.5634765625
 40
0.564453125
 40
0.5654296875
 40
0.56640625
 40
0.568359375
 40
0.5703125
 40
0.57421875
 40
0.578125
 40
0.58203125
 40
0.5859375
 40
0.59375
 40
0.6015625
 40
0.60546875
 40
0.609375
 40
0.61328125
 40
0.6171875
 40
0.619140625
 40
0.62109375
 40
0.6220703125
 40
0.623046875
 40
0.6240234375
 40
0.6245117188
 40
0.6247558594
 40
0.625
 40
0.6252441406
 40
0.6254882812
 40
0.6259765625
 40
0.626953125
 40
0.6279296875
 40
0.62890625
 40
0.630859375
 40
0.6328125
 40
0.63671875
 40
0.640625
 40
0.64453125
 40
0.6484375
 40
0.65625
 40
0.6640625
 40
0.66796875
 40
0.671875
 40
0.67578125
 40
0.6796875
 40
0.681640625
 40
0.68359375
 40
0.6845703125
 40
0.685546875
 40
0.6865234375
 40
0.6870117188
 40
0.6872558594
 40
0.6875
 40
0.6877441406
 40
0.6879882812
 40
0.6884765625
 40
0.689453125
 40
0.6904296875
 40
0.69140625
 40
0.693359375
 40
0.6953125
 40
0.69921875
 40
0.703125
 40
0.70703125
 40
0.7109375
 40
0.71875
 40
0.7265625
 40
0.73046875
 40
0.734375
 40
0.73828125
 40
0.7421875
 40
0.744140625
 40
0.74609375
 40
0.7470703125
 40
0.748046875
 40
0.7490234375
 40
0.7495117188
 40
0.7497558594
 40
0.75
 40
0.7502441406
 40
0.7504882812
 40
0.7509765625
 40
0.751953125
 40
0.7529296875
 40
0.75390625
 40
0.755859375
 40
0.7578125
 40
0.76171875
 40
0.765625
 40
0.76953125
 40
0.7734375
 40
0.78125
 40
0.7890625
 40
0.79296875
 40
0.796875
 40
0.80078125
 40
0.8046875
 40
0.806640625
 40
0.80859375
 40
0.8095703125
 40
0.810546875
 40
0.8115234375
 40
0.8120117188
 40
0.8122558594
 40
0.8125
 40
0.8127441406
 40
0.8129882812
 40
0.8134765625
 40
0.814453125
 40
0.8154296875
 40
0.81640625
 40
0.818359375
 40
0.8203125
 40
0.82421875
 40
0.828125
 40
0.83203125
 40
0.8359375
 40
0.84375
 40
0.8515625
 40
0.85546875
 40
0.859375
 40
0.86328125
 40
0.8671875
 40
0.869140625
 40
0.87109375
 40
0.8720703125
 40
0.873046875
 40
0.8740234375
 40
0.8745117188
 40
0.8747558594
 40
0.875
 40
0.8752441406
 40
0.8754882812
 40
0.8759765625
 40
0.876953125
 40
0.8779296875
 40
0.87890625
 40
0.880859375
 40
0.8828125
 40
0.88671875
 40
0.890625
 40
0.89453125
 40
0.8984375
 40
0.90625
 40
0.9140625
 40
0.91796875
 40
0.921875
 40
0.92578125
 40
0.9296875
 40
0.931640625
 40
0.93359375
 40
0.9345703125
 40
0.935546875
 40
0.9365234375
 40
0.9370117188
 40
0.9372558594
 40
0.9375
 40
0.9377441406
 40
0.9379882812
 40
0.9384765625
 40
0.939453125
 40
0.9404296875
 40
0.94140625
 40
0.943359375
 40
0.9453125
 40
0.94921875
 40
0.953125
 40
0.95703125
 40
0.9609375
 40
0.96875
 40
0.9765625
 40
0.984375
 40
1.0
 40
1.0
 40
1.0
 40
1.0
 10
11.262123428
 20
7.4536213555
 30
0.0
 10
11.2618162163
 20
7.4567758476
 30
0.0
 10
11.2613553988
 20
7.4615075858
 30
0.0
 10
11.2607409755
 20
7.4678165701
 30
0.0
 10
11.260280158
 20
7.4725483082
 30
0.0
 10
11.2598961435
 20
7.4764914234
 30
0.0
 10
11.2595889316
 20
7.4796459155
 30
0.0
 10
11.2593585238
 20
7.4820117847
 30
0.0
 10
11.2591281114
 20
7.4843776533
 30
0.0
 10
11.2589361155
 20
7.4863492124
 30
0.0
 10
11.2587824863
 20
7.4879264554
 30
0.0
 10
11.2586865422
 20
7.4889122419
 30
0.0
 10
11.2586096172
 20
7.4897008492
 30
0.0
 10
11.2585523879
 20
7.4902923644
 30
0.0
 10
11.2585032192
 20
7.4907851037
 30
0.0
 10
11.258471701
 20
7.4911303943
 30
0.0
 10
11.2584491627
 20
7.4913271206
 30
0.0
 10
11.2584450141
 20
7.4914763064
 30
0.0
 10
11.258392109
 20
7.4916192194
 30
0.0
 10
11.2583385758
 20
7.4918119581
 30
0.0
 10
11.2582369688
 20
7.4921482314
 30
0.0
 10
11.2580959585
 20
7.4926291548
 30
0.0
 10
11.2579249731
 20
7.4932060347
 30
0.0
 10
11.2576976118
 20
7.4939752877
 30
0.0
 10
11.2574131981
 20
7.4949368266
 30
0.0
 10
11.2569582548
 20
7.496475304
 30
0.0
 10
11.256389535
 20
7.4983983956
 30
0.0
 10
11.2557070886
 20
7.5007061077
 30
0.0
 10
11.2550246376
 20
7.5030138193
 30
0.0
 10
11.2541147045
 20
7.5060907682
 30
0.0
 10
11.2529772876
 20
7.5099369543
 30
0.0
 10
11.251839871
 20
7.5137831405
 30
0.0
 10
11.2509299373
 20
7.5168600893
 30
0.0
 10
11.2502474882
 20
7.5191678013
 30
0.0
 10
11.2495650347
 20
7.5214755118
 30
0.0
 10
11.2489963371
 20
7.5233986085
 30
0.0
 10
11.2485413484
 20
7.5249370754
 30
0.0
 10
11.2482570503
 20
7.5258986412
 30
0.0
 10
11.2480294519
 20
7.526667839
 30
0.0
 10
11.2478591909
 20
7.5272448874
 30
0.0
 10
11.247715914
 20
7.5277252836
 30
0.0
 10
11.2476183533
 20
7.5280624979
 30
0.0
 10
11.2475583368
 20
7.5282537289
 30
0.0
 10
11.2475253461
 20
7.5284012733
 30
0.0
 10
11.2474464026
 20
7.5285330642
 30
0.0
 10
11.2473571735
 20
7.5287142805
 30
0.0
 10
11.2471935544
 20
7.5290288487
 30
0.0
 10
11.2469637173
 20
7.5294795703
 30
0.0
 10
11.2466862416
 20
7.5300198634
 30
0.0
 10
11.2463168576
 20
7.5307404542
 30
0.0
 10
11.2458549278
 20
7.5316411243
 30
0.0
 10
11.2451159518
 20
7.5330822347
 30
0.0
 10
11.2441921935
 20
7.5348836095
 30
0.0
 10
11.2430836999
 20
7.5370452649
 30
0.0
 10
11.241975202
 20
7.5392069188
 30
0.0
 10
11.2404972062
 20
7.5420891246
 30
0.0
 10
11.238649711
 20
7.5456918816
 30
0.0
 10
11.2368022161
 20
7.5492946387
 30
0.0
 10
11.2353242198
 20
7.5521768442
 30
0.0
 10
11.2342157236
 20
7.5543384989
 30
0.0
 10
11.2331072232
 20
7.5565001515
 30
0.0
 10
11.2321834862
 20
7.558301535
 30
0.0
 10
11.2314444668
 20
7.5597426277
 30
0.0
 10
11.2309826474
 20
7.5606433428
 30
0.0
 10
11.2306130367
 20
7.5613638412
 30
0.0
 10
11.2303362537
 20
7.5619044168
 30
0.0
 10
11.2301042491
 20
7.5623542544
 30
0.0
 10
11.2299444994
 20
7.5626704007
 30
0.0
 10
11.2298490706
 20
7.5628490884
 30
0.0
 10
11.2297891704
 20
7.5629886463
 30
0.0
 10
11.2296846564
 20
7.5631070194
 30
0.0
 10
11.2295608661
 20
7.5632722396
 30
0.0
 10
11.2293369826
 20
7.5635579322
 30
0.0
 10
11.2290209396
 20
7.5639678644
 30
0.0
 10
11.2286400656
 20
7.5644590126
 30
0.0
 10
11.2281328002
 20
7.565114146
 30
0.0
 10
11.2274985245
 20
7.5659329707
 30
0.0
 10
11.2264837917
 20
7.5672431415
 30
0.0
 10
11.2252153386
 20
7.5688808374
 30
0.0
 10
11.2236932107
 20
7.5708460801
 30
0.0
 10
11.2221710787
 20
7.5728113207
 30
0.0
 10
11.2201415707
 20
7.5754316423
 30
0.0
 10
11.2176046852
 20
7.578707044
 30
0.0
 10
11.2150678
 20
7.5819824459
 30
0.0
 10
11.2130382916
 20
7.5846027671
 30
0.0
 10
11.211516161
 20
7.5865680089
 30
0.0
 10
11.2099940274
 20
7.5885332472
 30
0.0
 10
11.2087255924
 20
7.5901709567
 30
0.0
 10
11.2077108226
 20
7.5914810998
 30
0.0
 10
11.2070766411
 20
7.592299995
 30
0.0
 10
11.2065691824
 20
7.5929549835
 30
0.0
 10
11.2061888991
 20
7.5934465743
 30
0.0
 10
11.2058710078
 20
7.5938551219
 30
0.0
 10
11.2056504239
 20
7.5941432863
 30
0.0
 10
11.2055213468
 20
7.594304546
 30
0.0
 10
11.2054330721
 20
7.5944350847
 30
0.0
 10
11.2053121794
 20
7.5945289506
 30
0.0
 10
11.2051623666
 20
7.594666897
 30
0.0
 10
11.2048948933
 20
7.5949023433
 30
0.0
 10
11.20451556
 20
7.5952418111
 30
0.0
 10
11.2040591738
 20
7.5956478387
 30
0.0
 10
11.2034510732
 20
7.5961896747
 30
0.0
 10
11.2026908055
 20
7.5968668101
 30
0.0
 10
11.2014744566
 20
7.597950316
 30
0.0
 10
11.1999539932
 20
7.5993046678
 30
0.0
 10
11.1981294488
 20
7.600929903
 30
0.0
 10
11.1963049013
 20
7.6025551347
 30
0.0
 10
11.1938721723
 20
7.6047221116
 30
0.0
 10
11.1908312607
 20
7.6074308322
 30
0.0
 10
11.1877903494
 20
7.6101395531
 30
0.0
 10
11.18535762
 20
7.6123065294
 30
0.0
 10
11.1835330737
 20
7.6139317627
 30
0.0
 10
11.1817085247
 20
7.6155569921
 30
0.0
 10
11.1801880755
 20
7.6169113618
 30
0.0
 10
11.1789716977
 20
7.6179948312
 30
0.0
 10
11.1782115035
 20
7.6186720594
 30
0.0
 10
11.177603252
 20
7.619213705
 30
0.0
 10
11.1771473268
 20
7.6196203144
 30
0.0
 10
11.1767665511
 20
7.6199579619
 30
0.0
 10
11.1765016527
 20
7.6201966576
 30
0.0
 10
11.1763477144
 20
7.6203293976
 30
0.0
 10
11.176239494
 20
7.620439256
 30
0.0
 10
11.1761036241
 20
7.6205097295
 30
0.0
 10
11.1759321087
 20
7.6206174321
 30
0.0
 10
11.1756274632
 20
7.6207995108
 30
0.0
 10
11.1751946045
 20
7.6210629697
 30
0.0
 10
11.1746741686
 20
7.621377688
 30
0.0
 10
11.1739806053
 20
7.6217978127
 30
0.0
 10
11.1731135309
 20
7.6223227973
 30
0.0
 10
11.1717262791
 20
7.6231628683
 30
0.0
 10
11.1699921912
 20
7.6242129243
 30
0.0
 10
11.1679112957
 20
7.6254730055
 30
0.0
 10
11.1658303975
 20
7.626733083
 30
0.0
 10
11.1630558675
 20
7.6284131876
 30
0.0
 10
11.1595877047
 20
7.6305133179
 30
0.0
 10
11.1561195421
 20
7.6326134485
 30
0.0
 10
11.1533450118
 20
7.6342935525
 30
0.0
 10
11.1512641145
 20
7.6355536317
 30
0.0
 10
11.1491832155
 20
7.6368137066
 30
0.0
 10
11.1474491386
 20
7.6378637823
 30
0.0
 10
11.1460618644
 20
7.6387038131
 30
0.0
 10
11.145194847
 20
7.6392289
 30
0.0
 10
11.1445011666
 20
7.6396488145
 30
0.0
 10
11.1439810883
 20
7.639964175
 30
0.0
 10
11.1435471109
 20
7.6402256248
 30
0.0
 10
11.1432444627
 20
7.64041129
 30
0.0
 10
11.143069747
 20
7.6405132462
 30
0.0
 10
11.1429437072
 20
7.6406013709
 30
0.0
 10
11.1427985667
 20
7.6406449341
 30
0.0
 10
11.1426117086
 20
7.6407185618
 30
0.0
 10
11.1422816026
 20
7.6408401683
 30
0.0
 10
11.1418116457
 20
7.6410176781
 30
0.0
 10
11.1412470027
 20
7.6412290693
 30
0.0
 10
11.1404943879
 20
7.6415114902
 30
0.0
 10
11.1395535365
 20
7.6418643226
 30
0.0
 10
11.1380482205
 20
7.6424289626
 30
0.0
 10
11.1361665597
 20
7.6431347256
 30
0.0
 10
11.1339085735
 20
7.643981657
 30
0.0
 10
11.1316505855
 20
7.6448285842
 30
0.0
 10
11.1286399354
 20
7.6459578219
 30
0.0
 10
11.1248766226
 20
7.6473693685
 30
0.0
 10
11.12111331
 20
7.6487809155
 30
0.0
 10
11.1181026597
 20
7.6499101526
 30
0.0
 10
11.1158446723
 20
7.6507570816
 30
0.0
 10
11.1135866836
 20
7.6516040061
 30
0.0
 10
11.1117050306
 20
7.6523097907
 30
0.0
 10
11.1101996986
 20
7.6528743866
 30
0.0
 10
11.109258888
 20
7.6532273315
 30
0.0
 10
11.1085061895
 20
7.6535095213
 30
0.0
 10
11.1079418025
 20
7.6537216184
 30
0.0
 10
11.1074710443
 20
7.6538969197
 30
0.0
 10
11.1071423688
 20
7.6540224687
 30
0.0
 10
11.1069532188
 20
7.6540897796
 30
0.0
 10
11.1068151181
 20
7.654152746
 30
0.0
 10
11.1066626382
 20
7.6541679952
 30
0.0
 10
11.1064643473
 20
7.6542049717
 30
0.0
 10
11.1061150014
 20
7.6542619257
 30
0.0
 10
11.1056171576
 20
7.6543473429
 30
0.0
 10
11.105019222
 20
7.6544481082
 30
0.0
 10
11.1042221573
 20
7.654583068
 30
0.0
 10
11.1032257638
 20
7.6547515603
 30
0.0
 10
11.1016315692
 20
7.6550212639
 30
0.0
 10
11.0996388139
 20
7.6553583535
 30
0.0
 10
11.0972475127
 20
7.6557628782
 30
0.0
 10
11.0948562102
 20
7.6561673983
 30
0.0
 10
11.0916678072
 20
7.6567067601
 30
0.0
 10
11.0876823034
 20
7.6573809617
 30
0.0
 10
11.0836967996
 20
7.6580551637
 30
0.0
 10
11.0805083966
 20
7.6585945248
 30
0.0
 10
11.0781170943
 20
7.6589990469
 30
0.0
 10
11.0757257923
 20
7.6594035641
 30
0.0
 10
11.0737330394
 20
7.6597406769
 30
0.0
 10
11.07213884
 20
7.6600103333
 30
0.0
 10
11.0711424586
 20
7.6601789458
 30
0.0
 10
11.070345369
 20
7.6603136587
 30
0.0
 10
11.0697475093
 20
7.6604151784
 30
0.0
 10
11.0692494282
 20
7.6604982353
 30
0.0
 10
11.0689005058
 20
7.6605594028
 30
0.0
 10
11.0687015364
 20
7.6605896282
 30
0.0
 10
11.0685511408
 20
7.6606256146
 30
0.0
 10
11.0684052119
 20
7.6606106956
 30
0.0
 10
11.0682090819
 20
7.66060856
 30
0.0
 10
11.0678665804
 20
7.6605965496
 30
0.0
 10
11.0673769131
 20
7.6605837172
 30
0.0
 10
11.0667894747
 20
7.660566467
 30
0.0
 10
11.0660061668
 20
7.6605441134
 30
0.0
 10
11.0650270513
 20
7.6605159499
 30
0.0
 10
11.0634604557
 20
7.6604710121
 30
0.0
 10
11.061502215
 20
7.6604147974
 30
0.0
 10
11.0591523244
 20
7.6603473579
 30
0.0
 10
11.0568024343
 20
7.6602799136
 30
0.0
 10
11.0536692474
 20
7.6601899895
 30
0.0
 10
11.0497527638
 20
7.6600775838
 30
0.0
 10
11.0458362801
 20
7.6599651785
 30
0.0
 10
11.0427030932
 20
7.6598752537
 30
0.0
 10
11.0403532028
 20
7.6598078114
 30
0.0
 10
11.0380033134
 20
7.6597403644
 30
0.0
 10
11.0360450693
 20
7.6596841732
 30
0.0
 10
11.0344784805
 20
7.6596391873
 30
0.0
 10
11.0334993478
 20
7.6596111462
 30
0.0
 10
11.0327160752
 20
7.6595885414
 30
0.0
 10
11.0321285288
 20
7.6595720586
 30
0.0
 10
11.0316391994
 20
7.6595568251
 30
0.0
 10
11.0312960946
 20
7.6595491012
 30
0.0
 10
11.0311009313
 20
7.6595400976
 30
0.0
 10
11.0309520332
 20
7.659546275
 30
0.0
 10
11.0308127892
 20
7.6595030266
 30
0.0
 10
11.030623763
 20
7.6594626023
 30
0.0
 10
11.0302945362
 20
7.6593838273
 30
0.0
 10
11.0298233919
 20
7.659275491
 30
0.0
 10
11.0292583699
 20
7.65914369
 30
0.0
 10
11.0285048845
 20
7.6589685831
 30
0.0
 10
11.0275630698
 20
7.6587494845
 30
0.0
 10
11.0260561427
 20
7.6583990469
 30
0.0
 10
11.024172492
 20
7.6579609587
 30
0.0
 10
11.0219121077
 20
7.6574352705
 30
0.0
 10
11.0196517243
 20
7.6569095776
 30
0.0
 10
11.0166378794
 20
7.6562086554
 30
0.0
 10
11.0128705735
 20
7.655332502
 30
0.0
 10
11.0091032674
 20
7.654456349
 30
0.0
 10
11.0060894227
 20
7.6537554262
 30
0.0
 10
11.0038290387
 20
7.6532297352
 30
0.0
 10
11.0015686565
 20
7.6527040397
 30
0.0
 10
10.9996849991
 20
7.6522659743
 30
0.0
 10
10.9981780858
 20
7.6519154903
 30
0.0
 10
10.9972362362
 20
7.6516965097
 30
0.0
 10
10.9964828224
 20
7.6515211607
 30
0.0
 10
10.9959175816
 20
7.6513900993
 30
0.0
 10
10.9954471217
 20
7.6512794489
 30
0.0
 10
10.9951166732
 20
7.6512048049
 30
0.0
 10
10.9949296044
 20
7.6511577617
 30
0.0
 10
10.9947843479
 20
7.6511348445
 30
0.0
 10
10.9946580317
 20
7.6510646611
 30
0.0
 10
10.9944830035
 20
7.6509875703
 30
0.0
 10
10.9941797824
 20
7.6508449797
 30
0.0
 10
10.993745
 20
7.6506452948
 30
0.0
 10
10.9932239499
 20
7.650403954
 30
0.0
 10
10.9925289759
 20
7.6500827666
 30
0.0
 10
10.9916603408
 20
7.6496810769
 30
0.0
 10
10.9902704786
 20
7.6490384881
 30
0.0
 10
10.9885331666
 20
7.6482352128
 30
0.0
 10
10.9864483855
 20
7.6472712993
 30
0.0
 10
10.9843636062
 20
7.6463073813
 30
0.0
 10
10.9815838998
 20
7.6450221588
 30
0.0
 10
10.978109267
 20
7.6434156302
 30
0.0
 10
10.9746346341
 20
7.641809102
 30
0.0
 10
10.971854928
 20
7.6405238789
 30
0.0
 10
10.9697701478
 20
7.6395599627
 30
0.0
 10
10.9676853699
 20
7.6385960422
 30
0.0
 10
10.9659480478
 20
7.6377927888
 30
0.0
 10
10.9645582063
 20
7.6371501553
 30
0.0
 10
10.9636895184
 20
7.6367485796
 30
0.0
 10
10.9629946527
 20
7.636427158
 30
0.0
 10
10.962473272
 20
7.6361865329
 30
0.0
 10
10.962039524
 20
7.6359846088
 30
0.0
 10
10.9617344563
 20
7.6358460156
 30
0.0
 10
10.9615623867
 20
7.6357625199
 30
0.0
 10
10.9614269829
 20
7.63571201
 30
0.0
 10
10.9613158579
 20
7.6356152025
 30
0.0
 10
10.9611592225
 20
7.6355022749
 30
0.0
 10
10.9608890563
 20
7.6352971275
 30
0.0
 10
10.9605010417
 20
7.6350079934
 30
0.0
 10
10.9600363072
 20
7.6346593488
 30
0.0
 10
10.9594163528
 20
7.6341950774
 30
0.0
 10
10.9586415153
 20
7.6336145368
 30
0.0
 10
10.9574017164
 20
7.6326857844
 30
0.0
 10
10.955851988
 20
7.6315248053
 30
0.0
 10
10.9539923053
 20
7.630131647
 30
0.0
 10
10.9521326249
 20
7.6287384841
 30
0.0
 10
10.9496530502
 20
7.6268809353
 30
0.0
 10
10.9465535821
 20
7.6245589986
 30
0.0
 10
10.9434541138
 20
7.6222370623
 30
0.0
 10
10.9409745395
 20
7.6203795129
 30
0.0
 10
10.9391148578
 20
7.6189863517
 30
0.0
 10
10.9372551798
 20
7.6175931872
 30
0.0
 10
10.9357054366
 20
7.6164322273
 30
0.0
 10
10.9344656679
 20
7.6155034357
 30
0.0
 10
10.9336907534
 20
7.6149229947
 30
0.0
 10
10.9330709573
 20
7.614458519
 30
0.0
 10
10.9326057392
 20
7.6141104987
 30
0.0
 10
10.9322192375
 20
7.6138194114
 30
0.0
 10
10.9319463706
 20
7.6136177508
 30
0.0
 10
10.9317940624
 20
7.6134992363
 30
0.0
 10
10.9316696456
 20
7.61341959
 30
0.0
 10
10.9315841636
 20
7.6133046255
 30
0.0
 10
10.9314566067
 20
7.6131636589
 30
0.0
 10
10.9312397098
 20
7.6129112274
 30
0.0
 10
10.9309265489
 20
7.6125536119
 30
0.0
 10
10.9305521718
 20
7.6121231888
 30
0.0
 10
10.9300525077
 20
7.61154974
 30
0.0
 10
10.929428097
 20
7.6108327754
 30
0.0
 10
10.9284289452
 20
7.6096857178
 30
0.0
 10
10.927180038
 20
7.6082518665
 30
0.0
 10
10.9256813353
 20
7.6065312574
 30
0.0
 10
10.9241826364
 20
7.604810645
 30
0.0
 10
10.9221843699
 20
7.6025164963
 30
0.0
 10
10.9196865372
 20
7.59964881
 30
0.0
 10
10.9171887042
 20
7.596781124
 30
0.0
 10
10.9151904382
 20
7.5944869748
 30
0.0
 10
10.9136917377
 20
7.5927663638
 30
0.0
 10
10.9121930411
 20
7.5910457498
 30
0.0
 10
10.910944115
 20
7.5896119139
 30
0.0
 10
10.9099450017
 20
7.5884648248
 30
0.0
 10
10.9093204931
 20
7.5877479404
 30
0.0
 10
10.9088210299
 20
7.5871743268
 30
0.0
 10
10.9084460391
 20
7.5867444073
 30
0.0
 10
10.9081347984
 20
7.5863852162
 30
0.0
 10
10.9079144735
 20
7.5861355974
 30
0.0
 10
10.9077924091
 20
7.5859901243
 30
0.0
 10
10.9076900558
 20
7.5858890021
 30
0.0
 10
10.9076290049
 20
7.5857573661
 30
0.0
 10
10.907533197
 20
7.585592495
 30
0.0
 10
10.9073722455
 20
7.5852990115
 30
0.0
 10
10.9071388054
 20
7.584882342
 30
0.0
 10
10.9068601795
 20
7.5843812289
 30
0.0
 10
10.9064881536
 20
7.5837134656
 30
0.0
 10
10.9060233008
 20
7.5828786289
 30
0.0
 10
10.905279436
 20
7.5815429643
 30
0.0
 10
10.9043496395
 20
7.579873358
 30
0.0
 10
10.9032338688
 20
7.5778698414
 30
0.0
 10
10.9021181021
 20
7.5758663219
 30
0.0
 10
10.9006304118
 20
7.5731949636
 30
0.0
 10
10.8987707995
 20
7.5698557653
 30
0.0
 10
10.8969111868
 20
7.5665165673
 30
0.0
 10
10.895423497
 20
7.5638452086
 30
0.0
 10
10.8943077286
 20
7.5618416902
 30
0.0
 10
10.8931919646
 20
7.5598381696
 30
0.0
 10
10.8922621475
 20
7.5581685758
 30
0.0
 10
10.8915183245
 20
7.5568328859
 30
0.0
 10
10.8910533654
 20
7.5559981135
 30
0.0
 10
10.8906815578
 20
7.5553302181
 30
0.0
 10
10.8904022649
 20
7.5548295088
 30
0.0
 10
10.8901709115
 20
7.5544115757
 30
0.0
 10
10.890006235
 20
7.5541203479
 30
0.0
 10
10.8899163954
 20
7.5539518627
 30
0.0
 10
10.8898370115
 20
7.5538313281
 30
0.0
 10
10.889803514
 20
7.5536885107
 30
0.0
 10
10.8897428449
 20
7.55350586
 30
0.0
 10
10.8896441313
 20
7.5531825999
 30
0.0
 10
10.8894992131
 20
7.552722693
 30
0.0
 10
10.88932698
 20
7.5521699944
 30
0.0
 10
10.8890967531
 20
7.551433346
 30
0.0
 10
10.8888091691
 20
7.5505124385
 30
0.0
 10
10.888348923
 20
7.5490390408
 30
0.0
 10
10.8877736537
 20
7.547197275
 30
0.0
 10
10.8870833141
 20
7.544987164
 30
0.0
 10
10.886392979
 20
7.5427770509
 30
0.0
 10
10.8854725305
 20
7.5398302341
 30
0.0
 10
10.8843219706
 20
7.5361467129
 30
0.0
 10
10.8831714102
 20
7.5324631919
 30
0.0
 10
10.8822509624
 20
7.5295163749
 30
0.0
 10
10.8815606253
 20
7.5273062626
 30
0.0
 10
10.8808702929
 20
7.5250961486
 30
0.0
 10
10.8802950014
 20
7.5232543922
 30
0.0
 10
10.8798348006
 20
7.5217809753
 30
0.0
 10
10.8795471012
 20
7.5208601167
 30
0.0
 10
10.8793171111
 20
7.520123368
 30
0.0
 10
10.8791441545
 20
7.5195709756
 30
0.0
 10
10.8790015003
 20
7.5191101105
 30
0.0
 10
10.878898745
 20
7.5187885611
 30
0.0
 10
10.8788445517
 20
7.5186031695
 30
0.0
 10
10.8787911626
 20
7.5184687713
 30
0.0
 10
10.878786488
 20
7.5183166155
 30
0.0
 10
10.878763263
 20
7.5181199352
 30
0.0
 10
10.8787305362
 20
7.5177728587
 30
0.0
 10
10.8786796446
 20
7.517278544
 30
0.0
 10
10.8786203463
 20
7.5166847206
 30
0.0
 10
10.8785406631
 20
7.5158931815
 30
0.0
 10
10.8784412709
 20
7.5149036804
 30
0.0
 10
10.8782821251
 20
7.5133205219
 30
0.0
 10
10.8780832335
 20
7.5113415589
 30
0.0
 10
10.8778445461
 20
7.5089668097
 30
0.0
 10
10.8776058634
 20
7.5065920588
 30
0.0
 10
10.8772876182
 20
7.5034257249
 30
0.0
 10
10.8768898121
 20
7.4994678072
 30
0.0
 10
10.8764124447
 20
7.4947183061
 30
0.0
 10
10.8757759549
 20
7.488385638
 30
0.0
 10
10.8752985875
 20
7.4836361368
 30
0.0
 10
10.8749803425
 20
7.4804698028
 30
0.0
  0
ENDSEC
  0
SECTION
  2
OBJECTS
  0
DICTIONARY
  5
C
100
AcDbDictionary
280
0
281
1
  3
ACAD_GROUP
350
D
  3
ACAD_MLINESTYLE
350
17
  3
ACAD_LAYOUT
350
1A
  3
ACAD_PLOTSETTINGS
350
19
  3
ACAD_PLOTSTYLENAME
350
E
  3
ACAD_IMAGE_DICT
350
       3EA
  3
ACAD_IMAGE_VARS
350
       3EB
  3
ACAD_TABLESTYLE
350
       3EC
  0
IMAGEDEF_REACTOR
  5
3E9
100
AcDbRasterImageDefReactor
 90
2
330
28F
  0
DICTIONARY
  5
D
102
{ACAD_REACTORS
330
C
102
}
100
AcDbDictionary
280
0
281
1
  0
ACDBDICTIONARYWDFLT
  5
E
102
{ACAD_REACTORS
330
C
102
}
100
AcDbDictionary
281
1
  3
Normal
350
F
100
AcDbDictionaryWithDefault
340
F
  0
DICTIONARY
  5
3EA
330
C
100
AcDbDictionary
281
1
  3
E3V_assy_2_img_1
350
       3EF
  0
RASTERVARIABLES
  5
3EB
330
C
100
AcDbRasterVariables
 90
0
 70
0
 71
1
 72
5
  0
DICTIONARY
  5
17
102
{ACAD_REACTORS
330
C
102
}
100
AcDbDictionary
280
0
281
1
  3
Standard
350
18
  0
DICTIONARY
  5
3EC
330
C
100
AcDbDictionary
281
1
  3
Standard
350
       3F0
  3
Standard1
350
       3F1
  0
DICTIONARY
  5
19
102
{ACAD_REACTORS
330
C
102
}
100
AcDbDictionary
281
1
  0
DICTIONARY
  5
1A
102
{ACAD_REACTORS
330
C
102
}
100
AcDbDictionary
281
1
  3
Model
350
3ED
  3
Layout1
350
3EE
  0
ACDBPLACEHOLDER
  5
F
102
{ACAD_REACTORS
330
E
102
}
  0
MLINESTYLE
  5
18
102
{ACAD_REACTORS
330
17
102
}
100
AcDbMlineStyle
  2
STANDARD
 70
0
  3

 62
256
 51
90.0
 52
90.0
 71
2
 49
0.5
 62
256
  6
BYLAYER
 49
-0.5
 62
256
  6
BYLAYER
  0
LAYOUT
  5
3ED
102
{ACAD_REACTORS
330
1A
102
}
100
AcDbPlotSettings
  1

  2
none_device
  4
ANSI_C_(22.00_x_17.00_Inches)
  6

 40
0.0
 41
0.0
 42
0.0
 43
0.0
 44
558.8
 45
431.8
 46
0.0
 47
0.0
 48
0.0
 49
0.0
140
0.0
141
0.0
142
1.0
143
1.0
 70
1024
 72
0
 73
0
 74
0
  7

 75
0
147
1.0
148
0.0
149
0.0
100
AcDbLayout
  1
Model
 70
0
 71
0
 10
0.0
 20
0.0
 11
22.0
 21
17.0
 12
0.0
 22
0.0
 32
0.0
 14
0.0
 24
0.0
 34
0.0
 15
0.0
 25
0.0
 35
0.0
146
0.0
 13
0.0
 23
0.0
 33
0.0
 16
1.0
 26
0.0
 36
0.0
 17
0.0
 27
1.0
 37
0.0
 76
0
330
20C
345
0
346
0
  0
LAYOUT
  5
3EE
102
{ACAD_REACTORS
330
1A
102
}
100
AcDbPlotSettings
  1

  2
none_device
  4
ANSI_C_(22.00_x_17.00_Inches)
  6

 40
0.0
 41
0.0
 42
0.0
 43
0.0
 44
558.8
 45
431.8
 46
0.0
 47
0.0
 48
0.0
 49
0.0
140
0.0
141
0.0
142
1.0
143
1.0
 70
0
 72
0
 73
0
 74
0
  7

 75
0
147
1.0
148
0.0
149
0.0
100
AcDbLayout
  1
Layout1
 70
0
 71
1
 10
0.0
 20
0.0
 11
22.0
 21
17.0
 12
0.0
 22
0.0
 32
0.0
 14
0.0
 24
0.0
 34
0.0
 15
0.0
 25
0.0
 35
0.0
146
0.0
 13
0.0
 23
0.0
 33
0.0
 16
1.0
 26
0.0
 36
0.0
 17
0.0
 27
1.0
 37
0.0
 76
0
330
20D
345
0
346
0
  0
IMAGEDEF
  5
3EF
102
{ACAD_REACTORS
330
3EA
330
3E9
102
}
100
AcDbRasterImageDef
 90
0
  1
E3V_assy_2_img_1.png
 10
369.0
 20
92.0
 11
0.0066666667
 21
0.0066666667
280
1
281
0
  0
TABLESTYLE
  5
3F0
102
{ACAD_REACTORS
330
3EC
330
292
330
293
102
}
330
3EC
100
AcDbTableStyle
  3
Standard
 70
0
 71
0
 40
0.06
 41
0.06
280
1
281
1
  7
Standard
140
0.18
170
1
 62
0
 63
7
283
0
  7
Standard
140
0.18
170
1
 62
0
 63
7
283
0
  7
Standard
140
0.18
170
1
 62
0
 63
7
283
0
  0
TABLESTYLE
  5
3F1
102
{ACAD_REACTORS
330
3EC
330
291
102
}
330
3EC
100
AcDbTableStyle
  3
Standard1
 70
1
 71
0
 40
0.06
 41
0.06
280
1
281
1
  7
Standard
140
0.18
170
1
 62
0
 63
7
283
0
  7
Standard
140
0.18
170
1
 62
0
 63
7
283
0
  7
Standard
140
0.18
170
1
 62
0
 63
7
283
0
  0
ENDSEC
  0
EOF
