999
DXF file: E3U_assy_2.dxf
999
Pro/ENGINEER 2014200 by Parametric Technology Corporation
  0
SECTION
  2
HEADER
  9
$ACADVER
  1
AC1021
  9
$DWGCODEPAGE
  3
ANSI_1252
  9
$EXTMAX
 10
22.0
 20
17.0
 30
0.0
  9
$EXTMIN
 10
0.0
 20
0.0
 30
0.0
  9
$LIMMIN
 10
0.0
 20
0.0
  9
$LIMMAX
 10
22.0
 20
17.0
  9
$VIEWCTR
 10
11.0
 20
8.5
  9
$VIEWSIZE
 40
17.0
  9
$CLAYER
  8
0
  9
$LTSCALE
 40
1.21
  9
$CELTYPE
  6
BYLAYER
  9
$DIMSCALE
 40
1.0
  9
$DIMASZ
 40
0.1875
  9
$DIMEXO
 40
0.0625
  9
$DIMDLI
 40
0.836
  9
$DIMEXE
 40
0.125
  9
$DIMCEN
 40
0.198
  9
$DIMLFAC
 40
1.0
  9
$DIMBLK
  1
_FILLED
  9
$DIMTXT
 40
0.1
  9
$DIMTOL
 70
0
  9
$DIMLIM
 70
0
  9
$DIMTFAC
 40
1.0
  9
$DIMGAP
 40
0.09
  9
$DIMDSEP
 70
46
  9
$AUNITS
 70
0
  9
$PDMODE
 70
3
  9
$PDSIZE
 40
0.3125
  9
$HANDSEED
  5
3F5
  9
$TILEMODE
 70
1
  9
$MEASUREMENT
 70
0
  9
$INSUNITS
 70
1
  0
ENDSEC
  0
SECTION
  2
CLASSES
  0
CLASS
  1
ACDBDICTIONARYWDFLT
  2
AcDbDictionaryWithDefault
  3
AutoCAD 2000
 90
0
 91
1
280
0
281
0
  0
CLASS
  1
ACDBPLACEHOLDER
  2
AcDbPlaceHolder
  3
AutoCAD 2000
 90
0
 91
1
280
0
281
0
  0
CLASS
  1
LAYOUT
  2
AcDbLayout
  3
AutoCAD 2000
 90
0
 91
0
280
0
281
0
  0
CLASS
  1
RASTERVARIABLES
  2
AcDbRasterVariables
  3
ISM
 90
0
 91
1
280
0
281
0
  0
CLASS
  1
IMAGEDEF
  2
AcDbRasterImageDef
  3
ISM
 90
0
 91
1
280
0
281
0
  0
CLASS
  1
IMAGEDEF_REACTOR
  2
AcDbRasterImageDefReactor
  3
ISM
 90
0
 91
1
280
0
281
0
  0
CLASS
  1
IMAGE
  2
AcDbRasterImage
  3
ISM
 90
127
 91
1
280
0
281
1
  0
CLASS
  1
TABLESTYLE
  2
AcDbTableStyle
  3
ObjectDBX Classes
 90
2047
 91
1
280
0
281
0
  0
CLASS
  1
ACAD_TABLE
  2
AcDbTable
  3
ObjectDBX Classes
 90
1025
 91
3
280
0
281
1
  0
ENDSEC
  0
SECTION
  2
TABLES
  0
TABLE
  2
VPORT
  5
8
100
AcDbSymbolTable
 70
2
  0
VPORT
  5
1F4
100
AcDbSymbolTableRecord
100
AcDbViewportTableRecord
  2
*ACTIVE
 70
0
 10
0.0
 20
0.0
 11
1.0
 21
1.0
 12
11.0
 22
8.5
 13
0.0
 23
0.0
 14
1.0
 24
1.0
 15
0.0
 25
0.0
 16
0.0
 26
0.0
 36
1.0
 17
0.0
 27
0.0
 37
0.0
 40
17.0
 41
1.2941176471
 42
50.0
 43
0.0
 44
0.0
 50
0.0
 51
0.0
 71
0
 72
100
 73
1
 74
1
 75
0
 76
0
 77
0
 78
0
  0
ENDTAB
  0
TABLE
  2
LTYPE
  5
5
100
AcDbSymbolTable
 70
6
  0
LTYPE
  5
14
100
AcDbSymbolTableRecord
100
AcDbLinetypeTableRecord
  2
BYBLOCK
 70
0
  3

 72
65
 73
0
 40
0.0
  0
LTYPE
  5
15
100
AcDbSymbolTableRecord
100
AcDbLinetypeTableRecord
  2
BYLAYER
 70
0
  3

 72
65
 73
0
 40
0.0
  0
LTYPE
  5
16
100
AcDbSymbolTableRecord
100
AcDbLinetypeTableRecord
  2
CONTINUOUS
 70
64
  3
Solid line
 72
65
 73
0
 40
0.0
  0
LTYPE
  5
1F5
100
AcDbSymbolTableRecord
100
AcDbLinetypeTableRecord
  2
CENTER
 70
64
  3
____ _ ____ _ ____ _ ____ _ ____ _ ____ _ ____
 72
65
 73
4
 40
0.6
 49
0.375
 74
0
 49
-0.075
 74
0
 49
0.075
 74
0
 49
-0.075
 74
0
  0
LTYPE
  5
1F6
100
AcDbSymbolTableRecord
100
AcDbLinetypeTableRecord
  2
HIDDEN
 70
64
  3
- - - - - - - - - - - - - - - - - - - -
 72
65
 73
2
 40
0.2
 49
0.1
 74
0
 49
-0.1
 74
0
  0
LTYPE
  5
1F7
100
AcDbSymbolTableRecord
100
AcDbLinetypeTableRecord
  2
PHANTOM
 70
64
  3
_____ _ _ _____ _ _ _____ _ _ _____
 72
65
 73
6
 40
0.8
 49
0.45
 74
0
 49
-0.05
 74
0
 49
0.1
 74
0
 49
-0.05
 74
0
 49
0.1
 74
0
 49
-0.05
 74
0
  0
LTYPE
  5
1F8
100
AcDbSymbolTableRecord
100
AcDbLinetypeTableRecord
  2
DOT
 70
64
  3
. . . . . . . . . . . . . . . . . . . .
 72
65
 73
2
 40
0.2
 49
0.1
 74
0
 49
-0.1
 74
0
  0
LTYPE
  5
1F9
100
AcDbSymbolTableRecord
100
AcDbLinetypeTableRecord
  2
DASHED
 70
64
  3
- - - - - - - - - - - - - - - - - - - -
 72
65
 73
2
 40
0.2
 49
0.1
 74
0
 49
-0.1
 74
0
  0
ENDTAB
  0
TABLE
  2
LAYER
  5
2
100
AcDbSymbolTable
 70
36
  0
LAYER
  5
10
100
AcDbSymbolTableRecord
100
AcDbLayerTableRecord
  2
0
 70
0
 62
7
  6
CONTINUOUS
370
-3
390
F
  0
LAYER
  5
1FA
100
AcDbSymbolTableRecord
100
AcDbLayerTableRecord
  2
DEFAULT_1
 70
0
 62
7
  6
CENTER
370
-3
390
F
  0
LAYER
  5
1FB
100
AcDbSymbolTableRecord
100
AcDbLayerTableRecord
  2
DEFAULT_2
 70
0
 62
8
  6
HIDDEN
370
-3
390
F
  0
LAYER
  5
1FC
100
AcDbSymbolTableRecord
100
AcDbLayerTableRecord
  2
DEFAULT_3
 70
0
 62
7
  6
PHANTOM
370
-3
390
F
  0
LAYER
  5
1FD
100
AcDbSymbolTableRecord
100
AcDbLayerTableRecord
  2
01___PRT_ALL_DTM_PLN
 70
0
 62
7
  6
CONTINUOUS
370
-3
390
F
  0
LAYER
  5
1FE
100
AcDbSymbolTableRecord
100
AcDbLayerTableRecord
  2
01___PRT_DEF_DTM_PLN
 70
0
 62
7
  6
CONTINUOUS
370
-3
390
F
  0
LAYER
  5
1FF
100
AcDbSymbolTableRecord
100
AcDbLayerTableRecord
  2
02___PRT_ALL_AXES
 70
0
 62
7
  6
CONTINUOUS
370
-3
390
F
  0
LAYER
  5
200
100
AcDbSymbolTableRecord
100
AcDbLayerTableRecord
  2
03___PRT_ALL_CURVES
 70
0
 62
7
  6
CONTINUOUS
370
-3
390
F
  0
LAYER
  5
201
100
AcDbSymbolTableRecord
100
AcDbLayerTableRecord
  2
04___PRT_ALL_DTM_PNT
 70
0
 62
7
  6
CONTINUOUS
370
-3
390
F
  0
LAYER
  5
202
100
AcDbSymbolTableRecord
100
AcDbLayerTableRecord
  2
05___PRT_ALL_DTM_CSYS
 70
0
 62
7
  6
CONTINUOUS
370
-3
390
F
  0
LAYER
  5
203
100
AcDbSymbolTableRecord
100
AcDbLayerTableRecord
  2
05___PRT_DEF_DTM_CSYS
 70
0
 62
7
  6
CONTINUOUS
370
-3
390
F
  0
LAYER
  5
204
100
AcDbSymbolTableRecord
100
AcDbLayerTableRecord
  2
06___PRT_ALL_SURFS
 70
0
 62
7
  6
CONTINUOUS
370
-3
390
F
  0
LAYER
  5
205
100
AcDbSymbolTableRecord
100
AcDbLayerTableRecord
  2
DATUM_PLANES
 70
0
 62
7
  6
CONTINUOUS
370
-3
390
F
  0
LAYER
  5
206
100
AcDbSymbolTableRecord
100
AcDbLayerTableRecord
  2
PORT_AREAS
 70
0
 62
7
  6
CONTINUOUS
370
-3
390
F
  0
LAYER
  5
207
100
AcDbSymbolTableRecord
100
AcDbLayerTableRecord
  2
SUNNBOMCOSMETIC
 70
0
 62
7
  6
CONTINUOUS
370
-3
390
F
  0
LAYER
  5
208
100
AcDbSymbolTableRecord
100
AcDbLayerTableRecord
  2
SUNNBOMSTAMPING
 70
0
 62
7
  6
CONTINUOUS
370
-3
390
F
  0
LAYER
  5
209
100
AcDbSymbolTableRecord
100
AcDbLayerTableRecord
  2
THREADS
 70
0
 62
7
  6
CONTINUOUS
370
-3
390
F
  0
ENDTAB
  0
TABLE
  2
STYLE
  5
3
100
AcDbSymbolTable
 70
1
  0
STYLE
  5
11
100
AcDbSymbolTableRecord
100
AcDbTextStyleTableRecord
  2
STANDARD
 70
0
 40
0.0
 41
0.8
 50
0.0
 71
0
 42
0.2
  3
txt
  4

  0
STYLE
  5
20A
100
AcDbSymbolTableRecord
100
AcDbTextStyleTableRecord
  2
TEXTSTYLE_1
 70
0
 40
0.0
 41
0.8
 50
0.0
 71
0
 42
0.2
  3
gdt
  4

  0
ENDTAB
  0
TABLE
  2
VIEW
  5
6
100
AcDbSymbolTable
 70
0
  0
ENDTAB
  0
TABLE
  2
UCS
  5
7
100
AcDbSymbolTable
 70
0
  0
ENDTAB
  0
TABLE
  2
APPID
  5
9
100
AcDbSymbolTable
 70
1
  0
APPID
  5
20B
100
AcDbSymbolTableRecord
100
AcDbRegAppTableRecord
  2
ACAD
 70
0
  0
ENDTAB
  0
TABLE
  2
BLOCK_RECORD
  5
1
100
AcDbSymbolTable
 70
0
  0
BLOCK_RECORD
  5
20C
100
AcDbSymbolTableRecord
100
AcDbBlockTableRecord
  2
*Model_Space
  0
BLOCK_RECORD
  5
20D
100
AcDbSymbolTableRecord
100
AcDbBlockTableRecord
  2
*Paper_Space
  0
BLOCK_RECORD
  5
20E
100
AcDbSymbolTableRecord
100
AcDbBlockTableRecord
  2
SUN_FIRST_THIRD_ANGLE_BL0
  0
BLOCK_RECORD
  5
20F
100
AcDbSymbolTableRecord
100
AcDbBlockTableRecord
  2
*T1
  0
BLOCK_RECORD
  5
210
100
AcDbSymbolTableRecord
100
AcDbBlockTableRecord
  2
*T2
  0
BLOCK_RECORD
  5
211
100
AcDbSymbolTableRecord
100
AcDbBlockTableRecord
  2
*T3
  0
ENDTAB
  0
TABLE
  2
DIMSTYLE
  5
A
100
AcDbSymbolTable
 70
1
100
AcDbDimStyleTable
 71
0
  0
DIMSTYLE
105
212
100
AcDbSymbolTableRecord
100
AcDbDimStyleTableRecord
  2
STANDARD
 70
0
  3

  4

 40
1.0
 41
0.1875
 42
0.0625
 43
0.38
 44
0.125
 45
0.0
 46
0.0
 47
0.001
 48
0.001
140
0.1
141
0.09
142
0.0
143
25.4
144
1.0
145
0.0
146
1.0
147
0.09
 71
0.0
 72
0.0
 73
1
 74
1
 75
0
 76
0
 77
0
 78
4
170
0
171
2
172
0
173
0
174
0
175
0
176
0
177
0
178
0
270
2
271
3
272
3
273
2
274
2
275
0
280
0
281
0
282
0
283
1
284
4
285
0
286
0
287
3
288
0
340
11
278
46
  0
ENDTAB
  0
ENDSEC
  0
SECTION
  2
BLOCKS
  0
BLOCK
  5
20
100
AcDbEntity
  8
0
100
AcDbBlockBegin
  2
*Model_Space
 70
0
 10
0.0
 20
0.0
 30
0.0
  3
*Model_Space
  1

  0
ENDBLK
  5
21
100
AcDbEntity
  8
0
100
AcDbBlockEnd
  0
BLOCK
  5
1C
100
AcDbEntity
  8
0
100
AcDbBlockBegin
  2
*Paper_Space
 70
0
 10
0.0
 20
0.0
 30
0.0
  3
*Paper_Space
  1

  0
ENDBLK
  5
1D
100
AcDbEntity
  8
0
100
AcDbBlockEnd
  0
BLOCK
  5
213
100
AcDbEntity
  8
0
100
AcDbBlockBegin
 62
2
  6
CONTINUOUS
  2
SUN_FIRST_THIRD_ANGLE_BL0
 70
64
 10
20.4816717061
 20
1.2289683772
  3
SUN_FIRST_THIRD_ANGLE_BL0
  1

  0
TEXT
  5
214
100
AcDbEntity
  8
0
100
AcDbText
 62
2
  6
CONTINUOUS
 10
19.4750896608
 20
1.4136269581
  7
STANDARD
 40
0.08
  1
FIRST ANGLE
 41
0.8
 72
0
100
AcDbText
  0
TEXT
  5
215
100
AcDbEntity
  8
0
100
AcDbText
 62
2
  6
CONTINUOUS
 10
20.7842537513
 20
1.4047600029
  7
STANDARD
 40
0.08
  1
THIRD ANGLE
 41
0.8
 72
0
100
AcDbText
  0
LINE
  5
216
100
AcDbEntity
  8
0
100
AcDbLine
 62
7
  6
CONTINUOUS
 10
19.4767170086
 20
1.1727031207
 11
19.6334271527
 21
1.1717972817
  0
LINE
  5
217
100
AcDbEntity
  8
0
100
AcDbLine
 62
7
  6
CONTINUOUS
 10
19.6596964832
 20
1.1717972817
 11
19.6950230232
 21
1.171593082
  0
LINE
  5
218
100
AcDbEntity
  8
0
100
AcDbLine
 62
7
  6
CONTINUOUS
 10
19.7194818561
 20
1.1708914427
 11
19.8852396156
 21
1.1699333054
  0
LINE
  5
219
100
AcDbEntity
  8
0
100
AcDbLine
 62
7
  6
CONTINUOUS
 10
19.4758111696
 20
1.2723454088
 11
19.88525039
 21
1.3511534004
  0
LINE
  5
21A
100
AcDbEntity
  8
0
100
AcDbLine
 62
7
  6
CONTINUOUS
 10
19.88525039
 20
1.3511534004
 11
19.8831348489
 21
0.9851647912
  0
LINE
  5
21B
100
AcDbEntity
  8
0
100
AcDbLine
 62
7
  6
CONTINUOUS
 10
19.8831348489
 20
0.9851647912
 11
19.4767170086
 21
1.0658141206
  0
LINE
  5
21C
100
AcDbEntity
  8
0
100
AcDbLine
 62
7
  6
CONTINUOUS
 10
19.4767170086
 20
1.0658141206
 11
19.4779056764
 21
1.2714536432
  0
CIRCLE
  5
21D
100
AcDbEntity
  8
0
100
AcDbCircle
 62
7
  6
CONTINUOUS
 10
20.2068232291
 20
1.1717972817
 40
0.175742101
  0
CIRCLE
  5
21E
100
AcDbEntity
  8
0
100
AcDbCircle
 62
7
  6
CONTINUOUS
 10
20.2068232291
 20
1.1717972817
 40
0.1005522074
  0
LINE
  5
21F
100
AcDbEntity
  8
0
100
AcDbLine
 62
7
  6
CONTINUOUS
 10
20.2077290681
 20
1.3756110529
 11
20.2071171714
 21
1.2379342989
  0
LINE
  5
220
100
AcDbEntity
  8
0
100
AcDbLine
 62
7
  6
CONTINUOUS
 10
20.2077290681
 20
1.2016899681
 11
20.2074674401
 21
1.1428236749
  0
LINE
  5
221
100
AcDbEntity
  8
0
100
AcDbLine
 62
7
  6
CONTINUOUS
 10
20.208634907
 20
1.101141841
 11
20.2080230104
 21
0.963465087
  0
LINE
  5
222
100
AcDbEntity
  8
0
100
AcDbLine
 62
7
  6
CONTINUOUS
 10
20.0066328138
 20
1.1745147986
 11
20.1443095678
 21
1.1739029019
  0
LINE
  5
223
100
AcDbEntity
  8
0
100
AcDbLine
 62
7
  6
CONTINUOUS
 10
20.1832714155
 20
1.1727031207
 11
20.238153505
 21
1.172335442
  0
LINE
  5
224
100
AcDbEntity
  8
0
100
AcDbLine
 62
7
  6
CONTINUOUS
 10
20.2756669918
 20
1.1717972817
 11
20.407916871
 21
1.1712095044
  0
CIRCLE
  5
225
100
AcDbEntity
  8
0
100
AcDbCircle
 62
7
  6
CONTINUOUS
 10
20.7509457401
 20
1.1693297793
 40
0.1722024983
  0
CIRCLE
  5
226
100
AcDbEntity
  8
0
100
AcDbCircle
 62
7
  6
CONTINUOUS
 10
20.7509457401
 20
1.1693297793
 40
0.0985164967
  0
LINE
  5
227
100
AcDbEntity
  8
0
100
AcDbLine
 62
7
  6
CONTINUOUS
 10
20.7169767782
 20
1.170462078
 11
20.7825395137
 21
1.1682766535
  0
LINE
  5
228
100
AcDbEntity
  8
0
100
AcDbLine
 62
7
  6
CONTINUOUS
 10
20.8177513651
 20
1.1693297793
 11
20.947965719
 21
1.1693297793
  0
LINE
  5
229
100
AcDbEntity
  8
0
100
AcDbLine
 62
7
  6
CONTINUOUS
 10
20.6875370113
 20
1.170462078
 11
20.5573226574
 21
1.170462078
  0
LINE
  5
22A
100
AcDbEntity
  8
0
100
AcDbLine
 62
7
  6
CONTINUOUS
 10
20.7486811426
 20
1.1987695462
 11
20.7486811426
 21
1.1432869085
  0
LINE
  5
22B
100
AcDbEntity
  8
0
100
AcDbLine
 62
7
  6
CONTINUOUS
 10
20.7498134414
 20
1.1059210505
 11
20.7498134414
 21
0.9757066966
  0
LINE
  5
22C
100
AcDbEntity
  8
0
100
AcDbLine
 62
7
  6
CONTINUOUS
 10
20.7486811426
 20
1.2338708068
 11
20.7486811426
 21
1.3640851607
  0
LINE
  5
22D
100
AcDbEntity
  8
0
100
AcDbLine
 62
7
  6
CONTINUOUS
 10
21.0702539817
 20
1.2701043662
 11
21.4790138229
 21
1.3448360823
  0
LINE
  5
22E
100
AcDbEntity
  8
0
100
AcDbLine
 62
7
  6
CONTINUOUS
 10
21.4790138229
 20
1.3448360823
 11
21.4790138229
 21
0.9779712941
  0
LINE
  5
22F
100
AcDbEntity
  8
0
100
AcDbLine
 62
7
  6
CONTINUOUS
 10
21.4790138229
 20
0.9779712941
 11
21.069121683
 21
1.0617614
  0
LINE
  5
230
100
AcDbEntity
  8
0
100
AcDbLine
 62
7
  6
CONTINUOUS
 10
21.0702539817
 20
1.2701043662
 11
21.069121683
 21
1.0617614
  0
LINE
  5
231
100
AcDbEntity
  8
0
100
AcDbLine
 62
7
  6
CONTINUOUS
 10
21.4790138229
 20
1.1693297793
 11
21.3159628059
 21
1.1693297793
  0
LINE
  5
232
100
AcDbEntity
  8
0
100
AcDbLine
 62
7
  6
CONTINUOUS
 10
21.2876553377
 20
1.1693297793
 11
21.2502894796
 21
1.1693297793
  0
LINE
  5
233
100
AcDbEntity
  8
0
100
AcDbLine
 62
7
  6
CONTINUOUS
 10
21.2208497126
 20
1.1659328831
 11
21.0713862804
 21
1.1659328831
  0
LINE
  5
234
100
AcDbEntity
  8
0
100
AcDbLine
 62
7
  6
CONTINUOUS
 10
20.4796138713
 20
1.5284908897
 11
20.4766766948
 21
0.9294458646
  0
ENDBLK
  5
235
100
AcDbEntity
  8
0
  6
BYBLOCK
 62
0
100
AcDbBlockEnd
  0
BLOCK
  5
236
100
AcDbEntity
  8
0
100
AcDbBlockBegin
  2
*T1
 70
1
 10
0.0
 20
0.0
  3
*T1
  1

  0
LINE
  5
237
100
AcDbEntity
  8
0
100
AcDbLine
 62
2
  6
CONTINUOUS
 10
9.275
 20
0.0
 11
-0.0
 21
0.0
  0
LINE
  5
238
100
AcDbEntity
  8
0
100
AcDbLine
 62
2
  6
CONTINUOUS
 10
9.275
 20
0.0
 11
9.275
 21
1.25
  0
LINE
  5
239
100
AcDbEntity
  8
0
100
AcDbLine
 62
2
  6
CONTINUOUS
 10
9.275
 20
0.625
 11
-0.0
 21
0.625
  0
LINE
  5
23A
100
AcDbEntity
  8
0
100
AcDbLine
 62
2
  6
CONTINUOUS
 10
9.275
 20
1.25
 11
-0.0
 21
1.25
  0
LINE
  5
23B
100
AcDbEntity
  8
0
100
AcDbLine
 62
2
  6
CONTINUOUS
 10
6.8
 20
0.0
 11
6.8
 21
1.25
  0
LINE
  5
23C
100
AcDbEntity
  8
0
100
AcDbLine
 62
2
  6
CONTINUOUS
 10
6.4
 20
0.0
 11
6.4
 21
0.625
  0
LINE
  5
23D
100
AcDbEntity
  8
0
100
AcDbLine
 62
2
  6
CONTINUOUS
 10
5.9
 20
0.0
 11
5.9
 21
0.625
  0
LINE
  5
23E
100
AcDbEntity
  8
0
100
AcDbLine
 62
2
  6
CONTINUOUS
 10
5.2
 20
0.0
 11
5.2
 21
0.625
  0
LINE
  5
23F
100
AcDbEntity
  8
0
100
AcDbLine
 62
2
  6
CONTINUOUS
 10
4.1
 20
0.0
 11
4.1
 21
1.25
  0
LINE
  5
240
100
AcDbEntity
  8
0
100
AcDbLine
 62
2
  6
CONTINUOUS
 10
-0.0
 20
0.0
 11
-0.0
 21
1.25
  0
MTEXT
  5
241
100
AcDbEntity
  8
0
100
AcDbMText
 62
2
  6
CONTINUOUS
  7
STANDARD
 71
2
 72
1
 10
6.6
 20
0.325
 30
0.0
 11
1.0
 21
0.0
 31
0.0
 44
0.9
  1
2
 40
0.125
 41
0.2
  0
MTEXT
  5
242
100
AcDbEntity
  8
0
100
AcDbMText
 62
2
  6
CONTINUOUS
  7
STANDARD
 71
2
 72
1
 10
6.15
 20
0.325
 30
0.0
 11
1.0
 21
0.0
 31
0.0
 44
0.9
  1
C
 40
0.125
 41
0.2
  0
MTEXT
  5
243
100
AcDbEntity
  8
0
100
AcDbMText
 62
2
  6
CONTINUOUS
  7
STANDARD
 71
2
 72
1
 10
5.55
 20
0.325
 30
0.0
 11
1.0
 21
0.0
 31
0.0
 44
0.9
  1
1.000
 40
0.125
 41
1.0
  0
MTEXT
  5
244
100
AcDbEntity
  8
0
100
AcDbMText
 62
2
  6
CONTINUOUS
  7
STANDARD
 71
2
 72
1
 10
4.65
 20
0.325
 30
0.0
 11
1.0
 21
0.0
 31
0.0
 44
0.9
  1
Jul-26-19
 40
0.125
 41
1.8
  0
MTEXT
  5
245
100
AcDbEntity
  8
0
100
AcDbMText
 62
2
  6
CONTINUOUS
  7
STANDARD
 71
2
 72
1
 10
2.05
 20
0.4625
 30
0.0
 11
1.0
 21
0.0
 31
0.0
 44
0.9
  1
T-11A Line mount\PThrough port 2 with reverse flow check
 40
0.125
 41
7.6
  0
MTEXT
  5
246
100
AcDbEntity
  8
0
100
AcDbMText
 62
2
  6
CONTINUOUS
  7
STANDARD
 71
1
 72
1
 10
6.45
 20
0.5625
 30
0.0
 11
1.0
 21
0.0
 31
0.0
 44
0.9
  1
SHEET
 40
0.06
 41
0.48
  0
MTEXT
  5
247
100
AcDbEntity
  8
0
100
AcDbMText
 62
2
  6
CONTINUOUS
  7
STANDARD
 71
1
 72
1
 10
5.95
 20
0.5625
 30
0.0
 11
1.0
 21
0.0
 31
0.0
 44
0.9
  1
DWG SIZE
 40
0.06
 41
0.768
  0
MTEXT
  5
248
100
AcDbEntity
  8
0
100
AcDbMText
 62
2
  6
CONTINUOUS
  7
STANDARD
 71
1
 72
1
 10
5.25
 20
0.5625
 30
0.0
 11
1.0
 21
0.0
 31
0.0
 44
0.9
  1
SCALE
 40
0.06
 41
0.48
  0
MTEXT
  5
249
100
AcDbEntity
  8
0
100
AcDbMText
 62
2
  6
CONTINUOUS
  7
STANDARD
 71
1
 72
1
 10
4.15
 20
0.5625
 30
0.0
 11
1.0
 21
0.0
 31
0.0
 44
0.9
  1
DATE
 40
0.06
 41
0.384
  0
MTEXT
  5
24A
100
AcDbEntity
  8
0
100
AcDbMText
 62
2
  6
CONTINUOUS
  7
STANDARD
 71
1
 72
1
 10
0.05
 20
0.5625
 30
0.0
 11
1.0
 21
0.0
 31
0.0
 44
0.9
  1
DESCRIPTION
 40
0.06
 41
1.056
  0
MTEXT
  5
24B
100
AcDbEntity
  8
0
100
AcDbMText
 62
2
  6
CONTINUOUS
  7
STANDARD
 71
2
 72
1
 10
5.45
 20
1.0375
 30
0.0
 11
1.0
 21
0.0
 31
0.0
 44
0.9
  1
ALL DIMENSIONS IN INCH\PVIEWS ARE THIRD ANGLE
 40
0.12
 41
4.224
  0
MTEXT
  5
24C
100
AcDbEntity
  8
0
100
AcDbMText
 62
2
  6
CONTINUOUS
  7
STANDARD
 71
2
 72
1
 10
2.05
 20
0.95
 30
0.0
 11
1.0
 21
0.0
 31
0.0
 44
0.9
  1
E3U
 40
0.125
 41
0.6
  0
MTEXT
  5
24D
100
AcDbEntity
  8
0
100
AcDbMText
 62
2
  6
CONTINUOUS
  7
STANDARD
 71
1
 72
1
 10
0.05
 20
1.1875
 30
0.0
 11
1.0
 21
0.0
 31
0.0
 44
0.9
  1
MODEL
 40
0.06
 41
0.48
  0
ENDBLK
  5
24E
100
AcDbEntity
  8
0
  6
BYBLOCK
 62
0
100
AcDbBlockEnd
  0
BLOCK
  5
24F
100
AcDbEntity
  8
0
100
AcDbBlockBegin
  2
*T2
 70
1
 10
0.0
 20
0.0
  3
*T2
  1

  0
LINE
  5
250
100
AcDbEntity
  8
0
100
AcDbLine
 62
2
  6
CONTINUOUS
 10
0.0
 20
0.0
 11
9.055
 21
0.0
  0
LINE
  5
251
100
AcDbEntity
  8
0
100
AcDbLine
 62
2
  6
CONTINUOUS
 10
0.0
 20
0.0
 11
0.0
 21
-2.594
  0
LINE
  5
252
100
AcDbEntity
  8
0
100
AcDbLine
 62
2
  6
CONTINUOUS
 10
0.0
 20
-0.344
 11
9.055
 21
-0.344
  0
LINE
  5
253
100
AcDbEntity
  8
0
100
AcDbLine
 62
2
  6
CONTINUOUS
 10
0.0
 20
-0.594
 11
9.055
 21
-0.594
  0
LINE
  5
254
100
AcDbEntity
  8
0
100
AcDbLine
 62
2
  6
CONTINUOUS
 10
0.0
 20
-0.844
 11
9.055
 21
-0.844
  0
LINE
  5
255
100
AcDbEntity
  8
0
100
AcDbLine
 62
2
  6
CONTINUOUS
 10
0.0
 20
-1.094
 11
9.055
 21
-1.094
  0
LINE
  5
256
100
AcDbEntity
  8
0
100
AcDbLine
 62
2
  6
CONTINUOUS
 10
0.0
 20
-1.344
 11
9.055
 21
-1.344
  0
LINE
  5
257
100
AcDbEntity
  8
0
100
AcDbLine
 62
2
  6
CONTINUOUS
 10
0.0
 20
-1.594
 11
9.055
 21
-1.594
  0
LINE
  5
258
100
AcDbEntity
  8
0
100
AcDbLine
 62
2
  6
CONTINUOUS
 10
0.0
 20
-1.844
 11
9.055
 21
-1.844
  0
LINE
  5
259
100
AcDbEntity
  8
0
100
AcDbLine
 62
2
  6
CONTINUOUS
 10
0.0
 20
-2.094
 11
9.055
 21
-2.094
  0
LINE
  5
25A
100
AcDbEntity
  8
0
100
AcDbLine
 62
2
  6
CONTINUOUS
 10
0.0
 20
-2.344
 11
9.055
 21
-2.344
  0
LINE
  5
25B
100
AcDbEntity
  8
0
100
AcDbLine
 62
2
  6
CONTINUOUS
 10
0.0
 20
-2.594
 11
9.055
 21
-2.594
  0
LINE
  5
25C
100
AcDbEntity
  8
0
100
AcDbLine
 62
2
  6
CONTINUOUS
 10
3.055
 20
0.0
 11
3.055
 21
-2.594
  0
LINE
  5
25D
100
AcDbEntity
  8
0
100
AcDbLine
 62
2
  6
CONTINUOUS
 10
9.055
 20
0.0
 11
9.055
 21
-2.594
  0
MTEXT
  5
25E
100
AcDbEntity
  8
0
100
AcDbMText
 62
2
  6
CONTINUOUS
  7
STANDARD
 71
2
 72
1
 10
1.5275
 20
-0.0995
 30
0.0
 11
1.0
 21
0.0
 31
0.0
 44
0.9
  1
Technical Data
 40
0.145
 41
3.248
  0
MTEXT
  5
25F
100
AcDbEntity
  8
0
100
AcDbMText
 62
2
  6
CONTINUOUS
  7
STANDARD
 71
2
 72
1
 10
4.555
 20
-0.0995
 30
0.0
 11
1.0
 21
0.0
 31
0.0
 44
0.9
  1
U.S. Units
 40
0.145
 41
2.32
  0
MTEXT
  5
260
100
AcDbEntity
  8
0
100
AcDbMText
 62
2
  6
CONTINUOUS
  7
STANDARD
 71
2
 72
1
 10
7.555
 20
-0.0995
 30
0.0
 11
1.0
 21
0.0
 31
0.0
 44
0.9
  1
Metric Units
 40
0.145
 41
2.784
  0
MTEXT
  5
261
100
AcDbEntity
  8
0
100
AcDbMText
 62
2
  6
CONTINUOUS
  7
STANDARD
 71
2
 72
1
 10
1.5275
 20
-0.4065
 30
0.0
 11
1.0
 21
0.0
 31
0.0
 44
0.9
  1
Cavity
 40
0.125
 41
1.2
  0
MTEXT
  5
262
100
AcDbEntity
  8
0
100
AcDbMText
 62
2
  6
CONTINUOUS
  7
STANDARD
 71
2
 72
1
 10
6.055
 20
-0.4065
 30
0.0
 11
1.0
 21
0.0
 31
0.0
 44
0.9
  1
T-11A
 40
0.125
 41
1.0
  0
MTEXT
  5
263
100
AcDbEntity
  8
0
100
AcDbMText
 62
2
  6
CONTINUOUS
  7
STANDARD
 71
2
 72
1
 10
1.5275
 20
-0.6565
 30
0.0
 11
1.0
 21
0.0
 31
0.0
 44
0.9
  1
Body Features
 40
0.125
 41
2.6
  0
MTEXT
  5
264
100
AcDbEntity
  8
0
100
AcDbMText
 62
2
  6
CONTINUOUS
  7
STANDARD
 71
2
 72
1
 10
6.055
 20
-0.6565
 30
0.0
 11
1.0
 21
0.0
 31
0.0
 44
0.9
  1
Through port 2 with reverse flow check
 40
0.125
 41
7.6
  0
MTEXT
  5
265
100
AcDbEntity
  8
0
100
AcDbMText
 62
2
  6
CONTINUOUS
  7
STANDARD
 71
2
 72
1
 10
1.5275
 20
-0.9065
 30
0.0
 11
1.0
 21
0.0
 31
0.0
 44
0.9
  1
Body Type
 40
0.125
 41
1.8
  0
MTEXT
  5
266
100
AcDbEntity
  8
0
100
AcDbMText
 62
2
  6
CONTINUOUS
  7
STANDARD
 71
2
 72
1
 10
6.055
 20
-0.9065
 30
0.0
 11
1.0
 21
0.0
 31
0.0
 44
0.9
  1
Line mount
 40
0.125
 41
2.0
  0
MTEXT
  5
267
100
AcDbEntity
  8
0
100
AcDbMText
 62
2
  6
CONTINUOUS
  7
STANDARD
 71
2
 72
1
 10
1.5275
 20
-1.1565
 30
0.0
 11
1.0
 21
0.0
 31
0.0
 44
0.9
  1
Interface
 40
0.125
 41
1.8
  0
MTEXT
  5
268
100
AcDbEntity
  8
0
100
AcDbMText
 62
2
  6
CONTINUOUS
  7
STANDARD
 71
2
 72
1
 10
6.055
 20
-1.1565
 30
0.0
 11
1.0
 21
0.0
 31
0.0
 44
0.9
  1
None
 40
0.125
 41
0.8
  0
MTEXT
  5
269
100
AcDbEntity
  8
0
100
AcDbMText
 62
2
  6
CONTINUOUS
  7
STANDARD
 71
2
 72
1
 10
1.5275
 20
-1.4065
 30
0.0
 11
1.0
 21
0.0
 31
0.0
 44
0.9
  1
Open Cavity Quantity
 40
0.125
 41
4.0
  0
MTEXT
  5
26A
100
AcDbEntity
  8
0
100
AcDbMText
 62
2
  6
CONTINUOUS
  7
STANDARD
 71
2
 72
1
 10
6.055
 20
-1.4065
 30
0.0
 11
1.0
 21
0.0
 31
0.0
 44
0.9
  1
1
 40
0.125
 41
0.2
  0
MTEXT
  5
26B
100
AcDbEntity
  8
0
100
AcDbMText
 62
2
  6
CONTINUOUS
  7
STANDARD
 71
2
 72
1
 10
1.5275
 20
-1.6565
 30
0.0
 11
1.0
 21
0.0
 31
0.0
 44
0.9
  1
Weight
 40
0.125
 41
1.2
  0
MTEXT
  5
26C
100
AcDbEntity
  8
0
100
AcDbMText
 62
2
  6
CONTINUOUS
  7
STANDARD
 71
2
 72
1
 10
4.555
 20
-1.6565
 30
0.0
 11
1.0
 21
0.0
 31
0.0
 44
0.9
  1
2.264 lb.
 40
0.125
 41
1.8
  0
MTEXT
  5
26D
100
AcDbEntity
  8
0
100
AcDbMText
 62
2
  6
CONTINUOUS
  7
STANDARD
 71
2
 72
1
 10
7.555
 20
-1.6565
 30
0.0
 11
1.0
 21
0.0
 31
0.0
 44
0.9
  1
1,027 kg.
 40
0.125
 41
1.8
  0
MTEXT
  5
26E
100
AcDbEntity
  8
0
100
AcDbMText
 62
2
  6
CONTINUOUS
  7
STANDARD
 71
2
 72
1
 10
1.5275
 20
-1.9065
 30
0.0
 11
1.0
 21
0.0
 31
0.0
 44
0.9
  1
Mounting Hole Thread
 40
0.125
 41
4.0
  0
MTEXT
  5
26F
100
AcDbEntity
  8
0
100
AcDbMText
 62
2
  6
CONTINUOUS
  7
STANDARD
 71
2
 72
1
 10
6.055
 20
-1.9065
 30
0.0
 11
1.0
 21
0.0
 31
0.0
 44
0.9
  1
M10x1.5 - 6H
 40
0.125
 41
2.4
  0
MTEXT
  5
270
100
AcDbEntity
  8
0
100
AcDbMText
 62
2
  6
CONTINUOUS
  7
STANDARD
 71
2
 72
1
 10
1.5275
 20
-2.1565
 30
0.0
 11
1.0
 21
0.0
 31
0.0
 44
0.9
  1
Mounting Hole Depth
 40
0.125
 41
3.8
  0
MTEXT
  5
271
100
AcDbEntity
  8
0
100
AcDbMText
 62
2
  6
CONTINUOUS
  7
STANDARD
 71
2
 72
1
 10
4.555
 20
-2.1565
 30
0.0
 11
1.0
 21
0.0
 31
0.0
 44
0.9
  1
.62 in.
 40
0.125
 41
1.4
  0
MTEXT
  5
272
100
AcDbEntity
  8
0
100
AcDbMText
 62
2
  6
CONTINUOUS
  7
STANDARD
 71
2
 72
1
 10
7.555
 20
-2.1565
 30
0.0
 11
1.0
 21
0.0
 31
0.0
 44
0.9
  1
15,7 mm
 40
0.125
 41
1.4
  0
MTEXT
  5
273
100
AcDbEntity
  8
0
100
AcDbMText
 62
2
  6
CONTINUOUS
  7
STANDARD
 71
2
 72
1
 10
1.5275
 20
-2.4065
 30
0.0
 11
1.0
 21
0.0
 31
0.0
 44
0.9
  1
Mounting Hole Quantity
 40
0.125
 41
4.4
  0
MTEXT
  5
274
100
AcDbEntity
  8
0
100
AcDbMText
 62
2
  6
CONTINUOUS
  7
STANDARD
 71
2
 72
1
 10
6.055
 20
-2.4065
 30
0.0
 11
1.0
 21
0.0
 31
0.0
 44
0.9
  1
2
 40
0.125
 41
0.2
  0
ENDBLK
  5
275
100
AcDbEntity
  8
0
  6
BYBLOCK
 62
0
100
AcDbBlockEnd
  0
BLOCK
  5
276
100
AcDbEntity
  8
0
100
AcDbBlockBegin
  2
*T3
 70
1
 10
0.0
 20
0.0
  3
*T3
  1

  0
LINE
  5
277
100
AcDbEntity
  8
0
100
AcDbLine
 62
2
  6
CONTINUOUS
 10
0.0
 20
0.0
 11
4.6
 21
0.0
  0
LINE
  5
278
100
AcDbEntity
  8
0
100
AcDbLine
 62
2
  6
CONTINUOUS
 10
0.0
 20
0.0
 11
0.0
 21
-1.43775
  0
LINE
  5
279
100
AcDbEntity
  8
0
100
AcDbLine
 62
2
  6
CONTINUOUS
 10
0.0
 20
-0.34375
 11
4.6
 21
-0.34375
  0
LINE
  5
27A
100
AcDbEntity
  8
0
100
AcDbLine
 62
2
  6
CONTINUOUS
 10
0.0
 20
-0.68775
 11
4.6
 21
-0.68775
  0
LINE
  5
27B
100
AcDbEntity
  8
0
100
AcDbLine
 62
2
  6
CONTINUOUS
 10
0.0
 20
-0.93775
 11
4.6
 21
-0.93775
  0
LINE
  5
27C
100
AcDbEntity
  8
0
100
AcDbLine
 62
2
  6
CONTINUOUS
 10
0.0
 20
-1.18775
 11
4.6
 21
-1.18775
  0
LINE
  5
27D
100
AcDbEntity
  8
0
100
AcDbLine
 62
2
  6
CONTINUOUS
 10
0.0
 20
-1.43775
 11
4.6
 21
-1.43775
  0
LINE
  5
27E
100
AcDbEntity
  8
0
100
AcDbLine
 62
2
  6
CONTINUOUS
 10
1.3
 20
-0.34375
 11
1.3
 21
-1.43775
  0
LINE
  5
27F
100
AcDbEntity
  8
0
100
AcDbLine
 62
2
  6
CONTINUOUS
 10
3.3
 20
-0.34375
 11
3.3
 21
-1.43775
  0
LINE
  5
280
100
AcDbEntity
  8
0
100
AcDbLine
 62
2
  6
CONTINUOUS
 10
4.6
 20
0.0
 11
4.6
 21
-1.43775
  0
MTEXT
  5
281
100
AcDbEntity
  8
0
100
AcDbMText
 62
2
  6
CONTINUOUS
  7
STANDARD
 71
2
 72
1
 10
2.3
 20
-0.099375
 30
0.0
 11
1.0
 21
0.0
 31
0.0
 44
0.9
  1
Port Headings
 40
0.145
 41
3.016
  0
MTEXT
  5
282
100
AcDbEntity
  8
0
100
AcDbMText
 62
2
  6
CONTINUOUS
  7
STANDARD
 71
2
 72
1
 10
0.65
 20
-0.44325
 30
0.0
 11
1.0
 21
0.0
 31
0.0
 44
0.9
  1
Product
 40
0.145
 41
1.624
  0
MTEXT
  5
283
100
AcDbEntity
  8
0
100
AcDbMText
 62
2
  6
CONTINUOUS
  7
STANDARD
 71
2
 72
1
 10
2.3
 20
-0.44325
 30
0.0
 11
1.0
 21
0.0
 31
0.0
 44
0.9
  1
Port
 40
0.145
 41
0.928
  0
MTEXT
  5
284
100
AcDbEntity
  8
0
100
AcDbMText
 62
2
  6
CONTINUOUS
  7
STANDARD
 71
2
 72
1
 10
3.95
 20
-0.44325
 30
0.0
 11
1.0
 21
0.0
 31
0.0
 44
0.9
  1
Size
 40
0.145
 41
0.928
  0
MTEXT
  5
285
100
AcDbEntity
  8
0
100
AcDbMText
 62
2
  6
CONTINUOUS
  7
STANDARD
 71
2
 72
1
 10
0.65
 20
-0.75025
 30
0.0
 11
1.0
 21
0.0
 31
0.0
 44
0.9
  1
E3U
 40
0.125
 41
0.6
  0
MTEXT
  5
286
100
AcDbEntity
  8
0
100
AcDbMText
 62
2
  6
CONTINUOUS
  7
STANDARD
 71
2
 72
1
 10
2.3
 20
-0.75025
 30
0.0
 11
1.0
 21
0.0
 31
0.0
 44
0.9
  1
Ports 1 &  2
 40
0.125
 41
2.4
  0
MTEXT
  5
287
100
AcDbEntity
  8
0
100
AcDbMText
 62
2
  6
CONTINUOUS
  7
STANDARD
 71
2
 72
1
 10
3.95
 20
-0.75025
 30
0.0
 11
1.0
 21
0.0
 31
0.0
 44
0.9
  1
3/8" BSPP
 40
0.125
 41
1.8
  0
MTEXT
  5
288
100
AcDbEntity
  8
0
100
AcDbMText
 62
2
  6
CONTINUOUS
  7
STANDARD
 71
2
 72
1
 10
0.65
 20
-1.00025
 30
0.0
 11
1.0
 21
0.0
 31
0.0
 44
0.9
  1
E3U
 40
0.125
 41
0.6
  0
MTEXT
  5
289
100
AcDbEntity
  8
0
100
AcDbMText
 62
2
  6
CONTINUOUS
  7
STANDARD
 71
2
 72
1
 10
2.3
 20
-1.00025
 30
0.0
 11
1.0
 21
0.0
 31
0.0
 44
0.9
  1
Port 3
 40
0.125
 41
1.2
  0
MTEXT
  5
28A
100
AcDbEntity
  8
0
100
AcDbMText
 62
2
  6
CONTINUOUS
  7
STANDARD
 71
2
 72
1
 10
3.95
 20
-1.00025
 30
0.0
 11
1.0
 21
0.0
 31
0.0
 44
0.9
  1
1/4" BSPP
 40
0.125
 41
1.8
  0
MTEXT
  5
28B
100
AcDbEntity
  8
0
100
AcDbMText
 62
2
  6
CONTINUOUS
  7
STANDARD
 71
2
 72
1
 10
0.65
 20
-1.25025
 30
0.0
 11
1.0
 21
0.0
 31
0.0
 44
0.9
  1
E3U
 40
0.125
 41
0.6
  0
MTEXT
  5
28C
100
AcDbEntity
  8
0
100
AcDbMText
 62
2
  6
CONTINUOUS
  7
STANDARD
 71
2
 72
1
 10
2.3
 20
-1.25025
 30
0.0
 11
1.0
 21
0.0
 31
0.0
 44
0.9
  1
Gage Port
 40
0.125
 41
1.8
  0
MTEXT
  5
28D
100
AcDbEntity
  8
0
100
AcDbMText
 62
2
  6
CONTINUOUS
  7
STANDARD
 71
2
 72
1
 10
3.95
 20
-1.25025
 30
0.0
 11
1.0
 21
0.0
 31
0.0
 44
0.9
  1
1/4" BSPP
 40
0.125
 41
1.8
  0
ENDBLK
  5
28E
100
AcDbEntity
  8
0
  6
BYBLOCK
 62
0
100
AcDbBlockEnd
  0
ENDSEC
  0
SECTION
  2
ENTITIES
  0
IMAGE
  5
28F
100
AcDbEntity
  8
0
100
AcDbRasterImage
 62
7
  6
CONTINUOUS
 10
19.2297077316
 20
0.3094318264
 30
0.0
 11
0.0066666667
 21
0.0
 31
0.0
 12
0.0
 22
0.0066666667
 32
0.0
 13
369.0
 23
92.0
340
       3F2
 70
9
280
0
281
50
282
50
283
0
360
       3EC
 71
1
 91
2
 14
-0.5
 24
-0.5
 14
368.5
 24
91.5
  0
INSERT
  5
290
100
AcDbEntity
  8
0
100
AcDbBlockReference
 62
2
  6
CONTINUOUS
  2
SUN_FIRST_THIRD_ANGLE_BL0
 10
20.4816717061
 20
1.2289683772
  0
ACAD_TABLE
  5
291
100
AcDbEntity
  8
0
 62
2
  6
CONTINUOUS
100
AcDbBlockReference
  2
*T1
 10
12.42375
 20
0.30125
 30
0.0
100
AcDbTable
342
       3F4
343
20F
 11
1.0
 21
0.0
 31
0.0
 90
6
 91
4
 92
6
 93
20
 94
0
 95
0
 96
0
 70
1
 41
0.0
141
0.525
141
0.1
141
0.525
141
0.1
142
4.1
142
1.1
142
0.7
142
0.5
142
0.4
142
2.475
171
1
172
0
173
0
174
0
175
1
176
1
 91
33
178
0
145
0.0
301
CELL_VALUE
 90
4
  1
T-11A Line mount\PThrough port 2 with reverse flow check
304
ACVALUE_END
170
2
140
0.125
171
1
172
0
173
0
174
0
175
1
176
1
 91
33
178
0
145
0.0
301
CELL_VALUE
 90
4
  1
Jul-26-19
304
ACVALUE_END
170
5
140
0.125
171
1
172
0
173
0
174
0
175
1
176
1
 91
33
178
0
145
0.0
301
CELL_VALUE
 90
4
  1
1.000
304
ACVALUE_END
170
5
140
0.125
171
1
172
0
173
0
174
0
175
1
176
1
 91
33
178
0
145
0.0
301
CELL_VALUE
 90
4
  1
C
304
ACVALUE_END
170
5
140
0.125
171
1
172
0
173
0
174
0
175
1
176
1
 91
33
178
0
145
0.0
301
CELL_VALUE
 90
4
  1
2
304
ACVALUE_END
170
5
140
0.125
171
1
172
0
173
0
174
0
175
1
176
1
 91
33
178
0
145
0.0
301
CELL_VALUE
 90
4
  1
 
304
ACVALUE_END
170
1
140
0.125
171
1
172
0
173
0
174
0
175
1
176
1
 91
33
178
0
145
0.0
301
CELL_VALUE
 90
4
  1
DESCRIPTION
304
ACVALUE_END
170
1
140
0.06
171
1
172
0
173
0
174
0
175
1
176
1
 91
33
178
0
145
0.0
301
CELL_VALUE
 90
4
  1
DATE
304
ACVALUE_END
170
1
140
0.06
171
1
172
0
173
0
174
0
175
1
176
1
 91
33
178
0
145
0.0
301
CELL_VALUE
 90
4
  1
SCALE
304
ACVALUE_END
170
1
140
0.06
171
1
172
0
173
0
174
0
175
1
176
1
 91
33
178
0
145
0.0
301
CELL_VALUE
 90
4
  1
DWG SIZE
304
ACVALUE_END
170
1
140
0.06
171
1
172
0
173
0
174
0
175
1
176
1
 91
33
178
0
145
0.0
301
CELL_VALUE
 90
4
  1
SHEET
304
ACVALUE_END
170
1
140
0.06
171
1
172
0
173
0
174
0
175
1
176
1
 91
33
178
0
145
0.0
301
CELL_VALUE
 90
4
  1
 
304
ACVALUE_END
170
1
140
0.125
171
1
172
0
173
0
174
0
175
1
176
1
 91
33
178
0
145
0.0
301
CELL_VALUE
 90
4
  1
E3U
304
ACVALUE_END
170
5
140
0.125
171
1
172
0
173
0
174
0
175
4
176
1
 91
33
178
0
145
0.0
301
CELL_VALUE
 90
4
  1
ALL DIMENSIONS IN INCH\PVIEWS ARE THIRD ANGLE
304
ACVALUE_END
170
5
140
0.12
171
1
172
0
173
1
174
0
175
1
176
1
 91
1
178
0
145
0.0
170
1
171
1
172
0
173
1
174
0
175
1
176
1
 91
1
178
0
145
0.0
170
1
171
1
172
0
173
1
174
0
175
1
176
1
 91
1
178
0
145
0.0
170
5
171
1
172
0
173
0
174
0
175
1
176
1
 91
33
178
0
145
0.0
301
CELL_VALUE
 90
4
  1
 
304
ACVALUE_END
170
1
140
0.125
171
1
172
0
173
0
174
0
175
1
176
1
 91
33
178
0
145
0.0
301
CELL_VALUE
 90
4
  1
MODEL
304
ACVALUE_END
170
1
140
0.06
171
1
172
0
173
0
174
0
175
1
176
1
 91
33
178
0
145
0.0
301
CELL_VALUE
 90
4
  1
 
304
ACVALUE_END
170
1
140
0.125
171
1
172
0
173
0
174
0
175
1
176
1
 91
33
178
0
145
0.0
301
CELL_VALUE
 90
4
  1
 
304
ACVALUE_END
170
1
140
0.125
171
1
172
0
173
0
174
0
175
1
176
1
 91
33
178
0
145
0.0
301
CELL_VALUE
 90
4
  1
 
304
ACVALUE_END
170
1
140
0.125
171
1
172
0
173
0
174
0
175
1
176
1
 91
33
178
0
145
0.0
301
CELL_VALUE
 90
4
  1
 
304
ACVALUE_END
170
1
140
0.125
171
1
172
0
173
0
174
0
175
1
176
1
 91
33
178
0
145
0.0
301
CELL_VALUE
 90
4
  1
 
304
ACVALUE_END
170
1
140
0.125
  0
ACAD_TABLE
  5
292
100
AcDbEntity
  8
0
 62
2
  6
CONTINUOUS
100
AcDbBlockReference
  2
*T2
 10
12.4237499994
 20
16.47875
 30
0.0
100
AcDbTable
342
       3F3
343
210
 11
1.0
 21
0.0
 31
0.0
 90
22
 91
10
 92
3
 93
16
 94
0
 95
0
 96
0
 41
0.028
141
0.344
141
0.25
141
0.25
141
0.25
141
0.25
141
0.25
141
0.25
141
0.25
141
0.25
141
0.25
142
3.055
142
3.0
142
3.0
171
1
172
0
173
0
174
0
175
1
176
1
 91
33
178
0
145
0.0
301
CELL_VALUE
 90
4
  1
Technical Data
304
ACVALUE_END
170
5
140
0.145
171
1
172
0
173
0
174
0
175
1
176
1
 91
33
178
0
145
0.0
301
CELL_VALUE
 90
4
  1
U.S. Units
304
ACVALUE_END
170
5
140
0.145
171
1
172
0
173
0
174
0
175
1
176
1
 91
33
178
0
145
0.0
301
CELL_VALUE
 90
4
  1
Metric Units
304
ACVALUE_END
170
5
140
0.145
171
1
172
0
173
0
174
0
175
1
176
1
 91
33
178
0
145
0.0
301
CELL_VALUE
 90
4
  1
Cavity
304
ACVALUE_END
170
5
140
0.125
171
1
172
0
173
0
174
0
175
2
176
1
 91
33
178
0
145
0.0
301
CELL_VALUE
 90
4
  1
T-11A
304
ACVALUE_END
170
5
140
0.125
171
1
172
0
173
1
174
0
175
1
176
1
 91
1
178
0
145
0.0
170
1
171
1
172
0
173
0
174
0
175
1
176
1
 91
33
178
0
145
0.0
301
CELL_VALUE
 90
4
  1
Body Features
304
ACVALUE_END
170
5
140
0.125
171
1
172
0
173
0
174
0
175
2
176
1
 91
33
178
0
145
0.0
301
CELL_VALUE
 90
4
  1
Through port 2 with reverse flow check
304
ACVALUE_END
170
5
140
0.125
171
1
172
0
173
1
174
0
175
1
176
1
 91
1
178
0
145
0.0
170
1
171
1
172
0
173
0
174
0
175
1
176
1
 91
33
178
0
145
0.0
301
CELL_VALUE
 90
4
  1
Body Type
304
ACVALUE_END
170
5
140
0.125
171
1
172
0
173
0
174
0
175
2
176
1
 91
33
178
0
145
0.0
301
CELL_VALUE
 90
4
  1
Line mount
304
ACVALUE_END
170
5
140
0.125
171
1
172
0
173
1
174
0
175
1
176
1
 91
1
178
0
145
0.0
170
1
171
1
172
0
173
0
174
0
175
1
176
1
 91
33
178
0
145
0.0
301
CELL_VALUE
 90
4
  1
Interface
304
ACVALUE_END
170
5
140
0.125
171
1
172
0
173
0
174
0
175
2
176
1
 91
33
178
0
145
0.0
301
CELL_VALUE
 90
4
  1
None
304
ACVALUE_END
170
5
140
0.125
171
1
172
0
173
1
174
0
175
1
176
1
 91
1
178
0
145
0.0
170
1
171
1
172
0
173
0
174
0
175
1
176
1
 91
33
178
0
145
0.0
301
CELL_VALUE
 90
4
  1
Open Cavity Quantity
304
ACVALUE_END
170
5
140
0.125
171
1
172
0
173
0
174
0
175
2
176
1
 91
33
178
0
145
0.0
301
CELL_VALUE
 90
4
  1
1
304
ACVALUE_END
170
5
140
0.125
171
1
172
0
173
1
174
0
175
1
176
1
 91
1
178
0
145
0.0
170
1
171
1
172
0
173
0
174
0
175
1
176
1
 91
33
178
0
145
0.0
301
CELL_VALUE
 90
4
  1
Weight
304
ACVALUE_END
170
5
140
0.125
171
1
172
0
173
0
174
0
175
1
176
1
 91
33
178
0
145
0.0
301
CELL_VALUE
 90
4
  1
2.264 lb.
304
ACVALUE_END
170
5
140
0.125
171
1
172
0
173
0
174
0
175
1
176
1
 91
33
178
0
145
0.0
301
CELL_VALUE
 90
4
  1
1,027 kg.
304
ACVALUE_END
170
5
140
0.125
171
1
172
0
173
0
174
0
175
1
176
1
 91
33
178
0
145
0.0
301
CELL_VALUE
 90
4
  1
Mounting Hole Thread
304
ACVALUE_END
170
5
140
0.125
171
1
172
0
173
0
174
0
175
2
176
1
 91
33
178
0
145
0.0
301
CELL_VALUE
 90
4
  1
M10x1.5 - 6H
304
ACVALUE_END
170
5
140
0.125
171
1
172
0
173
1
174
0
175
1
176
1
 91
1
178
0
145
0.0
170
1
171
1
172
0
173
0
174
0
175
1
176
1
 91
33
178
0
145
0.0
301
CELL_VALUE
 90
4
  1
Mounting Hole Depth
304
ACVALUE_END
170
5
140
0.125
171
1
172
0
173
0
174
0
175
1
176
1
 91
33
178
0
145
0.0
301
CELL_VALUE
 90
4
  1
.62 in.
304
ACVALUE_END
170
5
140
0.125
171
1
172
0
173
0
174
0
175
1
176
1
 91
33
178
0
145
0.0
301
CELL_VALUE
 90
4
  1
15,7 mm
304
ACVALUE_END
170
5
140
0.125
171
1
172
0
173
0
174
0
175
1
176
1
 91
33
178
0
145
0.0
301
CELL_VALUE
 90
4
  1
Mounting Hole Quantity
304
ACVALUE_END
170
5
140
0.125
171
1
172
0
173
0
174
0
175
2
176
1
 91
33
178
0
145
0.0
301
CELL_VALUE
 90
4
  1
2
304
ACVALUE_END
170
5
140
0.125
171
1
172
0
173
1
174
0
175
1
176
1
 91
1
178
0
145
0.0
170
1
  0
ACAD_TABLE
  5
293
100
AcDbEntity
  8
0
 62
2
  6
CONTINUOUS
100
AcDbBlockReference
  2
*T3
 10
0.52125
 20
1.959
 30
0.0
100
AcDbTable
342
       3F3
343
211
 11
1.0
 21
0.0
 31
0.0
 90
22
 91
5
 92
3
 93
16
 94
0
 95
0
 96
0
 41
0.05
141
0.34375
141
0.344
141
0.25
141
0.25
141
0.25
142
1.3
142
2.0
142
1.3
171
1
172
0
173
0
174
0
175
3
176
1
 91
33
178
0
145
0.0
301
CELL_VALUE
 90
4
  1
Port Headings
304
ACVALUE_END
170
5
140
0.145
171
1
172
0
173
1
174
0
175
1
176
1
 91
1
178
0
145
0.0
170
1
171
1
172
0
173
1
174
0
175
1
176
1
 91
1
178
0
145
0.0
170
1
171
1
172
0
173
0
174
0
175
1
176
1
 91
33
178
0
145
0.0
301
CELL_VALUE
 90
4
  1
Product
304
ACVALUE_END
170
5
140
0.145
171
1
172
0
173
0
174
0
175
1
176
1
 91
33
178
0
145
0.0
301
CELL_VALUE
 90
4
  1
Port
304
ACVALUE_END
170
5
140
0.145
171
1
172
0
173
0
174
0
175
1
176
1
 91
33
178
0
145
0.0
301
CELL_VALUE
 90
4
  1
Size
304
ACVALUE_END
170
5
140
0.145
171
1
172
0
173
0
174
0
175
1
176
1
 91
33
178
0
145
0.0
301
CELL_VALUE
 90
4
  1
E3U
304
ACVALUE_END
170
5
140
0.125
171
1
172
0
173
0
174
0
175
1
176
1
 91
33
178
0
145
0.0
301
CELL_VALUE
 90
4
  1
Ports 1 &  2
304
ACVALUE_END
170
5
140
0.125
171
1
172
0
173
0
174
0
175
1
176
1
 91
33
178
0
145
0.0
301
CELL_VALUE
 90
4
  1
3/8" BSPP
304
ACVALUE_END
170
5
140
0.125
171
1
172
0
173
0
174
0
175
1
176
1
 91
33
178
0
145
0.0
301
CELL_VALUE
 90
4
  1
E3U
304
ACVALUE_END
170
5
140
0.125
171
1
172
0
173
0
174
0
175
1
176
1
 91
33
178
0
145
0.0
301
CELL_VALUE
 90
4
  1
Port 3
304
ACVALUE_END
170
5
140
0.125
171
1
172
0
173
0
174
0
175
1
176
1
 91
33
178
0
145
0.0
301
CELL_VALUE
 90
4
  1
1/4" BSPP
304
ACVALUE_END
170
5
140
0.125
171
1
172
0
173
0
174
0
175
1
176
1
 91
33
178
0
145
0.0
301
CELL_VALUE
 90
4
  1
E3U
304
ACVALUE_END
170
5
140
0.125
171
1
172
0
173
0
174
0
175
1
176
1
 91
33
178
0
145
0.0
301
CELL_VALUE
 90
4
  1
Gage Port
304
ACVALUE_END
170
5
140
0.125
171
1
172
0
173
0
174
0
175
1
176
1
 91
33
178
0
145
0.0
301
CELL_VALUE
 90
4
  1
1/4" BSPP
304
ACVALUE_END
170
5
140
0.125
  0
MTEXT
  5
294
100
AcDbEntity
  8
0
100
AcDbMText
 62
2
  6
CONTINUOUS
  7
STANDARD
 71
1
 72
1
 10
0.52125
 20
5.75995
 30
0.0
 11
1.0
 21
0.0
 31
0.0
 44
0.6
  3
Notes\P \P1. Important: Carefully consider\P   the maximum system pressure. The\P   pressure rating of the manifold is\P   dependent on the manifold material,\P   with the port type/size a secondary\P   consideration. Manifolds\P   constructed of alu
  1
minum are not\P   rated for pressures higher than\P   3000 psi (210 bar), regardless of\P   the port type/size specified.
 40
0.1
 41
3.04
  0
LINE
  5
295
100
AcDbEntity
  8
0
100
AcDbLine
 62
7
  6
CONTINUOUS
 10
0.30125
 20
0.30125
 11
0.30125
 21
16.69875
  0
LINE
  5
296
100
AcDbEntity
  8
0
100
AcDbLine
 62
7
  6
CONTINUOUS
 10
0.30125
 20
0.30125
 11
21.69875
 21
0.30125
  0
LINE
  5
297
100
AcDbEntity
  8
0
100
AcDbLine
 62
7
  6
CONTINUOUS
 10
0.30125
 20
16.69875
 11
21.69875
 21
16.69875
  0
LINE
  5
298
100
AcDbEntity
  8
0
100
AcDbLine
 62
7
  6
CONTINUOUS
 10
21.69875
 20
0.30125
 11
21.69875
 21
16.69875
  0
LINE
  5
299
100
AcDbEntity
  8
0
100
AcDbLine
 62
7
  6
CONTINUOUS
 10
9.4067730324
 20
6.3459052392
 11
11.881475181
 21
6.1742840623
  0
LINE
  5
29A
100
AcDbEntity
  8
0
100
AcDbLine
 62
7
  6
CONTINUOUS
 10
10.118524819
 20
10.4141453049
 11
9.4067730324
 21
9.7266458315
  0
LINE
  5
29B
100
AcDbEntity
  8
0
100
AcDbLine
 62
7
  6
CONTINUOUS
 10
11.2410813953
 20
10.753647287
 11
11.2662470077
 21
10.7660786177
  0
LINE
  5
29C
100
AcDbEntity
  8
0
100
AcDbLine
 62
4
  6
CONTINUOUS
 10
11.1942188782
 20
6.6788283892
 11
11.1797299903
 21
6.679833197
  0
LINE
  5
29D
100
AcDbEntity
  8
0
100
AcDbLine
 62
4
  6
CONTINUOUS
 10
11.1942188782
 20
6.7271246846
 11
11.1797299903
 21
6.7281294924
  0
LINE
  5
29E
100
AcDbEntity
  8
0
100
AcDbLine
 62
4
  6
CONTINUOUS
 10
11.1797299903
 20
6.7957443004
 11
11.1942188782
 21
6.7947394926
  0
LINE
  5
29F
100
AcDbEntity
  8
0
100
AcDbLine
 62
4
  6
CONTINUOUS
 10
9.5376559845
 20
7.6794654538
 11
9.5304115406
 21
7.6896271209
  0
LINE
  5
2A0
100
AcDbEntity
  8
0
100
AcDbLine
 62
7
  6
CONTINUOUS
 10
9.4067730324
 20
9.7266458315
 11
9.4067730324
 21
6.3459052392
  0
LINE
  5
2A1
100
AcDbEntity
  8
0
100
AcDbLine
 62
4
  6
CONTINUOUS
 10
9.5159226526
 20
8.7550822842
 11
9.5159226526
 21
8.7937193181
  0
LINE
  5
2A2
100
AcDbEntity
  8
0
100
AcDbLine
 62
4
  6
CONTINUOUS
 10
9.5521448724
 20
7.6688013897
 11
9.5376559845
 21
7.6794654538
  0
LINE
  5
2A3
100
AcDbEntity
  8
0
100
AcDbLine
 62
4
  6
CONTINUOUS
 10
9.5304115406
 20
7.6896271209
 11
9.5304115406
 21
7.7089456336
  0
LINE
  5
2A4
100
AcDbEntity
  8
0
100
AcDbLine
 62
4
  6
CONTINUOUS
 10
9.5883670923
 20
8.7500582453
 11
9.5811226483
 21
8.7215828733
  0
LINE
  5
2A5
100
AcDbEntity
  8
0
100
AcDbLine
 62
4
  6
CONTINUOUS
 10
9.5159226526
 20
8.7937193181
 11
9.5231670966
 21
8.8028761731
  0
LINE
  5
2A6
100
AcDbEntity
  8
0
100
AcDbLine
 62
4
  6
CONTINUOUS
 10
11.1797299903
 20
6.679833197
 11
11.1652411024
 21
6.6904972611
  0
LINE
  5
2A7
100
AcDbEntity
  8
0
100
AcDbLine
 62
4
  6
CONTINUOUS
 10
11.1797299903
 20
6.7281294924
 11
11.1652411024
 21
6.7387935565
  0
LINE
  5
2A8
100
AcDbEntity
  8
0
100
AcDbLine
 62
4
  6
CONTINUOUS
 10
9.5811226483
 20
8.779538425
 11
9.5883670923
 21
8.7500582453
  0
LINE
  5
2A9
100
AcDbEntity
  8
0
100
AcDbLine
 62
4
  6
CONTINUOUS
 10
9.5811226483
 20
7.7537251017
 11
9.5883670923
 21
7.7822004737
  0
LINE
  5
2AA
100
AcDbEntity
  8
0
100
AcDbLine
 62
4
  6
CONTINUOUS
 10
9.5811226483
 20
8.7215828733
 11
9.5666337604
 21
8.7032691615
  0
LINE
  5
2AB
100
AcDbEntity
  8
0
100
AcDbLine
 62
4
  6
CONTINUOUS
 10
10.9057170001
 20
10.1425146622
 11
10.9134815648
 21
10.1500146563
  0
LINE
  5
2AC
100
AcDbEntity
  8
0
100
AcDbLine
 62
4
  6
CONTINUOUS
 10
10.934834118
 20
10.1706396401
 11
10.9387164004
 21
10.1743896371
  0
LINE
  5
2AD
100
AcDbEntity
  8
0
100
AcDbLine
 62
4
  6
CONTINUOUS
 10
10.9969506361
 20
10.2306395928
 11
11.0008329185
 21
10.2343895898
  0
LINE
  5
2AE
100
AcDbEntity
  8
0
100
AcDbLine
 62
4
  6
CONTINUOUS
 10
11.116744022
 20
10.2263511275
 11
11.1128617396
 21
10.2226011304
  0
LINE
  5
2AF
100
AcDbEntity
  8
0
100
AcDbLine
 62
4
  6
CONTINUOUS
 10
11.0546275038
 20
10.1663511748
 11
11.0507452214
 21
10.1626011777
  0
LINE
  5
2B0
100
AcDbEntity
  8
0
100
AcDbLine
 62
4
  6
CONTINUOUS
 10
11.0293926683
 20
10.141976194
 11
11.0216281035
 21
10.1344761999
  0
LINE
  5
2B1
100
AcDbEntity
  8
0
100
AcDbLine
 62
4
  6
CONTINUOUS
 10
11.1942188782
 20
6.7947394926
 11
11.2087077661
 21
6.7840754259
  0
LINE
  5
2B2
100
AcDbEntity
  8
0
100
AcDbLine
 62
4
  6
CONTINUOUS
 10
10.2370553756
 20
7.6104015693
 11
10.2453347085
 21
7.6043078196
  0
LINE
  5
2B3
100
AcDbEntity
  8
0
100
AcDbLine
 62
4
  6
CONTINUOUS
 10
10.2784521509
 20
7.5964915412
 11
10.2867314838
 21
7.5903977914
  0
LINE
  5
2B4
100
AcDbEntity
  8
0
100
AcDbLine
 62
4
  6
CONTINUOUS
 10
10.2453347085
 20
7.560151208
 11
10.2370553756
 21
7.5690047491
  0
LINE
  5
2B5
100
AcDbEntity
  8
0
100
AcDbLine
 62
4
  6
CONTINUOUS
 10
10.2867314838
 20
7.6317946142
 11
10.2784521509
 21
7.6406481528
  0
LINE
  5
2B6
100
AcDbEntity
  8
0
100
AcDbLine
 62
4
  6
CONTINUOUS
 10
9.5231670966
 20
8.8028761731
 11
9.5376559845
 21
8.8115306242
  0
LINE
  5
2B7
100
AcDbEntity
  8
0
100
AcDbLine
 62
4
  6
CONTINUOUS
 10
11.305093352
 20
7.4535392403
 11
11.2719758941
 21
7.4558359438
  0
LINE
  5
2B8
100
AcDbEntity
  8
0
100
AcDbLine
 62
4
  6
CONTINUOUS
 10
10.4054024202
 20
7.5159330183
 11
10.4026426425
 21
7.5161244095
  0
LINE
  5
2B9
100
AcDbEntity
  8
0
100
AcDbLine
 62
4
  6
CONTINUOUS
 10
10.9573600503
 20
7.5107720828
 11
10.9159632197
 21
7.5136429627
  0
LINE
  5
2BA
100
AcDbEntity
  8
0
100
AcDbLine
 62
4
  6
CONTINUOUS
 10
10.7862531728
 20
7.522638385
 11
10.7531357305
 21
7.5249350875
  0
LINE
  5
2BB
100
AcDbEntity
  8
0
100
AcDbLine
 62
4
  6
CONTINUOUS
 10
10.7200182329
 20
7.5272317937
 11
10.6869007905
 21
7.5295284962
  0
LINE
  5
2BC
100
AcDbEntity
  8
0
100
AcDbLine
 62
4
  6
CONTINUOUS
 10
10.352966479
 20
7.5526869193
 11
10.3198489262
 21
7.5549836294
  0
LINE
  5
2BD
100
AcDbEntity
  8
0
100
AcDbLine
 62
4
  6
CONTINUOUS
 10
10.2784521509
 20
7.5578545055
 11
10.2453347085
 21
7.560151208
  0
LINE
  5
2BE
100
AcDbEntity
  8
0
100
AcDbLine
 62
4
  6
CONTINUOUS
 10
10.6041071294
 20
7.5352702561
 11
10.64550396
 21
7.5323993761
  0
LINE
  5
2BF
100
AcDbEntity
  8
0
100
AcDbLine
 62
4
  6
CONTINUOUS
 10
10.6289452388
 20
7.574944551
 11
10.5958277965
 21
7.5772412534
  0
LINE
  5
2C0
100
AcDbEntity
  8
0
100
AcDbLine
 62
4
  6
CONTINUOUS
 10
11.7699108046
 20
7.5149987999
 11
11.7554219166
 21
7.5160036077
  0
LINE
  5
2C1
100
AcDbEntity
  8
0
100
AcDbLine
 62
4
  6
CONTINUOUS
 10
9.5666337604
 20
7.6677965819
 11
9.5521448724
 21
7.6688013897
  0
LINE
  5
2C2
100
AcDbEntity
  8
0
100
AcDbLine
 62
4
  6
CONTINUOUS
 10
10.2453347085
 20
7.6043078196
 11
10.2784521509
 21
7.5964915412
  0
LINE
  5
2C3
100
AcDbEntity
  8
0
100
AcDbLine
 62
4
  6
CONTINUOUS
 10
10.6289452388
 20
7.6163413746
 11
10.64550396
 21
7.6069136585
  0
LINE
  5
2C4
100
AcDbEntity
  8
0
100
AcDbLine
 62
4
  6
CONTINUOUS
 10
10.352966479
 20
7.6354805666
 11
10.361245812
 21
7.626627028
  0
LINE
  5
2C5
100
AcDbEntity
  8
0
100
AcDbLine
 62
4
  6
CONTINUOUS
 10
10.4716373048
 20
7.6272507169
 11
10.4799166931
 21
7.6183971745
  0
LINE
  5
2C6
100
AcDbEntity
  8
0
100
AcDbLine
 62
4
  6
CONTINUOUS
 10
10.5627103542
 20
7.6126554146
 11
10.5544309659
 21
7.621508957
  0
LINE
  5
2C7
100
AcDbEntity
  8
0
100
AcDbLine
 62
4
  6
CONTINUOUS
 10
9.5231670966
 20
8.7062835849
 11
9.5159226526
 21
8.716445252
  0
LINE
  5
2C8
100
AcDbEntity
  8
0
100
AcDbLine
 62
4
  6
CONTINUOUS
 10
9.5666337604
 20
8.7998617497
 11
9.5811226483
 21
8.779538425
  0
LINE
  5
2C9
100
AcDbEntity
  8
0
100
AcDbLine
 62
4
  6
CONTINUOUS
 10
11.1652411024
 20
6.6904972611
 11
11.1579966584
 21
6.7006589282
  0
LINE
  5
2CA
100
AcDbEntity
  8
0
100
AcDbLine
 62
4
  6
CONTINUOUS
 10
10.2370553756
 20
7.635239664
 11
10.2370553756
 21
7.6104015693
  0
LINE
  5
2CB
100
AcDbEntity
  8
0
100
AcDbLine
 62
4
  6
CONTINUOUS
 10
9.5666337604
 20
8.7032691615
 11
9.5521448724
 21
8.694614713
  0
LINE
  5
2CC
100
AcDbEntity
  8
0
100
AcDbLine
 62
4
  6
CONTINUOUS
 10
11.3133727169
 20
7.5688761678
 11
11.2802552581
 21
7.5711728714
  0
LINE
  5
2CD
100
AcDbEntity
  8
0
100
AcDbLine
 62
4
  6
CONTINUOUS
 10
11.2140203458
 20
7.5757662781
 11
11.1891822433
 21
7.5774888064
  0
LINE
  5
2CE
100
AcDbEntity
  8
0
100
AcDbLine
 62
4
  6
CONTINUOUS
 10
10.5544309659
 20
7.621508957
 11
10.5130341354
 21
7.6243798369
  0
LINE
  5
2CF
100
AcDbEntity
  8
0
100
AcDbLine
 62
4
  6
CONTINUOUS
 10
10.2784521509
 20
7.6406481528
 11
10.2453347085
 21
7.6429448552
  0
LINE
  5
2D0
100
AcDbEntity
  8
0
100
AcDbLine
 62
4
  6
CONTINUOUS
 10
10.3198489262
 20
7.6377772767
 11
10.352966479
 21
7.6354805666
  0
LINE
  5
2D1
100
AcDbEntity
  8
0
100
AcDbLine
 62
4
  6
CONTINUOUS
 10
10.4550785837
 20
7.6283990681
 11
10.4716373048
 21
7.6272507169
  0
LINE
  5
2D2
100
AcDbEntity
  8
0
100
AcDbLine
 62
4
  6
CONTINUOUS
 10
10.5958277965
 20
7.618638077
 11
10.6289452388
 21
7.6163413746
  0
LINE
  5
2D3
100
AcDbEntity
  8
0
100
AcDbLine
 62
4
  6
CONTINUOUS
 10
10.7531357305
 20
7.6077287348
 11
10.7862531728
 21
7.6054320323
  0
LINE
  5
2D4
100
AcDbEntity
  8
0
100
AcDbLine
 62
4
  6
CONTINUOUS
 10
10.8745663892
 20
7.6269053718
 11
10.858007668
 21
7.628053723
  0
LINE
  5
2D5
100
AcDbEntity
  8
0
100
AcDbLine
 62
4
  6
CONTINUOUS
 10
11.7916441364
 20
7.6294026917
 11
11.7336885847
 21
7.6334219228
  0
LINE
  5
2D6
100
AcDbEntity
  8
0
100
AcDbLine
 62
4
  6
CONTINUOUS
 10
9.5883670923
 20
7.7822004737
 11
9.5304115406
 21
7.7862197048
  0
LINE
  5
2D7
100
AcDbEntity
  8
0
100
AcDbLine
 62
4
  6
CONTINUOUS
 10
10.7862531728
 20
7.6054320323
 11
10.802811894
 21
7.5960043162
  0
LINE
  5
2D8
100
AcDbEntity
  8
0
100
AcDbLine
 62
4
  6
CONTINUOUS
 10
10.9159632197
 20
7.5136429627
 11
10.9076838592
 21
7.5224965058
  0
LINE
  5
2D9
100
AcDbEntity
  8
0
100
AcDbLine
 62
4
  6
CONTINUOUS
 10
11.1652411024
 20
6.7387935565
 11
11.1507522144
 21
6.7591168804
  0
LINE
  5
2DA
100
AcDbEntity
  8
0
100
AcDbLine
 62
4
  6
CONTINUOUS
 10
11.2087077661
 20
6.7840754259
 11
11.2159522101
 21
6.7739137631
  0
LINE
  5
2DB
100
AcDbEntity
  8
0
100
AcDbLine
 62
4
  6
CONTINUOUS
 10
10.6869007905
 20
7.5295284962
 11
10.6813812352
 21
7.5381906461
  0
LINE
  5
2DC
100
AcDbEntity
  8
0
100
AcDbLine
 62
4
  6
CONTINUOUS
 10
10.5958277965
 20
7.5524031578
 11
10.6041071294
 21
7.5352702561
  0
LINE
  5
2DD
100
AcDbEntity
  8
0
100
AcDbLine
 62
4
  6
CONTINUOUS
 10
10.2867314838
 20
7.5903977914
 11
10.2867314838
 21
7.5655596993
  0
LINE
  5
2DE
100
AcDbEntity
  8
0
100
AcDbLine
 62
4
  6
CONTINUOUS
 10
10.361245812
 20
7.626627028
 11
10.361245812
 21
7.5603921131
  0
LINE
  5
2DF
100
AcDbEntity
  8
0
100
AcDbLine
 62
4
  6
CONTINUOUS
 10
10.4054024202
 20
7.6318441217
 11
10.4054024202
 21
7.5490504744
  0
LINE
  5
2E0
100
AcDbEntity
  8
0
100
AcDbLine
 62
4
  6
CONTINUOUS
 10
10.4054024202
 20
7.5242123858
 11
10.4054024202
 21
7.5159330183
  0
LINE
  5
2E1
100
AcDbEntity
  8
0
100
AcDbLine
 62
4
  6
CONTINUOUS
 10
10.4247208992
 20
8.2216510082
 11
10.4247208992
 21
8.1057399047
  0
LINE
  5
2E2
100
AcDbEntity
  8
0
100
AcDbLine
 62
4
  6
CONTINUOUS
 10
9.5304115406
 20
7.7089456336
 11
9.5376559845
 21
7.7181024929
  0
LINE
  5
2E3
100
AcDbEntity
  8
0
100
AcDbLine
 62
4
  6
CONTINUOUS
 10
9.5666337604
 20
7.7354113934
 11
9.5811226483
 21
7.7537251017
  0
LINE
  5
2E4
100
AcDbEntity
  8
0
100
AcDbLine
 62
4
  6
CONTINUOUS
 10
9.5883670923
 20
7.6856078898
 11
9.5811226483
 21
7.6764510304
  0
LINE
  5
2E5
100
AcDbEntity
  8
0
100
AcDbLine
 62
4
  6
CONTINUOUS
 10
10.8911251652
 20
7.8183902315
 11
10.8414489775
 21
7.8218352868
  0
LINE
  5
2E6
100
AcDbEntity
  8
0
100
AcDbLine
 62
4
  6
CONTINUOUS
 10
10.7752140618
 20
7.8264286938
 11
10.8083315179
 21
7.8241319904
  0
LINE
  5
2E7
100
AcDbEntity
  8
0
100
AcDbLine
 62
4
  6
CONTINUOUS
 10
10.7752140618
 20
7.876104878
 11
10.7917727899
 21
7.8749565263
  0
LINE
  5
2E8
100
AcDbEntity
  8
0
100
AcDbLine
 62
4
  6
CONTINUOUS
 10
10.8580077056
 20
7.8703631193
 11
10.8911251652
 21
7.8680664157
  0
LINE
  5
2E9
100
AcDbEntity
  8
0
100
AcDbLine
 62
4
  6
CONTINUOUS
 10
10.8911251652
 20
7.9343013349
 11
10.8414489775
 21
7.9377463902
  0
LINE
  5
2EA
100
AcDbEntity
  8
0
100
AcDbLine
 62
4
  6
CONTINUOUS
 10
10.8083315179
 20
7.9400430938
 11
10.7669347012
 21
7.9429139728
  0
LINE
  5
2EB
100
AcDbEntity
  8
0
100
AcDbLine
 62
4
  6
CONTINUOUS
 10
10.7089791495
 20
7.946933204
 11
10.6841410539
 21
7.9486557318
  0
LINE
  5
2EC
100
AcDbEntity
  8
0
100
AcDbLine
 62
4
  6
CONTINUOUS
 10
10.3419272934
 20
8.155638269
 11
10.2977706852
 21
8.1807788477
  0
LINE
  5
2ED
100
AcDbEntity
  8
0
100
AcDbLine
 62
4
  6
CONTINUOUS
 10
9.5376559845
 20
8.6956195208
 11
9.5231670966
 21
8.7062835849
  0
LINE
  5
2EE
100
AcDbEntity
  8
0
100
AcDbLine
 62
4
  6
CONTINUOUS
 10
9.5521448724
 20
8.8105258164
 11
9.5666337604
 21
8.7998617497
  0
LINE
  5
2EF
100
AcDbEntity
  8
0
100
AcDbLine
 62
4
  6
CONTINUOUS
 10
10.4881960615
 20
8.1013378873
 11
10.4716373403
 21
8.1190449666
  0
LINE
  5
2F0
100
AcDbEntity
  8
0
100
AcDbLine
 62
4
  6
CONTINUOUS
 10
10.7586553268
 20
7.8938119617
 11
10.7752140618
 21
7.876104878
  0
LINE
  5
2F1
100
AcDbEntity
  8
0
100
AcDbLine
 62
4
  6
CONTINUOUS
 10
10.7255378707
 20
7.929226123
 11
10.7089791495
 21
7.946933204
  0
LINE
  5
2F2
100
AcDbEntity
  8
0
100
AcDbLine
 62
4
  6
CONTINUOUS
 10
10.5792690555
 20
8.0950219537
 11
10.5627103344
 21
8.112729033
  0
LINE
  5
2F3
100
AcDbEntity
  8
0
100
AcDbLine
 62
4
  6
CONTINUOUS
 10
10.7614151183
 20
7.8439443819
 11
10.7752140618
 21
7.8264286938
  0
LINE
  5
2F4
100
AcDbEntity
  8
0
100
AcDbLine
 62
4
  6
CONTINUOUS
 10
10.4716373403
 20
8.1190449666
 11
10.4716373403
 21
8.2018386121
  0
LINE
  5
2F5
100
AcDbEntity
  8
0
100
AcDbLine
 62
4
  6
CONTINUOUS
 10
10.4799166931
 20
7.6183971745
 11
10.4799166931
 21
7.5107654359
  0
LINE
  5
2F6
100
AcDbEntity
  8
0
100
AcDbLine
 62
4
  6
CONTINUOUS
 10
10.5130341354
 20
7.6243798369
 11
10.5130341354
 21
7.5415861896
  0
LINE
  5
2F7
100
AcDbEntity
  8
0
100
AcDbLine
 62
4
  6
CONTINUOUS
 10
10.529592892
 20
8.2143781108
 11
10.529592892
 21
8.0984670073
  0
LINE
  5
2F8
100
AcDbEntity
  8
0
100
AcDbLine
 62
4
  6
CONTINUOUS
 10
10.5627103542
 20
7.5381411322
 11
10.5627103542
 21
7.6126554146
  0
LINE
  5
2F9
100
AcDbEntity
  8
0
100
AcDbLine
 62
4
  6
CONTINUOUS
 10
10.5627103344
 20
8.112729033
 11
10.5627103344
 21
8.1955226785
  0
LINE
  5
2FA
100
AcDbEntity
  8
0
100
AcDbLine
 62
4
  6
CONTINUOUS
 10
10.5958277965
 20
7.618638077
 11
10.5958277965
 21
7.5524031578
  0
LINE
  5
2FB
100
AcDbEntity
  8
0
100
AcDbLine
 62
4
  6
CONTINUOUS
 10
10.6206658861
 20
8.1915034474
 11
10.6206658861
 21
8.1087098018
  0
LINE
  5
2FC
100
AcDbEntity
  8
0
100
AcDbLine
 62
4
  6
CONTINUOUS
 10
10.64550396
 20
7.6069136585
 11
10.64550396
 21
7.5820755638
  0
LINE
  5
2FD
100
AcDbEntity
  8
0
100
AcDbLine
 62
7
  6
CONTINUOUS
 10
12.118252132
 20
10.2270133498
 11
12.1194711025
 21
10.2281688842
  0
LINE
  5
2FE
100
AcDbEntity
  8
0
100
AcDbLine
 62
7
  6
CONTINUOUS
 10
12.059001
 20
10.1718739513
 11
12.1182521362
 21
10.2270133537
  0
LINE
  5
2FF
100
AcDbEntity
  8
0
100
AcDbLine
 62
4
  6
CONTINUOUS
 10
11.1947018134
 20
8.052341547
 11
11.1533049967
 21
8.055212426
  0
LINE
  5
300
100
AcDbEntity
  8
0
100
AcDbLine
 62
4
  6
CONTINUOUS
 10
10.9904775005
 20
8.0665045512
 11
10.9242425882
 21
8.0710979579
  0
LINE
  5
301
100
AcDbEntity
  8
0
100
AcDbLine
 62
4
  6
CONTINUOUS
 10
10.8911251182
 20
8.0733946623
 11
10.8414489271
 21
8.0768397178
  0
LINE
  5
302
100
AcDbEntity
  8
0
100
AcDbLine
 62
4
  6
CONTINUOUS
 10
10.7006997143
 20
8.0866007089
 11
10.6675822719
 21
8.0888974113
  0
LINE
  5
303
100
AcDbEntity
  8
0
100
AcDbLine
 62
4
  6
CONTINUOUS
 10
10.6041071649
 20
8.0932994249
 11
10.5792690555
 21
8.0950219537
  0
LINE
  5
304
100
AcDbEntity
  8
0
100
AcDbLine
 62
4
  6
CONTINUOUS
 10
10.529592892
 20
8.0984670073
 11
10.4881960615
 21
8.1013378873
  0
LINE
  5
305
100
AcDbEntity
  8
0
100
AcDbLine
 62
4
  6
CONTINUOUS
 10
10.4247208992
 20
8.1057399047
 11
10.3750447357
 21
8.1091849584
  0
LINE
  5
306
100
AcDbEntity
  8
0
100
AcDbLine
 62
4
  6
CONTINUOUS
 10
10.3916034569
 20
8.1577127914
 11
10.4247208992
 21
8.155416089
  0
LINE
  5
307
100
AcDbEntity
  8
0
100
AcDbLine
 62
4
  6
CONTINUOUS
 10
10.8580076483
 20
8.1253675509
 11
10.8911251182
 21
8.1230708465
  0
LINE
  5
308
100
AcDbEntity
  8
0
100
AcDbLine
 62
4
  6
CONTINUOUS
 10
11.26369653
 20
7.5392037634
 11
11.3216520818
 21
7.4855083446
  0
LINE
  5
309
100
AcDbEntity
  8
0
100
AcDbLine
 62
4
  6
CONTINUOUS
 10
11.2719758941
 20
7.4558359438
 11
11.26369653
 21
7.4646894871
  0
LINE
  5
30A
100
AcDbEntity
  8
0
100
AcDbLine
 62
4
  6
CONTINUOUS
 10
10.6041071649
 20
8.2092105284
 11
10.6206658861
 21
8.1915034474
  0
LINE
  5
30B
100
AcDbEntity
  8
0
100
AcDbLine
 62
4
  6
CONTINUOUS
 10
11.2305790739
 20
7.5580591966
 11
11.2140203458
 21
7.5757662781
  0
LINE
  5
30C
100
AcDbEntity
  8
0
100
AcDbLine
 62
4
  6
CONTINUOUS
 10
10.7006997143
 20
8.2025118123
 11
10.7172584354
 21
8.1848047313
  0
LINE
  5
30D
100
AcDbEntity
  8
0
100
AcDbLine
 62
4
  6
CONTINUOUS
 10
11.3216520818
 20
7.560022627
 11
11.3133727169
 21
7.5688761678
  0
LINE
  5
30E
100
AcDbEntity
  8
0
100
AcDbLine
 62
4
  6
CONTINUOUS
 10
10.8745663892
 20
7.5165138427
 11
10.8497282798
 21
7.6010300187
  0
LINE
  5
30F
100
AcDbEntity
  8
0
100
AcDbLine
 62
4
  6
CONTINUOUS
 10
10.6675823189
 20
7.9332453541
 11
10.6675823189
 21
7.8338929805
  0
LINE
  5
310
100
AcDbEntity
  8
0
100
AcDbLine
 62
4
  6
CONTINUOUS
 10
10.6813812352
 20
7.5381906461
 11
10.6813812352
 21
7.5547493742
  0
LINE
  5
311
100
AcDbEntity
  8
0
100
AcDbLine
 62
4
  6
CONTINUOUS
 10
10.7172584354
 20
8.1848047313
 11
10.7172584354
 21
8.1020110858
  0
LINE
  5
312
100
AcDbEntity
  8
0
100
AcDbLine
 62
4
  6
CONTINUOUS
 10
10.7200182329
 20
7.610025441
 11
10.7200182329
 21
7.5272317937
  0
LINE
  5
313
100
AcDbEntity
  8
0
100
AcDbLine
 62
4
  6
CONTINUOUS
 10
10.7255378707
 20
7.8298737494
 11
10.7255378707
 21
7.929226123
  0
LINE
  5
314
100
AcDbEntity
  8
0
100
AcDbLine
 62
4
  6
CONTINUOUS
 10
10.7531357305
 20
7.4918176313
 11
10.7531357305
 21
7.6077287348
  0
LINE
  5
315
100
AcDbEntity
  8
0
100
AcDbLine
 62
4
  6
CONTINUOUS
 10
10.7586553268
 20
7.9352087845
 11
10.7586553268
 21
7.8938119617
  0
LINE
  5
316
100
AcDbEntity
  8
0
100
AcDbLine
 62
4
  6
CONTINUOUS
 10
10.7614151183
 20
7.8687824774
 11
10.7614151183
 21
7.8439443819
  0
LINE
  5
317
100
AcDbEntity
  8
0
100
AcDbLine
 62
4
  6
CONTINUOUS
 10
10.802811894
 20
7.5960043162
 11
10.802811894
 21
7.5297694013
  0
LINE
  5
318
100
AcDbEntity
  8
0
100
AcDbLine
 62
4
  6
CONTINUOUS
 10
10.4026426425
 20
7.5161244095
 11
10.4054024202
 21
7.5242123858
  0
LINE
  5
319
100
AcDbEntity
  8
0
100
AcDbLine
 62
4
  6
CONTINUOUS
 10
11.0787907169
 20
8.1431736526
 11
11.0346341087
 21
8.1462359238
  0
LINE
  5
31A
100
AcDbEntity
  8
0
100
AcDbLine
 62
4
  6
CONTINUOUS
 10
10.8911251182
 20
8.1893057657
 11
10.8414489271
 21
8.1927508213
  0
LINE
  5
31B
100
AcDbEntity
  8
0
100
AcDbLine
 62
4
  6
CONTINUOUS
 10
10.4247208992
 20
8.2216510082
 11
10.3750447357
 21
8.2250960618
  0
LINE
  5
31C
100
AcDbEntity
  8
0
100
AcDbLine
 62
4
  6
CONTINUOUS
 10
10.4881960615
 20
8.2172489907
 11
10.529592892
 21
8.2143781108
  0
LINE
  5
31D
100
AcDbEntity
  8
0
100
AcDbLine
 62
4
  6
CONTINUOUS
 10
10.5792690555
 20
8.2109330571
 11
10.6041071649
 21
8.2092105284
  0
LINE
  5
31E
100
AcDbEntity
  8
0
100
AcDbLine
 62
4
  6
CONTINUOUS
 10
10.6675822719
 20
8.2048085148
 11
10.7006997143
 21
8.2025118123
  0
LINE
  5
31F
100
AcDbEntity
  8
0
100
AcDbLine
 62
4
  6
CONTINUOUS
 10
11.1533049967
 20
8.1711235294
 11
11.1947018134
 21
8.1682526504
  0
LINE
  5
320
100
AcDbEntity
  8
0
100
AcDbLine
 62
4
  6
CONTINUOUS
 10
11.2609367326
 20
8.1139830555
 11
11.216780121
 21
8.1391236327
  0
LINE
  5
321
100
AcDbEntity
  8
0
100
AcDbLine
 62
4
  6
CONTINUOUS
 10
11.7554219166
 20
7.5160036077
 11
11.7409330287
 21
7.5266676718
  0
LINE
  5
322
100
AcDbEntity
  8
0
100
AcDbLine
 62
4
  6
CONTINUOUS
 10
11.1533049967
 20
8.055212426
 11
11.1367462686
 21
8.0729195057
  0
LINE
  5
323
100
AcDbEntity
  8
0
100
AcDbLine
 62
4
  6
CONTINUOUS
 10
11.139506066
 20
7.4650227575
 11
11.0815505143
 21
7.5849530921
  0
LINE
  5
324
100
AcDbEntity
  8
0
100
AcDbLine
 62
4
  6
CONTINUOUS
 10
10.8911251182
 20
8.1893057657
 11
10.8911251182
 21
8.0733946623
  0
LINE
  5
325
100
AcDbEntity
  8
0
100
AcDbLine
 62
4
  6
CONTINUOUS
 10
10.8911251652
 20
7.9343013349
 11
10.8911251652
 21
7.8183902315
  0
LINE
  5
326
100
AcDbEntity
  8
0
100
AcDbLine
 62
4
  6
CONTINUOUS
 10
10.9076838592
 20
7.5224965058
 11
10.9076838592
 21
7.5970107856
  0
LINE
  5
327
100
AcDbEntity
  8
0
100
AcDbLine
 62
4
  6
CONTINUOUS
 10
10.9573600305
 20
8.1847123589
 11
10.9573600305
 21
8.0688012555
  0
LINE
  5
328
100
AcDbEntity
  8
0
100
AcDbLine
 62
4
  6
CONTINUOUS
 10
10.9573600503
 20
7.5935657301
 11
10.9573600503
 21
7.4776546266
  0
LINE
  5
329
100
AcDbEntity
  8
0
100
AcDbLine
 62
7
  6
CONTINUOUS
 10
12.5932269676
 20
10.242524128
 11
11.881475181
 21
9.5550246546
  0
LINE
  5
32A
100
AcDbEntity
  8
0
100
AcDbLine
 62
4
  6
CONTINUOUS
 10
10.4716373403
 20
8.2018386121
 11
10.4881960615
 21
8.2172489907
  0
LINE
  5
32B
100
AcDbEntity
  8
0
100
AcDbLine
 62
4
  6
CONTINUOUS
 10
10.5627103344
 20
8.1955226785
 11
10.5792690555
 21
8.2109330571
  0
LINE
  5
32C
100
AcDbEntity
  8
0
100
AcDbLine
 62
4
  6
CONTINUOUS
 10
9.5376559845
 20
7.7181024929
 11
9.5666337604
 21
7.7354113934
  0
LINE
  5
32D
100
AcDbEntity
  8
0
100
AcDbLine
 62
4
  6
CONTINUOUS
 10
9.5811226483
 20
7.6764510304
 11
9.5666337604
 21
7.6677965819
  0
LINE
  5
32E
100
AcDbEntity
  8
0
100
AcDbLine
 62
4
  6
CONTINUOUS
 10
10.2977706852
 20
8.1807788477
 11
10.3419272934
 21
8.1997948824
  0
LINE
  5
32F
100
AcDbEntity
  8
0
100
AcDbLine
 62
4
  6
CONTINUOUS
 10
11.0567124128
 20
8.0619111444
 11
11.0235949428
 21
8.1801189522
  0
LINE
  5
330
100
AcDbEntity
  8
0
100
AcDbLine
 62
4
  6
CONTINUOUS
 10
11.0815505143
 20
7.5849530921
 11
11.0815505143
 21
7.4690419887
  0
LINE
  5
331
100
AcDbEntity
  8
0
100
AcDbLine
 62
4
  6
CONTINUOUS
 10
11.1367462686
 20
8.0729195057
 11
11.1367462686
 21
8.1557131513
  0
LINE
  5
332
100
AcDbEntity
  8
0
100
AcDbLine
 62
4
  6
CONTINUOUS
 10
11.139506066
 20
7.580933861
 11
11.139506066
 21
7.4650227575
  0
LINE
  5
333
100
AcDbEntity
  8
0
100
AcDbLine
 62
4
  6
CONTINUOUS
 10
11.1507522144
 20
6.7591168804
 11
11.1507522144
 21
6.7687761401
  0
LINE
  5
334
100
AcDbEntity
  8
0
100
AcDbLine
 62
4
  6
CONTINUOUS
 10
11.1579966584
 20
6.7006589282
 11
11.1579966584
 21
6.7103181845
  0
LINE
  5
335
100
AcDbEntity
  8
0
100
AcDbLine
 62
7
  6
CONTINUOUS
 10
11.1679979279
 20
10.2862187898
 11
11.1679979279
 21
10.7068180156
  0
LINE
  5
336
100
AcDbEntity
  8
0
100
AcDbLine
 62
4
  6
CONTINUOUS
 10
11.1726235222
 20
7.5620784278
 11
11.1726235222
 21
7.4627260542
  0
LINE
  5
337
100
AcDbEntity
  8
0
100
AcDbLine
 62
4
  6
CONTINUOUS
 10
11.1947018134
 20
8.1682526504
 11
11.1947018134
 21
8.052341547
  0
LINE
  5
338
100
AcDbEntity
  8
0
100
AcDbLine
 62
4
  6
CONTINUOUS
 10
11.0898298689
 20
8.1755255444
 11
11.0567124128
 21
8.0619111444
  0
LINE
  5
339
100
AcDbEntity
  8
0
100
AcDbLine
 62
4
  6
CONTINUOUS
 10
10.858007668
 20
7.628053723
 11
10.8248902257
 21
7.5199588963
  0
LINE
  5
33A
100
AcDbEntity
  8
0
100
AcDbLine
 62
4
  6
CONTINUOUS
 10
10.6206658861
 20
8.1087098018
 11
10.6041071649
 21
8.0932994249
  0
LINE
  5
33B
100
AcDbEntity
  8
0
100
AcDbLine
 62
4
  6
CONTINUOUS
 10
10.7172584354
 20
8.1020110858
 11
10.7006997143
 21
8.0866007089
  0
LINE
  5
33C
100
AcDbEntity
  8
0
100
AcDbLine
 62
4
  6
CONTINUOUS
 10
10.2453347085
 20
7.6429448552
 11
10.2370553756
 21
7.635239664
  0
LINE
  5
33D
100
AcDbEntity
  8
0
100
AcDbLine
 62
4
  6
CONTINUOUS
 10
10.6841410539
 20
7.9486557318
 11
10.6675823189
 21
7.9332453541
  0
LINE
  5
33E
100
AcDbEntity
  8
0
100
AcDbLine
 62
4
  6
CONTINUOUS
 10
10.2867314838
 20
7.5655596993
 11
10.2784521509
 21
7.5578545055
  0
LINE
  5
33F
100
AcDbEntity
  8
0
100
AcDbLine
 62
4
  6
CONTINUOUS
 10
9.5521448724
 20
8.694614713
 11
9.5376559845
 21
8.6956195208
  0
LINE
  5
340
100
AcDbEntity
  8
0
100
AcDbLine
 62
4
  6
CONTINUOUS
 10
9.5449004285
 20
8.7530726686
 11
9.5159226526
 21
8.7550822842
  0
LINE
  5
341
100
AcDbEntity
  8
0
100
AcDbLine
 62
4
  6
CONTINUOUS
 10
9.5376559845
 20
8.8115306242
 11
9.5521448724
 21
8.8105258164
  0
LINE
  5
342
100
AcDbEntity
  8
0
100
AcDbLine
 62
4
  6
CONTINUOUS
 10
11.7409330287
 20
7.5266676718
 11
11.7336885847
 21
7.5368293389
  0
LINE
  5
343
100
AcDbEntity
  8
0
100
AcDbLine
 62
7
  6
CONTINUOUS
 10
11.2196333455
 20
10.1252888891
 11
11.2196333455
 21
10.1870971231
  0
LINE
  5
344
100
AcDbEntity
  8
0
100
AcDbLine
 62
4
  6
CONTINUOUS
 10
11.2305790739
 20
7.458706823
 11
11.2305790739
 21
7.5580591966
  0
LINE
  5
345
100
AcDbEntity
  8
0
100
AcDbLine
 62
4
  6
CONTINUOUS
 10
11.26369653
 20
7.5557624932
 11
11.26369653
 21
7.5392037634
  0
LINE
  5
346
100
AcDbEntity
  8
0
100
AcDbLine
 62
7
  6
CONTINUOUS
 10
11.2810527399
 20
10.1770164139
 11
11.2810527399
 21
10.5976156397
  0
LINE
  5
347
100
AcDbEntity
  8
0
100
AcDbLine
 62
4
  6
CONTINUOUS
 10
11.3216520818
 20
7.4855083446
 11
11.3216520818
 21
7.4689496165
  0
LINE
  5
348
100
AcDbEntity
  8
0
100
AcDbLine
 62
7
  6
CONTINUOUS
 10
11.3229329674
 20
10.1661770272
 11
11.3229329674
 21
10.5867762529
  0
LINE
  5
349
100
AcDbEntity
  8
0
100
AcDbLine
 62
4
  6
CONTINUOUS
 10
11.3502159371
 20
8.6858290566
 11
11.3502159371
 21
8.8017401601
  0
LINE
  5
34A
100
AcDbEntity
  8
0
100
AcDbLine
 62
4
  6
CONTINUOUS
 10
10.7669347012
 20
7.9429139728
 11
10.7586553268
 21
7.9352087845
  0
LINE
  5
34B
100
AcDbEntity
  8
0
100
AcDbLine
 62
4
  6
CONTINUOUS
 10
10.361245812
 20
7.5603921131
 11
10.352966479
 21
7.5526869193
  0
LINE
  5
34C
100
AcDbEntity
  8
0
100
AcDbLine
 62
4
  6
CONTINUOUS
 10
11.1367462686
 20
8.1557131513
 11
11.1533049967
 21
8.1711235294
  0
LINE
  5
34D
100
AcDbEntity
  8
0
100
AcDbLine
 62
4
  6
CONTINUOUS
 10
10.7752140618
 20
7.876104878
 11
10.7614151183
 21
7.8687824774
  0
LINE
  5
34E
100
AcDbEntity
  8
0
100
AcDbLine
 62
4
  6
CONTINUOUS
 10
11.216780121
 20
8.0949670193
 11
11.2609367326
 21
8.1139830555
  0
LINE
  5
34F
100
AcDbEntity
  8
0
100
AcDbLine
 62
4
  6
CONTINUOUS
 10
11.7336885847
 20
7.5368293389
 11
11.7336885847
 21
7.5561478516
  0
LINE
  5
350
100
AcDbEntity
  8
0
100
AcDbLine
 62
7
  6
CONTINUOUS
 10
11.7448589463
 20
10.1369163612
 11
11.7448589463
 21
10.5575155869
  0
LINE
  5
351
100
AcDbEntity
  8
0
100
AcDbLine
 62
4
  6
CONTINUOUS
 10
10.64550396
 20
7.5820755638
 11
10.6289452388
 21
7.574944551
  0
LINE
  5
352
100
AcDbEntity
  8
0
100
AcDbLine
 62
7
  6
CONTINUOUS
 10
11.8020683849
 20
10.1408838562
 11
11.8020683849
 21
10.561483082
  0
LINE
  5
353
100
AcDbEntity
  8
0
100
AcDbLine
 62
7
  6
CONTINUOUS
 10
11.881475181
 20
9.5550246546
 11
11.881475181
 21
6.1742840623
  0
LINE
  5
354
100
AcDbEntity
  8
0
100
AcDbLine
 62
4
  6
CONTINUOUS
 10
11.1891822433
 20
7.5774888064
 11
11.1726235222
 21
7.5620784278
  0
LINE
  5
355
100
AcDbEntity
  8
0
100
AcDbLine
 62
4
  6
CONTINUOUS
 10
11.2802552581
 20
7.5711728714
 11
11.26369653
 21
7.5557624932
  0
LINE
  5
356
100
AcDbEntity
  8
0
100
AcDbLine
 62
4
  6
CONTINUOUS
 10
10.802811894
 20
7.5297694013
 11
10.7862531728
 21
7.522638385
  0
LINE
  5
357
100
AcDbEntity
  8
0
100
AcDbLine
 62
7
  6
CONTINUOUS
 10
12.0746333455
 20
10.1253445873
 11
12.0746333455
 21
10.1864214899
  0
LINE
  5
358
100
AcDbEntity
  8
0
100
AcDbLine
 62
7
  6
CONTINUOUS
 10
12.1109395519
 20
10.2208255661
 11
12.1109395519
 21
10.6414247919
  0
LINE
  5
359
100
AcDbEntity
  8
0
100
AcDbLine
 62
7
  6
CONTINUOUS
 10
12.1262687631
 20
10.2356324479
 11
12.1262687631
 21
10.6562316737
  0
LINE
  5
35A
100
AcDbEntity
  8
0
100
AcDbLine
 62
4
  6
CONTINUOUS
 10
11.7843996925
 20
7.6009273197
 11
11.7916441364
 21
7.6294026917
  0
LINE
  5
35B
100
AcDbEntity
  8
0
100
AcDbLine
 62
7
  6
CONTINUOUS
 10
12.3043177901
 20
8.327290676
 11
12.3034985071
 21
8.3265138737
  0
LINE
  5
35C
100
AcDbEntity
  8
0
100
AcDbLine
 62
4
  6
CONTINUOUS
 10
11.3216520818
 20
7.4689496165
 11
11.305093352
 21
7.4535392403
  0
LINE
  5
35D
100
AcDbEntity
  8
0
100
AcDbLine
 62
7
  6
CONTINUOUS
 10
9.4067730324
 20
9.7266458315
 11
11.881475181
 21
9.5550246546
  0
LINE
  5
35E
100
AcDbEntity
  8
0
100
AcDbLine
 62
4
  6
CONTINUOUS
 10
11.7336885847
 20
7.5561478516
 11
11.7409330287
 21
7.5653047109
  0
LINE
  5
35F
100
AcDbEntity
  8
0
100
AcDbLine
 62
4
  6
CONTINUOUS
 10
11.7699108046
 20
7.5826136114
 11
11.7843996925
 21
7.6009273197
  0
LINE
  5
360
100
AcDbEntity
  8
0
100
AcDbLine
 62
4
  6
CONTINUOUS
 10
11.1507522144
 20
6.7687761401
 11
11.1652411024
 21
6.7870898493
  0
LINE
  5
361
100
AcDbEntity
  8
0
100
AcDbLine
 62
4
  6
CONTINUOUS
 10
11.7916441364
 20
7.5328101078
 11
11.7843996925
 21
7.5236532485
  0
LINE
  5
362
100
AcDbEntity
  8
0
100
AcDbLine
 62
4
  6
CONTINUOUS
 10
11.1579966584
 20
6.7103181845
 11
11.1652411024
 21
6.719475037
  0
LINE
  5
363
100
AcDbEntity
  8
0
100
AcDbLine
 62
4
  6
CONTINUOUS
 10
11.7409330287
 20
7.5653047109
 11
11.7699108046
 21
7.5826136114
  0
LINE
  5
364
100
AcDbEntity
  8
0
100
AcDbLine
 62
4
  6
CONTINUOUS
 10
11.7843996925
 20
7.5236532485
 11
11.7699108046
 21
7.5149987999
  0
LINE
  5
365
100
AcDbEntity
  8
0
100
AcDbLine
 62
4
  6
CONTINUOUS
 10
10.9114939766
 20
10.1380947933
 11
10.9057170001
 21
10.1425146622
  0
LINE
  5
366
100
AcDbEntity
  8
0
100
AcDbLine
 62
4
  6
CONTINUOUS
 10
10.9406110945
 20
10.1662197711
 11
10.934834118
 21
10.1706396401
  0
LINE
  5
367
100
AcDbEntity
  8
0
100
AcDbLine
 62
4
  6
CONTINUOUS
 10
10.9269302112
 20
10.1330050526
 11
10.9114939766
 21
10.1380947933
  0
LINE
  5
368
100
AcDbEntity
  8
0
100
AcDbLine
 62
4
  6
CONTINUOUS
 10
11.0488505299
 20
10.1707710435
 11
11.0546275038
 21
10.1663511748
  0
LINE
  5
369
100
AcDbEntity
  8
0
100
AcDbLine
 62
4
  6
CONTINUOUS
 10
11.0027276127
 20
10.2262197238
 11
10.9969506361
 21
10.2306395928
  0
LINE
  5
36A
100
AcDbEntity
  8
0
100
AcDbLine
 62
4
  6
CONTINUOUS
 10
11.110967048
 20
10.2307709962
 11
11.116744022
 21
10.2263511275
  0
LINE
  5
36B
100
AcDbEntity
  8
0
100
AcDbLine
 62
7
  6
CONTINUOUS
 10
11.235265691
 20
10.1718739513
 11
11.2253293502
 21
10.1811207595
  0
LINE
  5
36C
100
AcDbEntity
  8
0
100
AcDbLine
 62
7
  6
CONTINUOUS
 10
12.5932269676
 20
6.8617835357
 11
12.5932269676
 21
10.242524128
  0
LINE
  5
36D
100
AcDbEntity
  8
0
100
AcDbLine
 62
4
  6
CONTINUOUS
 10
11.1652411024
 20
6.7870898493
 11
11.1797299903
 21
6.7957443004
  0
LINE
  5
36E
100
AcDbEntity
  8
0
100
AcDbLine
 62
4
  6
CONTINUOUS
 10
11.1652411024
 20
6.719475037
 11
11.1797299903
 21
6.7281294924
  0
LINE
  5
36F
100
AcDbEntity
  8
0
100
AcDbLine
 62
4
  6
CONTINUOUS
 10
11.2087077661
 20
6.6874828377
 11
11.1942188782
 21
6.6788283892
  0
LINE
  5
370
100
AcDbEntity
  8
0
100
AcDbLine
 62
4
  6
CONTINUOUS
 10
11.0216281035
 20
10.1344761999
 11
11.0080865648
 21
10.1313960746
  0
LINE
  5
371
100
AcDbEntity
  8
0
100
AcDbLine
 62
4
  6
CONTINUOUS
 10
11.0507452214
 20
10.1626011777
 11
11.0372036827
 21
10.1595210524
  0
LINE
  5
372
100
AcDbEntity
  8
0
100
AcDbLine
 62
4
  6
CONTINUOUS
 10
10.9387164004
 20
10.1743896371
 11
10.9522579416
 21
10.1774697623
  0
LINE
  5
373
100
AcDbEntity
  8
0
100
AcDbLine
 62
4
  6
CONTINUOUS
 10
11.1128617396
 20
10.2226011304
 11
11.0993202009
 21
10.2195210051
  0
LINE
  5
374
100
AcDbEntity
  8
0
100
AcDbLine
 62
4
  6
CONTINUOUS
 10
11.0008329185
 20
10.2343895898
 11
11.0143744598
 21
10.237469715
  0
LINE
  5
375
100
AcDbEntity
  8
0
100
AcDbLine
 62
4
  6
CONTINUOUS
 10
11.0080865648
 20
10.1313960746
 11
10.9848857629
 21
10.1289858214
  0
LINE
  5
376
100
AcDbEntity
  8
0
100
AcDbLine
 62
4
  6
CONTINUOUS
 10
11.0372036827
 20
10.1595210524
 11
11.0256032783
 21
10.158315926
  0
LINE
  5
377
100
AcDbEntity
  8
0
100
AcDbLine
 62
4
  6
CONTINUOUS
 10
10.9522579416
 20
10.1774697623
 11
10.975458741
 21
10.1798800156
  0
LINE
  5
378
100
AcDbEntity
  8
0
100
AcDbLine
 62
4
  6
CONTINUOUS
 10
11.0993202009
 20
10.2195210051
 11
11.0877197965
 21
10.2183158787
  0
LINE
  5
379
100
AcDbEntity
  8
0
100
AcDbLine
 62
4
  6
CONTINUOUS
 10
11.0915091864
 20
10.2019761467
 11
10.9600689535
 21
10.1950146208
  0
LINE
  5
37A
100
AcDbEntity
  8
0
100
AcDbLine
 62
4
  6
CONTINUOUS
 10
10.9848857629
 20
10.1289858214
 11
10.9539668458
 21
10.1291204385
  0
LINE
  5
37B
100
AcDbEntity
  8
0
100
AcDbLine
 62
4
  6
CONTINUOUS
 10
10.975458741
 20
10.1798800156
 11
11.006377658
 21
10.1797453985
  0
LINE
  5
37C
100
AcDbEntity
  8
0
100
AcDbLine
 62
4
  6
CONTINUOUS
 10
10.9134815648
 20
10.1500146563
 11
11.0293926683
 21
10.141976194
  0
LINE
  5
37D
100
AcDbEntity
  8
0
100
AcDbLine
 62
4
  6
CONTINUOUS
 10
10.9539668458
 20
10.1291204385
 11
10.9269302112
 21
10.1330050526
  0
LINE
  5
37E
100
AcDbEntity
  8
0
100
AcDbLine
 62
4
  6
CONTINUOUS
 10
11.006377658
 20
10.1797453985
 11
11.0334142927
 21
10.1758607844
  0
LINE
  5
37F
100
AcDbEntity
  8
0
100
AcDbLine
 62
4
  6
CONTINUOUS
 10
10.975598083
 20
10.210014609
 11
11.0759800569
 21
10.1869761585
  0
LINE
  5
380
100
AcDbEntity
  8
0
100
AcDbLine
 62
4
  6
CONTINUOUS
 10
10.9483292122
 20
10.1636749007
 11
10.9406110945
 21
10.1662197711
  0
LINE
  5
381
100
AcDbEntity
  8
0
100
AcDbLine
 62
4
  6
CONTINUOUS
 10
11.0334142927
 20
10.1758607844
 11
11.0488505299
 21
10.1707710435
  0
LINE
  5
382
100
AcDbEntity
  8
0
100
AcDbLine
 62
4
  6
CONTINUOUS
 10
11.0104457304
 20
10.2236748534
 11
11.0027276127
 21
10.2262197238
  0
LINE
  5
383
100
AcDbEntity
  8
0
100
AcDbLine
 62
4
  6
CONTINUOUS
 10
11.0955308109
 20
10.2358607371
 11
11.110967048
 21
10.2307709962
  0
LINE
  5
384
100
AcDbEntity
  8
0
100
AcDbLine
 62
4
  6
CONTINUOUS
 10
11.0143744598
 20
10.237469715
 11
11.0375752592
 21
10.2398799683
  0
LINE
  5
385
100
AcDbEntity
  8
0
100
AcDbLine
 62
4
  6
CONTINUOUS
 10
11.0375752592
 20
10.2398799683
 11
11.0684941762
 21
10.2397453512
  0
LINE
  5
386
100
AcDbEntity
  8
0
100
AcDbLine
 62
7
  6
CONTINUOUS
 10
10.118524819
 20
10.4141453049
 11
11.1679979279
 21
10.3413640976
  0
LINE
  5
387
100
AcDbEntity
  8
0
100
AcDbLine
 62
7
  6
CONTINUOUS
 10
12.1262687631
 20
10.2749077895
 11
12.5932269676
 21
10.242524128
  0
LINE
  5
388
100
AcDbEntity
  8
0
100
AcDbLine
 62
4
  6
CONTINUOUS
 10
11.0684941762
 20
10.2397453512
 11
11.0955308109
 21
10.2358607371
  0
LINE
  5
389
100
AcDbEntity
  8
0
100
AcDbLine
 62
7
  6
CONTINUOUS
 10
11.881475181
 20
6.1742840623
 11
12.5932269676
 21
6.8617835357
  0
LINE
  5
38A
100
AcDbEntity
  8
0
100
AcDbLine
 62
7
  6
CONTINUOUS
 10
12.0443225075
 20
10.7580253347
 11
12.0280196833
 21
10.7660786177
  0
ARC
  5
38B
100
AcDbEntity
  8
0
100
AcDbCircle
 62
7
  6
CONTINUOUS
 10
11.6549356022
 20
11.8480198084
 40
1.7134646816
100
AcDbArc
 50
273.0082884861
 51
274.9259735842
  0
ARC
  5
38C
100
AcDbEntity
  8
0
100
AcDbCircle
 62
7
  6
CONTINUOUS
 10
11.6549356022
 20
12.2686190342
 40
1.7134646816
100
AcDbArc
 50
273.0082884861
 51
274.9259735842
  0
ARC
  5
38D
100
AcDbEntity
  8
0
100
AcDbCircle
 62
7
  6
CONTINUOUS
 10
10.9524537782
 20
5.1569756739
 40
1.6098003473
100
AcDbArc
 50
91.3124026443
 51
93.1834710407
  0
ARC
  5
38E
100
AcDbEntity
  8
0
100
AcDbCircle
 62
7
  6
CONTINUOUS
 10
10.6396732121
 20
8.8457570861
 40
0.4135711617
100
AcDbArc
 50
134.7174166306
 51
135.6022676093
  0
ARC
  5
38F
100
AcDbEntity
  8
0
100
AcDbCircle
 62
7
  6
CONTINUOUS
 10
10.725099615
 20
8.7573149434
 40
0.413466705
100
AcDbArc
 50
312.4126959391
 51
313.080103787
  0
ARC
  5
390
100
AcDbEntity
  8
0
100
AcDbCircle
 62
7
  6
CONTINUOUS
 10
10.6428229135
 20
6.7899048087
 40
0.3831040276
100
AcDbArc
 50
134.5471225701
 51
135.7287102703
  0
ARC
  5
391
100
AcDbEntity
  8
0
100
AcDbCircle
 62
7
  6
CONTINUOUS
 10
10.7218907432
 20
6.7080476163
 40
0.383087723
100
AcDbArc
 50
312.2851930587
 51
313.3316479208
  0
ARC
  5
392
100
AcDbEntity
  8
0
100
AcDbCircle
 62
7
  6
CONTINUOUS
 10
10.9479298294
 20
9.0367031631
 40
0.2509870641
100
AcDbArc
 50
272.7872441317
 51
277.6022167977
  0
ARC
  5
393
100
AcDbEntity
  8
0
100
AcDbCircle
 62
7
  6
CONTINUOUS
 10
10.9093257471
 20
6.9547060755
 40
0.1961288146
100
AcDbArc
 50
268.2622588286
 51
272.0345767852
  0
ARC
  5
394
100
AcDbEntity
  8
0
100
AcDbCircle
 62
7
  6
CONTINUOUS
 10
10.9479134664
 20
8.9688572712
 40
0.183252226
100
AcDbArc
 50
269.6586305359
 51
273.8239315659
  0
ARC
  5
395
100
AcDbEntity
  8
0
100
AcDbCircle
 62
7
  6
CONTINUOUS
 10
10.9479176721
 20
8.9540994944
 40
0.1684947614
100
AcDbArc
 50
265.2439698886
 51
269.6273014349
  0
ARC
  5
396
100
AcDbEntity
  8
0
100
AcDbCircle
 62
7
  6
CONTINUOUS
 10
12.2891411111
 20
8.285569876
 40
0.0190293568
100
AcDbArc
 50
86.067037459
 51
96.9295312946
  0
ARC
  5
397
100
AcDbEntity
  8
0
100
AcDbCircle
 62
7
  6
CONTINUOUS
 10
12.2502632049
 20
7.724970645
 40
0.0190249133
100
AcDbArc
 50
255.2820203461
 51
265.9993597387
  0
SPLINE
  5
398
100
AcDbEntity
  8
0
100
AcDbSpline
 62
7
  6
CONTINUOUS
 70
0
 71
3
 72
9
 73
5
 74
0
 42
0.0000001
 43
0.0000001
 44
0.0000000001
 40
0.0
 40
0.0
 40
0.0
 40
0.0
 40
0.4864210225
 40
1.0
 40
1.0
 40
1.0
 40
1.0
 10
12.1262687631
 20
10.2356324479
 30
0.0
 10
12.1252550561
 20
10.2343460978
 30
0.0
 10
12.1230685659
 20
10.2317813131
 30
0.0
 10
12.1207148468
 20
10.2293702489
 30
0.0
 10
12.1194711025
 20
10.2281688842
 30
0.0
  0
SPLINE
  5
399
100
AcDbEntity
  8
0
100
AcDbSpline
 62
7
  6
CONTINUOUS
 70
0
 71
3
 72
9
 73
5
 74
0
 42
0.0000001
 43
0.0000001
 44
0.0000000001
 40
0.0
 40
0.0
 40
0.0
 40
0.0
 40
0.5135789775
 40
1.0
 40
1.0
 40
1.0
 40
1.0
 10
11.1747955885
 20
10.7142815793
 30
0.0
 10
11.1735518442
 20
10.7130802146
 30
0.0
 10
11.1711981251
 20
10.7106691504
 30
0.0
 10
11.1690116349
 20
10.7081043657
 30
0.0
 10
11.1679979279
 20
10.7068180156
 30
0.0
  0
SPLINE
  5
39A
100
AcDbEntity
  8
0
100
AcDbSpline
 62
7
  6
CONTINUOUS
 70
0
 71
3
 72
9
 73
5
 74
0
 42
0.0000001
 43
0.0000001
 44
0.0000000001
 40
0.0
 40
0.0
 40
0.0
 40
0.0
 40
0.5134917843
 40
1.0
 40
1.0
 40
1.0
 40
1.0
 10
11.1833271391
 20
10.7216248974
 30
0.0
 10
11.1818035058
 20
10.7204444033
 30
0.0
 10
11.1788901998
 20
10.7180746989
 30
0.0
 10
11.1761090585
 20
10.715550294
 30
0.0
 10
11.1747955885
 20
10.7142815793
 30
0.0
  0
SPLINE
  5
39B
100
AcDbEntity
  8
0
100
AcDbSpline
 62
7
  6
CONTINUOUS
 70
0
 71
3
 72
21
 73
17
 74
0
 42
0.0000001
 43
0.0000001
 44
0.0000000001
 40
0.0
 40
0.0
 40
0.0
 40
0.0
 40
0.1552847778
 40
0.3037675224
 40
0.3751527953
 40
0.4444666907
 40
0.5115812513
 40
0.5763697456
 40
0.6387130726
 40
0.6985013802
 40
0.75563826
 40
0.8100514809
 40
0.8616894053
 40
0.9105385226
 40
0.9566200086
 40
1.0
 40
1.0
 40
1.0
 40
1.0
 10
11.1679979279
 20
10.2862187898
 30
0.0
 10
11.1702204189
 20
10.2803674362
 30
0.0
 10
11.1746810079
 20
10.2689634369
 30
0.0
 10
11.1805333642
 20
10.2550179122
 30
0.0
 10
11.1852905144
 20
10.2443759801
 30
0.0
 10
11.1888387939
 20
10.2367875665
 30
0.0
 10
11.1924134507
 20
10.2295065423
 30
0.0
 10
11.196013546
 20
10.2225528602
 30
0.0
 10
11.1996377154
 20
10.2159464666
 30
0.0
 10
11.2032838
 20
10.2097066814
 30
0.0
 10
11.2069502314
 20
10.2038525209
 30
0.0
 10
11.2106336934
 20
10.1984009994
 30
0.0
 10
11.2143320711
 20
10.1933682288
 30
0.0
 10
11.2180417978
 20
10.1887673396
 30
0.0
 10
11.2217595044
 20
10.1846094704
 30
0.0
 10
11.2243168628
 20
10.1820632708
 30
0.0
 10
11.2255968597
 20
10.180872023
 30
0.0
  0
SPLINE
  5
39C
100
AcDbEntity
  8
0
100
AcDbSpline
 62
7
  6
CONTINUOUS
 70
0
 71
3
 72
23
 73
19
 74
0
 42
0.0000001
 43
0.0000001
 44
0.0000000001
 40
0.0
 40
0.0
 40
0.0
 40
0.0
 40
0.0809714987
 40
0.1598878899
 40
0.2366108848
 40
0.3110078346
 40
0.3829543555
 40
0.452338501
 40
0.5190632519
 40
0.5830593386
 40
0.6442825111
 40
0.7027298252
 40
0.7584316548
 40
0.8114689998
 40
0.8619596659
 40
0.910071818
 40
0.9560056935
 40
1.0
 40
1.0
 40
1.0
 40
1.0
 10
12.1262687631
 20
10.6562316737
 30
0.0
 10
12.1246206976
 20
10.6594096218
 30
0.0
 10
12.1213216291
 20
10.6656618019
 30
0.0
 10
12.1162906014
 20
10.6748340371
 30
0.0
 10
12.1112383492
 20
10.6836613525
 30
0.0
 10
12.1061658128
 20
10.69211981
 30
0.0
 10
12.1010737456
 20
10.7001854939
 30
0.0
 10
12.095964016
 20
10.7078355281
 30
0.0
 10
12.0908378517
 20
10.7150476931
 30
0.0
 10
12.0856981783
 20
10.7218024507
 30
0.0
 10
12.0805466138
 20
10.7280818868
 30
0.0
 10
12.0753869454
 20
10.7338725238
 30
0.0
 10
12.0702210547
 20
10.7391631331
 30
0.0
 10
12.0650532146
 20
10.7439483694
 30
0.0
 10
12.0598854953
 20
10.7482252357
 30
0.0
 10
12.0547221023
 20
10.7519973331
 30
0.0
 10
12.0495656301
 20
10.7552700079
 30
0.0
 10
12.0460654995
 20
10.7571643145
 30
0.0
 10
12.0443216182
 20
10.7580257741
 30
0.0
  0
SPLINE
  5
39D
100
AcDbEntity
  8
0
100
AcDbSpline
 62
7
  6
CONTINUOUS
 70
0
 71
3
 72
46
 73
42
 74
0
 42
0.0000001
 43
0.0000001
 44
0.0000000001
 40
0.0
 40
0.0
 40
0.0
 40
0.0
 40
0.0099874877
 40
0.0204476974
 40
0.0313773321
 40
0.0427709641
 40
0.0546220461
 40
0.0669229866
 40
0.0928356094
 40
0.1204266613
 40
0.1495981687
 40
0.1802404541
 40
0.2122337752
 40
0.2454491038
 40
0.2797499018
 40
0.3149932014
 40
0.3510301972
 40
0.3877076002
 40
0.4248685405
 40
0.462353288
 40
0.500000408
 40
0.5376475404
 40
0.5751322603
 40
0.612293149
 40
0.6489704979
 40
0.6850073789
 40
0.7202505939
 40
0.7545513209
 40
0.7877664595
 40
0.8197596255
 40
0.8504018125
 40
0.8795730869
 40
0.9071639551
 40
0.9203360434
 40
0.9330775683
 40
0.945378314
 40
0.9572292775
 40
0.9686228886
 40
0.9795523843
 40
0.9900125565
 40
1.0
 40
1.0
 40
1.0
 40
1.0
 10
12.0280215585
 20
10.7660776376
 30
0.0
 10
12.0257045665
 20
10.7672221978
 30
0.0
 10
12.0209213594
 20
10.7694860674
 30
0.0
 10
12.0134817726
 20
10.7727396785
 30
0.0
 10
12.0056191325
 20
10.7759260252
 30
0.0
 10
11.9973426435
 20
10.7790416291
 30
0.0
 10
11.9886617195
 20
10.7820829118
 30
0.0
 10
11.9763463803
 20
10.7861037538
 30
0.0
 10
11.9600037098
 20
10.7908981158
 30
0.0
 10
11.9392767707
 20
10.7962064283
 30
0.0
 10
11.9172021241
 20
10.8011405484
 30
0.0
 10
11.8938813742
 20
10.8056773807
 30
0.0
 10
11.8694216348
 20
10.809795473
 30
0.0
 10
11.8439356137
 20
10.8134756773
 30
0.0
 10
11.8175408161
 20
10.8167007943
 30
0.0
 10
11.7903589951
 20
10.8194555777
 30
0.0
 10
11.7625156233
 20
10.8217272648
 30
0.0
 10
11.7341392787
 20
10.8235052877
 30
0.0
 10
11.7053610087
 20
10.8247811876
 30
0.0
 10
11.6763137429
 20
10.8255491052
 30
0.0
 10
11.6471316709
 20
10.8258055146
 30
0.0
 10
11.617949606
 20
10.8255490698
 30
0.0
 10
11.5889023602
 20
10.8247810483
 30
0.0
 10
11.560124127
 20
10.8235051082
 30
0.0
 10
11.5317478407
 20
10.8217270587
 30
0.0
 10
11.5039045431
 20
10.8194552683
 30
0.0
 10
11.4767227969
 20
10.8167004432
 30
0.0
 10
11.4503280925
 20
10.8134753088
 30
0.0
 10
11.424842189
 20
10.8097950067
 30
0.0
 10
11.4003825921
 20
10.8056768676
 30
0.0
 10
11.3770619062
 20
10.8011400507
 30
0.0
 10
11.3549876382
 20
10.7962057781
 30
0.0
 10
11.3374542737
 20
10.7917156184
 30
0.0
 10
11.3241376371
 20
10.7879272894
 30
0.0
 10
11.3146782596
 20
10.7850454169
 30
0.0
 10
11.3056029452
 20
10.7820821834
 30
0.0
 10
11.2969221259
 20
10.7790409177
 30
0.0
 10
11.2886456916
 20
10.7759253582
 30
0.0
 10
11.2807831519
 20
10.7727389007
 30
0.0
 10
11.2733436496
 20
10.7694852414
 30
0.0
 10
11.2685604568
 20
10.7672213914
 30
0.0
 10
11.2662434779
 20
10.7660768303
 30
0.0
  0
SPLINE
  5
39E
100
AcDbEntity
  8
0
100
AcDbSpline
 62
7
  6
CONTINUOUS
 70
0
 71
3
 72
9
 73
5
 74
0
 42
0.0000001
 43
0.0000001
 44
0.0000000001
 40
0.0
 40
0.0
 40
0.0
 40
0.0
 40
0.496008294
 40
1.0
 40
1.0
 40
1.0
 40
1.0
 10
11.2411086344
 20
10.753660739
 30
0.0
 10
11.2313125675
 20
10.7488214659
 30
0.0
 10
11.2118159031
 20
10.7385469526
 30
0.0
 10
11.1928004864
 20
10.7274137725
 30
0.0
 10
11.1833271391
 20
10.7216248974
 30
0.0
  0
SPLINE
  5
39F
100
AcDbEntity
  8
0
100
AcDbSpline
 62
7
  6
CONTINUOUS
 70
0
 71
3
 72
9
 73
5
 74
0
 42
0.0000001
 43
0.0000001
 44
0.0000000001
 40
0.0
 40
0.0
 40
0.0
 40
0.0
 40
0.4867517121
 40
1.0
 40
1.0
 40
1.0
 40
1.0
 10
11.2810527399
 20
10.1770164139
 30
0.0
 10
11.2877906399
 20
10.175047243
 30
0.0
 10
11.3017019417
 20
10.1712345826
 30
0.0
 10
11.315718186
 20
10.1678307232
 30
0.0
 10
11.3229329674
 20
10.1661770272
 30
0.0
  0
SPLINE
  5
3A0
100
AcDbEntity
  8
0
100
AcDbSpline
 62
7
  6
CONTINUOUS
 70
0
 71
3
 72
9
 73
5
 74
0
 42
0.0000001
 43
0.0000001
 44
0.0000000001
 40
0.0
 40
0.0
 40
0.0
 40
0.0
 40
0.2585900006
 40
1.0
 40
1.0
 40
1.0
 40
1.0
 10
12.1109395519
 20
10.2208255661
 30
0.0
 10
12.1115923871
 20
10.2213313755
 30
0.0
 10
12.1140969158
 20
10.2233130264
 30
0.0
 10
12.1165187589
 20
10.2254002652
 30
0.0
 10
12.1182521315
 20
10.2270133498
 30
0.0
  0
SPLINE
  5
3A1
100
AcDbEntity
  8
0
100
AcDbSpline
 62
7
  6
CONTINUOUS
 70
0
 71
3
 72
9
 73
5
 74
0
 42
0.0000001
 43
0.0000001
 44
0.0000000001
 40
0.0
 40
0.0
 40
0.0
 40
0.0
 40
0.5134917843
 40
1.0
 40
1.0
 40
1.0
 40
1.0
 10
12.1109395519
 20
10.6414247919
 30
0.0
 10
12.1124631852
 20
10.6426052859
 30
0.0
 10
12.1153764912
 20
10.6449749903
 30
0.0
 10
12.1181576325
 20
10.6474993952
 30
0.0
 10
12.1194711025
 20
10.6487681099
 30
0.0
  0
SPLINE
  5
3A2
100
AcDbEntity
  8
0
100
AcDbSpline
 62
7
  6
CONTINUOUS
 70
0
 71
3
 72
9
 73
5
 74
0
 42
0.0000001
 43
0.0000001
 44
0.0000000001
 40
0.0
 40
0.0
 40
0.0
 40
0.0
 40
0.4867517121
 40
1.0
 40
1.0
 40
1.0
 40
1.0
 10
11.2810527399
 20
10.5976156397
 30
0.0
 10
11.2877906399
 20
10.5956464687
 30
0.0
 10
11.3017019417
 20
10.5918338083
 30
0.0
 10
11.315718186
 20
10.5884299489
 30
0.0
 10
11.3229329674
 20
10.5867762529
 30
0.0
  0
SPLINE
  5
3A3
100
AcDbEntity
  8
0
100
AcDbSpline
 62
7
  6
CONTINUOUS
 70
0
 71
3
 72
9
 73
5
 74
0
 42
0.0000001
 43
0.0000001
 44
0.0000000001
 40
0.0
 40
0.0
 40
0.0
 40
0.0
 40
0.5135789775
 40
1.0
 40
1.0
 40
1.0
 40
1.0
 10
12.1194711025
 20
10.6487681099
 30
0.0
 10
12.1207148468
 20
10.6499694747
 30
0.0
 10
12.1230685659
 20
10.6523805388
 30
0.0
 10
12.1252550561
 20
10.6549453236
 30
0.0
 10
12.1262687631
 20
10.6562316737
 30
0.0
  0
SPLINE
  5
3A4
100
AcDbEntity
  8
0
100
AcDbSpline
 62
7
  6
CONTINUOUS
 70
0
 71
3
 72
23
 73
19
 74
0
 42
0.0000001
 43
0.0000001
 44
0.0000000001
 40
0.0
 40
0.0
 40
0.0
 40
0.0
 40
0.0421785856
 40
0.0850534373
 40
0.1291226147
 40
0.1749466526
 40
0.2231084649
 40
0.2741717322
 40
0.3286399951
 40
0.3869169438
 40
0.44928418
 40
0.5158962693
 40
0.5867820207
 40
0.6618606059
 40
0.7409667875
 40
0.8238724696
 40
0.910312794
 40
1.0
 40
1.0
 40
1.0
 40
1.0
 10
11.1679979279
 20
10.7068180156
 30
0.0
 10
11.1703159823
 20
10.7068097672
 30
0.0
 10
11.1749930569
 20
10.70657075
 30
0.0
 10
11.1820192176
 20
10.7054912623
 30
0.0
 10
11.1890881791
 20
10.7036272412
 30
0.0
 10
11.1961913374
 20
10.7009208798
 30
0.0
 10
11.2033199089
 20
10.6973227539
 30
0.0
 10
11.2104647748
 20
10.6927943077
 30
0.0
 10
11.2176168989
 20
10.6873089819
 30
0.0
 10
11.2247681616
 20
10.680855119
 30
0.0
 10
11.2319112167
 20
10.6734363342
 30
0.0
 10
11.2390386115
 20
10.665070815
 30
0.0
 10
11.2461437539
 20
10.6557911784
 30
0.0
 10
11.2532211181
 20
10.6456422069
 30
0.0
 10
11.2602656624
 20
10.6346773987
 30
0.0
 10
11.2672737682
 20
10.6229561473
 30
0.0
 10
11.2742430154
 20
10.6105409763
 30
0.0
 10
11.2787835441
 20
10.6019913072
 30
0.0
 10
11.2810527399
 20
10.5976156397
 30
0.0
  0
SPLINE
  5
3A5
100
AcDbEntity
  8
0
100
AcDbSpline
 62
7
  6
CONTINUOUS
 70
0
 71
3
 72
21
 73
17
 74
0
 42
0.0000001
 43
0.0000001
 44
0.0000000001
 40
0.0
 40
0.0
 40
0.0
 40
0.0
 40
0.1230814817
 40
0.1847942657
 40
0.2466337258
 40
0.3086097846
 40
0.3707312098
 40
0.4330051319
 40
0.4954352436
 40
0.5580223626
 40
0.6207641208
 40
0.6836547008
 40
0.7466862848
 40
0.8098488395
 40
0.8731308835
 40
1.0
 40
1.0
 40
1.0
 40
1.0
 10
11.3229329674
 20
10.5867762529
 30
0.0
 10
11.3401856079
 20
10.5900286364
 30
0.0
 10
11.3662167455
 20
10.5942793548
 30
0.0
 10
11.4011533357
 20
10.5984467042
 30
0.0
 10
11.4275200334
 20
10.6007687506
 30
0.0
 10
11.4540071001
 20
10.6022284507
 30
0.0
 10
11.4805911592
 20
10.6027785925
 30
0.0
 10
11.5072430235
 20
10.6023821609
 30
0.0
 10
11.5339295164
 20
10.6010171733
 30
0.0
 10
11.5606152882
 20
10.5986783498
 30
0.0
 10
11.5872649913
 20
10.5953760604
 30
0.0
 10
11.6138456555
 20
10.5911370407
 30
0.0
 10
11.6403284988
 20
10.5860023995
 30
0.0
 10
11.6666903761
 20
10.5800226517
 30
0.0
 10
11.7016810506
 20
10.570993532
 30
0.0
 10
11.7276595092
 20
10.5631435107
 30
0.0
 10
11.7448589463
 20
10.5575155869
 30
0.0
  0
SPLINE
  5
3A6
100
AcDbEntity
  8
0
100
AcDbSpline
 62
7
  6
CONTINUOUS
 70
0
 71
3
 72
28
 73
24
 74
0
 42
0.0000001
 43
0.0000001
 44
0.0000000001
 40
0.0
 40
0.0
 40
0.0
 40
0.0
 40
0.0640274484
 40
0.1279405369
 40
0.1917105404
 40
0.2553123355
 40
0.3187161223
 40
0.3818930725
 40
0.4133919091
 40
0.4448254452
 40
0.4761912782
 40
0.5074882562
 40
0.5387156619
 40
0.5698732312
 40
0.6009621492
 40
0.6319833386
 40
0.6938248821
 40
0.7554274775
 40
0.8168179251
 40
0.8780243018
 40
0.9085700262
 40
0.9390802882
 40
1.0
 40
1.0
 40
1.0
 40
1.0
 10
11.3229329674
 20
10.1661770272
 30
0.0
 10
11.331233818
 20
10.1618939035
 30
0.0
 10
11.3479648777
 20
10.1536105162
 30
0.0
 10
11.373484044
 20
10.1421485299
 30
0.0
 10
11.3994078223
 20
10.1317942674
 30
0.0
 10
11.4257209974
 20
10.1226922114
 30
0.0
 10
11.4523888271
 20
10.114988737
 30
0.0
 10
11.4748842592
 20
10.1098445051
 30
0.0
 10
11.4929883313
 20
10.1065574497
 30
0.0
 10
11.5065955867
 20
10.1045187231
 30
0.0
 10
11.5202309143
 20
10.1029120459
 30
0.0
 10
11.5338807655
 20
10.1017449689
 30
0.0
 10
11.5475306988
 20
10.1010178191
 30
0.0
 10
11.5611666062
 20
10.1007322867
 30
0.0
 10
11.5747746556
 20
10.1008827602
 30
0.0
 10
11.5928434801
 20
10.1016560358
 30
0.0
 10
11.6153029696
 20
10.1036714396
 30
0.0
 10
11.6419839263
 20
10.1076725462
 30
0.0
 10
11.668310288
 20
10.1131232604
 30
0.0
 10
11.6899387606
 20
10.1187590853
 30
0.0
 10
11.7070343555
 20
10.1238504434
 30
0.0
 10
11.7239748767
 20
10.1293006715
 30
0.0
 10
11.7365437212
 20
10.1337791461
 30
0.0
 10
11.7448589463
 20
10.1369163612
 30
0.0
  0
SPLINE
  5
3A7
100
AcDbEntity
  8
0
100
AcDbSpline
 62
7
  6
CONTINUOUS
 70
0
 71
3
 72
23
 73
19
 74
0
 42
0.0000001
 43
0.0000001
 44
0.0000000001
 40
0.0
 40
0.0
 40
0.0
 40
0.0
 40
0.0678267902
 40
0.1349724863
 40
0.2013861734
 40
0.2670282176
 40
0.331868046
 40
0.3958905056
 40
0.459098674
 40
0.5215154569
 40
0.5831842269
 40
0.6441654231
 40
0.7045325895
 40
0.7643678524
 40
0.8237547389
 40
0.882773787
 40
0.9415010872
 40
1.0
 40
1.0
 40
1.0
 40
1.0
 10
11.8020683849
 20
10.561483082
 30
0.0
 10
11.8083435016
 20
10.5653176154
 30
0.0
 10
11.8209268272
 20
10.572792546
 30
0.0
 10
11.8400067848
 20
10.5834155319
 30
0.0
 10
11.8591975166
 20
10.5933328717
 30
0.0
 10
11.8784909823
 20
10.6024811465
 30
0.0
 10
11.8978751647
 20
10.6108003926
 30
0.0
 10
11.9173333274
 20
10.6182370442
 30
0.0
 10
11.9368449681
 20
10.6247463286
 30
0.0
 10
11.9563859808
 20
10.6302970394
 30
0.0
 10
11.9759301003
 20
10.6348739706
 30
0.0
 10
11.9954509502
 20
10.6384776383
 30
0.0
 10
12.0149233853
 20
10.6411256167
 30
0.0
 10
12.034325146
 20
10.6428511818
 30
0.0
 10
12.0536381114
 20
10.6436987846
 30
0.0
 10
12.0728488804
 20
10.6437220169
 30
0.0
 10
12.0919480287
 20
10.6429802944
 30
0.0
 10
12.1046244485
 20
10.6420148231
 30
0.0
 10
12.1109395519
 20
10.6414247919
 30
0.0
  0
SPLINE
  5
3A8
100
AcDbEntity
  8
0
100
AcDbSpline
 62
7
  6
CONTINUOUS
 70
0
 71
3
 72
27
 73
23
 74
0
 42
0.0000001
 43
0.0000001
 44
0.0000000001
 40
0.0
 40
0.0
 40
0.0
 40
0.0
 40
0.0572742999
 40
0.1144994563
 40
0.1717869223
 40
0.2292938811
 40
0.2872150422
 40
0.3457779489
 40
0.3753824125
 40
0.4052383009
 40
0.4353731703
 40
0.4658134574
 40
0.496580671
 40
0.5276935314
 40
0.5591655803
 40
0.5910057323
 40
0.6557946642
 40
0.7220564543
 40
0.7897212757
 40
0.8586828413
 40
0.9288200633
 40
1.0
 40
1.0
 40
1.0
 40
1.0
 10
11.8020683849
 20
10.1408838562
 30
0.0
 10
11.808143656
 20
10.1387496306
 30
0.0
 10
11.8204013791
 20
10.1347933576
 30
0.0
 10
11.8391051606
 20
10.1299315462
 30
0.0
 10
11.8581132243
 20
10.1262840794
 30
0.0
 10
11.8774140407
 20
10.1239937989
 30
0.0
 10
11.896979888
 20
10.1232002788
 30
0.0
 10
11.913411039
 20
10.1238885575
 30
0.0
 10
11.9266098837
 20
10.1252844445
 30
0.0
 10
11.9365758937
 20
10.1267706055
 30
0.0
 10
11.9465618898
 20
10.1286964533
 30
0.0
 10
11.9565573745
 20
10.1310657333
 30
0.0
 10
11.9665523623
 20
10.1338750698
 30
0.0
 10
11.9765357334
 20
10.1371221482
 30
0.0
 10
11.9864979948
 20
10.14079779
 30
0.0
 10
11.9998153965
 20
10.1462887986
 30
0.0
 10
12.0163573096
 20
10.1541838726
 30
0.0
 10
12.0358665234
 20
10.1650978733
 30
0.0
 10
12.0551122663
 20
10.1773623564
 30
0.0
 10
12.0740714872
 20
10.1908279122
 30
0.0
 10
12.0927349204
 20
10.205349693
 30
0.0
 10
12.1048988412
 20
10.2155765807
 30
0.0
 10
12.1109395519
 20
10.2208255661
 30
0.0
  0
SPLINE
  5
3A9
100
AcDbEntity
  8
0
100
AcDbSpline
 62
7
  6
CONTINUOUS
 70
0
 71
3
 72
11
 73
7
 74
0
 42
0.0000001
 43
0.0000001
 44
0.0000000001
 40
0.0
 40
0.0
 40
0.0
 40
0.0
 40
0.2706149479
 40
0.5274053283
 40
0.7704747911
 40
1.0
 40
1.0
 40
1.0
 40
1.0
 10
11.2662434779
 20
10.7660768303
 30
0.0
 10
11.2639849288
 20
10.7649611329
 30
0.0
 10
11.2596182977
 20
10.7627145239
 30
0.0
 10
11.2533654146
 20
10.7591977894
 30
0.0
 10
11.2475883139
 20
10.7556267726
 30
0.0
 10
11.2439555075
 20
10.7531418086
 30
0.0
 10
11.2422249519
 20
10.7518887226
 30
0.0
  0
SPLINE
  5
3AA
100
AcDbEntity
  8
0
100
AcDbSpline
 62
7
  6
CONTINUOUS
 70
0
 71
3
 72
9
 73
5
 74
0
 42
0.0000001
 43
0.0000001
 44
0.0000000001
 40
0.0
 40
0.0
 40
0.0
 40
0.0
 40
0.5180906156
 40
1.0
 40
1.0
 40
1.0
 40
1.0
 10
11.2422249519
 20
10.7518887226
 30
0.0
 10
11.2403267921
 20
10.7505142754
 30
0.0
 10
11.2367396106
 20
10.7477531246
 30
0.0
 10
11.2333530931
 20
10.7447467653
 30
0.0
 10
11.2317852156
 20
10.7432323118
 30
0.0
  0
SPLINE
  5
3AB
100
AcDbEntity
  8
0
100
AcDbSpline
 62
7
  6
CONTINUOUS
 70
0
 71
3
 72
21
 73
17
 74
0
 42
0.0000001
 43
0.0000001
 44
0.0000000001
 40
0.0
 40
0.0
 40
0.0
 40
0.0
 40
0.0777184714
 40
0.1509844854
 40
0.2201919876
 40
0.2858049512
 40
0.3483762676
 40
0.408511364
 40
0.4668501382
 40
0.524040419
 40
0.5806986783
 40
0.6373921441
 40
0.6946119011
 40
0.7527677984
 40
0.8730351627
 40
1.0
 40
1.0
 40
1.0
 40
1.0
 10
11.2255968597
 20
10.180872023
 30
0.0
 10
11.2267586246
 20
10.1797908096
 30
0.0
 10
11.2290808986
 20
10.1777586471
 30
0.0
 10
11.2326697235
 20
10.1750430419
 30
0.0
 10
11.2362534246
 20
10.1727507541
 30
0.0
 10
11.2398297707
 20
10.1708794408
 30
0.0
 10
11.2433950537
 20
10.1694221291
 30
0.0
 10
11.2469460697
 20
10.168370367
 30
0.0
 10
11.2504793478
 20
10.1677138281
 30
0.0
 10
11.253991216
 20
10.1674384777
 30
0.0
 10
11.2574787121
 20
10.1675301543
 30
0.0
 10
11.2609393435
 20
10.16797181
 30
0.0
 10
11.2643717832
 20
10.168746217
 30
0.0
 10
11.2689595676
 20
10.1702152356
 30
0.0
 10
11.2746459626
 20
10.1728338242
 30
0.0
 10
11.2789296728
 20
10.1755282663
 30
0.0
 10
11.2810527399
 20
10.1770164139
 30
0.0
  0
SPLINE
  5
3AC
100
AcDbEntity
  8
0
100
AcDbSpline
 62
7
  6
CONTINUOUS
 70
0
 71
3
 72
55
 73
51
 74
0
 42
0.0000001
 43
0.0000001
 44
0.0000000001
 40
0.0
 40
0.0
 40
0.0
 40
0.0
 40
0.0077403341
 40
0.0160536402
 40
0.0249598623
 40
0.0344711287
 40
0.0445943245
 40
0.0553311103
 40
0.0666791717
 40
0.0786331753
 40
0.0911842811
 40
0.1043217537
 40
0.1180322524
 40
0.1323005199
 40
0.147109859
 40
0.1624414338
 40
0.1782755067
 40
0.1945906822
 40
0.2285722865
 40
0.2641945926
 40
0.3012498561
 40
0.3395178674
 40
0.37876815
 40
0.4187620874
 40
0.4592551245
 40
0.4999987486
 40
0.5407423938
 40
0.5812354618
 40
0.6212294331
 40
0.6604797572
 40
0.6987478627
 40
0.7358032525
 40
0.7714256644
 40
0.8054073565
 40
0.8217226506
 40
0.8375567141
 40
0.8528884296
 40
0.8676978103
 40
0.8819661512
 40
0.8956767913
 40
0.9088142361
 40
0.9213654962
 40
0.9333195839
 40
0.9446677912
 40
0.955404691
 40
0.9655276214
 40
0.9750389343
 40
0.9839457869
 40
0.992260156
 40
1.0
 40
1.0
 40
1.0
 40
1.0
 10
11.2352656716
 20
10.1718740352
 30
0.0
 10
11.2368736295
 20
10.1703777035
 30
0.0
 10
11.2403350149
 20
10.1674085054
 30
0.0
 10
11.2460133318
 20
10.1631676788
 30
0.0
 10
11.2523499825
 20
10.1589910017
 30
0.0
 10
11.2593343507
 20
10.1548846023
 30
0.0
 10
11.2669558006
 20
10.150855158
 30
0.0
 10
11.2752020515
 20
10.1469088772
 30
0.0
 10
11.2840598889
 20
10.1430520454
 30
0.0
 10
11.2935150864
 20
10.1392912773
 30
0.0
 10
11.3035521907
 20
10.1356323132
 30
0.0
 10
11.3141549353
 20
10.1320815566
 30
0.0
 10
11.3253059497
 20
10.1286446857
 30
0.0
 10
11.3369869816
 20
10.1253273344
 30
0.0
 10
11.3491789058
 20
10.1221352568
 30
0.0
 10
11.3618616576
 20
10.1190733975
 30
0.0
 10
11.3750144443
 20
10.1161471032
 30
0.0
 10
11.3933995037
 20
10.1123813348
 30
0.0
 10
11.4174002846
 20
10.1080668687
 30
0.0
 10
11.4473343517
 20
10.1035669296
 30
0.0
 10
11.4785834376
 20
10.0997071089
 30
0.0
 10
11.5109419082
 20
10.0965132274
 30
0.0
 10
11.5441969968
 20
10.0940066873
 30
0.0
 10
11.5781298152
 20
10.0922042166
 30
0.0
 10
11.6125169885
 20
10.0911178676
 30
0.0
 10
11.6471321127
 20
10.0907549055
 30
0.0
 10
11.6817472467
 20
10.0911177958
 30
0.0
 10
11.7161344458
 20
10.0922041049
 30
0.0
 10
11.7500672962
 20
10.0940065416
 30
0.0
 10
11.7833224356
 20
10.0965130449
 30
0.0
 10
11.8156809875
 20
10.0997068587
 30
0.0
 10
11.8469301744
 20
10.1035666149
 30
0.0
 10
11.8768643422
 20
10.1080665032
 30
0.0
 10
11.9008652058
 20
10.1123810012
 30
0.0
 10
11.919250347
 20
10.1161466515
 30
0.0
 10
11.9324031899
 20
10.1190730192
 30
0.0
 10
11.9450860155
 20
10.12213478
 30
0.0
 10
11.9572780111
 20
10.1253268749
 30
0.0
 10
11.9689591143
 20
10.128644237
 30
0.0
 10
11.9801102164
 20
10.1320810067
 30
0.0
 10
11.990713012
 20
10.1356318494
 30
0.0
 10
12.0007502212
 20
10.1392906983
 30
0.0
 10
12.0102055172
 20
10.1430515188
 30
0.0
 10
12.0190634365
 20
10.1469084012
 30
0.0
 10
12.0273097566
 20
10.1508545368
 30
0.0
 10
12.0349311707
 20
10.1548839814
 30
0.0
 10
12.0419157556
 20
10.1589902434
 30
0.0
 10
12.0482527614
 20
10.1631672913
 30
0.0
 10
12.0539312719
 20
10.1674084169
 30
0.0
 10
12.0573929131
 20
10.1703775644
 30
0.0
 10
12.0590007883
 20
10.1718737808
 30
0.0
  0
SPLINE
  5
3AD
100
AcDbEntity
  8
0
100
AcDbSpline
 62
7
  6
CONTINUOUS
 70
0
 71
3
 72
69
 73
65
 74
0
 42
0.0000001
 43
0.0000001
 44
0.0000000001
 40
0.0
 40
0.0
 40
0.0
 40
0.0
 40
0.0078486444
 40
0.011525491
 40
0.0150505467
 40
0.0216952296
 40
0.024852921
 40
0.0279250607
 40
0.0309333397
 40
0.0339009863
 40
0.0368522248
 40
0.0398117036
 40
0.0428038878
 40
0.0458523906
 40
0.0489793775
 40
0.052205239
 40
0.0590208104
 40
0.0626451385
 40
0.0664292117
 40
0.0745139269
 40
0.08334171
 40
0.0929552291
 40
0.1033806187
 40
0.114631552
 40
0.126711678
 40
0.1396167584
 40
0.1533361209
 40
0.1678536007
 40
0.1831486278
 40
0.1991964446
 40
0.2159691279
 40
0.2334353586
 40
0.2515614594
 40
0.2703108941
 40
0.2896453365
 40
0.3095240288
 40
0.3299048522
 40
0.3719941041
 40
0.4155466199
 40
0.4601767864
 40
0.5054862054
 40
0.5510685731
 40
0.5965143891
 40
0.6414157219
 40
0.6853710257
 40
0.7279898963
 40
0.7486810452
 40
0.7688992635
 40
0.7886011676
 40
0.807744993
 40
0.8262908348
 40
0.8442008993
 40
0.8614395705
 40
0.8779739633
 40
0.8937737718
 40
0.9088121872
 40
0.9230656404
 40
0.9365152112
 40
0.9491461963
 40
0.9609499952
 40
0.9719245224
 40
0.9820776763
 40
0.9914266394
 40
1.0
 40
1.0
 40
1.0
 40
1.0
 10
11.2317852156
 20
10.7432323118
 30
0.0
 10
11.2300434138
 20
10.7415498604
 30
0.0
 10
11.2275972281
 20
10.738956195
 30
0.0
 10
11.2247232439
 20
10.7353051353
 30
0.0
 10
11.2222984367
 20
10.7317853008
 30
0.0
 10
11.2203135441
 20
10.7281629076
 30
0.0
 10
11.2188433631
 20
10.7244683322
 30
0.0
 10
11.2180179737
 20
10.72173613
 30
0.0
 10
11.2174527405
 20
10.7189982428
 30
0.0
 10
11.2171481756
 20
10.7162565912
 30
0.0
 10
11.2171045971
 20
10.7135134185
 30
0.0
 10
11.2173221021
 20
10.7107709687
 30
0.0
 10
11.217800663
 20
10.7080315076
 30
0.0
 10
11.2185395293
 20
10.7052972059
 30
0.0
 10
11.2195376718
 20
10.7025698
 30
0.0
 10
11.2212435474
 20
10.6988780647
 30
0.0
 10
11.2234564175
 20
10.6952687956
 30
0.0
 10
11.2261001774
 20
10.6917636469
 30
0.0
 10
11.2292047294
 20
10.6881249411
 30
0.0
 10
11.2337524304
 20
10.6836247239
 30
0.0
 10
11.240080232
 20
10.6784195491
 30
0.0
 10
11.247380823
 20
10.6733042494
 30
0.0
 10
11.2556372319
 20
10.6682892277
 30
0.0
 10
11.2648312741
 20
10.6633853258
 30
0.0
 10
11.274941858
 20
10.6586036144
 30
0.0
 10
11.2859456113
 20
10.6539552966
 30
0.0
 10
11.2978167477
 20
10.6494514501
 30
0.0
 10
11.3105272337
 20
10.645102809
 30
0.0
 10
11.3240468954
 20
10.6409200014
 30
0.0
 10
11.3383434897
 20
10.6369129805
 30
0.0
 10
11.3533828496
 20
10.6330916784
 30
0.0
 10
11.3691289469
 20
10.6294651185
 30
0.0
 10
11.3855440187
 20
10.6260423817
 30
0.0
 10
11.4025886568
 20
10.6228314679
 30
0.0
 10
11.4202218921
 20
10.6198405061
 30
0.0
 10
11.438401374
 20
10.6170763627
 30
0.0
 10
11.4635809103
 20
10.6136662925
 30
0.0
 10
11.4960973412
 20
10.6100372191
 30
0.0
 10
11.5361603674
 20
10.6067218159
 30
0.0
 10
11.5772901951
 20
10.6044334193
 30
0.0
 10
11.6190913035
 20
10.6031944331
 30
0.0
 10
11.6611620058
 20
10.6030170495
 30
0.0
 10
11.7030978274
 20
10.6039030106
 30
0.0
 10
11.7444957524
 20
10.6058435902
 30
0.0
 10
11.784957647
 20
10.6088198213
 30
0.0
 10
11.8178891765
 20
10.6121705322
 30
0.0
 10
11.8434639414
 20
10.6153632055
 30
0.0
 10
11.8619833431
 20
10.6179721539
 30
0.0
 10
11.879985506
 20
10.6208126266
 30
0.0
 10
11.8974271845
 20
10.623877761
 30
0.0
 10
11.9142664359
 20
10.627160173
 30
0.0
 10
11.930462818
 20
10.6306517891
 30
0.0
 10
11.9459774416
 20
10.6343442922
 30
0.0
 10
11.960773127
 20
10.6382285155
 30
0.0
 10
11.9748144272
 20
10.6422952938
 30
0.0
 10
11.9880678438
 20
10.6465344429
 30
0.0
 10
12.0005017777
 20
10.6509360858
 30
0.0
 10
12.0120868355
 20
10.6554892167
 30
0.0
 10
12.0227955492
 20
10.6601834026
 30
0.0
 10
12.0326030811
 20
10.6650068754
 30
0.0
 10
12.0414867156
 20
10.6699490741
 30
0.0
 10
12.0494269526
 20
10.6749989189
 30
0.0
 10
12.0564042979
 20
10.6801452196
 30
0.0
 10
12.0605788418
 20
10.6837855275
 30
0.0
 10
12.0624814754
 20
10.6856233306
 30
0.0
  0
SPLINE
  5
3AE
100
AcDbEntity
  8
0
100
AcDbSpline
 62
7
  6
CONTINUOUS
 70
0
 71
3
 72
28
 73
24
 74
0
 42
0.0000001
 43
0.0000001
 44
0.0000000001
 40
0.0
 40
0.0
 40
0.0
 40
0.0
 40
0.0683417894
 40
0.1318944582
 40
0.1911916903
 40
0.2469424229
 40
0.2737771035
 40
0.300072871
 40
0.3259647135
 40
0.3515944959
 40
0.3771085711
 40
0.4026553861
 40
0.4283829391
 40
0.454436097
 40
0.5080318425
 40
0.5644895246
 40
0.594076777
 40
0.6246829784
 40
0.6892404913
 40
0.7587126008
 40
0.8334899805
 40
0.91385377
 40
1.0
 40
1.0
 40
1.0
 40
1.0
 10
12.0624814754
 20
10.6856233306
 30
0.0
 10
12.0639458406
 20
10.6870377988
 30
0.0
 10
12.0666665808
 20
10.6898807251
 30
0.0
 10
12.0702049146
 20
10.6943563018
 30
0.0
 10
12.073036266
 20
10.698874873
 30
0.0
 10
12.0748213955
 20
10.7027214293
 30
0.0
 10
12.0758677788
 20
10.70579426
 30
0.0
 10
12.0764623236
 20
10.7080743913
 30
0.0
 10
12.0768757957
 20
10.7103577664
 30
0.0
 10
12.0771080735
 20
10.7126433012
 30
0.0
 10
12.077158998
 20
10.7149297967
 30
0.0
 10
12.0770285305
 20
10.7172160246
 30
0.0
 10
12.0767165925
 20
10.7195008728
 30
0.0
 10
12.0760530879
 20
10.7225719234
 30
0.0
 10
12.0747488302
 20
10.7264272823
 30
0.0
 10
12.0728838901
 20
10.7301591241
 30
0.0
 10
12.0710572467
 20
10.7331172468
 30
0.0
 10
12.0689270043
 20
10.7361647671
 30
0.0
 10
12.0657960198
 20
10.7399515112
 30
0.0
 10
12.0614054407
 20
10.7443680459
 30
0.0
 10
12.0563240156
 20
10.7487309931
 30
0.0
 10
12.0505605311
 20
10.7530341976
 30
0.0
 10
12.0464146993
 20
10.7557631782
 30
0.0
 10
12.0442365545
 20
10.7571203303
 30
0.0
  0
SPLINE
  5
3AF
100
AcDbEntity
  8
0
100
AcDbSpline
 62
7
  6
CONTINUOUS
 70
0
 71
3
 72
9
 73
5
 74
0
 42
0.0000001
 43
0.0000001
 44
0.0000000001
 40
0.0
 40
0.0
 40
0.0
 40
0.0
 40
0.4830467495
 40
1.0
 40
1.0
 40
1.0
 40
1.0
 10
12.0442365545
 20
10.7571203303
 30
0.0
 10
12.0417042474
 20
10.7586981528
 30
0.0
 10
12.0363665673
 20
10.7618129049
 30
0.0
 10
12.0308843813
 20
10.764663445
 30
0.0
 10
12.0280215585
 20
10.7660776376
 30
0.0
  0
SPLINE
  5
3B0
100
AcDbEntity
  8
0
100
AcDbSpline
 62
7
  6
CONTINUOUS
 70
0
 71
3
 72
19
 73
15
 74
0
 42
0.0000001
 43
0.0000001
 44
0.0000000001
 40
0.0
 40
0.0
 40
0.0
 40
0.0
 40
0.1504607152
 40
0.2916988954
 40
0.4244197706
 40
0.4878838785
 40
0.549580297
 40
0.6682271827
 40
0.7255606102
 40
0.7817998481
 40
0.8371466355
 40
0.8918135538
 40
0.9460221503
 40
1.0
 40
1.0
 40
1.0
 40
1.0
 10
12.3344081361
 20
8.4595999073
 30
0.0
 10
12.3357510129
 20
8.4608970267
 30
0.0
 10
12.3384349271
 20
8.463330794
 30
0.0
 10
12.3425907048
 20
8.4665740728
 30
0.0
 10
12.3461009208
 20
8.4688678926
 30
0.0
 10
12.3489000868
 20
8.4704212016
 30
0.0
 10
12.3516166759
 20
8.4717547406
 30
0.0
 10
12.3543650684
 20
8.4728447935
 30
0.0
 10
12.357128926
 20
8.4736650563
 30
0.0
 10
12.3591724476
 20
8.4741378527
 30
0.0
 10
12.3612091641
 20
8.4744748452
 30
0.0
 10
12.3632385409
 20
8.4746758536
 30
0.0
 10
12.3652597565
 20
8.4747407962
 30
0.0
 10
12.3666025939
 20
8.4746932959
 30
0.0
 10
12.3672707901
 20
8.474646954
 30
0.0
  0
SPLINE
  5
3B1
100
AcDbEntity
  8
0
100
AcDbSpline
 62
7
  6
CONTINUOUS
 70
0
 71
3
 72
36
 73
32
 74
0
 42
0.0000001
 43
0.0000001
 44
0.0000000001
 40
0.0
 40
0.0
 40
0.0
 40
0.0
 40
0.0916962898
 40
0.1811618425
 40
0.2679298174
 40
0.3101617831
 40
0.3515528884
 40
0.3920508491
 40
0.4316051136
 40
0.4701670897
 40
0.5076902599
 40
0.5441302807
 40
0.5794453006
 40
0.6135961286
 40
0.6465463769
 40
0.6782628744
 40
0.7087159643
 40
0.7378797695
 40
0.7657327896
 40
0.7922584677
 40
0.8174457516
 40
0.8412900974
 40
0.8637946067
 40
0.8849712835
 40
0.9048429411
 40
0.9234455356
 40
0.9408308663
 40
0.9570701431
 40
0.97225807
 40
0.9865168954
 40
1.0
 40
1.0
 40
1.0
 40
1.0
 10
11.5354049277
 20
10.0327464757
 30
0.0
 10
11.5249829624
 20
10.0334692415
 30
0.0
 10
11.5044065685
 20
10.0351099732
 30
0.0
 10
11.4740355345
 20
10.0381987599
 30
0.0
 10
11.4493352571
 20
10.0412862695
 30
0.0
 10
11.4301202337
 20
10.0440528067
 30
0.0
 10
11.4161499829
 20
10.0462474288
 30
0.0
 10
11.4025110187
 20
10.0485772052
 30
0.0
 10
11.3892228713
 20
10.0510388176
 30
0.0
 10
11.3763045816
 20
10.0536287044
 30
0.0
 10
11.363774649
 20
10.0563431263
 30
0.0
 10
11.3516510174
 20
10.0591781868
 30
0.0
 10
11.3399510338
 20
10.0621297939
 30
0.0
 10
11.3286914268
 20
10.0651936823
 30
0.0
 10
11.3178882897
 20
10.0683654541
 30
0.0
 10
11.3075570413
 20
10.0716405385
 30
0.0
 10
11.2977124011
 20
10.0750142088
 30
0.0
 10
11.2883683805
 20
10.0784816344
 30
0.0
 10
11.2795382404
 20
10.0820378456
 30
0.0
 10
11.2712344632
 20
10.0856777456
 30
0.0
 10
11.2634687521
 20
10.0893961808
 30
0.0
 10
11.2562519895
 20
10.0931879205
 30
0.0
 10
11.2495942036
 20
10.0970476737
 30
0.0
 10
11.2435045912
 20
10.1009701944
 30
0.0
 10
11.2379914976
 20
10.1049503043
 30
0.0
 10
11.233062419
 20
10.1089829231
 30
0.0
 10
11.2287241179
 20
10.1130632754
 30
0.0
 10
11.2249828131
 20
10.1171867709
 30
0.0
 10
11.2218442161
 20
10.1213495006
 30
0.0
 10
11.2193145557
 20
10.1255463213
 30
0.0
 10
11.2180067438
 20
10.1284342775
 30
0.0
 10
11.2174672801
 20
10.1298725724
 30
0.0
  0
SPLINE
  5
3B2
100
AcDbEntity
  8
0
100
AcDbSpline
 62
7
  6
CONTINUOUS
 70
0
 71
3
 72
44
 73
40
 74
0
 42
0.0000001
 43
0.0000001
 44
0.0000000001
 40
0.0
 40
0.0
 40
0.0
 40
0.0
 40
0.0311441543
 40
0.0624413527
 40
0.0938856704
 40
0.1254674301
 40
0.1571744232
 40
0.1889918967
 40
0.2209029056
 40
0.2528886665
 40
0.2849289365
 40
0.3170024165
 40
0.3490871655
 40
0.3811610253
 40
0.4132020474
 40
0.4451889174
 40
0.477101372
 40
0.5089205996
 40
0.5406296198
 40
0.5722136396
 40
0.603660374
 40
0.6349603231
 40
0.6661070065
 40
0.6970971441
 40
0.7279307688
 40
0.7586112764
 40
0.7891454071
 40
0.8195431409
 40
0.8498175195
 40
0.8649161013
 40
0.8799900027
 40
0.8950415891
 40
0.9100733537
 40
0.9250879052
 40
0.9400879559
 40
0.9550763011
 40
0.9700558055
 40
0.9850293877
 40
1.0
 40
1.0
 40
1.0
 40
1.0
 10
10.6740678266
 20
7.1659883772
 30
0.0
 10
10.6844461257
 20
7.1652686397
 30
0.0
 10
10.7052087641
 20
7.1630659749
 30
0.0
 10
10.7361009947
 20
7.157517402
 30
0.0
 10
10.7666623427
 20
7.1497455353
 30
0.0
 10
10.7967277493
 20
7.139792127
 30
0.0
 10
10.8261374878
 20
7.1277105351
 30
0.0
 10
10.8547346855
 20
7.1135654183
 30
0.0
 10
10.8823669902
 20
7.097432336
 30
0.0
 10
10.9088871524
 20
7.0793974222
 30
0.0
 10
10.9341538943
 20
7.0595569425
 30
0.0
 10
10.9580325778
 20
7.0380167016
 30
0.0
 10
10.9803959285
 20
7.014891518
 30
0.0
 10
11.0011247761
 20
6.9903046805
 30
0.0
 10
11.0201086082
 20
6.9643872149
 30
0.0
 10
11.0372461381
 20
6.9372771995
 30
0.0
 10
11.0524459345
 20
6.909119101
 30
0.0
 10
11.06562685
 20
6.8800629644
 30
0.0
 10
11.0767184031
 20
6.8502636102
 30
0.0
 10
11.0856612335
 20
6.8198798601
 30
0.0
 10
11.0924074291
 20
6.7890736901
 30
0.0
 10
11.0969206971
 20
6.7580093576
 30
0.0
 10
11.0991766064
 20
6.7268525556
 30
0.0
 10
11.0991628148
 20
6.6957695493
 30
0.0
 10
11.0968790167
 20
6.6649262503
 30
0.0
 10
11.0923370278
 20
6.6344874811
 30
0.0
 10
11.0855606238
 20
6.6046156158
 30
0.0
 10
11.0765862112
 20
6.5754714418
 30
0.0
 10
11.0673050924
 20
6.5518954045
 30
0.0
 10
11.0588357431
 20
6.5335616542
 30
0.0
 10
11.0519747415
 20
6.5200987782
 30
0.0
 10
11.0446090817
 20
6.5069310449
 30
0.0
 10
11.0367484551
 20
6.4940758078
 30
0.0
 10
11.028403401
 20
6.4815503132
 30
0.0
 10
11.0195850858
 20
6.4693712535
 30
0.0
 10
11.0103052531
 20
6.457554964
 30
0.0
 10
11.0005762701
 20
6.4461171593
 30
0.0
 10
10.9904113756
 20
6.4350733115
 30
0.0
 10
10.983352404
 20
6.4279825129
 30
0.0
 10
10.979755621
 20
6.4245082961
 30
0.0
  0
SPLINE
  5
3B3
100
AcDbEntity
  8
0
100
AcDbSpline
 62
7
  6
CONTINUOUS
 70
0
 71
3
 72
46
 73
42
 74
0
 42
0.0000001
 43
0.0000001
 44
0.0000000001
 40
0.0
 40
0.0
 40
0.0
 40
0.0
 40
0.031143804
 40
0.0624406641
 40
0.0938846266
 40
0.1254660369
 40
0.1571726773
 40
0.188989797
 40
0.2209004514
 40
0.2528858567
 40
0.2849257707
 40
0.3169988946
 40
0.3490832879
 40
0.3811567922
 40
0.4131974593
 40
0.4451839758
 40
0.4770960786
 40
0.5089149549
 40
0.5406236259
 40
0.5722072995
 40
0.6036536882
 40
0.6349532936
 40
0.6660996371
 40
0.6970894354
 40
0.727922722
 40
0.7586028953
 40
0.7891366922
 40
0.8043544294
 40
0.8195395762
 40
0.8346938584
 40
0.8498191748
 40
0.8649175902
 40
0.8799913269
 40
0.8950427481
 40
0.9100743467
 40
0.9250887336
 40
0.940088619
 40
0.9550767983
 40
0.9700561375
 40
0.9850295542
 40
1.0
 40
1.0
 40
1.0
 40
1.0
 10
10.6740678266
 20
9.2523882856
 30
0.0
 10
10.6852716548
 20
9.2516112975
 30
0.0
 10
10.7076858364
 20
9.2492334234
 30
0.0
 10
10.7410353578
 20
9.2432435057
 30
0.0
 10
10.7740276787
 20
9.23485344
 30
0.0
 10
10.8064846055
 20
9.2241083042
 30
0.0
 10
10.8382337185
 20
9.2110657162
 30
0.0
 10
10.8691056598
 20
9.1957954621
 30
0.0
 10
10.8989359484
 20
9.1783790953
 30
0.0
 10
10.9275656478
 20
9.1589096439
 30
0.0
 10
10.9548422305
 20
9.1374910054
 30
0.0
 10
10.9806203233
 20
9.1142373744
 30
0.0
 10
11.004762574
 20
9.0892727539
 30
0.0
 10
11.0271403201
 20
9.0627302186
 30
0.0
 10
11.0476342145
 20
9.0347511842
 30
0.0
 10
11.0661349702
 20
9.0054847558
 30
0.0
 10
11.0825438848
 20
8.9750868845
 30
0.0
 10
11.0967732917
 20
8.9437195184
 30
0.0
 10
11.1087471527
 20
8.9115498198
 30
0.0
 10
11.1184014188
 20
8.8787492489
 30
0.0
 10
11.1256842833
 20
8.8454926398
 30
0.0
 10
11.1305565983
 20
8.8119573343
 30
0.0
 10
11.1329920502
 20
8.7783221869
 30
0.0
 10
11.1329772491
 20
8.7447667604
 30
0.0
 10
11.1305117766
 20
8.7114698673
 30
0.0
 10
11.1256088228
 20
8.6786105572
 30
0.0
 10
11.1195049459
 20
8.6517037542
 30
0.0
 10
11.1134336988
 20
8.630580277
 30
0.0
 10
11.1082980514
 20
8.6149709362
 30
0.0
 10
11.1025825169
 20
8.5996002499
 30
0.0
 10
11.0962946184
 20
8.5844884779
 30
0.0
 10
11.089442771
 20
8.5696558896
 30
0.0
 10
11.0820361531
 20
8.5551222649
 30
0.0
 10
11.0740846039
 20
8.5409070555
 30
0.0
 10
11.065598754
 20
8.5270292513
 30
0.0
 10
11.0565899691
 20
8.5135073781
 30
0.0
 10
11.0470702293
 20
8.5003595335
 30
0.0
 10
11.0370522845
 20
8.487603296
 30
0.0
 10
11.0265494832
 20
8.4752556278
 30
0.0
 10
11.0155760451
 20
8.4633332974
 30
0.0
 10
11.00795562
 20
8.455678424
 30
0.0
 10
11.0040727415
 20
8.4519278476
 30
0.0
  0
SPLINE
  5
3B4
100
AcDbEntity
  8
0
100
AcDbSpline
 62
7
  6
CONTINUOUS
 70
0
 71
3
 72
19
 73
15
 74
0
 42
0.0000001
 43
0.0000001
 44
0.0000000001
 40
0.0
 40
0.0
 40
0.0
 40
0.0
 40
0.1568987968
 40
0.3046383701
 40
0.4431419751
 40
0.5724171843
 40
0.6336364713
 40
0.692580893
 40
0.7492698234
 40
0.8037269827
 40
0.8559823363
 40
0.9060770293
 40
0.9540631272
 40
1.0
 40
1.0
 40
1.0
 40
1.0
 10
10.6792973568
 20
9.1005385452
 30
0.0
 10
10.6795853087
 20
9.0969397127
 30
0.0
 10
10.6804460925
 20
9.0899715741
 30
0.0
 10
10.6826224506
 20
9.0799948301
 30
0.0
 10
10.6855454518
 20
9.0708757464
 30
0.0
 10
10.6885681469
 20
9.0639189673
 30
0.0
 10
10.691271671
 20
9.0588531066
 30
0.0
 10
10.693381125
 20
9.0553705311
 30
0.0
 10
10.6955953163
 20
9.0521405865
 30
0.0
 10
10.6979007098
 20
9.0491674642
 30
0.0
 10
10.7002838086
 20
9.0464550576
 30
0.0
 10
10.7027315288
 20
9.0440069168
 30
0.0
 10
10.7052306063
 20
9.0418266268
 30
0.0
 10
10.7069595342
 20
9.0405258237
 30
0.0
 10
10.7078286167
 20
9.0399241445
 30
0.0
  0
SPLINE
  5
3B5
100
AcDbEntity
  8
0
100
AcDbSpline
 62
7
  6
CONTINUOUS
 70
0
 71
3
 72
33
 73
29
 74
0
 42
0.0000001
 43
0.0000001
 44
0.0000000001
 40
0.0
 40
0.0
 40
0.0
 40
0.0
 40
0.0313360643
 40
0.0626338633
 40
0.0938905466
 40
0.1251092997
 40
0.1562924
 40
0.187444356
 40
0.2185710717
 40
0.2496796831
 40
0.2807783152
 40
0.3118757538
 40
0.3429812686
 40
0.3741041223
 40
0.405253158
 40
0.4364364702
 40
0.4676610799
 40
0.4989324759
 40
0.5616109409
 40
0.6244907318
 40
0.6560018885
 40
0.6875426981
 40
0.7190994709
 40
0.7506550953
 40
0.8136635365
 40
0.8763819067
 40
0.9385751417
 40
1.0
 40
1.0
 40
1.0
 40
1.0
 10
10.9033782083
 20
6.7586674602
 30
0.0
 10
10.8999356446
 20
6.7587724366
 30
0.0
 10
10.8930588626
 20
6.7591655934
 30
0.0
 10
10.8827979905
 20
6.76030877
 30
0.0
 10
10.872626638
 20
6.7620050561
 30
0.0
 10
10.8625753318
 20
6.7642510066
 30
0.0
 10
10.8526730386
 20
6.7670405068
 30
0.0
 10
10.8429478099
 20
6.7703643685
 30
0.0
 10
10.8334260353
 20
6.7742107648
 30
0.0
 10
10.8241323194
 20
6.7785655264
 30
0.0
 10
10.8150892906
 20
6.7834124575
 30
0.0
 10
10.8063175106
 20
6.7887337019
 30
0.0
 10
10.7978354166
 20
6.7945100183
 30
0.0
 10
10.7896594394
 20
6.8007211873
 30
0.0
 10
10.7818041335
 20
6.8073463164
 30
0.0
 10
10.774282397
 20
6.8143639711
 30
0.0
 10
10.7671053992
 20
6.8217526482
 30
0.0
 10
10.7580037366
 20
6.8320756798
 30
0.0
 10
10.747535101
 20
6.845803488
 30
0.0
 10
10.7383496452
 20
6.8604494685
 30
0.0
 10
10.7317863262
 20
6.8726397856
 30
0.0
 10
10.7272592638
 20
6.8820048674
 30
0.0
 10
10.7231381685
 20
6.8915607873
 30
0.0
 10
10.7181959278
 20
6.9045155334
 30
0.0
 10
10.7130654391
 20
6.9210470684
 30
0.0
 10
10.7086197026
 20
6.9412421614
 30
0.0
 10
10.7059215636
 20
6.9615679264
 30
0.0
 10
10.7052997305
 20
6.9751611829
 30
0.0
 10
10.7052928781
 20
6.9819124191
 30
0.0
  0
SPLINE
  5
3B6
100
AcDbEntity
  8
0
100
AcDbSpline
 62
7
  6
CONTINUOUS
 70
0
 71
3
 72
34
 73
30
 74
0
 42
0.0000001
 43
0.0000001
 44
0.0000000001
 40
0.0
 40
0.0
 40
0.0
 40
0.0
 40
0.0324786263
 40
0.0648608656
 40
0.0971178534
 40
0.1292269015
 40
0.1611701296
 40
0.1929359566
 40
0.224518714
 40
0.2559185706
 40
0.2871409433
 40
0.3181958018
 40
0.3490969971
 40
0.3798615267
 40
0.4105087507
 40
0.441059665
 40
0.4715364193
 40
0.5019621361
 40
0.5323602221
 40
0.5627540903
 40
0.5931675577
 40
0.623624183
 40
0.6847495302
 40
0.7463260608
 40
0.7773429592
 40
0.8085364912
 40
0.8715144854
 40
0.9353549666
 40
1.0
 40
1.0
 40
1.0
 40
1.0
 10
10.9339472506
 20
8.7861848972
 30
0.0
 10
10.9299483135
 20
8.7864351047
 30
0.0
 10
10.9219737148
 20
8.7871438251
 30
0.0
 10
10.9101079204
 20
8.7888411542
 30
0.0
 10
10.898395978
 20
8.7911711345
 30
0.0
 10
10.8868820255
 20
8.7941268902
 30
0.0
 10
10.8756066433
 20
8.7976958452
 30
0.0
 10
10.8646067489
 20
8.8018601392
 30
0.0
 10
10.8539146679
 20
8.8065976288
 30
0.0
 10
10.8435578164
 20
8.8118827962
 30
0.0
 10
10.83355857
 20
8.817687783
 30
0.0
 10
10.8239343918
 20
8.8239833497
 30
0.0
 10
10.8146981093
 20
8.8307397189
 30
0.0
 10
10.8058583532
 20
8.8379273349
 30
0.0
 10
10.7974201008
 20
8.8455174728
 30
0.0
 10
10.7893852182
 20
8.8534826666
 30
0.0
 10
10.7817529391
 20
8.8617970182
 30
0.0
 10
10.774520391
 20
8.870436425
 30
0.0
 10
10.7676830873
 20
8.8793787267
 30
0.0
 10
10.7612352481
 20
8.8886036277
 30
0.0
 10
10.7551701257
 20
8.8980930102
 30
0.0
 10
10.7475756208
 20
8.9110902736
 30
0.0
 10
10.7389938125
 20
8.9279447189
 30
0.0
 10
10.7316171021
 20
8.9454318874
 30
0.0
 10
10.7263908857
 20
8.9597832927
 30
0.0
 10
10.7215755806
 20
8.9744598585
 30
0.0
 10
10.7163675719
 20
8.9932580473
 30
0.0
 10
10.7113861286
 20
9.0163585001
 30
0.0
 10
10.7088856047
 20
9.0320195034
 30
0.0
 10
10.7078286167
 20
9.0399241445
 30
0.0
  0
SPLINE
  5
3B7
100
AcDbEntity
  8
0
100
AcDbSpline
 62
7
  6
CONTINUOUS
 70
0
 71
3
 72
23
 73
19
 74
0
 42
0.0000001
 43
0.0000001
 44
0.0000000001
 40
0.0
 40
0.0
 40
0.0
 40
0.0
 40
0.0616482057
 40
0.123319439
 40
0.1850364697
 40
0.2468215573
 40
0.308696204
 40
0.3706809203
 40
0.4327950036
 40
0.4950563332
 40
0.5574811873
 40
0.6200840738
 40
0.6828776141
 40
0.7458723365
 40
0.8090768798
 40
0.872497055
 40
0.9361379958
 40
1.0
 40
1.0
 40
1.0
 40
1.0
 10
10.3683800321
 20
7.0574536809
 30
0.0
 10
10.3733177301
 20
7.0622231189
 30
0.0
 10
10.3834536979
 20
7.0715000415
 30
0.0
 10
10.3993866067
 20
7.0845808769
 30
0.0
 10
10.4160113878
 20
7.0967970807
 30
0.0
 10
10.4332855731
 20
7.108117351
 30
0.0
 10
10.45116578
 20
7.1185133311
 30
0.0
 10
10.4696069063
 20
7.1279588184
 30
0.0
 10
10.4885624917
 20
7.136430061
 30
0.0
 10
10.5079847694
 20
7.1439057576
 30
0.0
 10
10.5278248051
 20
7.1503671269
 30
0.0
 10
10.5480326213
 20
7.1557979504
 30
0.0
 10
10.5685573143
 20
7.1601845987
 30
0.0
 10
10.5893472232
 20
7.1635161028
 30
0.0
 10
10.6103499196
 20
7.1657840928
 30
0.0
 10
10.631512797
 20
7.166982981
 30
0.0
 10
10.6527818015
 20
7.1671097495
 30
0.0
 10
10.6669733299
 20
7.1664803823
 30
0.0
 10
10.6740678266
 20
7.1659883772
 30
0.0
  0
SPLINE
  5
3B8
100
AcDbEntity
  8
0
100
AcDbSpline
 62
7
  6
CONTINUOUS
 70
0
 71
3
 72
23
 73
19
 74
0
 42
0.0000001
 43
0.0000001
 44
0.0000000001
 40
0.0
 40
0.0
 40
0.0
 40
0.0
 40
0.0616482106
 40
0.123319444
 40
0.1850364734
 40
0.2468215626
 40
0.3086962119
 40
0.3706809251
 40
0.4327950031
 40
0.4950563302
 40
0.5574811826
 40
0.6200840855
 40
0.6828775753
 40
0.7458723551
 40
0.8090769809
 40
0.8724965648
 40
0.9361390258
 40
1.0
 40
1.0
 40
1.0
 40
1.0
 10
10.5268491405
 20
6.9255058022
 30
0.0
 10
10.5294863242
 20
6.9280531273
 30
0.0
 10
10.5348998568
 20
6.933007875
 30
0.0
 10
10.5434094928
 20
6.9399942641
 30
0.0
 10
10.5522886447
 20
6.9465188716
 30
0.0
 10
10.5615146405
 20
6.9525649692
 30
0.0
 10
10.5710643214
 20
6.9581173897
 30
0.0
 10
10.580913583
 20
6.9631621624
 30
0.0
 10
10.5910376081
 20
6.9676866105
 30
0.0
 10
10.6014108904
 20
6.9716793493
 30
0.0
 10
10.6120073037
 20
6.9751303229
 30
0.0
 10
10.6228001431
 20
6.9780308875
 30
0.0
 10
10.6337622237
 20
6.9803737853
 30
0.0
 10
10.644865961
 20
6.9821531335
 30
0.0
 10
10.6560833178
 20
6.9833644302
 30
0.0
 10
10.6673863102
 20
6.984004779
 30
0.0
 10
10.6787459198
 20
6.984072447
 30
0.0
 10
10.6863255381
 20
6.9837363314
 30
0.0
 10
10.6901145943
 20
6.9834735594
 30
0.0
  0
SPLINE
  5
3B9
100
AcDbEntity
  8
0
100
AcDbSpline
 62
7
  6
CONTINUOUS
 70
0
 71
3
 72
41
 73
37
 74
0
 42
0.0000001
 43
0.0000001
 44
0.0000000001
 40
0.0
 40
0.0
 40
0.0
 40
0.0
 40
0.0299390219
 40
0.059901714
 40
0.089911187
 40
0.1199894485
 40
0.1501568949
 40
0.1804318493
 40
0.2108301609
 40
0.2413648728
 40
0.272045965
 40
0.3028801764
 40
0.3338709045
 40
0.3650181821
 40
0.396318727
 40
0.4277660593
 40
0.4593506796
 40
0.4910603016
 40
0.5228801323
 40
0.5547931918
 40
0.5867806682
 40
0.6188222973
 40
0.6508967648
 40
0.6829821217
 40
0.715056209
 40
0.7310844894
 40
0.7471017679
 40
0.7790881331
 40
0.8109997454
 40
0.8269239678
 40
0.8428226015
 40
0.8745301998
 40
0.9061125375
 40
0.937557485
 40
0.9688552819
 40
1.0
 40
1.0
 40
1.0
 40
1.0
 10
10.8533800481
 20
6.5874561514
 30
0.0
 10
10.8572217013
 20
6.5911669054
 30
0.0
 10
10.8646203203
 20
6.5988960209
 30
0.0
 10
10.8747814076
 20
6.6113275256
 30
0.0
 10
10.8839562249
 20
6.6245351367
 30
0.0
 10
10.8920948087
 20
6.6384472058
 30
0.0
 10
10.8991539637
 20
6.6529894595
 30
0.0
 10
10.9050959938
 20
6.6680839661
 30
0.0
 10
10.9098893005
 20
6.6836499525
 30
0.0
 10
10.9135084338
 20
6.6996041404
 30
0.0
 10
10.9159342474
 20
6.7158612256
 30
0.0
 10
10.9171539816
 20
6.7323343301
 30
0.0
 10
10.9171613225
 20
6.7489354683
 30
0.0
 10
10.9159564265
 20
6.7655760145
 30
0.0
 10
10.9135459117
 20
6.7821671734
 30
0.0
 10
10.909942812
 20
6.7986204487
 30
0.0
 10
10.9051665025
 20
6.814848109
 30
0.0
 10
10.8992425916
 20
6.8307636499
 30
0.0
 10
10.8922027814
 20
6.8462822485
 30
0.0
 10
10.8840847004
 20
6.8613212076
 30
0.0
 10
10.874931691
 20
6.8758003995
 30
0.0
 10
10.864792624
 20
6.8896426519
 30
0.0
 10
10.8537214711
 20
6.9027742899
 30
0.0
 10
10.8417776506
 20
6.915125016
 30
0.0
 10
10.8311463169
 20
6.924715138
 30
0.0
 10
10.8222697873
 20
6.9319333391
 30
0.0
 10
10.8131642087
 20
6.9388345441
 30
0.0
 10
10.801365209
 20
6.9468584966
 30
0.0
 10
10.7890570019
 20
6.9540444891
 30
0.0
 10
10.778951916
 20
6.9592614705
 30
0.0
 10
10.7687050381
 20
6.9641094746
 30
0.0
 10
10.7556258538
 20
6.9694825059
 30
0.0
 10
10.7395684898
 20
6.9747983851
 30
0.0
 10
10.7232458901
 20
6.9789493046
 30
0.0
 10
10.7067466655
 20
6.9819127349
 30
0.0
 10
10.6956575392
 20
6.9830891549
 30
0.0
 10
10.6901145943
 20
6.9834735594
 30
0.0
  0
SPLINE
  5
3BA
100
AcDbEntity
  8
0
100
AcDbSpline
 62
7
  6
CONTINUOUS
 70
0
 71
3
 72
25
 73
21
 74
0
 42
0.0000001
 43
0.0000001
 44
0.0000000001
 40
0.0
 40
0.0
 40
0.0
 40
0.0
 40
0.0616475256
 40
0.0924812752
 40
0.1233236417
 40
0.1850399904
 40
0.2468243943
 40
0.277751631
 40
0.3087038637
 40
0.3706878925
 40
0.4328012858
 40
0.495061923
 40
0.5574860832
 40
0.6200882745
 40
0.682881117
 40
0.745875147
 40
0.8090789725
 40
0.8724984981
 40
0.9361386362
 40
1.0
 40
1.0
 40
1.0
 40
1.0
 10
10.3440629117
 20
9.1352191344
 30
0.0
 10
10.3493933937
 20
9.1403679898
 30
0.0
 10
10.357599976
 20
9.1478790733
 30
0.0
 10
10.3689320348
 20
9.157440602
 30
0.0
 10
10.3805235503
 20
9.1666997369
 30
0.0
 10
10.3954831483
 20
9.1776924689
 30
0.0
 10
10.4110188002
 20
9.1878734281
 30
0.0
 10
10.4237711074
 20
9.1955180377
 30
0.0
 10
10.4367436927
 20
9.2028315083
 30
0.0
 10
10.4533423149
 20
9.2113333499
 30
0.0
 10
10.4738055775
 20
9.2204783938
 30
0.0
 10
10.4947729367
 20
9.2285488522
 30
0.0
 10
10.5161912152
 20
9.2355242491
 30
0.0
 10
10.5380065542
 20
9.2413871278
 30
0.0
 10
10.5601639758
 20
9.2461227607
 30
0.0
 10
10.5826077133
 20
9.2497193058
 30
0.0
 10
10.6052811729
 20
9.2521677347
 30
0.0
 10
10.6281275455
 20
9.2534619992
 30
0.0
 10
10.6510884978
 20
9.2535988646
 30
0.0
 10
10.666408956
 20
9.2529194301
 30
0.0
 10
10.6740678266
 20
9.2523882856
 30
0.0
  0
SPLINE
  5
3BB
100
AcDbEntity
  8
0
100
AcDbSpline
 62
7
  6
CONTINUOUS
 70
0
 71
3
 72
23
 73
19
 74
0
 42
0.0000001
 43
0.0000001
 44
0.0000000001
 40
0.0
 40
0.0
 40
0.0
 40
0.0
 40
0.0616482097
 40
0.123319447
 40
0.1850364789
 40
0.2468215645
 40
0.3086962086
 40
0.3706809238
 40
0.4327950069
 40
0.4950563354
 40
0.5574811816
 40
0.620084074
 40
0.6828775998
 40
0.7458723259
 40
0.8090769666
 40
0.8724967557
 40
0.9361385685
 40
1.0
 40
1.0
 40
1.0
 40
1.0
 10
10.482984709
 20
9.0260998469
 30
0.0
 10
10.4863513341
 20
9.0293517434
 30
0.0
 10
10.4932622022
 20
9.0356769796
 30
0.0
 10
10.5041255726
 20
9.0445957705
 30
0.0
 10
10.5154606694
 20
9.0529250444
 30
0.0
 10
10.5272385441
 20
9.0606434536
 30
0.0
 10
10.5394296144
 20
9.0677316688
 30
0.0
 10
10.552003133
 20
9.074171819
 30
0.0
 10
10.5649274279
 20
9.0799476965
 30
0.0
 10
10.5781699236
 20
9.0850447891
 30
0.0
 10
10.591697254
 20
9.0894502999
 30
0.0
 10
10.605475344
 20
9.0931531661
 30
0.0
 10
10.6194694891
 20
9.0961440931
 30
0.0
 10
10.633644475
 20
9.0984155862
 30
0.0
 10
10.6479645169
 20
9.0999619311
 30
0.0
 10
10.6623938366
 20
9.10077939
 30
0.0
 10
10.6768954671
 20
9.1008657971
 30
0.0
 10
10.6865715608
 20
9.1004366993
 30
0.0
 10
10.6914086885
 20
9.1001012434
 30
0.0
  0
SPLINE
  5
3BC
100
AcDbEntity
  8
0
100
AcDbSpline
 62
7
  6
CONTINUOUS
 70
0
 71
3
 72
39
 73
35
 74
0
 42
0.0000001
 43
0.0000001
 44
0.0000000001
 40
0.0
 40
0.0
 40
0.0
 40
0.0
 40
0.0299393048
 40
0.0599022805
 40
0.0899120376
 40
0.1199905841
 40
0.1501583161
 40
0.1804335571
 40
0.2108321567
 40
0.2413671582
 40
0.2720485418
 40
0.3028830453
 40
0.333874066
 40
0.3650216372
 40
0.3963224773
 40
0.427770107
 40
0.459355027
 40
0.4910649499
 40
0.5228850821
 40
0.5547984438
 40
0.586786223
 40
0.6188281554
 40
0.6509029263
 40
0.6829885863
 40
0.7150629767
 40
0.747104156
 40
0.7790908247
 40
0.8110027395
 40
0.8428211156
 40
0.8745290113
 40
0.906111652
 40
0.937556897
 40
0.9688549576
 40
1.0
 40
1.0
 40
1.0
 40
1.0
 10
10.899832668
 20
8.5945471097
 30
0.0
 10
10.9047369172
 20
8.5992842309
 30
0.0
 10
10.9141819531
 20
8.6091511971
 30
0.0
 10
10.9271535621
 20
8.6250211956
 30
0.0
 10
10.9388660912
 20
8.6418819789
 30
0.0
 10
10.9492557722
 20
8.6596420675
 30
0.0
 10
10.9582674611
 20
8.678206646
 30
0.0
 10
10.9658530359
 20
8.6974762273
 30
0.0
 10
10.9719721551
 20
8.7173476986
 30
0.0
 10
10.9765923214
 20
8.7377147486
 30
0.0
 10
10.9796890935
 20
8.7584684767
 30
0.0
 10
10.9812461925
 20
8.7794979725
 30
0.0
 10
10.9812555632
 20
8.8006909144
 30
0.0
 10
10.9797174058
 20
8.8219341648
 30
0.0
 10
10.9766401639
 20
8.8431143689
 30
0.0
 10
10.9720404675
 20
8.8641185514
 30
0.0
 10
10.9659430475
 20
8.884834713
 30
0.0
 10
10.9583806037
 20
8.9051524238
 30
0.0
 10
10.9493936103
 20
8.9249633999
 30
0.0
 10
10.9390301019
 20
8.944162073
 30
0.0
 10
10.927345417
 20
8.9626461444
 30
0.0
 10
10.9144019033
 20
8.9803171222
 30
0.0
 10
10.9002685934
 20
8.9970808424
 30
0.0
 10
10.8850208474
 20
9.0128479744
 30
0.0
 10
10.8687399388
 20
9.0275344808
 30
0.0
 10
10.851512629
 20
9.0410620621
 30
0.0
 10
10.8334307107
 20
9.0533585689
 30
0.0
 10
10.8145905208
 20
9.0643583825
 30
0.0
 10
10.7950924489
 20
9.0740027663
 30
0.0
 10
10.7750403694
 20
9.0822401843
 30
0.0
 10
10.7545412438
 20
9.0890265881
 30
0.0
 10
10.7337039845
 20
9.0943255822
 30
0.0
 10
10.7126411203
 20
9.0981087044
 30
0.0
 10
10.6984847951
 20
9.0996105137
 30
0.0
 10
10.6914086885
 20
9.1001012434
 30
0.0
  0
SPLINE
  5
3BD
100
AcDbEntity
  8
0
100
AcDbSpline
 62
7
  6
CONTINUOUS
 70
0
 71
3
 72
11
 73
7
 74
0
 42
0.0000001
 43
0.0000001
 44
0.0000000001
 40
0.0
 40
0.0
 40
0.0
 40
0.0
 40
0.2897492774
 40
0.5460389192
 40
0.7796344763
 40
1.0
 40
1.0
 40
1.0
 40
1.0
 10
11.21746727
 20
10.1298725722
 30
0.0
 10
11.2173198768
 20
10.1302655487
 30
0.0
 10
11.2170708418
 20
10.1310174246
 30
0.0
 10
11.2168091376
 20
10.1321175214
 30
0.0
 10
11.2166648324
 20
10.1331376051
 30
0.0
 10
11.2166333455
 20
10.1337955355
 30
0.0
 10
11.2166333455
 20
10.1341147401
 30
0.0
  0
SPLINE
  5
3BE
100
AcDbEntity
  8
0
100
AcDbSpline
 62
7
  6
CONTINUOUS
 70
0
 71
3
 72
11
 73
7
 74
0
 42
0.0000001
 43
0.0000001
 44
0.0000000001
 40
0.0
 40
0.0
 40
0.0
 40
0.0
 40
0.2203655244
 40
0.4539610799
 40
0.7102507243
 40
1.0
 40
1.0
 40
1.0
 40
1.0
 10
12.0776333455
 20
10.1341147401
 30
0.0
 10
12.0776333455
 20
10.1337955355
 30
0.0
 10
12.0776018586
 20
10.1331376051
 30
0.0
 10
12.0774575534
 20
10.1321175214
 30
0.0
 10
12.0771958492
 20
10.1310174246
 30
0.0
 10
12.0769468142
 20
10.1302655487
 30
0.0
 10
12.076799421
 20
10.1298725722
 30
0.0
  0
SPLINE
  5
3BF
100
AcDbEntity
  8
0
100
AcDbSpline
 62
7
  6
CONTINUOUS
 70
0
 71
3
 72
50
 73
46
 74
0
 42
0.0000001
 43
0.0000001
 44
0.0000000001
 40
0.0
 40
0.0
 40
0.0
 40
0.0
 40
0.0057940444
 40
0.0118133012
 40
0.0180949137
 40
0.0246707923
 40
0.0315680343
 40
0.038809168
 40
0.0464128131
 40
0.0543939714
 40
0.0627646715
 40
0.0715341833
 40
0.0807095567
 40
0.0902957495
 40
0.1002960479
 40
0.110712136
 40
0.1215444071
 40
0.1327920086
 40
0.1444530581
 40
0.1565246872
 40
0.1690031768
 40
0.1818840157
 40
0.1951619657
 40
0.208831145
 40
0.2373157919
 40
0.2672802406
 40
0.298657941
 40
0.3313753898
 40
0.3653529206
 40
0.4005053791
 40
0.4367427165
 40
0.4739705258
 40
0.5120905366
 40
0.5510010812
 40
0.5905975399
 40
0.6307727714
 40
0.6714175329
 40
0.7124208942
 40
0.7536706433
 40
0.7950536982
 40
0.8364564909
 40
0.8777654243
 40
0.9188671243
 40
0.9596492066
 40
1.0
 40
1.0
 40
1.0
 40
1.0
 10
12.0767994205
 20
10.1298725722
 30
0.0
 10
12.0764159163
 20
10.1288500896
 30
0.0
 10
12.0755351285
 20
10.1268013103
 30
0.0
 10
12.0739207286
 20
10.1237929819
 30
0.0
 10
12.0719923059
 20
10.1207989573
 30
0.0
 10
12.0697519186
 20
10.1178214221
 30
0.0
 10
12.0672013524
 20
10.1148621692
 30
0.0
 10
12.064342696
 20
10.1119229944
 30
0.0
 10
12.0611780226
 20
10.1090058284
 30
0.0
 10
12.0577096955
 20
10.1061125065
 30
0.0
 10
12.053940165
 20
10.1032450324
 30
0.0
 10
12.0498721718
 20
10.1004053052
 30
0.0
 10
12.0455086003
 20
10.0975953613
 30
0.0
 10
12.0408526103
 20
10.0948171336
 30
0.0
 10
12.0359075357
 20
10.0920726525
 30
0.0
 10
12.0306769652
 20
10.0893638551
 30
0.0
 10
12.0251646767
 20
10.0866927373
 30
0.0
 10
12.0193746827
 20
10.0840612177
 30
0.0
 10
12.0133111919
 20
10.0814712384
 30
0.0
 10
12.0069786295
 20
10.0789246839
 30
0.0
 10
12.0003816173
 20
10.0764234284
 30
0.0
 10
11.9935249819
 20
10.073969315
 30
0.0
 10
11.9864137327
 20
10.0715641216
 30
0.0
 10
11.9764624611
 20
10.0683810601
 30
0.0
 10
11.9634192967
 20
10.0645478133
 30
0.0
 10
11.9470467164
 20
10.0602310008
 30
0.0
 10
11.9297932364
 20
10.05614919
 30
0.0
 10
11.9117094711
 20
10.0523144819
 30
0.0
 10
11.892848347
 20
10.0487382644
 30
0.0
 10
11.8732651808
 20
10.0454311492
 30
0.0
 10
11.8530174334
 20
10.0424029477
 30
0.0
 10
11.8321645527
 20
10.03966264
 30
0.0
 10
11.8107677864
 20
10.037218349
 30
0.0
 10
11.7888899985
 20
10.0350773178
 30
0.0
 10
11.7665954802
 20
10.0332458889
 30
0.0
 10
11.7439497581
 20
10.031729486
 30
0.0
 10
11.7210193989
 20
10.0305325989
 30
0.0
 10
11.6978718124
 20
10.0296587707
 30
0.0
 10
11.67457505
 20
10.0291105878
 30
0.0
 10
11.6511976074
 20
10.0288896731
 30
0.0
 10
11.627808211
 20
10.028996679
 30
0.0
 10
11.6044756445
 20
10.0294312917
 30
0.0
 10
11.5812684648
 20
10.0301922208
 30
0.0
 10
11.5582549981
 20
10.0312772174
 30
0.0
 10
11.5429918564
 20
10.0322203204
 30
0.0
 10
11.5354049277
 20
10.0327464757
 30
0.0
  0
SPLINE
  5
3C0
100
AcDbEntity
  8
0
100
AcDbSpline
 62
7
  6
CONTINUOUS
 70
0
 71
3
 72
84
 73
80
 74
0
 42
0.0000001
 43
0.0000001
 44
0.0000000001
 40
0.0
 40
0.0
 40
0.0
 40
0.0
 40
0.0027164264
 40
0.0054532293
 40
0.008230295
 40
0.0110665896
 40
0.0139797932
 40
0.0169861044
 40
0.0201000661
 40
0.0233345812
 40
0.0267009392
 40
0.0302088856
 40
0.0338668056
 40
0.037681768
 40
0.0416597414
 40
0.0458056718
 40
0.050123593
 40
0.0546167913
 40
0.0592877975
 40
0.0641385717
 40
0.0691704988
 40
0.074384467
 40
0.0797809628
 40
0.0853600226
 40
0.0911213815
 40
0.0970644148
 40
0.1094911534
 40
0.122630387
 40
0.136468035
 40
0.1509868331
 40
0.1661667198
 40
0.1819851503
 40
0.1984173662
 40
0.2154366132
 40
0.2330143274
 40
0.2511202956
 40
0.2697227959
 40
0.2887887406
 40
0.3082838034
 40
0.3281725359
 40
0.3484184777
 40
0.3689842604
 40
0.3898317162
 40
0.4109219843
 40
0.4536719359
 40
0.4969138893
 40
0.5403221212
 40
0.5835693222
 40
0.6263297187
 40
0.6474271304
 40
0.6682829869
 40
0.6888584043
 40
0.7091151927
 40
0.7290159604
 40
0.748524216
 40
0.7676044742
 40
0.7862223676
 40
0.8043447661
 40
0.8219399096
 40
0.838977535
 40
0.8554290199
 40
0.8712675451
 40
0.8864682815
 40
0.9010086172
 40
0.9148684112
 40
0.9280303001
 40
0.9404800906
 40
0.946434749
 40
0.9522077946
 40
0.957798564
 40
0.9632067735
 40
0.9684324641
 40
0.9734760551
 40
0.9783384155
 40
0.983020862
 40
0.9875253935
 40
0.9918546029
 40
0.9960115831
 40
1.0
 40
1.0
 40
1.0
 40
1.0
 10
12.3015454821
 20
7.5269232713
 30
0.0
 10
12.3006589536
 20
7.5269847554
 30
0.0
 10
12.2988837886
 20
7.5271884473
 30
0.0
 10
12.29624364
 20
7.5277334585
 30
0.0
 10
12.2936234419
 20
7.5285178809
 30
0.0
 10
12.2910250747
 20
7.5295409799
 30
0.0
 10
12.2884498533
 20
7.5308017862
 30
0.0
 10
12.2858991346
 20
7.5322993846
 30
0.0
 10
12.2833740614
 20
7.5340326504
 30
0.0
 10
12.2808757694
 20
7.5360005114
 30
0.0
 10
12.2784053528
 20
7.5382018279
 30
0.0
 10
12.2759638351
 20
7.5406353599
 30
0.0
 10
12.2735523396
 20
7.5432998883
 30
0.0
 10
12.2711718817
 20
7.5461940161
 30
0.0
 10
12.2688235727
 20
7.5493163276
 30
0.0
 10
12.2665084958
 20
7.5526652755
 30
0.0
 10
12.2642277071
 20
7.5562391961
 30
0.0
 10
12.2619823463
 20
7.5600363569
 30
0.0
 10
12.2597734407
 20
7.5640548605
 30
0.0
 10
12.2576021065
 20
7.5682927414
 30
0.0
 10
12.255469397
 20
7.5727478964
 30
0.0
 10
12.2533763485
 20
7.5774181127
 30
0.0
 10
12.2513240399
 20
7.5823010826
 30
0.0
 10
12.2493134495
 20
7.58739436
 30
0.0
 10
12.2473456024
 20
7.5926954252
 30
0.0
 10
12.244741321
 20
7.6001482339
 30
0.0
 10
12.2416095475
 20
7.6099712517
 30
0.0
 10
12.238090727
 20
7.6223742476
 30
0.0
 10
12.2347645809
 20
7.6355372355
 30
0.0
 10
12.2316378488
 20
7.6494338709
 30
0.0
 10
12.2287168872
 20
7.6640364685
 30
0.0
 10
12.2260076327
 20
7.6793158118
 30
0.0
 10
12.2235155987
 20
7.6952413036
 30
0.0
 10
12.2212458575
 20
7.7117810166
 30
0.0
 10
12.2192030311
 20
7.728901769
 30
0.0
 10
12.2173912813
 20
7.7465691904
 30
0.0
 10
12.215814293
 20
7.7647477944
 30
0.0
 10
12.2144752757
 20
7.7834010547
 30
0.0
 10
12.2133769569
 20
7.8024914842
 30
0.0
 10
12.2125215772
 20
7.8219807107
 30
0.0
 10
12.211910885
 20
7.8418295567
 30
0.0
 10
12.2115461361
 20
7.8619981041
 30
0.0
 10
12.2114280582
 20
7.8824458287
 30
0.0
 10
12.2116007395
 20
7.9101507589
 30
0.0
 10
12.2124385688
 20
7.9451752743
 30
0.0
 10
12.2144131111
 20
7.9874649334
 30
0.0
 10
12.2173457281
 20
8.0298621616
 30
0.0
 10
12.2212128522
 20
8.0720260567
 30
0.0
 10
12.2252056995
 20
8.1068398346
 30
0.0
 10
12.2288496221
 20
8.1343132027
 30
0.0
 10
12.2317823978
 20
8.1545581803
 30
0.0
 10
12.2349211463
 20
8.1744938983
 30
0.0
 10
12.2382595636
 20
8.1940803008
 30
0.0
 10
12.2417909048
 20
8.2132780038
 30
0.0
 10
12.2455080453
 20
8.2320484194
 30
0.0
 10
12.2494034818
 20
8.2503538208
 30
0.0
 10
12.2534693511
 20
8.2681574221
 30
0.0
 10
12.2576974448
 20
8.2854234567
 30
0.0
 10
12.2620792187
 20
8.3021172543
 30
0.0
 10
12.2666058182
 20
8.3182053108
 30
0.0
 10
12.2712680959
 20
8.3336553565
 30
0.0
 10
12.2760566295
 20
8.3484364234
 30
0.0
 10
12.2809617463
 20
8.3625189216
 30
0.0
 10
12.2859735355
 20
8.3758746914
 30
0.0
 10
12.2910818838
 20
8.3884771441
 30
0.0
 10
12.2962764904
 20
8.4003010637
 30
0.0
 10
12.3007321579
 20
8.4096195162
 30
0.0
 10
12.3043387899
 20
8.4166592977
 30
0.0
 10
12.3070186113
 20
8.421651486
 30
0.0
 10
12.3097121738
 20
8.4264321307
 30
0.0
 10
12.3124181253
 20
8.4309988682
 30
0.0
 10
12.3151351244
 20
8.4353494219
 30
0.0
 10
12.3178618351
 20
8.4394816151
 30
0.0
 10
12.3205968553
 20
8.4433934115
 30
0.0
 10
12.323338896
 20
8.4470828602
 30
0.0
 10
12.3260866086
 20
8.4505481867
 30
0.0
 10
12.3288387248
 20
8.4537876906
 30
0.0
 10
12.3315937572
 20
8.4567996132
 30
0.0
 10
12.3334696672
 20
8.4586934159
 30
0.0
 10
12.3344081361
 20
8.4595999073
 30
0.0
  0
SPLINE
  5
3C1
100
AcDbEntity
  8
0
100
AcDbSpline
 62
7
  6
CONTINUOUS
 70
0
 71
3
 72
59
 73
55
 74
0
 42
0.0000001
 43
0.0000001
 44
0.0000000001
 40
0.0
 40
0.0
 40
0.0
 40
0.0
 40
0.0075208079
 40
0.0156241398
 40
0.0243310606
 40
0.0336548722
 40
0.0436027282
 40
0.0541767519
 40
0.0653748386
 40
0.0771914416
 40
0.0896180444
 40
0.1026434986
 40
0.1162544536
 40
0.1304355591
 40
0.1451696243
 40
0.1604378928
 40
0.1762201332
 40
0.1924947318
 40
0.2092388927
 40
0.2264286809
 40
0.2440390934
 40
0.2620442168
 40
0.2991298639
 40
0.3374628535
 40
0.3768091312
 40
0.4169263555
 40
0.4575659562
 40
0.4984751951
 40
0.5393992035
 40
0.5800829926
 40
0.620273482
 40
0.659721512
 40
0.6981838999
 40
0.7354255455
 40
0.7535182257
 40
0.7712223393
 40
0.7885117232
 40
0.8053611821
 40
0.8217465396
 40
0.8376446832
 40
0.8530337507
 40
0.8678931903
 40
0.8822038429
 40
0.8959481837
 40
0.9091104254
 40
0.9216766811
 40
0.9336353194
 40
0.9449771786
 40
0.9556959294
 40
0.9657887016
 40
0.9752565037
 40
0.9841051608
 40
0.9923469048
 40
1.0
 40
1.0
 40
1.0
 40
1.0
 10
12.2595352356
 20
7.6815596839
 30
0.0
 10
12.258480134
 20
7.6828569927
 30
0.0
 10
12.2564012461
 20
7.6856451775
 30
0.0
 10
12.253475713
 20
7.6901998405
 30
0.0
 10
12.2506337227
 20
7.6952717186
 30
0.0
 10
12.2478797514
 20
7.7008524838
 30
0.0
 10
12.2452179778
 20
7.7069334658
 30
0.0
 10
12.2426527005
 20
7.7135049211
 30
0.0
 10
12.2401880575
 20
7.7205562443
 30
0.0
 10
12.2378281276
 20
7.728075971
 30
0.0
 10
12.235576845
 20
7.7360518077
 30
0.0
 10
12.2334379395
 20
7.7444706483
 30
0.0
 10
12.2314150032
 20
7.7533186281
 30
0.0
 10
12.2295114382
 20
7.7625811417
 30
0.0
 10
12.2277304141
 20
7.7722428677
 30
0.0
 10
12.2260749329
 20
7.7822878114
 30
0.0
 10
12.2245477823
 20
7.7926993278
 30
0.0
 10
12.2231515054
 20
7.8034601485
 30
0.0
 10
12.2218884577
 20
7.8145524213
 30
0.0
 10
12.2207607721
 20
7.8259577312
 30
0.0
 10
12.2197703003
 20
7.8376571567
 30
0.0
 10
12.2186236759
 20
7.8537814431
 30
0.0
 10
12.2175546172
 20
7.8745284034
 30
0.0
 10
12.2168509869
 20
7.9000380784
 30
0.0
 10
12.2167194444
 20
7.9262311126
 30
0.0
 10
12.2171610458
 20
7.9529335368
 30
0.0
 10
12.2181730244
 20
7.9799681251
 30
0.0
 10
12.2197487339
 20
8.0071553667
 30
0.0
 10
12.2218777548
 20
8.0343147363
 30
0.0
 10
12.2245459271
 20
8.0612658984
 30
0.0
 10
12.2277354433
 20
8.0878299061
 30
0.0
 10
12.231424986
 20
8.113830466
 30
0.0
 10
12.2355898975
 20
8.1390949047
 30
0.0
 10
12.2394698158
 20
8.159588232
 30
0.0
 10
12.2427986073
 20
8.175483396
 30
0.0
 10
12.245371849
 20
8.1870032123
 30
0.0
 10
12.2480414297
 20
8.198217139
 30
0.0
 10
12.25080291
 20
8.2091065751
 30
0.0
 10
12.2536516675
 20
8.2196534458
 30
0.0
 10
12.2565829707
 20
8.2298402494
 30
0.0
 10
12.2595919156
 20
8.2396500979
 30
0.0
 10
12.2626734719
 20
8.249066739
 30
0.0
 10
12.2658225201
 20
8.2580745765
 30
0.0
 10
12.2690337929
 20
8.2666587207
 30
0.0
 10
12.2723019286
 20
8.2748050035
 30
0.0
 10
12.2756215116
 20
8.2824999963
 30
0.0
 10
12.2789870104
 20
8.2897310656
 30
0.0
 10
12.2823928467
 20
8.2964863854
 30
0.0
 10
12.285833442
 20
8.302754952
 30
0.0
 10
12.289303185
 20
8.3085266423
 30
0.0
 10
12.2927964508
 20
8.3137921856
 30
0.0
 10
12.2963079351
 20
8.3185433995
 30
0.0
 10
12.2998319727
 20
8.3227723726
 30
0.0
 10
12.3022746148
 20
8.3253316844
 30
0.0
 10
12.3034985071
 20
8.3265138737
 30
0.0
  0
SPLINE
  5
3C2
100
AcDbEntity
  8
0
100
AcDbSpline
 62
7
  6
CONTINUOUS
 70
0
 71
3
 72
44
 73
40
 74
0
 42
0.0000001
 43
0.0000001
 44
0.0000000001
 40
0.0
 40
0.0
 40
0.0
 40
0.0
 40
0.0311441543
 40
0.0624413527
 40
0.0938856704
 40
0.1254674301
 40
0.1571744232
 40
0.1889918967
 40
0.2209029056
 40
0.2528886665
 40
0.2849289365
 40
0.3170024165
 40
0.3490871655
 40
0.3811610253
 40
0.4132020474
 40
0.4451889174
 40
0.477101372
 40
0.5089205996
 40
0.5406296198
 40
0.5722136396
 40
0.603660374
 40
0.6349603231
 40
0.6661070065
 40
0.6970971441
 40
0.7279307688
 40
0.7586112764
 40
0.7891454071
 40
0.8195431409
 40
0.8498175195
 40
0.8649161013
 40
0.8799900027
 40
0.8950415891
 40
0.9100733537
 40
0.9250879052
 40
0.9400879559
 40
0.9550763011
 40
0.9700558055
 40
0.9850293877
 40
1.0
 40
1.0
 40
1.0
 40
1.0
 10
10.6740678266
 20
6.3159735997
 30
0.0
 10
10.6636895274
 20
6.3166933372
 30
0.0
 10
10.6429268891
 20
6.318896002
 30
0.0
 10
10.6120346584
 20
6.324444575
 30
0.0
 10
10.5814733105
 20
6.3322164416
 30
0.0
 10
10.5514079038
 20
6.3421698499
 30
0.0
 10
10.5219981653
 20
6.3542514419
 30
0.0
 10
10.4934009677
 20
6.3683965586
 30
0.0
 10
10.465768663
 20
6.384529641
 30
0.0
 10
10.4392485008
 20
6.4025645547
 30
0.0
 10
10.4139817588
 20
6.4224050345
 30
0.0
 10
10.3901030753
 20
6.4439452754
 30
0.0
 10
10.3677397247
 20
6.467070459
 30
0.0
 10
10.3470108771
 20
6.4916572964
 30
0.0
 10
10.328027045
 20
6.5175747621
 30
0.0
 10
10.3108895151
 20
6.5446847774
 30
0.0
 10
10.2956897187
 20
6.572842876
 30
0.0
 10
10.2825088032
 20
6.6018990126
 30
0.0
 10
10.27141725
 20
6.6316983667
 30
0.0
 10
10.2624744196
 20
6.6620821169
 30
0.0
 10
10.255728224
 20
6.6928882868
 30
0.0
 10
10.251214956
 20
6.7239526194
 30
0.0
 10
10.2489590468
 20
6.7551094214
 30
0.0
 10
10.2489728384
 20
6.7861924277
 30
0.0
 10
10.2512566365
 20
6.8170357267
 30
0.0
 10
10.2557986253
 20
6.8474744958
 30
0.0
 10
10.2625750293
 20
6.8773463611
 30
0.0
 10
10.271549442
 20
6.9064905352
 30
0.0
 10
10.2808305607
 20
6.9300665725
 30
0.0
 10
10.28929991
 20
6.9484003228
 30
0.0
 10
10.2961609116
 20
6.9618631988
 30
0.0
 10
10.3035265714
 20
6.9750309321
 30
0.0
 10
10.3113871981
 20
6.9878861691
 30
0.0
 10
10.3197322521
 20
7.0004116638
 30
0.0
 10
10.3285505674
 20
7.0125907234
 30
0.0
 10
10.3378304001
 20
7.024407013
 30
0.0
 10
10.347559383
 20
7.0358448177
 30
0.0
 10
10.3577242775
 20
7.0468886654
 30
0.0
 10
10.3647832492
 20
7.0539794641
 30
0.0
 10
10.3683800321
 20
7.0574536809
 30
0.0
  0
SPLINE
  5
3C3
100
AcDbEntity
  8
0
100
AcDbSpline
 62
7
  6
CONTINUOUS
 70
0
 71
3
 72
23
 73
19
 74
0
 42
0.0000001
 43
0.0000001
 44
0.0000000001
 40
0.0
 40
0.0
 40
0.0
 40
0.0
 40
0.0638340622
 40
0.1274553869
 40
0.1908630884
 40
0.2540624775
 40
0.3170584377
 40
0.3798587665
 40
0.4424728834
 40
0.5049121131
 40
0.5671895138
 40
0.6293197659
 40
0.69131904
 40
0.7532048388
 40
0.8149958266
 40
0.876711643
 40
0.9383727055
 40
1.0
 40
1.0
 40
1.0
 40
1.0
 10
10.6823500294
 20
6.3239735938
 30
0.0
 10
10.6891971832
 20
6.3234987421
 30
0.0
 10
10.7028938231
 20
6.3228794075
 30
0.0
 10
10.7234235084
 20
6.3229476205
 30
0.0
 10
10.7438578069
 20
6.3240144819
 30
0.0
 10
10.7641480446
 20
6.3260774267
 30
0.0
 10
10.7842469418
 20
6.3291317639
 30
0.0
 10
10.8041072717
 20
6.3331703293
 30
0.0
 10
10.8236824834
 20
6.3381837294
 30
0.0
 10
10.8429266523
 20
6.3441602452
 30
0.0
 10
10.8617946357
 20
6.3510858962
 30
0.0
 10
10.8802421658
 20
6.3589444743
 30
0.0
 10
10.8982259528
 20
6.3677175764
 30
0.0
 10
10.9157038019
 20
6.3773846623
 30
0.0
 10
10.9326346538
 20
6.3879230456
 30
0.0
 10
10.9489789043
 20
6.3993081539
 30
0.0
 10
10.9646976761
 20
6.4115128062
 30
0.0
 10
10.9747381567
 20
6.4201790718
 30
0.0
 10
10.9796403415
 20
6.4246374046
 30
0.0
  0
SPLINE
  5
3C4
100
AcDbEntity
  8
0
100
AcDbSpline
 62
7
  6
CONTINUOUS
 70
0
 71
3
 72
24
 73
20
 74
0
 42
0.0000001
 43
0.0000001
 44
0.0000000001
 40
0.0
 40
0.0
 40
0.0
 40
0.0
 40
0.0638359458
 40
0.1274583502
 40
0.1908667693
 40
0.2540662645
 40
0.3170618706
 40
0.3798614281
 40
0.4424744357
 40
0.5049123149
 40
0.5671882245
 40
0.6293169603
 40
0.6913148157
 40
0.7531994232
 40
0.814989582
 40
0.8767050686
 40
0.9075438071
 40
0.9383716368
 40
1.0
 40
1.0
 40
1.0
 40
1.0
 10
10.6823500294
 20
8.3427586904
 30
0.0
 10
10.6897616367
 20
8.3422446936
 30
0.0
 10
10.7045873627
 20
8.3415752563
 30
0.0
 10
10.7268092408
 20
8.3416534396
 30
0.0
 10
10.7489273034
 20
8.3428154784
 30
0.0
 10
10.7708886111
 20
8.3450585919
 30
0.0
 10
10.7926416922
 20
8.3483776336
 30
0.0
 10
10.8141351677
 20
8.3527647824
 30
0.0
 10
10.8353183874
 20
8.3582097725
 30
0.0
 10
10.8561413871
 20
8.364699812
 30
0.0
 10
10.8765550541
 20
8.3722196441
 30
0.0
 10
10.8965112411
 20
8.3807515766
 30
0.0
 10
10.9159628489
 20
8.3902755086
 30
0.0
 10
10.9348640588
 20
8.4007690654
 30
0.0
 10
10.9531699919
 20
8.4122073137
 30
0.0
 10
10.9678974201
 20
8.4225071867
 30
0.0
 10
10.9793364584
 20
8.4311897542
 30
0.0
 10
10.9905380271
 20
8.4401599022
 30
0.0
 10
10.9986733645
 20
8.447212435
 30
0.0
 10
11.0039688507
 20
8.4520500329
 30
0.0
  0
SPLINE
  5
3C5
100
AcDbEntity
  8
0
100
AcDbSpline
 62
7
  6
CONTINUOUS
 70
0
 71
3
 72
39
 73
35
 74
0
 42
0.0000001
 43
0.0000001
 44
0.0000000001
 40
0.0
 40
0.0
 40
0.0
 40
0.0
 40
0.0311294747
 40
0.0624102778
 40
0.0938366853
 40
0.1253993028
 40
0.1570863036
 40
0.1888833812
 40
0.2207740922
 40
0.252740194
 40
0.2847620031
 40
0.3168187794
 40
0.3488891224
 40
0.3809513754
 40
0.4129840344
 40
0.4449661539
 40
0.4768777463
 40
0.508700169
 40
0.5404164906
 40
0.5720118334
 40
0.6034736889
 40
0.6347921925
 40
0.6659603532
 40
0.6969742382
 40
0.7278331003
 40
0.7585394377
 40
0.7890989897
 40
0.8195206641
 40
0.8498163853
 40
0.8800008677
 40
0.9100913217
 40
0.9401070901
 40
0.9700692219
 40
1.0
 40
1.0
 40
1.0
 40
1.0
 10
10.6823500294
 20
8.3427586904
 30
0.0
 10
10.6712708974
 20
8.3435270308
 30
0.0
 10
10.6491063208
 20
8.3458693287
 30
0.0
 10
10.6161231528
 20
8.3517526735
 30
0.0
 10
10.5834854261
 20
8.3599839717
 30
0.0
 10
10.5513655217
 20
8.3705199789
 30
0.0
 10
10.5199303283
 20
8.3833054733
 30
0.0
 10
10.4893438261
 20
8.398273534
 30
0.0
 10
10.4597653658
 20
8.4153459525
 30
0.0
 10
10.4313491056
 20
8.4344336088
 30
0.0
 10
10.4042430908
 20
8.455436862
 30
0.0
 10
10.3785885628
 20
8.478246156
 30
0.0
 10
10.354519244
 20
8.5027425879
 30
0.0
 10
10.3321605898
 20
8.5287984564
 30
0.0
 10
10.3116291507
 20
8.5562779464
 30
0.0
 10
10.2930320229
 20
8.5850378698
 30
0.0
 10
10.2764662752
 20
8.6149283759
 30
0.0
 10
10.2620183708
 20
8.6457936869
 30
0.0
 10
10.249763806
 20
8.6774729556
 30
0.0
 10
10.2397667306
 20
8.7098010841
 30
0.0
 10
10.2320795208
 20
8.74260954
 30
0.0
 10
10.226742537
 20
8.7757272474
 30
0.0
 10
10.2237839648
 20
8.8089814733
 30
0.0
 10
10.2232196211
 20
8.8421987025
 30
0.0
 10
10.2250527821
 20
8.8752055372
 30
0.0
 10
10.2292742566
 20
8.9078296027
 30
0.0
 10
10.2358624183
 20
8.9399004251
 30
0.0
 10
10.2447831984
 20
8.9712503438
 30
0.0
 10
10.2559902865
 20
9.0017153782
 30
0.0
 10
10.2694254561
 20
9.0311361287
 30
0.0
 10
10.2850185963
 20
9.0593584228
 30
0.0
 10
10.3026887739
 20
9.0862349651
 30
0.0
 10
10.3223419148
 20
9.1116231653
 30
0.0
 10
10.3367056948
 20
9.1274764679
 30
0.0
 10
10.344176464
 20
9.135105972
 30
0.0
  0
SPLINE
  5
3C6
100
AcDbEntity
  8
0
100
AcDbSpline
 62
7
  6
CONTINUOUS
 70
0
 71
3
 72
71
 73
67
 74
0
 42
0.0000001
 43
0.0000001
 44
0.0000000001
 40
0.0
 40
0.0
 40
0.0
 40
0.0
 40
0.0156746666
 40
0.0314022467
 40
0.0471806293
 40
0.0630088943
 40
0.0788847449
 40
0.0948057514
 40
0.1107690097
 40
0.1267712319
 40
0.1428087898
 40
0.1588777351
 40
0.1749738414
 40
0.191092642
 40
0.2072294723
 40
0.2233795102
 40
0.2395378179
 40
0.2556993845
 40
0.2718591711
 40
0.2880121553
 40
0.304153374
 40
0.3202779661
 40
0.3363812147
 40
0.3524585913
 40
0.3685057961
 40
0.384518796
 40
0.400493862
 40
0.4164276041
 40
0.4323170072
 40
0.4481594602
 40
0.4639527823
 40
0.4796952468
 40
0.4953856022
 40
0.5110230902
 40
0.526607457
 40
0.5421389597
 40
0.5576183687
 40
0.5730469664
 40
0.5884265413
 40
0.603759373
 40
0.619048214
 40
0.6342962649
 40
0.6495071467
 40
0.664684867
 40
0.6798337804
 40
0.694958544
 40
0.7100640697
 40
0.7251554736
 40
0.740238023
 40
0.7553170803
 40
0.7703980449
 40
0.7854862954
 40
0.800587132
 40
0.8157057212
 40
0.8308470413
 40
0.8460158299
 40
0.8612165348
 40
0.8764532687
 40
0.8917297687
 40
0.907049367
 40
0.9224149457
 40
0.9378289223
 40
0.9532932876
 40
0.9688092265
 40
0.9843783287
 40
1.0
 40
1.0
 40
1.0
 40
1.0
 10
10.6823500294
 20
8.477988314
 30
0.0
 10
10.6770470323
 20
8.4783560781
 30
0.0
 10
10.6664393822
 20
8.4793530101
 30
0.0
 10
10.6505947558
 20
8.4816218753
 30
0.0
 10
10.6348263934
 20
8.4846615534
 30
0.0
 10
10.619172926
 20
8.4884644495
 30
0.0
 10
10.6036717686
 20
8.4930215312
 30
0.0
 10
10.5883603325
 20
8.4983217488
 30
0.0
 10
10.5732754466
 20
8.5043523159
 30
0.0
 10
10.5584534224
 20
8.5110986847
 30
0.0
 10
10.543929933
 20
8.5185445918
 30
0.0
 10
10.5297399376
 20
8.5266721055
 30
0.0
 10
10.5159175949
 20
8.5354616545
 30
0.0
 10
10.5024961635
 20
8.5448920536
 30
0.0
 10
10.4895079414
 20
8.5549405885
 30
0.0
 10
10.4769841878
 20
8.5655830654
 30
0.0
 10
10.4649550525
 20
8.5767938702
 30
0.0
 10
10.4534494966
 20
8.5885460207
 30
0.0
 10
10.4424952035
 20
8.6008112153
 30
0.0
 10
10.4321185396
 20
8.6135599294
 30
0.0
 10
10.4223444869
 20
8.6267614798
 30
0.0
 10
10.4131965895
 20
8.6403841
 30
0.0
 10
10.4046968836
 20
8.6543950062
 30
0.0
 10
10.3968658274
 20
8.6687604682
 30
0.0
 10
10.3897222827
 20
8.6834459106
 30
0.0
 10
10.3832834644
 20
8.6984159899
 30
0.0
 10
10.3775649058
 20
8.7136346793
 30
0.0
 10
10.3725804015
 20
8.7290653474
 30
0.0
 10
10.368341962
 20
8.7446708444
 30
0.0
 10
10.3648598166
 20
8.7604136034
 30
0.0
 10
10.3621423821
 20
8.7762557242
 30
0.0
 10
10.3601962496
 20
8.7921590647
 30
0.0
 10
10.359026142
 20
8.8080853275
 30
0.0
 10
10.3586348978
 20
8.8239961553
 30
0.0
 10
10.3590234945
 20
8.8398532258
 30
0.0
 10
10.3601910372
 20
8.8556183399
 30
0.0
 10
10.3621347683
 20
8.8712535114
 30
0.0
 10
10.3648500424
 20
8.8867210616
 30
0.0
 10
10.3683303402
 20
8.9019837139
 30
0.0
 10
10.3725673103
 20
8.9170046785
 30
0.0
 10
10.3775507799
 20
8.9317477406
 30
0.0
 10
10.3832687865
 20
8.9461773433
 30
0.0
 10
10.3897075717
 20
8.9602586872
 30
0.0
 10
10.3968516264
 20
8.9739578144
 30
0.0
 10
10.4046837479
 20
8.9872416811
 30
0.0
 10
10.4131850738
 20
9.0000782398
 30
0.0
 10
10.4223351326
 20
9.0124365109
 30
0.0
 10
10.4321118612
 20
9.0242866816
 30
0.0
 10
10.442491677
 20
9.0356001718
 30
0.0
 10
10.4534495477
 20
9.0463496908
 30
0.0
 10
10.464959047
 20
9.0565093069
 30
0.0
 10
10.476992422
 20
9.0660545037
 30
0.0
 10
10.4895206348
 20
9.0749622726
 30
0.0
 10
10.502513454
 20
9.0832111505
 30
0.0
 10
10.5159395348
 20
9.0907812605
 30
0.0
 10
10.5297664916
 20
9.0976543621
 30
0.0
 10
10.5439609778
 20
9.1038138898
 30
0.0
 10
10.5584887497
 20
9.1092450298
 30
0.0
 10
10.5733147677
 20
9.1139347308
 30
0.0
 10
10.5884032824
 20
9.1178717195
 30
0.0
 10
10.6037179137
 20
9.1210465368
 30
0.0
 10
10.6192217721
 20
9.123451565
 30
0.0
 10
10.6348773904
 20
9.1250810119
 30
0.0
 10
10.6506473272
 20
9.1259311094
 30
0.0
 10
10.6664929035
 20
9.1259996968
 30
0.0
 10
10.6770649615
 20
9.1255251767
 30
0.0
 10
10.6823500294
 20
9.125158656
 30
0.0
  0
SPLINE
  5
3C7
100
AcDbEntity
  8
0
100
AcDbSpline
 62
7
  6
CONTINUOUS
 70
0
 71
3
 72
39
 73
35
 74
0
 42
0.0000001
 43
0.0000001
 44
0.0000000001
 40
0.0
 40
0.0
 40
0.0
 40
0.0
 40
0.0311450424
 40
0.062443103
 40
0.093888348
 40
0.1254709887
 40
0.1571788844
 40
0.1889972605
 40
0.2209091753
 40
0.252895844
 40
0.2849370233
 40
0.3170114137
 40
0.3490970737
 40
0.3811718446
 40
0.413213777
 40
0.4452015562
 40
0.4771149179
 40
0.5089350501
 40
0.540644973
 40
0.572229893
 40
0.6036775227
 40
0.6349783628
 40
0.666125934
 40
0.6971169547
 40
0.7279514582
 40
0.7586328418
 40
0.7891678433
 40
0.8195664429
 40
0.8498416839
 40
0.8800094159
 40
0.9100879624
 40
0.9400977195
 40
0.9700606952
 40
1.0
 40
1.0
 40
1.0
 40
1.0
 10
10.6914086885
 20
8.5205457133
 30
0.0
 10
10.6843325819
 20
8.5210364429
 30
0.0
 10
10.6701762566
 20
8.5225382523
 30
0.0
 10
10.6491133925
 20
8.5263213744
 30
0.0
 10
10.6282761332
 20
8.5316203685
 30
0.0
 10
10.6077770075
 20
8.5384067723
 30
0.0
 10
10.5877249281
 20
8.5466441903
 30
0.0
 10
10.5682268561
 20
8.5562885741
 30
0.0
 10
10.5493866663
 20
8.5672883878
 30
0.0
 10
10.531304748
 20
8.5795848946
 30
0.0
 10
10.5140774382
 20
8.5931124759
 30
0.0
 10
10.4977965296
 20
8.6077989823
 30
0.0
 10
10.4825487835
 20
8.6235661142
 30
0.0
 10
10.4684154737
 20
8.6403298344
 30
0.0
 10
10.45547196
 20
8.6580008122
 30
0.0
 10
10.4437872751
 20
8.6764848837
 30
0.0
 10
10.4334237667
 20
8.6956835568
 30
0.0
 10
10.4244367733
 20
8.7154945329
 30
0.0
 10
10.4168743295
 20
8.7358122436
 30
0.0
 10
10.4107769094
 20
8.7565284053
 30
0.0
 10
10.406177213
 20
8.7775325878
 30
0.0
 10
10.4030999712
 20
8.7987127919
 30
0.0
 10
10.4015618138
 20
8.8199560423
 30
0.0
 10
10.4015711844
 20
8.8411489842
 30
0.0
 10
10.4031282834
 20
8.86217848
 30
0.0
 10
10.4062250555
 20
8.8829322081
 30
0.0
 10
10.4108452219
 20
8.9032992581
 30
0.0
 10
10.416964341
 20
8.9231707293
 30
0.0
 10
10.4245499159
 20
8.9424403107
 30
0.0
 10
10.4335616048
 20
8.9610048891
 30
0.0
 10
10.4439512857
 20
8.9787649777
 30
0.0
 10
10.4556638149
 20
8.995625761
 30
0.0
 10
10.4686354238
 20
9.0114957596
 30
0.0
 10
10.4780804597
 20
9.0213627258
 30
0.0
 10
10.482984709
 20
9.0260998469
 30
0.0
  0
SPLINE
  5
3C8
100
AcDbEntity
  8
0
100
AcDbSpline
 62
7
  6
CONTINUOUS
 70
0
 71
3
 72
46
 73
42
 74
0
 42
0.0000001
 43
0.0000001
 44
0.0000000001
 40
0.0
 40
0.0
 40
0.0
 40
0.0
 40
0.031143804
 40
0.0624406641
 40
0.0938846266
 40
0.1254660369
 40
0.1571726773
 40
0.188989797
 40
0.2209004514
 40
0.2528858567
 40
0.2849257707
 40
0.3169988946
 40
0.3490832879
 40
0.3811567922
 40
0.4131974593
 40
0.4451839758
 40
0.4770960786
 40
0.5089149549
 40
0.5406236259
 40
0.5722072995
 40
0.6036536882
 40
0.6349532936
 40
0.6660996371
 40
0.6970894354
 40
0.727922722
 40
0.7586028953
 40
0.7891366922
 40
0.8043544294
 40
0.8195395762
 40
0.8346938584
 40
0.8498191748
 40
0.8649175902
 40
0.8799913269
 40
0.8950427481
 40
0.9100743467
 40
0.9250887336
 40
0.940088619
 40
0.9550767983
 40
0.9700561375
 40
0.9850295542
 40
1.0
 40
1.0
 40
1.0
 40
1.0
 10
10.6740678266
 20
8.3347586963
 30
0.0
 10
10.6628639984
 20
8.3355356844
 30
0.0
 10
10.6404498167
 20
8.3379135585
 30
0.0
 10
10.6071002954
 20
8.3439034762
 30
0.0
 10
10.5741079744
 20
8.3522935419
 30
0.0
 10
10.5416510476
 20
8.3630386777
 30
0.0
 10
10.5099019347
 20
8.3760812658
 30
0.0
 10
10.4790299933
 20
8.3913515198
 30
0.0
 10
10.4491997047
 20
8.4087678866
 30
0.0
 10
10.4205700053
 20
8.4282373381
 30
0.0
 10
10.3932934226
 20
8.4496559765
 30
0.0
 10
10.3675153299
 20
8.4729096075
 30
0.0
 10
10.3433730792
 20
8.4978742281
 30
0.0
 10
10.320995333
 20
8.5244167633
 30
0.0
 10
10.3005014387
 20
8.5523957978
 30
0.0
 10
10.282000683
 20
8.5816622261
 30
0.0
 10
10.2655917684
 20
8.6120600974
 30
0.0
 10
10.2513623614
 20
8.6434274635
 30
0.0
 10
10.2393885005
 20
8.6755971621
 30
0.0
 10
10.2297342343
 20
8.708397733
 30
0.0
 10
10.2224513698
 20
8.7416543422
 30
0.0
 10
10.2175790548
 20
8.7751896476
 30
0.0
 10
10.215143603
 20
8.808824795
 30
0.0
 10
10.215158404
 20
8.8423802216
 30
0.0
 10
10.2176238766
 20
8.8756771146
 30
0.0
 10
10.2225268304
 20
8.9085364248
 30
0.0
 10
10.2286307073
 20
8.9354432277
 30
0.0
 10
10.2347019543
 20
8.9565667049
 30
0.0
 10
10.2398376017
 20
8.9721760457
 30
0.0
 10
10.2455531363
 20
8.987546732
 30
0.0
 10
10.2518410347
 20
9.002658504
 30
0.0
 10
10.2586928822
 20
9.0174910923
 30
0.0
 10
10.2660995001
 20
9.032024717
 30
0.0
 10
10.2740510492
 20
9.0462399264
 30
0.0
 10
10.2825368992
 20
9.0601177306
 30
0.0
 10
10.2915456841
 20
9.0736396038
 30
0.0
 10
10.3010654239
 20
9.0867874484
 30
0.0
 10
10.3110833686
 20
9.0995436859
 30
0.0
 10
10.3215861699
 20
9.1118913541
 30
0.0
 10
10.332559608
 20
9.1238136845
 30
0.0
 10
10.3401800331
 20
9.1314685579
 30
0.0
 10
10.3440629117
 20
9.1352191344
 30
0.0
  0
SPLINE
  5
3C9
100
AcDbEntity
  8
0
100
AcDbSpline
 62
7
  6
CONTINUOUS
 70
0
 71
3
 72
42
 73
38
 74
0
 42
0.0000001
 43
0.0000001
 44
0.0000000001
 40
0.0
 40
0.0
 40
0.0
 40
0.0
 40
0.0309504454
 40
0.0464779408
 40
0.062037871
 40
0.093250385
 40
0.1245853304
 40
0.1560344379
 40
0.1875876623
 40
0.2192333925
 40
0.2509586266
 40
0.2827491802
 40
0.3145899027
 40
0.3464649059
 40
0.3783577992
 40
0.4102519305
 40
0.4421306296
 40
0.4739774518
 40
0.5057764195
 40
0.537512258
 40
0.5691706257
 40
0.6007383326
 40
0.6322035472
 40
0.6635559872
 40
0.6947870924
 40
0.7258901758
 40
0.7568605499
 40
0.7876956262
 40
0.8183949831
 40
0.8489604024
 40
0.864196061
 40
0.8793999098
 40
0.9097115709
 40
0.9399076654
 40
0.9549675802
 40
0.9700025867
 40
1.0
 40
1.0
 40
1.0
 40
1.0
 10
10.8378922933
 20
8.6803906104
 30
0.0
 10
10.8321253026
 20
8.6807905526
 30
0.0
 10
10.8234809542
 20
8.6816662766
 30
0.0
 10
10.8120190149
 20
8.6833749502
 30
0.0
 10
10.8005674908
 20
8.6854495627
 30
0.0
 10
10.78633971
 20
8.6887200302
 30
0.0
 10
10.769494349
 20
8.69370418
 30
0.0
 10
10.7529257054
 20
8.6997320341
 30
0.0
 10
10.7367011155
 20
8.7067790919
 30
0.0
 10
10.720886003
 20
8.71481683
 30
0.0
 10
10.7055442711
 20
8.7238127145
 30
0.0
 10
10.6907378709
 20
8.7337303586
 30
0.0
 10
10.676526601
 20
8.7445296625
 30
0.0
 10
10.6629678552
 20
8.7561669766
 30
0.0
 10
10.6501163966
 20
8.768595276
 30
0.0
 10
10.6380241366
 20
8.7817643498
 30
0.0
 10
10.6267399278
 20
8.7956210022
 30
0.0
 10
10.6163093672
 20
8.8101092656
 30
0.0
 10
10.6067746139
 20
8.8251706253
 30
0.0
 10
10.5981742195
 20
8.8407442536
 30
0.0
 10
10.5905429728
 20
8.8567672531
 30
0.0
 10
10.5839117601
 20
8.8731749089
 30
0.0
 10
10.5783074402
 20
8.8899009468
 30
0.0
 10
10.5737527355
 20
8.9068777995
 30
0.0
 10
10.5702661389
 20
8.9240368728
 30
0.0
 10
10.5678618402
 20
8.9413088344
 30
0.0
 10
10.5665496566
 20
8.9586238379
 30
0.0
 10
10.5663350283
 20
8.9759120002
 30
0.0
 10
10.5672188516
 20
8.9931029493
 30
0.0
 10
10.5688699435
 20
9.007306692
 30
0.0
 10
10.5707356673
 20
9.01854901
 30
0.0
 10
10.572957417
 20
9.0296781077
 30
0.0
 10
10.5764049215
 20
9.0434037854
 30
0.0
 10
10.5807418783
 20
9.0568467879
 30
0.0
 10
10.5847302069
 20
9.0673799003
 30
0.0
 10
10.5890529267
 20
9.0777395627
 30
0.0
 10
10.5926804781
 20
9.085337345
 30
0.0
 10
10.5952634909
 20
9.0903092492
 30
0.0
  0
SPLINE
  5
3CA
100
AcDbEntity
  8
0
100
AcDbSpline
 62
7
  6
CONTINUOUS
 70
0
 71
3
 72
41
 73
37
 74
0
 42
0.0000001
 43
0.0000001
 44
0.0000000001
 40
0.0
 40
0.0
 40
0.0
 40
0.0
 40
0.0309101486
 40
0.0619495321
 40
0.0931139957
 40
0.1243977517
 40
0.1557931509
 40
0.1872909872
 40
0.2188805744
 40
0.2505499358
 40
0.2822859733
 40
0.3140746609
 40
0.3459012425
 40
0.3777504394
 40
0.4096066615
 40
0.4414542222
 40
0.4732775539
 40
0.5050614226
 40
0.5367911389
 40
0.5684527645
 40
0.60003331
 40
0.6315209243
 40
0.6629050714
 40
0.6941766924
 40
0.7253283517
 40
0.756354363
 40
0.7872508936
 40
0.8180160443
 40
0.8486499028
 40
0.8639200494
 40
0.8791583263
 40
0.9095379
 40
0.9397984502
 40
0.9548884505
 40
0.9699518301
 40
1.0
 40
1.0
 40
1.0
 40
1.0
 10
10.83505314
 20
8.659295607
 30
0.0
 10
10.8290813732
 20
8.6597097504
 30
0.0
 10
10.817135255
 20
8.6609084085
 30
0.0
 10
10.7993251942
 20
8.6637989945
 30
0.0
 10
10.7816508919
 20
8.6677751232
 30
0.0
 10
10.7641804578
 20
8.6728215025
 30
0.0
 10
10.7469800596
 20
8.6789188923
 30
0.0
 10
10.7301151473
 20
8.6860440242
 30
0.0
 10
10.7136498014
 20
8.6941697511
 30
0.0
 10
10.6976466019
 20
8.7032651267
 30
0.0
 10
10.6821663636
 20
8.7132955327
 30
0.0
 10
10.6672679143
 20
8.7242228063
 30
0.0
 10
10.6530078714
 20
8.7360053863
 30
0.0
 10
10.6394404289
 20
8.7485984697
 30
0.0
 10
10.6266171532
 20
8.7619541808
 30
0.0
 10
10.614586788
 20
8.7760217528
 30
0.0
 10
10.6033950709
 20
8.7907477186
 30
0.0
 10
10.5930845601
 20
8.8060761129
 30
0.0
 10
10.5836944743
 20
8.8219486833
 30
0.0
 10
10.5752605434
 20
8.8383051097
 30
0.0
 10
10.5678148738
 20
8.8550832318
 30
0.0
 10
10.5613858264
 20
8.8722192827
 30
0.0
 10
10.5559979088
 20
8.8896481304
 30
0.0
 10
10.5516716807
 20
8.9073035192
 30
0.0
 10
10.5484236775
 20
8.9251183326
 30
0.0
 10
10.5462663378
 20
8.9430247949
 30
0.0
 10
10.545207983
 20
8.960954918
 30
0.0
 10
10.5452526778
 20
8.9788400466
 30
0.0
 10
10.5462103142
 20
8.9936674761
 30
0.0
 10
10.547527238
 20
9.0054366193
 30
0.0
 10
10.5492058929
 20
9.0171099027
 30
0.0
 10
10.5519838771
 20
9.0315502701
 30
0.0
 10
10.5556664951
 20
9.0457573239
 30
0.0
 10
10.5591436036
 20
9.0569304959
 30
0.0
 10
10.5629642561
 20
9.0679469173
 30
0.0
 10
10.5662253452
 20
9.0760604808
 30
0.0
 10
10.5685698761
 20
9.0813864553
 30
0.0
  0
SPLINE
  5
3CB
100
AcDbEntity
  8
0
100
AcDbSpline
 62
7
  6
CONTINUOUS
 70
0
 71
3
 72
23
 73
19
 74
0
 42
0.0000001
 43
0.0000001
 44
0.0000000001
 40
0.0
 40
0.0
 40
0.0
 40
0.0
 40
0.0616482057
 40
0.123319439
 40
0.1850364697
 40
0.2468215573
 40
0.308696204
 40
0.3706809203
 40
0.4327950036
 40
0.4950563332
 40
0.5574811873
 40
0.6200840738
 40
0.6828776141
 40
0.7458723365
 40
0.8090768798
 40
0.872497055
 40
0.9361379958
 40
1.0
 40
1.0
 40
1.0
 40
1.0
 10
10.979755621
 20
6.4245082961
 30
0.0
 10
10.9748179231
 20
6.4197388581
 30
0.0
 10
10.9646819553
 20
6.4104619355
 30
0.0
 10
10.9487490465
 20
6.3973811001
 30
0.0
 10
10.9321242654
 20
6.3851648962
 30
0.0
 10
10.91485008
 20
6.373844626
 30
0.0
 10
10.8969698731
 20
6.3634486459
 30
0.0
 10
10.8785287469
 20
6.3540031585
 30
0.0
 10
10.8595731614
 20
6.345531916
 30
0.0
 10
10.8401508837
 20
6.3380562193
 30
0.0
 10
10.820310848
 20
6.33159485
 30
0.0
 10
10.8001030319
 20
6.3261640265
 30
0.0
 10
10.7795783389
 20
6.3217773783
 30
0.0
 10
10.75878843
 20
6.3184458742
 30
0.0
 10
10.7377857336
 20
6.3161778842
 30
0.0
 10
10.7166228561
 20
6.314978996
 30
0.0
 10
10.6953538517
 20
6.3148522275
 30
0.0
 10
10.6811623233
 20
6.3154815947
 30
0.0
 10
10.6740678266
 20
6.3159735997
 30
0.0
  0
SPLINE
  5
3CC
100
AcDbEntity
  8
0
100
AcDbSpline
 62
7
  6
CONTINUOUS
 70
0
 71
3
 72
71
 73
67
 74
0
 42
0.0000001
 43
0.0000001
 44
0.0000000001
 40
0.0
 40
0.0
 40
0.0
 40
0.0
 40
0.0156216713
 40
0.0311907735
 40
0.0467067124
 40
0.0621710777
 40
0.0775850543
 40
0.092950633
 40
0.1082702313
 40
0.1235467313
 40
0.1387834652
 40
0.1539841701
 40
0.1691529587
 40
0.1842942788
 40
0.199412868
 40
0.2145137046
 40
0.2296019551
 40
0.2446829197
 40
0.259761977
 40
0.2748445264
 40
0.2899359303
 40
0.305041456
 40
0.3201662196
 40
0.335315133
 40
0.3504928533
 40
0.3657037351
 40
0.380951786
 40
0.396240627
 40
0.4115734587
 40
0.4269530336
 40
0.4423816313
 40
0.4578610403
 40
0.473392543
 40
0.4889769098
 40
0.5046143978
 40
0.5203047532
 40
0.5360472177
 40
0.5518405398
 40
0.5676829928
 40
0.5835723959
 40
0.599506138
 40
0.615481204
 40
0.6314942039
 40
0.6475414087
 40
0.6636187853
 40
0.6797220339
 40
0.695846626
 40
0.7119878447
 40
0.7281408289
 40
0.7443006155
 40
0.7604621821
 40
0.7766204898
 40
0.7927705277
 40
0.808907358
 40
0.8250261586
 40
0.8411222649
 40
0.8571912102
 40
0.8732287681
 40
0.8892309903
 40
0.9051942486
 40
0.9211152551
 40
0.9369911057
 40
0.9528193707
 40
0.9685977533
 40
0.9843253334
 40
1.0
 40
1.0
 40
1.0
 40
1.0
 10
10.6823500294
 20
8.477988314
 30
0.0
 10
10.6876350972
 20
8.4776217933
 30
0.0
 10
10.6982071553
 20
8.4771472733
 30
0.0
 10
10.7140527316
 20
8.4772158606
 30
0.0
 10
10.7298226683
 20
8.4780659582
 30
0.0
 10
10.7454782866
 20
8.479695405
 30
0.0
 10
10.760982145
 20
8.4821004333
 30
0.0
 10
10.7762967763
 20
8.4852752505
 30
0.0
 10
10.7913852911
 20
8.4892122393
 30
0.0
 10
10.806211309
 20
8.4939019402
 30
0.0
 10
10.820739081
 20
8.4993330803
 30
0.0
 10
10.8349335671
 20
8.5054926079
 30
0.0
 10
10.848760524
 20
8.5123657096
 30
0.0
 10
10.8621866047
 20
8.5199358195
 30
0.0
 10
10.8751794239
 20
8.5281846974
 30
0.0
 10
10.8877076368
 20
8.5370924664
 30
0.0
 10
10.8997410118
 20
8.5466376632
 30
0.0
 10
10.9112505111
 20
8.5567972793
 30
0.0
 10
10.9222083818
 20
8.5675467982
 30
0.0
 10
10.9325881975
 20
8.5788602884
 30
0.0
 10
10.9423649262
 20
8.5907104592
 30
0.0
 10
10.951514985
 20
8.6030687302
 30
0.0
 10
10.9600163108
 20
8.6159052889
 30
0.0
 10
10.9678484324
 20
8.6291891557
 30
0.0
 10
10.974992487
 20
8.6428882828
 30
0.0
 10
10.9814312722
 20
8.6569696267
 30
0.0
 10
10.9871492788
 20
8.6713992295
 30
0.0
 10
10.9921327485
 20
8.6861422915
 30
0.0
 10
10.9963697185
 20
8.7011632561
 30
0.0
 10
10.9998500164
 20
8.7164259084
 30
0.0
 10
11.0025652905
 20
8.7318934587
 30
0.0
 10
11.0045090216
 20
8.7475286302
 30
0.0
 10
11.0056765643
 20
8.7632937442
 30
0.0
 10
11.0060651609
 20
8.7791508147
 30
0.0
 10
11.0056739168
 20
8.7950616426
 30
0.0
 10
11.0045038092
 20
8.8109879053
 30
0.0
 10
11.0025576766
 20
8.8268912458
 30
0.0
 10
10.9998402421
 20
8.8427333667
 30
0.0
 10
10.9963580968
 20
8.8584761256
 30
0.0
 10
10.9921196573
 20
8.8740816227
 30
0.0
 10
10.987135153
 20
8.8895122907
 30
0.0
 10
10.9814165944
 20
8.9047309802
 30
0.0
 10
10.974977776
 20
8.9197010594
 30
0.0
 10
10.9678342314
 20
8.9343865019
 30
0.0
 10
10.9600031752
 20
8.9487519639
 30
0.0
 10
10.9515034692
 20
8.96276287
 30
0.0
 10
10.9423555718
 20
8.9763854903
 30
0.0
 10
10.9325815192
 20
8.9895870406
 30
0.0
 10
10.9222048552
 20
9.0023357547
 30
0.0
 10
10.9112505622
 20
9.0146009493
 30
0.0
 10
10.8997450062
 20
9.0263530999
 30
0.0
 10
10.8877158709
 20
9.0375639047
 30
0.0
 10
10.8751921174
 20
9.0482063815
 30
0.0
 10
10.8622038953
 20
9.0582549165
 30
0.0
 10
10.8487824638
 20
9.0676853156
 30
0.0
 10
10.8349601211
 20
9.0764748646
 30
0.0
 10
10.8207701258
 20
9.0846023782
 30
0.0
 10
10.8062466364
 20
9.0920482853
 30
0.0
 10
10.7914246121
 20
9.0987946541
 30
0.0
 10
10.7763397262
 20
9.1048252213
 30
0.0
 10
10.7610282902
 20
9.1101254388
 30
0.0
 10
10.7455271327
 20
9.1146825205
 30
0.0
 10
10.7298736653
 20
9.1184854167
 30
0.0
 10
10.7141053029
 20
9.1215250948
 30
0.0
 10
10.6982606765
 20
9.1237939599
 30
0.0
 10
10.6876530264
 20
9.1247908919
 30
0.0
 10
10.6823500294
 20
9.125158656
 30
0.0
  0
SPLINE
  5
3CD
100
AcDbEntity
  8
0
100
AcDbSpline
 62
7
  6
CONTINUOUS
 70
0
 71
3
 72
15
 73
11
 74
0
 42
0.0000001
 43
0.0000001
 44
0.0000000001
 40
0.0
 40
0.0
 40
0.0
 40
0.0
 40
0.1235887255
 40
0.2475361694
 40
0.371870259
 40
0.4966146223
 40
0.6217886068
 40
0.7474038826
 40
0.8734764763
 40
1.0
 40
1.0
 40
1.0
 40
1.0
 10
10.9134107815
 20
6.7003706534
 30
0.0
 10
10.9101693862
 20
6.6991597991
 30
0.0
 10
10.9036093402
 20
6.6969120006
 30
0.0
 10
10.8935864275
 20
6.6940764552
 30
0.0
 10
10.8833930694
 20
6.6917796439
 30
0.0
 10
10.8730573332
 20
6.6900279203
 30
0.0
 10
10.8626072769
 20
6.6888260107
 30
0.0
 10
10.8520710894
 20
6.688177045
 30
0.0
 10
10.8414779136
 20
6.6880828899
 30
0.0
 10
10.8344087282
 20
6.6883895392
 30
0.0
 10
10.8308748739
 20
6.6886346128
 30
0.0
  0
SPLINE
  5
3CE
100
AcDbEntity
  8
0
100
AcDbSpline
 62
7
  6
CONTINUOUS
 70
0
 71
3
 72
23
 73
19
 74
0
 42
0.0000001
 43
0.0000001
 44
0.0000000001
 40
0.0
 40
0.0
 40
0.0
 40
0.0
 40
0.0638614315
 40
0.1275032443
 40
0.1909230334
 40
0.2541276741
 40
0.3171224002
 40
0.379915926
 40
0.4425188184
 40
0.5049436646
 40
0.5672049931
 40
0.6293190762
 40
0.6913037914
 40
0.7531784355
 40
0.8149635211
 40
0.876680553
 40
0.9383517903
 40
1.0
 40
1.0
 40
1.0
 40
1.0
 10
10.6914086885
 20
8.5205457133
 30
0.0
 10
10.6962458162
 20
8.5202102573
 30
0.0
 10
10.7059219099
 20
8.5197811596
 30
0.0
 10
10.7204235403
 20
8.5198675667
 30
0.0
 10
10.7348528601
 20
8.5206850256
 30
0.0
 10
10.749172902
 20
8.5222313705
 30
0.0
 10
10.7633478878
 20
8.5245028635
 30
0.0
 10
10.777342033
 20
8.5274937906
 30
0.0
 10
10.791120123
 20
8.5311966567
 30
0.0
 10
10.8046474534
 20
8.5356021676
 30
0.0
 10
10.8178899491
 20
8.5406992601
 30
0.0
 10
10.830814244
 20
8.5464751377
 30
0.0
 10
10.8433877626
 20
8.5529152879
 30
0.0
 10
10.8555788328
 20
8.5600035031
 30
0.0
 10
10.8673567076
 20
8.5677219122
 30
0.0
 10
10.8786918044
 20
8.5760511861
 30
0.0
 10
10.8895551748
 20
8.5849699771
 30
0.0
 10
10.8964660429
 20
8.5912952133
 30
0.0
 10
10.899832668
 20
8.5945471097
 30
0.0
  0
SPLINE
  5
3CF
100
AcDbEntity
  8
0
100
AcDbSpline
 62
7
  6
CONTINUOUS
 70
0
 71
3
 72
44
 73
40
 74
0
 42
0.0000001
 43
0.0000001
 44
0.0000000001
 40
0.0
 40
0.0
 40
0.0
 40
0.0
 40
0.0311273708
 40
0.0624059187
 40
0.0938299602
 40
0.1253901011
 40
0.157074556
 40
0.1888690511
 40
0.220757183
 40
0.2527207517
 40
0.2847401192
 40
0.3167945897
 40
0.3488628058
 40
0.3809231512
 40
0.4129541577
 40
0.4449349106
 40
0.4768454455
 40
0.5086671329
 40
0.5403830472
 40
0.5719783072
 40
0.6034403875
 40
0.6347593942
 40
0.6659282999
 40
0.6969431231
 40
0.727803054
 40
0.7585105206
 40
0.7890711872
 40
0.8194938769
 40
0.8497904242
 40
0.8648985848
 40
0.8799809106
 40
0.8950396185
 40
0.9100770553
 40
0.9250956911
 40
0.9400981043
 40
0.9550869635
 40
0.9700650177
 40
0.9850350781
 40
1.0
 40
1.0
 40
1.0
 40
1.0
 10
10.6823500294
 20
6.3239735938
 30
0.0
 10
10.6720964031
 20
6.3246846852
 30
0.0
 10
10.6515833216
 20
6.3268517892
 30
0.0
 10
10.6210573793
 20
6.332293843
 30
0.0
 10
10.590850574
 20
6.3399070329
 30
0.0
 10
10.5611221568
 20
6.3496514285
 30
0.0
 10
10.5320263265
 20
6.3614760621
 30
0.0
 10
10.5037145894
 20
6.3753191525
 30
0.0
 10
10.4763341775
 20
6.3911084819
 30
0.0
 10
10.4500275339
 20
6.4087617703
 30
0.0
 10
10.4249314933
 20
6.4281870609
 30
0.0
 10
10.4011765807
 20
6.449283189
 30
0.0
 10
10.3788863734
 20
6.4719403545
 30
0.0
 10
10.358176873
 20
6.496040682
 30
0.0
 10
10.339155856
 20
6.5214587805
 30
0.0
 10
10.3219223348
 20
6.5480624148
 30
0.0
 10
10.3065660792
 20
6.5757132072
 30
0.0
 10
10.2931671558
 20
6.604267341
 30
0.0
 10
10.2817954388
 20
6.6335762644
 30
0.0
 10
10.2725103021
 20
6.6634874882
 30
0.0
 10
10.2653603266
 20
6.6938453693
 30
0.0
 10
10.2603830342
 20
6.7244918992
 30
0.0
 10
10.2576046131
 20
6.7552675087
 30
0.0
 10
10.2570398489
 20
6.7860118992
 30
0.0
 10
10.2586920561
 20
6.8165648915
 30
0.0
 10
10.2625529554
 20
6.8467671275
 30
0.0
 10
10.2686028705
 20
6.8764613626
 30
0.0
 10
10.2768100979
 20
6.9054915942
 30
0.0
 10
10.2854217265
 20
6.9290299504
 30
0.0
 10
10.2933410133
 20
6.9473699553
 30
0.0
 10
10.2997828457
 20
6.9608554148
 30
0.0
 10
10.3067233837
 20
6.9740645179
 30
0.0
 10
10.3141537362
 20
6.9869802578
 30
0.0
 10
10.3220641338
 20
6.9995857476
 30
0.0
 10
10.3304442846
 20
7.0118645628
 30
0.0
 10
10.3392832909
 20
7.0238006314
 30
0.0
 10
10.3485696148
 20
7.0353784892
 30
0.0
 10
10.3582909899
 20
7.0465827871
 30
0.0
 10
10.3650547167
 20
7.0537948299
 30
0.0
 10
10.368504105
 20
7.057333093
 30
0.0
  0
SPLINE
  5
3D0
100
AcDbEntity
  8
0
100
AcDbSpline
 62
7
  6
CONTINUOUS
 70
0
 71
3
 72
25
 73
21
 74
0
 42
0.0000001
 43
0.0000001
 44
0.0000000001
 40
0.0
 40
0.0
 40
0.0
 40
0.0
 40
0.0616475256
 40
0.0924812752
 40
0.1233236417
 40
0.1850399904
 40
0.2468243943
 40
0.277751631
 40
0.3087038637
 40
0.3706878925
 40
0.4328012858
 40
0.495061923
 40
0.5574860832
 40
0.6200882745
 40
0.682881117
 40
0.745875147
 40
0.8090789725
 40
0.8724984981
 40
0.9361386362
 40
1.0
 40
1.0
 40
1.0
 40
1.0
 10
11.0040727415
 20
8.4519278476
 30
0.0
 10
10.9987422594
 20
8.4467789921
 30
0.0
 10
10.9905356771
 20
8.4392679086
 30
0.0
 10
10.9792036183
 20
8.42970638
 30
0.0
 10
10.9676121028
 20
8.420447245
 30
0.0
 10
10.9526525048
 20
8.409454513
 30
0.0
 10
10.9371168529
 20
8.3992735539
 30
0.0
 10
10.9243645457
 20
8.3916289442
 30
0.0
 10
10.9113919604
 20
8.3843154736
 30
0.0
 10
10.8947933382
 20
8.375813632
 30
0.0
 10
10.8743300756
 20
8.3666685881
 30
0.0
 10
10.8533627165
 20
8.3585981298
 30
0.0
 10
10.8319444379
 20
8.3516227329
 30
0.0
 10
10.8101290989
 20
8.3457598541
 30
0.0
 10
10.7879716774
 20
8.3410242212
 30
0.0
 10
10.7655279398
 20
8.3374276761
 30
0.0
 10
10.7428544802
 20
8.3349792472
 30
0.0
 10
10.7200081077
 20
8.3336849827
 30
0.0
 10
10.6970471553
 20
8.3335481173
 30
0.0
 10
10.6817266972
 20
8.3342275518
 30
0.0
 10
10.6740678266
 20
8.3347586963
 30
0.0
  0
SPLINE
  5
3D1
100
AcDbEntity
  8
0
100
AcDbSpline
 62
7
  6
CONTINUOUS
 70
0
 71
3
 72
15
 73
11
 74
0
 42
0.0000001
 43
0.0000001
 44
0.0000000001
 40
0.0
 40
0.0
 40
0.0
 40
0.0
 40
0.126591165
 40
0.2527058305
 40
0.3783441182
 40
0.5035201729
 40
0.628248939
 40
0.7525528762
 40
0.8764591152
 40
1.0
 40
1.0
 40
1.0
 40
1.0
 10
10.83505314
 20
8.659295607
 30
0.0
 10
10.8403224684
 20
8.6589301778
 30
0.0
 10
10.8508634036
 20
8.6584862285
 30
0.0
 10
10.866656027
 20
8.6586871651
 30
0.0
 10
10.8823551331
 20
8.6597556549
 30
0.0
 10
10.8979131037
 20
8.6616884752
 30
0.0
 10
10.9132836534
 20
8.6644799784
 30
0.0
 10
10.9284209211
 20
8.6681218994
 30
0.0
 10
10.9432790461
 20
8.67260318
 30
0.0
 10
10.95298365
 20
8.6761468825
 30
0.0
 10
10.9577727526
 20
8.678053596
 30
0.0
  0
SPLINE
  5
3D2
100
AcDbEntity
  8
0
100
AcDbSpline
 62
7
  6
CONTINUOUS
 70
0
 71
3
 72
67
 73
63
 74
0
 42
0.0000001
 43
0.0000001
 44
0.0000000001
 40
0.0
 40
0.0
 40
0.0
 40
0.0
 40
0.0156750942
 40
0.0314033581
 40
0.0471822291
 40
0.0630110277
 40
0.078887432
 40
0.0948089712
 40
0.110772773
 40
0.1267755397
 40
0.1428136435
 40
0.1588831344
 40
0.1749797863
 40
0.1910991351
 40
0.2233785987
 40
0.2556910937
 40
0.287996481
 40
0.3202548685
 40
0.3363586645
 40
0.3524365872
 40
0.3684843373
 40
0.384497882
 40
0.4004734902
 40
0.4164077731
 40
0.4322977167
 40
0.4481407093
 40
0.4639345675
 40
0.4796775654
 40
0.4953684542
 40
0.5110064753
 40
0.5265913717
 40
0.5421234007
 40
0.5576033351
 40
0.5730324586
 40
0.5884125566
 40
0.6037459086
 40
0.6190352684
 40
0.634283838
 40
0.649495237
 40
0.6646734728
 40
0.6798229009
 40
0.6949481788
 40
0.7100542177
 40
0.7251461339
 40
0.7402291958
 40
0.7553087663
 40
0.7703902437
 40
0.785479006
 40
0.800580355
 40
0.8156994586
 40
0.8308412945
 40
0.8460105982
 40
0.8612118184
 40
0.8764490695
 40
0.8917260901
 40
0.9070462114
 40
0.9224123039
 40
0.9378268167
 40
0.9532917037
 40
0.9688081228
 40
0.9843779034
 40
1.0
 40
1.0
 40
1.0
 40
1.0
 10
10.6823500294
 20
6.4930106234
 30
0.0
 10
10.6781551494
 20
6.4933015393
 30
0.0
 10
10.6697640127
 20
6.4940901698
 30
0.0
 10
10.6572302023
 20
6.495884926
 30
0.0
 10
10.6447566967
 20
6.4982894568
 30
0.0
 10
10.6323741117
 20
6.5012977102
 30
0.0
 10
10.6201120049
 20
6.5049025778
 30
0.0
 10
10.6079999736
 20
6.5090952914
 30
0.0
 10
10.5960671492
 20
6.513865727
 30
0.0
 10
10.5843422625
 20
6.5192023954
 30
0.0
 10
10.5728535279
 20
6.5250924677
 30
0.0
 10
10.5616286565
 20
6.5315216655
 30
0.0
 10
10.550694392
 20
6.5384747249
 30
0.0
 10
10.5365339358
 20
6.5484242256
 30
0.0
 10
10.5196927912
 20
6.5620842034
 30
0.0
 10
10.5010629228
 20
6.5802622608
 30
0.0
 10
10.4841763946
 20
6.6000629076
 30
0.0
 10
10.4716825705
 20
6.617772173
 30
0.0
 10
10.4627140648
 20
6.6325560782
 30
0.0
 10
10.4565192181
 20
6.643919978
 30
0.0
 10
10.4508683859
 20
6.6555367717
 30
0.0
 10
10.4457749792
 20
6.6673787858
 30
0.0
 10
10.4412513578
 20
6.6794174516
 30
0.0
 10
10.4373083905
 20
6.6916238011
 30
0.0
 10
10.4339555852
 20
6.7039684452
 30
0.0
 10
10.4312010437
 20
6.7164216711
 30
0.0
 10
10.4290514499
 20
6.7289535011
 30
0.0
 10
10.4275119794
 20
6.7415337555
 30
0.0
 10
10.4265863575
 20
6.7541321412
 30
0.0
 10
10.4262768511
 20
6.766718319
 30
0.0
 10
10.4265842632
 20
6.7792619717
 30
0.0
 10
10.4275078563
 20
6.7917328809
 30
0.0
 10
10.4290454272
 20
6.8041010019
 30
0.0
 10
10.4311933116
 20
6.8163365306
 30
0.0
 10
10.4339463917
 20
6.8284099706
 30
0.0
 10
10.4372980351
 20
6.8402922228
 30
0.0
 10
10.4412401833
 20
6.8519546442
 30
0.0
 10
10.4457633701
 20
6.863369111
 30
0.0
 10
10.4508567414
 20
6.8745080831
 30
0.0
 10
10.4565080126
 20
6.8853447038
 30
0.0
 10
10.462703569
 20
6.8958528384
 30
0.0
 10
10.4694284951
 20
6.9060071334
 30
0.0
 10
10.4766666086
 20
6.9157830737
 30
0.0
 10
10.4844004381
 20
6.9251570893
 30
0.0
 10
10.4926113305
 20
6.9341065726
 30
0.0
 10
10.5012794923
 20
6.9426099288
 30
0.0
 10
10.5103840347
 20
6.9506466255
 30
0.0
 10
10.5199029745
 20
6.9581973004
 30
0.0
 10
10.5298133431
 20
6.9652437559
 30
0.0
 10
10.5400912383
 20
6.9717689991
 30
0.0
 10
10.5507118784
 20
6.9777572805
 30
0.0
 10
10.5616496263
 20
6.9831941986
 30
0.0
 10
10.5728780948
 20
6.9880666711
 30
0.0
 10
10.5843702065
 20
6.9923629636
 30
0.0
 10
10.5960982549
 20
6.9960727173
 30
0.0
 10
10.6080339479
 20
6.9991870373
 30
0.0
 10
10.6201485074
 20
7.0016984644
 30
0.0
 10
10.6324127519
 20
7.0036009618
 30
0.0
 10
10.6447970373
 20
7.0048899206
 30
0.0
 10
10.6572717896
 20
7.0055623917
 30
0.0
 10
10.669806349
 20
7.0056166295
 30
0.0
 10
10.6781693323
 20
7.005241274
 30
0.0
 10
10.6823500294
 20
7.0049513417
 30
0.0
  0
SPLINE
  5
3D3
100
AcDbEntity
  8
0
100
AcDbSpline
 62
7
  6
CONTINUOUS
 70
0
 71
3
 72
15
 73
11
 74
0
 42
0.0000001
 43
0.0000001
 44
0.0000000001
 40
0.0
 40
0.0
 40
0.0
 40
0.0
 40
0.2397188913
 40
0.3004863611
 40
0.3616587415
 40
0.4853287434
 40
0.6109304364
 40
0.7385742207
 40
0.8682860974
 40
1.0
 40
1.0
 40
1.0
 40
1.0
 10
10.821157153
 20
9.0601700164
 30
0.0
 10
10.8274041908
 20
9.0516042569
 30
0.0
 10
10.8359131057
 20
9.0413429445
 30
0.0
 10
10.8469184429
 20
9.0297370683
 30
0.0
 10
10.8545962265
 20
9.0220512208
 30
0.0
 10
10.8646666879
 20
9.0127103347
 30
0.0
 10
10.8774224732
 20
9.0019698399
 30
0.0
 10
10.8908698588
 20
8.9916638005
 30
0.0
 10
10.9049813642
 20
8.9818086986
 30
0.0
 10
10.9147398344
 20
8.9756004489
 30
0.0
 10
10.9197189709
 20
8.9725770853
 30
0.0
  0
SPLINE
  5
3D4
100
AcDbEntity
  8
0
100
AcDbSpline
 62
7
  6
CONTINUOUS
 70
0
 71
3
 72
17
 73
13
 74
0
 42
0.0000001
 43
0.0000001
 44
0.0000000001
 40
0.0
 40
0.0
 40
0.0
 40
0.0
 40
0.1234107768
 40
0.1852622837
 40
0.247214003
 40
0.3714243842
 40
0.4960992758
 40
0.5586295698
 40
0.6212878733
 40
0.7469831325
 40
0.8732178649
 40
1.0
 40
1.0
 40
1.0
 40
1.0
 10
10.9678708233
 20
8.7045220614
 30
0.0
 10
10.9629069443
 20
8.7021585808
 30
0.0
 10
10.9553348438
 20
8.6988556692
 30
0.0
 10
10.9450345351
 20
8.6949539444
 30
0.0
 10
10.934578026
 20
8.6913794991
 30
0.0
 10
10.9212614651
 20
8.6875442855
 30
0.0
 10
10.9076995181
 20
8.6845736916
 30
0.0
 10
10.896722445
 20
8.682717881
 30
0.0
 10
10.8856466239
 20
8.6812080046
 30
0.0
 10
10.8716754472
 20
8.6799806532
 30
0.0
 10
10.8547988892
 20
8.6795685043
 30
0.0
 10
10.8435267809
 20
8.6799998574
 30
0.0
 10
10.8378922933
 20
8.6803906104
 30
0.0
  0
SPLINE
  5
3D5
100
AcDbEntity
  8
0
100
AcDbSpline
 62
7
  6
CONTINUOUS
 70
0
 71
3
 72
15
 73
11
 74
0
 42
0.0000001
 43
0.0000001
 44
0.0000000001
 40
0.0
 40
0.0
 40
0.0
 40
0.0
 40
0.1265435369
 40
0.2498718337
 40
0.3713381771
 40
0.4923645349
 40
0.6143898056
 40
0.7388149646
 40
0.8669542867
 40
1.0
 40
1.0
 40
1.0
 40
1.0
 10
11.2174672801
 20
10.1298725724
 30
0.0
 10
11.217066816
 20
10.1309402724
 30
0.0
 10
11.21637947
 20
10.1330894467
 30
0.0
 10
11.2157043607
 20
10.1363734345
 30
0.0
 10
11.215402802
 20
10.139663249
 30
0.0
 10
11.2154757715
 20
10.1429543035
 30
0.0
 10
11.2159229809
 20
10.1462423805
 30
0.0
 10
11.2167434039
 20
10.1495234695
 30
0.0
 10
11.2179350601
 20
10.1527936845
 30
0.0
 10
11.2189540925
 20
10.1549197408
 30
0.0
 10
11.2195192107
 20
10.1559771251
 30
0.0
  0
SPLINE
  5
3D6
100
AcDbEntity
  8
0
100
AcDbSpline
 62
7
  6
CONTINUOUS
 70
0
 71
3
 72
11
 73
7
 74
0
 42
0.0000001
 43
0.0000001
 44
0.0000000001
 40
0.0
 40
0.0
 40
0.0
 40
0.0
 40
0.2428904492
 40
0.4886891857
 40
0.7401944715
 40
1.0
 40
1.0
 40
1.0
 40
1.0
 10
11.2166333466
 20
10.1341147401
 30
0.0
 10
11.2166333424
 20
10.1352106473
 30
0.0
 10
11.2167597101
 20
10.1374175862
 30
0.0
 10
11.2173266303
 20
10.1407155439
 30
0.0
 10
11.2182698833
 20
10.1440052824
 30
0.0
 10
11.2191319857
 20
10.1461499153
 30
0.0
 10
11.2196196427
 20
10.1472158922
 30
0.0
  0
SPLINE
  5
3D7
100
AcDbEntity
  8
0
100
AcDbSpline
 62
7
  6
CONTINUOUS
 70
0
 71
3
 72
11
 73
7
 74
0
 42
0.0000001
 43
0.0000001
 44
0.0000000001
 40
0.0
 40
0.0
 40
0.0
 40
0.0
 40
0.2430309523
 40
0.4889114475
 40
0.7403853657
 40
1.0
 40
1.0
 40
1.0
 40
1.0
 10
12.0776333444
 20
10.1341147401
 30
0.0
 10
12.0776333402
 20
10.1351990662
 30
0.0
 10
12.0775096711
 20
10.1373823726
 30
0.0
 10
12.0769547521
 20
10.1406452987
 30
0.0
 10
12.0760314323
 20
10.1439003072
 30
0.0
 10
12.0751872043
 20
10.1460232144
 30
0.0
 10
12.0747095776
 20
10.1470784734
 30
0.0
  0
SPLINE
  5
3D8
100
AcDbEntity
  8
0
100
AcDbSpline
 62
7
  6
CONTINUOUS
 70
0
 71
3
 72
41
 73
37
 74
0
 42
0.0000001
 43
0.0000001
 44
0.0000000001
 40
0.0
 40
0.0
 40
0.0
 40
0.0
 40
0.0311447181
 40
0.062442515
 40
0.0938874625
 40
0.1254698002
 40
0.1571773985
 40
0.1730760322
 40
0.1890002546
 40
0.2209118669
 40
0.2528982321
 40
0.2689155106
 40
0.284943791
 40
0.3170178783
 40
0.3491032352
 40
0.3811777027
 40
0.4132193318
 40
0.4452068082
 40
0.4771198677
 40
0.5089396984
 40
0.5406493204
 40
0.5722339407
 40
0.603681273
 40
0.6349818179
 40
0.6661290955
 40
0.6971198236
 40
0.727954035
 40
0.7586351272
 40
0.7891698391
 40
0.8195681507
 40
0.8498431051
 40
0.8800105515
 40
0.910088813
 40
0.940098286
 40
0.9700609781
 40
1.0
 40
1.0
 40
1.0
 40
1.0
 10
10.6901145943
 20
6.5294883942
 30
0.0
 10
10.6845716494
 20
6.5298727987
 30
0.0
 10
10.6734825232
 20
6.5310492187
 30
0.0
 10
10.6569832985
 20
6.534012649
 30
0.0
 10
10.6406606989
 20
6.5381635685
 30
0.0
 10
10.6246033348
 20
6.5434794477
 30
0.0
 10
10.6115241505
 20
6.548852479
 30
0.0
 10
10.6012772727
 20
6.5537004831
 30
0.0
 10
10.5911721868
 20
6.5589174644
 30
0.0
 10
10.5788639797
 20
6.566103457
 30
0.0
 10
10.5670649799
 20
6.5741274095
 30
0.0
 10
10.5579594013
 20
6.5810286145
 30
0.0
 10
10.5490828717
 20
6.5882468156
 30
0.0
 10
10.538451538
 20
6.5978369376
 30
0.0
 10
10.5265077176
 20
6.6101876637
 30
0.0
 10
10.5154365646
 20
6.6233193017
 30
0.0
 10
10.5052974976
 20
6.6371615541
 30
0.0
 10
10.4961444882
 20
6.651640746
 30
0.0
 10
10.4880264073
 20
6.6666797051
 30
0.0
 10
10.4809865971
 20
6.6821983037
 30
0.0
 10
10.4750626862
 20
6.6981138446
 30
0.0
 10
10.4702863766
 20
6.7143415049
 30
0.0
 10
10.466683277
 20
6.7307947802
 30
0.0
 10
10.4642727622
 20
6.7473859391
 30
0.0
 10
10.4630678661
 20
6.7640264853
 30
0.0
 10
10.463075207
 20
6.7806276235
 30
0.0
 10
10.4642949413
 20
6.797100728
 30
0.0
 10
10.4667207548
 20
6.8133578132
 30
0.0
 10
10.4703398882
 20
6.8293120011
 30
0.0
 10
10.4751331948
 20
6.8448779875
 30
0.0
 10
10.481075225
 20
6.8599724941
 30
0.0
 10
10.4881343799
 20
6.8745147478
 30
0.0
 10
10.4962729638
 20
6.8884268169
 30
0.0
 10
10.505447781
 20
6.901634428
 30
0.0
 10
10.5156088683
 20
6.9140659327
 30
0.0
 10
10.5230074874
 20
6.9217950482
 30
0.0
 10
10.5268491405
 20
6.9255058022
 30
0.0
  0
SPLINE
  5
3D9
100
AcDbEntity
  8
0
100
AcDbSpline
 62
7
  6
CONTINUOUS
 70
0
 71
3
 72
22
 73
18
 74
0
 42
0.0000001
 43
0.0000001
 44
0.0000000001
 40
0.0
 40
0.0
 40
0.0
 40
0.0
 40
0.1400516403
 40
0.209556634
 40
0.2784768977
 40
0.3466373914
 40
0.413865611
 40
0.4799921882
 40
0.5448515111
 40
0.6082823829
 40
0.670128652
 40
0.7302398771
 40
0.788472036
 40
0.8446882905
 40
0.8987598676
 40
0.9505670037
 40
1.0
 40
1.0
 40
1.0
 40
1.0
 10
10.9498597896
 20
8.9231597001
 30
0.0
 10
10.9406392553
 20
8.9231246519
 30
0.0
 10
10.9268424449
 20
8.9228863184
 30
0.0
 10
10.9085210591
 20
8.9221924319
 30
0.0
 10
10.8949377775
 20
8.9214886698
 30
0.0
 10
10.8815154411
 20
8.9206022806
 30
0.0
 10
10.8682907069
 20
8.9195356844
 30
0.0
 10
10.8552997627
 20
8.9182918229
 30
0.0
 10
10.8425781322
 20
8.9168741188
 30
0.0
 10
10.8301605993
 20
8.9152864826
 30
0.0
 10
10.8180811049
 20
8.9135332921
 30
0.0
 10
10.8063726575
 20
8.9116193822
 30
0.0
 10
10.7950672363
 20
8.9095500314
 30
0.0
 10
10.7841957141
 20
8.9073309491
 30
0.0
 10
10.7737877091
 20
8.9049682542
 30
0.0
 10
10.7638716885
 20
8.9024684963
 30
0.0
 10
10.7574520027
 20
8.9006718634
 30
0.0
 10
10.7543311026
 20
8.8997488614
 30
0.0
  0
SPLINE
  5
3DA
100
AcDbEntity
  8
0
100
AcDbSpline
 62
7
  6
CONTINUOUS
 70
0
 71
3
 72
76
 73
72
 74
0
 42
0.0000001
 43
0.0000001
 44
0.0000000001
 40
0.0
 40
0.0
 40
0.0
 40
0.0
 40
0.003866193
 40
0.0078882927
 40
0.0120695767
 40
0.0164128144
 40
0.0209203669
 40
0.0255941267
 40
0.0304354014
 40
0.0354450559
 40
0.0406236103
 40
0.0459712049
 40
0.0571722378
 40
0.0690443369
 40
0.0815792672
 40
0.0947655584
 40
0.108588909
 40
0.1230325388
 40
0.1380774849
 40
0.153702827
 40
0.1698858609
 40
0.186602256
 40
0.2038262194
 40
0.2215306208
 40
0.2396870973
 40
0.258266148
 40
0.2772372522
 40
0.2965689634
 40
0.3162289938
 40
0.3361842894
 40
0.3564011283
 40
0.3974810606
 40
0.4391894194
 40
0.4812405989
 40
0.523346
 40
0.5652165532
 40
0.6065652296
 40
0.6471095958
 40
0.6669941322
 40
0.6865750653
 40
0.705819532
 40
0.7246954403
 40
0.7431715569
 40
0.7612176142
 40
0.7788043983
 40
0.7959038389
 40
0.8124891153
 40
0.8285347918
 40
0.8440169476
 40
0.858913306
 40
0.8732034006
 40
0.8868687901
 40
0.8998933064
 40
0.912263323
 40
0.9239681166
 40
0.9350003418
 40
0.940263329
 40
0.945357287
 40
0.9502825791
 40
0.9550398745
 40
0.9596302834
 40
0.9640553596
 40
0.9683171211
 40
0.9724182028
 40
0.9763618258
 40
0.9801519323
 40
0.9837932865
 40
0.9872915016
 40
0.9906532331
 40
0.9938862243
 40
1.0
 40
1.0
 40
1.0
 40
1.0
 10
12.3034985071
 20
7.544113908
 30
0.0
 10
12.304393146
 20
7.5449780629
 30
0.0
 10
12.306181546
 20
7.5467798152
 30
0.0
 10
12.308810643
 20
7.5496385343
 30
0.0
 10
12.3114372334
 20
7.5527046354
 30
0.0
 10
12.3140599847
 20
7.5559766009
 30
0.0
 10
12.3166778005
 20
7.5594529427
 30
0.0
 10
12.3192895063
 20
7.5631321488
 30
0.0
 10
12.321893977
 20
7.5670125584
 30
0.0
 10
12.3244900269
 20
7.5710924124
 30
0.0
 10
12.3270764641
 20
7.5753698776
 30
0.0
 10
12.3305646941
 20
7.5814279589
 30
0.0
 10
12.3348843348
 20
7.5894896286
 30
0.0
 10
12.3399340432
 20
7.599774829
 30
0.0
 10
12.3449177407
 20
7.6107969616
 30
0.0
 10
12.3498262976
 20
7.6225359889
 30
0.0
 10
12.3546507286
 20
7.6349707095
 30
0.0
 10
12.3593821804
 20
7.6480785265
 30
0.0
 10
12.3640119569
 20
7.6618355954
 30
0.0
 10
12.3685315387
 20
7.6762168508
 30
0.0
 10
12.3729326102
 20
7.6911960557
 30
0.0
 10
12.3772070831
 20
7.7067458516
 30
0.0
 10
12.3813470955
 20
7.7228378231
 30
0.0
 10
12.3853450313
 20
7.7394425548
 30
0.0
 10
12.3891935349
 20
7.7565296799
 30
0.0
 10
12.3928855394
 20
7.7740679343
 30
0.0
 10
12.3964142605
 20
7.792025222
 30
0.0
 10
12.3997732151
 20
7.8103686811
 30
0.0
 10
12.4029562203
 20
7.8290647291
 30
0.0
 10
12.4059574603
 20
7.8480791621
 30
0.0
 10
12.4097292752
 20
7.8739467425
 30
0.0
 10
12.4139439425
 20
7.906819812
 30
0.0
 10
12.4181723209
 20
7.9467633853
 30
0.0
 10
12.4215667213
 20
7.9871175981
 30
0.0
 10
12.4241022437
 20
8.0275870951
 30
0.0
 10
12.42576041
 20
8.0678759204
 30
0.0
 10
12.4265291423
 20
8.1076891966
 30
0.0
 10
12.4264236272
 20
8.1404363786
 30
0.0
 10
12.4258816071
 20
8.1661721699
 30
0.0
 10
12.4252538826
 20
8.1850505507
 30
0.0
 10
12.4244035853
 20
8.2035953858
 30
0.0
 10
12.423332269
 20
8.2217727532
 30
0.0
 10
12.4220419188
 20
8.239549372
 30
0.0
 10
12.4205349283
 20
8.256892713
 30
0.0
 10
12.4188140929
 20
8.2737710472
 30
0.0
 10
12.4168825988
 20
8.2901535019
 30
0.0
 10
12.4147440153
 20
8.3060101195
 30
0.0
 10
12.4124023032
 20
8.3213119225
 30
0.0
 10
12.4098618041
 20
8.3360309702
 30
0.0
 10
12.4071272217
 20
8.3501404066
 30
0.0
 10
12.4042036108
 20
8.3636145112
 30
0.0
 10
12.4010963741
 20
8.3764287705
 30
0.0
 10
12.3978112586
 20
8.3885599113
 30
0.0
 10
12.3943543125
 20
8.3999860328
 30
0.0
 10
12.3907318822
 20
8.4106863602
 30
0.0
 10
12.3875324968
 20
8.4191100297
 30
0.0
 10
12.3848875326
 20
8.4254632972
 30
0.0
 10
12.3828977503
 20
8.4299597887
 30
0.0
 10
12.3808716745
 20
8.4342608946
 30
0.0
 10
12.3788101535
 20
8.4383646637
 30
0.0
 10
12.3767141354
 20
8.4422692469
 30
0.0
 10
12.3745845721
 20
8.4459728954
 30
0.0
 10
12.3724223601
 20
8.4494739205
 30
0.0
 10
12.3702284966
 20
8.4527707742
 30
0.0
 10
12.3680039043
 20
8.4558619665
 30
0.0
 10
12.3657495297
 20
8.458746091
 30
0.0
 10
12.3634663373
 20
8.4614218955
 30
0.0
 10
12.3611553117
 20
8.4638880494
 30
0.0
 10
12.3588170996
 20
8.4661436765
 30
0.0
 10
12.3557233307
 20
8.4688183608
 30
0.0
 10
12.3532779949
 20
8.4705865566
 30
0.0
 10
12.3516070857
 20
8.4716243019
 30
0.0
  0
SPLINE
  5
3DB
100
AcDbEntity
  8
0
100
AcDbSpline
 62
7
  6
CONTINUOUS
 70
0
 71
3
 72
11
 73
7
 74
0
 42
0.0000001
 43
0.0000001
 44
0.0000000001
 40
0.0
 40
0.0
 40
0.0
 40
0.0
 40
0.274729751
 40
0.4055167217
 40
0.5321092027
 40
1.0
 40
1.0
 40
1.0
 40
1.0
 10
12.3034985071
 20
7.544113908
 30
0.0
 10
12.3021102594
 20
7.5427729636
 30
0.0
 10
12.2999954951
 20
7.5408592778
 30
0.0
 10
12.2970804588
 20
7.5385167495
 30
0.0
 10
12.2929818114
 20
7.5354915326
 30
0.0
 10
12.2893489589
 20
7.5333544579
 30
0.0
 10
12.2863400437
 20
7.5320308398
 30
0.0
  0
SPLINE
  5
3DC
100
AcDbEntity
  8
0
100
AcDbSpline
 62
7
  6
CONTINUOUS
 70
0
 71
3
 72
23
 73
19
 74
0
 42
0.0000001
 43
0.0000001
 44
0.0000000001
 40
0.0
 40
0.0
 40
0.0
 40
0.0
 40
0.0755961246
 40
0.1466389607
 40
0.2134646537
 40
0.2765132518
 40
0.3363252536
 40
0.3935454084
 40
0.448921428
 40
0.5032863451
 40
0.557524168
 40
0.6125254889
 40
0.6691415402
 40
0.7281473128
 40
0.7902179894
 40
0.8559226124
 40
0.9257258744
 40
1.0
 40
1.0
 40
1.0
 40
1.0
 10
12.3034985071
 20
7.6793435317
 30
0.0
 10
12.3025674488
 20
7.6784441984
 30
0.0
 10
12.3007065627
 20
7.6767549721
 30
0.0
 10
12.2978266585
 20
7.6744982663
 30
0.0
 10
12.2949501248
 20
7.6726029555
 30
0.0
 10
12.2920796173
 20
7.6710718963
 30
0.0
 10
12.2892175303
 20
7.669907849
 30
0.0
 10
12.2863668077
 20
7.6691136895
 30
0.0
 10
12.2835311915
 20
7.668692198
 30
0.0
 10
12.2807154091
 20
7.6686454017
 30
0.0
 10
12.2779248635
 20
7.6689739406
 30
0.0
 10
12.2751649812
 20
7.6696769108
 30
0.0
 10
12.2724404166
 20
7.6707518466
 30
0.0
 10
12.2697548334
 20
7.672195719
 30
0.0
 10
12.2671108828
 20
7.6740051143
 30
0.0
 10
12.2645107745
 20
7.6761769933
 30
0.0
 10
12.2619565303
 20
7.678708062
 30
0.0
 10
12.2603377236
 20
7.6805729781
 30
0.0
 10
12.2595352356
 20
7.6815596839
 30
0.0
  0
SPLINE
  5
3DD
100
AcDbEntity
  8
0
100
AcDbSpline
 62
7
  6
CONTINUOUS
 70
0
 71
3
 72
17
 73
13
 74
0
 42
0.0000001
 43
0.0000001
 44
0.0000000001
 40
0.0
 40
0.0
 40
0.0
 40
0.0
 40
0.150474249
 40
0.2917308715
 40
0.4244678652
 40
0.4879387729
 40
0.5496414733
 40
0.6683010868
 40
0.781833969
 40
0.8918016508
 40
0.9460162318
 40
1.0
 40
1.0
 40
1.0
 40
1.0
 10
12.2696911012
 20
7.7154954892
 30
0.0
 10
12.2688429917
 20
7.7146762784
 30
0.0
 10
12.2671478902
 20
7.7131391858
 30
0.0
 10
12.2645232217
 20
7.7110907843
 30
0.0
 10
12.2623062156
 20
7.7096420531
 30
0.0
 10
12.2605383569
 20
7.7086610124
 30
0.0
 10
12.2588225577
 20
7.7078187636
 30
0.0
 10
12.2566769668
 20
7.7069677303
 30
0.0
 10
12.2540796835
 20
7.7062765923
 30
0.0
 10
12.2519157758
 20
7.7059877036
 30
0.0
 10
12.25020603
 20
7.7059328246
 30
0.0
 10
12.2493578973
 20
7.7059628204
 30
0.0
 10
12.248935882
 20
7.7059920902
 30
0.0
  0
SPLINE
  5
3DE
100
AcDbEntity
  8
0
100
AcDbSpline
 62
7
  6
CONTINUOUS
 70
0
 71
3
 72
87
 73
83
 74
0
 42
0.0000001
 43
0.0000001
 44
0.0000000001
 40
0.0
 40
0.0
 40
0.0
 40
0.0
 40
0.004206707
 40
0.0086075139
 40
0.0132068704
 40
0.0180084273
 40
0.0230151653
 40
0.0282293196
 40
0.0336522329
 40
0.0392846557
 40
0.0451267867
 40
0.0511783097
 40
0.0639056642
 40
0.0774568824
 40
0.0918159781
 40
0.1069624108
 40
0.1228717066
 40
0.1395159399
 40
0.1568641191
 40
0.1748825349
 40
0.1935350363
 40
0.2127832683
 40
0.2325868724
 40
0.2529036823
 40
0.2736899198
 40
0.2949003647
 40
0.3164885144
 40
0.3384067328
 40
0.3606064104
 40
0.4056508839
 40
0.4512203099
 40
0.4969060878
 40
0.5422983023
 40
0.5647574578
 40
0.5869912904
 40
0.6089502782
 40
0.630585695
 40
0.6518497615
 40
0.6726958117
 40
0.6930784447
 40
0.7129536808
 40
0.7322791283
 40
0.7510141679
 40
0.7691201622
 40
0.7865606525
 40
0.8033015885
 40
0.8193115965
 40
0.8345623078
 40
0.8490287589
 40
0.8626898482
 40
0.8755289387
 40
0.8816367834
 40
0.8875353903
 40
0.8932242981
 40
0.898703605
 40
0.9039739084
 40
0.9090363996
 40
0.9138930131
 40
0.9185463802
 40
0.9230000892
 40
0.9272587072
 40
0.9313279416
 40
0.9352148802
 40
0.938928046
 40
0.9424777232
 40
0.9458760721
 40
0.9491373163
 40
0.9522779362
 40
0.9553166297
 40
0.9582743197
 40
0.9611738704
 40
0.9640396759
 40
0.966897084
 40
0.9697716802
 40
0.9726885616
 40
0.9756716607
 40
0.9787432202
 40
0.9852253519
 40
0.9886742768
 40
0.9922790716
 40
0.9960512362
 40
1.0
 40
1.0
 40
1.0
 40
1.0
 10
12.3034985071
 20
7.6793435317
 30
0.0
 10
12.3042219333
 20
7.6800423079
 30
0.0
 10
12.3056678312
 20
7.6815079877
 30
0.0
 10
12.3077872021
 20
7.6838498907
 30
0.0
 10
12.3099039041
 20
7.6863825308
 30
0.0
 10
12.3120165672
 20
7.6891042789
 30
0.0
 10
12.3141240446
 20
7.6920135398
 30
0.0
 10
12.3162250981
 20
7.6951086592
 30
0.0
 10
12.3183185575
 20
7.6983878051
 30
0.0
 10
12.3204031456
 20
7.7018490522
 30
0.0
 10
12.3224776437
 20
7.7054903521
 30
0.0
 10
12.3252757178
 20
7.7106700681
 30
0.0
 10
12.3287309891
 20
7.7175872786
 30
0.0
 10
12.3327509597
 20
7.7264349273
 30
0.0
 10
12.3367017923
 20
7.7359430481
 30
0.0
 10
12.3405740123
 20
7.7460890523
 30
0.0
 10
12.3443583175
 20
7.7568489676
 30
0.0
 10
12.3480456014
 20
7.7681972245
 30
0.0
 10
12.3516269942
 20
7.7801068125
 30
0.0
 10
12.3550938746
 20
7.7925493397
 30
0.0
 10
12.3584378975
 20
7.8054951182
 30
0.0
 10
12.3616510116
 20
7.8189132365
 30
0.0
 10
12.3647254862
 20
7.8327716325
 30
0.0
 10
12.367653932
 20
7.8470371744
 30
0.0
 10
12.3704293085
 20
7.8616757473
 30
0.0
 10
12.373044947
 20
7.8766523413
 30
0.0
 10
12.3754945524
 20
7.8919311227
 30
0.0
 10
12.3777722679
 20
7.9074755598
 30
0.0
 10
12.380586174
 20
7.9286077602
 30
0.0
 10
12.3836306887
 20
7.9554116201
 30
0.0
 10
12.3865069382
 20
7.9878761357
 30
0.0
 10
12.3885956525
 20
8.020484113
 30
0.0
 10
12.3896672874
 20
8.0476120854
 30
0.0
 10
12.3901113659
 20
8.069146853
 30
0.0
 10
12.3902362752
 20
8.0850829378
 30
0.0
 10
12.390153991
 20
8.1008223387
 30
0.0
 10
12.3898647063
 20
8.1163274178
 30
0.0
 10
12.3893691352
 20
8.1315610634
 30
0.0
 10
12.3886684915
 20
8.1464868296
 30
0.0
 10
12.3877644846
 20
8.1610690125
 30
0.0
 10
12.3866593128
 20
8.1752727362
 30
0.0
 10
12.3853556587
 20
8.1890640363
 30
0.0
 10
12.3838566839
 20
8.2024099478
 30
0.0
 10
12.3821660329
 20
8.2152785903
 30
0.0
 10
12.3802878125
 20
8.2276392473
 30
0.0
 10
12.3782265827
 20
8.2394624379
 30
0.0
 10
12.375987344
 20
8.2507200018
 30
0.0
 10
12.3735755233
 20
8.2613851603
 30
0.0
 10
12.3709969729
 20
8.2714326784
 30
0.0
 10
12.3682579093
 20
8.2808386679
 30
0.0
 10
12.3658080676
 20
8.2882424575
 30
0.0
 10
12.3637654143
 20
8.2938210851
 30
0.0
 10
12.3622229622
 20
8.2977611656
 30
0.0
 10
12.3606454029
 20
8.3015249134
 30
0.0
 10
12.3590336825
 20
8.3051101187
 30
0.0
 10
12.357388751
 20
8.3085146659
 30
0.0
 10
12.3557115418
 20
8.3117365408
 30
0.0
 10
12.3540030801
 20
8.3147738747
 30
0.0
 10
12.3522642916
 20
8.3176248675
 30
0.0
 10
12.3504961974
 20
8.3202878712
 30
0.0
 10
12.3486997798
 20
8.3227613354
 30
0.0
 10
12.3468759823
 20
8.3250437885
 30
0.0
 10
12.3450258326
 20
8.3271339254
 30
0.0
 10
12.3431502305
 20
8.3290304469
 30
0.0
 10
12.3412501592
 20
8.330732199
 30
0.0
 10
12.3393265648
 20
8.3322380708
 30
0.0
 10
12.3373803729
 20
8.3335469358
 30
0.0
 10
12.3354126411
 20
8.334657821
 30
0.0
 10
12.333424415
 20
8.3355696399
 30
0.0
 10
12.3314169489
 20
8.3362814765
 30
0.0
 10
12.3293916347
 20
8.3367925047
 30
0.0
 10
12.3273500305
 20
8.3371020008
 30
0.0
 10
12.3252938571
 20
8.3372096872
 30
0.0
 10
12.3232248534
 20
8.3371154025
 30
0.0
 10
12.3211447706
 20
8.3368194564
 30
0.0
 10
12.3190550711
 20
8.3363223048
 30
0.0
 10
12.3162077745
 20
8.3353754365
 30
0.0
 10
12.3133902822
 20
8.3340276172
 30
0.0
 10
12.3106287409
 20
8.3323375246
 30
0.0
 10
12.3085106341
 20
8.3308464876
 30
0.0
 10
12.3063906321
 20
8.3291596513
 30
0.0
 10
12.3050089254
 20
8.3279339896
 30
0.0
 10
12.3043177904
 20
8.3272907877
 30
0.0
  0
SPLINE
  5
3DF
100
AcDbEntity
  8
0
100
AcDbSpline
 62
7
  6
CONTINUOUS
 70
0
 71
3
 72
71
 73
67
 74
0
 42
0.0000001
 43
0.0000001
 44
0.0000000001
 40
0.0
 40
0.0
 40
0.0
 40
0.0
 40
0.0081437796
 40
0.0169764944
 40
0.0265203572
 40
0.036788946
 40
0.0477874262
 40
0.0595147139
 40
0.0719646374
 40
0.0851266892
 40
0.0989866515
 40
0.1135271529
 40
0.1287280704
 40
0.1445667873
 40
0.1610184588
 40
0.1780562784
 40
0.1956516403
 40
0.2137742567
 40
0.2323923599
 40
0.2514728407
 40
0.2709813306
 40
0.2908823304
 40
0.331714196
 40
0.3736671919
 40
0.4164280894
 40
0.4596757878
 40
0.5030845187
 40
0.5463269661
 40
0.5890774011
 40
0.6310148392
 40
0.6718261955
 40
0.6917151494
 40
0.7112104217
 40
0.7302765759
 40
0.7488792807
 40
0.7669854333
 40
0.7845633329
 40
0.8015827708
 40
0.8180151583
 40
0.8338337398
 40
0.8490137809
 40
0.8635327339
 40
0.8773705134
 40
0.8905098736
 40
0.9029367398
 40
0.9146406912
 40
0.9256156748
 40
0.9358608589
 40
0.9407116707
 40
0.9453827353
 40
0.9498759528
 40
0.9541939198
 40
0.9583398901
 40
0.962317885
 40
0.9661328882
 40
0.9697908358
 40
0.9732988084
 40
0.9766651979
 40
0.9798997406
 40
0.9830137253
 40
0.9860200664
 40
0.9889332967
 40
0.9917696143
 40
0.9945467127
 40
0.9972835433
 40
1.0
 40
1.0
 40
1.0
 40
1.0
 10
12.2696911012
 20
7.7154954892
 30
0.0
 10
12.2709013322
 20
7.7166644827
 30
0.0
 10
12.2733154998
 20
7.7192152225
 30
0.0
 10
12.2767844779
 20
7.7234616283
 30
0.0
 10
12.2802385457
 20
7.7282718085
 30
0.0
 10
12.2836710363
 20
7.7336361847
 30
0.0
 10
12.2870755893
 20
7.7395447428
 30
0.0
 10
12.2904455483
 20
7.7459859962
 30
0.0
 10
12.2937742625
 20
7.7529473758
 30
0.0
 10
12.2970550673
 20
7.7604151837
 30
0.0
 10
12.3002813914
 20
7.7683746204
 30
0.0
 10
12.3034467375
 20
7.7768098558
 30
0.0
 10
12.3065447065
 20
7.7857040733
 30
0.0
 10
12.3095690419
 20
7.7950394945
 30
0.0
 10
12.3125136421
 20
7.8047974249
 30
0.0
 10
12.3153725521
 20
7.814958311
 30
0.0
 10
12.3181399839
 20
7.8255017758
 30
0.0
 10
12.3208103571
 20
7.836406652
 30
0.0
 10
12.3233782809
 20
7.8476510407
 30
0.0
 10
12.3258385537
 20
7.8592123537
 30
0.0
 10
12.3281862332
 20
7.8710673758
 30
0.0
 10
12.33118556
 20
7.8873732258
 30
0.0
 10
12.334610995
 20
7.9083137496
 30
0.0
 10
12.3381700209
 20
7.9340103495
 30
0.0
 10
12.3411828865
 20
7.9602791498
 30
0.0
 10
12.3436252752
 20
7.9869090627
 30
0.0
 10
12.3454774419
 20
8.0136862446
 30
0.0
 10
12.3467245376
 20
8.0403955817
 30
0.0
 10
12.3473566273
 20
8.0668225783
 30
0.0
 10
12.3473687761
 20
8.0927548591
 30
0.0
 10
12.3468583306
 20
8.1139576182
 30
0.0
 10
12.3461318424
 20
8.1305116342
 30
0.0
 10
12.345438146
 20
8.1425687611
 30
0.0
 10
12.3445924514
 20
8.1543497648
 30
0.0
 10
12.343596456
 20
8.1658309877
 30
0.0
 10
12.342452183
 20
8.1769893549
 30
0.0
 10
12.3411619714
 20
8.1878024588
 30
0.0
 10
12.3397284515
 20
8.1982485923
 30
0.0
 10
12.33815453
 20
8.2083067924
 30
0.0
 10
12.3364434114
 20
8.2179568947
 30
0.0
 10
12.3345985885
 20
8.2271795782
 30
0.0
 10
12.3326238105
 20
8.2359563992
 30
0.0
 10
12.3305230767
 20
8.244269837
 30
0.0
 10
12.3283006599
 20
8.2521033597
 30
0.0
 10
12.3259610562
 20
8.2594414304
 30
0.0
 10
12.3235089412
 20
8.2662696393
 30
0.0
 10
12.3209492045
 20
8.2725744485
 30
0.0
 10
12.318691238
 20
8.2774677945
 30
0.0
 10
12.3168287074
 20
8.2811030674
 30
0.0
 10
12.3154336109
 20
8.2836410735
 30
0.0
 10
12.314015469
 20
8.2860392605
 30
0.0
 10
12.3125749773
 20
8.2882964693
 30
0.0
 10
12.3111128259
 20
8.2904115893
 30
0.0
 10
12.3096296675
 20
8.2923835564
 30
0.0
 10
12.3081262298
 20
8.294211425
 30
0.0
 10
12.3066031731
 20
8.2958942723
 30
0.0
 10
12.3050611573
 20
8.2974312266
 30
0.0
 10
12.303500895
 20
8.298821525
 30
0.0
 10
12.3019230249
 20
8.3000643753
 30
0.0
 10
12.3003282345
 20
8.301159051
 30
0.0
 10
12.2987172561
 20
8.3021048975
 30
0.0
 10
12.2970907999
 20
8.3029011897
 30
0.0
 10
12.2954497162
 20
8.3035473253
 30
0.0
 10
12.2937948608
 20
8.3040427663
 30
0.0
 10
12.2921273908
 20
8.3043869546
 30
0.0
 10
12.2910062332
 20
8.3045155843
 30
0.0
 10
12.2904463204
 20
8.3045544183
 30
0.0
  0
SPLINE
  5
3E0
100
AcDbEntity
  8
0
100
AcDbSpline
 62
7
  6
CONTINUOUS
 70
0
 71
3
 72
39
 73
35
 74
0
 42
0.0000001
 43
0.0000001
 44
0.0000000001
 40
0.0
 40
0.0
 40
0.0
 40
0.0
 40
0.0308961411
 40
0.0619204523
 40
0.0930682029
 40
0.1243342762
 40
0.1557110328
 40
0.1871896249
 40
0.2187596565
 40
0.2504095069
 40
0.2821264471
 40
0.3138968366
 40
0.3457063088
 40
0.3775399692
 40
0.4093825971
 40
0.4412188516
 40
0.4730334777
 40
0.5048115117
 40
0.536538484
 40
0.5682006173
 40
0.5997850172
 40
0.6312798558
 40
0.6626745425
 40
0.6939598828
 40
0.7251282214
 40
0.7561735677
 40
0.7870917013
 40
0.8178802548
 40
0.8485387714
 40
0.8790687362
 40
0.9094735779
 40
0.9397586411
 40
0.9699311265
 40
1.0
 40
1.0
 40
1.0
 40
1.0
 10
10.8308748739
 20
6.6886346128
 30
0.0
 10
10.8267205141
 20
6.6889227187
 30
0.0
 10
10.8184099855
 20
6.689753781
 30
0.0
 10
10.8060187585
 20
6.6917522542
 30
0.0
 10
10.7937199171
 20
6.6944979448
 30
0.0
 10
10.7815598733
 20
6.6979804432
 30
0.0
 10
10.7695836527
 20
6.7021868167
 30
0.0
 10
10.7578358558
 20
6.7071013277
 30
0.0
 10
10.7463601519
 20
6.7127056716
 30
0.0
 10
10.7351992158
 20
6.7189789596
 30
0.0
 10
10.7243945451
 20
6.7258978331
 30
0.0
 10
10.7139863129
 20
6.7334365359
 30
0.0
 10
10.7040132192
 20
6.7415670148
 30
0.0
 10
10.694512348
 20
6.7502590217
 30
0.0
 10
10.6855190297
 20
6.7594802252
 30
0.0
 10
10.6770667098
 20
6.7691963292
 30
0.0
 10
10.669186827
 20
6.7793712021
 30
0.0
 10
10.6619086968
 20
6.7899670093
 30
0.0
 10
10.6552594029
 20
6.8009443529
 30
0.0
 10
10.6492636975
 20
6.8122624171
 30
0.0
 10
10.6439439092
 20
6.8238791186
 30
0.0
 10
10.6393198603
 20
6.8357512616
 30
0.0
 10
10.6354087933
 20
6.847834697
 30
0.0
 10
10.6322253061
 20
6.860084485
 30
0.0
 10
10.6297812972
 20
6.8724550602
 30
0.0
 10
10.628085921
 20
6.8849004004
 30
0.0
 10
10.6271455494
 20
6.8973741946
 30
0.0
 10
10.6269637498
 20
6.909830017
 30
0.0
 10
10.6275412677
 20
6.9222214925
 30
0.0
 10
10.6288760299
 20
6.9345024877
 30
0.0
 10
10.6309631209
 20
6.9466272106
 30
0.0
 10
10.6337949039
 20
6.9585506467
 30
0.0
 10
10.6373606556
 20
6.9702277391
 30
0.0
 10
10.6402235093
 20
6.9778329171
 30
0.0
 10
10.641772275
 20
6.9815781532
 30
0.0
  0
SPLINE
  5
3E1
100
AcDbEntity
  8
0
100
AcDbSpline
 62
7
  6
CONTINUOUS
 70
0
 71
3
 72
39
 73
35
 74
0
 42
0.0000001
 43
0.0000001
 44
0.0000000001
 40
0.0
 40
0.0
 40
0.0
 40
0.0
 40
0.0308543313
 40
0.0618327495
 40
0.0929305123
 40
0.1241432587
 40
0.1554639095
 40
0.1868844477
 40
0.2183953831
 40
0.2499861028
 40
0.2816449543
 40
0.3133594169
 40
0.3451162629
 40
0.3769017292
 40
0.4087016925
 40
0.4405018472
 40
0.4722878852
 40
0.5040456758
 40
0.5357614439
 40
0.5674219452
 40
0.5990146375
 40
0.6305278458
 40
0.6619509174
 40
0.6932743683
 40
0.7244900173
 40
0.7555911062
 40
0.7865724051
 40
0.8174302998
 40
0.8481628606
 40
0.8787698897
 40
0.9092529457
 40
0.9396153419
 40
0.9698621206
 40
1.0
 40
1.0
 40
1.0
 40
1.0
 10
10.827288575
 20
6.6619882927
 30
0.0
 10
10.8228143686
 20
6.6622985799
 30
0.0
 10
10.813864097
 20
6.6631845458
 30
0.0
 10
10.8005146961
 20
6.6652968509
 30
0.0
 10
10.7872583428
 20
6.6681880627
 30
0.0
 10
10.774141852
 20
6.6718478849
 30
0.0
 10
10.7612106255
 20
6.6762636398
 30
0.0
 10
10.7485097144
 20
6.6814198606
 30
0.0
 10
10.7360832751
 20
6.6872985933
 30
0.0
 10
10.7239745303
 20
6.6938793434
 30
0.0
 10
10.7122255914
 20
6.7011391951
 30
0.0
 10
10.7008773176
 20
6.70905287
 30
0.0
 10
10.689969172
 20
6.7175928196
 30
0.0
 10
10.6795390891
 20
6.7267293247
 30
0.0
 10
10.6696233427
 20
6.7364305968
 30
0.0
 10
10.6602564217
 20
6.7466628888
 30
0.0
 10
10.6514709105
 20
6.7573906108
 30
0.0
 10
10.6432973767
 20
6.7685764533
 30
0.0
 10
10.6357642659
 20
6.7801815157
 30
0.0
 10
10.6288978029
 20
6.7921654405
 30
0.0
 10
10.622721895
 20
6.8044865492
 30
0.0
 10
10.6172580537
 20
6.8171019907
 30
0.0
 10
10.6125253209
 20
6.8299678881
 30
0.0
 10
10.6085402025
 20
6.843039491
 30
0.0
 10
10.605316611
 20
6.8562713285
 30
0.0
 10
10.6028658165
 20
6.8696173663
 30
0.0
 10
10.6011964063
 20
6.8830311647
 30
0.0
 10
10.6003142556
 20
6.8964660402
 30
0.0
 10
10.6002224998
 20
6.9098752208
 30
0.0
 10
10.6009215258
 20
6.9232120289
 30
0.0
 10
10.6024089516
 20
6.9364299695
 30
0.0
 10
10.6046797181
 20
6.9494831637
 30
0.0
 10
10.6077257832
 20
6.9623254983
 30
0.0
 10
10.610271178
 20
6.9707325786
 30
0.0
 10
10.6116692345
 20
6.9748843174
 30
0.0
  0
SPLINE
  5
3E2
100
AcDbEntity
  8
0
100
AcDbSpline
 62
7
  6
CONTINUOUS
 70
0
 71
3
 72
15
 73
11
 74
0
 42
0.0000001
 43
0.0000001
 44
0.0000000001
 40
0.0
 40
0.0
 40
0.0
 40
0.0
 40
0.1331280495
 40
0.2613154534
 40
0.3857579216
 40
0.50777547
 40
0.6287754839
 40
0.7502044769
 40
0.8734925105
 40
1.0
 40
1.0
 40
1.0
 40
1.0
 10
12.0747087012
 20
10.1560495145
 30
0.0
 10
12.0752780161
 20
10.1549894077
 30
0.0
 10
12.0763048335
 20
10.1528578371
 30
0.0
 10
12.0775066508
 20
10.1495786493
 30
0.0
 10
12.0783351171
 20
10.146288434
 30
0.0
 10
12.0787883553
 20
10.1429911383
 30
0.0
 10
12.0788651604
 20
10.1396907891
 30
0.0
 10
12.0785654076
 20
10.1363916486
 30
0.0
 10
12.0778898877
 20
10.1330983719
 30
0.0
 10
12.0772009849
 20
10.1309432066
 30
0.0
 10
12.0767994205
 20
10.1298725722
 30
0.0
  0
SPLINE
  5
3E3
100
AcDbEntity
  8
0
100
AcDbSpline
 62
7
  6
CONTINUOUS
 70
0
 71
3
 72
19
 73
15
 74
0
 42
0.0000001
 43
0.0000001
 44
0.0000000001
 40
0.0
 40
0.0
 40
0.0
 40
0.0
 40
0.1504607152
 40
0.2916988954
 40
0.4244197706
 40
0.4878838785
 40
0.549580297
 40
0.6682271827
 40
0.7255606102
 40
0.7817998481
 40
0.8371466355
 40
0.8918135538
 40
0.9460221503
 40
1.0
 40
1.0
 40
1.0
 40
1.0
 10
12.3344081361
 20
7.541970318
 30
0.0
 10
12.3330652594
 20
7.5406731986
 30
0.0
 10
12.3303813452
 20
7.5382394313
 30
0.0
 10
12.3262255674
 20
7.5349961525
 30
0.0
 10
12.3227153514
 20
7.5327023327
 30
0.0
 10
12.3199161854
 20
7.5311490237
 30
0.0
 10
12.3171995964
 20
7.5298154847
 30
0.0
 10
12.3144512038
 20
7.5287254318
 30
0.0
 10
12.3116873462
 20
7.527905169
 30
0.0
 10
12.3096438246
 20
7.5274323727
 30
0.0
 10
12.3076071081
 20
7.5270953801
 30
0.0
 10
12.3055777313
 20
7.5268943717
 30
0.0
 10
12.3035565157
 20
7.5268294291
 30
0.0
 10
12.3022136783
 20
7.5268769294
 30
0.0
 10
12.3015454821
 20
7.5269232713
 30
0.0
  0
SPLINE
  5
3E4
100
AcDbEntity
  8
0
100
AcDbSpline
 62
7
  6
CONTINUOUS
 70
0
 71
3
 72
67
 73
63
 74
0
 42
0.0000001
 43
0.0000001
 44
0.0000000001
 40
0.0
 40
0.0
 40
0.0
 40
0.0
 40
0.0156220966
 40
0.0311918772
 40
0.0467082963
 40
0.0621731833
 40
0.0775876961
 40
0.0929537886
 40
0.1082739099
 40
0.1235509305
 40
0.1387881816
 40
0.1539894018
 40
0.1691587055
 40
0.1843005414
 40
0.199419645
 40
0.214520994
 40
0.2296097563
 40
0.2446912337
 40
0.2597708042
 40
0.2748538661
 40
0.2899457823
 40
0.3050518212
 40
0.3201770991
 40
0.3353265272
 40
0.350504763
 40
0.365716162
 40
0.3809647316
 40
0.3962540914
 40
0.4115874434
 40
0.4269675414
 40
0.4423966649
 40
0.4578765993
 40
0.4734086283
 40
0.4889935247
 40
0.5046315458
 40
0.5203224346
 40
0.5360654325
 40
0.5518592907
 40
0.5677022833
 40
0.5835922269
 40
0.5995265098
 40
0.615502118
 40
0.6315156627
 40
0.6475634128
 40
0.6636413355
 40
0.6797451315
 40
0.712003519
 40
0.7443089063
 40
0.7766214013
 40
0.8089008649
 40
0.8250202137
 40
0.8411168656
 40
0.8571863565
 40
0.8732244603
 40
0.889227227
 40
0.9051910288
 40
0.921112568
 40
0.9369889723
 40
0.9528177709
 40
0.9685966419
 40
0.9843249058
 40
1.0
 40
1.0
 40
1.0
 40
1.0
 10
10.6823500294
 20
6.4930106234
 30
0.0
 10
10.6865307264
 20
6.4927206911
 30
0.0
 10
10.6948937097
 20
6.4923453356
 30
0.0
 10
10.7074282692
 20
6.4923995734
 30
0.0
 10
10.7199030215
 20
6.4930720445
 30
0.0
 10
10.7322873068
 20
6.4943610033
 30
0.0
 10
10.7445515513
 20
6.4962635007
 30
0.0
 10
10.7566661109
 20
6.4987749278
 30
0.0
 10
10.7686018038
 20
6.5018892478
 30
0.0
 10
10.7803298523
 20
6.5055990015
 30
0.0
 10
10.791821964
 20
6.509895294
 30
0.0
 10
10.8030504325
 20
6.5147677665
 30
0.0
 10
10.8139881804
 20
6.5202046846
 30
0.0
 10
10.8246088204
 20
6.5261929659
 30
0.0
 10
10.8348867157
 20
6.5327182092
 30
0.0
 10
10.8447970842
 20
6.5397646647
 30
0.0
 10
10.8543160241
 20
6.5473153396
 30
0.0
 10
10.8634205664
 20
6.5553520362
 30
0.0
 10
10.8720887283
 20
6.5638553925
 30
0.0
 10
10.8802996206
 20
6.5728048758
 30
0.0
 10
10.8880334502
 20
6.5821788914
 30
0.0
 10
10.8952715636
 20
6.5919548316
 30
0.0
 10
10.9019964898
 20
6.6021091267
 30
0.0
 10
10.9081920461
 20
6.6126172613
 30
0.0
 10
10.9138433174
 20
6.6234538819
 30
0.0
 10
10.9189366886
 20
6.6345928541
 30
0.0
 10
10.9234598754
 20
6.6460073209
 30
0.0
 10
10.9274020237
 20
6.6576697423
 30
0.0
 10
10.930753667
 20
6.6695519945
 30
0.0
 10
10.9335067471
 20
6.6816254345
 30
0.0
 10
10.9356546315
 20
6.6938609632
 30
0.0
 10
10.9371922024
 20
6.7062290842
 30
0.0
 10
10.9381157956
 20
6.7186999934
 30
0.0
 10
10.9384232077
 20
6.7312436461
 30
0.0
 10
10.9381137012
 20
6.7438298239
 30
0.0
 10
10.9371880793
 20
6.7564282095
 30
0.0
 10
10.9356486088
 20
6.7690084639
 30
0.0
 10
10.9334990151
 20
6.781540294
 30
0.0
 10
10.9307444736
 20
6.7939935199
 30
0.0
 10
10.9273916682
 20
6.806338164
 30
0.0
 10
10.9234487009
 20
6.8185445135
 30
0.0
 10
10.9189250796
 20
6.8305831793
 30
0.0
 10
10.9138316728
 20
6.8424251933
 30
0.0
 10
10.9081808406
 20
6.8540419871
 30
0.0
 10
10.901985994
 20
6.8654058869
 30
0.0
 10
10.8930174882
 20
6.880189792
 30
0.0
 10
10.8805236642
 20
6.8978990575
 30
0.0
 10
10.8636371359
 20
6.9176997043
 30
0.0
 10
10.8450072676
 20
6.9358777617
 30
0.0
 10
10.8281661229
 20
6.9495377395
 30
0.0
 10
10.8140056667
 20
6.9594872402
 30
0.0
 10
10.8030714022
 20
6.9664402996
 30
0.0
 10
10.7918465308
 20
6.9728694974
 30
0.0
 10
10.7803577963
 20
6.9787595697
 30
0.0
 10
10.7686329095
 20
6.9840962381
 30
0.0
 10
10.7567000852
 20
6.9888666737
 30
0.0
 10
10.7445880538
 20
6.9930593873
 30
0.0
 10
10.732325947
 20
6.9966642549
 30
0.0
 10
10.7199433621
 20
6.9996725083
 30
0.0
 10
10.7074698565
 20
7.0020770391
 30
0.0
 10
10.6949360461
 20
7.0038717953
 30
0.0
 10
10.6865449093
 20
7.0046604258
 30
0.0
 10
10.6823500294
 20
7.0049513417
 30
0.0
  0
SPLINE
  5
3E5
100
AcDbEntity
  8
0
100
AcDbSpline
 62
7
  6
CONTINUOUS
 70
0
 71
3
 72
23
 73
19
 74
0
 42
0.0000001
 43
0.0000001
 44
0.0000000001
 40
0.0
 40
0.0
 40
0.0
 40
0.0
 40
0.0638609742
 40
0.1275034352
 40
0.1909230191
 40
0.2541276449
 40
0.3171224247
 40
0.3799159145
 40
0.4425188174
 40
0.5049436698
 40
0.5672049969
 40
0.6293190749
 40
0.6913037881
 40
0.7531784374
 40
0.8149635266
 40
0.876680556
 40
0.9383517894
 40
1.0
 40
1.0
 40
1.0
 40
1.0
 10
10.6901145943
 20
6.5294883942
 30
0.0
 10
10.6939036505
 20
6.5292256222
 30
0.0
 10
10.7014832688
 20
6.5288895066
 30
0.0
 10
10.7128428785
 20
6.5289571746
 30
0.0
 10
10.7241458708
 20
6.5295975234
 30
0.0
 10
10.7353632277
 20
6.5308088201
 30
0.0
 10
10.746466965
 20
6.5325881683
 30
0.0
 10
10.7574290455
 20
6.5349310661
 30
0.0
 10
10.768221885
 20
6.5378316307
 30
0.0
 10
10.7788182983
 20
6.5412826043
 30
0.0
 10
10.7891915805
 20
6.5452753431
 30
0.0
 10
10.7993156056
 20
6.5497997912
 30
0.0
 10
10.8091648672
 20
6.5548445639
 30
0.0
 10
10.8187145482
 20
6.5603969844
 30
0.0
 10
10.827940544
 20
6.566443082
 30
0.0
 10
10.8368196959
 20
6.5729676895
 30
0.0
 10
10.8453293319
 20
6.5799540786
 30
0.0
 10
10.8507428645
 20
6.5849088263
 30
0.0
 10
10.8533800481
 20
6.5874561514
 30
0.0
  0
SPLINE
  5
3E6
100
AcDbEntity
  8
0
100
AcDbSpline
 62
7
  6
CONTINUOUS
 70
0
 71
3
 72
11
 73
7
 74
0
 42
0.0000001
 43
0.0000001
 44
0.0000000001
 40
0.0
 40
0.0
 40
0.0
 40
0.0
 40
0.2522347022
 40
0.5029338439
 40
0.7521563242
 40
1.0
 40
1.0
 40
1.0
 40
1.0
 10
10.827288575
 20
6.6619882927
 30
0.0
 10
10.8339358648
 20
6.6615273016
 30
0.0
 10
10.8472377767
 20
6.6611876969
 30
0.0
 10
10.8670931314
 20
6.6624463699
 30
0.0
 10
10.8866411064
 20
6.6654641367
 30
0.0
 10
10.8994036388
 20
6.6686433381
 30
0.0
 10
10.905677143
 20
6.6705167672
 30
0.0
  0
SPLINE
  5
3E7
100
AcDbEntity
  8
0
100
AcDbSpline
 62
7
  6
CONTINUOUS
 70
0
 71
3
 72
21
 73
17
 74
0
 42
0.0000001
 43
0.0000001
 44
0.0000000001
 40
0.0
 40
0.0
 40
0.0
 40
0.0
 40
0.0495126626
 40
0.1013863418
 40
0.1555114991
 40
0.2117686844
 40
0.2700296031
 40
0.3301580379
 40
0.3920106529
 40
0.4554377274
 40
0.5202839083
 40
0.5863888808
 40
0.6535880009
 40
0.7217129041
 40
0.8600482583
 40
1.0
 40
1.0
 40
1.0
 40
1.0
 10
10.7544076678
 20
8.8996888237
 30
0.0
 10
10.7575344778
 20
8.900608756
 30
0.0
 10
10.7639648717
 20
8.9023993918
 30
0.0
 10
10.7738950694
 20
8.9048909306
 30
0.0
 10
10.7843142547
 20
8.9072456132
 30
0.0
 10
10.7951940823
 20
8.909456945
 30
0.0
 10
10.8065050737
 20
8.9115188644
 30
0.0
 10
10.8182165159
 20
8.9134257087
 30
0.0
 10
10.8302965995
 20
8.9151722445
 30
0.0
 10
10.8427124921
 20
8.9167536858
 30
0.0
 10
10.855430441
 20
8.9181657003
 30
0.0
 10
10.8684158584
 20
8.9194044119
 30
0.0
 10
10.8816334531
 20
8.9204664502
 30
0.0
 10
10.8996096329
 20
8.921648926
 30
0.0
 10
10.9223938734
 20
8.9226615669
 30
0.0
 10
10.9407128619
 20
8.9229761797
 30
0.0
 10
10.9499255638
 20
8.9230105335
 30
0.0
  0
SPLINE
  5
3E8
100
AcDbEntity
  8
0
100
AcDbSpline
 62
7
  6
CONTINUOUS
 70
0
 71
3
 72
84
 73
80
 74
0
 42
0.0000001
 43
0.0000001
 44
0.0000000001
 40
0.0
 40
0.0
 40
0.0
 40
0.0
 40
0.0027164264
 40
0.0054532293
 40
0.008230295
 40
0.0110665896
 40
0.0139797932
 40
0.0169861044
 40
0.0201000661
 40
0.0233345812
 40
0.0267009392
 40
0.0302088856
 40
0.0338668056
 40
0.037681768
 40
0.0416597414
 40
0.0458056718
 40
0.050123593
 40
0.0546167913
 40
0.0592877975
 40
0.0641385717
 40
0.0691704988
 40
0.074384467
 40
0.0797809628
 40
0.0853600226
 40
0.0911213815
 40
0.0970644148
 40
0.1094911534
 40
0.122630387
 40
0.136468035
 40
0.1509868331
 40
0.1661667198
 40
0.1819851503
 40
0.1984173662
 40
0.2154366132
 40
0.2330143274
 40
0.2511202956
 40
0.2697227959
 40
0.2887887406
 40
0.3082838034
 40
0.3281725359
 40
0.3484184777
 40
0.3689842604
 40
0.3898317162
 40
0.4109219843
 40
0.4536719359
 40
0.4969138893
 40
0.5403221212
 40
0.5835693222
 40
0.6263297187
 40
0.6474271304
 40
0.6682829869
 40
0.6888584043
 40
0.7091151927
 40
0.7290159604
 40
0.748524216
 40
0.7676044742
 40
0.7862223676
 40
0.8043447661
 40
0.8219399096
 40
0.838977535
 40
0.8554290199
 40
0.8712675451
 40
0.8864682815
 40
0.9010086172
 40
0.9148684112
 40
0.9280303001
 40
0.9404800906
 40
0.946434749
 40
0.9522077946
 40
0.957798564
 40
0.9632067735
 40
0.9684324641
 40
0.9734760551
 40
0.9783384155
 40
0.983020862
 40
0.9875253935
 40
0.9918546029
 40
0.9960115831
 40
1.0
 40
1.0
 40
1.0
 40
1.0
 10
12.3672707901
 20
8.474646954
 30
0.0
 10
12.3681573186
 20
8.4745854699
 30
0.0
 10
12.3699324836
 20
8.474381778
 30
0.0
 10
12.3725726322
 20
8.4738367669
 30
0.0
 10
12.3751928303
 20
8.4730523444
 30
0.0
 10
12.3777911975
 20
8.4720292455
 30
0.0
 10
12.3803664189
 20
8.4707684392
 30
0.0
 10
12.3829171376
 20
8.4692708408
 30
0.0
 10
12.3854422108
 20
8.4675375749
 30
0.0
 10
12.3879405028
 20
8.4655697139
 30
0.0
 10
12.3904109194
 20
8.4633683974
 30
0.0
 10
12.3928524372
 20
8.4609348654
 30
0.0
 10
12.3952639327
 20
8.4582703371
 30
0.0
 10
12.3976443905
 20
8.4553762092
 30
0.0
 10
12.3999926996
 20
8.4522538977
 30
0.0
 10
12.4023077765
 20
8.4489049499
 30
0.0
 10
12.4045885651
 20
8.4453310292
 30
0.0
 10
12.4068339259
 20
8.4415338684
 30
0.0
 10
12.4090428315
 20
8.4375153648
 30
0.0
 10
12.4112141657
 20
8.4332774839
 30
0.0
 10
12.4133468752
 20
8.4288223289
 30
0.0
 10
12.4154399237
 20
8.4241521126
 30
0.0
 10
12.4174922323
 20
8.4192691427
 30
0.0
 10
12.4195028227
 20
8.4141758654
 30
0.0
 10
12.4214706698
 20
8.4088748001
 30
0.0
 10
12.4240749512
 20
8.4014219914
 30
0.0
 10
12.4272067247
 20
8.3915989736
 30
0.0
 10
12.4307255452
 20
8.3791959777
 30
0.0
 10
12.4340516913
 20
8.3660329898
 30
0.0
 10
12.4371784234
 20
8.3521363544
 30
0.0
 10
12.440099385
 20
8.3375337569
 30
0.0
 10
12.4428086395
 20
8.3222544135
 30
0.0
 10
12.4453006736
 20
8.3063289217
 30
0.0
 10
12.4475704147
 20
8.2897892087
 30
0.0
 10
12.4496132411
 20
8.2726684563
 30
0.0
 10
12.4514249909
 20
8.2550010349
 30
0.0
 10
12.4530019792
 20
8.2368224309
 30
0.0
 10
12.4543409965
 20
8.2181691706
 30
0.0
 10
12.4554393153
 20
8.1990787411
 30
0.0
 10
12.456294695
 20
8.1795895146
 30
0.0
 10
12.4569053872
 20
8.1597406686
 30
0.0
 10
12.4572701361
 20
8.1395721213
 30
0.0
 10
12.457388214
 20
8.1191243966
 30
0.0
 10
12.4572155328
 20
8.0914194665
 30
0.0
 10
12.4563777034
 20
8.056394951
 30
0.0
 10
12.4544031611
 20
8.0141052919
 30
0.0
 10
12.4514705441
 20
7.9717080637
 30
0.0
 10
12.44760342
 20
7.9295441686
 30
0.0
 10
12.4436105727
 20
7.8947303907
 30
0.0
 10
12.4399666501
 20
7.8672570227
 30
0.0
 10
12.4370338744
 20
7.847012045
 30
0.0
 10
12.4338951259
 20
7.8270763271
 30
0.0
 10
12.4305567087
 20
7.8074899245
 30
0.0
 10
12.4270253674
 20
7.7882922215
 30
0.0
 10
12.423308227
 20
7.7695218059
 30
0.0
 10
12.4194127905
 20
7.7512164046
 30
0.0
 10
12.4153469211
 20
7.7334128032
 30
0.0
 10
12.4111188274
 20
7.7161467686
 30
0.0
 10
12.4067370535
 20
7.6994529711
 30
0.0
 10
12.402210454
 20
7.6833649146
 30
0.0
 10
12.3975481763
 20
7.6679148688
 30
0.0
 10
12.3927596427
 20
7.6531338019
 30
0.0
 10
12.3878545259
 20
7.6390513038
 30
0.0
 10
12.3828427367
 20
7.6256955339
 30
0.0
 10
12.3777343884
 20
7.6130930812
 30
0.0
 10
12.3725397818
 20
7.6012691616
 30
0.0
 10
12.3680841143
 20
7.5919507091
 30
0.0
 10
12.3644774823
 20
7.5849109276
 30
0.0
 10
12.3617976609
 20
7.5799187393
 30
0.0
 10
12.3591040984
 20
7.5751380947
 30
0.0
 10
12.3563981469
 20
7.5705713571
 30
0.0
 10
12.3536811478
 20
7.5662208034
 30
0.0
 10
12.3509544371
 20
7.5620886102
 30
0.0
 10
12.3482194169
 20
7.5581768139
 30
0.0
 10
12.3454773762
 20
7.5544873651
 30
0.0
 10
12.3427296636
 20
7.5510220386
 30
0.0
 10
12.3399775474
 20
7.5477825347
 30
0.0
 10
12.337222515
 20
7.5447706121
 30
0.0
 10
12.3353466051
 20
7.5428768094
 30
0.0
 10
12.3344081361
 20
7.541970318
 30
0.0
  0
SPLINE
  5
3E9
100
AcDbEntity
  8
0
100
AcDbSpline
 62
7
  6
CONTINUOUS
 70
0
 71
3
 72
15
 73
11
 74
0
 42
0.0000001
 43
0.0000001
 44
0.0000000001
 40
0.0
 40
0.0
 40
0.0
 40
0.0
 40
0.0951450538
 40
0.1995559381
 40
0.3129425311
 40
0.4349382749
 40
0.5651191425
 40
0.7030201677
 40
0.8481493189
 40
1.0
 40
1.0
 40
1.0
 40
1.0
 10
10.6923781996
 20
9.0570491054
 30
0.0
 10
10.6928986902
 20
9.0583888176
 30
0.0
 10
10.6940418216
 20
9.0611788044
 30
0.0
 10
10.6959509096
 20
9.0655039192
 30
0.0
 10
10.6981208402
 20
9.0701559652
 30
0.0
 10
10.7005350052
 20
9.0751227204
 30
0.0
 10
10.703175173
 20
9.080390814
 30
0.0
 10
10.7060217523
 20
9.0859460107
 30
0.0
 10
10.7090541528
 20
9.0917736294
 30
0.0
 10
10.7111405938
 20
9.0957451273
 30
0.0
 10
10.7122092745
 20
9.0977748435
 30
0.0
  0
SPLINE
  5
3EA
100
AcDbEntity
  8
0
100
AcDbSpline
 62
4
  6
CONTINUOUS
 70
0
 71
3
 72
403
 73
399
 74
0
 42
0.0000001
 43
0.0000001
 44
0.0000000001
 40
0.0
 40
0.0
 40
0.0
 40
0.0
 40
0.015625
 40
0.0234375
 40
0.03125
 40
0.0390625
 40
0.04296875
 40
0.046875
 40
0.05078125
 40
0.0546875
 40
0.056640625
 40
0.05859375
 40
0.0595703125
 40
0.060546875
 40
0.0615234375
 40
0.0620117188
 40
0.0622558594
 40
0.0625
 40
0.0627441406
 40
0.0629882812
 40
0.0634765625
 40
0.064453125
 40
0.0654296875
 40
0.06640625
 40
0.068359375
 40
0.0703125
 40
0.07421875
 40
0.078125
 40
0.08203125
 40
0.0859375
 40
0.09375
 40
0.1015625
 40
0.10546875
 40
0.109375
 40
0.11328125
 40
0.1171875
 40
0.119140625
 40
0.12109375
 40
0.1220703125
 40
0.123046875
 40
0.1240234375
 40
0.1245117188
 40
0.1247558594
 40
0.125
 40
0.1252441406
 40
0.1254882812
 40
0.1259765625
 40
0.126953125
 40
0.1279296875
 40
0.12890625
 40
0.130859375
 40
0.1328125
 40
0.13671875
 40
0.140625
 40
0.14453125
 40
0.1484375
 40
0.15625
 40
0.1640625
 40
0.16796875
 40
0.171875
 40
0.17578125
 40
0.1796875
 40
0.181640625
 40
0.18359375
 40
0.1845703125
 40
0.185546875
 40
0.1865234375
 40
0.1870117188
 40
0.1872558594
 40
0.1875
 40
0.1877441406
 40
0.1879882812
 40
0.1884765625
 40
0.189453125
 40
0.1904296875
 40
0.19140625
 40
0.193359375
 40
0.1953125
 40
0.19921875
 40
0.203125
 40
0.20703125
 40
0.2109375
 40
0.21875
 40
0.2265625
 40
0.23046875
 40
0.234375
 40
0.23828125
 40
0.2421875
 40
0.244140625
 40
0.24609375
 40
0.2470703125
 40
0.248046875
 40
0.2490234375
 40
0.2495117188
 40
0.2497558594
 40
0.25
 40
0.2502441406
 40
0.2504882812
 40
0.2509765625
 40
0.251953125
 40
0.2529296875
 40
0.25390625
 40
0.255859375
 40
0.2578125
 40
0.26171875
 40
0.265625
 40
0.26953125
 40
0.2734375
 40
0.28125
 40
0.2890625
 40
0.29296875
 40
0.296875
 40
0.30078125
 40
0.3046875
 40
0.306640625
 40
0.30859375
 40
0.3095703125
 40
0.310546875
 40
0.3115234375
 40
0.3120117188
 40
0.3122558594
 40
0.3125
 40
0.3127441406
 40
0.3129882812
 40
0.3134765625
 40
0.314453125
 40
0.3154296875
 40
0.31640625
 40
0.318359375
 40
0.3203125
 40
0.32421875
 40
0.328125
 40
0.33203125
 40
0.3359375
 40
0.34375
 40
0.3515625
 40
0.35546875
 40
0.359375
 40
0.36328125
 40
0.3671875
 40
0.369140625
 40
0.37109375
 40
0.3720703125
 40
0.373046875
 40
0.3740234375
 40
0.3745117188
 40
0.3747558594
 40
0.375
 40
0.3752441406
 40
0.3754882812
 40
0.3759765625
 40
0.376953125
 40
0.3779296875
 40
0.37890625
 40
0.380859375
 40
0.3828125
 40
0.38671875
 40
0.390625
 40
0.39453125
 40
0.3984375
 40
0.40625
 40
0.4140625
 40
0.41796875
 40
0.421875
 40
0.42578125
 40
0.4296875
 40
0.431640625
 40
0.43359375
 40
0.4345703125
 40
0.435546875
 40
0.4365234375
 40
0.4370117188
 40
0.4372558594
 40
0.4375
 40
0.4377441406
 40
0.4379882812
 40
0.4384765625
 40
0.439453125
 40
0.4404296875
 40
0.44140625
 40
0.443359375
 40
0.4453125
 40
0.44921875
 40
0.453125
 40
0.45703125
 40
0.4609375
 40
0.46875
 40
0.4765625
 40
0.48046875
 40
0.484375
 40
0.48828125
 40
0.4921875
 40
0.494140625
 40
0.49609375
 40
0.4970703125
 40
0.498046875
 40
0.4990234375
 40
0.4995117188
 40
0.4997558594
 40
0.5
 40
0.5002441406
 40
0.5004882812
 40
0.5009765625
 40
0.501953125
 40
0.5029296875
 40
0.50390625
 40
0.505859375
 40
0.5078125
 40
0.51171875
 40
0.515625
 40
0.51953125
 40
0.5234375
 40
0.53125
 40
0.5390625
 40
0.54296875
 40
0.546875
 40
0.55078125
 40
0.5546875
 40
0.556640625
 40
0.55859375
 40
0.5595703125
 40
0.560546875
 40
0.5615234375
 40
0.5620117188
 40
0.5622558594
 40
0.5625
 40
0.5627441406
 40
0.5629882812
 40
0.5634765625
 40
0.564453125
 40
0.5654296875
 40
0.56640625
 40
0.568359375
 40
0.5703125
 40
0.57421875
 40
0.578125
 40
0.58203125
 40
0.5859375
 40
0.59375
 40
0.6015625
 40
0.60546875
 40
0.609375
 40
0.61328125
 40
0.6171875
 40
0.619140625
 40
0.62109375
 40
0.6220703125
 40
0.623046875
 40
0.6240234375
 40
0.6245117188
 40
0.6247558594
 40
0.625
 40
0.6252441406
 40
0.6254882812
 40
0.6259765625
 40
0.626953125
 40
0.6279296875
 40
0.62890625
 40
0.630859375
 40
0.6328125
 40
0.63671875
 40
0.640625
 40
0.64453125
 40
0.6484375
 40
0.65625
 40
0.6640625
 40
0.66796875
 40
0.671875
 40
0.67578125
 40
0.6796875
 40
0.681640625
 40
0.68359375
 40
0.6845703125
 40
0.685546875
 40
0.6865234375
 40
0.6870117188
 40
0.6872558594
 40
0.6875
 40
0.6877441406
 40
0.6879882812
 40
0.6884765625
 40
0.689453125
 40
0.6904296875
 40
0.69140625
 40
0.693359375
 40
0.6953125
 40
0.69921875
 40
0.703125
 40
0.70703125
 40
0.7109375
 40
0.71875
 40
0.7265625
 40
0.73046875
 40
0.734375
 40
0.73828125
 40
0.7421875
 40
0.744140625
 40
0.74609375
 40
0.7470703125
 40
0.748046875
 40
0.7490234375
 40
0.7495117188
 40
0.7497558594
 40
0.75
 40
0.7502441406
 40
0.7504882812
 40
0.7509765625
 40
0.751953125
 40
0.7529296875
 40
0.75390625
 40
0.755859375
 40
0.7578125
 40
0.76171875
 40
0.765625
 40
0.76953125
 40
0.7734375
 40
0.78125
 40
0.7890625
 40
0.79296875
 40
0.796875
 40
0.80078125
 40
0.8046875
 40
0.806640625
 40
0.80859375
 40
0.8095703125
 40
0.810546875
 40
0.8115234375
 40
0.8120117188
 40
0.8122558594
 40
0.8125
 40
0.8127441406
 40
0.8129882812
 40
0.8134765625
 40
0.814453125
 40
0.8154296875
 40
0.81640625
 40
0.818359375
 40
0.8203125
 40
0.82421875
 40
0.828125
 40
0.83203125
 40
0.8359375
 40
0.84375
 40
0.8515625
 40
0.85546875
 40
0.859375
 40
0.86328125
 40
0.8671875
 40
0.869140625
 40
0.87109375
 40
0.8720703125
 40
0.873046875
 40
0.8740234375
 40
0.8745117188
 40
0.8747558594
 40
0.875
 40
0.8752441406
 40
0.8754882812
 40
0.8759765625
 40
0.876953125
 40
0.8779296875
 40
0.87890625
 40
0.880859375
 40
0.8828125
 40
0.88671875
 40
0.890625
 40
0.89453125
 40
0.8984375
 40
0.90625
 40
0.9140625
 40
0.91796875
 40
0.921875
 40
0.92578125
 40
0.9296875
 40
0.931640625
 40
0.93359375
 40
0.9345703125
 40
0.935546875
 40
0.9365234375
 40
0.9370117188
 40
0.9372558594
 40
0.9375
 40
0.9377441406
 40
0.9379882812
 40
0.9384765625
 40
0.939453125
 40
0.9404296875
 40
0.94140625
 40
0.943359375
 40
0.9453125
 40
0.94921875
 40
0.953125
 40
0.95703125
 40
0.9609375
 40
0.96875
 40
0.9765625
 40
0.984375
 40
1.0
 40
1.0
 40
1.0
 40
1.0
 10
11.0111759234
 20
7.5318780349
 30
0.0
 10
11.0114831351
 20
7.5287235428
 30
0.0
 10
11.0119439526
 20
7.5239918046
 30
0.0
 10
11.0125583759
 20
7.5176828203
 30
0.0
 10
11.0130191934
 20
7.5129510822
 30
0.0
 10
11.0134032079
 20
7.509007967
 30
0.0
 10
11.0137104198
 20
7.5058534749
 30
0.0
 10
11.0139408276
 20
7.5034876057
 30
0.0
 10
11.01417124
 20
7.5011217371
 30
0.0
 10
11.0143632359
 20
7.499150178
 30
0.0
 10
11.0145168651
 20
7.497572935
 30
0.0
 10
11.0146128092
 20
7.4965871485
 30
0.0
 10
11.0146897342
 20
7.4957985412
 30
0.0
 10
11.0147469635
 20
7.495207026
 30
0.0
 10
11.0147961322
 20
7.4947142867
 30
0.0
 10
11.0148276504
 20
7.4943689961
 30
0.0
 10
11.0148501887
 20
7.4941722698
 30
0.0
 10
11.0148543373
 20
7.494023084
 30
0.0
 10
11.0149072424
 20
7.493880171
 30
0.0
 10
11.0149607756
 20
7.4936874323
 30
0.0
 10
11.0150623826
 20
7.493351159
 30
0.0
 10
11.0152033929
 20
7.4928702356
 30
0.0
 10
11.0153743783
 20
7.4922933557
 30
0.0
 10
11.0156017396
 20
7.4915241027
 30
0.0
 10
11.0158861533
 20
7.4905625638
 30
0.0
 10
11.0163410966
 20
7.4890240864
 30
0.0
 10
11.0169098164
 20
7.4871009948
 30
0.0
 10
11.0175922628
 20
7.4847932827
 30
0.0
 10
11.0182747138
 20
7.4824855711
 30
0.0
 10
11.0191846469
 20
7.4794086222
 30
0.0
 10
11.0203220638
 20
7.4755624361
 30
0.0
 10
11.0214594804
 20
7.4717162499
 30
0.0
 10
11.0223694141
 20
7.4686393011
 30
0.0
 10
11.0230518632
 20
7.4663315891
 30
0.0
 10
11.0237343167
 20
7.4640238786
 30
0.0
 10
11.0243030143
 20
7.4621007819
 30
0.0
 10
11.024758003
 20
7.460562315
 30
0.0
 10
11.0250423011
 20
7.4596007492
 30
0.0
 10
11.0252698995
 20
7.4588315515
 30
0.0
 10
11.0254401605
 20
7.458254503
 30
0.0
 10
11.0255834374
 20
7.4577741068
 30
0.0
 10
11.0256809981
 20
7.4574368925
 30
0.0
 10
11.0257410146
 20
7.4572456615
 30
0.0
 10
11.0257740053
 20
7.4570981171
 30
0.0
 10
11.0258529488
 20
7.4569663262
 30
0.0
 10
11.0259421779
 20
7.4567851099
 30
0.0
 10
11.026105797
 20
7.4564705417
 30
0.0
 10
11.0263356341
 20
7.4560198201
 30
0.0
 10
11.0266131098
 20
7.455479527
 30
0.0
 10
11.0269824938
 20
7.4547589362
 30
0.0
 10
11.0274444236
 20
7.4538582661
 30
0.0
 10
11.0281833996
 20
7.4524171557
 30
0.0
 10
11.0291071579
 20
7.4506157809
 30
0.0
 10
11.0302156515
 20
7.4484541255
 30
0.0
 10
11.0313241495
 20
7.4462924716
 30
0.0
 10
11.0328021452
 20
7.4434102658
 30
0.0
 10
11.0346496404
 20
7.4398075088
 30
0.0
 10
11.0364971353
 20
7.4362047517
 30
0.0
 10
11.0379751316
 20
7.4333225462
 30
0.0
 10
11.0390836278
 20
7.4311608915
 30
0.0
 10
11.0401921282
 20
7.4289992389
 30
0.0
 10
11.0411158652
 20
7.4271978554
 30
0.0
 10
11.0418548846
 20
7.4257567627
 30
0.0
 10
11.042316704
 20
7.4248560476
 30
0.0
 10
11.0426863147
 20
7.4241355492
 30
0.0
 10
11.0429630977
 20
7.4235949736
 30
0.0
 10
11.0431951023
 20
7.423145136
 30
0.0
 10
11.043354852
 20
7.4228289897
 30
0.0
 10
11.0434502808
 20
7.422650302
 30
0.0
 10
11.043510181
 20
7.4225107441
 30
0.0
 10
11.043614695
 20
7.422392371
 30
0.0
 10
11.0437384853
 20
7.4222271508
 30
0.0
 10
11.0439623688
 20
7.4219414582
 30
0.0
 10
11.0442784118
 20
7.421531526
 30
0.0
 10
11.0446592858
 20
7.4210403778
 30
0.0
 10
11.0451665512
 20
7.4203852444
 30
0.0
 10
11.045800827
 20
7.4195664198
 30
0.0
 10
11.0468155597
 20
7.4182562489
 30
0.0
 10
11.0480840128
 20
7.416618553
 30
0.0
 10
11.0496061407
 20
7.4146533103
 30
0.0
 10
11.0511282727
 20
7.4126880697
 30
0.0
 10
11.0531577807
 20
7.4100677481
 30
0.0
 10
11.0556946662
 20
7.4067923464
 30
0.0
 10
11.0582315514
 20
7.4035169445
 30
0.0
 10
11.0602610598
 20
7.4008966233
 30
0.0
 10
11.0617831904
 20
7.3989313815
 30
0.0
 10
11.063305324
 20
7.3969661432
 30
0.0
 10
11.064573759
 20
7.3953284337
 30
0.0
 10
11.0655885288
 20
7.3940182906
 30
0.0
 10
11.0662227103
 20
7.3931993954
 30
0.0
 10
11.066730169
 20
7.3925444069
 30
0.0
 10
11.0671104523
 20
7.3920528161
 30
0.0
 10
11.0674283436
 20
7.3916442685
 30
0.0
 10
11.0676489275
 20
7.3913561041
 30
0.0
 10
11.0677780046
 20
7.3911948444
 30
0.0
 10
11.0678662793
 20
7.3910643057
 30
0.0
 10
11.067987172
 20
7.3909704398
 30
0.0
 10
11.0681369848
 20
7.3908324934
 30
0.0
 10
11.0684044581
 20
7.3905970471
 30
0.0
 10
11.0687837914
 20
7.3902575793
 30
0.0
 10
11.0692401776
 20
7.3898515517
 30
0.0
 10
11.0698482782
 20
7.3893097157
 30
0.0
 10
11.0706085459
 20
7.3886325803
 30
0.0
 10
11.0718248948
 20
7.3875490744
 30
0.0
 10
11.0733453582
 20
7.3861947226
 30
0.0
 10
11.0751699026
 20
7.3845694874
 30
0.0
 10
11.0769944502
 20
7.3829442557
 30
0.0
 10
11.0794271791
 20
7.3807772788
 30
0.0
 10
11.0824680907
 20
7.3780685582
 30
0.0
 10
11.085509002
 20
7.3753598373
 30
0.0
 10
11.0879417314
 20
7.373192861
 30
0.0
 10
11.0897662777
 20
7.3715676277
 30
0.0
 10
11.0915908267
 20
7.3699423983
 30
0.0
 10
11.0931112759
 20
7.3685880286
 30
0.0
 10
11.0943276537
 20
7.3675045592
 30
0.0
 10
11.0950878479
 20
7.366827331
 30
0.0
 10
11.0956960994
 20
7.3662856854
 30
0.0
 10
11.0961520246
 20
7.365879076
 30
0.0
 10
11.0965328003
 20
7.3655414285
 30
0.0
 10
11.0967976987
 20
7.3653027328
 30
0.0
 10
11.096951637
 20
7.3651699928
 30
0.0
 10
11.0970598574
 20
7.3650601344
 30
0.0
 10
11.0971957273
 20
7.3649896609
 30
0.0
 10
11.0973672427
 20
7.3648819583
 30
0.0
 10
11.0976718882
 20
7.3646998796
 30
0.0
 10
11.0981047469
 20
7.3644364207
 30
0.0
 10
11.0986251828
 20
7.3641217024
 30
0.0
 10
11.0993187461
 20
7.3637015777
 30
0.0
 10
11.1001858205
 20
7.3631765931
 30
0.0
 10
11.1015730723
 20
7.3623365221
 30
0.0
 10
11.1033071602
 20
7.3612864661
 30
0.0
 10
11.1053880557
 20
7.3600263849
 30
0.0
 10
11.1074689539
 20
7.3587663074
 30
0.0
 10
11.1102434839
 20
7.3570862028
 30
0.0
 10
11.1137116467
 20
7.3549860725
 30
0.0
 10
11.1171798093
 20
7.3528859419
 30
0.0
 10
11.1199543396
 20
7.3512058379
 30
0.0
 10
11.1220352369
 20
7.3499457587
 30
0.0
 10
11.1241161359
 20
7.3486856838
 30
0.0
 10
11.1258502128
 20
7.3476356081
 30
0.0
 10
11.127237487
 20
7.3467955773
 30
0.0
 10
11.1281045044
 20
7.3462704904
 30
0.0
 10
11.1287981848
 20
7.3458505759
 30
0.0
 10
11.1293182631
 20
7.3455352154
 30
0.0
 10
11.1297522406
 20
7.3452737656
 30
0.0
 10
11.1300548887
 20
7.3450881004
 30
0.0
 10
11.1302296044
 20
7.3449861442
 30
0.0
 10
11.1303556442
 20
7.3448980195
 30
0.0
 10
11.1305007847
 20
7.3448544564
 30
0.0
 10
11.1306876428
 20
7.3447808286
 30
0.0
 10
11.1310177488
 20
7.3446592221
 30
0.0
 10
11.1314877057
 20
7.3444817123
 30
0.0
 10
11.1320523487
 20
7.3442703211
 30
0.0
 10
11.1328049635
 20
7.3439879002
 30
0.0
 10
11.1337458149
 20
7.3436350678
 30
0.0
 10
11.1352511309
 20
7.3430704278
 30
0.0
 10
11.1371327917
 20
7.3423646648
 30
0.0
 10
11.1393907779
 20
7.3415177334
 30
0.0
 10
11.1416487659
 20
7.3406708062
 30
0.0
 10
11.144659416
 20
7.3395415685
 30
0.0
 10
11.1484227288
 20
7.3381300219
 30
0.0
 10
11.1521860414
 20
7.3367184749
 30
0.0
 10
11.1551966917
 20
7.3355892378
 30
0.0
 10
11.1574546791
 20
7.3347423088
 30
0.0
 10
11.1597126678
 20
7.3338953843
 30
0.0
 10
11.1615943208
 20
7.3331895997
 30
0.0
 10
11.1630996528
 20
7.3326250038
 30
0.0
 10
11.1640404634
 20
7.3322720589
 30
0.0
 10
11.1647931619
 20
7.3319898691
 30
0.0
 10
11.1653575489
 20
7.331777772
 30
0.0
 10
11.1658283071
 20
7.3316024707
 30
0.0
 10
11.1661569826
 20
7.3314769217
 30
0.0
 10
11.1663461326
 20
7.3314096108
 30
0.0
 10
11.1664842333
 20
7.3313466444
 30
0.0
 10
11.1666367132
 20
7.3313313952
 30
0.0
 10
11.1668350041
 20
7.3312944187
 30
0.0
 10
11.16718435
 20
7.3312374647
 30
0.0
 10
11.1676821938
 20
7.3311520475
 30
0.0
 10
11.1682801294
 20
7.3310512822
 30
0.0
 10
11.1690771941
 20
7.3309163224
 30
0.0
 10
11.1700735876
 20
7.3307478301
 30
0.0
 10
11.1716677822
 20
7.3304781265
 30
0.0
 10
11.1736605375
 20
7.3301410369
 30
0.0
 10
11.1760518387
 20
7.3297365122
 30
0.0
 10
11.1784431412
 20
7.3293319921
 30
0.0
 10
11.1816315442
 20
7.3287926303
 30
0.0
 10
11.185617048
 20
7.3281184287
 30
0.0
 10
11.1896025518
 20
7.3274442267
 30
0.0
 10
11.1927909548
 20
7.3269048656
 30
0.0
 10
11.1951822571
 20
7.3265003435
 30
0.0
 10
11.1975735591
 20
7.3260958263
 30
0.0
 10
11.199566312
 20
7.3257587135
 30
0.0
 10
11.2011605114
 20
7.3254890571
 30
0.0
 10
11.2021568928
 20
7.3253204446
 30
0.0
 10
11.2029539824
 20
7.3251857317
 30
0.0
 10
11.2035518421
 20
7.325084212
 30
0.0
 10
11.2040499232
 20
7.3250011551
 30
0.0
 10
11.2043988456
 20
7.3249399876
 30
0.0
 10
11.204597815
 20
7.3249097622
 30
0.0
 10
11.2047482106
 20
7.3248737758
 30
0.0
 10
11.2048941395
 20
7.3248886948
 30
0.0
 10
11.2050902695
 20
7.3248908304
 30
0.0
 10
11.205432771
 20
7.3249028408
 30
0.0
 10
11.2059224383
 20
7.3249156732
 30
0.0
 10
11.2065098767
 20
7.3249329234
 30
0.0
 10
11.2072931846
 20
7.324955277
 30
0.0
 10
11.2082723001
 20
7.3249834405
 30
0.0
 10
11.2098388957
 20
7.3250283783
 30
0.0
 10
11.2117971365
 20
7.325084593
 30
0.0
 10
11.214147027
 20
7.3251520325
 30
0.0
 10
11.2164969171
 20
7.3252194768
 30
0.0
 10
11.219630104
 20
7.3253094009
 30
0.0
 10
11.2235465876
 20
7.3254218066
 30
0.0
 10
11.2274630713
 20
7.3255342119
 30
0.0
 10
11.2305962582
 20
7.3256241367
 30
0.0
 10
11.2329461486
 20
7.325691579
 30
0.0
 10
11.235296038
 20
7.325759026
 30
0.0
 10
11.2372542821
 20
7.3258152172
 30
0.0
 10
11.238820871
 20
7.3258602031
 30
0.0
 10
11.2398000036
 20
7.3258882442
 30
0.0
 10
11.2405832762
 20
7.325910849
 30
0.0
 10
11.2411708226
 20
7.3259273318
 30
0.0
 10
11.241660152
 20
7.3259425653
 30
0.0
 10
11.2420032568
 20
7.3259502892
 30
0.0
 10
11.2421984201
 20
7.3259592928
 30
0.0
 10
11.2423473182
 20
7.3259531154
 30
0.0
 10
11.2424865622
 20
7.3259963638
 30
0.0
 10
11.2426755884
 20
7.3260367881
 30
0.0
 10
11.2430048152
 20
7.3261155631
 30
0.0
 10
11.2434759595
 20
7.3262238994
 30
0.0
 10
11.2440409815
 20
7.3263557004
 30
0.0
 10
11.2447944669
 20
7.3265308073
 30
0.0
 10
11.2457362816
 20
7.3267499059
 30
0.0
 10
11.2472432087
 20
7.3271003435
 30
0.0
 10
11.2491268594
 20
7.3275384317
 30
0.0
 10
11.2513872437
 20
7.3280641199
 30
0.0
 10
11.2536476271
 20
7.3285898128
 30
0.0
 10
11.256661472
 20
7.329290735
 30
0.0
 10
11.260428778
 20
7.3301668884
 30
0.0
 10
11.264196084
 20
7.3310430414
 30
0.0
 10
11.2672099287
 20
7.3317439642
 30
0.0
 10
11.2694703127
 20
7.3322696552
 30
0.0
 10
11.2717306949
 20
7.3327953507
 30
0.0
 10
11.2736143523
 20
7.3332334161
 30
0.0
 10
11.2751212656
 20
7.3335839001
 30
0.0
 10
11.2760631152
 20
7.3338028807
 30
0.0
 10
11.276816529
 20
7.3339782297
 30
0.0
 10
11.2773817698
 20
7.3341092911
 30
0.0
 10
11.2778522298
 20
7.3342199415
 30
0.0
 10
11.2781826782
 20
7.3342945855
 30
0.0
 10
11.278369747
 20
7.3343416287
 30
0.0
 10
11.2785150035
 20
7.3343645459
 30
0.0
 10
11.2786413197
 20
7.3344347293
 30
0.0
 10
11.2788163479
 20
7.3345118201
 30
0.0
 10
11.2791195691
 20
7.3346544107
 30
0.0
 10
11.2795543514
 20
7.3348540956
 30
0.0
 10
11.2800754015
 20
7.3350954364
 30
0.0
 10
11.2807703755
 20
7.3354166238
 30
0.0
 10
11.2816390106
 20
7.3358183135
 30
0.0
 10
11.2830288728
 20
7.3364609023
 30
0.0
 10
11.2847661848
 20
7.3372641776
 30
0.0
 10
11.2868509659
 20
7.3382280911
 30
0.0
 10
11.2889357452
 20
7.3391920091
 30
0.0
 10
11.2917154516
 20
7.3404772316
 30
0.0
 10
11.2951900844
 20
7.3420837602
 30
0.0
 10
11.2986647173
 20
7.3436902884
 30
0.0
 10
11.3014444234
 20
7.3449755115
 30
0.0
 10
11.3035292036
 20
7.3459394277
 30
0.0
 10
11.3056139815
 20
7.3469033482
 30
0.0
 10
11.3073513036
 20
7.3477066016
 30
0.0
 10
11.3087411451
 20
7.3483492351
 30
0.0
 10
11.309609833
 20
7.3487508108
 30
0.0
 10
11.3103046987
 20
7.3490722324
 30
0.0
 10
11.3108260794
 20
7.3493128575
 30
0.0
 10
11.3112598274
 20
7.3495147816
 30
0.0
 10
11.3115648951
 20
7.3496533748
 30
0.0
 10
11.3117369648
 20
7.3497368705
 30
0.0
 10
11.3118723685
 20
7.3497873804
 30
0.0
 10
11.3119834935
 20
7.3498841879
 30
0.0
 10
11.3121401289
 20
7.3499971155
 30
0.0
 10
11.3124102951
 20
7.3502022629
 30
0.0
 10
11.3127983097
 20
7.350491397
 30
0.0
 10
11.3132630442
 20
7.3508400416
 30
0.0
 10
11.3138829986
 20
7.351304313
 30
0.0
 10
11.3146578361
 20
7.3518848536
 30
0.0
 10
11.315897635
 20
7.352813606
 30
0.0
 10
11.3174473634
 20
7.3539745851
 30
0.0
 10
11.3193070461
 20
7.3553677434
 30
0.0
 10
11.3211667265
 20
7.3567609063
 30
0.0
 10
11.3236463012
 20
7.3586184551
 30
0.0
 10
11.3267457693
 20
7.3609403918
 30
0.0
 10
11.3298452376
 20
7.3632623281
 30
0.0
 10
11.3323248119
 20
7.3651198775
 30
0.0
 10
11.3341844936
 20
7.3665130387
 30
0.0
 10
11.3360441716
 20
7.3679062032
 30
0.0
 10
11.3375939148
 20
7.3690671631
 30
0.0
 10
11.3388336835
 20
7.3699959547
 30
0.0
 10
11.339608598
 20
7.3705763957
 30
0.0
 10
11.3402283942
 20
7.3710408714
 30
0.0
 10
11.3406936122
 20
7.3713888917
 30
0.0
 10
11.3410801139
 20
7.371679979
 30
0.0
 10
11.3413529808
 20
7.3718816396
 30
0.0
 10
11.341505289
 20
7.3720001541
 30
0.0
 10
11.3416297058
 20
7.3720798004
 30
0.0
 10
11.3417151878
 20
7.3721947649
 30
0.0
 10
11.3418427447
 20
7.3723357315
 30
0.0
 10
11.3420596416
 20
7.372588163
 30
0.0
 10
11.3423728025
 20
7.3729457785
 30
0.0
 10
11.3427471796
 20
7.3733762016
 30
0.0
 10
11.3432468437
 20
7.3739496504
 30
0.0
 10
11.3438712544
 20
7.374666615
 30
0.0
 10
11.3448704062
 20
7.3758136726
 30
0.0
 10
11.3461193134
 20
7.3772475239
 30
0.0
 10
11.3476180161
 20
7.378968133
 30
0.0
 10
11.349116715
 20
7.3806887454
 30
0.0
 10
11.3511149815
 20
7.3829828941
 30
0.0
 10
11.3536128142
 20
7.3858505804
 30
0.0
 10
11.3561106472
 20
7.3887182664
 30
0.0
 10
11.3581089132
 20
7.3910124156
 30
0.0
 10
11.3596076137
 20
7.3927330266
 30
0.0
 10
11.3611063103
 20
7.3944536406
 30
0.0
 10
11.3623552364
 20
7.3958874765
 30
0.0
 10
11.3633543498
 20
7.3970345656
 30
0.0
 10
11.3639788583
 20
7.39775145
 30
0.0
 10
11.3644783215
 20
7.3983250636
 30
0.0
 10
11.3648533124
 20
7.3987549831
 30
0.0
 10
11.365164553
 20
7.3991141742
 30
0.0
 10
11.3653848779
 20
7.399363793
 30
0.0
 10
11.3655069423
 20
7.3995092661
 30
0.0
 10
11.3656092956
 20
7.3996103883
 30
0.0
 10
11.3656703465
 20
7.3997420243
 30
0.0
 10
11.3657661544
 20
7.3999068954
 30
0.0
 10
11.3659271059
 20
7.4002003789
 30
0.0
 10
11.366160546
 20
7.4006170484
 30
0.0
 10
11.3664391719
 20
7.4011181615
 30
0.0
 10
11.3668111978
 20
7.4017859248
 30
0.0
 10
11.3672760506
 20
7.4026207615
 30
0.0
 10
11.3680199154
 20
7.4039564262
 30
0.0
 10
11.3689497119
 20
7.4056260324
 30
0.0
 10
11.3700654826
 20
7.407629549
 30
0.0
 10
11.3711812493
 20
7.4096330685
 30
0.0
 10
11.3726689396
 20
7.4123044268
 30
0.0
 10
11.3745285519
 20
7.4156436251
 30
0.0
 10
11.3763881646
 20
7.4189828231
 30
0.0
 10
11.3778758544
 20
7.4216541818
 30
0.0
 10
11.3789916228
 20
7.4236577002
 30
0.0
 10
11.3801073869
 20
7.4256612208
 30
0.0
 10
11.3810372039
 20
7.4273308146
 30
0.0
 10
11.3817810269
 20
7.4286665045
 30
0.0
 10
11.382245986
 20
7.4295012769
 30
0.0
 10
11.3826177936
 20
7.4301691723
 30
0.0
 10
11.3828970865
 20
7.4306698816
 30
0.0
 10
11.3831284399
 20
7.4310878147
 30
0.0
 10
11.3832931164
 20
7.4313790425
 30
0.0
 10
11.383382956
 20
7.4315475277
 30
0.0
 10
11.3834623399
 20
7.4316680623
 30
0.0
 10
11.3834958374
 20
7.4318108797
 30
0.0
 10
11.3835565065
 20
7.4319935304
 30
0.0
 10
11.3836552201
 20
7.4323167905
 30
0.0
 10
11.3838001383
 20
7.4327766974
 30
0.0
 10
11.3839723714
 20
7.433329396
 30
0.0
 10
11.3842025983
 20
7.4340660444
 30
0.0
 10
11.3844901823
 20
7.4349869519
 30
0.0
 10
11.3849504284
 20
7.4364603496
 30
0.0
 10
11.3855256977
 20
7.4383021154
 30
0.0
 10
11.3862160373
 20
7.4405122264
 30
0.0
 10
11.3869063724
 20
7.4427223395
 30
0.0
 10
11.3878268209
 20
7.4456691563
 30
0.0
 10
11.3889773809
 20
7.4493526775
 30
0.0
 10
11.3901279412
 20
7.4530361985
 30
0.0
 10
11.391048389
 20
7.4559830155
 30
0.0
 10
11.3917387261
 20
7.4581931278
 30
0.0
 10
11.3924290585
 20
7.4604032418
 30
0.0
 10
11.3930043501
 20
7.4622449982
 30
0.0
 10
11.3934645508
 20
7.4637184151
 30
0.0
 10
11.3937522502
 20
7.4646392737
 30
0.0
 10
11.3939822403
 20
7.4653760224
 30
0.0
 10
11.3941551969
 20
7.4659284148
 30
0.0
 10
11.3942978511
 20
7.4663892799
 30
0.0
 10
11.3944006064
 20
7.4667108293
 30
0.0
 10
11.3944547997
 20
7.4668962209
 30
0.0
 10
11.3945081888
 20
7.4670306191
 30
0.0
 10
11.3945128634
 20
7.4671827749
 30
0.0
 10
11.3945360884
 20
7.4673794552
 30
0.0
 10
11.3945688152
 20
7.4677265317
 30
0.0
 10
11.3946197068
 20
7.4682208464
 30
0.0
 10
11.3946790051
 20
7.4688146698
 30
0.0
 10
11.3947586883
 20
7.4696062089
 30
0.0
 10
11.3948580805
 20
7.47059571
 30
0.0
 10
11.3950172263
 20
7.4721788685
 30
0.0
 10
11.3952161179
 20
7.4741578315
 30
0.0
 10
11.3954548053
 20
7.4765325807
 30
0.0
 10
11.395693488
 20
7.4789073316
 30
0.0
 10
11.3960117333
 20
7.4820736655
 30
0.0
 10
11.3964095393
 20
7.4860315832
 30
0.0
 10
11.3968869067
 20
7.4907810843
 30
0.0
 10
11.3975233966
 20
7.4971137524
 30
0.0
 10
11.398000764
 20
7.5018632536
 30
0.0
 10
11.3983190089
 20
7.5050295876
 30
0.0
  0
SPLINE
  5
3EB
100
AcDbEntity
  8
0
100
AcDbSpline
 62
4
  6
CONTINUOUS
 70
0
 71
3
 72
403
 73
399
 74
0
 42
0.0000001
 43
0.0000001
 44
0.0000000001
 40
0.0
 40
0.0
 40
0.0
 40
0.0
 40
0.015625
 40
0.0234375
 40
0.03125
 40
0.0390625
 40
0.04296875
 40
0.046875
 40
0.05078125
 40
0.0546875
 40
0.056640625
 40
0.05859375
 40
0.0595703125
 40
0.060546875
 40
0.0615234375
 40
0.0620117188
 40
0.0622558594
 40
0.0625
 40
0.0627441406
 40
0.0629882812
 40
0.0634765625
 40
0.064453125
 40
0.0654296875
 40
0.06640625
 40
0.068359375
 40
0.0703125
 40
0.07421875
 40
0.078125
 40
0.08203125
 40
0.0859375
 40
0.09375
 40
0.1015625
 40
0.10546875
 40
0.109375
 40
0.11328125
 40
0.1171875
 40
0.119140625
 40
0.12109375
 40
0.1220703125
 40
0.123046875
 40
0.1240234375
 40
0.1245117188
 40
0.1247558594
 40
0.125
 40
0.1252441406
 40
0.1254882812
 40
0.1259765625
 40
0.126953125
 40
0.1279296875
 40
0.12890625
 40
0.130859375
 40
0.1328125
 40
0.13671875
 40
0.140625
 40
0.14453125
 40
0.1484375
 40
0.15625
 40
0.1640625
 40
0.16796875
 40
0.171875
 40
0.17578125
 40
0.1796875
 40
0.181640625
 40
0.18359375
 40
0.1845703125
 40
0.185546875
 40
0.1865234375
 40
0.1870117188
 40
0.1872558594
 40
0.1875
 40
0.1877441406
 40
0.1879882812
 40
0.1884765625
 40
0.189453125
 40
0.1904296875
 40
0.19140625
 40
0.193359375
 40
0.1953125
 40
0.19921875
 40
0.203125
 40
0.20703125
 40
0.2109375
 40
0.21875
 40
0.2265625
 40
0.23046875
 40
0.234375
 40
0.23828125
 40
0.2421875
 40
0.244140625
 40
0.24609375
 40
0.2470703125
 40
0.248046875
 40
0.2490234375
 40
0.2495117188
 40
0.2497558594
 40
0.25
 40
0.2502441406
 40
0.2504882812
 40
0.2509765625
 40
0.251953125
 40
0.2529296875
 40
0.25390625
 40
0.255859375
 40
0.2578125
 40
0.26171875
 40
0.265625
 40
0.26953125
 40
0.2734375
 40
0.28125
 40
0.2890625
 40
0.29296875
 40
0.296875
 40
0.30078125
 40
0.3046875
 40
0.306640625
 40
0.30859375
 40
0.3095703125
 40
0.310546875
 40
0.3115234375
 40
0.3120117188
 40
0.3122558594
 40
0.3125
 40
0.3127441406
 40
0.3129882812
 40
0.3134765625
 40
0.314453125
 40
0.3154296875
 40
0.31640625
 40
0.318359375
 40
0.3203125
 40
0.32421875
 40
0.328125
 40
0.33203125
 40
0.3359375
 40
0.34375
 40
0.3515625
 40
0.35546875
 40
0.359375
 40
0.36328125
 40
0.3671875
 40
0.369140625
 40
0.37109375
 40
0.3720703125
 40
0.373046875
 40
0.3740234375
 40
0.3745117188
 40
0.3747558594
 40
0.375
 40
0.3752441406
 40
0.3754882812
 40
0.3759765625
 40
0.376953125
 40
0.3779296875
 40
0.37890625
 40
0.380859375
 40
0.3828125
 40
0.38671875
 40
0.390625
 40
0.39453125
 40
0.3984375
 40
0.40625
 40
0.4140625
 40
0.41796875
 40
0.421875
 40
0.42578125
 40
0.4296875
 40
0.431640625
 40
0.43359375
 40
0.4345703125
 40
0.435546875
 40
0.4365234375
 40
0.4370117188
 40
0.4372558594
 40
0.4375
 40
0.4377441406
 40
0.4379882812
 40
0.4384765625
 40
0.439453125
 40
0.4404296875
 40
0.44140625
 40
0.443359375
 40
0.4453125
 40
0.44921875
 40
0.453125
 40
0.45703125
 40
0.4609375
 40
0.46875
 40
0.4765625
 40
0.48046875
 40
0.484375
 40
0.48828125
 40
0.4921875
 40
0.494140625
 40
0.49609375
 40
0.4970703125
 40
0.498046875
 40
0.4990234375
 40
0.4995117188
 40
0.4997558594
 40
0.5
 40
0.5002441406
 40
0.5004882812
 40
0.5009765625
 40
0.501953125
 40
0.5029296875
 40
0.50390625
 40
0.505859375
 40
0.5078125
 40
0.51171875
 40
0.515625
 40
0.51953125
 40
0.5234375
 40
0.53125
 40
0.5390625
 40
0.54296875
 40
0.546875
 40
0.55078125
 40
0.5546875
 40
0.556640625
 40
0.55859375
 40
0.5595703125
 40
0.560546875
 40
0.5615234375
 40
0.5620117188
 40
0.5622558594
 40
0.5625
 40
0.5627441406
 40
0.5629882812
 40
0.5634765625
 40
0.564453125
 40
0.5654296875
 40
0.56640625
 40
0.568359375
 40
0.5703125
 40
0.57421875
 40
0.578125
 40
0.58203125
 40
0.5859375
 40
0.59375
 40
0.6015625
 40
0.60546875
 40
0.609375
 40
0.61328125
 40
0.6171875
 40
0.619140625
 40
0.62109375
 40
0.6220703125
 40
0.623046875
 40
0.6240234375
 40
0.6245117188
 40
0.6247558594
 40
0.625
 40
0.6252441406
 40
0.6254882812
 40
0.6259765625
 40
0.626953125
 40
0.6279296875
 40
0.62890625
 40
0.630859375
 40
0.6328125
 40
0.63671875
 40
0.640625
 40
0.64453125
 40
0.6484375
 40
0.65625
 40
0.6640625
 40
0.66796875
 40
0.671875
 40
0.67578125
 40
0.6796875
 40
0.681640625
 40
0.68359375
 40
0.6845703125
 40
0.685546875
 40
0.6865234375
 40
0.6870117188
 40
0.6872558594
 40
0.6875
 40
0.6877441406
 40
0.6879882812
 40
0.6884765625
 40
0.689453125
 40
0.6904296875
 40
0.69140625
 40
0.693359375
 40
0.6953125
 40
0.69921875
 40
0.703125
 40
0.70703125
 40
0.7109375
 40
0.71875
 40
0.7265625
 40
0.73046875
 40
0.734375
 40
0.73828125
 40
0.7421875
 40
0.744140625
 40
0.74609375
 40
0.7470703125
 40
0.748046875
 40
0.7490234375
 40
0.7495117188
 40
0.7497558594
 40
0.75
 40
0.7502441406
 40
0.7504882812
 40
0.7509765625
 40
0.751953125
 40
0.7529296875
 40
0.75390625
 40
0.755859375
 40
0.7578125
 40
0.76171875
 40
0.765625
 40
0.76953125
 40
0.7734375
 40
0.78125
 40
0.7890625
 40
0.79296875
 40
0.796875
 40
0.80078125
 40
0.8046875
 40
0.806640625
 40
0.80859375
 40
0.8095703125
 40
0.810546875
 40
0.8115234375
 40
0.8120117188
 40
0.8122558594
 40
0.8125
 40
0.8127441406
 40
0.8129882812
 40
0.8134765625
 40
0.814453125
 40
0.8154296875
 40
0.81640625
 40
0.818359375
 40
0.8203125
 40
0.82421875
 40
0.828125
 40
0.83203125
 40
0.8359375
 40
0.84375
 40
0.8515625
 40
0.85546875
 40
0.859375
 40
0.86328125
 40
0.8671875
 40
0.869140625
 40
0.87109375
 40
0.8720703125
 40
0.873046875
 40
0.8740234375
 40
0.8745117188
 40
0.8747558594
 40
0.875
 40
0.8752441406
 40
0.8754882812
 40
0.8759765625
 40
0.876953125
 40
0.8779296875
 40
0.87890625
 40
0.880859375
 40
0.8828125
 40
0.88671875
 40
0.890625
 40
0.89453125
 40
0.8984375
 40
0.90625
 40
0.9140625
 40
0.91796875
 40
0.921875
 40
0.92578125
 40
0.9296875
 40
0.931640625
 40
0.93359375
 40
0.9345703125
 40
0.935546875
 40
0.9365234375
 40
0.9370117188
 40
0.9372558594
 40
0.9375
 40
0.9377441406
 40
0.9379882812
 40
0.9384765625
 40
0.939453125
 40
0.9404296875
 40
0.94140625
 40
0.943359375
 40
0.9453125
 40
0.94921875
 40
0.953125
 40
0.95703125
 40
0.9609375
 40
0.96875
 40
0.9765625
 40
0.984375
 40
1.0
 40
1.0
 40
1.0
 40
1.0
 10
11.3983190089
 20
7.5050295707
 30
0.0
 10
11.3980117972
 20
7.5081840628
 30
0.0
 10
11.3975509797
 20
7.512915801
 30
0.0
 10
11.3969365564
 20
7.5192247853
 30
0.0
 10
11.3964757389
 20
7.5239565234
 30
0.0
 10
11.3960917244
 20
7.5278996386
 30
0.0
 10
11.3957845125
 20
7.5310541307
 30
0.0
 10
11.3955541047
 20
7.5334199999
 30
0.0
 10
11.3953236923
 20
7.5357858685
 30
0.0
 10
11.3951316964
 20
7.5377574276
 30
0.0
 10
11.3949780672
 20
7.5393346706
 30
0.0
 10
11.3948821231
 20
7.540320457
 30
0.0
 10
11.3948051981
 20
7.5411090644
 30
0.0
 10
11.3947479688
 20
7.5417005796
 30
0.0
 10
11.3946988001
 20
7.5421933189
 30
0.0
 10
11.3946672819
 20
7.5425386095
 30
0.0
 10
11.3946447436
 20
7.5427353358
 30
0.0
 10
11.394640595
 20
7.5428845216
 30
0.0
 10
11.3945876899
 20
7.5430274346
 30
0.0
 10
11.3945341567
 20
7.5432201733
 30
0.0
 10
11.3944325497
 20
7.5435564466
 30
0.0
 10
11.3942915394
 20
7.54403737
 30
0.0
 10
11.394120554
 20
7.5446142499
 30
0.0
 10
11.3938931927
 20
7.5453835029
 30
0.0
 10
11.393608779
 20
7.5463450417
 30
0.0
 10
11.3931538357
 20
7.5478835192
 30
0.0
 10
11.3925851159
 20
7.5498066108
 30
0.0
 10
11.3919026695
 20
7.5521143229
 30
0.0
 10
11.3912202185
 20
7.5544220345
 30
0.0
 10
11.3903102854
 20
7.5574989834
 30
0.0
 10
11.3891728685
 20
7.5613451695
 30
0.0
 10
11.3880354519
 20
7.5651913557
 30
0.0
 10
11.3871255182
 20
7.5682683045
 30
0.0
 10
11.3864430691
 20
7.5705760165
 30
0.0
 10
11.3857606156
 20
7.572883727
 30
0.0
 10
11.385191918
 20
7.5748068237
 30
0.0
 10
11.3847369293
 20
7.5763452906
 30
0.0
 10
11.3844526312
 20
7.5773068564
 30
0.0
 10
11.3842250328
 20
7.5780760541
 30
0.0
 10
11.3840547718
 20
7.5786531026
 30
0.0
 10
11.3839114949
 20
7.5791334988
 30
0.0
 10
11.3838139342
 20
7.5794707131
 30
0.0
 10
11.3837539177
 20
7.5796619441
 30
0.0
 10
11.383720927
 20
7.5798094885
 30
0.0
 10
11.3836419835
 20
7.5799412794
 30
0.0
 10
11.3835527544
 20
7.5801224957
 30
0.0
 10
11.3833891353
 20
7.5804370639
 30
0.0
 10
11.3831592982
 20
7.5808877855
 30
0.0
 10
11.3828818225
 20
7.5814280786
 30
0.0
 10
11.3825124385
 20
7.5821486694
 30
0.0
 10
11.3820505087
 20
7.5830493395
 30
0.0
 10
11.3813115327
 20
7.5844904498
 30
0.0
 10
11.3803877744
 20
7.5862918247
 30
0.0
 10
11.3792792808
 20
7.5884534801
 30
0.0
 10
11.3781707828
 20
7.590615134
 30
0.0
 10
11.3766927871
 20
7.5934973398
 30
0.0
 10
11.3748452919
 20
7.5971000968
 30
0.0
 10
11.372997797
 20
7.6007028539
 30
0.0
 10
11.3715198007
 20
7.6035850594
 30
0.0
 10
11.3704113045
 20
7.6057467141
 30
0.0
 10
11.3693028041
 20
7.6079083667
 30
0.0
 10
11.3683790671
 20
7.6097097502
 30
0.0
 10
11.3676400477
 20
7.6111508429
 30
0.0
 10
11.3671782283
 20
7.612051558
 30
0.0
 10
11.3668086176
 20
7.6127720564
 30
0.0
 10
11.3665318346
 20
7.613312632
 30
0.0
 10
11.36629983
 20
7.6137624696
 30
0.0
 10
11.3661400803
 20
7.6140786159
 30
0.0
 10
11.3660446515
 20
7.6142573036
 30
0.0
 10
11.3659847513
 20
7.6143968615
 30
0.0
 10
11.3658802373
 20
7.6145152346
 30
0.0
 10
11.365756447
 20
7.6146804548
 30
0.0
 10
11.3655325635
 20
7.6149661474
 30
0.0
 10
11.3652165205
 20
7.6153760796
 30
0.0
 10
11.3648356465
 20
7.6158672278
 30
0.0
 10
11.3643283811
 20
7.6165223612
 30
0.0
 10
11.3636941053
 20
7.6173411858
 30
0.0
 10
11.3626793726
 20
7.6186513567
 30
0.0
 10
11.3614109195
 20
7.6202890526
 30
0.0
 10
11.3598887916
 20
7.6222542953
 30
0.0
 10
11.3583666596
 20
7.6242195359
 30
0.0
 10
11.3563371516
 20
7.6268398575
 30
0.0
 10
11.3538002661
 20
7.6301152592
 30
0.0
 10
11.3512633809
 20
7.6333906611
 30
0.0
 10
11.3492338725
 20
7.6360109823
 30
0.0
 10
11.3477117419
 20
7.6379762241
 30
0.0
 10
11.3461896083
 20
7.6399414624
 30
0.0
 10
11.3449211733
 20
7.6415791719
 30
0.0
 10
11.3439064035
 20
7.642889315
 30
0.0
 10
11.343272222
 20
7.6437082102
 30
0.0
 10
11.3427647633
 20
7.6443631987
 30
0.0
 10
11.34238448
 20
7.6448547895
 30
0.0
 10
11.3420665887
 20
7.6452633371
 30
0.0
 10
11.3418460048
 20
7.6455515015
 30
0.0
 10
11.3417169277
 20
7.6457127612
 30
0.0
 10
11.341628653
 20
7.6458432999
 30
0.0
 10
11.3415077603
 20
7.6459371658
 30
0.0
 10
11.3413579475
 20
7.6460751122
 30
0.0
 10
11.3410904742
 20
7.6463105585
 30
0.0
 10
11.3407111409
 20
7.6466500263
 30
0.0
 10
11.3402547547
 20
7.6470560539
 30
0.0
 10
11.3396466541
 20
7.6475978898
 30
0.0
 10
11.3388863864
 20
7.6482750253
 30
0.0
 10
11.3376700375
 20
7.6493585312
 30
0.0
 10
11.3361495741
 20
7.6507128829
 30
0.0
 10
11.3343250297
 20
7.6523381182
 30
0.0
 10
11.3325004821
 20
7.6539633499
 30
0.0
 10
11.3300677532
 20
7.6561303267
 30
0.0
 10
11.3270268416
 20
7.6588390473
 30
0.0
 10
11.3239859303
 20
7.6615477683
 30
0.0
 10
11.3215532009
 20
7.6637147446
 30
0.0
 10
11.3197286546
 20
7.6653399779
 30
0.0
 10
11.3179041056
 20
7.6669652073
 30
0.0
 10
11.3163836564
 20
7.668319577
 30
0.0
 10
11.3151672786
 20
7.6694030464
 30
0.0
 10
11.3144070844
 20
7.6700802746
 30
0.0
 10
11.3137988329
 20
7.6706219202
 30
0.0
 10
11.3133429077
 20
7.6710285295
 30
0.0
 10
11.312962132
 20
7.6713661771
 30
0.0
 10
11.3126972336
 20
7.6716048728
 30
0.0
 10
11.3125432953
 20
7.6717376128
 30
0.0
 10
11.3124350749
 20
7.6718474712
 30
0.0
 10
11.312299205
 20
7.6719179447
 30
0.0
 10
11.3121276896
 20
7.6720256473
 30
0.0
 10
11.3118230441
 20
7.672207726
 30
0.0
 10
11.3113901854
 20
7.6724711849
 30
0.0
 10
11.3108697495
 20
7.6727859032
 30
0.0
 10
11.3101761862
 20
7.6732060279
 30
0.0
 10
11.3093091118
 20
7.6737310125
 30
0.0
 10
11.30792186
 20
7.6745710835
 30
0.0
 10
11.3061877721
 20
7.6756211395
 30
0.0
 10
11.3041068766
 20
7.6768812207
 30
0.0
 10
11.3020259784
 20
7.6781412982
 30
0.0
 10
11.2992514484
 20
7.6798214028
 30
0.0
 10
11.2957832856
 20
7.681921533
 30
0.0
 10
11.292315123
 20
7.6840216637
 30
0.0
 10
11.2895405927
 20
7.6857017677
 30
0.0
 10
11.2874596954
 20
7.6869618469
 30
0.0
 10
11.2853787964
 20
7.6882219218
 30
0.0
 10
11.2836447195
 20
7.6892719974
 30
0.0
 10
11.2822574453
 20
7.6901120283
 30
0.0
 10
11.2813904279
 20
7.6906371152
 30
0.0
 10
11.2806967475
 20
7.6910570297
 30
0.0
 10
11.2801766692
 20
7.6913723902
 30
0.0
 10
11.2797426917
 20
7.69163384
 30
0.0
 10
11.2794400436
 20
7.6918195052
 30
0.0
 10
11.2792653279
 20
7.6919214613
 30
0.0
 10
11.2791392881
 20
7.6920095861
 30
0.0
 10
11.2789941476
 20
7.6920531492
 30
0.0
 10
11.2788072895
 20
7.692126777
 30
0.0
 10
11.2784771835
 20
7.6922483835
 30
0.0
 10
11.2780072266
 20
7.6924258933
 30
0.0
 10
11.2774425836
 20
7.6926372845
 30
0.0
 10
11.2766899688
 20
7.6929197054
 30
0.0
 10
11.2757491174
 20
7.6932725378
 30
0.0
 10
11.2742438014
 20
7.6938371778
 30
0.0
 10
11.2723621406
 20
7.6945429407
 30
0.0
 10
11.2701041544
 20
7.6953898722
 30
0.0
 10
11.2678461664
 20
7.6962367994
 30
0.0
 10
11.2648355163
 20
7.6973660371
 30
0.0
 10
11.2610722035
 20
7.6987775837
 30
0.0
 10
11.2573088909
 20
7.7001891307
 30
0.0
 10
11.2542982406
 20
7.7013183678
 30
0.0
 10
11.2520402532
 20
7.7021652968
 30
0.0
 10
11.2497822645
 20
7.7030122213
 30
0.0
 10
11.2479006115
 20
7.7037180059
 30
0.0
 10
11.2463952795
 20
7.7042826017
 30
0.0
 10
11.2454544689
 20
7.7046355466
 30
0.0
 10
11.2447017704
 20
7.7049177365
 30
0.0
 10
11.2441373834
 20
7.7051298335
 30
0.0
 10
11.2436666252
 20
7.7053051349
 30
0.0
 10
11.2433379497
 20
7.7054306839
 30
0.0
 10
11.2431487997
 20
7.7054979948
 30
0.0
 10
11.243010699
 20
7.7055609612
 30
0.0
 10
11.2428582191
 20
7.7055762104
 30
0.0
 10
11.2426599282
 20
7.7056131869
 30
0.0
 10
11.2423105823
 20
7.7056701409
 30
0.0
 10
11.2418127385
 20
7.7057555581
 30
0.0
 10
11.2412148029
 20
7.7058563234
 30
0.0
 10
11.2404177382
 20
7.7059912832
 30
0.0
 10
11.2394213447
 20
7.7061597755
 30
0.0
 10
11.2378271501
 20
7.706429479
 30
0.0
 10
11.2358343948
 20
7.7067665687
 30
0.0
 10
11.2334430936
 20
7.7071710934
 30
0.0
 10
11.2310517911
 20
7.7075756135
 30
0.0
 10
11.2278633881
 20
7.7081149753
 30
0.0
 10
11.2238778843
 20
7.7087891769
 30
0.0
 10
11.2198923805
 20
7.7094633789
 30
0.0
 10
11.2167039775
 20
7.7100027399
 30
0.0
 10
11.2143126752
 20
7.710407262
 30
0.0
 10
11.2119213732
 20
7.7108117793
 30
0.0
 10
11.2099286203
 20
7.7111488921
 30
0.0
 10
11.2083344209
 20
7.7114185484
 30
0.0
 10
11.2073380395
 20
7.711587161
 30
0.0
 10
11.2065409499
 20
7.7117218739
 30
0.0
 10
11.2059430902
 20
7.7118233935
 30
0.0
 10
11.2054450091
 20
7.7119064505
 30
0.0
 10
11.2050960867
 20
7.711967618
 30
0.0
 10
11.2048971173
 20
7.7119978434
 30
0.0
 10
11.2047467217
 20
7.7120338297
 30
0.0
 10
11.2046007928
 20
7.7120189108
 30
0.0
 10
11.2044046628
 20
7.7120167752
 30
0.0
 10
11.2040621613
 20
7.7120047648
 30
0.0
 10
11.203572494
 20
7.7119919324
 30
0.0
 10
11.2029850556
 20
7.7119746822
 30
0.0
 10
11.2022017477
 20
7.7119523286
 30
0.0
 10
11.2012226322
 20
7.7119241651
 30
0.0
 10
11.1996560366
 20
7.7118792273
 30
0.0
 10
11.1976977959
 20
7.7118230126
 30
0.0
 10
11.1953479053
 20
7.7117555731
 30
0.0
 10
11.1929980152
 20
7.7116881288
 30
0.0
 10
11.1898648283
 20
7.7115982047
 30
0.0
 10
11.1859483447
 20
7.711485799
 30
0.0
 10
11.182031861
 20
7.7113733937
 30
0.0
 10
11.1788986741
 20
7.7112834689
 30
0.0
 10
11.1765487837
 20
7.7112160266
 30
0.0
 10
11.1741988943
 20
7.7111485796
 30
0.0
 10
11.1722406502
 20
7.7110923884
 30
0.0
 10
11.1706740614
 20
7.7110474025
 30
0.0
 10
11.1696949287
 20
7.7110193614
 30
0.0
 10
11.1689116561
 20
7.7109967566
 30
0.0
 10
11.1683241097
 20
7.7109802738
 30
0.0
 10
11.1678347803
 20
7.7109650402
 30
0.0
 10
11.1674916755
 20
7.7109573164
 30
0.0
 10
11.1672965122
 20
7.7109483127
 30
0.0
 10
11.1671476141
 20
7.7109544902
 30
0.0
 10
11.1670083701
 20
7.7109112418
 30
0.0
 10
11.1668193439
 20
7.7108708175
 30
0.0
 10
11.1664901171
 20
7.7107920425
 30
0.0
 10
11.1660189728
 20
7.7106837062
 30
0.0
 10
11.1654539508
 20
7.7105519052
 30
0.0
 10
11.1647004654
 20
7.7103767983
 30
0.0
 10
11.1637586507
 20
7.7101576997
 30
0.0
 10
11.1622517236
 20
7.7098072621
 30
0.0
 10
11.1603680729
 20
7.7093691739
 30
0.0
 10
11.1581076886
 20
7.7088434857
 30
0.0
 10
11.1558473052
 20
7.7083177928
 30
0.0
 10
11.1528334603
 20
7.7076168706
 30
0.0
 10
11.1490661543
 20
7.7067407172
 30
0.0
 10
11.1452988483
 20
7.7058645642
 30
0.0
 10
11.1422850036
 20
7.7051636414
 30
0.0
 10
11.1400246196
 20
7.7046379504
 30
0.0
 10
11.1377642374
 20
7.7041122549
 30
0.0
 10
11.13588058
 20
7.7036741894
 30
0.0
 10
11.1343736667
 20
7.7033237055
 30
0.0
 10
11.1334318171
 20
7.7031047249
 30
0.0
 10
11.1326784033
 20
7.7029293759
 30
0.0
 10
11.1321131625
 20
7.7027983145
 30
0.0
 10
11.1316427025
 20
7.7026876641
 30
0.0
 10
11.1313122541
 20
7.7026130201
 30
0.0
 10
11.1311251853
 20
7.7025659769
 30
0.0
 10
11.1309799288
 20
7.7025430597
 30
0.0
 10
11.1308536126
 20
7.7024728763
 30
0.0
 10
11.1306785844
 20
7.7023957855
 30
0.0
 10
11.1303753632
 20
7.7022531948
 30
0.0
 10
11.1299405809
 20
7.70205351
 30
0.0
 10
11.1294195308
 20
7.7018121692
 30
0.0
 10
11.1287245568
 20
7.7014909818
 30
0.0
 10
11.1278559217
 20
7.7010892921
 30
0.0
 10
11.1264660595
 20
7.7004467033
 30
0.0
 10
11.1247287475
 20
7.699643428
 30
0.0
 10
11.1226439664
 20
7.6986795145
 30
0.0
 10
11.1205591871
 20
7.6977155965
 30
0.0
 10
11.1177794807
 20
7.696430374
 30
0.0
 10
11.1143048479
 20
7.6948238454
 30
0.0
 10
11.110830215
 20
7.6932173171
 30
0.0
 10
11.1080505089
 20
7.6919320941
 30
0.0
 10
11.1059657287
 20
7.6909681779
 30
0.0
 10
11.1038809508
 20
7.6900042574
 30
0.0
 10
11.1021436287
 20
7.689201004
 30
0.0
 10
11.1007537872
 20
7.6885583705
 30
0.0
 10
11.0998850993
 20
7.6881567948
 30
0.0
 10
11.0991902336
 20
7.6878353732
 30
0.0
 10
11.0986688529
 20
7.6875947481
 30
0.0
 10
11.0982351049
 20
7.687392824
 30
0.0
 10
11.0979300372
 20
7.6872542308
 30
0.0
 10
11.0977579675
 20
7.6871707351
 30
0.0
 10
11.0976225638
 20
7.6871202252
 30
0.0
 10
11.0975114388
 20
7.6870234177
 30
0.0
 10
11.0973548034
 20
7.6869104901
 30
0.0
 10
11.0970846372
 20
7.6867053427
 30
0.0
 10
11.0966966226
 20
7.6864162086
 30
0.0
 10
11.0962318881
 20
7.686067564
 30
0.0
 10
11.0956119337
 20
7.6856032926
 30
0.0
 10
11.0948370962
 20
7.685022752
 30
0.0
 10
11.0935972973
 20
7.6840939996
 30
0.0
 10
11.0920475689
 20
7.6829330205
 30
0.0
 10
11.0901878862
 20
7.6815398621
 30
0.0
 10
11.0883282058
 20
7.6801466993
 30
0.0
 10
11.0858486311
 20
7.6782891505
 30
0.0
 10
11.082749163
 20
7.6759672138
 30
0.0
 10
11.0796496947
 20
7.6736452775
 30
0.0
 10
11.0771701204
 20
7.6717877281
 30
0.0
 10
11.0753104387
 20
7.6703945669
 30
0.0
 10
11.0734507607
 20
7.6690014024
 30
0.0
 10
11.0719010175
 20
7.6678404424
 30
0.0
 10
11.0706612488
 20
7.6669116509
 30
0.0
 10
11.0698863343
 20
7.6663312099
 30
0.0
 10
11.0692665381
 20
7.6658667342
 30
0.0
 10
11.0688013201
 20
7.6655187139
 30
0.0
 10
11.0684148184
 20
7.6652276265
 30
0.0
 10
11.0681419515
 20
7.665025966
 30
0.0
 10
11.0679896433
 20
7.6649074515
 30
0.0
 10
11.0678652265
 20
7.6648278052
 30
0.0
 10
11.0677797445
 20
7.6647128407
 30
0.0
 10
11.0676521876
 20
7.664571874
 30
0.0
 10
11.0674352907
 20
7.6643194426
 30
0.0
 10
11.0671221298
 20
7.6639618271
 30
0.0
 10
11.0667477527
 20
7.663531404
 30
0.0
 10
11.0662480886
 20
7.6629579552
 30
0.0
 10
11.0656236779
 20
7.6622409906
 30
0.0
 10
11.0646245261
 20
7.661093933
 30
0.0
 10
11.0633756189
 20
7.6596600816
 30
0.0
 10
11.0618769162
 20
7.6579394726
 30
0.0
 10
11.0603782173
 20
7.6562188602
 30
0.0
 10
11.0583799508
 20
7.6539247115
 30
0.0
 10
11.0558821181
 20
7.6510570252
 30
0.0
 10
11.0533842851
 20
7.6481893392
 30
0.0
 10
11.0513860191
 20
7.64589519
 30
0.0
 10
11.0498873186
 20
7.644174579
 30
0.0
 10
11.048388622
 20
7.642453965
 30
0.0
 10
11.0471396959
 20
7.641020129
 30
0.0
 10
11.0461405825
 20
7.63987304
 30
0.0
 10
11.045516074
 20
7.6391561556
 30
0.0
 10
11.0450166108
 20
7.638582542
 30
0.0
 10
11.0446416199
 20
7.6381526225
 30
0.0
 10
11.0443303793
 20
7.6377934314
 30
0.0
 10
11.0441100544
 20
7.6375438126
 30
0.0
 10
11.04398799
 20
7.6373983395
 30
0.0
 10
11.0438856367
 20
7.6372972173
 30
0.0
 10
11.0438245858
 20
7.6371655813
 30
0.0
 10
11.0437287779
 20
7.6370007102
 30
0.0
 10
11.0435678264
 20
7.6367072267
 30
0.0
 10
11.0433343863
 20
7.6362905572
 30
0.0
 10
11.0430557604
 20
7.6357894441
 30
0.0
 10
11.0426837345
 20
7.6351216808
 30
0.0
 10
11.0422188817
 20
7.6342868441
 30
0.0
 10
11.0414750169
 20
7.6329511794
 30
0.0
 10
11.0405452204
 20
7.6312815732
 30
0.0
 10
11.0394294497
 20
7.6292780566
 30
0.0
 10
11.038313683
 20
7.6272745371
 30
0.0
 10
11.0368259927
 20
7.6246031788
 30
0.0
 10
11.0349663804
 20
7.6212639805
 30
0.0
 10
11.0331067677
 20
7.6179247825
 30
0.0
 10
11.0316190779
 20
7.6152534238
 30
0.0
 10
11.0305033095
 20
7.6132499054
 30
0.0
 10
11.0293875454
 20
7.6112463848
 30
0.0
 10
11.0284577284
 20
7.609576791
 30
0.0
 10
11.0277139054
 20
7.608241101
 30
0.0
 10
11.0272489463
 20
7.6074063287
 30
0.0
 10
11.0268771387
 20
7.6067384333
 30
0.0
 10
11.0265978458
 20
7.606237724
 30
0.0
 10
11.0263664924
 20
7.6058197909
 30
0.0
 10
11.0262018159
 20
7.6055285631
 30
0.0
 10
11.0261119763
 20
7.6053600778
 30
0.0
 10
11.0260325924
 20
7.6052395433
 30
0.0
 10
11.0259990949
 20
7.6050967259
 30
0.0
 10
11.0259384258
 20
7.6049140752
 30
0.0
 10
11.0258397122
 20
7.6045908151
 30
0.0
 10
11.025694794
 20
7.6041309082
 30
0.0
 10
11.0255225609
 20
7.6035782096
 30
0.0
 10
11.025292334
 20
7.6028415612
 30
0.0
 10
11.02500475
 20
7.6019206537
 30
0.0
 10
11.0245445039
 20
7.600447256
 30
0.0
 10
11.0239692346
 20
7.5986054902
 30
0.0
 10
11.023278895
 20
7.5963953792
 30
0.0
 10
11.0225885599
 20
7.5941852661
 30
0.0
 10
11.0216681114
 20
7.5912384493
 30
0.0
 10
11.0205175515
 20
7.5875549281
 30
0.0
 10
11.0193669911
 20
7.5838714071
 30
0.0
 10
11.0184465433
 20
7.5809245901
 30
0.0
 10
11.0177562062
 20
7.5787144778
 30
0.0
 10
11.0170658738
 20
7.5765043638
 30
0.0
 10
11.0164905823
 20
7.5746626074
 30
0.0
 10
11.0160303815
 20
7.5731891905
 30
0.0
 10
11.0157426821
 20
7.5722683318
 30
0.0
 10
11.015512692
 20
7.5715315832
 30
0.0
 10
11.0153397354
 20
7.5709791908
 30
0.0
 10
11.0151970812
 20
7.5705183257
 30
0.0
 10
11.0150943259
 20
7.5701967763
 30
0.0
 10
11.0150401326
 20
7.5700113846
 30
0.0
 10
11.0149867435
 20
7.5698769865
 30
0.0
 10
11.0149820689
 20
7.5697248307
 30
0.0
 10
11.0149588439
 20
7.5695281504
 30
0.0
 10
11.0149261171
 20
7.5691810739
 30
0.0
 10
11.0148752255
 20
7.5686867592
 30
0.0
 10
11.0148159272
 20
7.5680929357
 30
0.0
 10
11.014736244
 20
7.5673013967
 30
0.0
 10
11.0146368518
 20
7.5663118956
 30
0.0
 10
11.014477706
 20
7.5647287371
 30
0.0
 10
11.0142788144
 20
7.5627497741
 30
0.0
 10
11.014040127
 20
7.5603750249
 30
0.0
 10
11.0138014443
 20
7.558000274
 30
0.0
 10
11.013483199
 20
7.55483394
 30
0.0
 10
11.013085393
 20
7.5508760224
 30
0.0
 10
11.0126080256
 20
7.5461265213
 30
0.0
 10
11.0119715358
 20
7.5397938531
 30
0.0
 10
11.0114941684
 20
7.535044352
 30
0.0
 10
11.0111759234
 20
7.531878018
 30
0.0
  0
ENDSEC
  0
SECTION
  2
OBJECTS
  0
DICTIONARY
  5
C
100
AcDbDictionary
280
0
281
1
  3
ACAD_GROUP
350
D
  3
ACAD_MLINESTYLE
350
17
  3
ACAD_LAYOUT
350
1A
  3
ACAD_PLOTSETTINGS
350
19
  3
ACAD_PLOTSTYLENAME
350
E
  3
ACAD_IMAGE_DICT
350
       3ED
  3
ACAD_IMAGE_VARS
350
       3EE
  3
ACAD_TABLESTYLE
350
       3EF
  0
IMAGEDEF_REACTOR
  5
3EC
100
AcDbRasterImageDefReactor
 90
2
330
28F
  0
DICTIONARY
  5
D
102
{ACAD_REACTORS
330
C
102
}
100
AcDbDictionary
280
0
281
1
  0
ACDBDICTIONARYWDFLT
  5
E
102
{ACAD_REACTORS
330
C
102
}
100
AcDbDictionary
281
1
  3
Normal
350
F
100
AcDbDictionaryWithDefault
340
F
  0
DICTIONARY
  5
3ED
330
C
100
AcDbDictionary
281
1
  3
E3U_assy_2_img_1
350
       3F2
  0
RASTERVARIABLES
  5
3EE
330
C
100
AcDbRasterVariables
 90
0
 70
0
 71
1
 72
5
  0
DICTIONARY
  5
17
102
{ACAD_REACTORS
330
C
102
}
100
AcDbDictionary
280
0
281
1
  3
Standard
350
18
  0
DICTIONARY
  5
3EF
330
C
100
AcDbDictionary
281
1
  3
Standard
350
       3F3
  3
Standard1
350
       3F4
  0
DICTIONARY
  5
19
102
{ACAD_REACTORS
330
C
102
}
100
AcDbDictionary
281
1
  0
DICTIONARY
  5
1A
102
{ACAD_REACTORS
330
C
102
}
100
AcDbDictionary
281
1
  3
Model
350
3F0
  3
Layout1
350
3F1
  0
ACDBPLACEHOLDER
  5
F
102
{ACAD_REACTORS
330
E
102
}
  0
MLINESTYLE
  5
18
102
{ACAD_REACTORS
330
17
102
}
100
AcDbMlineStyle
  2
STANDARD
 70
0
  3

 62
256
 51
90.0
 52
90.0
 71
2
 49
0.5
 62
256
  6
BYLAYER
 49
-0.5
 62
256
  6
BYLAYER
  0
LAYOUT
  5
3F0
102
{ACAD_REACTORS
330
1A
102
}
100
AcDbPlotSettings
  1

  2
none_device
  4
ANSI_C_(22.00_x_17.00_Inches)
  6

 40
0.0
 41
0.0
 42
0.0
 43
0.0
 44
558.8
 45
431.8
 46
0.0
 47
0.0
 48
0.0
 49
0.0
140
0.0
141
0.0
142
1.0
143
1.0
 70
1024
 72
0
 73
0
 74
0
  7

 75
0
147
1.0
148
0.0
149
0.0
100
AcDbLayout
  1
Model
 70
0
 71
0
 10
0.0
 20
0.0
 11
22.0
 21
17.0
 12
0.0
 22
0.0
 32
0.0
 14
0.0
 24
0.0
 34
0.0
 15
0.0
 25
0.0
 35
0.0
146
0.0
 13
0.0
 23
0.0
 33
0.0
 16
1.0
 26
0.0
 36
0.0
 17
0.0
 27
1.0
 37
0.0
 76
0
330
20C
345
0
346
0
  0
LAYOUT
  5
3F1
102
{ACAD_REACTORS
330
1A
102
}
100
AcDbPlotSettings
  1

  2
none_device
  4
ANSI_C_(22.00_x_17.00_Inches)
  6

 40
0.0
 41
0.0
 42
0.0
 43
0.0
 44
558.8
 45
431.8
 46
0.0
 47
0.0
 48
0.0
 49
0.0
140
0.0
141
0.0
142
1.0
143
1.0
 70
0
 72
0
 73
0
 74
0
  7

 75
0
147
1.0
148
0.0
149
0.0
100
AcDbLayout
  1
Layout1
 70
0
 71
1
 10
0.0
 20
0.0
 11
22.0
 21
17.0
 12
0.0
 22
0.0
 32
0.0
 14
0.0
 24
0.0
 34
0.0
 15
0.0
 25
0.0
 35
0.0
146
0.0
 13
0.0
 23
0.0
 33
0.0
 16
1.0
 26
0.0
 36
0.0
 17
0.0
 27
1.0
 37
0.0
 76
0
330
20D
345
0
346
0
  0
IMAGEDEF
  5
3F2
102
{ACAD_REACTORS
330
3ED
330
3EC
102
}
100
AcDbRasterImageDef
 90
0
  1
E3U_assy_2_img_1.png
 10
369.0
 20
92.0
 11
0.0066666667
 21
0.0066666667
280
1
281
0
  0
TABLESTYLE
  5
3F3
102
{ACAD_REACTORS
330
3EF
330
292
330
293
102
}
330
3EF
100
AcDbTableStyle
  3
Standard
 70
0
 71
0
 40
0.06
 41
0.06
280
1
281
1
  7
Standard
140
0.18
170
1
 62
0
 63
7
283
0
  7
Standard
140
0.18
170
1
 62
0
 63
7
283
0
  7
Standard
140
0.18
170
1
 62
0
 63
7
283
0
  0
TABLESTYLE
  5
3F4
102
{ACAD_REACTORS
330
3EF
330
291
102
}
330
3EF
100
AcDbTableStyle
  3
Standard1
 70
1
 71
0
 40
0.06
 41
0.06
280
1
281
1
  7
Standard
140
0.18
170
1
 62
0
 63
7
283
0
  7
Standard
140
0.18
170
1
 62
0
 63
7
283
0
  7
Standard
140
0.18
170
1
 62
0
 63
7
283
0
  0
ENDSEC
  0
EOF
