999
DXF file: E3T_assy_2.dxf
999
Pro/ENGINEER 2014200 by Parametric Technology Corporation
  0
SECTION
  2
HEADER
  9
$ACADVER
  1
AC1021
  9
$DWGCODEPAGE
  3
ANSI_1252
  9
$EXTMAX
 10
22.0
 20
17.0
 30
0.0
  9
$EXTMIN
 10
0.0
 20
0.0
 30
0.0
  9
$LIMMIN
 10
0.0
 20
0.0
  9
$LIMMAX
 10
22.0
 20
17.0
  9
$VIEWCTR
 10
11.0
 20
8.5
  9
$VIEWSIZE
 40
17.0
  9
$CLAYER
  8
0
  9
$LTSCALE
 40
1.21
  9
$CELTYPE
  6
BYLAYER
  9
$DIMSCALE
 40
1.0
  9
$DIMASZ
 40
0.1875
  9
$DIMEXO
 40
0.0625
  9
$DIMDLI
 40
0.836
  9
$DIMEXE
 40
0.125
  9
$DIMCEN
 40
0.198
  9
$DIMLFAC
 40
1.0
  9
$DIMBLK
  1
_FILLED
  9
$DIMTXT
 40
0.1
  9
$DIMTOL
 70
0
  9
$DIMLIM
 70
0
  9
$DIMTFAC
 40
1.0
  9
$DIMGAP
 40
0.09
  9
$DIMDSEP
 70
46
  9
$AUNITS
 70
0
  9
$PDMODE
 70
3
  9
$PDSIZE
 40
0.3125
  9
$HANDSEED
  5
3E8
  9
$TILEMODE
 70
1
  9
$MEASUREMENT
 70
0
  9
$INSUNITS
 70
1
  0
ENDSEC
  0
SECTION
  2
CLASSES
  0
CLASS
  1
ACDBDICTIONARYWDFLT
  2
AcDbDictionaryWithDefault
  3
AutoCAD 2000
 90
0
 91
1
280
0
281
0
  0
CLASS
  1
ACDBPLACEHOLDER
  2
AcDbPlaceHolder
  3
AutoCAD 2000
 90
0
 91
1
280
0
281
0
  0
CLASS
  1
LAYOUT
  2
AcDbLayout
  3
AutoCAD 2000
 90
0
 91
0
280
0
281
0
  0
CLASS
  1
RASTERVARIABLES
  2
AcDbRasterVariables
  3
ISM
 90
0
 91
1
280
0
281
0
  0
CLASS
  1
IMAGEDEF
  2
AcDbRasterImageDef
  3
ISM
 90
0
 91
1
280
0
281
0
  0
CLASS
  1
IMAGEDEF_REACTOR
  2
AcDbRasterImageDefReactor
  3
ISM
 90
0
 91
1
280
0
281
0
  0
CLASS
  1
IMAGE
  2
AcDbRasterImage
  3
ISM
 90
127
 91
1
280
0
281
1
  0
CLASS
  1
TABLESTYLE
  2
AcDbTableStyle
  3
ObjectDBX Classes
 90
2047
 91
1
280
0
281
0
  0
CLASS
  1
ACAD_TABLE
  2
AcDbTable
  3
ObjectDBX Classes
 90
1025
 91
3
280
0
281
1
  0
ENDSEC
  0
SECTION
  2
TABLES
  0
TABLE
  2
VPORT
  5
8
100
AcDbSymbolTable
 70
2
  0
VPORT
  5
1F4
100
AcDbSymbolTableRecord
100
AcDbViewportTableRecord
  2
*ACTIVE
 70
0
 10
0.0
 20
0.0
 11
1.0
 21
1.0
 12
11.0
 22
8.5
 13
0.0
 23
0.0
 14
1.0
 24
1.0
 15
0.0
 25
0.0
 16
0.0
 26
0.0
 36
1.0
 17
0.0
 27
0.0
 37
0.0
 40
17.0
 41
1.2941176471
 42
50.0
 43
0.0
 44
0.0
 50
0.0
 51
0.0
 71
0
 72
100
 73
1
 74
1
 75
0
 76
0
 77
0
 78
0
  0
ENDTAB
  0
TABLE
  2
LTYPE
  5
5
100
AcDbSymbolTable
 70
6
  0
LTYPE
  5
14
100
AcDbSymbolTableRecord
100
AcDbLinetypeTableRecord
  2
BYBLOCK
 70
0
  3

 72
65
 73
0
 40
0.0
  0
LTYPE
  5
15
100
AcDbSymbolTableRecord
100
AcDbLinetypeTableRecord
  2
BYLAYER
 70
0
  3

 72
65
 73
0
 40
0.0
  0
LTYPE
  5
16
100
AcDbSymbolTableRecord
100
AcDbLinetypeTableRecord
  2
CONTINUOUS
 70
64
  3
Solid line
 72
65
 73
0
 40
0.0
  0
LTYPE
  5
1F5
100
AcDbSymbolTableRecord
100
AcDbLinetypeTableRecord
  2
CENTER
 70
64
  3
____ _ ____ _ ____ _ ____ _ ____ _ ____ _ ____
 72
65
 73
4
 40
0.6
 49
0.375
 74
0
 49
-0.075
 74
0
 49
0.075
 74
0
 49
-0.075
 74
0
  0
LTYPE
  5
1F6
100
AcDbSymbolTableRecord
100
AcDbLinetypeTableRecord
  2
HIDDEN
 70
64
  3
- - - - - - - - - - - - - - - - - - - -
 72
65
 73
2
 40
0.2
 49
0.1
 74
0
 49
-0.1
 74
0
  0
LTYPE
  5
1F7
100
AcDbSymbolTableRecord
100
AcDbLinetypeTableRecord
  2
PHANTOM
 70
64
  3
_____ _ _ _____ _ _ _____ _ _ _____
 72
65
 73
6
 40
0.8
 49
0.45
 74
0
 49
-0.05
 74
0
 49
0.1
 74
0
 49
-0.05
 74
0
 49
0.1
 74
0
 49
-0.05
 74
0
  0
LTYPE
  5
1F8
100
AcDbSymbolTableRecord
100
AcDbLinetypeTableRecord
  2
DOT
 70
64
  3
. . . . . . . . . . . . . . . . . . . .
 72
65
 73
2
 40
0.2
 49
0.1
 74
0
 49
-0.1
 74
0
  0
LTYPE
  5
1F9
100
AcDbSymbolTableRecord
100
AcDbLinetypeTableRecord
  2
DASHED
 70
64
  3
- - - - - - - - - - - - - - - - - - - -
 72
65
 73
2
 40
0.2
 49
0.1
 74
0
 49
-0.1
 74
0
  0
ENDTAB
  0
TABLE
  2
LAYER
  5
2
100
AcDbSymbolTable
 70
36
  0
LAYER
  5
10
100
AcDbSymbolTableRecord
100
AcDbLayerTableRecord
  2
0
 70
0
 62
7
  6
CONTINUOUS
370
-3
390
F
  0
LAYER
  5
1FA
100
AcDbSymbolTableRecord
100
AcDbLayerTableRecord
  2
DEFAULT_1
 70
0
 62
7
  6
CENTER
370
-3
390
F
  0
LAYER
  5
1FB
100
AcDbSymbolTableRecord
100
AcDbLayerTableRecord
  2
DEFAULT_2
 70
0
 62
8
  6
HIDDEN
370
-3
390
F
  0
LAYER
  5
1FC
100
AcDbSymbolTableRecord
100
AcDbLayerTableRecord
  2
DEFAULT_3
 70
0
 62
7
  6
PHANTOM
370
-3
390
F
  0
LAYER
  5
1FD
100
AcDbSymbolTableRecord
100
AcDbLayerTableRecord
  2
01___PRT_ALL_DTM_PLN
 70
0
 62
7
  6
CONTINUOUS
370
-3
390
F
  0
LAYER
  5
1FE
100
AcDbSymbolTableRecord
100
AcDbLayerTableRecord
  2
01___PRT_DEF_DTM_PLN
 70
0
 62
7
  6
CONTINUOUS
370
-3
390
F
  0
LAYER
  5
1FF
100
AcDbSymbolTableRecord
100
AcDbLayerTableRecord
  2
02___PRT_ALL_AXES
 70
0
 62
7
  6
CONTINUOUS
370
-3
390
F
  0
LAYER
  5
200
100
AcDbSymbolTableRecord
100
AcDbLayerTableRecord
  2
03___PRT_ALL_CURVES
 70
0
 62
7
  6
CONTINUOUS
370
-3
390
F
  0
LAYER
  5
201
100
AcDbSymbolTableRecord
100
AcDbLayerTableRecord
  2
04___PRT_ALL_DTM_PNT
 70
0
 62
7
  6
CONTINUOUS
370
-3
390
F
  0
LAYER
  5
202
100
AcDbSymbolTableRecord
100
AcDbLayerTableRecord
  2
05___PRT_ALL_DTM_CSYS
 70
0
 62
7
  6
CONTINUOUS
370
-3
390
F
  0
LAYER
  5
203
100
AcDbSymbolTableRecord
100
AcDbLayerTableRecord
  2
05___PRT_DEF_DTM_CSYS
 70
0
 62
7
  6
CONTINUOUS
370
-3
390
F
  0
LAYER
  5
204
100
AcDbSymbolTableRecord
100
AcDbLayerTableRecord
  2
06___PRT_ALL_SURFS
 70
0
 62
7
  6
CONTINUOUS
370
-3
390
F
  0
LAYER
  5
205
100
AcDbSymbolTableRecord
100
AcDbLayerTableRecord
  2
DATUM_PLANES
 70
0
 62
7
  6
CONTINUOUS
370
-3
390
F
  0
LAYER
  5
206
100
AcDbSymbolTableRecord
100
AcDbLayerTableRecord
  2
PORT_AREAS
 70
0
 62
7
  6
CONTINUOUS
370
-3
390
F
  0
LAYER
  5
207
100
AcDbSymbolTableRecord
100
AcDbLayerTableRecord
  2
SUNNBOMCOSMETIC
 70
0
 62
7
  6
CONTINUOUS
370
-3
390
F
  0
LAYER
  5
208
100
AcDbSymbolTableRecord
100
AcDbLayerTableRecord
  2
SUNNBOMSTAMPING
 70
0
 62
7
  6
CONTINUOUS
370
-3
390
F
  0
LAYER
  5
209
100
AcDbSymbolTableRecord
100
AcDbLayerTableRecord
  2
THREADS
 70
0
 62
7
  6
CONTINUOUS
370
-3
390
F
  0
ENDTAB
  0
TABLE
  2
STYLE
  5
3
100
AcDbSymbolTable
 70
1
  0
STYLE
  5
11
100
AcDbSymbolTableRecord
100
AcDbTextStyleTableRecord
  2
STANDARD
 70
0
 40
0.0
 41
0.8
 50
0.0
 71
0
 42
0.2
  3
txt
  4

  0
STYLE
  5
20A
100
AcDbSymbolTableRecord
100
AcDbTextStyleTableRecord
  2
TEXTSTYLE_1
 70
0
 40
0.0
 41
0.8
 50
0.0
 71
0
 42
0.2
  3
gdt
  4

  0
ENDTAB
  0
TABLE
  2
VIEW
  5
6
100
AcDbSymbolTable
 70
0
  0
ENDTAB
  0
TABLE
  2
UCS
  5
7
100
AcDbSymbolTable
 70
0
  0
ENDTAB
  0
TABLE
  2
APPID
  5
9
100
AcDbSymbolTable
 70
1
  0
APPID
  5
20B
100
AcDbSymbolTableRecord
100
AcDbRegAppTableRecord
  2
ACAD
 70
0
  0
ENDTAB
  0
TABLE
  2
BLOCK_RECORD
  5
1
100
AcDbSymbolTable
 70
0
  0
BLOCK_RECORD
  5
20C
100
AcDbSymbolTableRecord
100
AcDbBlockTableRecord
  2
*Model_Space
  0
BLOCK_RECORD
  5
20D
100
AcDbSymbolTableRecord
100
AcDbBlockTableRecord
  2
*Paper_Space
  0
BLOCK_RECORD
  5
20E
100
AcDbSymbolTableRecord
100
AcDbBlockTableRecord
  2
SUN_FIRST_THIRD_ANGLE_BL0
  0
BLOCK_RECORD
  5
20F
100
AcDbSymbolTableRecord
100
AcDbBlockTableRecord
  2
*T1
  0
BLOCK_RECORD
  5
210
100
AcDbSymbolTableRecord
100
AcDbBlockTableRecord
  2
*T2
  0
BLOCK_RECORD
  5
211
100
AcDbSymbolTableRecord
100
AcDbBlockTableRecord
  2
*T3
  0
ENDTAB
  0
TABLE
  2
DIMSTYLE
  5
A
100
AcDbSymbolTable
 70
1
100
AcDbDimStyleTable
 71
0
  0
DIMSTYLE
105
212
100
AcDbSymbolTableRecord
100
AcDbDimStyleTableRecord
  2
STANDARD
 70
0
  3

  4

 40
1.0
 41
0.1875
 42
0.0625
 43
0.38
 44
0.125
 45
0.0
 46
0.0
 47
0.001
 48
0.001
140
0.1
141
0.09
142
0.0
143
25.4
144
1.0
145
0.0
146
1.0
147
0.09
 71
0.0
 72
0.0
 73
1
 74
1
 75
0
 76
0
 77
0
 78
4
170
0
171
2
172
0
173
0
174
0
175
0
176
0
177
0
178
0
270
2
271
3
272
3
273
2
274
2
275
0
280
0
281
0
282
0
283
1
284
4
285
0
286
0
287
3
288
0
340
11
278
46
  0
ENDTAB
  0
ENDSEC
  0
SECTION
  2
BLOCKS
  0
BLOCK
  5
20
100
AcDbEntity
  8
0
100
AcDbBlockBegin
  2
*Model_Space
 70
0
 10
0.0
 20
0.0
 30
0.0
  3
*Model_Space
  1

  0
ENDBLK
  5
21
100
AcDbEntity
  8
0
100
AcDbBlockEnd
  0
BLOCK
  5
1C
100
AcDbEntity
  8
0
100
AcDbBlockBegin
  2
*Paper_Space
 70
0
 10
0.0
 20
0.0
 30
0.0
  3
*Paper_Space
  1

  0
ENDBLK
  5
1D
100
AcDbEntity
  8
0
100
AcDbBlockEnd
  0
BLOCK
  5
213
100
AcDbEntity
  8
0
100
AcDbBlockBegin
 62
2
  6
CONTINUOUS
  2
SUN_FIRST_THIRD_ANGLE_BL0
 70
64
 10
20.4816717061
 20
1.2289683772
  3
SUN_FIRST_THIRD_ANGLE_BL0
  1

  0
TEXT
  5
214
100
AcDbEntity
  8
0
100
AcDbText
 62
2
  6
CONTINUOUS
 10
19.4750896608
 20
1.4136269581
  7
STANDARD
 40
0.08
  1
FIRST ANGLE
 41
0.8
 72
0
100
AcDbText
  0
TEXT
  5
215
100
AcDbEntity
  8
0
100
AcDbText
 62
2
  6
CONTINUOUS
 10
20.7842537513
 20
1.4047600029
  7
STANDARD
 40
0.08
  1
THIRD ANGLE
 41
0.8
 72
0
100
AcDbText
  0
LINE
  5
216
100
AcDbEntity
  8
0
100
AcDbLine
 62
7
  6
CONTINUOUS
 10
19.4767170086
 20
1.1727031207
 11
19.6334271527
 21
1.1717972817
  0
LINE
  5
217
100
AcDbEntity
  8
0
100
AcDbLine
 62
7
  6
CONTINUOUS
 10
19.6596964832
 20
1.1717972817
 11
19.6950230232
 21
1.171593082
  0
LINE
  5
218
100
AcDbEntity
  8
0
100
AcDbLine
 62
7
  6
CONTINUOUS
 10
19.7194818561
 20
1.1708914427
 11
19.8852396156
 21
1.1699333054
  0
LINE
  5
219
100
AcDbEntity
  8
0
100
AcDbLine
 62
7
  6
CONTINUOUS
 10
19.4758111696
 20
1.2723454088
 11
19.88525039
 21
1.3511534004
  0
LINE
  5
21A
100
AcDbEntity
  8
0
100
AcDbLine
 62
7
  6
CONTINUOUS
 10
19.88525039
 20
1.3511534004
 11
19.8831348489
 21
0.9851647912
  0
LINE
  5
21B
100
AcDbEntity
  8
0
100
AcDbLine
 62
7
  6
CONTINUOUS
 10
19.8831348489
 20
0.9851647912
 11
19.4767170086
 21
1.0658141206
  0
LINE
  5
21C
100
AcDbEntity
  8
0
100
AcDbLine
 62
7
  6
CONTINUOUS
 10
19.4767170086
 20
1.0658141206
 11
19.4779056764
 21
1.2714536432
  0
CIRCLE
  5
21D
100
AcDbEntity
  8
0
100
AcDbCircle
 62
7
  6
CONTINUOUS
 10
20.2068232291
 20
1.1717972817
 40
0.175742101
  0
CIRCLE
  5
21E
100
AcDbEntity
  8
0
100
AcDbCircle
 62
7
  6
CONTINUOUS
 10
20.2068232291
 20
1.1717972817
 40
0.1005522074
  0
LINE
  5
21F
100
AcDbEntity
  8
0
100
AcDbLine
 62
7
  6
CONTINUOUS
 10
20.2077290681
 20
1.3756110529
 11
20.2071171714
 21
1.2379342989
  0
LINE
  5
220
100
AcDbEntity
  8
0
100
AcDbLine
 62
7
  6
CONTINUOUS
 10
20.2077290681
 20
1.2016899681
 11
20.2074674401
 21
1.1428236749
  0
LINE
  5
221
100
AcDbEntity
  8
0
100
AcDbLine
 62
7
  6
CONTINUOUS
 10
20.208634907
 20
1.101141841
 11
20.2080230104
 21
0.963465087
  0
LINE
  5
222
100
AcDbEntity
  8
0
100
AcDbLine
 62
7
  6
CONTINUOUS
 10
20.0066328138
 20
1.1745147986
 11
20.1443095678
 21
1.1739029019
  0
LINE
  5
223
100
AcDbEntity
  8
0
100
AcDbLine
 62
7
  6
CONTINUOUS
 10
20.1832714155
 20
1.1727031207
 11
20.238153505
 21
1.172335442
  0
LINE
  5
224
100
AcDbEntity
  8
0
100
AcDbLine
 62
7
  6
CONTINUOUS
 10
20.2756669918
 20
1.1717972817
 11
20.407916871
 21
1.1712095044
  0
CIRCLE
  5
225
100
AcDbEntity
  8
0
100
AcDbCircle
 62
7
  6
CONTINUOUS
 10
20.7509457401
 20
1.1693297793
 40
0.1722024983
  0
CIRCLE
  5
226
100
AcDbEntity
  8
0
100
AcDbCircle
 62
7
  6
CONTINUOUS
 10
20.7509457401
 20
1.1693297793
 40
0.0985164967
  0
LINE
  5
227
100
AcDbEntity
  8
0
100
AcDbLine
 62
7
  6
CONTINUOUS
 10
20.7169767782
 20
1.170462078
 11
20.7825395137
 21
1.1682766535
  0
LINE
  5
228
100
AcDbEntity
  8
0
100
AcDbLine
 62
7
  6
CONTINUOUS
 10
20.8177513651
 20
1.1693297793
 11
20.947965719
 21
1.1693297793
  0
LINE
  5
229
100
AcDbEntity
  8
0
100
AcDbLine
 62
7
  6
CONTINUOUS
 10
20.6875370113
 20
1.170462078
 11
20.5573226574
 21
1.170462078
  0
LINE
  5
22A
100
AcDbEntity
  8
0
100
AcDbLine
 62
7
  6
CONTINUOUS
 10
20.7486811426
 20
1.1987695462
 11
20.7486811426
 21
1.1432869085
  0
LINE
  5
22B
100
AcDbEntity
  8
0
100
AcDbLine
 62
7
  6
CONTINUOUS
 10
20.7498134414
 20
1.1059210505
 11
20.7498134414
 21
0.9757066966
  0
LINE
  5
22C
100
AcDbEntity
  8
0
100
AcDbLine
 62
7
  6
CONTINUOUS
 10
20.7486811426
 20
1.2338708068
 11
20.7486811426
 21
1.3640851607
  0
LINE
  5
22D
100
AcDbEntity
  8
0
100
AcDbLine
 62
7
  6
CONTINUOUS
 10
21.0702539817
 20
1.2701043662
 11
21.4790138229
 21
1.3448360823
  0
LINE
  5
22E
100
AcDbEntity
  8
0
100
AcDbLine
 62
7
  6
CONTINUOUS
 10
21.4790138229
 20
1.3448360823
 11
21.4790138229
 21
0.9779712941
  0
LINE
  5
22F
100
AcDbEntity
  8
0
100
AcDbLine
 62
7
  6
CONTINUOUS
 10
21.4790138229
 20
0.9779712941
 11
21.069121683
 21
1.0617614
  0
LINE
  5
230
100
AcDbEntity
  8
0
100
AcDbLine
 62
7
  6
CONTINUOUS
 10
21.0702539817
 20
1.2701043662
 11
21.069121683
 21
1.0617614
  0
LINE
  5
231
100
AcDbEntity
  8
0
100
AcDbLine
 62
7
  6
CONTINUOUS
 10
21.4790138229
 20
1.1693297793
 11
21.3159628059
 21
1.1693297793
  0
LINE
  5
232
100
AcDbEntity
  8
0
100
AcDbLine
 62
7
  6
CONTINUOUS
 10
21.2876553377
 20
1.1693297793
 11
21.2502894796
 21
1.1693297793
  0
LINE
  5
233
100
AcDbEntity
  8
0
100
AcDbLine
 62
7
  6
CONTINUOUS
 10
21.2208497126
 20
1.1659328831
 11
21.0713862804
 21
1.1659328831
  0
LINE
  5
234
100
AcDbEntity
  8
0
100
AcDbLine
 62
7
  6
CONTINUOUS
 10
20.4796138713
 20
1.5284908897
 11
20.4766766948
 21
0.9294458646
  0
ENDBLK
  5
235
100
AcDbEntity
  8
0
  6
BYBLOCK
 62
0
100
AcDbBlockEnd
  0
BLOCK
  5
236
100
AcDbEntity
  8
0
100
AcDbBlockBegin
  2
*T1
 70
1
 10
0.0
 20
0.0
  3
*T1
  1

  0
LINE
  5
237
100
AcDbEntity
  8
0
100
AcDbLine
 62
2
  6
CONTINUOUS
 10
9.275
 20
0.0
 11
-0.0
 21
0.0
  0
LINE
  5
238
100
AcDbEntity
  8
0
100
AcDbLine
 62
2
  6
CONTINUOUS
 10
9.275
 20
0.0
 11
9.275
 21
1.25
  0
LINE
  5
239
100
AcDbEntity
  8
0
100
AcDbLine
 62
2
  6
CONTINUOUS
 10
9.275
 20
0.625
 11
-0.0
 21
0.625
  0
LINE
  5
23A
100
AcDbEntity
  8
0
100
AcDbLine
 62
2
  6
CONTINUOUS
 10
9.275
 20
1.25
 11
-0.0
 21
1.25
  0
LINE
  5
23B
100
AcDbEntity
  8
0
100
AcDbLine
 62
2
  6
CONTINUOUS
 10
6.8
 20
0.0
 11
6.8
 21
1.25
  0
LINE
  5
23C
100
AcDbEntity
  8
0
100
AcDbLine
 62
2
  6
CONTINUOUS
 10
6.4
 20
0.0
 11
6.4
 21
0.625
  0
LINE
  5
23D
100
AcDbEntity
  8
0
100
AcDbLine
 62
2
  6
CONTINUOUS
 10
5.9
 20
0.0
 11
5.9
 21
0.625
  0
LINE
  5
23E
100
AcDbEntity
  8
0
100
AcDbLine
 62
2
  6
CONTINUOUS
 10
5.2
 20
0.0
 11
5.2
 21
0.625
  0
LINE
  5
23F
100
AcDbEntity
  8
0
100
AcDbLine
 62
2
  6
CONTINUOUS
 10
4.1
 20
0.0
 11
4.1
 21
1.25
  0
LINE
  5
240
100
AcDbEntity
  8
0
100
AcDbLine
 62
2
  6
CONTINUOUS
 10
-0.0
 20
0.0
 11
-0.0
 21
1.25
  0
MTEXT
  5
241
100
AcDbEntity
  8
0
100
AcDbMText
 62
2
  6
CONTINUOUS
  7
STANDARD
 71
2
 72
1
 10
6.6
 20
0.325
 30
0.0
 11
1.0
 21
0.0
 31
0.0
 44
0.9
  1
2
 40
0.125
 41
0.2
  0
MTEXT
  5
242
100
AcDbEntity
  8
0
100
AcDbMText
 62
2
  6
CONTINUOUS
  7
STANDARD
 71
2
 72
1
 10
6.15
 20
0.325
 30
0.0
 11
1.0
 21
0.0
 31
0.0
 44
0.9
  1
C
 40
0.125
 41
0.2
  0
MTEXT
  5
243
100
AcDbEntity
  8
0
100
AcDbMText
 62
2
  6
CONTINUOUS
  7
STANDARD
 71
2
 72
1
 10
5.55
 20
0.325
 30
0.0
 11
1.0
 21
0.0
 31
0.0
 44
0.9
  1
1.000
 40
0.125
 41
1.0
  0
MTEXT
  5
244
100
AcDbEntity
  8
0
100
AcDbMText
 62
2
  6
CONTINUOUS
  7
STANDARD
 71
2
 72
1
 10
4.65
 20
0.325
 30
0.0
 11
1.0
 21
0.0
 31
0.0
 44
0.9
  1
Oct-30-20
 40
0.125
 41
1.8
  0
MTEXT
  5
245
100
AcDbEntity
  8
0
100
AcDbMText
 62
2
  6
CONTINUOUS
  7
STANDARD
 71
2
 72
1
 10
2.05
 20
0.4625
 30
0.0
 11
1.0
 21
0.0
 31
0.0
 44
0.9
  1
T-11A Line mount\PThrough port 2 with reverse flow check
 40
0.125
 41
7.6
  0
MTEXT
  5
246
100
AcDbEntity
  8
0
100
AcDbMText
 62
2
  6
CONTINUOUS
  7
STANDARD
 71
1
 72
1
 10
6.45
 20
0.5625
 30
0.0
 11
1.0
 21
0.0
 31
0.0
 44
0.9
  1
SHEET
 40
0.06
 41
0.48
  0
MTEXT
  5
247
100
AcDbEntity
  8
0
100
AcDbMText
 62
2
  6
CONTINUOUS
  7
STANDARD
 71
1
 72
1
 10
5.95
 20
0.5625
 30
0.0
 11
1.0
 21
0.0
 31
0.0
 44
0.9
  1
DWG SIZE
 40
0.06
 41
0.768
  0
MTEXT
  5
248
100
AcDbEntity
  8
0
100
AcDbMText
 62
2
  6
CONTINUOUS
  7
STANDARD
 71
1
 72
1
 10
5.25
 20
0.5625
 30
0.0
 11
1.0
 21
0.0
 31
0.0
 44
0.9
  1
SCALE
 40
0.06
 41
0.48
  0
MTEXT
  5
249
100
AcDbEntity
  8
0
100
AcDbMText
 62
2
  6
CONTINUOUS
  7
STANDARD
 71
1
 72
1
 10
4.15
 20
0.5625
 30
0.0
 11
1.0
 21
0.0
 31
0.0
 44
0.9
  1
DATE
 40
0.06
 41
0.384
  0
MTEXT
  5
24A
100
AcDbEntity
  8
0
100
AcDbMText
 62
2
  6
CONTINUOUS
  7
STANDARD
 71
1
 72
1
 10
0.05
 20
0.5625
 30
0.0
 11
1.0
 21
0.0
 31
0.0
 44
0.9
  1
DESCRIPTION
 40
0.06
 41
1.056
  0
MTEXT
  5
24B
100
AcDbEntity
  8
0
100
AcDbMText
 62
2
  6
CONTINUOUS
  7
STANDARD
 71
2
 72
1
 10
5.45
 20
1.0375
 30
0.0
 11
1.0
 21
0.0
 31
0.0
 44
0.9
  1
ALL DIMENSIONS IN INCH\PVIEWS ARE THIRD ANGLE
 40
0.12
 41
4.224
  0
MTEXT
  5
24C
100
AcDbEntity
  8
0
100
AcDbMText
 62
2
  6
CONTINUOUS
  7
STANDARD
 71
2
 72
1
 10
2.05
 20
0.95
 30
0.0
 11
1.0
 21
0.0
 31
0.0
 44
0.9
  1
E3T
 40
0.125
 41
0.6
  0
MTEXT
  5
24D
100
AcDbEntity
  8
0
100
AcDbMText
 62
2
  6
CONTINUOUS
  7
STANDARD
 71
1
 72
1
 10
0.05
 20
1.1875
 30
0.0
 11
1.0
 21
0.0
 31
0.0
 44
0.9
  1
MODEL
 40
0.06
 41
0.48
  0
ENDBLK
  5
24E
100
AcDbEntity
  8
0
  6
BYBLOCK
 62
0
100
AcDbBlockEnd
  0
BLOCK
  5
24F
100
AcDbEntity
  8
0
100
AcDbBlockBegin
  2
*T2
 70
1
 10
0.0
 20
0.0
  3
*T2
  1

  0
LINE
  5
250
100
AcDbEntity
  8
0
100
AcDbLine
 62
2
  6
CONTINUOUS
 10
0.0
 20
0.0
 11
9.055
 21
0.0
  0
LINE
  5
251
100
AcDbEntity
  8
0
100
AcDbLine
 62
2
  6
CONTINUOUS
 10
0.0
 20
0.0
 11
0.0
 21
-2.594
  0
LINE
  5
252
100
AcDbEntity
  8
0
100
AcDbLine
 62
2
  6
CONTINUOUS
 10
0.0
 20
-0.344
 11
9.055
 21
-0.344
  0
LINE
  5
253
100
AcDbEntity
  8
0
100
AcDbLine
 62
2
  6
CONTINUOUS
 10
0.0
 20
-0.594
 11
9.055
 21
-0.594
  0
LINE
  5
254
100
AcDbEntity
  8
0
100
AcDbLine
 62
2
  6
CONTINUOUS
 10
0.0
 20
-0.844
 11
9.055
 21
-0.844
  0
LINE
  5
255
100
AcDbEntity
  8
0
100
AcDbLine
 62
2
  6
CONTINUOUS
 10
0.0
 20
-1.094
 11
9.055
 21
-1.094
  0
LINE
  5
256
100
AcDbEntity
  8
0
100
AcDbLine
 62
2
  6
CONTINUOUS
 10
0.0
 20
-1.344
 11
9.055
 21
-1.344
  0
LINE
  5
257
100
AcDbEntity
  8
0
100
AcDbLine
 62
2
  6
CONTINUOUS
 10
0.0
 20
-1.594
 11
9.055
 21
-1.594
  0
LINE
  5
258
100
AcDbEntity
  8
0
100
AcDbLine
 62
2
  6
CONTINUOUS
 10
0.0
 20
-1.844
 11
9.055
 21
-1.844
  0
LINE
  5
259
100
AcDbEntity
  8
0
100
AcDbLine
 62
2
  6
CONTINUOUS
 10
0.0
 20
-2.094
 11
9.055
 21
-2.094
  0
LINE
  5
25A
100
AcDbEntity
  8
0
100
AcDbLine
 62
2
  6
CONTINUOUS
 10
0.0
 20
-2.344
 11
9.055
 21
-2.344
  0
LINE
  5
25B
100
AcDbEntity
  8
0
100
AcDbLine
 62
2
  6
CONTINUOUS
 10
0.0
 20
-2.594
 11
9.055
 21
-2.594
  0
LINE
  5
25C
100
AcDbEntity
  8
0
100
AcDbLine
 62
2
  6
CONTINUOUS
 10
3.055
 20
0.0
 11
3.055
 21
-2.594
  0
LINE
  5
25D
100
AcDbEntity
  8
0
100
AcDbLine
 62
2
  6
CONTINUOUS
 10
9.055
 20
0.0
 11
9.055
 21
-2.594
  0
MTEXT
  5
25E
100
AcDbEntity
  8
0
100
AcDbMText
 62
2
  6
CONTINUOUS
  7
STANDARD
 71
2
 72
1
 10
1.5275
 20
-0.0995
 30
0.0
 11
1.0
 21
0.0
 31
0.0
 44
0.9
  1
Technical Data
 40
0.145
 41
3.248
  0
MTEXT
  5
25F
100
AcDbEntity
  8
0
100
AcDbMText
 62
2
  6
CONTINUOUS
  7
STANDARD
 71
2
 72
1
 10
4.555
 20
-0.0995
 30
0.0
 11
1.0
 21
0.0
 31
0.0
 44
0.9
  1
U.S. Units
 40
0.145
 41
2.32
  0
MTEXT
  5
260
100
AcDbEntity
  8
0
100
AcDbMText
 62
2
  6
CONTINUOUS
  7
STANDARD
 71
2
 72
1
 10
7.555
 20
-0.0995
 30
0.0
 11
1.0
 21
0.0
 31
0.0
 44
0.9
  1
Metric Units
 40
0.145
 41
2.784
  0
MTEXT
  5
261
100
AcDbEntity
  8
0
100
AcDbMText
 62
2
  6
CONTINUOUS
  7
STANDARD
 71
2
 72
1
 10
1.5275
 20
-0.4065
 30
0.0
 11
1.0
 21
0.0
 31
0.0
 44
0.9
  1
Cavity
 40
0.125
 41
1.2
  0
MTEXT
  5
262
100
AcDbEntity
  8
0
100
AcDbMText
 62
2
  6
CONTINUOUS
  7
STANDARD
 71
2
 72
1
 10
6.055
 20
-0.4065
 30
0.0
 11
1.0
 21
0.0
 31
0.0
 44
0.9
  1
T-11A
 40
0.125
 41
1.0
  0
MTEXT
  5
263
100
AcDbEntity
  8
0
100
AcDbMText
 62
2
  6
CONTINUOUS
  7
STANDARD
 71
2
 72
1
 10
1.5275
 20
-0.6565
 30
0.0
 11
1.0
 21
0.0
 31
0.0
 44
0.9
  1
Body Features
 40
0.125
 41
2.6
  0
MTEXT
  5
264
100
AcDbEntity
  8
0
100
AcDbMText
 62
2
  6
CONTINUOUS
  7
STANDARD
 71
2
 72
1
 10
6.055
 20
-0.6565
 30
0.0
 11
1.0
 21
0.0
 31
0.0
 44
0.9
  1
Through port 2 with reverse flow check
 40
0.125
 41
7.6
  0
MTEXT
  5
265
100
AcDbEntity
  8
0
100
AcDbMText
 62
2
  6
CONTINUOUS
  7
STANDARD
 71
2
 72
1
 10
1.5275
 20
-0.9065
 30
0.0
 11
1.0
 21
0.0
 31
0.0
 44
0.9
  1
Body Type
 40
0.125
 41
1.8
  0
MTEXT
  5
266
100
AcDbEntity
  8
0
100
AcDbMText
 62
2
  6
CONTINUOUS
  7
STANDARD
 71
2
 72
1
 10
6.055
 20
-0.9065
 30
0.0
 11
1.0
 21
0.0
 31
0.0
 44
0.9
  1
Line mount
 40
0.125
 41
2.0
  0
MTEXT
  5
267
100
AcDbEntity
  8
0
100
AcDbMText
 62
2
  6
CONTINUOUS
  7
STANDARD
 71
2
 72
1
 10
1.5275
 20
-1.1565
 30
0.0
 11
1.0
 21
0.0
 31
0.0
 44
0.9
  1
Interface
 40
0.125
 41
1.8
  0
MTEXT
  5
268
100
AcDbEntity
  8
0
100
AcDbMText
 62
2
  6
CONTINUOUS
  7
STANDARD
 71
2
 72
1
 10
6.055
 20
-1.1565
 30
0.0
 11
1.0
 21
0.0
 31
0.0
 44
0.9
  1
None
 40
0.125
 41
0.8
  0
MTEXT
  5
269
100
AcDbEntity
  8
0
100
AcDbMText
 62
2
  6
CONTINUOUS
  7
STANDARD
 71
2
 72
1
 10
1.5275
 20
-1.4065
 30
0.0
 11
1.0
 21
0.0
 31
0.0
 44
0.9
  1
Open Cavity Quantity
 40
0.125
 41
4.0
  0
MTEXT
  5
26A
100
AcDbEntity
  8
0
100
AcDbMText
 62
2
  6
CONTINUOUS
  7
STANDARD
 71
2
 72
1
 10
6.055
 20
-1.4065
 30
0.0
 11
1.0
 21
0.0
 31
0.0
 44
0.9
  1
1
 40
0.125
 41
0.2
  0
MTEXT
  5
26B
100
AcDbEntity
  8
0
100
AcDbMText
 62
2
  6
CONTINUOUS
  7
STANDARD
 71
2
 72
1
 10
1.5275
 20
-1.6565
 30
0.0
 11
1.0
 21
0.0
 31
0.0
 44
0.9
  1
Weight
 40
0.125
 41
1.2
  0
MTEXT
  5
26C
100
AcDbEntity
  8
0
100
AcDbMText
 62
2
  6
CONTINUOUS
  7
STANDARD
 71
2
 72
1
 10
4.555
 20
-1.6565
 30
0.0
 11
1.0
 21
0.0
 31
0.0
 44
0.9
  1
2.308 lb.
 40
0.125
 41
1.8
  0
MTEXT
  5
26D
100
AcDbEntity
  8
0
100
AcDbMText
 62
2
  6
CONTINUOUS
  7
STANDARD
 71
2
 72
1
 10
7.555
 20
-1.6565
 30
0.0
 11
1.0
 21
0.0
 31
0.0
 44
0.9
  1
1,047 kg.
 40
0.125
 41
1.8
  0
MTEXT
  5
26E
100
AcDbEntity
  8
0
100
AcDbMText
 62
2
  6
CONTINUOUS
  7
STANDARD
 71
2
 72
1
 10
1.5275
 20
-1.9065
 30
0.0
 11
1.0
 21
0.0
 31
0.0
 44
0.9
  1
Mounting Hole Thread
 40
0.125
 41
4.0
  0
MTEXT
  5
26F
100
AcDbEntity
  8
0
100
AcDbMText
 62
2
  6
CONTINUOUS
  7
STANDARD
 71
2
 72
1
 10
6.055
 20
-1.9065
 30
0.0
 11
1.0
 21
0.0
 31
0.0
 44
0.9
  1
M10x1.5 - 6H
 40
0.125
 41
2.4
  0
MTEXT
  5
270
100
AcDbEntity
  8
0
100
AcDbMText
 62
2
  6
CONTINUOUS
  7
STANDARD
 71
2
 72
1
 10
1.5275
 20
-2.1565
 30
0.0
 11
1.0
 21
0.0
 31
0.0
 44
0.9
  1
Mounting Hole Depth
 40
0.125
 41
3.8
  0
MTEXT
  5
271
100
AcDbEntity
  8
0
100
AcDbMText
 62
2
  6
CONTINUOUS
  7
STANDARD
 71
2
 72
1
 10
4.555
 20
-2.1565
 30
0.0
 11
1.0
 21
0.0
 31
0.0
 44
0.9
  1
.62 in.
 40
0.125
 41
1.4
  0
MTEXT
  5
272
100
AcDbEntity
  8
0
100
AcDbMText
 62
2
  6
CONTINUOUS
  7
STANDARD
 71
2
 72
1
 10
7.555
 20
-2.1565
 30
0.0
 11
1.0
 21
0.0
 31
0.0
 44
0.9
  1
15,7 mm
 40
0.125
 41
1.4
  0
MTEXT
  5
273
100
AcDbEntity
  8
0
100
AcDbMText
 62
2
  6
CONTINUOUS
  7
STANDARD
 71
2
 72
1
 10
1.5275
 20
-2.4065
 30
0.0
 11
1.0
 21
0.0
 31
0.0
 44
0.9
  1
Mounting Hole Quantity
 40
0.125
 41
4.4
  0
MTEXT
  5
274
100
AcDbEntity
  8
0
100
AcDbMText
 62
2
  6
CONTINUOUS
  7
STANDARD
 71
2
 72
1
 10
6.055
 20
-2.4065
 30
0.0
 11
1.0
 21
0.0
 31
0.0
 44
0.9
  1
2
 40
0.125
 41
0.2
  0
ENDBLK
  5
275
100
AcDbEntity
  8
0
  6
BYBLOCK
 62
0
100
AcDbBlockEnd
  0
BLOCK
  5
276
100
AcDbEntity
  8
0
100
AcDbBlockBegin
  2
*T3
 70
1
 10
0.0
 20
0.0
  3
*T3
  1

  0
LINE
  5
277
100
AcDbEntity
  8
0
100
AcDbLine
 62
2
  6
CONTINUOUS
 10
0.0
 20
0.0
 11
4.6
 21
0.0
  0
LINE
  5
278
100
AcDbEntity
  8
0
100
AcDbLine
 62
2
  6
CONTINUOUS
 10
0.0
 20
0.0
 11
0.0
 21
-1.43775
  0
LINE
  5
279
100
AcDbEntity
  8
0
100
AcDbLine
 62
2
  6
CONTINUOUS
 10
0.0
 20
-0.34375
 11
4.6
 21
-0.34375
  0
LINE
  5
27A
100
AcDbEntity
  8
0
100
AcDbLine
 62
2
  6
CONTINUOUS
 10
0.0
 20
-0.68775
 11
4.6
 21
-0.68775
  0
LINE
  5
27B
100
AcDbEntity
  8
0
100
AcDbLine
 62
2
  6
CONTINUOUS
 10
0.0
 20
-0.93775
 11
4.6
 21
-0.93775
  0
LINE
  5
27C
100
AcDbEntity
  8
0
100
AcDbLine
 62
2
  6
CONTINUOUS
 10
0.0
 20
-1.18775
 11
4.6
 21
-1.18775
  0
LINE
  5
27D
100
AcDbEntity
  8
0
100
AcDbLine
 62
2
  6
CONTINUOUS
 10
0.0
 20
-1.43775
 11
4.6
 21
-1.43775
  0
LINE
  5
27E
100
AcDbEntity
  8
0
100
AcDbLine
 62
2
  6
CONTINUOUS
 10
1.3
 20
-0.34375
 11
1.3
 21
-1.43775
  0
LINE
  5
27F
100
AcDbEntity
  8
0
100
AcDbLine
 62
2
  6
CONTINUOUS
 10
3.3
 20
-0.34375
 11
3.3
 21
-1.43775
  0
LINE
  5
280
100
AcDbEntity
  8
0
100
AcDbLine
 62
2
  6
CONTINUOUS
 10
4.6
 20
0.0
 11
4.6
 21
-1.43775
  0
MTEXT
  5
281
100
AcDbEntity
  8
0
100
AcDbMText
 62
2
  6
CONTINUOUS
  7
STANDARD
 71
2
 72
1
 10
2.3
 20
-0.099375
 30
0.0
 11
1.0
 21
0.0
 31
0.0
 44
0.9
  1
Port Headings
 40
0.145
 41
3.016
  0
MTEXT
  5
282
100
AcDbEntity
  8
0
100
AcDbMText
 62
2
  6
CONTINUOUS
  7
STANDARD
 71
2
 72
1
 10
0.65
 20
-0.44325
 30
0.0
 11
1.0
 21
0.0
 31
0.0
 44
0.9
  1
Product
 40
0.145
 41
1.624
  0
MTEXT
  5
283
100
AcDbEntity
  8
0
100
AcDbMText
 62
2
  6
CONTINUOUS
  7
STANDARD
 71
2
 72
1
 10
2.3
 20
-0.44325
 30
0.0
 11
1.0
 21
0.0
 31
0.0
 44
0.9
  1
Port
 40
0.145
 41
0.928
  0
MTEXT
  5
284
100
AcDbEntity
  8
0
100
AcDbMText
 62
2
  6
CONTINUOUS
  7
STANDARD
 71
2
 72
1
 10
3.95
 20
-0.44325
 30
0.0
 11
1.0
 21
0.0
 31
0.0
 44
0.9
  1
Size
 40
0.145
 41
0.928
  0
MTEXT
  5
285
100
AcDbEntity
  8
0
100
AcDbMText
 62
2
  6
CONTINUOUS
  7
STANDARD
 71
2
 72
1
 10
0.65
 20
-0.75025
 30
0.0
 11
1.0
 21
0.0
 31
0.0
 44
0.9
  1
E3T
 40
0.125
 41
0.6
  0
MTEXT
  5
286
100
AcDbEntity
  8
0
100
AcDbMText
 62
2
  6
CONTINUOUS
  7
STANDARD
 71
2
 72
1
 10
2.3
 20
-0.75025
 30
0.0
 11
1.0
 21
0.0
 31
0.0
 44
0.9
  1
Ports 1 &  2
 40
0.125
 41
2.4
  0
MTEXT
  5
287
100
AcDbEntity
  8
0
100
AcDbMText
 62
2
  6
CONTINUOUS
  7
STANDARD
 71
2
 72
1
 10
3.95
 20
-0.75025
 30
0.0
 11
1.0
 21
0.0
 31
0.0
 44
0.9
  1
1/4" BSPP
 40
0.125
 41
1.8
  0
MTEXT
  5
288
100
AcDbEntity
  8
0
100
AcDbMText
 62
2
  6
CONTINUOUS
  7
STANDARD
 71
2
 72
1
 10
0.65
 20
-1.00025
 30
0.0
 11
1.0
 21
0.0
 31
0.0
 44
0.9
  1
E3T
 40
0.125
 41
0.6
  0
MTEXT
  5
289
100
AcDbEntity
  8
0
100
AcDbMText
 62
2
  6
CONTINUOUS
  7
STANDARD
 71
2
 72
1
 10
2.3
 20
-1.00025
 30
0.0
 11
1.0
 21
0.0
 31
0.0
 44
0.9
  1
Port 3
 40
0.125
 41
1.2
  0
MTEXT
  5
28A
100
AcDbEntity
  8
0
100
AcDbMText
 62
2
  6
CONTINUOUS
  7
STANDARD
 71
2
 72
1
 10
3.95
 20
-1.00025
 30
0.0
 11
1.0
 21
0.0
 31
0.0
 44
0.9
  1
1/4" BSPP
 40
0.125
 41
1.8
  0
MTEXT
  5
28B
100
AcDbEntity
  8
0
100
AcDbMText
 62
2
  6
CONTINUOUS
  7
STANDARD
 71
2
 72
1
 10
0.65
 20
-1.25025
 30
0.0
 11
1.0
 21
0.0
 31
0.0
 44
0.9
  1
E3T
 40
0.125
 41
0.6
  0
MTEXT
  5
28C
100
AcDbEntity
  8
0
100
AcDbMText
 62
2
  6
CONTINUOUS
  7
STANDARD
 71
2
 72
1
 10
2.3
 20
-1.25025
 30
0.0
 11
1.0
 21
0.0
 31
0.0
 44
0.9
  1
Gage Port
 40
0.125
 41
1.8
  0
MTEXT
  5
28D
100
AcDbEntity
  8
0
100
AcDbMText
 62
2
  6
CONTINUOUS
  7
STANDARD
 71
2
 72
1
 10
3.95
 20
-1.25025
 30
0.0
 11
1.0
 21
0.0
 31
0.0
 44
0.9
  1
1/4" BSPP
 40
0.125
 41
1.8
  0
ENDBLK
  5
28E
100
AcDbEntity
  8
0
  6
BYBLOCK
 62
0
100
AcDbBlockEnd
  0
ENDSEC
  0
SECTION
  2
ENTITIES
  0
IMAGE
  5
28F
100
AcDbEntity
  8
0
100
AcDbRasterImage
 62
7
  6
CONTINUOUS
 10
19.2297077316
 20
0.3094318264
 30
0.0
 11
0.0066666667
 21
0.0
 31
0.0
 12
0.0
 22
0.0066666667
 32
0.0
 13
369.0
 23
92.0
340
       3E5
 70
9
280
0
281
50
282
50
283
0
360
       3DF
 71
1
 91
2
 14
-0.5
 24
-0.5
 14
368.5
 24
91.5
  0
INSERT
  5
290
100
AcDbEntity
  8
0
100
AcDbBlockReference
 62
2
  6
CONTINUOUS
  2
SUN_FIRST_THIRD_ANGLE_BL0
 10
20.4816717061
 20
1.2289683772
  0
ACAD_TABLE
  5
291
100
AcDbEntity
  8
0
 62
2
  6
CONTINUOUS
100
AcDbBlockReference
  2
*T1
 10
12.42375
 20
0.30125
 30
0.0
100
AcDbTable
342
       3E7
343
20F
 11
1.0
 21
0.0
 31
0.0
 90
6
 91
4
 92
6
 93
20
 94
0
 95
0
 96
0
 70
1
 41
0.0
141
0.525
141
0.1
141
0.525
141
0.1
142
4.1
142
1.1
142
0.7
142
0.5
142
0.4
142
2.475
171
1
172
0
173
0
174
0
175
1
176
1
 91
33
178
0
145
0.0
301
CELL_VALUE
 90
4
  1
T-11A Line mount\PThrough port 2 with reverse flow check
304
ACVALUE_END
170
2
140
0.125
171
1
172
0
173
0
174
0
175
1
176
1
 91
33
178
0
145
0.0
301
CELL_VALUE
 90
4
  1
Oct-30-20
304
ACVALUE_END
170
5
140
0.125
171
1
172
0
173
0
174
0
175
1
176
1
 91
33
178
0
145
0.0
301
CELL_VALUE
 90
4
  1
1.000
304
ACVALUE_END
170
5
140
0.125
171
1
172
0
173
0
174
0
175
1
176
1
 91
33
178
0
145
0.0
301
CELL_VALUE
 90
4
  1
C
304
ACVALUE_END
170
5
140
0.125
171
1
172
0
173
0
174
0
175
1
176
1
 91
33
178
0
145
0.0
301
CELL_VALUE
 90
4
  1
2
304
ACVALUE_END
170
5
140
0.125
171
1
172
0
173
0
174
0
175
1
176
1
 91
33
178
0
145
0.0
301
CELL_VALUE
 90
4
  1
 
304
ACVALUE_END
170
1
140
0.125
171
1
172
0
173
0
174
0
175
1
176
1
 91
33
178
0
145
0.0
301
CELL_VALUE
 90
4
  1
DESCRIPTION
304
ACVALUE_END
170
1
140
0.06
171
1
172
0
173
0
174
0
175
1
176
1
 91
33
178
0
145
0.0
301
CELL_VALUE
 90
4
  1
DATE
304
ACVALUE_END
170
1
140
0.06
171
1
172
0
173
0
174
0
175
1
176
1
 91
33
178
0
145
0.0
301
CELL_VALUE
 90
4
  1
SCALE
304
ACVALUE_END
170
1
140
0.06
171
1
172
0
173
0
174
0
175
1
176
1
 91
33
178
0
145
0.0
301
CELL_VALUE
 90
4
  1
DWG SIZE
304
ACVALUE_END
170
1
140
0.06
171
1
172
0
173
0
174
0
175
1
176
1
 91
33
178
0
145
0.0
301
CELL_VALUE
 90
4
  1
SHEET
304
ACVALUE_END
170
1
140
0.06
171
1
172
0
173
0
174
0
175
1
176
1
 91
33
178
0
145
0.0
301
CELL_VALUE
 90
4
  1
 
304
ACVALUE_END
170
1
140
0.125
171
1
172
0
173
0
174
0
175
1
176
1
 91
33
178
0
145
0.0
301
CELL_VALUE
 90
4
  1
E3T
304
ACVALUE_END
170
5
140
0.125
171
1
172
0
173
0
174
0
175
4
176
1
 91
33
178
0
145
0.0
301
CELL_VALUE
 90
4
  1
ALL DIMENSIONS IN INCH\PVIEWS ARE THIRD ANGLE
304
ACVALUE_END
170
5
140
0.12
171
1
172
0
173
1
174
0
175
1
176
1
 91
1
178
0
145
0.0
170
1
171
1
172
0
173
1
174
0
175
1
176
1
 91
1
178
0
145
0.0
170
1
171
1
172
0
173
1
174
0
175
1
176
1
 91
1
178
0
145
0.0
170
5
171
1
172
0
173
0
174
0
175
1
176
1
 91
33
178
0
145
0.0
301
CELL_VALUE
 90
4
  1
 
304
ACVALUE_END
170
1
140
0.125
171
1
172
0
173
0
174
0
175
1
176
1
 91
33
178
0
145
0.0
301
CELL_VALUE
 90
4
  1
MODEL
304
ACVALUE_END
170
1
140
0.06
171
1
172
0
173
0
174
0
175
1
176
1
 91
33
178
0
145
0.0
301
CELL_VALUE
 90
4
  1
 
304
ACVALUE_END
170
1
140
0.125
171
1
172
0
173
0
174
0
175
1
176
1
 91
33
178
0
145
0.0
301
CELL_VALUE
 90
4
  1
 
304
ACVALUE_END
170
1
140
0.125
171
1
172
0
173
0
174
0
175
1
176
1
 91
33
178
0
145
0.0
301
CELL_VALUE
 90
4
  1
 
304
ACVALUE_END
170
1
140
0.125
171
1
172
0
173
0
174
0
175
1
176
1
 91
33
178
0
145
0.0
301
CELL_VALUE
 90
4
  1
 
304
ACVALUE_END
170
1
140
0.125
171
1
172
0
173
0
174
0
175
1
176
1
 91
33
178
0
145
0.0
301
CELL_VALUE
 90
4
  1
 
304
ACVALUE_END
170
1
140
0.125
  0
ACAD_TABLE
  5
292
100
AcDbEntity
  8
0
 62
2
  6
CONTINUOUS
100
AcDbBlockReference
  2
*T2
 10
12.4237499994
 20
16.47875
 30
0.0
100
AcDbTable
342
       3E6
343
210
 11
1.0
 21
0.0
 31
0.0
 90
22
 91
10
 92
3
 93
16
 94
0
 95
0
 96
0
 41
0.028
141
0.344
141
0.25
141
0.25
141
0.25
141
0.25
141
0.25
141
0.25
141
0.25
141
0.25
141
0.25
142
3.055
142
3.0
142
3.0
171
1
172
0
173
0
174
0
175
1
176
1
 91
33
178
0
145
0.0
301
CELL_VALUE
 90
4
  1
Technical Data
304
ACVALUE_END
170
5
140
0.145
171
1
172
0
173
0
174
0
175
1
176
1
 91
33
178
0
145
0.0
301
CELL_VALUE
 90
4
  1
U.S. Units
304
ACVALUE_END
170
5
140
0.145
171
1
172
0
173
0
174
0
175
1
176
1
 91
33
178
0
145
0.0
301
CELL_VALUE
 90
4
  1
Metric Units
304
ACVALUE_END
170
5
140
0.145
171
1
172
0
173
0
174
0
175
1
176
1
 91
33
178
0
145
0.0
301
CELL_VALUE
 90
4
  1
Cavity
304
ACVALUE_END
170
5
140
0.125
171
1
172
0
173
0
174
0
175
2
176
1
 91
33
178
0
145
0.0
301
CELL_VALUE
 90
4
  1
T-11A
304
ACVALUE_END
170
5
140
0.125
171
1
172
0
173
1
174
0
175
1
176
1
 91
1
178
0
145
0.0
170
1
171
1
172
0
173
0
174
0
175
1
176
1
 91
33
178
0
145
0.0
301
CELL_VALUE
 90
4
  1
Body Features
304
ACVALUE_END
170
5
140
0.125
171
1
172
0
173
0
174
0
175
2
176
1
 91
33
178
0
145
0.0
301
CELL_VALUE
 90
4
  1
Through port 2 with reverse flow check
304
ACVALUE_END
170
5
140
0.125
171
1
172
0
173
1
174
0
175
1
176
1
 91
1
178
0
145
0.0
170
1
171
1
172
0
173
0
174
0
175
1
176
1
 91
33
178
0
145
0.0
301
CELL_VALUE
 90
4
  1
Body Type
304
ACVALUE_END
170
5
140
0.125
171
1
172
0
173
0
174
0
175
2
176
1
 91
33
178
0
145
0.0
301
CELL_VALUE
 90
4
  1
Line mount
304
ACVALUE_END
170
5
140
0.125
171
1
172
0
173
1
174
0
175
1
176
1
 91
1
178
0
145
0.0
170
1
171
1
172
0
173
0
174
0
175
1
176
1
 91
33
178
0
145
0.0
301
CELL_VALUE
 90
4
  1
Interface
304
ACVALUE_END
170
5
140
0.125
171
1
172
0
173
0
174
0
175
2
176
1
 91
33
178
0
145
0.0
301
CELL_VALUE
 90
4
  1
None
304
ACVALUE_END
170
5
140
0.125
171
1
172
0
173
1
174
0
175
1
176
1
 91
1
178
0
145
0.0
170
1
171
1
172
0
173
0
174
0
175
1
176
1
 91
33
178
0
145
0.0
301
CELL_VALUE
 90
4
  1
Open Cavity Quantity
304
ACVALUE_END
170
5
140
0.125
171
1
172
0
173
0
174
0
175
2
176
1
 91
33
178
0
145
0.0
301
CELL_VALUE
 90
4
  1
1
304
ACVALUE_END
170
5
140
0.125
171
1
172
0
173
1
174
0
175
1
176
1
 91
1
178
0
145
0.0
170
1
171
1
172
0
173
0
174
0
175
1
176
1
 91
33
178
0
145
0.0
301
CELL_VALUE
 90
4
  1
Weight
304
ACVALUE_END
170
5
140
0.125
171
1
172
0
173
0
174
0
175
1
176
1
 91
33
178
0
145
0.0
301
CELL_VALUE
 90
4
  1
2.308 lb.
304
ACVALUE_END
170
5
140
0.125
171
1
172
0
173
0
174
0
175
1
176
1
 91
33
178
0
145
0.0
301
CELL_VALUE
 90
4
  1
1,047 kg.
304
ACVALUE_END
170
5
140
0.125
171
1
172
0
173
0
174
0
175
1
176
1
 91
33
178
0
145
0.0
301
CELL_VALUE
 90
4
  1
Mounting Hole Thread
304
ACVALUE_END
170
5
140
0.125
171
1
172
0
173
0
174
0
175
2
176
1
 91
33
178
0
145
0.0
301
CELL_VALUE
 90
4
  1
M10x1.5 - 6H
304
ACVALUE_END
170
5
140
0.125
171
1
172
0
173
1
174
0
175
1
176
1
 91
1
178
0
145
0.0
170
1
171
1
172
0
173
0
174
0
175
1
176
1
 91
33
178
0
145
0.0
301
CELL_VALUE
 90
4
  1
Mounting Hole Depth
304
ACVALUE_END
170
5
140
0.125
171
1
172
0
173
0
174
0
175
1
176
1
 91
33
178
0
145
0.0
301
CELL_VALUE
 90
4
  1
.62 in.
304
ACVALUE_END
170
5
140
0.125
171
1
172
0
173
0
174
0
175
1
176
1
 91
33
178
0
145
0.0
301
CELL_VALUE
 90
4
  1
15,7 mm
304
ACVALUE_END
170
5
140
0.125
171
1
172
0
173
0
174
0
175
1
176
1
 91
33
178
0
145
0.0
301
CELL_VALUE
 90
4
  1
Mounting Hole Quantity
304
ACVALUE_END
170
5
140
0.125
171
1
172
0
173
0
174
0
175
2
176
1
 91
33
178
0
145
0.0
301
CELL_VALUE
 90
4
  1
2
304
ACVALUE_END
170
5
140
0.125
171
1
172
0
173
1
174
0
175
1
176
1
 91
1
178
0
145
0.0
170
1
  0
ACAD_TABLE
  5
293
100
AcDbEntity
  8
0
 62
2
  6
CONTINUOUS
100
AcDbBlockReference
  2
*T3
 10
0.52125
 20
1.959
 30
0.0
100
AcDbTable
342
       3E6
343
211
 11
1.0
 21
0.0
 31
0.0
 90
22
 91
5
 92
3
 93
16
 94
0
 95
0
 96
0
 41
0.05
141
0.34375
141
0.344
141
0.25
141
0.25
141
0.25
142
1.3
142
2.0
142
1.3
171
1
172
0
173
0
174
0
175
3
176
1
 91
33
178
0
145
0.0
301
CELL_VALUE
 90
4
  1
Port Headings
304
ACVALUE_END
170
5
140
0.145
171
1
172
0
173
1
174
0
175
1
176
1
 91
1
178
0
145
0.0
170
1
171
1
172
0
173
1
174
0
175
1
176
1
 91
1
178
0
145
0.0
170
1
171
1
172
0
173
0
174
0
175
1
176
1
 91
33
178
0
145
0.0
301
CELL_VALUE
 90
4
  1
Product
304
ACVALUE_END
170
5
140
0.145
171
1
172
0
173
0
174
0
175
1
176
1
 91
33
178
0
145
0.0
301
CELL_VALUE
 90
4
  1
Port
304
ACVALUE_END
170
5
140
0.145
171
1
172
0
173
0
174
0
175
1
176
1
 91
33
178
0
145
0.0
301
CELL_VALUE
 90
4
  1
Size
304
ACVALUE_END
170
5
140
0.145
171
1
172
0
173
0
174
0
175
1
176
1
 91
33
178
0
145
0.0
301
CELL_VALUE
 90
4
  1
E3T
304
ACVALUE_END
170
5
140
0.125
171
1
172
0
173
0
174
0
175
1
176
1
 91
33
178
0
145
0.0
301
CELL_VALUE
 90
4
  1
Ports 1 &  2
304
ACVALUE_END
170
5
140
0.125
171
1
172
0
173
0
174
0
175
1
176
1
 91
33
178
0
145
0.0
301
CELL_VALUE
 90
4
  1
1/4" BSPP
304
ACVALUE_END
170
5
140
0.125
171
1
172
0
173
0
174
0
175
1
176
1
 91
33
178
0
145
0.0
301
CELL_VALUE
 90
4
  1
E3T
304
ACVALUE_END
170
5
140
0.125
171
1
172
0
173
0
174
0
175
1
176
1
 91
33
178
0
145
0.0
301
CELL_VALUE
 90
4
  1
Port 3
304
ACVALUE_END
170
5
140
0.125
171
1
172
0
173
0
174
0
175
1
176
1
 91
33
178
0
145
0.0
301
CELL_VALUE
 90
4
  1
1/4" BSPP
304
ACVALUE_END
170
5
140
0.125
171
1
172
0
173
0
174
0
175
1
176
1
 91
33
178
0
145
0.0
301
CELL_VALUE
 90
4
  1
E3T
304
ACVALUE_END
170
5
140
0.125
171
1
172
0
173
0
174
0
175
1
176
1
 91
33
178
0
145
0.0
301
CELL_VALUE
 90
4
  1
Gage Port
304
ACVALUE_END
170
5
140
0.125
171
1
172
0
173
0
174
0
175
1
176
1
 91
33
178
0
145
0.0
301
CELL_VALUE
 90
4
  1
1/4" BSPP
304
ACVALUE_END
170
5
140
0.125
  0
MTEXT
  5
294
100
AcDbEntity
  8
0
100
AcDbMText
 62
2
  6
CONTINUOUS
  7
STANDARD
 71
1
 72
1
 10
0.52125
 20
5.75995
 30
0.0
 11
1.0
 21
0.0
 31
0.0
 44
0.6
  3
Notes\P \P1. Important: Carefully consider\P   the maximum system pressure. The\P   pressure rating of the manifold is\P   dependent on the manifold material,\P   with the port type/size a secondary\P   consideration. Manifolds\P   constructed of alu
  1
minum are not\P   rated for pressures higher than\P   3000 psi (210 bar), regardless of\P   the port type/size specified.
 40
0.1
 41
3.04
  0
LINE
  5
295
100
AcDbEntity
  8
0
100
AcDbLine
 62
7
  6
CONTINUOUS
 10
0.30125
 20
0.30125
 11
0.30125
 21
16.69875
  0
LINE
  5
296
100
AcDbEntity
  8
0
100
AcDbLine
 62
7
  6
CONTINUOUS
 10
0.30125
 20
0.30125
 11
21.69875
 21
0.30125
  0
LINE
  5
297
100
AcDbEntity
  8
0
100
AcDbLine
 62
7
  6
CONTINUOUS
 10
0.30125
 20
16.69875
 11
21.69875
 21
16.69875
  0
LINE
  5
298
100
AcDbEntity
  8
0
100
AcDbLine
 62
7
  6
CONTINUOUS
 10
21.69875
 20
0.30125
 11
21.69875
 21
16.69875
  0
LINE
  5
299
100
AcDbEntity
  8
0
100
AcDbLine
 62
7
  6
CONTINUOUS
 10
9.4067730324
 20
6.3459052392
 11
11.881475181
 21
6.1742840623
  0
LINE
  5
29A
100
AcDbEntity
  8
0
100
AcDbLine
 62
7
  6
CONTINUOUS
 10
10.118524819
 20
10.4141453049
 11
9.4067730324
 21
9.7266458315
  0
LINE
  5
29B
100
AcDbEntity
  8
0
100
AcDbLine
 62
7
  6
CONTINUOUS
 10
11.2410813953
 20
10.753647287
 11
11.2662470077
 21
10.7660786177
  0
LINE
  5
29C
100
AcDbEntity
  8
0
100
AcDbLine
 62
4
  6
CONTINUOUS
 10
11.2492766932
 20
6.6750101168
 11
11.2347878053
 21
6.6760149246
  0
LINE
  5
29D
100
AcDbEntity
  8
0
100
AcDbLine
 62
4
  6
CONTINUOUS
 10
11.2492766932
 20
6.7233064122
 11
11.2347878053
 21
6.72431122
  0
LINE
  5
29E
100
AcDbEntity
  8
0
100
AcDbLine
 62
4
  6
CONTINUOUS
 10
11.2347878053
 20
6.791926028
 11
11.2492766932
 21
6.7909212202
  0
LINE
  5
29F
100
AcDbEntity
  8
0
100
AcDbLine
 62
4
  6
CONTINUOUS
 10
9.5376559845
 20
7.6794654538
 11
9.5304115406
 21
7.6896271209
  0
LINE
  5
2A0
100
AcDbEntity
  8
0
100
AcDbLine
 62
7
  6
CONTINUOUS
 10
9.4067730324
 20
9.7266458315
 11
9.4067730324
 21
6.3459052392
  0
LINE
  5
2A1
100
AcDbEntity
  8
0
100
AcDbLine
 62
4
  6
CONTINUOUS
 10
9.5159226526
 20
8.7550822842
 11
9.5159226526
 21
8.7937193181
  0
LINE
  5
2A2
100
AcDbEntity
  8
0
100
AcDbLine
 62
4
  6
CONTINUOUS
 10
9.5521448724
 20
7.6688013897
 11
9.5376559845
 21
7.6794654538
  0
LINE
  5
2A3
100
AcDbEntity
  8
0
100
AcDbLine
 62
4
  6
CONTINUOUS
 10
9.5304115406
 20
7.6896271209
 11
9.5304115406
 21
7.7089456336
  0
LINE
  5
2A4
100
AcDbEntity
  8
0
100
AcDbLine
 62
4
  6
CONTINUOUS
 10
9.5883670923
 20
8.7500582453
 11
9.5811226483
 21
8.7215828733
  0
LINE
  5
2A5
100
AcDbEntity
  8
0
100
AcDbLine
 62
4
  6
CONTINUOUS
 10
9.5159226526
 20
8.7937193181
 11
9.5231670966
 21
8.8028761731
  0
LINE
  5
2A6
100
AcDbEntity
  8
0
100
AcDbLine
 62
4
  6
CONTINUOUS
 10
11.2347878053
 20
6.6760149246
 11
11.2202989173
 21
6.6866789887
  0
LINE
  5
2A7
100
AcDbEntity
  8
0
100
AcDbLine
 62
4
  6
CONTINUOUS
 10
11.2347878053
 20
6.72431122
 11
11.2202989173
 21
6.7349752841
  0
LINE
  5
2A8
100
AcDbEntity
  8
0
100
AcDbLine
 62
4
  6
CONTINUOUS
 10
9.5811226483
 20
8.779538425
 11
9.5883670923
 21
8.7500582453
  0
LINE
  5
2A9
100
AcDbEntity
  8
0
100
AcDbLine
 62
4
  6
CONTINUOUS
 10
9.5811226483
 20
7.7537251017
 11
9.5883670923
 21
7.7822004737
  0
LINE
  5
2AA
100
AcDbEntity
  8
0
100
AcDbLine
 62
4
  6
CONTINUOUS
 10
9.5811226483
 20
8.7215828733
 11
9.5666337604
 21
8.7032691615
  0
LINE
  5
2AB
100
AcDbEntity
  8
0
100
AcDbLine
 62
4
  6
CONTINUOUS
 10
10.9108934335
 20
10.1475147132
 11
10.9186579982
 21
10.1550147073
  0
LINE
  5
2AC
100
AcDbEntity
  8
0
100
AcDbLine
 62
4
  6
CONTINUOUS
 10
10.9400105514
 20
10.1756396911
 11
10.9438928338
 21
10.1793896881
  0
LINE
  5
2AD
100
AcDbEntity
  8
0
100
AcDbLine
 62
4
  6
CONTINUOUS
 10
11.0021270695
 20
10.2356396438
 11
11.0060093519
 21
10.2393896408
  0
LINE
  5
2AE
100
AcDbEntity
  8
0
100
AcDbLine
 62
4
  6
CONTINUOUS
 10
11.1219204554
 20
10.2313511785
 11
11.118038173
 21
10.2276011814
  0
LINE
  5
2AF
100
AcDbEntity
  8
0
100
AcDbLine
 62
4
  6
CONTINUOUS
 10
11.0598039372
 20
10.1713512258
 11
11.0559216548
 21
10.1676012287
  0
LINE
  5
2B0
100
AcDbEntity
  8
0
100
AcDbLine
 62
4
  6
CONTINUOUS
 10
11.0345691017
 20
10.146976245
 11
11.0268045369
 21
10.1394762509
  0
LINE
  5
2B1
100
AcDbEntity
  8
0
100
AcDbLine
 62
4
  6
CONTINUOUS
 10
11.2492766932
 20
6.7909212202
 11
11.2637655811
 21
6.7802571535
  0
LINE
  5
2B2
100
AcDbEntity
  8
0
100
AcDbLine
 62
4
  6
CONTINUOUS
 10
10.2370553756
 20
7.6104015693
 11
10.2453347085
 21
7.6043078196
  0
LINE
  5
2B3
100
AcDbEntity
  8
0
100
AcDbLine
 62
4
  6
CONTINUOUS
 10
10.2784521509
 20
7.5964915412
 11
10.2867314838
 21
7.5903977914
  0
LINE
  5
2B4
100
AcDbEntity
  8
0
100
AcDbLine
 62
4
  6
CONTINUOUS
 10
10.2453347085
 20
7.560151208
 11
10.2370553756
 21
7.5690047491
  0
LINE
  5
2B5
100
AcDbEntity
  8
0
100
AcDbLine
 62
4
  6
CONTINUOUS
 10
10.2867314838
 20
7.6317946142
 11
10.2784521509
 21
7.6406481528
  0
LINE
  5
2B6
100
AcDbEntity
  8
0
100
AcDbLine
 62
4
  6
CONTINUOUS
 10
9.5231670966
 20
8.8028761731
 11
9.5376559845
 21
8.8115306242
  0
LINE
  5
2B7
100
AcDbEntity
  8
0
100
AcDbLine
 62
4
  6
CONTINUOUS
 10
11.305093352
 20
7.4535392403
 11
11.2719758941
 21
7.4558359438
  0
LINE
  5
2B8
100
AcDbEntity
  8
0
100
AcDbLine
 62
4
  6
CONTINUOUS
 10
10.4054024202
 20
7.5159330183
 11
10.4026426425
 21
7.5161244095
  0
LINE
  5
2B9
100
AcDbEntity
  8
0
100
AcDbLine
 62
4
  6
CONTINUOUS
 10
10.9573600503
 20
7.5107720828
 11
10.9159632197
 21
7.5136429627
  0
LINE
  5
2BA
100
AcDbEntity
  8
0
100
AcDbLine
 62
4
  6
CONTINUOUS
 10
10.7862531728
 20
7.522638385
 11
10.7531357305
 21
7.5249350875
  0
LINE
  5
2BB
100
AcDbEntity
  8
0
100
AcDbLine
 62
4
  6
CONTINUOUS
 10
10.7200182329
 20
7.5272317937
 11
10.6869007905
 21
7.5295284962
  0
LINE
  5
2BC
100
AcDbEntity
  8
0
100
AcDbLine
 62
4
  6
CONTINUOUS
 10
10.352966479
 20
7.5526869193
 11
10.3198489262
 21
7.5549836294
  0
LINE
  5
2BD
100
AcDbEntity
  8
0
100
AcDbLine
 62
4
  6
CONTINUOUS
 10
10.2784521509
 20
7.5578545055
 11
10.2453347085
 21
7.560151208
  0
LINE
  5
2BE
100
AcDbEntity
  8
0
100
AcDbLine
 62
4
  6
CONTINUOUS
 10
10.6041071294
 20
7.5352702561
 11
10.64550396
 21
7.5323993761
  0
LINE
  5
2BF
100
AcDbEntity
  8
0
100
AcDbLine
 62
4
  6
CONTINUOUS
 10
10.6289452388
 20
7.574944551
 11
10.5958277965
 21
7.5772412534
  0
LINE
  5
2C0
100
AcDbEntity
  8
0
100
AcDbLine
 62
4
  6
CONTINUOUS
 10
11.7699108046
 20
7.5149987999
 11
11.7554219166
 21
7.5160036077
  0
LINE
  5
2C1
100
AcDbEntity
  8
0
100
AcDbLine
 62
4
  6
CONTINUOUS
 10
9.5666337604
 20
7.6677965819
 11
9.5521448724
 21
7.6688013897
  0
LINE
  5
2C2
100
AcDbEntity
  8
0
100
AcDbLine
 62
4
  6
CONTINUOUS
 10
10.2453347085
 20
7.6043078196
 11
10.2784521509
 21
7.5964915412
  0
LINE
  5
2C3
100
AcDbEntity
  8
0
100
AcDbLine
 62
4
  6
CONTINUOUS
 10
10.6289452388
 20
7.6163413746
 11
10.64550396
 21
7.6069136585
  0
LINE
  5
2C4
100
AcDbEntity
  8
0
100
AcDbLine
 62
4
  6
CONTINUOUS
 10
10.352966479
 20
7.6354805666
 11
10.361245812
 21
7.626627028
  0
LINE
  5
2C5
100
AcDbEntity
  8
0
100
AcDbLine
 62
4
  6
CONTINUOUS
 10
10.4716373048
 20
7.6272507169
 11
10.4799166931
 21
7.6183971745
  0
LINE
  5
2C6
100
AcDbEntity
  8
0
100
AcDbLine
 62
4
  6
CONTINUOUS
 10
10.5627103542
 20
7.6126554146
 11
10.5544309659
 21
7.621508957
  0
LINE
  5
2C7
100
AcDbEntity
  8
0
100
AcDbLine
 62
4
  6
CONTINUOUS
 10
9.5231670966
 20
8.7062835849
 11
9.5159226526
 21
8.716445252
  0
LINE
  5
2C8
100
AcDbEntity
  8
0
100
AcDbLine
 62
4
  6
CONTINUOUS
 10
9.5666337604
 20
8.7998617497
 11
9.5811226483
 21
8.779538425
  0
LINE
  5
2C9
100
AcDbEntity
  8
0
100
AcDbLine
 62
4
  6
CONTINUOUS
 10
10.2370553756
 20
7.635239664
 11
10.2370553756
 21
7.6104015693
  0
LINE
  5
2CA
100
AcDbEntity
  8
0
100
AcDbLine
 62
4
  6
CONTINUOUS
 10
9.5666337604
 20
8.7032691615
 11
9.5521448724
 21
8.694614713
  0
LINE
  5
2CB
100
AcDbEntity
  8
0
100
AcDbLine
 62
4
  6
CONTINUOUS
 10
11.3133727169
 20
7.5688761678
 11
11.2802552581
 21
7.5711728714
  0
LINE
  5
2CC
100
AcDbEntity
  8
0
100
AcDbLine
 62
4
  6
CONTINUOUS
 10
11.2140203458
 20
7.5757662781
 11
11.1891822433
 21
7.5774888064
  0
LINE
  5
2CD
100
AcDbEntity
  8
0
100
AcDbLine
 62
4
  6
CONTINUOUS
 10
10.5544309659
 20
7.621508957
 11
10.5130341354
 21
7.6243798369
  0
LINE
  5
2CE
100
AcDbEntity
  8
0
100
AcDbLine
 62
4
  6
CONTINUOUS
 10
10.2784521509
 20
7.6406481528
 11
10.2453347085
 21
7.6429448552
  0
LINE
  5
2CF
100
AcDbEntity
  8
0
100
AcDbLine
 62
4
  6
CONTINUOUS
 10
10.3198489262
 20
7.6377772767
 11
10.352966479
 21
7.6354805666
  0
LINE
  5
2D0
100
AcDbEntity
  8
0
100
AcDbLine
 62
4
  6
CONTINUOUS
 10
10.4550785837
 20
7.6283990681
 11
10.4716373048
 21
7.6272507169
  0
LINE
  5
2D1
100
AcDbEntity
  8
0
100
AcDbLine
 62
4
  6
CONTINUOUS
 10
10.5958277965
 20
7.618638077
 11
10.6289452388
 21
7.6163413746
  0
LINE
  5
2D2
100
AcDbEntity
  8
0
100
AcDbLine
 62
4
  6
CONTINUOUS
 10
10.7531357305
 20
7.6077287348
 11
10.7862531728
 21
7.6054320323
  0
LINE
  5
2D3
100
AcDbEntity
  8
0
100
AcDbLine
 62
4
  6
CONTINUOUS
 10
10.8745663892
 20
7.6269053718
 11
10.858007668
 21
7.628053723
  0
LINE
  5
2D4
100
AcDbEntity
  8
0
100
AcDbLine
 62
4
  6
CONTINUOUS
 10
11.7916441364
 20
7.6294026917
 11
11.7336885847
 21
7.6334219228
  0
LINE
  5
2D5
100
AcDbEntity
  8
0
100
AcDbLine
 62
4
  6
CONTINUOUS
 10
9.5883670923
 20
7.7822004737
 11
9.5304115406
 21
7.7862197048
  0
LINE
  5
2D6
100
AcDbEntity
  8
0
100
AcDbLine
 62
4
  6
CONTINUOUS
 10
10.7862531728
 20
7.6054320323
 11
10.802811894
 21
7.5960043162
  0
LINE
  5
2D7
100
AcDbEntity
  8
0
100
AcDbLine
 62
4
  6
CONTINUOUS
 10
10.9159632197
 20
7.5136429627
 11
10.9076838592
 21
7.5224965058
  0
LINE
  5
2D8
100
AcDbEntity
  8
0
100
AcDbLine
 62
4
  6
CONTINUOUS
 10
11.2202989173
 20
6.6866789887
 11
11.2130544734
 21
6.6968406558
  0
LINE
  5
2D9
100
AcDbEntity
  8
0
100
AcDbLine
 62
4
  6
CONTINUOUS
 10
11.2202989173
 20
6.7349752841
 11
11.2058100294
 21
6.7552986079
  0
LINE
  5
2DA
100
AcDbEntity
  8
0
100
AcDbLine
 62
4
  6
CONTINUOUS
 10
11.2637655811
 20
6.7802571535
 11
11.2710100251
 21
6.7700954907
  0
LINE
  5
2DB
100
AcDbEntity
  8
0
100
AcDbLine
 62
4
  6
CONTINUOUS
 10
10.6869007905
 20
7.5295284962
 11
10.6813812352
 21
7.5381906461
  0
LINE
  5
2DC
100
AcDbEntity
  8
0
100
AcDbLine
 62
4
  6
CONTINUOUS
 10
10.5958277965
 20
7.5524031578
 11
10.6041071294
 21
7.5352702561
  0
LINE
  5
2DD
100
AcDbEntity
  8
0
100
AcDbLine
 62
4
  6
CONTINUOUS
 10
10.2867314838
 20
7.5903977914
 11
10.2867314838
 21
7.5655596993
  0
LINE
  5
2DE
100
AcDbEntity
  8
0
100
AcDbLine
 62
4
  6
CONTINUOUS
 10
10.361245812
 20
7.626627028
 11
10.361245812
 21
7.5603921131
  0
LINE
  5
2DF
100
AcDbEntity
  8
0
100
AcDbLine
 62
4
  6
CONTINUOUS
 10
10.4054024202
 20
7.6318441217
 11
10.4054024202
 21
7.5490504744
  0
LINE
  5
2E0
100
AcDbEntity
  8
0
100
AcDbLine
 62
4
  6
CONTINUOUS
 10
10.4054024202
 20
7.5242123858
 11
10.4054024202
 21
7.5159330183
  0
LINE
  5
2E1
100
AcDbEntity
  8
0
100
AcDbLine
 62
4
  6
CONTINUOUS
 10
10.4247208992
 20
8.2216510082
 11
10.4247208992
 21
8.1057399047
  0
LINE
  5
2E2
100
AcDbEntity
  8
0
100
AcDbLine
 62
4
  6
CONTINUOUS
 10
9.5304115406
 20
7.7089456336
 11
9.5376559845
 21
7.7181024929
  0
LINE
  5
2E3
100
AcDbEntity
  8
0
100
AcDbLine
 62
4
  6
CONTINUOUS
 10
9.5666337604
 20
7.7354113934
 11
9.5811226483
 21
7.7537251017
  0
LINE
  5
2E4
100
AcDbEntity
  8
0
100
AcDbLine
 62
4
  6
CONTINUOUS
 10
9.5883670923
 20
7.6856078898
 11
9.5811226483
 21
7.6764510304
  0
LINE
  5
2E5
100
AcDbEntity
  8
0
100
AcDbLine
 62
4
  6
CONTINUOUS
 10
10.8952648272
 20
7.8181031449
 11
10.8455886395
 21
7.8215482003
  0
LINE
  5
2E6
100
AcDbEntity
  8
0
100
AcDbLine
 62
4
  6
CONTINUOUS
 10
10.7296775326
 20
7.8295866628
 11
10.6634426203
 21
7.8341800696
  0
LINE
  5
2E7
100
AcDbEntity
  8
0
100
AcDbLine
 62
4
  6
CONTINUOUS
 10
10.7793537238
 20
7.8261416073
 11
10.8124711799
 21
7.8238449039
  0
LINE
  5
2E8
100
AcDbEntity
  8
0
100
AcDbLine
 62
4
  6
CONTINUOUS
 10
10.7793537238
 20
7.8758177915
 11
10.7959124518
 21
7.8746694398
  0
LINE
  5
2E9
100
AcDbEntity
  8
0
100
AcDbLine
 62
4
  6
CONTINUOUS
 10
10.8621473676
 20
7.8700760328
 11
10.8952648272
 21
7.8677793292
  0
LINE
  5
2EA
100
AcDbEntity
  8
0
100
AcDbLine
 62
4
  6
CONTINUOUS
 10
10.8952648272
 20
7.9340142484
 11
10.8455886395
 21
7.9374593037
  0
LINE
  5
2EB
100
AcDbEntity
  8
0
100
AcDbLine
 62
4
  6
CONTINUOUS
 10
10.8124711799
 20
7.9397560073
 11
10.7710743632
 21
7.9426268863
  0
LINE
  5
2EC
100
AcDbEntity
  8
0
100
AcDbLine
 62
4
  6
CONTINUOUS
 10
10.3419272934
 20
8.155638269
 11
10.2977706852
 21
8.1807788477
  0
LINE
  5
2ED
100
AcDbEntity
  8
0
100
AcDbLine
 62
4
  6
CONTINUOUS
 10
9.5376559845
 20
8.6956195208
 11
9.5231670966
 21
8.7062835849
  0
LINE
  5
2EE
100
AcDbEntity
  8
0
100
AcDbLine
 62
4
  6
CONTINUOUS
 10
9.5521448724
 20
8.8105258164
 11
9.5666337604
 21
8.7998617497
  0
LINE
  5
2EF
100
AcDbEntity
  8
0
100
AcDbLine
 62
4
  6
CONTINUOUS
 10
10.4881960615
 20
8.1013378873
 11
10.4716373403
 21
8.1190449666
  0
LINE
  5
2F0
100
AcDbEntity
  8
0
100
AcDbLine
 62
4
  6
CONTINUOUS
 10
10.7627949888
 20
7.8935248752
 11
10.7793537238
 21
7.8758177915
  0
LINE
  5
2F1
100
AcDbEntity
  8
0
100
AcDbLine
 62
4
  6
CONTINUOUS
 10
10.5792690555
 20
8.0950219537
 11
10.5627103344
 21
8.112729033
  0
LINE
  5
2F2
100
AcDbEntity
  8
0
100
AcDbLine
 62
4
  6
CONTINUOUS
 10
10.7655547802
 20
7.8436572953
 11
10.7793537238
 21
7.8261416073
  0
LINE
  5
2F3
100
AcDbEntity
  8
0
100
AcDbLine
 62
4
  6
CONTINUOUS
 10
10.4716373403
 20
8.1190449666
 11
10.4716373403
 21
8.2018386121
  0
LINE
  5
2F4
100
AcDbEntity
  8
0
100
AcDbLine
 62
4
  6
CONTINUOUS
 10
10.4799166931
 20
7.6183971745
 11
10.4799166931
 21
7.5107654359
  0
LINE
  5
2F5
100
AcDbEntity
  8
0
100
AcDbLine
 62
4
  6
CONTINUOUS
 10
10.5130341354
 20
7.6243798369
 11
10.5130341354
 21
7.5415861896
  0
LINE
  5
2F6
100
AcDbEntity
  8
0
100
AcDbLine
 62
4
  6
CONTINUOUS
 10
10.529592892
 20
8.2143781108
 11
10.529592892
 21
8.0984670073
  0
LINE
  5
2F7
100
AcDbEntity
  8
0
100
AcDbLine
 62
4
  6
CONTINUOUS
 10
10.5627103542
 20
7.5381411322
 11
10.5627103542
 21
7.6126554146
  0
LINE
  5
2F8
100
AcDbEntity
  8
0
100
AcDbLine
 62
4
  6
CONTINUOUS
 10
10.5627103344
 20
8.112729033
 11
10.5627103344
 21
8.1955226785
  0
LINE
  5
2F9
100
AcDbEntity
  8
0
100
AcDbLine
 62
4
  6
CONTINUOUS
 10
10.5958277965
 20
7.618638077
 11
10.5958277965
 21
7.5524031578
  0
LINE
  5
2FA
100
AcDbEntity
  8
0
100
AcDbLine
 62
4
  6
CONTINUOUS
 10
10.6206658861
 20
8.1915034474
 11
10.6206658861
 21
8.1087098018
  0
LINE
  5
2FB
100
AcDbEntity
  8
0
100
AcDbLine
 62
4
  6
CONTINUOUS
 10
10.64550396
 20
7.6069136585
 11
10.64550396
 21
7.5820755638
  0
LINE
  5
2FC
100
AcDbEntity
  8
0
100
AcDbLine
 62
7
  6
CONTINUOUS
 10
12.118252132
 20
10.2270133498
 11
12.1194711025
 21
10.2281688842
  0
LINE
  5
2FD
100
AcDbEntity
  8
0
100
AcDbLine
 62
7
  6
CONTINUOUS
 10
12.059001
 20
10.1718739513
 11
12.1182521362
 21
10.2270133537
  0
LINE
  5
2FE
100
AcDbEntity
  8
0
100
AcDbLine
 62
4
  6
CONTINUOUS
 10
11.1947018134
 20
8.052341547
 11
11.1533049967
 21
8.055212426
  0
LINE
  5
2FF
100
AcDbEntity
  8
0
100
AcDbLine
 62
4
  6
CONTINUOUS
 10
10.9904775005
 20
8.0665045512
 11
10.9242425882
 21
8.0710979579
  0
LINE
  5
300
100
AcDbEntity
  8
0
100
AcDbLine
 62
4
  6
CONTINUOUS
 10
10.8911251182
 20
8.0733946623
 11
10.8414489271
 21
8.0768397178
  0
LINE
  5
301
100
AcDbEntity
  8
0
100
AcDbLine
 62
4
  6
CONTINUOUS
 10
10.7006997143
 20
8.0866007089
 11
10.6675822719
 21
8.0888974113
  0
LINE
  5
302
100
AcDbEntity
  8
0
100
AcDbLine
 62
4
  6
CONTINUOUS
 10
10.6041071649
 20
8.0932994249
 11
10.5792690555
 21
8.0950219537
  0
LINE
  5
303
100
AcDbEntity
  8
0
100
AcDbLine
 62
4
  6
CONTINUOUS
 10
10.529592892
 20
8.0984670073
 11
10.4881960615
 21
8.1013378873
  0
LINE
  5
304
100
AcDbEntity
  8
0
100
AcDbLine
 62
4
  6
CONTINUOUS
 10
10.4247208992
 20
8.1057399047
 11
10.3750447357
 21
8.1091849584
  0
LINE
  5
305
100
AcDbEntity
  8
0
100
AcDbLine
 62
4
  6
CONTINUOUS
 10
10.3916034569
 20
8.1577127914
 11
10.4247208992
 21
8.155416089
  0
LINE
  5
306
100
AcDbEntity
  8
0
100
AcDbLine
 62
4
  6
CONTINUOUS
 10
10.8580076483
 20
8.1253675509
 11
10.8911251182
 21
8.1230708465
  0
LINE
  5
307
100
AcDbEntity
  8
0
100
AcDbLine
 62
4
  6
CONTINUOUS
 10
11.26369653
 20
7.5392037634
 11
11.3216520818
 21
7.4855083446
  0
LINE
  5
308
100
AcDbEntity
  8
0
100
AcDbLine
 62
4
  6
CONTINUOUS
 10
11.2719758941
 20
7.4558359438
 11
11.26369653
 21
7.4646894871
  0
LINE
  5
309
100
AcDbEntity
  8
0
100
AcDbLine
 62
4
  6
CONTINUOUS
 10
10.6041071649
 20
8.2092105284
 11
10.6206658861
 21
8.1915034474
  0
LINE
  5
30A
100
AcDbEntity
  8
0
100
AcDbLine
 62
4
  6
CONTINUOUS
 10
11.2305790739
 20
7.5580591966
 11
11.2140203458
 21
7.5757662781
  0
LINE
  5
30B
100
AcDbEntity
  8
0
100
AcDbLine
 62
4
  6
CONTINUOUS
 10
10.7006997143
 20
8.2025118123
 11
10.7172584354
 21
8.1848047313
  0
LINE
  5
30C
100
AcDbEntity
  8
0
100
AcDbLine
 62
4
  6
CONTINUOUS
 10
11.3216520818
 20
7.560022627
 11
11.3133727169
 21
7.5688761678
  0
LINE
  5
30D
100
AcDbEntity
  8
0
100
AcDbLine
 62
4
  6
CONTINUOUS
 10
10.8745663892
 20
7.5165138427
 11
10.8497282798
 21
7.6010300187
  0
LINE
  5
30E
100
AcDbEntity
  8
0
100
AcDbLine
 62
4
  6
CONTINUOUS
 10
10.6813812352
 20
7.5381906461
 11
10.6813812352
 21
7.5547493742
  0
LINE
  5
30F
100
AcDbEntity
  8
0
100
AcDbLine
 62
4
  6
CONTINUOUS
 10
10.6965600765
 20
7.9477944696
 11
10.6965600765
 21
7.8318833662
  0
LINE
  5
310
100
AcDbEntity
  8
0
100
AcDbLine
 62
4
  6
CONTINUOUS
 10
10.7172584354
 20
8.1848047313
 11
10.7172584354
 21
8.1020110858
  0
LINE
  5
311
100
AcDbEntity
  8
0
100
AcDbLine
 62
4
  6
CONTINUOUS
 10
10.7200182329
 20
7.610025441
 11
10.7200182329
 21
7.5272317937
  0
LINE
  5
312
100
AcDbEntity
  8
0
100
AcDbLine
 62
4
  6
CONTINUOUS
 10
10.7531357305
 20
7.4918176313
 11
10.7531357305
 21
7.6077287348
  0
LINE
  5
313
100
AcDbEntity
  8
0
100
AcDbLine
 62
4
  6
CONTINUOUS
 10
10.7627949888
 20
7.934921698
 11
10.7627949888
 21
7.8935248752
  0
LINE
  5
314
100
AcDbEntity
  8
0
100
AcDbLine
 62
4
  6
CONTINUOUS
 10
10.7655547802
 20
7.8684953909
 11
10.7655547802
 21
7.8436572953
  0
LINE
  5
315
100
AcDbEntity
  8
0
100
AcDbLine
 62
4
  6
CONTINUOUS
 10
10.802811894
 20
7.5960043162
 11
10.802811894
 21
7.5297694013
  0
LINE
  5
316
100
AcDbEntity
  8
0
100
AcDbLine
 62
4
  6
CONTINUOUS
 10
10.4026426425
 20
7.5161244095
 11
10.4054024202
 21
7.5242123858
  0
LINE
  5
317
100
AcDbEntity
  8
0
100
AcDbLine
 62
4
  6
CONTINUOUS
 10
11.0787907169
 20
8.1431736526
 11
11.0346341087
 21
8.1462359238
  0
LINE
  5
318
100
AcDbEntity
  8
0
100
AcDbLine
 62
4
  6
CONTINUOUS
 10
10.8911251182
 20
8.1893057657
 11
10.8414489271
 21
8.1927508213
  0
LINE
  5
319
100
AcDbEntity
  8
0
100
AcDbLine
 62
4
  6
CONTINUOUS
 10
10.4247208992
 20
8.2216510082
 11
10.3750447357
 21
8.2250960618
  0
LINE
  5
31A
100
AcDbEntity
  8
0
100
AcDbLine
 62
4
  6
CONTINUOUS
 10
10.4881960615
 20
8.2172489907
 11
10.529592892
 21
8.2143781108
  0
LINE
  5
31B
100
AcDbEntity
  8
0
100
AcDbLine
 62
4
  6
CONTINUOUS
 10
10.5792690555
 20
8.2109330571
 11
10.6041071649
 21
8.2092105284
  0
LINE
  5
31C
100
AcDbEntity
  8
0
100
AcDbLine
 62
4
  6
CONTINUOUS
 10
10.6675822719
 20
8.2048085148
 11
10.7006997143
 21
8.2025118123
  0
LINE
  5
31D
100
AcDbEntity
  8
0
100
AcDbLine
 62
4
  6
CONTINUOUS
 10
11.1533049967
 20
8.1711235294
 11
11.1947018134
 21
8.1682526504
  0
LINE
  5
31E
100
AcDbEntity
  8
0
100
AcDbLine
 62
4
  6
CONTINUOUS
 10
11.2609367326
 20
8.1139830555
 11
11.216780121
 21
8.1391236327
  0
LINE
  5
31F
100
AcDbEntity
  8
0
100
AcDbLine
 62
4
  6
CONTINUOUS
 10
11.7554219166
 20
7.5160036077
 11
11.7409330287
 21
7.5266676718
  0
LINE
  5
320
100
AcDbEntity
  8
0
100
AcDbLine
 62
4
  6
CONTINUOUS
 10
11.1533049967
 20
8.055212426
 11
11.1367462686
 21
8.0729195057
  0
LINE
  5
321
100
AcDbEntity
  8
0
100
AcDbLine
 62
4
  6
CONTINUOUS
 10
11.139506066
 20
7.4650227575
 11
11.0815505143
 21
7.5849530921
  0
LINE
  5
322
100
AcDbEntity
  8
0
100
AcDbLine
 62
4
  6
CONTINUOUS
 10
10.8911251182
 20
8.1893057657
 11
10.8911251182
 21
8.0733946623
  0
LINE
  5
323
100
AcDbEntity
  8
0
100
AcDbLine
 62
4
  6
CONTINUOUS
 10
10.8952648272
 20
7.9340142484
 11
10.8952648272
 21
7.8181031449
  0
LINE
  5
324
100
AcDbEntity
  8
0
100
AcDbLine
 62
4
  6
CONTINUOUS
 10
10.9076838592
 20
7.5224965058
 11
10.9076838592
 21
7.5970107856
  0
LINE
  5
325
100
AcDbEntity
  8
0
100
AcDbLine
 62
4
  6
CONTINUOUS
 10
10.9573600305
 20
8.1847123589
 11
10.9573600305
 21
8.0688012555
  0
LINE
  5
326
100
AcDbEntity
  8
0
100
AcDbLine
 62
4
  6
CONTINUOUS
 10
10.9573600503
 20
7.5935657301
 11
10.9573600503
 21
7.4776546266
  0
LINE
  5
327
100
AcDbEntity
  8
0
100
AcDbLine
 62
7
  6
CONTINUOUS
 10
12.5932269676
 20
10.242524128
 11
11.881475181
 21
9.5550246546
  0
LINE
  5
328
100
AcDbEntity
  8
0
100
AcDbLine
 62
4
  6
CONTINUOUS
 10
10.4716373403
 20
8.2018386121
 11
10.4881960615
 21
8.2172489907
  0
LINE
  5
329
100
AcDbEntity
  8
0
100
AcDbLine
 62
4
  6
CONTINUOUS
 10
10.5627103344
 20
8.1955226785
 11
10.5792690555
 21
8.2109330571
  0
LINE
  5
32A
100
AcDbEntity
  8
0
100
AcDbLine
 62
4
  6
CONTINUOUS
 10
9.5376559845
 20
7.7181024929
 11
9.5666337604
 21
7.7354113934
  0
LINE
  5
32B
100
AcDbEntity
  8
0
100
AcDbLine
 62
4
  6
CONTINUOUS
 10
9.5811226483
 20
7.6764510304
 11
9.5666337604
 21
7.6677965819
  0
LINE
  5
32C
100
AcDbEntity
  8
0
100
AcDbLine
 62
4
  6
CONTINUOUS
 10
10.2977706852
 20
8.1807788477
 11
10.3419272934
 21
8.1997948824
  0
LINE
  5
32D
100
AcDbEntity
  8
0
100
AcDbLine
 62
4
  6
CONTINUOUS
 10
11.0567124128
 20
8.0619111444
 11
11.0235949428
 21
8.1801189522
  0
LINE
  5
32E
100
AcDbEntity
  8
0
100
AcDbLine
 62
4
  6
CONTINUOUS
 10
11.0815505143
 20
7.5849530921
 11
11.0815505143
 21
7.4690419887
  0
LINE
  5
32F
100
AcDbEntity
  8
0
100
AcDbLine
 62
4
  6
CONTINUOUS
 10
11.1367462686
 20
8.0729195057
 11
11.1367462686
 21
8.1557131513
  0
LINE
  5
330
100
AcDbEntity
  8
0
100
AcDbLine
 62
4
  6
CONTINUOUS
 10
11.139506066
 20
7.580933861
 11
11.139506066
 21
7.4650227575
  0
LINE
  5
331
100
AcDbEntity
  8
0
100
AcDbLine
 62
7
  6
CONTINUOUS
 10
11.1679979279
 20
10.2862187898
 11
11.1679979279
 21
10.7068180156
  0
LINE
  5
332
100
AcDbEntity
  8
0
100
AcDbLine
 62
4
  6
CONTINUOUS
 10
11.1726235222
 20
7.5620784278
 11
11.1726235222
 21
7.4627260542
  0
LINE
  5
333
100
AcDbEntity
  8
0
100
AcDbLine
 62
4
  6
CONTINUOUS
 10
11.1947018134
 20
8.1682526504
 11
11.1947018134
 21
8.052341547
  0
LINE
  5
334
100
AcDbEntity
  8
0
100
AcDbLine
 62
4
  6
CONTINUOUS
 10
11.2058100294
 20
6.7552986079
 11
11.2058100294
 21
6.7649578677
  0
LINE
  5
335
100
AcDbEntity
  8
0
100
AcDbLine
 62
4
  6
CONTINUOUS
 10
11.2130544734
 20
6.6968406558
 11
11.2130544734
 21
6.7064999121
  0
LINE
  5
336
100
AcDbEntity
  8
0
100
AcDbLine
 62
4
  6
CONTINUOUS
 10
11.0898298689
 20
8.1755255444
 11
11.0567124128
 21
8.0619111444
  0
LINE
  5
337
100
AcDbEntity
  8
0
100
AcDbLine
 62
4
  6
CONTINUOUS
 10
10.858007668
 20
7.628053723
 11
10.8248902257
 21
7.5199588963
  0
LINE
  5
338
100
AcDbEntity
  8
0
100
AcDbLine
 62
4
  6
CONTINUOUS
 10
10.6206658861
 20
8.1087098018
 11
10.6041071649
 21
8.0932994249
  0
LINE
  5
339
100
AcDbEntity
  8
0
100
AcDbLine
 62
4
  6
CONTINUOUS
 10
10.7172584354
 20
8.1020110858
 11
10.7006997143
 21
8.0866007089
  0
LINE
  5
33A
100
AcDbEntity
  8
0
100
AcDbLine
 62
4
  6
CONTINUOUS
 10
10.2453347085
 20
7.6429448552
 11
10.2370553756
 21
7.635239664
  0
LINE
  5
33B
100
AcDbEntity
  8
0
100
AcDbLine
 62
4
  6
CONTINUOUS
 10
10.2867314838
 20
7.5655596993
 11
10.2784521509
 21
7.5578545055
  0
LINE
  5
33C
100
AcDbEntity
  8
0
100
AcDbLine
 62
4
  6
CONTINUOUS
 10
9.5521448724
 20
8.694614713
 11
9.5376559845
 21
8.6956195208
  0
LINE
  5
33D
100
AcDbEntity
  8
0
100
AcDbLine
 62
4
  6
CONTINUOUS
 10
9.5449004285
 20
8.7530726686
 11
9.5159226526
 21
8.7550822842
  0
LINE
  5
33E
100
AcDbEntity
  8
0
100
AcDbLine
 62
4
  6
CONTINUOUS
 10
9.5376559845
 20
8.8115306242
 11
9.5521448724
 21
8.8105258164
  0
LINE
  5
33F
100
AcDbEntity
  8
0
100
AcDbLine
 62
4
  6
CONTINUOUS
 10
11.7409330287
 20
7.5266676718
 11
11.7336885847
 21
7.5368293389
  0
LINE
  5
340
100
AcDbEntity
  8
0
100
AcDbLine
 62
7
  6
CONTINUOUS
 10
11.2196333455
 20
10.1252888891
 11
11.2196333455
 21
10.1870971231
  0
LINE
  5
341
100
AcDbEntity
  8
0
100
AcDbLine
 62
4
  6
CONTINUOUS
 10
11.2305790739
 20
7.458706823
 11
11.2305790739
 21
7.5580591966
  0
LINE
  5
342
100
AcDbEntity
  8
0
100
AcDbLine
 62
4
  6
CONTINUOUS
 10
11.26369653
 20
7.5557624932
 11
11.26369653
 21
7.5392037634
  0
LINE
  5
343
100
AcDbEntity
  8
0
100
AcDbLine
 62
4
  6
CONTINUOUS
 10
11.2806692477
 20
8.6906521359
 11
11.2806692477
 21
8.8065632394
  0
LINE
  5
344
100
AcDbEntity
  8
0
100
AcDbLine
 62
7
  6
CONTINUOUS
 10
11.2810527399
 20
10.1770164139
 11
11.2810527399
 21
10.5976156397
  0
LINE
  5
345
100
AcDbEntity
  8
0
100
AcDbLine
 62
4
  6
CONTINUOUS
 10
11.3216520818
 20
7.4855083446
 11
11.3216520818
 21
7.4689496165
  0
LINE
  5
346
100
AcDbEntity
  8
0
100
AcDbLine
 62
7
  6
CONTINUOUS
 10
11.3229329674
 20
10.1661770272
 11
11.3229329674
 21
10.5867762529
  0
LINE
  5
347
100
AcDbEntity
  8
0
100
AcDbLine
 62
4
  6
CONTINUOUS
 10
10.7710743632
 20
7.9426268863
 11
10.7627949888
 21
7.934921698
  0
LINE
  5
348
100
AcDbEntity
  8
0
100
AcDbLine
 62
4
  6
CONTINUOUS
 10
10.361245812
 20
7.5603921131
 11
10.352966479
 21
7.5526869193
  0
LINE
  5
349
100
AcDbEntity
  8
0
100
AcDbLine
 62
4
  6
CONTINUOUS
 10
11.1367462686
 20
8.1557131513
 11
11.1533049967
 21
8.1711235294
  0
LINE
  5
34A
100
AcDbEntity
  8
0
100
AcDbLine
 62
4
  6
CONTINUOUS
 10
10.7793537238
 20
7.8758177915
 11
10.7655547802
 21
7.8684953909
  0
LINE
  5
34B
100
AcDbEntity
  8
0
100
AcDbLine
 62
4
  6
CONTINUOUS
 10
11.216780121
 20
8.0949670193
 11
11.2609367326
 21
8.1139830555
  0
LINE
  5
34C
100
AcDbEntity
  8
0
100
AcDbLine
 62
4
  6
CONTINUOUS
 10
11.7336885847
 20
7.5368293389
 11
11.7336885847
 21
7.5561478516
  0
LINE
  5
34D
100
AcDbEntity
  8
0
100
AcDbLine
 62
7
  6
CONTINUOUS
 10
11.7448589463
 20
10.1369163612
 11
11.7448589463
 21
10.5575155869
  0
LINE
  5
34E
100
AcDbEntity
  8
0
100
AcDbLine
 62
4
  6
CONTINUOUS
 10
10.64550396
 20
7.5820755638
 11
10.6289452388
 21
7.574944551
  0
LINE
  5
34F
100
AcDbEntity
  8
0
100
AcDbLine
 62
7
  6
CONTINUOUS
 10
11.8020683849
 20
10.1408838562
 11
11.8020683849
 21
10.561483082
  0
LINE
  5
350
100
AcDbEntity
  8
0
100
AcDbLine
 62
7
  6
CONTINUOUS
 10
11.881475181
 20
9.5550246546
 11
11.881475181
 21
6.1742840623
  0
LINE
  5
351
100
AcDbEntity
  8
0
100
AcDbLine
 62
4
  6
CONTINUOUS
 10
11.1891822433
 20
7.5774888064
 11
11.1726235222
 21
7.5620784278
  0
LINE
  5
352
100
AcDbEntity
  8
0
100
AcDbLine
 62
4
  6
CONTINUOUS
 10
11.2802552581
 20
7.5711728714
 11
11.26369653
 21
7.5557624932
  0
LINE
  5
353
100
AcDbEntity
  8
0
100
AcDbLine
 62
4
  6
CONTINUOUS
 10
10.802811894
 20
7.5297694013
 11
10.7862531728
 21
7.522638385
  0
LINE
  5
354
100
AcDbEntity
  8
0
100
AcDbLine
 62
7
  6
CONTINUOUS
 10
12.0746333455
 20
10.1253445873
 11
12.0746333455
 21
10.1864214899
  0
LINE
  5
355
100
AcDbEntity
  8
0
100
AcDbLine
 62
7
  6
CONTINUOUS
 10
12.1109395519
 20
10.2208255661
 11
12.1109395519
 21
10.6414247919
  0
LINE
  5
356
100
AcDbEntity
  8
0
100
AcDbLine
 62
7
  6
CONTINUOUS
 10
12.1262687631
 20
10.2356324479
 11
12.1262687631
 21
10.6562316737
  0
LINE
  5
357
100
AcDbEntity
  8
0
100
AcDbLine
 62
4
  6
CONTINUOUS
 10
11.7843996925
 20
7.6009273197
 11
11.7916441364
 21
7.6294026917
  0
LINE
  5
358
100
AcDbEntity
  8
0
100
AcDbLine
 62
7
  6
CONTINUOUS
 10
12.3196015043
 20
8.2584418177
 11
12.3189533212
 21
8.2578272668
  0
LINE
  5
359
100
AcDbEntity
  8
0
100
AcDbLine
 62
4
  6
CONTINUOUS
 10
11.3216520818
 20
7.4689496165
 11
11.305093352
 21
7.4535392403
  0
LINE
  5
35A
100
AcDbEntity
  8
0
100
AcDbLine
 62
7
  6
CONTINUOUS
 10
9.4067730324
 20
9.7266458315
 11
11.881475181
 21
9.5550246546
  0
LINE
  5
35B
100
AcDbEntity
  8
0
100
AcDbLine
 62
4
  6
CONTINUOUS
 10
11.7336885847
 20
7.5561478516
 11
11.7409330287
 21
7.5653047109
  0
LINE
  5
35C
100
AcDbEntity
  8
0
100
AcDbLine
 62
4
  6
CONTINUOUS
 10
11.7699108046
 20
7.5826136114
 11
11.7843996925
 21
7.6009273197
  0
LINE
  5
35D
100
AcDbEntity
  8
0
100
AcDbLine
 62
4
  6
CONTINUOUS
 10
11.7916441364
 20
7.5328101078
 11
11.7843996925
 21
7.5236532485
  0
LINE
  5
35E
100
AcDbEntity
  8
0
100
AcDbLine
 62
4
  6
CONTINUOUS
 10
11.2058100294
 20
6.7649578677
 11
11.2202989173
 21
6.7832715769
  0
LINE
  5
35F
100
AcDbEntity
  8
0
100
AcDbLine
 62
4
  6
CONTINUOUS
 10
11.2130544734
 20
6.7064999121
 11
11.2202989173
 21
6.7156567645
  0
LINE
  5
360
100
AcDbEntity
  8
0
100
AcDbLine
 62
4
  6
CONTINUOUS
 10
11.7409330287
 20
7.5653047109
 11
11.7699108046
 21
7.5826136114
  0
LINE
  5
361
100
AcDbEntity
  8
0
100
AcDbLine
 62
4
  6
CONTINUOUS
 10
11.7843996925
 20
7.5236532485
 11
11.7699108046
 21
7.5149987999
  0
LINE
  5
362
100
AcDbEntity
  8
0
100
AcDbLine
 62
4
  6
CONTINUOUS
 10
10.91667041
 20
10.1430948443
 11
10.9108934335
 21
10.1475147132
  0
LINE
  5
363
100
AcDbEntity
  8
0
100
AcDbLine
 62
4
  6
CONTINUOUS
 10
10.9457875279
 20
10.1712198221
 11
10.9400105514
 21
10.1756396911
  0
LINE
  5
364
100
AcDbEntity
  8
0
100
AcDbLine
 62
4
  6
CONTINUOUS
 10
11.0540269633
 20
10.1757710945
 11
11.0598039372
 21
10.1713512258
  0
LINE
  5
365
100
AcDbEntity
  8
0
100
AcDbLine
 62
4
  6
CONTINUOUS
 10
11.0079040461
 20
10.2312197748
 11
11.0021270695
 21
10.2356396438
  0
LINE
  5
366
100
AcDbEntity
  8
0
100
AcDbLine
 62
4
  6
CONTINUOUS
 10
11.1161434814
 20
10.2357710472
 11
11.1219204554
 21
10.2313511785
  0
LINE
  5
367
100
AcDbEntity
  8
0
100
AcDbLine
 62
7
  6
CONTINUOUS
 10
11.235265691
 20
10.1718739513
 11
11.2253293502
 21
10.1811207595
  0
LINE
  5
368
100
AcDbEntity
  8
0
100
AcDbLine
 62
7
  6
CONTINUOUS
 10
12.5932269676
 20
6.8617835357
 11
12.5932269676
 21
10.242524128
  0
LINE
  5
369
100
AcDbEntity
  8
0
100
AcDbLine
 62
4
  6
CONTINUOUS
 10
11.2202989173
 20
6.7832715769
 11
11.2347878053
 21
6.791926028
  0
LINE
  5
36A
100
AcDbEntity
  8
0
100
AcDbLine
 62
4
  6
CONTINUOUS
 10
11.2202989173
 20
6.7156567645
 11
11.2347878053
 21
6.72431122
  0
LINE
  5
36B
100
AcDbEntity
  8
0
100
AcDbLine
 62
4
  6
CONTINUOUS
 10
11.2637655811
 20
6.6836645653
 11
11.2492766932
 21
6.6750101168
  0
LINE
  5
36C
100
AcDbEntity
  8
0
100
AcDbLine
 62
4
  6
CONTINUOUS
 10
11.0268045369
 20
10.1394762509
 11
11.0132629982
 21
10.1363961256
  0
LINE
  5
36D
100
AcDbEntity
  8
0
100
AcDbLine
 62
4
  6
CONTINUOUS
 10
11.0559216548
 20
10.1676012287
 11
11.0423801161
 21
10.1645211034
  0
LINE
  5
36E
100
AcDbEntity
  8
0
100
AcDbLine
 62
4
  6
CONTINUOUS
 10
10.9438928338
 20
10.1793896881
 11
10.957434375
 21
10.1824698133
  0
LINE
  5
36F
100
AcDbEntity
  8
0
100
AcDbLine
 62
4
  6
CONTINUOUS
 10
11.118038173
 20
10.2276011814
 11
11.1044966343
 21
10.2245210561
  0
LINE
  5
370
100
AcDbEntity
  8
0
100
AcDbLine
 62
4
  6
CONTINUOUS
 10
11.0060093519
 20
10.2393896408
 11
11.0195508932
 21
10.242469766
  0
LINE
  5
371
100
AcDbEntity
  8
0
100
AcDbLine
 62
4
  6
CONTINUOUS
 10
11.0132629982
 20
10.1363961256
 11
10.9900621963
 21
10.1339858724
  0
LINE
  5
372
100
AcDbEntity
  8
0
100
AcDbLine
 62
4
  6
CONTINUOUS
 10
11.0423801161
 20
10.1645211034
 11
11.0307797117
 21
10.1633159771
  0
LINE
  5
373
100
AcDbEntity
  8
0
100
AcDbLine
 62
4
  6
CONTINUOUS
 10
10.957434375
 20
10.1824698133
 11
10.9806351744
 21
10.1848800666
  0
LINE
  5
374
100
AcDbEntity
  8
0
100
AcDbLine
 62
4
  6
CONTINUOUS
 10
11.1044966343
 20
10.2245210561
 11
11.0928962299
 21
10.2233159297
  0
LINE
  5
375
100
AcDbEntity
  8
0
100
AcDbLine
 62
4
  6
CONTINUOUS
 10
11.0966856198
 20
10.2069761977
 11
10.9652453869
 21
10.2000146718
  0
LINE
  5
376
100
AcDbEntity
  8
0
100
AcDbLine
 62
4
  6
CONTINUOUS
 10
10.9900621963
 20
10.1339858724
 11
10.9591432792
 21
10.1341204895
  0
LINE
  5
377
100
AcDbEntity
  8
0
100
AcDbLine
 62
4
  6
CONTINUOUS
 10
10.9806351744
 20
10.1848800666
 11
11.0115540914
 21
10.1847454496
  0
LINE
  5
378
100
AcDbEntity
  8
0
100
AcDbLine
 62
4
  6
CONTINUOUS
 10
10.9186579982
 20
10.1550147073
 11
11.0345691017
 21
10.146976245
  0
LINE
  5
379
100
AcDbEntity
  8
0
100
AcDbLine
 62
4
  6
CONTINUOUS
 10
10.9591432792
 20
10.1341204895
 11
10.9321066446
 21
10.1380051036
  0
LINE
  5
37A
100
AcDbEntity
  8
0
100
AcDbLine
 62
4
  6
CONTINUOUS
 10
11.0115540914
 20
10.1847454496
 11
11.0385907261
 21
10.1808608354
  0
LINE
  5
37B
100
AcDbEntity
  8
0
100
AcDbLine
 62
4
  6
CONTINUOUS
 10
10.9807745164
 20
10.21501466
 11
11.0811564903
 21
10.1919762095
  0
LINE
  5
37C
100
AcDbEntity
  8
0
100
AcDbLine
 62
4
  6
CONTINUOUS
 10
10.9321066446
 20
10.1380051036
 11
10.91667041
 21
10.1430948443
  0
LINE
  5
37D
100
AcDbEntity
  8
0
100
AcDbLine
 62
4
  6
CONTINUOUS
 10
10.9535056456
 20
10.1686749517
 11
10.9457875279
 21
10.1712198221
  0
LINE
  5
37E
100
AcDbEntity
  8
0
100
AcDbLine
 62
4
  6
CONTINUOUS
 10
11.0385907261
 20
10.1808608354
 11
11.0540269633
 21
10.1757710945
  0
LINE
  5
37F
100
AcDbEntity
  8
0
100
AcDbLine
 62
4
  6
CONTINUOUS
 10
11.0156221638
 20
10.2286749044
 11
11.0079040461
 21
10.2312197748
  0
LINE
  5
380
100
AcDbEntity
  8
0
100
AcDbLine
 62
4
  6
CONTINUOUS
 10
11.1007072443
 20
10.2408607881
 11
11.1161434814
 21
10.2357710472
  0
LINE
  5
381
100
AcDbEntity
  8
0
100
AcDbLine
 62
4
  6
CONTINUOUS
 10
11.0195508932
 20
10.242469766
 11
11.0427516926
 21
10.2448800193
  0
LINE
  5
382
100
AcDbEntity
  8
0
100
AcDbLine
 62
4
  6
CONTINUOUS
 10
11.0427516926
 20
10.2448800193
 11
11.0736706096
 21
10.2447454022
  0
LINE
  5
383
100
AcDbEntity
  8
0
100
AcDbLine
 62
7
  6
CONTINUOUS
 10
10.118524819
 20
10.4141453049
 11
11.1679979279
 21
10.3413640976
  0
LINE
  5
384
100
AcDbEntity
  8
0
100
AcDbLine
 62
7
  6
CONTINUOUS
 10
12.1262687631
 20
10.2749077895
 11
12.5932269676
 21
10.242524128
  0
LINE
  5
385
100
AcDbEntity
  8
0
100
AcDbLine
 62
4
  6
CONTINUOUS
 10
11.0736706096
 20
10.2447454022
 11
11.1007072443
 21
10.2408607881
  0
LINE
  5
386
100
AcDbEntity
  8
0
100
AcDbLine
 62
7
  6
CONTINUOUS
 10
11.881475181
 20
6.1742840623
 11
12.5932269676
 21
6.8617835357
  0
LINE
  5
387
100
AcDbEntity
  8
0
100
AcDbLine
 62
7
  6
CONTINUOUS
 10
12.0443225075
 20
10.7580253347
 11
12.0280196833
 21
10.7660786177
  0
ARC
  5
388
100
AcDbEntity
  8
0
100
AcDbCircle
 62
7
  6
CONTINUOUS
 10
11.6549356022
 20
11.8480198084
 40
1.7134646816
100
AcDbArc
 50
273.0082884861
 51
274.9259735842
  0
ARC
  5
389
100
AcDbEntity
  8
0
100
AcDbCircle
 62
7
  6
CONTINUOUS
 10
11.6549356022
 20
12.2686190342
 40
1.7134646816
100
AcDbArc
 50
273.0082884861
 51
274.9259735842
  0
ARC
  5
38A
100
AcDbEntity
  8
0
100
AcDbCircle
 62
7
  6
CONTINUOUS
 10
10.9522951269
 20
5.1604999037
 40
1.606272746
100
AcDbArc
 50
91.4757755535
 51
93.1848017572
  0
ARC
  5
38B
100
AcDbEntity
  8
0
100
AcDbCircle
 62
7
  6
CONTINUOUS
 10
10.9093208849
 20
6.9540090858
 40
0.1954319986
100
AcDbArc
 50
268.2574871112
 51
270.7506272418
  0
ARC
  5
38C
100
AcDbEntity
  8
0
100
AcDbCircle
 62
7
  6
CONTINUOUS
 10
12.3052146527
 20
8.2235977492
 40
0.0147409655
100
AcDbArc
 50
86.0355735727
 51
92.3770878316
  0
ARC
  5
38D
100
AcDbEntity
  8
0
100
AcDbCircle
 62
7
  6
CONTINUOUS
 10
12.2747379019
 20
7.7841348482
 40
0.0147406186
100
AcDbArc
 50
259.8277854465
 51
266.0297713927
  0
SPLINE
  5
38E
100
AcDbEntity
  8
0
100
AcDbSpline
 62
7
  6
CONTINUOUS
 70
0
 71
3
 72
9
 73
5
 74
0
 42
0.0000001
 43
0.0000001
 44
0.0000000001
 40
0.0
 40
0.0
 40
0.0
 40
0.0
 40
0.4864210225
 40
1.0
 40
1.0
 40
1.0
 40
1.0
 10
12.1262687631
 20
10.2356324479
 30
0.0
 10
12.1252550561
 20
10.2343460978
 30
0.0
 10
12.1230685659
 20
10.2317813131
 30
0.0
 10
12.1207148468
 20
10.2293702489
 30
0.0
 10
12.1194711025
 20
10.2281688842
 30
0.0
  0
SPLINE
  5
38F
100
AcDbEntity
  8
0
100
AcDbSpline
 62
7
  6
CONTINUOUS
 70
0
 71
3
 72
9
 73
5
 74
0
 42
0.0000001
 43
0.0000001
 44
0.0000000001
 40
0.0
 40
0.0
 40
0.0
 40
0.0
 40
0.5135789775
 40
1.0
 40
1.0
 40
1.0
 40
1.0
 10
11.1747955885
 20
10.7142815793
 30
0.0
 10
11.1735518442
 20
10.7130802146
 30
0.0
 10
11.1711981251
 20
10.7106691504
 30
0.0
 10
11.1690116349
 20
10.7081043657
 30
0.0
 10
11.1679979279
 20
10.7068180156
 30
0.0
  0
SPLINE
  5
390
100
AcDbEntity
  8
0
100
AcDbSpline
 62
7
  6
CONTINUOUS
 70
0
 71
3
 72
9
 73
5
 74
0
 42
0.0000001
 43
0.0000001
 44
0.0000000001
 40
0.0
 40
0.0
 40
0.0
 40
0.0
 40
0.5134917843
 40
1.0
 40
1.0
 40
1.0
 40
1.0
 10
11.1833271391
 20
10.7216248974
 30
0.0
 10
11.1818035058
 20
10.7204444033
 30
0.0
 10
11.1788901998
 20
10.7180746989
 30
0.0
 10
11.1761090585
 20
10.715550294
 30
0.0
 10
11.1747955885
 20
10.7142815793
 30
0.0
  0
SPLINE
  5
391
100
AcDbEntity
  8
0
100
AcDbSpline
 62
7
  6
CONTINUOUS
 70
0
 71
3
 72
21
 73
17
 74
0
 42
0.0000001
 43
0.0000001
 44
0.0000000001
 40
0.0
 40
0.0
 40
0.0
 40
0.0
 40
0.1552847778
 40
0.3037675224
 40
0.3751527953
 40
0.4444666907
 40
0.5115812513
 40
0.5763697456
 40
0.6387130726
 40
0.6985013802
 40
0.75563826
 40
0.8100514809
 40
0.8616894053
 40
0.9105385226
 40
0.9566200086
 40
1.0
 40
1.0
 40
1.0
 40
1.0
 10
11.1679979279
 20
10.2862187898
 30
0.0
 10
11.1702204189
 20
10.2803674362
 30
0.0
 10
11.1746810079
 20
10.2689634369
 30
0.0
 10
11.1805333642
 20
10.2550179122
 30
0.0
 10
11.1852905144
 20
10.2443759801
 30
0.0
 10
11.1888387939
 20
10.2367875665
 30
0.0
 10
11.1924134507
 20
10.2295065423
 30
0.0
 10
11.196013546
 20
10.2225528602
 30
0.0
 10
11.1996377154
 20
10.2159464666
 30
0.0
 10
11.2032838
 20
10.2097066814
 30
0.0
 10
11.2069502314
 20
10.2038525209
 30
0.0
 10
11.2106336934
 20
10.1984009994
 30
0.0
 10
11.2143320711
 20
10.1933682288
 30
0.0
 10
11.2180417978
 20
10.1887673396
 30
0.0
 10
11.2217595044
 20
10.1846094704
 30
0.0
 10
11.2243168628
 20
10.1820632708
 30
0.0
 10
11.2255968597
 20
10.180872023
 30
0.0
  0
SPLINE
  5
392
100
AcDbEntity
  8
0
100
AcDbSpline
 62
7
  6
CONTINUOUS
 70
0
 71
3
 72
23
 73
19
 74
0
 42
0.0000001
 43
0.0000001
 44
0.0000000001
 40
0.0
 40
0.0
 40
0.0
 40
0.0
 40
0.0809714987
 40
0.1598878899
 40
0.2366108848
 40
0.3110078346
 40
0.3829543555
 40
0.452338501
 40
0.5190632519
 40
0.5830593386
 40
0.6442825111
 40
0.7027298252
 40
0.7584316548
 40
0.8114689998
 40
0.8619596659
 40
0.910071818
 40
0.9560056935
 40
1.0
 40
1.0
 40
1.0
 40
1.0
 10
12.1262687631
 20
10.6562316737
 30
0.0
 10
12.1246206976
 20
10.6594096218
 30
0.0
 10
12.1213216291
 20
10.6656618019
 30
0.0
 10
12.1162906014
 20
10.6748340371
 30
0.0
 10
12.1112383492
 20
10.6836613525
 30
0.0
 10
12.1061658128
 20
10.69211981
 30
0.0
 10
12.1010737456
 20
10.7001854939
 30
0.0
 10
12.095964016
 20
10.7078355281
 30
0.0
 10
12.0908378517
 20
10.7150476931
 30
0.0
 10
12.0856981783
 20
10.7218024507
 30
0.0
 10
12.0805466138
 20
10.7280818868
 30
0.0
 10
12.0753869454
 20
10.7338725238
 30
0.0
 10
12.0702210547
 20
10.7391631331
 30
0.0
 10
12.0650532146
 20
10.7439483694
 30
0.0
 10
12.0598854953
 20
10.7482252357
 30
0.0
 10
12.0547221023
 20
10.7519973331
 30
0.0
 10
12.0495656301
 20
10.7552700079
 30
0.0
 10
12.0460654995
 20
10.7571643145
 30
0.0
 10
12.0443216182
 20
10.7580257741
 30
0.0
  0
SPLINE
  5
393
100
AcDbEntity
  8
0
100
AcDbSpline
 62
7
  6
CONTINUOUS
 70
0
 71
3
 72
46
 73
42
 74
0
 42
0.0000001
 43
0.0000001
 44
0.0000000001
 40
0.0
 40
0.0
 40
0.0
 40
0.0
 40
0.0099874877
 40
0.0204476974
 40
0.0313773321
 40
0.0427709641
 40
0.0546220461
 40
0.0669229866
 40
0.0928356094
 40
0.1204266613
 40
0.1495981687
 40
0.1802404541
 40
0.2122337752
 40
0.2454491038
 40
0.2797499018
 40
0.3149932014
 40
0.3510301972
 40
0.3877076002
 40
0.4248685405
 40
0.462353288
 40
0.500000408
 40
0.5376475404
 40
0.5751322603
 40
0.612293149
 40
0.6489704979
 40
0.6850073789
 40
0.7202505939
 40
0.7545513209
 40
0.7877664595
 40
0.8197596255
 40
0.8504018125
 40
0.8795730869
 40
0.9071639551
 40
0.9203360434
 40
0.9330775683
 40
0.945378314
 40
0.9572292775
 40
0.9686228886
 40
0.9795523843
 40
0.9900125565
 40
1.0
 40
1.0
 40
1.0
 40
1.0
 10
12.0280215585
 20
10.7660776376
 30
0.0
 10
12.0257045665
 20
10.7672221978
 30
0.0
 10
12.0209213594
 20
10.7694860674
 30
0.0
 10
12.0134817726
 20
10.7727396785
 30
0.0
 10
12.0056191325
 20
10.7759260252
 30
0.0
 10
11.9973426435
 20
10.7790416291
 30
0.0
 10
11.9886617195
 20
10.7820829118
 30
0.0
 10
11.9763463803
 20
10.7861037538
 30
0.0
 10
11.9600037098
 20
10.7908981158
 30
0.0
 10
11.9392767707
 20
10.7962064283
 30
0.0
 10
11.9172021241
 20
10.8011405484
 30
0.0
 10
11.8938813742
 20
10.8056773807
 30
0.0
 10
11.8694216348
 20
10.809795473
 30
0.0
 10
11.8439356137
 20
10.8134756773
 30
0.0
 10
11.8175408161
 20
10.8167007943
 30
0.0
 10
11.7903589951
 20
10.8194555777
 30
0.0
 10
11.7625156233
 20
10.8217272648
 30
0.0
 10
11.7341392787
 20
10.8235052877
 30
0.0
 10
11.7053610087
 20
10.8247811876
 30
0.0
 10
11.6763137429
 20
10.8255491052
 30
0.0
 10
11.6471316709
 20
10.8258055146
 30
0.0
 10
11.617949606
 20
10.8255490698
 30
0.0
 10
11.5889023602
 20
10.8247810483
 30
0.0
 10
11.560124127
 20
10.8235051082
 30
0.0
 10
11.5317478407
 20
10.8217270587
 30
0.0
 10
11.5039045431
 20
10.8194552683
 30
0.0
 10
11.4767227969
 20
10.8167004432
 30
0.0
 10
11.4503280925
 20
10.8134753088
 30
0.0
 10
11.424842189
 20
10.8097950067
 30
0.0
 10
11.4003825921
 20
10.8056768676
 30
0.0
 10
11.3770619062
 20
10.8011400507
 30
0.0
 10
11.3549876382
 20
10.7962057781
 30
0.0
 10
11.3374542737
 20
10.7917156184
 30
0.0
 10
11.3241376371
 20
10.7879272894
 30
0.0
 10
11.3146782596
 20
10.7850454169
 30
0.0
 10
11.3056029452
 20
10.7820821834
 30
0.0
 10
11.2969221259
 20
10.7790409177
 30
0.0
 10
11.2886456916
 20
10.7759253582
 30
0.0
 10
11.2807831519
 20
10.7727389007
 30
0.0
 10
11.2733436496
 20
10.7694852414
 30
0.0
 10
11.2685604568
 20
10.7672213914
 30
0.0
 10
11.2662434779
 20
10.7660768303
 30
0.0
  0
SPLINE
  5
394
100
AcDbEntity
  8
0
100
AcDbSpline
 62
7
  6
CONTINUOUS
 70
0
 71
3
 72
9
 73
5
 74
0
 42
0.0000001
 43
0.0000001
 44
0.0000000001
 40
0.0
 40
0.0
 40
0.0
 40
0.0
 40
0.496008294
 40
1.0
 40
1.0
 40
1.0
 40
1.0
 10
11.2411086344
 20
10.753660739
 30
0.0
 10
11.2313125675
 20
10.7488214659
 30
0.0
 10
11.2118159031
 20
10.7385469526
 30
0.0
 10
11.1928004864
 20
10.7274137725
 30
0.0
 10
11.1833271391
 20
10.7216248974
 30
0.0
  0
SPLINE
  5
395
100
AcDbEntity
  8
0
100
AcDbSpline
 62
7
  6
CONTINUOUS
 70
0
 71
3
 72
9
 73
5
 74
0
 42
0.0000001
 43
0.0000001
 44
0.0000000001
 40
0.0
 40
0.0
 40
0.0
 40
0.0
 40
0.4867517121
 40
1.0
 40
1.0
 40
1.0
 40
1.0
 10
11.2810527399
 20
10.1770164139
 30
0.0
 10
11.2877906399
 20
10.175047243
 30
0.0
 10
11.3017019417
 20
10.1712345826
 30
0.0
 10
11.315718186
 20
10.1678307232
 30
0.0
 10
11.3229329674
 20
10.1661770272
 30
0.0
  0
SPLINE
  5
396
100
AcDbEntity
  8
0
100
AcDbSpline
 62
7
  6
CONTINUOUS
 70
0
 71
3
 72
9
 73
5
 74
0
 42
0.0000001
 43
0.0000001
 44
0.0000000001
 40
0.0
 40
0.0
 40
0.0
 40
0.0
 40
0.2585900006
 40
1.0
 40
1.0
 40
1.0
 40
1.0
 10
12.1109395519
 20
10.2208255661
 30
0.0
 10
12.1115923871
 20
10.2213313755
 30
0.0
 10
12.1140969158
 20
10.2233130264
 30
0.0
 10
12.1165187589
 20
10.2254002652
 30
0.0
 10
12.1182521315
 20
10.2270133498
 30
0.0
  0
SPLINE
  5
397
100
AcDbEntity
  8
0
100
AcDbSpline
 62
7
  6
CONTINUOUS
 70
0
 71
3
 72
9
 73
5
 74
0
 42
0.0000001
 43
0.0000001
 44
0.0000000001
 40
0.0
 40
0.0
 40
0.0
 40
0.0
 40
0.5134917843
 40
1.0
 40
1.0
 40
1.0
 40
1.0
 10
12.1109395519
 20
10.6414247919
 30
0.0
 10
12.1124631852
 20
10.6426052859
 30
0.0
 10
12.1153764912
 20
10.6449749903
 30
0.0
 10
12.1181576325
 20
10.6474993952
 30
0.0
 10
12.1194711025
 20
10.6487681099
 30
0.0
  0
SPLINE
  5
398
100
AcDbEntity
  8
0
100
AcDbSpline
 62
7
  6
CONTINUOUS
 70
0
 71
3
 72
9
 73
5
 74
0
 42
0.0000001
 43
0.0000001
 44
0.0000000001
 40
0.0
 40
0.0
 40
0.0
 40
0.0
 40
0.4867517121
 40
1.0
 40
1.0
 40
1.0
 40
1.0
 10
11.2810527399
 20
10.5976156397
 30
0.0
 10
11.2877906399
 20
10.5956464687
 30
0.0
 10
11.3017019417
 20
10.5918338083
 30
0.0
 10
11.315718186
 20
10.5884299489
 30
0.0
 10
11.3229329674
 20
10.5867762529
 30
0.0
  0
SPLINE
  5
399
100
AcDbEntity
  8
0
100
AcDbSpline
 62
7
  6
CONTINUOUS
 70
0
 71
3
 72
9
 73
5
 74
0
 42
0.0000001
 43
0.0000001
 44
0.0000000001
 40
0.0
 40
0.0
 40
0.0
 40
0.0
 40
0.5135789775
 40
1.0
 40
1.0
 40
1.0
 40
1.0
 10
12.1194711025
 20
10.6487681099
 30
0.0
 10
12.1207148468
 20
10.6499694747
 30
0.0
 10
12.1230685659
 20
10.6523805388
 30
0.0
 10
12.1252550561
 20
10.6549453236
 30
0.0
 10
12.1262687631
 20
10.6562316737
 30
0.0
  0
SPLINE
  5
39A
100
AcDbEntity
  8
0
100
AcDbSpline
 62
7
  6
CONTINUOUS
 70
0
 71
3
 72
23
 73
19
 74
0
 42
0.0000001
 43
0.0000001
 44
0.0000000001
 40
0.0
 40
0.0
 40
0.0
 40
0.0
 40
0.0421785856
 40
0.0850534373
 40
0.1291226147
 40
0.1749466526
 40
0.2231084649
 40
0.2741717322
 40
0.3286399951
 40
0.3869169438
 40
0.44928418
 40
0.5158962693
 40
0.5867820207
 40
0.6618606059
 40
0.7409667875
 40
0.8238724696
 40
0.910312794
 40
1.0
 40
1.0
 40
1.0
 40
1.0
 10
11.1679979279
 20
10.7068180156
 30
0.0
 10
11.1703159823
 20
10.7068097672
 30
0.0
 10
11.1749930569
 20
10.70657075
 30
0.0
 10
11.1820192176
 20
10.7054912623
 30
0.0
 10
11.1890881791
 20
10.7036272412
 30
0.0
 10
11.1961913374
 20
10.7009208798
 30
0.0
 10
11.2033199089
 20
10.6973227539
 30
0.0
 10
11.2104647748
 20
10.6927943077
 30
0.0
 10
11.2176168989
 20
10.6873089819
 30
0.0
 10
11.2247681616
 20
10.680855119
 30
0.0
 10
11.2319112167
 20
10.6734363342
 30
0.0
 10
11.2390386115
 20
10.665070815
 30
0.0
 10
11.2461437539
 20
10.6557911784
 30
0.0
 10
11.2532211181
 20
10.6456422069
 30
0.0
 10
11.2602656624
 20
10.6346773987
 30
0.0
 10
11.2672737682
 20
10.6229561473
 30
0.0
 10
11.2742430154
 20
10.6105409763
 30
0.0
 10
11.2787835441
 20
10.6019913072
 30
0.0
 10
11.2810527399
 20
10.5976156397
 30
0.0
  0
SPLINE
  5
39B
100
AcDbEntity
  8
0
100
AcDbSpline
 62
7
  6
CONTINUOUS
 70
0
 71
3
 72
21
 73
17
 74
0
 42
0.0000001
 43
0.0000001
 44
0.0000000001
 40
0.0
 40
0.0
 40
0.0
 40
0.0
 40
0.1230814817
 40
0.1847942657
 40
0.2466337258
 40
0.3086097846
 40
0.3707312098
 40
0.4330051319
 40
0.4954352436
 40
0.5580223626
 40
0.6207641208
 40
0.6836547008
 40
0.7466862848
 40
0.8098488395
 40
0.8731308835
 40
1.0
 40
1.0
 40
1.0
 40
1.0
 10
11.3229329674
 20
10.5867762529
 30
0.0
 10
11.3401856079
 20
10.5900286364
 30
0.0
 10
11.3662167455
 20
10.5942793548
 30
0.0
 10
11.4011533357
 20
10.5984467042
 30
0.0
 10
11.4275200334
 20
10.6007687506
 30
0.0
 10
11.4540071001
 20
10.6022284507
 30
0.0
 10
11.4805911592
 20
10.6027785925
 30
0.0
 10
11.5072430235
 20
10.6023821609
 30
0.0
 10
11.5339295164
 20
10.6010171733
 30
0.0
 10
11.5606152882
 20
10.5986783498
 30
0.0
 10
11.5872649913
 20
10.5953760604
 30
0.0
 10
11.6138456555
 20
10.5911370407
 30
0.0
 10
11.6403284988
 20
10.5860023995
 30
0.0
 10
11.6666903761
 20
10.5800226517
 30
0.0
 10
11.7016810506
 20
10.570993532
 30
0.0
 10
11.7276595092
 20
10.5631435107
 30
0.0
 10
11.7448589463
 20
10.5575155869
 30
0.0
  0
SPLINE
  5
39C
100
AcDbEntity
  8
0
100
AcDbSpline
 62
7
  6
CONTINUOUS
 70
0
 71
3
 72
28
 73
24
 74
0
 42
0.0000001
 43
0.0000001
 44
0.0000000001
 40
0.0
 40
0.0
 40
0.0
 40
0.0
 40
0.0640274484
 40
0.1279405369
 40
0.1917105404
 40
0.2553123355
 40
0.3187161223
 40
0.3818930725
 40
0.4133919091
 40
0.4448254452
 40
0.4761912782
 40
0.5074882562
 40
0.5387156619
 40
0.5698732312
 40
0.6009621492
 40
0.6319833386
 40
0.6938248821
 40
0.7554274775
 40
0.8168179251
 40
0.8780243018
 40
0.9085700262
 40
0.9390802882
 40
1.0
 40
1.0
 40
1.0
 40
1.0
 10
11.3229329674
 20
10.1661770272
 30
0.0
 10
11.331233818
 20
10.1618939035
 30
0.0
 10
11.3479648777
 20
10.1536105162
 30
0.0
 10
11.373484044
 20
10.1421485299
 30
0.0
 10
11.3994078223
 20
10.1317942674
 30
0.0
 10
11.4257209974
 20
10.1226922114
 30
0.0
 10
11.4523888271
 20
10.114988737
 30
0.0
 10
11.4748842592
 20
10.1098445051
 30
0.0
 10
11.4929883313
 20
10.1065574497
 30
0.0
 10
11.5065955867
 20
10.1045187231
 30
0.0
 10
11.5202309143
 20
10.1029120459
 30
0.0
 10
11.5338807655
 20
10.1017449689
 30
0.0
 10
11.5475306988
 20
10.1010178191
 30
0.0
 10
11.5611666062
 20
10.1007322867
 30
0.0
 10
11.5747746556
 20
10.1008827602
 30
0.0
 10
11.5928434801
 20
10.1016560358
 30
0.0
 10
11.6153029696
 20
10.1036714396
 30
0.0
 10
11.6419839263
 20
10.1076725462
 30
0.0
 10
11.668310288
 20
10.1131232604
 30
0.0
 10
11.6899387606
 20
10.1187590853
 30
0.0
 10
11.7070343555
 20
10.1238504434
 30
0.0
 10
11.7239748767
 20
10.1293006715
 30
0.0
 10
11.7365437212
 20
10.1337791461
 30
0.0
 10
11.7448589463
 20
10.1369163612
 30
0.0
  0
SPLINE
  5
39D
100
AcDbEntity
  8
0
100
AcDbSpline
 62
7
  6
CONTINUOUS
 70
0
 71
3
 72
23
 73
19
 74
0
 42
0.0000001
 43
0.0000001
 44
0.0000000001
 40
0.0
 40
0.0
 40
0.0
 40
0.0
 40
0.0678267902
 40
0.1349724863
 40
0.2013861734
 40
0.2670282176
 40
0.331868046
 40
0.3958905056
 40
0.459098674
 40
0.5215154569
 40
0.5831842269
 40
0.6441654231
 40
0.7045325895
 40
0.7643678524
 40
0.8237547389
 40
0.882773787
 40
0.9415010872
 40
1.0
 40
1.0
 40
1.0
 40
1.0
 10
11.8020683849
 20
10.561483082
 30
0.0
 10
11.8083435016
 20
10.5653176154
 30
0.0
 10
11.8209268272
 20
10.572792546
 30
0.0
 10
11.8400067848
 20
10.5834155319
 30
0.0
 10
11.8591975166
 20
10.5933328717
 30
0.0
 10
11.8784909823
 20
10.6024811465
 30
0.0
 10
11.8978751647
 20
10.6108003926
 30
0.0
 10
11.9173333274
 20
10.6182370442
 30
0.0
 10
11.9368449681
 20
10.6247463286
 30
0.0
 10
11.9563859808
 20
10.6302970394
 30
0.0
 10
11.9759301003
 20
10.6348739706
 30
0.0
 10
11.9954509502
 20
10.6384776383
 30
0.0
 10
12.0149233853
 20
10.6411256167
 30
0.0
 10
12.034325146
 20
10.6428511818
 30
0.0
 10
12.0536381114
 20
10.6436987846
 30
0.0
 10
12.0728488804
 20
10.6437220169
 30
0.0
 10
12.0919480287
 20
10.6429802944
 30
0.0
 10
12.1046244485
 20
10.6420148231
 30
0.0
 10
12.1109395519
 20
10.6414247919
 30
0.0
  0
SPLINE
  5
39E
100
AcDbEntity
  8
0
100
AcDbSpline
 62
7
  6
CONTINUOUS
 70
0
 71
3
 72
27
 73
23
 74
0
 42
0.0000001
 43
0.0000001
 44
0.0000000001
 40
0.0
 40
0.0
 40
0.0
 40
0.0
 40
0.0572742999
 40
0.1144994563
 40
0.1717869223
 40
0.2292938811
 40
0.2872150422
 40
0.3457779489
 40
0.3753824125
 40
0.4052383009
 40
0.4353731703
 40
0.4658134574
 40
0.496580671
 40
0.5276935314
 40
0.5591655803
 40
0.5910057323
 40
0.6557946642
 40
0.7220564543
 40
0.7897212757
 40
0.8586828413
 40
0.9288200633
 40
1.0
 40
1.0
 40
1.0
 40
1.0
 10
11.8020683849
 20
10.1408838562
 30
0.0
 10
11.808143656
 20
10.1387496306
 30
0.0
 10
11.8204013791
 20
10.1347933576
 30
0.0
 10
11.8391051606
 20
10.1299315462
 30
0.0
 10
11.8581132243
 20
10.1262840794
 30
0.0
 10
11.8774140407
 20
10.1239937989
 30
0.0
 10
11.896979888
 20
10.1232002788
 30
0.0
 10
11.913411039
 20
10.1238885575
 30
0.0
 10
11.9266098837
 20
10.1252844445
 30
0.0
 10
11.9365758937
 20
10.1267706055
 30
0.0
 10
11.9465618898
 20
10.1286964533
 30
0.0
 10
11.9565573745
 20
10.1310657333
 30
0.0
 10
11.9665523623
 20
10.1338750698
 30
0.0
 10
11.9765357334
 20
10.1371221482
 30
0.0
 10
11.9864979948
 20
10.14079779
 30
0.0
 10
11.9998153965
 20
10.1462887986
 30
0.0
 10
12.0163573096
 20
10.1541838726
 30
0.0
 10
12.0358665234
 20
10.1650978733
 30
0.0
 10
12.0551122663
 20
10.1773623564
 30
0.0
 10
12.0740714872
 20
10.1908279122
 30
0.0
 10
12.0927349204
 20
10.205349693
 30
0.0
 10
12.1048988412
 20
10.2155765807
 30
0.0
 10
12.1109395519
 20
10.2208255661
 30
0.0
  0
SPLINE
  5
39F
100
AcDbEntity
  8
0
100
AcDbSpline
 62
7
  6
CONTINUOUS
 70
0
 71
3
 72
11
 73
7
 74
0
 42
0.0000001
 43
0.0000001
 44
0.0000000001
 40
0.0
 40
0.0
 40
0.0
 40
0.0
 40
0.2706149479
 40
0.5274053283
 40
0.7704747911
 40
1.0
 40
1.0
 40
1.0
 40
1.0
 10
11.2662434779
 20
10.7660768303
 30
0.0
 10
11.2639849288
 20
10.7649611329
 30
0.0
 10
11.2596182977
 20
10.7627145239
 30
0.0
 10
11.2533654146
 20
10.7591977894
 30
0.0
 10
11.2475883139
 20
10.7556267726
 30
0.0
 10
11.2439555075
 20
10.7531418086
 30
0.0
 10
11.2422249519
 20
10.7518887226
 30
0.0
  0
SPLINE
  5
3A0
100
AcDbEntity
  8
0
100
AcDbSpline
 62
7
  6
CONTINUOUS
 70
0
 71
3
 72
9
 73
5
 74
0
 42
0.0000001
 43
0.0000001
 44
0.0000000001
 40
0.0
 40
0.0
 40
0.0
 40
0.0
 40
0.5180906156
 40
1.0
 40
1.0
 40
1.0
 40
1.0
 10
11.2422249519
 20
10.7518887226
 30
0.0
 10
11.2403267921
 20
10.7505142754
 30
0.0
 10
11.2367396106
 20
10.7477531246
 30
0.0
 10
11.2333530931
 20
10.7447467653
 30
0.0
 10
11.2317852156
 20
10.7432323118
 30
0.0
  0
SPLINE
  5
3A1
100
AcDbEntity
  8
0
100
AcDbSpline
 62
7
  6
CONTINUOUS
 70
0
 71
3
 72
21
 73
17
 74
0
 42
0.0000001
 43
0.0000001
 44
0.0000000001
 40
0.0
 40
0.0
 40
0.0
 40
0.0
 40
0.0777184714
 40
0.1509844854
 40
0.2201919876
 40
0.2858049512
 40
0.3483762676
 40
0.408511364
 40
0.4668501382
 40
0.524040419
 40
0.5806986783
 40
0.6373921441
 40
0.6946119011
 40
0.7527677984
 40
0.8730351627
 40
1.0
 40
1.0
 40
1.0
 40
1.0
 10
11.2255968597
 20
10.180872023
 30
0.0
 10
11.2267586246
 20
10.1797908096
 30
0.0
 10
11.2290808986
 20
10.1777586471
 30
0.0
 10
11.2326697235
 20
10.1750430419
 30
0.0
 10
11.2362534246
 20
10.1727507541
 30
0.0
 10
11.2398297707
 20
10.1708794408
 30
0.0
 10
11.2433950537
 20
10.1694221291
 30
0.0
 10
11.2469460697
 20
10.168370367
 30
0.0
 10
11.2504793478
 20
10.1677138281
 30
0.0
 10
11.253991216
 20
10.1674384777
 30
0.0
 10
11.2574787121
 20
10.1675301543
 30
0.0
 10
11.2609393435
 20
10.16797181
 30
0.0
 10
11.2643717832
 20
10.168746217
 30
0.0
 10
11.2689595676
 20
10.1702152356
 30
0.0
 10
11.2746459626
 20
10.1728338242
 30
0.0
 10
11.2789296728
 20
10.1755282663
 30
0.0
 10
11.2810527399
 20
10.1770164139
 30
0.0
  0
SPLINE
  5
3A2
100
AcDbEntity
  8
0
100
AcDbSpline
 62
7
  6
CONTINUOUS
 70
0
 71
3
 72
55
 73
51
 74
0
 42
0.0000001
 43
0.0000001
 44
0.0000000001
 40
0.0
 40
0.0
 40
0.0
 40
0.0
 40
0.0077403341
 40
0.0160536402
 40
0.0249598623
 40
0.0344711287
 40
0.0445943245
 40
0.0553311103
 40
0.0666791717
 40
0.0786331753
 40
0.0911842811
 40
0.1043217537
 40
0.1180322524
 40
0.1323005199
 40
0.147109859
 40
0.1624414338
 40
0.1782755067
 40
0.1945906822
 40
0.2285722865
 40
0.2641945926
 40
0.3012498561
 40
0.3395178674
 40
0.37876815
 40
0.4187620874
 40
0.4592551245
 40
0.4999987486
 40
0.5407423938
 40
0.5812354618
 40
0.6212294331
 40
0.6604797572
 40
0.6987478627
 40
0.7358032525
 40
0.7714256644
 40
0.8054073565
 40
0.8217226506
 40
0.8375567141
 40
0.8528884296
 40
0.8676978103
 40
0.8819661512
 40
0.8956767913
 40
0.9088142361
 40
0.9213654962
 40
0.9333195839
 40
0.9446677912
 40
0.955404691
 40
0.9655276214
 40
0.9750389343
 40
0.9839457869
 40
0.992260156
 40
1.0
 40
1.0
 40
1.0
 40
1.0
 10
11.2352656716
 20
10.1718740352
 30
0.0
 10
11.2368736295
 20
10.1703777035
 30
0.0
 10
11.2403350149
 20
10.1674085054
 30
0.0
 10
11.2460133318
 20
10.1631676788
 30
0.0
 10
11.2523499825
 20
10.1589910017
 30
0.0
 10
11.2593343507
 20
10.1548846023
 30
0.0
 10
11.2669558006
 20
10.150855158
 30
0.0
 10
11.2752020515
 20
10.1469088772
 30
0.0
 10
11.2840598889
 20
10.1430520454
 30
0.0
 10
11.2935150864
 20
10.1392912773
 30
0.0
 10
11.3035521907
 20
10.1356323132
 30
0.0
 10
11.3141549353
 20
10.1320815566
 30
0.0
 10
11.3253059497
 20
10.1286446857
 30
0.0
 10
11.3369869816
 20
10.1253273344
 30
0.0
 10
11.3491789058
 20
10.1221352568
 30
0.0
 10
11.3618616576
 20
10.1190733975
 30
0.0
 10
11.3750144443
 20
10.1161471032
 30
0.0
 10
11.3933995037
 20
10.1123813348
 30
0.0
 10
11.4174002846
 20
10.1080668687
 30
0.0
 10
11.4473343517
 20
10.1035669296
 30
0.0
 10
11.4785834376
 20
10.0997071089
 30
0.0
 10
11.5109419082
 20
10.0965132274
 30
0.0
 10
11.5441969968
 20
10.0940066873
 30
0.0
 10
11.5781298152
 20
10.0922042166
 30
0.0
 10
11.6125169885
 20
10.0911178676
 30
0.0
 10
11.6471321127
 20
10.0907549055
 30
0.0
 10
11.6817472467
 20
10.0911177958
 30
0.0
 10
11.7161344458
 20
10.0922041049
 30
0.0
 10
11.7500672962
 20
10.0940065416
 30
0.0
 10
11.7833224356
 20
10.0965130449
 30
0.0
 10
11.8156809875
 20
10.0997068587
 30
0.0
 10
11.8469301744
 20
10.1035666149
 30
0.0
 10
11.8768643422
 20
10.1080665032
 30
0.0
 10
11.9008652058
 20
10.1123810012
 30
0.0
 10
11.919250347
 20
10.1161466515
 30
0.0
 10
11.9324031899
 20
10.1190730192
 30
0.0
 10
11.9450860155
 20
10.12213478
 30
0.0
 10
11.9572780111
 20
10.1253268749
 30
0.0
 10
11.9689591143
 20
10.128644237
 30
0.0
 10
11.9801102164
 20
10.1320810067
 30
0.0
 10
11.990713012
 20
10.1356318494
 30
0.0
 10
12.0007502212
 20
10.1392906983
 30
0.0
 10
12.0102055172
 20
10.1430515188
 30
0.0
 10
12.0190634365
 20
10.1469084012
 30
0.0
 10
12.0273097566
 20
10.1508545368
 30
0.0
 10
12.0349311707
 20
10.1548839814
 30
0.0
 10
12.0419157556
 20
10.1589902434
 30
0.0
 10
12.0482527614
 20
10.1631672913
 30
0.0
 10
12.0539312719
 20
10.1674084169
 30
0.0
 10
12.0573929131
 20
10.1703775644
 30
0.0
 10
12.0590007883
 20
10.1718737808
 30
0.0
  0
SPLINE
  5
3A3
100
AcDbEntity
  8
0
100
AcDbSpline
 62
7
  6
CONTINUOUS
 70
0
 71
3
 72
69
 73
65
 74
0
 42
0.0000001
 43
0.0000001
 44
0.0000000001
 40
0.0
 40
0.0
 40
0.0
 40
0.0
 40
0.0078486444
 40
0.011525491
 40
0.0150505467
 40
0.0216952296
 40
0.024852921
 40
0.0279250607
 40
0.0309333397
 40
0.0339009863
 40
0.0368522248
 40
0.0398117036
 40
0.0428038878
 40
0.0458523906
 40
0.0489793775
 40
0.052205239
 40
0.0590208104
 40
0.0626451385
 40
0.0664292117
 40
0.0745139269
 40
0.08334171
 40
0.0929552291
 40
0.1033806187
 40
0.114631552
 40
0.126711678
 40
0.1396167584
 40
0.1533361209
 40
0.1678536007
 40
0.1831486278
 40
0.1991964446
 40
0.2159691279
 40
0.2334353586
 40
0.2515614594
 40
0.2703108941
 40
0.2896453365
 40
0.3095240288
 40
0.3299048522
 40
0.3719941041
 40
0.4155466199
 40
0.4601767864
 40
0.5054862054
 40
0.5510685731
 40
0.5965143891
 40
0.6414157219
 40
0.6853710257
 40
0.7279898963
 40
0.7486810452
 40
0.7688992635
 40
0.7886011676
 40
0.807744993
 40
0.8262908348
 40
0.8442008993
 40
0.8614395705
 40
0.8779739633
 40
0.8937737718
 40
0.9088121872
 40
0.9230656404
 40
0.9365152112
 40
0.9491461963
 40
0.9609499952
 40
0.9719245224
 40
0.9820776763
 40
0.9914266394
 40
1.0
 40
1.0
 40
1.0
 40
1.0
 10
11.2317852156
 20
10.7432323118
 30
0.0
 10
11.2300434138
 20
10.7415498604
 30
0.0
 10
11.2275972281
 20
10.738956195
 30
0.0
 10
11.2247232439
 20
10.7353051353
 30
0.0
 10
11.2222984367
 20
10.7317853008
 30
0.0
 10
11.2203135441
 20
10.7281629076
 30
0.0
 10
11.2188433631
 20
10.7244683322
 30
0.0
 10
11.2180179737
 20
10.72173613
 30
0.0
 10
11.2174527405
 20
10.7189982428
 30
0.0
 10
11.2171481756
 20
10.7162565912
 30
0.0
 10
11.2171045971
 20
10.7135134185
 30
0.0
 10
11.2173221021
 20
10.7107709687
 30
0.0
 10
11.217800663
 20
10.7080315076
 30
0.0
 10
11.2185395293
 20
10.7052972059
 30
0.0
 10
11.2195376718
 20
10.7025698
 30
0.0
 10
11.2212435474
 20
10.6988780647
 30
0.0
 10
11.2234564175
 20
10.6952687956
 30
0.0
 10
11.2261001774
 20
10.6917636469
 30
0.0
 10
11.2292047294
 20
10.6881249411
 30
0.0
 10
11.2337524304
 20
10.6836247239
 30
0.0
 10
11.240080232
 20
10.6784195491
 30
0.0
 10
11.247380823
 20
10.6733042494
 30
0.0
 10
11.2556372319
 20
10.6682892277
 30
0.0
 10
11.2648312741
 20
10.6633853258
 30
0.0
 10
11.274941858
 20
10.6586036144
 30
0.0
 10
11.2859456113
 20
10.6539552966
 30
0.0
 10
11.2978167477
 20
10.6494514501
 30
0.0
 10
11.3105272337
 20
10.645102809
 30
0.0
 10
11.3240468954
 20
10.6409200014
 30
0.0
 10
11.3383434897
 20
10.6369129805
 30
0.0
 10
11.3533828496
 20
10.6330916784
 30
0.0
 10
11.3691289469
 20
10.6294651185
 30
0.0
 10
11.3855440187
 20
10.6260423817
 30
0.0
 10
11.4025886568
 20
10.6228314679
 30
0.0
 10
11.4202218921
 20
10.6198405061
 30
0.0
 10
11.438401374
 20
10.6170763627
 30
0.0
 10
11.4635809103
 20
10.6136662925
 30
0.0
 10
11.4960973412
 20
10.6100372191
 30
0.0
 10
11.5361603674
 20
10.6067218159
 30
0.0
 10
11.5772901951
 20
10.6044334193
 30
0.0
 10
11.6190913035
 20
10.6031944331
 30
0.0
 10
11.6611620058
 20
10.6030170495
 30
0.0
 10
11.7030978274
 20
10.6039030106
 30
0.0
 10
11.7444957524
 20
10.6058435902
 30
0.0
 10
11.784957647
 20
10.6088198213
 30
0.0
 10
11.8178891765
 20
10.6121705322
 30
0.0
 10
11.8434639414
 20
10.6153632055
 30
0.0
 10
11.8619833431
 20
10.6179721539
 30
0.0
 10
11.879985506
 20
10.6208126266
 30
0.0
 10
11.8974271845
 20
10.623877761
 30
0.0
 10
11.9142664359
 20
10.627160173
 30
0.0
 10
11.930462818
 20
10.6306517891
 30
0.0
 10
11.9459774416
 20
10.6343442922
 30
0.0
 10
11.960773127
 20
10.6382285155
 30
0.0
 10
11.9748144272
 20
10.6422952938
 30
0.0
 10
11.9880678438
 20
10.6465344429
 30
0.0
 10
12.0005017777
 20
10.6509360858
 30
0.0
 10
12.0120868355
 20
10.6554892167
 30
0.0
 10
12.0227955492
 20
10.6601834026
 30
0.0
 10
12.0326030811
 20
10.6650068754
 30
0.0
 10
12.0414867156
 20
10.6699490741
 30
0.0
 10
12.0494269526
 20
10.6749989189
 30
0.0
 10
12.0564042979
 20
10.6801452196
 30
0.0
 10
12.0605788418
 20
10.6837855275
 30
0.0
 10
12.0624814754
 20
10.6856233306
 30
0.0
  0
SPLINE
  5
3A4
100
AcDbEntity
  8
0
100
AcDbSpline
 62
7
  6
CONTINUOUS
 70
0
 71
3
 72
28
 73
24
 74
0
 42
0.0000001
 43
0.0000001
 44
0.0000000001
 40
0.0
 40
0.0
 40
0.0
 40
0.0
 40
0.0683417894
 40
0.1318944582
 40
0.1911916903
 40
0.2469424229
 40
0.2737771035
 40
0.300072871
 40
0.3259647135
 40
0.3515944959
 40
0.3771085711
 40
0.4026553861
 40
0.4283829391
 40
0.454436097
 40
0.5080318425
 40
0.5644895246
 40
0.594076777
 40
0.6246829784
 40
0.6892404913
 40
0.7587126008
 40
0.8334899805
 40
0.91385377
 40
1.0
 40
1.0
 40
1.0
 40
1.0
 10
12.0624814754
 20
10.6856233306
 30
0.0
 10
12.0639458406
 20
10.6870377988
 30
0.0
 10
12.0666665808
 20
10.6898807251
 30
0.0
 10
12.0702049146
 20
10.6943563018
 30
0.0
 10
12.073036266
 20
10.698874873
 30
0.0
 10
12.0748213955
 20
10.7027214293
 30
0.0
 10
12.0758677788
 20
10.70579426
 30
0.0
 10
12.0764623236
 20
10.7080743913
 30
0.0
 10
12.0768757957
 20
10.7103577664
 30
0.0
 10
12.0771080735
 20
10.7126433012
 30
0.0
 10
12.077158998
 20
10.7149297967
 30
0.0
 10
12.0770285305
 20
10.7172160246
 30
0.0
 10
12.0767165925
 20
10.7195008728
 30
0.0
 10
12.0760530879
 20
10.7225719234
 30
0.0
 10
12.0747488302
 20
10.7264272823
 30
0.0
 10
12.0728838901
 20
10.7301591241
 30
0.0
 10
12.0710572467
 20
10.7331172468
 30
0.0
 10
12.0689270043
 20
10.7361647671
 30
0.0
 10
12.0657960198
 20
10.7399515112
 30
0.0
 10
12.0614054407
 20
10.7443680459
 30
0.0
 10
12.0563240156
 20
10.7487309931
 30
0.0
 10
12.0505605311
 20
10.7530341976
 30
0.0
 10
12.0464146993
 20
10.7557631782
 30
0.0
 10
12.0442365545
 20
10.7571203303
 30
0.0
  0
SPLINE
  5
3A5
100
AcDbEntity
  8
0
100
AcDbSpline
 62
7
  6
CONTINUOUS
 70
0
 71
3
 72
9
 73
5
 74
0
 42
0.0000001
 43
0.0000001
 44
0.0000000001
 40
0.0
 40
0.0
 40
0.0
 40
0.0
 40
0.4830467495
 40
1.0
 40
1.0
 40
1.0
 40
1.0
 10
12.0442365545
 20
10.7571203303
 30
0.0
 10
12.0417042474
 20
10.7586981528
 30
0.0
 10
12.0363665673
 20
10.7618129049
 30
0.0
 10
12.0308843813
 20
10.764663445
 30
0.0
 10
12.0280215585
 20
10.7660776376
 30
0.0
  0
SPLINE
  5
3A6
100
AcDbEntity
  8
0
100
AcDbSpline
 62
7
  6
CONTINUOUS
 70
0
 71
3
 72
18
 73
14
 74
0
 42
0.0000001
 43
0.0000001
 44
0.0000000001
 40
0.0
 40
0.0
 40
0.0
 40
0.0
 40
0.1504683897
 40
0.2917144302
 40
0.4244424337
 40
0.4879098403
 40
0.5496094316
 40
0.6682625858
 40
0.7817882724
 40
0.8371379912
 40
0.8918078094
 40
0.9460192717
 40
1.0
 40
1.0
 40
1.0
 40
1.0
 10
12.3344081361
 20
8.4257925014
 30
0.0
 10
12.3356520651
 20
8.4269940446
 30
0.0
 10
12.3381382288
 20
8.4292484866
 30
0.0
 10
12.3419877938
 20
8.4322527981
 30
0.0
 10
12.3452394014
 20
8.4343776069
 30
0.0
 10
12.3478322761
 20
8.4358164582
 30
0.0
 10
12.3503488694
 20
8.4370517605
 30
0.0
 10
12.3534954092
 20
8.4382999871
 30
0.0
 10
12.3566979201
 20
8.4391517797
 30
0.0
 10
12.3592344032
 20
8.4395713845
 30
0.0
 10
12.3611142891
 20
8.4397576025
 30
0.0
 10
12.3629865691
 20
8.4398177423
 30
0.0
 10
12.3642304661
 20
8.4397737372
 30
0.0
 10
12.3648494287
 20
8.4397308087
 30
0.0
  0
SPLINE
  5
3A7
100
AcDbEntity
  8
0
100
AcDbSpline
 62
7
  6
CONTINUOUS
 70
0
 71
3
 72
36
 73
32
 74
0
 42
0.0000001
 43
0.0000001
 44
0.0000000001
 40
0.0
 40
0.0
 40
0.0
 40
0.0
 40
0.0916962898
 40
0.1811618425
 40
0.2679298174
 40
0.3101617831
 40
0.3515528884
 40
0.3920508491
 40
0.4316051136
 40
0.4701670897
 40
0.5076902599
 40
0.5441302807
 40
0.5794453006
 40
0.6135961286
 40
0.6465463769
 40
0.6782628744
 40
0.7087159643
 40
0.7378797695
 40
0.7657327896
 40
0.7922584677
 40
0.8174457516
 40
0.8412900974
 40
0.8637946067
 40
0.8849712835
 40
0.9048429411
 40
0.9234455356
 40
0.9408308663
 40
0.9570701431
 40
0.97225807
 40
0.9865168954
 40
1.0
 40
1.0
 40
1.0
 40
1.0
 10
11.5354049277
 20
10.0327464757
 30
0.0
 10
11.5249829624
 20
10.0334692415
 30
0.0
 10
11.5044065685
 20
10.0351099732
 30
0.0
 10
11.4740355345
 20
10.0381987599
 30
0.0
 10
11.4493352571
 20
10.0412862695
 30
0.0
 10
11.4301202337
 20
10.0440528067
 30
0.0
 10
11.4161499829
 20
10.0462474288
 30
0.0
 10
11.4025110187
 20
10.0485772052
 30
0.0
 10
11.3892228713
 20
10.0510388176
 30
0.0
 10
11.3763045816
 20
10.0536287044
 30
0.0
 10
11.363774649
 20
10.0563431263
 30
0.0
 10
11.3516510174
 20
10.0591781868
 30
0.0
 10
11.3399510338
 20
10.0621297939
 30
0.0
 10
11.3286914268
 20
10.0651936823
 30
0.0
 10
11.3178882897
 20
10.0683654541
 30
0.0
 10
11.3075570413
 20
10.0716405385
 30
0.0
 10
11.2977124011
 20
10.0750142088
 30
0.0
 10
11.2883683805
 20
10.0784816344
 30
0.0
 10
11.2795382404
 20
10.0820378456
 30
0.0
 10
11.2712344632
 20
10.0856777456
 30
0.0
 10
11.2634687521
 20
10.0893961808
 30
0.0
 10
11.2562519895
 20
10.0931879205
 30
0.0
 10
11.2495942036
 20
10.0970476737
 30
0.0
 10
11.2435045912
 20
10.1009701944
 30
0.0
 10
11.2379914976
 20
10.1049503043
 30
0.0
 10
11.233062419
 20
10.1089829231
 30
0.0
 10
11.2287241179
 20
10.1130632754
 30
0.0
 10
11.2249828131
 20
10.1171867709
 30
0.0
 10
11.2218442161
 20
10.1213495006
 30
0.0
 10
11.2193145557
 20
10.1255463213
 30
0.0
 10
11.2180067438
 20
10.1284342775
 30
0.0
 10
11.2174672801
 20
10.1298725724
 30
0.0
  0
SPLINE
  5
3A8
100
AcDbEntity
  8
0
100
AcDbSpline
 62
7
  6
CONTINUOUS
 70
0
 71
3
 72
44
 73
40
 74
0
 42
0.0000001
 43
0.0000001
 44
0.0000000001
 40
0.0
 40
0.0
 40
0.0
 40
0.0
 40
0.0311441543
 40
0.0624413527
 40
0.0938856704
 40
0.1254674301
 40
0.1571744232
 40
0.1889918967
 40
0.2209029056
 40
0.2528886665
 40
0.2849289365
 40
0.3170024165
 40
0.3490871655
 40
0.3811610253
 40
0.4132020474
 40
0.4451889174
 40
0.477101372
 40
0.5089205996
 40
0.5406296198
 40
0.5722136396
 40
0.603660374
 40
0.6349603231
 40
0.6661070065
 40
0.6970971441
 40
0.7279307688
 40
0.7586112764
 40
0.7891454071
 40
0.8195431409
 40
0.8498175195
 40
0.8649161013
 40
0.8799900027
 40
0.8950415891
 40
0.9100733537
 40
0.9250879052
 40
0.9400879559
 40
0.9550763011
 40
0.9700558055
 40
0.9850293877
 40
1.0
 40
1.0
 40
1.0
 40
1.0
 10
10.6740678266
 20
7.1659883772
 30
0.0
 10
10.6844461257
 20
7.1652686397
 30
0.0
 10
10.7052087641
 20
7.1630659749
 30
0.0
 10
10.7361009947
 20
7.157517402
 30
0.0
 10
10.7666623427
 20
7.1497455353
 30
0.0
 10
10.7967277493
 20
7.139792127
 30
0.0
 10
10.8261374878
 20
7.1277105351
 30
0.0
 10
10.8547346855
 20
7.1135654183
 30
0.0
 10
10.8823669902
 20
7.097432336
 30
0.0
 10
10.9088871524
 20
7.0793974222
 30
0.0
 10
10.9341538943
 20
7.0595569425
 30
0.0
 10
10.9580325778
 20
7.0380167016
 30
0.0
 10
10.9803959285
 20
7.014891518
 30
0.0
 10
11.0011247761
 20
6.9903046805
 30
0.0
 10
11.0201086082
 20
6.9643872149
 30
0.0
 10
11.0372461381
 20
6.9372771995
 30
0.0
 10
11.0524459345
 20
6.909119101
 30
0.0
 10
11.06562685
 20
6.8800629644
 30
0.0
 10
11.0767184031
 20
6.8502636102
 30
0.0
 10
11.0856612335
 20
6.8198798601
 30
0.0
 10
11.0924074291
 20
6.7890736901
 30
0.0
 10
11.0969206971
 20
6.7580093576
 30
0.0
 10
11.0991766064
 20
6.7268525556
 30
0.0
 10
11.0991628148
 20
6.6957695493
 30
0.0
 10
11.0968790167
 20
6.6649262503
 30
0.0
 10
11.0923370278
 20
6.6344874811
 30
0.0
 10
11.0855606238
 20
6.6046156158
 30
0.0
 10
11.0765862112
 20
6.5754714418
 30
0.0
 10
11.0673050924
 20
6.5518954045
 30
0.0
 10
11.0588357431
 20
6.5335616542
 30
0.0
 10
11.0519747415
 20
6.5200987782
 30
0.0
 10
11.0446090817
 20
6.5069310449
 30
0.0
 10
11.0367484551
 20
6.4940758078
 30
0.0
 10
11.028403401
 20
6.4815503132
 30
0.0
 10
11.0195850858
 20
6.4693712535
 30
0.0
 10
11.0103052531
 20
6.457554964
 30
0.0
 10
11.0005762701
 20
6.4461171593
 30
0.0
 10
10.9904113756
 20
6.4350733115
 30
0.0
 10
10.983352404
 20
6.4279825129
 30
0.0
 10
10.979755621
 20
6.4245082961
 30
0.0
  0
SPLINE
  5
3A9
100
AcDbEntity
  8
0
100
AcDbSpline
 62
7
  6
CONTINUOUS
 70
0
 71
3
 72
44
 73
40
 74
0
 42
0.0000001
 43
0.0000001
 44
0.0000000001
 40
0.0
 40
0.0
 40
0.0
 40
0.0
 40
0.0311441543
 40
0.0624413527
 40
0.0938856704
 40
0.1254674301
 40
0.1571744232
 40
0.1889918967
 40
0.2209029056
 40
0.2528886665
 40
0.2849289365
 40
0.3170024165
 40
0.3490871655
 40
0.3811610253
 40
0.4132020474
 40
0.4451889174
 40
0.477101372
 40
0.5089205996
 40
0.5406296198
 40
0.5722136396
 40
0.603660374
 40
0.6349603231
 40
0.6661070065
 40
0.6970971441
 40
0.7279307688
 40
0.7586112764
 40
0.7891454071
 40
0.8195431409
 40
0.8498175195
 40
0.8649161013
 40
0.8799900027
 40
0.8950415891
 40
0.9100733537
 40
0.9250879052
 40
0.9400879559
 40
0.9550763011
 40
0.9700558055
 40
0.9850293877
 40
1.0
 40
1.0
 40
1.0
 40
1.0
 10
10.6740678266
 20
9.2185808797
 30
0.0
 10
10.6844461257
 20
9.2178611422
 30
0.0
 10
10.7052087641
 20
9.2156584774
 30
0.0
 10
10.7361009947
 20
9.2101099045
 30
0.0
 10
10.7666623427
 20
9.2023380378
 30
0.0
 10
10.7967277493
 20
9.1923846295
 30
0.0
 10
10.8261374878
 20
9.1803030376
 30
0.0
 10
10.8547346855
 20
9.1661579208
 30
0.0
 10
10.8823669902
 20
9.1500248385
 30
0.0
 10
10.9088871524
 20
9.1319899247
 30
0.0
 10
10.9341538943
 20
9.112149445
 30
0.0
 10
10.9580325778
 20
9.0906092041
 30
0.0
 10
10.9803959285
 20
9.0674840204
 30
0.0
 10
11.0011247761
 20
9.042897183
 30
0.0
 10
11.0201086082
 20
9.0169797174
 30
0.0
 10
11.0372461381
 20
8.989869702
 30
0.0
 10
11.0524459345
 20
8.9617116034
 30
0.0
 10
11.06562685
 20
8.9326554669
 30
0.0
 10
11.0767184031
 20
8.9028561127
 30
0.0
 10
11.0856612335
 20
8.8724723626
 30
0.0
 10
11.0924074291
 20
8.8416661926
 30
0.0
 10
11.0969206971
 20
8.81060186
 30
0.0
 10
11.0991766064
 20
8.779445058
 30
0.0
 10
11.0991628148
 20
8.7483620518
 30
0.0
 10
11.0968790167
 20
8.7175187528
 30
0.0
 10
11.0923370278
 20
8.6870799836
 30
0.0
 10
11.0855606238
 20
8.6572081183
 30
0.0
 10
11.0765862112
 20
8.6280639442
 30
0.0
 10
11.0673050924
 20
8.604487907
 30
0.0
 10
11.0588357431
 20
8.5861541567
 30
0.0
 10
11.0519747415
 20
8.5726912806
 30
0.0
 10
11.0446090817
 20
8.5595235474
 30
0.0
 10
11.0367484551
 20
8.5466683103
 30
0.0
 10
11.028403401
 20
8.5341428156
 30
0.0
 10
11.0195850858
 20
8.521963756
 30
0.0
 10
11.0103052531
 20
8.5101474665
 30
0.0
 10
11.0005762701
 20
8.4987096618
 30
0.0
 10
10.9904113756
 20
8.487665814
 30
0.0
 10
10.983352404
 20
8.4805750154
 30
0.0
 10
10.979755621
 20
8.4771007985
 30
0.0
  0
SPLINE
  5
3AA
100
AcDbEntity
  8
0
100
AcDbSpline
 62
7
  6
CONTINUOUS
 70
0
 71
3
 72
33
 73
29
 74
0
 42
0.0000001
 43
0.0000001
 44
0.0000000001
 40
0.0
 40
0.0
 40
0.0
 40
0.0
 40
0.0313257604
 40
0.0626139601
 40
0.0938615473
 40
0.1250716984
 40
0.1562465231
 40
0.1873902865
 40
0.2185086335
 40
0.2496083767
 40
0.2806972933
 40
0.3117838545
 40
0.3428770444
 40
0.3739858665
 40
0.4051189589
 40
0.436284378
 40
0.4674891953
 40
0.4987390469
 40
0.5613710472
 40
0.6242036806
 40
0.6556931762
 40
0.6872153233
 40
0.7502913939
 40
0.8133091759
 40
0.8447463559
 40
0.8760957286
 40
0.9384005225
 40
1.0
 40
1.0
 40
1.0
 40
1.0
 10
10.9033782083
 20
6.7586674602
 30
0.0
 10
10.8999859622
 20
6.7587709022
 30
0.0
 10
10.8932095801
 20
6.7591556751
 30
0.0
 10
10.8830972931
 20
6.7602701683
 30
0.0
 10
10.8730710714
 20
6.7619217494
 30
0.0
 10
10.8631601562
 20
6.7641072205
 30
0.0
 10
10.8533923028
 20
6.7668208906
 30
0.0
 10
10.843794433
 20
6.7700541266
 30
0.0
 10
10.8343919226
 20
6.7737958076
 30
0.0
 10
10.8252084854
 20
6.7780325848
 30
0.0
 10
10.8162659938
 20
6.7827491759
 30
0.0
 10
10.8075843556
 20
6.7879286582
 30
0.0
 10
10.7991814789
 20
6.7935527778
 30
0.0
 10
10.7910733811
 20
6.7996023294
 30
0.0
 10
10.7832742906
 20
6.8060574349
 30
0.0
 10
10.7757968127
 20
6.8128976342
 30
0.0
 10
10.7686518973
 20
6.8201024065
 30
0.0
 10
10.7595766901
 20
6.8301726531
 30
0.0
 10
10.7491094233
 20
6.8435734115
 30
0.0
 10
10.7398823606
 20
6.8578846405
 30
0.0
 10
10.7332594127
 20
6.8698060925
 30
0.0
 10
10.7271450866
 20
6.8820257737
 30
0.0
 10
10.7204866926
 20
6.8977736754
 30
0.0
 10
10.7151709686
 20
6.9140136117
 30
0.0
 10
10.7117454184
 20
6.9272092537
 30
0.0
 10
10.7088876484
 20
6.9404604241
 30
0.0
 10
10.706370558
 20
6.9571116797
 30
0.0
 10
10.705491649
 20
6.9705257293
 30
0.0
 10
10.7053466042
 20
6.9771978207
 30
0.0
  0
SPLINE
  5
3AB
100
AcDbEntity
  8
0
100
AcDbSpline
 62
7
  6
CONTINUOUS
 70
0
 71
3
 72
23
 73
19
 74
0
 42
0.0000001
 43
0.0000001
 44
0.0000000001
 40
0.0
 40
0.0
 40
0.0
 40
0.0
 40
0.0629012751
 40
0.1255567484
 40
0.187974143
 40
0.250181299
 40
0.3122230137
 40
0.3741566335
 40
0.4360472733
 40
0.4979631582
 40
0.559971225
 40
0.6221331107
 40
0.6845009957
 40
0.7471131907
 40
0.8099893676
 40
0.8731251057
 40
0.9364857391
 40
1.0
 40
1.0
 40
1.0
 40
1.0
 10
10.9020925771
 20
8.8592555364
 30
0.0
 10
10.8976580186
 20
8.8604266556
 30
0.0
 10
10.8888943227
 20
8.8631142547
 30
0.0
 10
10.876136078
 20
8.8681609689
 30
0.0
 10
10.8638585936
 20
8.8741721079
 30
0.0
 10
10.8521228718
 20
8.881093164
 30
0.0
 10
10.8409753305
 20
8.8888638699
 30
0.0
 10
10.830450248
 20
8.8974211101
 30
0.0
 10
10.8205708799
 20
8.9067018043
 30
0.0
 10
10.8113516114
 20
8.916644824
 30
0.0
 10
10.8028001002
 20
8.9271921448
 30
0.0
 10
10.794919395
 20
8.9382892328
 30
0.0
 10
10.7877098464
 20
8.9498847713
 30
0.0
 10
10.7811707531
 20
8.9619298451
 30
0.0
 10
10.775301723
 20
8.9743765948
 30
0.0
 10
10.7701036578
 20
8.9871767349
 30
0.0
 10
10.765579646
 20
9.0002788361
 30
0.0
 10
10.7630178246
 20
9.0091734807
 30
0.0
 10
10.7618502926
 20
9.0136551894
 30
0.0
  0
SPLINE
  5
3AC
100
AcDbEntity
  8
0
100
AcDbSpline
 62
7
  6
CONTINUOUS
 70
0
 71
3
 72
23
 73
19
 74
0
 42
0.0000001
 43
0.0000001
 44
0.0000000001
 40
0.0
 40
0.0
 40
0.0
 40
0.0
 40
0.0616482057
 40
0.123319439
 40
0.1850364697
 40
0.2468215573
 40
0.308696204
 40
0.3706809203
 40
0.4327950036
 40
0.4950563332
 40
0.5574811873
 40
0.6200840738
 40
0.6828776141
 40
0.7458723365
 40
0.8090768798
 40
0.872497055
 40
0.9361379958
 40
1.0
 40
1.0
 40
1.0
 40
1.0
 10
10.3683800321
 20
7.0574536809
 30
0.0
 10
10.3733177301
 20
7.0622231189
 30
0.0
 10
10.3834536979
 20
7.0715000415
 30
0.0
 10
10.3993866067
 20
7.0845808769
 30
0.0
 10
10.4160113878
 20
7.0967970807
 30
0.0
 10
10.4332855731
 20
7.108117351
 30
0.0
 10
10.45116578
 20
7.1185133311
 30
0.0
 10
10.4696069063
 20
7.1279588184
 30
0.0
 10
10.4885624917
 20
7.136430061
 30
0.0
 10
10.5079847694
 20
7.1439057576
 30
0.0
 10
10.5278248051
 20
7.1503671269
 30
0.0
 10
10.5480326213
 20
7.1557979504
 30
0.0
 10
10.5685573143
 20
7.1601845987
 30
0.0
 10
10.5893472232
 20
7.1635161028
 30
0.0
 10
10.6103499196
 20
7.1657840928
 30
0.0
 10
10.631512797
 20
7.166982981
 30
0.0
 10
10.6527818015
 20
7.1671097495
 30
0.0
 10
10.6669733299
 20
7.1664803823
 30
0.0
 10
10.6740678266
 20
7.1659883772
 30
0.0
  0
SPLINE
  5
3AD
100
AcDbEntity
  8
0
100
AcDbSpline
 62
7
  6
CONTINUOUS
 70
0
 71
3
 72
23
 73
19
 74
0
 42
0.0000001
 43
0.0000001
 44
0.0000000001
 40
0.0
 40
0.0
 40
0.0
 40
0.0
 40
0.0616482106
 40
0.123319444
 40
0.1850364734
 40
0.2468215626
 40
0.3086962119
 40
0.3706809251
 40
0.4327950031
 40
0.4950563302
 40
0.5574811826
 40
0.6200840855
 40
0.6828775753
 40
0.7458723551
 40
0.8090769809
 40
0.8724965648
 40
0.9361390258
 40
1.0
 40
1.0
 40
1.0
 40
1.0
 10
10.5227080392
 20
6.9215058052
 30
0.0
 10
10.5253452229
 20
6.9240531304
 30
0.0
 10
10.5307587555
 20
6.929007878
 30
0.0
 10
10.5392683915
 20
6.9359942672
 30
0.0
 10
10.5481475434
 20
6.9425188747
 30
0.0
 10
10.5573735391
 20
6.9485649722
 30
0.0
 10
10.5669232201
 20
6.9541173927
 30
0.0
 10
10.5767724817
 20
6.9591621654
 30
0.0
 10
10.5868965068
 20
6.9636866136
 30
0.0
 10
10.5972697891
 20
6.9676793523
 30
0.0
 10
10.6078662024
 20
6.971130326
 30
0.0
 10
10.6186590418
 20
6.9740308906
 30
0.0
 10
10.6296211224
 20
6.9763737884
 30
0.0
 10
10.6407248597
 20
6.9781531366
 30
0.0
 10
10.6519422165
 20
6.9793644333
 30
0.0
 10
10.6632452089
 20
6.980004782
 30
0.0
 10
10.6746048185
 20
6.98007245
 30
0.0
 10
10.6821844368
 20
6.9797363344
 30
0.0
 10
10.685973493
 20
6.9794735625
 30
0.0
  0
SPLINE
  5
3AE
100
AcDbEntity
  8
0
100
AcDbSpline
 62
7
  6
CONTINUOUS
 70
0
 71
3
 72
41
 73
37
 74
0
 42
0.0000001
 43
0.0000001
 44
0.0000000001
 40
0.0
 40
0.0
 40
0.0
 40
0.0
 40
0.0299390219
 40
0.059901714
 40
0.089911187
 40
0.1199894485
 40
0.1501568949
 40
0.1804318493
 40
0.2108301609
 40
0.2413648728
 40
0.272045965
 40
0.3028801764
 40
0.3338709045
 40
0.3650181821
 40
0.396318727
 40
0.4277660593
 40
0.4593506796
 40
0.4910603016
 40
0.5228801323
 40
0.5547931918
 40
0.5867806682
 40
0.6188222973
 40
0.6508967648
 40
0.6829821217
 40
0.715056209
 40
0.7310844894
 40
0.7471017679
 40
0.7790881331
 40
0.8109997454
 40
0.8269239678
 40
0.8428226015
 40
0.8745301998
 40
0.9061125375
 40
0.937557485
 40
0.9688552819
 40
1.0
 40
1.0
 40
1.0
 40
1.0
 10
10.8492389468
 20
6.5834561545
 30
0.0
 10
10.8530806
 20
6.5871669085
 30
0.0
 10
10.860479219
 20
6.5948960239
 30
0.0
 10
10.8706403063
 20
6.6073275287
 30
0.0
 10
10.8798151236
 20
6.6205351398
 30
0.0
 10
10.8879537074
 20
6.6344472089
 30
0.0
 10
10.8950128624
 20
6.6489894625
 30
0.0
 10
10.9009548925
 20
6.6640839692
 30
0.0
 10
10.9057481992
 20
6.6796499556
 30
0.0
 10
10.9093673325
 20
6.6956041434
 30
0.0
 10
10.9117931461
 20
6.7118612287
 30
0.0
 10
10.9130128803
 20
6.7283343332
 30
0.0
 10
10.9130202212
 20
6.7449354713
 30
0.0
 10
10.9118153252
 20
6.7615760176
 30
0.0
 10
10.9094048104
 20
6.7781671765
 30
0.0
 10
10.9058017107
 20
6.7946204517
 30
0.0
 10
10.9010254012
 20
6.8108481121
 30
0.0
 10
10.8951014903
 20
6.8267636529
 30
0.0
 10
10.8880616801
 20
6.8422822516
 30
0.0
 10
10.8799435991
 20
6.8573212106
 30
0.0
 10
10.8707905897
 20
6.8718004026
 30
0.0
 10
10.8606515227
 20
6.885642655
 30
0.0
 10
10.8495803698
 20
6.8987742929
 30
0.0
 10
10.8376365493
 20
6.9111250191
 30
0.0
 10
10.8270052156
 20
6.920715141
 30
0.0
 10
10.818128686
 20
6.9279333422
 30
0.0
 10
10.8090231074
 20
6.9348345472
 30
0.0
 10
10.7972241077
 20
6.9428584997
 30
0.0
 10
10.7849159006
 20
6.9500444922
 30
0.0
 10
10.7748108147
 20
6.9552614736
 30
0.0
 10
10.7645639368
 20
6.9601094777
 30
0.0
 10
10.7514847525
 20
6.9654825089
 30
0.0
 10
10.7354273884
 20
6.9707983882
 30
0.0
 10
10.7191047888
 20
6.9749493077
 30
0.0
 10
10.7026055642
 20
6.977912738
 30
0.0
 10
10.6915164379
 20
6.979089158
 30
0.0
 10
10.685973493
 20
6.9794735625
 30
0.0
  0
SPLINE
  5
3AF
100
AcDbEntity
  8
0
100
AcDbSpline
 62
7
  6
CONTINUOUS
 70
0
 71
3
 72
23
 73
19
 74
0
 42
0.0000001
 43
0.0000001
 44
0.0000000001
 40
0.0
 40
0.0
 40
0.0
 40
0.0
 40
0.0616482057
 40
0.123319439
 40
0.1850364697
 40
0.2468215573
 40
0.308696204
 40
0.3706809203
 40
0.4327950036
 40
0.4950563332
 40
0.5574811873
 40
0.6200840738
 40
0.6828776141
 40
0.7458723365
 40
0.8090768798
 40
0.872497055
 40
0.9361379958
 40
1.0
 40
1.0
 40
1.0
 40
1.0
 10
10.3683800321
 20
9.1100461834
 30
0.0
 10
10.3733177301
 20
9.1148156214
 30
0.0
 10
10.3834536979
 20
9.1240925439
 30
0.0
 10
10.3993866067
 20
9.1371733794
 30
0.0
 10
10.4160113878
 20
9.1493895832
 30
0.0
 10
10.4332855731
 20
9.1607098534
 30
0.0
 10
10.45116578
 20
9.1711058335
 30
0.0
 10
10.4696069063
 20
9.1805513209
 30
0.0
 10
10.4885624917
 20
9.1890225635
 30
0.0
 10
10.5079847694
 20
9.1964982601
 30
0.0
 10
10.5278248051
 20
9.2029596294
 30
0.0
 10
10.5480326213
 20
9.2083904529
 30
0.0
 10
10.5685573143
 20
9.2127771012
 30
0.0
 10
10.5893472232
 20
9.2161086053
 30
0.0
 10
10.6103499196
 20
9.2183765952
 30
0.0
 10
10.631512797
 20
9.2195754835
 30
0.0
 10
10.6527818015
 20
9.2197022519
 30
0.0
 10
10.6669733299
 20
9.2190728847
 30
0.0
 10
10.6740678266
 20
9.2185808797
 30
0.0
  0
SPLINE
  5
3B0
100
AcDbEntity
  8
0
100
AcDbSpline
 62
7
  6
CONTINUOUS
 70
0
 71
3
 72
23
 73
19
 74
0
 42
0.0000001
 43
0.0000001
 44
0.0000000001
 40
0.0
 40
0.0
 40
0.0
 40
0.0
 40
0.0616482106
 40
0.123319444
 40
0.1850364734
 40
0.2468215626
 40
0.3086962119
 40
0.3706809251
 40
0.4327950031
 40
0.4950563302
 40
0.5574811826
 40
0.6200840855
 40
0.6828775753
 40
0.7458723551
 40
0.8090769809
 40
0.8724965648
 40
0.9361390258
 40
1.0
 40
1.0
 40
1.0
 40
1.0
 10
10.5227080392
 20
8.9740983077
 30
0.0
 10
10.5253452229
 20
8.9766456329
 30
0.0
 10
10.5307587555
 20
8.9816003805
 30
0.0
 10
10.5392683915
 20
8.9885867697
 30
0.0
 10
10.5481475434
 20
8.9951113772
 30
0.0
 10
10.5573735391
 20
9.0011574747
 30
0.0
 10
10.5669232201
 20
9.0067098952
 30
0.0
 10
10.5767724817
 20
9.0117546679
 30
0.0
 10
10.5868965068
 20
9.0162791161
 30
0.0
 10
10.5972697891
 20
9.0202718548
 30
0.0
 10
10.6078662024
 20
9.0237228285
 30
0.0
 10
10.6186590418
 20
9.0266233931
 30
0.0
 10
10.6296211224
 20
9.0289662909
 30
0.0
 10
10.6407248597
 20
9.0307456391
 30
0.0
 10
10.6519422165
 20
9.0319569358
 30
0.0
 10
10.6632452089
 20
9.0325972845
 30
0.0
 10
10.6746048185
 20
9.0326649525
 30
0.0
 10
10.6821844368
 20
9.0323288369
 30
0.0
 10
10.685973493
 20
9.032066065
 30
0.0
  0
SPLINE
  5
3B1
100
AcDbEntity
  8
0
100
AcDbSpline
 62
7
  6
CONTINUOUS
 70
0
 71
3
 72
41
 73
37
 74
0
 42
0.0000001
 43
0.0000001
 44
0.0000000001
 40
0.0
 40
0.0
 40
0.0
 40
0.0
 40
0.0299390219
 40
0.059901714
 40
0.089911187
 40
0.1199894485
 40
0.1501568949
 40
0.1804318493
 40
0.2108301609
 40
0.2413648728
 40
0.272045965
 40
0.3028801764
 40
0.3338709045
 40
0.3650181821
 40
0.396318727
 40
0.4277660593
 40
0.4593506796
 40
0.4910603016
 40
0.5228801323
 40
0.5547931918
 40
0.5867806682
 40
0.6188222973
 40
0.6508967648
 40
0.6829821217
 40
0.715056209
 40
0.7310844894
 40
0.7471017679
 40
0.7790881331
 40
0.8109997454
 40
0.8269239678
 40
0.8428226015
 40
0.8745301998
 40
0.9061125375
 40
0.937557485
 40
0.9688552819
 40
1.0
 40
1.0
 40
1.0
 40
1.0
 10
10.8492389468
 20
8.636048657
 30
0.0
 10
10.8530806
 20
8.639759411
 30
0.0
 10
10.860479219
 20
8.6474885264
 30
0.0
 10
10.8706403063
 20
8.6599200312
 30
0.0
 10
10.8798151236
 20
8.6731276422
 30
0.0
 10
10.8879537074
 20
8.6870397114
 30
0.0
 10
10.8950128624
 20
8.701581965
 30
0.0
 10
10.9009548925
 20
8.7166764717
 30
0.0
 10
10.9057481992
 20
8.7322424581
 30
0.0
 10
10.9093673325
 20
8.7481966459
 30
0.0
 10
10.9117931461
 20
8.7644537312
 30
0.0
 10
10.9130128803
 20
8.7809268356
 30
0.0
 10
10.9130202212
 20
8.7975279738
 30
0.0
 10
10.9118153252
 20
8.8141685201
 30
0.0
 10
10.9094048104
 20
8.830759679
 30
0.0
 10
10.9058017107
 20
8.8472129542
 30
0.0
 10
10.9010254012
 20
8.8634406146
 30
0.0
 10
10.8951014903
 20
8.8793561554
 30
0.0
 10
10.8880616801
 20
8.8948747541
 30
0.0
 10
10.8799435991
 20
8.9099137131
 30
0.0
 10
10.8707905897
 20
8.9243929051
 30
0.0
 10
10.8606515227
 20
8.9382351575
 30
0.0
 10
10.8495803698
 20
8.9513667954
 30
0.0
 10
10.8376365493
 20
8.9637175216
 30
0.0
 10
10.8270052156
 20
8.9733076435
 30
0.0
 10
10.818128686
 20
8.9805258447
 30
0.0
 10
10.8090231074
 20
8.9874270497
 30
0.0
 10
10.7972241077
 20
8.9954510022
 30
0.0
 10
10.7849159006
 20
9.0026369947
 30
0.0
 10
10.7748108147
 20
9.0078539761
 30
0.0
 10
10.7645639368
 20
9.0127019802
 30
0.0
 10
10.7514847525
 20
9.0180750114
 30
0.0
 10
10.7354273884
 20
9.0233908907
 30
0.0
 10
10.7191047888
 20
9.0275418102
 30
0.0
 10
10.7026055642
 20
9.0305052405
 30
0.0
 10
10.6915164379
 20
9.0316816604
 30
0.0
 10
10.685973493
 20
9.032066065
 30
0.0
  0
SPLINE
  5
3B2
100
AcDbEntity
  8
0
100
AcDbSpline
 62
7
  6
CONTINUOUS
 70
0
 71
3
 72
11
 73
7
 74
0
 42
0.0000001
 43
0.0000001
 44
0.0000000001
 40
0.0
 40
0.0
 40
0.0
 40
0.0
 40
0.2897492774
 40
0.5460389192
 40
0.7796344763
 40
1.0
 40
1.0
 40
1.0
 40
1.0
 10
11.21746727
 20
10.1298725722
 30
0.0
 10
11.2173198768
 20
10.1302655487
 30
0.0
 10
11.2170708418
 20
10.1310174246
 30
0.0
 10
11.2168091376
 20
10.1321175214
 30
0.0
 10
11.2166648324
 20
10.1331376051
 30
0.0
 10
11.2166333455
 20
10.1337955355
 30
0.0
 10
11.2166333455
 20
10.1341147401
 30
0.0
  0
SPLINE
  5
3B3
100
AcDbEntity
  8
0
100
AcDbSpline
 62
7
  6
CONTINUOUS
 70
0
 71
3
 72
11
 73
7
 74
0
 42
0.0000001
 43
0.0000001
 44
0.0000000001
 40
0.0
 40
0.0
 40
0.0
 40
0.0
 40
0.2203655244
 40
0.4539610799
 40
0.7102507243
 40
1.0
 40
1.0
 40
1.0
 40
1.0
 10
12.0776333455
 20
10.1341147401
 30
0.0
 10
12.0776333455
 20
10.1337955355
 30
0.0
 10
12.0776018586
 20
10.1331376051
 30
0.0
 10
12.0774575534
 20
10.1321175214
 30
0.0
 10
12.0771958492
 20
10.1310174246
 30
0.0
 10
12.0769468142
 20
10.1302655487
 30
0.0
 10
12.076799421
 20
10.1298725722
 30
0.0
  0
SPLINE
  5
3B4
100
AcDbEntity
  8
0
100
AcDbSpline
 62
7
  6
CONTINUOUS
 70
0
 71
3
 72
50
 73
46
 74
0
 42
0.0000001
 43
0.0000001
 44
0.0000000001
 40
0.0
 40
0.0
 40
0.0
 40
0.0
 40
0.0057940444
 40
0.0118133012
 40
0.0180949137
 40
0.0246707923
 40
0.0315680343
 40
0.038809168
 40
0.0464128131
 40
0.0543939714
 40
0.0627646715
 40
0.0715341833
 40
0.0807095567
 40
0.0902957495
 40
0.1002960479
 40
0.110712136
 40
0.1215444071
 40
0.1327920086
 40
0.1444530581
 40
0.1565246872
 40
0.1690031768
 40
0.1818840157
 40
0.1951619657
 40
0.208831145
 40
0.2373157919
 40
0.2672802406
 40
0.298657941
 40
0.3313753898
 40
0.3653529206
 40
0.4005053791
 40
0.4367427165
 40
0.4739705258
 40
0.5120905366
 40
0.5510010812
 40
0.5905975399
 40
0.6307727714
 40
0.6714175329
 40
0.7124208942
 40
0.7536706433
 40
0.7950536982
 40
0.8364564909
 40
0.8777654243
 40
0.9188671243
 40
0.9596492066
 40
1.0
 40
1.0
 40
1.0
 40
1.0
 10
12.0767994205
 20
10.1298725722
 30
0.0
 10
12.0764159163
 20
10.1288500896
 30
0.0
 10
12.0755351285
 20
10.1268013103
 30
0.0
 10
12.0739207286
 20
10.1237929819
 30
0.0
 10
12.0719923059
 20
10.1207989573
 30
0.0
 10
12.0697519186
 20
10.1178214221
 30
0.0
 10
12.0672013524
 20
10.1148621692
 30
0.0
 10
12.064342696
 20
10.1119229944
 30
0.0
 10
12.0611780226
 20
10.1090058284
 30
0.0
 10
12.0577096955
 20
10.1061125065
 30
0.0
 10
12.053940165
 20
10.1032450324
 30
0.0
 10
12.0498721718
 20
10.1004053052
 30
0.0
 10
12.0455086003
 20
10.0975953613
 30
0.0
 10
12.0408526103
 20
10.0948171336
 30
0.0
 10
12.0359075357
 20
10.0920726525
 30
0.0
 10
12.0306769652
 20
10.0893638551
 30
0.0
 10
12.0251646767
 20
10.0866927373
 30
0.0
 10
12.0193746827
 20
10.0840612177
 30
0.0
 10
12.0133111919
 20
10.0814712384
 30
0.0
 10
12.0069786295
 20
10.0789246839
 30
0.0
 10
12.0003816173
 20
10.0764234284
 30
0.0
 10
11.9935249819
 20
10.073969315
 30
0.0
 10
11.9864137327
 20
10.0715641216
 30
0.0
 10
11.9764624611
 20
10.0683810601
 30
0.0
 10
11.9634192967
 20
10.0645478133
 30
0.0
 10
11.9470467164
 20
10.0602310008
 30
0.0
 10
11.9297932364
 20
10.05614919
 30
0.0
 10
11.9117094711
 20
10.0523144819
 30
0.0
 10
11.892848347
 20
10.0487382644
 30
0.0
 10
11.8732651808
 20
10.0454311492
 30
0.0
 10
11.8530174334
 20
10.0424029477
 30
0.0
 10
11.8321645527
 20
10.03966264
 30
0.0
 10
11.8107677864
 20
10.037218349
 30
0.0
 10
11.7888899985
 20
10.0350773178
 30
0.0
 10
11.7665954802
 20
10.0332458889
 30
0.0
 10
11.7439497581
 20
10.031729486
 30
0.0
 10
11.7210193989
 20
10.0305325989
 30
0.0
 10
11.6978718124
 20
10.0296587707
 30
0.0
 10
11.67457505
 20
10.0291105878
 30
0.0
 10
11.6511976074
 20
10.0288896731
 30
0.0
 10
11.627808211
 20
10.028996679
 30
0.0
 10
11.6044756445
 20
10.0294312917
 30
0.0
 10
11.5812684648
 20
10.0301922208
 30
0.0
 10
11.5582549981
 20
10.0312772174
 30
0.0
 10
11.5429918564
 20
10.0322203204
 30
0.0
 10
11.5354049277
 20
10.0327464757
 30
0.0
  0
SPLINE
  5
3B5
100
AcDbEntity
  8
0
100
AcDbSpline
 62
7
  6
CONTINUOUS
 70
0
 71
3
 72
82
 73
78
 74
0
 42
0.0000001
 43
0.0000001
 44
0.0000000001
 40
0.0
 40
0.0
 40
0.0
 40
0.0
 40
0.0027164291
 40
0.0054532364
 40
0.0082303053
 40
0.0110666058
 40
0.0139798164
 40
0.016986131
 40
0.0201001037
 40
0.0233346222
 40
0.0267009905
 40
0.0302089475
 40
0.0338668707
 40
0.0376818493
 40
0.0416598249
 40
0.0458057691
 40
0.0501237025
 40
0.0546169039
 40
0.0592879295
 40
0.0641387045
 40
0.069170648
 40
0.0743846285
 40
0.0797811279
 40
0.0853602093
 40
0.0970640744
 40
0.1094908292
 40
0.122630084
 40
0.1364677626
 40
0.1509865887
 40
0.1661664945
 40
0.1819849411
 40
0.1984171777
 40
0.2154364542
 40
0.233014197
 40
0.2511201854
 40
0.2697227022
 40
0.2887886669
 40
0.3082837565
 40
0.3281725155
 40
0.3484184781
 40
0.3689842782
 40
0.3898317536
 40
0.4109220451
 40
0.4536720397
 40
0.4969140311
 40
0.540322302
 40
0.5835695392
 40
0.6263299734
 40
0.6474273998
 40
0.6682832705
 40
0.6888587055
 40
0.7091155138
 40
0.7290162972
 40
0.7485245643
 40
0.7676048337
 40
0.786222742
 40
0.8043451595
 40
0.821940317
 40
0.8389779517
 40
0.8554294454
 40
0.8712679825
 40
0.8864687352
 40
0.9010090829
 40
0.9148688848
 40
0.9280307811
 40
0.9404805813
 40
0.9522077554
 40
0.9577985268
 40
0.9632067444
 40
0.9684324379
 40
0.9734760336
 40
0.9783383943
 40
0.9830208414
 40
0.9875253833
 40
0.9918546059
 40
0.9960115907
 40
1.0
 40
1.0
 40
1.0
 40
1.0
 10
12.3039668435
 20
7.5618394166
 30
0.0
 10
12.3031456385
 20
7.5618963717
 30
0.0
 10
12.3015012743
 20
7.5620850524
 30
0.0
 10
12.2990556676
 20
7.5625899277
 30
0.0
 10
12.2966285348
 20
7.5633165466
 30
0.0
 10
12.2942216289
 20
7.5642642728
 30
0.0
 10
12.291836166
 20
7.565432191
 30
0.0
 10
12.2894733881
 20
7.5668194354
 30
0.0
 10
12.2871343855
 20
7.5684250088
 30
0.0
 10
12.2848201698
 20
7.5702478646
 30
0.0
 10
12.2825317902
 20
7.5722869923
 30
0.0
 10
12.2802701796
 20
7.5745412216
 30
0.0
 10
12.2780363634
 20
7.5770094146
 30
0.0
 10
12.2758313245
 20
7.5796903079
 30
0.0
 10
12.2736560364
 20
7.5825825514
 30
0.0
 10
12.2715115534
 20
7.5856847464
 30
0.0
 10
12.2693988275
 20
7.5889953331
 30
0.0
 10
12.2673189045
 20
7.592512704
 30
0.0
 10
12.2652727783
 20
7.5962351195
 30
0.0
 10
12.2632614234
 20
7.6001607347
 30
0.0
 10
12.2612858712
 20
7.6042876249
 30
0.0
 10
12.2593470539
 20
7.6086137244
 30
0.0
 10
12.2574459453
 20
7.6131369037
 30
0.0
 10
12.2549223367
 20
7.6195300091
 30
0.0
 10
12.2518786992
 20
7.6280057138
 30
0.0
 10
12.2484472802
 20
7.6387681431
 30
0.0
 10
12.2451877479
 20
7.65025736
 30
0.0
 10
12.242106693
 20
7.6624504207
 30
0.0
 10
12.2392103583
 20
7.6753231127
 30
0.0
 10
12.2365046269
 20
7.6888497295
 30
0.0
 10
12.2339950023
 20
7.7030032272
 30
0.0
 10
12.2316865935
 20
7.7177552641
 30
0.0
 10
12.2295841036
 20
7.7330762679
 30
0.0
 10
12.2276918083
 20
7.7489354966
 30
0.0
 10
12.2260135576
 20
7.7653011084
 30
0.0
 10
12.2245527682
 20
7.7821402332
 30
0.0
 10
12.2233124162
 20
7.7994190413
 30
0.0
 10
12.2222950322
 20
7.817102809
 30
0.0
 10
12.2215026873
 20
7.8351559885
 30
0.0
 10
12.220936996
 20
7.8535422856
 30
0.0
 10
12.2205991223
 20
7.8722247247
 30
0.0
 10
12.2204897447
 20
7.8911657706
 30
0.0
 10
12.2206497085
 20
7.9168292802
 30
0.0
 10
12.2214258128
 20
7.9492730344
 30
0.0
 10
12.2232548544
 20
7.9884466033
 30
0.0
 10
12.2259713963
 20
8.0277198117
 30
0.0
 10
12.2295535746
 20
8.0667768807
 30
0.0
 10
12.2332522093
 20
8.0990254212
 30
0.0
 10
12.2366276376
 20
8.1244744246
 30
0.0
 10
12.2393443163
 20
8.1432276581
 30
0.0
 10
12.2422517874
 20
8.1616944218
 30
0.0
 10
12.2453442126
 20
8.1798376105
 30
0.0
 10
12.2486153505
 20
8.1976207383
 30
0.0
 10
12.2520585984
 20
8.2150080605
 30
0.0
 10
12.2556670041
 20
8.231964633
 30
0.0
 10
12.2594332824
 20
8.2484563835
 30
0.0
 10
12.2633498283
 20
8.2644501796
 30
0.0
 10
12.2674087344
 20
8.2799139015
 30
0.0
 10
12.2716017958
 20
8.2948165129
 30
0.0
 10
12.2759205375
 20
8.3091281248
 30
0.0
 10
12.2803562313
 20
8.3228200551
 30
0.0
 10
12.2848999143
 20
8.3358648895
 30
0.0
 10
12.2895424135
 20
8.3482365552
 30
0.0
 10
12.2942743543
 20
8.3599103645
 30
0.0
 10
12.2990862093
 20
8.3708631595
 30
0.0
 10
12.3039682961
 20
8.3810730711
 30
0.0
 10
12.3081511001
 20
8.3890682135
 30
0.0
 10
12.3115318724
 20
8.3950686754
 30
0.0
 10
12.3140384493
 20
8.399298919
 30
0.0
 10
12.3165552484
 20
8.4033289016
 30
0.0
 10
12.3190810409
 20
8.4071566162
 30
0.0
 10
12.3216145303
 20
8.4107801725
 30
0.0
 10
12.3241545263
 20
8.4141977648
 30
0.0
 10
12.3266997762
 20
8.4174077543
 30
0.0
 10
12.3292491098
 20
8.4204085588
 30
0.0
 10
12.3318011385
 20
8.4231985496
 30
0.0
 10
12.3335388202
 20
8.4249528067
 30
0.0
 10
12.3344081361
 20
8.4257925014
 30
0.0
  0
SPLINE
  5
3B6
100
AcDbEntity
  8
0
100
AcDbSpline
 62
7
  6
CONTINUOUS
 70
0
 71
3
 72
57
 73
53
 74
0
 42
0.0000001
 43
0.0000001
 44
0.0000000001
 40
0.0
 40
0.0
 40
0.0
 40
0.0
 40
0.0075207525
 40
0.0156240325
 40
0.0243308614
 40
0.0336546301
 40
0.0436024271
 40
0.0541763765
 40
0.0653744283
 40
0.0771909745
 40
0.0896175297
 40
0.1026429528
 40
0.1162538654
 40
0.1304349454
 40
0.1451689843
 40
0.1604372353
 40
0.1762194622
 40
0.1924940453
 40
0.2092382131
 40
0.2264279957
 40
0.2620427487
 40
0.2991284251
 40
0.3374614636
 40
0.3768078207
 40
0.4169251328
 40
0.4575648304
 40
0.4984741812
 40
0.5393983111
 40
0.5800822305
 40
0.6202728557
 40
0.6597210261
 40
0.6981835546
 40
0.7354253343
 40
0.7712214718
 40
0.7885109206
 40
0.8053604621
 40
0.8217458644
 40
0.8376440784
 40
0.8530332192
 40
0.8678926933
 40
0.8822034212
 40
0.895947816
 40
0.9091100893
 40
0.9216764187
 40
0.9336350908
 40
0.9449769803
 40
0.9556957931
 40
0.9657885947
 40
0.9752564015
 40
0.9841051066
 40
0.9923469445
 40
1.0
 40
1.0
 40
1.0
 40
1.0
 10
12.2841767722
 20
7.7476391657
 30
0.0
 10
12.2833421398
 20
7.7486653818
 30
0.0
 10
12.2816976262
 20
7.7508709204
 30
0.0
 10
12.2793834001
 20
7.7544738199
 30
0.0
 10
12.2771352193
 20
7.75848584
 30
0.0
 10
12.2749567067
 20
7.7629004363
 30
0.0
 10
12.2728511075
 20
7.7677107206
 30
0.0
 10
12.2708218314
 20
7.7729089911
 30
0.0
 10
12.268872186
 20
7.7784868687
 30
0.0
 10
12.267005353
 20
7.784435273
 30
0.0
 10
12.2652244709
 20
7.7907444843
 30
0.0
 10
12.2635324905
 20
7.797404136
 30
0.0
 10
12.2619322361
 20
7.8044032578
 30
0.0
 10
12.2604264191
 20
7.8117302978
 30
0.0
 10
12.2590175319
 20
7.8193731361
 30
0.0
 10
12.2577079579
 20
7.8273191196
 30
0.0
 10
12.256499899
 20
7.8355550815
 30
0.0
 10
12.2553953651
 20
7.8440673595
 30
0.0
 10
12.2543962173
 20
7.8528418446
 30
0.0
 10
12.2531926203
 20
7.8650153088
 30
0.0
 10
12.251973096
 20
7.8807805107
 30
0.0
 10
12.2509678676
 20
7.9002854586
 30
0.0
 10
12.2504112718
 20
7.9204648602
 30
0.0
 10
12.2503071919
 20
7.9411847258
 30
0.0
 10
12.2506565024
 20
7.9623075821
 30
0.0
 10
12.2514569993
 20
7.9836931926
 30
0.0
 10
12.2527034432
 20
8.0051995668
 30
0.0
 10
12.2543875859
 20
8.0266838987
 30
0.0
 10
12.256498218
 20
8.0480035318
 30
0.0
 10
12.2590212594
 20
8.0690169207
 30
0.0
 10
12.2619398541
 20
8.0895845666
 30
0.0
 10
12.2652344596
 20
8.109570025
 30
0.0
 10
12.2688830164
 20
8.1288406147
 30
0.0
 10
12.2722355548
 20
8.1443720579
 30
0.0
 10
12.2750841952
 20
8.156338444
 30
0.0
 10
12.2772686556
 20
8.1649525144
 30
0.0
 10
12.2795221619
 20
8.1732955872
 30
0.0
 10
12.2818409537
 20
8.1813538358
 30
0.0
 10
12.2842211598
 20
8.189113895
 30
0.0
 10
12.2866588278
 20
8.1965629034
 30
0.0
 10
12.2891498589
 20
8.2036885351
 30
0.0
 10
12.2916901243
 20
8.2104790023
 30
0.0
 10
12.2942753828
 20
8.2169230963
 30
0.0
 10
12.296901312
 20
8.2230102074
 30
0.0
 10
12.2995635858
 20
8.2287303241
 30
0.0
 10
12.3022577642
 20
8.2340741011
 30
0.0
 10
12.3049794247
 20
8.2390328419
 30
0.0
 10
12.3077241641
 20
8.2435985136
 30
0.0
 10
12.3104874909
 20
8.24776381
 30
0.0
 10
12.3132652434
 20
8.2515222544
 30
0.0
 10
12.3160529342
 20
8.2548675658
 30
0.0
 10
12.3179851731
 20
8.2568921075
 30
0.0
 10
12.3189533212
 20
8.2578272668
 30
0.0
  0
SPLINE
  5
3B7
100
AcDbEntity
  8
0
100
AcDbSpline
 62
7
  6
CONTINUOUS
 70
0
 71
3
 72
44
 73
40
 74
0
 42
0.0000001
 43
0.0000001
 44
0.0000000001
 40
0.0
 40
0.0
 40
0.0
 40
0.0
 40
0.0311441543
 40
0.0624413527
 40
0.0938856704
 40
0.1254674301
 40
0.1571744232
 40
0.1889918967
 40
0.2209029056
 40
0.2528886665
 40
0.2849289365
 40
0.3170024165
 40
0.3490871655
 40
0.3811610253
 40
0.4132020474
 40
0.4451889174
 40
0.477101372
 40
0.5089205996
 40
0.5406296198
 40
0.5722136396
 40
0.603660374
 40
0.6349603231
 40
0.6661070065
 40
0.6970971441
 40
0.7279307688
 40
0.7586112764
 40
0.7891454071
 40
0.8195431409
 40
0.8498175195
 40
0.8649161013
 40
0.8799900027
 40
0.8950415891
 40
0.9100733537
 40
0.9250879052
 40
0.9400879559
 40
0.9550763011
 40
0.9700558055
 40
0.9850293877
 40
1.0
 40
1.0
 40
1.0
 40
1.0
 10
10.6740678266
 20
6.3159735997
 30
0.0
 10
10.6636895274
 20
6.3166933372
 30
0.0
 10
10.6429268891
 20
6.318896002
 30
0.0
 10
10.6120346584
 20
6.324444575
 30
0.0
 10
10.5814733105
 20
6.3322164416
 30
0.0
 10
10.5514079038
 20
6.3421698499
 30
0.0
 10
10.5219981653
 20
6.3542514419
 30
0.0
 10
10.4934009677
 20
6.3683965586
 30
0.0
 10
10.465768663
 20
6.384529641
 30
0.0
 10
10.4392485008
 20
6.4025645547
 30
0.0
 10
10.4139817588
 20
6.4224050345
 30
0.0
 10
10.3901030753
 20
6.4439452754
 30
0.0
 10
10.3677397247
 20
6.467070459
 30
0.0
 10
10.3470108771
 20
6.4916572964
 30
0.0
 10
10.328027045
 20
6.5175747621
 30
0.0
 10
10.3108895151
 20
6.5446847774
 30
0.0
 10
10.2956897187
 20
6.572842876
 30
0.0
 10
10.2825088032
 20
6.6018990126
 30
0.0
 10
10.27141725
 20
6.6316983667
 30
0.0
 10
10.2624744196
 20
6.6620821169
 30
0.0
 10
10.255728224
 20
6.6928882868
 30
0.0
 10
10.251214956
 20
6.7239526194
 30
0.0
 10
10.2489590468
 20
6.7551094214
 30
0.0
 10
10.2489728384
 20
6.7861924277
 30
0.0
 10
10.2512566365
 20
6.8170357267
 30
0.0
 10
10.2557986253
 20
6.8474744958
 30
0.0
 10
10.2625750293
 20
6.8773463611
 30
0.0
 10
10.271549442
 20
6.9064905352
 30
0.0
 10
10.2808305607
 20
6.9300665725
 30
0.0
 10
10.28929991
 20
6.9484003228
 30
0.0
 10
10.2961609116
 20
6.9618631988
 30
0.0
 10
10.3035265714
 20
6.9750309321
 30
0.0
 10
10.3113871981
 20
6.9878861691
 30
0.0
 10
10.3197322521
 20
7.0004116638
 30
0.0
 10
10.3285505674
 20
7.0125907234
 30
0.0
 10
10.3378304001
 20
7.024407013
 30
0.0
 10
10.347559383
 20
7.0358448177
 30
0.0
 10
10.3577242775
 20
7.0468886654
 30
0.0
 10
10.3647832492
 20
7.0539794641
 30
0.0
 10
10.3683800321
 20
7.0574536809
 30
0.0
  0
SPLINE
  5
3B8
100
AcDbEntity
  8
0
100
AcDbSpline
 62
7
  6
CONTINUOUS
 70
0
 71
3
 72
11
 73
7
 74
0
 42
0.0000001
 43
0.0000001
 44
0.0000000001
 40
0.0
 40
0.0
 40
0.0
 40
0.0
 40
0.2522347022
 40
0.5029338439
 40
0.7521563242
 40
1.0
 40
1.0
 40
1.0
 40
1.0
 10
10.8231474737
 20
6.6579882957
 30
0.0
 10
10.8297947635
 20
6.6575273046
 30
0.0
 10
10.8430966754
 20
6.6571876999
 30
0.0
 10
10.8629520301
 20
6.6584463729
 30
0.0
 10
10.8825000051
 20
6.6614641397
 30
0.0
 10
10.8952625375
 20
6.6646433412
 30
0.0
 10
10.9015360417
 20
6.6665167702
 30
0.0
  0
SPLINE
  5
3B9
100
AcDbEntity
  8
0
100
AcDbSpline
 62
7
  6
CONTINUOUS
 70
0
 71
3
 72
23
 73
19
 74
0
 42
0.0000001
 43
0.0000001
 44
0.0000000001
 40
0.0
 40
0.0
 40
0.0
 40
0.0
 40
0.0616482057
 40
0.123319439
 40
0.1850364697
 40
0.2468215573
 40
0.308696204
 40
0.3706809203
 40
0.4327950036
 40
0.4950563332
 40
0.5574811873
 40
0.6200840738
 40
0.6828776141
 40
0.7458723365
 40
0.8090768798
 40
0.872497055
 40
0.9361379958
 40
1.0
 40
1.0
 40
1.0
 40
1.0
 10
10.979755621
 20
6.4245082961
 30
0.0
 10
10.9748179231
 20
6.4197388581
 30
0.0
 10
10.9646819553
 20
6.4104619355
 30
0.0
 10
10.9487490465
 20
6.3973811001
 30
0.0
 10
10.9321242654
 20
6.3851648962
 30
0.0
 10
10.91485008
 20
6.373844626
 30
0.0
 10
10.8969698731
 20
6.3634486459
 30
0.0
 10
10.8785287469
 20
6.3540031585
 30
0.0
 10
10.8595731614
 20
6.345531916
 30
0.0
 10
10.8401508837
 20
6.3380562193
 30
0.0
 10
10.820310848
 20
6.33159485
 30
0.0
 10
10.8001030319
 20
6.3261640265
 30
0.0
 10
10.7795783389
 20
6.3217773783
 30
0.0
 10
10.75878843
 20
6.3184458742
 30
0.0
 10
10.7377857336
 20
6.3161778842
 30
0.0
 10
10.7166228561
 20
6.314978996
 30
0.0
 10
10.6953538517
 20
6.3148522275
 30
0.0
 10
10.6811623233
 20
6.3154815947
 30
0.0
 10
10.6740678266
 20
6.3159735997
 30
0.0
  0
SPLINE
  5
3BA
100
AcDbEntity
  8
0
100
AcDbSpline
 62
7
  6
CONTINUOUS
 70
0
 71
3
 72
24
 73
20
 74
0
 42
0.0000001
 43
0.0000001
 44
0.0000000001
 40
0.0
 40
0.0
 40
0.0
 40
0.0
 40
0.0638479197
 40
0.1274790272
 40
0.190892855
 40
0.254094742
 40
0.3170899765
 40
0.3798867868
 40
0.4424951323
 40
0.5049269755
 40
0.5671960872
 40
0.6293179347
 40
0.6913095318
 40
0.7531892677
 40
0.8149767208
 40
0.8766924545
 40
0.9075327504
 40
0.9383631671
 40
1.0
 40
1.0
 40
1.0
 40
1.0
 10
10.6782089281
 20
8.3725660993
 30
0.0
 10
10.6851797817
 20
8.372082669
 30
0.0
 10
10.6991239303
 20
8.3714582108
 30
0.0
 10
10.7200234051
 20
8.371555216
 30
0.0
 10
10.7408222214
 20
8.3726872961
 30
0.0
 10
10.7614690513
 20
8.3748516553
 30
0.0
 10
10.7819140063
 20
8.3780431758
 30
0.0
 10
10.8021072986
 20
8.3822541038
 30
0.0
 10
10.8219998661
 20
8.3874742811
 30
0.0
 10
10.8415433329
 20
8.3936910642
 30
0.0
 10
10.8606901742
 20
8.4008893843
 30
0.0
 10
10.8793938293
 20
8.4090517804
 30
0.0
 10
10.897608785
 20
8.4181584254
 30
0.0
 10
10.9152908037
 20
8.428187261
 30
0.0
 10
10.9323965985
 20
8.4391137189
 30
0.0
 10
10.9461406339
 20
8.448947949
 30
0.0
 10
10.9568041736
 20
8.4572348887
 30
0.0
 10
10.9672385444
 20
8.4657945164
 30
0.0
 10
10.9748068769
 20
8.4725216853
 30
0.0
 10
10.9797285554
 20
8.4771347502
 30
0.0
  0
SPLINE
  5
3BB
100
AcDbEntity
  8
0
100
AcDbSpline
 62
7
  6
CONTINUOUS
 70
0
 71
3
 72
44
 73
40
 74
0
 42
0.0000001
 43
0.0000001
 44
0.0000000001
 40
0.0
 40
0.0
 40
0.0
 40
0.0
 40
0.0311441543
 40
0.0624413527
 40
0.0938856704
 40
0.1254674301
 40
0.1571744232
 40
0.1889918967
 40
0.2209029056
 40
0.2528886665
 40
0.2849289365
 40
0.3170024165
 40
0.3490871655
 40
0.3811610253
 40
0.4132020474
 40
0.4451889174
 40
0.477101372
 40
0.5089205996
 40
0.5406296198
 40
0.5722136396
 40
0.603660374
 40
0.6349603231
 40
0.6661070065
 40
0.6970971441
 40
0.7279307688
 40
0.7586112764
 40
0.7891454071
 40
0.8195431409
 40
0.8498175195
 40
0.8649161013
 40
0.8799900027
 40
0.8950415891
 40
0.9100733537
 40
0.9250879052
 40
0.9400879559
 40
0.9550763011
 40
0.9700558055
 40
0.9850293877
 40
1.0
 40
1.0
 40
1.0
 40
1.0
 10
10.6740678266
 20
8.3685661022
 30
0.0
 10
10.6636895274
 20
8.3692858397
 30
0.0
 10
10.6429268891
 20
8.3714885045
 30
0.0
 10
10.6120346584
 20
8.3770370775
 30
0.0
 10
10.5814733105
 20
8.3848089441
 30
0.0
 10
10.5514079038
 20
8.3947623524
 30
0.0
 10
10.5219981653
 20
8.4068439444
 30
0.0
 10
10.4934009677
 20
8.4209890611
 30
0.0
 10
10.465768663
 20
8.4371221434
 30
0.0
 10
10.4392485008
 20
8.4551570572
 30
0.0
 10
10.4139817588
 20
8.474997537
 30
0.0
 10
10.3901030753
 20
8.4965377779
 30
0.0
 10
10.3677397247
 20
8.5196629615
 30
0.0
 10
10.3470108771
 20
8.5442497989
 30
0.0
 10
10.328027045
 20
8.5701672645
 30
0.0
 10
10.3108895151
 20
8.5972772799
 30
0.0
 10
10.2956897187
 20
8.6254353785
 30
0.0
 10
10.2825088032
 20
8.6544915151
 30
0.0
 10
10.27141725
 20
8.6842908692
 30
0.0
 10
10.2624744196
 20
8.7146746194
 30
0.0
 10
10.255728224
 20
8.7454807893
 30
0.0
 10
10.251214956
 20
8.7765451219
 30
0.0
 10
10.2489590468
 20
8.8077019239
 30
0.0
 10
10.2489728384
 20
8.8387849301
 30
0.0
 10
10.2512566365
 20
8.8696282291
 30
0.0
 10
10.2557986253
 20
8.9000669983
 30
0.0
 10
10.2625750293
 20
8.9299388636
 30
0.0
 10
10.271549442
 20
8.9590830377
 30
0.0
 10
10.2808305607
 20
8.982659075
 30
0.0
 10
10.28929991
 20
9.0009928252
 30
0.0
 10
10.2961609116
 20
9.0144557013
 30
0.0
 10
10.3035265714
 20
9.0276234346
 30
0.0
 10
10.3113871981
 20
9.0404786716
 30
0.0
 10
10.3197322521
 20
9.0530041663
 30
0.0
 10
10.3285505674
 20
9.0651832259
 30
0.0
 10
10.3378304001
 20
9.0769995155
 30
0.0
 10
10.347559383
 20
9.0884373202
 30
0.0
 10
10.3577242775
 20
9.0994811679
 30
0.0
 10
10.3647832492
 20
9.1065719665
 30
0.0
 10
10.3683800321
 20
9.1100461834
 30
0.0
  0
SPLINE
  5
3BC
100
AcDbEntity
  8
0
100
AcDbSpline
 62
7
  6
CONTINUOUS
 70
0
 71
3
 72
15
 73
11
 74
0
 42
0.0000001
 43
0.0000001
 44
0.0000000001
 40
0.0
 40
0.0
 40
0.0
 40
0.0
 40
0.1235887255
 40
0.2475361694
 40
0.371870259
 40
0.4966146223
 40
0.6217886068
 40
0.7474038826
 40
0.8734764763
 40
1.0
 40
1.0
 40
1.0
 40
1.0
 10
10.9092696802
 20
6.6963706564
 30
0.0
 10
10.9060282849
 20
6.6951598022
 30
0.0
 10
10.8994682389
 20
6.6929120037
 30
0.0
 10
10.8894453262
 20
6.6900764583
 30
0.0
 10
10.8792519681
 20
6.687779647
 30
0.0
 10
10.8689162319
 20
6.6860279234
 30
0.0
 10
10.8584661756
 20
6.6848260138
 30
0.0
 10
10.8479299881
 20
6.6841770481
 30
0.0
 10
10.8373368123
 20
6.684082893
 30
0.0
 10
10.8302676269
 20
6.6843895423
 30
0.0
 10
10.8267337726
 20
6.6846346159
 30
0.0
  0
SPLINE
  5
3BD
100
AcDbEntity
  8
0
100
AcDbSpline
 62
7
  6
CONTINUOUS
 70
0
 71
3
 72
45
 73
41
 74
0
 42
0.0000001
 43
0.0000001
 44
0.0000000001
 40
0.0
 40
0.0
 40
0.0
 40
0.0
 40
0.0311356388
 40
0.0624233814
 40
0.093857438
 40
0.1254282622
 40
0.1571238634
 40
0.1889297283
 40
0.2208291837
 40
0.2528037395
 40
0.2848334564
 40
0.3168973376
 40
0.3489737345
 40
0.3810407598
 40
0.413076705
 40
0.4450604546
 40
0.4769718926
 40
0.508792296
 40
0.5405047097
 40
0.5720942928
 40
0.6035486342
 40
0.6348580333
 40
0.6660157319
 40
0.6970180921
 40
0.7278647191
 40
0.7585585217
 40
0.7891056963
 40
0.8195156391
 40
0.8346756507
 40
0.8498062587
 40
0.864909454
 40
0.8799873791
 40
0.8950423247
 40
0.9100767127
 40
0.9250930815
 40
0.9400940767
 40
0.955082432
 40
0.9700609537
 40
0.9850325079
 40
1.0
 40
1.0
 40
1.0
 40
1.0
 10
10.6782089281
 20
8.3725660993
 30
0.0
 10
10.667892954
 20
8.3732815146
 30
0.0
 10
10.6472550739
 20
8.3754663734
 30
0.0
 10
10.6165459355
 20
8.3809615782
 30
0.0
 10
10.5861617736
 20
8.3886539264
 30
0.0
 10
10.5562647227
 20
8.398502583
 30
0.0
 10
10.5270117365
 20
8.4104554039
 30
0.0
 10
10.4985569887
 20
8.424449178
 30
0.0
 10
10.4710502523
 20
8.4404100183
 30
0.0
 10
10.4446363695
 20
8.458253747
 30
0.0
 10
10.419454392
 20
8.477886274
 30
0.0
 10
10.3956368851
 20
8.4992041199
 30
0.0
 10
10.3733092626
 20
8.5220949906
 30
0.0
 10
10.3525891362
 20
8.5464383499
 30
0.0
 10
10.3335856348
 20
8.5721059934
 30
0.0
 10
10.3163988929
 20
8.5989627749
 30
0.0
 10
10.3011195426
 20
8.626867311
 30
0.0
 10
10.2878282108
 20
8.6556726937
 30
0.0
 10
10.2765950517
 20
8.6852272401
 30
0.0
 10
10.2674794506
 20
8.7153753194
 30
0.0
 10
10.2605297137
 20
8.7459581493
 30
0.0
 10
10.2557827392
 20
8.7768146046
 30
0.0
 10
10.2532638324
 20
8.8077820604
 30
0.0
 10
10.2529866259
 20
8.8386972776
 30
0.0
 10
10.2549529397
 20
8.8693971152
 30
0.0
 10
10.2591528487
 20
8.8997198633
 30
0.0
 10
10.2655641144
 20
8.9295043433
 30
0.0
 10
10.2727307603
 20
8.9537745441
 30
0.0
 10
10.2795309846
 20
8.9727570808
 30
0.0
 10
10.2851525696
 20
8.9867500701
 30
0.0
 10
10.2912927874
 20
9.0004932989
 30
0.0
 10
10.2979436699
 20
9.0139688608
 30
0.0
 10
10.3050963568
 20
9.0271589256
 30
0.0
 10
10.3127414473
 20
9.0400460841
 30
0.0
 10
10.3208688807
 20
9.0526132935
 30
0.0
 10
10.3294678736
 20
9.0648440066
 30
0.0
 10
10.3385271169
 20
9.0767220214
 30
0.0
 10
10.3480346999
 20
9.0882317133
 30
0.0
 10
10.3579778178
 20
9.0993577154
 30
0.0
 10
10.3648892366
 20
9.1065104349
 30
0.0
 10
10.3684123651
 20
9.1100173366
 30
0.0
  0
SPLINE
  5
3BE
100
AcDbEntity
  8
0
100
AcDbSpline
 62
7
  6
CONTINUOUS
 70
0
 71
3
 72
67
 73
63
 74
0
 42
0.0000001
 43
0.0000001
 44
0.0000000001
 40
0.0
 40
0.0
 40
0.0
 40
0.0
 40
0.0156750942
 40
0.0314033581
 40
0.0471822291
 40
0.0630110277
 40
0.078887432
 40
0.0948089712
 40
0.110772773
 40
0.1267755397
 40
0.1428136435
 40
0.1588831344
 40
0.1749797863
 40
0.1910991351
 40
0.2233785987
 40
0.2556910937
 40
0.287996481
 40
0.3202548685
 40
0.3363586645
 40
0.3524365872
 40
0.3684843373
 40
0.384497882
 40
0.4004734902
 40
0.4164077731
 40
0.4322977167
 40
0.4481407093
 40
0.4639345675
 40
0.4796775654
 40
0.4953684542
 40
0.5110064753
 40
0.5265913717
 40
0.5421234007
 40
0.5576033351
 40
0.5730324586
 40
0.5884125566
 40
0.6037459086
 40
0.6190352684
 40
0.634283838
 40
0.649495237
 40
0.6646734728
 40
0.6798229009
 40
0.6949481788
 40
0.7100542177
 40
0.7251461339
 40
0.7402291958
 40
0.7553087663
 40
0.7703902437
 40
0.785479006
 40
0.800580355
 40
0.8156994586
 40
0.8308412945
 40
0.8460105982
 40
0.8612118184
 40
0.8764490695
 40
0.8917260901
 40
0.9070462114
 40
0.9224123039
 40
0.9378268167
 40
0.9532917037
 40
0.9688081228
 40
0.9843779034
 40
1.0
 40
1.0
 40
1.0
 40
1.0
 10
10.6782089281
 20
8.541603129
 30
0.0
 10
10.6740140481
 20
8.5418940449
 30
0.0
 10
10.6656229114
 20
8.5426826753
 30
0.0
 10
10.653089101
 20
8.5444774316
 30
0.0
 10
10.6406155954
 20
8.5468819624
 30
0.0
 10
10.6282330104
 20
8.5498902158
 30
0.0
 10
10.6159709036
 20
8.5534950833
 30
0.0
 10
10.6038588723
 20
8.5576877969
 30
0.0
 10
10.5919260479
 20
8.5624582326
 30
0.0
 10
10.5802011612
 20
8.5677949009
 30
0.0
 10
10.5687124266
 20
8.5736849732
 30
0.0
 10
10.5574875552
 20
8.580114171
 30
0.0
 10
10.5465532907
 20
8.5870672304
 30
0.0
 10
10.5323928345
 20
8.5970167311
 30
0.0
 10
10.5155516899
 20
8.6106767089
 30
0.0
 10
10.4969218215
 20
8.6288547663
 30
0.0
 10
10.4800352933
 20
8.6486554131
 30
0.0
 10
10.4675414692
 20
8.6663646786
 30
0.0
 10
10.4585729635
 20
8.6811485837
 30
0.0
 10
10.4523781168
 20
8.6925124835
 30
0.0
 10
10.4467272846
 20
8.7041292773
 30
0.0
 10
10.4416338779
 20
8.7159712914
 30
0.0
 10
10.4371102565
 20
8.7280099571
 30
0.0
 10
10.4331672892
 20
8.7402163066
 30
0.0
 10
10.4298144839
 20
8.7525609507
 30
0.0
 10
10.4270599424
 20
8.7650141767
 30
0.0
 10
10.4249103486
 20
8.7775460067
 30
0.0
 10
10.4233708781
 20
8.7901262611
 30
0.0
 10
10.4224452562
 20
8.8027246468
 30
0.0
 10
10.4221357498
 20
8.8153108245
 30
0.0
 10
10.4224431619
 20
8.8278544773
 30
0.0
 10
10.423366755
 20
8.8403253864
 30
0.0
 10
10.4249043259
 20
8.8526935074
 30
0.0
 10
10.4270522103
 20
8.8649290361
 30
0.0
 10
10.4298052904
 20
8.8770024761
 30
0.0
 10
10.4331569338
 20
8.8888847284
 30
0.0
 10
10.437099082
 20
8.9005471497
 30
0.0
 10
10.4416222688
 20
8.9119616166
 30
0.0
 10
10.4467156401
 20
8.9231005887
 30
0.0
 10
10.4523669113
 20
8.9339372093
 30
0.0
 10
10.4585624677
 20
8.944445344
 30
0.0
 10
10.4652873938
 20
8.954599639
 30
0.0
 10
10.4725255073
 20
8.9643755792
 30
0.0
 10
10.4802593368
 20
8.9737495948
 30
0.0
 10
10.4884702292
 20
8.9826990781
 30
0.0
 10
10.497138391
 20
8.9912024344
 30
0.0
 10
10.5062429334
 20
8.999239131
 30
0.0
 10
10.5157618732
 20
9.006789806
 30
0.0
 10
10.5256722418
 20
9.0138362615
 30
0.0
 10
10.535950137
 20
9.0203615047
 30
0.0
 10
10.5465707771
 20
9.026349786
 30
0.0
 10
10.557508525
 20
9.0317867042
 30
0.0
 10
10.5687369935
 20
9.0366591766
 30
0.0
 10
10.5802291052
 20
9.0409554691
 30
0.0
 10
10.5919571536
 20
9.0446652229
 30
0.0
 10
10.6038928466
 20
9.0477795428
 30
0.0
 10
10.6160074061
 20
9.05029097
 30
0.0
 10
10.6282716506
 20
9.0521934674
 30
0.0
 10
10.640655936
 20
9.0534824262
 30
0.0
 10
10.6531306883
 20
9.0541548972
 30
0.0
 10
10.6656652477
 20
9.054209135
 30
0.0
 10
10.674028231
 20
9.0538337796
 30
0.0
 10
10.6782089281
 20
9.0535438472
 30
0.0
  0
SPLINE
  5
3BF
100
AcDbEntity
  8
0
100
AcDbSpline
 62
7
  6
CONTINUOUS
 70
0
 71
3
 72
41
 73
37
 74
0
 42
0.0000001
 43
0.0000001
 44
0.0000000001
 40
0.0
 40
0.0
 40
0.0
 40
0.0
 40
0.0311447181
 40
0.062442515
 40
0.0938874625
 40
0.1254698002
 40
0.1571773985
 40
0.1730760322
 40
0.1890002546
 40
0.2209118669
 40
0.2528982321
 40
0.2689155106
 40
0.284943791
 40
0.3170178783
 40
0.3491032352
 40
0.3811777027
 40
0.4132193318
 40
0.4452068082
 40
0.4771198677
 40
0.5089396984
 40
0.5406493204
 40
0.5722339407
 40
0.603681273
 40
0.6349818179
 40
0.6661290955
 40
0.6971198236
 40
0.727954035
 40
0.7586351272
 40
0.7891698391
 40
0.8195681507
 40
0.8498431051
 40
0.8800105515
 40
0.910088813
 40
0.940098286
 40
0.9700609781
 40
1.0
 40
1.0
 40
1.0
 40
1.0
 10
10.685973493
 20
8.5780808997
 30
0.0
 10
10.6804305481
 20
8.5784653043
 30
0.0
 10
10.6693414219
 20
8.5796417242
 30
0.0
 10
10.6528421972
 20
8.5826051545
 30
0.0
 10
10.6365195976
 20
8.586756074
 30
0.0
 10
10.6204622335
 20
8.5920719533
 30
0.0
 10
10.6073830492
 20
8.5974449845
 30
0.0
 10
10.5971361714
 20
8.6022929886
 30
0.0
 10
10.5870310855
 20
8.60750997
 30
0.0
 10
10.5747228784
 20
8.6146959625
 30
0.0
 10
10.5629238786
 20
8.622719915
 30
0.0
 10
10.5538183
 20
8.62962112
 30
0.0
 10
10.5449417704
 20
8.6368393212
 30
0.0
 10
10.5343104367
 20
8.6464294431
 30
0.0
 10
10.5223666163
 20
8.6587801693
 30
0.0
 10
10.5112954633
 20
8.6719118072
 30
0.0
 10
10.5011563963
 20
8.6857540596
 30
0.0
 10
10.4920033869
 20
8.7002332516
 30
0.0
 10
10.483885306
 20
8.7152722106
 30
0.0
 10
10.4768454958
 20
8.7307908093
 30
0.0
 10
10.4709215848
 20
8.7467063501
 30
0.0
 10
10.4661452753
 20
8.7629340105
 30
0.0
 10
10.4625421757
 20
8.7793872857
 30
0.0
 10
10.4601316609
 20
8.7959784446
 30
0.0
 10
10.4589267648
 20
8.8126189909
 30
0.0
 10
10.4589341057
 20
8.8292201291
 30
0.0
 10
10.46015384
 20
8.8456932335
 30
0.0
 10
10.4625796535
 20
8.8619503188
 30
0.0
 10
10.4661987868
 20
8.8779045066
 30
0.0
 10
10.4709920935
 20
8.893470493
 30
0.0
 10
10.4769341237
 20
8.9085649997
 30
0.0
 10
10.4839932786
 20
8.9231072533
 30
0.0
 10
10.4921318624
 20
8.9370193225
 30
0.0
 10
10.5013066797
 20
8.9502269335
 30
0.0
 10
10.511467767
 20
8.9626584383
 30
0.0
 10
10.5188663861
 20
8.9703875537
 30
0.0
 10
10.5227080392
 20
8.9740983077
 30
0.0
  0
SPLINE
  5
3C0
100
AcDbEntity
  8
0
100
AcDbSpline
 62
7
  6
CONTINUOUS
 70
0
 71
3
 72
39
 73
35
 74
0
 42
0.0000001
 43
0.0000001
 44
0.0000000001
 40
0.0
 40
0.0
 40
0.0
 40
0.0
 40
0.0308961411
 40
0.0619204523
 40
0.0930682029
 40
0.1243342762
 40
0.1557110328
 40
0.1871896249
 40
0.2187596565
 40
0.2504095069
 40
0.2821264471
 40
0.3138968366
 40
0.3457063088
 40
0.3775399692
 40
0.4093825971
 40
0.4412188516
 40
0.4730334777
 40
0.5048115117
 40
0.536538484
 40
0.5682006173
 40
0.5997850172
 40
0.6312798558
 40
0.6626745425
 40
0.6939598828
 40
0.7251282214
 40
0.7561735677
 40
0.7870917013
 40
0.8178802548
 40
0.8485387714
 40
0.8790687362
 40
0.9094735779
 40
0.9397586411
 40
0.9699311265
 40
1.0
 40
1.0
 40
1.0
 40
1.0
 10
10.8267337726
 20
8.7372271184
 30
0.0
 10
10.8225794128
 20
8.7375152242
 30
0.0
 10
10.8142688842
 20
8.7383462866
 30
0.0
 10
10.8018776572
 20
8.7403447598
 30
0.0
 10
10.7895788158
 20
8.7430904504
 30
0.0
 10
10.777418772
 20
8.7465729488
 30
0.0
 10
10.7654425514
 20
8.7507793222
 30
0.0
 10
10.7536947544
 20
8.7556938332
 30
0.0
 10
10.7422190506
 20
8.7612981771
 30
0.0
 10
10.7310581145
 20
8.7675714651
 30
0.0
 10
10.7202534438
 20
8.7744903386
 30
0.0
 10
10.7098452116
 20
8.7820290414
 30
0.0
 10
10.6998721179
 20
8.7901595203
 30
0.0
 10
10.6903712467
 20
8.7988515273
 30
0.0
 10
10.6813779284
 20
8.8080727307
 30
0.0
 10
10.6729256085
 20
8.8177888348
 30
0.0
 10
10.6650457257
 20
8.8279637077
 30
0.0
 10
10.6577675955
 20
8.8385595149
 30
0.0
 10
10.6511183016
 20
8.8495368585
 30
0.0
 10
10.6451225962
 20
8.8608549227
 30
0.0
 10
10.6398028079
 20
8.8724716242
 30
0.0
 10
10.635178759
 20
8.8843437672
 30
0.0
 10
10.631267692
 20
8.8964272026
 30
0.0
 10
10.6280842047
 20
8.9086769905
 30
0.0
 10
10.6256401959
 20
8.9210475658
 30
0.0
 10
10.6239448197
 20
8.9334929059
 30
0.0
 10
10.6230044481
 20
8.9459667002
 30
0.0
 10
10.6228226485
 20
8.9584225226
 30
0.0
 10
10.6234001664
 20
8.970813998
 30
0.0
 10
10.6247349286
 20
8.9830949933
 30
0.0
 10
10.6268220196
 20
8.9952197162
 30
0.0
 10
10.6296538026
 20
9.0071431523
 30
0.0
 10
10.6332195543
 20
9.0188202447
 30
0.0
 10
10.636082408
 20
9.0264254227
 30
0.0
 10
10.6376311737
 20
9.0301706588
 30
0.0
  0
SPLINE
  5
3C1
100
AcDbEntity
  8
0
100
AcDbSpline
 62
7
  6
CONTINUOUS
 70
0
 71
3
 72
39
 73
35
 74
0
 42
0.0000001
 43
0.0000001
 44
0.0000000001
 40
0.0
 40
0.0
 40
0.0
 40
0.0
 40
0.0308543313
 40
0.0618327495
 40
0.0929305123
 40
0.1241432587
 40
0.1554639095
 40
0.1868844477
 40
0.2183953831
 40
0.2499861028
 40
0.2816449543
 40
0.3133594169
 40
0.3451162629
 40
0.3769017292
 40
0.4087016925
 40
0.4405018472
 40
0.4722878852
 40
0.5040456758
 40
0.5357614439
 40
0.5674219452
 40
0.5990146375
 40
0.6305278458
 40
0.6619509174
 40
0.6932743683
 40
0.7244900173
 40
0.7555911062
 40
0.7865724051
 40
0.8174302998
 40
0.8481628606
 40
0.8787698897
 40
0.9092529457
 40
0.9396153419
 40
0.9698621206
 40
1.0
 40
1.0
 40
1.0
 40
1.0
 10
10.8231474737
 20
8.7105807982
 30
0.0
 10
10.8186732672
 20
8.7108910855
 30
0.0
 10
10.8097229957
 20
8.7117770514
 30
0.0
 10
10.7963735948
 20
8.7138893564
 30
0.0
 10
10.7831172414
 20
8.7167805682
 30
0.0
 10
10.7700007507
 20
8.7204403904
 30
0.0
 10
10.7570695242
 20
8.7248561454
 30
0.0
 10
10.7443686131
 20
8.7300123662
 30
0.0
 10
10.7319421738
 20
8.7358910988
 30
0.0
 10
10.719833429
 20
8.742471849
 30
0.0
 10
10.7080844901
 20
8.7497317007
 30
0.0
 10
10.6967362162
 20
8.7576453755
 30
0.0
 10
10.6858280707
 20
8.7661853252
 30
0.0
 10
10.6753979878
 20
8.7753218302
 30
0.0
 10
10.6654822414
 20
8.7850231024
 30
0.0
 10
10.6561153204
 20
8.7952553943
 30
0.0
 10
10.6473298092
 20
8.8059831163
 30
0.0
 10
10.6391562754
 20
8.8171689589
 30
0.0
 10
10.6316231646
 20
8.8287740213
 30
0.0
 10
10.6247567016
 20
8.840757946
 30
0.0
 10
10.6185807937
 20
8.8530790548
 30
0.0
 10
10.6131169524
 20
8.8656944962
 30
0.0
 10
10.6083842195
 20
8.8785603937
 30
0.0
 10
10.6043991012
 20
8.8916319966
 30
0.0
 10
10.6011755097
 20
8.904863834
 30
0.0
 10
10.5987247151
 20
8.9182098718
 30
0.0
 10
10.597055305
 20
8.9316236703
 30
0.0
 10
10.5961731543
 20
8.9450585457
 30
0.0
 10
10.5960813985
 20
8.9584677264
 30
0.0
 10
10.5967804245
 20
8.9718045344
 30
0.0
 10
10.5982678503
 20
8.985022475
 30
0.0
 10
10.6005386168
 20
8.9980756693
 30
0.0
 10
10.6035846819
 20
9.0109180039
 30
0.0
 10
10.6061300767
 20
9.0193250841
 30
0.0
 10
10.6075281332
 20
9.0234768229
 30
0.0
  0
SPLINE
  5
3C2
100
AcDbEntity
  8
0
100
AcDbSpline
 62
7
  6
CONTINUOUS
 70
0
 71
3
 72
23
 73
19
 74
0
 42
0.0000001
 43
0.0000001
 44
0.0000000001
 40
0.0
 40
0.0
 40
0.0
 40
0.0
 40
0.0616482057
 40
0.123319439
 40
0.1850364697
 40
0.2468215573
 40
0.308696204
 40
0.3706809203
 40
0.4327950036
 40
0.4950563332
 40
0.5574811873
 40
0.6200840738
 40
0.6828776141
 40
0.7458723365
 40
0.8090768798
 40
0.872497055
 40
0.9361379958
 40
1.0
 40
1.0
 40
1.0
 40
1.0
 10
10.979755621
 20
8.4771007985
 30
0.0
 10
10.9748179231
 20
8.4723313606
 30
0.0
 10
10.9646819553
 20
8.463054438
 30
0.0
 10
10.9487490465
 20
8.4499736026
 30
0.0
 10
10.9321242654
 20
8.4377573987
 30
0.0
 10
10.91485008
 20
8.4264371285
 30
0.0
 10
10.8969698731
 20
8.4160411484
 30
0.0
 10
10.8785287469
 20
8.406595661
 30
0.0
 10
10.8595731614
 20
8.3981244185
 30
0.0
 10
10.8401508837
 20
8.3906487218
 30
0.0
 10
10.820310848
 20
8.3841873525
 30
0.0
 10
10.8001030319
 20
8.378756529
 30
0.0
 10
10.7795783389
 20
8.3743698808
 30
0.0
 10
10.75878843
 20
8.3710383767
 30
0.0
 10
10.7377857336
 20
8.3687703867
 30
0.0
 10
10.7166228561
 20
8.3675714985
 30
0.0
 10
10.6953538517
 20
8.36744473
 30
0.0
 10
10.6811623233
 20
8.3680740972
 30
0.0
 10
10.6740678266
 20
8.3685661022
 30
0.0
  0
SPLINE
  5
3C3
100
AcDbEntity
  8
0
100
AcDbSpline
 62
7
  6
CONTINUOUS
 70
0
 71
3
 72
67
 73
63
 74
0
 42
0.0000001
 43
0.0000001
 44
0.0000000001
 40
0.0
 40
0.0
 40
0.0
 40
0.0
 40
0.0156220966
 40
0.0311918772
 40
0.0467082963
 40
0.0621731833
 40
0.0775876961
 40
0.0929537886
 40
0.1082739099
 40
0.1235509305
 40
0.1387881816
 40
0.1539894018
 40
0.1691587055
 40
0.1843005414
 40
0.199419645
 40
0.214520994
 40
0.2296097563
 40
0.2446912337
 40
0.2597708042
 40
0.2748538661
 40
0.2899457823
 40
0.3050518212
 40
0.3201770991
 40
0.3353265272
 40
0.350504763
 40
0.365716162
 40
0.3809647316
 40
0.3962540914
 40
0.4115874434
 40
0.4269675414
 40
0.4423966649
 40
0.4578765993
 40
0.4734086283
 40
0.4889935247
 40
0.5046315458
 40
0.5203224346
 40
0.5360654325
 40
0.5518592907
 40
0.5677022833
 40
0.5835922269
 40
0.5995265098
 40
0.615502118
 40
0.6315156627
 40
0.6475634128
 40
0.6636413355
 40
0.6797451315
 40
0.712003519
 40
0.7443089063
 40
0.7766214013
 40
0.8089008649
 40
0.8250202137
 40
0.8411168656
 40
0.8571863565
 40
0.8732244603
 40
0.889227227
 40
0.9051910288
 40
0.921112568
 40
0.9369889723
 40
0.9528177709
 40
0.9685966419
 40
0.9843249058
 40
1.0
 40
1.0
 40
1.0
 40
1.0
 10
10.6782089281
 20
8.541603129
 30
0.0
 10
10.6823896251
 20
8.5413131966
 30
0.0
 10
10.6907526084
 20
8.5409378411
 30
0.0
 10
10.7032871679
 20
8.540992079
 30
0.0
 10
10.7157619202
 20
8.54166455
 30
0.0
 10
10.7281462055
 20
8.5429535088
 30
0.0
 10
10.74041045
 20
8.5448560062
 30
0.0
 10
10.7525250096
 20
8.5473674334
 30
0.0
 10
10.7644607025
 20
8.5504817533
 30
0.0
 10
10.776188751
 20
8.5541915071
 30
0.0
 10
10.7876808627
 20
8.5584877996
 30
0.0
 10
10.7989093312
 20
8.563360272
 30
0.0
 10
10.8098470791
 20
8.5687971902
 30
0.0
 10
10.8204677191
 20
8.5747854715
 30
0.0
 10
10.8307456144
 20
8.5813107147
 30
0.0
 10
10.8406559829
 20
8.5883571702
 30
0.0
 10
10.8501749228
 20
8.5959078451
 30
0.0
 10
10.8592794651
 20
8.6039445418
 30
0.0
 10
10.867947627
 20
8.6124478981
 30
0.0
 10
10.8761585193
 20
8.6213973814
 30
0.0
 10
10.8838923489
 20
8.630771397
 30
0.0
 10
10.8911304623
 20
8.6405473372
 30
0.0
 10
10.8978553885
 20
8.6507016322
 30
0.0
 10
10.9040509448
 20
8.6612097669
 30
0.0
 10
10.9097022161
 20
8.6720463875
 30
0.0
 10
10.9147955873
 20
8.6831853596
 30
0.0
 10
10.9193187741
 20
8.6945998265
 30
0.0
 10
10.9232609224
 20
8.7062622478
 30
0.0
 10
10.9266125657
 20
8.7181445
 30
0.0
 10
10.9293656458
 20
8.7302179401
 30
0.0
 10
10.9315135302
 20
8.7424534688
 30
0.0
 10
10.9330511011
 20
8.7548215898
 30
0.0
 10
10.9339746943
 20
8.7672924989
 30
0.0
 10
10.9342821064
 20
8.7798361517
 30
0.0
 10
10.9339725999
 20
8.7924223294
 30
0.0
 10
10.933046978
 20
8.8050207151
 30
0.0
 10
10.9315075075
 20
8.8176009695
 30
0.0
 10
10.9293579137
 20
8.8301327995
 30
0.0
 10
10.9266033723
 20
8.8425860255
 30
0.0
 10
10.9232505669
 20
8.8549306696
 30
0.0
 10
10.9193075996
 20
8.8671370191
 30
0.0
 10
10.9147839783
 20
8.8791756848
 30
0.0
 10
10.9096905715
 20
8.8910176989
 30
0.0
 10
10.9040397393
 20
8.9026344927
 30
0.0
 10
10.8978448927
 20
8.9139983924
 30
0.0
 10
10.8888763869
 20
8.9287822976
 30
0.0
 10
10.8763825629
 20
8.9464915631
 30
0.0
 10
10.8594960346
 20
8.9662922099
 30
0.0
 10
10.8408661663
 20
8.9844702673
 30
0.0
 10
10.8240250216
 20
8.9981302451
 30
0.0
 10
10.8098645654
 20
9.0080797458
 30
0.0
 10
10.7989303009
 20
9.0150328051
 30
0.0
 10
10.7877054295
 20
9.021462003
 30
0.0
 10
10.776216695
 20
9.0273520753
 30
0.0
 10
10.7644918082
 20
9.0326887436
 30
0.0
 10
10.7525589839
 20
9.0374591793
 30
0.0
 10
10.7404469525
 20
9.0416518929
 30
0.0
 10
10.7281848457
 20
9.0452567604
 30
0.0
 10
10.7158022608
 20
9.0482650138
 30
0.0
 10
10.7033287552
 20
9.0506695446
 30
0.0
 10
10.6907949448
 20
9.0524643009
 30
0.0
 10
10.682403808
 20
9.0532529313
 30
0.0
 10
10.6782089281
 20
9.0535438472
 30
0.0
  0
SPLINE
  5
3C4
100
AcDbEntity
  8
0
100
AcDbSpline
 62
7
  6
CONTINUOUS
 70
0
 71
3
 72
23
 73
19
 74
0
 42
0.0000001
 43
0.0000001
 44
0.0000000001
 40
0.0
 40
0.0
 40
0.0
 40
0.0
 40
0.0638609742
 40
0.1275034352
 40
0.1909230191
 40
0.2541276449
 40
0.3171224247
 40
0.3799159145
 40
0.4425188174
 40
0.5049436698
 40
0.5672049969
 40
0.6293190749
 40
0.6913037881
 40
0.7531784374
 40
0.8149635266
 40
0.876680556
 40
0.9383517894
 40
1.0
 40
1.0
 40
1.0
 40
1.0
 10
10.685973493
 20
8.5780808997
 30
0.0
 10
10.6897625492
 20
8.5778181278
 30
0.0
 10
10.6973421675
 20
8.5774820122
 30
0.0
 10
10.7087017772
 20
8.5775496802
 30
0.0
 10
10.7200047695
 20
8.5781900289
 30
0.0
 10
10.7312221264
 20
8.5794013256
 30
0.0
 10
10.7423258637
 20
8.5811806738
 30
0.0
 10
10.7532879442
 20
8.5835235716
 30
0.0
 10
10.7640807837
 20
8.5864241362
 30
0.0
 10
10.7746771969
 20
8.5898751099
 30
0.0
 10
10.7850504792
 20
8.5938678486
 30
0.0
 10
10.7951745043
 20
8.5983922968
 30
0.0
 10
10.8050237659
 20
8.6034370695
 30
0.0
 10
10.8145734469
 20
8.60898949
 30
0.0
 10
10.8237994426
 20
8.6150355875
 30
0.0
 10
10.8326785946
 20
8.621560195
 30
0.0
 10
10.8411882306
 20
8.6285465842
 30
0.0
 10
10.8466017632
 20
8.6335013318
 30
0.0
 10
10.8492389468
 20
8.636048657
 30
0.0
  0
SPLINE
  5
3C5
100
AcDbEntity
  8
0
100
AcDbSpline
 62
7
  6
CONTINUOUS
 70
0
 71
3
 72
15
 73
11
 74
0
 42
0.0000001
 43
0.0000001
 44
0.0000000001
 40
0.0
 40
0.0
 40
0.0
 40
0.0
 40
0.1235887255
 40
0.2475361694
 40
0.371870259
 40
0.4966146223
 40
0.6217886068
 40
0.7474038826
 40
0.8734764763
 40
1.0
 40
1.0
 40
1.0
 40
1.0
 10
10.9092696802
 20
8.7489631589
 30
0.0
 10
10.9060282849
 20
8.7477523047
 30
0.0
 10
10.8994682389
 20
8.7455045061
 30
0.0
 10
10.8894453262
 20
8.7426689608
 30
0.0
 10
10.8792519681
 20
8.7403721495
 30
0.0
 10
10.8689162319
 20
8.7386204259
 30
0.0
 10
10.8584661756
 20
8.7374185163
 30
0.0
 10
10.8479299881
 20
8.7367695506
 30
0.0
 10
10.8373368123
 20
8.7366753955
 30
0.0
 10
10.8302676269
 20
8.7369820448
 30
0.0
 10
10.8267337726
 20
8.7372271184
 30
0.0
  0
SPLINE
  5
3C6
100
AcDbEntity
  8
0
100
AcDbSpline
 62
7
  6
CONTINUOUS
 70
0
 71
3
 72
15
 73
11
 74
0
 42
0.0000001
 43
0.0000001
 44
0.0000000001
 40
0.0
 40
0.0
 40
0.0
 40
0.0
 40
0.1265435369
 40
0.2498718337
 40
0.3713381771
 40
0.4923645349
 40
0.6143898056
 40
0.7388149646
 40
0.8669542867
 40
1.0
 40
1.0
 40
1.0
 40
1.0
 10
11.2174672801
 20
10.1298725724
 30
0.0
 10
11.217066816
 20
10.1309402724
 30
0.0
 10
11.21637947
 20
10.1330894467
 30
0.0
 10
11.2157043607
 20
10.1363734345
 30
0.0
 10
11.215402802
 20
10.139663249
 30
0.0
 10
11.2154757715
 20
10.1429543035
 30
0.0
 10
11.2159229809
 20
10.1462423805
 30
0.0
 10
11.2167434039
 20
10.1495234695
 30
0.0
 10
11.2179350601
 20
10.1527936845
 30
0.0
 10
11.2189540925
 20
10.1549197408
 30
0.0
 10
11.2195192107
 20
10.1559771251
 30
0.0
  0
SPLINE
  5
3C7
100
AcDbEntity
  8
0
100
AcDbSpline
 62
7
  6
CONTINUOUS
 70
0
 71
3
 72
11
 73
7
 74
0
 42
0.0000001
 43
0.0000001
 44
0.0000000001
 40
0.0
 40
0.0
 40
0.0
 40
0.0
 40
0.2428904492
 40
0.4886891857
 40
0.7401944715
 40
1.0
 40
1.0
 40
1.0
 40
1.0
 10
11.2166333466
 20
10.1341147401
 30
0.0
 10
11.2166333424
 20
10.1352106473
 30
0.0
 10
11.2167597101
 20
10.1374175862
 30
0.0
 10
11.2173266303
 20
10.1407155439
 30
0.0
 10
11.2182698833
 20
10.1440052824
 30
0.0
 10
11.2191319857
 20
10.1461499153
 30
0.0
 10
11.2196196427
 20
10.1472158922
 30
0.0
  0
SPLINE
  5
3C8
100
AcDbEntity
  8
0
100
AcDbSpline
 62
7
  6
CONTINUOUS
 70
0
 71
3
 72
11
 73
7
 74
0
 42
0.0000001
 43
0.0000001
 44
0.0000000001
 40
0.0
 40
0.0
 40
0.0
 40
0.0
 40
0.2522347022
 40
0.5029338439
 40
0.7521563242
 40
1.0
 40
1.0
 40
1.0
 40
1.0
 10
10.8231474737
 20
8.7105807982
 30
0.0
 10
10.8297947635
 20
8.7101198071
 30
0.0
 10
10.8430966754
 20
8.7097802024
 30
0.0
 10
10.8629520301
 20
8.7110388754
 30
0.0
 10
10.8825000051
 20
8.7140566422
 30
0.0
 10
10.8952625375
 20
8.7172358436
 30
0.0
 10
10.9015360417
 20
8.7191092727
 30
0.0
  0
SPLINE
  5
3C9
100
AcDbEntity
  8
0
100
AcDbSpline
 62
7
  6
CONTINUOUS
 70
0
 71
3
 72
11
 73
7
 74
0
 42
0.0000001
 43
0.0000001
 44
0.0000000001
 40
0.0
 40
0.0
 40
0.0
 40
0.0
 40
0.2430309523
 40
0.4889114475
 40
0.7403853657
 40
1.0
 40
1.0
 40
1.0
 40
1.0
 10
12.0776333444
 20
10.1341147401
 30
0.0
 10
12.0776333402
 20
10.1351990662
 30
0.0
 10
12.0775096711
 20
10.1373823726
 30
0.0
 10
12.0769547521
 20
10.1406452987
 30
0.0
 10
12.0760314323
 20
10.1439003072
 30
0.0
 10
12.0751872043
 20
10.1460232144
 30
0.0
 10
12.0747095776
 20
10.1470784734
 30
0.0
  0
SPLINE
  5
3CA
100
AcDbEntity
  8
0
100
AcDbSpline
 62
7
  6
CONTINUOUS
 70
0
 71
3
 72
78
 73
74
 74
0
 42
0.0000001
 43
0.0000001
 44
0.0000000001
 40
0.0
 40
0.0
 40
0.0
 40
0.0
 40
0.0039200379
 40
0.0080015516
 40
0.0122479837
 40
0.0166622287
 40
0.02124674
 40
0.0260034681
 40
0.030933738
 40
0.0360384073
 40
0.041317965
 40
0.0467724974
 40
0.0582048983
 40
0.0703310537
 40
0.0831417496
 40
0.0966243555
 40
0.1107632557
 40
0.1255402179
 40
0.1409347078
 40
0.1569241286
 40
0.1734840082
 40
0.1905881611
 40
0.2082088628
 40
0.2263169855
 40
0.2448821136
 40
0.2638726419
 40
0.2832559005
 40
0.3029982599
 40
0.323065224
 40
0.3434215125
 40
0.3640311626
 40
0.4058631755
 40
0.4482640754
 40
0.4909307312
 40
0.533557597
 40
0.5758394908
 40
0.617474365
 40
0.637956694
 40
0.6581668689
 40
0.6780692687
 40
0.6976290081
 40
0.7168120318
 40
0.735585199
 40
0.7539163799
 40
0.7717745712
 40
0.7891300149
 40
0.8059542996
 40
0.8222204846
 40
0.8379032501
 40
0.8529790792
 40
0.8674264233
 40
0.8812259152
 40
0.8943606374
 40
0.9068164771
 40
0.9185825208
 40
0.9296515687
 40
0.9349239697
 40
0.940021519
 40
0.944944684
 40
0.9496943779
 40
0.9542719666
 40
0.958679282
 40
0.962918785
 40
0.9669935308
 40
0.9709073068
 40
0.9746647435
 40
0.9782713374
 40
0.9817336616
 40
0.9882547469
 40
0.991335611
 40
0.9943109876
 40
0.9971941828
 40
1.0
 40
1.0
 40
1.0
 40
1.0
 10
12.3189533212
 20
7.576849519
 30
0.0
 10
12.3198000925
 20
7.5776674372
 30
0.0
 10
12.3214927649
 20
7.579374308
 30
0.0
 10
12.3239800507
 20
7.5820853654
 30
0.0
 10
12.3264648598
 20
7.5849967471
 30
0.0
 10
12.3289458799
 20
7.5881069517
 30
0.0
 10
12.3314220311
 20
7.5914145053
 30
0.0
 10
12.333892154
 20
7.594917908
 30
0.0
 10
12.33635514
 20
7.5986155094
 30
0.0
 10
12.3388098175
 20
7.602505563
 30
0.0
 10
12.3412550121
 20
7.6065862444
 30
0.0
 10
12.3445528825
 20
7.6123696539
 30
0.0
 10
12.3486351725
 20
7.6200702471
 30
0.0
 10
12.3534041124
 20
7.629898994
 30
0.0
 10
12.3581079644
 20
7.640436966
 30
0.0
 10
12.3627377377
 20
7.6516641809
 30
0.0
 10
12.3672845851
 20
7.6635594844
 30
0.0
 10
12.3717398001
 20
7.6761003245
 30
0.0
 10
12.3760948382
 20
7.6892628996
 30
0.0
 10
12.380341339
 20
7.7030221896
 30
0.0
 10
12.3844711486
 20
7.7173520075
 30
0.0
 10
12.3884763487
 20
7.7322250495
 30
0.0
 10
12.3923492544
 20
7.7476129611
 30
0.0
 10
12.3960824339
 20
7.7634863977
 30
0.0
 10
12.3996687204
 20
7.7798150764
 30
0.0
 10
12.4031012433
 20
7.7965678311
 30
0.0
 10
12.4063734234
 20
7.8137126783
 30
0.0
 10
12.4094789903
 20
7.8312168872
 30
0.0
 10
12.4124119806
 20
7.8490470285
 30
0.0
 10
12.4151668017
 20
7.8671690748
 30
0.0
 10
12.4186121707
 20
7.8917961081
 30
0.0
 10
12.4224304529
 20
7.9230537105
 30
0.0
 10
12.4262056342
 20
7.9609805588
 30
0.0
 10
12.4291673358
 20
7.9992190743
 30
0.0
 10
12.4312929309
 20
8.0374773813
 30
0.0
 10
12.4325662432
 20
8.075463446
 30
0.0
 10
12.432911144
 20
8.1068183618
 30
0.0
 10
12.4327466076
 20
8.1315433717
 30
0.0
 10
12.4324067758
 20
8.1497389029
 30
0.0
 10
12.4318505832
 20
8.1676518954
 30
0.0
 10
12.4310790921
 20
8.1852481668
 30
0.0
 10
12.4300938079
 20
8.2024941102
 30
0.0
 10
12.4288966363
 20
8.2193567999
 30
0.0
 10
12.4274898876
 20
8.2358040416
 30
0.0
 10
12.4258762786
 20
8.2518044446
 30
0.0
 10
12.4240589344
 20
8.2673274841
 30
0.0
 10
12.4220413678
 20
8.2823435569
 30
0.0
 10
12.4198274743
 20
8.2968240359
 30
0.0
 10
12.4174215253
 20
8.3107413354
 30
0.0
 10
12.4148281765
 20
8.3240689741
 30
0.0
 10
12.4120524384
 20
8.3367816241
 30
0.0
 10
12.4090996661
 20
8.3488551679
 30
0.0
 10
12.4059755395
 20
8.3602667334
 30
0.0
 10
12.4026860651
 20
8.3709948531
 30
0.0
 10
12.3992375379
 20
8.3810192051
 30
0.0
 10
12.3961892424
 20
8.3888938024
 30
0.0
 10
12.393668288
 20
8.3948189806
 30
0.0
 10
12.3917726479
 20
8.3990029515
 30
0.0
 10
12.3898422451
 20
8.4029973728
 30
0.0
 10
12.3878779735
 20
8.4068003733
 30
0.0
 10
12.385880777
 20
8.4104101737
 30
0.0
 10
12.3838515322
 20
8.413825058
 30
0.0
 10
12.3817912178
 20
8.4170434511
 30
0.0
 10
12.3797007492
 20
8.4200638321
 30
0.0
 10
12.3775810324
 20
8.4228847932
 30
0.0
 10
12.3754331037
 20
8.4255049786
 30
0.0
 10
12.3732576331
 20
8.4279233246
 30
0.0
 10
12.370379617
 20
8.4308187132
 30
0.0
 10
12.3673936147
 20
8.4333805555
 30
0.0
 10
12.3643013564
 20
8.43555395
 30
0.0
 10
12.3620030333
 20
8.4369460822
 30
0.0
 10
12.3596832576
 20
8.4381300009
 30
0.0
 10
12.3581041151
 20
8.4387878461
 30
0.0
 10
12.3573136199
 20
8.4390797257
 30
0.0
  0
SPLINE
  5
3CB
100
AcDbEntity
  8
0
100
AcDbSpline
 62
7
  6
CONTINUOUS
 70
0
 71
3
 72
15
 73
11
 74
0
 42
0.0000001
 43
0.0000001
 44
0.0000000001
 40
0.0
 40
0.0
 40
0.0
 40
0.0
 40
0.1453870045
 40
0.2840723358
 40
0.4163886154
 40
0.5427536322
 40
0.6636693082
 40
0.7797200424
 40
0.8915769359
 40
1.0
 40
1.0
 40
1.0
 40
1.0
 10
12.3189533212
 20
7.576849519
 30
0.0
 10
12.3180178419
 20
7.5759459153
 30
0.0
 10
12.3161476535
 20
7.5742233858
 30
0.0
 10
12.3132754519
 20
7.5718485282
 30
0.0
 10
12.3104057174
 20
7.5697467614
 30
0.0
 10
12.3075402082
 20
7.5679196933
 30
0.0
 10
12.3046804612
 20
7.5663686839
 30
0.0
 10
12.3018279367
 20
7.5650950365
 30
0.0
 10
12.2989846789
 20
7.5641000749
 30
0.0
 10
12.2970707872
 20
7.5636169906
 30
0.0
 10
12.2961200683
 20
7.5634248208
 30
0.0
  0
SPLINE
  5
3CC
100
AcDbEntity
  8
0
100
AcDbSpline
 62
7
  6
CONTINUOUS
 70
0
 71
3
 72
23
 73
19
 74
0
 42
0.0000001
 43
0.0000001
 44
0.0000000001
 40
0.0
 40
0.0
 40
0.0
 40
0.0
 40
0.0755954479
 40
0.1466391714
 40
0.2134657403
 40
0.2765145402
 40
0.3363265376
 40
0.3935471486
 40
0.4489234403
 40
0.5032885643
 40
0.5575265067
 40
0.6125277807
 40
0.6691438784
 40
0.7281492575
 40
0.7902198463
 40
0.8559237775
 40
0.9257267722
 40
1.0
 40
1.0
 40
1.0
 40
1.0
 10
12.3189533212
 20
7.7458865486
 30
0.0
 10
12.3182168297
 20
7.7451751523
 30
0.0
 10
12.3167448004
 20
7.7438389212
 30
0.0
 10
12.3144666977
 20
7.742053771
 30
0.0
 10
12.3121912434
 20
7.7405545004
 30
0.0
 10
12.3099205739
 20
7.739343353
 30
0.0
 10
12.3076565552
 20
7.7384225639
 30
0.0
 10
12.3054015419
 20
7.7377943063
 30
0.0
 10
12.303158462
 20
7.7374609014
 30
0.0
 10
12.3009310765
 20
7.7374238177
 30
0.0
 10
12.298723661
 20
7.7376837221
 30
0.0
 10
12.29654048
 20
7.7382397134
 30
0.0
 10
12.2943852698
 20
7.7390900386
 30
0.0
 10
12.2922608475
 20
7.7402321077
 30
0.0
 10
12.2901694147
 20
7.7416634029
 30
0.0
 10
12.2881125981
 20
7.7433813549
 30
0.0
 10
12.2860921288
 20
7.7453835031
 30
0.0
 10
12.2848115641
 20
7.7468586619
 30
0.0
 10
12.2841767722
 20
7.7476391657
 30
0.0
  0
SPLINE
  5
3CD
100
AcDbEntity
  8
0
100
AcDbSpline
 62
7
  6
CONTINUOUS
 70
0
 71
3
 72
16
 73
12
 74
0
 42
0.0000001
 43
0.0000001
 44
0.0000000001
 40
0.0
 40
0.0
 40
0.0
 40
0.0
 40
0.1504815401
 40
0.2917481174
 40
0.4244944817
 40
0.4879692635
 40
0.5496755268
 40
0.6683417309
 40
0.7818818905
 40
0.8918563508
 40
1.0
 40
1.0
 40
1.0
 40
1.0
 10
12.2899755447
 20
7.7768739407
 30
0.0
 10
12.2893112009
 20
7.7762322338
 30
0.0
 10
12.2879833699
 20
7.7750281858
 30
0.0
 10
12.2859273829
 20
7.7734235957
 30
0.0
 10
12.2841907149
 20
7.772288746
 30
0.0
 10
12.2828058875
 20
7.7715202648
 30
0.0
 10
12.2814618457
 20
7.7708604964
 30
0.0
 10
12.2797811913
 20
7.7701938735
 30
0.0
 10
12.2777464105
 20
7.7696524807
 30
0.0
 10
12.2757231164
 20
7.7693821735
 30
0.0
 10
12.2743794844
 20
7.7693836779
 30
0.0
 10
12.2737172892
 20
7.7694296046
 30
0.0
  0
SPLINE
  5
3CE
100
AcDbEntity
  8
0
100
AcDbSpline
 62
7
  6
CONTINUOUS
 70
0
 71
3
 72
83
 73
79
 74
0
 42
0.0000001
 43
0.0000001
 44
0.0000000001
 40
0.0
 40
0.0
 40
0.0
 40
0.0
 40
0.0042066507
 40
0.0086074558
 40
0.0132068516
 40
0.0180084414
 40
0.0230151714
 40
0.0282292944
 40
0.0336522069
 40
0.0392846172
 40
0.0511775239
 40
0.0639048631
 40
0.0774560567
 40
0.0918151343
 40
0.1069615704
 40
0.1228708592
 40
0.1395150633
 40
0.1568632173
 40
0.1748816284
 40
0.1935341224
 40
0.2127823309
 40
0.2325859086
 40
0.2529027057
 40
0.27368893
 40
0.2948993556
 40
0.3164874845
 40
0.3606043963
 40
0.4056488351
 40
0.4512182282
 40
0.4969039776
 40
0.5422961612
 40
0.5869882191
 40
0.608947191
 40
0.6305825937
 40
0.6518466591
 40
0.6726927098
 40
0.6930753318
 40
0.7129505575
 40
0.732276006
 40
0.7510110519
 40
0.7691170431
 40
0.7865575328
 40
0.8032984754
 40
0.8193084877
 40
0.8345592009
 40
0.8490256636
 40
0.8626867712
 40
0.8755258668
 40
0.8875315786
 40
0.8986988954
 40
0.9039692062
 40
0.9090317195
 40
0.9138883157
 40
0.9185417117
 40
0.9229954201
 40
0.9272540348
 40
0.9313232988
 40
0.9352102217
 40
0.9389234049
 40
0.9424730924
 40
0.9458714323
 40
0.9491326968
 40
0.9522733114
 40
0.9553120088
 40
0.9582697061
 40
0.9611692527
 40
0.9640350589
 40
0.9668924629
 40
0.9697670562
 40
0.972683932
 40
0.9756670365
 40
0.9787385829
 40
0.9819187022
 40
0.985225354
 40
0.9886742796
 40
0.9922791126
 40
0.9960512872
 40
1.0
 40
1.0
 40
1.0
 40
1.0
 10
12.3189533212
 20
7.7458865486
 30
0.0
 10
12.3195255762
 20
7.7464393045
 30
0.0
 10
12.320669337
 20
7.7475987169
 30
0.0
 10
12.3223458502
 20
7.7494512664
 30
0.0
 10
12.3240202729
 20
7.7514547023
 30
0.0
 10
12.325691489
 20
7.7536077388
 30
0.0
 10
12.3273585991
 20
7.7559090934
 30
0.0
 10
12.3290206215
 20
7.7583574639
 30
0.0
 10
12.3306766415
 20
7.7609514154
 30
0.0
 10
12.3329160693
 20
7.764669848
 30
0.0
 10
12.3356862377
 20
7.7696788721
 30
0.0
 10
12.338913325
 20
7.7761389656
 30
0.0
 10
12.3420933136
 20
7.7831379489
 30
0.0
 10
12.3452185979
 20
7.7906592594
 30
0.0
 10
12.3482816906
 20
7.7986852124
 30
0.0
 10
12.351275242
 20
7.8071967807
 30
0.0
 10
12.3541920523
 20
7.8161737491
 30
0.0
 10
12.3570250972
 20
7.8255947557
 30
0.0
 10
12.3597675496
 20
7.8354373479
 30
0.0
 10
12.3624128176
 20
7.8456780343
 30
0.0
 10
12.3649545365
 20
7.8562923571
 30
0.0
 10
12.3673865874
 20
7.8672549577
 30
0.0
 10
12.3697031171
 20
7.8785396335
 30
0.0
 10
12.3718985584
 20
7.8901193909
 30
0.0
 10
12.373967661
 20
7.9019665506
 30
0.0
 10
12.3765700094
 20
7.9181984075
 30
0.0
 10
12.3794651363
 20
7.938946576
 30
0.0
 10
12.3823414723
 20
7.9642685413
 30
0.0
 10
12.3846166788
 20
7.9899494921
 30
0.0
 10
12.3862689976
 20
8.0157439133
 30
0.0
 10
12.38728257
 20
8.0414052123
 30
0.0
 10
12.3875889413
 20
8.0625967603
 30
0.0
 10
12.3875016986
 20
8.0792949458
 30
0.0
 10
12.3872728504
 20
8.0915601675
 30
0.0
 10
12.3868808418
 20
8.1036106592
 30
0.0
 10
12.3863266068
 20
8.1154176098
 30
0.0
 10
12.3856114966
 20
8.1269527672
 30
0.0
 10
12.3847372569
 20
8.1381885469
 30
0.0
 10
12.3837060133
 20
8.1490980846
 30
0.0
 10
12.3825202639
 20
8.1596553017
 30
0.0
 10
12.3811828844
 20
8.1698349766
 30
0.0
 10
12.3796971307
 20
8.1796128124
 30
0.0
 10
12.3780666112
 20
8.1889654907
 30
0.0
 10
12.3762952766
 20
8.197870731
 30
0.0
 10
12.3743874208
 20
8.20630736
 30
0.0
 10
12.3723476744
 20
8.2142553861
 30
0.0
 10
12.3701809676
 20
8.2216960221
 30
0.0
 10
12.3678924935
 20
8.2286118482
 30
0.0
 10
12.3654877084
 20
8.2349865474
 30
0.0
 10
12.3633521973
 20
8.2399270183
 30
0.0
 10
12.3615829897
 20
8.2435889522
 30
0.0
 10
12.3602562446
 20
8.2461376155
 30
0.0
 10
12.3589047559
 20
8.2485402768
 30
0.0
 10
12.3575293186
 20
8.2507955567
 30
0.0
 10
12.3561306728
 20
8.2529021159
 30
0.0
 10
12.3547096143
 20
8.254858734
 30
0.0
 10
12.3532669379
 20
8.2566642834
 30
0.0
 10
12.3518033613
 20
8.2583176617
 30
0.0
 10
12.3503196911
 20
8.2598179123
 30
0.0
 10
12.3488166577
 20
8.2611640911
 30
0.0
 10
12.3472949892
 20
8.2623552844
 30
0.0
 10
12.3457554898
 20
8.2633906956
 30
0.0
 10
12.3441989121
 20
8.2642694416
 30
0.0
 10
12.3426261403
 20
8.2649907388
 30
0.0
 10
12.3410381538
 20
8.2655538686
 30
0.0
 10
12.3394360309
 20
8.2659580836
 30
0.0
 10
12.3378210391
 20
8.2662029487
 30
0.0
 10
12.3361945121
 20
8.2662881351
 30
0.0
 10
12.3345578453
 20
8.2662135501
 30
0.0
 10
12.3329123858
 20
8.2659794689
 30
0.0
 10
12.3312594074
 20
8.2655862128
 30
0.0
 10
12.3296000591
 20
8.2650343741
 30
0.0
 10
12.327935357
 20
8.2643246328
 30
0.0
 10
12.3262662649
 20
8.2634576055
 30
0.0
 10
12.3245936182
 20
8.2624340443
 30
0.0
 10
12.3229182688
 20
8.2612546379
 30
0.0
 10
12.3212411979
 20
8.2599202569
 30
0.0
 10
12.3201482184
 20
8.2589507198
 30
0.0
 10
12.3196015046
 20
8.2584419269
 30
0.0
  0
SPLINE
  5
3CF
100
AcDbEntity
  8
0
100
AcDbSpline
 62
7
  6
CONTINUOUS
 70
0
 71
3
 72
63
 73
59
 74
0
 42
0.0000001
 43
0.0000001
 44
0.0000000001
 40
0.0
 40
0.0
 40
0.0
 40
0.0
 40
0.00814383
 40
0.0169767484
 40
0.0265207354
 40
0.036789459
 40
0.0477880958
 40
0.0595155357
 40
0.0719656535
 40
0.0851278824
 40
0.0989880196
 40
0.1135287455
 40
0.1287298773
 40
0.1445687927
 40
0.1610207079
 40
0.1780587756
 40
0.1956543633
 40
0.2137772383
 40
0.2323956117
 40
0.2514763479
 40
0.2908854812
 40
0.3317179125
 40
0.3736714937
 40
0.4164329886
 40
0.4596812912
 40
0.5030906273
 40
0.546333675
 40
0.5890847111
 40
0.6310227339
 40
0.6718346511
 40
0.7112185258
 40
0.7302849348
 40
0.7488878996
 40
0.7669943144
 40
0.7845724514
 40
0.8015921263
 40
0.8180247474
 40
0.8338435456
 40
0.8490238026
 40
0.863542955
 40
0.8773809225
 40
0.8905204779
 40
0.902947514
 40
0.9146516138
 40
0.9256267683
 40
0.9358720989
 40
0.9453930714
 40
0.9542031177
 40
0.962325578
 40
0.969796515
 40
0.9766682872
 40
0.9830134983
 40
0.986019868
 40
0.9889331402
 40
0.9917695051
 40
0.9945466359
 40
0.9972835059
 40
1.0
 40
1.0
 40
1.0
 40
1.0
 10
12.2899755447
 20
7.7768739407
 30
0.0
 10
12.2909235517
 20
7.7777896452
 30
0.0
 10
12.2928146459
 20
7.7797877318
 30
0.0
 10
12.2955320217
 20
7.7831140765
 30
0.0
 10
12.2982377161
 20
7.7868820584
 30
0.0
 10
12.3009264875
 20
7.7910841584
 30
0.0
 10
12.303593394
 20
7.7957125217
 30
0.0
 10
12.3062332008
 20
7.8007581697
 30
0.0
 10
12.3088406822
 20
7.8062112564
 30
0.0
 10
12.3114106499
 20
7.8120610364
 30
0.0
 10
12.3139379451
 20
7.8182959249
 30
0.0
 10
12.3164174566
 20
7.8249035305
 30
0.0
 10
12.3188441981
 20
7.8318706679
 30
0.0
 10
12.3212132707
 20
7.8391834102
 30
0.0
 10
12.323519868
 20
7.8468271248
 30
0.0
 10
12.3257593424
 20
7.8547864875
 30
0.0
 10
12.3279271744
 20
7.8630455323
 30
0.0
 10
12.3300189598
 20
7.8715876836
 30
0.0
 10
12.3320305096
 20
7.8803957975
 30
0.0
 10
12.3346280571
 20
7.8926024719
 30
0.0
 10
12.3376363852
 20
7.9083955539
 30
0.0
 10
12.3408294818
 20
7.9279148388
 30
0.0
 10
12.3436173599
 20
7.9480439356
 30
0.0
 10
12.3459774444
 20
7.9686211366
 30
0.0
 10
12.3478906445
 20
7.9894812429
 30
0.0
 10
12.3493415156
 20
8.0104566974
 30
0.0
 10
12.3503184004
 20
8.0313790193
 30
0.0
 10
12.3508135336
 20
8.0520801416
 30
0.0
 10
12.3508230878
 20
8.0723938508
 30
0.0
 10
12.3503471552
 20
8.0921569326
 30
0.0
 10
12.3495411541
 20
8.1082040294
 30
0.0
 10
12.3486482766
 20
8.1206431156
 30
0.0
 10
12.347868068
 20
8.1296367493
 30
0.0
 10
12.3469717288
 20
8.1383774687
 30
0.0
 10
12.3459610578
 20
8.1468477337
 30
0.0
 10
12.3448381346
 20
8.1550305375
 30
0.0
 10
12.3436052316
 20
8.1629094613
 30
0.0
 10
12.3422648525
 20
8.1704687082
 30
0.0
 10
12.3408197439
 20
8.1776931437
 30
0.0
 10
12.3392728336
 20
8.1845683191
 30
0.0
 10
12.3376272554
 20
8.1910805124
 30
0.0
 10
12.3358863681
 20
8.1972167717
 30
0.0
 10
12.3340536773
 20
8.2029649337
 30
0.0
 10
12.3321328484
 20
8.2083136677
 30
0.0
 10
12.3301277199
 20
8.2132525289
 30
0.0
 10
12.3280421854
 20
8.2177719706
 30
0.0
 10
12.325880166
 20
8.2218633769
 30
0.0
 10
12.3236455429
 20
8.2255191213
 30
0.0
 10
12.3213420113
 20
8.2287324455
 30
0.0
 10
12.3189726494
 20
8.2314974604
 30
0.0
 10
12.3165407345
 20
8.2338083878
 30
0.0
 10
12.3144258985
 20
8.2353788114
 30
0.0
 10
12.3127127145
 20
8.2363846228
 30
0.0
 10
12.3114386338
 20
8.2370084004
 30
0.0
 10
12.3101531333
 20
8.2375145615
 30
0.0
 10
12.3088568181
 20
8.2379026267
 30
0.0
 10
12.307550638
 20
8.2381722499
 30
0.0
 10
12.3066723986
 20
8.2382730229
 30
0.0
 10
12.3062338003
 20
8.238303442
 30
0.0
  0
SPLINE
  5
3D0
100
AcDbEntity
  8
0
100
AcDbSpline
 62
7
  6
CONTINUOUS
 70
0
 71
3
 72
24
 73
20
 74
0
 42
0.0000001
 43
0.0000001
 44
0.0000000001
 40
0.0
 40
0.0
 40
0.0
 40
0.0
 40
0.0638479197
 40
0.1274790272
 40
0.190892855
 40
0.254094742
 40
0.3170899765
 40
0.3798867868
 40
0.4424951323
 40
0.5049269755
 40
0.5671960872
 40
0.6293179347
 40
0.6913095318
 40
0.7531892677
 40
0.8149767208
 40
0.8766924545
 40
0.9075327504
 40
0.9383631671
 40
1.0
 40
1.0
 40
1.0
 40
1.0
 10
10.6782089281
 20
6.3199735969
 30
0.0
 10
10.6851797817
 20
6.3194901665
 30
0.0
 10
10.6991239303
 20
6.3188657083
 30
0.0
 10
10.7200234051
 20
6.3189627135
 30
0.0
 10
10.7408222214
 20
6.3200947936
 30
0.0
 10
10.7614690513
 20
6.3222591528
 30
0.0
 10
10.7819140063
 20
6.3254506733
 30
0.0
 10
10.8021072986
 20
6.3296616013
 30
0.0
 10
10.8219998661
 20
6.3348817786
 30
0.0
 10
10.8415433329
 20
6.3410985618
 30
0.0
 10
10.8606901742
 20
6.3482968818
 30
0.0
 10
10.8793938293
 20
6.3564592779
 30
0.0
 10
10.897608785
 20
6.3655659229
 30
0.0
 10
10.9152908037
 20
6.3755947585
 30
0.0
 10
10.9323965985
 20
6.3865212165
 30
0.0
 10
10.9461406339
 20
6.3963554466
 30
0.0
 10
10.9568041736
 20
6.4046423862
 30
0.0
 10
10.9672385444
 20
6.4132020139
 30
0.0
 10
10.9748068769
 20
6.4199291828
 30
0.0
 10
10.9797285554
 20
6.4245422477
 30
0.0
  0
SPLINE
  5
3D1
100
AcDbEntity
  8
0
100
AcDbSpline
 62
7
  6
CONTINUOUS
 70
0
 71
3
 72
45
 73
41
 74
0
 42
0.0000001
 43
0.0000001
 44
0.0000000001
 40
0.0
 40
0.0
 40
0.0
 40
0.0
 40
0.0311356388
 40
0.0624233814
 40
0.093857438
 40
0.1254282622
 40
0.1571238634
 40
0.1889297283
 40
0.2208291837
 40
0.2528037395
 40
0.2848334564
 40
0.3168973376
 40
0.3489737345
 40
0.3810407598
 40
0.413076705
 40
0.4450604546
 40
0.4769718926
 40
0.508792296
 40
0.5405047097
 40
0.5720942928
 40
0.6035486342
 40
0.6348580333
 40
0.6660157319
 40
0.6970180921
 40
0.7278647191
 40
0.7585585217
 40
0.7891056963
 40
0.8195156391
 40
0.8346756507
 40
0.8498062587
 40
0.864909454
 40
0.8799873791
 40
0.8950423247
 40
0.9100767127
 40
0.9250930815
 40
0.9400940767
 40
0.955082432
 40
0.9700609537
 40
0.9850325079
 40
1.0
 40
1.0
 40
1.0
 40
1.0
 10
10.6782089281
 20
6.3199735969
 30
0.0
 10
10.667892954
 20
6.3206890121
 30
0.0
 10
10.6472550739
 20
6.3228738709
 30
0.0
 10
10.6165459355
 20
6.3283690757
 30
0.0
 10
10.5861617736
 20
6.3360614239
 30
0.0
 10
10.5562647227
 20
6.3459100805
 30
0.0
 10
10.5270117365
 20
6.3578629015
 30
0.0
 10
10.4985569887
 20
6.3718566755
 30
0.0
 10
10.4710502523
 20
6.3878175158
 30
0.0
 10
10.4446363695
 20
6.4056612445
 30
0.0
 10
10.419454392
 20
6.4252937715
 30
0.0
 10
10.3956368851
 20
6.4466116174
 30
0.0
 10
10.3733092626
 20
6.4695024881
 30
0.0
 10
10.3525891362
 20
6.4938458475
 30
0.0
 10
10.3335856348
 20
6.5195134909
 30
0.0
 10
10.3163988929
 20
6.5463702724
 30
0.0
 10
10.3011195426
 20
6.5742748086
 30
0.0
 10
10.2878282108
 20
6.6030801912
 30
0.0
 10
10.2765950517
 20
6.6326347377
 30
0.0
 10
10.2674794506
 20
6.6627828169
 30
0.0
 10
10.2605297137
 20
6.6933656468
 30
0.0
 10
10.2557827392
 20
6.7242221021
 30
0.0
 10
10.2532638324
 20
6.7551895579
 30
0.0
 10
10.2529866259
 20
6.7861047751
 30
0.0
 10
10.2549529397
 20
6.8168046127
 30
0.0
 10
10.2591528487
 20
6.8471273608
 30
0.0
 10
10.2655641144
 20
6.8769118408
 30
0.0
 10
10.2727307603
 20
6.9011820416
 30
0.0
 10
10.2795309846
 20
6.9201645784
 30
0.0
 10
10.2851525696
 20
6.9341575676
 30
0.0
 10
10.2912927874
 20
6.9479007964
 30
0.0
 10
10.2979436699
 20
6.9613763583
 30
0.0
 10
10.3050963568
 20
6.9745664232
 30
0.0
 10
10.3127414473
 20
6.9874535816
 30
0.0
 10
10.3208688807
 20
7.000020791
 30
0.0
 10
10.3294678736
 20
7.0122515041
 30
0.0
 10
10.3385271169
 20
7.024129519
 30
0.0
 10
10.3480346999
 20
7.0356392108
 30
0.0
 10
10.3579778178
 20
7.0467652129
 30
0.0
 10
10.3648892366
 20
7.0539179324
 30
0.0
 10
10.3684123651
 20
7.0574248341
 30
0.0
  0
SPLINE
  5
3D2
100
AcDbEntity
  8
0
100
AcDbSpline
 62
7
  6
CONTINUOUS
 70
0
 71
3
 72
67
 73
63
 74
0
 42
0.0000001
 43
0.0000001
 44
0.0000000001
 40
0.0
 40
0.0
 40
0.0
 40
0.0
 40
0.0156750942
 40
0.0314033581
 40
0.0471822291
 40
0.0630110277
 40
0.078887432
 40
0.0948089712
 40
0.110772773
 40
0.1267755397
 40
0.1428136435
 40
0.1588831344
 40
0.1749797863
 40
0.1910991351
 40
0.2233785987
 40
0.2556910937
 40
0.287996481
 40
0.3202548685
 40
0.3363586645
 40
0.3524365872
 40
0.3684843373
 40
0.384497882
 40
0.4004734902
 40
0.4164077731
 40
0.4322977167
 40
0.4481407093
 40
0.4639345675
 40
0.4796775654
 40
0.4953684542
 40
0.5110064753
 40
0.5265913717
 40
0.5421234007
 40
0.5576033351
 40
0.5730324586
 40
0.5884125566
 40
0.6037459086
 40
0.6190352684
 40
0.634283838
 40
0.649495237
 40
0.6646734728
 40
0.6798229009
 40
0.6949481788
 40
0.7100542177
 40
0.7251461339
 40
0.7402291958
 40
0.7553087663
 40
0.7703902437
 40
0.785479006
 40
0.800580355
 40
0.8156994586
 40
0.8308412945
 40
0.8460105982
 40
0.8612118184
 40
0.8764490695
 40
0.8917260901
 40
0.9070462114
 40
0.9224123039
 40
0.9378268167
 40
0.9532917037
 40
0.9688081228
 40
0.9843779034
 40
1.0
 40
1.0
 40
1.0
 40
1.0
 10
10.6782089281
 20
6.4890106265
 30
0.0
 10
10.6740140481
 20
6.4893015424
 30
0.0
 10
10.6656229114
 20
6.4900901728
 30
0.0
 10
10.653089101
 20
6.4918849291
 30
0.0
 10
10.6406155954
 20
6.4942894599
 30
0.0
 10
10.6282330104
 20
6.4972977133
 30
0.0
 10
10.6159709036
 20
6.5009025808
 30
0.0
 10
10.6038588723
 20
6.5050952944
 30
0.0
 10
10.5919260479
 20
6.5098657301
 30
0.0
 10
10.5802011612
 20
6.5152023984
 30
0.0
 10
10.5687124266
 20
6.5210924707
 30
0.0
 10
10.5574875552
 20
6.5275216686
 30
0.0
 10
10.5465532907
 20
6.5344747279
 30
0.0
 10
10.5323928345
 20
6.5444242286
 30
0.0
 10
10.5155516899
 20
6.5580842064
 30
0.0
 10
10.4969218215
 20
6.5762622638
 30
0.0
 10
10.4800352933
 20
6.5960629106
 30
0.0
 10
10.4675414692
 20
6.6137721761
 30
0.0
 10
10.4585729635
 20
6.6285560813
 30
0.0
 10
10.4523781168
 20
6.639919981
 30
0.0
 10
10.4467272846
 20
6.6515367748
 30
0.0
 10
10.4416338779
 20
6.6633787889
 30
0.0
 10
10.4371102565
 20
6.6754174546
 30
0.0
 10
10.4331672892
 20
6.6876238041
 30
0.0
 10
10.4298144839
 20
6.6999684482
 30
0.0
 10
10.4270599424
 20
6.7124216742
 30
0.0
 10
10.4249103486
 20
6.7249535042
 30
0.0
 10
10.4233708781
 20
6.7375337586
 30
0.0
 10
10.4224452562
 20
6.7501321443
 30
0.0
 10
10.4221357498
 20
6.762718322
 30
0.0
 10
10.4224431619
 20
6.7752619748
 30
0.0
 10
10.423366755
 20
6.7877328839
 30
0.0
 10
10.4249043259
 20
6.8001010049
 30
0.0
 10
10.4270522103
 20
6.8123365336
 30
0.0
 10
10.4298052904
 20
6.8244099737
 30
0.0
 10
10.4331569338
 20
6.8362922259
 30
0.0
 10
10.437099082
 20
6.8479546472
 30
0.0
 10
10.4416222688
 20
6.8593691141
 30
0.0
 10
10.4467156401
 20
6.8705080862
 30
0.0
 10
10.4523669113
 20
6.8813447068
 30
0.0
 10
10.4585624677
 20
6.8918528415
 30
0.0
 10
10.4652873938
 20
6.9020071365
 30
0.0
 10
10.4725255073
 20
6.9117830767
 30
0.0
 10
10.4802593368
 20
6.9211570923
 30
0.0
 10
10.4884702292
 20
6.9301065756
 30
0.0
 10
10.497138391
 20
6.9386099319
 30
0.0
 10
10.5062429334
 20
6.9466466286
 30
0.0
 10
10.5157618732
 20
6.9541973035
 30
0.0
 10
10.5256722418
 20
6.961243759
 30
0.0
 10
10.535950137
 20
6.9677690022
 30
0.0
 10
10.5465707771
 20
6.9737572835
 30
0.0
 10
10.557508525
 20
6.9791942017
 30
0.0
 10
10.5687369935
 20
6.9840666741
 30
0.0
 10
10.5802291052
 20
6.9883629666
 30
0.0
 10
10.5919571536
 20
6.9920727204
 30
0.0
 10
10.6038928466
 20
6.9951870403
 30
0.0
 10
10.6160074061
 20
6.9976984675
 30
0.0
 10
10.6282716506
 20
6.9996009649
 30
0.0
 10
10.640655936
 20
7.0008899237
 30
0.0
 10
10.6531306883
 20
7.0015623947
 30
0.0
 10
10.6656652477
 20
7.0016166326
 30
0.0
 10
10.674028231
 20
7.0012412771
 30
0.0
 10
10.6782089281
 20
7.0009513447
 30
0.0
  0
SPLINE
  5
3D3
100
AcDbEntity
  8
0
100
AcDbSpline
 62
7
  6
CONTINUOUS
 70
0
 71
3
 72
41
 73
37
 74
0
 42
0.0000001
 43
0.0000001
 44
0.0000000001
 40
0.0
 40
0.0
 40
0.0
 40
0.0
 40
0.0311447181
 40
0.062442515
 40
0.0938874625
 40
0.1254698002
 40
0.1571773985
 40
0.1730760322
 40
0.1890002546
 40
0.2209118669
 40
0.2528982321
 40
0.2689155106
 40
0.284943791
 40
0.3170178783
 40
0.3491032352
 40
0.3811777027
 40
0.4132193318
 40
0.4452068082
 40
0.4771198677
 40
0.5089396984
 40
0.5406493204
 40
0.5722339407
 40
0.603681273
 40
0.6349818179
 40
0.6661290955
 40
0.6971198236
 40
0.727954035
 40
0.7586351272
 40
0.7891698391
 40
0.8195681507
 40
0.8498431051
 40
0.8800105515
 40
0.910088813
 40
0.940098286
 40
0.9700609781
 40
1.0
 40
1.0
 40
1.0
 40
1.0
 10
10.685973493
 20
6.5254883972
 30
0.0
 10
10.6804305481
 20
6.5258728018
 30
0.0
 10
10.6693414219
 20
6.5270492218
 30
0.0
 10
10.6528421972
 20
6.530012652
 30
0.0
 10
10.6365195976
 20
6.5341635715
 30
0.0
 10
10.6204622335
 20
6.5394794508
 30
0.0
 10
10.6073830492
 20
6.544852482
 30
0.0
 10
10.5971361714
 20
6.5497004862
 30
0.0
 10
10.5870310855
 20
6.5549174675
 30
0.0
 10
10.5747228784
 20
6.5621034601
 30
0.0
 10
10.5629238786
 20
6.5701274125
 30
0.0
 10
10.5538183
 20
6.5770286176
 30
0.0
 10
10.5449417704
 20
6.5842468187
 30
0.0
 10
10.5343104367
 20
6.5938369406
 30
0.0
 10
10.5223666163
 20
6.6061876668
 30
0.0
 10
10.5112954633
 20
6.6193193047
 30
0.0
 10
10.5011563963
 20
6.6331615572
 30
0.0
 10
10.4920033869
 20
6.6476407491
 30
0.0
 10
10.483885306
 20
6.6626797081
 30
0.0
 10
10.4768454958
 20
6.6781983068
 30
0.0
 10
10.4709215848
 20
6.6941138476
 30
0.0
 10
10.4661452753
 20
6.710341508
 30
0.0
 10
10.4625421757
 20
6.7267947832
 30
0.0
 10
10.4601316609
 20
6.7433859422
 30
0.0
 10
10.4589267648
 20
6.7600264884
 30
0.0
 10
10.4589341057
 20
6.7766276266
 30
0.0
 10
10.46015384
 20
6.7931007311
 30
0.0
 10
10.4625796535
 20
6.8093578163
 30
0.0
 10
10.4661987868
 20
6.8253120041
 30
0.0
 10
10.4709920935
 20
6.8408779906
 30
0.0
 10
10.4769341237
 20
6.8559724972
 30
0.0
 10
10.4839932786
 20
6.8705147508
 30
0.0
 10
10.4921318624
 20
6.88442682
 30
0.0
 10
10.5013066797
 20
6.897634431
 30
0.0
 10
10.511467767
 20
6.9100659358
 30
0.0
 10
10.5188663861
 20
6.9177950512
 30
0.0
 10
10.5227080392
 20
6.9215058052
 30
0.0
  0
SPLINE
  5
3D4
100
AcDbEntity
  8
0
100
AcDbSpline
 62
7
  6
CONTINUOUS
 70
0
 71
3
 72
39
 73
35
 74
0
 42
0.0000001
 43
0.0000001
 44
0.0000000001
 40
0.0
 40
0.0
 40
0.0
 40
0.0
 40
0.0308961411
 40
0.0619204523
 40
0.0930682029
 40
0.1243342762
 40
0.1557110328
 40
0.1871896249
 40
0.2187596565
 40
0.2504095069
 40
0.2821264471
 40
0.3138968366
 40
0.3457063088
 40
0.3775399692
 40
0.4093825971
 40
0.4412188516
 40
0.4730334777
 40
0.5048115117
 40
0.536538484
 40
0.5682006173
 40
0.5997850172
 40
0.6312798558
 40
0.6626745425
 40
0.6939598828
 40
0.7251282214
 40
0.7561735677
 40
0.7870917013
 40
0.8178802548
 40
0.8485387714
 40
0.8790687362
 40
0.9094735779
 40
0.9397586411
 40
0.9699311265
 40
1.0
 40
1.0
 40
1.0
 40
1.0
 10
10.8267337726
 20
6.6846346159
 30
0.0
 10
10.8225794128
 20
6.6849227217
 30
0.0
 10
10.8142688842
 20
6.6857537841
 30
0.0
 10
10.8018776572
 20
6.6877522573
 30
0.0
 10
10.7895788158
 20
6.6904979479
 30
0.0
 10
10.777418772
 20
6.6939804463
 30
0.0
 10
10.7654425514
 20
6.6981868198
 30
0.0
 10
10.7536947544
 20
6.7031013308
 30
0.0
 10
10.7422190506
 20
6.7087056746
 30
0.0
 10
10.7310581145
 20
6.7149789626
 30
0.0
 10
10.7202534438
 20
6.7218978361
 30
0.0
 10
10.7098452116
 20
6.7294365389
 30
0.0
 10
10.6998721179
 20
6.7375670178
 30
0.0
 10
10.6903712467
 20
6.7462590248
 30
0.0
 10
10.6813779284
 20
6.7554802282
 30
0.0
 10
10.6729256085
 20
6.7651963323
 30
0.0
 10
10.6650457257
 20
6.7753712052
 30
0.0
 10
10.6577675955
 20
6.7859670124
 30
0.0
 10
10.6511183016
 20
6.796944356
 30
0.0
 10
10.6451225962
 20
6.8082624202
 30
0.0
 10
10.6398028079
 20
6.8198791217
 30
0.0
 10
10.635178759
 20
6.8317512647
 30
0.0
 10
10.631267692
 20
6.8438347001
 30
0.0
 10
10.6280842047
 20
6.856084488
 30
0.0
 10
10.6256401959
 20
6.8684550633
 30
0.0
 10
10.6239448197
 20
6.8809004034
 30
0.0
 10
10.6230044481
 20
6.8933741977
 30
0.0
 10
10.6228226485
 20
6.9058300201
 30
0.0
 10
10.6234001664
 20
6.9182214955
 30
0.0
 10
10.6247349286
 20
6.9305024908
 30
0.0
 10
10.6268220196
 20
6.9426272137
 30
0.0
 10
10.6296538026
 20
6.9545506498
 30
0.0
 10
10.6332195543
 20
6.9662277422
 30
0.0
 10
10.636082408
 20
6.9738329202
 30
0.0
 10
10.6376311737
 20
6.9775781563
 30
0.0
  0
SPLINE
  5
3D5
100
AcDbEntity
  8
0
100
AcDbSpline
 62
7
  6
CONTINUOUS
 70
0
 71
3
 72
15
 73
11
 74
0
 42
0.0000001
 43
0.0000001
 44
0.0000000001
 40
0.0
 40
0.0
 40
0.0
 40
0.0
 40
0.1331280495
 40
0.2613154534
 40
0.3857579216
 40
0.50777547
 40
0.6287754839
 40
0.7502044769
 40
0.8734925105
 40
1.0
 40
1.0
 40
1.0
 40
1.0
 10
12.0747087012
 20
10.1560495145
 30
0.0
 10
12.0752780161
 20
10.1549894077
 30
0.0
 10
12.0763048335
 20
10.1528578371
 30
0.0
 10
12.0775066508
 20
10.1495786493
 30
0.0
 10
12.0783351171
 20
10.146288434
 30
0.0
 10
12.0787883553
 20
10.1429911383
 30
0.0
 10
12.0788651604
 20
10.1396907891
 30
0.0
 10
12.0785654076
 20
10.1363916486
 30
0.0
 10
12.0778898877
 20
10.1330983719
 30
0.0
 10
12.0772009849
 20
10.1309432066
 30
0.0
 10
12.0767994205
 20
10.1298725722
 30
0.0
  0
SPLINE
  5
3D6
100
AcDbEntity
  8
0
100
AcDbSpline
 62
7
  6
CONTINUOUS
 70
0
 71
3
 72
39
 73
35
 74
0
 42
0.0000001
 43
0.0000001
 44
0.0000000001
 40
0.0
 40
0.0
 40
0.0
 40
0.0
 40
0.0308543313
 40
0.0618327495
 40
0.0929305123
 40
0.1241432587
 40
0.1554639095
 40
0.1868844477
 40
0.2183953831
 40
0.2499861028
 40
0.2816449543
 40
0.3133594169
 40
0.3451162629
 40
0.3769017292
 40
0.4087016925
 40
0.4405018472
 40
0.4722878852
 40
0.5040456758
 40
0.5357614439
 40
0.5674219452
 40
0.5990146375
 40
0.6305278458
 40
0.6619509174
 40
0.6932743683
 40
0.7244900173
 40
0.7555911062
 40
0.7865724051
 40
0.8174302998
 40
0.8481628606
 40
0.8787698897
 40
0.9092529457
 40
0.9396153419
 40
0.9698621206
 40
1.0
 40
1.0
 40
1.0
 40
1.0
 10
10.8231474737
 20
6.6579882957
 30
0.0
 10
10.8186732672
 20
6.658298583
 30
0.0
 10
10.8097229957
 20
6.6591845489
 30
0.0
 10
10.7963735948
 20
6.6612968539
 30
0.0
 10
10.7831172414
 20
6.6641880658
 30
0.0
 10
10.7700007507
 20
6.6678478879
 30
0.0
 10
10.7570695242
 20
6.6722636429
 30
0.0
 10
10.7443686131
 20
6.6774198637
 30
0.0
 10
10.7319421738
 20
6.6832985964
 30
0.0
 10
10.719833429
 20
6.6898793465
 30
0.0
 10
10.7080844901
 20
6.6971391982
 30
0.0
 10
10.6967362162
 20
6.7050528731
 30
0.0
 10
10.6858280707
 20
6.7135928227
 30
0.0
 10
10.6753979878
 20
6.7227293277
 30
0.0
 10
10.6654822414
 20
6.7324305999
 30
0.0
 10
10.6561153204
 20
6.7426628918
 30
0.0
 10
10.6473298092
 20
6.7533906138
 30
0.0
 10
10.6391562754
 20
6.7645764564
 30
0.0
 10
10.6316231646
 20
6.7761815188
 30
0.0
 10
10.6247567016
 20
6.7881654435
 30
0.0
 10
10.6185807937
 20
6.8004865523
 30
0.0
 10
10.6131169524
 20
6.8131019937
 30
0.0
 10
10.6083842195
 20
6.8259678912
 30
0.0
 10
10.6043991012
 20
6.8390394941
 30
0.0
 10
10.6011755097
 20
6.8522713315
 30
0.0
 10
10.5987247151
 20
6.8656173693
 30
0.0
 10
10.597055305
 20
6.8790311678
 30
0.0
 10
10.5961731543
 20
6.8924660432
 30
0.0
 10
10.5960813985
 20
6.9058752239
 30
0.0
 10
10.5967804245
 20
6.9192120319
 30
0.0
 10
10.5982678503
 20
6.9324299725
 30
0.0
 10
10.6005386168
 20
6.9454831668
 30
0.0
 10
10.6035846819
 20
6.9583255014
 30
0.0
 10
10.6061300767
 20
6.9667325816
 30
0.0
 10
10.6075281332
 20
6.9708843204
 30
0.0
  0
SPLINE
  5
3D7
100
AcDbEntity
  8
0
100
AcDbSpline
 62
7
  6
CONTINUOUS
 70
0
 71
3
 72
18
 73
14
 74
0
 42
0.0000001
 43
0.0000001
 44
0.0000000001
 40
0.0
 40
0.0
 40
0.0
 40
0.0
 40
0.1504683897
 40
0.2917144302
 40
0.4244424337
 40
0.4879098403
 40
0.5496094316
 40
0.6682625858
 40
0.7817882724
 40
0.8371379912
 40
0.8918078094
 40
0.9460192717
 40
1.0
 40
1.0
 40
1.0
 40
1.0
 10
12.3344081361
 20
7.5757777239
 30
0.0
 10
12.3331642071
 20
7.5745761807
 30
0.0
 10
12.3306780434
 20
7.5723217388
 30
0.0
 10
12.3268284784
 20
7.5693174273
 30
0.0
 10
12.3235768708
 20
7.5671926184
 30
0.0
 10
12.3209839961
 20
7.5657537671
 30
0.0
 10
12.3184674029
 20
7.5645184648
 30
0.0
 10
12.3153208631
 20
7.5632702383
 30
0.0
 10
12.3121183521
 20
7.5624184456
 30
0.0
 10
12.309581869
 20
7.5619988408
 30
0.0
 10
12.3077019832
 20
7.5618126228
 30
0.0
 10
12.3058297031
 20
7.5617524831
 30
0.0
 10
12.3045858061
 20
7.5617964881
 30
0.0
 10
12.3039668435
 20
7.5618394166
 30
0.0
  0
SPLINE
  5
3D8
100
AcDbEntity
  8
0
100
AcDbSpline
 62
7
  6
CONTINUOUS
 70
0
 71
3
 72
67
 73
63
 74
0
 42
0.0000001
 43
0.0000001
 44
0.0000000001
 40
0.0
 40
0.0
 40
0.0
 40
0.0
 40
0.0156220966
 40
0.0311918772
 40
0.0467082963
 40
0.0621731833
 40
0.0775876961
 40
0.0929537886
 40
0.1082739099
 40
0.1235509305
 40
0.1387881816
 40
0.1539894018
 40
0.1691587055
 40
0.1843005414
 40
0.199419645
 40
0.214520994
 40
0.2296097563
 40
0.2446912337
 40
0.2597708042
 40
0.2748538661
 40
0.2899457823
 40
0.3050518212
 40
0.3201770991
 40
0.3353265272
 40
0.350504763
 40
0.365716162
 40
0.3809647316
 40
0.3962540914
 40
0.4115874434
 40
0.4269675414
 40
0.4423966649
 40
0.4578765993
 40
0.4734086283
 40
0.4889935247
 40
0.5046315458
 40
0.5203224346
 40
0.5360654325
 40
0.5518592907
 40
0.5677022833
 40
0.5835922269
 40
0.5995265098
 40
0.615502118
 40
0.6315156627
 40
0.6475634128
 40
0.6636413355
 40
0.6797451315
 40
0.712003519
 40
0.7443089063
 40
0.7766214013
 40
0.8089008649
 40
0.8250202137
 40
0.8411168656
 40
0.8571863565
 40
0.8732244603
 40
0.889227227
 40
0.9051910288
 40
0.921112568
 40
0.9369889723
 40
0.9528177709
 40
0.9685966419
 40
0.9843249058
 40
1.0
 40
1.0
 40
1.0
 40
1.0
 10
10.6782089281
 20
6.4890106265
 30
0.0
 10
10.6823896251
 20
6.4887206942
 30
0.0
 10
10.6907526084
 20
6.4883453387
 30
0.0
 10
10.7032871679
 20
6.4883995765
 30
0.0
 10
10.7157619202
 20
6.4890720475
 30
0.0
 10
10.7281462055
 20
6.4903610063
 30
0.0
 10
10.74041045
 20
6.4922635037
 30
0.0
 10
10.7525250096
 20
6.4947749309
 30
0.0
 10
10.7644607025
 20
6.4978892508
 30
0.0
 10
10.776188751
 20
6.5015990046
 30
0.0
 10
10.7876808627
 20
6.5058952971
 30
0.0
 10
10.7989093312
 20
6.5107677696
 30
0.0
 10
10.8098470791
 20
6.5162046877
 30
0.0
 10
10.8204677191
 20
6.522192969
 30
0.0
 10
10.8307456144
 20
6.5287182122
 30
0.0
 10
10.8406559829
 20
6.5357646677
 30
0.0
 10
10.8501749228
 20
6.5433153427
 30
0.0
 10
10.8592794651
 20
6.5513520393
 30
0.0
 10
10.867947627
 20
6.5598553956
 30
0.0
 10
10.8761585193
 20
6.5688048789
 30
0.0
 10
10.8838923489
 20
6.5781788945
 30
0.0
 10
10.8911304623
 20
6.5879548347
 30
0.0
 10
10.8978553885
 20
6.5981091297
 30
0.0
 10
10.9040509448
 20
6.6086172644
 30
0.0
 10
10.9097022161
 20
6.619453885
 30
0.0
 10
10.9147955873
 20
6.6305928571
 30
0.0
 10
10.9193187741
 20
6.642007324
 30
0.0
 10
10.9232609224
 20
6.6536697453
 30
0.0
 10
10.9266125657
 20
6.6655519976
 30
0.0
 10
10.9293656458
 20
6.6776254376
 30
0.0
 10
10.9315135302
 20
6.6898609663
 30
0.0
 10
10.9330511011
 20
6.7022290873
 30
0.0
 10
10.9339746943
 20
6.7146999964
 30
0.0
 10
10.9342821064
 20
6.7272436492
 30
0.0
 10
10.9339725999
 20
6.7398298269
 30
0.0
 10
10.933046978
 20
6.7524282126
 30
0.0
 10
10.9315075075
 20
6.765008467
 30
0.0
 10
10.9293579137
 20
6.777540297
 30
0.0
 10
10.9266033723
 20
6.789993523
 30
0.0
 10
10.9232505669
 20
6.8023381671
 30
0.0
 10
10.9193075996
 20
6.8145445166
 30
0.0
 10
10.9147839783
 20
6.8265831823
 30
0.0
 10
10.9096905715
 20
6.8384251964
 30
0.0
 10
10.9040397393
 20
6.8500419902
 30
0.0
 10
10.8978448927
 20
6.86140589
 30
0.0
 10
10.8888763869
 20
6.8761897951
 30
0.0
 10
10.8763825629
 20
6.8938990606
 30
0.0
 10
10.8594960346
 20
6.9136997074
 30
0.0
 10
10.8408661663
 20
6.9318777648
 30
0.0
 10
10.8240250216
 20
6.9455377426
 30
0.0
 10
10.8098645654
 20
6.9554872433
 30
0.0
 10
10.7989303009
 20
6.9624403027
 30
0.0
 10
10.7877054295
 20
6.9688695005
 30
0.0
 10
10.776216695
 20
6.9747595728
 30
0.0
 10
10.7644918082
 20
6.9800962411
 30
0.0
 10
10.7525589839
 20
6.9848666768
 30
0.0
 10
10.7404469525
 20
6.9890593904
 30
0.0
 10
10.7281848457
 20
6.9926642579
 30
0.0
 10
10.7158022608
 20
6.9956725113
 30
0.0
 10
10.7033287552
 20
6.9980770421
 30
0.0
 10
10.6907949448
 20
6.9998717984
 30
0.0
 10
10.682403808
 20
7.0006604288
 30
0.0
 10
10.6782089281
 20
7.0009513447
 30
0.0
  0
SPLINE
  5
3D9
100
AcDbEntity
  8
0
100
AcDbSpline
 62
7
  6
CONTINUOUS
 70
0
 71
3
 72
11
 73
7
 74
0
 42
0.0000001
 43
0.0000001
 44
0.0000000001
 40
0.0
 40
0.0
 40
0.0
 40
0.0
 40
0.240016866
 40
0.4872395354
 40
0.7408499997
 40
1.0
 40
1.0
 40
1.0
 40
1.0
 10
10.8149989928
 20
8.9128871292
 30
0.0
 10
10.8196509126
 20
8.9136251533
 30
0.0
 10
10.8291106604
 20
8.915022486
 30
0.0
 10
10.8435330123
 20
8.9168629689
 30
0.0
 10
10.8583604493
 20
8.9184743683
 30
0.0
 10
10.8683823585
 20
8.91938315
 30
0.0
 10
10.8734508639
 20
8.9197994003
 30
0.0
  0
SPLINE
  5
3DA
100
AcDbEntity
  8
0
100
AcDbSpline
 62
7
  6
CONTINUOUS
 70
0
 71
3
 72
11
 73
7
 74
0
 42
0.0000001
 43
0.0000001
 44
0.0000000001
 40
0.0
 40
0.0
 40
0.0
 40
0.0
 40
0.2592016093
 40
0.5128318598
 40
0.7600385355
 40
1.0
 40
1.0
 40
1.0
 40
1.0
 10
10.8733606007
 20
8.9199350249
 30
0.0
 10
10.8682914092
 20
8.9195173326
 30
0.0
 10
10.8582687843
 20
8.9186055111
 30
0.0
 10
10.8434414427
 20
8.916988849
 30
0.0
 10
10.8290214523
 20
8.9151425833
 30
0.0
 10
10.8195641598
 20
8.9137408937
 30
0.0
 10
10.8149139007
 20
8.9130005892
 30
0.0
  0
SPLINE
  5
3DB
100
AcDbEntity
  8
0
100
AcDbSpline
 62
7
  6
CONTINUOUS
 70
0
 71
3
 72
82
 73
78
 74
0
 42
0.0000001
 43
0.0000001
 44
0.0000000001
 40
0.0
 40
0.0
 40
0.0
 40
0.0
 40
0.0027164291
 40
0.0054532364
 40
0.0082303053
 40
0.0110666058
 40
0.0139798164
 40
0.016986131
 40
0.0201001037
 40
0.0233346222
 40
0.0267009905
 40
0.0302089475
 40
0.0338668707
 40
0.0376818493
 40
0.0416598249
 40
0.0458057691
 40
0.0501237025
 40
0.0546169039
 40
0.0592879295
 40
0.0641387045
 40
0.069170648
 40
0.0743846285
 40
0.0797811279
 40
0.0853602093
 40
0.0970640744
 40
0.1094908292
 40
0.122630084
 40
0.1364677626
 40
0.1509865887
 40
0.1661664945
 40
0.1819849411
 40
0.1984171777
 40
0.2154364542
 40
0.233014197
 40
0.2511201854
 40
0.2697227022
 40
0.2887886669
 40
0.3082837565
 40
0.3281725155
 40
0.3484184781
 40
0.3689842782
 40
0.3898317536
 40
0.4109220451
 40
0.4536720397
 40
0.4969140311
 40
0.540322302
 40
0.5835695392
 40
0.6263299734
 40
0.6474273998
 40
0.6682832705
 40
0.6888587055
 40
0.7091155138
 40
0.7290162972
 40
0.7485245643
 40
0.7676048337
 40
0.786222742
 40
0.8043451595
 40
0.821940317
 40
0.8389779517
 40
0.8554294454
 40
0.8712679825
 40
0.8864687352
 40
0.9010090829
 40
0.9148688848
 40
0.9280307811
 40
0.9404805813
 40
0.9522077554
 40
0.9577985268
 40
0.9632067444
 40
0.9684324379
 40
0.9734760336
 40
0.9783383943
 40
0.9830208414
 40
0.9875253833
 40
0.9918546059
 40
0.9960115907
 40
1.0
 40
1.0
 40
1.0
 40
1.0
 10
12.3648494287
 20
8.4397308087
 30
0.0
 10
12.3656706338
 20
8.4396738536
 30
0.0
 10
12.367314998
 20
8.4394851729
 30
0.0
 10
12.3697606046
 20
8.4389802976
 30
0.0
 10
12.3721877374
 20
8.4382536787
 30
0.0
 10
12.3745946433
 20
8.4373059525
 30
0.0
 10
12.3769801062
 20
8.4361380343
 30
0.0
 10
12.3793428841
 20
8.4347507899
 30
0.0
 10
12.3816818867
 20
8.4331452165
 30
0.0
 10
12.3839961024
 20
8.4313223607
 30
0.0
 10
12.386284482
 20
8.429283233
 30
0.0
 10
12.3885460927
 20
8.4270290037
 30
0.0
 10
12.3907799088
 20
8.4245608108
 30
0.0
 10
12.3929849477
 20
8.4218799175
 30
0.0
 10
12.3951602358
 20
8.4189876739
 30
0.0
 10
12.3973047188
 20
8.4158854789
 30
0.0
 10
12.3994174447
 20
8.4125748922
 30
0.0
 10
12.4014973678
 20
8.4090575213
 30
0.0
 10
12.4035434939
 20
8.4053351058
 30
0.0
 10
12.4055548488
 20
8.4014094906
 30
0.0
 10
12.4075304011
 20
8.3972826004
 30
0.0
 10
12.4094692183
 20
8.392956501
 30
0.0
 10
12.4113703269
 20
8.3884333216
 30
0.0
 10
12.4138939355
 20
8.3820402162
 30
0.0
 10
12.416937573
 20
8.3735645115
 30
0.0
 10
12.420368992
 20
8.3628020822
 30
0.0
 10
12.4236285244
 20
8.3513128654
 30
0.0
 10
12.4267095792
 20
8.3391198047
 30
0.0
 10
12.4296059139
 20
8.3262471126
 30
0.0
 10
12.4323116453
 20
8.3127204958
 30
0.0
 10
12.4348212699
 20
8.2985669981
 30
0.0
 10
12.4371296787
 20
8.2838149612
 30
0.0
 10
12.4392321687
 20
8.2684939574
 30
0.0
 10
12.4411244639
 20
8.2526347287
 30
0.0
 10
12.4428027146
 20
8.236269117
 30
0.0
 10
12.444263504
 20
8.2194299921
 30
0.0
 10
12.445503856
 20
8.202151184
 30
0.0
 10
12.44652124
 20
8.1844674163
 30
0.0
 10
12.4473135849
 20
8.1664142369
 30
0.0
 10
12.4478792762
 20
8.1480279397
 30
0.0
 10
12.4482171499
 20
8.1293455007
 30
0.0
 10
12.4483265276
 20
8.1104044548
 30
0.0
 10
12.4481665637
 20
8.0847409451
 30
0.0
 10
12.4473904594
 20
8.0522971909
 30
0.0
 10
12.4455614178
 20
8.013123622
 30
0.0
 10
12.4428448759
 20
7.9738504136
 30
0.0
 10
12.4392626977
 20
7.9347933446
 30
0.0
 10
12.435564063
 20
7.9025448041
 30
0.0
 10
12.4321886346
 20
7.8770958007
 30
0.0
 10
12.4294719559
 20
7.8583425672
 30
0.0
 10
12.4265644848
 20
7.8398758035
 30
0.0
 10
12.4234720596
 20
7.8217326149
 30
0.0
 10
12.4202009217
 20
7.803949487
 30
0.0
 10
12.4167576738
 20
7.7865621648
 30
0.0
 10
12.4131492681
 20
7.7696055923
 30
0.0
 10
12.4093829898
 20
7.7531138419
 30
0.0
 10
12.4054664439
 20
7.7371200457
 30
0.0
 10
12.4014075379
 20
7.7216563238
 30
0.0
 10
12.3972144764
 20
7.7067537124
 30
0.0
 10
12.3928957347
 20
7.6924421005
 30
0.0
 10
12.3884600409
 20
7.6787501702
 30
0.0
 10
12.3839163579
 20
7.6657053358
 30
0.0
 10
12.3792738588
 20
7.6533336701
 30
0.0
 10
12.3745419179
 20
7.6416598608
 30
0.0
 10
12.369730063
 20
7.6307070658
 30
0.0
 10
12.3648479762
 20
7.6204971542
 30
0.0
 10
12.3606651721
 20
7.6125020118
 30
0.0
 10
12.3572843998
 20
7.6065015499
 30
0.0
 10
12.3547778229
 20
7.6022713063
 30
0.0
 10
12.3522610238
 20
7.5982413237
 30
0.0
 10
12.3497352313
 20
7.5944136091
 30
0.0
 10
12.3472017419
 20
7.5907900528
 30
0.0
 10
12.3446617459
 20
7.5873724605
 30
0.0
 10
12.342116496
 20
7.5841624711
 30
0.0
 10
12.3395671624
 20
7.5811616665
 30
0.0
 10
12.3370151338
 20
7.5783716758
 30
0.0
 10
12.335277452
 20
7.5766174186
 30
0.0
 10
12.3344081361
 20
7.5757777239
 30
0.0
  0
SPLINE
  5
3DC
100
AcDbEntity
  8
0
100
AcDbSpline
 62
7
  6
CONTINUOUS
 70
0
 71
3
 72
23
 73
19
 74
0
 42
0.0000001
 43
0.0000001
 44
0.0000000001
 40
0.0
 40
0.0
 40
0.0
 40
0.0
 40
0.0638609742
 40
0.1275034352
 40
0.1909230191
 40
0.2541276449
 40
0.3171224247
 40
0.3799159145
 40
0.4425188174
 40
0.5049436698
 40
0.5672049969
 40
0.6293190749
 40
0.6913037881
 40
0.7531784374
 40
0.8149635266
 40
0.876680556
 40
0.9383517894
 40
1.0
 40
1.0
 40
1.0
 40
1.0
 10
10.685973493
 20
6.5254883972
 30
0.0
 10
10.6897625492
 20
6.5252256253
 30
0.0
 10
10.6973421675
 20
6.5248895097
 30
0.0
 10
10.7087017772
 20
6.5249571777
 30
0.0
 10
10.7200047695
 20
6.5255975264
 30
0.0
 10
10.7312221264
 20
6.5268088231
 30
0.0
 10
10.7423258637
 20
6.5285881714
 30
0.0
 10
10.7532879442
 20
6.5309310691
 30
0.0
 10
10.7640807837
 20
6.5338316338
 30
0.0
 10
10.7746771969
 20
6.5372826074
 30
0.0
 10
10.7850504792
 20
6.5412753461
 30
0.0
 10
10.7951745043
 20
6.5457997943
 30
0.0
 10
10.8050237659
 20
6.550844567
 30
0.0
 10
10.8145734469
 20
6.5563969875
 30
0.0
 10
10.8237994426
 20
6.562443085
 30
0.0
 10
10.8326785946
 20
6.5689676925
 30
0.0
 10
10.8411882306
 20
6.5759540817
 30
0.0
 10
10.8466017632
 20
6.5809088293
 30
0.0
 10
10.8492389468
 20
6.5834561545
 30
0.0
  0
SPLINE
  5
3DD
100
AcDbEntity
  8
0
100
AcDbSpline
 62
4
  6
CONTINUOUS
 70
0
 71
3
 72
403
 73
399
 74
0
 42
0.0000001
 43
0.0000001
 44
0.0000000001
 40
0.0
 40
0.0
 40
0.0
 40
0.0
 40
0.015625
 40
0.0234375
 40
0.03125
 40
0.0390625
 40
0.04296875
 40
0.046875
 40
0.05078125
 40
0.0546875
 40
0.056640625
 40
0.05859375
 40
0.0595703125
 40
0.060546875
 40
0.0615234375
 40
0.0620117188
 40
0.0622558594
 40
0.0625
 40
0.0627441406
 40
0.0629882812
 40
0.0634765625
 40
0.064453125
 40
0.0654296875
 40
0.06640625
 40
0.068359375
 40
0.0703125
 40
0.07421875
 40
0.078125
 40
0.08203125
 40
0.0859375
 40
0.09375
 40
0.1015625
 40
0.10546875
 40
0.109375
 40
0.11328125
 40
0.1171875
 40
0.119140625
 40
0.12109375
 40
0.1220703125
 40
0.123046875
 40
0.1240234375
 40
0.1245117188
 40
0.1247558594
 40
0.125
 40
0.1252441406
 40
0.1254882812
 40
0.1259765625
 40
0.126953125
 40
0.1279296875
 40
0.12890625
 40
0.130859375
 40
0.1328125
 40
0.13671875
 40
0.140625
 40
0.14453125
 40
0.1484375
 40
0.15625
 40
0.1640625
 40
0.16796875
 40
0.171875
 40
0.17578125
 40
0.1796875
 40
0.181640625
 40
0.18359375
 40
0.1845703125
 40
0.185546875
 40
0.1865234375
 40
0.1870117188
 40
0.1872558594
 40
0.1875
 40
0.1877441406
 40
0.1879882812
 40
0.1884765625
 40
0.189453125
 40
0.1904296875
 40
0.19140625
 40
0.193359375
 40
0.1953125
 40
0.19921875
 40
0.203125
 40
0.20703125
 40
0.2109375
 40
0.21875
 40
0.2265625
 40
0.23046875
 40
0.234375
 40
0.23828125
 40
0.2421875
 40
0.244140625
 40
0.24609375
 40
0.2470703125
 40
0.248046875
 40
0.2490234375
 40
0.2495117188
 40
0.2497558594
 40
0.25
 40
0.2502441406
 40
0.2504882812
 40
0.2509765625
 40
0.251953125
 40
0.2529296875
 40
0.25390625
 40
0.255859375
 40
0.2578125
 40
0.26171875
 40
0.265625
 40
0.26953125
 40
0.2734375
 40
0.28125
 40
0.2890625
 40
0.29296875
 40
0.296875
 40
0.30078125
 40
0.3046875
 40
0.306640625
 40
0.30859375
 40
0.3095703125
 40
0.310546875
 40
0.3115234375
 40
0.3120117188
 40
0.3122558594
 40
0.3125
 40
0.3127441406
 40
0.3129882812
 40
0.3134765625
 40
0.314453125
 40
0.3154296875
 40
0.31640625
 40
0.318359375
 40
0.3203125
 40
0.32421875
 40
0.328125
 40
0.33203125
 40
0.3359375
 40
0.34375
 40
0.3515625
 40
0.35546875
 40
0.359375
 40
0.36328125
 40
0.3671875
 40
0.369140625
 40
0.37109375
 40
0.3720703125
 40
0.373046875
 40
0.3740234375
 40
0.3745117188
 40
0.3747558594
 40
0.375
 40
0.3752441406
 40
0.3754882812
 40
0.3759765625
 40
0.376953125
 40
0.3779296875
 40
0.37890625
 40
0.380859375
 40
0.3828125
 40
0.38671875
 40
0.390625
 40
0.39453125
 40
0.3984375
 40
0.40625
 40
0.4140625
 40
0.41796875
 40
0.421875
 40
0.42578125
 40
0.4296875
 40
0.431640625
 40
0.43359375
 40
0.4345703125
 40
0.435546875
 40
0.4365234375
 40
0.4370117188
 40
0.4372558594
 40
0.4375
 40
0.4377441406
 40
0.4379882812
 40
0.4384765625
 40
0.439453125
 40
0.4404296875
 40
0.44140625
 40
0.443359375
 40
0.4453125
 40
0.44921875
 40
0.453125
 40
0.45703125
 40
0.4609375
 40
0.46875
 40
0.4765625
 40
0.48046875
 40
0.484375
 40
0.48828125
 40
0.4921875
 40
0.494140625
 40
0.49609375
 40
0.4970703125
 40
0.498046875
 40
0.4990234375
 40
0.4995117188
 40
0.4997558594
 40
0.5
 40
0.5002441406
 40
0.5004882812
 40
0.5009765625
 40
0.501953125
 40
0.5029296875
 40
0.50390625
 40
0.505859375
 40
0.5078125
 40
0.51171875
 40
0.515625
 40
0.51953125
 40
0.5234375
 40
0.53125
 40
0.5390625
 40
0.54296875
 40
0.546875
 40
0.55078125
 40
0.5546875
 40
0.556640625
 40
0.55859375
 40
0.5595703125
 40
0.560546875
 40
0.5615234375
 40
0.5620117188
 40
0.5622558594
 40
0.5625
 40
0.5627441406
 40
0.5629882812
 40
0.5634765625
 40
0.564453125
 40
0.5654296875
 40
0.56640625
 40
0.568359375
 40
0.5703125
 40
0.57421875
 40
0.578125
 40
0.58203125
 40
0.5859375
 40
0.59375
 40
0.6015625
 40
0.60546875
 40
0.609375
 40
0.61328125
 40
0.6171875
 40
0.619140625
 40
0.62109375
 40
0.6220703125
 40
0.623046875
 40
0.6240234375
 40
0.6245117188
 40
0.6247558594
 40
0.625
 40
0.6252441406
 40
0.6254882812
 40
0.6259765625
 40
0.626953125
 40
0.6279296875
 40
0.62890625
 40
0.630859375
 40
0.6328125
 40
0.63671875
 40
0.640625
 40
0.64453125
 40
0.6484375
 40
0.65625
 40
0.6640625
 40
0.66796875
 40
0.671875
 40
0.67578125
 40
0.6796875
 40
0.681640625
 40
0.68359375
 40
0.6845703125
 40
0.685546875
 40
0.6865234375
 40
0.6870117188
 40
0.6872558594
 40
0.6875
 40
0.6877441406
 40
0.6879882812
 40
0.6884765625
 40
0.689453125
 40
0.6904296875
 40
0.69140625
 40
0.693359375
 40
0.6953125
 40
0.69921875
 40
0.703125
 40
0.70703125
 40
0.7109375
 40
0.71875
 40
0.7265625
 40
0.73046875
 40
0.734375
 40
0.73828125
 40
0.7421875
 40
0.744140625
 40
0.74609375
 40
0.7470703125
 40
0.748046875
 40
0.7490234375
 40
0.7495117188
 40
0.7497558594
 40
0.75
 40
0.7502441406
 40
0.7504882812
 40
0.7509765625
 40
0.751953125
 40
0.7529296875
 40
0.75390625
 40
0.755859375
 40
0.7578125
 40
0.76171875
 40
0.765625
 40
0.76953125
 40
0.7734375
 40
0.78125
 40
0.7890625
 40
0.79296875
 40
0.796875
 40
0.80078125
 40
0.8046875
 40
0.806640625
 40
0.80859375
 40
0.8095703125
 40
0.810546875
 40
0.8115234375
 40
0.8120117188
 40
0.8122558594
 40
0.8125
 40
0.8127441406
 40
0.8129882812
 40
0.8134765625
 40
0.814453125
 40
0.8154296875
 40
0.81640625
 40
0.818359375
 40
0.8203125
 40
0.82421875
 40
0.828125
 40
0.83203125
 40
0.8359375
 40
0.84375
 40
0.8515625
 40
0.85546875
 40
0.859375
 40
0.86328125
 40
0.8671875
 40
0.869140625
 40
0.87109375
 40
0.8720703125
 40
0.873046875
 40
0.8740234375
 40
0.8745117188
 40
0.8747558594
 40
0.875
 40
0.8752441406
 40
0.8754882812
 40
0.8759765625
 40
0.876953125
 40
0.8779296875
 40
0.87890625
 40
0.880859375
 40
0.8828125
 40
0.88671875
 40
0.890625
 40
0.89453125
 40
0.8984375
 40
0.90625
 40
0.9140625
 40
0.91796875
 40
0.921875
 40
0.92578125
 40
0.9296875
 40
0.931640625
 40
0.93359375
 40
0.9345703125
 40
0.935546875
 40
0.9365234375
 40
0.9370117188
 40
0.9372558594
 40
0.9375
 40
0.9377441406
 40
0.9379882812
 40
0.9384765625
 40
0.939453125
 40
0.9404296875
 40
0.94140625
 40
0.943359375
 40
0.9453125
 40
0.94921875
 40
0.953125
 40
0.95703125
 40
0.9609375
 40
0.96875
 40
0.9765625
 40
0.984375
 40
1.0
 40
1.0
 40
1.0
 40
1.0
 10
11.0111759234
 20
7.5318780349
 30
0.0
 10
11.0114831351
 20
7.5287235428
 30
0.0
 10
11.0119439526
 20
7.5239918046
 30
0.0
 10
11.0125583759
 20
7.5176828203
 30
0.0
 10
11.0130191934
 20
7.5129510822
 30
0.0
 10
11.0134032079
 20
7.509007967
 30
0.0
 10
11.0137104198
 20
7.5058534749
 30
0.0
 10
11.0139408276
 20
7.5034876057
 30
0.0
 10
11.01417124
 20
7.5011217371
 30
0.0
 10
11.0143632359
 20
7.499150178
 30
0.0
 10
11.0145168651
 20
7.497572935
 30
0.0
 10
11.0146128092
 20
7.4965871485
 30
0.0
 10
11.0146897342
 20
7.4957985412
 30
0.0
 10
11.0147469635
 20
7.495207026
 30
0.0
 10
11.0147961322
 20
7.4947142867
 30
0.0
 10
11.0148276504
 20
7.4943689961
 30
0.0
 10
11.0148501887
 20
7.4941722698
 30
0.0
 10
11.0148543373
 20
7.494023084
 30
0.0
 10
11.0149072424
 20
7.493880171
 30
0.0
 10
11.0149607756
 20
7.4936874323
 30
0.0
 10
11.0150623826
 20
7.493351159
 30
0.0
 10
11.0152033929
 20
7.4928702356
 30
0.0
 10
11.0153743783
 20
7.4922933557
 30
0.0
 10
11.0156017396
 20
7.4915241027
 30
0.0
 10
11.0158861533
 20
7.4905625638
 30
0.0
 10
11.0163410966
 20
7.4890240864
 30
0.0
 10
11.0169098164
 20
7.4871009948
 30
0.0
 10
11.0175922628
 20
7.4847932827
 30
0.0
 10
11.0182747138
 20
7.4824855711
 30
0.0
 10
11.0191846469
 20
7.4794086222
 30
0.0
 10
11.0203220638
 20
7.4755624361
 30
0.0
 10
11.0214594804
 20
7.4717162499
 30
0.0
 10
11.0223694141
 20
7.4686393011
 30
0.0
 10
11.0230518632
 20
7.4663315891
 30
0.0
 10
11.0237343167
 20
7.4640238786
 30
0.0
 10
11.0243030143
 20
7.4621007819
 30
0.0
 10
11.024758003
 20
7.460562315
 30
0.0
 10
11.0250423011
 20
7.4596007492
 30
0.0
 10
11.0252698995
 20
7.4588315515
 30
0.0
 10
11.0254401605
 20
7.458254503
 30
0.0
 10
11.0255834374
 20
7.4577741068
 30
0.0
 10
11.0256809981
 20
7.4574368925
 30
0.0
 10
11.0257410146
 20
7.4572456615
 30
0.0
 10
11.0257740053
 20
7.4570981171
 30
0.0
 10
11.0258529488
 20
7.4569663262
 30
0.0
 10
11.0259421779
 20
7.4567851099
 30
0.0
 10
11.026105797
 20
7.4564705417
 30
0.0
 10
11.0263356341
 20
7.4560198201
 30
0.0
 10
11.0266131098
 20
7.455479527
 30
0.0
 10
11.0269824938
 20
7.4547589362
 30
0.0
 10
11.0274444236
 20
7.4538582661
 30
0.0
 10
11.0281833996
 20
7.4524171557
 30
0.0
 10
11.0291071579
 20
7.4506157809
 30
0.0
 10
11.0302156515
 20
7.4484541255
 30
0.0
 10
11.0313241495
 20
7.4462924716
 30
0.0
 10
11.0328021452
 20
7.4434102658
 30
0.0
 10
11.0346496404
 20
7.4398075088
 30
0.0
 10
11.0364971353
 20
7.4362047517
 30
0.0
 10
11.0379751316
 20
7.4333225462
 30
0.0
 10
11.0390836278
 20
7.4311608915
 30
0.0
 10
11.0401921282
 20
7.4289992389
 30
0.0
 10
11.0411158652
 20
7.4271978554
 30
0.0
 10
11.0418548846
 20
7.4257567627
 30
0.0
 10
11.042316704
 20
7.4248560476
 30
0.0
 10
11.0426863147
 20
7.4241355492
 30
0.0
 10
11.0429630977
 20
7.4235949736
 30
0.0
 10
11.0431951023
 20
7.423145136
 30
0.0
 10
11.043354852
 20
7.4228289897
 30
0.0
 10
11.0434502808
 20
7.422650302
 30
0.0
 10
11.043510181
 20
7.4225107441
 30
0.0
 10
11.043614695
 20
7.422392371
 30
0.0
 10
11.0437384853
 20
7.4222271508
 30
0.0
 10
11.0439623688
 20
7.4219414582
 30
0.0
 10
11.0442784118
 20
7.421531526
 30
0.0
 10
11.0446592858
 20
7.4210403778
 30
0.0
 10
11.0451665512
 20
7.4203852444
 30
0.0
 10
11.045800827
 20
7.4195664198
 30
0.0
 10
11.0468155597
 20
7.4182562489
 30
0.0
 10
11.0480840128
 20
7.416618553
 30
0.0
 10
11.0496061407
 20
7.4146533103
 30
0.0
 10
11.0511282727
 20
7.4126880697
 30
0.0
 10
11.0531577807
 20
7.4100677481
 30
0.0
 10
11.0556946662
 20
7.4067923464
 30
0.0
 10
11.0582315514
 20
7.4035169445
 30
0.0
 10
11.0602610598
 20
7.4008966233
 30
0.0
 10
11.0617831904
 20
7.3989313815
 30
0.0
 10
11.063305324
 20
7.3969661432
 30
0.0
 10
11.064573759
 20
7.3953284337
 30
0.0
 10
11.0655885288
 20
7.3940182906
 30
0.0
 10
11.0662227103
 20
7.3931993954
 30
0.0
 10
11.066730169
 20
7.3925444069
 30
0.0
 10
11.0671104523
 20
7.3920528161
 30
0.0
 10
11.0674283436
 20
7.3916442685
 30
0.0
 10
11.0676489275
 20
7.3913561041
 30
0.0
 10
11.0677780046
 20
7.3911948444
 30
0.0
 10
11.0678662793
 20
7.3910643057
 30
0.0
 10
11.067987172
 20
7.3909704398
 30
0.0
 10
11.0681369848
 20
7.3908324934
 30
0.0
 10
11.0684044581
 20
7.3905970471
 30
0.0
 10
11.0687837914
 20
7.3902575793
 30
0.0
 10
11.0692401776
 20
7.3898515517
 30
0.0
 10
11.0698482782
 20
7.3893097157
 30
0.0
 10
11.0706085459
 20
7.3886325803
 30
0.0
 10
11.0718248948
 20
7.3875490744
 30
0.0
 10
11.0733453582
 20
7.3861947226
 30
0.0
 10
11.0751699026
 20
7.3845694874
 30
0.0
 10
11.0769944502
 20
7.3829442557
 30
0.0
 10
11.0794271791
 20
7.3807772788
 30
0.0
 10
11.0824680907
 20
7.3780685582
 30
0.0
 10
11.085509002
 20
7.3753598373
 30
0.0
 10
11.0879417314
 20
7.373192861
 30
0.0
 10
11.0897662777
 20
7.3715676277
 30
0.0
 10
11.0915908267
 20
7.3699423983
 30
0.0
 10
11.0931112759
 20
7.3685880286
 30
0.0
 10
11.0943276537
 20
7.3675045592
 30
0.0
 10
11.0950878479
 20
7.366827331
 30
0.0
 10
11.0956960994
 20
7.3662856854
 30
0.0
 10
11.0961520246
 20
7.365879076
 30
0.0
 10
11.0965328003
 20
7.3655414285
 30
0.0
 10
11.0967976987
 20
7.3653027328
 30
0.0
 10
11.096951637
 20
7.3651699928
 30
0.0
 10
11.0970598574
 20
7.3650601344
 30
0.0
 10
11.0971957273
 20
7.3649896609
 30
0.0
 10
11.0973672427
 20
7.3648819583
 30
0.0
 10
11.0976718882
 20
7.3646998796
 30
0.0
 10
11.0981047469
 20
7.3644364207
 30
0.0
 10
11.0986251828
 20
7.3641217024
 30
0.0
 10
11.0993187461
 20
7.3637015777
 30
0.0
 10
11.1001858205
 20
7.3631765931
 30
0.0
 10
11.1015730723
 20
7.3623365221
 30
0.0
 10
11.1033071602
 20
7.3612864661
 30
0.0
 10
11.1053880557
 20
7.3600263849
 30
0.0
 10
11.1074689539
 20
7.3587663074
 30
0.0
 10
11.1102434839
 20
7.3570862028
 30
0.0
 10
11.1137116467
 20
7.3549860725
 30
0.0
 10
11.1171798093
 20
7.3528859419
 30
0.0
 10
11.1199543396
 20
7.3512058379
 30
0.0
 10
11.1220352369
 20
7.3499457587
 30
0.0
 10
11.1241161359
 20
7.3486856838
 30
0.0
 10
11.1258502128
 20
7.3476356081
 30
0.0
 10
11.127237487
 20
7.3467955773
 30
0.0
 10
11.1281045044
 20
7.3462704904
 30
0.0
 10
11.1287981848
 20
7.3458505759
 30
0.0
 10
11.1293182631
 20
7.3455352154
 30
0.0
 10
11.1297522406
 20
7.3452737656
 30
0.0
 10
11.1300548887
 20
7.3450881004
 30
0.0
 10
11.1302296044
 20
7.3449861442
 30
0.0
 10
11.1303556442
 20
7.3448980195
 30
0.0
 10
11.1305007847
 20
7.3448544564
 30
0.0
 10
11.1306876428
 20
7.3447808286
 30
0.0
 10
11.1310177488
 20
7.3446592221
 30
0.0
 10
11.1314877057
 20
7.3444817123
 30
0.0
 10
11.1320523487
 20
7.3442703211
 30
0.0
 10
11.1328049635
 20
7.3439879002
 30
0.0
 10
11.1337458149
 20
7.3436350678
 30
0.0
 10
11.1352511309
 20
7.3430704278
 30
0.0
 10
11.1371327917
 20
7.3423646648
 30
0.0
 10
11.1393907779
 20
7.3415177334
 30
0.0
 10
11.1416487659
 20
7.3406708062
 30
0.0
 10
11.144659416
 20
7.3395415685
 30
0.0
 10
11.1484227288
 20
7.3381300219
 30
0.0
 10
11.1521860414
 20
7.3367184749
 30
0.0
 10
11.1551966917
 20
7.3355892378
 30
0.0
 10
11.1574546791
 20
7.3347423088
 30
0.0
 10
11.1597126678
 20
7.3338953843
 30
0.0
 10
11.1615943208
 20
7.3331895997
 30
0.0
 10
11.1630996528
 20
7.3326250038
 30
0.0
 10
11.1640404634
 20
7.3322720589
 30
0.0
 10
11.1647931619
 20
7.3319898691
 30
0.0
 10
11.1653575489
 20
7.331777772
 30
0.0
 10
11.1658283071
 20
7.3316024707
 30
0.0
 10
11.1661569826
 20
7.3314769217
 30
0.0
 10
11.1663461326
 20
7.3314096108
 30
0.0
 10
11.1664842333
 20
7.3313466444
 30
0.0
 10
11.1666367132
 20
7.3313313952
 30
0.0
 10
11.1668350041
 20
7.3312944187
 30
0.0
 10
11.16718435
 20
7.3312374647
 30
0.0
 10
11.1676821938
 20
7.3311520475
 30
0.0
 10
11.1682801294
 20
7.3310512822
 30
0.0
 10
11.1690771941
 20
7.3309163224
 30
0.0
 10
11.1700735876
 20
7.3307478301
 30
0.0
 10
11.1716677822
 20
7.3304781265
 30
0.0
 10
11.1736605375
 20
7.3301410369
 30
0.0
 10
11.1760518387
 20
7.3297365122
 30
0.0
 10
11.1784431412
 20
7.3293319921
 30
0.0
 10
11.1816315442
 20
7.3287926303
 30
0.0
 10
11.185617048
 20
7.3281184287
 30
0.0
 10
11.1896025518
 20
7.3274442267
 30
0.0
 10
11.1927909548
 20
7.3269048656
 30
0.0
 10
11.1951822571
 20
7.3265003435
 30
0.0
 10
11.1975735591
 20
7.3260958263
 30
0.0
 10
11.199566312
 20
7.3257587135
 30
0.0
 10
11.2011605114
 20
7.3254890571
 30
0.0
 10
11.2021568928
 20
7.3253204446
 30
0.0
 10
11.2029539824
 20
7.3251857317
 30
0.0
 10
11.2035518421
 20
7.325084212
 30
0.0
 10
11.2040499232
 20
7.3250011551
 30
0.0
 10
11.2043988456
 20
7.3249399876
 30
0.0
 10
11.204597815
 20
7.3249097622
 30
0.0
 10
11.2047482106
 20
7.3248737758
 30
0.0
 10
11.2048941395
 20
7.3248886948
 30
0.0
 10
11.2050902695
 20
7.3248908304
 30
0.0
 10
11.205432771
 20
7.3249028408
 30
0.0
 10
11.2059224383
 20
7.3249156732
 30
0.0
 10
11.2065098767
 20
7.3249329234
 30
0.0
 10
11.2072931846
 20
7.324955277
 30
0.0
 10
11.2082723001
 20
7.3249834405
 30
0.0
 10
11.2098388957
 20
7.3250283783
 30
0.0
 10
11.2117971365
 20
7.325084593
 30
0.0
 10
11.214147027
 20
7.3251520325
 30
0.0
 10
11.2164969171
 20
7.3252194768
 30
0.0
 10
11.219630104
 20
7.3253094009
 30
0.0
 10
11.2235465876
 20
7.3254218066
 30
0.0
 10
11.2274630713
 20
7.3255342119
 30
0.0
 10
11.2305962582
 20
7.3256241367
 30
0.0
 10
11.2329461486
 20
7.325691579
 30
0.0
 10
11.235296038
 20
7.325759026
 30
0.0
 10
11.2372542821
 20
7.3258152172
 30
0.0
 10
11.238820871
 20
7.3258602031
 30
0.0
 10
11.2398000036
 20
7.3258882442
 30
0.0
 10
11.2405832762
 20
7.325910849
 30
0.0
 10
11.2411708226
 20
7.3259273318
 30
0.0
 10
11.241660152
 20
7.3259425653
 30
0.0
 10
11.2420032568
 20
7.3259502892
 30
0.0
 10
11.2421984201
 20
7.3259592928
 30
0.0
 10
11.2423473182
 20
7.3259531154
 30
0.0
 10
11.2424865622
 20
7.3259963638
 30
0.0
 10
11.2426755884
 20
7.3260367881
 30
0.0
 10
11.2430048152
 20
7.3261155631
 30
0.0
 10
11.2434759595
 20
7.3262238994
 30
0.0
 10
11.2440409815
 20
7.3263557004
 30
0.0
 10
11.2447944669
 20
7.3265308073
 30
0.0
 10
11.2457362816
 20
7.3267499059
 30
0.0
 10
11.2472432087
 20
7.3271003435
 30
0.0
 10
11.2491268594
 20
7.3275384317
 30
0.0
 10
11.2513872437
 20
7.3280641199
 30
0.0
 10
11.2536476271
 20
7.3285898128
 30
0.0
 10
11.256661472
 20
7.329290735
 30
0.0
 10
11.260428778
 20
7.3301668884
 30
0.0
 10
11.264196084
 20
7.3310430414
 30
0.0
 10
11.2672099287
 20
7.3317439642
 30
0.0
 10
11.2694703127
 20
7.3322696552
 30
0.0
 10
11.2717306949
 20
7.3327953507
 30
0.0
 10
11.2736143523
 20
7.3332334161
 30
0.0
 10
11.2751212656
 20
7.3335839001
 30
0.0
 10
11.2760631152
 20
7.3338028807
 30
0.0
 10
11.276816529
 20
7.3339782297
 30
0.0
 10
11.2773817698
 20
7.3341092911
 30
0.0
 10
11.2778522298
 20
7.3342199415
 30
0.0
 10
11.2781826782
 20
7.3342945855
 30
0.0
 10
11.278369747
 20
7.3343416287
 30
0.0
 10
11.2785150035
 20
7.3343645459
 30
0.0
 10
11.2786413197
 20
7.3344347293
 30
0.0
 10
11.2788163479
 20
7.3345118201
 30
0.0
 10
11.2791195691
 20
7.3346544107
 30
0.0
 10
11.2795543514
 20
7.3348540956
 30
0.0
 10
11.2800754015
 20
7.3350954364
 30
0.0
 10
11.2807703755
 20
7.3354166238
 30
0.0
 10
11.2816390106
 20
7.3358183135
 30
0.0
 10
11.2830288728
 20
7.3364609023
 30
0.0
 10
11.2847661848
 20
7.3372641776
 30
0.0
 10
11.2868509659
 20
7.3382280911
 30
0.0
 10
11.2889357452
 20
7.3391920091
 30
0.0
 10
11.2917154516
 20
7.3404772316
 30
0.0
 10
11.2951900844
 20
7.3420837602
 30
0.0
 10
11.2986647173
 20
7.3436902884
 30
0.0
 10
11.3014444234
 20
7.3449755115
 30
0.0
 10
11.3035292036
 20
7.3459394277
 30
0.0
 10
11.3056139815
 20
7.3469033482
 30
0.0
 10
11.3073513036
 20
7.3477066016
 30
0.0
 10
11.3087411451
 20
7.3483492351
 30
0.0
 10
11.309609833
 20
7.3487508108
 30
0.0
 10
11.3103046987
 20
7.3490722324
 30
0.0
 10
11.3108260794
 20
7.3493128575
 30
0.0
 10
11.3112598274
 20
7.3495147816
 30
0.0
 10
11.3115648951
 20
7.3496533748
 30
0.0
 10
11.3117369648
 20
7.3497368705
 30
0.0
 10
11.3118723685
 20
7.3497873804
 30
0.0
 10
11.3119834935
 20
7.3498841879
 30
0.0
 10
11.3121401289
 20
7.3499971155
 30
0.0
 10
11.3124102951
 20
7.3502022629
 30
0.0
 10
11.3127983097
 20
7.350491397
 30
0.0
 10
11.3132630442
 20
7.3508400416
 30
0.0
 10
11.3138829986
 20
7.351304313
 30
0.0
 10
11.3146578361
 20
7.3518848536
 30
0.0
 10
11.315897635
 20
7.352813606
 30
0.0
 10
11.3174473634
 20
7.3539745851
 30
0.0
 10
11.3193070461
 20
7.3553677434
 30
0.0
 10
11.3211667265
 20
7.3567609063
 30
0.0
 10
11.3236463012
 20
7.3586184551
 30
0.0
 10
11.3267457693
 20
7.3609403918
 30
0.0
 10
11.3298452376
 20
7.3632623281
 30
0.0
 10
11.3323248119
 20
7.3651198775
 30
0.0
 10
11.3341844936
 20
7.3665130387
 30
0.0
 10
11.3360441716
 20
7.3679062032
 30
0.0
 10
11.3375939148
 20
7.3690671631
 30
0.0
 10
11.3388336835
 20
7.3699959547
 30
0.0
 10
11.339608598
 20
7.3705763957
 30
0.0
 10
11.3402283942
 20
7.3710408714
 30
0.0
 10
11.3406936122
 20
7.3713888917
 30
0.0
 10
11.3410801139
 20
7.371679979
 30
0.0
 10
11.3413529808
 20
7.3718816396
 30
0.0
 10
11.341505289
 20
7.3720001541
 30
0.0
 10
11.3416297058
 20
7.3720798004
 30
0.0
 10
11.3417151878
 20
7.3721947649
 30
0.0
 10
11.3418427447
 20
7.3723357315
 30
0.0
 10
11.3420596416
 20
7.372588163
 30
0.0
 10
11.3423728025
 20
7.3729457785
 30
0.0
 10
11.3427471796
 20
7.3733762016
 30
0.0
 10
11.3432468437
 20
7.3739496504
 30
0.0
 10
11.3438712544
 20
7.374666615
 30
0.0
 10
11.3448704062
 20
7.3758136726
 30
0.0
 10
11.3461193134
 20
7.3772475239
 30
0.0
 10
11.3476180161
 20
7.378968133
 30
0.0
 10
11.349116715
 20
7.3806887454
 30
0.0
 10
11.3511149815
 20
7.3829828941
 30
0.0
 10
11.3536128142
 20
7.3858505804
 30
0.0
 10
11.3561106472
 20
7.3887182664
 30
0.0
 10
11.3581089132
 20
7.3910124156
 30
0.0
 10
11.3596076137
 20
7.3927330266
 30
0.0
 10
11.3611063103
 20
7.3944536406
 30
0.0
 10
11.3623552364
 20
7.3958874765
 30
0.0
 10
11.3633543498
 20
7.3970345656
 30
0.0
 10
11.3639788583
 20
7.39775145
 30
0.0
 10
11.3644783215
 20
7.3983250636
 30
0.0
 10
11.3648533124
 20
7.3987549831
 30
0.0
 10
11.365164553
 20
7.3991141742
 30
0.0
 10
11.3653848779
 20
7.399363793
 30
0.0
 10
11.3655069423
 20
7.3995092661
 30
0.0
 10
11.3656092956
 20
7.3996103883
 30
0.0
 10
11.3656703465
 20
7.3997420243
 30
0.0
 10
11.3657661544
 20
7.3999068954
 30
0.0
 10
11.3659271059
 20
7.4002003789
 30
0.0
 10
11.366160546
 20
7.4006170484
 30
0.0
 10
11.3664391719
 20
7.4011181615
 30
0.0
 10
11.3668111978
 20
7.4017859248
 30
0.0
 10
11.3672760506
 20
7.4026207615
 30
0.0
 10
11.3680199154
 20
7.4039564262
 30
0.0
 10
11.3689497119
 20
7.4056260324
 30
0.0
 10
11.3700654826
 20
7.407629549
 30
0.0
 10
11.3711812493
 20
7.4096330685
 30
0.0
 10
11.3726689396
 20
7.4123044268
 30
0.0
 10
11.3745285519
 20
7.4156436251
 30
0.0
 10
11.3763881646
 20
7.4189828231
 30
0.0
 10
11.3778758544
 20
7.4216541818
 30
0.0
 10
11.3789916228
 20
7.4236577002
 30
0.0
 10
11.3801073869
 20
7.4256612208
 30
0.0
 10
11.3810372039
 20
7.4273308146
 30
0.0
 10
11.3817810269
 20
7.4286665045
 30
0.0
 10
11.382245986
 20
7.4295012769
 30
0.0
 10
11.3826177936
 20
7.4301691723
 30
0.0
 10
11.3828970865
 20
7.4306698816
 30
0.0
 10
11.3831284399
 20
7.4310878147
 30
0.0
 10
11.3832931164
 20
7.4313790425
 30
0.0
 10
11.383382956
 20
7.4315475277
 30
0.0
 10
11.3834623399
 20
7.4316680623
 30
0.0
 10
11.3834958374
 20
7.4318108797
 30
0.0
 10
11.3835565065
 20
7.4319935304
 30
0.0
 10
11.3836552201
 20
7.4323167905
 30
0.0
 10
11.3838001383
 20
7.4327766974
 30
0.0
 10
11.3839723714
 20
7.433329396
 30
0.0
 10
11.3842025983
 20
7.4340660444
 30
0.0
 10
11.3844901823
 20
7.4349869519
 30
0.0
 10
11.3849504284
 20
7.4364603496
 30
0.0
 10
11.3855256977
 20
7.4383021154
 30
0.0
 10
11.3862160373
 20
7.4405122264
 30
0.0
 10
11.3869063724
 20
7.4427223395
 30
0.0
 10
11.3878268209
 20
7.4456691563
 30
0.0
 10
11.3889773809
 20
7.4493526775
 30
0.0
 10
11.3901279412
 20
7.4530361985
 30
0.0
 10
11.391048389
 20
7.4559830155
 30
0.0
 10
11.3917387261
 20
7.4581931278
 30
0.0
 10
11.3924290585
 20
7.4604032418
 30
0.0
 10
11.3930043501
 20
7.4622449982
 30
0.0
 10
11.3934645508
 20
7.4637184151
 30
0.0
 10
11.3937522502
 20
7.4646392737
 30
0.0
 10
11.3939822403
 20
7.4653760224
 30
0.0
 10
11.3941551969
 20
7.4659284148
 30
0.0
 10
11.3942978511
 20
7.4663892799
 30
0.0
 10
11.3944006064
 20
7.4667108293
 30
0.0
 10
11.3944547997
 20
7.4668962209
 30
0.0
 10
11.3945081888
 20
7.4670306191
 30
0.0
 10
11.3945128634
 20
7.4671827749
 30
0.0
 10
11.3945360884
 20
7.4673794552
 30
0.0
 10
11.3945688152
 20
7.4677265317
 30
0.0
 10
11.3946197068
 20
7.4682208464
 30
0.0
 10
11.3946790051
 20
7.4688146698
 30
0.0
 10
11.3947586883
 20
7.4696062089
 30
0.0
 10
11.3948580805
 20
7.47059571
 30
0.0
 10
11.3950172263
 20
7.4721788685
 30
0.0
 10
11.3952161179
 20
7.4741578315
 30
0.0
 10
11.3954548053
 20
7.4765325807
 30
0.0
 10
11.395693488
 20
7.4789073316
 30
0.0
 10
11.3960117333
 20
7.4820736655
 30
0.0
 10
11.3964095393
 20
7.4860315832
 30
0.0
 10
11.3968869067
 20
7.4907810843
 30
0.0
 10
11.3975233966
 20
7.4971137524
 30
0.0
 10
11.398000764
 20
7.5018632536
 30
0.0
 10
11.3983190089
 20
7.5050295876
 30
0.0
  0
SPLINE
  5
3DE
100
AcDbEntity
  8
0
100
AcDbSpline
 62
4
  6
CONTINUOUS
 70
0
 71
3
 72
403
 73
399
 74
0
 42
0.0000001
 43
0.0000001
 44
0.0000000001
 40
0.0
 40
0.0
 40
0.0
 40
0.0
 40
0.015625
 40
0.0234375
 40
0.03125
 40
0.0390625
 40
0.04296875
 40
0.046875
 40
0.05078125
 40
0.0546875
 40
0.056640625
 40
0.05859375
 40
0.0595703125
 40
0.060546875
 40
0.0615234375
 40
0.0620117188
 40
0.0622558594
 40
0.0625
 40
0.0627441406
 40
0.0629882812
 40
0.0634765625
 40
0.064453125
 40
0.0654296875
 40
0.06640625
 40
0.068359375
 40
0.0703125
 40
0.07421875
 40
0.078125
 40
0.08203125
 40
0.0859375
 40
0.09375
 40
0.1015625
 40
0.10546875
 40
0.109375
 40
0.11328125
 40
0.1171875
 40
0.119140625
 40
0.12109375
 40
0.1220703125
 40
0.123046875
 40
0.1240234375
 40
0.1245117188
 40
0.1247558594
 40
0.125
 40
0.1252441406
 40
0.1254882812
 40
0.1259765625
 40
0.126953125
 40
0.1279296875
 40
0.12890625
 40
0.130859375
 40
0.1328125
 40
0.13671875
 40
0.140625
 40
0.14453125
 40
0.1484375
 40
0.15625
 40
0.1640625
 40
0.16796875
 40
0.171875
 40
0.17578125
 40
0.1796875
 40
0.181640625
 40
0.18359375
 40
0.1845703125
 40
0.185546875
 40
0.1865234375
 40
0.1870117188
 40
0.1872558594
 40
0.1875
 40
0.1877441406
 40
0.1879882812
 40
0.1884765625
 40
0.189453125
 40
0.1904296875
 40
0.19140625
 40
0.193359375
 40
0.1953125
 40
0.19921875
 40
0.203125
 40
0.20703125
 40
0.2109375
 40
0.21875
 40
0.2265625
 40
0.23046875
 40
0.234375
 40
0.23828125
 40
0.2421875
 40
0.244140625
 40
0.24609375
 40
0.2470703125
 40
0.248046875
 40
0.2490234375
 40
0.2495117188
 40
0.2497558594
 40
0.25
 40
0.2502441406
 40
0.2504882812
 40
0.2509765625
 40
0.251953125
 40
0.2529296875
 40
0.25390625
 40
0.255859375
 40
0.2578125
 40
0.26171875
 40
0.265625
 40
0.26953125
 40
0.2734375
 40
0.28125
 40
0.2890625
 40
0.29296875
 40
0.296875
 40
0.30078125
 40
0.3046875
 40
0.306640625
 40
0.30859375
 40
0.3095703125
 40
0.310546875
 40
0.3115234375
 40
0.3120117188
 40
0.3122558594
 40
0.3125
 40
0.3127441406
 40
0.3129882812
 40
0.3134765625
 40
0.314453125
 40
0.3154296875
 40
0.31640625
 40
0.318359375
 40
0.3203125
 40
0.32421875
 40
0.328125
 40
0.33203125
 40
0.3359375
 40
0.34375
 40
0.3515625
 40
0.35546875
 40
0.359375
 40
0.36328125
 40
0.3671875
 40
0.369140625
 40
0.37109375
 40
0.3720703125
 40
0.373046875
 40
0.3740234375
 40
0.3745117188
 40
0.3747558594
 40
0.375
 40
0.3752441406
 40
0.3754882812
 40
0.3759765625
 40
0.376953125
 40
0.3779296875
 40
0.37890625
 40
0.380859375
 40
0.3828125
 40
0.38671875
 40
0.390625
 40
0.39453125
 40
0.3984375
 40
0.40625
 40
0.4140625
 40
0.41796875
 40
0.421875
 40
0.42578125
 40
0.4296875
 40
0.431640625
 40
0.43359375
 40
0.4345703125
 40
0.435546875
 40
0.4365234375
 40
0.4370117188
 40
0.4372558594
 40
0.4375
 40
0.4377441406
 40
0.4379882812
 40
0.4384765625
 40
0.439453125
 40
0.4404296875
 40
0.44140625
 40
0.443359375
 40
0.4453125
 40
0.44921875
 40
0.453125
 40
0.45703125
 40
0.4609375
 40
0.46875
 40
0.4765625
 40
0.48046875
 40
0.484375
 40
0.48828125
 40
0.4921875
 40
0.494140625
 40
0.49609375
 40
0.4970703125
 40
0.498046875
 40
0.4990234375
 40
0.4995117188
 40
0.4997558594
 40
0.5
 40
0.5002441406
 40
0.5004882812
 40
0.5009765625
 40
0.501953125
 40
0.5029296875
 40
0.50390625
 40
0.505859375
 40
0.5078125
 40
0.51171875
 40
0.515625
 40
0.51953125
 40
0.5234375
 40
0.53125
 40
0.5390625
 40
0.54296875
 40
0.546875
 40
0.55078125
 40
0.5546875
 40
0.556640625
 40
0.55859375
 40
0.5595703125
 40
0.560546875
 40
0.5615234375
 40
0.5620117188
 40
0.5622558594
 40
0.5625
 40
0.5627441406
 40
0.5629882812
 40
0.5634765625
 40
0.564453125
 40
0.5654296875
 40
0.56640625
 40
0.568359375
 40
0.5703125
 40
0.57421875
 40
0.578125
 40
0.58203125
 40
0.5859375
 40
0.59375
 40
0.6015625
 40
0.60546875
 40
0.609375
 40
0.61328125
 40
0.6171875
 40
0.619140625
 40
0.62109375
 40
0.6220703125
 40
0.623046875
 40
0.6240234375
 40
0.6245117188
 40
0.6247558594
 40
0.625
 40
0.6252441406
 40
0.6254882812
 40
0.6259765625
 40
0.626953125
 40
0.6279296875
 40
0.62890625
 40
0.630859375
 40
0.6328125
 40
0.63671875
 40
0.640625
 40
0.64453125
 40
0.6484375
 40
0.65625
 40
0.6640625
 40
0.66796875
 40
0.671875
 40
0.67578125
 40
0.6796875
 40
0.681640625
 40
0.68359375
 40
0.6845703125
 40
0.685546875
 40
0.6865234375
 40
0.6870117188
 40
0.6872558594
 40
0.6875
 40
0.6877441406
 40
0.6879882812
 40
0.6884765625
 40
0.689453125
 40
0.6904296875
 40
0.69140625
 40
0.693359375
 40
0.6953125
 40
0.69921875
 40
0.703125
 40
0.70703125
 40
0.7109375
 40
0.71875
 40
0.7265625
 40
0.73046875
 40
0.734375
 40
0.73828125
 40
0.7421875
 40
0.744140625
 40
0.74609375
 40
0.7470703125
 40
0.748046875
 40
0.7490234375
 40
0.7495117188
 40
0.7497558594
 40
0.75
 40
0.7502441406
 40
0.7504882812
 40
0.7509765625
 40
0.751953125
 40
0.7529296875
 40
0.75390625
 40
0.755859375
 40
0.7578125
 40
0.76171875
 40
0.765625
 40
0.76953125
 40
0.7734375
 40
0.78125
 40
0.7890625
 40
0.79296875
 40
0.796875
 40
0.80078125
 40
0.8046875
 40
0.806640625
 40
0.80859375
 40
0.8095703125
 40
0.810546875
 40
0.8115234375
 40
0.8120117188
 40
0.8122558594
 40
0.8125
 40
0.8127441406
 40
0.8129882812
 40
0.8134765625
 40
0.814453125
 40
0.8154296875
 40
0.81640625
 40
0.818359375
 40
0.8203125
 40
0.82421875
 40
0.828125
 40
0.83203125
 40
0.8359375
 40
0.84375
 40
0.8515625
 40
0.85546875
 40
0.859375
 40
0.86328125
 40
0.8671875
 40
0.869140625
 40
0.87109375
 40
0.8720703125
 40
0.873046875
 40
0.8740234375
 40
0.8745117188
 40
0.8747558594
 40
0.875
 40
0.8752441406
 40
0.8754882812
 40
0.8759765625
 40
0.876953125
 40
0.8779296875
 40
0.87890625
 40
0.880859375
 40
0.8828125
 40
0.88671875
 40
0.890625
 40
0.89453125
 40
0.8984375
 40
0.90625
 40
0.9140625
 40
0.91796875
 40
0.921875
 40
0.92578125
 40
0.9296875
 40
0.931640625
 40
0.93359375
 40
0.9345703125
 40
0.935546875
 40
0.9365234375
 40
0.9370117188
 40
0.9372558594
 40
0.9375
 40
0.9377441406
 40
0.9379882812
 40
0.9384765625
 40
0.939453125
 40
0.9404296875
 40
0.94140625
 40
0.943359375
 40
0.9453125
 40
0.94921875
 40
0.953125
 40
0.95703125
 40
0.9609375
 40
0.96875
 40
0.9765625
 40
0.984375
 40
1.0
 40
1.0
 40
1.0
 40
1.0
 10
11.3983190089
 20
7.5050295707
 30
0.0
 10
11.3980117972
 20
7.5081840628
 30
0.0
 10
11.3975509797
 20
7.512915801
 30
0.0
 10
11.3969365564
 20
7.5192247853
 30
0.0
 10
11.3964757389
 20
7.5239565234
 30
0.0
 10
11.3960917244
 20
7.5278996386
 30
0.0
 10
11.3957845125
 20
7.5310541307
 30
0.0
 10
11.3955541047
 20
7.5334199999
 30
0.0
 10
11.3953236923
 20
7.5357858685
 30
0.0
 10
11.3951316964
 20
7.5377574276
 30
0.0
 10
11.3949780672
 20
7.5393346706
 30
0.0
 10
11.3948821231
 20
7.540320457
 30
0.0
 10
11.3948051981
 20
7.5411090644
 30
0.0
 10
11.3947479688
 20
7.5417005796
 30
0.0
 10
11.3946988001
 20
7.5421933189
 30
0.0
 10
11.3946672819
 20
7.5425386095
 30
0.0
 10
11.3946447436
 20
7.5427353358
 30
0.0
 10
11.394640595
 20
7.5428845216
 30
0.0
 10
11.3945876899
 20
7.5430274346
 30
0.0
 10
11.3945341567
 20
7.5432201733
 30
0.0
 10
11.3944325497
 20
7.5435564466
 30
0.0
 10
11.3942915394
 20
7.54403737
 30
0.0
 10
11.394120554
 20
7.5446142499
 30
0.0
 10
11.3938931927
 20
7.5453835029
 30
0.0
 10
11.393608779
 20
7.5463450417
 30
0.0
 10
11.3931538357
 20
7.5478835192
 30
0.0
 10
11.3925851159
 20
7.5498066108
 30
0.0
 10
11.3919026695
 20
7.5521143229
 30
0.0
 10
11.3912202185
 20
7.5544220345
 30
0.0
 10
11.3903102854
 20
7.5574989834
 30
0.0
 10
11.3891728685
 20
7.5613451695
 30
0.0
 10
11.3880354519
 20
7.5651913557
 30
0.0
 10
11.3871255182
 20
7.5682683045
 30
0.0
 10
11.3864430691
 20
7.5705760165
 30
0.0
 10
11.3857606156
 20
7.572883727
 30
0.0
 10
11.385191918
 20
7.5748068237
 30
0.0
 10
11.3847369293
 20
7.5763452906
 30
0.0
 10
11.3844526312
 20
7.5773068564
 30
0.0
 10
11.3842250328
 20
7.5780760541
 30
0.0
 10
11.3840547718
 20
7.5786531026
 30
0.0
 10
11.3839114949
 20
7.5791334988
 30
0.0
 10
11.3838139342
 20
7.5794707131
 30
0.0
 10
11.3837539177
 20
7.5796619441
 30
0.0
 10
11.383720927
 20
7.5798094885
 30
0.0
 10
11.3836419835
 20
7.5799412794
 30
0.0
 10
11.3835527544
 20
7.5801224957
 30
0.0
 10
11.3833891353
 20
7.5804370639
 30
0.0
 10
11.3831592982
 20
7.5808877855
 30
0.0
 10
11.3828818225
 20
7.5814280786
 30
0.0
 10
11.3825124385
 20
7.5821486694
 30
0.0
 10
11.3820505087
 20
7.5830493395
 30
0.0
 10
11.3813115327
 20
7.5844904498
 30
0.0
 10
11.3803877744
 20
7.5862918247
 30
0.0
 10
11.3792792808
 20
7.5884534801
 30
0.0
 10
11.3781707828
 20
7.590615134
 30
0.0
 10
11.3766927871
 20
7.5934973398
 30
0.0
 10
11.3748452919
 20
7.5971000968
 30
0.0
 10
11.372997797
 20
7.6007028539
 30
0.0
 10
11.3715198007
 20
7.6035850594
 30
0.0
 10
11.3704113045
 20
7.6057467141
 30
0.0
 10
11.3693028041
 20
7.6079083667
 30
0.0
 10
11.3683790671
 20
7.6097097502
 30
0.0
 10
11.3676400477
 20
7.6111508429
 30
0.0
 10
11.3671782283
 20
7.612051558
 30
0.0
 10
11.3668086176
 20
7.6127720564
 30
0.0
 10
11.3665318346
 20
7.613312632
 30
0.0
 10
11.36629983
 20
7.6137624696
 30
0.0
 10
11.3661400803
 20
7.6140786159
 30
0.0
 10
11.3660446515
 20
7.6142573036
 30
0.0
 10
11.3659847513
 20
7.6143968615
 30
0.0
 10
11.3658802373
 20
7.6145152346
 30
0.0
 10
11.365756447
 20
7.6146804548
 30
0.0
 10
11.3655325635
 20
7.6149661474
 30
0.0
 10
11.3652165205
 20
7.6153760796
 30
0.0
 10
11.3648356465
 20
7.6158672278
 30
0.0
 10
11.3643283811
 20
7.6165223612
 30
0.0
 10
11.3636941053
 20
7.6173411858
 30
0.0
 10
11.3626793726
 20
7.6186513567
 30
0.0
 10
11.3614109195
 20
7.6202890526
 30
0.0
 10
11.3598887916
 20
7.6222542953
 30
0.0
 10
11.3583666596
 20
7.6242195359
 30
0.0
 10
11.3563371516
 20
7.6268398575
 30
0.0
 10
11.3538002661
 20
7.6301152592
 30
0.0
 10
11.3512633809
 20
7.6333906611
 30
0.0
 10
11.3492338725
 20
7.6360109823
 30
0.0
 10
11.3477117419
 20
7.6379762241
 30
0.0
 10
11.3461896083
 20
7.6399414624
 30
0.0
 10
11.3449211733
 20
7.6415791719
 30
0.0
 10
11.3439064035
 20
7.642889315
 30
0.0
 10
11.343272222
 20
7.6437082102
 30
0.0
 10
11.3427647633
 20
7.6443631987
 30
0.0
 10
11.34238448
 20
7.6448547895
 30
0.0
 10
11.3420665887
 20
7.6452633371
 30
0.0
 10
11.3418460048
 20
7.6455515015
 30
0.0
 10
11.3417169277
 20
7.6457127612
 30
0.0
 10
11.341628653
 20
7.6458432999
 30
0.0
 10
11.3415077603
 20
7.6459371658
 30
0.0
 10
11.3413579475
 20
7.6460751122
 30
0.0
 10
11.3410904742
 20
7.6463105585
 30
0.0
 10
11.3407111409
 20
7.6466500263
 30
0.0
 10
11.3402547547
 20
7.6470560539
 30
0.0
 10
11.3396466541
 20
7.6475978898
 30
0.0
 10
11.3388863864
 20
7.6482750253
 30
0.0
 10
11.3376700375
 20
7.6493585312
 30
0.0
 10
11.3361495741
 20
7.6507128829
 30
0.0
 10
11.3343250297
 20
7.6523381182
 30
0.0
 10
11.3325004821
 20
7.6539633499
 30
0.0
 10
11.3300677532
 20
7.6561303267
 30
0.0
 10
11.3270268416
 20
7.6588390473
 30
0.0
 10
11.3239859303
 20
7.6615477683
 30
0.0
 10
11.3215532009
 20
7.6637147446
 30
0.0
 10
11.3197286546
 20
7.6653399779
 30
0.0
 10
11.3179041056
 20
7.6669652073
 30
0.0
 10
11.3163836564
 20
7.668319577
 30
0.0
 10
11.3151672786
 20
7.6694030464
 30
0.0
 10
11.3144070844
 20
7.6700802746
 30
0.0
 10
11.3137988329
 20
7.6706219202
 30
0.0
 10
11.3133429077
 20
7.6710285295
 30
0.0
 10
11.312962132
 20
7.6713661771
 30
0.0
 10
11.3126972336
 20
7.6716048728
 30
0.0
 10
11.3125432953
 20
7.6717376128
 30
0.0
 10
11.3124350749
 20
7.6718474712
 30
0.0
 10
11.312299205
 20
7.6719179447
 30
0.0
 10
11.3121276896
 20
7.6720256473
 30
0.0
 10
11.3118230441
 20
7.672207726
 30
0.0
 10
11.3113901854
 20
7.6724711849
 30
0.0
 10
11.3108697495
 20
7.6727859032
 30
0.0
 10
11.3101761862
 20
7.6732060279
 30
0.0
 10
11.3093091118
 20
7.6737310125
 30
0.0
 10
11.30792186
 20
7.6745710835
 30
0.0
 10
11.3061877721
 20
7.6756211395
 30
0.0
 10
11.3041068766
 20
7.6768812207
 30
0.0
 10
11.3020259784
 20
7.6781412982
 30
0.0
 10
11.2992514484
 20
7.6798214028
 30
0.0
 10
11.2957832856
 20
7.681921533
 30
0.0
 10
11.292315123
 20
7.6840216637
 30
0.0
 10
11.2895405927
 20
7.6857017677
 30
0.0
 10
11.2874596954
 20
7.6869618469
 30
0.0
 10
11.2853787964
 20
7.6882219218
 30
0.0
 10
11.2836447195
 20
7.6892719974
 30
0.0
 10
11.2822574453
 20
7.6901120283
 30
0.0
 10
11.2813904279
 20
7.6906371152
 30
0.0
 10
11.2806967475
 20
7.6910570297
 30
0.0
 10
11.2801766692
 20
7.6913723902
 30
0.0
 10
11.2797426917
 20
7.69163384
 30
0.0
 10
11.2794400436
 20
7.6918195052
 30
0.0
 10
11.2792653279
 20
7.6919214613
 30
0.0
 10
11.2791392881
 20
7.6920095861
 30
0.0
 10
11.2789941476
 20
7.6920531492
 30
0.0
 10
11.2788072895
 20
7.692126777
 30
0.0
 10
11.2784771835
 20
7.6922483835
 30
0.0
 10
11.2780072266
 20
7.6924258933
 30
0.0
 10
11.2774425836
 20
7.6926372845
 30
0.0
 10
11.2766899688
 20
7.6929197054
 30
0.0
 10
11.2757491174
 20
7.6932725378
 30
0.0
 10
11.2742438014
 20
7.6938371778
 30
0.0
 10
11.2723621406
 20
7.6945429407
 30
0.0
 10
11.2701041544
 20
7.6953898722
 30
0.0
 10
11.2678461664
 20
7.6962367994
 30
0.0
 10
11.2648355163
 20
7.6973660371
 30
0.0
 10
11.2610722035
 20
7.6987775837
 30
0.0
 10
11.2573088909
 20
7.7001891307
 30
0.0
 10
11.2542982406
 20
7.7013183678
 30
0.0
 10
11.2520402532
 20
7.7021652968
 30
0.0
 10
11.2497822645
 20
7.7030122213
 30
0.0
 10
11.2479006115
 20
7.7037180059
 30
0.0
 10
11.2463952795
 20
7.7042826017
 30
0.0
 10
11.2454544689
 20
7.7046355466
 30
0.0
 10
11.2447017704
 20
7.7049177365
 30
0.0
 10
11.2441373834
 20
7.7051298335
 30
0.0
 10
11.2436666252
 20
7.7053051349
 30
0.0
 10
11.2433379497
 20
7.7054306839
 30
0.0
 10
11.2431487997
 20
7.7054979948
 30
0.0
 10
11.243010699
 20
7.7055609612
 30
0.0
 10
11.2428582191
 20
7.7055762104
 30
0.0
 10
11.2426599282
 20
7.7056131869
 30
0.0
 10
11.2423105823
 20
7.7056701409
 30
0.0
 10
11.2418127385
 20
7.7057555581
 30
0.0
 10
11.2412148029
 20
7.7058563234
 30
0.0
 10
11.2404177382
 20
7.7059912832
 30
0.0
 10
11.2394213447
 20
7.7061597755
 30
0.0
 10
11.2378271501
 20
7.706429479
 30
0.0
 10
11.2358343948
 20
7.7067665687
 30
0.0
 10
11.2334430936
 20
7.7071710934
 30
0.0
 10
11.2310517911
 20
7.7075756135
 30
0.0
 10
11.2278633881
 20
7.7081149753
 30
0.0
 10
11.2238778843
 20
7.7087891769
 30
0.0
 10
11.2198923805
 20
7.7094633789
 30
0.0
 10
11.2167039775
 20
7.7100027399
 30
0.0
 10
11.2143126752
 20
7.710407262
 30
0.0
 10
11.2119213732
 20
7.7108117793
 30
0.0
 10
11.2099286203
 20
7.7111488921
 30
0.0
 10
11.2083344209
 20
7.7114185484
 30
0.0
 10
11.2073380395
 20
7.711587161
 30
0.0
 10
11.2065409499
 20
7.7117218739
 30
0.0
 10
11.2059430902
 20
7.7118233935
 30
0.0
 10
11.2054450091
 20
7.7119064505
 30
0.0
 10
11.2050960867
 20
7.711967618
 30
0.0
 10
11.2048971173
 20
7.7119978434
 30
0.0
 10
11.2047467217
 20
7.7120338297
 30
0.0
 10
11.2046007928
 20
7.7120189108
 30
0.0
 10
11.2044046628
 20
7.7120167752
 30
0.0
 10
11.2040621613
 20
7.7120047648
 30
0.0
 10
11.203572494
 20
7.7119919324
 30
0.0
 10
11.2029850556
 20
7.7119746822
 30
0.0
 10
11.2022017477
 20
7.7119523286
 30
0.0
 10
11.2012226322
 20
7.7119241651
 30
0.0
 10
11.1996560366
 20
7.7118792273
 30
0.0
 10
11.1976977959
 20
7.7118230126
 30
0.0
 10
11.1953479053
 20
7.7117555731
 30
0.0
 10
11.1929980152
 20
7.7116881288
 30
0.0
 10
11.1898648283
 20
7.7115982047
 30
0.0
 10
11.1859483447
 20
7.711485799
 30
0.0
 10
11.182031861
 20
7.7113733937
 30
0.0
 10
11.1788986741
 20
7.7112834689
 30
0.0
 10
11.1765487837
 20
7.7112160266
 30
0.0
 10
11.1741988943
 20
7.7111485796
 30
0.0
 10
11.1722406502
 20
7.7110923884
 30
0.0
 10
11.1706740614
 20
7.7110474025
 30
0.0
 10
11.1696949287
 20
7.7110193614
 30
0.0
 10
11.1689116561
 20
7.7109967566
 30
0.0
 10
11.1683241097
 20
7.7109802738
 30
0.0
 10
11.1678347803
 20
7.7109650402
 30
0.0
 10
11.1674916755
 20
7.7109573164
 30
0.0
 10
11.1672965122
 20
7.7109483127
 30
0.0
 10
11.1671476141
 20
7.7109544902
 30
0.0
 10
11.1670083701
 20
7.7109112418
 30
0.0
 10
11.1668193439
 20
7.7108708175
 30
0.0
 10
11.1664901171
 20
7.7107920425
 30
0.0
 10
11.1660189728
 20
7.7106837062
 30
0.0
 10
11.1654539508
 20
7.7105519052
 30
0.0
 10
11.1647004654
 20
7.7103767983
 30
0.0
 10
11.1637586507
 20
7.7101576997
 30
0.0
 10
11.1622517236
 20
7.7098072621
 30
0.0
 10
11.1603680729
 20
7.7093691739
 30
0.0
 10
11.1581076886
 20
7.7088434857
 30
0.0
 10
11.1558473052
 20
7.7083177928
 30
0.0
 10
11.1528334603
 20
7.7076168706
 30
0.0
 10
11.1490661543
 20
7.7067407172
 30
0.0
 10
11.1452988483
 20
7.7058645642
 30
0.0
 10
11.1422850036
 20
7.7051636414
 30
0.0
 10
11.1400246196
 20
7.7046379504
 30
0.0
 10
11.1377642374
 20
7.7041122549
 30
0.0
 10
11.13588058
 20
7.7036741894
 30
0.0
 10
11.1343736667
 20
7.7033237055
 30
0.0
 10
11.1334318171
 20
7.7031047249
 30
0.0
 10
11.1326784033
 20
7.7029293759
 30
0.0
 10
11.1321131625
 20
7.7027983145
 30
0.0
 10
11.1316427025
 20
7.7026876641
 30
0.0
 10
11.1313122541
 20
7.7026130201
 30
0.0
 10
11.1311251853
 20
7.7025659769
 30
0.0
 10
11.1309799288
 20
7.7025430597
 30
0.0
 10
11.1308536126
 20
7.7024728763
 30
0.0
 10
11.1306785844
 20
7.7023957855
 30
0.0
 10
11.1303753632
 20
7.7022531948
 30
0.0
 10
11.1299405809
 20
7.70205351
 30
0.0
 10
11.1294195308
 20
7.7018121692
 30
0.0
 10
11.1287245568
 20
7.7014909818
 30
0.0
 10
11.1278559217
 20
7.7010892921
 30
0.0
 10
11.1264660595
 20
7.7004467033
 30
0.0
 10
11.1247287475
 20
7.699643428
 30
0.0
 10
11.1226439664
 20
7.6986795145
 30
0.0
 10
11.1205591871
 20
7.6977155965
 30
0.0
 10
11.1177794807
 20
7.696430374
 30
0.0
 10
11.1143048479
 20
7.6948238454
 30
0.0
 10
11.110830215
 20
7.6932173171
 30
0.0
 10
11.1080505089
 20
7.6919320941
 30
0.0
 10
11.1059657287
 20
7.6909681779
 30
0.0
 10
11.1038809508
 20
7.6900042574
 30
0.0
 10
11.1021436287
 20
7.689201004
 30
0.0
 10
11.1007537872
 20
7.6885583705
 30
0.0
 10
11.0998850993
 20
7.6881567948
 30
0.0
 10
11.0991902336
 20
7.6878353732
 30
0.0
 10
11.0986688529
 20
7.6875947481
 30
0.0
 10
11.0982351049
 20
7.687392824
 30
0.0
 10
11.0979300372
 20
7.6872542308
 30
0.0
 10
11.0977579675
 20
7.6871707351
 30
0.0
 10
11.0976225638
 20
7.6871202252
 30
0.0
 10
11.0975114388
 20
7.6870234177
 30
0.0
 10
11.0973548034
 20
7.6869104901
 30
0.0
 10
11.0970846372
 20
7.6867053427
 30
0.0
 10
11.0966966226
 20
7.6864162086
 30
0.0
 10
11.0962318881
 20
7.686067564
 30
0.0
 10
11.0956119337
 20
7.6856032926
 30
0.0
 10
11.0948370962
 20
7.685022752
 30
0.0
 10
11.0935972973
 20
7.6840939996
 30
0.0
 10
11.0920475689
 20
7.6829330205
 30
0.0
 10
11.0901878862
 20
7.6815398621
 30
0.0
 10
11.0883282058
 20
7.6801466993
 30
0.0
 10
11.0858486311
 20
7.6782891505
 30
0.0
 10
11.082749163
 20
7.6759672138
 30
0.0
 10
11.0796496947
 20
7.6736452775
 30
0.0
 10
11.0771701204
 20
7.6717877281
 30
0.0
 10
11.0753104387
 20
7.6703945669
 30
0.0
 10
11.0734507607
 20
7.6690014024
 30
0.0
 10
11.0719010175
 20
7.6678404424
 30
0.0
 10
11.0706612488
 20
7.6669116509
 30
0.0
 10
11.0698863343
 20
7.6663312099
 30
0.0
 10
11.0692665381
 20
7.6658667342
 30
0.0
 10
11.0688013201
 20
7.6655187139
 30
0.0
 10
11.0684148184
 20
7.6652276265
 30
0.0
 10
11.0681419515
 20
7.665025966
 30
0.0
 10
11.0679896433
 20
7.6649074515
 30
0.0
 10
11.0678652265
 20
7.6648278052
 30
0.0
 10
11.0677797445
 20
7.6647128407
 30
0.0
 10
11.0676521876
 20
7.664571874
 30
0.0
 10
11.0674352907
 20
7.6643194426
 30
0.0
 10
11.0671221298
 20
7.6639618271
 30
0.0
 10
11.0667477527
 20
7.663531404
 30
0.0
 10
11.0662480886
 20
7.6629579552
 30
0.0
 10
11.0656236779
 20
7.6622409906
 30
0.0
 10
11.0646245261
 20
7.661093933
 30
0.0
 10
11.0633756189
 20
7.6596600816
 30
0.0
 10
11.0618769162
 20
7.6579394726
 30
0.0
 10
11.0603782173
 20
7.6562188602
 30
0.0
 10
11.0583799508
 20
7.6539247115
 30
0.0
 10
11.0558821181
 20
7.6510570252
 30
0.0
 10
11.0533842851
 20
7.6481893392
 30
0.0
 10
11.0513860191
 20
7.64589519
 30
0.0
 10
11.0498873186
 20
7.644174579
 30
0.0
 10
11.048388622
 20
7.642453965
 30
0.0
 10
11.0471396959
 20
7.641020129
 30
0.0
 10
11.0461405825
 20
7.63987304
 30
0.0
 10
11.045516074
 20
7.6391561556
 30
0.0
 10
11.0450166108
 20
7.638582542
 30
0.0
 10
11.0446416199
 20
7.6381526225
 30
0.0
 10
11.0443303793
 20
7.6377934314
 30
0.0
 10
11.0441100544
 20
7.6375438126
 30
0.0
 10
11.04398799
 20
7.6373983395
 30
0.0
 10
11.0438856367
 20
7.6372972173
 30
0.0
 10
11.0438245858
 20
7.6371655813
 30
0.0
 10
11.0437287779
 20
7.6370007102
 30
0.0
 10
11.0435678264
 20
7.6367072267
 30
0.0
 10
11.0433343863
 20
7.6362905572
 30
0.0
 10
11.0430557604
 20
7.6357894441
 30
0.0
 10
11.0426837345
 20
7.6351216808
 30
0.0
 10
11.0422188817
 20
7.6342868441
 30
0.0
 10
11.0414750169
 20
7.6329511794
 30
0.0
 10
11.0405452204
 20
7.6312815732
 30
0.0
 10
11.0394294497
 20
7.6292780566
 30
0.0
 10
11.038313683
 20
7.6272745371
 30
0.0
 10
11.0368259927
 20
7.6246031788
 30
0.0
 10
11.0349663804
 20
7.6212639805
 30
0.0
 10
11.0331067677
 20
7.6179247825
 30
0.0
 10
11.0316190779
 20
7.6152534238
 30
0.0
 10
11.0305033095
 20
7.6132499054
 30
0.0
 10
11.0293875454
 20
7.6112463848
 30
0.0
 10
11.0284577284
 20
7.609576791
 30
0.0
 10
11.0277139054
 20
7.608241101
 30
0.0
 10
11.0272489463
 20
7.6074063287
 30
0.0
 10
11.0268771387
 20
7.6067384333
 30
0.0
 10
11.0265978458
 20
7.606237724
 30
0.0
 10
11.0263664924
 20
7.6058197909
 30
0.0
 10
11.0262018159
 20
7.6055285631
 30
0.0
 10
11.0261119763
 20
7.6053600778
 30
0.0
 10
11.0260325924
 20
7.6052395433
 30
0.0
 10
11.0259990949
 20
7.6050967259
 30
0.0
 10
11.0259384258
 20
7.6049140752
 30
0.0
 10
11.0258397122
 20
7.6045908151
 30
0.0
 10
11.025694794
 20
7.6041309082
 30
0.0
 10
11.0255225609
 20
7.6035782096
 30
0.0
 10
11.025292334
 20
7.6028415612
 30
0.0
 10
11.02500475
 20
7.6019206537
 30
0.0
 10
11.0245445039
 20
7.600447256
 30
0.0
 10
11.0239692346
 20
7.5986054902
 30
0.0
 10
11.023278895
 20
7.5963953792
 30
0.0
 10
11.0225885599
 20
7.5941852661
 30
0.0
 10
11.0216681114
 20
7.5912384493
 30
0.0
 10
11.0205175515
 20
7.5875549281
 30
0.0
 10
11.0193669911
 20
7.5838714071
 30
0.0
 10
11.0184465433
 20
7.5809245901
 30
0.0
 10
11.0177562062
 20
7.5787144778
 30
0.0
 10
11.0170658738
 20
7.5765043638
 30
0.0
 10
11.0164905823
 20
7.5746626074
 30
0.0
 10
11.0160303815
 20
7.5731891905
 30
0.0
 10
11.0157426821
 20
7.5722683318
 30
0.0
 10
11.015512692
 20
7.5715315832
 30
0.0
 10
11.0153397354
 20
7.5709791908
 30
0.0
 10
11.0151970812
 20
7.5705183257
 30
0.0
 10
11.0150943259
 20
7.5701967763
 30
0.0
 10
11.0150401326
 20
7.5700113846
 30
0.0
 10
11.0149867435
 20
7.5698769865
 30
0.0
 10
11.0149820689
 20
7.5697248307
 30
0.0
 10
11.0149588439
 20
7.5695281504
 30
0.0
 10
11.0149261171
 20
7.5691810739
 30
0.0
 10
11.0148752255
 20
7.5686867592
 30
0.0
 10
11.0148159272
 20
7.5680929357
 30
0.0
 10
11.014736244
 20
7.5673013967
 30
0.0
 10
11.0146368518
 20
7.5663118956
 30
0.0
 10
11.014477706
 20
7.5647287371
 30
0.0
 10
11.0142788144
 20
7.5627497741
 30
0.0
 10
11.014040127
 20
7.5603750249
 30
0.0
 10
11.0138014443
 20
7.558000274
 30
0.0
 10
11.013483199
 20
7.55483394
 30
0.0
 10
11.013085393
 20
7.5508760224
 30
0.0
 10
11.0126080256
 20
7.5461265213
 30
0.0
 10
11.0119715358
 20
7.5397938531
 30
0.0
 10
11.0114941684
 20
7.535044352
 30
0.0
 10
11.0111759234
 20
7.531878018
 30
0.0
  0
ENDSEC
  0
SECTION
  2
OBJECTS
  0
DICTIONARY
  5
C
100
AcDbDictionary
280
0
281
1
  3
ACAD_GROUP
350
D
  3
ACAD_MLINESTYLE
350
17
  3
ACAD_LAYOUT
350
1A
  3
ACAD_PLOTSETTINGS
350
19
  3
ACAD_PLOTSTYLENAME
350
E
  3
ACAD_IMAGE_DICT
350
       3E0
  3
ACAD_IMAGE_VARS
350
       3E1
  3
ACAD_TABLESTYLE
350
       3E2
  0
IMAGEDEF_REACTOR
  5
3DF
100
AcDbRasterImageDefReactor
 90
2
330
28F
  0
DICTIONARY
  5
D
102
{ACAD_REACTORS
330
C
102
}
100
AcDbDictionary
280
0
281
1
  0
ACDBDICTIONARYWDFLT
  5
E
102
{ACAD_REACTORS
330
C
102
}
100
AcDbDictionary
281
1
  3
Normal
350
F
100
AcDbDictionaryWithDefault
340
F
  0
DICTIONARY
  5
3E0
330
C
100
AcDbDictionary
281
1
  3
E3T_assy_2_img_1
350
       3E5
  0
RASTERVARIABLES
  5
3E1
330
C
100
AcDbRasterVariables
 90
0
 70
0
 71
1
 72
5
  0
DICTIONARY
  5
17
102
{ACAD_REACTORS
330
C
102
}
100
AcDbDictionary
280
0
281
1
  3
Standard
350
18
  0
DICTIONARY
  5
3E2
330
C
100
AcDbDictionary
281
1
  3
Standard
350
       3E6
  3
Standard1
350
       3E7
  0
DICTIONARY
  5
19
102
{ACAD_REACTORS
330
C
102
}
100
AcDbDictionary
281
1
  0
DICTIONARY
  5
1A
102
{ACAD_REACTORS
330
C
102
}
100
AcDbDictionary
281
1
  3
Model
350
3E3
  3
Layout1
350
3E4
  0
ACDBPLACEHOLDER
  5
F
102
{ACAD_REACTORS
330
E
102
}
  0
MLINESTYLE
  5
18
102
{ACAD_REACTORS
330
17
102
}
100
AcDbMlineStyle
  2
STANDARD
 70
0
  3

 62
256
 51
90.0
 52
90.0
 71
2
 49
0.5
 62
256
  6
BYLAYER
 49
-0.5
 62
256
  6
BYLAYER
  0
LAYOUT
  5
3E3
102
{ACAD_REACTORS
330
1A
102
}
100
AcDbPlotSettings
  1

  2
none_device
  4
ANSI_C_(22.00_x_17.00_Inches)
  6

 40
0.0
 41
0.0
 42
0.0
 43
0.0
 44
558.8
 45
431.8
 46
0.0
 47
0.0
 48
0.0
 49
0.0
140
0.0
141
0.0
142
1.0
143
1.0
 70
1024
 72
0
 73
0
 74
0
  7

 75
0
147
1.0
148
0.0
149
0.0
100
AcDbLayout
  1
Model
 70
0
 71
0
 10
0.0
 20
0.0
 11
22.0
 21
17.0
 12
0.0
 22
0.0
 32
0.0
 14
0.0
 24
0.0
 34
0.0
 15
0.0
 25
0.0
 35
0.0
146
0.0
 13
0.0
 23
0.0
 33
0.0
 16
1.0
 26
0.0
 36
0.0
 17
0.0
 27
1.0
 37
0.0
 76
0
330
20C
345
0
346
0
  0
LAYOUT
  5
3E4
102
{ACAD_REACTORS
330
1A
102
}
100
AcDbPlotSettings
  1

  2
none_device
  4
ANSI_C_(22.00_x_17.00_Inches)
  6

 40
0.0
 41
0.0
 42
0.0
 43
0.0
 44
558.8
 45
431.8
 46
0.0
 47
0.0
 48
0.0
 49
0.0
140
0.0
141
0.0
142
1.0
143
1.0
 70
0
 72
0
 73
0
 74
0
  7

 75
0
147
1.0
148
0.0
149
0.0
100
AcDbLayout
  1
Layout1
 70
0
 71
1
 10
0.0
 20
0.0
 11
22.0
 21
17.0
 12
0.0
 22
0.0
 32
0.0
 14
0.0
 24
0.0
 34
0.0
 15
0.0
 25
0.0
 35
0.0
146
0.0
 13
0.0
 23
0.0
 33
0.0
 16
1.0
 26
0.0
 36
0.0
 17
0.0
 27
1.0
 37
0.0
 76
0
330
20D
345
0
346
0
  0
IMAGEDEF
  5
3E5
102
{ACAD_REACTORS
330
3E0
330
3DF
102
}
100
AcDbRasterImageDef
 90
0
  1
E3T_assy_2_img_1.png
 10
369.0
 20
92.0
 11
0.0066666667
 21
0.0066666667
280
1
281
0
  0
TABLESTYLE
  5
3E6
102
{ACAD_REACTORS
330
3E2
330
292
330
293
102
}
330
3E2
100
AcDbTableStyle
  3
Standard
 70
0
 71
0
 40
0.06
 41
0.06
280
1
281
1
  7
Standard
140
0.18
170
1
 62
0
 63
7
283
0
  7
Standard
140
0.18
170
1
 62
0
 63
7
283
0
  7
Standard
140
0.18
170
1
 62
0
 63
7
283
0
  0
TABLESTYLE
  5
3E7
102
{ACAD_REACTORS
330
3E2
330
291
102
}
330
3E2
100
AcDbTableStyle
  3
Standard1
 70
1
 71
0
 40
0.06
 41
0.06
280
1
281
1
  7
Standard
140
0.18
170
1
 62
0
 63
7
283
0
  7
Standard
140
0.18
170
1
 62
0
 63
7
283
0
  7
Standard
140
0.18
170
1
 62
0
 63
7
283
0
  0
ENDSEC
  0
EOF
