999
DXF file: E3K_assy_2.dxf
999
Pro/ENGINEER 2014200 by Parametric Technology Corporation
  0
SECTION
  2
HEADER
  9
$ACADVER
  1
AC1021
  9
$DWGCODEPAGE
  3
ANSI_1252
  9
$EXTMAX
 10
22.0
 20
17.0
 30
0.0
  9
$EXTMIN
 10
0.0
 20
0.0
 30
0.0
  9
$LIMMIN
 10
0.0
 20
0.0
  9
$LIMMAX
 10
22.0
 20
17.0
  9
$VIEWCTR
 10
11.0
 20
8.5
  9
$VIEWSIZE
 40
17.0
  9
$CLAYER
  8
0
  9
$LTSCALE
 40
1.21
  9
$CELTYPE
  6
BYLAYER
  9
$DIMSCALE
 40
1.0
  9
$DIMASZ
 40
0.1875
  9
$DIMEXO
 40
0.0625
  9
$DIMDLI
 40
0.836
  9
$DIMEXE
 40
0.125
  9
$DIMCEN
 40
0.198
  9
$DIMLFAC
 40
1.0
  9
$DIMBLK
  1
_FILLED
  9
$DIMTXT
 40
0.1
  9
$DIMTOL
 70
0
  9
$DIMLIM
 70
0
  9
$DIMTFAC
 40
1.0
  9
$DIMGAP
 40
0.09
  9
$DIMDSEP
 70
46
  9
$AUNITS
 70
0
  9
$PDMODE
 70
3
  9
$PDSIZE
 40
0.3125
  9
$HANDSEED
  5
400
  9
$TILEMODE
 70
1
  9
$MEASUREMENT
 70
0
  9
$INSUNITS
 70
1
  0
ENDSEC
  0
SECTION
  2
CLASSES
  0
CLASS
  1
ACDBDICTIONARYWDFLT
  2
AcDbDictionaryWithDefault
  3
AutoCAD 2000
 90
0
 91
1
280
0
281
0
  0
CLASS
  1
ACDBPLACEHOLDER
  2
AcDbPlaceHolder
  3
AutoCAD 2000
 90
0
 91
1
280
0
281
0
  0
CLASS
  1
LAYOUT
  2
AcDbLayout
  3
AutoCAD 2000
 90
0
 91
0
280
0
281
0
  0
CLASS
  1
RASTERVARIABLES
  2
AcDbRasterVariables
  3
ISM
 90
0
 91
1
280
0
281
0
  0
CLASS
  1
IMAGEDEF
  2
AcDbRasterImageDef
  3
ISM
 90
0
 91
1
280
0
281
0
  0
CLASS
  1
IMAGEDEF_REACTOR
  2
AcDbRasterImageDefReactor
  3
ISM
 90
0
 91
1
280
0
281
0
  0
CLASS
  1
IMAGE
  2
AcDbRasterImage
  3
ISM
 90
127
 91
1
280
0
281
1
  0
CLASS
  1
TABLESTYLE
  2
AcDbTableStyle
  3
ObjectDBX Classes
 90
2047
 91
1
280
0
281
0
  0
CLASS
  1
ACAD_TABLE
  2
AcDbTable
  3
ObjectDBX Classes
 90
1025
 91
3
280
0
281
1
  0
ENDSEC
  0
SECTION
  2
TABLES
  0
TABLE
  2
VPORT
  5
8
100
AcDbSymbolTable
 70
2
  0
VPORT
  5
1F4
100
AcDbSymbolTableRecord
100
AcDbViewportTableRecord
  2
*ACTIVE
 70
0
 10
0.0
 20
0.0
 11
1.0
 21
1.0
 12
11.0
 22
8.5
 13
0.0
 23
0.0
 14
1.0
 24
1.0
 15
0.0
 25
0.0
 16
0.0
 26
0.0
 36
1.0
 17
0.0
 27
0.0
 37
0.0
 40
17.0
 41
1.2941176471
 42
50.0
 43
0.0
 44
0.0
 50
0.0
 51
0.0
 71
0
 72
100
 73
1
 74
1
 75
0
 76
0
 77
0
 78
0
  0
ENDTAB
  0
TABLE
  2
LTYPE
  5
5
100
AcDbSymbolTable
 70
6
  0
LTYPE
  5
14
100
AcDbSymbolTableRecord
100
AcDbLinetypeTableRecord
  2
BYBLOCK
 70
0
  3

 72
65
 73
0
 40
0.0
  0
LTYPE
  5
15
100
AcDbSymbolTableRecord
100
AcDbLinetypeTableRecord
  2
BYLAYER
 70
0
  3

 72
65
 73
0
 40
0.0
  0
LTYPE
  5
16
100
AcDbSymbolTableRecord
100
AcDbLinetypeTableRecord
  2
CONTINUOUS
 70
64
  3
Solid line
 72
65
 73
0
 40
0.0
  0
LTYPE
  5
1F5
100
AcDbSymbolTableRecord
100
AcDbLinetypeTableRecord
  2
CENTER
 70
64
  3
____ _ ____ _ ____ _ ____ _ ____ _ ____ _ ____
 72
65
 73
4
 40
0.6
 49
0.375
 74
0
 49
-0.075
 74
0
 49
0.075
 74
0
 49
-0.075
 74
0
  0
LTYPE
  5
1F6
100
AcDbSymbolTableRecord
100
AcDbLinetypeTableRecord
  2
HIDDEN
 70
64
  3
- - - - - - - - - - - - - - - - - - - -
 72
65
 73
2
 40
0.2
 49
0.1
 74
0
 49
-0.1
 74
0
  0
LTYPE
  5
1F7
100
AcDbSymbolTableRecord
100
AcDbLinetypeTableRecord
  2
PHANTOM
 70
64
  3
_____ _ _ _____ _ _ _____ _ _ _____
 72
65
 73
6
 40
0.8
 49
0.45
 74
0
 49
-0.05
 74
0
 49
0.1
 74
0
 49
-0.05
 74
0
 49
0.1
 74
0
 49
-0.05
 74
0
  0
LTYPE
  5
1F8
100
AcDbSymbolTableRecord
100
AcDbLinetypeTableRecord
  2
DOT
 70
64
  3
. . . . . . . . . . . . . . . . . . . .
 72
65
 73
2
 40
0.2
 49
0.1
 74
0
 49
-0.1
 74
0
  0
LTYPE
  5
1F9
100
AcDbSymbolTableRecord
100
AcDbLinetypeTableRecord
  2
DASHED
 70
64
  3
- - - - - - - - - - - - - - - - - - - -
 72
65
 73
2
 40
0.2
 49
0.1
 74
0
 49
-0.1
 74
0
  0
ENDTAB
  0
TABLE
  2
LAYER
  5
2
100
AcDbSymbolTable
 70
36
  0
LAYER
  5
10
100
AcDbSymbolTableRecord
100
AcDbLayerTableRecord
  2
0
 70
0
 62
7
  6
CONTINUOUS
370
-3
390
F
  0
LAYER
  5
1FA
100
AcDbSymbolTableRecord
100
AcDbLayerTableRecord
  2
DEFAULT_1
 70
0
 62
7
  6
CENTER
370
-3
390
F
  0
LAYER
  5
1FB
100
AcDbSymbolTableRecord
100
AcDbLayerTableRecord
  2
DEFAULT_2
 70
0
 62
8
  6
HIDDEN
370
-3
390
F
  0
LAYER
  5
1FC
100
AcDbSymbolTableRecord
100
AcDbLayerTableRecord
  2
DEFAULT_3
 70
0
 62
7
  6
PHANTOM
370
-3
390
F
  0
LAYER
  5
1FD
100
AcDbSymbolTableRecord
100
AcDbLayerTableRecord
  2
01___PRT_ALL_DTM_PLN
 70
0
 62
7
  6
CONTINUOUS
370
-3
390
F
  0
LAYER
  5
1FE
100
AcDbSymbolTableRecord
100
AcDbLayerTableRecord
  2
01___PRT_DEF_DTM_PLN
 70
0
 62
7
  6
CONTINUOUS
370
-3
390
F
  0
LAYER
  5
1FF
100
AcDbSymbolTableRecord
100
AcDbLayerTableRecord
  2
02___PRT_ALL_AXES
 70
0
 62
7
  6
CONTINUOUS
370
-3
390
F
  0
LAYER
  5
200
100
AcDbSymbolTableRecord
100
AcDbLayerTableRecord
  2
03___PRT_ALL_CURVES
 70
0
 62
7
  6
CONTINUOUS
370
-3
390
F
  0
LAYER
  5
201
100
AcDbSymbolTableRecord
100
AcDbLayerTableRecord
  2
04___PRT_ALL_DTM_PNT
 70
0
 62
7
  6
CONTINUOUS
370
-3
390
F
  0
LAYER
  5
202
100
AcDbSymbolTableRecord
100
AcDbLayerTableRecord
  2
05___PRT_ALL_DTM_CSYS
 70
0
 62
7
  6
CONTINUOUS
370
-3
390
F
  0
LAYER
  5
203
100
AcDbSymbolTableRecord
100
AcDbLayerTableRecord
  2
05___PRT_DEF_DTM_CSYS
 70
0
 62
7
  6
CONTINUOUS
370
-3
390
F
  0
LAYER
  5
204
100
AcDbSymbolTableRecord
100
AcDbLayerTableRecord
  2
06___PRT_ALL_SURFS
 70
0
 62
7
  6
CONTINUOUS
370
-3
390
F
  0
LAYER
  5
205
100
AcDbSymbolTableRecord
100
AcDbLayerTableRecord
  2
DATUM_PLANES
 70
0
 62
7
  6
CONTINUOUS
370
-3
390
F
  0
LAYER
  5
206
100
AcDbSymbolTableRecord
100
AcDbLayerTableRecord
  2
PORT_AREAS
 70
0
 62
7
  6
CONTINUOUS
370
-3
390
F
  0
LAYER
  5
207
100
AcDbSymbolTableRecord
100
AcDbLayerTableRecord
  2
SUNNBOMCOSMETIC
 70
0
 62
7
  6
CONTINUOUS
370
-3
390
F
  0
LAYER
  5
208
100
AcDbSymbolTableRecord
100
AcDbLayerTableRecord
  2
SUNNBOMSTAMPING
 70
0
 62
7
  6
CONTINUOUS
370
-3
390
F
  0
LAYER
  5
209
100
AcDbSymbolTableRecord
100
AcDbLayerTableRecord
  2
THREADS
 70
0
 62
7
  6
CONTINUOUS
370
-3
390
F
  0
ENDTAB
  0
TABLE
  2
STYLE
  5
3
100
AcDbSymbolTable
 70
1
  0
STYLE
  5
11
100
AcDbSymbolTableRecord
100
AcDbTextStyleTableRecord
  2
STANDARD
 70
0
 40
0.0
 41
0.8
 50
0.0
 71
0
 42
0.2
  3
txt
  4

  0
STYLE
  5
20A
100
AcDbSymbolTableRecord
100
AcDbTextStyleTableRecord
  2
TEXTSTYLE_1
 70
0
 40
0.0
 41
0.8
 50
0.0
 71
0
 42
0.2
  3
gdt
  4

  0
ENDTAB
  0
TABLE
  2
VIEW
  5
6
100
AcDbSymbolTable
 70
0
  0
ENDTAB
  0
TABLE
  2
UCS
  5
7
100
AcDbSymbolTable
 70
0
  0
ENDTAB
  0
TABLE
  2
APPID
  5
9
100
AcDbSymbolTable
 70
1
  0
APPID
  5
20B
100
AcDbSymbolTableRecord
100
AcDbRegAppTableRecord
  2
ACAD
 70
0
  0
ENDTAB
  0
TABLE
  2
BLOCK_RECORD
  5
1
100
AcDbSymbolTable
 70
0
  0
BLOCK_RECORD
  5
20C
100
AcDbSymbolTableRecord
100
AcDbBlockTableRecord
  2
*Model_Space
  0
BLOCK_RECORD
  5
20D
100
AcDbSymbolTableRecord
100
AcDbBlockTableRecord
  2
*Paper_Space
  0
BLOCK_RECORD
  5
20E
100
AcDbSymbolTableRecord
100
AcDbBlockTableRecord
  2
SUN_FIRST_THIRD_ANGLE_BL0
  0
BLOCK_RECORD
  5
20F
100
AcDbSymbolTableRecord
100
AcDbBlockTableRecord
  2
*T1
  0
BLOCK_RECORD
  5
210
100
AcDbSymbolTableRecord
100
AcDbBlockTableRecord
  2
*T2
  0
BLOCK_RECORD
  5
211
100
AcDbSymbolTableRecord
100
AcDbBlockTableRecord
  2
*T3
  0
ENDTAB
  0
TABLE
  2
DIMSTYLE
  5
A
100
AcDbSymbolTable
 70
1
100
AcDbDimStyleTable
 71
0
  0
DIMSTYLE
105
212
100
AcDbSymbolTableRecord
100
AcDbDimStyleTableRecord
  2
STANDARD
 70
0
  3

  4

 40
1.0
 41
0.1875
 42
0.0625
 43
0.38
 44
0.125
 45
0.0
 46
0.0
 47
0.001
 48
0.001
140
0.1
141
0.09
142
0.0
143
25.4
144
1.0
145
0.0
146
1.0
147
0.09
 71
0.0
 72
0.0
 73
1
 74
1
 75
0
 76
0
 77
0
 78
4
170
0
171
2
172
0
173
0
174
0
175
0
176
0
177
0
178
0
270
2
271
3
272
3
273
2
274
2
275
0
280
0
281
0
282
0
283
1
284
4
285
0
286
0
287
3
288
0
340
11
278
46
  0
ENDTAB
  0
ENDSEC
  0
SECTION
  2
BLOCKS
  0
BLOCK
  5
20
100
AcDbEntity
  8
0
100
AcDbBlockBegin
  2
*Model_Space
 70
0
 10
0.0
 20
0.0
 30
0.0
  3
*Model_Space
  1

  0
ENDBLK
  5
21
100
AcDbEntity
  8
0
100
AcDbBlockEnd
  0
BLOCK
  5
1C
100
AcDbEntity
  8
0
100
AcDbBlockBegin
  2
*Paper_Space
 70
0
 10
0.0
 20
0.0
 30
0.0
  3
*Paper_Space
  1

  0
ENDBLK
  5
1D
100
AcDbEntity
  8
0
100
AcDbBlockEnd
  0
BLOCK
  5
213
100
AcDbEntity
  8
0
100
AcDbBlockBegin
 62
2
  6
CONTINUOUS
  2
SUN_FIRST_THIRD_ANGLE_BL0
 70
64
 10
20.4816717061
 20
1.2289683772
  3
SUN_FIRST_THIRD_ANGLE_BL0
  1

  0
TEXT
  5
214
100
AcDbEntity
  8
0
100
AcDbText
 62
2
  6
CONTINUOUS
 10
19.4750896608
 20
1.4136269581
  7
STANDARD
 40
0.08
  1
FIRST ANGLE
 41
0.8
 72
0
100
AcDbText
  0
TEXT
  5
215
100
AcDbEntity
  8
0
100
AcDbText
 62
2
  6
CONTINUOUS
 10
20.7842537513
 20
1.4047600029
  7
STANDARD
 40
0.08
  1
THIRD ANGLE
 41
0.8
 72
0
100
AcDbText
  0
LINE
  5
216
100
AcDbEntity
  8
0
100
AcDbLine
 62
7
  6
CONTINUOUS
 10
19.4767170086
 20
1.1727031207
 11
19.6334271527
 21
1.1717972817
  0
LINE
  5
217
100
AcDbEntity
  8
0
100
AcDbLine
 62
7
  6
CONTINUOUS
 10
19.6596964832
 20
1.1717972817
 11
19.6950230232
 21
1.171593082
  0
LINE
  5
218
100
AcDbEntity
  8
0
100
AcDbLine
 62
7
  6
CONTINUOUS
 10
19.7194818561
 20
1.1708914427
 11
19.8852396156
 21
1.1699333054
  0
LINE
  5
219
100
AcDbEntity
  8
0
100
AcDbLine
 62
7
  6
CONTINUOUS
 10
19.4758111696
 20
1.2723454088
 11
19.88525039
 21
1.3511534004
  0
LINE
  5
21A
100
AcDbEntity
  8
0
100
AcDbLine
 62
7
  6
CONTINUOUS
 10
19.88525039
 20
1.3511534004
 11
19.8831348489
 21
0.9851647912
  0
LINE
  5
21B
100
AcDbEntity
  8
0
100
AcDbLine
 62
7
  6
CONTINUOUS
 10
19.8831348489
 20
0.9851647912
 11
19.4767170086
 21
1.0658141206
  0
LINE
  5
21C
100
AcDbEntity
  8
0
100
AcDbLine
 62
7
  6
CONTINUOUS
 10
19.4767170086
 20
1.0658141206
 11
19.4779056764
 21
1.2714536432
  0
CIRCLE
  5
21D
100
AcDbEntity
  8
0
100
AcDbCircle
 62
7
  6
CONTINUOUS
 10
20.2068232291
 20
1.1717972817
 40
0.175742101
  0
CIRCLE
  5
21E
100
AcDbEntity
  8
0
100
AcDbCircle
 62
7
  6
CONTINUOUS
 10
20.2068232291
 20
1.1717972817
 40
0.1005522074
  0
LINE
  5
21F
100
AcDbEntity
  8
0
100
AcDbLine
 62
7
  6
CONTINUOUS
 10
20.2077290681
 20
1.3756110529
 11
20.2071171714
 21
1.2379342989
  0
LINE
  5
220
100
AcDbEntity
  8
0
100
AcDbLine
 62
7
  6
CONTINUOUS
 10
20.2077290681
 20
1.2016899681
 11
20.2074674401
 21
1.1428236749
  0
LINE
  5
221
100
AcDbEntity
  8
0
100
AcDbLine
 62
7
  6
CONTINUOUS
 10
20.208634907
 20
1.101141841
 11
20.2080230104
 21
0.963465087
  0
LINE
  5
222
100
AcDbEntity
  8
0
100
AcDbLine
 62
7
  6
CONTINUOUS
 10
20.0066328138
 20
1.1745147986
 11
20.1443095678
 21
1.1739029019
  0
LINE
  5
223
100
AcDbEntity
  8
0
100
AcDbLine
 62
7
  6
CONTINUOUS
 10
20.1832714155
 20
1.1727031207
 11
20.238153505
 21
1.172335442
  0
LINE
  5
224
100
AcDbEntity
  8
0
100
AcDbLine
 62
7
  6
CONTINUOUS
 10
20.2756669918
 20
1.1717972817
 11
20.407916871
 21
1.1712095044
  0
CIRCLE
  5
225
100
AcDbEntity
  8
0
100
AcDbCircle
 62
7
  6
CONTINUOUS
 10
20.7509457401
 20
1.1693297793
 40
0.1722024983
  0
CIRCLE
  5
226
100
AcDbEntity
  8
0
100
AcDbCircle
 62
7
  6
CONTINUOUS
 10
20.7509457401
 20
1.1693297793
 40
0.0985164967
  0
LINE
  5
227
100
AcDbEntity
  8
0
100
AcDbLine
 62
7
  6
CONTINUOUS
 10
20.7169767782
 20
1.170462078
 11
20.7825395137
 21
1.1682766535
  0
LINE
  5
228
100
AcDbEntity
  8
0
100
AcDbLine
 62
7
  6
CONTINUOUS
 10
20.8177513651
 20
1.1693297793
 11
20.947965719
 21
1.1693297793
  0
LINE
  5
229
100
AcDbEntity
  8
0
100
AcDbLine
 62
7
  6
CONTINUOUS
 10
20.6875370113
 20
1.170462078
 11
20.5573226574
 21
1.170462078
  0
LINE
  5
22A
100
AcDbEntity
  8
0
100
AcDbLine
 62
7
  6
CONTINUOUS
 10
20.7486811426
 20
1.1987695462
 11
20.7486811426
 21
1.1432869085
  0
LINE
  5
22B
100
AcDbEntity
  8
0
100
AcDbLine
 62
7
  6
CONTINUOUS
 10
20.7498134414
 20
1.1059210505
 11
20.7498134414
 21
0.9757066966
  0
LINE
  5
22C
100
AcDbEntity
  8
0
100
AcDbLine
 62
7
  6
CONTINUOUS
 10
20.7486811426
 20
1.2338708068
 11
20.7486811426
 21
1.3640851607
  0
LINE
  5
22D
100
AcDbEntity
  8
0
100
AcDbLine
 62
7
  6
CONTINUOUS
 10
21.0702539817
 20
1.2701043662
 11
21.4790138229
 21
1.3448360823
  0
LINE
  5
22E
100
AcDbEntity
  8
0
100
AcDbLine
 62
7
  6
CONTINUOUS
 10
21.4790138229
 20
1.3448360823
 11
21.4790138229
 21
0.9779712941
  0
LINE
  5
22F
100
AcDbEntity
  8
0
100
AcDbLine
 62
7
  6
CONTINUOUS
 10
21.4790138229
 20
0.9779712941
 11
21.069121683
 21
1.0617614
  0
LINE
  5
230
100
AcDbEntity
  8
0
100
AcDbLine
 62
7
  6
CONTINUOUS
 10
21.0702539817
 20
1.2701043662
 11
21.069121683
 21
1.0617614
  0
LINE
  5
231
100
AcDbEntity
  8
0
100
AcDbLine
 62
7
  6
CONTINUOUS
 10
21.4790138229
 20
1.1693297793
 11
21.3159628059
 21
1.1693297793
  0
LINE
  5
232
100
AcDbEntity
  8
0
100
AcDbLine
 62
7
  6
CONTINUOUS
 10
21.2876553377
 20
1.1693297793
 11
21.2502894796
 21
1.1693297793
  0
LINE
  5
233
100
AcDbEntity
  8
0
100
AcDbLine
 62
7
  6
CONTINUOUS
 10
21.2208497126
 20
1.1659328831
 11
21.0713862804
 21
1.1659328831
  0
LINE
  5
234
100
AcDbEntity
  8
0
100
AcDbLine
 62
7
  6
CONTINUOUS
 10
20.4796138713
 20
1.5284908897
 11
20.4766766948
 21
0.9294458646
  0
ENDBLK
  5
235
100
AcDbEntity
  8
0
  6
BYBLOCK
 62
0
100
AcDbBlockEnd
  0
BLOCK
  5
236
100
AcDbEntity
  8
0
100
AcDbBlockBegin
  2
*T1
 70
1
 10
0.0
 20
0.0
  3
*T1
  1

  0
LINE
  5
237
100
AcDbEntity
  8
0
100
AcDbLine
 62
2
  6
CONTINUOUS
 10
9.275
 20
0.0
 11
-0.0
 21
0.0
  0
LINE
  5
238
100
AcDbEntity
  8
0
100
AcDbLine
 62
2
  6
CONTINUOUS
 10
9.275
 20
0.0
 11
9.275
 21
1.25
  0
LINE
  5
239
100
AcDbEntity
  8
0
100
AcDbLine
 62
2
  6
CONTINUOUS
 10
9.275
 20
0.625
 11
-0.0
 21
0.625
  0
LINE
  5
23A
100
AcDbEntity
  8
0
100
AcDbLine
 62
2
  6
CONTINUOUS
 10
9.275
 20
1.25
 11
-0.0
 21
1.25
  0
LINE
  5
23B
100
AcDbEntity
  8
0
100
AcDbLine
 62
2
  6
CONTINUOUS
 10
6.8
 20
0.0
 11
6.8
 21
1.25
  0
LINE
  5
23C
100
AcDbEntity
  8
0
100
AcDbLine
 62
2
  6
CONTINUOUS
 10
6.4
 20
0.0
 11
6.4
 21
0.625
  0
LINE
  5
23D
100
AcDbEntity
  8
0
100
AcDbLine
 62
2
  6
CONTINUOUS
 10
5.9
 20
0.0
 11
5.9
 21
0.625
  0
LINE
  5
23E
100
AcDbEntity
  8
0
100
AcDbLine
 62
2
  6
CONTINUOUS
 10
5.2
 20
0.0
 11
5.2
 21
0.625
  0
LINE
  5
23F
100
AcDbEntity
  8
0
100
AcDbLine
 62
2
  6
CONTINUOUS
 10
4.1
 20
0.0
 11
4.1
 21
1.25
  0
LINE
  5
240
100
AcDbEntity
  8
0
100
AcDbLine
 62
2
  6
CONTINUOUS
 10
-0.0
 20
0.0
 11
-0.0
 21
1.25
  0
MTEXT
  5
241
100
AcDbEntity
  8
0
100
AcDbMText
 62
2
  6
CONTINUOUS
  7
STANDARD
 71
2
 72
1
 10
6.6
 20
0.325
 30
0.0
 11
1.0
 21
0.0
 31
0.0
 44
0.9
  1
2
 40
0.125
 41
0.2
  0
MTEXT
  5
242
100
AcDbEntity
  8
0
100
AcDbMText
 62
2
  6
CONTINUOUS
  7
STANDARD
 71
2
 72
1
 10
6.15
 20
0.325
 30
0.0
 11
1.0
 21
0.0
 31
0.0
 44
0.9
  1
C
 40
0.125
 41
0.2
  0
MTEXT
  5
243
100
AcDbEntity
  8
0
100
AcDbMText
 62
2
  6
CONTINUOUS
  7
STANDARD
 71
2
 72
1
 10
5.55
 20
0.325
 30
0.0
 11
1.0
 21
0.0
 31
0.0
 44
0.9
  1
1.000
 40
0.125
 41
1.0
  0
MTEXT
  5
244
100
AcDbEntity
  8
0
100
AcDbMText
 62
2
  6
CONTINUOUS
  7
STANDARD
 71
2
 72
1
 10
4.65
 20
0.325
 30
0.0
 11
1.0
 21
0.0
 31
0.0
 44
0.9
  1
Jul-29-19
 40
0.125
 41
1.8
  0
MTEXT
  5
245
100
AcDbEntity
  8
0
100
AcDbMText
 62
2
  6
CONTINUOUS
  7
STANDARD
 71
2
 72
1
 10
2.05
 20
0.4625
 30
0.0
 11
1.0
 21
0.0
 31
0.0
 44
0.9
  1
T-11A Line mount\PThrough port 2 with reverse flow check
 40
0.125
 41
7.6
  0
MTEXT
  5
246
100
AcDbEntity
  8
0
100
AcDbMText
 62
2
  6
CONTINUOUS
  7
STANDARD
 71
1
 72
1
 10
6.45
 20
0.5625
 30
0.0
 11
1.0
 21
0.0
 31
0.0
 44
0.9
  1
SHEET
 40
0.06
 41
0.48
  0
MTEXT
  5
247
100
AcDbEntity
  8
0
100
AcDbMText
 62
2
  6
CONTINUOUS
  7
STANDARD
 71
1
 72
1
 10
5.95
 20
0.5625
 30
0.0
 11
1.0
 21
0.0
 31
0.0
 44
0.9
  1
DWG SIZE
 40
0.06
 41
0.768
  0
MTEXT
  5
248
100
AcDbEntity
  8
0
100
AcDbMText
 62
2
  6
CONTINUOUS
  7
STANDARD
 71
1
 72
1
 10
5.25
 20
0.5625
 30
0.0
 11
1.0
 21
0.0
 31
0.0
 44
0.9
  1
SCALE
 40
0.06
 41
0.48
  0
MTEXT
  5
249
100
AcDbEntity
  8
0
100
AcDbMText
 62
2
  6
CONTINUOUS
  7
STANDARD
 71
1
 72
1
 10
4.15
 20
0.5625
 30
0.0
 11
1.0
 21
0.0
 31
0.0
 44
0.9
  1
DATE
 40
0.06
 41
0.384
  0
MTEXT
  5
24A
100
AcDbEntity
  8
0
100
AcDbMText
 62
2
  6
CONTINUOUS
  7
STANDARD
 71
1
 72
1
 10
0.05
 20
0.5625
 30
0.0
 11
1.0
 21
0.0
 31
0.0
 44
0.9
  1
DESCRIPTION
 40
0.06
 41
1.056
  0
MTEXT
  5
24B
100
AcDbEntity
  8
0
100
AcDbMText
 62
2
  6
CONTINUOUS
  7
STANDARD
 71
2
 72
1
 10
5.45
 20
1.0375
 30
0.0
 11
1.0
 21
0.0
 31
0.0
 44
0.9
  1
ALL DIMENSIONS IN INCH\PVIEWS ARE THIRD ANGLE
 40
0.12
 41
4.224
  0
MTEXT
  5
24C
100
AcDbEntity
  8
0
100
AcDbMText
 62
2
  6
CONTINUOUS
  7
STANDARD
 71
2
 72
1
 10
2.05
 20
0.95
 30
0.0
 11
1.0
 21
0.0
 31
0.0
 44
0.9
  1
E3K
 40
0.125
 41
0.6
  0
MTEXT
  5
24D
100
AcDbEntity
  8
0
100
AcDbMText
 62
2
  6
CONTINUOUS
  7
STANDARD
 71
1
 72
1
 10
0.05
 20
1.1875
 30
0.0
 11
1.0
 21
0.0
 31
0.0
 44
0.9
  1
MODEL
 40
0.06
 41
0.48
  0
ENDBLK
  5
24E
100
AcDbEntity
  8
0
  6
BYBLOCK
 62
0
100
AcDbBlockEnd
  0
BLOCK
  5
24F
100
AcDbEntity
  8
0
100
AcDbBlockBegin
  2
*T2
 70
1
 10
0.0
 20
0.0
  3
*T2
  1

  0
LINE
  5
250
100
AcDbEntity
  8
0
100
AcDbLine
 62
2
  6
CONTINUOUS
 10
0.0
 20
0.0
 11
9.055
 21
0.0
  0
LINE
  5
251
100
AcDbEntity
  8
0
100
AcDbLine
 62
2
  6
CONTINUOUS
 10
0.0
 20
0.0
 11
0.0
 21
-2.594
  0
LINE
  5
252
100
AcDbEntity
  8
0
100
AcDbLine
 62
2
  6
CONTINUOUS
 10
0.0
 20
-0.344
 11
9.055
 21
-0.344
  0
LINE
  5
253
100
AcDbEntity
  8
0
100
AcDbLine
 62
2
  6
CONTINUOUS
 10
0.0
 20
-0.594
 11
9.055
 21
-0.594
  0
LINE
  5
254
100
AcDbEntity
  8
0
100
AcDbLine
 62
2
  6
CONTINUOUS
 10
0.0
 20
-0.844
 11
9.055
 21
-0.844
  0
LINE
  5
255
100
AcDbEntity
  8
0
100
AcDbLine
 62
2
  6
CONTINUOUS
 10
0.0
 20
-1.094
 11
9.055
 21
-1.094
  0
LINE
  5
256
100
AcDbEntity
  8
0
100
AcDbLine
 62
2
  6
CONTINUOUS
 10
0.0
 20
-1.344
 11
9.055
 21
-1.344
  0
LINE
  5
257
100
AcDbEntity
  8
0
100
AcDbLine
 62
2
  6
CONTINUOUS
 10
0.0
 20
-1.594
 11
9.055
 21
-1.594
  0
LINE
  5
258
100
AcDbEntity
  8
0
100
AcDbLine
 62
2
  6
CONTINUOUS
 10
0.0
 20
-1.844
 11
9.055
 21
-1.844
  0
LINE
  5
259
100
AcDbEntity
  8
0
100
AcDbLine
 62
2
  6
CONTINUOUS
 10
0.0
 20
-2.094
 11
9.055
 21
-2.094
  0
LINE
  5
25A
100
AcDbEntity
  8
0
100
AcDbLine
 62
2
  6
CONTINUOUS
 10
0.0
 20
-2.344
 11
9.055
 21
-2.344
  0
LINE
  5
25B
100
AcDbEntity
  8
0
100
AcDbLine
 62
2
  6
CONTINUOUS
 10
0.0
 20
-2.594
 11
9.055
 21
-2.594
  0
LINE
  5
25C
100
AcDbEntity
  8
0
100
AcDbLine
 62
2
  6
CONTINUOUS
 10
3.055
 20
0.0
 11
3.055
 21
-2.594
  0
LINE
  5
25D
100
AcDbEntity
  8
0
100
AcDbLine
 62
2
  6
CONTINUOUS
 10
9.055
 20
0.0
 11
9.055
 21
-2.594
  0
MTEXT
  5
25E
100
AcDbEntity
  8
0
100
AcDbMText
 62
2
  6
CONTINUOUS
  7
STANDARD
 71
2
 72
1
 10
1.5275
 20
-0.0995
 30
0.0
 11
1.0
 21
0.0
 31
0.0
 44
0.9
  1
Technical Data
 40
0.145
 41
3.248
  0
MTEXT
  5
25F
100
AcDbEntity
  8
0
100
AcDbMText
 62
2
  6
CONTINUOUS
  7
STANDARD
 71
2
 72
1
 10
4.555
 20
-0.0995
 30
0.0
 11
1.0
 21
0.0
 31
0.0
 44
0.9
  1
U.S. Units
 40
0.145
 41
2.32
  0
MTEXT
  5
260
100
AcDbEntity
  8
0
100
AcDbMText
 62
2
  6
CONTINUOUS
  7
STANDARD
 71
2
 72
1
 10
7.555
 20
-0.0995
 30
0.0
 11
1.0
 21
0.0
 31
0.0
 44
0.9
  1
Metric Units
 40
0.145
 41
2.784
  0
MTEXT
  5
261
100
AcDbEntity
  8
0
100
AcDbMText
 62
2
  6
CONTINUOUS
  7
STANDARD
 71
2
 72
1
 10
1.5275
 20
-0.4065
 30
0.0
 11
1.0
 21
0.0
 31
0.0
 44
0.9
  1
Cavity
 40
0.125
 41
1.2
  0
MTEXT
  5
262
100
AcDbEntity
  8
0
100
AcDbMText
 62
2
  6
CONTINUOUS
  7
STANDARD
 71
2
 72
1
 10
6.055
 20
-0.4065
 30
0.0
 11
1.0
 21
0.0
 31
0.0
 44
0.9
  1
T-11A
 40
0.125
 41
1.0
  0
MTEXT
  5
263
100
AcDbEntity
  8
0
100
AcDbMText
 62
2
  6
CONTINUOUS
  7
STANDARD
 71
2
 72
1
 10
1.5275
 20
-0.6565
 30
0.0
 11
1.0
 21
0.0
 31
0.0
 44
0.9
  1
Body Features
 40
0.125
 41
2.6
  0
MTEXT
  5
264
100
AcDbEntity
  8
0
100
AcDbMText
 62
2
  6
CONTINUOUS
  7
STANDARD
 71
2
 72
1
 10
6.055
 20
-0.6565
 30
0.0
 11
1.0
 21
0.0
 31
0.0
 44
0.9
  1
Through port 2 with reverse flow check
 40
0.125
 41
7.6
  0
MTEXT
  5
265
100
AcDbEntity
  8
0
100
AcDbMText
 62
2
  6
CONTINUOUS
  7
STANDARD
 71
2
 72
1
 10
1.5275
 20
-0.9065
 30
0.0
 11
1.0
 21
0.0
 31
0.0
 44
0.9
  1
Body Type
 40
0.125
 41
1.8
  0
MTEXT
  5
266
100
AcDbEntity
  8
0
100
AcDbMText
 62
2
  6
CONTINUOUS
  7
STANDARD
 71
2
 72
1
 10
6.055
 20
-0.9065
 30
0.0
 11
1.0
 21
0.0
 31
0.0
 44
0.9
  1
Line mount
 40
0.125
 41
2.0
  0
MTEXT
  5
267
100
AcDbEntity
  8
0
100
AcDbMText
 62
2
  6
CONTINUOUS
  7
STANDARD
 71
2
 72
1
 10
1.5275
 20
-1.1565
 30
0.0
 11
1.0
 21
0.0
 31
0.0
 44
0.9
  1
Interface
 40
0.125
 41
1.8
  0
MTEXT
  5
268
100
AcDbEntity
  8
0
100
AcDbMText
 62
2
  6
CONTINUOUS
  7
STANDARD
 71
2
 72
1
 10
6.055
 20
-1.1565
 30
0.0
 11
1.0
 21
0.0
 31
0.0
 44
0.9
  1
None
 40
0.125
 41
0.8
  0
MTEXT
  5
269
100
AcDbEntity
  8
0
100
AcDbMText
 62
2
  6
CONTINUOUS
  7
STANDARD
 71
2
 72
1
 10
1.5275
 20
-1.4065
 30
0.0
 11
1.0
 21
0.0
 31
0.0
 44
0.9
  1
Open Cavity Quantity
 40
0.125
 41
4.0
  0
MTEXT
  5
26A
100
AcDbEntity
  8
0
100
AcDbMText
 62
2
  6
CONTINUOUS
  7
STANDARD
 71
2
 72
1
 10
6.055
 20
-1.4065
 30
0.0
 11
1.0
 21
0.0
 31
0.0
 44
0.9
  1
1
 40
0.125
 41
0.2
  0
MTEXT
  5
26B
100
AcDbEntity
  8
0
100
AcDbMText
 62
2
  6
CONTINUOUS
  7
STANDARD
 71
2
 72
1
 10
1.5275
 20
-1.6565
 30
0.0
 11
1.0
 21
0.0
 31
0.0
 44
0.9
  1
Weight
 40
0.125
 41
1.2
  0
MTEXT
  5
26C
100
AcDbEntity
  8
0
100
AcDbMText
 62
2
  6
CONTINUOUS
  7
STANDARD
 71
2
 72
1
 10
4.555
 20
-1.6565
 30
0.0
 11
1.0
 21
0.0
 31
0.0
 44
0.9
  1
2.188 lb.
 40
0.125
 41
1.8
  0
MTEXT
  5
26D
100
AcDbEntity
  8
0
100
AcDbMText
 62
2
  6
CONTINUOUS
  7
STANDARD
 71
2
 72
1
 10
7.555
 20
-1.6565
 30
0.0
 11
1.0
 21
0.0
 31
0.0
 44
0.9
  1
0,992 kg.
 40
0.125
 41
1.8
  0
MTEXT
  5
26E
100
AcDbEntity
  8
0
100
AcDbMText
 62
2
  6
CONTINUOUS
  7
STANDARD
 71
2
 72
1
 10
1.5275
 20
-1.9065
 30
0.0
 11
1.0
 21
0.0
 31
0.0
 44
0.9
  1
Mounting Hole Thread
 40
0.125
 41
4.0
  0
MTEXT
  5
26F
100
AcDbEntity
  8
0
100
AcDbMText
 62
2
  6
CONTINUOUS
  7
STANDARD
 71
2
 72
1
 10
4.555
 20
-1.9065
 30
0.0
 11
1.0
 21
0.0
 31
0.0
 44
0.9
  1
.375-16 UNC - 2B in.
 40
0.125
 41
4.0
  0
MTEXT
  5
270
100
AcDbEntity
  8
0
100
AcDbMText
 62
2
  6
CONTINUOUS
  7
STANDARD
 71
2
 72
1
 10
1.5275
 20
-2.1565
 30
0.0
 11
1.0
 21
0.0
 31
0.0
 44
0.9
  1
Mounting Hole Depth
 40
0.125
 41
3.8
  0
MTEXT
  5
271
100
AcDbEntity
  8
0
100
AcDbMText
 62
2
  6
CONTINUOUS
  7
STANDARD
 71
2
 72
1
 10
4.555
 20
-2.1565
 30
0.0
 11
1.0
 21
0.0
 31
0.0
 44
0.9
  1
.62 in.
 40
0.125
 41
1.4
  0
MTEXT
  5
272
100
AcDbEntity
  8
0
100
AcDbMText
 62
2
  6
CONTINUOUS
  7
STANDARD
 71
2
 72
1
 10
7.555
 20
-2.1565
 30
0.0
 11
1.0
 21
0.0
 31
0.0
 44
0.9
  1
15,7 mm
 40
0.125
 41
1.4
  0
MTEXT
  5
273
100
AcDbEntity
  8
0
100
AcDbMText
 62
2
  6
CONTINUOUS
  7
STANDARD
 71
2
 72
1
 10
1.5275
 20
-2.4065
 30
0.0
 11
1.0
 21
0.0
 31
0.0
 44
0.9
  1
Mounting Hole Quantity
 40
0.125
 41
4.4
  0
MTEXT
  5
274
100
AcDbEntity
  8
0
100
AcDbMText
 62
2
  6
CONTINUOUS
  7
STANDARD
 71
2
 72
1
 10
6.055
 20
-2.4065
 30
0.0
 11
1.0
 21
0.0
 31
0.0
 44
0.9
  1
2
 40
0.125
 41
0.2
  0
ENDBLK
  5
275
100
AcDbEntity
  8
0
  6
BYBLOCK
 62
0
100
AcDbBlockEnd
  0
BLOCK
  5
276
100
AcDbEntity
  8
0
100
AcDbBlockBegin
  2
*T3
 70
1
 10
0.0
 20
0.0
  3
*T3
  1

  0
LINE
  5
277
100
AcDbEntity
  8
0
100
AcDbLine
 62
2
  6
CONTINUOUS
 10
0.0
 20
0.0
 11
4.6
 21
0.0
  0
LINE
  5
278
100
AcDbEntity
  8
0
100
AcDbLine
 62
2
  6
CONTINUOUS
 10
0.0
 20
0.0
 11
0.0
 21
-1.43775
  0
LINE
  5
279
100
AcDbEntity
  8
0
100
AcDbLine
 62
2
  6
CONTINUOUS
 10
0.0
 20
-0.34375
 11
4.6
 21
-0.34375
  0
LINE
  5
27A
100
AcDbEntity
  8
0
100
AcDbLine
 62
2
  6
CONTINUOUS
 10
0.0
 20
-0.68775
 11
4.6
 21
-0.68775
  0
LINE
  5
27B
100
AcDbEntity
  8
0
100
AcDbLine
 62
2
  6
CONTINUOUS
 10
0.0
 20
-0.93775
 11
4.6
 21
-0.93775
  0
LINE
  5
27C
100
AcDbEntity
  8
0
100
AcDbLine
 62
2
  6
CONTINUOUS
 10
0.0
 20
-1.18775
 11
4.6
 21
-1.18775
  0
LINE
  5
27D
100
AcDbEntity
  8
0
100
AcDbLine
 62
2
  6
CONTINUOUS
 10
0.0
 20
-1.43775
 11
4.6
 21
-1.43775
  0
LINE
  5
27E
100
AcDbEntity
  8
0
100
AcDbLine
 62
2
  6
CONTINUOUS
 10
1.3
 20
-0.34375
 11
1.3
 21
-1.43775
  0
LINE
  5
27F
100
AcDbEntity
  8
0
100
AcDbLine
 62
2
  6
CONTINUOUS
 10
3.3
 20
-0.34375
 11
3.3
 21
-1.43775
  0
LINE
  5
280
100
AcDbEntity
  8
0
100
AcDbLine
 62
2
  6
CONTINUOUS
 10
4.6
 20
0.0
 11
4.6
 21
-1.43775
  0
MTEXT
  5
281
100
AcDbEntity
  8
0
100
AcDbMText
 62
2
  6
CONTINUOUS
  7
STANDARD
 71
2
 72
1
 10
2.3
 20
-0.099375
 30
0.0
 11
1.0
 21
0.0
 31
0.0
 44
0.9
  1
Port Headings
 40
0.145
 41
3.016
  0
MTEXT
  5
282
100
AcDbEntity
  8
0
100
AcDbMText
 62
2
  6
CONTINUOUS
  7
STANDARD
 71
2
 72
1
 10
0.65
 20
-0.44325
 30
0.0
 11
1.0
 21
0.0
 31
0.0
 44
0.9
  1
Product
 40
0.145
 41
1.624
  0
MTEXT
  5
283
100
AcDbEntity
  8
0
100
AcDbMText
 62
2
  6
CONTINUOUS
  7
STANDARD
 71
2
 72
1
 10
2.3
 20
-0.44325
 30
0.0
 11
1.0
 21
0.0
 31
0.0
 44
0.9
  1
Port
 40
0.145
 41
0.928
  0
MTEXT
  5
284
100
AcDbEntity
  8
0
100
AcDbMText
 62
2
  6
CONTINUOUS
  7
STANDARD
 71
2
 72
1
 10
3.95
 20
-0.44325
 30
0.0
 11
1.0
 21
0.0
 31
0.0
 44
0.9
  1
Size
 40
0.145
 41
0.928
  0
MTEXT
  5
285
100
AcDbEntity
  8
0
100
AcDbMText
 62
2
  6
CONTINUOUS
  7
STANDARD
 71
2
 72
1
 10
0.65
 20
-0.75025
 30
0.0
 11
1.0
 21
0.0
 31
0.0
 44
0.9
  1
E3K
 40
0.125
 41
0.6
  0
MTEXT
  5
286
100
AcDbEntity
  8
0
100
AcDbMText
 62
2
  6
CONTINUOUS
  7
STANDARD
 71
2
 72
1
 10
2.3
 20
-0.75025
 30
0.0
 11
1.0
 21
0.0
 31
0.0
 44
0.9
  1
Ports 1 &  2
 40
0.125
 41
2.4
  0
MTEXT
  5
287
100
AcDbEntity
  8
0
100
AcDbMText
 62
2
  6
CONTINUOUS
  7
STANDARD
 71
2
 72
1
 10
3.95
 20
-0.75025
 30
0.0
 11
1.0
 21
0.0
 31
0.0
 44
0.9
  1
SAE 10
 40
0.125
 41
1.2
  0
MTEXT
  5
288
100
AcDbEntity
  8
0
100
AcDbMText
 62
2
  6
CONTINUOUS
  7
STANDARD
 71
2
 72
1
 10
0.65
 20
-1.00025
 30
0.0
 11
1.0
 21
0.0
 31
0.0
 44
0.9
  1
E3K
 40
0.125
 41
0.6
  0
MTEXT
  5
289
100
AcDbEntity
  8
0
100
AcDbMText
 62
2
  6
CONTINUOUS
  7
STANDARD
 71
2
 72
1
 10
2.3
 20
-1.00025
 30
0.0
 11
1.0
 21
0.0
 31
0.0
 44
0.9
  1
Port 3
 40
0.125
 41
1.2
  0
MTEXT
  5
28A
100
AcDbEntity
  8
0
100
AcDbMText
 62
2
  6
CONTINUOUS
  7
STANDARD
 71
2
 72
1
 10
3.95
 20
-1.00025
 30
0.0
 11
1.0
 21
0.0
 31
0.0
 44
0.9
  1
SAE 6
 40
0.125
 41
1.0
  0
MTEXT
  5
28B
100
AcDbEntity
  8
0
100
AcDbMText
 62
2
  6
CONTINUOUS
  7
STANDARD
 71
2
 72
1
 10
0.65
 20
-1.25025
 30
0.0
 11
1.0
 21
0.0
 31
0.0
 44
0.9
  1
E3K
 40
0.125
 41
0.6
  0
MTEXT
  5
28C
100
AcDbEntity
  8
0
100
AcDbMText
 62
2
  6
CONTINUOUS
  7
STANDARD
 71
2
 72
1
 10
2.3
 20
-1.25025
 30
0.0
 11
1.0
 21
0.0
 31
0.0
 44
0.9
  1
Gage Port
 40
0.125
 41
1.8
  0
MTEXT
  5
28D
100
AcDbEntity
  8
0
100
AcDbMText
 62
2
  6
CONTINUOUS
  7
STANDARD
 71
2
 72
1
 10
3.95
 20
-1.25025
 30
0.0
 11
1.0
 21
0.0
 31
0.0
 44
0.9
  1
1/4" NPTF
 40
0.125
 41
1.8
  0
ENDBLK
  5
28E
100
AcDbEntity
  8
0
  6
BYBLOCK
 62
0
100
AcDbBlockEnd
  0
ENDSEC
  0
SECTION
  2
ENTITIES
  0
IMAGE
  5
28F
100
AcDbEntity
  8
0
100
AcDbRasterImage
 62
7
  6
CONTINUOUS
 10
19.2297077316
 20
0.3094318264
 30
0.0
 11
0.0066666667
 21
0.0
 31
0.0
 12
0.0
 22
0.0066666667
 32
0.0
 13
369.0
 23
92.0
340
       3FD
 70
9
280
0
281
50
282
50
283
0
360
       3F7
 71
1
 91
2
 14
-0.5
 24
-0.5
 14
368.5
 24
91.5
  0
INSERT
  5
290
100
AcDbEntity
  8
0
100
AcDbBlockReference
 62
2
  6
CONTINUOUS
  2
SUN_FIRST_THIRD_ANGLE_BL0
 10
20.4816717061
 20
1.2289683772
  0
ACAD_TABLE
  5
291
100
AcDbEntity
  8
0
 62
2
  6
CONTINUOUS
100
AcDbBlockReference
  2
*T1
 10
12.42375
 20
0.30125
 30
0.0
100
AcDbTable
342
       3FF
343
20F
 11
1.0
 21
0.0
 31
0.0
 90
6
 91
4
 92
6
 93
20
 94
0
 95
0
 96
0
 70
1
 41
0.0
141
0.525
141
0.1
141
0.525
141
0.1
142
4.1
142
1.1
142
0.7
142
0.5
142
0.4
142
2.475
171
1
172
0
173
0
174
0
175
1
176
1
 91
33
178
0
145
0.0
301
CELL_VALUE
 90
4
  1
T-11A Line mount\PThrough port 2 with reverse flow check
304
ACVALUE_END
170
2
140
0.125
171
1
172
0
173
0
174
0
175
1
176
1
 91
33
178
0
145
0.0
301
CELL_VALUE
 90
4
  1
Jul-29-19
304
ACVALUE_END
170
5
140
0.125
171
1
172
0
173
0
174
0
175
1
176
1
 91
33
178
0
145
0.0
301
CELL_VALUE
 90
4
  1
1.000
304
ACVALUE_END
170
5
140
0.125
171
1
172
0
173
0
174
0
175
1
176
1
 91
33
178
0
145
0.0
301
CELL_VALUE
 90
4
  1
C
304
ACVALUE_END
170
5
140
0.125
171
1
172
0
173
0
174
0
175
1
176
1
 91
33
178
0
145
0.0
301
CELL_VALUE
 90
4
  1
2
304
ACVALUE_END
170
5
140
0.125
171
1
172
0
173
0
174
0
175
1
176
1
 91
33
178
0
145
0.0
301
CELL_VALUE
 90
4
  1
 
304
ACVALUE_END
170
1
140
0.125
171
1
172
0
173
0
174
0
175
1
176
1
 91
33
178
0
145
0.0
301
CELL_VALUE
 90
4
  1
DESCRIPTION
304
ACVALUE_END
170
1
140
0.06
171
1
172
0
173
0
174
0
175
1
176
1
 91
33
178
0
145
0.0
301
CELL_VALUE
 90
4
  1
DATE
304
ACVALUE_END
170
1
140
0.06
171
1
172
0
173
0
174
0
175
1
176
1
 91
33
178
0
145
0.0
301
CELL_VALUE
 90
4
  1
SCALE
304
ACVALUE_END
170
1
140
0.06
171
1
172
0
173
0
174
0
175
1
176
1
 91
33
178
0
145
0.0
301
CELL_VALUE
 90
4
  1
DWG SIZE
304
ACVALUE_END
170
1
140
0.06
171
1
172
0
173
0
174
0
175
1
176
1
 91
33
178
0
145
0.0
301
CELL_VALUE
 90
4
  1
SHEET
304
ACVALUE_END
170
1
140
0.06
171
1
172
0
173
0
174
0
175
1
176
1
 91
33
178
0
145
0.0
301
CELL_VALUE
 90
4
  1
 
304
ACVALUE_END
170
1
140
0.125
171
1
172
0
173
0
174
0
175
1
176
1
 91
33
178
0
145
0.0
301
CELL_VALUE
 90
4
  1
E3K
304
ACVALUE_END
170
5
140
0.125
171
1
172
0
173
0
174
0
175
4
176
1
 91
33
178
0
145
0.0
301
CELL_VALUE
 90
4
  1
ALL DIMENSIONS IN INCH\PVIEWS ARE THIRD ANGLE
304
ACVALUE_END
170
5
140
0.12
171
1
172
0
173
1
174
0
175
1
176
1
 91
1
178
0
145
0.0
170
1
171
1
172
0
173
1
174
0
175
1
176
1
 91
1
178
0
145
0.0
170
1
171
1
172
0
173
1
174
0
175
1
176
1
 91
1
178
0
145
0.0
170
5
171
1
172
0
173
0
174
0
175
1
176
1
 91
33
178
0
145
0.0
301
CELL_VALUE
 90
4
  1
 
304
ACVALUE_END
170
1
140
0.125
171
1
172
0
173
0
174
0
175
1
176
1
 91
33
178
0
145
0.0
301
CELL_VALUE
 90
4
  1
MODEL
304
ACVALUE_END
170
1
140
0.06
171
1
172
0
173
0
174
0
175
1
176
1
 91
33
178
0
145
0.0
301
CELL_VALUE
 90
4
  1
 
304
ACVALUE_END
170
1
140
0.125
171
1
172
0
173
0
174
0
175
1
176
1
 91
33
178
0
145
0.0
301
CELL_VALUE
 90
4
  1
 
304
ACVALUE_END
170
1
140
0.125
171
1
172
0
173
0
174
0
175
1
176
1
 91
33
178
0
145
0.0
301
CELL_VALUE
 90
4
  1
 
304
ACVALUE_END
170
1
140
0.125
171
1
172
0
173
0
174
0
175
1
176
1
 91
33
178
0
145
0.0
301
CELL_VALUE
 90
4
  1
 
304
ACVALUE_END
170
1
140
0.125
171
1
172
0
173
0
174
0
175
1
176
1
 91
33
178
0
145
0.0
301
CELL_VALUE
 90
4
  1
 
304
ACVALUE_END
170
1
140
0.125
  0
ACAD_TABLE
  5
292
100
AcDbEntity
  8
0
 62
2
  6
CONTINUOUS
100
AcDbBlockReference
  2
*T2
 10
12.4237499994
 20
16.47875
 30
0.0
100
AcDbTable
342
       3FE
343
210
 11
1.0
 21
0.0
 31
0.0
 90
22
 91
10
 92
3
 93
16
 94
0
 95
0
 96
0
 41
0.028
141
0.344
141
0.25
141
0.25
141
0.25
141
0.25
141
0.25
141
0.25
141
0.25
141
0.25
141
0.25
142
3.055
142
3.0
142
3.0
171
1
172
0
173
0
174
0
175
1
176
1
 91
33
178
0
145
0.0
301
CELL_VALUE
 90
4
  1
Technical Data
304
ACVALUE_END
170
5
140
0.145
171
1
172
0
173
0
174
0
175
1
176
1
 91
33
178
0
145
0.0
301
CELL_VALUE
 90
4
  1
U.S. Units
304
ACVALUE_END
170
5
140
0.145
171
1
172
0
173
0
174
0
175
1
176
1
 91
33
178
0
145
0.0
301
CELL_VALUE
 90
4
  1
Metric Units
304
ACVALUE_END
170
5
140
0.145
171
1
172
0
173
0
174
0
175
1
176
1
 91
33
178
0
145
0.0
301
CELL_VALUE
 90
4
  1
Cavity
304
ACVALUE_END
170
5
140
0.125
171
1
172
0
173
0
174
0
175
2
176
1
 91
33
178
0
145
0.0
301
CELL_VALUE
 90
4
  1
T-11A
304
ACVALUE_END
170
5
140
0.125
171
1
172
0
173
1
174
0
175
1
176
1
 91
1
178
0
145
0.0
170
1
171
1
172
0
173
0
174
0
175
1
176
1
 91
33
178
0
145
0.0
301
CELL_VALUE
 90
4
  1
Body Features
304
ACVALUE_END
170
5
140
0.125
171
1
172
0
173
0
174
0
175
2
176
1
 91
33
178
0
145
0.0
301
CELL_VALUE
 90
4
  1
Through port 2 with reverse flow check
304
ACVALUE_END
170
5
140
0.125
171
1
172
0
173
1
174
0
175
1
176
1
 91
1
178
0
145
0.0
170
1
171
1
172
0
173
0
174
0
175
1
176
1
 91
33
178
0
145
0.0
301
CELL_VALUE
 90
4
  1
Body Type
304
ACVALUE_END
170
5
140
0.125
171
1
172
0
173
0
174
0
175
2
176
1
 91
33
178
0
145
0.0
301
CELL_VALUE
 90
4
  1
Line mount
304
ACVALUE_END
170
5
140
0.125
171
1
172
0
173
1
174
0
175
1
176
1
 91
1
178
0
145
0.0
170
1
171
1
172
0
173
0
174
0
175
1
176
1
 91
33
178
0
145
0.0
301
CELL_VALUE
 90
4
  1
Interface
304
ACVALUE_END
170
5
140
0.125
171
1
172
0
173
0
174
0
175
2
176
1
 91
33
178
0
145
0.0
301
CELL_VALUE
 90
4
  1
None
304
ACVALUE_END
170
5
140
0.125
171
1
172
0
173
1
174
0
175
1
176
1
 91
1
178
0
145
0.0
170
1
171
1
172
0
173
0
174
0
175
1
176
1
 91
33
178
0
145
0.0
301
CELL_VALUE
 90
4
  1
Open Cavity Quantity
304
ACVALUE_END
170
5
140
0.125
171
1
172
0
173
0
174
0
175
2
176
1
 91
33
178
0
145
0.0
301
CELL_VALUE
 90
4
  1
1
304
ACVALUE_END
170
5
140
0.125
171
1
172
0
173
1
174
0
175
1
176
1
 91
1
178
0
145
0.0
170
1
171
1
172
0
173
0
174
0
175
1
176
1
 91
33
178
0
145
0.0
301
CELL_VALUE
 90
4
  1
Weight
304
ACVALUE_END
170
5
140
0.125
171
1
172
0
173
0
174
0
175
1
176
1
 91
33
178
0
145
0.0
301
CELL_VALUE
 90
4
  1
2.188 lb.
304
ACVALUE_END
170
5
140
0.125
171
1
172
0
173
0
174
0
175
1
176
1
 91
33
178
0
145
0.0
301
CELL_VALUE
 90
4
  1
0,992 kg.
304
ACVALUE_END
170
5
140
0.125
171
1
172
0
173
0
174
0
175
1
176
1
 91
33
178
0
145
0.0
301
CELL_VALUE
 90
4
  1
Mounting Hole Thread
304
ACVALUE_END
170
5
140
0.125
171
1
172
0
173
0
174
0
175
1
176
1
 91
33
178
0
145
0.0
301
CELL_VALUE
 90
4
  1
.375-16 UNC - 2B in.
304
ACVALUE_END
170
5
140
0.125
171
1
172
0
173
0
174
0
175
1
176
1
 91
33
178
0
145
0.0
301
CELL_VALUE
 90
4
  1
 
304
ACVALUE_END
170
5
140
0.125
171
1
172
0
173
0
174
0
175
1
176
1
 91
33
178
0
145
0.0
301
CELL_VALUE
 90
4
  1
Mounting Hole Depth
304
ACVALUE_END
170
5
140
0.125
171
1
172
0
173
0
174
0
175
1
176
1
 91
33
178
0
145
0.0
301
CELL_VALUE
 90
4
  1
.62 in.
304
ACVALUE_END
170
5
140
0.125
171
1
172
0
173
0
174
0
175
1
176
1
 91
33
178
0
145
0.0
301
CELL_VALUE
 90
4
  1
15,7 mm
304
ACVALUE_END
170
5
140
0.125
171
1
172
0
173
0
174
0
175
1
176
1
 91
33
178
0
145
0.0
301
CELL_VALUE
 90
4
  1
Mounting Hole Quantity
304
ACVALUE_END
170
5
140
0.125
171
1
172
0
173
0
174
0
175
2
176
1
 91
33
178
0
145
0.0
301
CELL_VALUE
 90
4
  1
2
304
ACVALUE_END
170
5
140
0.125
171
1
172
0
173
1
174
0
175
1
176
1
 91
1
178
0
145
0.0
170
1
  0
ACAD_TABLE
  5
293
100
AcDbEntity
  8
0
 62
2
  6
CONTINUOUS
100
AcDbBlockReference
  2
*T3
 10
0.52125
 20
1.959
 30
0.0
100
AcDbTable
342
       3FE
343
211
 11
1.0
 21
0.0
 31
0.0
 90
22
 91
5
 92
3
 93
16
 94
0
 95
0
 96
0
 41
0.05
141
0.34375
141
0.344
141
0.25
141
0.25
141
0.25
142
1.3
142
2.0
142
1.3
171
1
172
0
173
0
174
0
175
3
176
1
 91
33
178
0
145
0.0
301
CELL_VALUE
 90
4
  1
Port Headings
304
ACVALUE_END
170
5
140
0.145
171
1
172
0
173
1
174
0
175
1
176
1
 91
1
178
0
145
0.0
170
1
171
1
172
0
173
1
174
0
175
1
176
1
 91
1
178
0
145
0.0
170
1
171
1
172
0
173
0
174
0
175
1
176
1
 91
33
178
0
145
0.0
301
CELL_VALUE
 90
4
  1
Product
304
ACVALUE_END
170
5
140
0.145
171
1
172
0
173
0
174
0
175
1
176
1
 91
33
178
0
145
0.0
301
CELL_VALUE
 90
4
  1
Port
304
ACVALUE_END
170
5
140
0.145
171
1
172
0
173
0
174
0
175
1
176
1
 91
33
178
0
145
0.0
301
CELL_VALUE
 90
4
  1
Size
304
ACVALUE_END
170
5
140
0.145
171
1
172
0
173
0
174
0
175
1
176
1
 91
33
178
0
145
0.0
301
CELL_VALUE
 90
4
  1
E3K
304
ACVALUE_END
170
5
140
0.125
171
1
172
0
173
0
174
0
175
1
176
1
 91
33
178
0
145
0.0
301
CELL_VALUE
 90
4
  1
Ports 1 &  2
304
ACVALUE_END
170
5
140
0.125
171
1
172
0
173
0
174
0
175
1
176
1
 91
33
178
0
145
0.0
301
CELL_VALUE
 90
4
  1
SAE 10
304
ACVALUE_END
170
5
140
0.125
171
1
172
0
173
0
174
0
175
1
176
1
 91
33
178
0
145
0.0
301
CELL_VALUE
 90
4
  1
E3K
304
ACVALUE_END
170
5
140
0.125
171
1
172
0
173
0
174
0
175
1
176
1
 91
33
178
0
145
0.0
301
CELL_VALUE
 90
4
  1
Port 3
304
ACVALUE_END
170
5
140
0.125
171
1
172
0
173
0
174
0
175
1
176
1
 91
33
178
0
145
0.0
301
CELL_VALUE
 90
4
  1
SAE 6
304
ACVALUE_END
170
5
140
0.125
171
1
172
0
173
0
174
0
175
1
176
1
 91
33
178
0
145
0.0
301
CELL_VALUE
 90
4
  1
E3K
304
ACVALUE_END
170
5
140
0.125
171
1
172
0
173
0
174
0
175
1
176
1
 91
33
178
0
145
0.0
301
CELL_VALUE
 90
4
  1
Gage Port
304
ACVALUE_END
170
5
140
0.125
171
1
172
0
173
0
174
0
175
1
176
1
 91
33
178
0
145
0.0
301
CELL_VALUE
 90
4
  1
1/4" NPTF
304
ACVALUE_END
170
5
140
0.125
  0
MTEXT
  5
294
100
AcDbEntity
  8
0
100
AcDbMText
 62
2
  6
CONTINUOUS
  7
STANDARD
 71
1
 72
1
 10
0.52125
 20
5.75995
 30
0.0
 11
1.0
 21
0.0
 31
0.0
 44
0.6
  3
Notes\P \P1. Important: Carefully consider\P   the maximum system pressure. The\P   pressure rating of the manifold is\P   dependent on the manifold material,\P   with the port type/size a secondary\P   consideration. Manifolds\P   constructed of alu
  1
minum are not\P   rated for pressures higher than\P   3000 psi (210 bar), regardless of\P   the port type/size specified.
 40
0.1
 41
3.04
  0
LINE
  5
295
100
AcDbEntity
  8
0
100
AcDbLine
 62
7
  6
CONTINUOUS
 10
0.30125
 20
0.30125
 11
0.30125
 21
16.69875
  0
LINE
  5
296
100
AcDbEntity
  8
0
100
AcDbLine
 62
7
  6
CONTINUOUS
 10
0.30125
 20
0.30125
 11
21.69875
 21
0.30125
  0
LINE
  5
297
100
AcDbEntity
  8
0
100
AcDbLine
 62
7
  6
CONTINUOUS
 10
0.30125
 20
16.69875
 11
21.69875
 21
16.69875
  0
LINE
  5
298
100
AcDbEntity
  8
0
100
AcDbLine
 62
7
  6
CONTINUOUS
 10
21.69875
 20
0.30125
 11
21.69875
 21
16.69875
  0
LINE
  5
299
100
AcDbEntity
  8
0
100
AcDbLine
 62
7
  6
CONTINUOUS
 10
9.4067730324
 20
6.3459052392
 11
11.881475181
 21
6.1742840623
  0
LINE
  5
29A
100
AcDbEntity
  8
0
100
AcDbLine
 62
7
  6
CONTINUOUS
 10
10.118524819
 20
10.4141453049
 11
9.4067730324
 21
9.7266458315
  0
LINE
  5
29B
100
AcDbEntity
  8
0
100
AcDbLine
 62
7
  6
CONTINUOUS
 10
11.2410813953
 20
10.753647287
 11
11.2662470077
 21
10.7660786177
  0
LINE
  5
29C
100
AcDbEntity
  8
0
100
AcDbLine
 62
4
  6
CONTINUOUS
 10
11.1942188782
 20
6.6788283892
 11
11.1797299903
 21
6.679833197
  0
LINE
  5
29D
100
AcDbEntity
  8
0
100
AcDbLine
 62
4
  6
CONTINUOUS
 10
11.1942188782
 20
6.7271246846
 11
11.1797299903
 21
6.7281294924
  0
LINE
  5
29E
100
AcDbEntity
  8
0
100
AcDbLine
 62
4
  6
CONTINUOUS
 10
11.1797299903
 20
6.7957443004
 11
11.1942188782
 21
6.7947394926
  0
LINE
  5
29F
100
AcDbEntity
  8
0
100
AcDbLine
 62
4
  6
CONTINUOUS
 10
9.5376559845
 20
7.6794654538
 11
9.5304115406
 21
7.6896271209
  0
LINE
  5
2A0
100
AcDbEntity
  8
0
100
AcDbLine
 62
7
  6
CONTINUOUS
 10
9.4067730324
 20
9.7266458315
 11
9.4067730324
 21
6.3459052392
  0
LINE
  5
2A1
100
AcDbEntity
  8
0
100
AcDbLine
 62
4
  6
CONTINUOUS
 10
9.5159226526
 20
8.7550822842
 11
9.5159226526
 21
8.7937193181
  0
LINE
  5
2A2
100
AcDbEntity
  8
0
100
AcDbLine
 62
4
  6
CONTINUOUS
 10
9.5521448724
 20
7.6688013897
 11
9.5376559845
 21
7.6794654538
  0
LINE
  5
2A3
100
AcDbEntity
  8
0
100
AcDbLine
 62
4
  6
CONTINUOUS
 10
9.5304115406
 20
7.6896271209
 11
9.5304115406
 21
7.7089456336
  0
LINE
  5
2A4
100
AcDbEntity
  8
0
100
AcDbLine
 62
4
  6
CONTINUOUS
 10
9.5883670923
 20
8.7500582453
 11
9.5811226483
 21
8.7215828733
  0
LINE
  5
2A5
100
AcDbEntity
  8
0
100
AcDbLine
 62
4
  6
CONTINUOUS
 10
9.5159226526
 20
8.7937193181
 11
9.5231670966
 21
8.8028761731
  0
LINE
  5
2A6
100
AcDbEntity
  8
0
100
AcDbLine
 62
4
  6
CONTINUOUS
 10
11.1797299903
 20
6.679833197
 11
11.1652411024
 21
6.6904972611
  0
LINE
  5
2A7
100
AcDbEntity
  8
0
100
AcDbLine
 62
4
  6
CONTINUOUS
 10
11.1797299903
 20
6.7281294924
 11
11.1652411024
 21
6.7387935565
  0
LINE
  5
2A8
100
AcDbEntity
  8
0
100
AcDbLine
 62
4
  6
CONTINUOUS
 10
10.1018258233
 20
7.529948611
 11
10.1101051562
 21
7.5238548612
  0
LINE
  5
2A9
100
AcDbEntity
  8
0
100
AcDbLine
 62
4
  6
CONTINUOUS
 10
10.1432225986
 20
7.5160385828
 11
10.1515019315
 21
7.5099448331
  0
LINE
  5
2AA
100
AcDbEntity
  8
0
100
AcDbLine
 62
4
  6
CONTINUOUS
 10
10.1101051562
 20
7.4796982496
 11
10.1018258233
 21
7.4885517908
  0
LINE
  5
2AB
100
AcDbEntity
  8
0
100
AcDbLine
 62
4
  6
CONTINUOUS
 10
9.5811226483
 20
8.779538425
 11
9.5883670923
 21
8.7500582453
  0
LINE
  5
2AC
100
AcDbEntity
  8
0
100
AcDbLine
 62
4
  6
CONTINUOUS
 10
9.5811226483
 20
7.7537251017
 11
9.5883670923
 21
7.7822004737
  0
LINE
  5
2AD
100
AcDbEntity
  8
0
100
AcDbLine
 62
4
  6
CONTINUOUS
 10
9.5811226483
 20
8.7215828733
 11
9.5666337604
 21
8.7032691615
  0
LINE
  5
2AE
100
AcDbEntity
  8
0
100
AcDbLine
 62
4
  6
CONTINUOUS
 10
10.9057170001
 20
10.1425146622
 11
10.9134815648
 21
10.1500146563
  0
LINE
  5
2AF
100
AcDbEntity
  8
0
100
AcDbLine
 62
4
  6
CONTINUOUS
 10
10.934834118
 20
10.1706396401
 11
10.9387164004
 21
10.1743896371
  0
LINE
  5
2B0
100
AcDbEntity
  8
0
100
AcDbLine
 62
4
  6
CONTINUOUS
 10
10.9969506361
 20
10.2306395928
 11
11.0008329185
 21
10.2343895898
  0
LINE
  5
2B1
100
AcDbEntity
  8
0
100
AcDbLine
 62
4
  6
CONTINUOUS
 10
11.116744022
 20
10.2263511275
 11
11.1128617396
 21
10.2226011304
  0
LINE
  5
2B2
100
AcDbEntity
  8
0
100
AcDbLine
 62
4
  6
CONTINUOUS
 10
11.0546275038
 20
10.1663511748
 11
11.0507452214
 21
10.1626011777
  0
LINE
  5
2B3
100
AcDbEntity
  8
0
100
AcDbLine
 62
4
  6
CONTINUOUS
 10
11.0293926683
 20
10.141976194
 11
11.0216281035
 21
10.1344761999
  0
LINE
  5
2B4
100
AcDbEntity
  8
0
100
AcDbLine
 62
4
  6
CONTINUOUS
 10
11.1698637997
 20
7.3730862819
 11
11.1367463418
 21
7.3753829854
  0
LINE
  5
2B5
100
AcDbEntity
  8
0
100
AcDbLine
 62
4
  6
CONTINUOUS
 10
10.2701728679
 20
7.4354800599
 11
10.2674130902
 21
7.4356714512
  0
LINE
  5
2B6
100
AcDbEntity
  8
0
100
AcDbLine
 62
4
  6
CONTINUOUS
 10
10.1101051562
 20
7.5238548612
 11
10.1432225986
 21
7.5160385828
  0
LINE
  5
2B7
100
AcDbEntity
  8
0
100
AcDbLine
 62
4
  6
CONTINUOUS
 10
11.1942188782
 20
6.7947394926
 11
11.2087077661
 21
6.7840754259
  0
LINE
  5
2B8
100
AcDbEntity
  8
0
100
AcDbLine
 62
4
  6
CONTINUOUS
 10
10.1515019315
 20
7.5513416558
 11
10.1432225986
 21
7.5601951944
  0
LINE
  5
2B9
100
AcDbEntity
  8
0
100
AcDbLine
 62
4
  6
CONTINUOUS
 10
10.2177369267
 20
7.5550276082
 11
10.2260162597
 21
7.5461740696
  0
LINE
  5
2BA
100
AcDbEntity
  8
0
100
AcDbLine
 62
4
  6
CONTINUOUS
 10
10.3364077525
 20
7.5467977585
 11
10.3446871408
 21
7.5379442161
  0
LINE
  5
2BB
100
AcDbEntity
  8
0
100
AcDbLine
 62
4
  6
CONTINUOUS
 10
9.5231670966
 20
8.8028761731
 11
9.5376559845
 21
8.8115306242
  0
LINE
  5
2BC
100
AcDbEntity
  8
0
100
AcDbLine
 62
4
  6
CONTINUOUS
 10
10.822130498
 20
7.4303191244
 11
10.7807336674
 21
7.4331900044
  0
LINE
  5
2BD
100
AcDbEntity
  8
0
100
AcDbLine
 62
4
  6
CONTINUOUS
 10
10.6510236205
 20
7.4421854267
 11
10.6179061782
 21
7.4444821291
  0
LINE
  5
2BE
100
AcDbEntity
  8
0
100
AcDbLine
 62
4
  6
CONTINUOUS
 10
10.5847886806
 20
7.4467788354
 11
10.5516712382
 21
7.4490755378
  0
LINE
  5
2BF
100
AcDbEntity
  8
0
100
AcDbLine
 62
4
  6
CONTINUOUS
 10
10.2177369267
 20
7.4722339609
 11
10.1846193739
 21
7.474530671
  0
LINE
  5
2C0
100
AcDbEntity
  8
0
100
AcDbLine
 62
4
  6
CONTINUOUS
 10
10.1432225986
 20
7.4774015472
 11
10.1101051562
 21
7.4796982496
  0
LINE
  5
2C1
100
AcDbEntity
  8
0
100
AcDbLine
 62
4
  6
CONTINUOUS
 10
10.4688775771
 20
7.4548172977
 11
10.5102744077
 21
7.4519464177
  0
LINE
  5
2C2
100
AcDbEntity
  8
0
100
AcDbLine
 62
4
  6
CONTINUOUS
 10
10.4937156865
 20
7.4944915926
 11
10.4605982442
 21
7.496788295
  0
LINE
  5
2C3
100
AcDbEntity
  8
0
100
AcDbLine
 62
4
  6
CONTINUOUS
 10
11.1781431646
 20
7.4884232094
 11
11.1450257058
 21
7.490719913
  0
LINE
  5
2C4
100
AcDbEntity
  8
0
100
AcDbLine
 62
4
  6
CONTINUOUS
 10
11.0787907935
 20
7.4953133198
 11
11.053952691
 21
7.497035848
  0
LINE
  5
2C5
100
AcDbEntity
  8
0
100
AcDbLine
 62
4
  6
CONTINUOUS
 10
10.4192014136
 20
7.5410559986
 11
10.3778045831
 21
7.5439268786
  0
LINE
  5
2C6
100
AcDbEntity
  8
0
100
AcDbLine
 62
4
  6
CONTINUOUS
 10
10.1432225986
 20
7.5601951944
 11
10.1101051562
 21
7.5624918969
  0
LINE
  5
2C7
100
AcDbEntity
  8
0
100
AcDbLine
 62
4
  6
CONTINUOUS
 10
10.1846193739
 20
7.5573243183
 11
10.2177369267
 21
7.5550276082
  0
LINE
  5
2C8
100
AcDbEntity
  8
0
100
AcDbLine
 62
4
  6
CONTINUOUS
 10
10.3198490314
 20
7.5479461097
 11
10.3364077525
 21
7.5467977585
  0
LINE
  5
2C9
100
AcDbEntity
  8
0
100
AcDbLine
 62
4
  6
CONTINUOUS
 10
10.4605982442
 20
7.5381851187
 11
10.4937156865
 21
7.5358884162
  0
LINE
  5
2CA
100
AcDbEntity
  8
0
100
AcDbLine
 62
4
  6
CONTINUOUS
 10
10.6179061782
 20
7.5272757764
 11
10.6510236205
 21
7.524979074
  0
LINE
  5
2CB
100
AcDbEntity
  8
0
100
AcDbLine
 62
4
  6
CONTINUOUS
 10
10.7393368369
 20
7.5464524135
 11
10.7227781157
 21
7.5476007647
  0
LINE
  5
2CC
100
AcDbEntity
  8
0
100
AcDbLine
 62
4
  6
CONTINUOUS
 10
11.7699108046
 20
7.5149987999
 11
11.7554219166
 21
7.5160036077
  0
LINE
  5
2CD
100
AcDbEntity
  8
0
100
AcDbLine
 62
4
  6
CONTINUOUS
 10
9.5666337604
 20
7.6677965819
 11
9.5521448724
 21
7.6688013897
  0
LINE
  5
2CE
100
AcDbEntity
  8
0
100
AcDbLine
 62
4
  6
CONTINUOUS
 10
10.4937156865
 20
7.5358884162
 11
10.5102744077
 21
7.5264607001
  0
LINE
  5
2CF
100
AcDbEntity
  8
0
100
AcDbLine
 62
4
  6
CONTINUOUS
 10
10.6510236205
 20
7.524979074
 11
10.6675823417
 21
7.5155513578
  0
LINE
  5
2D0
100
AcDbEntity
  8
0
100
AcDbLine
 62
4
  6
CONTINUOUS
 10
10.4274808019
 20
7.5322024562
 11
10.4192014136
 21
7.5410559986
  0
LINE
  5
2D1
100
AcDbEntity
  8
0
100
AcDbLine
 62
4
  6
CONTINUOUS
 10
9.5231670966
 20
8.7062835849
 11
9.5159226526
 21
8.716445252
  0
LINE
  5
2D2
100
AcDbEntity
  8
0
100
AcDbLine
 62
4
  6
CONTINUOUS
 10
9.5666337604
 20
8.7998617497
 11
9.5811226483
 21
8.779538425
  0
LINE
  5
2D3
100
AcDbEntity
  8
0
100
AcDbLine
 62
4
  6
CONTINUOUS
 10
11.1652411024
 20
6.6904972611
 11
11.1579966584
 21
6.7006589282
  0
LINE
  5
2D4
100
AcDbEntity
  8
0
100
AcDbLine
 62
4
  6
CONTINUOUS
 10
10.5516712382
 20
7.4490755378
 11
10.5461516829
 21
7.4577376877
  0
LINE
  5
2D5
100
AcDbEntity
  8
0
100
AcDbLine
 62
4
  6
CONTINUOUS
 10
10.4605982442
 20
7.4719501995
 11
10.4688775771
 21
7.4548172977
  0
LINE
  5
2D6
100
AcDbEntity
  8
0
100
AcDbLine
 62
4
  6
CONTINUOUS
 10
10.1018258233
 20
7.5547867057
 11
10.1018258233
 21
7.529948611
  0
LINE
  5
2D7
100
AcDbEntity
  8
0
100
AcDbLine
 62
4
  6
CONTINUOUS
 10
10.1515019315
 20
7.5099448331
 11
10.1515019315
 21
7.485106741
  0
LINE
  5
2D8
100
AcDbEntity
  8
0
100
AcDbLine
 62
4
  6
CONTINUOUS
 10
10.2260162597
 20
7.5461740696
 11
10.2260162597
 21
7.4799391548
  0
LINE
  5
2D9
100
AcDbEntity
  8
0
100
AcDbLine
 62
4
  6
CONTINUOUS
 10
10.2701728679
 20
7.5513911634
 11
10.2701728679
 21
7.4685975161
  0
LINE
  5
2DA
100
AcDbEntity
  8
0
100
AcDbLine
 62
4
  6
CONTINUOUS
 10
10.2701728679
 20
7.4437594274
 11
10.2701728679
 21
7.4354800599
  0
LINE
  5
2DB
100
AcDbEntity
  8
0
100
AcDbLine
 62
4
  6
CONTINUOUS
 10
9.5666337604
 20
8.7032691615
 11
9.5521448724
 21
8.694614713
  0
LINE
  5
2DC
100
AcDbEntity
  8
0
100
AcDbLine
 62
4
  6
CONTINUOUS
 10
11.7916441364
 20
7.6294026917
 11
11.7336885847
 21
7.6334219228
  0
LINE
  5
2DD
100
AcDbEntity
  8
0
100
AcDbLine
 62
4
  6
CONTINUOUS
 10
9.5883670923
 20
7.7822004737
 11
9.5304115406
 21
7.7862197048
  0
LINE
  5
2DE
100
AcDbEntity
  8
0
100
AcDbLine
 62
4
  6
CONTINUOUS
 10
10.7558955553
 20
7.7379372771
 11
10.7062193677
 21
7.7413823324
  0
LINE
  5
2DF
100
AcDbEntity
  8
0
100
AcDbLine
 62
4
  6
CONTINUOUS
 10
10.6399844519
 20
7.7459757394
 11
10.6731019081
 21
7.743679036
  0
LINE
  5
2E0
100
AcDbEntity
  8
0
100
AcDbLine
 62
4
  6
CONTINUOUS
 10
10.6399844519
 20
7.7956519236
 11
10.65654318
 21
7.794503572
  0
LINE
  5
2E1
100
AcDbEntity
  8
0
100
AcDbLine
 62
4
  6
CONTINUOUS
 10
10.7227780957
 20
7.7899101649
 11
10.7558955553
 21
7.7876134613
  0
LINE
  5
2E2
100
AcDbEntity
  8
0
100
AcDbLine
 62
4
  6
CONTINUOUS
 10
10.2066977411
 20
8.0751853106
 11
10.1625411329
 21
8.1003258894
  0
LINE
  5
2E3
100
AcDbEntity
  8
0
100
AcDbLine
 62
4
  6
CONTINUOUS
 10
10.7807336674
 20
7.4331900044
 11
10.7724543069
 21
7.4420435475
  0
LINE
  5
2E4
100
AcDbEntity
  8
0
100
AcDbLine
 62
4
  6
CONTINUOUS
 10
10.3529665092
 20
8.0208849289
 11
10.336407788
 21
8.0385920082
  0
LINE
  5
2E5
100
AcDbEntity
  8
0
100
AcDbLine
 62
4
  6
CONTINUOUS
 10
10.6234257169
 20
7.8133590073
 11
10.6399844519
 21
7.7956519236
  0
LINE
  5
2E6
100
AcDbEntity
  8
0
100
AcDbLine
 62
4
  6
CONTINUOUS
 10
10.4440395032
 20
8.0145689953
 11
10.4274807821
 21
8.0322760746
  0
LINE
  5
2E7
100
AcDbEntity
  8
0
100
AcDbLine
 62
4
  6
CONTINUOUS
 10
10.6261855084
 20
7.7634914275
 11
10.6399844519
 21
7.7459757394
  0
LINE
  5
2E8
100
AcDbEntity
  8
0
100
AcDbLine
 62
4
  6
CONTINUOUS
 10
11.1652411024
 20
6.7387935565
 11
11.1507522144
 21
6.7591168804
  0
LINE
  5
2E9
100
AcDbEntity
  8
0
100
AcDbLine
 62
4
  6
CONTINUOUS
 10
11.2087077661
 20
6.7840754259
 11
11.2159522101
 21
6.7739137631
  0
LINE
  5
2EA
100
AcDbEntity
  8
0
100
AcDbLine
 62
4
  6
CONTINUOUS
 10
10.2894913469
 20
8.1411980498
 11
10.2894913469
 21
8.0252869464
  0
LINE
  5
2EB
100
AcDbEntity
  8
0
100
AcDbLine
 62
4
  6
CONTINUOUS
 10
10.336407788
 20
8.0385920082
 11
10.336407788
 21
8.1213856537
  0
LINE
  5
2EC
100
AcDbEntity
  8
0
100
AcDbLine
 62
4
  6
CONTINUOUS
 10
10.3446871408
 20
7.5379442161
 11
10.3446871408
 21
7.4303124776
  0
LINE
  5
2ED
100
AcDbEntity
  8
0
100
AcDbLine
 62
4
  6
CONTINUOUS
 10
10.3778045831
 20
7.5439268786
 11
10.3778045831
 21
7.4611332313
  0
LINE
  5
2EE
100
AcDbEntity
  8
0
100
AcDbLine
 62
4
  6
CONTINUOUS
 10
10.3943633397
 20
8.1339251524
 11
10.3943633397
 21
8.018014049
  0
LINE
  5
2EF
100
AcDbEntity
  8
0
100
AcDbLine
 62
4
  6
CONTINUOUS
 10
10.4274807821
 20
8.0322760746
 11
10.4274807821
 21
8.1150697202
  0
LINE
  5
2F0
100
AcDbEntity
  8
0
100
AcDbLine
 62
4
  6
CONTINUOUS
 10
10.4274808019
 20
7.4576881738
 11
10.4274808019
 21
7.5322024562
  0
LINE
  5
2F1
100
AcDbEntity
  8
0
100
AcDbLine
 62
4
  6
CONTINUOUS
 10
10.4605982442
 20
7.5381851187
 11
10.4605982442
 21
7.4719501995
  0
LINE
  5
2F2
100
AcDbEntity
  8
0
100
AcDbLine
 62
4
  6
CONTINUOUS
 10
9.5304115406
 20
7.7089456336
 11
9.5376559845
 21
7.7181024929
  0
LINE
  5
2F3
100
AcDbEntity
  8
0
100
AcDbLine
 62
4
  6
CONTINUOUS
 10
9.5666337604
 20
7.7354113934
 11
9.5811226483
 21
7.7537251017
  0
LINE
  5
2F4
100
AcDbEntity
  8
0
100
AcDbLine
 62
4
  6
CONTINUOUS
 10
9.5883670923
 20
7.6856078898
 11
9.5811226483
 21
7.6764510304
  0
LINE
  5
2F5
100
AcDbEntity
  8
0
100
AcDbLine
 62
4
  6
CONTINUOUS
 10
10.7558955553
 20
7.8538483805
 11
10.7062193677
 21
7.8572934358
  0
LINE
  5
2F6
100
AcDbEntity
  8
0
100
AcDbLine
 62
4
  6
CONTINUOUS
 10
10.6731019081
 20
7.8595901395
 11
10.6317050913
 21
7.8624610185
  0
LINE
  5
2F7
100
AcDbEntity
  8
0
100
AcDbLine
 62
4
  6
CONTINUOUS
 10
9.5376559845
 20
8.6956195208
 11
9.5231670966
 21
8.7062835849
  0
LINE
  5
2F8
100
AcDbEntity
  8
0
100
AcDbLine
 62
4
  6
CONTINUOUS
 10
9.5521448724
 20
8.8105258164
 11
9.5666337604
 21
8.7998617497
  0
LINE
  5
2F9
100
AcDbEntity
  8
0
100
AcDbLine
 62
4
  6
CONTINUOUS
 10
11.1284669777
 20
7.4587508051
 11
11.1864225295
 21
7.4050553862
  0
LINE
  5
2FA
100
AcDbEntity
  8
0
100
AcDbLine
 62
4
  6
CONTINUOUS
 10
11.1367463418
 20
7.3753829854
 11
11.1284669777
 21
7.3842365287
  0
LINE
  5
2FB
100
AcDbEntity
  8
0
100
AcDbLine
 62
4
  6
CONTINUOUS
 10
10.4688776126
 20
8.12875757
 11
10.4854363338
 21
8.111050489
  0
LINE
  5
2FC
100
AcDbEntity
  8
0
100
AcDbLine
 62
4
  6
CONTINUOUS
 10
11.0953495216
 20
7.4776062383
 11
11.0787907935
 21
7.4953133198
  0
LINE
  5
2FD
100
AcDbEntity
  8
0
100
AcDbLine
 62
4
  6
CONTINUOUS
 10
10.565470162
 20
8.122058854
 11
10.5820288831
 21
8.1043517729
  0
LINE
  5
2FE
100
AcDbEntity
  8
0
100
AcDbLine
 62
4
  6
CONTINUOUS
 10
11.1864225295
 20
7.4795696686
 11
11.1781431646
 21
7.4884232094
  0
LINE
  5
2FF
100
AcDbEntity
  8
0
100
AcDbLine
 62
4
  6
CONTINUOUS
 10
10.5654701652
 20
7.800819507
 11
10.5323527091
 21
7.8693511296
  0
LINE
  5
300
100
AcDbEntity
  8
0
100
AcDbLine
 62
4
  6
CONTINUOUS
 10
10.7393368369
 20
7.4360608843
 11
10.7144987275
 21
7.5205770603
  0
LINE
  5
301
100
AcDbEntity
  8
0
100
AcDbLine
 62
4
  6
CONTINUOUS
 10
10.4854363338
 20
8.111050489
 11
10.4854363338
 21
8.0282568434
  0
LINE
  5
302
100
AcDbEntity
  8
0
100
AcDbLine
 62
4
  6
CONTINUOUS
 10
10.5102744077
 20
7.5264607001
 11
10.5102744077
 21
7.5016226054
  0
LINE
  5
303
100
AcDbEntity
  8
0
100
AcDbLine
 62
4
  6
CONTINUOUS
 10
10.5461516829
 20
7.4577376877
 11
10.5461516829
 21
7.4742964158
  0
LINE
  5
304
100
AcDbEntity
  8
0
100
AcDbLine
 62
4
  6
CONTINUOUS
 10
10.5820288831
 20
8.1043517729
 11
10.5820288831
 21
8.0215581274
  0
LINE
  5
305
100
AcDbEntity
  8
0
100
AcDbLine
 62
4
  6
CONTINUOUS
 10
10.5847886806
 20
7.5295724826
 11
10.5847886806
 21
7.4467788354
  0
LINE
  5
306
100
AcDbEntity
  8
0
100
AcDbLine
 62
4
  6
CONTINUOUS
 10
10.5903082608
 20
7.8653318984
 11
10.5903082608
 21
7.749420795
  0
LINE
  5
307
100
AcDbEntity
  8
0
100
AcDbLine
 62
4
  6
CONTINUOUS
 10
10.6179061782
 20
7.411364673
 11
10.6179061782
 21
7.5272757764
  0
LINE
  5
308
100
AcDbEntity
  8
0
100
AcDbLine
 62
4
  6
CONTINUOUS
 10
10.6234257169
 20
7.8547558301
 11
10.6234257169
 21
7.8133590073
  0
LINE
  5
309
100
AcDbEntity
  8
0
100
AcDbLine
 62
4
  6
CONTINUOUS
 10
10.6261855084
 20
7.788329523
 11
10.6261855084
 21
7.7634914275
  0
LINE
  5
30A
100
AcDbEntity
  8
0
100
AcDbLine
 62
7
  6
CONTINUOUS
 10
12.118252132
 20
10.2270133498
 11
12.1194711025
 21
10.2281688842
  0
LINE
  5
30B
100
AcDbEntity
  8
0
100
AcDbLine
 62
7
  6
CONTINUOUS
 10
12.059001
 20
10.1718739513
 11
12.1182521362
 21
10.2270133537
  0
LINE
  5
30C
100
AcDbEntity
  8
0
100
AcDbLine
 62
4
  6
CONTINUOUS
 10
11.0594722611
 20
7.9718885886
 11
11.0180754444
 21
7.9747594676
  0
LINE
  5
30D
100
AcDbEntity
  8
0
100
AcDbLine
 62
4
  6
CONTINUOUS
 10
10.8552479482
 20
7.9860515928
 11
10.7890130359
 21
7.9906449996
  0
LINE
  5
30E
100
AcDbEntity
  8
0
100
AcDbLine
 62
4
  6
CONTINUOUS
 10
10.7558955659
 20
7.9929417039
 11
10.7062193748
 21
7.9963867595
  0
LINE
  5
30F
100
AcDbEntity
  8
0
100
AcDbLine
 62
4
  6
CONTINUOUS
 10
10.565470162
 20
8.0061477505
 11
10.5323527196
 21
8.008444453
  0
LINE
  5
310
100
AcDbEntity
  8
0
100
AcDbLine
 62
4
  6
CONTINUOUS
 10
10.4688776126
 20
8.0128464666
 11
10.4440395032
 21
8.0145689953
  0
LINE
  5
311
100
AcDbEntity
  8
0
100
AcDbLine
 62
4
  6
CONTINUOUS
 10
10.3943633397
 20
8.018014049
 11
10.3529665092
 21
8.0208849289
  0
LINE
  5
312
100
AcDbEntity
  8
0
100
AcDbLine
 62
4
  6
CONTINUOUS
 10
10.2894913469
 20
8.0252869464
 11
10.2398151834
 21
8.028732
  0
LINE
  5
313
100
AcDbEntity
  8
0
100
AcDbLine
 62
4
  6
CONTINUOUS
 10
10.2563739046
 20
8.077259833
 11
10.2894913469
 21
8.0749631306
  0
LINE
  5
314
100
AcDbEntity
  8
0
100
AcDbLine
 62
4
  6
CONTINUOUS
 10
10.722778096
 20
8.0449145925
 11
10.7558955659
 21
8.0426178881
  0
LINE
  5
315
100
AcDbEntity
  8
0
100
AcDbLine
 62
4
  6
CONTINUOUS
 10
10.9435611646
 20
8.0627206943
 11
10.8994045564
 21
8.0657829654
  0
LINE
  5
316
100
AcDbEntity
  8
0
100
AcDbLine
 62
4
  6
CONTINUOUS
 10
10.7558955659
 20
8.1088528073
 11
10.7062193748
 21
8.1122978629
  0
LINE
  5
317
100
AcDbEntity
  8
0
100
AcDbLine
 62
4
  6
CONTINUOUS
 10
10.2894913469
 20
8.1411980498
 11
10.2398151834
 21
8.1446431034
  0
LINE
  5
318
100
AcDbEntity
  8
0
100
AcDbLine
 62
4
  6
CONTINUOUS
 10
10.3529665092
 20
8.1367960323
 11
10.3943633397
 21
8.1339251524
  0
LINE
  5
319
100
AcDbEntity
  8
0
100
AcDbLine
 62
4
  6
CONTINUOUS
 10
10.4440395032
 20
8.1304800987
 11
10.4688776126
 21
8.12875757
  0
LINE
  5
31A
100
AcDbEntity
  8
0
100
AcDbLine
 62
4
  6
CONTINUOUS
 10
10.5323527196
 20
8.1243555564
 11
10.565470162
 21
8.122058854
  0
LINE
  5
31B
100
AcDbEntity
  8
0
100
AcDbLine
 62
4
  6
CONTINUOUS
 10
11.0180754444
 20
8.090670571
 11
11.0594722611
 21
8.087799692
  0
LINE
  5
31C
100
AcDbEntity
  8
0
100
AcDbLine
 62
4
  6
CONTINUOUS
 10
11.0042765137
 20
7.3845697992
 11
10.946320962
 21
7.5045001338
  0
LINE
  5
31D
100
AcDbEntity
  8
0
100
AcDbLine
 62
4
  6
CONTINUOUS
 10
10.6675823417
 20
7.5155513578
 11
10.6675823417
 21
7.449316443
  0
LINE
  5
31E
100
AcDbEntity
  8
0
100
AcDbLine
 62
4
  6
CONTINUOUS
 10
10.7558955659
 20
8.1088528073
 11
10.7558955659
 21
7.9929417039
  0
LINE
  5
31F
100
AcDbEntity
  8
0
100
AcDbLine
 62
4
  6
CONTINUOUS
 10
10.7558955553
 20
7.8538483805
 11
10.7558955553
 21
7.7379372771
  0
LINE
  5
320
100
AcDbEntity
  8
0
100
AcDbLine
 62
4
  6
CONTINUOUS
 10
10.7724543069
 20
7.4420435475
 11
10.7724543069
 21
7.5165578273
  0
LINE
  5
321
100
AcDbEntity
  8
0
100
AcDbLine
 62
4
  6
CONTINUOUS
 10
10.8221304782
 20
8.1042594006
 11
10.8221304782
 21
7.9883482971
  0
LINE
  5
322
100
AcDbEntity
  8
0
100
AcDbLine
 62
4
  6
CONTINUOUS
 10
10.822130498
 20
7.5131127717
 11
10.822130498
 21
7.3972016683
  0
LINE
  5
323
100
AcDbEntity
  8
0
100
AcDbLine
 62
4
  6
CONTINUOUS
 10
10.2674130902
 20
7.4356714512
 11
10.2701728679
 21
7.4437594274
  0
LINE
  5
324
100
AcDbEntity
  8
0
100
AcDbLine
 62
4
  6
CONTINUOUS
 10
10.336407788
 20
8.1213856537
 11
10.3529665092
 21
8.1367960323
  0
LINE
  5
325
100
AcDbEntity
  8
0
100
AcDbLine
 62
4
  6
CONTINUOUS
 10
11.1257071803
 20
8.0335300971
 11
11.0815505687
 21
8.0586706743
  0
LINE
  5
326
100
AcDbEntity
  8
0
100
AcDbLine
 62
4
  6
CONTINUOUS
 10
11.7554219166
 20
7.5160036077
 11
11.7409330287
 21
7.5266676718
  0
LINE
  5
327
100
AcDbEntity
  8
0
100
AcDbLine
 62
4
  6
CONTINUOUS
 10
11.0180754444
 20
7.9747594676
 11
11.0015167163
 21
7.9924665474
  0
LINE
  5
328
100
AcDbEntity
  8
0
100
AcDbLine
 62
4
  6
CONTINUOUS
 10
10.9214828605
 20
7.981458186
 11
10.8883653905
 21
8.0996659938
  0
LINE
  5
329
100
AcDbEntity
  8
0
100
AcDbLine
 62
4
  6
CONTINUOUS
 10
10.946320962
 20
7.5045001338
 11
10.946320962
 21
7.3885890303
  0
LINE
  5
32A
100
AcDbEntity
  8
0
100
AcDbLine
 62
4
  6
CONTINUOUS
 10
11.0015167163
 20
7.9924665474
 11
11.0015167163
 21
8.0752601929
  0
LINE
  5
32B
100
AcDbEntity
  8
0
100
AcDbLine
 62
4
  6
CONTINUOUS
 10
11.0042765137
 20
7.5004809026
 11
11.0042765137
 21
7.3845697992
  0
LINE
  5
32C
100
AcDbEntity
  8
0
100
AcDbLine
 62
4
  6
CONTINUOUS
 10
10.7227781157
 20
7.5476007647
 11
10.6896606734
 21
7.439505938
  0
LINE
  5
32D
100
AcDbEntity
  8
0
100
AcDbLine
 62
7
  6
CONTINUOUS
 10
12.5932269676
 20
10.242524128
 11
11.881475181
 21
9.5550246546
  0
LINE
  5
32E
100
AcDbEntity
  8
0
100
AcDbLine
 62
4
  6
CONTINUOUS
 10
10.4274807821
 20
8.1150697202
 11
10.4440395032
 21
8.1304800987
  0
LINE
  5
32F
100
AcDbEntity
  8
0
100
AcDbLine
 62
4
  6
CONTINUOUS
 10
10.4854363338
 20
8.0282568434
 11
10.4688776126
 21
8.0128464666
  0
LINE
  5
330
100
AcDbEntity
  8
0
100
AcDbLine
 62
4
  6
CONTINUOUS
 10
9.5376559845
 20
7.7181024929
 11
9.5666337604
 21
7.7354113934
  0
LINE
  5
331
100
AcDbEntity
  8
0
100
AcDbLine
 62
4
  6
CONTINUOUS
 10
9.5811226483
 20
7.6764510304
 11
9.5666337604
 21
7.6677965819
  0
LINE
  5
332
100
AcDbEntity
  8
0
100
AcDbLine
 62
4
  6
CONTINUOUS
 10
11.0373939699
 20
7.4816254694
 11
11.0373939699
 21
7.3822730958
  0
LINE
  5
333
100
AcDbEntity
  8
0
100
AcDbLine
 62
4
  6
CONTINUOUS
 10
11.0594722611
 20
8.087799692
 11
11.0594722611
 21
7.9718885886
  0
LINE
  5
334
100
AcDbEntity
  8
0
100
AcDbLine
 62
4
  6
CONTINUOUS
 10
11.0953495216
 20
7.3782538646
 11
11.0953495216
 21
7.4776062383
  0
LINE
  5
335
100
AcDbEntity
  8
0
100
AcDbLine
 62
4
  6
CONTINUOUS
 10
11.1284669777
 20
7.4753095349
 11
11.1284669777
 21
7.4587508051
  0
LINE
  5
336
100
AcDbEntity
  8
0
100
AcDbLine
 62
4
  6
CONTINUOUS
 10
11.1507522144
 20
6.7591168804
 11
11.1507522144
 21
6.7687761401
  0
LINE
  5
337
100
AcDbEntity
  8
0
100
AcDbLine
 62
4
  6
CONTINUOUS
 10
11.1579966584
 20
6.7006589282
 11
11.1579966584
 21
6.7103181845
  0
LINE
  5
338
100
AcDbEntity
  8
0
100
AcDbLine
 62
7
  6
CONTINUOUS
 10
11.1679979279
 20
10.2862187898
 11
11.1679979279
 21
10.7068180156
  0
LINE
  5
339
100
AcDbEntity
  8
0
100
AcDbLine
 62
4
  6
CONTINUOUS
 10
11.1864225295
 20
7.4050553862
 11
11.1864225295
 21
7.3884966582
  0
LINE
  5
33A
100
AcDbEntity
  8
0
100
AcDbLine
 62
4
  6
CONTINUOUS
 10
10.9546003166
 20
8.0950725861
 11
10.9214828605
 21
7.981458186
  0
LINE
  5
33B
100
AcDbEntity
  8
0
100
AcDbLine
 62
4
  6
CONTINUOUS
 10
10.5903082608
 20
7.8266948628
 11
10.5323527091
 21
7.7534400261
  0
LINE
  5
33C
100
AcDbEntity
  8
0
100
AcDbLine
 62
4
  6
CONTINUOUS
 10
10.5820288831
 20
8.0215581274
 11
10.565470162
 21
8.0061477505
  0
LINE
  5
33D
100
AcDbEntity
  8
0
100
AcDbLine
 62
4
  6
CONTINUOUS
 10
10.1101051562
 20
7.5624918969
 11
10.1018258233
 21
7.5547867057
  0
LINE
  5
33E
100
AcDbEntity
  8
0
100
AcDbLine
 62
4
  6
CONTINUOUS
 10
10.1515019315
 20
7.485106741
 11
10.1432225986
 21
7.4774015472
  0
LINE
  5
33F
100
AcDbEntity
  8
0
100
AcDbLine
 62
4
  6
CONTINUOUS
 10
10.1625411329
 20
8.1003258894
 11
10.2066977411
 21
8.119341924
  0
LINE
  5
340
100
AcDbEntity
  8
0
100
AcDbLine
 62
4
  6
CONTINUOUS
 10
9.5521448724
 20
8.694614713
 11
9.5376559845
 21
8.6956195208
  0
LINE
  5
341
100
AcDbEntity
  8
0
100
AcDbLine
 62
4
  6
CONTINUOUS
 10
9.5449004285
 20
8.7530726686
 11
9.5159226526
 21
8.7550822842
  0
LINE
  5
342
100
AcDbEntity
  8
0
100
AcDbLine
 62
4
  6
CONTINUOUS
 10
9.5376559845
 20
8.8115306242
 11
9.5521448724
 21
8.8105258164
  0
LINE
  5
343
100
AcDbEntity
  8
0
100
AcDbLine
 62
4
  6
CONTINUOUS
 10
11.7409330287
 20
7.5266676718
 11
11.7336885847
 21
7.5368293389
  0
LINE
  5
344
100
AcDbEntity
  8
0
100
AcDbLine
 62
7
  6
CONTINUOUS
 10
11.2196333455
 20
10.1252888891
 11
11.2196333455
 21
10.1870971231
  0
LINE
  5
345
100
AcDbEntity
  8
0
100
AcDbLine
 62
7
  6
CONTINUOUS
 10
11.2810527399
 20
10.1770164139
 11
11.2810527399
 21
10.5976156397
  0
LINE
  5
346
100
AcDbEntity
  8
0
100
AcDbLine
 62
7
  6
CONTINUOUS
 10
11.3229329674
 20
10.1661770272
 11
11.3229329674
 21
10.5867762529
  0
LINE
  5
347
100
AcDbEntity
  8
0
100
AcDbLine
 62
4
  6
CONTINUOUS
 10
11.3502159371
 20
8.6858290566
 11
11.3502159371
 21
8.8017401601
  0
LINE
  5
348
100
AcDbEntity
  8
0
100
AcDbLine
 62
4
  6
CONTINUOUS
 10
10.6317050913
 20
7.8624610185
 11
10.6234257169
 21
7.8547558301
  0
LINE
  5
349
100
AcDbEntity
  8
0
100
AcDbLine
 62
4
  6
CONTINUOUS
 10
10.2260162597
 20
7.4799391548
 11
10.2177369267
 21
7.4722339609
  0
LINE
  5
34A
100
AcDbEntity
  8
0
100
AcDbLine
 62
4
  6
CONTINUOUS
 10
11.0015167163
 20
8.0752601929
 11
11.0180754444
 21
8.090670571
  0
LINE
  5
34B
100
AcDbEntity
  8
0
100
AcDbLine
 62
4
  6
CONTINUOUS
 10
10.6399844519
 20
7.7956519236
 11
10.6261855084
 21
7.788329523
  0
LINE
  5
34C
100
AcDbEntity
  8
0
100
AcDbLine
 62
4
  6
CONTINUOUS
 10
11.0815505687
 20
8.014514061
 11
11.1257071803
 21
8.0335300971
  0
LINE
  5
34D
100
AcDbEntity
  8
0
100
AcDbLine
 62
4
  6
CONTINUOUS
 10
11.7336885847
 20
7.5368293389
 11
11.7336885847
 21
7.5561478516
  0
LINE
  5
34E
100
AcDbEntity
  8
0
100
AcDbLine
 62
7
  6
CONTINUOUS
 10
11.7448589463
 20
10.1369163612
 11
11.7448589463
 21
10.5575155869
  0
LINE
  5
34F
100
AcDbEntity
  8
0
100
AcDbLine
 62
4
  6
CONTINUOUS
 10
11.053952691
 20
7.497035848
 11
11.0373939699
 21
7.4816254694
  0
LINE
  5
350
100
AcDbEntity
  8
0
100
AcDbLine
 62
4
  6
CONTINUOUS
 10
10.5102744077
 20
7.5016226054
 11
10.4937156865
 21
7.4944915926
  0
LINE
  5
351
100
AcDbEntity
  8
0
100
AcDbLine
 62
7
  6
CONTINUOUS
 10
10.6666135298
 20
9.2563770908
 11
10.6823500294
 21
9.2555586503
  0
LINE
  5
352
100
AcDbEntity
  8
0
100
AcDbLine
 62
7
  6
CONTINUOUS
 10
11.8020683849
 20
10.1408838562
 11
11.8020683849
 21
10.561483082
  0
LINE
  5
353
100
AcDbEntity
  8
0
100
AcDbLine
 62
7
  6
CONTINUOUS
 10
11.881475181
 20
9.5550246546
 11
11.881475181
 21
6.1742840623
  0
LINE
  5
354
100
AcDbEntity
  8
0
100
AcDbLine
 62
4
  6
CONTINUOUS
 10
11.1450257058
 20
7.490719913
 11
11.1284669777
 21
7.4753095349
  0
LINE
  5
355
100
AcDbEntity
  8
0
100
AcDbLine
 62
4
  6
CONTINUOUS
 10
11.1864225295
 20
7.3884966582
 11
11.1698637997
 21
7.3730862819
  0
LINE
  5
356
100
AcDbEntity
  8
0
100
AcDbLine
 62
4
  6
CONTINUOUS
 10
10.6675823417
 20
7.449316443
 11
10.6510236205
 21
7.4421854267
  0
LINE
  5
357
100
AcDbEntity
  8
0
100
AcDbLine
 62
7
  6
CONTINUOUS
 10
12.0746333455
 20
10.1253445873
 11
12.0746333455
 21
10.1864214899
  0
LINE
  5
358
100
AcDbEntity
  8
0
100
AcDbLine
 62
7
  6
CONTINUOUS
 10
12.1109395519
 20
10.2208255661
 11
12.1109395519
 21
10.6414247919
  0
LINE
  5
359
100
AcDbEntity
  8
0
100
AcDbLine
 62
7
  6
CONTINUOUS
 10
12.1262687631
 20
10.2356324479
 11
12.1262687631
 21
10.6562316737
  0
LINE
  5
35A
100
AcDbEntity
  8
0
100
AcDbLine
 62
4
  6
CONTINUOUS
 10
11.7843996925
 20
7.6009273197
 11
11.7916441364
 21
7.6294026917
  0
LINE
  5
35B
100
AcDbEntity
  8
0
100
AcDbLine
 62
7
  6
CONTINUOUS
 10
9.4067730324
 20
9.7266458315
 11
11.881475181
 21
9.5550246546
  0
LINE
  5
35C
100
AcDbEntity
  8
0
100
AcDbLine
 62
4
  6
CONTINUOUS
 10
11.7336885847
 20
7.5561478516
 11
11.7409330287
 21
7.5653047109
  0
LINE
  5
35D
100
AcDbEntity
  8
0
100
AcDbLine
 62
4
  6
CONTINUOUS
 10
11.7699108046
 20
7.5826136114
 11
11.7843996925
 21
7.6009273197
  0
LINE
  5
35E
100
AcDbEntity
  8
0
100
AcDbLine
 62
4
  6
CONTINUOUS
 10
11.1507522144
 20
6.7687761401
 11
11.1652411024
 21
6.7870898493
  0
LINE
  5
35F
100
AcDbEntity
  8
0
100
AcDbLine
 62
4
  6
CONTINUOUS
 10
11.7916441364
 20
7.5328101078
 11
11.7843996925
 21
7.5236532485
  0
LINE
  5
360
100
AcDbEntity
  8
0
100
AcDbLine
 62
4
  6
CONTINUOUS
 10
11.1579966584
 20
6.7103181845
 11
11.1652411024
 21
6.719475037
  0
LINE
  5
361
100
AcDbEntity
  8
0
100
AcDbLine
 62
4
  6
CONTINUOUS
 10
11.7409330287
 20
7.5653047109
 11
11.7699108046
 21
7.5826136114
  0
LINE
  5
362
100
AcDbEntity
  8
0
100
AcDbLine
 62
4
  6
CONTINUOUS
 10
11.7843996925
 20
7.5236532485
 11
11.7699108046
 21
7.5149987999
  0
LINE
  5
363
100
AcDbEntity
  8
0
100
AcDbLine
 62
4
  6
CONTINUOUS
 10
10.9114939766
 20
10.1380947933
 11
10.9057170001
 21
10.1425146622
  0
LINE
  5
364
100
AcDbEntity
  8
0
100
AcDbLine
 62
4
  6
CONTINUOUS
 10
10.9406110945
 20
10.1662197711
 11
10.934834118
 21
10.1706396401
  0
LINE
  5
365
100
AcDbEntity
  8
0
100
AcDbLine
 62
4
  6
CONTINUOUS
 10
10.9269302112
 20
10.1330050526
 11
10.9114939766
 21
10.1380947933
  0
LINE
  5
366
100
AcDbEntity
  8
0
100
AcDbLine
 62
4
  6
CONTINUOUS
 10
11.0488505299
 20
10.1707710435
 11
11.0546275038
 21
10.1663511748
  0
LINE
  5
367
100
AcDbEntity
  8
0
100
AcDbLine
 62
4
  6
CONTINUOUS
 10
11.0027276127
 20
10.2262197238
 11
10.9969506361
 21
10.2306395928
  0
LINE
  5
368
100
AcDbEntity
  8
0
100
AcDbLine
 62
4
  6
CONTINUOUS
 10
11.110967048
 20
10.2307709962
 11
11.116744022
 21
10.2263511275
  0
LINE
  5
369
100
AcDbEntity
  8
0
100
AcDbLine
 62
7
  6
CONTINUOUS
 10
11.235265691
 20
10.1718739513
 11
11.2253293502
 21
10.1811207595
  0
LINE
  5
36A
100
AcDbEntity
  8
0
100
AcDbLine
 62
7
  6
CONTINUOUS
 10
12.5932269676
 20
6.8617835357
 11
12.5932269676
 21
10.242524128
  0
LINE
  5
36B
100
AcDbEntity
  8
0
100
AcDbLine
 62
4
  6
CONTINUOUS
 10
11.1652411024
 20
6.7870898493
 11
11.1797299903
 21
6.7957443004
  0
LINE
  5
36C
100
AcDbEntity
  8
0
100
AcDbLine
 62
4
  6
CONTINUOUS
 10
11.1652411024
 20
6.719475037
 11
11.1797299903
 21
6.7281294924
  0
LINE
  5
36D
100
AcDbEntity
  8
0
100
AcDbLine
 62
4
  6
CONTINUOUS
 10
11.2087077661
 20
6.6874828377
 11
11.1942188782
 21
6.6788283892
  0
LINE
  5
36E
100
AcDbEntity
  8
0
100
AcDbLine
 62
4
  6
CONTINUOUS
 10
11.0216281035
 20
10.1344761999
 11
11.0080865648
 21
10.1313960746
  0
LINE
  5
36F
100
AcDbEntity
  8
0
100
AcDbLine
 62
4
  6
CONTINUOUS
 10
11.0507452214
 20
10.1626011777
 11
11.0372036827
 21
10.1595210524
  0
LINE
  5
370
100
AcDbEntity
  8
0
100
AcDbLine
 62
4
  6
CONTINUOUS
 10
10.9387164004
 20
10.1743896371
 11
10.9522579416
 21
10.1774697623
  0
LINE
  5
371
100
AcDbEntity
  8
0
100
AcDbLine
 62
4
  6
CONTINUOUS
 10
11.1128617396
 20
10.2226011304
 11
11.0993202009
 21
10.2195210051
  0
LINE
  5
372
100
AcDbEntity
  8
0
100
AcDbLine
 62
4
  6
CONTINUOUS
 10
11.0008329185
 20
10.2343895898
 11
11.0143744598
 21
10.237469715
  0
LINE
  5
373
100
AcDbEntity
  8
0
100
AcDbLine
 62
4
  6
CONTINUOUS
 10
11.0080865648
 20
10.1313960746
 11
10.9848857629
 21
10.1289858214
  0
LINE
  5
374
100
AcDbEntity
  8
0
100
AcDbLine
 62
4
  6
CONTINUOUS
 10
11.0372036827
 20
10.1595210524
 11
11.0256032783
 21
10.158315926
  0
LINE
  5
375
100
AcDbEntity
  8
0
100
AcDbLine
 62
4
  6
CONTINUOUS
 10
10.9522579416
 20
10.1774697623
 11
10.975458741
 21
10.1798800156
  0
LINE
  5
376
100
AcDbEntity
  8
0
100
AcDbLine
 62
4
  6
CONTINUOUS
 10
11.0993202009
 20
10.2195210051
 11
11.0877197965
 21
10.2183158787
  0
LINE
  5
377
100
AcDbEntity
  8
0
100
AcDbLine
 62
4
  6
CONTINUOUS
 10
11.0915091864
 20
10.2019761467
 11
10.9600689535
 21
10.1950146208
  0
LINE
  5
378
100
AcDbEntity
  8
0
100
AcDbLine
 62
4
  6
CONTINUOUS
 10
10.9848857629
 20
10.1289858214
 11
10.9539668458
 21
10.1291204385
  0
LINE
  5
379
100
AcDbEntity
  8
0
100
AcDbLine
 62
4
  6
CONTINUOUS
 10
10.975458741
 20
10.1798800156
 11
11.006377658
 21
10.1797453985
  0
LINE
  5
37A
100
AcDbEntity
  8
0
100
AcDbLine
 62
4
  6
CONTINUOUS
 10
10.9134815648
 20
10.1500146563
 11
11.0293926683
 21
10.141976194
  0
LINE
  5
37B
100
AcDbEntity
  8
0
100
AcDbLine
 62
4
  6
CONTINUOUS
 10
10.9539668458
 20
10.1291204385
 11
10.9269302112
 21
10.1330050526
  0
LINE
  5
37C
100
AcDbEntity
  8
0
100
AcDbLine
 62
4
  6
CONTINUOUS
 10
11.006377658
 20
10.1797453985
 11
11.0334142927
 21
10.1758607844
  0
LINE
  5
37D
100
AcDbEntity
  8
0
100
AcDbLine
 62
4
  6
CONTINUOUS
 10
10.975598083
 20
10.210014609
 11
11.0759800569
 21
10.1869761585
  0
LINE
  5
37E
100
AcDbEntity
  8
0
100
AcDbLine
 62
4
  6
CONTINUOUS
 10
10.9483292122
 20
10.1636749007
 11
10.9406110945
 21
10.1662197711
  0
LINE
  5
37F
100
AcDbEntity
  8
0
100
AcDbLine
 62
4
  6
CONTINUOUS
 10
11.0334142927
 20
10.1758607844
 11
11.0488505299
 21
10.1707710435
  0
LINE
  5
380
100
AcDbEntity
  8
0
100
AcDbLine
 62
4
  6
CONTINUOUS
 10
11.0104457304
 20
10.2236748534
 11
11.0027276127
 21
10.2262197238
  0
LINE
  5
381
100
AcDbEntity
  8
0
100
AcDbLine
 62
4
  6
CONTINUOUS
 10
11.0955308109
 20
10.2358607371
 11
11.110967048
 21
10.2307709962
  0
LINE
  5
382
100
AcDbEntity
  8
0
100
AcDbLine
 62
4
  6
CONTINUOUS
 10
11.0143744598
 20
10.237469715
 11
11.0375752592
 21
10.2398799683
  0
LINE
  5
383
100
AcDbEntity
  8
0
100
AcDbLine
 62
4
  6
CONTINUOUS
 10
11.0375752592
 20
10.2398799683
 11
11.0684941762
 21
10.2397453512
  0
LINE
  5
384
100
AcDbEntity
  8
0
100
AcDbLine
 62
7
  6
CONTINUOUS
 10
10.118524819
 20
10.4141453049
 11
11.1679979279
 21
10.3413640976
  0
LINE
  5
385
100
AcDbEntity
  8
0
100
AcDbLine
 62
7
  6
CONTINUOUS
 10
12.1262687631
 20
10.2749077895
 11
12.5932269676
 21
10.242524128
  0
LINE
  5
386
100
AcDbEntity
  8
0
100
AcDbLine
 62
4
  6
CONTINUOUS
 10
11.0684941762
 20
10.2397453512
 11
11.0955308109
 21
10.2358607371
  0
LINE
  5
387
100
AcDbEntity
  8
0
100
AcDbLine
 62
7
  6
CONTINUOUS
 10
11.881475181
 20
6.1742840623
 11
12.5932269676
 21
6.8617835357
  0
LINE
  5
388
100
AcDbEntity
  8
0
100
AcDbLine
 62
7
  6
CONTINUOUS
 10
12.0443225075
 20
10.7580253347
 11
12.0280196833
 21
10.7660786177
  0
ARC
  5
389
100
AcDbEntity
  8
0
100
AcDbCircle
 62
7
  6
CONTINUOUS
 10
11.6549356022
 20
11.8480198084
 40
1.7134646816
100
AcDbArc
 50
273.0082884861
 51
274.9259735842
  0
ARC
  5
38A
100
AcDbEntity
  8
0
100
AcDbCircle
 62
7
  6
CONTINUOUS
 10
11.6549356022
 20
12.2686190342
 40
1.7134646816
100
AcDbArc
 50
273.0082884861
 51
274.9259735842
  0
ARC
  5
38B
100
AcDbEntity
  8
0
100
AcDbCircle
 62
7
  6
CONTINUOUS
 10
10.9534980295
 20
5.1297096645
 40
1.6370837227
100
AcDbArc
 50
89.6592349509
 51
93.166967878
  0
ARC
  5
38C
100
AcDbEntity
  8
0
100
AcDbCircle
 62
7
  6
CONTINUOUS
 10
10.6288682896
 20
8.8569436619
 40
0.5180184914
100
AcDbArc
 50
134.3387317461
 51
135.2802750193
  0
ARC
  5
38D
100
AcDbEntity
  8
0
100
AcDbCircle
 62
7
  6
CONTINUOUS
 10
10.7358634074
 20
8.7461734642
 40
0.5179750483
100
AcDbArc
 50
312.7337173014
 51
313.5232970651
  0
ARC
  5
38E
100
AcDbEntity
  8
0
100
AcDbCircle
 62
7
  6
CONTINUOUS
 10
11.149955752
 20
9.3476590943
 40
0.4986913914
100
AcDbArc
 50
261.9887825931
 51
265.3038863404
  0
ARC
  5
38F
100
AcDbEntity
  8
0
100
AcDbCircle
 62
7
  6
CONTINUOUS
 10
10.7187228786
 20
6.7113272981
 40
0.3526475036
100
AcDbArc
 50
312.1361821813
 51
312.999897946
  0
ARC
  5
390
100
AcDbEntity
  8
0
100
AcDbCircle
 62
7
  6
CONTINUOUS
 10
10.6459538452
 20
6.7866632656
 40
0.3526107383
100
AcDbArc
 50
135.1569861119
 51
135.8768826815
  0
ARC
  5
391
100
AcDbEntity
  8
0
100
AcDbCircle
 62
7
  6
CONTINUOUS
 10
10.6616887
 20
6.7543118468
 40
0.2948289451
100
AcDbArc
 50
85.9815011668
 51
98.6610917995
  0
ARC
  5
392
100
AcDbEntity
  8
0
100
AcDbCircle
 62
7
  6
CONTINUOUS
 10
10.9234502998
 20
8.8629747415
 40
0.1700819544
100
AcDbArc
 50
199.2099277082
 51
199.393157771
  0
ARC
  5
393
100
AcDbEntity
  8
0
100
AcDbCircle
 62
7
  6
CONTINUOUS
 10
10.7815115341
 20
8.7599012951
 40
0.1411034944
100
AcDbArc
 50
116.2883180458
 51
116.492440896
  0
ARC
  5
394
100
AcDbEntity
  8
0
100
AcDbCircle
 62
7
  6
CONTINUOUS
 10
10.7765857973
 20
8.7697030939
 40
0.1301336846
100
AcDbArc
 50
116.4765391019
 51
118.7606471526
  0
SPLINE
  5
395
100
AcDbEntity
  8
0
100
AcDbSpline
 62
7
  6
CONTINUOUS
 70
0
 71
3
 72
9
 73
5
 74
0
 42
0.0000001
 43
0.0000001
 44
0.0000000001
 40
0.0
 40
0.0
 40
0.0
 40
0.0
 40
0.4864210225
 40
1.0
 40
1.0
 40
1.0
 40
1.0
 10
12.1262687631
 20
10.2356324479
 30
0.0
 10
12.1252550561
 20
10.2343460978
 30
0.0
 10
12.1230685659
 20
10.2317813131
 30
0.0
 10
12.1207148468
 20
10.2293702489
 30
0.0
 10
12.1194711025
 20
10.2281688842
 30
0.0
  0
SPLINE
  5
396
100
AcDbEntity
  8
0
100
AcDbSpline
 62
7
  6
CONTINUOUS
 70
0
 71
3
 72
9
 73
5
 74
0
 42
0.0000001
 43
0.0000001
 44
0.0000000001
 40
0.0
 40
0.0
 40
0.0
 40
0.0
 40
0.5135789775
 40
1.0
 40
1.0
 40
1.0
 40
1.0
 10
11.1747955885
 20
10.7142815793
 30
0.0
 10
11.1735518442
 20
10.7130802146
 30
0.0
 10
11.1711981251
 20
10.7106691504
 30
0.0
 10
11.1690116349
 20
10.7081043657
 30
0.0
 10
11.1679979279
 20
10.7068180156
 30
0.0
  0
SPLINE
  5
397
100
AcDbEntity
  8
0
100
AcDbSpline
 62
7
  6
CONTINUOUS
 70
0
 71
3
 72
9
 73
5
 74
0
 42
0.0000001
 43
0.0000001
 44
0.0000000001
 40
0.0
 40
0.0
 40
0.0
 40
0.0
 40
0.5134917843
 40
1.0
 40
1.0
 40
1.0
 40
1.0
 10
11.1833271391
 20
10.7216248974
 30
0.0
 10
11.1818035058
 20
10.7204444033
 30
0.0
 10
11.1788901998
 20
10.7180746989
 30
0.0
 10
11.1761090585
 20
10.715550294
 30
0.0
 10
11.1747955885
 20
10.7142815793
 30
0.0
  0
SPLINE
  5
398
100
AcDbEntity
  8
0
100
AcDbSpline
 62
7
  6
CONTINUOUS
 70
0
 71
3
 72
21
 73
17
 74
0
 42
0.0000001
 43
0.0000001
 44
0.0000000001
 40
0.0
 40
0.0
 40
0.0
 40
0.0
 40
0.1552847778
 40
0.3037675224
 40
0.3751527953
 40
0.4444666907
 40
0.5115812513
 40
0.5763697456
 40
0.6387130726
 40
0.6985013802
 40
0.75563826
 40
0.8100514809
 40
0.8616894053
 40
0.9105385226
 40
0.9566200086
 40
1.0
 40
1.0
 40
1.0
 40
1.0
 10
11.1679979279
 20
10.2862187898
 30
0.0
 10
11.1702204189
 20
10.2803674362
 30
0.0
 10
11.1746810079
 20
10.2689634369
 30
0.0
 10
11.1805333642
 20
10.2550179122
 30
0.0
 10
11.1852905144
 20
10.2443759801
 30
0.0
 10
11.1888387939
 20
10.2367875665
 30
0.0
 10
11.1924134507
 20
10.2295065423
 30
0.0
 10
11.196013546
 20
10.2225528602
 30
0.0
 10
11.1996377154
 20
10.2159464666
 30
0.0
 10
11.2032838
 20
10.2097066814
 30
0.0
 10
11.2069502314
 20
10.2038525209
 30
0.0
 10
11.2106336934
 20
10.1984009994
 30
0.0
 10
11.2143320711
 20
10.1933682288
 30
0.0
 10
11.2180417978
 20
10.1887673396
 30
0.0
 10
11.2217595044
 20
10.1846094704
 30
0.0
 10
11.2243168628
 20
10.1820632708
 30
0.0
 10
11.2255968597
 20
10.180872023
 30
0.0
  0
SPLINE
  5
399
100
AcDbEntity
  8
0
100
AcDbSpline
 62
7
  6
CONTINUOUS
 70
0
 71
3
 72
23
 73
19
 74
0
 42
0.0000001
 43
0.0000001
 44
0.0000000001
 40
0.0
 40
0.0
 40
0.0
 40
0.0
 40
0.0809714987
 40
0.1598878899
 40
0.2366108848
 40
0.3110078346
 40
0.3829543555
 40
0.452338501
 40
0.5190632519
 40
0.5830593386
 40
0.6442825111
 40
0.7027298252
 40
0.7584316548
 40
0.8114689998
 40
0.8619596659
 40
0.910071818
 40
0.9560056935
 40
1.0
 40
1.0
 40
1.0
 40
1.0
 10
12.1262687631
 20
10.6562316737
 30
0.0
 10
12.1246206976
 20
10.6594096218
 30
0.0
 10
12.1213216291
 20
10.6656618019
 30
0.0
 10
12.1162906014
 20
10.6748340371
 30
0.0
 10
12.1112383492
 20
10.6836613525
 30
0.0
 10
12.1061658128
 20
10.69211981
 30
0.0
 10
12.1010737456
 20
10.7001854939
 30
0.0
 10
12.095964016
 20
10.7078355281
 30
0.0
 10
12.0908378517
 20
10.7150476931
 30
0.0
 10
12.0856981783
 20
10.7218024507
 30
0.0
 10
12.0805466138
 20
10.7280818868
 30
0.0
 10
12.0753869454
 20
10.7338725238
 30
0.0
 10
12.0702210547
 20
10.7391631331
 30
0.0
 10
12.0650532146
 20
10.7439483694
 30
0.0
 10
12.0598854953
 20
10.7482252357
 30
0.0
 10
12.0547221023
 20
10.7519973331
 30
0.0
 10
12.0495656301
 20
10.7552700079
 30
0.0
 10
12.0460654995
 20
10.7571643145
 30
0.0
 10
12.0443216182
 20
10.7580257741
 30
0.0
  0
SPLINE
  5
39A
100
AcDbEntity
  8
0
100
AcDbSpline
 62
7
  6
CONTINUOUS
 70
0
 71
3
 72
46
 73
42
 74
0
 42
0.0000001
 43
0.0000001
 44
0.0000000001
 40
0.0
 40
0.0
 40
0.0
 40
0.0
 40
0.0099874877
 40
0.0204476974
 40
0.0313773321
 40
0.0427709641
 40
0.0546220461
 40
0.0669229866
 40
0.0928356094
 40
0.1204266613
 40
0.1495981687
 40
0.1802404541
 40
0.2122337752
 40
0.2454491038
 40
0.2797499018
 40
0.3149932014
 40
0.3510301972
 40
0.3877076002
 40
0.4248685405
 40
0.462353288
 40
0.500000408
 40
0.5376475404
 40
0.5751322603
 40
0.612293149
 40
0.6489704979
 40
0.6850073789
 40
0.7202505939
 40
0.7545513209
 40
0.7877664595
 40
0.8197596255
 40
0.8504018125
 40
0.8795730869
 40
0.9071639551
 40
0.9203360434
 40
0.9330775683
 40
0.945378314
 40
0.9572292775
 40
0.9686228886
 40
0.9795523843
 40
0.9900125565
 40
1.0
 40
1.0
 40
1.0
 40
1.0
 10
12.0280215585
 20
10.7660776376
 30
0.0
 10
12.0257045665
 20
10.7672221978
 30
0.0
 10
12.0209213594
 20
10.7694860674
 30
0.0
 10
12.0134817726
 20
10.7727396785
 30
0.0
 10
12.0056191325
 20
10.7759260252
 30
0.0
 10
11.9973426435
 20
10.7790416291
 30
0.0
 10
11.9886617195
 20
10.7820829118
 30
0.0
 10
11.9763463803
 20
10.7861037538
 30
0.0
 10
11.9600037098
 20
10.7908981158
 30
0.0
 10
11.9392767707
 20
10.7962064283
 30
0.0
 10
11.9172021241
 20
10.8011405484
 30
0.0
 10
11.8938813742
 20
10.8056773807
 30
0.0
 10
11.8694216348
 20
10.809795473
 30
0.0
 10
11.8439356137
 20
10.8134756773
 30
0.0
 10
11.8175408161
 20
10.8167007943
 30
0.0
 10
11.7903589951
 20
10.8194555777
 30
0.0
 10
11.7625156233
 20
10.8217272648
 30
0.0
 10
11.7341392787
 20
10.8235052877
 30
0.0
 10
11.7053610087
 20
10.8247811876
 30
0.0
 10
11.6763137429
 20
10.8255491052
 30
0.0
 10
11.6471316709
 20
10.8258055146
 30
0.0
 10
11.617949606
 20
10.8255490698
 30
0.0
 10
11.5889023602
 20
10.8247810483
 30
0.0
 10
11.560124127
 20
10.8235051082
 30
0.0
 10
11.5317478407
 20
10.8217270587
 30
0.0
 10
11.5039045431
 20
10.8194552683
 30
0.0
 10
11.4767227969
 20
10.8167004432
 30
0.0
 10
11.4503280925
 20
10.8134753088
 30
0.0
 10
11.424842189
 20
10.8097950067
 30
0.0
 10
11.4003825921
 20
10.8056768676
 30
0.0
 10
11.3770619062
 20
10.8011400507
 30
0.0
 10
11.3549876382
 20
10.7962057781
 30
0.0
 10
11.3374542737
 20
10.7917156184
 30
0.0
 10
11.3241376371
 20
10.7879272894
 30
0.0
 10
11.3146782596
 20
10.7850454169
 30
0.0
 10
11.3056029452
 20
10.7820821834
 30
0.0
 10
11.2969221259
 20
10.7790409177
 30
0.0
 10
11.2886456916
 20
10.7759253582
 30
0.0
 10
11.2807831519
 20
10.7727389007
 30
0.0
 10
11.2733436496
 20
10.7694852414
 30
0.0
 10
11.2685604568
 20
10.7672213914
 30
0.0
 10
11.2662434779
 20
10.7660768303
 30
0.0
  0
SPLINE
  5
39B
100
AcDbEntity
  8
0
100
AcDbSpline
 62
7
  6
CONTINUOUS
 70
0
 71
3
 72
9
 73
5
 74
0
 42
0.0000001
 43
0.0000001
 44
0.0000000001
 40
0.0
 40
0.0
 40
0.0
 40
0.0
 40
0.496008294
 40
1.0
 40
1.0
 40
1.0
 40
1.0
 10
11.2411086344
 20
10.753660739
 30
0.0
 10
11.2313125675
 20
10.7488214659
 30
0.0
 10
11.2118159031
 20
10.7385469526
 30
0.0
 10
11.1928004864
 20
10.7274137725
 30
0.0
 10
11.1833271391
 20
10.7216248974
 30
0.0
  0
SPLINE
  5
39C
100
AcDbEntity
  8
0
100
AcDbSpline
 62
7
  6
CONTINUOUS
 70
0
 71
3
 72
9
 73
5
 74
0
 42
0.0000001
 43
0.0000001
 44
0.0000000001
 40
0.0
 40
0.0
 40
0.0
 40
0.0
 40
0.4867517121
 40
1.0
 40
1.0
 40
1.0
 40
1.0
 10
11.2810527399
 20
10.1770164139
 30
0.0
 10
11.2877906399
 20
10.175047243
 30
0.0
 10
11.3017019417
 20
10.1712345826
 30
0.0
 10
11.315718186
 20
10.1678307232
 30
0.0
 10
11.3229329674
 20
10.1661770272
 30
0.0
  0
SPLINE
  5
39D
100
AcDbEntity
  8
0
100
AcDbSpline
 62
7
  6
CONTINUOUS
 70
0
 71
3
 72
9
 73
5
 74
0
 42
0.0000001
 43
0.0000001
 44
0.0000000001
 40
0.0
 40
0.0
 40
0.0
 40
0.0
 40
0.2585900006
 40
1.0
 40
1.0
 40
1.0
 40
1.0
 10
12.1109395519
 20
10.2208255661
 30
0.0
 10
12.1115923871
 20
10.2213313755
 30
0.0
 10
12.1140969158
 20
10.2233130264
 30
0.0
 10
12.1165187589
 20
10.2254002652
 30
0.0
 10
12.1182521315
 20
10.2270133498
 30
0.0
  0
SPLINE
  5
39E
100
AcDbEntity
  8
0
100
AcDbSpline
 62
7
  6
CONTINUOUS
 70
0
 71
3
 72
9
 73
5
 74
0
 42
0.0000001
 43
0.0000001
 44
0.0000000001
 40
0.0
 40
0.0
 40
0.0
 40
0.0
 40
0.5134917843
 40
1.0
 40
1.0
 40
1.0
 40
1.0
 10
12.1109395519
 20
10.6414247919
 30
0.0
 10
12.1124631852
 20
10.6426052859
 30
0.0
 10
12.1153764912
 20
10.6449749903
 30
0.0
 10
12.1181576325
 20
10.6474993952
 30
0.0
 10
12.1194711025
 20
10.6487681099
 30
0.0
  0
SPLINE
  5
39F
100
AcDbEntity
  8
0
100
AcDbSpline
 62
7
  6
CONTINUOUS
 70
0
 71
3
 72
9
 73
5
 74
0
 42
0.0000001
 43
0.0000001
 44
0.0000000001
 40
0.0
 40
0.0
 40
0.0
 40
0.0
 40
0.4867517121
 40
1.0
 40
1.0
 40
1.0
 40
1.0
 10
11.2810527399
 20
10.5976156397
 30
0.0
 10
11.2877906399
 20
10.5956464687
 30
0.0
 10
11.3017019417
 20
10.5918338083
 30
0.0
 10
11.315718186
 20
10.5884299489
 30
0.0
 10
11.3229329674
 20
10.5867762529
 30
0.0
  0
SPLINE
  5
3A0
100
AcDbEntity
  8
0
100
AcDbSpline
 62
7
  6
CONTINUOUS
 70
0
 71
3
 72
9
 73
5
 74
0
 42
0.0000001
 43
0.0000001
 44
0.0000000001
 40
0.0
 40
0.0
 40
0.0
 40
0.0
 40
0.5135789775
 40
1.0
 40
1.0
 40
1.0
 40
1.0
 10
12.1194711025
 20
10.6487681099
 30
0.0
 10
12.1207148468
 20
10.6499694747
 30
0.0
 10
12.1230685659
 20
10.6523805388
 30
0.0
 10
12.1252550561
 20
10.6549453236
 30
0.0
 10
12.1262687631
 20
10.6562316737
 30
0.0
  0
SPLINE
  5
3A1
100
AcDbEntity
  8
0
100
AcDbSpline
 62
7
  6
CONTINUOUS
 70
0
 71
3
 72
23
 73
19
 74
0
 42
0.0000001
 43
0.0000001
 44
0.0000000001
 40
0.0
 40
0.0
 40
0.0
 40
0.0
 40
0.0421785856
 40
0.0850534373
 40
0.1291226147
 40
0.1749466526
 40
0.2231084649
 40
0.2741717322
 40
0.3286399951
 40
0.3869169438
 40
0.44928418
 40
0.5158962693
 40
0.5867820207
 40
0.6618606059
 40
0.7409667875
 40
0.8238724696
 40
0.910312794
 40
1.0
 40
1.0
 40
1.0
 40
1.0
 10
11.1679979279
 20
10.7068180156
 30
0.0
 10
11.1703159823
 20
10.7068097672
 30
0.0
 10
11.1749930569
 20
10.70657075
 30
0.0
 10
11.1820192176
 20
10.7054912623
 30
0.0
 10
11.1890881791
 20
10.7036272412
 30
0.0
 10
11.1961913374
 20
10.7009208798
 30
0.0
 10
11.2033199089
 20
10.6973227539
 30
0.0
 10
11.2104647748
 20
10.6927943077
 30
0.0
 10
11.2176168989
 20
10.6873089819
 30
0.0
 10
11.2247681616
 20
10.680855119
 30
0.0
 10
11.2319112167
 20
10.6734363342
 30
0.0
 10
11.2390386115
 20
10.665070815
 30
0.0
 10
11.2461437539
 20
10.6557911784
 30
0.0
 10
11.2532211181
 20
10.6456422069
 30
0.0
 10
11.2602656624
 20
10.6346773987
 30
0.0
 10
11.2672737682
 20
10.6229561473
 30
0.0
 10
11.2742430154
 20
10.6105409763
 30
0.0
 10
11.2787835441
 20
10.6019913072
 30
0.0
 10
11.2810527399
 20
10.5976156397
 30
0.0
  0
SPLINE
  5
3A2
100
AcDbEntity
  8
0
100
AcDbSpline
 62
7
  6
CONTINUOUS
 70
0
 71
3
 72
21
 73
17
 74
0
 42
0.0000001
 43
0.0000001
 44
0.0000000001
 40
0.0
 40
0.0
 40
0.0
 40
0.0
 40
0.1230814817
 40
0.1847942657
 40
0.2466337258
 40
0.3086097846
 40
0.3707312098
 40
0.4330051319
 40
0.4954352436
 40
0.5580223626
 40
0.6207641208
 40
0.6836547008
 40
0.7466862848
 40
0.8098488395
 40
0.8731308835
 40
1.0
 40
1.0
 40
1.0
 40
1.0
 10
11.3229329674
 20
10.5867762529
 30
0.0
 10
11.3401856079
 20
10.5900286364
 30
0.0
 10
11.3662167455
 20
10.5942793548
 30
0.0
 10
11.4011533357
 20
10.5984467042
 30
0.0
 10
11.4275200334
 20
10.6007687506
 30
0.0
 10
11.4540071001
 20
10.6022284507
 30
0.0
 10
11.4805911592
 20
10.6027785925
 30
0.0
 10
11.5072430235
 20
10.6023821609
 30
0.0
 10
11.5339295164
 20
10.6010171733
 30
0.0
 10
11.5606152882
 20
10.5986783498
 30
0.0
 10
11.5872649913
 20
10.5953760604
 30
0.0
 10
11.6138456555
 20
10.5911370407
 30
0.0
 10
11.6403284988
 20
10.5860023995
 30
0.0
 10
11.6666903761
 20
10.5800226517
 30
0.0
 10
11.7016810506
 20
10.570993532
 30
0.0
 10
11.7276595092
 20
10.5631435107
 30
0.0
 10
11.7448589463
 20
10.5575155869
 30
0.0
  0
SPLINE
  5
3A3
100
AcDbEntity
  8
0
100
AcDbSpline
 62
7
  6
CONTINUOUS
 70
0
 71
3
 72
28
 73
24
 74
0
 42
0.0000001
 43
0.0000001
 44
0.0000000001
 40
0.0
 40
0.0
 40
0.0
 40
0.0
 40
0.0640274484
 40
0.1279405369
 40
0.1917105404
 40
0.2553123355
 40
0.3187161223
 40
0.3818930725
 40
0.4133919091
 40
0.4448254452
 40
0.4761912782
 40
0.5074882562
 40
0.5387156619
 40
0.5698732312
 40
0.6009621492
 40
0.6319833386
 40
0.6938248821
 40
0.7554274775
 40
0.8168179251
 40
0.8780243018
 40
0.9085700262
 40
0.9390802882
 40
1.0
 40
1.0
 40
1.0
 40
1.0
 10
11.3229329674
 20
10.1661770272
 30
0.0
 10
11.331233818
 20
10.1618939035
 30
0.0
 10
11.3479648777
 20
10.1536105162
 30
0.0
 10
11.373484044
 20
10.1421485299
 30
0.0
 10
11.3994078223
 20
10.1317942674
 30
0.0
 10
11.4257209974
 20
10.1226922114
 30
0.0
 10
11.4523888271
 20
10.114988737
 30
0.0
 10
11.4748842592
 20
10.1098445051
 30
0.0
 10
11.4929883313
 20
10.1065574497
 30
0.0
 10
11.5065955867
 20
10.1045187231
 30
0.0
 10
11.5202309143
 20
10.1029120459
 30
0.0
 10
11.5338807655
 20
10.1017449689
 30
0.0
 10
11.5475306988
 20
10.1010178191
 30
0.0
 10
11.5611666062
 20
10.1007322867
 30
0.0
 10
11.5747746556
 20
10.1008827602
 30
0.0
 10
11.5928434801
 20
10.1016560358
 30
0.0
 10
11.6153029696
 20
10.1036714396
 30
0.0
 10
11.6419839263
 20
10.1076725462
 30
0.0
 10
11.668310288
 20
10.1131232604
 30
0.0
 10
11.6899387606
 20
10.1187590853
 30
0.0
 10
11.7070343555
 20
10.1238504434
 30
0.0
 10
11.7239748767
 20
10.1293006715
 30
0.0
 10
11.7365437212
 20
10.1337791461
 30
0.0
 10
11.7448589463
 20
10.1369163612
 30
0.0
  0
SPLINE
  5
3A4
100
AcDbEntity
  8
0
100
AcDbSpline
 62
7
  6
CONTINUOUS
 70
0
 71
3
 72
23
 73
19
 74
0
 42
0.0000001
 43
0.0000001
 44
0.0000000001
 40
0.0
 40
0.0
 40
0.0
 40
0.0
 40
0.0678267902
 40
0.1349724863
 40
0.2013861734
 40
0.2670282176
 40
0.331868046
 40
0.3958905056
 40
0.459098674
 40
0.5215154569
 40
0.5831842269
 40
0.6441654231
 40
0.7045325895
 40
0.7643678524
 40
0.8237547389
 40
0.882773787
 40
0.9415010872
 40
1.0
 40
1.0
 40
1.0
 40
1.0
 10
11.8020683849
 20
10.561483082
 30
0.0
 10
11.8083435016
 20
10.5653176154
 30
0.0
 10
11.8209268272
 20
10.572792546
 30
0.0
 10
11.8400067848
 20
10.5834155319
 30
0.0
 10
11.8591975166
 20
10.5933328717
 30
0.0
 10
11.8784909823
 20
10.6024811465
 30
0.0
 10
11.8978751647
 20
10.6108003926
 30
0.0
 10
11.9173333274
 20
10.6182370442
 30
0.0
 10
11.9368449681
 20
10.6247463286
 30
0.0
 10
11.9563859808
 20
10.6302970394
 30
0.0
 10
11.9759301003
 20
10.6348739706
 30
0.0
 10
11.9954509502
 20
10.6384776383
 30
0.0
 10
12.0149233853
 20
10.6411256167
 30
0.0
 10
12.034325146
 20
10.6428511818
 30
0.0
 10
12.0536381114
 20
10.6436987846
 30
0.0
 10
12.0728488804
 20
10.6437220169
 30
0.0
 10
12.0919480287
 20
10.6429802944
 30
0.0
 10
12.1046244485
 20
10.6420148231
 30
0.0
 10
12.1109395519
 20
10.6414247919
 30
0.0
  0
SPLINE
  5
3A5
100
AcDbEntity
  8
0
100
AcDbSpline
 62
7
  6
CONTINUOUS
 70
0
 71
3
 72
27
 73
23
 74
0
 42
0.0000001
 43
0.0000001
 44
0.0000000001
 40
0.0
 40
0.0
 40
0.0
 40
0.0
 40
0.0572742999
 40
0.1144994563
 40
0.1717869223
 40
0.2292938811
 40
0.2872150422
 40
0.3457779489
 40
0.3753824125
 40
0.4052383009
 40
0.4353731703
 40
0.4658134574
 40
0.496580671
 40
0.5276935314
 40
0.5591655803
 40
0.5910057323
 40
0.6557946642
 40
0.7220564543
 40
0.7897212757
 40
0.8586828413
 40
0.9288200633
 40
1.0
 40
1.0
 40
1.0
 40
1.0
 10
11.8020683849
 20
10.1408838562
 30
0.0
 10
11.808143656
 20
10.1387496306
 30
0.0
 10
11.8204013791
 20
10.1347933576
 30
0.0
 10
11.8391051606
 20
10.1299315462
 30
0.0
 10
11.8581132243
 20
10.1262840794
 30
0.0
 10
11.8774140407
 20
10.1239937989
 30
0.0
 10
11.896979888
 20
10.1232002788
 30
0.0
 10
11.913411039
 20
10.1238885575
 30
0.0
 10
11.9266098837
 20
10.1252844445
 30
0.0
 10
11.9365758937
 20
10.1267706055
 30
0.0
 10
11.9465618898
 20
10.1286964533
 30
0.0
 10
11.9565573745
 20
10.1310657333
 30
0.0
 10
11.9665523623
 20
10.1338750698
 30
0.0
 10
11.9765357334
 20
10.1371221482
 30
0.0
 10
11.9864979948
 20
10.14079779
 30
0.0
 10
11.9998153965
 20
10.1462887986
 30
0.0
 10
12.0163573096
 20
10.1541838726
 30
0.0
 10
12.0358665234
 20
10.1650978733
 30
0.0
 10
12.0551122663
 20
10.1773623564
 30
0.0
 10
12.0740714872
 20
10.1908279122
 30
0.0
 10
12.0927349204
 20
10.205349693
 30
0.0
 10
12.1048988412
 20
10.2155765807
 30
0.0
 10
12.1109395519
 20
10.2208255661
 30
0.0
  0
SPLINE
  5
3A6
100
AcDbEntity
  8
0
100
AcDbSpline
 62
7
  6
CONTINUOUS
 70
0
 71
3
 72
11
 73
7
 74
0
 42
0.0000001
 43
0.0000001
 44
0.0000000001
 40
0.0
 40
0.0
 40
0.0
 40
0.0
 40
0.2706149479
 40
0.5274053283
 40
0.7704747911
 40
1.0
 40
1.0
 40
1.0
 40
1.0
 10
11.2662434779
 20
10.7660768303
 30
0.0
 10
11.2639849288
 20
10.7649611329
 30
0.0
 10
11.2596182977
 20
10.7627145239
 30
0.0
 10
11.2533654146
 20
10.7591977894
 30
0.0
 10
11.2475883139
 20
10.7556267726
 30
0.0
 10
11.2439555075
 20
10.7531418086
 30
0.0
 10
11.2422249519
 20
10.7518887226
 30
0.0
  0
SPLINE
  5
3A7
100
AcDbEntity
  8
0
100
AcDbSpline
 62
7
  6
CONTINUOUS
 70
0
 71
3
 72
9
 73
5
 74
0
 42
0.0000001
 43
0.0000001
 44
0.0000000001
 40
0.0
 40
0.0
 40
0.0
 40
0.0
 40
0.5180906156
 40
1.0
 40
1.0
 40
1.0
 40
1.0
 10
11.2422249519
 20
10.7518887226
 30
0.0
 10
11.2403267921
 20
10.7505142754
 30
0.0
 10
11.2367396106
 20
10.7477531246
 30
0.0
 10
11.2333530931
 20
10.7447467653
 30
0.0
 10
11.2317852156
 20
10.7432323118
 30
0.0
  0
SPLINE
  5
3A8
100
AcDbEntity
  8
0
100
AcDbSpline
 62
7
  6
CONTINUOUS
 70
0
 71
3
 72
21
 73
17
 74
0
 42
0.0000001
 43
0.0000001
 44
0.0000000001
 40
0.0
 40
0.0
 40
0.0
 40
0.0
 40
0.0777184714
 40
0.1509844854
 40
0.2201919876
 40
0.2858049512
 40
0.3483762676
 40
0.408511364
 40
0.4668501382
 40
0.524040419
 40
0.5806986783
 40
0.6373921441
 40
0.6946119011
 40
0.7527677984
 40
0.8730351627
 40
1.0
 40
1.0
 40
1.0
 40
1.0
 10
11.2255968597
 20
10.180872023
 30
0.0
 10
11.2267586246
 20
10.1797908096
 30
0.0
 10
11.2290808986
 20
10.1777586471
 30
0.0
 10
11.2326697235
 20
10.1750430419
 30
0.0
 10
11.2362534246
 20
10.1727507541
 30
0.0
 10
11.2398297707
 20
10.1708794408
 30
0.0
 10
11.2433950537
 20
10.1694221291
 30
0.0
 10
11.2469460697
 20
10.168370367
 30
0.0
 10
11.2504793478
 20
10.1677138281
 30
0.0
 10
11.253991216
 20
10.1674384777
 30
0.0
 10
11.2574787121
 20
10.1675301543
 30
0.0
 10
11.2609393435
 20
10.16797181
 30
0.0
 10
11.2643717832
 20
10.168746217
 30
0.0
 10
11.2689595676
 20
10.1702152356
 30
0.0
 10
11.2746459626
 20
10.1728338242
 30
0.0
 10
11.2789296728
 20
10.1755282663
 30
0.0
 10
11.2810527399
 20
10.1770164139
 30
0.0
  0
SPLINE
  5
3A9
100
AcDbEntity
  8
0
100
AcDbSpline
 62
7
  6
CONTINUOUS
 70
0
 71
3
 72
55
 73
51
 74
0
 42
0.0000001
 43
0.0000001
 44
0.0000000001
 40
0.0
 40
0.0
 40
0.0
 40
0.0
 40
0.0077403341
 40
0.0160536402
 40
0.0249598623
 40
0.0344711287
 40
0.0445943245
 40
0.0553311103
 40
0.0666791717
 40
0.0786331753
 40
0.0911842811
 40
0.1043217537
 40
0.1180322524
 40
0.1323005199
 40
0.147109859
 40
0.1624414338
 40
0.1782755067
 40
0.1945906822
 40
0.2285722865
 40
0.2641945926
 40
0.3012498561
 40
0.3395178674
 40
0.37876815
 40
0.4187620874
 40
0.4592551245
 40
0.4999987486
 40
0.5407423938
 40
0.5812354618
 40
0.6212294331
 40
0.6604797572
 40
0.6987478627
 40
0.7358032525
 40
0.7714256644
 40
0.8054073565
 40
0.8217226506
 40
0.8375567141
 40
0.8528884296
 40
0.8676978103
 40
0.8819661512
 40
0.8956767913
 40
0.9088142361
 40
0.9213654962
 40
0.9333195839
 40
0.9446677912
 40
0.955404691
 40
0.9655276214
 40
0.9750389343
 40
0.9839457869
 40
0.992260156
 40
1.0
 40
1.0
 40
1.0
 40
1.0
 10
11.2352656716
 20
10.1718740352
 30
0.0
 10
11.2368736295
 20
10.1703777035
 30
0.0
 10
11.2403350149
 20
10.1674085054
 30
0.0
 10
11.2460133318
 20
10.1631676788
 30
0.0
 10
11.2523499825
 20
10.1589910017
 30
0.0
 10
11.2593343507
 20
10.1548846023
 30
0.0
 10
11.2669558006
 20
10.150855158
 30
0.0
 10
11.2752020515
 20
10.1469088772
 30
0.0
 10
11.2840598889
 20
10.1430520454
 30
0.0
 10
11.2935150864
 20
10.1392912773
 30
0.0
 10
11.3035521907
 20
10.1356323132
 30
0.0
 10
11.3141549353
 20
10.1320815566
 30
0.0
 10
11.3253059497
 20
10.1286446857
 30
0.0
 10
11.3369869816
 20
10.1253273344
 30
0.0
 10
11.3491789058
 20
10.1221352568
 30
0.0
 10
11.3618616576
 20
10.1190733975
 30
0.0
 10
11.3750144443
 20
10.1161471032
 30
0.0
 10
11.3933995037
 20
10.1123813348
 30
0.0
 10
11.4174002846
 20
10.1080668687
 30
0.0
 10
11.4473343517
 20
10.1035669296
 30
0.0
 10
11.4785834376
 20
10.0997071089
 30
0.0
 10
11.5109419082
 20
10.0965132274
 30
0.0
 10
11.5441969968
 20
10.0940066873
 30
0.0
 10
11.5781298152
 20
10.0922042166
 30
0.0
 10
11.6125169885
 20
10.0911178676
 30
0.0
 10
11.6471321127
 20
10.0907549055
 30
0.0
 10
11.6817472467
 20
10.0911177958
 30
0.0
 10
11.7161344458
 20
10.0922041049
 30
0.0
 10
11.7500672962
 20
10.0940065416
 30
0.0
 10
11.7833224356
 20
10.0965130449
 30
0.0
 10
11.8156809875
 20
10.0997068587
 30
0.0
 10
11.8469301744
 20
10.1035666149
 30
0.0
 10
11.8768643422
 20
10.1080665032
 30
0.0
 10
11.9008652058
 20
10.1123810012
 30
0.0
 10
11.919250347
 20
10.1161466515
 30
0.0
 10
11.9324031899
 20
10.1190730192
 30
0.0
 10
11.9450860155
 20
10.12213478
 30
0.0
 10
11.9572780111
 20
10.1253268749
 30
0.0
 10
11.9689591143
 20
10.128644237
 30
0.0
 10
11.9801102164
 20
10.1320810067
 30
0.0
 10
11.990713012
 20
10.1356318494
 30
0.0
 10
12.0007502212
 20
10.1392906983
 30
0.0
 10
12.0102055172
 20
10.1430515188
 30
0.0
 10
12.0190634365
 20
10.1469084012
 30
0.0
 10
12.0273097566
 20
10.1508545368
 30
0.0
 10
12.0349311707
 20
10.1548839814
 30
0.0
 10
12.0419157556
 20
10.1589902434
 30
0.0
 10
12.0482527614
 20
10.1631672913
 30
0.0
 10
12.0539312719
 20
10.1674084169
 30
0.0
 10
12.0573929131
 20
10.1703775644
 30
0.0
 10
12.0590007883
 20
10.1718737808
 30
0.0
  0
SPLINE
  5
3AA
100
AcDbEntity
  8
0
100
AcDbSpline
 62
7
  6
CONTINUOUS
 70
0
 71
3
 72
69
 73
65
 74
0
 42
0.0000001
 43
0.0000001
 44
0.0000000001
 40
0.0
 40
0.0
 40
0.0
 40
0.0
 40
0.0078486444
 40
0.011525491
 40
0.0150505467
 40
0.0216952296
 40
0.024852921
 40
0.0279250607
 40
0.0309333397
 40
0.0339009863
 40
0.0368522248
 40
0.0398117036
 40
0.0428038878
 40
0.0458523906
 40
0.0489793775
 40
0.052205239
 40
0.0590208104
 40
0.0626451385
 40
0.0664292117
 40
0.0745139269
 40
0.08334171
 40
0.0929552291
 40
0.1033806187
 40
0.114631552
 40
0.126711678
 40
0.1396167584
 40
0.1533361209
 40
0.1678536007
 40
0.1831486278
 40
0.1991964446
 40
0.2159691279
 40
0.2334353586
 40
0.2515614594
 40
0.2703108941
 40
0.2896453365
 40
0.3095240288
 40
0.3299048522
 40
0.3719941041
 40
0.4155466199
 40
0.4601767864
 40
0.5054862054
 40
0.5510685731
 40
0.5965143891
 40
0.6414157219
 40
0.6853710257
 40
0.7279898963
 40
0.7486810452
 40
0.7688992635
 40
0.7886011676
 40
0.807744993
 40
0.8262908348
 40
0.8442008993
 40
0.8614395705
 40
0.8779739633
 40
0.8937737718
 40
0.9088121872
 40
0.9230656404
 40
0.9365152112
 40
0.9491461963
 40
0.9609499952
 40
0.9719245224
 40
0.9820776763
 40
0.9914266394
 40
1.0
 40
1.0
 40
1.0
 40
1.0
 10
11.2317852156
 20
10.7432323118
 30
0.0
 10
11.2300434138
 20
10.7415498604
 30
0.0
 10
11.2275972281
 20
10.738956195
 30
0.0
 10
11.2247232439
 20
10.7353051353
 30
0.0
 10
11.2222984367
 20
10.7317853008
 30
0.0
 10
11.2203135441
 20
10.7281629076
 30
0.0
 10
11.2188433631
 20
10.7244683322
 30
0.0
 10
11.2180179737
 20
10.72173613
 30
0.0
 10
11.2174527405
 20
10.7189982428
 30
0.0
 10
11.2171481756
 20
10.7162565912
 30
0.0
 10
11.2171045971
 20
10.7135134185
 30
0.0
 10
11.2173221021
 20
10.7107709687
 30
0.0
 10
11.217800663
 20
10.7080315076
 30
0.0
 10
11.2185395293
 20
10.7052972059
 30
0.0
 10
11.2195376718
 20
10.7025698
 30
0.0
 10
11.2212435474
 20
10.6988780647
 30
0.0
 10
11.2234564175
 20
10.6952687956
 30
0.0
 10
11.2261001774
 20
10.6917636469
 30
0.0
 10
11.2292047294
 20
10.6881249411
 30
0.0
 10
11.2337524304
 20
10.6836247239
 30
0.0
 10
11.240080232
 20
10.6784195491
 30
0.0
 10
11.247380823
 20
10.6733042494
 30
0.0
 10
11.2556372319
 20
10.6682892277
 30
0.0
 10
11.2648312741
 20
10.6633853258
 30
0.0
 10
11.274941858
 20
10.6586036144
 30
0.0
 10
11.2859456113
 20
10.6539552966
 30
0.0
 10
11.2978167477
 20
10.6494514501
 30
0.0
 10
11.3105272337
 20
10.645102809
 30
0.0
 10
11.3240468954
 20
10.6409200014
 30
0.0
 10
11.3383434897
 20
10.6369129805
 30
0.0
 10
11.3533828496
 20
10.6330916784
 30
0.0
 10
11.3691289469
 20
10.6294651185
 30
0.0
 10
11.3855440187
 20
10.6260423817
 30
0.0
 10
11.4025886568
 20
10.6228314679
 30
0.0
 10
11.4202218921
 20
10.6198405061
 30
0.0
 10
11.438401374
 20
10.6170763627
 30
0.0
 10
11.4635809103
 20
10.6136662925
 30
0.0
 10
11.4960973412
 20
10.6100372191
 30
0.0
 10
11.5361603674
 20
10.6067218159
 30
0.0
 10
11.5772901951
 20
10.6044334193
 30
0.0
 10
11.6190913035
 20
10.6031944331
 30
0.0
 10
11.6611620058
 20
10.6030170495
 30
0.0
 10
11.7030978274
 20
10.6039030106
 30
0.0
 10
11.7444957524
 20
10.6058435902
 30
0.0
 10
11.784957647
 20
10.6088198213
 30
0.0
 10
11.8178891765
 20
10.6121705322
 30
0.0
 10
11.8434639414
 20
10.6153632055
 30
0.0
 10
11.8619833431
 20
10.6179721539
 30
0.0
 10
11.879985506
 20
10.6208126266
 30
0.0
 10
11.8974271845
 20
10.623877761
 30
0.0
 10
11.9142664359
 20
10.627160173
 30
0.0
 10
11.930462818
 20
10.6306517891
 30
0.0
 10
11.9459774416
 20
10.6343442922
 30
0.0
 10
11.960773127
 20
10.6382285155
 30
0.0
 10
11.9748144272
 20
10.6422952938
 30
0.0
 10
11.9880678438
 20
10.6465344429
 30
0.0
 10
12.0005017777
 20
10.6509360858
 30
0.0
 10
12.0120868355
 20
10.6554892167
 30
0.0
 10
12.0227955492
 20
10.6601834026
 30
0.0
 10
12.0326030811
 20
10.6650068754
 30
0.0
 10
12.0414867156
 20
10.6699490741
 30
0.0
 10
12.0494269526
 20
10.6749989189
 30
0.0
 10
12.0564042979
 20
10.6801452196
 30
0.0
 10
12.0605788418
 20
10.6837855275
 30
0.0
 10
12.0624814754
 20
10.6856233306
 30
0.0
  0
SPLINE
  5
3AB
100
AcDbEntity
  8
0
100
AcDbSpline
 62
7
  6
CONTINUOUS
 70
0
 71
3
 72
28
 73
24
 74
0
 42
0.0000001
 43
0.0000001
 44
0.0000000001
 40
0.0
 40
0.0
 40
0.0
 40
0.0
 40
0.0683417894
 40
0.1318944582
 40
0.1911916903
 40
0.2469424229
 40
0.2737771035
 40
0.300072871
 40
0.3259647135
 40
0.3515944959
 40
0.3771085711
 40
0.4026553861
 40
0.4283829391
 40
0.454436097
 40
0.5080318425
 40
0.5644895246
 40
0.594076777
 40
0.6246829784
 40
0.6892404913
 40
0.7587126008
 40
0.8334899805
 40
0.91385377
 40
1.0
 40
1.0
 40
1.0
 40
1.0
 10
12.0624814754
 20
10.6856233306
 30
0.0
 10
12.0639458406
 20
10.6870377988
 30
0.0
 10
12.0666665808
 20
10.6898807251
 30
0.0
 10
12.0702049146
 20
10.6943563018
 30
0.0
 10
12.073036266
 20
10.698874873
 30
0.0
 10
12.0748213955
 20
10.7027214293
 30
0.0
 10
12.0758677788
 20
10.70579426
 30
0.0
 10
12.0764623236
 20
10.7080743913
 30
0.0
 10
12.0768757957
 20
10.7103577664
 30
0.0
 10
12.0771080735
 20
10.7126433012
 30
0.0
 10
12.077158998
 20
10.7149297967
 30
0.0
 10
12.0770285305
 20
10.7172160246
 30
0.0
 10
12.0767165925
 20
10.7195008728
 30
0.0
 10
12.0760530879
 20
10.7225719234
 30
0.0
 10
12.0747488302
 20
10.7264272823
 30
0.0
 10
12.0728838901
 20
10.7301591241
 30
0.0
 10
12.0710572467
 20
10.7331172468
 30
0.0
 10
12.0689270043
 20
10.7361647671
 30
0.0
 10
12.0657960198
 20
10.7399515112
 30
0.0
 10
12.0614054407
 20
10.7443680459
 30
0.0
 10
12.0563240156
 20
10.7487309931
 30
0.0
 10
12.0505605311
 20
10.7530341976
 30
0.0
 10
12.0464146993
 20
10.7557631782
 30
0.0
 10
12.0442365545
 20
10.7571203303
 30
0.0
  0
SPLINE
  5
3AC
100
AcDbEntity
  8
0
100
AcDbSpline
 62
7
  6
CONTINUOUS
 70
0
 71
3
 72
9
 73
5
 74
0
 42
0.0000001
 43
0.0000001
 44
0.0000000001
 40
0.0
 40
0.0
 40
0.0
 40
0.0
 40
0.4830467495
 40
1.0
 40
1.0
 40
1.0
 40
1.0
 10
12.0442365545
 20
10.7571203303
 30
0.0
 10
12.0417042474
 20
10.7586981528
 30
0.0
 10
12.0363665673
 20
10.7618129049
 30
0.0
 10
12.0308843813
 20
10.764663445
 30
0.0
 10
12.0280215585
 20
10.7660776376
 30
0.0
  0
SPLINE
  5
3AD
100
AcDbEntity
  8
0
100
AcDbSpline
 62
7
  6
CONTINUOUS
 70
0
 71
3
 72
18
 73
14
 74
0
 42
0.0000001
 43
0.0000001
 44
0.0000000001
 40
0.0
 40
0.0
 40
0.0
 40
0.0
 40
0.1504673397
 40
0.291710036
 40
0.4244360001
 40
0.5495624032
 40
0.6682140019
 40
0.7255497517
 40
0.7817912955
 40
0.8371402647
 40
0.891809381
 40
0.9460201143
 40
1.0
 40
1.0
 40
1.0
 40
1.0
 10
12.3344081361
 20
8.5755110134
 30
0.0
 10
12.3360902515
 20
8.5771358121
 30
0.0
 10
12.3394521018
 20
8.5801843567
 30
0.0
 10
12.3446578949
 20
8.5842470687
 30
0.0
 10
12.3498575778
 20
8.5876449161
 30
0.0
 10
12.3550457623
 20
8.590372314
 30
0.0
 10
12.3594063686
 20
8.5921018035
 30
0.0
 10
12.3628685028
 20
8.593129354
 30
0.0
 10
12.3654282234
 20
8.5937216214
 30
0.0
 10
12.3679794508
 20
8.5941437534
 30
0.0
 10
12.3705214731
 20
8.5943955794
 30
0.0
 10
12.3730532762
 20
8.5944769856
 30
0.0
 10
12.3747353341
 20
8.5944175014
 30
0.0
 10
12.3755723257
 20
8.5943594596
 30
0.0
  0
SPLINE
  5
3AE
100
AcDbEntity
  8
0
100
AcDbSpline
 62
7
  6
CONTINUOUS
 70
0
 71
3
 72
36
 73
32
 74
0
 42
0.0000001
 43
0.0000001
 44
0.0000000001
 40
0.0
 40
0.0
 40
0.0
 40
0.0
 40
0.0916962898
 40
0.1811618425
 40
0.2679298174
 40
0.3101617831
 40
0.3515528884
 40
0.3920508491
 40
0.4316051136
 40
0.4701670897
 40
0.5076902599
 40
0.5441302807
 40
0.5794453006
 40
0.6135961286
 40
0.6465463769
 40
0.6782628744
 40
0.7087159643
 40
0.7378797695
 40
0.7657327896
 40
0.7922584677
 40
0.8174457516
 40
0.8412900974
 40
0.8637946067
 40
0.8849712835
 40
0.9048429411
 40
0.9234455356
 40
0.9408308663
 40
0.9570701431
 40
0.97225807
 40
0.9865168954
 40
1.0
 40
1.0
 40
1.0
 40
1.0
 10
11.5354049277
 20
10.0327464757
 30
0.0
 10
11.5249829624
 20
10.0334692415
 30
0.0
 10
11.5044065685
 20
10.0351099732
 30
0.0
 10
11.4740355345
 20
10.0381987599
 30
0.0
 10
11.4493352571
 20
10.0412862695
 30
0.0
 10
11.4301202337
 20
10.0440528067
 30
0.0
 10
11.4161499829
 20
10.0462474288
 30
0.0
 10
11.4025110187
 20
10.0485772052
 30
0.0
 10
11.3892228713
 20
10.0510388176
 30
0.0
 10
11.3763045816
 20
10.0536287044
 30
0.0
 10
11.363774649
 20
10.0563431263
 30
0.0
 10
11.3516510174
 20
10.0591781868
 30
0.0
 10
11.3399510338
 20
10.0621297939
 30
0.0
 10
11.3286914268
 20
10.0651936823
 30
0.0
 10
11.3178882897
 20
10.0683654541
 30
0.0
 10
11.3075570413
 20
10.0716405385
 30
0.0
 10
11.2977124011
 20
10.0750142088
 30
0.0
 10
11.2883683805
 20
10.0784816344
 30
0.0
 10
11.2795382404
 20
10.0820378456
 30
0.0
 10
11.2712344632
 20
10.0856777456
 30
0.0
 10
11.2634687521
 20
10.0893961808
 30
0.0
 10
11.2562519895
 20
10.0931879205
 30
0.0
 10
11.2495942036
 20
10.0970476737
 30
0.0
 10
11.2435045912
 20
10.1009701944
 30
0.0
 10
11.2379914976
 20
10.1049503043
 30
0.0
 10
11.233062419
 20
10.1089829231
 30
0.0
 10
11.2287241179
 20
10.1130632754
 30
0.0
 10
11.2249828131
 20
10.1171867709
 30
0.0
 10
11.2218442161
 20
10.1213495006
 30
0.0
 10
11.2193145557
 20
10.1255463213
 30
0.0
 10
11.2180067438
 20
10.1284342775
 30
0.0
 10
11.2174672801
 20
10.1298725724
 30
0.0
  0
SPLINE
  5
3AF
100
AcDbEntity
  8
0
100
AcDbSpline
 62
7
  6
CONTINUOUS
 70
0
 71
3
 72
39
 73
35
 74
0
 42
0.0000001
 43
0.0000001
 44
0.0000000001
 40
0.0
 40
0.0
 40
0.0
 40
0.0
 40
0.0311450433
 40
0.0624431226
 40
0.0938883401
 40
0.125470995
 40
0.1571788892
 40
0.1889972671
 40
0.2209091824
 40
0.252895852
 40
0.2849370326
 40
0.3170114241
 40
0.3490970849
 40
0.3811718562
 40
0.413213789
 40
0.4452015689
 40
0.4771149309
 40
0.5089350628
 40
0.5406449853
 40
0.5722299045
 40
0.6036775328
 40
0.6349783723
 40
0.6661259434
 40
0.697116963
 40
0.7279514643
 40
0.7586328462
 40
0.7891678467
 40
0.819566445
 40
0.8498416852
 40
0.8800094169
 40
0.9100879627
 40
0.9400977191
 40
0.9700606947
 40
1.0
 40
1.0
 40
1.0
 40
1.0
 10
10.6740678266
 20
7.1321809713
 30
0.0
 10
10.6836205763
 20
7.1315184859
 30
0.0
 10
10.7027316318
 20
7.1294910357
 30
0.0
 10
10.7311665138
 20
7.124383826
 30
0.0
 10
10.7592968322
 20
7.1172301813
 30
0.0
 10
10.7869706649
 20
7.1080685347
 30
0.0
 10
10.8140409807
 20
7.0969479839
 30
0.0
 10
10.840363388
 20
7.0839280492
 30
0.0
 10
10.8657976651
 20
7.0690783005
 30
0.0
 10
10.8902082646
 20
7.0524779979
 30
0.0
 10
10.9134651388
 20
7.0342157417
 30
0.0
 10
10.9354443759
 20
7.0143889427
 30
0.0
 10
10.956028836
 20
6.9931032917
 30
0.0
 10
10.9751087885
 20
6.9704722331
 30
0.0
 10
10.9925825322
 20
6.9466163923
 30
0.0
 10
11.0083568714
 20
6.9216628841
 30
0.0
 10
11.0223476006
 20
6.8957446512
 30
0.0
 10
11.0344800212
 20
6.8689998057
 30
0.0
 10
11.0446893069
 20
6.8415708737
 30
0.0
 10
11.0529208094
 20
6.8136040341
 30
0.0
 10
11.0591303693
 20
6.7852483647
 30
0.0
 10
11.0632846301
 20
6.7566550711
 30
0.0
 10
11.0653611373
 20
6.7279766664
 30
0.0
 10
11.0653484585
 20
6.6993661786
 30
0.0
 10
11.0632463265
 20
6.6709763477
 30
0.0
 10
11.0590656477
 20
6.6429588057
 30
0.0
 10
11.0528284021
 20
6.6154632774
 30
0.0
 10
11.0445675529
 20
6.5886367867
 30
0.0
 10
11.0343269907
 20
6.5626228497
 30
0.0
 10
11.0221611827
 20
6.5375606651
 30
0.0
 10
11.0081350717
 20
6.5135845507
 30
0.0
 10
10.9923230951
 20
6.4908225183
 30
0.0
 10
10.9748113921
 20
6.4693980241
 30
0.0
 10
10.9620605546
 20
6.4560776438
 30
0.0
 10
10.9554398229
 20
6.4496825173
 30
0.0
  0
SPLINE
  5
3B0
100
AcDbEntity
  8
0
100
AcDbSpline
 62
7
  6
CONTINUOUS
 70
0
 71
3
 72
50
 73
46
 74
0
 42
0.0000001
 43
0.0000001
 44
0.0000000001
 40
0.0
 40
0.0
 40
0.0
 40
0.0
 40
0.0311431289
 40
0.0624393576
 40
0.0938826422
 40
0.1254633877
 40
0.1571693586
 40
0.1889858073
 40
0.2208957881
 40
0.2528805179
 40
0.2849197558
 40
0.3169922025
 40
0.3490759178
 40
0.3811487443
 40
0.413188734
 40
0.4451745738
 40
0.4770860011
 40
0.5089042032
 40
0.5406122026
 40
0.5721952059
 40
0.6036409272
 40
0.6349398689
 40
0.6660855498
 40
0.6816023422
 40
0.6970798651
 40
0.7125182278
 40
0.7279177509
 40
0.7432789634
 40
0.7586026044
 40
0.7738896213
 40
0.7891411632
 40
0.8043585763
 40
0.8195434009
 40
0.8346973614
 40
0.8498223561
 40
0.8649204511
 40
0.879993868
 40
0.8950449698
 40
0.9100762497
 40
0.9250903183
 40
0.940089886
 40
0.9550777481
 40
0.9700567702
 40
0.9850298702
 40
1.0
 40
1.0
 40
1.0
 40
1.0
 10
10.6740678266
 20
9.3682993917
 30
0.0
 10
10.6881021039
 20
9.3673261112
 30
0.0
 10
10.7161788522
 20
9.3643474993
 30
0.0
 10
10.7579535671
 20
9.3568443502
 30
0.0
 10
10.7992808371
 20
9.3463346388
 30
0.0
 10
10.8399374471
 20
9.3328749229
 30
0.0
 10
10.879707442
 20
9.3165373576
 30
0.0
 10
10.9183786274
 20
9.2974092751
 30
0.0
 10
10.955745034
 20
9.275592964
 30
0.0
 10
10.9916075346
 20
9.2512048731
 30
0.0
 10
11.0257750398
 20
9.2243751252
 30
0.0
 10
11.0580655344
 20
9.1952468647
 30
0.0
 10
11.0883068808
 20
9.1639753222
 30
0.0
 10
11.1163379431
 20
9.1307272331
 30
0.0
 10
11.1420092528
 20
9.0956797577
 30
0.0
 10
11.1651838631
 20
9.0590196351
 30
0.0
 10
11.1857381704
 20
9.0209422367
 30
0.0
 10
11.2035623356
 20
8.9816504189
 30
0.0
 10
11.2185611522
 20
8.9413535639
 30
0.0
 10
11.230654338
 20
8.9002665365
 30
0.0
 10
11.2397770119
 20
8.8586079465
 30
0.0
 10
11.2458802145
 20
8.8166014457
 30
0.0
 10
11.2484256382
 20
8.7814430858
 30
0.0
 10
11.2489215549
 20
8.7533724375
 30
0.0
 10
11.2485255057
 20
8.7323966787
 30
0.0
 10
11.2473623085
 20
8.7115027474
 30
0.0
 10
11.245433552
 20
8.6907181933
 30
0.0
 10
11.2427417435
 20
8.6700708718
 30
0.0
 10
11.2392904795
 20
8.6495883344
 30
0.0
 10
11.2350843822
 20
8.6292979397
 30
0.0
 10
11.2301290252
 20
8.6092267943
 30
0.0
 10
11.2244309965
 20
8.589401717
 30
0.0
 10
11.2179979337
 20
8.5698491813
 30
0.0
 10
11.2108384055
 20
8.5505953114
 30
0.0
 10
11.2029619255
 20
8.5316658485
 30
0.0
 10
11.1943790435
 20
8.513086071
 30
0.0
 10
11.1851012205
 20
8.4948808011
 30
0.0
 10
11.1751408025
 20
8.4770743876
 30
0.0
 10
11.1645111078
 20
8.4596906176
 30
0.0
 10
11.1532263547
 20
8.442752709
 30
0.0
 10
11.1413015806
 20
8.4262833109
 30
0.0
 10
11.1287527292
 20
8.4103044611
 30
0.0
 10
11.1155965166
 20
8.3948374143
 30
0.0
 10
11.1018508074
 20
8.3799031267
 30
0.0
 10
11.0923051678
 20
8.370314423
 30
0.0
 10
11.0874413391
 20
8.3656163339
 30
0.0
  0
SPLINE
  5
3B1
100
AcDbEntity
  8
0
100
AcDbSpline
 62
7
  6
CONTINUOUS
 70
0
 71
3
 72
31
 73
27
 74
0
 42
0.0000001
 43
0.0000001
 44
0.0000000001
 40
0.0
 40
0.0
 40
0.0
 40
0.0
 40
0.0918026431
 40
0.1810633784
 40
0.2673112887
 40
0.3500969148
 40
0.429020838
 40
0.5037501926
 40
0.5740272626
 40
0.6396694407
 40
0.6707234777
 40
0.700580877
 40
0.7292366529
 40
0.7566895853
 40
0.7829417818
 40
0.8079997599
 40
0.8318747437
 40
0.8545837175
 40
0.8761514436
 40
0.8966118922
 40
0.9160113588
 40
0.9344116399
 40
0.9518933156
 40
0.968560418
 40
0.9845430687
 40
1.0
 40
1.0
 40
1.0
 40
1.0
 10
10.633415286
 20
9.1955324544
 30
0.0
 10
10.6314103301
 20
9.1905310231
 30
0.0
 10
10.6277663672
 20
9.1805382326
 30
0.0
 10
10.6233934125
 20
9.1654576511
 30
0.0
 10
10.6202123762
 20
9.1506207401
 30
0.0
 10
10.6182299125
 20
9.1361882429
 30
0.0
 10
10.6174227121
 20
9.1223191087
 30
0.0
 10
10.6177386539
 20
9.1091636819
 30
0.0
 10
10.6190994003
 20
9.0968592142
 30
0.0
 10
10.6210561957
 20
9.087240011
 30
0.0
 10
10.6230663487
 20
9.0800864687
 30
0.0
 10
10.6247384374
 20
9.0750999162
 30
0.0
 10
10.6265869186
 20
9.070402481
 30
0.0
 10
10.6285956506
 20
9.066002791
 30
0.0
 10
10.630748369
 20
9.0619087696
 30
0.0
 10
10.6330286916
 20
9.0581275038
 30
0.0
 10
10.6354203663
 20
9.0546654357
 30
0.0
 10
10.6379072994
 20
9.0515284023
 30
0.0
 10
10.6404736394
 20
9.0487217169
 30
0.0
 10
10.6431039207
 20
9.0462502682
 30
0.0
 10
10.645783081
 20
9.0441185658
 30
0.0
 10
10.6484965844
 20
9.0423308507
 30
0.0
 10
10.6512303717
 20
9.0408911896
 30
0.0
 10
10.6539710955
 20
9.0398035214
 30
0.0
 10
10.6567049527
 20
9.0390717815
 30
0.0
 10
10.6585392462
 20
9.038820446
 30
0.0
 10
10.6594443209
 20
9.038757786
 30
0.0
  0
SPLINE
  5
3B2
100
AcDbEntity
  8
0
100
AcDbSpline
 62
7
  6
CONTINUOUS
 70
0
 71
3
 72
34
 73
30
 74
0
 42
0.0000001
 43
0.0000001
 44
0.0000000001
 40
0.0
 40
0.0
 40
0.0
 40
0.0
 40
0.0315225442
 40
0.0629995433
 40
0.0944302436
 40
0.1258180078
 40
0.157167458
 40
0.1884859363
 40
0.2197826516
 40
0.2510684069
 40
0.2823550477
 40
0.3136549176
 40
0.3449801404
 40
0.3763420171
 40
0.4077502941
 40
0.4392125003
 40
0.4707333503
 40
0.5023141516
 40
0.5656195799
 40
0.6290730731
 40
0.6925149189
 40
0.7557044459
 40
0.7871208031
 40
0.8183577898
 40
0.8801138038
 40
0.9105804789
 40
0.9407279883
 40
0.9705375105
 40
1.0
 40
1.0
 40
1.0
 40
1.0
 10
10.9033782083
 20
6.7586674602
 30
0.0
 10
10.899416831
 20
6.7587882571
 30
0.0
 10
10.8915049846
 20
6.7592724337
 30
0.0
 10
10.8797152847
 20
6.7607321363
 30
0.0
 10
10.8680561222
 20
6.7629236077
 30
0.0
 10
10.8565734871
 20
6.7658400409
 30
0.0
 10
10.8453107663
 20
6.7694696274
 30
0.0
 10
10.834309128
 20
6.7737955988
 30
0.0
 10
10.8236065886
 20
6.778796955
 30
0.0
 10
10.8132377262
 20
6.7844490356
 30
0.0
 10
10.8032334674
 20
6.7907242733
 30
0.0
 10
10.7936210966
 20
6.7975928822
 30
0.0
 10
10.7844244154
 20
6.8050235052
 30
0.0
 10
10.7756640621
 20
6.8129837485
 30
0.0
 10
10.7673578864
 20
6.8214406393
 30
0.0
 10
10.7595214746
 20
6.8303607583
 30
0.0
 10
10.7521682889
 20
6.8397109166
 30
0.0
 10
10.7430192394
 20
6.8527135943
 30
0.0
 10
10.7328528549
 20
6.8698738803
 30
0.0
 10
10.722777958
 20
6.8916035583
 30
0.0
 10
10.7148851829
 20
6.9142006927
 30
0.0
 10
10.71017159
 20
6.9335391203
 30
0.0
 10
10.70755724
 20
6.9491491476
 30
0.0
 10
10.7057329431
 20
6.9646887826
 30
0.0
 10
10.7050683482
 20
6.9802282347
 30
0.0
 10
10.705598756
 20
6.995609614
 30
0.0
 10
10.7065849828
 20
7.0069411158
 30
0.0
 10
10.7081584213
 20
7.0180780484
 30
0.0
 10
10.7096045612
 20
7.0253930903
 30
0.0
 10
10.7104252887
 20
7.0290052389
 30
0.0
  0
SPLINE
  5
3B3
100
AcDbEntity
  8
0
100
AcDbSpline
 62
7
  6
CONTINUOUS
 70
0
 71
3
 72
23
 73
19
 74
0
 42
0.0000001
 43
0.0000001
 44
0.0000000001
 40
0.0
 40
0.0
 40
0.0
 40
0.0
 40
0.0657163493
 40
0.1312655949
 40
0.1965521711
 40
0.2614911896
 40
0.3260086523
 40
0.3900443553
 40
0.4535523114
 40
0.5165011799
 40
0.5788734256
 40
0.6406639307
 40
0.7018782461
 40
0.7625306988
 40
0.8226422789
 40
0.8822378195
 40
0.9413488363
 40
1.0
 40
1.0
 40
1.0
 40
1.0
 10
10.9468216438
 20
8.724754959
 30
0.0
 10
10.9422827015
 20
8.7247856286
 30
0.0
 10
10.9332161614
 20
8.7250712409
 30
0.0
 10
10.9196805464
 20
8.7261883947
 30
0.0
 10
10.9062739794
 20
8.7280007786
 30
0.0
 10
10.8930521414
 20
8.7305073021
 30
0.0
 10
10.8800676709
 20
8.733699264
 30
0.0
 10
10.8673695935
 20
8.7375607542
 30
0.0
 10
10.8550019763
 20
8.7420695576
 30
0.0
 10
10.8430032235
 20
8.7471981987
 30
0.0
 10
10.8314056398
 20
8.7529151417
 30
0.0
 10
10.8202353755
 20
8.759186005
 30
0.0
 10
10.8095126406
 20
8.7659746985
 30
0.0
 10
10.7992521361
 20
8.773244443
 30
0.0
 10
10.7894637271
 20
8.7809585468
 30
0.0
 10
10.7801527158
 20
8.7890812245
 30
0.0
 10
10.7713215714
 20
8.7975775526
 30
0.0
 10
10.7657319969
 20
8.8034913926
 30
0.0
 10
10.7630184013
 20
8.8064992853
 30
0.0
  0
SPLINE
  5
3B4
100
AcDbEntity
  8
0
100
AcDbSpline
 62
7
  6
CONTINUOUS
 70
0
 71
3
 72
15
 73
11
 74
0
 42
0.0000001
 43
0.0000001
 44
0.0000000001
 40
0.0
 40
0.0
 40
0.0
 40
0.0
 40
0.1165739312
 40
0.2365833979
 40
0.3594961165
 40
0.4848116338
 40
0.612036365
 40
0.7406636686
 40
0.8701659346
 40
1.0
 40
1.0
 40
1.0
 40
1.0
 10
11.1088572558
 20
8.7680096103
 30
0.0
 10
11.1030460077
 20
8.7649167497
 30
0.0
 10
11.0911101042
 20
8.7589023515
 30
0.0
 10
11.0725543092
 20
8.7506469645
 30
0.0
 10
11.0531272746
 20
8.7432006136
 30
0.0
 10
11.0329165085
 20
8.7367517528
 30
0.0
 10
11.0120306102
 20
8.7314853575
 30
0.0
 10
10.9906050229
 20
8.7275783894
 30
0.0
 10
10.9688078951
 20
8.7251922022
 30
0.0
 10
10.9541533268
 20
8.7247054188
 30
0.0
 10
10.9468216438
 20
8.724754959
 30
0.0
  0
SPLINE
  5
3B5
100
AcDbEntity
  8
0
100
AcDbSpline
 62
7
  6
CONTINUOUS
 70
0
 71
3
 72
23
 73
19
 74
0
 42
0.0000001
 43
0.0000001
 44
0.0000000001
 40
0.0
 40
0.0
 40
0.0
 40
0.0
 40
0.0663681738
 40
0.1322139102
 40
0.1975720007
 40
0.2624779562
 40
0.390990824
 40
0.5178810899
 40
0.5807065546
 40
0.6430612005
 40
0.7048785553
 40
0.7660580392
 40
0.8264458621
 40
0.8858171165
 40
0.9150253399
 40
0.9438398957
 40
0.9721948089
 40
1.0
 40
1.0
 40
1.0
 40
1.0
 10
10.7628386152
 20
8.8070126293
 30
0.0
 10
10.7597347096
 20
8.8104694351
 30
0.0
 10
10.7537335735
 20
8.8175219052
 30
0.0
 10
10.7453247556
 20
8.8285092526
 30
0.0
 10
10.737535277
 20
8.839820259
 30
0.0
 10
10.7279940246
 20
8.8552253317
 30
0.0
 10
10.7175404658
 20
8.87509928
 30
0.0
 10
10.7089456422
 20
8.8956823049
 30
0.0
 10
10.7031931539
 20
8.9123679142
 30
0.0
 10
10.6994434957
 20
8.9249134341
 30
0.0
 10
10.6962412431
 20
8.9374905186
 30
0.0
 10
10.693586237
 20
8.9500538046
 30
0.0
 10
10.6914834039
 20
8.9625475267
 30
0.0
 10
10.6901928975
 20
8.9728989291
 30
0.0
 10
10.6894546733
 20
8.9810840122
 30
0.0
 10
10.6890542664
 20
8.9871178789
 30
0.0
 10
10.6888082115
 20
8.9930616961
 30
0.0
 10
10.6887506331
 20
8.9969931412
 30
0.0
 10
10.6887507029
 20
8.9989395289
 30
0.0
  0
SPLINE
  5
3B6
100
AcDbEntity
  8
0
100
AcDbSpline
 62
7
  6
CONTINUOUS
 70
0
 71
3
 72
23
 73
19
 74
0
 42
0.0000001
 43
0.0000001
 44
0.0000000001
 40
0.0
 40
0.0
 40
0.0
 40
0.0
 40
0.0616482081
 40
0.123319443
 40
0.1850364742
 40
0.246821561
 40
0.3086962063
 40
0.3706809208
 40
0.4327950024
 40
0.4950563313
 40
0.5574811853
 40
0.6200840725
 40
0.6828776138
 40
0.7458723313
 40
0.8090768938
 40
0.8724970133
 40
0.9361380664
 40
1.0
 40
1.0
 40
1.0
 40
1.0
 10
10.3926958302
 20
7.0322794597
 30
0.0
 10
10.3972407602
 20
7.0366695185
 30
0.0
 10
10.4065704576
 20
7.0452085277
 30
0.0
 10
10.4212359866
 20
7.0572488669
 30
0.0
 10
10.4365383528
 20
7.0684933519
 30
0.0
 10
10.4524384679
 20
7.0789131691
 30
0.0
 10
10.4688963988
 20
7.0884822192
 30
0.0
 10
10.4858706311
 20
7.0971763842
 30
0.0
 10
10.5033184002
 20
7.104973802
 30
0.0
 10
10.5211957404
 20
7.1118548634
 30
0.0
 10
10.5394576109
 20
7.1178022766
 30
0.0
 10
10.5580580084
 20
7.1228011154
 30
0.0
 10
10.5769500773
 20
7.1268388349
 30
0.0
 10
10.5960862677
 20
7.1299053425
 30
0.0
 10
10.6154183144
 20
7.1319929269
 30
0.0
 10
10.6348978123
 20
7.1330964597
 30
0.0
 10
10.6544749869
 20
7.1332131411
 30
0.0
 10
10.667537664
 20
7.1326338396
 30
0.0
 10
10.6740678266
 20
7.1321809713
 30
0.0
  0
SPLINE
  5
3B7
100
AcDbEntity
  8
0
100
AcDbSpline
 62
7
  6
CONTINUOUS
 70
0
 71
3
 72
23
 73
19
 74
0
 42
0.0000001
 43
0.0000001
 44
0.0000000001
 40
0.0
 40
0.0
 40
0.0
 40
0.0
 40
0.0616482066
 40
0.1233194398
 40
0.1850364729
 40
0.2468215638
 40
0.3086962099
 40
0.3706809215
 40
0.4327950013
 40
0.4950563319
 40
0.5574811817
 40
0.6200840805
 40
0.6828775834
 40
0.7458723398
 40
0.8090769807
 40
0.8724966303
 40
0.9361388571
 40
1.0
 40
1.0
 40
1.0
 40
1.0
 10
10.5398052033
 20
6.9658269545
 30
0.0
 10
10.5426668222
 20
6.968591079
 30
0.0
 10
10.5485410884
 20
6.973967499
 30
0.0
 10
10.5577749364
 20
6.9815484888
 30
0.0
 10
10.5674097605
 20
6.9886283841
 30
0.0
 10
10.577420958
 20
6.9951890271
 30
0.0
 10
10.5877833754
 20
7.0012139971
 30
0.0
 10
10.5984708675
 20
7.0066881204
 30
0.0
 10
10.6094565106
 20
7.0115976321
 30
0.0
 10
10.6207126306
 20
7.0159301657
 30
0.0
 10
10.6322108654
 20
7.0196748403
 30
0.0
 10
10.643922243
 20
7.0228222683
 30
0.0
 10
10.6558172657
 20
7.0253645622
 30
0.0
 10
10.6678660029
 20
7.0272953397
 30
0.0
 10
10.6800380322
 20
7.0286097258
 30
0.0
 10
10.6923029714
 20
7.0293045712
 30
0.0
 10
10.7046293564
 20
7.029378005
 30
0.0
 10
10.7128540442
 20
7.0290132795
 30
0.0
 10
10.7169655842
 20
7.0287281432
 30
0.0
  0
SPLINE
  5
3B8
100
AcDbEntity
  8
0
100
AcDbSpline
 62
7
  6
CONTINUOUS
 70
0
 71
3
 72
39
 73
35
 74
0
 42
0.0000001
 43
0.0000001
 44
0.0000000001
 40
0.0
 40
0.0
 40
0.0
 40
0.0
 40
0.0303124934
 40
0.0607375552
 40
0.0912778033
 40
0.1219344494
 40
0.1527073009
 40
0.1835947785
 40
0.2145939499
 40
0.2457005787
 40
0.2769091866
 40
0.3082131276
 40
0.3396046755
 40
0.3710751204
 40
0.4026148726
 40
0.4342135753
 40
0.4658602225
 40
0.4975432824
 40
0.5292508255
 40
0.5609706552
 40
0.592690442
 40
0.6243978575
 40
0.6560807079
 40
0.6877270668
 40
0.7193254058
 40
0.7508647223
 40
0.7823346628
 40
0.813725641
 40
0.8450289619
 40
0.8762368722
 40
0.9073428555
 40
0.9383410945
 40
0.9692281655
 40
1.0
 40
1.0
 40
1.0
 40
1.0
 10
10.9767127394
 20
6.6736749126
 30
0.0
 10
10.9777180098
 20
6.6789960777
 30
0.0
 10
10.9794322389
 20
6.6897173146
 30
0.0
 10
10.981104891
 20
6.7059460049
 30
0.0
 10
10.9818790352
 20
6.7223042775
 30
0.0
 10
10.9817522749
 20
6.7387422639
 30
0.0
 10
10.9807250898
 20
6.7552107128
 30
0.0
 10
10.9788006176
 20
6.771660063
 30
0.0
 10
10.9759847011
 20
6.7880408802
 30
0.0
 10
10.9722858544
 20
6.8043039274
 30
0.0
 10
10.9677152391
 20
6.8204003307
 30
0.0
 10
10.9622866373
 20
6.8362817226
 30
0.0
 10
10.9560164065
 20
6.851900388
 30
0.0
 10
10.9489234253
 20
6.8672094043
 30
0.0
 10
10.9410290376
 20
6.8821627819
 30
0.0
 10
10.9323569884
 20
6.8967156006
 30
0.0
 10
10.9229333526
 20
6.9108241434
 30
0.0
 10
10.9127864576
 20
6.9244460269
 30
0.0
 10
10.9019467973
 20
6.9375403265
 30
0.0
 10
10.8904469486
 20
6.9500677048
 30
0.0
 10
10.8783214681
 20
6.9619905263
 30
0.0
 10
10.865606787
 20
6.973272968
 30
0.0
 10
10.852341103
 20
6.9838811263
 30
0.0
 10
10.838564266
 20
6.993783118
 30
0.0
 10
10.8243176601
 20
7.0029491758
 30
0.0
 10
10.8096440796
 20
7.011351737
 30
0.0
 10
10.7945876022
 20
7.0189655244
 30
0.0
 10
10.7791934595
 20
7.0257676361
 30
0.0
 10
10.763507906
 20
7.0317375906
 30
0.0
 10
10.7475780457
 20
7.0368574362
 30
0.0
 10
10.7314518231
 20
7.041111681
 30
0.0
 10
10.7151774427
 20
7.0444876109
 30
0.0
 10
10.6988045596
 20
7.0469748294
 30
0.0
 10
10.687834208
 20
7.0480376774
 30
0.0
 10
10.6823500294
 20
7.0484180064
 30
0.0
  0
SPLINE
  5
3B9
100
AcDbEntity
  8
0
100
AcDbSpline
 62
7
  6
CONTINUOUS
 70
0
 71
3
 72
39
 73
35
 74
0
 42
0.0000001
 43
0.0000001
 44
0.0000000001
 40
0.0
 40
0.0
 40
0.0
 40
0.0
 40
0.0299393046
 40
0.0599022798
 40
0.0899120362
 40
0.1199905823
 40
0.1501583143
 40
0.1804335559
 40
0.2108321562
 40
0.2413671583
 40
0.2720485416
 40
0.3028830449
 40
0.3338740655
 40
0.3650216366
 40
0.3963224767
 40
0.4277701061
 40
0.4593550258
 40
0.491064949
 40
0.5228850818
 40
0.554798444
 40
0.5867862231
 40
0.618828155
 40
0.6509029254
 40
0.6829885856
 40
0.7150629765
 40
0.7471041564
 40
0.7790908249
 40
0.8110027394
 40
0.8428211144
 40
0.8745290121
 40
0.9061116491
 40
0.937556897
 40
0.9688549736
 40
1.0
 40
1.0
 40
1.0
 40
1.0
 10
10.8941259651
 20
6.5990071313
 30
0.0
 10
10.8982945591
 20
6.6030337027
 30
0.0
 10
10.9063228577
 20
6.6114206044
 30
0.0
 10
10.9173487155
 20
6.6249101124
 30
0.0
 10
10.9273043735
 20
6.639241771
 30
0.0
 10
10.9361356081
 20
6.654337843
 30
0.0
 10
10.9437955476
 20
6.6701177326
 30
0.0
 10
10.9502432855
 20
6.6864968775
 30
0.0
 10
10.9554445302
 20
6.7033876304
 30
0.0
 10
10.9593716674
 20
6.7206996238
 30
0.0
 10
10.9620039252
 20
6.7383402923
 30
0.0
 10
10.9633274609
 20
6.7562153635
 30
0.0
 10
10.9633354259
 20
6.7742293639
 30
0.0
 10
10.9620279906
 20
6.7922861265
 30
0.0
 10
10.9594123334
 20
6.8102892996
 30
0.0
 10
10.9555025946
 20
6.828142855
 30
0.0
 10
10.9503197947
 20
6.8457515944
 30
0.0
 10
10.9438917188
 20
6.8630216492
 30
0.0
 10
10.9362527711
 20
6.8798609777
 30
0.0
 10
10.9274437827
 20
6.8961798466
 30
0.0
 10
10.9175117945
 20
6.9118913033
 30
0.0
 10
10.9065098071
 20
6.9269116333
 30
0.0
 10
10.8944965003
 20
6.9411608004
 30
0.0
 10
10.8815359226
 20
6.9545628688
 30
0.0
 10
10.8676971535
 20
6.9670464033
 30
0.0
 10
10.853053938
 20
6.9785448449
 30
0.0
 10
10.8376843022
 20
6.988996868
 30
0.0
 10
10.8216701375
 20
6.9983467027
 30
0.0
 10
10.8050967775
 20
7.0065444309
 30
0.0
 10
10.7880525119
 20
7.0135462392
 30
0.0
 10
10.7706282565
 20
7.0193146874
 30
0.0
 10
10.7529165835
 20
7.0238188341
 30
0.0
 10
10.735013148
 20
7.0270344854
 30
0.0
 10
10.7229802717
 20
7.0283110232
 30
0.0
 10
10.7169655842
 20
7.0287281432
 30
0.0
  0
SPLINE
  5
3BA
100
AcDbEntity
  8
0
100
AcDbSpline
 62
7
  6
CONTINUOUS
 70
0
 71
3
 72
11
 73
7
 74
0
 42
0.0000001
 43
0.0000001
 44
0.0000000001
 40
0.0
 40
0.0
 40
0.0
 40
0.0
 40
0.250463438
 40
0.500666007
 40
0.7505312231
 40
1.0
 40
1.0
 40
1.0
 40
1.0
 10
10.963282153
 20
6.765947423
 30
0.0
 10
10.9584061465
 20
6.7646120374
 30
0.0
 10
10.9485610943
 20
6.7622863784
 30
0.0
 10
10.9335904573
 20
6.7598811835
 30
0.0
 10
10.9185017701
 20
6.758599159
 30
0.0
 10
10.9084113525
 20
6.7585139811
 30
0.0
 10
10.9033782083
 20
6.7586674602
 30
0.0
  0
SPLINE
  5
3BB
100
AcDbEntity
  8
0
100
AcDbSpline
 62
7
  6
CONTINUOUS
 70
0
 71
3
 72
27
 73
23
 74
0
 42
0.0000001
 43
0.0000001
 44
0.0000000001
 40
0.0
 40
0.0
 40
0.0
 40
0.0
 40
0.06164689
 40
0.0924803204
 40
0.1233223709
 40
0.1850380842
 40
0.2468218522
 40
0.2777487695
 40
0.3087006862
 40
0.3706840773
 40
0.432796832
 40
0.4950568298
 40
0.5574803489
 40
0.6200818994
 40
0.6828740929
 40
0.7143476873
 40
0.7458727129
 40
0.8090758403
 40
0.872494838
 40
0.9042889691
 40
0.9361391443
 40
1.0
 40
1.0
 40
1.0
 40
1.0
 10
10.260694314
 20
9.221530648
 30
0.0
 10
10.2673714313
 20
9.227980236
 30
0.0
 10
10.2776512635
 20
9.2373887792
 30
0.0
 10
10.291846134
 20
9.2493657851
 30
0.0
 10
10.3063660248
 20
9.2609639812
 30
0.0
 10
10.3251048545
 20
9.274733744
 30
0.0
 10
10.3445652863
 20
9.2874866172
 30
0.0
 10
10.3605391632
 20
9.2970624879
 30
0.0
 10
10.3767890314
 20
9.3062234519
 30
0.0
 10
10.3975809229
 20
9.3168730837
 30
0.0
 10
10.4232137956
 20
9.3283283698
 30
0.0
 10
10.4494780771
 20
9.3384376121
 30
0.0
 10
10.4763072888
 20
9.3471751674
 30
0.0
 10
10.503633501
 20
9.354519094
 30
0.0
 10
10.5267456026
 20
9.3594587044
 30
0.0
 10
10.5454111559
 20
9.3626981374
 30
0.0
 10
10.5642151852
 20
9.3654650815
 30
0.0
 10
10.5879038365
 20
9.3680231918
 30
0.0
 10
10.6117323095
 20
9.3693730146
 30
0.0
 10
10.6308652376
 20
9.3697298554
 30
0.0
 10
10.6500672221
 20
9.3696036124
 30
0.0
 10
10.6644740926
 20
9.3689647194
 30
0.0
 10
10.6740678266
 20
9.3682993917
 30
0.0
  0
SPLINE
  5
3BC
100
AcDbEntity
  8
0
100
AcDbSpline
 62
7
  6
CONTINUOUS
 70
0
 71
3
 72
24
 73
20
 74
0
 42
0.0000001
 43
0.0000001
 44
0.0000000001
 40
0.0
 40
0.0
 40
0.0
 40
0.0
 40
0.0616478661
 40
0.0924817852
 40
0.1233243222
 40
0.1850410118
 40
0.2468257558
 40
0.3087000564
 40
0.3706844246
 40
0.4327981584
 40
0.495059139
 40
0.5574836442
 40
0.6200861838
 40
0.6828793762
 40
0.7458737397
 40
0.8090779696
 40
0.8724976767
 40
0.9361385005
 40
1.0
 40
1.0
 40
1.0
 40
1.0
 10
10.4386424179
 20
9.1292529541
 30
0.0
 10
10.4431873599
 20
9.1336430163
 30
0.0
 10
10.4501845289
 20
9.1400472096
 30
0.0
 10
10.4598466295
 20
9.1481996241
 30
0.0
 10
10.4697298736
 20
9.1560942543
 30
0.0
 10
10.4824850691
 20
9.165467059
 30
0.0
 10
10.4983850645
 20
9.175886805
 30
0.0
 10
10.5148430526
 20
9.1854559132
 30
0.0
 10
10.5318172965
 20
9.1941500997
 30
0.0
 10
10.5492650909
 20
9.2019475484
 30
0.0
 10
10.5671424537
 20
9.2088286385
 30
0.0
 10
10.58540435
 20
9.2147760795
 30
0.0
 10
10.6040047767
 20
9.2197749376
 30
0.0
 10
10.6228968763
 20
9.2238126713
 30
0.0
 10
10.6420331003
 20
9.2268791913
 30
0.0
 10
10.6613651755
 20
9.2289667806
 30
0.0
 10
10.6808447151
 20
9.230070326
 30
0.0
 10
10.700421922
 20
9.2301870046
 30
0.0
 10
10.7134846265
 20
9.2296077057
 30
0.0
 10
10.7200147922
 20
9.2291548372
 30
0.0
  0
SPLINE
  5
3BD
100
AcDbEntity
  8
0
100
AcDbSpline
 62
7
  6
CONTINUOUS
 70
0
 71
3
 72
39
 73
35
 74
0
 42
0.0000001
 43
0.0000001
 44
0.0000000001
 40
0.0
 40
0.0
 40
0.0
 40
0.0
 40
0.0306003585
 40
0.06130417
 40
0.0921099494
 40
0.1230152494
 40
0.1540166928
 40
0.1851100117
 40
0.2162900952
 40
0.2475510424
 40
0.2788862219
 40
0.3102883362
 40
0.3417494923
 40
0.3732612746
 40
0.4048148217
 40
0.436400906
 40
0.468010015
 40
0.4996324355
 40
0.5312583379
 40
0.5628778622
 40
0.5944812044
 40
0.6260587016
 40
0.6576009166
 40
0.689098721
 40
0.720543376
 40
0.7519266117
 40
0.7832407026
 40
0.8144785387
 40
0.8456337043
 40
0.8767004966
 40
0.9076741421
 40
0.9385503578
 40
0.9693266637
 40
1.0
 40
1.0
 40
1.0
 40
1.0
 10
11.1363351946
 20
8.7700898946
 30
0.0
 10
11.1363351883
 20
8.7775300976
 30
0.0
 10
11.1359686104
 20
8.7924381919
 30
0.0
 10
11.1343269311
 20
8.8147820464
 30
0.0
 10
11.1315965174
 20
8.8370943007
 30
0.0
 10
11.1277839946
 20
8.8593205154
 30
0.0
 10
11.1228985895
 20
8.8814073668
 30
0.0
 10
11.1169521075
 20
8.9033016287
 30
0.0
 10
11.1099589035
 20
8.9249506081
 30
0.0
 10
11.1019358473
 20
8.946302188
 30
0.0
 10
11.0929022826
 20
8.9673049738
 30
0.0
 10
11.0828799885
 20
8.9879084144
 30
0.0
 10
11.0718931183
 20
9.0080629219
 30
0.0
 10
11.0599681417
 20
9.0277199898
 30
0.0
 10
11.0471337811
 20
9.046832309
 30
0.0
 10
11.0334209431
 20
9.0653538804
 30
0.0
 10
11.018862644
 20
9.0832401254
 30
0.0
 10
11.0034939312
 20
9.100447992
 30
0.0
 10
10.9873517992
 20
9.1169360579
 30
0.0
 10
10.9704751067
 20
9.132664636
 30
0.0
 10
10.9529044773
 20
9.1475958643
 30
0.0
 10
10.9346822013
 20
9.1616937962
 30
0.0
 10
10.9158521356
 20
9.1749244867
 30
0.0
 10
10.8964595985
 20
9.1872560736
 30
0.0
 10
10.8765512614
 20
9.1986588535
 30
0.0
 10
10.8561750372
 20
9.2091053538
 30
0.0
 10
10.8353799667
 20
9.2185703967
 30
0.0
 10
10.8142161017
 20
9.2270311738
 30
0.0
 10
10.7927343911
 20
9.2344672757
 30
0.0
 10
10.7709865192
 20
9.2408607905
 30
0.0
 10
10.7490249283
 20
9.2461962248
 30
0.0
 10
10.7269022123
 20
9.250460806
 30
0.0
 10
10.7046724473
 20
9.2536440242
 30
0.0
 10
10.6897901065
 20
9.2550426792
 30
0.0
 10
10.6823500294
 20
9.2555586503
 30
0.0
  0
SPLINE
  5
3BE
100
AcDbEntity
  8
0
100
AcDbSpline
 62
7
  6
CONTINUOUS
 70
0
 71
3
 72
39
 73
35
 74
0
 42
0.0000001
 43
0.0000001
 44
0.0000000001
 40
0.0
 40
0.0
 40
0.0
 40
0.0
 40
0.0299393047
 40
0.0599022803
 40
0.0899120372
 40
0.1199905833
 40
0.1501583154
 40
0.1804335574
 40
0.2108321574
 40
0.2413671582
 40
0.272048541
 40
0.3028830448
 40
0.3338740658
 40
0.3650216369
 40
0.3963224774
 40
0.4277701077
 40
0.459355027
 40
0.4910649491
 40
0.5228850815
 40
0.554798444
 40
0.5867862233
 40
0.6188281554
 40
0.6509029261
 40
0.6829885862
 40
0.7150629768
 40
0.7471041564
 40
0.7790908246
 40
0.8110027389
 40
0.8428211158
 40
0.8745290092
 40
0.9061116607
 40
0.9375568836
 40
0.9688549545
 40
1.0
 40
1.0
 40
1.0
 40
1.0
 10
11.0013871666
 20
8.5466567547
 30
0.0
 10
11.0080079003
 20
8.5530518711
 30
0.0
 10
11.0207587024
 20
8.566372272
 30
0.0
 10
11.0382703637
 20
8.5877967791
 30
0.0
 10
11.0540822833
 20
8.6105588321
 30
0.0
 10
11.0681083673
 20
8.6345349432
 30
0.0
 10
11.0802741519
 20
8.6595971229
 30
0.0
 10
11.0905146592
 20
8.6856110661
 30
0.0
 10
11.0987754592
 20
8.7124375554
 30
0.0
 10
11.1050126951
 20
8.7399330697
 30
0.0
 10
11.1091933491
 20
8.7679506011
 30
0.0
 10
11.1112954266
 20
8.7963404212
 30
0.0
 10
11.1113080768
 20
8.8249508927
 30
0.0
 10
11.1092315705
 20
8.8536292817
 30
0.0
 10
11.1050772846
 20
8.8822225566
 30
0.0
 10
11.0988676809
 20
8.9105782
 30
0.0
 10
11.0906361732
 20
8.9385450203
 30
0.0
 10
11.0804268926
 20
8.9659739368
 30
0.0
 10
11.0682944498
 20
8.9927187545
 30
0.0
 10
11.0543036987
 20
9.0186369558
 30
0.0
 10
11.0385293685
 20
9.0435904486
 30
0.0
 10
11.0210556326
 20
9.0674462741
 30
0.0
 10
11.0019756663
 20
9.0900772984
 30
0.0
 10
10.9813912072
 20
9.1113629249
 30
0.0
 10
10.9594119843
 20
9.1311897129
 30
0.0
 10
10.9361551207
 20
9.1494519543
 30
0.0
 10
10.9117445215
 20
9.1660522252
 30
0.0
 10
10.8863102587
 20
9.1809019616
 30
0.0
 10
10.8599878675
 20
9.1939218891
 30
0.0
 10
10.832917566
 20
9.2050424267
 30
0.0
 10
10.8052437457
 20
9.2142040583
 30
0.0
 10
10.7771134451
 20
9.2213576969
 30
0.0
 10
10.7486785799
 20
9.226464905
 30
0.0
 10
10.7295675372
 20
9.2284923521
 30
0.0
 10
10.7200147922
 20
9.2291548372
 30
0.0
  0
SPLINE
  5
3BF
100
AcDbEntity
  8
0
100
AcDbSpline
 62
7
  6
CONTINUOUS
 70
0
 71
3
 72
9
 73
5
 74
0
 42
0.0000001
 43
0.0000001
 44
0.0000000001
 40
0.0
 40
0.0
 40
0.0
 40
0.0
 40
0.2532580208
 40
1.0
 40
1.0
 40
1.0
 40
1.0
 10
10.6487427787
 20
9.227499793
 30
0.0
 10
10.6472821642
 20
9.2248862803
 30
0.0
 10
10.6416706707
 20
9.2144808366
 30
0.0
 10
10.6367000536
 20
9.2037264198
 30
0.0
 10
10.633415286
 20
9.1955324544
 30
0.0
  0
SPLINE
  5
3C0
100
AcDbEntity
  8
0
100
AcDbSpline
 62
7
  6
CONTINUOUS
 70
0
 71
3
 72
11
 73
7
 74
0
 42
0.0000001
 43
0.0000001
 44
0.0000000001
 40
0.0
 40
0.0
 40
0.0
 40
0.0
 40
0.2897492774
 40
0.5460389192
 40
0.7796344763
 40
1.0
 40
1.0
 40
1.0
 40
1.0
 10
11.21746727
 20
10.1298725722
 30
0.0
 10
11.2173198768
 20
10.1302655487
 30
0.0
 10
11.2170708418
 20
10.1310174246
 30
0.0
 10
11.2168091376
 20
10.1321175214
 30
0.0
 10
11.2166648324
 20
10.1331376051
 30
0.0
 10
11.2166333455
 20
10.1337955355
 30
0.0
 10
11.2166333455
 20
10.1341147401
 30
0.0
  0
SPLINE
  5
3C1
100
AcDbEntity
  8
0
100
AcDbSpline
 62
7
  6
CONTINUOUS
 70
0
 71
3
 72
11
 73
7
 74
0
 42
0.0000001
 43
0.0000001
 44
0.0000000001
 40
0.0
 40
0.0
 40
0.0
 40
0.0
 40
0.2203655244
 40
0.4539610799
 40
0.7102507243
 40
1.0
 40
1.0
 40
1.0
 40
1.0
 10
12.0776333455
 20
10.1341147401
 30
0.0
 10
12.0776333455
 20
10.1337955355
 30
0.0
 10
12.0776018586
 20
10.1331376051
 30
0.0
 10
12.0774575534
 20
10.1321175214
 30
0.0
 10
12.0771958492
 20
10.1310174246
 30
0.0
 10
12.0769468142
 20
10.1302655487
 30
0.0
 10
12.076799421
 20
10.1298725722
 30
0.0
  0
SPLINE
  5
3C2
100
AcDbEntity
  8
0
100
AcDbSpline
 62
7
  6
CONTINUOUS
 70
0
 71
3
 72
50
 73
46
 74
0
 42
0.0000001
 43
0.0000001
 44
0.0000000001
 40
0.0
 40
0.0
 40
0.0
 40
0.0
 40
0.0057940444
 40
0.0118133012
 40
0.0180949137
 40
0.0246707923
 40
0.0315680343
 40
0.038809168
 40
0.0464128131
 40
0.0543939714
 40
0.0627646715
 40
0.0715341833
 40
0.0807095567
 40
0.0902957495
 40
0.1002960479
 40
0.110712136
 40
0.1215444071
 40
0.1327920086
 40
0.1444530581
 40
0.1565246872
 40
0.1690031768
 40
0.1818840157
 40
0.1951619657
 40
0.208831145
 40
0.2373157919
 40
0.2672802406
 40
0.298657941
 40
0.3313753898
 40
0.3653529206
 40
0.4005053791
 40
0.4367427165
 40
0.4739705258
 40
0.5120905366
 40
0.5510010812
 40
0.5905975399
 40
0.6307727714
 40
0.6714175329
 40
0.7124208942
 40
0.7536706433
 40
0.7950536982
 40
0.8364564909
 40
0.8777654243
 40
0.9188671243
 40
0.9596492066
 40
1.0
 40
1.0
 40
1.0
 40
1.0
 10
12.0767994205
 20
10.1298725722
 30
0.0
 10
12.0764159163
 20
10.1288500896
 30
0.0
 10
12.0755351285
 20
10.1268013103
 30
0.0
 10
12.0739207286
 20
10.1237929819
 30
0.0
 10
12.0719923059
 20
10.1207989573
 30
0.0
 10
12.0697519186
 20
10.1178214221
 30
0.0
 10
12.0672013524
 20
10.1148621692
 30
0.0
 10
12.064342696
 20
10.1119229944
 30
0.0
 10
12.0611780226
 20
10.1090058284
 30
0.0
 10
12.0577096955
 20
10.1061125065
 30
0.0
 10
12.053940165
 20
10.1032450324
 30
0.0
 10
12.0498721718
 20
10.1004053052
 30
0.0
 10
12.0455086003
 20
10.0975953613
 30
0.0
 10
12.0408526103
 20
10.0948171336
 30
0.0
 10
12.0359075357
 20
10.0920726525
 30
0.0
 10
12.0306769652
 20
10.0893638551
 30
0.0
 10
12.0251646767
 20
10.0866927373
 30
0.0
 10
12.0193746827
 20
10.0840612177
 30
0.0
 10
12.0133111919
 20
10.0814712384
 30
0.0
 10
12.0069786295
 20
10.0789246839
 30
0.0
 10
12.0003816173
 20
10.0764234284
 30
0.0
 10
11.9935249819
 20
10.073969315
 30
0.0
 10
11.9864137327
 20
10.0715641216
 30
0.0
 10
11.9764624611
 20
10.0683810601
 30
0.0
 10
11.9634192967
 20
10.0645478133
 30
0.0
 10
11.9470467164
 20
10.0602310008
 30
0.0
 10
11.9297932364
 20
10.05614919
 30
0.0
 10
11.9117094711
 20
10.0523144819
 30
0.0
 10
11.892848347
 20
10.0487382644
 30
0.0
 10
11.8732651808
 20
10.0454311492
 30
0.0
 10
11.8530174334
 20
10.0424029477
 30
0.0
 10
11.8321645527
 20
10.03966264
 30
0.0
 10
11.8107677864
 20
10.037218349
 30
0.0
 10
11.7888899985
 20
10.0350773178
 30
0.0
 10
11.7665954802
 20
10.0332458889
 30
0.0
 10
11.7439497581
 20
10.031729486
 30
0.0
 10
11.7210193989
 20
10.0305325989
 30
0.0
 10
11.6978718124
 20
10.0296587707
 30
0.0
 10
11.67457505
 20
10.0291105878
 30
0.0
 10
11.6511976074
 20
10.0288896731
 30
0.0
 10
11.627808211
 20
10.028996679
 30
0.0
 10
11.6044756445
 20
10.0294312917
 30
0.0
 10
11.5812684648
 20
10.0301922208
 30
0.0
 10
11.5582549981
 20
10.0312772174
 30
0.0
 10
11.5429918564
 20
10.0322203204
 30
0.0
 10
11.5354049277
 20
10.0327464757
 30
0.0
  0
SPLINE
  5
3C3
100
AcDbEntity
  8
0
100
AcDbSpline
 62
7
  6
CONTINUOUS
 70
0
 71
3
 72
91
 73
87
 74
0
 42
0.0000001
 43
0.0000001
 44
0.0000000001
 40
0.0
 40
0.0
 40
0.0
 40
0.0
 40
0.0027164149
 40
0.0054532017
 40
0.0082302519
 40
0.0110665199
 40
0.0139797039
 40
0.0169859829
 40
0.0200999141
 40
0.0233344008
 40
0.0267007145
 40
0.0302086362
 40
0.0338665065
 40
0.0376814358
 40
0.0416593677
 40
0.0458052497
 40
0.0501231396
 40
0.0546162795
 40
0.059287253
 40
0.0641379749
 40
0.0691698569
 40
0.0743837851
 40
0.0797802236
 40
0.0853592475
 40
0.091120549
 40
0.0970635401
 40
0.1031872872
 40
0.1094906342
 40
0.122629771
 40
0.1364673248
 40
0.150986028
 40
0.1661658166
 40
0.1819841497
 40
0.1984162706
 40
0.2154354241
 40
0.2330130434
 40
0.251118914
 40
0.2697213196
 40
0.2887871741
 40
0.3082821495
 40
0.3281707942
 40
0.3484166458
 40
0.3689823383
 40
0.3898297074
 40
0.4109198931
 40
0.4322134396
 40
0.4536703979
 40
0.4752504252
 40
0.496912883
 40
0.5186169358
 40
0.5403216477
 40
0.5619860811
 40
0.5835693946
 40
0.6050309417
 40
0.6263303693
 40
0.647427715
 40
0.6682835069
 40
0.6888588628
 40
0.7091155924
 40
0.7290163019
 40
0.7485244988
 40
0.7676046989
 40
0.7862225381
 40
0.8043448897
 40
0.8219399883
 40
0.8389775652
 40
0.8554289983
 40
0.8712674731
 40
0.8864681675
 40
0.9010084679
 40
0.9148682273
 40
0.928030078
 40
0.9343449249
 40
0.9404802778
 40
0.9464349222
 40
0.9522079436
 40
0.9577987067
 40
0.9632068911
 40
0.9684325654
 40
0.9734761401
 40
0.9783384911
 40
0.9830209352
 40
0.9875254368
 40
0.9918546053
 40
0.9960115672
 40
1.0
 40
1.0
 40
1.0
 40
1.0
 10
12.2932439465
 20
7.4072107657
 30
0.0
 10
12.2921334515
 20
7.4072877738
 30
0.0
 10
12.2899098202
 20
7.407542878
 30
0.0
 10
12.2866026708
 20
7.4082255036
 30
0.0
 10
12.283320533
 20
7.4092080846
 30
0.0
 10
12.2800657056
 20
7.410489551
 30
0.0
 10
12.2768399141
 20
7.4120688706
 30
0.0
 10
12.2736447781
 20
7.4139447332
 30
0.0
 10
12.2704817823
 20
7.4161158333
 30
0.0
 10
12.2673523485
 20
7.4185808066
 30
0.0
 10
12.2642577855
 20
7.4213381704
 30
0.0
 10
12.2611994907
 20
7.4243864782
 30
0.0
 10
12.2581787299
 20
7.4277240789
 30
0.0
 10
12.2551969038
 20
7.4313493287
 30
0.0
 10
12.2522553237
 20
7.4352603898
 30
0.0
 10
12.2493553588
 20
7.4394553402
 30
0.0
 10
12.2464983893
 20
7.4439321213
 30
0.0
 10
12.2436857332
 20
7.4486885106
 30
0.0
 10
12.2409188072
 20
7.4537221909
 30
0.0
 10
12.2381988956
 20
7.4590306515
 30
0.0
 10
12.235527388
 20
7.464611287
 30
0.0
 10
12.2329055694
 20
7.4704613177
 30
0.0
 10
12.2303347509
 20
7.476577842
 30
0.0
 10
12.2278162299
 20
7.4829578182
 30
0.0
 10
12.2253512265
 20
7.4895980594
 30
0.0
 10
12.222941032
 20
7.4964952585
 30
0.0
 10
12.2205867796
 20
7.5036459688
 30
0.0
 10
12.2174810285
 20
7.5136523025
 30
0.0
 10
12.2137582179
 20
7.5267746669
 30
0.0
 10
12.2095917526
 20
7.5432628703
 30
0.0
 10
12.2056750899
 20
7.5606702364
 30
0.0
 10
12.202016176
 20
7.5789618674
 30
0.0
 10
12.1986224553
 20
7.5981012301
 30
0.0
 10
12.1955008329
 20
7.6180499813
 30
0.0
 10
12.1926576629
 20
7.6387681317
 30
0.0
 10
12.1900987334
 20
7.6602141126
 30
0.0
 10
12.187829254
 20
7.6823448714
 30
0.0
 10
12.1858538468
 20
7.7051159592
 30
0.0
 10
12.1841765328
 20
7.7284816239
 30
0.0
 10
12.1828007278
 20
7.7523949063
 30
0.0
 10
12.1817292362
 20
7.7768077375
 30
0.0
 10
12.1809642461
 20
7.8016710384
 30
0.0
 10
12.1805073247
 20
7.8269348184
 30
0.0
 10
12.180359416
 20
7.8525482772
 30
0.0
 10
12.1805208393
 20
7.8784599068
 30
0.0
 10
12.1809912853
 20
7.9046175958
 30
0.0
 10
12.1817698198
 20
7.9309687359
 30
0.0
 10
12.1828548867
 20
7.9574603286
 30
0.0
 10
12.1842443106
 20
7.9840390925
 30
0.0
 10
12.1859353017
 20
8.0106515698
 30
0.0
 10
12.1879244611
 20
8.0372442345
 30
0.0
 10
12.1902077882
 20
8.0637636002
 30
0.0
 10
12.1927806851
 20
8.0901563287
 30
0.0
 10
12.1956379691
 20
8.116369338
 30
0.0
 10
12.1987738832
 20
8.1423499096
 30
0.0
 10
12.2021821076
 20
8.1680457942
 30
0.0
 10
12.2058557722
 20
8.1934053169
 30
0.0
 10
12.20978747
 20
8.2183774819
 30
0.0
 10
12.2139692726
 20
8.2429120766
 30
0.0
 10
12.2183927423
 20
8.2669597747
 30
0.0
 10
12.2230489517
 20
8.2904722361
 30
0.0
 10
12.2279285021
 20
8.3134022049
 30
0.0
 10
12.2330215417
 20
8.3357036053
 30
0.0
 10
12.2383177853
 20
8.3573316362
 30
0.0
 10
12.2438065348
 20
8.3782428638
 30
0.0
 10
12.2494767017
 20
8.3983953149
 30
0.0
 10
12.2553168259
 20
8.4177485659
 30
0.0
 10
12.2613151037
 20
8.4362638351
 30
0.0
 10
12.2674594131
 20
8.4539040457
 30
0.0
 10
12.2737373444
 20
8.4706339855
 30
0.0
 10
12.2801362232
 20
8.4864201238
 30
0.0
 10
12.2856318243
 20
8.4989295231
 30
0.0
 10
12.2900869559
 20
8.508433099
 30
0.0
 10
12.293404337
 20
8.5152069295
 30
0.0
 10
12.2967422782
 20
8.5217221553
 30
0.0
 10
12.30009911
 20
8.527975532
 30
0.0
 10
12.3034731435
 20
8.5339639389
 30
0.0
 10
12.3068627208
 20
8.5396843828
 30
0.0
 10
12.3102661132
 20
8.5451340371
 30
0.0
 10
12.3136816841
 20
8.5503101641
 30
0.0
 10
12.3171076736
 20
8.5552102135
 30
0.0
 10
12.3205424398
 20
8.5598317478
 30
0.0
 10
12.3239843141
 20
8.5641725194
 30
0.0
 10
12.3274316866
 20
8.5682304234
 30
0.0
 10
12.330882733
 20
8.5720032576
 30
0.0
 10
12.3332325698
 20
8.5743755035
 30
0.0
 10
12.3344081361
 20
8.5755110134
 30
0.0
  0
SPLINE
  5
3C4
100
AcDbEntity
  8
0
100
AcDbSpline
 62
7
  6
CONTINUOUS
 70
0
 71
3
 72
79
 73
75
 74
0
 42
0.0000001
 43
0.0000001
 44
0.0000000001
 40
0.0
 40
0.0
 40
0.0
 40
0.0
 40
0.0027966379
 40
0.005668168
 40
0.0086296961
 40
0.0116948219
 40
0.0181798611
 40
0.021622456
 40
0.0252084811
 40
0.0289446934
 40
0.032836775
 40
0.0368895163
 40
0.0411068217
 40
0.0454918871
 40
0.0500472582
 40
0.054774859
 40
0.0596761513
 40
0.0647520862
 40
0.0700032173
 40
0.075429748
 40
0.0810314923
 40
0.0927580784
 40
0.105176616
 40
0.1182763859
 40
0.1320434317
 40
0.1464609719
 40
0.1615097204
 40
0.1771681766
 40
0.1934128536
 40
0.2102184651
 40
0.2275580744
 40
0.2454032433
 40
0.263724175
 40
0.2824898325
 40
0.3016680432
 40
0.321225595
 40
0.3411283494
 40
0.36134134
 40
0.3818288643
 40
0.4234808514
 40
0.4657880735
 40
0.5084475313
 40
0.5511529964
 40
0.5935978253
 40
0.6354777522
 40
0.6561124935
 40
0.6764944266
 40
0.6965874473
 40
0.7163561375
 40
0.7357658522
 40
0.7547828119
 40
0.7733742056
 40
0.7915083035
 40
0.8091545527
 40
0.8262836872
 40
0.8428678503
 40
0.8588807471
 40
0.8742977924
 40
0.8890962719
 40
0.9032555427
 40
0.9167572812
 40
0.929585794
 40
0.941728368
 40
0.9531757216
 40
0.9586371635
 40
0.9639232462
 40
0.9690340583
 40
0.9739700796
 40
0.9787321761
 40
0.9833216622
 40
0.9877404875
 40
0.991991119
 40
0.9960764711
 40
1.0
 40
1.0
 40
1.0
 40
1.0
 10
12.2629504203
 20
7.5357406785
 30
0.0
 10
12.2621041598
 20
7.5360398742
 30
0.0
 10
12.2604133689
 20
7.5367175264
 30
0.0
 10
12.2579283053
 20
7.5379462218
 30
0.0
 10
12.2554660367
 20
7.5393980914
 30
0.0
 10
12.2521534431
 20
7.541672516
 30
0.0
 10
12.2489534984
 20
7.5443648761
 30
0.0
 10
12.2458691328
 20
7.5474157957
 30
0.0
 10
12.2435376305
 20
7.5499676571
 30
0.0
 10
12.2412354604
 20
7.5527358858
 30
0.0
 10
12.2389633496
 20
7.5557193706
 30
0.0
 10
12.2367224204
 20
7.558916676
 30
0.0
 10
12.2345136095
 20
7.5623262889
 30
0.0
 10
12.2323379426
 20
7.5659466163
 30
0.0
 10
12.2301964362
 20
7.5697759671
 30
0.0
 10
12.2280900389
 20
7.5738125213
 30
0.0
 10
12.2260197854
 20
7.5780543974
 30
0.0
 10
12.2239866145
 20
7.5824995788
 30
0.0
 10
12.2219914939
 20
7.5871459627
 30
0.0
 10
12.2200353764
 20
7.591991363
 30
0.0
 10
12.2174407929
 20
7.5988186809
 30
0.0
 10
12.2143112378
 20
7.6078410656
 30
0.0
 10
12.2107806904
 20
7.6192637914
 30
0.0
 10
12.2074267761
 20
7.6314202177
 30
0.0
 10
12.2042559511
 20
7.6442872
 30
0.0
 10
12.2012743468
 20
7.6578403767
 30
0.0
 10
12.198487724
 20
7.6720539514
 30
0.0
 10
12.1959014774
 20
7.6869008413
 30
0.0
 10
12.1935206176
 20
7.7023527201
 30
0.0
 10
12.1913497631
 20
7.7183800822
 30
0.0
 10
12.1893931191
 20
7.7349522957
 30
0.0
 10
12.1876544718
 20
7.7520376673
 30
0.0
 10
12.1861371899
 20
7.7696035121
 30
0.0
 10
12.1848442163
 20
7.7876162193
 30
0.0
 10
12.1837780636
 20
7.8060413129
 30
0.0
 10
12.1829407938
 20
7.8248435199
 30
0.0
 10
12.1823340376
 20
7.8439868303
 30
0.0
 10
12.1819589551
 20
7.8634346175
 30
0.0
 10
12.181767798
 20
7.8898658711
 30
0.0
 10
12.1821186772
 20
7.9233899535
 30
0.0
 10
12.183460407
 20
7.9640099044
 30
0.0
 10
12.1857152707
 20
8.0049280859
 30
0.0
 10
12.1888659994
 20
8.045831334
 30
0.0
 10
12.192888517
 20
8.0864065969
 30
0.0
 10
12.1969609593
 20
8.1198499911
 30
0.0
 10
12.200637686
 20
8.1462012883
 30
0.0
 10
12.2035784471
 20
8.1655935095
 30
0.0
 10
12.2067102028
 20
8.1846741712
 30
0.0
 10
12.2100269594
 20
8.2034067658
 30
0.0
 10
12.2135223377
 20
8.2217554204
 30
0.0
 10
12.2171896252
 20
8.2396850073
 30
0.0
 10
12.2210217756
 20
8.2571612063
 30
0.0
 10
12.2250114154
 20
8.2741505777
 30
0.0
 10
12.229150871
 20
8.2906206232
 30
0.0
 10
12.2334321799
 20
8.3065398446
 30
0.0
 10
12.2378471106
 20
8.3218778101
 30
0.0
 10
12.2423871657
 20
8.3366052226
 30
0.0
 10
12.2470436048
 20
8.3506939805
 30
0.0
 10
12.2518074686
 20
8.3641172269
 30
0.0
 10
12.2566695986
 20
8.3768494134
 30
0.0
 10
12.261620658
 20
8.3888663396
 30
0.0
 10
12.2666511538
 20
8.4001453078
 30
0.0
 10
12.2717514501
 20
8.4106648715
 30
0.0
 10
12.2761175823
 20
8.4189064812
 30
0.0
 10
12.279644844
 20
8.425095987
 30
0.0
 10
12.2822601154
 20
8.4294630109
 30
0.0
 10
12.2848855503
 20
8.4336258927
 30
0.0
 10
12.2875199056
 20
8.4375826676
 30
0.0
 10
12.2901619099
 20
8.4413314675
 30
0.0
 10
12.2928103784
 20
8.4448705164
 30
0.0
 10
12.2954640664
 20
8.4481982025
 30
0.0
 10
12.2981218138
 20
8.4513129529
 30
0.0
 10
12.3007822253
 20
8.454213156
 30
0.0
 10
12.3025927679
 20
8.456038991
 30
0.0
 10
12.3034985071
 20
8.456913868
 30
0.0
  0
SPLINE
  5
3C5
100
AcDbEntity
  8
0
100
AcDbSpline
 62
7
  6
CONTINUOUS
 70
0
 71
3
 72
15
 73
11
 74
0
 42
0.0000001
 43
0.0000001
 44
0.0000000001
 40
0.0
 40
0.0
 40
0.0
 40
0.0
 40
0.10844093
 40
0.2203198905
 40
0.3363916014
 40
0.4573220686
 40
0.5836913784
 40
0.7159978661
 40
0.8546571412
 40
1.0
 40
1.0
 40
1.0
 40
1.0
 10
12.3278276062
 20
8.4712415039
 30
0.0
 10
12.3268144939
 20
8.4710347061
 30
0.0
 10
12.3247750985
 20
8.470516158
 30
0.0
 10
12.3217455458
 20
8.4694511994
 30
0.0
 10
12.3187061687
 20
8.4680900681
 30
0.0
 10
12.3156591223
 20
8.4664341925
 30
0.0
 10
12.3126059676
 20
8.4644849382
 30
0.0
 10
12.3095483261
 20
8.4622437566
 30
0.0
 10
12.3064880635
 20
8.4597123397
 30
0.0
 10
12.3044952997
 20
8.4578766958
 30
0.0
 10
12.3034985071
 20
8.456913868
 30
0.0
  0
SPLINE
  5
3C6
100
AcDbEntity
  8
0
100
AcDbSpline
 62
7
  6
CONTINUOUS
 70
0
 71
3
 72
50
 73
46
 74
0
 42
0.0000001
 43
0.0000001
 44
0.0000000001
 40
0.0
 40
0.0
 40
0.0
 40
0.0
 40
0.0311431289
 40
0.0624393576
 40
0.0938826422
 40
0.1254633877
 40
0.1571693586
 40
0.1889858073
 40
0.2208957881
 40
0.2528805179
 40
0.2849197558
 40
0.3169922025
 40
0.3490759178
 40
0.3811487443
 40
0.413188734
 40
0.4451745738
 40
0.4770860011
 40
0.5089042032
 40
0.5406122026
 40
0.5721952059
 40
0.6036409272
 40
0.6349398689
 40
0.6660855498
 40
0.6816023422
 40
0.6970798651
 40
0.7125182278
 40
0.7279177509
 40
0.7432789634
 40
0.7586026044
 40
0.7738896213
 40
0.7891411632
 40
0.8043585763
 40
0.8195434009
 40
0.8346973614
 40
0.8498223561
 40
0.8649204511
 40
0.879993868
 40
0.8950449698
 40
0.9100762497
 40
0.9250903183
 40
0.940089886
 40
0.9550777481
 40
0.9700567702
 40
0.9850298702
 40
1.0
 40
1.0
 40
1.0
 40
1.0
 10
10.6740678266
 20
8.2188475903
 30
0.0
 10
10.6600335492
 20
8.2198208707
 30
0.0
 10
10.6319568009
 20
8.2227994827
 30
0.0
 10
10.590182086
 20
8.2303026317
 30
0.0
 10
10.5488548161
 20
8.2408123432
 30
0.0
 10
10.508198206
 20
8.254272059
 30
0.0
 10
10.4684282112
 20
8.2706096243
 30
0.0
 10
10.4297570258
 20
8.2897377068
 30
0.0
 10
10.3923906191
 20
8.3115540179
 30
0.0
 10
10.3565281186
 20
8.3359421088
 30
0.0
 10
10.3223606134
 20
8.3627718568
 30
0.0
 10
10.2900701187
 20
8.3919001172
 30
0.0
 10
10.2598287723
 20
8.4231716597
 30
0.0
 10
10.23179771
 20
8.4564197488
 30
0.0
 10
10.2061264003
 20
8.4914672242
 30
0.0
 10
10.18295179
 20
8.5281273468
 30
0.0
 10
10.1623974828
 20
8.5662047452
 30
0.0
 10
10.1445733175
 20
8.605496563
 30
0.0
 10
10.129574501
 20
8.645793418
 30
0.0
 10
10.1174813152
 20
8.6868804455
 30
0.0
 10
10.1083586413
 20
8.7285390354
 30
0.0
 10
10.1022554387
 20
8.7705455362
 30
0.0
 10
10.0997100149
 20
8.8057038962
 30
0.0
 10
10.0992140983
 20
8.8337745445
 30
0.0
 10
10.0996101474
 20
8.8547503032
 30
0.0
 10
10.1007733446
 20
8.8756442345
 30
0.0
 10
10.1027021011
 20
8.8964287886
 30
0.0
 10
10.1053939097
 20
8.9170761102
 30
0.0
 10
10.1088451736
 20
8.9375586476
 30
0.0
 10
10.1130512709
 20
8.9578490422
 30
0.0
 10
10.118006628
 20
8.9779201876
 30
0.0
 10
10.1237046567
 20
8.9977452649
 30
0.0
 10
10.1301377194
 20
9.0172978006
 30
0.0
 10
10.1372972476
 20
9.0365516705
 30
0.0
 10
10.1451737276
 20
9.0554811334
 30
0.0
 10
10.1537566096
 20
9.0740609109
 30
0.0
 10
10.1630344326
 20
9.0922661809
 30
0.0
 10
10.1729948506
 20
9.1100725943
 30
0.0
 10
10.1836245453
 20
9.1274563644
 30
0.0
 10
10.1949092984
 20
9.1443942729
 30
0.0
 10
10.2068340725
 20
9.1608636711
 30
0.0
 10
10.2193829239
 20
9.1768425208
 30
0.0
 10
10.2325391365
 20
9.1923095676
 30
0.0
 10
10.2462848458
 20
9.2072438552
 30
0.0
 10
10.2558304853
 20
9.216832559
 30
0.0
 10
10.260694314
 20
9.221530648
 30
0.0
  0
SPLINE
  5
3C7
100
AcDbEntity
  8
0
100
AcDbSpline
 62
7
  6
CONTINUOUS
 70
0
 71
3
 72
15
 73
11
 74
0
 42
0.0000001
 43
0.0000001
 44
0.0000000001
 40
0.0
 40
0.0
 40
0.0
 40
0.0
 40
0.1267769906
 40
0.2530093036
 40
0.3787060719
 40
0.503882836
 40
0.6285644519
 40
0.7527833341
 40
0.8765795322
 40
1.0
 40
1.0
 40
1.0
 40
1.0
 10
10.884228718
 20
8.6053733528
 30
0.0
 10
10.8922982748
 20
8.6048137272
 30
0.0
 10
10.9084416809
 20
8.6041927722
 30
0.0
 10
10.9326129645
 20
8.6047687048
 30
0.0
 10
10.9565998897
 20
8.6068515737
 30
0.0
 10
10.9803090332
 20
8.6104336662
 30
0.0
 10
11.0036493441
 20
8.6155012514
 30
0.0
 10
11.0265312157
 20
8.6220351508
 30
0.0
 10
11.0488653324
 20
8.6300097636
 30
0.0
 10
11.0633551555
 20
8.636276312
 30
0.0
 10
11.0704764217
 20
8.639637813
 30
0.0
  0
SPLINE
  5
3C8
100
AcDbEntity
  8
0
100
AcDbSpline
 62
7
  6
CONTINUOUS
 70
0
 71
3
 72
15
 73
11
 74
0
 42
0.0000001
 43
0.0000001
 44
0.0000000001
 40
0.0
 40
0.0
 40
0.0
 40
0.0
 40
0.1265817509
 40
0.2526913631
 40
0.3783263469
 40
0.5035022577
 40
0.6282331426
 40
0.7525411309
 40
0.8764528458
 40
1.0
 40
1.0
 40
1.0
 40
1.0
 10
10.8402295166
 20
6.6551697654
 30
0.0
 10
10.8446803361
 20
6.6548611
 30
0.0
 10
10.8535839225
 20
6.6544846
 30
0.0
 10
10.8669237758
 20
6.6546474116
 30
0.0
 10
10.8801856466
 20
6.6555384465
 30
0.0
 10
10.8933297644
 20
6.657154997
 30
0.0
 10
10.9063175557
 20
6.6594924335
 30
0.0
 10
10.9191107377
 20
6.6625439163
 30
0.0
 10
10.9316710398
 20
6.6663002991
 30
0.0
 10
10.9398771665
 20
6.6692717313
 30
0.0
 10
10.9439275024
 20
6.6708707634
 30
0.0
  0
SPLINE
  5
3C9
100
AcDbEntity
  8
0
100
AcDbSpline
 62
7
  6
CONTINUOUS
 70
0
 71
3
 72
14
 73
10
 74
0
 42
0.0000001
 43
0.0000001
 44
0.0000000001
 40
0.0
 40
0.0
 40
0.0
 40
0.0
 40
0.2471664748
 40
0.3746760877
 40
0.5034577617
 40
0.6321212158
 40
0.7589935257
 40
0.882231773
 40
1.0
 40
1.0
 40
1.0
 40
1.0
 10
10.8809179832
 20
8.9203815431
 30
0.0
 10
10.8962758652
 20
8.9121702332
 30
0.0
 10
10.9200742606
 20
8.9006556165
 30
0.0
 10
10.9529065688
 20
8.8872049299
 30
0.0
 10
10.9784324177
 20
8.8780054679
 30
0.0
 10
11.004295755
 20
8.8699538921
 30
0.0
 10
11.0301193124
 20
8.8631780023
 30
0.0
 10
11.0554763439
 20
8.8577598449
 30
0.0
 10
11.0722375197
 20
8.8549894754
 30
0.0
 10
11.0804546419
 20
8.8538345307
 30
0.0
  0
SPLINE
  5
3CA
100
AcDbEntity
  8
0
100
AcDbSpline
 62
7
  6
CONTINUOUS
 70
0
 71
3
 72
23
 73
19
 74
0
 42
0.0000001
 43
0.0000001
 44
0.0000000001
 40
0.0
 40
0.0
 40
0.0
 40
0.0
 40
0.0616482081
 40
0.123319443
 40
0.1850364742
 40
0.246821561
 40
0.3086962063
 40
0.3706809208
 40
0.4327950024
 40
0.4950563313
 40
0.5574811853
 40
0.6200840725
 40
0.6828776138
 40
0.7458723313
 40
0.8090768938
 40
0.8724970133
 40
0.9361380664
 40
1.0
 40
1.0
 40
1.0
 40
1.0
 10
10.9554398229
 20
6.4496825173
 30
0.0
 10
10.950894893
 20
6.4452924585
 30
0.0
 10
10.9415651955
 20
6.4367534493
 30
0.0
 10
10.9268996665
 20
6.4247131101
 30
0.0
 10
10.9115973003
 20
6.4134686251
 30
0.0
 10
10.8956971852
 20
6.4030488079
 30
0.0
 10
10.8792392544
 20
6.3934797578
 30
0.0
 10
10.8622650221
 20
6.3847855928
 30
0.0
 10
10.8448172529
 20
6.376988175
 30
0.0
 10
10.8269399128
 20
6.3701071136
 30
0.0
 10
10.8086780422
 20
6.3641597004
 30
0.0
 10
10.7900776447
 20
6.3591608615
 30
0.0
 10
10.7711855758
 20
6.355123142
 30
0.0
 10
10.7520493854
 20
6.3520566345
 30
0.0
 10
10.7327173387
 20
6.3499690501
 30
0.0
 10
10.7132378408
 20
6.3488655173
 30
0.0
 10
10.6936606663
 20
6.3487488359
 30
0.0
 10
10.6805979891
 20
6.3493281373
 30
0.0
 10
10.6740678266
 20
6.3497810057
 30
0.0
  0
SPLINE
  5
3CB
100
AcDbEntity
  8
0
100
AcDbSpline
 62
7
  6
CONTINUOUS
 70
0
 71
3
 72
23
 73
19
 74
0
 42
0.0000001
 43
0.0000001
 44
0.0000000001
 40
0.0
 40
0.0
 40
0.0
 40
0.0
 40
0.0638611429
 40
0.1275033697
 40
0.1909230193
 40
0.2541276602
 40
0.3171224166
 40
0.3799159195
 40
0.4425188183
 40
0.5049436681
 40
0.5672049987
 40
0.6293190785
 40
0.6913037901
 40
0.7531784362
 40
0.8149635271
 40
0.8766805602
 40
0.9383517934
 40
1.0
 40
1.0
 40
1.0
 40
1.0
 10
10.7169655842
 20
6.5361059426
 30
0.0
 10
10.7210771241
 20
6.5358208063
 30
0.0
 10
10.729301812
 20
6.5354560808
 30
0.0
 10
10.7416281969
 20
6.5355295146
 30
0.0
 10
10.7538931362
 20
6.53622436
 30
0.0
 10
10.7660651654
 20
6.5375387461
 30
0.0
 10
10.7781139027
 20
6.5394695235
 30
0.0
 10
10.7900089253
 20
6.5420118175
 30
0.0
 10
10.8017203029
 20
6.5451592455
 30
0.0
 10
10.8132185378
 20
6.5489039201
 30
0.0
 10
10.8244746577
 20
6.5532364537
 30
0.0
 10
10.8354603008
 20
6.5581459653
 30
0.0
 10
10.846147793
 20
6.5636200887
 30
0.0
 10
10.8565102104
 20
6.5696450586
 30
0.0
 10
10.8665214078
 20
6.5762057017
 30
0.0
 10
10.876156232
 20
6.583285597
 30
0.0
 10
10.8853900799
 20
6.5908665868
 30
0.0
 10
10.8912643461
 20
6.5962430068
 30
0.0
 10
10.8941259651
 20
6.5990071313
 30
0.0
  0
LINE
  5
3CC
100
AcDbEntity
  8
0
100
AcDbLine
 62
7
  6
CONTINUOUS
 10
10.8803092546
 20
8.9204805604
 11
10.8809179832
 21
8.9203815431
  0
SPLINE
  5
3CD
100
AcDbEntity
  8
0
100
AcDbSpline
 62
7
  6
CONTINUOUS
 70
0
 71
3
 72
15
 73
11
 74
0
 42
0.0000001
 43
0.0000001
 44
0.0000000001
 40
0.0
 40
0.0
 40
0.0
 40
0.0
 40
0.1232703564
 40
0.2468937837
 40
0.3709563335
 40
0.4955329274
 40
0.6206854484
 40
0.7464620977
 40
0.8728938319
 40
1.0
 40
1.0
 40
1.0
 40
1.0
 10
10.9605994612
 20
6.7296338313
 30
0.0
 10
10.9563363242
 20
6.7269284473
 30
0.0
 10
10.947571809
 20
6.7218571502
 30
0.0
 10
10.9338310876
 20
6.715334982
 30
0.0
 10
10.9195577829
 20
6.7099242933
 30
0.0
 10
10.9048370954
 20
6.7056574661
 30
0.0
 10
10.8897554674
 20
6.7025591828
 30
0.0
 10
10.8744014559
 20
6.700647566
 30
0.0
 10
10.8588664534
 20
6.6999334497
 30
0.0
 10
10.8484746712
 20
6.700257756
 30
0.0
 10
10.8432809297
 20
6.7006179432
 30
0.0
  0
SPLINE
  5
3CE
100
AcDbEntity
  8
0
100
AcDbSpline
 62
7
  6
CONTINUOUS
 70
0
 71
3
 72
25
 73
21
 74
0
 42
0.0000001
 43
0.0000001
 44
0.0000000001
 40
0.0
 40
0.0
 40
0.0
 40
0.0
 40
0.0638411207
 40
0.1274667031
 40
0.1908773776
 40
0.2540775747
 40
0.3170727467
 40
0.3798708078
 40
0.4424814776
 40
0.5049164127
 40
0.5671890365
 40
0.6293144377
 40
0.6913092214
 40
0.7222658014
 40
0.7531965664
 40
0.8149851747
 40
0.876700383
 40
0.9075396015
 40
0.938368358
 40
1.0
 40
1.0
 40
1.0
 40
1.0
 10
10.6823500294
 20
8.2268475843
 30
0.0
 10
10.6916964371
 20
8.2261994088
 30
0.0
 10
10.7103923828
 20
8.2253582394
 30
0.0
 10
10.7384146616
 20
8.2254706277
 30
0.0
 10
10.7663042221
 20
8.2269589565
 30
0.0
 10
10.7939934968
 20
8.2298197082
 30
0.0
 10
10.8214166396
 20
8.2340461682
 30
0.0
 10
10.8485080325
 20
8.2396282716
 30
0.0
 10
10.87520297
 20
8.246552769
 30
0.0
 10
10.9014376113
 20
8.2548031533
 30
0.0
 10
10.927149355
 20
8.2643598302
 30
0.0
 10
10.9522763208
 20
8.2751997899
 30
0.0
 10
10.9726891921
 20
8.2852864993
 30
0.0
 10
10.988663849
 20
8.293969127
 30
0.0
 10
11.0043815216
 20
8.3030484558
 30
0.0
 10
11.0235584609
 20
8.3151472993
 30
0.0
 10
11.0420672899
 20
8.3282221521
 30
0.0
 10
11.0564367946
 20
8.3392422513
 30
0.0
 10
11.0705033606
 20
8.3506263366
 30
0.0
 10
11.0807137455
 20
8.3595752201
 30
0.0
 10
11.0873571487
 20
8.3657128217
 30
0.0
  0
SPLINE
  5
3CF
100
AcDbEntity
  8
0
100
AcDbSpline
 62
7
  6
CONTINUOUS
 70
0
 71
3
 72
27
 73
23
 74
0
 42
0.0000001
 43
0.0000001
 44
0.0000000001
 40
0.0
 40
0.0
 40
0.0
 40
0.0
 40
0.06164689
 40
0.0924803204
 40
0.1233223709
 40
0.1850380842
 40
0.2468218522
 40
0.2777487695
 40
0.3087006862
 40
0.3706840773
 40
0.432796832
 40
0.4950568298
 40
0.5574803489
 40
0.6200818994
 40
0.6828740929
 40
0.7143476873
 40
0.7458727129
 40
0.8090758403
 40
0.872494838
 40
0.9042889691
 40
0.9361391443
 40
1.0
 40
1.0
 40
1.0
 40
1.0
 10
11.0874413391
 20
8.3656163339
 30
0.0
 10
11.0807642219
 20
8.3591667459
 30
0.0
 10
11.0704843897
 20
8.3497582027
 30
0.0
 10
11.0562895192
 20
8.3377811968
 30
0.0
 10
11.0417696284
 20
8.3261830007
 30
0.0
 10
11.0230307986
 20
8.312413238
 30
0.0
 10
11.0035703669
 20
8.2996603647
 30
0.0
 10
10.9875964899
 20
8.2900844941
 30
0.0
 10
10.9713466218
 20
8.28092353
 30
0.0
 10
10.9505547303
 20
8.2702738983
 30
0.0
 10
10.9249218575
 20
8.2588186121
 30
0.0
 10
10.8986575761
 20
8.2487093698
 30
0.0
 10
10.8718283643
 20
8.2399718145
 30
0.0
 10
10.8445021521
 20
8.2326278879
 30
0.0
 10
10.8213900506
 20
8.2276882775
 30
0.0
 10
10.8027244973
 20
8.2244488445
 30
0.0
 10
10.7839204679
 20
8.2216819004
 30
0.0
 10
10.7602318166
 20
8.2191237901
 30
0.0
 10
10.7364033436
 20
8.2177739673
 30
0.0
 10
10.7172704156
 20
8.2174171265
 30
0.0
 10
10.698068431
 20
8.2175433695
 30
0.0
 10
10.6836615606
 20
8.2181822626
 30
0.0
 10
10.6740678266
 20
8.2188475903
 30
0.0
  0
SPLINE
  5
3D0
100
AcDbEntity
  8
0
100
AcDbSpline
 62
7
  6
CONTINUOUS
 70
0
 71
3
 72
49
 73
45
 74
0
 42
0.0000001
 43
0.0000001
 44
0.0000000001
 40
0.0
 40
0.0
 40
0.0
 40
0.0
 40
0.0311309345
 40
0.0624135784
 40
0.0938420824
 40
0.1254070595
 40
0.1570965826
 40
0.1888962611
 40
0.2207895525
 40
0.2527581044
 40
0.2847821235
 40
0.3168407582
 40
0.3489124997
 40
0.3809755911
 40
0.4130084397
 40
0.444990026
 40
0.4769003064
 40
0.5087206042
 40
0.5404339764
 40
0.5720255618
 40
0.6034828958
 40
0.6347961828
 40
0.6659585342
 40
0.696966147
 40
0.7124141744
 40
0.727823569
 40
0.7431947683
 40
0.7585284122
 40
0.7738253458
 40
0.7890866134
 40
0.8043134515
 40
0.819507289
 40
0.8346697379
 40
0.849802583
 40
0.8649077768
 40
0.8799874291
 40
0.8950437926
 40
0.9100792534
 40
0.9250963189
 40
0.940097601
 40
0.9550858023
 40
0.9700637027
 40
0.9850341415
 40
1.0
 40
1.0
 40
1.0
 40
1.0
 10
10.6823500294
 20
8.2268475843
 30
0.0
 10
10.6684404252
 20
8.2278122187
 30
0.0
 10
10.6406132393
 20
8.2307552389
 30
0.0
 10
10.5992048012
 20
8.2381517487
 30
0.0
 10
10.5582320202
 20
8.2485025596
 30
0.0
 10
10.5179122992
 20
8.2617530078
 30
0.0
 10
10.4784560395
 20
8.2778332868
 30
0.0
 10
10.4400700335
 20
8.2966589255
 30
0.0
 10
10.4029551746
 20
8.3181311035
 30
0.0
 10
10.3673057192
 20
8.3421371397
 30
0.0
 10
10.3333083014
 20
8.3685512519
 30
0.0
 10
10.3011408679
 20
8.3972350142
 30
0.0
 10
10.2709717935
 20
8.4280381683
 30
0.0
 10
10.2429590999
 20
8.4607994701
 30
0.0
 10
10.2172494579
 20
8.4953473604
 30
0.0
 10
10.1939775683
 20
8.5315009954
 30
0.0
 10
10.1732654704
 20
8.5690711573
 30
0.0
 10
10.155221739
 20
8.6078611481
 30
0.0
 10
10.1399411305
 20
8.6476679174
 30
0.0
 10
10.1275039859
 20
8.6882830861
 30
0.0
 10
10.1179757101
 20
8.7294938413
 30
0.0
 10
10.1114066844
 20
8.7710847397
 30
0.0
 10
10.1078316432
 20
8.8128363724
 30
0.0
 10
10.1073630588
 20
8.8476301303
 30
0.0
 10
10.1085018825
 20
8.8753200658
 30
0.0
 10
10.1101077089
 20
8.8959675626
 30
0.0
 10
10.1124642442
 20
8.9164910975
 30
0.0
 10
10.1155684367
 20
8.9368640833
 30
0.0
 10
10.1194161808
 20
8.957059704
 30
0.0
 10
10.1240024442
 20
8.9770514866
 30
0.0
 10
10.129321276
 20
8.9968131774
 30
0.0
 10
10.1353656635
 20
9.0163188554
 30
0.0
 10
10.1421276809
 20
9.0355429261
 30
0.0
 10
10.1495985205
 20
9.0544601387
 30
0.0
 10
10.1577683532
 20
9.0730456757
 30
0.0
 10
10.1666264505
 20
9.0912751516
 30
0.0
 10
10.1761612468
 20
9.1091246123
 30
0.0
 10
10.1863602137
 20
9.1265706363
 30
0.0
 10
10.197209945
 20
9.1435903372
 30
0.0
 10
10.2086962559
 20
9.1601613494
 30
0.0
 10
10.2208040449
 20
9.1762619015
 30
0.0
 10
10.2335174669
 20
9.1918709579
 30
0.0
 10
10.2468195902
 20
9.2069677181
 30
0.0
 10
10.2560700192
 20
9.2166790339
 30
0.0
 10
10.2607864809
 20
9.2214418643
 30
0.0
  0
SPLINE
  5
3D1
100
AcDbEntity
  8
0
100
AcDbSpline
 62
7
  6
CONTINUOUS
 70
0
 71
3
 72
21
 73
17
 74
0
 42
0.0000001
 43
0.0000001
 44
0.0000000001
 40
0.0
 40
0.0
 40
0.0
 40
0.0
 40
0.0615987683
 40
0.1232547482
 40
0.1849844603
 40
0.2468038058
 40
0.3087279283
 40
0.3707710844
 40
0.4329465389
 40
0.4952664614
 40
0.557741832
 40
0.6203823644
 40
0.6831963576
 40
0.7461908975
 40
0.8727101508
 40
1.0
 40
1.0
 40
1.0
 40
1.0
 10
11.1029725623
 20
8.732025297
 30
0.0
 10
11.0992614341
 20
8.7291454812
 30
0.0
 10
11.0916992378
 20
8.7235566425
 30
0.0
 10
11.0799700903
 20
8.7157104743
 30
0.0
 10
11.0678722911
 20
8.7084123889
 30
0.0
 10
11.0554294522
 20
8.7016766827
 30
0.0
 10
11.0426654364
 20
8.6955162633
 30
0.0
 10
11.0296048471
 20
8.6899429917
 30
0.0
 10
11.0162728324
 20
8.6849675525
 30
0.0
 10
11.0026950638
 20
8.6805995064
 30
0.0
 10
10.9888976477
 20
8.6768472655
 30
0.0
 10
10.9749072283
 20
8.6737180249
 30
0.0
 10
10.9607504347
 20
8.6712177482
 30
0.0
 10
10.9416647844
 20
8.6687257251
 30
0.0
 10
10.9175200461
 20
8.6672105963
 30
0.0
 10
10.8981427528
 20
8.6677094892
 30
0.0
 10
10.8884590861
 20
8.6683810538
 30
0.0
  0
SPLINE
  5
3D2
100
AcDbEntity
  8
0
100
AcDbSpline
 62
7
  6
CONTINUOUS
 70
0
 71
3
 72
71
 73
67
 74
0
 42
0.0000001
 43
0.0000001
 44
0.0000000001
 40
0.0
 40
0.0
 40
0.0
 40
0.0
 40
0.0156745307
 40
0.0314011363
 40
0.0471782414
 40
0.0630046557
 40
0.0788782415
 40
0.0947966374
 40
0.1107570162
 40
0.1267561967
 40
0.1427906525
 40
0.1588565494
 40
0.174949781
 40
0.1910660048
 40
0.2072006809
 40
0.2233491111
 40
0.2395064798
 40
0.255667895
 40
0.2718284301
 40
0.2879831666
 40
0.3041272351
 40
0.3202558575
 40
0.3363643875
 40
0.3524483509
 40
0.3685034846
 40
0.384525775
 40
0.4005114946
 40
0.4164572358
 40
0.4323599436
 40
0.448216945
 40
0.4640259763
 40
0.4797852067
 40
0.4954932593
 40
0.5111492287
 40
0.5267526932
 40
0.5423037244
 40
0.5578028908
 40
0.5732512573
 40
0.5886503803
 40
0.6040022968
 40
0.6193095095
 40
0.6345749662
 40
0.649802034
 40
0.6649944681
 40
0.6801563769
 40
0.6952921818
 40
0.7104065733
 40
0.7255044639
 40
0.7405909382
 40
0.7556711997
 40
0.7707505174
 40
0.7858341698
 40
0.8009273903
 40
0.816035312
 40
0.8311629148
 40
0.8463149742
 40
0.861496013
 40
0.8767102559
 40
0.8919615891
 40
0.9072535214
 40
0.9225891548
 40
0.9379711532
 40
0.9534017142
 40
0.9688826169
 40
0.9844148954
 40
1.0
 40
1.0
 40
1.0
 40
1.0
 10
10.6823500294
 20
8.3475883198
 30
0.0
 10
10.6749921824
 20
8.3480985882
 30
0.0
 10
10.6602743584
 20
8.3494777687
 30
0.0
 10
10.6382887079
 20
8.3526080275
 30
0.0
 10
10.6164065954
 20
8.3567961132
 30
0.0
 10
10.5946803484
 20
8.3620319158
 30
0.0
 10
10.5731608455
 20
8.3683031874
 30
0.0
 10
10.5518988451
 20
8.3755950602
 30
0.0
 10
10.5309443803
 20
8.3838903572
 30
0.0
 10
10.5103467917
 20
8.3931695097
 30
0.0
 10
10.4901545672
 20
8.4034106428
 30
0.0
 10
10.4704152387
 20
8.4145896144
 30
0.0
 10
10.4511752709
 20
8.4266800818
 30
0.0
 10
10.432479953
 20
8.4396535616
 30
0.0
 10
10.4143732929
 20
8.4534794965
 30
0.0
 10
10.3968979146
 20
8.4681253272
 30
0.0
 10
10.3800949587
 20
8.4835565684
 30
0.0
 10
10.3640039848
 20
8.4997368881
 30
0.0
 10
10.3486628728
 20
8.5166281874
 30
0.0
 10
10.3341077404
 20
8.5341906984
 30
0.0
 10
10.320372859
 20
8.5523830756
 30
0.0
 10
10.3074905727
 20
8.5711624935
 30
0.0
 10
10.2954912235
 20
8.5904847464
 30
0.0
 10
10.2844030797
 20
8.610304351
 30
0.0
 10
10.2742522709
 20
8.6305746541
 30
0.0
 10
10.2650627173
 20
8.6512479367
 30
0.0
 10
10.2568560782
 20
8.6722755297
 30
0.0
 10
10.2496517043
 20
8.6936079294
 30
0.0
 10
10.2434665921
 20
8.7151949124
 30
0.0
 10
10.2383153432
 20
8.7369856531
 30
0.0
 10
10.2342101302
 20
8.758928842
 30
0.0
 10
10.2311606683
 20
8.7809728057
 30
0.0
 10
10.2291741874
 20
8.8030656273
 30
0.0
 10
10.2282554088
 20
8.8251552683
 30
0.0
 10
10.2284065438
 20
8.8471896923
 30
0.0
 10
10.2296272857
 20
8.8691169862
 30
0.0
 10
10.2319148103
 20
8.8908854817
 30
0.0
 10
10.235263781
 20
8.9124438764
 30
0.0
 10
10.2396663601
 20
8.9337413545
 30
0.0
 10
10.2451122269
 20
8.9547277058
 30
0.0
 10
10.2515885891
 20
8.9753534477
 30
0.0
 10
10.2590802218
 20
8.9955699416
 30
0.0
 10
10.2675695031
 20
9.0153295067
 30
0.0
 10
10.2770364544
 20
9.0345855338
 30
0.0
 10
10.2874587866
 20
9.053292595
 30
0.0
 10
10.2988119513
 20
9.0714065532
 30
0.0
 10
10.3110691996
 20
9.0888846653
 30
0.0
 10
10.3242016386
 20
9.1056856895
 30
0.0
 10
10.3381782992
 20
9.1217699858
 30
0.0
 10
10.3529662173
 20
9.1370996058
 30
0.0
 10
10.36853051
 20
9.1516383841
 30
0.0
 10
10.3848344595
 20
9.1653520247
 30
0.0
 10
10.4018396003
 20
9.1782081823
 30
0.0
 10
10.4195058109
 20
9.1901765393
 30
0.0
 10
10.4377914096
 20
9.2012288777
 30
0.0
 10
10.4566532489
 20
9.2113391557
 30
0.0
 10
10.4760468256
 20
9.2204835597
 30
0.0
 10
10.4959263871
 20
9.2286405602
 30
0.0
 10
10.5162450398
 20
9.2357909608
 30
0.0
 10
10.5369548624
 20
9.2419179442
 30
0.0
 10
10.5580070136
 20
9.2470071092
 30
0.0
 10
10.5793518652
 20
9.2510464978
 30
0.0
 10
10.6009390646
 20
9.2540266606
 30
0.0
 10
10.6227178331
 20
9.2559405696
 30
0.0
 10
10.6446364172
 20
9.2567839135
 30
0.0
 10
10.6592844905
 20
9.2566312157
 30
0.0
 10
10.6666135283
 20
9.2563771355
 30
0.0
  0
SPLINE
  5
3D3
100
AcDbEntity
  8
0
100
AcDbSpline
 62
7
  6
CONTINUOUS
 70
0
 71
3
 72
15
 73
11
 74
0
 42
0.0000001
 43
0.0000001
 44
0.0000000001
 40
0.0
 40
0.0
 40
0.0
 40
0.0
 40
0.1265435369
 40
0.2498718337
 40
0.3713381771
 40
0.4923645349
 40
0.6143898056
 40
0.7388149646
 40
0.8669542867
 40
1.0
 40
1.0
 40
1.0
 40
1.0
 10
11.2174672801
 20
10.1298725724
 30
0.0
 10
11.217066816
 20
10.1309402724
 30
0.0
 10
11.21637947
 20
10.1330894467
 30
0.0
 10
11.2157043607
 20
10.1363734345
 30
0.0
 10
11.215402802
 20
10.139663249
 30
0.0
 10
11.2154757715
 20
10.1429543035
 30
0.0
 10
11.2159229809
 20
10.1462423805
 30
0.0
 10
11.2167434039
 20
10.1495234695
 30
0.0
 10
11.2179350601
 20
10.1527936845
 30
0.0
 10
11.2189540925
 20
10.1549197408
 30
0.0
 10
11.2195192107
 20
10.1559771251
 30
0.0
  0
SPLINE
  5
3D4
100
AcDbEntity
  8
0
100
AcDbSpline
 62
7
  6
CONTINUOUS
 70
0
 71
3
 72
11
 73
7
 74
0
 42
0.0000001
 43
0.0000001
 44
0.0000000001
 40
0.0
 40
0.0
 40
0.0
 40
0.0
 40
0.2428904492
 40
0.4886891857
 40
0.7401944715
 40
1.0
 40
1.0
 40
1.0
 40
1.0
 10
11.2166333466
 20
10.1341147401
 30
0.0
 10
11.2166333424
 20
10.1352106473
 30
0.0
 10
11.2167597101
 20
10.1374175862
 30
0.0
 10
11.2173266303
 20
10.1407155439
 30
0.0
 10
11.2182698833
 20
10.1440052824
 30
0.0
 10
11.2191319857
 20
10.1461499153
 30
0.0
 10
11.2196196427
 20
10.1472158922
 30
0.0
  0
SPLINE
  5
3D5
100
AcDbEntity
  8
0
100
AcDbSpline
 62
7
  6
CONTINUOUS
 70
0
 71
3
 72
71
 73
67
 74
0
 42
0.0000001
 43
0.0000001
 44
0.0000000001
 40
0.0
 40
0.0
 40
0.0
 40
0.0
 40
0.0156739048
 40
0.0313994263
 40
0.0471748818
 40
0.0629992145
 40
0.0788703116
 40
0.0947858868
 40
0.1107431937
 40
0.1267391385
 40
0.1427702934
 40
0.1588329292
 40
0.1749230495
 40
0.1910364251
 40
0.2071686309
 40
0.2233150834
 40
0.23947108
 40
0.2556318389
 40
0.2717925389
 40
0.2879483589
 40
0.3040945185
 40
0.3202263175
 40
0.3363391758
 40
0.3524286729
 40
0.368490585
 40
0.3845209217
 40
0.4005159607
 40
0.4164722815
 40
0.4323867974
 40
0.4482567849
 40
0.4640799104
 40
0.4798542533
 40
0.4955783274
 40
0.5112510976
 40
0.5268719941
 40
0.5424409233
 40
0.5579582721
 40
0.5734249098
 40
0.5888421839
 40
0.604211912
 40
0.6195363693
 40
0.6348182708
 40
0.6500607488
 40
0.6652673249
 40
0.6804418778
 40
0.695588607
 40
0.7107119919
 40
0.7258167489
 40
0.7409077842
 40
0.7559901442
 40
0.7710689639
 40
0.7861494146
 40
0.8012366508
 40
0.8163357571
 40
0.8314516971
 40
0.8465892631
 40
0.8617530279
 40
0.8769472998
 40
0.8921760805
 40
0.9074430274
 40
0.9227514182
 40
0.9381041291
 40
0.953503588
 40
0.9689518136
 40
0.9844502892
 40
1.0
 40
1.0
 40
1.0
 40
1.0
 10
10.7108201008
 20
8.4035583954
 30
0.0
 10
10.7039954883
 20
8.4040316838
 30
0.0
 10
10.6903442933
 20
8.4053074484
 30
0.0
 10
10.6699505995
 20
8.4081954867
 30
0.0
 10
10.6496509419
 20
8.4120546877
 30
0.0
 10
10.6294928911
 20
8.4168758901
 30
0.0
 10
10.6095226518
 20
8.4226480752
 30
0.0
 10
10.5897863654
 20
8.4293578342
 30
0.0
 10
10.5703295157
 20
8.4369896958
 30
0.0
 10
10.5511969682
 20
8.4455260212
 30
0.0
 10
10.532432829
 20
8.4549470964
 30
0.0
 10
10.5140803557
 20
8.465231174
 30
0.0
 10
10.4961818566
 20
8.4763545227
 30
0.0
 10
10.4787785946
 20
8.488291482
 30
0.0
 10
10.4619106941
 20
8.5010145219
 30
0.0
 10
10.4456170434
 20
8.5144942982
 30
0.0
 10
10.4299352012
 20
8.5286997175
 30
0.0
 10
10.4149013198
 20
8.5435980211
 30
0.0
 10
10.4005500606
 20
8.5591548569
 30
0.0
 10
10.3869145155
 20
8.5753343586
 30
0.0
 10
10.3740261317
 20
8.5920992275
 30
0.0
 10
10.3619146381
 20
8.6094108164
 30
0.0
 10
10.3506079635
 20
8.6272292102
 30
0.0
 10
10.3401321871
 20
8.6455133292
 30
0.0
 10
10.3305114775
 20
8.6642210217
 30
0.0
 10
10.3217680383
 20
8.6833091603
 30
0.0
 10
10.3139220564
 20
8.7027337399
 30
0.0
 10
10.3069916574
 20
8.7224499787
 30
0.0
 10
10.3009928465
 20
8.7424124153
 30
0.0
 10
10.2959394838
 20
8.762575019
 30
0.0
 10
10.2918432556
 20
8.7828912958
 30
0.0
 10
10.2887136468
 20
8.8033143941
 30
0.0
 10
10.2865579185
 20
8.8237972114
 30
0.0
 10
10.2853810932
 20
8.8442925015
 30
0.0
 10
10.2851859285
 20
8.8647529829
 30
0.0
 10
10.2859729119
 20
8.8851314488
 30
0.0
 10
10.2877402705
 20
8.9053808764
 30
0.0
 10
10.2904839722
 20
8.9254545337
 30
0.0
 10
10.2941977335
 20
8.9453060867
 30
0.0
 10
10.2988730346
 20
8.9648897052
 30
0.0
 10
10.304499132
 20
8.9841601701
 30
0.0
 10
10.3110630706
 20
9.0030729827
 30
0.0
 10
10.3185497319
 20
9.0215844635
 30
0.0
 10
10.3269418639
 20
9.0396518539
 30
0.0
 10
10.3362201214
 20
9.0572334148
 30
0.0
 10
10.3463631087
 20
9.0742885234
 30
0.0
 10
10.3573474291
 20
9.0907777675
 30
0.0
 10
10.3691477227
 20
9.1066630491
 30
0.0
 10
10.3817367412
 20
9.1219076652
 30
0.0
 10
10.3950854108
 20
9.1364763925
 30
0.0
 10
10.4091629001
 20
9.1503355696
 30
0.0
 10
10.4239366906
 20
9.163453176
 30
0.0
 10
10.4393726541
 20
9.1757989038
 30
0.0
 10
10.4554351216
 20
9.1873442425
 30
0.0
 10
10.4720869738
 20
9.1980625406
 30
0.0
 10
10.4892897332
 20
9.2079290599
 30
0.0
 10
10.5070036524
 20
9.2169210341
 30
0.0
 10
10.5251878069
 20
9.2250177208
 30
0.0
 10
10.5438001905
 20
9.2322004464
 30
0.0
 10
10.5627978103
 20
9.2384526572
 30
0.0
 10
10.5821367827
 20
9.2437599671
 30
0.0
 10
10.6017724565
 20
9.248110161
 30
0.0
 10
10.6216594566
 20
9.2514932566
 30
0.0
 10
10.6417520312
 20
9.2539014661
 30
0.0
 10
10.66200315
 20
9.2553292908
 30
0.0
 10
10.67555742
 20
9.2556249251
 30
0.0
 10
10.682344201
 20
9.2556094593
 30
0.0
  0
SPLINE
  5
3D6
100
AcDbEntity
  8
0
100
AcDbSpline
 62
7
  6
CONTINUOUS
 70
0
 71
3
 72
39
 73
35
 74
0
 42
0.0000001
 43
0.0000001
 44
0.0000000001
 40
0.0
 40
0.0
 40
0.0
 40
0.0
 40
0.0311450455
 40
0.0624431164
 40
0.0938883393
 40
0.1254709908
 40
0.1571788842
 40
0.1889972611
 40
0.2209091754
 40
0.2528958436
 40
0.2849370232
 40
0.3170114138
 40
0.3490970739
 40
0.3811718446
 40
0.4132137767
 40
0.445201556
 40
0.4771149185
 40
0.5089350509
 40
0.540644973
 40
0.5722298923
 40
0.6036775226
 40
0.6349783631
 40
0.6661259342
 40
0.6971169552
 40
0.727951459
 40
0.7586328418
 40
0.7891678426
 40
0.8195664426
 40
0.8498416846
 40
0.8800094167
 40
0.9100879628
 40
0.9400977197
 40
0.9700606953
 40
1.0
 40
1.0
 40
1.0
 40
1.0
 10
10.7200147922
 20
8.4467548715
 30
0.0
 10
10.7104620473
 20
8.4474173567
 30
0.0
 10
10.6913510045
 20
8.4494448038
 30
0.0
 10
10.6629161394
 20
8.4545520119
 30
0.0
 10
10.6347858388
 20
8.4617056504
 30
0.0
 10
10.6071120185
 20
8.4708672821
 30
0.0
 10
10.580041717
 20
8.4819878196
 30
0.0
 10
10.5537193258
 20
8.4950077471
 30
0.0
 10
10.5282850629
 20
8.5098574836
 30
0.0
 10
10.5038744637
 20
8.5264577545
 30
0.0
 10
10.4806176001
 20
8.5447199959
 30
0.0
 10
10.4586383772
 20
8.5645467838
 30
0.0
 10
10.4380539182
 20
8.5858324104
 30
0.0
 10
10.4189739519
 20
8.6084634346
 30
0.0
 10
10.401500216
 20
8.6323192601
 30
0.0
 10
10.3857258857
 20
8.6572727529
 30
0.0
 10
10.3717351347
 20
8.6831909542
 30
0.0
 10
10.3596026919
 20
8.709935772
 30
0.0
 10
10.3493934112
 20
8.7373646884
 30
0.0
 10
10.3411619036
 20
8.7653315087
 30
0.0
 10
10.3349522999
 20
8.7936871521
 30
0.0
 10
10.3307980139
 20
8.8222804271
 30
0.0
 10
10.3287215076
 20
8.850958816
 30
0.0
 10
10.3287341579
 20
8.8795692876
 30
0.0
 10
10.3308362353
 20
8.9079591076
 30
0.0
 10
10.3350168893
 20
8.935976639
 30
0.0
 10
10.3412541253
 20
8.9634721534
 30
0.0
 10
10.3495149253
 20
8.9902986426
 30
0.0
 10
10.3597554325
 20
9.0163125858
 30
0.0
 10
10.3719212172
 20
9.0413747656
 30
0.0
 10
10.3859473012
 20
9.0653508766
 30
0.0
 10
10.4017592207
 20
9.0881129296
 30
0.0
 10
10.419270882
 20
9.1095374367
 30
0.0
 10
10.4320216842
 20
9.1228578377
 30
0.0
 10
10.4386424179
 20
9.1292529541
 30
0.0
  0
SPLINE
  5
3D7
100
AcDbEntity
  8
0
100
AcDbSpline
 62
7
  6
CONTINUOUS
 70
0
 71
3
 72
23
 73
19
 74
0
 42
0.0000001
 43
0.0000001
 44
0.0000000001
 40
0.0
 40
0.0
 40
0.0
 40
0.0
 40
0.0772036704
 40
0.1531797583
 40
0.2277455602
 40
0.3007325455
 40
0.3719721351
 40
0.4413032672
 40
0.5085712246
 40
0.5736285352
 40
0.6363359043
 40
0.6965630325
 40
0.75418979
 40
0.8091074085
 40
0.8612198871
 40
0.910445804
 40
0.9567206603
 40
1.0
 40
1.0
 40
1.0
 40
1.0
 10
10.8803092546
 20
8.9204805604
 30
0.0
 10
10.8760572196
 20
8.9201631352
 30
0.0
 10
10.8676250235
 20
8.9194744435
 30
0.0
 10
10.8551043463
 20
8.918269222
 30
0.0
 10
10.8428345319
 20
8.9169023168
 30
0.0
 10
10.8308469938
 20
8.9153772996
 30
0.0
 10
10.8191720568
 20
8.9136980282
 30
0.0
 10
10.8078394553
 20
8.911868823
 30
0.0
 10
10.796877965
 20
8.9098943758
 30
0.0
 10
10.7863154187
 20
8.9077797505
 30
0.0
 10
10.776178623
 20
8.905530373
 30
0.0
 10
10.7664932778
 20
8.9031520081
 30
0.0
 10
10.7572839042
 20
8.900650761
 30
0.0
 10
10.7485737617
 20
8.8980330467
 30
0.0
 10
10.7403848192
 20
8.8953055779
 30
0.0
 10
10.7327375663
 20
8.8924752876
 30
0.0
 10
10.7256513407
 20
8.8895494664
 30
0.0
 10
10.7211614882
 20
8.8874700337
 30
0.0
 10
10.7190184334
 20
8.8864114074
 30
0.0
  0
SPLINE
  5
3D8
100
AcDbEntity
  8
0
100
AcDbSpline
 62
7
  6
CONTINUOUS
 70
0
 71
3
 72
39
 73
35
 74
0
 42
0.0000001
 43
0.0000001
 44
0.0000000001
 40
0.0
 40
0.0
 40
0.0
 40
0.0
 40
0.0310834485
 40
0.0623132941
 40
0.0936843885
 40
0.1251880727
 40
0.1568136054
 40
0.1885479005
 40
0.220375909
 40
0.2522808874
 40
0.2842447142
 40
0.3162482207
 40
0.3482715348
 40
0.3802944339
 40
0.4122967027
 40
0.4442584912
 40
0.4761606666
 40
0.5079851576
 40
0.5397152843
 40
0.5713360706
 40
0.6028345343
 40
0.6341999464
 40
0.6654240584
 40
0.6965012895
 40
0.7274288701
 40
0.7582069373
 40
0.7888385738
 40
0.819329788
 40
0.849689434
 40
0.8799290682
 40
0.9100627436
 40
0.9401067432
 40
0.9700792555
 40
1.0
 40
1.0
 40
1.0
 40
1.0
 10
10.8884590861
 20
8.6683810538
 30
0.0
 10
10.8806938709
 20
8.6689195733
 30
0.0
 10
10.8651592829
 20
8.6705429927
 30
0.0
 10
10.842032312
 20
8.6745864751
 30
0.0
 10
10.8191321776
 20
8.6802244151
 30
0.0
 10
10.7965721835
 20
8.6874290708
 30
0.0
 10
10.7744621565
 20
8.6961650518
 30
0.0
 10
10.7529101616
 20
8.7063895622
 30
0.0
 10
10.7320213992
 20
8.7180525375
 30
0.0
 10
10.7118978522
 20
8.7310969111
 30
0.0
 10
10.6926377574
 20
8.7454589026
 30
0.0
 10
10.6743351432
 20
8.7610683249
 30
0.0
 10
10.6570793733
 20
8.7778489245
 30
0.0
 10
10.6409547171
 20
8.795718751
 30
0.0
 10
10.6260399243
 20
8.8145905378
 30
0.0
 10
10.6124078565
 20
8.8343721401
 30
0.0
 10
10.6001251375
 20
8.8549669813
 30
0.0
 10
10.5892518296
 20
8.8762745178
 30
0.0
 10
10.5798411448
 20
8.8981907249
 30
0.0
 10
10.5719391751
 20
8.9206085931
 30
0.0
 10
10.5655846573
 20
8.9434186439
 30
0.0
 10
10.5608088017
 20
8.9665094659
 30
0.0
 10
10.5576351341
 20
8.989768249
 30
0.0
 10
10.556079376
 20
9.0130813284
 30
0.0
 10
10.5561493648
 20
9.0363347323
 30
0.0
 10
10.5578449826
 20
9.0594147342
 30
0.0
 10
10.5611581631
 20
9.0822084077
 30
0.0
 10
10.5660729293
 20
9.104604178
 30
0.0
 10
10.5725654482
 20
9.1264923564
 30
0.0
 10
10.5806041712
 20
9.1477657185
 30
0.0
 10
10.5901498438
 20
9.1683198897
 30
0.0
 10
10.6011561385
 20
9.188054423
 30
0.0
 10
10.6135681739
 20
9.2068712554
 30
0.0
 10
10.6227479883
 20
9.2187531222
 30
0.0
 10
10.6275476843
 20
9.2245066886
 30
0.0
  0
SPLINE
  5
3D9
100
AcDbEntity
  8
0
100
AcDbSpline
 62
7
  6
CONTINUOUS
 70
0
 71
3
 72
83
 73
79
 74
0
 42
0.0000001
 43
0.0000001
 44
0.0000000001
 40
0.0
 40
0.0
 40
0.0
 40
0.0
 40
0.0038903728
 40
0.0079391127
 40
0.0121495813
 40
0.0165246402
 40
0.0210667141
 40
0.0257777014
 40
0.0306588913
 40
0.0357111697
 40
0.0409350216
 40
0.046330589
 40
0.0518977231
 40
0.057635932
 40
0.0696220334
 40
0.0822807293
 40
0.0956000194
 40
0.1095650211
 40
0.1241583241
 40
0.1393602664
 40
0.1551491661
 40
0.1715015258
 40
0.1883922001
 40
0.2057945404
 40
0.2236805216
 40
0.2420208557
 40
0.2607851085
 40
0.2799418037
 40
0.2994585188
 40
0.3193019767
 40
0.3394381315
 40
0.3598322609
 40
0.3804490549
 40
0.4012526996
 40
0.4432746287
 40
0.485605253
 40
0.527948374
 40
0.5700076773
 40
0.5908392443
 40
0.6114900391
 40
0.6319241691
 40
0.6521062307
 40
0.6720013988
 40
0.6915755118
 40
0.7107951564
 40
0.7296277568
 40
0.748041666
 40
0.7660062684
 40
0.7834920829
 40
0.8004708646
 40
0.8169157204
 40
0.832801236
 40
0.8481036239
 40
0.8628008927
 40
0.8768730289
 40
0.8903022202
 40
0.9030731298
 40
0.915173238
 40
0.9209689428
 40
0.9265937778
 40
0.9320471954
 40
0.9373288983
 40
0.9424389471
 40
0.9473776943
 40
0.9521459027
 40
0.9567447488
 40
0.9611758549
 40
0.965441412
 40
0.9695441524
 40
0.97348751
 40
0.9772756524
 40
0.9809135756
 40
0.9844072538
 40
0.9877636734
 40
0.9909910231
 40
0.994098747
 40
0.9970976532
 40
1.0
 40
1.0
 40
1.0
 40
1.0
 10
12.3034985071
 20
7.428202802
 30
0.0
 10
12.3046302127
 20
7.4292959458
 30
0.0
 10
12.3068924809
 20
7.431576043
 30
0.0
 10
12.310217534
 20
7.4351954494
 30
0.0
 10
12.3135393257
 20
7.4390796234
 30
0.0
 10
12.3168561845
 20
7.4432266047
 30
0.0
 10
12.3201666861
 20
7.4476345011
 30
0.0
 10
12.3234693188
 20
7.4523013439
 30
0.0
 10
12.3267626359
 20
7.4572249713
 30
0.0
 10
12.3300450683
 20
7.4624031291
 30
0.0
 10
12.3333151143
 20
7.4678334127
 30
0.0
 10
12.3365712723
 20
7.4735133065
 30
0.0
 10
12.3398120243
 20
7.479440206
 30
0.0
 10
12.3441739944
 20
7.4877900926
 30
0.0
 10
12.3495672865
 20
7.498834446
 30
0.0
 10
12.3558635731
 20
7.5128409535
 30
0.0
 10
12.3620630543
 20
7.5277609988
 30
0.0
 10
12.3681541321
 20
7.5435668708
 30
0.0
 10
12.3741254062
 20
7.5602293711
 30
0.0
 10
12.3799656846
 20
7.5777175783
 30
0.0
 10
12.3856640217
 20
7.5959990029
 30
0.0
 10
12.3912097315
 20
7.6150396382
 30
0.0
 10
12.3965924142
 20
7.63480404
 30
0.0
 10
12.4018019754
 20
7.6552553941
 30
0.0
 10
12.4068286454
 20
7.6763555859
 30
0.0
 10
12.4116630066
 20
7.698065272
 30
0.0
 10
12.4162960011
 20
7.7203439606
 30
0.0
 10
12.4207189493
 20
7.7431500918
 30
0.0
 10
12.4249235664
 20
7.7664411165
 30
0.0
 10
12.4289019748
 20
7.7901735731
 30
0.0
 10
12.4326467304
 20
7.8143031711
 30
0.0
 10
12.4361508193
 20
7.8387848631
 30
0.0
 10
12.4394077116
 20
7.8635729853
 30
0.0
 10
12.4434256744
 20
7.8970813996
 30
0.0
 10
12.4477831793
 20
7.9393912528
 30
0.0
 10
12.4519255275
 20
7.9904689093
 30
0.0
 10
12.4549672751
 20
8.0416390474
 30
0.0
 10
12.4565712802
 20
8.0841739176
 30
0.0
 10
12.457281599
 20
8.1179550573
 30
0.0
 10
12.4575259097
 20
8.1429962525
 30
0.0
 10
12.4574831116
 20
8.167775901
 30
0.0
 10
12.457153275
 20
8.1922477831
 30
0.0
 10
12.4565370424
 20
8.2163662102
 30
0.0
 10
12.4556355874
 20
8.2400861708
 30
0.0
 10
12.4544506193
 20
8.2633633979
 30
0.0
 10
12.4529843788
 20
8.2861544541
 30
0.0
 10
12.4512396333
 20
8.3084168149
 30
0.0
 10
12.4492196783
 20
8.3301089524
 30
0.0
 10
12.4469283314
 20
8.3511904158
 30
0.0
 10
12.4443699196
 20
8.3716219063
 30
0.0
 10
12.4415492724
 20
8.3913653502
 30
0.0
 10
12.4384717122
 20
8.4103839754
 30
0.0
 10
12.4351430458
 20
8.4286423872
 30
0.0
 10
12.4315695597
 20
8.4461066511
 30
0.0
 10
12.4277579955
 20
8.4627443374
 30
0.0
 10
12.4237155367
 20
8.4785246717
 30
0.0
 10
12.4194497793
 20
8.4934183199
 30
0.0
 10
12.4156631965
 20
8.5052318357
 30
0.0
 10
12.4125194654
 20
8.5142106579
 30
0.0
 10
12.4101447249
 20
8.5206092107
 30
0.0
 10
12.4077202951
 20
8.5267662337
 30
0.0
 10
12.4052472305
 20
8.5326788732
 30
0.0
 10
12.4027267366
 20
8.5383444079
 30
0.0
 10
12.4001599306
 20
8.543760211
 30
0.0
 10
12.3975480113
 20
8.5489237915
 30
0.0
 10
12.3948921867
 20
8.5538327819
 30
0.0
 10
12.3921936183
 20
8.5584849091
 30
0.0
 10
12.3894535811
 20
8.5628780688
 30
0.0
 10
12.3866732409
 20
8.5670102246
 30
0.0
 10
12.3838538537
 20
8.5708795008
 30
0.0
 10
12.3809966465
 20
8.5744841292
 30
0.0
 10
12.3781027999
 20
8.5778224182
 30
0.0
 10
12.3751735896
 20
8.5808928563
 30
0.0
 10
12.3722101554
 20
8.5836939336
 30
0.0
 10
12.3692137661
 20
8.5862242979
 30
0.0
 10
12.3661855548
 20
8.5884826716
 30
0.0
 10
12.3631269806
 20
8.5904676507
 30
0.0
 10
12.3610370305
 20
8.5916253895
 30
0.0
 10
12.359989516
 20
8.5921551195
 30
0.0
  0
SPLINE
  5
3DA
100
AcDbEntity
  8
0
100
AcDbSpline
 62
7
  6
CONTINUOUS
 70
0
 71
3
 72
15
 73
11
 74
0
 42
0.0000001
 43
0.0000001
 44
0.0000000001
 40
0.0
 40
0.0
 40
0.0
 40
0.0
 40
0.1420968464
 40
0.2787832416
 40
0.410266159
 40
0.5367957922
 40
0.6586705713
 40
0.7762311624
 40
0.8898634269
 40
1.0
 40
1.0
 40
1.0
 40
1.0
 10
12.3034985071
 20
7.428202802
 30
0.0
 10
12.302453374
 20
7.4271932809
 30
0.0
 10
12.3003637103
 20
7.4252526554
 30
0.0
 10
12.2971679304
 20
7.4225324515
 30
0.0
 10
12.2939741972
 20
7.4200618753
 30
0.0
 10
12.2907838935
 20
7.417842227
 30
0.0
 10
12.2875983009
 20
7.4158744787
 30
0.0
 10
12.2844185168
 20
7.4141596119
 30
0.0
 10
12.2812460406
 20
7.4126985587
 30
0.0
 10
12.279105879
 20
7.4118825698
 30
0.0
 10
12.2780396808
 20
7.4115197091
 30
0.0
  0
SPLINE
  5
3DB
100
AcDbEntity
  8
0
100
AcDbSpline
 62
7
  6
CONTINUOUS
 70
0
 71
3
 72
11
 73
7
 74
0
 42
0.0000001
 43
0.0000001
 44
0.0000000001
 40
0.0
 40
0.0
 40
0.0
 40
0.0
 40
0.2430309523
 40
0.4889114475
 40
0.7403853657
 40
1.0
 40
1.0
 40
1.0
 40
1.0
 10
12.0776333444
 20
10.1341147401
 30
0.0
 10
12.0776333402
 20
10.1351990662
 30
0.0
 10
12.0775096711
 20
10.1373823726
 30
0.0
 10
12.0769547521
 20
10.1406452987
 30
0.0
 10
12.0760314323
 20
10.1439003072
 30
0.0
 10
12.0751872043
 20
10.1460232144
 30
0.0
 10
12.0747095776
 20
10.1470784734
 30
0.0
  0
SPLINE
  5
3DC
100
AcDbEntity
  8
0
100
AcDbSpline
 62
7
  6
CONTINUOUS
 70
0
 71
3
 72
23
 73
19
 74
0
 42
0.0000001
 43
0.0000001
 44
0.0000000001
 40
0.0
 40
0.0
 40
0.0
 40
0.0
 40
0.0781368527
 40
0.1532317188
 40
0.225404452
 40
0.2947998426
 40
0.3615916891
 40
0.4259789642
 40
0.4881874855
 40
0.5484707583
 40
0.6071107438
 40
0.6644176967
 40
0.7207260077
 40
0.7763899872
 40
0.8317774567
 40
0.887262179
 40
0.9432158246
 40
1.0
 40
1.0
 40
1.0
 40
1.0
 10
12.3034985071
 20
7.5489435375
 30
0.0
 10
12.3026542623
 20
7.5481280596
 30
0.0
 10
12.3009662732
 20
7.5465618547
 30
0.0
 10
12.2983836149
 20
7.5443702886
 30
0.0
 10
12.2958026681
 20
7.5423851325
 30
0.0
 10
12.2932245982
 20
7.5406075056
 30
0.0
 10
12.2906504805
 20
7.5390382195
 30
0.0
 10
12.2880812911
 20
7.5376781197
 30
0.0
 10
12.2855180917
 20
7.5365279445
 30
0.0
 10
12.2829619824
 20
7.5355884171
 30
0.0
 10
12.2804140969
 20
7.5348603025
 30
0.0
 10
12.2778756928
 20
7.5343441275
 30
0.0
 10
12.2753480723
 20
7.53404043
 30
0.0
 10
12.2728326424
 20
7.533949575
 30
0.0
 10
12.2703308853
 20
7.5340716505
 30
0.0
 10
12.2678442459
 20
7.5344067128
 30
0.0
 10
12.2653743817
 20
7.5349543714
 30
0.0
 10
12.2637546522
 20
7.5354563421
 30
0.0
 10
12.2629504203
 20
7.5357406785
 30
0.0
  0
SPLINE
  5
3DD
100
AcDbEntity
  8
0
100
AcDbSpline
 62
7
  6
CONTINUOUS
 70
0
 71
3
 72
45
 73
41
 74
0
 42
0.0000001
 43
0.0000001
 44
0.0000000001
 40
0.0
 40
0.0
 40
0.0
 40
0.0
 40
0.0309473711
 40
0.04647304
 40
0.0620312663
 40
0.0932401414
 40
0.1245711818
 40
0.1402818707
 40
0.1560198759
 40
0.1875689223
 40
0.219210428
 40
0.2509314623
 40
0.2827179171
 40
0.3145547206
 40
0.3464260635
 40
0.3783156321
 40
0.4102068476
 40
0.4420831072
 40
0.473928026
 40
0.5057256761
 40
0.5374608215
 40
0.5691191457
 40
0.6006874691
 40
0.6321539549
 40
0.6635082987
 40
0.6947419006
 40
0.7258480159
 40
0.7568218823
 40
0.7876608191
 40
0.8183642969
 40
0.8336676513
 40
0.8489379452
 40
0.8641757322
 40
0.8793816927
 40
0.9096974691
 40
0.9398973805
 40
0.9549590303
 40
0.9699956415
 40
0.9850087499
 40
1.0
 40
1.0
 40
1.0
 40
1.0
 10
10.884228718
 20
8.6053733528
 30
0.0
 10
10.8759339859
 20
8.6059485944
 30
0.0
 10
10.8635007499
 20
8.6072073323
 30
0.0
 10
10.8470146437
 20
8.6096622579
 30
0.0
 10
10.8305433414
 20
8.6126424734
 30
0.0
 10
10.8100785973
 20
8.6173396642
 30
0.0
 10
10.7899028111
 20
8.6232995713
 30
0.0
 10
10.7739603534
 20
8.6288144144
 30
0.0
 10
10.7581385288
 20
8.6348330521
 30
0.0
 10
10.7386694465
 20
8.6432733557
 30
0.0
 10
10.7159142309
 20
8.6548152316
 30
0.0
 10
10.693836726
 20
8.6677332596
 30
0.0
 10
10.6725262911
 20
8.6819752009
 30
0.0
 10
10.6520684853
 20
8.6974837629
 30
0.0
 10
10.6325456332
 20
8.7141965051
 30
0.0
 10
10.6140362526
 20
8.7320461753
 30
0.0
 10
10.5966148044
 20
8.7509609532
 30
0.0
 10
10.5803513799
 20
8.7708647464
 30
0.0
 10
10.5653114255
 20
8.7916774921
 30
0.0
 10
10.55155548
 20
8.8133154771
 30
0.0
 10
10.5391389327
 20
8.8356916714
 30
0.0
 10
10.5281118016
 20
8.8587160758
 30
0.0
 10
10.5185185328
 20
8.8822960792
 30
0.0
 10
10.5103978219
 20
8.9063368297
 30
0.0
 10
10.503782457
 20
8.930741606
 30
0.0
 10
10.4986991885
 20
8.9554122244
 30
0.0
 10
10.4951686089
 20
8.9802493497
 30
0.0
 10
10.493205102
 20
9.005153186
 30
0.0
 10
10.4928166434
 20
9.0300227825
 30
0.0
 10
10.4938082849
 20
9.050660551
 30
0.0
 10
10.4953898768
 20
9.067050137
 30
0.0
 10
10.4969666231
 20
9.0792591514
 30
0.0
 10
10.4989334937
 20
9.091384923
 30
0.0
 10
10.5020700765
 20
9.1074075135
 30
0.0
 10
10.5069536372
 20
9.1271728175
 30
0.0
 10
10.5131151653
 20
9.1465374029
 30
0.0
 10
10.5187899327
 20
9.1617140022
 30
0.0
 10
10.5234108218
 20
9.1729212229
 30
0.0
 10
10.5283951815
 20
9.1839505582
 30
0.0
 10
10.5319597104
 20
9.1911829505
 30
0.0
 10
10.5338006961
 20
9.1947653
 30
0.0
  0
SPLINE
  5
3DE
100
AcDbEntity
  8
0
100
AcDbSpline
 62
7
  6
CONTINUOUS
 70
0
 71
3
 72
85
 73
81
 74
0
 42
0.0000001
 43
0.0000001
 44
0.0000000001
 40
0.0
 40
0.0
 40
0.0
 40
0.0
 40
0.0040523243
 40
0.0082800677
 40
0.0126871048
 40
0.0172766874
 40
0.0220515212
 40
0.0270136657
 40
0.0321644496
 40
0.0375047249
 40
0.0430348574
 40
0.0487548144
 40
0.054664209
 40
0.0607622539
 40
0.073519334
 40
0.0870147526
 40
0.1012327467
 40
0.1161541856
 40
0.1317569883
 40
0.1480164546
 40
0.1649055313
 40
0.1823950537
 40
0.2004539481
 40
0.2190494063
 40
0.2381470435
 40
0.2577110372
 40
0.2777042638
 40
0.2980884342
 40
0.318824216
 40
0.3398713518
 40
0.3611887728
 40
0.3827347104
 40
0.4263415096
 40
0.4703487206
 40
0.5144084858
 40
0.5581724224
 40
0.5798356861
 40
0.6012958978
 40
0.6225109263
 40
0.6434392703
 40
0.6640401693
 40
0.6842737169
 40
0.7041009772
 40
0.7234841094
 40
0.742386497
 40
0.7607728733
 40
0.7786094587
 40
0.7958641099
 40
0.8125064856
 40
0.8285082407
 40
0.843843233
 40
0.8584877643
 40
0.8724208768
 40
0.8856247162
 40
0.8980849977
 40
0.9040332524
 40
0.9097922075
 40
0.9153613987
 40
0.9207406784
 40
0.9259303725
 40
0.9309312112
 40
0.9357444596
 40
0.9403719648
 40
0.9448161804
 40
0.9490803491
 40
0.9531684867
 40
0.9570855871
 40
0.9608377024
 40
0.9644320671
 40
0.9678773102
 40
0.9711835117
 40
0.9774235374
 40
0.9803901426
 40
0.9832753266
 40
0.9860978125
 40
0.9888777483
 40
0.9916362933
 40
0.9943951484
 40
0.9971760023
 40
1.0
 40
1.0
 40
1.0
 40
1.0
 10
12.3034985071
 20
7.5489435375
 30
0.0
 10
12.3044499673
 20
7.5498625775
 30
0.0
 10
12.3063517893
 20
7.5517846221
 30
0.0
 10
12.3091434344
 20
7.5548452635
 30
0.0
 10
12.3119319754
 20
7.5581419861
 30
0.0
 10
12.3147158379
 20
7.5616729145
 30
0.0
 10
12.3174936745
 20
7.5654362357
 30
0.0
 10
12.320264054
 20
7.5694300502
 30
0.0
 10
12.3230256069
 20
7.57365227
 30
0.0
 10
12.3257768403
 20
7.5781007149
 30
0.0
 10
12.3285163419
 20
7.582773049
 30
0.0
 10
12.3312426807
 20
7.5876668329
 30
0.0
 10
12.3339544261
 20
7.5927795262
 30
0.0
 10
12.3376037316
 20
7.5999935858
 30
0.0
 10
12.3421095794
 20
7.6095471586
 30
0.0
 10
12.3473578904
 20
7.6216732732
 30
0.0
 10
12.3525146416
 20
7.6346023396
 30
0.0
 10
12.3575689232
 20
7.6483072258
 30
0.0
 10
12.3625100346
 20
7.6627593099
 30
0.0
 10
12.3673275001
 20
7.6779282804
 30
0.0
 10
12.3720111103
 20
7.693782286
 30
0.0
 10
12.3765509366
 20
7.7102879939
 30
0.0
 10
12.3809373553
 20
7.7274106764
 30
0.0
 10
12.3851610697
 20
7.7451142879
 30
0.0
 10
12.3892131277
 20
7.7633615429
 30
0.0
 10
12.3930849456
 20
7.7821139938
 30
0.0
 10
12.3967683273
 20
7.8013321157
 30
0.0
 10
12.400255475
 20
7.8209753943
 30
0.0
 10
12.4035390102
 20
7.8410024168
 30
0.0
 10
12.4066119766
 20
7.8613709468
 30
0.0
 10
12.4094678986
 20
7.8820380618
 30
0.0
 10
12.4129921881
 20
7.9100451063
 30
0.0
 10
12.4168079138
 20
7.9454780276
 30
0.0
 10
12.4204208163
 20
7.9883132647
 30
0.0
 10
12.4230550196
 20
8.0312711925
 30
0.0
 10
12.4244209417
 20
8.0669895762
 30
0.0
 10
12.4250024067
 20
8.095347727
 30
0.0
 10
12.4251810969
 20
8.1163501834
 30
0.0
 10
12.4251035622
 20
8.1371133378
 30
0.0
 10
12.4247699638
 20
8.1575934354
 30
0.0
 10
12.4241810324
 20
8.1777472766
 30
0.0
 10
12.4233380331
 20
8.1975323641
 30
0.0
 10
12.4222427706
 20
8.2169069792
 30
0.0
 10
12.4208975873
 20
8.2358302773
 30
0.0
 10
12.4193053624
 20
8.2542623755
 30
0.0
 10
12.4174694994
 20
8.2721644379
 30
0.0
 10
12.4153939202
 20
8.2894987572
 30
0.0
 10
12.4130830575
 20
8.3062288365
 30
0.0
 10
12.4105418438
 20
8.3223194741
 30
0.0
 10
12.4077757095
 20
8.3377368453
 30
0.0
 10
12.4047905639
 20
8.3524485875
 30
0.0
 10
12.4015927782
 20
8.3664238502
 30
0.0
 10
12.3981891697
 20
8.3796334566
 30
0.0
 10
12.3945869679
 20
8.3920496925
 30
0.0
 10
12.3913782906
 20
8.4018603398
 30
0.0
 10
12.3887092611
 20
8.4092848681
 30
0.0
 10
12.3866936186
 20
8.4145525385
 30
0.0
 10
12.3846341921
 20
8.4196032416
 30
0.0
 10
12.3825319813
 20
8.4244343342
 30
0.0
 10
12.3803881396
 20
8.4290433108
 30
0.0
 10
12.3782037452
 20
8.4334277661
 30
0.0
 10
12.3759799284
 20
8.4375854241
 30
0.0
 10
12.373717856
 20
8.4415141457
 30
0.0
 10
12.3714186212
 20
8.4452118766
 30
0.0
 10
12.3690834373
 20
8.4486767396
 30
0.0
 10
12.3667134041
 20
8.4519069244
 30
0.0
 10
12.3643097018
 20
8.4549007657
 30
0.0
 10
12.3618734536
 20
8.4576567363
 30
0.0
 10
12.3594058572
 20
8.4601732709
 30
0.0
 10
12.3569077151
 20
8.4624492969
 30
0.0
 10
12.3536026916
 20
8.4651093983
 30
0.0
 10
12.350171796
 20
8.4673569581
 30
0.0
 10
12.3466362482
 20
8.4691202143
 30
0.0
 10
12.3440043681
 20
8.4701741587
 30
0.0
 10
12.3413498477
 20
8.4709803096
 30
0.0
 10
12.3386742584
 20
8.4715380193
 30
0.0
 10
12.3359794773
 20
8.4718466353
 30
0.0
 10
12.3332673768
 20
8.4719058422
 30
0.0
 10
12.3305401729
 20
8.4717157889
 30
0.0
 10
12.3287308479
 20
8.4714258748
 30
0.0
 10
12.3278276062
 20
8.4712415039
 30
0.0
  0
SPLINE
  5
3DF
100
AcDbEntity
  8
0
100
AcDbSpline
 62
7
  6
CONTINUOUS
 70
0
 71
3
 72
55
 73
51
 74
0
 42
0.0000001
 43
0.0000001
 44
0.0000000001
 40
0.0
 40
0.0
 40
0.0
 40
0.0
 40
0.0093265483
 40
0.0191700618
 40
0.0295295458
 40
0.0404016114
 40
0.0517809224
 40
0.0636603815
 40
0.0760313117
 40
0.0888837073
 40
0.1022062627
 40
0.1159865531
 40
0.1302111465
 40
0.1448656032
 40
0.1599346497
 40
0.1754021887
 40
0.1912513431
 40
0.207464581
 40
0.2409092503
 40
0.275584249
 40
0.31132869
 40
0.3479747277
 40
0.3853487855
 40
0.4232727284
 40
0.4615650134
 40
0.5000418424
 40
0.5385182917
 40
0.5768094372
 40
0.6147314888
 40
0.6521029221
 40
0.6887456125
 40
0.7244859945
 40
0.7591562591
 40
0.7925955632
 40
0.8088058757
 40
0.8246519806
 40
0.8401163024
 40
0.8551820098
 40
0.8698330074
 40
0.8840539918
 40
0.8978305893
 40
0.9111493311
 40
0.9239978043
 40
0.9363647556
 40
0.9482401261
 40
0.9596152983
 40
0.9704831856
 40
0.9808384234
 40
0.9906777099
 40
1.0
 40
1.0
 40
1.0
 40
1.0
 10
12.2147770235
 20
7.6067749425
 30
0.0
 10
12.2161600905
 20
7.608914048
 30
0.0
 10
12.2189121756
 20
7.6133699575
 30
0.0
 10
12.2229013246
 20
7.6203811521
 30
0.0
 10
12.2268578634
 20
7.6278913387
 30
0.0
 10
12.2307767236
 20
7.6358908959
 30
0.0
 10
12.2346529118
 20
7.6443697735
 30
0.0
 10
12.2384814613
 20
7.6533172094
 30
0.0
 10
12.2422574924
 20
7.662721831
 30
0.0
 10
12.2459761252
 20
7.6725716722
 30
0.0
 10
12.2496326021
 20
7.6828541681
 30
0.0
 10
12.2532222269
 20
7.6935561919
 30
0.0
 10
12.2567403595
 20
7.7046640754
 30
0.0
 10
12.2601825043
 20
7.7161636102
 30
0.0
 10
12.2635442203
 20
7.7280400889
 30
0.0
 10
12.2668211726
 20
7.7402783095
 30
0.0
 10
12.2700091947
 20
7.7528626143
 30
0.0
 10
12.2741788705
 20
7.7702617695
 30
0.0
 10
12.2791280582
 20
7.7927593563
 30
0.0
 10
12.2845909952
 20
7.8205981484
 30
0.0
 10
12.2896092654
 20
7.849408377
 30
0.0
 10
12.2941569852
 20
7.8790424604
 30
0.0
 10
12.2982106854
 20
7.909348728
 30
0.0
 10
12.3017494723
 20
7.9401719692
 30
0.0
 10
12.3047551382
 20
7.9713543062
 30
0.0
 10
12.3072122365
 20
8.0027359985
 30
0.0
 10
12.3091081596
 20
8.034156276
 30
0.0
 10
12.310433205
 20
8.0654541685
 30
0.0
 10
12.3111806431
 20
8.0964693376
 30
0.0
 10
12.3113467365
 20
8.1270429119
 30
0.0
 10
12.3109307557
 20
8.1570182916
 30
0.0
 10
12.3099350139
 20
8.1862420307
 30
0.0
 10
12.3083647932
 20
8.2145644084
 30
0.0
 10
12.3065665369
 20
8.2375260793
 30
0.0
 10
12.3048369386
 20
8.2553309796
 30
0.0
 10
12.3034154214
 20
8.2682322325
 30
0.0
 10
12.3018580405
 20
8.2808028556
 30
0.0
 10
12.3001668055
 20
8.2930267702
 30
0.0
 10
12.2983439071
 20
8.3048883251
 30
0.0
 10
12.296391678
 20
8.3163723427
 30
0.0
 10
12.2943126698
 20
8.327464138
 30
0.0
 10
12.2921095476
 20
8.3381495343
 30
0.0
 10
12.2897851545
 20
8.3484148859
 30
0.0
 10
12.2873425137
 20
8.3582471021
 30
0.0
 10
12.2847847411
 20
8.3676336533
 30
0.0
 10
12.2821151493
 20
8.3765626134
 30
0.0
 10
12.2793371767
 20
8.3850226465
 30
0.0
 10
12.2764543218
 20
8.3930030991
 30
0.0
 10
12.2734703673
 20
8.400493768
 30
0.0
 10
12.2713591324
 20
8.405284127
 30
0.0
 10
12.270284314
 20
8.4075922622
 30
0.0
  0
SPLINE
  5
3E0
100
AcDbEntity
  8
0
100
AcDbSpline
 62
7
  6
CONTINUOUS
 70
0
 71
3
 72
45
 73
41
 74
0
 42
0.0000001
 43
0.0000001
 44
0.0000000001
 40
0.0
 40
0.0
 40
0.0
 40
0.0
 40
0.0111836772
 40
0.0227556929
 40
0.0347095176
 40
0.0470378652
 40
0.0597328514
 40
0.0727859256
 40
0.099928956
 40
0.1283889211
 40
0.1580797247
 40
0.1889087987
 40
0.2207778673
 40
0.2535836317
 40
0.2872184028
 40
0.3215706962
 40
0.3565258039
 40
0.3919663489
 40
0.4277728282
 40
0.46382415
 40
0.4999981649
 40
0.5361721955
 40
0.5722235642
 40
0.6080301217
 40
0.6434707756
 40
0.6784260228
 40
0.7127784855
 40
0.7464134551
 40
0.7792194465
 40
0.8110887696
 40
0.8419181246
 40
0.8716092343
 40
0.9000695293
 40
0.9272129113
 40
0.9402661729
 40
0.9529613431
 40
0.9652898831
 40
0.977243904
 40
0.9888161152
 40
1.0
 40
1.0
 40
1.0
 40
1.0
 10
12.1976556085
 20
7.6771063372
 30
0.0
 10
12.1986649504
 20
7.6794038136
 30
0.0
 10
12.2006702628
 20
7.6840999453
 30
0.0
 10
12.203592374
 20
7.6913196113
 30
0.0
 10
12.2064778526
 20
7.6988298122
 30
0.0
 10
12.2093240941
 20
7.7066237329
 30
0.0
 10
12.2121285144
 20
7.7146943716
 30
0.0
 10
12.2158572156
 20
7.7259615941
 30
0.0
 10
12.2203849247
 20
7.7406885263
 30
0.0
 10
12.2255440291
 20
7.7591203019
 30
0.0
 10
12.2304784853
 20
7.7784681212
 30
0.0
 10
12.2351703295
 20
7.7986621222
 30
0.0
 10
12.2396024652
 20
7.8196295
 30
0.0
 10
12.2437587594
 20
7.8412945558
 30
0.0
 10
12.2476240908
 20
7.8635790476
 30
0.0
 10
12.2511844057
 20
7.8864024635
 30
0.0
 10
12.2544267674
 20
7.9096823238
 30
0.0
 10
12.2573394014
 20
7.9333344834
 30
0.0
 10
12.2599117377
 20
7.9572734398
 30
0.0
 10
12.2621344483
 20
7.9814126456
 30
0.0
 10
12.26399948
 20
8.005664824
 30
0.0
 10
12.2655000843
 20
8.0299422869
 30
0.0
 10
12.2666308406
 20
8.0541572538
 30
0.0
 10
12.2673876772
 20
8.0782221717
 30
0.0
 10
12.2677678859
 20
8.102050034
 30
0.0
 10
12.2677701327
 20
8.1255546975
 30
0.0
 10
12.2673944637
 20
8.1486511969
 30
0.0
 10
12.2666423066
 20
8.1712560561
 30
0.0
 10
12.2655164663
 20
8.1932875935
 30
0.0
 10
12.2640211189
 20
8.2146662283
 30
0.0
 10
12.2621617935
 20
8.2353147589
 30
0.0
 10
12.2599453723
 20
8.2551587166
 30
0.0
 10
12.2573800048
 20
8.2741264282
 30
0.0
 10
12.2549285659
 20
8.2893375798
 30
0.0
 10
12.2527909109
 20
8.3010118163
 30
0.0
 10
12.2511274183
 20
8.3093924449
 30
0.0
 10
12.2493843124
 20
8.3175047814
 30
0.0
 10
12.2475631782
 20
8.3253415335
 30
0.0
 10
12.2456656572
 20
8.3328955933
 30
0.0
 10
12.2443278016
 20
8.3378236758
 30
0.0
 10
12.2436452751
 20
8.3402385381
 30
0.0
  0
SPLINE
  5
3E1
100
AcDbEntity
  8
0
100
AcDbSpline
 62
7
  6
CONTINUOUS
 70
0
 71
3
 72
23
 73
19
 74
0
 42
0.0000001
 43
0.0000001
 44
0.0000000001
 40
0.0
 40
0.0
 40
0.0
 40
0.0
 40
0.06383146
 40
0.127451114
 40
0.1908575837
 40
0.2540564457
 40
0.3170524271
 40
0.3798532618
 40
0.4424682846
 40
0.5049087063
 40
0.5671874683
 40
0.6293191163
 40
0.691319677
 40
0.7532065002
 40
0.8149980926
 40
0.8767139369
 40
0.9383742947
 40
1.0
 40
1.0
 40
1.0
 40
1.0
 10
10.6823500294
 20
6.3577809997
 30
0.0
 10
10.688632788
 20
6.3573452889
 30
0.0
 10
10.7012004571
 20
6.35677606
 30
0.0
 10
10.7200381211
 20
6.3568343417
 30
0.0
 10
10.738788819
 20
6.3578060964
 30
0.0
 10
10.7574081405
 20
6.359688978
 30
0.0
 10
10.7758529923
 20
6.3624787475
 30
0.0
 10
10.7940802969
 20
6.3661689016
 30
0.0
 10
10.8120475995
 20
6.3707509117
 30
0.0
 10
10.8297130149
 20
6.376214125
 30
0.0
 10
10.8470353637
 20
6.3825458426
 30
0.0
 10
10.8639742593
 20
6.3897313418
 30
0.0
 10
10.8804901998
 20
6.3977539037
 30
0.0
 10
10.8965446744
 20
6.4065948685
 30
0.0
 10
10.9121002013
 20
6.4162336205
 30
0.0
 10
10.9271206337
 20
6.4266478078
 30
0.0
 10
10.9415704577
 20
6.437812736
 30
0.0
 10
10.9508035382
 20
6.4457415338
 30
0.0
 10
10.9553123402
 20
6.4498207237
 30
0.0
  0
SPLINE
  5
3E2
100
AcDbEntity
  8
0
100
AcDbSpline
 62
7
  6
CONTINUOUS
 70
0
 71
3
 72
15
 73
11
 74
0
 42
0.0000001
 43
0.0000001
 44
0.0000000001
 40
0.0
 40
0.0
 40
0.0
 40
0.0
 40
0.1331280495
 40
0.2613154534
 40
0.3857579216
 40
0.50777547
 40
0.6287754839
 40
0.7502044769
 40
0.8734925105
 40
1.0
 40
1.0
 40
1.0
 40
1.0
 10
12.0747087012
 20
10.1560495145
 30
0.0
 10
12.0752780161
 20
10.1549894077
 30
0.0
 10
12.0763048335
 20
10.1528578371
 30
0.0
 10
12.0775066508
 20
10.1495786493
 30
0.0
 10
12.0783351171
 20
10.146288434
 30
0.0
 10
12.0787883553
 20
10.1429911383
 30
0.0
 10
12.0788651604
 20
10.1396907891
 30
0.0
 10
12.0785654076
 20
10.1363916486
 30
0.0
 10
12.0778898877
 20
10.1330983719
 30
0.0
 10
12.0772009849
 20
10.1309432066
 30
0.0
 10
12.0767994205
 20
10.1298725722
 30
0.0
  0
SPLINE
  5
3E3
100
AcDbEntity
  8
0
100
AcDbSpline
 62
7
  6
CONTINUOUS
 70
0
 71
3
 72
41
 73
37
 74
0
 42
0.0000001
 43
0.0000001
 44
0.0000000001
 40
0.0
 40
0.0
 40
0.0
 40
0.0
 40
0.031126426
 40
0.0624038637
 40
0.0938266684
 40
0.1253854507
 40
0.1570684716
 40
0.1888614951
 40
0.2207481636
 40
0.2527103265
 40
0.2847283971
 40
0.3167817312
 40
0.3488490209
 40
0.3809086963
 40
0.4129393301
 40
0.4449200416
 40
0.4768308928
 40
0.5086532717
 40
0.5403702568
 40
0.5719669597
 40
0.6034308371
 40
0.6347519643
 40
0.6659232666
 40
0.6969407032
 40
0.7278033961
 40
0.758513693
 40
0.7890771657
 40
0.8195025388
 40
0.8498015462
 40
0.8799887098
 40
0.9100810485
 40
0.9400977208
 40
0.9550869334
 40
0.9700651749
 40
0.9850352478
 40
1.0
 40
1.0
 40
1.0
 40
1.0
 10
10.6823500294
 20
6.3577809997
 30
0.0
 10
10.6729219011
 20
6.3584348426
 30
0.0
 10
10.6540602978
 20
6.3604267568
 30
0.0
 10
10.6259915579
 20
6.3654275316
 30
0.0
 10
10.5982156525
 20
6.3724226336
 30
0.0
 10
10.5708787076
 20
6.3813754492
 30
0.0
 10
10.5441222259
 20
6.3922392489
 30
0.0
 10
10.5180852464
 20
6.4049574044
 30
0.0
 10
10.4929028875
 20
6.4194636945
 30
0.0
 10
10.4687058736
 20
6.4356826662
 30
0.0
 10
10.4456198134
 20
6.4535300272
 30
0.0
 10
10.4237645402
 20
6.4729130358
 30
0.0
 10
10.4032535016
 20
6.4937310033
 30
0.0
 10
10.384193197
 20
6.5158758311
 30
0.0
 10
10.3666826352
 20
6.5392325635
 30
0.0
 10
10.3508127937
 20
6.5636799518
 30
0.0
 10
10.3366661448
 20
6.5890910824
 30
0.0
 10
10.3243162658
 20
6.6153340508
 30
0.0
 10
10.3138274592
 20
6.642272632
 30
0.0
 10
10.3052543959
 20
6.6697669657
 30
0.0
 10
10.2986418025
 20
6.697674271
 30
0.0
 10
10.2940242779
 20
6.7258495956
 30
0.0
 10
10.2914261033
 20
6.7541465514
 30
0.0
 10
10.2908610983
 20
6.7824180609
 30
0.0
 10
10.2923324876
 20
6.8105171158
 30
0.0
 10
10.2958329369
 20
6.8382975408
 30
0.0
 10
10.3013445621
 20
6.8656147382
 30
0.0
 10
10.3088390285
 20
6.8923264605
 30
0.0
 10
10.31827754
 20
6.9182934754
 30
0.0
 10
10.3296113777
 20
6.9433806536
 30
0.0
 10
10.3427810534
 20
6.9674563209
 30
0.0
 10
10.3552371976
 20
6.9865843597
 30
0.0
 10
10.3660424649
 20
7.0012500643
 30
0.0
 10
10.3745552198
 20
7.0119175136
 30
0.0
 10
10.3834681653
 20
7.022242582
 30
0.0
 10
10.3896705073
 20
7.0288900796
 30
0.0
 10
10.3928338286
 20
7.0321517378
 30
0.0
  0
SPLINE
  5
3E4
100
AcDbEntity
  8
0
100
AcDbSpline
 62
7
  6
CONTINUOUS
 70
0
 71
3
 72
39
 73
35
 74
0
 42
0.0000001
 43
0.0000001
 44
0.0000000001
 40
0.0
 40
0.0
 40
0.0
 40
0.0
 40
0.031947906
 40
0.063787703
 40
0.0955192932
 40
0.1271452193
 40
0.1586681265
 40
0.1900920688
 40
0.2214219665
 40
0.2526637308
 40
0.2838241659
 40
0.3149109179
 40
0.3459323991
 40
0.3768977056
 40
0.4078165256
 40
0.4386990394
 40
0.4695558132
 40
0.5003976877
 40
0.5312356627
 40
0.5620807794
 40
0.5929440033
 40
0.6238361062
 40
0.6547675525
 40
0.6857483886
 40
0.7167881386
 40
0.7478957067
 40
0.7790792879
 40
0.8103462882
 40
0.8417032542
 40
0.8731558146
 40
0.9047086305
 40
0.9363653581
 40
0.9681286222
 40
1.0
 40
1.0
 40
1.0
 40
1.0
 10
10.6823500294
 20
8.3475883198
 30
0.0
 10
10.6897649604
 20
8.3470740926
 30
0.0
 10
10.7045973796
 20
8.3464083267
 30
0.0
 10
10.7268285065
 20
8.3465045912
 30
0.0
 10
10.7489534499
 20
8.3476972361
 30
0.0
 10
10.7709180849
 20
8.3499833589
 30
0.0
 10
10.7926697689
 20
8.353357587
 30
0.0
 10
10.8141559827
 20
8.3578117958
 30
0.0
 10
10.8353249592
 20
8.3633353276
 30
0.0
 10
10.8561256521
 20
8.3699149131
 30
0.0
 10
10.8765079036
 20
8.3775347453
 30
0.0
 10
10.8964225582
 20
8.3861764924
 30
0.0
 10
10.9158215832
 20
8.3958193542
 30
0.0
 10
10.9346581848
 20
8.4064401107
 30
0.0
 10
10.9528869218
 20
8.4180131768
 30
0.0
 10
10.970463817
 20
8.4305106642
 30
0.0
 10
10.9873464647
 20
8.4439024482
 30
0.0
 10
11.003494134
 20
8.4581562405
 30
0.0
 10
11.0188678688
 20
8.4732376673
 30
0.0
 10
11.03343059
 20
8.4891103474
 30
0.0
 10
11.0471471798
 20
8.5057359878
 30
0.0
 10
11.0599845674
 20
8.5230744775
 30
0.0
 10
11.0719118095
 20
8.5410839856
 30
0.0
 10
11.0829001642
 20
8.5597210638
 30
0.0
 10
11.0929231608
 20
8.5789407524
 30
0.0
 10
11.101956663
 20
8.5986966901
 30
0.0
 10
11.1099789262
 20
8.6189412265
 30
0.0
 10
11.1169706577
 20
8.6396255371
 30
0.0
 10
11.1229150542
 20
8.6606997405
 30
0.0
 10
11.1277978405
 20
8.6821130405
 30
0.0
 10
11.1316073029
 20
8.7038137695
 30
0.0
 10
11.1343343158
 20
8.725749812
 30
0.0
 10
11.1359723617
 20
8.7478676084
 30
0.0
 10
11.136335201
 20
8.7626749585
 30
0.0
 10
11.1363351946
 20
8.7700898946
 30
0.0
  0
SPLINE
  5
3E5
100
AcDbEntity
  8
0
100
AcDbSpline
 62
7
  6
CONTINUOUS
 70
0
 71
3
 72
23
 73
19
 74
0
 42
0.0000001
 43
0.0000001
 44
0.0000000001
 40
0.0
 40
0.0
 40
0.0
 40
0.0
 40
0.0433864027
 40
0.0897569556
 40
0.1390658709
 40
0.1912476796
 40
0.2462202156
 40
0.3038869331
 40
0.3641386874
 40
0.4268551206
 40
0.4919058094
 40
0.5591514354
 40
0.6284445907
 40
0.6996307194
 40
0.7725489778
 40
0.8470310687
 40
0.9229088787
 40
1.0
 40
1.0
 40
1.0
 40
1.0
 10
10.7190083536
 20
8.8864055217
 30
0.0
 10
10.7211677969
 20
8.8874632206
 30
0.0
 10
10.7256899712
 20
8.8895406511
 30
0.0
 10
10.7328234629
 20
8.8924636248
 30
0.0
 10
10.7405169961
 20
8.8952905231
 30
0.0
 10
10.7487511374
 20
8.8980140747
 30
0.0
 10
10.7575053052
 20
8.900627365
 30
0.0
 10
10.7667574454
 20
8.9031237015
 30
0.0
 10
10.7764842198
 20
8.9054966913
 30
0.0
 10
10.7866610357
 20
8.9077402499
 30
0.0
 10
10.7972621262
 20
8.9098486363
 30
0.0
 10
10.8082606231
 20
8.9118164486
 30
0.0
 10
10.8196286379
 20
8.9136386476
 30
0.0
 10
10.8313373453
 20
8.9153105659
 30
0.0
 10
10.8433569658
 20
8.9168279076
 30
0.0
 10
10.855657139
 20
8.9181868411
 30
0.0
 10
10.8682064139
 20
8.9193838193
 30
0.0
 10
10.8766570341
 20
8.9200669475
 30
0.0
 10
10.8809179832
 20
8.9203815431
 30
0.0
  0
SPLINE
  5
3E6
100
AcDbEntity
  8
0
100
AcDbSpline
 62
7
  6
CONTINUOUS
 70
0
 71
3
 72
61
 73
57
 74
0
 42
0.0000001
 43
0.0000001
 44
0.0000000001
 40
0.0
 40
0.0
 40
0.0
 40
0.0
 40
0.0156667955
 40
0.0313831731
 40
0.047146733
 40
0.0629570608
 40
0.0788122545
 40
0.0947102598
 40
0.1106487439
 40
0.1266249966
 40
0.1586710818
 40
0.1908291298
 40
0.2230687126
 40
0.2553569314
 40
0.287659416
 40
0.3199413697
 40
0.3521686127
 40
0.3843086165
 40
0.4163315072
 40
0.4482109982
 40
0.4640938102
 40
0.4799330073
 40
0.49572668
 40
0.511473286
 40
0.5271716618
 40
0.5428210341
 40
0.5584210361
 40
0.573971712
 40
0.5894735165
 40
0.6049273175
 40
0.620334396
 40
0.6356964357
 40
0.651015509
 40
0.6662940667
 40
0.6815349205
 40
0.696741217
 40
0.7119164109
 40
0.7270642407
 40
0.7421886945
 40
0.7572939729
 40
0.7723844512
 40
0.7874646432
 40
0.8025391581
 40
0.8176126563
 40
0.832689807
 40
0.8477752469
 40
0.8628735369
 40
0.8779891176
 40
0.8931262698
 40
0.9082890789
 40
0.9234813965
 40
0.9387068046
 40
0.9539685857
 40
0.969269703
 40
0.9846127671
 40
1.0
 40
1.0
 40
1.0
 40
1.0
 10
10.6823500294
 20
6.4495439587
 30
0.0
 10
10.6777854
 20
6.4498605168
 30
0.0
 10
10.6686547991
 20
6.450702914
 30
0.0
 10
10.6550102125
 20
6.4525861803
 30
0.0
 10
10.6414224036
 20
6.4550874691
 30
0.0
 10
10.6279202808
 20
6.4582013282
 30
0.0
 10
10.6145316912
 20
6.4619213906
 30
0.0
 10
10.6012846864
 20
6.4662397847
 30
0.0
 10
10.5882065561
 20
6.471147646
 30
0.0
 10
10.5710159611
 20
6.4784698516
 30
0.0
 10
10.5500873898
 20
6.4890462546
 30
0.0
 10
10.5261070956
 20
6.5038865435
 30
0.0
 10
10.5034276224
 20
6.5207676314
 30
0.0
 10
10.4822387321
 20
6.5395485337
 30
0.0
 10
10.4627160823
 20
6.5600731504
 30
0.0
 10
10.4450221168
 20
6.5821709435
 30
0.0
 10
10.4293039065
 20
6.6056581353
 30
0.0
 10
10.4156923195
 20
6.6303400485
 30
0.0
 10
10.4043010386
 20
6.6560101522
 30
0.0
 10
10.3967269067
 20
6.6780810137
 30
0.0
 10
10.391868343
 20
6.6960147375
 30
0.0
 10
10.3888337936
 20
6.7095610369
 30
0.0
 10
10.3864112107
 20
6.7231894147
 30
0.0
 10
10.3846055186
 20
6.7368717847
 30
0.0
 10
10.3834205481
 20
6.7505795497
 30
0.0
 10
10.3828588154
 20
6.7642841617
 30
0.0
 10
10.3829214823
 20
6.777957044
 30
0.0
 10
10.3836084338
 20
6.7915696957
 30
0.0
 10
10.3849182898
 20
6.8050937324
 30
0.0
 10
10.3868483532
 20
6.8185009492
 30
0.0
 10
10.3893945906
 20
6.8317633894
 30
0.0
 10
10.392551719
 20
6.8448533917
 30
0.0
 10
10.3963132138
 20
6.8577436388
 30
0.0
 10
10.4006712328
 20
6.8704072399
 30
0.0
 10
10.4056166864
 20
6.8828177789
 30
0.0
 10
10.411139291
 20
6.8949493529
 30
0.0
 10
10.4172275703
 20
6.9067766269
 30
0.0
 10
10.4238688033
 20
6.9182749294
 30
0.0
 10
10.4310491396
 20
6.9294202648
 30
0.0
 10
10.4387536304
 20
6.9401893517
 30
0.0
 10
10.4469662099
 20
6.9505597025
 30
0.0
 10
10.4556697173
 20
6.9605096899
 30
0.0
 10
10.4648459949
 20
6.9700185437
 30
0.0
 10
10.4744759185
 20
6.9790663889
 30
0.0
 10
10.4845393717
 20
6.9876343557
 30
0.0
 10
10.4950153354
 20
6.9957045815
 30
0.0
 10
10.5058819518
 20
7.0032602178
 30
0.0
 10
10.5171165523
 20
7.0102854775
 30
0.0
 10
10.5286956631
 20
7.0167657408
 30
0.0
 10
10.5405951127
 20
7.0226875055
 30
0.0
 10
10.5527900751
 20
7.0280384041
 30
0.0
 10
10.5652551047
 20
7.0328072845
 30
0.0
 10
10.5779641485
 20
7.0369842453
 30
0.0
 10
10.5908907928
 20
7.040560606
 30
0.0
 10
10.6040076904
 20
7.0435288326
 30
0.0
 10
10.6128487631
 20
7.0450959657
 30
0.0
 10
10.6172908555
 20
7.0457766677
 30
0.0
  0
SPLINE
  5
3E7
100
AcDbEntity
  8
0
100
AcDbSpline
 62
7
  6
CONTINUOUS
 70
0
 71
3
 72
55
 73
51
 74
0
 42
0.0000001
 43
0.0000001
 44
0.0000000001
 40
0.0
 40
0.0
 40
0.0
 40
0.0
 40
0.0313655192
 40
0.062918354
 40
0.0946477866
 40
0.1265368901
 40
0.1585641328
 40
0.1907038628
 40
0.2229271013
 40
0.255202429
 40
0.2874969151
 40
0.3197770711
 40
0.3520098242
 40
0.3841634801
 40
0.4162086519
 40
0.4481191503
 40
0.4798727969
 40
0.5114521427
 40
0.5271762721
 40
0.5428527662
 40
0.5584810238
 40
0.5740608297
 40
0.5895923533
 40
0.605076154
 40
0.6205131856
 40
0.6359047852
 40
0.6512526649
 40
0.6665589076
 40
0.6818259492
 40
0.6970565557
 40
0.7122538087
 40
0.7274210807
 40
0.7425620025
 40
0.7576804352
 40
0.7727804406
 40
0.7878662433
 40
0.8029421909
 40
0.8180127206
 40
0.8330823194
 40
0.8481554806
 40
0.8632366646
 40
0.8783302632
 40
0.8934405579
 40
0.9085716791
 40
0.9237275755
 40
0.9389119802
 40
0.9541283748
 40
0.9693799609
 40
0.9846696437
 40
1.0
 40
1.0
 40
1.0
 40
1.0
 10
10.7082319125
 20
6.495075328
 30
0.0
 10
10.6998791044
 20
6.4956545972
 30
0.0
 10
10.6831663912
 20
6.4975672534
 30
0.0
 10
10.6583845336
 20
6.502643563
 30
0.0
 10
10.6340023595
 20
6.5098952696
 30
0.0
 10
10.6102175732
 20
6.5192637274
 30
0.0
 10
10.5872197537
 20
6.5306734878
 30
0.0
 10
10.5651930629
 20
6.5440329879
 30
0.0
 10
10.5443135403
 20
6.5592350092
 30
0.0
 10
10.5247481923
 20
6.5761578062
 30
0.0
 10
10.5066535127
 20
6.5946659098
 30
0.0
 10
10.4901742207
 20
6.6146111913
 30
0.0
 10
10.4754423085
 20
6.6358341724
 30
0.0
 10
10.4625757202
 20
6.658165101
 30
0.0
 10
10.4516776833
 20
6.6814253276
 30
0.0
 10
10.4428357236
 20
6.705429177
 30
0.0
 10
10.4361210624
 20
6.7299832771
 30
0.0
 10
10.4323375223
 20
6.7507751595
 30
0.0
 10
10.430425131
 20
6.7674827596
 30
0.0
 10
10.4295500124
 20
6.7800106674
 30
0.0
 10
10.4292341425
 20
6.7925263907
 30
0.0
 10
10.4294780838
 20
6.8050051182
 30
0.0
 10
10.4302814255
 20
6.8174217306
 30
0.0
 10
10.4316425737
 20
6.8297513283
 30
0.0
 10
10.4335587789
 20
6.8419691644
 30
0.0
 10
10.436026237
 20
6.8540507146
 30
0.0
 10
10.4390400493
 20
6.8659717147
 30
0.0
 10
10.4425941389
 20
6.8777082404
 30
0.0
 10
10.4466813913
 20
6.889236727
 30
0.0
 10
10.451293664
 20
6.9005340043
 30
0.0
 10
10.4564216797
 20
6.9115773926
 30
0.0
 10
10.4620551385
 20
6.9223447202
 30
0.0
 10
10.4681827785
 20
6.9328143378
 30
0.0
 10
10.4747923008
 20
6.9429652111
 30
0.0
 10
10.4818704068
 20
6.9527769687
 30
0.0
 10
10.4894029082
 20
6.9622298857
 30
0.0
 10
10.4973747027
 20
6.9713049491
 30
0.0
 10
10.5057697429
 20
6.9799839587
 30
0.0
 10
10.5145711713
 20
6.9882494801
 30
0.0
 10
10.52376134
 20
6.9960848739
 30
0.0
 10
10.5333217595
 20
7.0034744315
 30
0.0
 10
10.5432332142
 20
7.0104033301
 30
0.0
 10
10.5534758168
 20
7.016857623
 30
0.0
 10
10.564028983
 20
7.0228243606
 30
0.0
 10
10.5748714927
 20
7.0282916033
 30
0.0
 10
10.5859815852
 20
7.0332483625
 30
0.0
 10
10.5973369277
 20
7.037684669
 30
0.0
 10
10.6089147844
 20
7.0415916935
 30
0.0
 10
10.6206915709
 20
7.0449615432
 30
0.0
 10
10.6286495121
 20
7.0468430253
 30
0.0
 10
10.6326527615
 20
7.0476923947
 30
0.0
  0
SPLINE
  5
3E8
100
AcDbEntity
  8
0
100
AcDbSpline
 62
7
  6
CONTINUOUS
 70
0
 71
3
 72
39
 73
35
 74
0
 42
0.0000001
 43
0.0000001
 44
0.0000000001
 40
0.0
 40
0.0
 40
0.0
 40
0.0
 40
0.0311450264
 40
0.062443103
 40
0.0938883509
 40
0.1254709879
 40
0.1571788856
 40
0.1889972606
 40
0.2209091751
 40
0.2528958436
 40
0.2849370235
 40
0.3170114144
 40
0.3490970746
 40
0.381171845
 40
0.4132137769
 40
0.445201556
 40
0.4771149182
 40
0.508935051
 40
0.5406449742
 40
0.5722298939
 40
0.6036775233
 40
0.6349783634
 40
0.6661259345
 40
0.6971169551
 40
0.7279514584
 40
0.7586328417
 40
0.7891678438
 40
0.8195664441
 40
0.8498416857
 40
0.8800094177
 40
0.9100879638
 40
0.9400977202
 40
0.9700606954
 40
1.0
 40
1.0
 40
1.0
 40
1.0
 10
10.7169655842
 20
6.5361059426
 30
0.0
 10
10.7109508967
 20
6.5365230626
 30
0.0
 10
10.6989180203
 20
6.5377996004
 30
0.0
 10
10.6810145848
 20
6.5410152517
 30
0.0
 10
10.6633029118
 20
6.5455193984
 30
0.0
 10
10.6458786565
 20
6.5512878466
 30
0.0
 10
10.6288343909
 20
6.5582896549
 30
0.0
 10
10.6122610309
 20
6.5664873831
 30
0.0
 10
10.5962468661
 20
6.5758372178
 30
0.0
 10
10.5808772304
 20
6.5862892409
 30
0.0
 10
10.5662340148
 20
6.5977876825
 30
0.0
 10
10.5523952457
 20
6.6102712169
 30
0.0
 10
10.539434668
 20
6.6236732854
 30
0.0
 10
10.5274213612
 20
6.6379224525
 30
0.0
 10
10.5164193738
 20
6.6529427825
 30
0.0
 10
10.5064873857
 20
6.6686542392
 30
0.0
 10
10.4976783973
 20
6.6849731081
 30
0.0
 10
10.4900394496
 20
6.7018124366
 30
0.0
 10
10.4836113737
 20
6.7190824914
 30
0.0
 10
10.4784285737
 20
6.7366912308
 30
0.0
 10
10.4745188349
 20
6.7545447862
 30
0.0
 10
10.4719031777
 20
6.7725479592
 30
0.0
 10
10.4705957424
 20
6.7906047219
 30
0.0
 10
10.4706037075
 20
6.8086187223
 30
0.0
 10
10.4719272431
 20
6.8264937935
 30
0.0
 10
10.4745595009
 20
6.844134462
 30
0.0
 10
10.4784866381
 20
6.8614464554
 30
0.0
 10
10.4836878828
 20
6.8783372083
 30
0.0
 10
10.4901356207
 20
6.8947163531
 30
0.0
 10
10.4977955602
 20
6.9104962428
 30
0.0
 10
10.5066267948
 20
6.9255923148
 30
0.0
 10
10.5165824528
 20
6.9399239734
 30
0.0
 10
10.5276083106
 20
6.9534134813
 30
0.0
 10
10.5356366093
 20
6.9618003831
 30
0.0
 10
10.5398052033
 20
6.9658269545
 30
0.0
  0
SPLINE
  5
3E9
100
AcDbEntity
  8
0
100
AcDbSpline
 62
7
  6
CONTINUOUS
 70
0
 71
3
 72
39
 73
35
 74
0
 42
0.0000001
 43
0.0000001
 44
0.0000000001
 40
0.0
 40
0.0
 40
0.0
 40
0.0
 40
0.0310259591
 40
0.062192693
 40
0.0934951477
 40
0.1249258451
 40
0.156475135
 40
0.188131336
 40
0.2198809717
 40
0.2517090062
 40
0.2835991062
 40
0.3155339181
 40
0.3474953564
 40
0.3794649014
 40
0.4114239014
 40
0.4433538764
 40
0.4752368201
 40
0.507055496
 40
0.5387937254
 40
0.5704366621
 40
0.6019710508
 40
0.6333854661
 40
0.6646705262
 40
0.6958190786
 40
0.726826353
 40
0.7576900772
 40
0.7884105522
 40
0.8189906828
 40
0.8494359601
 40
0.8797543942
 40
0.9099563958
 40
0.9400546058
 40
0.9700636755
 40
1.0
 40
1.0
 40
1.0
 40
1.0
 10
10.8432809297
 20
6.7006179432
 30
0.0
 10
10.8387078765
 20
6.7009350855
 30
0.0
 10
10.8295594623
 20
6.7018782704
 30
0.0
 10
10.8159330708
 20
6.7042029849
 30
0.0
 10
10.8024298534
 20
6.7074304998
 30
0.0
 10
10.7891114498
 20
6.7115461268
 30
0.0
 10
10.7760376268
 20
6.7165312512
 30
0.0
 10
10.7632673152
 20
6.722363341
 30
0.0
 10
10.7508579976
 20
6.7290160648
 30
0.0
 10
10.7388655462
 20
6.7364594089
 30
0.0
 10
10.7273439496
 20
6.7446598115
 30
0.0
 10
10.7163450778
 20
6.7535803141
 30
0.0
 10
10.7059184504
 20
6.7631807264
 30
0.0
 10
10.6961110152
 20
6.7734178064
 30
0.0
 10
10.6869669391
 20
6.7842454534
 30
0.0
 10
10.6785274105
 20
6.7956149141
 30
0.0
 10
10.6708304555
 20
6.8074750001
 30
0.0
 10
10.6639107677
 20
6.8197723162
 30
0.0
 10
10.6577995527
 20
6.8324514985
 30
0.0
 10
10.652524388
 20
6.8454554611
 30
0.0
 10
10.6481090989
 20
6.8587256505
 30
0.0
 10
10.6445736511
 20
6.872202306
 30
0.0
 10
10.641934059
 20
6.8858247259
 30
0.0
 10
10.6402023129
 20
6.899531538
 30
0.0
 10
10.6393863219
 20
6.9132609727
 30
0.0
 10
10.6394898756
 20
6.9269511389
 30
0.0
 10
10.6405126226
 20
6.9405403
 30
0.0
 10
10.6424500691
 20
6.9539671525
 30
0.0
 10
10.6452935892
 20
6.9671710947
 30
0.0
 10
10.6490304747
 20
6.9800925247
 30
0.0
 10
10.653643928
 20
6.9926730231
 30
0.0
 10
10.659113349
 20
7.0048559431
 30
0.0
 10
10.6654136202
 20
7.0165854693
 30
0.0
 10
10.6701548211
 20
7.0240769882
 30
0.0
 10
10.6726525928
 20
7.0277272572
 30
0.0
  0
SPLINE
  5
3EA
100
AcDbEntity
  8
0
100
AcDbSpline
 62
7
  6
CONTINUOUS
 70
0
 71
3
 72
18
 73
14
 74
0
 42
0.0000001
 43
0.0000001
 44
0.0000000001
 40
0.0
 40
0.0
 40
0.0
 40
0.0
 40
0.1504673397
 40
0.291710036
 40
0.4244360001
 40
0.5495624032
 40
0.6682140019
 40
0.7255497517
 40
0.7817912955
 40
0.8371402647
 40
0.891809381
 40
0.9460201143
 40
1.0
 40
1.0
 40
1.0
 40
1.0
 10
12.3344081361
 20
7.426059212
 30
0.0
 10
12.3327260207
 20
7.4244344132
 30
0.0
 10
12.3293641705
 20
7.4213858686
 30
0.0
 10
12.3241583773
 20
7.4173231566
 30
0.0
 10
12.3189586945
 20
7.4139253092
 30
0.0
 10
12.3137705099
 20
7.4111979113
 30
0.0
 10
12.3094099037
 20
7.4094684219
 30
0.0
 10
12.3059477695
 20
7.4084408713
 30
0.0
 10
12.3033880488
 20
7.4078486039
 30
0.0
 10
12.3008368215
 20
7.4074264719
 30
0.0
 10
12.2982947991
 20
7.4071746459
 30
0.0
 10
12.295762996
 20
7.4070932397
 30
0.0
 10
12.2940809382
 20
7.407152724
 30
0.0
 10
12.2932439465
 20
7.4072107657
 30
0.0
  0
SPLINE
  5
3EB
100
AcDbEntity
  8
0
100
AcDbSpline
 62
7
  6
CONTINUOUS
 70
0
 71
3
 72
40
 73
36
 74
0
 42
0.0000001
 43
0.0000001
 44
0.0000000001
 40
0.0
 40
0.0
 40
0.0
 40
0.0
 40
0.0309071618
 40
0.0619434495
 40
0.0931043557
 40
0.1243844002
 40
0.1557758621
 40
0.187269641
 40
0.2188551033
 40
0.2505203523
 40
0.2822523687
 40
0.3140372097
 40
0.3458602033
 40
0.3777061533
 40
0.4095595493
 40
0.4414047786
 40
0.4732263406
 40
0.5050090586
 40
0.5367382896
 40
0.5684001284
 40
0.599981605
 40
0.6314708717
 40
0.6628573792
 40
0.6941320381
 40
0.7252873638
 40
0.756317603
 40
0.7872188379
 40
0.817989067
 40
0.848628259
 40
0.8791383789
 40
0.9095233828
 40
0.9397891816
 40
0.9548816748
 40
0.9699474418
 40
1.0
 40
1.0
 40
1.0
 40
1.0
 10
10.8402295166
 20
6.6551697654
 30
0.0
 10
10.8351653783
 20
6.6555209646
 30
0.0
 10
10.8250348881
 20
6.6565367154
 30
0.0
 10
10.8099313397
 20
6.6589847258
 30
0.0
 10
10.79494237
 20
6.6623512314
 30
0.0
 10
10.7801254995
 20
6.6666232927
 30
0.0
 10
10.7655365621
 20
6.6717847365
 30
0.0
 10
10.7512308215
 20
6.6778159352
 30
0.0
 10
10.7372623792
 20
6.6846940272
 30
0.0
 10
10.7236840789
 20
6.6923929348
 30
0.0
 10
10.7105472804
 20
6.7008834929
 30
0.0
 10
10.6979016738
 20
6.7101335468
 30
0.0
 10
10.6857950919
 20
6.7201080784
 30
0.0
 10
10.6742733308
 20
6.7307693357
 30
0.0
 10
10.663379978
 20
6.7420769763
 30
0.0
 10
10.6531562489
 20
6.7539882177
 30
0.0
 10
10.6436408318
 20
6.7664579992
 30
0.0
 10
10.6348697424
 20
6.7794391503
 30
0.0
 10
10.6268761885
 20
6.7928825679
 30
0.0
 10
10.6196904447
 20
6.806737401
 30
0.0
 10
10.6133397375
 20
6.8209512404
 30
0.0
 10
10.6078481434
 20
6.8354703162
 30
0.0
 10
10.6032364974
 20
6.8502396994
 30
0.0
 10
10.5995223144
 20
6.8652035073
 30
0.0
 10
10.5967197211
 20
6.880305113
 30
0.0
 10
10.5948394025
 20
6.8954873584
 30
0.0
 10
10.5938885588
 20
6.9106927656
 30
0.0
 10
10.5938708792
 20
6.9258637636
 30
0.0
 10
10.5947865127
 20
6.9409428634
 30
0.0
 10
10.5966321131
 20
6.9558730281
 30
0.0
 10
10.5994006684
 20
6.9705973184
 30
0.0
 10
10.6024715348
 20
6.9826620886
 30
0.0
 10
10.6053780905
 20
6.9921527879
 30
0.0
 10
10.6085756907
 20
7.0015120639
 30
0.0
 10
10.6113090957
 20
7.0084071934
 30
0.0
 10
10.61327589
 20
7.0129343568
 30
0.0
  0
SPLINE
  5
3EC
100
AcDbEntity
  8
0
100
AcDbSpline
 62
7
  6
CONTINUOUS
 70
0
 71
3
 72
39
 73
35
 74
0
 42
0.0000001
 43
0.0000001
 44
0.0000000001
 40
0.0
 40
0.0
 40
0.0
 40
0.0
 40
0.0319648355
 40
0.0638242789
 40
0.095577768
 40
0.1272279563
 40
0.15877718
 40
0.1902292247
 40
0.2215886611
 40
0.2528609855
 40
0.2840525422
 40
0.3151704668
 40
0.3462226254
 40
0.3772175386
 40
0.4081643007
 40
0.4390724913
 40
0.4699520813
 40
0.5008133324
 40
0.5316666934
 40
0.562522693
 40
0.5933918328
 40
0.6242844801
 40
0.655210763
 40
0.6861804691
 40
0.7172029473
 40
0.7482870163
 40
0.7794408785
 40
0.8106720422
 40
0.8419872527
 40
0.8733924335
 40
0.9048926357
 40
0.9364919967
 40
0.9681937094
 40
1.0
 40
1.0
 40
1.0
 40
1.0
 10
10.7108201008
 20
8.4035583954
 30
0.0
 10
10.7176057781
 20
8.403087807
 30
0.0
 10
10.7311794081
 20
8.4024707124
 30
0.0
 10
10.7515253574
 20
8.4025232256
 30
0.0
 10
10.7717786921
 20
8.4035553543
 30
0.0
 10
10.7918921333
 20
8.4055646542
 30
0.0
 10
10.8118197735
 20
8.408546657
 30
0.0
 10
10.8315157329
 20
8.4124945084
 30
0.0
 10
10.8509347818
 20
8.4173992141
 30
0.0
 10
10.8700322872
 20
8.4232495361
 30
0.0
 10
10.8887643592
 20
8.4300320664
 30
0.0
 10
10.9070879397
 20
8.4377312541
 30
0.0
 10
10.9249609038
 20
8.4463294386
 30
0.0
 10
10.9423421569
 20
8.4558068901
 30
0.0
 10
10.9591917282
 20
8.4661418559
 30
0.0
 10
10.9754708719
 20
8.4773105966
 30
0.0
 10
10.9911421582
 20
8.4892874444
 30
0.0
 10
11.0061695531
 20
8.502044873
 30
0.0
 10
11.0205185038
 20
8.5155535583
 30
0.0
 10
11.0341560183
 20
8.5297824461
 30
0.0
 10
11.0470507403
 20
8.5446988251
 30
0.0
 10
11.0591730291
 20
8.5602683964
 30
0.0
 10
11.0704950356
 20
8.5764553506
 30
0.0
 10
11.0809907523
 20
8.5932224629
 30
0.0
 10
11.0906360759
 20
8.6105311775
 30
0.0
 10
11.0994088615
 20
8.6283416971
 30
0.0
 10
11.1072889716
 20
8.6466130752
 30
0.0
 10
11.1142583255
 20
8.6653033097
 30
0.0
 10
11.1203009547
 20
8.6843694316
 30
0.0
 10
11.1254030205
 20
8.7037676317
 30
0.0
 10
11.1295528454
 20
8.7234532899
 30
0.0
 10
11.132740943
 20
8.7433813414
 30
0.0
 10
11.1349600189
 20
8.7635053924
 30
0.0
 10
11.1357886723
 20
8.7770004157
 30
0.0
 10
11.13604097
 20
8.7837639493
 30
0.0
  0
SPLINE
  5
3ED
100
AcDbEntity
  8
0
100
AcDbSpline
 62
7
  6
CONTINUOUS
 70
0
 71
3
 72
40
 73
36
 74
0
 42
0.0000001
 43
0.0000001
 44
0.0000000001
 40
0.0
 40
0.0
 40
0.0
 40
0.0
 40
0.0072606719
 40
0.0144608266
 40
0.0216338807
 40
0.0288147398
 40
0.0360385992
 40
0.0433408821
 40
0.0507565789
 40
0.0583192494
 40
0.0740036234
 40
0.0906356394
 40
0.1084090308
 40
0.1274779905
 40
0.1479596831
 40
0.1699385835
 40
0.193471128
 40
0.21859022
 40
0.2453092457
 40
0.2736255069
 40
0.3035230226
 40
0.3349748152
 40
0.3679447116
 40
0.4023886914
 40
0.438255925
 40
0.4754892839
 40
0.5140257586
 40
0.5537967361
 40
0.5947276692
 40
0.6367380275
 40
0.6797413194
 40
0.7236447035
 40
0.8137476641
 40
0.9061813098
 40
1.0
 40
1.0
 40
1.0
 40
1.0
 10
10.6594443209
 20
9.038757786
 30
0.0
 10
10.6599486749
 20
9.0387228686
 30
0.0
 10
10.6609562147
 20
9.0386907962
 30
0.0
 10
10.6624624957
 20
9.0387586298
 30
0.0
 10
10.663953516
 20
9.038942867
 30
0.0
 10
10.6654271532
 20
9.0392434981
 30
0.0
 10
10.6668815182
 20
9.0396605528
 30
0.0
 10
10.6683147886
 20
9.040193866
 30
0.0
 10
10.6697254073
 20
9.0408431196
 30
0.0
 10
10.6715962503
 20
9.0418752192
 30
0.0
 10
10.6738792402
 20
9.0434718946
 30
0.0
 10
10.6764685079
 20
9.0458202978
 30
0.0
 10
10.6789367644
 20
9.0486170226
 30
0.0
 10
10.6812809013
 20
9.0518541437
 30
0.0
 10
10.6835004809
 20
9.0555235354
 30
0.0
 10
10.6855969206
 20
9.0596161662
 30
0.0
 10
10.6875734942
 20
9.0641222169
 30
0.0
 10
10.6894351341
 20
9.0690310328
 30
0.0
 10
10.6911885812
 20
9.0743311068
 30
0.0
 10
10.6928422234
 20
9.0800102008
 30
0.0
 10
10.6944058077
 20
9.0860554743
 30
0.0
 10
10.6958904203
 20
9.0924535025
 30
0.0
 10
10.6973083621
 20
9.0991903117
 30
0.0
 10
10.6986728172
 20
9.1062514195
 30
0.0
 10
10.6999977727
 20
9.1136217709
 30
0.0
 10
10.7012979107
 20
9.1212856594
 30
0.0
 10
10.7025883376
 20
9.1292266514
 30
0.0
 10
10.7038844781
 20
9.1374274463
 30
0.0
 10
10.7052019511
 20
9.1458697307
 30
0.0
 10
10.7065563464
 20
9.1545340427
 30
0.0
 10
10.7079631203
 20
9.1633996509
 30
0.0
 10
10.7099458267
 20
9.1755643442
 30
0.0
 10
10.712623954
 20
9.1911029349
 30
0.0
 10
10.7162449671
 20
9.2100031786
 30
0.0
 10
10.7189970207
 20
9.2226785897
 30
0.0
 10
10.7204782837
 20
9.2290410396
 30
0.0
  0
SPLINE
  5
3EE
100
AcDbEntity
  8
0
100
AcDbSpline
 62
7
  6
CONTINUOUS
 70
0
 71
3
 72
8
 73
4
 74
0
 42
0.0000001
 43
0.0000001
 44
0.0000000001
 40
0.0
 40
0.0
 40
0.0
 40
0.0
 40
1.0
 40
1.0
 40
1.0
 40
1.0
 10
10.7204782837
 20
9.2290410396
 30
0.0
 10
10.7204834511
 20
9.2290632301
 30
0.0
 10
10.7204886186
 20
9.2290854206
 30
0.0
 10
10.7204937861
 20
9.2291076111
 30
0.0
  0
SPLINE
  5
3EF
100
AcDbEntity
  8
0
100
AcDbSpline
 62
7
  6
CONTINUOUS
 70
0
 71
3
 72
62
 73
58
 74
0
 42
0.0000001
 43
0.0000001
 44
0.0000000001
 40
0.0
 40
0.0
 40
0.0
 40
0.0
 40
0.0170966784
 40
0.033813906
 40
0.0500931474
 40
0.0658610401
 40
0.0810368758
 40
0.095526162
 40
0.1092288937
 40
0.1157538681
 40
0.1220445907
 40
0.1280900236
 40
0.1338812599
 40
0.1394121449
 40
0.1446797342
 40
0.1496863834
 40
0.1544395561
 40
0.1589536061
 40
0.1632502243
 40
0.1673581073
 40
0.1713135708
 40
0.1751576819
 40
0.178935634
 40
0.1826925703
 40
0.1864717719
 40
0.1903116771
 40
0.1942446108
 40
0.1982963061
 40
0.202485693
 40
0.2068261855
 40
0.2113261864
 40
0.215989775
 40
0.2208185695
 40
0.2258117681
 40
0.2309662846
 40
0.2417432456
 40
0.2531135405
 40
0.2650344953
 40
0.2774651994
 40
0.2903651132
 40
0.3037006876
 40
0.317438395
 40
0.3315515429
 40
0.3460162825
 40
0.3608097701
 40
0.3913159935
 40
0.4229486209
 40
0.4556183914
 40
0.4892538281
 40
0.5238033401
 40
0.5592246488
 40
0.5954864833
 40
0.6704312609
 40
0.7484829794
 40
0.8295181136
 40
0.9134096238
 40
1.0
 40
1.0
 40
1.0
 40
1.0
 10
10.6887507029
 20
8.9989395289
 30
0.0
 10
10.6887507574
 20
9.000455529
 30
0.0
 10
10.6887851318
 20
9.0034540254
 30
0.0
 10
10.6889478556
 20
9.0078934051
 30
0.0
 10
10.6892256282
 20
9.0122091396
 30
0.0
 10
10.6896242434
 20
9.0163782421
 30
0.0
 10
10.6901493426
 20
9.0203735227
 30
0.0
 10
10.6908075172
 20
9.0241635157
 30
0.0
 10
10.6914825355
 20
9.0271687952
 30
0.0
 10
10.6921022925
 20
9.0294374763
 30
0.0
 10
10.6925970108
 20
9.0310354615
 30
0.0
 10
10.693129755
 20
9.0325524523
 30
0.0
 10
10.6937011155
 20
9.0339831113
 30
0.0
 10
10.6943112035
 20
9.035322369
 30
0.0
 10
10.6949604372
 20
9.0365652576
 30
0.0
 10
10.6956485828
 20
9.0377074152
 30
0.0
 10
10.6963755601
 20
9.0387448902
 30
0.0
 10
10.6971409926
 20
9.0396743668
 30
0.0
 10
10.6979440806
 20
9.0404934584
 30
0.0
 10
10.698784206
 20
9.0412001129
 30
0.0
 10
10.6996597614
 20
9.0417938382
 30
0.0
 10
10.7005694792
 20
9.0422741823
 30
0.0
 10
10.7015110791
 20
9.042642732
 30
0.0
 10
10.7024825827
 20
9.0429013075
 30
0.0
 10
10.7034817153
 20
9.0430533246
 30
0.0
 10
10.704506526
 20
9.0431029065
 30
0.0
 10
10.7055553217
 20
9.0430544436
 30
0.0
 10
10.7066266927
 20
9.042913116
 30
0.0
 10
10.7077194704
 20
9.0426838299
 30
0.0
 10
10.7088326442
 20
9.0423715946
 30
0.0
 10
10.7099653395
 20
9.0419813817
 30
0.0
 10
10.7111168163
 20
9.0415180501
 30
0.0
 10
10.7122863548
 20
9.0409860967
 30
0.0
 10
10.713473334
 20
9.040389917
 30
0.0
 10
10.715102814
 20
9.0395019475
 30
0.0
 10
10.7171762419
 20
9.0382499386
 30
0.0
 10
10.7196914934
 20
9.0365756048
 30
0.0
 10
10.7222681006
 20
9.0347323954
 30
0.0
 10
10.7249042509
 20
9.0327415491
 30
0.0
 10
10.7275997308
 20
9.0306223676
 30
0.0
 10
10.7303530711
 20
9.0283900241
 30
0.0
 10
10.7331648649
 20
9.026059368
 30
0.0
 10
10.7360345171
 20
9.0236418401
 30
0.0
 10
10.7389619675
 20
9.0211477326
 30
0.0
 10
10.7429845928
 20
9.0176977082
 30
0.0
 10
10.7481507489
 20
9.0132426806
 30
0.0
 10
10.75452798
 20
9.0077648196
 30
0.0
 10
10.7611457214
 20
9.0021412215
 30
0.0
 10
10.7680079588
 20
8.9964062932
 30
0.0
 10
10.7751162741
 20
8.9905859823
 30
0.0
 10
10.7824742857
 20
8.9847039181
 30
0.0
 10
10.7927333186
 20
8.9767159664
 30
0.0
 10
10.80619027
 20
8.966684494
 30
0.0
 10
10.8232004902
 20
8.9547915856
 30
0.0
 10
10.8412511233
 20
8.9430207385
 30
0.0
 10
10.8603366439
 20
8.9314737498
 30
0.0
 10
10.8735395535
 20
8.9241034437
 30
0.0
 10
10.8803092546
 20
8.9204805604
 30
0.0
  0
SPLINE
  5
3F0
100
AcDbEntity
  8
0
100
AcDbSpline
 62
7
  6
CONTINUOUS
 70
0
 71
3
 72
37
 73
33
 74
0
 42
0.0000001
 43
0.0000001
 44
0.0000000001
 40
0.0
 40
0.0
 40
0.0
 40
0.0
 40
0.0639290906
 40
0.1274756122
 40
0.1591172332
 40
0.1906690425
 40
0.2221345285
 40
0.2535177049
 40
0.2848232653
 40
0.3160565331
 40
0.3472233986
 40
0.3783302993
 40
0.409384161
 40
0.4403923365
 40
0.4713625604
 40
0.5023028832
 40
0.5332215977
 40
0.5641271771
 40
0.5950282089
 40
0.6259333154
 40
0.6568510818
 40
0.6877899924
 40
0.7187583568
 40
0.7497642345
 40
0.7808153772
 40
0.8119191685
 40
0.8430825557
 40
0.874311998
 40
0.9056134272
 40
0.9369921937
 40
0.9684530234
 40
1.0
 40
1.0
 40
1.0
 40
1.0
 10
10.6823500294
 20
6.4495439587
 30
0.0
 10
10.6909704376
 20
6.4489461313
 30
0.0
 10
10.708219864
 20
6.448492886
 30
0.0
 10
10.7297160603
 20
6.4498068226
 30
0.0
 10
10.7467131224
 20
6.4519835754
 30
0.0
 10
10.7593239073
 20
6.4541714436
 30
0.0
 10
10.7717901342
 20
6.4569127229
 30
0.0
 10
10.7840886608
 20
6.4602022943
 30
0.0
 10
10.7961963292
 20
6.4640339579
 30
0.0
 10
10.8080904086
 20
6.4684005662
 30
0.0
 10
10.8197485432
 20
6.4732939531
 30
0.0
 10
10.8311488527
 20
6.4787048958
 30
0.0
 10
10.8422699143
 20
6.4846232609
 30
0.0
 10
10.8530908118
 20
6.491037978
 30
0.0
 10
10.8635912393
 20
6.4979369612
 30
0.0
 10
10.8737514696
 20
6.50530726
 30
0.0
 10
10.8835523804
 20
6.5131350757
 30
0.0
 10
10.892975581
 20
6.5214056718
 30
0.0
 10
10.9020033804
 20
6.5301035021
 30
0.0
 10
10.9106187828
 20
6.5392122629
 30
0.0
 10
10.9188056174
 20
6.5487148244
 30
0.0
 10
10.9265485342
 20
6.5585933116
 30
0.0
 10
10.9338329609
 20
6.5688291899
 30
0.0
 10
10.9406452142
 20
6.5794032269
 30
0.0
 10
10.9469725458
 20
6.5902955299
 30
0.0
 10
10.9528030602
 20
6.6014856494
 30
0.0
 10
10.9581257901
 20
6.612952572
 30
0.0
 10
10.9629308013
 20
6.6246747386
 30
0.0
 10
10.9672090733
 20
6.6366301131
 30
0.0
 10
10.9709525615
 20
6.6487963402
 30
0.0
 10
10.9741542332
 20
6.6611502314
 30
0.0
 10
10.975921168
 20
6.6694849137
 30
0.0
 10
10.9767127394
 20
6.6736749126
 30
0.0
  0
SPLINE
  5
3F1
100
AcDbEntity
  8
0
100
AcDbSpline
 62
7
  6
CONTINUOUS
 70
0
 71
3
 72
24
 73
20
 74
0
 42
0.0000001
 43
0.0000001
 44
0.0000000001
 40
0.0
 40
0.0
 40
0.0
 40
0.0
 40
0.0638614995
 40
0.1275023233
 40
0.1909220304
 40
0.2541262603
 40
0.3171206238
 40
0.3799138162
 40
0.4425163558
 40
0.504940861
 40
0.5672018416
 40
0.6293155754
 40
0.6912999436
 40
0.7531742442
 40
0.8149589882
 40
0.8766756778
 40
0.9075182148
 40
0.9383521339
 40
1.0
 40
1.0
 40
1.0
 40
1.0
 10
10.7200147922
 20
8.4467548715
 30
0.0
 10
10.726544958
 20
8.446302003
 30
0.0
 10
10.7396076624
 20
8.4457227042
 30
0.0
 10
10.7591848694
 20
8.4458393828
 30
0.0
 10
10.778664409
 20
8.4469429282
 30
0.0
 10
10.7979964842
 20
8.4490305174
 30
0.0
 10
10.8171327082
 20
8.4520970374
 30
0.0
 10
10.8360248078
 20
8.4561347711
 30
0.0
 10
10.8546252345
 20
8.4611336292
 30
0.0
 10
10.8728871308
 20
8.4670810703
 30
0.0
 10
10.8907644936
 20
8.4739621604
 30
0.0
 10
10.908212288
 20
8.481759609
 30
0.0
 10
10.9251865319
 20
8.4904537955
 30
0.0
 10
10.9416445199
 20
8.5000229038
 30
0.0
 10
10.9575445154
 20
8.5104426498
 30
0.0
 10
10.9702997109
 20
8.5198154544
 30
0.0
 10
10.980182955
 20
8.5277100847
 30
0.0
 10
10.9898450556
 20
8.5358624992
 30
0.0
 10
10.9968422246
 20
8.5422666925
 30
0.0
 10
11.0013871666
 20
8.5466567547
 30
0.0
  0
SPLINE
  5
3F2
100
AcDbEntity
  8
0
100
AcDbSpline
 62
7
  6
CONTINUOUS
 70
0
 71
3
 72
39
 73
35
 74
0
 42
0.0000001
 43
0.0000001
 44
0.0000000001
 40
0.0
 40
0.0
 40
0.0
 40
0.0
 40
0.0311450433
 40
0.0624431226
 40
0.0938883401
 40
0.125470995
 40
0.1571788892
 40
0.1889972671
 40
0.2209091824
 40
0.252895852
 40
0.2849370326
 40
0.3170114241
 40
0.3490970849
 40
0.3811718562
 40
0.413213789
 40
0.4452015689
 40
0.4771149309
 40
0.5089350628
 40
0.5406449853
 40
0.5722299045
 40
0.6036775328
 40
0.6349783723
 40
0.6661259434
 40
0.697116963
 40
0.7279514643
 40
0.7586328462
 40
0.7891678467
 40
0.819566445
 40
0.8498416852
 40
0.8800094169
 40
0.9100879627
 40
0.9400977191
 40
0.9700606947
 40
1.0
 40
1.0
 40
1.0
 40
1.0
 10
10.6740678266
 20
6.3497810057
 30
0.0
 10
10.6645150768
 20
6.3504434911
 30
0.0
 10
10.6454040214
 20
6.3524709413
 30
0.0
 10
10.6169691394
 20
6.3575781509
 30
0.0
 10
10.588838821
 20
6.3647317957
 30
0.0
 10
10.5611649882
 20
6.3738934423
 30
0.0
 10
10.5340946724
 20
6.385013993
 30
0.0
 10
10.5077722652
 20
6.3980339278
 30
0.0
 10
10.4823379881
 20
6.4128836765
 30
0.0
 10
10.4579273885
 20
6.429483979
 30
0.0
 10
10.4346705144
 20
6.4477462352
 30
0.0
 10
10.4126912773
 20
6.4675730343
 30
0.0
 10
10.3921068172
 20
6.4888586853
 30
0.0
 10
10.3730268646
 20
6.5114897439
 30
0.0
 10
10.3555531209
 20
6.5353455847
 30
0.0
 10
10.3397787818
 20
6.5602990929
 30
0.0
 10
10.3257880526
 20
6.5862173257
 30
0.0
 10
10.313655632
 20
6.6129621713
 30
0.0
 10
10.3034463463
 20
6.6403911032
 30
0.0
 10
10.2952148438
 20
6.6683579429
 30
0.0
 10
10.2890052838
 20
6.6967136123
 30
0.0
 10
10.284851023
 20
6.7253069058
 30
0.0
 10
10.2827745159
 20
6.7539853106
 30
0.0
 10
10.2827871947
 20
6.7825957984
 30
0.0
 10
10.2848893267
 20
6.8109856292
 30
0.0
 10
10.2890700054
 20
6.8390031713
 30
0.0
 10
10.295307251
 20
6.8664986996
 30
0.0
 10
10.3035681002
 20
6.8933251903
 30
0.0
 10
10.3138086624
 20
6.9193391272
 30
0.0
 10
10.3259744704
 20
6.9444013118
 30
0.0
 10
10.3400005815
 20
6.9683774262
 30
0.0
 10
10.355812558
 20
6.9911394587
 30
0.0
 10
10.3733242611
 20
7.0125639529
 30
0.0
 10
10.3860750986
 20
7.0258843332
 30
0.0
 10
10.3926958302
 20
7.0322794597
 30
0.0
  0
SPLINE
  5
3F3
100
AcDbEntity
  8
0
100
AcDbSpline
 62
7
  6
CONTINUOUS
 70
0
 71
3
 72
91
 73
87
 74
0
 42
0.0000001
 43
0.0000001
 44
0.0000000001
 40
0.0
 40
0.0
 40
0.0
 40
0.0
 40
0.0027164149
 40
0.0054532017
 40
0.0082302519
 40
0.0110665199
 40
0.0139797039
 40
0.0169859829
 40
0.0200999141
 40
0.0233344008
 40
0.0267007145
 40
0.0302086362
 40
0.0338665065
 40
0.0376814358
 40
0.0416593677
 40
0.0458052497
 40
0.0501231396
 40
0.0546162795
 40
0.059287253
 40
0.0641379749
 40
0.0691698569
 40
0.0743837851
 40
0.0797802236
 40
0.0853592475
 40
0.091120549
 40
0.0970635401
 40
0.1031872872
 40
0.1094906342
 40
0.122629771
 40
0.1364673248
 40
0.150986028
 40
0.1661658166
 40
0.1819841497
 40
0.1984162706
 40
0.2154354241
 40
0.2330130434
 40
0.251118914
 40
0.2697213196
 40
0.2887871741
 40
0.3082821495
 40
0.3281707942
 40
0.3484166458
 40
0.3689823383
 40
0.3898297074
 40
0.4109198931
 40
0.4322134396
 40
0.4536703979
 40
0.4752504252
 40
0.496912883
 40
0.5186169358
 40
0.5403216477
 40
0.5619860811
 40
0.5835693946
 40
0.6050309417
 40
0.6263303693
 40
0.647427715
 40
0.6682835069
 40
0.6888588628
 40
0.7091155924
 40
0.7290163019
 40
0.7485244988
 40
0.7676046989
 40
0.7862225381
 40
0.8043448897
 40
0.8219399883
 40
0.8389775652
 40
0.8554289983
 40
0.8712674731
 40
0.8864681675
 40
0.9010084679
 40
0.9148682273
 40
0.928030078
 40
0.9343449249
 40
0.9404802778
 40
0.9464349222
 40
0.9522079436
 40
0.9577987067
 40
0.9632068911
 40
0.9684325654
 40
0.9734761401
 40
0.9783384911
 40
0.9830209352
 40
0.9875254368
 40
0.9918546053
 40
0.9960115672
 40
1.0
 40
1.0
 40
1.0
 40
1.0
 10
12.3755723257
 20
8.5943594596
 30
0.0
 10
12.3766828207
 20
8.5942824516
 30
0.0
 10
12.378906452
 20
8.5940273474
 30
0.0
 10
12.3822136015
 20
8.5933447217
 30
0.0
 10
12.3854957392
 20
8.5923621407
 30
0.0
 10
12.3887505666
 20
8.5910806743
 30
0.0
 10
12.3919763581
 20
8.5895013547
 30
0.0
 10
12.3951714941
 20
8.5876254921
 30
0.0
 10
12.3983344899
 20
8.585454392
 30
0.0
 10
12.4014639237
 20
8.5829894187
 30
0.0
 10
12.4045584867
 20
8.5802320549
 30
0.0
 10
12.4076167815
 20
8.5771837471
 30
0.0
 10
12.4106375423
 20
8.5738461464
 30
0.0
 10
12.4136193684
 20
8.5702208966
 30
0.0
 10
12.4165609485
 20
8.5663098355
 30
0.0
 10
12.4194609134
 20
8.5621148852
 30
0.0
 10
12.422317883
 20
8.557638104
 30
0.0
 10
12.425130539
 20
8.5528817147
 30
0.0
 10
12.4278974651
 20
8.5478480344
 30
0.0
 10
12.4306173766
 20
8.5425395738
 30
0.0
 10
12.4332888842
 20
8.5369589383
 30
0.0
 10
12.4359107029
 20
8.5311089076
 30
0.0
 10
12.4384815213
 20
8.5249923834
 30
0.0
 10
12.4410000423
 20
8.5186124071
 30
0.0
 10
12.4434650457
 20
8.5119721659
 30
0.0
 10
12.4458752402
 20
8.5050749668
 30
0.0
 10
12.4482294927
 20
8.4979242565
 30
0.0
 10
12.4513352437
 20
8.4879179228
 30
0.0
 10
12.4550580543
 20
8.4747955584
 30
0.0
 10
12.4592245196
 20
8.458307355
 30
0.0
 10
12.4631411823
 20
8.4408999889
 30
0.0
 10
12.4668000962
 20
8.422608358
 30
0.0
 10
12.470193817
 20
8.4034689953
 30
0.0
 10
12.4733154394
 20
8.3835202441
 30
0.0
 10
12.4761586093
 20
8.3628020936
 30
0.0
 10
12.4787175389
 20
8.3413561127
 30
0.0
 10
12.4809870182
 20
8.3192253539
 30
0.0
 10
12.4829624254
 20
8.2964542661
 30
0.0
 10
12.4846397394
 20
8.2730886014
 30
0.0
 10
12.4860155444
 20
8.2491753191
 30
0.0
 10
12.487087036
 20
8.2247624878
 30
0.0
 10
12.4878520261
 20
8.1998991869
 30
0.0
 10
12.4883089475
 20
8.1746354069
 30
0.0
 10
12.4884568562
 20
8.1490219481
 30
0.0
 10
12.4882954329
 20
8.1231103185
 30
0.0
 10
12.487824987
 20
8.0969526295
 30
0.0
 10
12.4870464524
 20
8.0706014894
 30
0.0
 10
12.4859613855
 20
8.0441098967
 30
0.0
 10
12.4845719616
 20
8.0175311329
 30
0.0
 10
12.4828809705
 20
7.9909186555
 30
0.0
 10
12.4808918111
 20
7.9643259908
 30
0.0
 10
12.478608484
 20
7.9378066251
 30
0.0
 10
12.4760355871
 20
7.9114138967
 30
0.0
 10
12.4731783031
 20
7.8852008873
 30
0.0
 10
12.470042389
 20
7.8592203157
 30
0.0
 10
12.4666341646
 20
7.8335244312
 30
0.0
 10
12.4629605001
 20
7.8081649085
 30
0.0
 10
12.4590288022
 20
7.7831927434
 30
0.0
 10
12.4548469996
 20
7.7586581487
 30
0.0
 10
12.45042353
 20
7.7346104506
 30
0.0
 10
12.4457673206
 20
7.7110979892
 30
0.0
 10
12.4408877702
 20
7.6881680204
 30
0.0
 10
12.4357947306
 20
7.66586662
 30
0.0
 10
12.430498487
 20
7.6442385891
 30
0.0
 10
12.4250097374
 20
7.6233273615
 30
0.0
 10
12.4193395705
 20
7.6031749104
 30
0.0
 10
12.4134994463
 20
7.5838216595
 30
0.0
 10
12.4075011685
 20
7.5653063902
 30
0.0
 10
12.4013568591
 20
7.5476661796
 30
0.0
 10
12.3950789278
 20
7.5309362398
 30
0.0
 10
12.388680049
 20
7.5151501015
 30
0.0
 10
12.383184448
 20
7.5026407022
 30
0.0
 10
12.3787293163
 20
7.4931371263
 30
0.0
 10
12.3754119352
 20
7.4863632958
 30
0.0
 10
12.372073994
 20
7.4798480701
 30
0.0
 10
12.3687171623
 20
7.4735946933
 30
0.0
 10
12.3653431287
 20
7.4676062864
 30
0.0
 10
12.3619535514
 20
7.4618858425
 30
0.0
 10
12.358550159
 20
7.4564361882
 30
0.0
 10
12.3551345881
 20
7.4512600612
 30
0.0
 10
12.3517085986
 20
7.4463600118
 30
0.0
 10
12.3482738324
 20
7.4417384775
 30
0.0
 10
12.3448319581
 20
7.437397706
 30
0.0
 10
12.3413845856
 20
7.4333398019
 30
0.0
 10
12.3379335392
 20
7.4295669678
 30
0.0
 10
12.3355837024
 20
7.4271947218
 30
0.0
 10
12.3344081361
 20
7.426059212
 30
0.0
  0
SPLINE
  5
3F4
100
AcDbEntity
  8
0
100
AcDbSpline
 62
7
  6
CONTINUOUS
 70
0
 71
3
 72
35
 73
31
 74
0
 42
0.0000001
 43
0.0000001
 44
0.0000000001
 40
0.0
 40
0.0
 40
0.0
 40
0.0
 40
0.063962453
 40
0.1275563694
 40
0.1907942804
 40
0.2536968929
 40
0.2850392363
 40
0.316310186
 40
0.3475150181
 40
0.3786594913
 40
0.4097498185
 40
0.4407926309
 40
0.4717949127
 40
0.5027639573
 40
0.5337073199
 40
0.5646327463
 40
0.5955481201
 40
0.6264614091
 40
0.6573805911
 40
0.6883135975
 40
0.7192682605
 40
0.7502522393
 40
0.781272967
 40
0.8123376036
 40
0.8434529675
 40
0.8746254917
 40
0.905861187
 40
0.9371655813
 40
0.9685436919
 40
1.0
 40
1.0
 40
1.0
 40
1.0
 10
10.7082319125
 20
6.495075328
 30
0.0
 10
10.7159564144
 20
6.4945396319
 30
0.0
 10
10.7314130184
 20
6.4941083517
 30
0.0
 10
10.7544998983
 20
6.4954035284
 30
0.0
 10
10.7772680712
 20
6.4986330946
 30
0.0
 10
10.7958694489
 20
6.5029249471
 30
0.0
 10
10.8104251356
 20
6.5072981112
 30
0.0
 10
10.8211530786
 20
6.5110377013
 30
0.0
 10
10.8316847851
 20
6.5152339561
 30
0.0
 10
10.8420021925
 20
6.5198797016
 30
0.0
 10
10.8520872991
 20
6.5249668502
 30
0.0
 10
10.8619226182
 20
6.53048653
 30
0.0
 10
10.8714910126
 20
6.536429219
 30
0.0
 10
10.8807758663
 20
6.5427845635
 30
0.0
 10
10.8897610593
 20
6.5495414979
 30
0.0
 10
10.8984309261
 20
6.5566883416
 30
0.0
 10
10.9067704292
 20
6.5642126298
 30
0.0
 10
10.9147650831
 20
6.5721012794
 30
0.0
 10
10.9224009416
 20
6.5803406271
 30
0.0
 10
10.9296647844
 20
6.5889163018
 30
0.0
 10
10.9365439828
 20
6.5978134056
 30
0.0
 10
10.9430265386
 20
6.6070165042
 30
0.0
 10
10.9491012517
 20
6.6165095545
 30
0.0
 10
10.9547575465
 20
6.6262760743
 30
0.0
 10
10.9599855683
 20
6.6362991004
 30
0.0
 10
10.9647763073
 20
6.6465611821
 30
0.0
 10
10.9691214014
 20
6.6570444867
 30
0.0
 10
10.9730133146
 20
6.6677308682
 30
0.0
 10
10.9764453022
 20
6.6786014642
 30
0.0
 10
10.9784202702
 20
6.685949986
 30
0.0
 10
10.9793294049
 20
6.6896478512
 30
0.0
  0
SPLINE
  5
3F5
100
AcDbEntity
  8
0
100
AcDbSpline
 62
4
  6
CONTINUOUS
 70
0
 71
3
 72
403
 73
399
 74
0
 42
0.0000001
 43
0.0000001
 44
0.0000000001
 40
0.0
 40
0.0
 40
0.0
 40
0.0
 40
0.015625
 40
0.0234375
 40
0.03125
 40
0.0390625
 40
0.04296875
 40
0.046875
 40
0.05078125
 40
0.0546875
 40
0.056640625
 40
0.05859375
 40
0.0595703125
 40
0.060546875
 40
0.0615234375
 40
0.0620117188
 40
0.0622558594
 40
0.0625
 40
0.0627441406
 40
0.0629882812
 40
0.0634765625
 40
0.064453125
 40
0.0654296875
 40
0.06640625
 40
0.068359375
 40
0.0703125
 40
0.07421875
 40
0.078125
 40
0.08203125
 40
0.0859375
 40
0.09375
 40
0.1015625
 40
0.10546875
 40
0.109375
 40
0.11328125
 40
0.1171875
 40
0.119140625
 40
0.12109375
 40
0.1220703125
 40
0.123046875
 40
0.1240234375
 40
0.1245117188
 40
0.1247558594
 40
0.125
 40
0.1252441406
 40
0.1254882812
 40
0.1259765625
 40
0.126953125
 40
0.1279296875
 40
0.12890625
 40
0.130859375
 40
0.1328125
 40
0.13671875
 40
0.140625
 40
0.14453125
 40
0.1484375
 40
0.15625
 40
0.1640625
 40
0.16796875
 40
0.171875
 40
0.17578125
 40
0.1796875
 40
0.181640625
 40
0.18359375
 40
0.1845703125
 40
0.185546875
 40
0.1865234375
 40
0.1870117188
 40
0.1872558594
 40
0.1875
 40
0.1877441406
 40
0.1879882812
 40
0.1884765625
 40
0.189453125
 40
0.1904296875
 40
0.19140625
 40
0.193359375
 40
0.1953125
 40
0.19921875
 40
0.203125
 40
0.20703125
 40
0.2109375
 40
0.21875
 40
0.2265625
 40
0.23046875
 40
0.234375
 40
0.23828125
 40
0.2421875
 40
0.244140625
 40
0.24609375
 40
0.2470703125
 40
0.248046875
 40
0.2490234375
 40
0.2495117188
 40
0.2497558594
 40
0.25
 40
0.2502441406
 40
0.2504882812
 40
0.2509765625
 40
0.251953125
 40
0.2529296875
 40
0.25390625
 40
0.255859375
 40
0.2578125
 40
0.26171875
 40
0.265625
 40
0.26953125
 40
0.2734375
 40
0.28125
 40
0.2890625
 40
0.29296875
 40
0.296875
 40
0.30078125
 40
0.3046875
 40
0.306640625
 40
0.30859375
 40
0.3095703125
 40
0.310546875
 40
0.3115234375
 40
0.3120117188
 40
0.3122558594
 40
0.3125
 40
0.3127441406
 40
0.3129882812
 40
0.3134765625
 40
0.314453125
 40
0.3154296875
 40
0.31640625
 40
0.318359375
 40
0.3203125
 40
0.32421875
 40
0.328125
 40
0.33203125
 40
0.3359375
 40
0.34375
 40
0.3515625
 40
0.35546875
 40
0.359375
 40
0.36328125
 40
0.3671875
 40
0.369140625
 40
0.37109375
 40
0.3720703125
 40
0.373046875
 40
0.3740234375
 40
0.3745117188
 40
0.3747558594
 40
0.375
 40
0.3752441406
 40
0.3754882812
 40
0.3759765625
 40
0.376953125
 40
0.3779296875
 40
0.37890625
 40
0.380859375
 40
0.3828125
 40
0.38671875
 40
0.390625
 40
0.39453125
 40
0.3984375
 40
0.40625
 40
0.4140625
 40
0.41796875
 40
0.421875
 40
0.42578125
 40
0.4296875
 40
0.431640625
 40
0.43359375
 40
0.4345703125
 40
0.435546875
 40
0.4365234375
 40
0.4370117188
 40
0.4372558594
 40
0.4375
 40
0.4377441406
 40
0.4379882812
 40
0.4384765625
 40
0.439453125
 40
0.4404296875
 40
0.44140625
 40
0.443359375
 40
0.4453125
 40
0.44921875
 40
0.453125
 40
0.45703125
 40
0.4609375
 40
0.46875
 40
0.4765625
 40
0.48046875
 40
0.484375
 40
0.48828125
 40
0.4921875
 40
0.494140625
 40
0.49609375
 40
0.4970703125
 40
0.498046875
 40
0.4990234375
 40
0.4995117188
 40
0.4997558594
 40
0.5
 40
0.5002441406
 40
0.5004882812
 40
0.5009765625
 40
0.501953125
 40
0.5029296875
 40
0.50390625
 40
0.505859375
 40
0.5078125
 40
0.51171875
 40
0.515625
 40
0.51953125
 40
0.5234375
 40
0.53125
 40
0.5390625
 40
0.54296875
 40
0.546875
 40
0.55078125
 40
0.5546875
 40
0.556640625
 40
0.55859375
 40
0.5595703125
 40
0.560546875
 40
0.5615234375
 40
0.5620117188
 40
0.5622558594
 40
0.5625
 40
0.5627441406
 40
0.5629882812
 40
0.5634765625
 40
0.564453125
 40
0.5654296875
 40
0.56640625
 40
0.568359375
 40
0.5703125
 40
0.57421875
 40
0.578125
 40
0.58203125
 40
0.5859375
 40
0.59375
 40
0.6015625
 40
0.60546875
 40
0.609375
 40
0.61328125
 40
0.6171875
 40
0.619140625
 40
0.62109375
 40
0.6220703125
 40
0.623046875
 40
0.6240234375
 40
0.6245117188
 40
0.6247558594
 40
0.625
 40
0.6252441406
 40
0.6254882812
 40
0.6259765625
 40
0.626953125
 40
0.6279296875
 40
0.62890625
 40
0.630859375
 40
0.6328125
 40
0.63671875
 40
0.640625
 40
0.64453125
 40
0.6484375
 40
0.65625
 40
0.6640625
 40
0.66796875
 40
0.671875
 40
0.67578125
 40
0.6796875
 40
0.681640625
 40
0.68359375
 40
0.6845703125
 40
0.685546875
 40
0.6865234375
 40
0.6870117188
 40
0.6872558594
 40
0.6875
 40
0.6877441406
 40
0.6879882812
 40
0.6884765625
 40
0.689453125
 40
0.6904296875
 40
0.69140625
 40
0.693359375
 40
0.6953125
 40
0.69921875
 40
0.703125
 40
0.70703125
 40
0.7109375
 40
0.71875
 40
0.7265625
 40
0.73046875
 40
0.734375
 40
0.73828125
 40
0.7421875
 40
0.744140625
 40
0.74609375
 40
0.7470703125
 40
0.748046875
 40
0.7490234375
 40
0.7495117188
 40
0.7497558594
 40
0.75
 40
0.7502441406
 40
0.7504882812
 40
0.7509765625
 40
0.751953125
 40
0.7529296875
 40
0.75390625
 40
0.755859375
 40
0.7578125
 40
0.76171875
 40
0.765625
 40
0.76953125
 40
0.7734375
 40
0.78125
 40
0.7890625
 40
0.79296875
 40
0.796875
 40
0.80078125
 40
0.8046875
 40
0.806640625
 40
0.80859375
 40
0.8095703125
 40
0.810546875
 40
0.8115234375
 40
0.8120117188
 40
0.8122558594
 40
0.8125
 40
0.8127441406
 40
0.8129882812
 40
0.8134765625
 40
0.814453125
 40
0.8154296875
 40
0.81640625
 40
0.818359375
 40
0.8203125
 40
0.82421875
 40
0.828125
 40
0.83203125
 40
0.8359375
 40
0.84375
 40
0.8515625
 40
0.85546875
 40
0.859375
 40
0.86328125
 40
0.8671875
 40
0.869140625
 40
0.87109375
 40
0.8720703125
 40
0.873046875
 40
0.8740234375
 40
0.8745117188
 40
0.8747558594
 40
0.875
 40
0.8752441406
 40
0.8754882812
 40
0.8759765625
 40
0.876953125
 40
0.8779296875
 40
0.87890625
 40
0.880859375
 40
0.8828125
 40
0.88671875
 40
0.890625
 40
0.89453125
 40
0.8984375
 40
0.90625
 40
0.9140625
 40
0.91796875
 40
0.921875
 40
0.92578125
 40
0.9296875
 40
0.931640625
 40
0.93359375
 40
0.9345703125
 40
0.935546875
 40
0.9365234375
 40
0.9370117188
 40
0.9372558594
 40
0.9375
 40
0.9377441406
 40
0.9379882812
 40
0.9384765625
 40
0.939453125
 40
0.9404296875
 40
0.94140625
 40
0.943359375
 40
0.9453125
 40
0.94921875
 40
0.953125
 40
0.95703125
 40
0.9609375
 40
0.96875
 40
0.9765625
 40
0.984375
 40
1.0
 40
1.0
 40
1.0
 40
1.0
 10
10.8759463135
 20
7.4514250805
 30
0.0
 10
10.8762535252
 20
7.4482705884
 30
0.0
 10
10.8767143427
 20
7.4435388502
 30
0.0
 10
10.877328766
 20
7.437229866
 30
0.0
 10
10.8777895836
 20
7.4324981278
 30
0.0
 10
10.878173598
 20
7.4285550126
 30
0.0
 10
10.87848081
 20
7.4254005205
 30
0.0
 10
10.8787112177
 20
7.4230346513
 30
0.0
 10
10.8789416302
 20
7.4206687827
 30
0.0
 10
10.879133626
 20
7.4186972237
 30
0.0
 10
10.8792872552
 20
7.4171199806
 30
0.0
 10
10.8793831994
 20
7.4161341942
 30
0.0
 10
10.8794601244
 20
7.4153455868
 30
0.0
 10
10.8795173536
 20
7.4147540716
 30
0.0
 10
10.8795665223
 20
7.4142613323
 30
0.0
 10
10.8795980405
 20
7.4139160418
 30
0.0
 10
10.8796205788
 20
7.4137193154
 30
0.0
 10
10.8796247274
 20
7.4135701296
 30
0.0
 10
10.8796776325
 20
7.4134272166
 30
0.0
 10
10.8797311658
 20
7.4132344779
 30
0.0
 10
10.8798327728
 20
7.4128982046
 30
0.0
 10
10.879973783
 20
7.4124172812
 30
0.0
 10
10.8801447685
 20
7.4118404013
 30
0.0
 10
10.8803721297
 20
7.4110711483
 30
0.0
 10
10.8806565434
 20
7.4101096095
 30
0.0
 10
10.8811114867
 20
7.408571132
 30
0.0
 10
10.8816802065
 20
7.4066480404
 30
0.0
 10
10.8823626529
 20
7.4043403283
 30
0.0
 10
10.8830451039
 20
7.4020326167
 30
0.0
 10
10.883955037
 20
7.3989556678
 30
0.0
 10
10.8850924539
 20
7.3951094817
 30
0.0
 10
10.8862298705
 20
7.3912632955
 30
0.0
 10
10.8871398042
 20
7.3881863467
 30
0.0
 10
10.8878222533
 20
7.3858786347
 30
0.0
 10
10.8885047068
 20
7.3835709243
 30
0.0
 10
10.8890734044
 20
7.3816478275
 30
0.0
 10
10.8895283931
 20
7.3801093606
 30
0.0
 10
10.8898126913
 20
7.3791477949
 30
0.0
 10
10.8900402897
 20
7.3783785971
 30
0.0
 10
10.8902105507
 20
7.3778015487
 30
0.0
 10
10.8903538275
 20
7.3773211524
 30
0.0
 10
10.8904513882
 20
7.3769839381
 30
0.0
 10
10.8905114047
 20
7.3767927072
 30
0.0
 10
10.8905443954
 20
7.3766451627
 30
0.0
 10
10.8906233389
 20
7.3765133718
 30
0.0
 10
10.890712568
 20
7.3763321556
 30
0.0
 10
10.8908761871
 20
7.3760175874
 30
0.0
 10
10.8911060242
 20
7.3755668657
 30
0.0
 10
10.8913835
 20
7.3750265726
 30
0.0
 10
10.8917528839
 20
7.3743059818
 30
0.0
 10
10.8922148137
 20
7.3734053117
 30
0.0
 10
10.8929537897
 20
7.3719642014
 30
0.0
 10
10.8938775481
 20
7.3701628265
 30
0.0
 10
10.8949860416
 20
7.3680011711
 30
0.0
 10
10.8960945396
 20
7.3658395172
 30
0.0
 10
10.8975725353
 20
7.3629573114
 30
0.0
 10
10.8994200306
 20
7.3593545545
 30
0.0
 10
10.9012675254
 20
7.3557517973
 30
0.0
 10
10.9027455218
 20
7.3528695918
 30
0.0
 10
10.9038540179
 20
7.3507079371
 30
0.0
 10
10.9049625183
 20
7.3485462845
 30
0.0
 10
10.9058862553
 20
7.346744901
 30
0.0
 10
10.9066252747
 20
7.3453038083
 30
0.0
 10
10.9070870941
 20
7.3444030932
 30
0.0
 10
10.9074567048
 20
7.3436825949
 30
0.0
 10
10.9077334878
 20
7.3431420192
 30
0.0
 10
10.9079654924
 20
7.3426921816
 30
0.0
 10
10.9081252422
 20
7.3423760353
 30
0.0
 10
10.9082206709
 20
7.3421973476
 30
0.0
 10
10.9082805711
 20
7.3420577897
 30
0.0
 10
10.9083850852
 20
7.3419394167
 30
0.0
 10
10.9085088754
 20
7.3417741964
 30
0.0
 10
10.908732759
 20
7.3414885038
 30
0.0
 10
10.9090488019
 20
7.3410785716
 30
0.0
 10
10.909429676
 20
7.3405874234
 30
0.0
 10
10.9099369413
 20
7.33993229
 30
0.0
 10
10.9105712171
 20
7.3391134654
 30
0.0
 10
10.9115859498
 20
7.3378032945
 30
0.0
 10
10.912854403
 20
7.3361655986
 30
0.0
 10
10.9143765308
 20
7.3342003559
 30
0.0
 10
10.9158986629
 20
7.3322351153
 30
0.0
 10
10.9179281708
 20
7.3296147937
 30
0.0
 10
10.9204650563
 20
7.326339392
 30
0.0
 10
10.9230019415
 20
7.3230639901
 30
0.0
 10
10.92503145
 20
7.3204436689
 30
0.0
 10
10.9265535805
 20
7.3184784271
 30
0.0
 10
10.9280757141
 20
7.3165131888
 30
0.0
 10
10.9293441491
 20
7.3148754793
 30
0.0
 10
10.9303589189
 20
7.3135653362
 30
0.0
 10
10.9309931004
 20
7.312746441
 30
0.0
 10
10.9315005592
 20
7.3120914525
 30
0.0
 10
10.9318808425
 20
7.3115998617
 30
0.0
 10
10.9321987338
 20
7.3111913141
 30
0.0
 10
10.9324193177
 20
7.3109031497
 30
0.0
 10
10.9325483948
 20
7.31074189
 30
0.0
 10
10.9326366694
 20
7.3106113513
 30
0.0
 10
10.9327575621
 20
7.3105174854
 30
0.0
 10
10.9329073749
 20
7.310379539
 30
0.0
 10
10.9331748482
 20
7.3101440927
 30
0.0
 10
10.9335541815
 20
7.3098046249
 30
0.0
 10
10.9340105677
 20
7.3093985973
 30
0.0
 10
10.9346186683
 20
7.3088567614
 30
0.0
 10
10.935378936
 20
7.3081796259
 30
0.0
 10
10.9365952849
 20
7.30709612
 30
0.0
 10
10.9381157483
 20
7.3057417683
 30
0.0
 10
10.9399402927
 20
7.304116533
 30
0.0
 10
10.9417648403
 20
7.3024913013
 30
0.0
 10
10.9441975692
 20
7.3003243245
 30
0.0
 10
10.9472384808
 20
7.2976156039
 30
0.0
 10
10.9502793922
 20
7.2949068829
 30
0.0
 10
10.9527121215
 20
7.2927399066
 30
0.0
 10
10.9545366678
 20
7.2911146734
 30
0.0
 10
10.9563612168
 20
7.2894894439
 30
0.0
 10
10.957881666
 20
7.2881350742
 30
0.0
 10
10.9590980439
 20
7.2870516048
 30
0.0
 10
10.959858238
 20
7.2863743766
 30
0.0
 10
10.9604664895
 20
7.285832731
 30
0.0
 10
10.9609224147
 20
7.2854261217
 30
0.0
 10
10.9613031904
 20
7.2850884741
 30
0.0
 10
10.9615680889
 20
7.2848497784
 30
0.0
 10
10.9617220271
 20
7.2847170384
 30
0.0
 10
10.9618302475
 20
7.28460718
 30
0.0
 10
10.9619661174
 20
7.2845367065
 30
0.0
 10
10.9621376328
 20
7.2844290039
 30
0.0
 10
10.9624422784
 20
7.2842469252
 30
0.0
 10
10.962875137
 20
7.2839834663
 30
0.0
 10
10.9633955729
 20
7.283668748
 30
0.0
 10
10.9640891362
 20
7.2832486233
 30
0.0
 10
10.9649562106
 20
7.2827236387
 30
0.0
 10
10.9663434624
 20
7.2818835677
 30
0.0
 10
10.9680775503
 20
7.2808335117
 30
0.0
 10
10.9701584458
 20
7.2795734305
 30
0.0
 10
10.972239344
 20
7.278313353
 30
0.0
 10
10.975013874
 20
7.2766332484
 30
0.0
 10
10.9784820368
 20
7.2745331182
 30
0.0
 10
10.9819501994
 20
7.2724329876
 30
0.0
 10
10.9847247297
 20
7.2707528835
 30
0.0
 10
10.986805627
 20
7.2694928044
 30
0.0
 10
10.9888865261
 20
7.2682327295
 30
0.0
 10
10.9906206029
 20
7.2671826538
 30
0.0
 10
10.9920078772
 20
7.266342623
 30
0.0
 10
10.9928748945
 20
7.265817536
 30
0.0
 10
10.9935685749
 20
7.2653976215
 30
0.0
 10
10.9940886532
 20
7.2650822611
 30
0.0
 10
10.9945226307
 20
7.2648208112
 30
0.0
 10
10.9948252789
 20
7.264635146
 30
0.0
 10
10.9949999945
 20
7.2645331899
 30
0.0
 10
10.9951260344
 20
7.2644450651
 30
0.0
 10
10.9952711748
 20
7.264401502
 30
0.0
 10
10.995458033
 20
7.2643278742
 30
0.0
 10
10.9957881389
 20
7.2642062677
 30
0.0
 10
10.9962580958
 20
7.2640287579
 30
0.0
 10
10.9968227389
 20
7.2638173667
 30
0.0
 10
10.9975753536
 20
7.2635349458
 30
0.0
 10
10.9985162051
 20
7.2631821135
 30
0.0
 10
11.000021521
 20
7.2626174734
 30
0.0
 10
11.0019031818
 20
7.2619117105
 30
0.0
 10
11.004161168
 20
7.261064779
 30
0.0
 10
11.0064191561
 20
7.2602178518
 30
0.0
 10
11.0094298061
 20
7.2590886141
 30
0.0
 10
11.0131931189
 20
7.2576770675
 30
0.0
 10
11.0169564316
 20
7.2562655205
 30
0.0
 10
11.0199670819
 20
7.2551362834
 30
0.0
 10
11.0222250692
 20
7.2542893544
 30
0.0
 10
11.0244830579
 20
7.2534424299
 30
0.0
 10
11.0263647109
 20
7.2527366453
 30
0.0
 10
11.0278700429
 20
7.2521720495
 30
0.0
 10
11.0288108535
 20
7.2518191046
 30
0.0
 10
11.0295635521
 20
7.2515369147
 30
0.0
 10
11.030127939
 20
7.2513248177
 30
0.0
 10
11.0305986972
 20
7.2511495163
 30
0.0
 10
11.0309273727
 20
7.2510239673
 30
0.0
 10
11.0311165227
 20
7.2509566564
 30
0.0
 10
11.0312546235
 20
7.25089369
 30
0.0
 10
11.0314071033
 20
7.2508784408
 30
0.0
 10
11.0316053942
 20
7.2508414643
 30
0.0
 10
11.0319547401
 20
7.2507845103
 30
0.0
 10
11.0324525839
 20
7.2506990931
 30
0.0
 10
11.0330505195
 20
7.2505983278
 30
0.0
 10
11.0338475843
 20
7.250463368
 30
0.0
 10
11.0348439777
 20
7.2502948758
 30
0.0
 10
11.0364381724
 20
7.2500251722
 30
0.0
 10
11.0384309276
 20
7.2496880825
 30
0.0
 10
11.0408222288
 20
7.2492835578
 30
0.0
 10
11.0432135314
 20
7.2488790377
 30
0.0
 10
11.0464019343
 20
7.2483396759
 30
0.0
 10
11.0503874381
 20
7.2476654744
 30
0.0
 10
11.0543729419
 20
7.2469912724
 30
0.0
 10
11.0575613449
 20
7.2464519113
 30
0.0
 10
11.0599526473
 20
7.2460473892
 30
0.0
 10
11.0623439492
 20
7.2456428719
 30
0.0
 10
11.0643367021
 20
7.2453057591
 30
0.0
 10
11.0659309015
 20
7.2450361028
 30
0.0
 10
11.0669272829
 20
7.2448674902
 30
0.0
 10
11.0677243725
 20
7.2447327773
 30
0.0
 10
11.0683222322
 20
7.2446312577
 30
0.0
 10
11.0688203133
 20
7.2445482007
 30
0.0
 10
11.0691692357
 20
7.2444870332
 30
0.0
 10
11.0693682051
 20
7.2444568078
 30
0.0
 10
11.0695186007
 20
7.2444208215
 30
0.0
 10
11.0696645297
 20
7.2444357404
 30
0.0
 10
11.0698606596
 20
7.2444378761
 30
0.0
 10
11.0702031611
 20
7.2444498864
 30
0.0
 10
11.0706928284
 20
7.2444627188
 30
0.0
 10
11.0712802668
 20
7.244479969
 30
0.0
 10
11.0720635747
 20
7.2445023226
 30
0.0
 10
11.0730426902
 20
7.2445304861
 30
0.0
 10
11.0746092858
 20
7.2445754239
 30
0.0
 10
11.0765675266
 20
7.2446316386
 30
0.0
 10
11.0789174171
 20
7.2446990781
 30
0.0
 10
11.0812673072
 20
7.2447665224
 30
0.0
 10
11.0844004941
 20
7.2448564465
 30
0.0
 10
11.0883169778
 20
7.2449688522
 30
0.0
 10
11.0922334615
 20
7.2450812576
 30
0.0
 10
11.0953666483
 20
7.2451711823
 30
0.0
 10
11.0977165387
 20
7.2452386246
 30
0.0
 10
11.1000664282
 20
7.2453060717
 30
0.0
 10
11.1020246722
 20
7.2453622628
 30
0.0
 10
11.1035912611
 20
7.2454072487
 30
0.0
 10
11.1045703938
 20
7.2454352898
 30
0.0
 10
11.1053536663
 20
7.2454578946
 30
0.0
 10
11.1059412127
 20
7.2454743774
 30
0.0
 10
11.1064305421
 20
7.245489611
 30
0.0
 10
11.1067736469
 20
7.2454973348
 30
0.0
 10
11.1069688102
 20
7.2455063385
 30
0.0
 10
11.1071177083
 20
7.245500161
 30
0.0
 10
11.1072569523
 20
7.2455434094
 30
0.0
 10
11.1074459785
 20
7.2455838337
 30
0.0
 10
11.1077752053
 20
7.2456626087
 30
0.0
 10
11.1082463496
 20
7.245770945
 30
0.0
 10
11.1088113717
 20
7.245902746
 30
0.0
 10
11.109564857
 20
7.2460778529
 30
0.0
 10
11.1105066718
 20
7.2462969515
 30
0.0
 10
11.1120135988
 20
7.2466473891
 30
0.0
 10
11.1138972495
 20
7.2470854773
 30
0.0
 10
11.1161576339
 20
7.2476111655
 30
0.0
 10
11.1184180173
 20
7.2481368584
 30
0.0
 10
11.1214318621
 20
7.2488377806
 30
0.0
 10
11.1251991681
 20
7.249713934
 30
0.0
 10
11.1289664742
 20
7.250590087
 30
0.0
 10
11.1319803188
 20
7.2512910098
 30
0.0
 10
11.1342407028
 20
7.2518167008
 30
0.0
 10
11.136501085
 20
7.2523423963
 30
0.0
 10
11.1383847424
 20
7.2527804618
 30
0.0
 10
11.1398916558
 20
7.2531309457
 30
0.0
 10
11.1408335054
 20
7.2533499263
 30
0.0
 10
11.1415869191
 20
7.2535252753
 30
0.0
 10
11.1421521599
 20
7.2536563367
 30
0.0
 10
11.1426226199
 20
7.2537669871
 30
0.0
 10
11.1429530684
 20
7.2538416311
 30
0.0
 10
11.1431401371
 20
7.2538886743
 30
0.0
 10
11.1432853936
 20
7.2539115915
 30
0.0
 10
11.1434117098
 20
7.2539817749
 30
0.0
 10
11.143586738
 20
7.2540588658
 30
0.0
 10
11.1438899592
 20
7.2542014564
 30
0.0
 10
11.1443247416
 20
7.2544011412
 30
0.0
 10
11.1448457916
 20
7.254642482
 30
0.0
 10
11.1455407656
 20
7.2549636694
 30
0.0
 10
11.1464094007
 20
7.2553653592
 30
0.0
 10
11.1477992629
 20
7.2560079479
 30
0.0
 10
11.1495365749
 20
7.2568112232
 30
0.0
 10
11.151621356
 20
7.2577751367
 30
0.0
 10
11.1537061354
 20
7.2587390547
 30
0.0
 10
11.1564858418
 20
7.2600242772
 30
0.0
 10
11.1599604745
 20
7.2616308058
 30
0.0
 10
11.1634351075
 20
7.2632373341
 30
0.0
 10
11.1662148136
 20
7.2645225571
 30
0.0
 10
11.1682995938
 20
7.2654864733
 30
0.0
 10
11.1703843716
 20
7.2664503938
 30
0.0
 10
11.1721216938
 20
7.2672536472
 30
0.0
 10
11.1735115353
 20
7.2678962808
 30
0.0
 10
11.1743802231
 20
7.2682978564
 30
0.0
 10
11.1750750889
 20
7.268619278
 30
0.0
 10
11.1755964695
 20
7.2688599031
 30
0.0
 10
11.1760302176
 20
7.2690618272
 30
0.0
 10
11.1763352852
 20
7.2692004204
 30
0.0
 10
11.1765073549
 20
7.2692839161
 30
0.0
 10
11.1766427587
 20
7.269334426
 30
0.0
 10
11.1767538837
 20
7.2694312335
 30
0.0
 10
11.176910519
 20
7.2695441611
 30
0.0
 10
11.1771806852
 20
7.2697493086
 30
0.0
 10
11.1775686998
 20
7.2700384426
 30
0.0
 10
11.1780334343
 20
7.2703870872
 30
0.0
 10
11.1786533888
 20
7.2708513586
 30
0.0
 10
11.1794282262
 20
7.2714318992
 30
0.0
 10
11.1806680251
 20
7.2723606516
 30
0.0
 10
11.1822177535
 20
7.2735216307
 30
0.0
 10
11.1840774362
 20
7.2749147891
 30
0.0
 10
11.1859371167
 20
7.2763079519
 30
0.0
 10
11.1884166914
 20
7.2781655007
 30
0.0
 10
11.1915161594
 20
7.2804874374
 30
0.0
 10
11.1946156278
 20
7.2828093737
 30
0.0
 10
11.1970952021
 20
7.2846669231
 30
0.0
 10
11.1989548838
 20
7.2860600843
 30
0.0
 10
11.2008145617
 20
7.2874532488
 30
0.0
 10
11.202364305
 20
7.2886142088
 30
0.0
 10
11.2036040736
 20
7.2895430003
 30
0.0
 10
11.2043789881
 20
7.2901234413
 30
0.0
 10
11.2049987843
 20
7.290587917
 30
0.0
 10
11.2054640023
 20
7.2909359374
 30
0.0
 10
11.205850504
 20
7.2912270247
 30
0.0
 10
11.2061233709
 20
7.2914286852
 30
0.0
 10
11.2062756791
 20
7.2915471997
 30
0.0
 10
11.2064000959
 20
7.291626846
 30
0.0
 10
11.2064855779
 20
7.2917418105
 30
0.0
 10
11.2066131348
 20
7.2918827772
 30
0.0
 10
11.2068300317
 20
7.2921352086
 30
0.0
 10
11.2071431926
 20
7.2924928241
 30
0.0
 10
11.2075175697
 20
7.2929232472
 30
0.0
 10
11.2080172338
 20
7.293496696
 30
0.0
 10
11.2086416445
 20
7.2942136606
 30
0.0
 10
11.2096407963
 20
7.2953607182
 30
0.0
 10
11.2108897036
 20
7.2967945696
 30
0.0
 10
11.2123884062
 20
7.2985151786
 30
0.0
 10
11.2138871051
 20
7.300235791
 30
0.0
 10
11.2158853716
 20
7.3025299397
 30
0.0
 10
11.2183832043
 20
7.305397626
 30
0.0
 10
11.2208810373
 20
7.308265312
 30
0.0
 10
11.2228793033
 20
7.3105594612
 30
0.0
 10
11.2243780038
 20
7.3122800723
 30
0.0
 10
11.2258767004
 20
7.3140006863
 30
0.0
 10
11.2271256265
 20
7.3154345222
 30
0.0
 10
11.2281247399
 20
7.3165816113
 30
0.0
 10
11.2287492485
 20
7.3172984956
 30
0.0
 10
11.2292487116
 20
7.3178721092
 30
0.0
 10
11.2296237025
 20
7.3183020287
 30
0.0
 10
11.2299349431
 20
7.3186612198
 30
0.0
 10
11.2301552681
 20
7.3189108387
 30
0.0
 10
11.2302773324
 20
7.3190563118
 30
0.0
 10
11.2303796857
 20
7.3191574339
 30
0.0
 10
11.2304407366
 20
7.3192890699
 30
0.0
 10
11.2305365445
 20
7.319453941
 30
0.0
 10
11.2306974961
 20
7.3197474245
 30
0.0
 10
11.2309309361
 20
7.320164094
 30
0.0
 10
11.231209562
 20
7.3206652072
 30
0.0
 10
11.231581588
 20
7.3213329704
 30
0.0
 10
11.2320464407
 20
7.3221678071
 30
0.0
 10
11.2327903055
 20
7.3235034718
 30
0.0
 10
11.2337201021
 20
7.325173078
 30
0.0
 10
11.2348358727
 20
7.3271765946
 30
0.0
 10
11.2359516394
 20
7.3291801141
 30
0.0
 10
11.2374393297
 20
7.3318514724
 30
0.0
 10
11.239298942
 20
7.3351906707
 30
0.0
 10
11.2411585548
 20
7.3385298687
 30
0.0
 10
11.2426462445
 20
7.3412012274
 30
0.0
 10
11.2437620129
 20
7.3432047458
 30
0.0
 10
11.244877777
 20
7.3452082664
 30
0.0
 10
11.245807594
 20
7.3468778602
 30
0.0
 10
11.246551417
 20
7.3482135502
 30
0.0
 10
11.2470163761
 20
7.3490483225
 30
0.0
 10
11.2473881838
 20
7.3497162179
 30
0.0
 10
11.2476674766
 20
7.3502169272
 30
0.0
 10
11.24789883
 20
7.3506348603
 30
0.0
 10
11.2480635066
 20
7.3509260881
 30
0.0
 10
11.2481533461
 20
7.3510945734
 30
0.0
 10
11.24823273
 20
7.3512151079
 30
0.0
 10
11.2482662276
 20
7.3513579253
 30
0.0
 10
11.2483268967
 20
7.351540576
 30
0.0
 10
11.2484256103
 20
7.3518638361
 30
0.0
 10
11.2485705285
 20
7.352323743
 30
0.0
 10
11.2487427615
 20
7.3528764416
 30
0.0
 10
11.2489729884
 20
7.35361309
 30
0.0
 10
11.2492605725
 20
7.3545339975
 30
0.0
 10
11.2497208185
 20
7.3560073953
 30
0.0
 10
11.2502960878
 20
7.3578491611
 30
0.0
 10
11.2509864274
 20
7.360059272
 30
0.0
 10
11.2516767626
 20
7.3622693851
 30
0.0
 10
11.252597211
 20
7.3652162019
 30
0.0
 10
11.253747771
 20
7.3688997231
 30
0.0
 10
11.2548983313
 20
7.3725832441
 30
0.0
 10
11.2558187791
 20
7.3755300611
 30
0.0
 10
11.2565091162
 20
7.3777401734
 30
0.0
 10
11.2571994486
 20
7.3799502874
 30
0.0
 10
11.2577747402
 20
7.3817920438
 30
0.0
 10
11.2582349409
 20
7.3832654608
 30
0.0
 10
11.2585226404
 20
7.3841863194
 30
0.0
 10
11.2587526304
 20
7.3849230681
 30
0.0
 10
11.2589255871
 20
7.3854754604
 30
0.0
 10
11.2590682412
 20
7.3859363255
 30
0.0
 10
11.2591709965
 20
7.3862578749
 30
0.0
 10
11.2592251898
 20
7.3864432666
 30
0.0
 10
11.2592785789
 20
7.3865776648
 30
0.0
 10
11.2592832536
 20
7.3867298205
 30
0.0
 10
11.2593064786
 20
7.3869265008
 30
0.0
 10
11.2593392053
 20
7.3872735773
 30
0.0
 10
11.259390097
 20
7.387767892
 30
0.0
 10
11.2594493953
 20
7.3883617155
 30
0.0
 10
11.2595290785
 20
7.3891532545
 30
0.0
 10
11.2596284706
 20
7.3901427556
 30
0.0
 10
11.2597876164
 20
7.3917259141
 30
0.0
 10
11.259986508
 20
7.3937048771
 30
0.0
 10
11.2602251954
 20
7.3960796263
 30
0.0
 10
11.2604638781
 20
7.3984543772
 30
0.0
 10
11.2607821234
 20
7.4016207112
 30
0.0
 10
11.2611799294
 20
7.4055786288
 30
0.0
 10
11.2616572968
 20
7.4103281299
 30
0.0
 10
11.2622937867
 20
7.4166607981
 30
0.0
 10
11.2627711541
 20
7.4214102992
 30
0.0
 10
11.263089399
 20
7.4245766333
 30
0.0
  0
SPLINE
  5
3F6
100
AcDbEntity
  8
0
100
AcDbSpline
 62
4
  6
CONTINUOUS
 70
0
 71
3
 72
403
 73
399
 74
0
 42
0.0000001
 43
0.0000001
 44
0.0000000001
 40
0.0
 40
0.0
 40
0.0
 40
0.0
 40
0.015625
 40
0.0234375
 40
0.03125
 40
0.0390625
 40
0.04296875
 40
0.046875
 40
0.05078125
 40
0.0546875
 40
0.056640625
 40
0.05859375
 40
0.0595703125
 40
0.060546875
 40
0.0615234375
 40
0.0620117188
 40
0.0622558594
 40
0.0625
 40
0.0627441406
 40
0.0629882812
 40
0.0634765625
 40
0.064453125
 40
0.0654296875
 40
0.06640625
 40
0.068359375
 40
0.0703125
 40
0.07421875
 40
0.078125
 40
0.08203125
 40
0.0859375
 40
0.09375
 40
0.1015625
 40
0.10546875
 40
0.109375
 40
0.11328125
 40
0.1171875
 40
0.119140625
 40
0.12109375
 40
0.1220703125
 40
0.123046875
 40
0.1240234375
 40
0.1245117188
 40
0.1247558594
 40
0.125
 40
0.1252441406
 40
0.1254882812
 40
0.1259765625
 40
0.126953125
 40
0.1279296875
 40
0.12890625
 40
0.130859375
 40
0.1328125
 40
0.13671875
 40
0.140625
 40
0.14453125
 40
0.1484375
 40
0.15625
 40
0.1640625
 40
0.16796875
 40
0.171875
 40
0.17578125
 40
0.1796875
 40
0.181640625
 40
0.18359375
 40
0.1845703125
 40
0.185546875
 40
0.1865234375
 40
0.1870117188
 40
0.1872558594
 40
0.1875
 40
0.1877441406
 40
0.1879882812
 40
0.1884765625
 40
0.189453125
 40
0.1904296875
 40
0.19140625
 40
0.193359375
 40
0.1953125
 40
0.19921875
 40
0.203125
 40
0.20703125
 40
0.2109375
 40
0.21875
 40
0.2265625
 40
0.23046875
 40
0.234375
 40
0.23828125
 40
0.2421875
 40
0.244140625
 40
0.24609375
 40
0.2470703125
 40
0.248046875
 40
0.2490234375
 40
0.2495117188
 40
0.2497558594
 40
0.25
 40
0.2502441406
 40
0.2504882812
 40
0.2509765625
 40
0.251953125
 40
0.2529296875
 40
0.25390625
 40
0.255859375
 40
0.2578125
 40
0.26171875
 40
0.265625
 40
0.26953125
 40
0.2734375
 40
0.28125
 40
0.2890625
 40
0.29296875
 40
0.296875
 40
0.30078125
 40
0.3046875
 40
0.306640625
 40
0.30859375
 40
0.3095703125
 40
0.310546875
 40
0.3115234375
 40
0.3120117188
 40
0.3122558594
 40
0.3125
 40
0.3127441406
 40
0.3129882812
 40
0.3134765625
 40
0.314453125
 40
0.3154296875
 40
0.31640625
 40
0.318359375
 40
0.3203125
 40
0.32421875
 40
0.328125
 40
0.33203125
 40
0.3359375
 40
0.34375
 40
0.3515625
 40
0.35546875
 40
0.359375
 40
0.36328125
 40
0.3671875
 40
0.369140625
 40
0.37109375
 40
0.3720703125
 40
0.373046875
 40
0.3740234375
 40
0.3745117188
 40
0.3747558594
 40
0.375
 40
0.3752441406
 40
0.3754882812
 40
0.3759765625
 40
0.376953125
 40
0.3779296875
 40
0.37890625
 40
0.380859375
 40
0.3828125
 40
0.38671875
 40
0.390625
 40
0.39453125
 40
0.3984375
 40
0.40625
 40
0.4140625
 40
0.41796875
 40
0.421875
 40
0.42578125
 40
0.4296875
 40
0.431640625
 40
0.43359375
 40
0.4345703125
 40
0.435546875
 40
0.4365234375
 40
0.4370117188
 40
0.4372558594
 40
0.4375
 40
0.4377441406
 40
0.4379882812
 40
0.4384765625
 40
0.439453125
 40
0.4404296875
 40
0.44140625
 40
0.443359375
 40
0.4453125
 40
0.44921875
 40
0.453125
 40
0.45703125
 40
0.4609375
 40
0.46875
 40
0.4765625
 40
0.48046875
 40
0.484375
 40
0.48828125
 40
0.4921875
 40
0.494140625
 40
0.49609375
 40
0.4970703125
 40
0.498046875
 40
0.4990234375
 40
0.4995117188
 40
0.4997558594
 40
0.5
 40
0.5002441406
 40
0.5004882812
 40
0.5009765625
 40
0.501953125
 40
0.5029296875
 40
0.50390625
 40
0.505859375
 40
0.5078125
 40
0.51171875
 40
0.515625
 40
0.51953125
 40
0.5234375
 40
0.53125
 40
0.5390625
 40
0.54296875
 40
0.546875
 40
0.55078125
 40
0.5546875
 40
0.556640625
 40
0.55859375
 40
0.5595703125
 40
0.560546875
 40
0.5615234375
 40
0.5620117188
 40
0.5622558594
 40
0.5625
 40
0.5627441406
 40
0.5629882812
 40
0.5634765625
 40
0.564453125
 40
0.5654296875
 40
0.56640625
 40
0.568359375
 40
0.5703125
 40
0.57421875
 40
0.578125
 40
0.58203125
 40
0.5859375
 40
0.59375
 40
0.6015625
 40
0.60546875
 40
0.609375
 40
0.61328125
 40
0.6171875
 40
0.619140625
 40
0.62109375
 40
0.6220703125
 40
0.623046875
 40
0.6240234375
 40
0.6245117188
 40
0.6247558594
 40
0.625
 40
0.6252441406
 40
0.6254882812
 40
0.6259765625
 40
0.626953125
 40
0.6279296875
 40
0.62890625
 40
0.630859375
 40
0.6328125
 40
0.63671875
 40
0.640625
 40
0.64453125
 40
0.6484375
 40
0.65625
 40
0.6640625
 40
0.66796875
 40
0.671875
 40
0.67578125
 40
0.6796875
 40
0.681640625
 40
0.68359375
 40
0.6845703125
 40
0.685546875
 40
0.6865234375
 40
0.6870117188
 40
0.6872558594
 40
0.6875
 40
0.6877441406
 40
0.6879882812
 40
0.6884765625
 40
0.689453125
 40
0.6904296875
 40
0.69140625
 40
0.693359375
 40
0.6953125
 40
0.69921875
 40
0.703125
 40
0.70703125
 40
0.7109375
 40
0.71875
 40
0.7265625
 40
0.73046875
 40
0.734375
 40
0.73828125
 40
0.7421875
 40
0.744140625
 40
0.74609375
 40
0.7470703125
 40
0.748046875
 40
0.7490234375
 40
0.7495117188
 40
0.7497558594
 40
0.75
 40
0.7502441406
 40
0.7504882812
 40
0.7509765625
 40
0.751953125
 40
0.7529296875
 40
0.75390625
 40
0.755859375
 40
0.7578125
 40
0.76171875
 40
0.765625
 40
0.76953125
 40
0.7734375
 40
0.78125
 40
0.7890625
 40
0.79296875
 40
0.796875
 40
0.80078125
 40
0.8046875
 40
0.806640625
 40
0.80859375
 40
0.8095703125
 40
0.810546875
 40
0.8115234375
 40
0.8120117188
 40
0.8122558594
 40
0.8125
 40
0.8127441406
 40
0.8129882812
 40
0.8134765625
 40
0.814453125
 40
0.8154296875
 40
0.81640625
 40
0.818359375
 40
0.8203125
 40
0.82421875
 40
0.828125
 40
0.83203125
 40
0.8359375
 40
0.84375
 40
0.8515625
 40
0.85546875
 40
0.859375
 40
0.86328125
 40
0.8671875
 40
0.869140625
 40
0.87109375
 40
0.8720703125
 40
0.873046875
 40
0.8740234375
 40
0.8745117188
 40
0.8747558594
 40
0.875
 40
0.8752441406
 40
0.8754882812
 40
0.8759765625
 40
0.876953125
 40
0.8779296875
 40
0.87890625
 40
0.880859375
 40
0.8828125
 40
0.88671875
 40
0.890625
 40
0.89453125
 40
0.8984375
 40
0.90625
 40
0.9140625
 40
0.91796875
 40
0.921875
 40
0.92578125
 40
0.9296875
 40
0.931640625
 40
0.93359375
 40
0.9345703125
 40
0.935546875
 40
0.9365234375
 40
0.9370117188
 40
0.9372558594
 40
0.9375
 40
0.9377441406
 40
0.9379882812
 40
0.9384765625
 40
0.939453125
 40
0.9404296875
 40
0.94140625
 40
0.943359375
 40
0.9453125
 40
0.94921875
 40
0.953125
 40
0.95703125
 40
0.9609375
 40
0.96875
 40
0.9765625
 40
0.984375
 40
1.0
 40
1.0
 40
1.0
 40
1.0
 10
11.263089399
 20
7.4245766163
 30
0.0
 10
11.2627821873
 20
7.4277311085
 30
0.0
 10
11.2623213698
 20
7.4324628466
 30
0.0
 10
11.2617069465
 20
7.4387718309
 30
0.0
 10
11.261246129
 20
7.443503569
 30
0.0
 10
11.2608621146
 20
7.4474466842
 30
0.0
 10
11.2605549026
 20
7.4506011763
 30
0.0
 10
11.2603244948
 20
7.4529670455
 30
0.0
 10
11.2600940824
 20
7.4553329141
 30
0.0
 10
11.2599020866
 20
7.4573044732
 30
0.0
 10
11.2597484574
 20
7.4588817162
 30
0.0
 10
11.2596525132
 20
7.4598675027
 30
0.0
 10
11.2595755882
 20
7.46065611
 30
0.0
 10
11.259518359
 20
7.4612476252
 30
0.0
 10
11.2594691903
 20
7.4617403645
 30
0.0
 10
11.259437672
 20
7.4620856551
 30
0.0
 10
11.2594151337
 20
7.4622823814
 30
0.0
 10
11.2594109851
 20
7.4624315672
 30
0.0
 10
11.2593580801
 20
7.4625744802
 30
0.0
 10
11.2593045468
 20
7.4627672189
 30
0.0
 10
11.2592029398
 20
7.4631034922
 30
0.0
 10
11.2590619296
 20
7.4635844156
 30
0.0
 10
11.2588909441
 20
7.4641612956
 30
0.0
 10
11.2586635828
 20
7.4649305485
 30
0.0
 10
11.2583791692
 20
7.4658920874
 30
0.0
 10
11.2579242258
 20
7.4674305648
 30
0.0
 10
11.257355506
 20
7.4693536564
 30
0.0
 10
11.2566730596
 20
7.4716613686
 30
0.0
 10
11.2559906086
 20
7.4739690801
 30
0.0
 10
11.2550806756
 20
7.477046029
 30
0.0
 10
11.2539432586
 20
7.4808922151
 30
0.0
 10
11.2528058421
 20
7.4847384013
 30
0.0
 10
11.2518959084
 20
7.4878153501
 30
0.0
 10
11.2512134592
 20
7.4901230621
 30
0.0
 10
11.2505310057
 20
7.4924307726
 30
0.0
 10
11.2499623082
 20
7.4943538693
 30
0.0
 10
11.2495073194
 20
7.4958923362
 30
0.0
 10
11.2492230213
 20
7.496853902
 30
0.0
 10
11.2489954229
 20
7.4976230998
 30
0.0
 10
11.2488251619
 20
7.4982001482
 30
0.0
 10
11.248681885
 20
7.4986805444
 30
0.0
 10
11.2485843243
 20
7.4990177588
 30
0.0
 10
11.2485243079
 20
7.4992089897
 30
0.0
 10
11.2484913171
 20
7.4993565341
 30
0.0
 10
11.2484123737
 20
7.499488325
 30
0.0
 10
11.2483231445
 20
7.4996695413
 30
0.0
 10
11.2481595255
 20
7.4999841095
 30
0.0
 10
11.2479296883
 20
7.5004348311
 30
0.0
 10
11.2476522126
 20
7.5009751242
 30
0.0
 10
11.2472828286
 20
7.501695715
 30
0.0
 10
11.2468208988
 20
7.5025963851
 30
0.0
 10
11.2460819228
 20
7.5040374955
 30
0.0
 10
11.2451581645
 20
7.5058388703
 30
0.0
 10
11.2440496709
 20
7.5080005257
 30
0.0
 10
11.242941173
 20
7.5101621796
 30
0.0
 10
11.2414631772
 20
7.5130443854
 30
0.0
 10
11.239615682
 20
7.5166471424
 30
0.0
 10
11.2377681871
 20
7.5202498995
 30
0.0
 10
11.2362901908
 20
7.523132105
 30
0.0
 10
11.2351816947
 20
7.5252937597
 30
0.0
 10
11.2340731943
 20
7.5274554123
 30
0.0
 10
11.2331494572
 20
7.5292567958
 30
0.0
 10
11.2324104378
 20
7.5306978885
 30
0.0
 10
11.2319486185
 20
7.5315986036
 30
0.0
 10
11.2315790077
 20
7.532319102
 30
0.0
 10
11.2313022248
 20
7.5328596776
 30
0.0
 10
11.2310702201
 20
7.5333095152
 30
0.0
 10
11.2309104704
 20
7.5336256615
 30
0.0
 10
11.2308150417
 20
7.5338043492
 30
0.0
 10
11.2307551415
 20
7.5339439071
 30
0.0
 10
11.2306506274
 20
7.5340622802
 30
0.0
 10
11.2305268371
 20
7.5342275004
 30
0.0
 10
11.2303029536
 20
7.534513193
 30
0.0
 10
11.2299869106
 20
7.5349231252
 30
0.0
 10
11.2296060366
 20
7.5354142735
 30
0.0
 10
11.2290987712
 20
7.5360694069
 30
0.0
 10
11.2284644955
 20
7.5368882315
 30
0.0
 10
11.2274497627
 20
7.5381984023
 30
0.0
 10
11.2261813096
 20
7.5398360982
 30
0.0
 10
11.2246591818
 20
7.5418013409
 30
0.0
 10
11.2231370497
 20
7.5437665815
 30
0.0
 10
11.2211075417
 20
7.5463869031
 30
0.0
 10
11.2185706562
 20
7.5496623048
 30
0.0
 10
11.2160337711
 20
7.5529377067
 30
0.0
 10
11.2140042626
 20
7.5555580279
 30
0.0
 10
11.2124821321
 20
7.5575232697
 30
0.0
 10
11.2109599984
 20
7.559488508
 30
0.0
 10
11.2096915634
 20
7.5611262175
 30
0.0
 10
11.2086767937
 20
7.5624363606
 30
0.0
 10
11.2080426121
 20
7.5632552558
 30
0.0
 10
11.2075351534
 20
7.5639102444
 30
0.0
 10
11.2071548701
 20
7.5644018351
 30
0.0
 10
11.2068369788
 20
7.5648103827
 30
0.0
 10
11.2066163949
 20
7.5650985471
 30
0.0
 10
11.2064873178
 20
7.5652598068
 30
0.0
 10
11.2063990431
 20
7.5653903455
 30
0.0
 10
11.2062781504
 20
7.5654842114
 30
0.0
 10
11.2061283377
 20
7.5656221579
 30
0.0
 10
11.2058608644
 20
7.5658576041
 30
0.0
 10
11.2054815311
 20
7.5661970719
 30
0.0
 10
11.2050251448
 20
7.5666030995
 30
0.0
 10
11.2044170442
 20
7.5671449355
 30
0.0
 10
11.2036567766
 20
7.5678220709
 30
0.0
 10
11.2024404276
 20
7.5689055768
 30
0.0
 10
11.2009199642
 20
7.5702599286
 30
0.0
 10
11.1990954198
 20
7.5718851638
 30
0.0
 10
11.1972708723
 20
7.5735103955
 30
0.0
 10
11.1948381433
 20
7.5756773724
 30
0.0
 10
11.1917972317
 20
7.578386093
 30
0.0
 10
11.1887563204
 20
7.5810948139
 30
0.0
 10
11.186323591
 20
7.5832617902
 30
0.0
 10
11.1844990447
 20
7.5848870235
 30
0.0
 10
11.1826744958
 20
7.586512253
 30
0.0
 10
11.1811540465
 20
7.5878666226
 30
0.0
 10
11.1799376687
 20
7.588950092
 30
0.0
 10
11.1791774746
 20
7.5896273203
 30
0.0
 10
11.178569223
 20
7.5901689658
 30
0.0
 10
11.1781132978
 20
7.5905755752
 30
0.0
 10
11.1777325222
 20
7.5909132227
 30
0.0
 10
11.1774676237
 20
7.5911519184
 30
0.0
 10
11.1773136854
 20
7.5912846584
 30
0.0
 10
11.177205465
 20
7.5913945168
 30
0.0
 10
11.1770695951
 20
7.5914649903
 30
0.0
 10
11.1768980797
 20
7.5915726929
 30
0.0
 10
11.1765934342
 20
7.5917547716
 30
0.0
 10
11.1761605756
 20
7.5920182305
 30
0.0
 10
11.1756401397
 20
7.5923329488
 30
0.0
 10
11.1749465763
 20
7.5927530735
 30
0.0
 10
11.1740795019
 20
7.5932780581
 30
0.0
 10
11.1726922501
 20
7.5941181291
 30
0.0
 10
11.1709581623
 20
7.5951681851
 30
0.0
 10
11.1688772667
 20
7.5964282663
 30
0.0
 10
11.1667963685
 20
7.5976883438
 30
0.0
 10
11.1640218385
 20
7.5993684484
 30
0.0
 10
11.1605536757
 20
7.6014685787
 30
0.0
 10
11.1570855131
 20
7.6035687093
 30
0.0
 10
11.1543109828
 20
7.6052488133
 30
0.0
 10
11.1522300856
 20
7.6065088925
 30
0.0
 10
11.1501491865
 20
7.6077689674
 30
0.0
 10
11.1484151096
 20
7.6088190431
 30
0.0
 10
11.1470278354
 20
7.6096590739
 30
0.0
 10
11.146160818
 20
7.6101841608
 30
0.0
 10
11.1454671376
 20
7.6106040754
 30
0.0
 10
11.1449470593
 20
7.6109194358
 30
0.0
 10
11.1445130819
 20
7.6111808856
 30
0.0
 10
11.1442104337
 20
7.6113665509
 30
0.0
 10
11.144035718
 20
7.611468507
 30
0.0
 10
11.1439096782
 20
7.6115566318
 30
0.0
 10
11.1437645377
 20
7.6116001949
 30
0.0
 10
11.1435776796
 20
7.6116738226
 30
0.0
 10
11.1432475737
 20
7.6117954291
 30
0.0
 10
11.1427776167
 20
7.611972939
 30
0.0
 10
11.1422129737
 20
7.6121843301
 30
0.0
 10
11.141460359
 20
7.612466751
 30
0.0
 10
11.1405195075
 20
7.6128195834
 30
0.0
 10
11.1390141916
 20
7.6133842235
 30
0.0
 10
11.1371325307
 20
7.6140899864
 30
0.0
 10
11.1348745445
 20
7.6149369178
 30
0.0
 10
11.1326165565
 20
7.615783845
 30
0.0
 10
11.1296059064
 20
7.6169130827
 30
0.0
 10
11.1258425936
 20
7.6183246293
 30
0.0
 10
11.122079281
 20
7.6197361763
 30
0.0
 10
11.1190686307
 20
7.6208654134
 30
0.0
 10
11.1168106434
 20
7.6217123424
 30
0.0
 10
11.1145526546
 20
7.6225592669
 30
0.0
 10
11.1126710017
 20
7.6232650515
 30
0.0
 10
11.1111656697
 20
7.6238296474
 30
0.0
 10
11.110224859
 20
7.6241825923
 30
0.0
 10
11.1094721605
 20
7.6244647822
 30
0.0
 10
11.1089077736
 20
7.6246768792
 30
0.0
 10
11.1084370153
 20
7.6248521805
 30
0.0
 10
11.1081083398
 20
7.6249777295
 30
0.0
 10
11.1079191899
 20
7.6250450404
 30
0.0
 10
11.1077810891
 20
7.6251080069
 30
0.0
 10
11.1076286092
 20
7.625123256
 30
0.0
 10
11.1074303184
 20
7.6251602325
 30
0.0
 10
11.1070809725
 20
7.6252171865
 30
0.0
 10
11.1065831286
 20
7.6253026037
 30
0.0
 10
11.1059851931
 20
7.625403369
 30
0.0
 10
11.1051881283
 20
7.6255383288
 30
0.0
 10
11.1041917348
 20
7.6257068211
 30
0.0
 10
11.1025975402
 20
7.6259765247
 30
0.0
 10
11.1006047849
 20
7.6263136144
 30
0.0
 10
11.0982134837
 20
7.626718139
 30
0.0
 10
11.0958221812
 20
7.6271226591
 30
0.0
 10
11.0926337782
 20
7.6276620209
 30
0.0
 10
11.0886482744
 20
7.6283362225
 30
0.0
 10
11.0846627706
 20
7.6290104245
 30
0.0
 10
11.0814743676
 20
7.6295497856
 30
0.0
 10
11.0790830653
 20
7.6299543077
 30
0.0
 10
11.0766917633
 20
7.6303588249
 30
0.0
 10
11.0746990104
 20
7.6306959378
 30
0.0
 10
11.073104811
 20
7.6309655941
 30
0.0
 10
11.0721084296
 20
7.6311342066
 30
0.0
 10
11.0713113401
 20
7.6312689195
 30
0.0
 10
11.0707134803
 20
7.6313704392
 30
0.0
 10
11.0702153993
 20
7.6314534961
 30
0.0
 10
11.0698664769
 20
7.6315146636
 30
0.0
 10
11.0696675074
 20
7.631544889
 30
0.0
 10
11.0695171118
 20
7.6315808754
 30
0.0
 10
11.0693711829
 20
7.6315659564
 30
0.0
 10
11.0691750529
 20
7.6315638208
 30
0.0
 10
11.0688325515
 20
7.6315518104
 30
0.0
 10
11.0683428841
 20
7.631538978
 30
0.0
 10
11.0677554457
 20
7.6315217278
 30
0.0
 10
11.0669721378
 20
7.6314993742
 30
0.0
 10
11.0659930224
 20
7.6314712107
 30
0.0
 10
11.0644264268
 20
7.6314262729
 30
0.0
 10
11.062468186
 20
7.6313700582
 30
0.0
 10
11.0601182955
 20
7.6313026187
 30
0.0
 10
11.0577684054
 20
7.6312351744
 30
0.0
 10
11.0546352184
 20
7.6311452503
 30
0.0
 10
11.0507187348
 20
7.6310328446
 30
0.0
 10
11.0468022511
 20
7.6309204393
 30
0.0
 10
11.0436690642
 20
7.6308305145
 30
0.0
 10
11.0413191739
 20
7.6307630722
 30
0.0
 10
11.0389692844
 20
7.6306956252
 30
0.0
 10
11.0370110403
 20
7.630639434
 30
0.0
 10
11.0354444515
 20
7.6305944481
 30
0.0
 10
11.0344653188
 20
7.6305664071
 30
0.0
 10
11.0336820462
 20
7.6305438022
 30
0.0
 10
11.0330944998
 20
7.6305273194
 30
0.0
 10
11.0326051704
 20
7.6305120859
 30
0.0
 10
11.0322620657
 20
7.630504362
 30
0.0
 10
11.0320669023
 20
7.6304953584
 30
0.0
 10
11.0319180043
 20
7.6305015359
 30
0.0
 10
11.0317787602
 20
7.6304582874
 30
0.0
 10
11.0315897341
 20
7.6304178631
 30
0.0
 10
11.0312605072
 20
7.6303390881
 30
0.0
 10
11.0307893629
 20
7.6302307518
 30
0.0
 10
11.0302243409
 20
7.6300989508
 30
0.0
 10
11.0294708555
 20
7.6299238439
 30
0.0
 10
11.0285290408
 20
7.6297047453
 30
0.0
 10
11.0270221138
 20
7.6293543077
 30
0.0
 10
11.025138463
 20
7.6289162195
 30
0.0
 10
11.0228780787
 20
7.6283905313
 30
0.0
 10
11.0206176953
 20
7.6278648384
 30
0.0
 10
11.0176038504
 20
7.6271639162
 30
0.0
 10
11.0138365445
 20
7.6262877628
 30
0.0
 10
11.0100692384
 20
7.6254116099
 30
0.0
 10
11.0070553937
 20
7.624710687
 30
0.0
 10
11.0047950097
 20
7.624184996
 30
0.0
 10
11.0025346276
 20
7.6236593006
 30
0.0
 10
11.0006509701
 20
7.6232212351
 30
0.0
 10
10.9991440568
 20
7.6228707511
 30
0.0
 10
10.9982022072
 20
7.6226517705
 30
0.0
 10
10.9974487934
 20
7.6224764215
 30
0.0
 10
10.9968835526
 20
7.6223453601
 30
0.0
 10
10.9964130927
 20
7.6222347097
 30
0.0
 10
10.9960826442
 20
7.6221600657
 30
0.0
 10
10.9958955754
 20
7.6221130225
 30
0.0
 10
10.9957503189
 20
7.6220901053
 30
0.0
 10
10.9956240027
 20
7.622019922
 30
0.0
 10
10.9954489746
 20
7.6219428311
 30
0.0
 10
10.9951457534
 20
7.6218002405
 30
0.0
 10
10.994710971
 20
7.6216005556
 30
0.0
 10
10.9941899209
 20
7.6213592148
 30
0.0
 10
10.9934949469
 20
7.6210380274
 30
0.0
 10
10.9926263118
 20
7.6206363377
 30
0.0
 10
10.9912364496
 20
7.619993749
 30
0.0
 10
10.9894991376
 20
7.6191904736
 30
0.0
 10
10.9874143565
 20
7.6182265601
 30
0.0
 10
10.9853295772
 20
7.6172626421
 30
0.0
 10
10.9825498708
 20
7.6159774197
 30
0.0
 10
10.979075238
 20
7.614370891
 30
0.0
 10
10.9756006051
 20
7.6127643628
 30
0.0
 10
10.972820899
 20
7.6114791397
 30
0.0
 10
10.9707361188
 20
7.6105152236
 30
0.0
 10
10.9686513409
 20
7.609551303
 30
0.0
 10
10.9669140188
 20
7.6087480496
 30
0.0
 10
10.9655241773
 20
7.6081054161
 30
0.0
 10
10.9646554895
 20
7.6077038404
 30
0.0
 10
10.9639606237
 20
7.6073824188
 30
0.0
 10
10.963439243
 20
7.6071417937
 30
0.0
 10
10.963005495
 20
7.6069398696
 30
0.0
 10
10.9627004273
 20
7.6068012764
 30
0.0
 10
10.9625283577
 20
7.6067177807
 30
0.0
 10
10.9623929539
 20
7.6066672708
 30
0.0
 10
10.9622818289
 20
7.6065704633
 30
0.0
 10
10.9621251935
 20
7.6064575357
 30
0.0
 10
10.9618550273
 20
7.6062523883
 30
0.0
 10
10.9614670127
 20
7.6059632542
 30
0.0
 10
10.9610022782
 20
7.6056146096
 30
0.0
 10
10.9603823238
 20
7.6051503382
 30
0.0
 10
10.9596074864
 20
7.6045697977
 30
0.0
 10
10.9583676875
 20
7.6036410453
 30
0.0
 10
10.9568179591
 20
7.6024800661
 30
0.0
 10
10.9549582763
 20
7.6010869078
 30
0.0
 10
10.9530985959
 20
7.599693745
 30
0.0
 10
10.9506190212
 20
7.5978361961
 30
0.0
 10
10.9475195531
 20
7.5955142594
 30
0.0
 10
10.9444200848
 20
7.5931923231
 30
0.0
 10
10.9419405105
 20
7.5913347737
 30
0.0
 10
10.9400808288
 20
7.5899416125
 30
0.0
 10
10.9382211508
 20
7.588548448
 30
0.0
 10
10.9366714076
 20
7.5873874881
 30
0.0
 10
10.935431639
 20
7.5864586966
 30
0.0
 10
10.9346567244
 20
7.5858782555
 30
0.0
 10
10.9340369283
 20
7.5854137798
 30
0.0
 10
10.9335717102
 20
7.5850657595
 30
0.0
 10
10.9331852085
 20
7.5847746722
 30
0.0
 10
10.9329123416
 20
7.5845730116
 30
0.0
 10
10.9327600334
 20
7.5844544972
 30
0.0
 10
10.9326356166
 20
7.5843748508
 30
0.0
 10
10.9325501346
 20
7.5842598863
 30
0.0
 10
10.9324225778
 20
7.5841189197
 30
0.0
 10
10.9322056808
 20
7.5838664882
 30
0.0
 10
10.9318925199
 20
7.5835088727
 30
0.0
 10
10.9315181428
 20
7.5830784496
 30
0.0
 10
10.9310184788
 20
7.5825050008
 30
0.0
 10
10.930394068
 20
7.5817880362
 30
0.0
 10
10.9293949163
 20
7.5806409787
 30
0.0
 10
10.928146009
 20
7.5792071273
 30
0.0
 10
10.9266473063
 20
7.5774865182
 30
0.0
 10
10.9251486074
 20
7.5757659058
 30
0.0
 10
10.9231503409
 20
7.5734717571
 30
0.0
 10
10.9206525082
 20
7.5706040708
 30
0.0
 10
10.9181546752
 20
7.5677363848
 30
0.0
 10
10.9161564092
 20
7.5654422357
 30
0.0
 10
10.9146577087
 20
7.5637216246
 30
0.0
 10
10.9131590121
 20
7.5620010106
 30
0.0
 10
10.911910086
 20
7.5605671747
 30
0.0
 10
10.9109109727
 20
7.5594200856
 30
0.0
 10
10.9102864641
 20
7.5587032013
 30
0.0
 10
10.9097870009
 20
7.5581295876
 30
0.0
 10
10.9094120101
 20
7.5576996681
 30
0.0
 10
10.9091007694
 20
7.5573404771
 30
0.0
 10
10.9088804445
 20
7.5570908582
 30
0.0
 10
10.9087583801
 20
7.5569453851
 30
0.0
 10
10.9086560268
 20
7.5568442629
 30
0.0
 10
10.9085949759
 20
7.5567126269
 30
0.0
 10
10.908499168
 20
7.5565477558
 30
0.0
 10
10.9083382165
 20
7.5562542723
 30
0.0
 10
10.9081047765
 20
7.5558376028
 30
0.0
 10
10.9078261505
 20
7.5553364897
 30
0.0
 10
10.9074541246
 20
7.5546687265
 30
0.0
 10
10.9069892718
 20
7.5538338897
 30
0.0
 10
10.906245407
 20
7.5524982251
 30
0.0
 10
10.9053156105
 20
7.5508286188
 30
0.0
 10
10.9041998398
 20
7.5488251022
 30
0.0
 10
10.9030840732
 20
7.5468215827
 30
0.0
 10
10.9015963829
 20
7.5441502244
 30
0.0
 10
10.8997367705
 20
7.5408110262
 30
0.0
 10
10.8978771578
 20
7.5374718281
 30
0.0
 10
10.8963894681
 20
7.5348004694
 30
0.0
 10
10.8952736996
 20
7.532796951
 30
0.0
 10
10.8941579356
 20
7.5307934304
 30
0.0
 10
10.8932281185
 20
7.5291238366
 30
0.0
 10
10.8924842955
 20
7.5277881467
 30
0.0
 10
10.8920193364
 20
7.5269533743
 30
0.0
 10
10.8916475288
 20
7.5262854789
 30
0.0
 10
10.8913682359
 20
7.5257847696
 30
0.0
 10
10.8911368825
 20
7.5253668366
 30
0.0
 10
10.890972206
 20
7.5250756087
 30
0.0
 10
10.8908823665
 20
7.5249071235
 30
0.0
 10
10.8908029826
 20
7.5247865889
 30
0.0
 10
10.890769485
 20
7.5246437715
 30
0.0
 10
10.8907088159
 20
7.5244611208
 30
0.0
 10
10.8906101023
 20
7.5241378607
 30
0.0
 10
10.8904651841
 20
7.5236779538
 30
0.0
 10
10.8902929511
 20
7.5231252552
 30
0.0
 10
10.8900627242
 20
7.5223886068
 30
0.0
 10
10.8897751401
 20
7.5214676993
 30
0.0
 10
10.889314894
 20
7.5199943016
 30
0.0
 10
10.8887396247
 20
7.5181525358
 30
0.0
 10
10.8880492852
 20
7.5159424248
 30
0.0
 10
10.88735895
 20
7.5137323117
 30
0.0
 10
10.8864385015
 20
7.510785495
 30
0.0
 10
10.8852879416
 20
7.5071019738
 30
0.0
 10
10.8841373812
 20
7.5034184527
 30
0.0
 10
10.8832169334
 20
7.5004716357
 30
0.0
 10
10.8825265963
 20
7.4982615234
 30
0.0
 10
10.8818362639
 20
7.4960514094
 30
0.0
 10
10.8812609724
 20
7.494209653
 30
0.0
 10
10.8808007717
 20
7.4927362361
 30
0.0
 10
10.8805130722
 20
7.4918153775
 30
0.0
 10
10.8802830821
 20
7.4910786288
 30
0.0
 10
10.8801101255
 20
7.4905262364
 30
0.0
 10
10.8799674713
 20
7.4900653713
 30
0.0
 10
10.8798647161
 20
7.4897438219
 30
0.0
 10
10.8798105227
 20
7.4895584303
 30
0.0
 10
10.8797571336
 20
7.4894240321
 30
0.0
 10
10.879752459
 20
7.4892718763
 30
0.0
 10
10.879729234
 20
7.489075196
 30
0.0
 10
10.8796965072
 20
7.4887281196
 30
0.0
 10
10.8796456156
 20
7.4882338048
 30
0.0
 10
10.8795863173
 20
7.4876399814
 30
0.0
 10
10.8795066341
 20
7.4868484423
 30
0.0
 10
10.879407242
 20
7.4858589412
 30
0.0
 10
10.8792480962
 20
7.4842757827
 30
0.0
 10
10.8790492045
 20
7.4822968198
 30
0.0
 10
10.8788105171
 20
7.4799220705
 30
0.0
 10
10.8785718344
 20
7.4775473196
 30
0.0
 10
10.8782535892
 20
7.4743809857
 30
0.0
 10
10.8778557832
 20
7.470423068
 30
0.0
 10
10.8773784157
 20
7.4656735669
 30
0.0
 10
10.8767419259
 20
7.4593408988
 30
0.0
 10
10.8762645585
 20
7.4545913977
 30
0.0
 10
10.8759463135
 20
7.4514250636
 30
0.0
  0
ENDSEC
  0
SECTION
  2
OBJECTS
  0
DICTIONARY
  5
C
100
AcDbDictionary
280
0
281
1
  3
ACAD_GROUP
350
D
  3
ACAD_MLINESTYLE
350
17
  3
ACAD_LAYOUT
350
1A
  3
ACAD_PLOTSETTINGS
350
19
  3
ACAD_PLOTSTYLENAME
350
E
  3
ACAD_IMAGE_DICT
350
       3F8
  3
ACAD_IMAGE_VARS
350
       3F9
  3
ACAD_TABLESTYLE
350
       3FA
  0
IMAGEDEF_REACTOR
  5
3F7
100
AcDbRasterImageDefReactor
 90
2
330
28F
  0
DICTIONARY
  5
D
102
{ACAD_REACTORS
330
C
102
}
100
AcDbDictionary
280
0
281
1
  0
ACDBDICTIONARYWDFLT
  5
E
102
{ACAD_REACTORS
330
C
102
}
100
AcDbDictionary
281
1
  3
Normal
350
F
100
AcDbDictionaryWithDefault
340
F
  0
DICTIONARY
  5
3F8
330
C
100
AcDbDictionary
281
1
  3
E3K_assy_2_img_1
350
       3FD
  0
RASTERVARIABLES
  5
3F9
330
C
100
AcDbRasterVariables
 90
0
 70
0
 71
1
 72
5
  0
DICTIONARY
  5
17
102
{ACAD_REACTORS
330
C
102
}
100
AcDbDictionary
280
0
281
1
  3
Standard
350
18
  0
DICTIONARY
  5
3FA
330
C
100
AcDbDictionary
281
1
  3
Standard
350
       3FE
  3
Standard1
350
       3FF
  0
DICTIONARY
  5
19
102
{ACAD_REACTORS
330
C
102
}
100
AcDbDictionary
281
1
  0
DICTIONARY
  5
1A
102
{ACAD_REACTORS
330
C
102
}
100
AcDbDictionary
281
1
  3
Model
350
3FB
  3
Layout1
350
3FC
  0
ACDBPLACEHOLDER
  5
F
102
{ACAD_REACTORS
330
E
102
}
  0
MLINESTYLE
  5
18
102
{ACAD_REACTORS
330
17
102
}
100
AcDbMlineStyle
  2
STANDARD
 70
0
  3

 62
256
 51
90.0
 52
90.0
 71
2
 49
0.5
 62
256
  6
BYLAYER
 49
-0.5
 62
256
  6
BYLAYER
  0
LAYOUT
  5
3FB
102
{ACAD_REACTORS
330
1A
102
}
100
AcDbPlotSettings
  1

  2
none_device
  4
ANSI_C_(22.00_x_17.00_Inches)
  6

 40
0.0
 41
0.0
 42
0.0
 43
0.0
 44
558.8
 45
431.8
 46
0.0
 47
0.0
 48
0.0
 49
0.0
140
0.0
141
0.0
142
1.0
143
1.0
 70
1024
 72
0
 73
0
 74
0
  7

 75
0
147
1.0
148
0.0
149
0.0
100
AcDbLayout
  1
Model
 70
0
 71
0
 10
0.0
 20
0.0
 11
22.0
 21
17.0
 12
0.0
 22
0.0
 32
0.0
 14
0.0
 24
0.0
 34
0.0
 15
0.0
 25
0.0
 35
0.0
146
0.0
 13
0.0
 23
0.0
 33
0.0
 16
1.0
 26
0.0
 36
0.0
 17
0.0
 27
1.0
 37
0.0
 76
0
330
20C
345
0
346
0
  0
LAYOUT
  5
3FC
102
{ACAD_REACTORS
330
1A
102
}
100
AcDbPlotSettings
  1

  2
none_device
  4
ANSI_C_(22.00_x_17.00_Inches)
  6

 40
0.0
 41
0.0
 42
0.0
 43
0.0
 44
558.8
 45
431.8
 46
0.0
 47
0.0
 48
0.0
 49
0.0
140
0.0
141
0.0
142
1.0
143
1.0
 70
0
 72
0
 73
0
 74
0
  7

 75
0
147
1.0
148
0.0
149
0.0
100
AcDbLayout
  1
Layout1
 70
0
 71
1
 10
0.0
 20
0.0
 11
22.0
 21
17.0
 12
0.0
 22
0.0
 32
0.0
 14
0.0
 24
0.0
 34
0.0
 15
0.0
 25
0.0
 35
0.0
146
0.0
 13
0.0
 23
0.0
 33
0.0
 16
1.0
 26
0.0
 36
0.0
 17
0.0
 27
1.0
 37
0.0
 76
0
330
20D
345
0
346
0
  0
IMAGEDEF
  5
3FD
102
{ACAD_REACTORS
330
3F8
330
3F7
102
}
100
AcDbRasterImageDef
 90
0
  1
E3K_assy_2_img_1.png
 10
369.0
 20
92.0
 11
0.0066666667
 21
0.0066666667
280
1
281
0
  0
TABLESTYLE
  5
3FE
102
{ACAD_REACTORS
330
3FA
330
292
330
293
102
}
330
3FA
100
AcDbTableStyle
  3
Standard
 70
0
 71
0
 40
0.06
 41
0.06
280
1
281
1
  7
Standard
140
0.18
170
1
 62
0
 63
7
283
0
  7
Standard
140
0.18
170
1
 62
0
 63
7
283
0
  7
Standard
140
0.18
170
1
 62
0
 63
7
283
0
  0
TABLESTYLE
  5
3FF
102
{ACAD_REACTORS
330
3FA
330
291
102
}
330
3FA
100
AcDbTableStyle
  3
Standard1
 70
1
 71
0
 40
0.06
 41
0.06
280
1
281
1
  7
Standard
140
0.18
170
1
 62
0
 63
7
283
0
  7
Standard
140
0.18
170
1
 62
0
 63
7
283
0
  7
Standard
140
0.18
170
1
 62
0
 63
7
283
0
  0
ENDSEC
  0
EOF
