999
DXF file: E3J_assy_2.dxf
999
Pro/ENGINEER 2014200 by Parametric Technology Corporation
  0
SECTION
  2
HEADER
  9
$ACADVER
  1
AC1021
  9
$DWGCODEPAGE
  3
ANSI_1252
  9
$EXTMAX
 10
22.0
 20
17.0
 30
0.0
  9
$EXTMIN
 10
0.0
 20
0.0
 30
0.0
  9
$LIMMIN
 10
0.0
 20
0.0
  9
$LIMMAX
 10
22.0
 20
17.0
  9
$VIEWCTR
 10
11.0
 20
8.5
  9
$VIEWSIZE
 40
17.0
  9
$CLAYER
  8
0
  9
$LTSCALE
 40
1.21
  9
$CELTYPE
  6
BYLAYER
  9
$DIMSCALE
 40
1.0
  9
$DIMASZ
 40
0.1875
  9
$DIMEXO
 40
0.0625
  9
$DIMDLI
 40
0.836
  9
$DIMEXE
 40
0.125
  9
$DIMCEN
 40
0.198
  9
$DIMLFAC
 40
1.0
  9
$DIMBLK
  1
_FILLED
  9
$DIMTXT
 40
0.1
  9
$DIMTOL
 70
0
  9
$DIMLIM
 70
0
  9
$DIMTFAC
 40
1.0
  9
$DIMGAP
 40
0.09
  9
$DIMDSEP
 70
46
  9
$AUNITS
 70
0
  9
$PDMODE
 70
3
  9
$PDSIZE
 40
0.3125
  9
$HANDSEED
  5
401
  9
$TILEMODE
 70
1
  9
$MEASUREMENT
 70
0
  9
$INSUNITS
 70
1
  0
ENDSEC
  0
SECTION
  2
CLASSES
  0
CLASS
  1
ACDBDICTIONARYWDFLT
  2
AcDbDictionaryWithDefault
  3
AutoCAD 2000
 90
0
 91
1
280
0
281
0
  0
CLASS
  1
ACDBPLACEHOLDER
  2
AcDbPlaceHolder
  3
AutoCAD 2000
 90
0
 91
1
280
0
281
0
  0
CLASS
  1
LAYOUT
  2
AcDbLayout
  3
AutoCAD 2000
 90
0
 91
0
280
0
281
0
  0
CLASS
  1
RASTERVARIABLES
  2
AcDbRasterVariables
  3
ISM
 90
0
 91
1
280
0
281
0
  0
CLASS
  1
IMAGEDEF
  2
AcDbRasterImageDef
  3
ISM
 90
0
 91
1
280
0
281
0
  0
CLASS
  1
IMAGEDEF_REACTOR
  2
AcDbRasterImageDefReactor
  3
ISM
 90
0
 91
1
280
0
281
0
  0
CLASS
  1
IMAGE
  2
AcDbRasterImage
  3
ISM
 90
127
 91
1
280
0
281
1
  0
CLASS
  1
TABLESTYLE
  2
AcDbTableStyle
  3
ObjectDBX Classes
 90
2047
 91
1
280
0
281
0
  0
CLASS
  1
ACAD_TABLE
  2
AcDbTable
  3
ObjectDBX Classes
 90
1025
 91
3
280
0
281
1
  0
ENDSEC
  0
SECTION
  2
TABLES
  0
TABLE
  2
VPORT
  5
8
100
AcDbSymbolTable
 70
2
  0
VPORT
  5
1F4
100
AcDbSymbolTableRecord
100
AcDbViewportTableRecord
  2
*ACTIVE
 70
0
 10
0.0
 20
0.0
 11
1.0
 21
1.0
 12
11.0
 22
8.5
 13
0.0
 23
0.0
 14
1.0
 24
1.0
 15
0.0
 25
0.0
 16
0.0
 26
0.0
 36
1.0
 17
0.0
 27
0.0
 37
0.0
 40
17.0
 41
1.2941176471
 42
50.0
 43
0.0
 44
0.0
 50
0.0
 51
0.0
 71
0
 72
100
 73
1
 74
1
 75
0
 76
0
 77
0
 78
0
  0
ENDTAB
  0
TABLE
  2
LTYPE
  5
5
100
AcDbSymbolTable
 70
6
  0
LTYPE
  5
14
100
AcDbSymbolTableRecord
100
AcDbLinetypeTableRecord
  2
BYBLOCK
 70
0
  3

 72
65
 73
0
 40
0.0
  0
LTYPE
  5
15
100
AcDbSymbolTableRecord
100
AcDbLinetypeTableRecord
  2
BYLAYER
 70
0
  3

 72
65
 73
0
 40
0.0
  0
LTYPE
  5
16
100
AcDbSymbolTableRecord
100
AcDbLinetypeTableRecord
  2
CONTINUOUS
 70
64
  3
Solid line
 72
65
 73
0
 40
0.0
  0
LTYPE
  5
1F5
100
AcDbSymbolTableRecord
100
AcDbLinetypeTableRecord
  2
CENTER
 70
64
  3
____ _ ____ _ ____ _ ____ _ ____ _ ____ _ ____
 72
65
 73
4
 40
0.6
 49
0.375
 74
0
 49
-0.075
 74
0
 49
0.075
 74
0
 49
-0.075
 74
0
  0
LTYPE
  5
1F6
100
AcDbSymbolTableRecord
100
AcDbLinetypeTableRecord
  2
HIDDEN
 70
64
  3
- - - - - - - - - - - - - - - - - - - -
 72
65
 73
2
 40
0.2
 49
0.1
 74
0
 49
-0.1
 74
0
  0
LTYPE
  5
1F7
100
AcDbSymbolTableRecord
100
AcDbLinetypeTableRecord
  2
PHANTOM
 70
64
  3
_____ _ _ _____ _ _ _____ _ _ _____
 72
65
 73
6
 40
0.8
 49
0.45
 74
0
 49
-0.05
 74
0
 49
0.1
 74
0
 49
-0.05
 74
0
 49
0.1
 74
0
 49
-0.05
 74
0
  0
LTYPE
  5
1F8
100
AcDbSymbolTableRecord
100
AcDbLinetypeTableRecord
  2
DOT
 70
64
  3
. . . . . . . . . . . . . . . . . . . .
 72
65
 73
2
 40
0.2
 49
0.1
 74
0
 49
-0.1
 74
0
  0
LTYPE
  5
1F9
100
AcDbSymbolTableRecord
100
AcDbLinetypeTableRecord
  2
DASHED
 70
64
  3
- - - - - - - - - - - - - - - - - - - -
 72
65
 73
2
 40
0.2
 49
0.1
 74
0
 49
-0.1
 74
0
  0
ENDTAB
  0
TABLE
  2
LAYER
  5
2
100
AcDbSymbolTable
 70
36
  0
LAYER
  5
10
100
AcDbSymbolTableRecord
100
AcDbLayerTableRecord
  2
0
 70
0
 62
7
  6
CONTINUOUS
370
-3
390
F
  0
LAYER
  5
1FA
100
AcDbSymbolTableRecord
100
AcDbLayerTableRecord
  2
DEFAULT_1
 70
0
 62
7
  6
CENTER
370
-3
390
F
  0
LAYER
  5
1FB
100
AcDbSymbolTableRecord
100
AcDbLayerTableRecord
  2
DEFAULT_2
 70
0
 62
8
  6
HIDDEN
370
-3
390
F
  0
LAYER
  5
1FC
100
AcDbSymbolTableRecord
100
AcDbLayerTableRecord
  2
DEFAULT_3
 70
0
 62
7
  6
PHANTOM
370
-3
390
F
  0
LAYER
  5
1FD
100
AcDbSymbolTableRecord
100
AcDbLayerTableRecord
  2
01___PRT_ALL_DTM_PLN
 70
0
 62
7
  6
CONTINUOUS
370
-3
390
F
  0
LAYER
  5
1FE
100
AcDbSymbolTableRecord
100
AcDbLayerTableRecord
  2
01___PRT_DEF_DTM_PLN
 70
0
 62
7
  6
CONTINUOUS
370
-3
390
F
  0
LAYER
  5
1FF
100
AcDbSymbolTableRecord
100
AcDbLayerTableRecord
  2
02___PRT_ALL_AXES
 70
0
 62
7
  6
CONTINUOUS
370
-3
390
F
  0
LAYER
  5
200
100
AcDbSymbolTableRecord
100
AcDbLayerTableRecord
  2
03___PRT_ALL_CURVES
 70
0
 62
7
  6
CONTINUOUS
370
-3
390
F
  0
LAYER
  5
201
100
AcDbSymbolTableRecord
100
AcDbLayerTableRecord
  2
04___PRT_ALL_DTM_PNT
 70
0
 62
7
  6
CONTINUOUS
370
-3
390
F
  0
LAYER
  5
202
100
AcDbSymbolTableRecord
100
AcDbLayerTableRecord
  2
05___PRT_ALL_DTM_CSYS
 70
0
 62
7
  6
CONTINUOUS
370
-3
390
F
  0
LAYER
  5
203
100
AcDbSymbolTableRecord
100
AcDbLayerTableRecord
  2
05___PRT_DEF_DTM_CSYS
 70
0
 62
7
  6
CONTINUOUS
370
-3
390
F
  0
LAYER
  5
204
100
AcDbSymbolTableRecord
100
AcDbLayerTableRecord
  2
06___PRT_ALL_SURFS
 70
0
 62
7
  6
CONTINUOUS
370
-3
390
F
  0
LAYER
  5
205
100
AcDbSymbolTableRecord
100
AcDbLayerTableRecord
  2
DATUM_PLANES
 70
0
 62
7
  6
CONTINUOUS
370
-3
390
F
  0
LAYER
  5
206
100
AcDbSymbolTableRecord
100
AcDbLayerTableRecord
  2
PORT_AREAS
 70
0
 62
7
  6
CONTINUOUS
370
-3
390
F
  0
LAYER
  5
207
100
AcDbSymbolTableRecord
100
AcDbLayerTableRecord
  2
SUNNBOMCOSMETIC
 70
0
 62
7
  6
CONTINUOUS
370
-3
390
F
  0
LAYER
  5
208
100
AcDbSymbolTableRecord
100
AcDbLayerTableRecord
  2
SUNNBOMSTAMPING
 70
0
 62
7
  6
CONTINUOUS
370
-3
390
F
  0
LAYER
  5
209
100
AcDbSymbolTableRecord
100
AcDbLayerTableRecord
  2
THREADS
 70
0
 62
7
  6
CONTINUOUS
370
-3
390
F
  0
ENDTAB
  0
TABLE
  2
STYLE
  5
3
100
AcDbSymbolTable
 70
1
  0
STYLE
  5
11
100
AcDbSymbolTableRecord
100
AcDbTextStyleTableRecord
  2
STANDARD
 70
0
 40
0.0
 41
0.8
 50
0.0
 71
0
 42
0.2
  3
txt
  4

  0
STYLE
  5
20A
100
AcDbSymbolTableRecord
100
AcDbTextStyleTableRecord
  2
TEXTSTYLE_1
 70
0
 40
0.0
 41
0.8
 50
0.0
 71
0
 42
0.2
  3
gdt
  4

  0
ENDTAB
  0
TABLE
  2
VIEW
  5
6
100
AcDbSymbolTable
 70
0
  0
ENDTAB
  0
TABLE
  2
UCS
  5
7
100
AcDbSymbolTable
 70
0
  0
ENDTAB
  0
TABLE
  2
APPID
  5
9
100
AcDbSymbolTable
 70
1
  0
APPID
  5
20B
100
AcDbSymbolTableRecord
100
AcDbRegAppTableRecord
  2
ACAD
 70
0
  0
ENDTAB
  0
TABLE
  2
BLOCK_RECORD
  5
1
100
AcDbSymbolTable
 70
0
  0
BLOCK_RECORD
  5
20C
100
AcDbSymbolTableRecord
100
AcDbBlockTableRecord
  2
*Model_Space
  0
BLOCK_RECORD
  5
20D
100
AcDbSymbolTableRecord
100
AcDbBlockTableRecord
  2
*Paper_Space
  0
BLOCK_RECORD
  5
20E
100
AcDbSymbolTableRecord
100
AcDbBlockTableRecord
  2
SUN_FIRST_THIRD_ANGLE_BL0
  0
BLOCK_RECORD
  5
20F
100
AcDbSymbolTableRecord
100
AcDbBlockTableRecord
  2
*T1
  0
BLOCK_RECORD
  5
210
100
AcDbSymbolTableRecord
100
AcDbBlockTableRecord
  2
*T2
  0
BLOCK_RECORD
  5
211
100
AcDbSymbolTableRecord
100
AcDbBlockTableRecord
  2
*T3
  0
ENDTAB
  0
TABLE
  2
DIMSTYLE
  5
A
100
AcDbSymbolTable
 70
1
100
AcDbDimStyleTable
 71
0
  0
DIMSTYLE
105
212
100
AcDbSymbolTableRecord
100
AcDbDimStyleTableRecord
  2
STANDARD
 70
0
  3

  4

 40
1.0
 41
0.1875
 42
0.0625
 43
0.38
 44
0.125
 45
0.0
 46
0.0
 47
0.001
 48
0.001
140
0.1
141
0.09
142
0.0
143
25.4
144
1.0
145
0.0
146
1.0
147
0.09
 71
0.0
 72
0.0
 73
1
 74
1
 75
0
 76
0
 77
0
 78
4
170
0
171
2
172
0
173
0
174
0
175
0
176
0
177
0
178
0
270
2
271
3
272
3
273
2
274
2
275
0
280
0
281
0
282
0
283
1
284
4
285
0
286
0
287
3
288
0
340
11
278
46
  0
ENDTAB
  0
ENDSEC
  0
SECTION
  2
BLOCKS
  0
BLOCK
  5
20
100
AcDbEntity
  8
0
100
AcDbBlockBegin
  2
*Model_Space
 70
0
 10
0.0
 20
0.0
 30
0.0
  3
*Model_Space
  1

  0
ENDBLK
  5
21
100
AcDbEntity
  8
0
100
AcDbBlockEnd
  0
BLOCK
  5
1C
100
AcDbEntity
  8
0
100
AcDbBlockBegin
  2
*Paper_Space
 70
0
 10
0.0
 20
0.0
 30
0.0
  3
*Paper_Space
  1

  0
ENDBLK
  5
1D
100
AcDbEntity
  8
0
100
AcDbBlockEnd
  0
BLOCK
  5
213
100
AcDbEntity
  8
0
100
AcDbBlockBegin
 62
2
  6
CONTINUOUS
  2
SUN_FIRST_THIRD_ANGLE_BL0
 70
64
 10
20.4816717061
 20
1.2289683772
  3
SUN_FIRST_THIRD_ANGLE_BL0
  1

  0
TEXT
  5
214
100
AcDbEntity
  8
0
100
AcDbText
 62
2
  6
CONTINUOUS
 10
19.4750896608
 20
1.4136269581
  7
STANDARD
 40
0.08
  1
FIRST ANGLE
 41
0.8
 72
0
100
AcDbText
  0
TEXT
  5
215
100
AcDbEntity
  8
0
100
AcDbText
 62
2
  6
CONTINUOUS
 10
20.7842537513
 20
1.4047600029
  7
STANDARD
 40
0.08
  1
THIRD ANGLE
 41
0.8
 72
0
100
AcDbText
  0
LINE
  5
216
100
AcDbEntity
  8
0
100
AcDbLine
 62
7
  6
CONTINUOUS
 10
19.4767170086
 20
1.1727031207
 11
19.6334271527
 21
1.1717972817
  0
LINE
  5
217
100
AcDbEntity
  8
0
100
AcDbLine
 62
7
  6
CONTINUOUS
 10
19.6596964832
 20
1.1717972817
 11
19.6950230232
 21
1.171593082
  0
LINE
  5
218
100
AcDbEntity
  8
0
100
AcDbLine
 62
7
  6
CONTINUOUS
 10
19.7194818561
 20
1.1708914427
 11
19.8852396156
 21
1.1699333054
  0
LINE
  5
219
100
AcDbEntity
  8
0
100
AcDbLine
 62
7
  6
CONTINUOUS
 10
19.4758111696
 20
1.2723454088
 11
19.88525039
 21
1.3511534004
  0
LINE
  5
21A
100
AcDbEntity
  8
0
100
AcDbLine
 62
7
  6
CONTINUOUS
 10
19.88525039
 20
1.3511534004
 11
19.8831348489
 21
0.9851647912
  0
LINE
  5
21B
100
AcDbEntity
  8
0
100
AcDbLine
 62
7
  6
CONTINUOUS
 10
19.8831348489
 20
0.9851647912
 11
19.4767170086
 21
1.0658141206
  0
LINE
  5
21C
100
AcDbEntity
  8
0
100
AcDbLine
 62
7
  6
CONTINUOUS
 10
19.4767170086
 20
1.0658141206
 11
19.4779056764
 21
1.2714536432
  0
CIRCLE
  5
21D
100
AcDbEntity
  8
0
100
AcDbCircle
 62
7
  6
CONTINUOUS
 10
20.2068232291
 20
1.1717972817
 40
0.175742101
  0
CIRCLE
  5
21E
100
AcDbEntity
  8
0
100
AcDbCircle
 62
7
  6
CONTINUOUS
 10
20.2068232291
 20
1.1717972817
 40
0.1005522074
  0
LINE
  5
21F
100
AcDbEntity
  8
0
100
AcDbLine
 62
7
  6
CONTINUOUS
 10
20.2077290681
 20
1.3756110529
 11
20.2071171714
 21
1.2379342989
  0
LINE
  5
220
100
AcDbEntity
  8
0
100
AcDbLine
 62
7
  6
CONTINUOUS
 10
20.2077290681
 20
1.2016899681
 11
20.2074674401
 21
1.1428236749
  0
LINE
  5
221
100
AcDbEntity
  8
0
100
AcDbLine
 62
7
  6
CONTINUOUS
 10
20.208634907
 20
1.101141841
 11
20.2080230104
 21
0.963465087
  0
LINE
  5
222
100
AcDbEntity
  8
0
100
AcDbLine
 62
7
  6
CONTINUOUS
 10
20.0066328138
 20
1.1745147986
 11
20.1443095678
 21
1.1739029019
  0
LINE
  5
223
100
AcDbEntity
  8
0
100
AcDbLine
 62
7
  6
CONTINUOUS
 10
20.1832714155
 20
1.1727031207
 11
20.238153505
 21
1.172335442
  0
LINE
  5
224
100
AcDbEntity
  8
0
100
AcDbLine
 62
7
  6
CONTINUOUS
 10
20.2756669918
 20
1.1717972817
 11
20.407916871
 21
1.1712095044
  0
CIRCLE
  5
225
100
AcDbEntity
  8
0
100
AcDbCircle
 62
7
  6
CONTINUOUS
 10
20.7509457401
 20
1.1693297793
 40
0.1722024983
  0
CIRCLE
  5
226
100
AcDbEntity
  8
0
100
AcDbCircle
 62
7
  6
CONTINUOUS
 10
20.7509457401
 20
1.1693297793
 40
0.0985164967
  0
LINE
  5
227
100
AcDbEntity
  8
0
100
AcDbLine
 62
7
  6
CONTINUOUS
 10
20.7169767782
 20
1.170462078
 11
20.7825395137
 21
1.1682766535
  0
LINE
  5
228
100
AcDbEntity
  8
0
100
AcDbLine
 62
7
  6
CONTINUOUS
 10
20.8177513651
 20
1.1693297793
 11
20.947965719
 21
1.1693297793
  0
LINE
  5
229
100
AcDbEntity
  8
0
100
AcDbLine
 62
7
  6
CONTINUOUS
 10
20.6875370113
 20
1.170462078
 11
20.5573226574
 21
1.170462078
  0
LINE
  5
22A
100
AcDbEntity
  8
0
100
AcDbLine
 62
7
  6
CONTINUOUS
 10
20.7486811426
 20
1.1987695462
 11
20.7486811426
 21
1.1432869085
  0
LINE
  5
22B
100
AcDbEntity
  8
0
100
AcDbLine
 62
7
  6
CONTINUOUS
 10
20.7498134414
 20
1.1059210505
 11
20.7498134414
 21
0.9757066966
  0
LINE
  5
22C
100
AcDbEntity
  8
0
100
AcDbLine
 62
7
  6
CONTINUOUS
 10
20.7486811426
 20
1.2338708068
 11
20.7486811426
 21
1.3640851607
  0
LINE
  5
22D
100
AcDbEntity
  8
0
100
AcDbLine
 62
7
  6
CONTINUOUS
 10
21.0702539817
 20
1.2701043662
 11
21.4790138229
 21
1.3448360823
  0
LINE
  5
22E
100
AcDbEntity
  8
0
100
AcDbLine
 62
7
  6
CONTINUOUS
 10
21.4790138229
 20
1.3448360823
 11
21.4790138229
 21
0.9779712941
  0
LINE
  5
22F
100
AcDbEntity
  8
0
100
AcDbLine
 62
7
  6
CONTINUOUS
 10
21.4790138229
 20
0.9779712941
 11
21.069121683
 21
1.0617614
  0
LINE
  5
230
100
AcDbEntity
  8
0
100
AcDbLine
 62
7
  6
CONTINUOUS
 10
21.0702539817
 20
1.2701043662
 11
21.069121683
 21
1.0617614
  0
LINE
  5
231
100
AcDbEntity
  8
0
100
AcDbLine
 62
7
  6
CONTINUOUS
 10
21.4790138229
 20
1.1693297793
 11
21.3159628059
 21
1.1693297793
  0
LINE
  5
232
100
AcDbEntity
  8
0
100
AcDbLine
 62
7
  6
CONTINUOUS
 10
21.2876553377
 20
1.1693297793
 11
21.2502894796
 21
1.1693297793
  0
LINE
  5
233
100
AcDbEntity
  8
0
100
AcDbLine
 62
7
  6
CONTINUOUS
 10
21.2208497126
 20
1.1659328831
 11
21.0713862804
 21
1.1659328831
  0
LINE
  5
234
100
AcDbEntity
  8
0
100
AcDbLine
 62
7
  6
CONTINUOUS
 10
20.4796138713
 20
1.5284908897
 11
20.4766766948
 21
0.9294458646
  0
ENDBLK
  5
235
100
AcDbEntity
  8
0
  6
BYBLOCK
 62
0
100
AcDbBlockEnd
  0
BLOCK
  5
236
100
AcDbEntity
  8
0
100
AcDbBlockBegin
  2
*T1
 70
1
 10
0.0
 20
0.0
  3
*T1
  1

  0
LINE
  5
237
100
AcDbEntity
  8
0
100
AcDbLine
 62
2
  6
CONTINUOUS
 10
9.275
 20
0.0
 11
-0.0
 21
0.0
  0
LINE
  5
238
100
AcDbEntity
  8
0
100
AcDbLine
 62
2
  6
CONTINUOUS
 10
9.275
 20
0.0
 11
9.275
 21
1.25
  0
LINE
  5
239
100
AcDbEntity
  8
0
100
AcDbLine
 62
2
  6
CONTINUOUS
 10
9.275
 20
0.625
 11
-0.0
 21
0.625
  0
LINE
  5
23A
100
AcDbEntity
  8
0
100
AcDbLine
 62
2
  6
CONTINUOUS
 10
9.275
 20
1.25
 11
-0.0
 21
1.25
  0
LINE
  5
23B
100
AcDbEntity
  8
0
100
AcDbLine
 62
2
  6
CONTINUOUS
 10
6.8
 20
0.0
 11
6.8
 21
1.25
  0
LINE
  5
23C
100
AcDbEntity
  8
0
100
AcDbLine
 62
2
  6
CONTINUOUS
 10
6.4
 20
0.0
 11
6.4
 21
0.625
  0
LINE
  5
23D
100
AcDbEntity
  8
0
100
AcDbLine
 62
2
  6
CONTINUOUS
 10
5.9
 20
0.0
 11
5.9
 21
0.625
  0
LINE
  5
23E
100
AcDbEntity
  8
0
100
AcDbLine
 62
2
  6
CONTINUOUS
 10
5.2
 20
0.0
 11
5.2
 21
0.625
  0
LINE
  5
23F
100
AcDbEntity
  8
0
100
AcDbLine
 62
2
  6
CONTINUOUS
 10
4.1
 20
0.0
 11
4.1
 21
1.25
  0
LINE
  5
240
100
AcDbEntity
  8
0
100
AcDbLine
 62
2
  6
CONTINUOUS
 10
-0.0
 20
0.0
 11
-0.0
 21
1.25
  0
MTEXT
  5
241
100
AcDbEntity
  8
0
100
AcDbMText
 62
2
  6
CONTINUOUS
  7
STANDARD
 71
2
 72
1
 10
6.6
 20
0.325
 30
0.0
 11
1.0
 21
0.0
 31
0.0
 44
0.9
  1
2
 40
0.125
 41
0.2
  0
MTEXT
  5
242
100
AcDbEntity
  8
0
100
AcDbMText
 62
2
  6
CONTINUOUS
  7
STANDARD
 71
2
 72
1
 10
6.15
 20
0.325
 30
0.0
 11
1.0
 21
0.0
 31
0.0
 44
0.9
  1
C
 40
0.125
 41
0.2
  0
MTEXT
  5
243
100
AcDbEntity
  8
0
100
AcDbMText
 62
2
  6
CONTINUOUS
  7
STANDARD
 71
2
 72
1
 10
5.55
 20
0.325
 30
0.0
 11
1.0
 21
0.0
 31
0.0
 44
0.9
  1
1.000
 40
0.125
 41
1.0
  0
MTEXT
  5
244
100
AcDbEntity
  8
0
100
AcDbMText
 62
2
  6
CONTINUOUS
  7
STANDARD
 71
2
 72
1
 10
4.65
 20
0.325
 30
0.0
 11
1.0
 21
0.0
 31
0.0
 44
0.9
  1
Oct-28-20
 40
0.125
 41
1.8
  0
MTEXT
  5
245
100
AcDbEntity
  8
0
100
AcDbMText
 62
2
  6
CONTINUOUS
  7
STANDARD
 71
2
 72
1
 10
2.05
 20
0.4625
 30
0.0
 11
1.0
 21
0.0
 31
0.0
 44
0.9
  1
T-11A Line mount\PThrough port 2 with reverse flow check
 40
0.125
 41
7.6
  0
MTEXT
  5
246
100
AcDbEntity
  8
0
100
AcDbMText
 62
2
  6
CONTINUOUS
  7
STANDARD
 71
1
 72
1
 10
6.45
 20
0.5625
 30
0.0
 11
1.0
 21
0.0
 31
0.0
 44
0.9
  1
SHEET
 40
0.06
 41
0.48
  0
MTEXT
  5
247
100
AcDbEntity
  8
0
100
AcDbMText
 62
2
  6
CONTINUOUS
  7
STANDARD
 71
1
 72
1
 10
5.95
 20
0.5625
 30
0.0
 11
1.0
 21
0.0
 31
0.0
 44
0.9
  1
DWG SIZE
 40
0.06
 41
0.768
  0
MTEXT
  5
248
100
AcDbEntity
  8
0
100
AcDbMText
 62
2
  6
CONTINUOUS
  7
STANDARD
 71
1
 72
1
 10
5.25
 20
0.5625
 30
0.0
 11
1.0
 21
0.0
 31
0.0
 44
0.9
  1
SCALE
 40
0.06
 41
0.48
  0
MTEXT
  5
249
100
AcDbEntity
  8
0
100
AcDbMText
 62
2
  6
CONTINUOUS
  7
STANDARD
 71
1
 72
1
 10
4.15
 20
0.5625
 30
0.0
 11
1.0
 21
0.0
 31
0.0
 44
0.9
  1
DATE
 40
0.06
 41
0.384
  0
MTEXT
  5
24A
100
AcDbEntity
  8
0
100
AcDbMText
 62
2
  6
CONTINUOUS
  7
STANDARD
 71
1
 72
1
 10
0.05
 20
0.5625
 30
0.0
 11
1.0
 21
0.0
 31
0.0
 44
0.9
  1
DESCRIPTION
 40
0.06
 41
1.056
  0
MTEXT
  5
24B
100
AcDbEntity
  8
0
100
AcDbMText
 62
2
  6
CONTINUOUS
  7
STANDARD
 71
2
 72
1
 10
5.45
 20
1.0375
 30
0.0
 11
1.0
 21
0.0
 31
0.0
 44
0.9
  1
ALL DIMENSIONS IN INCH\PVIEWS ARE THIRD ANGLE
 40
0.12
 41
4.224
  0
MTEXT
  5
24C
100
AcDbEntity
  8
0
100
AcDbMText
 62
2
  6
CONTINUOUS
  7
STANDARD
 71
2
 72
1
 10
2.05
 20
0.95
 30
0.0
 11
1.0
 21
0.0
 31
0.0
 44
0.9
  1
E3J
 40
0.125
 41
0.6
  0
MTEXT
  5
24D
100
AcDbEntity
  8
0
100
AcDbMText
 62
2
  6
CONTINUOUS
  7
STANDARD
 71
1
 72
1
 10
0.05
 20
1.1875
 30
0.0
 11
1.0
 21
0.0
 31
0.0
 44
0.9
  1
MODEL
 40
0.06
 41
0.48
  0
ENDBLK
  5
24E
100
AcDbEntity
  8
0
  6
BYBLOCK
 62
0
100
AcDbBlockEnd
  0
BLOCK
  5
24F
100
AcDbEntity
  8
0
100
AcDbBlockBegin
  2
*T2
 70
1
 10
0.0
 20
0.0
  3
*T2
  1

  0
LINE
  5
250
100
AcDbEntity
  8
0
100
AcDbLine
 62
2
  6
CONTINUOUS
 10
0.0
 20
0.0
 11
9.055
 21
0.0
  0
LINE
  5
251
100
AcDbEntity
  8
0
100
AcDbLine
 62
2
  6
CONTINUOUS
 10
0.0
 20
0.0
 11
0.0
 21
-2.594
  0
LINE
  5
252
100
AcDbEntity
  8
0
100
AcDbLine
 62
2
  6
CONTINUOUS
 10
0.0
 20
-0.344
 11
9.055
 21
-0.344
  0
LINE
  5
253
100
AcDbEntity
  8
0
100
AcDbLine
 62
2
  6
CONTINUOUS
 10
0.0
 20
-0.594
 11
9.055
 21
-0.594
  0
LINE
  5
254
100
AcDbEntity
  8
0
100
AcDbLine
 62
2
  6
CONTINUOUS
 10
0.0
 20
-0.844
 11
9.055
 21
-0.844
  0
LINE
  5
255
100
AcDbEntity
  8
0
100
AcDbLine
 62
2
  6
CONTINUOUS
 10
0.0
 20
-1.094
 11
9.055
 21
-1.094
  0
LINE
  5
256
100
AcDbEntity
  8
0
100
AcDbLine
 62
2
  6
CONTINUOUS
 10
0.0
 20
-1.344
 11
9.055
 21
-1.344
  0
LINE
  5
257
100
AcDbEntity
  8
0
100
AcDbLine
 62
2
  6
CONTINUOUS
 10
0.0
 20
-1.594
 11
9.055
 21
-1.594
  0
LINE
  5
258
100
AcDbEntity
  8
0
100
AcDbLine
 62
2
  6
CONTINUOUS
 10
0.0
 20
-1.844
 11
9.055
 21
-1.844
  0
LINE
  5
259
100
AcDbEntity
  8
0
100
AcDbLine
 62
2
  6
CONTINUOUS
 10
0.0
 20
-2.094
 11
9.055
 21
-2.094
  0
LINE
  5
25A
100
AcDbEntity
  8
0
100
AcDbLine
 62
2
  6
CONTINUOUS
 10
0.0
 20
-2.344
 11
9.055
 21
-2.344
  0
LINE
  5
25B
100
AcDbEntity
  8
0
100
AcDbLine
 62
2
  6
CONTINUOUS
 10
0.0
 20
-2.594
 11
9.055
 21
-2.594
  0
LINE
  5
25C
100
AcDbEntity
  8
0
100
AcDbLine
 62
2
  6
CONTINUOUS
 10
3.055
 20
0.0
 11
3.055
 21
-2.594
  0
LINE
  5
25D
100
AcDbEntity
  8
0
100
AcDbLine
 62
2
  6
CONTINUOUS
 10
9.055
 20
0.0
 11
9.055
 21
-2.594
  0
MTEXT
  5
25E
100
AcDbEntity
  8
0
100
AcDbMText
 62
2
  6
CONTINUOUS
  7
STANDARD
 71
2
 72
1
 10
1.5275
 20
-0.0995
 30
0.0
 11
1.0
 21
0.0
 31
0.0
 44
0.9
  1
Technical Data
 40
0.145
 41
3.248
  0
MTEXT
  5
25F
100
AcDbEntity
  8
0
100
AcDbMText
 62
2
  6
CONTINUOUS
  7
STANDARD
 71
2
 72
1
 10
4.555
 20
-0.0995
 30
0.0
 11
1.0
 21
0.0
 31
0.0
 44
0.9
  1
U.S. Units
 40
0.145
 41
2.32
  0
MTEXT
  5
260
100
AcDbEntity
  8
0
100
AcDbMText
 62
2
  6
CONTINUOUS
  7
STANDARD
 71
2
 72
1
 10
7.555
 20
-0.0995
 30
0.0
 11
1.0
 21
0.0
 31
0.0
 44
0.9
  1
Metric Units
 40
0.145
 41
2.784
  0
MTEXT
  5
261
100
AcDbEntity
  8
0
100
AcDbMText
 62
2
  6
CONTINUOUS
  7
STANDARD
 71
2
 72
1
 10
1.5275
 20
-0.4065
 30
0.0
 11
1.0
 21
0.0
 31
0.0
 44
0.9
  1
Cavity
 40
0.125
 41
1.2
  0
MTEXT
  5
262
100
AcDbEntity
  8
0
100
AcDbMText
 62
2
  6
CONTINUOUS
  7
STANDARD
 71
2
 72
1
 10
6.055
 20
-0.4065
 30
0.0
 11
1.0
 21
0.0
 31
0.0
 44
0.9
  1
T-11A
 40
0.125
 41
1.0
  0
MTEXT
  5
263
100
AcDbEntity
  8
0
100
AcDbMText
 62
2
  6
CONTINUOUS
  7
STANDARD
 71
2
 72
1
 10
1.5275
 20
-0.6565
 30
0.0
 11
1.0
 21
0.0
 31
0.0
 44
0.9
  1
Body Features
 40
0.125
 41
2.6
  0
MTEXT
  5
264
100
AcDbEntity
  8
0
100
AcDbMText
 62
2
  6
CONTINUOUS
  7
STANDARD
 71
2
 72
1
 10
6.055
 20
-0.6565
 30
0.0
 11
1.0
 21
0.0
 31
0.0
 44
0.9
  1
Through port 2 with reverse flow check
 40
0.125
 41
7.6
  0
MTEXT
  5
265
100
AcDbEntity
  8
0
100
AcDbMText
 62
2
  6
CONTINUOUS
  7
STANDARD
 71
2
 72
1
 10
1.5275
 20
-0.9065
 30
0.0
 11
1.0
 21
0.0
 31
0.0
 44
0.9
  1
Body Type
 40
0.125
 41
1.8
  0
MTEXT
  5
266
100
AcDbEntity
  8
0
100
AcDbMText
 62
2
  6
CONTINUOUS
  7
STANDARD
 71
2
 72
1
 10
6.055
 20
-0.9065
 30
0.0
 11
1.0
 21
0.0
 31
0.0
 44
0.9
  1
Line mount
 40
0.125
 41
2.0
  0
MTEXT
  5
267
100
AcDbEntity
  8
0
100
AcDbMText
 62
2
  6
CONTINUOUS
  7
STANDARD
 71
2
 72
1
 10
1.5275
 20
-1.1565
 30
0.0
 11
1.0
 21
0.0
 31
0.0
 44
0.9
  1
Interface
 40
0.125
 41
1.8
  0
MTEXT
  5
268
100
AcDbEntity
  8
0
100
AcDbMText
 62
2
  6
CONTINUOUS
  7
STANDARD
 71
2
 72
1
 10
6.055
 20
-1.1565
 30
0.0
 11
1.0
 21
0.0
 31
0.0
 44
0.9
  1
None
 40
0.125
 41
0.8
  0
MTEXT
  5
269
100
AcDbEntity
  8
0
100
AcDbMText
 62
2
  6
CONTINUOUS
  7
STANDARD
 71
2
 72
1
 10
1.5275
 20
-1.4065
 30
0.0
 11
1.0
 21
0.0
 31
0.0
 44
0.9
  1
Open Cavity Quantity
 40
0.125
 41
4.0
  0
MTEXT
  5
26A
100
AcDbEntity
  8
0
100
AcDbMText
 62
2
  6
CONTINUOUS
  7
STANDARD
 71
2
 72
1
 10
6.055
 20
-1.4065
 30
0.0
 11
1.0
 21
0.0
 31
0.0
 44
0.9
  1
1
 40
0.125
 41
0.2
  0
MTEXT
  5
26B
100
AcDbEntity
  8
0
100
AcDbMText
 62
2
  6
CONTINUOUS
  7
STANDARD
 71
2
 72
1
 10
1.5275
 20
-1.6565
 30
0.0
 11
1.0
 21
0.0
 31
0.0
 44
0.9
  1
Weight
 40
0.125
 41
1.2
  0
MTEXT
  5
26C
100
AcDbEntity
  8
0
100
AcDbMText
 62
2
  6
CONTINUOUS
  7
STANDARD
 71
2
 72
1
 10
4.555
 20
-1.6565
 30
0.0
 11
1.0
 21
0.0
 31
0.0
 44
0.9
  1
2.224 lb.
 40
0.125
 41
1.8
  0
MTEXT
  5
26D
100
AcDbEntity
  8
0
100
AcDbMText
 62
2
  6
CONTINUOUS
  7
STANDARD
 71
2
 72
1
 10
7.555
 20
-1.6565
 30
0.0
 11
1.0
 21
0.0
 31
0.0
 44
0.9
  1
1,009 kg.
 40
0.125
 41
1.8
  0
MTEXT
  5
26E
100
AcDbEntity
  8
0
100
AcDbMText
 62
2
  6
CONTINUOUS
  7
STANDARD
 71
2
 72
1
 10
1.5275
 20
-1.9065
 30
0.0
 11
1.0
 21
0.0
 31
0.0
 44
0.9
  1
Mounting Hole Thread
 40
0.125
 41
4.0
  0
MTEXT
  5
26F
100
AcDbEntity
  8
0
100
AcDbMText
 62
2
  6
CONTINUOUS
  7
STANDARD
 71
2
 72
1
 10
4.555
 20
-1.9065
 30
0.0
 11
1.0
 21
0.0
 31
0.0
 44
0.9
  1
.375-16 UNC - 2B in.
 40
0.125
 41
4.0
  0
MTEXT
  5
270
100
AcDbEntity
  8
0
100
AcDbMText
 62
2
  6
CONTINUOUS
  7
STANDARD
 71
2
 72
1
 10
1.5275
 20
-2.1565
 30
0.0
 11
1.0
 21
0.0
 31
0.0
 44
0.9
  1
Mounting Hole Depth
 40
0.125
 41
3.8
  0
MTEXT
  5
271
100
AcDbEntity
  8
0
100
AcDbMText
 62
2
  6
CONTINUOUS
  7
STANDARD
 71
2
 72
1
 10
4.555
 20
-2.1565
 30
0.0
 11
1.0
 21
0.0
 31
0.0
 44
0.9
  1
.62 in.
 40
0.125
 41
1.4
  0
MTEXT
  5
272
100
AcDbEntity
  8
0
100
AcDbMText
 62
2
  6
CONTINUOUS
  7
STANDARD
 71
2
 72
1
 10
7.555
 20
-2.1565
 30
0.0
 11
1.0
 21
0.0
 31
0.0
 44
0.9
  1
15,7 mm
 40
0.125
 41
1.4
  0
MTEXT
  5
273
100
AcDbEntity
  8
0
100
AcDbMText
 62
2
  6
CONTINUOUS
  7
STANDARD
 71
2
 72
1
 10
1.5275
 20
-2.4065
 30
0.0
 11
1.0
 21
0.0
 31
0.0
 44
0.9
  1
Mounting Hole Quantity
 40
0.125
 41
4.4
  0
MTEXT
  5
274
100
AcDbEntity
  8
0
100
AcDbMText
 62
2
  6
CONTINUOUS
  7
STANDARD
 71
2
 72
1
 10
6.055
 20
-2.4065
 30
0.0
 11
1.0
 21
0.0
 31
0.0
 44
0.9
  1
2
 40
0.125
 41
0.2
  0
ENDBLK
  5
275
100
AcDbEntity
  8
0
  6
BYBLOCK
 62
0
100
AcDbBlockEnd
  0
BLOCK
  5
276
100
AcDbEntity
  8
0
100
AcDbBlockBegin
  2
*T3
 70
1
 10
0.0
 20
0.0
  3
*T3
  1

  0
LINE
  5
277
100
AcDbEntity
  8
0
100
AcDbLine
 62
2
  6
CONTINUOUS
 10
0.0
 20
0.0
 11
4.6
 21
0.0
  0
LINE
  5
278
100
AcDbEntity
  8
0
100
AcDbLine
 62
2
  6
CONTINUOUS
 10
0.0
 20
0.0
 11
0.0
 21
-1.43775
  0
LINE
  5
279
100
AcDbEntity
  8
0
100
AcDbLine
 62
2
  6
CONTINUOUS
 10
0.0
 20
-0.34375
 11
4.6
 21
-0.34375
  0
LINE
  5
27A
100
AcDbEntity
  8
0
100
AcDbLine
 62
2
  6
CONTINUOUS
 10
0.0
 20
-0.68775
 11
4.6
 21
-0.68775
  0
LINE
  5
27B
100
AcDbEntity
  8
0
100
AcDbLine
 62
2
  6
CONTINUOUS
 10
0.0
 20
-0.93775
 11
4.6
 21
-0.93775
  0
LINE
  5
27C
100
AcDbEntity
  8
0
100
AcDbLine
 62
2
  6
CONTINUOUS
 10
0.0
 20
-1.18775
 11
4.6
 21
-1.18775
  0
LINE
  5
27D
100
AcDbEntity
  8
0
100
AcDbLine
 62
2
  6
CONTINUOUS
 10
0.0
 20
-1.43775
 11
4.6
 21
-1.43775
  0
LINE
  5
27E
100
AcDbEntity
  8
0
100
AcDbLine
 62
2
  6
CONTINUOUS
 10
1.3
 20
-0.34375
 11
1.3
 21
-1.43775
  0
LINE
  5
27F
100
AcDbEntity
  8
0
100
AcDbLine
 62
2
  6
CONTINUOUS
 10
3.3
 20
-0.34375
 11
3.3
 21
-1.43775
  0
LINE
  5
280
100
AcDbEntity
  8
0
100
AcDbLine
 62
2
  6
CONTINUOUS
 10
4.6
 20
0.0
 11
4.6
 21
-1.43775
  0
MTEXT
  5
281
100
AcDbEntity
  8
0
100
AcDbMText
 62
2
  6
CONTINUOUS
  7
STANDARD
 71
2
 72
1
 10
2.3
 20
-0.099375
 30
0.0
 11
1.0
 21
0.0
 31
0.0
 44
0.9
  1
Port Headings
 40
0.145
 41
3.016
  0
MTEXT
  5
282
100
AcDbEntity
  8
0
100
AcDbMText
 62
2
  6
CONTINUOUS
  7
STANDARD
 71
2
 72
1
 10
0.65
 20
-0.44325
 30
0.0
 11
1.0
 21
0.0
 31
0.0
 44
0.9
  1
Product
 40
0.145
 41
1.624
  0
MTEXT
  5
283
100
AcDbEntity
  8
0
100
AcDbMText
 62
2
  6
CONTINUOUS
  7
STANDARD
 71
2
 72
1
 10
2.3
 20
-0.44325
 30
0.0
 11
1.0
 21
0.0
 31
0.0
 44
0.9
  1
Port
 40
0.145
 41
0.928
  0
MTEXT
  5
284
100
AcDbEntity
  8
0
100
AcDbMText
 62
2
  6
CONTINUOUS
  7
STANDARD
 71
2
 72
1
 10
3.95
 20
-0.44325
 30
0.0
 11
1.0
 21
0.0
 31
0.0
 44
0.9
  1
Size
 40
0.145
 41
0.928
  0
MTEXT
  5
285
100
AcDbEntity
  8
0
100
AcDbMText
 62
2
  6
CONTINUOUS
  7
STANDARD
 71
2
 72
1
 10
0.65
 20
-0.75025
 30
0.0
 11
1.0
 21
0.0
 31
0.0
 44
0.9
  1
E3J
 40
0.125
 41
0.6
  0
MTEXT
  5
286
100
AcDbEntity
  8
0
100
AcDbMText
 62
2
  6
CONTINUOUS
  7
STANDARD
 71
2
 72
1
 10
2.3
 20
-0.75025
 30
0.0
 11
1.0
 21
0.0
 31
0.0
 44
0.9
  1
Ports 1 &  2
 40
0.125
 41
2.4
  0
MTEXT
  5
287
100
AcDbEntity
  8
0
100
AcDbMText
 62
2
  6
CONTINUOUS
  7
STANDARD
 71
2
 72
1
 10
3.95
 20
-0.75025
 30
0.0
 11
1.0
 21
0.0
 31
0.0
 44
0.9
  1
SAE 8
 40
0.125
 41
1.0
  0
MTEXT
  5
288
100
AcDbEntity
  8
0
100
AcDbMText
 62
2
  6
CONTINUOUS
  7
STANDARD
 71
2
 72
1
 10
0.65
 20
-1.00025
 30
0.0
 11
1.0
 21
0.0
 31
0.0
 44
0.9
  1
E3J
 40
0.125
 41
0.6
  0
MTEXT
  5
289
100
AcDbEntity
  8
0
100
AcDbMText
 62
2
  6
CONTINUOUS
  7
STANDARD
 71
2
 72
1
 10
2.3
 20
-1.00025
 30
0.0
 11
1.0
 21
0.0
 31
0.0
 44
0.9
  1
Port 3
 40
0.125
 41
1.2
  0
MTEXT
  5
28A
100
AcDbEntity
  8
0
100
AcDbMText
 62
2
  6
CONTINUOUS
  7
STANDARD
 71
2
 72
1
 10
3.95
 20
-1.00025
 30
0.0
 11
1.0
 21
0.0
 31
0.0
 44
0.9
  1
SAE 6
 40
0.125
 41
1.0
  0
MTEXT
  5
28B
100
AcDbEntity
  8
0
100
AcDbMText
 62
2
  6
CONTINUOUS
  7
STANDARD
 71
2
 72
1
 10
0.65
 20
-1.25025
 30
0.0
 11
1.0
 21
0.0
 31
0.0
 44
0.9
  1
E3J
 40
0.125
 41
0.6
  0
MTEXT
  5
28C
100
AcDbEntity
  8
0
100
AcDbMText
 62
2
  6
CONTINUOUS
  7
STANDARD
 71
2
 72
1
 10
2.3
 20
-1.25025
 30
0.0
 11
1.0
 21
0.0
 31
0.0
 44
0.9
  1
Gage Port
 40
0.125
 41
1.8
  0
MTEXT
  5
28D
100
AcDbEntity
  8
0
100
AcDbMText
 62
2
  6
CONTINUOUS
  7
STANDARD
 71
2
 72
1
 10
3.95
 20
-1.25025
 30
0.0
 11
1.0
 21
0.0
 31
0.0
 44
0.9
  1
1/4" NPTF
 40
0.125
 41
1.8
  0
ENDBLK
  5
28E
100
AcDbEntity
  8
0
  6
BYBLOCK
 62
0
100
AcDbBlockEnd
  0
ENDSEC
  0
SECTION
  2
ENTITIES
  0
IMAGE
  5
28F
100
AcDbEntity
  8
0
100
AcDbRasterImage
 62
7
  6
CONTINUOUS
 10
19.2297077316
 20
0.3094318264
 30
0.0
 11
0.0066666667
 21
0.0
 31
0.0
 12
0.0
 22
0.0066666667
 32
0.0
 13
369.0
 23
92.0
340
       3FE
 70
9
280
0
281
50
282
50
283
0
360
       3F8
 71
1
 91
2
 14
-0.5
 24
-0.5
 14
368.5
 24
91.5
  0
INSERT
  5
290
100
AcDbEntity
  8
0
100
AcDbBlockReference
 62
2
  6
CONTINUOUS
  2
SUN_FIRST_THIRD_ANGLE_BL0
 10
20.4816717061
 20
1.2289683772
  0
ACAD_TABLE
  5
291
100
AcDbEntity
  8
0
 62
2
  6
CONTINUOUS
100
AcDbBlockReference
  2
*T1
 10
12.42375
 20
0.30125
 30
0.0
100
AcDbTable
342
       400
343
20F
 11
1.0
 21
0.0
 31
0.0
 90
6
 91
4
 92
6
 93
20
 94
0
 95
0
 96
0
 70
1
 41
0.0
141
0.525
141
0.1
141
0.525
141
0.1
142
4.1
142
1.1
142
0.7
142
0.5
142
0.4
142
2.475
171
1
172
0
173
0
174
0
175
1
176
1
 91
33
178
0
145
0.0
301
CELL_VALUE
 90
4
  1
T-11A Line mount\PThrough port 2 with reverse flow check
304
ACVALUE_END
170
2
140
0.125
171
1
172
0
173
0
174
0
175
1
176
1
 91
33
178
0
145
0.0
301
CELL_VALUE
 90
4
  1
Oct-28-20
304
ACVALUE_END
170
5
140
0.125
171
1
172
0
173
0
174
0
175
1
176
1
 91
33
178
0
145
0.0
301
CELL_VALUE
 90
4
  1
1.000
304
ACVALUE_END
170
5
140
0.125
171
1
172
0
173
0
174
0
175
1
176
1
 91
33
178
0
145
0.0
301
CELL_VALUE
 90
4
  1
C
304
ACVALUE_END
170
5
140
0.125
171
1
172
0
173
0
174
0
175
1
176
1
 91
33
178
0
145
0.0
301
CELL_VALUE
 90
4
  1
2
304
ACVALUE_END
170
5
140
0.125
171
1
172
0
173
0
174
0
175
1
176
1
 91
33
178
0
145
0.0
301
CELL_VALUE
 90
4
  1
 
304
ACVALUE_END
170
1
140
0.125
171
1
172
0
173
0
174
0
175
1
176
1
 91
33
178
0
145
0.0
301
CELL_VALUE
 90
4
  1
DESCRIPTION
304
ACVALUE_END
170
1
140
0.06
171
1
172
0
173
0
174
0
175
1
176
1
 91
33
178
0
145
0.0
301
CELL_VALUE
 90
4
  1
DATE
304
ACVALUE_END
170
1
140
0.06
171
1
172
0
173
0
174
0
175
1
176
1
 91
33
178
0
145
0.0
301
CELL_VALUE
 90
4
  1
SCALE
304
ACVALUE_END
170
1
140
0.06
171
1
172
0
173
0
174
0
175
1
176
1
 91
33
178
0
145
0.0
301
CELL_VALUE
 90
4
  1
DWG SIZE
304
ACVALUE_END
170
1
140
0.06
171
1
172
0
173
0
174
0
175
1
176
1
 91
33
178
0
145
0.0
301
CELL_VALUE
 90
4
  1
SHEET
304
ACVALUE_END
170
1
140
0.06
171
1
172
0
173
0
174
0
175
1
176
1
 91
33
178
0
145
0.0
301
CELL_VALUE
 90
4
  1
 
304
ACVALUE_END
170
1
140
0.125
171
1
172
0
173
0
174
0
175
1
176
1
 91
33
178
0
145
0.0
301
CELL_VALUE
 90
4
  1
E3J
304
ACVALUE_END
170
5
140
0.125
171
1
172
0
173
0
174
0
175
4
176
1
 91
33
178
0
145
0.0
301
CELL_VALUE
 90
4
  1
ALL DIMENSIONS IN INCH\PVIEWS ARE THIRD ANGLE
304
ACVALUE_END
170
5
140
0.12
171
1
172
0
173
1
174
0
175
1
176
1
 91
1
178
0
145
0.0
170
1
171
1
172
0
173
1
174
0
175
1
176
1
 91
1
178
0
145
0.0
170
1
171
1
172
0
173
1
174
0
175
1
176
1
 91
1
178
0
145
0.0
170
5
171
1
172
0
173
0
174
0
175
1
176
1
 91
33
178
0
145
0.0
301
CELL_VALUE
 90
4
  1
 
304
ACVALUE_END
170
1
140
0.125
171
1
172
0
173
0
174
0
175
1
176
1
 91
33
178
0
145
0.0
301
CELL_VALUE
 90
4
  1
MODEL
304
ACVALUE_END
170
1
140
0.06
171
1
172
0
173
0
174
0
175
1
176
1
 91
33
178
0
145
0.0
301
CELL_VALUE
 90
4
  1
 
304
ACVALUE_END
170
1
140
0.125
171
1
172
0
173
0
174
0
175
1
176
1
 91
33
178
0
145
0.0
301
CELL_VALUE
 90
4
  1
 
304
ACVALUE_END
170
1
140
0.125
171
1
172
0
173
0
174
0
175
1
176
1
 91
33
178
0
145
0.0
301
CELL_VALUE
 90
4
  1
 
304
ACVALUE_END
170
1
140
0.125
171
1
172
0
173
0
174
0
175
1
176
1
 91
33
178
0
145
0.0
301
CELL_VALUE
 90
4
  1
 
304
ACVALUE_END
170
1
140
0.125
171
1
172
0
173
0
174
0
175
1
176
1
 91
33
178
0
145
0.0
301
CELL_VALUE
 90
4
  1
 
304
ACVALUE_END
170
1
140
0.125
  0
ACAD_TABLE
  5
292
100
AcDbEntity
  8
0
 62
2
  6
CONTINUOUS
100
AcDbBlockReference
  2
*T2
 10
12.4237499994
 20
16.47875
 30
0.0
100
AcDbTable
342
       3FF
343
210
 11
1.0
 21
0.0
 31
0.0
 90
22
 91
10
 92
3
 93
16
 94
0
 95
0
 96
0
 41
0.028
141
0.344
141
0.25
141
0.25
141
0.25
141
0.25
141
0.25
141
0.25
141
0.25
141
0.25
141
0.25
142
3.055
142
3.0
142
3.0
171
1
172
0
173
0
174
0
175
1
176
1
 91
33
178
0
145
0.0
301
CELL_VALUE
 90
4
  1
Technical Data
304
ACVALUE_END
170
5
140
0.145
171
1
172
0
173
0
174
0
175
1
176
1
 91
33
178
0
145
0.0
301
CELL_VALUE
 90
4
  1
U.S. Units
304
ACVALUE_END
170
5
140
0.145
171
1
172
0
173
0
174
0
175
1
176
1
 91
33
178
0
145
0.0
301
CELL_VALUE
 90
4
  1
Metric Units
304
ACVALUE_END
170
5
140
0.145
171
1
172
0
173
0
174
0
175
1
176
1
 91
33
178
0
145
0.0
301
CELL_VALUE
 90
4
  1
Cavity
304
ACVALUE_END
170
5
140
0.125
171
1
172
0
173
0
174
0
175
2
176
1
 91
33
178
0
145
0.0
301
CELL_VALUE
 90
4
  1
T-11A
304
ACVALUE_END
170
5
140
0.125
171
1
172
0
173
1
174
0
175
1
176
1
 91
1
178
0
145
0.0
170
1
171
1
172
0
173
0
174
0
175
1
176
1
 91
33
178
0
145
0.0
301
CELL_VALUE
 90
4
  1
Body Features
304
ACVALUE_END
170
5
140
0.125
171
1
172
0
173
0
174
0
175
2
176
1
 91
33
178
0
145
0.0
301
CELL_VALUE
 90
4
  1
Through port 2 with reverse flow check
304
ACVALUE_END
170
5
140
0.125
171
1
172
0
173
1
174
0
175
1
176
1
 91
1
178
0
145
0.0
170
1
171
1
172
0
173
0
174
0
175
1
176
1
 91
33
178
0
145
0.0
301
CELL_VALUE
 90
4
  1
Body Type
304
ACVALUE_END
170
5
140
0.125
171
1
172
0
173
0
174
0
175
2
176
1
 91
33
178
0
145
0.0
301
CELL_VALUE
 90
4
  1
Line mount
304
ACVALUE_END
170
5
140
0.125
171
1
172
0
173
1
174
0
175
1
176
1
 91
1
178
0
145
0.0
170
1
171
1
172
0
173
0
174
0
175
1
176
1
 91
33
178
0
145
0.0
301
CELL_VALUE
 90
4
  1
Interface
304
ACVALUE_END
170
5
140
0.125
171
1
172
0
173
0
174
0
175
2
176
1
 91
33
178
0
145
0.0
301
CELL_VALUE
 90
4
  1
None
304
ACVALUE_END
170
5
140
0.125
171
1
172
0
173
1
174
0
175
1
176
1
 91
1
178
0
145
0.0
170
1
171
1
172
0
173
0
174
0
175
1
176
1
 91
33
178
0
145
0.0
301
CELL_VALUE
 90
4
  1
Open Cavity Quantity
304
ACVALUE_END
170
5
140
0.125
171
1
172
0
173
0
174
0
175
2
176
1
 91
33
178
0
145
0.0
301
CELL_VALUE
 90
4
  1
1
304
ACVALUE_END
170
5
140
0.125
171
1
172
0
173
1
174
0
175
1
176
1
 91
1
178
0
145
0.0
170
1
171
1
172
0
173
0
174
0
175
1
176
1
 91
33
178
0
145
0.0
301
CELL_VALUE
 90
4
  1
Weight
304
ACVALUE_END
170
5
140
0.125
171
1
172
0
173
0
174
0
175
1
176
1
 91
33
178
0
145
0.0
301
CELL_VALUE
 90
4
  1
2.224 lb.
304
ACVALUE_END
170
5
140
0.125
171
1
172
0
173
0
174
0
175
1
176
1
 91
33
178
0
145
0.0
301
CELL_VALUE
 90
4
  1
1,009 kg.
304
ACVALUE_END
170
5
140
0.125
171
1
172
0
173
0
174
0
175
1
176
1
 91
33
178
0
145
0.0
301
CELL_VALUE
 90
4
  1
Mounting Hole Thread
304
ACVALUE_END
170
5
140
0.125
171
1
172
0
173
0
174
0
175
1
176
1
 91
33
178
0
145
0.0
301
CELL_VALUE
 90
4
  1
.375-16 UNC - 2B in.
304
ACVALUE_END
170
5
140
0.125
171
1
172
0
173
0
174
0
175
1
176
1
 91
33
178
0
145
0.0
301
CELL_VALUE
 90
4
  1
 
304
ACVALUE_END
170
5
140
0.125
171
1
172
0
173
0
174
0
175
1
176
1
 91
33
178
0
145
0.0
301
CELL_VALUE
 90
4
  1
Mounting Hole Depth
304
ACVALUE_END
170
5
140
0.125
171
1
172
0
173
0
174
0
175
1
176
1
 91
33
178
0
145
0.0
301
CELL_VALUE
 90
4
  1
.62 in.
304
ACVALUE_END
170
5
140
0.125
171
1
172
0
173
0
174
0
175
1
176
1
 91
33
178
0
145
0.0
301
CELL_VALUE
 90
4
  1
15,7 mm
304
ACVALUE_END
170
5
140
0.125
171
1
172
0
173
0
174
0
175
1
176
1
 91
33
178
0
145
0.0
301
CELL_VALUE
 90
4
  1
Mounting Hole Quantity
304
ACVALUE_END
170
5
140
0.125
171
1
172
0
173
0
174
0
175
2
176
1
 91
33
178
0
145
0.0
301
CELL_VALUE
 90
4
  1
2
304
ACVALUE_END
170
5
140
0.125
171
1
172
0
173
1
174
0
175
1
176
1
 91
1
178
0
145
0.0
170
1
  0
ACAD_TABLE
  5
293
100
AcDbEntity
  8
0
 62
2
  6
CONTINUOUS
100
AcDbBlockReference
  2
*T3
 10
0.52125
 20
1.959
 30
0.0
100
AcDbTable
342
       3FF
343
211
 11
1.0
 21
0.0
 31
0.0
 90
22
 91
5
 92
3
 93
16
 94
0
 95
0
 96
0
 41
0.05
141
0.34375
141
0.344
141
0.25
141
0.25
141
0.25
142
1.3
142
2.0
142
1.3
171
1
172
0
173
0
174
0
175
3
176
1
 91
33
178
0
145
0.0
301
CELL_VALUE
 90
4
  1
Port Headings
304
ACVALUE_END
170
5
140
0.145
171
1
172
0
173
1
174
0
175
1
176
1
 91
1
178
0
145
0.0
170
1
171
1
172
0
173
1
174
0
175
1
176
1
 91
1
178
0
145
0.0
170
1
171
1
172
0
173
0
174
0
175
1
176
1
 91
33
178
0
145
0.0
301
CELL_VALUE
 90
4
  1
Product
304
ACVALUE_END
170
5
140
0.145
171
1
172
0
173
0
174
0
175
1
176
1
 91
33
178
0
145
0.0
301
CELL_VALUE
 90
4
  1
Port
304
ACVALUE_END
170
5
140
0.145
171
1
172
0
173
0
174
0
175
1
176
1
 91
33
178
0
145
0.0
301
CELL_VALUE
 90
4
  1
Size
304
ACVALUE_END
170
5
140
0.145
171
1
172
0
173
0
174
0
175
1
176
1
 91
33
178
0
145
0.0
301
CELL_VALUE
 90
4
  1
E3J
304
ACVALUE_END
170
5
140
0.125
171
1
172
0
173
0
174
0
175
1
176
1
 91
33
178
0
145
0.0
301
CELL_VALUE
 90
4
  1
Ports 1 &  2
304
ACVALUE_END
170
5
140
0.125
171
1
172
0
173
0
174
0
175
1
176
1
 91
33
178
0
145
0.0
301
CELL_VALUE
 90
4
  1
SAE 8
304
ACVALUE_END
170
5
140
0.125
171
1
172
0
173
0
174
0
175
1
176
1
 91
33
178
0
145
0.0
301
CELL_VALUE
 90
4
  1
E3J
304
ACVALUE_END
170
5
140
0.125
171
1
172
0
173
0
174
0
175
1
176
1
 91
33
178
0
145
0.0
301
CELL_VALUE
 90
4
  1
Port 3
304
ACVALUE_END
170
5
140
0.125
171
1
172
0
173
0
174
0
175
1
176
1
 91
33
178
0
145
0.0
301
CELL_VALUE
 90
4
  1
SAE 6
304
ACVALUE_END
170
5
140
0.125
171
1
172
0
173
0
174
0
175
1
176
1
 91
33
178
0
145
0.0
301
CELL_VALUE
 90
4
  1
E3J
304
ACVALUE_END
170
5
140
0.125
171
1
172
0
173
0
174
0
175
1
176
1
 91
33
178
0
145
0.0
301
CELL_VALUE
 90
4
  1
Gage Port
304
ACVALUE_END
170
5
140
0.125
171
1
172
0
173
0
174
0
175
1
176
1
 91
33
178
0
145
0.0
301
CELL_VALUE
 90
4
  1
1/4" NPTF
304
ACVALUE_END
170
5
140
0.125
  0
MTEXT
  5
294
100
AcDbEntity
  8
0
100
AcDbMText
 62
2
  6
CONTINUOUS
  7
STANDARD
 71
1
 72
1
 10
0.52125
 20
5.75995
 30
0.0
 11
1.0
 21
0.0
 31
0.0
 44
0.6
  3
Notes\P \P1. Important: Carefully consider\P   the maximum system pressure. The\P   pressure rating of the manifold is\P   dependent on the manifold material,\P   with the port type/size a secondary\P   consideration. Manifolds\P   constructed of alu
  1
minum are not\P   rated for pressures higher than\P   3000 psi (210 bar), regardless of\P   the port type/size specified.
 40
0.1
 41
3.04
  0
LINE
  5
295
100
AcDbEntity
  8
0
100
AcDbLine
 62
7
  6
CONTINUOUS
 10
0.30125
 20
0.30125
 11
0.30125
 21
16.69875
  0
LINE
  5
296
100
AcDbEntity
  8
0
100
AcDbLine
 62
7
  6
CONTINUOUS
 10
0.30125
 20
0.30125
 11
21.69875
 21
0.30125
  0
LINE
  5
297
100
AcDbEntity
  8
0
100
AcDbLine
 62
7
  6
CONTINUOUS
 10
0.30125
 20
16.69875
 11
21.69875
 21
16.69875
  0
LINE
  5
298
100
AcDbEntity
  8
0
100
AcDbLine
 62
7
  6
CONTINUOUS
 10
21.69875
 20
0.30125
 11
21.69875
 21
16.69875
  0
LINE
  5
299
100
AcDbEntity
  8
0
100
AcDbLine
 62
7
  6
CONTINUOUS
 10
9.4067730324
 20
6.3459052392
 11
11.881475181
 21
6.1742840623
  0
LINE
  5
29A
100
AcDbEntity
  8
0
100
AcDbLine
 62
7
  6
CONTINUOUS
 10
10.118524819
 20
10.4141453049
 11
9.4067730324
 21
9.7266458315
  0
LINE
  5
29B
100
AcDbEntity
  8
0
100
AcDbLine
 62
7
  6
CONTINUOUS
 10
11.2410813953
 20
10.753647287
 11
11.2662470077
 21
10.7660786177
  0
LINE
  5
29C
100
AcDbEntity
  8
0
100
AcDbLine
 62
4
  6
CONTINUOUS
 10
11.2879136917
 20
6.640455085
 11
11.2734248038
 21
6.6414598928
  0
LINE
  5
29D
100
AcDbEntity
  8
0
100
AcDbLine
 62
4
  6
CONTINUOUS
 10
11.2879136917
 20
6.6887513804
 11
11.2734248038
 21
6.6897561882
  0
LINE
  5
29E
100
AcDbEntity
  8
0
100
AcDbLine
 62
4
  6
CONTINUOUS
 10
11.2734248038
 20
6.7573709963
 11
11.2879136917
 21
6.7563661885
  0
LINE
  5
29F
100
AcDbEntity
  8
0
100
AcDbLine
 62
4
  6
CONTINUOUS
 10
9.5376559845
 20
7.6794654538
 11
9.5304115406
 21
7.6896271209
  0
LINE
  5
2A0
100
AcDbEntity
  8
0
100
AcDbLine
 62
7
  6
CONTINUOUS
 10
9.4067730324
 20
9.7266458315
 11
9.4067730324
 21
6.3459052392
  0
LINE
  5
2A1
100
AcDbEntity
  8
0
100
AcDbLine
 62
4
  6
CONTINUOUS
 10
9.5159226526
 20
8.7550822842
 11
9.5159226526
 21
8.7937193181
  0
LINE
  5
2A2
100
AcDbEntity
  8
0
100
AcDbLine
 62
4
  6
CONTINUOUS
 10
9.5521448724
 20
7.6688013897
 11
9.5376559845
 21
7.6794654538
  0
LINE
  5
2A3
100
AcDbEntity
  8
0
100
AcDbLine
 62
4
  6
CONTINUOUS
 10
9.5304115406
 20
7.6896271209
 11
9.5304115406
 21
7.7089456336
  0
LINE
  5
2A4
100
AcDbEntity
  8
0
100
AcDbLine
 62
4
  6
CONTINUOUS
 10
9.5883670923
 20
8.7500582453
 11
9.5811226483
 21
8.7215828733
  0
LINE
  5
2A5
100
AcDbEntity
  8
0
100
AcDbLine
 62
4
  6
CONTINUOUS
 10
9.5159226526
 20
8.7937193181
 11
9.5231670966
 21
8.8028761731
  0
LINE
  5
2A6
100
AcDbEntity
  8
0
100
AcDbLine
 62
4
  6
CONTINUOUS
 10
11.2734248038
 20
6.6414598928
 11
11.2589359158
 21
6.6521239569
  0
LINE
  5
2A7
100
AcDbEntity
  8
0
100
AcDbLine
 62
4
  6
CONTINUOUS
 10
11.2734248038
 20
6.6897561882
 11
11.2589359158
 21
6.7004202523
  0
LINE
  5
2A8
100
AcDbEntity
  8
0
100
AcDbLine
 62
4
  6
CONTINUOUS
 10
10.1381168765
 20
7.4970741294
 11
10.1298375436
 21
7.5059276706
  0
LINE
  5
2A9
100
AcDbEntity
  8
0
100
AcDbLine
 62
4
  6
CONTINUOUS
 10
9.5811226483
 20
8.779538425
 11
9.5883670923
 21
8.7500582453
  0
LINE
  5
2AA
100
AcDbEntity
  8
0
100
AcDbLine
 62
4
  6
CONTINUOUS
 10
9.5811226483
 20
7.7537251017
 11
9.5883670923
 21
7.7822004737
  0
LINE
  5
2AB
100
AcDbEntity
  8
0
100
AcDbLine
 62
4
  6
CONTINUOUS
 10
9.5811226483
 20
8.7215828733
 11
9.5666337604
 21
8.7032691615
  0
LINE
  5
2AC
100
AcDbEntity
  8
0
100
AcDbLine
 62
4
  6
CONTINUOUS
 10
10.9057170001
 20
10.1425146622
 11
10.9134815648
 21
10.1500146563
  0
LINE
  5
2AD
100
AcDbEntity
  8
0
100
AcDbLine
 62
4
  6
CONTINUOUS
 10
10.934834118
 20
10.1706396401
 11
10.9387164004
 21
10.1743896371
  0
LINE
  5
2AE
100
AcDbEntity
  8
0
100
AcDbLine
 62
4
  6
CONTINUOUS
 10
10.9969506361
 20
10.2306395928
 11
11.0008329185
 21
10.2343895898
  0
LINE
  5
2AF
100
AcDbEntity
  8
0
100
AcDbLine
 62
4
  6
CONTINUOUS
 10
11.116744022
 20
10.2263511275
 11
11.1128617396
 21
10.2226011304
  0
LINE
  5
2B0
100
AcDbEntity
  8
0
100
AcDbLine
 62
4
  6
CONTINUOUS
 10
11.0546275038
 20
10.1663511748
 11
11.0507452214
 21
10.1626011777
  0
LINE
  5
2B1
100
AcDbEntity
  8
0
100
AcDbLine
 62
4
  6
CONTINUOUS
 10
11.0293926683
 20
10.141976194
 11
11.0216281035
 21
10.1344761999
  0
LINE
  5
2B2
100
AcDbEntity
  8
0
100
AcDbLine
 62
4
  6
CONTINUOUS
 10
10.1381168765
 20
7.5412307411
 11
10.1712343188
 21
7.5334144626
  0
LINE
  5
2B3
100
AcDbEntity
  8
0
100
AcDbLine
 62
4
  6
CONTINUOUS
 10
10.1298375436
 20
7.5473244908
 11
10.1381168765
 21
7.5412307411
  0
LINE
  5
2B4
100
AcDbEntity
  8
0
100
AcDbLine
 62
4
  6
CONTINUOUS
 10
10.1712343188
 20
7.5334144626
 11
10.1795136518
 21
7.5273207129
  0
LINE
  5
2B5
100
AcDbEntity
  8
0
100
AcDbLine
 62
4
  6
CONTINUOUS
 10
11.2879136917
 20
6.7563661885
 11
11.3024025796
 21
6.7457021218
  0
LINE
  5
2B6
100
AcDbEntity
  8
0
100
AcDbLine
 62
4
  6
CONTINUOUS
 10
10.1795136518
 20
7.5687175357
 11
10.1712343188
 21
7.5775710743
  0
LINE
  5
2B7
100
AcDbEntity
  8
0
100
AcDbLine
 62
4
  6
CONTINUOUS
 10
10.245748647
 20
7.5724034881
 11
10.2540279799
 21
7.5635499495
  0
LINE
  5
2B8
100
AcDbEntity
  8
0
100
AcDbLine
 62
4
  6
CONTINUOUS
 10
10.3644194728
 20
7.5641736384
 11
10.372698861
 21
7.5553200959
  0
LINE
  5
2B9
100
AcDbEntity
  8
0
100
AcDbLine
 62
4
  6
CONTINUOUS
 10
9.5231670966
 20
8.8028761731
 11
9.5376559845
 21
8.8115306242
  0
LINE
  5
2BA
100
AcDbEntity
  8
0
100
AcDbLine
 62
4
  6
CONTINUOUS
 10
11.1978755199
 20
7.3904621617
 11
11.1647580621
 21
7.3927588652
  0
LINE
  5
2BB
100
AcDbEntity
  8
0
100
AcDbLine
 62
4
  6
CONTINUOUS
 10
10.2981845881
 20
7.4528559398
 11
10.2954248105
 21
7.453047331
  0
LINE
  5
2BC
100
AcDbEntity
  8
0
100
AcDbLine
 62
4
  6
CONTINUOUS
 10
10.8501422183
 20
7.4476950043
 11
10.8087453877
 21
7.4505658842
  0
LINE
  5
2BD
100
AcDbEntity
  8
0
100
AcDbLine
 62
4
  6
CONTINUOUS
 10
10.6790353408
 20
7.4595613065
 11
10.6459178984
 21
7.461858009
  0
LINE
  5
2BE
100
AcDbEntity
  8
0
100
AcDbLine
 62
4
  6
CONTINUOUS
 10
10.6128004008
 20
7.4641547152
 11
10.5796829585
 21
7.4664514176
  0
LINE
  5
2BF
100
AcDbEntity
  8
0
100
AcDbLine
 62
4
  6
CONTINUOUS
 10
10.245748647
 20
7.4896098408
 11
10.2126310941
 21
7.4919065509
  0
LINE
  5
2C0
100
AcDbEntity
  8
0
100
AcDbLine
 62
4
  6
CONTINUOUS
 10
10.1712343188
 20
7.494777427
 11
10.1381168765
 21
7.4970741294
  0
LINE
  5
2C1
100
AcDbEntity
  8
0
100
AcDbLine
 62
4
  6
CONTINUOUS
 10
10.4968892974
 20
7.4721931775
 11
10.538286128
 21
7.4693222976
  0
LINE
  5
2C2
100
AcDbEntity
  8
0
100
AcDbLine
 62
4
  6
CONTINUOUS
 10
10.5217274068
 20
7.5118674724
 11
10.4886099645
 21
7.5141641749
  0
LINE
  5
2C3
100
AcDbEntity
  8
0
100
AcDbLine
 62
4
  6
CONTINUOUS
 10
11.2061548848
 20
7.5057990893
 11
11.1730374261
 21
7.5080957928
  0
LINE
  5
2C4
100
AcDbEntity
  8
0
100
AcDbLine
 62
4
  6
CONTINUOUS
 10
11.1068025138
 20
7.5126891996
 11
11.0819644113
 21
7.5144117279
  0
LINE
  5
2C5
100
AcDbEntity
  8
0
100
AcDbLine
 62
4
  6
CONTINUOUS
 10
10.4472131339
 20
7.5584318785
 11
10.4058163034
 21
7.5613027584
  0
LINE
  5
2C6
100
AcDbEntity
  8
0
100
AcDbLine
 62
4
  6
CONTINUOUS
 10
10.1712343188
 20
7.5775710743
 11
10.1381168765
 21
7.5798677767
  0
LINE
  5
2C7
100
AcDbEntity
  8
0
100
AcDbLine
 62
4
  6
CONTINUOUS
 10
10.2126310941
 20
7.5747001982
 11
10.245748647
 21
7.5724034881
  0
LINE
  5
2C8
100
AcDbEntity
  8
0
100
AcDbLine
 62
4
  6
CONTINUOUS
 10
10.3478607516
 20
7.5653219896
 11
10.3644194728
 21
7.5641736384
  0
LINE
  5
2C9
100
AcDbEntity
  8
0
100
AcDbLine
 62
4
  6
CONTINUOUS
 10
10.4886099645
 20
7.5555609985
 11
10.5217274068
 21
7.5532642961
  0
LINE
  5
2CA
100
AcDbEntity
  8
0
100
AcDbLine
 62
4
  6
CONTINUOUS
 10
10.6459178984
 20
7.5446516562
 11
10.6790353408
 21
7.5423549538
  0
LINE
  5
2CB
100
AcDbEntity
  8
0
100
AcDbLine
 62
4
  6
CONTINUOUS
 10
10.7673485572
 20
7.5638282933
 11
10.750789836
 21
7.5649766445
  0
LINE
  5
2CC
100
AcDbEntity
  8
0
100
AcDbLine
 62
4
  6
CONTINUOUS
 10
11.7322396619
 20
7.5176113025
 11
11.717750774
 21
7.5186161103
  0
LINE
  5
2CD
100
AcDbEntity
  8
0
100
AcDbLine
 62
4
  6
CONTINUOUS
 10
9.5666337604
 20
7.6677965819
 11
9.5521448724
 21
7.6688013897
  0
LINE
  5
2CE
100
AcDbEntity
  8
0
100
AcDbLine
 62
4
  6
CONTINUOUS
 10
10.5217274068
 20
7.5532642961
 11
10.538286128
 21
7.54383658
  0
LINE
  5
2CF
100
AcDbEntity
  8
0
100
AcDbLine
 62
4
  6
CONTINUOUS
 10
10.6790353408
 20
7.5423549538
 11
10.6955940619
 21
7.5329272377
  0
LINE
  5
2D0
100
AcDbEntity
  8
0
100
AcDbLine
 62
4
  6
CONTINUOUS
 10
10.4554925221
 20
7.549578336
 11
10.4472131339
 21
7.5584318785
  0
LINE
  5
2D1
100
AcDbEntity
  8
0
100
AcDbLine
 62
4
  6
CONTINUOUS
 10
9.5231670966
 20
8.7062835849
 11
9.5159226526
 21
8.716445252
  0
LINE
  5
2D2
100
AcDbEntity
  8
0
100
AcDbLine
 62
4
  6
CONTINUOUS
 10
9.5666337604
 20
8.7998617497
 11
9.5811226483
 21
8.779538425
  0
LINE
  5
2D3
100
AcDbEntity
  8
0
100
AcDbLine
 62
4
  6
CONTINUOUS
 10
10.1298375436
 20
7.5721625855
 11
10.1298375436
 21
7.5473244908
  0
LINE
  5
2D4
100
AcDbEntity
  8
0
100
AcDbLine
 62
4
  6
CONTINUOUS
 10
10.1795136518
 20
7.5273207129
 11
10.1795136518
 21
7.5024826208
  0
LINE
  5
2D5
100
AcDbEntity
  8
0
100
AcDbLine
 62
4
  6
CONTINUOUS
 10
10.2540279799
 20
7.5635499495
 11
10.2540279799
 21
7.4973150346
  0
LINE
  5
2D6
100
AcDbEntity
  8
0
100
AcDbLine
 62
4
  6
CONTINUOUS
 10
9.5666337604
 20
8.7032691615
 11
9.5521448724
 21
8.694614713
  0
LINE
  5
2D7
100
AcDbEntity
  8
0
100
AcDbLine
 62
4
  6
CONTINUOUS
 10
11.7539729938
 20
7.6320151943
 11
11.6960174421
 21
7.6360344255
  0
LINE
  5
2D8
100
AcDbEntity
  8
0
100
AcDbLine
 62
4
  6
CONTINUOUS
 10
9.5883670923
 20
7.7822004737
 11
9.5304115406
 21
7.7862197048
  0
LINE
  5
2D9
100
AcDbEntity
  8
0
100
AcDbLine
 62
4
  6
CONTINUOUS
 10
10.7756279517
 20
7.75588733
 11
10.725951764
 21
7.7593323853
  0
LINE
  5
2DA
100
AcDbEntity
  8
0
100
AcDbLine
 62
4
  6
CONTINUOUS
 10
10.6597168483
 20
7.7639257923
 11
10.6928343044
 21
7.7616290889
  0
LINE
  5
2DB
100
AcDbEntity
  8
0
100
AcDbLine
 62
4
  6
CONTINUOUS
 10
10.2347094614
 20
8.0925611905
 11
10.1905528532
 21
8.1177017692
  0
LINE
  5
2DC
100
AcDbEntity
  8
0
100
AcDbLine
 62
4
  6
CONTINUOUS
 10
10.8087453877
 20
7.4505658842
 11
10.8004660271
 21
7.4594194273
  0
LINE
  5
2DD
100
AcDbEntity
  8
0
100
AcDbLine
 62
4
  6
CONTINUOUS
 10
10.3809782295
 20
8.0382608088
 11
10.3644195083
 21
8.055967888
  0
LINE
  5
2DE
100
AcDbEntity
  8
0
100
AcDbLine
 62
4
  6
CONTINUOUS
 10
11.2589359158
 20
6.6521239569
 11
11.2516914719
 21
6.662285624
  0
LINE
  5
2DF
100
AcDbEntity
  8
0
100
AcDbLine
 62
4
  6
CONTINUOUS
 10
11.2589359158
 20
6.7004202523
 11
11.2444470279
 21
6.7207435762
  0
LINE
  5
2E0
100
AcDbEntity
  8
0
100
AcDbLine
 62
4
  6
CONTINUOUS
 10
11.3024025796
 20
6.7457021218
 11
11.3096470236
 21
6.735540459
  0
LINE
  5
2E1
100
AcDbEntity
  8
0
100
AcDbLine
 62
4
  6
CONTINUOUS
 10
10.5796829585
 20
7.4664514176
 11
10.5741634032
 21
7.4751135676
  0
LINE
  5
2E2
100
AcDbEntity
  8
0
100
AcDbLine
 62
4
  6
CONTINUOUS
 10
10.4886099645
 20
7.4893260793
 11
10.4968892974
 21
7.4721931775
  0
LINE
  5
2E3
100
AcDbEntity
  8
0
100
AcDbLine
 62
4
  6
CONTINUOUS
 10
10.2981845881
 20
7.5687670432
 11
10.2981845881
 21
7.4859733959
  0
LINE
  5
2E4
100
AcDbEntity
  8
0
100
AcDbLine
 62
4
  6
CONTINUOUS
 10
10.2981845881
 20
7.4611353073
 11
10.2981845881
 21
7.4528559398
  0
LINE
  5
2E5
100
AcDbEntity
  8
0
100
AcDbLine
 62
4
  6
CONTINUOUS
 10
10.3175030672
 20
8.1585739296
 11
10.3175030672
 21
8.0426628262
  0
LINE
  5
2E6
100
AcDbEntity
  8
0
100
AcDbLine
 62
4
  6
CONTINUOUS
 10
10.3644195083
 20
8.055967888
 11
10.3644195083
 21
8.1387615336
  0
LINE
  5
2E7
100
AcDbEntity
  8
0
100
AcDbLine
 62
4
  6
CONTINUOUS
 10
10.372698861
 20
7.5553200959
 11
10.372698861
 21
7.4476883574
  0
LINE
  5
2E8
100
AcDbEntity
  8
0
100
AcDbLine
 62
4
  6
CONTINUOUS
 10
10.4058163034
 20
7.5613027584
 11
10.4058163034
 21
7.4785091111
  0
LINE
  5
2E9
100
AcDbEntity
  8
0
100
AcDbLine
 62
4
  6
CONTINUOUS
 10
10.42237506
 20
8.1513010322
 11
10.42237506
 21
8.0353899288
  0
LINE
  5
2EA
100
AcDbEntity
  8
0
100
AcDbLine
 62
4
  6
CONTINUOUS
 10
10.4554925023
 20
8.0496519545
 11
10.4554925023
 21
8.1324456
  0
LINE
  5
2EB
100
AcDbEntity
  8
0
100
AcDbLine
 62
4
  6
CONTINUOUS
 10
10.4554925221
 20
7.4750640537
 11
10.4554925221
 21
7.549578336
  0
LINE
  5
2EC
100
AcDbEntity
  8
0
100
AcDbLine
 62
4
  6
CONTINUOUS
 10
9.5304115406
 20
7.7089456336
 11
9.5376559845
 21
7.7181024929
  0
LINE
  5
2ED
100
AcDbEntity
  8
0
100
AcDbLine
 62
4
  6
CONTINUOUS
 10
9.5666337604
 20
7.7354113934
 11
9.5811226483
 21
7.7537251017
  0
LINE
  5
2EE
100
AcDbEntity
  8
0
100
AcDbLine
 62
4
  6
CONTINUOUS
 10
9.5883670923
 20
7.6856078898
 11
9.5811226483
 21
7.6764510304
  0
LINE
  5
2EF
100
AcDbEntity
  8
0
100
AcDbLine
 62
4
  6
CONTINUOUS
 10
10.6597168483
 20
7.8136019766
 11
10.6762755763
 21
7.8124536249
  0
LINE
  5
2F0
100
AcDbEntity
  8
0
100
AcDbLine
 62
4
  6
CONTINUOUS
 10
10.7425104921
 20
7.8078602179
 11
10.7756279517
 21
7.8055635142
  0
LINE
  5
2F1
100
AcDbEntity
  8
0
100
AcDbLine
 62
4
  6
CONTINUOUS
 10
10.7756279517
 20
7.8717984334
 11
10.725951764
 21
7.8752434888
  0
LINE
  5
2F2
100
AcDbEntity
  8
0
100
AcDbLine
 62
4
  6
CONTINUOUS
 10
10.6928343044
 20
7.8775401924
 11
10.6514374877
 21
7.8804110714
  0
LINE
  5
2F3
100
AcDbEntity
  8
0
100
AcDbLine
 62
4
  6
CONTINUOUS
 10
10.6100406571
 20
7.8832819513
 11
10.5852025616
 21
7.8850044791
  0
LINE
  5
2F4
100
AcDbEntity
  8
0
100
AcDbLine
 62
4
  6
CONTINUOUS
 10
9.5376559845
 20
8.6956195208
 11
9.5231670966
 21
8.7062835849
  0
LINE
  5
2F5
100
AcDbEntity
  8
0
100
AcDbLine
 62
4
  6
CONTINUOUS
 10
9.5521448724
 20
8.8105258164
 11
9.5666337604
 21
8.7998617497
  0
LINE
  5
2F6
100
AcDbEntity
  8
0
100
AcDbLine
 62
4
  6
CONTINUOUS
 10
11.156478698
 20
7.4761266849
 11
11.2144342497
 21
7.4224312661
  0
LINE
  5
2F7
100
AcDbEntity
  8
0
100
AcDbLine
 62
4
  6
CONTINUOUS
 10
10.6431581133
 20
7.8313090603
 11
10.6597168483
 21
7.8136019766
  0
LINE
  5
2F8
100
AcDbEntity
  8
0
100
AcDbLine
 62
4
  6
CONTINUOUS
 10
10.4720512235
 20
8.0319448752
 11
10.4554925023
 21
8.0496519545
  0
LINE
  5
2F9
100
AcDbEntity
  8
0
100
AcDbLine
 62
4
  6
CONTINUOUS
 10
11.1647580621
 20
7.3927588652
 11
11.156478698
 21
7.4016124086
  0
LINE
  5
2FA
100
AcDbEntity
  8
0
100
AcDbLine
 62
4
  6
CONTINUOUS
 10
10.4968893329
 20
8.1461334499
 11
10.5134480541
 21
8.1284263688
  0
LINE
  5
2FB
100
AcDbEntity
  8
0
100
AcDbLine
 62
4
  6
CONTINUOUS
 10
11.1233612419
 20
7.4949821181
 11
11.1068025138
 21
7.5126891996
  0
LINE
  5
2FC
100
AcDbEntity
  8
0
100
AcDbLine
 62
4
  6
CONTINUOUS
 10
10.5934818822
 20
8.1394347338
 11
10.6100406034
 21
8.1217276528
  0
LINE
  5
2FD
100
AcDbEntity
  8
0
100
AcDbLine
 62
4
  6
CONTINUOUS
 10
10.6459179048
 20
7.7814414804
 11
10.6597168483
 21
7.7639257923
  0
LINE
  5
2FE
100
AcDbEntity
  8
0
100
AcDbLine
 62
4
  6
CONTINUOUS
 10
10.4886099645
 20
7.5555609985
 11
10.4886099645
 21
7.4893260793
  0
LINE
  5
2FF
100
AcDbEntity
  8
0
100
AcDbLine
 62
4
  6
CONTINUOUS
 10
10.5134480541
 20
8.1284263688
 11
10.5134480541
 21
8.0456327233
  0
LINE
  5
300
100
AcDbEntity
  8
0
100
AcDbLine
 62
4
  6
CONTINUOUS
 10
10.538286128
 20
7.54383658
 11
10.538286128
 21
7.5189984853
  0
LINE
  5
301
100
AcDbEntity
  8
0
100
AcDbLine
 62
4
  6
CONTINUOUS
 10
10.5686438404
 20
7.8695941005
 11
10.5686438404
 21
7.7702417269
  0
LINE
  5
302
100
AcDbEntity
  8
0
100
AcDbLine
 62
4
  6
CONTINUOUS
 10
10.5741634032
 20
7.4751135676
 11
10.5741634032
 21
7.4916722957
  0
LINE
  5
303
100
AcDbEntity
  8
0
100
AcDbLine
 62
4
  6
CONTINUOUS
 10
10.6100406034
 20
8.1217276528
 11
10.6100406034
 21
8.0389340072
  0
LINE
  5
304
100
AcDbEntity
  8
0
100
AcDbLine
 62
4
  6
CONTINUOUS
 10
10.6128004008
 20
7.5469483625
 11
10.6128004008
 21
7.4641547152
  0
LINE
  5
305
100
AcDbEntity
  8
0
100
AcDbLine
 62
4
  6
CONTINUOUS
 10
10.6431581133
 20
7.872705883
 11
10.6431581133
 21
7.8313090603
  0
LINE
  5
306
100
AcDbEntity
  8
0
100
AcDbLine
 62
4
  6
CONTINUOUS
 10
10.6459179048
 20
7.806279576
 11
10.6459179048
 21
7.7814414804
  0
LINE
  5
307
100
AcDbEntity
  8
0
100
AcDbLine
 62
4
  6
CONTINUOUS
 10
10.6459178984
 20
7.4287405528
 11
10.6459178984
 21
7.5446516562
  0
LINE
  5
308
100
AcDbEntity
  8
0
100
AcDbLine
 62
7
  6
CONTINUOUS
 10
12.118252132
 20
10.2270133498
 11
12.1194711025
 21
10.2281688842
  0
LINE
  5
309
100
AcDbEntity
  8
0
100
AcDbLine
 62
7
  6
CONTINUOUS
 10
12.059001
 20
10.1718739513
 11
12.1182521362
 21
10.2270133537
  0
LINE
  5
30A
100
AcDbEntity
  8
0
100
AcDbLine
 62
4
  6
CONTINUOUS
 10
11.0874839814
 20
7.9892644684
 11
11.0460871646
 21
7.9921353474
  0
LINE
  5
30B
100
AcDbEntity
  8
0
100
AcDbLine
 62
4
  6
CONTINUOUS
 10
10.8832596685
 20
8.0034274726
 11
10.8170247562
 21
8.0080208794
  0
LINE
  5
30C
100
AcDbEntity
  8
0
100
AcDbLine
 62
4
  6
CONTINUOUS
 10
10.7839072862
 20
8.0103175838
 11
10.7342310951
 21
8.0137626393
  0
LINE
  5
30D
100
AcDbEntity
  8
0
100
AcDbLine
 62
4
  6
CONTINUOUS
 10
10.5934818822
 20
8.0235236304
 11
10.5603644399
 21
8.0258203328
  0
LINE
  5
30E
100
AcDbEntity
  8
0
100
AcDbLine
 62
4
  6
CONTINUOUS
 10
10.4968893329
 20
8.0302223464
 11
10.4720512235
 21
8.0319448752
  0
LINE
  5
30F
100
AcDbEntity
  8
0
100
AcDbLine
 62
4
  6
CONTINUOUS
 10
10.42237506
 20
8.0353899288
 11
10.3809782295
 21
8.0382608088
  0
LINE
  5
310
100
AcDbEntity
  8
0
100
AcDbLine
 62
4
  6
CONTINUOUS
 10
10.3175030672
 20
8.0426628262
 11
10.2678269037
 21
8.0461078798
  0
LINE
  5
311
100
AcDbEntity
  8
0
100
AcDbLine
 62
4
  6
CONTINUOUS
 10
10.2843856248
 20
8.0946357129
 11
10.3175030672
 21
8.0923390104
  0
LINE
  5
312
100
AcDbEntity
  8
0
100
AcDbLine
 62
4
  6
CONTINUOUS
 10
10.7507898162
 20
8.0622904723
 11
10.7839072862
 21
8.059993768
  0
LINE
  5
313
100
AcDbEntity
  8
0
100
AcDbLine
 62
4
  6
CONTINUOUS
 10
10.9715728849
 20
8.0800965741
 11
10.9274162767
 21
8.0831588453
  0
LINE
  5
314
100
AcDbEntity
  8
0
100
AcDbLine
 62
4
  6
CONTINUOUS
 10
10.7839072862
 20
8.1262286872
 11
10.7342310951
 21
8.1296737427
  0
LINE
  5
315
100
AcDbEntity
  8
0
100
AcDbLine
 62
4
  6
CONTINUOUS
 10
10.3175030672
 20
8.1585739296
 11
10.2678269037
 21
8.1620189833
  0
LINE
  5
316
100
AcDbEntity
  8
0
100
AcDbLine
 62
4
  6
CONTINUOUS
 10
10.3809782295
 20
8.1541719122
 11
10.42237506
 21
8.1513010322
  0
LINE
  5
317
100
AcDbEntity
  8
0
100
AcDbLine
 62
4
  6
CONTINUOUS
 10
10.4720512235
 20
8.1478559786
 11
10.4968893329
 21
8.1461334499
  0
LINE
  5
318
100
AcDbEntity
  8
0
100
AcDbLine
 62
4
  6
CONTINUOUS
 10
10.5603644399
 20
8.1417314362
 11
10.5934818822
 21
8.1394347338
  0
LINE
  5
319
100
AcDbEntity
  8
0
100
AcDbLine
 62
4
  6
CONTINUOUS
 10
11.0460871646
 20
8.1080464509
 11
11.0874839814
 21
8.1051755719
  0
LINE
  5
31A
100
AcDbEntity
  8
0
100
AcDbLine
 62
4
  6
CONTINUOUS
 10
11.717750774
 20
7.5186161103
 11
11.7032618861
 21
7.5292801744
  0
LINE
  5
31B
100
AcDbEntity
  8
0
100
AcDbLine
 62
4
  6
CONTINUOUS
 10
11.2144342497
 20
7.4969455485
 11
11.2061548848
 21
7.5057990893
  0
LINE
  5
31C
100
AcDbEntity
  8
0
100
AcDbLine
 62
4
  6
CONTINUOUS
 10
11.032288234
 20
7.401945679
 11
10.9743326823
 21
7.5218760136
  0
LINE
  5
31D
100
AcDbEntity
  8
0
100
AcDbLine
 62
4
  6
CONTINUOUS
 10
10.7673485572
 20
7.4534367642
 11
10.7425104478
 21
7.5379529402
  0
LINE
  5
31E
100
AcDbEntity
  8
0
100
AcDbLine
 62
4
  6
CONTINUOUS
 10
10.6955940619
 20
7.5329272377
 11
10.6955940619
 21
7.4666923228
  0
LINE
  5
31F
100
AcDbEntity
  8
0
100
AcDbLine
 62
4
  6
CONTINUOUS
 10
10.7756279517
 20
7.8717984334
 11
10.7756279517
 21
7.75588733
  0
LINE
  5
320
100
AcDbEntity
  8
0
100
AcDbLine
 62
4
  6
CONTINUOUS
 10
10.7839072862
 20
8.1262286872
 11
10.7839072862
 21
8.0103175838
  0
LINE
  5
321
100
AcDbEntity
  8
0
100
AcDbLine
 62
4
  6
CONTINUOUS
 10
10.8004660271
 20
7.4594194273
 11
10.8004660271
 21
7.5339337071
  0
LINE
  5
322
100
AcDbEntity
  8
0
100
AcDbLine
 62
4
  6
CONTINUOUS
 10
10.2954248105
 20
7.453047331
 11
10.2981845881
 21
7.4611353073
  0
LINE
  5
323
100
AcDbEntity
  8
0
100
AcDbLine
 62
4
  6
CONTINUOUS
 10
10.3644195083
 20
8.1387615336
 11
10.3809782295
 21
8.1541719122
  0
LINE
  5
324
100
AcDbEntity
  8
0
100
AcDbLine
 62
4
  6
CONTINUOUS
 10
11.1537189006
 20
8.0509059769
 11
11.1095622889
 21
8.0760465542
  0
LINE
  5
325
100
AcDbEntity
  8
0
100
AcDbLine
 62
4
  6
CONTINUOUS
 10
11.0460871646
 20
7.9921353474
 11
11.0295284366
 21
8.0098424272
  0
LINE
  5
326
100
AcDbEntity
  8
0
100
AcDbLine
 62
4
  6
CONTINUOUS
 10
10.9494945808
 20
7.9988340659
 11
10.9163771108
 21
8.1170418737
  0
LINE
  5
327
100
AcDbEntity
  8
0
100
AcDbLine
 62
4
  6
CONTINUOUS
 10
10.8501421985
 20
8.1216352804
 11
10.8501421985
 21
8.005724177
  0
LINE
  5
328
100
AcDbEntity
  8
0
100
AcDbLine
 62
4
  6
CONTINUOUS
 10
10.8501422183
 20
7.5304886515
 11
10.8501422183
 21
7.4145775481
  0
LINE
  5
329
100
AcDbEntity
  8
0
100
AcDbLine
 62
4
  6
CONTINUOUS
 10
10.9743326823
 20
7.5218760136
 11
10.9743326823
 21
7.4059649102
  0
LINE
  5
32A
100
AcDbEntity
  8
0
100
AcDbLine
 62
7
  6
CONTINUOUS
 10
12.5932269676
 20
10.242524128
 11
11.881475181
 21
9.5550246546
  0
LINE
  5
32B
100
AcDbEntity
  8
0
100
AcDbLine
 62
4
  6
CONTINUOUS
 10
10.4554925023
 20
8.1324456
 11
10.4720512235
 21
8.1478559786
  0
LINE
  5
32C
100
AcDbEntity
  8
0
100
AcDbLine
 62
4
  6
CONTINUOUS
 10
10.5134480541
 20
8.0456327233
 11
10.4968893329
 21
8.0302223464
  0
LINE
  5
32D
100
AcDbEntity
  8
0
100
AcDbLine
 62
4
  6
CONTINUOUS
 10
9.5376559845
 20
7.7181024929
 11
9.5666337604
 21
7.7354113934
  0
LINE
  5
32E
100
AcDbEntity
  8
0
100
AcDbLine
 62
4
  6
CONTINUOUS
 10
9.5811226483
 20
7.6764510304
 11
9.5666337604
 21
7.6677965819
  0
LINE
  5
32F
100
AcDbEntity
  8
0
100
AcDbLine
 62
4
  6
CONTINUOUS
 10
11.7032618861
 20
7.5292801744
 11
11.6960174421
 21
7.5394418416
  0
LINE
  5
330
100
AcDbEntity
  8
0
100
AcDbLine
 62
4
  6
CONTINUOUS
 10
11.0295284366
 20
8.0098424272
 11
11.0295284366
 21
8.0926360728
  0
LINE
  5
331
100
AcDbEntity
  8
0
100
AcDbLine
 62
4
  6
CONTINUOUS
 10
11.032288234
 20
7.5178567825
 11
11.032288234
 21
7.401945679
  0
LINE
  5
332
100
AcDbEntity
  8
0
100
AcDbLine
 62
4
  6
CONTINUOUS
 10
11.0654056902
 20
7.4990013493
 11
11.0654056902
 21
7.3996489756
  0
LINE
  5
333
100
AcDbEntity
  8
0
100
AcDbLine
 62
4
  6
CONTINUOUS
 10
11.0874839814
 20
8.1051755719
 11
11.0874839814
 21
7.9892644684
  0
LINE
  5
334
100
AcDbEntity
  8
0
100
AcDbLine
 62
4
  6
CONTINUOUS
 10
11.1233612419
 20
7.3956297445
 11
11.1233612419
 21
7.4949821181
  0
LINE
  5
335
100
AcDbEntity
  8
0
100
AcDbLine
 62
4
  6
CONTINUOUS
 10
11.156478698
 20
7.4926854147
 11
11.156478698
 21
7.4761266849
  0
LINE
  5
336
100
AcDbEntity
  8
0
100
AcDbLine
 62
7
  6
CONTINUOUS
 10
11.1679979279
 20
10.2862187898
 11
11.1679979279
 21
10.7068180156
  0
LINE
  5
337
100
AcDbEntity
  8
0
100
AcDbLine
 62
4
  6
CONTINUOUS
 10
10.9826120369
 20
8.1124484659
 11
10.9494945808
 21
7.9988340659
  0
LINE
  5
338
100
AcDbEntity
  8
0
100
AcDbLine
 62
4
  6
CONTINUOUS
 10
10.750789836
 20
7.5649766445
 11
10.7176723937
 21
7.4568818178
  0
LINE
  5
339
100
AcDbEntity
  8
0
100
AcDbLine
 62
4
  6
CONTINUOUS
 10
10.6100406034
 20
8.0389340072
 11
10.5934818822
 21
8.0235236304
  0
LINE
  5
33A
100
AcDbEntity
  8
0
100
AcDbLine
 62
4
  6
CONTINUOUS
 10
10.1381168765
 20
7.5798677767
 11
10.1298375436
 21
7.5721625855
  0
LINE
  5
33B
100
AcDbEntity
  8
0
100
AcDbLine
 62
4
  6
CONTINUOUS
 10
10.5852025616
 20
7.8850044791
 11
10.5686438404
 21
7.8695941005
  0
LINE
  5
33C
100
AcDbEntity
  8
0
100
AcDbLine
 62
4
  6
CONTINUOUS
 10
10.1795136518
 20
7.5024826208
 11
10.1712343188
 21
7.494777427
  0
LINE
  5
33D
100
AcDbEntity
  8
0
100
AcDbLine
 62
4
  6
CONTINUOUS
 10
10.1905528532
 20
8.1177017692
 11
10.2347094614
 21
8.1367178039
  0
LINE
  5
33E
100
AcDbEntity
  8
0
100
AcDbLine
 62
4
  6
CONTINUOUS
 10
9.5521448724
 20
8.694614713
 11
9.5376559845
 21
8.6956195208
  0
LINE
  5
33F
100
AcDbEntity
  8
0
100
AcDbLine
 62
4
  6
CONTINUOUS
 10
9.5449004285
 20
8.7530726686
 11
9.5159226526
 21
8.7550822842
  0
LINE
  5
340
100
AcDbEntity
  8
0
100
AcDbLine
 62
4
  6
CONTINUOUS
 10
9.5376559845
 20
8.8115306242
 11
9.5521448724
 21
8.8105258164
  0
LINE
  5
341
100
AcDbEntity
  8
0
100
AcDbLine
 62
4
  6
CONTINUOUS
 10
11.2144342497
 20
7.4224312661
 11
11.2144342497
 21
7.405872538
  0
LINE
  5
342
100
AcDbEntity
  8
0
100
AcDbLine
 62
7
  6
CONTINUOUS
 10
11.2196333455
 20
10.1252888891
 11
11.2196333455
 21
10.1870971231
  0
LINE
  5
343
100
AcDbEntity
  8
0
100
AcDbLine
 62
4
  6
CONTINUOUS
 10
11.2444470279
 20
6.7207435762
 11
11.2444470279
 21
6.730402836
  0
LINE
  5
344
100
AcDbEntity
  8
0
100
AcDbLine
 62
4
  6
CONTINUOUS
 10
11.2516914719
 20
6.662285624
 11
11.2516914719
 21
6.6719448804
  0
LINE
  5
345
100
AcDbEntity
  8
0
100
AcDbLine
 62
7
  6
CONTINUOUS
 10
11.2810527399
 20
10.1770164139
 11
11.2810527399
 21
10.5976156397
  0
LINE
  5
346
100
AcDbEntity
  8
0
100
AcDbLine
 62
7
  6
CONTINUOUS
 10
11.3229329674
 20
10.1661770272
 11
11.3229329674
 21
10.5867762529
  0
LINE
  5
347
100
AcDbEntity
  8
0
100
AcDbLine
 62
4
  6
CONTINUOUS
 10
11.3502159371
 20
8.6858290566
 11
11.3502159371
 21
8.8017401601
  0
LINE
  5
348
100
AcDbEntity
  8
0
100
AcDbLine
 62
4
  6
CONTINUOUS
 10
10.6514374877
 20
7.8804110714
 11
10.6431581133
 21
7.872705883
  0
LINE
  5
349
100
AcDbEntity
  8
0
100
AcDbLine
 62
4
  6
CONTINUOUS
 10
10.2540279799
 20
7.4973150346
 11
10.245748647
 21
7.4896098408
  0
LINE
  5
34A
100
AcDbEntity
  8
0
100
AcDbLine
 62
4
  6
CONTINUOUS
 10
11.0295284366
 20
8.0926360728
 11
11.0460871646
 21
8.1080464509
  0
LINE
  5
34B
100
AcDbEntity
  8
0
100
AcDbLine
 62
4
  6
CONTINUOUS
 10
10.6597168483
 20
7.8136019766
 11
10.6459179048
 21
7.806279576
  0
LINE
  5
34C
100
AcDbEntity
  8
0
100
AcDbLine
 62
4
  6
CONTINUOUS
 10
11.1095622889
 20
8.0318899408
 11
11.1537189006
 21
8.0509059769
  0
LINE
  5
34D
100
AcDbEntity
  8
0
100
AcDbLine
 62
4
  6
CONTINUOUS
 10
11.6960174421
 20
7.5394418416
 11
11.6960174421
 21
7.5587603542
  0
LINE
  5
34E
100
AcDbEntity
  8
0
100
AcDbLine
 62
7
  6
CONTINUOUS
 10
11.7448589463
 20
10.1369163612
 11
11.7448589463
 21
10.5575155869
  0
LINE
  5
34F
100
AcDbEntity
  8
0
100
AcDbLine
 62
4
  6
CONTINUOUS
 10
10.538286128
 20
7.5189984853
 11
10.5217274068
 21
7.5118674724
  0
LINE
  5
350
100
AcDbEntity
  8
0
100
AcDbLine
 62
7
  6
CONTINUOUS
 10
10.6687892706
 20
9.1934787239
 11
10.6823500294
 21
9.1927734679
  0
LINE
  5
351
100
AcDbEntity
  8
0
100
AcDbLine
 62
7
  6
CONTINUOUS
 10
11.8020683849
 20
10.1408838562
 11
11.8020683849
 21
10.561483082
  0
LINE
  5
352
100
AcDbEntity
  8
0
100
AcDbLine
 62
7
  6
CONTINUOUS
 10
11.881475181
 20
9.5550246546
 11
11.881475181
 21
6.1742840623
  0
LINE
  5
353
100
AcDbEntity
  8
0
100
AcDbLine
 62
4
  6
CONTINUOUS
 10
11.7467285499
 20
7.6035398223
 11
11.7539729938
 21
7.6320151943
  0
LINE
  5
354
100
AcDbEntity
  8
0
100
AcDbLine
 62
4
  6
CONTINUOUS
 10
11.0819644113
 20
7.5144117279
 11
11.0654056902
 21
7.4990013493
  0
LINE
  5
355
100
AcDbEntity
  8
0
100
AcDbLine
 62
4
  6
CONTINUOUS
 10
11.1730374261
 20
7.5080957928
 11
11.156478698
 21
7.4926854147
  0
LINE
  5
356
100
AcDbEntity
  8
0
100
AcDbLine
 62
4
  6
CONTINUOUS
 10
11.2144342497
 20
7.405872538
 11
11.1978755199
 21
7.3904621617
  0
LINE
  5
357
100
AcDbEntity
  8
0
100
AcDbLine
 62
4
  6
CONTINUOUS
 10
10.6955940619
 20
7.4666923228
 11
10.6790353408
 21
7.4595613065
  0
LINE
  5
358
100
AcDbEntity
  8
0
100
AcDbLine
 62
7
  6
CONTINUOUS
 10
12.0746333455
 20
10.1253445873
 11
12.0746333455
 21
10.1864214899
  0
LINE
  5
359
100
AcDbEntity
  8
0
100
AcDbLine
 62
7
  6
CONTINUOUS
 10
12.1109395519
 20
10.2208255661
 11
12.1109395519
 21
10.6414247919
  0
LINE
  5
35A
100
AcDbEntity
  8
0
100
AcDbLine
 62
7
  6
CONTINUOUS
 10
12.1262687631
 20
10.2356324479
 11
12.1262687631
 21
10.6562316737
  0
LINE
  5
35B
100
AcDbEntity
  8
0
100
AcDbLine
 62
4
  6
CONTINUOUS
 10
11.6960174421
 20
7.5587603542
 11
11.7032618861
 21
7.5679172135
  0
LINE
  5
35C
100
AcDbEntity
  8
0
100
AcDbLine
 62
4
  6
CONTINUOUS
 10
11.7322396619
 20
7.585226114
 11
11.7467285499
 21
7.6035398223
  0
LINE
  5
35D
100
AcDbEntity
  8
0
100
AcDbLine
 62
7
  6
CONTINUOUS
 10
9.4067730324
 20
9.7266458315
 11
11.881475181
 21
9.5550246546
  0
LINE
  5
35E
100
AcDbEntity
  8
0
100
AcDbLine
 62
4
  6
CONTINUOUS
 10
11.7539729938
 20
7.5354226104
 11
11.7467285499
 21
7.5262657511
  0
LINE
  5
35F
100
AcDbEntity
  8
0
100
AcDbLine
 62
4
  6
CONTINUOUS
 10
11.2444470279
 20
6.730402836
 11
11.2589359158
 21
6.7487165451
  0
LINE
  5
360
100
AcDbEntity
  8
0
100
AcDbLine
 62
4
  6
CONTINUOUS
 10
11.2516914719
 20
6.6719448804
 11
11.2589359158
 21
6.6811017328
  0
LINE
  5
361
100
AcDbEntity
  8
0
100
AcDbLine
 62
4
  6
CONTINUOUS
 10
11.7032618861
 20
7.5679172135
 11
11.7322396619
 21
7.585226114
  0
LINE
  5
362
100
AcDbEntity
  8
0
100
AcDbLine
 62
4
  6
CONTINUOUS
 10
11.7467285499
 20
7.5262657511
 11
11.7322396619
 21
7.5176113025
  0
LINE
  5
363
100
AcDbEntity
  8
0
100
AcDbLine
 62
4
  6
CONTINUOUS
 10
10.9114939766
 20
10.1380947933
 11
10.9057170001
 21
10.1425146622
  0
LINE
  5
364
100
AcDbEntity
  8
0
100
AcDbLine
 62
4
  6
CONTINUOUS
 10
10.9406110945
 20
10.1662197711
 11
10.934834118
 21
10.1706396401
  0
LINE
  5
365
100
AcDbEntity
  8
0
100
AcDbLine
 62
4
  6
CONTINUOUS
 10
10.9269302112
 20
10.1330050526
 11
10.9114939766
 21
10.1380947933
  0
LINE
  5
366
100
AcDbEntity
  8
0
100
AcDbLine
 62
4
  6
CONTINUOUS
 10
11.0488505299
 20
10.1707710435
 11
11.0546275038
 21
10.1663511748
  0
LINE
  5
367
100
AcDbEntity
  8
0
100
AcDbLine
 62
4
  6
CONTINUOUS
 10
11.0027276127
 20
10.2262197238
 11
10.9969506361
 21
10.2306395928
  0
LINE
  5
368
100
AcDbEntity
  8
0
100
AcDbLine
 62
4
  6
CONTINUOUS
 10
11.110967048
 20
10.2307709962
 11
11.116744022
 21
10.2263511275
  0
LINE
  5
369
100
AcDbEntity
  8
0
100
AcDbLine
 62
7
  6
CONTINUOUS
 10
11.235265691
 20
10.1718739513
 11
11.2253293502
 21
10.1811207595
  0
LINE
  5
36A
100
AcDbEntity
  8
0
100
AcDbLine
 62
7
  6
CONTINUOUS
 10
12.5932269676
 20
6.8617835357
 11
12.5932269676
 21
10.242524128
  0
LINE
  5
36B
100
AcDbEntity
  8
0
100
AcDbLine
 62
4
  6
CONTINUOUS
 10
11.2589359158
 20
6.7487165451
 11
11.2734248038
 21
6.7573709963
  0
LINE
  5
36C
100
AcDbEntity
  8
0
100
AcDbLine
 62
4
  6
CONTINUOUS
 10
11.2589359158
 20
6.6811017328
 11
11.2734248038
 21
6.6897561882
  0
LINE
  5
36D
100
AcDbEntity
  8
0
100
AcDbLine
 62
4
  6
CONTINUOUS
 10
11.0216281035
 20
10.1344761999
 11
11.0080865648
 21
10.1313960746
  0
LINE
  5
36E
100
AcDbEntity
  8
0
100
AcDbLine
 62
4
  6
CONTINUOUS
 10
11.0507452214
 20
10.1626011777
 11
11.0372036827
 21
10.1595210524
  0
LINE
  5
36F
100
AcDbEntity
  8
0
100
AcDbLine
 62
4
  6
CONTINUOUS
 10
10.9387164004
 20
10.1743896371
 11
10.9522579416
 21
10.1774697623
  0
LINE
  5
370
100
AcDbEntity
  8
0
100
AcDbLine
 62
4
  6
CONTINUOUS
 10
11.1128617396
 20
10.2226011304
 11
11.0993202009
 21
10.2195210051
  0
LINE
  5
371
100
AcDbEntity
  8
0
100
AcDbLine
 62
4
  6
CONTINUOUS
 10
11.0008329185
 20
10.2343895898
 11
11.0143744598
 21
10.237469715
  0
LINE
  5
372
100
AcDbEntity
  8
0
100
AcDbLine
 62
4
  6
CONTINUOUS
 10
11.0080865648
 20
10.1313960746
 11
10.9848857629
 21
10.1289858214
  0
LINE
  5
373
100
AcDbEntity
  8
0
100
AcDbLine
 62
4
  6
CONTINUOUS
 10
11.0372036827
 20
10.1595210524
 11
11.0256032783
 21
10.158315926
  0
LINE
  5
374
100
AcDbEntity
  8
0
100
AcDbLine
 62
4
  6
CONTINUOUS
 10
10.9522579416
 20
10.1774697623
 11
10.975458741
 21
10.1798800156
  0
LINE
  5
375
100
AcDbEntity
  8
0
100
AcDbLine
 62
4
  6
CONTINUOUS
 10
11.0993202009
 20
10.2195210051
 11
11.0877197965
 21
10.2183158787
  0
LINE
  5
376
100
AcDbEntity
  8
0
100
AcDbLine
 62
4
  6
CONTINUOUS
 10
11.0915091864
 20
10.2019761467
 11
10.9600689535
 21
10.1950146208
  0
LINE
  5
377
100
AcDbEntity
  8
0
100
AcDbLine
 62
4
  6
CONTINUOUS
 10
10.9848857629
 20
10.1289858214
 11
10.9539668458
 21
10.1291204385
  0
LINE
  5
378
100
AcDbEntity
  8
0
100
AcDbLine
 62
4
  6
CONTINUOUS
 10
10.975458741
 20
10.1798800156
 11
11.006377658
 21
10.1797453985
  0
LINE
  5
379
100
AcDbEntity
  8
0
100
AcDbLine
 62
4
  6
CONTINUOUS
 10
10.9134815648
 20
10.1500146563
 11
11.0293926683
 21
10.141976194
  0
LINE
  5
37A
100
AcDbEntity
  8
0
100
AcDbLine
 62
4
  6
CONTINUOUS
 10
10.9539668458
 20
10.1291204385
 11
10.9269302112
 21
10.1330050526
  0
LINE
  5
37B
100
AcDbEntity
  8
0
100
AcDbLine
 62
4
  6
CONTINUOUS
 10
11.006377658
 20
10.1797453985
 11
11.0334142927
 21
10.1758607844
  0
LINE
  5
37C
100
AcDbEntity
  8
0
100
AcDbLine
 62
4
  6
CONTINUOUS
 10
10.975598083
 20
10.210014609
 11
11.0759800569
 21
10.1869761585
  0
LINE
  5
37D
100
AcDbEntity
  8
0
100
AcDbLine
 62
4
  6
CONTINUOUS
 10
10.9483292122
 20
10.1636749007
 11
10.9406110945
 21
10.1662197711
  0
LINE
  5
37E
100
AcDbEntity
  8
0
100
AcDbLine
 62
4
  6
CONTINUOUS
 10
11.0334142927
 20
10.1758607844
 11
11.0488505299
 21
10.1707710435
  0
LINE
  5
37F
100
AcDbEntity
  8
0
100
AcDbLine
 62
4
  6
CONTINUOUS
 10
11.0104457304
 20
10.2236748534
 11
11.0027276127
 21
10.2262197238
  0
LINE
  5
380
100
AcDbEntity
  8
0
100
AcDbLine
 62
4
  6
CONTINUOUS
 10
11.0955308109
 20
10.2358607371
 11
11.110967048
 21
10.2307709962
  0
LINE
  5
381
100
AcDbEntity
  8
0
100
AcDbLine
 62
4
  6
CONTINUOUS
 10
11.3024025796
 20
6.6491095336
 11
11.2879136917
 21
6.640455085
  0
LINE
  5
382
100
AcDbEntity
  8
0
100
AcDbLine
 62
4
  6
CONTINUOUS
 10
11.0143744598
 20
10.237469715
 11
11.0375752592
 21
10.2398799683
  0
LINE
  5
383
100
AcDbEntity
  8
0
100
AcDbLine
 62
4
  6
CONTINUOUS
 10
11.0375752592
 20
10.2398799683
 11
11.0684941762
 21
10.2397453512
  0
LINE
  5
384
100
AcDbEntity
  8
0
100
AcDbLine
 62
7
  6
CONTINUOUS
 10
10.118524819
 20
10.4141453049
 11
11.1679979279
 21
10.3413640976
  0
LINE
  5
385
100
AcDbEntity
  8
0
100
AcDbLine
 62
7
  6
CONTINUOUS
 10
12.1262687631
 20
10.2749077895
 11
12.5932269676
 21
10.242524128
  0
LINE
  5
386
100
AcDbEntity
  8
0
100
AcDbLine
 62
4
  6
CONTINUOUS
 10
11.0684941762
 20
10.2397453512
 11
11.0955308109
 21
10.2358607371
  0
LINE
  5
387
100
AcDbEntity
  8
0
100
AcDbLine
 62
7
  6
CONTINUOUS
 10
11.881475181
 20
6.1742840623
 11
12.5932269676
 21
6.8617835357
  0
LINE
  5
388
100
AcDbEntity
  8
0
100
AcDbLine
 62
7
  6
CONTINUOUS
 10
12.0443225075
 20
10.7580253347
 11
12.0280196833
 21
10.7660786177
  0
ARC
  5
389
100
AcDbEntity
  8
0
100
AcDbCircle
 62
7
  6
CONTINUOUS
 10
11.6549356022
 20
11.8480198084
 40
1.7134646816
100
AcDbArc
 50
273.0082884861
 51
274.9259735842
  0
ARC
  5
38A
100
AcDbEntity
  8
0
100
AcDbCircle
 62
7
  6
CONTINUOUS
 10
11.6549356022
 20
12.2686190342
 40
1.7134646816
100
AcDbArc
 50
273.0082884861
 51
274.9259735842
  0
ARC
  5
38B
100
AcDbEntity
  8
0
100
AcDbCircle
 62
7
  6
CONTINUOUS
 10
10.953506535
 20
5.1294501693
 40
1.6373433099
100
AcDbArc
 50
89.6369591354
 51
93.1667633967
  0
ARC
  5
38C
100
AcDbEntity
  8
0
100
AcDbCircle
 62
7
  6
CONTINUOUS
 10
10.6293184015
 20
8.8564776757
 40
0.5136663679
100
AcDbArc
 50
134.3415416712
 51
135.2910667003
  0
ARC
  5
38D
100
AcDbEntity
  8
0
100
AcDbCircle
 62
7
  6
CONTINUOUS
 10
10.7354127005
 20
8.746640093
 40
0.5136238005
100
AcDbArc
 50
312.7229258508
 51
313.5191987501
  0
ARC
  5
38E
100
AcDbEntity
  8
0
100
AcDbCircle
 62
7
  6
CONTINUOUS
 10
10.6381455233
 20
6.7947461921
 40
0.4283722256
100
AcDbArc
 50
134.69287111
 51
135.5471486513
  0
ARC
  5
38F
100
AcDbEntity
  8
0
100
AcDbCircle
 62
7
  6
CONTINUOUS
 10
10.7266346096
 20
6.7031330373
 40
0.428257085
100
AcDbArc
 50
312.4677547841
 51
313.1121351078
  0
ARC
  5
390
100
AcDbEntity
  8
0
100
AcDbCircle
 62
7
  6
CONTINUOUS
 10
10.6857236692
 20
8.8330357564
 40
0.3596388152
100
AcDbArc
 50
90.1949595685
 51
90.5384246388
  0
ARC
  5
391
100
AcDbEntity
  8
0
100
AcDbCircle
 62
7
  6
CONTINUOUS
 10
10.6617553495
 20
6.7542946505
 40
0.293877884
100
AcDbArc
 50
85.9815011668
 51
98.6610917995
  0
ARC
  5
392
100
AcDbEntity
  8
0
100
AcDbCircle
 62
7
  6
CONTINUOUS
 10
10.9261639249
 20
8.8695308886
 40
0.1652084708
100
AcDbArc
 50
203.3429020933
 51
203.5343124278
  0
ARC
  5
393
100
AcDbEntity
  8
0
100
AcDbCircle
 62
7
  6
CONTINUOUS
 10
10.7815115125
 20
8.759901369
 40
0.1411034186
100
AcDbArc
 50
116.2883226546
 51
116.4925199312
  0
SPLINE
  5
394
100
AcDbEntity
  8
0
100
AcDbSpline
 62
7
  6
CONTINUOUS
 70
0
 71
3
 72
9
 73
5
 74
0
 42
0.0000001
 43
0.0000001
 44
0.0000000001
 40
0.0
 40
0.0
 40
0.0
 40
0.0
 40
0.4864210225
 40
1.0
 40
1.0
 40
1.0
 40
1.0
 10
12.1262687631
 20
10.2356324479
 30
0.0
 10
12.1252550561
 20
10.2343460978
 30
0.0
 10
12.1230685659
 20
10.2317813131
 30
0.0
 10
12.1207148468
 20
10.2293702489
 30
0.0
 10
12.1194711025
 20
10.2281688842
 30
0.0
  0
SPLINE
  5
395
100
AcDbEntity
  8
0
100
AcDbSpline
 62
7
  6
CONTINUOUS
 70
0
 71
3
 72
9
 73
5
 74
0
 42
0.0000001
 43
0.0000001
 44
0.0000000001
 40
0.0
 40
0.0
 40
0.0
 40
0.0
 40
0.5135789775
 40
1.0
 40
1.0
 40
1.0
 40
1.0
 10
11.1747955885
 20
10.7142815793
 30
0.0
 10
11.1735518442
 20
10.7130802146
 30
0.0
 10
11.1711981251
 20
10.7106691504
 30
0.0
 10
11.1690116349
 20
10.7081043657
 30
0.0
 10
11.1679979279
 20
10.7068180156
 30
0.0
  0
SPLINE
  5
396
100
AcDbEntity
  8
0
100
AcDbSpline
 62
7
  6
CONTINUOUS
 70
0
 71
3
 72
9
 73
5
 74
0
 42
0.0000001
 43
0.0000001
 44
0.0000000001
 40
0.0
 40
0.0
 40
0.0
 40
0.0
 40
0.5134917843
 40
1.0
 40
1.0
 40
1.0
 40
1.0
 10
11.1833271391
 20
10.7216248974
 30
0.0
 10
11.1818035058
 20
10.7204444033
 30
0.0
 10
11.1788901998
 20
10.7180746989
 30
0.0
 10
11.1761090585
 20
10.715550294
 30
0.0
 10
11.1747955885
 20
10.7142815793
 30
0.0
  0
SPLINE
  5
397
100
AcDbEntity
  8
0
100
AcDbSpline
 62
7
  6
CONTINUOUS
 70
0
 71
3
 72
21
 73
17
 74
0
 42
0.0000001
 43
0.0000001
 44
0.0000000001
 40
0.0
 40
0.0
 40
0.0
 40
0.0
 40
0.1552847778
 40
0.3037675224
 40
0.3751527953
 40
0.4444666907
 40
0.5115812513
 40
0.5763697456
 40
0.6387130726
 40
0.6985013802
 40
0.75563826
 40
0.8100514809
 40
0.8616894053
 40
0.9105385226
 40
0.9566200086
 40
1.0
 40
1.0
 40
1.0
 40
1.0
 10
11.1679979279
 20
10.2862187898
 30
0.0
 10
11.1702204189
 20
10.2803674362
 30
0.0
 10
11.1746810079
 20
10.2689634369
 30
0.0
 10
11.1805333642
 20
10.2550179122
 30
0.0
 10
11.1852905144
 20
10.2443759801
 30
0.0
 10
11.1888387939
 20
10.2367875665
 30
0.0
 10
11.1924134507
 20
10.2295065423
 30
0.0
 10
11.196013546
 20
10.2225528602
 30
0.0
 10
11.1996377154
 20
10.2159464666
 30
0.0
 10
11.2032838
 20
10.2097066814
 30
0.0
 10
11.2069502314
 20
10.2038525209
 30
0.0
 10
11.2106336934
 20
10.1984009994
 30
0.0
 10
11.2143320711
 20
10.1933682288
 30
0.0
 10
11.2180417978
 20
10.1887673396
 30
0.0
 10
11.2217595044
 20
10.1846094704
 30
0.0
 10
11.2243168628
 20
10.1820632708
 30
0.0
 10
11.2255968597
 20
10.180872023
 30
0.0
  0
SPLINE
  5
398
100
AcDbEntity
  8
0
100
AcDbSpline
 62
7
  6
CONTINUOUS
 70
0
 71
3
 72
23
 73
19
 74
0
 42
0.0000001
 43
0.0000001
 44
0.0000000001
 40
0.0
 40
0.0
 40
0.0
 40
0.0
 40
0.0809714987
 40
0.1598878899
 40
0.2366108848
 40
0.3110078346
 40
0.3829543555
 40
0.452338501
 40
0.5190632519
 40
0.5830593386
 40
0.6442825111
 40
0.7027298252
 40
0.7584316548
 40
0.8114689998
 40
0.8619596659
 40
0.910071818
 40
0.9560056935
 40
1.0
 40
1.0
 40
1.0
 40
1.0
 10
12.1262687631
 20
10.6562316737
 30
0.0
 10
12.1246206976
 20
10.6594096218
 30
0.0
 10
12.1213216291
 20
10.6656618019
 30
0.0
 10
12.1162906014
 20
10.6748340371
 30
0.0
 10
12.1112383492
 20
10.6836613525
 30
0.0
 10
12.1061658128
 20
10.69211981
 30
0.0
 10
12.1010737456
 20
10.7001854939
 30
0.0
 10
12.095964016
 20
10.7078355281
 30
0.0
 10
12.0908378517
 20
10.7150476931
 30
0.0
 10
12.0856981783
 20
10.7218024507
 30
0.0
 10
12.0805466138
 20
10.7280818868
 30
0.0
 10
12.0753869454
 20
10.7338725238
 30
0.0
 10
12.0702210547
 20
10.7391631331
 30
0.0
 10
12.0650532146
 20
10.7439483694
 30
0.0
 10
12.0598854953
 20
10.7482252357
 30
0.0
 10
12.0547221023
 20
10.7519973331
 30
0.0
 10
12.0495656301
 20
10.7552700079
 30
0.0
 10
12.0460654995
 20
10.7571643145
 30
0.0
 10
12.0443216182
 20
10.7580257741
 30
0.0
  0
SPLINE
  5
399
100
AcDbEntity
  8
0
100
AcDbSpline
 62
7
  6
CONTINUOUS
 70
0
 71
3
 72
46
 73
42
 74
0
 42
0.0000001
 43
0.0000001
 44
0.0000000001
 40
0.0
 40
0.0
 40
0.0
 40
0.0
 40
0.0099874877
 40
0.0204476974
 40
0.0313773321
 40
0.0427709641
 40
0.0546220461
 40
0.0669229866
 40
0.0928356094
 40
0.1204266613
 40
0.1495981687
 40
0.1802404541
 40
0.2122337752
 40
0.2454491038
 40
0.2797499018
 40
0.3149932014
 40
0.3510301972
 40
0.3877076002
 40
0.4248685405
 40
0.462353288
 40
0.500000408
 40
0.5376475404
 40
0.5751322603
 40
0.612293149
 40
0.6489704979
 40
0.6850073789
 40
0.7202505939
 40
0.7545513209
 40
0.7877664595
 40
0.8197596255
 40
0.8504018125
 40
0.8795730869
 40
0.9071639551
 40
0.9203360434
 40
0.9330775683
 40
0.945378314
 40
0.9572292775
 40
0.9686228886
 40
0.9795523843
 40
0.9900125565
 40
1.0
 40
1.0
 40
1.0
 40
1.0
 10
12.0280215585
 20
10.7660776376
 30
0.0
 10
12.0257045665
 20
10.7672221978
 30
0.0
 10
12.0209213594
 20
10.7694860674
 30
0.0
 10
12.0134817726
 20
10.7727396785
 30
0.0
 10
12.0056191325
 20
10.7759260252
 30
0.0
 10
11.9973426435
 20
10.7790416291
 30
0.0
 10
11.9886617195
 20
10.7820829118
 30
0.0
 10
11.9763463803
 20
10.7861037538
 30
0.0
 10
11.9600037098
 20
10.7908981158
 30
0.0
 10
11.9392767707
 20
10.7962064283
 30
0.0
 10
11.9172021241
 20
10.8011405484
 30
0.0
 10
11.8938813742
 20
10.8056773807
 30
0.0
 10
11.8694216348
 20
10.809795473
 30
0.0
 10
11.8439356137
 20
10.8134756773
 30
0.0
 10
11.8175408161
 20
10.8167007943
 30
0.0
 10
11.7903589951
 20
10.8194555777
 30
0.0
 10
11.7625156233
 20
10.8217272648
 30
0.0
 10
11.7341392787
 20
10.8235052877
 30
0.0
 10
11.7053610087
 20
10.8247811876
 30
0.0
 10
11.6763137429
 20
10.8255491052
 30
0.0
 10
11.6471316709
 20
10.8258055146
 30
0.0
 10
11.617949606
 20
10.8255490698
 30
0.0
 10
11.5889023602
 20
10.8247810483
 30
0.0
 10
11.560124127
 20
10.8235051082
 30
0.0
 10
11.5317478407
 20
10.8217270587
 30
0.0
 10
11.5039045431
 20
10.8194552683
 30
0.0
 10
11.4767227969
 20
10.8167004432
 30
0.0
 10
11.4503280925
 20
10.8134753088
 30
0.0
 10
11.424842189
 20
10.8097950067
 30
0.0
 10
11.4003825921
 20
10.8056768676
 30
0.0
 10
11.3770619062
 20
10.8011400507
 30
0.0
 10
11.3549876382
 20
10.7962057781
 30
0.0
 10
11.3374542737
 20
10.7917156184
 30
0.0
 10
11.3241376371
 20
10.7879272894
 30
0.0
 10
11.3146782596
 20
10.7850454169
 30
0.0
 10
11.3056029452
 20
10.7820821834
 30
0.0
 10
11.2969221259
 20
10.7790409177
 30
0.0
 10
11.2886456916
 20
10.7759253582
 30
0.0
 10
11.2807831519
 20
10.7727389007
 30
0.0
 10
11.2733436496
 20
10.7694852414
 30
0.0
 10
11.2685604568
 20
10.7672213914
 30
0.0
 10
11.2662434779
 20
10.7660768303
 30
0.0
  0
SPLINE
  5
39A
100
AcDbEntity
  8
0
100
AcDbSpline
 62
7
  6
CONTINUOUS
 70
0
 71
3
 72
9
 73
5
 74
0
 42
0.0000001
 43
0.0000001
 44
0.0000000001
 40
0.0
 40
0.0
 40
0.0
 40
0.0
 40
0.496008294
 40
1.0
 40
1.0
 40
1.0
 40
1.0
 10
11.2411086344
 20
10.753660739
 30
0.0
 10
11.2313125675
 20
10.7488214659
 30
0.0
 10
11.2118159031
 20
10.7385469526
 30
0.0
 10
11.1928004864
 20
10.7274137725
 30
0.0
 10
11.1833271391
 20
10.7216248974
 30
0.0
  0
SPLINE
  5
39B
100
AcDbEntity
  8
0
100
AcDbSpline
 62
7
  6
CONTINUOUS
 70
0
 71
3
 72
9
 73
5
 74
0
 42
0.0000001
 43
0.0000001
 44
0.0000000001
 40
0.0
 40
0.0
 40
0.0
 40
0.0
 40
0.4867517121
 40
1.0
 40
1.0
 40
1.0
 40
1.0
 10
11.2810527399
 20
10.1770164139
 30
0.0
 10
11.2877906399
 20
10.175047243
 30
0.0
 10
11.3017019417
 20
10.1712345826
 30
0.0
 10
11.315718186
 20
10.1678307232
 30
0.0
 10
11.3229329674
 20
10.1661770272
 30
0.0
  0
SPLINE
  5
39C
100
AcDbEntity
  8
0
100
AcDbSpline
 62
7
  6
CONTINUOUS
 70
0
 71
3
 72
9
 73
5
 74
0
 42
0.0000001
 43
0.0000001
 44
0.0000000001
 40
0.0
 40
0.0
 40
0.0
 40
0.0
 40
0.2585900006
 40
1.0
 40
1.0
 40
1.0
 40
1.0
 10
12.1109395519
 20
10.2208255661
 30
0.0
 10
12.1115923871
 20
10.2213313755
 30
0.0
 10
12.1140969158
 20
10.2233130264
 30
0.0
 10
12.1165187589
 20
10.2254002652
 30
0.0
 10
12.1182521315
 20
10.2270133498
 30
0.0
  0
SPLINE
  5
39D
100
AcDbEntity
  8
0
100
AcDbSpline
 62
7
  6
CONTINUOUS
 70
0
 71
3
 72
9
 73
5
 74
0
 42
0.0000001
 43
0.0000001
 44
0.0000000001
 40
0.0
 40
0.0
 40
0.0
 40
0.0
 40
0.5134917843
 40
1.0
 40
1.0
 40
1.0
 40
1.0
 10
12.1109395519
 20
10.6414247919
 30
0.0
 10
12.1124631852
 20
10.6426052859
 30
0.0
 10
12.1153764912
 20
10.6449749903
 30
0.0
 10
12.1181576325
 20
10.6474993952
 30
0.0
 10
12.1194711025
 20
10.6487681099
 30
0.0
  0
SPLINE
  5
39E
100
AcDbEntity
  8
0
100
AcDbSpline
 62
7
  6
CONTINUOUS
 70
0
 71
3
 72
9
 73
5
 74
0
 42
0.0000001
 43
0.0000001
 44
0.0000000001
 40
0.0
 40
0.0
 40
0.0
 40
0.0
 40
0.4867517121
 40
1.0
 40
1.0
 40
1.0
 40
1.0
 10
11.2810527399
 20
10.5976156397
 30
0.0
 10
11.2877906399
 20
10.5956464687
 30
0.0
 10
11.3017019417
 20
10.5918338083
 30
0.0
 10
11.315718186
 20
10.5884299489
 30
0.0
 10
11.3229329674
 20
10.5867762529
 30
0.0
  0
SPLINE
  5
39F
100
AcDbEntity
  8
0
100
AcDbSpline
 62
7
  6
CONTINUOUS
 70
0
 71
3
 72
9
 73
5
 74
0
 42
0.0000001
 43
0.0000001
 44
0.0000000001
 40
0.0
 40
0.0
 40
0.0
 40
0.0
 40
0.5135789775
 40
1.0
 40
1.0
 40
1.0
 40
1.0
 10
12.1194711025
 20
10.6487681099
 30
0.0
 10
12.1207148468
 20
10.6499694747
 30
0.0
 10
12.1230685659
 20
10.6523805388
 30
0.0
 10
12.1252550561
 20
10.6549453236
 30
0.0
 10
12.1262687631
 20
10.6562316737
 30
0.0
  0
SPLINE
  5
3A0
100
AcDbEntity
  8
0
100
AcDbSpline
 62
7
  6
CONTINUOUS
 70
0
 71
3
 72
23
 73
19
 74
0
 42
0.0000001
 43
0.0000001
 44
0.0000000001
 40
0.0
 40
0.0
 40
0.0
 40
0.0
 40
0.0421785856
 40
0.0850534373
 40
0.1291226147
 40
0.1749466526
 40
0.2231084649
 40
0.2741717322
 40
0.3286399951
 40
0.3869169438
 40
0.44928418
 40
0.5158962693
 40
0.5867820207
 40
0.6618606059
 40
0.7409667875
 40
0.8238724696
 40
0.910312794
 40
1.0
 40
1.0
 40
1.0
 40
1.0
 10
11.1679979279
 20
10.7068180156
 30
0.0
 10
11.1703159823
 20
10.7068097672
 30
0.0
 10
11.1749930569
 20
10.70657075
 30
0.0
 10
11.1820192176
 20
10.7054912623
 30
0.0
 10
11.1890881791
 20
10.7036272412
 30
0.0
 10
11.1961913374
 20
10.7009208798
 30
0.0
 10
11.2033199089
 20
10.6973227539
 30
0.0
 10
11.2104647748
 20
10.6927943077
 30
0.0
 10
11.2176168989
 20
10.6873089819
 30
0.0
 10
11.2247681616
 20
10.680855119
 30
0.0
 10
11.2319112167
 20
10.6734363342
 30
0.0
 10
11.2390386115
 20
10.665070815
 30
0.0
 10
11.2461437539
 20
10.6557911784
 30
0.0
 10
11.2532211181
 20
10.6456422069
 30
0.0
 10
11.2602656624
 20
10.6346773987
 30
0.0
 10
11.2672737682
 20
10.6229561473
 30
0.0
 10
11.2742430154
 20
10.6105409763
 30
0.0
 10
11.2787835441
 20
10.6019913072
 30
0.0
 10
11.2810527399
 20
10.5976156397
 30
0.0
  0
SPLINE
  5
3A1
100
AcDbEntity
  8
0
100
AcDbSpline
 62
7
  6
CONTINUOUS
 70
0
 71
3
 72
21
 73
17
 74
0
 42
0.0000001
 43
0.0000001
 44
0.0000000001
 40
0.0
 40
0.0
 40
0.0
 40
0.0
 40
0.1230814817
 40
0.1847942657
 40
0.2466337258
 40
0.3086097846
 40
0.3707312098
 40
0.4330051319
 40
0.4954352436
 40
0.5580223626
 40
0.6207641208
 40
0.6836547008
 40
0.7466862848
 40
0.8098488395
 40
0.8731308835
 40
1.0
 40
1.0
 40
1.0
 40
1.0
 10
11.3229329674
 20
10.5867762529
 30
0.0
 10
11.3401856079
 20
10.5900286364
 30
0.0
 10
11.3662167455
 20
10.5942793548
 30
0.0
 10
11.4011533357
 20
10.5984467042
 30
0.0
 10
11.4275200334
 20
10.6007687506
 30
0.0
 10
11.4540071001
 20
10.6022284507
 30
0.0
 10
11.4805911592
 20
10.6027785925
 30
0.0
 10
11.5072430235
 20
10.6023821609
 30
0.0
 10
11.5339295164
 20
10.6010171733
 30
0.0
 10
11.5606152882
 20
10.5986783498
 30
0.0
 10
11.5872649913
 20
10.5953760604
 30
0.0
 10
11.6138456555
 20
10.5911370407
 30
0.0
 10
11.6403284988
 20
10.5860023995
 30
0.0
 10
11.6666903761
 20
10.5800226517
 30
0.0
 10
11.7016810506
 20
10.570993532
 30
0.0
 10
11.7276595092
 20
10.5631435107
 30
0.0
 10
11.7448589463
 20
10.5575155869
 30
0.0
  0
SPLINE
  5
3A2
100
AcDbEntity
  8
0
100
AcDbSpline
 62
7
  6
CONTINUOUS
 70
0
 71
3
 72
28
 73
24
 74
0
 42
0.0000001
 43
0.0000001
 44
0.0000000001
 40
0.0
 40
0.0
 40
0.0
 40
0.0
 40
0.0640274484
 40
0.1279405369
 40
0.1917105404
 40
0.2553123355
 40
0.3187161223
 40
0.3818930725
 40
0.4133919091
 40
0.4448254452
 40
0.4761912782
 40
0.5074882562
 40
0.5387156619
 40
0.5698732312
 40
0.6009621492
 40
0.6319833386
 40
0.6938248821
 40
0.7554274775
 40
0.8168179251
 40
0.8780243018
 40
0.9085700262
 40
0.9390802882
 40
1.0
 40
1.0
 40
1.0
 40
1.0
 10
11.3229329674
 20
10.1661770272
 30
0.0
 10
11.331233818
 20
10.1618939035
 30
0.0
 10
11.3479648777
 20
10.1536105162
 30
0.0
 10
11.373484044
 20
10.1421485299
 30
0.0
 10
11.3994078223
 20
10.1317942674
 30
0.0
 10
11.4257209974
 20
10.1226922114
 30
0.0
 10
11.4523888271
 20
10.114988737
 30
0.0
 10
11.4748842592
 20
10.1098445051
 30
0.0
 10
11.4929883313
 20
10.1065574497
 30
0.0
 10
11.5065955867
 20
10.1045187231
 30
0.0
 10
11.5202309143
 20
10.1029120459
 30
0.0
 10
11.5338807655
 20
10.1017449689
 30
0.0
 10
11.5475306988
 20
10.1010178191
 30
0.0
 10
11.5611666062
 20
10.1007322867
 30
0.0
 10
11.5747746556
 20
10.1008827602
 30
0.0
 10
11.5928434801
 20
10.1016560358
 30
0.0
 10
11.6153029696
 20
10.1036714396
 30
0.0
 10
11.6419839263
 20
10.1076725462
 30
0.0
 10
11.668310288
 20
10.1131232604
 30
0.0
 10
11.6899387606
 20
10.1187590853
 30
0.0
 10
11.7070343555
 20
10.1238504434
 30
0.0
 10
11.7239748767
 20
10.1293006715
 30
0.0
 10
11.7365437212
 20
10.1337791461
 30
0.0
 10
11.7448589463
 20
10.1369163612
 30
0.0
  0
SPLINE
  5
3A3
100
AcDbEntity
  8
0
100
AcDbSpline
 62
7
  6
CONTINUOUS
 70
0
 71
3
 72
23
 73
19
 74
0
 42
0.0000001
 43
0.0000001
 44
0.0000000001
 40
0.0
 40
0.0
 40
0.0
 40
0.0
 40
0.0678267902
 40
0.1349724863
 40
0.2013861734
 40
0.2670282176
 40
0.331868046
 40
0.3958905056
 40
0.459098674
 40
0.5215154569
 40
0.5831842269
 40
0.6441654231
 40
0.7045325895
 40
0.7643678524
 40
0.8237547389
 40
0.882773787
 40
0.9415010872
 40
1.0
 40
1.0
 40
1.0
 40
1.0
 10
11.8020683849
 20
10.561483082
 30
0.0
 10
11.8083435016
 20
10.5653176154
 30
0.0
 10
11.8209268272
 20
10.572792546
 30
0.0
 10
11.8400067848
 20
10.5834155319
 30
0.0
 10
11.8591975166
 20
10.5933328717
 30
0.0
 10
11.8784909823
 20
10.6024811465
 30
0.0
 10
11.8978751647
 20
10.6108003926
 30
0.0
 10
11.9173333274
 20
10.6182370442
 30
0.0
 10
11.9368449681
 20
10.6247463286
 30
0.0
 10
11.9563859808
 20
10.6302970394
 30
0.0
 10
11.9759301003
 20
10.6348739706
 30
0.0
 10
11.9954509502
 20
10.6384776383
 30
0.0
 10
12.0149233853
 20
10.6411256167
 30
0.0
 10
12.034325146
 20
10.6428511818
 30
0.0
 10
12.0536381114
 20
10.6436987846
 30
0.0
 10
12.0728488804
 20
10.6437220169
 30
0.0
 10
12.0919480287
 20
10.6429802944
 30
0.0
 10
12.1046244485
 20
10.6420148231
 30
0.0
 10
12.1109395519
 20
10.6414247919
 30
0.0
  0
SPLINE
  5
3A4
100
AcDbEntity
  8
0
100
AcDbSpline
 62
7
  6
CONTINUOUS
 70
0
 71
3
 72
27
 73
23
 74
0
 42
0.0000001
 43
0.0000001
 44
0.0000000001
 40
0.0
 40
0.0
 40
0.0
 40
0.0
 40
0.0572742999
 40
0.1144994563
 40
0.1717869223
 40
0.2292938811
 40
0.2872150422
 40
0.3457779489
 40
0.3753824125
 40
0.4052383009
 40
0.4353731703
 40
0.4658134574
 40
0.496580671
 40
0.5276935314
 40
0.5591655803
 40
0.5910057323
 40
0.6557946642
 40
0.7220564543
 40
0.7897212757
 40
0.8586828413
 40
0.9288200633
 40
1.0
 40
1.0
 40
1.0
 40
1.0
 10
11.8020683849
 20
10.1408838562
 30
0.0
 10
11.808143656
 20
10.1387496306
 30
0.0
 10
11.8204013791
 20
10.1347933576
 30
0.0
 10
11.8391051606
 20
10.1299315462
 30
0.0
 10
11.8581132243
 20
10.1262840794
 30
0.0
 10
11.8774140407
 20
10.1239937989
 30
0.0
 10
11.896979888
 20
10.1232002788
 30
0.0
 10
11.913411039
 20
10.1238885575
 30
0.0
 10
11.9266098837
 20
10.1252844445
 30
0.0
 10
11.9365758937
 20
10.1267706055
 30
0.0
 10
11.9465618898
 20
10.1286964533
 30
0.0
 10
11.9565573745
 20
10.1310657333
 30
0.0
 10
11.9665523623
 20
10.1338750698
 30
0.0
 10
11.9765357334
 20
10.1371221482
 30
0.0
 10
11.9864979948
 20
10.14079779
 30
0.0
 10
11.9998153965
 20
10.1462887986
 30
0.0
 10
12.0163573096
 20
10.1541838726
 30
0.0
 10
12.0358665234
 20
10.1650978733
 30
0.0
 10
12.0551122663
 20
10.1773623564
 30
0.0
 10
12.0740714872
 20
10.1908279122
 30
0.0
 10
12.0927349204
 20
10.205349693
 30
0.0
 10
12.1048988412
 20
10.2155765807
 30
0.0
 10
12.1109395519
 20
10.2208255661
 30
0.0
  0
SPLINE
  5
3A5
100
AcDbEntity
  8
0
100
AcDbSpline
 62
7
  6
CONTINUOUS
 70
0
 71
3
 72
11
 73
7
 74
0
 42
0.0000001
 43
0.0000001
 44
0.0000000001
 40
0.0
 40
0.0
 40
0.0
 40
0.0
 40
0.2706149479
 40
0.5274053283
 40
0.7704747911
 40
1.0
 40
1.0
 40
1.0
 40
1.0
 10
11.2662434779
 20
10.7660768303
 30
0.0
 10
11.2639849288
 20
10.7649611329
 30
0.0
 10
11.2596182977
 20
10.7627145239
 30
0.0
 10
11.2533654146
 20
10.7591977894
 30
0.0
 10
11.2475883139
 20
10.7556267726
 30
0.0
 10
11.2439555075
 20
10.7531418086
 30
0.0
 10
11.2422249519
 20
10.7518887226
 30
0.0
  0
SPLINE
  5
3A6
100
AcDbEntity
  8
0
100
AcDbSpline
 62
7
  6
CONTINUOUS
 70
0
 71
3
 72
9
 73
5
 74
0
 42
0.0000001
 43
0.0000001
 44
0.0000000001
 40
0.0
 40
0.0
 40
0.0
 40
0.0
 40
0.5180906156
 40
1.0
 40
1.0
 40
1.0
 40
1.0
 10
11.2422249519
 20
10.7518887226
 30
0.0
 10
11.2403267921
 20
10.7505142754
 30
0.0
 10
11.2367396106
 20
10.7477531246
 30
0.0
 10
11.2333530931
 20
10.7447467653
 30
0.0
 10
11.2317852156
 20
10.7432323118
 30
0.0
  0
SPLINE
  5
3A7
100
AcDbEntity
  8
0
100
AcDbSpline
 62
7
  6
CONTINUOUS
 70
0
 71
3
 72
21
 73
17
 74
0
 42
0.0000001
 43
0.0000001
 44
0.0000000001
 40
0.0
 40
0.0
 40
0.0
 40
0.0
 40
0.0777184714
 40
0.1509844854
 40
0.2201919876
 40
0.2858049512
 40
0.3483762676
 40
0.408511364
 40
0.4668501382
 40
0.524040419
 40
0.5806986783
 40
0.6373921441
 40
0.6946119011
 40
0.7527677984
 40
0.8730351627
 40
1.0
 40
1.0
 40
1.0
 40
1.0
 10
11.2255968597
 20
10.180872023
 30
0.0
 10
11.2267586246
 20
10.1797908096
 30
0.0
 10
11.2290808986
 20
10.1777586471
 30
0.0
 10
11.2326697235
 20
10.1750430419
 30
0.0
 10
11.2362534246
 20
10.1727507541
 30
0.0
 10
11.2398297707
 20
10.1708794408
 30
0.0
 10
11.2433950537
 20
10.1694221291
 30
0.0
 10
11.2469460697
 20
10.168370367
 30
0.0
 10
11.2504793478
 20
10.1677138281
 30
0.0
 10
11.253991216
 20
10.1674384777
 30
0.0
 10
11.2574787121
 20
10.1675301543
 30
0.0
 10
11.2609393435
 20
10.16797181
 30
0.0
 10
11.2643717832
 20
10.168746217
 30
0.0
 10
11.2689595676
 20
10.1702152356
 30
0.0
 10
11.2746459626
 20
10.1728338242
 30
0.0
 10
11.2789296728
 20
10.1755282663
 30
0.0
 10
11.2810527399
 20
10.1770164139
 30
0.0
  0
SPLINE
  5
3A8
100
AcDbEntity
  8
0
100
AcDbSpline
 62
7
  6
CONTINUOUS
 70
0
 71
3
 72
55
 73
51
 74
0
 42
0.0000001
 43
0.0000001
 44
0.0000000001
 40
0.0
 40
0.0
 40
0.0
 40
0.0
 40
0.0077403341
 40
0.0160536402
 40
0.0249598623
 40
0.0344711287
 40
0.0445943245
 40
0.0553311103
 40
0.0666791717
 40
0.0786331753
 40
0.0911842811
 40
0.1043217537
 40
0.1180322524
 40
0.1323005199
 40
0.147109859
 40
0.1624414338
 40
0.1782755067
 40
0.1945906822
 40
0.2285722865
 40
0.2641945926
 40
0.3012498561
 40
0.3395178674
 40
0.37876815
 40
0.4187620874
 40
0.4592551245
 40
0.4999987486
 40
0.5407423938
 40
0.5812354618
 40
0.6212294331
 40
0.6604797572
 40
0.6987478627
 40
0.7358032525
 40
0.7714256644
 40
0.8054073565
 40
0.8217226506
 40
0.8375567141
 40
0.8528884296
 40
0.8676978103
 40
0.8819661512
 40
0.8956767913
 40
0.9088142361
 40
0.9213654962
 40
0.9333195839
 40
0.9446677912
 40
0.955404691
 40
0.9655276214
 40
0.9750389343
 40
0.9839457869
 40
0.992260156
 40
1.0
 40
1.0
 40
1.0
 40
1.0
 10
11.2352656716
 20
10.1718740352
 30
0.0
 10
11.2368736295
 20
10.1703777035
 30
0.0
 10
11.2403350149
 20
10.1674085054
 30
0.0
 10
11.2460133318
 20
10.1631676788
 30
0.0
 10
11.2523499825
 20
10.1589910017
 30
0.0
 10
11.2593343507
 20
10.1548846023
 30
0.0
 10
11.2669558006
 20
10.150855158
 30
0.0
 10
11.2752020515
 20
10.1469088772
 30
0.0
 10
11.2840598889
 20
10.1430520454
 30
0.0
 10
11.2935150864
 20
10.1392912773
 30
0.0
 10
11.3035521907
 20
10.1356323132
 30
0.0
 10
11.3141549353
 20
10.1320815566
 30
0.0
 10
11.3253059497
 20
10.1286446857
 30
0.0
 10
11.3369869816
 20
10.1253273344
 30
0.0
 10
11.3491789058
 20
10.1221352568
 30
0.0
 10
11.3618616576
 20
10.1190733975
 30
0.0
 10
11.3750144443
 20
10.1161471032
 30
0.0
 10
11.3933995037
 20
10.1123813348
 30
0.0
 10
11.4174002846
 20
10.1080668687
 30
0.0
 10
11.4473343517
 20
10.1035669296
 30
0.0
 10
11.4785834376
 20
10.0997071089
 30
0.0
 10
11.5109419082
 20
10.0965132274
 30
0.0
 10
11.5441969968
 20
10.0940066873
 30
0.0
 10
11.5781298152
 20
10.0922042166
 30
0.0
 10
11.6125169885
 20
10.0911178676
 30
0.0
 10
11.6471321127
 20
10.0907549055
 30
0.0
 10
11.6817472467
 20
10.0911177958
 30
0.0
 10
11.7161344458
 20
10.0922041049
 30
0.0
 10
11.7500672962
 20
10.0940065416
 30
0.0
 10
11.7833224356
 20
10.0965130449
 30
0.0
 10
11.8156809875
 20
10.0997068587
 30
0.0
 10
11.8469301744
 20
10.1035666149
 30
0.0
 10
11.8768643422
 20
10.1080665032
 30
0.0
 10
11.9008652058
 20
10.1123810012
 30
0.0
 10
11.919250347
 20
10.1161466515
 30
0.0
 10
11.9324031899
 20
10.1190730192
 30
0.0
 10
11.9450860155
 20
10.12213478
 30
0.0
 10
11.9572780111
 20
10.1253268749
 30
0.0
 10
11.9689591143
 20
10.128644237
 30
0.0
 10
11.9801102164
 20
10.1320810067
 30
0.0
 10
11.990713012
 20
10.1356318494
 30
0.0
 10
12.0007502212
 20
10.1392906983
 30
0.0
 10
12.0102055172
 20
10.1430515188
 30
0.0
 10
12.0190634365
 20
10.1469084012
 30
0.0
 10
12.0273097566
 20
10.1508545368
 30
0.0
 10
12.0349311707
 20
10.1548839814
 30
0.0
 10
12.0419157556
 20
10.1589902434
 30
0.0
 10
12.0482527614
 20
10.1631672913
 30
0.0
 10
12.0539312719
 20
10.1674084169
 30
0.0
 10
12.0573929131
 20
10.1703775644
 30
0.0
 10
12.0590007883
 20
10.1718737808
 30
0.0
  0
SPLINE
  5
3A9
100
AcDbEntity
  8
0
100
AcDbSpline
 62
7
  6
CONTINUOUS
 70
0
 71
3
 72
69
 73
65
 74
0
 42
0.0000001
 43
0.0000001
 44
0.0000000001
 40
0.0
 40
0.0
 40
0.0
 40
0.0
 40
0.0078486444
 40
0.011525491
 40
0.0150505467
 40
0.0216952296
 40
0.024852921
 40
0.0279250607
 40
0.0309333397
 40
0.0339009863
 40
0.0368522248
 40
0.0398117036
 40
0.0428038878
 40
0.0458523906
 40
0.0489793775
 40
0.052205239
 40
0.0590208104
 40
0.0626451385
 40
0.0664292117
 40
0.0745139269
 40
0.08334171
 40
0.0929552291
 40
0.1033806187
 40
0.114631552
 40
0.126711678
 40
0.1396167584
 40
0.1533361209
 40
0.1678536007
 40
0.1831486278
 40
0.1991964446
 40
0.2159691279
 40
0.2334353586
 40
0.2515614594
 40
0.2703108941
 40
0.2896453365
 40
0.3095240288
 40
0.3299048522
 40
0.3719941041
 40
0.4155466199
 40
0.4601767864
 40
0.5054862054
 40
0.5510685731
 40
0.5965143891
 40
0.6414157219
 40
0.6853710257
 40
0.7279898963
 40
0.7486810452
 40
0.7688992635
 40
0.7886011676
 40
0.807744993
 40
0.8262908348
 40
0.8442008993
 40
0.8614395705
 40
0.8779739633
 40
0.8937737718
 40
0.9088121872
 40
0.9230656404
 40
0.9365152112
 40
0.9491461963
 40
0.9609499952
 40
0.9719245224
 40
0.9820776763
 40
0.9914266394
 40
1.0
 40
1.0
 40
1.0
 40
1.0
 10
11.2317852156
 20
10.7432323118
 30
0.0
 10
11.2300434138
 20
10.7415498604
 30
0.0
 10
11.2275972281
 20
10.738956195
 30
0.0
 10
11.2247232439
 20
10.7353051353
 30
0.0
 10
11.2222984367
 20
10.7317853008
 30
0.0
 10
11.2203135441
 20
10.7281629076
 30
0.0
 10
11.2188433631
 20
10.7244683322
 30
0.0
 10
11.2180179737
 20
10.72173613
 30
0.0
 10
11.2174527405
 20
10.7189982428
 30
0.0
 10
11.2171481756
 20
10.7162565912
 30
0.0
 10
11.2171045971
 20
10.7135134185
 30
0.0
 10
11.2173221021
 20
10.7107709687
 30
0.0
 10
11.217800663
 20
10.7080315076
 30
0.0
 10
11.2185395293
 20
10.7052972059
 30
0.0
 10
11.2195376718
 20
10.7025698
 30
0.0
 10
11.2212435474
 20
10.6988780647
 30
0.0
 10
11.2234564175
 20
10.6952687956
 30
0.0
 10
11.2261001774
 20
10.6917636469
 30
0.0
 10
11.2292047294
 20
10.6881249411
 30
0.0
 10
11.2337524304
 20
10.6836247239
 30
0.0
 10
11.240080232
 20
10.6784195491
 30
0.0
 10
11.247380823
 20
10.6733042494
 30
0.0
 10
11.2556372319
 20
10.6682892277
 30
0.0
 10
11.2648312741
 20
10.6633853258
 30
0.0
 10
11.274941858
 20
10.6586036144
 30
0.0
 10
11.2859456113
 20
10.6539552966
 30
0.0
 10
11.2978167477
 20
10.6494514501
 30
0.0
 10
11.3105272337
 20
10.645102809
 30
0.0
 10
11.3240468954
 20
10.6409200014
 30
0.0
 10
11.3383434897
 20
10.6369129805
 30
0.0
 10
11.3533828496
 20
10.6330916784
 30
0.0
 10
11.3691289469
 20
10.6294651185
 30
0.0
 10
11.3855440187
 20
10.6260423817
 30
0.0
 10
11.4025886568
 20
10.6228314679
 30
0.0
 10
11.4202218921
 20
10.6198405061
 30
0.0
 10
11.438401374
 20
10.6170763627
 30
0.0
 10
11.4635809103
 20
10.6136662925
 30
0.0
 10
11.4960973412
 20
10.6100372191
 30
0.0
 10
11.5361603674
 20
10.6067218159
 30
0.0
 10
11.5772901951
 20
10.6044334193
 30
0.0
 10
11.6190913035
 20
10.6031944331
 30
0.0
 10
11.6611620058
 20
10.6030170495
 30
0.0
 10
11.7030978274
 20
10.6039030106
 30
0.0
 10
11.7444957524
 20
10.6058435902
 30
0.0
 10
11.784957647
 20
10.6088198213
 30
0.0
 10
11.8178891765
 20
10.6121705322
 30
0.0
 10
11.8434639414
 20
10.6153632055
 30
0.0
 10
11.8619833431
 20
10.6179721539
 30
0.0
 10
11.879985506
 20
10.6208126266
 30
0.0
 10
11.8974271845
 20
10.623877761
 30
0.0
 10
11.9142664359
 20
10.627160173
 30
0.0
 10
11.930462818
 20
10.6306517891
 30
0.0
 10
11.9459774416
 20
10.6343442922
 30
0.0
 10
11.960773127
 20
10.6382285155
 30
0.0
 10
11.9748144272
 20
10.6422952938
 30
0.0
 10
11.9880678438
 20
10.6465344429
 30
0.0
 10
12.0005017777
 20
10.6509360858
 30
0.0
 10
12.0120868355
 20
10.6554892167
 30
0.0
 10
12.0227955492
 20
10.6601834026
 30
0.0
 10
12.0326030811
 20
10.6650068754
 30
0.0
 10
12.0414867156
 20
10.6699490741
 30
0.0
 10
12.0494269526
 20
10.6749989189
 30
0.0
 10
12.0564042979
 20
10.6801452196
 30
0.0
 10
12.0605788418
 20
10.6837855275
 30
0.0
 10
12.0624814754
 20
10.6856233306
 30
0.0
  0
SPLINE
  5
3AA
100
AcDbEntity
  8
0
100
AcDbSpline
 62
7
  6
CONTINUOUS
 70
0
 71
3
 72
28
 73
24
 74
0
 42
0.0000001
 43
0.0000001
 44
0.0000000001
 40
0.0
 40
0.0
 40
0.0
 40
0.0
 40
0.0683417894
 40
0.1318944582
 40
0.1911916903
 40
0.2469424229
 40
0.2737771035
 40
0.300072871
 40
0.3259647135
 40
0.3515944959
 40
0.3771085711
 40
0.4026553861
 40
0.4283829391
 40
0.454436097
 40
0.5080318425
 40
0.5644895246
 40
0.594076777
 40
0.6246829784
 40
0.6892404913
 40
0.7587126008
 40
0.8334899805
 40
0.91385377
 40
1.0
 40
1.0
 40
1.0
 40
1.0
 10
12.0624814754
 20
10.6856233306
 30
0.0
 10
12.0639458406
 20
10.6870377988
 30
0.0
 10
12.0666665808
 20
10.6898807251
 30
0.0
 10
12.0702049146
 20
10.6943563018
 30
0.0
 10
12.073036266
 20
10.698874873
 30
0.0
 10
12.0748213955
 20
10.7027214293
 30
0.0
 10
12.0758677788
 20
10.70579426
 30
0.0
 10
12.0764623236
 20
10.7080743913
 30
0.0
 10
12.0768757957
 20
10.7103577664
 30
0.0
 10
12.0771080735
 20
10.7126433012
 30
0.0
 10
12.077158998
 20
10.7149297967
 30
0.0
 10
12.0770285305
 20
10.7172160246
 30
0.0
 10
12.0767165925
 20
10.7195008728
 30
0.0
 10
12.0760530879
 20
10.7225719234
 30
0.0
 10
12.0747488302
 20
10.7264272823
 30
0.0
 10
12.0728838901
 20
10.7301591241
 30
0.0
 10
12.0710572467
 20
10.7331172468
 30
0.0
 10
12.0689270043
 20
10.7361647671
 30
0.0
 10
12.0657960198
 20
10.7399515112
 30
0.0
 10
12.0614054407
 20
10.7443680459
 30
0.0
 10
12.0563240156
 20
10.7487309931
 30
0.0
 10
12.0505605311
 20
10.7530341976
 30
0.0
 10
12.0464146993
 20
10.7557631782
 30
0.0
 10
12.0442365545
 20
10.7571203303
 30
0.0
  0
SPLINE
  5
3AB
100
AcDbEntity
  8
0
100
AcDbSpline
 62
7
  6
CONTINUOUS
 70
0
 71
3
 72
9
 73
5
 74
0
 42
0.0000001
 43
0.0000001
 44
0.0000000001
 40
0.0
 40
0.0
 40
0.0
 40
0.0
 40
0.4830467495
 40
1.0
 40
1.0
 40
1.0
 40
1.0
 10
12.0442365545
 20
10.7571203303
 30
0.0
 10
12.0417042474
 20
10.7586981528
 30
0.0
 10
12.0363665673
 20
10.7618129049
 30
0.0
 10
12.0308843813
 20
10.764663445
 30
0.0
 10
12.0280215585
 20
10.7660776376
 30
0.0
  0
SPLINE
  5
3AC
100
AcDbEntity
  8
0
100
AcDbSpline
 62
7
  6
CONTINUOUS
 70
0
 71
3
 72
20
 73
16
 74
0
 42
0.0000001
 43
0.0000001
 44
0.0000000001
 40
0.0
 40
0.0
 40
0.0
 40
0.0
 40
0.1504572429
 40
0.2222009552
 40
0.2917179917
 40
0.4244350495
 40
0.4878976342
 40
0.5495926289
 40
0.6682362658
 40
0.7255681682
 40
0.781805938
 40
0.8371511931
 40
0.8918166409
 40
0.9460237365
 40
1.0
 40
1.0
 40
1.0
 40
1.0
 10
12.3344081361
 20
8.5706813839
 30
0.0
 10
12.3360761161
 20
8.5722925289
 30
0.0
 10
12.3386158748
 20
8.5745956394
 30
0.0
 10
12.3421121578
 20
8.5774243773
 30
0.0
 10
12.3454980015
 20
8.5799493345
 30
0.0
 10
12.3489316258
 20
8.5821930869
 30
0.0
 10
12.3524083856
 20
8.5841224156
 30
0.0
 10
12.3557826323
 20
8.5857788376
 30
0.0
 10
12.3591963778
 20
8.5871327868
 30
0.0
 10
12.3626293258
 20
8.5881516657
 30
0.0
 10
12.3651675541
 20
8.5887389632
 30
0.0
 10
12.3676973379
 20
8.5891575459
 30
0.0
 10
12.3702179999
 20
8.5894072563
 30
0.0
 10
12.372728527
 20
8.5894879783
 30
0.0
 10
12.37439645
 20
8.5894289939
 30
0.0
 10
12.3752264082
 20
8.5893714399
 30
0.0
  0
SPLINE
  5
3AD
100
AcDbEntity
  8
0
100
AcDbSpline
 62
7
  6
CONTINUOUS
 70
0
 71
3
 72
36
 73
32
 74
0
 42
0.0000001
 43
0.0000001
 44
0.0000000001
 40
0.0
 40
0.0
 40
0.0
 40
0.0
 40
0.0916962898
 40
0.1811618425
 40
0.2679298174
 40
0.3101617831
 40
0.3515528884
 40
0.3920508491
 40
0.4316051136
 40
0.4701670897
 40
0.5076902599
 40
0.5441302807
 40
0.5794453006
 40
0.6135961286
 40
0.6465463769
 40
0.6782628744
 40
0.7087159643
 40
0.7378797695
 40
0.7657327896
 40
0.7922584677
 40
0.8174457516
 40
0.8412900974
 40
0.8637946067
 40
0.8849712835
 40
0.9048429411
 40
0.9234455356
 40
0.9408308663
 40
0.9570701431
 40
0.97225807
 40
0.9865168954
 40
1.0
 40
1.0
 40
1.0
 40
1.0
 10
11.5354049277
 20
10.0327464757
 30
0.0
 10
11.5249829624
 20
10.0334692415
 30
0.0
 10
11.5044065685
 20
10.0351099732
 30
0.0
 10
11.4740355345
 20
10.0381987599
 30
0.0
 10
11.4493352571
 20
10.0412862695
 30
0.0
 10
11.4301202337
 20
10.0440528067
 30
0.0
 10
11.4161499829
 20
10.0462474288
 30
0.0
 10
11.4025110187
 20
10.0485772052
 30
0.0
 10
11.3892228713
 20
10.0510388176
 30
0.0
 10
11.3763045816
 20
10.0536287044
 30
0.0
 10
11.363774649
 20
10.0563431263
 30
0.0
 10
11.3516510174
 20
10.0591781868
 30
0.0
 10
11.3399510338
 20
10.0621297939
 30
0.0
 10
11.3286914268
 20
10.0651936823
 30
0.0
 10
11.3178882897
 20
10.0683654541
 30
0.0
 10
11.3075570413
 20
10.0716405385
 30
0.0
 10
11.2977124011
 20
10.0750142088
 30
0.0
 10
11.2883683805
 20
10.0784816344
 30
0.0
 10
11.2795382404
 20
10.0820378456
 30
0.0
 10
11.2712344632
 20
10.0856777456
 30
0.0
 10
11.2634687521
 20
10.0893961808
 30
0.0
 10
11.2562519895
 20
10.0931879205
 30
0.0
 10
11.2495942036
 20
10.0970476737
 30
0.0
 10
11.2435045912
 20
10.1009701944
 30
0.0
 10
11.2379914976
 20
10.1049503043
 30
0.0
 10
11.233062419
 20
10.1089829231
 30
0.0
 10
11.2287241179
 20
10.1130632754
 30
0.0
 10
11.2249828131
 20
10.1171867709
 30
0.0
 10
11.2218442161
 20
10.1213495006
 30
0.0
 10
11.2193145557
 20
10.1255463213
 30
0.0
 10
11.2180067438
 20
10.1284342775
 30
0.0
 10
11.2174672801
 20
10.1298725724
 30
0.0
  0
SPLINE
  5
3AE
100
AcDbEntity
  8
0
100
AcDbSpline
 62
7
  6
CONTINUOUS
 70
0
 71
3
 72
46
 73
42
 74
0
 42
0.0000001
 43
0.0000001
 44
0.0000000001
 40
0.0
 40
0.0
 40
0.0
 40
0.0
 40
0.031143804
 40
0.0624406641
 40
0.0938846266
 40
0.1254660369
 40
0.1571726773
 40
0.188989797
 40
0.2209004514
 40
0.2528858567
 40
0.2849257707
 40
0.3169988946
 40
0.3490832879
 40
0.3811567922
 40
0.4131974593
 40
0.4451839758
 40
0.4770960786
 40
0.5089149549
 40
0.5406236259
 40
0.5722072995
 40
0.6036536882
 40
0.6349532936
 40
0.6660996371
 40
0.6970894354
 40
0.727922722
 40
0.7586028953
 40
0.7891366922
 40
0.8043544294
 40
0.8195395762
 40
0.8346938584
 40
0.8498191748
 40
0.8649175902
 40
0.8799913269
 40
0.8950427481
 40
0.9100743467
 40
0.9250887336
 40
0.940088619
 40
0.9550767983
 40
0.9700561375
 40
0.9850295542
 40
1.0
 40
1.0
 40
1.0
 40
1.0
 10
10.6740678266
 20
7.2162165232
 30
0.0
 10
10.6856726339
 20
7.2154117271
 30
0.0
 10
10.7088890073
 20
7.2129487501
 30
0.0
 10
10.7434320905
 20
7.2067444564
 30
0.0
 10
10.7776051892
 20
7.1980541146
 30
0.0
 10
10.8112237323
 20
7.1869244161
 30
0.0
 10
10.8441091293
 20
7.1734150407
 30
0.0
 10
10.8760859612
 20
7.1575982723
 30
0.0
 10
10.9069838602
 20
7.1395585829
 30
0.0
 10
10.9366382014
 20
7.11939233
 30
0.0
 10
10.9648909987
 20
7.0972071298
 30
0.0
 10
10.9915916758
 20
7.0731212636
 30
0.0
 10
11.0165979649
 20
7.0472631724
 30
0.0
 10
11.0397765988
 20
7.0197706938
 30
0.0
 10
11.0610039589
 20
6.9907903044
 30
0.0
 10
11.0801668469
 20
6.9604764459
 30
0.0
 10
11.0971630279
 20
6.9289906508
 30
0.0
 10
11.1119016978
 20
6.8965006632
 30
0.0
 10
11.124304097
 20
6.8631796281
 30
0.0
 10
11.1343038842
 20
6.829205142
 30
0.0
 10
11.1418473986
 20
6.7947582963
 30
0.0
 10
11.1468940912
 20
6.7600227799
 30
0.0
 10
11.1494167066
 20
6.7251838483
 30
0.0
 10
11.1494013758
 20
6.6904274907
 30
0.0
 10
11.1468476653
 20
6.6559389194
 30
0.0
 10
11.1417692374
 20
6.6219035918
 30
0.0
 10
11.1354469059
 20
6.5940338085
 30
0.0
 10
11.1291583722
 20
6.5721543332
 30
0.0
 10
11.1238389226
 20
6.5559863423
 30
0.0
 10
11.1179188321
 20
6.5400655472
 30
0.0
 10
11.1114058931
 20
6.5244129329
 30
0.0
 10
11.1043088216
 20
6.509049494
 30
0.0
 10
11.0966371248
 20
6.4939957185
 30
0.0
 10
11.0884009939
 20
6.4792717543
 30
0.0
 10
11.0796114398
 20
6.4648972708
 30
0.0
 10
11.0702802352
 20
6.4508914568
 30
0.0
 10
11.060419789
 20
6.4372730578
 30
0.0
 10
11.0500433072
 20
6.4240602813
 30
0.0
 10
11.0391646162
 20
6.4112706965
 30
0.0
 10
11.0277984445
 20
6.3989216722
 30
0.0
 10
11.0199052884
 20
6.3909928349
 30
0.0
 10
11.0158834437
 20
6.3871080273
 30
0.0
  0
SPLINE
  5
3AF
100
AcDbEntity
  8
0
100
AcDbSpline
 62
7
  6
CONTINUOUS
 70
0
 71
3
 72
50
 73
46
 74
0
 42
0.0000001
 43
0.0000001
 44
0.0000000001
 40
0.0
 40
0.0
 40
0.0
 40
0.0
 40
0.0311431289
 40
0.0624393576
 40
0.0938826422
 40
0.1254633877
 40
0.1571693586
 40
0.1889858073
 40
0.2208957881
 40
0.2528805179
 40
0.2849197558
 40
0.3169922025
 40
0.3490759178
 40
0.3811487443
 40
0.413188734
 40
0.4451745738
 40
0.4770860011
 40
0.5089042032
 40
0.5406122026
 40
0.5721952059
 40
0.6036409272
 40
0.6349398689
 40
0.6660855498
 40
0.6816023422
 40
0.6970798651
 40
0.7125182278
 40
0.7279177509
 40
0.7432789634
 40
0.7586026044
 40
0.7738896213
 40
0.7891411632
 40
0.8043585763
 40
0.8195434009
 40
0.8346973614
 40
0.8498223561
 40
0.8649204511
 40
0.879993868
 40
0.8950449698
 40
0.9100762497
 40
0.9250903183
 40
0.940089886
 40
0.9550777481
 40
0.9700567702
 40
0.9850298702
 40
1.0
 40
1.0
 40
1.0
 40
1.0
 10
10.6740678266
 20
9.3634697622
 30
0.0
 10
10.6879841688
 20
9.3625046606
 30
0.0
 10
10.7158249781
 20
9.359551079
 30
0.0
 10
10.7572486449
 20
9.3521109817
 30
0.0
 10
10.7982286269
 20
9.3416895871
 30
0.0
 10
10.8385435848
 20
9.3283429781
 30
0.0
 10
10.877979378
 20
9.3121427032
 30
0.0
 10
10.9163255955
 20
9.293175361
 30
0.0
 10
10.9533779987
 20
9.2715423802
 30
0.0
 10
10.9889391337
 20
9.2473592313
 30
0.0
 10
11.022819517
 20
9.2207549434
 30
0.0
 10
11.0548386629
 20
9.1918714582
 30
0.0
 10
11.0848258804
 20
9.1608627018
 30
0.0
 10
11.1126213875
 20
9.1278940084
 30
0.0
 10
11.138076972
 20
9.0931410496
 30
0.0
 10
11.1610568376
 20
9.0567889953
 30
0.0
 10
11.1814384196
 20
9.019031575
 30
0.0
 10
11.1991128019
 20
8.9800699405
 30
0.0
 10
11.213985578
 20
8.9401117146
 30
0.0
 10
11.2259771404
 20
8.8993699562
 30
0.0
 10
11.2350231532
 20
8.8580614385
 30
0.0
 10
11.2410750684
 20
8.8164079335
 30
0.0
 10
11.243599102
 20
8.781545022
 30
0.0
 10
11.2440908513
 20
8.7537102614
 30
0.0
 10
11.2436981303
 20
8.7329107696
 30
0.0
 10
11.2425447078
 20
8.7121924175
 30
0.0
 10
11.2406321594
 20
8.6915825235
 30
0.0
 10
11.2379629711
 20
8.6711087089
 30
0.0
 10
11.2345407093
 20
8.6507982937
 30
0.0
 10
11.2303699574
 20
8.6306784065
 30
0.0
 10
11.225456242
 20
8.6107759262
 30
0.0
 10
11.2198060959
 20
8.5911174462
 30
0.0
 10
11.2134270925
 20
8.5717292175
 30
0.0
 10
11.2063277284
 20
8.5526371449
 30
0.0
 10
11.1985174373
 20
8.5338667531
 30
0.0
 10
11.1900066803
 20
8.5154431082
 30
0.0
 10
11.1808068223
 20
8.4973908237
 30
0.0
 10
11.1709301053
 20
8.4797340439
 30
0.0
 10
11.1603897357
 20
8.462496356
 30
0.0
 10
11.1491998124
 20
8.4457007828
 30
0.0
 10
11.1373752466
 20
8.429369783
 30
0.0
 10
11.1249318477
 20
8.4135252093
 30
0.0
 10
11.1118861915
 20
8.3981881376
 30
0.0
 10
11.0982559924
 20
8.3833793483
 30
0.0
 10
11.0887905683
 20
8.3738712219
 30
0.0
 10
11.0839676121
 20
8.3692126126
 30
0.0
  0
SPLINE
  5
3B0
100
AcDbEntity
  8
0
100
AcDbSpline
 62
7
  6
CONTINUOUS
 70
0
 71
3
 72
30
 73
26
 74
0
 42
0.0000001
 43
0.0000001
 44
0.0000000001
 40
0.0
 40
0.0
 40
0.0
 40
0.0
 40
0.0922473273
 40
0.1813057664
 40
0.266842096
 40
0.3485695625
 40
0.4262552394
 40
0.4997218785
 40
0.5688447105
 40
0.6335460808
 40
0.6642339787
 40
0.6938064944
 40
0.7222650486
 40
0.7496143814
 40
0.7758617197
 40
0.8010184214
 40
0.8250998423
 40
0.8481270976
 40
0.8701278748
 40
0.8911383855
 40
0.9303543311
 40
0.9487268603
 40
0.9663810236
 40
0.9834283435
 40
1.0
 40
1.0
 40
1.0
 40
1.0
 10
10.6314364295
 20
9.1642200703
 30
0.0
 10
10.6303368388
 20
9.1599341935
 30
0.0
 10
10.6284370993
 20
9.1514405178
 30
0.0
 10
10.6264715308
 20
9.1387837438
 30
0.0
 10
10.6254237454
 20
9.1265235977
 30
0.0
 10
10.6252642278
 20
9.1147650916
 30
0.0
 10
10.6259467728
 20
9.1036049683
 30
0.0
 10
10.6274110265
 20
9.0931299635
 30
0.0
 10
10.6295850477
 20
9.0834163913
 30
0.0
 10
10.6319623151
 20
9.0758802708
 30
0.0
 10
10.6341565009
 20
9.0703004937
 30
0.0
 10
10.6358982933
 20
9.0664160187
 30
0.0
 10
10.6377541765
 20
9.0627635019
 30
0.0
 10
10.6397130144
 20
9.059347742
 30
0.0
 10
10.6417637705
 20
9.0561732469
 30
0.0
 10
10.6438953673
 20
9.0532441061
 30
0.0
 10
10.6460969758
 20
9.0505640842
 30
0.0
 10
10.6483576901
 20
9.0481367575
 30
0.0
 10
10.6506674526
 20
9.0459650206
 30
0.0
 10
10.6537267679
 20
9.0434727065
 30
0.0
 10
10.6569142745
 20
9.0414211133
 30
0.0
 10
10.6601899543
 20
9.0398955401
 30
0.0
 10
10.6625941734
 20
9.0390453877
 30
0.0
 10
10.6649890304
 20
9.0384671079
 30
0.0
 10
10.6665925573
 20
9.038261955
 30
0.0
 10
10.6673855267
 20
9.0382070619
 30
0.0
  0
SPLINE
  5
3B1
100
AcDbEntity
  8
0
100
AcDbSpline
 62
7
  6
CONTINUOUS
 70
0
 71
3
 72
34
 73
30
 74
0
 42
0.0000001
 43
0.0000001
 44
0.0000000001
 40
0.0
 40
0.0
 40
0.0
 40
0.0
 40
0.0315260103
 40
0.0630063779
 40
0.0944403762
 40
0.1258313741
 40
0.1571840314
 40
0.1885057322
 40
0.2198057366
 40
0.2510949022
 40
0.2823851285
 40
0.3136888059
 40
0.3450180911
 40
0.3763843037
 40
0.4077971872
 40
0.4392642427
 40
0.4707901282
 40
0.5023760589
 40
0.5656914292
 40
0.6291532459
 40
0.6925998043
 40
0.7557881833
 40
0.787201154
 40
0.8184326059
 40
0.8801707824
 40
0.9106254319
 40
0.9407591478
 40
0.9705535123
 40
1.0
 40
1.0
 40
1.0
 40
1.0
 10
10.9033782083
 20
6.7586674602
 30
0.0
 10
10.8994098724
 20
6.7587884693
 30
0.0
 10
10.8914841446
 20
6.7592739234
 30
0.0
 10
10.8796739803
 20
6.760738129
 30
0.0
 10
10.8679949732
 20
6.7629366659
 30
0.0
 10
10.8564933496
 20
6.76586267
 30
0.0
 10
10.8452127136
 20
6.7695042378
 30
0.0
 10
10.8341944287
 20
6.7738444768
 30
0.0
 10
10.8234766804
 20
6.7788622368
 30
0.0
 10
10.8130941889
 20
6.784532689
 30
0.0
 10
10.8030779954
 20
6.7908280865
 30
0.0
 10
10.7934554748
 20
6.7977184571
 30
0.0
 10
10.7842505003
 20
6.8051722575
 30
0.0
 10
10.7754837639
 20
6.8131569066
 30
0.0
 10
10.7671731575
 20
6.8216392477
 30
0.0
 10
10.759334303
 20
6.8305856791
 30
0.0
 10
10.7519806945
 20
6.8399628318
 30
0.0
 10
10.7428338399
 20
6.8530021572
 30
0.0
 10
10.7326754942
 20
6.8702088888
 30
0.0
 10
10.7226188485
 20
6.8919937692
 30
0.0
 10
10.7147532221
 20
6.9146437973
 30
0.0
 10
10.710069759
 20
6.934023414
 30
0.0
 10
10.7074842319
 20
6.9496633955
 30
0.0
 10
10.7056917504
 20
6.9652292904
 30
0.0
 10
10.7050633481
 20
6.9807915683
 30
0.0
 10
10.7056344227
 20
6.9961913775
 30
0.0
 10
10.7066529743
 20
7.0075336718
 30
0.0
 10
10.7082606034
 20
7.0186787406
 30
0.0
 10
10.7097308768
 20
7.0259975167
 30
0.0
 10
10.7105639399
 20
7.0296110312
 30
0.0
  0
SPLINE
  5
3B2
100
AcDbEntity
  8
0
100
AcDbSpline
 62
7
  6
CONTINUOUS
 70
0
 71
3
 72
24
 73
20
 74
0
 42
0.0000001
 43
0.0000001
 44
0.0000000001
 40
0.0
 40
0.0
 40
0.0
 40
0.0
 40
0.065525773
 40
0.13050938
 40
0.1950091072
 40
0.2590807739
 40
0.3227727221
 40
0.386126463
 40
0.5119031182
 40
0.5743948954
 40
0.6366094243
 40
0.698523196
 40
0.7600869401
 40
0.8212139734
 40
0.881760444
 40
0.9117484492
 40
0.9414915406
 40
0.9709337249
 40
1.0
 40
1.0
 40
1.0
 40
1.0
 10
10.7744777763
 20
8.8040698226
 30
0.0
 10
10.7707933049
 20
8.8077637389
 30
0.0
 10
10.7636790971
 20
8.8153484544
 30
0.0
 10
10.7537441842
 20
8.8272919442
 30
0.0
 10
10.7445790953
 20
8.8396921239
 30
0.0
 10
10.7361690833
 20
8.8524923327
 30
0.0
 10
10.7284967171
 20
8.8656421978
 30
0.0
 10
10.7192510997
 20
8.8835311874
 30
0.0
 10
10.7113748686
 20
8.9019924083
 30
0.0
 10
10.7048359934
 20
8.920839114
 30
0.0
 10
10.7005975084
 20
8.9350863933
 30
0.0
 10
10.6970042489
 20
8.9494329811
 30
0.0
 10
10.6940480467
 20
8.963835904
 30
0.0
 10
10.6917255245
 20
8.9782439629
 30
0.0
 10
10.6903153072
 20
8.9902411549
 30
0.0
 10
10.6895127633
 20
8.9997849066
 30
0.0
 10
10.689077881
 20
9.0068724192
 30
0.0
 10
10.6888119352
 20
9.0138948012
 30
0.0
 10
10.6887504763
 20
9.0185535777
 30
0.0
 10
10.6887506997
 20
9.0208679012
 30
0.0
  0
SPLINE
  5
3B3
100
AcDbEntity
  8
0
100
AcDbSpline
 62
7
  6
CONTINUOUS
 70
0
 71
3
 72
23
 73
19
 74
0
 42
0.0000001
 43
0.0000001
 44
0.0000000001
 40
0.0
 40
0.0
 40
0.0
 40
0.0
 40
0.0652775709
 40
0.130412141
 40
0.1953241158
 40
0.2599425036
 40
0.3242041087
 40
0.3880563474
 40
0.4514575053
 40
0.5143773378
 40
0.5767968013
 40
0.6387072786
 40
0.7001094107
 40
0.7610118741
 40
0.8214301201
 40
0.8813838008
 40
0.9408996625
 40
1.0
 40
1.0
 40
1.0
 40
1.0
 10
10.9468216438
 20
8.732482366
 30
0.0
 10
10.9426633161
 20
8.7325104638
 30
0.0
 10
10.9343557083
 20
8.7327582
 30
0.0
 10
10.9219452999
 20
8.733717134
 30
0.0
 10
10.9096369202
 20
8.7352692219
 30
0.0
 10
10.8974744146
 20
8.7374147728
 30
0.0
 10
10.8854996012
 20
8.740148531
 30
0.0
 10
10.8737519734
 20
8.7434598505
 30
0.0
 10
10.862267681
 20
8.7473332608
 30
0.0
 10
10.8510789701
 20
8.7517491095
 30
0.0
 10
10.8402137641
 20
8.7566843541
 30
0.0
 10
10.8296955011
 20
8.7621133821
 30
0.0
 10
10.8195431646
 20
8.7680088212
 30
0.0
 10
10.8097714609
 20
8.7743423017
 30
0.0
 10
10.8003912187
 20
8.78108507
 30
0.0
 10
10.791409467
 20
8.7882086734
 30
0.0
 10
10.7828307522
 20
8.7956849971
 30
0.0
 10
10.7773625087
 20
8.8009042593
 30
0.0
 10
10.7746973108
 20
8.8035634448
 30
0.0
  0
SPLINE
  5
3B4
100
AcDbEntity
  8
0
100
AcDbSpline
 62
7
  6
CONTINUOUS
 70
0
 71
3
 72
13
 73
9
 74
0
 42
0.0000001
 43
0.0000001
 44
0.0000000001
 40
0.0
 40
0.0
 40
0.0
 40
0.0
 40
0.2458729923
 40
0.4953694241
 40
0.6210931406
 40
0.7472220547
 40
0.8735843532
 40
1.0
 40
1.0
 40
1.0
 40
1.0
 10
11.0454486504
 20
8.7488338633
 30
0.0
 10
11.0376388949
 20
8.7462407314
 30
0.0
 10
11.0217163565
 20
8.7415626802
 30
0.0
 10
11.0013646421
 20
8.7372192069
 30
0.0
 10
10.9847667827
 20
8.734728654
 30
0.0
 10
10.972175892
 20
8.7333843375
 30
0.0
 10
10.9595150141
 20
8.7325951225
 30
0.0
 10
10.9510524946
 20
8.7324537782
 30
0.0
 10
10.9468216438
 20
8.732482366
 30
0.0
  0
SPLINE
  5
3B5
100
AcDbEntity
  8
0
100
AcDbSpline
 62
7
  6
CONTINUOUS
 70
0
 71
3
 72
25
 73
21
 74
0
 42
0.0000001
 43
0.0000001
 44
0.0000000001
 40
0.0
 40
0.0
 40
0.0
 40
0.0
 40
0.0616475256
 40
0.0924812752
 40
0.1233236417
 40
0.1850399904
 40
0.2468243943
 40
0.277751631
 40
0.3087038637
 40
0.3706878925
 40
0.4328012858
 40
0.495061923
 40
0.5574860832
 40
0.6200882745
 40
0.682881117
 40
0.745875147
 40
0.8090789725
 40
0.8724984981
 40
0.9361386362
 40
1.0
 40
1.0
 40
1.0
 40
1.0
 10
10.3322522095
 20
7.0948539496
 30
0.0
 10
10.3377734667
 20
7.1001870799
 30
0.0
 10
10.3462737582
 20
7.1079669812
 30
0.0
 10
10.3580113854
 20
7.1178707119
 30
0.0
 10
10.3700177552
 20
7.1274612264
 30
0.0
 10
10.3855127493
 20
7.1388473825
 30
0.0
 10
10.401604414
 20
7.1493927128
 30
0.0
 10
10.4148131196
 20
7.157310919
 30
0.0
 10
10.4282499869
 20
7.1648861349
 30
0.0
 10
10.4454426651
 20
7.1736922529
 30
0.0
 10
10.466638297
 20
7.1831645931
 30
0.0
 10
10.4883560669
 20
7.1915238889
 30
0.0
 10
10.5105408944
 20
7.1987489316
 30
0.0
 10
10.5331369929
 20
7.2048216397
 30
0.0
 10
10.5560874169
 20
7.2097267584
 30
0.0
 10
10.579334404
 20
7.213452022
 30
0.0
 10
10.6028193348
 20
7.2159880789
 30
0.0
 10
10.626483367
 20
7.2173286644
 30
0.0
 10
10.6502660797
 20
7.2174704282
 30
0.0
 10
10.666134849
 20
7.216766677
 30
0.0
 10
10.6740678266
 20
7.2162165232
 30
0.0
  0
SPLINE
  5
3B6
100
AcDbEntity
  8
0
100
AcDbSpline
 62
7
  6
CONTINUOUS
 70
0
 71
3
 72
23
 73
19
 74
0
 42
0.0000001
 43
0.0000001
 44
0.0000000001
 40
0.0
 40
0.0
 40
0.0
 40
0.0
 40
0.0616482066
 40
0.1233194398
 40
0.1850364729
 40
0.2468215638
 40
0.3086962099
 40
0.3706809215
 40
0.4327950013
 40
0.4950563319
 40
0.5574811817
 40
0.6200840805
 40
0.6828775834
 40
0.7458723398
 40
0.8090769807
 40
0.8724966303
 40
0.9361388571
 40
1.0
 40
1.0
 40
1.0
 40
1.0
 10
10.5412459983
 20
6.9665234915
 30
0.0
 10
10.5441020062
 20
6.9692821962
 30
0.0
 10
10.5499647542
 20
6.9746480742
 30
0.0
 10
10.5591804966
 20
6.9822141993
 30
0.0
 10
10.5687964289
 20
6.9892802125
 30
0.0
 10
10.5787879966
 20
6.9958279915
 30
0.0
 10
10.5891300956
 20
7.0018411478
 30
0.0
 10
10.5997966319
 20
7.0073045376
 30
0.0
 10
10.6107607345
 20
7.0122044227
 30
0.0
 10
10.6219947836
 20
7.0165284611
 30
0.0
 10
10.6334704728
 20
7.0202657933
 30
0.0
 10
10.645158887
 20
7.0234070499
 30
0.0
 10
10.6570305861
 20
7.0259443589
 30
0.0
 10
10.6690556984
 20
7.0278713505
 30
0.0
 10
10.6812038609
 20
7.0291831594
 30
0.0
 10
10.6934447512
 20
7.0298766423
 30
0.0
 10
10.7057469668
 20
7.0299499322
 30
0.0
 10
10.7139555278
 20
7.0295859218
 30
0.0
 10
10.7180590059
 20
7.0293013446
 30
0.0
  0
SPLINE
  5
3B7
100
AcDbEntity
  8
0
100
AcDbSpline
 62
7
  6
CONTINUOUS
 70
0
 71
3
 72
39
 73
35
 74
0
 42
0.0000001
 43
0.0000001
 44
0.0000000001
 40
0.0
 40
0.0
 40
0.0
 40
0.0
 40
0.0303124934
 40
0.0607375552
 40
0.0912778033
 40
0.1219344494
 40
0.1527073009
 40
0.1835947785
 40
0.2145939499
 40
0.2457005787
 40
0.2769091866
 40
0.3082131276
 40
0.3396046755
 40
0.3710751204
 40
0.4026148726
 40
0.4342135753
 40
0.4658602225
 40
0.4975432824
 40
0.5292508255
 40
0.5609706552
 40
0.592690442
 40
0.6243978575
 40
0.6560807079
 40
0.6877270668
 40
0.7193254058
 40
0.7508647223
 40
0.7823346628
 40
0.813725641
 40
0.8450289619
 40
0.8762368722
 40
0.9073428555
 40
0.9383410945
 40
0.9692281655
 40
1.0
 40
1.0
 40
1.0
 40
1.0
 10
10.9757631822
 20
6.6739178354
 30
0.0
 10
10.9767652098
 20
6.6792218354
 30
0.0
 10
10.9784739091
 20
6.6899084877
 30
0.0
 10
10.9801411656
 20
6.7060848274
 30
0.0
 10
10.9809128126
 20
6.7223903314
 30
0.0
 10
10.9807864612
 20
6.7387752921
 30
0.0
 10
10.9797625896
 20
6.7551906169
 30
0.0
 10
10.9778443254
 20
6.7715869046
 30
0.0
 10
10.9750374925
 20
6.7879148806
 30
0.0
 10
10.9713505775
 20
6.8041254662
 30
0.0
 10
10.9667947062
 20
6.8201699457
 30
0.0
 10
10.961383616
 20
6.8360001073
 30
0.0
 10
10.9551336118
 20
6.8515683899
 30
0.0
 10
10.9480635111
 20
6.8668280223
 30
0.0
 10
10.9401945892
 20
6.8817331632
 30
0.0
 10
10.9315505143
 20
6.8962390373
 30
0.0
 10
10.9221572774
 20
6.9103020687
 30
0.0
 10
10.9120431142
 20
6.9238800107
 30
0.0
 10
10.9012384207
 20
6.9369320706
 30
0.0
 10
10.8897756682
 20
6.9494190379
 30
0.0
 10
10.8776893022
 20
6.9613033988
 30
0.0
 10
10.8650156362
 20
6.9725494455
 30
0.0
 10
10.8517927447
 20
6.9831233839
 30
0.0
 10
10.8380603491
 20
6.9929934337
 30
0.0
 10
10.8238597
 20
7.0021299235
 30
0.0
 10
10.8092334536
 20
7.0105053797
 30
0.0
 10
10.7942255455
 20
7.0180946065
 30
0.0
 10
10.7788810614
 20
7.024874776
 30
0.0
 10
10.7632461064
 20
7.0308254725
 30
0.0
 10
10.7473676328
 20
7.0359288025
 30
0.0
 10
10.7312934302
 20
7.0401693239
 30
0.0
 10
10.7150715478
 20
7.0435343637
 30
0.0
 10
10.6987514804
 20
7.0460135589
 30
0.0
 10
10.6878165171
 20
7.0470729783
 30
0.0
 10
10.6823500294
 20
7.0474520806
 30
0.0
  0
SPLINE
  5
3B8
100
AcDbEntity
  8
0
100
AcDbSpline
 62
7
  6
CONTINUOUS
 70
0
 71
3
 72
39
 73
35
 74
0
 42
0.0000001
 43
0.0000001
 44
0.0000000001
 40
0.0
 40
0.0
 40
0.0
 40
0.0
 40
0.0299393046
 40
0.0599022798
 40
0.0899120362
 40
0.1199905823
 40
0.1501583143
 40
0.1804335559
 40
0.2108321562
 40
0.2413671583
 40
0.2720485416
 40
0.3028830449
 40
0.3338740655
 40
0.3650216366
 40
0.3963224767
 40
0.4277701061
 40
0.4593550258
 40
0.491064949
 40
0.5228850818
 40
0.554798444
 40
0.5867862231
 40
0.618828155
 40
0.6509029254
 40
0.6829885856
 40
0.7150629765
 40
0.7471041564
 40
0.7790908249
 40
0.8110027394
 40
0.8428211144
 40
0.8745290121
 40
0.9061116491
 40
0.937556897
 40
0.9688549736
 40
1.0
 40
1.0
 40
1.0
 40
1.0
 10
10.8948720135
 20
6.6004229229
 30
0.0
 10
10.8990324338
 20
6.604441599
 30
0.0
 10
10.9070449906
 20
6.6128120559
 30
0.0
 10
10.9180492292
 20
6.6262751138
 30
0.0
 10
10.9279853663
 20
6.6405786712
 30
0.0
 10
10.9367992847
 20
6.655645143
 30
0.0
 10
10.9444442047
 20
6.6713940917
 30
0.0
 10
10.9508793
 20
6.6877411206
 30
0.0
 10
10.9560703461
 20
6.7045987544
 30
0.0
 10
10.9599897831
 20
6.7218768027
 30
0.0
 10
10.9626168796
 20
6.7394828816
 30
0.0
 10
10.9639378201
 20
6.7573229036
 30
0.0
 10
10.9639457695
 20
6.7753015825
 30
0.0
 10
10.9626408978
 20
6.7933229397
 30
0.0
 10
10.9600303693
 20
6.8112908124
 30
0.0
 10
10.9561282967
 20
6.8291093609
 30
0.0
 10
10.9509556591
 20
6.8466835733
 30
0.0
 10
10.9445401873
 20
6.8639197653
 30
0.0
 10
10.9369162179
 20
6.8807260755
 30
0.0
 10
10.9281245021
 20
6.8970129466
 30
0.0
 10
10.9182119884
 20
6.9126935966
 30
0.0
 10
10.9072315735
 20
6.9276844749
 30
0.0
 10
10.8952418222
 20
6.9419057025
 30
0.0
 10
10.8823066574
 20
6.9552814923
 30
0.0
 10
10.8684950231
 20
6.9677405492
 30
0.0
 10
10.8538805198
 20
6.9792164449
 30
0.0
 10
10.8385410205
 20
6.9896479739
 30
0.0
 10
10.8225582561
 20
6.9989794755
 30
0.0
 10
10.8060173929
 20
7.0071611298
 30
0.0
 10
10.7890065475
 20
7.014149209
 30
0.0
 10
10.7716164573
 20
7.0199063466
 30
0.0
 10
10.7539395131
 20
7.0244016616
 30
0.0
 10
10.7360711824
 20
7.0276110077
 30
0.0
 10
10.7240618999
 20
7.0288850425
 30
0.0
 10
10.7180590059
 20
7.0293013446
 30
0.0
  0
SPLINE
  5
3B9
100
AcDbEntity
  8
0
100
AcDbSpline
 62
7
  6
CONTINUOUS
 70
0
 71
3
 72
11
 73
7
 74
0
 42
0.0000001
 43
0.0000001
 44
0.0000000001
 40
0.0
 40
0.0
 40
0.0
 40
0.0
 40
0.250465752
 40
0.5006701952
 40
0.7505350857
 40
1.0
 40
1.0
 40
1.0
 40
1.0
 10
10.9639107736
 20
6.7661206091
 30
0.0
 10
10.9589863741
 20
6.7647558832
 30
0.0
 10
10.9490414888
 20
6.7623782752
 30
0.0
 10
10.9339142602
 20
6.7599171631
 30
0.0
 10
10.9186645628
 20
6.7586026967
 30
0.0
 10
10.9084654332
 20
6.758512332
 30
0.0
 10
10.9033782083
 20
6.7586674602
 30
0.0
  0
SPLINE
  5
3BA
100
AcDbEntity
  8
0
100
AcDbSpline
 62
7
  6
CONTINUOUS
 70
0
 71
3
 72
27
 73
23
 74
0
 42
0.0000001
 43
0.0000001
 44
0.0000000001
 40
0.0
 40
0.0
 40
0.0
 40
0.0
 40
0.06164689
 40
0.0924803204
 40
0.1233223709
 40
0.1850380842
 40
0.2468218522
 40
0.2777487695
 40
0.3087006862
 40
0.3706840773
 40
0.432796832
 40
0.4950568298
 40
0.5574803489
 40
0.6200818994
 40
0.6828740929
 40
0.7143476873
 40
0.7458727129
 40
0.8090758403
 40
0.872494838
 40
0.9042889691
 40
0.9361391443
 40
1.0
 40
1.0
 40
1.0
 40
1.0
 10
10.264168041
 20
9.2179343694
 30
0.0
 10
10.2707890481
 20
9.2243297592
 30
0.0
 10
10.2809824951
 20
9.233659239
 30
0.0
 10
10.295058081
 20
9.2455355978
 30
0.0
 10
10.3094559559
 20
9.2570363301
 30
0.0
 10
10.3280373165
 20
9.2706903805
 30
0.0
 10
10.3473342152
 20
9.2833360867
 30
0.0
 10
10.3631738579
 20
9.2928314879
 30
0.0
 10
10.3792871725
 20
9.3019154691
 30
0.0
 10
10.3999043422
 20
9.3124756081
 30
0.0
 10
10.4253218127
 20
9.3238346313
 30
0.0
 10
10.4513653859
 20
9.333858922
 30
0.0
 10
10.4779691421
 20
9.3425230525
 30
0.0
 10
10.5050657223
 20
9.3498052654
 30
0.0
 10
10.5279836045
 20
9.3547033665
 30
0.0
 10
10.5464923044
 20
9.3579155774
 30
0.0
 10
10.5651383167
 20
9.3606592698
 30
0.0
 10
10.5886279037
 20
9.3631958834
 30
0.0
 10
10.6122561374
 20
9.3645343631
 30
0.0
 10
10.6312282845
 20
9.3648882053
 30
0.0
 10
10.6502689079
 20
9.3647630231
 30
0.0
 10
10.6645547122
 20
9.364129499
 30
0.0
 10
10.6740678266
 20
9.3634697622
 30
0.0
  0
SPLINE
  5
3BB
100
AcDbEntity
  8
0
100
AcDbSpline
 62
7
  6
CONTINUOUS
 70
0
 71
3
 72
23
 73
19
 74
0
 42
0.0000001
 43
0.0000001
 44
0.0000000001
 40
0.0
 40
0.0
 40
0.0
 40
0.0
 40
0.0616482073
 40
0.123319441
 40
0.1850364722
 40
0.2468215609
 40
0.3086962089
 40
0.3706809247
 40
0.4327950044
 40
0.4950563302
 40
0.5574811788
 40
0.6200840686
 40
0.6828776081
 40
0.745872322
 40
0.8090769389
 40
0.8724968681
 40
0.9361383341
 40
1.0
 40
1.0
 40
1.0
 40
1.0
 10
10.4790331225
 20
9.0848476783
 30
0.0
 10
10.4829047269
 20
9.088587374
 30
0.0
 10
10.4908522569
 20
9.0958613613
 30
0.0
 10
10.5033451163
 20
9.1061179879
 30
0.0
 10
10.5163804712
 20
9.1156966625
 30
0.0
 10
10.529925023
 20
9.1245728405
 30
0.0
 10
10.5439447605
 20
9.1327242784
 30
0.0
 10
10.5584043144
 20
9.1401304363
 30
0.0
 10
10.5732672512
 20
9.1467726988
 30
0.0
 10
10.5884961169
 20
9.1526343658
 30
0.0
 10
10.6040525448
 20
9.1577007092
 30
0.0
 10
10.61989735
 20
9.1619590047
 30
0.0
 10
10.63599062
 20
9.165398556
 30
0.0
 10
10.6522918511
 20
9.1680107744
 30
0.0
 10
10.6687599076
 20
9.1697890816
 30
0.0
 10
10.6853536057
 20
9.1707291496
 30
0.0
 10
10.702030483
 20
9.1708285313
 30
0.0
 10
10.7131579808
 20
9.1703350609
 30
0.0
 10
10.7187206981
 20
9.1699492851
 30
0.0
  0
SPLINE
  5
3BC
100
AcDbEntity
  8
0
100
AcDbSpline
 62
7
  6
CONTINUOUS
 70
0
 71
3
 72
37
 73
33
 74
0
 42
0.0000001
 43
0.0000001
 44
0.0000000001
 40
0.0
 40
0.0
 40
0.0
 40
0.0
 40
0.0306013742
 40
0.0613062047
 40
0.0921130061
 40
0.1230193313
 40
0.1540218034
 40
0.1851161548
 40
0.216297274
 40
0.2475592589
 40
0.2788954775
 40
0.3102986328
 40
0.3417608323
 40
0.3732736608
 40
0.4048282563
 40
0.4364153898
 40
0.4996324179
 40
0.5628633545
 40
0.5944677464
 40
0.6260462928
 40
0.657589555
 40
0.6890884041
 40
0.7205341015
 40
0.7519183781
 40
0.783233508
 40
0.8144723826
 40
0.8456285819
 40
0.8766964026
 40
0.9076710922
 40
0.9385482762
 40
0.969325723
 40
1.0
 40
1.0
 40
1.0
 40
1.0
 10
11.0735500122
 20
8.7744440081
 30
0.0
 10
11.0735500067
 20
8.780855247
 30
0.0
 10
11.0732341245
 20
8.7937015835
 30
0.0
 10
11.071819484
 20
8.8129553303
 30
0.0
 10
11.0694666809
 20
8.8321818471
 30
0.0
 10
11.0661814246
 20
8.8513342238
 30
0.0
 10
11.0619716645
 20
8.8703665114
 30
0.0
 10
11.0568475708
 20
8.8892328445
 30
0.0
 10
11.050821507
 20
8.9078878151
 30
0.0
 10
11.0439080145
 20
8.9262865136
 30
0.0
 10
11.0361237698
 20
8.9443846587
 30
0.0
 10
11.027487545
 20
8.9621386839
 30
0.0
 10
11.0180201275
 20
8.9795058855
 30
0.0
 10
11.0077444107
 20
8.9964443653
 30
0.0
 10
10.9966848113
 20
9.0129137225
 30
0.0
 10
10.9809277889
 20
9.0341965329
 30
0.0
 10
10.9594116215
 20
9.0594270245
 30
0.0
 10
10.935675466
 20
9.08258635
 30
0.0
 10
10.9154875496
 20
9.0997415399
 30
0.0
 10
10.8997851581
 20
9.1118899768
 30
0.0
 10
10.8835593038
 20
9.1232908263
 30
0.0
 10
10.8668486943
 20
9.1339169903
 30
0.0
 10
10.8496936407
 20
9.1437427825
 30
0.0
 10
10.8321354053
 20
9.1527445566
 30
0.0
 10
10.8142162527
 20
9.1609006122
 30
0.0
 10
10.7959793065
 20
9.1681912864
 30
0.0
 10
10.77746847
 20
9.1745989885
 30
0.0
 10
10.7587282792
 20
9.1801082927
 30
0.0
 10
10.7398039366
 20
9.1847058375
 30
0.0
 10
10.7207407308
 20
9.1883806496
 30
0.0
 10
10.7015852963
 20
9.1911236244
 30
0.0
 10
10.6887611435
 20
9.1923288556
 30
0.0
 10
10.6823500294
 20
9.1927734679
 30
0.0
  0
SPLINE
  5
3BD
100
AcDbEntity
  8
0
100
AcDbSpline
 62
7
  6
CONTINUOUS
 70
0
 71
3
 72
39
 73
35
 74
0
 42
0.0000001
 43
0.0000001
 44
0.0000000001
 40
0.0
 40
0.0
 40
0.0
 40
0.0
 40
0.0299393047
 40
0.05990228
 40
0.0899120367
 40
0.1199905832
 40
0.1501583158
 40
0.1804335574
 40
0.2108321569
 40
0.2413671578
 40
0.2720485411
 40
0.3028830449
 40
0.3338740658
 40
0.3650216369
 40
0.3963224771
 40
0.4277701073
 40
0.4593550271
 40
0.4910649495
 40
0.5228850815
 40
0.5547984436
 40
0.5867862232
 40
0.6188281555
 40
0.6509029261
 40
0.6829885862
 40
0.7150629768
 40
0.7471041562
 40
0.7790908243
 40
0.811002739
 40
0.8428211161
 40
0.8745290101
 40
0.9061116563
 40
0.9375568916
 40
0.9688549523
 40
1.0
 40
1.0
 40
1.0
 40
1.0
 10
10.9584082736
 20
8.5885620323
 30
0.0
 10
10.9640481393
 20
8.5940097433
 30
0.0
 10
10.9749099502
 20
8.6053567332
 30
0.0
 10
10.9898272942
 20
8.6236072381
 30
0.0
 10
11.0032967204
 20
8.6429971255
 30
0.0
 10
11.015244856
 20
8.6634212269
 30
0.0
 10
11.0256082896
 20
8.6847704968
 30
0.0
 10
11.0343316929
 20
8.7069305187
 30
0.0
 10
11.041368678
 20
8.7297827109
 30
0.0
 10
11.0466818782
 20
8.7532048161
 30
0.0
 10
11.0502431683
 20
8.7770716033
 30
0.0
 10
11.0520338296
 20
8.8012555237
 30
0.0
 10
11.0520446058
 20
8.825627407
 30
0.0
 10
11.0502757271
 20
8.8500571452
 30
0.0
 10
11.046736898
 20
8.8744143802
 30
0.0
 10
11.0414472375
 20
8.8985691881
 30
0.0
 10
11.0344352054
 20
8.922392774
 30
0.0
 10
11.0257384023
 20
8.9457581437
 30
0.0
 10
11.0154033688
 20
8.9685407704
 30
0.0
 10
11.0034853329
 20
8.9906192444
 30
0.0
 10
10.9900479307
 20
9.0118759178
 30
0.0
 10
10.975162884
 20
9.0321975375
 30
0.0
 10
10.9589095858
 20
9.0514758221
 30
0.0
 10
10.941374689
 20
9.0696080349
 30
0.0
 10
10.9226516446
 20
9.0864975187
 30
0.0
 10
10.9028402301
 20
9.1020542269
 30
0.0
 10
10.8820460185
 20
9.116195201
 30
0.0
 10
10.8603798009
 20
9.1288449875
 30
0.0
 10
10.837957025
 20
9.139936042
 30
0.0
 10
10.8148971335
 20
9.1494090771
 30
0.0
 10
10.7913231377
 20
9.1572134329
 30
0.0
 10
10.7673602903
 20
9.1633072745
 30
0.0
 10
10.7431379974
 20
9.1676578636
 30
0.0
 10
10.7268582221
 20
9.1693849459
 30
0.0
 10
10.7187206981
 20
9.1699492851
 30
0.0
  0
SPLINE
  5
3BE
100
AcDbEntity
  8
0
100
AcDbSpline
 62
7
  6
CONTINUOUS
 70
0
 71
3
 72
11
 73
7
 74
0
 42
0.0000001
 43
0.0000001
 44
0.0000000001
 40
0.0
 40
0.0
 40
0.0
 40
0.0
 40
0.2897492774
 40
0.5460389192
 40
0.7796344763
 40
1.0
 40
1.0
 40
1.0
 40
1.0
 10
11.21746727
 20
10.1298725722
 30
0.0
 10
11.2173198768
 20
10.1302655487
 30
0.0
 10
11.2170708418
 20
10.1310174246
 30
0.0
 10
11.2168091376
 20
10.1321175214
 30
0.0
 10
11.2166648324
 20
10.1331376051
 30
0.0
 10
11.2166333455
 20
10.1337955355
 30
0.0
 10
11.2166333455
 20
10.1341147401
 30
0.0
  0
SPLINE
  5
3BF
100
AcDbEntity
  8
0
100
AcDbSpline
 62
7
  6
CONTINUOUS
 70
0
 71
3
 72
11
 73
7
 74
0
 42
0.0000001
 43
0.0000001
 44
0.0000000001
 40
0.0
 40
0.0
 40
0.0
 40
0.0
 40
0.2203655244
 40
0.4539610799
 40
0.7102507243
 40
1.0
 40
1.0
 40
1.0
 40
1.0
 10
12.0776333455
 20
10.1341147401
 30
0.0
 10
12.0776333455
 20
10.1337955355
 30
0.0
 10
12.0776018586
 20
10.1331376051
 30
0.0
 10
12.0774575534
 20
10.1321175214
 30
0.0
 10
12.0771958492
 20
10.1310174246
 30
0.0
 10
12.0769468142
 20
10.1302655487
 30
0.0
 10
12.076799421
 20
10.1298725722
 30
0.0
  0
SPLINE
  5
3C0
100
AcDbEntity
  8
0
100
AcDbSpline
 62
7
  6
CONTINUOUS
 70
0
 71
3
 72
50
 73
46
 74
0
 42
0.0000001
 43
0.0000001
 44
0.0000000001
 40
0.0
 40
0.0
 40
0.0
 40
0.0
 40
0.0057940444
 40
0.0118133012
 40
0.0180949137
 40
0.0246707923
 40
0.0315680343
 40
0.038809168
 40
0.0464128131
 40
0.0543939714
 40
0.0627646715
 40
0.0715341833
 40
0.0807095567
 40
0.0902957495
 40
0.1002960479
 40
0.110712136
 40
0.1215444071
 40
0.1327920086
 40
0.1444530581
 40
0.1565246872
 40
0.1690031768
 40
0.1818840157
 40
0.1951619657
 40
0.208831145
 40
0.2373157919
 40
0.2672802406
 40
0.298657941
 40
0.3313753898
 40
0.3653529206
 40
0.4005053791
 40
0.4367427165
 40
0.4739705258
 40
0.5120905366
 40
0.5510010812
 40
0.5905975399
 40
0.6307727714
 40
0.6714175329
 40
0.7124208942
 40
0.7536706433
 40
0.7950536982
 40
0.8364564909
 40
0.8777654243
 40
0.9188671243
 40
0.9596492066
 40
1.0
 40
1.0
 40
1.0
 40
1.0
 10
12.0767994205
 20
10.1298725722
 30
0.0
 10
12.0764159163
 20
10.1288500896
 30
0.0
 10
12.0755351285
 20
10.1268013103
 30
0.0
 10
12.0739207286
 20
10.1237929819
 30
0.0
 10
12.0719923059
 20
10.1207989573
 30
0.0
 10
12.0697519186
 20
10.1178214221
 30
0.0
 10
12.0672013524
 20
10.1148621692
 30
0.0
 10
12.064342696
 20
10.1119229944
 30
0.0
 10
12.0611780226
 20
10.1090058284
 30
0.0
 10
12.0577096955
 20
10.1061125065
 30
0.0
 10
12.053940165
 20
10.1032450324
 30
0.0
 10
12.0498721718
 20
10.1004053052
 30
0.0
 10
12.0455086003
 20
10.0975953613
 30
0.0
 10
12.0408526103
 20
10.0948171336
 30
0.0
 10
12.0359075357
 20
10.0920726525
 30
0.0
 10
12.0306769652
 20
10.0893638551
 30
0.0
 10
12.0251646767
 20
10.0866927373
 30
0.0
 10
12.0193746827
 20
10.0840612177
 30
0.0
 10
12.0133111919
 20
10.0814712384
 30
0.0
 10
12.0069786295
 20
10.0789246839
 30
0.0
 10
12.0003816173
 20
10.0764234284
 30
0.0
 10
11.9935249819
 20
10.073969315
 30
0.0
 10
11.9864137327
 20
10.0715641216
 30
0.0
 10
11.9764624611
 20
10.0683810601
 30
0.0
 10
11.9634192967
 20
10.0645478133
 30
0.0
 10
11.9470467164
 20
10.0602310008
 30
0.0
 10
11.9297932364
 20
10.05614919
 30
0.0
 10
11.9117094711
 20
10.0523144819
 30
0.0
 10
11.892848347
 20
10.0487382644
 30
0.0
 10
11.8732651808
 20
10.0454311492
 30
0.0
 10
11.8530174334
 20
10.0424029477
 30
0.0
 10
11.8321645527
 20
10.03966264
 30
0.0
 10
11.8107677864
 20
10.037218349
 30
0.0
 10
11.7888899985
 20
10.0350773178
 30
0.0
 10
11.7665954802
 20
10.0332458889
 30
0.0
 10
11.7439497581
 20
10.031729486
 30
0.0
 10
11.7210193989
 20
10.0305325989
 30
0.0
 10
11.6978718124
 20
10.0296587707
 30
0.0
 10
11.67457505
 20
10.0291105878
 30
0.0
 10
11.6511976074
 20
10.0288896731
 30
0.0
 10
11.627808211
 20
10.028996679
 30
0.0
 10
11.6044756445
 20
10.0294312917
 30
0.0
 10
11.5812684648
 20
10.0301922208
 30
0.0
 10
11.5582549981
 20
10.0312772174
 30
0.0
 10
11.5429918564
 20
10.0322203204
 30
0.0
 10
11.5354049277
 20
10.0327464757
 30
0.0
  0
SPLINE
  5
3C1
100
AcDbEntity
  8
0
100
AcDbSpline
 62
7
  6
CONTINUOUS
 70
0
 71
3
 72
8
 73
4
 74
0
 42
0.0000001
 43
0.0000001
 44
0.0000000001
 40
0.0
 40
0.0
 40
0.0
 40
0.0
 40
1.0
 40
1.0
 40
1.0
 40
1.0
 10
10.7185679621
 20
8.8861878854
 30
0.0
 10
10.7185504582
 20
8.8861791563
 30
0.0
 10
10.7185329543
 20
8.8861704273
 30
0.0
 10
10.7185154504
 20
8.8861616983
 30
0.0
  0
SPLINE
  5
3C2
100
AcDbEntity
  8
0
100
AcDbSpline
 62
7
  6
CONTINUOUS
 70
0
 71
3
 72
90
 73
86
 74
0
 42
0.0000001
 43
0.0000001
 44
0.0000000001
 40
0.0
 40
0.0
 40
0.0
 40
0.0
 40
0.0027164161
 40
0.0054532042
 40
0.0082302557
 40
0.0110665249
 40
0.0139797103
 40
0.0169859906
 40
0.0200999233
 40
0.0233344115
 40
0.0267007267
 40
0.03020865
 40
0.0338665219
 40
0.037681453
 40
0.0416593866
 40
0.0458052705
 40
0.0501231624
 40
0.0546163044
 40
0.05928728
 40
0.0641380041
 40
0.0691698883
 40
0.074383819
 40
0.0797802599
 40
0.0853592863
 40
0.0911205905
 40
0.0970635843
 40
0.1094902289
 40
0.1226293717
 40
0.1364669317
 40
0.1509856416
 40
0.1661654371
 40
0.1819837774
 40
0.1984159058
 40
0.215435067
 40
0.2330126943
 40
0.2511185732
 40
0.2697209872
 40
0.2887868504
 40
0.3082818346
 40
0.3281704884
 40
0.3484163492
 40
0.3689820511
 40
0.3898294297
 40
0.410919625
 40
0.4322131812
 40
0.4536701493
 40
0.4752501863
 40
0.4969126541
 40
0.5186167167
 40
0.5403214385
 40
0.5619858817
 40
0.583569205
 40
0.605030762
 40
0.6263301992
 40
0.6474275545
 40
0.6682833559
 40
0.6888587212
 40
0.70911546
 40
0.7290161786
 40
0.7485243844
 40
0.7676045932
 40
0.7862224409
 40
0.8043448006
 40
0.8219399072
 40
0.8389774919
 40
0.8554289325
 40
0.8712674145
 40
0.8864681158
 40
0.9010084229
 40
0.9148681885
 40
0.9280300453
 40
0.9343448951
 40
0.9404802507
 40
0.9464348979
 40
0.9522079219
 40
0.9577986875
 40
0.9632068744
 40
0.9684325511
 40
0.9734761281
 40
0.9783384812
 40
0.9830209275
 40
0.9875254311
 40
0.9918546016
 40
0.9960115654
 40
1.0
 40
1.0
 40
1.0
 40
1.0
 10
12.293589864
 20
7.4121987854
 30
0.0
 10
12.292488701
 20
7.4122751464
 30
0.0
 10
12.2902837556
 20
7.4125281068
 30
0.0
 10
12.2870043974
 20
7.4132049961
 30
0.0
 10
12.2837498406
 20
7.4141793201
 30
0.0
 10
12.2805223647
 20
7.415450018
 30
0.0
 10
12.2773236807
 20
7.417016066
 30
0.0
 10
12.2741553946
 20
7.418876165
 30
0.0
 10
12.2710189786
 20
7.4210290206
 30
0.0
 10
12.2679158425
 20
7.4234732797
 30
0.0
 10
12.2648472842
 20
7.4262074724
 30
0.0
 10
12.2618146894
 20
7.4292301642
 30
0.0
 10
12.2588193131
 20
7.4325397179
 30
0.0
 10
12.2558625445
 20
7.4361345033
 30
0.0
 10
12.2529456835
 20
7.4400126984
 30
0.0
 10
12.250070088
 20
7.4441723971
 30
0.0
 10
12.2472371266
 20
7.4486115582
 30
0.0
 10
12.2444481063
 20
7.4533279778
 30
0.0
 10
12.2417044318
 20
7.4583193583
 30
0.0
 10
12.2390073767
 20
7.46358321
 30
0.0
 10
12.2363583186
 20
7.4691169494
 30
0.0
 10
12.2337585323
 20
7.4749178201
 30
0.0
 10
12.2312093163
 20
7.4809829454
 30
0.0
 10
12.2287119634
 20
7.4873093068
 30
0.0
 10
12.2262676584
 20
7.4938937539
 30
0.0
 10
12.2230328668
 20
7.5031508922
 30
0.0
 10
12.2191428428
 20
7.5153520679
 30
0.0
 10
12.2147720773
 20
7.5307578478
 30
0.0
 10
12.2106406314
 20
7.5471076239
 30
0.0
 10
12.2067568798
 20
7.5643686724
 30
0.0
 10
12.2031287136
 20
7.5825066029
 30
0.0
 10
12.1997635114
 20
7.6014851276
 30
0.0
 10
12.1966681211
 20
7.6212662431
 30
0.0
 10
12.1938488434
 20
7.6418102911
 30
0.0
 10
12.1913114174
 20
7.6630760538
 30
0.0
 10
12.1890610093
 20
7.6850208398
 30
0.0
 10
12.1871022022
 20
7.7076005739
 30
0.0
 10
12.1854389833
 20
7.7307698885
 30
0.0
 10
12.1840747396
 20
7.7544822189
 30
0.0
 10
12.1830122522
 20
7.7786899004
 30
0.0
 10
12.1822536905
 20
7.8033442659
 30
0.0
 10
12.1818006088
 20
7.8283957453
 30
0.0
 10
12.1816539431
 20
7.8537939649
 30
0.0
 10
12.1818140099
 20
7.8794878497
 30
0.0
 10
12.1822805025
 20
7.9054257262
 30
0.0
 10
12.1830524947
 20
7.9315554281
 30
0.0
 10
12.1841284434
 20
7.9578244024
 30
0.0
 10
12.1855061915
 20
7.9841798153
 30
0.0
 10
12.1871829726
 20
8.0105686584
 30
0.0
 10
12.1891554164
 20
8.0369378553
 30
0.0
 10
12.1914195558
 20
8.0632343692
 30
0.0
 10
12.1939708318
 20
8.08940531
 30
0.0
 10
12.196804105
 20
8.115398042
 30
0.0
 10
12.1999136669
 20
8.1411602895
 30
0.0
 10
12.2032932507
 20
8.1666402422
 30
0.0
 10
12.2069360441
 20
8.1917866597
 30
0.0
 10
12.2108347025
 20
8.2165489746
 30
0.0
 10
12.2149813639
 20
8.2408773963
 30
0.0
 10
12.2193676615
 20
8.2647230128
 30
0.0
 10
12.2239847431
 20
8.2880378905
 30
0.0
 10
12.2288232889
 20
8.3107751705
 30
0.0
 10
12.2338735298
 20
8.3328891642
 30
0.0
 10
12.2391252672
 20
8.3543354469
 30
0.0
 10
12.2445678928
 20
8.37507095
 30
0.0
 10
12.2501904112
 20
8.3950540527
 30
0.0
 10
12.2559814587
 20
8.4142446713
 30
0.0
 10
12.2619293308
 20
8.4326043501
 30
0.0
 10
12.2680220074
 20
8.4500963235
 30
0.0
 10
12.274247183
 20
8.4666856756
 30
0.0
 10
12.2805922897
 20
8.4823391574
 30
0.0
 10
12.2860417092
 20
8.4947434356
 30
0.0
 10
12.2904594028
 20
8.5041671495
 30
0.0
 10
12.2937489067
 20
8.5108840571
 30
0.0
 10
12.297058798
 20
8.517344533
 30
0.0
 10
12.3003874211
 20
8.5235453605
 30
0.0
 10
12.3037331015
 20
8.5294834445
 30
0.0
 10
12.3070941949
 20
8.5351558175
 30
0.0
 10
12.3104689874
 20
8.5405596764
 30
0.0
 10
12.313855856
 20
8.5456923065
 30
0.0
 10
12.3172530557
 20
8.5505511791
 30
0.0
 10
12.3206589583
 20
8.5551338769
 30
0.0
 10
12.3240719092
 20
8.5594381714
 30
0.0
 10
12.3274903123
 20
8.5634619754
 30
0.0
 10
12.3309123582
 20
8.5672031051
 30
0.0
 10
12.3332424486
 20
8.5695554162
 30
0.0
 10
12.3344081361
 20
8.5706813839
 30
0.0
  0
SPLINE
  5
3C3
100
AcDbEntity
  8
0
100
AcDbSpline
 62
7
  6
CONTINUOUS
 70
0
 71
3
 72
77
 73
73
 74
0
 42
0.0000001
 43
0.0000001
 44
0.0000000001
 40
0.0
 40
0.0
 40
0.0
 40
0.0
 40
0.0027966513
 40
0.0056682062
 40
0.0116913315
 40
0.0148721623
 40
0.0181792818
 40
0.0216219179
 40
0.0252079687
 40
0.0289442105
 40
0.0328363378
 40
0.0368890969
 40
0.0411064475
 40
0.0454915495
 40
0.0500469435
 40
0.0547745973
 40
0.0596759116
 40
0.0647518849
 40
0.0700030622
 40
0.0810308241
 40
0.0927574673
 40
0.1051760739
 40
0.1182759237
 40
0.1320430385
 40
0.1464606316
 40
0.1615094389
 40
0.1771679639
 40
0.1934127038
 40
0.2102183649
 40
0.2275580233
 40
0.2454032481
 40
0.2637242323
 40
0.2824899344
 40
0.3016681865
 40
0.3212257821
 40
0.3411285772
 40
0.3613416047
 40
0.3818291639
 40
0.4234812149
 40
0.4657884926
 40
0.5084479976
 40
0.5511535037
 40
0.5935983647
 40
0.6354783227
 40
0.6764942912
 40
0.6965873266
 40
0.7163560285
 40
0.7357657446
 40
0.7547827071
 40
0.7733741139
 40
0.7915082239
 40
0.809154472
 40
0.8262836038
 40
0.8428677769
 40
0.8588806876
 40
0.8742977326
 40
0.8890962082
 40
0.9032554846
 40
0.9167572376
 40
0.9295857533
 40
0.9417283263
 40
0.9531756826
 40
0.9586371322
 40
0.9639232226
 40
0.9690340348
 40
0.9739700602
 40
0.9787321474
 40
0.9833216356
 40
0.987740481
 40
0.9919911356
 40
0.9960764917
 40
1.0
 40
1.0
 40
1.0
 40
1.0
 10
12.2685576992
 20
7.6003519451
 30
0.0
 10
12.2678284752
 20
7.6006097692
 30
0.0
 10
12.2663714654
 20
7.6011937624
 30
0.0
 10
12.2634707341
 20
7.6026279871
 30
0.0
 10
12.2606507201
 20
7.6044408598
 30
0.0
 10
12.2579286016
 20
7.6065789302
 30
0.0
 10
12.2558718201
 20
7.6084015738
 30
0.0
 10
12.2538386954
 20
7.6104127581
 30
0.0
 10
12.2518297372
 20
7.6126116123
 30
0.0
 10
12.249845925
 20
7.6149970618
 30
0.0
 10
12.2478880793
 20
7.6175679709
 30
0.0
 10
12.2459570456
 20
7.620323112
 30
0.0
 10
12.2440537347
 20
7.6232612209
 30
0.0
 10
12.2421789663
 20
7.6263808925
 30
0.0
 10
12.2403336171
 20
7.629680672
 30
0.0
 10
12.2385185621
 20
7.6331590159
 30
0.0
 10
12.2367346124
 20
7.636814266
 30
0.0
 10
12.2349826246
 20
7.6406447194
 30
0.0
 10
12.2326522642
 20
7.6460720793
 30
0.0
 10
12.2298340196
 20
7.6532891826
 30
0.0
 10
12.226645383
 20
7.6624815446
 30
0.0
 10
12.2236031216
 20
7.6723246858
 30
0.0
 10
12.2207130697
 20
7.6827999104
 30
0.0
 10
12.217980782
 20
7.6938874579
 30
0.0
 10
12.2154115373
 20
7.7055662782
 30
0.0
 10
12.2130103138
 20
7.7178141678
 30
0.0
 10
12.2107817608
 20
7.7306077874
 30
0.0
 10
12.2087301879
 20
7.7439227229
 30
0.0
 10
12.2068595701
 20
7.7577335454
 30
0.0
 10
12.2051735386
 20
7.7720138643
 30
0.0
 10
12.2036753609
 20
7.7867363728
 30
0.0
 10
12.2023679327
 20
7.8018729032
 30
0.0
 10
12.2012537879
 20
7.8173944906
 30
0.0
 10
12.2003350931
 20
7.8332714285
 30
0.0
 10
12.1996136311
 20
7.8494733241
 30
0.0
 10
12.1990908017
 20
7.8659691469
 30
0.0
 10
12.198767604
 20
7.8827273348
 30
0.0
 10
12.1986028987
 20
7.9055031811
 30
0.0
 10
12.1989052705
 20
7.934390923
 30
0.0
 10
12.2000614606
 20
7.9693931743
 30
0.0
 10
12.202004497
 20
8.0046524144
 30
0.0
 10
12.2047195029
 20
8.0398987407
 30
0.0
 10
12.2081857074
 20
8.0748625825
 30
0.0
 10
12.2123764518
 20
8.1092763137
 30
0.0
 10
12.2164730305
 20
8.1374664658
 30
0.0
 10
12.2200958976
 20
8.1595396885
 30
0.0
 10
12.2229539677
 20
8.1756815835
 30
0.0
 10
12.2259659437
 20
8.1914926161
 30
0.0
 10
12.2291260559
 20
8.2069425432
 30
0.0
 10
12.2324282219
 20
8.2220017894
 30
0.0
 10
12.2358660976
 20
8.2366415354
 30
0.0
 10
12.2394330768
 20
8.2508337718
 30
0.0
 10
12.2431222905
 20
8.2645513625
 30
0.0
 10
12.2469266393
 20
8.277768091
 30
0.0
 10
12.2508388053
 20
8.2904587076
 30
0.0
 10
12.2548512675
 20
8.302598989
 30
0.0
 10
12.2589562973
 20
8.3141657965
 30
0.0
 10
12.2631459998
 20
8.325137123
 30
0.0
 10
12.2674123266
 20
8.3354921144
 30
0.0
 10
12.2717471118
 20
8.345211202
 30
0.0
 10
12.2761420441
 20
8.3542759069
 30
0.0
 10
12.279904344
 20
8.361377702
 30
0.0
 10
12.2829437863
 20
8.3667112036
 30
0.0
 10
12.2851973669
 20
8.3704742719
 30
0.0
 10
12.2874597133
 20
8.3740614247
 30
0.0
 10
12.2897297306
 20
8.3774709798
 30
0.0
 10
12.2920063476
 20
8.3807013179
 30
0.0
 10
12.2942885354
 20
8.3837509183
 30
0.0
 10
12.296575225
 20
8.3866183957
 30
0.0
 10
12.298865419
 20
8.3893023816
 30
0.0
 10
12.3011578956
 20
8.3918014885
 30
0.0
 10
12.3027180358
 20
8.3933748081
 30
0.0
 10
12.3034985071
 20
8.3941286855
 30
0.0
  0
SPLINE
  5
3C4
100
AcDbEntity
  8
0
100
AcDbSpline
 62
7
  6
CONTINUOUS
 70
0
 71
3
 72
15
 73
11
 74
0
 42
0.0000001
 43
0.0000001
 44
0.0000000001
 40
0.0
 40
0.0
 40
0.0
 40
0.0
 40
0.108441033
 40
0.2203202389
 40
0.3363917414
 40
0.457322038
 40
0.5836915292
 40
0.7159988585
 40
0.8546582553
 40
1.0
 40
1.0
 40
1.0
 40
1.0
 10
12.3244627476
 20
8.4064747983
 30
0.0
 10
12.3235897535
 20
8.4062965981
 30
0.0
 10
12.3218324155
 20
8.4058497585
 30
0.0
 10
12.3192218736
 20
8.4049320613
 30
0.0
 10
12.3166028568
 20
8.4037591854
 30
0.0
 10
12.3139772417
 20
8.4023323101
 30
0.0
 10
12.3113463479
 20
8.4006526429
 30
0.0
 10
12.3087115927
 20
8.3987214121
 30
0.0
 10
12.3060745818
 20
8.396540102
 30
0.0
 10
12.3043574319
 20
8.3949583432
 30
0.0
 10
12.3034985071
 20
8.3941286855
 30
0.0
  0
SPLINE
  5
3C5
100
AcDbEntity
  8
0
100
AcDbSpline
 62
7
  6
CONTINUOUS
 70
0
 71
3
 72
39
 73
35
 74
0
 42
0.0000001
 43
0.0000001
 44
0.0000000001
 40
0.0
 40
0.0
 40
0.0
 40
0.0
 40
0.031947825
 40
0.0637877465
 40
0.095519278
 40
0.1271452215
 40
0.1586681268
 40
0.1900920692
 40
0.221421968
 40
0.2526637309
 40
0.2838241651
 40
0.3149109163
 40
0.3459323978
 40
0.3768977054
 40
0.4078165267
 40
0.438699041
 40
0.4695558144
 40
0.5003976877
 40
0.5312356614
 40
0.5620807777
 40
0.5929440022
 40
0.6238361064
 40
0.6547675538
 40
0.6857483901
 40
0.7167881394
 40
0.7478957064
 40
0.7790792868
 40
0.8103462872
 40
0.8417032541
 40
0.8731558151
 40
0.9047086312
 40
0.9363653585
 40
0.9681286222
 40
1.0
 40
1.0
 40
1.0
 40
1.0
 10
10.6823500294
 20
8.4103735022
 30
0.0
 10
10.688739475
 20
8.4099303926
 30
0.0
 10
10.701520611
 20
8.4093567068
 30
0.0
 10
10.7206772174
 20
8.4094396473
 30
0.0
 10
10.7397423443
 20
8.4104673634
 30
0.0
 10
10.758669309
 20
8.4124373109
 30
0.0
 10
10.7774127849
 20
8.4153448889
 30
0.0
 10
10.7959275014
 20
8.4191830871
 30
0.0
 10
10.8141688524
 20
8.423942731
 30
0.0
 10
10.8320928506
 20
8.4296123827
 30
0.0
 10
10.8496562785
 20
8.43617841
 30
0.0
 10
10.8668167798
 20
8.4436250184
 30
0.0
 10
10.8835329645
 20
8.451934286
 30
0.0
 10
10.8997645085
 20
8.4610862078
 30
0.0
 10
10.9154722514
 20
8.4710587425
 30
0.0
 10
10.9306182944
 20
8.4818278618
 30
0.0
 10
10.9451661011
 20
8.4933675984
 30
0.0
 10
10.9590805782
 20
8.5056501248
 30
0.0
 10
10.9723281612
 20
8.5186458183
 30
0.0
 10
10.9848768964
 20
8.5323233333
 30
0.0
 10
10.9966965184
 20
8.5466496774
 30
0.0
 10
11.0077585218
 20
8.5615902924
 30
0.0
 10
11.0180362453
 20
8.5771091286
 30
0.0
 10
11.0275049273
 20
8.5931687425
 30
0.0
 10
11.0361417612
 20
8.6097303904
 30
0.0
 10
11.0439259511
 20
8.6267541223
 30
0.0
 10
11.0508387607
 20
8.6441988787
 30
0.0
 10
11.0568635557
 20
8.6620225916
 30
0.0
 10
11.0619858522
 20
8.6801822786
 30
0.0
 10
11.0661933556
 20
8.6986341659
 30
0.0
 10
11.0694759747
 20
8.7173337308
 30
0.0
 10
11.0718258473
 20
8.7362360651
 30
0.0
 10
11.073237357
 20
8.755295017
 30
0.0
 10
11.0735500177
 20
8.7680545419
 30
0.0
 10
11.0735500122
 20
8.7744440081
 30
0.0
  0
SPLINE
  5
3C6
100
AcDbEntity
  8
0
100
AcDbSpline
 62
7
  6
CONTINUOUS
 70
0
 71
3
 72
22
 73
18
 74
0
 42
0.0000001
 43
0.0000001
 44
0.0000000001
 40
0.0
 40
0.0
 40
0.0
 40
0.0
 40
0.0462143304
 40
0.0948325216
 40
0.1458313847
 40
0.1991835763
 40
0.2548484047
 40
0.3127746862
 40
0.3729035269
 40
0.4351684267
 40
0.4994960721
 40
0.5658062682
 40
0.634012666
 40
0.7040224203
 40
0.7757357569
 40
0.8490466952
 40
1.0
 40
1.0
 40
1.0
 40
1.0
 10
10.6972806614
 20
9.0683445048
 30
0.0
 10
10.6978120583
 20
9.0698503555
 30
0.0
 10
10.6988432489
 20
9.072961496
 30
0.0
 10
10.7002743292
 20
9.0777936881
 30
0.0
 10
10.7016351908
 20
9.0829017104
 30
0.0
 10
10.7029329173
 20
9.088276786
 30
0.0
 10
10.7041754061
 20
9.0939101673
 30
0.0
 10
10.7053709606
 20
9.0997927465
 30
0.0
 10
10.7065285594
 20
9.1059150944
 30
0.0
 10
10.7076575402
 20
9.1122675102
 30
0.0
 10
10.7087675782
 20
9.1188399364
 30
0.0
 10
10.7098686891
 20
9.1256219065
 30
0.0
 10
10.710971015
 20
9.1326025002
 30
0.0
 10
10.7120848638
 20
9.1397702511
 30
0.0
 10
10.7132205905
 20
9.1471130971
 30
0.0
 10
10.714793054
 20
9.1572185079
 30
0.0
 10
10.7160131861
 20
9.1648710442
 30
0.0
 10
10.7168612925
 20
9.1700175817
 30
0.0
  0
SPLINE
  5
3C7
100
AcDbEntity
  8
0
100
AcDbSpline
 62
7
  6
CONTINUOUS
 70
0
 71
3
 72
50
 73
46
 74
0
 42
0.0000001
 43
0.0000001
 44
0.0000000001
 40
0.0
 40
0.0
 40
0.0
 40
0.0
 40
0.0311431289
 40
0.0624393576
 40
0.0938826422
 40
0.1254633877
 40
0.1571693586
 40
0.1889858073
 40
0.2208957881
 40
0.2528805179
 40
0.2849197558
 40
0.3169922025
 40
0.3490759178
 40
0.3811487443
 40
0.413188734
 40
0.4451745738
 40
0.4770860011
 40
0.5089042032
 40
0.5406122026
 40
0.5721952059
 40
0.6036409272
 40
0.6349398689
 40
0.6660855498
 40
0.6816023422
 40
0.6970798651
 40
0.7125182278
 40
0.7279177509
 40
0.7432789634
 40
0.7586026044
 40
0.7738896213
 40
0.7891411632
 40
0.8043585763
 40
0.8195434009
 40
0.8346973614
 40
0.8498223561
 40
0.8649204511
 40
0.879993868
 40
0.8950449698
 40
0.9100762497
 40
0.9250903183
 40
0.940089886
 40
0.9550777481
 40
0.9700567702
 40
0.9850298702
 40
1.0
 40
1.0
 40
1.0
 40
1.0
 10
10.6740678266
 20
8.2236772197
 30
0.0
 10
10.6601514843
 20
8.2246423213
 30
0.0
 10
10.6323106751
 20
8.2275959029
 30
0.0
 10
10.5908870082
 20
8.2350360003
 30
0.0
 10
10.5499070262
 20
8.2454573948
 30
0.0
 10
10.5095920684
 20
8.2588040038
 30
0.0
 10
10.4701562751
 20
8.2750042787
 30
0.0
 10
10.4318100577
 20
8.293971621
 30
0.0
 10
10.3947576545
 20
8.3156046017
 30
0.0
 10
10.3591965195
 20
8.3397877507
 30
0.0
 10
10.3253161362
 20
8.3663920386
 30
0.0
 10
10.2932969902
 20
8.3952755237
 30
0.0
 10
10.2633097728
 20
8.4262842801
 30
0.0
 10
10.2355142656
 20
8.4592529735
 30
0.0
 10
10.2100586812
 20
8.4940059323
 30
0.0
 10
10.1870788155
 20
8.5303579867
 30
0.0
 10
10.1666972335
 20
8.5681154069
 30
0.0
 10
10.1490228512
 20
8.6070770414
 30
0.0
 10
10.1341500752
 20
8.6470352674
 30
0.0
 10
10.1221585127
 20
8.6877770257
 30
0.0
 10
10.1131125
 20
8.7290855435
 30
0.0
 10
10.1070605848
 20
8.7707390484
 30
0.0
 10
10.1045365512
 20
8.80560196
 30
0.0
 10
10.1040448019
 20
8.8334367205
 30
0.0
 10
10.1044375229
 20
8.8542362123
 30
0.0
 10
10.1055909453
 20
8.8749545644
 30
0.0
 10
10.1075034938
 20
8.8955644584
 30
0.0
 10
10.1101726821
 20
8.916038273
 30
0.0
 10
10.1135949438
 20
8.9363486883
 30
0.0
 10
10.1177656958
 20
8.9564685754
 30
0.0
 10
10.1226794111
 20
8.9763710557
 30
0.0
 10
10.1283295573
 20
8.9960295357
 30
0.0
 10
10.1347085606
 20
9.0154177644
 30
0.0
 10
10.1418079248
 20
9.0345098371
 30
0.0
 10
10.1496182158
 20
9.0532802289
 30
0.0
 10
10.1581289728
 20
9.0717038738
 30
0.0
 10
10.1673288309
 20
9.0897561583
 30
0.0
 10
10.1772055479
 20
9.107412938
 30
0.0
 10
10.1877459174
 20
9.1246506259
 30
0.0
 10
10.1989358407
 20
9.1414461991
 30
0.0
 10
10.2107604066
 20
9.157777199
 30
0.0
 10
10.2232038055
 20
9.1736217727
 30
0.0
 10
10.2362494617
 20
9.1889588443
 30
0.0
 10
10.2498796607
 20
9.2037676337
 30
0.0
 10
10.2593450848
 20
9.2132757601
 30
0.0
 10
10.264168041
 20
9.2179343694
 30
0.0
  0
SPLINE
  5
3C8
100
AcDbEntity
  8
0
100
AcDbSpline
 62
7
  6
CONTINUOUS
 70
0
 71
3
 72
39
 73
35
 74
0
 42
0.0000001
 43
0.0000001
 44
0.0000000001
 40
0.0
 40
0.0
 40
0.0
 40
0.0
 40
0.0319667003
 40
0.0638285665
 40
0.0955845571
 40
0.1272376005
 40
0.1587899229
 40
0.1902452756
 40
0.2216082032
 40
0.2528841451
 40
0.2840793958
 40
0.3152010293
 40
0.3462568453
 40
0.3772552955
 40
0.408205405
 40
0.4391166835
 40
0.4699990312
 40
0.5008626395
 40
0.531717889
 40
0.5625752458
 40
0.5934451554
 40
0.6243379365
 40
0.6552636758
 40
0.6862321261
 40
0.7172526115
 40
0.7483339367
 40
0.779484302
 40
0.8107112252
 40
0.8420214718
 40
0.8734209951
 40
0.9049148879
 40
0.9365073412
 40
0.968201612
 40
1.0
 40
1.0
 40
1.0
 40
1.0
 10
10.7108201008
 20
8.4663435778
 30
0.0
 10
10.7165876335
 20
8.465943598
 30
0.0
 10
10.7281246681
 20
8.4654182961
 30
0.0
 10
10.7454180374
 20
8.4654592709
 30
0.0
 10
10.7626331676
 20
8.4663304641
 30
0.0
 10
10.77973006
 20
8.4680297848
 30
0.0
 10
10.7966699573
 20
8.4705535017
 30
0.0
 10
10.8134140706
 20
8.4738958544
 30
0.0
 10
10.8299241786
 20
8.4780492519
 30
0.0
 10
10.8461625594
 20
8.483004233
 30
0.0
 10
10.8620921113
 20
8.4887495101
 30
0.0
 10
10.8776764307
 20
8.4952719943
 30
0.0
 10
10.8928798928
 20
8.5025568242
 30
0.0
 10
10.9076677475
 20
8.5105873729
 30
0.0
 10
10.9220061965
 20
8.5193453004
 30
0.0
 10
10.9358624636
 20
8.5288106078
 30
0.0
 10
10.9492048714
 20
8.5389616785
 30
0.0
 10
10.9620029096
 20
8.5497753315
 30
0.0
 10
10.9742273221
 20
8.5612268541
 30
0.0
 10
10.9858501764
 20
8.5732900632
 30
0.0
 10
10.9968449119
 20
8.5859373833
 30
0.0
 10
11.0071864045
 20
8.5991399044
 30
0.0
 10
11.0168510193
 20
8.6128674519
 30
0.0
 10
11.0258166783
 20
8.6270886439
 30
0.0
 10
11.0340629232
 20
8.6417709616
 30
0.0
 10
11.041570936
 20
8.6568808412
 30
0.0
 10
11.0483235868
 20
8.672383747
 30
0.0
 10
11.0543054678
 20
8.6882442523
 30
0.0
 10
11.0595029367
 20
8.704426112
 30
0.0
 10
11.0639041694
 20
8.7208923563
 30
0.0
 10
11.067499154
 20
8.7376053295
 30
0.0
 10
11.0702797202
 20
8.7545269954
 30
0.0
 10
11.0722395388
 20
8.7716181891
 30
0.0
 10
11.0729947316
 20
8.7830816602
 30
0.0
 10
11.0732350351
 20
8.7888275825
 30
0.0
  0
SPLINE
  5
3C9
100
AcDbEntity
  8
0
100
AcDbSpline
 62
7
  6
CONTINUOUS
 70
0
 71
3
 72
23
 73
19
 74
0
 42
0.0000001
 43
0.0000001
 44
0.0000000001
 40
0.0
 40
0.0
 40
0.0
 40
0.0
 40
0.0638616659
 40
0.1275031319
 40
0.1909230611
 40
0.254127678
 40
0.3171223919
 40
0.3799159314
 40
0.4425188212
 40
0.5049436698
 40
0.5672049956
 40
0.6293190753
 40
0.6913037911
 40
0.7531784391
 40
0.8149635278
 40
0.876680559
 40
0.9383517927
 40
1.0
 40
1.0
 40
1.0
 40
1.0
 10
10.7187206981
 20
8.5034604255
 30
0.0
 10
10.7242834154
 20
8.5030746498
 30
0.0
 10
10.7354109131
 20
8.5025811793
 30
0.0
 10
10.7520877905
 20
8.502680561
 30
0.0
 10
10.7686814885
 20
8.5036206291
 30
0.0
 10
10.785149545
 20
8.5053989362
 30
0.0
 10
10.8014507762
 20
8.5080111546
 30
0.0
 10
10.8175440461
 20
8.5114507059
 30
0.0
 10
10.8333888513
 20
8.5157090015
 30
0.0
 10
10.8489452792
 20
8.5207753449
 30
0.0
 10
10.8641741449
 20
8.5266370118
 30
0.0
 10
10.8790370817
 20
8.5332792743
 30
0.0
 10
10.8934966356
 20
8.5406854323
 30
0.0
 10
10.9075163732
 20
8.5488368701
 30
0.0
 10
10.921060925
 20
8.5577130481
 30
0.0
 10
10.9340962799
 20
8.5672917228
 30
0.0
 10
10.9465891392
 20
8.5775483493
 30
0.0
 10
10.9545366693
 20
8.5848223366
 30
0.0
 10
10.9584082736
 20
8.5885620323
 30
0.0
  0
SPLINE
  5
3CA
100
AcDbEntity
  8
0
100
AcDbSpline
 62
7
  6
CONTINUOUS
 70
0
 71
3
 72
25
 73
21
 74
0
 42
0.0000001
 43
0.0000001
 44
0.0000000001
 40
0.0
 40
0.0
 40
0.0
 40
0.0
 40
0.0616475256
 40
0.0924812752
 40
0.1233236417
 40
0.1850399904
 40
0.2468243943
 40
0.277751631
 40
0.3087038637
 40
0.3706878925
 40
0.4328012858
 40
0.495061923
 40
0.5574860832
 40
0.6200882745
 40
0.682881117
 40
0.745875147
 40
0.8090789725
 40
0.8724984981
 40
0.9361386362
 40
1.0
 40
1.0
 40
1.0
 40
1.0
 10
11.0158834437
 20
6.3871080273
 30
0.0
 10
11.0103621865
 20
6.381774897
 30
0.0
 10
11.0018618949
 20
6.3739949958
 30
0.0
 10
10.9901242677
 20
6.3640912651
 30
0.0
 10
10.9781178979
 20
6.3545007506
 30
0.0
 10
10.9626229038
 20
6.3431145945
 30
0.0
 10
10.9465312392
 20
6.3325692642
 30
0.0
 10
10.9333225336
 20
6.324651058
 30
0.0
 10
10.9198856663
 20
6.3170758421
 30
0.0
 10
10.9026929881
 20
6.308269724
 30
0.0
 10
10.8814973561
 20
6.2987973838
 30
0.0
 10
10.8597795862
 20
6.290438088
 30
0.0
 10
10.8375947588
 20
6.2832130454
 30
0.0
 10
10.8149986603
 20
6.2771403373
 30
0.0
 10
10.7920482363
 20
6.2722352186
 30
0.0
 10
10.7688012492
 20
6.268509955
 30
0.0
 10
10.7453163184
 20
6.2659738981
 30
0.0
 10
10.7216522861
 20
6.2646333126
 30
0.0
 10
10.6978695734
 20
6.2644915488
 30
0.0
 10
10.6820008041
 20
6.2651952999
 30
0.0
 10
10.6740678266
 20
6.2657454538
 30
0.0
  0
SPLINE
  5
3CB
100
AcDbEntity
  8
0
100
AcDbSpline
 62
7
  6
CONTINUOUS
 70
0
 71
3
 72
35
 73
31
 74
0
 42
0.0000001
 43
0.0000001
 44
0.0000000001
 40
0.0
 40
0.0
 40
0.0
 40
0.0
 40
0.0639637781
 40
0.127559695
 40
0.1908002138
 40
0.2537059104
 40
0.2850498926
 40
0.31632253
 40
0.3475290699
 40
0.3786752394
 40
0.4097672191
 40
0.4408116062
 40
0.4718153498
 40
0.5027857084
 40
0.5337302024
 40
0.5646565427
 40
0.59557258
 40
0.6264862508
 40
0.6574055027
 40
0.6883382408
 40
0.7192922734
 40
0.7502752383
 40
0.7812945527
 40
0.812357364
 40
0.8434704811
 40
0.8746403341
 40
0.9058729348
 40
0.9371738153
 40
0.9685480051
 40
1.0
 40
1.0
 40
1.0
 40
1.0
 10
10.7097848255
 20
6.498773136
 30
0.0
 10
10.7174340312
 20
6.4982426618
 30
0.0
 10
10.732739938
 20
6.4978143941
 30
0.0
 10
10.7556022158
 20
6.4990915061
 30
0.0
 10
10.7781500776
 20
6.5022805725
 30
0.0
 10
10.7965729314
 20
6.5065201805
 30
0.0
 10
10.8109901731
 20
6.5108407893
 30
0.0
 10
10.8216167765
 20
6.5145357223
 30
0.0
 10
10.8320497701
 20
6.5186821388
 30
0.0
 10
10.8422713266
 20
6.5232729805
 30
0.0
 10
10.8522636816
 20
6.5283002792
 30
0.0
 10
10.8620095732
 20
6.5337553042
 30
0.0
 10
10.8714920825
 20
6.5396286832
 30
0.0
 10
10.8806948092
 20
6.5459102148
 30
0.0
 10
10.8896018325
 20
6.5525890093
 30
0.0
 10
10.8981976816
 20
6.5596535646
 30
0.0
 10
10.9064675087
 20
6.5670916003
 30
0.0
 10
10.9143969967
 20
6.5748902395
 30
0.0
 10
10.9219723687
 20
6.5830360225
 30
0.0
 10
10.9291805621
 20
6.5915147919
 30
0.0
 10
10.9360090835
 20
6.6003118812
 30
0.0
 10
10.9424460754
 20
6.6094120811
 30
0.0
 10
10.9484804591
 20
6.618799588
 30
0.0
 10
10.9541017586
 20
6.6284581705
 30
0.0
 10
10.9593002292
 20
6.638371109
 30
0.0
 10
10.9640669423
 20
6.6485212121
 30
0.0
 10
10.9683935991
 20
6.6588909121
 30
0.0
 10
10.9722727396
 20
6.6694623211
 30
0.0
 10
10.9756976581
 20
6.6802168529
 30
0.0
 10
10.9776717462
 20
6.6874875871
 30
0.0
 10
10.9785813975
 20
6.6911464748
 30
0.0
  0
SPLINE
  5
3CC
100
AcDbEntity
  8
0
100
AcDbSpline
 62
7
  6
CONTINUOUS
 70
0
 71
3
 72
14
 73
10
 74
0
 42
0.0000001
 43
0.0000001
 44
0.0000000001
 40
0.0
 40
0.0
 40
0.0
 40
0.0
 40
0.24621469
 40
0.372002829
 40
0.4988239994
 40
0.6259481455
 40
0.7525115375
 40
0.877541492
 40
1.0
 40
1.0
 40
1.0
 40
1.0
 10
10.8967038267
 20
8.9214126966
 30
0.0
 10
10.908413606
 20
8.9153393628
 30
0.0
 10
10.9264113091
 20
8.9067350194
 30
0.0
 10
10.9510619417
 20
8.8964036766
 30
0.0
 10
10.9700825317
 20
8.8891729096
 30
0.0
 10
10.989378263
 20
8.8825833652
 30
0.0
 10
11.0088000565
 20
8.8766969717
 30
0.0
 10
11.0281760536
 20
8.8715652999
 30
0.0
 10
11.0411103323
 20
8.8686319357
 30
0.0
 10
11.0475342678
 20
8.8672989709
 30
0.0
  0
SPLINE
  5
3CD
100
AcDbEntity
  8
0
100
AcDbSpline
 62
7
  6
CONTINUOUS
 70
0
 71
3
 72
15
 73
11
 74
0
 42
0.0000001
 43
0.0000001
 44
0.0000000001
 40
0.0
 40
0.0
 40
0.0
 40
0.0
 40
0.1232681434
 40
0.2468879269
 40
0.3709466146
 40
0.4955202263
 40
0.6206715925
 40
0.74644966
 40
0.8728859006
 40
1.0
 40
1.0
 40
1.0
 40
1.0
 10
10.9610800888
 20
6.7299285425
 30
0.0
 10
10.9568048466
 20
6.7271956419
 30
0.0
 10
10.948012655
 20
6.722072032
 30
0.0
 10
10.9342213639
 20
6.7154808553
 30
0.0
 10
10.9198895733
 20
6.7100113437
 30
0.0
 10
10.9051037016
 20
6.705696561
 30
0.0
 10
10.8899514553
 20
6.7025617203
 30
0.0
 10
10.8745227085
 20
6.7006253419
 30
0.0
 10
10.8589102286
 20
6.6998985118
 30
0.0
 10
10.8484661237
 20
6.7002224504
 30
0.0
 10
10.8432462545
 20
6.7005844495
 30
0.0
  0
SPLINE
  5
3CE
100
AcDbEntity
  8
0
100
AcDbSpline
 62
7
  6
CONTINUOUS
 70
0
 71
3
 72
27
 73
23
 74
0
 42
0.0000001
 43
0.0000001
 44
0.0000000001
 40
0.0
 40
0.0
 40
0.0
 40
0.0
 40
0.06164689
 40
0.0924803204
 40
0.1233223709
 40
0.1850380842
 40
0.2468218522
 40
0.2777487695
 40
0.3087006862
 40
0.3706840773
 40
0.432796832
 40
0.4950568298
 40
0.5574803489
 40
0.6200818994
 40
0.6828740929
 40
0.7143476873
 40
0.7458727129
 40
0.8090758403
 40
0.872494838
 40
0.9042889691
 40
0.9361391443
 40
1.0
 40
1.0
 40
1.0
 40
1.0
 10
11.0839676121
 20
8.3692126126
 30
0.0
 10
11.0773466051
 20
8.3628172228
 30
0.0
 10
11.067153158
 20
8.353487743
 30
0.0
 10
11.0530775722
 20
8.3416113841
 30
0.0
 10
11.0386796973
 20
8.3301106519
 30
0.0
 10
11.0200983367
 20
8.3164566014
 30
0.0
 10
11.000801438
 20
8.3038108952
 30
0.0
 10
10.9849617953
 20
8.294315494
 30
0.0
 10
10.9688484806
 20
8.2852315129
 30
0.0
 10
10.9482313109
 20
8.2746713738
 30
0.0
 10
10.9228138405
 20
8.2633123506
 30
0.0
 10
10.8967702672
 20
8.2532880599
 30
0.0
 10
10.870166511
 20
8.2446239294
 30
0.0
 10
10.8430699309
 20
8.2373417165
 30
0.0
 10
10.8201520487
 20
8.2324436155
 30
0.0
 10
10.8016433488
 20
8.2292314046
 30
0.0
 10
10.7829973365
 20
8.2264877121
 30
0.0
 10
10.7595077495
 20
8.2239510986
 30
0.0
 10
10.7358795158
 20
8.2226126188
 30
0.0
 10
10.7169073686
 20
8.2222587766
 30
0.0
 10
10.6978667453
 20
8.2223839588
 30
0.0
 10
10.6835809409
 20
8.223017483
 30
0.0
 10
10.6740678266
 20
8.2236772197
 30
0.0
  0
LINE
  5
3CF
100
AcDbEntity
  8
0
100
AcDbLine
 62
7
  6
CONTINUOUS
 10
10.8960741325
 20
8.9215228905
 11
10.8967038267
 21
8.9214126966
  0
SPLINE
  5
3D0
100
AcDbEntity
  8
0
100
AcDbSpline
 62
7
  6
CONTINUOUS
 70
0
 71
3
 72
23
 73
19
 74
0
 42
0.0000001
 43
0.0000001
 44
0.0000000001
 40
0.0
 40
0.0
 40
0.0
 40
0.0
 40
0.0638611429
 40
0.1275033697
 40
0.1909230193
 40
0.2541276602
 40
0.3171224166
 40
0.3799159195
 40
0.4425188183
 40
0.5049436681
 40
0.5672049987
 40
0.6293190785
 40
0.6913037901
 40
0.7531784362
 40
0.8149635271
 40
0.8766805602
 40
0.9383517934
 40
1.0
 40
1.0
 40
1.0
 40
1.0
 10
10.7180590059
 20
6.5376450699
 30
0.0
 10
10.722162484
 20
6.5373604927
 30
0.0
 10
10.730371045
 20
6.5369964823
 30
0.0
 10
10.7426732606
 20
6.5370697722
 30
0.0
 10
10.7549141509
 20
6.5377632551
 30
0.0
 10
10.7670623134
 20
6.539075064
 30
0.0
 10
10.7790874257
 20
6.5410020556
 30
0.0
 10
10.7909591248
 20
6.5435393646
 30
0.0
 10
10.802647539
 20
6.5466806212
 30
0.0
 10
10.8141232282
 20
6.5504179533
 30
0.0
 10
10.8253572773
 20
6.5547419918
 30
0.0
 10
10.8363213799
 20
6.5596418769
 30
0.0
 10
10.8469879162
 20
6.5651052666
 30
0.0
 10
10.8573300152
 20
6.571118423
 30
0.0
 10
10.8673215828
 20
6.577666202
 30
0.0
 10
10.8769375152
 20
6.5847322151
 30
0.0
 10
10.8861532575
 20
6.5922983402
 30
0.0
 10
10.8920160056
 20
6.5976642183
 30
0.0
 10
10.8948720135
 20
6.6004229229
 30
0.0
  0
SPLINE
  5
3D1
100
AcDbEntity
  8
0
100
AcDbSpline
 62
7
  6
CONTINUOUS
 70
0
 71
3
 72
37
 73
33
 74
0
 42
0.0000001
 43
0.0000001
 44
0.0000000001
 40
0.0
 40
0.0
 40
0.0
 40
0.0
 40
0.0639290906
 40
0.1274756122
 40
0.1591172332
 40
0.1906690425
 40
0.2221345285
 40
0.2535177049
 40
0.2848232653
 40
0.3160565331
 40
0.3472233986
 40
0.3783302993
 40
0.409384161
 40
0.4403923365
 40
0.4713625604
 40
0.5023028832
 40
0.5332215977
 40
0.5641271771
 40
0.5950282089
 40
0.6259333154
 40
0.6568510818
 40
0.6877899924
 40
0.7187583568
 40
0.7497642345
 40
0.7808153772
 40
0.8119191685
 40
0.8430825557
 40
0.874311998
 40
0.9056134272
 40
0.9369921937
 40
0.9684530234
 40
1.0
 40
1.0
 40
1.0
 40
1.0
 10
10.6823500294
 20
6.4505098845
 30
0.0
 10
10.6909426299
 20
6.4499139857
 30
0.0
 10
10.7081364129
 20
6.4494622025
 30
0.0
 10
10.7295632666
 20
6.4507719005
 30
0.0
 10
10.7465054995
 20
6.4529416315
 30
0.0
 10
10.7590756045
 20
6.4551224421
 30
0.0
 10
10.7715016177
 20
6.4578548786
 30
0.0
 10
10.7837604717
 20
6.4611338385
 30
0.0
 10
10.795829083
 20
6.4649531418
 30
0.0
 10
10.8076847945
 20
6.4693056643
 30
0.0
 10
10.8193053221
 20
6.4741832661
 30
0.0
 10
10.8306688565
 20
6.4795767542
 30
0.0
 10
10.8417540437
 20
6.4854760277
 30
0.0
 10
10.8525400351
 20
6.4918700522
 30
0.0
 10
10.8630065902
 20
6.4987467807
 30
0.0
 10
10.8731340456
 20
6.5060933043
 30
0.0
 10
10.8829033406
 20
6.5138958689
 30
0.0
 10
10.8922961437
 20
6.5221397857
 30
0.0
 10
10.9012948212
 20
6.5308095585
 30
0.0
 10
10.909882432
 20
6.5398889362
 30
0.0
 10
10.9180428574
 20
6.5493608442
 30
0.0
 10
10.9257607971
 20
6.5592074654
 30
0.0
 10
10.9330217256
 20
6.5694103247
 30
0.0
 10
10.9398120039
 20
6.5799502519
 30
0.0
 10
10.9461189248
 20
6.5908074184
 30
0.0
 10
10.9519306311
 20
6.6019614408
 30
0.0
 10
10.9572361909
 20
6.6133913733
 30
0.0
 10
10.962025702
 20
6.6250757265
 30
0.0
 10
10.9662901732
 20
6.6369925353
 30
0.0
 10
10.9700215856
 20
6.6491195165
 30
0.0
 10
10.9732129293
 20
6.6614335564
 30
0.0
 10
10.9749741643
 20
6.6697413526
 30
0.0
 10
10.9757631822
 20
6.6739178354
 30
0.0
  0
SPLINE
  5
3D2
100
AcDbEntity
  8
0
100
AcDbSpline
 62
7
  6
CONTINUOUS
 70
0
 71
3
 72
15
 73
11
 74
0
 42
0.0000001
 43
0.0000001
 44
0.0000000001
 40
0.0
 40
0.0
 40
0.0
 40
0.0
 40
0.1233716063
 40
0.2471188855
 40
0.3712972538
 40
0.4959542072
 40
0.6211283676
 40
0.7468495006
 40
0.8731362762
 40
1.0
 40
1.0
 40
1.0
 40
1.0
 10
11.0243089404
 20
8.682594341
 30
0.0
 10
11.0181560695
 20
8.6794548331
 30
0.0
 10
11.0056080821
 20
8.6735938419
 30
0.0
 10
10.9861944534
 20
8.6661144904
 30
0.0
 10
10.9662432087
 20
8.6599652629
 30
0.0
 10
10.9458416305
 20
8.655173166
 30
0.0
 10
10.9250775111
 20
8.651758521
 30
0.0
 10
10.9040402259
 20
8.649735994
 30
0.0
 10
10.8828215948
 20
8.6491139798
 30
0.0
 10
10.8686452353
 20
8.6496337214
 30
0.0
 10
10.8615591758
 20
8.6501251412
 30
0.0
  0
SPLINE
  5
3D3
100
AcDbEntity
  8
0
100
AcDbSpline
 62
7
  6
CONTINUOUS
 70
0
 71
3
 72
15
 73
11
 74
0
 42
0.0000001
 43
0.0000001
 44
0.0000000001
 40
0.0
 40
0.0
 40
0.0
 40
0.0
 40
0.1265435369
 40
0.2498718337
 40
0.3713381771
 40
0.4923645349
 40
0.6143898056
 40
0.7388149646
 40
0.8669542867
 40
1.0
 40
1.0
 40
1.0
 40
1.0
 10
11.2174672801
 20
10.1298725724
 30
0.0
 10
11.217066816
 20
10.1309402724
 30
0.0
 10
11.21637947
 20
10.1330894467
 30
0.0
 10
11.2157043607
 20
10.1363734345
 30
0.0
 10
11.215402802
 20
10.139663249
 30
0.0
 10
11.2154757715
 20
10.1429543035
 30
0.0
 10
11.2159229809
 20
10.1462423805
 30
0.0
 10
11.2167434039
 20
10.1495234695
 30
0.0
 10
11.2179350601
 20
10.1527936845
 30
0.0
 10
11.2189540925
 20
10.1549197408
 30
0.0
 10
11.2195192107
 20
10.1559771251
 30
0.0
  0
SPLINE
  5
3D4
100
AcDbEntity
  8
0
100
AcDbSpline
 62
7
  6
CONTINUOUS
 70
0
 71
3
 72
11
 73
7
 74
0
 42
0.0000001
 43
0.0000001
 44
0.0000000001
 40
0.0
 40
0.0
 40
0.0
 40
0.0
 40
0.2428904492
 40
0.4886891857
 40
0.7401944715
 40
1.0
 40
1.0
 40
1.0
 40
1.0
 10
11.2166333466
 20
10.1341147401
 30
0.0
 10
11.2166333424
 20
10.1352106473
 30
0.0
 10
11.2167597101
 20
10.1374175862
 30
0.0
 10
11.2173266303
 20
10.1407155439
 30
0.0
 10
11.2182698833
 20
10.1440052824
 30
0.0
 10
11.2191319857
 20
10.1461499153
 30
0.0
 10
11.2196196427
 20
10.1472158922
 30
0.0
  0
SPLINE
  5
3D5
100
AcDbEntity
  8
0
100
AcDbSpline
 62
7
  6
CONTINUOUS
 70
0
 71
3
 72
15
 73
11
 74
0
 42
0.0000001
 43
0.0000001
 44
0.0000000001
 40
0.0
 40
0.0
 40
0.0
 40
0.0
 40
0.1331280495
 40
0.2613154534
 40
0.3857579216
 40
0.50777547
 40
0.6287754839
 40
0.7502044769
 40
0.8734925105
 40
1.0
 40
1.0
 40
1.0
 40
1.0
 10
12.0747087012
 20
10.1560495145
 30
0.0
 10
12.0752780161
 20
10.1549894077
 30
0.0
 10
12.0763048335
 20
10.1528578371
 30
0.0
 10
12.0775066508
 20
10.1495786493
 30
0.0
 10
12.0783351171
 20
10.146288434
 30
0.0
 10
12.0787883553
 20
10.1429911383
 30
0.0
 10
12.0788651604
 20
10.1396907891
 30
0.0
 10
12.0785654076
 20
10.1363916486
 30
0.0
 10
12.0778898877
 20
10.1330983719
 30
0.0
 10
12.0772009849
 20
10.1309432066
 30
0.0
 10
12.0767994205
 20
10.1298725722
 30
0.0
  0
SPLINE
  5
3D6
100
AcDbEntity
  8
0
100
AcDbSpline
 62
7
  6
CONTINUOUS
 70
0
 71
3
 72
42
 73
38
 74
0
 42
0.0000001
 43
0.0000001
 44
0.0000000001
 40
0.0
 40
0.0
 40
0.0
 40
0.0
 40
0.0309672751
 40
0.0465037444
 40
0.0620731798
 40
0.0933057168
 40
0.1246619486
 40
0.1561333681
 40
0.1877095618
 40
0.2193785228
 40
0.2511268099
 40
0.2829397747
 40
0.3148017886
 40
0.346696484
 40
0.3786070024
 40
0.4105162486
 40
0.4424071461
 40
0.4742628936
 40
0.5060672173
 40
0.5378046191
 40
0.5694606156
 40
0.6010219658
 40
0.632476885
 40
0.6638152417
 40
0.6950287334
 40
0.7261110395
 40
0.7570579467
 40
0.7878674444
 40
0.8185397873
 40
0.8490775211
 40
0.864299403
 40
0.8794896324
 40
0.9097748465
 40
0.9399465073
 40
0.9549953209
 40
0.970020096
 40
1.0
 40
1.0
 40
1.0
 40
1.0
 10
10.8615591758
 20
8.6501251412
 30
0.0
 10
10.8545774285
 20
8.6506093271
 30
0.0
 10
10.8441123116
 20
8.6516736864
 30
0.0
 10
10.8302376668
 20
8.6537558652
 30
0.0
 10
10.8163763458
 20
8.6562865104
 30
0.0
 10
10.7991571747
 20
8.6602796044
 30
0.0
 10
10.7787767475
 20
8.6663691668
 30
0.0
 10
10.7587396227
 20
8.6737365883
 30
0.0
 10
10.739129262
 20
8.6823511879
 30
0.0
 10
10.7200267189
 20
8.6921772198
 30
0.0
 10
10.7015111085
 20
8.7031739196
 30
0.0
 10
10.6836590666
 20
8.7152956953
 30
0.0
 10
10.6665444942
 20
8.7284923114
 30
0.0
 10
10.6502382386
 20
8.7427090962
 30
0.0
 10
10.6348078067
 20
8.7578871671
 30
0.0
 10
10.6203170872
 20
8.7739636725
 30
0.0
 10
10.6068260877
 20
8.7908720501
 30
0.0
 10
10.5943906888
 20
8.8085423008
 30
0.0
 10
10.5830624136
 20
8.8269012753
 30
0.0
 10
10.572888215
 20
8.8458729744
 30
0.0
 10
10.5639102822
 20
8.8653788612
 30
0.0
 10
10.5561658675
 20
8.885338183
 30
0.0
 10
10.5496871312
 20
8.9056683022
 30
0.0
 10
10.5445010082
 20
8.9262850363
 30
0.0
 10
10.5406290943
 20
8.9471029975
 30
0.0
 10
10.5380875585
 20
8.9680359609
 30
0.0
 10
10.536887059
 20
8.9889971517
 30
0.0
 10
10.5370327462
 20
9.0098998469
 30
0.0
 10
10.5385240508
 20
9.0306568215
 30
0.0
 10
10.5408860653
 20
9.0477816051
 30
0.0
 10
10.5434411932
 20
9.0613192469
 30
0.0
 10
10.5464302642
 20
9.0747092902
 30
0.0
 10
10.5509843709
 20
9.0912015561
 30
0.0
 10
10.5566218654
 20
9.1073219466
 30
0.0
 10
10.5617621058
 20
9.1199321857
 30
0.0
 10
10.5673079406
 20
9.132321303
 30
0.0
 10
10.5719350762
 20
9.1413903756
 30
0.0
 10
10.5752187818
 20
9.1473168384
 30
0.0
  0
SPLINE
  5
3D7
100
AcDbEntity
  8
0
100
AcDbSpline
 62
7
  6
CONTINUOUS
 70
0
 71
3
 72
11
 73
7
 74
0
 42
0.0000001
 43
0.0000001
 44
0.0000000001
 40
0.0
 40
0.0
 40
0.0
 40
0.0
 40
0.2430309523
 40
0.4889114475
 40
0.7403853657
 40
1.0
 40
1.0
 40
1.0
 40
1.0
 10
12.0776333444
 20
10.1341147401
 30
0.0
 10
12.0776333402
 20
10.1351990662
 30
0.0
 10
12.0775096711
 20
10.1373823726
 30
0.0
 10
12.0769547521
 20
10.1406452987
 30
0.0
 10
12.0760314323
 20
10.1439003072
 30
0.0
 10
12.0751872043
 20
10.1460232144
 30
0.0
 10
12.0747095776
 20
10.1470784734
 30
0.0
  0
SPLINE
  5
3D8
100
AcDbEntity
  8
0
100
AcDbSpline
 62
7
  6
CONTINUOUS
 70
0
 71
3
 72
50
 73
46
 74
0
 42
0.0000001
 43
0.0000001
 44
0.0000000001
 40
0.0
 40
0.0
 40
0.0
 40
0.0
 40
0.0040503954
 40
0.0078568784
 40
0.0114651184
 40
0.0149330833
 40
0.0183235091
 40
0.0216992805
 40
0.0251168222
 40
0.0286232686
 40
0.0322540134
 40
0.0360337722
 40
0.0399778119
 40
0.0440935626
 40
0.048383869
 40
0.0528471365
 40
0.0574786681
 40
0.0622734559
 40
0.067224989
 40
0.0723253331
 40
0.082944558
 40
0.0940766254
 40
0.1056695676
 40
0.117679633
 40
0.1300663915
 40
0.1427987156
 40
0.1558467407
 40
0.1828009222
 40
0.2107770455
 40
0.2251137021
 40
0.239666905
 40
0.26938938
 40
0.2998856082
 40
0.3311118462
 40
0.3630350692
 40
0.3956304664
 40
0.428879647
 40
0.4627679887
 40
0.5324202804
 40
0.6045274405
 40
0.6790448475
 40
0.7559276657
 40
0.8351162729
 40
0.9165191378
 40
1.0
 40
1.0
 40
1.0
 40
1.0
 10
10.6972806614
 20
9.0683445048
 30
0.0
 10
10.6975079378
 20
9.0685979742
 30
0.0
 10
10.6979725741
 20
9.0690692138
 30
0.0
 10
10.6987229424
 20
9.0696773334
 30
0.0
 10
10.6995022477
 20
9.0701612469
 30
0.0
 10
10.7003078091
 20
9.07052175
 30
0.0
 10
10.7011371685
 20
9.0707604417
 30
0.0
 10
10.7019871099
 20
9.0708818793
 30
0.0
 10
10.7028550403
 20
9.0708912394
 30
0.0
 10
10.7037388476
 20
9.0707954286
 30
0.0
 10
10.7046371757
 20
9.0706014181
 30
0.0
 10
10.7055490527
 20
9.0703160765
 30
0.0
 10
10.7064737945
 20
9.0699462063
 30
0.0
 10
10.7074109135
 20
9.0694982707
 30
0.0
 10
10.7083598606
 20
9.0689781131
 30
0.0
 10
10.7093202518
 20
9.0683914751
 30
0.0
 10
10.7102918964
 20
9.0677438363
 30
0.0
 10
10.7112743663
 20
9.067039805
 30
0.0
 10
10.7122674389
 20
9.0662838962
 30
0.0
 10
10.7136239722
 20
9.0651980758
 30
0.0
 10
10.7153407581
 20
9.0637321612
 30
0.0
 10
10.7174158651
 20
9.0618479409
 30
0.0
 10
10.7195330674
 20
9.0598373993
 30
0.0
 10
10.721691912
 20
9.0577182968
 30
0.0
 10
10.7238935537
 20
9.0555064441
 30
0.0
 10
10.7261374659
 20
9.0532137694
 30
0.0
 10
10.7292209682
 20
9.0500296581
 30
0.0
 10
10.7331758368
 20
9.045905886
 30
0.0
 10
10.7372075461
 20
9.0417057486
 30
0.0
 10
10.740528814
 20
9.0382685038
 30
0.0
 10
10.7439633159
 20
9.0347365974
 30
0.0
 10
10.7483705052
 20
9.0302560473
 30
0.0
 10
10.7538143042
 20
9.0248298552
 30
0.0
 10
10.7594522107
 20
9.0193370425
 30
0.0
 10
10.7652869406
 20
9.0137942726
 30
0.0
 10
10.7713209071
 20
9.008215408
 30
0.0
 10
10.7775561965
 20
9.002612154
 30
0.0
 10
10.7862205103
 20
8.9950538199
 30
0.0
 10
10.7975670275
 20
8.985604316
 30
0.0
 10
10.8118971553
 20
8.9744144433
 30
0.0
 10
10.8270716886
 20
8.9633338251
 30
0.0
 10
10.8430940775
 20
8.9524224422
 30
0.0
 10
10.8599607003
 20
8.9417417999
 30
0.0
 10
10.8776574226
 20
8.9313574738
 30
0.0
 10
10.8898471475
 20
8.9247569166
 30
0.0
 10
10.8960741325
 20
8.9215228905
 30
0.0
  0
SPLINE
  5
3D9
100
AcDbEntity
  8
0
100
AcDbSpline
 62
7
  6
CONTINUOUS
 70
0
 71
3
 72
23
 73
19
 74
0
 42
0.0000001
 43
0.0000001
 44
0.0000000001
 40
0.0
 40
0.0
 40
0.0
 40
0.0
 40
0.077040127
 40
0.1529996833
 40
0.2276688033
 40
0.3008487868
 40
0.3723427477
 40
0.4419616728
 40
0.5095233935
 40
0.5748541047
 40
0.6377892739
 40
0.6981747561
 40
0.7558680718
 40
0.8107398868
 40
0.8626758046
 40
0.9115785991
 40
0.9573711102
 40
1.0
 40
1.0
 40
1.0
 40
1.0
 10
10.8960741325
 20
8.9215228905
 30
0.0
 10
10.8914213293
 20
8.9212543548
 30
0.0
 10
10.8821847222
 20
8.9206535735
 30
0.0
 10
10.8684554394
 20
8.9195527228
 30
0.0
 10
10.8549773146
 20
8.9182609557
 30
0.0
 10
10.8417902048
 20
8.9167821608
 30
0.0
 10
10.8289328106
 20
8.9151206899
 30
0.0
 10
10.8164430252
 20
8.9132814968
 30
0.0
 10
10.8043575779
 20
8.9112700366
 30
0.0
 10
10.7927120099
 20
8.9090922902
 30
0.0
 10
10.7815405373
 20
8.906754735
 30
0.0
 10
10.7708759495
 20
8.904264324
 30
0.0
 10
10.7607495077
 20
8.901628466
 30
0.0
 10
10.7511908273
 20
8.8988549948
 30
0.0
 10
10.7422278169
 20
8.8959521575
 30
0.0
 10
10.7338864166
 20
8.8929285098
 30
0.0
 10
10.7261910039
 20
8.8897930894
 30
0.0
 10
10.7213305575
 20
8.8875535508
 30
0.0
 10
10.7190184353
 20
8.8864114083
 30
0.0
  0
SPLINE
  5
3DA
100
AcDbEntity
  8
0
100
AcDbSpline
 62
7
  6
CONTINUOUS
 70
0
 71
3
 72
43
 73
39
 74
0
 42
0.0000001
 43
0.0000001
 44
0.0000000001
 40
0.0
 40
0.0
 40
0.0
 40
0.0
 40
0.0309446581
 40
0.0464689336
 40
0.0620256008
 40
0.0932312208
 40
0.124558795
 40
0.1560001937
 40
0.1875454762
 40
0.2191831695
 40
0.2509004174
 40
0.2826831918
 40
0.314516503
 40
0.3463846242
 40
0.378271323
 40
0.4101600976
 40
0.442034416
 40
0.4738779559
 40
0.5056748417
 40
0.5374098776
 40
0.5690687736
 40
0.6006383614
 40
0.6321067989
 40
0.6634637589
 40
0.6947006007
 40
0.7258105202
 40
0.7567886773
 40
0.7876322953
 40
0.8183407319
 40
0.8489155173
 40
0.8641558601
 40
0.8793643591
 40
0.9096851052
 40
0.9398896796
 40
0.9549534855
 40
0.9699921105
 40
0.9850070762
 40
1.0
 40
1.0
 40
1.0
 40
1.0
 10
10.8609350231
 20
8.6408289231
 30
0.0
 10
10.8538845177
 20
8.6413178773
 30
0.0
 10
10.8433162686
 20
8.6423870682
 30
0.0
 10
10.8293028077
 20
8.6444713655
 30
0.0
 10
10.8153018438
 20
8.6470011801
 30
0.0
 10
10.7979056276
 20
8.6509879477
 30
0.0
 10
10.7773066552
 20
8.6570623212
 30
0.0
 10
10.7570431697
 20
8.6644077579
 30
0.0
 10
10.7371968256
 20
8.6729946638
 30
0.0
 10
10.7178469783
 20
8.6827885711
 30
0.0
 10
10.6990711556
 20
8.6937501727
 30
0.0
 10
10.6809445375
 20
8.7058355034
 30
0.0
 10
10.6635397158
 20
8.7189961101
 30
0.0
 10
10.6469263901
 20
8.7331792463
 30
0.0
 10
10.6311710955
 20
8.7483280823
 30
0.0
 10
10.616336937
 20
8.7643819305
 30
0.0
 10
10.6024833392
 20
8.781276488
 30
0.0
 10
10.5896658095
 20
8.7989440912
 30
0.0
 10
10.5779357175
 20
8.8173139852
 30
0.0
 10
10.5673400905
 20
8.8363126046
 30
0.0
 10
10.5579214255
 20
8.8558638656
 30
0.0
 10
10.5497175201
 20
8.875889468
 30
0.0
 10
10.5427613203
 20
8.8963092055
 30
0.0
 10
10.5370807892
 20
8.9170412847
 30
0.0
 10
10.5326987925
 20
8.9380026451
 30
0.0
 10
10.5296330078
 20
8.9591093058
 30
0.0
 10
10.5278958409
 20
8.9802766338
 30
0.0
 10
10.5274944161
 20
9.0014199203
 30
0.0
 10
10.5284303808
 20
9.0224538288
 30
0.0
 10
10.5303242142
 20
9.0398413036
 30
0.0
 10
10.5325033046
 20
9.0536091963
 30
0.0
 10
10.5351165765
 20
9.0672422681
 30
0.0
 10
10.5392004247
 20
9.0840634933
 30
0.0
 10
10.5443692923
 20
9.1005493148
 30
0.0
 10
10.549137607
 20
9.1134733334
 30
0.0
 10
10.5530238378
 20
9.1230189109
 30
0.0
 10
10.557218815
 20
9.13241493
 30
0.0
 10
10.5602208639
 20
9.1385776266
 30
0.0
 10
10.5617717924
 20
9.1416304879
 30
0.0
  0
SPLINE
  5
3DB
100
AcDbEntity
  8
0
100
AcDbSpline
 62
7
  6
CONTINUOUS
 70
0
 71
3
 72
83
 73
79
 74
0
 42
0.0000001
 43
0.0000001
 44
0.0000000001
 40
0.0
 40
0.0
 40
0.0
 40
0.0
 40
0.0038897122
 40
0.0079377235
 40
0.0121473933
 40
0.0165215815
 40
0.0210627116
 40
0.0257726815
 40
0.0306527801
 40
0.0357038935
 40
0.0409265069
 40
0.046320763
 40
0.051886514
 40
0.0576232689
 40
0.0696062552
 40
0.0822615696
 40
0.0955772263
 40
0.1095383586
 40
0.1241275741
 40
0.1393252299
 40
0.1551096646
 40
0.1714574025
 40
0.1883433208
 40
0.2057407948
 40
0.2236218237
 40
0.2419571444
 40
0.2607163488
 40
0.2798679867
 40
0.2993796625
 40
0.319218126
 40
0.3393493586
 40
0.3597386654
 40
0.3803507639
 40
0.4011498678
 40
0.4431632878
 40
0.4854863448
 40
0.5278230479
 40
0.5698772803
 40
0.5907068747
 40
0.6113561017
 40
0.6317890888
 40
0.6519704515
 40
0.6718653827
 40
0.6914397371
 40
0.7106601162
 40
0.7294939567
 40
0.7479096228
 40
0.7658765085
 40
0.7833651392
 40
0.8003472743
 40
0.8167960223
 40
0.8326859674
 40
0.8479933176
 40
0.8626960732
 40
0.8767742075
 40
0.8902098897
 40
0.9029877578
 40
0.91509526
 40
0.9208948123
 40
0.9265235858
 40
0.9319810276
 40
0.9372668309
 40
0.9423810469
 40
0.9473240186
 40
0.9520964948
 40
0.95669964
 40
0.961135059
 40
0.9654049249
 40
0.9695119501
 40
0.9734595429
 40
0.9772518452
 40
0.9808938202
 40
0.9843914075
 40
0.9877515539
 40
0.990982402
 40
0.9940933484
 40
0.9970951466
 40
1.0
 40
1.0
 40
1.0
 40
1.0
 10
12.3034985071
 20
7.4330324314
 30
0.0
 10
12.3046204055
 20
7.4341161021
 30
0.0
 10
12.3068630697
 20
7.4363764155
 30
0.0
 10
12.3101593269
 20
7.4399643705
 30
0.0
 10
12.3134523527
 20
7.4438147331
 30
0.0
 10
12.3167404907
 20
7.4479255608
 30
0.0
 10
12.3200223299
 20
7.4522949791
 30
0.0
 10
12.3232963724
 20
7.4569210372
 30
0.0
 10
12.3265611847
 20
7.4618015935
 30
0.0
 10
12.3298152121
 20
7.4669344147
 30
0.0
 10
12.3330569667
 20
7.4723171184
 30
0.0
 10
12.3362849606
 20
7.4779472124
 30
0.0
 10
12.3394976898
 20
7.4838221162
 30
0.0
 10
12.3438219442
 20
7.4920986952
 30
0.0
 10
12.3491686332
 20
7.5030460269
 30
0.0
 10
12.3554105713
 20
7.5169294384
 30
0.0
 10
12.361556591
 20
7.5317182969
 30
0.0
 10
12.3675952003
 20
7.5473851492
 30
0.0
 10
12.373515103
 20
7.5639010686
 30
0.0
 10
12.3793052093
 20
7.5812354217
 30
0.0
 10
12.3849546732
 20
7.5993560215
 30
0.0
 10
12.3904529059
 20
7.6182291782
 30
0.0
 10
12.3957896021
 20
7.6378197775
 30
0.0
 10
12.4009547585
 20
7.6580913481
 30
0.0
 10
12.4059386941
 20
7.6790061298
 30
0.0
 10
12.4107320761
 20
7.7005251453
 30
0.0
 10
12.415325928
 20
7.7226082792
 30
0.0
 10
12.4197116482
 20
7.745214358
 30
0.0
 10
12.4238810255
 20
7.7683012277
 30
0.0
 10
12.4278262526
 20
7.7918258298
 30
0.0
 10
12.4315399515
 20
7.8157442848
 30
0.0
 10
12.4350151699
 20
7.8400119623
 30
0.0
 10
12.438245435
 20
7.8645836215
 30
0.0
 10
12.4422308712
 20
7.8977999347
 30
0.0
 10
12.4465537209
 20
7.9397416991
 30
0.0
 10
12.4506642534
 20
7.9903759928
 30
0.0
 10
12.4536841002
 20
8.0411034166
 30
0.0
 10
12.4552782158
 20
8.0832712976
 30
0.0
 10
12.4559857753
 20
8.1167618564
 30
0.0
 10
12.4562305912
 20
8.1415883583
 30
0.0
 10
12.45619086
 20
8.1661560768
 30
0.0
 10
12.4558666463
 20
8.1904192111
 30
0.0
 10
12.4552585819
 20
8.2143324858
 30
0.0
 10
12.454367824
 20
8.2378512955
 30
0.0
 10
12.4531960607
 20
8.2609317711
 30
0.0
 10
12.4517455068
 20
8.2835308647
 30
0.0
 10
12.4500188983
 20
8.3056064317
 30
0.0
 10
12.4480194952
 20
8.3271173141
 30
0.0
 10
12.4457510743
 20
8.3480234197
 30
0.0
 10
12.4432179167
 20
8.3682857965
 30
0.0
 10
12.4404248019
 20
8.3878667052
 30
0.0
 10
12.4373769974
 20
8.4067296949
 30
0.0
 10
12.4340802511
 20
8.4248396787
 30
0.0
 10
12.4305407861
 20
8.4421630147
 30
0.0
 10
12.4267652762
 20
8.458667551
 30
0.0
 10
12.4227608333
 20
8.4743227737
 30
0.0
 10
12.4185349782
 20
8.4890995957
 30
0.0
 10
12.4147837031
 20
8.5008213836
 30
0.0
 10
12.4116691958
 20
8.5097312333
 30
0.0
 10
12.4093164379
 20
8.5160811322
 30
0.0
 10
12.4069144035
 20
8.5221917378
 30
0.0
 10
12.4044641352
 20
8.5280602189
 30
0.0
 10
12.4019668265
 20
8.5336838757
 30
0.0
 10
12.3994235864
 20
8.5390601028
 30
0.0
 10
12.3968355984
 20
8.5441864272
 30
0.0
 10
12.3942040631
 20
8.5490605009
 30
0.0
 10
12.3915301281
 20
8.5536800669
 30
0.0
 10
12.3888150569
 20
8.5580430368
 30
0.0
 10
12.386060007
 20
8.5621473906
 30
0.0
 10
12.3832662185
 20
8.5659912636
 30
0.0
 10
12.3804349122
 20
8.5695729031
 30
0.0
 10
12.3775672539
 20
8.5728906272
 30
0.0
 10
12.3746645097
 20
8.5759429361
 30
0.0
 10
12.3717278106
 20
8.5787283325
 30
0.0
 10
12.3687584096
 20
8.5812454703
 30
0.0
 10
12.3657574347
 20
8.5834930867
 30
0.0
 10
12.3627263249
 20
8.5854697842
 30
0.0
 10
12.3606549913
 20
8.5866236672
 30
0.0
 10
12.3596167794
 20
8.5871519088
 30
0.0
  0
SPLINE
  5
3DC
100
AcDbEntity
  8
0
100
AcDbSpline
 62
7
  6
CONTINUOUS
 70
0
 71
3
 72
15
 73
11
 74
0
 42
0.0000001
 43
0.0000001
 44
0.0000000001
 40
0.0
 40
0.0
 40
0.0
 40
0.0
 40
0.1419957443
 40
0.2786184937
 40
0.4100721067
 40
0.5366026121
 40
0.6585035146
 40
0.7761096801
 40
0.8898002082
 40
1.0
 40
1.0
 40
1.0
 40
1.0
 10
12.3034985071
 20
7.4330324314
 30
0.0
 10
12.3024685783
 20
7.4320375965
 30
0.0
 10
12.3004093069
 20
7.4301247306
 30
0.0
 10
12.2972603936
 20
7.4274421653
 30
0.0
 10
12.2941134762
 20
7.4250040006
 30
0.0
 10
12.2909699014
 20
7.4228115064
 30
0.0
 10
12.2878309204
 20
7.4208656283
 30
0.0
 10
12.2846976023
 20
7.4191673199
 30
0.0
 10
12.2815714025
 20
7.4177174911
 30
0.0
 10
12.2794624111
 20
7.4169054705
 30
0.0
 10
12.2784116691
 20
7.4165436396
 30
0.0
  0
SPLINE
  5
3DD
100
AcDbEntity
  8
0
100
AcDbSpline
 62
7
  6
CONTINUOUS
 70
0
 71
3
 72
22
 73
18
 74
0
 42
0.0000001
 43
0.0000001
 44
0.0000000001
 40
0.0
 40
0.0
 40
0.0
 40
0.0
 40
0.0781421434
 40
0.1532425494
 40
0.2254210875
 40
0.2948218516
 40
0.3616185707
 40
0.4260103729
 40
0.5484369231
 40
0.6070812291
 40
0.6643923179
 40
0.7207047675
 40
0.7763728299
 40
0.8317644377
 40
0.8872533605
 40
0.9432113641
 40
1.0
 40
1.0
 40
1.0
 40
1.0
 10
12.3034985071
 20
7.6117287199
 30
0.0
 10
12.3027710155
 20
7.6110260169
 30
0.0
 10
12.3013164571
 20
7.6096764041
 30
0.0
 10
12.2990909499
 20
7.6077879102
 30
0.0
 10
12.2968668958
 20
7.6060772643
 30
0.0
 10
12.2946453812
 20
7.6045454801
 30
0.0
 10
12.2924270469
 20
7.6031931536
 30
0.0
 10
12.2895247079
 20
7.6016565467
 30
0.0
 10
12.2865756749
 20
7.6004415491
 30
0.0
 10
12.2836064282
 20
7.5995931288
 30
0.0
 10
12.2814189734
 20
7.5991483324
 30
0.0
 10
12.2792409127
 20
7.5988866501
 30
0.0
 10
12.2770733285
 20
7.5988083908
 30
0.0
 10
12.2749175365
 20
7.5989136286
 30
0.0
 10
12.2727747642
 20
7.5992023626
 30
0.0
 10
12.2706464554
 20
7.5996743414
 30
0.0
 10
12.2692507169
 20
7.600106922
 30
0.0
 10
12.2685576992
 20
7.6003519451
 30
0.0
  0
SPLINE
  5
3DE
100
AcDbEntity
  8
0
100
AcDbSpline
 62
7
  6
CONTINUOUS
 70
0
 71
3
 72
83
 73
79
 74
0
 42
0.0000001
 43
0.0000001
 44
0.0000000001
 40
0.0
 40
0.0
 40
0.0
 40
0.0
 40
0.0040523069
 40
0.0082800599
 40
0.0126871261
 40
0.0172767319
 40
0.0220515677
 40
0.0270137131
 40
0.0321645083
 40
0.0375047909
 40
0.0430349425
 40
0.0487549062
 40
0.0607618115
 40
0.0735189169
 40
0.0870143566
 40
0.1012323748
 40
0.1161538487
 40
0.131756692
 40
0.1480161906
 40
0.1649052945
 40
0.1823948475
 40
0.2004537836
 40
0.2190492872
 40
0.2381469631
 40
0.2577109898
 40
0.2777042525
 40
0.2980884668
 40
0.3188242938
 40
0.3398714708
 40
0.3611889293
 40
0.3827349064
 40
0.4263417895
 40
0.4703490787
 40
0.5144089205
 40
0.5581729284
 40
0.6012956946
 40
0.6225107538
 40
0.6434391275
 40
0.6640400556
 40
0.6842736297
 40
0.704100911
 40
0.7234840642
 40
0.7423864744
 40
0.7607728729
 40
0.7786094736
 40
0.7958641303
 40
0.8125065146
 40
0.8285082843
 40
0.8438432909
 40
0.858487825
 40
0.8724209283
 40
0.8856247623
 40
0.8980850489
 40
0.9040332984
 40
0.9097922642
 40
0.9153614334
 40
0.9207407263
 40
0.9259304076
 40
0.9309312402
 40
0.9357444958
 40
0.9403719786
 40
0.9448162041
 40
0.9490803591
 40
0.9531684905
 40
0.9570855949
 40
0.9608376911
 40
0.964432062
 40
0.9678772938
 40
0.9711834911
 40
0.9774235074
 40
0.9803901161
 40
0.9832752966
 40
0.9860977836
 40
0.9888777229
 40
0.9916362715
 40
0.9943951316
 40
0.9971759929
 40
1.0
 40
1.0
 40
1.0
 40
1.0
 10
12.3034985071
 20
7.6117287199
 30
0.0
 10
12.3043183779
 20
7.6125206543
 30
0.0
 10
12.3059571775
 20
7.6141768821
 30
0.0
 10
12.3083627443
 20
7.6168142458
 30
0.0
 10
12.3107656493
 20
7.6196550449
 30
0.0
 10
12.3131645135
 20
7.6226976642
 30
0.0
 10
12.315558185
 20
7.6259405269
 30
0.0
 10
12.3179454244
 20
7.6293820062
 30
0.0
 10
12.3203250566
 20
7.633020306
 30
0.0
 10
12.3226958076
 20
7.6368535396
 30
0.0
 10
12.3250564514
 20
7.6408797101
 30
0.0
 10
12.3282404726
 20
7.6465951584
 30
0.0
 10
12.3321779121
 20
7.6542153657
 30
0.0
 10
12.336769764
 20
7.6639509491
 30
0.0
 10
12.3412922564
 20
7.6744001695
 30
0.0
 10
12.3457358425
 20
7.6855411483
 30
0.0
 10
12.3500911291
 20
7.6973507023
 30
0.0
 10
12.3543488931
 20
7.7098041086
 30
0.0
 10
12.3585001161
 20
7.7228752563
 30
0.0
 10
12.3625359972
 20
7.7365366952
 30
0.0
 10
12.3664479794
 20
7.7507597098
 30
0.0
 10
12.3702277648
 20
7.7655143787
 30
0.0
 10
12.3738673456
 20
7.7807696377
 30
0.0
 10
12.3773590128
 20
7.7964933516
 30
0.0
 10
12.3806953703
 20
7.81265239
 30
0.0
 10
12.3838693512
 20
7.8292126994
 30
0.0
 10
12.3868742313
 20
7.8461393712
 30
0.0
 10
12.3897036569
 20
7.8633967173
 30
0.0
 10
12.3923516365
 20
7.8809483386
 30
0.0
 10
12.3948125928
 20
7.898757249
 30
0.0
 10
12.3978494818
 20
7.9228909962
 30
0.0
 10
12.4011374931
 20
7.9534236513
 30
0.0
 10
12.4042507258
 20
7.9903348614
 30
0.0
 10
12.4065206598
 20
8.0273519387
 30
0.0
 10
12.4079282104
 20
8.0641627406
 30
0.0
 10
12.4083753545
 20
8.0945710576
 30
0.0
 10
12.4082858477
 20
8.1185562789
 30
0.0
 10
12.4079983669
 20
8.1362040455
 30
0.0
 10
12.4074908824
 20
8.1535706534
 30
0.0
 10
12.4067644619
 20
8.1706195091
 30
0.0
 10
12.4058206635
 20
8.1873146561
 30
0.0
 10
12.4046615096
 20
8.203620902
 30
0.0
 10
12.403289481
 20
8.2195038807
 30
0.0
 10
12.4017075096
 20
8.2349301253
 30
0.0
 10
12.399918972
 20
8.2498671398
 30
0.0
 10
12.3979276851
 20
8.2642834752
 30
0.0
 10
12.3957379081
 20
8.2781488031
 30
0.0
 10
12.3933543196
 20
8.2914339794
 30
0.0
 10
12.3907820099
 20
8.3041111127
 30
0.0
 10
12.3880264632
 20
8.3161536129
 30
0.0
 10
12.3850935546
 20
8.3275363391
 30
0.0
 10
12.3819895174
 20
8.3382354165
 30
0.0
 10
12.3792245987
 20
8.3466892623
 30
0.0
 10
12.3769246728
 20
8.3530869828
 30
0.0
 10
12.3751878052
 20
8.3576261411
 30
0.0
 10
12.3734131635
 20
8.3619783256
 30
0.0
 10
12.3716017032
 20
8.3661412845
 30
0.0
 10
12.3697543351
 20
8.3701128356
 30
0.0
 10
12.3678720296
 20
8.3738909167
 30
0.0
 10
12.365955778
 20
8.3774735765
 30
0.0
 10
12.3640065142
 20
8.3808589395
 30
0.0
 10
12.3620252801
 20
8.3840452817
 30
0.0
 10
12.3600130302
 20
8.3870309425
 30
0.0
 10
12.3579707613
 20
8.3898143839
 30
0.0
 10
12.3558995008
 20
8.3923941837
 30
0.0
 10
12.3538001507
 20
8.3947689746
 30
0.0
 10
12.3516738383
 20
8.3969374838
 30
0.0
 10
12.3495211658
 20
8.3988987121
 30
0.0
 10
12.3466732233
 20
8.4011909138
 30
0.0
 10
12.343716797
 20
8.4031276017
 30
0.0
 10
12.340670218
 20
8.4046470095
 30
0.0
 10
12.3384023106
 20
8.4055551642
 30
0.0
 10
12.3361149033
 20
8.4062498097
 30
0.0
 10
12.3338093418
 20
8.4067303903
 30
0.0
 10
12.3314872375
 20
8.4069962804
 30
0.0
 10
12.3291502134
 20
8.4070473065
 30
0.0
 10
12.3268001738
 20
8.4068835051
 30
0.0
 10
12.325241074
 20
8.4066336744
 30
0.0
 10
12.3244627476
 20
8.4064747983
 30
0.0
  0
SPLINE
  5
3DF
100
AcDbEntity
  8
0
100
AcDbSpline
 62
7
  6
CONTINUOUS
 70
0
 71
3
 72
49
 73
45
 74
0
 42
0.0000001
 43
0.0000001
 44
0.0000000001
 40
0.0
 40
0.0
 40
0.0
 40
0.0
 40
0.010308701
 40
0.0210704948
 40
0.0322802816
 40
0.0439317491
 40
0.0560174196
 40
0.0685288851
 40
0.0814567312
 40
0.0947907967
 40
0.1085200622
 40
0.1226328583
 40
0.1519582919
 40
0.1826617609
 40
0.214628543
 40
0.2477363904
 40
0.281856521
 40
0.3168545315
 40
0.352591258
 40
0.3889236026
 40
0.4257053384
 40
0.462787901
 40
0.5000211718
 40
0.5372542559
 40
0.574336259
 40
0.6111170648
 40
0.6474481136
 40
0.6831831853
 40
0.7181791911
 40
0.7522969783
 40
0.7854021574
 40
0.8173659621
 40
0.8480661607
 40
0.8773880483
 40
0.8914989667
 40
0.9052263114
 40
0.9185583843
 40
0.9314841986
 40
0.9439935756
 40
0.9560771155
 40
0.9677264182
 40
0.9789339944
 40
0.9896935637
 40
1.0
 40
1.0
 40
1.0
 40
1.0
 10
12.2211050979
 20
7.6817113348
 30
0.0
 10
12.2221611616
 20
7.6837294438
 30
0.0
 10
12.2242607378
 20
7.6878854358
 30
0.0
 10
12.2273128902
 20
7.6943325152
 30
0.0
 10
12.2303327723
 20
7.7011208177
 30
0.0
 10
12.2333170648
 20
7.7082430041
 30
0.0
 10
12.2362625871
 20
7.7156914407
 30
0.0
 10
12.2391661026
 20
7.7234581227
 30
0.0
 10
12.2420245176
 20
7.7315346848
 30
0.0
 10
12.2448346825
 20
7.7399124317
 30
0.0
 10
12.2475936152
 20
7.7485823365
 30
0.0
 10
12.2512465576
 20
7.7606742467
 30
0.0
 10
12.2556522722
 20
7.7764546474
 30
0.0
 10
12.2606238109
 20
7.7961658497
 30
0.0
 10
12.2653236193
 20
7.8168015295
 30
0.0
 10
12.2697312386
 20
7.8382726196
 30
0.0
 10
12.2738274693
 20
7.8604865587
 30
0.0
 10
12.2775944907
 20
7.8833474738
 30
0.0
 10
12.2810159248
 20
7.9067566749
 30
0.0
 10
12.2840769085
 20
7.9306130725
 30
0.0
 10
12.2867641554
 20
7.9548136261
 30
0.0
 10
12.2890660118
 20
7.9792537944
 30
0.0
 10
12.2909725067
 20
8.0038279912
 30
0.0
 10
12.2924753938
 20
8.0284300462
 30
0.0
 10
12.2935681886
 20
8.0529536671
 30
0.0
 10
12.2942461967
 20
8.0772929036
 30
0.0
 10
12.2945065344
 20
8.1013426086
 30
0.0
 10
12.2943481423
 20
8.124998898
 30
0.0
 10
12.2937717919
 20
8.1481596031
 30
0.0
 10
12.2927800863
 20
8.1707247242
 30
0.0
 10
12.2913774461
 20
8.1925968538
 30
0.0
 10
12.2895701158
 20
8.2136816748
 30
0.0
 10
12.2873660651
 20
8.2338881564
 30
0.0
 10
12.2851799985
 20
8.2501235981
 30
0.0
 10
12.2832305092
 20
8.2626022512
 30
0.0
 10
12.2816943042
 20
8.2715686191
 30
0.0
 10
12.2800670219
 20
8.280252651
 30
0.0
 10
12.2783503991
 20
8.2886449964
 30
0.0
 10
12.2765463337
 20
8.2967366095
 30
0.0
 10
12.2746567464
 20
8.30451878
 30
0.0
 10
12.2726837408
 20
8.3119831351
 30
0.0
 10
12.2706293969
 20
8.3191216747
 30
0.0
 10
12.2684960194
 20
8.325926677
 30
0.0
 10
12.2669899515
 20
8.3303315627
 30
0.0
 10
12.2662224401
 20
8.33247555
 30
0.0
  0
SPLINE
  5
3E0
100
AcDbEntity
  8
0
100
AcDbSpline
 62
7
  6
CONTINUOUS
 70
0
 71
3
 72
39
 73
35
 74
0
 42
0.0000001
 43
0.0000001
 44
0.0000000001
 40
0.0
 40
0.0
 40
0.0
 40
0.0
 40
0.0248516718
 40
0.0508785803
 40
0.0780238769
 40
0.1062259306
 40
0.1354188324
 40
0.1655328354
 40
0.19649475
 40
0.228228317
 40
0.2606545532
 40
0.2936920778
 40
0.327257428
 40
0.3612653661
 40
0.395629181
 40
0.4302609844
 40
0.4650720094
 40
0.4999729049
 40
0.5348740281
 40
0.5696857356
 40
0.6043186744
 40
0.6386840743
 40
0.6726940412
 40
0.7062618569
 40
0.7393022754
 40
0.7717318243
 40
0.8034691116
 40
0.8344351414
 40
0.8645536407
 40
0.8937514031
 40
0.9219586614
 40
0.9491094861
 40
0.9751422236
 40
1.0
 40
1.0
 40
1.0
 40
1.0
 10
12.2075969766
 20
7.7525768376
 30
0.0
 10
12.2090263039
 20
7.7566165218
 30
0.0
 10
12.2118380075
 20
7.7649277983
 30
0.0
 10
12.215835507
 20
7.7777747826
 30
0.0
 10
12.2197023217
 20
7.7912636939
 30
0.0
 10
12.223427756
 20
7.805357602
 30
0.0
 10
12.2270015526
 20
7.8200180584
 30
0.0
 10
12.230413862
 20
7.8352049859
 30
0.0
 10
12.2336552896
 20
7.8508768573
 30
0.0
 10
12.236716913
 20
7.8669907975
 30
0.0
 10
12.2395903087
 20
7.8835027102
 30
0.0
 10
12.2422675737
 20
7.9003674003
 30
0.0
 10
12.2447413473
 20
7.9175386991
 30
0.0
 10
12.2470048306
 20
7.9349695924
 30
0.0
 10
12.2490518043
 20
7.9526123499
 30
0.0
 10
12.2508766482
 20
7.9704186568
 30
0.0
 10
12.2524743555
 20
7.9883397474
 30
0.0
 10
12.253840545
 20
8.0063265408
 30
0.0
 10
12.254971473
 20
8.0243297754
 30
0.0
 10
12.2558640442
 20
8.0423001446
 30
0.0
 10
12.2565158197
 20
8.0601884315
 30
0.0
 10
12.2569250237
 20
8.0779456451
 30
0.0
 10
12.2570905495
 20
8.0955231548
 30
0.0
 10
12.2570119647
 20
8.1128728257
 30
0.0
 10
12.2566895101
 20
8.1299471517
 30
0.0
 10
12.2561240998
 20
8.1466993858
 30
0.0
 10
12.2553173192
 20
8.1630836699
 30
0.0
 10
12.254271421
 20
8.1790551619
 30
0.0
 10
12.2529893206
 20
8.1945701595
 30
0.0
 10
12.2514745871
 20
8.2095862293
 30
0.0
 10
12.2497314395
 20
8.2240623105
 30
0.0
 10
12.2477647268
 20
8.2379588984
 30
0.0
 10
12.2455799419
 20
8.251237932
 30
0.0
 10
12.2439431555
 20
8.2598599979
 30
0.0
 10
12.243085504
 20
8.2640594599
 30
0.0
  0
SPLINE
  5
3E1
100
AcDbEntity
  8
0
100
AcDbSpline
 62
7
  6
CONTINUOUS
 70
0
 71
3
 72
39
 73
35
 74
0
 42
0.0000001
 43
0.0000001
 44
0.0000000001
 40
0.0
 40
0.0
 40
0.0
 40
0.0
 40
0.0310281216
 40
0.0621972317
 40
0.0935022658
 40
0.124935706
 40
0.1564878636
 40
0.1881470059
 40
0.2198996006
 40
0.2517305498
 40
0.2836234558
 40
0.3155608989
 40
0.3475247284
 40
0.3794963618
 40
0.4114570892
 40
0.443388379
 40
0.4752721812
 40
0.5070912259
 40
0.5388293123
 40
0.5704715847
 40
0.6020047929
 40
0.633417531
 40
0.6647004522
 40
0.6958464547
 40
0.7268508344
 40
0.7577114004
 40
0.7884285488
 40
0.8190052919
 40
0.8494472386
 40
0.8797625251
 40
0.9099616931
 40
0.9400575167
 40
0.9700647786
 40
1.0
 40
1.0
 40
1.0
 40
1.0
 10
10.8432462545
 20
6.7005844495
 30
0.0
 10
10.8386661552
 20
6.7009020805
 30
0.0
 10
10.8295036393
 20
6.701847197
 30
0.0
 10
10.8158564913
 20
6.7041775957
 30
0.0
 10
10.8023330866
 20
6.7074135338
 30
0.0
 10
10.7889953459
 20
6.7115402408
 30
0.0
 10
10.7759033072
 20
6.7165389936
 30
0.0
 10
10.7631161645
 20
6.7223871293
 30
0.0
 10
10.7506916527
 20
6.7290581631
 30
0.0
 10
10.7386858846
 20
6.7365219061
 30
0.0
 10
10.7271530743
 20
6.7447446012
 30
0.0
 10
10.716145302
 20
6.7536890757
 30
0.0
 10
10.7057122796
 20
6.7633149077
 30
0.0
 10
10.695901128
 20
6.7735786075
 30
0.0
 10
10.6867561667
 20
6.7844338127
 30
0.0
 10
10.6783187151
 20
6.7958314961
 30
0.0
 10
10.6706269069
 20
6.8077201844
 30
0.0
 10
10.6637155195
 20
6.8200461894
 30
0.0
 10
10.6576158172
 20
6.8327538477
 30
0.0
 10
10.652355411
 20
6.8457857692
 30
0.0
 10
10.6479581334
 20
6.8590830941
 30
0.0
 10
10.6444439305
 20
6.8725857553
 30
0.0
 10
10.6418287712
 20
6.8862327466
 30
0.0
 10
10.6401245726
 20
6.8999623958
 30
0.0
 10
10.6393391444
 20
6.9137126395
 30
0.0
 10
10.6394761506
 20
6.9274213015
 30
0.0
 10
10.640535088
 20
6.9410263707
 30
0.0
 10
10.6425112856
 20
6.9544662819
 30
0.0
 10
10.6453959163
 20
6.9676801869
 30
0.0
 10
10.6491760466
 20
6.9806082541
 30
0.0
 10
10.6538346311
 20
6.9931918527
 30
0.0
 10
10.6593508025
 20
7.0053741466
 30
0.0
 10
10.6656991503
 20
7.0170991504
 30
0.0
 10
10.6704730649
 20
7.0245848632
 30
0.0
 10
10.6729872872
 20
7.0282315282
 30
0.0
  0
SPLINE
  5
3E2
100
AcDbEntity
  8
0
100
AcDbSpline
 62
7
  6
CONTINUOUS
 70
0
 71
3
 72
15
 73
11
 74
0
 42
0.0000001
 43
0.0000001
 44
0.0000000001
 40
0.0
 40
0.0
 40
0.0
 40
0.0
 40
0.1267579925
 40
0.2529785999
 40
0.3786697251
 40
0.5038468043
 40
0.6285335341
 40
0.7527611565
 40
0.8765682233
 40
1.0
 40
1.0
 40
1.0
 40
1.0
 10
10.8609350231
 20
8.6408289231
 30
0.0
 10
10.8677237108
 20
8.640358126
 30
0.0
 10
10.8813046283
 20
8.639830539
 30
0.0
 10
10.9016405687
 20
8.6402913837
 30
0.0
 10
10.9218252488
 20
8.642004258
 30
0.0
 10
10.9417819754
 20
8.644962948
 30
0.0
 10
10.961436025
 20
8.6491564124
 30
0.0
 10
10.9807138074
 20
8.6545691613
 30
0.0
 10
10.9995419364
 20
8.6611805254
 30
0.0
 10
11.0117664371
 20
8.6663789943
 30
0.0
 10
11.0177771421
 20
8.6691684277
 30
0.0
  0
SPLINE
  5
3E3
100
AcDbEntity
  8
0
100
AcDbSpline
 62
7
  6
CONTINUOUS
 70
0
 71
3
 72
20
 73
16
 74
0
 42
0.0000001
 43
0.0000001
 44
0.0000000001
 40
0.0
 40
0.0
 40
0.0
 40
0.0
 40
0.1504572429
 40
0.2222009552
 40
0.2917179917
 40
0.4244350495
 40
0.4878976342
 40
0.5495926289
 40
0.6682362658
 40
0.7255681682
 40
0.781805938
 40
0.8371511931
 40
0.8918166409
 40
0.9460237365
 40
1.0
 40
1.0
 40
1.0
 40
1.0
 10
12.3344081361
 20
7.4308888414
 30
0.0
 10
12.3327401562
 20
7.4292776964
 30
0.0
 10
12.3302003974
 20
7.426974586
 30
0.0
 10
12.3267041144
 20
7.424145848
 30
0.0
 10
12.3233182707
 20
7.4216208908
 30
0.0
 10
12.3198846465
 20
7.4193771384
 30
0.0
 10
12.3164078866
 20
7.4174478097
 30
0.0
 10
12.3130336399
 20
7.4157913877
 30
0.0
 10
12.3096198944
 20
7.4144374385
 30
0.0
 10
12.3061869464
 20
7.4134185596
 30
0.0
 10
12.3036487181
 20
7.4128312621
 30
0.0
 10
12.3011189343
 20
7.4124126794
 30
0.0
 10
12.2985982723
 20
7.412162969
 30
0.0
 10
12.2960877452
 20
7.412082247
 30
0.0
 10
12.2944198222
 20
7.4121412314
 30
0.0
 10
12.293589864
 20
7.4121987854
 30
0.0
  0
SPLINE
  5
3E4
100
AcDbEntity
  8
0
100
AcDbSpline
 62
7
  6
CONTINUOUS
 70
0
 71
3
 72
23
 73
19
 74
0
 42
0.0000001
 43
0.0000001
 44
0.0000000001
 40
0.0
 40
0.0
 40
0.0
 40
0.0
 40
0.0427401584
 40
0.0886321503
 40
0.1376211586
 40
0.1896289703
 40
0.2445575848
 40
0.3022920515
 40
0.3627026698
 40
0.4256467486
 40
0.490970064
 40
0.5585081224
 40
0.628087259
 40
0.6995255357
 40
0.7726342557
 40
0.8472169004
 40
0.9230752959
 40
1.0
 40
1.0
 40
1.0
 40
1.0
 10
10.7190085819
 20
8.8864056335
 30
0.0
 10
10.7213382523
 20
8.8875467052
 30
0.0
 10
10.7262332329
 20
8.8897839421
 30
0.0
 10
10.7339790108
 20
8.8929161073
 30
0.0
 10
10.7423695673
 20
8.8959358826
 30
0.0
 10
10.7513804093
 20
8.8988342569
 30
0.0
 10
10.7609854881
 20
8.901602696
 30
0.0
 10
10.7711567956
 20
8.9042329805
 30
0.0
 10
10.7818646246
 20
8.9067173048
 30
0.0
 10
10.7930776309
 20
8.9090482891
 30
0.0
 10
10.80476295
 20
8.9112190107
 30
0.0
 10
10.8168862991
 20
8.9132230233
 30
0.0
 10
10.8294120781
 20
8.9150543765
 30
0.0
 10
10.8423035063
 20
8.9167076473
 30
0.0
 10
10.8555226455
 20
8.9181779135
 30
0.0
 10
10.8690307616
 20
8.9194608562
 30
0.0
 10
10.8827879649
 20
8.9205526177
 30
0.0
 10
10.8920424388
 20
8.9211472712
 30
0.0
 10
10.8967038267
 20
8.9214126966
 30
0.0
  0
SPLINE
  5
3E5
100
AcDbEntity
  8
0
100
AcDbSpline
 62
7
  6
CONTINUOUS
 70
0
 71
3
 72
40
 73
36
 74
0
 42
0.0000001
 43
0.0000001
 44
0.0000000001
 40
0.0
 40
0.0
 40
0.0
 40
0.0
 40
0.0309089969
 40
0.0619472981
 40
0.0931103935
 40
0.1243927704
 40
0.1557866822
 40
0.1872829905
 40
0.2188710212
 40
0.2505388319
 40
0.2822733548
 40
0.3140605971
 40
0.3458858358
 40
0.3777338249
 40
0.4095890056
 40
0.4414357207
 40
0.4732584288
 40
0.5050419184
 40
0.5367715184
 40
0.5684333033
 40
0.6000142911
 40
0.6315026319
 40
0.6628877842
 40
0.694160677
 40
0.7253138554
 40
0.7563416063
 40
0.7872400635
 40
0.8180072873
 40
0.8486433183
 40
0.8791502024
 40
0.9095319843
 40
0.9397946696
 40
0.9548856846
 40
0.9699500374
 40
1.0
 40
1.0
 40
1.0
 40
1.0
 10
10.8402295166
 20
6.6556527284
 30
0.0
 10
10.8351681459
 20
6.6560037356
 30
0.0
 10
10.8250431872
 20
6.6570193764
 30
0.0
 10
10.8099481008
 20
6.6594680096
 30
0.0
 10
10.7949678548
 20
6.6628358999
 30
0.0
 10
10.7801600975
 20
6.6671100677
 30
0.0
 10
10.765580787
 20
6.6722742845
 30
0.0
 10
10.7512853064
 20
6.6783088576
 30
0.0
 10
10.7373278712
 20
6.6851908474
 30
0.0
 10
10.7237614325
 20
6.6928940878
 30
0.0
 10
10.7106374503
 20
6.7013893149
 30
0.0
 10
10.6980057066
 20
6.7106442653
 30
0.0
 10
10.6859141167
 20
6.7206238035
 30
0.0
 10
10.6744085491
 20
6.731290052
 30
0.0
 10
10.6635326534
 20
6.7426025351
 30
0.0
 10
10.6533276952
 20
6.7545183316
 30
0.0
 10
10.643832401
 20
6.7669922358
 30
0.0
 10
10.6350828121
 20
6.7799769286
 30
0.0
 10
10.6271121487
 20
6.7934231547
 30
0.0
 10
10.6199506846
 20
6.8072799087
 30
0.0
 10
10.6136256315
 20
6.8214946261
 30
0.0
 10
10.6081610372
 20
6.8360133818
 30
0.0
 10
10.6035776934
 20
6.8507810923
 30
0.0
 10
10.5998930574
 20
6.8657417232
 30
0.0
 10
10.5971211843
 20
6.8808384992
 30
0.0
 10
10.5952726731
 20
6.8960141187
 30
0.0
 10
10.5943546239
 20
6.9112109657
 30
0.0
 10
10.5943706121
 20
6.9263713384
 30
0.0
 10
10.5953206595
 20
6.941437625
 30
0.0
 10
10.5972012805
 20
6.956352675
 30
0.0
 10
10.6000053076
 20
6.9710594454
 30
0.0
 10
10.6031060067
 20
6.9831075022
 30
0.0
 10
10.6060364613
 20
6.9925835288
 30
0.0
 10
10.6092579505
 20
7.0019273226
 30
0.0
 10
10.6120092623
 20
7.0088098027
 30
0.0
 10
10.6139879444
 20
7.0133280535
 30
0.0
  0
SPLINE
  5
3E6
100
AcDbEntity
  8
0
100
AcDbSpline
 62
7
  6
CONTINUOUS
 70
0
 71
3
 72
25
 73
21
 74
0
 42
0.0000001
 43
0.0000001
 44
0.0000000001
 40
0.0
 40
0.0
 40
0.0
 40
0.0
 40
0.0638409433
 40
0.1274663989
 40
0.1908769929
 40
0.2540771548
 40
0.317072332
 40
0.3798704333
 40
0.4424811717
 40
0.5049161955
 40
0.5671889194
 40
0.6293144221
 40
0.6913092982
 40
0.7222659162
 40
0.7531967127
 40
0.8149853614
 40
0.8767005668
 40
0.9075397627
 40
0.9383684816
 40
1.0
 40
1.0
 40
1.0
 40
1.0
 10
10.6823500294
 20
8.2316772138
 30
0.0
 10
10.6916158168
 20
8.2310346292
 30
0.0
 10
10.7101504937
 20
8.2302006146
 30
0.0
 10
10.7379310759
 20
8.2303115743
 30
0.0
 10
10.7655801437
 20
8.2317862996
 30
0.0
 10
10.7930307422
 20
8.2346213063
 30
0.0
 10
10.8202176222
 20
8.2388099434
 30
0.0
 10
10.8470757604
 20
8.2443422405
 30
0.0
 10
10.8735410371
 20
8.2512050723
 30
0.0
 10
10.8995501895
 20
8.2593820861
 30
0.0
 10
10.9250411819
 20
8.2688538707
 30
0.0
 10
10.949952693
 20
8.2795976308
 30
0.0
 10
10.9701907899
 20
8.2895949029
 30
0.0
 10
10.9860288459
 20
8.2982005926
 30
0.0
 10
11.0016122329
 20
8.3071994981
 30
0.0
 10
11.0206255681
 20
8.3191912324
 30
0.0
 10
11.038976846
 20
8.3321504306
 30
0.0
 10
11.0532242637
 20
8.3430731102
 30
0.0
 10
11.067171469
 20
8.3543565937
 30
0.0
 10
11.0772954076
 20
8.3632264453
 30
0.0
 10
11.0838826571
 20
8.3693098693
 30
0.0
  0
SPLINE
  5
3E7
100
AcDbEntity
  8
0
100
AcDbSpline
 62
7
  6
CONTINUOUS
 70
0
 71
3
 72
46
 73
42
 74
0
 42
0.0000001
 43
0.0000001
 44
0.0000000001
 40
0.0
 40
0.0
 40
0.0
 40
0.0
 40
0.031143804
 40
0.0624406641
 40
0.0938846266
 40
0.1254660369
 40
0.1571726773
 40
0.188989797
 40
0.2209004514
 40
0.2528858567
 40
0.2849257707
 40
0.3169988946
 40
0.3490832879
 40
0.3811567922
 40
0.4131974593
 40
0.4451839758
 40
0.4770960786
 40
0.5089149549
 40
0.5406236259
 40
0.5722072995
 40
0.6036536882
 40
0.6349532936
 40
0.6660996371
 40
0.6970894354
 40
0.727922722
 40
0.7586028953
 40
0.7891366922
 40
0.8043544294
 40
0.8195395762
 40
0.8346938584
 40
0.8498191748
 40
0.8649175902
 40
0.8799913269
 40
0.8950427481
 40
0.9100743467
 40
0.9250887336
 40
0.940088619
 40
0.9550767983
 40
0.9700561375
 40
0.9850295542
 40
1.0
 40
1.0
 40
1.0
 40
1.0
 10
10.6740678266
 20
6.2657454538
 30
0.0
 10
10.6624630193
 20
6.2665502499
 30
0.0
 10
10.6392466458
 20
6.2690132269
 30
0.0
 10
10.6047035627
 20
6.2752175205
 30
0.0
 10
10.5705304639
 20
6.2839078623
 30
0.0
 10
10.5369119208
 20
6.2950375609
 30
0.0
 10
10.5040265238
 20
6.3085469363
 30
0.0
 10
10.4720496919
 20
6.3243637047
 30
0.0
 10
10.441151793
 20
6.3424033941
 30
0.0
 10
10.4114974517
 20
6.362569647
 30
0.0
 10
10.3832446545
 20
6.3847548472
 30
0.0
 10
10.3565439774
 20
6.4088407134
 30
0.0
 10
10.3315376882
 20
6.4346988046
 30
0.0
 10
10.3083590543
 20
6.4621912832
 30
0.0
 10
10.2871316943
 20
6.4911716726
 30
0.0
 10
10.2679688063
 20
6.521485531
 30
0.0
 10
10.2509726252
 20
6.5529713261
 30
0.0
 10
10.2362339553
 20
6.5854613138
 30
0.0
 10
10.2238315562
 20
6.6187823489
 30
0.0
 10
10.2138317689
 20
6.652756835
 30
0.0
 10
10.2062882545
 20
6.6872036807
 30
0.0
 10
10.201241562
 20
6.7219391971
 30
0.0
 10
10.1987189466
 20
6.7567781287
 30
0.0
 10
10.1987342773
 20
6.7915344863
 30
0.0
 10
10.2012879878
 20
6.8260230576
 30
0.0
 10
10.2063664158
 20
6.8600583852
 30
0.0
 10
10.2126887472
 20
6.8879281684
 30
0.0
 10
10.218977281
 20
6.9098076438
 30
0.0
 10
10.2242967305
 20
6.9259756347
 30
0.0
 10
10.230216821
 20
6.9418964297
 30
0.0
 10
10.23672976
 20
6.9575490441
 30
0.0
 10
10.2438268316
 20
6.972912483
 30
0.0
 10
10.2514985284
 20
6.9879662584
 30
0.0
 10
10.2597346593
 20
7.0026902227
 30
0.0
 10
10.2685242133
 20
7.0170647062
 30
0.0
 10
10.2778554179
 20
7.0310705201
 30
0.0
 10
10.2877158642
 20
7.0446889191
 30
0.0
 10
10.2980923459
 20
7.0579016957
 30
0.0
 10
10.308971037
 20
7.0706912804
 30
0.0
 10
10.3203372086
 20
7.0830403047
 30
0.0
 10
10.3282303647
 20
7.090969142
 30
0.0
 10
10.3322522095
 20
7.0948539496
 30
0.0
  0
SPLINE
  5
3E8
100
AcDbEntity
  8
0
100
AcDbSpline
 62
7
  6
CONTINUOUS
 70
0
 71
3
 72
49
 73
45
 74
0
 42
0.0000001
 43
0.0000001
 44
0.0000000001
 40
0.0
 40
0.0
 40
0.0
 40
0.0
 40
0.0311308289
 40
0.0624133556
 40
0.0938417321
 40
0.1254065732
 40
0.1570959546
 40
0.1888954886
 40
0.220788636
 40
0.2527570482
 40
0.2847809355
 40
0.3168394503
 40
0.3489110873
 40
0.3809740929
 40
0.4130068776
 40
0.4449884243
 40
0.4768986914
 40
0.5087190033
 40
0.5404324174
 40
0.572024072
 40
0.603481501
 40
0.6347949065
 40
0.6659573964
 40
0.6969651634
 40
0.7124132719
 40
0.7278227493
 40
0.7431940326
 40
0.7585277609
 40
0.7738247783
 40
0.7890861282
 40
0.8043130464
 40
0.8195069607
 40
0.8346694821
 40
0.8498023946
 40
0.8649076497
 40
0.8799873561
 40
0.8950437658
 40
0.9100792638
 40
0.9250963567
 40
0.9400976556
 40
0.9550858622
 40
0.9700637557
 40
0.9850341747
 40
1.0
 40
1.0
 40
1.0
 40
1.0
 10
10.6823500294
 20
8.2316772138
 30
0.0
 10
10.6685583605
 20
8.2326336692
 30
0.0
 10
10.6409671141
 20
8.2355516598
 30
0.0
 10
10.5999097252
 20
8.2428851206
 30
0.0
 10
10.5592842342
 20
8.2531476193
 30
0.0
 10
10.5193061687
 20
8.2662849667
 30
0.0
 10
10.4801841156
 20
8.2822279627
 30
0.0
 10
10.4421230845
 20
8.3008928699
 30
0.0
 10
10.4053222383
 20
8.3221817265
 30
0.0
 10
10.3699741604
 20
8.3459828304
 30
0.0
 10
10.3362638792
 20
8.3721714918
 30
0.0
 10
10.304367812
 20
8.4006104873
 30
0.0
 10
10.2744528877
 20
8.4311508631
 30
0.0
 10
10.2466757731
 20
8.463632775
 30
0.0
 10
10.2211818837
 20
8.4978861525
 30
0.0
 10
10.198104769
 20
8.5337317205
 30
0.0
 10
10.1775654292
 20
8.570981902
 30
0.0
 10
10.1596715171
 20
8.6094417037
 30
0.0
 10
10.1445169871
 20
8.648909834
 30
0.0
 10
10.132181506
 20
8.689179718
 30
0.0
 10
10.1227299337
 20
8.7300403839
 30
0.0
 10
10.1162122376
 20
8.771278251
 30
0.0
 10
10.1126628763
 20
8.8126758058
 30
0.0
 10
10.1121941956
 20
8.84717478
 30
0.0
 10
10.1133199989
 20
8.8746303128
 30
0.0
 10
10.1149096381
 20
8.895103125
 30
0.0
 10
10.117243574
 20
8.915453129
 30
0.0
 10
10.1203187845
 20
8.9356539664
 30
0.0
 10
10.1241312025
 20
8.9556790519
 30
0.0
 10
10.1286758433
 20
8.97550214
 30
0.0
 10
10.1339468108
 20
8.9950972024
 30
0.0
 10
10.1399371558
 20
9.0144385409
 30
0.0
 10
10.1466390253
 20
9.0335007801
 30
0.0
 10
10.1540436913
 20
9.0522588857
 30
0.0
 10
10.1621414126
 20
9.0706882527
 30
0.0
 10
10.1709215574
 20
9.0887647043
 30
0.0
 10
10.1803726641
 20
9.1064644906
 30
0.0
 10
10.1904823152
 20
9.1237643908
 30
0.0
 10
10.2012372245
 20
9.1406417131
 30
0.0
 10
10.2126233336
 20
9.1570742823
 30
0.0
 10
10.2246256743
 20
9.1730405126
 30
0.0
 10
10.2372285421
 20
9.1885195469
 30
0.0
 10
10.2504151557
 20
9.2034907605
 30
0.0
 10
10.2595853676
 20
9.2131214663
 30
0.0
 10
10.2642609558
 20
9.2178448004
 30
0.0
  0
SPLINE
  5
3E9
100
AcDbEntity
  8
0
100
AcDbSpline
 62
7
  6
CONTINUOUS
 70
0
 71
3
 72
71
 73
67
 74
0
 42
0.0000001
 43
0.0000001
 44
0.0000000001
 40
0.0
 40
0.0
 40
0.0
 40
0.0
 40
0.0156744891
 40
0.0314011565
 40
0.0471782319
 40
0.0630046529
 40
0.0788782371
 40
0.0947966317
 40
0.1107570105
 40
0.1267561896
 40
0.142790644
 40
0.1588565394
 40
0.17494977
 40
0.1910659934
 40
0.2072006691
 40
0.2233490984
 40
0.2395064656
 40
0.2556678793
 40
0.2718284136
 40
0.2879831498
 40
0.3041272183
 40
0.3202558401
 40
0.336364369
 40
0.3524483312
 40
0.3685034642
 40
0.3845257547
 40
0.4005114745
 40
0.4164572155
 40
0.4323599228
 40
0.4482169238
 40
0.4640259548
 40
0.4797851853
 40
0.4954932382
 40
0.5111492075
 40
0.526752672
 40
0.5423037033
 40
0.55780287
 40
0.573251237
 40
0.58865036
 40
0.6040022761
 40
0.6193094886
 40
0.6345749453
 40
0.6498020135
 40
0.6649944481
 40
0.680156357
 40
0.6952921613
 40
0.7104065518
 40
0.7255044415
 40
0.7405909152
 40
0.7556711765
 40
0.770750494
 40
0.7858341458
 40
0.8009273649
 40
0.8160352847
 40
0.8311628855
 40
0.8463149433
 40
0.8614959808
 40
0.8767102225
 40
0.891961554
 40
0.9072534837
 40
0.9225891155
 40
0.9379711086
 40
0.9534016712
 40
0.9688825705
 40
0.9844148293
 40
1.0
 40
1.0
 40
1.0
 40
1.0
 10
10.6823500294
 20
8.4103735022
 30
0.0
 10
10.6760097769
 20
8.4108132002
 30
0.0
 10
10.6633273953
 20
8.4120016495
 30
0.0
 10
10.6443823247
 20
8.4146989869
 30
0.0
 10
10.6255264571
 20
8.4183078789
 30
0.0
 10
10.6068049204
 20
8.4228195668
 30
0.0
 10
10.588261525
 20
8.4282235282
 30
0.0
 10
10.5699400228
 20
8.4345069438
 30
0.0
 10
10.5518835274
 20
8.4416550199
 30
0.0
 10
10.5341345522
 20
8.4496508833
 30
0.0
 10
10.516734877
 20
8.4584756794
 30
0.0
 10
10.4997254599
 20
8.4681086082
 30
0.0
 10
10.4831463408
 20
8.478526973
 30
0.0
 10
10.4670365483
 20
8.4897062344
 30
0.0
 10
10.4514340099
 20
8.5016200674
 30
0.0
 10
10.4363754502
 20
8.5142404074
 30
0.0
 10
10.4218963143
 20
8.5275375318
 30
0.0
 10
10.4080306868
 20
8.5414801308
 30
0.0
 10
10.3948112115
 20
8.5560353793
 30
0.0
 10
10.3822690164
 20
8.571169014
 30
0.0
 10
10.3704336415
 20
8.5868454134
 30
0.0
 10
10.3593329536
 20
8.6030276693
 30
0.0
 10
10.3489930926
 20
8.6196776855
 30
0.0
 10
10.3394384134
 20
8.6367562675
 30
0.0
 10
10.3306914284
 20
8.6542232135
 30
0.0
 10
10.3227727548
 20
8.6720374077
 30
0.0
 10
10.3157010686
 20
8.6901569164
 30
0.0
 10
10.3094930406
 20
8.7085390793
 30
0.0
 10
10.3041633114
 20
8.7271406169
 30
0.0
 10
10.2997244607
 20
8.7459177324
 30
0.0
 10
10.2961869767
 20
8.7648262127
 30
0.0
 10
10.2935592311
 20
8.7838215313
 30
0.0
 10
10.2918474616
 20
8.8028589523
 30
0.0
 10
10.2910557355
 20
8.8218936333
 30
0.0
 10
10.2911859539
 20
8.8408807343
 30
0.0
 10
10.2922378515
 20
8.8597755221
 30
0.0
 10
10.2942089956
 20
8.8785334743
 30
0.0
 10
10.2970947902
 20
8.8971103834
 30
0.0
 10
10.3008884886
 20
8.9154624592
 30
0.0
 10
10.3055811876
 20
8.9335464372
 30
0.0
 10
10.311161861
 20
8.95131968
 30
0.0
 10
10.3176173903
 20
8.968740276
 30
0.0
 10
10.3249325935
 20
8.9857671383
 30
0.0
 10
10.3330902589
 20
9.0023601015
 30
0.0
 10
10.3420711875
 20
9.0184800156
 30
0.0
 10
10.3518542199
 20
9.0340888494
 30
0.0
 10
10.3624162963
 20
9.0491497778
 30
0.0
 10
10.3737325182
 20
9.0636272659
 30
0.0
 10
10.3857762045
 20
9.0774871532
 30
0.0
 10
10.3985189545
 20
9.0906967359
 30
0.0
 10
10.4119307171
 20
9.1032248419
 30
0.0
 10
10.4259798484
 20
9.1150419201
 30
0.0
 10
10.440633196
 20
9.1261201053
 30
0.0
 10
10.4558561844
 20
9.1364332778
 30
0.0
 10
10.4716128958
 20
9.1459571257
 30
0.0
 10
10.487866155
 20
9.1546692028
 30
0.0
 10
10.5045776193
 20
9.1625489772
 30
0.0
 10
10.5217078618
 20
9.1695778978
 30
0.0
 10
10.5392164705
 20
9.1757394296
 30
0.0
 10
10.5570621504
 20
9.1810190857
 30
0.0
 10
10.5752028145
 20
9.1854044554
 30
0.0
 10
10.5935957002
 20
9.1888852415
 30
0.0
 10
10.6121974199
 20
9.1914532838
 30
0.0
 10
10.6309642108
 20
9.1931025285
 30
0.0
 10
10.6498515085
 20
9.1938292746
 30
0.0
 10
10.6624737973
 20
9.1936977061
 30
0.0
 10
10.6687892688
 20
9.1934787746
 30
0.0
  0
SPLINE
  5
3EA
100
AcDbEntity
  8
0
100
AcDbSpline
 62
7
  6
CONTINUOUS
 70
0
 71
3
 72
15
 73
11
 74
0
 42
0.0000001
 43
0.0000001
 44
0.0000000001
 40
0.0
 40
0.0
 40
0.0
 40
0.0
 40
0.1265900298
 40
0.2527049743
 40
0.3783427108
 40
0.5035188411
 40
0.6282477624
 40
0.7525520016
 40
0.8764586557
 40
1.0
 40
1.0
 40
1.0
 40
1.0
 10
10.8402295166
 20
6.6556527284
 30
0.0
 10
10.8446975433
 20
6.6553428697
 30
0.0
 10
10.8536355688
 20
6.6549663226
 30
0.0
 10
10.867026694
 20
6.6551361715
 30
0.0
 10
10.8803386163
 20
6.6560413268
 30
0.0
 10
10.8935309533
 20
6.657679013
 30
0.0
 10
10.9065645301
 20
6.6600444806
 30
0.0
 10
10.9194004797
 20
6.6631307262
 30
0.0
 10
10.9319999529
 20
6.666928391
 30
0.0
 10
10.9402294883
 20
6.6699315868
 30
0.0
 10
10.9442907206
 20
6.6715474831
 30
0.0
  0
SPLINE
  5
3EB
100
AcDbEntity
  8
0
100
AcDbSpline
 62
7
  6
CONTINUOUS
 70
0
 71
3
 72
71
 73
67
 74
0
 42
0.0000001
 43
0.0000001
 44
0.0000000001
 40
0.0
 40
0.0
 40
0.0
 40
0.0
 40
0.0156735462
 40
0.0313986437
 40
0.0471733871
 40
0.0629968802
 40
0.0788669884
 40
0.0947814507
 40
0.110737555
 40
0.1267322346
 40
0.1427620996
 40
0.1588234576
 40
0.1749123512
 40
0.1910245908
 40
0.2071557919
 40
0.2233014129
 40
0.2394567929
 40
0.2556171891
 40
0.2717778169
 40
0.2879338901
 40
0.3040806609
 40
0.3202134585
 40
0.3363277277
 40
0.3524190666
 40
0.3684832658
 40
0.384516344
 40
0.4005145828
 40
0.4164745588
 40
0.4323931746
 40
0.4482676897
 40
0.4640957471
 40
0.4798753957
 40
0.4956051116
 40
0.5112838145
 40
0.5269108837
 40
0.5424861681
 40
0.5580099918
 40
0.5734831546
 40
0.58890693
 40
0.6042830579
 40
0.6196137337
 40
0.6349015906
 40
0.6501496769
 40
0.6653614296
 40
0.6805406442
 40
0.6956914403
 40
0.7108182214
 40
0.7259256326
 40
0.7410185139
 40
0.756101852
 40
0.7711807308
 40
0.7862602802
 40
0.8013456233
 40
0.816441824
 40
0.8315538357
 40
0.8466864515
 40
0.8618442572
 40
0.8770315864
 40
0.8922524779
 40
0.9075106375
 40
0.9228094021
 40
0.9381517177
 40
0.953540092
 40
0.9689766272
 40
0.984462938
 40
1.0
 40
1.0
 40
1.0
 40
1.0
 10
10.7108201008
 20
8.4663435778
 30
0.0
 10
10.7050244934
 20
8.4667455045
 30
0.0
 10
10.6934315712
 20
8.4678278624
 30
0.0
 10
10.6761123468
 20
8.470275751
 30
0.0
 10
10.6588723606
 20
8.4735453364
 30
0.0
 10
10.6417517504
 20
8.4776288694
 30
0.0
 10
10.6247894286
 20
8.4825171187
 30
0.0
 10
10.6080243084
 20
8.4881988183
 30
0.0
 10
10.5914947284
 20
8.4946609479
 30
0.0
 10
10.5752385141
 20
8.5018886835
 30
0.0
 10
10.5592928595
 20
8.509865461
 30
0.0
 10
10.5436942496
 20
8.5185730119
 30
0.0
 10
10.5284783806
 20
8.527991405
 30
0.0
 10
10.5136800654
 20
8.5380990708
 30
0.0
 10
10.4993331555
 20
8.5488728592
 30
0.0
 10
10.4854704746
 20
8.5602881072
 30
0.0
 10
10.4721237419
 20
8.5723186899
 30
0.0
 10
10.4593235042
 20
8.5849370829
 30
0.0
 10
10.4470990544
 20
8.5981144111
 30
0.0
 10
10.4354783574
 20
8.6118205118
 30
0.0
 10
10.4244880051
 20
8.6260240222
 30
0.0
 10
10.4141531529
 20
8.6406924452
 30
0.0
 10
10.4044974659
 20
8.6557922246
 30
0.0
 10
10.3955430576
 20
8.6712888154
 30
0.0
 10
10.3873104201
 20
8.6871467537
 30
0.0
 10
10.3798184047
 20
8.7033297551
 30
0.0
 10
10.3730841751
 20
8.7198007925
 30
0.0
 10
10.3671231704
 20
8.7365221804
 30
0.0
 10
10.3619490685
 20
8.7534556588
 30
0.0
 10
10.3575737256
 20
8.7705624722
 30
0.0
 10
10.3540071783
 20
8.7878034698
 30
0.0
 10
10.3512576207
 20
8.8051391922
 30
0.0
 10
10.3493313848
 20
8.8225299597
 30
0.0
 10
10.3482329292
 20
8.8399359616
 30
0.0
 10
10.3479647954
 20
8.8573173454
 30
0.0
 10
10.348527626
 20
8.8746343121
 30
0.0
 10
10.3499201693
 20
8.8918472059
 30
0.0
 10
10.3521392785
 20
8.9089166023
 30
0.0
 10
10.355179924
 20
8.9258033969
 30
0.0
 10
10.359035174
 20
8.9424688998
 30
0.0
 10
10.3636962225
 20
8.9588749256
 30
0.0
 10
10.3691524244
 20
8.9749838767
 30
0.0
 10
10.3753913136
 20
8.9907588294
 30
0.0
 10
10.3823986357
 20
9.0061636154
 30
0.0
 10
10.3901583595
 20
9.0211629141
 30
0.0
 10
10.3986527113
 20
9.0357223392
 30
0.0
 10
10.4078622385
 20
9.0498085069
 30
0.0
 10
10.4177658478
 20
9.0633891143
 30
0.0
 10
10.428340856
 20
9.0764330113
 30
0.0
 10
10.4395630317
 20
9.0889102795
 30
0.0
 10
10.4514066386
 20
9.1007923166
 30
0.0
 10
10.4638445209
 20
9.1120518823
 30
0.0
 10
10.4768481605
 20
9.1226631634
 30
0.0
 10
10.4903877441
 20
9.1326018315
 30
0.0
 10
10.5044322287
 20
9.1418451002
 30
0.0
 10
10.5189493985
 20
9.1503718049
 30
0.0
 10
10.533905961
 20
9.1581624227
 30
0.0
 10
10.5492676215
 20
9.1651991189
 30
0.0
 10
10.564999162
 20
9.1714657863
 30
0.0
 10
10.5810645219
 20
9.1769480777
 30
0.0
 10
10.5974268681
 20
9.1816334746
 30
0.0
 10
10.6140487041
 20
9.185511278
 30
0.0
 10
10.6308919061
 20
9.1885726518
 30
0.0
 10
10.6479180275
 20
9.1908106066
 30
0.0
 10
10.6650874828
 20
9.1922200283
 30
0.0
 10
10.676585407
 20
9.1926045711
 30
0.0
 10
10.6823440913
 20
9.192658692
 30
0.0
  0
SPLINE
  5
3EC
100
AcDbEntity
  8
0
100
AcDbSpline
 62
7
  6
CONTINUOUS
 70
0
 71
3
 72
11
 73
7
 74
0
 42
0.0000001
 43
0.0000001
 44
0.0000000001
 40
0.0
 40
0.0
 40
0.0
 40
0.0
 40
0.2250230386
 40
0.4669147811
 40
0.7253724904
 40
1.0
 40
1.0
 40
1.0
 40
1.0
 10
10.6919871638
 20
9.0560279275
 30
0.0
 10
10.6923420906
 20
9.056968998
 30
0.0
 10
10.6931064044
 20
9.0589112367
 30
0.0
 10
10.694361703
 20
9.0619007557
 30
0.0
 10
10.6957625315
 20
9.0650689323
 30
0.0
 10
10.6967599024
 20
9.0672329536
 30
0.0
 10
10.6972806614
 20
9.0683445048
 30
0.0
  0
SPLINE
  5
3ED
100
AcDbEntity
  8
0
100
AcDbSpline
 62
7
  6
CONTINUOUS
 70
0
 71
3
 72
15
 73
11
 74
0
 42
0.0000001
 43
0.0000001
 44
0.0000000001
 40
0.0
 40
0.0
 40
0.0
 40
0.0
 40
0.1350355862
 40
0.2682177497
 40
0.3991874876
 40
0.5274810394
 40
0.6525215837
 40
0.7735893398
 40
0.8897842158
 40
1.0
 40
1.0
 40
1.0
 40
1.0
 10
10.6887506997
 20
9.0208679012
 30
0.0
 10
10.6887508535
 20
9.02246042
 30
0.0
 10
10.6887801613
 20
9.0256236876
 30
0.0
 10
10.688916247
 20
9.03032978
 30
0.0
 10
10.6891478662
 20
9.0349525979
 30
0.0
 10
10.6894798489
 20
9.0394730994
 30
0.0
 10
10.6899176739
 20
9.0438673385
 30
0.0
 10
10.6904676917
 20
9.048105321
 30
0.0
 10
10.6911374758
 20
9.0521490419
 30
0.0
 10
10.6916854781
 20
9.054763612
 30
0.0
 10
10.6919871638
 20
9.0560279275
 30
0.0
  0
SPLINE
  5
3EE
100
AcDbEntity
  8
0
100
AcDbSpline
 62
7
  6
CONTINUOUS
 70
0
 71
3
 72
24
 73
20
 74
0
 42
0.0000001
 43
0.0000001
 44
0.0000000001
 40
0.0
 40
0.0
 40
0.0
 40
0.0
 40
0.0638368634
 40
0.1274599253
 40
0.1908687675
 40
0.2540684534
 40
0.3170640436
 40
0.3798634056
 40
0.4424760722
 40
0.5049135053
 40
0.5671889089
 40
0.6293171286
 40
0.6913145111
 40
0.7531987453
 40
0.8149886883
 40
0.8767041753
 40
0.9075430196
 40
0.9383710307
 40
1.0
 40
1.0
 40
1.0
 40
1.0
 10
10.6823500294
 20
6.2737454479
 30
0.0
 10
10.6900357389
 20
6.2732124421
 30
0.0
 10
10.705409767
 20
6.2725186747
 30
0.0
 10
10.7284533966
 20
6.2726016923
 30
0.0
 10
10.7513891224
 20
6.2738099458
 30
0.0
 10
10.774161923
 20
6.2761405386
 30
0.0
 10
10.7967183
 20
6.27958811
 30
0.0
 10
10.8190048545
 20
6.2841445179
 30
0.0
 10
10.8409689458
 20
6.2897990754
 30
0.0
 10
10.8625586484
 20
6.2965384674
 30
0.0
 10
10.8837229232
 20
6.304346815
 30
0.0
 10
10.9044117369
 20
6.3132057047
 30
0.0
 10
10.9245761484
 20
6.3230942168
 30
0.0
 10
10.9441685502
 20
6.3339890664
 30
0.0
 10
10.9631423146
 20
6.3458643065
 30
0.0
 10
10.9784055537
 20
6.3565572904
 30
0.0
 10
10.9902598045
 20
6.3655709871
 30
0.0
 10
11.001867322
 20
6.3748830879
 30
0.0
 10
11.0102966802
 20
6.3822042581
 30
0.0
 10
11.0157831606
 20
6.3872260157
 30
0.0
  0
SPLINE
  5
3EF
100
AcDbEntity
  8
0
100
AcDbSpline
 62
7
  6
CONTINUOUS
 70
0
 71
3
 72
39
 73
35
 74
0
 42
0.0000001
 43
0.0000001
 44
0.0000000001
 40
0.0
 40
0.0
 40
0.0
 40
0.0
 40
0.0311450477
 40
0.0624431084
 40
0.0938883437
 40
0.1254709899
 40
0.1571788839
 40
0.188997261
 40
0.2209091757
 40
0.2528958438
 40
0.2849370232
 40
0.3170114138
 40
0.3490970739
 40
0.3811718445
 40
0.4132137768
 40
0.4452015564
 40
0.4771149185
 40
0.5089350505
 40
0.5406449729
 40
0.5722298927
 40
0.6036775229
 40
0.6349783631
 40
0.6661259342
 40
0.6971169551
 40
0.7279514589
 40
0.7586328422
 40
0.7891678431
 40
0.8195664426
 40
0.8498416842
 40
0.8800094168
 40
0.9100879633
 40
0.94009772
 40
0.9700606953
 40
1.0
 40
1.0
 40
1.0
 40
1.0
 10
10.7187206981
 20
8.5034604255
 30
0.0
 10
10.7105831741
 20
8.5040247647
 30
0.0
 10
10.6943033988
 20
8.505751847
 30
0.0
 10
10.6700811059
 20
8.5101024362
 30
0.0
 10
10.6461182585
 20
8.5161962778
 30
0.0
 10
10.6225442626
 20
8.5240006336
 30
0.0
 10
10.5994843712
 20
8.5334736686
 30
0.0
 10
10.5770615953
 20
8.5445647232
 30
0.0
 10
10.5553953777
 20
8.5572145096
 30
0.0
 10
10.534601166
 20
8.5713554838
 30
0.0
 10
10.5147897516
 20
8.586912192
 30
0.0
 10
10.4960667071
 20
8.6038016757
 30
0.0
 10
10.4785318103
 20
8.6219338886
 30
0.0
 10
10.4622785121
 20
8.6412121731
 30
0.0
 10
10.4473934654
 20
8.6615337928
 30
0.0
 10
10.4339560633
 20
8.6827904663
 30
0.0
 10
10.4220380273
 20
8.7048689403
 30
0.0
 10
10.4117029939
 20
8.7276515669
 30
0.0
 10
10.4030061907
 20
8.7510169367
 30
0.0
 10
10.3959941586
 20
8.7748405226
 30
0.0
 10
10.3907044981
 20
8.7989953305
 30
0.0
 10
10.387165669
 20
8.8233525655
 30
0.0
 10
10.3853967904
 20
8.8477823037
 30
0.0
 10
10.3854075665
 20
8.8721541869
 30
0.0
 10
10.3871982279
 20
8.8963381074
 30
0.0
 10
10.3907595179
 20
8.9202048945
 30
0.0
 10
10.3960727182
 20
8.9436269997
 30
0.0
 10
10.4031097033
 20
8.9664791919
 30
0.0
 10
10.4118331066
 20
8.9886392138
 30
0.0
 10
10.4221965401
 20
9.0099884837
 30
0.0
 10
10.4341446757
 20
9.0304125851
 30
0.0
 10
10.447614102
 20
9.0498024726
 30
0.0
 10
10.4625314459
 20
9.0680529774
 30
0.0
 10
10.4733932569
 20
9.0793999673
 30
0.0
 10
10.4790331225
 20
9.0848476783
 30
0.0
  0
SPLINE
  5
3F0
100
AcDbEntity
  8
0
100
AcDbSpline
 62
7
  6
CONTINUOUS
 70
0
 71
3
 72
39
 73
35
 74
0
 42
0.0000001
 43
0.0000001
 44
0.0000000001
 40
0.0
 40
0.0
 40
0.0
 40
0.0
 40
0.0311300174
 40
0.0624114226
 40
0.0938384848
 40
0.1254017999
 40
0.1570895281
 40
0.1888873476
 40
0.2207787978
 40
0.2527456175
 40
0.2847681041
 40
0.3168254981
 40
0.3488963804
 40
0.380959077
 40
0.4129920685
 40
0.4449743964
 40
0.4768860634
 40
0.5087084208
 40
0.5404245351
 40
0.572019531
 40
0.6034809074
 40
0.6347988115
 40
0.6659662695
 40
0.6969793704
 40
0.7278373933
 40
0.7585428669
 40
0.7891015643
 40
0.8195224301
 40
0.8498174268
 40
0.8800013077
 40
0.910091322
 40
0.9401068488
 40
0.9700689707
 40
1.0
 40
1.0
 40
1.0
 40
1.0
 10
10.6823500294
 20
6.2737454479
 30
0.0
 10
10.6708699181
 20
6.2745415963
 30
0.0
 10
10.6479031494
 20
6.2769689935
 30
0.0
 10
10.6137264165
 20
6.2830666993
 30
0.0
 10
10.5799079044
 20
6.2915982488
 30
0.0
 10
10.5466263692
 20
6.3025187857
 30
0.0
 10
10.514054869
 20
6.3157710275
 30
0.0
 10
10.4823634429
 20
6.3312855571
 30
0.0
 10
10.4517173263
 20
6.3489812482
 30
0.0
 10
10.4222763653
 20
6.3687656551
 30
0.0
 10
10.3941940623
 20
6.3905354197
 30
0.0
 10
10.3676168596
 20
6.4141769003
 30
0.0
 10
10.3426833966
 20
6.4395667609
 30
0.0
 10
10.3195237327
 20
6.466572539
 30
0.0
 10
10.298258688
 20
6.49505336
 30
0.0
 10
10.2789992724
 20
6.5248607036
 30
0.0
 10
10.2618460889
 20
6.5558391408
 30
0.0
 10
10.2468887361
 20
6.5878270986
 30
0.0
 10
10.2342054345
 20
6.6206577509
 30
0.0
 10
10.2238626312
 20
6.6541598665
 30
0.0
 10
10.2159145544
 20
6.6881586567
 30
0.0
 10
10.2104029684
 20
6.7224767012
 30
0.0
 10
10.2073570076
 20
6.7569348676
 30
0.0
 10
10.2067929689
 20
6.7913532182
 30
0.0
 10
10.2087141417
 20
6.8255519454
 30
0.0
 10
10.2131108838
 20
6.8593523104
 30
0.0
 10
10.2199606521
 20
6.8925775545
 30
0.0
 10
10.2292279926
 20
6.9250538469
 30
0.0
 10
10.2408647595
 20
6.9566111822
 30
0.0
 10
10.2548104482
 20
6.9870843151
 30
0.0
 10
10.270992222
 20
7.0163134351
 30
0.0
 10
10.2893260268
 20
7.0441458729
 30
0.0
 10
10.309714181
 20
7.0704338511
 30
0.0
 10
10.3246131834
 20
7.0868466148
 30
0.0
 10
10.3323618689
 20
7.0947447261
 30
0.0
  0
SPLINE
  5
3F1
100
AcDbEntity
  8
0
100
AcDbSpline
 62
7
  6
CONTINUOUS
 70
0
 71
3
 72
21
 73
17
 74
0
 42
0.0000001
 43
0.0000001
 44
0.0000000001
 40
0.0
 40
0.0
 40
0.0
 40
0.0
 40
0.0548441471
 40
0.1091827018
 40
0.1633561658
 40
0.2177174275
 40
0.2726234504
 40
0.3284307172
 40
0.3854817889
 40
0.4441039463
 40
0.5671676329
 40
0.6998072788
 40
0.7702731846
 40
0.8437108041
 40
0.9202526929
 40
1.0
 40
1.0
 40
1.0
 40
1.0
 10
10.6673855267
 20
9.0382070619
 30
0.0
 10
10.6679731711
 20
9.0381663823
 30
0.0
 10
10.6691472248
 20
9.0381357682
 30
0.0
 10
10.6709005105
 20
9.038246469
 30
0.0
 10
10.6726316748
 20
9.0385142865
 30
0.0
 10
10.6743373424
 20
9.0389392583
 30
0.0
 10
10.6760145284
 20
9.0395213183
 30
0.0
 10
10.6776605202
 20
9.040259873
 30
0.0
 10
10.6792728651
 20
9.0411545414
 30
0.0
 10
10.6814091823
 20
9.0425769745
 30
0.0
 10
10.6839922726
 20
9.044770525
 30
0.0
 10
10.6863436257
 20
9.0473793278
 30
0.0
 10
10.6881428629
 20
9.0497438599
 30
0.0
 10
10.6894773237
 20
9.0517009545
 30
0.0
 10
10.6907692811
 20
9.053803963
 30
0.0
 10
10.6915854447
 20
9.0552714546
 30
0.0
 10
10.6919871638
 20
9.0560279275
 30
0.0
  0
SPLINE
  5
3F2
100
AcDbEntity
  8
0
100
AcDbSpline
 62
7
  6
CONTINUOUS
 70
0
 71
3
 72
61
 73
57
 74
0
 42
0.0000001
 43
0.0000001
 44
0.0000000001
 40
0.0
 40
0.0
 40
0.0
 40
0.0
 40
0.0156667955
 40
0.0313831731
 40
0.047146733
 40
0.0629570608
 40
0.0788122545
 40
0.0947102598
 40
0.1106487439
 40
0.1266249966
 40
0.1586710818
 40
0.1908291298
 40
0.2230687126
 40
0.2553569314
 40
0.287659416
 40
0.3199413697
 40
0.3521686127
 40
0.3843086165
 40
0.4163315072
 40
0.4482109982
 40
0.4640938102
 40
0.4799330073
 40
0.49572668
 40
0.511473286
 40
0.5271716618
 40
0.5428210341
 40
0.5584210361
 40
0.573971712
 40
0.5894735165
 40
0.6049273175
 40
0.620334396
 40
0.6356964357
 40
0.651015509
 40
0.6662940667
 40
0.6815349205
 40
0.696741217
 40
0.7119164109
 40
0.7270642407
 40
0.7421886945
 40
0.7572939729
 40
0.7723844512
 40
0.7874646432
 40
0.8025391581
 40
0.8176126563
 40
0.832689807
 40
0.8477752469
 40
0.8628735369
 40
0.8779891176
 40
0.8931262698
 40
0.9082890789
 40
0.9234813965
 40
0.9387068046
 40
0.9539685857
 40
0.969269703
 40
0.9846127671
 40
1.0
 40
1.0
 40
1.0
 40
1.0
 10
10.6823500294
 20
6.4505098845
 30
0.0
 10
10.6778001246
 20
6.4508254215
 30
0.0
 10
10.6686989773
 20
6.4516651013
 30
0.0
 10
10.6550984054
 20
6.4535422925
 30
0.0
 10
10.6415544282
 20
6.4560355127
 30
0.0
 10
10.6280958607
 20
6.4591393271
 30
0.0
 10
10.61475046
 20
6.4628473893
 30
0.0
 10
10.6015461875
 20
6.4671518531
 30
0.0
 10
10.5885102448
 20
6.4720438825
 30
0.0
 10
10.5713751033
 20
6.4793424682
 30
0.0
 10
10.5505140434
 20
6.4898847537
 30
0.0
 10
10.526611105
 20
6.5046771707
 30
0.0
 10
10.5040047915
 20
6.5215038035
 30
0.0
 10
10.4828842524
 20
6.5402241222
 30
0.0
 10
10.4634245789
 20
6.5606825305
 30
0.0
 10
10.4457876908
 20
6.5827090404
 30
0.0
 10
10.4301201843
 20
6.6061204671
 30
0.0
 10
10.4165525057
 20
6.6307227612
 30
0.0
 10
10.4051979709
 20
6.6563100581
 30
0.0
 10
10.3976482716
 20
6.6783097233
 30
0.0
 10
10.3928053807
 20
6.6961855964
 30
0.0
 10
10.3897806202
 20
6.7096881981
 30
0.0
 10
10.387365852
 20
6.7232726134
 30
0.0
 10
10.3855659847
 20
6.7369108466
 30
0.0
 10
10.3843848368
 20
6.7505743931
 30
0.0
 10
10.3838249161
 20
6.7642347966
 30
0.0
 10
10.3838873809
 20
6.7778635729
 30
0.0
 10
10.3845721164
 20
6.7914323128
 30
0.0
 10
10.3858777471
 20
6.8049127235
 30
0.0
 10
10.3878015844
 20
6.8182766913
 30
0.0
 10
10.3903396081
 20
6.8314963494
 30
0.0
 10
10.3934865523
 20
6.8445441258
 30
0.0
 10
10.3972359132
 20
6.8573927915
 30
0.0
 10
10.401579874
 20
6.8700155422
 30
0.0
 10
10.4065093746
 20
6.8823860473
 30
0.0
 10
10.4120141643
 20
6.8944784872
 30
0.0
 10
10.418082804
 20
6.9062676087
 30
0.0
 10
10.4247026137
 20
6.9177288199
 30
0.0
 10
10.4318597876
 20
6.9288382026
 30
0.0
 10
10.4395394252
 20
6.9395725505
 30
0.0
 10
10.4477255126
 20
6.9499094486
 30
0.0
 10
10.4564009441
 20
6.9598273392
 30
0.0
 10
10.4655476208
 20
6.9693055193
 30
0.0
 10
10.4751464801
 20
6.9783241779
 30
0.0
 10
10.4851774706
 20
6.9868645061
 30
0.0
 10
10.4956196409
 20
6.994908699
 30
0.0
 10
10.5064512037
 20
7.0024399622
 30
0.0
 10
10.5176495635
 20
7.0094425597
 30
0.0
 10
10.5291913223
 20
7.015901919
 30
0.0
 10
10.5410523866
 20
7.0218045812
 30
0.0
 10
10.5532080104
 20
7.0271382189
 30
0.0
 10
10.5656328303
 20
7.0318917158
 30
0.0
 10
10.5783008771
 20
7.0360552025
 30
0.0
 10
10.5911858226
 20
7.0396200266
 30
0.0
 10
10.6042604076
 20
7.0425786782
 30
0.0
 10
10.6130729607
 20
7.044140756
 30
0.0
 10
10.6175007238
 20
7.0448192622
 30
0.0
  0
SPLINE
  5
3F3
100
AcDbEntity
  8
0
100
AcDbSpline
 62
7
  6
CONTINUOUS
 70
0
 71
3
 72
55
 73
51
 74
0
 42
0.0000001
 43
0.0000001
 44
0.0000000001
 40
0.0
 40
0.0
 40
0.0
 40
0.0
 40
0.0313647221
 40
0.0629165337
 40
0.0946447574
 40
0.1265325222
 40
0.15855837
 40
0.1906967334
 40
0.2229187253
 40
0.2551930209
 40
0.2874867806
 40
0.3197666003
 40
0.3519994789
 40
0.3841537773
 40
0.4162001424
 40
0.4481123943
 40
0.4798683371
 40
0.5114504745
 40
0.5271761518
 40
0.542854286
 40
0.5584842622
 40
0.5740658494
 40
0.5895991987
 40
0.6050848511
 40
0.6205237403
 40
0.6359171812
 40
0.6512668635
 40
0.6665748476
 40
0.6818435451
 40
0.6970756978
 40
0.712274364
 40
0.7274428925
 40
0.7425848908
 40
0.7577041981
 40
0.7728048558
 40
0.7878910687
 40
0.802967167
 40
0.818037573
 40
0.8331067604
 40
0.8481792115
 40
0.8632593794
 40
0.8783516512
 40
0.8934603058
 40
0.908589475
 40
0.9237431123
 40
0.9389249582
 40
0.9541385042
 40
0.9693869662
 40
0.9846732659
 40
1.0
 40
1.0
 40
1.0
 40
1.0
 10
10.7097848255
 20
6.498773136
 30
0.0
 10
10.7015081183
 20
6.4993471276
 30
0.0
 10
10.684947688
 20
6.5012414255
 30
0.0
 10
10.6603910273
 20
6.5062674309
 30
0.0
 10
10.6362294329
 20
6.5134464737
 30
0.0
 10
10.612658338
 20
6.5227206424
 30
0.0
 10
10.5898651551
 20
6.5340154296
 30
0.0
 10
10.5680319577
 20
6.5472404191
 30
0.0
 10
10.5473328107
 20
6.5622897355
 30
0.0
 10
10.5279328659
 20
6.5790431479
 30
0.0
 10
10.5099869163
 20
6.5973668793
 30
0.0
 10
10.4936381337
 20
6.617114633
 30
0.0
 10
10.4790171404
 20
6.6381288996
 30
0.0
 10
10.466240708
 20
6.6602420134
 30
0.0
 10
10.4554110754
 20
6.6832774979
 30
0.0
 10
10.4466150122
 20
6.7070519315
 30
0.0
 10
10.4399231854
 20
6.7313742595
 30
0.0
 10
10.4361391952
 20
6.7519725672
 30
0.0
 10
10.4342146423
 20
6.7685265399
 30
0.0
 10
10.4333245581
 20
6.7809402905
 30
0.0
 10
10.4329878864
 20
6.7933430286
 30
0.0
 10
10.4332052362
 20
6.8057102283
 30
0.0
 10
10.4339762552
 20
6.8180170558
 30
0.0
 10
10.4352994064
 20
6.8302388935
 30
0.0
 10
10.437172028
 20
6.8423512719
 30
0.0
 10
10.4395904197
 20
6.8543299369
 30
0.0
 10
10.4425497826
 20
6.8661508923
 30
0.0
 10
10.4460441646
 20
6.877790474
 30
0.0
 10
10.4500665954
 20
6.8892253677
 30
0.0
 10
10.45460908
 20
6.9004326486
 30
0.0
 10
10.4596624958
 20
6.9113898769
 30
0.0
 10
10.465216726
 20
6.9220751054
 30
0.0
 10
10.4712606988
 20
6.9324669002
 30
0.0
 10
10.477782301
 20
6.9425444425
 30
0.0
 10
10.4847684497
 20
6.9522875551
 30
0.0
 10
10.4922051828
 20
6.9616766936
 30
0.0
 10
10.5000776162
 20
6.9706930285
 30
0.0
 10
10.5083699437
 20
6.9793185215
 30
0.0
 10
10.5170655623
 20
6.9875358813
 30
0.0
 10
10.5261470759
 20
6.9953286098
 30
0.0
 10
10.5355962534
 20
7.0026811293
 30
0.0
 10
10.5453941565
 20
7.0095787196
 30
0.0
 10
10.5555211765
 20
7.0160075268
 30
0.0
 10
10.5659570029
 20
7.0219546989
 30
0.0
 10
10.5766807084
 20
7.0274083566
 30
0.0
 10
10.5876708281
 20
7.0323575561
 30
0.0
 10
10.5989053176
 20
7.0367923836
 30
0.0
 10
10.6103617406
 20
7.040704031
 30
0.0
 10
10.6220168212
 20
7.0440846026
 30
0.0
 10
10.6298937993
 20
7.0459773036
 30
0.0
 10
10.6338566288
 20
7.0468332862
 30
0.0
  0
SPLINE
  5
3F4
100
AcDbEntity
  8
0
100
AcDbSpline
 62
7
  6
CONTINUOUS
 70
0
 71
3
 72
39
 73
35
 74
0
 42
0.0000001
 43
0.0000001
 44
0.0000000001
 40
0.0
 40
0.0
 40
0.0
 40
0.0
 40
0.0311450264
 40
0.062443103
 40
0.0938883509
 40
0.1254709879
 40
0.1571788856
 40
0.1889972606
 40
0.2209091751
 40
0.2528958436
 40
0.2849370235
 40
0.3170114144
 40
0.3490970746
 40
0.381171845
 40
0.4132137769
 40
0.445201556
 40
0.4771149182
 40
0.508935051
 40
0.5406449742
 40
0.5722298939
 40
0.6036775233
 40
0.6349783634
 40
0.6661259345
 40
0.6971169551
 40
0.7279514584
 40
0.7586328417
 40
0.7891678438
 40
0.8195664441
 40
0.8498416857
 40
0.8800094177
 40
0.9100879638
 40
0.9400977202
 40
0.9700606954
 40
1.0
 40
1.0
 40
1.0
 40
1.0
 10
10.7180590059
 20
6.5376450699
 30
0.0
 10
10.7120561119
 20
6.538061372
 30
0.0
 10
10.7000468294
 20
6.5393354068
 30
0.0
 10
10.6821784987
 20
6.5425447529
 30
0.0
 10
10.6645015545
 20
6.5470400679
 30
0.0
 10
10.6471114643
 20
6.5527972054
 30
0.0
 10
10.6301006189
 20
6.5597852847
 30
0.0
 10
10.6135597557
 20
6.567966939
 30
0.0
 10
10.5975769912
 20
6.5772984406
 30
0.0
 10
10.582237492
 20
6.5877299695
 30
0.0
 10
10.5676229886
 20
6.5992058652
 30
0.0
 10
10.5538113544
 20
6.6116649221
 30
0.0
 10
10.5408761896
 20
6.625040712
 30
0.0
 10
10.5288864383
 20
6.6392619396
 30
0.0
 10
10.5179060234
 20
6.6542528179
 30
0.0
 10
10.5079935097
 20
6.6699334679
 30
0.0
 10
10.4992017939
 20
6.686220339
 30
0.0
 10
10.4915778245
 20
6.7030266492
 30
0.0
 10
10.4851623527
 20
6.7202628412
 30
0.0
 10
10.4799897151
 20
6.7378370536
 30
0.0
 10
10.4760876425
 20
6.7556556021
 30
0.0
 10
10.473477114
 20
6.7736234747
 30
0.0
 10
10.4721722422
 20
6.7916448319
 30
0.0
 10
10.4721801917
 20
6.8096235108
 30
0.0
 10
10.4735011322
 20
6.8274635328
 30
0.0
 10
10.4761282287
 20
6.8450696118
 30
0.0
 10
10.4800476656
 20
6.8623476601
 30
0.0
 10
10.4852387118
 20
6.8792052939
 30
0.0
 10
10.4916738071
 20
6.8955523228
 30
0.0
 10
10.4993187271
 20
6.9113012715
 30
0.0
 10
10.5081326455
 20
6.9263677433
 30
0.0
 10
10.5180687826
 20
6.9406713006
 30
0.0
 10
10.5290730211
 20
6.9541343586
 30
0.0
 10
10.537085578
 20
6.9625048154
 30
0.0
 10
10.5412459983
 20
6.9665234915
 30
0.0
  0
SPLINE
  5
3F5
100
AcDbEntity
  8
0
100
AcDbSpline
 62
7
  6
CONTINUOUS
 70
0
 71
3
 72
90
 73
86
 74
0
 42
0.0000001
 43
0.0000001
 44
0.0000000001
 40
0.0
 40
0.0
 40
0.0
 40
0.0
 40
0.0027164161
 40
0.0054532042
 40
0.0082302557
 40
0.0110665249
 40
0.0139797103
 40
0.0169859906
 40
0.0200999233
 40
0.0233344115
 40
0.0267007267
 40
0.03020865
 40
0.0338665219
 40
0.037681453
 40
0.0416593866
 40
0.0458052705
 40
0.0501231624
 40
0.0546163044
 40
0.05928728
 40
0.0641380041
 40
0.0691698883
 40
0.074383819
 40
0.0797802599
 40
0.0853592863
 40
0.0911205905
 40
0.0970635843
 40
0.1094902289
 40
0.1226293717
 40
0.1364669317
 40
0.1509856416
 40
0.1661654371
 40
0.1819837774
 40
0.1984159058
 40
0.215435067
 40
0.2330126943
 40
0.2511185732
 40
0.2697209872
 40
0.2887868504
 40
0.3082818346
 40
0.3281704884
 40
0.3484163492
 40
0.3689820511
 40
0.3898294297
 40
0.410919625
 40
0.4322131812
 40
0.4536701493
 40
0.4752501863
 40
0.4969126541
 40
0.5186167167
 40
0.5403214385
 40
0.5619858817
 40
0.583569205
 40
0.605030762
 40
0.6263301992
 40
0.6474275545
 40
0.6682833559
 40
0.6888587212
 40
0.70911546
 40
0.7290161786
 40
0.7485243844
 40
0.7676045932
 40
0.7862224409
 40
0.8043448006
 40
0.8219399072
 40
0.8389774919
 40
0.8554289325
 40
0.8712674145
 40
0.8864681158
 40
0.9010084229
 40
0.9148681885
 40
0.9280300453
 40
0.9343448951
 40
0.9404802507
 40
0.9464348979
 40
0.9522079219
 40
0.9577986875
 40
0.9632068744
 40
0.9684325511
 40
0.9734761281
 40
0.9783384812
 40
0.9830209275
 40
0.9875254311
 40
0.9918546016
 40
0.9960115654
 40
1.0
 40
1.0
 40
1.0
 40
1.0
 10
12.3752264082
 20
8.5893714399
 30
0.0
 10
12.3763275712
 20
8.589295079
 30
0.0
 10
12.3785325166
 20
8.5890421185
 30
0.0
 10
12.3818118749
 20
8.5883652292
 30
0.0
 10
12.3850664316
 20
8.5873909052
 30
0.0
 10
12.3882939075
 20
8.5861202074
 30
0.0
 10
12.3914925916
 20
8.5845541594
 30
0.0
 10
12.3946608776
 20
8.5826940603
 30
0.0
 10
12.3977972937
 20
8.5805412048
 30
0.0
 10
12.4009004297
 20
8.5780969456
 30
0.0
 10
12.403968988
 20
8.5753627529
 30
0.0
 10
12.4070015828
 20
8.5723400611
 30
0.0
 10
12.4099969591
 20
8.5690305075
 30
0.0
 10
12.4129537278
 20
8.565435722
 30
0.0
 10
12.4158705888
 20
8.5615575269
 30
0.0
 10
12.4187461842
 20
8.5573978282
 30
0.0
 10
12.4215791456
 20
8.5529586671
 30
0.0
 10
12.4243681659
 20
8.5482422475
 30
0.0
 10
12.4271118404
 20
8.543250867
 30
0.0
 10
12.4298088956
 20
8.5379870153
 30
0.0
 10
12.4324579536
 20
8.5324532759
 30
0.0
 10
12.4350577399
 20
8.5266524052
 30
0.0
 10
12.4376069559
 20
8.5205872799
 30
0.0
 10
12.4401043088
 20
8.5142609185
 30
0.0
 10
12.4425486138
 20
8.5076764714
 30
0.0
 10
12.4457834054
 20
8.4984193331
 30
0.0
 10
12.4496734294
 20
8.4862181575
 30
0.0
 10
12.4540441949
 20
8.4708123776
 30
0.0
 10
12.4581756408
 20
8.4544626014
 30
0.0
 10
12.4620593924
 20
8.4372015529
 30
0.0
 10
12.4656875586
 20
8.4190636224
 30
0.0
 10
12.4690527608
 20
8.4000850978
 30
0.0
 10
12.4721481511
 20
8.3803039823
 30
0.0
 10
12.4749674288
 20
8.3597599342
 30
0.0
 10
12.4775048548
 20
8.3384941715
 30
0.0
 10
12.4797552629
 20
8.3165493855
 30
0.0
 10
12.48171407
 20
8.2939696514
 30
0.0
 10
12.483377289
 20
8.2708003368
 30
0.0
 10
12.4847415326
 20
8.2470880064
 30
0.0
 10
12.48580402
 20
8.222880325
 30
0.0
 10
12.4865625817
 20
8.1982259594
 30
0.0
 10
12.4870156634
 20
8.17317448
 30
0.0
 10
12.4871623291
 20
8.1477762604
 30
0.0
 10
12.4870022623
 20
8.1220823756
 30
0.0
 10
12.4865357697
 20
8.0961444991
 30
0.0
 10
12.4857637775
 20
8.0700147972
 30
0.0
 10
12.4846878288
 20
8.0437458229
 30
0.0
 10
12.4833100807
 20
8.01739041
 30
0.0
 10
12.4816332996
 20
7.991001567
 30
0.0
 10
12.4796608558
 20
7.96463237
 30
0.0
 10
12.4773967164
 20
7.9383358561
 30
0.0
 10
12.4748454405
 20
7.9121649153
 30
0.0
 10
12.4720121672
 20
7.8861721833
 30
0.0
 10
12.4689026053
 20
7.8604099358
 30
0.0
 10
12.4655230215
 20
7.8349299831
 30
0.0
 10
12.4618802281
 20
7.8097835656
 30
0.0
 10
12.4579815697
 20
7.7850212507
 30
0.0
 10
12.4538349083
 20
7.7606928291
 30
0.0
 10
12.4494486107
 20
7.7368472125
 30
0.0
 10
12.4448315291
 20
7.7135323348
 30
0.0
 10
12.4399929833
 20
7.6907950548
 30
0.0
 10
12.4349427424
 20
7.6686810611
 30
0.0
 10
12.429691005
 20
7.6472347784
 30
0.0
 10
12.4242483794
 20
7.6264992754
 30
0.0
 10
12.418625861
 20
7.6065161726
 30
0.0
 10
12.4128348135
 20
7.587325554
 30
0.0
 10
12.4068869414
 20
7.5689658752
 30
0.0
 10
12.4007942648
 20
7.5514739018
 30
0.0
 10
12.3945690893
 20
7.5348845497
 30
0.0
 10
12.3882239825
 20
7.519231068
 30
0.0
 10
12.382774563
 20
7.5068267897
 30
0.0
 10
12.3783568694
 20
7.4974030758
 30
0.0
 10
12.3750673655
 20
7.4906861682
 30
0.0
 10
12.3717574742
 20
7.4842256923
 30
0.0
 10
12.3684288511
 20
7.4780248649
 30
0.0
 10
12.3650831708
 20
7.4720867808
 30
0.0
 10
12.3617220774
 20
7.4664144078
 30
0.0
 10
12.3583472848
 20
7.4610105489
 30
0.0
 10
12.3549604162
 20
7.4558779188
 30
0.0
 10
12.3515632165
 20
7.4510190463
 30
0.0
 10
12.348157314
 20
7.4464363484
 30
0.0
 10
12.344744363
 20
7.4421320539
 30
0.0
 10
12.3413259599
 20
7.4381082499
 30
0.0
 10
12.337903914
 20
7.4343671202
 30
0.0
 10
12.3355738237
 20
7.4320148092
 30
0.0
 10
12.3344081361
 20
7.4308888414
 30
0.0
  0
SPLINE
  5
3F6
100
AcDbEntity
  8
0
100
AcDbSpline
 62
4
  6
CONTINUOUS
 70
0
 71
3
 72
403
 73
399
 74
0
 42
0.0000001
 43
0.0000001
 44
0.0000000001
 40
0.0
 40
0.0
 40
0.0
 40
0.0
 40
0.015625
 40
0.0234375
 40
0.03125
 40
0.0390625
 40
0.04296875
 40
0.046875
 40
0.05078125
 40
0.0546875
 40
0.056640625
 40
0.05859375
 40
0.0595703125
 40
0.060546875
 40
0.0615234375
 40
0.0620117188
 40
0.0622558594
 40
0.0625
 40
0.0627441406
 40
0.0629882812
 40
0.0634765625
 40
0.064453125
 40
0.0654296875
 40
0.06640625
 40
0.068359375
 40
0.0703125
 40
0.07421875
 40
0.078125
 40
0.08203125
 40
0.0859375
 40
0.09375
 40
0.1015625
 40
0.10546875
 40
0.109375
 40
0.11328125
 40
0.1171875
 40
0.119140625
 40
0.12109375
 40
0.1220703125
 40
0.123046875
 40
0.1240234375
 40
0.1245117188
 40
0.1247558594
 40
0.125
 40
0.1252441406
 40
0.1254882812
 40
0.1259765625
 40
0.126953125
 40
0.1279296875
 40
0.12890625
 40
0.130859375
 40
0.1328125
 40
0.13671875
 40
0.140625
 40
0.14453125
 40
0.1484375
 40
0.15625
 40
0.1640625
 40
0.16796875
 40
0.171875
 40
0.17578125
 40
0.1796875
 40
0.181640625
 40
0.18359375
 40
0.1845703125
 40
0.185546875
 40
0.1865234375
 40
0.1870117188
 40
0.1872558594
 40
0.1875
 40
0.1877441406
 40
0.1879882812
 40
0.1884765625
 40
0.189453125
 40
0.1904296875
 40
0.19140625
 40
0.193359375
 40
0.1953125
 40
0.19921875
 40
0.203125
 40
0.20703125
 40
0.2109375
 40
0.21875
 40
0.2265625
 40
0.23046875
 40
0.234375
 40
0.23828125
 40
0.2421875
 40
0.244140625
 40
0.24609375
 40
0.2470703125
 40
0.248046875
 40
0.2490234375
 40
0.2495117188
 40
0.2497558594
 40
0.25
 40
0.2502441406
 40
0.2504882812
 40
0.2509765625
 40
0.251953125
 40
0.2529296875
 40
0.25390625
 40
0.255859375
 40
0.2578125
 40
0.26171875
 40
0.265625
 40
0.26953125
 40
0.2734375
 40
0.28125
 40
0.2890625
 40
0.29296875
 40
0.296875
 40
0.30078125
 40
0.3046875
 40
0.306640625
 40
0.30859375
 40
0.3095703125
 40
0.310546875
 40
0.3115234375
 40
0.3120117188
 40
0.3122558594
 40
0.3125
 40
0.3127441406
 40
0.3129882812
 40
0.3134765625
 40
0.314453125
 40
0.3154296875
 40
0.31640625
 40
0.318359375
 40
0.3203125
 40
0.32421875
 40
0.328125
 40
0.33203125
 40
0.3359375
 40
0.34375
 40
0.3515625
 40
0.35546875
 40
0.359375
 40
0.36328125
 40
0.3671875
 40
0.369140625
 40
0.37109375
 40
0.3720703125
 40
0.373046875
 40
0.3740234375
 40
0.3745117188
 40
0.3747558594
 40
0.375
 40
0.3752441406
 40
0.3754882812
 40
0.3759765625
 40
0.376953125
 40
0.3779296875
 40
0.37890625
 40
0.380859375
 40
0.3828125
 40
0.38671875
 40
0.390625
 40
0.39453125
 40
0.3984375
 40
0.40625
 40
0.4140625
 40
0.41796875
 40
0.421875
 40
0.42578125
 40
0.4296875
 40
0.431640625
 40
0.43359375
 40
0.4345703125
 40
0.435546875
 40
0.4365234375
 40
0.4370117188
 40
0.4372558594
 40
0.4375
 40
0.4377441406
 40
0.4379882812
 40
0.4384765625
 40
0.439453125
 40
0.4404296875
 40
0.44140625
 40
0.443359375
 40
0.4453125
 40
0.44921875
 40
0.453125
 40
0.45703125
 40
0.4609375
 40
0.46875
 40
0.4765625
 40
0.48046875
 40
0.484375
 40
0.48828125
 40
0.4921875
 40
0.494140625
 40
0.49609375
 40
0.4970703125
 40
0.498046875
 40
0.4990234375
 40
0.4995117188
 40
0.4997558594
 40
0.5
 40
0.5002441406
 40
0.5004882812
 40
0.5009765625
 40
0.501953125
 40
0.5029296875
 40
0.50390625
 40
0.505859375
 40
0.5078125
 40
0.51171875
 40
0.515625
 40
0.51953125
 40
0.5234375
 40
0.53125
 40
0.5390625
 40
0.54296875
 40
0.546875
 40
0.55078125
 40
0.5546875
 40
0.556640625
 40
0.55859375
 40
0.5595703125
 40
0.560546875
 40
0.5615234375
 40
0.5620117188
 40
0.5622558594
 40
0.5625
 40
0.5627441406
 40
0.5629882812
 40
0.5634765625
 40
0.564453125
 40
0.5654296875
 40
0.56640625
 40
0.568359375
 40
0.5703125
 40
0.57421875
 40
0.578125
 40
0.58203125
 40
0.5859375
 40
0.59375
 40
0.6015625
 40
0.60546875
 40
0.609375
 40
0.61328125
 40
0.6171875
 40
0.619140625
 40
0.62109375
 40
0.6220703125
 40
0.623046875
 40
0.6240234375
 40
0.6245117188
 40
0.6247558594
 40
0.625
 40
0.6252441406
 40
0.6254882812
 40
0.6259765625
 40
0.626953125
 40
0.6279296875
 40
0.62890625
 40
0.630859375
 40
0.6328125
 40
0.63671875
 40
0.640625
 40
0.64453125
 40
0.6484375
 40
0.65625
 40
0.6640625
 40
0.66796875
 40
0.671875
 40
0.67578125
 40
0.6796875
 40
0.681640625
 40
0.68359375
 40
0.6845703125
 40
0.685546875
 40
0.6865234375
 40
0.6870117188
 40
0.6872558594
 40
0.6875
 40
0.6877441406
 40
0.6879882812
 40
0.6884765625
 40
0.689453125
 40
0.6904296875
 40
0.69140625
 40
0.693359375
 40
0.6953125
 40
0.69921875
 40
0.703125
 40
0.70703125
 40
0.7109375
 40
0.71875
 40
0.7265625
 40
0.73046875
 40
0.734375
 40
0.73828125
 40
0.7421875
 40
0.744140625
 40
0.74609375
 40
0.7470703125
 40
0.748046875
 40
0.7490234375
 40
0.7495117188
 40
0.7497558594
 40
0.75
 40
0.7502441406
 40
0.7504882812
 40
0.7509765625
 40
0.751953125
 40
0.7529296875
 40
0.75390625
 40
0.755859375
 40
0.7578125
 40
0.76171875
 40
0.765625
 40
0.76953125
 40
0.7734375
 40
0.78125
 40
0.7890625
 40
0.79296875
 40
0.796875
 40
0.80078125
 40
0.8046875
 40
0.806640625
 40
0.80859375
 40
0.8095703125
 40
0.810546875
 40
0.8115234375
 40
0.8120117188
 40
0.8122558594
 40
0.8125
 40
0.8127441406
 40
0.8129882812
 40
0.8134765625
 40
0.814453125
 40
0.8154296875
 40
0.81640625
 40
0.818359375
 40
0.8203125
 40
0.82421875
 40
0.828125
 40
0.83203125
 40
0.8359375
 40
0.84375
 40
0.8515625
 40
0.85546875
 40
0.859375
 40
0.86328125
 40
0.8671875
 40
0.869140625
 40
0.87109375
 40
0.8720703125
 40
0.873046875
 40
0.8740234375
 40
0.8745117188
 40
0.8747558594
 40
0.875
 40
0.8752441406
 40
0.8754882812
 40
0.8759765625
 40
0.876953125
 40
0.8779296875
 40
0.87890625
 40
0.880859375
 40
0.8828125
 40
0.88671875
 40
0.890625
 40
0.89453125
 40
0.8984375
 40
0.90625
 40
0.9140625
 40
0.91796875
 40
0.921875
 40
0.92578125
 40
0.9296875
 40
0.931640625
 40
0.93359375
 40
0.9345703125
 40
0.935546875
 40
0.9365234375
 40
0.9370117188
 40
0.9372558594
 40
0.9375
 40
0.9377441406
 40
0.9379882812
 40
0.9384765625
 40
0.939453125
 40
0.9404296875
 40
0.94140625
 40
0.943359375
 40
0.9453125
 40
0.94921875
 40
0.953125
 40
0.95703125
 40
0.9609375
 40
0.96875
 40
0.9765625
 40
0.984375
 40
1.0
 40
1.0
 40
1.0
 40
1.0
 10
10.9039580914
 20
7.4688009564
 30
0.0
 10
10.9042653031
 20
7.4656464642
 30
0.0
 10
10.9047261206
 20
7.4609147261
 30
0.0
 10
10.9053405439
 20
7.4546057418
 30
0.0
 10
10.9058013614
 20
7.4498740036
 30
0.0
 10
10.9061853758
 20
7.4459308885
 30
0.0
 10
10.9064925878
 20
7.4427763964
 30
0.0
 10
10.9067229956
 20
7.4404105272
 30
0.0
 10
10.906953408
 20
7.4380446586
 30
0.0
 10
10.9071454038
 20
7.4360730995
 30
0.0
 10
10.907299033
 20
7.4344958565
 30
0.0
 10
10.9073949772
 20
7.43351007
 30
0.0
 10
10.9074719022
 20
7.4327214627
 30
0.0
 10
10.9075291314
 20
7.4321299474
 30
0.0
 10
10.9075783001
 20
7.4316372082
 30
0.0
 10
10.9076098184
 20
7.4312919176
 30
0.0
 10
10.9076323567
 20
7.4310951912
 30
0.0
 10
10.9076365053
 20
7.4309460055
 30
0.0
 10
10.9076894103
 20
7.4308030924
 30
0.0
 10
10.9077429436
 20
7.4306103537
 30
0.0
 10
10.9078445506
 20
7.4302740805
 30
0.0
 10
10.9079855608
 20
7.4297931571
 30
0.0
 10
10.9081565463
 20
7.4292162771
 30
0.0
 10
10.9083839076
 20
7.4284470242
 30
0.0
 10
10.9086683212
 20
7.4274854853
 30
0.0
 10
10.9091232646
 20
7.4259470079
 30
0.0
 10
10.9096919844
 20
7.4240239163
 30
0.0
 10
10.9103744308
 20
7.4217162041
 30
0.0
 10
10.9110568818
 20
7.4194084926
 30
0.0
 10
10.9119668148
 20
7.4163315436
 30
0.0
 10
10.9131042318
 20
7.4124853576
 30
0.0
 10
10.9142416483
 20
7.4086391714
 30
0.0
 10
10.915151582
 20
7.4055622226
 30
0.0
 10
10.9158340312
 20
7.4032545106
 30
0.0
 10
10.9165164847
 20
7.4009468001
 30
0.0
 10
10.9170851822
 20
7.3990237034
 30
0.0
 10
10.917540171
 20
7.3974852365
 30
0.0
 10
10.9178244691
 20
7.3965236707
 30
0.0
 10
10.9180520675
 20
7.3957544729
 30
0.0
 10
10.9182223285
 20
7.3951774245
 30
0.0
 10
10.9183656054
 20
7.3946970283
 30
0.0
 10
10.9184631661
 20
7.3943598139
 30
0.0
 10
10.9185231825
 20
7.394168583
 30
0.0
 10
10.9185561733
 20
7.3940210386
 30
0.0
 10
10.9186351167
 20
7.3938892476
 30
0.0
 10
10.9187243459
 20
7.3937080314
 30
0.0
 10
10.9188879649
 20
7.3933934632
 30
0.0
 10
10.9191178021
 20
7.3929427416
 30
0.0
 10
10.9193952778
 20
7.3924024485
 30
0.0
 10
10.9197646618
 20
7.3916818576
 30
0.0
 10
10.9202265916
 20
7.3907811876
 30
0.0
 10
10.9209655676
 20
7.3893400772
 30
0.0
 10
10.9218893259
 20
7.3875387024
 30
0.0
 10
10.9229978195
 20
7.385377047
 30
0.0
 10
10.9241063174
 20
7.383215393
 30
0.0
 10
10.9255843132
 20
7.3803331873
 30
0.0
 10
10.9274318084
 20
7.3767304303
 30
0.0
 10
10.9292793033
 20
7.3731276732
 30
0.0
 10
10.9307572996
 20
7.3702454677
 30
0.0
 10
10.9318657957
 20
7.368083813
 30
0.0
 10
10.9329742961
 20
7.3659221604
 30
0.0
 10
10.9338980332
 20
7.3641207769
 30
0.0
 10
10.9346370526
 20
7.3626796842
 30
0.0
 10
10.9350988719
 20
7.3617789691
 30
0.0
 10
10.9354684827
 20
7.3610584707
 30
0.0
 10
10.9357452656
 20
7.3605178951
 30
0.0
 10
10.9359772703
 20
7.3600680575
 30
0.0
 10
10.93613702
 20
7.3597519111
 30
0.0
 10
10.9362324488
 20
7.3595732235
 30
0.0
 10
10.9362923489
 20
7.3594336656
 30
0.0
 10
10.936396863
 20
7.3593152925
 30
0.0
 10
10.9365206533
 20
7.3591500722
 30
0.0
 10
10.9367445368
 20
7.3588643797
 30
0.0
 10
10.9370605798
 20
7.3584544475
 30
0.0
 10
10.9374414538
 20
7.3579632992
 30
0.0
 10
10.9379487192
 20
7.3573081658
 30
0.0
 10
10.9385829949
 20
7.3564893412
 30
0.0
 10
10.9395977277
 20
7.3551791704
 30
0.0
 10
10.9408661808
 20
7.3535414745
 30
0.0
 10
10.9423883086
 20
7.3515762318
 30
0.0
 10
10.9439104407
 20
7.3496109911
 30
0.0
 10
10.9459399487
 20
7.3469906696
 30
0.0
 10
10.9484768342
 20
7.3437152679
 30
0.0
 10
10.9510137193
 20
7.340439866
 30
0.0
 10
10.9530432278
 20
7.3378195448
 30
0.0
 10
10.9545653583
 20
7.335854303
 30
0.0
 10
10.956087492
 20
7.3338890647
 30
0.0
 10
10.957355927
 20
7.3322513552
 30
0.0
 10
10.9583706967
 20
7.330941212
 30
0.0
 10
10.9590048783
 20
7.3301223169
 30
0.0
 10
10.959512337
 20
7.3294673283
 30
0.0
 10
10.9598926203
 20
7.3289757375
 30
0.0
 10
10.9602105116
 20
7.32856719
 30
0.0
 10
10.9604310955
 20
7.3282790256
 30
0.0
 10
10.9605601726
 20
7.3281177659
 30
0.0
 10
10.9606484473
 20
7.3279872272
 30
0.0
 10
10.96076934
 20
7.3278933613
 30
0.0
 10
10.9609191527
 20
7.3277554148
 30
0.0
 10
10.961186626
 20
7.3275199686
 30
0.0
 10
10.9615659593
 20
7.3271805008
 30
0.0
 10
10.9620223456
 20
7.3267744732
 30
0.0
 10
10.9626304462
 20
7.3262326372
 30
0.0
 10
10.9633907138
 20
7.3255555018
 30
0.0
 10
10.9646070628
 20
7.3244719959
 30
0.0
 10
10.9661275262
 20
7.3231176441
 30
0.0
 10
10.9679520706
 20
7.3214924089
 30
0.0
 10
10.9697766181
 20
7.3198671772
 30
0.0
 10
10.9722093471
 20
7.3177002003
 30
0.0
 10
10.9752502587
 20
7.3149914797
 30
0.0
 10
10.97829117
 20
7.3122827588
 30
0.0
 10
10.9807238994
 20
7.3101157825
 30
0.0
 10
10.9825484457
 20
7.3084905492
 30
0.0
 10
10.9843729946
 20
7.3068653197
 30
0.0
 10
10.9858934439
 20
7.3055109501
 30
0.0
 10
10.9871098217
 20
7.3044274807
 30
0.0
 10
10.9878700158
 20
7.3037502524
 30
0.0
 10
10.9884782674
 20
7.3032086069
 30
0.0
 10
10.9889341926
 20
7.3028019975
 30
0.0
 10
10.9893149682
 20
7.30246435
 30
0.0
 10
10.9895798667
 20
7.3022256543
 30
0.0
 10
10.989733805
 20
7.3020929143
 30
0.0
 10
10.9898420254
 20
7.3019830559
 30
0.0
 10
10.9899778953
 20
7.3019125824
 30
0.0
 10
10.9901494107
 20
7.3018048798
 30
0.0
 10
10.9904540562
 20
7.301622801
 30
0.0
 10
10.9908869148
 20
7.3013593422
 30
0.0
 10
10.9914073507
 20
7.3010446239
 30
0.0
 10
10.9921009141
 20
7.3006244992
 30
0.0
 10
10.9929679885
 20
7.3000995146
 30
0.0
 10
10.9943552403
 20
7.2992594435
 30
0.0
 10
10.9960893281
 20
7.2982093876
 30
0.0
 10
10.9981702237
 20
7.2969493064
 30
0.0
 10
11.0002511219
 20
7.2956892289
 30
0.0
 10
11.0030256519
 20
7.2940091243
 30
0.0
 10
11.0064938147
 20
7.291908994
 30
0.0
 10
11.0099619773
 20
7.2898088634
 30
0.0
 10
11.0127365076
 20
7.2881287594
 30
0.0
 10
11.0148174048
 20
7.2868686802
 30
0.0
 10
11.0168983039
 20
7.2856086053
 30
0.0
 10
11.0186323808
 20
7.2845585296
 30
0.0
 10
11.020019655
 20
7.2837184988
 30
0.0
 10
11.0208866724
 20
7.2831934118
 30
0.0
 10
11.0215803528
 20
7.2827734973
 30
0.0
 10
11.0221004311
 20
7.2824581369
 30
0.0
 10
11.0225344085
 20
7.2821966871
 30
0.0
 10
11.0228370567
 20
7.2820110218
 30
0.0
 10
11.0230117724
 20
7.2819090657
 30
0.0
 10
11.0231378122
 20
7.2818209409
 30
0.0
 10
11.0232829527
 20
7.2817773778
 30
0.0
 10
11.0234698108
 20
7.2817037501
 30
0.0
 10
11.0237999167
 20
7.2815821436
 30
0.0
 10
11.0242698737
 20
7.2814046337
 30
0.0
 10
11.0248345167
 20
7.2811932426
 30
0.0
 10
11.0255871314
 20
7.2809108217
 30
0.0
 10
11.0265279829
 20
7.2805579893
 30
0.0
 10
11.0280332988
 20
7.2799933492
 30
0.0
 10
11.0299149597
 20
7.2792875863
 30
0.0
 10
11.0321729459
 20
7.2784406549
 30
0.0
 10
11.0344309339
 20
7.2775937277
 30
0.0
 10
11.037441584
 20
7.27646449
 30
0.0
 10
11.0412048968
 20
7.2750529434
 30
0.0
 10
11.0449682094
 20
7.2736413964
 30
0.0
 10
11.0479788597
 20
7.2725121593
 30
0.0
 10
11.050236847
 20
7.2716652302
 30
0.0
 10
11.0524948358
 20
7.2708183058
 30
0.0
 10
11.0543764887
 20
7.2701125212
 30
0.0
 10
11.0558818207
 20
7.2695479253
 30
0.0
 10
11.0568226314
 20
7.2691949804
 30
0.0
 10
11.0575753299
 20
7.2689127905
 30
0.0
 10
11.0581397168
 20
7.2687006935
 30
0.0
 10
11.0586104751
 20
7.2685253922
 30
0.0
 10
11.0589391506
 20
7.2683998432
 30
0.0
 10
11.0591283005
 20
7.2683325323
 30
0.0
 10
11.0592664013
 20
7.2682695658
 30
0.0
 10
11.0594188812
 20
7.2682543167
 30
0.0
 10
11.059617172
 20
7.2682173402
 30
0.0
 10
11.0599665179
 20
7.2681603862
 30
0.0
 10
11.0604643618
 20
7.2680749689
 30
0.0
 10
11.0610622973
 20
7.2679742037
 30
0.0
 10
11.0618593621
 20
7.2678392439
 30
0.0
 10
11.0628557556
 20
7.2676707516
 30
0.0
 10
11.0644499502
 20
7.267401048
 30
0.0
 10
11.0664427055
 20
7.2670639583
 30
0.0
 10
11.0688340067
 20
7.2666594337
 30
0.0
 10
11.0712253092
 20
7.2662549135
 30
0.0
 10
11.0744137122
 20
7.2657155518
 30
0.0
 10
11.078399216
 20
7.2650413502
 30
0.0
 10
11.0823847198
 20
7.2643671482
 30
0.0
 10
11.0855731228
 20
7.2638277871
 30
0.0
 10
11.0879644251
 20
7.263423265
 30
0.0
 10
11.0903557271
 20
7.2630187478
 30
0.0
 10
11.09234848
 20
7.2626816349
 30
0.0
 10
11.0939426794
 20
7.2624119786
 30
0.0
 10
11.0949390608
 20
7.2622433661
 30
0.0
 10
11.0957361503
 20
7.2621086532
 30
0.0
 10
11.0963340101
 20
7.2620071335
 30
0.0
 10
11.0968320911
 20
7.2619240766
 30
0.0
 10
11.0971810136
 20
7.2618629091
 30
0.0
 10
11.097379983
 20
7.2618326837
 30
0.0
 10
11.0975303786
 20
7.2617966973
 30
0.0
 10
11.0976763075
 20
7.2618116163
 30
0.0
 10
11.0978724375
 20
7.2618137519
 30
0.0
 10
11.0982149389
 20
7.2618257622
 30
0.0
 10
11.0987046063
 20
7.2618385946
 30
0.0
 10
11.0992920447
 20
7.2618558449
 30
0.0
 10
11.1000753526
 20
7.2618781985
 30
0.0
 10
11.1010544681
 20
7.261906362
 30
0.0
 10
11.1026210637
 20
7.2619512998
 30
0.0
 10
11.1045793044
 20
7.2620075145
 30
0.0
 10
11.106929195
 20
7.262074954
 30
0.0
 10
11.109279085
 20
7.2621423983
 30
0.0
 10
11.112412272
 20
7.2622323224
 30
0.0
 10
11.1163287556
 20
7.2623447281
 30
0.0
 10
11.1202452393
 20
7.2624571334
 30
0.0
 10
11.1233784262
 20
7.2625470582
 30
0.0
 10
11.1257283165
 20
7.2626145005
 30
0.0
 10
11.128078206
 20
7.2626819475
 30
0.0
 10
11.1300364501
 20
7.2627381387
 30
0.0
 10
11.1316030389
 20
7.2627831245
 30
0.0
 10
11.1325821716
 20
7.2628111656
 30
0.0
 10
11.1333654442
 20
7.2628337705
 30
0.0
 10
11.1339529906
 20
7.2628502532
 30
0.0
 10
11.13444232
 20
7.2628654868
 30
0.0
 10
11.1347854247
 20
7.2628732107
 30
0.0
 10
11.1349805881
 20
7.2628822143
 30
0.0
 10
11.1351294861
 20
7.2628760368
 30
0.0
 10
11.1352687302
 20
7.2629192853
 30
0.0
 10
11.1354577563
 20
7.2629597095
 30
0.0
 10
11.1357869832
 20
7.2630384846
 30
0.0
 10
11.1362581275
 20
7.2631468209
 30
0.0
 10
11.1368231495
 20
7.2632786219
 30
0.0
 10
11.1375766349
 20
7.2634537288
 30
0.0
 10
11.1385184496
 20
7.2636728274
 30
0.0
 10
11.1400253766
 20
7.264023265
 30
0.0
 10
11.1419090274
 20
7.2644613532
 30
0.0
 10
11.1441694117
 20
7.2649870413
 30
0.0
 10
11.1464297951
 20
7.2655127342
 30
0.0
 10
11.14944364
 20
7.2662136565
 30
0.0
 10
11.1532109459
 20
7.2670898099
 30
0.0
 10
11.156978252
 20
7.2679659628
 30
0.0
 10
11.1599920967
 20
7.2686668857
 30
0.0
 10
11.1622524807
 20
7.2691925767
 30
0.0
 10
11.1645128628
 20
7.2697182721
 30
0.0
 10
11.1663965203
 20
7.2701563376
 30
0.0
 10
11.1679034336
 20
7.2705068215
 30
0.0
 10
11.1688452832
 20
7.2707258022
 30
0.0
 10
11.169598697
 20
7.2709011512
 30
0.0
 10
11.1701639378
 20
7.2710322126
 30
0.0
 10
11.1706343977
 20
7.2711428629
 30
0.0
 10
11.1709648462
 20
7.271217507
 30
0.0
 10
11.171151915
 20
7.2712645502
 30
0.0
 10
11.1712971715
 20
7.2712874673
 30
0.0
 10
11.1714234877
 20
7.2713576507
 30
0.0
 10
11.1715985159
 20
7.2714347416
 30
0.0
 10
11.171901737
 20
7.2715773322
 30
0.0
 10
11.1723365194
 20
7.2717770171
 30
0.0
 10
11.1728575695
 20
7.2720183579
 30
0.0
 10
11.1735525435
 20
7.2723395452
 30
0.0
 10
11.1744211786
 20
7.272741235
 30
0.0
 10
11.1758110408
 20
7.2733838237
 30
0.0
 10
11.1775483528
 20
7.2741870991
 30
0.0
 10
11.1796331339
 20
7.2751510126
 30
0.0
 10
11.1817179132
 20
7.2761149306
 30
0.0
 10
11.1844976196
 20
7.277400153
 30
0.0
 10
11.1879722524
 20
7.2790066817
 30
0.0
 10
11.1914468853
 20
7.2806132099
 30
0.0
 10
11.1942265914
 20
7.281898433
 30
0.0
 10
11.1963113716
 20
7.2828623491
 30
0.0
 10
11.1983961495
 20
7.2838262697
 30
0.0
 10
11.2001334716
 20
7.284629523
 30
0.0
 10
11.2015233131
 20
7.2852721566
 30
0.0
 10
11.2023920009
 20
7.2856737323
 30
0.0
 10
11.2030868667
 20
7.2859951539
 30
0.0
 10
11.2036082474
 20
7.286235779
 30
0.0
 10
11.2040419954
 20
7.2864377031
 30
0.0
 10
11.2043470631
 20
7.2865762963
 30
0.0
 10
11.2045191327
 20
7.286659792
 30
0.0
 10
11.2046545365
 20
7.2867103019
 30
0.0
 10
11.2047656615
 20
7.2868071094
 30
0.0
 10
11.2049222969
 20
7.286920037
 30
0.0
 10
11.2051924631
 20
7.2871251844
 30
0.0
 10
11.2055804777
 20
7.2874143185
 30
0.0
 10
11.2060452122
 20
7.2877629631
 30
0.0
 10
11.2066651666
 20
7.2882272344
 30
0.0
 10
11.207440004
 20
7.288807775
 30
0.0
 10
11.2086798029
 20
7.2897365274
 30
0.0
 10
11.2102295313
 20
7.2908975065
 30
0.0
 10
11.2120892141
 20
7.2922906649
 30
0.0
 10
11.2139488945
 20
7.2936838277
 30
0.0
 10
11.2164284692
 20
7.2955413766
 30
0.0
 10
11.2195279373
 20
7.2978633133
 30
0.0
 10
11.2226274056
 20
7.3001852496
 30
0.0
 10
11.2251069799
 20
7.302042799
 30
0.0
 10
11.2269666616
 20
7.3034359601
 30
0.0
 10
11.2288263396
 20
7.3048291247
 30
0.0
 10
11.2303760828
 20
7.3059900846
 30
0.0
 10
11.2316158514
 20
7.3069188761
 30
0.0
 10
11.232390766
 20
7.3074993172
 30
0.0
 10
11.2330105621
 20
7.3079637929
 30
0.0
 10
11.2334757802
 20
7.3083118132
 30
0.0
 10
11.2338622819
 20
7.3086029005
 30
0.0
 10
11.2341351488
 20
7.308804561
 30
0.0
 10
11.234287457
 20
7.3089230755
 30
0.0
 10
11.2344118738
 20
7.3090027219
 30
0.0
 10
11.2344973558
 20
7.3091176864
 30
0.0
 10
11.2346249126
 20
7.309258653
 30
0.0
 10
11.2348418096
 20
7.3095110845
 30
0.0
 10
11.2351549705
 20
7.3098687
 30
0.0
 10
11.2355293476
 20
7.3102991231
 30
0.0
 10
11.2360290116
 20
7.3108725719
 30
0.0
 10
11.2366534224
 20
7.3115895365
 30
0.0
 10
11.2376525741
 20
7.312736594
 30
0.0
 10
11.2389014814
 20
7.3141704454
 30
0.0
 10
11.2404001841
 20
7.3158910545
 30
0.0
 10
11.241898883
 20
7.3176116669
 30
0.0
 10
11.2438971495
 20
7.3199058156
 30
0.0
 10
11.2463949822
 20
7.3227735019
 30
0.0
 10
11.2488928152
 20
7.3256411879
 30
0.0
 10
11.2508910812
 20
7.327935337
 30
0.0
 10
11.2523897817
 20
7.3296559481
 30
0.0
 10
11.2538884783
 20
7.3313765621
 30
0.0
 10
11.2551374044
 20
7.332810398
 30
0.0
 10
11.2561365177
 20
7.3339574871
 30
0.0
 10
11.2567610263
 20
7.3346743714
 30
0.0
 10
11.2572604895
 20
7.3352479851
 30
0.0
 10
11.2576354803
 20
7.3356779046
 30
0.0
 10
11.257946721
 20
7.3360370956
 30
0.0
 10
11.2581670459
 20
7.3362867145
 30
0.0
 10
11.2582891103
 20
7.3364321876
 30
0.0
 10
11.2583914636
 20
7.3365333097
 30
0.0
 10
11.2584525145
 20
7.3366649458
 30
0.0
 10
11.2585483224
 20
7.3368298169
 30
0.0
 10
11.2587092739
 20
7.3371233004
 30
0.0
 10
11.2589427139
 20
7.3375399699
 30
0.0
 10
11.2592213399
 20
7.338041083
 30
0.0
 10
11.2595933658
 20
7.3387088462
 30
0.0
 10
11.2600582186
 20
7.339543683
 30
0.0
 10
11.2608020834
 20
7.3408793476
 30
0.0
 10
11.2617318799
 20
7.3425489539
 30
0.0
 10
11.2628476506
 20
7.3445524705
 30
0.0
 10
11.2639634172
 20
7.34655599
 30
0.0
 10
11.2654511075
 20
7.3492273483
 30
0.0
 10
11.2673107199
 20
7.3525665465
 30
0.0
 10
11.2691703326
 20
7.3559057446
 30
0.0
 10
11.2706580223
 20
7.3585771032
 30
0.0
 10
11.2717737908
 20
7.3605806217
 30
0.0
 10
11.2728895548
 20
7.3625841423
 30
0.0
 10
11.2738193719
 20
7.3642537361
 30
0.0
 10
11.2745631949
 20
7.365589426
 30
0.0
 10
11.275028154
 20
7.3664241984
 30
0.0
 10
11.2753999616
 20
7.3670920938
 30
0.0
 10
11.2756792545
 20
7.3675928031
 30
0.0
 10
11.2759106079
 20
7.3680107361
 30
0.0
 10
11.2760752844
 20
7.368301964
 30
0.0
 10
11.2761651239
 20
7.3684704492
 30
0.0
 10
11.2762445078
 20
7.3685909838
 30
0.0
 10
11.2762780054
 20
7.3687338012
 30
0.0
 10
11.2763386745
 20
7.3689164519
 30
0.0
 10
11.2764373881
 20
7.369239712
 30
0.0
 10
11.2765823063
 20
7.3696996189
 30
0.0
 10
11.2767545393
 20
7.3702523175
 30
0.0
 10
11.2769847662
 20
7.3709889659
 30
0.0
 10
11.2772723503
 20
7.3719098734
 30
0.0
 10
11.2777325964
 20
7.3733832711
 30
0.0
 10
11.2783078657
 20
7.3752250369
 30
0.0
 10
11.2789982052
 20
7.3774351479
 30
0.0
 10
11.2796885404
 20
7.379645261
 30
0.0
 10
11.2806089889
 20
7.3825920777
 30
0.0
 10
11.2817595488
 20
7.3862755989
 30
0.0
 10
11.2829101092
 20
7.38995912
 30
0.0
 10
11.283830557
 20
7.392905937
 30
0.0
 10
11.2845208941
 20
7.3951160493
 30
0.0
 10
11.2852112265
 20
7.3973261633
 30
0.0
 10
11.285786518
 20
7.3991679197
 30
0.0
 10
11.2862467187
 20
7.4006413366
 30
0.0
 10
11.2865344182
 20
7.4015621952
 30
0.0
 10
11.2867644083
 20
7.4022989439
 30
0.0
 10
11.2869373649
 20
7.4028513362
 30
0.0
 10
11.2870800191
 20
7.4033122014
 30
0.0
 10
11.2871827743
 20
7.4036337508
 30
0.0
 10
11.2872369677
 20
7.4038191424
 30
0.0
 10
11.2872903568
 20
7.4039535406
 30
0.0
 10
11.2872950314
 20
7.4041056964
 30
0.0
 10
11.2873182564
 20
7.4043023767
 30
0.0
 10
11.2873509832
 20
7.4046494531
 30
0.0
 10
11.2874018748
 20
7.4051437679
 30
0.0
 10
11.2874611731
 20
7.4057375913
 30
0.0
 10
11.2875408563
 20
7.4065291304
 30
0.0
 10
11.2876402484
 20
7.4075186314
 30
0.0
 10
11.2877993942
 20
7.40910179
 30
0.0
 10
11.2879982859
 20
7.4110807529
 30
0.0
 10
11.2882369733
 20
7.4134555022
 30
0.0
 10
11.288475656
 20
7.4158302531
 30
0.0
 10
11.2887939012
 20
7.418996587
 30
0.0
 10
11.2891917072
 20
7.4229545047
 30
0.0
 10
11.2896690747
 20
7.4277040058
 30
0.0
 10
11.2903055645
 20
7.4340366739
 30
0.0
 10
11.2907829319
 20
7.438786175
 30
0.0
 10
11.2911011769
 20
7.4419525091
 30
0.0
  0
SPLINE
  5
3F7
100
AcDbEntity
  8
0
100
AcDbSpline
 62
4
  6
CONTINUOUS
 70
0
 71
3
 72
403
 73
399
 74
0
 42
0.0000001
 43
0.0000001
 44
0.0000000001
 40
0.0
 40
0.0
 40
0.0
 40
0.0
 40
0.015625
 40
0.0234375
 40
0.03125
 40
0.0390625
 40
0.04296875
 40
0.046875
 40
0.05078125
 40
0.0546875
 40
0.056640625
 40
0.05859375
 40
0.0595703125
 40
0.060546875
 40
0.0615234375
 40
0.0620117188
 40
0.0622558594
 40
0.0625
 40
0.0627441406
 40
0.0629882812
 40
0.0634765625
 40
0.064453125
 40
0.0654296875
 40
0.06640625
 40
0.068359375
 40
0.0703125
 40
0.07421875
 40
0.078125
 40
0.08203125
 40
0.0859375
 40
0.09375
 40
0.1015625
 40
0.10546875
 40
0.109375
 40
0.11328125
 40
0.1171875
 40
0.119140625
 40
0.12109375
 40
0.1220703125
 40
0.123046875
 40
0.1240234375
 40
0.1245117188
 40
0.1247558594
 40
0.125
 40
0.1252441406
 40
0.1254882812
 40
0.1259765625
 40
0.126953125
 40
0.1279296875
 40
0.12890625
 40
0.130859375
 40
0.1328125
 40
0.13671875
 40
0.140625
 40
0.14453125
 40
0.1484375
 40
0.15625
 40
0.1640625
 40
0.16796875
 40
0.171875
 40
0.17578125
 40
0.1796875
 40
0.181640625
 40
0.18359375
 40
0.1845703125
 40
0.185546875
 40
0.1865234375
 40
0.1870117188
 40
0.1872558594
 40
0.1875
 40
0.1877441406
 40
0.1879882812
 40
0.1884765625
 40
0.189453125
 40
0.1904296875
 40
0.19140625
 40
0.193359375
 40
0.1953125
 40
0.19921875
 40
0.203125
 40
0.20703125
 40
0.2109375
 40
0.21875
 40
0.2265625
 40
0.23046875
 40
0.234375
 40
0.23828125
 40
0.2421875
 40
0.244140625
 40
0.24609375
 40
0.2470703125
 40
0.248046875
 40
0.2490234375
 40
0.2495117188
 40
0.2497558594
 40
0.25
 40
0.2502441406
 40
0.2504882812
 40
0.2509765625
 40
0.251953125
 40
0.2529296875
 40
0.25390625
 40
0.255859375
 40
0.2578125
 40
0.26171875
 40
0.265625
 40
0.26953125
 40
0.2734375
 40
0.28125
 40
0.2890625
 40
0.29296875
 40
0.296875
 40
0.30078125
 40
0.3046875
 40
0.306640625
 40
0.30859375
 40
0.3095703125
 40
0.310546875
 40
0.3115234375
 40
0.3120117188
 40
0.3122558594
 40
0.3125
 40
0.3127441406
 40
0.3129882812
 40
0.3134765625
 40
0.314453125
 40
0.3154296875
 40
0.31640625
 40
0.318359375
 40
0.3203125
 40
0.32421875
 40
0.328125
 40
0.33203125
 40
0.3359375
 40
0.34375
 40
0.3515625
 40
0.35546875
 40
0.359375
 40
0.36328125
 40
0.3671875
 40
0.369140625
 40
0.37109375
 40
0.3720703125
 40
0.373046875
 40
0.3740234375
 40
0.3745117188
 40
0.3747558594
 40
0.375
 40
0.3752441406
 40
0.3754882812
 40
0.3759765625
 40
0.376953125
 40
0.3779296875
 40
0.37890625
 40
0.380859375
 40
0.3828125
 40
0.38671875
 40
0.390625
 40
0.39453125
 40
0.3984375
 40
0.40625
 40
0.4140625
 40
0.41796875
 40
0.421875
 40
0.42578125
 40
0.4296875
 40
0.431640625
 40
0.43359375
 40
0.4345703125
 40
0.435546875
 40
0.4365234375
 40
0.4370117188
 40
0.4372558594
 40
0.4375
 40
0.4377441406
 40
0.4379882812
 40
0.4384765625
 40
0.439453125
 40
0.4404296875
 40
0.44140625
 40
0.443359375
 40
0.4453125
 40
0.44921875
 40
0.453125
 40
0.45703125
 40
0.4609375
 40
0.46875
 40
0.4765625
 40
0.48046875
 40
0.484375
 40
0.48828125
 40
0.4921875
 40
0.494140625
 40
0.49609375
 40
0.4970703125
 40
0.498046875
 40
0.4990234375
 40
0.4995117188
 40
0.4997558594
 40
0.5
 40
0.5002441406
 40
0.5004882812
 40
0.5009765625
 40
0.501953125
 40
0.5029296875
 40
0.50390625
 40
0.505859375
 40
0.5078125
 40
0.51171875
 40
0.515625
 40
0.51953125
 40
0.5234375
 40
0.53125
 40
0.5390625
 40
0.54296875
 40
0.546875
 40
0.55078125
 40
0.5546875
 40
0.556640625
 40
0.55859375
 40
0.5595703125
 40
0.560546875
 40
0.5615234375
 40
0.5620117188
 40
0.5622558594
 40
0.5625
 40
0.5627441406
 40
0.5629882812
 40
0.5634765625
 40
0.564453125
 40
0.5654296875
 40
0.56640625
 40
0.568359375
 40
0.5703125
 40
0.57421875
 40
0.578125
 40
0.58203125
 40
0.5859375
 40
0.59375
 40
0.6015625
 40
0.60546875
 40
0.609375
 40
0.61328125
 40
0.6171875
 40
0.619140625
 40
0.62109375
 40
0.6220703125
 40
0.623046875
 40
0.6240234375
 40
0.6245117188
 40
0.6247558594
 40
0.625
 40
0.6252441406
 40
0.6254882812
 40
0.6259765625
 40
0.626953125
 40
0.6279296875
 40
0.62890625
 40
0.630859375
 40
0.6328125
 40
0.63671875
 40
0.640625
 40
0.64453125
 40
0.6484375
 40
0.65625
 40
0.6640625
 40
0.66796875
 40
0.671875
 40
0.67578125
 40
0.6796875
 40
0.681640625
 40
0.68359375
 40
0.6845703125
 40
0.685546875
 40
0.6865234375
 40
0.6870117188
 40
0.6872558594
 40
0.6875
 40
0.6877441406
 40
0.6879882812
 40
0.6884765625
 40
0.689453125
 40
0.6904296875
 40
0.69140625
 40
0.693359375
 40
0.6953125
 40
0.69921875
 40
0.703125
 40
0.70703125
 40
0.7109375
 40
0.71875
 40
0.7265625
 40
0.73046875
 40
0.734375
 40
0.73828125
 40
0.7421875
 40
0.744140625
 40
0.74609375
 40
0.7470703125
 40
0.748046875
 40
0.7490234375
 40
0.7495117188
 40
0.7497558594
 40
0.75
 40
0.7502441406
 40
0.7504882812
 40
0.7509765625
 40
0.751953125
 40
0.7529296875
 40
0.75390625
 40
0.755859375
 40
0.7578125
 40
0.76171875
 40
0.765625
 40
0.76953125
 40
0.7734375
 40
0.78125
 40
0.7890625
 40
0.79296875
 40
0.796875
 40
0.80078125
 40
0.8046875
 40
0.806640625
 40
0.80859375
 40
0.8095703125
 40
0.810546875
 40
0.8115234375
 40
0.8120117188
 40
0.8122558594
 40
0.8125
 40
0.8127441406
 40
0.8129882812
 40
0.8134765625
 40
0.814453125
 40
0.8154296875
 40
0.81640625
 40
0.818359375
 40
0.8203125
 40
0.82421875
 40
0.828125
 40
0.83203125
 40
0.8359375
 40
0.84375
 40
0.8515625
 40
0.85546875
 40
0.859375
 40
0.86328125
 40
0.8671875
 40
0.869140625
 40
0.87109375
 40
0.8720703125
 40
0.873046875
 40
0.8740234375
 40
0.8745117188
 40
0.8747558594
 40
0.875
 40
0.8752441406
 40
0.8754882812
 40
0.8759765625
 40
0.876953125
 40
0.8779296875
 40
0.87890625
 40
0.880859375
 40
0.8828125
 40
0.88671875
 40
0.890625
 40
0.89453125
 40
0.8984375
 40
0.90625
 40
0.9140625
 40
0.91796875
 40
0.921875
 40
0.92578125
 40
0.9296875
 40
0.931640625
 40
0.93359375
 40
0.9345703125
 40
0.935546875
 40
0.9365234375
 40
0.9370117188
 40
0.9372558594
 40
0.9375
 40
0.9377441406
 40
0.9379882812
 40
0.9384765625
 40
0.939453125
 40
0.9404296875
 40
0.94140625
 40
0.943359375
 40
0.9453125
 40
0.94921875
 40
0.953125
 40
0.95703125
 40
0.9609375
 40
0.96875
 40
0.9765625
 40
0.984375
 40
1.0
 40
1.0
 40
1.0
 40
1.0
 10
11.2911011769
 20
7.4419524922
 30
0.0
 10
11.2907939652
 20
7.4451069843
 30
0.0
 10
11.2903331477
 20
7.4498387225
 30
0.0
 10
11.2897187244
 20
7.4561477067
 30
0.0
 10
11.2892579068
 20
7.4608794449
 30
0.0
 10
11.2888738924
 20
7.4648225601
 30
0.0
 10
11.2885666804
 20
7.4679770521
 30
0.0
 10
11.2883362727
 20
7.4703429214
 30
0.0
 10
11.2881058602
 20
7.47270879
 30
0.0
 10
11.2879138644
 20
7.474680349
 30
0.0
 10
11.2877602352
 20
7.4762575921
 30
0.0
 10
11.287664291
 20
7.4772433785
 30
0.0
 10
11.287587366
 20
7.4780319858
 30
0.0
 10
11.2875301368
 20
7.4786235011
 30
0.0
 10
11.2874809681
 20
7.4791162404
 30
0.0
 10
11.2874494499
 20
7.4794615309
 30
0.0
 10
11.2874269116
 20
7.4796582573
 30
0.0
 10
11.287422763
 20
7.4798074431
 30
0.0
 10
11.2873698579
 20
7.4799503561
 30
0.0
 10
11.2873163246
 20
7.4801430948
 30
0.0
 10
11.2872147176
 20
7.4804793681
 30
0.0
 10
11.2870737074
 20
7.4809602915
 30
0.0
 10
11.2869027219
 20
7.4815371714
 30
0.0
 10
11.2866753607
 20
7.4823064243
 30
0.0
 10
11.286390947
 20
7.4832679632
 30
0.0
 10
11.2859360037
 20
7.4848064407
 30
0.0
 10
11.2853672839
 20
7.4867295323
 30
0.0
 10
11.2846848375
 20
7.4890372444
 30
0.0
 10
11.2840023865
 20
7.491344956
 30
0.0
 10
11.2830924534
 20
7.4944219049
 30
0.0
 10
11.2819550365
 20
7.498268091
 30
0.0
 10
11.2808176199
 20
7.5021142772
 30
0.0
 10
11.2799076862
 20
7.505191226
 30
0.0
 10
11.2792252371
 20
7.5074989379
 30
0.0
 10
11.2785427836
 20
7.5098066484
 30
0.0
 10
11.277974086
 20
7.5117297452
 30
0.0
 10
11.2775190973
 20
7.5132682121
 30
0.0
 10
11.2772347991
 20
7.5142297778
 30
0.0
 10
11.2770072007
 20
7.5149989756
 30
0.0
 10
11.2768369397
 20
7.515576024
 30
0.0
 10
11.2766936629
 20
7.5160564203
 30
0.0
 10
11.2765961022
 20
7.5163936346
 30
0.0
 10
11.2765360857
 20
7.5165848655
 30
0.0
 10
11.276503095
 20
7.51673241
 30
0.0
 10
11.2764241515
 20
7.5168642009
 30
0.0
 10
11.2763349224
 20
7.5170454171
 30
0.0
 10
11.2761713033
 20
7.5173599853
 30
0.0
 10
11.2759414662
 20
7.517810707
 30
0.0
 10
11.2756639904
 20
7.518351
 30
0.0
 10
11.2752946065
 20
7.5190715909
 30
0.0
 10
11.2748326767
 20
7.519972261
 30
0.0
 10
11.2740937007
 20
7.5214133713
 30
0.0
 10
11.2731699423
 20
7.5232147462
 30
0.0
 10
11.2720614488
 20
7.5253764016
 30
0.0
 10
11.2709529508
 20
7.5275380555
 30
0.0
 10
11.2694749551
 20
7.5304202612
 30
0.0
 10
11.2676274598
 20
7.5340230182
 30
0.0
 10
11.265779965
 20
7.5376257754
 30
0.0
 10
11.2643019686
 20
7.5405079809
 30
0.0
 10
11.2631934725
 20
7.5426696355
 30
0.0
 10
11.2620849721
 20
7.5448312882
 30
0.0
 10
11.2611612351
 20
7.5466326717
 30
0.0
 10
11.2604222157
 20
7.5480737644
 30
0.0
 10
11.2599603963
 20
7.5489744795
 30
0.0
 10
11.2595907856
 20
7.5496949778
 30
0.0
 10
11.2593140026
 20
7.5502355534
 30
0.0
 10
11.259081998
 20
7.5506853911
 30
0.0
 10
11.2589222482
 20
7.5510015374
 30
0.0
 10
11.2588268195
 20
7.5511802251
 30
0.0
 10
11.2587669193
 20
7.551319783
 30
0.0
 10
11.2586624052
 20
7.551438156
 30
0.0
 10
11.258538615
 20
7.5516033763
 30
0.0
 10
11.2583147314
 20
7.5518890689
 30
0.0
 10
11.2579986885
 20
7.5522990011
 30
0.0
 10
11.2576178144
 20
7.5527901493
 30
0.0
 10
11.2571105491
 20
7.5534452827
 30
0.0
 10
11.2564762733
 20
7.5542641073
 30
0.0
 10
11.2554615406
 20
7.5555742782
 30
0.0
 10
11.2541930874
 20
7.5572119741
 30
0.0
 10
11.2526709596
 20
7.5591772168
 30
0.0
 10
11.2511488275
 20
7.5611424574
 30
0.0
 10
11.2491193196
 20
7.563762779
 30
0.0
 10
11.2465824341
 20
7.5670381806
 30
0.0
 10
11.2440455489
 20
7.5703135826
 30
0.0
 10
11.2420160404
 20
7.5729339037
 30
0.0
 10
11.2404939099
 20
7.5748991456
 30
0.0
 10
11.2389717763
 20
7.5768643839
 30
0.0
 10
11.2377033413
 20
7.5785020934
 30
0.0
 10
11.2366885715
 20
7.5798122365
 30
0.0
 10
11.23605439
 20
7.5806311317
 30
0.0
 10
11.2355469312
 20
7.5812861202
 30
0.0
 10
11.2351666479
 20
7.581777711
 30
0.0
 10
11.2348487566
 20
7.5821862586
 30
0.0
 10
11.2346281727
 20
7.582474423
 30
0.0
 10
11.2344990956
 20
7.5826356827
 30
0.0
 10
11.234410821
 20
7.5827662214
 30
0.0
 10
11.2342899283
 20
7.5828600873
 30
0.0
 10
11.2341401155
 20
7.5829980337
 30
0.0
 10
11.2338726422
 20
7.58323348
 30
0.0
 10
11.2334933089
 20
7.5835729478
 30
0.0
 10
11.2330369227
 20
7.5839789754
 30
0.0
 10
11.2324288221
 20
7.5845208113
 30
0.0
 10
11.2316685544
 20
7.5851979468
 30
0.0
 10
11.2304522055
 20
7.5862814527
 30
0.0
 10
11.2289317421
 20
7.5876358044
 30
0.0
 10
11.2271071977
 20
7.5892610397
 30
0.0
 10
11.2252826501
 20
7.5908862714
 30
0.0
 10
11.2228499212
 20
7.5930532482
 30
0.0
 10
11.2198090096
 20
7.5957619688
 30
0.0
 10
11.2167680982
 20
7.5984706897
 30
0.0
 10
11.2143353689
 20
7.6006376661
 30
0.0
 10
11.2125108226
 20
7.6022628993
 30
0.0
 10
11.2106862736
 20
7.6038881288
 30
0.0
 10
11.2091658244
 20
7.6052424985
 30
0.0
 10
11.2079494465
 20
7.6063259679
 30
0.0
 10
11.2071892524
 20
7.6070031961
 30
0.0
 10
11.2065810009
 20
7.6075448416
 30
0.0
 10
11.2061250757
 20
7.607951451
 30
0.0
 10
11.2057443
 20
7.6082890985
 30
0.0
 10
11.2054794015
 20
7.6085277943
 30
0.0
 10
11.2053254633
 20
7.6086605343
 30
0.0
 10
11.2052172429
 20
7.6087703927
 30
0.0
 10
11.205081373
 20
7.6088408662
 30
0.0
 10
11.2049098576
 20
7.6089485687
 30
0.0
 10
11.204605212
 20
7.6091306475
 30
0.0
 10
11.2041723534
 20
7.6093941064
 30
0.0
 10
11.2036519175
 20
7.6097088247
 30
0.0
 10
11.2029583542
 20
7.6101289494
 30
0.0
 10
11.2020912798
 20
7.6106539339
 30
0.0
 10
11.200704028
 20
7.611494005
 30
0.0
 10
11.1989699401
 20
7.612544061
 30
0.0
 10
11.1968890446
 20
7.6138041422
 30
0.0
 10
11.1948081464
 20
7.6150642197
 30
0.0
 10
11.1920336164
 20
7.6167443243
 30
0.0
 10
11.1885654536
 20
7.6188444545
 30
0.0
 10
11.185097291
 20
7.6209445851
 30
0.0
 10
11.1823227607
 20
7.6226246892
 30
0.0
 10
11.1802418634
 20
7.6238847683
 30
0.0
 10
11.1781609643
 20
7.6251448432
 30
0.0
 10
11.1764268875
 20
7.6261949189
 30
0.0
 10
11.1750396132
 20
7.6270349497
 30
0.0
 10
11.1741725959
 20
7.6275600367
 30
0.0
 10
11.1734789155
 20
7.6279799512
 30
0.0
 10
11.1729588372
 20
7.6282953116
 30
0.0
 10
11.1725248597
 20
7.6285567615
 30
0.0
 10
11.1722222115
 20
7.6287424267
 30
0.0
 10
11.1720474959
 20
7.6288443828
 30
0.0
 10
11.171921456
 20
7.6289325076
 30
0.0
 10
11.1717763156
 20
7.6289760707
 30
0.0
 10
11.1715894574
 20
7.6290496985
 30
0.0
 10
11.1712593515
 20
7.629171305
 30
0.0
 10
11.1707893946
 20
7.6293488148
 30
0.0
 10
11.1702247515
 20
7.629560206
 30
0.0
 10
11.1694721368
 20
7.6298426269
 30
0.0
 10
11.1685312853
 20
7.6301954592
 30
0.0
 10
11.1670259694
 20
7.6307600993
 30
0.0
 10
11.1651443086
 20
7.6314658622
 30
0.0
 10
11.1628863224
 20
7.6323127937
 30
0.0
 10
11.1606283343
 20
7.6331597208
 30
0.0
 10
11.1576176843
 20
7.6342889586
 30
0.0
 10
11.1538543715
 20
7.6357005052
 30
0.0
 10
11.1500910588
 20
7.6371120522
 30
0.0
 10
11.1470804085
 20
7.6382412893
 30
0.0
 10
11.1448224212
 20
7.6390882183
 30
0.0
 10
11.1425644325
 20
7.6399351428
 30
0.0
 10
11.1406827795
 20
7.6406409274
 30
0.0
 10
11.1391774475
 20
7.6412055232
 30
0.0
 10
11.1382366369
 20
7.6415584681
 30
0.0
 10
11.1374839383
 20
7.641840658
 30
0.0
 10
11.1369195514
 20
7.642052755
 30
0.0
 10
11.1364487932
 20
7.6422280564
 30
0.0
 10
11.1361201177
 20
7.6423536054
 30
0.0
 10
11.1359309677
 20
7.6424209163
 30
0.0
 10
11.1357928669
 20
7.6424838827
 30
0.0
 10
11.1356403871
 20
7.6424991319
 30
0.0
 10
11.1354420962
 20
7.6425361084
 30
0.0
 10
11.1350927503
 20
7.6425930624
 30
0.0
 10
11.1345949065
 20
7.6426784796
 30
0.0
 10
11.1339969709
 20
7.6427792449
 30
0.0
 10
11.1331999061
 20
7.6429142047
 30
0.0
 10
11.1322035127
 20
7.6430826969
 30
0.0
 10
11.130609318
 20
7.6433524005
 30
0.0
 10
11.1286165628
 20
7.6436894902
 30
0.0
 10
11.1262252616
 20
7.6440940149
 30
0.0
 10
11.123833959
 20
7.644498535
 30
0.0
 10
11.1206455561
 20
7.6450378967
 30
0.0
 10
11.1166600523
 20
7.6457120983
 30
0.0
 10
11.1126745485
 20
7.6463863003
 30
0.0
 10
11.1094861455
 20
7.6469256614
 30
0.0
 10
11.1070948431
 20
7.6473301835
 30
0.0
 10
11.1047035412
 20
7.6477347008
 30
0.0
 10
11.1027107883
 20
7.6480718136
 30
0.0
 10
11.1011165889
 20
7.6483414699
 30
0.0
 10
11.1001202075
 20
7.6485100825
 30
0.0
 10
11.0993231179
 20
7.6486447954
 30
0.0
 10
11.0987252582
 20
7.648746315
 30
0.0
 10
11.0982271771
 20
7.648829372
 30
0.0
 10
11.0978782547
 20
7.6488905395
 30
0.0
 10
11.0976792853
 20
7.6489207649
 30
0.0
 10
11.0975288897
 20
7.6489567512
 30
0.0
 10
11.0973829607
 20
7.6489418323
 30
0.0
 10
11.0971868308
 20
7.6489396966
 30
0.0
 10
11.0968443293
 20
7.6489276863
 30
0.0
 10
11.096354662
 20
7.6489148539
 30
0.0
 10
11.0957672236
 20
7.6488976037
 30
0.0
 10
11.0949839157
 20
7.64887525
 30
0.0
 10
11.0940048002
 20
7.6488470866
 30
0.0
 10
11.0924382046
 20
7.6488021488
 30
0.0
 10
11.0904799638
 20
7.648745934
 30
0.0
 10
11.0881300733
 20
7.6486784946
 30
0.0
 10
11.0857801832
 20
7.6486110502
 30
0.0
 10
11.0826469963
 20
7.6485211262
 30
0.0
 10
11.0787305126
 20
7.6484087204
 30
0.0
 10
11.0748140289
 20
7.6482963151
 30
0.0
 10
11.0716808421
 20
7.6482063904
 30
0.0
 10
11.0693309517
 20
7.6481389481
 30
0.0
 10
11.0669810622
 20
7.648071501
 30
0.0
 10
11.0650228182
 20
7.6480153099
 30
0.0
 10
11.0634562293
 20
7.647970324
 30
0.0
 10
11.0624770966
 20
7.6479422829
 30
0.0
 10
11.0616938241
 20
7.6479196781
 30
0.0
 10
11.0611062777
 20
7.6479031953
 30
0.0
 10
11.0606169483
 20
7.6478879617
 30
0.0
 10
11.0602738435
 20
7.6478802379
 30
0.0
 10
11.0600786802
 20
7.6478712342
 30
0.0
 10
11.0599297821
 20
7.6478774117
 30
0.0
 10
11.0597905381
 20
7.6478341633
 30
0.0
 10
11.0596015119
 20
7.647793739
 30
0.0
 10
11.0592722851
 20
7.647714964
 30
0.0
 10
11.0588011408
 20
7.6476066277
 30
0.0
 10
11.0582361187
 20
7.6474748266
 30
0.0
 10
11.0574826334
 20
7.6472997198
 30
0.0
 10
11.0565408186
 20
7.6470806212
 30
0.0
 10
11.0550338916
 20
7.6467301836
 30
0.0
 10
11.0531502409
 20
7.6462920954
 30
0.0
 10
11.0508898565
 20
7.6457664072
 30
0.0
 10
11.0486294731
 20
7.6452407143
 30
0.0
 10
11.0456156283
 20
7.6445397921
 30
0.0
 10
11.0418483223
 20
7.6436636387
 30
0.0
 10
11.0380810162
 20
7.6427874857
 30
0.0
 10
11.0350671716
 20
7.6420865628
 30
0.0
 10
11.0328067876
 20
7.6415608719
 30
0.0
 10
11.0305464054
 20
7.6410351764
 30
0.0
 10
11.028662748
 20
7.6405971109
 30
0.0
 10
11.0271558346
 20
7.640246627
 30
0.0
 10
11.026213985
 20
7.6400276464
 30
0.0
 10
11.0254605713
 20
7.6398522974
 30
0.0
 10
11.0248953305
 20
7.639721236
 30
0.0
 10
11.0244248705
 20
7.6396105856
 30
0.0
 10
11.024094422
 20
7.6395359416
 30
0.0
 10
11.0239073533
 20
7.6394888984
 30
0.0
 10
11.0237620968
 20
7.6394659812
 30
0.0
 10
11.0236357806
 20
7.6393957978
 30
0.0
 10
11.0234607524
 20
7.6393187069
 30
0.0
 10
11.0231575312
 20
7.6391761163
 30
0.0
 10
11.0227227488
 20
7.6389764315
 30
0.0
 10
11.0222016988
 20
7.6387350906
 30
0.0
 10
11.0215067248
 20
7.6384139033
 30
0.0
 10
11.0206380897
 20
7.6380122135
 30
0.0
 10
11.0192482275
 20
7.6373696248
 30
0.0
 10
11.0175109155
 20
7.6365663495
 30
0.0
 10
11.0154261344
 20
7.635602436
 30
0.0
 10
11.013341355
 20
7.634638518
 30
0.0
 10
11.0105616486
 20
7.6333532955
 30
0.0
 10
11.0070870159
 20
7.6317467669
 30
0.0
 10
11.0036123829
 20
7.6301402386
 30
0.0
 10
11.0008326768
 20
7.6288550155
 30
0.0
 10
10.9987478966
 20
7.6278910994
 30
0.0
 10
10.9966631188
 20
7.6269271788
 30
0.0
 10
10.9949257966
 20
7.6261239255
 30
0.0
 10
10.9935359551
 20
7.6254812919
 30
0.0
 10
10.9926672673
 20
7.6250797163
 30
0.0
 10
10.9919724015
 20
7.6247582947
 30
0.0
 10
10.9914510209
 20
7.6245176696
 30
0.0
 10
10.9910172728
 20
7.6243157455
 30
0.0
 10
10.9907122052
 20
7.6241771522
 30
0.0
 10
10.9905401355
 20
7.6240936566
 30
0.0
 10
10.9904047317
 20
7.6240431467
 30
0.0
 10
10.9902936067
 20
7.6239463391
 30
0.0
 10
10.9901369714
 20
7.6238334116
 30
0.0
 10
10.9898668052
 20
7.6236282641
 30
0.0
 10
10.9894787906
 20
7.6233391301
 30
0.0
 10
10.9890140561
 20
7.6229904855
 30
0.0
 10
10.9883941016
 20
7.6225262141
 30
0.0
 10
10.9876192642
 20
7.6219456735
 30
0.0
 10
10.9863794653
 20
7.6210169211
 30
0.0
 10
10.9848297369
 20
7.619855942
 30
0.0
 10
10.9829700542
 20
7.6184627836
 30
0.0
 10
10.9811103737
 20
7.6170696208
 30
0.0
 10
10.978630799
 20
7.6152120719
 30
0.0
 10
10.975531331
 20
7.6128901353
 30
0.0
 10
10.9724318626
 20
7.610568199
 30
0.0
 10
10.9699522883
 20
7.6087106496
 30
0.0
 10
10.9680926066
 20
7.6073174884
 30
0.0
 10
10.9662329287
 20
7.6059243239
 30
0.0
 10
10.9646831854
 20
7.6047633639
 30
0.0
 10
10.9634434168
 20
7.6038345724
 30
0.0
 10
10.9626685023
 20
7.6032541314
 30
0.0
 10
10.9620487061
 20
7.6027896557
 30
0.0
 10
10.9615834881
 20
7.6024416353
 30
0.0
 10
10.9611969864
 20
7.602150548
 30
0.0
 10
10.9609241195
 20
7.6019488875
 30
0.0
 10
10.9607718113
 20
7.601830373
 30
0.0
 10
10.9606473945
 20
7.6017507267
 30
0.0
 10
10.9605619125
 20
7.6016357622
 30
0.0
 10
10.9604343556
 20
7.6014947955
 30
0.0
 10
10.9602174587
 20
7.6012423641
 30
0.0
 10
10.9599042978
 20
7.6008847485
 30
0.0
 10
10.9595299207
 20
7.6004543255
 30
0.0
 10
10.9590302566
 20
7.5998808767
 30
0.0
 10
10.9584058459
 20
7.599163912
 30
0.0
 10
10.9574066941
 20
7.5980168545
 30
0.0
 10
10.9561577868
 20
7.5965830031
 30
0.0
 10
10.9546590842
 20
7.5948623941
 30
0.0
 10
10.9531603853
 20
7.5931417817
 30
0.0
 10
10.9511621188
 20
7.590847633
 30
0.0
 10
10.9486642861
 20
7.5879799467
 30
0.0
 10
10.9461664531
 20
7.5851122607
 30
0.0
 10
10.9441681871
 20
7.5828181115
 30
0.0
 10
10.9426694866
 20
7.5810975004
 30
0.0
 10
10.94117079
 20
7.5793768864
 30
0.0
 10
10.9399218639
 20
7.5779430505
 30
0.0
 10
10.9389227505
 20
7.5767959614
 30
0.0
 10
10.9382982419
 20
7.5760790771
 30
0.0
 10
10.9377987788
 20
7.5755054635
 30
0.0
 10
10.9374237879
 20
7.575075544
 30
0.0
 10
10.9371125473
 20
7.5747163529
 30
0.0
 10
10.9368922223
 20
7.574466734
 30
0.0
 10
10.936770158
 20
7.5743212609
 30
0.0
 10
10.9366678047
 20
7.5742201388
 30
0.0
 10
10.9366067538
 20
7.5740885028
 30
0.0
 10
10.9365109459
 20
7.5739236317
 30
0.0
 10
10.9363499943
 20
7.5736301482
 30
0.0
 10
10.9361165543
 20
7.5732134787
 30
0.0
 10
10.9358379284
 20
7.5727123655
 30
0.0
 10
10.9354659024
 20
7.5720446023
 30
0.0
 10
10.9350010497
 20
7.5712097656
 30
0.0
 10
10.9342571849
 20
7.5698741009
 30
0.0
 10
10.9333273883
 20
7.5682044947
 30
0.0
 10
10.9322116177
 20
7.5662009781
 30
0.0
 10
10.931095851
 20
7.5641974586
 30
0.0
 10
10.9296081607
 20
7.5615261003
 30
0.0
 10
10.9277485484
 20
7.558186902
 30
0.0
 10
10.9258889356
 20
7.554847704
 30
0.0
 10
10.9244012459
 20
7.5521763453
 30
0.0
 10
10.9232854775
 20
7.5501728269
 30
0.0
 10
10.9221697134
 20
7.5481693063
 30
0.0
 10
10.9212398964
 20
7.5464997125
 30
0.0
 10
10.9204960734
 20
7.5451640225
 30
0.0
 10
10.9200311143
 20
7.5443292502
 30
0.0
 10
10.9196593066
 20
7.5436613547
 30
0.0
 10
10.9193800138
 20
7.5431606455
 30
0.0
 10
10.9191486604
 20
7.5427427124
 30
0.0
 10
10.9189839838
 20
7.5424514846
 30
0.0
 10
10.9188941443
 20
7.5422829993
 30
0.0
 10
10.9188147604
 20
7.5421624648
 30
0.0
 10
10.9187812628
 20
7.5420196474
 30
0.0
 10
10.9187205937
 20
7.5418369966
 30
0.0
 10
10.9186218801
 20
7.5415137365
 30
0.0
 10
10.918476962
 20
7.5410538297
 30
0.0
 10
10.9183047289
 20
7.5405011311
 30
0.0
 10
10.918074502
 20
7.5397644827
 30
0.0
 10
10.9177869179
 20
7.5388435752
 30
0.0
 10
10.9173266719
 20
7.5373701774
 30
0.0
 10
10.9167514026
 20
7.5355284116
 30
0.0
 10
10.916061063
 20
7.5333183007
 30
0.0
 10
10.9153707278
 20
7.5311081875
 30
0.0
 10
10.9144502794
 20
7.5281613708
 30
0.0
 10
10.9132997194
 20
7.5244778496
 30
0.0
 10
10.9121491591
 20
7.5207943286
 30
0.0
 10
10.9112287113
 20
7.5178475116
 30
0.0
 10
10.9105383742
 20
7.5156373993
 30
0.0
 10
10.9098480418
 20
7.5134272853
 30
0.0
 10
10.9092727502
 20
7.5115855289
 30
0.0
 10
10.9088125495
 20
7.5101121119
 30
0.0
 10
10.90852485
 20
7.5091912533
 30
0.0
 10
10.90829486
 20
7.5084545046
 30
0.0
 10
10.9081219033
 20
7.5079021123
 30
0.0
 10
10.9079792492
 20
7.5074412472
 30
0.0
 10
10.9078764939
 20
7.5071196977
 30
0.0
 10
10.9078223006
 20
7.5069343061
 30
0.0
 10
10.9077689115
 20
7.5067999079
 30
0.0
 10
10.9077642368
 20
7.5066477522
 30
0.0
 10
10.9077410118
 20
7.5064510719
 30
0.0
 10
10.9077082851
 20
7.5061039954
 30
0.0
 10
10.9076573934
 20
7.5056096807
 30
0.0
 10
10.9075980951
 20
7.5050158572
 30
0.0
 10
10.9075184119
 20
7.5042243182
 30
0.0
 10
10.9074190198
 20
7.5032348171
 30
0.0
 10
10.907259874
 20
7.5016516586
 30
0.0
 10
10.9070609824
 20
7.4996726956
 30
0.0
 10
10.906822295
 20
7.4972979464
 30
0.0
 10
10.9065836123
 20
7.4949231955
 30
0.0
 10
10.906265367
 20
7.4917568615
 30
0.0
 10
10.905867561
 20
7.4877989439
 30
0.0
 10
10.9053901936
 20
7.4830494428
 30
0.0
 10
10.9047537037
 20
7.4767167746
 30
0.0
 10
10.9042763363
 20
7.4719672735
 30
0.0
 10
10.9039580914
 20
7.4688009394
 30
0.0
  0
ENDSEC
  0
SECTION
  2
OBJECTS
  0
DICTIONARY
  5
C
100
AcDbDictionary
280
0
281
1
  3
ACAD_GROUP
350
D
  3
ACAD_MLINESTYLE
350
17
  3
ACAD_LAYOUT
350
1A
  3
ACAD_PLOTSETTINGS
350
19
  3
ACAD_PLOTSTYLENAME
350
E
  3
ACAD_IMAGE_DICT
350
       3F9
  3
ACAD_IMAGE_VARS
350
       3FA
  3
ACAD_TABLESTYLE
350
       3FB
  0
IMAGEDEF_REACTOR
  5
3F8
100
AcDbRasterImageDefReactor
 90
2
330
28F
  0
DICTIONARY
  5
D
102
{ACAD_REACTORS
330
C
102
}
100
AcDbDictionary
280
0
281
1
  0
ACDBDICTIONARYWDFLT
  5
E
102
{ACAD_REACTORS
330
C
102
}
100
AcDbDictionary
281
1
  3
Normal
350
F
100
AcDbDictionaryWithDefault
340
F
  0
DICTIONARY
  5
3F9
330
C
100
AcDbDictionary
281
1
  3
E3J_assy_2_img_1
350
       3FE
  0
RASTERVARIABLES
  5
3FA
330
C
100
AcDbRasterVariables
 90
0
 70
0
 71
1
 72
5
  0
DICTIONARY
  5
17
102
{ACAD_REACTORS
330
C
102
}
100
AcDbDictionary
280
0
281
1
  3
Standard
350
18
  0
DICTIONARY
  5
3FB
330
C
100
AcDbDictionary
281
1
  3
Standard
350
       3FF
  3
Standard1
350
       400
  0
DICTIONARY
  5
19
102
{ACAD_REACTORS
330
C
102
}
100
AcDbDictionary
281
1
  0
DICTIONARY
  5
1A
102
{ACAD_REACTORS
330
C
102
}
100
AcDbDictionary
281
1
  3
Model
350
3FC
  3
Layout1
350
3FD
  0
ACDBPLACEHOLDER
  5
F
102
{ACAD_REACTORS
330
E
102
}
  0
MLINESTYLE
  5
18
102
{ACAD_REACTORS
330
17
102
}
100
AcDbMlineStyle
  2
STANDARD
 70
0
  3

 62
256
 51
90.0
 52
90.0
 71
2
 49
0.5
 62
256
  6
BYLAYER
 49
-0.5
 62
256
  6
BYLAYER
  0
LAYOUT
  5
3FC
102
{ACAD_REACTORS
330
1A
102
}
100
AcDbPlotSettings
  1

  2
none_device
  4
ANSI_C_(22.00_x_17.00_Inches)
  6

 40
0.0
 41
0.0
 42
0.0
 43
0.0
 44
558.8
 45
431.8
 46
0.0
 47
0.0
 48
0.0
 49
0.0
140
0.0
141
0.0
142
1.0
143
1.0
 70
1024
 72
0
 73
0
 74
0
  7

 75
0
147
1.0
148
0.0
149
0.0
100
AcDbLayout
  1
Model
 70
0
 71
0
 10
0.0
 20
0.0
 11
22.0
 21
17.0
 12
0.0
 22
0.0
 32
0.0
 14
0.0
 24
0.0
 34
0.0
 15
0.0
 25
0.0
 35
0.0
146
0.0
 13
0.0
 23
0.0
 33
0.0
 16
1.0
 26
0.0
 36
0.0
 17
0.0
 27
1.0
 37
0.0
 76
0
330
20C
345
0
346
0
  0
LAYOUT
  5
3FD
102
{ACAD_REACTORS
330
1A
102
}
100
AcDbPlotSettings
  1

  2
none_device
  4
ANSI_C_(22.00_x_17.00_Inches)
  6

 40
0.0
 41
0.0
 42
0.0
 43
0.0
 44
558.8
 45
431.8
 46
0.0
 47
0.0
 48
0.0
 49
0.0
140
0.0
141
0.0
142
1.0
143
1.0
 70
0
 72
0
 73
0
 74
0
  7

 75
0
147
1.0
148
0.0
149
0.0
100
AcDbLayout
  1
Layout1
 70
0
 71
1
 10
0.0
 20
0.0
 11
22.0
 21
17.0
 12
0.0
 22
0.0
 32
0.0
 14
0.0
 24
0.0
 34
0.0
 15
0.0
 25
0.0
 35
0.0
146
0.0
 13
0.0
 23
0.0
 33
0.0
 16
1.0
 26
0.0
 36
0.0
 17
0.0
 27
1.0
 37
0.0
 76
0
330
20D
345
0
346
0
  0
IMAGEDEF
  5
3FE
102
{ACAD_REACTORS
330
3F9
330
3F8
102
}
100
AcDbRasterImageDef
 90
0
  1
E3J_assy_2_img_1.png
 10
369.0
 20
92.0
 11
0.0066666667
 21
0.0066666667
280
1
281
0
  0
TABLESTYLE
  5
3FF
102
{ACAD_REACTORS
330
3FB
330
292
330
293
102
}
330
3FB
100
AcDbTableStyle
  3
Standard
 70
0
 71
0
 40
0.06
 41
0.06
280
1
281
1
  7
Standard
140
0.18
170
1
 62
0
 63
7
283
0
  7
Standard
140
0.18
170
1
 62
0
 63
7
283
0
  7
Standard
140
0.18
170
1
 62
0
 63
7
283
0
  0
TABLESTYLE
  5
400
102
{ACAD_REACTORS
330
3FB
330
291
102
}
330
3FB
100
AcDbTableStyle
  3
Standard1
 70
1
 71
0
 40
0.06
 41
0.06
280
1
281
1
  7
Standard
140
0.18
170
1
 62
0
 63
7
283
0
  7
Standard
140
0.18
170
1
 62
0
 63
7
283
0
  7
Standard
140
0.18
170
1
 62
0
 63
7
283
0
  0
ENDSEC
  0
EOF
