999
DXF file: E3I_assy_2.dxf
999
Pro/ENGINEER 2014200 by Parametric Technology Corporation
  0
SECTION
  2
HEADER
  9
$ACADVER
  1
AC1021
  9
$DWGCODEPAGE
  3
ANSI_1252
  9
$EXTMAX
 10
22.0
 20
17.0
 30
0.0
  9
$EXTMIN
 10
0.0
 20
0.0
 30
0.0
  9
$LIMMIN
 10
0.0
 20
0.0
  9
$LIMMAX
 10
22.0
 20
17.0
  9
$VIEWCTR
 10
11.0
 20
8.5
  9
$VIEWSIZE
 40
17.0
  9
$CLAYER
  8
0
  9
$LTSCALE
 40
1.21
  9
$CELTYPE
  6
BYLAYER
  9
$DIMSCALE
 40
1.0
  9
$DIMASZ
 40
0.1875
  9
$DIMEXO
 40
0.0625
  9
$DIMDLI
 40
0.836
  9
$DIMEXE
 40
0.125
  9
$DIMCEN
 40
0.198
  9
$DIMLFAC
 40
1.0
  9
$DIMBLK
  1
_FILLED
  9
$DIMTXT
 40
0.1
  9
$DIMTOL
 70
0
  9
$DIMLIM
 70
0
  9
$DIMTFAC
 40
1.0
  9
$DIMGAP
 40
0.09
  9
$DIMDSEP
 70
46
  9
$AUNITS
 70
0
  9
$PDMODE
 70
3
  9
$PDSIZE
 40
0.3125
  9
$HANDSEED
  5
3F3
  9
$TILEMODE
 70
1
  9
$MEASUREMENT
 70
0
  9
$INSUNITS
 70
1
  0
ENDSEC
  0
SECTION
  2
CLASSES
  0
CLASS
  1
ACDBDICTIONARYWDFLT
  2
AcDbDictionaryWithDefault
  3
AutoCAD 2000
 90
0
 91
1
280
0
281
0
  0
CLASS
  1
ACDBPLACEHOLDER
  2
AcDbPlaceHolder
  3
AutoCAD 2000
 90
0
 91
1
280
0
281
0
  0
CLASS
  1
LAYOUT
  2
AcDbLayout
  3
AutoCAD 2000
 90
0
 91
0
280
0
281
0
  0
CLASS
  1
RASTERVARIABLES
  2
AcDbRasterVariables
  3
ISM
 90
0
 91
1
280
0
281
0
  0
CLASS
  1
IMAGEDEF
  2
AcDbRasterImageDef
  3
ISM
 90
0
 91
1
280
0
281
0
  0
CLASS
  1
IMAGEDEF_REACTOR
  2
AcDbRasterImageDefReactor
  3
ISM
 90
0
 91
1
280
0
281
0
  0
CLASS
  1
IMAGE
  2
AcDbRasterImage
  3
ISM
 90
127
 91
1
280
0
281
1
  0
CLASS
  1
TABLESTYLE
  2
AcDbTableStyle
  3
ObjectDBX Classes
 90
2047
 91
1
280
0
281
0
  0
CLASS
  1
ACAD_TABLE
  2
AcDbTable
  3
ObjectDBX Classes
 90
1025
 91
3
280
0
281
1
  0
ENDSEC
  0
SECTION
  2
TABLES
  0
TABLE
  2
VPORT
  5
8
100
AcDbSymbolTable
 70
2
  0
VPORT
  5
1F4
100
AcDbSymbolTableRecord
100
AcDbViewportTableRecord
  2
*ACTIVE
 70
0
 10
0.0
 20
0.0
 11
1.0
 21
1.0
 12
11.0
 22
8.5
 13
0.0
 23
0.0
 14
1.0
 24
1.0
 15
0.0
 25
0.0
 16
0.0
 26
0.0
 36
1.0
 17
0.0
 27
0.0
 37
0.0
 40
17.0
 41
1.2941176471
 42
50.0
 43
0.0
 44
0.0
 50
0.0
 51
0.0
 71
0
 72
100
 73
1
 74
1
 75
0
 76
0
 77
0
 78
0
  0
ENDTAB
  0
TABLE
  2
LTYPE
  5
5
100
AcDbSymbolTable
 70
6
  0
LTYPE
  5
14
100
AcDbSymbolTableRecord
100
AcDbLinetypeTableRecord
  2
BYBLOCK
 70
0
  3

 72
65
 73
0
 40
0.0
  0
LTYPE
  5
15
100
AcDbSymbolTableRecord
100
AcDbLinetypeTableRecord
  2
BYLAYER
 70
0
  3

 72
65
 73
0
 40
0.0
  0
LTYPE
  5
16
100
AcDbSymbolTableRecord
100
AcDbLinetypeTableRecord
  2
CONTINUOUS
 70
64
  3
Solid line
 72
65
 73
0
 40
0.0
  0
LTYPE
  5
1F5
100
AcDbSymbolTableRecord
100
AcDbLinetypeTableRecord
  2
CENTER
 70
64
  3
____ _ ____ _ ____ _ ____ _ ____ _ ____ _ ____
 72
65
 73
4
 40
0.6
 49
0.375
 74
0
 49
-0.075
 74
0
 49
0.075
 74
0
 49
-0.075
 74
0
  0
LTYPE
  5
1F6
100
AcDbSymbolTableRecord
100
AcDbLinetypeTableRecord
  2
HIDDEN
 70
64
  3
- - - - - - - - - - - - - - - - - - - -
 72
65
 73
2
 40
0.2
 49
0.1
 74
0
 49
-0.1
 74
0
  0
LTYPE
  5
1F7
100
AcDbSymbolTableRecord
100
AcDbLinetypeTableRecord
  2
PHANTOM
 70
64
  3
_____ _ _ _____ _ _ _____ _ _ _____
 72
65
 73
6
 40
0.8
 49
0.45
 74
0
 49
-0.05
 74
0
 49
0.1
 74
0
 49
-0.05
 74
0
 49
0.1
 74
0
 49
-0.05
 74
0
  0
LTYPE
  5
1F8
100
AcDbSymbolTableRecord
100
AcDbLinetypeTableRecord
  2
DOT
 70
64
  3
. . . . . . . . . . . . . . . . . . . .
 72
65
 73
2
 40
0.2
 49
0.1
 74
0
 49
-0.1
 74
0
  0
LTYPE
  5
1F9
100
AcDbSymbolTableRecord
100
AcDbLinetypeTableRecord
  2
DASHED
 70
64
  3
- - - - - - - - - - - - - - - - - - - -
 72
65
 73
2
 40
0.2
 49
0.1
 74
0
 49
-0.1
 74
0
  0
ENDTAB
  0
TABLE
  2
LAYER
  5
2
100
AcDbSymbolTable
 70
36
  0
LAYER
  5
10
100
AcDbSymbolTableRecord
100
AcDbLayerTableRecord
  2
0
 70
0
 62
7
  6
CONTINUOUS
370
-3
390
F
  0
LAYER
  5
1FA
100
AcDbSymbolTableRecord
100
AcDbLayerTableRecord
  2
DEFAULT_1
 70
0
 62
7
  6
CENTER
370
-3
390
F
  0
LAYER
  5
1FB
100
AcDbSymbolTableRecord
100
AcDbLayerTableRecord
  2
DEFAULT_2
 70
0
 62
8
  6
HIDDEN
370
-3
390
F
  0
LAYER
  5
1FC
100
AcDbSymbolTableRecord
100
AcDbLayerTableRecord
  2
DEFAULT_3
 70
0
 62
7
  6
PHANTOM
370
-3
390
F
  0
LAYER
  5
1FD
100
AcDbSymbolTableRecord
100
AcDbLayerTableRecord
  2
01___PRT_ALL_DTM_PLN
 70
0
 62
7
  6
CONTINUOUS
370
-3
390
F
  0
LAYER
  5
1FE
100
AcDbSymbolTableRecord
100
AcDbLayerTableRecord
  2
01___PRT_DEF_DTM_PLN
 70
0
 62
7
  6
CONTINUOUS
370
-3
390
F
  0
LAYER
  5
1FF
100
AcDbSymbolTableRecord
100
AcDbLayerTableRecord
  2
02___PRT_ALL_AXES
 70
0
 62
7
  6
CONTINUOUS
370
-3
390
F
  0
LAYER
  5
200
100
AcDbSymbolTableRecord
100
AcDbLayerTableRecord
  2
03___PRT_ALL_CURVES
 70
0
 62
7
  6
CONTINUOUS
370
-3
390
F
  0
LAYER
  5
201
100
AcDbSymbolTableRecord
100
AcDbLayerTableRecord
  2
04___PRT_ALL_DTM_PNT
 70
0
 62
7
  6
CONTINUOUS
370
-3
390
F
  0
LAYER
  5
202
100
AcDbSymbolTableRecord
100
AcDbLayerTableRecord
  2
05___PRT_ALL_DTM_CSYS
 70
0
 62
7
  6
CONTINUOUS
370
-3
390
F
  0
LAYER
  5
203
100
AcDbSymbolTableRecord
100
AcDbLayerTableRecord
  2
05___PRT_DEF_DTM_CSYS
 70
0
 62
7
  6
CONTINUOUS
370
-3
390
F
  0
LAYER
  5
204
100
AcDbSymbolTableRecord
100
AcDbLayerTableRecord
  2
06___PRT_ALL_SURFS
 70
0
 62
7
  6
CONTINUOUS
370
-3
390
F
  0
LAYER
  5
205
100
AcDbSymbolTableRecord
100
AcDbLayerTableRecord
  2
DATUM_PLANES
 70
0
 62
7
  6
CONTINUOUS
370
-3
390
F
  0
LAYER
  5
206
100
AcDbSymbolTableRecord
100
AcDbLayerTableRecord
  2
PORT_AREAS
 70
0
 62
7
  6
CONTINUOUS
370
-3
390
F
  0
LAYER
  5
207
100
AcDbSymbolTableRecord
100
AcDbLayerTableRecord
  2
SUNNBOMCOSMETIC
 70
0
 62
7
  6
CONTINUOUS
370
-3
390
F
  0
LAYER
  5
208
100
AcDbSymbolTableRecord
100
AcDbLayerTableRecord
  2
SUNNBOMSTAMPING
 70
0
 62
7
  6
CONTINUOUS
370
-3
390
F
  0
LAYER
  5
209
100
AcDbSymbolTableRecord
100
AcDbLayerTableRecord
  2
THREADS
 70
0
 62
7
  6
CONTINUOUS
370
-3
390
F
  0
ENDTAB
  0
TABLE
  2
STYLE
  5
3
100
AcDbSymbolTable
 70
1
  0
STYLE
  5
11
100
AcDbSymbolTableRecord
100
AcDbTextStyleTableRecord
  2
STANDARD
 70
0
 40
0.0
 41
0.8
 50
0.0
 71
0
 42
0.2
  3
txt
  4

  0
STYLE
  5
20A
100
AcDbSymbolTableRecord
100
AcDbTextStyleTableRecord
  2
TEXTSTYLE_1
 70
0
 40
0.0
 41
0.8
 50
0.0
 71
0
 42
0.2
  3
gdt
  4

  0
ENDTAB
  0
TABLE
  2
VIEW
  5
6
100
AcDbSymbolTable
 70
0
  0
ENDTAB
  0
TABLE
  2
UCS
  5
7
100
AcDbSymbolTable
 70
0
  0
ENDTAB
  0
TABLE
  2
APPID
  5
9
100
AcDbSymbolTable
 70
1
  0
APPID
  5
20B
100
AcDbSymbolTableRecord
100
AcDbRegAppTableRecord
  2
ACAD
 70
0
  0
ENDTAB
  0
TABLE
  2
BLOCK_RECORD
  5
1
100
AcDbSymbolTable
 70
0
  0
BLOCK_RECORD
  5
20C
100
AcDbSymbolTableRecord
100
AcDbBlockTableRecord
  2
*Model_Space
  0
BLOCK_RECORD
  5
20D
100
AcDbSymbolTableRecord
100
AcDbBlockTableRecord
  2
*Paper_Space
  0
BLOCK_RECORD
  5
20E
100
AcDbSymbolTableRecord
100
AcDbBlockTableRecord
  2
SUN_FIRST_THIRD_ANGLE_BL0
  0
BLOCK_RECORD
  5
20F
100
AcDbSymbolTableRecord
100
AcDbBlockTableRecord
  2
*T1
  0
BLOCK_RECORD
  5
210
100
AcDbSymbolTableRecord
100
AcDbBlockTableRecord
  2
*T2
  0
BLOCK_RECORD
  5
211
100
AcDbSymbolTableRecord
100
AcDbBlockTableRecord
  2
*T3
  0
ENDTAB
  0
TABLE
  2
DIMSTYLE
  5
A
100
AcDbSymbolTable
 70
1
100
AcDbDimStyleTable
 71
0
  0
DIMSTYLE
105
212
100
AcDbSymbolTableRecord
100
AcDbDimStyleTableRecord
  2
STANDARD
 70
0
  3

  4

 40
1.0
 41
0.1875
 42
0.0625
 43
0.38
 44
0.125
 45
0.0
 46
0.0
 47
0.001
 48
0.001
140
0.1
141
0.09
142
0.0
143
25.4
144
1.0
145
0.0
146
1.0
147
0.09
 71
0.0
 72
0.0
 73
1
 74
1
 75
0
 76
0
 77
0
 78
4
170
0
171
2
172
0
173
0
174
0
175
0
176
0
177
0
178
0
270
2
271
3
272
3
273
2
274
2
275
0
280
0
281
0
282
0
283
1
284
4
285
0
286
0
287
3
288
0
340
11
278
46
  0
ENDTAB
  0
ENDSEC
  0
SECTION
  2
BLOCKS
  0
BLOCK
  5
20
100
AcDbEntity
  8
0
100
AcDbBlockBegin
  2
*Model_Space
 70
0
 10
0.0
 20
0.0
 30
0.0
  3
*Model_Space
  1

  0
ENDBLK
  5
21
100
AcDbEntity
  8
0
100
AcDbBlockEnd
  0
BLOCK
  5
1C
100
AcDbEntity
  8
0
100
AcDbBlockBegin
  2
*Paper_Space
 70
0
 10
0.0
 20
0.0
 30
0.0
  3
*Paper_Space
  1

  0
ENDBLK
  5
1D
100
AcDbEntity
  8
0
100
AcDbBlockEnd
  0
BLOCK
  5
213
100
AcDbEntity
  8
0
100
AcDbBlockBegin
 62
2
  6
CONTINUOUS
  2
SUN_FIRST_THIRD_ANGLE_BL0
 70
64
 10
20.4816717061
 20
1.2289683772
  3
SUN_FIRST_THIRD_ANGLE_BL0
  1

  0
TEXT
  5
214
100
AcDbEntity
  8
0
100
AcDbText
 62
2
  6
CONTINUOUS
 10
19.4750896608
 20
1.4136269581
  7
STANDARD
 40
0.08
  1
FIRST ANGLE
 41
0.8
 72
0
100
AcDbText
  0
TEXT
  5
215
100
AcDbEntity
  8
0
100
AcDbText
 62
2
  6
CONTINUOUS
 10
20.7842537513
 20
1.4047600029
  7
STANDARD
 40
0.08
  1
THIRD ANGLE
 41
0.8
 72
0
100
AcDbText
  0
LINE
  5
216
100
AcDbEntity
  8
0
100
AcDbLine
 62
7
  6
CONTINUOUS
 10
19.4767170086
 20
1.1727031207
 11
19.6334271527
 21
1.1717972817
  0
LINE
  5
217
100
AcDbEntity
  8
0
100
AcDbLine
 62
7
  6
CONTINUOUS
 10
19.6596964832
 20
1.1717972817
 11
19.6950230232
 21
1.171593082
  0
LINE
  5
218
100
AcDbEntity
  8
0
100
AcDbLine
 62
7
  6
CONTINUOUS
 10
19.7194818561
 20
1.1708914427
 11
19.8852396156
 21
1.1699333054
  0
LINE
  5
219
100
AcDbEntity
  8
0
100
AcDbLine
 62
7
  6
CONTINUOUS
 10
19.4758111696
 20
1.2723454088
 11
19.88525039
 21
1.3511534004
  0
LINE
  5
21A
100
AcDbEntity
  8
0
100
AcDbLine
 62
7
  6
CONTINUOUS
 10
19.88525039
 20
1.3511534004
 11
19.8831348489
 21
0.9851647912
  0
LINE
  5
21B
100
AcDbEntity
  8
0
100
AcDbLine
 62
7
  6
CONTINUOUS
 10
19.8831348489
 20
0.9851647912
 11
19.4767170086
 21
1.0658141206
  0
LINE
  5
21C
100
AcDbEntity
  8
0
100
AcDbLine
 62
7
  6
CONTINUOUS
 10
19.4767170086
 20
1.0658141206
 11
19.4779056764
 21
1.2714536432
  0
CIRCLE
  5
21D
100
AcDbEntity
  8
0
100
AcDbCircle
 62
7
  6
CONTINUOUS
 10
20.2068232291
 20
1.1717972817
 40
0.175742101
  0
CIRCLE
  5
21E
100
AcDbEntity
  8
0
100
AcDbCircle
 62
7
  6
CONTINUOUS
 10
20.2068232291
 20
1.1717972817
 40
0.1005522074
  0
LINE
  5
21F
100
AcDbEntity
  8
0
100
AcDbLine
 62
7
  6
CONTINUOUS
 10
20.2077290681
 20
1.3756110529
 11
20.2071171714
 21
1.2379342989
  0
LINE
  5
220
100
AcDbEntity
  8
0
100
AcDbLine
 62
7
  6
CONTINUOUS
 10
20.2077290681
 20
1.2016899681
 11
20.2074674401
 21
1.1428236749
  0
LINE
  5
221
100
AcDbEntity
  8
0
100
AcDbLine
 62
7
  6
CONTINUOUS
 10
20.208634907
 20
1.101141841
 11
20.2080230104
 21
0.963465087
  0
LINE
  5
222
100
AcDbEntity
  8
0
100
AcDbLine
 62
7
  6
CONTINUOUS
 10
20.0066328138
 20
1.1745147986
 11
20.1443095678
 21
1.1739029019
  0
LINE
  5
223
100
AcDbEntity
  8
0
100
AcDbLine
 62
7
  6
CONTINUOUS
 10
20.1832714155
 20
1.1727031207
 11
20.238153505
 21
1.172335442
  0
LINE
  5
224
100
AcDbEntity
  8
0
100
AcDbLine
 62
7
  6
CONTINUOUS
 10
20.2756669918
 20
1.1717972817
 11
20.407916871
 21
1.1712095044
  0
CIRCLE
  5
225
100
AcDbEntity
  8
0
100
AcDbCircle
 62
7
  6
CONTINUOUS
 10
20.7509457401
 20
1.1693297793
 40
0.1722024983
  0
CIRCLE
  5
226
100
AcDbEntity
  8
0
100
AcDbCircle
 62
7
  6
CONTINUOUS
 10
20.7509457401
 20
1.1693297793
 40
0.0985164967
  0
LINE
  5
227
100
AcDbEntity
  8
0
100
AcDbLine
 62
7
  6
CONTINUOUS
 10
20.7169767782
 20
1.170462078
 11
20.7825395137
 21
1.1682766535
  0
LINE
  5
228
100
AcDbEntity
  8
0
100
AcDbLine
 62
7
  6
CONTINUOUS
 10
20.8177513651
 20
1.1693297793
 11
20.947965719
 21
1.1693297793
  0
LINE
  5
229
100
AcDbEntity
  8
0
100
AcDbLine
 62
7
  6
CONTINUOUS
 10
20.6875370113
 20
1.170462078
 11
20.5573226574
 21
1.170462078
  0
LINE
  5
22A
100
AcDbEntity
  8
0
100
AcDbLine
 62
7
  6
CONTINUOUS
 10
20.7486811426
 20
1.1987695462
 11
20.7486811426
 21
1.1432869085
  0
LINE
  5
22B
100
AcDbEntity
  8
0
100
AcDbLine
 62
7
  6
CONTINUOUS
 10
20.7498134414
 20
1.1059210505
 11
20.7498134414
 21
0.9757066966
  0
LINE
  5
22C
100
AcDbEntity
  8
0
100
AcDbLine
 62
7
  6
CONTINUOUS
 10
20.7486811426
 20
1.2338708068
 11
20.7486811426
 21
1.3640851607
  0
LINE
  5
22D
100
AcDbEntity
  8
0
100
AcDbLine
 62
7
  6
CONTINUOUS
 10
21.0702539817
 20
1.2701043662
 11
21.4790138229
 21
1.3448360823
  0
LINE
  5
22E
100
AcDbEntity
  8
0
100
AcDbLine
 62
7
  6
CONTINUOUS
 10
21.4790138229
 20
1.3448360823
 11
21.4790138229
 21
0.9779712941
  0
LINE
  5
22F
100
AcDbEntity
  8
0
100
AcDbLine
 62
7
  6
CONTINUOUS
 10
21.4790138229
 20
0.9779712941
 11
21.069121683
 21
1.0617614
  0
LINE
  5
230
100
AcDbEntity
  8
0
100
AcDbLine
 62
7
  6
CONTINUOUS
 10
21.0702539817
 20
1.2701043662
 11
21.069121683
 21
1.0617614
  0
LINE
  5
231
100
AcDbEntity
  8
0
100
AcDbLine
 62
7
  6
CONTINUOUS
 10
21.4790138229
 20
1.1693297793
 11
21.3159628059
 21
1.1693297793
  0
LINE
  5
232
100
AcDbEntity
  8
0
100
AcDbLine
 62
7
  6
CONTINUOUS
 10
21.2876553377
 20
1.1693297793
 11
21.2502894796
 21
1.1693297793
  0
LINE
  5
233
100
AcDbEntity
  8
0
100
AcDbLine
 62
7
  6
CONTINUOUS
 10
21.2208497126
 20
1.1659328831
 11
21.0713862804
 21
1.1659328831
  0
LINE
  5
234
100
AcDbEntity
  8
0
100
AcDbLine
 62
7
  6
CONTINUOUS
 10
20.4796138713
 20
1.5284908897
 11
20.4766766948
 21
0.9294458646
  0
ENDBLK
  5
235
100
AcDbEntity
  8
0
  6
BYBLOCK
 62
0
100
AcDbBlockEnd
  0
BLOCK
  5
236
100
AcDbEntity
  8
0
100
AcDbBlockBegin
  2
*T1
 70
1
 10
0.0
 20
0.0
  3
*T1
  1

  0
LINE
  5
237
100
AcDbEntity
  8
0
100
AcDbLine
 62
2
  6
CONTINUOUS
 10
9.275
 20
0.0
 11
-0.0
 21
0.0
  0
LINE
  5
238
100
AcDbEntity
  8
0
100
AcDbLine
 62
2
  6
CONTINUOUS
 10
9.275
 20
0.0
 11
9.275
 21
1.25
  0
LINE
  5
239
100
AcDbEntity
  8
0
100
AcDbLine
 62
2
  6
CONTINUOUS
 10
9.275
 20
0.625
 11
-0.0
 21
0.625
  0
LINE
  5
23A
100
AcDbEntity
  8
0
100
AcDbLine
 62
2
  6
CONTINUOUS
 10
9.275
 20
1.25
 11
-0.0
 21
1.25
  0
LINE
  5
23B
100
AcDbEntity
  8
0
100
AcDbLine
 62
2
  6
CONTINUOUS
 10
6.8
 20
0.0
 11
6.8
 21
1.25
  0
LINE
  5
23C
100
AcDbEntity
  8
0
100
AcDbLine
 62
2
  6
CONTINUOUS
 10
6.4
 20
0.0
 11
6.4
 21
0.625
  0
LINE
  5
23D
100
AcDbEntity
  8
0
100
AcDbLine
 62
2
  6
CONTINUOUS
 10
5.9
 20
0.0
 11
5.9
 21
0.625
  0
LINE
  5
23E
100
AcDbEntity
  8
0
100
AcDbLine
 62
2
  6
CONTINUOUS
 10
5.2
 20
0.0
 11
5.2
 21
0.625
  0
LINE
  5
23F
100
AcDbEntity
  8
0
100
AcDbLine
 62
2
  6
CONTINUOUS
 10
4.1
 20
0.0
 11
4.1
 21
1.25
  0
LINE
  5
240
100
AcDbEntity
  8
0
100
AcDbLine
 62
2
  6
CONTINUOUS
 10
-0.0
 20
0.0
 11
-0.0
 21
1.25
  0
MTEXT
  5
241
100
AcDbEntity
  8
0
100
AcDbMText
 62
2
  6
CONTINUOUS
  7
STANDARD
 71
2
 72
1
 10
6.6
 20
0.325
 30
0.0
 11
1.0
 21
0.0
 31
0.0
 44
0.9
  1
2
 40
0.125
 41
0.2
  0
MTEXT
  5
242
100
AcDbEntity
  8
0
100
AcDbMText
 62
2
  6
CONTINUOUS
  7
STANDARD
 71
2
 72
1
 10
6.15
 20
0.325
 30
0.0
 11
1.0
 21
0.0
 31
0.0
 44
0.9
  1
C
 40
0.125
 41
0.2
  0
MTEXT
  5
243
100
AcDbEntity
  8
0
100
AcDbMText
 62
2
  6
CONTINUOUS
  7
STANDARD
 71
2
 72
1
 10
5.55
 20
0.325
 30
0.0
 11
1.0
 21
0.0
 31
0.0
 44
0.9
  1
1.000
 40
0.125
 41
1.0
  0
MTEXT
  5
244
100
AcDbEntity
  8
0
100
AcDbMText
 62
2
  6
CONTINUOUS
  7
STANDARD
 71
2
 72
1
 10
4.65
 20
0.325
 30
0.0
 11
1.0
 21
0.0
 31
0.0
 44
0.9
  1
Oct-19-20
 40
0.125
 41
1.8
  0
MTEXT
  5
245
100
AcDbEntity
  8
0
100
AcDbMText
 62
2
  6
CONTINUOUS
  7
STANDARD
 71
2
 72
1
 10
2.05
 20
0.4625
 30
0.0
 11
1.0
 21
0.0
 31
0.0
 44
0.9
  1
T-11A Line mount\PThrough port 2 with reverse flow check
 40
0.125
 41
7.6
  0
MTEXT
  5
246
100
AcDbEntity
  8
0
100
AcDbMText
 62
2
  6
CONTINUOUS
  7
STANDARD
 71
1
 72
1
 10
6.45
 20
0.5625
 30
0.0
 11
1.0
 21
0.0
 31
0.0
 44
0.9
  1
SHEET
 40
0.06
 41
0.48
  0
MTEXT
  5
247
100
AcDbEntity
  8
0
100
AcDbMText
 62
2
  6
CONTINUOUS
  7
STANDARD
 71
1
 72
1
 10
5.95
 20
0.5625
 30
0.0
 11
1.0
 21
0.0
 31
0.0
 44
0.9
  1
DWG SIZE
 40
0.06
 41
0.768
  0
MTEXT
  5
248
100
AcDbEntity
  8
0
100
AcDbMText
 62
2
  6
CONTINUOUS
  7
STANDARD
 71
1
 72
1
 10
5.25
 20
0.5625
 30
0.0
 11
1.0
 21
0.0
 31
0.0
 44
0.9
  1
SCALE
 40
0.06
 41
0.48
  0
MTEXT
  5
249
100
AcDbEntity
  8
0
100
AcDbMText
 62
2
  6
CONTINUOUS
  7
STANDARD
 71
1
 72
1
 10
4.15
 20
0.5625
 30
0.0
 11
1.0
 21
0.0
 31
0.0
 44
0.9
  1
DATE
 40
0.06
 41
0.384
  0
MTEXT
  5
24A
100
AcDbEntity
  8
0
100
AcDbMText
 62
2
  6
CONTINUOUS
  7
STANDARD
 71
1
 72
1
 10
0.05
 20
0.5625
 30
0.0
 11
1.0
 21
0.0
 31
0.0
 44
0.9
  1
DESCRIPTION
 40
0.06
 41
1.056
  0
MTEXT
  5
24B
100
AcDbEntity
  8
0
100
AcDbMText
 62
2
  6
CONTINUOUS
  7
STANDARD
 71
2
 72
1
 10
5.45
 20
1.0375
 30
0.0
 11
1.0
 21
0.0
 31
0.0
 44
0.9
  1
ALL DIMENSIONS IN INCH\PVIEWS ARE THIRD ANGLE
 40
0.12
 41
4.224
  0
MTEXT
  5
24C
100
AcDbEntity
  8
0
100
AcDbMText
 62
2
  6
CONTINUOUS
  7
STANDARD
 71
2
 72
1
 10
2.05
 20
0.95
 30
0.0
 11
1.0
 21
0.0
 31
0.0
 44
0.9
  1
E3I
 40
0.125
 41
0.6
  0
MTEXT
  5
24D
100
AcDbEntity
  8
0
100
AcDbMText
 62
2
  6
CONTINUOUS
  7
STANDARD
 71
1
 72
1
 10
0.05
 20
1.1875
 30
0.0
 11
1.0
 21
0.0
 31
0.0
 44
0.9
  1
MODEL
 40
0.06
 41
0.48
  0
ENDBLK
  5
24E
100
AcDbEntity
  8
0
  6
BYBLOCK
 62
0
100
AcDbBlockEnd
  0
BLOCK
  5
24F
100
AcDbEntity
  8
0
100
AcDbBlockBegin
  2
*T2
 70
1
 10
0.0
 20
0.0
  3
*T2
  1

  0
LINE
  5
250
100
AcDbEntity
  8
0
100
AcDbLine
 62
2
  6
CONTINUOUS
 10
0.0
 20
0.0
 11
9.055
 21
0.0
  0
LINE
  5
251
100
AcDbEntity
  8
0
100
AcDbLine
 62
2
  6
CONTINUOUS
 10
0.0
 20
0.0
 11
0.0
 21
-2.594
  0
LINE
  5
252
100
AcDbEntity
  8
0
100
AcDbLine
 62
2
  6
CONTINUOUS
 10
0.0
 20
-0.344
 11
9.055
 21
-0.344
  0
LINE
  5
253
100
AcDbEntity
  8
0
100
AcDbLine
 62
2
  6
CONTINUOUS
 10
0.0
 20
-0.594
 11
9.055
 21
-0.594
  0
LINE
  5
254
100
AcDbEntity
  8
0
100
AcDbLine
 62
2
  6
CONTINUOUS
 10
0.0
 20
-0.844
 11
9.055
 21
-0.844
  0
LINE
  5
255
100
AcDbEntity
  8
0
100
AcDbLine
 62
2
  6
CONTINUOUS
 10
0.0
 20
-1.094
 11
9.055
 21
-1.094
  0
LINE
  5
256
100
AcDbEntity
  8
0
100
AcDbLine
 62
2
  6
CONTINUOUS
 10
0.0
 20
-1.344
 11
9.055
 21
-1.344
  0
LINE
  5
257
100
AcDbEntity
  8
0
100
AcDbLine
 62
2
  6
CONTINUOUS
 10
0.0
 20
-1.594
 11
9.055
 21
-1.594
  0
LINE
  5
258
100
AcDbEntity
  8
0
100
AcDbLine
 62
2
  6
CONTINUOUS
 10
0.0
 20
-1.844
 11
9.055
 21
-1.844
  0
LINE
  5
259
100
AcDbEntity
  8
0
100
AcDbLine
 62
2
  6
CONTINUOUS
 10
0.0
 20
-2.094
 11
9.055
 21
-2.094
  0
LINE
  5
25A
100
AcDbEntity
  8
0
100
AcDbLine
 62
2
  6
CONTINUOUS
 10
0.0
 20
-2.344
 11
9.055
 21
-2.344
  0
LINE
  5
25B
100
AcDbEntity
  8
0
100
AcDbLine
 62
2
  6
CONTINUOUS
 10
0.0
 20
-2.594
 11
9.055
 21
-2.594
  0
LINE
  5
25C
100
AcDbEntity
  8
0
100
AcDbLine
 62
2
  6
CONTINUOUS
 10
3.055
 20
0.0
 11
3.055
 21
-2.594
  0
LINE
  5
25D
100
AcDbEntity
  8
0
100
AcDbLine
 62
2
  6
CONTINUOUS
 10
9.055
 20
0.0
 11
9.055
 21
-2.594
  0
MTEXT
  5
25E
100
AcDbEntity
  8
0
100
AcDbMText
 62
2
  6
CONTINUOUS
  7
STANDARD
 71
2
 72
1
 10
1.5275
 20
-0.0995
 30
0.0
 11
1.0
 21
0.0
 31
0.0
 44
0.9
  1
Technical Data
 40
0.145
 41
3.248
  0
MTEXT
  5
25F
100
AcDbEntity
  8
0
100
AcDbMText
 62
2
  6
CONTINUOUS
  7
STANDARD
 71
2
 72
1
 10
4.555
 20
-0.0995
 30
0.0
 11
1.0
 21
0.0
 31
0.0
 44
0.9
  1
U.S. Units
 40
0.145
 41
2.32
  0
MTEXT
  5
260
100
AcDbEntity
  8
0
100
AcDbMText
 62
2
  6
CONTINUOUS
  7
STANDARD
 71
2
 72
1
 10
7.555
 20
-0.0995
 30
0.0
 11
1.0
 21
0.0
 31
0.0
 44
0.9
  1
Metric Units
 40
0.145
 41
2.784
  0
MTEXT
  5
261
100
AcDbEntity
  8
0
100
AcDbMText
 62
2
  6
CONTINUOUS
  7
STANDARD
 71
2
 72
1
 10
1.5275
 20
-0.4065
 30
0.0
 11
1.0
 21
0.0
 31
0.0
 44
0.9
  1
Cavity
 40
0.125
 41
1.2
  0
MTEXT
  5
262
100
AcDbEntity
  8
0
100
AcDbMText
 62
2
  6
CONTINUOUS
  7
STANDARD
 71
2
 72
1
 10
6.055
 20
-0.4065
 30
0.0
 11
1.0
 21
0.0
 31
0.0
 44
0.9
  1
T-11A
 40
0.125
 41
1.0
  0
MTEXT
  5
263
100
AcDbEntity
  8
0
100
AcDbMText
 62
2
  6
CONTINUOUS
  7
STANDARD
 71
2
 72
1
 10
1.5275
 20
-0.6565
 30
0.0
 11
1.0
 21
0.0
 31
0.0
 44
0.9
  1
Body Features
 40
0.125
 41
2.6
  0
MTEXT
  5
264
100
AcDbEntity
  8
0
100
AcDbMText
 62
2
  6
CONTINUOUS
  7
STANDARD
 71
2
 72
1
 10
6.055
 20
-0.6565
 30
0.0
 11
1.0
 21
0.0
 31
0.0
 44
0.9
  1
Through port 2 with reverse flow check
 40
0.125
 41
7.6
  0
MTEXT
  5
265
100
AcDbEntity
  8
0
100
AcDbMText
 62
2
  6
CONTINUOUS
  7
STANDARD
 71
2
 72
1
 10
1.5275
 20
-0.9065
 30
0.0
 11
1.0
 21
0.0
 31
0.0
 44
0.9
  1
Body Type
 40
0.125
 41
1.8
  0
MTEXT
  5
266
100
AcDbEntity
  8
0
100
AcDbMText
 62
2
  6
CONTINUOUS
  7
STANDARD
 71
2
 72
1
 10
6.055
 20
-0.9065
 30
0.0
 11
1.0
 21
0.0
 31
0.0
 44
0.9
  1
Line mount
 40
0.125
 41
2.0
  0
MTEXT
  5
267
100
AcDbEntity
  8
0
100
AcDbMText
 62
2
  6
CONTINUOUS
  7
STANDARD
 71
2
 72
1
 10
1.5275
 20
-1.1565
 30
0.0
 11
1.0
 21
0.0
 31
0.0
 44
0.9
  1
Interface
 40
0.125
 41
1.8
  0
MTEXT
  5
268
100
AcDbEntity
  8
0
100
AcDbMText
 62
2
  6
CONTINUOUS
  7
STANDARD
 71
2
 72
1
 10
6.055
 20
-1.1565
 30
0.0
 11
1.0
 21
0.0
 31
0.0
 44
0.9
  1
None
 40
0.125
 41
0.8
  0
MTEXT
  5
269
100
AcDbEntity
  8
0
100
AcDbMText
 62
2
  6
CONTINUOUS
  7
STANDARD
 71
2
 72
1
 10
1.5275
 20
-1.4065
 30
0.0
 11
1.0
 21
0.0
 31
0.0
 44
0.9
  1
Open Cavity Quantity
 40
0.125
 41
4.0
  0
MTEXT
  5
26A
100
AcDbEntity
  8
0
100
AcDbMText
 62
2
  6
CONTINUOUS
  7
STANDARD
 71
2
 72
1
 10
6.055
 20
-1.4065
 30
0.0
 11
1.0
 21
0.0
 31
0.0
 44
0.9
  1
1
 40
0.125
 41
0.2
  0
MTEXT
  5
26B
100
AcDbEntity
  8
0
100
AcDbMText
 62
2
  6
CONTINUOUS
  7
STANDARD
 71
2
 72
1
 10
1.5275
 20
-1.6565
 30
0.0
 11
1.0
 21
0.0
 31
0.0
 44
0.9
  1
Weight
 40
0.125
 41
1.2
  0
MTEXT
  5
26C
100
AcDbEntity
  8
0
100
AcDbMText
 62
2
  6
CONTINUOUS
  7
STANDARD
 71
2
 72
1
 10
4.555
 20
-1.6565
 30
0.0
 11
1.0
 21
0.0
 31
0.0
 44
0.9
  1
2.292 lb.
 40
0.125
 41
1.8
  0
MTEXT
  5
26D
100
AcDbEntity
  8
0
100
AcDbMText
 62
2
  6
CONTINUOUS
  7
STANDARD
 71
2
 72
1
 10
7.555
 20
-1.6565
 30
0.0
 11
1.0
 21
0.0
 31
0.0
 44
0.9
  1
1,039 kg.
 40
0.125
 41
1.8
  0
MTEXT
  5
26E
100
AcDbEntity
  8
0
100
AcDbMText
 62
2
  6
CONTINUOUS
  7
STANDARD
 71
2
 72
1
 10
1.5275
 20
-1.9065
 30
0.0
 11
1.0
 21
0.0
 31
0.0
 44
0.9
  1
Mounting Hole Thread
 40
0.125
 41
4.0
  0
MTEXT
  5
26F
100
AcDbEntity
  8
0
100
AcDbMText
 62
2
  6
CONTINUOUS
  7
STANDARD
 71
2
 72
1
 10
4.555
 20
-1.9065
 30
0.0
 11
1.0
 21
0.0
 31
0.0
 44
0.9
  1
.375-16 UNC - 2B in.
 40
0.125
 41
4.0
  0
MTEXT
  5
270
100
AcDbEntity
  8
0
100
AcDbMText
 62
2
  6
CONTINUOUS
  7
STANDARD
 71
2
 72
1
 10
1.5275
 20
-2.1565
 30
0.0
 11
1.0
 21
0.0
 31
0.0
 44
0.9
  1
Mounting Hole Depth
 40
0.125
 41
3.8
  0
MTEXT
  5
271
100
AcDbEntity
  8
0
100
AcDbMText
 62
2
  6
CONTINUOUS
  7
STANDARD
 71
2
 72
1
 10
4.555
 20
-2.1565
 30
0.0
 11
1.0
 21
0.0
 31
0.0
 44
0.9
  1
.62 in.
 40
0.125
 41
1.4
  0
MTEXT
  5
272
100
AcDbEntity
  8
0
100
AcDbMText
 62
2
  6
CONTINUOUS
  7
STANDARD
 71
2
 72
1
 10
7.555
 20
-2.1565
 30
0.0
 11
1.0
 21
0.0
 31
0.0
 44
0.9
  1
15,7 mm
 40
0.125
 41
1.4
  0
MTEXT
  5
273
100
AcDbEntity
  8
0
100
AcDbMText
 62
2
  6
CONTINUOUS
  7
STANDARD
 71
2
 72
1
 10
1.5275
 20
-2.4065
 30
0.0
 11
1.0
 21
0.0
 31
0.0
 44
0.9
  1
Mounting Hole Quantity
 40
0.125
 41
4.4
  0
MTEXT
  5
274
100
AcDbEntity
  8
0
100
AcDbMText
 62
2
  6
CONTINUOUS
  7
STANDARD
 71
2
 72
1
 10
6.055
 20
-2.4065
 30
0.0
 11
1.0
 21
0.0
 31
0.0
 44
0.9
  1
2
 40
0.125
 41
0.2
  0
ENDBLK
  5
275
100
AcDbEntity
  8
0
  6
BYBLOCK
 62
0
100
AcDbBlockEnd
  0
BLOCK
  5
276
100
AcDbEntity
  8
0
100
AcDbBlockBegin
  2
*T3
 70
1
 10
0.0
 20
0.0
  3
*T3
  1

  0
LINE
  5
277
100
AcDbEntity
  8
0
100
AcDbLine
 62
2
  6
CONTINUOUS
 10
0.0
 20
0.0
 11
4.6
 21
0.0
  0
LINE
  5
278
100
AcDbEntity
  8
0
100
AcDbLine
 62
2
  6
CONTINUOUS
 10
0.0
 20
0.0
 11
0.0
 21
-1.43775
  0
LINE
  5
279
100
AcDbEntity
  8
0
100
AcDbLine
 62
2
  6
CONTINUOUS
 10
0.0
 20
-0.34375
 11
4.6
 21
-0.34375
  0
LINE
  5
27A
100
AcDbEntity
  8
0
100
AcDbLine
 62
2
  6
CONTINUOUS
 10
0.0
 20
-0.68775
 11
4.6
 21
-0.68775
  0
LINE
  5
27B
100
AcDbEntity
  8
0
100
AcDbLine
 62
2
  6
CONTINUOUS
 10
0.0
 20
-0.93775
 11
4.6
 21
-0.93775
  0
LINE
  5
27C
100
AcDbEntity
  8
0
100
AcDbLine
 62
2
  6
CONTINUOUS
 10
0.0
 20
-1.18775
 11
4.6
 21
-1.18775
  0
LINE
  5
27D
100
AcDbEntity
  8
0
100
AcDbLine
 62
2
  6
CONTINUOUS
 10
0.0
 20
-1.43775
 11
4.6
 21
-1.43775
  0
LINE
  5
27E
100
AcDbEntity
  8
0
100
AcDbLine
 62
2
  6
CONTINUOUS
 10
1.3
 20
-0.34375
 11
1.3
 21
-1.43775
  0
LINE
  5
27F
100
AcDbEntity
  8
0
100
AcDbLine
 62
2
  6
CONTINUOUS
 10
3.3
 20
-0.34375
 11
3.3
 21
-1.43775
  0
LINE
  5
280
100
AcDbEntity
  8
0
100
AcDbLine
 62
2
  6
CONTINUOUS
 10
4.6
 20
0.0
 11
4.6
 21
-1.43775
  0
MTEXT
  5
281
100
AcDbEntity
  8
0
100
AcDbMText
 62
2
  6
CONTINUOUS
  7
STANDARD
 71
2
 72
1
 10
2.3
 20
-0.099375
 30
0.0
 11
1.0
 21
0.0
 31
0.0
 44
0.9
  1
Port Headings
 40
0.145
 41
3.016
  0
MTEXT
  5
282
100
AcDbEntity
  8
0
100
AcDbMText
 62
2
  6
CONTINUOUS
  7
STANDARD
 71
2
 72
1
 10
0.65
 20
-0.44325
 30
0.0
 11
1.0
 21
0.0
 31
0.0
 44
0.9
  1
Product
 40
0.145
 41
1.624
  0
MTEXT
  5
283
100
AcDbEntity
  8
0
100
AcDbMText
 62
2
  6
CONTINUOUS
  7
STANDARD
 71
2
 72
1
 10
2.3
 20
-0.44325
 30
0.0
 11
1.0
 21
0.0
 31
0.0
 44
0.9
  1
Port
 40
0.145
 41
0.928
  0
MTEXT
  5
284
100
AcDbEntity
  8
0
100
AcDbMText
 62
2
  6
CONTINUOUS
  7
STANDARD
 71
2
 72
1
 10
3.95
 20
-0.44325
 30
0.0
 11
1.0
 21
0.0
 31
0.0
 44
0.9
  1
Size
 40
0.145
 41
0.928
  0
MTEXT
  5
285
100
AcDbEntity
  8
0
100
AcDbMText
 62
2
  6
CONTINUOUS
  7
STANDARD
 71
2
 72
1
 10
0.65
 20
-0.75025
 30
0.0
 11
1.0
 21
0.0
 31
0.0
 44
0.9
  1
E3I
 40
0.125
 41
0.6
  0
MTEXT
  5
286
100
AcDbEntity
  8
0
100
AcDbMText
 62
2
  6
CONTINUOUS
  7
STANDARD
 71
2
 72
1
 10
2.3
 20
-0.75025
 30
0.0
 11
1.0
 21
0.0
 31
0.0
 44
0.9
  1
Ports 1 &  2
 40
0.125
 41
2.4
  0
MTEXT
  5
287
100
AcDbEntity
  8
0
100
AcDbMText
 62
2
  6
CONTINUOUS
  7
STANDARD
 71
2
 72
1
 10
3.95
 20
-0.75025
 30
0.0
 11
1.0
 21
0.0
 31
0.0
 44
0.9
  1
SAE 6
 40
0.125
 41
1.0
  0
MTEXT
  5
288
100
AcDbEntity
  8
0
100
AcDbMText
 62
2
  6
CONTINUOUS
  7
STANDARD
 71
2
 72
1
 10
0.65
 20
-1.00025
 30
0.0
 11
1.0
 21
0.0
 31
0.0
 44
0.9
  1
E3I
 40
0.125
 41
0.6
  0
MTEXT
  5
289
100
AcDbEntity
  8
0
100
AcDbMText
 62
2
  6
CONTINUOUS
  7
STANDARD
 71
2
 72
1
 10
2.3
 20
-1.00025
 30
0.0
 11
1.0
 21
0.0
 31
0.0
 44
0.9
  1
Port 3
 40
0.125
 41
1.2
  0
MTEXT
  5
28A
100
AcDbEntity
  8
0
100
AcDbMText
 62
2
  6
CONTINUOUS
  7
STANDARD
 71
2
 72
1
 10
3.95
 20
-1.00025
 30
0.0
 11
1.0
 21
0.0
 31
0.0
 44
0.9
  1
SAE 6
 40
0.125
 41
1.0
  0
MTEXT
  5
28B
100
AcDbEntity
  8
0
100
AcDbMText
 62
2
  6
CONTINUOUS
  7
STANDARD
 71
2
 72
1
 10
0.65
 20
-1.25025
 30
0.0
 11
1.0
 21
0.0
 31
0.0
 44
0.9
  1
E3I
 40
0.125
 41
0.6
  0
MTEXT
  5
28C
100
AcDbEntity
  8
0
100
AcDbMText
 62
2
  6
CONTINUOUS
  7
STANDARD
 71
2
 72
1
 10
2.3
 20
-1.25025
 30
0.0
 11
1.0
 21
0.0
 31
0.0
 44
0.9
  1
Gage Port
 40
0.125
 41
1.8
  0
MTEXT
  5
28D
100
AcDbEntity
  8
0
100
AcDbMText
 62
2
  6
CONTINUOUS
  7
STANDARD
 71
2
 72
1
 10
3.95
 20
-1.25025
 30
0.0
 11
1.0
 21
0.0
 31
0.0
 44
0.9
  1
1/4" NPTF
 40
0.125
 41
1.8
  0
ENDBLK
  5
28E
100
AcDbEntity
  8
0
  6
BYBLOCK
 62
0
100
AcDbBlockEnd
  0
ENDSEC
  0
SECTION
  2
ENTITIES
  0
IMAGE
  5
28F
100
AcDbEntity
  8
0
100
AcDbRasterImage
 62
7
  6
CONTINUOUS
 10
19.2297077316
 20
0.3094318264
 30
0.0
 11
0.0066666667
 21
0.0
 31
0.0
 12
0.0
 22
0.0066666667
 32
0.0
 13
369.0
 23
92.0
340
       3F0
 70
9
280
0
281
50
282
50
283
0
360
       3EA
 71
1
 91
2
 14
-0.5
 24
-0.5
 14
368.5
 24
91.5
  0
INSERT
  5
290
100
AcDbEntity
  8
0
100
AcDbBlockReference
 62
2
  6
CONTINUOUS
  2
SUN_FIRST_THIRD_ANGLE_BL0
 10
20.4816717061
 20
1.2289683772
  0
ACAD_TABLE
  5
291
100
AcDbEntity
  8
0
 62
2
  6
CONTINUOUS
100
AcDbBlockReference
  2
*T1
 10
12.42375
 20
0.30125
 30
0.0
100
AcDbTable
342
       3F2
343
20F
 11
1.0
 21
0.0
 31
0.0
 90
6
 91
4
 92
6
 93
20
 94
0
 95
0
 96
0
 70
1
 41
0.0
141
0.525
141
0.1
141
0.525
141
0.1
142
4.1
142
1.1
142
0.7
142
0.5
142
0.4
142
2.475
171
1
172
0
173
0
174
0
175
1
176
1
 91
33
178
0
145
0.0
301
CELL_VALUE
 90
4
  1
T-11A Line mount\PThrough port 2 with reverse flow check
304
ACVALUE_END
170
2
140
0.125
171
1
172
0
173
0
174
0
175
1
176
1
 91
33
178
0
145
0.0
301
CELL_VALUE
 90
4
  1
Oct-19-20
304
ACVALUE_END
170
5
140
0.125
171
1
172
0
173
0
174
0
175
1
176
1
 91
33
178
0
145
0.0
301
CELL_VALUE
 90
4
  1
1.000
304
ACVALUE_END
170
5
140
0.125
171
1
172
0
173
0
174
0
175
1
176
1
 91
33
178
0
145
0.0
301
CELL_VALUE
 90
4
  1
C
304
ACVALUE_END
170
5
140
0.125
171
1
172
0
173
0
174
0
175
1
176
1
 91
33
178
0
145
0.0
301
CELL_VALUE
 90
4
  1
2
304
ACVALUE_END
170
5
140
0.125
171
1
172
0
173
0
174
0
175
1
176
1
 91
33
178
0
145
0.0
301
CELL_VALUE
 90
4
  1
 
304
ACVALUE_END
170
1
140
0.125
171
1
172
0
173
0
174
0
175
1
176
1
 91
33
178
0
145
0.0
301
CELL_VALUE
 90
4
  1
DESCRIPTION
304
ACVALUE_END
170
1
140
0.06
171
1
172
0
173
0
174
0
175
1
176
1
 91
33
178
0
145
0.0
301
CELL_VALUE
 90
4
  1
DATE
304
ACVALUE_END
170
1
140
0.06
171
1
172
0
173
0
174
0
175
1
176
1
 91
33
178
0
145
0.0
301
CELL_VALUE
 90
4
  1
SCALE
304
ACVALUE_END
170
1
140
0.06
171
1
172
0
173
0
174
0
175
1
176
1
 91
33
178
0
145
0.0
301
CELL_VALUE
 90
4
  1
DWG SIZE
304
ACVALUE_END
170
1
140
0.06
171
1
172
0
173
0
174
0
175
1
176
1
 91
33
178
0
145
0.0
301
CELL_VALUE
 90
4
  1
SHEET
304
ACVALUE_END
170
1
140
0.06
171
1
172
0
173
0
174
0
175
1
176
1
 91
33
178
0
145
0.0
301
CELL_VALUE
 90
4
  1
 
304
ACVALUE_END
170
1
140
0.125
171
1
172
0
173
0
174
0
175
1
176
1
 91
33
178
0
145
0.0
301
CELL_VALUE
 90
4
  1
E3I
304
ACVALUE_END
170
5
140
0.125
171
1
172
0
173
0
174
0
175
4
176
1
 91
33
178
0
145
0.0
301
CELL_VALUE
 90
4
  1
ALL DIMENSIONS IN INCH\PVIEWS ARE THIRD ANGLE
304
ACVALUE_END
170
5
140
0.12
171
1
172
0
173
1
174
0
175
1
176
1
 91
1
178
0
145
0.0
170
1
171
1
172
0
173
1
174
0
175
1
176
1
 91
1
178
0
145
0.0
170
1
171
1
172
0
173
1
174
0
175
1
176
1
 91
1
178
0
145
0.0
170
5
171
1
172
0
173
0
174
0
175
1
176
1
 91
33
178
0
145
0.0
301
CELL_VALUE
 90
4
  1
 
304
ACVALUE_END
170
1
140
0.125
171
1
172
0
173
0
174
0
175
1
176
1
 91
33
178
0
145
0.0
301
CELL_VALUE
 90
4
  1
MODEL
304
ACVALUE_END
170
1
140
0.06
171
1
172
0
173
0
174
0
175
1
176
1
 91
33
178
0
145
0.0
301
CELL_VALUE
 90
4
  1
 
304
ACVALUE_END
170
1
140
0.125
171
1
172
0
173
0
174
0
175
1
176
1
 91
33
178
0
145
0.0
301
CELL_VALUE
 90
4
  1
 
304
ACVALUE_END
170
1
140
0.125
171
1
172
0
173
0
174
0
175
1
176
1
 91
33
178
0
145
0.0
301
CELL_VALUE
 90
4
  1
 
304
ACVALUE_END
170
1
140
0.125
171
1
172
0
173
0
174
0
175
1
176
1
 91
33
178
0
145
0.0
301
CELL_VALUE
 90
4
  1
 
304
ACVALUE_END
170
1
140
0.125
171
1
172
0
173
0
174
0
175
1
176
1
 91
33
178
0
145
0.0
301
CELL_VALUE
 90
4
  1
 
304
ACVALUE_END
170
1
140
0.125
  0
ACAD_TABLE
  5
292
100
AcDbEntity
  8
0
 62
2
  6
CONTINUOUS
100
AcDbBlockReference
  2
*T2
 10
12.4237499994
 20
16.47875
 30
0.0
100
AcDbTable
342
       3F1
343
210
 11
1.0
 21
0.0
 31
0.0
 90
22
 91
10
 92
3
 93
16
 94
0
 95
0
 96
0
 41
0.028
141
0.344
141
0.25
141
0.25
141
0.25
141
0.25
141
0.25
141
0.25
141
0.25
141
0.25
141
0.25
142
3.055
142
3.0
142
3.0
171
1
172
0
173
0
174
0
175
1
176
1
 91
33
178
0
145
0.0
301
CELL_VALUE
 90
4
  1
Technical Data
304
ACVALUE_END
170
5
140
0.145
171
1
172
0
173
0
174
0
175
1
176
1
 91
33
178
0
145
0.0
301
CELL_VALUE
 90
4
  1
U.S. Units
304
ACVALUE_END
170
5
140
0.145
171
1
172
0
173
0
174
0
175
1
176
1
 91
33
178
0
145
0.0
301
CELL_VALUE
 90
4
  1
Metric Units
304
ACVALUE_END
170
5
140
0.145
171
1
172
0
173
0
174
0
175
1
176
1
 91
33
178
0
145
0.0
301
CELL_VALUE
 90
4
  1
Cavity
304
ACVALUE_END
170
5
140
0.125
171
1
172
0
173
0
174
0
175
2
176
1
 91
33
178
0
145
0.0
301
CELL_VALUE
 90
4
  1
T-11A
304
ACVALUE_END
170
5
140
0.125
171
1
172
0
173
1
174
0
175
1
176
1
 91
1
178
0
145
0.0
170
1
171
1
172
0
173
0
174
0
175
1
176
1
 91
33
178
0
145
0.0
301
CELL_VALUE
 90
4
  1
Body Features
304
ACVALUE_END
170
5
140
0.125
171
1
172
0
173
0
174
0
175
2
176
1
 91
33
178
0
145
0.0
301
CELL_VALUE
 90
4
  1
Through port 2 with reverse flow check
304
ACVALUE_END
170
5
140
0.125
171
1
172
0
173
1
174
0
175
1
176
1
 91
1
178
0
145
0.0
170
1
171
1
172
0
173
0
174
0
175
1
176
1
 91
33
178
0
145
0.0
301
CELL_VALUE
 90
4
  1
Body Type
304
ACVALUE_END
170
5
140
0.125
171
1
172
0
173
0
174
0
175
2
176
1
 91
33
178
0
145
0.0
301
CELL_VALUE
 90
4
  1
Line mount
304
ACVALUE_END
170
5
140
0.125
171
1
172
0
173
1
174
0
175
1
176
1
 91
1
178
0
145
0.0
170
1
171
1
172
0
173
0
174
0
175
1
176
1
 91
33
178
0
145
0.0
301
CELL_VALUE
 90
4
  1
Interface
304
ACVALUE_END
170
5
140
0.125
171
1
172
0
173
0
174
0
175
2
176
1
 91
33
178
0
145
0.0
301
CELL_VALUE
 90
4
  1
None
304
ACVALUE_END
170
5
140
0.125
171
1
172
0
173
1
174
0
175
1
176
1
 91
1
178
0
145
0.0
170
1
171
1
172
0
173
0
174
0
175
1
176
1
 91
33
178
0
145
0.0
301
CELL_VALUE
 90
4
  1
Open Cavity Quantity
304
ACVALUE_END
170
5
140
0.125
171
1
172
0
173
0
174
0
175
2
176
1
 91
33
178
0
145
0.0
301
CELL_VALUE
 90
4
  1
1
304
ACVALUE_END
170
5
140
0.125
171
1
172
0
173
1
174
0
175
1
176
1
 91
1
178
0
145
0.0
170
1
171
1
172
0
173
0
174
0
175
1
176
1
 91
33
178
0
145
0.0
301
CELL_VALUE
 90
4
  1
Weight
304
ACVALUE_END
170
5
140
0.125
171
1
172
0
173
0
174
0
175
1
176
1
 91
33
178
0
145
0.0
301
CELL_VALUE
 90
4
  1
2.292 lb.
304
ACVALUE_END
170
5
140
0.125
171
1
172
0
173
0
174
0
175
1
176
1
 91
33
178
0
145
0.0
301
CELL_VALUE
 90
4
  1
1,039 kg.
304
ACVALUE_END
170
5
140
0.125
171
1
172
0
173
0
174
0
175
1
176
1
 91
33
178
0
145
0.0
301
CELL_VALUE
 90
4
  1
Mounting Hole Thread
304
ACVALUE_END
170
5
140
0.125
171
1
172
0
173
0
174
0
175
1
176
1
 91
33
178
0
145
0.0
301
CELL_VALUE
 90
4
  1
.375-16 UNC - 2B in.
304
ACVALUE_END
170
5
140
0.125
171
1
172
0
173
0
174
0
175
1
176
1
 91
33
178
0
145
0.0
301
CELL_VALUE
 90
4
  1
 
304
ACVALUE_END
170
5
140
0.125
171
1
172
0
173
0
174
0
175
1
176
1
 91
33
178
0
145
0.0
301
CELL_VALUE
 90
4
  1
Mounting Hole Depth
304
ACVALUE_END
170
5
140
0.125
171
1
172
0
173
0
174
0
175
1
176
1
 91
33
178
0
145
0.0
301
CELL_VALUE
 90
4
  1
.62 in.
304
ACVALUE_END
170
5
140
0.125
171
1
172
0
173
0
174
0
175
1
176
1
 91
33
178
0
145
0.0
301
CELL_VALUE
 90
4
  1
15,7 mm
304
ACVALUE_END
170
5
140
0.125
171
1
172
0
173
0
174
0
175
1
176
1
 91
33
178
0
145
0.0
301
CELL_VALUE
 90
4
  1
Mounting Hole Quantity
304
ACVALUE_END
170
5
140
0.125
171
1
172
0
173
0
174
0
175
2
176
1
 91
33
178
0
145
0.0
301
CELL_VALUE
 90
4
  1
2
304
ACVALUE_END
170
5
140
0.125
171
1
172
0
173
1
174
0
175
1
176
1
 91
1
178
0
145
0.0
170
1
  0
ACAD_TABLE
  5
293
100
AcDbEntity
  8
0
 62
2
  6
CONTINUOUS
100
AcDbBlockReference
  2
*T3
 10
0.52125
 20
1.959
 30
0.0
100
AcDbTable
342
       3F1
343
211
 11
1.0
 21
0.0
 31
0.0
 90
22
 91
5
 92
3
 93
16
 94
0
 95
0
 96
0
 41
0.05
141
0.34375
141
0.344
141
0.25
141
0.25
141
0.25
142
1.3
142
2.0
142
1.3
171
1
172
0
173
0
174
0
175
3
176
1
 91
33
178
0
145
0.0
301
CELL_VALUE
 90
4
  1
Port Headings
304
ACVALUE_END
170
5
140
0.145
171
1
172
0
173
1
174
0
175
1
176
1
 91
1
178
0
145
0.0
170
1
171
1
172
0
173
1
174
0
175
1
176
1
 91
1
178
0
145
0.0
170
1
171
1
172
0
173
0
174
0
175
1
176
1
 91
33
178
0
145
0.0
301
CELL_VALUE
 90
4
  1
Product
304
ACVALUE_END
170
5
140
0.145
171
1
172
0
173
0
174
0
175
1
176
1
 91
33
178
0
145
0.0
301
CELL_VALUE
 90
4
  1
Port
304
ACVALUE_END
170
5
140
0.145
171
1
172
0
173
0
174
0
175
1
176
1
 91
33
178
0
145
0.0
301
CELL_VALUE
 90
4
  1
Size
304
ACVALUE_END
170
5
140
0.145
171
1
172
0
173
0
174
0
175
1
176
1
 91
33
178
0
145
0.0
301
CELL_VALUE
 90
4
  1
E3I
304
ACVALUE_END
170
5
140
0.125
171
1
172
0
173
0
174
0
175
1
176
1
 91
33
178
0
145
0.0
301
CELL_VALUE
 90
4
  1
Ports 1 &  2
304
ACVALUE_END
170
5
140
0.125
171
1
172
0
173
0
174
0
175
1
176
1
 91
33
178
0
145
0.0
301
CELL_VALUE
 90
4
  1
SAE 6
304
ACVALUE_END
170
5
140
0.125
171
1
172
0
173
0
174
0
175
1
176
1
 91
33
178
0
145
0.0
301
CELL_VALUE
 90
4
  1
E3I
304
ACVALUE_END
170
5
140
0.125
171
1
172
0
173
0
174
0
175
1
176
1
 91
33
178
0
145
0.0
301
CELL_VALUE
 90
4
  1
Port 3
304
ACVALUE_END
170
5
140
0.125
171
1
172
0
173
0
174
0
175
1
176
1
 91
33
178
0
145
0.0
301
CELL_VALUE
 90
4
  1
SAE 6
304
ACVALUE_END
170
5
140
0.125
171
1
172
0
173
0
174
0
175
1
176
1
 91
33
178
0
145
0.0
301
CELL_VALUE
 90
4
  1
E3I
304
ACVALUE_END
170
5
140
0.125
171
1
172
0
173
0
174
0
175
1
176
1
 91
33
178
0
145
0.0
301
CELL_VALUE
 90
4
  1
Gage Port
304
ACVALUE_END
170
5
140
0.125
171
1
172
0
173
0
174
0
175
1
176
1
 91
33
178
0
145
0.0
301
CELL_VALUE
 90
4
  1
1/4" NPTF
304
ACVALUE_END
170
5
140
0.125
  0
MTEXT
  5
294
100
AcDbEntity
  8
0
100
AcDbMText
 62
2
  6
CONTINUOUS
  7
STANDARD
 71
1
 72
1
 10
0.52125
 20
5.75995
 30
0.0
 11
1.0
 21
0.0
 31
0.0
 44
0.6
  3
Notes\P \P1. Important: Carefully consider\P   the maximum system pressure. The\P   pressure rating of the manifold is\P   dependent on the manifold material,\P   with the port type/size a secondary\P   consideration. Manifolds\P   constructed of alu
  1
minum are not\P   rated for pressures higher than\P   3000 psi (210 bar), regardless of\P   the port type/size specified.
 40
0.1
 41
3.04
  0
LINE
  5
295
100
AcDbEntity
  8
0
100
AcDbLine
 62
7
  6
CONTINUOUS
 10
0.30125
 20
0.30125
 11
0.30125
 21
16.69875
  0
LINE
  5
296
100
AcDbEntity
  8
0
100
AcDbLine
 62
7
  6
CONTINUOUS
 10
0.30125
 20
0.30125
 11
21.69875
 21
0.30125
  0
LINE
  5
297
100
AcDbEntity
  8
0
100
AcDbLine
 62
7
  6
CONTINUOUS
 10
0.30125
 20
16.69875
 11
21.69875
 21
16.69875
  0
LINE
  5
298
100
AcDbEntity
  8
0
100
AcDbLine
 62
7
  6
CONTINUOUS
 10
21.69875
 20
0.30125
 11
21.69875
 21
16.69875
  0
LINE
  5
299
100
AcDbEntity
  8
0
100
AcDbLine
 62
7
  6
CONTINUOUS
 10
9.4067730324
 20
6.3459052392
 11
11.881475181
 21
6.1742840623
  0
LINE
  5
29A
100
AcDbEntity
  8
0
100
AcDbLine
 62
7
  6
CONTINUOUS
 10
10.118524819
 20
10.4141453049
 11
9.4067730324
 21
9.7266458315
  0
LINE
  5
29B
100
AcDbEntity
  8
0
100
AcDbLine
 62
7
  6
CONTINUOUS
 10
11.2410813953
 20
10.753647287
 11
11.2662470077
 21
10.7660786177
  0
LINE
  5
29C
100
AcDbEntity
  8
0
100
AcDbLine
 62
4
  6
CONTINUOUS
 10
11.2734248172
 20
6.6733354387
 11
11.2589359293
 21
6.6743402465
  0
LINE
  5
29D
100
AcDbEntity
  8
0
100
AcDbLine
 62
4
  6
CONTINUOUS
 10
11.2734248172
 20
6.7216317341
 11
11.2589359293
 21
6.7226365419
  0
LINE
  5
29E
100
AcDbEntity
  8
0
100
AcDbLine
 62
4
  6
CONTINUOUS
 10
11.2589359293
 20
6.7902513499
 11
11.2734248172
 21
6.7892465421
  0
LINE
  5
29F
100
AcDbEntity
  8
0
100
AcDbLine
 62
4
  6
CONTINUOUS
 10
9.5376559845
 20
7.6794654538
 11
9.5304115406
 21
7.6896271209
  0
LINE
  5
2A0
100
AcDbEntity
  8
0
100
AcDbLine
 62
7
  6
CONTINUOUS
 10
9.4067730324
 20
9.7266458315
 11
9.4067730324
 21
6.3459052392
  0
LINE
  5
2A1
100
AcDbEntity
  8
0
100
AcDbLine
 62
4
  6
CONTINUOUS
 10
9.5159226526
 20
8.7550822842
 11
9.5159226526
 21
8.7937193181
  0
LINE
  5
2A2
100
AcDbEntity
  8
0
100
AcDbLine
 62
4
  6
CONTINUOUS
 10
9.5521448724
 20
7.6688013897
 11
9.5376559845
 21
7.6794654538
  0
LINE
  5
2A3
100
AcDbEntity
  8
0
100
AcDbLine
 62
4
  6
CONTINUOUS
 10
9.5304115406
 20
7.6896271209
 11
9.5304115406
 21
7.7089456336
  0
LINE
  5
2A4
100
AcDbEntity
  8
0
100
AcDbLine
 62
4
  6
CONTINUOUS
 10
9.5883670923
 20
8.7500582453
 11
9.5811226483
 21
8.7215828733
  0
LINE
  5
2A5
100
AcDbEntity
  8
0
100
AcDbLine
 62
4
  6
CONTINUOUS
 10
9.5159226526
 20
8.7937193181
 11
9.5231670966
 21
8.8028761731
  0
LINE
  5
2A6
100
AcDbEntity
  8
0
100
AcDbLine
 62
4
  6
CONTINUOUS
 10
11.2589359293
 20
6.6743402465
 11
11.2444470414
 21
6.6850043106
  0
LINE
  5
2A7
100
AcDbEntity
  8
0
100
AcDbLine
 62
4
  6
CONTINUOUS
 10
9.5811226483
 20
8.779538425
 11
9.5883670923
 21
8.7500582453
  0
LINE
  5
2A8
100
AcDbEntity
  8
0
100
AcDbLine
 62
4
  6
CONTINUOUS
 10
9.5811226483
 20
7.7537251017
 11
9.5883670923
 21
7.7822004737
  0
LINE
  5
2A9
100
AcDbEntity
  8
0
100
AcDbLine
 62
4
  6
CONTINUOUS
 10
9.5811226483
 20
8.7215828733
 11
9.5666337604
 21
8.7032691615
  0
LINE
  5
2AA
100
AcDbEntity
  8
0
100
AcDbLine
 62
4
  6
CONTINUOUS
 10
10.9057170001
 20
10.1425146622
 11
10.9134815648
 21
10.1500146563
  0
LINE
  5
2AB
100
AcDbEntity
  8
0
100
AcDbLine
 62
4
  6
CONTINUOUS
 10
10.934834118
 20
10.1706396401
 11
10.9387164004
 21
10.1743896371
  0
LINE
  5
2AC
100
AcDbEntity
  8
0
100
AcDbLine
 62
4
  6
CONTINUOUS
 10
10.9969506361
 20
10.2306395928
 11
11.0008329185
 21
10.2343895898
  0
LINE
  5
2AD
100
AcDbEntity
  8
0
100
AcDbLine
 62
4
  6
CONTINUOUS
 10
11.116744022
 20
10.2263511275
 11
11.1128617396
 21
10.2226011304
  0
LINE
  5
2AE
100
AcDbEntity
  8
0
100
AcDbLine
 62
4
  6
CONTINUOUS
 10
11.0546275038
 20
10.1663511748
 11
11.0507452214
 21
10.1626011777
  0
LINE
  5
2AF
100
AcDbEntity
  8
0
100
AcDbLine
 62
4
  6
CONTINUOUS
 10
11.0293926683
 20
10.141976194
 11
11.0216281035
 21
10.1344761999
  0
LINE
  5
2B0
100
AcDbEntity
  8
0
100
AcDbLine
 62
4
  6
CONTINUOUS
 10
11.2589359293
 20
6.7226365419
 11
11.2444470414
 21
6.733300606
  0
LINE
  5
2B1
100
AcDbEntity
  8
0
100
AcDbLine
 62
4
  6
CONTINUOUS
 10
11.2734248172
 20
6.7892465421
 11
11.2879137052
 21
6.7785824754
  0
LINE
  5
2B2
100
AcDbEntity
  8
0
100
AcDbLine
 62
4
  6
CONTINUOUS
 10
10.2370553756
 20
7.6104015693
 11
10.2453347085
 21
7.6043078196
  0
LINE
  5
2B3
100
AcDbEntity
  8
0
100
AcDbLine
 62
4
  6
CONTINUOUS
 10
10.2784521509
 20
7.5964915412
 11
10.2867314838
 21
7.5903977914
  0
LINE
  5
2B4
100
AcDbEntity
  8
0
100
AcDbLine
 62
4
  6
CONTINUOUS
 10
10.2453347085
 20
7.560151208
 11
10.2370553756
 21
7.5690047491
  0
LINE
  5
2B5
100
AcDbEntity
  8
0
100
AcDbLine
 62
4
  6
CONTINUOUS
 10
10.2867314838
 20
7.6317946142
 11
10.2784521509
 21
7.6406481528
  0
LINE
  5
2B6
100
AcDbEntity
  8
0
100
AcDbLine
 62
4
  6
CONTINUOUS
 10
9.5231670966
 20
8.8028761731
 11
9.5376559845
 21
8.8115306242
  0
LINE
  5
2B7
100
AcDbEntity
  8
0
100
AcDbLine
 62
4
  6
CONTINUOUS
 10
11.305093352
 20
7.4535392403
 11
11.2719758941
 21
7.4558359438
  0
LINE
  5
2B8
100
AcDbEntity
  8
0
100
AcDbLine
 62
4
  6
CONTINUOUS
 10
10.4054024202
 20
7.5159330183
 11
10.4026426425
 21
7.5161244095
  0
LINE
  5
2B9
100
AcDbEntity
  8
0
100
AcDbLine
 62
4
  6
CONTINUOUS
 10
10.9573600503
 20
7.5107720828
 11
10.9159632197
 21
7.5136429627
  0
LINE
  5
2BA
100
AcDbEntity
  8
0
100
AcDbLine
 62
4
  6
CONTINUOUS
 10
10.7862531728
 20
7.522638385
 11
10.7531357305
 21
7.5249350875
  0
LINE
  5
2BB
100
AcDbEntity
  8
0
100
AcDbLine
 62
4
  6
CONTINUOUS
 10
10.7200182329
 20
7.5272317937
 11
10.6869007905
 21
7.5295284962
  0
LINE
  5
2BC
100
AcDbEntity
  8
0
100
AcDbLine
 62
4
  6
CONTINUOUS
 10
10.352966479
 20
7.5526869193
 11
10.3198489262
 21
7.5549836294
  0
LINE
  5
2BD
100
AcDbEntity
  8
0
100
AcDbLine
 62
4
  6
CONTINUOUS
 10
10.2784521509
 20
7.5578545055
 11
10.2453347085
 21
7.560151208
  0
LINE
  5
2BE
100
AcDbEntity
  8
0
100
AcDbLine
 62
4
  6
CONTINUOUS
 10
10.6041071294
 20
7.5352702561
 11
10.64550396
 21
7.5323993761
  0
LINE
  5
2BF
100
AcDbEntity
  8
0
100
AcDbLine
 62
4
  6
CONTINUOUS
 10
10.6289452388
 20
7.574944551
 11
10.5958277965
 21
7.5772412534
  0
LINE
  5
2C0
100
AcDbEntity
  8
0
100
AcDbLine
 62
4
  6
CONTINUOUS
 10
11.7699108046
 20
7.5149987999
 11
11.7554219166
 21
7.5160036077
  0
LINE
  5
2C1
100
AcDbEntity
  8
0
100
AcDbLine
 62
4
  6
CONTINUOUS
 10
9.5666337604
 20
7.6677965819
 11
9.5521448724
 21
7.6688013897
  0
LINE
  5
2C2
100
AcDbEntity
  8
0
100
AcDbLine
 62
4
  6
CONTINUOUS
 10
10.2453347085
 20
7.6043078196
 11
10.2784521509
 21
7.5964915412
  0
LINE
  5
2C3
100
AcDbEntity
  8
0
100
AcDbLine
 62
4
  6
CONTINUOUS
 10
10.6289452388
 20
7.6163413746
 11
10.64550396
 21
7.6069136585
  0
LINE
  5
2C4
100
AcDbEntity
  8
0
100
AcDbLine
 62
4
  6
CONTINUOUS
 10
10.352966479
 20
7.6354805666
 11
10.361245812
 21
7.626627028
  0
LINE
  5
2C5
100
AcDbEntity
  8
0
100
AcDbLine
 62
4
  6
CONTINUOUS
 10
10.4716373048
 20
7.6272507169
 11
10.4799166931
 21
7.6183971745
  0
LINE
  5
2C6
100
AcDbEntity
  8
0
100
AcDbLine
 62
4
  6
CONTINUOUS
 10
10.5627103542
 20
7.6126554146
 11
10.5544309659
 21
7.621508957
  0
LINE
  5
2C7
100
AcDbEntity
  8
0
100
AcDbLine
 62
4
  6
CONTINUOUS
 10
9.5231670966
 20
8.7062835849
 11
9.5159226526
 21
8.716445252
  0
LINE
  5
2C8
100
AcDbEntity
  8
0
100
AcDbLine
 62
4
  6
CONTINUOUS
 10
9.5666337604
 20
8.7998617497
 11
9.5811226483
 21
8.779538425
  0
LINE
  5
2C9
100
AcDbEntity
  8
0
100
AcDbLine
 62
4
  6
CONTINUOUS
 10
10.2370553756
 20
7.635239664
 11
10.2370553756
 21
7.6104015693
  0
LINE
  5
2CA
100
AcDbEntity
  8
0
100
AcDbLine
 62
4
  6
CONTINUOUS
 10
9.5666337604
 20
8.7032691615
 11
9.5521448724
 21
8.694614713
  0
LINE
  5
2CB
100
AcDbEntity
  8
0
100
AcDbLine
 62
4
  6
CONTINUOUS
 10
11.3133727169
 20
7.5688761678
 11
11.2802552581
 21
7.5711728714
  0
LINE
  5
2CC
100
AcDbEntity
  8
0
100
AcDbLine
 62
4
  6
CONTINUOUS
 10
11.2140203458
 20
7.5757662781
 11
11.1891822433
 21
7.5774888064
  0
LINE
  5
2CD
100
AcDbEntity
  8
0
100
AcDbLine
 62
4
  6
CONTINUOUS
 10
10.5544309659
 20
7.621508957
 11
10.5130341354
 21
7.6243798369
  0
LINE
  5
2CE
100
AcDbEntity
  8
0
100
AcDbLine
 62
4
  6
CONTINUOUS
 10
10.2784521509
 20
7.6406481528
 11
10.2453347085
 21
7.6429448552
  0
LINE
  5
2CF
100
AcDbEntity
  8
0
100
AcDbLine
 62
4
  6
CONTINUOUS
 10
10.3198489262
 20
7.6377772767
 11
10.352966479
 21
7.6354805666
  0
LINE
  5
2D0
100
AcDbEntity
  8
0
100
AcDbLine
 62
4
  6
CONTINUOUS
 10
10.4550785837
 20
7.6283990681
 11
10.4716373048
 21
7.6272507169
  0
LINE
  5
2D1
100
AcDbEntity
  8
0
100
AcDbLine
 62
4
  6
CONTINUOUS
 10
10.5958277965
 20
7.618638077
 11
10.6289452388
 21
7.6163413746
  0
LINE
  5
2D2
100
AcDbEntity
  8
0
100
AcDbLine
 62
4
  6
CONTINUOUS
 10
10.7531357305
 20
7.6077287348
 11
10.7862531728
 21
7.6054320323
  0
LINE
  5
2D3
100
AcDbEntity
  8
0
100
AcDbLine
 62
4
  6
CONTINUOUS
 10
10.8745663892
 20
7.6269053718
 11
10.858007668
 21
7.628053723
  0
LINE
  5
2D4
100
AcDbEntity
  8
0
100
AcDbLine
 62
4
  6
CONTINUOUS
 10
11.7916441364
 20
7.6294026917
 11
11.7336885847
 21
7.6334219228
  0
LINE
  5
2D5
100
AcDbEntity
  8
0
100
AcDbLine
 62
4
  6
CONTINUOUS
 10
9.5883670923
 20
7.7822004737
 11
9.5304115406
 21
7.7862197048
  0
LINE
  5
2D6
100
AcDbEntity
  8
0
100
AcDbLine
 62
4
  6
CONTINUOUS
 10
10.7862531728
 20
7.6054320323
 11
10.802811894
 21
7.5960043162
  0
LINE
  5
2D7
100
AcDbEntity
  8
0
100
AcDbLine
 62
4
  6
CONTINUOUS
 10
10.9159632197
 20
7.5136429627
 11
10.9076838592
 21
7.5224965058
  0
LINE
  5
2D8
100
AcDbEntity
  8
0
100
AcDbLine
 62
4
  6
CONTINUOUS
 10
11.2444470414
 20
6.6850043106
 11
11.2372025974
 21
6.6951659777
  0
LINE
  5
2D9
100
AcDbEntity
  8
0
100
AcDbLine
 62
4
  6
CONTINUOUS
 10
11.2444470414
 20
6.733300606
 11
11.2299581535
 21
6.7536239298
  0
LINE
  5
2DA
100
AcDbEntity
  8
0
100
AcDbLine
 62
4
  6
CONTINUOUS
 10
11.2879137052
 20
6.7785824754
 11
11.2951581491
 21
6.7684208126
  0
LINE
  5
2DB
100
AcDbEntity
  8
0
100
AcDbLine
 62
4
  6
CONTINUOUS
 10
10.6869007905
 20
7.5295284962
 11
10.6813812352
 21
7.5381906461
  0
LINE
  5
2DC
100
AcDbEntity
  8
0
100
AcDbLine
 62
4
  6
CONTINUOUS
 10
10.5958277965
 20
7.5524031578
 11
10.6041071294
 21
7.5352702561
  0
LINE
  5
2DD
100
AcDbEntity
  8
0
100
AcDbLine
 62
4
  6
CONTINUOUS
 10
10.2867314838
 20
7.5903977914
 11
10.2867314838
 21
7.5655596993
  0
LINE
  5
2DE
100
AcDbEntity
  8
0
100
AcDbLine
 62
4
  6
CONTINUOUS
 10
10.361245812
 20
7.626627028
 11
10.361245812
 21
7.5603921131
  0
LINE
  5
2DF
100
AcDbEntity
  8
0
100
AcDbLine
 62
4
  6
CONTINUOUS
 10
10.4054024202
 20
7.6318441217
 11
10.4054024202
 21
7.5490504744
  0
LINE
  5
2E0
100
AcDbEntity
  8
0
100
AcDbLine
 62
4
  6
CONTINUOUS
 10
10.4054024202
 20
7.5242123858
 11
10.4054024202
 21
7.5159330183
  0
LINE
  5
2E1
100
AcDbEntity
  8
0
100
AcDbLine
 62
4
  6
CONTINUOUS
 10
10.4247208992
 20
8.2216510082
 11
10.4247208992
 21
8.1057399047
  0
LINE
  5
2E2
100
AcDbEntity
  8
0
100
AcDbLine
 62
4
  6
CONTINUOUS
 10
9.5304115406
 20
7.7089456336
 11
9.5376559845
 21
7.7181024929
  0
LINE
  5
2E3
100
AcDbEntity
  8
0
100
AcDbLine
 62
4
  6
CONTINUOUS
 10
9.5666337604
 20
7.7354113934
 11
9.5811226483
 21
7.7537251017
  0
LINE
  5
2E4
100
AcDbEntity
  8
0
100
AcDbLine
 62
4
  6
CONTINUOUS
 10
9.5883670923
 20
7.6856078898
 11
9.5811226483
 21
7.6764510304
  0
LINE
  5
2E5
100
AcDbEntity
  8
0
100
AcDbLine
 62
4
  6
CONTINUOUS
 10
10.8731865341
 20
7.8196342798
 11
10.8235103464
 21
7.8230793351
  0
LINE
  5
2E6
100
AcDbEntity
  8
0
100
AcDbLine
 62
4
  6
CONTINUOUS
 10
10.7572754307
 20
7.8276727421
 11
10.7903928868
 21
7.8253760387
  0
LINE
  5
2E7
100
AcDbEntity
  8
0
100
AcDbLine
 62
4
  6
CONTINUOUS
 10
10.7572754307
 20
7.8773489263
 11
10.7738341587
 21
7.8762005746
  0
LINE
  5
2E8
100
AcDbEntity
  8
0
100
AcDbLine
 62
4
  6
CONTINUOUS
 10
10.8400690745
 20
7.8716071676
 11
10.8731865341
 21
7.869310464
  0
LINE
  5
2E9
100
AcDbEntity
  8
0
100
AcDbLine
 62
4
  6
CONTINUOUS
 10
10.8731865341
 20
7.9355453832
 11
10.8235103464
 21
7.9389904385
  0
LINE
  5
2EA
100
AcDbEntity
  8
0
100
AcDbLine
 62
4
  6
CONTINUOUS
 10
10.7903928868
 20
7.9412871421
 11
10.7489960701
 21
7.9441580211
  0
LINE
  5
2EB
100
AcDbEntity
  8
0
100
AcDbLine
 62
4
  6
CONTINUOUS
 10
10.3419272934
 20
8.155638269
 11
10.2977706852
 21
8.1807788477
  0
LINE
  5
2EC
100
AcDbEntity
  8
0
100
AcDbLine
 62
4
  6
CONTINUOUS
 10
9.5376559845
 20
8.6956195208
 11
9.5231670966
 21
8.7062835849
  0
LINE
  5
2ED
100
AcDbEntity
  8
0
100
AcDbLine
 62
4
  6
CONTINUOUS
 10
9.5521448724
 20
8.8105258164
 11
9.5666337604
 21
8.7998617497
  0
LINE
  5
2EE
100
AcDbEntity
  8
0
100
AcDbLine
 62
4
  6
CONTINUOUS
 10
10.4881960615
 20
8.1013378873
 11
10.4716373403
 21
8.1190449666
  0
LINE
  5
2EF
100
AcDbEntity
  8
0
100
AcDbLine
 62
4
  6
CONTINUOUS
 10
10.7407166957
 20
7.89505601
 11
10.7572754307
 21
7.8773489263
  0
LINE
  5
2F0
100
AcDbEntity
  8
0
100
AcDbLine
 62
4
  6
CONTINUOUS
 10
10.5792690555
 20
8.0950219537
 11
10.5627103344
 21
8.112729033
  0
LINE
  5
2F1
100
AcDbEntity
  8
0
100
AcDbLine
 62
4
  6
CONTINUOUS
 10
10.7434764872
 20
7.8451884301
 11
10.7572754307
 21
7.8276727421
  0
LINE
  5
2F2
100
AcDbEntity
  8
0
100
AcDbLine
 62
4
  6
CONTINUOUS
 10
10.4716373403
 20
8.1190449666
 11
10.4716373403
 21
8.2018386121
  0
LINE
  5
2F3
100
AcDbEntity
  8
0
100
AcDbLine
 62
4
  6
CONTINUOUS
 10
10.4799166931
 20
7.6183971745
 11
10.4799166931
 21
7.5107654359
  0
LINE
  5
2F4
100
AcDbEntity
  8
0
100
AcDbLine
 62
4
  6
CONTINUOUS
 10
10.5130341354
 20
7.6243798369
 11
10.5130341354
 21
7.5415861896
  0
LINE
  5
2F5
100
AcDbEntity
  8
0
100
AcDbLine
 62
4
  6
CONTINUOUS
 10
10.529592892
 20
8.2143781108
 11
10.529592892
 21
8.0984670073
  0
LINE
  5
2F6
100
AcDbEntity
  8
0
100
AcDbLine
 62
4
  6
CONTINUOUS
 10
10.5627103542
 20
7.5381411322
 11
10.5627103542
 21
7.6126554146
  0
LINE
  5
2F7
100
AcDbEntity
  8
0
100
AcDbLine
 62
4
  6
CONTINUOUS
 10
10.5627103344
 20
8.112729033
 11
10.5627103344
 21
8.1955226785
  0
LINE
  5
2F8
100
AcDbEntity
  8
0
100
AcDbLine
 62
4
  6
CONTINUOUS
 10
10.5958277965
 20
7.618638077
 11
10.5958277965
 21
7.5524031578
  0
LINE
  5
2F9
100
AcDbEntity
  8
0
100
AcDbLine
 62
4
  6
CONTINUOUS
 10
10.6206658861
 20
8.1915034474
 11
10.6206658861
 21
8.1087098018
  0
LINE
  5
2FA
100
AcDbEntity
  8
0
100
AcDbLine
 62
4
  6
CONTINUOUS
 10
10.64550396
 20
7.6069136585
 11
10.64550396
 21
7.5820755638
  0
LINE
  5
2FB
100
AcDbEntity
  8
0
100
AcDbLine
 62
7
  6
CONTINUOUS
 10
12.118252132
 20
10.2270133498
 11
12.1194711025
 21
10.2281688842
  0
LINE
  5
2FC
100
AcDbEntity
  8
0
100
AcDbLine
 62
7
  6
CONTINUOUS
 10
12.059001
 20
10.1718739513
 11
12.1182521362
 21
10.2270133537
  0
LINE
  5
2FD
100
AcDbEntity
  8
0
100
AcDbLine
 62
4
  6
CONTINUOUS
 10
11.1947018134
 20
8.052341547
 11
11.1533049967
 21
8.055212426
  0
LINE
  5
2FE
100
AcDbEntity
  8
0
100
AcDbLine
 62
4
  6
CONTINUOUS
 10
10.9904775005
 20
8.0665045512
 11
10.9242425882
 21
8.0710979579
  0
LINE
  5
2FF
100
AcDbEntity
  8
0
100
AcDbLine
 62
4
  6
CONTINUOUS
 10
10.8911251182
 20
8.0733946623
 11
10.8414489271
 21
8.0768397178
  0
LINE
  5
300
100
AcDbEntity
  8
0
100
AcDbLine
 62
4
  6
CONTINUOUS
 10
10.7006997143
 20
8.0866007089
 11
10.6675822719
 21
8.0888974113
  0
LINE
  5
301
100
AcDbEntity
  8
0
100
AcDbLine
 62
4
  6
CONTINUOUS
 10
10.6041071649
 20
8.0932994249
 11
10.5792690555
 21
8.0950219537
  0
LINE
  5
302
100
AcDbEntity
  8
0
100
AcDbLine
 62
4
  6
CONTINUOUS
 10
10.529592892
 20
8.0984670073
 11
10.4881960615
 21
8.1013378873
  0
LINE
  5
303
100
AcDbEntity
  8
0
100
AcDbLine
 62
4
  6
CONTINUOUS
 10
10.4247208992
 20
8.1057399047
 11
10.3750447357
 21
8.1091849584
  0
LINE
  5
304
100
AcDbEntity
  8
0
100
AcDbLine
 62
4
  6
CONTINUOUS
 10
10.3916034569
 20
8.1577127914
 11
10.4247208992
 21
8.155416089
  0
LINE
  5
305
100
AcDbEntity
  8
0
100
AcDbLine
 62
4
  6
CONTINUOUS
 10
10.8580076483
 20
8.1253675509
 11
10.8911251182
 21
8.1230708465
  0
LINE
  5
306
100
AcDbEntity
  8
0
100
AcDbLine
 62
4
  6
CONTINUOUS
 10
11.26369653
 20
7.5392037634
 11
11.3216520818
 21
7.4855083446
  0
LINE
  5
307
100
AcDbEntity
  8
0
100
AcDbLine
 62
4
  6
CONTINUOUS
 10
11.2719758941
 20
7.4558359438
 11
11.26369653
 21
7.4646894871
  0
LINE
  5
308
100
AcDbEntity
  8
0
100
AcDbLine
 62
4
  6
CONTINUOUS
 10
10.6041071649
 20
8.2092105284
 11
10.6206658861
 21
8.1915034474
  0
LINE
  5
309
100
AcDbEntity
  8
0
100
AcDbLine
 62
4
  6
CONTINUOUS
 10
11.2305790739
 20
7.5580591966
 11
11.2140203458
 21
7.5757662781
  0
LINE
  5
30A
100
AcDbEntity
  8
0
100
AcDbLine
 62
4
  6
CONTINUOUS
 10
10.7006997143
 20
8.2025118123
 11
10.7172584354
 21
8.1848047313
  0
LINE
  5
30B
100
AcDbEntity
  8
0
100
AcDbLine
 62
4
  6
CONTINUOUS
 10
11.3216520818
 20
7.560022627
 11
11.3133727169
 21
7.5688761678
  0
LINE
  5
30C
100
AcDbEntity
  8
0
100
AcDbLine
 62
4
  6
CONTINUOUS
 10
10.8745663892
 20
7.5165138427
 11
10.8497282798
 21
7.6010300187
  0
LINE
  5
30D
100
AcDbEntity
  8
0
100
AcDbLine
 62
4
  6
CONTINUOUS
 10
10.6813812352
 20
7.5381906461
 11
10.6813812352
 21
7.5547493742
  0
LINE
  5
30E
100
AcDbEntity
  8
0
100
AcDbLine
 62
4
  6
CONTINUOUS
 10
10.6855209354
 20
7.9485600367
 11
10.6855209354
 21
7.8326489332
  0
LINE
  5
30F
100
AcDbEntity
  8
0
100
AcDbLine
 62
4
  6
CONTINUOUS
 10
10.7172584354
 20
8.1848047313
 11
10.7172584354
 21
8.1020110858
  0
LINE
  5
310
100
AcDbEntity
  8
0
100
AcDbLine
 62
4
  6
CONTINUOUS
 10
10.7200182329
 20
7.610025441
 11
10.7200182329
 21
7.5272317937
  0
LINE
  5
311
100
AcDbEntity
  8
0
100
AcDbLine
 62
4
  6
CONTINUOUS
 10
10.7407166957
 20
7.9364528328
 11
10.7407166957
 21
7.89505601
  0
LINE
  5
312
100
AcDbEntity
  8
0
100
AcDbLine
 62
4
  6
CONTINUOUS
 10
10.7434764872
 20
7.8700265257
 11
10.7434764872
 21
7.8451884301
  0
LINE
  5
313
100
AcDbEntity
  8
0
100
AcDbLine
 62
4
  6
CONTINUOUS
 10
10.7531357305
 20
7.4918176313
 11
10.7531357305
 21
7.6077287348
  0
LINE
  5
314
100
AcDbEntity
  8
0
100
AcDbLine
 62
4
  6
CONTINUOUS
 10
10.802811894
 20
7.5960043162
 11
10.802811894
 21
7.5297694013
  0
LINE
  5
315
100
AcDbEntity
  8
0
100
AcDbLine
 62
4
  6
CONTINUOUS
 10
10.4026426425
 20
7.5161244095
 11
10.4054024202
 21
7.5242123858
  0
LINE
  5
316
100
AcDbEntity
  8
0
100
AcDbLine
 62
4
  6
CONTINUOUS
 10
11.0787907169
 20
8.1431736526
 11
11.0346341087
 21
8.1462359238
  0
LINE
  5
317
100
AcDbEntity
  8
0
100
AcDbLine
 62
4
  6
CONTINUOUS
 10
10.8911251182
 20
8.1893057657
 11
10.8414489271
 21
8.1927508213
  0
LINE
  5
318
100
AcDbEntity
  8
0
100
AcDbLine
 62
4
  6
CONTINUOUS
 10
10.4247208992
 20
8.2216510082
 11
10.3750447357
 21
8.2250960618
  0
LINE
  5
319
100
AcDbEntity
  8
0
100
AcDbLine
 62
4
  6
CONTINUOUS
 10
10.4881960615
 20
8.2172489907
 11
10.529592892
 21
8.2143781108
  0
LINE
  5
31A
100
AcDbEntity
  8
0
100
AcDbLine
 62
4
  6
CONTINUOUS
 10
10.5792690555
 20
8.2109330571
 11
10.6041071649
 21
8.2092105284
  0
LINE
  5
31B
100
AcDbEntity
  8
0
100
AcDbLine
 62
4
  6
CONTINUOUS
 10
10.6675822719
 20
8.2048085148
 11
10.7006997143
 21
8.2025118123
  0
LINE
  5
31C
100
AcDbEntity
  8
0
100
AcDbLine
 62
4
  6
CONTINUOUS
 10
11.1533049967
 20
8.1711235294
 11
11.1947018134
 21
8.1682526504
  0
LINE
  5
31D
100
AcDbEntity
  8
0
100
AcDbLine
 62
4
  6
CONTINUOUS
 10
11.2609367326
 20
8.1139830555
 11
11.216780121
 21
8.1391236327
  0
LINE
  5
31E
100
AcDbEntity
  8
0
100
AcDbLine
 62
4
  6
CONTINUOUS
 10
11.7554219166
 20
7.5160036077
 11
11.7409330287
 21
7.5266676718
  0
LINE
  5
31F
100
AcDbEntity
  8
0
100
AcDbLine
 62
4
  6
CONTINUOUS
 10
11.1533049967
 20
8.055212426
 11
11.1367462686
 21
8.0729195057
  0
LINE
  5
320
100
AcDbEntity
  8
0
100
AcDbLine
 62
4
  6
CONTINUOUS
 10
11.139506066
 20
7.4650227575
 11
11.0815505143
 21
7.5849530921
  0
LINE
  5
321
100
AcDbEntity
  8
0
100
AcDbLine
 62
4
  6
CONTINUOUS
 10
10.8731865341
 20
7.9355453832
 11
10.8731865341
 21
7.8196342798
  0
LINE
  5
322
100
AcDbEntity
  8
0
100
AcDbLine
 62
4
  6
CONTINUOUS
 10
10.8911251182
 20
8.1893057657
 11
10.8911251182
 21
8.0733946623
  0
LINE
  5
323
100
AcDbEntity
  8
0
100
AcDbLine
 62
4
  6
CONTINUOUS
 10
10.9076838592
 20
7.5224965058
 11
10.9076838592
 21
7.5970107856
  0
LINE
  5
324
100
AcDbEntity
  8
0
100
AcDbLine
 62
4
  6
CONTINUOUS
 10
10.9573600305
 20
8.1847123589
 11
10.9573600305
 21
8.0688012555
  0
LINE
  5
325
100
AcDbEntity
  8
0
100
AcDbLine
 62
4
  6
CONTINUOUS
 10
10.9573600503
 20
7.5935657301
 11
10.9573600503
 21
7.4776546266
  0
LINE
  5
326
100
AcDbEntity
  8
0
100
AcDbLine
 62
7
  6
CONTINUOUS
 10
12.5932269676
 20
10.242524128
 11
11.881475181
 21
9.5550246546
  0
LINE
  5
327
100
AcDbEntity
  8
0
100
AcDbLine
 62
4
  6
CONTINUOUS
 10
10.4716373403
 20
8.2018386121
 11
10.4881960615
 21
8.2172489907
  0
LINE
  5
328
100
AcDbEntity
  8
0
100
AcDbLine
 62
4
  6
CONTINUOUS
 10
10.5627103344
 20
8.1955226785
 11
10.5792690555
 21
8.2109330571
  0
LINE
  5
329
100
AcDbEntity
  8
0
100
AcDbLine
 62
4
  6
CONTINUOUS
 10
9.5376559845
 20
7.7181024929
 11
9.5666337604
 21
7.7354113934
  0
LINE
  5
32A
100
AcDbEntity
  8
0
100
AcDbLine
 62
4
  6
CONTINUOUS
 10
9.5811226483
 20
7.6764510304
 11
9.5666337604
 21
7.6677965819
  0
LINE
  5
32B
100
AcDbEntity
  8
0
100
AcDbLine
 62
4
  6
CONTINUOUS
 10
10.2977706852
 20
8.1807788477
 11
10.3419272934
 21
8.1997948824
  0
LINE
  5
32C
100
AcDbEntity
  8
0
100
AcDbLine
 62
4
  6
CONTINUOUS
 10
11.0567124128
 20
8.0619111444
 11
11.0235949428
 21
8.1801189522
  0
LINE
  5
32D
100
AcDbEntity
  8
0
100
AcDbLine
 62
4
  6
CONTINUOUS
 10
11.0815505143
 20
7.5849530921
 11
11.0815505143
 21
7.4690419887
  0
LINE
  5
32E
100
AcDbEntity
  8
0
100
AcDbLine
 62
4
  6
CONTINUOUS
 10
11.1367462686
 20
8.0729195057
 11
11.1367462686
 21
8.1557131513
  0
LINE
  5
32F
100
AcDbEntity
  8
0
100
AcDbLine
 62
4
  6
CONTINUOUS
 10
11.139506066
 20
7.580933861
 11
11.139506066
 21
7.4650227575
  0
LINE
  5
330
100
AcDbEntity
  8
0
100
AcDbLine
 62
7
  6
CONTINUOUS
 10
11.1679979279
 20
10.2862187898
 11
11.1679979279
 21
10.7068180156
  0
LINE
  5
331
100
AcDbEntity
  8
0
100
AcDbLine
 62
4
  6
CONTINUOUS
 10
11.1726235222
 20
7.5620784278
 11
11.1726235222
 21
7.4627260542
  0
LINE
  5
332
100
AcDbEntity
  8
0
100
AcDbLine
 62
4
  6
CONTINUOUS
 10
11.1947018134
 20
8.1682526504
 11
11.1947018134
 21
8.052341547
  0
LINE
  5
333
100
AcDbEntity
  8
0
100
AcDbLine
 62
4
  6
CONTINUOUS
 10
11.0898298689
 20
8.1755255444
 11
11.0567124128
 21
8.0619111444
  0
LINE
  5
334
100
AcDbEntity
  8
0
100
AcDbLine
 62
4
  6
CONTINUOUS
 10
10.858007668
 20
7.628053723
 11
10.8248902257
 21
7.5199588963
  0
LINE
  5
335
100
AcDbEntity
  8
0
100
AcDbLine
 62
4
  6
CONTINUOUS
 10
10.6206658861
 20
8.1087098018
 11
10.6041071649
 21
8.0932994249
  0
LINE
  5
336
100
AcDbEntity
  8
0
100
AcDbLine
 62
4
  6
CONTINUOUS
 10
10.7172584354
 20
8.1020110858
 11
10.7006997143
 21
8.0866007089
  0
LINE
  5
337
100
AcDbEntity
  8
0
100
AcDbLine
 62
4
  6
CONTINUOUS
 10
10.2453347085
 20
7.6429448552
 11
10.2370553756
 21
7.635239664
  0
LINE
  5
338
100
AcDbEntity
  8
0
100
AcDbLine
 62
4
  6
CONTINUOUS
 10
10.2867314838
 20
7.5655596993
 11
10.2784521509
 21
7.5578545055
  0
LINE
  5
339
100
AcDbEntity
  8
0
100
AcDbLine
 62
4
  6
CONTINUOUS
 10
9.5521448724
 20
8.694614713
 11
9.5376559845
 21
8.6956195208
  0
LINE
  5
33A
100
AcDbEntity
  8
0
100
AcDbLine
 62
4
  6
CONTINUOUS
 10
9.5449004285
 20
8.7530726686
 11
9.5159226526
 21
8.7550822842
  0
LINE
  5
33B
100
AcDbEntity
  8
0
100
AcDbLine
 62
4
  6
CONTINUOUS
 10
9.5376559845
 20
8.8115306242
 11
9.5521448724
 21
8.8105258164
  0
LINE
  5
33C
100
AcDbEntity
  8
0
100
AcDbLine
 62
4
  6
CONTINUOUS
 10
11.7409330287
 20
7.5266676718
 11
11.7336885847
 21
7.5368293389
  0
LINE
  5
33D
100
AcDbEntity
  8
0
100
AcDbLine
 62
7
  6
CONTINUOUS
 10
11.2196333455
 20
10.1252888891
 11
11.2196333455
 21
10.1870971231
  0
LINE
  5
33E
100
AcDbEntity
  8
0
100
AcDbLine
 62
4
  6
CONTINUOUS
 10
11.2299581535
 20
6.7536239298
 11
11.2299581535
 21
6.7632831896
  0
LINE
  5
33F
100
AcDbEntity
  8
0
100
AcDbLine
 62
4
  6
CONTINUOUS
 10
11.2305790739
 20
7.458706823
 11
11.2305790739
 21
7.5580591966
  0
LINE
  5
340
100
AcDbEntity
  8
0
100
AcDbLine
 62
4
  6
CONTINUOUS
 10
11.2372025974
 20
6.6951659777
 11
11.2372025974
 21
6.704825234
  0
LINE
  5
341
100
AcDbEntity
  8
0
100
AcDbLine
 62
4
  6
CONTINUOUS
 10
11.2613507485
 20
8.6919918784
 11
11.2613507485
 21
8.8079029818
  0
LINE
  5
342
100
AcDbEntity
  8
0
100
AcDbLine
 62
4
  6
CONTINUOUS
 10
11.26369653
 20
7.5557624932
 11
11.26369653
 21
7.5392037634
  0
LINE
  5
343
100
AcDbEntity
  8
0
100
AcDbLine
 62
7
  6
CONTINUOUS
 10
11.2810527399
 20
10.1770164139
 11
11.2810527399
 21
10.5976156397
  0
LINE
  5
344
100
AcDbEntity
  8
0
100
AcDbLine
 62
4
  6
CONTINUOUS
 10
11.3216520818
 20
7.4855083446
 11
11.3216520818
 21
7.4689496165
  0
LINE
  5
345
100
AcDbEntity
  8
0
100
AcDbLine
 62
7
  6
CONTINUOUS
 10
11.3229329674
 20
10.1661770272
 11
11.3229329674
 21
10.5867762529
  0
LINE
  5
346
100
AcDbEntity
  8
0
100
AcDbLine
 62
4
  6
CONTINUOUS
 10
10.7489960701
 20
7.9441580211
 11
10.7407166957
 21
7.9364528328
  0
LINE
  5
347
100
AcDbEntity
  8
0
100
AcDbLine
 62
4
  6
CONTINUOUS
 10
10.361245812
 20
7.5603921131
 11
10.352966479
 21
7.5526869193
  0
LINE
  5
348
100
AcDbEntity
  8
0
100
AcDbLine
 62
4
  6
CONTINUOUS
 10
11.1367462686
 20
8.1557131513
 11
11.1533049967
 21
8.1711235294
  0
LINE
  5
349
100
AcDbEntity
  8
0
100
AcDbLine
 62
4
  6
CONTINUOUS
 10
10.7572754307
 20
7.8773489263
 11
10.7434764872
 21
7.8700265257
  0
LINE
  5
34A
100
AcDbEntity
  8
0
100
AcDbLine
 62
4
  6
CONTINUOUS
 10
11.216780121
 20
8.0949670193
 11
11.2609367326
 21
8.1139830555
  0
LINE
  5
34B
100
AcDbEntity
  8
0
100
AcDbLine
 62
4
  6
CONTINUOUS
 10
11.7336885847
 20
7.5368293389
 11
11.7336885847
 21
7.5561478516
  0
LINE
  5
34C
100
AcDbEntity
  8
0
100
AcDbLine
 62
7
  6
CONTINUOUS
 10
11.7448589463
 20
10.1369163612
 11
11.7448589463
 21
10.5575155869
  0
LINE
  5
34D
100
AcDbEntity
  8
0
100
AcDbLine
 62
4
  6
CONTINUOUS
 10
10.64550396
 20
7.5820755638
 11
10.6289452388
 21
7.574944551
  0
LINE
  5
34E
100
AcDbEntity
  8
0
100
AcDbLine
 62
7
  6
CONTINUOUS
 10
11.8020683849
 20
10.1408838562
 11
11.8020683849
 21
10.561483082
  0
LINE
  5
34F
100
AcDbEntity
  8
0
100
AcDbLine
 62
7
  6
CONTINUOUS
 10
11.881475181
 20
9.5550246546
 11
11.881475181
 21
6.1742840623
  0
LINE
  5
350
100
AcDbEntity
  8
0
100
AcDbLine
 62
4
  6
CONTINUOUS
 10
11.1891822433
 20
7.5774888064
 11
11.1726235222
 21
7.5620784278
  0
LINE
  5
351
100
AcDbEntity
  8
0
100
AcDbLine
 62
4
  6
CONTINUOUS
 10
11.2802552581
 20
7.5711728714
 11
11.26369653
 21
7.5557624932
  0
LINE
  5
352
100
AcDbEntity
  8
0
100
AcDbLine
 62
4
  6
CONTINUOUS
 10
10.802811894
 20
7.5297694013
 11
10.7862531728
 21
7.522638385
  0
LINE
  5
353
100
AcDbEntity
  8
0
100
AcDbLine
 62
7
  6
CONTINUOUS
 10
12.0746333455
 20
10.1253445873
 11
12.0746333455
 21
10.1864214899
  0
LINE
  5
354
100
AcDbEntity
  8
0
100
AcDbLine
 62
7
  6
CONTINUOUS
 10
12.1109395519
 20
10.2208255661
 11
12.1109395519
 21
10.6414247919
  0
LINE
  5
355
100
AcDbEntity
  8
0
100
AcDbLine
 62
7
  6
CONTINUOUS
 10
12.1262687631
 20
10.2356324479
 11
12.1262687631
 21
10.6562316737
  0
LINE
  5
356
100
AcDbEntity
  8
0
100
AcDbLine
 62
4
  6
CONTINUOUS
 10
11.7843996925
 20
7.6009273197
 11
11.7916441364
 21
7.6294026917
  0
LINE
  5
357
100
AcDbEntity
  8
0
100
AcDbLine
 62
4
  6
CONTINUOUS
 10
11.3216520818
 20
7.4689496165
 11
11.305093352
 21
7.4535392403
  0
LINE
  5
358
100
AcDbEntity
  8
0
100
AcDbLine
 62
7
  6
CONTINUOUS
 10
9.4067730324
 20
9.7266458315
 11
11.881475181
 21
9.5550246546
  0
LINE
  5
359
100
AcDbEntity
  8
0
100
AcDbLine
 62
4
  6
CONTINUOUS
 10
11.7336885847
 20
7.5561478516
 11
11.7409330287
 21
7.5653047109
  0
LINE
  5
35A
100
AcDbEntity
  8
0
100
AcDbLine
 62
4
  6
CONTINUOUS
 10
11.7699108046
 20
7.5826136114
 11
11.7843996925
 21
7.6009273197
  0
LINE
  5
35B
100
AcDbEntity
  8
0
100
AcDbLine
 62
4
  6
CONTINUOUS
 10
11.7916441364
 20
7.5328101078
 11
11.7843996925
 21
7.5236532485
  0
LINE
  5
35C
100
AcDbEntity
  8
0
100
AcDbLine
 62
4
  6
CONTINUOUS
 10
11.2299581535
 20
6.7632831896
 11
11.2444470414
 21
6.7815968988
  0
LINE
  5
35D
100
AcDbEntity
  8
0
100
AcDbLine
 62
4
  6
CONTINUOUS
 10
11.2372025974
 20
6.704825234
 11
11.2444470414
 21
6.7139820864
  0
LINE
  5
35E
100
AcDbEntity
  8
0
100
AcDbLine
 62
4
  6
CONTINUOUS
 10
11.7409330287
 20
7.5653047109
 11
11.7699108046
 21
7.5826136114
  0
LINE
  5
35F
100
AcDbEntity
  8
0
100
AcDbLine
 62
4
  6
CONTINUOUS
 10
11.7843996925
 20
7.5236532485
 11
11.7699108046
 21
7.5149987999
  0
LINE
  5
360
100
AcDbEntity
  8
0
100
AcDbLine
 62
4
  6
CONTINUOUS
 10
10.9114939766
 20
10.1380947933
 11
10.9057170001
 21
10.1425146622
  0
LINE
  5
361
100
AcDbEntity
  8
0
100
AcDbLine
 62
4
  6
CONTINUOUS
 10
10.9406110945
 20
10.1662197711
 11
10.934834118
 21
10.1706396401
  0
LINE
  5
362
100
AcDbEntity
  8
0
100
AcDbLine
 62
4
  6
CONTINUOUS
 10
10.9269302112
 20
10.1330050526
 11
10.9114939766
 21
10.1380947933
  0
LINE
  5
363
100
AcDbEntity
  8
0
100
AcDbLine
 62
4
  6
CONTINUOUS
 10
11.0488505299
 20
10.1707710435
 11
11.0546275038
 21
10.1663511748
  0
LINE
  5
364
100
AcDbEntity
  8
0
100
AcDbLine
 62
4
  6
CONTINUOUS
 10
11.0027276127
 20
10.2262197238
 11
10.9969506361
 21
10.2306395928
  0
LINE
  5
365
100
AcDbEntity
  8
0
100
AcDbLine
 62
4
  6
CONTINUOUS
 10
11.110967048
 20
10.2307709962
 11
11.116744022
 21
10.2263511275
  0
LINE
  5
366
100
AcDbEntity
  8
0
100
AcDbLine
 62
7
  6
CONTINUOUS
 10
11.235265691
 20
10.1718739513
 11
11.2253293502
 21
10.1811207595
  0
LINE
  5
367
100
AcDbEntity
  8
0
100
AcDbLine
 62
7
  6
CONTINUOUS
 10
12.5932269676
 20
6.8617835357
 11
12.5932269676
 21
10.242524128
  0
LINE
  5
368
100
AcDbEntity
  8
0
100
AcDbLine
 62
4
  6
CONTINUOUS
 10
11.2444470414
 20
6.7815968988
 11
11.2589359293
 21
6.7902513499
  0
LINE
  5
369
100
AcDbEntity
  8
0
100
AcDbLine
 62
4
  6
CONTINUOUS
 10
11.2444470414
 20
6.7139820864
 11
11.2589359293
 21
6.7226365419
  0
LINE
  5
36A
100
AcDbEntity
  8
0
100
AcDbLine
 62
4
  6
CONTINUOUS
 10
11.2879137052
 20
6.6819898872
 11
11.2734248172
 21
6.6733354387
  0
LINE
  5
36B
100
AcDbEntity
  8
0
100
AcDbLine
 62
4
  6
CONTINUOUS
 10
11.0216281035
 20
10.1344761999
 11
11.0080865648
 21
10.1313960746
  0
LINE
  5
36C
100
AcDbEntity
  8
0
100
AcDbLine
 62
4
  6
CONTINUOUS
 10
11.0507452214
 20
10.1626011777
 11
11.0372036827
 21
10.1595210524
  0
LINE
  5
36D
100
AcDbEntity
  8
0
100
AcDbLine
 62
4
  6
CONTINUOUS
 10
10.9387164004
 20
10.1743896371
 11
10.9522579416
 21
10.1774697623
  0
LINE
  5
36E
100
AcDbEntity
  8
0
100
AcDbLine
 62
4
  6
CONTINUOUS
 10
11.1128617396
 20
10.2226011304
 11
11.0993202009
 21
10.2195210051
  0
LINE
  5
36F
100
AcDbEntity
  8
0
100
AcDbLine
 62
4
  6
CONTINUOUS
 10
11.0008329185
 20
10.2343895898
 11
11.0143744598
 21
10.237469715
  0
LINE
  5
370
100
AcDbEntity
  8
0
100
AcDbLine
 62
4
  6
CONTINUOUS
 10
11.0080865648
 20
10.1313960746
 11
10.9848857629
 21
10.1289858214
  0
LINE
  5
371
100
AcDbEntity
  8
0
100
AcDbLine
 62
4
  6
CONTINUOUS
 10
11.0372036827
 20
10.1595210524
 11
11.0256032783
 21
10.158315926
  0
LINE
  5
372
100
AcDbEntity
  8
0
100
AcDbLine
 62
4
  6
CONTINUOUS
 10
10.9522579416
 20
10.1774697623
 11
10.975458741
 21
10.1798800156
  0
LINE
  5
373
100
AcDbEntity
  8
0
100
AcDbLine
 62
4
  6
CONTINUOUS
 10
11.0993202009
 20
10.2195210051
 11
11.0877197965
 21
10.2183158787
  0
LINE
  5
374
100
AcDbEntity
  8
0
100
AcDbLine
 62
4
  6
CONTINUOUS
 10
11.0915091864
 20
10.2019761467
 11
10.9600689535
 21
10.1950146208
  0
LINE
  5
375
100
AcDbEntity
  8
0
100
AcDbLine
 62
4
  6
CONTINUOUS
 10
10.9848857629
 20
10.1289858214
 11
10.9539668458
 21
10.1291204385
  0
LINE
  5
376
100
AcDbEntity
  8
0
100
AcDbLine
 62
4
  6
CONTINUOUS
 10
10.975458741
 20
10.1798800156
 11
11.006377658
 21
10.1797453985
  0
LINE
  5
377
100
AcDbEntity
  8
0
100
AcDbLine
 62
4
  6
CONTINUOUS
 10
10.9134815648
 20
10.1500146563
 11
11.0293926683
 21
10.141976194
  0
LINE
  5
378
100
AcDbEntity
  8
0
100
AcDbLine
 62
4
  6
CONTINUOUS
 10
10.9539668458
 20
10.1291204385
 11
10.9269302112
 21
10.1330050526
  0
LINE
  5
379
100
AcDbEntity
  8
0
100
AcDbLine
 62
4
  6
CONTINUOUS
 10
11.006377658
 20
10.1797453985
 11
11.0334142927
 21
10.1758607844
  0
LINE
  5
37A
100
AcDbEntity
  8
0
100
AcDbLine
 62
4
  6
CONTINUOUS
 10
10.975598083
 20
10.210014609
 11
11.0759800569
 21
10.1869761585
  0
LINE
  5
37B
100
AcDbEntity
  8
0
100
AcDbLine
 62
4
  6
CONTINUOUS
 10
10.9483292122
 20
10.1636749007
 11
10.9406110945
 21
10.1662197711
  0
LINE
  5
37C
100
AcDbEntity
  8
0
100
AcDbLine
 62
4
  6
CONTINUOUS
 10
11.0334142927
 20
10.1758607844
 11
11.0488505299
 21
10.1707710435
  0
LINE
  5
37D
100
AcDbEntity
  8
0
100
AcDbLine
 62
4
  6
CONTINUOUS
 10
11.0104457304
 20
10.2236748534
 11
11.0027276127
 21
10.2262197238
  0
LINE
  5
37E
100
AcDbEntity
  8
0
100
AcDbLine
 62
4
  6
CONTINUOUS
 10
11.0955308109
 20
10.2358607371
 11
11.110967048
 21
10.2307709962
  0
LINE
  5
37F
100
AcDbEntity
  8
0
100
AcDbLine
 62
4
  6
CONTINUOUS
 10
11.0143744598
 20
10.237469715
 11
11.0375752592
 21
10.2398799683
  0
LINE
  5
380
100
AcDbEntity
  8
0
100
AcDbLine
 62
4
  6
CONTINUOUS
 10
11.0375752592
 20
10.2398799683
 11
11.0684941762
 21
10.2397453512
  0
LINE
  5
381
100
AcDbEntity
  8
0
100
AcDbLine
 62
7
  6
CONTINUOUS
 10
10.118524819
 20
10.4141453049
 11
11.1679979279
 21
10.3413640976
  0
LINE
  5
382
100
AcDbEntity
  8
0
100
AcDbLine
 62
7
  6
CONTINUOUS
 10
12.1262687631
 20
10.2749077895
 11
12.5932269676
 21
10.242524128
  0
LINE
  5
383
100
AcDbEntity
  8
0
100
AcDbLine
 62
4
  6
CONTINUOUS
 10
11.0684941762
 20
10.2397453512
 11
11.0955308109
 21
10.2358607371
  0
LINE
  5
384
100
AcDbEntity
  8
0
100
AcDbLine
 62
7
  6
CONTINUOUS
 10
11.881475181
 20
6.1742840623
 11
12.5932269676
 21
6.8617835357
  0
LINE
  5
385
100
AcDbEntity
  8
0
100
AcDbLine
 62
7
  6
CONTINUOUS
 10
12.0443225075
 20
10.7580253347
 11
12.0280196833
 21
10.7660786177
  0
ARC
  5
386
100
AcDbEntity
  8
0
100
AcDbCircle
 62
7
  6
CONTINUOUS
 10
11.6549356022
 20
11.8480198084
 40
1.7134646816
100
AcDbArc
 50
273.0082884861
 51
274.9259735842
  0
ARC
  5
387
100
AcDbEntity
  8
0
100
AcDbCircle
 62
7
  6
CONTINUOUS
 10
11.6549356022
 20
12.2686190342
 40
1.7134646816
100
AcDbArc
 50
273.0082884861
 51
274.9259735842
  0
ARC
  5
388
100
AcDbEntity
  8
0
100
AcDbCircle
 62
7
  6
CONTINUOUS
 10
10.953506535
 20
5.1294501693
 40
1.6373433099
100
AcDbArc
 50
89.6369591354
 51
93.1667633967
  0
ARC
  5
389
100
AcDbEntity
  8
0
100
AcDbCircle
 62
7
  6
CONTINUOUS
 10
10.6381455233
 20
8.8473386945
 40
0.4283722257
100
AcDbArc
 50
134.6928711101
 51
135.5471486513
  0
ARC
  5
38A
100
AcDbEntity
  8
0
100
AcDbCircle
 62
7
  6
CONTINUOUS
 10
10.6381455233
 20
6.7947461921
 40
0.4283722256
100
AcDbArc
 50
134.69287111
 51
135.5471486513
  0
ARC
  5
38B
100
AcDbEntity
  8
0
100
AcDbCircle
 62
7
  6
CONTINUOUS
 10
10.7266346096
 20
6.7031330373
 40
0.428257085
100
AcDbArc
 50
312.4677547841
 51
313.1121351078
  0
ARC
  5
38C
100
AcDbEntity
  8
0
100
AcDbCircle
 62
7
  6
CONTINUOUS
 10
10.7266346096
 20
8.7557255397
 40
0.428257085
100
AcDbArc
 50
312.4677547841
 51
313.1121351078
  0
ARC
  5
38D
100
AcDbEntity
  8
0
100
AcDbCircle
 62
7
  6
CONTINUOUS
 10
10.6617553495
 20
6.7542946505
 40
0.293877884
100
AcDbArc
 50
85.9815011668
 51
98.6610917995
  0
ARC
  5
38E
100
AcDbEntity
  8
0
100
AcDbCircle
 62
7
  6
CONTINUOUS
 10
10.6617553495
 20
8.806887153
 40
0.293877884
100
AcDbArc
 50
85.9815011668
 51
98.6610917995
  0
ARC
  5
38F
100
AcDbEntity
  8
0
100
AcDbCircle
 62
7
  6
CONTINUOUS
 10
10.9482967607
 20
9.038973465
 40
0.2155696821
100
AcDbArc
 50
269.6433050922
 51
274.1054641576
  0
SPLINE
  5
390
100
AcDbEntity
  8
0
100
AcDbSpline
 62
7
  6
CONTINUOUS
 70
0
 71
3
 72
9
 73
5
 74
0
 42
0.0000001
 43
0.0000001
 44
0.0000000001
 40
0.0
 40
0.0
 40
0.0
 40
0.0
 40
0.4864210225
 40
1.0
 40
1.0
 40
1.0
 40
1.0
 10
12.1262687631
 20
10.2356324479
 30
0.0
 10
12.1252550561
 20
10.2343460978
 30
0.0
 10
12.1230685659
 20
10.2317813131
 30
0.0
 10
12.1207148468
 20
10.2293702489
 30
0.0
 10
12.1194711025
 20
10.2281688842
 30
0.0
  0
SPLINE
  5
391
100
AcDbEntity
  8
0
100
AcDbSpline
 62
7
  6
CONTINUOUS
 70
0
 71
3
 72
9
 73
5
 74
0
 42
0.0000001
 43
0.0000001
 44
0.0000000001
 40
0.0
 40
0.0
 40
0.0
 40
0.0
 40
0.5135789775
 40
1.0
 40
1.0
 40
1.0
 40
1.0
 10
11.1747955885
 20
10.7142815793
 30
0.0
 10
11.1735518442
 20
10.7130802146
 30
0.0
 10
11.1711981251
 20
10.7106691504
 30
0.0
 10
11.1690116349
 20
10.7081043657
 30
0.0
 10
11.1679979279
 20
10.7068180156
 30
0.0
  0
SPLINE
  5
392
100
AcDbEntity
  8
0
100
AcDbSpline
 62
7
  6
CONTINUOUS
 70
0
 71
3
 72
9
 73
5
 74
0
 42
0.0000001
 43
0.0000001
 44
0.0000000001
 40
0.0
 40
0.0
 40
0.0
 40
0.0
 40
0.5134917843
 40
1.0
 40
1.0
 40
1.0
 40
1.0
 10
11.1833271391
 20
10.7216248974
 30
0.0
 10
11.1818035058
 20
10.7204444033
 30
0.0
 10
11.1788901998
 20
10.7180746989
 30
0.0
 10
11.1761090585
 20
10.715550294
 30
0.0
 10
11.1747955885
 20
10.7142815793
 30
0.0
  0
SPLINE
  5
393
100
AcDbEntity
  8
0
100
AcDbSpline
 62
7
  6
CONTINUOUS
 70
0
 71
3
 72
21
 73
17
 74
0
 42
0.0000001
 43
0.0000001
 44
0.0000000001
 40
0.0
 40
0.0
 40
0.0
 40
0.0
 40
0.1552847778
 40
0.3037675224
 40
0.3751527953
 40
0.4444666907
 40
0.5115812513
 40
0.5763697456
 40
0.6387130726
 40
0.6985013802
 40
0.75563826
 40
0.8100514809
 40
0.8616894053
 40
0.9105385226
 40
0.9566200086
 40
1.0
 40
1.0
 40
1.0
 40
1.0
 10
11.1679979279
 20
10.2862187898
 30
0.0
 10
11.1702204189
 20
10.2803674362
 30
0.0
 10
11.1746810079
 20
10.2689634369
 30
0.0
 10
11.1805333642
 20
10.2550179122
 30
0.0
 10
11.1852905144
 20
10.2443759801
 30
0.0
 10
11.1888387939
 20
10.2367875665
 30
0.0
 10
11.1924134507
 20
10.2295065423
 30
0.0
 10
11.196013546
 20
10.2225528602
 30
0.0
 10
11.1996377154
 20
10.2159464666
 30
0.0
 10
11.2032838
 20
10.2097066814
 30
0.0
 10
11.2069502314
 20
10.2038525209
 30
0.0
 10
11.2106336934
 20
10.1984009994
 30
0.0
 10
11.2143320711
 20
10.1933682288
 30
0.0
 10
11.2180417978
 20
10.1887673396
 30
0.0
 10
11.2217595044
 20
10.1846094704
 30
0.0
 10
11.2243168628
 20
10.1820632708
 30
0.0
 10
11.2255968597
 20
10.180872023
 30
0.0
  0
SPLINE
  5
394
100
AcDbEntity
  8
0
100
AcDbSpline
 62
7
  6
CONTINUOUS
 70
0
 71
3
 72
23
 73
19
 74
0
 42
0.0000001
 43
0.0000001
 44
0.0000000001
 40
0.0
 40
0.0
 40
0.0
 40
0.0
 40
0.0809714987
 40
0.1598878899
 40
0.2366108848
 40
0.3110078346
 40
0.3829543555
 40
0.452338501
 40
0.5190632519
 40
0.5830593386
 40
0.6442825111
 40
0.7027298252
 40
0.7584316548
 40
0.8114689998
 40
0.8619596659
 40
0.910071818
 40
0.9560056935
 40
1.0
 40
1.0
 40
1.0
 40
1.0
 10
12.1262687631
 20
10.6562316737
 30
0.0
 10
12.1246206976
 20
10.6594096218
 30
0.0
 10
12.1213216291
 20
10.6656618019
 30
0.0
 10
12.1162906014
 20
10.6748340371
 30
0.0
 10
12.1112383492
 20
10.6836613525
 30
0.0
 10
12.1061658128
 20
10.69211981
 30
0.0
 10
12.1010737456
 20
10.7001854939
 30
0.0
 10
12.095964016
 20
10.7078355281
 30
0.0
 10
12.0908378517
 20
10.7150476931
 30
0.0
 10
12.0856981783
 20
10.7218024507
 30
0.0
 10
12.0805466138
 20
10.7280818868
 30
0.0
 10
12.0753869454
 20
10.7338725238
 30
0.0
 10
12.0702210547
 20
10.7391631331
 30
0.0
 10
12.0650532146
 20
10.7439483694
 30
0.0
 10
12.0598854953
 20
10.7482252357
 30
0.0
 10
12.0547221023
 20
10.7519973331
 30
0.0
 10
12.0495656301
 20
10.7552700079
 30
0.0
 10
12.0460654995
 20
10.7571643145
 30
0.0
 10
12.0443216182
 20
10.7580257741
 30
0.0
  0
SPLINE
  5
395
100
AcDbEntity
  8
0
100
AcDbSpline
 62
7
  6
CONTINUOUS
 70
0
 71
3
 72
46
 73
42
 74
0
 42
0.0000001
 43
0.0000001
 44
0.0000000001
 40
0.0
 40
0.0
 40
0.0
 40
0.0
 40
0.0099874877
 40
0.0204476974
 40
0.0313773321
 40
0.0427709641
 40
0.0546220461
 40
0.0669229866
 40
0.0928356094
 40
0.1204266613
 40
0.1495981687
 40
0.1802404541
 40
0.2122337752
 40
0.2454491038
 40
0.2797499018
 40
0.3149932014
 40
0.3510301972
 40
0.3877076002
 40
0.4248685405
 40
0.462353288
 40
0.500000408
 40
0.5376475404
 40
0.5751322603
 40
0.612293149
 40
0.6489704979
 40
0.6850073789
 40
0.7202505939
 40
0.7545513209
 40
0.7877664595
 40
0.8197596255
 40
0.8504018125
 40
0.8795730869
 40
0.9071639551
 40
0.9203360434
 40
0.9330775683
 40
0.945378314
 40
0.9572292775
 40
0.9686228886
 40
0.9795523843
 40
0.9900125565
 40
1.0
 40
1.0
 40
1.0
 40
1.0
 10
12.0280215585
 20
10.7660776376
 30
0.0
 10
12.0257045665
 20
10.7672221978
 30
0.0
 10
12.0209213594
 20
10.7694860674
 30
0.0
 10
12.0134817726
 20
10.7727396785
 30
0.0
 10
12.0056191325
 20
10.7759260252
 30
0.0
 10
11.9973426435
 20
10.7790416291
 30
0.0
 10
11.9886617195
 20
10.7820829118
 30
0.0
 10
11.9763463803
 20
10.7861037538
 30
0.0
 10
11.9600037098
 20
10.7908981158
 30
0.0
 10
11.9392767707
 20
10.7962064283
 30
0.0
 10
11.9172021241
 20
10.8011405484
 30
0.0
 10
11.8938813742
 20
10.8056773807
 30
0.0
 10
11.8694216348
 20
10.809795473
 30
0.0
 10
11.8439356137
 20
10.8134756773
 30
0.0
 10
11.8175408161
 20
10.8167007943
 30
0.0
 10
11.7903589951
 20
10.8194555777
 30
0.0
 10
11.7625156233
 20
10.8217272648
 30
0.0
 10
11.7341392787
 20
10.8235052877
 30
0.0
 10
11.7053610087
 20
10.8247811876
 30
0.0
 10
11.6763137429
 20
10.8255491052
 30
0.0
 10
11.6471316709
 20
10.8258055146
 30
0.0
 10
11.617949606
 20
10.8255490698
 30
0.0
 10
11.5889023602
 20
10.8247810483
 30
0.0
 10
11.560124127
 20
10.8235051082
 30
0.0
 10
11.5317478407
 20
10.8217270587
 30
0.0
 10
11.5039045431
 20
10.8194552683
 30
0.0
 10
11.4767227969
 20
10.8167004432
 30
0.0
 10
11.4503280925
 20
10.8134753088
 30
0.0
 10
11.424842189
 20
10.8097950067
 30
0.0
 10
11.4003825921
 20
10.8056768676
 30
0.0
 10
11.3770619062
 20
10.8011400507
 30
0.0
 10
11.3549876382
 20
10.7962057781
 30
0.0
 10
11.3374542737
 20
10.7917156184
 30
0.0
 10
11.3241376371
 20
10.7879272894
 30
0.0
 10
11.3146782596
 20
10.7850454169
 30
0.0
 10
11.3056029452
 20
10.7820821834
 30
0.0
 10
11.2969221259
 20
10.7790409177
 30
0.0
 10
11.2886456916
 20
10.7759253582
 30
0.0
 10
11.2807831519
 20
10.7727389007
 30
0.0
 10
11.2733436496
 20
10.7694852414
 30
0.0
 10
11.2685604568
 20
10.7672213914
 30
0.0
 10
11.2662434779
 20
10.7660768303
 30
0.0
  0
SPLINE
  5
396
100
AcDbEntity
  8
0
100
AcDbSpline
 62
7
  6
CONTINUOUS
 70
0
 71
3
 72
9
 73
5
 74
0
 42
0.0000001
 43
0.0000001
 44
0.0000000001
 40
0.0
 40
0.0
 40
0.0
 40
0.0
 40
0.496008294
 40
1.0
 40
1.0
 40
1.0
 40
1.0
 10
11.2411086344
 20
10.753660739
 30
0.0
 10
11.2313125675
 20
10.7488214659
 30
0.0
 10
11.2118159031
 20
10.7385469526
 30
0.0
 10
11.1928004864
 20
10.7274137725
 30
0.0
 10
11.1833271391
 20
10.7216248974
 30
0.0
  0
SPLINE
  5
397
100
AcDbEntity
  8
0
100
AcDbSpline
 62
7
  6
CONTINUOUS
 70
0
 71
3
 72
9
 73
5
 74
0
 42
0.0000001
 43
0.0000001
 44
0.0000000001
 40
0.0
 40
0.0
 40
0.0
 40
0.0
 40
0.4867517121
 40
1.0
 40
1.0
 40
1.0
 40
1.0
 10
11.2810527399
 20
10.1770164139
 30
0.0
 10
11.2877906399
 20
10.175047243
 30
0.0
 10
11.3017019417
 20
10.1712345826
 30
0.0
 10
11.315718186
 20
10.1678307232
 30
0.0
 10
11.3229329674
 20
10.1661770272
 30
0.0
  0
SPLINE
  5
398
100
AcDbEntity
  8
0
100
AcDbSpline
 62
7
  6
CONTINUOUS
 70
0
 71
3
 72
9
 73
5
 74
0
 42
0.0000001
 43
0.0000001
 44
0.0000000001
 40
0.0
 40
0.0
 40
0.0
 40
0.0
 40
0.2585900006
 40
1.0
 40
1.0
 40
1.0
 40
1.0
 10
12.1109395519
 20
10.2208255661
 30
0.0
 10
12.1115923871
 20
10.2213313755
 30
0.0
 10
12.1140969158
 20
10.2233130264
 30
0.0
 10
12.1165187589
 20
10.2254002652
 30
0.0
 10
12.1182521315
 20
10.2270133498
 30
0.0
  0
SPLINE
  5
399
100
AcDbEntity
  8
0
100
AcDbSpline
 62
7
  6
CONTINUOUS
 70
0
 71
3
 72
9
 73
5
 74
0
 42
0.0000001
 43
0.0000001
 44
0.0000000001
 40
0.0
 40
0.0
 40
0.0
 40
0.0
 40
0.5134917843
 40
1.0
 40
1.0
 40
1.0
 40
1.0
 10
12.1109395519
 20
10.6414247919
 30
0.0
 10
12.1124631852
 20
10.6426052859
 30
0.0
 10
12.1153764912
 20
10.6449749903
 30
0.0
 10
12.1181576325
 20
10.6474993952
 30
0.0
 10
12.1194711025
 20
10.6487681099
 30
0.0
  0
SPLINE
  5
39A
100
AcDbEntity
  8
0
100
AcDbSpline
 62
7
  6
CONTINUOUS
 70
0
 71
3
 72
9
 73
5
 74
0
 42
0.0000001
 43
0.0000001
 44
0.0000000001
 40
0.0
 40
0.0
 40
0.0
 40
0.0
 40
0.4867517121
 40
1.0
 40
1.0
 40
1.0
 40
1.0
 10
11.2810527399
 20
10.5976156397
 30
0.0
 10
11.2877906399
 20
10.5956464687
 30
0.0
 10
11.3017019417
 20
10.5918338083
 30
0.0
 10
11.315718186
 20
10.5884299489
 30
0.0
 10
11.3229329674
 20
10.5867762529
 30
0.0
  0
SPLINE
  5
39B
100
AcDbEntity
  8
0
100
AcDbSpline
 62
7
  6
CONTINUOUS
 70
0
 71
3
 72
9
 73
5
 74
0
 42
0.0000001
 43
0.0000001
 44
0.0000000001
 40
0.0
 40
0.0
 40
0.0
 40
0.0
 40
0.5135789775
 40
1.0
 40
1.0
 40
1.0
 40
1.0
 10
12.1194711025
 20
10.6487681099
 30
0.0
 10
12.1207148468
 20
10.6499694747
 30
0.0
 10
12.1230685659
 20
10.6523805388
 30
0.0
 10
12.1252550561
 20
10.6549453236
 30
0.0
 10
12.1262687631
 20
10.6562316737
 30
0.0
  0
SPLINE
  5
39C
100
AcDbEntity
  8
0
100
AcDbSpline
 62
7
  6
CONTINUOUS
 70
0
 71
3
 72
23
 73
19
 74
0
 42
0.0000001
 43
0.0000001
 44
0.0000000001
 40
0.0
 40
0.0
 40
0.0
 40
0.0
 40
0.0421785856
 40
0.0850534373
 40
0.1291226147
 40
0.1749466526
 40
0.2231084649
 40
0.2741717322
 40
0.3286399951
 40
0.3869169438
 40
0.44928418
 40
0.5158962693
 40
0.5867820207
 40
0.6618606059
 40
0.7409667875
 40
0.8238724696
 40
0.910312794
 40
1.0
 40
1.0
 40
1.0
 40
1.0
 10
11.1679979279
 20
10.7068180156
 30
0.0
 10
11.1703159823
 20
10.7068097672
 30
0.0
 10
11.1749930569
 20
10.70657075
 30
0.0
 10
11.1820192176
 20
10.7054912623
 30
0.0
 10
11.1890881791
 20
10.7036272412
 30
0.0
 10
11.1961913374
 20
10.7009208798
 30
0.0
 10
11.2033199089
 20
10.6973227539
 30
0.0
 10
11.2104647748
 20
10.6927943077
 30
0.0
 10
11.2176168989
 20
10.6873089819
 30
0.0
 10
11.2247681616
 20
10.680855119
 30
0.0
 10
11.2319112167
 20
10.6734363342
 30
0.0
 10
11.2390386115
 20
10.665070815
 30
0.0
 10
11.2461437539
 20
10.6557911784
 30
0.0
 10
11.2532211181
 20
10.6456422069
 30
0.0
 10
11.2602656624
 20
10.6346773987
 30
0.0
 10
11.2672737682
 20
10.6229561473
 30
0.0
 10
11.2742430154
 20
10.6105409763
 30
0.0
 10
11.2787835441
 20
10.6019913072
 30
0.0
 10
11.2810527399
 20
10.5976156397
 30
0.0
  0
SPLINE
  5
39D
100
AcDbEntity
  8
0
100
AcDbSpline
 62
7
  6
CONTINUOUS
 70
0
 71
3
 72
21
 73
17
 74
0
 42
0.0000001
 43
0.0000001
 44
0.0000000001
 40
0.0
 40
0.0
 40
0.0
 40
0.0
 40
0.1230814817
 40
0.1847942657
 40
0.2466337258
 40
0.3086097846
 40
0.3707312098
 40
0.4330051319
 40
0.4954352436
 40
0.5580223626
 40
0.6207641208
 40
0.6836547008
 40
0.7466862848
 40
0.8098488395
 40
0.8731308835
 40
1.0
 40
1.0
 40
1.0
 40
1.0
 10
11.3229329674
 20
10.5867762529
 30
0.0
 10
11.3401856079
 20
10.5900286364
 30
0.0
 10
11.3662167455
 20
10.5942793548
 30
0.0
 10
11.4011533357
 20
10.5984467042
 30
0.0
 10
11.4275200334
 20
10.6007687506
 30
0.0
 10
11.4540071001
 20
10.6022284507
 30
0.0
 10
11.4805911592
 20
10.6027785925
 30
0.0
 10
11.5072430235
 20
10.6023821609
 30
0.0
 10
11.5339295164
 20
10.6010171733
 30
0.0
 10
11.5606152882
 20
10.5986783498
 30
0.0
 10
11.5872649913
 20
10.5953760604
 30
0.0
 10
11.6138456555
 20
10.5911370407
 30
0.0
 10
11.6403284988
 20
10.5860023995
 30
0.0
 10
11.6666903761
 20
10.5800226517
 30
0.0
 10
11.7016810506
 20
10.570993532
 30
0.0
 10
11.7276595092
 20
10.5631435107
 30
0.0
 10
11.7448589463
 20
10.5575155869
 30
0.0
  0
SPLINE
  5
39E
100
AcDbEntity
  8
0
100
AcDbSpline
 62
7
  6
CONTINUOUS
 70
0
 71
3
 72
28
 73
24
 74
0
 42
0.0000001
 43
0.0000001
 44
0.0000000001
 40
0.0
 40
0.0
 40
0.0
 40
0.0
 40
0.0640274484
 40
0.1279405369
 40
0.1917105404
 40
0.2553123355
 40
0.3187161223
 40
0.3818930725
 40
0.4133919091
 40
0.4448254452
 40
0.4761912782
 40
0.5074882562
 40
0.5387156619
 40
0.5698732312
 40
0.6009621492
 40
0.6319833386
 40
0.6938248821
 40
0.7554274775
 40
0.8168179251
 40
0.8780243018
 40
0.9085700262
 40
0.9390802882
 40
1.0
 40
1.0
 40
1.0
 40
1.0
 10
11.3229329674
 20
10.1661770272
 30
0.0
 10
11.331233818
 20
10.1618939035
 30
0.0
 10
11.3479648777
 20
10.1536105162
 30
0.0
 10
11.373484044
 20
10.1421485299
 30
0.0
 10
11.3994078223
 20
10.1317942674
 30
0.0
 10
11.4257209974
 20
10.1226922114
 30
0.0
 10
11.4523888271
 20
10.114988737
 30
0.0
 10
11.4748842592
 20
10.1098445051
 30
0.0
 10
11.4929883313
 20
10.1065574497
 30
0.0
 10
11.5065955867
 20
10.1045187231
 30
0.0
 10
11.5202309143
 20
10.1029120459
 30
0.0
 10
11.5338807655
 20
10.1017449689
 30
0.0
 10
11.5475306988
 20
10.1010178191
 30
0.0
 10
11.5611666062
 20
10.1007322867
 30
0.0
 10
11.5747746556
 20
10.1008827602
 30
0.0
 10
11.5928434801
 20
10.1016560358
 30
0.0
 10
11.6153029696
 20
10.1036714396
 30
0.0
 10
11.6419839263
 20
10.1076725462
 30
0.0
 10
11.668310288
 20
10.1131232604
 30
0.0
 10
11.6899387606
 20
10.1187590853
 30
0.0
 10
11.7070343555
 20
10.1238504434
 30
0.0
 10
11.7239748767
 20
10.1293006715
 30
0.0
 10
11.7365437212
 20
10.1337791461
 30
0.0
 10
11.7448589463
 20
10.1369163612
 30
0.0
  0
SPLINE
  5
39F
100
AcDbEntity
  8
0
100
AcDbSpline
 62
7
  6
CONTINUOUS
 70
0
 71
3
 72
23
 73
19
 74
0
 42
0.0000001
 43
0.0000001
 44
0.0000000001
 40
0.0
 40
0.0
 40
0.0
 40
0.0
 40
0.0678267902
 40
0.1349724863
 40
0.2013861734
 40
0.2670282176
 40
0.331868046
 40
0.3958905056
 40
0.459098674
 40
0.5215154569
 40
0.5831842269
 40
0.6441654231
 40
0.7045325895
 40
0.7643678524
 40
0.8237547389
 40
0.882773787
 40
0.9415010872
 40
1.0
 40
1.0
 40
1.0
 40
1.0
 10
11.8020683849
 20
10.561483082
 30
0.0
 10
11.8083435016
 20
10.5653176154
 30
0.0
 10
11.8209268272
 20
10.572792546
 30
0.0
 10
11.8400067848
 20
10.5834155319
 30
0.0
 10
11.8591975166
 20
10.5933328717
 30
0.0
 10
11.8784909823
 20
10.6024811465
 30
0.0
 10
11.8978751647
 20
10.6108003926
 30
0.0
 10
11.9173333274
 20
10.6182370442
 30
0.0
 10
11.9368449681
 20
10.6247463286
 30
0.0
 10
11.9563859808
 20
10.6302970394
 30
0.0
 10
11.9759301003
 20
10.6348739706
 30
0.0
 10
11.9954509502
 20
10.6384776383
 30
0.0
 10
12.0149233853
 20
10.6411256167
 30
0.0
 10
12.034325146
 20
10.6428511818
 30
0.0
 10
12.0536381114
 20
10.6436987846
 30
0.0
 10
12.0728488804
 20
10.6437220169
 30
0.0
 10
12.0919480287
 20
10.6429802944
 30
0.0
 10
12.1046244485
 20
10.6420148231
 30
0.0
 10
12.1109395519
 20
10.6414247919
 30
0.0
  0
SPLINE
  5
3A0
100
AcDbEntity
  8
0
100
AcDbSpline
 62
7
  6
CONTINUOUS
 70
0
 71
3
 72
27
 73
23
 74
0
 42
0.0000001
 43
0.0000001
 44
0.0000000001
 40
0.0
 40
0.0
 40
0.0
 40
0.0
 40
0.0572742999
 40
0.1144994563
 40
0.1717869223
 40
0.2292938811
 40
0.2872150422
 40
0.3457779489
 40
0.3753824125
 40
0.4052383009
 40
0.4353731703
 40
0.4658134574
 40
0.496580671
 40
0.5276935314
 40
0.5591655803
 40
0.5910057323
 40
0.6557946642
 40
0.7220564543
 40
0.7897212757
 40
0.8586828413
 40
0.9288200633
 40
1.0
 40
1.0
 40
1.0
 40
1.0
 10
11.8020683849
 20
10.1408838562
 30
0.0
 10
11.808143656
 20
10.1387496306
 30
0.0
 10
11.8204013791
 20
10.1347933576
 30
0.0
 10
11.8391051606
 20
10.1299315462
 30
0.0
 10
11.8581132243
 20
10.1262840794
 30
0.0
 10
11.8774140407
 20
10.1239937989
 30
0.0
 10
11.896979888
 20
10.1232002788
 30
0.0
 10
11.913411039
 20
10.1238885575
 30
0.0
 10
11.9266098837
 20
10.1252844445
 30
0.0
 10
11.9365758937
 20
10.1267706055
 30
0.0
 10
11.9465618898
 20
10.1286964533
 30
0.0
 10
11.9565573745
 20
10.1310657333
 30
0.0
 10
11.9665523623
 20
10.1338750698
 30
0.0
 10
11.9765357334
 20
10.1371221482
 30
0.0
 10
11.9864979948
 20
10.14079779
 30
0.0
 10
11.9998153965
 20
10.1462887986
 30
0.0
 10
12.0163573096
 20
10.1541838726
 30
0.0
 10
12.0358665234
 20
10.1650978733
 30
0.0
 10
12.0551122663
 20
10.1773623564
 30
0.0
 10
12.0740714872
 20
10.1908279122
 30
0.0
 10
12.0927349204
 20
10.205349693
 30
0.0
 10
12.1048988412
 20
10.2155765807
 30
0.0
 10
12.1109395519
 20
10.2208255661
 30
0.0
  0
SPLINE
  5
3A1
100
AcDbEntity
  8
0
100
AcDbSpline
 62
7
  6
CONTINUOUS
 70
0
 71
3
 72
11
 73
7
 74
0
 42
0.0000001
 43
0.0000001
 44
0.0000000001
 40
0.0
 40
0.0
 40
0.0
 40
0.0
 40
0.2706149479
 40
0.5274053283
 40
0.7704747911
 40
1.0
 40
1.0
 40
1.0
 40
1.0
 10
11.2662434779
 20
10.7660768303
 30
0.0
 10
11.2639849288
 20
10.7649611329
 30
0.0
 10
11.2596182977
 20
10.7627145239
 30
0.0
 10
11.2533654146
 20
10.7591977894
 30
0.0
 10
11.2475883139
 20
10.7556267726
 30
0.0
 10
11.2439555075
 20
10.7531418086
 30
0.0
 10
11.2422249519
 20
10.7518887226
 30
0.0
  0
SPLINE
  5
3A2
100
AcDbEntity
  8
0
100
AcDbSpline
 62
7
  6
CONTINUOUS
 70
0
 71
3
 72
9
 73
5
 74
0
 42
0.0000001
 43
0.0000001
 44
0.0000000001
 40
0.0
 40
0.0
 40
0.0
 40
0.0
 40
0.5180906156
 40
1.0
 40
1.0
 40
1.0
 40
1.0
 10
11.2422249519
 20
10.7518887226
 30
0.0
 10
11.2403267921
 20
10.7505142754
 30
0.0
 10
11.2367396106
 20
10.7477531246
 30
0.0
 10
11.2333530931
 20
10.7447467653
 30
0.0
 10
11.2317852156
 20
10.7432323118
 30
0.0
  0
SPLINE
  5
3A3
100
AcDbEntity
  8
0
100
AcDbSpline
 62
7
  6
CONTINUOUS
 70
0
 71
3
 72
21
 73
17
 74
0
 42
0.0000001
 43
0.0000001
 44
0.0000000001
 40
0.0
 40
0.0
 40
0.0
 40
0.0
 40
0.0777184714
 40
0.1509844854
 40
0.2201919876
 40
0.2858049512
 40
0.3483762676
 40
0.408511364
 40
0.4668501382
 40
0.524040419
 40
0.5806986783
 40
0.6373921441
 40
0.6946119011
 40
0.7527677984
 40
0.8730351627
 40
1.0
 40
1.0
 40
1.0
 40
1.0
 10
11.2255968597
 20
10.180872023
 30
0.0
 10
11.2267586246
 20
10.1797908096
 30
0.0
 10
11.2290808986
 20
10.1777586471
 30
0.0
 10
11.2326697235
 20
10.1750430419
 30
0.0
 10
11.2362534246
 20
10.1727507541
 30
0.0
 10
11.2398297707
 20
10.1708794408
 30
0.0
 10
11.2433950537
 20
10.1694221291
 30
0.0
 10
11.2469460697
 20
10.168370367
 30
0.0
 10
11.2504793478
 20
10.1677138281
 30
0.0
 10
11.253991216
 20
10.1674384777
 30
0.0
 10
11.2574787121
 20
10.1675301543
 30
0.0
 10
11.2609393435
 20
10.16797181
 30
0.0
 10
11.2643717832
 20
10.168746217
 30
0.0
 10
11.2689595676
 20
10.1702152356
 30
0.0
 10
11.2746459626
 20
10.1728338242
 30
0.0
 10
11.2789296728
 20
10.1755282663
 30
0.0
 10
11.2810527399
 20
10.1770164139
 30
0.0
  0
SPLINE
  5
3A4
100
AcDbEntity
  8
0
100
AcDbSpline
 62
7
  6
CONTINUOUS
 70
0
 71
3
 72
55
 73
51
 74
0
 42
0.0000001
 43
0.0000001
 44
0.0000000001
 40
0.0
 40
0.0
 40
0.0
 40
0.0
 40
0.0077403341
 40
0.0160536402
 40
0.0249598623
 40
0.0344711287
 40
0.0445943245
 40
0.0553311103
 40
0.0666791717
 40
0.0786331753
 40
0.0911842811
 40
0.1043217537
 40
0.1180322524
 40
0.1323005199
 40
0.147109859
 40
0.1624414338
 40
0.1782755067
 40
0.1945906822
 40
0.2285722865
 40
0.2641945926
 40
0.3012498561
 40
0.3395178674
 40
0.37876815
 40
0.4187620874
 40
0.4592551245
 40
0.4999987486
 40
0.5407423938
 40
0.5812354618
 40
0.6212294331
 40
0.6604797572
 40
0.6987478627
 40
0.7358032525
 40
0.7714256644
 40
0.8054073565
 40
0.8217226506
 40
0.8375567141
 40
0.8528884296
 40
0.8676978103
 40
0.8819661512
 40
0.8956767913
 40
0.9088142361
 40
0.9213654962
 40
0.9333195839
 40
0.9446677912
 40
0.955404691
 40
0.9655276214
 40
0.9750389343
 40
0.9839457869
 40
0.992260156
 40
1.0
 40
1.0
 40
1.0
 40
1.0
 10
11.2352656716
 20
10.1718740352
 30
0.0
 10
11.2368736295
 20
10.1703777035
 30
0.0
 10
11.2403350149
 20
10.1674085054
 30
0.0
 10
11.2460133318
 20
10.1631676788
 30
0.0
 10
11.2523499825
 20
10.1589910017
 30
0.0
 10
11.2593343507
 20
10.1548846023
 30
0.0
 10
11.2669558006
 20
10.150855158
 30
0.0
 10
11.2752020515
 20
10.1469088772
 30
0.0
 10
11.2840598889
 20
10.1430520454
 30
0.0
 10
11.2935150864
 20
10.1392912773
 30
0.0
 10
11.3035521907
 20
10.1356323132
 30
0.0
 10
11.3141549353
 20
10.1320815566
 30
0.0
 10
11.3253059497
 20
10.1286446857
 30
0.0
 10
11.3369869816
 20
10.1253273344
 30
0.0
 10
11.3491789058
 20
10.1221352568
 30
0.0
 10
11.3618616576
 20
10.1190733975
 30
0.0
 10
11.3750144443
 20
10.1161471032
 30
0.0
 10
11.3933995037
 20
10.1123813348
 30
0.0
 10
11.4174002846
 20
10.1080668687
 30
0.0
 10
11.4473343517
 20
10.1035669296
 30
0.0
 10
11.4785834376
 20
10.0997071089
 30
0.0
 10
11.5109419082
 20
10.0965132274
 30
0.0
 10
11.5441969968
 20
10.0940066873
 30
0.0
 10
11.5781298152
 20
10.0922042166
 30
0.0
 10
11.6125169885
 20
10.0911178676
 30
0.0
 10
11.6471321127
 20
10.0907549055
 30
0.0
 10
11.6817472467
 20
10.0911177958
 30
0.0
 10
11.7161344458
 20
10.0922041049
 30
0.0
 10
11.7500672962
 20
10.0940065416
 30
0.0
 10
11.7833224356
 20
10.0965130449
 30
0.0
 10
11.8156809875
 20
10.0997068587
 30
0.0
 10
11.8469301744
 20
10.1035666149
 30
0.0
 10
11.8768643422
 20
10.1080665032
 30
0.0
 10
11.9008652058
 20
10.1123810012
 30
0.0
 10
11.919250347
 20
10.1161466515
 30
0.0
 10
11.9324031899
 20
10.1190730192
 30
0.0
 10
11.9450860155
 20
10.12213478
 30
0.0
 10
11.9572780111
 20
10.1253268749
 30
0.0
 10
11.9689591143
 20
10.128644237
 30
0.0
 10
11.9801102164
 20
10.1320810067
 30
0.0
 10
11.990713012
 20
10.1356318494
 30
0.0
 10
12.0007502212
 20
10.1392906983
 30
0.0
 10
12.0102055172
 20
10.1430515188
 30
0.0
 10
12.0190634365
 20
10.1469084012
 30
0.0
 10
12.0273097566
 20
10.1508545368
 30
0.0
 10
12.0349311707
 20
10.1548839814
 30
0.0
 10
12.0419157556
 20
10.1589902434
 30
0.0
 10
12.0482527614
 20
10.1631672913
 30
0.0
 10
12.0539312719
 20
10.1674084169
 30
0.0
 10
12.0573929131
 20
10.1703775644
 30
0.0
 10
12.0590007883
 20
10.1718737808
 30
0.0
  0
SPLINE
  5
3A5
100
AcDbEntity
  8
0
100
AcDbSpline
 62
7
  6
CONTINUOUS
 70
0
 71
3
 72
69
 73
65
 74
0
 42
0.0000001
 43
0.0000001
 44
0.0000000001
 40
0.0
 40
0.0
 40
0.0
 40
0.0
 40
0.0078486444
 40
0.011525491
 40
0.0150505467
 40
0.0216952296
 40
0.024852921
 40
0.0279250607
 40
0.0309333397
 40
0.0339009863
 40
0.0368522248
 40
0.0398117036
 40
0.0428038878
 40
0.0458523906
 40
0.0489793775
 40
0.052205239
 40
0.0590208104
 40
0.0626451385
 40
0.0664292117
 40
0.0745139269
 40
0.08334171
 40
0.0929552291
 40
0.1033806187
 40
0.114631552
 40
0.126711678
 40
0.1396167584
 40
0.1533361209
 40
0.1678536007
 40
0.1831486278
 40
0.1991964446
 40
0.2159691279
 40
0.2334353586
 40
0.2515614594
 40
0.2703108941
 40
0.2896453365
 40
0.3095240288
 40
0.3299048522
 40
0.3719941041
 40
0.4155466199
 40
0.4601767864
 40
0.5054862054
 40
0.5510685731
 40
0.5965143891
 40
0.6414157219
 40
0.6853710257
 40
0.7279898963
 40
0.7486810452
 40
0.7688992635
 40
0.7886011676
 40
0.807744993
 40
0.8262908348
 40
0.8442008993
 40
0.8614395705
 40
0.8779739633
 40
0.8937737718
 40
0.9088121872
 40
0.9230656404
 40
0.9365152112
 40
0.9491461963
 40
0.9609499952
 40
0.9719245224
 40
0.9820776763
 40
0.9914266394
 40
1.0
 40
1.0
 40
1.0
 40
1.0
 10
11.2317852156
 20
10.7432323118
 30
0.0
 10
11.2300434138
 20
10.7415498604
 30
0.0
 10
11.2275972281
 20
10.738956195
 30
0.0
 10
11.2247232439
 20
10.7353051353
 30
0.0
 10
11.2222984367
 20
10.7317853008
 30
0.0
 10
11.2203135441
 20
10.7281629076
 30
0.0
 10
11.2188433631
 20
10.7244683322
 30
0.0
 10
11.2180179737
 20
10.72173613
 30
0.0
 10
11.2174527405
 20
10.7189982428
 30
0.0
 10
11.2171481756
 20
10.7162565912
 30
0.0
 10
11.2171045971
 20
10.7135134185
 30
0.0
 10
11.2173221021
 20
10.7107709687
 30
0.0
 10
11.217800663
 20
10.7080315076
 30
0.0
 10
11.2185395293
 20
10.7052972059
 30
0.0
 10
11.2195376718
 20
10.7025698
 30
0.0
 10
11.2212435474
 20
10.6988780647
 30
0.0
 10
11.2234564175
 20
10.6952687956
 30
0.0
 10
11.2261001774
 20
10.6917636469
 30
0.0
 10
11.2292047294
 20
10.6881249411
 30
0.0
 10
11.2337524304
 20
10.6836247239
 30
0.0
 10
11.240080232
 20
10.6784195491
 30
0.0
 10
11.247380823
 20
10.6733042494
 30
0.0
 10
11.2556372319
 20
10.6682892277
 30
0.0
 10
11.2648312741
 20
10.6633853258
 30
0.0
 10
11.274941858
 20
10.6586036144
 30
0.0
 10
11.2859456113
 20
10.6539552966
 30
0.0
 10
11.2978167477
 20
10.6494514501
 30
0.0
 10
11.3105272337
 20
10.645102809
 30
0.0
 10
11.3240468954
 20
10.6409200014
 30
0.0
 10
11.3383434897
 20
10.6369129805
 30
0.0
 10
11.3533828496
 20
10.6330916784
 30
0.0
 10
11.3691289469
 20
10.6294651185
 30
0.0
 10
11.3855440187
 20
10.6260423817
 30
0.0
 10
11.4025886568
 20
10.6228314679
 30
0.0
 10
11.4202218921
 20
10.6198405061
 30
0.0
 10
11.438401374
 20
10.6170763627
 30
0.0
 10
11.4635809103
 20
10.6136662925
 30
0.0
 10
11.4960973412
 20
10.6100372191
 30
0.0
 10
11.5361603674
 20
10.6067218159
 30
0.0
 10
11.5772901951
 20
10.6044334193
 30
0.0
 10
11.6190913035
 20
10.6031944331
 30
0.0
 10
11.6611620058
 20
10.6030170495
 30
0.0
 10
11.7030978274
 20
10.6039030106
 30
0.0
 10
11.7444957524
 20
10.6058435902
 30
0.0
 10
11.784957647
 20
10.6088198213
 30
0.0
 10
11.8178891765
 20
10.6121705322
 30
0.0
 10
11.8434639414
 20
10.6153632055
 30
0.0
 10
11.8619833431
 20
10.6179721539
 30
0.0
 10
11.879985506
 20
10.6208126266
 30
0.0
 10
11.8974271845
 20
10.623877761
 30
0.0
 10
11.9142664359
 20
10.627160173
 30
0.0
 10
11.930462818
 20
10.6306517891
 30
0.0
 10
11.9459774416
 20
10.6343442922
 30
0.0
 10
11.960773127
 20
10.6382285155
 30
0.0
 10
11.9748144272
 20
10.6422952938
 30
0.0
 10
11.9880678438
 20
10.6465344429
 30
0.0
 10
12.0005017777
 20
10.6509360858
 30
0.0
 10
12.0120868355
 20
10.6554892167
 30
0.0
 10
12.0227955492
 20
10.6601834026
 30
0.0
 10
12.0326030811
 20
10.6650068754
 30
0.0
 10
12.0414867156
 20
10.6699490741
 30
0.0
 10
12.0494269526
 20
10.6749989189
 30
0.0
 10
12.0564042979
 20
10.6801452196
 30
0.0
 10
12.0605788418
 20
10.6837855275
 30
0.0
 10
12.0624814754
 20
10.6856233306
 30
0.0
  0
SPLINE
  5
3A6
100
AcDbEntity
  8
0
100
AcDbSpline
 62
7
  6
CONTINUOUS
 70
0
 71
3
 72
28
 73
24
 74
0
 42
0.0000001
 43
0.0000001
 44
0.0000000001
 40
0.0
 40
0.0
 40
0.0
 40
0.0
 40
0.0683417894
 40
0.1318944582
 40
0.1911916903
 40
0.2469424229
 40
0.2737771035
 40
0.300072871
 40
0.3259647135
 40
0.3515944959
 40
0.3771085711
 40
0.4026553861
 40
0.4283829391
 40
0.454436097
 40
0.5080318425
 40
0.5644895246
 40
0.594076777
 40
0.6246829784
 40
0.6892404913
 40
0.7587126008
 40
0.8334899805
 40
0.91385377
 40
1.0
 40
1.0
 40
1.0
 40
1.0
 10
12.0624814754
 20
10.6856233306
 30
0.0
 10
12.0639458406
 20
10.6870377988
 30
0.0
 10
12.0666665808
 20
10.6898807251
 30
0.0
 10
12.0702049146
 20
10.6943563018
 30
0.0
 10
12.073036266
 20
10.698874873
 30
0.0
 10
12.0748213955
 20
10.7027214293
 30
0.0
 10
12.0758677788
 20
10.70579426
 30
0.0
 10
12.0764623236
 20
10.7080743913
 30
0.0
 10
12.0768757957
 20
10.7103577664
 30
0.0
 10
12.0771080735
 20
10.7126433012
 30
0.0
 10
12.077158998
 20
10.7149297967
 30
0.0
 10
12.0770285305
 20
10.7172160246
 30
0.0
 10
12.0767165925
 20
10.7195008728
 30
0.0
 10
12.0760530879
 20
10.7225719234
 30
0.0
 10
12.0747488302
 20
10.7264272823
 30
0.0
 10
12.0728838901
 20
10.7301591241
 30
0.0
 10
12.0710572467
 20
10.7331172468
 30
0.0
 10
12.0689270043
 20
10.7361647671
 30
0.0
 10
12.0657960198
 20
10.7399515112
 30
0.0
 10
12.0614054407
 20
10.7443680459
 30
0.0
 10
12.0563240156
 20
10.7487309931
 30
0.0
 10
12.0505605311
 20
10.7530341976
 30
0.0
 10
12.0464146993
 20
10.7557631782
 30
0.0
 10
12.0442365545
 20
10.7571203303
 30
0.0
  0
SPLINE
  5
3A7
100
AcDbEntity
  8
0
100
AcDbSpline
 62
7
  6
CONTINUOUS
 70
0
 71
3
 72
9
 73
5
 74
0
 42
0.0000001
 43
0.0000001
 44
0.0000000001
 40
0.0
 40
0.0
 40
0.0
 40
0.0
 40
0.4830467495
 40
1.0
 40
1.0
 40
1.0
 40
1.0
 10
12.0442365545
 20
10.7571203303
 30
0.0
 10
12.0417042474
 20
10.7586981528
 30
0.0
 10
12.0363665673
 20
10.7618129049
 30
0.0
 10
12.0308843813
 20
10.764663445
 30
0.0
 10
12.0280215585
 20
10.7660776376
 30
0.0
  0
SPLINE
  5
3A8
100
AcDbEntity
  8
0
100
AcDbSpline
 62
7
  6
CONTINUOUS
 70
0
 71
3
 72
19
 73
15
 74
0
 42
0.0000001
 43
0.0000001
 44
0.0000000001
 40
0.0
 40
0.0
 40
0.0
 40
0.0
 40
0.1504607152
 40
0.2916988954
 40
0.4244197706
 40
0.4878838785
 40
0.549580297
 40
0.6682271827
 40
0.7255606102
 40
0.7817998481
 40
0.8371466355
 40
0.8918135538
 40
0.9460221503
 40
1.0
 40
1.0
 40
1.0
 40
1.0
 10
12.3344081361
 20
8.4760206474
 30
0.0
 10
12.3357990737
 20
8.47736419
 30
0.0
 10
12.3385790438
 20
8.4798850605
 30
0.0
 10
12.3428835546
 20
8.4832444145
 30
0.0
 10
12.3465193995
 20
8.485620329
 30
0.0
 10
12.3494187461
 20
8.4872292301
 30
0.0
 10
12.3522325604
 20
8.4886104958
 30
0.0
 10
12.3550793165
 20
8.4897395611
 30
0.0
 10
12.3579420911
 20
8.4905891806
 30
0.0
 10
12.3600587493
 20
8.4910788981
 30
0.0
 10
12.3621683588
 20
8.4914279514
 30
0.0
 10
12.3642703659
 20
8.4916361538
 30
0.0
 10
12.3663639197
 20
8.4917034207
 30
0.0
 10
12.3677548166
 20
8.4916542204
 30
0.0
 10
12.3684469272
 20
8.4916062199
 30
0.0
  0
SPLINE
  5
3A9
100
AcDbEntity
  8
0
100
AcDbSpline
 62
7
  6
CONTINUOUS
 70
0
 71
3
 72
36
 73
32
 74
0
 42
0.0000001
 43
0.0000001
 44
0.0000000001
 40
0.0
 40
0.0
 40
0.0
 40
0.0
 40
0.0916962898
 40
0.1811618425
 40
0.2679298174
 40
0.3101617831
 40
0.3515528884
 40
0.3920508491
 40
0.4316051136
 40
0.4701670897
 40
0.5076902599
 40
0.5441302807
 40
0.5794453006
 40
0.6135961286
 40
0.6465463769
 40
0.6782628744
 40
0.7087159643
 40
0.7378797695
 40
0.7657327896
 40
0.7922584677
 40
0.8174457516
 40
0.8412900974
 40
0.8637946067
 40
0.8849712835
 40
0.9048429411
 40
0.9234455356
 40
0.9408308663
 40
0.9570701431
 40
0.97225807
 40
0.9865168954
 40
1.0
 40
1.0
 40
1.0
 40
1.0
 10
11.5354049277
 20
10.0327464757
 30
0.0
 10
11.5249829624
 20
10.0334692415
 30
0.0
 10
11.5044065685
 20
10.0351099732
 30
0.0
 10
11.4740355345
 20
10.0381987599
 30
0.0
 10
11.4493352571
 20
10.0412862695
 30
0.0
 10
11.4301202337
 20
10.0440528067
 30
0.0
 10
11.4161499829
 20
10.0462474288
 30
0.0
 10
11.4025110187
 20
10.0485772052
 30
0.0
 10
11.3892228713
 20
10.0510388176
 30
0.0
 10
11.3763045816
 20
10.0536287044
 30
0.0
 10
11.363774649
 20
10.0563431263
 30
0.0
 10
11.3516510174
 20
10.0591781868
 30
0.0
 10
11.3399510338
 20
10.0621297939
 30
0.0
 10
11.3286914268
 20
10.0651936823
 30
0.0
 10
11.3178882897
 20
10.0683654541
 30
0.0
 10
11.3075570413
 20
10.0716405385
 30
0.0
 10
11.2977124011
 20
10.0750142088
 30
0.0
 10
11.2883683805
 20
10.0784816344
 30
0.0
 10
11.2795382404
 20
10.0820378456
 30
0.0
 10
11.2712344632
 20
10.0856777456
 30
0.0
 10
11.2634687521
 20
10.0893961808
 30
0.0
 10
11.2562519895
 20
10.0931879205
 30
0.0
 10
11.2495942036
 20
10.0970476737
 30
0.0
 10
11.2435045912
 20
10.1009701944
 30
0.0
 10
11.2379914976
 20
10.1049503043
 30
0.0
 10
11.233062419
 20
10.1089829231
 30
0.0
 10
11.2287241179
 20
10.1130632754
 30
0.0
 10
11.2249828131
 20
10.1171867709
 30
0.0
 10
11.2218442161
 20
10.1213495006
 30
0.0
 10
11.2193145557
 20
10.1255463213
 30
0.0
 10
11.2180067438
 20
10.1284342775
 30
0.0
 10
11.2174672801
 20
10.1298725724
 30
0.0
  0
SPLINE
  5
3AA
100
AcDbEntity
  8
0
100
AcDbSpline
 62
7
  6
CONTINUOUS
 70
0
 71
3
 72
46
 73
42
 74
0
 42
0.0000001
 43
0.0000001
 44
0.0000000001
 40
0.0
 40
0.0
 40
0.0
 40
0.0
 40
0.031143804
 40
0.0624406641
 40
0.0938846266
 40
0.1254660369
 40
0.1571726773
 40
0.188989797
 40
0.2209004514
 40
0.2528858567
 40
0.2849257707
 40
0.3169988946
 40
0.3490832879
 40
0.3811567922
 40
0.4131974593
 40
0.4451839758
 40
0.4770960786
 40
0.5089149549
 40
0.5406236259
 40
0.5722072995
 40
0.6036536882
 40
0.6349532936
 40
0.6660996371
 40
0.6970894354
 40
0.727922722
 40
0.7586028953
 40
0.7891366922
 40
0.8043544294
 40
0.8195395762
 40
0.8346938584
 40
0.8498191748
 40
0.8649175902
 40
0.8799913269
 40
0.8950427481
 40
0.9100743467
 40
0.9250887336
 40
0.940088619
 40
0.9550767983
 40
0.9700561375
 40
0.9850295542
 40
1.0
 40
1.0
 40
1.0
 40
1.0
 10
10.6740678266
 20
7.2162165232
 30
0.0
 10
10.6856726339
 20
7.2154117271
 30
0.0
 10
10.7088890073
 20
7.2129487501
 30
0.0
 10
10.7434320905
 20
7.2067444564
 30
0.0
 10
10.7776051892
 20
7.1980541146
 30
0.0
 10
10.8112237323
 20
7.1869244161
 30
0.0
 10
10.8441091293
 20
7.1734150407
 30
0.0
 10
10.8760859612
 20
7.1575982723
 30
0.0
 10
10.9069838602
 20
7.1395585829
 30
0.0
 10
10.9366382014
 20
7.11939233
 30
0.0
 10
10.9648909987
 20
7.0972071298
 30
0.0
 10
10.9915916758
 20
7.0731212636
 30
0.0
 10
11.0165979649
 20
7.0472631724
 30
0.0
 10
11.0397765988
 20
7.0197706938
 30
0.0
 10
11.0610039589
 20
6.9907903044
 30
0.0
 10
11.0801668469
 20
6.9604764459
 30
0.0
 10
11.0971630279
 20
6.9289906508
 30
0.0
 10
11.1119016978
 20
6.8965006632
 30
0.0
 10
11.124304097
 20
6.8631796281
 30
0.0
 10
11.1343038842
 20
6.829205142
 30
0.0
 10
11.1418473986
 20
6.7947582963
 30
0.0
 10
11.1468940912
 20
6.7600227799
 30
0.0
 10
11.1494167066
 20
6.7251838483
 30
0.0
 10
11.1494013758
 20
6.6904274907
 30
0.0
 10
11.1468476653
 20
6.6559389194
 30
0.0
 10
11.1417692374
 20
6.6219035918
 30
0.0
 10
11.1354469059
 20
6.5940338085
 30
0.0
 10
11.1291583722
 20
6.5721543332
 30
0.0
 10
11.1238389226
 20
6.5559863423
 30
0.0
 10
11.1179188321
 20
6.5400655472
 30
0.0
 10
11.1114058931
 20
6.5244129329
 30
0.0
 10
11.1043088216
 20
6.509049494
 30
0.0
 10
11.0966371248
 20
6.4939957185
 30
0.0
 10
11.0884009939
 20
6.4792717543
 30
0.0
 10
11.0796114398
 20
6.4648972708
 30
0.0
 10
11.0702802352
 20
6.4508914568
 30
0.0
 10
11.060419789
 20
6.4372730578
 30
0.0
 10
11.0500433072
 20
6.4240602813
 30
0.0
 10
11.0391646162
 20
6.4112706965
 30
0.0
 10
11.0277984445
 20
6.3989216722
 30
0.0
 10
11.0199052884
 20
6.3909928349
 30
0.0
 10
11.0158834437
 20
6.3871080273
 30
0.0
  0
SPLINE
  5
3AB
100
AcDbEntity
  8
0
100
AcDbSpline
 62
7
  6
CONTINUOUS
 70
0
 71
3
 72
46
 73
42
 74
0
 42
0.0000001
 43
0.0000001
 44
0.0000000001
 40
0.0
 40
0.0
 40
0.0
 40
0.0
 40
0.031143804
 40
0.0624406641
 40
0.0938846266
 40
0.1254660369
 40
0.1571726773
 40
0.188989797
 40
0.2209004514
 40
0.2528858567
 40
0.2849257707
 40
0.3169988946
 40
0.3490832879
 40
0.3811567922
 40
0.4131974593
 40
0.4451839758
 40
0.4770960786
 40
0.5089149549
 40
0.5406236259
 40
0.5722072995
 40
0.6036536882
 40
0.6349532936
 40
0.6660996371
 40
0.6970894354
 40
0.727922722
 40
0.7586028953
 40
0.7891366922
 40
0.8043544294
 40
0.8195395762
 40
0.8346938584
 40
0.8498191748
 40
0.8649175902
 40
0.8799913269
 40
0.8950427481
 40
0.9100743467
 40
0.9250887336
 40
0.940088619
 40
0.9550767983
 40
0.9700561375
 40
0.9850295542
 40
1.0
 40
1.0
 40
1.0
 40
1.0
 10
10.6740678266
 20
9.2688090257
 30
0.0
 10
10.6856726339
 20
9.2680042295
 30
0.0
 10
10.7088890073
 20
9.2655412526
 30
0.0
 10
10.7434320905
 20
9.2593369589
 30
0.0
 10
10.7776051892
 20
9.2506466171
 30
0.0
 10
10.8112237323
 20
9.2395169186
 30
0.0
 10
10.8441091293
 20
9.2260075432
 30
0.0
 10
10.8760859612
 20
9.2101907748
 30
0.0
 10
10.9069838602
 20
9.1921510854
 30
0.0
 10
10.9366382014
 20
9.1719848325
 30
0.0
 10
10.9648909987
 20
9.1497996323
 30
0.0
 10
10.9915916758
 20
9.1257137661
 30
0.0
 10
11.0165979649
 20
9.0998556749
 30
0.0
 10
11.0397765988
 20
9.0723631962
 30
0.0
 10
11.0610039589
 20
9.0433828069
 30
0.0
 10
11.0801668469
 20
9.0130689484
 30
0.0
 10
11.0971630279
 20
8.9815831533
 30
0.0
 10
11.1119016978
 20
8.9490931657
 30
0.0
 10
11.124304097
 20
8.9157721306
 30
0.0
 10
11.1343038842
 20
8.8817976445
 30
0.0
 10
11.1418473986
 20
8.8473507988
 30
0.0
 10
11.1468940912
 20
8.8126152824
 30
0.0
 10
11.1494167066
 20
8.7777763508
 30
0.0
 10
11.1494013758
 20
8.7430199932
 30
0.0
 10
11.1468476653
 20
8.7085314219
 30
0.0
 10
11.1417692374
 20
8.6744960943
 30
0.0
 10
11.1354469059
 20
8.646626311
 30
0.0
 10
11.1291583722
 20
8.6247468357
 30
0.0
 10
11.1238389226
 20
8.6085788448
 30
0.0
 10
11.1179188321
 20
8.5926580497
 30
0.0
 10
11.1114058931
 20
8.5770054354
 30
0.0
 10
11.1043088216
 20
8.5616419965
 30
0.0
 10
11.0966371248
 20
8.546588221
 30
0.0
 10
11.0884009939
 20
8.5318642568
 30
0.0
 10
11.0796114398
 20
8.5174897732
 30
0.0
 10
11.0702802352
 20
8.5034839593
 30
0.0
 10
11.060419789
 20
8.4898655603
 30
0.0
 10
11.0500433072
 20
8.4766527838
 30
0.0
 10
11.0391646162
 20
8.463863199
 30
0.0
 10
11.0277984445
 20
8.4515141747
 30
0.0
 10
11.0199052884
 20
8.4435853374
 30
0.0
 10
11.0158834437
 20
8.4397005298
 30
0.0
  0
SPLINE
  5
3AC
100
AcDbEntity
  8
0
100
AcDbSpline
 62
7
  6
CONTINUOUS
 70
0
 71
3
 72
11
 73
7
 74
0
 42
0.0000001
 43
0.0000001
 44
0.0000000001
 40
0.0
 40
0.0
 40
0.0
 40
0.0
 40
0.2716247298
 40
0.528710604
 40
0.7714315334
 40
1.0
 40
1.0
 40
1.0
 40
1.0
 10
10.7193944054
 20
9.0817064861
 30
0.0
 10
10.7200199874
 20
9.0788920141
 30
0.0
 10
10.7214767626
 20
9.0734630929
 30
0.0
 10
10.7243168784
 20
9.0657708866
 30
0.0
 10
10.7276691276
 20
9.058791635
 30
0.0
 10
10.7302682991
 20
9.054505925
 30
0.0
 10
10.7316333102
 20
9.0525002099
 30
0.0
  0
SPLINE
  5
3AD
100
AcDbEntity
  8
0
100
AcDbSpline
 62
7
  6
CONTINUOUS
 70
0
 71
3
 72
34
 73
30
 74
0
 42
0.0000001
 43
0.0000001
 44
0.0000000001
 40
0.0
 40
0.0
 40
0.0
 40
0.0
 40
0.0315260103
 40
0.0630063779
 40
0.0944403762
 40
0.1258313741
 40
0.1571840314
 40
0.1885057322
 40
0.2198057366
 40
0.2510949022
 40
0.2823851285
 40
0.3136888059
 40
0.3450180911
 40
0.3763843037
 40
0.4077971872
 40
0.4392642427
 40
0.4707901282
 40
0.5023760589
 40
0.5656914292
 40
0.6291532459
 40
0.6925998043
 40
0.7557881833
 40
0.787201154
 40
0.8184326059
 40
0.8801707824
 40
0.9106254319
 40
0.9407591478
 40
0.9705535123
 40
1.0
 40
1.0
 40
1.0
 40
1.0
 10
10.9033782083
 20
6.7586674602
 30
0.0
 10
10.8994098724
 20
6.7587884693
 30
0.0
 10
10.8914841446
 20
6.7592739234
 30
0.0
 10
10.8796739803
 20
6.760738129
 30
0.0
 10
10.8679949732
 20
6.7629366659
 30
0.0
 10
10.8564933496
 20
6.76586267
 30
0.0
 10
10.8452127136
 20
6.7695042378
 30
0.0
 10
10.8341944287
 20
6.7738444768
 30
0.0
 10
10.8234766804
 20
6.7788622368
 30
0.0
 10
10.8130941889
 20
6.784532689
 30
0.0
 10
10.8030779954
 20
6.7908280865
 30
0.0
 10
10.7934554748
 20
6.7977184571
 30
0.0
 10
10.7842505003
 20
6.8051722575
 30
0.0
 10
10.7754837639
 20
6.8131569066
 30
0.0
 10
10.7671731575
 20
6.8216392477
 30
0.0
 10
10.759334303
 20
6.8305856791
 30
0.0
 10
10.7519806945
 20
6.8399628318
 30
0.0
 10
10.7428338399
 20
6.8530021572
 30
0.0
 10
10.7326754942
 20
6.8702088888
 30
0.0
 10
10.7226188485
 20
6.8919937692
 30
0.0
 10
10.7147532221
 20
6.9146437973
 30
0.0
 10
10.710069759
 20
6.934023414
 30
0.0
 10
10.7074842319
 20
6.9496633955
 30
0.0
 10
10.7056917504
 20
6.9652292904
 30
0.0
 10
10.7050633481
 20
6.9807915683
 30
0.0
 10
10.7056344227
 20
6.9961913775
 30
0.0
 10
10.7066529743
 20
7.0075336718
 30
0.0
 10
10.7082606034
 20
7.0186787406
 30
0.0
 10
10.7097308768
 20
7.0259975167
 30
0.0
 10
10.7105639399
 20
7.0296110312
 30
0.0
  0
SPLINE
  5
3AE
100
AcDbEntity
  8
0
100
AcDbSpline
 62
7
  6
CONTINUOUS
 70
0
 71
3
 72
34
 73
30
 74
0
 42
0.0000001
 43
0.0000001
 44
0.0000000001
 40
0.0
 40
0.0
 40
0.0
 40
0.0
 40
0.0318988119
 40
0.0637498792
 40
0.095528214
 40
0.1272149197
 40
0.1587935252
 40
0.1902528659
 40
0.2215865956
 40
0.2527935245
 40
0.2838773058
 40
0.3148460761
 40
0.3457118297
 40
0.376489673
 40
0.4071971643
 40
0.4378539138
 40
0.4684807129
 40
0.4990988233
 40
0.5297297984
 40
0.5603951057
 40
0.6218961024
 40
0.6837666179
 40
0.7461229605
 40
0.80902582
 40
0.8724454575
 40
0.9043083662
 40
0.9362237133
 40
0.9681428824
 40
1.0
 40
1.0
 40
1.0
 40
1.0
 10
10.9469547402
 20
8.8234079603
 30
0.0
 10
10.9432838663
 20
8.8234323335
 30
0.0
 10
10.9359473517
 20
8.8236731946
 30
0.0
 10
10.9249897724
 20
8.8246226938
 30
0.0
 10
10.914124133
 20
8.8261661661
 30
0.0
 10
10.9033915294
 20
8.8283037742
 30
0.0
 10
10.8928310577
 20
8.8310304123
 30
0.0
 10
10.8824797558
 20
8.8343356307
 30
0.0
 10
10.8723714324
 20
8.8382043785
 30
0.0
 10
10.8625361348
 20
8.8426176176
 30
0.0
 10
10.8529997059
 20
8.8475531621
 30
0.0
 10
10.8437836535
 20
8.8529865822
 30
0.0
 10
10.8349052193
 20
8.8588920562
 30
0.0
 10
10.8263776304
 20
8.865243142
 30
0.0
 10
10.818210425
 20
8.8720134312
 30
0.0
 10
10.8104098614
 20
8.8791770511
 30
0.0
 10
10.8029794636
 20
8.8867091614
 30
0.0
 10
10.7959205484
 20
8.89458611
 30
0.0
 10
10.7892324379
 20
8.9027858805
 30
0.0
 10
10.7807999365
 20
8.9141308363
 30
0.0
 10
10.7711658902
 20
8.929038811
 30
0.0
 10
10.7610592035
 20
8.9478965757
 30
0.0
 10
10.75236208
 20
8.9676193672
 30
0.0
 10
10.745052444
 20
8.9880839439
 30
0.0
 10
10.7401144418
 20
9.0056210174
 30
0.0
 10
10.7368468099
 20
9.0198918587
 30
0.0
 10
10.7347389894
 20
9.0307033402
 30
0.0
 10
10.7329811287
 20
9.0415762458
 30
0.0
 10
10.7320430105
 20
9.0488570176
 30
0.0
 10
10.7316333102
 20
9.0525002099
 30
0.0
  0
SPLINE
  5
3AF
100
AcDbEntity
  8
0
100
AcDbSpline
 62
7
  6
CONTINUOUS
 70
0
 71
3
 72
25
 73
21
 74
0
 42
0.0000001
 43
0.0000001
 44
0.0000000001
 40
0.0
 40
0.0
 40
0.0
 40
0.0
 40
0.0616475256
 40
0.0924812752
 40
0.1233236417
 40
0.1850399904
 40
0.2468243943
 40
0.277751631
 40
0.3087038637
 40
0.3706878925
 40
0.4328012858
 40
0.495061923
 40
0.5574860832
 40
0.6200882745
 40
0.682881117
 40
0.745875147
 40
0.8090789725
 40
0.8724984981
 40
0.9361386362
 40
1.0
 40
1.0
 40
1.0
 40
1.0
 10
10.3322522095
 20
7.0948539496
 30
0.0
 10
10.3377734667
 20
7.1001870799
 30
0.0
 10
10.3462737582
 20
7.1079669812
 30
0.0
 10
10.3580113854
 20
7.1178707119
 30
0.0
 10
10.3700177552
 20
7.1274612264
 30
0.0
 10
10.3855127493
 20
7.1388473825
 30
0.0
 10
10.401604414
 20
7.1493927128
 30
0.0
 10
10.4148131196
 20
7.157310919
 30
0.0
 10
10.4282499869
 20
7.1648861349
 30
0.0
 10
10.4454426651
 20
7.1736922529
 30
0.0
 10
10.466638297
 20
7.1831645931
 30
0.0
 10
10.4883560669
 20
7.1915238889
 30
0.0
 10
10.5105408944
 20
7.1987489316
 30
0.0
 10
10.5331369929
 20
7.2048216397
 30
0.0
 10
10.5560874169
 20
7.2097267584
 30
0.0
 10
10.579334404
 20
7.213452022
 30
0.0
 10
10.6028193348
 20
7.2159880789
 30
0.0
 10
10.626483367
 20
7.2173286644
 30
0.0
 10
10.6502660797
 20
7.2174704282
 30
0.0
 10
10.666134849
 20
7.216766677
 30
0.0
 10
10.6740678266
 20
7.2162165232
 30
0.0
  0
SPLINE
  5
3B0
100
AcDbEntity
  8
0
100
AcDbSpline
 62
7
  6
CONTINUOUS
 70
0
 71
3
 72
23
 73
19
 74
0
 42
0.0000001
 43
0.0000001
 44
0.0000000001
 40
0.0
 40
0.0
 40
0.0
 40
0.0
 40
0.0616482066
 40
0.1233194398
 40
0.1850364729
 40
0.2468215638
 40
0.3086962099
 40
0.3706809215
 40
0.4327950013
 40
0.4950563319
 40
0.5574811817
 40
0.6200840805
 40
0.6828775834
 40
0.7458723398
 40
0.8090769807
 40
0.8724966303
 40
0.9361388571
 40
1.0
 40
1.0
 40
1.0
 40
1.0
 10
10.5412459983
 20
6.9665234915
 30
0.0
 10
10.5441020062
 20
6.9692821962
 30
0.0
 10
10.5499647542
 20
6.9746480742
 30
0.0
 10
10.5591804966
 20
6.9822141993
 30
0.0
 10
10.5687964289
 20
6.9892802125
 30
0.0
 10
10.5787879966
 20
6.9958279915
 30
0.0
 10
10.5891300956
 20
7.0018411478
 30
0.0
 10
10.5997966319
 20
7.0073045376
 30
0.0
 10
10.6107607345
 20
7.0122044227
 30
0.0
 10
10.6219947836
 20
7.0165284611
 30
0.0
 10
10.6334704728
 20
7.0202657933
 30
0.0
 10
10.645158887
 20
7.0234070499
 30
0.0
 10
10.6570305861
 20
7.0259443589
 30
0.0
 10
10.6690556984
 20
7.0278713505
 30
0.0
 10
10.6812038609
 20
7.0291831594
 30
0.0
 10
10.6934447512
 20
7.0298766423
 30
0.0
 10
10.7057469668
 20
7.0299499322
 30
0.0
 10
10.7139555278
 20
7.0295859218
 30
0.0
 10
10.7180590059
 20
7.0293013446
 30
0.0
  0
SPLINE
  5
3B1
100
AcDbEntity
  8
0
100
AcDbSpline
 62
7
  6
CONTINUOUS
 70
0
 71
3
 72
39
 73
35
 74
0
 42
0.0000001
 43
0.0000001
 44
0.0000000001
 40
0.0
 40
0.0
 40
0.0
 40
0.0
 40
0.0303124934
 40
0.0607375552
 40
0.0912778033
 40
0.1219344494
 40
0.1527073009
 40
0.1835947785
 40
0.2145939499
 40
0.2457005787
 40
0.2769091866
 40
0.3082131276
 40
0.3396046755
 40
0.3710751204
 40
0.4026148726
 40
0.4342135753
 40
0.4658602225
 40
0.4975432824
 40
0.5292508255
 40
0.5609706552
 40
0.592690442
 40
0.6243978575
 40
0.6560807079
 40
0.6877270668
 40
0.7193254058
 40
0.7508647223
 40
0.7823346628
 40
0.813725641
 40
0.8450289619
 40
0.8762368722
 40
0.9073428555
 40
0.9383410945
 40
0.9692281655
 40
1.0
 40
1.0
 40
1.0
 40
1.0
 10
10.9757631822
 20
6.6739178354
 30
0.0
 10
10.9767652098
 20
6.6792218354
 30
0.0
 10
10.9784739091
 20
6.6899084877
 30
0.0
 10
10.9801411656
 20
6.7060848274
 30
0.0
 10
10.9809128126
 20
6.7223903314
 30
0.0
 10
10.9807864612
 20
6.7387752921
 30
0.0
 10
10.9797625896
 20
6.7551906169
 30
0.0
 10
10.9778443254
 20
6.7715869046
 30
0.0
 10
10.9750374925
 20
6.7879148806
 30
0.0
 10
10.9713505775
 20
6.8041254662
 30
0.0
 10
10.9667947062
 20
6.8201699457
 30
0.0
 10
10.961383616
 20
6.8360001073
 30
0.0
 10
10.9551336118
 20
6.8515683899
 30
0.0
 10
10.9480635111
 20
6.8668280223
 30
0.0
 10
10.9401945892
 20
6.8817331632
 30
0.0
 10
10.9315505143
 20
6.8962390373
 30
0.0
 10
10.9221572774
 20
6.9103020687
 30
0.0
 10
10.9120431142
 20
6.9238800107
 30
0.0
 10
10.9012384207
 20
6.9369320706
 30
0.0
 10
10.8897756682
 20
6.9494190379
 30
0.0
 10
10.8776893022
 20
6.9613033988
 30
0.0
 10
10.8650156362
 20
6.9725494455
 30
0.0
 10
10.8517927447
 20
6.9831233839
 30
0.0
 10
10.8380603491
 20
6.9929934337
 30
0.0
 10
10.8238597
 20
7.0021299235
 30
0.0
 10
10.8092334536
 20
7.0105053797
 30
0.0
 10
10.7942255455
 20
7.0180946065
 30
0.0
 10
10.7788810614
 20
7.024874776
 30
0.0
 10
10.7632461064
 20
7.0308254725
 30
0.0
 10
10.7473676328
 20
7.0359288025
 30
0.0
 10
10.7312934302
 20
7.0401693239
 30
0.0
 10
10.7150715478
 20
7.0435343637
 30
0.0
 10
10.6987514804
 20
7.0460135589
 30
0.0
 10
10.6878165171
 20
7.0470729783
 30
0.0
 10
10.6823500294
 20
7.0474520806
 30
0.0
  0
SPLINE
  5
3B2
100
AcDbEntity
  8
0
100
AcDbSpline
 62
7
  6
CONTINUOUS
 70
0
 71
3
 72
39
 73
35
 74
0
 42
0.0000001
 43
0.0000001
 44
0.0000000001
 40
0.0
 40
0.0
 40
0.0
 40
0.0
 40
0.0299393046
 40
0.0599022798
 40
0.0899120362
 40
0.1199905823
 40
0.1501583143
 40
0.1804335559
 40
0.2108321562
 40
0.2413671583
 40
0.2720485416
 40
0.3028830449
 40
0.3338740655
 40
0.3650216366
 40
0.3963224767
 40
0.4277701061
 40
0.4593550258
 40
0.491064949
 40
0.5228850818
 40
0.554798444
 40
0.5867862231
 40
0.618828155
 40
0.6509029254
 40
0.6829885856
 40
0.7150629765
 40
0.7471041564
 40
0.7790908249
 40
0.8110027394
 40
0.8428211144
 40
0.8745290121
 40
0.9061116491
 40
0.937556897
 40
0.9688549736
 40
1.0
 40
1.0
 40
1.0
 40
1.0
 10
10.8948720135
 20
6.6004229229
 30
0.0
 10
10.8990324338
 20
6.604441599
 30
0.0
 10
10.9070449906
 20
6.6128120559
 30
0.0
 10
10.9180492292
 20
6.6262751138
 30
0.0
 10
10.9279853663
 20
6.6405786712
 30
0.0
 10
10.9367992847
 20
6.655645143
 30
0.0
 10
10.9444442047
 20
6.6713940917
 30
0.0
 10
10.9508793
 20
6.6877411206
 30
0.0
 10
10.9560703461
 20
6.7045987544
 30
0.0
 10
10.9599897831
 20
6.7218768027
 30
0.0
 10
10.9626168796
 20
6.7394828816
 30
0.0
 10
10.9639378201
 20
6.7573229036
 30
0.0
 10
10.9639457695
 20
6.7753015825
 30
0.0
 10
10.9626408978
 20
6.7933229397
 30
0.0
 10
10.9600303693
 20
6.8112908124
 30
0.0
 10
10.9561282967
 20
6.8291093609
 30
0.0
 10
10.9509556591
 20
6.8466835733
 30
0.0
 10
10.9445401873
 20
6.8639197653
 30
0.0
 10
10.9369162179
 20
6.8807260755
 30
0.0
 10
10.9281245021
 20
6.8970129466
 30
0.0
 10
10.9182119884
 20
6.9126935966
 30
0.0
 10
10.9072315735
 20
6.9276844749
 30
0.0
 10
10.8952418222
 20
6.9419057025
 30
0.0
 10
10.8823066574
 20
6.9552814923
 30
0.0
 10
10.8684950231
 20
6.9677405492
 30
0.0
 10
10.8538805198
 20
6.9792164449
 30
0.0
 10
10.8385410205
 20
6.9896479739
 30
0.0
 10
10.8225582561
 20
6.9989794755
 30
0.0
 10
10.8060173929
 20
7.0071611298
 30
0.0
 10
10.7890065475
 20
7.014149209
 30
0.0
 10
10.7716164573
 20
7.0199063466
 30
0.0
 10
10.7539395131
 20
7.0244016616
 30
0.0
 10
10.7360711824
 20
7.0276110077
 30
0.0
 10
10.7240618999
 20
7.0288850425
 30
0.0
 10
10.7180590059
 20
7.0293013446
 30
0.0
  0
SPLINE
  5
3B3
100
AcDbEntity
  8
0
100
AcDbSpline
 62
7
  6
CONTINUOUS
 70
0
 71
3
 72
11
 73
7
 74
0
 42
0.0000001
 43
0.0000001
 44
0.0000000001
 40
0.0
 40
0.0
 40
0.0
 40
0.0
 40
0.250465752
 40
0.5006701952
 40
0.7505350857
 40
1.0
 40
1.0
 40
1.0
 40
1.0
 10
10.9639107736
 20
6.7661206091
 30
0.0
 10
10.9589863741
 20
6.7647558832
 30
0.0
 10
10.9490414888
 20
6.7623782752
 30
0.0
 10
10.9339142602
 20
6.7599171631
 30
0.0
 10
10.9186645628
 20
6.7586026967
 30
0.0
 10
10.9084654332
 20
6.758512332
 30
0.0
 10
10.9033782083
 20
6.7586674602
 30
0.0
  0
SPLINE
  5
3B4
100
AcDbEntity
  8
0
100
AcDbSpline
 62
7
  6
CONTINUOUS
 70
0
 71
3
 72
25
 73
21
 74
0
 42
0.0000001
 43
0.0000001
 44
0.0000000001
 40
0.0
 40
0.0
 40
0.0
 40
0.0
 40
0.0616475256
 40
0.0924812752
 40
0.1233236417
 40
0.1850399904
 40
0.2468243943
 40
0.277751631
 40
0.3087038637
 40
0.3706878925
 40
0.4328012858
 40
0.495061923
 40
0.5574860832
 40
0.6200882745
 40
0.682881117
 40
0.745875147
 40
0.8090789725
 40
0.8724984981
 40
0.9361386362
 40
1.0
 40
1.0
 40
1.0
 40
1.0
 10
10.3322522095
 20
9.1474464521
 30
0.0
 10
10.3377734667
 20
9.1527795824
 30
0.0
 10
10.3462737582
 20
9.1605594837
 30
0.0
 10
10.3580113854
 20
9.1704632144
 30
0.0
 10
10.3700177552
 20
9.1800537289
 30
0.0
 10
10.3855127493
 20
9.191439885
 30
0.0
 10
10.401604414
 20
9.2019852153
 30
0.0
 10
10.4148131196
 20
9.2099034215
 30
0.0
 10
10.4282499869
 20
9.2174786374
 30
0.0
 10
10.4454426651
 20
9.2262847554
 30
0.0
 10
10.466638297
 20
9.2357570956
 30
0.0
 10
10.4883560669
 20
9.2441163914
 30
0.0
 10
10.5105408944
 20
9.2513414341
 30
0.0
 10
10.5331369929
 20
9.2574141422
 30
0.0
 10
10.5560874169
 20
9.2623192609
 30
0.0
 10
10.579334404
 20
9.2660445245
 30
0.0
 10
10.6028193348
 20
9.2685805813
 30
0.0
 10
10.626483367
 20
9.2699211669
 30
0.0
 10
10.6502660797
 20
9.2700629306
 30
0.0
 10
10.666134849
 20
9.2693591795
 30
0.0
 10
10.6740678266
 20
9.2688090257
 30
0.0
  0
SPLINE
  5
3B5
100
AcDbEntity
  8
0
100
AcDbSpline
 62
7
  6
CONTINUOUS
 70
0
 71
3
 72
23
 73
19
 74
0
 42
0.0000001
 43
0.0000001
 44
0.0000000001
 40
0.0
 40
0.0
 40
0.0
 40
0.0
 40
0.0616482066
 40
0.1233194398
 40
0.1850364729
 40
0.2468215638
 40
0.3086962099
 40
0.3706809215
 40
0.4327950013
 40
0.4950563319
 40
0.5574811817
 40
0.6200840805
 40
0.6828775834
 40
0.7458723398
 40
0.8090769807
 40
0.8724966303
 40
0.9361388571
 40
1.0
 40
1.0
 40
1.0
 40
1.0
 10
10.5412459983
 20
9.019115994
 30
0.0
 10
10.5441020062
 20
9.0218746987
 30
0.0
 10
10.5499647542
 20
9.0272405767
 30
0.0
 10
10.5591804966
 20
9.0348067018
 30
0.0
 10
10.5687964289
 20
9.041872715
 30
0.0
 10
10.5787879966
 20
9.048420494
 30
0.0
 10
10.5891300956
 20
9.0544336503
 30
0.0
 10
10.5997966319
 20
9.0598970401
 30
0.0
 10
10.6107607345
 20
9.0647969252
 30
0.0
 10
10.6219947836
 20
9.0691209636
 30
0.0
 10
10.6334704728
 20
9.0728582958
 30
0.0
 10
10.645158887
 20
9.0759995523
 30
0.0
 10
10.6570305861
 20
9.0785368614
 30
0.0
 10
10.6690556984
 20
9.080463853
 30
0.0
 10
10.6812038609
 20
9.0817756618
 30
0.0
 10
10.6934447512
 20
9.0824691448
 30
0.0
 10
10.7057469668
 20
9.0825424347
 30
0.0
 10
10.7139555278
 20
9.0821784243
 30
0.0
 10
10.7180590059
 20
9.0818938471
 30
0.0
  0
SPLINE
  5
3B6
100
AcDbEntity
  8
0
100
AcDbSpline
 62
7
  6
CONTINUOUS
 70
0
 71
3
 72
39
 73
35
 74
0
 42
0.0000001
 43
0.0000001
 44
0.0000000001
 40
0.0
 40
0.0
 40
0.0
 40
0.0
 40
0.0303124934
 40
0.0607375552
 40
0.0912778033
 40
0.1219344494
 40
0.1527073009
 40
0.1835947785
 40
0.2145939499
 40
0.2457005787
 40
0.2769091866
 40
0.3082131276
 40
0.3396046755
 40
0.3710751204
 40
0.4026148726
 40
0.4342135753
 40
0.4658602225
 40
0.4975432824
 40
0.5292508255
 40
0.5609706552
 40
0.592690442
 40
0.6243978575
 40
0.6560807079
 40
0.6877270668
 40
0.7193254058
 40
0.7508647223
 40
0.7823346628
 40
0.813725641
 40
0.8450289619
 40
0.8762368722
 40
0.9073428555
 40
0.9383410945
 40
0.9692281655
 40
1.0
 40
1.0
 40
1.0
 40
1.0
 10
10.9757631822
 20
8.7265103379
 30
0.0
 10
10.9767652098
 20
8.7318143379
 30
0.0
 10
10.9784739091
 20
8.7425009902
 30
0.0
 10
10.9801411656
 20
8.7586773299
 30
0.0
 10
10.9809128126
 20
8.7749828338
 30
0.0
 10
10.9807864612
 20
8.7913677945
 30
0.0
 10
10.9797625896
 20
8.8077831194
 30
0.0
 10
10.9778443254
 20
8.8241794071
 30
0.0
 10
10.9750374925
 20
8.8405073831
 30
0.0
 10
10.9713505775
 20
8.8567179687
 30
0.0
 10
10.9667947062
 20
8.8727624482
 30
0.0
 10
10.961383616
 20
8.8885926098
 30
0.0
 10
10.9551336118
 20
8.9041608924
 30
0.0
 10
10.9480635111
 20
8.9194205248
 30
0.0
 10
10.9401945892
 20
8.9343256657
 30
0.0
 10
10.9315505143
 20
8.9488315398
 30
0.0
 10
10.9221572774
 20
8.9628945712
 30
0.0
 10
10.9120431142
 20
8.9764725132
 30
0.0
 10
10.9012384207
 20
8.9895245731
 30
0.0
 10
10.8897756682
 20
9.0020115404
 30
0.0
 10
10.8776893022
 20
9.0138959012
 30
0.0
 10
10.8650156362
 20
9.025141948
 30
0.0
 10
10.8517927447
 20
9.0357158864
 30
0.0
 10
10.8380603491
 20
9.0455859362
 30
0.0
 10
10.8238597
 20
9.054722426
 30
0.0
 10
10.8092334536
 20
9.0630978822
 30
0.0
 10
10.7942255455
 20
9.070687109
 30
0.0
 10
10.7788810614
 20
9.0774672785
 30
0.0
 10
10.7632461064
 20
9.083417975
 30
0.0
 10
10.7473676328
 20
9.088521305
 30
0.0
 10
10.7312934302
 20
9.0927618264
 30
0.0
 10
10.7150715478
 20
9.0961268662
 30
0.0
 10
10.6987514804
 20
9.0986060614
 30
0.0
 10
10.6878165171
 20
9.0996654808
 30
0.0
 10
10.6823500294
 20
9.100044583
 30
0.0
  0
SPLINE
  5
3B7
100
AcDbEntity
  8
0
100
AcDbSpline
 62
7
  6
CONTINUOUS
 70
0
 71
3
 72
39
 73
35
 74
0
 42
0.0000001
 43
0.0000001
 44
0.0000000001
 40
0.0
 40
0.0
 40
0.0
 40
0.0
 40
0.0299393046
 40
0.0599022798
 40
0.0899120362
 40
0.1199905823
 40
0.1501583143
 40
0.1804335559
 40
0.2108321562
 40
0.2413671583
 40
0.2720485416
 40
0.3028830449
 40
0.3338740655
 40
0.3650216366
 40
0.3963224767
 40
0.4277701061
 40
0.4593550258
 40
0.491064949
 40
0.5228850818
 40
0.554798444
 40
0.5867862231
 40
0.618828155
 40
0.6509029254
 40
0.6829885856
 40
0.7150629765
 40
0.7471041564
 40
0.7790908249
 40
0.8110027394
 40
0.8428211144
 40
0.8745290121
 40
0.9061116491
 40
0.937556897
 40
0.9688549736
 40
1.0
 40
1.0
 40
1.0
 40
1.0
 10
10.8948720135
 20
8.6530154254
 30
0.0
 10
10.8990324338
 20
8.6570341015
 30
0.0
 10
10.9070449906
 20
8.6654045584
 30
0.0
 10
10.9180492292
 20
8.6788676163
 30
0.0
 10
10.9279853663
 20
8.6931711737
 30
0.0
 10
10.9367992847
 20
8.7082376455
 30
0.0
 10
10.9444442047
 20
8.7239865942
 30
0.0
 10
10.9508793
 20
8.7403336231
 30
0.0
 10
10.9560703461
 20
8.7571912569
 30
0.0
 10
10.9599897831
 20
8.7744693052
 30
0.0
 10
10.9626168796
 20
8.7920753841
 30
0.0
 10
10.9639378201
 20
8.8099154061
 30
0.0
 10
10.9639457695
 20
8.827894085
 30
0.0
 10
10.9626408978
 20
8.8459154422
 30
0.0
 10
10.9600303693
 20
8.8638833149
 30
0.0
 10
10.9561282967
 20
8.8817018634
 30
0.0
 10
10.9509556591
 20
8.8992760758
 30
0.0
 10
10.9445401873
 20
8.9165122678
 30
0.0
 10
10.9369162179
 20
8.933318578
 30
0.0
 10
10.9281245021
 20
8.9496054491
 30
0.0
 10
10.9182119884
 20
8.965286099
 30
0.0
 10
10.9072315735
 20
8.9802769774
 30
0.0
 10
10.8952418222
 20
8.994498205
 30
0.0
 10
10.8823066574
 20
9.0078739948
 30
0.0
 10
10.8684950231
 20
9.0203330517
 30
0.0
 10
10.8538805198
 20
9.0318089474
 30
0.0
 10
10.8385410205
 20
9.0422404764
 30
0.0
 10
10.8225582561
 20
9.051571978
 30
0.0
 10
10.8060173929
 20
9.0597536323
 30
0.0
 10
10.7890065475
 20
9.0667417115
 30
0.0
 10
10.7716164573
 20
9.0724988491
 30
0.0
 10
10.7539395131
 20
9.0769941641
 30
0.0
 10
10.7360711824
 20
9.0802035101
 30
0.0
 10
10.7240618999
 20
9.081477545
 30
0.0
 10
10.7180590059
 20
9.0818938471
 30
0.0
  0
SPLINE
  5
3B8
100
AcDbEntity
  8
0
100
AcDbSpline
 62
7
  6
CONTINUOUS
 70
0
 71
3
 72
11
 73
7
 74
0
 42
0.0000001
 43
0.0000001
 44
0.0000000001
 40
0.0
 40
0.0
 40
0.0
 40
0.0
 40
0.2897492774
 40
0.5460389192
 40
0.7796344763
 40
1.0
 40
1.0
 40
1.0
 40
1.0
 10
11.21746727
 20
10.1298725722
 30
0.0
 10
11.2173198768
 20
10.1302655487
 30
0.0
 10
11.2170708418
 20
10.1310174246
 30
0.0
 10
11.2168091376
 20
10.1321175214
 30
0.0
 10
11.2166648324
 20
10.1331376051
 30
0.0
 10
11.2166333455
 20
10.1337955355
 30
0.0
 10
11.2166333455
 20
10.1341147401
 30
0.0
  0
SPLINE
  5
3B9
100
AcDbEntity
  8
0
100
AcDbSpline
 62
7
  6
CONTINUOUS
 70
0
 71
3
 72
11
 73
7
 74
0
 42
0.0000001
 43
0.0000001
 44
0.0000000001
 40
0.0
 40
0.0
 40
0.0
 40
0.0
 40
0.2203655244
 40
0.4539610799
 40
0.7102507243
 40
1.0
 40
1.0
 40
1.0
 40
1.0
 10
12.0776333455
 20
10.1341147401
 30
0.0
 10
12.0776333455
 20
10.1337955355
 30
0.0
 10
12.0776018586
 20
10.1331376051
 30
0.0
 10
12.0774575534
 20
10.1321175214
 30
0.0
 10
12.0771958492
 20
10.1310174246
 30
0.0
 10
12.0769468142
 20
10.1302655487
 30
0.0
 10
12.076799421
 20
10.1298725722
 30
0.0
  0
SPLINE
  5
3BA
100
AcDbEntity
  8
0
100
AcDbSpline
 62
7
  6
CONTINUOUS
 70
0
 71
3
 72
50
 73
46
 74
0
 42
0.0000001
 43
0.0000001
 44
0.0000000001
 40
0.0
 40
0.0
 40
0.0
 40
0.0
 40
0.0057940444
 40
0.0118133012
 40
0.0180949137
 40
0.0246707923
 40
0.0315680343
 40
0.038809168
 40
0.0464128131
 40
0.0543939714
 40
0.0627646715
 40
0.0715341833
 40
0.0807095567
 40
0.0902957495
 40
0.1002960479
 40
0.110712136
 40
0.1215444071
 40
0.1327920086
 40
0.1444530581
 40
0.1565246872
 40
0.1690031768
 40
0.1818840157
 40
0.1951619657
 40
0.208831145
 40
0.2373157919
 40
0.2672802406
 40
0.298657941
 40
0.3313753898
 40
0.3653529206
 40
0.4005053791
 40
0.4367427165
 40
0.4739705258
 40
0.5120905366
 40
0.5510010812
 40
0.5905975399
 40
0.6307727714
 40
0.6714175329
 40
0.7124208942
 40
0.7536706433
 40
0.7950536982
 40
0.8364564909
 40
0.8777654243
 40
0.9188671243
 40
0.9596492066
 40
1.0
 40
1.0
 40
1.0
 40
1.0
 10
12.0767994205
 20
10.1298725722
 30
0.0
 10
12.0764159163
 20
10.1288500896
 30
0.0
 10
12.0755351285
 20
10.1268013103
 30
0.0
 10
12.0739207286
 20
10.1237929819
 30
0.0
 10
12.0719923059
 20
10.1207989573
 30
0.0
 10
12.0697519186
 20
10.1178214221
 30
0.0
 10
12.0672013524
 20
10.1148621692
 30
0.0
 10
12.064342696
 20
10.1119229944
 30
0.0
 10
12.0611780226
 20
10.1090058284
 30
0.0
 10
12.0577096955
 20
10.1061125065
 30
0.0
 10
12.053940165
 20
10.1032450324
 30
0.0
 10
12.0498721718
 20
10.1004053052
 30
0.0
 10
12.0455086003
 20
10.0975953613
 30
0.0
 10
12.0408526103
 20
10.0948171336
 30
0.0
 10
12.0359075357
 20
10.0920726525
 30
0.0
 10
12.0306769652
 20
10.0893638551
 30
0.0
 10
12.0251646767
 20
10.0866927373
 30
0.0
 10
12.0193746827
 20
10.0840612177
 30
0.0
 10
12.0133111919
 20
10.0814712384
 30
0.0
 10
12.0069786295
 20
10.0789246839
 30
0.0
 10
12.0003816173
 20
10.0764234284
 30
0.0
 10
11.9935249819
 20
10.073969315
 30
0.0
 10
11.9864137327
 20
10.0715641216
 30
0.0
 10
11.9764624611
 20
10.0683810601
 30
0.0
 10
11.9634192967
 20
10.0645478133
 30
0.0
 10
11.9470467164
 20
10.0602310008
 30
0.0
 10
11.9297932364
 20
10.05614919
 30
0.0
 10
11.9117094711
 20
10.0523144819
 30
0.0
 10
11.892848347
 20
10.0487382644
 30
0.0
 10
11.8732651808
 20
10.0454311492
 30
0.0
 10
11.8530174334
 20
10.0424029477
 30
0.0
 10
11.8321645527
 20
10.03966264
 30
0.0
 10
11.8107677864
 20
10.037218349
 30
0.0
 10
11.7888899985
 20
10.0350773178
 30
0.0
 10
11.7665954802
 20
10.0332458889
 30
0.0
 10
11.7439497581
 20
10.031729486
 30
0.0
 10
11.7210193989
 20
10.0305325989
 30
0.0
 10
11.6978718124
 20
10.0296587707
 30
0.0
 10
11.67457505
 20
10.0291105878
 30
0.0
 10
11.6511976074
 20
10.0288896731
 30
0.0
 10
11.627808211
 20
10.028996679
 30
0.0
 10
11.6044756445
 20
10.0294312917
 30
0.0
 10
11.5812684648
 20
10.0301922208
 30
0.0
 10
11.5582549981
 20
10.0312772174
 30
0.0
 10
11.5429918564
 20
10.0322203204
 30
0.0
 10
11.5354049277
 20
10.0327464757
 30
0.0
  0
SPLINE
  5
3BB
100
AcDbEntity
  8
0
100
AcDbSpline
 62
7
  6
CONTINUOUS
 70
0
 71
3
 72
15
 73
11
 74
0
 42
0.0000001
 43
0.0000001
 44
0.0000000001
 40
0.0
 40
0.0
 40
0.0
 40
0.0
 40
0.1080211785
 40
0.2193204717
 40
0.334817338
 40
0.4553248275
 40
0.5815481723
 40
0.7140890849
 40
0.8534427369
 40
1.0
 40
1.0
 40
1.0
 40
1.0
 10
12.3206145978
 20
8.3110170085
 30
0.0
 10
12.3199042388
 20
8.3109116972
 30
0.0
 10
12.3184722212
 20
8.3106222086
 30
0.0
 10
12.3163413075
 20
8.3099681821
 30
0.0
 10
12.3142025699
 20
8.3090902672
 30
0.0
 10
12.3120578196
 20
8.3079895843
 30
0.0
 10
12.3099082775
 20
8.3066673176
 30
0.0
 10
12.3077552495
 20
8.3051246319
 30
0.0
 10
12.3056002049
 20
8.3033629316
 30
0.0
 10
12.304199284
 20
8.3020766993
 30
0.0
 10
12.3034985071
 20
8.3013998007
 30
0.0
  0
SPLINE
  5
3BC
100
AcDbEntity
  8
0
100
AcDbSpline
 62
7
  6
CONTINUOUS
 70
0
 71
3
 72
84
 73
80
 74
0
 42
0.0000001
 43
0.0000001
 44
0.0000000001
 40
0.0
 40
0.0
 40
0.0
 40
0.0
 40
0.0027164264
 40
0.0054532293
 40
0.008230295
 40
0.0110665896
 40
0.0139797932
 40
0.0169861044
 40
0.0201000661
 40
0.0233345812
 40
0.0267009392
 40
0.0302088856
 40
0.0338668056
 40
0.037681768
 40
0.0416597414
 40
0.0458056718
 40
0.050123593
 40
0.0546167913
 40
0.0592877975
 40
0.0641385717
 40
0.0691704988
 40
0.074384467
 40
0.0797809628
 40
0.0853600226
 40
0.0911213815
 40
0.0970644148
 40
0.1094911534
 40
0.122630387
 40
0.136468035
 40
0.1509868331
 40
0.1661667198
 40
0.1819851503
 40
0.1984173662
 40
0.2154366132
 40
0.2330143274
 40
0.2511202956
 40
0.2697227959
 40
0.2887887406
 40
0.3082838034
 40
0.3281725359
 40
0.3484184777
 40
0.3689842604
 40
0.3898317162
 40
0.4109219843
 40
0.4536719359
 40
0.4969138893
 40
0.5403221212
 40
0.5835693222
 40
0.6263297187
 40
0.6474271304
 40
0.6682829869
 40
0.6888584043
 40
0.7091151927
 40
0.7290159604
 40
0.748524216
 40
0.7676044742
 40
0.7862223676
 40
0.8043447661
 40
0.8219399096
 40
0.838977535
 40
0.8554290199
 40
0.8712675451
 40
0.8864682815
 40
0.9010086172
 40
0.9148684112
 40
0.9280303001
 40
0.9404800906
 40
0.946434749
 40
0.9522077946
 40
0.957798564
 40
0.9632067735
 40
0.9684324641
 40
0.9734760551
 40
0.9783384155
 40
0.983020862
 40
0.9875253935
 40
0.9918546029
 40
0.9960115831
 40
1.0
 40
1.0
 40
1.0
 40
1.0
 10
12.300369345
 20
7.5099640054
 30
0.0
 10
12.2994510881
 20
7.51002769
 30
0.0
 10
12.2976123909
 20
7.5102386719
 30
0.0
 10
12.2948777528
 20
7.5108031887
 30
0.0
 10
12.2921637792
 20
7.5116156852
 30
0.0
 10
12.2894724178
 20
7.5126754004
 30
0.0
 10
12.2868050306
 20
7.5139813303
 30
0.0
 10
12.284163023
 20
7.5155325269
 30
0.0
 10
12.2815475787
 20
7.5173278255
 30
0.0
 10
12.2789598742
 20
7.5193661152
 30
0.0
 10
12.2764010427
 20
7.5216462156
 30
0.0
 10
12.2738721443
 20
7.5241668425
 30
0.0
 10
12.2713743426
 20
7.5269267329
 30
0.0
 10
12.2689086894
 20
7.5299244401
 30
0.0
 10
12.2664763356
 20
7.5331584974
 30
0.0
 10
12.2640784034
 20
7.5366273023
 30
0.0
 10
12.2617159865
 20
7.5403291318
 30
0.0
 10
12.2593902654
 20
7.5442621909
 30
0.0
 10
12.2571023042
 20
7.5484245146
 30
0.0
 10
12.2548532592
 20
7.5528140671
 30
0.0
 10
12.2526442211
 20
7.5574286698
 30
0.0
 10
12.2504762635
 20
7.5622660306
 30
0.0
 10
12.2483505038
 20
7.5673237594
 30
0.0
 10
12.2462679555
 20
7.5725993225
 30
0.0
 10
12.2442296802
 20
7.5780901101
 30
0.0
 10
12.2415321929
 20
7.5858096509
 30
0.0
 10
12.2382883348
 20
7.5959842293
 30
0.0
 10
12.2346435777
 20
7.6088311219
 30
0.0
 10
12.2311983905
 20
7.6224652062
 30
0.0
 10
12.2279597543
 20
7.6368591949
 30
0.0
 10
12.224934253
 20
7.6519844117
 30
0.0
 10
12.2221280358
 20
7.6678105947
 30
0.0
 10
12.2195468131
 20
7.6843060515
 30
0.0
 10
12.2171958391
 20
7.7014377121
 30
0.0
 10
12.2150799011
 20
7.7191712072
 30
0.0
 10
12.2132033097
 20
7.7374709363
 30
0.0
 10
12.2115698818
 20
7.756300143
 30
0.0
 10
12.2101829417
 20
7.7756209937
 30
0.0
 10
12.2090453147
 20
7.7953946596
 30
0.0
 10
12.2081593214
 20
7.8155813953
 30
0.0
 10
12.2075267729
 20
7.836140621
 30
0.0
 10
12.2071489698
 20
7.8570309901
 30
0.0
 10
12.207026666
 20
7.878210528
 30
0.0
 10
12.2072055274
 20
7.906907003
 30
0.0
 10
12.2080733422
 20
7.9431850275
 30
0.0
 10
12.2101185523
 20
7.9869882112
 30
0.0
 10
12.2131561261
 20
8.0309028139
 30
0.0
 10
12.2171616526
 20
8.0745757326
 30
0.0
 10
12.2212974018
 20
8.1106354773
 30
0.0
 10
12.2250717385
 20
8.1390921027
 30
0.0
 10
12.2281094767
 20
8.1600616375
 30
0.0
 10
12.2313605593
 20
8.1807108443
 30
0.0
 10
12.2348184568
 20
8.2009982339
 30
0.0
 10
12.2384761828
 20
8.2208830126
 30
0.0
 10
12.2423263578
 20
8.2403252115
 30
0.0
 10
12.2463612099
 20
8.2592857535
 30
0.0
 10
12.2505725946
 20
8.2777265363
 30
0.0
 10
12.2549520096
 20
8.2956105132
 30
0.0
 10
12.2594906048
 20
8.312901773
 30
0.0
 10
12.264179209
 20
8.3295656126
 30
0.0
 10
12.2690083471
 20
8.3455686074
 30
0.0
 10
12.2739682598
 20
8.3608786808
 30
0.0
 10
12.2790489282
 20
8.3754651842
 30
0.0
 10
12.2842400866
 20
8.38929895
 30
0.0
 10
12.28953126
 20
8.4023524379
 30
0.0
 10
12.2949117788
 20
8.4145995294
 30
0.0
 10
12.2995269124
 20
8.4242514844
 30
0.0
 10
12.3032626238
 20
8.4315432159
 30
0.0
 10
12.3060383546
 20
8.436714072
 30
0.0
 10
12.3088283184
 20
8.4416658134
 30
0.0
 10
12.3116311144
 20
8.4463959921
 30
0.0
 10
12.3144453534
 20
8.4509022498
 30
0.0
 10
12.3172696517
 20
8.4551823321
 30
0.0
 10
12.3201025569
 20
8.4592341295
 30
0.0
 10
12.3229427337
 20
8.4630556217
 30
0.0
 10
12.3257887855
 20
8.4666449704
 30
0.0
 10
12.3286393985
 20
8.4700004145
 30
0.0
 10
12.3314930321
 20
8.4731201322
 30
0.0
 10
12.3334360799
 20
8.4750817131
 30
0.0
 10
12.3344081361
 20
8.4760206474
 30
0.0
  0
SPLINE
  5
3BD
100
AcDbEntity
  8
0
100
AcDbSpline
 62
7
  6
CONTINUOUS
 70
0
 71
3
 72
70
 73
66
 74
0
 42
0.0000001
 43
0.0000001
 44
0.0000000001
 40
0.0
 40
0.0
 40
0.0
 40
0.0
 40
0.0027657329
 40
0.0055963377
 40
0.0085080594
 40
0.0115156589
 40
0.0146323501
 40
0.0178698513
 40
0.0212383576
 40
0.0247466903
 40
0.0284024454
 40
0.0322120096
 40
0.0361807739
 40
0.0403132481
 40
0.0446130622
 40
0.0490831787
 40
0.0537259363
 40
0.0585430444
 40
0.0687041689
 40
0.079572281
 40
0.0911463601
 40
0.1034205531
 40
0.1163849376
 40
0.1300261924
 40
0.1443280293
 40
0.1592714914
 40
0.1748353232
 40
0.1909962143
 40
0.2077289311
 40
0.2250065313
 40
0.2428005495
 40
0.2610810846
 40
0.2798169169
 40
0.2989756756
 40
0.3185239237
 40
0.3384272261
 40
0.3791563398
 40
0.4208728712
 40
0.4632765028
 40
0.5060605086
 40
0.5489146585
 40
0.591528074
 40
0.633592091
 40
0.6748031441
 40
0.7148656816
 40
0.7343772283
 40
0.7534959747
 40
0.7721885779
 40
0.7904227494
 40
0.808167417
 40
0.8253928268
 40
0.8420706253
 40
0.858174034
 40
0.8736780356
 40
0.8885594831
 40
0.9027973139
 40
0.9163728668
 40
0.9292701148
 40
0.9414760099
 40
0.9529810281
 40
0.9637797944
 40
0.9738717332
 40
0.9832621959
 40
0.9919645074
 40
1.0
 40
1.0
 40
1.0
 40
1.0
 10
12.2779236876
 20
7.6954269165
 30
0.0
 10
12.2773627329
 20
7.6955916569
 30
0.0
 10
12.2762413559
 20
7.6959735011
 30
0.0
 10
12.2745897084
 20
7.6966897761
 30
0.0
 10
12.2729527616
 20
7.6975546542
 30
0.0
 10
12.2713314371
 20
7.6985674411
 30
0.0
 10
12.26972638
 20
7.6997274724
 30
0.0
 10
12.268138322
 20
7.7010341136
 30
0.0
 10
12.2665678967
 20
7.7024866173
 30
0.0
 10
12.2650157523
 20
7.7040842301
 30
0.0
 10
12.2634825867
 20
7.7058261941
 30
0.0
 10
12.2619690245
 20
7.7077116306
 30
0.0
 10
12.2604757347
 20
7.7097396443
 30
0.0
 10
12.2590034186
 20
7.7119092923
 30
0.0
 10
12.2575527034
 20
7.7142195196
 30
0.0
 10
12.2561242784
 20
7.7166692412
 30
0.0
 10
12.2547188077
 20
7.7192573096
 30
0.0
 10
12.252842853
 20
7.7229569949
 30
0.0
 10
12.2505675142
 20
7.7279269821
 30
0.0
 10
12.2479855718
 20
7.7343191666
 30
0.0
 10
12.245510459
 20
7.7412296913
 30
0.0
 10
12.2431469292
 20
7.7486453627
 30
0.0
 10
12.240899524
 20
7.7565521564
 30
0.0
 10
12.2387726195
 20
7.7649349776
 30
0.0
 10
12.2367703772
 20
7.7737777823
 30
0.0
 10
12.2348966925
 20
7.7830635826
 30
0.0
 10
12.2331552297
 20
7.7927745115
 30
0.0
 10
12.2315494123
 20
7.8028918616
 30
0.0
 10
12.2300823753
 20
7.8133961153
 30
0.0
 10
12.2287569826
 20
7.8242669921
 30
0.0
 10
12.2275758394
 20
7.8354834972
 30
0.0
 10
12.2265412615
 20
7.8470239561
 30
0.0
 10
12.2256552608
 20
7.8588660586
 30
0.0
 10
12.2249195818
 20
7.8709869033
 30
0.0
 10
12.2243356591
 20
7.8833630703
 30
0.0
 10
12.2237566067
 20
7.9003028607
 30
0.0
 10
12.2234267189
 20
7.9219381234
 30
0.0
 10
12.2236486144
 20
7.9483312039
 30
0.0
 10
12.2244840024
 20
7.9751465786
 30
0.0
 10
12.2259265053
 20
8.0021768927
 30
0.0
 10
12.2279650722
 20
8.0292132691
 30
0.0
 10
12.2305838991
 20
8.0560467299
 30
0.0
 10
12.2337626474
 20
8.0824699491
 30
0.0
 10
12.2374766005
 20
8.1082786364
 30
0.0
 10
12.2410237692
 20
8.1292886342
 30
0.0
 10
12.2441151255
 20
8.1456340741
 30
0.0
 10
12.2465279358
 20
8.157509249
 30
0.0
 10
12.2490506553
 20
8.1690853581
 30
0.0
 10
12.2516784212
 20
8.1803400338
 30
0.0
 10
12.2544061167
 20
8.1912515217
 30
0.0
 10
12.2572284337
 20
8.2017987463
 30
0.0
 10
12.2601398943
 20
8.2119613364
 30
0.0
 10
12.2631348444
 20
8.2217196784
 30
0.0
 10
12.2662074478
 20
8.2310549637
 30
0.0
 10
12.2693517338
 20
8.2399492124
 30
0.0
 10
12.2725616084
 20
8.2483853151
 30
0.0
 10
12.2758308272
 20
8.2563470921
 30
0.0
 10
12.2791530522
 20
8.2638193153
 30
0.0
 10
12.2825218868
 20
8.2707877371
 30
0.0
 10
12.2859308525
 20
8.277239161
 30
0.0
 10
12.289373474
 20
8.2831614745
 30
0.0
 10
12.2928432736
 20
8.2885435993
 30
0.0
 10
12.2963340774
 20
8.2933758546
 30
0.0
 10
12.2998393868
 20
8.2976489592
 30
0.0
 10
12.302276772
 20
8.3002196952
 30
0.0
 10
12.3034985071
 20
8.3013998007
 30
0.0
  0
SPLINE
  5
3BE
100
AcDbEntity
  8
0
100
AcDbSpline
 62
7
  6
CONTINUOUS
 70
0
 71
3
 72
15
 73
11
 74
0
 42
0.0000001
 43
0.0000001
 44
0.0000000001
 40
0.0
 40
0.0
 40
0.0
 40
0.0
 40
0.1265900298
 40
0.2527049743
 40
0.3783427108
 40
0.5035188411
 40
0.6282477624
 40
0.7525520016
 40
0.8764586557
 40
1.0
 40
1.0
 40
1.0
 40
1.0
 10
10.8402295166
 20
6.6556527284
 30
0.0
 10
10.8446975433
 20
6.6553428697
 30
0.0
 10
10.8536355688
 20
6.6549663226
 30
0.0
 10
10.867026694
 20
6.6551361715
 30
0.0
 10
10.8803386163
 20
6.6560413268
 30
0.0
 10
10.8935309533
 20
6.657679013
 30
0.0
 10
10.9065645301
 20
6.6600444806
 30
0.0
 10
10.9194004797
 20
6.6631307262
 30
0.0
 10
10.9319999529
 20
6.666928391
 30
0.0
 10
10.9402294883
 20
6.6699315868
 30
0.0
 10
10.9442907206
 20
6.6715474831
 30
0.0
  0
SPLINE
  5
3BF
100
AcDbEntity
  8
0
100
AcDbSpline
 62
7
  6
CONTINUOUS
 70
0
 71
3
 72
46
 73
42
 74
0
 42
0.0000001
 43
0.0000001
 44
0.0000000001
 40
0.0
 40
0.0
 40
0.0
 40
0.0
 40
0.031143804
 40
0.0624406641
 40
0.0938846266
 40
0.1254660369
 40
0.1571726773
 40
0.188989797
 40
0.2209004514
 40
0.2528858567
 40
0.2849257707
 40
0.3169988946
 40
0.3490832879
 40
0.3811567922
 40
0.4131974593
 40
0.4451839758
 40
0.4770960786
 40
0.5089149549
 40
0.5406236259
 40
0.5722072995
 40
0.6036536882
 40
0.6349532936
 40
0.6660996371
 40
0.6970894354
 40
0.727922722
 40
0.7586028953
 40
0.7891366922
 40
0.8043544294
 40
0.8195395762
 40
0.8346938584
 40
0.8498191748
 40
0.8649175902
 40
0.8799913269
 40
0.8950427481
 40
0.9100743467
 40
0.9250887336
 40
0.940088619
 40
0.9550767983
 40
0.9700561375
 40
0.9850295542
 40
1.0
 40
1.0
 40
1.0
 40
1.0
 10
10.6740678266
 20
6.2657454538
 30
0.0
 10
10.6624630193
 20
6.2665502499
 30
0.0
 10
10.6392466458
 20
6.2690132269
 30
0.0
 10
10.6047035627
 20
6.2752175205
 30
0.0
 10
10.5705304639
 20
6.2839078623
 30
0.0
 10
10.5369119208
 20
6.2950375609
 30
0.0
 10
10.5040265238
 20
6.3085469363
 30
0.0
 10
10.4720496919
 20
6.3243637047
 30
0.0
 10
10.441151793
 20
6.3424033941
 30
0.0
 10
10.4114974517
 20
6.362569647
 30
0.0
 10
10.3832446545
 20
6.3847548472
 30
0.0
 10
10.3565439774
 20
6.4088407134
 30
0.0
 10
10.3315376882
 20
6.4346988046
 30
0.0
 10
10.3083590543
 20
6.4621912832
 30
0.0
 10
10.2871316943
 20
6.4911716726
 30
0.0
 10
10.2679688063
 20
6.521485531
 30
0.0
 10
10.2509726252
 20
6.5529713261
 30
0.0
 10
10.2362339553
 20
6.5854613138
 30
0.0
 10
10.2238315562
 20
6.6187823489
 30
0.0
 10
10.2138317689
 20
6.652756835
 30
0.0
 10
10.2062882545
 20
6.6872036807
 30
0.0
 10
10.201241562
 20
6.7219391971
 30
0.0
 10
10.1987189466
 20
6.7567781287
 30
0.0
 10
10.1987342773
 20
6.7915344863
 30
0.0
 10
10.2012879878
 20
6.8260230576
 30
0.0
 10
10.2063664158
 20
6.8600583852
 30
0.0
 10
10.2126887472
 20
6.8879281684
 30
0.0
 10
10.218977281
 20
6.9098076438
 30
0.0
 10
10.2242967305
 20
6.9259756347
 30
0.0
 10
10.230216821
 20
6.9418964297
 30
0.0
 10
10.23672976
 20
6.9575490441
 30
0.0
 10
10.2438268316
 20
6.972912483
 30
0.0
 10
10.2514985284
 20
6.9879662584
 30
0.0
 10
10.2597346593
 20
7.0026902227
 30
0.0
 10
10.2685242133
 20
7.0170647062
 30
0.0
 10
10.2778554179
 20
7.0310705201
 30
0.0
 10
10.2877158642
 20
7.0446889191
 30
0.0
 10
10.2980923459
 20
7.0579016957
 30
0.0
 10
10.308971037
 20
7.0706912804
 30
0.0
 10
10.3203372086
 20
7.0830403047
 30
0.0
 10
10.3282303647
 20
7.090969142
 30
0.0
 10
10.3322522095
 20
7.0948539496
 30
0.0
  0
SPLINE
  5
3C0
100
AcDbEntity
  8
0
100
AcDbSpline
 62
7
  6
CONTINUOUS
 70
0
 71
3
 72
41
 73
37
 74
0
 42
0.0000001
 43
0.0000001
 44
0.0000000001
 40
0.0
 40
0.0
 40
0.0
 40
0.0
 40
0.0309429352
 40
0.0620184782
 40
0.09322205
 40
0.124547538
 40
0.1559866986
 40
0.1875296811
 40
0.219165039
 40
0.2508799692
 40
0.2826604926
 40
0.3144916721
 40
0.3463578334
 40
0.3782427955
 40
0.4101301054
 40
0.4420032763
 40
0.4738460258
 40
0.5056425116
 40
0.5373775641
 40
0.5690369103
 40
0.6006073895
 40
0.6320771565
 40
0.6634358704
 40
0.6946748647
 40
0.7257872981
 40
0.7567682812
 40
0.7876149769
 40
0.8183266714
 40
0.8489048137
 40
0.8641468353
 40
0.8793570074
 40
0.9096810314
 40
0.9398886934
 40
0.9549539291
 40
0.9699939012
 40
1.0
 40
1.0
 40
1.0
 40
1.0
 10
10.8410963953
 20
8.721156645
 30
0.0
 10
10.8361577136
 20
8.7214991437
 30
0.0
 10
10.8262780994
 20
8.7224981949
 30
0.0
 10
10.8115527149
 20
8.7249228331
 30
0.0
 10
10.7969453138
 20
8.7282672207
 30
0.0
 10
10.7825150617
 20
8.7325178209
 30
0.0
 10
10.7683193845
 20
8.7376576147
 30
0.0
 10
10.7544150493
 20
8.7436659811
 30
0.0
 10
10.7408575739
 20
8.7505188663
 30
0.0
 10
10.7277011073
 20
8.7581888421
 30
0.0
 10
10.714998189
 20
8.7666452312
 30
0.0
 10
10.7027995482
 20
8.7758542234
 30
0.0
 10
10.6911539009
 20
8.7857790119
 30
0.0
 10
10.680107758
 20
8.7963799395
 30
0.0
 10
10.6697052402
 20
8.8076146554
 30
0.0
 10
10.6599879036
 20
8.8194382839
 30
0.0
 10
10.650994575
 20
8.8318036015
 30
0.0
 10
10.6427611974
 20
8.844661225
 30
0.0
 10
10.6353206874
 20
8.8579598061
 30
0.0
 10
10.6287028044
 20
8.8716462354
 30
0.0
 10
10.6229340321
 20
8.8856658524
 30
0.0
 10
10.6180374725
 20
8.8999626614
 30
0.0
 10
10.6140327536
 20
8.9144795539
 30
0.0
 10
10.6109359499
 20
8.929158531
 30
0.0
 10
10.6087595187
 20
8.9439409454
 30
0.0
 10
10.6075122417
 20
8.9587676875
 30
0.0
 10
10.6071992144
 20
8.9735795879
 30
0.0
 10
10.6078217246
 20
8.9883170291
 30
0.0
 10
10.6091197097
 20
9.0005015393
 30
0.0
 10
10.610622794
 20
9.0101508547
 30
0.0
 10
10.6124296873
 20
9.0197065617
 30
0.0
 10
10.6152603348
 20
9.031498604
 30
0.0
 10
10.6188503348
 20
9.043057926
 30
0.0
 10
10.6221658607
 20
9.0521215867
 30
0.0
 10
10.6257673173
 20
9.0610402966
 30
0.0
 10
10.6287981984
 20
9.0675866297
 30
0.0
 10
10.630959818
 20
9.071873089
 30
0.0
  0
SPLINE
  5
3C1
100
AcDbEntity
  8
0
100
AcDbSpline
 62
7
  6
CONTINUOUS
 70
0
 71
3
 72
40
 73
36
 74
0
 42
0.0000001
 43
0.0000001
 44
0.0000000001
 40
0.0
 40
0.0
 40
0.0
 40
0.0
 40
0.0309089969
 40
0.0619472981
 40
0.0931103935
 40
0.1243927704
 40
0.1557866822
 40
0.1872829905
 40
0.2188710212
 40
0.2505388319
 40
0.2822733548
 40
0.3140605971
 40
0.3458858358
 40
0.3777338249
 40
0.4095890056
 40
0.4414357207
 40
0.4732584288
 40
0.5050419184
 40
0.5367715184
 40
0.5684333033
 40
0.6000142911
 40
0.6315026319
 40
0.6628877842
 40
0.694160677
 40
0.7253138554
 40
0.7563416063
 40
0.7872400635
 40
0.8180072873
 40
0.8486433183
 40
0.8791502024
 40
0.9095319843
 40
0.9397946696
 40
0.9548856846
 40
0.9699500374
 40
1.0
 40
1.0
 40
1.0
 40
1.0
 10
10.8402295166
 20
8.7082452309
 30
0.0
 10
10.8351681459
 20
8.7085962381
 30
0.0
 10
10.8250431872
 20
8.7096118789
 30
0.0
 10
10.8099481008
 20
8.7120605121
 30
0.0
 10
10.7949678548
 20
8.7154284024
 30
0.0
 10
10.7801600975
 20
8.7197025702
 30
0.0
 10
10.765580787
 20
8.724866787
 30
0.0
 10
10.7512853064
 20
8.7309013601
 30
0.0
 10
10.7373278712
 20
8.7377833499
 30
0.0
 10
10.7237614325
 20
8.7454865903
 30
0.0
 10
10.7106374503
 20
8.7539818174
 30
0.0
 10
10.6980057066
 20
8.7632367678
 30
0.0
 10
10.6859141167
 20
8.773216306
 30
0.0
 10
10.6744085491
 20
8.7838825544
 30
0.0
 10
10.6635326534
 20
8.7951950376
 30
0.0
 10
10.6533276952
 20
8.8071108341
 30
0.0
 10
10.643832401
 20
8.8195847383
 30
0.0
 10
10.6350828121
 20
8.8325694311
 30
0.0
 10
10.6271121487
 20
8.8460156572
 30
0.0
 10
10.6199506846
 20
8.8598724111
 30
0.0
 10
10.6136256315
 20
8.8740871286
 30
0.0
 10
10.6081610372
 20
8.8886058843
 30
0.0
 10
10.6035776934
 20
8.9033735948
 30
0.0
 10
10.5998930574
 20
8.9183342257
 30
0.0
 10
10.5971211843
 20
8.9334310017
 30
0.0
 10
10.5952726731
 20
8.9486066211
 30
0.0
 10
10.5943546239
 20
8.9638034682
 30
0.0
 10
10.5943706121
 20
8.9789638409
 30
0.0
 10
10.5953206595
 20
8.9940301275
 30
0.0
 10
10.5972012805
 20
9.0089451775
 30
0.0
 10
10.6000053076
 20
9.0236519479
 30
0.0
 10
10.6031060067
 20
9.0357000047
 30
0.0
 10
10.6060364613
 20
9.0451760312
 30
0.0
 10
10.6092579505
 20
9.0545198251
 30
0.0
 10
10.6120092623
 20
9.0614023052
 30
0.0
 10
10.6139879444
 20
9.065920556
 30
0.0
  0
SPLINE
  5
3C2
100
AcDbEntity
  8
0
100
AcDbSpline
 62
7
  6
CONTINUOUS
 70
0
 71
3
 72
25
 73
21
 74
0
 42
0.0000001
 43
0.0000001
 44
0.0000000001
 40
0.0
 40
0.0
 40
0.0
 40
0.0
 40
0.0616475256
 40
0.0924812752
 40
0.1233236417
 40
0.1850399904
 40
0.2468243943
 40
0.277751631
 40
0.3087038637
 40
0.3706878925
 40
0.4328012858
 40
0.495061923
 40
0.5574860832
 40
0.6200882745
 40
0.682881117
 40
0.745875147
 40
0.8090789725
 40
0.8724984981
 40
0.9361386362
 40
1.0
 40
1.0
 40
1.0
 40
1.0
 10
11.0158834437
 20
6.3871080273
 30
0.0
 10
11.0103621865
 20
6.381774897
 30
0.0
 10
11.0018618949
 20
6.3739949958
 30
0.0
 10
10.9901242677
 20
6.3640912651
 30
0.0
 10
10.9781178979
 20
6.3545007506
 30
0.0
 10
10.9626229038
 20
6.3431145945
 30
0.0
 10
10.9465312392
 20
6.3325692642
 30
0.0
 10
10.9333225336
 20
6.324651058
 30
0.0
 10
10.9198856663
 20
6.3170758421
 30
0.0
 10
10.9026929881
 20
6.308269724
 30
0.0
 10
10.8814973561
 20
6.2987973838
 30
0.0
 10
10.8597795862
 20
6.290438088
 30
0.0
 10
10.8375947588
 20
6.2832130454
 30
0.0
 10
10.8149986603
 20
6.2771403373
 30
0.0
 10
10.7920482363
 20
6.2722352186
 30
0.0
 10
10.7688012492
 20
6.268509955
 30
0.0
 10
10.7453163184
 20
6.2659738981
 30
0.0
 10
10.7216522861
 20
6.2646333126
 30
0.0
 10
10.6978695734
 20
6.2644915488
 30
0.0
 10
10.6820008041
 20
6.2651952999
 30
0.0
 10
10.6740678266
 20
6.2657454538
 30
0.0
  0
SPLINE
  5
3C3
100
AcDbEntity
  8
0
100
AcDbSpline
 62
7
  6
CONTINUOUS
 70
0
 71
3
 72
46
 73
42
 74
0
 42
0.0000001
 43
0.0000001
 44
0.0000000001
 40
0.0
 40
0.0
 40
0.0
 40
0.0
 40
0.031143804
 40
0.0624406641
 40
0.0938846266
 40
0.1254660369
 40
0.1571726773
 40
0.188989797
 40
0.2209004514
 40
0.2528858567
 40
0.2849257707
 40
0.3169988946
 40
0.3490832879
 40
0.3811567922
 40
0.4131974593
 40
0.4451839758
 40
0.4770960786
 40
0.5089149549
 40
0.5406236259
 40
0.5722072995
 40
0.6036536882
 40
0.6349532936
 40
0.6660996371
 40
0.6970894354
 40
0.727922722
 40
0.7586028953
 40
0.7891366922
 40
0.8043544294
 40
0.8195395762
 40
0.8346938584
 40
0.8498191748
 40
0.8649175902
 40
0.8799913269
 40
0.8950427481
 40
0.9100743467
 40
0.9250887336
 40
0.940088619
 40
0.9550767983
 40
0.9700561375
 40
0.9850295542
 40
1.0
 40
1.0
 40
1.0
 40
1.0
 10
10.6740678266
 20
8.3183379563
 30
0.0
 10
10.6624630193
 20
8.3191427524
 30
0.0
 10
10.6392466458
 20
8.3216057294
 30
0.0
 10
10.6047035627
 20
8.327810023
 30
0.0
 10
10.5705304639
 20
8.3365003648
 30
0.0
 10
10.5369119208
 20
8.3476300634
 30
0.0
 10
10.5040265238
 20
8.3611394387
 30
0.0
 10
10.4720496919
 20
8.3769562072
 30
0.0
 10
10.441151793
 20
8.3949958965
 30
0.0
 10
10.4114974517
 20
8.4151621494
 30
0.0
 10
10.3832446545
 20
8.4373473497
 30
0.0
 10
10.3565439774
 20
8.4614332159
 30
0.0
 10
10.3315376882
 20
8.4872913071
 30
0.0
 10
10.3083590543
 20
8.5147837857
 30
0.0
 10
10.2871316943
 20
8.5437641751
 30
0.0
 10
10.2679688063
 20
8.5740780335
 30
0.0
 10
10.2509726252
 20
8.6055638286
 30
0.0
 10
10.2362339553
 20
8.6380538162
 30
0.0
 10
10.2238315562
 20
8.6713748514
 30
0.0
 10
10.2138317689
 20
8.7053493374
 30
0.0
 10
10.2062882545
 20
8.7397961832
 30
0.0
 10
10.201241562
 20
8.7745316995
 30
0.0
 10
10.1987189466
 20
8.8093706312
 30
0.0
 10
10.1987342773
 20
8.8441269888
 30
0.0
 10
10.2012879878
 20
8.8786155601
 30
0.0
 10
10.2063664158
 20
8.9126508877
 30
0.0
 10
10.2126887472
 20
8.9405206709
 30
0.0
 10
10.218977281
 20
8.9624001463
 30
0.0
 10
10.2242967305
 20
8.9785681372
 30
0.0
 10
10.230216821
 20
8.9944889322
 30
0.0
 10
10.23672976
 20
9.0101415466
 30
0.0
 10
10.2438268316
 20
9.0255049855
 30
0.0
 10
10.2514985284
 20
9.0405587609
 30
0.0
 10
10.2597346593
 20
9.0552827252
 30
0.0
 10
10.2685242133
 20
9.0696572087
 30
0.0
 10
10.2778554179
 20
9.0836630226
 30
0.0
 10
10.2877158642
 20
9.0972814216
 30
0.0
 10
10.2980923459
 20
9.1104941981
 30
0.0
 10
10.308971037
 20
9.1232837829
 30
0.0
 10
10.3203372086
 20
9.1356328072
 30
0.0
 10
10.3282303647
 20
9.1435616445
 30
0.0
 10
10.3322522095
 20
9.1474464521
 30
0.0
  0
SPLINE
  5
3C4
100
AcDbEntity
  8
0
100
AcDbSpline
 62
7
  6
CONTINUOUS
 70
0
 71
3
 72
15
 73
11
 74
0
 42
0.0000001
 43
0.0000001
 44
0.0000000001
 40
0.0
 40
0.0
 40
0.0
 40
0.0
 40
0.1265900298
 40
0.2527049743
 40
0.3783427108
 40
0.5035188411
 40
0.6282477624
 40
0.7525520016
 40
0.8764586557
 40
1.0
 40
1.0
 40
1.0
 40
1.0
 10
10.8402295166
 20
8.7082452309
 30
0.0
 10
10.8446975433
 20
8.7079353721
 30
0.0
 10
10.8536355688
 20
8.7075588251
 30
0.0
 10
10.867026694
 20
8.707728674
 30
0.0
 10
10.8803386163
 20
8.7086338293
 30
0.0
 10
10.8935309533
 20
8.7102715155
 30
0.0
 10
10.9065645301
 20
8.712636983
 30
0.0
 10
10.9194004797
 20
8.7157232287
 30
0.0
 10
10.9319999529
 20
8.7195208935
 30
0.0
 10
10.9402294883
 20
8.7225240893
 30
0.0
 10
10.9442907206
 20
8.7241399856
 30
0.0
  0
SPLINE
  5
3C5
100
AcDbEntity
  8
0
100
AcDbSpline
 62
7
  6
CONTINUOUS
 70
0
 71
3
 72
15
 73
11
 74
0
 42
0.0000001
 43
0.0000001
 44
0.0000000001
 40
0.0
 40
0.0
 40
0.0
 40
0.0
 40
0.1232681434
 40
0.2468879269
 40
0.3709466146
 40
0.4955202263
 40
0.6206715925
 40
0.74644966
 40
0.8728859006
 40
1.0
 40
1.0
 40
1.0
 40
1.0
 10
10.9610800888
 20
6.7299285425
 30
0.0
 10
10.9568048466
 20
6.7271956419
 30
0.0
 10
10.948012655
 20
6.722072032
 30
0.0
 10
10.9342213639
 20
6.7154808553
 30
0.0
 10
10.9198895733
 20
6.7100113437
 30
0.0
 10
10.9051037016
 20
6.705696561
 30
0.0
 10
10.8899514553
 20
6.7025617203
 30
0.0
 10
10.8745227085
 20
6.7006253419
 30
0.0
 10
10.8589102286
 20
6.6998985118
 30
0.0
 10
10.8484661237
 20
6.7002224504
 30
0.0
 10
10.8432462545
 20
6.7005844495
 30
0.0
  0
SPLINE
  5
3C6
100
AcDbEntity
  8
0
100
AcDbSpline
 62
7
  6
CONTINUOUS
 70
0
 71
3
 72
24
 73
20
 74
0
 42
0.0000001
 43
0.0000001
 44
0.0000000001
 40
0.0
 40
0.0
 40
0.0
 40
0.0
 40
0.0638368634
 40
0.1274599253
 40
0.1908687675
 40
0.2540684534
 40
0.3170640436
 40
0.3798634056
 40
0.4424760722
 40
0.5049135053
 40
0.5671889089
 40
0.6293171286
 40
0.6913145111
 40
0.7531987453
 40
0.8149886883
 40
0.8767041753
 40
0.9075430196
 40
0.9383710307
 40
1.0
 40
1.0
 40
1.0
 40
1.0
 10
10.6823500294
 20
8.3263379503
 30
0.0
 10
10.6900357389
 20
8.3258049446
 30
0.0
 10
10.705409767
 20
8.3251111772
 30
0.0
 10
10.7284533966
 20
8.3251941948
 30
0.0
 10
10.7513891224
 20
8.3264024482
 30
0.0
 10
10.774161923
 20
8.328733041
 30
0.0
 10
10.7967183
 20
8.3321806125
 30
0.0
 10
10.8190048545
 20
8.3367370204
 30
0.0
 10
10.8409689458
 20
8.3423915779
 30
0.0
 10
10.8625586484
 20
8.3491309699
 30
0.0
 10
10.8837229232
 20
8.3569393175
 30
0.0
 10
10.9044117369
 20
8.3657982072
 30
0.0
 10
10.9245761484
 20
8.3756867193
 30
0.0
 10
10.9441685502
 20
8.3865815689
 30
0.0
 10
10.9631423146
 20
8.398456809
 30
0.0
 10
10.9784055537
 20
8.4091497929
 30
0.0
 10
10.9902598045
 20
8.4181634896
 30
0.0
 10
11.001867322
 20
8.4274755904
 30
0.0
 10
11.0102966802
 20
8.4347967605
 30
0.0
 10
11.0157831606
 20
8.4398185181
 30
0.0
  0
SPLINE
  5
3C7
100
AcDbEntity
  8
0
100
AcDbSpline
 62
7
  6
CONTINUOUS
 70
0
 71
3
 72
39
 73
35
 74
0
 42
0.0000001
 43
0.0000001
 44
0.0000000001
 40
0.0
 40
0.0
 40
0.0
 40
0.0
 40
0.0311300174
 40
0.0624114226
 40
0.0938384848
 40
0.1254017999
 40
0.1570895281
 40
0.1888873476
 40
0.2207787978
 40
0.2527456175
 40
0.2847681041
 40
0.3168254981
 40
0.3488963804
 40
0.380959077
 40
0.4129920685
 40
0.4449743964
 40
0.4768860634
 40
0.5087084208
 40
0.5404245351
 40
0.572019531
 40
0.6034809074
 40
0.6347988115
 40
0.6659662695
 40
0.6969793704
 40
0.7278373933
 40
0.7585428669
 40
0.7891015643
 40
0.8195224301
 40
0.8498174268
 40
0.8800013077
 40
0.910091322
 40
0.9401068488
 40
0.9700689707
 40
1.0
 40
1.0
 40
1.0
 40
1.0
 10
10.6823500294
 20
8.3263379503
 30
0.0
 10
10.6708699181
 20
8.3271340988
 30
0.0
 10
10.6479031494
 20
8.329561496
 30
0.0
 10
10.6137264165
 20
8.3356592018
 30
0.0
 10
10.5799079044
 20
8.3441907513
 30
0.0
 10
10.5466263692
 20
8.3551112881
 30
0.0
 10
10.514054869
 20
8.36836353
 30
0.0
 10
10.4823634429
 20
8.3838780596
 30
0.0
 10
10.4517173263
 20
8.4015737507
 30
0.0
 10
10.4222763653
 20
8.4213581576
 30
0.0
 10
10.3941940623
 20
8.4431279222
 30
0.0
 10
10.3676168596
 20
8.4667694028
 30
0.0
 10
10.3426833966
 20
8.4921592634
 30
0.0
 10
10.3195237327
 20
8.5191650415
 30
0.0
 10
10.298258688
 20
8.5476458625
 30
0.0
 10
10.2789992724
 20
8.5774532061
 30
0.0
 10
10.2618460889
 20
8.6084316433
 30
0.0
 10
10.2468887361
 20
8.6404196011
 30
0.0
 10
10.2342054345
 20
8.6732502534
 30
0.0
 10
10.2238626312
 20
8.706752369
 30
0.0
 10
10.2159145544
 20
8.7407511592
 30
0.0
 10
10.2104029684
 20
8.7750692037
 30
0.0
 10
10.2073570076
 20
8.8095273701
 30
0.0
 10
10.2067929689
 20
8.8439457207
 30
0.0
 10
10.2087141417
 20
8.8781444479
 30
0.0
 10
10.2131108838
 20
8.9119448129
 30
0.0
 10
10.2199606521
 20
8.945170057
 30
0.0
 10
10.2292279926
 20
8.9776463494
 30
0.0
 10
10.2408647595
 20
9.0092036847
 30
0.0
 10
10.2548104482
 20
9.0396768176
 30
0.0
 10
10.270992222
 20
9.0689059376
 30
0.0
 10
10.2893260268
 20
9.0967383754
 30
0.0
 10
10.309714181
 20
9.1230263536
 30
0.0
 10
10.3246131834
 20
9.1394391173
 30
0.0
 10
10.3323618689
 20
9.1473372285
 30
0.0
  0
SPLINE
  5
3C8
100
AcDbEntity
  8
0
100
AcDbSpline
 62
7
  6
CONTINUOUS
 70
0
 71
3
 72
25
 73
21
 74
0
 42
0.0000001
 43
0.0000001
 44
0.0000000001
 40
0.0
 40
0.0
 40
0.0
 40
0.0
 40
0.0616475256
 40
0.0924812752
 40
0.1233236417
 40
0.1850399904
 40
0.2468243943
 40
0.277751631
 40
0.3087038637
 40
0.3706878925
 40
0.4328012858
 40
0.495061923
 40
0.5574860832
 40
0.6200882745
 40
0.682881117
 40
0.745875147
 40
0.8090789725
 40
0.8724984981
 40
0.9361386362
 40
1.0
 40
1.0
 40
1.0
 40
1.0
 10
11.0158834437
 20
8.4397005298
 30
0.0
 10
11.0103621865
 20
8.4343673995
 30
0.0
 10
11.0018618949
 20
8.4265874983
 30
0.0
 10
10.9901242677
 20
8.4166837676
 30
0.0
 10
10.9781178979
 20
8.4070932531
 30
0.0
 10
10.9626229038
 20
8.3957070969
 30
0.0
 10
10.9465312392
 20
8.3851617666
 30
0.0
 10
10.9333225336
 20
8.3772435605
 30
0.0
 10
10.9198856663
 20
8.3696683446
 30
0.0
 10
10.9026929881
 20
8.3608622265
 30
0.0
 10
10.8814973561
 20
8.3513898863
 30
0.0
 10
10.8597795862
 20
8.3430305905
 30
0.0
 10
10.8375947588
 20
8.3358055479
 30
0.0
 10
10.8149986603
 20
8.3297328398
 30
0.0
 10
10.7920482363
 20
8.324827721
 30
0.0
 10
10.7688012492
 20
8.3211024575
 30
0.0
 10
10.7453163184
 20
8.3185664006
 30
0.0
 10
10.7216522861
 20
8.317225815
 30
0.0
 10
10.6978695734
 20
8.3170840513
 30
0.0
 10
10.6820008041
 20
8.3177878024
 30
0.0
 10
10.6740678266
 20
8.3183379563
 30
0.0
  0
SPLINE
  5
3C9
100
AcDbEntity
  8
0
100
AcDbSpline
 62
7
  6
CONTINUOUS
 70
0
 71
3
 72
61
 73
57
 74
0
 42
0.0000001
 43
0.0000001
 44
0.0000000001
 40
0.0
 40
0.0
 40
0.0
 40
0.0
 40
0.0156667955
 40
0.0313831731
 40
0.047146733
 40
0.0629570608
 40
0.0788122545
 40
0.0947102598
 40
0.1106487439
 40
0.1266249966
 40
0.1586710818
 40
0.1908291298
 40
0.2230687126
 40
0.2553569314
 40
0.287659416
 40
0.3199413697
 40
0.3521686127
 40
0.3843086165
 40
0.4163315072
 40
0.4482109982
 40
0.4640938102
 40
0.4799330073
 40
0.49572668
 40
0.511473286
 40
0.5271716618
 40
0.5428210341
 40
0.5584210361
 40
0.573971712
 40
0.5894735165
 40
0.6049273175
 40
0.620334396
 40
0.6356964357
 40
0.651015509
 40
0.6662940667
 40
0.6815349205
 40
0.696741217
 40
0.7119164109
 40
0.7270642407
 40
0.7421886945
 40
0.7572939729
 40
0.7723844512
 40
0.7874646432
 40
0.8025391581
 40
0.8176126563
 40
0.832689807
 40
0.8477752469
 40
0.8628735369
 40
0.8779891176
 40
0.8931262698
 40
0.9082890789
 40
0.9234813965
 40
0.9387068046
 40
0.9539685857
 40
0.969269703
 40
0.9846127671
 40
1.0
 40
1.0
 40
1.0
 40
1.0
 10
10.6823500294
 20
8.503102387
 30
0.0
 10
10.6778001246
 20
8.503417924
 30
0.0
 10
10.6686989773
 20
8.5042576038
 30
0.0
 10
10.6550984054
 20
8.506134795
 30
0.0
 10
10.6415544282
 20
8.5086280152
 30
0.0
 10
10.6280958607
 20
8.5117318296
 30
0.0
 10
10.61475046
 20
8.5154398918
 30
0.0
 10
10.6015461875
 20
8.5197443555
 30
0.0
 10
10.5885102448
 20
8.524636385
 30
0.0
 10
10.5713751033
 20
8.5319349707
 30
0.0
 10
10.5505140434
 20
8.5424772562
 30
0.0
 10
10.526611105
 20
8.5572696732
 30
0.0
 10
10.5040047915
 20
8.574096306
 30
0.0
 10
10.4828842524
 20
8.5928166247
 30
0.0
 10
10.4634245789
 20
8.6132750329
 30
0.0
 10
10.4457876908
 20
8.6353015429
 30
0.0
 10
10.4301201843
 20
8.6587129695
 30
0.0
 10
10.4165525057
 20
8.6833152637
 30
0.0
 10
10.4051979709
 20
8.7089025605
 30
0.0
 10
10.3976482716
 20
8.7309022258
 30
0.0
 10
10.3928053807
 20
8.7487780989
 30
0.0
 10
10.3897806202
 20
8.7622807005
 30
0.0
 10
10.387365852
 20
8.7758651158
 30
0.0
 10
10.3855659847
 20
8.7895033491
 30
0.0
 10
10.3843848368
 20
8.8031668955
 30
0.0
 10
10.3838249161
 20
8.8168272991
 30
0.0
 10
10.3838873809
 20
8.8304560753
 30
0.0
 10
10.3845721164
 20
8.8440248153
 30
0.0
 10
10.3858777471
 20
8.857505226
 30
0.0
 10
10.3878015844
 20
8.8708691938
 30
0.0
 10
10.3903396081
 20
8.8840888519
 30
0.0
 10
10.3934865523
 20
8.8971366283
 30
0.0
 10
10.3972359132
 20
8.909985294
 30
0.0
 10
10.401579874
 20
8.9226080447
 30
0.0
 10
10.4065093746
 20
8.9349785498
 30
0.0
 10
10.4120141643
 20
8.9470709897
 30
0.0
 10
10.418082804
 20
8.9588601111
 30
0.0
 10
10.4247026137
 20
8.9703213224
 30
0.0
 10
10.4318597876
 20
8.9814307051
 30
0.0
 10
10.4395394252
 20
8.992165053
 30
0.0
 10
10.4477255126
 20
9.0025019511
 30
0.0
 10
10.4564009441
 20
9.0124198417
 30
0.0
 10
10.4655476208
 20
9.0218980218
 30
0.0
 10
10.4751464801
 20
9.0309166804
 30
0.0
 10
10.4851774706
 20
9.0394570086
 30
0.0
 10
10.4956196409
 20
9.0475012014
 30
0.0
 10
10.5064512037
 20
9.0550324647
 30
0.0
 10
10.5176495635
 20
9.0620350622
 30
0.0
 10
10.5291913223
 20
9.0684944215
 30
0.0
 10
10.5410523866
 20
9.0743970837
 30
0.0
 10
10.5532080104
 20
9.0797307213
 30
0.0
 10
10.5656328303
 20
9.0844842183
 30
0.0
 10
10.5783008771
 20
9.088647705
 30
0.0
 10
10.5911858226
 20
9.0922125291
 30
0.0
 10
10.6042604076
 20
9.0951711807
 30
0.0
 10
10.6130729607
 20
9.0967332585
 30
0.0
 10
10.6175007238
 20
9.0974117647
 30
0.0
  0
SPLINE
  5
3CA
100
AcDbEntity
  8
0
100
AcDbSpline
 62
7
  6
CONTINUOUS
 70
0
 71
3
 72
55
 73
51
 74
0
 42
0.0000001
 43
0.0000001
 44
0.0000000001
 40
0.0
 40
0.0
 40
0.0
 40
0.0
 40
0.0313647221
 40
0.0629165337
 40
0.0946447574
 40
0.1265325222
 40
0.15855837
 40
0.1906967334
 40
0.2229187253
 40
0.2551930209
 40
0.2874867806
 40
0.3197666003
 40
0.3519994789
 40
0.3841537773
 40
0.4162001424
 40
0.4481123943
 40
0.4798683371
 40
0.5114504745
 40
0.5271761518
 40
0.542854286
 40
0.5584842622
 40
0.5740658494
 40
0.5895991987
 40
0.6050848511
 40
0.6205237403
 40
0.6359171812
 40
0.6512668635
 40
0.6665748476
 40
0.6818435451
 40
0.6970756978
 40
0.712274364
 40
0.7274428925
 40
0.7425848908
 40
0.7577041981
 40
0.7728048558
 40
0.7878910687
 40
0.802967167
 40
0.818037573
 40
0.8331067604
 40
0.8481792115
 40
0.8632593794
 40
0.8783516512
 40
0.8934603058
 40
0.908589475
 40
0.9237431123
 40
0.9389249582
 40
0.9541385042
 40
0.9693869662
 40
0.9846732659
 40
1.0
 40
1.0
 40
1.0
 40
1.0
 10
10.7097848255
 20
8.5513656385
 30
0.0
 10
10.7015081183
 20
8.5519396301
 30
0.0
 10
10.684947688
 20
8.5538339279
 30
0.0
 10
10.6603910273
 20
8.5588599334
 30
0.0
 10
10.6362294329
 20
8.5660389761
 30
0.0
 10
10.612658338
 20
8.5753131448
 30
0.0
 10
10.5898651551
 20
8.5866079321
 30
0.0
 10
10.5680319577
 20
8.5998329216
 30
0.0
 10
10.5473328107
 20
8.614882238
 30
0.0
 10
10.5279328659
 20
8.6316356504
 30
0.0
 10
10.5099869163
 20
8.6499593818
 30
0.0
 10
10.4936381337
 20
8.6697071355
 30
0.0
 10
10.4790171404
 20
8.6907214021
 30
0.0
 10
10.466240708
 20
8.7128345159
 30
0.0
 10
10.4554110754
 20
8.7358700004
 30
0.0
 10
10.4466150122
 20
8.759644434
 30
0.0
 10
10.4399231854
 20
8.783966762
 30
0.0
 10
10.4361391952
 20
8.8045650696
 30
0.0
 10
10.4342146423
 20
8.8211190424
 30
0.0
 10
10.4333245581
 20
8.833532793
 30
0.0
 10
10.4329878864
 20
8.8459355311
 30
0.0
 10
10.4332052362
 20
8.8583027308
 30
0.0
 10
10.4339762552
 20
8.8706095583
 30
0.0
 10
10.4352994064
 20
8.882831396
 30
0.0
 10
10.437172028
 20
8.8949437744
 30
0.0
 10
10.4395904197
 20
8.9069224394
 30
0.0
 10
10.4425497826
 20
8.9187433948
 30
0.0
 10
10.4460441646
 20
8.9303829765
 30
0.0
 10
10.4500665954
 20
8.9418178702
 30
0.0
 10
10.45460908
 20
8.9530251511
 30
0.0
 10
10.4596624958
 20
8.9639823794
 30
0.0
 10
10.465216726
 20
8.9746676079
 30
0.0
 10
10.4712606988
 20
8.9850594027
 30
0.0
 10
10.477782301
 20
8.995136945
 30
0.0
 10
10.4847684497
 20
9.0048800575
 30
0.0
 10
10.4922051828
 20
9.014269196
 30
0.0
 10
10.5000776162
 20
9.0232855309
 30
0.0
 10
10.5083699437
 20
9.0319110239
 30
0.0
 10
10.5170655623
 20
9.0401283838
 30
0.0
 10
10.5261470759
 20
9.0479211123
 30
0.0
 10
10.5355962534
 20
9.0552736318
 30
0.0
 10
10.5453941565
 20
9.0621712221
 30
0.0
 10
10.5555211765
 20
9.0686000293
 30
0.0
 10
10.5659570029
 20
9.0745472014
 30
0.0
 10
10.5766807084
 20
9.0800008591
 30
0.0
 10
10.5876708281
 20
9.0849500586
 30
0.0
 10
10.5989053176
 20
9.089384886
 30
0.0
 10
10.6103617406
 20
9.0932965334
 30
0.0
 10
10.6220168212
 20
9.096677105
 30
0.0
 10
10.6298937993
 20
9.0985698061
 30
0.0
 10
10.6338566288
 20
9.0994257887
 30
0.0
  0
SPLINE
  5
3CB
100
AcDbEntity
  8
0
100
AcDbSpline
 62
7
  6
CONTINUOUS
 70
0
 71
3
 72
39
 73
35
 74
0
 42
0.0000001
 43
0.0000001
 44
0.0000000001
 40
0.0
 40
0.0
 40
0.0
 40
0.0
 40
0.0311450264
 40
0.062443103
 40
0.0938883509
 40
0.1254709879
 40
0.1571788856
 40
0.1889972606
 40
0.2209091751
 40
0.2528958436
 40
0.2849370235
 40
0.3170114144
 40
0.3490970746
 40
0.381171845
 40
0.4132137769
 40
0.445201556
 40
0.4771149182
 40
0.508935051
 40
0.5406449742
 40
0.5722298939
 40
0.6036775233
 40
0.6349783634
 40
0.6661259345
 40
0.6971169551
 40
0.7279514584
 40
0.7586328417
 40
0.7891678438
 40
0.8195664441
 40
0.8498416857
 40
0.8800094177
 40
0.9100879638
 40
0.9400977202
 40
0.9700606954
 40
1.0
 40
1.0
 40
1.0
 40
1.0
 10
10.7180590059
 20
8.5902375724
 30
0.0
 10
10.7120561119
 20
8.5906538745
 30
0.0
 10
10.7000468294
 20
8.5919279093
 30
0.0
 10
10.6821784987
 20
8.5951372553
 30
0.0
 10
10.6645015545
 20
8.5996325704
 30
0.0
 10
10.6471114643
 20
8.6053897079
 30
0.0
 10
10.6301006189
 20
8.6123777872
 30
0.0
 10
10.6135597557
 20
8.6205594414
 30
0.0
 10
10.5975769912
 20
8.6298909431
 30
0.0
 10
10.582237492
 20
8.640322472
 30
0.0
 10
10.5676229886
 20
8.6517983677
 30
0.0
 10
10.5538113544
 20
8.6642574246
 30
0.0
 10
10.5408761896
 20
8.6776332145
 30
0.0
 10
10.5288864383
 20
8.6918544421
 30
0.0
 10
10.5179060234
 20
8.7068453204
 30
0.0
 10
10.5079935097
 20
8.7225259704
 30
0.0
 10
10.4992017939
 20
8.7388128415
 30
0.0
 10
10.4915778245
 20
8.7556191517
 30
0.0
 10
10.4851623527
 20
8.7728553437
 30
0.0
 10
10.4799897151
 20
8.7904295561
 30
0.0
 10
10.4760876425
 20
8.8082481045
 30
0.0
 10
10.473477114
 20
8.8262159772
 30
0.0
 10
10.4721722422
 20
8.8442373344
 30
0.0
 10
10.4721801917
 20
8.8622160133
 30
0.0
 10
10.4735011322
 20
8.8800560353
 30
0.0
 10
10.4761282287
 20
8.8976621143
 30
0.0
 10
10.4800476656
 20
8.9149401626
 30
0.0
 10
10.4852387118
 20
8.9317977964
 30
0.0
 10
10.4916738071
 20
8.9481448252
 30
0.0
 10
10.4993187271
 20
8.963893774
 30
0.0
 10
10.5081326455
 20
8.9789602458
 30
0.0
 10
10.5180687826
 20
8.9932638031
 30
0.0
 10
10.5290730211
 20
9.006726861
 30
0.0
 10
10.537085578
 20
9.0150973179
 30
0.0
 10
10.5412459983
 20
9.019115994
 30
0.0
  0
SPLINE
  5
3CC
100
AcDbEntity
  8
0
100
AcDbSpline
 62
7
  6
CONTINUOUS
 70
0
 71
3
 72
37
 73
33
 74
0
 42
0.0000001
 43
0.0000001
 44
0.0000000001
 40
0.0
 40
0.0
 40
0.0
 40
0.0
 40
0.0639290906
 40
0.1274756122
 40
0.1591172332
 40
0.1906690425
 40
0.2221345285
 40
0.2535177049
 40
0.2848232653
 40
0.3160565331
 40
0.3472233986
 40
0.3783302993
 40
0.409384161
 40
0.4403923365
 40
0.4713625604
 40
0.5023028832
 40
0.5332215977
 40
0.5641271771
 40
0.5950282089
 40
0.6259333154
 40
0.6568510818
 40
0.6877899924
 40
0.7187583568
 40
0.7497642345
 40
0.7808153772
 40
0.8119191685
 40
0.8430825557
 40
0.874311998
 40
0.9056134272
 40
0.9369921937
 40
0.9684530234
 40
1.0
 40
1.0
 40
1.0
 40
1.0
 10
10.6823500294
 20
8.503102387
 30
0.0
 10
10.6909426299
 20
8.5025064882
 30
0.0
 10
10.7081364129
 20
8.502054705
 30
0.0
 10
10.7295632666
 20
8.503364403
 30
0.0
 10
10.7465054995
 20
8.505534134
 30
0.0
 10
10.7590756045
 20
8.5077149446
 30
0.0
 10
10.7715016177
 20
8.5104473811
 30
0.0
 10
10.7837604717
 20
8.5137263409
 30
0.0
 10
10.795829083
 20
8.5175456443
 30
0.0
 10
10.8076847945
 20
8.5218981668
 30
0.0
 10
10.8193053221
 20
8.5267757686
 30
0.0
 10
10.8306688565
 20
8.5321692566
 30
0.0
 10
10.8417540437
 20
8.5380685302
 30
0.0
 10
10.8525400351
 20
8.5444625547
 30
0.0
 10
10.8630065902
 20
8.5513392831
 30
0.0
 10
10.8731340456
 20
8.5586858068
 30
0.0
 10
10.8829033406
 20
8.5664883714
 30
0.0
 10
10.8922961437
 20
8.5747322882
 30
0.0
 10
10.9012948212
 20
8.5834020609
 30
0.0
 10
10.909882432
 20
8.5924814387
 30
0.0
 10
10.9180428574
 20
8.6019533467
 30
0.0
 10
10.9257607971
 20
8.6117999679
 30
0.0
 10
10.9330217256
 20
8.6220028272
 30
0.0
 10
10.9398120039
 20
8.6325427544
 30
0.0
 10
10.9461189248
 20
8.6433999209
 30
0.0
 10
10.9519306311
 20
8.6545539433
 30
0.0
 10
10.9572361909
 20
8.6659838758
 30
0.0
 10
10.962025702
 20
8.677668229
 30
0.0
 10
10.9662901732
 20
8.6895850378
 30
0.0
 10
10.9700215856
 20
8.7017120189
 30
0.0
 10
10.9732129293
 20
8.7140260589
 30
0.0
 10
10.9749741643
 20
8.7223338551
 30
0.0
 10
10.9757631822
 20
8.7265103379
 30
0.0
  0
SPLINE
  5
3CD
100
AcDbEntity
  8
0
100
AcDbSpline
 62
7
  6
CONTINUOUS
 70
0
 71
3
 72
35
 73
31
 74
0
 42
0.0000001
 43
0.0000001
 44
0.0000000001
 40
0.0
 40
0.0
 40
0.0
 40
0.0
 40
0.0639637781
 40
0.127559695
 40
0.1908002138
 40
0.2537059104
 40
0.2850498926
 40
0.31632253
 40
0.3475290699
 40
0.3786752394
 40
0.4097672191
 40
0.4408116062
 40
0.4718153498
 40
0.5027857084
 40
0.5337302024
 40
0.5646565427
 40
0.59557258
 40
0.6264862508
 40
0.6574055027
 40
0.6883382408
 40
0.7192922734
 40
0.7502752383
 40
0.7812945527
 40
0.812357364
 40
0.8434704811
 40
0.8746403341
 40
0.9058729348
 40
0.9371738153
 40
0.9685480051
 40
1.0
 40
1.0
 40
1.0
 40
1.0
 10
10.7097848255
 20
8.5513656385
 30
0.0
 10
10.7174340312
 20
8.5508351643
 30
0.0
 10
10.732739938
 20
8.5504068966
 30
0.0
 10
10.7556022158
 20
8.5516840086
 30
0.0
 10
10.7781500776
 20
8.554873075
 30
0.0
 10
10.7965729314
 20
8.559112683
 30
0.0
 10
10.8109901731
 20
8.5634332918
 30
0.0
 10
10.8216167765
 20
8.5671282248
 30
0.0
 10
10.8320497701
 20
8.5712746413
 30
0.0
 10
10.8422713266
 20
8.575865483
 30
0.0
 10
10.8522636816
 20
8.5808927817
 30
0.0
 10
10.8620095732
 20
8.5863478067
 30
0.0
 10
10.8714920825
 20
8.5922211856
 30
0.0
 10
10.8806948092
 20
8.5985027173
 30
0.0
 10
10.8896018325
 20
8.6051815118
 30
0.0
 10
10.8981976816
 20
8.6122460671
 30
0.0
 10
10.9064675087
 20
8.6196841028
 30
0.0
 10
10.9143969967
 20
8.627482742
 30
0.0
 10
10.9219723687
 20
8.635628525
 30
0.0
 10
10.9291805621
 20
8.6441072943
 30
0.0
 10
10.9360090835
 20
8.6529043837
 30
0.0
 10
10.9424460754
 20
8.6620045836
 30
0.0
 10
10.9484804591
 20
8.6713920905
 30
0.0
 10
10.9541017586
 20
8.681050673
 30
0.0
 10
10.9593002292
 20
8.6909636115
 30
0.0
 10
10.9640669423
 20
8.7011137145
 30
0.0
 10
10.9683935991
 20
8.7114834146
 30
0.0
 10
10.9722727396
 20
8.7220548236
 30
0.0
 10
10.9756976581
 20
8.7328093554
 30
0.0
 10
10.9776717462
 20
8.7400800896
 30
0.0
 10
10.9785813975
 20
8.7437389773
 30
0.0
  0
SPLINE
  5
3CE
100
AcDbEntity
  8
0
100
AcDbSpline
 62
7
  6
CONTINUOUS
 70
0
 71
3
 72
23
 73
19
 74
0
 42
0.0000001
 43
0.0000001
 44
0.0000000001
 40
0.0
 40
0.0
 40
0.0
 40
0.0
 40
0.0638611429
 40
0.1275033697
 40
0.1909230193
 40
0.2541276602
 40
0.3171224166
 40
0.3799159195
 40
0.4425188183
 40
0.5049436681
 40
0.5672049987
 40
0.6293190785
 40
0.6913037901
 40
0.7531784362
 40
0.8149635271
 40
0.8766805602
 40
0.9383517934
 40
1.0
 40
1.0
 40
1.0
 40
1.0
 10
10.7180590059
 20
8.5902375724
 30
0.0
 10
10.722162484
 20
8.5899529952
 30
0.0
 10
10.730371045
 20
8.5895889848
 30
0.0
 10
10.7426732606
 20
8.5896622746
 30
0.0
 10
10.7549141509
 20
8.5903557576
 30
0.0
 10
10.7670623134
 20
8.5916675664
 30
0.0
 10
10.7790874257
 20
8.5935945581
 30
0.0
 10
10.7909591248
 20
8.5961318671
 30
0.0
 10
10.802647539
 20
8.5992731237
 30
0.0
 10
10.8141232282
 20
8.6030104558
 30
0.0
 10
10.8253572773
 20
8.6073344942
 30
0.0
 10
10.8363213799
 20
8.6122343794
 30
0.0
 10
10.8469879162
 20
8.6176977691
 30
0.0
 10
10.8573300152
 20
8.6237109254
 30
0.0
 10
10.8673215828
 20
8.6302587045
 30
0.0
 10
10.8769375152
 20
8.6373247176
 30
0.0
 10
10.8861532575
 20
8.6448908427
 30
0.0
 10
10.8920160056
 20
8.6502567208
 30
0.0
 10
10.8948720135
 20
8.6530154254
 30
0.0
  0
SPLINE
  5
3CF
100
AcDbEntity
  8
0
100
AcDbSpline
 62
7
  6
CONTINUOUS
 70
0
 71
3
 72
15
 73
11
 74
0
 42
0.0000001
 43
0.0000001
 44
0.0000000001
 40
0.0
 40
0.0
 40
0.0
 40
0.0
 40
0.1234332197
 40
0.2472416554
 40
0.371470396
 40
0.4961577059
 40
0.6213349831
 40
0.7470249784
 40
0.8732449138
 40
1.0
 40
1.0
 40
1.0
 40
1.0
 10
10.9509530597
 20
8.7409611502
 30
0.0
 10
10.9467417858
 20
8.7390109956
 30
0.0
 10
10.9381774476
 20
8.7353767558
 30
0.0
 10
10.9249879256
 20
8.7307551328
 30
0.0
 10
10.9114844718
 20
8.7269717647
 30
0.0
 10
10.8977183197
 20
8.7240410419
 30
0.0
 10
10.8837408692
 20
8.7219737871
 30
0.0
 10
10.8696042452
 20
8.7207776351
 30
0.0
 10
10.8553620456
 20
8.720456988
 30
0.0
 10
10.8458507706
 20
8.7208269279
 30
0.0
 10
10.8410963953
 20
8.721156645
 30
0.0
  0
SPLINE
  5
3D0
100
AcDbEntity
  8
0
100
AcDbSpline
 62
7
  6
CONTINUOUS
 70
0
 71
3
 72
15
 73
11
 74
0
 42
0.0000001
 43
0.0000001
 44
0.0000000001
 40
0.0
 40
0.0
 40
0.0
 40
0.0
 40
0.1265435369
 40
0.2498718337
 40
0.3713381771
 40
0.4923645349
 40
0.6143898056
 40
0.7388149646
 40
0.8669542867
 40
1.0
 40
1.0
 40
1.0
 40
1.0
 10
11.2174672801
 20
10.1298725724
 30
0.0
 10
11.217066816
 20
10.1309402724
 30
0.0
 10
11.21637947
 20
10.1330894467
 30
0.0
 10
11.2157043607
 20
10.1363734345
 30
0.0
 10
11.215402802
 20
10.139663249
 30
0.0
 10
11.2154757715
 20
10.1429543035
 30
0.0
 10
11.2159229809
 20
10.1462423805
 30
0.0
 10
11.2167434039
 20
10.1495234695
 30
0.0
 10
11.2179350601
 20
10.1527936845
 30
0.0
 10
11.2189540925
 20
10.1549197408
 30
0.0
 10
11.2195192107
 20
10.1559771251
 30
0.0
  0
SPLINE
  5
3D1
100
AcDbEntity
  8
0
100
AcDbSpline
 62
7
  6
CONTINUOUS
 70
0
 71
3
 72
11
 73
7
 74
0
 42
0.0000001
 43
0.0000001
 44
0.0000000001
 40
0.0
 40
0.0
 40
0.0
 40
0.0
 40
0.2428904492
 40
0.4886891857
 40
0.7401944715
 40
1.0
 40
1.0
 40
1.0
 40
1.0
 10
11.2166333466
 20
10.1341147401
 30
0.0
 10
11.2166333424
 20
10.1352106473
 30
0.0
 10
11.2167597101
 20
10.1374175862
 30
0.0
 10
11.2173266303
 20
10.1407155439
 30
0.0
 10
11.2182698833
 20
10.1440052824
 30
0.0
 10
11.2191319857
 20
10.1461499153
 30
0.0
 10
11.2196196427
 20
10.1472158922
 30
0.0
  0
SPLINE
  5
3D2
100
AcDbEntity
  8
0
100
AcDbSpline
 62
7
  6
CONTINUOUS
 70
0
 71
3
 72
24
 73
20
 74
0
 42
0.0000001
 43
0.0000001
 44
0.0000000001
 40
0.0
 40
0.0
 40
0.0
 40
0.0
 40
0.0638368634
 40
0.1274599253
 40
0.1908687675
 40
0.2540684534
 40
0.3170640436
 40
0.3798634056
 40
0.4424760722
 40
0.5049135053
 40
0.5671889089
 40
0.6293171286
 40
0.6913145111
 40
0.7531987453
 40
0.8149886883
 40
0.8767041753
 40
0.9075430196
 40
0.9383710307
 40
1.0
 40
1.0
 40
1.0
 40
1.0
 10
10.6823500294
 20
6.2737454479
 30
0.0
 10
10.6900357389
 20
6.2732124421
 30
0.0
 10
10.705409767
 20
6.2725186747
 30
0.0
 10
10.7284533966
 20
6.2726016923
 30
0.0
 10
10.7513891224
 20
6.2738099458
 30
0.0
 10
10.774161923
 20
6.2761405386
 30
0.0
 10
10.7967183
 20
6.27958811
 30
0.0
 10
10.8190048545
 20
6.2841445179
 30
0.0
 10
10.8409689458
 20
6.2897990754
 30
0.0
 10
10.8625586484
 20
6.2965384674
 30
0.0
 10
10.8837229232
 20
6.304346815
 30
0.0
 10
10.9044117369
 20
6.3132057047
 30
0.0
 10
10.9245761484
 20
6.3230942168
 30
0.0
 10
10.9441685502
 20
6.3339890664
 30
0.0
 10
10.9631423146
 20
6.3458643065
 30
0.0
 10
10.9784055537
 20
6.3565572904
 30
0.0
 10
10.9902598045
 20
6.3655709871
 30
0.0
 10
11.001867322
 20
6.3748830879
 30
0.0
 10
11.0102966802
 20
6.3822042581
 30
0.0
 10
11.0157831606
 20
6.3872260157
 30
0.0
  0
SPLINE
  5
3D3
100
AcDbEntity
  8
0
100
AcDbSpline
 62
7
  6
CONTINUOUS
 70
0
 71
3
 72
11
 73
7
 74
0
 42
0.0000001
 43
0.0000001
 44
0.0000000001
 40
0.0
 40
0.0
 40
0.0
 40
0.0
 40
0.2430309523
 40
0.4889114475
 40
0.7403853657
 40
1.0
 40
1.0
 40
1.0
 40
1.0
 10
12.0776333444
 20
10.1341147401
 30
0.0
 10
12.0776333402
 20
10.1351990662
 30
0.0
 10
12.0775096711
 20
10.1373823726
 30
0.0
 10
12.0769547521
 20
10.1406452987
 30
0.0
 10
12.0760314323
 20
10.1439003072
 30
0.0
 10
12.0751872043
 20
10.1460232144
 30
0.0
 10
12.0747095776
 20
10.1470784734
 30
0.0
  0
SPLINE
  5
3D4
100
AcDbEntity
  8
0
100
AcDbSpline
 62
7
  6
CONTINUOUS
 70
0
 71
3
 72
39
 73
35
 74
0
 42
0.0000001
 43
0.0000001
 44
0.0000000001
 40
0.0
 40
0.0
 40
0.0
 40
0.0
 40
0.0311300174
 40
0.0624114226
 40
0.0938384848
 40
0.1254017999
 40
0.1570895281
 40
0.1888873476
 40
0.2207787978
 40
0.2527456175
 40
0.2847681041
 40
0.3168254981
 40
0.3488963804
 40
0.380959077
 40
0.4129920685
 40
0.4449743964
 40
0.4768860634
 40
0.5087084208
 40
0.5404245351
 40
0.572019531
 40
0.6034809074
 40
0.6347988115
 40
0.6659662695
 40
0.6969793704
 40
0.7278373933
 40
0.7585428669
 40
0.7891015643
 40
0.8195224301
 40
0.8498174268
 40
0.8800013077
 40
0.910091322
 40
0.9401068488
 40
0.9700689707
 40
1.0
 40
1.0
 40
1.0
 40
1.0
 10
10.6823500294
 20
6.2737454479
 30
0.0
 10
10.6708699181
 20
6.2745415963
 30
0.0
 10
10.6479031494
 20
6.2769689935
 30
0.0
 10
10.6137264165
 20
6.2830666993
 30
0.0
 10
10.5799079044
 20
6.2915982488
 30
0.0
 10
10.5466263692
 20
6.3025187857
 30
0.0
 10
10.514054869
 20
6.3157710275
 30
0.0
 10
10.4823634429
 20
6.3312855571
 30
0.0
 10
10.4517173263
 20
6.3489812482
 30
0.0
 10
10.4222763653
 20
6.3687656551
 30
0.0
 10
10.3941940623
 20
6.3905354197
 30
0.0
 10
10.3676168596
 20
6.4141769003
 30
0.0
 10
10.3426833966
 20
6.4395667609
 30
0.0
 10
10.3195237327
 20
6.466572539
 30
0.0
 10
10.298258688
 20
6.49505336
 30
0.0
 10
10.2789992724
 20
6.5248607036
 30
0.0
 10
10.2618460889
 20
6.5558391408
 30
0.0
 10
10.2468887361
 20
6.5878270986
 30
0.0
 10
10.2342054345
 20
6.6206577509
 30
0.0
 10
10.2238626312
 20
6.6541598665
 30
0.0
 10
10.2159145544
 20
6.6881586567
 30
0.0
 10
10.2104029684
 20
6.7224767012
 30
0.0
 10
10.2073570076
 20
6.7569348676
 30
0.0
 10
10.2067929689
 20
6.7913532182
 30
0.0
 10
10.2087141417
 20
6.8255519454
 30
0.0
 10
10.2131108838
 20
6.8593523104
 30
0.0
 10
10.2199606521
 20
6.8925775545
 30
0.0
 10
10.2292279926
 20
6.9250538469
 30
0.0
 10
10.2408647595
 20
6.9566111822
 30
0.0
 10
10.2548104482
 20
6.9870843151
 30
0.0
 10
10.270992222
 20
7.0163134351
 30
0.0
 10
10.2893260268
 20
7.0441458729
 30
0.0
 10
10.309714181
 20
7.0704338511
 30
0.0
 10
10.3246131834
 20
7.0868466148
 30
0.0
 10
10.3323618689
 20
7.0947447261
 30
0.0
  0
SPLINE
  5
3D5
100
AcDbEntity
  8
0
100
AcDbSpline
 62
7
  6
CONTINUOUS
 70
0
 71
3
 72
78
 73
74
 74
0
 42
0.0000001
 43
0.0000001
 44
0.0000000001
 40
0.0
 40
0.0
 40
0.0
 40
0.0
 40
0.003870068
 40
0.0078964431
 40
0.0120824152
 40
0.0164307633
 40
0.0209438558
 40
0.0256235892
 40
0.0304712715
 40
0.0354877679
 40
0.0406735959
 40
0.0460288924
 40
0.0572465922
 40
0.0691369972
 40
0.0816918028
 40
0.0948994561
 40
0.108745563
 40
0.12321324
 40
0.138283412
 40
0.1539350388
 40
0.1701452911
 40
0.1868897066
 40
0.2041423538
 40
0.2218759594
 40
0.2400620151
 40
0.25867087
 40
0.2776718494
 40
0.2970333504
 40
0.3167229276
 40
0.3367073685
 40
0.3569527903
 40
0.3980875557
 40
0.4398465762
 40
0.4819429857
 40
0.5240869653
 40
0.5659882813
 40
0.6073588162
 40
0.627756551
 40
0.6479158214
 40
0.6678023475
 40
0.6873824739
 40
0.706623249
 40
0.7254925031
 40
0.7439589345
 40
0.7619922156
 40
0.7795630886
 40
0.7966434544
 40
0.8132064778
 40
0.82922672
 40
0.8446802799
 40
0.859544924
 40
0.8738002541
 40
0.8874279179
 40
0.9004118741
 40
0.9127386681
 40
0.9243977998
 40
0.9299748809
 40
0.9353827402
 40
0.9406211204
 40
0.9456900836
 40
0.9505900492
 40
0.9553217551
 40
0.9598864039
 40
0.9642856304
 40
0.9685215685
 40
0.9725969745
 40
0.976515201
 40
0.9802803627
 40
0.9838973967
 40
0.987372124
 40
0.9907114393
 40
0.9939233356
 40
1.0
 40
1.0
 40
1.0
 40
1.0
 10
12.3034985071
 20
7.527693168
 30
0.0
 10
12.3044266397
 20
7.5285896753
 30
0.0
 10
12.306281991
 20
7.5304590036
 30
0.0
 10
12.3090094248
 20
7.5334251717
 30
0.0
 10
12.3117342494
 20
7.5366068093
 30
0.0
 10
12.3144550791
 20
7.540002337
 30
0.0
 10
12.317170773
 20
7.5436102061
 30
0.0
 10
12.3198801088
 20
7.5474288426
 30
0.0
 10
12.322581916
 20
7.5514565167
 30
0.0
 10
12.3252749596
 20
7.5556913976
 30
0.0
 10
12.3279580005
 20
7.560131576
 30
0.0
 10
12.3315765276
 20
7.5664204281
 30
0.0
 10
12.3360573926
 20
7.5747895496
 30
0.0
 10
12.3412953101
 20
7.5854673428
 30
0.0
 10
12.3464645381
 20
7.5969106022
 30
0.0
 10
12.3515555779
 20
7.6090984599
 30
0.0
 10
12.3565590798
 20
7.6220088355
 30
0.0
 10
12.3614658331
 20
7.6356181942
 30
0.0
 10
12.3662667913
 20
7.6499017011
 30
0.0
 10
12.3709530929
 20
7.6648332499
 30
0.0
 10
12.3755160875
 20
7.6803855151
 30
0.0
 10
12.379947363
 20
7.6965300028
 30
0.0
 10
12.3842387438
 20
7.713237118
 30
0.0
 10
12.3883823114
 20
7.7304762251
 30
0.0
 10
12.3923704176
 20
7.748215699
 30
0.0
 10
12.3961957158
 20
7.7664229809
 30
0.0
 10
12.3998511552
 20
7.7850646459
 30
0.0
 10
12.4033299996
 20
7.8041064727
 30
0.0
 10
12.4066258252
 20
7.8235134916
 30
0.0
 10
12.40973259
 20
7.8432500873
 30
0.0
 10
12.4136356838
 20
7.8700980386
 30
0.0
 10
12.4179945178
 20
7.9042139336
 30
0.0
 10
12.422363094
 20
7.9456634304
 30
0.0
 10
12.4258645272
 20
7.9875328985
 30
0.0
 10
12.4284730676
 20
8.0295149911
 30
0.0
 10
12.4301695835
 20
8.0713015321
 30
0.0
 10
12.4308162014
 20
8.1058654927
 30
0.0
 10
12.4308616075
 20
8.1331833142
 30
0.0
 10
12.4306618187
 20
8.1533366809
 30
0.0
 10
12.4302287963
 20
8.1732136993
 30
0.0
 10
12.4295633372
 20
8.1927778919
 30
0.0
 10
12.4286666921
 20
8.2119933232
 30
0.0
 10
12.4275405291
 20
8.2308247089
 30
0.0
 10
12.4261869359
 20
8.24923747
 30
0.0
 10
12.4246084296
 20
8.2671978059
 30
0.0
 10
12.4228079486
 20
8.2846727574
 30
0.0
 10
12.4207888377
 20
8.3016302628
 30
0.0
 10
12.4185548419
 20
8.3180392174
 30
0.0
 10
12.4161101075
 20
8.3338695406
 30
0.0
 10
12.4134591829
 20
8.3490922381
 30
0.0
 10
12.4106069918
 20
8.3636794511
 30
0.0
 10
12.4075588261
 20
8.3776045145
 30
0.0
 10
12.4043203314
 20
8.3908419998
 30
0.0
 10
12.4008975159
 20
8.4033678559
 30
0.0
 10
12.3972966991
 20
8.4151591973
 30
0.0
 10
12.394107794
 20
8.4244887942
 30
0.0
 10
12.3914651546
 20
8.4315619427
 30
0.0
 10
12.3894722041
 20
8.4365912388
 30
0.0
 10
12.3874398128
 20
8.4414214498
 30
0.0
 10
12.3853688775
 20
8.4460503826
 30
0.0
 10
12.3832603802
 20
8.4504759453
 30
0.0
 10
12.3811152238
 20
8.4546961134
 30
0.0
 10
12.3789344094
 20
8.4587089903
 30
0.0
 10
12.3767189088
 20
8.4625127646
 30
0.0
 10
12.37446967
 20
8.4661057026
 30
0.0
 10
12.3721877326
 20
8.4694862133
 30
0.0
 10
12.3698740392
 20
8.4726527525
 30
0.0
 10
12.3675295994
 20
8.4756038899
 30
0.0
 10
12.3651553969
 20
8.4783383283
 30
0.0
 10
12.3627524599
 20
8.480854697
 30
0.0
 10
12.3603214642
 20
8.4831521115
 30
0.0
 10
12.3571047559
 20
8.4858707547
 30
0.0
 10
12.3545630644
 20
8.4876600793
 30
0.0
 10
12.3528273756
 20
8.488705409
 30
0.0
  0
SPLINE
  5
3D6
100
AcDbEntity
  8
0
100
AcDbSpline
 62
7
  6
CONTINUOUS
 70
0
 71
3
 72
11
 73
7
 74
0
 42
0.0000001
 43
0.0000001
 44
0.0000000001
 40
0.0
 40
0.0
 40
0.0
 40
0.0
 40
0.2753767621
 40
0.5327385284
 40
0.7736121402
 40
1.0
 40
1.0
 40
1.0
 40
1.0
 10
12.3034985071
 20
7.527693168
 30
0.0
 10
12.3020133777
 20
7.5262586431
 30
0.0
 10
12.2990454743
 20
7.5235787116
 30
0.0
 10
12.2944387348
 20
7.5200422695
 30
0.0
 10
12.2898384759
 20
7.5171360535
 30
0.0
 10
12.28669033
 20
7.515578976
 30
0.0
 10
12.2851262701
 20
7.5149192846
 30
0.0
  0
SPLINE
  5
3D7
100
AcDbEntity
  8
0
100
AcDbSpline
 62
7
  6
CONTINUOUS
 70
0
 71
3
 72
19
 73
15
 74
0
 42
0.0000001
 43
0.0000001
 44
0.0000000001
 40
0.0
 40
0.0
 40
0.0
 40
0.0
 40
0.152879049
 40
0.2945793953
 40
0.426231647
 40
0.549350323
 40
0.6083254354
 40
0.665912891
 40
0.7224099865
 40
0.7781333313
 40
0.8334138893
 40
0.8885914803
 40
0.9440078235
 40
1.0
 40
1.0
 40
1.0
 40
1.0
 10
12.3034985071
 20
7.7044576047
 30
0.0
 10
12.3024544477
 20
7.7034491207
 30
0.0
 10
12.3003682383
 20
7.7015802899
 30
0.0
 10
12.2971155638
 20
7.6991615063
 30
0.0
 10
12.2938673317
 20
7.6972433146
 30
0.0
 10
12.2911275033
 20
7.6960497975
 30
0.0
 10
12.2889552718
 20
7.6953653943
 30
0.0
 10
12.2873546138
 20
7.6949870249
 30
0.0
 10
12.2857602108
 20
7.6947366732
 30
0.0
 10
12.2841727862
 20
7.6946145054
 30
0.0
 10
12.2825931752
 20
7.6946207212
 30
0.0
 10
12.2810221894
 20
7.6947553406
 30
0.0
 10
12.2794607831
 20
7.6950182129
 30
0.0
 10
12.2784337902
 20
7.6952771102
 30
0.0
 10
12.2779236876
 20
7.6954269165
 30
0.0
  0
SPLINE
  5
3D8
100
AcDbEntity
  8
0
100
AcDbSpline
 62
7
  6
CONTINUOUS
 70
0
 71
3
 72
77
 73
73
 74
0
 42
0.0000001
 43
0.0000001
 44
0.0000000001
 40
0.0
 40
0.0
 40
0.0
 40
0.0
 40
0.004039223
 40
0.0082525334
 40
0.0126437408
 40
0.017215986
 40
0.0219718974
 40
0.0269135517
 40
0.0320423559
 40
0.0373591096
 40
0.0485569818
 40
0.060506372
 40
0.0732002631
 40
0.0866270962
 40
0.1007714344
 40
0.1156145015
 40
0.131134632
 40
0.1473075814
 40
0.1641067507
 40
0.1815034662
 40
0.1994671869
 40
0.2179656427
 40
0.2369649791
 40
0.2564299435
 40
0.2763240105
 40
0.296609474
 40
0.3381978533
 40
0.3808757424
 40
0.4243116835
 40
0.4681666137
 40
0.5120972782
 40
0.5557596699
 40
0.5988124584
 40
0.6409204146
 40
0.6615182853
 40
0.6817587903
 40
0.701603323
 40
0.7210143205
 40
0.739955375
 40
0.758391396
 40
0.7762887423
 40
0.7936153325
 40
0.8103408066
 40
0.8264367533
 40
0.8418768706
 40
0.8566371751
 40
0.8706963097
 40
0.8840359157
 40
0.8966410001
 40
0.9085004683
 40
0.9196078862
 40
0.929962404
 40
0.9348593731
 40
0.9395710396
 40
0.9440994645
 40
0.9484474599
 40
0.9526185408
 40
0.956617084
 40
0.9604484982
 40
0.9641192317
 40
0.9676370152
 40
0.9710109853
 40
0.97425176
 40
0.9773716694
 40
0.9803847729
 40
0.9833068852
 40
0.9861555754
 40
0.9889499275
 40
0.9917102747
 40
0.9944577831
 40
0.9972139344
 40
1.0
 40
1.0
 40
1.0
 40
1.0
 10
12.3034985071
 20
7.7044576047
 30
0.0
 10
12.3041209157
 20
7.7050588053
 30
0.0
 10
12.3053650333
 20
7.7063158757
 30
0.0
 10
12.3071914601
 20
7.7083171223
 30
0.0
 10
12.3090159132
 20
7.7104720939
 30
0.0
 10
12.3108373156
 20
7.7127795797
 30
0.0
 10
12.312654805
 20
7.7152383697
 30
0.0
 10
12.3144674539
 20
7.7178472463
 30
0.0
 10
12.3162743814
 20
7.7206048841
 30
0.0
 10
12.3187170817
 20
7.7245466147
 30
0.0
 10
12.3217426448
 20
7.7298437016
 30
0.0
 10
12.3252755393
 20
7.7366632137
 30
0.0
 10
12.3287635254
 20
7.7440375676
 30
0.0
 10
12.3321993247
 20
7.7519515329
 30
0.0
 10
12.3355757832
 20
7.7603888714
 30
0.0
 10
12.3388858386
 20
7.7693321346
 30
0.0
 10
12.3421225476
 20
7.7787628027
 30
0.0
 10
12.3452791074
 20
7.7886613001
 30
0.0
 10
12.3483489026
 20
7.7990070388
 30
0.0
 10
12.3513254906
 20
7.8097784788
 30
0.0
 10
12.3542026165
 20
7.8209531834
 30
0.0
 10
12.3569742376
 20
7.832507857
 30
0.0
 10
12.3596345503
 20
7.8444183956
 30
0.0
 10
12.3621779671
 20
7.8566599431
 30
0.0
 10
12.3645991711
 20
7.8692069729
 30
0.0
 10
12.3676831573
 20
7.8864515649
 30
0.0
 10
12.3711878854
 20
7.9085772739
 30
0.0
 10
12.3747994853
 20
7.9356990131
 30
0.0
 10
12.3778205966
 20
7.9633813551
 30
0.0
 10
12.380225847
 20
7.9913932805
 30
0.0
 10
12.3819951123
 20
8.0195011536
 30
0.0
 10
12.3831136582
 20
8.0474705213
 30
0.0
 10
12.3835722459
 20
8.0750679413
 30
0.0
 10
12.3834003759
 20
8.0977273098
 30
0.0
 10
12.3829227339
 20
8.1154915171
 30
0.0
 10
12.3824014656
 20
8.1284820137
 30
0.0
 10
12.3817157336
 20
8.1412102392
 30
0.0
 10
12.380866971
 20
8.1536496429
 30
0.0
 10
12.3798569706
 20
8.1657742513
 30
0.0
 10
12.3786878703
 20
8.1775587651
 30
0.0
 10
12.3773621515
 20
8.1889786041
 30
0.0
 10
12.3758826165
 20
8.2000099548
 30
0.0
 10
12.3742523831
 20
8.2106298256
 30
0.0
 10
12.3724749089
 20
8.2208161067
 30
0.0
 10
12.3705539573
 20
8.2305476151
 30
0.0
 10
12.3684935819
 20
8.2398041366
 30
0.0
 10
12.3662981255
 20
8.2485664838
 30
0.0
 10
12.3639722262
 20
8.256816563
 30
0.0
 10
12.3615207706
 20
8.2645373829
 30
0.0
 10
12.3589488495
 20
8.2717132071
 30
0.0
 10
12.3562617902
 20
8.2783292713
 30
0.0
 10
12.3538889915
 20
8.2834567192
 30
0.0
 10
12.3519306129
 20
8.2872594511
 30
0.0
 10
12.3504639117
 20
8.2899098725
 30
0.0
 10
12.348972631
 20
8.2924105943
 30
0.0
 10
12.3474575332
 20
8.2947603651
 30
0.0
 10
12.3459193562
 20
8.296957978
 30
0.0
 10
12.3443588221
 20
8.2990022924
 30
0.0
 10
12.3427767197
 20
8.3008922906
 30
0.0
 10
12.3411737495
 20
8.3026269662
 30
0.0
 10
12.3395506489
 20
8.3042053997
 30
0.0
 10
12.3379081768
 20
8.3056267605
 30
0.0
 10
12.336247018
 20
8.3068901777
 30
0.0
 10
12.3345679474
 20
8.3079948956
 30
0.0
 10
12.3328717462
 20
8.3089401738
 30
0.0
 10
12.3311592172
 20
8.309725224
 30
0.0
 10
12.3294313148
 20
8.310349434
 30
0.0
 10
12.3276890406
 20
8.3108121792
 30
0.0
 10
12.3259335367
 20
8.3111129449
 30
0.0
 10
12.3241659891
 20
8.311251495
 30
0.0
 10
12.3223878289
 20
8.3112276789
 30
0.0
 10
12.321205024
 20
8.3111045396
 30
0.0
 10
12.3206145978
 20
8.3110170085
 30
0.0
  0
SPLINE
  5
3D9
100
AcDbEntity
  8
0
100
AcDbSpline
 62
7
  6
CONTINUOUS
 70
0
 71
3
 72
37
 73
33
 74
0
 42
0.0000001
 43
0.0000001
 44
0.0000000001
 40
0.0
 40
0.0
 40
0.0
 40
0.0
 40
0.024649914
 40
0.0505095333
 40
0.0775212359
 40
0.1056222602
 40
0.1347452589
 40
0.1648187791
 40
0.1957676879
 40
0.2275135587
 40
0.2599750572
 40
0.293068295
 40
0.3267071647
 40
0.360803666
 40
0.3952682236
 40
0.4300100055
 40
0.4999560077
 40
0.5699034967
 40
0.6046471247
 40
0.6391142555
 40
0.6732140563
 40
0.7068569435
 40
0.7399548978
 40
0.772421785
 40
0.8041736946
 40
0.8351292813
 40
0.8652101079
 40
0.8943410109
 40
0.922450494
 40
0.9494711596
 40
0.9753402104
 40
1.0
 40
1.0
 40
1.0
 40
1.0
 10
12.2333359508
 20
7.791952305
 30
0.0
 10
12.2345495111
 20
7.7953102738
 30
0.0
 10
12.2369369373
 20
7.8022271799
 30
0.0
 10
12.2403295552
 20
7.8129324037
 30
0.0
 10
12.2436123583
 20
7.8241934625
 30
0.0
 10
12.246775982
 20
7.8359785885
 30
0.0
 10
12.2498114494
 20
7.8482546596
 30
0.0
 10
12.2527101356
 20
7.8609870992
 30
0.0
 10
12.2554638109
 20
7.8741400341
 30
0.0
 10
12.2580646645
 20
7.8876763829
 30
0.0
 10
12.260505321
 20
7.9015579714
 30
0.0
 10
12.2627788612
 20
7.9157456429
 30
0.0
 10
12.2648788434
 20
7.930199374
 30
0.0
 10
12.2667993109
 20
7.9448783751
 30
0.0
 10
12.2685348495
 20
7.9597412502
 30
0.0
 10
12.2706002236
 20
7.9797918317
 30
0.0
 10
12.272685425
 20
8.0050047781
 30
0.0
 10
12.2741031906
 20
8.0302643148
 30
0.0
 10
12.274827501
 20
8.0504088289
 30
0.0
 10
12.2751618588
 20
8.0653700726
 30
0.0
 10
12.2752876858
 20
8.0801750667
 30
0.0
 10
12.2752046238
 20
8.094782061
 30
0.0
 10
12.2749129348
 20
8.1091498274
 30
0.0
 10
12.2744134656
 20
8.1232378276
 30
0.0
 10
12.2737076599
 20
8.1370063175
 30
0.0
 10
12.2727975525
 20
8.1504164657
 30
0.0
 10
12.27168576
 20
8.1634304627
 30
0.0
 10
12.2703754744
 20
8.1760116329
 30
0.0
 10
12.2688704579
 20
8.1881245252
 30
0.0
 10
12.2671750214
 20
8.1997350798
 30
0.0
 10
12.2652940521
 20
8.2108105297
 30
0.0
 10
12.2638852587
 20
8.2179938166
 30
0.0
 10
12.2631473319
 20
8.2214887221
 30
0.0
  0
SPLINE
  5
3DA
100
AcDbEntity
  8
0
100
AcDbSpline
 62
7
  6
CONTINUOUS
 70
0
 71
3
 72
15
 73
11
 74
0
 42
0.0000001
 43
0.0000001
 44
0.0000000001
 40
0.0
 40
0.0
 40
0.0
 40
0.0
 40
0.121738938
 40
0.2462719927
 40
0.3726813304
 40
0.5000312567
 40
0.6273772286
 40
0.7537747326
 40
0.8782882211
 40
1.0
 40
1.0
 40
1.0
 40
1.0
 10
12.2236022871
 20
7.9196526958
 30
0.0
 10
12.2247635825
 20
7.9267664303
 30
0.0
 10
12.2269302631
 20
7.941187526
 30
0.0
 10
12.2296907285
 20
7.9630817162
 30
0.0
 10
12.2319844292
 20
7.9853637747
 30
0.0
 10
12.2337931251
 20
8.0078574455
 30
0.0
 10
12.2351024742
 20
8.0303849975
 30
0.0
 10
12.2359021712
 20
8.0527684274
 30
0.0
 10
12.2361860091
 20
8.0748306619
 30
0.0
 10
12.2360277847
 20
8.0894099908
 30
0.0
 10
12.2358580821
 20
8.0966142845
 30
0.0
  0
SPLINE
  5
3DB
100
AcDbEntity
  8
0
100
AcDbSpline
 62
7
  6
CONTINUOUS
 70
0
 71
3
 72
61
 73
57
 74
0
 42
0.0000001
 43
0.0000001
 44
0.0000000001
 40
0.0
 40
0.0
 40
0.0
 40
0.0
 40
0.0156667955
 40
0.0313831731
 40
0.047146733
 40
0.0629570608
 40
0.0788122545
 40
0.0947102598
 40
0.1106487439
 40
0.1266249966
 40
0.1586710818
 40
0.1908291298
 40
0.2230687126
 40
0.2553569314
 40
0.287659416
 40
0.3199413697
 40
0.3521686127
 40
0.3843086165
 40
0.4163315072
 40
0.4482109982
 40
0.4640938102
 40
0.4799330073
 40
0.49572668
 40
0.511473286
 40
0.5271716618
 40
0.5428210341
 40
0.5584210361
 40
0.573971712
 40
0.5894735165
 40
0.6049273175
 40
0.620334396
 40
0.6356964357
 40
0.651015509
 40
0.6662940667
 40
0.6815349205
 40
0.696741217
 40
0.7119164109
 40
0.7270642407
 40
0.7421886945
 40
0.7572939729
 40
0.7723844512
 40
0.7874646432
 40
0.8025391581
 40
0.8176126563
 40
0.832689807
 40
0.8477752469
 40
0.8628735369
 40
0.8779891176
 40
0.8931262698
 40
0.9082890789
 40
0.9234813965
 40
0.9387068046
 40
0.9539685857
 40
0.969269703
 40
0.9846127671
 40
1.0
 40
1.0
 40
1.0
 40
1.0
 10
10.6823500294
 20
6.4505098845
 30
0.0
 10
10.6778001246
 20
6.4508254215
 30
0.0
 10
10.6686989773
 20
6.4516651013
 30
0.0
 10
10.6550984054
 20
6.4535422925
 30
0.0
 10
10.6415544282
 20
6.4560355127
 30
0.0
 10
10.6280958607
 20
6.4591393271
 30
0.0
 10
10.61475046
 20
6.4628473893
 30
0.0
 10
10.6015461875
 20
6.4671518531
 30
0.0
 10
10.5885102448
 20
6.4720438825
 30
0.0
 10
10.5713751033
 20
6.4793424682
 30
0.0
 10
10.5505140434
 20
6.4898847537
 30
0.0
 10
10.526611105
 20
6.5046771707
 30
0.0
 10
10.5040047915
 20
6.5215038035
 30
0.0
 10
10.4828842524
 20
6.5402241222
 30
0.0
 10
10.4634245789
 20
6.5606825305
 30
0.0
 10
10.4457876908
 20
6.5827090404
 30
0.0
 10
10.4301201843
 20
6.6061204671
 30
0.0
 10
10.4165525057
 20
6.6307227612
 30
0.0
 10
10.4051979709
 20
6.6563100581
 30
0.0
 10
10.3976482716
 20
6.6783097233
 30
0.0
 10
10.3928053807
 20
6.6961855964
 30
0.0
 10
10.3897806202
 20
6.7096881981
 30
0.0
 10
10.387365852
 20
6.7232726134
 30
0.0
 10
10.3855659847
 20
6.7369108466
 30
0.0
 10
10.3843848368
 20
6.7505743931
 30
0.0
 10
10.3838249161
 20
6.7642347966
 30
0.0
 10
10.3838873809
 20
6.7778635729
 30
0.0
 10
10.3845721164
 20
6.7914323128
 30
0.0
 10
10.3858777471
 20
6.8049127235
 30
0.0
 10
10.3878015844
 20
6.8182766913
 30
0.0
 10
10.3903396081
 20
6.8314963494
 30
0.0
 10
10.3934865523
 20
6.8445441258
 30
0.0
 10
10.3972359132
 20
6.8573927915
 30
0.0
 10
10.401579874
 20
6.8700155422
 30
0.0
 10
10.4065093746
 20
6.8823860473
 30
0.0
 10
10.4120141643
 20
6.8944784872
 30
0.0
 10
10.418082804
 20
6.9062676087
 30
0.0
 10
10.4247026137
 20
6.9177288199
 30
0.0
 10
10.4318597876
 20
6.9288382026
 30
0.0
 10
10.4395394252
 20
6.9395725505
 30
0.0
 10
10.4477255126
 20
6.9499094486
 30
0.0
 10
10.4564009441
 20
6.9598273392
 30
0.0
 10
10.4655476208
 20
6.9693055193
 30
0.0
 10
10.4751464801
 20
6.9783241779
 30
0.0
 10
10.4851774706
 20
6.9868645061
 30
0.0
 10
10.4956196409
 20
6.994908699
 30
0.0
 10
10.5064512037
 20
7.0024399622
 30
0.0
 10
10.5176495635
 20
7.0094425597
 30
0.0
 10
10.5291913223
 20
7.015901919
 30
0.0
 10
10.5410523866
 20
7.0218045812
 30
0.0
 10
10.5532080104
 20
7.0271382189
 30
0.0
 10
10.5656328303
 20
7.0318917158
 30
0.0
 10
10.5783008771
 20
7.0360552025
 30
0.0
 10
10.5911858226
 20
7.0396200266
 30
0.0
 10
10.6042604076
 20
7.0425786782
 30
0.0
 10
10.6130729607
 20
7.044140756
 30
0.0
 10
10.6175007238
 20
7.0448192622
 30
0.0
  0
SPLINE
  5
3DC
100
AcDbEntity
  8
0
100
AcDbSpline
 62
7
  6
CONTINUOUS
 70
0
 71
3
 72
55
 73
51
 74
0
 42
0.0000001
 43
0.0000001
 44
0.0000000001
 40
0.0
 40
0.0
 40
0.0
 40
0.0
 40
0.0313647221
 40
0.0629165337
 40
0.0946447574
 40
0.1265325222
 40
0.15855837
 40
0.1906967334
 40
0.2229187253
 40
0.2551930209
 40
0.2874867806
 40
0.3197666003
 40
0.3519994789
 40
0.3841537773
 40
0.4162001424
 40
0.4481123943
 40
0.4798683371
 40
0.5114504745
 40
0.5271761518
 40
0.542854286
 40
0.5584842622
 40
0.5740658494
 40
0.5895991987
 40
0.6050848511
 40
0.6205237403
 40
0.6359171812
 40
0.6512668635
 40
0.6665748476
 40
0.6818435451
 40
0.6970756978
 40
0.712274364
 40
0.7274428925
 40
0.7425848908
 40
0.7577041981
 40
0.7728048558
 40
0.7878910687
 40
0.802967167
 40
0.818037573
 40
0.8331067604
 40
0.8481792115
 40
0.8632593794
 40
0.8783516512
 40
0.8934603058
 40
0.908589475
 40
0.9237431123
 40
0.9389249582
 40
0.9541385042
 40
0.9693869662
 40
0.9846732659
 40
1.0
 40
1.0
 40
1.0
 40
1.0
 10
10.7097848255
 20
6.498773136
 30
0.0
 10
10.7015081183
 20
6.4993471276
 30
0.0
 10
10.684947688
 20
6.5012414255
 30
0.0
 10
10.6603910273
 20
6.5062674309
 30
0.0
 10
10.6362294329
 20
6.5134464737
 30
0.0
 10
10.612658338
 20
6.5227206424
 30
0.0
 10
10.5898651551
 20
6.5340154296
 30
0.0
 10
10.5680319577
 20
6.5472404191
 30
0.0
 10
10.5473328107
 20
6.5622897355
 30
0.0
 10
10.5279328659
 20
6.5790431479
 30
0.0
 10
10.5099869163
 20
6.5973668793
 30
0.0
 10
10.4936381337
 20
6.617114633
 30
0.0
 10
10.4790171404
 20
6.6381288996
 30
0.0
 10
10.466240708
 20
6.6602420134
 30
0.0
 10
10.4554110754
 20
6.6832774979
 30
0.0
 10
10.4466150122
 20
6.7070519315
 30
0.0
 10
10.4399231854
 20
6.7313742595
 30
0.0
 10
10.4361391952
 20
6.7519725672
 30
0.0
 10
10.4342146423
 20
6.7685265399
 30
0.0
 10
10.4333245581
 20
6.7809402905
 30
0.0
 10
10.4329878864
 20
6.7933430286
 30
0.0
 10
10.4332052362
 20
6.8057102283
 30
0.0
 10
10.4339762552
 20
6.8180170558
 30
0.0
 10
10.4352994064
 20
6.8302388935
 30
0.0
 10
10.437172028
 20
6.8423512719
 30
0.0
 10
10.4395904197
 20
6.8543299369
 30
0.0
 10
10.4425497826
 20
6.8661508923
 30
0.0
 10
10.4460441646
 20
6.877790474
 30
0.0
 10
10.4500665954
 20
6.8892253677
 30
0.0
 10
10.45460908
 20
6.9004326486
 30
0.0
 10
10.4596624958
 20
6.9113898769
 30
0.0
 10
10.465216726
 20
6.9220751054
 30
0.0
 10
10.4712606988
 20
6.9324669002
 30
0.0
 10
10.477782301
 20
6.9425444425
 30
0.0
 10
10.4847684497
 20
6.9522875551
 30
0.0
 10
10.4922051828
 20
6.9616766936
 30
0.0
 10
10.5000776162
 20
6.9706930285
 30
0.0
 10
10.5083699437
 20
6.9793185215
 30
0.0
 10
10.5170655623
 20
6.9875358813
 30
0.0
 10
10.5261470759
 20
6.9953286098
 30
0.0
 10
10.5355962534
 20
7.0026811293
 30
0.0
 10
10.5453941565
 20
7.0095787196
 30
0.0
 10
10.5555211765
 20
7.0160075268
 30
0.0
 10
10.5659570029
 20
7.0219546989
 30
0.0
 10
10.5766807084
 20
7.0274083566
 30
0.0
 10
10.5876708281
 20
7.0323575561
 30
0.0
 10
10.5989053176
 20
7.0367923836
 30
0.0
 10
10.6103617406
 20
7.040704031
 30
0.0
 10
10.6220168212
 20
7.0440846026
 30
0.0
 10
10.6298937993
 20
7.0459773036
 30
0.0
 10
10.6338566288
 20
7.0468332862
 30
0.0
  0
SPLINE
  5
3DD
100
AcDbEntity
  8
0
100
AcDbSpline
 62
7
  6
CONTINUOUS
 70
0
 71
3
 72
39
 73
35
 74
0
 42
0.0000001
 43
0.0000001
 44
0.0000000001
 40
0.0
 40
0.0
 40
0.0
 40
0.0
 40
0.0311450264
 40
0.062443103
 40
0.0938883509
 40
0.1254709879
 40
0.1571788856
 40
0.1889972606
 40
0.2209091751
 40
0.2528958436
 40
0.2849370235
 40
0.3170114144
 40
0.3490970746
 40
0.381171845
 40
0.4132137769
 40
0.445201556
 40
0.4771149182
 40
0.508935051
 40
0.5406449742
 40
0.5722298939
 40
0.6036775233
 40
0.6349783634
 40
0.6661259345
 40
0.6971169551
 40
0.7279514584
 40
0.7586328417
 40
0.7891678438
 40
0.8195664441
 40
0.8498416857
 40
0.8800094177
 40
0.9100879638
 40
0.9400977202
 40
0.9700606954
 40
1.0
 40
1.0
 40
1.0
 40
1.0
 10
10.7180590059
 20
6.5376450699
 30
0.0
 10
10.7120561119
 20
6.538061372
 30
0.0
 10
10.7000468294
 20
6.5393354068
 30
0.0
 10
10.6821784987
 20
6.5425447529
 30
0.0
 10
10.6645015545
 20
6.5470400679
 30
0.0
 10
10.6471114643
 20
6.5527972054
 30
0.0
 10
10.6301006189
 20
6.5597852847
 30
0.0
 10
10.6135597557
 20
6.567966939
 30
0.0
 10
10.5975769912
 20
6.5772984406
 30
0.0
 10
10.582237492
 20
6.5877299695
 30
0.0
 10
10.5676229886
 20
6.5992058652
 30
0.0
 10
10.5538113544
 20
6.6116649221
 30
0.0
 10
10.5408761896
 20
6.625040712
 30
0.0
 10
10.5288864383
 20
6.6392619396
 30
0.0
 10
10.5179060234
 20
6.6542528179
 30
0.0
 10
10.5079935097
 20
6.6699334679
 30
0.0
 10
10.4992017939
 20
6.686220339
 30
0.0
 10
10.4915778245
 20
6.7030266492
 30
0.0
 10
10.4851623527
 20
6.7202628412
 30
0.0
 10
10.4799897151
 20
6.7378370536
 30
0.0
 10
10.4760876425
 20
6.7556556021
 30
0.0
 10
10.473477114
 20
6.7736234747
 30
0.0
 10
10.4721722422
 20
6.7916448319
 30
0.0
 10
10.4721801917
 20
6.8096235108
 30
0.0
 10
10.4735011322
 20
6.8274635328
 30
0.0
 10
10.4761282287
 20
6.8450696118
 30
0.0
 10
10.4800476656
 20
6.8623476601
 30
0.0
 10
10.4852387118
 20
6.8792052939
 30
0.0
 10
10.4916738071
 20
6.8955523228
 30
0.0
 10
10.4993187271
 20
6.9113012715
 30
0.0
 10
10.5081326455
 20
6.9263677433
 30
0.0
 10
10.5180687826
 20
6.9406713006
 30
0.0
 10
10.5290730211
 20
6.9541343586
 30
0.0
 10
10.537085578
 20
6.9625048154
 30
0.0
 10
10.5412459983
 20
6.9665234915
 30
0.0
  0
SPLINE
  5
3DE
100
AcDbEntity
  8
0
100
AcDbSpline
 62
7
  6
CONTINUOUS
 70
0
 71
3
 72
15
 73
11
 74
0
 42
0.0000001
 43
0.0000001
 44
0.0000000001
 40
0.0
 40
0.0
 40
0.0
 40
0.0
 40
0.1331280495
 40
0.2613154534
 40
0.3857579216
 40
0.50777547
 40
0.6287754839
 40
0.7502044769
 40
0.8734925105
 40
1.0
 40
1.0
 40
1.0
 40
1.0
 10
12.0747087012
 20
10.1560495145
 30
0.0
 10
12.0752780161
 20
10.1549894077
 30
0.0
 10
12.0763048335
 20
10.1528578371
 30
0.0
 10
12.0775066508
 20
10.1495786493
 30
0.0
 10
12.0783351171
 20
10.146288434
 30
0.0
 10
12.0787883553
 20
10.1429911383
 30
0.0
 10
12.0788651604
 20
10.1396907891
 30
0.0
 10
12.0785654076
 20
10.1363916486
 30
0.0
 10
12.0778898877
 20
10.1330983719
 30
0.0
 10
12.0772009849
 20
10.1309432066
 30
0.0
 10
12.0767994205
 20
10.1298725722
 30
0.0
  0
SPLINE
  5
3DF
100
AcDbEntity
  8
0
100
AcDbSpline
 62
7
  6
CONTINUOUS
 70
0
 71
3
 72
37
 73
33
 74
0
 42
0.0000001
 43
0.0000001
 44
0.0000000001
 40
0.0
 40
0.0
 40
0.0
 40
0.0
 40
0.0639290906
 40
0.1274756122
 40
0.1591172332
 40
0.1906690425
 40
0.2221345285
 40
0.2535177049
 40
0.2848232653
 40
0.3160565331
 40
0.3472233986
 40
0.3783302993
 40
0.409384161
 40
0.4403923365
 40
0.4713625604
 40
0.5023028832
 40
0.5332215977
 40
0.5641271771
 40
0.5950282089
 40
0.6259333154
 40
0.6568510818
 40
0.6877899924
 40
0.7187583568
 40
0.7497642345
 40
0.7808153772
 40
0.8119191685
 40
0.8430825557
 40
0.874311998
 40
0.9056134272
 40
0.9369921937
 40
0.9684530234
 40
1.0
 40
1.0
 40
1.0
 40
1.0
 10
10.6823500294
 20
6.4505098845
 30
0.0
 10
10.6909426299
 20
6.4499139857
 30
0.0
 10
10.7081364129
 20
6.4494622025
 30
0.0
 10
10.7295632666
 20
6.4507719005
 30
0.0
 10
10.7465054995
 20
6.4529416315
 30
0.0
 10
10.7590756045
 20
6.4551224421
 30
0.0
 10
10.7715016177
 20
6.4578548786
 30
0.0
 10
10.7837604717
 20
6.4611338385
 30
0.0
 10
10.795829083
 20
6.4649531418
 30
0.0
 10
10.8076847945
 20
6.4693056643
 30
0.0
 10
10.8193053221
 20
6.4741832661
 30
0.0
 10
10.8306688565
 20
6.4795767542
 30
0.0
 10
10.8417540437
 20
6.4854760277
 30
0.0
 10
10.8525400351
 20
6.4918700522
 30
0.0
 10
10.8630065902
 20
6.4987467807
 30
0.0
 10
10.8731340456
 20
6.5060933043
 30
0.0
 10
10.8829033406
 20
6.5138958689
 30
0.0
 10
10.8922961437
 20
6.5221397857
 30
0.0
 10
10.9012948212
 20
6.5308095585
 30
0.0
 10
10.909882432
 20
6.5398889362
 30
0.0
 10
10.9180428574
 20
6.5493608442
 30
0.0
 10
10.9257607971
 20
6.5592074654
 30
0.0
 10
10.9330217256
 20
6.5694103247
 30
0.0
 10
10.9398120039
 20
6.5799502519
 30
0.0
 10
10.9461189248
 20
6.5908074184
 30
0.0
 10
10.9519306311
 20
6.6019614408
 30
0.0
 10
10.9572361909
 20
6.6133913733
 30
0.0
 10
10.962025702
 20
6.6250757265
 30
0.0
 10
10.9662901732
 20
6.6369925353
 30
0.0
 10
10.9700215856
 20
6.6491195165
 30
0.0
 10
10.9732129293
 20
6.6614335564
 30
0.0
 10
10.9749741643
 20
6.6697413526
 30
0.0
 10
10.9757631822
 20
6.6739178354
 30
0.0
  0
SPLINE
  5
3E0
100
AcDbEntity
  8
0
100
AcDbSpline
 62
7
  6
CONTINUOUS
 70
0
 71
3
 72
35
 73
31
 74
0
 42
0.0000001
 43
0.0000001
 44
0.0000000001
 40
0.0
 40
0.0
 40
0.0
 40
0.0
 40
0.0639637781
 40
0.127559695
 40
0.1908002138
 40
0.2537059104
 40
0.2850498926
 40
0.31632253
 40
0.3475290699
 40
0.3786752394
 40
0.4097672191
 40
0.4408116062
 40
0.4718153498
 40
0.5027857084
 40
0.5337302024
 40
0.5646565427
 40
0.59557258
 40
0.6264862508
 40
0.6574055027
 40
0.6883382408
 40
0.7192922734
 40
0.7502752383
 40
0.7812945527
 40
0.812357364
 40
0.8434704811
 40
0.8746403341
 40
0.9058729348
 40
0.9371738153
 40
0.9685480051
 40
1.0
 40
1.0
 40
1.0
 40
1.0
 10
10.7097848255
 20
6.498773136
 30
0.0
 10
10.7174340312
 20
6.4982426618
 30
0.0
 10
10.732739938
 20
6.4978143941
 30
0.0
 10
10.7556022158
 20
6.4990915061
 30
0.0
 10
10.7781500776
 20
6.5022805725
 30
0.0
 10
10.7965729314
 20
6.5065201805
 30
0.0
 10
10.8109901731
 20
6.5108407893
 30
0.0
 10
10.8216167765
 20
6.5145357223
 30
0.0
 10
10.8320497701
 20
6.5186821388
 30
0.0
 10
10.8422713266
 20
6.5232729805
 30
0.0
 10
10.8522636816
 20
6.5283002792
 30
0.0
 10
10.8620095732
 20
6.5337553042
 30
0.0
 10
10.8714920825
 20
6.5396286832
 30
0.0
 10
10.8806948092
 20
6.5459102148
 30
0.0
 10
10.8896018325
 20
6.5525890093
 30
0.0
 10
10.8981976816
 20
6.5596535646
 30
0.0
 10
10.9064675087
 20
6.5670916003
 30
0.0
 10
10.9143969967
 20
6.5748902395
 30
0.0
 10
10.9219723687
 20
6.5830360225
 30
0.0
 10
10.9291805621
 20
6.5915147919
 30
0.0
 10
10.9360090835
 20
6.6003118812
 30
0.0
 10
10.9424460754
 20
6.6094120811
 30
0.0
 10
10.9484804591
 20
6.618799588
 30
0.0
 10
10.9541017586
 20
6.6284581705
 30
0.0
 10
10.9593002292
 20
6.638371109
 30
0.0
 10
10.9640669423
 20
6.6485212121
 30
0.0
 10
10.9683935991
 20
6.6588909121
 30
0.0
 10
10.9722727396
 20
6.6694623211
 30
0.0
 10
10.9756976581
 20
6.6802168529
 30
0.0
 10
10.9776717462
 20
6.6874875871
 30
0.0
 10
10.9785813975
 20
6.6911464748
 30
0.0
  0
SPLINE
  5
3E1
100
AcDbEntity
  8
0
100
AcDbSpline
 62
7
  6
CONTINUOUS
 70
0
 71
3
 72
23
 73
19
 74
0
 42
0.0000001
 43
0.0000001
 44
0.0000000001
 40
0.0
 40
0.0
 40
0.0
 40
0.0
 40
0.0638611429
 40
0.1275033697
 40
0.1909230193
 40
0.2541276602
 40
0.3171224166
 40
0.3799159195
 40
0.4425188183
 40
0.5049436681
 40
0.5672049987
 40
0.6293190785
 40
0.6913037901
 40
0.7531784362
 40
0.8149635271
 40
0.8766805602
 40
0.9383517934
 40
1.0
 40
1.0
 40
1.0
 40
1.0
 10
10.7180590059
 20
6.5376450699
 30
0.0
 10
10.722162484
 20
6.5373604927
 30
0.0
 10
10.730371045
 20
6.5369964823
 30
0.0
 10
10.7426732606
 20
6.5370697722
 30
0.0
 10
10.7549141509
 20
6.5377632551
 30
0.0
 10
10.7670623134
 20
6.539075064
 30
0.0
 10
10.7790874257
 20
6.5410020556
 30
0.0
 10
10.7909591248
 20
6.5435393646
 30
0.0
 10
10.802647539
 20
6.5466806212
 30
0.0
 10
10.8141232282
 20
6.5504179533
 30
0.0
 10
10.8253572773
 20
6.5547419918
 30
0.0
 10
10.8363213799
 20
6.5596418769
 30
0.0
 10
10.8469879162
 20
6.5651052666
 30
0.0
 10
10.8573300152
 20
6.571118423
 30
0.0
 10
10.8673215828
 20
6.577666202
 30
0.0
 10
10.8769375152
 20
6.5847322151
 30
0.0
 10
10.8861532575
 20
6.5922983402
 30
0.0
 10
10.8920160056
 20
6.5976642183
 30
0.0
 10
10.8948720135
 20
6.6004229229
 30
0.0
  0
SPLINE
  5
3E2
100
AcDbEntity
  8
0
100
AcDbSpline
 62
7
  6
CONTINUOUS
 70
0
 71
3
 72
15
 73
11
 74
0
 42
0.0000001
 43
0.0000001
 44
0.0000000001
 40
0.0
 40
0.0
 40
0.0
 40
0.0
 40
0.1100927611
 40
0.2258278872
 40
0.3465604064
 40
0.4716023691
 40
0.6002302083
 40
0.731691556
 40
0.8652117232
 40
1.0
 40
1.0
 40
1.0
 40
1.0
 10
10.7857299963
 20
8.9075068172
 30
0.0
 10
10.7913557162
 20
8.9086968969
 30
0.0
 10
10.8029372798
 20
8.9109433896
 30
0.0
 10
10.8208031256
 20
8.9138658205
 30
0.0
 10
10.8395146922
 20
8.9164121975
 30
0.0
 10
10.8589528957
 20
8.9185659947
 30
0.0
 10
10.8789942677
 20
8.920313285
 30
0.0
 10
10.8995113673
 20
8.9216427689
 30
0.0
 10
10.9203735582
 20
8.9225458496
 30
0.0
 10
10.9343851833
 20
8.9228588972
 30
0.0
 10
10.941424756
 20
8.9229435708
 30
0.0
  0
SPLINE
  5
3E3
100
AcDbEntity
  8
0
100
AcDbSpline
 62
7
  6
CONTINUOUS
 70
0
 71
3
 72
15
 73
11
 74
0
 42
0.0000001
 43
0.0000001
 44
0.0000000001
 40
0.0
 40
0.0
 40
0.0
 40
0.0
 40
0.1348454364
 40
0.2684139288
 40
0.3999107281
 40
0.5285572543
 40
0.653597548
 40
0.7743047827
 40
0.889988096
 40
1.0
 40
1.0
 40
1.0
 40
1.0
 10
10.9413594754
 20
8.9230920714
 30
0.0
 10
10.9343166867
 20
8.9230067416
 30
0.0
 10
10.9202991079
 20
8.9226920061
 30
0.0
 10
10.8994289967
 20
8.9217851657
 30
0.0
 10
10.8789061459
 20
8.9204507771
 30
0.0
 10
10.8588618521
 20
8.9186974969
 30
0.0
 10
10.8394241791
 20
8.9165367265
 30
0.0
 10
10.8207171731
 20
8.9139825101
 30
0.0
 10
10.8028604553
 20
8.9110515039
 30
0.0
 10
10.7912868108
 20
8.908798386
 30
0.0
 10
10.7856659481
 20
8.9076048203
 30
0.0
  0
SPLINE
  5
3E4
100
AcDbEntity
  8
0
100
AcDbSpline
 62
7
  6
CONTINUOUS
 70
0
 71
3
 72
84
 73
80
 74
0
 42
0.0000001
 43
0.0000001
 44
0.0000000001
 40
0.0
 40
0.0
 40
0.0
 40
0.0
 40
0.0027164264
 40
0.0054532293
 40
0.008230295
 40
0.0110665896
 40
0.0139797932
 40
0.0169861044
 40
0.0201000661
 40
0.0233345812
 40
0.0267009392
 40
0.0302088856
 40
0.0338668056
 40
0.037681768
 40
0.0416597414
 40
0.0458056718
 40
0.050123593
 40
0.0546167913
 40
0.0592877975
 40
0.0641385717
 40
0.0691704988
 40
0.074384467
 40
0.0797809628
 40
0.0853600226
 40
0.0911213815
 40
0.0970644148
 40
0.1094911534
 40
0.122630387
 40
0.136468035
 40
0.1509868331
 40
0.1661667198
 40
0.1819851503
 40
0.1984173662
 40
0.2154366132
 40
0.2330143274
 40
0.2511202956
 40
0.2697227959
 40
0.2887887406
 40
0.3082838034
 40
0.3281725359
 40
0.3484184777
 40
0.3689842604
 40
0.3898317162
 40
0.4109219843
 40
0.4536719359
 40
0.4969138893
 40
0.5403221212
 40
0.5835693222
 40
0.6263297187
 40
0.6474271304
 40
0.6682829869
 40
0.6888584043
 40
0.7091151927
 40
0.7290159604
 40
0.748524216
 40
0.7676044742
 40
0.7862223676
 40
0.8043447661
 40
0.8219399096
 40
0.838977535
 40
0.8554290199
 40
0.8712675451
 40
0.8864682815
 40
0.9010086172
 40
0.9148684112
 40
0.9280303001
 40
0.9404800906
 40
0.946434749
 40
0.9522077946
 40
0.957798564
 40
0.9632067735
 40
0.9684324641
 40
0.9734760551
 40
0.9783384155
 40
0.983020862
 40
0.9875253935
 40
0.9918546029
 40
0.9960115831
 40
1.0
 40
1.0
 40
1.0
 40
1.0
 10
12.3684469272
 20
8.4916062199
 30
0.0
 10
12.3693651841
 20
8.4915425353
 30
0.0
 10
12.3712038813
 20
8.4913315534
 30
0.0
 10
12.3739385194
 20
8.4907670366
 30
0.0
 10
12.376652493
 20
8.4899545401
 30
0.0
 10
12.3793438544
 20
8.4888948249
 30
0.0
 10
12.3820112416
 20
8.4875888951
 30
0.0
 10
12.3846532493
 20
8.4860376984
 30
0.0
 10
12.3872686935
 20
8.4842423998
 30
0.0
 10
12.389856398
 20
8.4822041102
 30
0.0
 10
12.3924152295
 20
8.4799240097
 30
0.0
 10
12.3949441279
 20
8.4774033828
 30
0.0
 10
12.3974419296
 20
8.4746434925
 30
0.0
 10
12.3999075828
 20
8.4716457853
 30
0.0
 10
12.4023399366
 20
8.468411728
 30
0.0
 10
12.4047378688
 20
8.464942923
 30
0.0
 10
12.4071002857
 20
8.4612410936
 30
0.0
 10
12.4094260068
 20
8.4573080344
 30
0.0
 10
12.411713968
 20
8.4531457107
 30
0.0
 10
12.413963013
 20
8.4487561583
 30
0.0
 10
12.4161720511
 20
8.4441415556
 30
0.0
 10
12.4183400087
 20
8.4393041947
 30
0.0
 10
12.4204657684
 20
8.4342464659
 30
0.0
 10
12.4225483168
 20
8.4289709028
 30
0.0
 10
12.424586592
 20
8.4234801152
 30
0.0
 10
12.4272840793
 20
8.4157605744
 30
0.0
 10
12.4305279374
 20
8.405585996
 30
0.0
 10
12.4341726946
 20
8.3927391034
 30
0.0
 10
12.4376178817
 20
8.3791050191
 30
0.0
 10
12.4408565179
 20
8.3647110304
 30
0.0
 10
12.4438820192
 20
8.3495858136
 30
0.0
 10
12.4466882364
 20
8.3337596306
 30
0.0
 10
12.4492694591
 20
8.3172641738
 30
0.0
 10
12.4516204331
 20
8.3001325132
 30
0.0
 10
12.4537363712
 20
8.2823990181
 30
0.0
 10
12.4556129625
 20
8.264099289
 30
0.0
 10
12.4572463905
 20
8.2452700823
 30
0.0
 10
12.4586333305
 20
8.2259492316
 30
0.0
 10
12.4597709575
 20
8.2061755657
 30
0.0
 10
12.4606569508
 20
8.18598883
 30
0.0
 10
12.4612894994
 20
8.1654296043
 30
0.0
 10
12.4616673024
 20
8.1445392352
 30
0.0
 10
12.4617896062
 20
8.1233596973
 30
0.0
 10
12.4616107449
 20
8.0946632223
 30
0.0
 10
12.46074293
 20
8.0583851978
 30
0.0
 10
12.4586977199
 20
8.0145820141
 30
0.0
 10
12.4556601461
 20
7.9706674114
 30
0.0
 10
12.4516546196
 20
7.9269944927
 30
0.0
 10
12.4475188705
 20
7.890934748
 30
0.0
 10
12.4437445338
 20
7.8624781226
 30
0.0
 10
12.4407067956
 20
7.8415085878
 30
0.0
 10
12.4374557129
 20
7.820859381
 30
0.0
 10
12.4339978155
 20
7.8005719914
 30
0.0
 10
12.4303400894
 20
7.7806872128
 30
0.0
 10
12.4264899144
 20
7.7612450139
 30
0.0
 10
12.4224550623
 20
7.7422844718
 30
0.0
 10
12.4182436776
 20
7.723843689
 30
0.0
 10
12.4138642626
 20
7.7059597121
 30
0.0
 10
12.4093256674
 20
7.6886684523
 30
0.0
 10
12.4046370633
 20
7.6720046127
 30
0.0
 10
12.3998079251
 20
7.6560016179
 30
0.0
 10
12.3948480124
 20
7.6406915445
 30
0.0
 10
12.389767344
 20
7.6261050411
 30
0.0
 10
12.3845761856
 20
7.6122712753
 30
0.0
 10
12.3792850122
 20
7.5992177875
 30
0.0
 10
12.3739044934
 20
7.586970696
 30
0.0
 10
12.3692893599
 20
7.5773187409
 30
0.0
 10
12.3655536484
 20
7.5700270094
 30
0.0
 10
12.3627779176
 20
7.5648561533
 30
0.0
 10
12.3599879539
 20
7.5599044119
 30
0.0
 10
12.3571851578
 20
7.5551742332
 30
0.0
 10
12.3543709188
 20
7.5506679755
 30
0.0
 10
12.3515466205
 20
7.5463878933
 30
0.0
 10
12.3487137154
 20
7.5423360958
 30
0.0
 10
12.3458735385
 20
7.5385146036
 30
0.0
 10
12.3430274867
 20
7.5349252549
 30
0.0
 10
12.3401768737
 20
7.5315698108
 30
0.0
 10
12.3373232401
 20
7.5284500931
 30
0.0
 10
12.3353801924
 20
7.5264885123
 30
0.0
 10
12.3344081361
 20
7.525549578
 30
0.0
  0
SPLINE
  5
3E5
100
AcDbEntity
  8
0
100
AcDbSpline
 62
7
  6
CONTINUOUS
 70
0
 71
3
 72
19
 73
15
 74
0
 42
0.0000001
 43
0.0000001
 44
0.0000000001
 40
0.0
 40
0.0
 40
0.0
 40
0.0
 40
0.1504607152
 40
0.2916988954
 40
0.4244197706
 40
0.4878838785
 40
0.549580297
 40
0.6682271827
 40
0.7255606102
 40
0.7817998481
 40
0.8371466355
 40
0.8918135538
 40
0.9460221503
 40
1.0
 40
1.0
 40
1.0
 40
1.0
 10
12.3344081361
 20
7.525549578
 30
0.0
 10
12.3330171985
 20
7.5242060353
 30
0.0
 10
12.3302372284
 20
7.5216851648
 30
0.0
 10
12.3259327176
 20
7.5183258108
 30
0.0
 10
12.3222968728
 20
7.5159498963
 30
0.0
 10
12.3193975261
 20
7.5143409952
 30
0.0
 10
12.3165837118
 20
7.5129597296
 30
0.0
 10
12.3137369557
 20
7.5118306642
 30
0.0
 10
12.3108741811
 20
7.5109810447
 30
0.0
 10
12.308757523
 20
7.5104913272
 30
0.0
 10
12.3066479134
 20
7.5101422739
 30
0.0
 10
12.3045459063
 20
7.5099340715
 30
0.0
 10
12.3024523525
 20
7.5098668046
 30
0.0
 10
12.3010614556
 20
7.5099160049
 30
0.0
 10
12.300369345
 20
7.5099640054
 30
0.0
  0
SPLINE
  5
3E6
100
AcDbEntity
  8
0
100
AcDbSpline
 62
7
  6
CONTINUOUS
 70
0
 71
3
 72
39
 73
35
 74
0
 42
0.0000001
 43
0.0000001
 44
0.0000000001
 40
0.0
 40
0.0
 40
0.0
 40
0.0
 40
0.0310281216
 40
0.0621972317
 40
0.0935022658
 40
0.124935706
 40
0.1564878636
 40
0.1881470059
 40
0.2198996006
 40
0.2517305498
 40
0.2836234558
 40
0.3155608989
 40
0.3475247284
 40
0.3794963618
 40
0.4114570892
 40
0.443388379
 40
0.4752721812
 40
0.5070912259
 40
0.5388293123
 40
0.5704715847
 40
0.6020047929
 40
0.633417531
 40
0.6647004522
 40
0.6958464547
 40
0.7268508344
 40
0.7577114004
 40
0.7884285488
 40
0.8190052919
 40
0.8494472386
 40
0.8797625251
 40
0.9099616931
 40
0.9400575167
 40
0.9700647786
 40
1.0
 40
1.0
 40
1.0
 40
1.0
 10
10.8432462545
 20
6.7005844495
 30
0.0
 10
10.8386661552
 20
6.7009020805
 30
0.0
 10
10.8295036393
 20
6.701847197
 30
0.0
 10
10.8158564913
 20
6.7041775957
 30
0.0
 10
10.8023330866
 20
6.7074135338
 30
0.0
 10
10.7889953459
 20
6.7115402408
 30
0.0
 10
10.7759033072
 20
6.7165389936
 30
0.0
 10
10.7631161645
 20
6.7223871293
 30
0.0
 10
10.7506916527
 20
6.7290581631
 30
0.0
 10
10.7386858846
 20
6.7365219061
 30
0.0
 10
10.7271530743
 20
6.7447446012
 30
0.0
 10
10.716145302
 20
6.7536890757
 30
0.0
 10
10.7057122796
 20
6.7633149077
 30
0.0
 10
10.695901128
 20
6.7735786075
 30
0.0
 10
10.6867561667
 20
6.7844338127
 30
0.0
 10
10.6783187151
 20
6.7958314961
 30
0.0
 10
10.6706269069
 20
6.8077201844
 30
0.0
 10
10.6637155195
 20
6.8200461894
 30
0.0
 10
10.6576158172
 20
6.8327538477
 30
0.0
 10
10.652355411
 20
6.8457857692
 30
0.0
 10
10.6479581334
 20
6.8590830941
 30
0.0
 10
10.6444439305
 20
6.8725857553
 30
0.0
 10
10.6418287712
 20
6.8862327466
 30
0.0
 10
10.6401245726
 20
6.8999623958
 30
0.0
 10
10.6393391444
 20
6.9137126395
 30
0.0
 10
10.6394761506
 20
6.9274213015
 30
0.0
 10
10.640535088
 20
6.9410263707
 30
0.0
 10
10.6425112856
 20
6.9544662819
 30
0.0
 10
10.6453959163
 20
6.9676801869
 30
0.0
 10
10.6491760466
 20
6.9806082541
 30
0.0
 10
10.6538346311
 20
6.9931918527
 30
0.0
 10
10.6593508025
 20
7.0053741466
 30
0.0
 10
10.6656991503
 20
7.0170991504
 30
0.0
 10
10.6704730649
 20
7.0245848632
 30
0.0
 10
10.6729872872
 20
7.0282315282
 30
0.0
  0
SPLINE
  5
3E7
100
AcDbEntity
  8
0
100
AcDbSpline
 62
7
  6
CONTINUOUS
 70
0
 71
3
 72
40
 73
36
 74
0
 42
0.0000001
 43
0.0000001
 44
0.0000000001
 40
0.0
 40
0.0
 40
0.0
 40
0.0
 40
0.0309089969
 40
0.0619472981
 40
0.0931103935
 40
0.1243927704
 40
0.1557866822
 40
0.1872829905
 40
0.2188710212
 40
0.2505388319
 40
0.2822733548
 40
0.3140605971
 40
0.3458858358
 40
0.3777338249
 40
0.4095890056
 40
0.4414357207
 40
0.4732584288
 40
0.5050419184
 40
0.5367715184
 40
0.5684333033
 40
0.6000142911
 40
0.6315026319
 40
0.6628877842
 40
0.694160677
 40
0.7253138554
 40
0.7563416063
 40
0.7872400635
 40
0.8180072873
 40
0.8486433183
 40
0.8791502024
 40
0.9095319843
 40
0.9397946696
 40
0.9548856846
 40
0.9699500374
 40
1.0
 40
1.0
 40
1.0
 40
1.0
 10
10.8402295166
 20
6.6556527284
 30
0.0
 10
10.8351681459
 20
6.6560037356
 30
0.0
 10
10.8250431872
 20
6.6570193764
 30
0.0
 10
10.8099481008
 20
6.6594680096
 30
0.0
 10
10.7949678548
 20
6.6628358999
 30
0.0
 10
10.7801600975
 20
6.6671100677
 30
0.0
 10
10.765580787
 20
6.6722742845
 30
0.0
 10
10.7512853064
 20
6.6783088576
 30
0.0
 10
10.7373278712
 20
6.6851908474
 30
0.0
 10
10.7237614325
 20
6.6928940878
 30
0.0
 10
10.7106374503
 20
6.7013893149
 30
0.0
 10
10.6980057066
 20
6.7106442653
 30
0.0
 10
10.6859141167
 20
6.7206238035
 30
0.0
 10
10.6744085491
 20
6.731290052
 30
0.0
 10
10.6635326534
 20
6.7426025351
 30
0.0
 10
10.6533276952
 20
6.7545183316
 30
0.0
 10
10.643832401
 20
6.7669922358
 30
0.0
 10
10.6350828121
 20
6.7799769286
 30
0.0
 10
10.6271121487
 20
6.7934231547
 30
0.0
 10
10.6199506846
 20
6.8072799087
 30
0.0
 10
10.6136256315
 20
6.8214946261
 30
0.0
 10
10.6081610372
 20
6.8360133818
 30
0.0
 10
10.6035776934
 20
6.8507810923
 30
0.0
 10
10.5998930574
 20
6.8657417232
 30
0.0
 10
10.5971211843
 20
6.8808384992
 30
0.0
 10
10.5952726731
 20
6.8960141187
 30
0.0
 10
10.5943546239
 20
6.9112109657
 30
0.0
 10
10.5943706121
 20
6.9263713384
 30
0.0
 10
10.5953206595
 20
6.941437625
 30
0.0
 10
10.5972012805
 20
6.956352675
 30
0.0
 10
10.6000053076
 20
6.9710594454
 30
0.0
 10
10.6031060067
 20
6.9831075022
 30
0.0
 10
10.6060364613
 20
6.9925835288
 30
0.0
 10
10.6092579505
 20
7.0019273226
 30
0.0
 10
10.6120092623
 20
7.0088098027
 30
0.0
 10
10.6139879444
 20
7.0133280535
 30
0.0
  0
SPLINE
  5
3E8
100
AcDbEntity
  8
0
100
AcDbSpline
 62
4
  6
CONTINUOUS
 70
0
 71
3
 72
403
 73
399
 74
0
 42
0.0000001
 43
0.0000001
 44
0.0000000001
 40
0.0
 40
0.0
 40
0.0
 40
0.0
 40
0.015625
 40
0.0234375
 40
0.03125
 40
0.0390625
 40
0.04296875
 40
0.046875
 40
0.05078125
 40
0.0546875
 40
0.056640625
 40
0.05859375
 40
0.0595703125
 40
0.060546875
 40
0.0615234375
 40
0.0620117188
 40
0.0622558594
 40
0.0625
 40
0.0627441406
 40
0.0629882812
 40
0.0634765625
 40
0.064453125
 40
0.0654296875
 40
0.06640625
 40
0.068359375
 40
0.0703125
 40
0.07421875
 40
0.078125
 40
0.08203125
 40
0.0859375
 40
0.09375
 40
0.1015625
 40
0.10546875
 40
0.109375
 40
0.11328125
 40
0.1171875
 40
0.119140625
 40
0.12109375
 40
0.1220703125
 40
0.123046875
 40
0.1240234375
 40
0.1245117188
 40
0.1247558594
 40
0.125
 40
0.1252441406
 40
0.1254882812
 40
0.1259765625
 40
0.126953125
 40
0.1279296875
 40
0.12890625
 40
0.130859375
 40
0.1328125
 40
0.13671875
 40
0.140625
 40
0.14453125
 40
0.1484375
 40
0.15625
 40
0.1640625
 40
0.16796875
 40
0.171875
 40
0.17578125
 40
0.1796875
 40
0.181640625
 40
0.18359375
 40
0.1845703125
 40
0.185546875
 40
0.1865234375
 40
0.1870117188
 40
0.1872558594
 40
0.1875
 40
0.1877441406
 40
0.1879882812
 40
0.1884765625
 40
0.189453125
 40
0.1904296875
 40
0.19140625
 40
0.193359375
 40
0.1953125
 40
0.19921875
 40
0.203125
 40
0.20703125
 40
0.2109375
 40
0.21875
 40
0.2265625
 40
0.23046875
 40
0.234375
 40
0.23828125
 40
0.2421875
 40
0.244140625
 40
0.24609375
 40
0.2470703125
 40
0.248046875
 40
0.2490234375
 40
0.2495117188
 40
0.2497558594
 40
0.25
 40
0.2502441406
 40
0.2504882812
 40
0.2509765625
 40
0.251953125
 40
0.2529296875
 40
0.25390625
 40
0.255859375
 40
0.2578125
 40
0.26171875
 40
0.265625
 40
0.26953125
 40
0.2734375
 40
0.28125
 40
0.2890625
 40
0.29296875
 40
0.296875
 40
0.30078125
 40
0.3046875
 40
0.306640625
 40
0.30859375
 40
0.3095703125
 40
0.310546875
 40
0.3115234375
 40
0.3120117188
 40
0.3122558594
 40
0.3125
 40
0.3127441406
 40
0.3129882812
 40
0.3134765625
 40
0.314453125
 40
0.3154296875
 40
0.31640625
 40
0.318359375
 40
0.3203125
 40
0.32421875
 40
0.328125
 40
0.33203125
 40
0.3359375
 40
0.34375
 40
0.3515625
 40
0.35546875
 40
0.359375
 40
0.36328125
 40
0.3671875
 40
0.369140625
 40
0.37109375
 40
0.3720703125
 40
0.373046875
 40
0.3740234375
 40
0.3745117188
 40
0.3747558594
 40
0.375
 40
0.3752441406
 40
0.3754882812
 40
0.3759765625
 40
0.376953125
 40
0.3779296875
 40
0.37890625
 40
0.380859375
 40
0.3828125
 40
0.38671875
 40
0.390625
 40
0.39453125
 40
0.3984375
 40
0.40625
 40
0.4140625
 40
0.41796875
 40
0.421875
 40
0.42578125
 40
0.4296875
 40
0.431640625
 40
0.43359375
 40
0.4345703125
 40
0.435546875
 40
0.4365234375
 40
0.4370117188
 40
0.4372558594
 40
0.4375
 40
0.4377441406
 40
0.4379882812
 40
0.4384765625
 40
0.439453125
 40
0.4404296875
 40
0.44140625
 40
0.443359375
 40
0.4453125
 40
0.44921875
 40
0.453125
 40
0.45703125
 40
0.4609375
 40
0.46875
 40
0.4765625
 40
0.48046875
 40
0.484375
 40
0.48828125
 40
0.4921875
 40
0.494140625
 40
0.49609375
 40
0.4970703125
 40
0.498046875
 40
0.4990234375
 40
0.4995117188
 40
0.4997558594
 40
0.5
 40
0.5002441406
 40
0.5004882812
 40
0.5009765625
 40
0.501953125
 40
0.5029296875
 40
0.50390625
 40
0.505859375
 40
0.5078125
 40
0.51171875
 40
0.515625
 40
0.51953125
 40
0.5234375
 40
0.53125
 40
0.5390625
 40
0.54296875
 40
0.546875
 40
0.55078125
 40
0.5546875
 40
0.556640625
 40
0.55859375
 40
0.5595703125
 40
0.560546875
 40
0.5615234375
 40
0.5620117188
 40
0.5622558594
 40
0.5625
 40
0.5627441406
 40
0.5629882812
 40
0.5634765625
 40
0.564453125
 40
0.5654296875
 40
0.56640625
 40
0.568359375
 40
0.5703125
 40
0.57421875
 40
0.578125
 40
0.58203125
 40
0.5859375
 40
0.59375
 40
0.6015625
 40
0.60546875
 40
0.609375
 40
0.61328125
 40
0.6171875
 40
0.619140625
 40
0.62109375
 40
0.6220703125
 40
0.623046875
 40
0.6240234375
 40
0.6245117188
 40
0.6247558594
 40
0.625
 40
0.6252441406
 40
0.6254882812
 40
0.6259765625
 40
0.626953125
 40
0.6279296875
 40
0.62890625
 40
0.630859375
 40
0.6328125
 40
0.63671875
 40
0.640625
 40
0.64453125
 40
0.6484375
 40
0.65625
 40
0.6640625
 40
0.66796875
 40
0.671875
 40
0.67578125
 40
0.6796875
 40
0.681640625
 40
0.68359375
 40
0.6845703125
 40
0.685546875
 40
0.6865234375
 40
0.6870117188
 40
0.6872558594
 40
0.6875
 40
0.6877441406
 40
0.6879882812
 40
0.6884765625
 40
0.689453125
 40
0.6904296875
 40
0.69140625
 40
0.693359375
 40
0.6953125
 40
0.69921875
 40
0.703125
 40
0.70703125
 40
0.7109375
 40
0.71875
 40
0.7265625
 40
0.73046875
 40
0.734375
 40
0.73828125
 40
0.7421875
 40
0.744140625
 40
0.74609375
 40
0.7470703125
 40
0.748046875
 40
0.7490234375
 40
0.7495117188
 40
0.7497558594
 40
0.75
 40
0.7502441406
 40
0.7504882812
 40
0.7509765625
 40
0.751953125
 40
0.7529296875
 40
0.75390625
 40
0.755859375
 40
0.7578125
 40
0.76171875
 40
0.765625
 40
0.76953125
 40
0.7734375
 40
0.78125
 40
0.7890625
 40
0.79296875
 40
0.796875
 40
0.80078125
 40
0.8046875
 40
0.806640625
 40
0.80859375
 40
0.8095703125
 40
0.810546875
 40
0.8115234375
 40
0.8120117188
 40
0.8122558594
 40
0.8125
 40
0.8127441406
 40
0.8129882812
 40
0.8134765625
 40
0.814453125
 40
0.8154296875
 40
0.81640625
 40
0.818359375
 40
0.8203125
 40
0.82421875
 40
0.828125
 40
0.83203125
 40
0.8359375
 40
0.84375
 40
0.8515625
 40
0.85546875
 40
0.859375
 40
0.86328125
 40
0.8671875
 40
0.869140625
 40
0.87109375
 40
0.8720703125
 40
0.873046875
 40
0.8740234375
 40
0.8745117188
 40
0.8747558594
 40
0.875
 40
0.8752441406
 40
0.8754882812
 40
0.8759765625
 40
0.876953125
 40
0.8779296875
 40
0.87890625
 40
0.880859375
 40
0.8828125
 40
0.88671875
 40
0.890625
 40
0.89453125
 40
0.8984375
 40
0.90625
 40
0.9140625
 40
0.91796875
 40
0.921875
 40
0.92578125
 40
0.9296875
 40
0.931640625
 40
0.93359375
 40
0.9345703125
 40
0.935546875
 40
0.9365234375
 40
0.9370117188
 40
0.9372558594
 40
0.9375
 40
0.9377441406
 40
0.9379882812
 40
0.9384765625
 40
0.939453125
 40
0.9404296875
 40
0.94140625
 40
0.943359375
 40
0.9453125
 40
0.94921875
 40
0.953125
 40
0.95703125
 40
0.9609375
 40
0.96875
 40
0.9765625
 40
0.984375
 40
1.0
 40
1.0
 40
1.0
 40
1.0
 10
11.0111759234
 20
7.5318780349
 30
0.0
 10
11.0114831351
 20
7.5287235428
 30
0.0
 10
11.0119439526
 20
7.5239918046
 30
0.0
 10
11.0125583759
 20
7.5176828203
 30
0.0
 10
11.0130191934
 20
7.5129510822
 30
0.0
 10
11.0134032079
 20
7.509007967
 30
0.0
 10
11.0137104198
 20
7.5058534749
 30
0.0
 10
11.0139408276
 20
7.5034876057
 30
0.0
 10
11.01417124
 20
7.5011217371
 30
0.0
 10
11.0143632359
 20
7.499150178
 30
0.0
 10
11.0145168651
 20
7.497572935
 30
0.0
 10
11.0146128092
 20
7.4965871485
 30
0.0
 10
11.0146897342
 20
7.4957985412
 30
0.0
 10
11.0147469635
 20
7.495207026
 30
0.0
 10
11.0147961322
 20
7.4947142867
 30
0.0
 10
11.0148276504
 20
7.4943689961
 30
0.0
 10
11.0148501887
 20
7.4941722698
 30
0.0
 10
11.0148543373
 20
7.494023084
 30
0.0
 10
11.0149072424
 20
7.493880171
 30
0.0
 10
11.0149607756
 20
7.4936874323
 30
0.0
 10
11.0150623826
 20
7.493351159
 30
0.0
 10
11.0152033929
 20
7.4928702356
 30
0.0
 10
11.0153743783
 20
7.4922933557
 30
0.0
 10
11.0156017396
 20
7.4915241027
 30
0.0
 10
11.0158861533
 20
7.4905625638
 30
0.0
 10
11.0163410966
 20
7.4890240864
 30
0.0
 10
11.0169098164
 20
7.4871009948
 30
0.0
 10
11.0175922628
 20
7.4847932827
 30
0.0
 10
11.0182747138
 20
7.4824855711
 30
0.0
 10
11.0191846469
 20
7.4794086222
 30
0.0
 10
11.0203220638
 20
7.4755624361
 30
0.0
 10
11.0214594804
 20
7.4717162499
 30
0.0
 10
11.0223694141
 20
7.4686393011
 30
0.0
 10
11.0230518632
 20
7.4663315891
 30
0.0
 10
11.0237343167
 20
7.4640238786
 30
0.0
 10
11.0243030143
 20
7.4621007819
 30
0.0
 10
11.024758003
 20
7.460562315
 30
0.0
 10
11.0250423011
 20
7.4596007492
 30
0.0
 10
11.0252698995
 20
7.4588315515
 30
0.0
 10
11.0254401605
 20
7.458254503
 30
0.0
 10
11.0255834374
 20
7.4577741068
 30
0.0
 10
11.0256809981
 20
7.4574368925
 30
0.0
 10
11.0257410146
 20
7.4572456615
 30
0.0
 10
11.0257740053
 20
7.4570981171
 30
0.0
 10
11.0258529488
 20
7.4569663262
 30
0.0
 10
11.0259421779
 20
7.4567851099
 30
0.0
 10
11.026105797
 20
7.4564705417
 30
0.0
 10
11.0263356341
 20
7.4560198201
 30
0.0
 10
11.0266131098
 20
7.455479527
 30
0.0
 10
11.0269824938
 20
7.4547589362
 30
0.0
 10
11.0274444236
 20
7.4538582661
 30
0.0
 10
11.0281833996
 20
7.4524171557
 30
0.0
 10
11.0291071579
 20
7.4506157809
 30
0.0
 10
11.0302156515
 20
7.4484541255
 30
0.0
 10
11.0313241495
 20
7.4462924716
 30
0.0
 10
11.0328021452
 20
7.4434102658
 30
0.0
 10
11.0346496404
 20
7.4398075088
 30
0.0
 10
11.0364971353
 20
7.4362047517
 30
0.0
 10
11.0379751316
 20
7.4333225462
 30
0.0
 10
11.0390836278
 20
7.4311608915
 30
0.0
 10
11.0401921282
 20
7.4289992389
 30
0.0
 10
11.0411158652
 20
7.4271978554
 30
0.0
 10
11.0418548846
 20
7.4257567627
 30
0.0
 10
11.042316704
 20
7.4248560476
 30
0.0
 10
11.0426863147
 20
7.4241355492
 30
0.0
 10
11.0429630977
 20
7.4235949736
 30
0.0
 10
11.0431951023
 20
7.423145136
 30
0.0
 10
11.043354852
 20
7.4228289897
 30
0.0
 10
11.0434502808
 20
7.422650302
 30
0.0
 10
11.043510181
 20
7.4225107441
 30
0.0
 10
11.043614695
 20
7.422392371
 30
0.0
 10
11.0437384853
 20
7.4222271508
 30
0.0
 10
11.0439623688
 20
7.4219414582
 30
0.0
 10
11.0442784118
 20
7.421531526
 30
0.0
 10
11.0446592858
 20
7.4210403778
 30
0.0
 10
11.0451665512
 20
7.4203852444
 30
0.0
 10
11.045800827
 20
7.4195664198
 30
0.0
 10
11.0468155597
 20
7.4182562489
 30
0.0
 10
11.0480840128
 20
7.416618553
 30
0.0
 10
11.0496061407
 20
7.4146533103
 30
0.0
 10
11.0511282727
 20
7.4126880697
 30
0.0
 10
11.0531577807
 20
7.4100677481
 30
0.0
 10
11.0556946662
 20
7.4067923464
 30
0.0
 10
11.0582315514
 20
7.4035169445
 30
0.0
 10
11.0602610598
 20
7.4008966233
 30
0.0
 10
11.0617831904
 20
7.3989313815
 30
0.0
 10
11.063305324
 20
7.3969661432
 30
0.0
 10
11.064573759
 20
7.3953284337
 30
0.0
 10
11.0655885288
 20
7.3940182906
 30
0.0
 10
11.0662227103
 20
7.3931993954
 30
0.0
 10
11.066730169
 20
7.3925444069
 30
0.0
 10
11.0671104523
 20
7.3920528161
 30
0.0
 10
11.0674283436
 20
7.3916442685
 30
0.0
 10
11.0676489275
 20
7.3913561041
 30
0.0
 10
11.0677780046
 20
7.3911948444
 30
0.0
 10
11.0678662793
 20
7.3910643057
 30
0.0
 10
11.067987172
 20
7.3909704398
 30
0.0
 10
11.0681369848
 20
7.3908324934
 30
0.0
 10
11.0684044581
 20
7.3905970471
 30
0.0
 10
11.0687837914
 20
7.3902575793
 30
0.0
 10
11.0692401776
 20
7.3898515517
 30
0.0
 10
11.0698482782
 20
7.3893097157
 30
0.0
 10
11.0706085459
 20
7.3886325803
 30
0.0
 10
11.0718248948
 20
7.3875490744
 30
0.0
 10
11.0733453582
 20
7.3861947226
 30
0.0
 10
11.0751699026
 20
7.3845694874
 30
0.0
 10
11.0769944502
 20
7.3829442557
 30
0.0
 10
11.0794271791
 20
7.3807772788
 30
0.0
 10
11.0824680907
 20
7.3780685582
 30
0.0
 10
11.085509002
 20
7.3753598373
 30
0.0
 10
11.0879417314
 20
7.373192861
 30
0.0
 10
11.0897662777
 20
7.3715676277
 30
0.0
 10
11.0915908267
 20
7.3699423983
 30
0.0
 10
11.0931112759
 20
7.3685880286
 30
0.0
 10
11.0943276537
 20
7.3675045592
 30
0.0
 10
11.0950878479
 20
7.366827331
 30
0.0
 10
11.0956960994
 20
7.3662856854
 30
0.0
 10
11.0961520246
 20
7.365879076
 30
0.0
 10
11.0965328003
 20
7.3655414285
 30
0.0
 10
11.0967976987
 20
7.3653027328
 30
0.0
 10
11.096951637
 20
7.3651699928
 30
0.0
 10
11.0970598574
 20
7.3650601344
 30
0.0
 10
11.0971957273
 20
7.3649896609
 30
0.0
 10
11.0973672427
 20
7.3648819583
 30
0.0
 10
11.0976718882
 20
7.3646998796
 30
0.0
 10
11.0981047469
 20
7.3644364207
 30
0.0
 10
11.0986251828
 20
7.3641217024
 30
0.0
 10
11.0993187461
 20
7.3637015777
 30
0.0
 10
11.1001858205
 20
7.3631765931
 30
0.0
 10
11.1015730723
 20
7.3623365221
 30
0.0
 10
11.1033071602
 20
7.3612864661
 30
0.0
 10
11.1053880557
 20
7.3600263849
 30
0.0
 10
11.1074689539
 20
7.3587663074
 30
0.0
 10
11.1102434839
 20
7.3570862028
 30
0.0
 10
11.1137116467
 20
7.3549860725
 30
0.0
 10
11.1171798093
 20
7.3528859419
 30
0.0
 10
11.1199543396
 20
7.3512058379
 30
0.0
 10
11.1220352369
 20
7.3499457587
 30
0.0
 10
11.1241161359
 20
7.3486856838
 30
0.0
 10
11.1258502128
 20
7.3476356081
 30
0.0
 10
11.127237487
 20
7.3467955773
 30
0.0
 10
11.1281045044
 20
7.3462704904
 30
0.0
 10
11.1287981848
 20
7.3458505759
 30
0.0
 10
11.1293182631
 20
7.3455352154
 30
0.0
 10
11.1297522406
 20
7.3452737656
 30
0.0
 10
11.1300548887
 20
7.3450881004
 30
0.0
 10
11.1302296044
 20
7.3449861442
 30
0.0
 10
11.1303556442
 20
7.3448980195
 30
0.0
 10
11.1305007847
 20
7.3448544564
 30
0.0
 10
11.1306876428
 20
7.3447808286
 30
0.0
 10
11.1310177488
 20
7.3446592221
 30
0.0
 10
11.1314877057
 20
7.3444817123
 30
0.0
 10
11.1320523487
 20
7.3442703211
 30
0.0
 10
11.1328049635
 20
7.3439879002
 30
0.0
 10
11.1337458149
 20
7.3436350678
 30
0.0
 10
11.1352511309
 20
7.3430704278
 30
0.0
 10
11.1371327917
 20
7.3423646648
 30
0.0
 10
11.1393907779
 20
7.3415177334
 30
0.0
 10
11.1416487659
 20
7.3406708062
 30
0.0
 10
11.144659416
 20
7.3395415685
 30
0.0
 10
11.1484227288
 20
7.3381300219
 30
0.0
 10
11.1521860414
 20
7.3367184749
 30
0.0
 10
11.1551966917
 20
7.3355892378
 30
0.0
 10
11.1574546791
 20
7.3347423088
 30
0.0
 10
11.1597126678
 20
7.3338953843
 30
0.0
 10
11.1615943208
 20
7.3331895997
 30
0.0
 10
11.1630996528
 20
7.3326250038
 30
0.0
 10
11.1640404634
 20
7.3322720589
 30
0.0
 10
11.1647931619
 20
7.3319898691
 30
0.0
 10
11.1653575489
 20
7.331777772
 30
0.0
 10
11.1658283071
 20
7.3316024707
 30
0.0
 10
11.1661569826
 20
7.3314769217
 30
0.0
 10
11.1663461326
 20
7.3314096108
 30
0.0
 10
11.1664842333
 20
7.3313466444
 30
0.0
 10
11.1666367132
 20
7.3313313952
 30
0.0
 10
11.1668350041
 20
7.3312944187
 30
0.0
 10
11.16718435
 20
7.3312374647
 30
0.0
 10
11.1676821938
 20
7.3311520475
 30
0.0
 10
11.1682801294
 20
7.3310512822
 30
0.0
 10
11.1690771941
 20
7.3309163224
 30
0.0
 10
11.1700735876
 20
7.3307478301
 30
0.0
 10
11.1716677822
 20
7.3304781265
 30
0.0
 10
11.1736605375
 20
7.3301410369
 30
0.0
 10
11.1760518387
 20
7.3297365122
 30
0.0
 10
11.1784431412
 20
7.3293319921
 30
0.0
 10
11.1816315442
 20
7.3287926303
 30
0.0
 10
11.185617048
 20
7.3281184287
 30
0.0
 10
11.1896025518
 20
7.3274442267
 30
0.0
 10
11.1927909548
 20
7.3269048656
 30
0.0
 10
11.1951822571
 20
7.3265003435
 30
0.0
 10
11.1975735591
 20
7.3260958263
 30
0.0
 10
11.199566312
 20
7.3257587135
 30
0.0
 10
11.2011605114
 20
7.3254890571
 30
0.0
 10
11.2021568928
 20
7.3253204446
 30
0.0
 10
11.2029539824
 20
7.3251857317
 30
0.0
 10
11.2035518421
 20
7.325084212
 30
0.0
 10
11.2040499232
 20
7.3250011551
 30
0.0
 10
11.2043988456
 20
7.3249399876
 30
0.0
 10
11.204597815
 20
7.3249097622
 30
0.0
 10
11.2047482106
 20
7.3248737758
 30
0.0
 10
11.2048941395
 20
7.3248886948
 30
0.0
 10
11.2050902695
 20
7.3248908304
 30
0.0
 10
11.205432771
 20
7.3249028408
 30
0.0
 10
11.2059224383
 20
7.3249156732
 30
0.0
 10
11.2065098767
 20
7.3249329234
 30
0.0
 10
11.2072931846
 20
7.324955277
 30
0.0
 10
11.2082723001
 20
7.3249834405
 30
0.0
 10
11.2098388957
 20
7.3250283783
 30
0.0
 10
11.2117971365
 20
7.325084593
 30
0.0
 10
11.214147027
 20
7.3251520325
 30
0.0
 10
11.2164969171
 20
7.3252194768
 30
0.0
 10
11.219630104
 20
7.3253094009
 30
0.0
 10
11.2235465876
 20
7.3254218066
 30
0.0
 10
11.2274630713
 20
7.3255342119
 30
0.0
 10
11.2305962582
 20
7.3256241367
 30
0.0
 10
11.2329461486
 20
7.325691579
 30
0.0
 10
11.235296038
 20
7.325759026
 30
0.0
 10
11.2372542821
 20
7.3258152172
 30
0.0
 10
11.238820871
 20
7.3258602031
 30
0.0
 10
11.2398000036
 20
7.3258882442
 30
0.0
 10
11.2405832762
 20
7.325910849
 30
0.0
 10
11.2411708226
 20
7.3259273318
 30
0.0
 10
11.241660152
 20
7.3259425653
 30
0.0
 10
11.2420032568
 20
7.3259502892
 30
0.0
 10
11.2421984201
 20
7.3259592928
 30
0.0
 10
11.2423473182
 20
7.3259531154
 30
0.0
 10
11.2424865622
 20
7.3259963638
 30
0.0
 10
11.2426755884
 20
7.3260367881
 30
0.0
 10
11.2430048152
 20
7.3261155631
 30
0.0
 10
11.2434759595
 20
7.3262238994
 30
0.0
 10
11.2440409815
 20
7.3263557004
 30
0.0
 10
11.2447944669
 20
7.3265308073
 30
0.0
 10
11.2457362816
 20
7.3267499059
 30
0.0
 10
11.2472432087
 20
7.3271003435
 30
0.0
 10
11.2491268594
 20
7.3275384317
 30
0.0
 10
11.2513872437
 20
7.3280641199
 30
0.0
 10
11.2536476271
 20
7.3285898128
 30
0.0
 10
11.256661472
 20
7.329290735
 30
0.0
 10
11.260428778
 20
7.3301668884
 30
0.0
 10
11.264196084
 20
7.3310430414
 30
0.0
 10
11.2672099287
 20
7.3317439642
 30
0.0
 10
11.2694703127
 20
7.3322696552
 30
0.0
 10
11.2717306949
 20
7.3327953507
 30
0.0
 10
11.2736143523
 20
7.3332334161
 30
0.0
 10
11.2751212656
 20
7.3335839001
 30
0.0
 10
11.2760631152
 20
7.3338028807
 30
0.0
 10
11.276816529
 20
7.3339782297
 30
0.0
 10
11.2773817698
 20
7.3341092911
 30
0.0
 10
11.2778522298
 20
7.3342199415
 30
0.0
 10
11.2781826782
 20
7.3342945855
 30
0.0
 10
11.278369747
 20
7.3343416287
 30
0.0
 10
11.2785150035
 20
7.3343645459
 30
0.0
 10
11.2786413197
 20
7.3344347293
 30
0.0
 10
11.2788163479
 20
7.3345118201
 30
0.0
 10
11.2791195691
 20
7.3346544107
 30
0.0
 10
11.2795543514
 20
7.3348540956
 30
0.0
 10
11.2800754015
 20
7.3350954364
 30
0.0
 10
11.2807703755
 20
7.3354166238
 30
0.0
 10
11.2816390106
 20
7.3358183135
 30
0.0
 10
11.2830288728
 20
7.3364609023
 30
0.0
 10
11.2847661848
 20
7.3372641776
 30
0.0
 10
11.2868509659
 20
7.3382280911
 30
0.0
 10
11.2889357452
 20
7.3391920091
 30
0.0
 10
11.2917154516
 20
7.3404772316
 30
0.0
 10
11.2951900844
 20
7.3420837602
 30
0.0
 10
11.2986647173
 20
7.3436902884
 30
0.0
 10
11.3014444234
 20
7.3449755115
 30
0.0
 10
11.3035292036
 20
7.3459394277
 30
0.0
 10
11.3056139815
 20
7.3469033482
 30
0.0
 10
11.3073513036
 20
7.3477066016
 30
0.0
 10
11.3087411451
 20
7.3483492351
 30
0.0
 10
11.309609833
 20
7.3487508108
 30
0.0
 10
11.3103046987
 20
7.3490722324
 30
0.0
 10
11.3108260794
 20
7.3493128575
 30
0.0
 10
11.3112598274
 20
7.3495147816
 30
0.0
 10
11.3115648951
 20
7.3496533748
 30
0.0
 10
11.3117369648
 20
7.3497368705
 30
0.0
 10
11.3118723685
 20
7.3497873804
 30
0.0
 10
11.3119834935
 20
7.3498841879
 30
0.0
 10
11.3121401289
 20
7.3499971155
 30
0.0
 10
11.3124102951
 20
7.3502022629
 30
0.0
 10
11.3127983097
 20
7.350491397
 30
0.0
 10
11.3132630442
 20
7.3508400416
 30
0.0
 10
11.3138829986
 20
7.351304313
 30
0.0
 10
11.3146578361
 20
7.3518848536
 30
0.0
 10
11.315897635
 20
7.352813606
 30
0.0
 10
11.3174473634
 20
7.3539745851
 30
0.0
 10
11.3193070461
 20
7.3553677434
 30
0.0
 10
11.3211667265
 20
7.3567609063
 30
0.0
 10
11.3236463012
 20
7.3586184551
 30
0.0
 10
11.3267457693
 20
7.3609403918
 30
0.0
 10
11.3298452376
 20
7.3632623281
 30
0.0
 10
11.3323248119
 20
7.3651198775
 30
0.0
 10
11.3341844936
 20
7.3665130387
 30
0.0
 10
11.3360441716
 20
7.3679062032
 30
0.0
 10
11.3375939148
 20
7.3690671631
 30
0.0
 10
11.3388336835
 20
7.3699959547
 30
0.0
 10
11.339608598
 20
7.3705763957
 30
0.0
 10
11.3402283942
 20
7.3710408714
 30
0.0
 10
11.3406936122
 20
7.3713888917
 30
0.0
 10
11.3410801139
 20
7.371679979
 30
0.0
 10
11.3413529808
 20
7.3718816396
 30
0.0
 10
11.341505289
 20
7.3720001541
 30
0.0
 10
11.3416297058
 20
7.3720798004
 30
0.0
 10
11.3417151878
 20
7.3721947649
 30
0.0
 10
11.3418427447
 20
7.3723357315
 30
0.0
 10
11.3420596416
 20
7.372588163
 30
0.0
 10
11.3423728025
 20
7.3729457785
 30
0.0
 10
11.3427471796
 20
7.3733762016
 30
0.0
 10
11.3432468437
 20
7.3739496504
 30
0.0
 10
11.3438712544
 20
7.374666615
 30
0.0
 10
11.3448704062
 20
7.3758136726
 30
0.0
 10
11.3461193134
 20
7.3772475239
 30
0.0
 10
11.3476180161
 20
7.378968133
 30
0.0
 10
11.349116715
 20
7.3806887454
 30
0.0
 10
11.3511149815
 20
7.3829828941
 30
0.0
 10
11.3536128142
 20
7.3858505804
 30
0.0
 10
11.3561106472
 20
7.3887182664
 30
0.0
 10
11.3581089132
 20
7.3910124156
 30
0.0
 10
11.3596076137
 20
7.3927330266
 30
0.0
 10
11.3611063103
 20
7.3944536406
 30
0.0
 10
11.3623552364
 20
7.3958874765
 30
0.0
 10
11.3633543498
 20
7.3970345656
 30
0.0
 10
11.3639788583
 20
7.39775145
 30
0.0
 10
11.3644783215
 20
7.3983250636
 30
0.0
 10
11.3648533124
 20
7.3987549831
 30
0.0
 10
11.365164553
 20
7.3991141742
 30
0.0
 10
11.3653848779
 20
7.399363793
 30
0.0
 10
11.3655069423
 20
7.3995092661
 30
0.0
 10
11.3656092956
 20
7.3996103883
 30
0.0
 10
11.3656703465
 20
7.3997420243
 30
0.0
 10
11.3657661544
 20
7.3999068954
 30
0.0
 10
11.3659271059
 20
7.4002003789
 30
0.0
 10
11.366160546
 20
7.4006170484
 30
0.0
 10
11.3664391719
 20
7.4011181615
 30
0.0
 10
11.3668111978
 20
7.4017859248
 30
0.0
 10
11.3672760506
 20
7.4026207615
 30
0.0
 10
11.3680199154
 20
7.4039564262
 30
0.0
 10
11.3689497119
 20
7.4056260324
 30
0.0
 10
11.3700654826
 20
7.407629549
 30
0.0
 10
11.3711812493
 20
7.4096330685
 30
0.0
 10
11.3726689396
 20
7.4123044268
 30
0.0
 10
11.3745285519
 20
7.4156436251
 30
0.0
 10
11.3763881646
 20
7.4189828231
 30
0.0
 10
11.3778758544
 20
7.4216541818
 30
0.0
 10
11.3789916228
 20
7.4236577002
 30
0.0
 10
11.3801073869
 20
7.4256612208
 30
0.0
 10
11.3810372039
 20
7.4273308146
 30
0.0
 10
11.3817810269
 20
7.4286665045
 30
0.0
 10
11.382245986
 20
7.4295012769
 30
0.0
 10
11.3826177936
 20
7.4301691723
 30
0.0
 10
11.3828970865
 20
7.4306698816
 30
0.0
 10
11.3831284399
 20
7.4310878147
 30
0.0
 10
11.3832931164
 20
7.4313790425
 30
0.0
 10
11.383382956
 20
7.4315475277
 30
0.0
 10
11.3834623399
 20
7.4316680623
 30
0.0
 10
11.3834958374
 20
7.4318108797
 30
0.0
 10
11.3835565065
 20
7.4319935304
 30
0.0
 10
11.3836552201
 20
7.4323167905
 30
0.0
 10
11.3838001383
 20
7.4327766974
 30
0.0
 10
11.3839723714
 20
7.433329396
 30
0.0
 10
11.3842025983
 20
7.4340660444
 30
0.0
 10
11.3844901823
 20
7.4349869519
 30
0.0
 10
11.3849504284
 20
7.4364603496
 30
0.0
 10
11.3855256977
 20
7.4383021154
 30
0.0
 10
11.3862160373
 20
7.4405122264
 30
0.0
 10
11.3869063724
 20
7.4427223395
 30
0.0
 10
11.3878268209
 20
7.4456691563
 30
0.0
 10
11.3889773809
 20
7.4493526775
 30
0.0
 10
11.3901279412
 20
7.4530361985
 30
0.0
 10
11.391048389
 20
7.4559830155
 30
0.0
 10
11.3917387261
 20
7.4581931278
 30
0.0
 10
11.3924290585
 20
7.4604032418
 30
0.0
 10
11.3930043501
 20
7.4622449982
 30
0.0
 10
11.3934645508
 20
7.4637184151
 30
0.0
 10
11.3937522502
 20
7.4646392737
 30
0.0
 10
11.3939822403
 20
7.4653760224
 30
0.0
 10
11.3941551969
 20
7.4659284148
 30
0.0
 10
11.3942978511
 20
7.4663892799
 30
0.0
 10
11.3944006064
 20
7.4667108293
 30
0.0
 10
11.3944547997
 20
7.4668962209
 30
0.0
 10
11.3945081888
 20
7.4670306191
 30
0.0
 10
11.3945128634
 20
7.4671827749
 30
0.0
 10
11.3945360884
 20
7.4673794552
 30
0.0
 10
11.3945688152
 20
7.4677265317
 30
0.0
 10
11.3946197068
 20
7.4682208464
 30
0.0
 10
11.3946790051
 20
7.4688146698
 30
0.0
 10
11.3947586883
 20
7.4696062089
 30
0.0
 10
11.3948580805
 20
7.47059571
 30
0.0
 10
11.3950172263
 20
7.4721788685
 30
0.0
 10
11.3952161179
 20
7.4741578315
 30
0.0
 10
11.3954548053
 20
7.4765325807
 30
0.0
 10
11.395693488
 20
7.4789073316
 30
0.0
 10
11.3960117333
 20
7.4820736655
 30
0.0
 10
11.3964095393
 20
7.4860315832
 30
0.0
 10
11.3968869067
 20
7.4907810843
 30
0.0
 10
11.3975233966
 20
7.4971137524
 30
0.0
 10
11.398000764
 20
7.5018632536
 30
0.0
 10
11.3983190089
 20
7.5050295876
 30
0.0
  0
SPLINE
  5
3E9
100
AcDbEntity
  8
0
100
AcDbSpline
 62
4
  6
CONTINUOUS
 70
0
 71
3
 72
403
 73
399
 74
0
 42
0.0000001
 43
0.0000001
 44
0.0000000001
 40
0.0
 40
0.0
 40
0.0
 40
0.0
 40
0.015625
 40
0.0234375
 40
0.03125
 40
0.0390625
 40
0.04296875
 40
0.046875
 40
0.05078125
 40
0.0546875
 40
0.056640625
 40
0.05859375
 40
0.0595703125
 40
0.060546875
 40
0.0615234375
 40
0.0620117188
 40
0.0622558594
 40
0.0625
 40
0.0627441406
 40
0.0629882812
 40
0.0634765625
 40
0.064453125
 40
0.0654296875
 40
0.06640625
 40
0.068359375
 40
0.0703125
 40
0.07421875
 40
0.078125
 40
0.08203125
 40
0.0859375
 40
0.09375
 40
0.1015625
 40
0.10546875
 40
0.109375
 40
0.11328125
 40
0.1171875
 40
0.119140625
 40
0.12109375
 40
0.1220703125
 40
0.123046875
 40
0.1240234375
 40
0.1245117188
 40
0.1247558594
 40
0.125
 40
0.1252441406
 40
0.1254882812
 40
0.1259765625
 40
0.126953125
 40
0.1279296875
 40
0.12890625
 40
0.130859375
 40
0.1328125
 40
0.13671875
 40
0.140625
 40
0.14453125
 40
0.1484375
 40
0.15625
 40
0.1640625
 40
0.16796875
 40
0.171875
 40
0.17578125
 40
0.1796875
 40
0.181640625
 40
0.18359375
 40
0.1845703125
 40
0.185546875
 40
0.1865234375
 40
0.1870117188
 40
0.1872558594
 40
0.1875
 40
0.1877441406
 40
0.1879882812
 40
0.1884765625
 40
0.189453125
 40
0.1904296875
 40
0.19140625
 40
0.193359375
 40
0.1953125
 40
0.19921875
 40
0.203125
 40
0.20703125
 40
0.2109375
 40
0.21875
 40
0.2265625
 40
0.23046875
 40
0.234375
 40
0.23828125
 40
0.2421875
 40
0.244140625
 40
0.24609375
 40
0.2470703125
 40
0.248046875
 40
0.2490234375
 40
0.2495117188
 40
0.2497558594
 40
0.25
 40
0.2502441406
 40
0.2504882812
 40
0.2509765625
 40
0.251953125
 40
0.2529296875
 40
0.25390625
 40
0.255859375
 40
0.2578125
 40
0.26171875
 40
0.265625
 40
0.26953125
 40
0.2734375
 40
0.28125
 40
0.2890625
 40
0.29296875
 40
0.296875
 40
0.30078125
 40
0.3046875
 40
0.306640625
 40
0.30859375
 40
0.3095703125
 40
0.310546875
 40
0.3115234375
 40
0.3120117188
 40
0.3122558594
 40
0.3125
 40
0.3127441406
 40
0.3129882812
 40
0.3134765625
 40
0.314453125
 40
0.3154296875
 40
0.31640625
 40
0.318359375
 40
0.3203125
 40
0.32421875
 40
0.328125
 40
0.33203125
 40
0.3359375
 40
0.34375
 40
0.3515625
 40
0.35546875
 40
0.359375
 40
0.36328125
 40
0.3671875
 40
0.369140625
 40
0.37109375
 40
0.3720703125
 40
0.373046875
 40
0.3740234375
 40
0.3745117188
 40
0.3747558594
 40
0.375
 40
0.3752441406
 40
0.3754882812
 40
0.3759765625
 40
0.376953125
 40
0.3779296875
 40
0.37890625
 40
0.380859375
 40
0.3828125
 40
0.38671875
 40
0.390625
 40
0.39453125
 40
0.3984375
 40
0.40625
 40
0.4140625
 40
0.41796875
 40
0.421875
 40
0.42578125
 40
0.4296875
 40
0.431640625
 40
0.43359375
 40
0.4345703125
 40
0.435546875
 40
0.4365234375
 40
0.4370117188
 40
0.4372558594
 40
0.4375
 40
0.4377441406
 40
0.4379882812
 40
0.4384765625
 40
0.439453125
 40
0.4404296875
 40
0.44140625
 40
0.443359375
 40
0.4453125
 40
0.44921875
 40
0.453125
 40
0.45703125
 40
0.4609375
 40
0.46875
 40
0.4765625
 40
0.48046875
 40
0.484375
 40
0.48828125
 40
0.4921875
 40
0.494140625
 40
0.49609375
 40
0.4970703125
 40
0.498046875
 40
0.4990234375
 40
0.4995117188
 40
0.4997558594
 40
0.5
 40
0.5002441406
 40
0.5004882812
 40
0.5009765625
 40
0.501953125
 40
0.5029296875
 40
0.50390625
 40
0.505859375
 40
0.5078125
 40
0.51171875
 40
0.515625
 40
0.51953125
 40
0.5234375
 40
0.53125
 40
0.5390625
 40
0.54296875
 40
0.546875
 40
0.55078125
 40
0.5546875
 40
0.556640625
 40
0.55859375
 40
0.5595703125
 40
0.560546875
 40
0.5615234375
 40
0.5620117188
 40
0.5622558594
 40
0.5625
 40
0.5627441406
 40
0.5629882812
 40
0.5634765625
 40
0.564453125
 40
0.5654296875
 40
0.56640625
 40
0.568359375
 40
0.5703125
 40
0.57421875
 40
0.578125
 40
0.58203125
 40
0.5859375
 40
0.59375
 40
0.6015625
 40
0.60546875
 40
0.609375
 40
0.61328125
 40
0.6171875
 40
0.619140625
 40
0.62109375
 40
0.6220703125
 40
0.623046875
 40
0.6240234375
 40
0.6245117188
 40
0.6247558594
 40
0.625
 40
0.6252441406
 40
0.6254882812
 40
0.6259765625
 40
0.626953125
 40
0.6279296875
 40
0.62890625
 40
0.630859375
 40
0.6328125
 40
0.63671875
 40
0.640625
 40
0.64453125
 40
0.6484375
 40
0.65625
 40
0.6640625
 40
0.66796875
 40
0.671875
 40
0.67578125
 40
0.6796875
 40
0.681640625
 40
0.68359375
 40
0.6845703125
 40
0.685546875
 40
0.6865234375
 40
0.6870117188
 40
0.6872558594
 40
0.6875
 40
0.6877441406
 40
0.6879882812
 40
0.6884765625
 40
0.689453125
 40
0.6904296875
 40
0.69140625
 40
0.693359375
 40
0.6953125
 40
0.69921875
 40
0.703125
 40
0.70703125
 40
0.7109375
 40
0.71875
 40
0.7265625
 40
0.73046875
 40
0.734375
 40
0.73828125
 40
0.7421875
 40
0.744140625
 40
0.74609375
 40
0.7470703125
 40
0.748046875
 40
0.7490234375
 40
0.7495117188
 40
0.7497558594
 40
0.75
 40
0.7502441406
 40
0.7504882812
 40
0.7509765625
 40
0.751953125
 40
0.7529296875
 40
0.75390625
 40
0.755859375
 40
0.7578125
 40
0.76171875
 40
0.765625
 40
0.76953125
 40
0.7734375
 40
0.78125
 40
0.7890625
 40
0.79296875
 40
0.796875
 40
0.80078125
 40
0.8046875
 40
0.806640625
 40
0.80859375
 40
0.8095703125
 40
0.810546875
 40
0.8115234375
 40
0.8120117188
 40
0.8122558594
 40
0.8125
 40
0.8127441406
 40
0.8129882812
 40
0.8134765625
 40
0.814453125
 40
0.8154296875
 40
0.81640625
 40
0.818359375
 40
0.8203125
 40
0.82421875
 40
0.828125
 40
0.83203125
 40
0.8359375
 40
0.84375
 40
0.8515625
 40
0.85546875
 40
0.859375
 40
0.86328125
 40
0.8671875
 40
0.869140625
 40
0.87109375
 40
0.8720703125
 40
0.873046875
 40
0.8740234375
 40
0.8745117188
 40
0.8747558594
 40
0.875
 40
0.8752441406
 40
0.8754882812
 40
0.8759765625
 40
0.876953125
 40
0.8779296875
 40
0.87890625
 40
0.880859375
 40
0.8828125
 40
0.88671875
 40
0.890625
 40
0.89453125
 40
0.8984375
 40
0.90625
 40
0.9140625
 40
0.91796875
 40
0.921875
 40
0.92578125
 40
0.9296875
 40
0.931640625
 40
0.93359375
 40
0.9345703125
 40
0.935546875
 40
0.9365234375
 40
0.9370117188
 40
0.9372558594
 40
0.9375
 40
0.9377441406
 40
0.9379882812
 40
0.9384765625
 40
0.939453125
 40
0.9404296875
 40
0.94140625
 40
0.943359375
 40
0.9453125
 40
0.94921875
 40
0.953125
 40
0.95703125
 40
0.9609375
 40
0.96875
 40
0.9765625
 40
0.984375
 40
1.0
 40
1.0
 40
1.0
 40
1.0
 10
11.3983190089
 20
7.5050295707
 30
0.0
 10
11.3980117972
 20
7.5081840628
 30
0.0
 10
11.3975509797
 20
7.512915801
 30
0.0
 10
11.3969365564
 20
7.5192247853
 30
0.0
 10
11.3964757389
 20
7.5239565234
 30
0.0
 10
11.3960917244
 20
7.5278996386
 30
0.0
 10
11.3957845125
 20
7.5310541307
 30
0.0
 10
11.3955541047
 20
7.5334199999
 30
0.0
 10
11.3953236923
 20
7.5357858685
 30
0.0
 10
11.3951316964
 20
7.5377574276
 30
0.0
 10
11.3949780672
 20
7.5393346706
 30
0.0
 10
11.3948821231
 20
7.540320457
 30
0.0
 10
11.3948051981
 20
7.5411090644
 30
0.0
 10
11.3947479688
 20
7.5417005796
 30
0.0
 10
11.3946988001
 20
7.5421933189
 30
0.0
 10
11.3946672819
 20
7.5425386095
 30
0.0
 10
11.3946447436
 20
7.5427353358
 30
0.0
 10
11.394640595
 20
7.5428845216
 30
0.0
 10
11.3945876899
 20
7.5430274346
 30
0.0
 10
11.3945341567
 20
7.5432201733
 30
0.0
 10
11.3944325497
 20
7.5435564466
 30
0.0
 10
11.3942915394
 20
7.54403737
 30
0.0
 10
11.394120554
 20
7.5446142499
 30
0.0
 10
11.3938931927
 20
7.5453835029
 30
0.0
 10
11.393608779
 20
7.5463450417
 30
0.0
 10
11.3931538357
 20
7.5478835192
 30
0.0
 10
11.3925851159
 20
7.5498066108
 30
0.0
 10
11.3919026695
 20
7.5521143229
 30
0.0
 10
11.3912202185
 20
7.5544220345
 30
0.0
 10
11.3903102854
 20
7.5574989834
 30
0.0
 10
11.3891728685
 20
7.5613451695
 30
0.0
 10
11.3880354519
 20
7.5651913557
 30
0.0
 10
11.3871255182
 20
7.5682683045
 30
0.0
 10
11.3864430691
 20
7.5705760165
 30
0.0
 10
11.3857606156
 20
7.572883727
 30
0.0
 10
11.385191918
 20
7.5748068237
 30
0.0
 10
11.3847369293
 20
7.5763452906
 30
0.0
 10
11.3844526312
 20
7.5773068564
 30
0.0
 10
11.3842250328
 20
7.5780760541
 30
0.0
 10
11.3840547718
 20
7.5786531026
 30
0.0
 10
11.3839114949
 20
7.5791334988
 30
0.0
 10
11.3838139342
 20
7.5794707131
 30
0.0
 10
11.3837539177
 20
7.5796619441
 30
0.0
 10
11.383720927
 20
7.5798094885
 30
0.0
 10
11.3836419835
 20
7.5799412794
 30
0.0
 10
11.3835527544
 20
7.5801224957
 30
0.0
 10
11.3833891353
 20
7.5804370639
 30
0.0
 10
11.3831592982
 20
7.5808877855
 30
0.0
 10
11.3828818225
 20
7.5814280786
 30
0.0
 10
11.3825124385
 20
7.5821486694
 30
0.0
 10
11.3820505087
 20
7.5830493395
 30
0.0
 10
11.3813115327
 20
7.5844904498
 30
0.0
 10
11.3803877744
 20
7.5862918247
 30
0.0
 10
11.3792792808
 20
7.5884534801
 30
0.0
 10
11.3781707828
 20
7.590615134
 30
0.0
 10
11.3766927871
 20
7.5934973398
 30
0.0
 10
11.3748452919
 20
7.5971000968
 30
0.0
 10
11.372997797
 20
7.6007028539
 30
0.0
 10
11.3715198007
 20
7.6035850594
 30
0.0
 10
11.3704113045
 20
7.6057467141
 30
0.0
 10
11.3693028041
 20
7.6079083667
 30
0.0
 10
11.3683790671
 20
7.6097097502
 30
0.0
 10
11.3676400477
 20
7.6111508429
 30
0.0
 10
11.3671782283
 20
7.612051558
 30
0.0
 10
11.3668086176
 20
7.6127720564
 30
0.0
 10
11.3665318346
 20
7.613312632
 30
0.0
 10
11.36629983
 20
7.6137624696
 30
0.0
 10
11.3661400803
 20
7.6140786159
 30
0.0
 10
11.3660446515
 20
7.6142573036
 30
0.0
 10
11.3659847513
 20
7.6143968615
 30
0.0
 10
11.3658802373
 20
7.6145152346
 30
0.0
 10
11.365756447
 20
7.6146804548
 30
0.0
 10
11.3655325635
 20
7.6149661474
 30
0.0
 10
11.3652165205
 20
7.6153760796
 30
0.0
 10
11.3648356465
 20
7.6158672278
 30
0.0
 10
11.3643283811
 20
7.6165223612
 30
0.0
 10
11.3636941053
 20
7.6173411858
 30
0.0
 10
11.3626793726
 20
7.6186513567
 30
0.0
 10
11.3614109195
 20
7.6202890526
 30
0.0
 10
11.3598887916
 20
7.6222542953
 30
0.0
 10
11.3583666596
 20
7.6242195359
 30
0.0
 10
11.3563371516
 20
7.6268398575
 30
0.0
 10
11.3538002661
 20
7.6301152592
 30
0.0
 10
11.3512633809
 20
7.6333906611
 30
0.0
 10
11.3492338725
 20
7.6360109823
 30
0.0
 10
11.3477117419
 20
7.6379762241
 30
0.0
 10
11.3461896083
 20
7.6399414624
 30
0.0
 10
11.3449211733
 20
7.6415791719
 30
0.0
 10
11.3439064035
 20
7.642889315
 30
0.0
 10
11.343272222
 20
7.6437082102
 30
0.0
 10
11.3427647633
 20
7.6443631987
 30
0.0
 10
11.34238448
 20
7.6448547895
 30
0.0
 10
11.3420665887
 20
7.6452633371
 30
0.0
 10
11.3418460048
 20
7.6455515015
 30
0.0
 10
11.3417169277
 20
7.6457127612
 30
0.0
 10
11.341628653
 20
7.6458432999
 30
0.0
 10
11.3415077603
 20
7.6459371658
 30
0.0
 10
11.3413579475
 20
7.6460751122
 30
0.0
 10
11.3410904742
 20
7.6463105585
 30
0.0
 10
11.3407111409
 20
7.6466500263
 30
0.0
 10
11.3402547547
 20
7.6470560539
 30
0.0
 10
11.3396466541
 20
7.6475978898
 30
0.0
 10
11.3388863864
 20
7.6482750253
 30
0.0
 10
11.3376700375
 20
7.6493585312
 30
0.0
 10
11.3361495741
 20
7.6507128829
 30
0.0
 10
11.3343250297
 20
7.6523381182
 30
0.0
 10
11.3325004821
 20
7.6539633499
 30
0.0
 10
11.3300677532
 20
7.6561303267
 30
0.0
 10
11.3270268416
 20
7.6588390473
 30
0.0
 10
11.3239859303
 20
7.6615477683
 30
0.0
 10
11.3215532009
 20
7.6637147446
 30
0.0
 10
11.3197286546
 20
7.6653399779
 30
0.0
 10
11.3179041056
 20
7.6669652073
 30
0.0
 10
11.3163836564
 20
7.668319577
 30
0.0
 10
11.3151672786
 20
7.6694030464
 30
0.0
 10
11.3144070844
 20
7.6700802746
 30
0.0
 10
11.3137988329
 20
7.6706219202
 30
0.0
 10
11.3133429077
 20
7.6710285295
 30
0.0
 10
11.312962132
 20
7.6713661771
 30
0.0
 10
11.3126972336
 20
7.6716048728
 30
0.0
 10
11.3125432953
 20
7.6717376128
 30
0.0
 10
11.3124350749
 20
7.6718474712
 30
0.0
 10
11.312299205
 20
7.6719179447
 30
0.0
 10
11.3121276896
 20
7.6720256473
 30
0.0
 10
11.3118230441
 20
7.672207726
 30
0.0
 10
11.3113901854
 20
7.6724711849
 30
0.0
 10
11.3108697495
 20
7.6727859032
 30
0.0
 10
11.3101761862
 20
7.6732060279
 30
0.0
 10
11.3093091118
 20
7.6737310125
 30
0.0
 10
11.30792186
 20
7.6745710835
 30
0.0
 10
11.3061877721
 20
7.6756211395
 30
0.0
 10
11.3041068766
 20
7.6768812207
 30
0.0
 10
11.3020259784
 20
7.6781412982
 30
0.0
 10
11.2992514484
 20
7.6798214028
 30
0.0
 10
11.2957832856
 20
7.681921533
 30
0.0
 10
11.292315123
 20
7.6840216637
 30
0.0
 10
11.2895405927
 20
7.6857017677
 30
0.0
 10
11.2874596954
 20
7.6869618469
 30
0.0
 10
11.2853787964
 20
7.6882219218
 30
0.0
 10
11.2836447195
 20
7.6892719974
 30
0.0
 10
11.2822574453
 20
7.6901120283
 30
0.0
 10
11.2813904279
 20
7.6906371152
 30
0.0
 10
11.2806967475
 20
7.6910570297
 30
0.0
 10
11.2801766692
 20
7.6913723902
 30
0.0
 10
11.2797426917
 20
7.69163384
 30
0.0
 10
11.2794400436
 20
7.6918195052
 30
0.0
 10
11.2792653279
 20
7.6919214613
 30
0.0
 10
11.2791392881
 20
7.6920095861
 30
0.0
 10
11.2789941476
 20
7.6920531492
 30
0.0
 10
11.2788072895
 20
7.692126777
 30
0.0
 10
11.2784771835
 20
7.6922483835
 30
0.0
 10
11.2780072266
 20
7.6924258933
 30
0.0
 10
11.2774425836
 20
7.6926372845
 30
0.0
 10
11.2766899688
 20
7.6929197054
 30
0.0
 10
11.2757491174
 20
7.6932725378
 30
0.0
 10
11.2742438014
 20
7.6938371778
 30
0.0
 10
11.2723621406
 20
7.6945429407
 30
0.0
 10
11.2701041544
 20
7.6953898722
 30
0.0
 10
11.2678461664
 20
7.6962367994
 30
0.0
 10
11.2648355163
 20
7.6973660371
 30
0.0
 10
11.2610722035
 20
7.6987775837
 30
0.0
 10
11.2573088909
 20
7.7001891307
 30
0.0
 10
11.2542982406
 20
7.7013183678
 30
0.0
 10
11.2520402532
 20
7.7021652968
 30
0.0
 10
11.2497822645
 20
7.7030122213
 30
0.0
 10
11.2479006115
 20
7.7037180059
 30
0.0
 10
11.2463952795
 20
7.7042826017
 30
0.0
 10
11.2454544689
 20
7.7046355466
 30
0.0
 10
11.2447017704
 20
7.7049177365
 30
0.0
 10
11.2441373834
 20
7.7051298335
 30
0.0
 10
11.2436666252
 20
7.7053051349
 30
0.0
 10
11.2433379497
 20
7.7054306839
 30
0.0
 10
11.2431487997
 20
7.7054979948
 30
0.0
 10
11.243010699
 20
7.7055609612
 30
0.0
 10
11.2428582191
 20
7.7055762104
 30
0.0
 10
11.2426599282
 20
7.7056131869
 30
0.0
 10
11.2423105823
 20
7.7056701409
 30
0.0
 10
11.2418127385
 20
7.7057555581
 30
0.0
 10
11.2412148029
 20
7.7058563234
 30
0.0
 10
11.2404177382
 20
7.7059912832
 30
0.0
 10
11.2394213447
 20
7.7061597755
 30
0.0
 10
11.2378271501
 20
7.706429479
 30
0.0
 10
11.2358343948
 20
7.7067665687
 30
0.0
 10
11.2334430936
 20
7.7071710934
 30
0.0
 10
11.2310517911
 20
7.7075756135
 30
0.0
 10
11.2278633881
 20
7.7081149753
 30
0.0
 10
11.2238778843
 20
7.7087891769
 30
0.0
 10
11.2198923805
 20
7.7094633789
 30
0.0
 10
11.2167039775
 20
7.7100027399
 30
0.0
 10
11.2143126752
 20
7.710407262
 30
0.0
 10
11.2119213732
 20
7.7108117793
 30
0.0
 10
11.2099286203
 20
7.7111488921
 30
0.0
 10
11.2083344209
 20
7.7114185484
 30
0.0
 10
11.2073380395
 20
7.711587161
 30
0.0
 10
11.2065409499
 20
7.7117218739
 30
0.0
 10
11.2059430902
 20
7.7118233935
 30
0.0
 10
11.2054450091
 20
7.7119064505
 30
0.0
 10
11.2050960867
 20
7.711967618
 30
0.0
 10
11.2048971173
 20
7.7119978434
 30
0.0
 10
11.2047467217
 20
7.7120338297
 30
0.0
 10
11.2046007928
 20
7.7120189108
 30
0.0
 10
11.2044046628
 20
7.7120167752
 30
0.0
 10
11.2040621613
 20
7.7120047648
 30
0.0
 10
11.203572494
 20
7.7119919324
 30
0.0
 10
11.2029850556
 20
7.7119746822
 30
0.0
 10
11.2022017477
 20
7.7119523286
 30
0.0
 10
11.2012226322
 20
7.7119241651
 30
0.0
 10
11.1996560366
 20
7.7118792273
 30
0.0
 10
11.1976977959
 20
7.7118230126
 30
0.0
 10
11.1953479053
 20
7.7117555731
 30
0.0
 10
11.1929980152
 20
7.7116881288
 30
0.0
 10
11.1898648283
 20
7.7115982047
 30
0.0
 10
11.1859483447
 20
7.711485799
 30
0.0
 10
11.182031861
 20
7.7113733937
 30
0.0
 10
11.1788986741
 20
7.7112834689
 30
0.0
 10
11.1765487837
 20
7.7112160266
 30
0.0
 10
11.1741988943
 20
7.7111485796
 30
0.0
 10
11.1722406502
 20
7.7110923884
 30
0.0
 10
11.1706740614
 20
7.7110474025
 30
0.0
 10
11.1696949287
 20
7.7110193614
 30
0.0
 10
11.1689116561
 20
7.7109967566
 30
0.0
 10
11.1683241097
 20
7.7109802738
 30
0.0
 10
11.1678347803
 20
7.7109650402
 30
0.0
 10
11.1674916755
 20
7.7109573164
 30
0.0
 10
11.1672965122
 20
7.7109483127
 30
0.0
 10
11.1671476141
 20
7.7109544902
 30
0.0
 10
11.1670083701
 20
7.7109112418
 30
0.0
 10
11.1668193439
 20
7.7108708175
 30
0.0
 10
11.1664901171
 20
7.7107920425
 30
0.0
 10
11.1660189728
 20
7.7106837062
 30
0.0
 10
11.1654539508
 20
7.7105519052
 30
0.0
 10
11.1647004654
 20
7.7103767983
 30
0.0
 10
11.1637586507
 20
7.7101576997
 30
0.0
 10
11.1622517236
 20
7.7098072621
 30
0.0
 10
11.1603680729
 20
7.7093691739
 30
0.0
 10
11.1581076886
 20
7.7088434857
 30
0.0
 10
11.1558473052
 20
7.7083177928
 30
0.0
 10
11.1528334603
 20
7.7076168706
 30
0.0
 10
11.1490661543
 20
7.7067407172
 30
0.0
 10
11.1452988483
 20
7.7058645642
 30
0.0
 10
11.1422850036
 20
7.7051636414
 30
0.0
 10
11.1400246196
 20
7.7046379504
 30
0.0
 10
11.1377642374
 20
7.7041122549
 30
0.0
 10
11.13588058
 20
7.7036741894
 30
0.0
 10
11.1343736667
 20
7.7033237055
 30
0.0
 10
11.1334318171
 20
7.7031047249
 30
0.0
 10
11.1326784033
 20
7.7029293759
 30
0.0
 10
11.1321131625
 20
7.7027983145
 30
0.0
 10
11.1316427025
 20
7.7026876641
 30
0.0
 10
11.1313122541
 20
7.7026130201
 30
0.0
 10
11.1311251853
 20
7.7025659769
 30
0.0
 10
11.1309799288
 20
7.7025430597
 30
0.0
 10
11.1308536126
 20
7.7024728763
 30
0.0
 10
11.1306785844
 20
7.7023957855
 30
0.0
 10
11.1303753632
 20
7.7022531948
 30
0.0
 10
11.1299405809
 20
7.70205351
 30
0.0
 10
11.1294195308
 20
7.7018121692
 30
0.0
 10
11.1287245568
 20
7.7014909818
 30
0.0
 10
11.1278559217
 20
7.7010892921
 30
0.0
 10
11.1264660595
 20
7.7004467033
 30
0.0
 10
11.1247287475
 20
7.699643428
 30
0.0
 10
11.1226439664
 20
7.6986795145
 30
0.0
 10
11.1205591871
 20
7.6977155965
 30
0.0
 10
11.1177794807
 20
7.696430374
 30
0.0
 10
11.1143048479
 20
7.6948238454
 30
0.0
 10
11.110830215
 20
7.6932173171
 30
0.0
 10
11.1080505089
 20
7.6919320941
 30
0.0
 10
11.1059657287
 20
7.6909681779
 30
0.0
 10
11.1038809508
 20
7.6900042574
 30
0.0
 10
11.1021436287
 20
7.689201004
 30
0.0
 10
11.1007537872
 20
7.6885583705
 30
0.0
 10
11.0998850993
 20
7.6881567948
 30
0.0
 10
11.0991902336
 20
7.6878353732
 30
0.0
 10
11.0986688529
 20
7.6875947481
 30
0.0
 10
11.0982351049
 20
7.687392824
 30
0.0
 10
11.0979300372
 20
7.6872542308
 30
0.0
 10
11.0977579675
 20
7.6871707351
 30
0.0
 10
11.0976225638
 20
7.6871202252
 30
0.0
 10
11.0975114388
 20
7.6870234177
 30
0.0
 10
11.0973548034
 20
7.6869104901
 30
0.0
 10
11.0970846372
 20
7.6867053427
 30
0.0
 10
11.0966966226
 20
7.6864162086
 30
0.0
 10
11.0962318881
 20
7.686067564
 30
0.0
 10
11.0956119337
 20
7.6856032926
 30
0.0
 10
11.0948370962
 20
7.685022752
 30
0.0
 10
11.0935972973
 20
7.6840939996
 30
0.0
 10
11.0920475689
 20
7.6829330205
 30
0.0
 10
11.0901878862
 20
7.6815398621
 30
0.0
 10
11.0883282058
 20
7.6801466993
 30
0.0
 10
11.0858486311
 20
7.6782891505
 30
0.0
 10
11.082749163
 20
7.6759672138
 30
0.0
 10
11.0796496947
 20
7.6736452775
 30
0.0
 10
11.0771701204
 20
7.6717877281
 30
0.0
 10
11.0753104387
 20
7.6703945669
 30
0.0
 10
11.0734507607
 20
7.6690014024
 30
0.0
 10
11.0719010175
 20
7.6678404424
 30
0.0
 10
11.0706612488
 20
7.6669116509
 30
0.0
 10
11.0698863343
 20
7.6663312099
 30
0.0
 10
11.0692665381
 20
7.6658667342
 30
0.0
 10
11.0688013201
 20
7.6655187139
 30
0.0
 10
11.0684148184
 20
7.6652276265
 30
0.0
 10
11.0681419515
 20
7.665025966
 30
0.0
 10
11.0679896433
 20
7.6649074515
 30
0.0
 10
11.0678652265
 20
7.6648278052
 30
0.0
 10
11.0677797445
 20
7.6647128407
 30
0.0
 10
11.0676521876
 20
7.664571874
 30
0.0
 10
11.0674352907
 20
7.6643194426
 30
0.0
 10
11.0671221298
 20
7.6639618271
 30
0.0
 10
11.0667477527
 20
7.663531404
 30
0.0
 10
11.0662480886
 20
7.6629579552
 30
0.0
 10
11.0656236779
 20
7.6622409906
 30
0.0
 10
11.0646245261
 20
7.661093933
 30
0.0
 10
11.0633756189
 20
7.6596600816
 30
0.0
 10
11.0618769162
 20
7.6579394726
 30
0.0
 10
11.0603782173
 20
7.6562188602
 30
0.0
 10
11.0583799508
 20
7.6539247115
 30
0.0
 10
11.0558821181
 20
7.6510570252
 30
0.0
 10
11.0533842851
 20
7.6481893392
 30
0.0
 10
11.0513860191
 20
7.64589519
 30
0.0
 10
11.0498873186
 20
7.644174579
 30
0.0
 10
11.048388622
 20
7.642453965
 30
0.0
 10
11.0471396959
 20
7.641020129
 30
0.0
 10
11.0461405825
 20
7.63987304
 30
0.0
 10
11.045516074
 20
7.6391561556
 30
0.0
 10
11.0450166108
 20
7.638582542
 30
0.0
 10
11.0446416199
 20
7.6381526225
 30
0.0
 10
11.0443303793
 20
7.6377934314
 30
0.0
 10
11.0441100544
 20
7.6375438126
 30
0.0
 10
11.04398799
 20
7.6373983395
 30
0.0
 10
11.0438856367
 20
7.6372972173
 30
0.0
 10
11.0438245858
 20
7.6371655813
 30
0.0
 10
11.0437287779
 20
7.6370007102
 30
0.0
 10
11.0435678264
 20
7.6367072267
 30
0.0
 10
11.0433343863
 20
7.6362905572
 30
0.0
 10
11.0430557604
 20
7.6357894441
 30
0.0
 10
11.0426837345
 20
7.6351216808
 30
0.0
 10
11.0422188817
 20
7.6342868441
 30
0.0
 10
11.0414750169
 20
7.6329511794
 30
0.0
 10
11.0405452204
 20
7.6312815732
 30
0.0
 10
11.0394294497
 20
7.6292780566
 30
0.0
 10
11.038313683
 20
7.6272745371
 30
0.0
 10
11.0368259927
 20
7.6246031788
 30
0.0
 10
11.0349663804
 20
7.6212639805
 30
0.0
 10
11.0331067677
 20
7.6179247825
 30
0.0
 10
11.0316190779
 20
7.6152534238
 30
0.0
 10
11.0305033095
 20
7.6132499054
 30
0.0
 10
11.0293875454
 20
7.6112463848
 30
0.0
 10
11.0284577284
 20
7.609576791
 30
0.0
 10
11.0277139054
 20
7.608241101
 30
0.0
 10
11.0272489463
 20
7.6074063287
 30
0.0
 10
11.0268771387
 20
7.6067384333
 30
0.0
 10
11.0265978458
 20
7.606237724
 30
0.0
 10
11.0263664924
 20
7.6058197909
 30
0.0
 10
11.0262018159
 20
7.6055285631
 30
0.0
 10
11.0261119763
 20
7.6053600778
 30
0.0
 10
11.0260325924
 20
7.6052395433
 30
0.0
 10
11.0259990949
 20
7.6050967259
 30
0.0
 10
11.0259384258
 20
7.6049140752
 30
0.0
 10
11.0258397122
 20
7.6045908151
 30
0.0
 10
11.025694794
 20
7.6041309082
 30
0.0
 10
11.0255225609
 20
7.6035782096
 30
0.0
 10
11.025292334
 20
7.6028415612
 30
0.0
 10
11.02500475
 20
7.6019206537
 30
0.0
 10
11.0245445039
 20
7.600447256
 30
0.0
 10
11.0239692346
 20
7.5986054902
 30
0.0
 10
11.023278895
 20
7.5963953792
 30
0.0
 10
11.0225885599
 20
7.5941852661
 30
0.0
 10
11.0216681114
 20
7.5912384493
 30
0.0
 10
11.0205175515
 20
7.5875549281
 30
0.0
 10
11.0193669911
 20
7.5838714071
 30
0.0
 10
11.0184465433
 20
7.5809245901
 30
0.0
 10
11.0177562062
 20
7.5787144778
 30
0.0
 10
11.0170658738
 20
7.5765043638
 30
0.0
 10
11.0164905823
 20
7.5746626074
 30
0.0
 10
11.0160303815
 20
7.5731891905
 30
0.0
 10
11.0157426821
 20
7.5722683318
 30
0.0
 10
11.015512692
 20
7.5715315832
 30
0.0
 10
11.0153397354
 20
7.5709791908
 30
0.0
 10
11.0151970812
 20
7.5705183257
 30
0.0
 10
11.0150943259
 20
7.5701967763
 30
0.0
 10
11.0150401326
 20
7.5700113846
 30
0.0
 10
11.0149867435
 20
7.5698769865
 30
0.0
 10
11.0149820689
 20
7.5697248307
 30
0.0
 10
11.0149588439
 20
7.5695281504
 30
0.0
 10
11.0149261171
 20
7.5691810739
 30
0.0
 10
11.0148752255
 20
7.5686867592
 30
0.0
 10
11.0148159272
 20
7.5680929357
 30
0.0
 10
11.014736244
 20
7.5673013967
 30
0.0
 10
11.0146368518
 20
7.5663118956
 30
0.0
 10
11.014477706
 20
7.5647287371
 30
0.0
 10
11.0142788144
 20
7.5627497741
 30
0.0
 10
11.014040127
 20
7.5603750249
 30
0.0
 10
11.0138014443
 20
7.558000274
 30
0.0
 10
11.013483199
 20
7.55483394
 30
0.0
 10
11.013085393
 20
7.5508760224
 30
0.0
 10
11.0126080256
 20
7.5461265213
 30
0.0
 10
11.0119715358
 20
7.5397938531
 30
0.0
 10
11.0114941684
 20
7.535044352
 30
0.0
 10
11.0111759234
 20
7.531878018
 30
0.0
  0
ENDSEC
  0
SECTION
  2
OBJECTS
  0
DICTIONARY
  5
C
100
AcDbDictionary
280
0
281
1
  3
ACAD_GROUP
350
D
  3
ACAD_MLINESTYLE
350
17
  3
ACAD_LAYOUT
350
1A
  3
ACAD_PLOTSETTINGS
350
19
  3
ACAD_PLOTSTYLENAME
350
E
  3
ACAD_IMAGE_DICT
350
       3EB
  3
ACAD_IMAGE_VARS
350
       3EC
  3
ACAD_TABLESTYLE
350
       3ED
  0
IMAGEDEF_REACTOR
  5
3EA
100
AcDbRasterImageDefReactor
 90
2
330
28F
  0
DICTIONARY
  5
D
102
{ACAD_REACTORS
330
C
102
}
100
AcDbDictionary
280
0
281
1
  0
ACDBDICTIONARYWDFLT
  5
E
102
{ACAD_REACTORS
330
C
102
}
100
AcDbDictionary
281
1
  3
Normal
350
F
100
AcDbDictionaryWithDefault
340
F
  0
DICTIONARY
  5
3EB
330
C
100
AcDbDictionary
281
1
  3
E3I_assy_2_img_1
350
       3F0
  0
RASTERVARIABLES
  5
3EC
330
C
100
AcDbRasterVariables
 90
0
 70
0
 71
1
 72
5
  0
DICTIONARY
  5
17
102
{ACAD_REACTORS
330
C
102
}
100
AcDbDictionary
280
0
281
1
  3
Standard
350
18
  0
DICTIONARY
  5
3ED
330
C
100
AcDbDictionary
281
1
  3
Standard
350
       3F1
  3
Standard1
350
       3F2
  0
DICTIONARY
  5
19
102
{ACAD_REACTORS
330
C
102
}
100
AcDbDictionary
281
1
  0
DICTIONARY
  5
1A
102
{ACAD_REACTORS
330
C
102
}
100
AcDbDictionary
281
1
  3
Model
350
3EE
  3
Layout1
350
3EF
  0
ACDBPLACEHOLDER
  5
F
102
{ACAD_REACTORS
330
E
102
}
  0
MLINESTYLE
  5
18
102
{ACAD_REACTORS
330
17
102
}
100
AcDbMlineStyle
  2
STANDARD
 70
0
  3

 62
256
 51
90.0
 52
90.0
 71
2
 49
0.5
 62
256
  6
BYLAYER
 49
-0.5
 62
256
  6
BYLAYER
  0
LAYOUT
  5
3EE
102
{ACAD_REACTORS
330
1A
102
}
100
AcDbPlotSettings
  1

  2
none_device
  4
ANSI_C_(22.00_x_17.00_Inches)
  6

 40
0.0
 41
0.0
 42
0.0
 43
0.0
 44
558.8
 45
431.8
 46
0.0
 47
0.0
 48
0.0
 49
0.0
140
0.0
141
0.0
142
1.0
143
1.0
 70
1024
 72
0
 73
0
 74
0
  7

 75
0
147
1.0
148
0.0
149
0.0
100
AcDbLayout
  1
Model
 70
0
 71
0
 10
0.0
 20
0.0
 11
22.0
 21
17.0
 12
0.0
 22
0.0
 32
0.0
 14
0.0
 24
0.0
 34
0.0
 15
0.0
 25
0.0
 35
0.0
146
0.0
 13
0.0
 23
0.0
 33
0.0
 16
1.0
 26
0.0
 36
0.0
 17
0.0
 27
1.0
 37
0.0
 76
0
330
20C
345
0
346
0
  0
LAYOUT
  5
3EF
102
{ACAD_REACTORS
330
1A
102
}
100
AcDbPlotSettings
  1

  2
none_device
  4
ANSI_C_(22.00_x_17.00_Inches)
  6

 40
0.0
 41
0.0
 42
0.0
 43
0.0
 44
558.8
 45
431.8
 46
0.0
 47
0.0
 48
0.0
 49
0.0
140
0.0
141
0.0
142
1.0
143
1.0
 70
0
 72
0
 73
0
 74
0
  7

 75
0
147
1.0
148
0.0
149
0.0
100
AcDbLayout
  1
Layout1
 70
0
 71
1
 10
0.0
 20
0.0
 11
22.0
 21
17.0
 12
0.0
 22
0.0
 32
0.0
 14
0.0
 24
0.0
 34
0.0
 15
0.0
 25
0.0
 35
0.0
146
0.0
 13
0.0
 23
0.0
 33
0.0
 16
1.0
 26
0.0
 36
0.0
 17
0.0
 27
1.0
 37
0.0
 76
0
330
20D
345
0
346
0
  0
IMAGEDEF
  5
3F0
102
{ACAD_REACTORS
330
3EB
330
3EA
102
}
100
AcDbRasterImageDef
 90
0
  1
E3I_assy_2_img_1.png
 10
369.0
 20
92.0
 11
0.0066666667
 21
0.0066666667
280
1
281
0
  0
TABLESTYLE
  5
3F1
102
{ACAD_REACTORS
330
3ED
330
292
330
293
102
}
330
3ED
100
AcDbTableStyle
  3
Standard
 70
0
 71
0
 40
0.06
 41
0.06
280
1
281
1
  7
Standard
140
0.18
170
1
 62
0
 63
7
283
0
  7
Standard
140
0.18
170
1
 62
0
 63
7
283
0
  7
Standard
140
0.18
170
1
 62
0
 63
7
283
0
  0
TABLESTYLE
  5
3F2
102
{ACAD_REACTORS
330
3ED
330
291
102
}
330
3ED
100
AcDbTableStyle
  3
Standard1
 70
1
 71
0
 40
0.06
 41
0.06
280
1
281
1
  7
Standard
140
0.18
170
1
 62
0
 63
7
283
0
  7
Standard
140
0.18
170
1
 62
0
 63
7
283
0
  7
Standard
140
0.18
170
1
 62
0
 63
7
283
0
  0
ENDSEC
  0
EOF
