999
DXF file: E3B_8.dxf
999
Pro/ENGINEER 2006240 by Parametric Technology Corporation
  0
SECTION
  2
HEADER
  9
$ACADVER
  1
AC1015
  9
$DWGCODEPAGE
  3
ANSI_1252
  9
$EXTMAX
 10
22.0
 20
17.0
 30
0.0
  9
$EXTMIN
 10
0.0
 20
0.0
 30
0.0
  9
$LIMMIN
 10
0.0
 20
0.0
  9
$LIMMAX
 10
22.0
 20
17.0
  9
$VIEWCTR
 10
11.0
 20
8.5
  9
$VIEWSIZE
 40
17.0
  9
$CLAYER
  8
0
  9
$LTSCALE
 40
1.21
  9
$CELTYPE
  6
BYLAYER
  9
$DIMSCALE
 40
1.0
  9
$DIMASZ
 40
0.1875
  9
$DIMEXO
 40
0.1375
  9
$DIMDLI
 40
0.836
  9
$DIMEXE
 40
0.396
  9
$DIMCEN
 40
0.198
  9
$DIMLFAC
 40
1.0
  9
$DIMBLK
  1
_CLOSED
  9
$DIMTXT
 40
0.15625
  9
$DIMTOL
 70
0
  9
$DIMLIM
 70
0
  9
$DIMTFAC
 40
1.0
  9
$PDMODE
 70
3
  9
$PDSIZE
 40
0.3125
  9
$HANDSEED
  5
4E6
  9
$MEASUREMENT
 70
0
  9
$INSUNITS
 70
1
  0
ENDSEC
  0
SECTION
  2
CLASSES
  0
CLASS
  1
ACDBDICTIONARYWDFLT
  2
AcDbDictionaryWithDefault
  3
AutoCAD 2000
 90
0
280
0
281
0
  0
CLASS
  1
ACDBPLACEHOLDER
  2
AcDbPlaceHolder
  3
AutoCAD 2000
 90
0
280
0
281
0
  0
CLASS
  1
LAYOUT
  2
AcDbLayout
  3
AutoCAD 2000
 90
0
280
0
281
0
  0
ENDSEC
  0
SECTION
  2
TABLES
  0
TABLE
  2
VPORT
  5
8
100
AcDbSymbolTable
 70
2
  0
VPORT
  5
1F4
100
AcDbSymbolTableRecord
100
AcDbViewportTableRecord
  2
*ACTIVE
 70
0
 10
0.0
 20
0.0
 11
1.0
 21
1.0
 12
11.0
 22
8.5
 13
0.0
 23
0.0
 14
1.0
 24
1.0
 15
0.0
 25
0.0
 16
0.0
 26
0.0
 36
1.0
 17
0.0
 27
0.0
 37
0.0
 40
17.0
 41
1.2941176471
 42
50.0
 43
0.0
 44
0.0
 50
0.0
 51
0.0
 71
0
 72
100
 73
1
 74
1
 75
0
 76
0
 77
0
 78
0
  0
ENDTAB
  0
TABLE
  2
LTYPE
  5
5
100
AcDbSymbolTable
 70
6
  0
LTYPE
  5
14
100
AcDbSymbolTableRecord
100
AcDbLinetypeTableRecord
  2
BYBLOCK
 70
0
  3

 72
65
 73
0
 40
0.0
  0
LTYPE
  5
15
100
AcDbSymbolTableRecord
100
AcDbLinetypeTableRecord
  2
BYLAYER
 70
0
  3

 72
65
 73
0
 40
0.0
  0
LTYPE
  5
16
100
AcDbSymbolTableRecord
100
AcDbLinetypeTableRecord
  2
CONTINUOUS
 70
64
  3
Solid line
 72
65
 73
0
 40
0.0
  0
LTYPE
  5
1F5
100
AcDbSymbolTableRecord
100
AcDbLinetypeTableRecord
  2
CENTER
 70
64
  3
____ _ ____ _ ____ _ ____ _ ____ _ ____ _ ____
 72
65
 73
4
 40
0.6
 49
0.375
 74
0
 49
-0.075
 74
0
 49
0.075
 74
0
 49
-0.075
 74
0
  0
LTYPE
  5
1F6
100
AcDbSymbolTableRecord
100
AcDbLinetypeTableRecord
  2
HIDDEN
 70
64
  3
- - - - - - - - - - - - - - - - - - - -
 72
65
 73
2
 40
0.2
 49
0.1
 74
0
 49
-0.1
 74
0
  0
LTYPE
  5
1F7
100
AcDbSymbolTableRecord
100
AcDbLinetypeTableRecord
  2
PHANTOM
 70
64
  3
_____ _ _ _____ _ _ _____ _ _ _____
 72
65
 73
6
 40
0.8
 49
0.45
 74
0
 49
-0.05
 74
0
 49
0.1
 74
0
 49
-0.05
 74
0
 49
0.1
 74
0
 49
-0.05
 74
0
  0
LTYPE
  5
1F8
100
AcDbSymbolTableRecord
100
AcDbLinetypeTableRecord
  2
DOT
 70
64
  3
. . . . . . . . . . . . . . . . . . . .
 72
65
 73
2
 40
0.2
 49
0.1
 74
0
 49
-0.1
 74
0
  0
LTYPE
  5
1F9
100
AcDbSymbolTableRecord
100
AcDbLinetypeTableRecord
  2
DASHED
 70
64
  3
- - - - - - - - - - - - - - - - - - - -
 72
65
 73
2
 40
0.2
 49
0.1
 74
0
 49
-0.1
 74
0
  0
ENDTAB
  0
TABLE
  2
LAYER
  5
2
100
AcDbSymbolTable
 70
36
  0
LAYER
  5
10
100
AcDbSymbolTableRecord
100
AcDbLayerTableRecord
  2
0
 70
0
 62
7
  6
CONTINUOUS
370
-3
390
F
  0
LAYER
  5
1FA
100
AcDbSymbolTableRecord
100
AcDbLayerTableRecord
  2
DEFAULT_1
 70
0
 62
7
  6
CENTER
370
-3
390
F
  0
LAYER
  5
1FB
100
AcDbSymbolTableRecord
100
AcDbLayerTableRecord
  2
DEFAULT_2
 70
0
 62
8
  6
HIDDEN
370
-3
390
F
  0
LAYER
  5
1FC
100
AcDbSymbolTableRecord
100
AcDbLayerTableRecord
  2
DEFAULT_3
 70
0
 62
7
  6
PHANTOM
370
-3
390
F
  0
LAYER
  5
1FD
100
AcDbSymbolTableRecord
100
AcDbLayerTableRecord
  2
01_ALL_DTM_PLN
 70
0
 62
7
  6
CONTINUOUS
370
-3
390
F
  0
LAYER
  5
1FE
100
AcDbSymbolTableRecord
100
AcDbLayerTableRecord
  2
01__ASM_ALL_DTM_PLN
 70
0
 62
7
  6
CONTINUOUS
370
-3
390
F
  0
LAYER
  5
1FF
100
AcDbSymbolTableRecord
100
AcDbLayerTableRecord
  2
01__ASM_DEF_DTM_PLN
 70
0
 62
7
  6
CONTINUOUS
370
-3
390
F
  0
LAYER
  5
200
100
AcDbSymbolTableRecord
100
AcDbLayerTableRecord
  2
01___PRT_ALL_DTM_PLN
 70
0
 62
7
  6
CONTINUOUS
370
-3
390
F
  0
LAYER
  5
201
100
AcDbSymbolTableRecord
100
AcDbLayerTableRecord
  2
01___PRT_DEF_DTM_PLN
 70
0
 62
7
  6
CONTINUOUS
370
-3
390
F
  0
LAYER
  5
202
100
AcDbSymbolTableRecord
100
AcDbLayerTableRecord
  2
02_ALL_AXES
 70
0
 62
7
  6
CONTINUOUS
370
-3
390
F
  0
LAYER
  5
203
100
AcDbSymbolTableRecord
100
AcDbLayerTableRecord
  2
02__ASM_ALL_AXES
 70
0
 62
7
  6
CONTINUOUS
370
-3
390
F
  0
LAYER
  5
204
100
AcDbSymbolTableRecord
100
AcDbLayerTableRecord
  2
02___PRT_ALL_AXES
 70
0
 62
7
  6
CONTINUOUS
370
-3
390
F
  0
LAYER
  5
205
100
AcDbSymbolTableRecord
100
AcDbLayerTableRecord
  2
03_ALL_CURVES
 70
0
 62
7
  6
CONTINUOUS
370
-3
390
F
  0
LAYER
  5
206
100
AcDbSymbolTableRecord
100
AcDbLayerTableRecord
  2
03__ASM_ALL_CURVES
 70
0
 62
7
  6
CONTINUOUS
370
-3
390
F
  0
LAYER
  5
207
100
AcDbSymbolTableRecord
100
AcDbLayerTableRecord
  2
03___PRT_ALL_CURVES
 70
0
 62
7
  6
CONTINUOUS
370
-3
390
F
  0
LAYER
  5
208
100
AcDbSymbolTableRecord
100
AcDbLayerTableRecord
  2
04_ALL_DTM_PNT
 70
0
 62
7
  6
CONTINUOUS
370
-3
390
F
  0
LAYER
  5
209
100
AcDbSymbolTableRecord
100
AcDbLayerTableRecord
  2
04__ASM_ALL_DTM_PNT
 70
0
 62
7
  6
CONTINUOUS
370
-3
390
F
  0
LAYER
  5
20A
100
AcDbSymbolTableRecord
100
AcDbLayerTableRecord
  2
04___PRT_ALL_DTM_PNT
 70
0
 62
7
  6
CONTINUOUS
370
-3
390
F
  0
LAYER
  5
20B
100
AcDbSymbolTableRecord
100
AcDbLayerTableRecord
  2
05_ALL_DTM_CSYS
 70
0
 62
7
  6
CONTINUOUS
370
-3
390
F
  0
LAYER
  5
20C
100
AcDbSymbolTableRecord
100
AcDbLayerTableRecord
  2
05__ASM_ALL_DTM_CSYS
 70
0
 62
7
  6
CONTINUOUS
370
-3
390
F
  0
LAYER
  5
20D
100
AcDbSymbolTableRecord
100
AcDbLayerTableRecord
  2
05__ASM_DEF_DTM_CSYS
 70
0
 62
7
  6
CONTINUOUS
370
-3
390
F
  0
LAYER
  5
20E
100
AcDbSymbolTableRecord
100
AcDbLayerTableRecord
  2
05___PRT_ALL_DTM_CSYS
 70
0
 62
7
  6
CONTINUOUS
370
-3
390
F
  0
LAYER
  5
20F
100
AcDbSymbolTableRecord
100
AcDbLayerTableRecord
  2
05___PRT_DEF_DTM_CSYS
 70
0
 62
7
  6
CONTINUOUS
370
-3
390
F
  0
LAYER
  5
210
100
AcDbSymbolTableRecord
100
AcDbLayerTableRecord
  2
06_ALL_SURFS
 70
0
 62
7
  6
CONTINUOUS
370
-3
390
F
  0
LAYER
  5
211
100
AcDbSymbolTableRecord
100
AcDbLayerTableRecord
  2
06__ASM_ALL_SURFS
 70
0
 62
7
  6
CONTINUOUS
370
-3
390
F
  0
LAYER
  5
212
100
AcDbSymbolTableRecord
100
AcDbLayerTableRecord
  2
06___PRT_ALL_SURFS
 70
0
 62
7
  6
CONTINUOUS
370
-3
390
F
  0
LAYER
  5
213
100
AcDbSymbolTableRecord
100
AcDbLayerTableRecord
  2
07__ASM_ALL_SKELETONS
 70
0
 62
7
  6
CONTINUOUS
370
-3
390
F
  0
LAYER
  5
214
100
AcDbSymbolTableRecord
100
AcDbLayerTableRecord
  2
COPY_GEO_FET
 70
0
 62
7
  6
CONTINUOUS
370
-3
390
F
  0
LAYER
  5
215
100
AcDbSymbolTableRecord
100
AcDbLayerTableRecord
  2
COSMETIC
 70
0
 62
7
  6
CONTINUOUS
370
-3
390
F
  0
LAYER
  5
216
100
AcDbSymbolTableRecord
100
AcDbLayerTableRecord
  2
CUT_REF_SURF
 70
0
 62
7
  6
CONTINUOUS
370
-3
390
F
  0
LAYER
  5
217
100
AcDbSymbolTableRecord
100
AcDbLayerTableRecord
  2
DATESTAMP
 70
0
 62
7
  6
CONTINUOUS
370
-3
390
F
  0
LAYER
  5
218
100
AcDbSymbolTableRecord
100
AcDbLayerTableRecord
  2
DATUM
 70
0
 62
7
  6
CONTINUOUS
370
-3
390
F
  0
LAYER
  5
219
100
AcDbSymbolTableRecord
100
AcDbLayerTableRecord
  2
DATUM_B
 70
0
 62
7
  6
CONTINUOUS
370
-3
390
F
  0
LAYER
  5
21A
100
AcDbSymbolTableRecord
100
AcDbLayerTableRecord
  2
DATUM_PLANES
 70
0
 62
7
  6
CONTINUOUS
370
-3
390
F
  0
LAYER
  5
21B
100
AcDbSymbolTableRecord
100
AcDbLayerTableRecord
  2
DIM
 70
0
 62
7
  6
CONTINUOUS
370
-3
390
F
  0
LAYER
  5
21C
100
AcDbSymbolTableRecord
100
AcDbLayerTableRecord
  2
DIM_1
 70
0
 62
7
  6
CONTINUOUS
370
-3
390
F
  0
LAYER
  5
21D
100
AcDbSymbolTableRecord
100
AcDbLayerTableRecord
  2
DIM_2
 70
0
 62
7
  6
CONTINUOUS
370
-3
390
F
  0
LAYER
  5
21E
100
AcDbSymbolTableRecord
100
AcDbLayerTableRecord
  2
DIM_3
 70
0
 62
7
  6
CONTINUOUS
370
-3
390
F
  0
LAYER
  5
21F
100
AcDbSymbolTableRecord
100
AcDbLayerTableRecord
  2
DIM_4
 70
0
 62
7
  6
CONTINUOUS
370
-3
390
F
  0
LAYER
  5
220
100
AcDbSymbolTableRecord
100
AcDbLayerTableRecord
  2
DIM_5
 70
0
 62
7
  6
CONTINUOUS
370
-3
390
F
  0
LAYER
  5
221
100
AcDbSymbolTableRecord
100
AcDbLayerTableRecord
  2
DIM_6
 70
0
 62
7
  6
CONTINUOUS
370
-3
390
F
  0
LAYER
  5
222
100
AcDbSymbolTableRecord
100
AcDbLayerTableRecord
  2
DTM
 70
0
 62
7
  6
CONTINUOUS
370
-3
390
F
  0
LAYER
  5
223
100
AcDbSymbolTableRecord
100
AcDbLayerTableRecord
  2
E3B_10
 70
0
 62
7
  6
CONTINUOUS
370
-3
390
F
  0
LAYER
  5
224
100
AcDbSymbolTableRecord
100
AcDbLayerTableRecord
  2
E3B_2
 70
0
 62
7
  6
CONTINUOUS
370
-3
390
F
  0
LAYER
  5
225
100
AcDbSymbolTableRecord
100
AcDbLayerTableRecord
  2
E3B_5
 70
0
 62
7
  6
CONTINUOUS
370
-3
390
F
  0
LAYER
  5
226
100
AcDbSymbolTableRecord
100
AcDbLayerTableRecord
  2
E3B_6
 70
0
 62
7
  6
CONTINUOUS
370
-3
390
F
  0
LAYER
  5
227
100
AcDbSymbolTableRecord
100
AcDbLayerTableRecord
  2
E3B_7
 70
0
 62
7
  6
CONTINUOUS
370
-3
390
F
  0
LAYER
  5
228
100
AcDbSymbolTableRecord
100
AcDbLayerTableRecord
  2
E3B_8
 70
0
 62
7
  6
CONTINUOUS
370
-3
390
F
  0
LAYER
  5
229
100
AcDbSymbolTableRecord
100
AcDbLayerTableRecord
  2
EXT_COPY_GEO
 70
0
 62
7
  6
CONTINUOUS
370
-3
390
F
  0
LAYER
  5
22A
100
AcDbSymbolTableRecord
100
AcDbLayerTableRecord
  2
LS
 70
0
 62
7
  6
CONTINUOUS
370
-3
390
F
  0
LAYER
  5
22B
100
AcDbSymbolTableRecord
100
AcDbLayerTableRecord
  2
ORIGIN
 70
0
 62
7
  6
CONTINUOUS
370
-3
390
F
  0
LAYER
  5
22C
100
AcDbSymbolTableRecord
100
AcDbLayerTableRecord
  2
PARTNUMBER
 70
0
 62
7
  6
CONTINUOUS
370
-3
390
F
  0
LAYER
  5
22D
100
AcDbSymbolTableRecord
100
AcDbLayerTableRecord
  2
PORT_AREAS
 70
0
 62
7
  6
CONTINUOUS
370
-3
390
F
  0
LAYER
  5
22E
100
AcDbSymbolTableRecord
100
AcDbLayerTableRecord
  2
TEXT
 70
0
 62
7
  6
CONTINUOUS
370
-3
390
F
  0
LAYER
  5
22F
100
AcDbSymbolTableRecord
100
AcDbLayerTableRecord
  2
THREAD
 70
0
 62
7
  6
CONTINUOUS
370
-3
390
F
  0
LAYER
  5
230
100
AcDbSymbolTableRecord
100
AcDbLayerTableRecord
  2
THREADS
 70
0
 62
7
  6
CONTINUOUS
370
-3
390
F
  0
ENDTAB
  0
TABLE
  2
STYLE
  5
3
100
AcDbSymbolTable
 70
1
  0
STYLE
  5
11
100
AcDbSymbolTableRecord
100
AcDbTextStyleTableRecord
  2
STANDARD
 70
0
 40
0.0
 41
0.8
 50
0.0
 71
0
 42
0.2
  3
txt
  4

  0
ENDTAB
  0
TABLE
  2
VIEW
  5
6
100
AcDbSymbolTable
 70
0
  0
ENDTAB
  0
TABLE
  2
UCS
  5
7
100
AcDbSymbolTable
 70
0
  0
ENDTAB
  0
TABLE
  2
APPID
  5
9
100
AcDbSymbolTable
 70
1
  0
APPID
  5
231
100
AcDbSymbolTableRecord
100
AcDbRegAppTableRecord
  2
ACAD
 70
0
  0
ENDTAB
  0
TABLE
  2
BLOCK_RECORD
  5
1
100
AcDbSymbolTable
 70
0
  0
BLOCK_RECORD
  5
1F
100
AcDbSymbolTableRecord
100
AcDbBlockTableRecord
  2
*MODEL_SPACE
  0
BLOCK_RECORD
  5
1B
100
AcDbSymbolTableRecord
100
AcDbBlockTableRecord
  2
*PAPER_SPACE
  0
ENDTAB
  0
TABLE
  2
DIMSTYLE
  5
A
100
AcDbSymbolTable
 70
1
100
AcDbDimStyleTable
 71
0
  0
DIMSTYLE
105
232
100
AcDbSymbolTableRecord
100
AcDbDimStyleTableRecord
  2
STANDARD
 70
0
  3

  4

 40
1.0
 41
0.1875
 42
0.0625
 43
0.38
 44
0.18
 45
0.0
 46
0.0
 47
0.01
 48
0.01
140
0.15625
141
0.09
142
0.0
143
25.4
144
1.0
145
0.0
146
1.0
147
0.09
 71
0.0
 72
0.0
 73
1
 74
1
 75
0
 76
0
 77
0
 78
4
170
0
171
2
172
0
173
0
174
0
175
0
176
0
177
0
178
0
270
2
271
2
272
2
273
2
274
2
275
0
280
0
281
0
282
0
283
1
284
4
285
0
286
0
287
3
288
0
340
11
  0
ENDTAB
  0
ENDSEC
  0
SECTION
  2
BLOCKS
  0
BLOCK
  5
20
100
AcDbEntity
  8
0
100
AcDbBlockBegin
  2
*MODEL_SPACE
 70
0
 10
0.0
 20
0.0
 30
0.0
  3
*MODEL_SPACE
  1

  0
ENDBLK
  5
21
100
AcDbEntity
  8
0
100
AcDbBlockEnd
  0
BLOCK
  5
1C
100
AcDbEntity
  8
0
100
AcDbBlockBegin
  2
*PAPER_SPACE
 70
0
 10
0.0
 20
0.0
 30
0.0
  3
*PAPER_SPACE
  1

  0
ENDBLK
  5
1D
100
AcDbEntity
  8
0
100
AcDbBlockEnd
  0
ENDSEC
  0
SECTION
  2
ENTITIES
  0
LINE
  5
233
100
AcDbEntity
  8
03__ASM_ALL_CURVES
100
AcDbLine
 62
4
  6
CONTINUOUS
 10
9.4633269538
 20
12.3294164018
 11
9.4742644538
 21
12.3367080667
  0
LINE
  5
234
100
AcDbEntity
  8
03__ASM_ALL_CURVES
100
AcDbLine
 62
4
  6
CONTINUOUS
 10
9.5508269538
 20
12.3294164018
 11
9.5617644538
 21
12.3367080667
  0
LINE
  5
235
100
AcDbEntity
  8
03__ASM_ALL_CURVES
100
AcDbLine
 62
4
  6
CONTINUOUS
 10
9.4852019538
 20
12.2564997336
 11
9.4742644538
 21
12.2492080667
  0
LINE
  5
236
100
AcDbEntity
  8
03__ASM_ALL_CURVES
100
AcDbLine
 62
4
  6
CONTINUOUS
 10
9.5727019538
 20
12.2564997336
 11
9.5617644538
 21
12.2492080667
  0
LINE
  5
237
100
AcDbEntity
  8
03__ASM_ALL_CURVES
100
AcDbLine
 62
4
  6
CONTINUOUS
 10
9.5781707038
 20
12.2929580667
 11
9.5617644538
 21
12.2856663992
  0
LINE
  5
238
100
AcDbEntity
  8
03__ASM_ALL_CURVES
100
AcDbLine
 62
4
  6
CONTINUOUS
 10
9.3156707038
 20
12.3367080667
 11
9.2773894538
 21
12.2710830667
  0
LINE
  5
239
100
AcDbEntity
  8
03__ASM_ALL_CURVES
100
AcDbLine
 62
4
  6
CONTINUOUS
 10
9.4578582038
 20
12.3221247317
 11
9.4633269538
 21
12.3294164018
  0
LINE
  5
23A
100
AcDbEntity
  8
03__ASM_ALL_CURVES
100
AcDbLine
 62
4
  6
CONTINUOUS
 10
9.4906707038
 20
12.2637914005
 11
9.4852019538
 21
12.2564997336
  0
LINE
  5
23B
100
AcDbEntity
  8
03__ASM_ALL_CURVES
100
AcDbLine
 62
4
  6
CONTINUOUS
 10
9.5453582038
 20
12.3221247317
 11
9.5508269538
 21
12.3294164018
  0
LINE
  5
23C
100
AcDbEntity
  8
03__ASM_ALL_CURVES
100
AcDbLine
 62
4
  6
CONTINUOUS
 10
9.5781707038
 20
12.2637914005
 11
9.5727019538
 21
12.2564997336
  0
LINE
  5
23D
100
AcDbEntity
  8
03__ASM_ALL_CURVES
100
AcDbLine
 62
4
  6
CONTINUOUS
 10
9.9008269538
 20
12.3294164018
 11
9.9117644538
 21
12.3367080667
  0
LINE
  5
23E
100
AcDbEntity
  8
03__ASM_ALL_CURVES
100
AcDbLine
 62
4
  6
CONTINUOUS
 10
9.9828582038
 20
12.3294164018
 11
9.9937957038
 21
12.3367080667
  0
LINE
  5
23F
100
AcDbEntity
  8
03__ASM_ALL_CURVES
100
AcDbLine
 62
4
  6
CONTINUOUS
 10
9.9227019538
 20
12.2564997336
 11
9.9117644538
 21
12.2492080667
  0
LINE
  5
240
100
AcDbEntity
  8
03__ASM_ALL_CURVES
100
AcDbLine
 62
4
  6
CONTINUOUS
 10
10.0156707038
 20
12.3075414018
 11
10.0047332038
 21
12.3002497317
  0
LINE
  5
241
100
AcDbEntity
  8
03__ASM_ALL_CURVES
100
AcDbLine
 62
4
  6
CONTINUOUS
 10
10.0156707038
 20
12.2564997336
 11
10.0047332038
 21
12.2492080667
  0
LINE
  5
242
100
AcDbEntity
  8
03__ASM_ALL_CURVES
100
AcDbLine
 62
4
  6
CONTINUOUS
 10
10.1578582038
 20
12.3294164018
 11
10.1687957038
 21
12.3367080667
  0
LINE
  5
243
100
AcDbEntity
  8
03__ASM_ALL_CURVES
100
AcDbLine
 62
4
  6
CONTINUOUS
 10
9.7422332038
 20
12.3367080667
 11
9.7312957038
 21
12.3221247317
  0
LINE
  5
244
100
AcDbEntity
  8
03__ASM_ALL_CURVES
100
AcDbLine
 62
4
  6
CONTINUOUS
 10
9.8953582038
 20
12.3221247317
 11
9.9008269538
 21
12.3294164018
  0
LINE
  5
245
100
AcDbEntity
  8
03__ASM_ALL_CURVES
100
AcDbLine
 62
4
  6
CONTINUOUS
 10
9.4961394538
 20
11.7208330667
 11
9.4906707038
 21
11.7135414018
  0
LINE
  5
246
100
AcDbEntity
  8
03__ASM_ALL_CURVES
100
AcDbLine
 62
4
  6
CONTINUOUS
 10
9.9281707038
 20
12.2637914005
 11
9.9227019538
 21
12.2564997336
  0
LINE
  5
247
100
AcDbEntity
  8
03__ASM_ALL_CURVES
100
AcDbLine
 62
4
  6
CONTINUOUS
 10
9.5016082038
 20
11.6770830667
 11
9.4906707038
 21
11.6624997336
  0
LINE
  5
248
100
AcDbEntity
  8
03__ASM_ALL_CURVES
100
AcDbLine
 62
4
  6
CONTINUOUS
 10
10.1578582038
 20
12.2929580667
 11
10.1687957038
 21
12.3002497317
  0
LINE
  5
249
100
AcDbEntity
  8
03__ASM_ALL_CURVES
100
AcDbLine
 62
4
  6
CONTINUOUS
 10
10.1906707038
 20
12.3075414018
 11
10.1797332038
 21
12.3002497317
  0
LINE
  5
24A
100
AcDbEntity
  8
03__ASM_ALL_CURVES
100
AcDbLine
 62
4
  6
CONTINUOUS
 10
10.2453582038
 20
12.3294164018
 11
10.2562957038
 21
12.3367080667
  0
LINE
  5
24B
100
AcDbEntity
  8
03__ASM_ALL_CURVES
100
AcDbLine
 62
4
  6
CONTINUOUS
 10
10.1906707038
 20
12.2564997336
 11
10.1797332038
 21
12.2492080667
  0
LINE
  5
24C
100
AcDbEntity
  8
03__ASM_ALL_CURVES
100
AcDbLine
 62
4
  6
CONTINUOUS
 10
10.2453582038
 20
12.2929580667
 11
10.2562957038
 21
12.3002497317
  0
LINE
  5
24D
100
AcDbEntity
  8
03__ASM_ALL_CURVES
100
AcDbLine
 62
4
  6
CONTINUOUS
 10
10.2781707038
 20
12.3075414018
 11
10.2672332038
 21
12.3002497317
  0
LINE
  5
24E
100
AcDbEntity
  8
03__ASM_ALL_CURVES
100
AcDbLine
 62
4
  6
CONTINUOUS
 10
9.4578582038
 20
11.7354164018
 11
9.4687957038
 21
11.7427080667
  0
LINE
  5
24F
100
AcDbEntity
  8
03__ASM_ALL_CURVES
100
AcDbLine
 62
4
  6
CONTINUOUS
 10
10.2781707038
 20
12.2564997336
 11
10.2672332038
 21
12.2492080667
  0
LINE
  5
250
100
AcDbEntity
  8
03__ASM_ALL_CURVES
100
AcDbLine
 62
4
  6
CONTINUOUS
 10
9.4906707038
 20
11.7135414018
 11
9.4797332038
 21
11.7062497317
  0
LINE
  5
251
100
AcDbEntity
  8
03__ASM_ALL_CURVES
100
AcDbLine
 62
4
  6
CONTINUOUS
 10
9.4906707038
 20
11.6624997336
 11
9.4797332038
 21
11.6552080667
  0
LINE
  5
252
100
AcDbEntity
  8
03__ASM_ALL_CURVES
100
AcDbLine
 62
4
  6
CONTINUOUS
 10
9.6328582038
 20
11.7062497317
 11
9.6437957038
 21
11.7135414018
  0
LINE
  5
253
100
AcDbEntity
  8
03__ASM_ALL_CURVES
100
AcDbLine
 62
4
  6
CONTINUOUS
 10
13.5878061214
 20
7.1817705667
 11
13.6096811201
 21
7.1872393167
  0
LINE
  5
254
100
AcDbEntity
  8
03__ASM_ALL_CURVES
100
AcDbLine
 62
4
  6
CONTINUOUS
 10
12.5367644538
 20
6.7552080667
 11
12.6242644538
 21
6.7552080667
  0
LINE
  5
255
100
AcDbEntity
  8
03__ASM_ALL_CURVES
100
AcDbLine
 62
4
  6
CONTINUOUS
 10
13.5513477889
 20
6.7770830667
 11
13.5659311188
 21
6.7770830667
  0
LINE
  5
256
100
AcDbEntity
  8
03__ASM_ALL_CURVES
100
AcDbLine
 62
4
  6
CONTINUOUS
 10
13.6242644538
 20
6.8563799417
 11
13.6133269535
 21
6.8563799417
  0
LINE
  5
257
100
AcDbEntity
  8
03__ASM_ALL_CURVES
100
AcDbLine
 62
4
  6
CONTINUOUS
 10
12.6242644538
 20
6.8563799417
 11
12.6133269535
 21
6.8563799417
  0
LINE
  5
258
100
AcDbEntity
  8
03__ASM_ALL_CURVES
100
AcDbLine
 62
4
  6
CONTINUOUS
 10
9.4523894538
 20
12.3075414018
 11
9.4578582038
 21
12.3221247317
  0
LINE
  5
259
100
AcDbEntity
  8
03__ASM_ALL_CURVES
100
AcDbLine
 62
4
  6
CONTINUOUS
 10
9.4961394538
 20
12.2783747343
 11
9.4906707038
 21
12.2637914005
  0
LINE
  5
25A
100
AcDbEntity
  8
03__ASM_ALL_CURVES
100
AcDbLine
 62
4
  6
CONTINUOUS
 10
9.5398894538
 20
12.3075414018
 11
9.5453582038
 21
12.3221247317
  0
LINE
  5
25B
100
AcDbEntity
  8
03__ASM_ALL_CURVES
100
AcDbLine
 62
4
  6
CONTINUOUS
 10
9.5836394538
 20
12.3075414018
 11
9.5781707038
 21
12.2929580667
  0
LINE
  5
25C
100
AcDbEntity
  8
03__ASM_ALL_CURVES
100
AcDbLine
 62
4
  6
CONTINUOUS
 10
9.5836394538
 20
12.2783747343
 11
9.5781707038
 21
12.2637914005
  0
LINE
  5
25D
100
AcDbEntity
  8
03__ASM_ALL_CURVES
100
AcDbLine
 62
4
  6
CONTINUOUS
 10
10.0211394538
 20
12.3148330667
 11
10.0156707038
 21
12.3075414018
  0
LINE
  5
25E
100
AcDbEntity
  8
03__ASM_ALL_CURVES
100
AcDbLine
 62
4
  6
CONTINUOUS
 10
10.0266082038
 20
12.2710830667
 11
10.0156707038
 21
12.2564997336
  0
LINE
  5
25F
100
AcDbEntity
  8
03__ASM_ALL_CURVES
100
AcDbLine
 62
4
  6
CONTINUOUS
 10
10.1523894538
 20
12.3221247317
 11
10.1578582038
 21
12.3294164018
  0
LINE
  5
260
100
AcDbEntity
  8
03__ASM_ALL_CURVES
100
AcDbLine
 62
4
  6
CONTINUOUS
 10
9.6711394538
 20
11.6697914005
 11
9.6656707038
 21
11.6624997336
  0
LINE
  5
261
100
AcDbEntity
  8
03__ASM_ALL_CURVES
100
AcDbLine
 62
4
  6
CONTINUOUS
 10
10.1469207038
 20
12.2783747343
 11
10.1578582038
 21
12.2929580667
  0
LINE
  5
262
100
AcDbEntity
  8
03__ASM_ALL_CURVES
100
AcDbLine
 62
4
  6
CONTINUOUS
 10
10.1961394538
 20
12.3148330667
 11
10.1906707038
 21
12.3075414018
  0
LINE
  5
263
100
AcDbEntity
  8
03__ASM_ALL_CURVES
100
AcDbLine
 62
4
  6
CONTINUOUS
 10
10.2016082038
 20
12.2710830667
 11
10.1906707038
 21
12.2564997336
  0
LINE
  5
264
100
AcDbEntity
  8
03__ASM_ALL_CURVES
100
AcDbLine
 62
4
  6
CONTINUOUS
 10
10.2398894538
 20
12.3221247317
 11
10.2453582038
 21
12.3294164018
  0
LINE
  5
265
100
AcDbEntity
  8
03__ASM_ALL_CURVES
100
AcDbLine
 62
4
  6
CONTINUOUS
 10
9.8297332038
 20
11.7427080667
 11
9.8187957038
 21
11.7281247317
  0
LINE
  5
266
100
AcDbEntity
  8
03__ASM_ALL_CURVES
100
AcDbLine
 62
4
  6
CONTINUOUS
 10
10.2344207038
 20
12.2783747343
 11
10.2453582038
 21
12.2929580667
  0
LINE
  5
267
100
AcDbEntity
  8
03__ASM_ALL_CURVES
100
AcDbLine
 62
4
  6
CONTINUOUS
 10
10.2836394538
 20
12.3148330667
 11
10.2781707038
 21
12.3075414018
  0
LINE
  5
268
100
AcDbEntity
  8
03__ASM_ALL_CURVES
100
AcDbLine
 62
4
  6
CONTINUOUS
 10
9.6656707038
 20
11.6624997336
 11
9.6547332038
 21
11.6552080667
  0
LINE
  5
269
100
AcDbEntity
  8
03__ASM_ALL_CURVES
100
AcDbLine
 62
4
  6
CONTINUOUS
 10
9.8953582038
 20
11.7354164018
 11
9.9062957038
 21
11.7427080667
  0
LINE
  5
26A
100
AcDbEntity
  8
03__ASM_ALL_CURVES
100
AcDbLine
 62
4
  6
CONTINUOUS
 10
9.8953582038
 20
11.6989580667
 11
9.9062957038
 21
11.7062497317
  0
LINE
  5
26B
100
AcDbEntity
  8
03__ASM_ALL_CURVES
100
AcDbLine
 62
4
  6
CONTINUOUS
 10
9.9281707038
 20
11.7135414018
 11
9.9172332038
 21
11.7062497317
  0
LINE
  5
26C
100
AcDbEntity
  8
03__ASM_ALL_CURVES
100
AcDbLine
 62
4
  6
CONTINUOUS
 10
9.9828582038
 20
11.7354164018
 11
9.9937957038
 21
11.7427080667
  0
LINE
  5
26D
100
AcDbEntity
  8
03__ASM_ALL_CURVES
100
AcDbLine
 62
4
  6
CONTINUOUS
 10
9.9281707038
 20
11.6624997336
 11
9.9172332038
 21
11.6552080667
  0
LINE
  5
26E
100
AcDbEntity
  8
03__ASM_ALL_CURVES
100
AcDbLine
 62
4
  6
CONTINUOUS
 10
9.9828582038
 20
11.6989580667
 11
9.9937957038
 21
11.7062497317
  0
LINE
  5
26F
100
AcDbEntity
  8
03__ASM_ALL_CURVES
100
AcDbLine
 62
4
  6
CONTINUOUS
 10
10.0156707038
 20
11.7135414018
 11
10.0047332038
 21
11.7062497317
  0
LINE
  5
270
100
AcDbEntity
  8
03__ASM_ALL_CURVES
100
AcDbLine
 62
4
  6
CONTINUOUS
 10
10.0156707038
 20
11.6624997336
 11
10.0047332038
 21
11.6552080667
  0
LINE
  5
271
100
AcDbEntity
  8
03__ASM_ALL_CURVES
100
AcDbLine
 62
4
  6
CONTINUOUS
 10
10.1578582038
 20
11.7354164018
 11
10.1687957038
 21
11.7427080667
  0
LINE
  5
272
100
AcDbEntity
  8
03__ASM_ALL_CURVES
100
AcDbLine
 62
4
  6
CONTINUOUS
 10
12.5878061214
 20
7.1817705667
 11
12.6096811201
 21
7.1872393167
  0
LINE
  5
273
100
AcDbEntity
  8
03__ASM_ALL_CURVES
100
AcDbLine
 62
4
  6
CONTINUOUS
 10
9.0148894538
 20
8.9033747343
 11
9.0148894538
 21
8.9325414018
  0
LINE
  5
274
100
AcDbEntity
  8
03__ASM_ALL_CURVES
100
AcDbLine
 62
4
  6
CONTINUOUS
 10
9.0586394538
 20
8.9325414018
 11
9.0586394538
 21
8.9033747343
  0
LINE
  5
275
100
AcDbEntity
  8
03__ASM_ALL_CURVES
100
AcDbLine
 62
4
  6
CONTINUOUS
 10
9.8898894538
 20
12.3075414018
 11
9.8953582038
 21
12.3221247317
  0
LINE
  5
276
100
AcDbEntity
  8
03__ASM_ALL_CURVES
100
AcDbLine
 62
4
  6
CONTINUOUS
 10
9.6766082038
 20
11.6843747343
 11
9.6711394538
 21
11.6697914005
  0
LINE
  5
277
100
AcDbEntity
  8
03__ASM_ALL_CURVES
100
AcDbLine
 62
4
  6
CONTINUOUS
 10
9.9336394538
 20
12.2783747343
 11
9.9281707038
 21
12.2637914005
  0
LINE
  5
278
100
AcDbEntity
  8
03__ASM_ALL_CURVES
100
AcDbLine
 62
4
  6
CONTINUOUS
 10
10.2891082038
 20
12.2710830667
 11
10.2781707038
 21
12.2564997336
  0
LINE
  5
279
100
AcDbEntity
  8
03__ASM_ALL_CURVES
100
AcDbLine
 62
4
  6
CONTINUOUS
 10
9.8898894538
 20
11.7281247317
 11
9.8953582038
 21
11.7354164018
  0
LINE
  5
27A
100
AcDbEntity
  8
03__ASM_ALL_CURVES
100
AcDbLine
 62
4
  6
CONTINUOUS
 10
9.8844207038
 20
11.6843747343
 11
9.8953582038
 21
11.6989580667
  0
LINE
  5
27B
100
AcDbEntity
  8
03__ASM_ALL_CURVES
100
AcDbLine
 62
4
  6
CONTINUOUS
 10
9.9336394538
 20
11.7208330667
 11
9.9281707038
 21
11.7135414018
  0
LINE
  5
27C
100
AcDbEntity
  8
03__ASM_ALL_CURVES
100
AcDbLine
 62
4
  6
CONTINUOUS
 10
10.3547332038
 20
12.2637914005
 11
10.3437957038
 21
12.2492080667
  0
LINE
  5
27D
100
AcDbEntity
  8
03__ASM_ALL_CURVES
100
AcDbLine
 62
4
  6
CONTINUOUS
 10
9.9391082038
 20
11.6770830667
 11
9.9281707038
 21
11.6624997336
  0
LINE
  5
27E
100
AcDbEntity
  8
03__ASM_ALL_CURVES
100
AcDbLine
 62
4
  6
CONTINUOUS
 10
9.9773894538
 20
11.7281247317
 11
9.9828582038
 21
11.7354164018
  0
LINE
  5
27F
100
AcDbEntity
  8
03__ASM_ALL_CURVES
100
AcDbLine
 62
4
  6
CONTINUOUS
 10
9.9719207038
 20
11.6843747343
 11
9.9828582038
 21
11.6989580667
  0
LINE
  5
280
100
AcDbEntity
  8
03__ASM_ALL_CURVES
100
AcDbLine
 62
4
  6
CONTINUOUS
 10
10.0211394538
 20
11.7208330667
 11
10.0156707038
 21
11.7135414018
  0
LINE
  5
281
100
AcDbEntity
  8
03__ASM_ALL_CURVES
100
AcDbLine
 62
4
  6
CONTINUOUS
 10
10.0266082038
 20
11.6770830667
 11
10.0156707038
 21
11.6624997336
  0
LINE
  5
282
100
AcDbEntity
  8
03__ASM_ALL_CURVES
100
AcDbLine
 62
4
  6
CONTINUOUS
 10
10.1523894538
 20
11.7281247317
 11
10.1578582038
 21
11.7354164018
  0
LINE
  5
283
100
AcDbEntity
  8
03__ASM_ALL_CURVES
100
AcDbLine
 62
4
  6
CONTINUOUS
 10
10.1578582038
 20
11.6989580667
 11
10.1687957038
 21
11.7062497317
  0
LINE
  5
284
100
AcDbEntity
  8
03__ASM_ALL_CURVES
100
AcDbLine
 62
4
  6
CONTINUOUS
 10
10.1906707038
 20
11.7135414018
 11
10.1797332038
 21
11.7062497317
  0
LINE
  5
285
100
AcDbEntity
  8
03__ASM_ALL_CURVES
100
AcDbLine
 62
4
  6
CONTINUOUS
 10
10.2508269538
 20
11.7354164018
 11
10.2617644538
 21
11.7427080667
  0
LINE
  5
286
100
AcDbEntity
  8
03__ASM_ALL_CURVES
100
AcDbLine
 62
4
  6
CONTINUOUS
 10
10.1906707038
 20
11.6624997336
 11
10.1797332038
 21
11.6552080667
  0
LINE
  5
287
100
AcDbEntity
  8
03__ASM_ALL_CURVES
100
AcDbLine
 62
4
  6
CONTINUOUS
 10
10.2727019538
 20
11.6624997336
 11
10.2617644538
 21
11.6552080667
  0
LINE
  5
288
100
AcDbEntity
  8
03__ASM_ALL_CURVES
100
AcDbLine
 62
4
  6
CONTINUOUS
 10
10.2781707038
 20
11.6989580667
 11
10.2617644538
 21
11.6916663992
  0
LINE
  5
289
100
AcDbEntity
  8
03__ASM_ALL_CURVES
100
AcDbLine
 62
4
  6
CONTINUOUS
 10
13.5513477889
 20
7.7231768167
 11
13.5732227889
 21
7.7286455667
  0
LINE
  5
28A
100
AcDbEntity
  8
03__ASM_ALL_CURVES
100
AcDbLine
 62
4
  6
CONTINUOUS
 10
12.5732227889
 20
7.1817705667
 11
12.5878061214
 21
7.1817705667
  0
LINE
  5
28B
100
AcDbEntity
  8
03__ASM_ALL_CURVES
100
AcDbLine
 62
4
  6
CONTINUOUS
 10
13.5732227889
 20
7.1817705667
 11
13.5878061214
 21
7.1817705667
  0
LINE
  5
28C
100
AcDbEntity
  8
03__ASM_ALL_CURVES
100
AcDbLine
 62
4
  6
CONTINUOUS
 10
13.5950977863
 20
7.2583330667
 11
13.5659311188
 21
7.2583330667
  0
LINE
  5
28D
100
AcDbEntity
  8
03__ASM_ALL_CURVES
100
AcDbLine
 62
4
  6
CONTINUOUS
 10
12.6242644538
 20
7.2966143167
 11
12.5367644538
 21
7.2966143167
  0
LINE
  5
28E
100
AcDbEntity
  8
03__ASM_ALL_CURVES
100
AcDbLine
 62
4
  6
CONTINUOUS
 10
12.6242644538
 20
6.9302080667
 11
12.5878061214
 21
6.9356768167
  0
LINE
  5
28F
100
AcDbEntity
  8
03__ASM_ALL_CURVES
100
AcDbLine
 62
4
  6
CONTINUOUS
 10
12.5367644538
 20
7.0067705667
 11
12.5732227889
 21
7.0013018167
  0
LINE
  5
290
100
AcDbEntity
  8
03__ASM_ALL_CURVES
100
AcDbLine
 62
4
  6
CONTINUOUS
 10
13.6242644538
 20
6.9302080667
 11
13.5878061214
 21
6.9356768167
  0
LINE
  5
291
100
AcDbEntity
  8
03__ASM_ALL_CURVES
100
AcDbLine
 62
4
  6
CONTINUOUS
 10
12.5878061214
 20
6.9356768167
 11
12.5659311188
 21
6.9411455667
  0
LINE
  5
292
100
AcDbEntity
  8
03__ASM_ALL_CURVES
100
AcDbLine
 62
4
  6
CONTINUOUS
 10
9.0203582038
 20
8.8887914005
 11
9.0148894538
 21
8.9033747343
  0
LINE
  5
293
100
AcDbEntity
  8
03__ASM_ALL_CURVES
100
AcDbLine
 62
4
  6
CONTINUOUS
 10
9.0531707038
 20
8.9471247317
 11
9.0586394538
 21
8.9325414018
  0
LINE
  5
294
100
AcDbEntity
  8
03__ASM_ALL_CURVES
100
AcDbLine
 62
4
  6
CONTINUOUS
 10
9.1379363288
 20
8.8742080667
 11
9.1379363288
 21
8.8851455671
  0
LINE
  5
295
100
AcDbEntity
  8
03__ASM_ALL_CURVES
100
AcDbLine
 62
4
  6
CONTINUOUS
 10
9.2992644538
 20
8.9617080667
 11
9.2992644538
 21
8.8742080667
  0
LINE
  5
296
100
AcDbEntity
  8
03__ASM_ALL_CURVES
100
AcDbLine
 62
4
  6
CONTINUOUS
 10
9.7312957038
 20
12.3221247317
 11
9.7258269538
 21
12.3002497317
  0
LINE
  5
297
100
AcDbEntity
  8
03__ASM_ALL_CURVES
100
AcDbLine
 62
4
  6
CONTINUOUS
 10
10.1469207038
 20
11.6843747343
 11
10.1578582038
 21
11.6989580667
  0
LINE
  5
298
100
AcDbEntity
  8
03__ASM_ALL_CURVES
100
AcDbLine
 62
4
  6
CONTINUOUS
 10
10.1961394538
 20
11.7208330667
 11
10.1906707038
 21
11.7135414018
  0
LINE
  5
299
100
AcDbEntity
  8
03__ASM_ALL_CURVES
100
AcDbLine
 62
4
  6
CONTINUOUS
 10
10.2016082038
 20
11.6770830667
 11
10.1906707038
 21
11.6624997336
  0
LINE
  5
29A
100
AcDbEntity
  8
03__ASM_ALL_CURVES
100
AcDbLine
 62
4
  6
CONTINUOUS
 10
10.2453582038
 20
11.7281247317
 11
10.2508269538
 21
11.7354164018
  0
LINE
  5
29B
100
AcDbEntity
  8
03__ASM_ALL_CURVES
100
AcDbLine
 62
4
  6
CONTINUOUS
 10
10.2781707038
 20
11.6697914005
 11
10.2727019538
 21
11.6624997336
  0
LINE
  5
29C
100
AcDbEntity
  8
03__ASM_ALL_CURVES
100
AcDbLine
 62
4
  6
CONTINUOUS
 10
10.3547332038
 20
11.6697914005
 11
10.3437957038
 21
11.6552080667
  0
LINE
  5
29D
100
AcDbEntity
  8
03__ASM_ALL_CURVES
100
AcDbLine
 62
4
  6
CONTINUOUS
 10
12.5513477889
 20
7.7231768167
 11
12.5732227889
 21
7.7286455667
  0
LINE
  5
29E
100
AcDbEntity
  8
03__ASM_ALL_CURVES
100
AcDbLine
 62
4
  6
CONTINUOUS
 10
12.6242644538
 20
7.3841143167
 11
12.5367644538
 21
7.3841143167
  0
LINE
  5
29F
100
AcDbEntity
  8
03__ASM_ALL_CURVES
100
AcDbLine
 62
4
  6
CONTINUOUS
 10
13.5659311188
 20
7.3895830667
 11
13.5950977863
 21
7.3895830667
  0
LINE
  5
2A0
100
AcDbEntity
  8
03__ASM_ALL_CURVES
100
AcDbLine
 62
4
  6
CONTINUOUS
 10
13.6242644538
 20
7.4688799417
 11
13.6133269535
 21
7.4688799417
  0
LINE
  5
2A1
100
AcDbEntity
  8
03__ASM_ALL_CURVES
100
AcDbLine
 62
4
  6
CONTINUOUS
 10
12.6242644538
 20
7.4688799417
 11
12.6133269535
 21
7.4688799417
  0
LINE
  5
2A2
100
AcDbEntity
  8
03__ASM_ALL_CURVES
100
AcDbLine
 62
4
  6
CONTINUOUS
 10
13.6023894538
 20
7.5153643167
 11
13.5950977863
 21
7.5153643167
  0
LINE
  5
2A3
100
AcDbEntity
  8
03__ASM_ALL_CURVES
100
AcDbLine
 62
4
  6
CONTINUOUS
 10
13.5586394538
 20
7.5208330667
 11
13.5513477889
 21
7.5208330667
  0
LINE
  5
2A4
100
AcDbEntity
  8
03__ASM_ALL_CURVES
100
AcDbLine
 62
4
  6
CONTINUOUS
 10
12.6242644538
 20
7.5591143167
 11
12.5367644538
 21
7.5591143167
  0
LINE
  5
2A5
100
AcDbEntity
  8
03__ASM_ALL_CURVES
100
AcDbLine
 62
4
  6
CONTINUOUS
 10
13.5513477889
 20
7.5645830667
 11
13.5586394538
 21
7.5645830667
  0
LINE
  5
2A6
100
AcDbEntity
  8
03__ASM_ALL_CURVES
100
AcDbLine
 62
4
  6
CONTINUOUS
 10
13.5950977863
 20
7.5700518167
 11
13.6023894538
 21
7.5700518167
  0
LINE
  5
2A7
100
AcDbEntity
  8
03__ASM_ALL_CURVES
100
AcDbLine
 62
4
  6
CONTINUOUS
 10
13.5367644538
 20
7.0067705667
 11
13.5732227889
 21
7.0013018167
  0
LINE
  5
2A8
100
AcDbEntity
  8
03__ASM_ALL_CURVES
100
AcDbLine
 62
4
  6
CONTINUOUS
 10
13.6023894538
 20
6.7388018167
 11
13.6242644538
 21
6.7333330667
  0
LINE
  5
2A9
100
AcDbEntity
  8
03__ASM_ALL_CURVES
100
AcDbLine
 62
4
  6
CONTINUOUS
 10
12.5513477889
 20
7.1872393167
 11
12.5732227889
 21
7.1817705667
  0
LINE
  5
2AA
100
AcDbEntity
  8
03__ASM_ALL_CURVES
100
AcDbLine
 62
4
  6
CONTINUOUS
 10
13.5878061214
 20
6.9356768167
 11
13.5659311188
 21
6.9411455667
  0
LINE
  5
2AB
100
AcDbEntity
  8
03__ASM_ALL_CURVES
100
AcDbLine
 62
4
  6
CONTINUOUS
 10
12.5659311188
 20
6.9411455667
 11
12.5367644538
 21
6.9520830667
  0
LINE
  5
2AC
100
AcDbEntity
  8
03__ASM_ALL_CURVES
100
AcDbLine
 62
4
  6
CONTINUOUS
 10
10.8159311188
 20
7.6083330667
 11
10.8013477889
 21
7.6138018167
  0
LINE
  5
2AD
100
AcDbEntity
  8
03__ASM_ALL_CURVES
100
AcDbLine
 62
4
  6
CONTINUOUS
 10
9.0258269538
 20
8.8814997336
 11
9.0203582038
 21
8.8887914005
  0
LINE
  5
2AE
100
AcDbEntity
  8
03__ASM_ALL_CURVES
100
AcDbLine
 62
4
  6
CONTINUOUS
 10
9.0477019538
 20
8.9544164018
 11
9.0531707038
 21
8.9471247317
  0
LINE
  5
2AF
100
AcDbEntity
  8
03__ASM_ALL_CURVES
100
AcDbLine
 62
4
  6
CONTINUOUS
 10
9.1379363288
 20
8.8851455671
 11
9.1461394538
 21
8.8742080667
  0
LINE
  5
2B0
100
AcDbEntity
  8
03__ASM_ALL_CURVES
100
AcDbLine
 62
4
  6
CONTINUOUS
 10
9.3156707038
 20
12.2492080667
 11
9.3156707038
 21
12.3367080667
  0
LINE
  5
2B1
100
AcDbEntity
  8
03__ASM_ALL_CURVES
100
AcDbLine
 62
4
  6
CONTINUOUS
 10
9.3867644538
 20
9.6807080667
 11
9.3867644538
 21
9.5932080667
  0
LINE
  5
2B2
100
AcDbEntity
  8
03__ASM_ALL_CURVES
100
AcDbLine
 62
4
  6
CONTINUOUS
 10
9.4004363288
 20
12.2492080667
 11
9.4004363288
 21
12.2601455671
  0
LINE
  5
2B3
100
AcDbEntity
  8
03__ASM_ALL_CURVES
100
AcDbLine
 62
4
  6
CONTINUOUS
 10
9.4523894538
 20
12.2783747343
 11
9.4523894538
 21
12.3075414018
  0
LINE
  5
2B4
100
AcDbEntity
  8
03__ASM_ALL_CURVES
100
AcDbLine
 62
4
  6
CONTINUOUS
 10
9.4633269538
 20
8.9252497317
 11
9.4633269538
 21
8.9106663992
  0
LINE
  5
2B5
100
AcDbEntity
  8
03__ASM_ALL_CURVES
100
AcDbLine
 62
4
  6
CONTINUOUS
 10
9.4879363288
 20
9.5932080667
 11
9.4879363288
 21
9.6041455671
  0
LINE
  5
2B6
100
AcDbEntity
  8
03__ASM_ALL_CURVES
100
AcDbLine
 62
4
  6
CONTINUOUS
 10
9.4961394538
 20
12.3075414018
 11
9.4961394538
 21
12.2783747343
  0
LINE
  5
2B7
100
AcDbEntity
  8
03__ASM_ALL_CURVES
100
AcDbLine
 62
4
  6
CONTINUOUS
 10
9.4961394538
 20
11.7281247317
 11
9.4961394538
 21
11.7208330667
  0
LINE
  5
2B8
100
AcDbEntity
  8
03__ASM_ALL_CURVES
100
AcDbLine
 62
4
  6
CONTINUOUS
 10
9.5016082038
 20
11.6843747343
 11
9.5016082038
 21
11.6770830667
  0
LINE
  5
2B9
100
AcDbEntity
  8
03__ASM_ALL_CURVES
100
AcDbLine
 62
4
  6
CONTINUOUS
 10
9.6383269538
 20
11.7427080667
 11
9.6328582038
 21
11.7062497317
  0
LINE
  5
2BA
100
AcDbEntity
  8
03__ASM_ALL_CURVES
100
AcDbLine
 62
4
  6
CONTINUOUS
 10
9.2117644538
 20
8.8742080667
 11
9.2172332038
 21
8.9106663992
  0
LINE
  5
2BB
100
AcDbEntity
  8
03__ASM_ALL_CURVES
100
AcDbLine
 62
4
  6
CONTINUOUS
 10
9.8187957038
 20
11.7281247317
 11
9.8133269538
 21
11.7062497317
  0
LINE
  5
2BC
100
AcDbEntity
  8
03__ASM_ALL_CURVES
100
AcDbLine
 62
4
  6
CONTINUOUS
 10
9.2172332038
 20
8.9106663992
 11
9.2227019538
 21
8.9325414018
  0
LINE
  5
2BD
100
AcDbEntity
  8
03__ASM_ALL_CURVES
100
AcDbLine
 62
4
  6
CONTINUOUS
 10
9.0148894538
 20
8.9325414018
 11
9.0203582038
 21
8.9471247317
  0
LINE
  5
2BE
100
AcDbEntity
  8
03__ASM_ALL_CURVES
100
AcDbLine
 62
4
  6
CONTINUOUS
 10
9.0586394538
 20
8.9033747343
 11
9.0531707038
 21
8.8887914005
  0
LINE
  5
2BF
100
AcDbEntity
  8
03__ASM_ALL_CURVES
100
AcDbLine
 62
4
  6
CONTINUOUS
 10
10.2398894538
 20
11.7135414018
 11
10.2453582038
 21
11.7281247317
  0
LINE
  5
2C0
100
AcDbEntity
  8
0
100
AcDbLine
 62
7
  6
CONTINUOUS
 10
12.517558223
 20
12.2883645347
 11
12.5255144538
 21
12.2929580667
  0
LINE
  5
2C1
100
AcDbEntity
  8
03__ASM_ALL_CURVES
100
AcDbLine
 62
4
  6
CONTINUOUS
 10
10.8450977863
 20
7.6083330667
 11
10.8159311188
 21
7.6083330667
  0
LINE
  5
2C2
100
AcDbEntity
  8
03__ASM_ALL_CURVES
100
AcDbLine
 62
4
  6
CONTINUOUS
 10
12.6242644538
 20
7.6466143167
 11
12.5367644538
 21
7.6466143167
  0
LINE
  5
2C3
100
AcDbEntity
  8
03__ASM_ALL_CURVES
100
AcDbLine
 62
4
  6
CONTINUOUS
 10
10.8159311188
 20
7.6520830667
 11
10.8450977863
 21
7.6520830667
  0
LINE
  5
2C4
100
AcDbEntity
  8
03__ASM_ALL_CURVES
100
AcDbLine
 62
4
  6
CONTINUOUS
 10
12.5732227889
 20
7.7286455667
 11
12.5878061214
 21
7.7286455667
  0
LINE
  5
2C5
100
AcDbEntity
  8
03__ASM_ALL_CURVES
100
AcDbLine
 62
4
  6
CONTINUOUS
 10
13.5732227889
 20
7.7286455667
 11
13.5878061214
 21
7.7286455667
  0
LINE
  5
2C6
100
AcDbEntity
  8
03__ASM_ALL_CURVES
100
AcDbLine
 62
4
  6
CONTINUOUS
 10
13.5513477889
 20
7.1872393167
 11
13.5732227889
 21
7.1817705667
  0
LINE
  5
2C7
100
AcDbEntity
  8
03__ASM_ALL_CURVES
100
AcDbLine
 62
4
  6
CONTINUOUS
 10
10.8450977863
 20
7.6520830667
 11
10.8596811201
 21
7.6466143167
  0
LINE
  5
2C8
100
AcDbEntity
  8
03__ASM_ALL_CURVES
100
AcDbLine
 62
4
  6
CONTINUOUS
 10
12.5950977863
 20
7.0450518167
 11
12.6096811201
 21
7.0395830667
  0
LINE
  5
2C9
100
AcDbEntity
  8
03__ASM_ALL_CURVES
100
AcDbLine
 62
4
  6
CONTINUOUS
 10
9.0367644538
 20
8.8742080667
 11
9.0258269538
 21
8.8814997336
  0
LINE
  5
2CA
100
AcDbEntity
  8
03__ASM_ALL_CURVES
100
AcDbLine
 62
4
  6
CONTINUOUS
 10
9.0367644538
 20
8.9617080667
 11
9.0477019538
 21
8.9544164018
  0
LINE
  5
2CB
100
AcDbEntity
  8
03__ASM_ALL_CURVES
100
AcDbLine
 62
4
  6
CONTINUOUS
 10
10.2617644538
 20
8.1552080667
 11
10.2508269538
 21
8.1624997336
  0
LINE
  5
2CC
100
AcDbEntity
  8
03__ASM_ALL_CURVES
100
AcDbLine
 62
4
  6
CONTINUOUS
 10
10.8013477889
 20
7.6138018167
 11
10.7940561188
 21
7.6192705667
  0
LINE
  5
2CD
100
AcDbEntity
  8
03__ASM_ALL_CURVES
100
AcDbLine
 62
4
  6
CONTINUOUS
 10
10.8596811201
 20
7.6466143167
 11
10.866972787
 21
7.6411455667
  0
LINE
  5
2CE
100
AcDbEntity
  8
03__ASM_ALL_CURVES
100
AcDbLine
 62
4
  6
CONTINUOUS
 10
9.4687957038
 20
8.8887914005
 11
9.4797332038
 21
8.8742080667
  0
LINE
  5
2CF
100
AcDbEntity
  8
03__ASM_ALL_CURVES
100
AcDbLine
 62
4
  6
CONTINUOUS
 10
9.4633269538
 20
8.9106663992
 11
9.4687957038
 21
8.8887914005
  0
LINE
  5
2D0
100
AcDbEntity
  8
03__ASM_ALL_CURVES
100
AcDbLine
 62
4
  6
CONTINUOUS
 10
9.5617644538
 20
8.9617080667
 11
9.5617644538
 21
8.8742080667
  0
LINE
  5
2D1
100
AcDbEntity
  8
03__ASM_ALL_CURVES
100
AcDbLine
 62
4
  6
CONTINUOUS
 10
9.5754363288
 20
11.6552080667
 11
9.5754363288
 21
11.6661455671
  0
LINE
  5
2D2
100
AcDbEntity
  8
03__ASM_ALL_CURVES
100
AcDbLine
 62
4
  6
CONTINUOUS
 10
9.5781707038
 20
9.5932080667
 11
9.5781707038
 21
9.6807080667
  0
LINE
  5
2D3
100
AcDbEntity
  8
03__ASM_ALL_CURVES
100
AcDbLine
 62
4
  6
CONTINUOUS
 10
9.5836394538
 20
12.3075414018
 11
9.5836394538
 21
12.2783747343
  0
LINE
  5
2D4
100
AcDbEntity
  8
03__ASM_ALL_CURVES
100
AcDbLine
 62
4
  6
CONTINUOUS
 10
9.6219207038
 20
8.8960830667
 11
9.6219207038
 21
8.9033747343
  0
LINE
  5
2D5
100
AcDbEntity
  8
03__ASM_ALL_CURVES
100
AcDbLine
 62
4
  6
CONTINUOUS
 10
9.6273894538
 20
8.9398330667
 11
9.6273894538
 21
8.9471247317
  0
LINE
  5
2D6
100
AcDbEntity
  8
03__ASM_ALL_CURVES
100
AcDbLine
 62
4
  6
CONTINUOUS
 10
9.6711394538
 20
9.6661247317
 11
9.6711394538
 21
9.6588330667
  0
LINE
  5
2D7
100
AcDbEntity
  8
03__ASM_ALL_CURVES
100
AcDbLine
 62
4
  6
CONTINUOUS
 10
9.6711394538
 20
8.9471247317
 11
9.6711394538
 21
8.9398330667
  0
LINE
  5
2D8
100
AcDbEntity
  8
03__ASM_ALL_CURVES
100
AcDbLine
 62
4
  6
CONTINUOUS
 10
9.6766082038
 20
9.6223747343
 11
9.6766082038
 21
9.6150830667
  0
LINE
  5
2D9
100
AcDbEntity
  8
03__ASM_ALL_CURVES
100
AcDbLine
 62
4
  6
CONTINUOUS
 10
9.6766082038
 20
8.9033747343
 11
9.6766082038
 21
8.8960830667
  0
LINE
  5
2DA
100
AcDbEntity
  8
03__ASM_ALL_CURVES
100
AcDbLine
 62
4
  6
CONTINUOUS
 10
9.7258269538
 20
12.3002497317
 11
9.7258269538
 21
12.2856663992
  0
LINE
  5
2DB
100
AcDbEntity
  8
03__ASM_ALL_CURVES
100
AcDbLine
 62
4
  6
CONTINUOUS
 10
9.7504363288
 20
8.8742080667
 11
9.7504363288
 21
8.8851455671
  0
LINE
  5
2DC
100
AcDbEntity
  8
03__ASM_ALL_CURVES
100
AcDbLine
 62
4
  6
CONTINUOUS
 10
9.4687957038
 20
8.9471247317
 11
9.4633269538
 21
8.9252497317
  0
LINE
  5
2DD
100
AcDbEntity
  8
03__ASM_ALL_CURVES
100
AcDbLine
 62
4
  6
CONTINUOUS
 10
10.3602019538
 20
12.2856663992
 11
10.3547332038
 21
12.2637914005
  0
LINE
  5
2DE
100
AcDbEntity
  8
03__ASM_ALL_CURVES
100
AcDbLine
 62
4
  6
CONTINUOUS
 10
9.2227019538
 20
8.9325414018
 11
9.2336394538
 21
8.9617080667
  0
LINE
  5
2DF
100
AcDbEntity
  8
03__ASM_ALL_CURVES
100
AcDbLine
 62
4
  6
CONTINUOUS
 10
10.2836394538
 20
11.7135414018
 11
10.2781707038
 21
11.6989580667
  0
LINE
  5
2E0
100
AcDbEntity
  8
03__ASM_ALL_CURVES
100
AcDbLine
 62
4
  6
CONTINUOUS
 10
10.2836394538
 20
11.6843747343
 11
10.2781707038
 21
11.6697914005
  0
LINE
  5
2E1
100
AcDbEntity
  8
03__ASM_ALL_CURVES
100
AcDbLine
 62
4
  6
CONTINUOUS
 10
9.5781707038
 20
9.6807080667
 11
9.5398894538
 21
9.6150830667
  0
LINE
  5
2E2
100
AcDbEntity
  8
03__ASM_ALL_CURVES
100
AcDbLine
 62
4
  6
CONTINUOUS
 10
13.5367644538
 20
7.6192705667
 11
13.5732227889
 21
7.6138018167
  0
LINE
  5
2E3
100
AcDbEntity
  8
03__ASM_ALL_CURVES
100
AcDbLine
 62
4
  6
CONTINUOUS
 10
13.5659311188
 20
6.9411455667
 11
13.5367644538
 21
6.9520830667
  0
LINE
  5
2E4
100
AcDbEntity
  8
03__ASM_ALL_CURVES
100
AcDbLine
 62
4
  6
CONTINUOUS
 10
13.5950977863
 20
7.0450518167
 11
13.6096811201
 21
7.0395830667
  0
LINE
  5
2E5
100
AcDbEntity
  8
03__ASM_ALL_CURVES
100
AcDbLine
 62
4
  6
CONTINUOUS
 10
10.2617644538
 20
8.2427080667
 11
10.2727019538
 21
8.2354164018
  0
LINE
  5
2E6
100
AcDbEntity
  8
03__ASM_ALL_CURVES
100
AcDbLine
 62
4
  6
CONTINUOUS
 10
9.6328582038
 20
8.8814997336
 11
9.6219207038
 21
8.8960830667
  0
LINE
  5
2E7
100
AcDbEntity
  8
03__ASM_ALL_CURVES
100
AcDbLine
 62
4
  6
CONTINUOUS
 10
9.6328582038
 20
8.9325414018
 11
9.6273894538
 21
8.9398330667
  0
LINE
  5
2E8
100
AcDbEntity
  8
03__ASM_ALL_CURVES
100
AcDbLine
 62
4
  6
CONTINUOUS
 10
9.6656707038
 20
8.9179580667
 11
9.6766082038
 21
8.9033747343
  0
LINE
  5
2E9
100
AcDbEntity
  8
03__ASM_ALL_CURVES
100
AcDbLine
 62
4
  6
CONTINUOUS
 10
10.2508269538
 20
8.1624997336
 11
10.2453582038
 21
8.1697914005
  0
LINE
  5
2EA
100
AcDbEntity
  8
03__ASM_ALL_CURVES
100
AcDbLine
 62
4
  6
CONTINUOUS
 10
9.6656707038
 20
8.9544164018
 11
9.6711394538
 21
8.9471247317
  0
LINE
  5
2EB
100
AcDbEntity
  8
03__ASM_ALL_CURVES
100
AcDbLine
 62
4
  6
CONTINUOUS
 10
9.7504363288
 20
8.8851455671
 11
9.7586394538
 21
8.8742080667
  0
LINE
  5
2EC
100
AcDbEntity
  8
03__ASM_ALL_CURVES
100
AcDbLine
 62
4
  6
CONTINUOUS
 10
10.2727019538
 20
8.2354164018
 11
10.2781707038
 21
8.2281247317
  0
LINE
  5
2ED
100
AcDbEntity
  8
03__ASM_ALL_CURVES
100
AcDbLine
 62
4
  6
CONTINUOUS
 10
9.8133269538
 20
8.8814997336
 11
9.8078582038
 21
8.8887914005
  0
LINE
  5
2EE
100
AcDbEntity
  8
03__ASM_ALL_CURVES
100
AcDbLine
 62
4
  6
CONTINUOUS
 10
9.8352019538
 20
8.9544164018
 11
9.8406707038
 21
8.9471247317
  0
LINE
  5
2EF
100
AcDbEntity
  8
03__ASM_ALL_CURVES
100
AcDbLine
 62
4
  6
CONTINUOUS
 10
9.8953582038
 20
8.8814997336
 11
9.8898894538
 21
8.8887914005
  0
LINE
  5
2F0
100
AcDbEntity
  8
03__ASM_ALL_CURVES
100
AcDbLine
 62
4
  6
CONTINUOUS
 10
9.8078582038
 20
8.8887914005
 11
9.8023894538
 21
8.9033747343
  0
LINE
  5
2F1
100
AcDbEntity
  8
03__ASM_ALL_CURVES
100
AcDbLine
 62
4
  6
CONTINUOUS
 10
9.8406707038
 20
8.9471247317
 11
9.8461394538
 21
8.9325414018
  0
LINE
  5
2F2
100
AcDbEntity
  8
03__ASM_ALL_CURVES
100
AcDbLine
 62
4
  6
CONTINUOUS
 10
9.8023894538
 20
8.9033747343
 11
9.8023894538
 21
8.9325414018
  0
LINE
  5
2F3
100
AcDbEntity
  8
03__ASM_ALL_CURVES
100
AcDbLine
 62
4
  6
CONTINUOUS
 10
9.8133269538
 20
11.7062497317
 11
9.8133269538
 21
11.6916663992
  0
LINE
  5
2F4
100
AcDbEntity
  8
03__ASM_ALL_CURVES
100
AcDbLine
 62
4
  6
CONTINUOUS
 10
9.8133269538
 20
9.6442497317
 11
9.8133269538
 21
9.6296663992
  0
LINE
  5
2F5
100
AcDbEntity
  8
03__ASM_ALL_CURVES
100
AcDbLine
 62
4
  6
CONTINUOUS
 10
9.8242644538
 20
12.3367080667
 11
9.8242644538
 21
12.2492080667
  0
LINE
  5
2F6
100
AcDbEntity
  8
03__ASM_ALL_CURVES
100
AcDbLine
 62
4
  6
CONTINUOUS
 10
9.8461394538
 20
8.9325414018
 11
9.8461394538
 21
8.9033747343
  0
LINE
  5
2F7
100
AcDbEntity
  8
03__ASM_ALL_CURVES
100
AcDbLine
 62
4
  6
CONTINUOUS
 10
9.8844207038
 20
11.6770830667
 11
9.8844207038
 21
11.6843747343
  0
LINE
  5
2F8
100
AcDbEntity
  8
03__ASM_ALL_CURVES
100
AcDbLine
 62
4
  6
CONTINUOUS
 10
9.8898894538
 20
11.7208330667
 11
9.8898894538
 21
11.7281247317
  0
LINE
  5
2F9
100
AcDbEntity
  8
03__ASM_ALL_CURVES
100
AcDbLine
 62
4
  6
CONTINUOUS
 10
9.8898894538
 20
12.2783747343
 11
9.8898894538
 21
12.3075414018
  0
LINE
  5
2FA
100
AcDbEntity
  8
03__ASM_ALL_CURVES
100
AcDbLine
 62
4
  6
CONTINUOUS
 10
9.9336394538
 20
12.3075414018
 11
9.9336394538
 21
12.2783747343
  0
LINE
  5
2FB
100
AcDbEntity
  8
03__ASM_ALL_CURVES
100
AcDbLine
 62
4
  6
CONTINUOUS
 10
9.9336394538
 20
11.7281247317
 11
9.9336394538
 21
11.7208330667
  0
LINE
  5
2FC
100
AcDbEntity
  8
03__ASM_ALL_CURVES
100
AcDbLine
 62
4
  6
CONTINUOUS
 10
9.9336394538
 20
9.6661247317
 11
9.9336394538
 21
9.6588330667
  0
LINE
  5
2FD
100
AcDbEntity
  8
03__ASM_ALL_CURVES
100
AcDbLine
 62
4
  6
CONTINUOUS
 10
9.9336394538
 20
8.9471247317
 11
9.9336394538
 21
8.9398330667
  0
LINE
  5
2FE
100
AcDbEntity
  8
03__ASM_ALL_CURVES
100
AcDbLine
 62
4
  6
CONTINUOUS
 10
9.9391082038
 20
11.6843747343
 11
9.9391082038
 21
11.6770830667
  0
LINE
  5
2FF
100
AcDbEntity
  8
03__ASM_ALL_CURVES
100
AcDbLine
 62
4
  6
CONTINUOUS
 10
9.9391082038
 20
9.6223747343
 11
9.9391082038
 21
9.6150830667
  0
LINE
  5
300
100
AcDbEntity
  8
03__ASM_ALL_CURVES
100
AcDbLine
 62
4
  6
CONTINUOUS
 10
9.9391082038
 20
8.9033747343
 11
9.9391082038
 21
8.8960830667
  0
LINE
  5
301
100
AcDbEntity
  8
03__ASM_ALL_CURVES
100
AcDbLine
 62
4
  6
CONTINUOUS
 10
9.9719207038
 20
11.6770830667
 11
9.9719207038
 21
11.6843747343
  0
LINE
  5
302
100
AcDbEntity
  8
03__ASM_ALL_CURVES
100
AcDbLine
 62
4
  6
CONTINUOUS
 10
9.9773894538
 20
9.6223747343
 11
9.9773894538
 21
9.6515414018
  0
LINE
  5
303
100
AcDbEntity
  8
03__ASM_ALL_CURVES
100
AcDbLine
 62
4
  6
CONTINUOUS
 10
9.9773894538
 20
11.7208330667
 11
9.9773894538
 21
11.7281247317
  0
LINE
  5
304
100
AcDbEntity
  8
03__ASM_ALL_CURVES
100
AcDbLine
 62
4
  6
CONTINUOUS
 10
10.0102019538
 20
8.9252497317
 11
10.0102019538
 21
8.9106663992
  0
LINE
  5
305
100
AcDbEntity
  8
03__ASM_ALL_CURVES
100
AcDbLine
 62
4
  6
CONTINUOUS
 10
10.0211394538
 20
12.3221247317
 11
10.0211394538
 21
12.3148330667
  0
LINE
  5
306
100
AcDbEntity
  8
03__ASM_ALL_CURVES
100
AcDbLine
 62
4
  6
CONTINUOUS
 10
10.0211394538
 20
11.7281247317
 11
10.0211394538
 21
11.7208330667
  0
LINE
  5
307
100
AcDbEntity
  8
03__ASM_ALL_CURVES
100
AcDbLine
 62
4
  6
CONTINUOUS
 10
10.0266082038
 20
12.2783747343
 11
10.0266082038
 21
12.2710830667
  0
LINE
  5
308
100
AcDbEntity
  8
03__ASM_ALL_CURVES
100
AcDbLine
 62
4
  6
CONTINUOUS
 10
10.0266082038
 20
11.6843747343
 11
10.0266082038
 21
11.6770830667
  0
LINE
  5
309
100
AcDbEntity
  8
03__ASM_ALL_CURVES
100
AcDbLine
 62
4
  6
CONTINUOUS
 10
9.8187957038
 20
9.6661247317
 11
9.8133269538
 21
9.6442497317
  0
LINE
  5
30A
100
AcDbEntity
  8
03__ASM_ALL_CURVES
100
AcDbLine
 62
4
  6
CONTINUOUS
 10
10.3602019538
 20
11.6916663992
 11
10.3547332038
 21
11.6697914005
  0
LINE
  5
30B
100
AcDbEntity
  8
03__ASM_ALL_CURVES
100
AcDbLine
 62
4
  6
CONTINUOUS
 10
9.9773894538
 20
9.6515414018
 11
9.9828582038
 21
9.6661247317
  0
LINE
  5
30C
100
AcDbEntity
  8
03__ASM_ALL_CURVES
100
AcDbLine
 62
4
  6
CONTINUOUS
 10
9.9773894538
 20
9.6223747343
 11
9.9828582038
 21
9.6369580667
  0
LINE
  5
30D
100
AcDbEntity
  8
03__ASM_ALL_CURVES
100
AcDbLine
 62
4
  6
CONTINUOUS
 10
9.0203582038
 20
8.9471247317
 11
9.0258269538
 21
8.9544164018
  0
LINE
  5
30E
100
AcDbEntity
  8
03__ASM_ALL_CURVES
100
AcDbLine
 62
4
  6
CONTINUOUS
 10
9.0531707038
 20
8.8887914005
 11
9.0477019538
 21
8.8814997336
  0
LINE
  5
30F
100
AcDbEntity
  8
03__ASM_ALL_CURVES
100
AcDbLine
 62
4
  6
CONTINUOUS
 10
9.6711394538
 20
9.6588330667
 11
9.6656707038
 21
9.6515414018
  0
LINE
  5
310
100
AcDbEntity
  8
03__ASM_ALL_CURVES
100
AcDbLine
 62
4
  6
CONTINUOUS
 10
9.6766082038
 20
9.6150830667
 11
9.6656707038
 21
9.6004997336
  0
LINE
  5
311
100
AcDbEntity
  8
03__ASM_ALL_CURVES
100
AcDbLine
 62
4
  6
CONTINUOUS
 10
9.8297332038
 20
9.6807080667
 11
9.8187957038
 21
9.6661247317
  0
LINE
  5
312
100
AcDbEntity
  8
03__ASM_ALL_CURVES
100
AcDbLine
 62
4
  6
CONTINUOUS
 10
10.7430144538
 20
8.1989580667
 11
10.4805144538
 21
8.1989580667
  0
LINE
  5
313
100
AcDbEntity
  8
0
100
AcDbLine
 62
7
  6
CONTINUOUS
 10
10.8305144538
 20
8.1989580667
 11
13.5805144538
 21
8.1989580667
  0
LINE
  5
314
100
AcDbEntity
  8
03__ASM_ALL_CURVES
100
AcDbLine
 62
4
  6
CONTINUOUS
 10
12.5878061214
 20
7.7286455667
 11
12.6096811201
 21
7.7231768167
  0
LINE
  5
315
100
AcDbEntity
  8
03__ASM_ALL_CURVES
100
AcDbLine
 62
4
  6
CONTINUOUS
 10
13.5659311188
 20
7.2583330667
 11
13.5513477889
 21
7.2638018167
  0
LINE
  5
316
100
AcDbEntity
  8
03__ASM_ALL_CURVES
100
AcDbLine
 62
4
  6
CONTINUOUS
 10
13.5950977863
 20
7.2583330667
 11
13.5805144538
 21
7.2638018167
  0
LINE
  5
317
100
AcDbEntity
  8
03__ASM_ALL_CURVES
100
AcDbLine
 62
4
  6
CONTINUOUS
 10
13.5950977863
 20
7.3020830667
 11
13.6096811201
 21
7.2966143167
  0
LINE
  5
318
100
AcDbEntity
  8
03__ASM_ALL_CURVES
100
AcDbLine
 62
4
  6
CONTINUOUS
 10
13.5659311188
 20
7.3458330667
 11
13.5513477889
 21
7.3513018167
  0
LINE
  5
319
100
AcDbEntity
  8
03__ASM_ALL_CURVES
100
AcDbLine
 62
4
  6
CONTINUOUS
 10
12.5367644538
 20
7.2966143167
 11
12.6023894538
 21
7.2583330667
  0
LINE
  5
31A
100
AcDbEntity
  8
03__ASM_ALL_CURVES
100
AcDbLine
 62
4
  6
CONTINUOUS
 10
12.5367644538
 20
7.3841143167
 11
12.6023894538
 21
7.3458330667
  0
LINE
  5
31B
100
AcDbEntity
  8
03__ASM_ALL_CURVES
100
AcDbLine
 62
4
  6
CONTINUOUS
 10
9.6437957038
 20
8.8742080667
 11
9.6328582038
 21
8.8814997336
  0
LINE
  5
31C
100
AcDbEntity
  8
03__ASM_ALL_CURVES
100
AcDbLine
 62
4
  6
CONTINUOUS
 10
9.6437957038
 20
8.9252497317
 11
9.6328582038
 21
8.9325414018
  0
LINE
  5
31D
100
AcDbEntity
  8
03__ASM_ALL_CURVES
100
AcDbLine
 62
4
  6
CONTINUOUS
 10
9.6547332038
 20
8.9252497317
 11
9.6656707038
 21
8.9179580667
  0
LINE
  5
31E
100
AcDbEntity
  8
03__ASM_ALL_CURVES
100
AcDbLine
 62
4
  6
CONTINUOUS
 10
9.6547332038
 20
8.9617080667
 11
9.6656707038
 21
8.9544164018
  0
LINE
  5
31F
100
AcDbEntity
  8
03__ASM_ALL_CURVES
100
AcDbLine
 62
4
  6
CONTINUOUS
 10
9.8242644538
 20
8.8742080667
 11
9.8133269538
 21
8.8814997336
  0
LINE
  5
320
100
AcDbEntity
  8
03__ASM_ALL_CURVES
100
AcDbLine
 62
4
  6
CONTINUOUS
 10
9.9062957038
 20
8.8742080667
 11
9.8953582038
 21
8.8814997336
  0
LINE
  5
321
100
AcDbEntity
  8
03__ASM_ALL_CURVES
100
AcDbLine
 62
4
  6
CONTINUOUS
 10
9.8242644538
 20
8.9617080667
 11
9.8352019538
 21
8.9544164018
  0
LINE
  5
322
100
AcDbEntity
  8
03__ASM_ALL_CURVES
100
AcDbLine
 62
4
  6
CONTINUOUS
 10
9.9172332038
 20
8.9252497317
 11
9.9281707038
 21
8.9179580667
  0
LINE
  5
323
100
AcDbEntity
  8
03__ASM_ALL_CURVES
100
AcDbLine
 62
4
  6
CONTINUOUS
 10
9.9172332038
 20
8.9617080667
 11
9.9281707038
 21
8.9544164018
  0
LINE
  5
324
100
AcDbEntity
  8
03__ASM_ALL_CURVES
100
AcDbLine
 62
4
  6
CONTINUOUS
 10
9.9281707038
 20
8.9179580667
 11
9.9391082038
 21
8.9033747343
  0
LINE
  5
325
100
AcDbEntity
  8
03__ASM_ALL_CURVES
100
AcDbLine
 62
4
  6
CONTINUOUS
 10
9.9281707038
 20
8.9544164018
 11
9.9336394538
 21
8.9471247317
  0
LINE
  5
326
100
AcDbEntity
  8
03__ASM_ALL_CURVES
100
AcDbLine
 62
4
  6
CONTINUOUS
 10
9.4879363288
 20
9.6041455671
 11
9.4961394538
 21
9.5932080667
  0
LINE
  5
327
100
AcDbEntity
  8
03__ASM_ALL_CURVES
100
AcDbLine
 62
4
  6
CONTINUOUS
 10
9.9937957038
 20
8.9617080667
 11
10.0047332038
 21
8.9471247317
  0
LINE
  5
328
100
AcDbEntity
  8
03__ASM_ALL_CURVES
100
AcDbLine
 62
4
  6
CONTINUOUS
 10
9.6328582038
 20
9.6004997336
 11
9.6273894538
 21
9.6077914005
  0
LINE
  5
329
100
AcDbEntity
  8
03__ASM_ALL_CURVES
100
AcDbLine
 62
4
  6
CONTINUOUS
 10
10.1687957038
 20
8.8887914005
 11
10.1797332038
 21
8.8742080667
  0
LINE
  5
32A
100
AcDbEntity
  8
03__ASM_ALL_CURVES
100
AcDbLine
 62
4
  6
CONTINUOUS
 10
9.6656707038
 20
9.6369580667
 11
9.6766082038
 21
9.6223747343
  0
LINE
  5
32B
100
AcDbEntity
  8
03__ASM_ALL_CURVES
100
AcDbLine
 62
4
  6
CONTINUOUS
 10
10.7940561188
 20
7.6192705667
 11
10.7867644538
 21
7.6302080667
  0
LINE
  5
32C
100
AcDbEntity
  8
03__ASM_ALL_CURVES
100
AcDbLine
 62
4
  6
CONTINUOUS
 10
10.866972787
 20
7.6411455667
 11
10.8742644538
 21
7.6302080667
  0
LINE
  5
32D
100
AcDbEntity
  8
03__ASM_ALL_CURVES
100
AcDbLine
 62
4
  6
CONTINUOUS
 10
10.2453582038
 20
8.1697914005
 11
10.2398894538
 21
8.1843747343
  0
LINE
  5
32E
100
AcDbEntity
  8
03__ASM_ALL_CURVES
100
AcDbLine
 62
4
  6
CONTINUOUS
 10
10.2781707038
 20
8.2281247317
 11
10.2836394538
 21
8.2135414018
  0
LINE
  5
32F
100
AcDbEntity
  8
03__ASM_ALL_CURVES
100
AcDbLine
 62
4
  6
CONTINUOUS
 10
9.8133269538
 20
9.6296663992
 11
9.8187957038
 21
9.6077914005
  0
LINE
  5
330
100
AcDbEntity
  8
03__ASM_ALL_CURVES
100
AcDbLine
 62
4
  6
CONTINUOUS
 10
10.0047332038
 20
8.9471247317
 11
10.0102019538
 21
8.9252497317
  0
LINE
  5
331
100
AcDbEntity
  8
03__ASM_ALL_CURVES
100
AcDbLine
 62
4
  6
CONTINUOUS
 10
10.1004363288
 20
9.5932080667
 11
10.1004363288
 21
9.6041455671
  0
LINE
  5
332
100
AcDbEntity
  8
03__ASM_ALL_CURVES
100
AcDbLine
 62
4
  6
CONTINUOUS
 10
10.1004363288
 20
11.6552080667
 11
10.1004363288
 21
11.6661455671
  0
LINE
  5
333
100
AcDbEntity
  8
03__ASM_ALL_CURVES
100
AcDbLine
 62
4
  6
CONTINUOUS
 10
10.1004363288
 20
12.2492080667
 11
10.1004363288
 21
12.2601455671
  0
LINE
  5
334
100
AcDbEntity
  8
03__ASM_ALL_CURVES
100
AcDbLine
 62
4
  6
CONTINUOUS
 10
10.1469207038
 20
11.6770830667
 11
10.1469207038
 21
11.6843747343
  0
LINE
  5
335
100
AcDbEntity
  8
03__ASM_ALL_CURVES
100
AcDbLine
 62
4
  6
CONTINUOUS
 10
10.1469207038
 20
12.2710830667
 11
10.1469207038
 21
12.2783747343
  0
LINE
  5
336
100
AcDbEntity
  8
03__ASM_ALL_CURVES
100
AcDbLine
 62
4
  6
CONTINUOUS
 10
10.1523894538
 20
11.7208330667
 11
10.1523894538
 21
11.7281247317
  0
LINE
  5
337
100
AcDbEntity
  8
03__ASM_ALL_CURVES
100
AcDbLine
 62
4
  6
CONTINUOUS
 10
10.1523894538
 20
12.3148330667
 11
10.1523894538
 21
12.3221247317
  0
LINE
  5
338
100
AcDbEntity
  8
03__ASM_ALL_CURVES
100
AcDbLine
 62
4
  6
CONTINUOUS
 10
10.1633269538
 20
8.9252497317
 11
10.1633269538
 21
8.9106663992
  0
LINE
  5
339
100
AcDbEntity
  8
03__ASM_ALL_CURVES
100
AcDbLine
 62
4
  6
CONTINUOUS
 10
10.1961394538
 20
12.3221247317
 11
10.1961394538
 21
12.3148330667
  0
LINE
  5
33A
100
AcDbEntity
  8
03__ASM_ALL_CURVES
100
AcDbLine
 62
4
  6
CONTINUOUS
 10
10.1961394538
 20
11.7281247317
 11
10.1961394538
 21
11.7208330667
  0
LINE
  5
33B
100
AcDbEntity
  8
03__ASM_ALL_CURVES
100
AcDbLine
 62
4
  6
CONTINUOUS
 10
10.1961394538
 20
9.6661247317
 11
10.1961394538
 21
9.6588330667
  0
LINE
  5
33C
100
AcDbEntity
  8
03__ASM_ALL_CURVES
100
AcDbLine
 62
4
  6
CONTINUOUS
 10
10.2016082038
 20
12.2783747343
 11
10.2016082038
 21
12.2710830667
  0
LINE
  5
33D
100
AcDbEntity
  8
03__ASM_ALL_CURVES
100
AcDbLine
 62
4
  6
CONTINUOUS
 10
10.2016082038
 20
11.6843747343
 11
10.2016082038
 21
11.6770830667
  0
LINE
  5
33E
100
AcDbEntity
  8
03__ASM_ALL_CURVES
100
AcDbLine
 62
4
  6
CONTINUOUS
 10
10.2016082038
 20
9.6223747343
 11
10.2016082038
 21
9.6150830667
  0
LINE
  5
33F
100
AcDbEntity
  8
03__ASM_ALL_CURVES
100
AcDbLine
 62
4
  6
CONTINUOUS
 10
10.2344207038
 20
12.2710830667
 11
10.2344207038
 21
12.2783747343
  0
LINE
  5
340
100
AcDbEntity
  8
03__ASM_ALL_CURVES
100
AcDbLine
 62
4
  6
CONTINUOUS
 10
10.2398894538
 20
8.9617080667
 11
10.2398894538
 21
8.8742080667
  0
LINE
  5
341
100
AcDbEntity
  8
03__ASM_ALL_CURVES
100
AcDbLine
 62
4
  6
CONTINUOUS
 10
10.2398894538
 20
8.1843747343
 11
10.2398894538
 21
8.2135414018
  0
LINE
  5
342
100
AcDbEntity
  8
03__ASM_ALL_CURVES
100
AcDbLine
 62
4
  6
CONTINUOUS
 10
10.2398894538
 20
12.3148330667
 11
10.2398894538
 21
12.3221247317
  0
LINE
  5
343
100
AcDbEntity
  8
03__ASM_ALL_CURVES
100
AcDbLine
 62
4
  6
CONTINUOUS
 10
10.2836394538
 20
12.3221247317
 11
10.2836394538
 21
12.3148330667
  0
LINE
  5
344
100
AcDbEntity
  8
03__ASM_ALL_CURVES
100
AcDbLine
 62
4
  6
CONTINUOUS
 10
10.2836394538
 20
11.7135414018
 11
10.2836394538
 21
11.6843747343
  0
LINE
  5
345
100
AcDbEntity
  8
03__ASM_ALL_CURVES
100
AcDbLine
 62
4
  6
CONTINUOUS
 10
10.2836394538
 20
9.6661247317
 11
10.2836394538
 21
9.6515414018
  0
LINE
  5
346
100
AcDbEntity
  8
03__ASM_ALL_CURVES
100
AcDbLine
 62
4
  6
CONTINUOUS
 10
10.2836394538
 20
8.2135414018
 11
10.2836394538
 21
8.1843747343
  0
LINE
  5
347
100
AcDbEntity
  8
03__ASM_ALL_CURVES
100
AcDbLine
 62
4
  6
CONTINUOUS
 10
10.0102019538
 20
8.9106663992
 11
10.0047332038
 21
8.8887914005
  0
LINE
  5
348
100
AcDbEntity
  8
03__ASM_ALL_CURVES
100
AcDbLine
 62
4
  6
CONTINUOUS
 10
10.2453582038
 20
9.6150830667
 11
10.2398894538
 21
9.5932080667
  0
LINE
  5
349
100
AcDbEntity
  8
03__ASM_ALL_CURVES
100
AcDbLine
 62
4
  6
CONTINUOUS
 10
10.0211394538
 20
9.6223747343
 11
10.0156707038
 21
9.6077914005
  0
LINE
  5
34A
100
AcDbEntity
  8
03__ASM_ALL_CURVES
100
AcDbLine
 62
4
  6
CONTINUOUS
 10
9.8023894538
 20
8.9325414018
 11
9.8078582038
 21
8.9471247317
  0
LINE
  5
34B
100
AcDbEntity
  8
03__ASM_ALL_CURVES
100
AcDbLine
 62
4
  6
CONTINUOUS
 10
9.8461394538
 20
8.9033747343
 11
9.8406707038
 21
8.8887914005
  0
LINE
  5
34C
100
AcDbEntity
  8
03__ASM_ALL_CURVES
100
AcDbLine
 62
4
  6
CONTINUOUS
 10
9.9336394538
 20
9.6588330667
 11
9.9281707038
 21
9.6515414018
  0
LINE
  5
34D
100
AcDbEntity
  8
03__ASM_ALL_CURVES
100
AcDbLine
 62
4
  6
CONTINUOUS
 10
9.9391082038
 20
9.6150830667
 11
9.9281707038
 21
9.6004997336
  0
LINE
  5
34E
100
AcDbEntity
  8
03__ASM_ALL_CURVES
100
AcDbLine
 62
4
  6
CONTINUOUS
 10
9.9828582038
 20
9.6661247317
 11
9.9883269538
 21
9.6734164018
  0
LINE
  5
34F
100
AcDbEntity
  8
03__ASM_ALL_CURVES
100
AcDbLine
 62
4
  6
CONTINUOUS
 10
9.4797332038
 20
8.9617080667
 11
9.4687957038
 21
8.9471247317
  0
LINE
  5
350
100
AcDbEntity
  8
03__ASM_ALL_CURVES
100
AcDbLine
 62
4
  6
CONTINUOUS
 10
10.0156707038
 20
9.6077914005
 11
10.0102019538
 21
9.6004997336
  0
LINE
  5
351
100
AcDbEntity
  8
03__ASM_ALL_CURVES
100
AcDbLine
 62
4
  6
CONTINUOUS
 10
9.6328582038
 20
9.6734164018
 11
9.6437957038
 21
9.6807080667
  0
LINE
  5
352
100
AcDbEntity
  8
03__ASM_ALL_CURVES
100
AcDbLine
 62
4
  6
CONTINUOUS
 10
9.6656707038
 20
9.6515414018
 11
9.6547332038
 21
9.6442497317
  0
LINE
  5
353
100
AcDbEntity
  8
03__ASM_ALL_CURVES
100
AcDbLine
 62
4
  6
CONTINUOUS
 10
13.5878061214
 20
7.7286455667
 11
13.6096811201
 21
7.7231768167
  0
LINE
  5
354
100
AcDbEntity
  8
03__ASM_ALL_CURVES
100
AcDbLine
 62
4
  6
CONTINUOUS
 10
13.5659311188
 20
7.3895830667
 11
13.5805144538
 21
7.3841143167
  0
LINE
  5
355
100
AcDbEntity
  8
03__ASM_ALL_CURVES
100
AcDbLine
 62
4
  6
CONTINUOUS
 10
13.5950977863
 20
7.3895830667
 11
13.6096811201
 21
7.3841143167
  0
LINE
  5
356
100
AcDbEntity
  8
03__ASM_ALL_CURVES
100
AcDbLine
 62
4
  6
CONTINUOUS
 10
12.5367644538
 20
7.5591143167
 11
12.6023894538
 21
7.5208330667
  0
LINE
  5
357
100
AcDbEntity
  8
03__ASM_ALL_CURVES
100
AcDbLine
 62
4
  6
CONTINUOUS
 10
12.5367644538
 20
7.6466143167
 11
12.6023894538
 21
7.6083330667
  0
LINE
  5
358
100
AcDbEntity
  8
03__ASM_ALL_CURVES
100
AcDbLine
 62
4
  6
CONTINUOUS
 10
10.3437957038
 20
8.8742080667
 11
10.3328582038
 21
8.8814997336
  0
LINE
  5
359
100
AcDbEntity
  8
03__ASM_ALL_CURVES
100
AcDbLine
 62
4
  6
CONTINUOUS
 10
10.3328582038
 20
8.9325414018
 11
10.3656707038
 21
8.9106663992
  0
LINE
  5
35A
100
AcDbEntity
  8
03__ASM_ALL_CURVES
100
AcDbLine
 62
4
  6
CONTINUOUS
 10
10.3656707038
 20
8.9544164018
 11
10.3547332038
 21
8.9617080667
  0
LINE
  5
35B
100
AcDbEntity
  8
03__ASM_ALL_CURVES
100
AcDbLine
 62
4
  6
CONTINUOUS
 10
12.6096811201
 20
7.0395830667
 11
12.616972787
 21
7.0341143167
  0
LINE
  5
35C
100
AcDbEntity
  8
03__ASM_ALL_CURVES
100
AcDbLine
 62
4
  6
CONTINUOUS
 10
12.5367644538
 20
7.1981768167
 11
12.5513477889
 21
7.1872393167
  0
LINE
  5
35D
100
AcDbEntity
  8
03__ASM_ALL_CURVES
100
AcDbLine
 62
4
  6
CONTINUOUS
 10
9.6656707038
 20
9.6734164018
 11
9.6711394538
 21
9.6661247317
  0
LINE
  5
35E
100
AcDbEntity
  8
03__ASM_ALL_CURVES
100
AcDbLine
 62
4
  6
CONTINUOUS
 10
10.3328582038
 20
8.8814997336
 11
10.3219207038
 21
8.8960830667
  0
LINE
  5
35F
100
AcDbEntity
  8
03__ASM_ALL_CURVES
100
AcDbLine
 62
4
  6
CONTINUOUS
 10
9.8187957038
 20
9.6077914005
 11
9.8297332038
 21
9.5932080667
  0
LINE
  5
360
100
AcDbEntity
  8
03__ASM_ALL_CURVES
100
AcDbLine
 62
4
  6
CONTINUOUS
 10
10.3273894538
 20
8.9398330667
 11
10.3328582038
 21
8.9325414018
  0
LINE
  5
361
100
AcDbEntity
  8
03__ASM_ALL_CURVES
100
AcDbLine
 62
4
  6
CONTINUOUS
 10
10.3656707038
 20
8.9106663992
 11
10.3711394538
 21
8.9033747343
  0
LINE
  5
362
100
AcDbEntity
  8
03__ASM_ALL_CURVES
100
AcDbLine
 62
4
  6
CONTINUOUS
 10
10.3711394538
 20
8.9471247317
 11
10.3656707038
 21
8.9544164018
  0
LINE
  5
363
100
AcDbEntity
  8
03__ASM_ALL_CURVES
100
AcDbLine
 62
4
  6
CONTINUOUS
 10
9.8953582038
 20
9.6004997336
 11
9.8898894538
 21
9.6077914005
  0
LINE
  5
364
100
AcDbEntity
  8
03__ASM_ALL_CURVES
100
AcDbLine
 62
4
  6
CONTINUOUS
 10
10.4312957038
 20
8.9617080667
 11
10.4422332038
 21
8.9471247317
  0
LINE
  5
365
100
AcDbEntity
  8
03__ASM_ALL_CURVES
100
AcDbLine
 62
4
  6
CONTINUOUS
 10
9.9281707038
 20
9.6369580667
 11
9.9391082038
 21
9.6223747343
  0
LINE
  5
366
100
AcDbEntity
  8
03__ASM_ALL_CURVES
100
AcDbLine
 62
4
  6
CONTINUOUS
 10
9.9281707038
 20
9.6734164018
 11
9.9336394538
 21
9.6661247317
  0
LINE
  5
367
100
AcDbEntity
  8
03__ASM_ALL_CURVES
100
AcDbLine
 62
4
  6
CONTINUOUS
 10
9.9883269538
 20
9.6004997336
 11
9.9828582038
 21
9.6077914005
  0
LINE
  5
368
100
AcDbEntity
  8
03__ASM_ALL_CURVES
100
AcDbLine
 62
4
  6
CONTINUOUS
 10
9.9828582038
 20
9.6077914005
 11
9.9773894538
 21
9.6223747343
  0
LINE
  5
369
100
AcDbEntity
  8
03__ASM_ALL_CURVES
100
AcDbLine
 62
4
  6
CONTINUOUS
 10
10.0156707038
 20
9.6369580667
 11
10.0211394538
 21
9.6223747343
  0
LINE
  5
36A
100
AcDbEntity
  8
03__ASM_ALL_CURVES
100
AcDbLine
 62
4
  6
CONTINUOUS
 10
10.1633269538
 20
8.9106663992
 11
10.1687957038
 21
8.8887914005
  0
LINE
  5
36B
100
AcDbEntity
  8
03__ASM_ALL_CURVES
100
AcDbLine
 62
4
  6
CONTINUOUS
 10
10.2891082038
 20
12.2783747343
 11
10.2891082038
 21
12.2710830667
  0
LINE
  5
36C
100
AcDbEntity
  8
03__ASM_ALL_CURVES
100
AcDbLine
 62
4
  6
CONTINUOUS
 10
10.3273894538
 20
8.9471247317
 11
10.3273894538
 21
8.9398330667
  0
LINE
  5
36D
100
AcDbEntity
  8
03__ASM_ALL_CURVES
100
AcDbLine
 62
4
  6
CONTINUOUS
 10
10.3602019538
 20
12.3002497317
 11
10.3602019538
 21
12.2856663992
  0
LINE
  5
36E
100
AcDbEntity
  8
03__ASM_ALL_CURVES
100
AcDbLine
 62
4
  6
CONTINUOUS
 10
10.3602019538
 20
11.7062497317
 11
10.3602019538
 21
11.6916663992
  0
LINE
  5
36F
100
AcDbEntity
  8
03__ASM_ALL_CURVES
100
AcDbLine
 62
4
  6
CONTINUOUS
 10
10.3602019538
 20
9.6442497317
 11
10.3602019538
 21
9.6296663992
  0
LINE
  5
370
100
AcDbEntity
  8
03__ASM_ALL_CURVES
100
AcDbLine
 62
4
  6
CONTINUOUS
 10
10.3711394538
 20
8.9033747343
 11
10.3711394538
 21
8.8887914005
  0
LINE
  5
371
100
AcDbEntity
  8
03__ASM_ALL_CURVES
100
AcDbLine
 62
4
  6
CONTINUOUS
 10
10.4477019538
 20
8.9252497317
 11
10.4477019538
 21
8.9106663992
  0
LINE
  5
372
100
AcDbEntity
  8
03__ASM_ALL_CURVES
100
AcDbLine
 62
4
  6
CONTINUOUS
 10
10.1687957038
 20
8.9471247317
 11
10.1633269538
 21
8.9252497317
  0
LINE
  5
373
100
AcDbEntity
  8
03__ASM_ALL_CURVES
100
AcDbLine
 62
4
  6
CONTINUOUS
 10
10.3602019538
 20
9.6296663992
 11
10.3547332038
 21
9.6077914005
  0
LINE
  5
374
100
AcDbEntity
  8
03__ASM_ALL_CURVES
100
AcDbLine
 62
4
  6
CONTINUOUS
 10
9.6273894538
 20
8.9471247317
 11
9.6328582038
 21
8.9544164018
  0
LINE
  5
375
100
AcDbEntity
  8
03__ASM_ALL_CURVES
100
AcDbLine
 62
4
  6
CONTINUOUS
 10
9.6219207038
 20
8.9033747343
 11
9.6328582038
 21
8.9179580667
  0
LINE
  5
376
100
AcDbEntity
  8
03__ASM_ALL_CURVES
100
AcDbLine
 62
4
  6
CONTINUOUS
 10
10.1961394538
 20
9.6588330667
 11
10.1906707038
 21
9.6515414018
  0
LINE
  5
377
100
AcDbEntity
  8
03__ASM_ALL_CURVES
100
AcDbLine
 62
4
  6
CONTINUOUS
 10
9.6711394538
 20
8.9398330667
 11
9.6656707038
 21
8.9325414018
  0
LINE
  5
378
100
AcDbEntity
  8
03__ASM_ALL_CURVES
100
AcDbLine
 62
4
  6
CONTINUOUS
 10
10.2398894538
 20
9.6661247317
 11
10.2453582038
 21
9.6734164018
  0
LINE
  5
379
100
AcDbEntity
  8
03__ASM_ALL_CURVES
100
AcDbLine
 62
4
  6
CONTINUOUS
 10
10.2016082038
 20
9.6150830667
 11
10.1906707038
 21
9.6004997336
  0
LINE
  5
37A
100
AcDbEntity
  8
03__ASM_ALL_CURVES
100
AcDbLine
 62
4
  6
CONTINUOUS
 10
9.6766082038
 20
8.8960830667
 11
9.6656707038
 21
8.8814997336
  0
LINE
  5
37B
100
AcDbEntity
  8
03__ASM_ALL_CURVES
100
AcDbLine
 62
4
  6
CONTINUOUS
 10
10.2562957038
 20
9.6296663992
 11
10.2453582038
 21
9.6150830667
  0
LINE
  5
37C
100
AcDbEntity
  8
03__ASM_ALL_CURVES
100
AcDbLine
 62
4
  6
CONTINUOUS
 10
10.2836394538
 20
9.6515414018
 11
10.2781707038
 21
9.6442497317
  0
LINE
  5
37D
100
AcDbEntity
  8
03__ASM_ALL_CURVES
100
AcDbLine
 62
4
  6
CONTINUOUS
 10
9.8078582038
 20
8.9471247317
 11
9.8133269538
 21
8.9544164018
  0
LINE
  5
37E
100
AcDbEntity
  8
03__ASM_ALL_CURVES
100
AcDbLine
 62
4
  6
CONTINUOUS
 10
10.3547332038
 20
9.6077914005
 11
10.3437957038
 21
9.5932080667
  0
LINE
  5
37F
100
AcDbEntity
  8
03__ASM_ALL_CURVES
100
AcDbLine
 62
4
  6
CONTINUOUS
 10
9.8406707038
 20
8.8887914005
 11
9.8352019538
 21
8.8814997336
  0
LINE
  5
380
100
AcDbEntity
  8
03__ASM_ALL_CURVES
100
AcDbLine
 62
4
  6
CONTINUOUS
 10
9.6656707038
 20
9.6004997336
 11
9.6547332038
 21
9.5932080667
  0
LINE
  5
381
100
AcDbEntity
  8
03__ASM_ALL_CURVES
100
AcDbLine
 62
4
  6
CONTINUOUS
 10
9.8953582038
 20
9.6734164018
 11
9.9062957038
 21
9.6807080667
  0
LINE
  5
382
100
AcDbEntity
  8
03__ASM_ALL_CURVES
100
AcDbLine
 62
4
  6
CONTINUOUS
 10
9.9281707038
 20
9.6515414018
 11
9.9172332038
 21
9.6442497317
  0
LINE
  5
383
100
AcDbEntity
  8
03__ASM_ALL_CURVES
100
AcDbLine
 62
4
  6
CONTINUOUS
 10
9.9883269538
 20
9.6734164018
 11
9.9992644538
 21
9.6807080667
  0
LINE
  5
384
100
AcDbEntity
  8
03__ASM_ALL_CURVES
100
AcDbLine
 62
4
  6
CONTINUOUS
 10
9.9281707038
 20
9.6004997336
 11
9.9172332038
 21
9.5932080667
  0
LINE
  5
385
100
AcDbEntity
  8
03__ASM_ALL_CURVES
100
AcDbLine
 62
4
  6
CONTINUOUS
 10
9.0258269538
 20
8.9544164018
 11
9.0367644538
 21
8.9617080667
  0
LINE
  5
386
100
AcDbEntity
  8
03__ASM_ALL_CURVES
100
AcDbLine
 62
4
  6
CONTINUOUS
 10
10.0102019538
 20
9.6004997336
 11
9.9992644538
 21
9.5932080667
  0
LINE
  5
387
100
AcDbEntity
  8
03__ASM_ALL_CURVES
100
AcDbLine
 62
4
  6
CONTINUOUS
 10
10.1578582038
 20
9.6734164018
 11
10.1687957038
 21
9.6807080667
  0
LINE
  5
388
100
AcDbEntity
  8
03__ASM_ALL_CURVES
100
AcDbLine
 62
4
  6
CONTINUOUS
 10
13.5950977863
 20
7.6575518167
 11
13.6096811201
 21
7.6520830667
  0
LINE
  5
389
100
AcDbEntity
  8
03__ASM_ALL_CURVES
100
AcDbLine
 62
4
  6
CONTINUOUS
 10
9.6437957038
 20
9.5932080667
 11
9.6328582038
 21
9.6004997336
  0
LINE
  5
38A
100
AcDbEntity
  8
03__ASM_ALL_CURVES
100
AcDbLine
 62
4
  6
CONTINUOUS
 10
9.6547332038
 20
9.6442497317
 11
9.6656707038
 21
9.6369580667
  0
LINE
  5
38B
100
AcDbEntity
  8
03__ASM_ALL_CURVES
100
AcDbLine
 62
4
  6
CONTINUOUS
 10
9.6547332038
 20
9.6807080667
 11
9.6656707038
 21
9.6734164018
  0
LINE
  5
38C
100
AcDbEntity
  8
03__ASM_ALL_CURVES
100
AcDbLine
 62
4
  6
CONTINUOUS
 10
13.5513477889
 20
6.7333330667
 11
13.5440561188
 21
6.7388018167
  0
LINE
  5
38D
100
AcDbEntity
  8
03__ASM_ALL_CURVES
100
AcDbLine
 62
4
  6
CONTINUOUS
 10
13.5878061214
 20
6.7497393167
 11
13.6023894538
 21
6.7388018167
  0
LINE
  5
38E
100
AcDbEntity
  8
03__ASM_ALL_CURVES
100
AcDbLine
 62
4
  6
CONTINUOUS
 10
13.5659311188
 20
6.7770830667
 11
13.5732227889
 21
6.7716143167
  0
LINE
  5
38F
100
AcDbEntity
  8
03__ASM_ALL_CURVES
100
AcDbLine
 62
4
  6
CONTINUOUS
 10
10.0102019538
 20
9.6734164018
 11
10.0156707038
 21
9.6661247317
  0
LINE
  5
390
100
AcDbEntity
  8
03__ASM_ALL_CURVES
100
AcDbLine
 62
4
  6
CONTINUOUS
 10
10.1004363288
 20
9.6041455671
 11
10.1086394538
 21
9.5932080667
  0
LINE
  5
391
100
AcDbEntity
  8
03__ASM_ALL_CURVES
100
AcDbLine
 62
4
  6
CONTINUOUS
 10
10.1578582038
 20
9.6004997336
 11
10.1523894538
 21
9.6077914005
  0
LINE
  5
392
100
AcDbEntity
  8
03__ASM_ALL_CURVES
100
AcDbLine
 62
4
  6
CONTINUOUS
 10
10.1906707038
 20
9.6369580667
 11
10.2016082038
 21
9.6223747343
  0
LINE
  5
393
100
AcDbEntity
  8
03__ASM_ALL_CURVES
100
AcDbLine
 62
4
  6
CONTINUOUS
 10
10.1906707038
 20
9.6734164018
 11
10.1961394538
 21
9.6661247317
  0
LINE
  5
394
100
AcDbEntity
  8
03__ASM_ALL_CURVES
100
AcDbLine
 62
4
  6
CONTINUOUS
 10
9.4578582038
 20
12.2637914005
 11
9.4523894538
 21
12.2783747343
  0
LINE
  5
395
100
AcDbEntity
  8
03__ASM_ALL_CURVES
100
AcDbLine
 62
4
  6
CONTINUOUS
 10
9.6711394538
 20
11.6989580667
 11
9.6766082038
 21
11.6843747343
  0
LINE
  5
396
100
AcDbEntity
  8
03__ASM_ALL_CURVES
100
AcDbLine
 62
4
  6
CONTINUOUS
 10
10.4422332038
 20
8.9471247317
 11
10.4477019538
 21
8.9252497317
  0
LINE
  5
397
100
AcDbEntity
  8
03__ASM_ALL_CURVES
100
AcDbLine
 62
4
  6
CONTINUOUS
 10
9.8133269538
 20
11.6916663992
 11
9.8187957038
 21
11.6697914005
  0
LINE
  5
398
100
AcDbEntity
  8
03__ASM_ALL_CURVES
100
AcDbLine
 62
4
  6
CONTINUOUS
 10
10.3547332038
 20
9.6661247317
 11
10.3602019538
 21
9.6442497317
  0
LINE
  5
399
100
AcDbEntity
  8
03__ASM_ALL_CURVES
100
AcDbLine
 62
4
  6
CONTINUOUS
 10
9.7258269538
 20
12.2856663992
 11
9.7312957038
 21
12.2637914005
  0
LINE
  5
39A
100
AcDbEntity
  8
03__ASM_ALL_CURVES
100
AcDbLine
 62
4
  6
CONTINUOUS
 10
10.4477019538
 20
8.9106663992
 11
10.4422332038
 21
8.8887914005
  0
LINE
  5
39B
100
AcDbEntity
  8
03__ASM_ALL_CURVES
100
AcDbLine
 62
4
  6
CONTINUOUS
 10
10.2398894538
 20
8.2135414018
 11
10.2453582038
 21
8.2281247317
  0
LINE
  5
39C
100
AcDbEntity
  8
03__ASM_ALL_CURVES
100
AcDbLine
 62
4
  6
CONTINUOUS
 10
9.9336394538
 20
8.9398330667
 11
9.9281707038
 21
8.9325414018
  0
LINE
  5
39D
100
AcDbEntity
  8
03__ASM_ALL_CURVES
100
AcDbLine
 62
4
  6
CONTINUOUS
 10
9.9391082038
 20
8.8960830667
 11
9.9281707038
 21
8.8814997336
  0
LINE
  5
39E
100
AcDbEntity
  8
03__ASM_ALL_CURVES
100
AcDbLine
 62
4
  6
CONTINUOUS
 10
10.0047332038
 20
8.8887914005
 11
9.9937957038
 21
8.8742080667
  0
LINE
  5
39F
100
AcDbEntity
  8
03__ASM_ALL_CURVES
100
AcDbLine
 62
4
  6
CONTINUOUS
 10
10.1797332038
 20
8.9617080667
 11
10.1687957038
 21
8.9471247317
  0
LINE
  5
3A0
100
AcDbEntity
  8
03__ASM_ALL_CURVES
100
AcDbLine
 62
4
  6
CONTINUOUS
 10
10.1906707038
 20
9.6515414018
 11
10.1797332038
 21
9.6442497317
  0
LINE
  5
3A1
100
AcDbEntity
  8
03__ASM_ALL_CURVES
100
AcDbLine
 62
4
  6
CONTINUOUS
 10
9.0477019538
 20
8.8814997336
 11
9.0367644538
 21
8.8742080667
  0
LINE
  5
3A2
100
AcDbEntity
  8
03__ASM_ALL_CURVES
100
AcDbLine
 62
4
  6
CONTINUOUS
 10
10.2453582038
 20
9.6734164018
 11
10.2562957038
 21
9.6807080667
  0
LINE
  5
3A3
100
AcDbEntity
  8
03__ASM_ALL_CURVES
100
AcDbLine
 62
4
  6
CONTINUOUS
 10
10.1906707038
 20
9.6004997336
 11
10.1797332038
 21
9.5932080667
  0
LINE
  5
3A4
100
AcDbEntity
  8
03__ASM_ALL_CURVES
100
AcDbLine
 62
4
  6
CONTINUOUS
 10
10.2781707038
 20
9.6442497317
 11
10.2562957038
 21
9.6296663992
  0
LINE
  5
3A5
100
AcDbEntity
  8
03__ASM_ALL_CURVES
100
AcDbLine
 62
4
  6
CONTINUOUS
 10
9.9828582038
 20
9.6369580667
 11
9.9992644538
 21
9.6442497317
  0
LINE
  5
3A6
100
AcDbEntity
  8
03__ASM_ALL_CURVES
100
AcDbLine
 62
4
  6
CONTINUOUS
 10
10.3547332038
 20
8.8742080667
 11
10.3437957038
 21
8.8742080667
  0
LINE
  5
3A7
100
AcDbEntity
  8
03__ASM_ALL_CURVES
100
AcDbLine
 62
4
  6
CONTINUOUS
 10
9.9172332038
 20
8.8742080667
 11
9.9062957038
 21
8.8742080667
  0
LINE
  5
3A8
100
AcDbEntity
  8
03__ASM_ALL_CURVES
100
AcDbLine
 62
4
  6
CONTINUOUS
 10
9.7586394538
 20
8.8742080667
 11
9.7504363288
 21
8.8742080667
  0
LINE
  5
3A9
100
AcDbEntity
  8
03__ASM_ALL_CURVES
100
AcDbLine
 62
4
  6
CONTINUOUS
 10
9.6547332038
 20
8.8742080667
 11
9.6437957038
 21
8.8742080667
  0
LINE
  5
3AA
100
AcDbEntity
  8
03__ASM_ALL_CURVES
100
AcDbLine
 62
4
  6
CONTINUOUS
 10
9.1461394538
 20
8.8742080667
 11
9.1379363288
 21
8.8742080667
  0
LINE
  5
3AB
100
AcDbEntity
  8
03__ASM_ALL_CURVES
100
AcDbLine
 62
4
  6
CONTINUOUS
 10
10.2398894538
 20
8.8742080667
 11
10.2836394538
 21
8.8742080667
  0
LINE
  5
3AC
100
AcDbEntity
  8
03__ASM_ALL_CURVES
100
AcDbLine
 62
4
  6
CONTINUOUS
 10
10.7430144538
 20
8.9179580667
 11
10.4805144538
 21
8.9179580667
  0
LINE
  5
3AD
100
AcDbEntity
  8
03__ASM_ALL_CURVES
100
AcDbLine
 62
4
  6
CONTINUOUS
 10
9.6437957038
 20
8.9252497317
 11
9.6547332038
 21
8.9252497317
  0
LINE
  5
3AE
100
AcDbEntity
  8
03__ASM_ALL_CURVES
100
AcDbLine
 62
4
  6
CONTINUOUS
 10
9.9062957038
 20
8.9252497317
 11
9.9172332038
 21
8.9252497317
  0
LINE
  5
3AF
100
AcDbEntity
  8
03__ASM_ALL_CURVES
100
AcDbLine
 62
4
  6
CONTINUOUS
 10
10.3547332038
 20
8.9617080667
 11
10.3437957038
 21
8.9617080667
  0
LINE
  5
3B0
100
AcDbEntity
  8
03__ASM_ALL_CURVES
100
AcDbLine
 62
4
  6
CONTINUOUS
 10
9.2336394538
 20
8.9617080667
 11
9.1898894538
 21
8.9617080667
  0
LINE
  5
3B1
100
AcDbEntity
  8
03__ASM_ALL_CURVES
100
AcDbLine
 62
4
  6
CONTINUOUS
 10
9.6437957038
 20
8.9617080667
 11
9.6547332038
 21
8.9617080667
  0
LINE
  5
3B2
100
AcDbEntity
  8
03__ASM_ALL_CURVES
100
AcDbLine
 62
4
  6
CONTINUOUS
 10
9.9062957038
 20
8.9617080667
 11
9.9172332038
 21
8.9617080667
  0
LINE
  5
3B3
100
AcDbEntity
  8
03__ASM_ALL_CURVES
100
AcDbLine
 62
4
  6
CONTINUOUS
 10
9.9062957038
 20
9.5932080667
 11
9.8953582038
 21
9.6004997336
  0
LINE
  5
3B4
100
AcDbEntity
  8
03__ASM_ALL_CURVES
100
AcDbLine
 62
4
  6
CONTINUOUS
 10
9.9172332038
 20
9.6442497317
 11
9.9281707038
 21
9.6369580667
  0
LINE
  5
3B5
100
AcDbEntity
  8
03__ASM_ALL_CURVES
100
AcDbLine
 62
4
  6
CONTINUOUS
 10
9.9992644538
 20
9.5932080667
 11
9.9883269538
 21
9.6004997336
  0
LINE
  5
3B6
100
AcDbEntity
  8
03__ASM_ALL_CURVES
100
AcDbLine
 62
4
  6
CONTINUOUS
 10
9.9172332038
 20
9.6807080667
 11
9.9281707038
 21
9.6734164018
  0
LINE
  5
3B7
100
AcDbEntity
  8
03__ASM_ALL_CURVES
100
AcDbLine
 62
4
  6
CONTINUOUS
 10
9.9992644538
 20
9.6807080667
 11
10.0102019538
 21
9.6734164018
  0
LINE
  5
3B8
100
AcDbEntity
  8
03__ASM_ALL_CURVES
100
AcDbLine
 62
4
  6
CONTINUOUS
 10
10.1687957038
 20
9.5932080667
 11
10.1578582038
 21
9.6004997336
  0
LINE
  5
3B9
100
AcDbEntity
  8
03__ASM_ALL_CURVES
100
AcDbLine
 62
4
  6
CONTINUOUS
 10
10.1797332038
 20
9.6442497317
 11
10.1906707038
 21
9.6369580667
  0
LINE
  5
3BA
100
AcDbEntity
  8
03__ASM_ALL_CURVES
100
AcDbLine
 62
4
  6
CONTINUOUS
 10
10.1797332038
 20
9.6807080667
 11
10.1906707038
 21
9.6734164018
  0
LINE
  5
3BB
100
AcDbEntity
  8
03__ASM_ALL_CURVES
100
AcDbLine
 62
4
  6
CONTINUOUS
 10
12.6096811201
 20
7.7231768167
 11
12.6242644538
 21
7.7122393167
  0
LINE
  5
3BC
100
AcDbEntity
  8
03__ASM_ALL_CURVES
100
AcDbLine
 62
4
  6
CONTINUOUS
 10
13.6096811201
 20
7.0395830667
 11
13.616972787
 21
7.0341143167
  0
LINE
  5
3BD
100
AcDbEntity
  8
03__ASM_ALL_CURVES
100
AcDbLine
 62
4
  6
CONTINUOUS
 10
13.5367644538
 20
7.1981768167
 11
13.5513477889
 21
7.1872393167
  0
LINE
  5
3BE
100
AcDbEntity
  8
03__ASM_ALL_CURVES
100
AcDbLine
 62
4
  6
CONTINUOUS
 10
10.2781707038
 20
9.6734164018
 11
10.2836394538
 21
9.6661247317
  0
LINE
  5
3BF
100
AcDbEntity
  8
03__ASM_ALL_CURVES
100
AcDbLine
 62
4
  6
CONTINUOUS
 10
10.3437957038
 20
9.6807080667
 11
10.3547332038
 21
9.6661247317
  0
LINE
  5
3C0
100
AcDbEntity
  8
03__ASM_ALL_CURVES
100
AcDbLine
 62
4
  6
CONTINUOUS
 10
9.4906707038
 20
12.3221247317
 11
9.4961394538
 21
12.3075414018
  0
LINE
  5
3C1
100
AcDbEntity
  8
03__ASM_ALL_CURVES
100
AcDbLine
 62
4
  6
CONTINUOUS
 10
9.5453582038
 20
12.2929580667
 11
9.5398894538
 21
12.3075414018
  0
LINE
  5
3C2
100
AcDbEntity
  8
03__ASM_ALL_CURVES
100
AcDbLine
 62
4
  6
CONTINUOUS
 10
9.5781707038
 20
12.3221247317
 11
9.5836394538
 21
12.3075414018
  0
LINE
  5
3C3
100
AcDbEntity
  8
0
100
AcDbLine
 62
7
  6
CONTINUOUS
 10
10.8305144538
 20
11.6989580667
 11
10.8305144538
 21
8.1989580667
  0
LINE
  5
3C4
100
AcDbEntity
  8
03__ASM_ALL_CURVES
100
AcDbLine
 62
4
  6
CONTINUOUS
 10
10.8305144538
 20
8.1114580667
 11
10.8305144538
 21
7.8489580667
  0
LINE
  5
3C5
100
AcDbEntity
  8
03__ASM_ALL_CURVES
100
AcDbLine
 62
4
  6
CONTINUOUS
 10
10.2836394538
 20
8.1843747343
 11
10.2781707038
 21
8.1697914005
  0
LINE
  5
3C6
100
AcDbEntity
  8
03__ASM_ALL_CURVES
100
AcDbLine
 62
4
  6
CONTINUOUS
 10
10.3328582038
 20
8.9544164018
 11
10.3273894538
 21
8.9471247317
  0
LINE
  5
3C7
100
AcDbEntity
  8
03__ASM_ALL_CURVES
100
AcDbLine
 62
4
  6
CONTINUOUS
 10
10.3711394538
 20
8.8887914005
 11
10.3656707038
 21
8.8814997336
  0
LINE
  5
3C8
100
AcDbEntity
  8
03__ASM_ALL_CURVES
100
AcDbLine
 62
4
  6
CONTINUOUS
 10
10.4422332038
 20
8.8887914005
 11
10.4312957038
 21
8.8742080667
  0
LINE
  5
3C9
100
AcDbEntity
  8
03__ASM_ALL_CURVES
100
AcDbLine
 62
4
  6
CONTINUOUS
 10
9.6328582038
 20
8.9544164018
 11
9.6437957038
 21
8.9617080667
  0
LINE
  5
3CA
100
AcDbEntity
  8
03__ASM_ALL_CURVES
100
AcDbLine
 62
4
  6
CONTINUOUS
 10
9.6328582038
 20
8.9179580667
 11
9.6437957038
 21
8.9252497317
  0
LINE
  5
3CB
100
AcDbEntity
  8
03__ASM_ALL_CURVES
100
AcDbLine
 62
4
  6
CONTINUOUS
 10
9.6656707038
 20
8.9325414018
 11
9.6547332038
 21
8.9252497317
  0
LINE
  5
3CC
100
AcDbEntity
  8
03__ASM_ALL_CURVES
100
AcDbLine
 62
4
  6
CONTINUOUS
 10
9.6656707038
 20
8.8814997336
 11
9.6547332038
 21
8.8742080667
  0
LINE
  5
3CD
100
AcDbEntity
  8
03__ASM_ALL_CURVES
100
AcDbLine
 62
4
  6
CONTINUOUS
 10
9.8133269538
 20
8.9544164018
 11
9.8242644538
 21
8.9617080667
  0
LINE
  5
3CE
100
AcDbEntity
  8
03__ASM_ALL_CURVES
100
AcDbLine
 62
4
  6
CONTINUOUS
 10
9.8953582038
 20
8.9544164018
 11
9.9062957038
 21
8.9617080667
  0
LINE
  5
3CF
100
AcDbEntity
  8
03__ASM_ALL_CURVES
100
AcDbLine
 62
4
  6
CONTINUOUS
 10
9.8352019538
 20
8.8814997336
 11
9.8242644538
 21
8.8742080667
  0
LINE
  5
3D0
100
AcDbEntity
  8
03__ASM_ALL_CURVES
100
AcDbLine
 62
4
  6
CONTINUOUS
 10
9.9281707038
 20
8.9325414018
 11
9.9172332038
 21
8.9252497317
  0
LINE
  5
3D1
100
AcDbEntity
  8
03__ASM_ALL_CURVES
100
AcDbLine
 62
4
  6
CONTINUOUS
 10
9.9992644538
 20
9.6442497317
 11
10.0156707038
 21
9.6369580667
  0
LINE
  5
3D2
100
AcDbEntity
  8
03__ASM_ALL_CURVES
100
AcDbLine
 62
4
  6
CONTINUOUS
 10
10.2672332038
 20
9.6807080667
 11
10.2781707038
 21
9.6734164018
  0
LINE
  5
3D3
100
AcDbEntity
  8
03__ASM_ALL_CURVES
100
AcDbLine
 62
4
  6
CONTINUOUS
 10
13.5513477889
 20
7.2638018167
 11
13.5440561188
 21
7.2692705667
  0
LINE
  5
3D4
100
AcDbEntity
  8
03__ASM_ALL_CURVES
100
AcDbLine
 62
4
  6
CONTINUOUS
 10
13.6096811201
 20
7.2966143167
 11
13.616972787
 21
7.2911455667
  0
LINE
  5
3D5
100
AcDbEntity
  8
03__ASM_ALL_CURVES
100
AcDbLine
 62
4
  6
CONTINUOUS
 10
13.5513477889
 20
7.3513018167
 11
13.5440561188
 21
7.3567705667
  0
LINE
  5
3D6
100
AcDbEntity
  8
03__ASM_ALL_CURVES
100
AcDbLine
 62
4
  6
CONTINUOUS
 10
13.6096811201
 20
7.3841143167
 11
13.616972787
 21
7.3786455667
  0
LINE
  5
3D7
100
AcDbEntity
  8
03__ASM_ALL_CURVES
100
AcDbLine
 62
4
  6
CONTINUOUS
 10
13.5513477889
 20
7.5208330667
 11
13.5440561188
 21
7.5263018167
  0
LINE
  5
3D8
100
AcDbEntity
  8
03__ASM_ALL_CURVES
100
AcDbLine
 62
4
  6
CONTINUOUS
 10
12.5732227889
 20
7.0013018167
 11
12.5659311188
 21
7.0122393167
  0
LINE
  5
3D9
100
AcDbEntity
  8
03__ASM_ALL_CURVES
100
AcDbLine
 62
4
  6
CONTINUOUS
 10
12.616972787
 20
7.0341143167
 11
12.6242644538
 21
7.0231768167
  0
LINE
  5
3DA
100
AcDbEntity
  8
03__ASM_ALL_CURVES
100
AcDbLine
 62
4
  6
CONTINUOUS
 10
9.8953582038
 20
12.2637914005
 11
9.8898894538
 21
12.2783747343
  0
LINE
  5
3DB
100
AcDbEntity
  8
03__ASM_ALL_CURVES
100
AcDbLine
 62
4
  6
CONTINUOUS
 10
9.9281707038
 20
12.3221247317
 11
9.9336394538
 21
12.3075414018
  0
LINE
  5
3DC
100
AcDbEntity
  8
03__ASM_ALL_CURVES
100
AcDbLine
 62
4
  6
CONTINUOUS
 10
10.3547332038
 20
11.7281247317
 11
10.3602019538
 21
11.7062497317
  0
LINE
  5
3DD
100
AcDbEntity
  8
03__ASM_ALL_CURVES
100
AcDbLine
 62
4
  6
CONTINUOUS
 10
10.2453582038
 20
8.2281247317
 11
10.2508269538
 21
8.2354164018
  0
LINE
  5
3DE
100
AcDbEntity
  8
0
100
AcDbLine
 62
7
  6
CONTINUOUS
 10
13.3840144538
 20
11.7619580667
 11
13.393327925
 21
11.7712715379
  0
LINE
  5
3DF
100
AcDbEntity
  8
03__ASM_ALL_CURVES
100
AcDbLine
 62
4
  6
CONTINUOUS
 10
9.9281707038
 20
8.8814997336
 11
9.9172332038
 21
8.8742080667
  0
LINE
  5
3E0
100
AcDbEntity
  8
03__ASM_ALL_CURVES
100
AcDbLine
 62
4
  6
CONTINUOUS
 10
10.3437957038
 20
8.9617080667
 11
10.3328582038
 21
8.9544164018
  0
LINE
  5
3E1
100
AcDbEntity
  8
03__ASM_ALL_CURVES
100
AcDbLine
 62
4
  6
CONTINUOUS
 10
13.5950977863
 20
7.5153643167
 11
13.5805144538
 21
7.5263018167
  0
LINE
  5
3E2
100
AcDbEntity
  8
03__ASM_ALL_CURVES
100
AcDbLine
 62
4
  6
CONTINUOUS
 10
13.5586394538
 20
7.5645830667
 11
13.5659311188
 21
7.5591143167
  0
LINE
  5
3E3
100
AcDbEntity
  8
03__ASM_ALL_CURVES
100
AcDbLine
 62
4
  6
CONTINUOUS
 10
13.6023894538
 20
7.5700518167
 11
13.616972787
 21
7.5591143167
  0
LINE
  5
3E4
100
AcDbEntity
  8
03__ASM_ALL_CURVES
100
AcDbLine
 62
4
  6
CONTINUOUS
 10
13.6096811201
 20
7.6520830667
 11
13.616972787
 21
7.6466143167
  0
LINE
  5
3E5
100
AcDbEntity
  8
03__ASM_ALL_CURVES
100
AcDbLine
 62
4
  6
CONTINUOUS
 10
13.6096811201
 20
7.7231768167
 11
13.6242644538
 21
7.7122393167
  0
LINE
  5
3E6
100
AcDbEntity
  8
03__ASM_ALL_CURVES
100
AcDbLine
 62
4
  6
CONTINUOUS
 10
9.4578582038
 20
11.6624997336
 11
9.4523894538
 21
11.6697914005
  0
LINE
  5
3E7
100
AcDbEntity
  8
03__ASM_ALL_CURVES
100
AcDbLine
 62
4
  6
CONTINUOUS
 10
9.4906707038
 20
11.6989580667
 11
9.5016082038
 21
11.6843747343
  0
LINE
  5
3E8
100
AcDbEntity
  8
03__ASM_ALL_CURVES
100
AcDbLine
 62
4
  6
CONTINUOUS
 10
9.4906707038
 20
11.7354164018
 11
9.4961394538
 21
11.7281247317
  0
LINE
  5
3E9
100
AcDbEntity
  8
03__ASM_ALL_CURVES
100
AcDbLine
 62
4
  6
CONTINUOUS
 10
9.5754363288
 20
11.6661455671
 11
9.5836394538
 21
11.6552080667
  0
LINE
  5
3EA
100
AcDbEntity
  8
03__ASM_ALL_CURVES
100
AcDbLine
 62
4
  6
CONTINUOUS
 10
9.6328582038
 20
11.6624997336
 11
9.6273894538
 21
11.6697914005
  0
LINE
  5
3EB
100
AcDbEntity
  8
03__ASM_ALL_CURVES
100
AcDbLine
 62
4
  6
CONTINUOUS
 10
10.2453582038
 20
11.6989580667
 11
10.2398894538
 21
11.7135414018
  0
LINE
  5
3EC
100
AcDbEntity
  8
03__ASM_ALL_CURVES
100
AcDbLine
 62
4
  6
CONTINUOUS
 10
10.2781707038
 20
11.7281247317
 11
10.2836394538
 21
11.7135414018
  0
LINE
  5
3ED
100
AcDbEntity
  8
03__ASM_ALL_CURVES
100
AcDbLine
 62
4
  6
CONTINUOUS
 10
10.3547332038
 20
12.3221247317
 11
10.3602019538
 21
12.3002497317
  0
LINE
  5
3EE
100
AcDbEntity
  8
03__ASM_ALL_CURVES
100
AcDbLine
 62
4
  6
CONTINUOUS
 10
10.2781707038
 20
8.1697914005
 11
10.2727019538
 21
8.1624997336
  0
LINE
  5
3EF
100
AcDbEntity
  8
03__ASM_ALL_CURVES
100
AcDbLine
 62
4
  6
CONTINUOUS
 10
10.3656707038
 20
8.8814997336
 11
10.3547332038
 21
8.8742080667
  0
LINE
  5
3F0
100
AcDbEntity
  8
03__ASM_ALL_CURVES
100
AcDbLine
 62
4
  6
CONTINUOUS
 10
10.1797332038
 20
9.5932080667
 11
10.1687957038
 21
9.5932080667
  0
LINE
  5
3F1
100
AcDbEntity
  8
03__ASM_ALL_CURVES
100
AcDbLine
 62
4
  6
CONTINUOUS
 10
10.1086394538
 20
9.5932080667
 11
10.1004363288
 21
9.5932080667
  0
LINE
  5
3F2
100
AcDbEntity
  8
03__ASM_ALL_CURVES
100
AcDbLine
 62
4
  6
CONTINUOUS
 10
9.9172332038
 20
9.5932080667
 11
9.9062957038
 21
9.5932080667
  0
LINE
  5
3F3
100
AcDbEntity
  8
03__ASM_ALL_CURVES
100
AcDbLine
 62
4
  6
CONTINUOUS
 10
9.6547332038
 20
9.5932080667
 11
9.6437957038
 21
9.5932080667
  0
LINE
  5
3F4
100
AcDbEntity
  8
03__ASM_ALL_CURVES
100
AcDbLine
 62
4
  6
CONTINUOUS
 10
9.4961394538
 20
9.5932080667
 11
9.4879363288
 21
9.5932080667
  0
LINE
  5
3F5
100
AcDbEntity
  8
03__ASM_ALL_CURVES
100
AcDbLine
 62
4
  6
CONTINUOUS
 10
10.2398894538
 20
9.5932080667
 11
10.2836394538
 21
9.5932080667
  0
LINE
  5
3F6
100
AcDbEntity
  8
03__ASM_ALL_CURVES
100
AcDbLine
 62
4
  6
CONTINUOUS
 10
9.5398894538
 20
9.6150830667
 11
9.5891082038
 21
9.6150830667
  0
LINE
  5
3F7
100
AcDbEntity
  8
03__ASM_ALL_CURVES
100
AcDbLine
 62
4
  6
CONTINUOUS
 10
10.7430144538
 20
9.6369580667
 11
10.4805144538
 21
9.6369580667
  0
LINE
  5
3F8
100
AcDbEntity
  8
03__ASM_ALL_CURVES
100
AcDbLine
 62
4
  6
CONTINUOUS
 10
9.6437957038
 20
9.6442497317
 11
9.6547332038
 21
9.6442497317
  0
LINE
  5
3F9
100
AcDbEntity
  8
03__ASM_ALL_CURVES
100
AcDbLine
 62
4
  6
CONTINUOUS
 10
9.9062957038
 20
9.6442497317
 11
9.9172332038
 21
9.6442497317
  0
LINE
  5
3FA
100
AcDbEntity
  8
03__ASM_ALL_CURVES
100
AcDbLine
 62
4
  6
CONTINUOUS
 10
10.1687957038
 20
9.6442497317
 11
10.1797332038
 21
9.6442497317
  0
LINE
  5
3FB
100
AcDbEntity
  8
03__ASM_ALL_CURVES
100
AcDbLine
 62
4
  6
CONTINUOUS
 10
9.6437957038
 20
9.6807080667
 11
9.6547332038
 21
9.6807080667
  0
LINE
  5
3FC
100
AcDbEntity
  8
03__ASM_ALL_CURVES
100
AcDbLine
 62
4
  6
CONTINUOUS
 10
9.9062957038
 20
9.6807080667
 11
9.9172332038
 21
9.6807080667
  0
LINE
  5
3FD
100
AcDbEntity
  8
03__ASM_ALL_CURVES
100
AcDbLine
 62
4
  6
CONTINUOUS
 10
10.1687957038
 20
9.6807080667
 11
10.1797332038
 21
9.6807080667
  0
LINE
  5
3FE
100
AcDbEntity
  8
03__ASM_ALL_CURVES
100
AcDbLine
 62
4
  6
CONTINUOUS
 10
10.2562957038
 20
9.6807080667
 11
10.2672332038
 21
9.6807080667
  0
LINE
  5
3FF
100
AcDbEntity
  8
03__ASM_ALL_CURVES
100
AcDbLine
 62
4
  6
CONTINUOUS
 10
9.6656707038
 20
11.7062497317
 11
9.6711394538
 21
11.6989580667
  0
LINE
  5
400
100
AcDbEntity
  8
03__ASM_ALL_CURVES
100
AcDbLine
 62
4
  6
CONTINUOUS
 10
9.8187957038
 20
11.6697914005
 11
9.8297332038
 21
11.6552080667
  0
LINE
  5
401
100
AcDbEntity
  8
03__ASM_ALL_CURVES
100
AcDbLine
 62
4
  6
CONTINUOUS
 10
9.4004363288
 20
12.2601455671
 11
9.4086394538
 21
12.2492080667
  0
LINE
  5
402
100
AcDbEntity
  8
03__ASM_ALL_CURVES
100
AcDbLine
 62
4
  6
CONTINUOUS
 10
9.8953582038
 20
11.6624997336
 11
9.8844207038
 21
11.6770830667
  0
LINE
  5
403
100
AcDbEntity
  8
03__ASM_ALL_CURVES
100
AcDbLine
 62
4
  6
CONTINUOUS
 10
9.4633269538
 20
12.2564997336
 11
9.4578582038
 21
12.2637914005
  0
LINE
  5
404
100
AcDbEntity
  8
03__ASM_ALL_CURVES
100
AcDbLine
 62
4
  6
CONTINUOUS
 10
9.8953582038
 20
11.7135414018
 11
9.8898894538
 21
11.7208330667
  0
LINE
  5
405
100
AcDbEntity
  8
03__ASM_ALL_CURVES
100
AcDbLine
 62
4
  6
CONTINUOUS
 10
9.9281707038
 20
11.6989580667
 11
9.9391082038
 21
11.6843747343
  0
LINE
  5
406
100
AcDbEntity
  8
03__ASM_ALL_CURVES
100
AcDbLine
 62
4
  6
CONTINUOUS
 10
9.9281707038
 20
11.7354164018
 11
9.9336394538
 21
11.7281247317
  0
LINE
  5
407
100
AcDbEntity
  8
03__ASM_ALL_CURVES
100
AcDbLine
 62
4
  6
CONTINUOUS
 10
9.9828582038
 20
11.6624997336
 11
9.9719207038
 21
11.6770830667
  0
LINE
  5
408
100
AcDbEntity
  8
03__ASM_ALL_CURVES
100
AcDbLine
 62
4
  6
CONTINUOUS
 10
9.4852019538
 20
12.3294164018
 11
9.4906707038
 21
12.3221247317
  0
LINE
  5
409
100
AcDbEntity
  8
03__ASM_ALL_CURVES
100
AcDbLine
 62
4
  6
CONTINUOUS
 10
9.5508269538
 20
12.2564997336
 11
9.5453582038
 21
12.2637914005
  0
LINE
  5
40A
100
AcDbEntity
  8
03__ASM_ALL_CURVES
100
AcDbLine
 62
4
  6
CONTINUOUS
 10
9.9828582038
 20
11.7135414018
 11
9.9773894538
 21
11.7208330667
  0
LINE
  5
40B
100
AcDbEntity
  8
03__ASM_ALL_CURVES
100
AcDbLine
 62
4
  6
CONTINUOUS
 10
10.0156707038
 20
11.6989580667
 11
10.0266082038
 21
11.6843747343
  0
LINE
  5
40C
100
AcDbEntity
  8
03__ASM_ALL_CURVES
100
AcDbLine
 62
4
  6
CONTINUOUS
 10
10.0156707038
 20
11.7354164018
 11
10.0211394538
 21
11.7281247317
  0
LINE
  5
40D
100
AcDbEntity
  8
03__ASM_ALL_CURVES
100
AcDbLine
 62
4
  6
CONTINUOUS
 10
9.5727019538
 20
12.3294164018
 11
9.5781707038
 21
12.3221247317
  0
LINE
  5
40E
100
AcDbEntity
  8
03__ASM_ALL_CURVES
100
AcDbLine
 62
4
  6
CONTINUOUS
 10
10.1004363288
 20
11.6661455671
 11
10.1086394538
 21
11.6552080667
  0
LINE
  5
40F
100
AcDbEntity
  8
03__ASM_ALL_CURVES
100
AcDbLine
 62
4
  6
CONTINUOUS
 10
10.1578582038
 20
11.6624997336
 11
10.1469207038
 21
11.6770830667
  0
LINE
  5
410
100
AcDbEntity
  8
03__ASM_ALL_CURVES
100
AcDbLine
 62
4
  6
CONTINUOUS
 10
9.7312957038
 20
12.2637914005
 11
9.7422332038
 21
12.2492080667
  0
LINE
  5
411
100
AcDbEntity
  8
03__ASM_ALL_CURVES
100
AcDbLine
 62
4
  6
CONTINUOUS
 10
10.1578582038
 20
11.7135414018
 11
10.1523894538
 21
11.7208330667
  0
LINE
  5
412
100
AcDbEntity
  8
03__ASM_ALL_CURVES
100
AcDbLine
 62
4
  6
CONTINUOUS
 10
10.1906707038
 20
11.6989580667
 11
10.2016082038
 21
11.6843747343
  0
LINE
  5
413
100
AcDbEntity
  8
03__ASM_ALL_CURVES
100
AcDbLine
 62
4
  6
CONTINUOUS
 10
10.1906707038
 20
11.7354164018
 11
10.1961394538
 21
11.7281247317
  0
LINE
  5
414
100
AcDbEntity
  8
03__ASM_ALL_CURVES
100
AcDbLine
 62
4
  6
CONTINUOUS
 10
10.2508269538
 20
11.6624997336
 11
10.2453582038
 21
11.6697914005
  0
LINE
  5
415
100
AcDbEntity
  8
03__ASM_ALL_CURVES
100
AcDbLine
 62
4
  6
CONTINUOUS
 10
13.5440561188
 20
6.7388018167
 11
13.5367644538
 21
6.7497393167
  0
LINE
  5
416
100
AcDbEntity
  8
03__ASM_ALL_CURVES
100
AcDbLine
 62
4
  6
CONTINUOUS
 10
13.5732227889
 20
6.7716143167
 11
13.5878061214
 21
6.7497393167
  0
LINE
  5
417
100
AcDbEntity
  8
03__ASM_ALL_CURVES
100
AcDbLine
 62
4
  6
CONTINUOUS
 10
10.7867644538
 20
7.6302080667
 11
10.7940561188
 21
7.6411455667
  0
LINE
  5
418
100
AcDbEntity
  8
03__ASM_ALL_CURVES
100
AcDbLine
 62
4
  6
CONTINUOUS
 10
10.8742644538
 20
7.6302080667
 11
10.866972787
 21
7.6192705667
  0
LINE
  5
419
100
AcDbEntity
  8
03__ASM_ALL_CURVES
100
AcDbLine
 62
4
  6
CONTINUOUS
 10
10.2508269538
 20
8.2354164018
 11
10.2617644538
 21
8.2427080667
  0
LINE
  5
41A
100
AcDbEntity
  8
03__ASM_ALL_CURVES
100
AcDbLine
 62
4
  6
CONTINUOUS
 10
10.2727019538
 20
8.1624997336
 11
10.2617644538
 21
8.1552080667
  0
LINE
  5
41B
100
AcDbEntity
  8
03__ASM_ALL_CURVES
100
AcDbLine
 62
4
  6
CONTINUOUS
 10
10.2727019538
 20
11.7354164018
 11
10.2781707038
 21
11.7281247317
  0
LINE
  5
41C
100
AcDbEntity
  8
03__ASM_ALL_CURVES
100
AcDbLine
 62
4
  6
CONTINUOUS
 10
9.9008269538
 20
12.2564997336
 11
9.8953582038
 21
12.2637914005
  0
LINE
  5
41D
100
AcDbEntity
  8
03__ASM_ALL_CURVES
100
AcDbLine
 62
4
  6
CONTINUOUS
 10
10.3437957038
 20
11.7427080667
 11
10.3547332038
 21
11.7281247317
  0
LINE
  5
41E
100
AcDbEntity
  8
03__ASM_ALL_CURVES
100
AcDbLine
 62
4
  6
CONTINUOUS
 10
9.9227019538
 20
12.3294164018
 11
9.9281707038
 21
12.3221247317
  0
LINE
  5
41F
100
AcDbEntity
  8
03__ASM_ALL_CURVES
100
AcDbLine
 62
4
  6
CONTINUOUS
 10
9.9828582038
 20
12.2564997336
 11
9.9773894538
 21
12.2637914005
  0
LINE
  5
420
100
AcDbEntity
  8
03__ASM_ALL_CURVES
100
AcDbLine
 62
4
  6
CONTINUOUS
 10
10.0156707038
 20
12.2929580667
 11
10.0266082038
 21
12.2783747343
  0
LINE
  5
421
100
AcDbEntity
  8
03__ASM_ALL_CURVES
100
AcDbLine
 62
4
  6
CONTINUOUS
 10
10.0156707038
 20
12.3294164018
 11
10.0211394538
 21
12.3221247317
  0
LINE
  5
422
100
AcDbEntity
  8
03__ASM_ALL_CURVES
100
AcDbLine
 62
4
  6
CONTINUOUS
 10
10.1004363288
 20
12.2601455671
 11
10.1086394538
 21
12.2492080667
  0
LINE
  5
423
100
AcDbEntity
  8
03__ASM_ALL_CURVES
100
AcDbLine
 62
4
  6
CONTINUOUS
 10
13.5732227889
 20
7.0013018167
 11
13.5659311188
 21
7.0122393167
  0
LINE
  5
424
100
AcDbEntity
  8
03__ASM_ALL_CURVES
100
AcDbLine
 62
4
  6
CONTINUOUS
 10
13.616972787
 20
7.0341143167
 11
13.6242644538
 21
7.0231768167
  0
LINE
  5
425
100
AcDbEntity
  8
03__ASM_ALL_CURVES
100
AcDbLine
 62
4
  6
CONTINUOUS
 10
13.5440561188
 20
7.2692705667
 11
13.5367644538
 21
7.2802080667
  0
LINE
  5
426
100
AcDbEntity
  8
03__ASM_ALL_CURVES
100
AcDbLine
 62
4
  6
CONTINUOUS
 10
13.5440561188
 20
7.3567705667
 11
13.5367644538
 21
7.3677080667
  0
LINE
  5
427
100
AcDbEntity
  8
03__ASM_ALL_CURVES
100
AcDbLine
 62
4
  6
CONTINUOUS
 10
13.616972787
 20
7.2911455667
 11
13.6242644538
 21
7.2802080667
  0
LINE
  5
428
100
AcDbEntity
  8
03__ASM_ALL_CURVES
100
AcDbLine
 62
4
  6
CONTINUOUS
 10
9.4687957038
 20
11.6552080667
 11
9.4578582038
 21
11.6624997336
  0
LINE
  5
429
100
AcDbEntity
  8
03__ASM_ALL_CURVES
100
AcDbLine
 62
4
  6
CONTINUOUS
 10
9.4797332038
 20
11.7062497317
 11
9.4906707038
 21
11.6989580667
  0
LINE
  5
42A
100
AcDbEntity
  8
03__ASM_ALL_CURVES
100
AcDbLine
 62
4
  6
CONTINUOUS
 10
9.4797332038
 20
11.7427080667
 11
9.4906707038
 21
11.7354164018
  0
LINE
  5
42B
100
AcDbEntity
  8
03__ASM_ALL_CURVES
100
AcDbLine
 62
4
  6
CONTINUOUS
 10
9.6437957038
 20
11.6552080667
 11
9.6328582038
 21
11.6624997336
  0
LINE
  5
42C
100
AcDbEntity
  8
03__ASM_ALL_CURVES
100
AcDbLine
 62
4
  6
CONTINUOUS
 10
9.6547332038
 20
11.7135414018
 11
9.6656707038
 21
11.7062497317
  0
LINE
  5
42D
100
AcDbEntity
  8
03__ASM_ALL_CURVES
100
AcDbLine
 62
4
  6
CONTINUOUS
 10
10.1578582038
 20
12.2564997336
 11
10.1469207038
 21
12.2710830667
  0
LINE
  5
42E
100
AcDbEntity
  8
03__ASM_ALL_CURVES
100
AcDbLine
 62
4
  6
CONTINUOUS
 10
10.1578582038
 20
12.3075414018
 11
10.1523894538
 21
12.3148330667
  0
LINE
  5
42F
100
AcDbEntity
  8
03__ASM_ALL_CURVES
100
AcDbLine
 62
4
  6
CONTINUOUS
 10
10.1906707038
 20
12.2929580667
 11
10.2016082038
 21
12.2783747343
  0
LINE
  5
430
100
AcDbEntity
  8
03__ASM_ALL_CURVES
100
AcDbLine
 62
4
  6
CONTINUOUS
 10
10.1906707038
 20
12.3294164018
 11
10.1961394538
 21
12.3221247317
  0
LINE
  5
431
100
AcDbEntity
  8
03__ASM_ALL_CURVES
100
AcDbLine
 62
4
  6
CONTINUOUS
 10
10.2453582038
 20
12.2564997336
 11
10.2344207038
 21
12.2710830667
  0
LINE
  5
432
100
AcDbEntity
  8
03__ASM_ALL_CURVES
100
AcDbLine
 62
4
  6
CONTINUOUS
 10
10.2453582038
 20
12.3075414018
 11
10.2398894538
 21
12.3148330667
  0
LINE
  5
433
100
AcDbEntity
  8
03__ASM_ALL_CURVES
100
AcDbLine
 62
4
  6
CONTINUOUS
 10
10.2781707038
 20
12.2929580667
 11
10.2891082038
 21
12.2783747343
  0
LINE
  5
434
100
AcDbEntity
  8
03__ASM_ALL_CURVES
100
AcDbLine
 62
4
  6
CONTINUOUS
 10
10.2781707038
 20
12.3294164018
 11
10.2836394538
 21
12.3221247317
  0
LINE
  5
435
100
AcDbEntity
  8
03__ASM_ALL_CURVES
100
AcDbLine
 62
4
  6
CONTINUOUS
 10
10.3437957038
 20
12.3367080667
 11
10.3547332038
 21
12.3221247317
  0
LINE
  5
436
100
AcDbEntity
  8
03__ASM_ALL_CURVES
100
AcDbLine
 62
4
  6
CONTINUOUS
 10
13.616972787
 20
7.3786455667
 11
13.6242644538
 21
7.3677080667
  0
LINE
  5
437
100
AcDbEntity
  8
03__ASM_ALL_CURVES
100
AcDbLine
 62
4
  6
CONTINUOUS
 10
13.5440561188
 20
7.5263018167
 11
13.5367644538
 21
7.5372393167
  0
LINE
  5
438
100
AcDbEntity
  8
03__ASM_ALL_CURVES
100
AcDbLine
 62
4
  6
CONTINUOUS
 10
13.5805144538
 20
7.5263018167
 11
13.5732227889
 21
7.5372393167
  0
LINE
  5
439
100
AcDbEntity
  8
03__ASM_ALL_CURVES
100
AcDbLine
 62
4
  6
CONTINUOUS
 10
13.5659311188
 20
7.5591143167
 11
13.5732227889
 21
7.5481768167
  0
LINE
  5
43A
100
AcDbEntity
  8
03__ASM_ALL_CURVES
100
AcDbLine
 62
4
  6
CONTINUOUS
 10
13.5732227889
 20
7.6138018167
 11
13.5659311188
 21
7.6247393167
  0
LINE
  5
43B
100
AcDbEntity
  8
03__ASM_ALL_CURVES
100
AcDbLine
 62
4
  6
CONTINUOUS
 10
13.616972787
 20
7.5591143167
 11
13.6242644538
 21
7.5481768167
  0
LINE
  5
43C
100
AcDbEntity
  8
03__ASM_ALL_CURVES
100
AcDbLine
 62
4
  6
CONTINUOUS
 10
13.616972787
 20
7.6466143167
 11
13.6242644538
 21
7.6356768167
  0
LINE
  5
43D
100
AcDbEntity
  8
03__ASM_ALL_CURVES
100
AcDbLine
 62
4
  6
CONTINUOUS
 10
10.7940561188
 20
7.6411455667
 11
10.8013477889
 21
7.6466143167
  0
LINE
  5
43E
100
AcDbEntity
  8
03__ASM_ALL_CURVES
100
AcDbLine
 62
4
  6
CONTINUOUS
 10
9.9062957038
 20
11.6552080667
 11
9.8953582038
 21
11.6624997336
  0
LINE
  5
43F
100
AcDbEntity
  8
03__ASM_ALL_CURVES
100
AcDbLine
 62
4
  6
CONTINUOUS
 10
9.9062957038
 20
11.7062497317
 11
9.8953582038
 21
11.7135414018
  0
LINE
  5
440
100
AcDbEntity
  8
03__ASM_ALL_CURVES
100
AcDbLine
 62
4
  6
CONTINUOUS
 10
9.9937957038
 20
11.6552080667
 11
9.9828582038
 21
11.6624997336
  0
LINE
  5
441
100
AcDbEntity
  8
03__ASM_ALL_CURVES
100
AcDbLine
 62
4
  6
CONTINUOUS
 10
9.9172332038
 20
11.7062497317
 11
9.9281707038
 21
11.6989580667
  0
LINE
  5
442
100
AcDbEntity
  8
03__ASM_ALL_CURVES
100
AcDbLine
 62
4
  6
CONTINUOUS
 10
9.9172332038
 20
11.7427080667
 11
9.9281707038
 21
11.7354164018
  0
LINE
  5
443
100
AcDbEntity
  8
03__ASM_ALL_CURVES
100
AcDbLine
 62
4
  6
CONTINUOUS
 10
9.9937957038
 20
11.7062497317
 11
9.9828582038
 21
11.7135414018
  0
LINE
  5
444
100
AcDbEntity
  8
03__ASM_ALL_CURVES
100
AcDbLine
 62
4
  6
CONTINUOUS
 10
10.0047332038
 20
11.7062497317
 11
10.0156707038
 21
11.6989580667
  0
LINE
  5
445
100
AcDbEntity
  8
03__ASM_ALL_CURVES
100
AcDbLine
 62
4
  6
CONTINUOUS
 10
10.0047332038
 20
11.7427080667
 11
10.0156707038
 21
11.7354164018
  0
LINE
  5
446
100
AcDbEntity
  8
03__ASM_ALL_CURVES
100
AcDbLine
 62
4
  6
CONTINUOUS
 10
10.1687957038
 20
11.6552080667
 11
10.1578582038
 21
11.6624997336
  0
LINE
  5
447
100
AcDbEntity
  8
03__ASM_ALL_CURVES
100
AcDbLine
 62
4
  6
CONTINUOUS
 10
10.1687957038
 20
11.7062497317
 11
10.1578582038
 21
11.7135414018
  0
LINE
  5
448
100
AcDbEntity
  8
03__ASM_ALL_CURVES
100
AcDbLine
 62
4
  6
CONTINUOUS
 10
10.1797332038
 20
11.7062497317
 11
10.1906707038
 21
11.6989580667
  0
LINE
  5
449
100
AcDbEntity
  8
03__ASM_ALL_CURVES
100
AcDbLine
 62
4
  6
CONTINUOUS
 10
10.2617644538
 20
11.6552080667
 11
10.2508269538
 21
11.6624997336
  0
LINE
  5
44A
100
AcDbEntity
  8
03__ASM_ALL_CURVES
100
AcDbLine
 62
4
  6
CONTINUOUS
 10
10.1797332038
 20
11.7427080667
 11
10.1906707038
 21
11.7354164018
  0
LINE
  5
44B
100
AcDbEntity
  8
03__ASM_ALL_CURVES
100
AcDbLine
 62
4
  6
CONTINUOUS
 10
13.5805144538
 20
7.2638018167
 11
13.5732227889
 21
7.2802080667
  0
LINE
  5
44C
100
AcDbEntity
  8
0
100
AcDbLine
 62
7
  6
CONTINUOUS
 10
12.5179984198
 20
11.7709738915
 11
12.5179984198
 21
12.2886156427
  0
LINE
  5
44D
100
AcDbEntity
  8
0
100
AcDbLine
 62
7
  6
CONTINUOUS
 10
12.5270144538
 20
11.6989580667
 11
12.5270144538
 21
11.7619580667
  0
LINE
  5
44E
100
AcDbEntity
  8
03__ASM_ALL_CURVES
100
AcDbLine
 62
4
  6
CONTINUOUS
 10
12.5367644538
 20
7.0395830667
 11
12.5367644538
 21
7.0067705667
  0
LINE
  5
44F
100
AcDbEntity
  8
03__ASM_ALL_CURVES
100
AcDbLine
 62
4
  6
CONTINUOUS
 10
12.5367644538
 20
6.9520830667
 11
12.5367644538
 21
6.9083330667
  0
LINE
  5
450
100
AcDbEntity
  8
0
100
AcDbLine
 62
7
  6
CONTINUOUS
 10
12.5476122062
 20
11.8224580667
 11
12.5476122062
 21
12.2588944008
  0
LINE
  5
451
100
AcDbEntity
  8
03__ASM_ALL_CURVES
100
AcDbLine
 62
4
  6
CONTINUOUS
 10
12.5659311188
 20
7.0122393167
 11
12.5659311188
 21
7.0231768167
  0
LINE
  5
452
100
AcDbEntity
  8
03__ASM_ALL_CURVES
100
AcDbLine
 62
4
  6
CONTINUOUS
 10
12.5805144538
 20
8.1114580667
 11
12.5805144538
 21
7.8489580667
  0
LINE
  5
453
100
AcDbEntity
  8
03__ASM_ALL_CURVES
100
AcDbLine
 62
4
  6
CONTINUOUS
 10
12.6023894538
 20
7.2583330667
 11
12.6023894538
 21
7.3075518167
  0
LINE
  5
454
100
AcDbEntity
  8
03__ASM_ALL_CURVES
100
AcDbLine
 62
4
  6
CONTINUOUS
 10
12.6023894538
 20
7.3458330667
 11
12.6023894538
 21
7.3950518167
  0
LINE
  5
455
100
AcDbEntity
  8
03__ASM_ALL_CURVES
100
AcDbLine
 62
4
  6
CONTINUOUS
 10
12.6023894538
 20
7.5208330667
 11
12.6023894538
 21
7.5700518167
  0
LINE
  5
456
100
AcDbEntity
  8
03__ASM_ALL_CURVES
100
AcDbLine
 62
4
  6
CONTINUOUS
 10
12.6023894538
 20
7.6083330667
 11
12.6023894538
 21
7.6575518167
  0
LINE
  5
457
100
AcDbEntity
  8
03__ASM_ALL_CURVES
100
AcDbLine
 62
4
  6
CONTINUOUS
 10
12.6242644538
 20
7.4770830667
 11
12.6242644538
 21
7.4688799417
  0
LINE
  5
458
100
AcDbEntity
  8
03__ASM_ALL_CURVES
100
AcDbLine
 62
4
  6
CONTINUOUS
 10
12.6242644538
 20
7.0231768167
 11
12.6242644538
 21
7.0122393167
  0
LINE
  5
459
100
AcDbEntity
  8
03__ASM_ALL_CURVES
100
AcDbLine
 62
4
  6
CONTINUOUS
 10
12.6242644538
 20
6.8645830667
 11
12.6242644538
 21
6.8563799417
  0
LINE
  5
45A
100
AcDbEntity
  8
03__ASM_ALL_CURVES
100
AcDbLine
 62
4
  6
CONTINUOUS
 10
10.866972787
 20
7.6192705667
 11
10.8596811201
 21
7.6138018167
  0
LINE
  5
45B
100
AcDbEntity
  8
03__ASM_ALL_CURVES
100
AcDbLine
 62
4
  6
CONTINUOUS
 10
9.4742644538
 20
12.2492080667
 11
9.4633269538
 21
12.2564997336
  0
LINE
  5
45C
100
AcDbEntity
  8
03__ASM_ALL_CURVES
100
AcDbLine
 62
4
  6
CONTINUOUS
 10
10.2617644538
 20
11.7427080667
 11
10.2727019538
 21
11.7354164018
  0
LINE
  5
45D
100
AcDbEntity
  8
03__ASM_ALL_CURVES
100
AcDbLine
 62
4
  6
CONTINUOUS
 10
9.5617644538
 20
12.2492080667
 11
9.5508269538
 21
12.2564997336
  0
LINE
  5
45E
100
AcDbEntity
  8
03__ASM_ALL_CURVES
100
AcDbLine
 62
4
  6
CONTINUOUS
 10
9.4742644538
 20
12.3367080667
 11
9.4852019538
 21
12.3294164018
  0
LINE
  5
45F
100
AcDbEntity
  8
03__ASM_ALL_CURVES
100
AcDbLine
 62
4
  6
CONTINUOUS
 10
9.5617644538
 20
12.3367080667
 11
9.5727019538
 21
12.3294164018
  0
LINE
  5
460
100
AcDbEntity
  8
03__ASM_ALL_CURVES
100
AcDbLine
 62
4
  6
CONTINUOUS
 10
13.5805144538
 20
7.3841143167
 11
13.5878061214
 21
7.3677080667
  0
LINE
  5
461
100
AcDbEntity
  8
0
100
AcDbLine
 62
7
  6
CONTINUOUS
 10
12.9259006675
 20
11.8224580667
 11
12.9259006675
 21
12.2588944008
  0
LINE
  5
462
100
AcDbEntity
  8
0
100
AcDbLine
 62
7
  6
CONTINUOUS
 10
12.9851282402
 20
11.8224580667
 11
12.9851282402
 21
12.2588944008
  0
LINE
  5
463
100
AcDbEntity
  8
03__ASM_ALL_CURVES
100
AcDbLine
 62
4
  6
CONTINUOUS
 10
10.8013477889
 20
7.6466143167
 11
10.8159311188
 21
7.6520830667
  0
LINE
  5
464
100
AcDbEntity
  8
03__ASM_ALL_CURVES
100
AcDbLine
 62
4
  6
CONTINUOUS
 10
10.8596811201
 20
7.6138018167
 11
10.8450977863
 21
7.6083330667
  0
LINE
  5
465
100
AcDbEntity
  8
03__ASM_ALL_CURVES
100
AcDbLine
 62
4
  6
CONTINUOUS
 10
10.2617644538
 20
11.6916663992
 11
10.2453582038
 21
11.6989580667
  0
LINE
  5
466
100
AcDbEntity
  8
03__ASM_ALL_CURVES
100
AcDbLine
 62
4
  6
CONTINUOUS
 10
9.9117644538
 20
12.2492080667
 11
9.9008269538
 21
12.2564997336
  0
LINE
  5
467
100
AcDbEntity
  8
03__ASM_ALL_CURVES
100
AcDbLine
 62
4
  6
CONTINUOUS
 10
9.9937957038
 20
12.2492080667
 11
9.9828582038
 21
12.2564997336
  0
LINE
  5
468
100
AcDbEntity
  8
03__ASM_ALL_CURVES
100
AcDbLine
 62
4
  6
CONTINUOUS
 10
9.9117644538
 20
12.3367080667
 11
9.9227019538
 21
12.3294164018
  0
LINE
  5
469
100
AcDbEntity
  8
03__ASM_ALL_CURVES
100
AcDbLine
 62
4
  6
CONTINUOUS
 10
10.0047332038
 20
12.3002497317
 11
10.0156707038
 21
12.2929580667
  0
LINE
  5
46A
100
AcDbEntity
  8
03__ASM_ALL_CURVES
100
AcDbLine
 62
4
  6
CONTINUOUS
 10
10.0047332038
 20
12.3367080667
 11
10.0156707038
 21
12.3294164018
  0
LINE
  5
46B
100
AcDbEntity
  8
03__ASM_ALL_CURVES
100
AcDbLine
 62
4
  6
CONTINUOUS
 10
10.1687957038
 20
12.2492080667
 11
10.1578582038
 21
12.2564997336
  0
LINE
  5
46C
100
AcDbEntity
  8
03__ASM_ALL_CURVES
100
AcDbLine
 62
4
  6
CONTINUOUS
 10
10.1687957038
 20
12.3002497317
 11
10.1578582038
 21
12.3075414018
  0
LINE
  5
46D
100
AcDbEntity
  8
03__ASM_ALL_CURVES
100
AcDbLine
 62
4
  6
CONTINUOUS
 10
10.2562957038
 20
12.2492080667
 11
10.2453582038
 21
12.2564997336
  0
LINE
  5
46E
100
AcDbEntity
  8
03__ASM_ALL_CURVES
100
AcDbLine
 62
4
  6
CONTINUOUS
 10
10.1797332038
 20
12.3002497317
 11
10.1906707038
 21
12.2929580667
  0
LINE
  5
46F
100
AcDbEntity
  8
03__ASM_ALL_CURVES
100
AcDbLine
 62
4
  6
CONTINUOUS
 10
10.1797332038
 20
12.3367080667
 11
10.1906707038
 21
12.3294164018
  0
LINE
  5
470
100
AcDbEntity
  8
03__ASM_ALL_CURVES
100
AcDbLine
 62
4
  6
CONTINUOUS
 10
9.5617644538
 20
12.2856663992
 11
9.5453582038
 21
12.2929580667
  0
LINE
  5
471
100
AcDbEntity
  8
03__ASM_ALL_CURVES
100
AcDbLine
 62
4
  6
CONTINUOUS
 10
10.2562957038
 20
12.3002497317
 11
10.2453582038
 21
12.3075414018
  0
LINE
  5
472
100
AcDbEntity
  8
03__ASM_ALL_CURVES
100
AcDbLine
 62
4
  6
CONTINUOUS
 10
10.2672332038
 20
12.3002497317
 11
10.2781707038
 21
12.2929580667
  0
LINE
  5
473
100
AcDbEntity
  8
03__ASM_ALL_CURVES
100
AcDbLine
 62
4
  6
CONTINUOUS
 10
10.2672332038
 20
12.3367080667
 11
10.2781707038
 21
12.3294164018
  0
LINE
  5
474
100
AcDbEntity
  8
0
100
AcDbLine
 62
7
  6
CONTINUOUS
 10
13.3634167015
 20
11.8224580667
 11
13.3634167015
 21
12.2588944008
  0
LINE
  5
475
100
AcDbEntity
  8
0
100
AcDbLine
 62
7
  6
CONTINUOUS
 10
13.3840144538
 20
11.6989580667
 11
13.3840144538
 21
11.7619580667
  0
LINE
  5
476
100
AcDbEntity
  8
0
100
AcDbLine
 62
7
  6
CONTINUOUS
 10
13.3930304878
 20
11.7709738915
 11
13.3930304878
 21
12.2886156428
  0
LINE
  5
477
100
AcDbEntity
  8
03__ASM_ALL_CURVES
100
AcDbLine
 62
4
  6
CONTINUOUS
 10
12.5367644538
 20
7.7122393167
 11
12.5513477889
 21
7.7231768167
  0
LINE
  5
478
100
AcDbEntity
  8
03__ASM_ALL_CURVES
100
AcDbLine
 62
4
  6
CONTINUOUS
 10
10.1797332038
 20
11.6552080667
 11
10.1687957038
 21
11.6552080667
  0
LINE
  5
479
100
AcDbEntity
  8
03__ASM_ALL_CURVES
100
AcDbLine
 62
4
  6
CONTINUOUS
 10
10.1086394538
 20
11.6552080667
 11
10.1004363288
 21
11.6552080667
  0
LINE
  5
47A
100
AcDbEntity
  8
03__ASM_ALL_CURVES
100
AcDbLine
 62
4
  6
CONTINUOUS
 10
10.0047332038
 20
11.6552080667
 11
9.9937957038
 21
11.6552080667
  0
LINE
  5
47B
100
AcDbEntity
  8
03__ASM_ALL_CURVES
100
AcDbLine
 62
4
  6
CONTINUOUS
 10
9.9172332038
 20
11.6552080667
 11
9.9062957038
 21
11.6552080667
  0
LINE
  5
47C
100
AcDbEntity
  8
03__ASM_ALL_CURVES
100
AcDbLine
 62
4
  6
CONTINUOUS
 10
9.6547332038
 20
11.6552080667
 11
9.6437957038
 21
11.6552080667
  0
LINE
  5
47D
100
AcDbEntity
  8
03__ASM_ALL_CURVES
100
AcDbLine
 62
4
  6
CONTINUOUS
 10
9.5836394538
 20
11.6552080667
 11
9.5754363288
 21
11.6552080667
  0
LINE
  5
47E
100
AcDbEntity
  8
03__ASM_ALL_CURVES
100
AcDbLine
 62
4
  6
CONTINUOUS
 10
9.4797332038
 20
11.6552080667
 11
9.4687957038
 21
11.6552080667
  0
LINE
  5
47F
100
AcDbEntity
  8
0
100
AcDbLine
 62
7
  6
CONTINUOUS
 10
13.5805144538
 20
11.6989580667
 11
10.8305144538
 21
11.6989580667
  0
LINE
  5
480
100
AcDbEntity
  8
03__ASM_ALL_CURVES
100
AcDbLine
 62
4
  6
CONTINUOUS
 10
10.7430144538
 20
11.6989580667
 11
10.4805144538
 21
11.6989580667
  0
LINE
  5
481
100
AcDbEntity
  8
03__ASM_ALL_CURVES
100
AcDbLine
 62
4
  6
CONTINUOUS
 10
9.4687957038
 20
11.7062497317
 11
9.4797332038
 21
11.7062497317
  0
LINE
  5
482
100
AcDbEntity
  8
03__ASM_ALL_CURVES
100
AcDbLine
 62
4
  6
CONTINUOUS
 10
9.9062957038
 20
11.7062497317
 11
9.9172332038
 21
11.7062497317
  0
LINE
  5
483
100
AcDbEntity
  8
03__ASM_ALL_CURVES
100
AcDbLine
 62
4
  6
CONTINUOUS
 10
9.9937957038
 20
11.7062497317
 11
10.0047332038
 21
11.7062497317
  0
LINE
  5
484
100
AcDbEntity
  8
03__ASM_ALL_CURVES
100
AcDbLine
 62
4
  6
CONTINUOUS
 10
10.1687957038
 20
11.7062497317
 11
10.1797332038
 21
11.7062497317
  0
LINE
  5
485
100
AcDbEntity
  8
03__ASM_ALL_CURVES
100
AcDbLine
 62
4
  6
CONTINUOUS
 10
9.6437957038
 20
11.7135414018
 11
9.6547332038
 21
11.7135414018
  0
LINE
  5
486
100
AcDbEntity
  8
03__ASM_ALL_CURVES
100
AcDbLine
 62
4
  6
CONTINUOUS
 10
9.6711394538
 20
11.7427080667
 11
9.6383269538
 21
11.7427080667
  0
LINE
  5
487
100
AcDbEntity
  8
03__ASM_ALL_CURVES
100
AcDbLine
 62
4
  6
CONTINUOUS
 10
9.4687957038
 20
11.7427080667
 11
9.4797332038
 21
11.7427080667
  0
LINE
  5
488
100
AcDbEntity
  8
03__ASM_ALL_CURVES
100
AcDbLine
 62
4
  6
CONTINUOUS
 10
9.9062957038
 20
11.7427080667
 11
9.9172332038
 21
11.7427080667
  0
LINE
  5
489
100
AcDbEntity
  8
03__ASM_ALL_CURVES
100
AcDbLine
 62
4
  6
CONTINUOUS
 10
9.9937957038
 20
11.7427080667
 11
10.0047332038
 21
11.7427080667
  0
LINE
  5
48A
100
AcDbEntity
  8
03__ASM_ALL_CURVES
100
AcDbLine
 62
4
  6
CONTINUOUS
 10
10.1687957038
 20
11.7427080667
 11
10.1797332038
 21
11.7427080667
  0
LINE
  5
48B
100
AcDbEntity
  8
0
100
AcDbLine
 62
7
  6
CONTINUOUS
 10
12.5270144538
 20
11.7619580667
 11
13.3840144538
 21
11.7619580667
  0
LINE
  5
48C
100
AcDbEntity
  8
03__ASM_ALL_CURVES
100
AcDbLine
 62
4
  6
CONTINUOUS
 10
13.5367644538
 20
7.6520830667
 11
13.5367644538
 21
7.6192705667
  0
LINE
  5
48D
100
AcDbEntity
  8
03__ASM_ALL_CURVES
100
AcDbLine
 62
4
  6
CONTINUOUS
 10
13.5367644538
 20
7.0395830667
 11
13.5367644538
 21
7.0067705667
  0
LINE
  5
48E
100
AcDbEntity
  8
03__ASM_ALL_CURVES
100
AcDbLine
 62
4
  6
CONTINUOUS
 10
13.5367644538
 20
6.9520830667
 11
13.5367644538
 21
6.9083330667
  0
LINE
  5
48F
100
AcDbEntity
  8
03__ASM_ALL_CURVES
100
AcDbLine
 62
4
  6
CONTINUOUS
 10
13.5367644538
 20
6.7497393167
 11
13.5367644538
 21
6.7606768167
  0
LINE
  5
490
100
AcDbEntity
  8
03__ASM_ALL_CURVES
100
AcDbLine
 62
4
  6
CONTINUOUS
 10
13.5367644538
 20
7.5372393167
 11
13.5367644538
 21
7.5481768167
  0
LINE
  5
491
100
AcDbEntity
  8
03__ASM_ALL_CURVES
100
AcDbLine
 62
4
  6
CONTINUOUS
 10
13.5659311188
 20
7.0122393167
 11
13.5659311188
 21
7.0231768167
  0
LINE
  5
492
100
AcDbEntity
  8
03__ASM_ALL_CURVES
100
AcDbLine
 62
4
  6
CONTINUOUS
 10
13.5659311188
 20
7.6247393167
 11
13.5659311188
 21
7.6356768167
  0
LINE
  5
493
100
AcDbEntity
  8
03__ASM_ALL_CURVES
100
AcDbLine
 62
4
  6
CONTINUOUS
 10
13.5732227889
 20
7.5372393167
 11
13.5732227889
 21
7.5481768167
  0
LINE
  5
494
100
AcDbEntity
  8
03__ASM_ALL_CURVES
100
AcDbLine
 62
4
  6
CONTINUOUS
 10
13.5805144538
 20
8.1114580667
 11
13.5805144538
 21
7.8489580667
  0
LINE
  5
495
100
AcDbEntity
  8
0
100
AcDbLine
 62
7
  6
CONTINUOUS
 10
13.5805144538
 20
8.1989580667
 11
13.5805144538
 21
11.6989580667
  0
LINE
  5
496
100
AcDbEntity
  8
03__ASM_ALL_CURVES
100
AcDbLine
 62
4
  6
CONTINUOUS
 10
13.6242644538
 20
7.6356768167
 11
13.6242644538
 21
7.6247393167
  0
LINE
  5
497
100
AcDbEntity
  8
03__ASM_ALL_CURVES
100
AcDbLine
 62
4
  6
CONTINUOUS
 10
13.6242644538
 20
7.5481768167
 11
13.6242644538
 21
7.5372393167
  0
LINE
  5
498
100
AcDbEntity
  8
03__ASM_ALL_CURVES
100
AcDbLine
 62
4
  6
CONTINUOUS
 10
13.6242644538
 20
7.4770830667
 11
13.6242644538
 21
7.4688799417
  0
LINE
  5
499
100
AcDbEntity
  8
03__ASM_ALL_CURVES
100
AcDbLine
 62
4
  6
CONTINUOUS
 10
13.6242644538
 20
7.0231768167
 11
13.6242644538
 21
7.0122393167
  0
LINE
  5
49A
100
AcDbEntity
  8
03__ASM_ALL_CURVES
100
AcDbLine
 62
4
  6
CONTINUOUS
 10
13.6242644538
 20
6.8645830667
 11
13.6242644538
 21
6.8563799417
  0
LINE
  5
49B
100
AcDbEntity
  8
03__ASM_ALL_CURVES
100
AcDbLine
 62
4
  6
CONTINUOUS
 10
13.6242644538
 20
6.7333330667
 11
13.6242644538
 21
6.7770830667
  0
LINE
  5
49C
100
AcDbEntity
  8
03__ASM_ALL_CURVES
100
AcDbLine
 62
4
  6
CONTINUOUS
 10
12.6133269535
 20
7.4688799417
 11
12.6242644538
 21
7.4770830667
  0
LINE
  5
49D
100
AcDbEntity
  8
0
100
AcDbLine
 62
7
  6
CONTINUOUS
 10
13.3930304878
 20
11.8224580667
 11
13.3634167015
 21
11.8224580667
  0
LINE
  5
49E
100
AcDbEntity
  8
0
100
AcDbLine
 62
7
  6
CONTINUOUS
 10
12.5179984198
 20
11.8224580667
 11
12.5476122062
 21
11.8224580667
  0
LINE
  5
49F
100
AcDbEntity
  8
0
100
AcDbLine
 62
7
  6
CONTINUOUS
 10
12.9259006675
 20
11.8224580667
 11
12.9851282402
 21
11.8224580667
  0
LINE
  5
4A0
100
AcDbEntity
  8
0
100
AcDbLine
 62
7
  6
CONTINUOUS
 10
12.5270144538
 20
11.7619580667
 11
12.5177009827
 21
11.7712715379
  0
LINE
  5
4A1
100
AcDbEntity
  8
03__ASM_ALL_CURVES
100
AcDbLine
 62
4
  6
CONTINUOUS
 10
12.5659311188
 20
7.0231768167
 11
12.5732227889
 21
7.0341143167
  0
LINE
  5
4A2
100
AcDbEntity
  8
03__ASM_ALL_CURVES
100
AcDbLine
 62
4
  6
CONTINUOUS
 10
12.6242644538
 20
7.0122393167
 11
12.616972787
 21
7.0013018167
  0
LINE
  5
4A3
100
AcDbEntity
  8
03__ASM_ALL_CURVES
100
AcDbLine
 62
4
  6
CONTINUOUS
 10
12.6096811201
 20
7.1872393167
 11
12.6242644538
 21
7.1981768167
  0
LINE
  5
4A4
100
AcDbEntity
  8
03__ASM_ALL_CURVES
100
AcDbLine
 62
4
  6
CONTINUOUS
 10
13.5805144538
 20
7.6520830667
 11
13.5950977863
 21
7.6575518167
  0
LINE
  5
4A5
100
AcDbEntity
  8
03__ASM_ALL_CURVES
100
AcDbLine
 62
4
  6
CONTINUOUS
 10
10.2672332038
 20
12.2492080667
 11
10.2562957038
 21
12.2492080667
  0
LINE
  5
4A6
100
AcDbEntity
  8
03__ASM_ALL_CURVES
100
AcDbLine
 62
4
  6
CONTINUOUS
 10
10.1797332038
 20
12.2492080667
 11
10.1687957038
 21
12.2492080667
  0
LINE
  5
4A7
100
AcDbEntity
  8
03__ASM_ALL_CURVES
100
AcDbLine
 62
4
  6
CONTINUOUS
 10
10.1086394538
 20
12.2492080667
 11
10.1004363288
 21
12.2492080667
  0
LINE
  5
4A8
100
AcDbEntity
  8
03__ASM_ALL_CURVES
100
AcDbLine
 62
4
  6
CONTINUOUS
 10
10.0047332038
 20
12.2492080667
 11
9.9937957038
 21
12.2492080667
  0
LINE
  5
4A9
100
AcDbEntity
  8
03__ASM_ALL_CURVES
100
AcDbLine
 62
4
  6
CONTINUOUS
 10
9.4086394538
 20
12.2492080667
 11
9.4004363288
 21
12.2492080667
  0
LINE
  5
4AA
100
AcDbEntity
  8
0
100
AcDbLine
 62
7
  6
CONTINUOUS
 10
12.5179984198
 20
12.2588944008
 11
12.5476122062
 21
12.2588944008
  0
LINE
  5
4AB
100
AcDbEntity
  8
0
100
AcDbLine
 62
7
  6
CONTINUOUS
 10
12.9259006675
 20
12.2588944008
 11
12.9851282402
 21
12.2588944008
  0
LINE
  5
4AC
100
AcDbEntity
  8
0
100
AcDbLine
 62
7
  6
CONTINUOUS
 10
13.3634167015
 20
12.2588944008
 11
13.3930304878
 21
12.2588944008
  0
LINE
  5
4AD
100
AcDbEntity
  8
03__ASM_ALL_CURVES
100
AcDbLine
 62
4
  6
CONTINUOUS
 10
12.5732227889
 20
7.0341143167
 11
12.5805144538
 21
7.0395830667
  0
LINE
  5
4AE
100
AcDbEntity
  8
03__ASM_ALL_CURVES
100
AcDbLine
 62
4
  6
CONTINUOUS
 10
13.5367644538
 20
7.7122393167
 11
13.5513477889
 21
7.7231768167
  0
LINE
  5
4AF
100
AcDbEntity
  8
03__ASM_ALL_CURVES
100
AcDbLine
 62
4
  6
CONTINUOUS
 10
12.616972787
 20
7.0013018167
 11
12.6096811201
 21
6.9958330667
  0
LINE
  5
4B0
100
AcDbEntity
  8
03__ASM_ALL_CURVES
100
AcDbLine
 62
4
  6
CONTINUOUS
 10
13.5732227889
 20
7.6466143167
 11
13.5805144538
 21
7.6520830667
  0
LINE
  5
4B1
100
AcDbEntity
  8
03__ASM_ALL_CURVES
100
AcDbLine
 62
4
  6
CONTINUOUS
 10
13.616972787
 20
7.6138018167
 11
13.6096811201
 21
7.6083330667
  0
LINE
  5
4B2
100
AcDbEntity
  8
03__ASM_ALL_CURVES
100
AcDbLine
 62
4
  6
CONTINUOUS
 10
13.5440561188
 20
7.5591143167
 11
13.5513477889
 21
7.5645830667
  0
LINE
  5
4B3
100
AcDbEntity
  8
03__ASM_ALL_CURVES
100
AcDbLine
 62
4
  6
CONTINUOUS
 10
12.6133269535
 20
6.8563799417
 11
12.6242644538
 21
6.8645830667
  0
LINE
  5
4B4
100
AcDbEntity
  8
03__ASM_ALL_CURVES
100
AcDbLine
 62
4
  6
CONTINUOUS
 10
12.5805144538
 20
7.0395830667
 11
12.5950977863
 21
7.0450518167
  0
LINE
  5
4B5
100
AcDbEntity
  8
03__ASM_ALL_CURVES
100
AcDbLine
 62
4
  6
CONTINUOUS
 10
13.5513477889
 20
7.3841143167
 11
13.5659311188
 21
7.3895830667
  0
LINE
  5
4B6
100
AcDbEntity
  8
03__ASM_ALL_CURVES
100
AcDbLine
 62
4
  6
CONTINUOUS
 10
13.5805144538
 20
7.3513018167
 11
13.5659311188
 21
7.3458330667
  0
LINE
  5
4B7
100
AcDbEntity
  8
03__ASM_ALL_CURVES
100
AcDbLine
 62
4
  6
CONTINUOUS
 10
13.5805144538
 20
7.2966143167
 11
13.5950977863
 21
7.3020830667
  0
LINE
  5
4B8
100
AcDbEntity
  8
03__ASM_ALL_CURVES
100
AcDbLine
 62
4
  6
CONTINUOUS
 10
13.6096811201
 20
7.2638018167
 11
13.5950977863
 21
7.2583330667
  0
LINE
  5
4B9
100
AcDbEntity
  8
03__ASM_ALL_CURVES
100
AcDbLine
 62
4
  6
CONTINUOUS
 10
9.2773894538
 20
12.2710830667
 11
9.3266082038
 21
12.2710830667
  0
LINE
  5
4BA
100
AcDbEntity
  8
03__ASM_ALL_CURVES
100
AcDbLine
 62
4
  6
CONTINUOUS
 10
10.7430144538
 20
12.2929580667
 11
10.4805144538
 21
12.2929580667
  0
LINE
  5
4BB
100
AcDbEntity
  8
0
100
AcDbLine
 62
7
  6
CONTINUOUS
 10
12.5255158204
 20
12.2929580667
 11
13.3855130873
 21
12.2929580667
  0
LINE
  5
4BC
100
AcDbEntity
  8
03__ASM_ALL_CURVES
100
AcDbLine
 62
4
  6
CONTINUOUS
 10
9.9937957038
 20
12.3002497317
 11
10.0047332038
 21
12.3002497317
  0
LINE
  5
4BD
100
AcDbEntity
  8
03__ASM_ALL_CURVES
100
AcDbLine
 62
4
  6
CONTINUOUS
 10
10.1687957038
 20
12.3002497317
 11
10.1797332038
 21
12.3002497317
  0
LINE
  5
4BE
100
AcDbEntity
  8
03__ASM_ALL_CURVES
100
AcDbLine
 62
4
  6
CONTINUOUS
 10
10.2562957038
 20
12.3002497317
 11
10.2672332038
 21
12.3002497317
  0
LINE
  5
4BF
100
AcDbEntity
  8
03__ASM_ALL_CURVES
100
AcDbLine
 62
4
  6
CONTINUOUS
 10
9.9937957038
 20
12.3367080667
 11
10.0047332038
 21
12.3367080667
  0
LINE
  5
4C0
100
AcDbEntity
  8
03__ASM_ALL_CURVES
100
AcDbLine
 62
4
  6
CONTINUOUS
 10
10.1687957038
 20
12.3367080667
 11
10.1797332038
 21
12.3367080667
  0
LINE
  5
4C1
100
AcDbEntity
  8
03__ASM_ALL_CURVES
100
AcDbLine
 62
4
  6
CONTINUOUS
 10
10.2562957038
 20
12.3367080667
 11
10.2672332038
 21
12.3367080667
  0
LINE
  5
4C2
100
AcDbEntity
  8
03__ASM_ALL_CURVES
100
AcDbLine
 62
4
  6
CONTINUOUS
 10
13.5878061214
 20
7.3677080667
 11
13.5805144538
 21
7.3513018167
  0
LINE
  5
4C3
100
AcDbEntity
  8
03__ASM_ALL_CURVES
100
AcDbLine
 62
4
  6
CONTINUOUS
 10
13.5732227889
 20
7.2802080667
 11
13.5805144538
 21
7.2966143167
  0
LINE
  5
4C4
100
AcDbEntity
  8
03__ASM_ALL_CURVES
100
AcDbLine
 62
4
  6
CONTINUOUS
 10
13.5659311188
 20
7.6356768167
 11
13.5732227889
 21
7.6466143167
  0
LINE
  5
4C5
100
AcDbEntity
  8
03__ASM_ALL_CURVES
100
AcDbLine
 62
4
  6
CONTINUOUS
 10
13.5367644538
 20
7.5481768167
 11
13.5440561188
 21
7.5591143167
  0
LINE
  5
4C6
100
AcDbEntity
  8
03__ASM_ALL_CURVES
100
AcDbLine
 62
4
  6
CONTINUOUS
 10
13.6242644538
 20
7.6247393167
 11
13.616972787
 21
7.6138018167
  0
LINE
  5
4C7
100
AcDbEntity
  8
03__ASM_ALL_CURVES
100
AcDbLine
 62
4
  6
CONTINUOUS
 10
13.5732227889
 20
7.5481768167
 11
13.5805144538
 21
7.5591143167
  0
LINE
  5
4C8
100
AcDbEntity
  8
03__ASM_ALL_CURVES
100
AcDbLine
 62
4
  6
CONTINUOUS
 10
13.5732227889
 20
7.5372393167
 11
13.5659311188
 21
7.5263018167
  0
LINE
  5
4C9
100
AcDbEntity
  8
03__ASM_ALL_CURVES
100
AcDbLine
 62
4
  6
CONTINUOUS
 10
13.6242644538
 20
7.5372393167
 11
13.616972787
 21
7.5263018167
  0
LINE
  5
4CA
100
AcDbEntity
  8
03__ASM_ALL_CURVES
100
AcDbLine
 62
4
  6
CONTINUOUS
 10
13.5367644538
 20
7.3677080667
 11
13.5440561188
 21
7.3786455667
  0
LINE
  5
4CB
100
AcDbEntity
  8
03__ASM_ALL_CURVES
100
AcDbLine
 62
4
  6
CONTINUOUS
 10
13.5367644538
 20
7.2802080667
 11
13.5440561188
 21
7.2911455667
  0
LINE
  5
4CC
100
AcDbEntity
  8
03__ASM_ALL_CURVES
100
AcDbLine
 62
4
  6
CONTINUOUS
 10
13.6242644538
 20
7.3677080667
 11
13.616972787
 21
7.3567705667
  0
LINE
  5
4CD
100
AcDbEntity
  8
03__ASM_ALL_CURVES
100
AcDbLine
 62
4
  6
CONTINUOUS
 10
13.5805144538
 20
7.5591143167
 11
13.5950977863
 21
7.5700518167
  0
LINE
  5
4CE
100
AcDbEntity
  8
03__ASM_ALL_CURVES
100
AcDbLine
 62
4
  6
CONTINUOUS
 10
13.5659311188
 20
7.5263018167
 11
13.5586394538
 21
7.5208330667
  0
LINE
  5
4CF
100
AcDbEntity
  8
03__ASM_ALL_CURVES
100
AcDbLine
 62
4
  6
CONTINUOUS
 10
13.616972787
 20
7.5263018167
 11
13.6023894538
 21
7.5153643167
  0
LINE
  5
4D0
100
AcDbEntity
  8
03__ASM_ALL_CURVES
100
AcDbLine
 62
4
  6
CONTINUOUS
 10
13.6133269535
 20
7.4688799417
 11
13.6242644538
 21
7.4770830667
  0
LINE
  5
4D1
100
AcDbEntity
  8
03__ASM_ALL_CURVES
100
AcDbLine
 62
4
  6
CONTINUOUS
 10
13.5440561188
 20
7.3786455667
 11
13.5513477889
 21
7.3841143167
  0
LINE
  5
4D2
100
AcDbEntity
  8
03__ASM_ALL_CURVES
100
AcDbLine
 62
4
  6
CONTINUOUS
 10
13.616972787
 20
7.3567705667
 11
13.6096811201
 21
7.3513018167
  0
LINE
  5
4D3
100
AcDbEntity
  8
03__ASM_ALL_CURVES
100
AcDbLine
 62
4
  6
CONTINUOUS
 10
13.5440561188
 20
7.2911455667
 11
13.5513477889
 21
7.2966143167
  0
LINE
  5
4D4
100
AcDbEntity
  8
03__ASM_ALL_CURVES
100
AcDbLine
 62
4
  6
CONTINUOUS
 10
13.5805144538
 20
7.0395830667
 11
13.5950977863
 21
7.0450518167
  0
LINE
  5
4D5
100
AcDbEntity
  8
03__ASM_ALL_CURVES
100
AcDbLine
 62
4
  6
CONTINUOUS
 10
13.6242644538
 20
7.2802080667
 11
13.616972787
 21
7.2692705667
  0
LINE
  5
4D6
100
AcDbEntity
  8
03__ASM_ALL_CURVES
100
AcDbLine
 62
4
  6
CONTINUOUS
 10
13.5659311188
 20
7.0231768167
 11
13.5732227889
 21
7.0341143167
  0
LINE
  5
4D7
100
AcDbEntity
  8
03__ASM_ALL_CURVES
100
AcDbLine
 62
4
  6
CONTINUOUS
 10
13.6242644538
 20
7.0122393167
 11
13.616972787
 21
7.0013018167
  0
LINE
  5
4D8
100
AcDbEntity
  8
03__ASM_ALL_CURVES
100
AcDbLine
 62
4
  6
CONTINUOUS
 10
13.5367644538
 20
6.7606768167
 11
13.5440561188
 21
6.7716143167
  0
LINE
  5
4D9
100
AcDbEntity
  8
03__ASM_ALL_CURVES
100
AcDbLine
 62
4
  6
CONTINUOUS
 10
13.616972787
 20
7.2692705667
 11
13.6096811201
 21
7.2638018167
  0
LINE
  5
4DA
100
AcDbEntity
  8
03__ASM_ALL_CURVES
100
AcDbLine
 62
4
  6
CONTINUOUS
 10
13.6096811201
 20
7.1872393167
 11
13.6242644538
 21
7.1981768167
  0
LINE
  5
4DB
100
AcDbEntity
  8
03__ASM_ALL_CURVES
100
AcDbLine
 62
4
  6
CONTINUOUS
 10
13.5732227889
 20
7.0341143167
 11
13.5805144538
 21
7.0395830667
  0
LINE
  5
4DC
100
AcDbEntity
  8
03__ASM_ALL_CURVES
100
AcDbLine
 62
4
  6
CONTINUOUS
 10
13.616972787
 20
7.0013018167
 11
13.6096811201
 21
6.9958330667
  0
LINE
  5
4DD
100
AcDbEntity
  8
03__ASM_ALL_CURVES
100
AcDbLine
 62
4
  6
CONTINUOUS
 10
13.6133269535
 20
6.8563799417
 11
13.6242644538
 21
6.8645830667
  0
LINE
  5
4DE
100
AcDbEntity
  8
03__ASM_ALL_CURVES
100
AcDbLine
 62
4
  6
CONTINUOUS
 10
13.5440561188
 20
6.7716143167
 11
13.5513477889
 21
6.7770830667
  0
LINE
  5
4DF
100
AcDbEntity
  8
0
100
AcDbLine
 62
7
  6
CONTINUOUS
 10
13.3934706846
 20
12.2883645347
 11
13.3855144538
 21
12.2929580667
  0
CIRCLE
  5
4E0
100
AcDbEntity
  8
0
100
AcDbCircle
 62
7
  6
CONTINUOUS
 10
12.5805144538
 20
9.6369580305
 40
0.35
  0
CIRCLE
  5
4E1
100
AcDbEntity
  8
0
100
AcDbCircle
 62
7
  6
CONTINUOUS
 10
12.5805144538
 20
9.6369580305
 40
0.281
  0
SPLINE
  5
4E2
100
AcDbEntity
  8
0
100
AcDbSpline
 62
7
  6
CONTINUOUS
 70
0
 71
3
 72
22
 73
18
 74
16
 42
0.0000001
 43
0.0000001
 44
0.0000000001
 12
0.3517854196
 22
-0.1814265373
 32
0.0
 13
0.3517854196
 23
0.1814265373
 33
0.0
 40
0.0
 40
0.0
 40
0.0
 40
0.0
 40
0.0763379923
 40
0.1481658585
 40
0.2164622511
 40
0.2820658671
 40
0.3456824296
 40
0.4079379385
 40
0.4693994116
 40
0.5306005896
 40
0.5920620626
 40
0.6543175713
 40
0.7179341337
 40
0.7835377495
 40
0.8518341416
 40
0.9236620076
 40
1.0
 40
1.0
 40
1.0
 40
1.0
 10
12.9851282402
 20
11.8224580667
 30
0.0
 10
12.994079771
 20
11.8178414875
 30
0.0
 10
13.0116649466
 20
11.8092807197
 30
0.0
 10
13.0379754313
 20
11.7981367376
 30
0.0
 10
13.0635469638
 20
11.7889865816
 30
0.0
 10
13.0885944866
 20
11.7817297988
 30
0.0
 10
13.1132891126
 20
11.7763103173
 30
0.0
 10
13.1377619493
 20
11.772702988
 30
0.0
 10
13.1621148784
 20
11.770899827
 30
0.0
 10
13.1864300638
 20
11.770899827
 30
0.0
 10
13.2107829928
 20
11.772702988
 30
0.0
 10
13.2352558294
 20
11.7763103174
 30
0.0
 10
13.2599504553
 20
11.7817297988
 30
0.0
 10
13.2849979781
 20
11.7889865816
 30
0.0
 10
13.3105695104
 20
11.7981367377
 30
0.0
 10
13.3368799951
 20
11.8092807197
 30
0.0
 10
13.3544651706
 20
11.8178414875
 30
0.0
 10
13.3634167015
 20
11.8224580667
 30
0.0
 11
12.9851282402
 21
11.8224580667
 31
0.0
 11
13.0123127966
 21
11.8092677571
 31
0.0
 11
13.0385059324
 21
11.7982128594
 31
0.0
 11
13.0639692594
 21
11.7891363281
 31
0.0
 11
13.0889183366
 21
11.7819377775
 31
0.0
 11
13.1135182692
 21
11.776562694
 31
0.0
 11
13.1378988231
 21
11.7729854678
 31
0.0
 11
13.1621603354
 21
11.7711975841
 31
0.0
 11
13.1863846067
 21
11.7711975842
 31
0.0
 11
13.210646119
 21
11.7729854679
 31
0.0
 11
13.2350266728
 21
11.776562694
 31
0.0
 11
13.2596266053
 21
11.7819377776
 31
0.0
 11
13.2845756825
 21
11.7891363282
 31
0.0
 11
13.3100390094
 21
11.7982128594
 31
0.0
 11
13.336232145
 21
11.8092677571
 31
0.0
 11
13.3634167015
 21
11.8224580667
 31
0.0
  0
SPLINE
  5
4E3
100
AcDbEntity
  8
0
100
AcDbSpline
 62
7
  6
CONTINUOUS
 70
0
 71
3
 72
21
 73
17
 74
15
 42
0.0000001
 43
0.0000001
 44
0.0000000001
 12
0.3682942784
 22
0.1096622926
 32
0.0
 13
0.3682942784
 23
-0.1096622926
 33
0.0
 40
0.0
 40
0.0
 40
0.0
 40
0.0
 40
0.0752309599
 40
0.1483522748
 40
0.2199806581
 40
0.2906359084
 40
0.3606925725
 40
0.4304186784
 40
0.5000000002
 40
0.5695813221
 40
0.639307428
 40
0.709364092
 40
0.7800193423
 40
0.8516477255
 40
0.9247690401
 40
1.0
 40
1.0
 40
1.0
 40
1.0
 10
12.9851282402
 20
12.2588944008
 30
0.0
 10
12.9943639509
 20
12.2616444007
 30
0.0
 10
13.0126650758
 20
12.2667758314
 30
0.0
 10
13.0400544004
 20
12.2734200736
 30
0.0
 10
13.067103937
 20
12.2788984903
 30
0.0
 10
13.0939679309
 20
12.2832049655
 30
0.0
 10
13.1207521153
 20
12.2863151496
 30
0.0
 10
13.1475131952
 20
12.2881980277
 30
0.0
 10
13.1742724709
 20
12.2888287913
 30
0.0
 10
13.2010317467
 20
12.2881980277
 30
0.0
 10
13.2277928265
 20
12.2863151496
 30
0.0
 10
13.2545770109
 20
12.2832049654
 30
0.0
 10
13.2814410048
 20
12.2788984903
 30
0.0
 10
13.3084905413
 20
12.2734200736
 30
0.0
 10
13.3358798659
 20
12.2667758314
 30
0.0
 10
13.3541809908
 20
12.2616444007
 30
0.0
 10
13.3634167015
 20
12.2588944008
 30
0.0
 11
12.9851282402
 21
12.2588944008
 31
0.0
 11
13.0129690192
 21
12.2666814852
 31
0.0
 11
13.0402797096
 21
12.2732889487
 31
0.0
 11
13.0672599834
 21
12.2787374599
 31
0.0
 11
13.0940707791
 21
12.283021926
 31
0.0
 11
13.1208132365
 21
12.286116873
 31
0.0
 11
13.1475415512
 21
12.2879908518
 31
0.0
 11
13.1742724709
 21
12.2886186825
 31
0.0
 11
13.2010033907
 21
12.2879908518
 31
0.0
 11
13.2277317053
 21
12.286116873
 31
0.0
 11
13.2544741628
 21
12.283021926
 31
0.0
 11
13.2812849584
 21
12.2787374599
 31
0.0
 11
13.3082652322
 21
12.2732889487
 31
0.0
 11
13.3355759225
 21
12.2666814852
 31
0.0
 11
13.3634167015
 21
12.2588944008
 31
0.0
  0
SPLINE
  5
4E4
100
AcDbEntity
  8
0
100
AcDbSpline
 62
7
  6
CONTINUOUS
 70
0
 71
3
 72
22
 73
18
 74
16
 42
0.0000001
 43
0.0000001
 44
0.0000000001
 12
0.3517854196
 22
-0.1814265373
 32
0.0
 13
0.3517854196
 23
0.1814265373
 33
0.0
 40
0.0
 40
0.0
 40
0.0
 40
0.0
 40
0.0763379923
 40
0.1481658585
 40
0.2164622511
 40
0.2820658671
 40
0.3456824296
 40
0.4079379385
 40
0.4693994116
 40
0.5306005896
 40
0.5920620626
 40
0.6543175713
 40
0.7179341337
 40
0.7835377495
 40
0.8518341416
 40
0.9236620076
 40
1.0
 40
1.0
 40
1.0
 40
1.0
 10
12.5476122062
 20
11.8224580667
 30
0.0
 10
12.556563737
 20
11.8178414875
 30
0.0
 10
12.5741489126
 20
11.8092807197
 30
0.0
 10
12.6004593974
 20
11.7981367376
 30
0.0
 10
12.6260309298
 20
11.7889865816
 30
0.0
 10
12.6510784526
 20
11.7817297988
 30
0.0
 10
12.6757730786
 20
11.7763103173
 30
0.0
 10
12.7002459153
 20
11.772702988
 30
0.0
 10
12.7245988444
 20
11.770899827
 30
0.0
 10
12.7489140298
 20
11.770899827
 30
0.0
 10
12.7732669588
 20
11.772702988
 30
0.0
 10
12.7977397954
 20
11.7763103174
 30
0.0
 10
12.8224344213
 20
11.7817297988
 30
0.0
 10
12.8474819441
 20
11.7889865816
 30
0.0
 10
12.8730534764
 20
11.7981367377
 30
0.0
 10
12.8993639611
 20
11.8092807197
 30
0.0
 10
12.9169491366
 20
11.8178414875
 30
0.0
 10
12.9259006675
 20
11.8224580667
 30
0.0
 11
12.5476122062
 21
11.8224580667
 31
0.0
 11
12.5747967626
 21
11.8092677571
 31
0.0
 11
12.6009898984
 21
11.7982128594
 31
0.0
 11
12.6264532254
 21
11.7891363281
 31
0.0
 11
12.6514023026
 21
11.7819377775
 31
0.0
 11
12.6760022352
 21
11.776562694
 31
0.0
 11
12.7003827891
 21
11.7729854678
 31
0.0
 11
12.7246443015
 21
11.7711975841
 31
0.0
 11
12.7488685727
 21
11.7711975842
 31
0.0
 11
12.773130085
 21
11.7729854679
 31
0.0
 11
12.7975106388
 21
11.776562694
 31
0.0
 11
12.8221105713
 21
11.7819377776
 31
0.0
 11
12.8470596485
 21
11.7891363282
 31
0.0
 11
12.8725229754
 21
11.7982128594
 31
0.0
 11
12.898716111
 21
11.8092677571
 31
0.0
 11
12.9259006675
 21
11.8224580667
 31
0.0
  0
SPLINE
  5
4E5
100
AcDbEntity
  8
0
100
AcDbSpline
 62
7
  6
CONTINUOUS
 70
0
 71
3
 72
21
 73
17
 74
15
 42
0.0000001
 43
0.0000001
 44
0.0000000001
 12
0.3682942784
 22
0.1096622926
 32
0.0
 13
0.3682942784
 23
-0.1096622926
 33
0.0
 40
0.0
 40
0.0
 40
0.0
 40
0.0
 40
0.0752309599
 40
0.1483522748
 40
0.2199806581
 40
0.2906359084
 40
0.3606925725
 40
0.4304186784
 40
0.5000000002
 40
0.5695813221
 40
0.639307428
 40
0.709364092
 40
0.7800193423
 40
0.8516477255
 40
0.9247690401
 40
1.0
 40
1.0
 40
1.0
 40
1.0
 10
12.5476122062
 20
12.2588944008
 30
0.0
 10
12.5568479169
 20
12.2616444007
 30
0.0
 10
12.5751490418
 20
12.2667758314
 30
0.0
 10
12.6025383664
 20
12.2734200736
 30
0.0
 10
12.629587903
 20
12.2788984903
 30
0.0
 10
12.6564518969
 20
12.2832049655
 30
0.0
 10
12.6832360813
 20
12.2863151496
 30
0.0
 10
12.7099971612
 20
12.2881980277
 30
0.0
 10
12.7367564369
 20
12.2888287913
 30
0.0
 10
12.7635157127
 20
12.2881980277
 30
0.0
 10
12.7902767925
 20
12.2863151496
 30
0.0
 10
12.8170609769
 20
12.2832049654
 30
0.0
 10
12.8439249708
 20
12.2788984903
 30
0.0
 10
12.8709745073
 20
12.2734200736
 30
0.0
 10
12.8983638319
 20
12.2667758314
 30
0.0
 10
12.9166649568
 20
12.2616444007
 30
0.0
 10
12.9259006675
 20
12.2588944008
 30
0.0
 11
12.5476122062
 21
12.2588944008
 31
0.0
 11
12.5754529852
 21
12.2666814852
 31
0.0
 11
12.6027636756
 21
12.2732889487
 31
0.0
 11
12.6297439494
 21
12.2787374599
 31
0.0
 11
12.6565547451
 21
12.283021926
 31
0.0
 11
12.6832972025
 21
12.286116873
 31
0.0
 11
12.7100255172
 21
12.2879908518
 31
0.0
 11
12.7367564369
 21
12.2886186825
 31
0.0
 11
12.7634873567
 21
12.2879908518
 31
0.0
 11
12.7902156713
 21
12.286116873
 31
0.0
 11
12.8169581288
 21
12.283021926
 31
0.0
 11
12.8437689244
 21
12.2787374599
 31
0.0
 11
12.8707491982
 21
12.2732889487
 31
0.0
 11
12.8980598885
 21
12.2666814852
 31
0.0
 11
12.9259006675
 21
12.2588944008
 31
0.0
  0
ENDSEC
  0
SECTION
  2
OBJECTS
  0
DICTIONARY
  5
C
100
AcDbDictionary
280
0
281
1
  3
ACAD_GROUP
350
D
  3
ACAD_MLINESTYLE
350
17
  3
ACAD_LAYOUT
350
1A
  3
ACAD_PLOTSETTINGS
350
19
  3
ACAD_PLOTSTYLENAME
350
E
  0
DICTIONARY
  5
D
102
{ACAD_REACTORS
330
C
102
}
100
AcDbDictionary
280
0
281
1
  0
ACDBDICTIONARYWDFLT
  5
E
102
{ACAD_REACTORS
330
C
102
}
100
AcDbDictionary
281
1
  3
Normal
350
F
100
AcDbDictionaryWithDefault
340
F
  0
DICTIONARY
  5
17
102
{ACAD_REACTORS
330
C
102
}
100
AcDbDictionary
280
0
281
1
  3
Standard
350
18
  0
DICTIONARY
  5
19
102
{ACAD_REACTORS
330
C
102
}
100
AcDbDictionary
281
1
  0
DICTIONARY
  5
1A
102
{ACAD_REACTORS
330
C
102
}
100
AcDbDictionary
281
1
  3
Layout1
350
1E
  3
Model
350
22
  0
ACDBPLACEHOLDER
  5
F
102
{ACAD_REACTORS
330
E
102
}
  0
MLINESTYLE
  5
18
102
{ACAD_REACTORS
330
17
102
}
100
AcDbMlineStyle
  2
STANDARD
 70
0
  3

 62
256
 51
90.0
 52
90.0
 71
2
 49
0.5
 62
256
  6
BYLAYER
 49
-0.5
 62
256
  6
BYLAYER
  0
LAYOUT
  5
1E
102
{ACAD_REACTORS
330
1A
102
}
100
AcDbPlotSettings
  1

  2

  4

  6

 40
0.0
 41
0.0
 42
0.0
 43
0.0
 44
0.0
 45
0.0
 46
0.0
 47
0.0
 48
0.0
 49
0.0
140
0.0
141
0.0
142
1.0
143
1.0
 70
0
 72
0
 73
0
 74
0
  7

 75
0
147
1.0
148
0.0
149
0.0
100
AcDbLayout
  1
Layout1
 70
0
 71
0
 10
0.0
 20
0.0
 11
0.0
 21
0.0
 12
0.0
 22
0.0
 32
0.0
 14
0.0
 24
0.0
 34
0.0
 15
0.0
 25
0.0
 35
0.0
146
0.0
 13
0.0
 23
0.0
 33
0.0
 16
0.0
 26
0.0
 36
0.0
 17
0.0
 27
0.0
 37
0.0
 76
0
330
1B
331
0
345
0
346
0
  0
LAYOUT
  5
22
102
{ACAD_REACTORS
330
1A
102
}
100
AcDbPlotSettings
  1

  2

  4

  6

 40
0.0
 41
0.0
 42
0.0
 43
0.0
 44
0.0
 45
0.0
 46
0.0
 47
0.0
 48
0.0
 49
0.0
140
0.0
141
0.0
142
1.0
143
1.0
 70
0
 72
0
 73
0
 74
0
  7

 75
0
147
1.0
148
0.0
149
0.0
100
AcDbLayout
  1
Model
 70
0
 71
0
 10
0.0
 20
0.0
 11
0.0
 21
0.0
 12
0.0
 22
0.0
 32
0.0
 14
0.0
 24
0.0
 34
0.0
 15
0.0
 25
0.0
 35
0.0
146
0.0
 13
0.0
 23
0.0
 33
0.0
 16
0.0
 26
0.0
 36
0.0
 17
0.0
 27
0.0
 37
0.0
 76
0
330
1F
331
0
345
0
346
0
  0
ENDSEC
  0
EOF
