999
DXF file: E3B_7.dxf
999
Pro/ENGINEER 2006240 by Parametric Technology Corporation
  0
SECTION
  2
HEADER
  9
$ACADVER
  1
AC1015
  9
$DWGCODEPAGE
  3
ANSI_1252
  9
$EXTMAX
 10
22.0
 20
17.0
 30
0.0
  9
$EXTMIN
 10
0.0
 20
0.0
 30
0.0
  9
$LIMMIN
 10
0.0
 20
0.0
  9
$LIMMAX
 10
22.0
 20
17.0
  9
$VIEWCTR
 10
11.0
 20
8.5
  9
$VIEWSIZE
 40
17.0
  9
$CLAYER
  8
0
  9
$LTSCALE
 40
1.21
  9
$CELTYPE
  6
BYLAYER
  9
$DIMSCALE
 40
1.0
  9
$DIMASZ
 40
0.1875
  9
$DIMEXO
 40
0.1375
  9
$DIMDLI
 40
0.836
  9
$DIMEXE
 40
0.396
  9
$DIMCEN
 40
0.198
  9
$DIMLFAC
 40
1.0
  9
$DIMBLK
  1
_CLOSED
  9
$DIMTXT
 40
0.15625
  9
$DIMTOL
 70
0
  9
$DIMLIM
 70
0
  9
$DIMTFAC
 40
1.0
  9
$PDMODE
 70
3
  9
$PDSIZE
 40
0.3125
  9
$HANDSEED
  5
629
  9
$MEASUREMENT
 70
0
  9
$INSUNITS
 70
1
  0
ENDSEC
  0
SECTION
  2
CLASSES
  0
CLASS
  1
ACDBDICTIONARYWDFLT
  2
AcDbDictionaryWithDefault
  3
AutoCAD 2000
 90
0
280
0
281
0
  0
CLASS
  1
ACDBPLACEHOLDER
  2
AcDbPlaceHolder
  3
AutoCAD 2000
 90
0
280
0
281
0
  0
CLASS
  1
LAYOUT
  2
AcDbLayout
  3
AutoCAD 2000
 90
0
280
0
281
0
  0
ENDSEC
  0
SECTION
  2
TABLES
  0
TABLE
  2
VPORT
  5
8
100
AcDbSymbolTable
 70
2
  0
VPORT
  5
1F4
100
AcDbSymbolTableRecord
100
AcDbViewportTableRecord
  2
*ACTIVE
 70
0
 10
0.0
 20
0.0
 11
1.0
 21
1.0
 12
11.0
 22
8.5
 13
0.0
 23
0.0
 14
1.0
 24
1.0
 15
0.0
 25
0.0
 16
0.0
 26
0.0
 36
1.0
 17
0.0
 27
0.0
 37
0.0
 40
17.0
 41
1.2941176471
 42
50.0
 43
0.0
 44
0.0
 50
0.0
 51
0.0
 71
0
 72
100
 73
1
 74
1
 75
0
 76
0
 77
0
 78
0
  0
ENDTAB
  0
TABLE
  2
LTYPE
  5
5
100
AcDbSymbolTable
 70
6
  0
LTYPE
  5
14
100
AcDbSymbolTableRecord
100
AcDbLinetypeTableRecord
  2
BYBLOCK
 70
0
  3

 72
65
 73
0
 40
0.0
  0
LTYPE
  5
15
100
AcDbSymbolTableRecord
100
AcDbLinetypeTableRecord
  2
BYLAYER
 70
0
  3

 72
65
 73
0
 40
0.0
  0
LTYPE
  5
16
100
AcDbSymbolTableRecord
100
AcDbLinetypeTableRecord
  2
CONTINUOUS
 70
64
  3
Solid line
 72
65
 73
0
 40
0.0
  0
LTYPE
  5
1F5
100
AcDbSymbolTableRecord
100
AcDbLinetypeTableRecord
  2
CENTER
 70
64
  3
____ _ ____ _ ____ _ ____ _ ____ _ ____ _ ____
 72
65
 73
4
 40
0.6
 49
0.375
 74
0
 49
-0.075
 74
0
 49
0.075
 74
0
 49
-0.075
 74
0
  0
LTYPE
  5
1F6
100
AcDbSymbolTableRecord
100
AcDbLinetypeTableRecord
  2
HIDDEN
 70
64
  3
- - - - - - - - - - - - - - - - - - - -
 72
65
 73
2
 40
0.2
 49
0.1
 74
0
 49
-0.1
 74
0
  0
LTYPE
  5
1F7
100
AcDbSymbolTableRecord
100
AcDbLinetypeTableRecord
  2
PHANTOM
 70
64
  3
_____ _ _ _____ _ _ _____ _ _ _____
 72
65
 73
6
 40
0.8
 49
0.45
 74
0
 49
-0.05
 74
0
 49
0.1
 74
0
 49
-0.05
 74
0
 49
0.1
 74
0
 49
-0.05
 74
0
  0
LTYPE
  5
1F8
100
AcDbSymbolTableRecord
100
AcDbLinetypeTableRecord
  2
DOT
 70
64
  3
. . . . . . . . . . . . . . . . . . . .
 72
65
 73
2
 40
0.2
 49
0.1
 74
0
 49
-0.1
 74
0
  0
LTYPE
  5
1F9
100
AcDbSymbolTableRecord
100
AcDbLinetypeTableRecord
  2
DASHED
 70
64
  3
- - - - - - - - - - - - - - - - - - - -
 72
65
 73
2
 40
0.2
 49
0.1
 74
0
 49
-0.1
 74
0
  0
ENDTAB
  0
TABLE
  2
LAYER
  5
2
100
AcDbSymbolTable
 70
36
  0
LAYER
  5
10
100
AcDbSymbolTableRecord
100
AcDbLayerTableRecord
  2
0
 70
0
 62
7
  6
CONTINUOUS
370
-3
390
F
  0
LAYER
  5
1FA
100
AcDbSymbolTableRecord
100
AcDbLayerTableRecord
  2
DEFAULT_1
 70
0
 62
7
  6
CENTER
370
-3
390
F
  0
LAYER
  5
1FB
100
AcDbSymbolTableRecord
100
AcDbLayerTableRecord
  2
DEFAULT_2
 70
0
 62
8
  6
HIDDEN
370
-3
390
F
  0
LAYER
  5
1FC
100
AcDbSymbolTableRecord
100
AcDbLayerTableRecord
  2
DEFAULT_3
 70
0
 62
7
  6
PHANTOM
370
-3
390
F
  0
LAYER
  5
1FD
100
AcDbSymbolTableRecord
100
AcDbLayerTableRecord
  2
01_ALL_DTM_PLN
 70
0
 62
7
  6
CONTINUOUS
370
-3
390
F
  0
LAYER
  5
1FE
100
AcDbSymbolTableRecord
100
AcDbLayerTableRecord
  2
01__ASM_ALL_DTM_PLN
 70
0
 62
7
  6
CONTINUOUS
370
-3
390
F
  0
LAYER
  5
1FF
100
AcDbSymbolTableRecord
100
AcDbLayerTableRecord
  2
01__ASM_DEF_DTM_PLN
 70
0
 62
7
  6
CONTINUOUS
370
-3
390
F
  0
LAYER
  5
200
100
AcDbSymbolTableRecord
100
AcDbLayerTableRecord
  2
01___PRT_ALL_DTM_PLN
 70
0
 62
7
  6
CONTINUOUS
370
-3
390
F
  0
LAYER
  5
201
100
AcDbSymbolTableRecord
100
AcDbLayerTableRecord
  2
01___PRT_DEF_DTM_PLN
 70
0
 62
7
  6
CONTINUOUS
370
-3
390
F
  0
LAYER
  5
202
100
AcDbSymbolTableRecord
100
AcDbLayerTableRecord
  2
02_ALL_AXES
 70
0
 62
7
  6
CONTINUOUS
370
-3
390
F
  0
LAYER
  5
203
100
AcDbSymbolTableRecord
100
AcDbLayerTableRecord
  2
02__ASM_ALL_AXES
 70
0
 62
7
  6
CONTINUOUS
370
-3
390
F
  0
LAYER
  5
204
100
AcDbSymbolTableRecord
100
AcDbLayerTableRecord
  2
02___PRT_ALL_AXES
 70
0
 62
7
  6
CONTINUOUS
370
-3
390
F
  0
LAYER
  5
205
100
AcDbSymbolTableRecord
100
AcDbLayerTableRecord
  2
03_ALL_CURVES
 70
0
 62
7
  6
CONTINUOUS
370
-3
390
F
  0
LAYER
  5
206
100
AcDbSymbolTableRecord
100
AcDbLayerTableRecord
  2
03__ASM_ALL_CURVES
 70
0
 62
7
  6
CONTINUOUS
370
-3
390
F
  0
LAYER
  5
207
100
AcDbSymbolTableRecord
100
AcDbLayerTableRecord
  2
03___PRT_ALL_CURVES
 70
0
 62
7
  6
CONTINUOUS
370
-3
390
F
  0
LAYER
  5
208
100
AcDbSymbolTableRecord
100
AcDbLayerTableRecord
  2
04_ALL_DTM_PNT
 70
0
 62
7
  6
CONTINUOUS
370
-3
390
F
  0
LAYER
  5
209
100
AcDbSymbolTableRecord
100
AcDbLayerTableRecord
  2
04__ASM_ALL_DTM_PNT
 70
0
 62
7
  6
CONTINUOUS
370
-3
390
F
  0
LAYER
  5
20A
100
AcDbSymbolTableRecord
100
AcDbLayerTableRecord
  2
04___PRT_ALL_DTM_PNT
 70
0
 62
7
  6
CONTINUOUS
370
-3
390
F
  0
LAYER
  5
20B
100
AcDbSymbolTableRecord
100
AcDbLayerTableRecord
  2
05_ALL_DTM_CSYS
 70
0
 62
7
  6
CONTINUOUS
370
-3
390
F
  0
LAYER
  5
20C
100
AcDbSymbolTableRecord
100
AcDbLayerTableRecord
  2
05__ASM_ALL_DTM_CSYS
 70
0
 62
7
  6
CONTINUOUS
370
-3
390
F
  0
LAYER
  5
20D
100
AcDbSymbolTableRecord
100
AcDbLayerTableRecord
  2
05__ASM_DEF_DTM_CSYS
 70
0
 62
7
  6
CONTINUOUS
370
-3
390
F
  0
LAYER
  5
20E
100
AcDbSymbolTableRecord
100
AcDbLayerTableRecord
  2
05___PRT_ALL_DTM_CSYS
 70
0
 62
7
  6
CONTINUOUS
370
-3
390
F
  0
LAYER
  5
20F
100
AcDbSymbolTableRecord
100
AcDbLayerTableRecord
  2
05___PRT_DEF_DTM_CSYS
 70
0
 62
7
  6
CONTINUOUS
370
-3
390
F
  0
LAYER
  5
210
100
AcDbSymbolTableRecord
100
AcDbLayerTableRecord
  2
06_ALL_SURFS
 70
0
 62
7
  6
CONTINUOUS
370
-3
390
F
  0
LAYER
  5
211
100
AcDbSymbolTableRecord
100
AcDbLayerTableRecord
  2
06__ASM_ALL_SURFS
 70
0
 62
7
  6
CONTINUOUS
370
-3
390
F
  0
LAYER
  5
212
100
AcDbSymbolTableRecord
100
AcDbLayerTableRecord
  2
06___PRT_ALL_SURFS
 70
0
 62
7
  6
CONTINUOUS
370
-3
390
F
  0
LAYER
  5
213
100
AcDbSymbolTableRecord
100
AcDbLayerTableRecord
  2
07__ASM_ALL_SKELETONS
 70
0
 62
7
  6
CONTINUOUS
370
-3
390
F
  0
LAYER
  5
214
100
AcDbSymbolTableRecord
100
AcDbLayerTableRecord
  2
COPY_GEO_FET
 70
0
 62
7
  6
CONTINUOUS
370
-3
390
F
  0
LAYER
  5
215
100
AcDbSymbolTableRecord
100
AcDbLayerTableRecord
  2
COSMETIC
 70
0
 62
7
  6
CONTINUOUS
370
-3
390
F
  0
LAYER
  5
216
100
AcDbSymbolTableRecord
100
AcDbLayerTableRecord
  2
CUT_REF_SURF
 70
0
 62
7
  6
CONTINUOUS
370
-3
390
F
  0
LAYER
  5
217
100
AcDbSymbolTableRecord
100
AcDbLayerTableRecord
  2
DATESTAMP
 70
0
 62
7
  6
CONTINUOUS
370
-3
390
F
  0
LAYER
  5
218
100
AcDbSymbolTableRecord
100
AcDbLayerTableRecord
  2
DATUM
 70
0
 62
7
  6
CONTINUOUS
370
-3
390
F
  0
LAYER
  5
219
100
AcDbSymbolTableRecord
100
AcDbLayerTableRecord
  2
DATUM_B
 70
0
 62
7
  6
CONTINUOUS
370
-3
390
F
  0
LAYER
  5
21A
100
AcDbSymbolTableRecord
100
AcDbLayerTableRecord
  2
DATUM_PLANES
 70
0
 62
7
  6
CONTINUOUS
370
-3
390
F
  0
LAYER
  5
21B
100
AcDbSymbolTableRecord
100
AcDbLayerTableRecord
  2
DIM
 70
0
 62
7
  6
CONTINUOUS
370
-3
390
F
  0
LAYER
  5
21C
100
AcDbSymbolTableRecord
100
AcDbLayerTableRecord
  2
DIM_1
 70
0
 62
7
  6
CONTINUOUS
370
-3
390
F
  0
LAYER
  5
21D
100
AcDbSymbolTableRecord
100
AcDbLayerTableRecord
  2
DIM_2
 70
0
 62
7
  6
CONTINUOUS
370
-3
390
F
  0
LAYER
  5
21E
100
AcDbSymbolTableRecord
100
AcDbLayerTableRecord
  2
DIM_3
 70
0
 62
7
  6
CONTINUOUS
370
-3
390
F
  0
LAYER
  5
21F
100
AcDbSymbolTableRecord
100
AcDbLayerTableRecord
  2
DIM_4
 70
0
 62
7
  6
CONTINUOUS
370
-3
390
F
  0
LAYER
  5
220
100
AcDbSymbolTableRecord
100
AcDbLayerTableRecord
  2
DIM_5
 70
0
 62
7
  6
CONTINUOUS
370
-3
390
F
  0
LAYER
  5
221
100
AcDbSymbolTableRecord
100
AcDbLayerTableRecord
  2
DIM_6
 70
0
 62
7
  6
CONTINUOUS
370
-3
390
F
  0
LAYER
  5
222
100
AcDbSymbolTableRecord
100
AcDbLayerTableRecord
  2
DTM
 70
0
 62
7
  6
CONTINUOUS
370
-3
390
F
  0
LAYER
  5
223
100
AcDbSymbolTableRecord
100
AcDbLayerTableRecord
  2
E3B_10
 70
0
 62
7
  6
CONTINUOUS
370
-3
390
F
  0
LAYER
  5
224
100
AcDbSymbolTableRecord
100
AcDbLayerTableRecord
  2
E3B_2
 70
0
 62
7
  6
CONTINUOUS
370
-3
390
F
  0
LAYER
  5
225
100
AcDbSymbolTableRecord
100
AcDbLayerTableRecord
  2
E3B_5
 70
0
 62
7
  6
CONTINUOUS
370
-3
390
F
  0
LAYER
  5
226
100
AcDbSymbolTableRecord
100
AcDbLayerTableRecord
  2
E3B_6
 70
0
 62
7
  6
CONTINUOUS
370
-3
390
F
  0
LAYER
  5
227
100
AcDbSymbolTableRecord
100
AcDbLayerTableRecord
  2
E3B_7
 70
0
 62
7
  6
CONTINUOUS
370
-3
390
F
  0
LAYER
  5
228
100
AcDbSymbolTableRecord
100
AcDbLayerTableRecord
  2
E3B_8
 70
0
 62
7
  6
CONTINUOUS
370
-3
390
F
  0
LAYER
  5
229
100
AcDbSymbolTableRecord
100
AcDbLayerTableRecord
  2
EXT_COPY_GEO
 70
0
 62
7
  6
CONTINUOUS
370
-3
390
F
  0
LAYER
  5
22A
100
AcDbSymbolTableRecord
100
AcDbLayerTableRecord
  2
LS
 70
0
 62
7
  6
CONTINUOUS
370
-3
390
F
  0
LAYER
  5
22B
100
AcDbSymbolTableRecord
100
AcDbLayerTableRecord
  2
ORIGIN
 70
0
 62
7
  6
CONTINUOUS
370
-3
390
F
  0
LAYER
  5
22C
100
AcDbSymbolTableRecord
100
AcDbLayerTableRecord
  2
PARTNUMBER
 70
0
 62
7
  6
CONTINUOUS
370
-3
390
F
  0
LAYER
  5
22D
100
AcDbSymbolTableRecord
100
AcDbLayerTableRecord
  2
PORT_AREAS
 70
0
 62
7
  6
CONTINUOUS
370
-3
390
F
  0
LAYER
  5
22E
100
AcDbSymbolTableRecord
100
AcDbLayerTableRecord
  2
TEXT
 70
0
 62
7
  6
CONTINUOUS
370
-3
390
F
  0
LAYER
  5
22F
100
AcDbSymbolTableRecord
100
AcDbLayerTableRecord
  2
THREAD
 70
0
 62
7
  6
CONTINUOUS
370
-3
390
F
  0
LAYER
  5
230
100
AcDbSymbolTableRecord
100
AcDbLayerTableRecord
  2
THREADS
 70
0
 62
7
  6
CONTINUOUS
370
-3
390
F
  0
ENDTAB
  0
TABLE
  2
STYLE
  5
3
100
AcDbSymbolTable
 70
1
  0
STYLE
  5
11
100
AcDbSymbolTableRecord
100
AcDbTextStyleTableRecord
  2
STANDARD
 70
0
 40
0.0
 41
0.8
 50
0.0
 71
0
 42
0.2
  3
txt
  4

  0
ENDTAB
  0
TABLE
  2
VIEW
  5
6
100
AcDbSymbolTable
 70
0
  0
ENDTAB
  0
TABLE
  2
UCS
  5
7
100
AcDbSymbolTable
 70
0
  0
ENDTAB
  0
TABLE
  2
APPID
  5
9
100
AcDbSymbolTable
 70
1
  0
APPID
  5
231
100
AcDbSymbolTableRecord
100
AcDbRegAppTableRecord
  2
ACAD
 70
0
  0
ENDTAB
  0
TABLE
  2
BLOCK_RECORD
  5
1
100
AcDbSymbolTable
 70
0
  0
BLOCK_RECORD
  5
1F
100
AcDbSymbolTableRecord
100
AcDbBlockTableRecord
  2
*MODEL_SPACE
  0
BLOCK_RECORD
  5
1B
100
AcDbSymbolTableRecord
100
AcDbBlockTableRecord
  2
*PAPER_SPACE
  0
ENDTAB
  0
TABLE
  2
DIMSTYLE
  5
A
100
AcDbSymbolTable
 70
1
100
AcDbDimStyleTable
 71
0
  0
DIMSTYLE
105
232
100
AcDbSymbolTableRecord
100
AcDbDimStyleTableRecord
  2
STANDARD
 70
0
  3

  4

 40
1.0
 41
0.1875
 42
0.0625
 43
0.38
 44
0.18
 45
0.0
 46
0.0
 47
0.01
 48
0.01
140
0.15625
141
0.09
142
0.0
143
25.4
144
1.0
145
0.0
146
1.0
147
0.09
 71
0.0
 72
0.0
 73
1
 74
1
 75
0
 76
0
 77
0
 78
4
170
0
171
2
172
0
173
0
174
0
175
0
176
0
177
0
178
0
270
2
271
2
272
2
273
2
274
2
275
0
280
0
281
0
282
0
283
1
284
4
285
0
286
0
287
3
288
0
340
11
  0
ENDTAB
  0
ENDSEC
  0
SECTION
  2
BLOCKS
  0
BLOCK
  5
20
100
AcDbEntity
  8
0
100
AcDbBlockBegin
  2
*MODEL_SPACE
 70
0
 10
0.0
 20
0.0
 30
0.0
  3
*MODEL_SPACE
  1

  0
ENDBLK
  5
21
100
AcDbEntity
  8
0
100
AcDbBlockEnd
  0
BLOCK
  5
1C
100
AcDbEntity
  8
0
100
AcDbBlockBegin
  2
*PAPER_SPACE
 70
0
 10
0.0
 20
0.0
 30
0.0
  3
*PAPER_SPACE
  1

  0
ENDBLK
  5
1D
100
AcDbEntity
  8
0
100
AcDbBlockEnd
  0
ENDSEC
  0
SECTION
  2
ENTITIES
  0
LINE
  5
233
100
AcDbEntity
  8
03__ASM_ALL_CURVES
100
AcDbLine
 62
4
  6
CONTINUOUS
 10
8.3476718341
 20
11.6496177241
 11
8.3582803341
 21
11.6566900558
  0
LINE
  5
234
100
AcDbEntity
  8
03__ASM_ALL_CURVES
100
AcDbLine
 62
4
  6
CONTINUOUS
 10
8.4325398341
 20
11.6496177241
 11
8.4431483341
 21
11.6566900558
  0
LINE
  5
235
100
AcDbEntity
  8
03__ASM_ALL_CURVES
100
AcDbLine
 62
4
  6
CONTINUOUS
 10
8.3688888341
 20
11.5788943893
 11
8.3582803341
 21
11.5718220558
  0
LINE
  5
236
100
AcDbEntity
  8
03__ASM_ALL_CURVES
100
AcDbLine
 62
4
  6
CONTINUOUS
 10
8.4537568341
 20
11.5788943893
 11
8.4431483341
 21
11.5718220558
  0
LINE
  5
237
100
AcDbEntity
  8
03__ASM_ALL_CURVES
100
AcDbLine
 62
4
  6
CONTINUOUS
 10
8.4590610841
 20
11.6142560558
 11
8.4431483341
 21
11.6071837216
  0
LINE
  5
238
100
AcDbEntity
  8
03__ASM_ALL_CURVES
100
AcDbLine
 62
4
  6
CONTINUOUS
 10
8.2044570841
 20
11.6566900558
 11
8.1673273341
 21
11.5930390558
  0
LINE
  5
239
100
AcDbEntity
  8
03__ASM_ALL_CURVES
100
AcDbLine
 62
4
  6
CONTINUOUS
 10
8.3423675841
 20
11.6425453874
 11
8.3476718341
 21
11.6496177241
  0
LINE
  5
23A
100
AcDbEntity
  8
03__ASM_ALL_CURVES
100
AcDbLine
 62
4
  6
CONTINUOUS
 10
8.3741930841
 20
11.5859667228
 11
8.3688888341
 21
11.5788943893
  0
LINE
  5
23B
100
AcDbEntity
  8
03__ASM_ALL_CURVES
100
AcDbLine
 62
4
  6
CONTINUOUS
 10
8.4272355841
 20
11.6425453874
 11
8.4325398341
 21
11.6496177241
  0
LINE
  5
23C
100
AcDbEntity
  8
03__ASM_ALL_CURVES
100
AcDbLine
 62
4
  6
CONTINUOUS
 10
8.4590610841
 20
11.5859667228
 11
8.4537568341
 21
11.5788943893
  0
LINE
  5
23D
100
AcDbEntity
  8
03__ASM_ALL_CURVES
100
AcDbLine
 62
4
  6
CONTINUOUS
 10
8.7720118341
 20
11.6496177241
 11
8.7826203341
 21
11.6566900558
  0
LINE
  5
23E
100
AcDbEntity
  8
03__ASM_ALL_CURVES
100
AcDbLine
 62
4
  6
CONTINUOUS
 10
8.8515755841
 20
11.6496177241
 11
8.8621840841
 21
11.6566900558
  0
LINE
  5
23F
100
AcDbEntity
  8
03__ASM_ALL_CURVES
100
AcDbLine
 62
4
  6
CONTINUOUS
 10
8.7932288341
 20
11.5788943893
 11
8.7826203341
 21
11.5718220558
  0
LINE
  5
240
100
AcDbEntity
  8
03__ASM_ALL_CURVES
100
AcDbLine
 62
4
  6
CONTINUOUS
 10
8.8834010841
 20
11.6284007241
 11
8.8727925841
 21
11.6213283874
  0
LINE
  5
241
100
AcDbEntity
  8
03__ASM_ALL_CURVES
100
AcDbLine
 62
4
  6
CONTINUOUS
 10
8.8834010841
 20
11.5788943893
 11
8.8727925841
 21
11.5718220558
  0
LINE
  5
242
100
AcDbEntity
  8
03__ASM_ALL_CURVES
100
AcDbLine
 62
4
  6
CONTINUOUS
 10
9.0213115841
 20
11.6496177241
 11
9.0319200841
 21
11.6566900558
  0
LINE
  5
243
100
AcDbEntity
  8
03__ASM_ALL_CURVES
100
AcDbLine
 62
4
  6
CONTINUOUS
 10
8.6181885841
 20
11.6566900558
 11
8.6075800841
 21
11.6425453874
  0
LINE
  5
244
100
AcDbEntity
  8
03__ASM_ALL_CURVES
100
AcDbLine
 62
4
  6
CONTINUOUS
 10
8.7667075841
 20
11.6425453874
 11
8.7720118341
 21
11.6496177241
  0
LINE
  5
245
100
AcDbEntity
  8
03__ASM_ALL_CURVES
100
AcDbLine
 62
4
  6
CONTINUOUS
 10
8.3794973341
 20
11.0414730558
 11
8.3741930841
 21
11.0344007241
  0
LINE
  5
246
100
AcDbEntity
  8
03__ASM_ALL_CURVES
100
AcDbLine
 62
4
  6
CONTINUOUS
 10
8.7985330841
 20
11.5859667228
 11
8.7932288341
 21
11.5788943893
  0
LINE
  5
247
100
AcDbEntity
  8
03__ASM_ALL_CURVES
100
AcDbLine
 62
4
  6
CONTINUOUS
 10
9.0213115841
 20
11.6142560558
 11
9.0319200841
 21
11.6213283874
  0
LINE
  5
248
100
AcDbEntity
  8
03__ASM_ALL_CURVES
100
AcDbLine
 62
4
  6
CONTINUOUS
 10
9.0531370841
 20
11.6284007241
 11
9.0425285841
 21
11.6213283874
  0
LINE
  5
249
100
AcDbEntity
  8
03__ASM_ALL_CURVES
100
AcDbLine
 62
4
  6
CONTINUOUS
 10
9.1061795841
 20
11.6496177241
 11
9.1167880841
 21
11.6566900558
  0
LINE
  5
24A
100
AcDbEntity
  8
03__ASM_ALL_CURVES
100
AcDbLine
 62
4
  6
CONTINUOUS
 10
9.1061795841
 20
11.6142560558
 11
9.1167880841
 21
11.6213283874
  0
LINE
  5
24B
100
AcDbEntity
  8
03__ASM_ALL_CURVES
100
AcDbLine
 62
4
  6
CONTINUOUS
 10
9.0531370841
 20
11.5788943893
 11
9.0425285841
 21
11.5718220558
  0
LINE
  5
24C
100
AcDbEntity
  8
03__ASM_ALL_CURVES
100
AcDbLine
 62
4
  6
CONTINUOUS
 10
9.1380050841
 20
11.6284007241
 11
9.1273965841
 21
11.6213283874
  0
LINE
  5
24D
100
AcDbEntity
  8
03__ASM_ALL_CURVES
100
AcDbLine
 62
4
  6
CONTINUOUS
 10
8.3423675841
 20
11.0556177241
 11
8.3529760841
 21
11.0626900558
  0
LINE
  5
24E
100
AcDbEntity
  8
03__ASM_ALL_CURVES
100
AcDbLine
 62
4
  6
CONTINUOUS
 10
9.1380050841
 20
11.5788943893
 11
9.1273965841
 21
11.5718220558
  0
LINE
  5
24F
100
AcDbEntity
  8
03__ASM_ALL_CURVES
100
AcDbLine
 62
4
  6
CONTINUOUS
 10
8.3741930841
 20
11.0344007241
 11
8.3635845841
 21
11.0273283874
  0
LINE
  5
250
100
AcDbEntity
  8
03__ASM_ALL_CURVES
100
AcDbLine
 62
4
  6
CONTINUOUS
 10
8.3741930841
 20
10.9848943893
 11
8.3635845841
 21
10.9778220558
  0
LINE
  5
251
100
AcDbEntity
  8
03__ASM_ALL_CURVES
100
AcDbLine
 62
4
  6
CONTINUOUS
 10
8.5121035841
 20
11.0273283874
 11
8.5227120841
 21
11.0344007241
  0
LINE
  5
252
100
AcDbEntity
  8
03__ASM_ALL_CURVES
100
AcDbLine
 62
4
  6
CONTINUOUS
 10
12.2428066683
 20
6.5336655558
 11
12.264023667
 21
6.5389698058
  0
LINE
  5
253
100
AcDbEntity
  8
03__ASM_ALL_CURVES
100
AcDbLine
 62
4
  6
CONTINUOUS
 10
10.9433003341
 20
6.1199340558
 11
11.0281683341
 21
6.1199340558
  0
LINE
  5
254
100
AcDbEntity
  8
03__ASM_ALL_CURVES
100
AcDbLine
 62
4
  6
CONTINUOUS
 10
12.2074450024
 20
6.1411510558
 11
12.2215896657
 21
6.1411510558
  0
LINE
  5
255
100
AcDbEntity
  8
03__ASM_ALL_CURVES
100
AcDbLine
 62
4
  6
CONTINUOUS
 10
12.2781683341
 20
6.2180626808
 11
12.2675598338
 21
6.2180626808
  0
LINE
  5
256
100
AcDbEntity
  8
03__ASM_ALL_CURVES
100
AcDbLine
 62
4
  6
CONTINUOUS
 10
11.0281683341
 20
6.2180626808
 11
11.0175598338
 21
6.2180626808
  0
LINE
  5
257
100
AcDbEntity
  8
03__ASM_ALL_CURVES
100
AcDbLine
 62
4
  6
CONTINUOUS
 10
8.3370633341
 20
11.6284007241
 11
8.3423675841
 21
11.6425453874
  0
LINE
  5
258
100
AcDbEntity
  8
03__ASM_ALL_CURVES
100
AcDbLine
 62
4
  6
CONTINUOUS
 10
8.3794973341
 20
11.6001113899
 11
8.3741930841
 21
11.5859667228
  0
LINE
  5
259
100
AcDbEntity
  8
03__ASM_ALL_CURVES
100
AcDbLine
 62
4
  6
CONTINUOUS
 10
8.4219313341
 20
11.6284007241
 11
8.4272355841
 21
11.6425453874
  0
LINE
  5
25A
100
AcDbEntity
  8
03__ASM_ALL_CURVES
100
AcDbLine
 62
4
  6
CONTINUOUS
 10
8.4643653341
 20
11.6284007241
 11
8.4590610841
 21
11.6142560558
  0
LINE
  5
25B
100
AcDbEntity
  8
03__ASM_ALL_CURVES
100
AcDbLine
 62
4
  6
CONTINUOUS
 10
8.4643653341
 20
11.6001113899
 11
8.4590610841
 21
11.5859667228
  0
LINE
  5
25C
100
AcDbEntity
  8
03__ASM_ALL_CURVES
100
AcDbLine
 62
4
  6
CONTINUOUS
 10
8.3848015841
 20
10.9990390558
 11
8.3741930841
 21
10.9848943893
  0
LINE
  5
25D
100
AcDbEntity
  8
03__ASM_ALL_CURVES
100
AcDbLine
 62
4
  6
CONTINUOUS
 10
8.8887053341
 20
11.6354730558
 11
8.8834010841
 21
11.6284007241
  0
LINE
  5
25E
100
AcDbEntity
  8
03__ASM_ALL_CURVES
100
AcDbLine
 62
4
  6
CONTINUOUS
 10
8.8940095841
 20
11.5930390558
 11
8.8834010841
 21
11.5788943893
  0
LINE
  5
25F
100
AcDbEntity
  8
03__ASM_ALL_CURVES
100
AcDbLine
 62
4
  6
CONTINUOUS
 10
9.0160073341
 20
11.6425453874
 11
9.0213115841
 21
11.6496177241
  0
LINE
  5
260
100
AcDbEntity
  8
03__ASM_ALL_CURVES
100
AcDbLine
 62
4
  6
CONTINUOUS
 10
8.5492333341
 20
10.9919667228
 11
8.5439290841
 21
10.9848943893
  0
LINE
  5
261
100
AcDbEntity
  8
03__ASM_ALL_CURVES
100
AcDbLine
 62
4
  6
CONTINUOUS
 10
9.0107030841
 20
11.6001113899
 11
9.0213115841
 21
11.6142560558
  0
LINE
  5
262
100
AcDbEntity
  8
03__ASM_ALL_CURVES
100
AcDbLine
 62
4
  6
CONTINUOUS
 10
9.0584413341
 20
11.6354730558
 11
9.0531370841
 21
11.6284007241
  0
LINE
  5
263
100
AcDbEntity
  8
03__ASM_ALL_CURVES
100
AcDbLine
 62
4
  6
CONTINUOUS
 10
9.0637455841
 20
11.5930390558
 11
9.0531370841
 21
11.5788943893
  0
LINE
  5
264
100
AcDbEntity
  8
03__ASM_ALL_CURVES
100
AcDbLine
 62
4
  6
CONTINUOUS
 10
9.1008753341
 20
11.6425453874
 11
9.1061795841
 21
11.6496177241
  0
LINE
  5
265
100
AcDbEntity
  8
03__ASM_ALL_CURVES
100
AcDbLine
 62
4
  6
CONTINUOUS
 10
9.0955710841
 20
11.6001113899
 11
9.1061795841
 21
11.6142560558
  0
LINE
  5
266
100
AcDbEntity
  8
03__ASM_ALL_CURVES
100
AcDbLine
 62
4
  6
CONTINUOUS
 10
8.7030565841
 20
11.0626900558
 11
8.6924480841
 21
11.0485453874
  0
LINE
  5
267
100
AcDbEntity
  8
03__ASM_ALL_CURVES
100
AcDbLine
 62
4
  6
CONTINUOUS
 10
8.5439290841
 20
10.9848943893
 11
8.5333205841
 21
10.9778220558
  0
LINE
  5
268
100
AcDbEntity
  8
03__ASM_ALL_CURVES
100
AcDbLine
 62
4
  6
CONTINUOUS
 10
8.7667075841
 20
11.0556177241
 11
8.7773160841
 21
11.0626900558
  0
LINE
  5
269
100
AcDbEntity
  8
03__ASM_ALL_CURVES
100
AcDbLine
 62
4
  6
CONTINUOUS
 10
8.7667075841
 20
11.0202560558
 11
8.7773160841
 21
11.0273283874
  0
LINE
  5
26A
100
AcDbEntity
  8
03__ASM_ALL_CURVES
100
AcDbLine
 62
4
  6
CONTINUOUS
 10
8.7985330841
 20
11.0344007241
 11
8.7879245841
 21
11.0273283874
  0
LINE
  5
26B
100
AcDbEntity
  8
03__ASM_ALL_CURVES
100
AcDbLine
 62
4
  6
CONTINUOUS
 10
8.8515755841
 20
11.0556177241
 11
8.8621840841
 21
11.0626900558
  0
LINE
  5
26C
100
AcDbEntity
  8
03__ASM_ALL_CURVES
100
AcDbLine
 62
4
  6
CONTINUOUS
 10
8.7985330841
 20
10.9848943893
 11
8.7879245841
 21
10.9778220558
  0
LINE
  5
26D
100
AcDbEntity
  8
03__ASM_ALL_CURVES
100
AcDbLine
 62
4
  6
CONTINUOUS
 10
8.8515755841
 20
11.0202560558
 11
8.8621840841
 21
11.0273283874
  0
LINE
  5
26E
100
AcDbEntity
  8
03__ASM_ALL_CURVES
100
AcDbLine
 62
4
  6
CONTINUOUS
 10
8.8834010841
 20
11.0344007241
 11
8.8727925841
 21
11.0273283874
  0
LINE
  5
26F
100
AcDbEntity
  8
03__ASM_ALL_CURVES
100
AcDbLine
 62
4
  6
CONTINUOUS
 10
8.8834010841
 20
10.9848943893
 11
8.8727925841
 21
10.9778220558
  0
LINE
  5
270
100
AcDbEntity
  8
03__ASM_ALL_CURVES
100
AcDbLine
 62
4
  6
CONTINUOUS
 10
9.0213115841
 20
11.0556177241
 11
9.0319200841
 21
11.0626900558
  0
LINE
  5
271
100
AcDbEntity
  8
03__ASM_ALL_CURVES
100
AcDbLine
 62
4
  6
CONTINUOUS
 10
10.9928066683
 20
6.5336655558
 11
11.014023667
 21
6.5389698058
  0
LINE
  5
272
100
AcDbEntity
  8
03__ASM_ALL_CURVES
100
AcDbLine
 62
4
  6
CONTINUOUS
 10
10.9574450024
 20
6.3108870558
 11
10.9645173341
 21
6.3108870558
  0
LINE
  5
273
100
AcDbEntity
  8
03__ASM_ALL_CURVES
100
AcDbLine
 62
4
  6
CONTINUOUS
 10
10.9998789999
 20
6.3161913058
 11
11.0069513341
 21
6.3161913058
  0
LINE
  5
274
100
AcDbEntity
  8
03__ASM_ALL_CURVES
100
AcDbLine
 62
4
  6
CONTINUOUS
 10
12.2498789999
 20
6.3533210558
 11
12.2215896657
 21
6.3533210558
  0
LINE
  5
275
100
AcDbEntity
  8
03__ASM_ALL_CURVES
100
AcDbLine
 62
4
  6
CONTINUOUS
 10
10.9433003341
 20
6.3745380558
 11
11.0281683341
 21
6.3745380558
  0
LINE
  5
276
100
AcDbEntity
  8
03__ASM_ALL_CURVES
100
AcDbLine
 62
4
  6
CONTINUOUS
 10
8.7614033341
 20
11.6284007241
 11
8.7667075841
 21
11.6425453874
  0
LINE
  5
277
100
AcDbEntity
  8
03__ASM_ALL_CURVES
100
AcDbLine
 62
4
  6
CONTINUOUS
 10
9.1433093341
 20
11.6354730558
 11
9.1380050841
 21
11.6284007241
  0
LINE
  5
278
100
AcDbEntity
  8
03__ASM_ALL_CURVES
100
AcDbLine
 62
4
  6
CONTINUOUS
 10
9.1486135841
 20
11.5930390558
 11
9.1380050841
 21
11.5788943893
  0
LINE
  5
279
100
AcDbEntity
  8
03__ASM_ALL_CURVES
100
AcDbLine
 62
4
  6
CONTINUOUS
 10
8.7614033341
 20
11.0485453874
 11
8.7667075841
 21
11.0556177241
  0
LINE
  5
27A
100
AcDbEntity
  8
03__ASM_ALL_CURVES
100
AcDbLine
 62
4
  6
CONTINUOUS
 10
8.7560990841
 20
11.0061113899
 11
8.7667075841
 21
11.0202560558
  0
LINE
  5
27B
100
AcDbEntity
  8
03__ASM_ALL_CURVES
100
AcDbLine
 62
4
  6
CONTINUOUS
 10
8.8038373341
 20
11.0414730558
 11
8.7985330841
 21
11.0344007241
  0
LINE
  5
27C
100
AcDbEntity
  8
03__ASM_ALL_CURVES
100
AcDbLine
 62
4
  6
CONTINUOUS
 10
9.2122645841
 20
11.5859667228
 11
9.2016560841
 21
11.5718220558
  0
LINE
  5
27D
100
AcDbEntity
  8
03__ASM_ALL_CURVES
100
AcDbLine
 62
4
  6
CONTINUOUS
 10
8.8091415841
 20
10.9990390558
 11
8.7985330841
 21
10.9848943893
  0
LINE
  5
27E
100
AcDbEntity
  8
03__ASM_ALL_CURVES
100
AcDbLine
 62
4
  6
CONTINUOUS
 10
8.8462713341
 20
11.0485453874
 11
8.8515755841
 21
11.0556177241
  0
LINE
  5
27F
100
AcDbEntity
  8
03__ASM_ALL_CURVES
100
AcDbLine
 62
4
  6
CONTINUOUS
 10
8.8409670841
 20
11.0061113899
 11
8.8515755841
 21
11.0202560558
  0
LINE
  5
280
100
AcDbEntity
  8
03__ASM_ALL_CURVES
100
AcDbLine
 62
4
  6
CONTINUOUS
 10
8.8887053341
 20
11.0414730558
 11
8.8834010841
 21
11.0344007241
  0
LINE
  5
281
100
AcDbEntity
  8
03__ASM_ALL_CURVES
100
AcDbLine
 62
4
  6
CONTINUOUS
 10
8.2521953341
 20
10.1735453874
 11
8.2574995841
 21
10.1806177241
  0
LINE
  5
282
100
AcDbEntity
  8
03__ASM_ALL_CURVES
100
AcDbLine
 62
4
  6
CONTINUOUS
 10
8.8940095841
 20
10.9990390558
 11
8.8834010841
 21
10.9848943893
  0
LINE
  5
283
100
AcDbEntity
  8
03__ASM_ALL_CURVES
100
AcDbLine
 62
4
  6
CONTINUOUS
 10
8.2681080841
 20
10.1381837216
 11
8.2574995841
 21
10.1240390558
  0
LINE
  5
284
100
AcDbEntity
  8
03__ASM_ALL_CURVES
100
AcDbLine
 62
4
  6
CONTINUOUS
 10
8.2946293341
 20
10.1594007241
 11
8.2893250841
 21
10.1523283874
  0
LINE
  5
285
100
AcDbEntity
  8
03__ASM_ALL_CURVES
100
AcDbLine
 62
4
  6
CONTINUOUS
 10
9.0213115841
 20
11.0202560558
 11
9.0319200841
 21
11.0273283874
  0
LINE
  5
286
100
AcDbEntity
  8
03__ASM_ALL_CURVES
100
AcDbLine
 62
4
  6
CONTINUOUS
 10
9.0531370841
 20
11.0344007241
 11
9.0425285841
 21
11.0273283874
  0
LINE
  5
287
100
AcDbEntity
  8
03__ASM_ALL_CURVES
100
AcDbLine
 62
4
  6
CONTINUOUS
 10
9.1114838341
 20
11.0556177241
 11
9.1220923341
 21
11.0626900558
  0
LINE
  5
288
100
AcDbEntity
  8
03__ASM_ALL_CURVES
100
AcDbLine
 62
4
  6
CONTINUOUS
 10
9.0531370841
 20
10.9848943893
 11
9.0425285841
 21
10.9778220558
  0
LINE
  5
289
100
AcDbEntity
  8
03__ASM_ALL_CURVES
100
AcDbLine
 62
4
  6
CONTINUOUS
 10
9.1327008341
 20
10.9848943893
 11
9.1220923341
 21
10.9778220558
  0
LINE
  5
28A
100
AcDbEntity
  8
03__ASM_ALL_CURVES
100
AcDbLine
 62
4
  6
CONTINUOUS
 10
9.1380050841
 20
11.0202560558
 11
9.1220923341
 21
11.0131837216
  0
LINE
  5
28B
100
AcDbEntity
  8
03__ASM_ALL_CURVES
100
AcDbLine
 62
4
  6
CONTINUOUS
 10
12.2074450024
 20
7.0587863058
 11
12.2286620024
 21
7.0640905558
  0
LINE
  5
28C
100
AcDbEntity
  8
03__ASM_ALL_CURVES
100
AcDbLine
 62
4
  6
CONTINUOUS
 10
10.9786620024
 20
6.5336655558
 11
10.9928066683
 21
6.5336655558
  0
LINE
  5
28D
100
AcDbEntity
  8
03__ASM_ALL_CURVES
100
AcDbLine
 62
4
  6
CONTINUOUS
 10
12.2286620024
 20
6.5336655558
 11
12.2428066683
 21
6.5336655558
  0
LINE
  5
28E
100
AcDbEntity
  8
03__ASM_ALL_CURVES
100
AcDbLine
 62
4
  6
CONTINUOUS
 10
12.2498789999
 20
6.6079250558
 11
12.2215896657
 21
6.6079250558
  0
LINE
  5
28F
100
AcDbEntity
  8
03__ASM_ALL_CURVES
100
AcDbLine
 62
4
  6
CONTINUOUS
 10
10.9574450024
 20
6.6503590558
 11
10.9645173341
 21
6.6503590558
  0
LINE
  5
290
100
AcDbEntity
  8
03__ASM_ALL_CURVES
100
AcDbLine
 62
4
  6
CONTINUOUS
 10
10.9998789999
 20
6.6556633058
 11
11.0069513341
 21
6.6556633058
  0
LINE
  5
291
100
AcDbEntity
  8
03__ASM_ALL_CURVES
100
AcDbLine
 62
4
  6
CONTINUOUS
 10
12.1933003341
 20
6.2790615558
 11
12.2286620024
 21
6.2737573058
  0
LINE
  5
292
100
AcDbEntity
  8
03__ASM_ALL_CURVES
100
AcDbLine
 62
4
  6
CONTINUOUS
 10
7.9180275841
 20
8.2109667228
 11
7.9127233341
 21
8.2251113899
  0
LINE
  5
293
100
AcDbEntity
  8
03__ASM_ALL_CURVES
100
AcDbLine
 62
4
  6
CONTINUOUS
 10
7.9498530841
 20
8.2675453874
 11
7.9551573341
 21
8.2534007241
  0
LINE
  5
294
100
AcDbEntity
  8
03__ASM_ALL_CURVES
100
AcDbLine
 62
4
  6
CONTINUOUS
 10
7.9127233341
 20
8.2251113899
 11
7.9127233341
 21
8.2534007241
  0
LINE
  5
295
100
AcDbEntity
  8
03__ASM_ALL_CURVES
100
AcDbLine
 62
4
  6
CONTINUOUS
 10
7.9551573341
 20
8.2534007241
 11
7.9551573341
 21
8.2251113899
  0
LINE
  5
296
100
AcDbEntity
  8
03__ASM_ALL_CURVES
100
AcDbLine
 62
4
  6
CONTINUOUS
 10
8.0320689591
 20
8.1968220558
 11
8.0320689591
 21
8.2074305561
  0
LINE
  5
297
100
AcDbEntity
  8
03__ASM_ALL_CURVES
100
AcDbLine
 62
4
  6
CONTINUOUS
 10
8.6075800841
 20
11.6425453874
 11
8.6022758341
 21
11.6213283874
  0
LINE
  5
298
100
AcDbEntity
  8
03__ASM_ALL_CURVES
100
AcDbLine
 62
4
  6
CONTINUOUS
 10
8.2574995841
 20
10.1240390558
 11
8.2521953341
 21
10.1028220558
  0
LINE
  5
299
100
AcDbEntity
  8
03__ASM_ALL_CURVES
100
AcDbLine
 62
4
  6
CONTINUOUS
 10
8.5545375841
 20
11.0061113899
 11
8.5492333341
 21
10.9919667228
  0
LINE
  5
29A
100
AcDbEntity
  8
03__ASM_ALL_CURVES
100
AcDbLine
 62
4
  6
CONTINUOUS
 10
8.8038373341
 20
11.6001113899
 11
8.7985330841
 21
11.5859667228
  0
LINE
  5
29B
100
AcDbEntity
  8
03__ASM_ALL_CURVES
100
AcDbLine
 62
4
  6
CONTINUOUS
 10
8.4219313341
 20
10.1594007241
 11
8.4272355841
 21
10.1735453874
  0
LINE
  5
29C
100
AcDbEntity
  8
03__ASM_ALL_CURVES
100
AcDbLine
 62
4
  6
CONTINUOUS
 10
8.4219313341
 20
10.1311113899
 11
8.4272355841
 21
10.1452560558
  0
LINE
  5
29D
100
AcDbEntity
  8
03__ASM_ALL_CURVES
100
AcDbLine
 62
4
  6
CONTINUOUS
 10
8.4643653341
 20
10.1311113899
 11
8.4590610841
 21
10.1169667228
  0
LINE
  5
29E
100
AcDbEntity
  8
03__ASM_ALL_CURVES
100
AcDbLine
 62
4
  6
CONTINUOUS
 10
9.0160073341
 20
11.0485453874
 11
9.0213115841
 21
11.0556177241
  0
LINE
  5
29F
100
AcDbEntity
  8
03__ASM_ALL_CURVES
100
AcDbLine
 62
4
  6
CONTINUOUS
 10
9.0107030841
 20
11.0061113899
 11
9.0213115841
 21
11.0202560558
  0
LINE
  5
2A0
100
AcDbEntity
  8
03__ASM_ALL_CURVES
100
AcDbLine
 62
4
  6
CONTINUOUS
 10
9.0584413341
 20
11.0414730558
 11
9.0531370841
 21
11.0344007241
  0
LINE
  5
2A1
100
AcDbEntity
  8
03__ASM_ALL_CURVES
100
AcDbLine
 62
4
  6
CONTINUOUS
 10
8.4272355841
 20
10.1735453874
 11
8.4325398341
 21
10.1806177241
  0
LINE
  5
2A2
100
AcDbEntity
  8
03__ASM_ALL_CURVES
100
AcDbLine
 62
4
  6
CONTINUOUS
 10
9.0637455841
 20
10.9990390558
 11
9.0531370841
 21
10.9848943893
  0
LINE
  5
2A3
100
AcDbEntity
  8
03__ASM_ALL_CURVES
100
AcDbLine
 62
4
  6
CONTINUOUS
 10
9.1061795841
 20
11.0485453874
 11
9.1114838341
 21
11.0556177241
  0
LINE
  5
2A4
100
AcDbEntity
  8
03__ASM_ALL_CURVES
100
AcDbLine
 62
4
  6
CONTINUOUS
 10
8.4590610841
 20
10.1169667228
 11
8.4537568341
 21
10.1098943893
  0
LINE
  5
2A5
100
AcDbEntity
  8
03__ASM_ALL_CURVES
100
AcDbLine
 62
4
  6
CONTINUOUS
 10
8.5067993341
 20
10.1735453874
 11
8.5121035841
 21
10.1806177241
  0
LINE
  5
2A6
100
AcDbEntity
  8
03__ASM_ALL_CURVES
100
AcDbLine
 62
4
  6
CONTINUOUS
 10
9.1380050841
 20
10.9919667228
 11
9.1327008341
 21
10.9848943893
  0
LINE
  5
2A7
100
AcDbEntity
  8
03__ASM_ALL_CURVES
100
AcDbLine
 62
4
  6
CONTINUOUS
 10
8.5227120841
 20
10.1381837216
 11
8.5121035841
 21
10.1240390558
  0
LINE
  5
2A8
100
AcDbEntity
  8
03__ASM_ALL_CURVES
100
AcDbLine
 62
4
  6
CONTINUOUS
 10
8.5492333341
 20
10.1594007241
 11
8.5439290841
 21
10.1523283874
  0
LINE
  5
2A9
100
AcDbEntity
  8
03__ASM_ALL_CURVES
100
AcDbLine
 62
4
  6
CONTINUOUS
 10
9.2122645841
 20
10.9919667228
 11
9.2016560841
 21
10.9778220558
  0
LINE
  5
2AA
100
AcDbEntity
  8
03__ASM_ALL_CURVES
100
AcDbLine
 62
4
  6
CONTINUOUS
 10
8.2574995841
 20
10.1806177241
 11
8.2681080841
 21
10.1876900558
  0
LINE
  5
2AB
100
AcDbEntity
  8
03__ASM_ALL_CURVES
100
AcDbLine
 62
4
  6
CONTINUOUS
 10
8.2893250841
 20
10.1523283874
 11
8.2681080841
 21
10.1381837216
  0
LINE
  5
2AC
100
AcDbEntity
  8
03__ASM_ALL_CURVES
100
AcDbLine
 62
4
  6
CONTINUOUS
 10
8.4325398341
 20
10.1806177241
 11
8.4431483341
 21
10.1876900558
  0
LINE
  5
2AD
100
AcDbEntity
  8
03__ASM_ALL_CURVES
100
AcDbLine
 62
4
  6
CONTINUOUS
 10
8.5121035841
 20
10.1806177241
 11
8.5227120841
 21
10.1876900558
  0
LINE
  5
2AE
100
AcDbEntity
  8
03__ASM_ALL_CURVES
100
AcDbLine
 62
4
  6
CONTINUOUS
 10
8.4537568341
 20
10.1098943893
 11
8.4431483341
 21
10.1028220558
  0
LINE
  5
2AF
100
AcDbEntity
  8
03__ASM_ALL_CURVES
100
AcDbLine
 62
4
  6
CONTINUOUS
 10
8.5439290841
 20
10.1523283874
 11
8.5227120841
 21
10.1381837216
  0
LINE
  5
2B0
100
AcDbEntity
  8
0
100
AcDbLine
 62
7
  6
CONTINUOUS
 10
10.9347343341
 20
11.5801923899
 11
10.9937343341
 21
11.6142560558
  0
LINE
  5
2B1
100
AcDbEntity
  8
03__ASM_ALL_CURVES
100
AcDbLine
 62
4
  6
CONTINUOUS
 10
10.9574450024
 20
7.0587863058
 11
10.9786620024
 21
7.0640905558
  0
LINE
  5
2B2
100
AcDbEntity
  8
03__ASM_ALL_CURVES
100
AcDbLine
 62
4
  6
CONTINUOUS
 10
10.9574450024
 20
6.7352270558
 11
10.9645173341
 21
6.7352270558
  0
LINE
  5
2B3
100
AcDbEntity
  8
03__ASM_ALL_CURVES
100
AcDbLine
 62
4
  6
CONTINUOUS
 10
10.9998789999
 20
6.7405313058
 11
11.0069513341
 21
6.7405313058
  0
LINE
  5
2B4
100
AcDbEntity
  8
03__ASM_ALL_CURVES
100
AcDbLine
 62
4
  6
CONTINUOUS
 10
12.2781683341
 20
6.8121386808
 11
12.2675598338
 21
6.8121386808
  0
LINE
  5
2B5
100
AcDbEntity
  8
03__ASM_ALL_CURVES
100
AcDbLine
 62
4
  6
CONTINUOUS
 10
11.0281683341
 20
6.8121386808
 11
11.0175598338
 21
6.8121386808
  0
LINE
  5
2B6
100
AcDbEntity
  8
03__ASM_ALL_CURVES
100
AcDbLine
 62
4
  6
CONTINUOUS
 10
12.2498789999
 20
6.8625290558
 11
12.2215896657
 21
6.8625290558
  0
LINE
  5
2B7
100
AcDbEntity
  8
03__ASM_ALL_CURVES
100
AcDbLine
 62
4
  6
CONTINUOUS
 10
10.9574450024
 20
6.9049630558
 11
10.9715896657
 21
6.9049630558
  0
LINE
  5
2B8
100
AcDbEntity
  8
03__ASM_ALL_CURVES
100
AcDbLine
 62
4
  6
CONTINUOUS
 10
12.2215896657
 20
6.9049630558
 11
12.2498789999
 21
6.9049630558
  0
LINE
  5
2B9
100
AcDbEntity
  8
03__ASM_ALL_CURVES
100
AcDbLine
 62
4
  6
CONTINUOUS
 10
9.6878789999
 20
6.9473970558
 11
9.6595896657
 21
6.9473970558
  0
LINE
  5
2BA
100
AcDbEntity
  8
03__ASM_ALL_CURVES
100
AcDbLine
 62
4
  6
CONTINUOUS
 10
12.2569513341
 20
6.1040213058
 11
12.2781683341
 21
6.0987170558
  0
LINE
  5
2BB
100
AcDbEntity
  8
03__ASM_ALL_CURVES
100
AcDbLine
 62
4
  6
CONTINUOUS
 10
10.9574450024
 20
6.5389698058
 11
10.9786620024
 21
6.5336655558
  0
LINE
  5
2BC
100
AcDbEntity
  8
03__ASM_ALL_CURVES
100
AcDbLine
 62
4
  6
CONTINUOUS
 10
9.6595896657
 20
6.9473970558
 11
9.6454450024
 21
6.9527013058
  0
LINE
  5
2BD
100
AcDbEntity
  8
03__ASM_ALL_CURVES
100
AcDbLine
 62
4
  6
CONTINUOUS
 10
7.9233318341
 20
8.2038943893
 11
7.9180275841
 21
8.2109667228
  0
LINE
  5
2BE
100
AcDbEntity
  8
03__ASM_ALL_CURVES
100
AcDbLine
 62
4
  6
CONTINUOUS
 10
7.9445488341
 20
8.2746177241
 11
7.9498530841
 21
8.2675453874
  0
LINE
  5
2BF
100
AcDbEntity
  8
03__ASM_ALL_CURVES
100
AcDbLine
 62
4
  6
CONTINUOUS
 10
8.0320689591
 20
8.2074305561
 11
8.0400253341
 21
8.1968220558
  0
LINE
  5
2C0
100
AcDbEntity
  8
03__ASM_ALL_CURVES
100
AcDbLine
 62
4
  6
CONTINUOUS
 10
8.1885443341
 20
8.2816900558
 11
8.1885443341
 21
8.1968220558
  0
LINE
  5
2C1
100
AcDbEntity
  8
03__ASM_ALL_CURVES
100
AcDbLine
 62
4
  6
CONTINUOUS
 10
8.2044570841
 20
11.5718220558
 11
8.2044570841
 21
11.6566900558
  0
LINE
  5
2C2
100
AcDbEntity
  8
03__ASM_ALL_CURVES
100
AcDbLine
 62
4
  6
CONTINUOUS
 10
8.2866729591
 20
11.5718220558
 11
8.2866729591
 21
11.5824305561
  0
LINE
  5
2C3
100
AcDbEntity
  8
03__ASM_ALL_CURVES
100
AcDbLine
 62
4
  6
CONTINUOUS
 10
8.2946293341
 20
10.1735453874
 11
8.2946293341
 21
10.1594007241
  0
LINE
  5
2C4
100
AcDbEntity
  8
03__ASM_ALL_CURVES
100
AcDbLine
 62
4
  6
CONTINUOUS
 10
8.3370633341
 20
11.6001113899
 11
8.3370633341
 21
11.6284007241
  0
LINE
  5
2C5
100
AcDbEntity
  8
03__ASM_ALL_CURVES
100
AcDbLine
 62
4
  6
CONTINUOUS
 10
8.3476718341
 20
8.2463283874
 11
8.3476718341
 21
8.2321837216
  0
LINE
  5
2C6
100
AcDbEntity
  8
03__ASM_ALL_CURVES
100
AcDbLine
 62
4
  6
CONTINUOUS
 10
8.5174078341
 20
11.0626900558
 11
8.5121035841
 21
11.0273283874
  0
LINE
  5
2C7
100
AcDbEntity
  8
03__ASM_ALL_CURVES
100
AcDbLine
 62
4
  6
CONTINUOUS
 10
8.1036763341
 20
8.1968220558
 11
8.1089805841
 21
8.2321837216
  0
LINE
  5
2C8
100
AcDbEntity
  8
03__ASM_ALL_CURVES
100
AcDbLine
 62
4
  6
CONTINUOUS
 10
8.6924480841
 20
11.0485453874
 11
8.6871438341
 21
11.0273283874
  0
LINE
  5
2C9
100
AcDbEntity
  8
03__ASM_ALL_CURVES
100
AcDbLine
 62
4
  6
CONTINUOUS
 10
8.5121035841
 20
10.1240390558
 11
8.5067993341
 21
10.1028220558
  0
LINE
  5
2CA
100
AcDbEntity
  8
03__ASM_ALL_CURVES
100
AcDbLine
 62
4
  6
CONTINUOUS
 10
8.1089805841
 20
8.2321837216
 11
8.1142848341
 21
8.2534007241
  0
LINE
  5
2CB
100
AcDbEntity
  8
03__ASM_ALL_CURVES
100
AcDbLine
 62
4
  6
CONTINUOUS
 10
7.9127233341
 20
8.2534007241
 11
7.9180275841
 21
8.2675453874
  0
LINE
  5
2CC
100
AcDbEntity
  8
03__ASM_ALL_CURVES
100
AcDbLine
 62
4
  6
CONTINUOUS
 10
7.9551573341
 20
8.2251113899
 11
7.9498530841
 21
8.2109667228
  0
LINE
  5
2CD
100
AcDbEntity
  8
03__ASM_ALL_CURVES
100
AcDbLine
 62
4
  6
CONTINUOUS
 10
8.7030565841
 20
10.1876900558
 11
8.6924480841
 21
10.1735453874
  0
LINE
  5
2CE
100
AcDbEntity
  8
03__ASM_ALL_CURVES
100
AcDbLine
 62
4
  6
CONTINUOUS
 10
8.7667075841
 20
10.1735453874
 11
8.7720118341
 21
10.1806177241
  0
LINE
  5
2CF
100
AcDbEntity
  8
03__ASM_ALL_CURVES
100
AcDbLine
 62
4
  6
CONTINUOUS
 10
8.7985330841
 20
10.1169667228
 11
8.7932288341
 21
10.1098943893
  0
LINE
  5
2D0
100
AcDbEntity
  8
03__ASM_ALL_CURVES
100
AcDbLine
 62
4
  6
CONTINUOUS
 10
8.8515755841
 20
10.1735453874
 11
8.8568798341
 21
10.1806177241
  0
LINE
  5
2D1
100
AcDbEntity
  8
03__ASM_ALL_CURVES
100
AcDbLine
 62
4
  6
CONTINUOUS
 10
8.8834010841
 20
10.1169667228
 11
8.8780968341
 21
10.1098943893
  0
LINE
  5
2D2
100
AcDbEntity
  8
03__ASM_ALL_CURVES
100
AcDbLine
 62
4
  6
CONTINUOUS
 10
8.7720118341
 20
10.1806177241
 11
8.7826203341
 21
10.1876900558
  0
LINE
  5
2D3
100
AcDbEntity
  8
03__ASM_ALL_CURVES
100
AcDbLine
 62
4
  6
CONTINUOUS
 10
8.8568798341
 20
10.1806177241
 11
8.8674883341
 21
10.1876900558
  0
LINE
  5
2D4
100
AcDbEntity
  8
03__ASM_ALL_CURVES
100
AcDbLine
 62
4
  6
CONTINUOUS
 10
8.7932288341
 20
10.1098943893
 11
8.7826203341
 21
10.1028220558
  0
LINE
  5
2D5
100
AcDbEntity
  8
03__ASM_ALL_CURVES
100
AcDbLine
 62
4
  6
CONTINUOUS
 10
8.8780968341
 20
10.1098943893
 11
8.8674883341
 21
10.1028220558
  0
LINE
  5
2D6
100
AcDbEntity
  8
03__ASM_ALL_CURVES
100
AcDbLine
 62
4
  6
CONTINUOUS
 10
8.4272355841
 20
10.1452560558
 11
8.4431483341
 21
10.1523283874
  0
LINE
  5
2D7
100
AcDbEntity
  8
03__ASM_ALL_CURVES
100
AcDbLine
 62
4
  6
CONTINUOUS
 10
8.7667075841
 20
10.1452560558
 11
8.7826203341
 21
10.1523283874
  0
LINE
  5
2D8
100
AcDbEntity
  8
03__ASM_ALL_CURVES
100
AcDbLine
 62
4
  6
CONTINUOUS
 10
8.8515755841
 20
10.1452560558
 11
8.8674883341
 21
10.1523283874
  0
LINE
  5
2D9
100
AcDbEntity
  8
03__ASM_ALL_CURVES
100
AcDbLine
 62
4
  6
CONTINUOUS
 10
9.6595896657
 20
6.9898310558
 11
9.6878789999
 21
6.9898310558
  0
LINE
  5
2DA
100
AcDbEntity
  8
03__ASM_ALL_CURVES
100
AcDbLine
 62
4
  6
CONTINUOUS
 10
12.2074450024
 20
6.9898310558
 11
12.2215896657
 21
6.9898310558
  0
LINE
  5
2DB
100
AcDbEntity
  8
03__ASM_ALL_CURVES
100
AcDbLine
 62
4
  6
CONTINUOUS
 10
10.9786620024
 20
7.0640905558
 11
10.9928066683
 21
7.0640905558
  0
LINE
  5
2DC
100
AcDbEntity
  8
03__ASM_ALL_CURVES
100
AcDbLine
 62
4
  6
CONTINUOUS
 10
12.2286620024
 20
7.0640905558
 11
12.2428066683
 21
7.0640905558
  0
LINE
  5
2DD
100
AcDbEntity
  8
03__ASM_ALL_CURVES
100
AcDbLine
 62
4
  6
CONTINUOUS
 10
12.1933003341
 20
6.7034015558
 11
12.2286620024
 21
6.6980973058
  0
LINE
  5
2DE
100
AcDbEntity
  8
03__ASM_ALL_CURVES
100
AcDbLine
 62
4
  6
CONTINUOUS
 10
11.0281683341
 20
6.9686140558
 11
10.9928066683
 21
6.9739183058
  0
LINE
  5
2DF
100
AcDbEntity
  8
03__ASM_ALL_CURVES
100
AcDbLine
 62
4
  6
CONTINUOUS
 10
12.2074450024
 20
6.5389698058
 11
12.2286620024
 21
6.5336655558
  0
LINE
  5
2E0
100
AcDbEntity
  8
03__ASM_ALL_CURVES
100
AcDbLine
 62
4
  6
CONTINUOUS
 10
11.0069513341
 20
6.8678333058
 11
11.0281683341
 21
6.8625290558
  0
LINE
  5
2E1
100
AcDbEntity
  8
03__ASM_ALL_CURVES
100
AcDbLine
 62
4
  6
CONTINUOUS
 10
9.6878789999
 20
6.9898310558
 11
9.702023667
 21
6.9845268058
  0
LINE
  5
2E2
100
AcDbEntity
  8
03__ASM_ALL_CURVES
100
AcDbLine
 62
4
  6
CONTINUOUS
 10
7.9339403341
 20
8.1968220558
 11
7.9233318341
 21
8.2038943893
  0
LINE
  5
2E3
100
AcDbEntity
  8
03__ASM_ALL_CURVES
100
AcDbLine
 62
4
  6
CONTINUOUS
 10
9.6454450024
 20
6.9527013058
 11
9.6383726657
 21
6.9580055558
  0
LINE
  5
2E4
100
AcDbEntity
  8
03__ASM_ALL_CURVES
100
AcDbLine
 62
4
  6
CONTINUOUS
 10
9.702023667
 20
6.9845268058
 11
9.7090960006
 21
6.9792225558
  0
LINE
  5
2E5
100
AcDbEntity
  8
03__ASM_ALL_CURVES
100
AcDbLine
 62
4
  6
CONTINUOUS
 10
8.4325398341
 20
7.9848943893
 11
8.4272355841
 21
7.9919667228
  0
LINE
  5
2E6
100
AcDbEntity
  8
03__ASM_ALL_CURVES
100
AcDbLine
 62
4
  6
CONTINUOUS
 10
8.4537568341
 20
8.0556177241
 11
8.4590610841
 21
8.0485453874
  0
LINE
  5
2E7
100
AcDbEntity
  8
03__ASM_ALL_CURVES
100
AcDbLine
 62
4
  6
CONTINUOUS
 10
8.3529760841
 20
8.2109667228
 11
8.3635845841
 21
8.1968220558
  0
LINE
  5
2E8
100
AcDbEntity
  8
03__ASM_ALL_CURVES
100
AcDbLine
 62
4
  6
CONTINUOUS
 10
8.5412769591
 20
7.9884305561
 11
8.5492333341
 21
7.9778220558
  0
LINE
  5
2E9
100
AcDbEntity
  8
03__ASM_ALL_CURVES
100
AcDbLine
 62
4
  6
CONTINUOUS
 10
8.5969715841
 20
7.9848943893
 11
8.5916673341
 21
7.9919667228
  0
LINE
  5
2EA
100
AcDbEntity
  8
03__ASM_ALL_CURVES
100
AcDbLine
 62
4
  6
CONTINUOUS
 10
8.4272355841
 20
7.9919667228
 11
8.4219313341
 21
8.0061113899
  0
LINE
  5
2EB
100
AcDbEntity
  8
03__ASM_ALL_CURVES
100
AcDbLine
 62
4
  6
CONTINUOUS
 10
8.4590610841
 20
8.0485453874
 11
8.4643653341
 21
8.0344007241
  0
LINE
  5
2EC
100
AcDbEntity
  8
03__ASM_ALL_CURVES
100
AcDbLine
 62
4
  6
CONTINUOUS
 10
8.3476718341
 20
8.2321837216
 11
8.3529760841
 21
8.2109667228
  0
LINE
  5
2ED
100
AcDbEntity
  8
03__ASM_ALL_CURVES
100
AcDbLine
 62
4
  6
CONTINUOUS
 10
8.3715409591
 20
10.1028220558
 11
8.3715409591
 21
10.1134305561
  0
LINE
  5
2EE
100
AcDbEntity
  8
03__ASM_ALL_CURVES
100
AcDbLine
 62
4
  6
CONTINUOUS
 10
8.3794973341
 20
11.6284007241
 11
8.3794973341
 21
11.6001113899
  0
LINE
  5
2EF
100
AcDbEntity
  8
03__ASM_ALL_CURVES
100
AcDbLine
 62
4
  6
CONTINUOUS
 10
8.3794973341
 20
11.0485453874
 11
8.3794973341
 21
11.0414730558
  0
LINE
  5
2F0
100
AcDbEntity
  8
03__ASM_ALL_CURVES
100
AcDbLine
 62
4
  6
CONTINUOUS
 10
8.3848015841
 20
11.0061113899
 11
8.3848015841
 21
10.9990390558
  0
LINE
  5
2F1
100
AcDbEntity
  8
03__ASM_ALL_CURVES
100
AcDbLine
 62
4
  6
CONTINUOUS
 10
8.4219313341
 20
8.0061113899
 11
8.4219313341
 21
8.0344007241
  0
LINE
  5
2F2
100
AcDbEntity
  8
03__ASM_ALL_CURVES
100
AcDbLine
 62
4
  6
CONTINUOUS
 10
8.4219313341
 20
10.1311113899
 11
8.4219313341
 21
10.1594007241
  0
LINE
  5
2F3
100
AcDbEntity
  8
03__ASM_ALL_CURVES
100
AcDbLine
 62
4
  6
CONTINUOUS
 10
8.4431483341
 20
8.2816900558
 11
8.4431483341
 21
8.1968220558
  0
LINE
  5
2F4
100
AcDbEntity
  8
03__ASM_ALL_CURVES
100
AcDbLine
 62
4
  6
CONTINUOUS
 10
8.4564089591
 20
10.9778220558
 11
8.4564089591
 21
10.9884305561
  0
LINE
  5
2F5
100
AcDbEntity
  8
03__ASM_ALL_CURVES
100
AcDbLine
 62
4
  6
CONTINUOUS
 10
8.4643653341
 20
11.6284007241
 11
8.4643653341
 21
11.6001113899
  0
LINE
  5
2F6
100
AcDbEntity
  8
03__ASM_ALL_CURVES
100
AcDbLine
 62
4
  6
CONTINUOUS
 10
8.4643653341
 20
8.0344007241
 11
8.4643653341
 21
8.0061113899
  0
LINE
  5
2F7
100
AcDbEntity
  8
03__ASM_ALL_CURVES
100
AcDbLine
 62
4
  6
CONTINUOUS
 10
8.5014950841
 20
8.2180390558
 11
8.5014950841
 21
8.2251113899
  0
LINE
  5
2F8
100
AcDbEntity
  8
03__ASM_ALL_CURVES
100
AcDbLine
 62
4
  6
CONTINUOUS
 10
8.5067993341
 20
8.2604730558
 11
8.5067993341
 21
8.2675453874
  0
LINE
  5
2F9
100
AcDbEntity
  8
03__ASM_ALL_CURVES
100
AcDbLine
 62
4
  6
CONTINUOUS
 10
8.5412769591
 20
7.9778220558
 11
8.5412769591
 21
7.9884305561
  0
LINE
  5
2FA
100
AcDbEntity
  8
03__ASM_ALL_CURVES
100
AcDbLine
 62
4
  6
CONTINUOUS
 10
8.5492333341
 20
10.1735453874
 11
8.5492333341
 21
10.1594007241
  0
LINE
  5
2FB
100
AcDbEntity
  8
03__ASM_ALL_CURVES
100
AcDbLine
 62
4
  6
CONTINUOUS
 10
8.5492333341
 20
8.2675453874
 11
8.5492333341
 21
8.2604730558
  0
LINE
  5
2FC
100
AcDbEntity
  8
03__ASM_ALL_CURVES
100
AcDbLine
 62
4
  6
CONTINUOUS
 10
8.5545375841
 20
8.2251113899
 11
8.5545375841
 21
8.2180390558
  0
LINE
  5
2FD
100
AcDbEntity
  8
03__ASM_ALL_CURVES
100
AcDbLine
 62
4
  6
CONTINUOUS
 10
8.6022758341
 20
11.6213283874
 11
8.6022758341
 21
11.6071837216
  0
LINE
  5
2FE
100
AcDbEntity
  8
03__ASM_ALL_CURVES
100
AcDbLine
 62
4
  6
CONTINUOUS
 10
8.6924480841
 20
10.1735453874
 11
8.6871438341
 21
10.1523283874
  0
LINE
  5
2FF
100
AcDbEntity
  8
03__ASM_ALL_CURVES
100
AcDbLine
 62
4
  6
CONTINUOUS
 10
8.3529760841
 20
8.2675453874
 11
8.3476718341
 21
8.2463283874
  0
LINE
  5
300
100
AcDbEntity
  8
03__ASM_ALL_CURVES
100
AcDbLine
 62
4
  6
CONTINUOUS
 10
9.2175688341
 20
11.6071837216
 11
9.2122645841
 21
11.5859667228
  0
LINE
  5
301
100
AcDbEntity
  8
03__ASM_ALL_CURVES
100
AcDbLine
 62
4
  6
CONTINUOUS
 10
8.7614033341
 20
10.1594007241
 11
8.7667075841
 21
10.1735453874
  0
LINE
  5
302
100
AcDbEntity
  8
03__ASM_ALL_CURVES
100
AcDbLine
 62
4
  6
CONTINUOUS
 10
8.7614033341
 20
10.1311113899
 11
8.7667075841
 21
10.1452560558
  0
LINE
  5
303
100
AcDbEntity
  8
03__ASM_ALL_CURVES
100
AcDbLine
 62
4
  6
CONTINUOUS
 10
9.1008753341
 20
11.0344007241
 11
9.1061795841
 21
11.0485453874
  0
LINE
  5
304
100
AcDbEntity
  8
03__ASM_ALL_CURVES
100
AcDbLine
 62
4
  6
CONTINUOUS
 10
8.8038373341
 20
10.1311113899
 11
8.7985330841
 21
10.1169667228
  0
LINE
  5
305
100
AcDbEntity
  8
03__ASM_ALL_CURVES
100
AcDbLine
 62
4
  6
CONTINUOUS
 10
9.1433093341
 20
11.0344007241
 11
9.1380050841
 21
11.0202560558
  0
LINE
  5
306
100
AcDbEntity
  8
03__ASM_ALL_CURVES
100
AcDbLine
 62
4
  6
CONTINUOUS
 10
9.1433093341
 20
11.0061113899
 11
9.1380050841
 21
10.9919667228
  0
LINE
  5
307
100
AcDbEntity
  8
03__ASM_ALL_CURVES
100
AcDbLine
 62
4
  6
CONTINUOUS
 10
8.1142848341
 20
8.2534007241
 11
8.1248933341
 21
8.2816900558
  0
LINE
  5
308
100
AcDbEntity
  8
03__ASM_ALL_CURVES
100
AcDbLine
 62
4
  6
CONTINUOUS
 10
8.8462713341
 20
10.1594007241
 11
8.8515755841
 21
10.1735453874
  0
LINE
  5
309
100
AcDbEntity
  8
03__ASM_ALL_CURVES
100
AcDbLine
 62
4
  6
CONTINUOUS
 10
8.8462713341
 20
10.1311113899
 11
8.8515755841
 21
10.1452560558
  0
LINE
  5
30A
100
AcDbEntity
  8
03__ASM_ALL_CURVES
100
AcDbLine
 62
4
  6
CONTINUOUS
 10
8.8887053341
 20
10.1311113899
 11
8.8834010841
 21
10.1169667228
  0
LINE
  5
30B
100
AcDbEntity
  8
03__ASM_ALL_CURVES
100
AcDbLine
 62
4
  6
CONTINUOUS
 10
9.1380050841
 20
10.1876900558
 11
9.1008753341
 21
10.1240390558
  0
LINE
  5
30C
100
AcDbEntity
  8
03__ASM_ALL_CURVES
100
AcDbLine
 62
4
  6
CONTINUOUS
 10
9.0584413341
 20
10.1169667228
 11
9.0531370841
 21
10.1098943893
  0
LINE
  5
30D
100
AcDbEntity
  8
03__ASM_ALL_CURVES
100
AcDbLine
 62
4
  6
CONTINUOUS
 10
9.0213115841
 20
10.1523283874
 11
9.0319200841
 21
10.1594007241
  0
LINE
  5
30E
100
AcDbEntity
  8
03__ASM_ALL_CURVES
100
AcDbLine
 62
4
  6
CONTINUOUS
 10
9.0531370841
 20
10.1098943893
 11
9.0425285841
 21
10.1028220558
  0
LINE
  5
30F
100
AcDbEntity
  8
03__ASM_ALL_CURVES
100
AcDbLine
 62
4
  6
CONTINUOUS
 10
10.9928066683
 20
6.9739183058
 11
10.9715896657
 21
6.9792225558
  0
LINE
  5
310
100
AcDbEntity
  8
03__ASM_ALL_CURVES
100
AcDbLine
 62
4
  6
CONTINUOUS
 10
10.9928066683
 20
7.0640905558
 11
11.014023667
 21
7.0587863058
  0
LINE
  5
311
100
AcDbEntity
  8
03__ASM_ALL_CURVES
100
AcDbLine
 62
4
  6
CONTINUOUS
 10
12.2498789999
 20
6.3161913058
 11
12.264023667
 21
6.3108870558
  0
LINE
  5
312
100
AcDbEntity
  8
03__ASM_ALL_CURVES
100
AcDbLine
 62
4
  6
CONTINUOUS
 10
12.2215896657
 20
6.3533210558
 11
12.2074450024
 21
6.3586253058
  0
LINE
  5
313
100
AcDbEntity
  8
03__ASM_ALL_CURVES
100
AcDbLine
 62
4
  6
CONTINUOUS
 10
12.2498789999
 20
6.3533210558
 11
12.2357343341
 21
6.3586253058
  0
LINE
  5
314
100
AcDbEntity
  8
03__ASM_ALL_CURVES
100
AcDbLine
 62
4
  6
CONTINUOUS
 10
12.2498789999
 20
6.3957550558
 11
12.264023667
 21
6.3904508058
  0
LINE
  5
315
100
AcDbEntity
  8
03__ASM_ALL_CURVES
100
AcDbLine
 62
4
  6
CONTINUOUS
 10
10.9715896657
 20
6.9792225558
 11
10.9433003341
 21
6.9898310558
  0
LINE
  5
316
100
AcDbEntity
  8
03__ASM_ALL_CURVES
100
AcDbLine
 62
4
  6
CONTINUOUS
 10
9.1220923341
 20
7.4778220558
 11
9.1114838341
 21
7.4848943893
  0
LINE
  5
317
100
AcDbEntity
  8
03__ASM_ALL_CURVES
100
AcDbLine
 62
4
  6
CONTINUOUS
 10
7.9339403341
 20
8.2816900558
 11
7.9445488341
 21
8.2746177241
  0
LINE
  5
318
100
AcDbEntity
  8
03__ASM_ALL_CURVES
100
AcDbLine
 62
4
  6
CONTINUOUS
 10
8.4431483341
 20
7.9778220558
 11
8.4325398341
 21
7.9848943893
  0
LINE
  5
319
100
AcDbEntity
  8
03__ASM_ALL_CURVES
100
AcDbLine
 62
4
  6
CONTINUOUS
 10
9.1220923341
 20
7.5626900558
 11
9.1327008341
 21
7.5556177241
  0
LINE
  5
31A
100
AcDbEntity
  8
03__ASM_ALL_CURVES
100
AcDbLine
 62
4
  6
CONTINUOUS
 10
8.4431483341
 20
8.0626900558
 11
8.4537568341
 21
8.0556177241
  0
LINE
  5
31B
100
AcDbEntity
  8
03__ASM_ALL_CURVES
100
AcDbLine
 62
4
  6
CONTINUOUS
 10
8.6075800841
 20
7.9778220558
 11
8.5969715841
 21
7.9848943893
  0
LINE
  5
31C
100
AcDbEntity
  8
03__ASM_ALL_CURVES
100
AcDbLine
 62
4
  6
CONTINUOUS
 10
8.6181885841
 20
8.0344007241
 11
8.6287970841
 21
8.0273283874
  0
LINE
  5
31D
100
AcDbEntity
  8
03__ASM_ALL_CURVES
100
AcDbLine
 62
4
  6
CONTINUOUS
 10
10.9645173341
 20
6.3108870558
 11
10.9715896657
 21
6.3055828058
  0
LINE
  5
31E
100
AcDbEntity
  8
03__ASM_ALL_CURVES
100
AcDbLine
 62
4
  6
CONTINUOUS
 10
11.0069513341
 20
6.3161913058
 11
11.0210960006
 21
6.3055828058
  0
LINE
  5
31F
100
AcDbEntity
  8
03__ASM_ALL_CURVES
100
AcDbLine
 62
4
  6
CONTINUOUS
 10
8.6287970841
 20
8.0273283874
 11
8.6341013341
 21
8.0202560558
  0
LINE
  5
320
100
AcDbEntity
  8
03__ASM_ALL_CURVES
100
AcDbLine
 62
4
  6
CONTINUOUS
 10
8.5121035841
 20
8.2038943893
 11
8.5014950841
 21
8.2180390558
  0
LINE
  5
321
100
AcDbEntity
  8
03__ASM_ALL_CURVES
100
AcDbLine
 62
4
  6
CONTINUOUS
 10
8.5121035841
 20
8.2534007241
 11
8.5067993341
 21
8.2604730558
  0
LINE
  5
322
100
AcDbEntity
  8
03__ASM_ALL_CURVES
100
AcDbLine
 62
4
  6
CONTINUOUS
 10
8.5439290841
 20
8.2392560558
 11
8.5545375841
 21
8.2251113899
  0
LINE
  5
323
100
AcDbEntity
  8
03__ASM_ALL_CURVES
100
AcDbLine
 62
4
  6
CONTINUOUS
 10
9.1114838341
 20
7.4848943893
 11
9.1061795841
 21
7.4919667228
  0
LINE
  5
324
100
AcDbEntity
  8
03__ASM_ALL_CURVES
100
AcDbLine
 62
4
  6
CONTINUOUS
 10
8.5439290841
 20
8.2746177241
 11
8.5492333341
 21
8.2675453874
  0
LINE
  5
325
100
AcDbEntity
  8
03__ASM_ALL_CURVES
100
AcDbLine
 62
4
  6
CONTINUOUS
 10
8.7773160841
 20
7.9919667228
 11
8.7879245841
 21
7.9778220558
  0
LINE
  5
326
100
AcDbEntity
  8
03__ASM_ALL_CURVES
100
AcDbLine
 62
4
  6
CONTINUOUS
 10
8.6261449591
 20
8.2074305561
 11
8.6341013341
 21
8.1968220558
  0
LINE
  5
327
100
AcDbEntity
  8
03__ASM_ALL_CURVES
100
AcDbLine
 62
4
  6
CONTINUOUS
 10
9.1327008341
 20
7.5556177241
 11
9.1380050841
 21
7.5485453874
  0
LINE
  5
328
100
AcDbEntity
  8
03__ASM_ALL_CURVES
100
AcDbLine
 62
4
  6
CONTINUOUS
 10
8.6871438341
 20
8.2038943893
 11
8.6818395841
 21
8.2109667228
  0
LINE
  5
329
100
AcDbEntity
  8
03__ASM_ALL_CURVES
100
AcDbLine
 62
4
  6
CONTINUOUS
 10
8.6341013341
 20
8.0202560558
 11
8.6394055841
 21
8.0061113899
  0
LINE
  5
32A
100
AcDbEntity
  8
03__ASM_ALL_CURVES
100
AcDbLine
 62
4
  6
CONTINUOUS
 10
8.6818395841
 20
8.2109667228
 11
8.6765353341
 21
8.2251113899
  0
LINE
  5
32B
100
AcDbEntity
  8
03__ASM_ALL_CURVES
100
AcDbLine
 62
4
  6
CONTINUOUS
 10
8.7136650841
 20
8.2675453874
 11
8.7189693341
 21
8.2534007241
  0
LINE
  5
32C
100
AcDbEntity
  8
03__ASM_ALL_CURVES
100
AcDbLine
 62
4
  6
CONTINUOUS
 10
8.7720118341
 20
8.0131837216
 11
8.7773160841
 21
7.9919667228
  0
LINE
  5
32D
100
AcDbEntity
  8
03__ASM_ALL_CURVES
100
AcDbLine
 62
4
  6
CONTINUOUS
 10
8.6261449591
 20
8.1968220558
 11
8.6261449591
 21
8.2074305561
  0
LINE
  5
32E
100
AcDbEntity
  8
03__ASM_ALL_CURVES
100
AcDbLine
 62
4
  6
CONTINUOUS
 10
8.6765353341
 20
8.2251113899
 11
8.6765353341
 21
8.2534007241
  0
LINE
  5
32F
100
AcDbEntity
  8
03__ASM_ALL_CURVES
100
AcDbLine
 62
4
  6
CONTINUOUS
 10
8.6871438341
 20
11.0273283874
 11
8.6871438341
 21
11.0131837216
  0
LINE
  5
330
100
AcDbEntity
  8
03__ASM_ALL_CURVES
100
AcDbLine
 62
4
  6
CONTINUOUS
 10
8.6871438341
 20
10.1523283874
 11
8.6871438341
 21
10.1381837216
  0
LINE
  5
331
100
AcDbEntity
  8
03__ASM_ALL_CURVES
100
AcDbLine
 62
4
  6
CONTINUOUS
 10
8.6977523341
 20
11.6566900558
 11
8.6977523341
 21
11.5718220558
  0
LINE
  5
332
100
AcDbEntity
  8
03__ASM_ALL_CURVES
100
AcDbLine
 62
4
  6
CONTINUOUS
 10
8.7189693341
 20
8.2534007241
 11
8.7189693341
 21
8.2251113899
  0
LINE
  5
333
100
AcDbEntity
  8
03__ASM_ALL_CURVES
100
AcDbLine
 62
4
  6
CONTINUOUS
 10
8.7560990841
 20
10.9990390558
 11
8.7560990841
 21
11.0061113899
  0
LINE
  5
334
100
AcDbEntity
  8
03__ASM_ALL_CURVES
100
AcDbLine
 62
4
  6
CONTINUOUS
 10
8.7614033341
 20
10.1311113899
 11
8.7614033341
 21
10.1594007241
  0
LINE
  5
335
100
AcDbEntity
  8
03__ASM_ALL_CURVES
100
AcDbLine
 62
4
  6
CONTINUOUS
 10
8.7614033341
 20
11.0414730558
 11
8.7614033341
 21
11.0485453874
  0
LINE
  5
336
100
AcDbEntity
  8
03__ASM_ALL_CURVES
100
AcDbLine
 62
4
  6
CONTINUOUS
 10
8.7614033341
 20
11.6001113899
 11
8.7614033341
 21
11.6284007241
  0
LINE
  5
337
100
AcDbEntity
  8
03__ASM_ALL_CURVES
100
AcDbLine
 62
4
  6
CONTINUOUS
 10
8.7720118341
 20
8.0273283874
 11
8.7720118341
 21
8.0131837216
  0
LINE
  5
338
100
AcDbEntity
  8
03__ASM_ALL_CURVES
100
AcDbLine
 62
4
  6
CONTINUOUS
 10
8.8038373341
 20
11.6284007241
 11
8.8038373341
 21
11.6001113899
  0
LINE
  5
339
100
AcDbEntity
  8
03__ASM_ALL_CURVES
100
AcDbLine
 62
4
  6
CONTINUOUS
 10
8.8038373341
 20
11.0485453874
 11
8.8038373341
 21
11.0414730558
  0
LINE
  5
33A
100
AcDbEntity
  8
03__ASM_ALL_CURVES
100
AcDbLine
 62
4
  6
CONTINUOUS
 10
8.8038373341
 20
8.2675453874
 11
8.8038373341
 21
8.2604730558
  0
LINE
  5
33B
100
AcDbEntity
  8
03__ASM_ALL_CURVES
100
AcDbLine
 62
4
  6
CONTINUOUS
 10
8.8091415841
 20
11.0061113899
 11
8.8091415841
 21
10.9990390558
  0
LINE
  5
33C
100
AcDbEntity
  8
03__ASM_ALL_CURVES
100
AcDbLine
 62
4
  6
CONTINUOUS
 10
8.8091415841
 20
8.2251113899
 11
8.8091415841
 21
8.2180390558
  0
LINE
  5
33D
100
AcDbEntity
  8
03__ASM_ALL_CURVES
100
AcDbLine
 62
4
  6
CONTINUOUS
 10
8.8409670841
 20
10.9990390558
 11
8.8409670841
 21
11.0061113899
  0
LINE
  5
33E
100
AcDbEntity
  8
03__ASM_ALL_CURVES
100
AcDbLine
 62
4
  6
CONTINUOUS
 10
8.8462713341
 20
10.1311113899
 11
8.8462713341
 21
10.1594007241
  0
LINE
  5
33F
100
AcDbEntity
  8
03__ASM_ALL_CURVES
100
AcDbLine
 62
4
  6
CONTINUOUS
 10
8.8462713341
 20
11.0414730558
 11
8.8462713341
 21
11.0485453874
  0
LINE
  5
340
100
AcDbEntity
  8
03__ASM_ALL_CURVES
100
AcDbLine
 62
4
  6
CONTINUOUS
 10
8.6022758341
 20
8.0626900558
 11
8.5969715841
 21
8.0273283874
  0
LINE
  5
341
100
AcDbEntity
  8
03__ASM_ALL_CURVES
100
AcDbLine
 62
4
  6
CONTINUOUS
 10
9.0266158341
 20
10.1876900558
 11
9.0213115841
 21
10.1523283874
  0
LINE
  5
342
100
AcDbEntity
  8
03__ASM_ALL_CURVES
100
AcDbLine
 62
4
  6
CONTINUOUS
 10
9.2175688341
 20
11.0131837216
 11
9.2122645841
 21
10.9919667228
  0
LINE
  5
343
100
AcDbEntity
  8
03__ASM_ALL_CURVES
100
AcDbLine
 62
4
  6
CONTINUOUS
 10
9.0637455841
 20
10.1311113899
 11
9.0584413341
 21
10.1169667228
  0
LINE
  5
344
100
AcDbEntity
  8
03__ASM_ALL_CURVES
100
AcDbLine
 62
4
  6
CONTINUOUS
 10
8.4219313341
 20
8.0344007241
 11
8.4272355841
 21
8.0485453874
  0
LINE
  5
345
100
AcDbEntity
  8
03__ASM_ALL_CURVES
100
AcDbLine
 62
4
  6
CONTINUOUS
 10
9.2122645841
 20
10.1169667228
 11
9.2016560841
 21
10.1028220558
  0
LINE
  5
346
100
AcDbEntity
  8
03__ASM_ALL_CURVES
100
AcDbLine
 62
4
  6
CONTINUOUS
 10
7.9180275841
 20
8.2675453874
 11
7.9233318341
 21
8.2746177241
  0
LINE
  5
347
100
AcDbEntity
  8
03__ASM_ALL_CURVES
100
AcDbLine
 62
4
  6
CONTINUOUS
 10
7.9498530841
 20
8.2109667228
 11
7.9445488341
 21
8.2038943893
  0
LINE
  5
348
100
AcDbEntity
  8
03__ASM_ALL_CURVES
100
AcDbLine
 62
4
  6
CONTINUOUS
 10
9.5888663341
 20
7.5202560558
 11
9.3342623341
 21
7.5202560558
  0
LINE
  5
349
100
AcDbEntity
  8
0
100
AcDbLine
 62
7
  6
CONTINUOUS
 10
9.6737343341
 20
7.5202560558
 11
12.2357343703
 21
7.5202560558
  0
LINE
  5
34A
100
AcDbEntity
  8
03__ASM_ALL_CURVES
100
AcDbLine
 62
4
  6
CONTINUOUS
 10
12.2569513341
 20
6.9527013058
 11
12.2781683341
 21
6.9473970558
  0
LINE
  5
34B
100
AcDbEntity
  8
03__ASM_ALL_CURVES
100
AcDbLine
 62
4
  6
CONTINUOUS
 10
12.2428066683
 20
7.0640905558
 11
12.264023667
 21
7.0587863058
  0
LINE
  5
34C
100
AcDbEntity
  8
03__ASM_ALL_CURVES
100
AcDbLine
 62
4
  6
CONTINUOUS
 10
12.2215896657
 20
6.6079250558
 11
12.2074450024
 21
6.6132293058
  0
LINE
  5
34D
100
AcDbEntity
  8
03__ASM_ALL_CURVES
100
AcDbLine
 62
4
  6
CONTINUOUS
 10
12.2498789999
 20
6.6079250558
 11
12.2357343341
 21
6.6132293058
  0
LINE
  5
34E
100
AcDbEntity
  8
03__ASM_ALL_CURVES
100
AcDbLine
 62
4
  6
CONTINUOUS
 10
12.2498789999
 20
6.6503590558
 11
12.264023667
 21
6.6450548058
  0
LINE
  5
34F
100
AcDbEntity
  8
03__ASM_ALL_CURVES
100
AcDbLine
 62
4
  6
CONTINUOUS
 10
12.2498789999
 20
6.7405313058
 11
12.264023667
 21
6.7352270558
  0
LINE
  5
350
100
AcDbEntity
  8
03__ASM_ALL_CURVES
100
AcDbLine
 62
4
  6
CONTINUOUS
 10
8.5227120841
 20
8.1968220558
 11
8.5121035841
 21
8.2038943893
  0
LINE
  5
351
100
AcDbEntity
  8
03__ASM_ALL_CURVES
100
AcDbLine
 62
4
  6
CONTINUOUS
 10
8.5227120841
 20
8.2463283874
 11
8.5121035841
 21
8.2534007241
  0
LINE
  5
352
100
AcDbEntity
  8
03__ASM_ALL_CURVES
100
AcDbLine
 62
4
  6
CONTINUOUS
 10
8.5333205841
 20
8.2463283874
 11
8.5439290841
 21
8.2392560558
  0
LINE
  5
353
100
AcDbEntity
  8
03__ASM_ALL_CURVES
100
AcDbLine
 62
4
  6
CONTINUOUS
 10
8.5333205841
 20
8.2816900558
 11
8.5439290841
 21
8.2746177241
  0
LINE
  5
354
100
AcDbEntity
  8
03__ASM_ALL_CURVES
100
AcDbLine
 62
4
  6
CONTINUOUS
 10
8.6977523341
 20
8.1968220558
 11
8.6871438341
 21
8.2038943893
  0
LINE
  5
355
100
AcDbEntity
  8
03__ASM_ALL_CURVES
100
AcDbLine
 62
4
  6
CONTINUOUS
 10
8.9576605841
 20
8.0626900558
 11
8.9682690841
 21
8.0556177241
  0
LINE
  5
356
100
AcDbEntity
  8
03__ASM_ALL_CURVES
100
AcDbLine
 62
4
  6
CONTINUOUS
 10
8.7773160841
 20
8.1968220558
 11
8.7667075841
 21
8.2038943893
  0
LINE
  5
357
100
AcDbEntity
  8
03__ASM_ALL_CURVES
100
AcDbLine
 62
4
  6
CONTINUOUS
 10
8.6977523341
 20
8.2816900558
 11
8.7083608341
 21
8.2746177241
  0
LINE
  5
358
100
AcDbEntity
  8
03__ASM_ALL_CURVES
100
AcDbLine
 62
4
  6
CONTINUOUS
 10
8.7879245841
 20
8.2463283874
 11
8.7985330841
 21
8.2392560558
  0
LINE
  5
359
100
AcDbEntity
  8
03__ASM_ALL_CURVES
100
AcDbLine
 62
4
  6
CONTINUOUS
 10
10.9433003341
 20
6.5495783058
 11
10.9574450024
 21
6.5389698058
  0
LINE
  5
35A
100
AcDbEntity
  8
03__ASM_ALL_CURVES
100
AcDbLine
 62
4
  6
CONTINUOUS
 10
10.9645173341
 20
6.6503590558
 11
10.9715896657
 21
6.6450548058
  0
LINE
  5
35B
100
AcDbEntity
  8
03__ASM_ALL_CURVES
100
AcDbLine
 62
4
  6
CONTINUOUS
 10
8.7083608341
 20
8.2746177241
 11
8.7136650841
 21
8.2675453874
  0
LINE
  5
35C
100
AcDbEntity
  8
03__ASM_ALL_CURVES
100
AcDbLine
 62
4
  6
CONTINUOUS
 10
8.7667075841
 20
8.2038943893
 11
8.7614033341
 21
8.2109667228
  0
LINE
  5
35D
100
AcDbEntity
  8
03__ASM_ALL_CURVES
100
AcDbLine
 62
4
  6
CONTINUOUS
 10
8.7985330841
 20
8.2392560558
 11
8.8091415841
 21
8.2251113899
  0
LINE
  5
35E
100
AcDbEntity
  8
03__ASM_ALL_CURVES
100
AcDbLine
 62
4
  6
CONTINUOUS
 10
8.7985330841
 20
8.2746177241
 11
8.8038373341
 21
8.2675453874
  0
LINE
  5
35F
100
AcDbEntity
  8
03__ASM_ALL_CURVES
100
AcDbLine
 62
4
  6
CONTINUOUS
 10
8.9682690841
 20
8.0556177241
 11
8.9735733341
 21
8.0485453874
  0
LINE
  5
360
100
AcDbEntity
  8
03__ASM_ALL_CURVES
100
AcDbLine
 62
4
  6
CONTINUOUS
 10
9.0504849591
 20
7.9884305561
 11
9.0584413341
 21
7.9778220558
  0
LINE
  5
361
100
AcDbEntity
  8
03__ASM_ALL_CURVES
100
AcDbLine
 62
4
  6
CONTINUOUS
 10
8.8621840841
 20
8.2816900558
 11
8.8727925841
 21
8.2675453874
  0
LINE
  5
362
100
AcDbEntity
  8
03__ASM_ALL_CURVES
100
AcDbLine
 62
4
  6
CONTINUOUS
 10
9.0319200841
 20
8.2109667228
 11
9.0425285841
 21
8.1968220558
  0
LINE
  5
363
100
AcDbEntity
  8
03__ASM_ALL_CURVES
100
AcDbLine
 62
4
  6
CONTINUOUS
 10
9.6383726657
 20
6.9580055558
 11
9.6313003341
 21
6.9686140558
  0
LINE
  5
364
100
AcDbEntity
  8
03__ASM_ALL_CURVES
100
AcDbLine
 62
4
  6
CONTINUOUS
 10
9.7090960006
 20
6.9792225558
 11
9.7161683341
 21
6.9686140558
  0
LINE
  5
365
100
AcDbEntity
  8
03__ASM_ALL_CURVES
100
AcDbLine
 62
4
  6
CONTINUOUS
 10
9.1061795841
 20
7.4919667228
 11
9.1008753341
 21
7.5061113899
  0
LINE
  5
366
100
AcDbEntity
  8
03__ASM_ALL_CURVES
100
AcDbLine
 62
4
  6
CONTINUOUS
 10
9.1380050841
 20
7.5485453874
 11
9.1433093341
 21
7.5344007241
  0
LINE
  5
367
100
AcDbEntity
  8
03__ASM_ALL_CURVES
100
AcDbLine
 62
4
  6
CONTINUOUS
 10
8.8727925841
 20
8.2675453874
 11
8.8780968341
 21
8.2463283874
  0
LINE
  5
368
100
AcDbEntity
  8
03__ASM_ALL_CURVES
100
AcDbLine
 62
4
  6
CONTINUOUS
 10
8.8674883341
 20
8.0626900558
 11
8.8674883341
 21
7.9778220558
  0
LINE
  5
369
100
AcDbEntity
  8
03__ASM_ALL_CURVES
100
AcDbLine
 62
4
  6
CONTINUOUS
 10
8.8780968341
 20
8.2463283874
 11
8.8780968341
 21
8.2321837216
  0
LINE
  5
36A
100
AcDbEntity
  8
03__ASM_ALL_CURVES
100
AcDbLine
 62
4
  6
CONTINUOUS
 10
8.8887053341
 20
11.6425453874
 11
8.8887053341
 21
11.6354730558
  0
LINE
  5
36B
100
AcDbEntity
  8
03__ASM_ALL_CURVES
100
AcDbLine
 62
4
  6
CONTINUOUS
 10
8.8887053341
 20
11.0485453874
 11
8.8887053341
 21
11.0414730558
  0
LINE
  5
36C
100
AcDbEntity
  8
03__ASM_ALL_CURVES
100
AcDbLine
 62
4
  6
CONTINUOUS
 10
8.8940095841
 20
11.6001113899
 11
8.8940095841
 21
11.5930390558
  0
LINE
  5
36D
100
AcDbEntity
  8
03__ASM_ALL_CURVES
100
AcDbLine
 62
4
  6
CONTINUOUS
 10
8.8940095841
 20
11.0061113899
 11
8.8940095841
 21
10.9990390558
  0
LINE
  5
36E
100
AcDbEntity
  8
03__ASM_ALL_CURVES
100
AcDbLine
 62
4
  6
CONTINUOUS
 10
8.9656169591
 20
10.1028220558
 11
8.9656169591
 21
10.1134305561
  0
LINE
  5
36F
100
AcDbEntity
  8
03__ASM_ALL_CURVES
100
AcDbLine
 62
4
  6
CONTINUOUS
 10
8.9656169591
 20
10.9778220558
 11
8.9656169591
 21
10.9884305561
  0
LINE
  5
370
100
AcDbEntity
  8
03__ASM_ALL_CURVES
100
AcDbLine
 62
4
  6
CONTINUOUS
 10
8.9656169591
 20
11.5718220558
 11
8.9656169591
 21
11.5824305561
  0
LINE
  5
371
100
AcDbEntity
  8
03__ASM_ALL_CURVES
100
AcDbLine
 62
4
  6
CONTINUOUS
 10
8.9735733341
 20
8.0485453874
 11
8.9735733341
 21
8.0344007241
  0
LINE
  5
372
100
AcDbEntity
  8
03__ASM_ALL_CURVES
100
AcDbLine
 62
4
  6
CONTINUOUS
 10
9.0107030841
 20
10.9990390558
 11
9.0107030841
 21
11.0061113899
  0
LINE
  5
373
100
AcDbEntity
  8
03__ASM_ALL_CURVES
100
AcDbLine
 62
4
  6
CONTINUOUS
 10
9.0107030841
 20
11.5930390558
 11
9.0107030841
 21
11.6001113899
  0
LINE
  5
374
100
AcDbEntity
  8
03__ASM_ALL_CURVES
100
AcDbLine
 62
4
  6
CONTINUOUS
 10
9.0160073341
 20
11.0414730558
 11
9.0160073341
 21
11.0485453874
  0
LINE
  5
375
100
AcDbEntity
  8
03__ASM_ALL_CURVES
100
AcDbLine
 62
4
  6
CONTINUOUS
 10
9.0160073341
 20
11.6354730558
 11
9.0160073341
 21
11.6425453874
  0
LINE
  5
376
100
AcDbEntity
  8
03__ASM_ALL_CURVES
100
AcDbLine
 62
4
  6
CONTINUOUS
 10
9.0266158341
 20
8.2463283874
 11
9.0266158341
 21
8.2321837216
  0
LINE
  5
377
100
AcDbEntity
  8
03__ASM_ALL_CURVES
100
AcDbLine
 62
4
  6
CONTINUOUS
 10
9.0504849591
 20
7.9778220558
 11
9.0504849591
 21
7.9884305561
  0
LINE
  5
378
100
AcDbEntity
  8
03__ASM_ALL_CURVES
100
AcDbLine
 62
4
  6
CONTINUOUS
 10
9.0584413341
 20
11.6425453874
 11
9.0584413341
 21
11.6354730558
  0
LINE
  5
379
100
AcDbEntity
  8
03__ASM_ALL_CURVES
100
AcDbLine
 62
4
  6
CONTINUOUS
 10
9.0584413341
 20
11.0485453874
 11
9.0584413341
 21
11.0414730558
  0
LINE
  5
37A
100
AcDbEntity
  8
03__ASM_ALL_CURVES
100
AcDbLine
 62
4
  6
CONTINUOUS
 10
9.0637455841
 20
11.6001113899
 11
9.0637455841
 21
11.5930390558
  0
LINE
  5
37B
100
AcDbEntity
  8
03__ASM_ALL_CURVES
100
AcDbLine
 62
4
  6
CONTINUOUS
 10
9.0637455841
 20
11.0061113899
 11
9.0637455841
 21
10.9990390558
  0
LINE
  5
37C
100
AcDbEntity
  8
03__ASM_ALL_CURVES
100
AcDbLine
 62
4
  6
CONTINUOUS
 10
9.2175688341
 20
10.1381837216
 11
9.2122645841
 21
10.1169667228
  0
LINE
  5
37D
100
AcDbEntity
  8
03__ASM_ALL_CURVES
100
AcDbLine
 62
4
  6
CONTINUOUS
 10
8.7773160841
 20
8.0485453874
 11
8.7720118341
 21
8.0273283874
  0
LINE
  5
37E
100
AcDbEntity
  8
03__ASM_ALL_CURVES
100
AcDbLine
 62
4
  6
CONTINUOUS
 10
8.8780968341
 20
8.2321837216
 11
8.8727925841
 21
8.2109667228
  0
LINE
  5
37F
100
AcDbEntity
  8
03__ASM_ALL_CURVES
100
AcDbLine
 62
4
  6
CONTINUOUS
 10
8.4643653341
 20
8.0061113899
 11
8.4590610841
 21
7.9919667228
  0
LINE
  5
380
100
AcDbEntity
  8
03__ASM_ALL_CURVES
100
AcDbLine
 62
4
  6
CONTINUOUS
 10
8.6765353341
 20
8.2534007241
 11
8.6818395841
 21
8.2675453874
  0
LINE
  5
381
100
AcDbEntity
  8
03__ASM_ALL_CURVES
100
AcDbLine
 62
4
  6
CONTINUOUS
 10
8.7189693341
 20
8.2251113899
 11
8.7136650841
 21
8.2109667228
  0
LINE
  5
382
100
AcDbEntity
  8
03__ASM_ALL_CURVES
100
AcDbLine
 62
4
  6
CONTINUOUS
 10
8.6394055841
 20
8.0061113899
 11
8.6341013341
 21
7.9919667228
  0
LINE
  5
383
100
AcDbEntity
  8
03__ASM_ALL_CURVES
100
AcDbLine
 62
4
  6
CONTINUOUS
 10
8.3635845841
 20
8.2816900558
 11
8.3529760841
 21
8.2675453874
  0
LINE
  5
384
100
AcDbEntity
  8
03__ASM_ALL_CURVES
100
AcDbLine
 62
4
  6
CONTINUOUS
 10
9.7792343341
 20
10.0722560555
 11
9.7942343341
 21
10.0822560558
  0
LINE
  5
385
100
AcDbEntity
  8
03__ASM_ALL_CURVES
100
AcDbLine
 62
4
  6
CONTINUOUS
 10
9.8242343341
 20
9.9722560534
 11
9.8092343341
 21
9.9622560558
  0
LINE
  5
386
100
AcDbEntity
  8
03__ASM_ALL_CURVES
100
AcDbLine
 62
4
  6
CONTINUOUS
 10
12.2215896657
 20
6.8625290558
 11
12.2074450024
 21
6.8678333058
  0
LINE
  5
387
100
AcDbEntity
  8
03__ASM_ALL_CURVES
100
AcDbLine
 62
4
  6
CONTINUOUS
 10
12.2498789999
 20
6.9049630558
 11
12.264023667
 21
6.8996588058
  0
LINE
  5
388
100
AcDbEntity
  8
03__ASM_ALL_CURVES
100
AcDbLine
 62
4
  6
CONTINUOUS
 10
8.7879245841
 20
8.2816900558
 11
8.7985330841
 21
8.2746177241
  0
LINE
  5
389
100
AcDbEntity
  8
03__ASM_ALL_CURVES
100
AcDbLine
 62
4
  6
CONTINUOUS
 10
9.2016560841
 20
8.1968220558
 11
9.1910475841
 21
8.2038943893
  0
LINE
  5
38A
100
AcDbEntity
  8
03__ASM_ALL_CURVES
100
AcDbLine
 62
4
  6
CONTINUOUS
 10
9.1910475841
 20
8.2534007241
 11
9.2228730841
 21
8.2321837216
  0
LINE
  5
38B
100
AcDbEntity
  8
03__ASM_ALL_CURVES
100
AcDbLine
 62
4
  6
CONTINUOUS
 10
11.0069513341
 20
6.6556633058
 11
11.0210960006
 21
6.6450548058
  0
LINE
  5
38C
100
AcDbEntity
  8
03__ASM_ALL_CURVES
100
AcDbLine
 62
4
  6
CONTINUOUS
 10
10.9645173341
 20
6.7352270558
 11
10.9715896657
 21
6.7299228058
  0
LINE
  5
38D
100
AcDbEntity
  8
03__ASM_ALL_CURVES
100
AcDbLine
 62
4
  6
CONTINUOUS
 10
11.0069513341
 20
6.7405313058
 11
11.0210960006
 21
6.7299228058
  0
LINE
  5
38E
100
AcDbEntity
  8
03__ASM_ALL_CURVES
100
AcDbLine
 62
4
  6
CONTINUOUS
 10
10.9574450024
 20
6.8625290558
 11
10.9503726657
 21
6.8678333058
  0
LINE
  5
38F
100
AcDbEntity
  8
03__ASM_ALL_CURVES
100
AcDbLine
 62
4
  6
CONTINUOUS
 10
10.9928066683
 20
6.8784418058
 11
11.0069513341
 21
6.8678333058
  0
LINE
  5
390
100
AcDbEntity
  8
03__ASM_ALL_CURVES
100
AcDbLine
 62
4
  6
CONTINUOUS
 10
10.9715896657
 20
6.9049630558
 11
10.9786620024
 21
6.8996588058
  0
LINE
  5
391
100
AcDbEntity
  8
03__ASM_ALL_CURVES
100
AcDbLine
 62
4
  6
CONTINUOUS
 10
9.2016560841
 20
8.0626900558
 11
9.2122645841
 21
8.0485453874
  0
LINE
  5
392
100
AcDbEntity
  8
03__ASM_ALL_CURVES
100
AcDbLine
 62
4
  6
CONTINUOUS
 10
9.1910475841
 20
8.2038943893
 11
9.1804390841
 21
8.2180390558
  0
LINE
  5
393
100
AcDbEntity
  8
03__ASM_ALL_CURVES
100
AcDbLine
 62
4
  6
CONTINUOUS
 10
9.1857433341
 20
8.2604730558
 11
9.1910475841
 21
8.2534007241
  0
LINE
  5
394
100
AcDbEntity
  8
03__ASM_ALL_CURVES
100
AcDbLine
 62
4
  6
CONTINUOUS
 10
9.2228730841
 20
8.2321837216
 11
9.2281773341
 21
8.2251113899
  0
LINE
  5
395
100
AcDbEntity
  8
03__ASM_ALL_CURVES
100
AcDbLine
 62
4
  6
CONTINUOUS
 10
9.2281773341
 20
8.2675453874
 11
9.2228730841
 21
8.2746177241
  0
LINE
  5
396
100
AcDbEntity
  8
03__ASM_ALL_CURVES
100
AcDbLine
 62
4
  6
CONTINUOUS
 10
9.2865240841
 20
8.2816900558
 11
9.2971325841
 21
8.2675453874
  0
LINE
  5
397
100
AcDbEntity
  8
03__ASM_ALL_CURVES
100
AcDbLine
 62
4
  6
CONTINUOUS
 10
8.4272355841
 20
10.1169667228
 11
8.4219313341
 21
10.1311113899
  0
LINE
  5
398
100
AcDbEntity
  8
03__ASM_ALL_CURVES
100
AcDbLine
 62
4
  6
CONTINUOUS
 10
8.4590610841
 20
10.1452560558
 11
8.4643653341
 21
10.1311113899
  0
LINE
  5
399
100
AcDbEntity
  8
03__ASM_ALL_CURVES
100
AcDbLine
 62
4
  6
CONTINUOUS
 10
9.0266158341
 20
8.2321837216
 11
9.0319200841
 21
8.2109667228
  0
LINE
  5
39A
100
AcDbEntity
  8
03__ASM_ALL_CURVES
100
AcDbLine
 62
4
  6
CONTINUOUS
 10
8.6871438341
 20
10.1381837216
 11
8.6924480841
 21
10.1169667228
  0
LINE
  5
39B
100
AcDbEntity
  8
03__ASM_ALL_CURVES
100
AcDbLine
 62
4
  6
CONTINUOUS
 10
9.2122645841
 20
8.0485453874
 11
9.2175688341
 21
8.0273283874
  0
LINE
  5
39C
100
AcDbEntity
  8
03__ASM_ALL_CURVES
100
AcDbLine
 62
4
  6
CONTINUOUS
 10
9.0955710841
 20
11.5930390558
 11
9.0955710841
 21
11.6001113899
  0
LINE
  5
39D
100
AcDbEntity
  8
03__ASM_ALL_CURVES
100
AcDbLine
 62
4
  6
CONTINUOUS
 10
9.1008753341
 20
8.2816900558
 11
9.1008753341
 21
8.1968220558
  0
LINE
  5
39E
100
AcDbEntity
  8
03__ASM_ALL_CURVES
100
AcDbLine
 62
4
  6
CONTINUOUS
 10
9.1008753341
 20
7.5061113899
 11
9.1008753341
 21
7.5344007241
  0
LINE
  5
39F
100
AcDbEntity
  8
03__ASM_ALL_CURVES
100
AcDbLine
 62
4
  6
CONTINUOUS
 10
9.1008753341
 20
11.6354730558
 11
9.1008753341
 21
11.6425453874
  0
LINE
  5
3A0
100
AcDbEntity
  8
03__ASM_ALL_CURVES
100
AcDbLine
 62
4
  6
CONTINUOUS
 10
9.1380050841
 20
10.1028220558
 11
9.1380050841
 21
10.1876900558
  0
LINE
  5
3A1
100
AcDbEntity
  8
03__ASM_ALL_CURVES
100
AcDbLine
 62
4
  6
CONTINUOUS
 10
9.1433093341
 20
11.6425453874
 11
9.1433093341
 21
11.6354730558
  0
LINE
  5
3A2
100
AcDbEntity
  8
03__ASM_ALL_CURVES
100
AcDbLine
 62
4
  6
CONTINUOUS
 10
9.1433093341
 20
11.0344007241
 11
9.1433093341
 21
11.0061113899
  0
LINE
  5
3A3
100
AcDbEntity
  8
03__ASM_ALL_CURVES
100
AcDbLine
 62
4
  6
CONTINUOUS
 10
9.1433093341
 20
7.5344007241
 11
9.1433093341
 21
7.5061113899
  0
LINE
  5
3A4
100
AcDbEntity
  8
03__ASM_ALL_CURVES
100
AcDbLine
 62
4
  6
CONTINUOUS
 10
9.1486135841
 20
11.6001113899
 11
9.1486135841
 21
11.5930390558
  0
LINE
  5
3A5
100
AcDbEntity
  8
03__ASM_ALL_CURVES
100
AcDbLine
 62
4
  6
CONTINUOUS
 10
9.1857433341
 20
8.2675453874
 11
9.1857433341
 21
8.2604730558
  0
LINE
  5
3A6
100
AcDbEntity
  8
03__ASM_ALL_CURVES
100
AcDbLine
 62
4
  6
CONTINUOUS
 10
9.2175688341
 20
11.6213283874
 11
9.2175688341
 21
11.6071837216
  0
LINE
  5
3A7
100
AcDbEntity
  8
03__ASM_ALL_CURVES
100
AcDbLine
 62
4
  6
CONTINUOUS
 10
9.2175688341
 20
11.0273283874
 11
9.2175688341
 21
11.0131837216
  0
LINE
  5
3A8
100
AcDbEntity
  8
03__ASM_ALL_CURVES
100
AcDbLine
 62
4
  6
CONTINUOUS
 10
9.2175688341
 20
10.1523283874
 11
9.2175688341
 21
10.1381837216
  0
LINE
  5
3A9
100
AcDbEntity
  8
03__ASM_ALL_CURVES
100
AcDbLine
 62
4
  6
CONTINUOUS
 10
9.2175688341
 20
8.0273283874
 11
9.2175688341
 21
8.0131837216
  0
LINE
  5
3AA
100
AcDbEntity
  8
03__ASM_ALL_CURVES
100
AcDbLine
 62
4
  6
CONTINUOUS
 10
9.2281773341
 20
8.2251113899
 11
9.2281773341
 21
8.2109667228
  0
LINE
  5
3AB
100
AcDbEntity
  8
03__ASM_ALL_CURVES
100
AcDbLine
 62
4
  6
CONTINUOUS
 10
9.3024368341
 20
8.2463283874
 11
9.3024368341
 21
8.2321837216
  0
LINE
  5
3AC
100
AcDbEntity
  8
03__ASM_ALL_CURVES
100
AcDbLine
 62
4
  6
CONTINUOUS
 10
9.1220923341
 20
7.9778220558
 11
9.1273965841
 21
8.0131837216
  0
LINE
  5
3AD
100
AcDbEntity
  8
03__ASM_ALL_CURVES
100
AcDbLine
 62
4
  6
CONTINUOUS
 10
8.9364435841
 20
7.9990390558
 11
8.9311393341
 21
7.9778220558
  0
LINE
  5
3AE
100
AcDbEntity
  8
03__ASM_ALL_CURVES
100
AcDbLine
 62
4
  6
CONTINUOUS
 10
9.0319200841
 20
8.2675453874
 11
9.0266158341
 21
8.2463283874
  0
LINE
  5
3AF
100
AcDbEntity
  8
03__ASM_ALL_CURVES
100
AcDbLine
 62
4
  6
CONTINUOUS
 10
9.7717343341
 20
10.0622560552
 11
9.7792343341
 21
10.0722560555
  0
LINE
  5
3B0
100
AcDbEntity
  8
03__ASM_ALL_CURVES
100
AcDbLine
 62
4
  6
CONTINUOUS
 10
8.5067993341
 20
8.2675453874
 11
8.5121035841
 21
8.2746177241
  0
LINE
  5
3B1
100
AcDbEntity
  8
03__ASM_ALL_CURVES
100
AcDbLine
 62
4
  6
CONTINUOUS
 10
8.5014950841
 20
8.2251113899
 11
8.5121035841
 21
8.2392560558
  0
LINE
  5
3B2
100
AcDbEntity
  8
03__ASM_ALL_CURVES
100
AcDbLine
 62
4
  6
CONTINUOUS
 10
9.8392343341
 20
9.9922560558
 11
9.8242343341
 21
9.9722560534
  0
LINE
  5
3B3
100
AcDbEntity
  8
03__ASM_ALL_CURVES
100
AcDbLine
 62
4
  6
CONTINUOUS
 10
8.5492333341
 20
8.2604730558
 11
8.5439290841
 21
8.2534007241
  0
LINE
  5
3B4
100
AcDbEntity
  8
03__ASM_ALL_CURVES
100
AcDbLine
 62
4
  6
CONTINUOUS
 10
8.4272355841
 20
8.0485453874
 11
8.4325398341
 21
8.0556177241
  0
LINE
  5
3B5
100
AcDbEntity
  8
03__ASM_ALL_CURVES
100
AcDbLine
 62
4
  6
CONTINUOUS
 10
8.5545375841
 20
8.2180390558
 11
8.5439290841
 21
8.2038943893
  0
LINE
  5
3B6
100
AcDbEntity
  8
03__ASM_ALL_CURVES
100
AcDbLine
 62
4
  6
CONTINUOUS
 10
8.4590610841
 20
7.9919667228
 11
8.4537568341
 21
7.9848943893
  0
LINE
  5
3B7
100
AcDbEntity
  8
03__ASM_ALL_CURVES
100
AcDbLine
 62
4
  6
CONTINUOUS
 10
8.6818395841
 20
8.2675453874
 11
8.6871438341
 21
8.2746177241
  0
LINE
  5
3B8
100
AcDbEntity
  8
03__ASM_ALL_CURVES
100
AcDbLine
 62
4
  6
CONTINUOUS
 10
9.0584413341
 20
7.9778220558
 11
9.0504849591
 21
7.9778220558
  0
LINE
  5
3B9
100
AcDbEntity
  8
03__ASM_ALL_CURVES
100
AcDbLine
 62
4
  6
CONTINUOUS
 10
8.6181885841
 20
7.9778220558
 11
8.6075800841
 21
7.9778220558
  0
LINE
  5
3BA
100
AcDbEntity
  8
03__ASM_ALL_CURVES
100
AcDbLine
 62
4
  6
CONTINUOUS
 10
8.5492333341
 20
7.9778220558
 11
8.5412769591
 21
7.9778220558
  0
LINE
  5
3BB
100
AcDbEntity
  8
03__ASM_ALL_CURVES
100
AcDbLine
 62
4
  6
CONTINUOUS
 10
8.9311393341
 20
7.9778220558
 11
8.9735733341
 21
7.9778220558
  0
LINE
  5
3BC
100
AcDbEntity
  8
03__ASM_ALL_CURVES
100
AcDbLine
 62
4
  6
CONTINUOUS
 10
11.5242343341
 20
7.9932560558
 11
11.5092343341
 21
7.9932560558
  0
LINE
  5
3BD
100
AcDbEntity
  8
03__ASM_ALL_CURVES
100
AcDbLine
 62
4
  6
CONTINUOUS
 10
9.5888663341
 20
8.0202560558
 11
9.3342623341
 21
8.0202560558
  0
LINE
  5
3BE
100
AcDbEntity
  8
03__ASM_ALL_CURVES
100
AcDbLine
 62
4
  6
CONTINUOUS
 10
8.6075800841
 20
8.0344007241
 11
8.6181885841
 21
8.0344007241
  0
LINE
  5
3BF
100
AcDbEntity
  8
03__ASM_ALL_CURVES
100
AcDbLine
 62
4
  6
CONTINUOUS
 10
11.5242343341
 20
8.0432560581
 11
11.5092343341
 21
8.0432560581
  0
LINE
  5
3C0
100
AcDbEntity
  8
03__ASM_ALL_CURVES
100
AcDbLine
 62
4
  6
CONTINUOUS
 10
9.1433093341
 20
8.0626900558
 11
9.1008753341
 21
8.0626900558
  0
LINE
  5
3C1
100
AcDbEntity
  8
03__ASM_ALL_CURVES
100
AcDbLine
 62
4
  6
CONTINUOUS
 10
8.6341013341
 20
8.0626900558
 11
8.6022758341
 21
8.0626900558
  0
LINE
  5
3C2
100
AcDbEntity
  8
03__ASM_ALL_CURVES
100
AcDbLine
 62
4
  6
CONTINUOUS
 10
8.9470520841
 20
8.0626900558
 11
8.9576605841
 21
8.0626900558
  0
LINE
  5
3C3
100
AcDbEntity
  8
03__ASM_ALL_CURVES
100
AcDbLine
 62
4
  6
CONTINUOUS
 10
11.5092343341
 20
8.1132560558
 11
11.5242343341
 21
8.1132560558
  0
LINE
  5
3C4
100
AcDbEntity
  8
03__ASM_ALL_CURVES
100
AcDbLine
 62
4
  6
CONTINUOUS
 10
9.2228730841
 20
8.2746177241
 11
9.2122645841
 21
8.2816900558
  0
LINE
  5
3C5
100
AcDbEntity
  8
03__ASM_ALL_CURVES
100
AcDbLine
 62
4
  6
CONTINUOUS
 10
12.2074450024
 20
6.0987170558
 11
12.2003726657
 21
6.1040213058
  0
LINE
  5
3C6
100
AcDbEntity
  8
03__ASM_ALL_CURVES
100
AcDbLine
 62
4
  6
CONTINUOUS
 10
12.2428066683
 20
6.1146298058
 11
12.2569513341
 21
6.1040213058
  0
LINE
  5
3C7
100
AcDbEntity
  8
03__ASM_ALL_CURVES
100
AcDbLine
 62
4
  6
CONTINUOUS
 10
12.2215896657
 20
6.1411510558
 11
12.2286620024
 21
6.1358468058
  0
LINE
  5
3C8
100
AcDbEntity
  8
03__ASM_ALL_CURVES
100
AcDbLine
 62
4
  6
CONTINUOUS
 10
11.014023667
 20
7.0587863058
 11
11.0281683341
 21
7.0481778058
  0
LINE
  5
3C9
100
AcDbEntity
  8
03__ASM_ALL_CURVES
100
AcDbLine
 62
4
  6
CONTINUOUS
 10
8.7667075841
 20
10.1169667228
 11
8.7614033341
 21
10.1311113899
  0
LINE
  5
3CA
100
AcDbEntity
  8
03__ASM_ALL_CURVES
100
AcDbLine
 62
4
  6
CONTINUOUS
 10
9.2971325841
 20
8.2675453874
 11
9.3024368341
 21
8.2463283874
  0
LINE
  5
3CB
100
AcDbEntity
  8
03__ASM_ALL_CURVES
100
AcDbLine
 62
4
  6
CONTINUOUS
 10
8.6871438341
 20
11.0131837216
 11
8.6924480841
 21
10.9919667228
  0
LINE
  5
3CC
100
AcDbEntity
  8
03__ASM_ALL_CURVES
100
AcDbLine
 62
4
  6
CONTINUOUS
 10
8.6022758341
 20
11.6071837216
 11
8.6075800841
 21
11.5859667228
  0
LINE
  5
3CD
100
AcDbEntity
  8
03__ASM_ALL_CURVES
100
AcDbLine
 62
4
  6
CONTINUOUS
 10
9.1273965841
 20
8.0131837216
 11
9.1327008341
 21
8.0344007241
  0
LINE
  5
3CE
100
AcDbEntity
  8
03__ASM_ALL_CURVES
100
AcDbLine
 62
4
  6
CONTINUOUS
 10
9.2175688341
 20
8.0131837216
 11
9.2122645841
 21
7.9919667228
  0
LINE
  5
3CF
100
AcDbEntity
  8
03__ASM_ALL_CURVES
100
AcDbLine
 62
4
  6
CONTINUOUS
 10
9.3024368341
 20
8.2321837216
 11
9.2971325841
 21
8.2109667228
  0
LINE
  5
3D0
100
AcDbEntity
  8
03__ASM_ALL_CURVES
100
AcDbLine
 62
4
  6
CONTINUOUS
 10
9.1327008341
 20
8.0344007241
 11
9.1433093341
 21
8.0626900558
  0
LINE
  5
3D1
100
AcDbEntity
  8
03__ASM_ALL_CURVES
100
AcDbLine
 62
4
  6
CONTINUOUS
 10
8.7136650841
 20
8.2109667228
 11
8.7083608341
 21
8.2038943893
  0
LINE
  5
3D2
100
AcDbEntity
  8
03__ASM_ALL_CURVES
100
AcDbLine
 62
4
  6
CONTINUOUS
 10
8.8038373341
 20
8.2604730558
 11
8.7985330841
 21
8.2534007241
  0
LINE
  5
3D3
100
AcDbEntity
  8
03__ASM_ALL_CURVES
100
AcDbLine
 62
4
  6
CONTINUOUS
 10
8.6341013341
 20
7.9919667228
 11
8.6287970841
 21
7.9848943893
  0
LINE
  5
3D4
100
AcDbEntity
  8
03__ASM_ALL_CURVES
100
AcDbLine
 62
4
  6
CONTINUOUS
 10
8.8091415841
 20
8.2180390558
 11
8.7985330841
 21
8.2038943893
  0
LINE
  5
3D5
100
AcDbEntity
  8
03__ASM_ALL_CURVES
100
AcDbLine
 62
4
  6
CONTINUOUS
 10
8.8727925841
 20
8.2109667228
 11
8.8621840841
 21
8.1968220558
  0
LINE
  5
3D6
100
AcDbEntity
  8
03__ASM_ALL_CURVES
100
AcDbLine
 62
4
  6
CONTINUOUS
 10
8.7879245841
 20
8.0626900558
 11
8.7773160841
 21
8.0485453874
  0
LINE
  5
3D7
100
AcDbEntity
  8
03__ASM_ALL_CURVES
100
AcDbLine
 62
4
  6
CONTINUOUS
 10
7.9233318341
 20
8.2746177241
 11
7.9339403341
 21
8.2816900558
  0
LINE
  5
3D8
100
AcDbEntity
  8
03__ASM_ALL_CURVES
100
AcDbLine
 62
4
  6
CONTINUOUS
 10
7.9445488341
 20
8.2038943893
 11
7.9339403341
 21
8.1968220558
  0
LINE
  5
3D9
100
AcDbEntity
  8
03__ASM_ALL_CURVES
100
AcDbLine
 62
4
  6
CONTINUOUS
 10
9.2122645841
 20
8.1968220558
 11
9.2016560841
 21
8.1968220558
  0
LINE
  5
3DA
100
AcDbEntity
  8
03__ASM_ALL_CURVES
100
AcDbLine
 62
4
  6
CONTINUOUS
 10
8.7879245841
 20
8.1968220558
 11
8.7773160841
 21
8.1968220558
  0
LINE
  5
3DB
100
AcDbEntity
  8
03__ASM_ALL_CURVES
100
AcDbLine
 62
4
  6
CONTINUOUS
 10
8.6341013341
 20
8.1968220558
 11
8.6261449591
 21
8.1968220558
  0
LINE
  5
3DC
100
AcDbEntity
  8
03__ASM_ALL_CURVES
100
AcDbLine
 62
4
  6
CONTINUOUS
 10
8.5333205841
 20
8.1968220558
 11
8.5227120841
 21
8.1968220558
  0
LINE
  5
3DD
100
AcDbEntity
  8
03__ASM_ALL_CURVES
100
AcDbLine
 62
4
  6
CONTINUOUS
 10
8.0400253341
 20
8.1968220558
 11
8.0320689591
 21
8.1968220558
  0
LINE
  5
3DE
100
AcDbEntity
  8
03__ASM_ALL_CURVES
100
AcDbLine
 62
4
  6
CONTINUOUS
 10
9.1008753341
 20
8.1968220558
 11
9.1433093341
 21
8.1968220558
  0
LINE
  5
3DF
100
AcDbEntity
  8
03__ASM_ALL_CURVES
100
AcDbLine
 62
4
  6
CONTINUOUS
 10
9.5888663341
 20
8.2392560558
 11
9.3342623341
 21
8.2392560558
  0
LINE
  5
3E0
100
AcDbEntity
  8
03__ASM_ALL_CURVES
100
AcDbLine
 62
4
  6
CONTINUOUS
 10
8.5227120841
 20
8.2463283874
 11
8.5333205841
 21
8.2463283874
  0
LINE
  5
3E1
100
AcDbEntity
  8
03__ASM_ALL_CURVES
100
AcDbLine
 62
4
  6
CONTINUOUS
 10
8.7773160841
 20
8.2463283874
 11
8.7879245841
 21
8.2463283874
  0
LINE
  5
3E2
100
AcDbEntity
  8
03__ASM_ALL_CURVES
100
AcDbLine
 62
4
  6
CONTINUOUS
 10
9.2122645841
 20
8.2816900558
 11
9.2016560841
 21
8.2816900558
  0
LINE
  5
3E3
100
AcDbEntity
  8
03__ASM_ALL_CURVES
100
AcDbLine
 62
4
  6
CONTINUOUS
 10
8.1248933341
 20
8.2816900558
 11
8.0824593341
 21
8.2816900558
  0
LINE
  5
3E4
100
AcDbEntity
  8
03__ASM_ALL_CURVES
100
AcDbLine
 62
4
  6
CONTINUOUS
 10
8.5227120841
 20
8.2816900558
 11
8.5333205841
 21
8.2816900558
  0
LINE
  5
3E5
100
AcDbEntity
  8
03__ASM_ALL_CURVES
100
AcDbLine
 62
4
  6
CONTINUOUS
 10
8.7773160841
 20
8.2816900558
 11
8.7879245841
 21
8.2816900558
  0
LINE
  5
3E6
100
AcDbEntity
  8
03__ASM_ALL_CURVES
100
AcDbLine
 62
4
  6
CONTINUOUS
 10
12.264023667
 20
6.3108870558
 11
12.2710960006
 21
6.3055828058
  0
LINE
  5
3E7
100
AcDbEntity
  8
03__ASM_ALL_CURVES
100
AcDbLine
 62
4
  6
CONTINUOUS
 10
12.2074450024
 20
6.3586253058
 11
12.2003726657
 21
6.3639295558
  0
LINE
  5
3E8
100
AcDbEntity
  8
03__ASM_ALL_CURVES
100
AcDbLine
 62
4
  6
CONTINUOUS
 10
12.264023667
 20
6.3904508058
 11
12.2710960006
 21
6.3851465558
  0
LINE
  5
3E9
100
AcDbEntity
  8
03__ASM_ALL_CURVES
100
AcDbLine
 62
4
  6
CONTINUOUS
 10
12.1933003341
 20
6.5495783058
 11
12.2074450024
 21
6.5389698058
  0
LINE
  5
3EA
100
AcDbEntity
  8
03__ASM_ALL_CURVES
100
AcDbLine
 62
4
  6
CONTINUOUS
 10
12.2074450024
 20
6.6132293058
 11
12.2003726657
 21
6.6185335558
  0
LINE
  5
3EB
100
AcDbEntity
  8
03__ASM_ALL_CURVES
100
AcDbLine
 62
4
  6
CONTINUOUS
 10
8.2893250841
 20
10.1806177241
 11
8.2946293341
 21
10.1735453874
  0
LINE
  5
3EC
100
AcDbEntity
  8
03__ASM_ALL_CURVES
100
AcDbLine
 62
4
  6
CONTINUOUS
 10
8.3715409591
 20
10.1134305561
 11
8.3794973341
 21
10.1028220558
  0
LINE
  5
3ED
100
AcDbEntity
  8
03__ASM_ALL_CURVES
100
AcDbLine
 62
4
  6
CONTINUOUS
 10
8.4325398341
 20
10.1098943893
 11
8.4272355841
 21
10.1169667228
  0
LINE
  5
3EE
100
AcDbEntity
  8
03__ASM_ALL_CURVES
100
AcDbLine
 62
4
  6
CONTINUOUS
 10
8.4537568341
 20
10.1806177241
 11
8.4590610841
 21
10.1735453874
  0
LINE
  5
3EF
100
AcDbEntity
  8
03__ASM_ALL_CURVES
100
AcDbLine
 62
4
  6
CONTINUOUS
 10
10.9503726657
 20
6.2737573058
 11
10.9433003341
 21
6.2843658058
  0
LINE
  5
3F0
100
AcDbEntity
  8
03__ASM_ALL_CURVES
100
AcDbLine
 62
4
  6
CONTINUOUS
 10
10.9715896657
 20
6.3055828058
 11
10.9786620024
 21
6.2949743058
  0
LINE
  5
3F1
100
AcDbEntity
  8
03__ASM_ALL_CURVES
100
AcDbLine
 62
4
  6
CONTINUOUS
 10
11.0210960006
 20
6.3055828058
 11
11.0281683341
 21
6.2949743058
  0
LINE
  5
3F2
100
AcDbEntity
  8
03__ASM_ALL_CURVES
100
AcDbLine
 62
4
  6
CONTINUOUS
 10
10.9503726657
 20
6.6132293058
 11
10.9433003341
 21
6.6238378058
  0
LINE
  5
3F3
100
AcDbEntity
  8
03__ASM_ALL_CURVES
100
AcDbLine
 62
4
  6
CONTINUOUS
 10
8.7985330841
 20
10.1452560558
 11
8.8038373341
 21
10.1311113899
  0
LINE
  5
3F4
100
AcDbEntity
  8
03__ASM_ALL_CURVES
100
AcDbLine
 62
4
  6
CONTINUOUS
 10
8.8515755841
 20
10.1169667228
 11
8.8462713341
 21
10.1311113899
  0
LINE
  5
3F5
100
AcDbEntity
  8
03__ASM_ALL_CURVES
100
AcDbLine
 62
4
  6
CONTINUOUS
 10
8.5492333341
 20
11.0202560558
 11
8.5545375841
 21
11.0061113899
  0
LINE
  5
3F6
100
AcDbEntity
  8
03__ASM_ALL_CURVES
100
AcDbLine
 62
4
  6
CONTINUOUS
 10
8.3423675841
 20
11.5859667228
 11
8.3370633341
 21
11.6001113899
  0
LINE
  5
3F7
100
AcDbEntity
  8
03__ASM_ALL_CURVES
100
AcDbLine
 62
4
  6
CONTINUOUS
 10
8.8834010841
 20
10.1452560558
 11
8.8887053341
 21
10.1311113899
  0
LINE
  5
3F8
100
AcDbEntity
  8
03__ASM_ALL_CURVES
100
AcDbLine
 62
4
  6
CONTINUOUS
 10
8.3741930841
 20
11.6425453874
 11
8.3794973341
 21
11.6284007241
  0
LINE
  5
3F9
100
AcDbEntity
  8
03__ASM_ALL_CURVES
100
AcDbLine
 62
4
  6
CONTINUOUS
 10
8.4272355841
 20
11.6142560558
 11
8.4219313341
 21
11.6284007241
  0
LINE
  5
3FA
100
AcDbEntity
  8
03__ASM_ALL_CURVES
100
AcDbLine
 62
4
  6
CONTINUOUS
 10
8.4590610841
 20
11.6425453874
 11
8.4643653341
 21
11.6284007241
  0
LINE
  5
3FB
100
AcDbEntity
  8
03__ASM_ALL_CURVES
100
AcDbLine
 62
4
  6
CONTINUOUS
 10
9.2122645841
 20
10.1735453874
 11
9.2175688341
 21
10.1523283874
  0
LINE
  5
3FC
100
AcDbEntity
  8
0
100
AcDbLine
 62
7
  6
CONTINUOUS
 10
9.6737343341
 20
11.0202560558
 11
9.6737343341
 21
7.5202560558
  0
LINE
  5
3FD
100
AcDbEntity
  8
03__ASM_ALL_CURVES
100
AcDbLine
 62
4
  6
CONTINUOUS
 10
9.6737343341
 20
7.4353880558
 11
9.6737343341
 21
7.1807840558
  0
LINE
  5
3FE
100
AcDbEntity
  8
03__ASM_ALL_CURVES
100
AcDbLine
 62
4
  6
CONTINUOUS
 10
9.7717343341
 20
8.9202560581
 11
9.7717343341
 21
8.9402560534
  0
LINE
  5
3FF
100
AcDbEntity
  8
03__ASM_ALL_CURVES
100
AcDbLine
 62
4
  6
CONTINUOUS
 10
9.7717343341
 20
10.0222560558
 11
9.7717343341
 21
10.0622560552
  0
LINE
  5
400
100
AcDbEntity
  8
03__ASM_ALL_CURVES
100
AcDbLine
 62
4
  6
CONTINUOUS
 10
9.8467343341
 20
10.0222560558
 11
9.8392343341
 21
9.9922560558
  0
LINE
  5
401
100
AcDbEntity
  8
03__ASM_ALL_CURVES
100
AcDbLine
 62
4
  6
CONTINUOUS
 10
9.8242343341
 20
8.9902560558
 11
9.8317343341
 21
9.0202560558
  0
LINE
  5
402
100
AcDbEntity
  8
03__ASM_ALL_CURVES
100
AcDbLine
 62
4
  6
CONTINUOUS
 10
9.1008753341
 20
7.5344007241
 11
9.1061795841
 21
7.5485453874
  0
LINE
  5
403
100
AcDbEntity
  8
03__ASM_ALL_CURVES
100
AcDbLine
 62
4
  6
CONTINUOUS
 10
9.1433093341
 20
7.5061113899
 11
9.1380050841
 21
7.4919667228
  0
LINE
  5
404
100
AcDbEntity
  8
03__ASM_ALL_CURVES
100
AcDbLine
 62
4
  6
CONTINUOUS
 10
9.0425285841
 20
8.2816900558
 11
9.0319200841
 21
8.2675453874
  0
LINE
  5
405
100
AcDbEntity
  8
03__ASM_ALL_CURVES
100
AcDbLine
 62
4
  6
CONTINUOUS
 10
8.9311393341
 20
8.0485453874
 11
8.9364435841
 21
8.0556177241
  0
LINE
  5
406
100
AcDbEntity
  8
03__ASM_ALL_CURVES
100
AcDbLine
 62
4
  6
CONTINUOUS
 10
8.9470520841
 20
8.0131837216
 11
8.9364435841
 21
7.9990390558
  0
LINE
  5
407
100
AcDbEntity
  8
03__ASM_ALL_CURVES
100
AcDbLine
 62
4
  6
CONTINUOUS
 10
8.9735733341
 20
8.0344007241
 11
8.9682690841
 21
8.0273283874
  0
LINE
  5
408
100
AcDbEntity
  8
03__ASM_ALL_CURVES
100
AcDbLine
 62
4
  6
CONTINUOUS
 10
9.1910475841
 20
8.2746177241
 11
9.1857433341
 21
8.2675453874
  0
LINE
  5
409
100
AcDbEntity
  8
03__ASM_ALL_CURVES
100
AcDbLine
 62
4
  6
CONTINUOUS
 10
9.7717343341
 20
8.9402560534
 11
9.7792343341
 21
8.9502560581
  0
LINE
  5
40A
100
AcDbEntity
  8
03__ASM_ALL_CURVES
100
AcDbLine
 62
4
  6
CONTINUOUS
 10
9.2281773341
 20
8.2109667228
 11
9.2228730841
 21
8.2038943893
  0
LINE
  5
40B
100
AcDbEntity
  8
03__ASM_ALL_CURVES
100
AcDbLine
 62
4
  6
CONTINUOUS
 10
9.8092343341
 20
8.970256057
 11
9.8242343341
 21
8.9902560558
  0
LINE
  5
40C
100
AcDbEntity
  8
0
100
AcDbLine
 62
7
  6
CONTINUOUS
 10
11.8522343341
 20
11.0832560558
 11
11.9127343341
 21
11.1437560558
  0
LINE
  5
40D
100
AcDbEntity
  8
03__ASM_ALL_CURVES
100
AcDbLine
 62
4
  6
CONTINUOUS
 10
8.5121035841
 20
8.2746177241
 11
8.5227120841
 21
8.2816900558
  0
LINE
  5
40E
100
AcDbEntity
  8
03__ASM_ALL_CURVES
100
AcDbLine
 62
4
  6
CONTINUOUS
 10
8.5121035841
 20
8.2392560558
 11
8.5227120841
 21
8.2463283874
  0
LINE
  5
40F
100
AcDbEntity
  8
03__ASM_ALL_CURVES
100
AcDbLine
 62
4
  6
CONTINUOUS
 10
8.5439290841
 20
8.2534007241
 11
8.5333205841
 21
8.2463283874
  0
LINE
  5
410
100
AcDbEntity
  8
03__ASM_ALL_CURVES
100
AcDbLine
 62
4
  6
CONTINUOUS
 10
8.5439290841
 20
8.2038943893
 11
8.5333205841
 21
8.1968220558
  0
LINE
  5
411
100
AcDbEntity
  8
03__ASM_ALL_CURVES
100
AcDbLine
 62
4
  6
CONTINUOUS
 10
8.6871438341
 20
8.2746177241
 11
8.6977523341
 21
8.2816900558
  0
LINE
  5
412
100
AcDbEntity
  8
03__ASM_ALL_CURVES
100
AcDbLine
 62
4
  6
CONTINUOUS
 10
8.4325398341
 20
8.0556177241
 11
8.4431483341
 21
8.0626900558
  0
LINE
  5
413
100
AcDbEntity
  8
03__ASM_ALL_CURVES
100
AcDbLine
 62
4
  6
CONTINUOUS
 10
9.7792343341
 20
8.9502560581
 11
9.8092343341
 21
8.970256057
  0
LINE
  5
414
100
AcDbEntity
  8
03__ASM_ALL_CURVES
100
AcDbLine
 62
4
  6
CONTINUOUS
 10
8.7667075841
 20
8.2746177241
 11
8.7773160841
 21
8.2816900558
  0
LINE
  5
415
100
AcDbEntity
  8
03__ASM_ALL_CURVES
100
AcDbLine
 62
4
  6
CONTINUOUS
 10
12.264023667
 20
6.6450548058
 11
12.2710960006
 21
6.6397505558
  0
LINE
  5
416
100
AcDbEntity
  8
03__ASM_ALL_CURVES
100
AcDbLine
 62
4
  6
CONTINUOUS
 10
12.264023667
 20
6.7352270558
 11
12.2710960006
 21
6.7299228058
  0
LINE
  5
417
100
AcDbEntity
  8
03__ASM_ALL_CURVES
100
AcDbLine
 62
4
  6
CONTINUOUS
 10
12.2074450024
 20
6.8678333058
 11
12.2003726657
 21
6.8731375558
  0
LINE
  5
418
100
AcDbEntity
  8
03__ASM_ALL_CURVES
100
AcDbLine
 62
4
  6
CONTINUOUS
 10
12.264023667
 20
6.8996588058
 11
12.2710960006
 21
6.8943545558
  0
LINE
  5
419
100
AcDbEntity
  8
03__ASM_ALL_CURVES
100
AcDbLine
 62
4
  6
CONTINUOUS
 10
12.2074450024
 20
6.9473970558
 11
12.2003726657
 21
6.9527013058
  0
LINE
  5
41A
100
AcDbEntity
  8
03__ASM_ALL_CURVES
100
AcDbLine
 62
4
  6
CONTINUOUS
 10
8.5439290841
 20
10.1806177241
 11
8.5492333341
 21
10.1735453874
  0
LINE
  5
41B
100
AcDbEntity
  8
03__ASM_ALL_CURVES
100
AcDbLine
 62
4
  6
CONTINUOUS
 10
8.6924480841
 20
10.1169667228
 11
8.7030565841
 21
10.1028220558
  0
LINE
  5
41C
100
AcDbEntity
  8
03__ASM_ALL_CURVES
100
AcDbLine
 62
4
  6
CONTINUOUS
 10
8.7720118341
 20
10.1098943893
 11
8.7667075841
 21
10.1169667228
  0
LINE
  5
41D
100
AcDbEntity
  8
03__ASM_ALL_CURVES
100
AcDbLine
 62
4
  6
CONTINUOUS
 10
10.9715896657
 20
6.6450548058
 11
10.9786620024
 21
6.6344463058
  0
LINE
  5
41E
100
AcDbEntity
  8
03__ASM_ALL_CURVES
100
AcDbLine
 62
4
  6
CONTINUOUS
 10
10.9503726657
 20
6.6980973058
 11
10.9433003341
 21
6.7087058058
  0
LINE
  5
41F
100
AcDbEntity
  8
03__ASM_ALL_CURVES
100
AcDbLine
 62
4
  6
CONTINUOUS
 10
11.0210960006
 20
6.6450548058
 11
11.0281683341
 21
6.6344463058
  0
LINE
  5
420
100
AcDbEntity
  8
03__ASM_ALL_CURVES
100
AcDbLine
 62
4
  6
CONTINUOUS
 10
10.9715896657
 20
6.7299228058
 11
10.9786620024
 21
6.7193143058
  0
LINE
  5
421
100
AcDbEntity
  8
03__ASM_ALL_CURVES
100
AcDbLine
 62
4
  6
CONTINUOUS
 10
11.0210960006
 20
6.7299228058
 11
11.0281683341
 21
6.7193143058
  0
LINE
  5
422
100
AcDbEntity
  8
03__ASM_ALL_CURVES
100
AcDbLine
 62
4
  6
CONTINUOUS
 10
10.9503726657
 20
6.8678333058
 11
10.9433003341
 21
6.8784418058
  0
LINE
  5
423
100
AcDbEntity
  8
03__ASM_ALL_CURVES
100
AcDbLine
 62
4
  6
CONTINUOUS
 10
10.9786620024
 20
6.8996588058
 11
10.9928066683
 21
6.8784418058
  0
LINE
  5
424
100
AcDbEntity
  8
03__ASM_ALL_CURVES
100
AcDbLine
 62
4
  6
CONTINUOUS
 10
9.0584413341
 20
10.1452560558
 11
9.0637455841
 21
10.1311113899
  0
LINE
  5
425
100
AcDbEntity
  8
03__ASM_ALL_CURVES
100
AcDbLine
 62
4
  6
CONTINUOUS
 10
8.7667075841
 20
11.5859667228
 11
8.7614033341
 21
11.6001113899
  0
LINE
  5
426
100
AcDbEntity
  8
03__ASM_ALL_CURVES
100
AcDbLine
 62
4
  6
CONTINUOUS
 10
9.2122645841
 20
11.0485453874
 11
9.2175688341
 21
11.0273283874
  0
LINE
  5
427
100
AcDbEntity
  8
03__ASM_ALL_CURVES
100
AcDbLine
 62
4
  6
CONTINUOUS
 10
9.2971325841
 20
8.2109667228
 11
9.2865240841
 21
8.1968220558
  0
LINE
  5
428
100
AcDbEntity
  8
03__ASM_ALL_CURVES
100
AcDbLine
 62
4
  6
CONTINUOUS
 10
9.8317343341
 20
8.9202560581
 11
9.8242343341
 21
8.9102560534
  0
LINE
  5
429
100
AcDbEntity
  8
03__ASM_ALL_CURVES
100
AcDbLine
 62
4
  6
CONTINUOUS
 10
9.2122645841
 20
7.9919667228
 11
9.2016560841
 21
7.9778220558
  0
LINE
  5
42A
100
AcDbEntity
  8
03__ASM_ALL_CURVES
100
AcDbLine
 62
4
  6
CONTINUOUS
 10
8.7083608341
 20
8.2038943893
 11
8.6977523341
 21
8.1968220558
  0
LINE
  5
42B
100
AcDbEntity
  8
03__ASM_ALL_CURVES
100
AcDbLine
 62
4
  6
CONTINUOUS
 10
8.7985330841
 20
8.2534007241
 11
8.7879245841
 21
8.2463283874
  0
LINE
  5
42C
100
AcDbEntity
  8
03__ASM_ALL_CURVES
100
AcDbLine
 62
4
  6
CONTINUOUS
 10
9.8242343341
 20
8.9102560534
 11
9.8092343341
 21
8.9002560558
  0
LINE
  5
42D
100
AcDbEntity
  8
03__ASM_ALL_CURVES
100
AcDbLine
 62
4
  6
CONTINUOUS
 10
8.4537568341
 20
7.9848943893
 11
8.4431483341
 21
7.9778220558
  0
LINE
  5
42E
100
AcDbEntity
  8
03__ASM_ALL_CURVES
100
AcDbLine
 62
4
  6
CONTINUOUS
 10
8.7985330841
 20
8.2038943893
 11
8.7879245841
 21
8.1968220558
  0
LINE
  5
42F
100
AcDbEntity
  8
03__ASM_ALL_CURVES
100
AcDbLine
 62
4
  6
CONTINUOUS
 10
8.5969715841
 20
8.0273283874
 11
8.6075800841
 21
8.0344007241
  0
LINE
  5
430
100
AcDbEntity
  8
03__ASM_ALL_CURVES
100
AcDbLine
 62
4
  6
CONTINUOUS
 10
10.7797343341
 20
9.4532560555
 11
10.7947343341
 21
9.4632560558
  0
LINE
  5
431
100
AcDbEntity
  8
03__ASM_ALL_CURVES
100
AcDbLine
 62
4
  6
CONTINUOUS
 10
8.6287970841
 20
7.9848943893
 11
8.6181885841
 21
7.9778220558
  0
LINE
  5
432
100
AcDbEntity
  8
03__ASM_ALL_CURVES
100
AcDbLine
 62
4
  6
CONTINUOUS
 10
10.8922343341
 20
9.4532560555
 11
10.9072343341
 21
9.4632560558
  0
LINE
  5
433
100
AcDbEntity
  8
03__ASM_ALL_CURVES
100
AcDbLine
 62
4
  6
CONTINUOUS
 10
9.2016560841
 20
8.2816900558
 11
9.1910475841
 21
8.2746177241
  0
LINE
  5
434
100
AcDbEntity
  8
0
100
AcDbLine
 62
7
  6
CONTINUOUS
 10
11.5747343341
 20
8.8032560558
 11
11.5147343341
 21
8.8032560558
  0
LINE
  5
435
100
AcDbEntity
  8
0
100
AcDbLine
 62
7
  6
CONTINUOUS
 10
11.6947343341
 20
8.8032560558
 11
11.7547343341
 21
8.8032560558
  0
LINE
  5
436
100
AcDbEntity
  8
0
100
AcDbLine
 62
7
  6
CONTINUOUS
 10
10.7622343341
 20
8.8332560558
 11
10.7472343341
 21
8.8332560558
  0
LINE
  5
437
100
AcDbEntity
  8
0
100
AcDbLine
 62
7
  6
CONTINUOUS
 10
11.7547343341
 20
8.8632560558
 11
11.6947343341
 21
8.8632560558
  0
LINE
  5
438
100
AcDbEntity
  8
0
100
AcDbLine
 62
7
  6
CONTINUOUS
 10
11.1947343341
 20
8.8632560558
 11
11.1347343341
 21
8.8632560558
  0
LINE
  5
439
100
AcDbEntity
  8
0
100
AcDbLine
 62
7
  6
CONTINUOUS
 10
11.0947343341
 20
8.8632560558
 11
11.0347343341
 21
8.8632560558
  0
LINE
  5
43A
100
AcDbEntity
  8
0
100
AcDbLine
 62
7
  6
CONTINUOUS
 10
10.7147343341
 20
8.8632560558
 11
10.6547343341
 21
8.8632560558
  0
LINE
  5
43B
100
AcDbEntity
  8
0
100
AcDbLine
 62
7
  6
CONTINUOUS
 10
10.6147343341
 20
8.8632560558
 11
10.5547343341
 21
8.8632560558
  0
LINE
  5
43C
100
AcDbEntity
  8
0
100
AcDbLine
 62
7
  6
CONTINUOUS
 10
10.9347343341
 20
8.8632560558
 11
10.9747343341
 21
8.8632560558
  0
LINE
  5
43D
100
AcDbEntity
  8
0
100
AcDbLine
 62
7
  6
CONTINUOUS
 10
11.3347343341
 20
8.8632560558
 11
11.3947343341
 21
8.8632560558
  0
LINE
  5
43E
100
AcDbEntity
  8
0
100
AcDbLine
 62
7
  6
CONTINUOUS
 10
10.9947343341
 20
8.8832560558
 11
10.9347343341
 21
8.8832560558
  0
LINE
  5
43F
100
AcDbEntity
  8
03__ASM_ALL_CURVES
100
AcDbLine
 62
4
  6
CONTINUOUS
 10
9.7942343341
 20
8.9002560558
 11
9.7792343341
 21
8.9102560534
  0
LINE
  5
440
100
AcDbEntity
  8
03__ASM_ALL_CURVES
100
AcDbLine
 62
4
  6
CONTINUOUS
 10
12.2428066683
 20
6.9633098058
 11
12.2569513341
 21
6.9527013058
  0
LINE
  5
441
100
AcDbEntity
  8
03__ASM_ALL_CURVES
100
AcDbLine
 62
4
  6
CONTINUOUS
 10
12.2215896657
 20
6.9898310558
 11
12.2286620024
 21
6.9845268058
  0
LINE
  5
442
100
AcDbEntity
  8
03__ASM_ALL_CURVES
100
AcDbLine
 62
4
  6
CONTINUOUS
 10
12.264023667
 20
7.0587863058
 11
12.2781683341
 21
7.0481778058
  0
LINE
  5
443
100
AcDbEntity
  8
03__ASM_ALL_CURVES
100
AcDbLine
 62
4
  6
CONTINUOUS
 10
8.7932288341
 20
10.1806177241
 11
8.7985330841
 21
10.1735453874
  0
LINE
  5
444
100
AcDbEntity
  8
03__ASM_ALL_CURVES
100
AcDbLine
 62
4
  6
CONTINUOUS
 10
8.8568798341
 20
10.1098943893
 11
8.8515755841
 21
10.1169667228
  0
LINE
  5
445
100
AcDbEntity
  8
03__ASM_ALL_CURVES
100
AcDbLine
 62
4
  6
CONTINUOUS
 10
9.7792343341
 20
8.9102560534
 11
9.7717343341
 21
8.9202560581
  0
LINE
  5
446
100
AcDbEntity
  8
03__ASM_ALL_CURVES
100
AcDbLine
 62
4
  6
CONTINUOUS
 10
8.8780968341
 20
10.1806177241
 11
8.8834010841
 21
10.1735453874
  0
LINE
  5
447
100
AcDbEntity
  8
03__ASM_ALL_CURVES
100
AcDbLine
 62
4
  6
CONTINUOUS
 10
8.9656169591
 20
10.1134305561
 11
8.9735733341
 21
10.1028220558
  0
LINE
  5
448
100
AcDbEntity
  8
03__ASM_ALL_CURVES
100
AcDbLine
 62
4
  6
CONTINUOUS
 10
8.3423675841
 20
10.9848943893
 11
8.3370633341
 21
10.9919667228
  0
LINE
  5
449
100
AcDbEntity
  8
03__ASM_ALL_CURVES
100
AcDbLine
 62
4
  6
CONTINUOUS
 10
9.0213115841
 20
10.1098943893
 11
9.0160073341
 21
10.1169667228
  0
LINE
  5
44A
100
AcDbEntity
  8
03__ASM_ALL_CURVES
100
AcDbLine
 62
4
  6
CONTINUOUS
 10
8.3741930841
 20
11.0202560558
 11
8.3848015841
 21
11.0061113899
  0
LINE
  5
44B
100
AcDbEntity
  8
03__ASM_ALL_CURVES
100
AcDbLine
 62
4
  6
CONTINUOUS
 10
8.3741930841
 20
11.0556177241
 11
8.3794973341
 21
11.0485453874
  0
LINE
  5
44C
100
AcDbEntity
  8
03__ASM_ALL_CURVES
100
AcDbLine
 62
4
  6
CONTINUOUS
 10
9.0531370841
 20
10.1523283874
 11
9.0584413341
 21
10.1452560558
  0
LINE
  5
44D
100
AcDbEntity
  8
03__ASM_ALL_CURVES
100
AcDbLine
 62
4
  6
CONTINUOUS
 10
8.4564089591
 20
10.9884305561
 11
8.4643653341
 21
10.9778220558
  0
LINE
  5
44E
100
AcDbEntity
  8
03__ASM_ALL_CURVES
100
AcDbLine
 62
4
  6
CONTINUOUS
 10
8.7985330841
 20
11.6425453874
 11
8.8038373341
 21
11.6284007241
  0
LINE
  5
44F
100
AcDbEntity
  8
03__ASM_ALL_CURVES
100
AcDbLine
 62
4
  6
CONTINUOUS
 10
9.1061795841
 20
11.0202560558
 11
9.1008753341
 21
11.0344007241
  0
LINE
  5
450
100
AcDbEntity
  8
03__ASM_ALL_CURVES
100
AcDbLine
 62
4
  6
CONTINUOUS
 10
9.1380050841
 20
11.0485453874
 11
9.1433093341
 21
11.0344007241
  0
LINE
  5
451
100
AcDbEntity
  8
03__ASM_ALL_CURVES
100
AcDbLine
 62
4
  6
CONTINUOUS
 10
9.2122645841
 20
11.6425453874
 11
9.2175688341
 21
11.6213283874
  0
LINE
  5
452
100
AcDbEntity
  8
03__ASM_ALL_CURVES
100
AcDbLine
 62
4
  6
CONTINUOUS
 10
9.1061795841
 20
7.5485453874
 11
9.1114838341
 21
7.5556177241
  0
LINE
  5
453
100
AcDbEntity
  8
03__ASM_ALL_CURVES
100
AcDbLine
 62
4
  6
CONTINUOUS
 10
10.5472343341
 20
9.4432560552
 11
10.5622343341
 21
9.4632560558
  0
LINE
  5
454
100
AcDbEntity
  8
03__ASM_ALL_CURVES
100
AcDbLine
 62
4
  6
CONTINUOUS
 10
9.1380050841
 20
7.4919667228
 11
9.1327008341
 21
7.4848943893
  0
LINE
  5
455
100
AcDbEntity
  8
03__ASM_ALL_CURVES
100
AcDbLine
 62
4
  6
CONTINUOUS
 10
10.7647343341
 20
9.4332560558
 11
10.7797343341
 21
9.4532560555
  0
LINE
  5
456
100
AcDbEntity
  8
03__ASM_ALL_CURVES
100
AcDbLine
 62
4
  6
CONTINUOUS
 10
11.0122343341
 20
9.4532560555
 11
11.0272343341
 21
9.4632560558
  0
LINE
  5
457
100
AcDbEntity
  8
03__ASM_ALL_CURVES
100
AcDbLine
 62
4
  6
CONTINUOUS
 10
8.9364435841
 20
8.0556177241
 11
8.9470520841
 21
8.0626900558
  0
LINE
  5
458
100
AcDbEntity
  8
03__ASM_ALL_CURVES
100
AcDbLine
 62
4
  6
CONTINUOUS
 10
10.9372343341
 20
9.3532560534
 11
10.9222343341
 21
9.3432560558
  0
LINE
  5
459
100
AcDbEntity
  8
03__ASM_ALL_CURVES
100
AcDbLine
 62
4
  6
CONTINUOUS
 10
9.2228730841
 20
8.2038943893
 11
9.2122645841
 21
8.1968220558
  0
LINE
  5
45A
100
AcDbEntity
  8
03__ASM_ALL_CURVES
100
AcDbLine
 62
4
  6
CONTINUOUS
 10
8.9682690841
 20
8.0273283874
 11
8.9470520841
 21
8.0131837216
  0
LINE
  5
45B
100
AcDbEntity
  8
03__ASM_ALL_CURVES
100
AcDbLine
 62
4
  6
CONTINUOUS
 10
11.0572343341
 20
9.3532560534
 11
11.0422343341
 21
9.3432560558
  0
LINE
  5
45C
100
AcDbEntity
  8
0
100
AcDbLine
 62
7
  6
CONTINUOUS
 10
10.6147343341
 20
8.8932560558
 11
10.5547343341
 21
8.8932560558
  0
LINE
  5
45D
100
AcDbEntity
  8
03__ASM_ALL_CURVES
100
AcDbLine
 62
4
  6
CONTINUOUS
 10
12.0902343341
 20
8.9002560558
 11
12.0752343341
 21
8.9002560558
  0
LINE
  5
45E
100
AcDbEntity
  8
03__ASM_ALL_CURVES
100
AcDbLine
 62
4
  6
CONTINUOUS
 10
9.8092343341
 20
8.9002560558
 11
9.7942343341
 21
8.9002560558
  0
LINE
  5
45F
100
AcDbEntity
  8
0
100
AcDbLine
 62
7
  6
CONTINUOUS
 10
10.8947343341
 20
8.9232560558
 11
10.8347343341
 21
8.9232560558
  0
LINE
  5
460
100
AcDbEntity
  8
0
100
AcDbLine
 62
7
  6
CONTINUOUS
 10
10.7147343341
 20
8.9232560558
 11
10.6547343341
 21
8.9232560558
  0
LINE
  5
461
100
AcDbEntity
  8
0
100
AcDbLine
 62
7
  6
CONTINUOUS
 10
10.5547343341
 20
8.9232560558
 11
10.6147343341
 21
8.9232560558
  0
LINE
  5
462
100
AcDbEntity
  8
0
100
AcDbLine
 62
7
  6
CONTINUOUS
 10
10.9347343341
 20
8.9232560558
 11
10.9947343341
 21
8.9232560558
  0
LINE
  5
463
100
AcDbEntity
  8
0
100
AcDbLine
 62
7
  6
CONTINUOUS
 10
11.1347343341
 20
8.9232560558
 11
11.1947343341
 21
8.9232560558
  0
LINE
  5
464
100
AcDbEntity
  8
0
100
AcDbLine
 62
7
  6
CONTINUOUS
 10
11.2347343341
 20
8.9232560558
 11
11.2947343341
 21
8.9232560558
  0
LINE
  5
465
100
AcDbEntity
  8
0
100
AcDbLine
 62
7
  6
CONTINUOUS
 10
11.6047343341
 20
8.9232560558
 11
11.6647343341
 21
8.9232560558
  0
LINE
  5
466
100
AcDbEntity
  8
0
100
AcDbLine
 62
7
  6
CONTINUOUS
 10
11.6947343341
 20
8.9232560558
 11
11.7547343341
 21
8.9232560558
  0
LINE
  5
467
100
AcDbEntity
  8
0
100
AcDbLine
 62
7
  6
CONTINUOUS
 10
11.2347343341
 20
8.9832560558
 11
11.2747343341
 21
8.9832560558
  0
LINE
  5
468
100
AcDbEntity
  8
03__ASM_ALL_CURVES
100
AcDbLine
 62
4
  6
CONTINUOUS
 10
12.1127343341
 20
9.0202560558
 11
12.0527343341
 21
9.0202560558
  0
LINE
  5
469
100
AcDbEntity
  8
03__ASM_ALL_CURVES
100
AcDbLine
 62
4
  6
CONTINUOUS
 10
9.8317343341
 20
9.0202560558
 11
9.7717343341
 21
9.0202560558
  0
LINE
  5
46A
100
AcDbEntity
  8
03__ASM_ALL_CURVES
100
AcDbLine
 62
4
  6
CONTINUOUS
 10
11.2447343341
 20
9.1032560558
 11
11.1847343341
 21
9.1032560558
  0
LINE
  5
46B
100
AcDbEntity
  8
03__ASM_ALL_CURVES
100
AcDbLine
 62
4
  6
CONTINUOUS
 10
11.1022343341
 20
9.1032560558
 11
11.0872343341
 21
9.1032560558
  0
LINE
  5
46C
100
AcDbEntity
  8
03__ASM_ALL_CURVES
100
AcDbLine
 62
4
  6
CONTINUOUS
 10
10.9597343341
 20
9.1032560558
 11
11.0122343341
 21
9.1032560558
  0
LINE
  5
46D
100
AcDbEntity
  8
03__ASM_ALL_CURVES
100
AcDbLine
 62
4
  6
CONTINUOUS
 10
11.5092343341
 20
7.9932560558
 11
11.4942343341
 21
8.0032560534
  0
LINE
  5
46E
100
AcDbEntity
  8
03__ASM_ALL_CURVES
100
AcDbLine
 62
4
  6
CONTINUOUS
 10
8.2787165841
 20
10.1876900558
 11
8.2893250841
 21
10.1806177241
  0
LINE
  5
46F
100
AcDbEntity
  8
03__ASM_ALL_CURVES
100
AcDbLine
 62
4
  6
CONTINUOUS
 10
11.5092343341
 20
8.0432560581
 11
11.4942343341
 21
8.0532560558
  0
LINE
  5
470
100
AcDbEntity
  8
03__ASM_ALL_CURVES
100
AcDbLine
 62
4
  6
CONTINUOUS
 10
8.4431483341
 20
10.1028220558
 11
8.4325398341
 21
10.1098943893
  0
LINE
  5
471
100
AcDbEntity
  8
03__ASM_ALL_CURVES
100
AcDbLine
 62
4
  6
CONTINUOUS
 10
11.5242343341
 20
8.1132560558
 11
11.5392343341
 21
8.1032560555
  0
LINE
  5
472
100
AcDbEntity
  8
03__ASM_ALL_CURVES
100
AcDbLine
 62
4
  6
CONTINUOUS
 10
8.4431483341
 20
10.1876900558
 11
8.4537568341
 21
10.1806177241
  0
LINE
  5
473
100
AcDbEntity
  8
03__ASM_ALL_CURVES
100
AcDbLine
 62
4
  6
CONTINUOUS
 10
8.5121035841
 20
10.9848943893
 11
8.5067993341
 21
10.9919667228
  0
LINE
  5
474
100
AcDbEntity
  8
03__ASM_ALL_CURVES
100
AcDbLine
 62
4
  6
CONTINUOUS
 10
8.5439290841
 20
11.0273283874
 11
8.5492333341
 21
11.0202560558
  0
LINE
  5
475
100
AcDbEntity
  8
03__ASM_ALL_CURVES
100
AcDbLine
 62
4
  6
CONTINUOUS
 10
9.2016560841
 20
10.1876900558
 11
9.2122645841
 21
10.1735453874
  0
LINE
  5
476
100
AcDbEntity
  8
03__ASM_ALL_CURVES
100
AcDbLine
 62
4
  6
CONTINUOUS
 10
8.6924480841
 20
10.9919667228
 11
8.7030565841
 21
10.9778220558
  0
LINE
  5
477
100
AcDbEntity
  8
03__ASM_ALL_CURVES
100
AcDbLine
 62
4
  6
CONTINUOUS
 10
8.2866729591
 20
11.5824305561
 11
8.2946293341
 21
11.5718220558
  0
LINE
  5
478
100
AcDbEntity
  8
03__ASM_ALL_CURVES
100
AcDbLine
 62
4
  6
CONTINUOUS
 10
9.8392343341
 20
10.0522560558
 11
9.8467343341
 21
10.0222560558
  0
LINE
  5
479
100
AcDbEntity
  8
03__ASM_ALL_CURVES
100
AcDbLine
 62
4
  6
CONTINUOUS
 10
10.5397343341
 20
9.413256057
 11
10.5472343341
 21
9.4432560552
  0
LINE
  5
47A
100
AcDbEntity
  8
03__ASM_ALL_CURVES
100
AcDbLine
 62
4
  6
CONTINUOUS
 10
10.8772343341
 20
9.4332560558
 11
10.8922343341
 21
9.4532560555
  0
LINE
  5
47B
100
AcDbEntity
  8
03__ASM_ALL_CURVES
100
AcDbLine
 62
4
  6
CONTINUOUS
 10
11.0047343341
 20
9.4432560552
 11
11.0122343341
 21
9.4532560555
  0
LINE
  5
47C
100
AcDbEntity
  8
03__ASM_ALL_CURVES
100
AcDbLine
 62
4
  6
CONTINUOUS
 10
10.9522343341
 20
9.3732560558
 11
10.9372343341
 21
9.3532560534
  0
LINE
  5
47D
100
AcDbEntity
  8
03__ASM_ALL_CURVES
100
AcDbLine
 62
4
  6
CONTINUOUS
 10
11.0722343341
 20
9.2132560555
 11
11.0872343341
 21
9.2232560558
  0
LINE
  5
47E
100
AcDbEntity
  8
03__ASM_ALL_CURVES
100
AcDbLine
 62
4
  6
CONTINUOUS
 10
11.4997343341
 20
9.4532560555
 11
11.5147343341
 21
9.4632560558
  0
LINE
  5
47F
100
AcDbEntity
  8
03__ASM_ALL_CURVES
100
AcDbLine
 62
4
  6
CONTINUOUS
 10
11.0722343341
 20
9.1432560534
 11
11.0872343341
 21
9.1532560581
  0
LINE
  5
480
100
AcDbEntity
  8
03__ASM_ALL_CURVES
100
AcDbLine
 62
4
  6
CONTINUOUS
 10
11.1172343341
 20
9.1132560534
 11
11.1022343341
 21
9.1032560558
  0
LINE
  5
481
100
AcDbEntity
  8
03__ASM_ALL_CURVES
100
AcDbLine
 62
4
  6
CONTINUOUS
 10
11.1022343341
 20
9.1532560581
 11
11.0872343341
 21
9.1532560581
  0
LINE
  5
482
100
AcDbEntity
  8
03__ASM_ALL_CURVES
100
AcDbLine
 62
4
  6
CONTINUOUS
 10
11.0122343341
 20
9.1532560581
 11
10.9597343341
 21
9.1532560581
  0
LINE
  5
483
100
AcDbEntity
  8
03__ASM_ALL_CURVES
100
AcDbLine
 62
4
  6
CONTINUOUS
 10
11.2447343341
 20
9.1632560558
 11
11.2072343341
 21
9.1632560558
  0
LINE
  5
484
100
AcDbEntity
  8
03__ASM_ALL_CURVES
100
AcDbLine
 62
4
  6
CONTINUOUS
 10
11.0122343341
 20
9.2232560558
 11
10.9597343341
 21
9.2232560558
  0
LINE
  5
485
100
AcDbEntity
  8
03__ASM_ALL_CURVES
100
AcDbLine
 62
4
  6
CONTINUOUS
 10
11.0872343341
 20
9.2232560558
 11
11.1022343341
 21
9.2232560558
  0
LINE
  5
486
100
AcDbEntity
  8
03__ASM_ALL_CURVES
100
AcDbLine
 62
4
  6
CONTINUOUS
 10
11.1847343341
 20
9.2232560558
 11
11.2447343341
 21
9.2232560558
  0
LINE
  5
487
100
AcDbEntity
  8
03__ASM_ALL_CURVES
100
AcDbLine
 62
4
  6
CONTINUOUS
 10
11.5447343341
 20
9.3432560558
 11
11.5147343341
 21
9.3432560558
  0
LINE
  5
488
100
AcDbEntity
  8
03__ASM_ALL_CURVES
100
AcDbLine
 62
4
  6
CONTINUOUS
 10
11.3122343341
 20
9.3432560558
 11
11.2372343341
 21
9.3432560558
  0
LINE
  5
489
100
AcDbEntity
  8
03__ASM_ALL_CURVES
100
AcDbLine
 62
4
  6
CONTINUOUS
 10
11.1847343341
 20
9.3432560558
 11
11.1247343341
 21
9.3432560558
  0
LINE
  5
48A
100
AcDbEntity
  8
03__ASM_ALL_CURVES
100
AcDbLine
 62
4
  6
CONTINUOUS
 10
11.0422343341
 20
9.3432560558
 11
11.0272343341
 21
9.3432560558
  0
LINE
  5
48B
100
AcDbEntity
  8
03__ASM_ALL_CURVES
100
AcDbLine
 62
4
  6
CONTINUOUS
 10
10.9222343341
 20
9.3432560558
 11
10.9072343341
 21
9.3432560558
  0
LINE
  5
48C
100
AcDbEntity
  8
03__ASM_ALL_CURVES
100
AcDbLine
 62
4
  6
CONTINUOUS
 10
10.8247343341
 20
9.3432560558
 11
10.7947343341
 21
9.3432560558
  0
LINE
  5
48D
100
AcDbEntity
  8
03__ASM_ALL_CURVES
100
AcDbLine
 62
4
  6
CONTINUOUS
 10
10.7047343341
 20
9.3432560558
 11
10.6447343341
 21
9.3432560558
  0
LINE
  5
48E
100
AcDbEntity
  8
03__ASM_ALL_CURVES
100
AcDbLine
 62
4
  6
CONTINUOUS
 10
8.5333205841
 20
10.1876900558
 11
8.5439290841
 21
10.1806177241
  0
LINE
  5
48F
100
AcDbEntity
  8
03__ASM_ALL_CURVES
100
AcDbLine
 62
4
  6
CONTINUOUS
 10
8.7826203341
 20
10.1028220558
 11
8.7720118341
 21
10.1098943893
  0
LINE
  5
490
100
AcDbEntity
  8
03__ASM_ALL_CURVES
100
AcDbLine
 62
4
  6
CONTINUOUS
 10
8.8674883341
 20
10.1028220558
 11
8.8568798341
 21
10.1098943893
  0
LINE
  5
491
100
AcDbEntity
  8
03__ASM_ALL_CURVES
100
AcDbLine
 62
4
  6
CONTINUOUS
 10
8.7826203341
 20
10.1876900558
 11
8.7932288341
 21
10.1806177241
  0
LINE
  5
492
100
AcDbEntity
  8
03__ASM_ALL_CURVES
100
AcDbLine
 62
4
  6
CONTINUOUS
 10
8.8674883341
 20
10.1876900558
 11
8.8780968341
 21
10.1806177241
  0
LINE
  5
493
100
AcDbEntity
  8
03__ASM_ALL_CURVES
100
AcDbLine
 62
4
  6
CONTINUOUS
 10
9.0319200841
 20
10.1028220558
 11
9.0213115841
 21
10.1098943893
  0
LINE
  5
494
100
AcDbEntity
  8
03__ASM_ALL_CURVES
100
AcDbLine
 62
4
  6
CONTINUOUS
 10
8.7667075841
 20
10.9848943893
 11
8.7560990841
 21
10.9990390558
  0
LINE
  5
495
100
AcDbEntity
  8
03__ASM_ALL_CURVES
100
AcDbLine
 62
4
  6
CONTINUOUS
 10
8.3476718341
 20
11.5788943893
 11
8.3423675841
 21
11.5859667228
  0
LINE
  5
496
100
AcDbEntity
  8
03__ASM_ALL_CURVES
100
AcDbLine
 62
4
  6
CONTINUOUS
 10
8.7667075841
 20
11.0344007241
 11
8.7614033341
 21
11.0414730558
  0
LINE
  5
497
100
AcDbEntity
  8
03__ASM_ALL_CURVES
100
AcDbLine
 62
4
  6
CONTINUOUS
 10
8.7985330841
 20
11.0202560558
 11
8.8091415841
 21
11.0061113899
  0
LINE
  5
498
100
AcDbEntity
  8
03__ASM_ALL_CURVES
100
AcDbLine
 62
4
  6
CONTINUOUS
 10
8.7985330841
 20
11.0556177241
 11
8.8038373341
 21
11.0485453874
  0
LINE
  5
499
100
AcDbEntity
  8
03__ASM_ALL_CURVES
100
AcDbLine
 62
4
  6
CONTINUOUS
 10
8.8515755841
 20
10.9848943893
 11
8.8409670841
 21
10.9990390558
  0
LINE
  5
49A
100
AcDbEntity
  8
03__ASM_ALL_CURVES
100
AcDbLine
 62
4
  6
CONTINUOUS
 10
8.3688888341
 20
11.6496177241
 11
8.3741930841
 21
11.6425453874
  0
LINE
  5
49B
100
AcDbEntity
  8
03__ASM_ALL_CURVES
100
AcDbLine
 62
4
  6
CONTINUOUS
 10
8.4325398341
 20
11.5788943893
 11
8.4272355841
 21
11.5859667228
  0
LINE
  5
49C
100
AcDbEntity
  8
03__ASM_ALL_CURVES
100
AcDbLine
 62
4
  6
CONTINUOUS
 10
8.8515755841
 20
11.0344007241
 11
8.8462713341
 21
11.0414730558
  0
LINE
  5
49D
100
AcDbEntity
  8
03__ASM_ALL_CURVES
100
AcDbLine
 62
4
  6
CONTINUOUS
 10
8.8834010841
 20
11.0202560558
 11
8.8940095841
 21
11.0061113899
  0
LINE
  5
49E
100
AcDbEntity
  8
03__ASM_ALL_CURVES
100
AcDbLine
 62
4
  6
CONTINUOUS
 10
8.8834010841
 20
11.0556177241
 11
8.8887053341
 21
11.0485453874
  0
LINE
  5
49F
100
AcDbEntity
  8
03__ASM_ALL_CURVES
100
AcDbLine
 62
4
  6
CONTINUOUS
 10
8.4537568341
 20
11.6496177241
 11
8.4590610841
 21
11.6425453874
  0
LINE
  5
4A0
100
AcDbEntity
  8
03__ASM_ALL_CURVES
100
AcDbLine
 62
4
  6
CONTINUOUS
 10
8.9656169591
 20
10.9884305561
 11
8.9735733341
 21
10.9778220558
  0
LINE
  5
4A1
100
AcDbEntity
  8
03__ASM_ALL_CURVES
100
AcDbLine
 62
4
  6
CONTINUOUS
 10
9.7792343341
 20
9.9722560534
 11
9.7717343341
 21
9.9822560581
  0
LINE
  5
4A2
100
AcDbEntity
  8
03__ASM_ALL_CURVES
100
AcDbLine
 62
4
  6
CONTINUOUS
 10
9.0213115841
 20
10.9848943893
 11
9.0107030841
 21
10.9990390558
  0
LINE
  5
4A3
100
AcDbEntity
  8
03__ASM_ALL_CURVES
100
AcDbLine
 62
4
  6
CONTINUOUS
 10
8.6075800841
 20
11.5859667228
 11
8.6181885841
 21
11.5718220558
  0
LINE
  5
4A4
100
AcDbEntity
  8
03__ASM_ALL_CURVES
100
AcDbLine
 62
4
  6
CONTINUOUS
 10
9.0213115841
 20
11.0344007241
 11
9.0160073341
 21
11.0414730558
  0
LINE
  5
4A5
100
AcDbEntity
  8
03__ASM_ALL_CURVES
100
AcDbLine
 62
4
  6
CONTINUOUS
 10
12.2003726657
 20
6.1040213058
 11
12.1933003341
 21
6.1146298058
  0
LINE
  5
4A6
100
AcDbEntity
  8
03__ASM_ALL_CURVES
100
AcDbLine
 62
4
  6
CONTINUOUS
 10
12.2286620024
 20
6.1358468058
 11
12.2428066683
 21
6.1146298058
  0
LINE
  5
4A7
100
AcDbEntity
  8
03__ASM_ALL_CURVES
100
AcDbLine
 62
4
  6
CONTINUOUS
 10
12.2286620024
 20
6.2737573058
 11
12.2215896657
 21
6.2843658058
  0
LINE
  5
4A8
100
AcDbEntity
  8
03__ASM_ALL_CURVES
100
AcDbLine
 62
4
  6
CONTINUOUS
 10
12.2003726657
 20
6.3639295558
 11
12.1933003341
 21
6.3745380558
  0
LINE
  5
4A9
100
AcDbEntity
  8
03__ASM_ALL_CURVES
100
AcDbLine
 62
4
  6
CONTINUOUS
 10
12.2710960006
 20
6.3055828058
 11
12.2781683341
 21
6.2949743058
  0
LINE
  5
4AA
100
AcDbEntity
  8
03__ASM_ALL_CURVES
100
AcDbLine
 62
4
  6
CONTINUOUS
 10
12.2710960006
 20
6.3851465558
 11
12.2781683341
 21
6.3745380558
  0
LINE
  5
4AB
100
AcDbEntity
  8
03__ASM_ALL_CURVES
100
AcDbLine
 62
4
  6
CONTINUOUS
 10
10.5397343341
 20
9.3932560581
 11
10.5397343341
 21
9.413256057
  0
LINE
  5
4AC
100
AcDbEntity
  8
0
100
AcDbLine
 62
7
  6
CONTINUOUS
 10
10.5547343341
 20
8.8932560558
 11
10.5547343341
 21
8.9232560558
  0
LINE
  5
4AD
100
AcDbEntity
  8
0
100
AcDbLine
 62
7
  6
CONTINUOUS
 10
10.6147343341
 20
8.8632560558
 11
10.6147343341
 21
8.8932560558
  0
LINE
  5
4AE
100
AcDbEntity
  8
03__ASM_ALL_CURVES
100
AcDbLine
 62
4
  6
CONTINUOUS
 10
10.7047343341
 20
9.4632560558
 11
10.7047343341
 21
9.3432560558
  0
LINE
  5
4AF
100
AcDbEntity
  8
0
100
AcDbLine
 62
7
  6
CONTINUOUS
 10
10.7147343341
 20
8.8632560558
 11
10.7147343341
 21
8.9232560558
  0
LINE
  5
4B0
100
AcDbEntity
  8
0
100
AcDbLine
 62
7
  6
CONTINUOUS
 10
10.7547343341
 20
8.9232560558
 11
10.7547343341
 21
8.8632560558
  0
LINE
  5
4B1
100
AcDbEntity
  8
03__ASM_ALL_CURVES
100
AcDbLine
 62
4
  6
CONTINUOUS
 10
10.7572343341
 20
9.4032560558
 11
10.7647343341
 21
9.4332560558
  0
LINE
  5
4B2
100
AcDbEntity
  8
03__ASM_ALL_CURVES
100
AcDbLine
 62
4
  6
CONTINUOUS
 10
10.8697343341
 20
9.4032560558
 11
10.8772343341
 21
9.4332560558
  0
LINE
  5
4B3
100
AcDbEntity
  8
03__ASM_ALL_CURVES
100
AcDbLine
 62
4
  6
CONTINUOUS
 10
9.6313003341
 20
6.9686140558
 11
9.6383726657
 21
6.9792225558
  0
LINE
  5
4B4
100
AcDbEntity
  8
03__ASM_ALL_CURVES
100
AcDbLine
 62
4
  6
CONTINUOUS
 10
10.9597343341
 20
9.2232560558
 11
10.9447343341
 21
9.2032560552
  0
LINE
  5
4B5
100
AcDbEntity
  8
03__ASM_ALL_CURVES
100
AcDbLine
 62
4
  6
CONTINUOUS
 10
11.0722343341
 20
9.3732560558
 11
11.0572343341
 21
9.3532560534
  0
LINE
  5
4B6
100
AcDbEntity
  8
03__ASM_ALL_CURVES
100
AcDbLine
 62
4
  6
CONTINUOUS
 10
10.9597343341
 20
9.1532560581
 11
10.9522343341
 21
9.1432560534
  0
LINE
  5
4B7
100
AcDbEntity
  8
03__ASM_ALL_CURVES
100
AcDbLine
 62
4
  6
CONTINUOUS
 10
11.0572343341
 20
9.1932560558
 11
11.0722343341
 21
9.2132560555
  0
LINE
  5
4B8
100
AcDbEntity
  8
03__ASM_ALL_CURVES
100
AcDbLine
 62
4
  6
CONTINUOUS
 10
11.0647343341
 20
9.1332560558
 11
11.0722343341
 21
9.1432560534
  0
LINE
  5
4B9
100
AcDbEntity
  8
03__ASM_ALL_CURVES
100
AcDbLine
 62
4
  6
CONTINUOUS
 10
9.1114838341
 20
7.5556177241
 11
9.1220923341
 21
7.5626900558
  0
LINE
  5
4BA
100
AcDbEntity
  8
03__ASM_ALL_CURVES
100
AcDbLine
 62
4
  6
CONTINUOUS
 10
9.1327008341
 20
7.4848943893
 11
9.1220923341
 21
7.4778220558
  0
LINE
  5
4BB
100
AcDbEntity
  8
03__ASM_ALL_CURVES
100
AcDbLine
 62
4
  6
CONTINUOUS
 10
11.1847343341
 20
9.4032560558
 11
11.1472343341
 21
9.4032560558
  0
LINE
  5
4BC
100
AcDbEntity
  8
03__ASM_ALL_CURVES
100
AcDbLine
 62
4
  6
CONTINUOUS
 10
10.7047343341
 20
9.4032560558
 11
10.6672343341
 21
9.4032560558
  0
LINE
  5
4BD
100
AcDbEntity
  8
03__ASM_ALL_CURVES
100
AcDbLine
 62
4
  6
CONTINUOUS
 10
11.4172343341
 20
9.4232560546
 11
11.3722343341
 21
9.4232560546
  0
LINE
  5
4BE
100
AcDbEntity
  8
03__ASM_ALL_CURVES
100
AcDbLine
 62
4
  6
CONTINUOUS
 10
10.6447343341
 20
9.4632560558
 11
10.7047343341
 21
9.4632560558
  0
LINE
  5
4BF
100
AcDbEntity
  8
03__ASM_ALL_CURVES
100
AcDbLine
 62
4
  6
CONTINUOUS
 10
10.7947343341
 20
9.4632560558
 11
10.8247343341
 21
9.4632560558
  0
LINE
  5
4C0
100
AcDbEntity
  8
03__ASM_ALL_CURVES
100
AcDbLine
 62
4
  6
CONTINUOUS
 10
10.9072343341
 20
9.4632560558
 11
10.9222343341
 21
9.4632560558
  0
LINE
  5
4C1
100
AcDbEntity
  8
03__ASM_ALL_CURVES
100
AcDbLine
 62
4
  6
CONTINUOUS
 10
11.0272343341
 20
9.4632560558
 11
11.0422343341
 21
9.4632560558
  0
LINE
  5
4C2
100
AcDbEntity
  8
03__ASM_ALL_CURVES
100
AcDbLine
 62
4
  6
CONTINUOUS
 10
11.1247343341
 20
9.4632560558
 11
11.1847343341
 21
9.4632560558
  0
LINE
  5
4C3
100
AcDbEntity
  8
03__ASM_ALL_CURVES
100
AcDbLine
 62
4
  6
CONTINUOUS
 10
11.5147343341
 20
9.4632560558
 11
11.5447343341
 21
9.4632560558
  0
LINE
  5
4C4
100
AcDbEntity
  8
03__ASM_ALL_CURVES
100
AcDbLine
 62
4
  6
CONTINUOUS
 10
8.4431483341
 20
10.1523283874
 11
8.4590610841
 21
10.1452560558
  0
LINE
  5
4C5
100
AcDbEntity
  8
03__ASM_ALL_CURVES
100
AcDbLine
 62
4
  6
CONTINUOUS
 10
8.7826203341
 20
10.1523283874
 11
8.7985330841
 21
10.1452560558
  0
LINE
  5
4C6
100
AcDbEntity
  8
03__ASM_ALL_CURVES
100
AcDbLine
 62
4
  6
CONTINUOUS
 10
8.8674883341
 20
10.1523283874
 11
8.8834010841
 21
10.1452560558
  0
LINE
  5
4C7
100
AcDbEntity
  8
03__ASM_ALL_CURVES
100
AcDbLine
 62
4
  6
CONTINUOUS
 10
9.0425285841
 20
10.1594007241
 11
9.0531370841
 21
10.1523283874
  0
LINE
  5
4C8
100
AcDbEntity
  8
03__ASM_ALL_CURVES
100
AcDbLine
 62
4
  6
CONTINUOUS
 10
9.0531370841
 20
11.0202560558
 11
9.0637455841
 21
11.0061113899
  0
LINE
  5
4C9
100
AcDbEntity
  8
03__ASM_ALL_CURVES
100
AcDbLine
 62
4
  6
CONTINUOUS
 10
9.0531370841
 20
11.0556177241
 11
9.0584413341
 21
11.0485453874
  0
LINE
  5
4CA
100
AcDbEntity
  8
03__ASM_ALL_CURVES
100
AcDbLine
 62
4
  6
CONTINUOUS
 10
9.1114838341
 20
10.9848943893
 11
9.1061795841
 21
10.9919667228
  0
LINE
  5
4CB
100
AcDbEntity
  8
03__ASM_ALL_CURVES
100
AcDbLine
 62
4
  6
CONTINUOUS
 10
9.8242343341
 20
10.0722560555
 11
9.8392343341
 21
10.0522560558
  0
LINE
  5
4CC
100
AcDbEntity
  8
03__ASM_ALL_CURVES
100
AcDbLine
 62
4
  6
CONTINUOUS
 10
9.1327008341
 20
11.0556177241
 11
9.1380050841
 21
11.0485453874
  0
LINE
  5
4CD
100
AcDbEntity
  8
03__ASM_ALL_CURVES
100
AcDbLine
 62
4
  6
CONTINUOUS
 10
8.7720118341
 20
11.5788943893
 11
8.7667075841
 21
11.5859667228
  0
LINE
  5
4CE
100
AcDbEntity
  8
03__ASM_ALL_CURVES
100
AcDbLine
 62
4
  6
CONTINUOUS
 10
11.4942343341
 20
8.0032560534
 11
11.4867343341
 21
8.0132560581
  0
LINE
  5
4CF
100
AcDbEntity
  8
03__ASM_ALL_CURVES
100
AcDbLine
 62
4
  6
CONTINUOUS
 10
9.2016560841
 20
11.0626900558
 11
9.2122645841
 21
11.0485453874
  0
LINE
  5
4D0
100
AcDbEntity
  8
03__ASM_ALL_CURVES
100
AcDbLine
 62
4
  6
CONTINUOUS
 10
8.7932288341
 20
11.6496177241
 11
8.7985330841
 21
11.6425453874
  0
LINE
  5
4D1
100
AcDbEntity
  8
03__ASM_ALL_CURVES
100
AcDbLine
 62
4
  6
CONTINUOUS
 10
11.4942343341
 20
8.0532560558
 11
11.4792343341
 21
8.0732560546
  0
LINE
  5
4D2
100
AcDbEntity
  8
03__ASM_ALL_CURVES
100
AcDbLine
 62
4
  6
CONTINUOUS
 10
8.8515755841
 20
11.5788943893
 11
8.8462713341
 21
11.5859667228
  0
LINE
  5
4D3
100
AcDbEntity
  8
03__ASM_ALL_CURVES
100
AcDbLine
 62
4
  6
CONTINUOUS
 10
10.5622343341
 20
9.3432560558
 11
10.5472343341
 21
9.3632560581
  0
LINE
  5
4D4
100
AcDbEntity
  8
03__ASM_ALL_CURVES
100
AcDbLine
 62
4
  6
CONTINUOUS
 10
8.8834010841
 20
11.6142560558
 11
8.8940095841
 21
11.6001113899
  0
LINE
  5
4D5
100
AcDbEntity
  8
03__ASM_ALL_CURVES
100
AcDbLine
 62
4
  6
CONTINUOUS
 10
12.2003726657
 20
6.6185335558
 11
12.1933003341
 21
6.6291420558
  0
LINE
  5
4D6
100
AcDbEntity
  8
03__ASM_ALL_CURVES
100
AcDbLine
 62
4
  6
CONTINUOUS
 10
12.2286620024
 20
6.6980973058
 11
12.2215896657
 21
6.7087058058
  0
LINE
  5
4D7
100
AcDbEntity
  8
03__ASM_ALL_CURVES
100
AcDbLine
 62
4
  6
CONTINUOUS
 10
12.2710960006
 20
6.6397505558
 11
12.2781683341
 21
6.6291420558
  0
LINE
  5
4D8
100
AcDbEntity
  8
03__ASM_ALL_CURVES
100
AcDbLine
 62
4
  6
CONTINUOUS
 10
12.2710960006
 20
6.7299228058
 11
12.2781683341
 21
6.7193143058
  0
LINE
  5
4D9
100
AcDbEntity
  8
03__ASM_ALL_CURVES
100
AcDbLine
 62
4
  6
CONTINUOUS
 10
12.2003726657
 20
6.8731375558
 11
12.1933003341
 21
6.8837460558
  0
LINE
  5
4DA
100
AcDbEntity
  8
03__ASM_ALL_CURVES
100
AcDbLine
 62
4
  6
CONTINUOUS
 10
10.5472343341
 20
9.3632560581
 11
10.5397343341
 21
9.3932560581
  0
LINE
  5
4DB
100
AcDbEntity
  8
0
100
AcDbLine
 62
7
  6
CONTINUOUS
 10
10.7947343341
 20
8.9232560558
 11
10.7947343341
 21
8.8032560558
  0
LINE
  5
4DC
100
AcDbEntity
  8
03__ASM_ALL_CURVES
100
AcDbLine
 62
4
  6
CONTINUOUS
 10
10.8247343341
 20
9.4632560558
 11
10.8247343341
 21
9.3432560558
  0
LINE
  5
4DD
100
AcDbEntity
  8
0
100
AcDbLine
 62
7
  6
CONTINUOUS
 10
10.8347343341
 20
8.9232560558
 11
10.8347343341
 21
8.8632560558
  0
LINE
  5
4DE
100
AcDbEntity
  8
0
100
AcDbLine
 62
7
  6
CONTINUOUS
 10
10.8947343341
 20
8.8632560558
 11
10.8947343341
 21
8.9232560558
  0
LINE
  5
4DF
100
AcDbEntity
  8
0
100
AcDbLine
 62
7
  6
CONTINUOUS
 10
10.9347343341
 20
8.8632560558
 11
10.9347343341
 21
8.9232560558
  0
LINE
  5
4E0
100
AcDbEntity
  8
0
100
AcDbLine
 62
7
  6
CONTINUOUS
 10
10.9347343341
 20
11.1437560558
 11
10.9347343341
 21
11.5801923899
  0
LINE
  5
4E1
100
AcDbEntity
  8
0
100
AcDbLine
 62
7
  6
CONTINUOUS
 10
10.9356318616
 20
11.1437560558
 11
10.9356318616
 21
11.5801923899
  0
LINE
  5
4E2
100
AcDbEntity
  8
03__ASM_ALL_CURVES
100
AcDbLine
 62
4
  6
CONTINUOUS
 10
10.9433003341
 20
6.9898310558
 11
10.9433003341
 21
6.9473970558
  0
LINE
  5
4E3
100
AcDbEntity
  8
03__ASM_ALL_CURVES
100
AcDbLine
 62
4
  6
CONTINUOUS
 10
10.9433003341
 20
6.2843658058
 11
10.9433003341
 21
6.2949743058
  0
LINE
  5
4E4
100
AcDbEntity
  8
03__ASM_ALL_CURVES
100
AcDbLine
 62
4
  6
CONTINUOUS
 10
10.9433003341
 20
6.6238378058
 11
10.9433003341
 21
6.6344463058
  0
LINE
  5
4E5
100
AcDbEntity
  8
03__ASM_ALL_CURVES
100
AcDbLine
 62
4
  6
CONTINUOUS
 10
10.9433003341
 20
6.7087058058
 11
10.9433003341
 21
6.7193143058
  0
LINE
  5
4E6
100
AcDbEntity
  8
03__ASM_ALL_CURVES
100
AcDbLine
 62
4
  6
CONTINUOUS
 10
10.9433003341
 20
6.8784418058
 11
10.9433003341
 21
6.8890503058
  0
LINE
  5
4E7
100
AcDbEntity
  8
03__ASM_ALL_CURVES
100
AcDbLine
 62
4
  6
CONTINUOUS
 10
10.9447343341
 20
9.2032560552
 11
10.9447343341
 21
9.173256057
  0
LINE
  5
4E8
100
AcDbEntity
  8
03__ASM_ALL_CURVES
100
AcDbLine
 62
4
  6
CONTINUOUS
 10
10.9522343341
 20
9.1432560534
 11
10.9522343341
 21
9.1132560534
  0
LINE
  5
4E9
100
AcDbEntity
  8
03__ASM_ALL_CURVES
100
AcDbLine
 62
4
  6
CONTINUOUS
 10
10.9786620024
 20
6.2843658058
 11
10.9786620024
 21
6.2949743058
  0
LINE
  5
4EA
100
AcDbEntity
  8
03__ASM_ALL_CURVES
100
AcDbLine
 62
4
  6
CONTINUOUS
 10
10.9786620024
 20
6.6238378058
 11
10.9786620024
 21
6.6344463058
  0
LINE
  5
4EB
100
AcDbEntity
  8
03__ASM_ALL_CURVES
100
AcDbLine
 62
4
  6
CONTINUOUS
 10
10.9786620024
 20
6.7087058058
 11
10.9786620024
 21
6.7193143058
  0
LINE
  5
4EC
100
AcDbEntity
  8
03__ASM_ALL_CURVES
100
AcDbLine
 62
4
  6
CONTINUOUS
 10
10.9857343341
 20
7.4353880558
 11
10.9857343341
 21
7.1807840558
  0
LINE
  5
4ED
100
AcDbEntity
  8
0
100
AcDbLine
 62
7
  6
CONTINUOUS
 10
10.9947343341
 20
8.9232560558
 11
10.9947343341
 21
8.8832560558
  0
LINE
  5
4EE
100
AcDbEntity
  8
0
100
AcDbLine
 62
7
  6
CONTINUOUS
 10
10.9952343341
 20
11.0202560558
 11
10.9952343341
 21
11.0832560558
  0
LINE
  5
4EF
100
AcDbEntity
  8
03__ASM_ALL_CURVES
100
AcDbLine
 62
4
  6
CONTINUOUS
 10
10.9597343341
 20
9.4032560558
 11
10.9522343341
 21
9.3732560558
  0
LINE
  5
4F0
100
AcDbEntity
  8
03__ASM_ALL_CURVES
100
AcDbLine
 62
4
  6
CONTINUOUS
 10
11.0797343341
 20
9.4032560558
 11
11.0722343341
 21
9.3732560558
  0
LINE
  5
4F1
100
AcDbEntity
  8
03__ASM_ALL_CURVES
100
AcDbLine
 62
4
  6
CONTINUOUS
 10
9.7161683341
 20
6.9686140558
 11
9.7090960006
 21
6.9580055558
  0
LINE
  5
4F2
100
AcDbEntity
  8
03__ASM_ALL_CURVES
100
AcDbLine
 62
4
  6
CONTINUOUS
 10
11.4847343341
 20
9.4332560558
 11
11.4997343341
 21
9.4532560555
  0
LINE
  5
4F3
100
AcDbEntity
  8
03__ASM_ALL_CURVES
100
AcDbLine
 62
4
  6
CONTINUOUS
 10
9.7942343341
 20
9.9622560558
 11
9.7792343341
 21
9.9722560534
  0
LINE
  5
4F4
100
AcDbEntity
  8
03__ASM_ALL_CURVES
100
AcDbLine
 62
4
  6
CONTINUOUS
 10
11.0872343341
 20
9.1032560558
 11
11.0722343341
 21
9.1132560534
  0
LINE
  5
4F5
100
AcDbEntity
  8
03__ASM_ALL_CURVES
100
AcDbLine
 62
4
  6
CONTINUOUS
 10
10.7947343341
 20
9.3432560558
 11
10.7797343341
 21
9.3532560534
  0
LINE
  5
4F6
100
AcDbEntity
  8
03__ASM_ALL_CURVES
100
AcDbLine
 62
4
  6
CONTINUOUS
 10
11.0872343341
 20
9.1532560581
 11
11.0722343341
 21
9.1632560558
  0
LINE
  5
4F7
100
AcDbEntity
  8
03__ASM_ALL_CURVES
100
AcDbLine
 62
4
  6
CONTINUOUS
 10
8.3529760841
 20
10.9778220558
 11
8.3423675841
 21
10.9848943893
  0
LINE
  5
4F8
100
AcDbEntity
  8
03__ASM_ALL_CURVES
100
AcDbLine
 62
4
  6
CONTINUOUS
 10
8.3635845841
 20
11.0273283874
 11
8.3741930841
 21
11.0202560558
  0
LINE
  5
4F9
100
AcDbEntity
  8
03__ASM_ALL_CURVES
100
AcDbLine
 62
4
  6
CONTINUOUS
 10
10.9072343341
 20
9.3432560558
 11
10.8922343341
 21
9.3532560534
  0
LINE
  5
4FA
100
AcDbEntity
  8
03__ASM_ALL_CURVES
100
AcDbLine
 62
4
  6
CONTINUOUS
 10
9.8092343341
 20
10.0822560558
 11
9.8242343341
 21
10.0722560555
  0
LINE
  5
4FB
100
AcDbEntity
  8
03__ASM_ALL_CURVES
100
AcDbLine
 62
4
  6
CONTINUOUS
 10
11.1022343341
 20
9.2232560558
 11
11.1172343341
 21
9.2132560555
  0
LINE
  5
4FC
100
AcDbEntity
  8
03__ASM_ALL_CURVES
100
AcDbLine
 62
4
  6
CONTINUOUS
 10
8.3635845841
 20
11.0626900558
 11
8.3741930841
 21
11.0556177241
  0
LINE
  5
4FD
100
AcDbEntity
  8
03__ASM_ALL_CURVES
100
AcDbLine
 62
4
  6
CONTINUOUS
 10
8.5227120841
 20
10.9778220558
 11
8.5121035841
 21
10.9848943893
  0
LINE
  5
4FE
100
AcDbEntity
  8
03__ASM_ALL_CURVES
100
AcDbLine
 62
4
  6
CONTINUOUS
 10
11.0272343341
 20
9.3432560558
 11
11.0122343341
 21
9.3532560534
  0
LINE
  5
4FF
100
AcDbEntity
  8
03__ASM_ALL_CURVES
100
AcDbLine
 62
4
  6
CONTINUOUS
 10
8.5333205841
 20
11.0344007241
 11
8.5439290841
 21
11.0273283874
  0
LINE
  5
500
100
AcDbEntity
  8
03__ASM_ALL_CURVES
100
AcDbLine
 62
4
  6
CONTINUOUS
 10
11.5392343341
 20
8.1032560555
 11
11.5467343341
 21
8.0932560552
  0
LINE
  5
501
100
AcDbEntity
  8
03__ASM_ALL_CURVES
100
AcDbLine
 62
4
  6
CONTINUOUS
 10
8.8834010841
 20
11.6496177241
 11
8.8887053341
 21
11.6425453874
  0
LINE
  5
502
100
AcDbEntity
  8
03__ASM_ALL_CURVES
100
AcDbLine
 62
4
  6
CONTINUOUS
 10
8.9656169591
 20
11.5824305561
 11
8.9735733341
 21
11.5718220558
  0
LINE
  5
503
100
AcDbEntity
  8
03__ASM_ALL_CURVES
100
AcDbLine
 62
4
  6
CONTINUOUS
 10
9.0213115841
 20
11.5788943893
 11
9.0107030841
 21
11.5930390558
  0
LINE
  5
504
100
AcDbEntity
  8
03__ASM_ALL_CURVES
100
AcDbLine
 62
4
  6
CONTINUOUS
 10
9.0213115841
 20
11.6284007241
 11
9.0160073341
 21
11.6354730558
  0
LINE
  5
505
100
AcDbEntity
  8
03__ASM_ALL_CURVES
100
AcDbLine
 62
4
  6
CONTINUOUS
 10
9.0531370841
 20
11.6142560558
 11
9.0637455841
 21
11.6001113899
  0
LINE
  5
506
100
AcDbEntity
  8
03__ASM_ALL_CURVES
100
AcDbLine
 62
4
  6
CONTINUOUS
 10
10.9522343341
 20
9.1132560534
 11
10.9597343341
 21
9.1032560558
  0
LINE
  5
507
100
AcDbEntity
  8
03__ASM_ALL_CURVES
100
AcDbLine
 62
4
  6
CONTINUOUS
 10
9.0531370841
 20
11.6496177241
 11
9.0584413341
 21
11.6425453874
  0
LINE
  5
508
100
AcDbEntity
  8
03__ASM_ALL_CURVES
100
AcDbLine
 62
4
  6
CONTINUOUS
 10
9.1061795841
 20
11.5788943893
 11
9.0955710841
 21
11.5930390558
  0
LINE
  5
509
100
AcDbEntity
  8
03__ASM_ALL_CURVES
100
AcDbLine
 62
4
  6
CONTINUOUS
 10
10.7797343341
 20
9.3532560534
 11
10.7647343341
 21
9.3732560558
  0
LINE
  5
50A
100
AcDbEntity
  8
03__ASM_ALL_CURVES
100
AcDbLine
 62
4
  6
CONTINUOUS
 10
10.9447343341
 20
9.173256057
 11
10.9597343341
 21
9.1532560581
  0
LINE
  5
50B
100
AcDbEntity
  8
03__ASM_ALL_CURVES
100
AcDbLine
 62
4
  6
CONTINUOUS
 10
9.1061795841
 20
11.6284007241
 11
9.1008753341
 21
11.6354730558
  0
LINE
  5
50C
100
AcDbEntity
  8
03__ASM_ALL_CURVES
100
AcDbLine
 62
4
  6
CONTINUOUS
 10
9.1380050841
 20
11.6142560558
 11
9.1486135841
 21
11.6001113899
  0
LINE
  5
50D
100
AcDbEntity
  8
03__ASM_ALL_CURVES
100
AcDbLine
 62
4
  6
CONTINUOUS
 10
9.1380050841
 20
11.6496177241
 11
9.1433093341
 21
11.6425453874
  0
LINE
  5
50E
100
AcDbEntity
  8
03__ASM_ALL_CURVES
100
AcDbLine
 62
4
  6
CONTINUOUS
 10
12.2003726657
 20
6.9527013058
 11
12.1933003341
 21
6.9633098058
  0
LINE
  5
50F
100
AcDbEntity
  8
03__ASM_ALL_CURVES
100
AcDbLine
 62
4
  6
CONTINUOUS
 10
12.2710960006
 20
6.8943545558
 11
12.2781683341
 21
6.8837460558
  0
LINE
  5
510
100
AcDbEntity
  8
03__ASM_ALL_CURVES
100
AcDbLine
 62
4
  6
CONTINUOUS
 10
12.2286620024
 20
6.9845268058
 11
12.2428066683
 21
6.9633098058
  0
LINE
  5
511
100
AcDbEntity
  8
03__ASM_ALL_CURVES
100
AcDbLine
 62
4
  6
CONTINUOUS
 10
10.7647343341
 20
9.3732560558
 11
10.7572343341
 21
9.4032560558
  0
LINE
  5
512
100
AcDbEntity
  8
03__ASM_ALL_CURVES
100
AcDbLine
 62
4
  6
CONTINUOUS
 10
10.8772343341
 20
9.3732560558
 11
10.8697343341
 21
9.4032560558
  0
LINE
  5
513
100
AcDbEntity
  8
03__ASM_ALL_CURVES
100
AcDbLine
 62
4
  6
CONTINUOUS
 10
11.0122343341
 20
9.1032560558
 11
11.0122343341
 21
9.2232560558
  0
LINE
  5
514
100
AcDbEntity
  8
03__ASM_ALL_CURVES
100
AcDbLine
 62
4
  6
CONTINUOUS
 10
11.0281683341
 20
6.8200950558
 11
11.0281683341
 21
6.8121386808
  0
LINE
  5
515
100
AcDbEntity
  8
03__ASM_ALL_CURVES
100
AcDbLine
 62
4
  6
CONTINUOUS
 10
11.0281683341
 20
6.7193143058
 11
11.0281683341
 21
6.7087058058
  0
LINE
  5
516
100
AcDbEntity
  8
03__ASM_ALL_CURVES
100
AcDbLine
 62
4
  6
CONTINUOUS
 10
11.0281683341
 20
6.6344463058
 11
11.0281683341
 21
6.6238378058
  0
LINE
  5
517
100
AcDbEntity
  8
03__ASM_ALL_CURVES
100
AcDbLine
 62
4
  6
CONTINUOUS
 10
11.0281683341
 20
6.2949743058
 11
11.0281683341
 21
6.2843658058
  0
LINE
  5
518
100
AcDbEntity
  8
03__ASM_ALL_CURVES
100
AcDbLine
 62
4
  6
CONTINUOUS
 10
11.0281683341
 20
6.2260190558
 11
11.0281683341
 21
6.2180626808
  0
LINE
  5
519
100
AcDbEntity
  8
03__ASM_ALL_CURVES
100
AcDbLine
 62
4
  6
CONTINUOUS
 10
11.0281683341
 20
6.8625290558
 11
11.0281683341
 21
6.9049630558
  0
LINE
  5
51A
100
AcDbEntity
  8
0
100
AcDbLine
 62
7
  6
CONTINUOUS
 10
11.036266595
 20
10.4087560558
 11
11.036266595
 21
10.4215581186
  0
LINE
  5
51B
100
AcDbEntity
  8
0
100
AcDbLine
 62
7
  6
CONTINUOUS
 10
11.0567683972
 20
10.3882560558
 11
11.0567683972
 21
9.8739792309
  0
LINE
  5
51C
100
AcDbEntity
  8
03__ASM_ALL_CURVES
100
AcDbLine
 62
4
  6
CONTINUOUS
 10
11.0572343341
 20
9.1832560546
 11
11.0572343341
 21
9.1932560558
  0
LINE
  5
51D
100
AcDbEntity
  8
03__ASM_ALL_CURVES
100
AcDbLine
 62
4
  6
CONTINUOUS
 10
11.0647343341
 20
9.1232560581
 11
11.0647343341
 21
9.1332560558
  0
LINE
  5
51E
100
AcDbEntity
  8
0
100
AcDbLine
 62
7
  6
CONTINUOUS
 10
11.0807343341
 20
10.1862560558
 11
11.0807343341
 21
10.3642560558
  0
LINE
  5
51F
100
AcDbEntity
  8
0
100
AcDbLine
 62
7
  6
CONTINUOUS
 10
11.0947343341
 20
8.8632560558
 11
11.0947343341
 21
8.9232560558
  0
LINE
  5
520
100
AcDbEntity
  8
0
100
AcDbLine
 62
7
  6
CONTINUOUS
 10
11.1347343341
 20
8.8032560558
 11
11.1347343341
 21
8.9232560558
  0
LINE
  5
521
100
AcDbEntity
  8
0
100
AcDbLine
 62
7
  6
CONTINUOUS
 10
11.1432343341
 20
9.912979725
 11
11.1432343341
 21
9.9830872721
  0
LINE
  5
522
100
AcDbEntity
  8
0
100
AcDbLine
 62
7
  6
CONTINUOUS
 10
11.1432343341
 20
10.1274248394
 11
11.1432343341
 21
10.1762560558
  0
LINE
  5
523
100
AcDbEntity
  8
0
100
AcDbLine
 62
7
  6
CONTINUOUS
 10
11.1540368066
 20
11.1437560558
 11
11.1540368066
 21
11.5801923899
  0
LINE
  5
524
100
AcDbEntity
  8
03__ASM_ALL_CURVES
100
AcDbLine
 62
4
  6
CONTINUOUS
 10
11.1847343341
 20
9.4632560558
 11
11.1847343341
 21
9.3432560558
  0
LINE
  5
525
100
AcDbEntity
  8
0
100
AcDbLine
 62
7
  6
CONTINUOUS
 10
11.1947343341
 20
8.9232560558
 11
11.1947343341
 21
8.8632560558
  0
LINE
  5
526
100
AcDbEntity
  8
0
100
AcDbLine
 62
7
  6
CONTINUOUS
 10
11.2053293891
 20
11.1437560558
 11
11.2053293891
 21
11.5801923899
  0
LINE
  5
527
100
AcDbEntity
  8
0
100
AcDbLine
 62
7
  6
CONTINUOUS
 10
11.2347343341
 20
8.8632560558
 11
11.2347343341
 21
8.9832560558
  0
LINE
  5
528
100
AcDbEntity
  8
03__ASM_ALL_CURVES
100
AcDbLine
 62
4
  6
CONTINUOUS
 10
11.2447343341
 20
9.2232560558
 11
11.2447343341
 21
9.1032560558
  0
LINE
  5
529
100
AcDbEntity
  8
03__ASM_ALL_CURVES
100
AcDbLine
 62
4
  6
CONTINUOUS
 10
11.4322343341
 20
9.4632560558
 11
11.3947343341
 21
9.3432560558
  0
LINE
  5
52A
100
AcDbEntity
  8
03__ASM_ALL_CURVES
100
AcDbLine
 62
4
  6
CONTINUOUS
 10
11.6272343341
 20
9.3432560558
 11
11.6422343341
 21
9.3632560581
  0
LINE
  5
52B
100
AcDbEntity
  8
03__ASM_ALL_CURVES
100
AcDbLine
 62
4
  6
CONTINUOUS
 10
12.0602343341
 20
8.9502560581
 11
12.0902343341
 21
8.970256057
  0
LINE
  5
52C
100
AcDbEntity
  8
03__ASM_ALL_CURVES
100
AcDbLine
 62
4
  6
CONTINUOUS
 10
12.1052343341
 20
8.9102560534
 11
12.0902343341
 21
8.9002560558
  0
LINE
  5
52D
100
AcDbEntity
  8
03__ASM_ALL_CURVES
100
AcDbLine
 62
4
  6
CONTINUOUS
 10
9.8092343341
 20
9.9622560558
 11
9.7942343341
 21
9.9622560558
  0
LINE
  5
52E
100
AcDbEntity
  8
03__ASM_ALL_CURVES
100
AcDbLine
 62
4
  6
CONTINUOUS
 10
9.8017343341
 20
10.0222560558
 11
9.7717343341
 21
10.0222560558
  0
LINE
  5
52F
100
AcDbEntity
  8
03__ASM_ALL_CURVES
100
AcDbLine
 62
4
  6
CONTINUOUS
 10
9.7942343341
 20
10.0822560558
 11
9.8092343341
 21
10.0822560558
  0
LINE
  5
530
100
AcDbEntity
  8
03__ASM_ALL_CURVES
100
AcDbLine
 62
4
  6
CONTINUOUS
 10
10.9222343341
 20
9.4632560558
 11
10.9372343341
 21
9.4532560555
  0
LINE
  5
531
100
AcDbEntity
  8
03__ASM_ALL_CURVES
100
AcDbLine
 62
4
  6
CONTINUOUS
 10
11.0422343341
 20
9.4632560558
 11
11.0572343341
 21
9.4532560555
  0
LINE
  5
532
100
AcDbEntity
  8
03__ASM_ALL_CURVES
100
AcDbLine
 62
4
  6
CONTINUOUS
 10
8.7773160841
 20
10.9778220558
 11
8.7667075841
 21
10.9848943893
  0
LINE
  5
533
100
AcDbEntity
  8
03__ASM_ALL_CURVES
100
AcDbLine
 62
4
  6
CONTINUOUS
 10
8.7773160841
 20
11.0273283874
 11
8.7667075841
 21
11.0344007241
  0
LINE
  5
534
100
AcDbEntity
  8
03__ASM_ALL_CURVES
100
AcDbLine
 62
4
  6
CONTINUOUS
 10
8.8621840841
 20
10.9778220558
 11
8.8515755841
 21
10.9848943893
  0
LINE
  5
535
100
AcDbEntity
  8
03__ASM_ALL_CURVES
100
AcDbLine
 62
4
  6
CONTINUOUS
 10
8.7879245841
 20
11.0273283874
 11
8.7985330841
 21
11.0202560558
  0
LINE
  5
536
100
AcDbEntity
  8
03__ASM_ALL_CURVES
100
AcDbLine
 62
4
  6
CONTINUOUS
 10
8.7879245841
 20
11.0626900558
 11
8.7985330841
 21
11.0556177241
  0
LINE
  5
537
100
AcDbEntity
  8
03__ASM_ALL_CURVES
100
AcDbLine
 62
4
  6
CONTINUOUS
 10
8.8621840841
 20
11.0273283874
 11
8.8515755841
 21
11.0344007241
  0
LINE
  5
538
100
AcDbEntity
  8
03__ASM_ALL_CURVES
100
AcDbLine
 62
4
  6
CONTINUOUS
 10
8.8727925841
 20
11.0273283874
 11
8.8834010841
 21
11.0202560558
  0
LINE
  5
539
100
AcDbEntity
  8
03__ASM_ALL_CURVES
100
AcDbLine
 62
4
  6
CONTINUOUS
 10
12.0752343341
 20
8.9002560558
 11
12.0602343341
 21
8.9102560534
  0
LINE
  5
53A
100
AcDbEntity
  8
03__ASM_ALL_CURVES
100
AcDbLine
 62
4
  6
CONTINUOUS
 10
8.8727925841
 20
11.0626900558
 11
8.8834010841
 21
11.0556177241
  0
LINE
  5
53B
100
AcDbEntity
  8
03__ASM_ALL_CURVES
100
AcDbLine
 62
4
  6
CONTINUOUS
 10
9.0319200841
 20
10.9778220558
 11
9.0213115841
 21
10.9848943893
  0
LINE
  5
53C
100
AcDbEntity
  8
03__ASM_ALL_CURVES
100
AcDbLine
 62
4
  6
CONTINUOUS
 10
10.8922343341
 20
9.3532560534
 11
10.8772343341
 21
9.3732560558
  0
LINE
  5
53D
100
AcDbEntity
  8
03__ASM_ALL_CURVES
100
AcDbLine
 62
4
  6
CONTINUOUS
 10
11.0722343341
 20
9.1132560534
 11
11.0647343341
 21
9.1232560581
  0
LINE
  5
53E
100
AcDbEntity
  8
03__ASM_ALL_CURVES
100
AcDbLine
 62
4
  6
CONTINUOUS
 10
9.2016560841
 20
11.6566900558
 11
9.2122645841
 21
11.6425453874
  0
LINE
  5
53F
100
AcDbEntity
  8
03__ASM_ALL_CURVES
100
AcDbLine
 62
4
  6
CONTINUOUS
 10
11.0722343341
 20
9.1632560558
 11
11.0572343341
 21
9.1832560546
  0
LINE
  5
540
100
AcDbEntity
  8
03__ASM_ALL_CURVES
100
AcDbLine
 62
4
  6
CONTINUOUS
 10
10.9372343341
 20
9.4532560555
 11
10.9522343341
 21
9.4332560558
  0
LINE
  5
541
100
AcDbEntity
  8
03__ASM_ALL_CURVES
100
AcDbLine
 62
4
  6
CONTINUOUS
 10
11.1172343341
 20
9.2132560555
 11
11.1247343341
 21
9.2032560552
  0
LINE
  5
542
100
AcDbEntity
  8
03__ASM_ALL_CURVES
100
AcDbLine
 62
4
  6
CONTINUOUS
 10
11.0122343341
 20
9.3532560534
 11
11.0047343341
 21
9.3632560581
  0
LINE
  5
543
100
AcDbEntity
  8
03__ASM_ALL_CURVES
100
AcDbLine
 62
4
  6
CONTINUOUS
 10
11.0572343341
 20
9.4532560555
 11
11.0722343341
 21
9.4332560558
  0
LINE
  5
544
100
AcDbEntity
  8
03__ASM_ALL_CURVES
100
AcDbLine
 62
4
  6
CONTINUOUS
 10
12.2357343341
 20
6.3586253058
 11
12.2286620024
 21
6.3745380558
  0
LINE
  5
545
100
AcDbEntity
  8
03__ASM_ALL_CURVES
100
AcDbLine
 62
4
  6
CONTINUOUS
 10
12.2357343341
 20
6.6132293058
 11
12.2286620024
 21
6.6291420558
  0
LINE
  5
546
100
AcDbEntity
  8
03__ASM_ALL_CURVES
100
AcDbLine
 62
4
  6
CONTINUOUS
 10
10.9522343341
 20
9.4332560558
 11
10.9597343341
 21
9.4032560558
  0
LINE
  5
547
100
AcDbEntity
  8
03__ASM_ALL_CURVES
100
AcDbLine
 62
4
  6
CONTINUOUS
 10
11.0722343341
 20
9.4332560558
 11
11.0797343341
 21
9.4032560558
  0
LINE
  5
548
100
AcDbEntity
  8
03__ASM_ALL_CURVES
100
AcDbLine
 62
4
  6
CONTINUOUS
 10
11.2747343341
 20
9.3432560558
 11
11.2747343341
 21
9.4632560558
  0
LINE
  5
549
100
AcDbEntity
  8
0
100
AcDbLine
 62
7
  6
CONTINUOUS
 10
11.2947343341
 20
8.9232560558
 11
11.2947343341
 21
8.8632560558
  0
LINE
  5
54A
100
AcDbEntity
  8
0
100
AcDbLine
 62
7
  6
CONTINUOUS
 10
11.3347343341
 20
8.9232560558
 11
11.3347343341
 21
8.8632560558
  0
LINE
  5
54B
100
AcDbEntity
  8
0
100
AcDbLine
 62
7
  6
CONTINUOUS
 10
11.3947343341
 20
8.9232560558
 11
11.3947343341
 21
8.8032560558
  0
LINE
  5
54C
100
AcDbEntity
  8
03__ASM_ALL_CURVES
100
AcDbLine
 62
4
  6
CONTINUOUS
 10
11.4792343341
 20
8.0732560546
 11
11.4792343341
 21
8.0832560558
  0
LINE
  5
54D
100
AcDbEntity
  8
03__ASM_ALL_CURVES
100
AcDbLine
 62
4
  6
CONTINUOUS
 10
11.4867343341
 20
8.0132560581
 11
11.4867343341
 21
8.0232560558
  0
LINE
  5
54E
100
AcDbEntity
  8
03__ASM_ALL_CURVES
100
AcDbLine
 62
4
  6
CONTINUOUS
 10
11.4772343341
 20
9.4032560558
 11
11.4847343341
 21
9.4332560558
  0
LINE
  5
54F
100
AcDbEntity
  8
03__ASM_ALL_CURVES
100
AcDbLine
 62
4
  6
CONTINUOUS
 10
11.6422343341
 20
9.3632560581
 11
11.6497343341
 21
9.3932560581
  0
LINE
  5
550
100
AcDbEntity
  8
03__ASM_ALL_CURVES
100
AcDbLine
 62
4
  6
CONTINUOUS
 10
9.6383726657
 20
6.9792225558
 11
9.6454450024
 21
6.9845268058
  0
LINE
  5
551
100
AcDbEntity
  8
03__ASM_ALL_CURVES
100
AcDbLine
 62
4
  6
CONTINUOUS
 10
9.7090960006
 20
6.9580055558
 11
9.702023667
 21
6.9527013058
  0
LINE
  5
552
100
AcDbEntity
  8
03__ASM_ALL_CURVES
100
AcDbLine
 62
4
  6
CONTINUOUS
 10
11.4942343341
 20
8.1032560555
 11
11.5092343341
 21
8.1132560558
  0
LINE
  5
553
100
AcDbEntity
  8
03__ASM_ALL_CURVES
100
AcDbLine
 62
4
  6
CONTINUOUS
 10
9.0425285841
 20
10.1028220558
 11
9.0319200841
 21
10.1028220558
  0
LINE
  5
554
100
AcDbEntity
  8
03__ASM_ALL_CURVES
100
AcDbLine
 62
4
  6
CONTINUOUS
 10
8.9735733341
 20
10.1028220558
 11
8.9656169591
 21
10.1028220558
  0
LINE
  5
555
100
AcDbEntity
  8
03__ASM_ALL_CURVES
100
AcDbLine
 62
4
  6
CONTINUOUS
 10
8.3794973341
 20
10.1028220558
 11
8.3715409591
 21
10.1028220558
  0
LINE
  5
556
100
AcDbEntity
  8
03__ASM_ALL_CURVES
100
AcDbLine
 62
4
  6
CONTINUOUS
 10
8.2521953341
 20
10.1028220558
 11
8.2946293341
 21
10.1028220558
  0
LINE
  5
557
100
AcDbEntity
  8
03__ASM_ALL_CURVES
100
AcDbLine
 62
4
  6
CONTINUOUS
 10
8.5067993341
 20
10.1028220558
 11
8.5492333341
 21
10.1028220558
  0
LINE
  5
558
100
AcDbEntity
  8
03__ASM_ALL_CURVES
100
AcDbLine
 62
4
  6
CONTINUOUS
 10
9.1008753341
 20
10.1240390558
 11
9.1486135841
 21
10.1240390558
  0
LINE
  5
559
100
AcDbEntity
  8
03__ASM_ALL_CURVES
100
AcDbLine
 62
4
  6
CONTINUOUS
 10
9.5888663341
 20
10.1452560558
 11
9.3342623341
 21
10.1452560558
  0
LINE
  5
55A
100
AcDbEntity
  8
03__ASM_ALL_CURVES
100
AcDbLine
 62
4
  6
CONTINUOUS
 10
9.0319200841
 20
10.1594007241
 11
9.0425285841
 21
10.1594007241
  0
LINE
  5
55B
100
AcDbEntity
  8
0
100
AcDbLine
 62
7
  6
CONTINUOUS
 10
11.0907343341
 20
10.1762560558
 11
11.2647322115
 21
10.1762560558
  0
LINE
  5
55C
100
AcDbEntity
  8
0
100
AcDbLine
 62
7
  6
CONTINUOUS
 10
11.0807343341
 20
10.1862560558
 11
11.2636800255
 21
10.1862560558
  0
LINE
  5
55D
100
AcDbEntity
  8
03__ASM_ALL_CURVES
100
AcDbLine
 62
4
  6
CONTINUOUS
 10
9.0584413341
 20
10.1876900558
 11
9.0266158341
 21
10.1876900558
  0
LINE
  5
55E
100
AcDbEntity
  8
03__ASM_ALL_CURVES
100
AcDbLine
 62
4
  6
CONTINUOUS
 10
8.2681080841
 20
10.1876900558
 11
8.2787165841
 21
10.1876900558
  0
LINE
  5
55F
100
AcDbEntity
  8
03__ASM_ALL_CURVES
100
AcDbLine
 62
4
  6
CONTINUOUS
 10
8.5227120841
 20
10.1876900558
 11
8.5333205841
 21
10.1876900558
  0
LINE
  5
560
100
AcDbEntity
  8
03__ASM_ALL_CURVES
100
AcDbLine
 62
4
  6
CONTINUOUS
 10
11.5147343341
 20
9.3432560558
 11
11.4997343341
 21
9.3532560534
  0
LINE
  5
561
100
AcDbEntity
  8
03__ASM_ALL_CURVES
100
AcDbLine
 62
4
  6
CONTINUOUS
 10
9.0319200841
 20
11.0273283874
 11
9.0213115841
 21
11.0344007241
  0
LINE
  5
562
100
AcDbEntity
  8
03__ASM_ALL_CURVES
100
AcDbLine
 62
4
  6
CONTINUOUS
 10
9.0425285841
 20
11.0273283874
 11
9.0531370841
 21
11.0202560558
  0
LINE
  5
563
100
AcDbEntity
  8
03__ASM_ALL_CURVES
100
AcDbLine
 62
4
  6
CONTINUOUS
 10
9.1220923341
 20
10.9778220558
 11
9.1114838341
 21
10.9848943893
  0
LINE
  5
564
100
AcDbEntity
  8
03__ASM_ALL_CURVES
100
AcDbLine
 62
4
  6
CONTINUOUS
 10
9.0425285841
 20
11.0626900558
 11
9.0531370841
 21
11.0556177241
  0
LINE
  5
565
100
AcDbEntity
  8
03__ASM_ALL_CURVES
100
AcDbLine
 62
4
  6
CONTINUOUS
 10
8.3582803341
 20
11.5718220558
 11
8.3476718341
 21
11.5788943893
  0
LINE
  5
566
100
AcDbEntity
  8
03__ASM_ALL_CURVES
100
AcDbLine
 62
4
  6
CONTINUOUS
 10
9.1220923341
 20
11.0626900558
 11
9.1327008341
 21
11.0556177241
  0
LINE
  5
567
100
AcDbEntity
  8
03__ASM_ALL_CURVES
100
AcDbLine
 62
4
  6
CONTINUOUS
 10
8.4431483341
 20
11.5718220558
 11
8.4325398341
 21
11.5788943893
  0
LINE
  5
568
100
AcDbEntity
  8
03__ASM_ALL_CURVES
100
AcDbLine
 62
4
  6
CONTINUOUS
 10
8.3582803341
 20
11.6566900558
 11
8.3688888341
 21
11.6496177241
  0
LINE
  5
569
100
AcDbEntity
  8
03__ASM_ALL_CURVES
100
AcDbLine
 62
4
  6
CONTINUOUS
 10
8.4431483341
 20
11.6566900558
 11
8.4537568341
 21
11.6496177241
  0
LINE
  5
56A
100
AcDbEntity
  8
03__ASM_ALL_CURVES
100
AcDbLine
 62
4
  6
CONTINUOUS
 10
11.3947343341
 20
9.3432560558
 11
11.3572343341
 21
9.4632560558
  0
LINE
  5
56B
100
AcDbEntity
  8
0
100
AcDbLine
 62
7
  6
CONTINUOUS
 10
11.5147343341
 20
8.8032560558
 11
11.5147343341
 21
8.9232560558
  0
LINE
  5
56C
100
AcDbEntity
  8
03__ASM_ALL_CURVES
100
AcDbLine
 62
4
  6
CONTINUOUS
 10
11.5447343341
 20
9.4632560558
 11
11.5447343341
 21
9.3432560558
  0
LINE
  5
56D
100
AcDbEntity
  8
0
100
AcDbLine
 62
7
  6
CONTINUOUS
 10
11.5747343341
 20
8.8032560558
 11
11.5747343341
 21
8.9232560558
  0
LINE
  5
56E
100
AcDbEntity
  8
0
100
AcDbLine
 62
7
  6
CONTINUOUS
 10
11.6047343341
 20
8.8032560558
 11
11.6047343341
 21
8.9232560558
  0
LINE
  5
56F
100
AcDbEntity
  8
0
100
AcDbLine
 62
7
  6
CONTINUOUS
 10
11.6421392791
 20
11.1437560558
 11
11.6421392791
 21
11.5801923899
  0
LINE
  5
570
100
AcDbEntity
  8
03__ASM_ALL_CURVES
100
AcDbLine
 62
4
  6
CONTINUOUS
 10
11.6497343341
 20
9.3932560581
 11
11.6497343341
 21
9.413256057
  0
LINE
  5
571
100
AcDbEntity
  8
0
100
AcDbLine
 62
7
  6
CONTINUOUS
 10
11.6647343341
 20
8.9232560558
 11
11.6647343341
 21
8.8032560558
  0
LINE
  5
572
100
AcDbEntity
  8
03__ASM_ALL_CURVES
100
AcDbLine
 62
4
  6
CONTINUOUS
 10
11.6857343341
 20
10.0822560558
 11
11.6857343341
 21
10.2022560558
  0
LINE
  5
573
100
AcDbEntity
  8
0
100
AcDbLine
 62
7
  6
CONTINUOUS
 10
11.6934318616
 20
11.1437560558
 11
11.6934318616
 21
11.5801923899
  0
LINE
  5
574
100
AcDbEntity
  8
0
100
AcDbLine
 62
7
  6
CONTINUOUS
 10
11.6947343341
 20
8.8632560558
 11
11.6947343341
 21
8.9232560558
  0
LINE
  5
575
100
AcDbEntity
  8
03__ASM_ALL_CURVES
100
AcDbLine
 62
4
  6
CONTINUOUS
 10
12.0527343341
 20
8.9402560534
 11
12.0602343341
 21
8.9502560581
  0
LINE
  5
576
100
AcDbEntity
  8
03__ASM_ALL_CURVES
100
AcDbLine
 62
4
  6
CONTINUOUS
 10
12.0902343341
 20
8.970256057
 11
12.1052343341
 21
8.9902560558
  0
LINE
  5
577
100
AcDbEntity
  8
03__ASM_ALL_CURVES
100
AcDbLine
 62
4
  6
CONTINUOUS
 10
11.4792343341
 20
8.0832560558
 11
11.4942343341
 21
8.1032560555
  0
LINE
  5
578
100
AcDbEntity
  8
03__ASM_ALL_CURVES
100
AcDbLine
 62
4
  6
CONTINUOUS
 10
12.1127343341
 20
8.9202560581
 11
12.1052343341
 21
8.9102560534
  0
LINE
  5
579
100
AcDbEntity
  8
03__ASM_ALL_CURVES
100
AcDbLine
 62
4
  6
CONTINUOUS
 10
11.4867343341
 20
8.0232560558
 11
11.4942343341
 21
8.0332560534
  0
LINE
  5
57A
100
AcDbEntity
  8
03__ASM_ALL_CURVES
100
AcDbLine
 62
4
  6
CONTINUOUS
 10
11.4942343341
 20
8.0332560534
 11
11.5092343341
 21
8.0432560581
  0
LINE
  5
57B
100
AcDbEntity
  8
03__ASM_ALL_CURVES
100
AcDbLine
 62
4
  6
CONTINUOUS
 10
11.5392343341
 20
8.0032560534
 11
11.5242343341
 21
7.9932560558
  0
LINE
  5
57C
100
AcDbEntity
  8
03__ASM_ALL_CURVES
100
AcDbLine
 62
4
  6
CONTINUOUS
 10
9.6454450024
 20
6.9845268058
 11
9.6595896657
 21
6.9898310558
  0
LINE
  5
57D
100
AcDbEntity
  8
03__ASM_ALL_CURVES
100
AcDbLine
 62
4
  6
CONTINUOUS
 10
9.702023667
 20
6.9527013058
 11
9.6878789999
 21
6.9473970558
  0
LINE
  5
57E
100
AcDbEntity
  8
0
100
AcDbLine
 62
7
  6
CONTINUOUS
 10
11.0807343341
 20
10.3642560558
 11
11.1616080313
 21
10.3642560558
  0
LINE
  5
57F
100
AcDbEntity
  8
0
100
AcDbLine
 62
7
  6
CONTINUOUS
 10
11.0362343341
 20
10.4087560558
 11
11.0781406926
 21
10.4087560558
  0
LINE
  5
580
100
AcDbEntity
  8
03__ASM_ALL_CURVES
100
AcDbLine
 62
4
  6
CONTINUOUS
 10
9.1220923341
 20
11.0131837216
 11
9.1061795841
 21
11.0202560558
  0
LINE
  5
581
100
AcDbEntity
  8
03__ASM_ALL_CURVES
100
AcDbLine
 62
4
  6
CONTINUOUS
 10
8.7826203341
 20
11.5718220558
 11
8.7720118341
 21
11.5788943893
  0
LINE
  5
582
100
AcDbEntity
  8
03__ASM_ALL_CURVES
100
AcDbLine
 62
4
  6
CONTINUOUS
 10
8.8621840841
 20
11.5718220558
 11
8.8515755841
 21
11.5788943893
  0
LINE
  5
583
100
AcDbEntity
  8
03__ASM_ALL_CURVES
100
AcDbLine
 62
4
  6
CONTINUOUS
 10
8.7826203341
 20
11.6566900558
 11
8.7932288341
 21
11.6496177241
  0
LINE
  5
584
100
AcDbEntity
  8
03__ASM_ALL_CURVES
100
AcDbLine
 62
4
  6
CONTINUOUS
 10
8.8727925841
 20
11.6213283874
 11
8.8834010841
 21
11.6142560558
  0
LINE
  5
585
100
AcDbEntity
  8
03__ASM_ALL_CURVES
100
AcDbLine
 62
4
  6
CONTINUOUS
 10
8.8727925841
 20
11.6566900558
 11
8.8834010841
 21
11.6496177241
  0
LINE
  5
586
100
AcDbEntity
  8
0
100
AcDbLine
 62
7
  6
CONTINUOUS
 10
11.0907343341
 20
10.1762560558
 11
11.0807343341
 21
10.1862560558
  0
LINE
  5
587
100
AcDbEntity
  8
03__ASM_ALL_CURVES
100
AcDbLine
 62
4
  6
CONTINUOUS
 10
11.4997343341
 20
9.3532560534
 11
11.4847343341
 21
9.3732560558
  0
LINE
  5
588
100
AcDbEntity
  8
03__ASM_ALL_CURVES
100
AcDbLine
 62
4
  6
CONTINUOUS
 10
11.6422343341
 20
9.4432560552
 11
11.6272343341
 21
9.4632560558
  0
LINE
  5
589
100
AcDbEntity
  8
03__ASM_ALL_CURVES
100
AcDbLine
 62
4
  6
CONTINUOUS
 10
12.0602343341
 20
8.9102560534
 11
12.0527343341
 21
8.9202560581
  0
LINE
  5
58A
100
AcDbEntity
  8
03__ASM_ALL_CURVES
100
AcDbLine
 62
4
  6
CONTINUOUS
 10
11.4847343341
 20
9.3732560558
 11
11.4772343341
 21
9.4032560558
  0
LINE
  5
58B
100
AcDbEntity
  8
0
100
AcDbLine
 62
7
  6
CONTINUOUS
 10
11.7547343341
 20
8.8032560558
 11
11.7547343341
 21
8.8632560558
  0
LINE
  5
58C
100
AcDbEntity
  8
0
100
AcDbLine
 62
7
  6
CONTINUOUS
 10
11.8522343341
 20
11.0202560558
 11
11.8522343341
 21
11.0832560558
  0
LINE
  5
58D
100
AcDbEntity
  8
0
100
AcDbLine
 62
7
  6
CONTINUOUS
 10
11.9118368066
 20
11.1437560558
 11
11.9118368066
 21
11.5801923899
  0
LINE
  5
58E
100
AcDbEntity
  8
0
100
AcDbLine
 62
7
  6
CONTINUOUS
 10
11.9127343341
 20
11.1437560558
 11
11.9127343341
 21
11.5801923899
  0
LINE
  5
58F
100
AcDbEntity
  8
03__ASM_ALL_CURVES
100
AcDbLine
 62
4
  6
CONTINUOUS
 10
10.9433003341
 20
6.8890503058
 11
10.9503726657
 21
6.8996588058
  0
LINE
  5
590
100
AcDbEntity
  8
03__ASM_ALL_CURVES
100
AcDbLine
 62
4
  6
CONTINUOUS
 10
8.4431483341
 20
11.6071837216
 11
8.4272355841
 21
11.6142560558
  0
LINE
  5
591
100
AcDbEntity
  8
03__ASM_ALL_CURVES
100
AcDbLine
 62
4
  6
CONTINUOUS
 10
9.0319200841
 20
11.5718220558
 11
9.0213115841
 21
11.5788943893
  0
LINE
  5
592
100
AcDbEntity
  8
03__ASM_ALL_CURVES
100
AcDbLine
 62
4
  6
CONTINUOUS
 10
9.0319200841
 20
11.6213283874
 11
9.0213115841
 21
11.6284007241
  0
LINE
  5
593
100
AcDbEntity
  8
03__ASM_ALL_CURVES
100
AcDbLine
 62
4
  6
CONTINUOUS
 10
9.1167880841
 20
11.5718220558
 11
9.1061795841
 21
11.5788943893
  0
LINE
  5
594
100
AcDbEntity
  8
03__ASM_ALL_CURVES
100
AcDbLine
 62
4
  6
CONTINUOUS
 10
9.0425285841
 20
11.6213283874
 11
9.0531370841
 21
11.6142560558
  0
LINE
  5
595
100
AcDbEntity
  8
03__ASM_ALL_CURVES
100
AcDbLine
 62
4
  6
CONTINUOUS
 10
9.0425285841
 20
11.6566900558
 11
9.0531370841
 21
11.6496177241
  0
LINE
  5
596
100
AcDbEntity
  8
03__ASM_ALL_CURVES
100
AcDbLine
 62
4
  6
CONTINUOUS
 10
9.1167880841
 20
11.6213283874
 11
9.1061795841
 21
11.6284007241
  0
LINE
  5
597
100
AcDbEntity
  8
03__ASM_ALL_CURVES
100
AcDbLine
 62
4
  6
CONTINUOUS
 10
9.1273965841
 20
11.6213283874
 11
9.1380050841
 21
11.6142560558
  0
LINE
  5
598
100
AcDbEntity
  8
03__ASM_ALL_CURVES
100
AcDbLine
 62
4
  6
CONTINUOUS
 10
9.1273965841
 20
11.6566900558
 11
9.1380050841
 21
11.6496177241
  0
LINE
  5
599
100
AcDbEntity
  8
0
100
AcDbLine
 62
7
  6
CONTINUOUS
 10
11.0807343341
 20
10.3642560558
 11
11.0567513656
 21
10.3882390242
  0
LINE
  5
59A
100
AcDbEntity
  8
03__ASM_ALL_CURVES
100
AcDbLine
 62
4
  6
CONTINUOUS
 10
11.6497343341
 20
9.413256057
 11
11.6422343341
 21
9.4432560552
  0
LINE
  5
59B
100
AcDbEntity
  8
03__ASM_ALL_CURVES
100
AcDbLine
 62
4
  6
CONTINUOUS
 10
12.0527343341
 20
8.9202560581
 11
12.0527343341
 21
8.9402560534
  0
LINE
  5
59C
100
AcDbEntity
  8
03__ASM_ALL_CURVES
100
AcDbLine
 62
4
  6
CONTINUOUS
 10
12.1933003341
 20
6.7352270558
 11
12.1933003341
 21
6.7034015558
  0
LINE
  5
59D
100
AcDbEntity
  8
03__ASM_ALL_CURVES
100
AcDbLine
 62
4
  6
CONTINUOUS
 10
12.1933003341
 20
6.3108870558
 11
12.1933003341
 21
6.2790615558
  0
LINE
  5
59E
100
AcDbEntity
  8
03__ASM_ALL_CURVES
100
AcDbLine
 62
4
  6
CONTINUOUS
 10
12.1933003341
 20
6.1146298058
 11
12.1933003341
 21
6.1252383058
  0
LINE
  5
59F
100
AcDbEntity
  8
03__ASM_ALL_CURVES
100
AcDbLine
 62
4
  6
CONTINUOUS
 10
12.1933003341
 20
6.9633098058
 11
12.1933003341
 21
6.9739183058
  0
LINE
  5
5A0
100
AcDbEntity
  8
03__ASM_ALL_CURVES
100
AcDbLine
 62
4
  6
CONTINUOUS
 10
12.1052343341
 20
8.9902560558
 11
12.1127343341
 21
9.0202560558
  0
LINE
  5
5A1
100
AcDbEntity
  8
03__ASM_ALL_CURVES
100
AcDbLine
 62
4
  6
CONTINUOUS
 10
10.9433003341
 20
6.7193143058
 11
10.9503726657
 21
6.7299228058
  0
LINE
  5
5A2
100
AcDbEntity
  8
03__ASM_ALL_CURVES
100
AcDbLine
 62
4
  6
CONTINUOUS
 10
10.9786620024
 20
6.7193143058
 11
10.9857343341
 21
6.7299228058
  0
LINE
  5
5A3
100
AcDbEntity
  8
03__ASM_ALL_CURVES
100
AcDbLine
 62
4
  6
CONTINUOUS
 10
10.9433003341
 20
6.6344463058
 11
10.9503726657
 21
6.6450548058
  0
LINE
  5
5A4
100
AcDbEntity
  8
03__ASM_ALL_CURVES
100
AcDbLine
 62
4
  6
CONTINUOUS
 10
10.9786620024
 20
6.6344463058
 11
10.9857343341
 21
6.6450548058
  0
LINE
  5
5A5
100
AcDbEntity
  8
03__ASM_ALL_CURVES
100
AcDbLine
 62
4
  6
CONTINUOUS
 10
11.0281683341
 20
6.7087058058
 11
11.0210960006
 21
6.6980973058
  0
LINE
  5
5A6
100
AcDbEntity
  8
03__ASM_ALL_CURVES
100
AcDbLine
 62
4
  6
CONTINUOUS
 10
11.0281683341
 20
6.6238378058
 11
11.0210960006
 21
6.6132293058
  0
LINE
  5
5A7
100
AcDbEntity
  8
03__ASM_ALL_CURVES
100
AcDbLine
 62
4
  6
CONTINUOUS
 10
10.9433003341
 20
6.2949743058
 11
10.9503726657
 21
6.3055828058
  0
LINE
  5
5A8
100
AcDbEntity
  8
03__ASM_ALL_CURVES
100
AcDbLine
 62
4
  6
CONTINUOUS
 10
10.9433003341
 20
7.0481778058
 11
10.9574450024
 21
7.0587863058
  0
LINE
  5
5A9
100
AcDbEntity
  8
03__ASM_ALL_CURVES
100
AcDbLine
 62
4
  6
CONTINUOUS
 10
10.9503726657
 20
6.8996588058
 11
10.9574450024
 21
6.9049630558
  0
LINE
  5
5AA
100
AcDbEntity
  8
03__ASM_ALL_CURVES
100
AcDbLine
 62
4
  6
CONTINUOUS
 10
9.0425285841
 20
10.9778220558
 11
9.0319200841
 21
10.9778220558
  0
LINE
  5
5AB
100
AcDbEntity
  8
03__ASM_ALL_CURVES
100
AcDbLine
 62
4
  6
CONTINUOUS
 10
8.9735733341
 20
10.9778220558
 11
8.9656169591
 21
10.9778220558
  0
LINE
  5
5AC
100
AcDbEntity
  8
03__ASM_ALL_CURVES
100
AcDbLine
 62
4
  6
CONTINUOUS
 10
8.8727925841
 20
10.9778220558
 11
8.8621840841
 21
10.9778220558
  0
LINE
  5
5AD
100
AcDbEntity
  8
03__ASM_ALL_CURVES
100
AcDbLine
 62
4
  6
CONTINUOUS
 10
8.7879245841
 20
10.9778220558
 11
8.7773160841
 21
10.9778220558
  0
LINE
  5
5AE
100
AcDbEntity
  8
03__ASM_ALL_CURVES
100
AcDbLine
 62
4
  6
CONTINUOUS
 10
8.5333205841
 20
10.9778220558
 11
8.5227120841
 21
10.9778220558
  0
LINE
  5
5AF
100
AcDbEntity
  8
03__ASM_ALL_CURVES
100
AcDbLine
 62
4
  6
CONTINUOUS
 10
8.4643653341
 20
10.9778220558
 11
8.4564089591
 21
10.9778220558
  0
LINE
  5
5B0
100
AcDbEntity
  8
03__ASM_ALL_CURVES
100
AcDbLine
 62
4
  6
CONTINUOUS
 10
8.3635845841
 20
10.9778220558
 11
8.3529760841
 21
10.9778220558
  0
LINE
  5
5B1
100
AcDbEntity
  8
03__ASM_ALL_CURVES
100
AcDbLine
 62
4
  6
CONTINUOUS
 10
9.5888663341
 20
11.0202560558
 11
9.3342623341
 21
11.0202560558
  0
LINE
  5
5B2
100
AcDbEntity
  8
0
100
AcDbLine
 62
7
  6
CONTINUOUS
 10
9.6737343341
 20
11.0202560558
 11
12.2357343703
 21
11.0202560558
  0
LINE
  5
5B3
100
AcDbEntity
  8
03__ASM_ALL_CURVES
100
AcDbLine
 62
4
  6
CONTINUOUS
 10
8.3529760841
 20
11.0273283874
 11
8.3635845841
 21
11.0273283874
  0
LINE
  5
5B4
100
AcDbEntity
  8
03__ASM_ALL_CURVES
100
AcDbLine
 62
4
  6
CONTINUOUS
 10
8.7773160841
 20
11.0273283874
 11
8.7879245841
 21
11.0273283874
  0
LINE
  5
5B5
100
AcDbEntity
  8
03__ASM_ALL_CURVES
100
AcDbLine
 62
4
  6
CONTINUOUS
 10
8.8621840841
 20
11.0273283874
 11
8.8727925841
 21
11.0273283874
  0
LINE
  5
5B6
100
AcDbEntity
  8
03__ASM_ALL_CURVES
100
AcDbLine
 62
4
  6
CONTINUOUS
 10
9.0319200841
 20
11.0273283874
 11
9.0425285841
 21
11.0273283874
  0
LINE
  5
5B7
100
AcDbEntity
  8
03__ASM_ALL_CURVES
100
AcDbLine
 62
4
  6
CONTINUOUS
 10
8.5227120841
 20
11.0344007241
 11
8.5333205841
 21
11.0344007241
  0
LINE
  5
5B8
100
AcDbEntity
  8
03__ASM_ALL_CURVES
100
AcDbLine
 62
4
  6
CONTINUOUS
 10
12.2215896657
 20
6.2843658058
 11
12.2215896657
 21
6.2949743058
  0
LINE
  5
5B9
100
AcDbEntity
  8
03__ASM_ALL_CURVES
100
AcDbLine
 62
4
  6
CONTINUOUS
 10
12.2215896657
 20
6.7087058058
 11
12.2215896657
 21
6.7193143058
  0
LINE
  5
5BA
100
AcDbEntity
  8
0
100
AcDbLine
 62
7
  6
CONTINUOUS
 10
12.2357343703
 20
11.0202560558
 11
12.2357343703
 21
7.5202560558
  0
LINE
  5
5BB
100
AcDbEntity
  8
03__ASM_ALL_CURVES
100
AcDbLine
 62
4
  6
CONTINUOUS
 10
12.2357343341
 20
7.4353880558
 11
12.2357343341
 21
7.1807840558
  0
LINE
  5
5BC
100
AcDbEntity
  8
03__ASM_ALL_CURVES
100
AcDbLine
 62
4
  6
CONTINUOUS
 10
12.2781683341
 20
6.8200950558
 11
12.2781683341
 21
6.8121386808
  0
LINE
  5
5BD
100
AcDbEntity
  8
03__ASM_ALL_CURVES
100
AcDbLine
 62
4
  6
CONTINUOUS
 10
12.2781683341
 20
6.7193143058
 11
12.2781683341
 21
6.7087058058
  0
LINE
  5
5BE
100
AcDbEntity
  8
03__ASM_ALL_CURVES
100
AcDbLine
 62
4
  6
CONTINUOUS
 10
12.2781683341
 20
6.2949743058
 11
12.2781683341
 21
6.2843658058
  0
LINE
  5
5BF
100
AcDbEntity
  8
03__ASM_ALL_CURVES
100
AcDbLine
 62
4
  6
CONTINUOUS
 10
12.2781683341
 20
6.2260190558
 11
12.2781683341
 21
6.2180626808
  0
LINE
  5
5C0
100
AcDbEntity
  8
03__ASM_ALL_CURVES
100
AcDbLine
 62
4
  6
CONTINUOUS
 10
12.2781683341
 20
6.0987170558
 11
12.2781683341
 21
6.1411510558
  0
LINE
  5
5C1
100
AcDbEntity
  8
03__ASM_ALL_CURVES
100
AcDbLine
 62
4
  6
CONTINUOUS
 10
12.2781683341
 20
6.9473970558
 11
12.2781683341
 21
6.9898310558
  0
LINE
  5
5C2
100
AcDbEntity
  8
03__ASM_ALL_CURVES
100
AcDbLine
 62
4
  6
CONTINUOUS
 10
10.9786620024
 20
6.2949743058
 11
10.9857343341
 21
6.3055828058
  0
LINE
  5
5C3
100
AcDbEntity
  8
03__ASM_ALL_CURVES
100
AcDbLine
 62
4
  6
CONTINUOUS
 10
11.0281683341
 20
6.2843658058
 11
11.0210960006
 21
6.2737573058
  0
LINE
  5
5C4
100
AcDbEntity
  8
03__ASM_ALL_CURVES
100
AcDbLine
 62
4
  6
CONTINUOUS
 10
11.0175598338
 20
6.8121386808
 11
11.0281683341
 21
6.8200950558
  0
LINE
  5
5C5
100
AcDbEntity
  8
03__ASM_ALL_CURVES
100
AcDbLine
 62
4
  6
CONTINUOUS
 10
10.9503726657
 20
6.7299228058
 11
10.9574450024
 21
6.7352270558
  0
LINE
  5
5C6
100
AcDbEntity
  8
03__ASM_ALL_CURVES
100
AcDbLine
 62
4
  6
CONTINUOUS
 10
10.9857343341
 20
6.7299228058
 11
10.9998789999
 21
6.7405313058
  0
LINE
  5
5C7
100
AcDbEntity
  8
03__ASM_ALL_CURVES
100
AcDbLine
 62
4
  6
CONTINUOUS
 10
11.0210960006
 20
6.6980973058
 11
11.014023667
 21
6.6927930558
  0
LINE
  5
5C8
100
AcDbEntity
  8
03__ASM_ALL_CURVES
100
AcDbLine
 62
4
  6
CONTINUOUS
 10
10.9503726657
 20
6.6450548058
 11
10.9574450024
 21
6.6503590558
  0
LINE
  5
5C9
100
AcDbEntity
  8
03__ASM_ALL_CURVES
100
AcDbLine
 62
4
  6
CONTINUOUS
 10
10.9857343341
 20
6.6450548058
 11
10.9998789999
 21
6.6556633058
  0
LINE
  5
5CA
100
AcDbEntity
  8
03__ASM_ALL_CURVES
100
AcDbLine
 62
4
  6
CONTINUOUS
 10
11.0210960006
 20
6.6132293058
 11
11.014023667
 21
6.6079250558
  0
LINE
  5
5CB
100
AcDbEntity
  8
03__ASM_ALL_CURVES
100
AcDbLine
 62
4
  6
CONTINUOUS
 10
8.5492333341
 20
11.0626900558
 11
8.5174078341
 21
11.0626900558
  0
LINE
  5
5CC
100
AcDbEntity
  8
03__ASM_ALL_CURVES
100
AcDbLine
 62
4
  6
CONTINUOUS
 10
8.3529760841
 20
11.0626900558
 11
8.3635845841
 21
11.0626900558
  0
LINE
  5
5CD
100
AcDbEntity
  8
03__ASM_ALL_CURVES
100
AcDbLine
 62
4
  6
CONTINUOUS
 10
8.7773160841
 20
11.0626900558
 11
8.7879245841
 21
11.0626900558
  0
LINE
  5
5CE
100
AcDbEntity
  8
03__ASM_ALL_CURVES
100
AcDbLine
 62
4
  6
CONTINUOUS
 10
8.8621840841
 20
11.0626900558
 11
8.8727925841
 21
11.0626900558
  0
LINE
  5
5CF
100
AcDbEntity
  8
03__ASM_ALL_CURVES
100
AcDbLine
 62
4
  6
CONTINUOUS
 10
9.0319200841
 20
11.0626900558
 11
9.0425285841
 21
11.0626900558
  0
LINE
  5
5D0
100
AcDbEntity
  8
0
100
AcDbLine
 62
7
  6
CONTINUOUS
 10
10.9952343341
 20
11.0832560558
 11
11.8522343341
 21
11.0832560558
  0
LINE
  5
5D1
100
AcDbEntity
  8
0
100
AcDbLine
 62
7
  6
CONTINUOUS
 10
10.9347343341
 20
11.1437560558
 11
10.9356318616
 21
11.1437560558
  0
LINE
  5
5D2
100
AcDbEntity
  8
0
100
AcDbLine
 62
7
  6
CONTINUOUS
 10
11.1540368066
 20
11.1437560558
 11
11.2053293891
 21
11.1437560558
  0
LINE
  5
5D3
100
AcDbEntity
  8
0
100
AcDbLine
 62
7
  6
CONTINUOUS
 10
11.6421392791
 20
11.1437560558
 11
11.6934318616
 21
11.1437560558
  0
LINE
  5
5D4
100
AcDbEntity
  8
0
100
AcDbLine
 62
7
  6
CONTINUOUS
 10
11.9118368066
 20
11.1437560558
 11
11.9127343341
 21
11.1437560558
  0
LINE
  5
5D5
100
AcDbEntity
  8
0
100
AcDbLine
 62
7
  6
CONTINUOUS
 10
10.9952343341
 20
11.0832560558
 11
10.9347343341
 21
11.1437560558
  0
LINE
  5
5D6
100
AcDbEntity
  8
03__ASM_ALL_CURVES
100
AcDbLine
 62
4
  6
CONTINUOUS
 10
11.014023667
 20
6.5389698058
 11
11.0281683341
 21
6.5495783058
  0
LINE
  5
5D7
100
AcDbEntity
  8
03__ASM_ALL_CURVES
100
AcDbLine
 62
4
  6
CONTINUOUS
 10
10.9503726657
 20
6.3055828058
 11
10.9574450024
 21
6.3108870558
  0
LINE
  5
5D8
100
AcDbEntity
  8
03__ASM_ALL_CURVES
100
AcDbLine
 62
4
  6
CONTINUOUS
 10
10.9857343341
 20
6.3055828058
 11
10.9998789999
 21
6.3161913058
  0
LINE
  5
5D9
100
AcDbEntity
  8
03__ASM_ALL_CURVES
100
AcDbLine
 62
4
  6
CONTINUOUS
 10
11.0210960006
 20
6.2737573058
 11
11.014023667
 21
6.2684530558
  0
LINE
  5
5DA
100
AcDbEntity
  8
03__ASM_ALL_CURVES
100
AcDbLine
 62
4
  6
CONTINUOUS
 10
12.2074450024
 20
6.8996588058
 11
12.2215896657
 21
6.9049630558
  0
LINE
  5
5DB
100
AcDbEntity
  8
03__ASM_ALL_CURVES
100
AcDbLine
 62
4
  6
CONTINUOUS
 10
12.264023667
 20
6.8678333058
 11
12.2498789999
 21
6.8625290558
  0
LINE
  5
5DC
100
AcDbEntity
  8
03__ASM_ALL_CURVES
100
AcDbLine
 62
4
  6
CONTINUOUS
 10
12.1933003341
 20
6.9739183058
 11
12.2003726657
 21
6.9845268058
  0
LINE
  5
5DD
100
AcDbEntity
  8
03__ASM_ALL_CURVES
100
AcDbLine
 62
4
  6
CONTINUOUS
 10
12.1933003341
 20
6.8837460558
 11
12.2003726657
 21
6.8943545558
  0
LINE
  5
5DE
100
AcDbEntity
  8
03__ASM_ALL_CURVES
100
AcDbLine
 62
4
  6
CONTINUOUS
 10
11.0175598338
 20
6.2180626808
 11
11.0281683341
 21
6.2260190558
  0
LINE
  5
5DF
100
AcDbEntity
  8
03__ASM_ALL_CURVES
100
AcDbLine
 62
4
  6
CONTINUOUS
 10
12.1933003341
 20
7.0481778058
 11
12.2074450024
 21
7.0587863058
  0
LINE
  5
5E0
100
AcDbEntity
  8
03__ASM_ALL_CURVES
100
AcDbLine
 62
4
  6
CONTINUOUS
 10
12.2003726657
 20
6.9845268058
 11
12.2074450024
 21
6.9898310558
  0
LINE
  5
5E1
100
AcDbEntity
  8
03__ASM_ALL_CURVES
100
AcDbLine
 62
4
  6
CONTINUOUS
 10
12.2003726657
 20
6.8943545558
 11
12.2074450024
 21
6.8996588058
  0
LINE
  5
5E2
100
AcDbEntity
  8
03__ASM_ALL_CURVES
100
AcDbLine
 62
4
  6
CONTINUOUS
 10
12.2357343341
 20
6.7352270558
 11
12.2498789999
 21
6.7405313058
  0
LINE
  5
5E3
100
AcDbEntity
  8
03__ASM_ALL_CURVES
100
AcDbLine
 62
4
  6
CONTINUOUS
 10
12.2357343341
 20
6.6450548058
 11
12.2498789999
 21
6.6503590558
  0
LINE
  5
5E4
100
AcDbEntity
  8
03__ASM_ALL_CURVES
100
AcDbLine
 62
4
  6
CONTINUOUS
 10
12.264023667
 20
6.6132293058
 11
12.2498789999
 21
6.6079250558
  0
LINE
  5
5E5
100
AcDbEntity
  8
03__ASM_ALL_CURVES
100
AcDbLine
 62
4
  6
CONTINUOUS
 10
9.1273965841
 20
11.5718220558
 11
9.1167880841
 21
11.5718220558
  0
LINE
  5
5E6
100
AcDbEntity
  8
03__ASM_ALL_CURVES
100
AcDbLine
 62
4
  6
CONTINUOUS
 10
9.0425285841
 20
11.5718220558
 11
9.0319200841
 21
11.5718220558
  0
LINE
  5
5E7
100
AcDbEntity
  8
03__ASM_ALL_CURVES
100
AcDbLine
 62
4
  6
CONTINUOUS
 10
8.9735733341
 20
11.5718220558
 11
8.9656169591
 21
11.5718220558
  0
LINE
  5
5E8
100
AcDbEntity
  8
03__ASM_ALL_CURVES
100
AcDbLine
 62
4
  6
CONTINUOUS
 10
8.8727925841
 20
11.5718220558
 11
8.8621840841
 21
11.5718220558
  0
LINE
  5
5E9
100
AcDbEntity
  8
03__ASM_ALL_CURVES
100
AcDbLine
 62
4
  6
CONTINUOUS
 10
8.2946293341
 20
11.5718220558
 11
8.2866729591
 21
11.5718220558
  0
LINE
  5
5EA
100
AcDbEntity
  8
0
100
AcDbLine
 62
7
  6
CONTINUOUS
 10
10.9347343341
 20
11.5801923899
 11
10.9356318616
 21
11.5801923899
  0
LINE
  5
5EB
100
AcDbEntity
  8
0
100
AcDbLine
 62
7
  6
CONTINUOUS
 10
11.1540368066
 20
11.5801923899
 11
11.2053293891
 21
11.5801923899
  0
LINE
  5
5EC
100
AcDbEntity
  8
0
100
AcDbLine
 62
7
  6
CONTINUOUS
 10
11.6421392791
 20
11.5801923899
 11
11.6934318616
 21
11.5801923899
  0
LINE
  5
5ED
100
AcDbEntity
  8
0
100
AcDbLine
 62
7
  6
CONTINUOUS
 10
11.9118368066
 20
11.5801923899
 11
11.9127343341
 21
11.5801923899
  0
LINE
  5
5EE
100
AcDbEntity
  8
03__ASM_ALL_CURVES
100
AcDbLine
 62
4
  6
CONTINUOUS
 10
8.1673273341
 20
11.5930390558
 11
8.2150655841
 21
11.5930390558
  0
LINE
  5
5EF
100
AcDbEntity
  8
03__ASM_ALL_CURVES
100
AcDbLine
 62
4
  6
CONTINUOUS
 10
9.5888663341
 20
11.6142560558
 11
9.3342623341
 21
11.6142560558
  0
LINE
  5
5F0
100
AcDbEntity
  8
0
100
AcDbLine
 62
7
  6
CONTINUOUS
 10
10.9937343341
 20
11.6142560558
 11
11.8537343341
 21
11.6142560558
  0
LINE
  5
5F1
100
AcDbEntity
  8
03__ASM_ALL_CURVES
100
AcDbLine
 62
4
  6
CONTINUOUS
 10
8.8621840841
 20
11.6213283874
 11
8.8727925841
 21
11.6213283874
  0
LINE
  5
5F2
100
AcDbEntity
  8
03__ASM_ALL_CURVES
100
AcDbLine
 62
4
  6
CONTINUOUS
 10
9.0319200841
 20
11.6213283874
 11
9.0425285841
 21
11.6213283874
  0
LINE
  5
5F3
100
AcDbEntity
  8
03__ASM_ALL_CURVES
100
AcDbLine
 62
4
  6
CONTINUOUS
 10
9.1167880841
 20
11.6213283874
 11
9.1273965841
 21
11.6213283874
  0
LINE
  5
5F4
100
AcDbEntity
  8
03__ASM_ALL_CURVES
100
AcDbLine
 62
4
  6
CONTINUOUS
 10
8.8621840841
 20
11.6566900558
 11
8.8727925841
 21
11.6566900558
  0
LINE
  5
5F5
100
AcDbEntity
  8
03__ASM_ALL_CURVES
100
AcDbLine
 62
4
  6
CONTINUOUS
 10
9.0319200841
 20
11.6566900558
 11
9.0425285841
 21
11.6566900558
  0
LINE
  5
5F6
100
AcDbEntity
  8
03__ASM_ALL_CURVES
100
AcDbLine
 62
4
  6
CONTINUOUS
 10
9.1167880841
 20
11.6566900558
 11
9.1273965841
 21
11.6566900558
  0
LINE
  5
5F7
100
AcDbEntity
  8
03__ASM_ALL_CURVES
100
AcDbLine
 62
4
  6
CONTINUOUS
 10
12.2286620024
 20
6.6291420558
 11
12.2357343341
 21
6.6450548058
  0
LINE
  5
5F8
100
AcDbEntity
  8
03__ASM_ALL_CURVES
100
AcDbLine
 62
4
  6
CONTINUOUS
 10
12.2286620024
 20
6.3745380558
 11
12.2357343341
 21
6.3904508058
  0
LINE
  5
5F9
100
AcDbEntity
  8
03__ASM_ALL_CURVES
100
AcDbLine
 62
4
  6
CONTINUOUS
 10
12.2781683341
 20
6.8837460558
 11
12.2710960006
 21
6.8731375558
  0
LINE
  5
5FA
100
AcDbEntity
  8
03__ASM_ALL_CURVES
100
AcDbLine
 62
4
  6
CONTINUOUS
 10
12.2215896657
 20
6.7193143058
 11
12.2286620024
 21
6.7299228058
  0
LINE
  5
5FB
100
AcDbEntity
  8
03__ASM_ALL_CURVES
100
AcDbLine
 62
4
  6
CONTINUOUS
 10
12.1933003341
 20
6.6291420558
 11
12.2003726657
 21
6.6397505558
  0
LINE
  5
5FC
100
AcDbEntity
  8
03__ASM_ALL_CURVES
100
AcDbLine
 62
4
  6
CONTINUOUS
 10
12.2781683341
 20
6.7087058058
 11
12.2710960006
 21
6.6980973058
  0
LINE
  5
5FD
100
AcDbEntity
  8
03__ASM_ALL_CURVES
100
AcDbLine
 62
4
  6
CONTINUOUS
 10
12.2781683341
 20
6.6291420558
 11
12.2710960006
 21
6.6185335558
  0
LINE
  5
5FE
100
AcDbEntity
  8
03__ASM_ALL_CURVES
100
AcDbLine
 62
4
  6
CONTINUOUS
 10
12.2710960006
 20
6.8731375558
 11
12.264023667
 21
6.8678333058
  0
LINE
  5
5FF
100
AcDbEntity
  8
03__ASM_ALL_CURVES
100
AcDbLine
 62
4
  6
CONTINUOUS
 10
12.2675598338
 20
6.8121386808
 11
12.2781683341
 21
6.8200950558
  0
LINE
  5
600
100
AcDbEntity
  8
03__ASM_ALL_CURVES
100
AcDbLine
 62
4
  6
CONTINUOUS
 10
12.2286620024
 20
6.7299228058
 11
12.2357343341
 21
6.7352270558
  0
LINE
  5
601
100
AcDbEntity
  8
03__ASM_ALL_CURVES
100
AcDbLine
 62
4
  6
CONTINUOUS
 10
12.2710960006
 20
6.6980973058
 11
12.264023667
 21
6.6927930558
  0
LINE
  5
602
100
AcDbEntity
  8
03__ASM_ALL_CURVES
100
AcDbLine
 62
4
  6
CONTINUOUS
 10
12.2003726657
 20
6.6397505558
 11
12.2074450024
 21
6.6450548058
  0
LINE
  5
603
100
AcDbEntity
  8
03__ASM_ALL_CURVES
100
AcDbLine
 62
4
  6
CONTINUOUS
 10
12.2710960006
 20
6.6185335558
 11
12.264023667
 21
6.6132293058
  0
LINE
  5
604
100
AcDbEntity
  8
03__ASM_ALL_CURVES
100
AcDbLine
 62
4
  6
CONTINUOUS
 10
12.2357343341
 20
6.3904508058
 11
12.2498789999
 21
6.3957550558
  0
LINE
  5
605
100
AcDbEntity
  8
03__ASM_ALL_CURVES
100
AcDbLine
 62
4
  6
CONTINUOUS
 10
12.264023667
 20
6.3586253058
 11
12.2498789999
 21
6.3533210558
  0
LINE
  5
606
100
AcDbEntity
  8
03__ASM_ALL_CURVES
100
AcDbLine
 62
4
  6
CONTINUOUS
 10
12.1933003341
 20
6.3745380558
 11
12.2003726657
 21
6.3851465558
  0
LINE
  5
607
100
AcDbEntity
  8
03__ASM_ALL_CURVES
100
AcDbLine
 62
4
  6
CONTINUOUS
 10
12.2215896657
 20
6.2949743058
 11
12.2286620024
 21
6.3055828058
  0
LINE
  5
608
100
AcDbEntity
  8
03__ASM_ALL_CURVES
100
AcDbLine
 62
4
  6
CONTINUOUS
 10
12.2781683341
 20
6.3745380558
 11
12.2710960006
 21
6.3639295558
  0
LINE
  5
609
100
AcDbEntity
  8
03__ASM_ALL_CURVES
100
AcDbLine
 62
4
  6
CONTINUOUS
 10
12.2781683341
 20
6.2843658058
 11
12.2710960006
 21
6.2737573058
  0
LINE
  5
60A
100
AcDbEntity
  8
03__ASM_ALL_CURVES
100
AcDbLine
 62
4
  6
CONTINUOUS
 10
12.1933003341
 20
6.1252383058
 11
12.2003726657
 21
6.1358468058
  0
LINE
  5
60B
100
AcDbEntity
  8
03__ASM_ALL_CURVES
100
AcDbLine
 62
4
  6
CONTINUOUS
 10
12.264023667
 20
6.5389698058
 11
12.2781683341
 21
6.5495783058
  0
LINE
  5
60C
100
AcDbEntity
  8
03__ASM_ALL_CURVES
100
AcDbLine
 62
4
  6
CONTINUOUS
 10
12.2003726657
 20
6.3851465558
 11
12.2074450024
 21
6.3904508058
  0
LINE
  5
60D
100
AcDbEntity
  8
03__ASM_ALL_CURVES
100
AcDbLine
 62
4
  6
CONTINUOUS
 10
12.2710960006
 20
6.3639295558
 11
12.264023667
 21
6.3586253058
  0
LINE
  5
60E
100
AcDbEntity
  8
03__ASM_ALL_CURVES
100
AcDbLine
 62
4
  6
CONTINUOUS
 10
12.2286620024
 20
6.3055828058
 11
12.2357343341
 21
6.3108870558
  0
LINE
  5
60F
100
AcDbEntity
  8
03__ASM_ALL_CURVES
100
AcDbLine
 62
4
  6
CONTINUOUS
 10
12.2710960006
 20
6.2737573058
 11
12.264023667
 21
6.2684530558
  0
LINE
  5
610
100
AcDbEntity
  8
03__ASM_ALL_CURVES
100
AcDbLine
 62
4
  6
CONTINUOUS
 10
12.2675598338
 20
6.2180626808
 11
12.2781683341
 21
6.2260190558
  0
LINE
  5
611
100
AcDbEntity
  8
03__ASM_ALL_CURVES
100
AcDbLine
 62
4
  6
CONTINUOUS
 10
12.2003726657
 20
6.1358468058
 11
12.2074450024
 21
6.1411510558
  0
LINE
  5
612
100
AcDbEntity
  8
03__ASM_ALL_CURVES
100
AcDbLine
 62
4
  6
CONTINUOUS
 10
12.2357343341
 20
6.3108870558
 11
12.2498789999
 21
6.3161913058
  0
LINE
  5
613
100
AcDbEntity
  8
0
100
AcDbLine
 62
7
  6
CONTINUOUS
 10
11.9127343341
 20
11.5801923899
 11
11.8537343341
 21
11.6142560558
  0
CIRCLE
  5
614
100
AcDbEntity
  8
0
100
AcDbCircle
 62
7
  6
CONTINUOUS
 10
10.9857343703
 20
10.1452560558
 40
0.35
  0
CIRCLE
  5
615
100
AcDbEntity
  8
0
100
AcDbCircle
 62
7
  6
CONTINUOUS
 10
10.9857343703
 20
10.1452560558
 40
0.281
  0
CIRCLE
  5
616
100
AcDbEntity
  8
0
100
AcDbCircle
 62
7
  6
CONTINUOUS
 10
10.9857343703
 20
8.0202560558
 40
0.28
  0
CIRCLE
  5
617
100
AcDbEntity
  8
0
100
AcDbCircle
 62
7
  6
CONTINUOUS
 10
10.9857343703
 20
8.0202560558
 40
0.211
  0
CIRCLE
  5
618
100
AcDbEntity
  8
0
100
AcDbCircle
 62
7
  6
CONTINUOUS
 10
11.6347343341
 20
8.8632560558
 40
0.18
  0
SPLINE
  5
619
100
AcDbEntity
  8
0
100
AcDbSpline
 62
7
  6
CONTINUOUS
 70
0
 71
3
 72
8
 73
4
 74
2
 42
0.0000001
 43
0.0000001
 44
0.0000000001
 12
0.0000571665
 22
-0.0003315722
 32
0.0
 13
0.000056968
 23
-0.0003316065
 33
0.0
 40
0.0
 40
0.0
 40
0.0
 40
0.0
 40
1.0
 40
1.0
 40
1.0
 40
1.0
 10
11.1433473578
 20
10.1267715852
 30
0.0
 10
11.1433664133
 20
10.1266610612
 30
0.0
 10
11.1433854358
 20
10.1265505314
 30
0.0
 10
11.1434044251
 20
10.1264399959
 30
0.0
 11
11.1433473578
 21
10.1267715852
 31
0.0
 11
11.1434044251
 21
10.1264399959
 31
0.0
  0
SPLINE
  5
61A
100
AcDbEntity
  8
0
100
AcDbSpline
 62
7
  6
CONTINUOUS
 70
0
 71
3
 72
8
 73
4
 74
2
 42
0.0000001
 43
0.0000001
 44
0.0000000001
 12
-0.0000753075
 22
-0.0003530503
 32
0.0
 13
-0.0000757377
 23
-0.000352958
 33
0.0
 40
0.0
 40
0.0
 40
0.0
 40
0.0
 40
1.0
 40
1.0
 40
1.0
 40
1.0
 10
11.1434636784
 20
9.9841528475
 30
0.0
 10
11.1434385759
 20
9.9840351641
 30
0.0
 10
11.1434134017
 20
9.983917496
 30
0.0
 10
11.1433881558
 20
9.9837998433
 30
0.0
 11
11.1434636784
 21
9.9841528475
 31
0.0
 11
11.1433881558
 21
9.9837998433
 31
0.0
  0
SPLINE
  5
61B
100
AcDbEntity
  8
0
100
AcDbSpline
 62
7
  6
CONTINUOUS
 70
0
 71
3
 72
8
 73
4
 74
2
 42
0.0000001
 43
0.0000001
 44
0.0000000001
 12
-0.0001529443
 22
-0.0007127608
 32
0.0
 13
-0.0001546992
 23
-0.0007123808
 33
0.0
 40
0.0
 40
0.0
 40
0.0
 40
0.0
 40
1.0
 40
1.0
 40
1.0
 40
1.0
 10
11.1433881558
 20
9.9837998433
 30
0.0
 10
11.1433371744
 20
9.9835622564
 30
0.0
 10
11.1432859005
 20
9.9833247324
 30
0.0
 10
11.1432343341
 20
9.9830872721
 30
0.0
 11
11.1433881558
 21
9.9837998433
 31
0.0
 11
11.1432343341
 21
9.9830872721
 31
0.0
  0
SPLINE
  5
61C
100
AcDbEntity
  8
0
100
AcDbSpline
 62
7
  6
CONTINUOUS
 70
0
 71
3
 72
16
 73
12
 74
10
 42
0.0000001
 43
0.0000001
 44
0.0000000001
 12
-0.0345228953
 22
0.105190282
 32
0.0
 13
0.0943673507
 23
0.0581134467
 33
0.0
 40
0.0
 40
0.0
 40
0.0
 40
0.0
 40
0.0949698384
 40
0.2173191555
 40
0.3472382292
 40
0.4812020876
 40
0.6132944996
 40
0.7369209614
 40
0.8476736228
 40
0.9448672163
 40
1.0
 40
1.0
 40
1.0
 40
1.0
 10
11.2374180971
 20
10.0211135247
 30
0.0
 10
11.2363252192
 20
10.0244434927
 30
0.0
 10
11.2343266778
 20
10.0322263868
 30
0.0
 10
11.232756179
 20
10.0449711762
 30
0.0
 10
11.232862479
 20
10.05925034
 30
0.0
 10
11.2348337494
 20
10.0737578199
 30
0.0
 10
11.2386497622
 20
10.0876576624
 30
0.0
 10
11.2441045842
 20
10.1000791971
 30
0.0
 10
11.2508324275
 20
10.1103635616
 30
0.0
 10
11.2576211434
 20
10.1173832414
 30
0.0
 10
11.2622000359
 20
10.1206830158
 30
0.0
 10
11.2639342808
 20
10.1217510012
 30
0.0
 11
11.2374180971
 21
10.0211135247
 31
0.0
 11
11.234772431
 21
10.0312827815
 31
0.0
 11
11.2330751273
 21
10.044709191
 31
0.0
 11
11.2331621904
 21
10.0590794978
 31
0.0
 11
11.2351678086
 21
10.0737611109
 31
0.0
 11
11.2390801137
 21
10.0878385479
 31
0.0
 11
11.2446487235
 21
10.1003278819
 31
0.0
 11
11.2514328144
 21
10.1105284635
 31
0.0
 11
11.2589703858
 21
10.1181942074
 31
0.0
 11
11.2639342808
 21
10.1217510012
 31
0.0
  0
SPLINE
  5
61D
100
AcDbEntity
  8
0
100
AcDbSpline
 62
7
  6
CONTINUOUS
 70
0
 71
3
 72
8
 73
4
 74
2
 42
0.0000001
 43
0.0000001
 44
0.0000000001
 12
0.0014902571
 22
0.0009177324
 32
0.0
 13
0.0015275868
 23
0.0008536991
 33
0.0
 40
0.0
 40
0.0
 40
0.0
 40
0.0
 40
1.0
 40
1.0
 40
1.0
 40
1.0
 10
11.2639342808
 20
10.1217510012
 30
0.0
 10
11.2644310332
 20
10.122056912
 30
0.0
 10
11.2649341004
 20
10.1223524579
 30
0.0
 10
11.265443296
 20
10.1226370242
 30
0.0
 11
11.2639342808
 21
10.1217510012
 31
0.0
 11
11.265443296
 21
10.1226370242
 31
0.0
  0
SPLINE
  5
61E
100
AcDbEntity
  8
0
100
AcDbSpline
 62
7
  6
CONTINUOUS
 70
0
 71
3
 72
9
 73
5
 74
3
 42
0.0000001
 43
0.0000001
 44
0.0000000001
 12
0.0001134159
 22
-0.0006532356
 32
0.0
 13
0.0001126476
 23
-0.0006533686
 33
0.0
 40
0.0
 40
0.0
 40
0.0
 40
0.0
 40
0.7503704754
 40
1.0
 40
1.0
 40
1.0
 40
1.0
 10
11.1432343341
 20
10.1274248394
 30
0.0
 10
11.1432627021
 20
10.1272614498
 30
0.0
 10
11.1433004115
 20
10.127043688
 30
0.0
 10
11.1433379927
 20
10.126825904
 30
0.0
 10
11.1433473661
 20
10.1267715373
 30
0.0
 11
11.1432343341
 21
10.1274248394
 31
0.0
 11
11.143319222
 21
10.1269346332
 31
0.0
 11
11.1433473661
 21
10.1267715373
 31
0.0
  0
SPLINE
  5
61F
100
AcDbEntity
  8
0
100
AcDbSpline
 62
7
  6
CONTINUOUS
 70
0
 71
3
 72
29
 73
25
 74
23
 42
0.0000001
 43
0.0000001
 44
0.0000000001
 12
0.0244420634
 22
-0.1417667506
 32
0.0
 13
-0.0301821263
 23
-0.1406566201
 33
0.0
 40
0.0
 40
0.0
 40
0.0
 40
0.0
 40
0.0093409078
 40
0.0272193989
 40
0.0530130829
 40
0.087258546
 40
0.1303670344
 40
0.1823276743
 40
0.2423650474
 40
0.3088548025
 40
0.3795781117
 40
0.4520213307
 40
0.5238508774
 40
0.5933209788
 40
0.6592061979
 40
0.7206338932
 40
0.777057274
 40
0.8280991327
 40
0.873393596
 40
0.9125571214
 40
0.9452584355
 40
0.9711556043
 40
0.9899037891
 40
1.0
 40
1.0
 40
1.0
 40
1.0
 10
11.1433473661
 20
10.1267715373
 30
0.0
 10
11.1434234698
 20
10.1263301272
 30
0.0
 10
11.1436436996
 20
10.1250435935
 30
0.0
 10
11.1440638281
 20
10.1225364167
 30
0.0
 10
11.144660231
 20
10.1188479266
 30
0.0
 10
11.1454104226
 20
10.1139588607
 30
0.0
 10
11.146285344
 20
10.1078197472
 30
0.0
 10
11.1472341737
 20
10.1004424388
 30
0.0
 10
11.1481830708
 20
10.0919357271
 30
0.0
 10
11.1490434495
 20
10.0825154938
 30
0.0
 10
11.1497281437
 20
10.0724842409
 30
0.0
 10
11.1501696388
 20
10.0621828427
 30
0.0
 10
11.1503323109
 20
10.0519332686
 30
0.0
 10
11.150213807
 20
10.0419975852
 30
0.0
 10
11.1498382741
 20
10.0325675575
 30
0.0
 10
11.1492476469
 20
10.0237756526
 30
0.0
 10
11.1484940718
 20
10.01571103
 30
0.0
 10
11.1476344739
 20
10.0084357098
 30
0.0
 10
11.14672788
 20
10.0020011809
 30
0.0
 10
11.145833349
 20
9.9964544105
 30
0.0
 10
11.1450076904
 20
9.9918395369
 30
0.0
 10
11.1443030742
 20
9.9881979957
 30
0.0
 10
11.1437766043
 20
9.9856262848
 30
0.0
 10
11.1434897259
 20
9.9842731869
 30
0.0
 10
11.1433881509
 20
9.9837998206
 30
0.0
 11
11.1433473661
 21
10.1267715373
 31
0.0
 11
11.1435740909
 21
10.1254470347
 31
0.0
 11
11.1439991188
 21
10.1229104266
 31
0.0
 11
11.1445913136
 21
10.1192473503
 31
0.0
 11
11.145338273
 21
10.1143778116
 31
0.0
 11
11.1462127743
 21
10.1082382644
 31
0.0
 11
11.1471654574
 21
10.1008242516
 31
0.0
 11
11.1481215775
 21
10.0922404605
 31
0.0
 11
11.148989669
 21
10.0827148289
 31
0.0
 11
11.1496801732
 21
10.0725641503
 31
0.0
 11
11.1501238857
 21
10.0621520397
 31
0.0
 11
11.1502854315
 21
10.0518200236
 31
0.0
 11
11.1501641076
 21
10.041826907
 31
0.0
 11
11.1497852321
 21
10.0323563448
 31
0.0
 11
11.1491916238
 21
10.0235394189
 31
0.0
 11
11.1484355397
 21
10.0154577362
 31
0.0
 11
11.1475733688
 21
10.008165732
 31
0.0
 11
11.1466639181
 21
10.0017135251
 31
0.0
 11
11.1457667123
 21
9.9961514238
 31
0.0
 11
11.1449381034
 21
9.9915206163
 31
0.0
 11
11.144230324
 21
9.987862943
 31
0.0
 11
11.1436893938
 21
9.9852206619
 31
0.0
 11
11.1433881509
 21
9.9837998206
 31
0.0
  0
SPLINE
  5
620
100
AcDbEntity
  8
0
100
AcDbSpline
 62
7
  6
CONTINUOUS
 70
0
 71
3
 72
9
 73
5
 74
3
 42
0.0000001
 43
0.0000001
 44
0.0000000001
 12
0.0205017545
 22
-0.0205000477
 32
0.0
 13
0.0205018525
 23
-0.0204999497
 33
0.0
 40
0.0
 40
0.0
 40
0.0
 40
0.0
 40
0.5011739172
 40
1.0
 40
1.0
 40
1.0
 40
1.0
 10
11.036266595
 20
10.4087560558
 30
0.0
 10
11.0396915765
 20
10.4053313594
 30
0.0
 10
11.0465255022
 20
10.3984980177
 30
0.0
 10
11.0533594442
 20
10.3916646923
 30
0.0
 10
11.0567683972
 20
10.3882560558
 30
0.0
 11
11.036266595
 21
10.4087560558
 31
0.0
 11
11.0465415513
 21
10.3984819782
 31
0.0
 11
11.0567683972
 21
10.3882560558
 31
0.0
  0
SPLINE
  5
621
100
AcDbEntity
  8
0
100
AcDbSpline
 62
7
  6
CONTINUOUS
 70
0
 71
3
 72
20
 73
16
 74
14
 42
0.0000001
 43
0.0000001
 44
0.0000000001
 12
-0.0345993742
 22
0.1053202994
 32
0.0
 13
0.0945829988
 23
0.0579220506
 33
0.0
 40
0.0
 40
0.0
 40
0.0
 40
0.0
 40
0.023196268
 40
0.1049923874
 40
0.1912445741
 40
0.2815080717
 40
0.3748825879
 40
0.4698370962
 40
0.5641362397
 40
0.6553406103
 40
0.7413661732
 40
0.8208076697
 40
0.8932592936
 40
0.9592743658
 40
1.0
 40
1.0
 40
1.0
 40
1.0
 10
11.2374278584
 20
10.021084094
 30
0.0
 10
11.237160333
 20
10.02189844
 30
0.0
 10
11.2360088403
 20
10.0256039254
 30
0.0
 10
11.234386108
 20
10.0324908422
 30
0.0
 10
11.2331214528
 20
10.0419616752
 30
0.0
 10
11.232731343
 20
10.0519360592
 30
0.0
 10
11.2332677177
 20
10.0622256219
 30
0.0
 10
11.2347627115
 20
10.0725715104
 30
0.0
 10
11.2372083271
 20
10.082653671
 30
0.0
 10
11.2405415579
 20
10.0921312246
 30
0.0
 10
11.2446453987
 20
10.1006992254
 30
0.0
 10
11.2493662747
 20
10.1081374438
 30
0.0
 10
11.2545420903
 20
10.1143329532
 30
0.0
 10
11.2594806588
 20
10.1187748931
 30
0.0
 10
11.2627351267
 20
10.1210171763
 30
0.0
 10
11.2640191109
 20
10.1218034804
 30
0.0
 11
11.2374278584
 21
10.021084094
 31
0.0
 11
11.2366642491
 21
10.0235394473
 31
0.0
 11
11.2345668199
 21
10.0323563848
 31
0.0
 11
11.2332865127
 21
10.0418269454
 31
0.0
 11
11.23288539
 21
10.0518200599
 31
0.0
 11
11.2334204285
 21
10.0621520772
 31
0.0
 11
11.2349296111
 21
10.0725641956
 31
0.0
 11
11.2374057604
 21
10.0827148538
 31
0.0
 11
11.2407793964
 21
10.0922404978
 31
0.0
 11
11.2449230233
 21
10.1008243057
 31
0.0
 11
11.2496674208
 21
10.1082383091
 31
0.0
 11
11.2548393288
 21
10.1143778478
 31
0.0
 11
11.2602972372
 21
10.1192473801
 31
0.0
 11
11.2640191109
 21
10.1218034804
 31
0.0
  0
SPLINE
  5
622
100
AcDbEntity
  8
0
100
AcDbSpline
 62
7
  6
CONTINUOUS
 70
0
 71
3
 72
8
 73
4
 74
2
 42
0.0000001
 43
0.0000001
 44
0.0000000001
 12
0.0014073612
 22
0.0008618594
 32
0.0
 13
0.0014407524
 23
0.0008048958
 33
0.0
 40
0.0
 40
0.0
 40
0.0
 40
0.0
 40
1.0
 40
1.0
 40
1.0
 40
1.0
 10
11.2640191109
 20
10.1218034804
 30
0.0
 10
11.2644882313
 20
10.1220907668
 30
0.0
 10
11.2649629958
 20
10.1223688142
 30
0.0
 10
11.2654432466
 20
10.1226371127
 30
0.0
 11
11.2640191109
 21
10.1218034804
 31
0.0
 11
11.2654432466
 21
10.1226371127
 31
0.0
  0
SPLINE
  5
623
100
AcDbEntity
  8
0
100
AcDbSpline
 62
7
  6
CONTINUOUS
 70
0
 71
3
 72
21
 73
17
 74
15
 42
0.0000001
 43
0.0000001
 44
0.0000000001
 12
0.2030979382
 22
0.1047438399
 32
0.0
 13
0.2030979382
 23
-0.1047438399
 33
0.0
 40
0.0
 40
0.0
 40
0.0
 40
0.0
 40
0.0781596132
 40
0.1529736848
 40
0.2251891456
 40
0.2954737185
 40
0.3643828235
 40
0.4324082454
 40
0.5000000002
 40
0.567591755
 40
0.635617177
 40
0.7045262819
 40
0.7748108548
 40
0.8470263155
 40
0.9218403867
 40
1.0
 40
1.0
 40
1.0
 40
1.0
 10
10.9356318616
 20
11.5801923899
 30
0.0
 10
10.9409232137
 20
11.5829213025
 30
0.0
 10
10.9514082228
 20
11.588018472
 30
0.0
 10
10.9672276181
 20
11.594673389
 30
0.0
 10
10.9828557672
 20
11.6001636749
 30
0.0
 10
10.9983828621
 20
11.6044822546
 30
0.0
 10
11.0138706965
 20
11.6076033034
 30
0.0
 10
11.0293512331
 20
11.6094938549
 30
0.0
 10
11.0448343341
 20
11.6101274038
 30
0.0
 10
11.0603174352
 20
11.6094938549
 30
0.0
 10
11.0757979718
 20
11.6076033034
 30
0.0
 10
11.0912858062
 20
11.6044822546
 30
0.0
 10
11.1068129011
 20
11.6001636749
 30
0.0
 10
11.1224410501
 20
11.594673389
 30
0.0
 10
11.1382604454
 20
11.588018472
 30
0.0
 10
11.1487454545
 20
11.5829213025
 30
0.0
 10
11.1540368066
 20
11.5801923899
 30
0.0
 11
10.9356318616
 21
11.5801923899
 31
0.0
 11
10.9517057429
 21
11.5879794743
 31
0.0
 11
10.9674735773
 21
11.5945869377
 31
0.0
 11
10.9830506457
 21
11.6000354489
 31
0.0
 11
10.9985298658
 21
11.604319915
 31
0.0
 11
11.0139696308
 21
11.607414862
 31
0.0
 11
11.0294012304
 21
11.6092888408
 31
0.0
 11
11.0448343341
 21
11.6099166715
 31
0.0
 11
11.0602674379
 21
11.6092888408
 31
0.0
 11
11.0756990375
 21
11.607414862
 31
0.0
 11
11.0911388025
 21
11.604319915
 31
0.0
 11
11.1066180226
 21
11.6000354489
 31
0.0
 11
11.1221950909
 21
11.5945869377
 31
0.0
 11
11.1379629253
 21
11.5879794743
 31
0.0
 11
11.1540368066
 21
11.5801923899
 31
0.0
  0
SPLINE
  5
624
100
AcDbEntity
  8
0
100
AcDbSpline
 62
7
  6
CONTINUOUS
 70
0
 71
3
 72
22
 73
18
 74
16
 42
0.0000001
 43
0.0000001
 44
0.0000000001
 12
0.1841159884
 22
-0.1644656127
 32
0.0
 13
0.1841159884
 23
0.1644656127
 33
0.0
 40
0.0
 40
0.0
 40
0.0
 40
0.0
 40
0.0830444052
 40
0.1589224034
 40
0.2289068164
 40
0.2941337099
 40
0.3556458774
 40
0.4144752938
 40
0.4716742342
 40
0.5283257669
 40
0.5855247072
 40
0.6443541234
 40
0.7058662908
 40
0.7710931842
 40
0.8410775968
 40
0.9169555947
 40
1.0
 40
1.0
 40
1.0
 40
1.0
 10
10.9356318616
 20
11.1437560558
 30
0.0
 10
10.9407284625
 20
11.1392034061
 30
0.0
 10
10.950726666
 20
11.1307576762
 30
0.0
 10
10.9659155857
 20
11.1195892654
 30
0.0
 10
10.9806861076
 20
11.1104085793
 30
0.0
 10
10.9951668718
 20
11.1031161841
 30
0.0
 10
11.0094610685
 20
11.0976595438
 30
0.0
 10
11.023645984
 20
11.0940201725
 30
0.0
 10
11.0377768466
 20
11.092198129
 30
0.0
 10
11.0518918218
 20
11.092198129
 30
0.0
 10
11.0660226845
 20
11.0940201726
 30
0.0
 10
11.0802075998
 20
11.0976595439
 30
0.0
 10
11.0945017966
 20
11.1031161841
 30
0.0
 10
11.1089825607
 20
11.1104085794
 30
0.0
 10
11.1237530825
 20
11.1195892654
 30
0.0
 10
11.1389420022
 20
11.1307576762
 30
0.0
 10
11.1489402057
 20
11.1392034061
 30
0.0
 10
11.1540368066
 20
11.1437560558
 30
0.0
 11
10.9356318616
 21
11.1437560558
 31
0.0
 11
10.9513268726
 21
11.1305657461
 31
0.0
 11
10.9664494866
 21
11.1195108484
 31
0.0
 11
10.9811507453
 21
11.1104343172
 31
0.0
 11
10.9955551017
 21
11.1032357665
 31
0.0
 11
11.0097578794
 21
11.097860683
 31
0.0
 11
11.0238339988
 21
11.0942834569
 31
0.0
 11
11.0378413895
 21
11.0924955732
 31
0.0
 11
11.051827279
 21
11.0924955732
 31
0.0
 11
11.0658346697
 21
11.0942834569
 31
0.0
 11
11.079910789
 21
11.0978606831
 31
0.0
 11
11.0941135666
 21
11.1032357666
 31
0.0
 11
11.108517923
 21
11.1104343172
 31
0.0
 11
11.1232191817
 21
11.1195108484
 31
0.0
 11
11.1383417956
 21
11.1305657461
 31
0.0
 11
11.1540368066
 21
11.1437560558
 31
0.0
  0
SPLINE
  5
625
100
AcDbEntity
  8
0
100
AcDbSpline
 62
7
  6
CONTINUOUS
 70
0
 71
3
 72
21
 73
17
 74
15
 42
0.0000001
 43
0.0000001
 44
0.0000000001
 12
0.428009375
 22
0.1103687852
 32
0.0
 13
0.428009375
 23
-0.1103687852
 33
0.0
 40
0.0
 40
0.0
 40
0.0
 40
0.0
 40
0.0748340669
 40
0.1477292642
 40
0.2192818387
 40
0.2899894476
 40
0.360200991
 40
0.4301541685
 40
0.5000000002
 40
0.5698458319
 40
0.6397990095
 40
0.7100105528
 40
0.7807181617
 40
0.852270736
 40
0.9251659331
 40
1.0
 40
1.0
 40
1.0
 40
1.0
 10
11.2053293891
 20
11.5801923899
 30
0.0
 10
11.2160059498
 20
11.5829455049
 30
0.0
 10
11.2371611433
 20
11.5880817325
 30
0.0
 10
11.2687847224
 20
11.5947242304
 30
0.0
 10
11.3000148307
 20
11.6002008602
 30
0.0
 10
11.3310294395
 20
11.6045056395
 30
0.0
 10
11.3619505399
 20
11.6076143852
 30
0.0
 10
11.392843813
 20
11.6094962865
 30
0.0
 10
11.4237343342
 20
11.6101267026
 30
0.0
 10
11.4546248554
 20
11.6094962865
 30
0.0
 10
11.4855181285
 20
11.6076143851
 30
0.0
 10
11.5164392289
 20
11.6045056395
 30
0.0
 10
11.5474538376
 20
11.6002008602
 30
0.0
 10
11.5786839459
 20
11.5947242304
 30
0.0
 10
11.6103075249
 20
11.5880817325
 30
0.0
 10
11.6314627184
 20
11.5829455049
 30
0.0
 10
11.6421392791
 20
11.5801923899
 30
0.0
 11
11.2053293891
 21
11.5801923899
 31
0.0
 11
11.2374771517
 21
11.5879794743
 31
0.0
 11
11.2690128206
 21
11.5945869377
 31
0.0
 11
11.3001669572
 21
11.6000354489
 31
0.0
 11
11.3311253974
 21
11.604319915
 31
0.0
 11
11.3620049275
 21
11.607414862
 31
0.0
 11
11.3928681268
 21
11.6092888408
 31
0.0
 11
11.4237343342
 21
11.6099166715
 31
0.0
 11
11.4546005416
 21
11.6092888408
 31
0.0
 11
11.4854637409
 21
11.607414862
 31
0.0
 11
11.516343271
 21
11.604319915
 31
0.0
 11
11.5473017111
 21
11.6000354489
 31
0.0
 11
11.5784558477
 21
11.5945869377
 31
0.0
 11
11.6099915165
 21
11.5879794743
 31
0.0
 11
11.6421392791
 21
11.5801923899
 31
0.0
  0
SPLINE
  5
626
100
AcDbEntity
  8
0
100
AcDbSpline
 62
7
  6
CONTINUOUS
 70
0
 71
3
 72
22
 73
18
 74
16
 42
0.0000001
 43
0.0000001
 44
0.0000000001
 12
0.4128214542
 22
-0.1843808732
 32
0.0
 13
0.4128214542
 23
0.1843808732
 33
0.0
 40
0.0
 40
0.0
 40
0.0
 40
0.0
 40
0.0753081232
 40
0.1465321839
 40
0.2145919857
 40
0.2802693993
 40
0.3442109576
 40
0.4069779893
 40
0.4690663856
 40
0.5309336155
 40
0.5930220118
 40
0.6557890432
 40
0.7197306014
 40
0.7854080149
 40
0.8534678163
 40
0.9246918767
 40
1.0
 40
1.0
 40
1.0
 40
1.0
 10
11.2053293891
 20
11.1437560558
 30
0.0
 10
11.2156923254
 20
11.1391275966
 30
0.0
 10
11.2360507088
 20
11.1305474143
 30
0.0
 10
11.266426525
 20
11.1194095599
 30
0.0
 10
11.2959467523
 20
11.1102657973
 30
0.0
 10
11.3248591127
 20
11.1030153088
 30
0.0
 10
11.3533608232
 20
11.097601506
 30
0.0
 10
11.3816034681
 20
11.0939985465
 30
0.0
 10
11.4097055032
 20
11.0921977794
 30
0.0
 10
11.4377631655
 20
11.0921977794
 30
0.0
 10
11.4658652006
 20
11.0939985466
 30
0.0
 10
11.4941078454
 20
11.0976015061
 30
0.0
 10
11.5226095558
 20
11.1030153089
 30
0.0
 10
11.5515219161
 20
11.1102657973
 30
0.0
 10
11.5810421433
 20
11.1194095599
 30
0.0
 10
11.6114179594
 20
11.1305474143
 30
0.0
 10
11.6317763428
 20
11.1391275966
 30
0.0
 10
11.6421392791
 20
11.1437560558
 30
0.0
 11
11.2053293891
 21
11.1437560558
 31
0.0
 11
11.2367194111
 21
11.1305657461
 31
0.0
 11
11.266964639
 21
11.1195108484
 31
0.0
 11
11.2963671565
 21
11.1104343172
 31
0.0
 11
11.3251758694
 21
11.1032357665
 31
0.0
 11
11.3535814247
 21
11.097860683
 31
0.0
 11
11.3817336635
 21
11.0942834569
 31
0.0
 11
11.4097484448
 21
11.0924955732
 31
0.0
 11
11.4377202239
 21
11.0924955732
 31
0.0
 11
11.4657350052
 21
11.0942834569
 31
0.0
 11
11.4938872439
 21
11.0978606831
 31
0.0
 11
11.5222927991
 21
11.1032357666
 31
0.0
 11
11.551101512
 21
11.1104343172
 31
0.0
 11
11.5805040292
 21
11.1195108484
 31
0.0
 11
11.6107492571
 21
11.1305657461
 31
0.0
 11
11.6421392791
 21
11.1437560558
 31
0.0
  0
SPLINE
  5
627
100
AcDbEntity
  8
0
100
AcDbSpline
 62
7
  6
CONTINUOUS
 70
0
 71
3
 72
21
 73
17
 74
15
 42
0.0000001
 43
0.0000001
 44
0.0000000001
 12
0.2030979382
 22
0.1047438399
 32
0.0
 13
0.2030979382
 23
-0.1047438399
 33
0.0
 40
0.0
 40
0.0
 40
0.0
 40
0.0
 40
0.0781596132
 40
0.1529736848
 40
0.2251891456
 40
0.2954737185
 40
0.3643828235
 40
0.4324082454
 40
0.5000000002
 40
0.567591755
 40
0.635617177
 40
0.7045262819
 40
0.7748108548
 40
0.8470263155
 40
0.9218403867
 40
1.0
 40
1.0
 40
1.0
 40
1.0
 10
11.6934318616
 20
11.5801923899
 30
0.0
 10
11.6987232137
 20
11.5829213025
 30
0.0
 10
11.7092082228
 20
11.588018472
 30
0.0
 10
11.7250276181
 20
11.594673389
 30
0.0
 10
11.7406557672
 20
11.6001636749
 30
0.0
 10
11.7561828621
 20
11.6044822546
 30
0.0
 10
11.7716706965
 20
11.6076033034
 30
0.0
 10
11.7871512331
 20
11.6094938549
 30
0.0
 10
11.8026343341
 20
11.6101274038
 30
0.0
 10
11.8181174352
 20
11.6094938549
 30
0.0
 10
11.8335979718
 20
11.6076033034
 30
0.0
 10
11.8490858062
 20
11.6044822546
 30
0.0
 10
11.8646129011
 20
11.6001636749
 30
0.0
 10
11.8802410501
 20
11.594673389
 30
0.0
 10
11.8960604454
 20
11.588018472
 30
0.0
 10
11.9065454545
 20
11.5829213025
 30
0.0
 10
11.9118368066
 20
11.5801923899
 30
0.0
 11
11.6934318616
 21
11.5801923899
 31
0.0
 11
11.7095057429
 21
11.5879794743
 31
0.0
 11
11.7252735773
 21
11.5945869377
 31
0.0
 11
11.7408506457
 21
11.6000354489
 31
0.0
 11
11.7563298658
 21
11.604319915
 31
0.0
 11
11.7717696308
 21
11.607414862
 31
0.0
 11
11.7872012304
 21
11.6092888408
 31
0.0
 11
11.8026343341
 21
11.6099166715
 31
0.0
 11
11.8180674379
 21
11.6092888408
 31
0.0
 11
11.8334990375
 21
11.607414862
 31
0.0
 11
11.8489388025
 21
11.604319915
 31
0.0
 11
11.8644180226
 21
11.6000354489
 31
0.0
 11
11.8799950909
 21
11.5945869377
 31
0.0
 11
11.8957629253
 21
11.5879794743
 31
0.0
 11
11.9118368066
 21
11.5801923899
 31
0.0
  0
SPLINE
  5
628
100
AcDbEntity
  8
0
100
AcDbSpline
 62
7
  6
CONTINUOUS
 70
0
 71
3
 72
22
 73
18
 74
16
 42
0.0000001
 43
0.0000001
 44
0.0000000001
 12
0.1841159884
 22
-0.1644656127
 32
0.0
 13
0.1841159884
 23
0.1644656127
 33
0.0
 40
0.0
 40
0.0
 40
0.0
 40
0.0
 40
0.0830444052
 40
0.1589224034
 40
0.2289068164
 40
0.2941337099
 40
0.3556458774
 40
0.4144752938
 40
0.4716742342
 40
0.5283257669
 40
0.5855247072
 40
0.6443541234
 40
0.7058662908
 40
0.7710931842
 40
0.8410775968
 40
0.9169555947
 40
1.0
 40
1.0
 40
1.0
 40
1.0
 10
11.6934318616
 20
11.1437560558
 30
0.0
 10
11.6985284625
 20
11.1392034061
 30
0.0
 10
11.708526666
 20
11.1307576762
 30
0.0
 10
11.7237155857
 20
11.1195892654
 30
0.0
 10
11.7384861076
 20
11.1104085793
 30
0.0
 10
11.7529668718
 20
11.1031161841
 30
0.0
 10
11.7672610685
 20
11.0976595438
 30
0.0
 10
11.781445984
 20
11.0940201725
 30
0.0
 10
11.7955768466
 20
11.092198129
 30
0.0
 10
11.8096918218
 20
11.092198129
 30
0.0
 10
11.8238226845
 20
11.0940201726
 30
0.0
 10
11.8380075998
 20
11.0976595439
 30
0.0
 10
11.8523017966
 20
11.1031161841
 30
0.0
 10
11.8667825607
 20
11.1104085794
 30
0.0
 10
11.8815530825
 20
11.1195892654
 30
0.0
 10
11.8967420022
 20
11.1307576762
 30
0.0
 10
11.9067402057
 20
11.1392034061
 30
0.0
 10
11.9118368066
 20
11.1437560558
 30
0.0
 11
11.6934318616
 21
11.1437560558
 31
0.0
 11
11.7091268726
 21
11.1305657461
 31
0.0
 11
11.7242494866
 21
11.1195108484
 31
0.0
 11
11.7389507453
 21
11.1104343172
 31
0.0
 11
11.7533551017
 21
11.1032357665
 31
0.0
 11
11.7675578794
 21
11.097860683
 31
0.0
 11
11.7816339988
 21
11.0942834569
 31
0.0
 11
11.7956413895
 21
11.0924955732
 31
0.0
 11
11.809627279
 21
11.0924955732
 31
0.0
 11
11.8236346697
 21
11.0942834569
 31
0.0
 11
11.837710789
 21
11.0978606831
 31
0.0
 11
11.8519135666
 21
11.1032357666
 31
0.0
 11
11.866317923
 21
11.1104343172
 31
0.0
 11
11.8810191817
 21
11.1195108484
 31
0.0
 11
11.8961417956
 21
11.1305657461
 31
0.0
 11
11.9118368066
 21
11.1437560558
 31
0.0
  0
ENDSEC
  0
SECTION
  2
OBJECTS
  0
DICTIONARY
  5
C
100
AcDbDictionary
280
0
281
1
  3
ACAD_GROUP
350
D
  3
ACAD_MLINESTYLE
350
17
  3
ACAD_LAYOUT
350
1A
  3
ACAD_PLOTSETTINGS
350
19
  3
ACAD_PLOTSTYLENAME
350
E
  0
DICTIONARY
  5
D
102
{ACAD_REACTORS
330
C
102
}
100
AcDbDictionary
280
0
281
1
  0
ACDBDICTIONARYWDFLT
  5
E
102
{ACAD_REACTORS
330
C
102
}
100
AcDbDictionary
281
1
  3
Normal
350
F
100
AcDbDictionaryWithDefault
340
F
  0
DICTIONARY
  5
17
102
{ACAD_REACTORS
330
C
102
}
100
AcDbDictionary
280
0
281
1
  3
Standard
350
18
  0
DICTIONARY
  5
19
102
{ACAD_REACTORS
330
C
102
}
100
AcDbDictionary
281
1
  0
DICTIONARY
  5
1A
102
{ACAD_REACTORS
330
C
102
}
100
AcDbDictionary
281
1
  3
Layout1
350
1E
  3
Model
350
22
  0
ACDBPLACEHOLDER
  5
F
102
{ACAD_REACTORS
330
E
102
}
  0
MLINESTYLE
  5
18
102
{ACAD_REACTORS
330
17
102
}
100
AcDbMlineStyle
  2
STANDARD
 70
0
  3

 62
256
 51
90.0
 52
90.0
 71
2
 49
0.5
 62
256
  6
BYLAYER
 49
-0.5
 62
256
  6
BYLAYER
  0
LAYOUT
  5
1E
102
{ACAD_REACTORS
330
1A
102
}
100
AcDbPlotSettings
  1

  2

  4

  6

 40
0.0
 41
0.0
 42
0.0
 43
0.0
 44
0.0
 45
0.0
 46
0.0
 47
0.0
 48
0.0
 49
0.0
140
0.0
141
0.0
142
1.0
143
1.0
 70
0
 72
0
 73
0
 74
0
  7

 75
0
147
1.0
148
0.0
149
0.0
100
AcDbLayout
  1
Layout1
 70
0
 71
0
 10
0.0
 20
0.0
 11
0.0
 21
0.0
 12
0.0
 22
0.0
 32
0.0
 14
0.0
 24
0.0
 34
0.0
 15
0.0
 25
0.0
 35
0.0
146
0.0
 13
0.0
 23
0.0
 33
0.0
 16
0.0
 26
0.0
 36
0.0
 17
0.0
 27
0.0
 37
0.0
 76
0
330
1B
331
0
345
0
346
0
  0
LAYOUT
  5
22
102
{ACAD_REACTORS
330
1A
102
}
100
AcDbPlotSettings
  1

  2

  4

  6

 40
0.0
 41
0.0
 42
0.0
 43
0.0
 44
0.0
 45
0.0
 46
0.0
 47
0.0
 48
0.0
 49
0.0
140
0.0
141
0.0
142
1.0
143
1.0
 70
0
 72
0
 73
0
 74
0
  7

 75
0
147
1.0
148
0.0
149
0.0
100
AcDbLayout
  1
Model
 70
0
 71
0
 10
0.0
 20
0.0
 11
0.0
 21
0.0
 12
0.0
 22
0.0
 32
0.0
 14
0.0
 24
0.0
 34
0.0
 15
0.0
 25
0.0
 35
0.0
146
0.0
 13
0.0
 23
0.0
 33
0.0
 16
0.0
 26
0.0
 36
0.0
 17
0.0
 27
0.0
 37
0.0
 76
0
330
1F
331
0
345
0
346
0
  0
ENDSEC
  0
EOF
