999
DXF file: E3B_6.dxf
999
Pro/ENGINEER 2006240 by Parametric Technology Corporation
  0
SECTION
  2
HEADER
  9
$ACADVER
  1
AC1015
  9
$DWGCODEPAGE
  3
ANSI_1252
  9
$EXTMAX
 10
22.0
 20
17.0
 30
0.0
  9
$EXTMIN
 10
0.0
 20
0.0
 30
0.0
  9
$LIMMIN
 10
0.0
 20
0.0
  9
$LIMMAX
 10
22.0
 20
17.0
  9
$VIEWCTR
 10
11.0
 20
8.5
  9
$VIEWSIZE
 40
17.0
  9
$CLAYER
  8
0
  9
$LTSCALE
 40
1.21
  9
$CELTYPE
  6
BYLAYER
  9
$DIMSCALE
 40
1.0
  9
$DIMASZ
 40
0.1875
  9
$DIMEXO
 40
0.1375
  9
$DIMDLI
 40
0.836
  9
$DIMEXE
 40
0.396
  9
$DIMCEN
 40
0.198
  9
$DIMLFAC
 40
1.0
  9
$DIMBLK
  1
_CLOSED
  9
$DIMTXT
 40
0.15625
  9
$DIMTOL
 70
0
  9
$DIMLIM
 70
0
  9
$DIMTFAC
 40
1.0
  9
$PDMODE
 70
3
  9
$PDSIZE
 40
0.3125
  9
$HANDSEED
  5
5A6
  9
$MEASUREMENT
 70
0
  9
$INSUNITS
 70
1
  0
ENDSEC
  0
SECTION
  2
CLASSES
  0
CLASS
  1
ACDBDICTIONARYWDFLT
  2
AcDbDictionaryWithDefault
  3
AutoCAD 2000
 90
0
280
0
281
0
  0
CLASS
  1
ACDBPLACEHOLDER
  2
AcDbPlaceHolder
  3
AutoCAD 2000
 90
0
280
0
281
0
  0
CLASS
  1
LAYOUT
  2
AcDbLayout
  3
AutoCAD 2000
 90
0
280
0
281
0
  0
ENDSEC
  0
SECTION
  2
TABLES
  0
TABLE
  2
VPORT
  5
8
100
AcDbSymbolTable
 70
2
  0
VPORT
  5
1F4
100
AcDbSymbolTableRecord
100
AcDbViewportTableRecord
  2
*ACTIVE
 70
0
 10
0.0
 20
0.0
 11
1.0
 21
1.0
 12
11.0
 22
8.5
 13
0.0
 23
0.0
 14
1.0
 24
1.0
 15
0.0
 25
0.0
 16
0.0
 26
0.0
 36
1.0
 17
0.0
 27
0.0
 37
0.0
 40
17.0
 41
1.2941176471
 42
50.0
 43
0.0
 44
0.0
 50
0.0
 51
0.0
 71
0
 72
100
 73
1
 74
1
 75
0
 76
0
 77
0
 78
0
  0
ENDTAB
  0
TABLE
  2
LTYPE
  5
5
100
AcDbSymbolTable
 70
6
  0
LTYPE
  5
14
100
AcDbSymbolTableRecord
100
AcDbLinetypeTableRecord
  2
BYBLOCK
 70
0
  3

 72
65
 73
0
 40
0.0
  0
LTYPE
  5
15
100
AcDbSymbolTableRecord
100
AcDbLinetypeTableRecord
  2
BYLAYER
 70
0
  3

 72
65
 73
0
 40
0.0
  0
LTYPE
  5
16
100
AcDbSymbolTableRecord
100
AcDbLinetypeTableRecord
  2
CONTINUOUS
 70
64
  3
Solid line
 72
65
 73
0
 40
0.0
  0
LTYPE
  5
1F5
100
AcDbSymbolTableRecord
100
AcDbLinetypeTableRecord
  2
CENTER
 70
64
  3
____ _ ____ _ ____ _ ____ _ ____ _ ____ _ ____
 72
65
 73
4
 40
0.6
 49
0.375
 74
0
 49
-0.075
 74
0
 49
0.075
 74
0
 49
-0.075
 74
0
  0
LTYPE
  5
1F6
100
AcDbSymbolTableRecord
100
AcDbLinetypeTableRecord
  2
HIDDEN
 70
64
  3
- - - - - - - - - - - - - - - - - - - -
 72
65
 73
2
 40
0.2
 49
0.1
 74
0
 49
-0.1
 74
0
  0
LTYPE
  5
1F7
100
AcDbSymbolTableRecord
100
AcDbLinetypeTableRecord
  2
PHANTOM
 70
64
  3
_____ _ _ _____ _ _ _____ _ _ _____
 72
65
 73
6
 40
0.8
 49
0.45
 74
0
 49
-0.05
 74
0
 49
0.1
 74
0
 49
-0.05
 74
0
 49
0.1
 74
0
 49
-0.05
 74
0
  0
LTYPE
  5
1F8
100
AcDbSymbolTableRecord
100
AcDbLinetypeTableRecord
  2
DOT
 70
64
  3
. . . . . . . . . . . . . . . . . . . .
 72
65
 73
2
 40
0.2
 49
0.1
 74
0
 49
-0.1
 74
0
  0
LTYPE
  5
1F9
100
AcDbSymbolTableRecord
100
AcDbLinetypeTableRecord
  2
DASHED
 70
64
  3
- - - - - - - - - - - - - - - - - - - -
 72
65
 73
2
 40
0.2
 49
0.1
 74
0
 49
-0.1
 74
0
  0
ENDTAB
  0
TABLE
  2
LAYER
  5
2
100
AcDbSymbolTable
 70
36
  0
LAYER
  5
10
100
AcDbSymbolTableRecord
100
AcDbLayerTableRecord
  2
0
 70
0
 62
7
  6
CONTINUOUS
370
-3
390
F
  0
LAYER
  5
1FA
100
AcDbSymbolTableRecord
100
AcDbLayerTableRecord
  2
DEFAULT_1
 70
0
 62
7
  6
CENTER
370
-3
390
F
  0
LAYER
  5
1FB
100
AcDbSymbolTableRecord
100
AcDbLayerTableRecord
  2
DEFAULT_2
 70
0
 62
8
  6
HIDDEN
370
-3
390
F
  0
LAYER
  5
1FC
100
AcDbSymbolTableRecord
100
AcDbLayerTableRecord
  2
DEFAULT_3
 70
0
 62
7
  6
PHANTOM
370
-3
390
F
  0
LAYER
  5
1FD
100
AcDbSymbolTableRecord
100
AcDbLayerTableRecord
  2
01_ALL_DTM_PLN
 70
0
 62
7
  6
CONTINUOUS
370
-3
390
F
  0
LAYER
  5
1FE
100
AcDbSymbolTableRecord
100
AcDbLayerTableRecord
  2
01__ASM_ALL_DTM_PLN
 70
0
 62
7
  6
CONTINUOUS
370
-3
390
F
  0
LAYER
  5
1FF
100
AcDbSymbolTableRecord
100
AcDbLayerTableRecord
  2
01__ASM_DEF_DTM_PLN
 70
0
 62
7
  6
CONTINUOUS
370
-3
390
F
  0
LAYER
  5
200
100
AcDbSymbolTableRecord
100
AcDbLayerTableRecord
  2
01___PRT_ALL_DTM_PLN
 70
0
 62
7
  6
CONTINUOUS
370
-3
390
F
  0
LAYER
  5
201
100
AcDbSymbolTableRecord
100
AcDbLayerTableRecord
  2
01___PRT_DEF_DTM_PLN
 70
0
 62
7
  6
CONTINUOUS
370
-3
390
F
  0
LAYER
  5
202
100
AcDbSymbolTableRecord
100
AcDbLayerTableRecord
  2
02_ALL_AXES
 70
0
 62
7
  6
CONTINUOUS
370
-3
390
F
  0
LAYER
  5
203
100
AcDbSymbolTableRecord
100
AcDbLayerTableRecord
  2
02__ASM_ALL_AXES
 70
0
 62
7
  6
CONTINUOUS
370
-3
390
F
  0
LAYER
  5
204
100
AcDbSymbolTableRecord
100
AcDbLayerTableRecord
  2
02___PRT_ALL_AXES
 70
0
 62
7
  6
CONTINUOUS
370
-3
390
F
  0
LAYER
  5
205
100
AcDbSymbolTableRecord
100
AcDbLayerTableRecord
  2
03_ALL_CURVES
 70
0
 62
7
  6
CONTINUOUS
370
-3
390
F
  0
LAYER
  5
206
100
AcDbSymbolTableRecord
100
AcDbLayerTableRecord
  2
03__ASM_ALL_CURVES
 70
0
 62
7
  6
CONTINUOUS
370
-3
390
F
  0
LAYER
  5
207
100
AcDbSymbolTableRecord
100
AcDbLayerTableRecord
  2
03___PRT_ALL_CURVES
 70
0
 62
7
  6
CONTINUOUS
370
-3
390
F
  0
LAYER
  5
208
100
AcDbSymbolTableRecord
100
AcDbLayerTableRecord
  2
04_ALL_DTM_PNT
 70
0
 62
7
  6
CONTINUOUS
370
-3
390
F
  0
LAYER
  5
209
100
AcDbSymbolTableRecord
100
AcDbLayerTableRecord
  2
04__ASM_ALL_DTM_PNT
 70
0
 62
7
  6
CONTINUOUS
370
-3
390
F
  0
LAYER
  5
20A
100
AcDbSymbolTableRecord
100
AcDbLayerTableRecord
  2
04___PRT_ALL_DTM_PNT
 70
0
 62
7
  6
CONTINUOUS
370
-3
390
F
  0
LAYER
  5
20B
100
AcDbSymbolTableRecord
100
AcDbLayerTableRecord
  2
05_ALL_DTM_CSYS
 70
0
 62
7
  6
CONTINUOUS
370
-3
390
F
  0
LAYER
  5
20C
100
AcDbSymbolTableRecord
100
AcDbLayerTableRecord
  2
05__ASM_ALL_DTM_CSYS
 70
0
 62
7
  6
CONTINUOUS
370
-3
390
F
  0
LAYER
  5
20D
100
AcDbSymbolTableRecord
100
AcDbLayerTableRecord
  2
05__ASM_DEF_DTM_CSYS
 70
0
 62
7
  6
CONTINUOUS
370
-3
390
F
  0
LAYER
  5
20E
100
AcDbSymbolTableRecord
100
AcDbLayerTableRecord
  2
05___PRT_ALL_DTM_CSYS
 70
0
 62
7
  6
CONTINUOUS
370
-3
390
F
  0
LAYER
  5
20F
100
AcDbSymbolTableRecord
100
AcDbLayerTableRecord
  2
05___PRT_DEF_DTM_CSYS
 70
0
 62
7
  6
CONTINUOUS
370
-3
390
F
  0
LAYER
  5
210
100
AcDbSymbolTableRecord
100
AcDbLayerTableRecord
  2
06_ALL_SURFS
 70
0
 62
7
  6
CONTINUOUS
370
-3
390
F
  0
LAYER
  5
211
100
AcDbSymbolTableRecord
100
AcDbLayerTableRecord
  2
06__ASM_ALL_SURFS
 70
0
 62
7
  6
CONTINUOUS
370
-3
390
F
  0
LAYER
  5
212
100
AcDbSymbolTableRecord
100
AcDbLayerTableRecord
  2
06___PRT_ALL_SURFS
 70
0
 62
7
  6
CONTINUOUS
370
-3
390
F
  0
LAYER
  5
213
100
AcDbSymbolTableRecord
100
AcDbLayerTableRecord
  2
07__ASM_ALL_SKELETONS
 70
0
 62
7
  6
CONTINUOUS
370
-3
390
F
  0
LAYER
  5
214
100
AcDbSymbolTableRecord
100
AcDbLayerTableRecord
  2
COPY_GEO_FET
 70
0
 62
7
  6
CONTINUOUS
370
-3
390
F
  0
LAYER
  5
215
100
AcDbSymbolTableRecord
100
AcDbLayerTableRecord
  2
COSMETIC
 70
0
 62
7
  6
CONTINUOUS
370
-3
390
F
  0
LAYER
  5
216
100
AcDbSymbolTableRecord
100
AcDbLayerTableRecord
  2
CUT_REF_SURF
 70
0
 62
7
  6
CONTINUOUS
370
-3
390
F
  0
LAYER
  5
217
100
AcDbSymbolTableRecord
100
AcDbLayerTableRecord
  2
DATESTAMP
 70
0
 62
7
  6
CONTINUOUS
370
-3
390
F
  0
LAYER
  5
218
100
AcDbSymbolTableRecord
100
AcDbLayerTableRecord
  2
DATUM
 70
0
 62
7
  6
CONTINUOUS
370
-3
390
F
  0
LAYER
  5
219
100
AcDbSymbolTableRecord
100
AcDbLayerTableRecord
  2
DATUM_B
 70
0
 62
7
  6
CONTINUOUS
370
-3
390
F
  0
LAYER
  5
21A
100
AcDbSymbolTableRecord
100
AcDbLayerTableRecord
  2
DATUM_PLANES
 70
0
 62
7
  6
CONTINUOUS
370
-3
390
F
  0
LAYER
  5
21B
100
AcDbSymbolTableRecord
100
AcDbLayerTableRecord
  2
DIM
 70
0
 62
7
  6
CONTINUOUS
370
-3
390
F
  0
LAYER
  5
21C
100
AcDbSymbolTableRecord
100
AcDbLayerTableRecord
  2
DIM_1
 70
0
 62
7
  6
CONTINUOUS
370
-3
390
F
  0
LAYER
  5
21D
100
AcDbSymbolTableRecord
100
AcDbLayerTableRecord
  2
DIM_2
 70
0
 62
7
  6
CONTINUOUS
370
-3
390
F
  0
LAYER
  5
21E
100
AcDbSymbolTableRecord
100
AcDbLayerTableRecord
  2
DIM_3
 70
0
 62
7
  6
CONTINUOUS
370
-3
390
F
  0
LAYER
  5
21F
100
AcDbSymbolTableRecord
100
AcDbLayerTableRecord
  2
DIM_4
 70
0
 62
7
  6
CONTINUOUS
370
-3
390
F
  0
LAYER
  5
220
100
AcDbSymbolTableRecord
100
AcDbLayerTableRecord
  2
DIM_5
 70
0
 62
7
  6
CONTINUOUS
370
-3
390
F
  0
LAYER
  5
221
100
AcDbSymbolTableRecord
100
AcDbLayerTableRecord
  2
DIM_6
 70
0
 62
7
  6
CONTINUOUS
370
-3
390
F
  0
LAYER
  5
222
100
AcDbSymbolTableRecord
100
AcDbLayerTableRecord
  2
DTM
 70
0
 62
7
  6
CONTINUOUS
370
-3
390
F
  0
LAYER
  5
223
100
AcDbSymbolTableRecord
100
AcDbLayerTableRecord
  2
E3B_10
 70
0
 62
7
  6
CONTINUOUS
370
-3
390
F
  0
LAYER
  5
224
100
AcDbSymbolTableRecord
100
AcDbLayerTableRecord
  2
E3B_2
 70
0
 62
7
  6
CONTINUOUS
370
-3
390
F
  0
LAYER
  5
225
100
AcDbSymbolTableRecord
100
AcDbLayerTableRecord
  2
E3B_5
 70
0
 62
7
  6
CONTINUOUS
370
-3
390
F
  0
LAYER
  5
226
100
AcDbSymbolTableRecord
100
AcDbLayerTableRecord
  2
E3B_6
 70
0
 62
7
  6
CONTINUOUS
370
-3
390
F
  0
LAYER
  5
227
100
AcDbSymbolTableRecord
100
AcDbLayerTableRecord
  2
E3B_7
 70
0
 62
7
  6
CONTINUOUS
370
-3
390
F
  0
LAYER
  5
228
100
AcDbSymbolTableRecord
100
AcDbLayerTableRecord
  2
E3B_8
 70
0
 62
7
  6
CONTINUOUS
370
-3
390
F
  0
LAYER
  5
229
100
AcDbSymbolTableRecord
100
AcDbLayerTableRecord
  2
EXT_COPY_GEO
 70
0
 62
7
  6
CONTINUOUS
370
-3
390
F
  0
LAYER
  5
22A
100
AcDbSymbolTableRecord
100
AcDbLayerTableRecord
  2
LS
 70
0
 62
7
  6
CONTINUOUS
370
-3
390
F
  0
LAYER
  5
22B
100
AcDbSymbolTableRecord
100
AcDbLayerTableRecord
  2
ORIGIN
 70
0
 62
7
  6
CONTINUOUS
370
-3
390
F
  0
LAYER
  5
22C
100
AcDbSymbolTableRecord
100
AcDbLayerTableRecord
  2
PARTNUMBER
 70
0
 62
7
  6
CONTINUOUS
370
-3
390
F
  0
LAYER
  5
22D
100
AcDbSymbolTableRecord
100
AcDbLayerTableRecord
  2
PORT_AREAS
 70
0
 62
7
  6
CONTINUOUS
370
-3
390
F
  0
LAYER
  5
22E
100
AcDbSymbolTableRecord
100
AcDbLayerTableRecord
  2
TEXT
 70
0
 62
7
  6
CONTINUOUS
370
-3
390
F
  0
LAYER
  5
22F
100
AcDbSymbolTableRecord
100
AcDbLayerTableRecord
  2
THREAD
 70
0
 62
7
  6
CONTINUOUS
370
-3
390
F
  0
LAYER
  5
230
100
AcDbSymbolTableRecord
100
AcDbLayerTableRecord
  2
THREADS
 70
0
 62
7
  6
CONTINUOUS
370
-3
390
F
  0
ENDTAB
  0
TABLE
  2
STYLE
  5
3
100
AcDbSymbolTable
 70
1
  0
STYLE
  5
11
100
AcDbSymbolTableRecord
100
AcDbTextStyleTableRecord
  2
STANDARD
 70
0
 40
0.0
 41
0.8
 50
0.0
 71
0
 42
0.2
  3
txt
  4

  0
ENDTAB
  0
TABLE
  2
VIEW
  5
6
100
AcDbSymbolTable
 70
0
  0
ENDTAB
  0
TABLE
  2
UCS
  5
7
100
AcDbSymbolTable
 70
0
  0
ENDTAB
  0
TABLE
  2
APPID
  5
9
100
AcDbSymbolTable
 70
1
  0
APPID
  5
231
100
AcDbSymbolTableRecord
100
AcDbRegAppTableRecord
  2
ACAD
 70
0
  0
ENDTAB
  0
TABLE
  2
BLOCK_RECORD
  5
1
100
AcDbSymbolTable
 70
0
  0
BLOCK_RECORD
  5
1F
100
AcDbSymbolTableRecord
100
AcDbBlockTableRecord
  2
*MODEL_SPACE
  0
BLOCK_RECORD
  5
1B
100
AcDbSymbolTableRecord
100
AcDbBlockTableRecord
  2
*PAPER_SPACE
  0
ENDTAB
  0
TABLE
  2
DIMSTYLE
  5
A
100
AcDbSymbolTable
 70
1
100
AcDbDimStyleTable
 71
0
  0
DIMSTYLE
105
232
100
AcDbSymbolTableRecord
100
AcDbDimStyleTableRecord
  2
STANDARD
 70
0
  3

  4

 40
1.0
 41
0.1875
 42
0.0625
 43
0.38
 44
0.18
 45
0.0
 46
0.0
 47
0.01
 48
0.01
140
0.15625
141
0.09
142
0.0
143
25.4
144
1.0
145
0.0
146
1.0
147
0.09
 71
0.0
 72
0.0
 73
1
 74
1
 75
0
 76
0
 77
0
 78
4
170
0
171
2
172
0
173
0
174
0
175
0
176
0
177
0
178
0
270
2
271
2
272
2
273
2
274
2
275
0
280
0
281
0
282
0
283
1
284
4
285
0
286
0
287
3
288
0
340
11
  0
ENDTAB
  0
ENDSEC
  0
SECTION
  2
BLOCKS
  0
BLOCK
  5
20
100
AcDbEntity
  8
0
100
AcDbBlockBegin
  2
*MODEL_SPACE
 70
0
 10
0.0
 20
0.0
 30
0.0
  3
*MODEL_SPACE
  1

  0
ENDBLK
  5
21
100
AcDbEntity
  8
0
100
AcDbBlockEnd
  0
BLOCK
  5
1C
100
AcDbEntity
  8
0
100
AcDbBlockBegin
  2
*PAPER_SPACE
 70
0
 10
0.0
 20
0.0
 30
0.0
  3
*PAPER_SPACE
  1

  0
ENDBLK
  5
1D
100
AcDbEntity
  8
0
100
AcDbBlockEnd
  0
ENDSEC
  0
SECTION
  2
ENTITIES
  0
LINE
  5
233
100
AcDbEntity
  8
03__ASM_ALL_CURVES
100
AcDbLine
 62
4
  6
CONTINUOUS
 10
7.9152274736
 20
6.3939820612
 11
7.9079358034
 21
6.3994508112
  0
LINE
  5
234
100
AcDbEntity
  8
0
100
AcDbLine
 62
7
  6
CONTINUOUS
 10
8.1314379077
 20
11.9490135293
 11
8.1393941385
 21
11.9536070612
  0
LINE
  5
235
100
AcDbEntity
  8
03__ASM_ALL_CURVES
100
AcDbLine
 62
4
  6
CONTINUOUS
 10
7.951685806
 20
6.4103883112
 11
7.9662691385
 21
6.3994508112
  0
LINE
  5
236
100
AcDbEntity
  8
03__ASM_ALL_CURVES
100
AcDbLine
 62
4
  6
CONTINUOUS
 10
7.9298108034
 20
6.4377320612
 11
7.9371024736
 21
6.4322633112
  0
LINE
  5
237
100
AcDbEntity
  8
03__ASM_ALL_CURVES
100
AcDbLine
 62
4
  6
CONTINUOUS
 10
7.9079358034
 20
6.3994508112
 11
7.9006441385
 21
6.4103883112
  0
LINE
  5
238
100
AcDbEntity
  8
03__ASM_ALL_CURVES
100
AcDbLine
 62
4
  6
CONTINUOUS
 10
7.9371024736
 20
6.4322633112
 11
7.951685806
 21
6.4103883112
  0
LINE
  5
239
100
AcDbEntity
  8
03__ASM_ALL_CURVES
100
AcDbLine
 62
4
  6
CONTINUOUS
 10
7.9662691385
 20
6.3994508112
 11
7.9881441385
 21
6.3939820612
  0
LINE
  5
23A
100
AcDbEntity
  8
03__ASM_ALL_CURVES
100
AcDbLine
 62
4
  6
CONTINUOUS
 10
7.9298108034
 20
6.6017945612
 11
7.9006441385
 21
6.6127320612
  0
LINE
  5
23B
100
AcDbEntity
  8
03__ASM_ALL_CURVES
100
AcDbLine
 62
4
  6
CONTINUOUS
 10
7.9735608047
 20
6.7002320612
 11
7.9808524716
 21
6.6947633112
  0
LINE
  5
23C
100
AcDbEntity
  8
03__ASM_ALL_CURVES
100
AcDbLine
 62
4
  6
CONTINUOUS
 10
7.9006441385
 20
6.8588258112
 11
7.9152274736
 21
6.8478883112
  0
LINE
  5
23D
100
AcDbEntity
  8
03__ASM_ALL_CURVES
100
AcDbLine
 62
4
  6
CONTINUOUS
 10
7.9152274736
 20
6.9244508112
 11
7.9079358034
 21
6.9299195612
  0
LINE
  5
23E
100
AcDbEntity
  8
03__ASM_ALL_CURVES
100
AcDbLine
 62
4
  6
CONTINUOUS
 10
7.9735608047
 20
6.9572633112
 11
7.9808524716
 21
6.9517945612
  0
LINE
  5
23F
100
AcDbEntity
  8
03__ASM_ALL_CURVES
100
AcDbLine
 62
4
  6
CONTINUOUS
 10
7.9152274736
 20
7.0119508112
 11
7.9079358034
 21
7.0174195612
  0
LINE
  5
240
100
AcDbEntity
  8
03__ASM_ALL_CURVES
100
AcDbLine
 62
4
  6
CONTINUOUS
 10
7.9371024736
 20
6.6619508112
 11
7.9298108034
 21
6.6728883112
  0
LINE
  5
241
100
AcDbEntity
  8
03__ASM_ALL_CURVES
100
AcDbLine
 62
4
  6
CONTINUOUS
 10
7.9808524716
 20
6.6947633112
 11
7.9881441385
 21
6.6838258112
  0
LINE
  5
242
100
AcDbEntity
  8
03__ASM_ALL_CURVES
100
AcDbLine
 62
4
  6
CONTINUOUS
 10
7.9079358034
 20
6.9299195612
 11
7.9006441385
 21
6.9408570612
  0
LINE
  5
243
100
AcDbEntity
  8
03__ASM_ALL_CURVES
100
AcDbLine
 62
4
  6
CONTINUOUS
 10
7.9079358034
 20
7.0174195612
 11
7.9006441385
 21
7.0283570612
  0
LINE
  5
244
100
AcDbEntity
  8
03__ASM_ALL_CURVES
100
AcDbLine
 62
4
  6
CONTINUOUS
 10
7.9808524716
 20
6.9517945612
 11
7.9881441385
 21
6.9408570612
  0
LINE
  5
245
100
AcDbEntity
  8
03__ASM_ALL_CURVES
100
AcDbLine
 62
4
  6
CONTINUOUS
 10
7.9881441385
 20
6.5908570612
 11
7.951685806
 21
6.5963258112
  0
LINE
  5
246
100
AcDbEntity
  8
03__ASM_ALL_CURVES
100
AcDbLine
 62
4
  6
CONTINUOUS
 10
7.951685806
 20
6.5963258112
 11
7.9298108034
 21
6.6017945612
  0
LINE
  5
247
100
AcDbEntity
  8
03__ASM_ALL_CURVES
100
AcDbLine
 62
4
  6
CONTINUOUS
 10
7.9589774709
 20
6.7057008112
 11
7.9735608047
 21
6.7002320612
  0
LINE
  5
248
100
AcDbEntity
  8
03__ASM_ALL_CURVES
100
AcDbLine
 62
4
  6
CONTINUOUS
 10
7.9298108034
 20
6.9189820612
 11
7.9152274736
 21
6.9244508112
  0
LINE
  5
249
100
AcDbEntity
  8
03__ASM_ALL_CURVES
100
AcDbLine
 62
4
  6
CONTINUOUS
 10
7.9589774709
 20
6.9189820612
 11
7.9443941385
 21
6.9244508112
  0
LINE
  5
24A
100
AcDbEntity
  8
03__ASM_ALL_CURVES
100
AcDbLine
 62
4
  6
CONTINUOUS
 10
7.9735608047
 20
7.0447633112
 11
7.9808524716
 21
7.0392945612
  0
LINE
  5
24B
100
AcDbEntity
  8
03__ASM_ALL_CURVES
100
AcDbLine
 62
4
  6
CONTINUOUS
 10
7.9152274736
 20
7.1814820612
 11
7.9079358034
 21
7.1869508112
  0
LINE
  5
24C
100
AcDbEntity
  8
03__ASM_ALL_CURVES
100
AcDbLine
 62
4
  6
CONTINUOUS
 10
7.9589774709
 20
7.1760133112
 11
7.9443941385
 21
7.1869508112
  0
LINE
  5
24D
100
AcDbEntity
  8
03__ASM_ALL_CURVES
100
AcDbLine
 62
4
  6
CONTINUOUS
 10
7.9225191385
 20
7.2252320612
 11
7.9298108034
 21
7.2197633112
  0
LINE
  5
24E
100
AcDbEntity
  8
03__ASM_ALL_CURVES
100
AcDbLine
 62
4
  6
CONTINUOUS
 10
7.9662691385
 20
7.2307008112
 11
7.9808524716
 21
7.2197633112
  0
LINE
  5
24F
100
AcDbEntity
  8
03__ASM_ALL_CURVES
100
AcDbLine
 62
4
  6
CONTINUOUS
 10
7.9808524716
 20
7.0392945612
 11
7.9881441385
 21
7.0283570612
  0
LINE
  5
250
100
AcDbEntity
  8
03__ASM_ALL_CURVES
100
AcDbLine
 62
4
  6
CONTINUOUS
 10
7.9079358034
 20
7.1869508112
 11
7.9006441385
 21
7.1978883112
  0
LINE
  5
251
100
AcDbEntity
  8
03__ASM_ALL_CURVES
100
AcDbLine
 62
4
  6
CONTINUOUS
 10
7.9443941385
 20
7.1869508112
 11
7.9371024736
 21
7.1978883112
  0
LINE
  5
252
100
AcDbEntity
  8
03__ASM_ALL_CURVES
100
AcDbLine
 62
4
  6
CONTINUOUS
 10
7.9298108034
 20
7.2197633112
 11
7.9371024736
 21
7.2088258112
  0
LINE
  5
253
100
AcDbEntity
  8
03__ASM_ALL_CURVES
100
AcDbLine
 62
4
  6
CONTINUOUS
 10
7.9371024736
 20
7.2744508112
 11
7.9298108034
 21
7.2853883112
  0
LINE
  5
254
100
AcDbEntity
  8
03__ASM_ALL_CURVES
100
AcDbLine
 62
4
  6
CONTINUOUS
 10
7.9808524716
 20
7.2197633112
 11
7.9881441385
 21
7.2088258112
  0
LINE
  5
255
100
AcDbEntity
  8
03__ASM_ALL_CURVES
100
AcDbLine
 62
4
  6
CONTINUOUS
 10
7.9808524716
 20
7.3072633112
 11
7.9881441385
 21
7.2963258112
  0
LINE
  5
256
100
AcDbEntity
  8
03__ASM_ALL_CURVES
100
AcDbLine
 62
4
  6
CONTINUOUS
 10
7.9443941385
 20
6.9244508112
 11
7.9371024736
 21
6.9408570612
  0
LINE
  5
257
100
AcDbEntity
  8
03__ASM_ALL_CURVES
100
AcDbLine
 62
4
  6
CONTINUOUS
 10
7.9443941385
 20
7.0447633112
 11
7.951685806
 21
7.0283570612
  0
LINE
  5
258
100
AcDbEntity
  8
03__ASM_ALL_CURVES
100
AcDbLine
 62
4
  6
CONTINUOUS
 10
8.9006441385
 20
6.4158570612
 11
8.9881441385
 21
6.4158570612
  0
LINE
  5
259
100
AcDbEntity
  8
03__ASM_ALL_CURVES
100
AcDbLine
 62
4
  6
CONTINUOUS
 10
9.4006441385
 20
6.4158570612
 11
9.4881441385
 21
6.4158570612
  0
LINE
  5
25A
100
AcDbEntity
  8
03__ASM_ALL_CURVES
100
AcDbLine
 62
4
  6
CONTINUOUS
 10
7.9152274736
 20
6.4377320612
 11
7.9298108034
 21
6.4377320612
  0
LINE
  5
25B
100
AcDbEntity
  8
03__ASM_ALL_CURVES
100
AcDbLine
 62
4
  6
CONTINUOUS
 10
9.4881441385
 20
6.5170289362
 11
9.4772066382
 21
6.5170289362
  0
LINE
  5
25C
100
AcDbEntity
  8
03__ASM_ALL_CURVES
100
AcDbLine
 62
4
  6
CONTINUOUS
 10
8.9881441385
 20
6.5170289362
 11
8.9772066382
 21
6.5170289362
  0
LINE
  5
25D
100
AcDbEntity
  8
03__ASM_ALL_CURVES
100
AcDbLine
 62
4
  6
CONTINUOUS
 10
7.9881441385
 20
6.5170289362
 11
7.9772066382
 21
6.5170289362
  0
LINE
  5
25E
100
AcDbEntity
  8
03__ASM_ALL_CURVES
100
AcDbLine
 62
4
  6
CONTINUOUS
 10
7.9006441385
 20
6.6674195612
 11
7.9371024736
 21
6.6619508112
  0
LINE
  5
25F
100
AcDbEntity
  8
03__ASM_ALL_CURVES
100
AcDbLine
 62
4
  6
CONTINUOUS
 10
8.9881441385
 20
6.5908570612
 11
8.951685806
 21
6.5963258112
  0
LINE
  5
260
100
AcDbEntity
  8
03__ASM_ALL_CURVES
100
AcDbLine
 62
4
  6
CONTINUOUS
 10
8.9006441385
 20
6.6674195612
 11
8.9371024736
 21
6.6619508112
  0
LINE
  5
261
100
AcDbEntity
  8
03__ASM_ALL_CURVES
100
AcDbLine
 62
4
  6
CONTINUOUS
 10
7.9152274736
 20
6.8478883112
 11
7.9371024736
 21
6.8424195612
  0
LINE
  5
262
100
AcDbEntity
  8
03__ASM_ALL_CURVES
100
AcDbLine
 62
4
  6
CONTINUOUS
 10
8.951685806
 20
6.5963258112
 11
8.9298108034
 21
6.6017945612
  0
LINE
  5
263
100
AcDbEntity
  8
03__ASM_ALL_CURVES
100
AcDbLine
 62
4
  6
CONTINUOUS
 10
9.4662691385
 20
6.5744508112
 11
9.4881441385
 21
6.5689820612
  0
LINE
  5
264
100
AcDbEntity
  8
03__ASM_ALL_CURVES
100
AcDbLine
 62
4
  6
CONTINUOUS
 10
7.9589774709
 20
6.9627320612
 11
7.9735608047
 21
6.9572633112
  0
LINE
  5
265
100
AcDbEntity
  8
03__ASM_ALL_CURVES
100
AcDbLine
 62
4
  6
CONTINUOUS
 10
8.9298108034
 20
6.6017945612
 11
8.9006441385
 21
6.6127320612
  0
LINE
  5
266
100
AcDbEntity
  8
03__ASM_ALL_CURVES
100
AcDbLine
 62
4
  6
CONTINUOUS
 10
7.9298108034
 20
7.0064820612
 11
7.9152274736
 21
7.0119508112
  0
LINE
  5
267
100
AcDbEntity
  8
03__ASM_ALL_CURVES
100
AcDbLine
 62
4
  6
CONTINUOUS
 10
7.9298108034
 20
7.0502320612
 11
7.9443941385
 21
7.0447633112
  0
LINE
  5
268
100
AcDbEntity
  8
03__ASM_ALL_CURVES
100
AcDbLine
 62
4
  6
CONTINUOUS
 10
7.9589774709
 20
7.0502320612
 11
7.9735608047
 21
7.0447633112
  0
LINE
  5
269
100
AcDbEntity
  8
03__ASM_ALL_CURVES
100
AcDbLine
 62
4
  6
CONTINUOUS
 10
8.9589774709
 20
6.7057008112
 11
8.9735608047
 21
6.7002320612
  0
LINE
  5
26A
100
AcDbEntity
  8
03__ASM_ALL_CURVES
100
AcDbLine
 62
4
  6
CONTINUOUS
 10
7.9735608047
 20
7.3127320612
 11
7.9808524716
 21
7.3072633112
  0
LINE
  5
26B
100
AcDbEntity
  8
03__ASM_ALL_CURVES
100
AcDbLine
 62
4
  6
CONTINUOUS
 10
7.9735608047
 20
7.3838258112
 11
7.9881441385
 21
7.3728883112
  0
LINE
  5
26C
100
AcDbEntity
  8
03__ASM_ALL_CURVES
100
AcDbLine
 62
4
  6
CONTINUOUS
 10
8.9735608047
 20
6.7002320612
 11
8.9808524716
 21
6.6947633112
  0
LINE
  5
26D
100
AcDbEntity
  8
03__ASM_ALL_CURVES
100
AcDbLine
 62
4
  6
CONTINUOUS
 10
8.9006441385
 20
6.8588258112
 11
8.9152274736
 21
6.8478883112
  0
LINE
  5
26E
100
AcDbEntity
  8
0
100
AcDbLine
 62
7
  6
CONTINUOUS
 10
8.9978941385
 20
11.4226070612
 11
9.0072076096
 21
11.4319205324
  0
LINE
  5
26F
100
AcDbEntity
  8
03__ASM_ALL_CURVES
100
AcDbLine
 62
4
  6
CONTINUOUS
 10
9.4152274736
 20
6.6127320612
 11
9.4298108034
 21
6.6127320612
  0
LINE
  5
270
100
AcDbEntity
  8
03__ASM_ALL_CURVES
100
AcDbLine
 62
4
  6
CONTINUOUS
 10
9.4006441385
 20
6.6674195612
 11
9.4371024736
 21
6.6619508112
  0
LINE
  5
271
100
AcDbEntity
  8
03__ASM_ALL_CURVES
100
AcDbLine
 62
4
  6
CONTINUOUS
 10
8.9152274736
 20
6.8478883112
 11
8.9371024736
 21
6.8424195612
  0
LINE
  5
272
100
AcDbEntity
  8
03__ASM_ALL_CURVES
100
AcDbLine
 62
4
  6
CONTINUOUS
 10
9.4152274736
 20
6.8478883112
 11
9.4371024736
 21
6.8424195612
  0
LINE
  5
273
100
AcDbEntity
  8
03__ASM_ALL_CURVES
100
AcDbLine
 62
4
  6
CONTINUOUS
 10
9.4589774709
 20
6.7057008112
 11
9.4735608047
 21
6.7002320612
  0
LINE
  5
274
100
AcDbEntity
  8
03__ASM_ALL_CURVES
100
AcDbLine
 62
4
  6
CONTINUOUS
 10
7.9589774709
 20
7.3182008112
 11
7.9735608047
 21
7.3127320612
  0
LINE
  5
275
100
AcDbEntity
  8
03__ASM_ALL_CURVES
100
AcDbLine
 62
4
  6
CONTINUOUS
 10
8.9006441385
 20
6.9572633112
 11
8.9662691385
 21
6.9189820612
  0
LINE
  5
276
100
AcDbEntity
  8
03__ASM_ALL_CURVES
100
AcDbLine
 62
4
  6
CONTINUOUS
 10
8.9006441385
 20
7.0447633112
 11
8.9662691385
 21
7.0064820612
  0
LINE
  5
277
100
AcDbEntity
  8
03__ASM_ALL_CURVES
100
AcDbLine
 62
4
  6
CONTINUOUS
 10
9.4152274736
 20
6.5689820612
 11
9.4079358034
 21
6.5744508112
  0
LINE
  5
278
100
AcDbEntity
  8
03__ASM_ALL_CURVES
100
AcDbLine
 62
4
  6
CONTINUOUS
 10
9.451685806
 20
6.5853883112
 11
9.4662691385
 21
6.5744508112
  0
LINE
  5
279
100
AcDbEntity
  8
03__ASM_ALL_CURVES
100
AcDbLine
 62
4
  6
CONTINUOUS
 10
9.4298108034
 20
6.6127320612
 11
9.4371024736
 21
6.6072633112
  0
LINE
  5
27A
100
AcDbEntity
  8
03__ASM_ALL_CURVES
100
AcDbLine
 62
4
  6
CONTINUOUS
 10
9.4735608047
 20
6.7002320612
 11
9.4808524716
 21
6.6947633112
  0
LINE
  5
27B
100
AcDbEntity
  8
03__ASM_ALL_CURVES
100
AcDbLine
 62
4
  6
CONTINUOUS
 10
8.9371024736
 20
6.6619508112
 11
8.9298108034
 21
6.6728883112
  0
LINE
  5
27C
100
AcDbEntity
  8
03__ASM_ALL_CURVES
100
AcDbLine
 62
4
  6
CONTINUOUS
 10
8.9808524716
 20
6.6947633112
 11
8.9881441385
 21
6.6838258112
  0
LINE
  5
27D
100
AcDbEntity
  8
03__ASM_ALL_CURVES
100
AcDbLine
 62
4
  6
CONTINUOUS
 10
7.9006441385
 20
7.3127320612
 11
7.9006441385
 21
7.2799195612
  0
LINE
  5
27E
100
AcDbEntity
  8
03__ASM_ALL_CURVES
100
AcDbLine
 62
4
  6
CONTINUOUS
 10
7.9006441385
 20
6.7002320612
 11
7.9006441385
 21
6.6674195612
  0
LINE
  5
27F
100
AcDbEntity
  8
03__ASM_ALL_CURVES
100
AcDbLine
 62
4
  6
CONTINUOUS
 10
7.9006441385
 20
6.6127320612
 11
7.9006441385
 21
6.5689820612
  0
LINE
  5
280
100
AcDbEntity
  8
03__ASM_ALL_CURVES
100
AcDbLine
 62
4
  6
CONTINUOUS
 10
7.9006441385
 20
6.4103883112
 11
7.9006441385
 21
6.4213258112
  0
LINE
  5
281
100
AcDbEntity
  8
03__ASM_ALL_CURVES
100
AcDbLine
 62
4
  6
CONTINUOUS
 10
7.9006441385
 20
7.1978883112
 11
7.9006441385
 21
7.2088258112
  0
LINE
  5
282
100
AcDbEntity
  8
03__ASM_ALL_CURVES
100
AcDbLine
 62
4
  6
CONTINUOUS
 10
7.9298108034
 20
6.6728883112
 11
7.9298108034
 21
6.6838258112
  0
LINE
  5
283
100
AcDbEntity
  8
03__ASM_ALL_CURVES
100
AcDbLine
 62
4
  6
CONTINUOUS
 10
7.9298108034
 20
7.2853883112
 11
7.9298108034
 21
7.2963258112
  0
LINE
  5
284
100
AcDbEntity
  8
03__ASM_ALL_CURVES
100
AcDbLine
 62
4
  6
CONTINUOUS
 10
7.9371024736
 20
7.1978883112
 11
7.9371024736
 21
7.2088258112
  0
LINE
  5
285
100
AcDbEntity
  8
03__ASM_ALL_CURVES
100
AcDbLine
 62
4
  6
CONTINUOUS
 10
7.9443941385
 20
7.7721070612
 11
7.9443941385
 21
7.5096070612
  0
LINE
  5
286
100
AcDbEntity
  8
0
100
AcDbLine
 62
7
  6
CONTINUOUS
 10
7.9443941385
 20
7.8596070612
 11
7.9443941385
 21
11.3596070612
  0
LINE
  5
287
100
AcDbEntity
  8
03__ASM_ALL_CURVES
100
AcDbLine
 62
4
  6
CONTINUOUS
 10
7.9881441385
 20
7.2963258112
 11
7.9881441385
 21
7.2853883112
  0
LINE
  5
288
100
AcDbEntity
  8
03__ASM_ALL_CURVES
100
AcDbLine
 62
4
  6
CONTINUOUS
 10
7.9881441385
 20
7.2088258112
 11
7.9881441385
 21
7.1978883112
  0
LINE
  5
289
100
AcDbEntity
  8
03__ASM_ALL_CURVES
100
AcDbLine
 62
4
  6
CONTINUOUS
 10
7.9881441385
 20
7.1377320612
 11
7.9881441385
 21
7.1295289362
  0
LINE
  5
28A
100
AcDbEntity
  8
03__ASM_ALL_CURVES
100
AcDbLine
 62
4
  6
CONTINUOUS
 10
7.9881441385
 20
6.6838258112
 11
7.9881441385
 21
6.6728883112
  0
LINE
  5
28B
100
AcDbEntity
  8
03__ASM_ALL_CURVES
100
AcDbLine
 62
4
  6
CONTINUOUS
 10
7.9881441385
 20
6.5252320612
 11
7.9881441385
 21
6.5170289362
  0
LINE
  5
28C
100
AcDbEntity
  8
03__ASM_ALL_CURVES
100
AcDbLine
 62
4
  6
CONTINUOUS
 10
7.9881441385
 20
6.3939820612
 11
7.9881441385
 21
6.4377320612
  0
LINE
  5
28D
100
AcDbEntity
  8
03__ASM_ALL_CURVES
100
AcDbLine
 62
4
  6
CONTINUOUS
 10
7.9371024736
 20
6.8424195612
 11
7.951685806
 21
6.8424195612
  0
LINE
  5
28E
100
AcDbEntity
  8
03__ASM_ALL_CURVES
100
AcDbLine
 62
4
  6
CONTINUOUS
 10
8.9371024736
 20
6.8424195612
 11
8.951685806
 21
6.8424195612
  0
LINE
  5
28F
100
AcDbEntity
  8
03__ASM_ALL_CURVES
100
AcDbLine
 62
4
  6
CONTINUOUS
 10
9.4371024736
 20
6.8424195612
 11
9.451685806
 21
6.8424195612
  0
LINE
  5
290
100
AcDbEntity
  8
03__ASM_ALL_CURVES
100
AcDbLine
 62
4
  6
CONTINUOUS
 10
7.9589774709
 20
6.9189820612
 11
7.9298108034
 21
6.9189820612
  0
LINE
  5
291
100
AcDbEntity
  8
03__ASM_ALL_CURVES
100
AcDbLine
 62
4
  6
CONTINUOUS
 10
8.9881441385
 20
6.9572633112
 11
8.9006441385
 21
6.9572633112
  0
LINE
  5
292
100
AcDbEntity
  8
03__ASM_ALL_CURVES
100
AcDbLine
 62
4
  6
CONTINUOUS
 10
9.4152274736
 20
6.9627320612
 11
9.4225191385
 21
6.9627320612
  0
LINE
  5
293
100
AcDbEntity
  8
03__ASM_ALL_CURVES
100
AcDbLine
 62
4
  6
CONTINUOUS
 10
9.4589774709
 20
6.9682008112
 11
9.4662691385
 21
6.9682008112
  0
LINE
  5
294
100
AcDbEntity
  8
03__ASM_ALL_CURVES
100
AcDbLine
 62
4
  6
CONTINUOUS
 10
7.9006441385
 20
7.2799195612
 11
7.9371024736
 21
7.2744508112
  0
LINE
  5
295
100
AcDbEntity
  8
03__ASM_ALL_CURVES
100
AcDbLine
 62
4
  6
CONTINUOUS
 10
7.951685806
 20
7.3892945612
 11
7.9735608047
 21
7.3838258112
  0
LINE
  5
296
100
AcDbEntity
  8
03__ASM_ALL_CURVES
100
AcDbLine
 62
4
  6
CONTINUOUS
 10
8.9006441385
 20
7.2197633112
 11
8.9662691385
 21
7.1814820612
  0
LINE
  5
297
100
AcDbEntity
  8
03__ASM_ALL_CURVES
100
AcDbLine
 62
4
  6
CONTINUOUS
 10
8.9006441385
 20
7.3072633112
 11
8.9662691385
 21
7.2689820612
  0
LINE
  5
298
100
AcDbEntity
  8
03__ASM_ALL_CURVES
100
AcDbLine
 62
4
  6
CONTINUOUS
 10
9.4006441385
 20
6.8588258112
 11
9.4152274736
 21
6.8478883112
  0
LINE
  5
299
100
AcDbEntity
  8
03__ASM_ALL_CURVES
100
AcDbLine
 62
4
  6
CONTINUOUS
 10
9.4225191385
 20
6.9627320612
 11
9.4298108034
 21
6.9572633112
  0
LINE
  5
29A
100
AcDbEntity
  8
03__ASM_ALL_CURVES
100
AcDbLine
 62
4
  6
CONTINUOUS
 10
9.4662691385
 20
6.9682008112
 11
9.4808524716
 21
6.9572633112
  0
LINE
  5
29B
100
AcDbEntity
  8
03__ASM_ALL_CURVES
100
AcDbLine
 62
4
  6
CONTINUOUS
 10
8.9735608047
 20
7.3838258112
 11
8.9881441385
 21
7.3728883112
  0
LINE
  5
29C
100
AcDbEntity
  8
03__ASM_ALL_CURVES
100
AcDbLine
 62
4
  6
CONTINUOUS
 10
9.4079358034
 20
6.5744508112
 11
9.4006441385
 21
6.5853883112
  0
LINE
  5
29D
100
AcDbEntity
  8
0
100
AcDbLine
 62
7
  6
CONTINUOUS
 10
8.1318781045
 20
11.431622886
 11
8.1318781045
 21
11.9492646372
  0
LINE
  5
29E
100
AcDbEntity
  8
0
100
AcDbLine
 62
7
  6
CONTINUOUS
 10
8.1408941385
 20
11.3596070612
 11
8.1408941385
 21
11.4226070612
  0
LINE
  5
29F
100
AcDbEntity
  8
0
100
AcDbLine
 62
7
  6
CONTINUOUS
 10
8.1614918908
 20
11.4831070612
 11
8.1614918908
 21
11.9195433954
  0
LINE
  5
2A0
100
AcDbEntity
  8
03__ASM_ALL_CURVES
100
AcDbLine
 62
4
  6
CONTINUOUS
 10
11.5420503885
 20
11.9536070612
 11
11.5256441385
 21
11.9463153937
  0
LINE
  5
2A1
100
AcDbEntity
  8
03__ASM_ALL_CURVES
100
AcDbLine
 62
4
  6
CONTINUOUS
 10
9.451685806
 20
6.8424195612
 11
9.4735608047
 21
6.8478883112
  0
LINE
  5
2A2
100
AcDbEntity
  8
03__ASM_ALL_CURVES
100
AcDbLine
 62
4
  6
CONTINUOUS
 10
8.951685806
 20
6.8424195612
 11
8.9735608047
 21
6.8478883112
  0
LINE
  5
2A3
100
AcDbEntity
  8
03__ASM_ALL_CURVES
100
AcDbLine
 62
4
  6
CONTINUOUS
 10
9.4006441385
 20
7.0283570612
 11
9.4881441385
 21
7.0283570612
  0
LINE
  5
2A4
100
AcDbEntity
  8
03__ASM_ALL_CURVES
100
AcDbLine
 62
4
  6
CONTINUOUS
 10
8.9881441385
 20
7.0447633112
 11
8.9006441385
 21
7.0447633112
  0
LINE
  5
2A5
100
AcDbEntity
  8
03__ASM_ALL_CURVES
100
AcDbLine
 62
4
  6
CONTINUOUS
 10
7.9298108034
 20
7.0502320612
 11
7.9589774709
 21
7.0502320612
  0
LINE
  5
2A6
100
AcDbEntity
  8
03__ASM_ALL_CURVES
100
AcDbLine
 62
4
  6
CONTINUOUS
 10
9.4881441385
 20
7.1295289362
 11
9.4772066382
 21
7.1295289362
  0
LINE
  5
2A7
100
AcDbEntity
  8
03__ASM_ALL_CURVES
100
AcDbLine
 62
4
  6
CONTINUOUS
 10
8.9881441385
 20
7.1295289362
 11
8.9772066382
 21
7.1295289362
  0
LINE
  5
2A8
100
AcDbEntity
  8
03__ASM_ALL_CURVES
100
AcDbLine
 62
4
  6
CONTINUOUS
 10
7.9881441385
 20
7.1295289362
 11
7.9772066382
 21
7.1295289362
  0
LINE
  5
2A9
100
AcDbEntity
  8
03__ASM_ALL_CURVES
100
AcDbLine
 62
4
  6
CONTINUOUS
 10
7.9662691385
 20
7.1760133112
 11
7.9589774709
 21
7.1760133112
  0
LINE
  5
2AA
100
AcDbEntity
  8
03__ASM_ALL_CURVES
100
AcDbLine
 62
4
  6
CONTINUOUS
 10
7.9225191385
 20
7.1814820612
 11
7.9152274736
 21
7.1814820612
  0
LINE
  5
2AB
100
AcDbEntity
  8
03__ASM_ALL_CURVES
100
AcDbLine
 62
4
  6
CONTINUOUS
 10
8.9881441385
 20
7.2197633112
 11
8.9006441385
 21
7.2197633112
  0
LINE
  5
2AC
100
AcDbEntity
  8
03__ASM_ALL_CURVES
100
AcDbLine
 62
4
  6
CONTINUOUS
 10
7.9152274736
 20
7.2252320612
 11
7.9225191385
 21
7.2252320612
  0
LINE
  5
2AD
100
AcDbEntity
  8
03__ASM_ALL_CURVES
100
AcDbLine
 62
4
  6
CONTINUOUS
 10
7.9589774709
 20
7.2307008112
 11
7.9662691385
 21
7.2307008112
  0
LINE
  5
2AE
100
AcDbEntity
  8
03__ASM_ALL_CURVES
100
AcDbLine
 62
4
  6
CONTINUOUS
 10
9.4881441385
 20
7.2033570612
 11
9.451685806
 21
7.2088258112
  0
LINE
  5
2AF
100
AcDbEntity
  8
03__ASM_ALL_CURVES
100
AcDbLine
 62
4
  6
CONTINUOUS
 10
9.4006441385
 20
7.2799195612
 11
9.4371024736
 21
7.2744508112
  0
LINE
  5
2B0
100
AcDbEntity
  8
03__ASM_ALL_CURVES
100
AcDbLine
 62
4
  6
CONTINUOUS
 10
9.451685806
 20
7.2088258112
 11
9.4298108034
 21
7.2142945612
  0
LINE
  5
2B1
100
AcDbEntity
  8
03__ASM_ALL_CURVES
100
AcDbLine
 62
4
  6
CONTINUOUS
 10
8.951685806
 20
7.3892945612
 11
8.9735608047
 21
7.3838258112
  0
LINE
  5
2B2
100
AcDbEntity
  8
03__ASM_ALL_CURVES
100
AcDbLine
 62
4
  6
CONTINUOUS
 10
9.451685806
 20
7.3892945612
 11
9.4735608047
 21
7.3838258112
  0
LINE
  5
2B3
100
AcDbEntity
  8
03__ASM_ALL_CURVES
100
AcDbLine
 62
4
  6
CONTINUOUS
 10
9.4298108034
 20
7.2142945612
 11
9.4006441385
 21
7.2252320612
  0
LINE
  5
2B4
100
AcDbEntity
  8
03__ASM_ALL_CURVES
100
AcDbLine
 62
4
  6
CONTINUOUS
 10
9.4589774709
 20
7.3182008112
 11
9.4735608047
 21
7.3127320612
  0
LINE
  5
2B5
100
AcDbEntity
  8
03__ASM_ALL_CURVES
100
AcDbLine
 62
4
  6
CONTINUOUS
 10
9.4735608047
 20
7.3127320612
 11
9.4808524716
 21
7.3072633112
  0
LINE
  5
2B6
100
AcDbEntity
  8
03__ASM_ALL_CURVES
100
AcDbLine
 62
4
  6
CONTINUOUS
 10
9.4735608047
 20
7.3838258112
 11
9.4881441385
 21
7.3728883112
  0
LINE
  5
2B7
100
AcDbEntity
  8
03__ASM_ALL_CURVES
100
AcDbLine
 62
4
  6
CONTINUOUS
 10
9.4371024736
 20
6.6072633112
 11
9.451685806
 21
6.5853883112
  0
LINE
  5
2B8
100
AcDbEntity
  8
03__ASM_ALL_CURVES
100
AcDbLine
 62
4
  6
CONTINUOUS
 10
9.4371024736
 20
6.6619508112
 11
9.4298108034
 21
6.6728883112
  0
LINE
  5
2B9
100
AcDbEntity
  8
03__ASM_ALL_CURVES
100
AcDbLine
 62
4
  6
CONTINUOUS
 10
9.4808524716
 20
6.6947633112
 11
9.4881441385
 21
6.6838258112
  0
LINE
  5
2BA
100
AcDbEntity
  8
03__ASM_ALL_CURVES
100
AcDbLine
 62
4
  6
CONTINUOUS
 10
9.4079358034
 20
6.9244508112
 11
9.4006441385
 21
6.9353883112
  0
LINE
  5
2BB
100
AcDbEntity
  8
03__ASM_ALL_CURVES
100
AcDbLine
 62
4
  6
CONTINUOUS
 10
9.4298108034
 20
6.9572633112
 11
9.4371024736
 21
6.9463258112
  0
LINE
  5
2BC
100
AcDbEntity
  8
0
100
AcDbLine
 62
7
  6
CONTINUOUS
 10
8.5397803522
 20
11.4831070612
 11
8.5397803522
 21
11.9195433954
  0
LINE
  5
2BD
100
AcDbEntity
  8
0
100
AcDbLine
 62
7
  6
CONTINUOUS
 10
8.5990079248
 20
11.4831070612
 11
8.5990079248
 21
11.9195433954
  0
LINE
  5
2BE
100
AcDbEntity
  8
03__ASM_ALL_CURVES
100
AcDbLine
 62
4
  6
CONTINUOUS
 10
11.4272066385
 20
11.9900653963
 11
11.4381441385
 21
11.9973570612
  0
LINE
  5
2BF
100
AcDbEntity
  8
03__ASM_ALL_CURVES
100
AcDbLine
 62
4
  6
CONTINUOUS
 10
7.951685806
 20
6.8424195612
 11
7.9735608047
 21
6.8478883112
  0
LINE
  5
2C0
100
AcDbEntity
  8
03__ASM_ALL_CURVES
100
AcDbLine
 62
4
  6
CONTINUOUS
 10
10.7089774709
 20
7.2689820612
 11
10.6798108034
 21
7.2689820612
  0
LINE
  5
2C1
100
AcDbEntity
  8
03__ASM_ALL_CURVES
100
AcDbLine
 62
4
  6
CONTINUOUS
 10
8.9881441385
 20
7.3072633112
 11
8.9006441385
 21
7.3072633112
  0
LINE
  5
2C2
100
AcDbEntity
  8
03__ASM_ALL_CURVES
100
AcDbLine
 62
4
  6
CONTINUOUS
 10
10.6798108034
 20
7.3127320612
 11
10.7089774709
 21
7.3127320612
  0
LINE
  5
2C3
100
AcDbEntity
  8
03__ASM_ALL_CURVES
100
AcDbLine
 62
4
  6
CONTINUOUS
 10
7.9371024736
 20
7.3892945612
 11
7.951685806
 21
7.3892945612
  0
LINE
  5
2C4
100
AcDbEntity
  8
03__ASM_ALL_CURVES
100
AcDbLine
 62
4
  6
CONTINUOUS
 10
8.9371024736
 20
7.3892945612
 11
8.951685806
 21
7.3892945612
  0
LINE
  5
2C5
100
AcDbEntity
  8
03__ASM_ALL_CURVES
100
AcDbLine
 62
4
  6
CONTINUOUS
 10
9.4371024736
 20
7.3892945612
 11
9.451685806
 21
7.3892945612
  0
LINE
  5
2C6
100
AcDbEntity
  8
03__ASM_ALL_CURVES
100
AcDbLine
 62
4
  6
CONTINUOUS
 10
9.4808524716
 20
6.9572633112
 11
9.4881441385
 21
6.9463258112
  0
LINE
  5
2C7
100
AcDbEntity
  8
03__ASM_ALL_CURVES
100
AcDbLine
 62
4
  6
CONTINUOUS
 10
9.4371024736
 20
7.2744508112
 11
9.4298108034
 21
7.2853883112
  0
LINE
  5
2C8
100
AcDbEntity
  8
03__ASM_ALL_CURVES
100
AcDbLine
 62
4
  6
CONTINUOUS
 10
9.4808524716
 20
7.3072633112
 11
9.4881441385
 21
7.2963258112
  0
LINE
  5
2C9
100
AcDbEntity
  8
03__ASM_ALL_CURVES
100
AcDbLine
 62
4
  6
CONTINUOUS
 10
11.5147066385
 20
11.9900653963
 11
11.5256441385
 21
11.9973570612
  0
LINE
  5
2CA
100
AcDbEntity
  8
03__ASM_ALL_CURVES
100
AcDbLine
 62
4
  6
CONTINUOUS
 10
11.4490816385
 20
11.9171487281
 11
11.4381441385
 21
11.9098570612
  0
LINE
  5
2CB
100
AcDbEntity
  8
03__ASM_ALL_CURVES
100
AcDbLine
 62
4
  6
CONTINUOUS
 10
11.5365816385
 20
11.9171487281
 11
11.5256441385
 21
11.9098570612
  0
LINE
  5
2CC
100
AcDbEntity
  8
03__ASM_ALL_CURVES
100
AcDbLine
 62
4
  6
CONTINUOUS
 10
11.8647066385
 20
11.9900653963
 11
11.8756441385
 21
11.9973570612
  0
LINE
  5
2CD
100
AcDbEntity
  8
03__ASM_ALL_CURVES
100
AcDbLine
 62
4
  6
CONTINUOUS
 10
9.4152274736
 20
7.3838258112
 11
9.4371024736
 21
7.3892945612
  0
LINE
  5
2CE
100
AcDbEntity
  8
03__ASM_ALL_CURVES
100
AcDbLine
 62
4
  6
CONTINUOUS
 10
10.6798108034
 20
7.2689820612
 11
10.6652274736
 21
7.2744508112
  0
LINE
  5
2CF
100
AcDbEntity
  8
03__ASM_ALL_CURVES
100
AcDbLine
 62
4
  6
CONTINUOUS
 10
10.7089774709
 20
7.3127320612
 11
10.7235608047
 21
7.3072633112
  0
LINE
  5
2D0
100
AcDbEntity
  8
03__ASM_ALL_CURVES
100
AcDbLine
 62
4
  6
CONTINUOUS
 10
8.9006441385
 20
6.7002320612
 11
8.9006441385
 21
6.6674195612
  0
LINE
  5
2D1
100
AcDbEntity
  8
03__ASM_ALL_CURVES
100
AcDbLine
 62
4
  6
CONTINUOUS
 10
8.9006441385
 20
6.6127320612
 11
8.9006441385
 21
6.5689820612
  0
LINE
  5
2D2
100
AcDbEntity
  8
03__ASM_ALL_CURVES
100
AcDbLine
 62
4
  6
CONTINUOUS
 10
8.9298108034
 20
6.6728883112
 11
8.9298108034
 21
6.6838258112
  0
LINE
  5
2D3
100
AcDbEntity
  8
03__ASM_ALL_CURVES
100
AcDbLine
 62
4
  6
CONTINUOUS
 10
8.9443941385
 20
7.7721070612
 11
8.9443941385
 21
7.5096070612
  0
LINE
  5
2D4
100
AcDbEntity
  8
03__ASM_ALL_CURVES
100
AcDbLine
 62
4
  6
CONTINUOUS
 10
8.9662691385
 20
6.9189820612
 11
8.9662691385
 21
6.9682008112
  0
LINE
  5
2D5
100
AcDbEntity
  8
03__ASM_ALL_CURVES
100
AcDbLine
 62
4
  6
CONTINUOUS
 10
8.9662691385
 20
7.0064820612
 11
8.9662691385
 21
7.0557008112
  0
LINE
  5
2D6
100
AcDbEntity
  8
03__ASM_ALL_CURVES
100
AcDbLine
 62
4
  6
CONTINUOUS
 10
8.9662691385
 20
7.1814820612
 11
8.9662691385
 21
7.2307008112
  0
LINE
  5
2D7
100
AcDbEntity
  8
03__ASM_ALL_CURVES
100
AcDbLine
 62
4
  6
CONTINUOUS
 10
8.9662691385
 20
7.2689820612
 11
8.9662691385
 21
7.3182008112
  0
LINE
  5
2D8
100
AcDbEntity
  8
0
100
AcDbLine
 62
7
  6
CONTINUOUS
 10
8.9772963862
 20
11.4831070612
 11
8.9772963862
 21
11.9195433954
  0
LINE
  5
2D9
100
AcDbEntity
  8
03__ASM_ALL_CURVES
100
AcDbLine
 62
4
  6
CONTINUOUS
 10
8.9881441385
 20
7.1377320612
 11
8.9881441385
 21
7.1295289362
  0
LINE
  5
2DA
100
AcDbEntity
  8
03__ASM_ALL_CURVES
100
AcDbLine
 62
4
  6
CONTINUOUS
 10
8.9881441385
 20
6.6838258112
 11
8.9881441385
 21
6.6728883112
  0
LINE
  5
2DB
100
AcDbEntity
  8
03__ASM_ALL_CURVES
100
AcDbLine
 62
4
  6
CONTINUOUS
 10
8.9881441385
 20
6.5252320612
 11
8.9881441385
 21
6.5170289362
  0
LINE
  5
2DC
100
AcDbEntity
  8
0
100
AcDbLine
 62
7
  6
CONTINUOUS
 10
8.9978941385
 20
11.3596070612
 11
8.9978941385
 21
11.4226070612
  0
LINE
  5
2DD
100
AcDbEntity
  8
0
100
AcDbLine
 62
7
  6
CONTINUOUS
 10
9.0069101725
 20
11.431622886
 11
9.0069101725
 21
11.9492646373
  0
LINE
  5
2DE
100
AcDbEntity
  8
03__ASM_ALL_CURVES
100
AcDbLine
 62
4
  6
CONTINUOUS
 10
7.951685806
 20
7.0283570612
 11
7.9443941385
 21
7.0119508112
  0
LINE
  5
2DF
100
AcDbEntity
  8
03__ASM_ALL_CURVES
100
AcDbLine
 62
4
  6
CONTINUOUS
 10
7.9371024736
 20
6.9408570612
 11
7.9443941385
 21
6.9572633112
  0
LINE
  5
2E0
100
AcDbEntity
  8
03__ASM_ALL_CURVES
100
AcDbLine
 62
4
  6
CONTINUOUS
 10
11.9467378885
 20
11.9900653963
 11
11.9576753885
 21
11.9973570612
  0
LINE
  5
2E1
100
AcDbEntity
  8
03__ASM_ALL_CURVES
100
AcDbLine
 62
4
  6
CONTINUOUS
 10
11.8865816385
 20
11.9171487281
 11
11.8756441385
 21
11.9098570612
  0
LINE
  5
2E2
100
AcDbEntity
  8
03__ASM_ALL_CURVES
100
AcDbLine
 62
4
  6
CONTINUOUS
 10
11.9795503885
 20
11.9681903963
 11
11.9686128885
 21
11.9608987262
  0
LINE
  5
2E3
100
AcDbEntity
  8
03__ASM_ALL_CURVES
100
AcDbLine
 62
4
  6
CONTINUOUS
 10
11.9795503885
 20
11.9171487281
 11
11.9686128885
 21
11.9098570612
  0
LINE
  5
2E4
100
AcDbEntity
  8
03__ASM_ALL_CURVES
100
AcDbLine
 62
4
  6
CONTINUOUS
 10
12.1217378885
 20
11.9900653963
 11
12.1326753885
 21
11.9973570612
  0
LINE
  5
2E5
100
AcDbEntity
  8
03__ASM_ALL_CURVES
100
AcDbLine
 62
4
  6
CONTINUOUS
 10
11.2467378885
 20
11.3960653963
 11
11.2576753885
 21
11.4033570612
  0
LINE
  5
2E6
100
AcDbEntity
  8
03__ASM_ALL_CURVES
100
AcDbLine
 62
4
  6
CONTINUOUS
 10
12.1217378885
 20
11.9536070612
 11
12.1326753885
 21
11.9608987262
  0
LINE
  5
2E7
100
AcDbEntity
  8
03__ASM_ALL_CURVES
100
AcDbLine
 62
4
  6
CONTINUOUS
 10
12.1545503885
 20
11.9681903963
 11
12.1436128885
 21
11.9608987262
  0
LINE
  5
2E8
100
AcDbEntity
  8
03__ASM_ALL_CURVES
100
AcDbLine
 62
4
  6
CONTINUOUS
 10
11.2795503885
 20
11.3741903963
 11
11.2686128885
 21
11.3668987262
  0
LINE
  5
2E9
100
AcDbEntity
  8
03__ASM_ALL_CURVES
100
AcDbLine
 62
4
  6
CONTINUOUS
 10
12.2092378885
 20
11.9900653963
 11
12.2201753885
 21
11.9973570612
  0
LINE
  5
2EA
100
AcDbEntity
  8
03__ASM_ALL_CURVES
100
AcDbLine
 62
4
  6
CONTINUOUS
 10
12.2092378885
 20
11.9536070612
 11
12.2201753885
 21
11.9608987262
  0
LINE
  5
2EB
100
AcDbEntity
  8
03__ASM_ALL_CURVES
100
AcDbLine
 62
4
  6
CONTINUOUS
 10
12.1545503885
 20
11.9171487281
 11
12.1436128885
 21
11.9098570612
  0
LINE
  5
2EC
100
AcDbEntity
  8
03__ASM_ALL_CURVES
100
AcDbLine
 62
4
  6
CONTINUOUS
 10
12.2420503885
 20
11.9681903963
 11
12.2311128885
 21
11.9608987262
  0
LINE
  5
2ED
100
AcDbEntity
  8
03__ASM_ALL_CURVES
100
AcDbLine
 62
4
  6
CONTINUOUS
 10
11.2795503885
 20
11.3231487281
 11
11.2686128885
 21
11.3158570612
  0
LINE
  5
2EE
100
AcDbEntity
  8
03__ASM_ALL_CURVES
100
AcDbLine
 62
4
  6
CONTINUOUS
 10
12.0670503885
 20
11.3596070612
 11
12.0506441385
 21
11.3523153937
  0
LINE
  5
2EF
100
AcDbEntity
  8
03__ASM_ALL_CURVES
100
AcDbLine
 62
4
  6
CONTINUOUS
 10
8.9152274736
 20
7.3838258112
 11
8.9371024736
 21
7.3892945612
  0
LINE
  5
2F0
100
AcDbEntity
  8
0
100
AcDbLine
 62
7
  6
CONTINUOUS
 10
10.6943941385
 20
7.8596070612
 11
7.9443941385
 21
7.8596070612
  0
LINE
  5
2F1
100
AcDbEntity
  8
03__ASM_ALL_CURVES
100
AcDbLine
 62
4
  6
CONTINUOUS
 10
10.7818941385
 20
7.8596070612
 11
11.0443941385
 21
7.8596070612
  0
LINE
  5
2F2
100
AcDbEntity
  8
03__ASM_ALL_CURVES
100
AcDbLine
 62
4
  6
CONTINUOUS
 10
10.6652274736
 20
7.2744508112
 11
10.6579358034
 21
7.2799195612
  0
LINE
  5
2F3
100
AcDbEntity
  8
03__ASM_ALL_CURVES
100
AcDbLine
 62
4
  6
CONTINUOUS
 10
10.7235608047
 20
7.3072633112
 11
10.7308524716
 21
7.3017945612
  0
LINE
  5
2F4
100
AcDbEntity
  8
03__ASM_ALL_CURVES
100
AcDbLine
 62
4
  6
CONTINUOUS
 10
12.2420503885
 20
11.9171487281
 11
12.2311128885
 21
11.9098570612
  0
LINE
  5
2F5
100
AcDbEntity
  8
03__ASM_ALL_CURVES
100
AcDbLine
 62
4
  6
CONTINUOUS
 10
11.4217378885
 20
11.3668987262
 11
11.4326753885
 21
11.3741903963
  0
LINE
  5
2F6
100
AcDbEntity
  8
03__ASM_ALL_CURVES
100
AcDbLine
 62
4
  6
CONTINUOUS
 10
11.4545503885
 20
11.3231487281
 11
11.4436128885
 21
11.3158570612
  0
LINE
  5
2F7
100
AcDbEntity
  8
03__ASM_ALL_CURVES
100
AcDbLine
 62
4
  6
CONTINUOUS
 10
11.6842378885
 20
11.3960653963
 11
11.6951753885
 21
11.4033570612
  0
LINE
  5
2F8
100
AcDbEntity
  8
03__ASM_ALL_CURVES
100
AcDbLine
 62
4
  6
CONTINUOUS
 10
11.6842378885
 20
11.3596070612
 11
11.6951753885
 21
11.3668987262
  0
LINE
  5
2F9
100
AcDbEntity
  8
03__ASM_ALL_CURVES
100
AcDbLine
 62
4
  6
CONTINUOUS
 10
11.7170503885
 20
11.3741903963
 11
11.7061128885
 21
11.3668987262
  0
LINE
  5
2FA
100
AcDbEntity
  8
03__ASM_ALL_CURVES
100
AcDbLine
 62
4
  6
CONTINUOUS
 10
11.7717378885
 20
11.3960653963
 11
11.7826753885
 21
11.4033570612
  0
LINE
  5
2FB
100
AcDbEntity
  8
03__ASM_ALL_CURVES
100
AcDbLine
 62
4
  6
CONTINUOUS
 10
11.7717378885
 20
11.3596070612
 11
11.7826753885
 21
11.3668987262
  0
LINE
  5
2FC
100
AcDbEntity
  8
03__ASM_ALL_CURVES
100
AcDbLine
 62
4
  6
CONTINUOUS
 10
11.7170503885
 20
11.3231487281
 11
11.7061128885
 21
11.3158570612
  0
LINE
  5
2FD
100
AcDbEntity
  8
03__ASM_ALL_CURVES
100
AcDbLine
 62
4
  6
CONTINUOUS
 10
11.8045503885
 20
11.3741903963
 11
11.7936128885
 21
11.3668987262
  0
LINE
  5
2FE
100
AcDbEntity
  8
03__ASM_ALL_CURVES
100
AcDbLine
 62
4
  6
CONTINUOUS
 10
7.9152274736
 20
7.3838258112
 11
7.9371024736
 21
7.3892945612
  0
LINE
  5
2FF
100
AcDbEntity
  8
03__ASM_ALL_CURVES
100
AcDbLine
 62
4
  6
CONTINUOUS
 10
9.4006441385
 20
7.3127320612
 11
9.4006441385
 21
7.2799195612
  0
LINE
  5
300
100
AcDbEntity
  8
03__ASM_ALL_CURVES
100
AcDbLine
 62
4
  6
CONTINUOUS
 10
9.4006441385
 20
7.2252320612
 11
9.4006441385
 21
7.1814820612
  0
LINE
  5
301
100
AcDbEntity
  8
03__ASM_ALL_CURVES
100
AcDbLine
 62
4
  6
CONTINUOUS
 10
9.4006441385
 20
6.7002320612
 11
9.4006441385
 21
6.6674195612
  0
LINE
  5
302
100
AcDbEntity
  8
03__ASM_ALL_CURVES
100
AcDbLine
 62
4
  6
CONTINUOUS
 10
9.4006441385
 20
6.5853883112
 11
9.4006441385
 21
6.5963258112
  0
LINE
  5
303
100
AcDbEntity
  8
03__ASM_ALL_CURVES
100
AcDbLine
 62
4
  6
CONTINUOUS
 10
9.4006441385
 20
6.9353883112
 11
9.4006441385
 21
6.9463258112
  0
LINE
  5
304
100
AcDbEntity
  8
03__ASM_ALL_CURVES
100
AcDbLine
 62
4
  6
CONTINUOUS
 10
9.4298108034
 20
6.6728883112
 11
9.4298108034
 21
6.6838258112
  0
LINE
  5
305
100
AcDbEntity
  8
03__ASM_ALL_CURVES
100
AcDbLine
 62
4
  6
CONTINUOUS
 10
9.4298108034
 20
7.2853883112
 11
9.4298108034
 21
7.2963258112
  0
LINE
  5
306
100
AcDbEntity
  8
03__ASM_ALL_CURVES
100
AcDbLine
 62
4
  6
CONTINUOUS
 10
9.4371024736
 20
6.9353883112
 11
9.4371024736
 21
6.9463258112
  0
LINE
  5
307
100
AcDbEntity
  8
03__ASM_ALL_CURVES
100
AcDbLine
 62
4
  6
CONTINUOUS
 10
9.4443941385
 20
7.7721070612
 11
9.4443941385
 21
7.5096070612
  0
LINE
  5
308
100
AcDbEntity
  8
03__ASM_ALL_CURVES
100
AcDbLine
 62
4
  6
CONTINUOUS
 10
9.4881441385
 20
7.2963258112
 11
9.4881441385
 21
7.2853883112
  0
LINE
  5
309
100
AcDbEntity
  8
03__ASM_ALL_CURVES
100
AcDbLine
 62
4
  6
CONTINUOUS
 10
9.4881441385
 20
7.1377320612
 11
9.4881441385
 21
7.1295289362
  0
LINE
  5
30A
100
AcDbEntity
  8
03__ASM_ALL_CURVES
100
AcDbLine
 62
4
  6
CONTINUOUS
 10
9.4881441385
 20
6.9463258112
 11
9.4881441385
 21
6.9353883112
  0
LINE
  5
30B
100
AcDbEntity
  8
03__ASM_ALL_CURVES
100
AcDbLine
 62
4
  6
CONTINUOUS
 10
9.4881441385
 20
6.6838258112
 11
9.4881441385
 21
6.6728883112
  0
LINE
  5
30C
100
AcDbEntity
  8
03__ASM_ALL_CURVES
100
AcDbLine
 62
4
  6
CONTINUOUS
 10
9.4881441385
 20
6.5252320612
 11
9.4881441385
 21
6.5170289362
  0
LINE
  5
30D
100
AcDbEntity
  8
03__ASM_ALL_CURVES
100
AcDbLine
 62
4
  6
CONTINUOUS
 10
9.4881441385
 20
6.5689820612
 11
9.4881441385
 21
6.6127320612
  0
LINE
  5
30E
100
AcDbEntity
  8
03__ASM_ALL_CURVES
100
AcDbLine
 62
4
  6
CONTINUOUS
 10
7.9298108034
 20
7.2963258112
 11
7.9371024736
 21
7.3072633112
  0
LINE
  5
30F
100
AcDbEntity
  8
03__ASM_ALL_CURVES
100
AcDbLine
 62
4
  6
CONTINUOUS
 10
7.9006441385
 20
7.2088258112
 11
7.9079358034
 21
7.2197633112
  0
LINE
  5
310
100
AcDbEntity
  8
03__ASM_ALL_CURVES
100
AcDbLine
 62
4
  6
CONTINUOUS
 10
7.9371024736
 20
7.2088258112
 11
7.9443941385
 21
7.2197633112
  0
LINE
  5
311
100
AcDbEntity
  8
03__ASM_ALL_CURVES
100
AcDbLine
 62
4
  6
CONTINUOUS
 10
7.9881441385
 20
7.2853883112
 11
7.9808524716
 21
7.2744508112
  0
LINE
  5
312
100
AcDbEntity
  8
03__ASM_ALL_CURVES
100
AcDbLine
 62
4
  6
CONTINUOUS
 10
7.9371024736
 20
7.1978883112
 11
7.9298108034
 21
7.1869508112
  0
LINE
  5
313
100
AcDbEntity
  8
03__ASM_ALL_CURVES
100
AcDbLine
 62
4
  6
CONTINUOUS
 10
7.9881441385
 20
7.1978883112
 11
7.9808524716
 21
7.1869508112
  0
LINE
  5
314
100
AcDbEntity
  8
03__ASM_ALL_CURVES
100
AcDbLine
 62
4
  6
CONTINUOUS
 10
7.9006441385
 20
7.0283570612
 11
7.9079358034
 21
7.0392945612
  0
LINE
  5
315
100
AcDbEntity
  8
03__ASM_ALL_CURVES
100
AcDbLine
 62
4
  6
CONTINUOUS
 10
7.9006441385
 20
6.9408570612
 11
7.9079358034
 21
6.9517945612
  0
LINE
  5
316
100
AcDbEntity
  8
03__ASM_ALL_CURVES
100
AcDbLine
 62
4
  6
CONTINUOUS
 10
7.9881441385
 20
7.0283570612
 11
7.9808524716
 21
7.0174195612
  0
LINE
  5
317
100
AcDbEntity
  8
03__ASM_ALL_CURVES
100
AcDbLine
 62
4
  6
CONTINUOUS
 10
11.4217378885
 20
11.9827737262
 11
11.4272066385
 21
11.9900653963
  0
LINE
  5
318
100
AcDbEntity
  8
03__ASM_ALL_CURVES
100
AcDbLine
 62
4
  6
CONTINUOUS
 10
11.4545503885
 20
11.924440395
 11
11.4490816385
 21
11.9171487281
  0
LINE
  5
319
100
AcDbEntity
  8
03__ASM_ALL_CURVES
100
AcDbLine
 62
4
  6
CONTINUOUS
 10
11.8045503885
 20
11.3231487281
 11
11.7936128885
 21
11.3158570612
  0
LINE
  5
31A
100
AcDbEntity
  8
03__ASM_ALL_CURVES
100
AcDbLine
 62
4
  6
CONTINUOUS
 10
11.9467378885
 20
11.3960653963
 11
11.9576753885
 21
11.4033570612
  0
LINE
  5
31B
100
AcDbEntity
  8
03__ASM_ALL_CURVES
100
AcDbLine
 62
4
  6
CONTINUOUS
 10
11.9467378885
 20
11.3596070612
 11
11.9576753885
 21
11.3668987262
  0
LINE
  5
31C
100
AcDbEntity
  8
03__ASM_ALL_CURVES
100
AcDbLine
 62
4
  6
CONTINUOUS
 10
11.9795503885
 20
11.3741903963
 11
11.9686128885
 21
11.3668987262
  0
LINE
  5
31D
100
AcDbEntity
  8
03__ASM_ALL_CURVES
100
AcDbLine
 62
4
  6
CONTINUOUS
 10
12.0397066385
 20
11.3960653963
 11
12.0506441385
 21
11.4033570612
  0
LINE
  5
31E
100
AcDbEntity
  8
03__ASM_ALL_CURVES
100
AcDbLine
 62
4
  6
CONTINUOUS
 10
11.9795503885
 20
11.3231487281
 11
11.9686128885
 21
11.3158570612
  0
LINE
  5
31F
100
AcDbEntity
  8
03__ASM_ALL_CURVES
100
AcDbLine
 62
4
  6
CONTINUOUS
 10
12.0615816385
 20
11.3231487281
 11
12.0506441385
 21
11.3158570612
  0
LINE
  5
320
100
AcDbEntity
  8
03__ASM_ALL_CURVES
100
AcDbLine
 62
4
  6
CONTINUOUS
 10
10.6579358034
 20
7.2799195612
 11
10.6506441385
 21
7.2908570612
  0
LINE
  5
321
100
AcDbEntity
  8
03__ASM_ALL_CURVES
100
AcDbLine
 62
4
  6
CONTINUOUS
 10
11.2795503885
 20
11.9973570612
 11
11.2412691385
 21
11.9317320612
  0
LINE
  5
322
100
AcDbEntity
  8
03__ASM_ALL_CURVES
100
AcDbLine
 62
4
  6
CONTINUOUS
 10
7.9881441385
 20
6.9408570612
 11
7.9808524716
 21
6.9299195612
  0
LINE
  5
323
100
AcDbEntity
  8
03__ASM_ALL_CURVES
100
AcDbLine
 62
4
  6
CONTINUOUS
 10
7.9298108034
 20
6.6838258112
 11
7.9371024736
 21
6.6947633112
  0
LINE
  5
324
100
AcDbEntity
  8
03__ASM_ALL_CURVES
100
AcDbLine
 62
4
  6
CONTINUOUS
 10
7.9881441385
 20
6.6728883112
 11
7.9808524716
 21
6.6619508112
  0
LINE
  5
325
100
AcDbEntity
  8
03__ASM_ALL_CURVES
100
AcDbLine
 62
4
  6
CONTINUOUS
 10
11.5092378885
 20
11.9827737262
 11
11.5147066385
 21
11.9900653963
  0
LINE
  5
326
100
AcDbEntity
  8
03__ASM_ALL_CURVES
100
AcDbLine
 62
4
  6
CONTINUOUS
 10
11.5420503885
 20
11.924440395
 11
11.5365816385
 21
11.9171487281
  0
LINE
  5
327
100
AcDbEntity
  8
03__ASM_ALL_CURVES
100
AcDbLine
 62
4
  6
CONTINUOUS
 10
11.7061128885
 20
11.9973570612
 11
11.6951753885
 21
11.9827737262
  0
LINE
  5
328
100
AcDbEntity
  8
03__ASM_ALL_CURVES
100
AcDbLine
 62
4
  6
CONTINUOUS
 10
11.2850191385
 20
11.3814820612
 11
11.2795503885
 21
11.3741903963
  0
LINE
  5
329
100
AcDbEntity
  8
03__ASM_ALL_CURVES
100
AcDbLine
 62
4
  6
CONTINUOUS
 10
11.2904878885
 20
11.3377320612
 11
11.2795503885
 21
11.3231487281
  0
LINE
  5
32A
100
AcDbEntity
  8
03__ASM_ALL_CURVES
100
AcDbLine
 62
4
  6
CONTINUOUS
 10
11.2467378885
 20
10.6460653963
 11
11.2576753885
 21
10.6533570612
  0
LINE
  5
32B
100
AcDbEntity
  8
03__ASM_ALL_CURVES
100
AcDbLine
 62
4
  6
CONTINUOUS
 10
11.2795503885
 20
10.6168987262
 11
11.2576753885
 21
10.6023153937
  0
LINE
  5
32C
100
AcDbEntity
  8
03__ASM_ALL_CURVES
100
AcDbLine
 62
4
  6
CONTINUOUS
 10
11.5092378885
 20
10.6168987262
 11
11.5201753885
 21
10.6241903963
  0
LINE
  5
32D
100
AcDbEntity
  8
03__ASM_ALL_CURVES
100
AcDbLine
 62
4
  6
CONTINUOUS
 10
11.7717378885
 20
10.6096070612
 11
11.7881441385
 21
10.6168987262
  0
LINE
  5
32E
100
AcDbEntity
  8
03__ASM_ALL_CURVES
100
AcDbLine
 62
4
  6
CONTINUOUS
 10
11.8920503885
 20
10.6096070612
 11
11.8756441385
 21
10.6023153937
  0
LINE
  5
32F
100
AcDbEntity
  8
03__ASM_ALL_CURVES
100
AcDbLine
 62
4
  6
CONTINUOUS
 10
12.5811128885
 20
8.5348570612
 11
12.5701753885
 21
8.5348570612
  0
LINE
  5
330
100
AcDbEntity
  8
03__ASM_ALL_CURVES
100
AcDbLine
 62
4
  6
CONTINUOUS
 10
12.1436128885
 20
8.5348570612
 11
12.1326753885
 21
8.5348570612
  0
LINE
  5
331
100
AcDbEntity
  8
03__ASM_ALL_CURVES
100
AcDbLine
 62
4
  6
CONTINUOUS
 10
11.9850191385
 20
8.5348570612
 11
11.9768160135
 21
8.5348570612
  0
LINE
  5
332
100
AcDbEntity
  8
03__ASM_ALL_CURVES
100
AcDbLine
 62
4
  6
CONTINUOUS
 10
11.8811128885
 20
8.5348570612
 11
11.8701753885
 21
8.5348570612
  0
LINE
  5
333
100
AcDbEntity
  8
03__ASM_ALL_CURVES
100
AcDbLine
 62
4
  6
CONTINUOUS
 10
11.3725191385
 20
8.5348570612
 11
11.3643160135
 21
8.5348570612
  0
LINE
  5
334
100
AcDbEntity
  8
03__ASM_ALL_CURVES
100
AcDbLine
 62
4
  6
CONTINUOUS
 10
12.4662691385
 20
8.5348570612
 11
12.5100191385
 21
8.5348570612
  0
LINE
  5
335
100
AcDbEntity
  8
03__ASM_ALL_CURVES
100
AcDbLine
 62
4
  6
CONTINUOUS
 10
10.7818941385
 20
8.5786070612
 11
11.0443941385
 21
8.5786070612
  0
LINE
  5
336
100
AcDbEntity
  8
03__ASM_ALL_CURVES
100
AcDbLine
 62
4
  6
CONTINUOUS
 10
11.8701753885
 20
8.5858987262
 11
11.8811128885
 21
8.5858987262
  0
LINE
  5
337
100
AcDbEntity
  8
03__ASM_ALL_CURVES
100
AcDbLine
 62
4
  6
CONTINUOUS
 10
12.1326753885
 20
8.5858987262
 11
12.1436128885
 21
8.5858987262
  0
LINE
  5
338
100
AcDbEntity
  8
03__ASM_ALL_CURVES
100
AcDbLine
 62
4
  6
CONTINUOUS
 10
12.5811128885
 20
8.6223570612
 11
12.5701753885
 21
8.6223570612
  0
LINE
  5
339
100
AcDbEntity
  8
03__ASM_ALL_CURVES
100
AcDbLine
 62
4
  6
CONTINUOUS
 10
11.4600191385
 20
8.6223570612
 11
11.4162691385
 21
8.6223570612
  0
LINE
  5
33A
100
AcDbEntity
  8
03__ASM_ALL_CURVES
100
AcDbLine
 62
4
  6
CONTINUOUS
 10
11.8701753885
 20
8.6223570612
 11
11.8811128885
 21
8.6223570612
  0
LINE
  5
33B
100
AcDbEntity
  8
03__ASM_ALL_CURVES
100
AcDbLine
 62
4
  6
CONTINUOUS
 10
12.1326753885
 20
8.6223570612
 11
12.1436128885
 21
8.6223570612
  0
LINE
  5
33C
100
AcDbEntity
  8
03__ASM_ALL_CURVES
100
AcDbLine
 62
4
  6
CONTINUOUS
 10
11.2631441385
 20
7.8158570612
 11
11.2522066385
 21
7.8231487281
  0
LINE
  5
33D
100
AcDbEntity
  8
03__ASM_ALL_CURVES
100
AcDbLine
 62
4
  6
CONTINUOUS
 10
11.2631441385
 20
7.9033570612
 11
11.2740816385
 21
7.8960653963
  0
LINE
  5
33E
100
AcDbEntity
  8
03__ASM_ALL_CURVES
100
AcDbLine
 62
4
  6
CONTINUOUS
 10
10.7308524716
 20
7.3017945612
 11
10.7381441385
 21
7.2908570612
  0
LINE
  5
33F
100
AcDbEntity
  8
03__ASM_ALL_CURVES
100
AcDbLine
 62
4
  6
CONTINUOUS
 10
7.9006441385
 20
6.4213258112
 11
7.9079358034
 21
6.4322633112
  0
LINE
  5
340
100
AcDbEntity
  8
03__ASM_ALL_CURVES
100
AcDbLine
 62
4
  6
CONTINUOUS
 10
11.8592378885
 20
11.9827737262
 11
11.8647066385
 21
11.9900653963
  0
LINE
  5
341
100
AcDbEntity
  8
03__ASM_ALL_CURVES
100
AcDbLine
 62
4
  6
CONTINUOUS
 10
11.8920503885
 20
11.924440395
 11
11.8865816385
 21
11.9171487281
  0
LINE
  5
342
100
AcDbEntity
  8
03__ASM_ALL_CURVES
100
AcDbLine
 62
4
  6
CONTINUOUS
 10
11.4600191385
 20
11.330440395
 11
11.4545503885
 21
11.3231487281
  0
LINE
  5
343
100
AcDbEntity
  8
03__ASM_ALL_CURVES
100
AcDbLine
 62
4
  6
CONTINUOUS
 10
11.9850191385
 20
11.9754820612
 11
11.9795503885
 21
11.9681903963
  0
LINE
  5
344
100
AcDbEntity
  8
03__ASM_ALL_CURVES
100
AcDbLine
 62
4
  6
CONTINUOUS
 10
11.9904878885
 20
11.9317320612
 11
11.9795503885
 21
11.9171487281
  0
LINE
  5
345
100
AcDbEntity
  8
03__ASM_ALL_CURVES
100
AcDbLine
 62
4
  6
CONTINUOUS
 10
11.6186128885
 20
11.4033570612
 11
11.6076753885
 21
11.3887737262
  0
LINE
  5
346
100
AcDbEntity
  8
03__ASM_ALL_CURVES
100
AcDbLine
 62
4
  6
CONTINUOUS
 10
11.5420503885
 20
10.5731487281
 11
11.5311128885
 21
10.5658570612
  0
LINE
  5
347
100
AcDbEntity
  8
03__ASM_ALL_CURVES
100
AcDbLine
 62
4
  6
CONTINUOUS
 10
11.7772066385
 20
10.6460653963
 11
11.7881441385
 21
10.6533570612
  0
LINE
  5
348
100
AcDbEntity
  8
03__ASM_ALL_CURVES
100
AcDbLine
 62
4
  6
CONTINUOUS
 10
11.8647066385
 20
10.6460653963
 11
11.8756441385
 21
10.6533570612
  0
LINE
  5
349
100
AcDbEntity
  8
03__ASM_ALL_CURVES
100
AcDbLine
 62
4
  6
CONTINUOUS
 10
11.7990816385
 20
10.5731487281
 11
11.7881441385
 21
10.5658570612
  0
LINE
  5
34A
100
AcDbEntity
  8
03__ASM_ALL_CURVES
100
AcDbLine
 62
4
  6
CONTINUOUS
 10
11.8865816385
 20
10.5731487281
 11
11.8756441385
 21
10.5658570612
  0
LINE
  5
34B
100
AcDbEntity
  8
03__ASM_ALL_CURVES
100
AcDbLine
 62
4
  6
CONTINUOUS
 10
12.0342378885
 20
10.6460653963
 11
12.0451753885
 21
10.6533570612
  0
LINE
  5
34C
100
AcDbEntity
  8
03__ASM_ALL_CURVES
100
AcDbLine
 62
4
  6
CONTINUOUS
 10
12.1162691385
 20
11.9827737262
 11
12.1217378885
 21
11.9900653963
  0
LINE
  5
34D
100
AcDbEntity
  8
03__ASM_ALL_CURVES
100
AcDbLine
 62
4
  6
CONTINUOUS
 10
11.6787691385
 20
11.3887737262
 11
11.6842378885
 21
11.3960653963
  0
LINE
  5
34E
100
AcDbEntity
  8
03__ASM_ALL_CURVES
100
AcDbLine
 62
4
  6
CONTINUOUS
 10
12.1108003885
 20
11.9390237288
 11
12.1217378885
 21
11.9536070612
  0
LINE
  5
34F
100
AcDbEntity
  8
03__ASM_ALL_CURVES
100
AcDbLine
 62
4
  6
CONTINUOUS
 10
11.6733003885
 20
11.3450237288
 11
11.6842378885
 21
11.3596070612
  0
LINE
  5
350
100
AcDbEntity
  8
03__ASM_ALL_CURVES
100
AcDbLine
 62
4
  6
CONTINUOUS
 10
12.1600191385
 20
11.9754820612
 11
12.1545503885
 21
11.9681903963
  0
LINE
  5
351
100
AcDbEntity
  8
03__ASM_ALL_CURVES
100
AcDbLine
 62
4
  6
CONTINUOUS
 10
11.7225191385
 20
11.3814820612
 11
11.7170503885
 21
11.3741903963
  0
LINE
  5
352
100
AcDbEntity
  8
03__ASM_ALL_CURVES
100
AcDbLine
 62
4
  6
CONTINUOUS
 10
12.1654878885
 20
11.9317320612
 11
12.1545503885
 21
11.9171487281
  0
LINE
  5
353
100
AcDbEntity
  8
03__ASM_ALL_CURVES
100
AcDbLine
 62
4
  6
CONTINUOUS
 10
12.2037691385
 20
11.9827737262
 11
12.2092378885
 21
11.9900653963
  0
LINE
  5
354
100
AcDbEntity
  8
03__ASM_ALL_CURVES
100
AcDbLine
 62
4
  6
CONTINUOUS
 10
11.7279878885
 20
11.3377320612
 11
11.7170503885
 21
11.3231487281
  0
LINE
  5
355
100
AcDbEntity
  8
03__ASM_ALL_CURVES
100
AcDbLine
 62
4
  6
CONTINUOUS
 10
11.7662691385
 20
11.3887737262
 11
11.7717378885
 21
11.3960653963
  0
LINE
  5
356
100
AcDbEntity
  8
03__ASM_ALL_CURVES
100
AcDbLine
 62
4
  6
CONTINUOUS
 10
12.1983003885
 20
11.9390237288
 11
12.2092378885
 21
11.9536070612
  0
LINE
  5
357
100
AcDbEntity
  8
03__ASM_ALL_CURVES
100
AcDbLine
 62
4
  6
CONTINUOUS
 10
11.7608003885
 20
11.3450237288
 11
11.7717378885
 21
11.3596070612
  0
LINE
  5
358
100
AcDbEntity
  8
03__ASM_ALL_CURVES
100
AcDbLine
 62
4
  6
CONTINUOUS
 10
11.2412691385
 20
10.6387737262
 11
11.2467378885
 21
10.6460653963
  0
LINE
  5
359
100
AcDbEntity
  8
03__ASM_ALL_CURVES
100
AcDbLine
 62
4
  6
CONTINUOUS
 10
12.2475191385
 20
11.9754820612
 11
12.2420503885
 21
11.9681903963
  0
LINE
  5
35A
100
AcDbEntity
  8
03__ASM_ALL_CURVES
100
AcDbLine
 62
4
  6
CONTINUOUS
 10
11.8100191385
 20
11.3814820612
 11
11.8045503885
 21
11.3741903963
  0
LINE
  5
35B
100
AcDbEntity
  8
03__ASM_ALL_CURVES
100
AcDbLine
 62
4
  6
CONTINUOUS
 10
12.2529878885
 20
11.9317320612
 11
12.2420503885
 21
11.9171487281
  0
LINE
  5
35C
100
AcDbEntity
  8
03__ASM_ALL_CURVES
100
AcDbLine
 62
4
  6
CONTINUOUS
 10
11.2576753885
 20
10.6023153937
 11
11.2467378885
 21
10.5877320612
  0
LINE
  5
35D
100
AcDbEntity
  8
03__ASM_ALL_CURVES
100
AcDbLine
 62
4
  6
CONTINUOUS
 10
11.8154878885
 20
11.3377320612
 11
11.8045503885
 21
11.3231487281
  0
LINE
  5
35E
100
AcDbEntity
  8
03__ASM_ALL_CURVES
100
AcDbLine
 62
4
  6
CONTINUOUS
 10
11.2850191385
 20
10.6241903963
 11
11.2795503885
 21
10.6168987262
  0
LINE
  5
35F
100
AcDbEntity
  8
03__ASM_ALL_CURVES
100
AcDbLine
 62
4
  6
CONTINUOUS
 10
12.3186128885
 20
11.924440395
 11
12.3076753885
 21
11.9098570612
  0
LINE
  5
360
100
AcDbEntity
  8
03__ASM_ALL_CURVES
100
AcDbLine
 62
4
  6
CONTINUOUS
 10
11.9412691385
 20
11.3887737262
 11
11.9467378885
 21
11.3960653963
  0
LINE
  5
361
100
AcDbEntity
  8
03__ASM_ALL_CURVES
100
AcDbLine
 62
4
  6
CONTINUOUS
 10
11.9358003885
 20
11.3450237288
 11
11.9467378885
 21
11.3596070612
  0
LINE
  5
362
100
AcDbEntity
  8
03__ASM_ALL_CURVES
100
AcDbLine
 62
4
  6
CONTINUOUS
 10
7.9006441385
 20
7.3728883112
 11
7.9152274736
 21
7.3838258112
  0
LINE
  5
363
100
AcDbEntity
  8
03__ASM_ALL_CURVES
100
AcDbLine
 62
4
  6
CONTINUOUS
 10
12.0342378885
 20
10.6096070612
 11
12.0451753885
 21
10.6168987262
  0
LINE
  5
364
100
AcDbEntity
  8
03__ASM_ALL_CURVES
100
AcDbLine
 62
4
  6
CONTINUOUS
 10
12.0670503885
 20
10.6241903963
 11
12.0561128885
 21
10.6168987262
  0
LINE
  5
365
100
AcDbEntity
  8
03__ASM_ALL_CURVES
100
AcDbLine
 62
4
  6
CONTINUOUS
 10
12.1217378885
 20
10.6168987262
 11
12.1326753885
 21
10.6241903963
  0
LINE
  5
366
100
AcDbEntity
  8
03__ASM_ALL_CURVES
100
AcDbLine
 62
4
  6
CONTINUOUS
 10
12.0670503885
 20
10.5731487281
 11
12.0561128885
 21
10.5658570612
  0
LINE
  5
367
100
AcDbEntity
  8
03__ASM_ALL_CURVES
100
AcDbLine
 62
4
  6
CONTINUOUS
 10
12.1545503885
 20
10.5731487281
 11
12.1436128885
 21
10.5658570612
  0
LINE
  5
368
100
AcDbEntity
  8
03__ASM_ALL_CURVES
100
AcDbLine
 62
4
  6
CONTINUOUS
 10
11.2631441385
 20
8.5348570612
 11
11.2522066385
 21
8.5421487281
  0
LINE
  5
369
100
AcDbEntity
  8
03__ASM_ALL_CURVES
100
AcDbLine
 62
4
  6
CONTINUOUS
 10
11.2522066385
 20
7.8231487281
 11
11.2467378885
 21
7.830440395
  0
LINE
  5
36A
100
AcDbEntity
  8
03__ASM_ALL_CURVES
100
AcDbLine
 62
4
  6
CONTINUOUS
 10
11.2740816385
 20
7.8960653963
 11
11.2795503885
 21
7.8887737262
  0
LINE
  5
36B
100
AcDbEntity
  8
03__ASM_ALL_CURVES
100
AcDbLine
 62
4
  6
CONTINUOUS
 10
11.4162691385
 20
11.9681903963
 11
11.4217378885
 21
11.9827737262
  0
LINE
  5
36C
100
AcDbEntity
  8
03__ASM_ALL_CURVES
100
AcDbLine
 62
4
  6
CONTINUOUS
 10
11.4600191385
 20
11.9390237288
 11
11.4545503885
 21
11.924440395
  0
LINE
  5
36D
100
AcDbEntity
  8
03__ASM_ALL_CURVES
100
AcDbLine
 62
4
  6
CONTINUOUS
 10
11.5037691385
 20
11.9681903963
 11
11.5092378885
 21
11.9827737262
  0
LINE
  5
36E
100
AcDbEntity
  8
03__ASM_ALL_CURVES
100
AcDbLine
 62
4
  6
CONTINUOUS
 10
11.5475191385
 20
11.9681903963
 11
11.5420503885
 21
11.9536070612
  0
LINE
  5
36F
100
AcDbEntity
  8
03__ASM_ALL_CURVES
100
AcDbLine
 62
4
  6
CONTINUOUS
 10
11.5475191385
 20
11.9390237288
 11
11.5420503885
 21
11.924440395
  0
LINE
  5
370
100
AcDbEntity
  8
03__ASM_ALL_CURVES
100
AcDbLine
 62
4
  6
CONTINUOUS
 10
8.9298108034
 20
6.6838258112
 11
8.9371024736
 21
6.6947633112
  0
LINE
  5
371
100
AcDbEntity
  8
03__ASM_ALL_CURVES
100
AcDbLine
 62
4
  6
CONTINUOUS
 10
11.9850191385
 20
11.3814820612
 11
11.9795503885
 21
11.3741903963
  0
LINE
  5
372
100
AcDbEntity
  8
03__ASM_ALL_CURVES
100
AcDbLine
 62
4
  6
CONTINUOUS
 10
11.9904878885
 20
11.3377320612
 11
11.9795503885
 21
11.3231487281
  0
LINE
  5
373
100
AcDbEntity
  8
03__ASM_ALL_CURVES
100
AcDbLine
 62
4
  6
CONTINUOUS
 10
12.0342378885
 20
11.3887737262
 11
12.0397066385
 21
11.3960653963
  0
LINE
  5
374
100
AcDbEntity
  8
03__ASM_ALL_CURVES
100
AcDbLine
 62
4
  6
CONTINUOUS
 10
12.0670503885
 20
11.330440395
 11
12.0615816385
 21
11.3231487281
  0
LINE
  5
375
100
AcDbEntity
  8
03__ASM_ALL_CURVES
100
AcDbLine
 62
4
  6
CONTINUOUS
 10
11.5475191385
 20
10.580440395
 11
11.5420503885
 21
10.5731487281
  0
LINE
  5
376
100
AcDbEntity
  8
03__ASM_ALL_CURVES
100
AcDbLine
 62
4
  6
CONTINUOUS
 10
12.1436128885
 20
11.330440395
 11
12.1326753885
 21
11.3158570612
  0
LINE
  5
377
100
AcDbEntity
  8
03__ASM_ALL_CURVES
100
AcDbLine
 62
4
  6
CONTINUOUS
 10
11.7061128885
 20
10.6533570612
 11
11.6951753885
 21
10.6387737262
  0
LINE
  5
378
100
AcDbEntity
  8
03__ASM_ALL_CURVES
100
AcDbLine
 62
4
  6
CONTINUOUS
 10
7.9371024736
 20
7.3072633112
 11
7.9443941385
 21
7.3127320612
  0
LINE
  5
379
100
AcDbEntity
  8
03__ASM_ALL_CURVES
100
AcDbLine
 62
4
  6
CONTINUOUS
 10
7.9808524716
 20
7.2744508112
 11
7.9735608047
 21
7.2689820612
  0
LINE
  5
37A
100
AcDbEntity
  8
03__ASM_ALL_CURVES
100
AcDbLine
 62
4
  6
CONTINUOUS
 10
7.9079358034
 20
7.2197633112
 11
7.9152274736
 21
7.2252320612
  0
LINE
  5
37B
100
AcDbEntity
  8
03__ASM_ALL_CURVES
100
AcDbLine
 62
4
  6
CONTINUOUS
 10
7.9443941385
 20
7.2197633112
 11
7.9589774709
 21
7.2307008112
  0
LINE
  5
37C
100
AcDbEntity
  8
03__ASM_ALL_CURVES
100
AcDbLine
 62
4
  6
CONTINUOUS
 10
7.9298108034
 20
7.1869508112
 11
7.9225191385
 21
7.1814820612
  0
LINE
  5
37D
100
AcDbEntity
  8
03__ASM_ALL_CURVES
100
AcDbLine
 62
4
  6
CONTINUOUS
 10
7.9808524716
 20
7.1869508112
 11
7.9662691385
 21
7.1760133112
  0
LINE
  5
37E
100
AcDbEntity
  8
03__ASM_ALL_CURVES
100
AcDbLine
 62
4
  6
CONTINUOUS
 10
7.9772066382
 20
7.1295289362
 11
7.9881441385
 21
7.1377320612
  0
LINE
  5
37F
100
AcDbEntity
  8
03__ASM_ALL_CURVES
100
AcDbLine
 62
4
  6
CONTINUOUS
 10
12.0561128885
 20
9.2538570612
 11
12.0451753885
 21
9.2538570612
  0
LINE
  5
380
100
AcDbEntity
  8
03__ASM_ALL_CURVES
100
AcDbLine
 62
4
  6
CONTINUOUS
 10
11.9850191385
 20
9.2538570612
 11
11.9768160135
 21
9.2538570612
  0
LINE
  5
381
100
AcDbEntity
  8
03__ASM_ALL_CURVES
100
AcDbLine
 62
4
  6
CONTINUOUS
 10
11.7936128885
 20
9.2538570612
 11
11.7826753885
 21
9.2538570612
  0
LINE
  5
382
100
AcDbEntity
  8
03__ASM_ALL_CURVES
100
AcDbLine
 62
4
  6
CONTINUOUS
 10
11.5311128885
 20
9.2538570612
 11
11.5201753885
 21
9.2538570612
  0
LINE
  5
383
100
AcDbEntity
  8
03__ASM_ALL_CURVES
100
AcDbLine
 62
4
  6
CONTINUOUS
 10
11.3725191385
 20
9.2538570612
 11
11.3643160135
 21
9.2538570612
  0
LINE
  5
384
100
AcDbEntity
  8
03__ASM_ALL_CURVES
100
AcDbLine
 62
4
  6
CONTINUOUS
 10
12.1162691385
 20
9.2538570612
 11
12.1600191385
 21
9.2538570612
  0
LINE
  5
385
100
AcDbEntity
  8
03__ASM_ALL_CURVES
100
AcDbLine
 62
4
  6
CONTINUOUS
 10
11.4162691385
 20
9.2757320612
 11
11.4654878885
 21
9.2757320612
  0
LINE
  5
386
100
AcDbEntity
  8
03__ASM_ALL_CURVES
100
AcDbLine
 62
4
  6
CONTINUOUS
 10
10.7818941385
 20
9.2976070612
 11
11.0443941385
 21
9.2976070612
  0
LINE
  5
387
100
AcDbEntity
  8
03__ASM_ALL_CURVES
100
AcDbLine
 62
4
  6
CONTINUOUS
 10
11.5201753885
 20
9.3048987262
 11
11.5311128885
 21
9.3048987262
  0
LINE
  5
388
100
AcDbEntity
  8
03__ASM_ALL_CURVES
100
AcDbLine
 62
4
  6
CONTINUOUS
 10
11.7826753885
 20
9.3048987262
 11
11.7936128885
 21
9.3048987262
  0
LINE
  5
389
100
AcDbEntity
  8
03__ASM_ALL_CURVES
100
AcDbLine
 62
4
  6
CONTINUOUS
 10
12.0451753885
 20
9.3048987262
 11
12.0561128885
 21
9.3048987262
  0
LINE
  5
38A
100
AcDbEntity
  8
03__ASM_ALL_CURVES
100
AcDbLine
 62
4
  6
CONTINUOUS
 10
11.5201753885
 20
9.3413570612
 11
11.5311128885
 21
9.3413570612
  0
LINE
  5
38B
100
AcDbEntity
  8
03__ASM_ALL_CURVES
100
AcDbLine
 62
4
  6
CONTINUOUS
 10
11.7826753885
 20
9.3413570612
 11
11.7936128885
 21
9.3413570612
  0
LINE
  5
38C
100
AcDbEntity
  8
03__ASM_ALL_CURVES
100
AcDbLine
 62
4
  6
CONTINUOUS
 10
12.0451753885
 20
9.3413570612
 11
12.0561128885
 21
9.3413570612
  0
LINE
  5
38D
100
AcDbEntity
  8
03__ASM_ALL_CURVES
100
AcDbLine
 62
4
  6
CONTINUOUS
 10
12.1326753885
 20
9.3413570612
 11
12.1436128885
 21
9.3413570612
  0
LINE
  5
38E
100
AcDbEntity
  8
03__ASM_ALL_CURVES
100
AcDbLine
 62
4
  6
CONTINUOUS
 10
11.2631441385
 20
8.6223570612
 11
11.2740816385
 21
8.6150653963
  0
LINE
  5
38F
100
AcDbEntity
  8
0
100
AcDbLine
 62
7
  6
CONTINUOUS
 10
8.1408941385
 20
11.4226070612
 11
8.1315806674
 21
11.4319205324
  0
LINE
  5
390
100
AcDbEntity
  8
0
100
AcDbLine
 62
7
  6
CONTINUOUS
 10
10.6943941385
 20
11.3596070612
 11
10.6943941385
 21
7.8596070612
  0
LINE
  5
391
100
AcDbEntity
  8
03__ASM_ALL_CURVES
100
AcDbLine
 62
4
  6
CONTINUOUS
 10
10.6943941385
 20
7.7721070612
 11
10.6943941385
 21
7.5096070612
  0
LINE
  5
392
100
AcDbEntity
  8
03__ASM_ALL_CURVES
100
AcDbLine
 62
4
  6
CONTINUOUS
 10
11.4654878885
 20
11.3450237288
 11
11.4600191385
 21
11.330440395
  0
LINE
  5
393
100
AcDbEntity
  8
03__ASM_ALL_CURVES
100
AcDbLine
 62
4
  6
CONTINUOUS
 10
11.8537691385
 20
11.9681903963
 11
11.8592378885
 21
11.9827737262
  0
LINE
  5
394
100
AcDbEntity
  8
03__ASM_ALL_CURVES
100
AcDbLine
 62
4
  6
CONTINUOUS
 10
8.9881441385
 20
6.6728883112
 11
8.9808524716
 21
6.6619508112
  0
LINE
  5
395
100
AcDbEntity
  8
03__ASM_ALL_CURVES
100
AcDbLine
 62
4
  6
CONTINUOUS
 10
9.4298108034
 20
7.2963258112
 11
9.4371024736
 21
7.3072633112
  0
LINE
  5
396
100
AcDbEntity
  8
03__ASM_ALL_CURVES
100
AcDbLine
 62
4
  6
CONTINUOUS
 10
9.4881441385
 20
7.2853883112
 11
9.4808524716
 21
7.2744508112
  0
LINE
  5
397
100
AcDbEntity
  8
03__ASM_ALL_CURVES
100
AcDbLine
 62
4
  6
CONTINUOUS
 10
9.4006441385
 20
6.9463258112
 11
9.4079358034
 21
6.9572633112
  0
LINE
  5
398
100
AcDbEntity
  8
03__ASM_ALL_CURVES
100
AcDbLine
 62
4
  6
CONTINUOUS
 10
11.7717378885
 20
10.6387737262
 11
11.7772066385
 21
10.6460653963
  0
LINE
  5
399
100
AcDbEntity
  8
03__ASM_ALL_CURVES
100
AcDbLine
 62
4
  6
CONTINUOUS
 10
11.8045503885
 20
10.580440395
 11
11.7990816385
 21
10.5731487281
  0
LINE
  5
39A
100
AcDbEntity
  8
03__ASM_ALL_CURVES
100
AcDbLine
 62
4
  6
CONTINUOUS
 10
11.8592378885
 20
10.6387737262
 11
11.8647066385
 21
10.6460653963
  0
LINE
  5
39B
100
AcDbEntity
  8
03__ASM_ALL_CURVES
100
AcDbLine
 62
4
  6
CONTINUOUS
 10
11.8920503885
 20
10.580440395
 11
11.8865816385
 21
10.5731487281
  0
LINE
  5
39C
100
AcDbEntity
  8
03__ASM_ALL_CURVES
100
AcDbLine
 62
4
  6
CONTINUOUS
 10
7.9079358034
 20
7.0392945612
 11
7.9152274736
 21
7.0447633112
  0
LINE
  5
39D
100
AcDbEntity
  8
03__ASM_ALL_CURVES
100
AcDbLine
 62
4
  6
CONTINUOUS
 10
7.9808524716
 20
7.0174195612
 11
7.9735608047
 21
7.0119508112
  0
LINE
  5
39E
100
AcDbEntity
  8
03__ASM_ALL_CURVES
100
AcDbLine
 62
4
  6
CONTINUOUS
 10
7.9079358034
 20
6.9517945612
 11
7.9152274736
 21
6.9572633112
  0
LINE
  5
39F
100
AcDbEntity
  8
03__ASM_ALL_CURVES
100
AcDbLine
 62
4
  6
CONTINUOUS
 10
7.9808524716
 20
6.9299195612
 11
7.9735608047
 21
6.9244508112
  0
LINE
  5
3A0
100
AcDbEntity
  8
03__ASM_ALL_CURVES
100
AcDbLine
 62
4
  6
CONTINUOUS
 10
7.9735608047
 20
6.8478883112
 11
7.9881441385
 21
6.8588258112
  0
LINE
  5
3A1
100
AcDbEntity
  8
03__ASM_ALL_CURVES
100
AcDbLine
 62
4
  6
CONTINUOUS
 10
11.8701753885
 20
8.5348570612
 11
11.8592378885
 21
8.5421487281
  0
LINE
  5
3A2
100
AcDbEntity
  8
03__ASM_ALL_CURVES
100
AcDbLine
 62
4
  6
CONTINUOUS
 10
11.8701753885
 20
8.5858987262
 11
11.8592378885
 21
8.5931903963
  0
LINE
  5
3A3
100
AcDbEntity
  8
03__ASM_ALL_CURVES
100
AcDbLine
 62
4
  6
CONTINUOUS
 10
11.8811128885
 20
8.5858987262
 11
11.8920503885
 21
8.5786070612
  0
LINE
  5
3A4
100
AcDbEntity
  8
03__ASM_ALL_CURVES
100
AcDbLine
 62
4
  6
CONTINUOUS
 10
11.8811128885
 20
8.6223570612
 11
11.8920503885
 21
8.6150653963
  0
LINE
  5
3A5
100
AcDbEntity
  8
03__ASM_ALL_CURVES
100
AcDbLine
 62
4
  6
CONTINUOUS
 10
12.0506441385
 20
8.5348570612
 11
12.0397066385
 21
8.5421487281
  0
LINE
  5
3A6
100
AcDbEntity
  8
03__ASM_ALL_CURVES
100
AcDbLine
 62
4
  6
CONTINUOUS
 10
12.1326753885
 20
8.5348570612
 11
12.1217378885
 21
8.5421487281
  0
LINE
  5
3A7
100
AcDbEntity
  8
03__ASM_ALL_CURVES
100
AcDbLine
 62
4
  6
CONTINUOUS
 10
12.0506441385
 20
8.6223570612
 11
12.0615816385
 21
8.6150653963
  0
LINE
  5
3A8
100
AcDbEntity
  8
03__ASM_ALL_CURVES
100
AcDbLine
 62
4
  6
CONTINUOUS
 10
12.1436128885
 20
8.5858987262
 11
12.1545503885
 21
8.5786070612
  0
LINE
  5
3A9
100
AcDbEntity
  8
03__ASM_ALL_CURVES
100
AcDbLine
 62
4
  6
CONTINUOUS
 10
11.2522066385
 20
8.5421487281
 11
11.2467378885
 21
8.549440395
  0
LINE
  5
3AA
100
AcDbEntity
  8
03__ASM_ALL_CURVES
100
AcDbLine
 62
4
  6
CONTINUOUS
 10
11.2740816385
 20
8.6150653963
 11
11.2795503885
 21
8.6077737262
  0
LINE
  5
3AB
100
AcDbEntity
  8
03__ASM_ALL_CURVES
100
AcDbLine
 62
4
  6
CONTINUOUS
 10
11.3643160135
 20
8.5457945616
 11
11.3725191385
 21
8.5348570612
  0
LINE
  5
3AC
100
AcDbEntity
  8
03__ASM_ALL_CURVES
100
AcDbLine
 62
4
  6
CONTINUOUS
 10
11.2467378885
 20
7.830440395
 11
11.2412691385
 21
7.8450237288
  0
LINE
  5
3AD
100
AcDbEntity
  8
03__ASM_ALL_CURVES
100
AcDbLine
 62
4
  6
CONTINUOUS
 10
11.2795503885
 20
7.8887737262
 11
11.2850191385
 21
7.8741903963
  0
LINE
  5
3AE
100
AcDbEntity
  8
03__ASM_ALL_CURVES
100
AcDbLine
 62
4
  6
CONTINUOUS
 10
11.2467378885
 20
10.5877320612
 11
11.2412691385
 21
10.5658570612
  0
LINE
  5
3AF
100
AcDbEntity
  8
03__ASM_ALL_CURVES
100
AcDbLine
 62
4
  6
CONTINUOUS
 10
11.6951753885
 20
11.9827737262
 11
11.6897066385
 21
11.9608987262
  0
LINE
  5
3B0
100
AcDbEntity
  8
03__ASM_ALL_CURVES
100
AcDbLine
 62
4
  6
CONTINUOUS
 10
11.6076753885
 20
11.3887737262
 11
11.6022066385
 21
11.3668987262
  0
LINE
  5
3B1
100
AcDbEntity
  8
03__ASM_ALL_CURVES
100
AcDbLine
 62
4
  6
CONTINUOUS
 10
11.8975191385
 20
11.9390237288
 11
11.8920503885
 21
11.924440395
  0
LINE
  5
3B2
100
AcDbEntity
  8
03__ASM_ALL_CURVES
100
AcDbLine
 62
4
  6
CONTINUOUS
 10
11.4490816385
 20
10.6241903963
 11
11.4600191385
 21
10.6533570612
  0
LINE
  5
3B3
100
AcDbEntity
  8
03__ASM_ALL_CURVES
100
AcDbLine
 62
4
  6
CONTINUOUS
 10
11.5529878885
 20
10.5950237288
 11
11.5475191385
 21
10.580440395
  0
LINE
  5
3B4
100
AcDbEntity
  8
03__ASM_ALL_CURVES
100
AcDbLine
 62
4
  6
CONTINUOUS
 10
9.4371024736
 20
6.9463258112
 11
9.4443941385
 21
6.9572633112
  0
LINE
  5
3B5
100
AcDbEntity
  8
03__ASM_ALL_CURVES
100
AcDbLine
 62
4
  6
CONTINUOUS
 10
9.4881441385
 20
6.9353883112
 11
9.4808524716
 21
6.9244508112
  0
LINE
  5
3B6
100
AcDbEntity
  8
03__ASM_ALL_CURVES
100
AcDbLine
 62
4
  6
CONTINUOUS
 10
9.4298108034
 20
6.6838258112
 11
9.4371024736
 21
6.6947633112
  0
LINE
  5
3B7
100
AcDbEntity
  8
03__ASM_ALL_CURVES
100
AcDbLine
 62
4
  6
CONTINUOUS
 10
9.4006441385
 20
6.5963258112
 11
9.4079358034
 21
6.6072633112
  0
LINE
  5
3B8
100
AcDbEntity
  8
03__ASM_ALL_CURVES
100
AcDbLine
 62
4
  6
CONTINUOUS
 10
9.4881441385
 20
6.6728883112
 11
9.4808524716
 21
6.6619508112
  0
LINE
  5
3B9
100
AcDbEntity
  8
03__ASM_ALL_CURVES
100
AcDbLine
 62
4
  6
CONTINUOUS
 10
12.0287691385
 20
10.6387737262
 11
12.0342378885
 21
10.6460653963
  0
LINE
  5
3BA
100
AcDbEntity
  8
03__ASM_ALL_CURVES
100
AcDbLine
 62
4
  6
CONTINUOUS
 10
12.0233003885
 20
10.5950237288
 11
12.0342378885
 21
10.6096070612
  0
LINE
  5
3BB
100
AcDbEntity
  8
03__ASM_ALL_CURVES
100
AcDbLine
 62
4
  6
CONTINUOUS
 10
12.0725191385
 20
10.6314820612
 11
12.0670503885
 21
10.6241903963
  0
LINE
  5
3BC
100
AcDbEntity
  8
03__ASM_ALL_CURVES
100
AcDbLine
 62
4
  6
CONTINUOUS
 10
12.0779878885
 20
10.5877320612
 11
12.0670503885
 21
10.5731487281
  0
LINE
  5
3BD
100
AcDbEntity
  8
03__ASM_ALL_CURVES
100
AcDbLine
 62
4
  6
CONTINUOUS
 10
12.1600191385
 20
10.580440395
 11
12.1545503885
 21
10.5731487281
  0
LINE
  5
3BE
100
AcDbEntity
  8
03__ASM_ALL_CURVES
100
AcDbLine
 62
4
  6
CONTINUOUS
 10
12.2311128885
 20
10.580440395
 11
12.2201753885
 21
10.5658570612
  0
LINE
  5
3BF
100
AcDbEntity
  8
03__ASM_ALL_CURVES
100
AcDbLine
 62
4
  6
CONTINUOUS
 10
7.9371024736
 20
6.6947633112
 11
7.9443941385
 21
6.7002320612
  0
LINE
  5
3C0
100
AcDbEntity
  8
03__ASM_ALL_CURVES
100
AcDbLine
 62
4
  6
CONTINUOUS
 10
8.9006441385
 20
7.3728883112
 11
8.9152274736
 21
7.3838258112
  0
LINE
  5
3C1
100
AcDbEntity
  8
03__ASM_ALL_CURVES
100
AcDbLine
 62
4
  6
CONTINUOUS
 10
7.9808524716
 20
6.6619508112
 11
7.9735608047
 21
6.6564820612
  0
LINE
  5
3C2
100
AcDbEntity
  8
03__ASM_ALL_CURVES
100
AcDbLine
 62
4
  6
CONTINUOUS
 10
7.9772066382
 20
6.5170289362
 11
7.9881441385
 21
6.5252320612
  0
LINE
  5
3C3
100
AcDbEntity
  8
03__ASM_ALL_CURVES
100
AcDbLine
 62
4
  6
CONTINUOUS
 10
11.5092378885
 20
9.3340653963
 11
11.5201753885
 21
9.3413570612
  0
LINE
  5
3C4
100
AcDbEntity
  8
03__ASM_ALL_CURVES
100
AcDbLine
 62
4
  6
CONTINUOUS
 10
11.5420503885
 20
9.3121903963
 11
11.5311128885
 21
9.3048987262
  0
LINE
  5
3C5
100
AcDbEntity
  8
03__ASM_ALL_CURVES
100
AcDbLine
 62
4
  6
CONTINUOUS
 10
11.5420503885
 20
9.2611487281
 11
11.5311128885
 21
9.2538570612
  0
LINE
  5
3C6
100
AcDbEntity
  8
03__ASM_ALL_CURVES
100
AcDbLine
 62
4
  6
CONTINUOUS
 10
11.7717378885
 20
9.3340653963
 11
11.7826753885
 21
9.3413570612
  0
LINE
  5
3C7
100
AcDbEntity
  8
03__ASM_ALL_CURVES
100
AcDbLine
 62
4
  6
CONTINUOUS
 10
11.8045503885
 20
9.3121903963
 11
11.7936128885
 21
9.3048987262
  0
LINE
  5
3C8
100
AcDbEntity
  8
03__ASM_ALL_CURVES
100
AcDbLine
 62
4
  6
CONTINUOUS
 10
11.8647066385
 20
9.3340653963
 11
11.8756441385
 21
9.3413570612
  0
LINE
  5
3C9
100
AcDbEntity
  8
03__ASM_ALL_CURVES
100
AcDbLine
 62
4
  6
CONTINUOUS
 10
11.8592378885
 20
9.2976070612
 11
11.8756441385
 21
9.3048987262
  0
LINE
  5
3CA
100
AcDbEntity
  8
03__ASM_ALL_CURVES
100
AcDbLine
 62
4
  6
CONTINUOUS
 10
11.8756441385
 20
9.3048987262
 11
11.8920503885
 21
9.2976070612
  0
LINE
  5
3CB
100
AcDbEntity
  8
03__ASM_ALL_CURVES
100
AcDbLine
 62
4
  6
CONTINUOUS
 10
12.1436128885
 20
8.6223570612
 11
12.1545503885
 21
8.6150653963
  0
LINE
  5
3CC
100
AcDbEntity
  8
03__ASM_ALL_CURVES
100
AcDbLine
 62
4
  6
CONTINUOUS
 10
12.5701753885
 20
8.5348570612
 11
12.5592378885
 21
8.5421487281
  0
LINE
  5
3CD
100
AcDbEntity
  8
03__ASM_ALL_CURVES
100
AcDbLine
 62
4
  6
CONTINUOUS
 10
11.5201753885
 20
9.2538570612
 11
11.5092378885
 21
9.2611487281
  0
LINE
  5
3CE
100
AcDbEntity
  8
03__ASM_ALL_CURVES
100
AcDbLine
 62
4
  6
CONTINUOUS
 10
12.5592378885
 20
8.5931903963
 11
12.5920503885
 21
8.5713153937
  0
LINE
  5
3CF
100
AcDbEntity
  8
03__ASM_ALL_CURVES
100
AcDbLine
 62
4
  6
CONTINUOUS
 10
11.6951753885
 20
8.549440395
 11
11.7061128885
 21
8.5348570612
  0
LINE
  5
3D0
100
AcDbEntity
  8
03__ASM_ALL_CURVES
100
AcDbLine
 62
4
  6
CONTINUOUS
 10
11.2467378885
 20
8.549440395
 11
11.2412691385
 21
8.5640237288
  0
LINE
  5
3D1
100
AcDbEntity
  8
03__ASM_ALL_CURVES
100
AcDbLine
 62
4
  6
CONTINUOUS
 10
11.2795503885
 20
8.6077737262
 11
11.2850191385
 21
8.5931903963
  0
LINE
  5
3D2
100
AcDbEntity
  8
03__ASM_ALL_CURVES
100
AcDbLine
 62
4
  6
CONTINUOUS
 10
11.2412691385
 20
7.8450237288
 11
11.2412691385
 21
7.8741903963
  0
LINE
  5
3D3
100
AcDbEntity
  8
03__ASM_ALL_CURVES
100
AcDbLine
 62
4
  6
CONTINUOUS
 10
11.2412691385
 20
8.5640237288
 11
11.2412691385
 21
8.5931903963
  0
LINE
  5
3D4
100
AcDbEntity
  8
03__ASM_ALL_CURVES
100
AcDbLine
 62
4
  6
CONTINUOUS
 10
11.2631441385
 20
9.3413570612
 11
11.2631441385
 21
9.2538570612
  0
LINE
  5
3D5
100
AcDbEntity
  8
03__ASM_ALL_CURVES
100
AcDbLine
 62
4
  6
CONTINUOUS
 10
11.2795503885
 20
11.9098570612
 11
11.2795503885
 21
11.9973570612
  0
LINE
  5
3D6
100
AcDbEntity
  8
03__ASM_ALL_CURVES
100
AcDbLine
 62
4
  6
CONTINUOUS
 10
11.2850191385
 20
11.3887737262
 11
11.2850191385
 21
11.3814820612
  0
LINE
  5
3D7
100
AcDbEntity
  8
03__ASM_ALL_CURVES
100
AcDbLine
 62
4
  6
CONTINUOUS
 10
11.2850191385
 20
10.6387737262
 11
11.2850191385
 21
10.6241903963
  0
LINE
  5
3D8
100
AcDbEntity
  8
03__ASM_ALL_CURVES
100
AcDbLine
 62
4
  6
CONTINUOUS
 10
11.2850191385
 20
8.5931903963
 11
11.2850191385
 21
8.5640237288
  0
LINE
  5
3D9
100
AcDbEntity
  8
03__ASM_ALL_CURVES
100
AcDbLine
 62
4
  6
CONTINUOUS
 10
11.2850191385
 20
7.8741903963
 11
11.2850191385
 21
7.8450237288
  0
LINE
  5
3DA
100
AcDbEntity
  8
03__ASM_ALL_CURVES
100
AcDbLine
 62
4
  6
CONTINUOUS
 10
11.2904878885
 20
11.3450237288
 11
11.2904878885
 21
11.3377320612
  0
LINE
  5
3DB
100
AcDbEntity
  8
03__ASM_ALL_CURVES
100
AcDbLine
 62
4
  6
CONTINUOUS
 10
11.4272066385
 20
11.4033570612
 11
11.4217378885
 21
11.3668987262
  0
LINE
  5
3DC
100
AcDbEntity
  8
03__ASM_ALL_CURVES
100
AcDbLine
 62
4
  6
CONTINUOUS
 10
11.4381441385
 20
10.5658570612
 11
11.4436128885
 21
10.6023153937
  0
LINE
  5
3DD
100
AcDbEntity
  8
03__ASM_ALL_CURVES
100
AcDbLine
 62
4
  6
CONTINUOUS
 10
11.5147066385
 20
10.6533570612
 11
11.5092378885
 21
10.6168987262
  0
LINE
  5
3DE
100
AcDbEntity
  8
03__ASM_ALL_CURVES
100
AcDbLine
 62
4
  6
CONTINUOUS
 10
11.4436128885
 20
10.6023153937
 11
11.4490816385
 21
10.6241903963
  0
LINE
  5
3DF
100
AcDbEntity
  8
03__ASM_ALL_CURVES
100
AcDbLine
 62
4
  6
CONTINUOUS
 10
12.0287691385
 20
11.3741903963
 11
12.0342378885
 21
11.3887737262
  0
LINE
  5
3E0
100
AcDbEntity
  8
03__ASM_ALL_CURVES
100
AcDbLine
 62
4
  6
CONTINUOUS
 10
11.7662691385
 20
10.6241903963
 11
11.7717378885
 21
10.6387737262
  0
LINE
  5
3E1
100
AcDbEntity
  8
03__ASM_ALL_CURVES
100
AcDbLine
 62
4
  6
CONTINUOUS
 10
11.7662691385
 20
10.5950237288
 11
11.7717378885
 21
10.6096070612
  0
LINE
  5
3E2
100
AcDbEntity
  8
03__ASM_ALL_CURVES
100
AcDbLine
 62
4
  6
CONTINUOUS
 10
12.0725191385
 20
11.3741903963
 11
12.0670503885
 21
11.3596070612
  0
LINE
  5
3E3
100
AcDbEntity
  8
03__ASM_ALL_CURVES
100
AcDbLine
 62
4
  6
CONTINUOUS
 10
12.0725191385
 20
11.3450237288
 11
12.0670503885
 21
11.330440395
  0
LINE
  5
3E4
100
AcDbEntity
  8
03__ASM_ALL_CURVES
100
AcDbLine
 62
4
  6
CONTINUOUS
 10
11.8100191385
 20
10.5950237288
 11
11.8045503885
 21
10.580440395
  0
LINE
  5
3E5
100
AcDbEntity
  8
03__ASM_ALL_CURVES
100
AcDbLine
 62
4
  6
CONTINUOUS
 10
11.8537691385
 20
10.6241903963
 11
11.8592378885
 21
10.6387737262
  0
LINE
  5
3E6
100
AcDbEntity
  8
03__ASM_ALL_CURVES
100
AcDbLine
 62
4
  6
CONTINUOUS
 10
11.8975191385
 20
10.6241903963
 11
11.8920503885
 21
10.6096070612
  0
LINE
  5
3E7
100
AcDbEntity
  8
03__ASM_ALL_CURVES
100
AcDbLine
 62
4
  6
CONTINUOUS
 10
11.4545503885
 20
9.3413570612
 11
11.4162691385
 21
9.2757320612
  0
LINE
  5
3E8
100
AcDbEntity
  8
03__ASM_ALL_CURVES
100
AcDbLine
 62
4
  6
CONTINUOUS
 10
11.5475191385
 20
9.3194820612
 11
11.5420503885
 21
9.3121903963
  0
LINE
  5
3E9
100
AcDbEntity
  8
03__ASM_ALL_CURVES
100
AcDbLine
 62
4
  6
CONTINUOUS
 10
11.5529878885
 20
9.2757320612
 11
11.5420503885
 21
9.2611487281
  0
LINE
  5
3EA
100
AcDbEntity
  8
03__ASM_ALL_CURVES
100
AcDbLine
 62
4
  6
CONTINUOUS
 10
7.9079358034
 20
6.4322633112
 11
7.9152274736
 21
6.4377320612
  0
LINE
  5
3EB
100
AcDbEntity
  8
03__ASM_ALL_CURVES
100
AcDbLine
 62
4
  6
CONTINUOUS
 10
8.9772066382
 20
7.1295289362
 11
8.9881441385
 21
7.1377320612
  0
LINE
  5
3EC
100
AcDbEntity
  8
03__ASM_ALL_CURVES
100
AcDbLine
 62
4
  6
CONTINUOUS
 10
9.4006441385
 20
7.3728883112
 11
9.4152274736
 21
7.3838258112
  0
LINE
  5
3ED
100
AcDbEntity
  8
03__ASM_ALL_CURVES
100
AcDbLine
 62
4
  6
CONTINUOUS
 10
9.4371024736
 20
7.3072633112
 11
9.4443941385
 21
7.3127320612
  0
LINE
  5
3EE
100
AcDbEntity
  8
03__ASM_ALL_CURVES
100
AcDbLine
 62
4
  6
CONTINUOUS
 10
11.8045503885
 20
9.2611487281
 11
11.7936128885
 21
9.2538570612
  0
LINE
  5
3EF
100
AcDbEntity
  8
03__ASM_ALL_CURVES
100
AcDbLine
 62
4
  6
CONTINUOUS
 10
11.8865816385
 20
9.2611487281
 11
11.8756441385
 21
9.2538570612
  0
LINE
  5
3F0
100
AcDbEntity
  8
03__ASM_ALL_CURVES
100
AcDbLine
 62
4
  6
CONTINUOUS
 10
12.0342378885
 20
9.3340653963
 11
12.0451753885
 21
9.3413570612
  0
LINE
  5
3F1
100
AcDbEntity
  8
03__ASM_ALL_CURVES
100
AcDbLine
 62
4
  6
CONTINUOUS
 10
12.0670503885
 20
9.3121903963
 11
12.0561128885
 21
9.3048987262
  0
LINE
  5
3F2
100
AcDbEntity
  8
03__ASM_ALL_CURVES
100
AcDbLine
 62
4
  6
CONTINUOUS
 10
12.1217378885
 20
9.3340653963
 11
12.1326753885
 21
9.3413570612
  0
LINE
  5
3F3
100
AcDbEntity
  8
03__ASM_ALL_CURVES
100
AcDbLine
 62
4
  6
CONTINUOUS
 10
12.0670503885
 20
9.2611487281
 11
12.0561128885
 21
9.2538570612
  0
LINE
  5
3F4
100
AcDbEntity
  8
03__ASM_ALL_CURVES
100
AcDbLine
 62
4
  6
CONTINUOUS
 10
12.1545503885
 20
9.3048987262
 11
12.1326753885
 21
9.2903153937
  0
LINE
  5
3F5
100
AcDbEntity
  8
03__ASM_ALL_CURVES
100
AcDbLine
 62
4
  6
CONTINUOUS
 10
7.9443941385
 20
7.3127320612
 11
7.9589774709
 21
7.3182008112
  0
LINE
  5
3F6
100
AcDbEntity
  8
03__ASM_ALL_CURVES
100
AcDbLine
 62
4
  6
CONTINUOUS
 10
11.5311128885
 20
9.3048987262
 11
11.5420503885
 21
9.2976070612
  0
LINE
  5
3F7
100
AcDbEntity
  8
03__ASM_ALL_CURVES
100
AcDbLine
 62
4
  6
CONTINUOUS
 10
12.5920503885
 20
8.6150653963
 11
12.5811128885
 21
8.6223570612
  0
LINE
  5
3F8
100
AcDbEntity
  8
03__ASM_ALL_CURVES
100
AcDbLine
 62
4
  6
CONTINUOUS
 10
11.5311128885
 20
9.3413570612
 11
11.5420503885
 21
9.3340653963
  0
LINE
  5
3F9
100
AcDbEntity
  8
03__ASM_ALL_CURVES
100
AcDbLine
 62
4
  6
CONTINUOUS
 10
11.7826753885
 20
9.2538570612
 11
11.7717378885
 21
9.2611487281
  0
LINE
  5
3FA
100
AcDbEntity
  8
03__ASM_ALL_CURVES
100
AcDbLine
 62
4
  6
CONTINUOUS
 10
11.7936128885
 20
9.3048987262
 11
11.8045503885
 21
9.2976070612
  0
LINE
  5
3FB
100
AcDbEntity
  8
03__ASM_ALL_CURVES
100
AcDbLine
 62
4
  6
CONTINUOUS
 10
11.8756441385
 20
9.2538570612
 11
11.8647066385
 21
9.2611487281
  0
LINE
  5
3FC
100
AcDbEntity
  8
03__ASM_ALL_CURVES
100
AcDbLine
 62
4
  6
CONTINUOUS
 10
11.7936128885
 20
9.3413570612
 11
11.8045503885
 21
9.3340653963
  0
LINE
  5
3FD
100
AcDbEntity
  8
03__ASM_ALL_CURVES
100
AcDbLine
 62
4
  6
CONTINUOUS
 10
11.8756441385
 20
9.3413570612
 11
11.8865816385
 21
9.3340653963
  0
LINE
  5
3FE
100
AcDbEntity
  8
03__ASM_ALL_CURVES
100
AcDbLine
 62
4
  6
CONTINUOUS
 10
11.8592378885
 20
8.5421487281
 11
11.8483003885
 21
8.5567320612
  0
LINE
  5
3FF
100
AcDbEntity
  8
03__ASM_ALL_CURVES
100
AcDbLine
 62
4
  6
CONTINUOUS
 10
11.8592378885
 20
8.5931903963
 11
11.8537691385
 21
8.6004820612
  0
LINE
  5
400
100
AcDbEntity
  8
03__ASM_ALL_CURVES
100
AcDbLine
 62
4
  6
CONTINUOUS
 10
11.3643160135
 20
9.2647945616
 11
11.3725191385
 21
9.2538570612
  0
LINE
  5
401
100
AcDbEntity
  8
03__ASM_ALL_CURVES
100
AcDbLine
 62
4
  6
CONTINUOUS
 10
11.8920503885
 20
8.5786070612
 11
11.9029878885
 21
8.5640237288
  0
LINE
  5
402
100
AcDbEntity
  8
03__ASM_ALL_CURVES
100
AcDbLine
 62
4
  6
CONTINUOUS
 10
11.8920503885
 20
8.6150653963
 11
11.8975191385
 21
8.6077737262
  0
LINE
  5
403
100
AcDbEntity
  8
03__ASM_ALL_CURVES
100
AcDbLine
 62
4
  6
CONTINUOUS
 10
11.9768160135
 20
8.5457945616
 11
11.9850191385
 21
8.5348570612
  0
LINE
  5
404
100
AcDbEntity
  8
03__ASM_ALL_CURVES
100
AcDbLine
 62
4
  6
CONTINUOUS
 10
12.0397066385
 20
8.5421487281
 11
12.0342378885
 21
8.549440395
  0
LINE
  5
405
100
AcDbEntity
  8
03__ASM_ALL_CURVES
100
AcDbLine
 62
4
  6
CONTINUOUS
 10
11.3643160135
 20
8.5348570612
 11
11.3643160135
 21
8.5457945616
  0
LINE
  5
406
100
AcDbEntity
  8
03__ASM_ALL_CURVES
100
AcDbLine
 62
4
  6
CONTINUOUS
 10
11.3643160135
 20
9.2538570612
 11
11.3643160135
 21
9.2647945616
  0
LINE
  5
407
100
AcDbEntity
  8
03__ASM_ALL_CURVES
100
AcDbLine
 62
4
  6
CONTINUOUS
 10
11.3643160135
 20
10.5658570612
 11
11.3643160135
 21
10.5767945616
  0
LINE
  5
408
100
AcDbEntity
  8
03__ASM_ALL_CURVES
100
AcDbLine
 62
4
  6
CONTINUOUS
 10
11.3643160135
 20
11.3158570612
 11
11.3643160135
 21
11.3267945616
  0
LINE
  5
409
100
AcDbEntity
  8
03__ASM_ALL_CURVES
100
AcDbLine
 62
4
  6
CONTINUOUS
 10
11.3643160135
 20
11.9098570612
 11
11.3643160135
 21
11.9207945616
  0
LINE
  5
40A
100
AcDbEntity
  8
03__ASM_ALL_CURVES
100
AcDbLine
 62
4
  6
CONTINUOUS
 10
11.4162691385
 20
11.9390237288
 11
11.4162691385
 21
11.9681903963
  0
LINE
  5
40B
100
AcDbEntity
  8
03__ASM_ALL_CURVES
100
AcDbLine
 62
4
  6
CONTINUOUS
 10
11.4545503885
 20
9.2538570612
 11
11.4545503885
 21
9.3413570612
  0
LINE
  5
40C
100
AcDbEntity
  8
03__ASM_ALL_CURVES
100
AcDbLine
 62
4
  6
CONTINUOUS
 10
11.4600191385
 20
11.9681903963
 11
11.4600191385
 21
11.9390237288
  0
LINE
  5
40D
100
AcDbEntity
  8
03__ASM_ALL_CURVES
100
AcDbLine
 62
4
  6
CONTINUOUS
 10
11.5256441385
 20
8.6223570612
 11
11.5256441385
 21
8.5348570612
  0
LINE
  5
40E
100
AcDbEntity
  8
03__ASM_ALL_CURVES
100
AcDbLine
 62
4
  6
CONTINUOUS
 10
11.4381441385
 20
8.5348570612
 11
11.4436128885
 21
8.5713153937
  0
LINE
  5
40F
100
AcDbEntity
  8
03__ASM_ALL_CURVES
100
AcDbLine
 62
4
  6
CONTINUOUS
 10
11.6951753885
 20
10.6387737262
 11
11.6897066385
 21
10.6168987262
  0
LINE
  5
410
100
AcDbEntity
  8
03__ASM_ALL_CURVES
100
AcDbLine
 62
4
  6
CONTINUOUS
 10
11.8975191385
 20
10.5950237288
 11
11.8920503885
 21
10.580440395
  0
LINE
  5
411
100
AcDbEntity
  8
03__ASM_ALL_CURVES
100
AcDbLine
 62
4
  6
CONTINUOUS
 10
11.2412691385
 20
8.5931903963
 11
11.2467378885
 21
8.6077737262
  0
LINE
  5
412
100
AcDbEntity
  8
03__ASM_ALL_CURVES
100
AcDbLine
 62
4
  6
CONTINUOUS
 10
11.2850191385
 20
8.5640237288
 11
11.2795503885
 21
8.549440395
  0
LINE
  5
413
100
AcDbEntity
  8
03__ASM_ALL_CURVES
100
AcDbLine
 62
4
  6
CONTINUOUS
 10
11.7061128885
 20
9.3413570612
 11
11.6951753885
 21
9.3267737262
  0
LINE
  5
414
100
AcDbEntity
  8
03__ASM_ALL_CURVES
100
AcDbLine
 62
4
  6
CONTINUOUS
 10
11.2467378885
 20
8.6077737262
 11
11.2522066385
 21
8.6150653963
  0
LINE
  5
415
100
AcDbEntity
  8
03__ASM_ALL_CURVES
100
AcDbLine
 62
4
  6
CONTINUOUS
 10
11.8100191385
 20
9.3194820612
 11
11.8045503885
 21
9.3121903963
  0
LINE
  5
416
100
AcDbEntity
  8
03__ASM_ALL_CURVES
100
AcDbLine
 62
4
  6
CONTINUOUS
 10
11.8154878885
 20
9.2757320612
 11
11.8045503885
 21
9.2611487281
  0
LINE
  5
417
100
AcDbEntity
  8
03__ASM_ALL_CURVES
100
AcDbLine
 62
4
  6
CONTINUOUS
 10
11.8592378885
 20
9.3267737262
 11
11.8647066385
 21
9.3340653963
  0
LINE
  5
418
100
AcDbEntity
  8
03__ASM_ALL_CURVES
100
AcDbLine
 62
4
  6
CONTINUOUS
 10
11.2795503885
 20
8.549440395
 11
11.2740816385
 21
8.5421487281
  0
LINE
  5
419
100
AcDbEntity
  8
03__ASM_ALL_CURVES
100
AcDbLine
 62
4
  6
CONTINUOUS
 10
11.8920503885
 20
9.268440395
 11
11.8865816385
 21
9.2611487281
  0
LINE
  5
41A
100
AcDbEntity
  8
03__ASM_ALL_CURVES
100
AcDbLine
 62
4
  6
CONTINUOUS
 10
9.4808524716
 20
7.2744508112
 11
9.4735608047
 21
7.2689820612
  0
LINE
  5
41B
100
AcDbEntity
  8
03__ASM_ALL_CURVES
100
AcDbLine
 62
4
  6
CONTINUOUS
 10
8.9735608047
 20
6.8478883112
 11
8.9881441385
 21
6.8588258112
  0
LINE
  5
41C
100
AcDbEntity
  8
03__ASM_ALL_CURVES
100
AcDbLine
 62
4
  6
CONTINUOUS
 10
9.4772066382
 20
7.1295289362
 11
9.4881441385
 21
7.1377320612
  0
LINE
  5
41D
100
AcDbEntity
  8
03__ASM_ALL_CURVES
100
AcDbLine
 62
4
  6
CONTINUOUS
 10
8.9371024736
 20
6.6947633112
 11
8.9443941385
 21
6.7002320612
  0
LINE
  5
41E
100
AcDbEntity
  8
03__ASM_ALL_CURVES
100
AcDbLine
 62
4
  6
CONTINUOUS
 10
8.9808524716
 20
6.6619508112
 11
8.9735608047
 21
6.6564820612
  0
LINE
  5
41F
100
AcDbEntity
  8
03__ASM_ALL_CURVES
100
AcDbLine
 62
4
  6
CONTINUOUS
 10
11.2522066385
 20
8.6150653963
 11
11.2631441385
 21
8.6223570612
  0
LINE
  5
420
100
AcDbEntity
  8
03__ASM_ALL_CURVES
100
AcDbLine
 62
4
  6
CONTINUOUS
 10
11.2740816385
 20
8.5421487281
 11
11.2631441385
 21
8.5348570612
  0
LINE
  5
421
100
AcDbEntity
  8
03__ASM_ALL_CURVES
100
AcDbLine
 62
4
  6
CONTINUOUS
 10
7.9152274736
 20
7.0447633112
 11
7.9298108034
 21
7.0502320612
  0
LINE
  5
422
100
AcDbEntity
  8
03__ASM_ALL_CURVES
100
AcDbLine
 62
4
  6
CONTINUOUS
 10
7.9443941385
 20
7.0119508112
 11
7.9298108034
 21
7.0064820612
  0
LINE
  5
423
100
AcDbEntity
  8
03__ASM_ALL_CURVES
100
AcDbLine
 62
4
  6
CONTINUOUS
 10
12.0451753885
 20
9.2538570612
 11
12.0342378885
 21
9.2611487281
  0
LINE
  5
424
100
AcDbEntity
  8
03__ASM_ALL_CURVES
100
AcDbLine
 62
4
  6
CONTINUOUS
 10
12.0561128885
 20
9.3048987262
 11
12.0670503885
 21
9.2976070612
  0
LINE
  5
425
100
AcDbEntity
  8
03__ASM_ALL_CURVES
100
AcDbLine
 62
4
  6
CONTINUOUS
 10
12.0561128885
 20
9.3413570612
 11
12.0670503885
 21
9.3340653963
  0
LINE
  5
426
100
AcDbEntity
  8
03__ASM_ALL_CURVES
100
AcDbLine
 62
4
  6
CONTINUOUS
 10
12.1436128885
 20
9.3413570612
 11
12.1545503885
 21
9.3340653963
  0
LINE
  5
427
100
AcDbEntity
  8
03__ASM_ALL_CURVES
100
AcDbLine
 62
4
  6
CONTINUOUS
 10
11.5092378885
 20
9.2611487281
 11
11.5037691385
 21
9.268440395
  0
LINE
  5
428
100
AcDbEntity
  8
03__ASM_ALL_CURVES
100
AcDbLine
 62
4
  6
CONTINUOUS
 10
11.5420503885
 20
9.2976070612
 11
11.5529878885
 21
9.2830237288
  0
LINE
  5
429
100
AcDbEntity
  8
03__ASM_ALL_CURVES
100
AcDbLine
 62
4
  6
CONTINUOUS
 10
12.0615816385
 20
8.6150653963
 11
12.0670503885
 21
8.6077737262
  0
LINE
  5
42A
100
AcDbEntity
  8
03__ASM_ALL_CURVES
100
AcDbLine
 62
4
  6
CONTINUOUS
 10
12.1217378885
 20
8.5421487281
 11
12.1162691385
 21
8.549440395
  0
LINE
  5
42B
100
AcDbEntity
  8
03__ASM_ALL_CURVES
100
AcDbLine
 62
4
  6
CONTINUOUS
 10
11.5420503885
 20
9.3340653963
 11
11.5475191385
 21
9.3267737262
  0
LINE
  5
42C
100
AcDbEntity
  8
03__ASM_ALL_CURVES
100
AcDbLine
 62
4
  6
CONTINUOUS
 10
12.1545503885
 20
8.5786070612
 11
12.1654878885
 21
8.5640237288
  0
LINE
  5
42D
100
AcDbEntity
  8
03__ASM_ALL_CURVES
100
AcDbLine
 62
4
  6
CONTINUOUS
 10
12.1545503885
 20
8.6150653963
 11
12.1600191385
 21
8.6077737262
  0
LINE
  5
42E
100
AcDbEntity
  8
03__ASM_ALL_CURVES
100
AcDbLine
 62
4
  6
CONTINUOUS
 10
11.6951753885
 20
9.268440395
 11
11.7061128885
 21
9.2538570612
  0
LINE
  5
42F
100
AcDbEntity
  8
03__ASM_ALL_CURVES
100
AcDbLine
 62
4
  6
CONTINUOUS
 10
12.2201753885
 20
8.6223570612
 11
12.2311128885
 21
8.6077737262
  0
LINE
  5
430
100
AcDbEntity
  8
03__ASM_ALL_CURVES
100
AcDbLine
 62
4
  6
CONTINUOUS
 10
11.7717378885
 20
9.2611487281
 11
11.7662691385
 21
9.268440395
  0
LINE
  5
431
100
AcDbEntity
  8
03__ASM_ALL_CURVES
100
AcDbLine
 62
4
  6
CONTINUOUS
 10
11.6897066385
 20
8.5713153937
 11
11.6951753885
 21
8.549440395
  0
LINE
  5
432
100
AcDbEntity
  8
03__ASM_ALL_CURVES
100
AcDbLine
 62
4
  6
CONTINUOUS
 10
11.5475191385
 20
11.9681903963
 11
11.5475191385
 21
11.9390237288
  0
LINE
  5
433
100
AcDbEntity
  8
03__ASM_ALL_CURVES
100
AcDbLine
 62
4
  6
CONTINUOUS
 10
11.5475191385
 20
9.3267737262
 11
11.5475191385
 21
9.3194820612
  0
LINE
  5
434
100
AcDbEntity
  8
03__ASM_ALL_CURVES
100
AcDbLine
 62
4
  6
CONTINUOUS
 10
11.5529878885
 20
9.2830237288
 11
11.5529878885
 21
9.2757320612
  0
LINE
  5
435
100
AcDbEntity
  8
03__ASM_ALL_CURVES
100
AcDbLine
 62
4
  6
CONTINUOUS
 10
11.6022066385
 20
11.3668987262
 11
11.6022066385
 21
11.3523153937
  0
LINE
  5
436
100
AcDbEntity
  8
03__ASM_ALL_CURVES
100
AcDbLine
 62
4
  6
CONTINUOUS
 10
11.6733003885
 20
11.3377320612
 11
11.6733003885
 21
11.3450237288
  0
LINE
  5
437
100
AcDbEntity
  8
03__ASM_ALL_CURVES
100
AcDbLine
 62
4
  6
CONTINUOUS
 10
11.6787691385
 20
11.3814820612
 11
11.6787691385
 21
11.3887737262
  0
LINE
  5
438
100
AcDbEntity
  8
03__ASM_ALL_CURVES
100
AcDbLine
 62
4
  6
CONTINUOUS
 10
11.6897066385
 20
11.9608987262
 11
11.6897066385
 21
11.9463153937
  0
LINE
  5
439
100
AcDbEntity
  8
03__ASM_ALL_CURVES
100
AcDbLine
 62
4
  6
CONTINUOUS
 10
11.6897066385
 20
10.6168987262
 11
11.6897066385
 21
10.6023153937
  0
LINE
  5
43A
100
AcDbEntity
  8
03__ASM_ALL_CURVES
100
AcDbLine
 62
4
  6
CONTINUOUS
 10
11.6897066385
 20
9.3048987262
 11
11.6897066385
 21
9.2903153937
  0
LINE
  5
43B
100
AcDbEntity
  8
03__ASM_ALL_CURVES
100
AcDbLine
 62
4
  6
CONTINUOUS
 10
11.6897066385
 20
8.5858987262
 11
11.6897066385
 21
8.5713153937
  0
LINE
  5
43C
100
AcDbEntity
  8
03__ASM_ALL_CURVES
100
AcDbLine
 62
4
  6
CONTINUOUS
 10
11.7225191385
 20
11.3887737262
 11
11.7225191385
 21
11.3814820612
  0
LINE
  5
43D
100
AcDbEntity
  8
03__ASM_ALL_CURVES
100
AcDbLine
 62
4
  6
CONTINUOUS
 10
11.7279878885
 20
11.3450237288
 11
11.7279878885
 21
11.3377320612
  0
LINE
  5
43E
100
AcDbEntity
  8
03__ASM_ALL_CURVES
100
AcDbLine
 62
4
  6
CONTINUOUS
 10
11.7608003885
 20
11.3377320612
 11
11.7608003885
 21
11.3450237288
  0
LINE
  5
43F
100
AcDbEntity
  8
03__ASM_ALL_CURVES
100
AcDbLine
 62
4
  6
CONTINUOUS
 10
11.7662691385
 20
10.5950237288
 11
11.7662691385
 21
10.6241903963
  0
LINE
  5
440
100
AcDbEntity
  8
03__ASM_ALL_CURVES
100
AcDbLine
 62
4
  6
CONTINUOUS
 10
11.7662691385
 20
11.3814820612
 11
11.7662691385
 21
11.3887737262
  0
LINE
  5
441
100
AcDbEntity
  8
03__ASM_ALL_CURVES
100
AcDbLine
 62
4
  6
CONTINUOUS
 10
11.7881441385
 20
11.9973570612
 11
11.7881441385
 21
11.9098570612
  0
LINE
  5
442
100
AcDbEntity
  8
03__ASM_ALL_CURVES
100
AcDbLine
 62
4
  6
CONTINUOUS
 10
11.7881441385
 20
8.6223570612
 11
11.7881441385
 21
8.5348570612
  0
LINE
  5
443
100
AcDbEntity
  8
03__ASM_ALL_CURVES
100
AcDbLine
 62
4
  6
CONTINUOUS
 10
11.4436128885
 20
8.5713153937
 11
11.4490816385
 21
8.5931903963
  0
LINE
  5
444
100
AcDbEntity
  8
03__ASM_ALL_CURVES
100
AcDbLine
 62
4
  6
CONTINUOUS
 10
12.1490816385
 20
11.3523153937
 11
12.1436128885
 21
11.330440395
  0
LINE
  5
445
100
AcDbEntity
  8
03__ASM_ALL_CURVES
100
AcDbLine
 62
4
  6
CONTINUOUS
 10
12.3240816385
 20
11.9463153937
 11
12.3186128885
 21
11.924440395
  0
LINE
  5
446
100
AcDbEntity
  8
03__ASM_ALL_CURVES
100
AcDbLine
 62
4
  6
CONTINUOUS
 10
11.6951753885
 20
9.3267737262
 11
11.6897066385
 21
9.3048987262
  0
LINE
  5
447
100
AcDbEntity
  8
03__ASM_ALL_CURVES
100
AcDbLine
 62
4
  6
CONTINUOUS
 10
12.1654878885
 20
10.5950237288
 11
12.1600191385
 21
10.580440395
  0
LINE
  5
448
100
AcDbEntity
  8
03__ASM_ALL_CURVES
100
AcDbLine
 62
4
  6
CONTINUOUS
 10
11.4490816385
 20
8.5931903963
 11
11.4600191385
 21
8.6223570612
  0
LINE
  5
449
100
AcDbEntity
  8
03__ASM_ALL_CURVES
100
AcDbLine
 62
4
  6
CONTINUOUS
 10
11.2412691385
 20
7.8741903963
 11
11.2467378885
 21
7.8887737262
  0
LINE
  5
44A
100
AcDbEntity
  8
03__ASM_ALL_CURVES
100
AcDbLine
 62
4
  6
CONTINUOUS
 10
11.2850191385
 20
7.8450237288
 11
11.2795503885
 21
7.830440395
  0
LINE
  5
44B
100
AcDbEntity
  8
03__ASM_ALL_CURVES
100
AcDbLine
 62
4
  6
CONTINUOUS
 10
11.8537691385
 20
9.3121903963
 11
11.8592378885
 21
9.3267737262
  0
LINE
  5
44C
100
AcDbEntity
  8
03__ASM_ALL_CURVES
100
AcDbLine
 62
4
  6
CONTINUOUS
 10
11.8537691385
 20
9.2830237288
 11
11.8592378885
 21
9.2976070612
  0
LINE
  5
44D
100
AcDbEntity
  8
03__ASM_ALL_CURVES
100
AcDbLine
 62
4
  6
CONTINUOUS
 10
11.8975191385
 20
9.2830237288
 11
11.8920503885
 21
9.268440395
  0
LINE
  5
44E
100
AcDbEntity
  8
03__ASM_ALL_CURVES
100
AcDbLine
 62
4
  6
CONTINUOUS
 10
10.6506441385
 20
7.2908570612
 11
10.6579358034
 21
7.3017945612
  0
LINE
  5
44F
100
AcDbEntity
  8
03__ASM_ALL_CURVES
100
AcDbLine
 62
4
  6
CONTINUOUS
 10
10.7381441385
 20
7.2908570612
 11
10.7308524716
 21
7.2799195612
  0
LINE
  5
450
100
AcDbEntity
  8
03__ASM_ALL_CURVES
100
AcDbLine
 62
4
  6
CONTINUOUS
 10
12.0725191385
 20
9.3194820612
 11
12.0670503885
 21
9.3121903963
  0
LINE
  5
451
100
AcDbEntity
  8
03__ASM_ALL_CURVES
100
AcDbLine
 62
4
  6
CONTINUOUS
 10
12.0779878885
 20
9.2757320612
 11
12.0670503885
 21
9.2611487281
  0
LINE
  5
452
100
AcDbEntity
  8
03__ASM_ALL_CURVES
100
AcDbLine
 62
4
  6
CONTINUOUS
 10
12.1162691385
 20
9.3267737262
 11
12.1217378885
 21
9.3340653963
  0
LINE
  5
453
100
AcDbEntity
  8
03__ASM_ALL_CURVES
100
AcDbLine
 62
4
  6
CONTINUOUS
 10
12.1326753885
 20
9.2903153937
 11
12.1217378885
 21
9.2757320612
  0
LINE
  5
454
100
AcDbEntity
  8
03__ASM_ALL_CURVES
100
AcDbLine
 62
4
  6
CONTINUOUS
 10
12.1600191385
 20
9.3121903963
 11
12.1545503885
 21
9.3048987262
  0
LINE
  5
455
100
AcDbEntity
  8
03__ASM_ALL_CURVES
100
AcDbLine
 62
4
  6
CONTINUOUS
 10
11.7061128885
 20
8.6223570612
 11
11.6951753885
 21
8.6077737262
  0
LINE
  5
456
100
AcDbEntity
  8
03__ASM_ALL_CURVES
100
AcDbLine
 62
4
  6
CONTINUOUS
 10
9.4079358034
 20
6.9572633112
 11
9.4152274736
 21
6.9627320612
  0
LINE
  5
457
100
AcDbEntity
  8
03__ASM_ALL_CURVES
100
AcDbLine
 62
4
  6
CONTINUOUS
 10
9.4443941385
 20
6.9572633112
 11
9.4589774709
 21
6.9682008112
  0
LINE
  5
458
100
AcDbEntity
  8
03__ASM_ALL_CURVES
100
AcDbLine
 62
4
  6
CONTINUOUS
 10
9.4808524716
 20
6.9244508112
 11
9.4735608047
 21
6.9189820612
  0
LINE
  5
459
100
AcDbEntity
  8
03__ASM_ALL_CURVES
100
AcDbLine
 62
4
  6
CONTINUOUS
 10
8.9772066382
 20
6.5170289362
 11
8.9881441385
 21
6.5252320612
  0
LINE
  5
45A
100
AcDbEntity
  8
03__ASM_ALL_CURVES
100
AcDbLine
 62
4
  6
CONTINUOUS
 10
9.4735608047
 20
6.8478883112
 11
9.4881441385
 21
6.8588258112
  0
LINE
  5
45B
100
AcDbEntity
  8
03__ASM_ALL_CURVES
100
AcDbLine
 62
4
  6
CONTINUOUS
 10
9.4371024736
 20
6.6947633112
 11
9.4443941385
 21
6.7002320612
  0
LINE
  5
45C
100
AcDbEntity
  8
03__ASM_ALL_CURVES
100
AcDbLine
 62
4
  6
CONTINUOUS
 10
11.8592378885
 20
8.6150653963
 11
11.8701753885
 21
8.6223570612
  0
LINE
  5
45D
100
AcDbEntity
  8
03__ASM_ALL_CURVES
100
AcDbLine
 62
4
  6
CONTINUOUS
 10
11.8592378885
 20
8.5786070612
 11
11.8701753885
 21
8.5858987262
  0
LINE
  5
45E
100
AcDbEntity
  8
03__ASM_ALL_CURVES
100
AcDbLine
 62
4
  6
CONTINUOUS
 10
11.8920503885
 20
8.5931903963
 11
11.8811128885
 21
8.5858987262
  0
LINE
  5
45F
100
AcDbEntity
  8
03__ASM_ALL_CURVES
100
AcDbLine
 62
4
  6
CONTINUOUS
 10
11.8920503885
 20
8.5421487281
 11
11.8811128885
 21
8.5348570612
  0
LINE
  5
460
100
AcDbEntity
  8
03__ASM_ALL_CURVES
100
AcDbLine
 62
4
  6
CONTINUOUS
 10
12.0397066385
 20
8.6150653963
 11
12.0506441385
 21
8.6223570612
  0
LINE
  5
461
100
AcDbEntity
  8
03__ASM_ALL_CURVES
100
AcDbLine
 62
4
  6
CONTINUOUS
 10
12.1217378885
 20
8.6150653963
 11
12.1326753885
 21
8.6223570612
  0
LINE
  5
462
100
AcDbEntity
  8
03__ASM_ALL_CURVES
100
AcDbLine
 62
4
  6
CONTINUOUS
 10
7.9443941385
 20
6.9572633112
 11
7.9589774709
 21
6.9627320612
  0
LINE
  5
463
100
AcDbEntity
  8
03__ASM_ALL_CURVES
100
AcDbLine
 62
4
  6
CONTINUOUS
 10
7.9735608047
 20
6.9244508112
 11
7.9589774709
 21
6.9189820612
  0
LINE
  5
464
100
AcDbEntity
  8
03__ASM_ALL_CURVES
100
AcDbLine
 62
4
  6
CONTINUOUS
 10
9.4443941385
 20
7.3127320612
 11
9.4589774709
 21
7.3182008112
  0
LINE
  5
465
100
AcDbEntity
  8
03__ASM_ALL_CURVES
100
AcDbLine
 62
4
  6
CONTINUOUS
 10
12.1436128885
 20
10.5658570612
 11
12.1326753885
 21
10.5658570612
  0
LINE
  5
466
100
AcDbEntity
  8
03__ASM_ALL_CURVES
100
AcDbLine
 62
4
  6
CONTINUOUS
 10
12.0561128885
 20
10.5658570612
 11
12.0451753885
 21
10.5658570612
  0
LINE
  5
467
100
AcDbEntity
  8
03__ASM_ALL_CURVES
100
AcDbLine
 62
4
  6
CONTINUOUS
 10
11.9850191385
 20
10.5658570612
 11
11.9768160135
 21
10.5658570612
  0
LINE
  5
468
100
AcDbEntity
  8
03__ASM_ALL_CURVES
100
AcDbLine
 62
4
  6
CONTINUOUS
 10
11.5311128885
 20
10.5658570612
 11
11.5201753885
 21
10.5658570612
  0
LINE
  5
469
100
AcDbEntity
  8
03__ASM_ALL_CURVES
100
AcDbLine
 62
4
  6
CONTINUOUS
 10
11.3725191385
 20
10.5658570612
 11
11.3643160135
 21
10.5658570612
  0
LINE
  5
46A
100
AcDbEntity
  8
03__ASM_ALL_CURVES
100
AcDbLine
 62
4
  6
CONTINUOUS
 10
11.2412691385
 20
10.5658570612
 11
11.2850191385
 21
10.5658570612
  0
LINE
  5
46B
100
AcDbEntity
  8
03__ASM_ALL_CURVES
100
AcDbLine
 62
4
  6
CONTINUOUS
 10
10.7818941385
 20
10.6096070612
 11
11.0443941385
 21
10.6096070612
  0
LINE
  5
46C
100
AcDbEntity
  8
03__ASM_ALL_CURVES
100
AcDbLine
 62
4
  6
CONTINUOUS
 10
12.0451753885
 20
10.6168987262
 11
12.0561128885
 21
10.6168987262
  0
LINE
  5
46D
100
AcDbEntity
  8
03__ASM_ALL_CURVES
100
AcDbLine
 62
4
  6
CONTINUOUS
 10
11.5201753885
 20
10.6241903963
 11
11.5311128885
 21
10.6241903963
  0
LINE
  5
46E
100
AcDbEntity
  8
03__ASM_ALL_CURVES
100
AcDbLine
 62
4
  6
CONTINUOUS
 10
12.1326753885
 20
10.6241903963
 11
12.1436128885
 21
10.6241903963
  0
LINE
  5
46F
100
AcDbEntity
  8
03__ASM_ALL_CURVES
100
AcDbLine
 62
4
  6
CONTINUOUS
 10
12.1600191385
 20
10.6533570612
 11
12.1272066385
 21
10.6533570612
  0
LINE
  5
470
100
AcDbEntity
  8
03__ASM_ALL_CURVES
100
AcDbLine
 62
4
  6
CONTINUOUS
 10
11.5475191385
 20
10.6533570612
 11
11.5147066385
 21
10.6533570612
  0
LINE
  5
471
100
AcDbEntity
  8
03__ASM_ALL_CURVES
100
AcDbLine
 62
4
  6
CONTINUOUS
 10
11.4600191385
 20
10.6533570612
 11
11.4162691385
 21
10.6533570612
  0
LINE
  5
472
100
AcDbEntity
  8
03__ASM_ALL_CURVES
100
AcDbLine
 62
4
  6
CONTINUOUS
 10
11.2576753885
 20
10.6533570612
 11
11.2686128885
 21
10.6533570612
  0
LINE
  5
473
100
AcDbEntity
  8
03__ASM_ALL_CURVES
100
AcDbLine
 62
4
  6
CONTINUOUS
 10
12.0451753885
 20
10.6533570612
 11
12.0561128885
 21
10.6533570612
  0
LINE
  5
474
100
AcDbEntity
  8
03__ASM_ALL_CURVES
100
AcDbLine
 62
4
  6
CONTINUOUS
 10
11.8045503885
 20
9.2976070612
 11
11.8154878885
 21
9.2830237288
  0
LINE
  5
475
100
AcDbEntity
  8
03__ASM_ALL_CURVES
100
AcDbLine
 62
4
  6
CONTINUOUS
 10
11.8045503885
 20
9.3340653963
 11
11.8100191385
 21
9.3267737262
  0
LINE
  5
476
100
AcDbEntity
  8
03__ASM_ALL_CURVES
100
AcDbLine
 62
4
  6
CONTINUOUS
 10
12.3951753885
 20
8.549440395
 11
12.4061128885
 21
8.5348570612
  0
LINE
  5
477
100
AcDbEntity
  8
03__ASM_ALL_CURVES
100
AcDbLine
 62
4
  6
CONTINUOUS
 10
11.8647066385
 20
9.2611487281
 11
11.8592378885
 21
9.268440395
  0
LINE
  5
478
100
AcDbEntity
  8
03__ASM_ALL_CURVES
100
AcDbLine
 62
4
  6
CONTINUOUS
 10
11.8865816385
 20
9.3340653963
 11
11.8920503885
 21
9.3267737262
  0
LINE
  5
479
100
AcDbEntity
  8
03__ASM_ALL_CURVES
100
AcDbLine
 62
4
  6
CONTINUOUS
 10
11.9768160135
 20
9.2647945616
 11
11.9850191385
 21
9.2538570612
  0
LINE
  5
47A
100
AcDbEntity
  8
03__ASM_ALL_CURVES
100
AcDbLine
 62
4
  6
CONTINUOUS
 10
12.5592378885
 20
8.5421487281
 11
12.5483003885
 21
8.5567320612
  0
LINE
  5
47B
100
AcDbEntity
  8
03__ASM_ALL_CURVES
100
AcDbLine
 62
4
  6
CONTINUOUS
 10
12.0342378885
 20
9.2611487281
 11
12.0287691385
 21
9.268440395
  0
LINE
  5
47C
100
AcDbEntity
  8
03__ASM_ALL_CURVES
100
AcDbLine
 62
4
  6
CONTINUOUS
 10
12.5537691385
 20
8.6004820612
 11
12.5592378885
 21
8.5931903963
  0
LINE
  5
47D
100
AcDbEntity
  8
03__ASM_ALL_CURVES
100
AcDbLine
 62
4
  6
CONTINUOUS
 10
12.5920503885
 20
8.5713153937
 11
12.5975191385
 21
8.5640237288
  0
LINE
  5
47E
100
AcDbEntity
  8
03__ASM_ALL_CURVES
100
AcDbLine
 62
4
  6
CONTINUOUS
 10
12.0670503885
 20
9.2976070612
 11
12.0779878885
 21
9.2830237288
  0
LINE
  5
47F
100
AcDbEntity
  8
03__ASM_ALL_CURVES
100
AcDbLine
 62
4
  6
CONTINUOUS
 10
12.5975191385
 20
8.6077737262
 11
12.5920503885
 21
8.6150653963
  0
LINE
  5
480
100
AcDbEntity
  8
03__ASM_ALL_CURVES
100
AcDbLine
 62
4
  6
CONTINUOUS
 10
12.0342378885
 20
8.549440395
 11
12.0287691385
 21
8.5640237288
  0
LINE
  5
481
100
AcDbEntity
  8
03__ASM_ALL_CURVES
100
AcDbLine
 62
4
  6
CONTINUOUS
 10
12.0670503885
 20
8.6077737262
 11
12.0725191385
 21
8.5931903963
  0
LINE
  5
482
100
AcDbEntity
  8
03__ASM_ALL_CURVES
100
AcDbLine
 62
4
  6
CONTINUOUS
 10
11.8592378885
 20
9.268440395
 11
11.8537691385
 21
9.2830237288
  0
LINE
  5
483
100
AcDbEntity
  8
03__ASM_ALL_CURVES
100
AcDbLine
 62
4
  6
CONTINUOUS
 10
11.6897066385
 20
9.2903153937
 11
11.6951753885
 21
9.268440395
  0
LINE
  5
484
100
AcDbEntity
  8
03__ASM_ALL_CURVES
100
AcDbLine
 62
4
  6
CONTINUOUS
 10
11.8100191385
 20
11.3887737262
 11
11.8100191385
 21
11.3814820612
  0
LINE
  5
485
100
AcDbEntity
  8
03__ASM_ALL_CURVES
100
AcDbLine
 62
4
  6
CONTINUOUS
 10
11.8100191385
 20
9.3267737262
 11
11.8100191385
 21
9.3194820612
  0
LINE
  5
486
100
AcDbEntity
  8
03__ASM_ALL_CURVES
100
AcDbLine
 62
4
  6
CONTINUOUS
 10
11.8154878885
 20
11.3450237288
 11
11.8154878885
 21
11.3377320612
  0
LINE
  5
487
100
AcDbEntity
  8
03__ASM_ALL_CURVES
100
AcDbLine
 62
4
  6
CONTINUOUS
 10
11.8154878885
 20
9.2830237288
 11
11.8154878885
 21
9.2757320612
  0
LINE
  5
488
100
AcDbEntity
  8
03__ASM_ALL_CURVES
100
AcDbLine
 62
4
  6
CONTINUOUS
 10
11.8483003885
 20
8.5567320612
 11
11.8483003885
 21
8.5640237288
  0
LINE
  5
489
100
AcDbEntity
  8
03__ASM_ALL_CURVES
100
AcDbLine
 62
4
  6
CONTINUOUS
 10
11.8537691385
 20
8.6004820612
 11
11.8537691385
 21
8.6077737262
  0
LINE
  5
48A
100
AcDbEntity
  8
03__ASM_ALL_CURVES
100
AcDbLine
 62
4
  6
CONTINUOUS
 10
11.8537691385
 20
9.2830237288
 11
11.8537691385
 21
9.3121903963
  0
LINE
  5
48B
100
AcDbEntity
  8
03__ASM_ALL_CURVES
100
AcDbLine
 62
4
  6
CONTINUOUS
 10
11.8537691385
 20
11.9390237288
 11
11.8537691385
 21
11.9681903963
  0
LINE
  5
48C
100
AcDbEntity
  8
03__ASM_ALL_CURVES
100
AcDbLine
 62
4
  6
CONTINUOUS
 10
11.8893160135
 20
11.3158570612
 11
11.8893160135
 21
11.3267945616
  0
LINE
  5
48D
100
AcDbEntity
  8
03__ASM_ALL_CURVES
100
AcDbLine
 62
4
  6
CONTINUOUS
 10
11.8975191385
 20
11.9681903963
 11
11.8975191385
 21
11.9390237288
  0
LINE
  5
48E
100
AcDbEntity
  8
03__ASM_ALL_CURVES
100
AcDbLine
 62
4
  6
CONTINUOUS
 10
11.8975191385
 20
10.6241903963
 11
11.8975191385
 21
10.5950237288
  0
LINE
  5
48F
100
AcDbEntity
  8
03__ASM_ALL_CURVES
100
AcDbLine
 62
4
  6
CONTINUOUS
 10
11.8975191385
 20
8.6077737262
 11
11.8975191385
 21
8.6004820612
  0
LINE
  5
490
100
AcDbEntity
  8
03__ASM_ALL_CURVES
100
AcDbLine
 62
4
  6
CONTINUOUS
 10
11.9029878885
 20
8.5640237288
 11
11.9029878885
 21
8.5567320612
  0
LINE
  5
491
100
AcDbEntity
  8
03__ASM_ALL_CURVES
100
AcDbLine
 62
4
  6
CONTINUOUS
 10
11.9358003885
 20
11.3377320612
 11
11.9358003885
 21
11.3450237288
  0
LINE
  5
492
100
AcDbEntity
  8
03__ASM_ALL_CURVES
100
AcDbLine
 62
4
  6
CONTINUOUS
 10
11.9412691385
 20
11.3814820612
 11
11.9412691385
 21
11.3887737262
  0
LINE
  5
493
100
AcDbEntity
  8
03__ASM_ALL_CURVES
100
AcDbLine
 62
4
  6
CONTINUOUS
 10
11.9768160135
 20
8.5348570612
 11
11.9768160135
 21
8.5457945616
  0
LINE
  5
494
100
AcDbEntity
  8
03__ASM_ALL_CURVES
100
AcDbLine
 62
4
  6
CONTINUOUS
 10
11.9768160135
 20
9.2538570612
 11
11.9768160135
 21
9.2647945616
  0
LINE
  5
495
100
AcDbEntity
  8
03__ASM_ALL_CURVES
100
AcDbLine
 62
4
  6
CONTINUOUS
 10
11.9768160135
 20
10.5658570612
 11
11.9768160135
 21
10.5767945616
  0
LINE
  5
496
100
AcDbEntity
  8
03__ASM_ALL_CURVES
100
AcDbLine
 62
4
  6
CONTINUOUS
 10
11.9850191385
 20
11.9827737262
 11
11.9850191385
 21
11.9754820612
  0
LINE
  5
497
100
AcDbEntity
  8
03__ASM_ALL_CURVES
100
AcDbLine
 62
4
  6
CONTINUOUS
 10
11.9850191385
 20
11.3887737262
 11
11.9850191385
 21
11.3814820612
  0
LINE
  5
498
100
AcDbEntity
  8
03__ASM_ALL_CURVES
100
AcDbLine
 62
4
  6
CONTINUOUS
 10
11.9904878885
 20
11.9390237288
 11
11.9904878885
 21
11.9317320612
  0
LINE
  5
499
100
AcDbEntity
  8
03__ASM_ALL_CURVES
100
AcDbLine
 62
4
  6
CONTINUOUS
 10
11.9904878885
 20
11.3450237288
 11
11.9904878885
 21
11.3377320612
  0
LINE
  5
49A
100
AcDbEntity
  8
03__ASM_ALL_CURVES
100
AcDbLine
 62
4
  6
CONTINUOUS
 10
12.0233003885
 20
10.5877320612
 11
12.0233003885
 21
10.5950237288
  0
LINE
  5
49B
100
AcDbEntity
  8
03__ASM_ALL_CURVES
100
AcDbLine
 62
4
  6
CONTINUOUS
 10
12.0287691385
 20
8.5640237288
 11
12.0287691385
 21
8.5931903963
  0
LINE
  5
49C
100
AcDbEntity
  8
03__ASM_ALL_CURVES
100
AcDbLine
 62
4
  6
CONTINUOUS
 10
12.0287691385
 20
10.6314820612
 11
12.0287691385
 21
10.6387737262
  0
LINE
  5
49D
100
AcDbEntity
  8
03__ASM_ALL_CURVES
100
AcDbLine
 62
4
  6
CONTINUOUS
 10
12.1272066385
 20
10.6533570612
 11
12.1217378885
 21
10.6168987262
  0
LINE
  5
49E
100
AcDbEntity
  8
03__ASM_ALL_CURVES
100
AcDbLine
 62
4
  6
CONTINUOUS
 10
11.6951753885
 20
8.6077737262
 11
11.6897066385
 21
8.5858987262
  0
LINE
  5
49F
100
AcDbEntity
  8
03__ASM_ALL_CURVES
100
AcDbLine
 62
4
  6
CONTINUOUS
 10
12.2365816385
 20
10.6023153937
 11
12.2311128885
 21
10.580440395
  0
LINE
  5
4A0
100
AcDbEntity
  8
03__ASM_ALL_CURVES
100
AcDbLine
 62
4
  6
CONTINUOUS
 10
12.2311128885
 20
9.268440395
 11
12.2201753885
 21
9.2538570612
  0
LINE
  5
4A1
100
AcDbEntity
  8
03__ASM_ALL_CURVES
100
AcDbLine
 62
4
  6
CONTINUOUS
 10
11.2467378885
 20
7.8887737262
 11
11.2522066385
 21
7.8960653963
  0
LINE
  5
4A2
100
AcDbEntity
  8
03__ASM_ALL_CURVES
100
AcDbLine
 62
4
  6
CONTINUOUS
 10
11.8537691385
 20
8.6077737262
 11
11.8592378885
 21
8.6150653963
  0
LINE
  5
4A3
100
AcDbEntity
  8
03__ASM_ALL_CURVES
100
AcDbLine
 62
4
  6
CONTINUOUS
 10
11.2795503885
 20
7.830440395
 11
11.2740816385
 21
7.8231487281
  0
LINE
  5
4A4
100
AcDbEntity
  8
03__ASM_ALL_CURVES
100
AcDbLine
 62
4
  6
CONTINUOUS
 10
11.8483003885
 20
8.5640237288
 11
11.8592378885
 21
8.5786070612
  0
LINE
  5
4A5
100
AcDbEntity
  8
03__ASM_ALL_CURVES
100
AcDbLine
 62
4
  6
CONTINUOUS
 10
11.8975191385
 20
8.6004820612
 11
11.8920503885
 21
8.5931903963
  0
LINE
  5
4A6
100
AcDbEntity
  8
03__ASM_ALL_CURVES
100
AcDbLine
 62
4
  6
CONTINUOUS
 10
11.9029878885
 20
8.5567320612
 11
11.8920503885
 21
8.5421487281
  0
LINE
  5
4A7
100
AcDbEntity
  8
03__ASM_ALL_CURVES
100
AcDbLine
 62
4
  6
CONTINUOUS
 10
12.0342378885
 20
8.6077737262
 11
12.0397066385
 21
8.6150653963
  0
LINE
  5
4A8
100
AcDbEntity
  8
03__ASM_ALL_CURVES
100
AcDbLine
 62
4
  6
CONTINUOUS
 10
9.4808524716
 20
6.6619508112
 11
9.4735608047
 21
6.6564820612
  0
LINE
  5
4A9
100
AcDbEntity
  8
03__ASM_ALL_CURVES
100
AcDbLine
 62
4
  6
CONTINUOUS
 10
9.4079358034
 20
6.6072633112
 11
9.4152274736
 21
6.6127320612
  0
LINE
  5
4AA
100
AcDbEntity
  8
03__ASM_ALL_CURVES
100
AcDbLine
 62
4
  6
CONTINUOUS
 10
9.4772066382
 20
6.5170289362
 11
9.4881441385
 21
6.5252320612
  0
LINE
  5
4AB
100
AcDbEntity
  8
03__ASM_ALL_CURVES
100
AcDbLine
 62
4
  6
CONTINUOUS
 10
10.6579358034
 20
7.3017945612
 11
10.6652274736
 21
7.3072633112
  0
LINE
  5
4AC
100
AcDbEntity
  8
03__ASM_ALL_CURVES
100
AcDbLine
 62
4
  6
CONTINUOUS
 10
12.0615816385
 20
8.5421487281
 11
12.0506441385
 21
8.5348570612
  0
LINE
  5
4AD
100
AcDbEntity
  8
03__ASM_ALL_CURVES
100
AcDbLine
 62
4
  6
CONTINUOUS
 10
12.1545503885
 20
8.5931903963
 11
12.1436128885
 21
8.5858987262
  0
LINE
  5
4AE
100
AcDbEntity
  8
03__ASM_ALL_CURVES
100
AcDbLine
 62
4
  6
CONTINUOUS
 10
12.1545503885
 20
8.5421487281
 11
12.1436128885
 21
8.5348570612
  0
LINE
  5
4AF
100
AcDbEntity
  8
03__ASM_ALL_CURVES
100
AcDbLine
 62
4
  6
CONTINUOUS
 10
11.2522066385
 20
7.8960653963
 11
11.2631441385
 21
7.9033570612
  0
LINE
  5
4B0
100
AcDbEntity
  8
03__ASM_ALL_CURVES
100
AcDbLine
 62
4
  6
CONTINUOUS
 10
11.2740816385
 20
7.8231487281
 11
11.2631441385
 21
7.8158570612
  0
LINE
  5
4B1
100
AcDbEntity
  8
03__ASM_ALL_CURVES
100
AcDbLine
 62
4
  6
CONTINUOUS
 10
12.5701753885
 20
8.6223570612
 11
12.5592378885
 21
8.6150653963
  0
LINE
  5
4B2
100
AcDbEntity
  8
03__ASM_ALL_CURVES
100
AcDbLine
 62
4
  6
CONTINUOUS
 10
7.9443941385
 20
6.7002320612
 11
7.9589774709
 21
6.7057008112
  0
LINE
  5
4B3
100
AcDbEntity
  8
0
100
AcDbLine
 62
7
  6
CONTINUOUS
 10
9.5864758784
 20
10.7655999431
 11
9.3023123985
 21
10.7655999431
  0
LINE
  5
4B4
100
AcDbEntity
  8
0
100
AcDbLine
 62
7
  6
CONTINUOUS
 10
9.0073503693
 20
11.9490135293
 11
8.9993941385
 21
11.9536070612
  0
LINE
  5
4B5
100
AcDbEntity
  8
03__ASM_ALL_CURVES
100
AcDbLine
 62
4
  6
CONTINUOUS
 10
12.0670503885
 20
9.3340653963
 11
12.0725191385
 21
9.3267737262
  0
LINE
  5
4B6
100
AcDbEntity
  8
03__ASM_ALL_CURVES
100
AcDbLine
 62
4
  6
CONTINUOUS
 10
12.6576753885
 20
8.6223570612
 11
12.6686128885
 21
8.6077737262
  0
LINE
  5
4B7
100
AcDbEntity
  8
03__ASM_ALL_CURVES
100
AcDbLine
 62
4
  6
CONTINUOUS
 10
12.1545503885
 20
9.3340653963
 11
12.1600191385
 21
9.3267737262
  0
LINE
  5
4B8
100
AcDbEntity
  8
03__ASM_ALL_CURVES
100
AcDbLine
 62
4
  6
CONTINUOUS
 10
12.2201753885
 20
9.3413570612
 11
12.2311128885
 21
9.3267737262
  0
LINE
  5
4B9
100
AcDbEntity
  8
03__ASM_ALL_CURVES
100
AcDbLine
 62
4
  6
CONTINUOUS
 10
11.2795503885
 20
10.6460653963
 11
11.2850191385
 21
10.6387737262
  0
LINE
  5
4BA
100
AcDbEntity
  8
03__ASM_ALL_CURVES
100
AcDbLine
 62
4
  6
CONTINUOUS
 10
11.3643160135
 20
10.5767945616
 11
11.3725191385
 21
10.5658570612
  0
LINE
  5
4BB
100
AcDbEntity
  8
03__ASM_ALL_CURVES
100
AcDbLine
 62
4
  6
CONTINUOUS
 10
11.8920503885
 20
9.2976070612
 11
11.8975191385
 21
9.2830237288
  0
LINE
  5
4BC
100
AcDbEntity
  8
03__ASM_ALL_CURVES
100
AcDbLine
 62
4
  6
CONTINUOUS
 10
11.5475191385
 20
10.6096070612
 11
11.5529878885
 21
10.5950237288
  0
LINE
  5
4BD
100
AcDbEntity
  8
03__ASM_ALL_CURVES
100
AcDbLine
 62
4
  6
CONTINUOUS
 10
11.6897066385
 20
10.6023153937
 11
11.6951753885
 21
10.580440395
  0
LINE
  5
4BE
100
AcDbEntity
  8
03__ASM_ALL_CURVES
100
AcDbLine
 62
4
  6
CONTINUOUS
 10
12.2311128885
 20
8.6077737262
 11
12.2365816385
 21
8.5858987262
  0
LINE
  5
4BF
100
AcDbEntity
  8
03__ASM_ALL_CURVES
100
AcDbLine
 62
4
  6
CONTINUOUS
 10
12.0643160135
 20
11.9098570612
 11
12.0643160135
 21
11.9207945616
  0
LINE
  5
4C0
100
AcDbEntity
  8
03__ASM_ALL_CURVES
100
AcDbLine
 62
4
  6
CONTINUOUS
 10
12.0725191385
 20
11.3741903963
 11
12.0725191385
 21
11.3450237288
  0
LINE
  5
4C1
100
AcDbEntity
  8
03__ASM_ALL_CURVES
100
AcDbLine
 62
4
  6
CONTINUOUS
 10
12.0725191385
 20
10.6387737262
 11
12.0725191385
 21
10.6314820612
  0
LINE
  5
4C2
100
AcDbEntity
  8
03__ASM_ALL_CURVES
100
AcDbLine
 62
4
  6
CONTINUOUS
 10
12.0725191385
 20
9.3267737262
 11
12.0725191385
 21
9.3194820612
  0
LINE
  5
4C3
100
AcDbEntity
  8
03__ASM_ALL_CURVES
100
AcDbLine
 62
4
  6
CONTINUOUS
 10
12.0725191385
 20
8.5931903963
 11
12.0725191385
 21
8.5640237288
  0
LINE
  5
4C4
100
AcDbEntity
  8
03__ASM_ALL_CURVES
100
AcDbLine
 62
4
  6
CONTINUOUS
 10
12.0779878885
 20
10.5950237288
 11
12.0779878885
 21
10.5877320612
  0
LINE
  5
4C5
100
AcDbEntity
  8
03__ASM_ALL_CURVES
100
AcDbLine
 62
4
  6
CONTINUOUS
 10
12.0779878885
 20
9.2830237288
 11
12.0779878885
 21
9.2757320612
  0
LINE
  5
4C6
100
AcDbEntity
  8
03__ASM_ALL_CURVES
100
AcDbLine
 62
4
  6
CONTINUOUS
 10
12.1108003885
 20
11.9317320612
 11
12.1108003885
 21
11.9390237288
  0
LINE
  5
4C7
100
AcDbEntity
  8
03__ASM_ALL_CURVES
100
AcDbLine
 62
4
  6
CONTINUOUS
 10
12.1162691385
 20
11.9754820612
 11
12.1162691385
 21
11.9827737262
  0
LINE
  5
4C8
100
AcDbEntity
  8
03__ASM_ALL_CURVES
100
AcDbLine
 62
4
  6
CONTINUOUS
 10
12.1490816385
 20
11.3668987262
 11
12.1490816385
 21
11.3523153937
  0
LINE
  5
4C9
100
AcDbEntity
  8
03__ASM_ALL_CURVES
100
AcDbLine
 62
4
  6
CONTINUOUS
 10
12.1600191385
 20
11.9827737262
 11
12.1600191385
 21
11.9754820612
  0
LINE
  5
4CA
100
AcDbEntity
  8
03__ASM_ALL_CURVES
100
AcDbLine
 62
4
  6
CONTINUOUS
 10
12.1600191385
 20
9.3267737262
 11
12.1600191385
 21
9.3121903963
  0
LINE
  5
4CB
100
AcDbEntity
  8
03__ASM_ALL_CURVES
100
AcDbLine
 62
4
  6
CONTINUOUS
 10
12.1600191385
 20
8.6077737262
 11
12.1600191385
 21
8.6004820612
  0
LINE
  5
4CC
100
AcDbEntity
  8
03__ASM_ALL_CURVES
100
AcDbLine
 62
4
  6
CONTINUOUS
 10
12.1654878885
 20
11.9390237288
 11
12.1654878885
 21
11.9317320612
  0
LINE
  5
4CD
100
AcDbEntity
  8
03__ASM_ALL_CURVES
100
AcDbLine
 62
4
  6
CONTINUOUS
 10
12.1654878885
 20
8.5640237288
 11
12.1654878885
 21
8.5567320612
  0
LINE
  5
4CE
100
AcDbEntity
  8
03__ASM_ALL_CURVES
100
AcDbLine
 62
4
  6
CONTINUOUS
 10
12.1983003885
 20
11.9317320612
 11
12.1983003885
 21
11.9390237288
  0
LINE
  5
4CF
100
AcDbEntity
  8
03__ASM_ALL_CURVES
100
AcDbLine
 62
4
  6
CONTINUOUS
 10
12.2037691385
 20
11.9754820612
 11
12.2037691385
 21
11.9827737262
  0
LINE
  5
4D0
100
AcDbEntity
  8
03__ASM_ALL_CURVES
100
AcDbLine
 62
4
  6
CONTINUOUS
 10
12.2365816385
 20
10.6168987262
 11
12.2365816385
 21
10.6023153937
  0
LINE
  5
4D1
100
AcDbEntity
  8
03__ASM_ALL_CURVES
100
AcDbLine
 62
4
  6
CONTINUOUS
 10
12.2365816385
 20
9.3048987262
 11
12.2365816385
 21
9.2903153937
  0
LINE
  5
4D2
100
AcDbEntity
  8
03__ASM_ALL_CURVES
100
AcDbLine
 62
4
  6
CONTINUOUS
 10
12.2365816385
 20
8.5858987262
 11
12.2365816385
 21
8.5713153937
  0
LINE
  5
4D3
100
AcDbEntity
  8
03__ASM_ALL_CURVES
100
AcDbLine
 62
4
  6
CONTINUOUS
 10
12.2475191385
 20
11.9827737262
 11
12.2475191385
 21
11.9754820612
  0
LINE
  5
4D4
100
AcDbEntity
  8
03__ASM_ALL_CURVES
100
AcDbLine
 62
4
  6
CONTINUOUS
 10
12.2529878885
 20
11.9390237288
 11
12.2529878885
 21
11.9317320612
  0
LINE
  5
4D5
100
AcDbEntity
  8
03__ASM_ALL_CURVES
100
AcDbLine
 62
4
  6
CONTINUOUS
 10
12.1217378885
 20
9.2757320612
 11
12.1162691385
 21
9.2538570612
  0
LINE
  5
4D6
100
AcDbEntity
  8
03__ASM_ALL_CURVES
100
AcDbLine
 62
4
  6
CONTINUOUS
 10
12.2365816385
 20
9.2903153937
 11
12.2311128885
 21
9.268440395
  0
LINE
  5
4D7
100
AcDbEntity
  8
03__ASM_ALL_CURVES
100
AcDbLine
 62
4
  6
CONTINUOUS
 10
12.0287691385
 20
8.5931903963
 11
12.0342378885
 21
8.6077737262
  0
LINE
  5
4D8
100
AcDbEntity
  8
03__ASM_ALL_CURVES
100
AcDbLine
 62
4
  6
CONTINUOUS
 10
12.0725191385
 20
8.5640237288
 11
12.0670503885
 21
8.549440395
  0
LINE
  5
4D9
100
AcDbEntity
  8
03__ASM_ALL_CURVES
100
AcDbLine
 62
4
  6
CONTINUOUS
 10
12.0670503885
 20
8.549440395
 11
12.0615816385
 21
8.5421487281
  0
LINE
  5
4DA
100
AcDbEntity
  8
03__ASM_ALL_CURVES
100
AcDbLine
 62
4
  6
CONTINUOUS
 10
12.1600191385
 20
8.6004820612
 11
12.1545503885
 21
8.5931903963
  0
LINE
  5
4DB
100
AcDbEntity
  8
03__ASM_ALL_CURVES
100
AcDbLine
 62
4
  6
CONTINUOUS
 10
12.1654878885
 20
8.5567320612
 11
12.1545503885
 21
8.5421487281
  0
LINE
  5
4DC
100
AcDbEntity
  8
03__ASM_ALL_CURVES
100
AcDbLine
 62
4
  6
CONTINUOUS
 10
12.2311128885
 20
8.549440395
 11
12.2201753885
 21
8.5348570612
  0
LINE
  5
4DD
100
AcDbEntity
  8
03__ASM_ALL_CURVES
100
AcDbLine
 62
4
  6
CONTINUOUS
 10
10.7308524716
 20
7.2799195612
 11
10.7235608047
 21
7.2744508112
  0
LINE
  5
4DE
100
AcDbEntity
  8
03__ASM_ALL_CURVES
100
AcDbLine
 62
4
  6
CONTINUOUS
 10
12.5920503885
 20
8.5421487281
 11
12.5811128885
 21
8.5348570612
  0
LINE
  5
4DF
100
AcDbEntity
  8
03__ASM_ALL_CURVES
100
AcDbLine
 62
4
  6
CONTINUOUS
 10
8.9443941385
 20
6.7002320612
 11
8.9589774709
 21
6.7057008112
  0
LINE
  5
4E0
100
AcDbEntity
  8
03__ASM_ALL_CURVES
100
AcDbLine
 62
4
  6
CONTINUOUS
 10
10.6652274736
 20
7.3072633112
 11
10.6798108034
 21
7.3127320612
  0
LINE
  5
4E1
100
AcDbEntity
  8
03__ASM_ALL_CURVES
100
AcDbLine
 62
4
  6
CONTINUOUS
 10
10.7235608047
 20
7.2744508112
 11
10.7089774709
 21
7.2689820612
  0
LINE
  5
4E2
100
AcDbEntity
  8
03__ASM_ALL_CURVES
100
AcDbLine
 62
4
  6
CONTINUOUS
 10
11.7881441385
 20
10.6168987262
 11
11.8045503885
 21
10.6096070612
  0
LINE
  5
4E3
100
AcDbEntity
  8
03__ASM_ALL_CURVES
100
AcDbLine
 62
4
  6
CONTINUOUS
 10
11.8756441385
 20
10.6023153937
 11
11.8592378885
 21
10.6096070612
  0
LINE
  5
4E4
100
AcDbEntity
  8
03__ASM_ALL_CURVES
100
AcDbLine
 62
4
  6
CONTINUOUS
 10
11.2686128885
 20
10.6533570612
 11
11.2795503885
 21
10.6460653963
  0
LINE
  5
4E5
100
AcDbEntity
  8
03__ASM_ALL_CURVES
100
AcDbLine
 62
4
  6
CONTINUOUS
 10
11.5201753885
 20
10.5658570612
 11
11.5092378885
 21
10.5731487281
  0
LINE
  5
4E6
100
AcDbEntity
  8
03__ASM_ALL_CURVES
100
AcDbLine
 62
4
  6
CONTINUOUS
 10
11.5311128885
 20
10.6241903963
 11
11.5420503885
 21
10.6168987262
  0
LINE
  5
4E7
100
AcDbEntity
  8
03__ASM_ALL_CURVES
100
AcDbLine
 62
4
  6
CONTINUOUS
 10
11.7881441385
 20
10.5658570612
 11
11.7772066385
 21
10.5731487281
  0
LINE
  5
4E8
100
AcDbEntity
  8
03__ASM_ALL_CURVES
100
AcDbLine
 62
4
  6
CONTINUOUS
 10
11.5092378885
 20
10.5731487281
 11
11.5037691385
 21
10.580440395
  0
LINE
  5
4E9
100
AcDbEntity
  8
03__ASM_ALL_CURVES
100
AcDbLine
 62
4
  6
CONTINUOUS
 10
11.5420503885
 20
10.6168987262
 11
11.5475191385
 21
10.6096070612
  0
LINE
  5
4EA
100
AcDbEntity
  8
03__ASM_ALL_CURVES
100
AcDbLine
 62
4
  6
CONTINUOUS
 10
11.6951753885
 20
10.580440395
 11
11.7061128885
 21
10.5658570612
  0
LINE
  5
4EB
100
AcDbEntity
  8
03__ASM_ALL_CURVES
100
AcDbLine
 62
4
  6
CONTINUOUS
 10
11.4600191385
 20
11.3596070612
 11
11.4654878885
 21
11.3450237288
  0
LINE
  5
4EC
100
AcDbEntity
  8
03__ASM_ALL_CURVES
100
AcDbLine
 62
4
  6
CONTINUOUS
 10
11.7717378885
 20
10.580440395
 11
11.7662691385
 21
10.5950237288
  0
LINE
  5
4ED
100
AcDbEntity
  8
03__ASM_ALL_CURVES
100
AcDbLine
 62
4
  6
CONTINUOUS
 10
11.8045503885
 20
10.6096070612
 11
11.8100191385
 21
10.5950237288
  0
LINE
  5
4EE
100
AcDbEntity
  8
03__ASM_ALL_CURVES
100
AcDbLine
 62
4
  6
CONTINUOUS
 10
11.8592378885
 20
10.6096070612
 11
11.8537691385
 21
10.6241903963
  0
LINE
  5
4EF
100
AcDbEntity
  8
03__ASM_ALL_CURVES
100
AcDbLine
 62
4
  6
CONTINUOUS
 10
11.6022066385
 20
11.3523153937
 11
11.6076753885
 21
11.330440395
  0
LINE
  5
4F0
100
AcDbEntity
  8
03__ASM_ALL_CURVES
100
AcDbLine
 62
4
  6
CONTINUOUS
 10
12.3897066385
 20
8.5713153937
 11
12.3951753885
 21
8.549440395
  0
LINE
  5
4F1
100
AcDbEntity
  8
03__ASM_ALL_CURVES
100
AcDbLine
 62
4
  6
CONTINUOUS
 10
12.2311128885
 20
9.3267737262
 11
12.2365816385
 21
9.3048987262
  0
LINE
  5
4F2
100
AcDbEntity
  8
03__ASM_ALL_CURVES
100
AcDbLine
 62
4
  6
CONTINUOUS
 10
12.3240816385
 20
11.9608987262
 11
12.3240816385
 21
11.9463153937
  0
LINE
  5
4F3
100
AcDbEntity
  8
03__ASM_ALL_CURVES
100
AcDbLine
 62
4
  6
CONTINUOUS
 10
12.3897066385
 20
8.5858987262
 11
12.3897066385
 21
8.5713153937
  0
LINE
  5
4F4
100
AcDbEntity
  8
03__ASM_ALL_CURVES
100
AcDbLine
 62
4
  6
CONTINUOUS
 10
12.4662691385
 20
8.6223570612
 11
12.4662691385
 21
8.5348570612
  0
LINE
  5
4F5
100
AcDbEntity
  8
03__ASM_ALL_CURVES
100
AcDbLine
 62
4
  6
CONTINUOUS
 10
12.2365816385
 20
8.5713153937
 11
12.2311128885
 21
8.549440395
  0
LINE
  5
4F6
100
AcDbEntity
  8
03__ASM_ALL_CURVES
100
AcDbLine
 62
4
  6
CONTINUOUS
 10
12.3951753885
 20
8.6077737262
 11
12.3897066385
 21
8.5858987262
  0
LINE
  5
4F7
100
AcDbEntity
  8
03__ASM_ALL_CURVES
100
AcDbLine
 62
4
  6
CONTINUOUS
 10
12.4061128885
 20
8.6223570612
 11
12.3951753885
 21
8.6077737262
  0
LINE
  5
4F8
100
AcDbEntity
  8
03__ASM_ALL_CURVES
100
AcDbLine
 62
4
  6
CONTINUOUS
 10
12.5592378885
 20
8.6150653963
 11
12.5537691385
 21
8.6077737262
  0
LINE
  5
4F9
100
AcDbEntity
  8
03__ASM_ALL_CURVES
100
AcDbLine
 62
4
  6
CONTINUOUS
 10
12.5975191385
 20
8.549440395
 11
12.5920503885
 21
8.5421487281
  0
LINE
  5
4FA
100
AcDbEntity
  8
03__ASM_ALL_CURVES
100
AcDbLine
 62
4
  6
CONTINUOUS
 10
9.4443941385
 20
6.7002320612
 11
9.4589774709
 21
6.7057008112
  0
LINE
  5
4FB
100
AcDbEntity
  8
03__ASM_ALL_CURVES
100
AcDbLine
 62
4
  6
CONTINUOUS
 10
11.9686128885
 20
11.3158570612
 11
11.9576753885
 21
11.3158570612
  0
LINE
  5
4FC
100
AcDbEntity
  8
03__ASM_ALL_CURVES
100
AcDbLine
 62
4
  6
CONTINUOUS
 10
11.8975191385
 20
11.3158570612
 11
11.8893160135
 21
11.3158570612
  0
LINE
  5
4FD
100
AcDbEntity
  8
03__ASM_ALL_CURVES
100
AcDbLine
 62
4
  6
CONTINUOUS
 10
11.7936128885
 20
11.3158570612
 11
11.7826753885
 21
11.3158570612
  0
LINE
  5
4FE
100
AcDbEntity
  8
03__ASM_ALL_CURVES
100
AcDbLine
 62
4
  6
CONTINUOUS
 10
11.7061128885
 20
11.3158570612
 11
11.6951753885
 21
11.3158570612
  0
LINE
  5
4FF
100
AcDbEntity
  8
03__ASM_ALL_CURVES
100
AcDbLine
 62
4
  6
CONTINUOUS
 10
11.4436128885
 20
11.3158570612
 11
11.4326753885
 21
11.3158570612
  0
LINE
  5
500
100
AcDbEntity
  8
03__ASM_ALL_CURVES
100
AcDbLine
 62
4
  6
CONTINUOUS
 10
11.3725191385
 20
11.3158570612
 11
11.3643160135
 21
11.3158570612
  0
LINE
  5
501
100
AcDbEntity
  8
03__ASM_ALL_CURVES
100
AcDbLine
 62
4
  6
CONTINUOUS
 10
11.2686128885
 20
11.3158570612
 11
11.2576753885
 21
11.3158570612
  0
LINE
  5
502
100
AcDbEntity
  8
0
100
AcDbLine
 62
7
  6
CONTINUOUS
 10
7.9443941385
 20
11.3596070612
 11
10.6943941385
 21
11.3596070612
  0
LINE
  5
503
100
AcDbEntity
  8
03__ASM_ALL_CURVES
100
AcDbLine
 62
4
  6
CONTINUOUS
 10
10.7818941385
 20
11.3596070612
 11
11.0443941385
 21
11.3596070612
  0
LINE
  5
504
100
AcDbEntity
  8
03__ASM_ALL_CURVES
100
AcDbLine
 62
4
  6
CONTINUOUS
 10
11.2576753885
 20
11.3668987262
 11
11.2686128885
 21
11.3668987262
  0
LINE
  5
505
100
AcDbEntity
  8
03__ASM_ALL_CURVES
100
AcDbLine
 62
4
  6
CONTINUOUS
 10
11.6951753885
 20
11.3668987262
 11
11.7061128885
 21
11.3668987262
  0
LINE
  5
506
100
AcDbEntity
  8
03__ASM_ALL_CURVES
100
AcDbLine
 62
4
  6
CONTINUOUS
 10
11.7826753885
 20
11.3668987262
 11
11.7936128885
 21
11.3668987262
  0
LINE
  5
507
100
AcDbEntity
  8
03__ASM_ALL_CURVES
100
AcDbLine
 62
4
  6
CONTINUOUS
 10
11.9576753885
 20
11.3668987262
 11
11.9686128885
 21
11.3668987262
  0
LINE
  5
508
100
AcDbEntity
  8
03__ASM_ALL_CURVES
100
AcDbLine
 62
4
  6
CONTINUOUS
 10
11.4326753885
 20
11.3741903963
 11
11.4436128885
 21
11.3741903963
  0
LINE
  5
509
100
AcDbEntity
  8
03__ASM_ALL_CURVES
100
AcDbLine
 62
4
  6
CONTINUOUS
 10
11.4600191385
 20
11.4033570612
 11
11.4272066385
 21
11.4033570612
  0
LINE
  5
50A
100
AcDbEntity
  8
03__ASM_ALL_CURVES
100
AcDbLine
 62
4
  6
CONTINUOUS
 10
11.2576753885
 20
11.4033570612
 11
11.2686128885
 21
11.4033570612
  0
LINE
  5
50B
100
AcDbEntity
  8
03__ASM_ALL_CURVES
100
AcDbLine
 62
4
  6
CONTINUOUS
 10
11.6951753885
 20
11.4033570612
 11
11.7061128885
 21
11.4033570612
  0
LINE
  5
50C
100
AcDbEntity
  8
03__ASM_ALL_CURVES
100
AcDbLine
 62
4
  6
CONTINUOUS
 10
11.7826753885
 20
11.4033570612
 11
11.7936128885
 21
11.4033570612
  0
LINE
  5
50D
100
AcDbEntity
  8
03__ASM_ALL_CURVES
100
AcDbLine
 62
4
  6
CONTINUOUS
 10
11.9576753885
 20
11.4033570612
 11
11.9686128885
 21
11.4033570612
  0
LINE
  5
50E
100
AcDbEntity
  8
0
100
AcDbLine
 62
7
  6
CONTINUOUS
 10
8.1408941385
 20
11.4226070612
 11
8.9978941385
 21
11.4226070612
  0
LINE
  5
50F
100
AcDbEntity
  8
03__ASM_ALL_CURVES
100
AcDbLine
 62
4
  6
CONTINUOUS
 10
11.8756441385
 20
10.5658570612
 11
11.8647066385
 21
10.5731487281
  0
LINE
  5
510
100
AcDbEntity
  8
03__ASM_ALL_CURVES
100
AcDbLine
 62
4
  6
CONTINUOUS
 10
11.7881441385
 20
10.6533570612
 11
11.7990816385
 21
10.6460653963
  0
LINE
  5
511
100
AcDbEntity
  8
03__ASM_ALL_CURVES
100
AcDbLine
 62
4
  6
CONTINUOUS
 10
11.8756441385
 20
10.6533570612
 11
11.8865816385
 21
10.6460653963
  0
LINE
  5
512
100
AcDbEntity
  8
03__ASM_ALL_CURVES
100
AcDbLine
 62
4
  6
CONTINUOUS
 10
12.0451753885
 20
10.5658570612
 11
12.0342378885
 21
10.5731487281
  0
LINE
  5
513
100
AcDbEntity
  8
03__ASM_ALL_CURVES
100
AcDbLine
 62
4
  6
CONTINUOUS
 10
12.0451753885
 20
10.6168987262
 11
12.0342378885
 21
10.6241903963
  0
LINE
  5
514
100
AcDbEntity
  8
03__ASM_ALL_CURVES
100
AcDbLine
 62
4
  6
CONTINUOUS
 10
12.0561128885
 20
10.6168987262
 11
12.0670503885
 21
10.6096070612
  0
LINE
  5
515
100
AcDbEntity
  8
03__ASM_ALL_CURVES
100
AcDbLine
 62
4
  6
CONTINUOUS
 10
12.1326753885
 20
10.5658570612
 11
12.1217378885
 21
10.5731487281
  0
LINE
  5
516
100
AcDbEntity
  8
03__ASM_ALL_CURVES
100
AcDbLine
 62
4
  6
CONTINUOUS
 10
12.0561128885
 20
10.6533570612
 11
12.0670503885
 21
10.6460653963
  0
LINE
  5
517
100
AcDbEntity
  8
03__ASM_ALL_CURVES
100
AcDbLine
 62
4
  6
CONTINUOUS
 10
12.1436128885
 20
10.6241903963
 11
12.1545503885
 21
10.6168987262
  0
LINE
  5
518
100
AcDbEntity
  8
03__ASM_ALL_CURVES
100
AcDbLine
 62
4
  6
CONTINUOUS
 10
11.7772066385
 20
10.5731487281
 11
11.7717378885
 21
10.580440395
  0
LINE
  5
519
100
AcDbEntity
  8
03__ASM_ALL_CURVES
100
AcDbLine
 62
4
  6
CONTINUOUS
 10
11.2467378885
 20
11.3231487281
 11
11.2412691385
 21
11.330440395
  0
LINE
  5
51A
100
AcDbEntity
  8
03__ASM_ALL_CURVES
100
AcDbLine
 62
4
  6
CONTINUOUS
 10
11.7990816385
 20
10.6460653963
 11
11.8045503885
 21
10.6387737262
  0
LINE
  5
51B
100
AcDbEntity
  8
03__ASM_ALL_CURVES
100
AcDbLine
 62
4
  6
CONTINUOUS
 10
11.8647066385
 20
10.5731487281
 11
11.8592378885
 21
10.580440395
  0
LINE
  5
51C
100
AcDbEntity
  8
03__ASM_ALL_CURVES
100
AcDbLine
 62
4
  6
CONTINUOUS
 10
11.2795503885
 20
11.3596070612
 11
11.2904878885
 21
11.3450237288
  0
LINE
  5
51D
100
AcDbEntity
  8
03__ASM_ALL_CURVES
100
AcDbLine
 62
4
  6
CONTINUOUS
 10
11.2795503885
 20
11.3960653963
 11
11.2850191385
 21
11.3887737262
  0
LINE
  5
51E
100
AcDbEntity
  8
03__ASM_ALL_CURVES
100
AcDbLine
 62
4
  6
CONTINUOUS
 10
11.3643160135
 20
11.3267945616
 11
11.3725191385
 21
11.3158570612
  0
LINE
  5
51F
100
AcDbEntity
  8
03__ASM_ALL_CURVES
100
AcDbLine
 62
4
  6
CONTINUOUS
 10
11.8865816385
 20
10.6460653963
 11
11.8920503885
 21
10.6387737262
  0
LINE
  5
520
100
AcDbEntity
  8
03__ASM_ALL_CURVES
100
AcDbLine
 62
4
  6
CONTINUOUS
 10
11.9768160135
 20
10.5767945616
 11
11.9850191385
 21
10.5658570612
  0
LINE
  5
521
100
AcDbEntity
  8
03__ASM_ALL_CURVES
100
AcDbLine
 62
4
  6
CONTINUOUS
 10
11.4217378885
 20
11.3231487281
 11
11.4162691385
 21
11.330440395
  0
LINE
  5
522
100
AcDbEntity
  8
03__ASM_ALL_CURVES
100
AcDbLine
 62
4
  6
CONTINUOUS
 10
12.0342378885
 20
10.5731487281
 11
12.0233003885
 21
10.5877320612
  0
LINE
  5
523
100
AcDbEntity
  8
03__ASM_ALL_CURVES
100
AcDbLine
 62
4
  6
CONTINUOUS
 10
11.4545503885
 20
11.3668987262
 11
11.4600191385
 21
11.3596070612
  0
LINE
  5
524
100
AcDbEntity
  8
03__ASM_ALL_CURVES
100
AcDbLine
 62
4
  6
CONTINUOUS
 10
11.8920503885
 20
10.6387737262
 11
11.8975191385
 21
10.6241903963
  0
LINE
  5
525
100
AcDbEntity
  8
03__ASM_ALL_CURVES
100
AcDbLine
 62
4
  6
CONTINUOUS
 10
11.4217378885
 20
11.924440395
 11
11.4162691385
 21
11.9390237288
  0
LINE
  5
526
100
AcDbEntity
  8
03__ASM_ALL_CURVES
100
AcDbLine
 62
4
  6
CONTINUOUS
 10
11.4545503885
 20
11.9827737262
 11
11.4600191385
 21
11.9681903963
  0
LINE
  5
527
100
AcDbEntity
  8
03__ASM_ALL_CURVES
100
AcDbLine
 62
4
  6
CONTINUOUS
 10
11.5092378885
 20
11.9536070612
 11
11.5037691385
 21
11.9681903963
  0
LINE
  5
528
100
AcDbEntity
  8
03__ASM_ALL_CURVES
100
AcDbLine
 62
4
  6
CONTINUOUS
 10
11.5420503885
 20
11.9827737262
 11
11.5475191385
 21
11.9681903963
  0
LINE
  5
529
100
AcDbEntity
  8
03__ASM_ALL_CURVES
100
AcDbLine
 62
4
  6
CONTINUOUS
 10
11.6897066385
 20
11.9463153937
 11
11.6951753885
 21
11.924440395
  0
LINE
  5
52A
100
AcDbEntity
  8
03__ASM_ALL_CURVES
100
AcDbLine
 62
4
  6
CONTINUOUS
 10
12.6686128885
 20
8.6077737262
 11
12.6740816385
 21
8.5858987262
  0
LINE
  5
52B
100
AcDbEntity
  8
03__ASM_ALL_CURVES
100
AcDbLine
 62
4
  6
CONTINUOUS
 10
12.2311128885
 20
10.6387737262
 11
12.2365816385
 21
10.6168987262
  0
LINE
  5
52C
100
AcDbEntity
  8
03__ASM_ALL_CURVES
100
AcDbLine
 62
4
  6
CONTINUOUS
 10
12.5537691385
 20
8.6077737262
 11
12.5537691385
 21
8.6004820612
  0
LINE
  5
52D
100
AcDbEntity
  8
03__ASM_ALL_CURVES
100
AcDbLine
 62
4
  6
CONTINUOUS
 10
12.5975191385
 20
8.5640237288
 11
12.5975191385
 21
8.549440395
  0
LINE
  5
52E
100
AcDbEntity
  8
03__ASM_ALL_CURVES
100
AcDbLine
 62
4
  6
CONTINUOUS
 10
12.6740816385
 20
8.5858987262
 11
12.6740816385
 21
8.5713153937
  0
LINE
  5
52F
100
AcDbEntity
  8
03__ASM_ALL_CURVES
100
AcDbLine
 62
4
  6
CONTINUOUS
 10
12.6740816385
 20
8.5713153937
 11
12.6686128885
 21
8.549440395
  0
LINE
  5
530
100
AcDbEntity
  8
03__ASM_ALL_CURVES
100
AcDbLine
 62
4
  6
CONTINUOUS
 10
12.6686128885
 20
8.549440395
 11
12.6576753885
 21
8.5348570612
  0
LINE
  5
531
100
AcDbEntity
  8
0
100
AcDbLine
 62
7
  6
CONTINUOUS
 10
8.1614918908
 20
11.4831070612
 11
8.1318781045
 21
11.4831070612
  0
LINE
  5
532
100
AcDbEntity
  8
0
100
AcDbLine
 62
7
  6
CONTINUOUS
 10
8.5397803522
 20
11.4831070612
 11
8.5990079248
 21
11.4831070612
  0
LINE
  5
533
100
AcDbEntity
  8
0
100
AcDbLine
 62
7
  6
CONTINUOUS
 10
8.9772963862
 20
11.4831070612
 11
9.0069101725
 21
11.4831070612
  0
LINE
  5
534
100
AcDbEntity
  8
03__ASM_ALL_CURVES
100
AcDbLine
 62
4
  6
CONTINUOUS
 10
11.2576753885
 20
11.3158570612
 11
11.2467378885
 21
11.3231487281
  0
LINE
  5
535
100
AcDbEntity
  8
03__ASM_ALL_CURVES
100
AcDbLine
 62
4
  6
CONTINUOUS
 10
11.2686128885
 20
11.3668987262
 11
11.2795503885
 21
11.3596070612
  0
LINE
  5
536
100
AcDbEntity
  8
03__ASM_ALL_CURVES
100
AcDbLine
 62
4
  6
CONTINUOUS
 10
11.2686128885
 20
11.4033570612
 11
11.2795503885
 21
11.3960653963
  0
LINE
  5
537
100
AcDbEntity
  8
03__ASM_ALL_CURVES
100
AcDbLine
 62
4
  6
CONTINUOUS
 10
11.4326753885
 20
11.3158570612
 11
11.4217378885
 21
11.3231487281
  0
LINE
  5
538
100
AcDbEntity
  8
03__ASM_ALL_CURVES
100
AcDbLine
 62
4
  6
CONTINUOUS
 10
11.4436128885
 20
11.3741903963
 11
11.4545503885
 21
11.3668987262
  0
LINE
  5
539
100
AcDbEntity
  8
03__ASM_ALL_CURVES
100
AcDbLine
 62
4
  6
CONTINUOUS
 10
12.0342378885
 20
10.6241903963
 11
12.0287691385
 21
10.6314820612
  0
LINE
  5
53A
100
AcDbEntity
  8
03__ASM_ALL_CURVES
100
AcDbLine
 62
4
  6
CONTINUOUS
 10
12.0670503885
 20
10.6096070612
 11
12.0779878885
 21
10.5950237288
  0
LINE
  5
53B
100
AcDbEntity
  8
03__ASM_ALL_CURVES
100
AcDbLine
 62
4
  6
CONTINUOUS
 10
12.0670503885
 20
10.6460653963
 11
12.0725191385
 21
10.6387737262
  0
LINE
  5
53C
100
AcDbEntity
  8
03__ASM_ALL_CURVES
100
AcDbLine
 62
4
  6
CONTINUOUS
 10
12.1217378885
 20
10.5731487281
 11
12.1162691385
 21
10.580440395
  0
LINE
  5
53D
100
AcDbEntity
  8
03__ASM_ALL_CURVES
100
AcDbLine
 62
4
  6
CONTINUOUS
 10
11.6076753885
 20
11.330440395
 11
11.6186128885
 21
11.3158570612
  0
LINE
  5
53E
100
AcDbEntity
  8
03__ASM_ALL_CURVES
100
AcDbLine
 62
4
  6
CONTINUOUS
 10
12.1545503885
 20
10.6168987262
 11
12.1600191385
 21
10.6096070612
  0
LINE
  5
53F
100
AcDbEntity
  8
03__ASM_ALL_CURVES
100
AcDbLine
 62
4
  6
CONTINUOUS
 10
11.6842378885
 20
11.3231487281
 11
11.6733003885
 21
11.3377320612
  0
LINE
  5
540
100
AcDbEntity
  8
03__ASM_ALL_CURVES
100
AcDbLine
 62
4
  6
CONTINUOUS
 10
12.2201753885
 20
10.6533570612
 11
12.2311128885
 21
10.6387737262
  0
LINE
  5
541
100
AcDbEntity
  8
03__ASM_ALL_CURVES
100
AcDbLine
 62
4
  6
CONTINUOUS
 10
11.6842378885
 20
11.3741903963
 11
11.6787691385
 21
11.3814820612
  0
LINE
  5
542
100
AcDbEntity
  8
03__ASM_ALL_CURVES
100
AcDbLine
 62
4
  6
CONTINUOUS
 10
11.7170503885
 20
11.3596070612
 11
11.7279878885
 21
11.3450237288
  0
LINE
  5
543
100
AcDbEntity
  8
03__ASM_ALL_CURVES
100
AcDbLine
 62
4
  6
CONTINUOUS
 10
11.7170503885
 20
11.3960653963
 11
11.7225191385
 21
11.3887737262
  0
LINE
  5
544
100
AcDbEntity
  8
03__ASM_ALL_CURVES
100
AcDbLine
 62
4
  6
CONTINUOUS
 10
11.7717378885
 20
11.3231487281
 11
11.7608003885
 21
11.3377320612
  0
LINE
  5
545
100
AcDbEntity
  8
03__ASM_ALL_CURVES
100
AcDbLine
 62
4
  6
CONTINUOUS
 10
12.1600191385
 20
10.6096070612
 11
12.1654878885
 21
10.5950237288
  0
LINE
  5
546
100
AcDbEntity
  8
03__ASM_ALL_CURVES
100
AcDbLine
 62
4
  6
CONTINUOUS
 10
12.0342378885
 20
11.3596070612
 11
12.0287691385
 21
11.3741903963
  0
LINE
  5
547
100
AcDbEntity
  8
03__ASM_ALL_CURVES
100
AcDbLine
 62
4
  6
CONTINUOUS
 10
11.8592378885
 20
11.924440395
 11
11.8537691385
 21
11.9390237288
  0
LINE
  5
548
100
AcDbEntity
  8
03__ASM_ALL_CURVES
100
AcDbLine
 62
4
  6
CONTINUOUS
 10
12.0670503885
 20
11.3887737262
 11
12.0725191385
 21
11.3741903963
  0
LINE
  5
549
100
AcDbEntity
  8
03__ASM_ALL_CURVES
100
AcDbLine
 62
4
  6
CONTINUOUS
 10
11.8920503885
 20
11.9827737262
 11
11.8975191385
 21
11.9681903963
  0
LINE
  5
54A
100
AcDbEntity
  8
03__ASM_ALL_CURVES
100
AcDbLine
 62
4
  6
CONTINUOUS
 10
12.1436128885
 20
11.3887737262
 11
12.1490816385
 21
11.3668987262
  0
LINE
  5
54B
100
AcDbEntity
  8
03__ASM_ALL_CURVES
100
AcDbLine
 62
4
  6
CONTINUOUS
 10
12.2311128885
 20
11.9098570612
 11
12.2201753885
 21
11.9098570612
  0
LINE
  5
54C
100
AcDbEntity
  8
03__ASM_ALL_CURVES
100
AcDbLine
 62
4
  6
CONTINUOUS
 10
12.1436128885
 20
11.9098570612
 11
12.1326753885
 21
11.9098570612
  0
LINE
  5
54D
100
AcDbEntity
  8
03__ASM_ALL_CURVES
100
AcDbLine
 62
4
  6
CONTINUOUS
 10
12.0725191385
 20
11.9098570612
 11
12.0643160135
 21
11.9098570612
  0
LINE
  5
54E
100
AcDbEntity
  8
03__ASM_ALL_CURVES
100
AcDbLine
 62
4
  6
CONTINUOUS
 10
11.9686128885
 20
11.9098570612
 11
11.9576753885
 21
11.9098570612
  0
LINE
  5
54F
100
AcDbEntity
  8
03__ASM_ALL_CURVES
100
AcDbLine
 62
4
  6
CONTINUOUS
 10
11.3725191385
 20
11.9098570612
 11
11.3643160135
 21
11.9098570612
  0
LINE
  5
550
100
AcDbEntity
  8
0
100
AcDbLine
 62
7
  6
CONTINUOUS
 10
8.1318781045
 20
11.9195433954
 11
8.1614918908
 21
11.9195433954
  0
LINE
  5
551
100
AcDbEntity
  8
0
100
AcDbLine
 62
7
  6
CONTINUOUS
 10
8.5397803522
 20
11.9195433954
 11
8.5990079248
 21
11.9195433954
  0
LINE
  5
552
100
AcDbEntity
  8
0
100
AcDbLine
 62
7
  6
CONTINUOUS
 10
8.9772963862
 20
11.9195433954
 11
9.0069101725
 21
11.9195433954
  0
LINE
  5
553
100
AcDbEntity
  8
03__ASM_ALL_CURVES
100
AcDbLine
 62
4
  6
CONTINUOUS
 10
12.0506441385
 20
11.3523153937
 11
12.0342378885
 21
11.3596070612
  0
LINE
  5
554
100
AcDbEntity
  8
03__ASM_ALL_CURVES
100
AcDbLine
 62
4
  6
CONTINUOUS
 10
11.6951753885
 20
11.3158570612
 11
11.6842378885
 21
11.3231487281
  0
LINE
  5
555
100
AcDbEntity
  8
03__ASM_ALL_CURVES
100
AcDbLine
 62
4
  6
CONTINUOUS
 10
11.6951753885
 20
11.3668987262
 11
11.6842378885
 21
11.3741903963
  0
LINE
  5
556
100
AcDbEntity
  8
03__ASM_ALL_CURVES
100
AcDbLine
 62
4
  6
CONTINUOUS
 10
11.7826753885
 20
11.3158570612
 11
11.7717378885
 21
11.3231487281
  0
LINE
  5
557
100
AcDbEntity
  8
03__ASM_ALL_CURVES
100
AcDbLine
 62
4
  6
CONTINUOUS
 10
11.7061128885
 20
11.3668987262
 11
11.7170503885
 21
11.3596070612
  0
LINE
  5
558
100
AcDbEntity
  8
03__ASM_ALL_CURVES
100
AcDbLine
 62
4
  6
CONTINUOUS
 10
11.7061128885
 20
11.4033570612
 11
11.7170503885
 21
11.3960653963
  0
LINE
  5
559
100
AcDbEntity
  8
03__ASM_ALL_CURVES
100
AcDbLine
 62
4
  6
CONTINUOUS
 10
11.7826753885
 20
11.3668987262
 11
11.7717378885
 21
11.3741903963
  0
LINE
  5
55A
100
AcDbEntity
  8
03__ASM_ALL_CURVES
100
AcDbLine
 62
4
  6
CONTINUOUS
 10
11.7936128885
 20
11.3668987262
 11
11.8045503885
 21
11.3596070612
  0
LINE
  5
55B
100
AcDbEntity
  8
03__ASM_ALL_CURVES
100
AcDbLine
 62
4
  6
CONTINUOUS
 10
11.7936128885
 20
11.4033570612
 11
11.8045503885
 21
11.3960653963
  0
LINE
  5
55C
100
AcDbEntity
  8
03__ASM_ALL_CURVES
100
AcDbLine
 62
4
  6
CONTINUOUS
 10
11.9576753885
 20
11.3158570612
 11
11.9467378885
 21
11.3231487281
  0
LINE
  5
55D
100
AcDbEntity
  8
03__ASM_ALL_CURVES
100
AcDbLine
 62
4
  6
CONTINUOUS
 10
11.7717378885
 20
11.3741903963
 11
11.7662691385
 21
11.3814820612
  0
LINE
  5
55E
100
AcDbEntity
  8
03__ASM_ALL_CURVES
100
AcDbLine
 62
4
  6
CONTINUOUS
 10
11.3643160135
 20
11.9207945616
 11
11.3725191385
 21
11.9098570612
  0
LINE
  5
55F
100
AcDbEntity
  8
03__ASM_ALL_CURVES
100
AcDbLine
 62
4
  6
CONTINUOUS
 10
11.8045503885
 20
11.3596070612
 11
11.8154878885
 21
11.3450237288
  0
LINE
  5
560
100
AcDbEntity
  8
03__ASM_ALL_CURVES
100
AcDbLine
 62
4
  6
CONTINUOUS
 10
11.8045503885
 20
11.3960653963
 11
11.8100191385
 21
11.3887737262
  0
LINE
  5
561
100
AcDbEntity
  8
03__ASM_ALL_CURVES
100
AcDbLine
 62
4
  6
CONTINUOUS
 10
11.4272066385
 20
11.9171487281
 11
11.4217378885
 21
11.924440395
  0
LINE
  5
562
100
AcDbEntity
  8
03__ASM_ALL_CURVES
100
AcDbLine
 62
4
  6
CONTINUOUS
 10
11.8893160135
 20
11.3267945616
 11
11.8975191385
 21
11.3158570612
  0
LINE
  5
563
100
AcDbEntity
  8
03__ASM_ALL_CURVES
100
AcDbLine
 62
4
  6
CONTINUOUS
 10
11.9467378885
 20
11.3231487281
 11
11.9358003885
 21
11.3377320612
  0
LINE
  5
564
100
AcDbEntity
  8
03__ASM_ALL_CURVES
100
AcDbLine
 62
4
  6
CONTINUOUS
 10
11.4490816385
 20
11.9900653963
 11
11.4545503885
 21
11.9827737262
  0
LINE
  5
565
100
AcDbEntity
  8
03__ASM_ALL_CURVES
100
AcDbLine
 62
4
  6
CONTINUOUS
 10
11.5147066385
 20
11.9171487281
 11
11.5092378885
 21
11.924440395
  0
LINE
  5
566
100
AcDbEntity
  8
03__ASM_ALL_CURVES
100
AcDbLine
 62
4
  6
CONTINUOUS
 10
11.9467378885
 20
11.3741903963
 11
11.9412691385
 21
11.3814820612
  0
LINE
  5
567
100
AcDbEntity
  8
03__ASM_ALL_CURVES
100
AcDbLine
 62
4
  6
CONTINUOUS
 10
11.9795503885
 20
11.3596070612
 11
11.9904878885
 21
11.3450237288
  0
LINE
  5
568
100
AcDbEntity
  8
03__ASM_ALL_CURVES
100
AcDbLine
 62
4
  6
CONTINUOUS
 10
11.9795503885
 20
11.3960653963
 11
11.9850191385
 21
11.3887737262
  0
LINE
  5
569
100
AcDbEntity
  8
03__ASM_ALL_CURVES
100
AcDbLine
 62
4
  6
CONTINUOUS
 10
11.5365816385
 20
11.9900653963
 11
11.5420503885
 21
11.9827737262
  0
LINE
  5
56A
100
AcDbEntity
  8
03__ASM_ALL_CURVES
100
AcDbLine
 62
4
  6
CONTINUOUS
 10
12.0397066385
 20
11.3231487281
 11
12.0342378885
 21
11.330440395
  0
LINE
  5
56B
100
AcDbEntity
  8
03__ASM_ALL_CURVES
100
AcDbLine
 62
4
  6
CONTINUOUS
 10
12.3186128885
 20
11.9827737262
 11
12.3240816385
 21
11.9608987262
  0
LINE
  5
56C
100
AcDbEntity
  8
03__ASM_ALL_CURVES
100
AcDbLine
 62
4
  6
CONTINUOUS
 10
11.2412691385
 20
11.9317320612
 11
11.2904878885
 21
11.9317320612
  0
LINE
  5
56D
100
AcDbEntity
  8
0
100
AcDbLine
 62
7
  6
CONTINUOUS
 10
8.139395505
 20
11.9536070612
 11
8.999392772
 21
11.9536070612
  0
LINE
  5
56E
100
AcDbEntity
  8
03__ASM_ALL_CURVES
100
AcDbLine
 62
4
  6
CONTINUOUS
 10
10.7818941385
 20
11.9536070612
 11
11.0443941385
 21
11.9536070612
  0
LINE
  5
56F
100
AcDbEntity
  8
03__ASM_ALL_CURVES
100
AcDbLine
 62
4
  6
CONTINUOUS
 10
11.9576753885
 20
11.9608987262
 11
11.9686128885
 21
11.9608987262
  0
LINE
  5
570
100
AcDbEntity
  8
03__ASM_ALL_CURVES
100
AcDbLine
 62
4
  6
CONTINUOUS
 10
12.1326753885
 20
11.9608987262
 11
12.1436128885
 21
11.9608987262
  0
LINE
  5
571
100
AcDbEntity
  8
03__ASM_ALL_CURVES
100
AcDbLine
 62
4
  6
CONTINUOUS
 10
12.2201753885
 20
11.9608987262
 11
12.2311128885
 21
11.9608987262
  0
LINE
  5
572
100
AcDbEntity
  8
03__ASM_ALL_CURVES
100
AcDbLine
 62
4
  6
CONTINUOUS
 10
11.9576753885
 20
11.9973570612
 11
11.9686128885
 21
11.9973570612
  0
LINE
  5
573
100
AcDbEntity
  8
03__ASM_ALL_CURVES
100
AcDbLine
 62
4
  6
CONTINUOUS
 10
12.1326753885
 20
11.9973570612
 11
12.1436128885
 21
11.9973570612
  0
LINE
  5
574
100
AcDbEntity
  8
03__ASM_ALL_CURVES
100
AcDbLine
 62
4
  6
CONTINUOUS
 10
12.2201753885
 20
11.9973570612
 11
12.2311128885
 21
11.9973570612
  0
LINE
  5
575
100
AcDbEntity
  8
03__ASM_ALL_CURVES
100
AcDbLine
 62
4
  6
CONTINUOUS
 10
11.9576753885
 20
11.3668987262
 11
11.9467378885
 21
11.3741903963
  0
LINE
  5
576
100
AcDbEntity
  8
03__ASM_ALL_CURVES
100
AcDbLine
 62
4
  6
CONTINUOUS
 10
11.9686128885
 20
11.3668987262
 11
11.9795503885
 21
11.3596070612
  0
LINE
  5
577
100
AcDbEntity
  8
03__ASM_ALL_CURVES
100
AcDbLine
 62
4
  6
CONTINUOUS
 10
12.0506441385
 20
11.3158570612
 11
12.0397066385
 21
11.3231487281
  0
LINE
  5
578
100
AcDbEntity
  8
03__ASM_ALL_CURVES
100
AcDbLine
 62
4
  6
CONTINUOUS
 10
11.9686128885
 20
11.4033570612
 11
11.9795503885
 21
11.3960653963
  0
LINE
  5
579
100
AcDbEntity
  8
03__ASM_ALL_CURVES
100
AcDbLine
 62
4
  6
CONTINUOUS
 10
12.0506441385
 20
11.4033570612
 11
12.0615816385
 21
11.3960653963
  0
LINE
  5
57A
100
AcDbEntity
  8
03__ASM_ALL_CURVES
100
AcDbLine
 62
4
  6
CONTINUOUS
 10
11.4381441385
 20
11.9098570612
 11
11.4272066385
 21
11.9171487281
  0
LINE
  5
57B
100
AcDbEntity
  8
03__ASM_ALL_CURVES
100
AcDbLine
 62
4
  6
CONTINUOUS
 10
11.5256441385
 20
11.9098570612
 11
11.5147066385
 21
11.9171487281
  0
LINE
  5
57C
100
AcDbEntity
  8
03__ASM_ALL_CURVES
100
AcDbLine
 62
4
  6
CONTINUOUS
 10
11.4381441385
 20
11.9973570612
 11
11.4490816385
 21
11.9900653963
  0
LINE
  5
57D
100
AcDbEntity
  8
03__ASM_ALL_CURVES
100
AcDbLine
 62
4
  6
CONTINUOUS
 10
12.0615816385
 20
11.3960653963
 11
12.0670503885
 21
11.3887737262
  0
LINE
  5
57E
100
AcDbEntity
  8
03__ASM_ALL_CURVES
100
AcDbLine
 62
4
  6
CONTINUOUS
 10
11.6951753885
 20
11.924440395
 11
11.7061128885
 21
11.9098570612
  0
LINE
  5
57F
100
AcDbEntity
  8
03__ASM_ALL_CURVES
100
AcDbLine
 62
4
  6
CONTINUOUS
 10
12.1326753885
 20
11.4033570612
 11
12.1436128885
 21
11.3887737262
  0
LINE
  5
580
100
AcDbEntity
  8
03__ASM_ALL_CURVES
100
AcDbLine
 62
4
  6
CONTINUOUS
 10
11.8647066385
 20
11.9171487281
 11
11.8592378885
 21
11.924440395
  0
LINE
  5
581
100
AcDbEntity
  8
03__ASM_ALL_CURVES
100
AcDbLine
 62
4
  6
CONTINUOUS
 10
11.8865816385
 20
11.9900653963
 11
11.8920503885
 21
11.9827737262
  0
LINE
  5
582
100
AcDbEntity
  8
03__ASM_ALL_CURVES
100
AcDbLine
 62
4
  6
CONTINUOUS
 10
11.9467378885
 20
11.9171487281
 11
11.9412691385
 21
11.924440395
  0
LINE
  5
583
100
AcDbEntity
  8
03__ASM_ALL_CURVES
100
AcDbLine
 62
4
  6
CONTINUOUS
 10
11.5256441385
 20
11.9463153937
 11
11.5092378885
 21
11.9536070612
  0
LINE
  5
584
100
AcDbEntity
  8
03__ASM_ALL_CURVES
100
AcDbLine
 62
4
  6
CONTINUOUS
 10
11.5256441385
 20
11.9973570612
 11
11.5365816385
 21
11.9900653963
  0
LINE
  5
585
100
AcDbEntity
  8
03__ASM_ALL_CURVES
100
AcDbLine
 62
4
  6
CONTINUOUS
 10
11.8756441385
 20
11.9098570612
 11
11.8647066385
 21
11.9171487281
  0
LINE
  5
586
100
AcDbEntity
  8
03__ASM_ALL_CURVES
100
AcDbLine
 62
4
  6
CONTINUOUS
 10
11.9576753885
 20
11.9098570612
 11
11.9467378885
 21
11.9171487281
  0
LINE
  5
587
100
AcDbEntity
  8
03__ASM_ALL_CURVES
100
AcDbLine
 62
4
  6
CONTINUOUS
 10
11.8756441385
 20
11.9973570612
 11
11.8865816385
 21
11.9900653963
  0
LINE
  5
588
100
AcDbEntity
  8
03__ASM_ALL_CURVES
100
AcDbLine
 62
4
  6
CONTINUOUS
 10
11.9795503885
 20
11.9536070612
 11
11.9904878885
 21
11.9390237288
  0
LINE
  5
589
100
AcDbEntity
  8
03__ASM_ALL_CURVES
100
AcDbLine
 62
4
  6
CONTINUOUS
 10
11.9795503885
 20
11.9900653963
 11
11.9850191385
 21
11.9827737262
  0
LINE
  5
58A
100
AcDbEntity
  8
03__ASM_ALL_CURVES
100
AcDbLine
 62
4
  6
CONTINUOUS
 10
12.0643160135
 20
11.9207945616
 11
12.0725191385
 21
11.9098570612
  0
LINE
  5
58B
100
AcDbEntity
  8
03__ASM_ALL_CURVES
100
AcDbLine
 62
4
  6
CONTINUOUS
 10
12.1217378885
 20
11.9171487281
 11
12.1108003885
 21
11.9317320612
  0
LINE
  5
58C
100
AcDbEntity
  8
03__ASM_ALL_CURVES
100
AcDbLine
 62
4
  6
CONTINUOUS
 10
12.1217378885
 20
11.9681903963
 11
12.1162691385
 21
11.9754820612
  0
LINE
  5
58D
100
AcDbEntity
  8
03__ASM_ALL_CURVES
100
AcDbLine
 62
4
  6
CONTINUOUS
 10
12.1545503885
 20
11.9536070612
 11
12.1654878885
 21
11.9390237288
  0
LINE
  5
58E
100
AcDbEntity
  8
03__ASM_ALL_CURVES
100
AcDbLine
 62
4
  6
CONTINUOUS
 10
12.1545503885
 20
11.9900653963
 11
12.1600191385
 21
11.9827737262
  0
LINE
  5
58F
100
AcDbEntity
  8
03__ASM_ALL_CURVES
100
AcDbLine
 62
4
  6
CONTINUOUS
 10
12.2092378885
 20
11.9171487281
 11
12.1983003885
 21
11.9317320612
  0
LINE
  5
590
100
AcDbEntity
  8
03__ASM_ALL_CURVES
100
AcDbLine
 62
4
  6
CONTINUOUS
 10
12.2092378885
 20
11.9681903963
 11
12.2037691385
 21
11.9754820612
  0
LINE
  5
591
100
AcDbEntity
  8
03__ASM_ALL_CURVES
100
AcDbLine
 62
4
  6
CONTINUOUS
 10
12.2420503885
 20
11.9536070612
 11
12.2529878885
 21
11.9390237288
  0
LINE
  5
592
100
AcDbEntity
  8
03__ASM_ALL_CURVES
100
AcDbLine
 62
4
  6
CONTINUOUS
 10
11.9686128885
 20
11.9608987262
 11
11.9795503885
 21
11.9536070612
  0
LINE
  5
593
100
AcDbEntity
  8
03__ASM_ALL_CURVES
100
AcDbLine
 62
4
  6
CONTINUOUS
 10
11.9686128885
 20
11.9973570612
 11
11.9795503885
 21
11.9900653963
  0
LINE
  5
594
100
AcDbEntity
  8
03__ASM_ALL_CURVES
100
AcDbLine
 62
4
  6
CONTINUOUS
 10
12.1326753885
 20
11.9098570612
 11
12.1217378885
 21
11.9171487281
  0
LINE
  5
595
100
AcDbEntity
  8
03__ASM_ALL_CURVES
100
AcDbLine
 62
4
  6
CONTINUOUS
 10
12.1326753885
 20
11.9608987262
 11
12.1217378885
 21
11.9681903963
  0
LINE
  5
596
100
AcDbEntity
  8
03__ASM_ALL_CURVES
100
AcDbLine
 62
4
  6
CONTINUOUS
 10
12.2201753885
 20
11.9098570612
 11
12.2092378885
 21
11.9171487281
  0
LINE
  5
597
100
AcDbEntity
  8
03__ASM_ALL_CURVES
100
AcDbLine
 62
4
  6
CONTINUOUS
 10
12.1436128885
 20
11.9608987262
 11
12.1545503885
 21
11.9536070612
  0
LINE
  5
598
100
AcDbEntity
  8
03__ASM_ALL_CURVES
100
AcDbLine
 62
4
  6
CONTINUOUS
 10
12.1436128885
 20
11.9973570612
 11
12.1545503885
 21
11.9900653963
  0
LINE
  5
599
100
AcDbEntity
  8
03__ASM_ALL_CURVES
100
AcDbLine
 62
4
  6
CONTINUOUS
 10
12.2201753885
 20
11.9608987262
 11
12.2092378885
 21
11.9681903963
  0
LINE
  5
59A
100
AcDbEntity
  8
03__ASM_ALL_CURVES
100
AcDbLine
 62
4
  6
CONTINUOUS
 10
12.2311128885
 20
11.9608987262
 11
12.2420503885
 21
11.9536070612
  0
LINE
  5
59B
100
AcDbEntity
  8
03__ASM_ALL_CURVES
100
AcDbLine
 62
4
  6
CONTINUOUS
 10
12.2311128885
 20
11.9973570612
 11
12.2420503885
 21
11.9900653963
  0
LINE
  5
59C
100
AcDbEntity
  8
03__ASM_ALL_CURVES
100
AcDbLine
 62
4
  6
CONTINUOUS
 10
12.2420503885
 20
11.9900653963
 11
12.2475191385
 21
11.9827737262
  0
LINE
  5
59D
100
AcDbEntity
  8
03__ASM_ALL_CURVES
100
AcDbLine
 62
4
  6
CONTINUOUS
 10
12.3076753885
 20
11.9973570612
 11
12.3186128885
 21
11.9827737262
  0
CIRCLE
  5
59E
100
AcDbEntity
  8
0
100
AcDbCircle
 62
7
  6
CONTINUOUS
 10
8.9443941385
 20
9.297607025
 40
0.35
  0
CIRCLE
  5
59F
100
AcDbEntity
  8
0
100
AcDbCircle
 62
7
  6
CONTINUOUS
 10
8.9443941385
 20
9.297607025
 40
0.281
  0
CIRCLE
  5
5A0
100
AcDbEntity
  8
0
100
AcDbCircle
 62
7
  6
CONTINUOUS
 10
9.4443941385
 20
10.6096070612
 40
0.28
  0
CIRCLE
  5
5A1
100
AcDbEntity
  8
0
100
AcDbCircle
 62
7
  6
CONTINUOUS
 10
9.4443941385
 20
10.6096070612
 40
0.211
  0
SPLINE
  5
5A2
100
AcDbEntity
  8
0
100
AcDbSpline
 62
7
  6
CONTINUOUS
 70
0
 71
3
 72
22
 73
18
 74
16
 42
0.0000001
 43
0.0000001
 44
0.0000000001
 12
0.3517854196
 22
-0.1814265373
 32
0.0
 13
0.3517854196
 23
0.1814265373
 33
0.0
 40
0.0
 40
0.0
 40
0.0
 40
0.0
 40
0.0763379923
 40
0.1481658585
 40
0.2164622511
 40
0.2820658671
 40
0.3456824296
 40
0.4079379385
 40
0.4693994116
 40
0.5306005896
 40
0.5920620626
 40
0.6543175713
 40
0.7179341337
 40
0.7835377495
 40
0.8518341416
 40
0.9236620076
 40
1.0
 40
1.0
 40
1.0
 40
1.0
 10
8.5990079248
 20
11.4831070612
 30
0.0
 10
8.6079594557
 20
11.478490482
 30
0.0
 10
8.6255446313
 20
11.4699297142
 30
0.0
 10
8.651855116
 20
11.4587857322
 30
0.0
 10
8.6774266484
 20
11.4496355761
 30
0.0
 10
8.7024741713
 20
11.4423787933
 30
0.0
 10
8.7271687972
 20
11.4369593118
 30
0.0
 10
8.7516416339
 20
11.4333519825
 30
0.0
 10
8.775994563
 20
11.4315488215
 30
0.0
 10
8.8003097484
 20
11.4315488215
 30
0.0
 10
8.8246626774
 20
11.4333519825
 30
0.0
 10
8.8491355141
 20
11.4369593119
 30
0.0
 10
8.87383014
 20
11.4423787934
 30
0.0
 10
8.8988776627
 20
11.4496355761
 30
0.0
 10
8.9244491951
 20
11.4587857322
 30
0.0
 10
8.9507596797
 20
11.4699297142
 30
0.0
 10
8.9683448553
 20
11.478490482
 30
0.0
 10
8.9772963862
 20
11.4831070612
 30
0.0
 11
8.5990079248
 21
11.4831070612
 31
0.0
 11
8.6261924813
 21
11.4699167516
 31
0.0
 11
8.652385617
 21
11.4588618539
 31
0.0
 11
8.6778489441
 21
11.4497853227
 31
0.0
 11
8.7027980213
 21
11.442586772
 31
0.0
 11
8.7273979538
 21
11.4372116885
 31
0.0
 11
8.7517785077
 21
11.4336344624
 31
0.0
 11
8.7760400201
 21
11.4318465786
 31
0.0
 11
8.8002642913
 21
11.4318465787
 31
0.0
 11
8.8245258036
 21
11.4336344624
 31
0.0
 11
8.8489063575
 21
11.4372116886
 31
0.0
 11
8.87350629
 21
11.4425867721
 31
0.0
 11
8.8984553671
 21
11.4497853227
 31
0.0
 11
8.923918694
 21
11.4588618539
 31
0.0
 11
8.9501118297
 21
11.4699167516
 31
0.0
 11
8.9772963862
 21
11.4831070612
 31
0.0
  0
SPLINE
  5
5A3
100
AcDbEntity
  8
0
100
AcDbSpline
 62
7
  6
CONTINUOUS
 70
0
 71
3
 72
21
 73
17
 74
15
 42
0.0000001
 43
0.0000001
 44
0.0000000001
 12
0.3682942784
 22
0.1096622926
 32
0.0
 13
0.3682942784
 23
-0.1096622926
 33
0.0
 40
0.0
 40
0.0
 40
0.0
 40
0.0
 40
0.0752309599
 40
0.1483522748
 40
0.2199806581
 40
0.2906359084
 40
0.3606925725
 40
0.4304186784
 40
0.5000000002
 40
0.5695813221
 40
0.639307428
 40
0.709364092
 40
0.7800193423
 40
0.8516477255
 40
0.9247690401
 40
1.0
 40
1.0
 40
1.0
 40
1.0
 10
8.5990079248
 20
11.9195433954
 30
0.0
 10
8.6082436355
 20
11.9222933952
 30
0.0
 10
8.6265447604
 20
11.927424826
 30
0.0
 10
8.6539340851
 20
11.9340690681
 30
0.0
 10
8.6809836216
 20
11.9395474848
 30
0.0
 10
8.7078476156
 20
11.94385396
 30
0.0
 10
8.7346318
 20
11.9469641441
 30
0.0
 10
8.7613928798
 20
11.9488470222
 30
0.0
 10
8.7881521556
 20
11.9494777858
 30
0.0
 10
8.8149114313
 20
11.9488470222
 30
0.0
 10
8.8416725112
 20
11.9469641441
 30
0.0
 10
8.8684566955
 20
11.9438539599
 30
0.0
 10
8.8953206895
 20
11.9395474848
 30
0.0
 10
8.922370226
 20
11.9340690681
 30
0.0
 10
8.9497595506
 20
11.927424826
 30
0.0
 10
8.9680606755
 20
11.9222933952
 30
0.0
 10
8.9772963862
 20
11.9195433954
 30
0.0
 11
8.5990079248
 21
11.9195433954
 31
0.0
 11
8.6268487039
 21
11.9273304798
 31
0.0
 11
8.6541593942
 21
11.9339379432
 31
0.0
 11
8.681139668
 21
11.9393864544
 31
0.0
 11
8.7079504637
 21
11.9436709205
 31
0.0
 11
8.7346929212
 21
11.9467658675
 31
0.0
 11
8.7614212358
 21
11.9486398463
 31
0.0
 11
8.7881521556
 21
11.949267677
 31
0.0
 11
8.8148830753
 21
11.9486398463
 31
0.0
 11
8.84161139
 21
11.9467658675
 31
0.0
 11
8.8683538474
 21
11.9436709205
 31
0.0
 11
8.8951646431
 21
11.9393864544
 31
0.0
 11
8.9221449168
 21
11.9339379432
 31
0.0
 11
8.9494556071
 21
11.9273304798
 31
0.0
 11
8.9772963862
 21
11.9195433954
 31
0.0
  0
SPLINE
  5
5A4
100
AcDbEntity
  8
0
100
AcDbSpline
 62
7
  6
CONTINUOUS
 70
0
 71
3
 72
22
 73
18
 74
16
 42
0.0000001
 43
0.0000001
 44
0.0000000001
 12
0.3517854196
 22
-0.1814265373
 32
0.0
 13
0.3517854196
 23
0.1814265373
 33
0.0
 40
0.0
 40
0.0
 40
0.0
 40
0.0
 40
0.0763379923
 40
0.1481658585
 40
0.2164622511
 40
0.2820658671
 40
0.3456824296
 40
0.4079379385
 40
0.4693994116
 40
0.5306005896
 40
0.5920620626
 40
0.6543175713
 40
0.7179341337
 40
0.7835377495
 40
0.8518341416
 40
0.9236620076
 40
1.0
 40
1.0
 40
1.0
 40
1.0
 10
8.1614918908
 20
11.4831070612
 30
0.0
 10
8.1704434217
 20
11.478490482
 30
0.0
 10
8.1880285973
 20
11.4699297142
 30
0.0
 10
8.214339082
 20
11.4587857322
 30
0.0
 10
8.2399106144
 20
11.4496355761
 30
0.0
 10
8.2649581373
 20
11.4423787933
 30
0.0
 10
8.2896527632
 20
11.4369593118
 30
0.0
 10
8.3141256
 20
11.4333519825
 30
0.0
 10
8.338478529
 20
11.4315488215
 30
0.0
 10
8.3627937144
 20
11.4315488215
 30
0.0
 10
8.3871466434
 20
11.4333519825
 30
0.0
 10
8.4116194801
 20
11.4369593119
 30
0.0
 10
8.436314106
 20
11.4423787934
 30
0.0
 10
8.4613616288
 20
11.4496355761
 30
0.0
 10
8.4869331611
 20
11.4587857322
 30
0.0
 10
8.5132436457
 20
11.4699297142
 30
0.0
 10
8.5308288213
 20
11.478490482
 30
0.0
 10
8.5397803522
 20
11.4831070612
 30
0.0
 11
8.1614918908
 21
11.4831070612
 31
0.0
 11
8.1886764473
 21
11.4699167516
 31
0.0
 11
8.214869583
 21
11.4588618539
 31
0.0
 11
8.2403329101
 21
11.4497853227
 31
0.0
 11
8.2652819873
 21
11.442586772
 31
0.0
 11
8.2898819198
 21
11.4372116885
 31
0.0
 11
8.3142624737
 21
11.4336344624
 31
0.0
 11
8.3385239861
 21
11.4318465786
 31
0.0
 11
8.3627482573
 21
11.4318465787
 31
0.0
 11
8.3870097697
 21
11.4336344624
 31
0.0
 11
8.4113903235
 21
11.4372116886
 31
0.0
 11
8.435990256
 21
11.4425867721
 31
0.0
 11
8.4609393331
 21
11.4497853227
 31
0.0
 11
8.48640266
 21
11.4588618539
 31
0.0
 11
8.5125957957
 21
11.4699167516
 31
0.0
 11
8.5397803522
 21
11.4831070612
 31
0.0
  0
SPLINE
  5
5A5
100
AcDbEntity
  8
0
100
AcDbSpline
 62
7
  6
CONTINUOUS
 70
0
 71
3
 72
21
 73
17
 74
15
 42
0.0000001
 43
0.0000001
 44
0.0000000001
 12
0.3682942784
 22
0.1096622926
 32
0.0
 13
0.3682942784
 23
-0.1096622926
 33
0.0
 40
0.0
 40
0.0
 40
0.0
 40
0.0
 40
0.0752309599
 40
0.1483522748
 40
0.2199806581
 40
0.2906359084
 40
0.3606925725
 40
0.4304186784
 40
0.5000000002
 40
0.5695813221
 40
0.639307428
 40
0.709364092
 40
0.7800193423
 40
0.8516477255
 40
0.9247690401
 40
1.0
 40
1.0
 40
1.0
 40
1.0
 10
8.1614918908
 20
11.9195433954
 30
0.0
 10
8.1707276015
 20
11.9222933952
 30
0.0
 10
8.1890287264
 20
11.927424826
 30
0.0
 10
8.2164180511
 20
11.9340690681
 30
0.0
 10
8.2434675876
 20
11.9395474848
 30
0.0
 10
8.2703315816
 20
11.94385396
 30
0.0
 10
8.297115766
 20
11.9469641441
 30
0.0
 10
8.3238768458
 20
11.9488470222
 30
0.0
 10
8.3506361216
 20
11.9494777858
 30
0.0
 10
8.3773953973
 20
11.9488470222
 30
0.0
 10
8.4041564772
 20
11.9469641441
 30
0.0
 10
8.4309406615
 20
11.9438539599
 30
0.0
 10
8.4578046555
 20
11.9395474848
 30
0.0
 10
8.484854192
 20
11.9340690681
 30
0.0
 10
8.5122435166
 20
11.927424826
 30
0.0
 10
8.5305446415
 20
11.9222933952
 30
0.0
 10
8.5397803522
 20
11.9195433954
 30
0.0
 11
8.1614918908
 21
11.9195433954
 31
0.0
 11
8.1893326699
 21
11.9273304798
 31
0.0
 11
8.2166433603
 21
11.9339379432
 31
0.0
 11
8.2436236341
 21
11.9393864544
 31
0.0
 11
8.2704344297
 21
11.9436709205
 31
0.0
 11
8.2971768872
 21
11.9467658675
 31
0.0
 11
8.3239052018
 21
11.9486398463
 31
0.0
 11
8.3506361216
 21
11.949267677
 31
0.0
 11
8.3773670413
 21
11.9486398463
 31
0.0
 11
8.404095356
 21
11.9467658675
 31
0.0
 11
8.4308378134
 21
11.9436709205
 31
0.0
 11
8.4576486091
 21
11.9393864544
 31
0.0
 11
8.4846288828
 21
11.9339379432
 31
0.0
 11
8.5119395731
 21
11.9273304798
 31
0.0
 11
8.5397803522
 21
11.9195433954
 31
0.0
  0
ENDSEC
  0
SECTION
  2
OBJECTS
  0
DICTIONARY
  5
C
100
AcDbDictionary
280
0
281
1
  3
ACAD_GROUP
350
D
  3
ACAD_MLINESTYLE
350
17
  3
ACAD_LAYOUT
350
1A
  3
ACAD_PLOTSETTINGS
350
19
  3
ACAD_PLOTSTYLENAME
350
E
  0
DICTIONARY
  5
D
102
{ACAD_REACTORS
330
C
102
}
100
AcDbDictionary
280
0
281
1
  0
ACDBDICTIONARYWDFLT
  5
E
102
{ACAD_REACTORS
330
C
102
}
100
AcDbDictionary
281
1
  3
Normal
350
F
100
AcDbDictionaryWithDefault
340
F
  0
DICTIONARY
  5
17
102
{ACAD_REACTORS
330
C
102
}
100
AcDbDictionary
280
0
281
1
  3
Standard
350
18
  0
DICTIONARY
  5
19
102
{ACAD_REACTORS
330
C
102
}
100
AcDbDictionary
281
1
  0
DICTIONARY
  5
1A
102
{ACAD_REACTORS
330
C
102
}
100
AcDbDictionary
281
1
  3
Layout1
350
1E
  3
Model
350
22
  0
ACDBPLACEHOLDER
  5
F
102
{ACAD_REACTORS
330
E
102
}
  0
MLINESTYLE
  5
18
102
{ACAD_REACTORS
330
17
102
}
100
AcDbMlineStyle
  2
STANDARD
 70
0
  3

 62
256
 51
90.0
 52
90.0
 71
2
 49
0.5
 62
256
  6
BYLAYER
 49
-0.5
 62
256
  6
BYLAYER
  0
LAYOUT
  5
1E
102
{ACAD_REACTORS
330
1A
102
}
100
AcDbPlotSettings
  1

  2

  4

  6

 40
0.0
 41
0.0
 42
0.0
 43
0.0
 44
0.0
 45
0.0
 46
0.0
 47
0.0
 48
0.0
 49
0.0
140
0.0
141
0.0
142
1.0
143
1.0
 70
0
 72
0
 73
0
 74
0
  7

 75
0
147
1.0
148
0.0
149
0.0
100
AcDbLayout
  1
Layout1
 70
0
 71
0
 10
0.0
 20
0.0
 11
0.0
 21
0.0
 12
0.0
 22
0.0
 32
0.0
 14
0.0
 24
0.0
 34
0.0
 15
0.0
 25
0.0
 35
0.0
146
0.0
 13
0.0
 23
0.0
 33
0.0
 16
0.0
 26
0.0
 36
0.0
 17
0.0
 27
0.0
 37
0.0
 76
0
330
1B
331
0
345
0
346
0
  0
LAYOUT
  5
22
102
{ACAD_REACTORS
330
1A
102
}
100
AcDbPlotSettings
  1

  2

  4

  6

 40
0.0
 41
0.0
 42
0.0
 43
0.0
 44
0.0
 45
0.0
 46
0.0
 47
0.0
 48
0.0
 49
0.0
140
0.0
141
0.0
142
1.0
143
1.0
 70
0
 72
0
 73
0
 74
0
  7

 75
0
147
1.0
148
0.0
149
0.0
100
AcDbLayout
  1
Model
 70
0
 71
0
 10
0.0
 20
0.0
 11
0.0
 21
0.0
 12
0.0
 22
0.0
 32
0.0
 14
0.0
 24
0.0
 34
0.0
 15
0.0
 25
0.0
 35
0.0
146
0.0
 13
0.0
 23
0.0
 33
0.0
 16
0.0
 26
0.0
 36
0.0
 17
0.0
 27
0.0
 37
0.0
 76
0
330
1F
331
0
345
0
346
0
  0
ENDSEC
  0
EOF
