999
DXF file: E3B_5.dxf
999
Pro/ENGINEER 2006240 by Parametric Technology Corporation
  0
SECTION
  2
HEADER
  9
$ACADVER
  1
AC1015
  9
$DWGCODEPAGE
  3
ANSI_1252
  9
$EXTMAX
 10
22.0
 20
17.0
 30
0.0
  9
$EXTMIN
 10
0.0
 20
0.0
 30
0.0
  9
$LIMMIN
 10
0.0
 20
0.0
  9
$LIMMAX
 10
22.0
 20
17.0
  9
$VIEWCTR
 10
11.0
 20
8.5
  9
$VIEWSIZE
 40
17.0
  9
$CLAYER
  8
0
  9
$LTSCALE
 40
1.21
  9
$CELTYPE
  6
BYLAYER
  9
$DIMSCALE
 40
1.0
  9
$DIMASZ
 40
0.1875
  9
$DIMEXO
 40
0.1375
  9
$DIMDLI
 40
0.836
  9
$DIMEXE
 40
0.396
  9
$DIMCEN
 40
0.198
  9
$DIMLFAC
 40
1.0
  9
$DIMBLK
  1
_CLOSED
  9
$DIMTXT
 40
0.15625
  9
$DIMTOL
 70
0
  9
$DIMLIM
 70
0
  9
$DIMTFAC
 40
1.0
  9
$PDMODE
 70
3
  9
$PDSIZE
 40
0.3125
  9
$HANDSEED
  5
577
  9
$MEASUREMENT
 70
0
  9
$INSUNITS
 70
1
  0
ENDSEC
  0
SECTION
  2
CLASSES
  0
CLASS
  1
ACDBDICTIONARYWDFLT
  2
AcDbDictionaryWithDefault
  3
AutoCAD 2000
 90
0
280
0
281
0
  0
CLASS
  1
ACDBPLACEHOLDER
  2
AcDbPlaceHolder
  3
AutoCAD 2000
 90
0
280
0
281
0
  0
CLASS
  1
LAYOUT
  2
AcDbLayout
  3
AutoCAD 2000
 90
0
280
0
281
0
  0
ENDSEC
  0
SECTION
  2
TABLES
  0
TABLE
  2
VPORT
  5
8
100
AcDbSymbolTable
 70
2
  0
VPORT
  5
1F4
100
AcDbSymbolTableRecord
100
AcDbViewportTableRecord
  2
*ACTIVE
 70
0
 10
0.0
 20
0.0
 11
1.0
 21
1.0
 12
11.0
 22
8.5
 13
0.0
 23
0.0
 14
1.0
 24
1.0
 15
0.0
 25
0.0
 16
0.0
 26
0.0
 36
1.0
 17
0.0
 27
0.0
 37
0.0
 40
17.0
 41
1.2941176471
 42
50.0
 43
0.0
 44
0.0
 50
0.0
 51
0.0
 71
0
 72
100
 73
1
 74
1
 75
0
 76
0
 77
0
 78
0
  0
ENDTAB
  0
TABLE
  2
LTYPE
  5
5
100
AcDbSymbolTable
 70
6
  0
LTYPE
  5
14
100
AcDbSymbolTableRecord
100
AcDbLinetypeTableRecord
  2
BYBLOCK
 70
0
  3

 72
65
 73
0
 40
0.0
  0
LTYPE
  5
15
100
AcDbSymbolTableRecord
100
AcDbLinetypeTableRecord
  2
BYLAYER
 70
0
  3

 72
65
 73
0
 40
0.0
  0
LTYPE
  5
16
100
AcDbSymbolTableRecord
100
AcDbLinetypeTableRecord
  2
CONTINUOUS
 70
64
  3
Solid line
 72
65
 73
0
 40
0.0
  0
LTYPE
  5
1F5
100
AcDbSymbolTableRecord
100
AcDbLinetypeTableRecord
  2
CENTER
 70
64
  3
____ _ ____ _ ____ _ ____ _ ____ _ ____ _ ____
 72
65
 73
4
 40
0.6
 49
0.375
 74
0
 49
-0.075
 74
0
 49
0.075
 74
0
 49
-0.075
 74
0
  0
LTYPE
  5
1F6
100
AcDbSymbolTableRecord
100
AcDbLinetypeTableRecord
  2
HIDDEN
 70
64
  3
- - - - - - - - - - - - - - - - - - - -
 72
65
 73
2
 40
0.2
 49
0.1
 74
0
 49
-0.1
 74
0
  0
LTYPE
  5
1F7
100
AcDbSymbolTableRecord
100
AcDbLinetypeTableRecord
  2
PHANTOM
 70
64
  3
_____ _ _ _____ _ _ _____ _ _ _____
 72
65
 73
6
 40
0.8
 49
0.45
 74
0
 49
-0.05
 74
0
 49
0.1
 74
0
 49
-0.05
 74
0
 49
0.1
 74
0
 49
-0.05
 74
0
  0
LTYPE
  5
1F8
100
AcDbSymbolTableRecord
100
AcDbLinetypeTableRecord
  2
DOT
 70
64
  3
. . . . . . . . . . . . . . . . . . . .
 72
65
 73
2
 40
0.2
 49
0.1
 74
0
 49
-0.1
 74
0
  0
LTYPE
  5
1F9
100
AcDbSymbolTableRecord
100
AcDbLinetypeTableRecord
  2
DASHED
 70
64
  3
- - - - - - - - - - - - - - - - - - - -
 72
65
 73
2
 40
0.2
 49
0.1
 74
0
 49
-0.1
 74
0
  0
ENDTAB
  0
TABLE
  2
LAYER
  5
2
100
AcDbSymbolTable
 70
36
  0
LAYER
  5
10
100
AcDbSymbolTableRecord
100
AcDbLayerTableRecord
  2
0
 70
0
 62
7
  6
CONTINUOUS
370
-3
390
F
  0
LAYER
  5
1FA
100
AcDbSymbolTableRecord
100
AcDbLayerTableRecord
  2
DEFAULT_1
 70
0
 62
7
  6
CENTER
370
-3
390
F
  0
LAYER
  5
1FB
100
AcDbSymbolTableRecord
100
AcDbLayerTableRecord
  2
DEFAULT_2
 70
0
 62
8
  6
HIDDEN
370
-3
390
F
  0
LAYER
  5
1FC
100
AcDbSymbolTableRecord
100
AcDbLayerTableRecord
  2
DEFAULT_3
 70
0
 62
7
  6
PHANTOM
370
-3
390
F
  0
LAYER
  5
1FD
100
AcDbSymbolTableRecord
100
AcDbLayerTableRecord
  2
01_ALL_DTM_PLN
 70
0
 62
7
  6
CONTINUOUS
370
-3
390
F
  0
LAYER
  5
1FE
100
AcDbSymbolTableRecord
100
AcDbLayerTableRecord
  2
01__ASM_ALL_DTM_PLN
 70
0
 62
7
  6
CONTINUOUS
370
-3
390
F
  0
LAYER
  5
1FF
100
AcDbSymbolTableRecord
100
AcDbLayerTableRecord
  2
01__ASM_DEF_DTM_PLN
 70
0
 62
7
  6
CONTINUOUS
370
-3
390
F
  0
LAYER
  5
200
100
AcDbSymbolTableRecord
100
AcDbLayerTableRecord
  2
01___PRT_ALL_DTM_PLN
 70
0
 62
7
  6
CONTINUOUS
370
-3
390
F
  0
LAYER
  5
201
100
AcDbSymbolTableRecord
100
AcDbLayerTableRecord
  2
01___PRT_DEF_DTM_PLN
 70
0
 62
7
  6
CONTINUOUS
370
-3
390
F
  0
LAYER
  5
202
100
AcDbSymbolTableRecord
100
AcDbLayerTableRecord
  2
02_ALL_AXES
 70
0
 62
7
  6
CONTINUOUS
370
-3
390
F
  0
LAYER
  5
203
100
AcDbSymbolTableRecord
100
AcDbLayerTableRecord
  2
02__ASM_ALL_AXES
 70
0
 62
7
  6
CONTINUOUS
370
-3
390
F
  0
LAYER
  5
204
100
AcDbSymbolTableRecord
100
AcDbLayerTableRecord
  2
02___PRT_ALL_AXES
 70
0
 62
7
  6
CONTINUOUS
370
-3
390
F
  0
LAYER
  5
205
100
AcDbSymbolTableRecord
100
AcDbLayerTableRecord
  2
03_ALL_CURVES
 70
0
 62
7
  6
CONTINUOUS
370
-3
390
F
  0
LAYER
  5
206
100
AcDbSymbolTableRecord
100
AcDbLayerTableRecord
  2
03__ASM_ALL_CURVES
 70
0
 62
7
  6
CONTINUOUS
370
-3
390
F
  0
LAYER
  5
207
100
AcDbSymbolTableRecord
100
AcDbLayerTableRecord
  2
03___PRT_ALL_CURVES
 70
0
 62
7
  6
CONTINUOUS
370
-3
390
F
  0
LAYER
  5
208
100
AcDbSymbolTableRecord
100
AcDbLayerTableRecord
  2
04_ALL_DTM_PNT
 70
0
 62
7
  6
CONTINUOUS
370
-3
390
F
  0
LAYER
  5
209
100
AcDbSymbolTableRecord
100
AcDbLayerTableRecord
  2
04__ASM_ALL_DTM_PNT
 70
0
 62
7
  6
CONTINUOUS
370
-3
390
F
  0
LAYER
  5
20A
100
AcDbSymbolTableRecord
100
AcDbLayerTableRecord
  2
04___PRT_ALL_DTM_PNT
 70
0
 62
7
  6
CONTINUOUS
370
-3
390
F
  0
LAYER
  5
20B
100
AcDbSymbolTableRecord
100
AcDbLayerTableRecord
  2
05_ALL_DTM_CSYS
 70
0
 62
7
  6
CONTINUOUS
370
-3
390
F
  0
LAYER
  5
20C
100
AcDbSymbolTableRecord
100
AcDbLayerTableRecord
  2
05__ASM_ALL_DTM_CSYS
 70
0
 62
7
  6
CONTINUOUS
370
-3
390
F
  0
LAYER
  5
20D
100
AcDbSymbolTableRecord
100
AcDbLayerTableRecord
  2
05__ASM_DEF_DTM_CSYS
 70
0
 62
7
  6
CONTINUOUS
370
-3
390
F
  0
LAYER
  5
20E
100
AcDbSymbolTableRecord
100
AcDbLayerTableRecord
  2
05___PRT_ALL_DTM_CSYS
 70
0
 62
7
  6
CONTINUOUS
370
-3
390
F
  0
LAYER
  5
20F
100
AcDbSymbolTableRecord
100
AcDbLayerTableRecord
  2
05___PRT_DEF_DTM_CSYS
 70
0
 62
7
  6
CONTINUOUS
370
-3
390
F
  0
LAYER
  5
210
100
AcDbSymbolTableRecord
100
AcDbLayerTableRecord
  2
06_ALL_SURFS
 70
0
 62
7
  6
CONTINUOUS
370
-3
390
F
  0
LAYER
  5
211
100
AcDbSymbolTableRecord
100
AcDbLayerTableRecord
  2
06__ASM_ALL_SURFS
 70
0
 62
7
  6
CONTINUOUS
370
-3
390
F
  0
LAYER
  5
212
100
AcDbSymbolTableRecord
100
AcDbLayerTableRecord
  2
06___PRT_ALL_SURFS
 70
0
 62
7
  6
CONTINUOUS
370
-3
390
F
  0
LAYER
  5
213
100
AcDbSymbolTableRecord
100
AcDbLayerTableRecord
  2
07__ASM_ALL_SKELETONS
 70
0
 62
7
  6
CONTINUOUS
370
-3
390
F
  0
LAYER
  5
214
100
AcDbSymbolTableRecord
100
AcDbLayerTableRecord
  2
COPY_GEO_FET
 70
0
 62
7
  6
CONTINUOUS
370
-3
390
F
  0
LAYER
  5
215
100
AcDbSymbolTableRecord
100
AcDbLayerTableRecord
  2
COSMETIC
 70
0
 62
7
  6
CONTINUOUS
370
-3
390
F
  0
LAYER
  5
216
100
AcDbSymbolTableRecord
100
AcDbLayerTableRecord
  2
CUT_REF_SURF
 70
0
 62
7
  6
CONTINUOUS
370
-3
390
F
  0
LAYER
  5
217
100
AcDbSymbolTableRecord
100
AcDbLayerTableRecord
  2
DATESTAMP
 70
0
 62
7
  6
CONTINUOUS
370
-3
390
F
  0
LAYER
  5
218
100
AcDbSymbolTableRecord
100
AcDbLayerTableRecord
  2
DATUM
 70
0
 62
7
  6
CONTINUOUS
370
-3
390
F
  0
LAYER
  5
219
100
AcDbSymbolTableRecord
100
AcDbLayerTableRecord
  2
DATUM_B
 70
0
 62
7
  6
CONTINUOUS
370
-3
390
F
  0
LAYER
  5
21A
100
AcDbSymbolTableRecord
100
AcDbLayerTableRecord
  2
DATUM_PLANES
 70
0
 62
7
  6
CONTINUOUS
370
-3
390
F
  0
LAYER
  5
21B
100
AcDbSymbolTableRecord
100
AcDbLayerTableRecord
  2
DIM
 70
0
 62
7
  6
CONTINUOUS
370
-3
390
F
  0
LAYER
  5
21C
100
AcDbSymbolTableRecord
100
AcDbLayerTableRecord
  2
DIM_1
 70
0
 62
7
  6
CONTINUOUS
370
-3
390
F
  0
LAYER
  5
21D
100
AcDbSymbolTableRecord
100
AcDbLayerTableRecord
  2
DIM_2
 70
0
 62
7
  6
CONTINUOUS
370
-3
390
F
  0
LAYER
  5
21E
100
AcDbSymbolTableRecord
100
AcDbLayerTableRecord
  2
DIM_3
 70
0
 62
7
  6
CONTINUOUS
370
-3
390
F
  0
LAYER
  5
21F
100
AcDbSymbolTableRecord
100
AcDbLayerTableRecord
  2
DIM_4
 70
0
 62
7
  6
CONTINUOUS
370
-3
390
F
  0
LAYER
  5
220
100
AcDbSymbolTableRecord
100
AcDbLayerTableRecord
  2
DIM_5
 70
0
 62
7
  6
CONTINUOUS
370
-3
390
F
  0
LAYER
  5
221
100
AcDbSymbolTableRecord
100
AcDbLayerTableRecord
  2
DIM_6
 70
0
 62
7
  6
CONTINUOUS
370
-3
390
F
  0
LAYER
  5
222
100
AcDbSymbolTableRecord
100
AcDbLayerTableRecord
  2
DTM
 70
0
 62
7
  6
CONTINUOUS
370
-3
390
F
  0
LAYER
  5
223
100
AcDbSymbolTableRecord
100
AcDbLayerTableRecord
  2
E3B_10
 70
0
 62
7
  6
CONTINUOUS
370
-3
390
F
  0
LAYER
  5
224
100
AcDbSymbolTableRecord
100
AcDbLayerTableRecord
  2
E3B_2
 70
0
 62
7
  6
CONTINUOUS
370
-3
390
F
  0
LAYER
  5
225
100
AcDbSymbolTableRecord
100
AcDbLayerTableRecord
  2
E3B_5
 70
0
 62
7
  6
CONTINUOUS
370
-3
390
F
  0
LAYER
  5
226
100
AcDbSymbolTableRecord
100
AcDbLayerTableRecord
  2
E3B_6
 70
0
 62
7
  6
CONTINUOUS
370
-3
390
F
  0
LAYER
  5
227
100
AcDbSymbolTableRecord
100
AcDbLayerTableRecord
  2
E3B_7
 70
0
 62
7
  6
CONTINUOUS
370
-3
390
F
  0
LAYER
  5
228
100
AcDbSymbolTableRecord
100
AcDbLayerTableRecord
  2
E3B_8
 70
0
 62
7
  6
CONTINUOUS
370
-3
390
F
  0
LAYER
  5
229
100
AcDbSymbolTableRecord
100
AcDbLayerTableRecord
  2
EXT_COPY_GEO
 70
0
 62
7
  6
CONTINUOUS
370
-3
390
F
  0
LAYER
  5
22A
100
AcDbSymbolTableRecord
100
AcDbLayerTableRecord
  2
LS
 70
0
 62
7
  6
CONTINUOUS
370
-3
390
F
  0
LAYER
  5
22B
100
AcDbSymbolTableRecord
100
AcDbLayerTableRecord
  2
ORIGIN
 70
0
 62
7
  6
CONTINUOUS
370
-3
390
F
  0
LAYER
  5
22C
100
AcDbSymbolTableRecord
100
AcDbLayerTableRecord
  2
PARTNUMBER
 70
0
 62
7
  6
CONTINUOUS
370
-3
390
F
  0
LAYER
  5
22D
100
AcDbSymbolTableRecord
100
AcDbLayerTableRecord
  2
PORT_AREAS
 70
0
 62
7
  6
CONTINUOUS
370
-3
390
F
  0
LAYER
  5
22E
100
AcDbSymbolTableRecord
100
AcDbLayerTableRecord
  2
TEXT
 70
0
 62
7
  6
CONTINUOUS
370
-3
390
F
  0
LAYER
  5
22F
100
AcDbSymbolTableRecord
100
AcDbLayerTableRecord
  2
THREAD
 70
0
 62
7
  6
CONTINUOUS
370
-3
390
F
  0
LAYER
  5
230
100
AcDbSymbolTableRecord
100
AcDbLayerTableRecord
  2
THREADS
 70
0
 62
7
  6
CONTINUOUS
370
-3
390
F
  0
ENDTAB
  0
TABLE
  2
STYLE
  5
3
100
AcDbSymbolTable
 70
1
  0
STYLE
  5
11
100
AcDbSymbolTableRecord
100
AcDbTextStyleTableRecord
  2
STANDARD
 70
0
 40
0.0
 41
0.8
 50
0.0
 71
0
 42
0.2
  3
txt
  4

  0
ENDTAB
  0
TABLE
  2
VIEW
  5
6
100
AcDbSymbolTable
 70
0
  0
ENDTAB
  0
TABLE
  2
UCS
  5
7
100
AcDbSymbolTable
 70
0
  0
ENDTAB
  0
TABLE
  2
APPID
  5
9
100
AcDbSymbolTable
 70
1
  0
APPID
  5
231
100
AcDbSymbolTableRecord
100
AcDbRegAppTableRecord
  2
ACAD
 70
0
  0
ENDTAB
  0
TABLE
  2
BLOCK_RECORD
  5
1
100
AcDbSymbolTable
 70
0
  0
BLOCK_RECORD
  5
1F
100
AcDbSymbolTableRecord
100
AcDbBlockTableRecord
  2
*MODEL_SPACE
  0
BLOCK_RECORD
  5
1B
100
AcDbSymbolTableRecord
100
AcDbBlockTableRecord
  2
*PAPER_SPACE
  0
ENDTAB
  0
TABLE
  2
DIMSTYLE
  5
A
100
AcDbSymbolTable
 70
1
100
AcDbDimStyleTable
 71
0
  0
DIMSTYLE
105
232
100
AcDbSymbolTableRecord
100
AcDbDimStyleTableRecord
  2
STANDARD
 70
0
  3

  4

 40
1.0
 41
0.1875
 42
0.0625
 43
0.38
 44
0.18
 45
0.0
 46
0.0
 47
0.01
 48
0.01
140
0.15625
141
0.09
142
0.0
143
25.4
144
1.0
145
0.0
146
1.0
147
0.09
 71
0.0
 72
0.0
 73
1
 74
1
 75
0
 76
0
 77
0
 78
4
170
0
171
2
172
0
173
0
174
0
175
0
176
0
177
0
178
0
270
2
271
2
272
2
273
2
274
2
275
0
280
0
281
0
282
0
283
1
284
4
285
0
286
0
287
3
288
0
340
11
  0
ENDTAB
  0
ENDSEC
  0
SECTION
  2
BLOCKS
  0
BLOCK
  5
20
100
AcDbEntity
  8
0
100
AcDbBlockBegin
  2
*MODEL_SPACE
 70
0
 10
0.0
 20
0.0
 30
0.0
  3
*MODEL_SPACE
  1

  0
ENDBLK
  5
21
100
AcDbEntity
  8
0
100
AcDbBlockEnd
  0
BLOCK
  5
1C
100
AcDbEntity
  8
0
100
AcDbBlockBegin
  2
*PAPER_SPACE
 70
0
 10
0.0
 20
0.0
 30
0.0
  3
*PAPER_SPACE
  1

  0
ENDBLK
  5
1D
100
AcDbEntity
  8
0
100
AcDbBlockEnd
  0
ENDSEC
  0
SECTION
  2
ENTITIES
  0
LINE
  5
233
100
AcDbEntity
  8
03__ASM_ALL_CURVES
100
AcDbLine
 62
4
  6
CONTINUOUS
 10
8.2767670107
 20
6.4720031618
 11
8.269694674
 21
6.4773074118
  0
LINE
  5
234
100
AcDbEntity
  8
03__ASM_ALL_CURVES
100
AcDbLine
 62
4
  6
CONTINUOUS
 10
8.3121286765
 20
6.4879159118
 11
8.3262733423
 21
6.4773074118
  0
LINE
  5
235
100
AcDbEntity
  8
03__ASM_ALL_CURVES
100
AcDbLine
 62
4
  6
CONTINUOUS
 10
8.290911674
 20
6.5144371618
 11
8.2979840107
 21
6.5091329118
  0
LINE
  5
236
100
AcDbEntity
  8
03__ASM_ALL_CURVES
100
AcDbLine
 62
4
  6
CONTINUOUS
 10
8.3333456752
 20
6.6841731618
 11
8.3404180088
 21
6.6788689118
  0
LINE
  5
237
100
AcDbEntity
  8
03__ASM_ALL_CURVES
100
AcDbLine
 62
4
  6
CONTINUOUS
 10
8.2767670107
 20
6.7319114118
 11
8.269694674
 21
6.7372156618
  0
LINE
  5
238
100
AcDbEntity
  8
03__ASM_ALL_CURVES
100
AcDbLine
 62
4
  6
CONTINUOUS
 10
8.6507670107
 20
6.4720031618
 11
8.643694674
 21
6.4773074118
  0
LINE
  5
239
100
AcDbEntity
  8
03__ASM_ALL_CURVES
100
AcDbLine
 62
4
  6
CONTINUOUS
 10
8.269694674
 20
6.4773074118
 11
8.2626223423
 21
6.4879159118
  0
LINE
  5
23A
100
AcDbEntity
  8
03__ASM_ALL_CURVES
100
AcDbLine
 62
4
  6
CONTINUOUS
 10
8.2979840107
 20
6.5091329118
 11
8.3121286765
 21
6.4879159118
  0
LINE
  5
23B
100
AcDbEntity
  8
0
100
AcDbLine
 62
7
  6
CONTINUOUS
 10
8.6280563423
 20
11.9534784959
 11
8.6870563423
 21
11.9875421618
  0
LINE
  5
23C
100
AcDbEntity
  8
03__ASM_ALL_CURVES
100
AcDbLine
 62
4
  6
CONTINUOUS
 10
8.3262733423
 20
6.4773074118
 11
8.3474903423
 21
6.4720031618
  0
LINE
  5
23D
100
AcDbEntity
  8
03__ASM_ALL_CURVES
100
AcDbLine
 62
4
  6
CONTINUOUS
 10
8.7002733423
 20
6.4773074118
 11
8.7214903423
 21
6.4720031618
  0
LINE
  5
23E
100
AcDbEntity
  8
03__ASM_ALL_CURVES
100
AcDbLine
 62
4
  6
CONTINUOUS
 10
8.3192010081
 20
6.6894774118
 11
8.3333456752
 21
6.6841731618
  0
LINE
  5
23F
100
AcDbEntity
  8
03__ASM_ALL_CURVES
100
AcDbLine
 62
4
  6
CONTINUOUS
 10
8.290911674
 20
6.7266071618
 11
8.2767670107
 21
6.7319114118
  0
LINE
  5
240
100
AcDbEntity
  8
03__ASM_ALL_CURVES
100
AcDbLine
 62
4
  6
CONTINUOUS
 10
8.3192010081
 20
6.7266071618
 11
8.3050563423
 21
6.7319114118
  0
LINE
  5
241
100
AcDbEntity
  8
03__ASM_ALL_CURVES
100
AcDbLine
 62
4
  6
CONTINUOUS
 10
8.6861286765
 20
6.4879159118
 11
8.7002733423
 21
6.4773074118
  0
LINE
  5
242
100
AcDbEntity
  8
03__ASM_ALL_CURVES
100
AcDbLine
 62
4
  6
CONTINUOUS
 10
8.664911674
 20
6.5144371618
 11
8.6719840107
 21
6.5091329118
  0
LINE
  5
243
100
AcDbEntity
  8
03__ASM_ALL_CURVES
100
AcDbLine
 62
4
  6
CONTINUOUS
 10
8.3333456752
 20
6.7637369118
 11
8.3404180088
 21
6.7584326618
  0
LINE
  5
244
100
AcDbEntity
  8
03__ASM_ALL_CURVES
100
AcDbLine
 62
4
  6
CONTINUOUS
 10
8.2626223423
 20
6.9228644118
 11
8.2767670107
 21
6.9122559118
  0
LINE
  5
245
100
AcDbEntity
  8
03__ASM_ALL_CURVES
100
AcDbLine
 62
4
  6
CONTINUOUS
 10
8.2767670107
 20
6.9865154118
 11
8.269694674
 21
6.9918196618
  0
LINE
  5
246
100
AcDbEntity
  8
03__ASM_ALL_CURVES
100
AcDbLine
 62
4
  6
CONTINUOUS
 10
8.6507670107
 20
6.7266071618
 11
8.643694674
 21
6.7319114118
  0
LINE
  5
247
100
AcDbEntity
  8
03__ASM_ALL_CURVES
100
AcDbLine
 62
4
  6
CONTINUOUS
 10
8.6932010081
 20
6.7213029118
 11
8.6790563423
 21
6.7319114118
  0
LINE
  5
248
100
AcDbEntity
  8
03__ASM_ALL_CURVES
100
AcDbLine
 62
4
  6
CONTINUOUS
 10
8.6578393423
 20
6.7690411618
 11
8.664911674
 21
6.7637369118
  0
LINE
  5
249
100
AcDbEntity
  8
03__ASM_ALL_CURVES
100
AcDbLine
 62
4
  6
CONTINUOUS
 10
8.2979840107
 20
6.6470434118
 11
8.290911674
 21
6.6576519118
  0
LINE
  5
24A
100
AcDbEntity
  8
03__ASM_ALL_CURVES
100
AcDbLine
 62
4
  6
CONTINUOUS
 10
8.269694674
 20
6.7372156618
 11
8.2626223423
 21
6.7478241618
  0
LINE
  5
24B
100
AcDbEntity
  8
03__ASM_ALL_CURVES
100
AcDbLine
 62
4
  6
CONTINUOUS
 10
8.3404180088
 20
6.6788689118
 11
8.3474903423
 21
6.6682604118
  0
LINE
  5
24C
100
AcDbEntity
  8
03__ASM_ALL_CURVES
100
AcDbLine
 62
4
  6
CONTINUOUS
 10
8.3404180088
 20
6.7584326618
 11
8.3474903423
 21
6.7478241618
  0
LINE
  5
24D
100
AcDbEntity
  8
03__ASM_ALL_CURVES
100
AcDbLine
 62
4
  6
CONTINUOUS
 10
8.269694674
 20
6.9918196618
 11
8.2626223423
 21
7.0024281618
  0
LINE
  5
24E
100
AcDbEntity
  8
03__ASM_ALL_CURVES
100
AcDbLine
 62
4
  6
CONTINUOUS
 10
8.643694674
 20
6.4773074118
 11
8.6366223423
 21
6.4879159118
  0
LINE
  5
24F
100
AcDbEntity
  8
03__ASM_ALL_CURVES
100
AcDbLine
 62
4
  6
CONTINUOUS
 10
8.2626223423
 20
6.6523476618
 11
8.2979840107
 21
6.6470434118
  0
LINE
  5
250
100
AcDbEntity
  8
03__ASM_ALL_CURVES
100
AcDbLine
 62
4
  6
CONTINUOUS
 10
8.3192010081
 20
6.7690411618
 11
8.3333456752
 21
6.7637369118
  0
LINE
  5
251
100
AcDbEntity
  8
03__ASM_ALL_CURVES
100
AcDbLine
 62
4
  6
CONTINUOUS
 10
8.290911674
 20
6.9812111618
 11
8.2767670107
 21
6.9865154118
  0
LINE
  5
252
100
AcDbEntity
  8
03__ASM_ALL_CURVES
100
AcDbLine
 62
4
  6
CONTINUOUS
 10
8.3192010081
 20
6.9812111618
 11
8.3050563423
 21
6.9865154118
  0
LINE
  5
253
100
AcDbEntity
  8
03__ASM_ALL_CURVES
100
AcDbLine
 62
4
  6
CONTINUOUS
 10
8.3333456752
 20
7.0183409118
 11
8.3404180088
 21
7.0130366618
  0
LINE
  5
254
100
AcDbEntity
  8
03__ASM_ALL_CURVES
100
AcDbLine
 62
4
  6
CONTINUOUS
 10
8.7002733423
 20
6.7743454118
 11
8.7144180088
 21
6.7637369118
  0
LINE
  5
255
100
AcDbEntity
  8
03__ASM_ALL_CURVES
100
AcDbLine
 62
4
  6
CONTINUOUS
 10
8.3333456752
 20
7.1085131618
 11
8.3404180088
 21
7.1032089118
  0
LINE
  5
256
100
AcDbEntity
  8
03__ASM_ALL_CURVES
100
AcDbLine
 62
4
  6
CONTINUOUS
 10
8.6366223423
 20
6.9228644118
 11
8.6507670107
 21
6.9122559118
  0
LINE
  5
257
100
AcDbEntity
  8
03__ASM_ALL_CURVES
100
AcDbLine
 62
4
  6
CONTINUOUS
 10
8.2767670107
 20
7.2411194118
 11
8.269694674
 21
7.2464236618
  0
LINE
  5
258
100
AcDbEntity
  8
03__ASM_ALL_CURVES
100
AcDbLine
 62
4
  6
CONTINUOUS
 10
8.3333456752
 20
7.2729449118
 11
8.3404180088
 21
7.2676406618
  0
LINE
  5
259
100
AcDbEntity
  8
03__ASM_ALL_CURVES
100
AcDbLine
 62
4
  6
CONTINUOUS
 10
8.2767670107
 20
7.3206831618
 11
8.269694674
 21
7.3259874118
  0
LINE
  5
25A
100
AcDbEntity
  8
03__ASM_ALL_CURVES
100
AcDbLine
 62
4
  6
CONTINUOUS
 10
8.7073456752
 20
7.0236451618
 11
8.7144180088
 21
7.0183409118
  0
LINE
  5
25B
100
AcDbEntity
  8
03__ASM_ALL_CURVES
100
AcDbLine
 62
4
  6
CONTINUOUS
 10
8.6719840107
 20
6.5091329118
 11
8.6861286765
 21
6.4879159118
  0
LINE
  5
25C
100
AcDbEntity
  8
03__ASM_ALL_CURVES
100
AcDbLine
 62
4
  6
CONTINUOUS
 10
8.2979840107
 20
7.0713834118
 11
8.290911674
 21
7.0819919118
  0
LINE
  5
25D
100
AcDbEntity
  8
03__ASM_ALL_CURVES
100
AcDbLine
 62
4
  6
CONTINUOUS
 10
8.3404180088
 20
7.0130366618
 11
8.3474903423
 21
7.0024281618
  0
LINE
  5
25E
100
AcDbEntity
  8
03__ASM_ALL_CURVES
100
AcDbLine
 62
4
  6
CONTINUOUS
 10
8.3404180088
 20
7.1032089118
 11
8.3474903423
 21
7.0926004118
  0
LINE
  5
25F
100
AcDbEntity
  8
03__ASM_ALL_CURVES
100
AcDbLine
 62
4
  6
CONTINUOUS
 10
8.269694674
 20
7.2464236618
 11
8.2626223423
 21
7.2570321618
  0
LINE
  5
260
100
AcDbEntity
  8
03__ASM_ALL_CURVES
100
AcDbLine
 62
4
  6
CONTINUOUS
 10
8.643694674
 20
6.7319114118
 11
8.6366223423
 21
6.7425199118
  0
LINE
  5
261
100
AcDbEntity
  8
03__ASM_ALL_CURVES
100
AcDbLine
 62
4
  6
CONTINUOUS
 10
8.269694674
 20
7.3259874118
 11
8.2626223423
 21
7.3365959118
  0
LINE
  5
262
100
AcDbEntity
  8
03__ASM_ALL_CURVES
100
AcDbLine
 62
4
  6
CONTINUOUS
 10
8.6790563423
 20
6.7319114118
 11
8.6719840107
 21
6.7425199118
  0
LINE
  5
263
100
AcDbEntity
  8
03__ASM_ALL_CURVES
100
AcDbLine
 62
4
  6
CONTINUOUS
 10
8.664911674
 20
6.7637369118
 11
8.6719840107
 21
6.7531284118
  0
LINE
  5
264
100
AcDbEntity
  8
03__ASM_ALL_CURVES
100
AcDbLine
 62
4
  6
CONTINUOUS
 10
8.3404180088
 20
7.2676406618
 11
8.3474903423
 21
7.2570321618
  0
LINE
  5
265
100
AcDbEntity
  8
03__ASM_ALL_CURVES
100
AcDbLine
 62
4
  6
CONTINUOUS
 10
8.2979840107
 20
7.3578129118
 11
8.3121286765
 21
7.3365959118
  0
LINE
  5
266
100
AcDbEntity
  8
03__ASM_ALL_CURVES
100
AcDbLine
 62
4
  6
CONTINUOUS
 10
8.7144180088
 20
6.7637369118
 11
8.7214903423
 21
6.7531284118
  0
LINE
  5
267
100
AcDbEntity
  8
03__ASM_ALL_CURVES
100
AcDbLine
 62
4
  6
CONTINUOUS
 10
8.3050563423
 20
6.7319114118
 11
8.2979840107
 21
6.7478241618
  0
LINE
  5
268
100
AcDbEntity
  8
03__ASM_ALL_CURVES
100
AcDbLine
 62
4
  6
CONTINUOUS
 10
8.3050563423
 20
6.9865154118
 11
8.2979840107
 21
7.0024281618
  0
LINE
  5
269
100
AcDbEntity
  8
03__ASM_ALL_CURVES
100
AcDbLine
 62
4
  6
CONTINUOUS
 10
10.4432010081
 20
6.4720031618
 11
10.414911674
 21
6.4720031618
  0
LINE
  5
26A
100
AcDbEntity
  8
03__ASM_ALL_CURVES
100
AcDbLine
 62
4
  6
CONTINUOUS
 10
8.2767670107
 20
6.5144371618
 11
8.290911674
 21
6.5144371618
  0
LINE
  5
26B
100
AcDbEntity
  8
03__ASM_ALL_CURVES
100
AcDbLine
 62
4
  6
CONTINUOUS
 10
8.6507670107
 20
6.5144371618
 11
8.664911674
 21
6.5144371618
  0
LINE
  5
26C
100
AcDbEntity
  8
03__ASM_ALL_CURVES
100
AcDbLine
 62
4
  6
CONTINUOUS
 10
10.414911674
 20
6.5144371618
 11
10.4432010081
 21
6.5144371618
  0
LINE
  5
26D
100
AcDbEntity
  8
03__ASM_ALL_CURVES
100
AcDbLine
 62
4
  6
CONTINUOUS
 10
10.4714903423
 20
6.5913487868
 11
10.460881842
 21
6.5913487868
  0
LINE
  5
26E
100
AcDbEntity
  8
03__ASM_ALL_CURVES
100
AcDbLine
 62
4
  6
CONTINUOUS
 10
8.7214903423
 20
6.5913487868
 11
8.710881842
 21
6.5913487868
  0
LINE
  5
26F
100
AcDbEntity
  8
03__ASM_ALL_CURVES
100
AcDbLine
 62
4
  6
CONTINUOUS
 10
8.3474903423
 20
6.5913487868
 11
8.336881842
 21
6.5913487868
  0
LINE
  5
270
100
AcDbEntity
  8
03__ASM_ALL_CURVES
100
AcDbLine
 62
4
  6
CONTINUOUS
 10
8.2767670107
 20
6.9122559118
 11
8.2979840107
 21
6.9069516618
  0
LINE
  5
271
100
AcDbEntity
  8
03__ASM_ALL_CURVES
100
AcDbLine
 62
4
  6
CONTINUOUS
 10
8.6507670107
 20
6.9122559118
 11
8.6719840107
 21
6.9069516618
  0
LINE
  5
272
100
AcDbEntity
  8
03__ASM_ALL_CURVES
100
AcDbLine
 62
4
  6
CONTINUOUS
 10
8.3192010081
 20
7.0236451618
 11
8.3333456752
 21
7.0183409118
  0
LINE
  5
273
100
AcDbEntity
  8
03__ASM_ALL_CURVES
100
AcDbLine
 62
4
  6
CONTINUOUS
 10
8.3192010081
 20
7.1138174118
 11
8.3333456752
 21
7.1085131618
  0
LINE
  5
274
100
AcDbEntity
  8
03__ASM_ALL_CURVES
100
AcDbLine
 62
4
  6
CONTINUOUS
 10
8.6932010081
 20
7.0289494118
 11
8.7073456752
 21
7.0236451618
  0
LINE
  5
275
100
AcDbEntity
  8
03__ASM_ALL_CURVES
100
AcDbLine
 62
4
  6
CONTINUOUS
 10
8.290911674
 20
7.2358151618
 11
8.2767670107
 21
7.2411194118
  0
LINE
  5
276
100
AcDbEntity
  8
03__ASM_ALL_CURVES
100
AcDbLine
 62
4
  6
CONTINUOUS
 10
8.6932010081
 20
7.1138174118
 11
8.7073456752
 21
7.1085131618
  0
LINE
  5
277
100
AcDbEntity
  8
03__ASM_ALL_CURVES
100
AcDbLine
 62
4
  6
CONTINUOUS
 10
10.414911674
 20
6.4720031618
 11
10.4007670107
 21
6.4773074118
  0
LINE
  5
278
100
AcDbEntity
  8
03__ASM_ALL_CURVES
100
AcDbLine
 62
4
  6
CONTINUOUS
 10
8.3121286765
 20
7.3365959118
 11
8.3262733423
 21
7.3259874118
  0
LINE
  5
279
100
AcDbEntity
  8
03__ASM_ALL_CURVES
100
AcDbLine
 62
4
  6
CONTINUOUS
 10
8.290911674
 20
7.3631171618
 11
8.2979840107
 21
7.3578129118
  0
LINE
  5
27A
100
AcDbEntity
  8
03__ASM_ALL_CURVES
100
AcDbLine
 62
4
  6
CONTINUOUS
 10
8.7073456752
 20
7.1085131618
 11
8.7144180088
 21
7.1032089118
  0
LINE
  5
27B
100
AcDbEntity
  8
03__ASM_ALL_CURVES
100
AcDbLine
 62
4
  6
CONTINUOUS
 10
8.3333456752
 20
7.4320724118
 11
8.3474903423
 21
7.4214639118
  0
LINE
  5
27C
100
AcDbEntity
  8
03__ASM_ALL_CURVES
100
AcDbLine
 62
4
  6
CONTINUOUS
 10
8.6578393423
 20
7.2782491618
 11
8.664911674
 21
7.2729449118
  0
LINE
  5
27D
100
AcDbEntity
  8
03__ASM_ALL_CURVES
100
AcDbLine
 62
4
  6
CONTINUOUS
 10
8.7002733423
 20
7.2835534118
 11
8.7144180088
 21
7.2729449118
  0
LINE
  5
27E
100
AcDbEntity
  8
03__ASM_ALL_CURVES
100
AcDbLine
 62
4
  6
CONTINUOUS
 10
8.6719840107
 20
6.9865154118
 11
8.664911674
 21
6.9971239118
  0
LINE
  5
27F
100
AcDbEntity
  8
03__ASM_ALL_CURVES
100
AcDbLine
 62
4
  6
CONTINUOUS
 10
8.6719840107
 20
7.0713834118
 11
8.664911674
 21
7.0819919118
  0
LINE
  5
280
100
AcDbEntity
  8
03__ASM_ALL_CURVES
100
AcDbLine
 62
4
  6
CONTINUOUS
 10
8.7144180088
 20
7.0183409118
 11
8.7214903423
 21
7.0077324118
  0
LINE
  5
281
100
AcDbEntity
  8
03__ASM_ALL_CURVES
100
AcDbLine
 62
4
  6
CONTINUOUS
 10
8.7144180088
 20
7.1032089118
 11
8.7214903423
 21
7.0926004118
  0
LINE
  5
282
100
AcDbEntity
  8
03__ASM_ALL_CURVES
100
AcDbLine
 62
4
  6
CONTINUOUS
 10
8.643694674
 20
7.2411194118
 11
8.6366223423
 21
7.2517279118
  0
LINE
  5
283
100
AcDbEntity
  8
03__ASM_ALL_CURVES
100
AcDbLine
 62
4
  6
CONTINUOUS
 10
8.664911674
 20
7.2729449118
 11
8.6719840107
 21
7.2623364118
  0
LINE
  5
284
100
AcDbEntity
  8
03__ASM_ALL_CURVES
100
AcDbLine
 62
4
  6
CONTINUOUS
 10
8.6366223423
 20
6.6629561618
 11
8.7214903423
 21
6.6629561618
  0
LINE
  5
285
100
AcDbEntity
  8
03__ASM_ALL_CURVES
100
AcDbLine
 62
4
  6
CONTINUOUS
 10
10.4714903423
 20
6.6788689118
 11
10.3866223423
 21
6.6788689118
  0
LINE
  5
286
100
AcDbEntity
  8
03__ASM_ALL_CURVES
100
AcDbLine
 62
4
  6
CONTINUOUS
 10
8.7002733423
 20
6.7213029118
 11
8.6932010081
 21
6.7213029118
  0
LINE
  5
287
100
AcDbEntity
  8
03__ASM_ALL_CURVES
100
AcDbLine
 62
4
  6
CONTINUOUS
 10
8.6578393423
 20
6.7266071618
 11
8.6507670107
 21
6.7266071618
  0
LINE
  5
288
100
AcDbEntity
  8
03__ASM_ALL_CURVES
100
AcDbLine
 62
4
  6
CONTINUOUS
 10
8.3192010081
 20
6.7266071618
 11
8.290911674
 21
6.7266071618
  0
LINE
  5
289
100
AcDbEntity
  8
03__ASM_ALL_CURVES
100
AcDbLine
 62
4
  6
CONTINUOUS
 10
8.6507670107
 20
6.7690411618
 11
8.6578393423
 21
6.7690411618
  0
LINE
  5
28A
100
AcDbEntity
  8
03__ASM_ALL_CURVES
100
AcDbLine
 62
4
  6
CONTINUOUS
 10
10.4007670107
 20
6.7690411618
 11
10.4078393423
 21
6.7690411618
  0
LINE
  5
28B
100
AcDbEntity
  8
03__ASM_ALL_CURVES
100
AcDbLine
 62
4
  6
CONTINUOUS
 10
8.6932010081
 20
6.7743454118
 11
8.7002733423
 21
6.7743454118
  0
LINE
  5
28C
100
AcDbEntity
  8
03__ASM_ALL_CURVES
100
AcDbLine
 62
4
  6
CONTINUOUS
 10
10.4432010081
 20
6.7743454118
 11
10.4502733423
 21
6.7743454118
  0
LINE
  5
28D
100
AcDbEntity
  8
03__ASM_ALL_CURVES
100
AcDbLine
 62
4
  6
CONTINUOUS
 10
8.6366223423
 20
6.9918196618
 11
8.6719840107
 21
6.9865154118
  0
LINE
  5
28E
100
AcDbEntity
  8
03__ASM_ALL_CURVES
100
AcDbLine
 62
4
  6
CONTINUOUS
 10
8.2626223423
 20
7.0766876618
 11
8.2979840107
 21
7.0713834118
  0
LINE
  5
28F
100
AcDbEntity
  8
03__ASM_ALL_CURVES
100
AcDbLine
 62
4
  6
CONTINUOUS
 10
8.6366223423
 20
7.0766876618
 11
8.6719840107
 21
7.0713834118
  0
LINE
  5
290
100
AcDbEntity
  8
03__ASM_ALL_CURVES
100
AcDbLine
 62
4
  6
CONTINUOUS
 10
8.3262733423
 20
7.3259874118
 11
8.3474903423
 21
7.3206831618
  0
LINE
  5
291
100
AcDbEntity
  8
03__ASM_ALL_CURVES
100
AcDbLine
 62
4
  6
CONTINUOUS
 10
8.3192010081
 20
7.2782491618
 11
8.3333456752
 21
7.2729449118
  0
LINE
  5
292
100
AcDbEntity
  8
03__ASM_ALL_CURVES
100
AcDbLine
 62
4
  6
CONTINUOUS
 10
10.4432010081
 20
6.5144371618
 11
10.4573456752
 21
6.5091329118
  0
LINE
  5
293
100
AcDbEntity
  8
03__ASM_ALL_CURVES
100
AcDbLine
 62
4
  6
CONTINUOUS
 10
8.664911674
 20
7.3525086618
 11
8.6366223423
 21
7.3631171618
  0
LINE
  5
294
100
AcDbEntity
  8
03__ASM_ALL_CURVES
100
AcDbLine
 62
4
  6
CONTINUOUS
 10
8.7073456752
 20
7.4320724118
 11
8.7214903423
 21
7.4214639118
  0
LINE
  5
295
100
AcDbEntity
  8
03__ASM_ALL_CURVES
100
AcDbLine
 62
4
  6
CONTINUOUS
 10
8.7144180088
 20
7.2729449118
 11
8.7214903423
 21
7.2623364118
  0
LINE
  5
296
100
AcDbEntity
  8
03__ASM_ALL_CURVES
100
AcDbLine
 62
4
  6
CONTINUOUS
 10
8.2626223423
 20
7.1085131618
 11
8.2626223423
 21
7.0766876618
  0
LINE
  5
297
100
AcDbEntity
  8
03__ASM_ALL_CURVES
100
AcDbLine
 62
4
  6
CONTINUOUS
 10
8.2626223423
 20
6.6841731618
 11
8.2626223423
 21
6.6523476618
  0
LINE
  5
298
100
AcDbEntity
  8
03__ASM_ALL_CURVES
100
AcDbLine
 62
4
  6
CONTINUOUS
 10
8.2626223423
 20
6.4879159118
 11
8.2626223423
 21
6.4985244118
  0
LINE
  5
299
100
AcDbEntity
  8
03__ASM_ALL_CURVES
100
AcDbLine
 62
4
  6
CONTINUOUS
 10
8.2626223423
 20
7.3365959118
 11
8.2626223423
 21
7.3472044118
  0
LINE
  5
29A
100
AcDbEntity
  8
03__ASM_ALL_CURVES
100
AcDbLine
 62
4
  6
CONTINUOUS
 10
8.290911674
 20
6.6576519118
 11
8.290911674
 21
6.6682604118
  0
LINE
  5
29B
100
AcDbEntity
  8
03__ASM_ALL_CURVES
100
AcDbLine
 62
4
  6
CONTINUOUS
 10
8.290911674
 20
7.0819919118
 11
8.290911674
 21
7.0926004118
  0
LINE
  5
29C
100
AcDbEntity
  8
03__ASM_ALL_CURVES
100
AcDbLine
 62
4
  6
CONTINUOUS
 10
8.3050563423
 20
7.8086741618
 11
8.3050563423
 21
7.5540701618
  0
LINE
  5
29D
100
AcDbEntity
  8
0
100
AcDbLine
 62
7
  6
CONTINUOUS
 10
8.3050563061
 20
7.8935421618
 11
8.3050563061
 21
11.3935421618
  0
LINE
  5
29E
100
AcDbEntity
  8
03__ASM_ALL_CURVES
100
AcDbLine
 62
4
  6
CONTINUOUS
 10
8.3474903423
 20
7.1933811618
 11
8.3474903423
 21
7.1854247868
  0
LINE
  5
29F
100
AcDbEntity
  8
03__ASM_ALL_CURVES
100
AcDbLine
 62
4
  6
CONTINUOUS
 10
8.3474903423
 20
7.0926004118
 11
8.3474903423
 21
7.0819919118
  0
LINE
  5
2A0
100
AcDbEntity
  8
03__ASM_ALL_CURVES
100
AcDbLine
 62
4
  6
CONTINUOUS
 10
8.3474903423
 20
6.6682604118
 11
8.3474903423
 21
6.6576519118
  0
LINE
  5
2A1
100
AcDbEntity
  8
03__ASM_ALL_CURVES
100
AcDbLine
 62
4
  6
CONTINUOUS
 10
8.3474903423
 20
6.5993051618
 11
8.3474903423
 21
6.5913487868
  0
LINE
  5
2A2
100
AcDbEntity
  8
03__ASM_ALL_CURVES
100
AcDbLine
 62
4
  6
CONTINUOUS
 10
8.3474903423
 20
6.4720031618
 11
8.3474903423
 21
6.5144371618
  0
LINE
  5
2A3
100
AcDbEntity
  8
03__ASM_ALL_CURVES
100
AcDbLine
 62
4
  6
CONTINUOUS
 10
8.3474903423
 20
7.3206831618
 11
8.3474903423
 21
7.3631171618
  0
LINE
  5
2A4
100
AcDbEntity
  8
0
100
AcDbLine
 62
7
  6
CONTINUOUS
 10
9.5455563423
 20
11.4565421618
 11
9.6060563423
 21
11.5170421618
  0
LINE
  5
2A5
100
AcDbEntity
  8
03__ASM_ALL_CURVES
100
AcDbLine
 62
4
  6
CONTINUOUS
 10
10.4361286765
 20
6.9069516618
 11
10.4573456752
 21
6.9122559118
  0
LINE
  5
2A6
100
AcDbEntity
  8
03__ASM_ALL_CURVES
100
AcDbLine
 62
4
  6
CONTINUOUS
 10
8.2979840107
 20
6.9069516618
 11
8.3121286765
 21
6.9069516618
  0
LINE
  5
2A7
100
AcDbEntity
  8
03__ASM_ALL_CURVES
100
AcDbLine
 62
4
  6
CONTINUOUS
 10
8.6719840107
 20
6.9069516618
 11
8.6861286765
 21
6.9069516618
  0
LINE
  5
2A8
100
AcDbEntity
  8
03__ASM_ALL_CURVES
100
AcDbLine
 62
4
  6
CONTINUOUS
 10
10.4219840107
 20
6.9069516618
 11
10.4361286765
 21
6.9069516618
  0
LINE
  5
2A9
100
AcDbEntity
  8
03__ASM_ALL_CURVES
100
AcDbLine
 62
4
  6
CONTINUOUS
 10
8.3192010081
 20
6.9812111618
 11
8.290911674
 21
6.9812111618
  0
LINE
  5
2AA
100
AcDbEntity
  8
03__ASM_ALL_CURVES
100
AcDbLine
 62
4
  6
CONTINUOUS
 10
10.3866223423
 20
7.0024281618
 11
10.4714903423
 21
7.0024281618
  0
LINE
  5
2AB
100
AcDbEntity
  8
03__ASM_ALL_CURVES
100
AcDbLine
 62
4
  6
CONTINUOUS
 10
10.4432010081
 20
7.0660791618
 11
10.414911674
 21
7.0660791618
  0
LINE
  5
2AC
100
AcDbEntity
  8
03__ASM_ALL_CURVES
100
AcDbLine
 62
4
  6
CONTINUOUS
 10
8.7214903423
 20
7.3419001618
 11
8.6861286765
 21
7.3472044118
  0
LINE
  5
2AD
100
AcDbEntity
  8
03__ASM_ALL_CURVES
100
AcDbLine
 62
4
  6
CONTINUOUS
 10
10.4007670107
 20
6.9122559118
 11
10.4219840107
 21
6.9069516618
  0
LINE
  5
2AE
100
AcDbEntity
  8
03__ASM_ALL_CURVES
100
AcDbLine
 62
4
  6
CONTINUOUS
 10
8.3121286765
 20
7.4373766618
 11
8.3333456752
 21
7.4320724118
  0
LINE
  5
2AF
100
AcDbEntity
  8
03__ASM_ALL_CURVES
100
AcDbLine
 62
4
  6
CONTINUOUS
 10
8.6861286765
 20
7.3472044118
 11
8.664911674
 21
7.3525086618
  0
LINE
  5
2B0
100
AcDbEntity
  8
03__ASM_ALL_CURVES
100
AcDbLine
 62
4
  6
CONTINUOUS
 10
8.6861286765
 20
7.4373766618
 11
8.7073456752
 21
7.4320724118
  0
LINE
  5
2B1
100
AcDbEntity
  8
03__ASM_ALL_CURVES
100
AcDbLine
 62
4
  6
CONTINUOUS
 10
10.3866223423
 20
6.6788689118
 11
10.4502733423
 21
6.6417391618
  0
LINE
  5
2B2
100
AcDbEntity
  8
03__ASM_ALL_CURVES
100
AcDbLine
 62
4
  6
CONTINUOUS
 10
10.4007670107
 20
6.4773074118
 11
10.393694674
 21
6.4826116618
  0
LINE
  5
2B3
100
AcDbEntity
  8
03__ASM_ALL_CURVES
100
AcDbLine
 62
4
  6
CONTINUOUS
 10
10.4573456752
 20
6.5091329118
 11
10.4644180088
 21
6.5038286618
  0
LINE
  5
2B4
100
AcDbEntity
  8
0
100
AcDbLine
 62
7
  6
CONTINUOUS
 10
8.6280563423
 20
11.5170421618
 11
8.6280563423
 21
11.9534784959
  0
LINE
  5
2B5
100
AcDbEntity
  8
0
100
AcDbLine
 62
7
  6
CONTINUOUS
 10
8.6289538698
 20
11.5170421618
 11
8.6289538698
 21
11.9534784959
  0
LINE
  5
2B6
100
AcDbEntity
  8
03__ASM_ALL_CURVES
100
AcDbLine
 62
4
  6
CONTINUOUS
 10
11.6892150923
 20
11.9875421618
 11
11.6733023423
 21
11.9804698276
  0
LINE
  5
2B7
100
AcDbEntity
  8
03__ASM_ALL_CURVES
100
AcDbLine
 62
4
  6
CONTINUOUS
 10
10.414911674
 20
7.1085131618
 11
10.4432010081
 21
7.1085131618
  0
LINE
  5
2B8
100
AcDbEntity
  8
03__ASM_ALL_CURVES
100
AcDbLine
 62
4
  6
CONTINUOUS
 10
10.4714903423
 20
7.1854247868
 11
10.460881842
 21
7.1854247868
  0
LINE
  5
2B9
100
AcDbEntity
  8
03__ASM_ALL_CURVES
100
AcDbLine
 62
4
  6
CONTINUOUS
 10
8.7214903423
 20
7.1854247868
 11
8.710881842
 21
7.1854247868
  0
LINE
  5
2BA
100
AcDbEntity
  8
03__ASM_ALL_CURVES
100
AcDbLine
 62
4
  6
CONTINUOUS
 10
8.3474903423
 20
7.1854247868
 11
8.336881842
 21
7.1854247868
  0
LINE
  5
2BB
100
AcDbEntity
  8
03__ASM_ALL_CURVES
100
AcDbLine
 62
4
  6
CONTINUOUS
 10
8.3192010081
 20
7.2358151618
 11
8.290911674
 21
7.2358151618
  0
LINE
  5
2BC
100
AcDbEntity
  8
03__ASM_ALL_CURVES
100
AcDbLine
 62
4
  6
CONTINUOUS
 10
8.290911674
 20
7.2782491618
 11
8.3192010081
 21
7.2782491618
  0
LINE
  5
2BD
100
AcDbEntity
  8
03__ASM_ALL_CURVES
100
AcDbLine
 62
4
  6
CONTINUOUS
 10
8.6507670107
 20
7.2782491618
 11
8.6578393423
 21
7.2782491618
  0
LINE
  5
2BE
100
AcDbEntity
  8
03__ASM_ALL_CURVES
100
AcDbLine
 62
4
  6
CONTINUOUS
 10
10.414911674
 20
7.2782491618
 11
10.4432010081
 21
7.2782491618
  0
LINE
  5
2BF
100
AcDbEntity
  8
03__ASM_ALL_CURVES
100
AcDbLine
 62
4
  6
CONTINUOUS
 10
8.6932010081
 20
7.2835534118
 11
8.7002733423
 21
7.2835534118
  0
LINE
  5
2C0
100
AcDbEntity
  8
03__ASM_ALL_CURVES
100
AcDbLine
 62
4
  6
CONTINUOUS
 10
10.8812010081
 20
7.3206831618
 11
10.852911674
 21
7.3206831618
  0
LINE
  5
2C1
100
AcDbEntity
  8
03__ASM_ALL_CURVES
100
AcDbLine
 62
4
  6
CONTINUOUS
 10
10.414911674
 20
7.0660791618
 11
10.4007670107
 21
7.0713834118
  0
LINE
  5
2C2
100
AcDbEntity
  8
03__ASM_ALL_CURVES
100
AcDbLine
 62
4
  6
CONTINUOUS
 10
10.4432010081
 20
7.1085131618
 11
10.4573456752
 21
7.1032089118
  0
LINE
  5
2C3
100
AcDbEntity
  8
03__ASM_ALL_CURVES
100
AcDbLine
 62
4
  6
CONTINUOUS
 10
10.414911674
 20
7.2358151618
 11
10.4007670107
 21
7.2411194118
  0
LINE
  5
2C4
100
AcDbEntity
  8
03__ASM_ALL_CURVES
100
AcDbLine
 62
4
  6
CONTINUOUS
 10
10.4078393423
 20
6.7690411618
 11
10.414911674
 21
6.7637369118
  0
LINE
  5
2C5
100
AcDbEntity
  8
03__ASM_ALL_CURVES
100
AcDbLine
 62
4
  6
CONTINUOUS
 10
10.4502733423
 20
6.7743454118
 11
10.4644180088
 21
6.7637369118
  0
LINE
  5
2C6
100
AcDbEntity
  8
03__ASM_ALL_CURVES
100
AcDbLine
 62
4
  6
CONTINUOUS
 10
10.3866223423
 20
6.9228644118
 11
10.4007670107
 21
6.9122559118
  0
LINE
  5
2C7
100
AcDbEntity
  8
03__ASM_ALL_CURVES
100
AcDbLine
 62
4
  6
CONTINUOUS
 10
8.6366223423
 20
7.3631171618
 11
8.6366223423
 21
7.3206831618
  0
LINE
  5
2C8
100
AcDbEntity
  8
03__ASM_ALL_CURVES
100
AcDbLine
 62
4
  6
CONTINUOUS
 10
8.6366223423
 20
7.1085131618
 11
8.6366223423
 21
7.0766876618
  0
LINE
  5
2C9
100
AcDbEntity
  8
03__ASM_ALL_CURVES
100
AcDbLine
 62
4
  6
CONTINUOUS
 10
8.6366223423
 20
7.0236451618
 11
8.6366223423
 21
6.9918196618
  0
LINE
  5
2CA
100
AcDbEntity
  8
03__ASM_ALL_CURVES
100
AcDbLine
 62
4
  6
CONTINUOUS
 10
8.6366223423
 20
6.4879159118
 11
8.6366223423
 21
6.4985244118
  0
LINE
  5
2CB
100
AcDbEntity
  8
03__ASM_ALL_CURVES
100
AcDbLine
 62
4
  6
CONTINUOUS
 10
8.6366223423
 20
6.7425199118
 11
8.6366223423
 21
6.7531284118
  0
LINE
  5
2CC
100
AcDbEntity
  8
03__ASM_ALL_CURVES
100
AcDbLine
 62
4
  6
CONTINUOUS
 10
8.6366223423
 20
7.2517279118
 11
8.6366223423
 21
7.2623364118
  0
LINE
  5
2CD
100
AcDbEntity
  8
03__ASM_ALL_CURVES
100
AcDbLine
 62
4
  6
CONTINUOUS
 10
8.664911674
 20
6.9971239118
 11
8.664911674
 21
7.0077324118
  0
LINE
  5
2CE
100
AcDbEntity
  8
03__ASM_ALL_CURVES
100
AcDbLine
 62
4
  6
CONTINUOUS
 10
8.664911674
 20
7.0819919118
 11
8.664911674
 21
7.0926004118
  0
LINE
  5
2CF
100
AcDbEntity
  8
03__ASM_ALL_CURVES
100
AcDbLine
 62
4
  6
CONTINUOUS
 10
8.6719840107
 20
6.7425199118
 11
8.6719840107
 21
6.7531284118
  0
LINE
  5
2D0
100
AcDbEntity
  8
03__ASM_ALL_CURVES
100
AcDbLine
 62
4
  6
CONTINUOUS
 10
8.6719840107
 20
7.2517279118
 11
8.6719840107
 21
7.2623364118
  0
LINE
  5
2D1
100
AcDbEntity
  8
03__ASM_ALL_CURVES
100
AcDbLine
 62
4
  6
CONTINUOUS
 10
8.6790563423
 20
7.8086741618
 11
8.6790563423
 21
7.5540701618
  0
LINE
  5
2D2
100
AcDbEntity
  8
0
100
AcDbLine
 62
7
  6
CONTINUOUS
 10
8.6885563423
 20
11.3935421618
 11
8.6885563423
 21
11.4565421618
  0
LINE
  5
2D3
100
AcDbEntity
  8
03__ASM_ALL_CURVES
100
AcDbLine
 62
4
  6
CONTINUOUS
 10
8.7214903423
 20
7.2623364118
 11
8.7214903423
 21
7.2517279118
  0
LINE
  5
2D4
100
AcDbEntity
  8
03__ASM_ALL_CURVES
100
AcDbLine
 62
4
  6
CONTINUOUS
 10
8.7214903423
 20
7.1933811618
 11
8.7214903423
 21
7.1854247868
  0
LINE
  5
2D5
100
AcDbEntity
  8
03__ASM_ALL_CURVES
100
AcDbLine
 62
4
  6
CONTINUOUS
 10
8.7214903423
 20
7.0926004118
 11
8.7214903423
 21
7.0819919118
  0
LINE
  5
2D6
100
AcDbEntity
  8
03__ASM_ALL_CURVES
100
AcDbLine
 62
4
  6
CONTINUOUS
 10
8.7214903423
 20
7.0077324118
 11
8.7214903423
 21
6.9971239118
  0
LINE
  5
2D7
100
AcDbEntity
  8
03__ASM_ALL_CURVES
100
AcDbLine
 62
4
  6
CONTINUOUS
 10
8.7214903423
 20
6.7531284118
 11
8.7214903423
 21
6.7425199118
  0
LINE
  5
2D8
100
AcDbEntity
  8
03__ASM_ALL_CURVES
100
AcDbLine
 62
4
  6
CONTINUOUS
 10
8.7214903423
 20
6.5993051618
 11
8.7214903423
 21
6.5913487868
  0
LINE
  5
2D9
100
AcDbEntity
  8
03__ASM_ALL_CURVES
100
AcDbLine
 62
4
  6
CONTINUOUS
 10
8.7214903423
 20
6.4720031618
 11
8.7214903423
 21
6.5144371618
  0
LINE
  5
2DA
100
AcDbEntity
  8
0
100
AcDbLine
 62
7
  6
CONTINUOUS
 10
8.8473588148
 20
11.5170421618
 11
8.8473588148
 21
11.9534784959
  0
LINE
  5
2DB
100
AcDbEntity
  8
03__ASM_ALL_CURVES
100
AcDbLine
 62
4
  6
CONTINUOUS
 10
11.5778258423
 20
12.0229038301
 11
11.5884343423
 21
12.0299761618
  0
LINE
  5
2DC
100
AcDbEntity
  8
03__ASM_ALL_CURVES
100
AcDbLine
 62
4
  6
CONTINUOUS
 10
11.6626938423
 20
12.0229038301
 11
11.6733023423
 21
12.0299761618
  0
LINE
  5
2DD
100
AcDbEntity
  8
03__ASM_ALL_CURVES
100
AcDbLine
 62
4
  6
CONTINUOUS
 10
11.5990428423
 20
11.9521804953
 11
11.5884343423
 21
11.9451081618
  0
LINE
  5
2DE
100
AcDbEntity
  8
03__ASM_ALL_CURVES
100
AcDbLine
 62
4
  6
CONTINUOUS
 10
8.6861286765
 20
6.9069516618
 11
8.7073456752
 21
6.9122559118
  0
LINE
  5
2DF
100
AcDbEntity
  8
03__ASM_ALL_CURVES
100
AcDbLine
 62
4
  6
CONTINUOUS
 10
8.3121286765
 20
6.9069516618
 11
8.3333456752
 21
6.9122559118
  0
LINE
  5
2E0
100
AcDbEntity
  8
03__ASM_ALL_CURVES
100
AcDbLine
 62
4
  6
CONTINUOUS
 10
10.4007670107
 20
7.4320724118
 11
10.4219840107
 21
7.4373766618
  0
LINE
  5
2E1
100
AcDbEntity
  8
03__ASM_ALL_CURVES
100
AcDbLine
 62
4
  6
CONTINUOUS
 10
8.2767670107
 20
7.3631171618
 11
8.290911674
 21
7.3631171618
  0
LINE
  5
2E2
100
AcDbEntity
  8
03__ASM_ALL_CURVES
100
AcDbLine
 62
4
  6
CONTINUOUS
 10
10.4007670107
 20
7.3631171618
 11
10.414911674
 21
7.3631171618
  0
LINE
  5
2E3
100
AcDbEntity
  8
03__ASM_ALL_CURVES
100
AcDbLine
 62
4
  6
CONTINUOUS
 10
10.852911674
 20
7.3631171618
 11
10.8812010081
 21
7.3631171618
  0
LINE
  5
2E4
100
AcDbEntity
  8
03__ASM_ALL_CURVES
100
AcDbLine
 62
4
  6
CONTINUOUS
 10
8.2979840107
 20
7.4373766618
 11
8.3121286765
 21
7.4373766618
  0
LINE
  5
2E5
100
AcDbEntity
  8
03__ASM_ALL_CURVES
100
AcDbLine
 62
4
  6
CONTINUOUS
 10
8.6719840107
 20
7.4373766618
 11
8.6861286765
 21
7.4373766618
  0
LINE
  5
2E6
100
AcDbEntity
  8
03__ASM_ALL_CURVES
100
AcDbLine
 62
4
  6
CONTINUOUS
 10
10.4219840107
 20
7.4373766618
 11
10.4361286765
 21
7.4373766618
  0
LINE
  5
2E7
100
AcDbEntity
  8
03__ASM_ALL_CURVES
100
AcDbLine
 62
4
  6
CONTINUOUS
 10
10.4502733423
 20
7.3259874118
 11
10.4714903423
 21
7.3206831618
  0
LINE
  5
2E8
100
AcDbEntity
  8
03__ASM_ALL_CURVES
100
AcDbLine
 62
4
  6
CONTINUOUS
 10
10.4361286765
 20
7.4373766618
 11
10.4573456752
 21
7.4320724118
  0
LINE
  5
2E9
100
AcDbEntity
  8
03__ASM_ALL_CURVES
100
AcDbLine
 62
4
  6
CONTINUOUS
 10
10.414911674
 20
7.2782491618
 11
10.4290563423
 21
7.2729449118
  0
LINE
  5
2EA
100
AcDbEntity
  8
03__ASM_ALL_CURVES
100
AcDbLine
 62
4
  6
CONTINUOUS
 10
10.4432010081
 20
7.2782491618
 11
10.4573456752
 21
7.2729449118
  0
LINE
  5
2EB
100
AcDbEntity
  8
03__ASM_ALL_CURVES
100
AcDbLine
 62
4
  6
CONTINUOUS
 10
10.852911674
 20
7.3206831618
 11
10.8387670107
 21
7.3259874118
  0
LINE
  5
2EC
100
AcDbEntity
  8
03__ASM_ALL_CURVES
100
AcDbLine
 62
4
  6
CONTINUOUS
 10
10.4007670107
 20
7.0713834118
 11
10.393694674
 21
7.0766876618
  0
LINE
  5
2ED
100
AcDbEntity
  8
03__ASM_ALL_CURVES
100
AcDbLine
 62
4
  6
CONTINUOUS
 10
10.4573456752
 20
7.1032089118
 11
10.4644180088
 21
7.0979046618
  0
LINE
  5
2EE
100
AcDbEntity
  8
03__ASM_ALL_CURVES
100
AcDbLine
 62
4
  6
CONTINUOUS
 10
10.4007670107
 20
7.2411194118
 11
10.393694674
 21
7.2464236618
  0
LINE
  5
2EF
100
AcDbEntity
  8
0
100
AcDbLine
 62
7
  6
CONTINUOUS
 10
8.8986513973
 20
11.5170421618
 11
8.8986513973
 21
11.9534784959
  0
LINE
  5
2F0
100
AcDbEntity
  8
03__ASM_ALL_CURVES
100
AcDbLine
 62
4
  6
CONTINUOUS
 10
11.6839108423
 20
11.9521804953
 11
11.6733023423
 21
11.9451081618
  0
LINE
  5
2F1
100
AcDbEntity
  8
03__ASM_ALL_CURVES
100
AcDbLine
 62
4
  6
CONTINUOUS
 10
12.0021658423
 20
12.0229038301
 11
12.0127743423
 21
12.0299761618
  0
LINE
  5
2F2
100
AcDbEntity
  8
03__ASM_ALL_CURVES
100
AcDbLine
 62
4
  6
CONTINUOUS
 10
12.0817295923
 20
12.0229038301
 11
12.0923380923
 21
12.0299761618
  0
LINE
  5
2F3
100
AcDbEntity
  8
03__ASM_ALL_CURVES
100
AcDbLine
 62
4
  6
CONTINUOUS
 10
12.0233828423
 20
11.9521804953
 11
12.0127743423
 21
11.9451081618
  0
LINE
  5
2F4
100
AcDbEntity
  8
03__ASM_ALL_CURVES
100
AcDbLine
 62
4
  6
CONTINUOUS
 10
12.1135550923
 20
12.0016868301
 11
12.1029465923
 21
11.9946144934
  0
LINE
  5
2F5
100
AcDbEntity
  8
03__ASM_ALL_CURVES
100
AcDbLine
 62
4
  6
CONTINUOUS
 10
10.8812010081
 20
7.3631171618
 11
10.8953456752
 21
7.3578129118
  0
LINE
  5
2F6
100
AcDbEntity
  8
03__ASM_ALL_CURVES
100
AcDbLine
 62
4
  6
CONTINUOUS
 10
10.4573456752
 20
7.2729449118
 11
10.4644180088
 21
7.2676406618
  0
LINE
  5
2F7
100
AcDbEntity
  8
03__ASM_ALL_CURVES
100
AcDbLine
 62
4
  6
CONTINUOUS
 10
10.4007670107
 20
7.3206831618
 11
10.393694674
 21
7.3259874118
  0
LINE
  5
2F8
100
AcDbEntity
  8
03__ASM_ALL_CURVES
100
AcDbLine
 62
4
  6
CONTINUOUS
 10
10.4361286765
 20
7.3365959118
 11
10.4502733423
 21
7.3259874118
  0
LINE
  5
2F9
100
AcDbEntity
  8
03__ASM_ALL_CURVES
100
AcDbLine
 62
4
  6
CONTINUOUS
 10
10.414911674
 20
7.3631171618
 11
10.4219840107
 21
7.3578129118
  0
LINE
  5
2FA
100
AcDbEntity
  8
03__ASM_ALL_CURVES
100
AcDbLine
 62
4
  6
CONTINUOUS
 10
10.4573456752
 20
7.4320724118
 11
10.4714903423
 21
7.4214639118
  0
LINE
  5
2FB
100
AcDbEntity
  8
03__ASM_ALL_CURVES
100
AcDbLine
 62
4
  6
CONTINUOUS
 10
10.393694674
 20
6.4826116618
 11
10.3866223423
 21
6.4932201618
  0
LINE
  5
2FC
100
AcDbEntity
  8
03__ASM_ALL_CURVES
100
AcDbLine
 62
4
  6
CONTINUOUS
 10
10.4644180088
 20
6.5038286618
 11
10.4714903423
 21
6.4932201618
  0
LINE
  5
2FD
100
AcDbEntity
  8
03__ASM_ALL_CURVES
100
AcDbLine
 62
4
  6
CONTINUOUS
 10
10.393694674
 20
6.7319114118
 11
10.3866223423
 21
6.7425199118
  0
LINE
  5
2FE
100
AcDbEntity
  8
03__ASM_ALL_CURVES
100
AcDbLine
 62
4
  6
CONTINUOUS
 10
10.414911674
 20
6.7637369118
 11
10.4219840107
 21
6.7531284118
  0
LINE
  5
2FF
100
AcDbEntity
  8
03__ASM_ALL_CURVES
100
AcDbLine
 62
4
  6
CONTINUOUS
 10
10.4644180088
 20
6.7637369118
 11
10.4714903423
 21
6.7531284118
  0
LINE
  5
300
100
AcDbEntity
  8
0
100
AcDbLine
 62
7
  6
CONTINUOUS
 10
9.3354612873
 20
11.5170421618
 11
9.3354612873
 21
11.9534784959
  0
LINE
  5
301
100
AcDbEntity
  8
03__ASM_ALL_CURVES
100
AcDbLine
 62
4
  6
CONTINUOUS
 10
12.1135550923
 20
11.9521804953
 11
12.1029465923
 21
11.9451081618
  0
LINE
  5
302
100
AcDbEntity
  8
03__ASM_ALL_CURVES
100
AcDbLine
 62
4
  6
CONTINUOUS
 10
12.2514655923
 20
12.0229038301
 11
12.2620740923
 21
12.0299761618
  0
LINE
  5
303
100
AcDbEntity
  8
03__ASM_ALL_CURVES
100
AcDbLine
 62
4
  6
CONTINUOUS
 10
11.4027855923
 20
11.4289038301
 11
11.4133940923
 21
11.4359761618
  0
LINE
  5
304
100
AcDbEntity
  8
03__ASM_ALL_CURVES
100
AcDbLine
 62
4
  6
CONTINUOUS
 10
12.2514655923
 20
11.9875421618
 11
12.2620740923
 21
11.9946144934
  0
LINE
  5
305
100
AcDbEntity
  8
03__ASM_ALL_CURVES
100
AcDbLine
 62
4
  6
CONTINUOUS
 10
12.2832910923
 20
12.0016868301
 11
12.2726825923
 21
11.9946144934
  0
LINE
  5
306
100
AcDbEntity
  8
03__ASM_ALL_CURVES
100
AcDbLine
 62
4
  6
CONTINUOUS
 10
12.3363335923
 20
12.0229038301
 11
12.3469420923
 21
12.0299761618
  0
LINE
  5
307
100
AcDbEntity
  8
03__ASM_ALL_CURVES
100
AcDbLine
 62
4
  6
CONTINUOUS
 10
11.4346110923
 20
11.4076868301
 11
11.4240025923
 21
11.4006144934
  0
LINE
  5
308
100
AcDbEntity
  8
03__ASM_ALL_CURVES
100
AcDbLine
 62
4
  6
CONTINUOUS
 10
12.3363335923
 20
11.9875421618
 11
12.3469420923
 21
11.9946144934
  0
LINE
  5
309
100
AcDbEntity
  8
03__ASM_ALL_CURVES
100
AcDbLine
 62
4
  6
CONTINUOUS
 10
12.2832910923
 20
11.9521804953
 11
12.2726825923
 21
11.9451081618
  0
LINE
  5
30A
100
AcDbEntity
  8
03__ASM_ALL_CURVES
100
AcDbLine
 62
4
  6
CONTINUOUS
 10
12.3681590923
 20
12.0016868301
 11
12.3575505923
 21
11.9946144934
  0
LINE
  5
30B
100
AcDbEntity
  8
03__ASM_ALL_CURVES
100
AcDbLine
 62
4
  6
CONTINUOUS
 10
11.4346110923
 20
11.3581804953
 11
11.4240025923
 21
11.3511081618
  0
LINE
  5
30C
100
AcDbEntity
  8
03__ASM_ALL_CURVES
100
AcDbLine
 62
4
  6
CONTINUOUS
 10
12.3681590923
 20
11.9521804953
 11
12.3575505923
 21
11.9451081618
  0
LINE
  5
30D
100
AcDbEntity
  8
03__ASM_ALL_CURVES
100
AcDbLine
 62
4
  6
CONTINUOUS
 10
11.5725215923
 20
11.4006144934
 11
11.5831300923
 21
11.4076868301
  0
LINE
  5
30E
100
AcDbEntity
  8
03__ASM_ALL_CURVES
100
AcDbLine
 62
4
  6
CONTINUOUS
 10
11.6043470923
 20
11.3581804953
 11
11.5937385923
 21
11.3511081618
  0
LINE
  5
30F
100
AcDbEntity
  8
03__ASM_ALL_CURVES
100
AcDbLine
 62
4
  6
CONTINUOUS
 10
12.1984230923
 20
11.3935421618
 11
12.1825103423
 21
11.3864698276
  0
LINE
  5
310
100
AcDbEntity
  8
03__ASM_ALL_CURVES
100
AcDbLine
 62
4
  6
CONTINUOUS
 10
8.6507670107
 20
7.4320724118
 11
8.6719840107
 21
7.4373766618
  0
LINE
  5
311
100
AcDbEntity
  8
03__ASM_ALL_CURVES
100
AcDbLine
 62
4
  6
CONTINUOUS
 10
8.2767670107
 20
7.4320724118
 11
8.2979840107
 21
7.4373766618
  0
LINE
  5
312
100
AcDbEntity
  8
0
100
AcDbLine
 62
7
  6
CONTINUOUS
 10
10.8670563423
 20
7.8935421618
 11
8.3050563061
 21
7.8935421618
  0
LINE
  5
313
100
AcDbEntity
  8
03__ASM_ALL_CURVES
100
AcDbLine
 62
4
  6
CONTINUOUS
 10
10.9519243423
 20
7.8935421618
 11
11.2065283423
 21
7.8935421618
  0
LINE
  5
314
100
AcDbEntity
  8
03__ASM_ALL_CURVES
100
AcDbLine
 62
4
  6
CONTINUOUS
 10
10.8387670107
 20
7.3259874118
 11
10.831694674
 21
7.3312916618
  0
LINE
  5
315
100
AcDbEntity
  8
03__ASM_ALL_CURVES
100
AcDbLine
 62
4
  6
CONTINUOUS
 10
10.8953456752
 20
7.3578129118
 11
10.9024180088
 21
7.3525086618
  0
LINE
  5
316
100
AcDbEntity
  8
03__ASM_ALL_CURVES
100
AcDbLine
 62
4
  6
CONTINUOUS
 10
10.393694674
 20
7.0766876618
 11
10.3866223423
 21
7.0872961618
  0
LINE
  5
317
100
AcDbEntity
  8
03__ASM_ALL_CURVES
100
AcDbLine
 62
4
  6
CONTINUOUS
 10
10.4644180088
 20
7.0979046618
 11
10.4714903423
 21
7.0872961618
  0
LINE
  5
318
100
AcDbEntity
  8
03__ASM_ALL_CURVES
100
AcDbLine
 62
4
  6
CONTINUOUS
 10
10.393694674
 20
7.2464236618
 11
10.3866223423
 21
7.2570321618
  0
LINE
  5
319
100
AcDbEntity
  8
0
100
AcDbLine
 62
7
  6
CONTINUOUS
 10
9.3867538698
 20
11.5170421618
 11
9.3867538698
 21
11.9534784959
  0
LINE
  5
31A
100
AcDbEntity
  8
0
100
AcDbLine
 62
7
  6
CONTINUOUS
 10
9.5455563423
 20
11.3935421618
 11
9.5455563423
 21
11.4565421618
  0
LINE
  5
31B
100
AcDbEntity
  8
03__ASM_ALL_CURVES
100
AcDbLine
 62
4
  6
CONTINUOUS
 10
8.2979840107
 20
7.0024281618
 11
8.3050563423
 21
7.0183409118
  0
LINE
  5
31C
100
AcDbEntity
  8
03__ASM_ALL_CURVES
100
AcDbLine
 62
4
  6
CONTINUOUS
 10
8.2979840107
 20
6.7478241618
 11
8.3050563423
 21
6.7637369118
  0
LINE
  5
31D
100
AcDbEntity
  8
03__ASM_ALL_CURVES
100
AcDbLine
 62
4
  6
CONTINUOUS
 10
11.8271255923
 20
11.4289038301
 11
11.8377340923
 21
11.4359761618
  0
LINE
  5
31E
100
AcDbEntity
  8
03__ASM_ALL_CURVES
100
AcDbLine
 62
4
  6
CONTINUOUS
 10
11.8271255923
 20
11.3935421618
 11
11.8377340923
 21
11.4006144934
  0
LINE
  5
31F
100
AcDbEntity
  8
03__ASM_ALL_CURVES
100
AcDbLine
 62
4
  6
CONTINUOUS
 10
11.8589510923
 20
11.4076868301
 11
11.8483425923
 21
11.4006144934
  0
LINE
  5
320
100
AcDbEntity
  8
03__ASM_ALL_CURVES
100
AcDbLine
 62
4
  6
CONTINUOUS
 10
11.9119935923
 20
11.4289038301
 11
11.9226020923
 21
11.4359761618
  0
LINE
  5
321
100
AcDbEntity
  8
03__ASM_ALL_CURVES
100
AcDbLine
 62
4
  6
CONTINUOUS
 10
11.9119935923
 20
11.3935421618
 11
11.9226020923
 21
11.4006144934
  0
LINE
  5
322
100
AcDbEntity
  8
03__ASM_ALL_CURVES
100
AcDbLine
 62
4
  6
CONTINUOUS
 10
11.8589510923
 20
11.3581804953
 11
11.8483425923
 21
11.3511081618
  0
LINE
  5
323
100
AcDbEntity
  8
03__ASM_ALL_CURVES
100
AcDbLine
 62
4
  6
CONTINUOUS
 10
11.9438190923
 20
11.4076868301
 11
11.9332105923
 21
11.4006144934
  0
LINE
  5
324
100
AcDbEntity
  8
03__ASM_ALL_CURVES
100
AcDbLine
 62
4
  6
CONTINUOUS
 10
11.9438190923
 20
11.3581804953
 11
11.9332105923
 21
11.3511081618
  0
LINE
  5
325
100
AcDbEntity
  8
03__ASM_ALL_CURVES
100
AcDbLine
 62
4
  6
CONTINUOUS
 10
12.0817295923
 20
11.4289038301
 11
12.0923380923
 21
11.4359761618
  0
LINE
  5
326
100
AcDbEntity
  8
03__ASM_ALL_CURVES
100
AcDbLine
 62
4
  6
CONTINUOUS
 10
12.0817295923
 20
11.3935421618
 11
12.0923380923
 21
11.4006144934
  0
LINE
  5
327
100
AcDbEntity
  8
03__ASM_ALL_CURVES
100
AcDbLine
 62
4
  6
CONTINUOUS
 10
12.1135550923
 20
11.4076868301
 11
12.1029465923
 21
11.4006144934
  0
LINE
  5
328
100
AcDbEntity
  8
03__ASM_ALL_CURVES
100
AcDbLine
 62
4
  6
CONTINUOUS
 10
10.393694674
 20
7.3259874118
 11
10.3866223423
 21
7.3365959118
  0
LINE
  5
329
100
AcDbEntity
  8
03__ASM_ALL_CURVES
100
AcDbLine
 62
4
  6
CONTINUOUS
 10
10.4644180088
 20
7.2676406618
 11
10.4714903423
 21
7.2570321618
  0
LINE
  5
32A
100
AcDbEntity
  8
03__ASM_ALL_CURVES
100
AcDbLine
 62
4
  6
CONTINUOUS
 10
10.4219840107
 20
7.3578129118
 11
10.4361286765
 21
7.3365959118
  0
LINE
  5
32B
100
AcDbEntity
  8
0
100
AcDbLine
 62
7
  6
CONTINUOUS
 10
9.6051588148
 20
11.5170421618
 11
9.6051588148
 21
11.9534784959
  0
LINE
  5
32C
100
AcDbEntity
  8
0
100
AcDbLine
 62
7
  6
CONTINUOUS
 10
9.6060563423
 20
11.5170421618
 11
9.6060563423
 21
11.9534784959
  0
LINE
  5
32D
100
AcDbEntity
  8
03__ASM_ALL_CURVES
100
AcDbLine
 62
4
  6
CONTINUOUS
 10
8.2626223423
 20
7.3472044118
 11
8.269694674
 21
7.3578129118
  0
LINE
  5
32E
100
AcDbEntity
  8
03__ASM_ALL_CURVES
100
AcDbLine
 62
4
  6
CONTINUOUS
 10
8.2626223423
 20
7.2570321618
 11
8.269694674
 21
7.2676406618
  0
LINE
  5
32F
100
AcDbEntity
  8
03__ASM_ALL_CURVES
100
AcDbLine
 62
4
  6
CONTINUOUS
 10
8.3474903423
 20
7.2570321618
 11
8.3404180088
 21
7.2464236618
  0
LINE
  5
330
100
AcDbEntity
  8
03__ASM_ALL_CURVES
100
AcDbLine
 62
4
  6
CONTINUOUS
 10
11.5725215923
 20
12.0158314934
 11
11.5778258423
 21
12.0229038301
  0
LINE
  5
331
100
AcDbEntity
  8
03__ASM_ALL_CURVES
100
AcDbLine
 62
4
  6
CONTINUOUS
 10
11.6043470923
 20
11.9592528289
 11
11.5990428423
 21
11.9521804953
  0
LINE
  5
332
100
AcDbEntity
  8
03__ASM_ALL_CURVES
100
AcDbLine
 62
4
  6
CONTINUOUS
 10
11.6573895923
 20
12.0158314934
 11
11.6626938423
 21
12.0229038301
  0
LINE
  5
333
100
AcDbEntity
  8
03__ASM_ALL_CURVES
100
AcDbLine
 62
4
  6
CONTINUOUS
 10
11.6892150923
 20
11.9592528289
 11
11.6839108423
 21
11.9521804953
  0
LINE
  5
334
100
AcDbEntity
  8
03__ASM_ALL_CURVES
100
AcDbLine
 62
4
  6
CONTINUOUS
 10
12.1719018423
 20
11.4289038301
 11
12.1825103423
 21
11.4359761618
  0
LINE
  5
335
100
AcDbEntity
  8
03__ASM_ALL_CURVES
100
AcDbLine
 62
4
  6
CONTINUOUS
 10
12.1135550923
 20
11.3581804953
 11
12.1029465923
 21
11.3511081618
  0
LINE
  5
336
100
AcDbEntity
  8
03__ASM_ALL_CURVES
100
AcDbLine
 62
4
  6
CONTINUOUS
 10
12.1931188423
 20
11.3581804953
 11
12.1825103423
 21
11.3511081618
  0
LINE
  5
337
100
AcDbEntity
  8
03__ASM_ALL_CURVES
100
AcDbLine
 62
4
  6
CONTINUOUS
 10
12.1188593423
 20
8.4542401618
 11
12.1109029673
 21
8.4542401618
  0
LINE
  5
338
100
AcDbEntity
  8
03__ASM_ALL_CURVES
100
AcDbLine
 62
4
  6
CONTINUOUS
 10
11.6786065923
 20
8.4542401618
 11
11.6679980923
 21
8.4542401618
  0
LINE
  5
339
100
AcDbEntity
  8
03__ASM_ALL_CURVES
100
AcDbLine
 62
4
  6
CONTINUOUS
 10
11.5247833423
 20
8.4542401618
 11
11.5168269673
 21
8.4542401618
  0
LINE
  5
33A
100
AcDbEntity
  8
03__ASM_ALL_CURVES
100
AcDbLine
 62
4
  6
CONTINUOUS
 10
12.1612933423
 20
8.4542401618
 11
12.2037273423
 21
8.4542401618
  0
LINE
  5
33B
100
AcDbEntity
  8
03__ASM_ALL_CURVES
100
AcDbLine
 62
4
  6
CONTINUOUS
 10
11.1216603423
 20
8.4966741618
 11
11.2065283423
 21
8.4966741618
  0
LINE
  5
33C
100
AcDbEntity
  8
03__ASM_ALL_CURVES
100
AcDbLine
 62
4
  6
CONTINUOUS
 10
11.6679980923
 20
8.5037464934
 11
11.6786065923
 21
8.5037464934
  0
LINE
  5
33D
100
AcDbEntity
  8
03__ASM_ALL_CURVES
100
AcDbLine
 62
4
  6
CONTINUOUS
 10
12.2885953423
 20
8.5391081618
 11
12.2461613423
 21
8.5391081618
  0
LINE
  5
33E
100
AcDbEntity
  8
03__ASM_ALL_CURVES
100
AcDbLine
 62
4
  6
CONTINUOUS
 10
12.0339913423
 20
8.5391081618
 11
11.9915573423
 21
8.5391081618
  0
LINE
  5
33F
100
AcDbEntity
  8
03__ASM_ALL_CURVES
100
AcDbLine
 62
4
  6
CONTINUOUS
 10
11.6679980923
 20
8.5391081618
 11
11.6786065923
 21
8.5391081618
  0
LINE
  5
340
100
AcDbEntity
  8
03__ASM_ALL_CURVES
100
AcDbLine
 62
4
  6
CONTINUOUS
 10
12.1772060923
 20
8.5391081618
 11
12.1878145923
 21
8.5391081618
  0
LINE
  5
341
100
AcDbEntity
  8
03__ASM_ALL_CURVES
100
AcDbLine
 62
4
  6
CONTINUOUS
 10
10.831694674
 20
7.3312916618
 11
10.8246223423
 21
7.3419001618
  0
LINE
  5
342
100
AcDbEntity
  8
03__ASM_ALL_CURVES
100
AcDbLine
 62
4
  6
CONTINUOUS
 10
10.9024180088
 20
7.3525086618
 11
10.9094903423
 21
7.3419001618
  0
LINE
  5
343
100
AcDbEntity
  8
03__ASM_ALL_CURVES
100
AcDbLine
 62
4
  6
CONTINUOUS
 10
10.4290563423
 20
7.2729449118
 11
10.4361286765
 21
7.2570321618
  0
LINE
  5
344
100
AcDbEntity
  8
03__ASM_ALL_CURVES
100
AcDbLine
 62
4
  6
CONTINUOUS
 10
11.4346110923
 20
12.0299761618
 11
11.3974813423
 21
11.9663251618
  0
LINE
  5
345
100
AcDbEntity
  8
03__ASM_ALL_CURVES
100
AcDbLine
 62
4
  6
CONTINUOUS
 10
8.290911674
 20
7.0926004118
 11
8.2979840107
 21
7.1032089118
  0
LINE
  5
346
100
AcDbEntity
  8
03__ASM_ALL_CURVES
100
AcDbLine
 62
4
  6
CONTINUOUS
 10
8.2626223423
 20
7.0024281618
 11
8.269694674
 21
7.0130366618
  0
LINE
  5
347
100
AcDbEntity
  8
03__ASM_ALL_CURVES
100
AcDbLine
 62
4
  6
CONTINUOUS
 10
8.3474903423
 20
7.0819919118
 11
8.3404180088
 21
7.0713834118
  0
LINE
  5
348
100
AcDbEntity
  8
03__ASM_ALL_CURVES
100
AcDbLine
 62
4
  6
CONTINUOUS
 10
8.3474903423
 20
7.0024281618
 11
8.3404180088
 21
6.9918196618
  0
LINE
  5
349
100
AcDbEntity
  8
03__ASM_ALL_CURVES
100
AcDbLine
 62
4
  6
CONTINUOUS
 10
8.2626223423
 20
6.7478241618
 11
8.269694674
 21
6.7584326618
  0
LINE
  5
34A
100
AcDbEntity
  8
03__ASM_ALL_CURVES
100
AcDbLine
 62
4
  6
CONTINUOUS
 10
8.6366223423
 20
7.2623364118
 11
8.643694674
 21
7.2729449118
  0
LINE
  5
34B
100
AcDbEntity
  8
03__ASM_ALL_CURVES
100
AcDbLine
 62
4
  6
CONTINUOUS
 10
8.6719840107
 20
7.2623364118
 11
8.6790563423
 21
7.2729449118
  0
LINE
  5
34C
100
AcDbEntity
  8
03__ASM_ALL_CURVES
100
AcDbLine
 62
4
  6
CONTINUOUS
 10
11.8483425923
 20
12.0299761618
 11
11.8377340923
 21
12.0158314934
  0
LINE
  5
34D
100
AcDbEntity
  8
03__ASM_ALL_CURVES
100
AcDbLine
 62
4
  6
CONTINUOUS
 10
11.4399153423
 20
11.4147591618
 11
11.4346110923
 21
11.4076868301
  0
LINE
  5
34E
100
AcDbEntity
  8
03__ASM_ALL_CURVES
100
AcDbLine
 62
4
  6
CONTINUOUS
 10
11.4452195923
 20
11.3723251618
 11
11.4346110923
 21
11.3581804953
  0
LINE
  5
34F
100
AcDbEntity
  8
03__ASM_ALL_CURVES
100
AcDbLine
 62
4
  6
CONTINUOUS
 10
11.9968615923
 20
12.0158314934
 11
12.0021658423
 21
12.0229038301
  0
LINE
  5
350
100
AcDbEntity
  8
03__ASM_ALL_CURVES
100
AcDbLine
 62
4
  6
CONTINUOUS
 10
12.6970225923
 20
8.5701081618
 11
12.6864140923
 21
8.5701081618
  0
LINE
  5
351
100
AcDbEntity
  8
03__ASM_ALL_CURVES
100
AcDbLine
 62
4
  6
CONTINUOUS
 10
12.2726825923
 20
8.5701081618
 11
12.2620740923
 21
8.5701081618
  0
LINE
  5
352
100
AcDbEntity
  8
03__ASM_ALL_CURVES
100
AcDbLine
 62
4
  6
CONTINUOUS
 10
12.1188593423
 20
8.5701081618
 11
12.1109029673
 21
8.5701081618
  0
LINE
  5
353
100
AcDbEntity
  8
03__ASM_ALL_CURVES
100
AcDbLine
 62
4
  6
CONTINUOUS
 10
12.0180785923
 20
8.5701081618
 11
12.0074700923
 21
8.5701081618
  0
LINE
  5
354
100
AcDbEntity
  8
03__ASM_ALL_CURVES
100
AcDbLine
 62
4
  6
CONTINUOUS
 10
11.5247833423
 20
8.5701081618
 11
11.5168269673
 21
8.5701081618
  0
LINE
  5
355
100
AcDbEntity
  8
03__ASM_ALL_CURVES
100
AcDbLine
 62
4
  6
CONTINUOUS
 10
12.5856333423
 20
8.5701081618
 11
12.6280673423
 21
8.5701081618
  0
LINE
  5
356
100
AcDbEntity
  8
03__ASM_ALL_CURVES
100
AcDbLine
 62
4
  6
CONTINUOUS
 10
10.9519243423
 20
8.5815421618
 11
11.0367923423
 21
8.5815421618
  0
LINE
  5
357
100
AcDbEntity
  8
03__ASM_ALL_CURVES
100
AcDbLine
 62
4
  6
CONTINUOUS
 10
10.9519243423
 20
8.6125421618
 11
11.2065283423
 21
8.6125421618
  0
LINE
  5
358
100
AcDbEntity
  8
03__ASM_ALL_CURVES
100
AcDbLine
 62
4
  6
CONTINUOUS
 10
12.0074700923
 20
8.6196144934
 11
12.0180785923
 21
8.6196144934
  0
LINE
  5
359
100
AcDbEntity
  8
03__ASM_ALL_CURVES
100
AcDbLine
 62
4
  6
CONTINUOUS
 10
12.2620740923
 20
8.6196144934
 11
12.2726825923
 21
8.6196144934
  0
LINE
  5
35A
100
AcDbEntity
  8
03__ASM_ALL_CURVES
100
AcDbLine
 62
4
  6
CONTINUOUS
 10
12.6970225923
 20
8.6549761618
 11
12.6864140923
 21
8.6549761618
  0
LINE
  5
35B
100
AcDbEntity
  8
03__ASM_ALL_CURVES
100
AcDbLine
 62
4
  6
CONTINUOUS
 10
11.6096513423
 20
8.6549761618
 11
11.5672173423
 21
8.6549761618
  0
LINE
  5
35C
100
AcDbEntity
  8
03__ASM_ALL_CURVES
100
AcDbLine
 62
4
  6
CONTINUOUS
 10
12.0074700923
 20
8.6549761618
 11
12.0180785923
 21
8.6549761618
  0
LINE
  5
35D
100
AcDbEntity
  8
03__ASM_ALL_CURVES
100
AcDbLine
 62
4
  6
CONTINUOUS
 10
12.2620740923
 20
8.6549761618
 11
12.2726825923
 21
8.6549761618
  0
LINE
  5
35E
100
AcDbEntity
  8
03__ASM_ALL_CURVES
100
AcDbLine
 62
4
  6
CONTINUOUS
 10
11.4186983423
 20
7.8511081618
 11
11.4080898423
 21
7.8581804953
  0
LINE
  5
35F
100
AcDbEntity
  8
03__ASM_ALL_CURVES
100
AcDbLine
 62
4
  6
CONTINUOUS
 10
11.4186983423
 20
7.9359761618
 11
11.4293068423
 21
7.9289038301
  0
LINE
  5
360
100
AcDbEntity
  8
03__ASM_ALL_CURVES
100
AcDbLine
 62
4
  6
CONTINUOUS
 10
8.290911674
 20
6.6682604118
 11
8.2979840107
 21
6.6788689118
  0
LINE
  5
361
100
AcDbEntity
  8
03__ASM_ALL_CURVES
100
AcDbLine
 62
4
  6
CONTINUOUS
 10
8.3474903423
 20
6.7478241618
 11
8.3404180088
 21
6.7372156618
  0
LINE
  5
362
100
AcDbEntity
  8
03__ASM_ALL_CURVES
100
AcDbLine
 62
4
  6
CONTINUOUS
 10
8.7214903423
 20
7.2517279118
 11
8.7144180088
 21
7.2411194118
  0
LINE
  5
363
100
AcDbEntity
  8
03__ASM_ALL_CURVES
100
AcDbLine
 62
4
  6
CONTINUOUS
 10
8.3474903423
 20
6.6576519118
 11
8.3404180088
 21
6.6470434118
  0
LINE
  5
364
100
AcDbEntity
  8
03__ASM_ALL_CURVES
100
AcDbLine
 62
4
  6
CONTINUOUS
 10
8.2626223423
 20
6.4985244118
 11
8.269694674
 21
6.5091329118
  0
LINE
  5
365
100
AcDbEntity
  8
03__ASM_ALL_CURVES
100
AcDbLine
 62
4
  6
CONTINUOUS
 10
8.664911674
 20
7.0926004118
 11
8.6719840107
 21
7.1032089118
  0
LINE
  5
366
100
AcDbEntity
  8
03__ASM_ALL_CURVES
100
AcDbLine
 62
4
  6
CONTINUOUS
 10
8.664911674
 20
7.0077324118
 11
8.6719840107
 21
7.0183409118
  0
LINE
  5
367
100
AcDbEntity
  8
03__ASM_ALL_CURVES
100
AcDbLine
 62
4
  6
CONTINUOUS
 10
8.7214903423
 20
7.0819919118
 11
8.7144180088
 21
7.0713834118
  0
LINE
  5
368
100
AcDbEntity
  8
03__ASM_ALL_CURVES
100
AcDbLine
 62
4
  6
CONTINUOUS
 10
8.7214903423
 20
6.9971239118
 11
8.7144180088
 21
6.9865154118
  0
LINE
  5
369
100
AcDbEntity
  8
03__ASM_ALL_CURVES
100
AcDbLine
 62
4
  6
CONTINUOUS
 10
12.0286870923
 20
11.9592528289
 11
12.0233828423
 21
11.9521804953
  0
LINE
  5
36A
100
AcDbEntity
  8
03__ASM_ALL_CURVES
100
AcDbLine
 62
4
  6
CONTINUOUS
 10
11.6096513423
 20
11.3652528289
 11
11.6043470923
 21
11.3581804953
  0
LINE
  5
36B
100
AcDbEntity
  8
03__ASM_ALL_CURVES
100
AcDbLine
 62
4
  6
CONTINUOUS
 10
12.1188593423
 20
12.0087591618
 11
12.1135550923
 21
12.0016868301
  0
LINE
  5
36C
100
AcDbEntity
  8
03__ASM_ALL_CURVES
100
AcDbLine
 62
4
  6
CONTINUOUS
 10
12.1241635923
 20
11.9663251618
 11
12.1135550923
 21
11.9521804953
  0
LINE
  5
36D
100
AcDbEntity
  8
03__ASM_ALL_CURVES
100
AcDbLine
 62
4
  6
CONTINUOUS
 10
11.7634745923
 20
11.4359761618
 11
11.7528660923
 21
11.4218314934
  0
LINE
  5
36E
100
AcDbEntity
  8
03__ASM_ALL_CURVES
100
AcDbLine
 62
4
  6
CONTINUOUS
 10
12.2461613423
 20
12.0158314934
 11
12.2514655923
 21
12.0229038301
  0
LINE
  5
36F
100
AcDbEntity
  8
03__ASM_ALL_CURVES
100
AcDbLine
 62
4
  6
CONTINUOUS
 10
11.8218213423
 20
11.4218314934
 11
11.8271255923
 21
11.4289038301
  0
LINE
  5
370
100
AcDbEntity
  8
03__ASM_ALL_CURVES
100
AcDbLine
 62
4
  6
CONTINUOUS
 10
12.2408570923
 20
11.973397496
 11
12.2514655923
 21
11.9875421618
  0
LINE
  5
371
100
AcDbEntity
  8
03__ASM_ALL_CURVES
100
AcDbLine
 62
4
  6
CONTINUOUS
 10
11.8165170923
 20
11.379397496
 11
11.8271255923
 21
11.3935421618
  0
LINE
  5
372
100
AcDbEntity
  8
03__ASM_ALL_CURVES
100
AcDbLine
 62
4
  6
CONTINUOUS
 10
12.2885953423
 20
12.0087591618
 11
12.2832910923
 21
12.0016868301
  0
LINE
  5
373
100
AcDbEntity
  8
03__ASM_ALL_CURVES
100
AcDbLine
 62
4
  6
CONTINUOUS
 10
11.8642553423
 20
11.4147591618
 11
11.8589510923
 21
11.4076868301
  0
LINE
  5
374
100
AcDbEntity
  8
03__ASM_ALL_CURVES
100
AcDbLine
 62
4
  6
CONTINUOUS
 10
12.2938995923
 20
11.9663251618
 11
12.2832910923
 21
11.9521804953
  0
LINE
  5
375
100
AcDbEntity
  8
03__ASM_ALL_CURVES
100
AcDbLine
 62
4
  6
CONTINUOUS
 10
12.3310293423
 20
12.0158314934
 11
12.3363335923
 21
12.0229038301
  0
LINE
  5
376
100
AcDbEntity
  8
03__ASM_ALL_CURVES
100
AcDbLine
 62
4
  6
CONTINUOUS
 10
11.8695595923
 20
11.3723251618
 11
11.8589510923
 21
11.3581804953
  0
LINE
  5
377
100
AcDbEntity
  8
03__ASM_ALL_CURVES
100
AcDbLine
 62
4
  6
CONTINUOUS
 10
11.9066893423
 20
11.4218314934
 11
11.9119935923
 21
11.4289038301
  0
LINE
  5
378
100
AcDbEntity
  8
03__ASM_ALL_CURVES
100
AcDbLine
 62
4
  6
CONTINUOUS
 10
11.5884343423
 20
8.5037464934
 11
11.6043470923
 21
8.4966741618
  0
LINE
  5
379
100
AcDbEntity
  8
03__ASM_ALL_CURVES
100
AcDbLine
 62
4
  6
CONTINUOUS
 10
10.3866223423
 20
6.7425199118
 11
10.3866223423
 21
6.7531284118
  0
LINE
  5
37A
100
AcDbEntity
  8
03__ASM_ALL_CURVES
100
AcDbLine
 62
4
  6
CONTINUOUS
 10
10.3866223423
 20
7.3365959118
 11
10.3866223423
 21
7.3472044118
  0
LINE
  5
37B
100
AcDbEntity
  8
03__ASM_ALL_CURVES
100
AcDbLine
 62
4
  6
CONTINUOUS
 10
10.4219840107
 20
6.7425199118
 11
10.4219840107
 21
6.7531284118
  0
LINE
  5
37C
100
AcDbEntity
  8
03__ASM_ALL_CURVES
100
AcDbLine
 62
4
  6
CONTINUOUS
 10
10.4290563423
 20
7.8086741618
 11
10.4290563423
 21
7.5540701618
  0
LINE
  5
37D
100
AcDbEntity
  8
03__ASM_ALL_CURVES
100
AcDbLine
 62
4
  6
CONTINUOUS
 10
10.4502733423
 20
6.6417391618
 11
10.4502733423
 21
6.6894774118
  0
LINE
  5
37E
100
AcDbEntity
  8
03__ASM_ALL_CURVES
100
AcDbLine
 62
4
  6
CONTINUOUS
 10
10.4714903423
 20
7.1933811618
 11
10.4714903423
 21
7.1854247868
  0
LINE
  5
37F
100
AcDbEntity
  8
03__ASM_ALL_CURVES
100
AcDbLine
 62
4
  6
CONTINUOUS
 10
10.4714903423
 20
6.7531284118
 11
10.4714903423
 21
6.7425199118
  0
LINE
  5
380
100
AcDbEntity
  8
03__ASM_ALL_CURVES
100
AcDbLine
 62
4
  6
CONTINUOUS
 10
10.4714903423
 20
6.5993051618
 11
10.4714903423
 21
6.5913487868
  0
LINE
  5
381
100
AcDbEntity
  8
03__ASM_ALL_CURVES
100
AcDbLine
 62
4
  6
CONTINUOUS
 10
10.4714903423
 20
7.3206831618
 11
10.4714903423
 21
7.3631171618
  0
LINE
  5
382
100
AcDbEntity
  8
03__ASM_ALL_CURVES
100
AcDbLine
 62
4
  6
CONTINUOUS
 10
11.5672173423
 20
12.0016868301
 11
11.5725215923
 21
12.0158314934
  0
LINE
  5
383
100
AcDbEntity
  8
03__ASM_ALL_CURVES
100
AcDbLine
 62
4
  6
CONTINUOUS
 10
8.6366223423
 20
6.7531284118
 11
8.643694674
 21
6.7637369118
  0
LINE
  5
384
100
AcDbEntity
  8
03__ASM_ALL_CURVES
100
AcDbLine
 62
4
  6
CONTINUOUS
 10
8.6719840107
 20
6.7531284118
 11
8.6790563423
 21
6.7637369118
  0
LINE
  5
385
100
AcDbEntity
  8
03__ASM_ALL_CURVES
100
AcDbLine
 62
4
  6
CONTINUOUS
 10
8.6719840107
 20
6.7425199118
 11
8.664911674
 21
6.7319114118
  0
LINE
  5
386
100
AcDbEntity
  8
03__ASM_ALL_CURVES
100
AcDbLine
 62
4
  6
CONTINUOUS
 10
8.7214903423
 20
6.7425199118
 11
8.7144180088
 21
6.7319114118
  0
LINE
  5
387
100
AcDbEntity
  8
03__ASM_ALL_CURVES
100
AcDbLine
 62
4
  6
CONTINUOUS
 10
8.6366223423
 20
6.4985244118
 11
8.643694674
 21
6.5091329118
  0
LINE
  5
388
100
AcDbEntity
  8
03__ASM_ALL_CURVES
100
AcDbLine
 62
4
  6
CONTINUOUS
 10
12.3257250923
 20
11.973397496
 11
12.3363335923
 21
11.9875421618
  0
LINE
  5
389
100
AcDbEntity
  8
03__ASM_ALL_CURVES
100
AcDbLine
 62
4
  6
CONTINUOUS
 10
11.9013850923
 20
11.379397496
 11
11.9119935923
 21
11.3935421618
  0
LINE
  5
38A
100
AcDbEntity
  8
03__ASM_ALL_CURVES
100
AcDbLine
 62
4
  6
CONTINUOUS
 10
12.3734633423
 20
12.0087591618
 11
12.3681590923
 21
12.0016868301
  0
LINE
  5
38B
100
AcDbEntity
  8
03__ASM_ALL_CURVES
100
AcDbLine
 62
4
  6
CONTINUOUS
 10
11.9491233423
 20
11.4147591618
 11
11.9438190923
 21
11.4076868301
  0
LINE
  5
38C
100
AcDbEntity
  8
03__ASM_ALL_CURVES
100
AcDbLine
 62
4
  6
CONTINUOUS
 10
12.3787675923
 20
11.9663251618
 11
12.3681590923
 21
11.9521804953
  0
LINE
  5
38D
100
AcDbEntity
  8
03__ASM_ALL_CURVES
100
AcDbLine
 62
4
  6
CONTINUOUS
 10
11.9544275923
 20
11.3723251618
 11
11.9438190923
 21
11.3581804953
  0
LINE
  5
38E
100
AcDbEntity
  8
03__ASM_ALL_CURVES
100
AcDbLine
 62
4
  6
CONTINUOUS
 10
12.4424185923
 20
11.9592528289
 11
12.4318100923
 21
11.9451081618
  0
LINE
  5
38F
100
AcDbEntity
  8
03__ASM_ALL_CURVES
100
AcDbLine
 62
4
  6
CONTINUOUS
 10
12.0764253423
 20
11.4218314934
 11
12.0817295923
 21
11.4289038301
  0
LINE
  5
390
100
AcDbEntity
  8
03__ASM_ALL_CURVES
100
AcDbLine
 62
4
  6
CONTINUOUS
 10
12.0711210923
 20
11.379397496
 11
12.0817295923
 21
11.3935421618
  0
LINE
  5
391
100
AcDbEntity
  8
03__ASM_ALL_CURVES
100
AcDbLine
 62
4
  6
CONTINUOUS
 10
12.1188593423
 20
11.4147591618
 11
12.1135550923
 21
11.4076868301
  0
LINE
  5
392
100
AcDbEntity
  8
03__ASM_ALL_CURVES
100
AcDbLine
 62
4
  6
CONTINUOUS
 10
12.1241635923
 20
11.3723251618
 11
12.1135550923
 21
11.3581804953
  0
LINE
  5
393
100
AcDbEntity
  8
03__ASM_ALL_CURVES
100
AcDbLine
 62
4
  6
CONTINUOUS
 10
12.1665975923
 20
11.4218314934
 11
12.1719018423
 21
11.4289038301
  0
LINE
  5
394
100
AcDbEntity
  8
03__ASM_ALL_CURVES
100
AcDbLine
 62
4
  6
CONTINUOUS
 10
11.4186983423
 20
8.4542401618
 11
11.4080898423
 21
8.4613124953
  0
LINE
  5
395
100
AcDbEntity
  8
03__ASM_ALL_CURVES
100
AcDbLine
 62
4
  6
CONTINUOUS
 10
11.4186983423
 20
8.5391081618
 11
11.4293068423
 21
8.5320358301
  0
LINE
  5
396
100
AcDbEntity
  8
03__ASM_ALL_CURVES
100
AcDbLine
 62
4
  6
CONTINUOUS
 10
11.5884343423
 20
8.4542401618
 11
11.5778258423
 21
8.4613124953
  0
LINE
  5
397
100
AcDbEntity
  8
03__ASM_ALL_CURVES
100
AcDbLine
 62
4
  6
CONTINUOUS
 10
11.4186983423
 20
8.5701081618
 11
11.4080898423
 21
8.5771804953
  0
LINE
  5
398
100
AcDbEntity
  8
03__ASM_ALL_CURVES
100
AcDbLine
 62
4
  6
CONTINUOUS
 10
11.6679980923
 20
8.4542401618
 11
11.6573895923
 21
8.4613124953
  0
LINE
  5
399
100
AcDbEntity
  8
03__ASM_ALL_CURVES
100
AcDbLine
 62
4
  6
CONTINUOUS
 10
11.5884343423
 20
8.5391081618
 11
11.5990428423
 21
8.5320358301
  0
LINE
  5
39A
100
AcDbEntity
  8
03__ASM_ALL_CURVES
100
AcDbLine
 62
4
  6
CONTINUOUS
 10
11.4186983423
 20
8.6549761618
 11
11.4293068423
 21
8.6479038301
  0
LINE
  5
39B
100
AcDbEntity
  8
03__ASM_ALL_CURVES
100
AcDbLine
 62
4
  6
CONTINUOUS
 10
11.6679980923
 20
8.5037464934
 11
11.6573895923
 21
8.5108188301
  0
LINE
  5
39C
100
AcDbEntity
  8
03__ASM_ALL_CURVES
100
AcDbLine
 62
4
  6
CONTINUOUS
 10
11.0367923423
 20
8.5815421618
 11
11.1216603423
 21
8.4966741618
  0
LINE
  5
39D
100
AcDbEntity
  8
03__ASM_ALL_CURVES
100
AcDbLine
 62
4
  6
CONTINUOUS
 10
11.4080898423
 20
7.8581804953
 11
11.4027855923
 21
7.8652528289
  0
LINE
  5
39E
100
AcDbEntity
  8
03__ASM_ALL_CURVES
100
AcDbLine
 62
4
  6
CONTINUOUS
 10
11.4293068423
 20
7.9289038301
 11
11.4346110923
 21
7.9218314934
  0
LINE
  5
39F
100
AcDbEntity
  8
03__ASM_ALL_CURVES
100
AcDbLine
 62
4
  6
CONTINUOUS
 10
11.6096513423
 20
11.973397496
 11
11.6043470923
 21
11.9592528289
  0
LINE
  5
3A0
100
AcDbEntity
  8
03__ASM_ALL_CURVES
100
AcDbLine
 62
4
  6
CONTINUOUS
 10
11.6520853423
 20
12.0016868301
 11
11.6573895923
 21
12.0158314934
  0
LINE
  5
3A1
100
AcDbEntity
  8
03__ASM_ALL_CURVES
100
AcDbLine
 62
4
  6
CONTINUOUS
 10
11.6945193423
 20
12.0016868301
 11
11.6892150923
 21
11.9875421618
  0
LINE
  5
3A2
100
AcDbEntity
  8
03__ASM_ALL_CURVES
100
AcDbLine
 62
4
  6
CONTINUOUS
 10
11.6945193423
 20
11.973397496
 11
11.6892150923
 21
11.9592528289
  0
LINE
  5
3A3
100
AcDbEntity
  8
03__ASM_ALL_CURVES
100
AcDbLine
 62
4
  6
CONTINUOUS
 10
11.6149555923
 20
11.379397496
 11
11.6096513423
 21
11.3652528289
  0
LINE
  5
3A4
100
AcDbEntity
  8
03__ASM_ALL_CURVES
100
AcDbLine
 62
4
  6
CONTINUOUS
 10
12.1984230923
 20
11.3652528289
 11
12.1931188423
 21
11.3581804953
  0
LINE
  5
3A5
100
AcDbEntity
  8
03__ASM_ALL_CURVES
100
AcDbLine
 62
4
  6
CONTINUOUS
 10
12.2726825923
 20
11.3652528289
 11
12.2620740923
 21
11.3511081618
  0
LINE
  5
3A6
100
AcDbEntity
  8
03__ASM_ALL_CURVES
100
AcDbLine
 62
4
  6
CONTINUOUS
 10
8.2626223423
 20
7.4214639118
 11
8.2767670107
 21
7.4320724118
  0
LINE
  5
3A7
100
AcDbEntity
  8
03__ASM_ALL_CURVES
100
AcDbLine
 62
4
  6
CONTINUOUS
 10
8.269694674
 20
7.3578129118
 11
8.2767670107
 21
7.3631171618
  0
LINE
  5
3A8
100
AcDbEntity
  8
03__ASM_ALL_CURVES
100
AcDbLine
 62
4
  6
CONTINUOUS
 10
8.269694674
 20
7.2676406618
 11
8.2767670107
 21
7.2729449118
  0
LINE
  5
3A9
100
AcDbEntity
  8
03__ASM_ALL_CURVES
100
AcDbLine
 62
4
  6
CONTINUOUS
 10
11.6786065923
 20
8.5037464934
 11
11.6892150923
 21
8.4966741618
  0
LINE
  5
3AA
100
AcDbEntity
  8
03__ASM_ALL_CURVES
100
AcDbLine
 62
4
  6
CONTINUOUS
 10
11.6786065923
 20
8.5391081618
 11
11.6892150923
 21
8.5320358301
  0
LINE
  5
3AB
100
AcDbEntity
  8
03__ASM_ALL_CURVES
100
AcDbLine
 62
4
  6
CONTINUOUS
 10
11.4080898423
 20
8.4613124953
 11
11.4027855923
 21
8.4683848289
  0
LINE
  5
3AC
100
AcDbEntity
  8
03__ASM_ALL_CURVES
100
AcDbLine
 62
4
  6
CONTINUOUS
 10
10.8670563423
 20
7.8086741618
 11
10.8670563423
 21
7.5540701618
  0
LINE
  5
3AD
100
AcDbEntity
  8
0
100
AcDbLine
 62
7
  6
CONTINUOUS
 10
10.8670563423
 20
7.8935421618
 11
10.8670563423
 21
11.3935421618
  0
LINE
  5
3AE
100
AcDbEntity
  8
03__ASM_ALL_CURVES
100
AcDbLine
 62
4
  6
CONTINUOUS
 10
11.9915573423
 20
12.0016868301
 11
11.9968615923
 21
12.0158314934
  0
LINE
  5
3AF
100
AcDbEntity
  8
03__ASM_ALL_CURVES
100
AcDbLine
 62
4
  6
CONTINUOUS
 10
12.0339913423
 20
11.973397496
 11
12.0286870923
 21
11.9592528289
  0
LINE
  5
3B0
100
AcDbEntity
  8
03__ASM_ALL_CURVES
100
AcDbLine
 62
4
  6
CONTINUOUS
 10
8.3404180088
 20
7.2464236618
 11
8.3333456752
 21
7.2411194118
  0
LINE
  5
3B1
100
AcDbEntity
  8
03__ASM_ALL_CURVES
100
AcDbLine
 62
4
  6
CONTINUOUS
 10
8.6366223423
 20
7.4214639118
 11
8.6507670107
 21
7.4320724118
  0
LINE
  5
3B2
100
AcDbEntity
  8
03__ASM_ALL_CURVES
100
AcDbLine
 62
4
  6
CONTINUOUS
 10
8.336881842
 20
7.1854247868
 11
8.3474903423
 21
7.1933811618
  0
LINE
  5
3B3
100
AcDbEntity
  8
03__ASM_ALL_CURVES
100
AcDbLine
 62
4
  6
CONTINUOUS
 10
8.2979840107
 20
7.1032089118
 11
8.3050563423
 21
7.1085131618
  0
LINE
  5
3B4
100
AcDbEntity
  8
03__ASM_ALL_CURVES
100
AcDbLine
 62
4
  6
CONTINUOUS
 10
8.3404180088
 20
7.0713834118
 11
8.3333456752
 21
7.0660791618
  0
LINE
  5
3B5
100
AcDbEntity
  8
03__ASM_ALL_CURVES
100
AcDbLine
 62
4
  6
CONTINUOUS
 10
8.269694674
 20
7.0130366618
 11
8.2767670107
 21
7.0183409118
  0
LINE
  5
3B6
100
AcDbEntity
  8
03__ASM_ALL_CURVES
100
AcDbLine
 62
4
  6
CONTINUOUS
 10
8.643694674
 20
7.2729449118
 11
8.6507670107
 21
7.2782491618
  0
LINE
  5
3B7
100
AcDbEntity
  8
03__ASM_ALL_CURVES
100
AcDbLine
 62
4
  6
CONTINUOUS
 10
8.6790563423
 20
7.2729449118
 11
8.6932010081
 21
7.2835534118
  0
LINE
  5
3B8
100
AcDbEntity
  8
03__ASM_ALL_CURVES
100
AcDbLine
 62
4
  6
CONTINUOUS
 10
8.3404180088
 20
6.9918196618
 11
8.3333456752
 21
6.9865154118
  0
LINE
  5
3B9
100
AcDbEntity
  8
03__ASM_ALL_CURVES
100
AcDbLine
 62
4
  6
CONTINUOUS
 10
8.7144180088
 20
7.2411194118
 11
8.7073456752
 21
7.2358151618
  0
LINE
  5
3BA
100
AcDbEntity
  8
03__ASM_ALL_CURVES
100
AcDbLine
 62
4
  6
CONTINUOUS
 10
12.0074700923
 20
8.5701081618
 11
11.9968615923
 21
8.5771804953
  0
LINE
  5
3BB
100
AcDbEntity
  8
03__ASM_ALL_CURVES
100
AcDbLine
 62
4
  6
CONTINUOUS
 10
12.0074700923
 20
8.6196144934
 11
11.9968615923
 21
8.6266868301
  0
LINE
  5
3BC
100
AcDbEntity
  8
03__ASM_ALL_CURVES
100
AcDbLine
 62
4
  6
CONTINUOUS
 10
12.0180785923
 20
8.6196144934
 11
12.0286870923
 21
8.6125421618
  0
LINE
  5
3BD
100
AcDbEntity
  8
03__ASM_ALL_CURVES
100
AcDbLine
 62
4
  6
CONTINUOUS
 10
12.1878145923
 20
8.5391081618
 11
12.1984230923
 21
8.5320358301
  0
LINE
  5
3BE
100
AcDbEntity
  8
03__ASM_ALL_CURVES
100
AcDbLine
 62
4
  6
CONTINUOUS
 10
12.0180785923
 20
8.6549761618
 11
12.0286870923
 21
8.6479038301
  0
LINE
  5
3BF
100
AcDbEntity
  8
03__ASM_ALL_CURVES
100
AcDbLine
 62
4
  6
CONTINUOUS
 10
12.1825103423
 20
8.5701081618
 11
12.1719018423
 21
8.5771804953
  0
LINE
  5
3C0
100
AcDbEntity
  8
03__ASM_ALL_CURVES
100
AcDbLine
 62
4
  6
CONTINUOUS
 10
12.2620740923
 20
8.5701081618
 11
12.2514655923
 21
8.5771804953
  0
LINE
  5
3C1
100
AcDbEntity
  8
03__ASM_ALL_CURVES
100
AcDbLine
 62
4
  6
CONTINUOUS
 10
12.1825103423
 20
8.6549761618
 11
12.1931188423
 21
8.6479038301
  0
LINE
  5
3C2
100
AcDbEntity
  8
03__ASM_ALL_CURVES
100
AcDbLine
 62
4
  6
CONTINUOUS
 10
12.2726825923
 20
8.6196144934
 11
12.2832910923
 21
8.6125421618
  0
LINE
  5
3C3
100
AcDbEntity
  8
03__ASM_ALL_CURVES
100
AcDbLine
 62
4
  6
CONTINUOUS
 10
12.2726825923
 20
8.6549761618
 11
12.2832910923
 21
8.6479038301
  0
LINE
  5
3C4
100
AcDbEntity
  8
0
100
AcDbLine
 62
7
  6
CONTINUOUS
 10
8.6885563423
 20
11.4565421618
 11
8.6280563423
 21
11.5170421618
  0
LINE
  5
3C5
100
AcDbEntity
  8
03__ASM_ALL_CURVES
100
AcDbLine
 62
4
  6
CONTINUOUS
 10
11.4293068423
 20
8.5320358301
 11
11.4346110923
 21
8.5249634934
  0
LINE
  5
3C6
100
AcDbEntity
  8
03__ASM_ALL_CURVES
100
AcDbLine
 62
4
  6
CONTINUOUS
 10
11.4080898423
 20
8.5771804953
 11
11.4027855923
 21
8.5842528289
  0
LINE
  5
3C7
100
AcDbEntity
  8
03__ASM_ALL_CURVES
100
AcDbLine
 62
4
  6
CONTINUOUS
 10
11.5168269673
 20
8.4648486621
 11
11.5247833423
 21
8.4542401618
  0
LINE
  5
3C8
100
AcDbEntity
  8
03__ASM_ALL_CURVES
100
AcDbLine
 62
4
  6
CONTINUOUS
 10
11.4293068423
 20
8.6479038301
 11
11.4346110923
 21
8.6408314934
  0
LINE
  5
3C9
100
AcDbEntity
  8
03__ASM_ALL_CURVES
100
AcDbLine
 62
4
  6
CONTINUOUS
 10
11.5778258423
 20
8.4613124953
 11
11.5725215923
 21
8.4683848289
  0
LINE
  5
3CA
100
AcDbEntity
  8
03__ASM_ALL_CURVES
100
AcDbLine
 62
4
  6
CONTINUOUS
 10
11.5168269673
 20
8.5807166621
 11
11.5247833423
 21
8.5701081618
  0
LINE
  5
3CB
100
AcDbEntity
  8
03__ASM_ALL_CURVES
100
AcDbLine
 62
4
  6
CONTINUOUS
 10
11.5990428423
 20
8.5320358301
 11
11.6043470923
 21
8.5249634934
  0
LINE
  5
3CC
100
AcDbEntity
  8
03__ASM_ALL_CURVES
100
AcDbLine
 62
4
  6
CONTINUOUS
 10
11.6573895923
 20
8.4613124953
 11
11.6467810923
 21
8.4754571618
  0
LINE
  5
3CD
100
AcDbEntity
  8
03__ASM_ALL_CURVES
100
AcDbLine
 62
4
  6
CONTINUOUS
 10
11.6573895923
 20
8.5108188301
 11
11.6520853423
 21
8.5178911618
  0
LINE
  5
3CE
100
AcDbEntity
  8
03__ASM_ALL_CURVES
100
AcDbLine
 62
4
  6
CONTINUOUS
 10
11.6892150923
 20
8.4966741618
 11
11.6998235923
 21
8.482529496
  0
LINE
  5
3CF
100
AcDbEntity
  8
03__ASM_ALL_CURVES
100
AcDbLine
 62
4
  6
CONTINUOUS
 10
11.4027855923
 20
7.8652528289
 11
11.3974813423
 21
7.879397496
  0
LINE
  5
3D0
100
AcDbEntity
  8
03__ASM_ALL_CURVES
100
AcDbLine
 62
4
  6
CONTINUOUS
 10
11.4346110923
 20
7.9218314934
 11
11.4399153423
 21
7.9076868301
  0
LINE
  5
3D1
100
AcDbEntity
  8
03__ASM_ALL_CURVES
100
AcDbLine
 62
4
  6
CONTINUOUS
 10
11.5778258423
 20
11.4359761618
 11
11.5725215923
 21
11.4006144934
  0
LINE
  5
3D2
100
AcDbEntity
  8
03__ASM_ALL_CURVES
100
AcDbLine
 62
4
  6
CONTINUOUS
 10
11.8377340923
 20
12.0158314934
 11
11.8324298423
 21
11.9946144934
  0
LINE
  5
3D3
100
AcDbEntity
  8
03__ASM_ALL_CURVES
100
AcDbLine
 62
4
  6
CONTINUOUS
 10
11.7528660923
 20
11.4218314934
 11
11.7475618423
 21
11.4006144934
  0
LINE
  5
3D4
100
AcDbEntity
  8
03__ASM_ALL_CURVES
100
AcDbLine
 62
4
  6
CONTINUOUS
 10
10.4361286765
 20
7.2570321618
 11
10.4290563423
 21
7.2411194118
  0
LINE
  5
3D5
100
AcDbEntity
  8
03__ASM_ALL_CURVES
100
AcDbLine
 62
4
  6
CONTINUOUS
 10
8.3333456752
 20
6.9122559118
 11
8.3474903423
 21
6.9228644118
  0
LINE
  5
3D6
100
AcDbEntity
  8
03__ASM_ALL_CURVES
100
AcDbLine
 62
4
  6
CONTINUOUS
 10
8.710881842
 20
7.1854247868
 11
8.7214903423
 21
7.1933811618
  0
LINE
  5
3D7
100
AcDbEntity
  8
03__ASM_ALL_CURVES
100
AcDbLine
 62
4
  6
CONTINUOUS
 10
8.6719840107
 20
7.1032089118
 11
8.6790563423
 21
7.1085131618
  0
LINE
  5
3D8
100
AcDbEntity
  8
03__ASM_ALL_CURVES
100
AcDbLine
 62
4
  6
CONTINUOUS
 10
8.269694674
 20
6.7584326618
 11
8.2767670107
 21
6.7637369118
  0
LINE
  5
3D9
100
AcDbEntity
  8
03__ASM_ALL_CURVES
100
AcDbLine
 62
4
  6
CONTINUOUS
 10
8.7144180088
 20
7.0713834118
 11
8.7073456752
 21
7.0660791618
  0
LINE
  5
3DA
100
AcDbEntity
  8
03__ASM_ALL_CURVES
100
AcDbLine
 62
4
  6
CONTINUOUS
 10
8.6719840107
 20
7.0183409118
 11
8.6790563423
 21
7.0236451618
  0
LINE
  5
3DB
100
AcDbEntity
  8
03__ASM_ALL_CURVES
100
AcDbLine
 62
4
  6
CONTINUOUS
 10
8.3404180088
 20
6.7372156618
 11
8.3333456752
 21
6.7319114118
  0
LINE
  5
3DC
100
AcDbEntity
  8
03__ASM_ALL_CURVES
100
AcDbLine
 62
4
  6
CONTINUOUS
 10
8.2979840107
 20
6.6788689118
 11
8.3050563423
 21
6.6841731618
  0
LINE
  5
3DD
100
AcDbEntity
  8
03__ASM_ALL_CURVES
100
AcDbLine
 62
4
  6
CONTINUOUS
 10
8.7144180088
 20
6.9865154118
 11
8.7073456752
 21
6.9812111618
  0
LINE
  5
3DE
100
AcDbEntity
  8
03__ASM_ALL_CURVES
100
AcDbLine
 62
4
  6
CONTINUOUS
 10
12.6864140923
 20
8.5701081618
 11
12.6758055923
 21
8.5771804953
  0
LINE
  5
3DF
100
AcDbEntity
  8
03__ASM_ALL_CURVES
100
AcDbLine
 62
4
  6
CONTINUOUS
 10
12.6758055923
 20
8.6266868301
 11
12.7076310923
 21
8.6054698276
  0
LINE
  5
3E0
100
AcDbEntity
  8
03__ASM_ALL_CURVES
100
AcDbLine
 62
4
  6
CONTINUOUS
 10
12.7076310923
 20
8.6479038301
 11
12.6970225923
 21
8.6549761618
  0
LINE
  5
3E1
100
AcDbEntity
  8
03__ASM_ALL_CURVES
100
AcDbLine
 62
4
  6
CONTINUOUS
 10
11.6892150923
 20
8.5320358301
 11
11.6945193423
 21
8.5249634934
  0
LINE
  5
3E2
100
AcDbEntity
  8
03__ASM_ALL_CURVES
100
AcDbLine
 62
4
  6
CONTINUOUS
 10
11.8377340923
 20
8.4683848289
 11
11.8483425923
 21
8.4542401618
  0
LINE
  5
3E3
100
AcDbEntity
  8
03__ASM_ALL_CURVES
100
AcDbLine
 62
4
  6
CONTINUOUS
 10
11.8377340923
 20
8.5842528289
 11
11.8483425923
 21
8.5701081618
  0
LINE
  5
3E4
100
AcDbEntity
  8
03__ASM_ALL_CURVES
100
AcDbLine
 62
4
  6
CONTINUOUS
 10
11.4027855923
 20
8.4683848289
 11
11.3974813423
 21
8.482529496
  0
LINE
  5
3E5
100
AcDbEntity
  8
03__ASM_ALL_CURVES
100
AcDbLine
 62
4
  6
CONTINUOUS
 10
11.4027855923
 20
8.5842528289
 11
11.3974813423
 21
8.598397496
  0
LINE
  5
3E6
100
AcDbEntity
  8
03__ASM_ALL_CURVES
100
AcDbLine
 62
4
  6
CONTINUOUS
 10
11.4346110923
 20
8.5249634934
 11
11.4399153423
 21
8.5108188301
  0
LINE
  5
3E7
100
AcDbEntity
  8
03__ASM_ALL_CURVES
100
AcDbLine
 62
4
  6
CONTINUOUS
 10
11.4346110923
 20
8.6408314934
 11
11.4399153423
 21
8.6266868301
  0
LINE
  5
3E8
100
AcDbEntity
  8
03__ASM_ALL_CURVES
100
AcDbLine
 62
4
  6
CONTINUOUS
 10
11.5725215923
 20
8.4683848289
 11
11.5672173423
 21
8.482529496
  0
LINE
  5
3E9
100
AcDbEntity
  8
03__ASM_ALL_CURVES
100
AcDbLine
 62
4
  6
CONTINUOUS
 10
11.3974813423
 20
7.879397496
 11
11.3974813423
 21
7.9076868301
  0
LINE
  5
3EA
100
AcDbEntity
  8
03__ASM_ALL_CURVES
100
AcDbLine
 62
4
  6
CONTINUOUS
 10
11.3974813423
 20
8.482529496
 11
11.3974813423
 21
8.5108188301
  0
LINE
  5
3EB
100
AcDbEntity
  8
03__ASM_ALL_CURVES
100
AcDbLine
 62
4
  6
CONTINUOUS
 10
11.3974813423
 20
8.598397496
 11
11.3974813423
 21
8.6266868301
  0
LINE
  5
3EC
100
AcDbEntity
  8
03__ASM_ALL_CURVES
100
AcDbLine
 62
4
  6
CONTINUOUS
 10
11.4346110923
 20
11.9451081618
 11
11.4346110923
 21
12.0299761618
  0
LINE
  5
3ED
100
AcDbEntity
  8
03__ASM_ALL_CURVES
100
AcDbLine
 62
4
  6
CONTINUOUS
 10
11.4399153423
 20
11.4218314934
 11
11.4399153423
 21
11.4147591618
  0
LINE
  5
3EE
100
AcDbEntity
  8
03__ASM_ALL_CURVES
100
AcDbLine
 62
4
  6
CONTINUOUS
 10
11.4399153423
 20
8.6266868301
 11
11.4399153423
 21
8.598397496
  0
LINE
  5
3EF
100
AcDbEntity
  8
03__ASM_ALL_CURVES
100
AcDbLine
 62
4
  6
CONTINUOUS
 10
11.4399153423
 20
8.5108188301
 11
11.4399153423
 21
8.482529496
  0
LINE
  5
3F0
100
AcDbEntity
  8
03__ASM_ALL_CURVES
100
AcDbLine
 62
4
  6
CONTINUOUS
 10
11.4399153423
 20
7.9076868301
 11
11.4399153423
 21
7.879397496
  0
LINE
  5
3F1
100
AcDbEntity
  8
03__ASM_ALL_CURVES
100
AcDbLine
 62
4
  6
CONTINUOUS
 10
11.4452195923
 20
11.379397496
 11
11.4452195923
 21
11.3723251618
  0
LINE
  5
3F2
100
AcDbEntity
  8
03__ASM_ALL_CURVES
100
AcDbLine
 62
4
  6
CONTINUOUS
 10
11.5168269673
 20
8.4542401618
 11
11.5168269673
 21
8.4648486621
  0
LINE
  5
3F3
100
AcDbEntity
  8
03__ASM_ALL_CURVES
100
AcDbLine
 62
4
  6
CONTINUOUS
 10
11.5168269673
 20
8.5701081618
 11
11.5168269673
 21
8.5807166621
  0
LINE
  5
3F4
100
AcDbEntity
  8
03__ASM_ALL_CURVES
100
AcDbLine
 62
4
  6
CONTINUOUS
 10
11.5168269673
 20
11.3511081618
 11
11.5168269673
 21
11.3617166621
  0
LINE
  5
3F5
100
AcDbEntity
  8
03__ASM_ALL_CURVES
100
AcDbLine
 62
4
  6
CONTINUOUS
 10
11.5168269673
 20
11.9451081618
 11
11.5168269673
 21
11.9557166621
  0
LINE
  5
3F6
100
AcDbEntity
  8
03__ASM_ALL_CURVES
100
AcDbLine
 62
4
  6
CONTINUOUS
 10
12.1612933423
 20
11.4076868301
 11
12.1665975923
 21
11.4218314934
  0
LINE
  5
3F7
100
AcDbEntity
  8
03__ASM_ALL_CURVES
100
AcDbLine
 62
4
  6
CONTINUOUS
 10
12.2037273423
 20
11.4076868301
 11
12.1984230923
 21
11.3935421618
  0
LINE
  5
3F8
100
AcDbEntity
  8
03__ASM_ALL_CURVES
100
AcDbLine
 62
4
  6
CONTINUOUS
 10
12.2037273423
 20
11.379397496
 11
12.1984230923
 21
11.3652528289
  0
LINE
  5
3F9
100
AcDbEntity
  8
03__ASM_ALL_CURVES
100
AcDbLine
 62
4
  6
CONTINUOUS
 10
10.3866223423
 20
7.3472044118
 11
10.393694674
 21
7.3578129118
  0
LINE
  5
3FA
100
AcDbEntity
  8
03__ASM_ALL_CURVES
100
AcDbLine
 62
4
  6
CONTINUOUS
 10
10.3866223423
 20
7.2570321618
 11
10.393694674
 21
7.2676406618
  0
LINE
  5
3FB
100
AcDbEntity
  8
03__ASM_ALL_CURVES
100
AcDbLine
 62
4
  6
CONTINUOUS
 10
8.3404180088
 20
6.6470434118
 11
8.3333456752
 21
6.6417391618
  0
LINE
  5
3FC
100
AcDbEntity
  8
03__ASM_ALL_CURVES
100
AcDbLine
 62
4
  6
CONTINUOUS
 10
8.7073456752
 20
6.9122559118
 11
8.7214903423
 21
6.9228644118
  0
LINE
  5
3FD
100
AcDbEntity
  8
03__ASM_ALL_CURVES
100
AcDbLine
 62
4
  6
CONTINUOUS
 10
8.336881842
 20
6.5913487868
 11
8.3474903423
 21
6.5993051618
  0
LINE
  5
3FE
100
AcDbEntity
  8
03__ASM_ALL_CURVES
100
AcDbLine
 62
4
  6
CONTINUOUS
 10
8.269694674
 20
6.5091329118
 11
8.2767670107
 21
6.5144371618
  0
LINE
  5
3FF
100
AcDbEntity
  8
03__ASM_ALL_CURVES
100
AcDbLine
 62
4
  6
CONTINUOUS
 10
8.643694674
 20
6.7637369118
 11
8.6507670107
 21
6.7690411618
  0
LINE
  5
400
100
AcDbEntity
  8
03__ASM_ALL_CURVES
100
AcDbLine
 62
4
  6
CONTINUOUS
 10
8.6790563423
 20
6.7637369118
 11
8.6932010081
 21
6.7743454118
  0
LINE
  5
401
100
AcDbEntity
  8
03__ASM_ALL_CURVES
100
AcDbLine
 62
4
  6
CONTINUOUS
 10
8.664911674
 20
6.7319114118
 11
8.6578393423
 21
6.7266071618
  0
LINE
  5
402
100
AcDbEntity
  8
03__ASM_ALL_CURVES
100
AcDbLine
 62
4
  6
CONTINUOUS
 10
8.7144180088
 20
6.7319114118
 11
8.7002733423
 21
6.7213029118
  0
LINE
  5
403
100
AcDbEntity
  8
03__ASM_ALL_CURVES
100
AcDbLine
 62
4
  6
CONTINUOUS
 10
11.4080898423
 20
8.6479038301
 11
11.4186983423
 21
8.6549761618
  0
LINE
  5
404
100
AcDbEntity
  8
03__ASM_ALL_CURVES
100
AcDbLine
 62
4
  6
CONTINUOUS
 10
11.9968615923
 20
8.5771804953
 11
11.9862530923
 21
8.5913251618
  0
LINE
  5
405
100
AcDbEntity
  8
03__ASM_ALL_CURVES
100
AcDbLine
 62
4
  6
CONTINUOUS
 10
12.1109029673
 20
8.4648486621
 11
12.1188593423
 21
8.4542401618
  0
LINE
  5
406
100
AcDbEntity
  8
03__ASM_ALL_CURVES
100
AcDbLine
 62
4
  6
CONTINUOUS
 10
11.9968615923
 20
8.6266868301
 11
11.9915573423
 21
8.6337591618
  0
LINE
  5
407
100
AcDbEntity
  8
03__ASM_ALL_CURVES
100
AcDbLine
 62
4
  6
CONTINUOUS
 10
12.0286870923
 20
8.6125421618
 11
12.0392955923
 21
8.598397496
  0
LINE
  5
408
100
AcDbEntity
  8
03__ASM_ALL_CURVES
100
AcDbLine
 62
4
  6
CONTINUOUS
 10
12.0286870923
 20
8.6479038301
 11
12.0339913423
 21
8.6408314934
  0
LINE
  5
409
100
AcDbEntity
  8
03__ASM_ALL_CURVES
100
AcDbLine
 62
4
  6
CONTINUOUS
 10
12.1109029673
 20
8.5807166621
 11
12.1188593423
 21
8.5701081618
  0
LINE
  5
40A
100
AcDbEntity
  8
03__ASM_ALL_CURVES
100
AcDbLine
 62
4
  6
CONTINUOUS
 10
12.1984230923
 20
8.5320358301
 11
12.2037273423
 21
8.5249634934
  0
LINE
  5
40B
100
AcDbEntity
  8
03__ASM_ALL_CURVES
100
AcDbLine
 62
4
  6
CONTINUOUS
 10
12.1719018423
 20
8.5771804953
 11
12.1665975923
 21
8.5842528289
  0
LINE
  5
40C
100
AcDbEntity
  8
03__ASM_ALL_CURVES
100
AcDbLine
 62
4
  6
CONTINUOUS
 10
12.1931188423
 20
8.6479038301
 11
12.1984230923
 21
8.6408314934
  0
LINE
  5
40D
100
AcDbEntity
  8
03__ASM_ALL_CURVES
100
AcDbLine
 62
4
  6
CONTINUOUS
 10
12.2514655923
 20
8.5771804953
 11
12.2461613423
 21
8.5842528289
  0
LINE
  5
40E
100
AcDbEntity
  8
03__ASM_ALL_CURVES
100
AcDbLine
 62
4
  6
CONTINUOUS
 10
11.6043470923
 20
8.4966741618
 11
11.6096513423
 21
8.482529496
  0
LINE
  5
40F
100
AcDbEntity
  8
03__ASM_ALL_CURVES
100
AcDbLine
 62
4
  6
CONTINUOUS
 10
11.5672173423
 20
8.482529496
 11
11.5672173423
 21
8.5108188301
  0
LINE
  5
410
100
AcDbEntity
  8
03__ASM_ALL_CURVES
100
AcDbLine
 62
4
  6
CONTINUOUS
 10
11.5672173423
 20
11.973397496
 11
11.5672173423
 21
12.0016868301
  0
LINE
  5
411
100
AcDbEntity
  8
03__ASM_ALL_CURVES
100
AcDbLine
 62
4
  6
CONTINUOUS
 10
11.6096513423
 20
12.0016868301
 11
11.6096513423
 21
11.973397496
  0
LINE
  5
412
100
AcDbEntity
  8
03__ASM_ALL_CURVES
100
AcDbLine
 62
4
  6
CONTINUOUS
 10
11.6467810923
 20
8.4754571618
 11
11.6467810923
 21
8.482529496
  0
LINE
  5
413
100
AcDbEntity
  8
03__ASM_ALL_CURVES
100
AcDbLine
 62
4
  6
CONTINUOUS
 10
11.6520853423
 20
8.5178911618
 11
11.6520853423
 21
8.5249634934
  0
LINE
  5
414
100
AcDbEntity
  8
03__ASM_ALL_CURVES
100
AcDbLine
 62
4
  6
CONTINUOUS
 10
11.6733023423
 20
8.6549761618
 11
11.6733023423
 21
8.5701081618
  0
LINE
  5
415
100
AcDbEntity
  8
03__ASM_ALL_CURVES
100
AcDbLine
 62
4
  6
CONTINUOUS
 10
11.6945193423
 20
12.0016868301
 11
11.6945193423
 21
11.973397496
  0
LINE
  5
416
100
AcDbEntity
  8
03__ASM_ALL_CURVES
100
AcDbLine
 62
4
  6
CONTINUOUS
 10
11.6945193423
 20
8.5249634934
 11
11.6945193423
 21
8.5178911618
  0
LINE
  5
417
100
AcDbEntity
  8
03__ASM_ALL_CURVES
100
AcDbLine
 62
4
  6
CONTINUOUS
 10
11.6998235923
 20
8.482529496
 11
11.6998235923
 21
8.4754571618
  0
LINE
  5
418
100
AcDbEntity
  8
03__ASM_ALL_CURVES
100
AcDbLine
 62
4
  6
CONTINUOUS
 10
11.7475618423
 20
11.4006144934
 11
11.7475618423
 21
11.3864698276
  0
LINE
  5
419
100
AcDbEntity
  8
03__ASM_ALL_CURVES
100
AcDbLine
 62
4
  6
CONTINUOUS
 10
11.5884343423
 20
8.5701081618
 11
11.5937385923
 21
8.6054698276
  0
LINE
  5
41A
100
AcDbEntity
  8
03__ASM_ALL_CURVES
100
AcDbLine
 62
4
  6
CONTINUOUS
 10
12.2779868423
 20
11.3864698276
 11
12.2726825923
 21
11.3652528289
  0
LINE
  5
41B
100
AcDbEntity
  8
03__ASM_ALL_CURVES
100
AcDbLine
 62
4
  6
CONTINUOUS
 10
11.5937385923
 20
8.6054698276
 11
11.5990428423
 21
8.6266868301
  0
LINE
  5
41C
100
AcDbEntity
  8
03__ASM_ALL_CURVES
100
AcDbLine
 62
4
  6
CONTINUOUS
 10
12.4477228423
 20
11.9804698276
 11
12.4424185923
 21
11.9592528289
  0
LINE
  5
41D
100
AcDbEntity
  8
03__ASM_ALL_CURVES
100
AcDbLine
 62
4
  6
CONTINUOUS
 10
11.3974813423
 20
8.6266868301
 11
11.4027855923
 21
8.6408314934
  0
LINE
  5
41E
100
AcDbEntity
  8
03__ASM_ALL_CURVES
100
AcDbLine
 62
4
  6
CONTINUOUS
 10
11.3974813423
 20
8.5108188301
 11
11.4027855923
 21
8.5249634934
  0
LINE
  5
41F
100
AcDbEntity
  8
03__ASM_ALL_CURVES
100
AcDbLine
 62
4
  6
CONTINUOUS
 10
11.4399153423
 20
8.598397496
 11
11.4346110923
 21
8.5842528289
  0
LINE
  5
420
100
AcDbEntity
  8
03__ASM_ALL_CURVES
100
AcDbLine
 62
4
  6
CONTINUOUS
 10
11.4399153423
 20
8.482529496
 11
11.4346110923
 21
8.4683848289
  0
LINE
  5
421
100
AcDbEntity
  8
03__ASM_ALL_CURVES
100
AcDbLine
 62
4
  6
CONTINUOUS
 10
11.5990428423
 20
8.6266868301
 11
11.6096513423
 21
8.6549761618
  0
LINE
  5
422
100
AcDbEntity
  8
03__ASM_ALL_CURVES
100
AcDbLine
 62
4
  6
CONTINUOUS
 10
11.5672173423
 20
8.5108188301
 11
11.5725215923
 21
8.5249634934
  0
LINE
  5
423
100
AcDbEntity
  8
03__ASM_ALL_CURVES
100
AcDbLine
 62
4
  6
CONTINUOUS
 10
10.4714903423
 20
7.2570321618
 11
10.4644180088
 21
7.2464236618
  0
LINE
  5
424
100
AcDbEntity
  8
03__ASM_ALL_CURVES
100
AcDbLine
 62
4
  6
CONTINUOUS
 10
10.3866223423
 20
7.0872961618
 11
10.393694674
 21
7.0979046618
  0
LINE
  5
425
100
AcDbEntity
  8
03__ASM_ALL_CURVES
100
AcDbLine
 62
4
  6
CONTINUOUS
 10
10.4714903423
 20
7.0872961618
 11
10.4644180088
 21
7.0766876618
  0
LINE
  5
426
100
AcDbEntity
  8
03__ASM_ALL_CURVES
100
AcDbLine
 62
4
  6
CONTINUOUS
 10
11.4027855923
 20
8.6408314934
 11
11.4080898423
 21
8.6479038301
  0
LINE
  5
427
100
AcDbEntity
  8
03__ASM_ALL_CURVES
100
AcDbLine
 62
4
  6
CONTINUOUS
 10
11.4346110923
 20
8.5842528289
 11
11.4293068423
 21
8.5771804953
  0
LINE
  5
428
100
AcDbEntity
  8
03__ASM_ALL_CURVES
100
AcDbLine
 62
4
  6
CONTINUOUS
 10
11.4027855923
 20
8.5249634934
 11
11.4080898423
 21
8.5320358301
  0
LINE
  5
429
100
AcDbEntity
  8
03__ASM_ALL_CURVES
100
AcDbLine
 62
4
  6
CONTINUOUS
 10
11.4346110923
 20
8.4683848289
 11
11.4293068423
 21
8.4613124953
  0
LINE
  5
42A
100
AcDbEntity
  8
03__ASM_ALL_CURVES
100
AcDbLine
 62
4
  6
CONTINUOUS
 10
8.710881842
 20
6.5913487868
 11
8.7214903423
 21
6.5993051618
  0
LINE
  5
42B
100
AcDbEntity
  8
03__ASM_ALL_CURVES
100
AcDbLine
 62
4
  6
CONTINUOUS
 10
8.643694674
 20
6.5091329118
 11
8.6507670107
 21
6.5144371618
  0
LINE
  5
42C
100
AcDbEntity
  8
03__ASM_ALL_CURVES
100
AcDbLine
 62
4
  6
CONTINUOUS
 10
11.4293068423
 20
8.5771804953
 11
11.4186983423
 21
8.5701081618
  0
LINE
  5
42D
100
AcDbEntity
  8
03__ASM_ALL_CURVES
100
AcDbLine
 62
4
  6
CONTINUOUS
 10
11.4080898423
 20
8.5320358301
 11
11.4186983423
 21
8.5391081618
  0
LINE
  5
42E
100
AcDbEntity
  8
03__ASM_ALL_CURVES
100
AcDbLine
 62
4
  6
CONTINUOUS
 10
11.4293068423
 20
8.4613124953
 11
11.4186983423
 21
8.4542401618
  0
LINE
  5
42F
100
AcDbEntity
  8
03__ASM_ALL_CURVES
100
AcDbLine
 62
4
  6
CONTINUOUS
 10
11.5778258423
 20
8.5320358301
 11
11.5884343423
 21
8.5391081618
  0
LINE
  5
430
100
AcDbEntity
  8
03__ASM_ALL_CURVES
100
AcDbLine
 62
4
  6
CONTINUOUS
 10
11.6573895923
 20
8.5320358301
 11
11.6679980923
 21
8.5391081618
  0
LINE
  5
431
100
AcDbEntity
  8
03__ASM_ALL_CURVES
100
AcDbLine
 62
4
  6
CONTINUOUS
 10
11.5725215923
 20
8.4966741618
 11
11.5884343423
 21
8.5037464934
  0
LINE
  5
432
100
AcDbEntity
  8
03__ASM_ALL_CURVES
100
AcDbLine
 62
4
  6
CONTINUOUS
 10
8.2767670107
 20
7.2729449118
 11
8.290911674
 21
7.2782491618
  0
LINE
  5
433
100
AcDbEntity
  8
03__ASM_ALL_CURVES
100
AcDbLine
 62
4
  6
CONTINUOUS
 10
8.3333456752
 20
7.2411194118
 11
8.3192010081
 21
7.2358151618
  0
LINE
  5
434
100
AcDbEntity
  8
03__ASM_ALL_CURVES
100
AcDbLine
 62
4
  6
CONTINUOUS
 10
8.3050563423
 20
7.1085131618
 11
8.3192010081
 21
7.1138174118
  0
LINE
  5
435
100
AcDbEntity
  8
03__ASM_ALL_CURVES
100
AcDbLine
 62
4
  6
CONTINUOUS
 10
12.2832910923
 20
8.6125421618
 11
12.2938995923
 21
8.598397496
  0
LINE
  5
436
100
AcDbEntity
  8
03__ASM_ALL_CURVES
100
AcDbLine
 62
4
  6
CONTINUOUS
 10
12.3469420923
 20
8.5391081618
 11
12.3575505923
 21
8.5249634934
  0
LINE
  5
437
100
AcDbEntity
  8
03__ASM_ALL_CURVES
100
AcDbLine
 62
4
  6
CONTINUOUS
 10
12.2832910923
 20
8.6479038301
 11
12.2885953423
 21
8.6408314934
  0
LINE
  5
438
100
AcDbEntity
  8
03__ASM_ALL_CURVES
100
AcDbLine
 62
4
  6
CONTINUOUS
 10
12.3469420923
 20
8.6549761618
 11
12.3575505923
 21
8.6408314934
  0
LINE
  5
439
100
AcDbEntity
  8
03__ASM_ALL_CURVES
100
AcDbLine
 62
4
  6
CONTINUOUS
 10
12.5166780923
 20
8.5842528289
 11
12.5272865923
 21
8.5701081618
  0
LINE
  5
43A
100
AcDbEntity
  8
03__ASM_ALL_CURVES
100
AcDbLine
 62
4
  6
CONTINUOUS
 10
11.8324298423
 20
8.4896018276
 11
11.8377340923
 21
8.4683848289
  0
LINE
  5
43B
100
AcDbEntity
  8
03__ASM_ALL_CURVES
100
AcDbLine
 62
4
  6
CONTINUOUS
 10
11.8324298423
 20
8.6054698276
 11
11.8377340923
 21
8.5842528289
  0
LINE
  5
43C
100
AcDbEntity
  8
03__ASM_ALL_CURVES
100
AcDbLine
 62
4
  6
CONTINUOUS
 10
11.8165170923
 20
11.3723251618
 11
11.8165170923
 21
11.379397496
  0
LINE
  5
43D
100
AcDbEntity
  8
03__ASM_ALL_CURVES
100
AcDbLine
 62
4
  6
CONTINUOUS
 10
11.8218213423
 20
11.4147591618
 11
11.8218213423
 21
11.4218314934
  0
LINE
  5
43E
100
AcDbEntity
  8
03__ASM_ALL_CURVES
100
AcDbLine
 62
4
  6
CONTINUOUS
 10
11.8324298423
 20
11.9946144934
 11
11.8324298423
 21
11.9804698276
  0
LINE
  5
43F
100
AcDbEntity
  8
03__ASM_ALL_CURVES
100
AcDbLine
 62
4
  6
CONTINUOUS
 10
11.8324298423
 20
8.6196144934
 11
11.8324298423
 21
8.6054698276
  0
LINE
  5
440
100
AcDbEntity
  8
03__ASM_ALL_CURVES
100
AcDbLine
 62
4
  6
CONTINUOUS
 10
11.8324298423
 20
8.5037464934
 11
11.8324298423
 21
8.4896018276
  0
LINE
  5
441
100
AcDbEntity
  8
03__ASM_ALL_CURVES
100
AcDbLine
 62
4
  6
CONTINUOUS
 10
11.8642553423
 20
11.4218314934
 11
11.8642553423
 21
11.4147591618
  0
LINE
  5
442
100
AcDbEntity
  8
03__ASM_ALL_CURVES
100
AcDbLine
 62
4
  6
CONTINUOUS
 10
11.8695595923
 20
11.379397496
 11
11.8695595923
 21
11.3723251618
  0
LINE
  5
443
100
AcDbEntity
  8
03__ASM_ALL_CURVES
100
AcDbLine
 62
4
  6
CONTINUOUS
 10
11.9013850923
 20
11.3723251618
 11
11.9013850923
 21
11.379397496
  0
LINE
  5
444
100
AcDbEntity
  8
03__ASM_ALL_CURVES
100
AcDbLine
 62
4
  6
CONTINUOUS
 10
11.9066893423
 20
11.4147591618
 11
11.9066893423
 21
11.4218314934
  0
LINE
  5
445
100
AcDbEntity
  8
03__ASM_ALL_CURVES
100
AcDbLine
 62
4
  6
CONTINUOUS
 10
11.9279063423
 20
12.0299761618
 11
11.9279063423
 21
11.9451081618
  0
LINE
  5
446
100
AcDbEntity
  8
03__ASM_ALL_CURVES
100
AcDbLine
 62
4
  6
CONTINUOUS
 10
11.9279063423
 20
8.6549761618
 11
11.9279063423
 21
8.5701081618
  0
LINE
  5
447
100
AcDbEntity
  8
03__ASM_ALL_CURVES
100
AcDbLine
 62
4
  6
CONTINUOUS
 10
11.9279063423
 20
8.5391081618
 11
11.9279063423
 21
8.4542401618
  0
LINE
  5
448
100
AcDbEntity
  8
03__ASM_ALL_CURVES
100
AcDbLine
 62
4
  6
CONTINUOUS
 10
11.9491233423
 20
11.4218314934
 11
11.9491233423
 21
11.4147591618
  0
LINE
  5
449
100
AcDbEntity
  8
03__ASM_ALL_CURVES
100
AcDbLine
 62
4
  6
CONTINUOUS
 10
11.9544275923
 20
11.379397496
 11
11.9544275923
 21
11.3723251618
  0
LINE
  5
44A
100
AcDbEntity
  8
03__ASM_ALL_CURVES
100
AcDbLine
 62
4
  6
CONTINUOUS
 10
11.9862530923
 20
8.5913251618
 11
11.9862530923
 21
8.598397496
  0
LINE
  5
44B
100
AcDbEntity
  8
03__ASM_ALL_CURVES
100
AcDbLine
 62
4
  6
CONTINUOUS
 10
11.9915573423
 20
8.6337591618
 11
11.9915573423
 21
8.6408314934
  0
LINE
  5
44C
100
AcDbEntity
  8
03__ASM_ALL_CURVES
100
AcDbLine
 62
4
  6
CONTINUOUS
 10
11.9915573423
 20
11.973397496
 11
11.9915573423
 21
12.0016868301
  0
LINE
  5
44D
100
AcDbEntity
  8
03__ASM_ALL_CURVES
100
AcDbLine
 62
4
  6
CONTINUOUS
 10
11.8377340923
 20
8.6408314934
 11
11.8324298423
 21
8.6196144934
  0
LINE
  5
44E
100
AcDbEntity
  8
03__ASM_ALL_CURVES
100
AcDbLine
 62
4
  6
CONTINUOUS
 10
11.8377340923
 20
8.5249634934
 11
11.8324298423
 21
8.5037464934
  0
LINE
  5
44F
100
AcDbEntity
  8
03__ASM_ALL_CURVES
100
AcDbLine
 62
4
  6
CONTINUOUS
 10
11.5672173423
 20
8.482529496
 11
11.5725215923
 21
8.4966741618
  0
LINE
  5
450
100
AcDbEntity
  8
03__ASM_ALL_CURVES
100
AcDbLine
 62
4
  6
CONTINUOUS
 10
11.6096513423
 20
8.482529496
 11
11.6043470923
 21
8.4683848289
  0
LINE
  5
451
100
AcDbEntity
  8
03__ASM_ALL_CURVES
100
AcDbLine
 62
4
  6
CONTINUOUS
 10
11.3974813423
 20
7.9076868301
 11
11.4027855923
 21
7.9218314934
  0
LINE
  5
452
100
AcDbEntity
  8
03__ASM_ALL_CURVES
100
AcDbLine
 62
4
  6
CONTINUOUS
 10
11.4399153423
 20
7.879397496
 11
11.4346110923
 21
7.8652528289
  0
LINE
  5
453
100
AcDbEntity
  8
03__ASM_ALL_CURVES
100
AcDbLine
 62
4
  6
CONTINUOUS
 10
10.3866223423
 20
6.7531284118
 11
10.393694674
 21
6.7637369118
  0
LINE
  5
454
100
AcDbEntity
  8
03__ASM_ALL_CURVES
100
AcDbLine
 62
4
  6
CONTINUOUS
 10
10.4219840107
 20
6.7531284118
 11
10.4290563423
 21
6.7637369118
  0
LINE
  5
455
100
AcDbEntity
  8
03__ASM_ALL_CURVES
100
AcDbLine
 62
4
  6
CONTINUOUS
 10
10.8246223423
 20
7.3419001618
 11
10.831694674
 21
7.3525086618
  0
LINE
  5
456
100
AcDbEntity
  8
03__ASM_ALL_CURVES
100
AcDbLine
 62
4
  6
CONTINUOUS
 10
10.4714903423
 20
6.7425199118
 11
10.4644180088
 21
6.7319114118
  0
LINE
  5
457
100
AcDbEntity
  8
03__ASM_ALL_CURVES
100
AcDbLine
 62
4
  6
CONTINUOUS
 10
10.9094903423
 20
7.3419001618
 11
10.9024180088
 21
7.3312916618
  0
LINE
  5
458
100
AcDbEntity
  8
03__ASM_ALL_CURVES
100
AcDbLine
 62
4
  6
CONTINUOUS
 10
10.3866223423
 20
6.4932201618
 11
10.393694674
 21
6.5038286618
  0
LINE
  5
459
100
AcDbEntity
  8
03__ASM_ALL_CURVES
100
AcDbLine
 62
4
  6
CONTINUOUS
 10
11.5725215923
 20
8.5249634934
 11
11.5778258423
 21
8.5320358301
  0
LINE
  5
45A
100
AcDbEntity
  8
03__ASM_ALL_CURVES
100
AcDbLine
 62
4
  6
CONTINUOUS
 10
11.6043470923
 20
8.4683848289
 11
11.5990428423
 21
8.4613124953
  0
LINE
  5
45B
100
AcDbEntity
  8
03__ASM_ALL_CURVES
100
AcDbLine
 62
4
  6
CONTINUOUS
 10
11.6520853423
 20
8.5249634934
 11
11.6573895923
 21
8.5320358301
  0
LINE
  5
45C
100
AcDbEntity
  8
03__ASM_ALL_CURVES
100
AcDbLine
 62
4
  6
CONTINUOUS
 10
11.6467810923
 20
8.482529496
 11
11.6573895923
 21
8.4966741618
  0
LINE
  5
45D
100
AcDbEntity
  8
03__ASM_ALL_CURVES
100
AcDbLine
 62
4
  6
CONTINUOUS
 10
11.6945193423
 20
8.5178911618
 11
11.6892150923
 21
8.5108188301
  0
LINE
  5
45E
100
AcDbEntity
  8
03__ASM_ALL_CURVES
100
AcDbLine
 62
4
  6
CONTINUOUS
 10
11.6998235923
 20
8.4754571618
 11
11.6892150923
 21
8.4613124953
  0
LINE
  5
45F
100
AcDbEntity
  8
03__ASM_ALL_CURVES
100
AcDbLine
 62
4
  6
CONTINUOUS
 10
11.8483425923
 20
8.6549761618
 11
11.8377340923
 21
8.6408314934
  0
LINE
  5
460
100
AcDbEntity
  8
03__ASM_ALL_CURVES
100
AcDbLine
 62
4
  6
CONTINUOUS
 10
10.3866223423
 20
7.4214639118
 11
10.4007670107
 21
7.4320724118
  0
LINE
  5
461
100
AcDbEntity
  8
03__ASM_ALL_CURVES
100
AcDbLine
 62
4
  6
CONTINUOUS
 10
10.393694674
 20
7.3578129118
 11
10.4007670107
 21
7.3631171618
  0
LINE
  5
462
100
AcDbEntity
  8
03__ASM_ALL_CURVES
100
AcDbLine
 62
4
  6
CONTINUOUS
 10
11.5990428423
 20
8.4613124953
 11
11.5884343423
 21
8.4542401618
  0
LINE
  5
463
100
AcDbEntity
  8
03__ASM_ALL_CURVES
100
AcDbLine
 62
4
  6
CONTINUOUS
 10
11.6573895923
 20
8.4966741618
 11
11.6679980923
 21
8.5037464934
  0
LINE
  5
464
100
AcDbEntity
  8
03__ASM_ALL_CURVES
100
AcDbLine
 62
4
  6
CONTINUOUS
 10
11.6892150923
 20
8.5108188301
 11
11.6786065923
 21
8.5037464934
  0
LINE
  5
465
100
AcDbEntity
  8
03__ASM_ALL_CURVES
100
AcDbLine
 62
4
  6
CONTINUOUS
 10
11.6892150923
 20
8.4613124953
 11
11.6786065923
 21
8.4542401618
  0
LINE
  5
466
100
AcDbEntity
  8
03__ASM_ALL_CURVES
100
AcDbLine
 62
4
  6
CONTINUOUS
 10
11.9968615923
 20
8.6479038301
 11
12.0074700923
 21
8.6549761618
  0
LINE
  5
467
100
AcDbEntity
  8
03__ASM_ALL_CURVES
100
AcDbLine
 62
4
  6
CONTINUOUS
 10
11.9968615923
 20
8.6125421618
 11
12.0074700923
 21
8.6196144934
  0
LINE
  5
468
100
AcDbEntity
  8
03__ASM_ALL_CURVES
100
AcDbLine
 62
4
  6
CONTINUOUS
 10
12.0286870923
 20
8.6266868301
 11
12.0180785923
 21
8.6196144934
  0
LINE
  5
469
100
AcDbEntity
  8
03__ASM_ALL_CURVES
100
AcDbLine
 62
4
  6
CONTINUOUS
 10
12.0286870923
 20
8.5771804953
 11
12.0180785923
 21
8.5701081618
  0
LINE
  5
46A
100
AcDbEntity
  8
03__ASM_ALL_CURVES
100
AcDbLine
 62
4
  6
CONTINUOUS
 10
12.1719018423
 20
8.6479038301
 11
12.1825103423
 21
8.6549761618
  0
LINE
  5
46B
100
AcDbEntity
  8
03__ASM_ALL_CURVES
100
AcDbLine
 62
4
  6
CONTINUOUS
 10
12.2514655923
 20
8.6479038301
 11
12.2620740923
 21
8.6549761618
  0
LINE
  5
46C
100
AcDbEntity
  8
03__ASM_ALL_CURVES
100
AcDbLine
 62
4
  6
CONTINUOUS
 10
12.1931188423
 20
8.5771804953
 11
12.1825103423
 21
8.5701081618
  0
LINE
  5
46D
100
AcDbEntity
  8
03__ASM_ALL_CURVES
100
AcDbLine
 62
4
  6
CONTINUOUS
 10
8.3050563423
 20
7.0183409118
 11
8.3192010081
 21
7.0236451618
  0
LINE
  5
46E
100
AcDbEntity
  8
03__ASM_ALL_CURVES
100
AcDbLine
 62
4
  6
CONTINUOUS
 10
8.3333456752
 20
6.9865154118
 11
8.3192010081
 21
6.9812111618
  0
LINE
  5
46F
100
AcDbEntity
  8
03__ASM_ALL_CURVES
100
AcDbLine
 62
4
  6
CONTINUOUS
 10
8.6790563423
 20
7.1085131618
 11
8.6932010081
 21
7.1138174118
  0
LINE
  5
470
100
AcDbEntity
  8
03__ASM_ALL_CURVES
100
AcDbLine
 62
4
  6
CONTINUOUS
 10
8.6790563423
 20
7.0236451618
 11
8.6932010081
 21
7.0289494118
  0
LINE
  5
471
100
AcDbEntity
  8
03__ASM_ALL_CURVES
100
AcDbLine
 62
4
  6
CONTINUOUS
 10
12.6758055923
 20
8.5771804953
 11
12.6651970923
 21
8.5913251618
  0
LINE
  5
472
100
AcDbEntity
  8
03__ASM_ALL_CURVES
100
AcDbLine
 62
4
  6
CONTINUOUS
 10
12.6705013423
 20
8.6337591618
 11
12.6758055923
 21
8.6266868301
  0
LINE
  5
473
100
AcDbEntity
  8
03__ASM_ALL_CURVES
100
AcDbLine
 62
4
  6
CONTINUOUS
 10
12.7076310923
 20
8.6054698276
 11
12.7129353423
 21
8.598397496
  0
LINE
  5
474
100
AcDbEntity
  8
03__ASM_ALL_CURVES
100
AcDbLine
 62
4
  6
CONTINUOUS
 10
12.7129353423
 20
8.6408314934
 11
12.7076310923
 21
8.6479038301
  0
LINE
  5
475
100
AcDbEntity
  8
03__ASM_ALL_CURVES
100
AcDbLine
 62
4
  6
CONTINUOUS
 10
12.7712820923
 20
8.6549761618
 11
12.7818905923
 21
8.6408314934
  0
LINE
  5
476
100
AcDbEntity
  8
03__ASM_ALL_CURVES
100
AcDbLine
 62
4
  6
CONTINUOUS
 10
12.1665975923
 20
8.5842528289
 11
12.1612933423
 21
8.598397496
  0
LINE
  5
477
100
AcDbEntity
  8
03__ASM_ALL_CURVES
100
AcDbLine
 62
4
  6
CONTINUOUS
 10
12.1984230923
 20
8.6408314934
 11
12.2037273423
 21
8.6266868301
  0
LINE
  5
478
100
AcDbEntity
  8
03__ASM_ALL_CURVES
100
AcDbLine
 62
4
  6
CONTINUOUS
 10
12.0260349673
 20
11.3511081618
 11
12.0260349673
 21
11.3617166621
  0
LINE
  5
479
100
AcDbEntity
  8
03__ASM_ALL_CURVES
100
AcDbLine
 62
4
  6
CONTINUOUS
 10
12.0339913423
 20
12.0016868301
 11
12.0339913423
 21
11.973397496
  0
LINE
  5
47A
100
AcDbEntity
  8
03__ASM_ALL_CURVES
100
AcDbLine
 62
4
  6
CONTINUOUS
 10
12.0339913423
 20
8.6408314934
 11
12.0339913423
 21
8.6337591618
  0
LINE
  5
47B
100
AcDbEntity
  8
03__ASM_ALL_CURVES
100
AcDbLine
 62
4
  6
CONTINUOUS
 10
12.0392955923
 20
8.598397496
 11
12.0392955923
 21
8.5913251618
  0
LINE
  5
47C
100
AcDbEntity
  8
03__ASM_ALL_CURVES
100
AcDbLine
 62
4
  6
CONTINUOUS
 10
12.0711210923
 20
11.3723251618
 11
12.0711210923
 21
11.379397496
  0
LINE
  5
47D
100
AcDbEntity
  8
03__ASM_ALL_CURVES
100
AcDbLine
 62
4
  6
CONTINUOUS
 10
12.0764253423
 20
11.4147591618
 11
12.0764253423
 21
11.4218314934
  0
LINE
  5
47E
100
AcDbEntity
  8
03__ASM_ALL_CURVES
100
AcDbLine
 62
4
  6
CONTINUOUS
 10
12.1109029673
 20
8.4542401618
 11
12.1109029673
 21
8.4648486621
  0
LINE
  5
47F
100
AcDbEntity
  8
03__ASM_ALL_CURVES
100
AcDbLine
 62
4
  6
CONTINUOUS
 10
12.1109029673
 20
8.5701081618
 11
12.1109029673
 21
8.5807166621
  0
LINE
  5
480
100
AcDbEntity
  8
03__ASM_ALL_CURVES
100
AcDbLine
 62
4
  6
CONTINUOUS
 10
12.1188593423
 20
12.0158314934
 11
12.1188593423
 21
12.0087591618
  0
LINE
  5
481
100
AcDbEntity
  8
03__ASM_ALL_CURVES
100
AcDbLine
 62
4
  6
CONTINUOUS
 10
12.1188593423
 20
11.4218314934
 11
12.1188593423
 21
11.4147591618
  0
LINE
  5
482
100
AcDbEntity
  8
03__ASM_ALL_CURVES
100
AcDbLine
 62
4
  6
CONTINUOUS
 10
12.1241635923
 20
11.973397496
 11
12.1241635923
 21
11.9663251618
  0
LINE
  5
483
100
AcDbEntity
  8
03__ASM_ALL_CURVES
100
AcDbLine
 62
4
  6
CONTINUOUS
 10
12.1241635923
 20
11.379397496
 11
12.1241635923
 21
11.3723251618
  0
LINE
  5
484
100
AcDbEntity
  8
03__ASM_ALL_CURVES
100
AcDbLine
 62
4
  6
CONTINUOUS
 10
12.1612933423
 20
8.598397496
 11
12.1612933423
 21
8.6266868301
  0
LINE
  5
485
100
AcDbEntity
  8
03__ASM_ALL_CURVES
100
AcDbLine
 62
4
  6
CONTINUOUS
 10
12.1957709673
 20
11.9451081618
 11
12.1957709673
 21
11.9557166621
  0
LINE
  5
486
100
AcDbEntity
  8
03__ASM_ALL_CURVES
100
AcDbLine
 62
4
  6
CONTINUOUS
 10
12.2037273423
 20
11.4076868301
 11
12.2037273423
 21
11.379397496
  0
LINE
  5
487
100
AcDbEntity
  8
03__ASM_ALL_CURVES
100
AcDbLine
 62
4
  6
CONTINUOUS
 10
12.2037273423
 20
8.6266868301
 11
12.2037273423
 21
8.598397496
  0
LINE
  5
488
100
AcDbEntity
  8
03__ASM_ALL_CURVES
100
AcDbLine
 62
4
  6
CONTINUOUS
 10
12.2037273423
 20
8.5249634934
 11
12.2037273423
 21
8.5108188301
  0
LINE
  5
489
100
AcDbEntity
  8
03__ASM_ALL_CURVES
100
AcDbLine
 62
4
  6
CONTINUOUS
 10
12.0127743423
 20
8.4542401618
 11
12.0180785923
 21
8.4896018276
  0
LINE
  5
48A
100
AcDbEntity
  8
03__ASM_ALL_CURVES
100
AcDbLine
 62
4
  6
CONTINUOUS
 10
12.0180785923
 20
8.4896018276
 11
12.0233828423
 21
8.5108188301
  0
LINE
  5
48B
100
AcDbEntity
  8
03__ASM_ALL_CURVES
100
AcDbLine
 62
4
  6
CONTINUOUS
 10
12.0233828423
 20
8.5108188301
 11
12.0339913423
 21
8.5391081618
  0
LINE
  5
48C
100
AcDbEntity
  8
03__ASM_ALL_CURVES
100
AcDbLine
 62
4
  6
CONTINUOUS
 10
10.4714903423
 20
6.4932201618
 11
10.4644180088
 21
6.4826116618
  0
LINE
  5
48D
100
AcDbEntity
  8
03__ASM_ALL_CURVES
100
AcDbLine
 62
4
  6
CONTINUOUS
 10
11.8483425923
 20
8.5391081618
 11
11.8377340923
 21
8.5249634934
  0
LINE
  5
48E
100
AcDbEntity
  8
03__ASM_ALL_CURVES
100
AcDbLine
 62
4
  6
CONTINUOUS
 10
11.4027855923
 20
7.9218314934
 11
11.4080898423
 21
7.9289038301
  0
LINE
  5
48F
100
AcDbEntity
  8
03__ASM_ALL_CURVES
100
AcDbLine
 62
4
  6
CONTINUOUS
 10
11.9915573423
 20
8.6408314934
 11
11.9968615923
 21
8.6479038301
  0
LINE
  5
490
100
AcDbEntity
  8
03__ASM_ALL_CURVES
100
AcDbLine
 62
4
  6
CONTINUOUS
 10
11.4346110923
 20
7.8652528289
 11
11.4293068423
 21
7.8581804953
  0
LINE
  5
491
100
AcDbEntity
  8
03__ASM_ALL_CURVES
100
AcDbLine
 62
4
  6
CONTINUOUS
 10
11.9862530923
 20
8.598397496
 11
11.9968615923
 21
8.6125421618
  0
LINE
  5
492
100
AcDbEntity
  8
03__ASM_ALL_CURVES
100
AcDbLine
 62
4
  6
CONTINUOUS
 10
12.0339913423
 20
8.6337591618
 11
12.0286870923
 21
8.6266868301
  0
LINE
  5
493
100
AcDbEntity
  8
03__ASM_ALL_CURVES
100
AcDbLine
 62
4
  6
CONTINUOUS
 10
12.0392955923
 20
8.5913251618
 11
12.0286870923
 21
8.5771804953
  0
LINE
  5
494
100
AcDbEntity
  8
03__ASM_ALL_CURVES
100
AcDbLine
 62
4
  6
CONTINUOUS
 10
12.1665975923
 20
8.6408314934
 11
12.1719018423
 21
8.6479038301
  0
LINE
  5
495
100
AcDbEntity
  8
03__ASM_ALL_CURVES
100
AcDbLine
 62
4
  6
CONTINUOUS
 10
10.393694674
 20
7.2676406618
 11
10.4007670107
 21
7.2729449118
  0
LINE
  5
496
100
AcDbEntity
  8
03__ASM_ALL_CURVES
100
AcDbLine
 62
4
  6
CONTINUOUS
 10
10.4644180088
 20
7.2464236618
 11
10.4573456752
 21
7.2411194118
  0
LINE
  5
497
100
AcDbEntity
  8
03__ASM_ALL_CURVES
100
AcDbLine
 62
4
  6
CONTINUOUS
 10
10.460881842
 20
7.1854247868
 11
10.4714903423
 21
7.1933811618
  0
LINE
  5
498
100
AcDbEntity
  8
03__ASM_ALL_CURVES
100
AcDbLine
 62
4
  6
CONTINUOUS
 10
10.393694674
 20
7.0979046618
 11
10.4007670107
 21
7.1032089118
  0
LINE
  5
499
100
AcDbEntity
  8
03__ASM_ALL_CURVES
100
AcDbLine
 62
4
  6
CONTINUOUS
 10
10.831694674
 20
7.3525086618
 11
10.8387670107
 21
7.3578129118
  0
LINE
  5
49A
100
AcDbEntity
  8
03__ASM_ALL_CURVES
100
AcDbLine
 62
4
  6
CONTINUOUS
 10
10.4644180088
 20
7.0766876618
 11
10.4573456752
 21
7.0713834118
  0
LINE
  5
49B
100
AcDbEntity
  8
03__ASM_ALL_CURVES
100
AcDbLine
 62
4
  6
CONTINUOUS
 10
12.2832910923
 20
8.6266868301
 11
12.2726825923
 21
8.6196144934
  0
LINE
  5
49C
100
AcDbEntity
  8
03__ASM_ALL_CURVES
100
AcDbLine
 62
4
  6
CONTINUOUS
 10
12.1665975923
 20
8.5320358301
 11
12.1772060923
 21
8.5391081618
  0
LINE
  5
49D
100
AcDbEntity
  8
03__ASM_ALL_CURVES
100
AcDbLine
 62
4
  6
CONTINUOUS
 10
12.2832910923
 20
8.5771804953
 11
12.2726825923
 21
8.5701081618
  0
LINE
  5
49E
100
AcDbEntity
  8
03__ASM_ALL_CURVES
100
AcDbLine
 62
4
  6
CONTINUOUS
 10
12.1984230923
 20
8.5037464934
 11
12.1772060923
 21
8.4896018276
  0
LINE
  5
49F
100
AcDbEntity
  8
03__ASM_ALL_CURVES
100
AcDbLine
 62
4
  6
CONTINUOUS
 10
11.4080898423
 20
7.9289038301
 11
11.4186983423
 21
7.9359761618
  0
LINE
  5
4A0
100
AcDbEntity
  8
03__ASM_ALL_CURVES
100
AcDbLine
 62
4
  6
CONTINUOUS
 10
11.4293068423
 20
7.8581804953
 11
11.4186983423
 21
7.8511081618
  0
LINE
  5
4A1
100
AcDbEntity
  8
03__ASM_ALL_CURVES
100
AcDbLine
 62
4
  6
CONTINUOUS
 10
12.6864140923
 20
8.6549761618
 11
12.6758055923
 21
8.6479038301
  0
LINE
  5
4A2
100
AcDbEntity
  8
03__ASM_ALL_CURVES
100
AcDbLine
 62
4
  6
CONTINUOUS
 10
8.3050563423
 20
6.7637369118
 11
8.3192010081
 21
6.7690411618
  0
LINE
  5
4A3
100
AcDbEntity
  8
03__ASM_ALL_CURVES
100
AcDbLine
 62
4
  6
CONTINUOUS
 10
8.3333456752
 20
6.7319114118
 11
8.3192010081
 21
6.7266071618
  0
LINE
  5
4A4
100
AcDbEntity
  8
03__ASM_ALL_CURVES
100
AcDbLine
 62
4
  6
CONTINUOUS
 10
8.3050563423
 20
6.6841731618
 11
8.3192010081
 21
6.6894774118
  0
LINE
  5
4A5
100
AcDbEntity
  8
03__ASM_ALL_CURVES
100
AcDbLine
 62
4
  6
CONTINUOUS
 10
12.3575505923
 20
8.5249634934
 11
12.3628548423
 21
8.5037464934
  0
LINE
  5
4A6
100
AcDbEntity
  8
03__ASM_ALL_CURVES
100
AcDbLine
 62
4
  6
CONTINUOUS
 10
12.3575505923
 20
8.6408314934
 11
12.3628548423
 21
8.6196144934
  0
LINE
  5
4A7
100
AcDbEntity
  8
03__ASM_ALL_CURVES
100
AcDbLine
 62
4
  6
CONTINUOUS
 10
11.7475618423
 20
11.3864698276
 11
11.7528660923
 21
11.3652528289
  0
LINE
  5
4A8
100
AcDbEntity
  8
03__ASM_ALL_CURVES
100
AcDbLine
 62
4
  6
CONTINUOUS
 10
12.2408570923
 20
11.9663251618
 11
12.2408570923
 21
11.973397496
  0
LINE
  5
4A9
100
AcDbEntity
  8
03__ASM_ALL_CURVES
100
AcDbLine
 62
4
  6
CONTINUOUS
 10
12.2461613423
 20
12.0087591618
 11
12.2461613423
 21
12.0158314934
  0
LINE
  5
4AA
100
AcDbEntity
  8
03__ASM_ALL_CURVES
100
AcDbLine
 62
4
  6
CONTINUOUS
 10
12.2779868423
 20
11.4006144934
 11
12.2779868423
 21
11.3864698276
  0
LINE
  5
4AB
100
AcDbEntity
  8
03__ASM_ALL_CURVES
100
AcDbLine
 62
4
  6
CONTINUOUS
 10
12.2885953423
 20
12.0158314934
 11
12.2885953423
 21
12.0087591618
  0
LINE
  5
4AC
100
AcDbEntity
  8
03__ASM_ALL_CURVES
100
AcDbLine
 62
4
  6
CONTINUOUS
 10
12.2885953423
 20
8.6408314934
 11
12.2885953423
 21
8.6337591618
  0
LINE
  5
4AD
100
AcDbEntity
  8
03__ASM_ALL_CURVES
100
AcDbLine
 62
4
  6
CONTINUOUS
 10
12.2938995923
 20
11.973397496
 11
12.2938995923
 21
11.9663251618
  0
LINE
  5
4AE
100
AcDbEntity
  8
03__ASM_ALL_CURVES
100
AcDbLine
 62
4
  6
CONTINUOUS
 10
12.2938995923
 20
8.598397496
 11
12.2938995923
 21
8.5913251618
  0
LINE
  5
4AF
100
AcDbEntity
  8
03__ASM_ALL_CURVES
100
AcDbLine
 62
4
  6
CONTINUOUS
 10
12.3257250923
 20
11.9663251618
 11
12.3257250923
 21
11.973397496
  0
LINE
  5
4B0
100
AcDbEntity
  8
03__ASM_ALL_CURVES
100
AcDbLine
 62
4
  6
CONTINUOUS
 10
12.3310293423
 20
12.0087591618
 11
12.3310293423
 21
12.0158314934
  0
LINE
  5
4B1
100
AcDbEntity
  8
03__ASM_ALL_CURVES
100
AcDbLine
 62
4
  6
CONTINUOUS
 10
12.3628548423
 20
8.6196144934
 11
12.3628548423
 21
8.6054698276
  0
LINE
  5
4B2
100
AcDbEntity
  8
03__ASM_ALL_CURVES
100
AcDbLine
 62
4
  6
CONTINUOUS
 10
12.3628548423
 20
8.5037464934
 11
12.3628548423
 21
8.4896018276
  0
LINE
  5
4B3
100
AcDbEntity
  8
03__ASM_ALL_CURVES
100
AcDbLine
 62
4
  6
CONTINUOUS
 10
12.3734633423
 20
12.0158314934
 11
12.3734633423
 21
12.0087591618
  0
LINE
  5
4B4
100
AcDbEntity
  8
03__ASM_ALL_CURVES
100
AcDbLine
 62
4
  6
CONTINUOUS
 10
12.3787675923
 20
11.973397496
 11
12.3787675923
 21
11.9663251618
  0
LINE
  5
4B5
100
AcDbEntity
  8
03__ASM_ALL_CURVES
100
AcDbLine
 62
4
  6
CONTINUOUS
 10
12.4477228423
 20
11.9946144934
 11
12.4477228423
 21
11.9804698276
  0
LINE
  5
4B6
100
AcDbEntity
  8
03__ASM_ALL_CURVES
100
AcDbLine
 62
4
  6
CONTINUOUS
 10
12.2673783423
 20
8.4542401618
 11
12.2726825923
 21
8.4896018276
  0
LINE
  5
4B7
100
AcDbEntity
  8
03__ASM_ALL_CURVES
100
AcDbLine
 62
4
  6
CONTINUOUS
 10
12.1665975923
 20
8.4754571618
 11
12.1612933423
 21
8.4542401618
  0
LINE
  5
4B8
100
AcDbEntity
  8
03__ASM_ALL_CURVES
100
AcDbLine
 62
4
  6
CONTINUOUS
 10
12.2726825923
 20
8.4896018276
 11
12.2779868423
 21
8.5108188301
  0
LINE
  5
4B9
100
AcDbEntity
  8
03__ASM_ALL_CURVES
100
AcDbLine
 62
4
  6
CONTINUOUS
 10
12.3628548423
 20
8.6054698276
 11
12.3575505923
 21
8.5842528289
  0
LINE
  5
4BA
100
AcDbEntity
  8
03__ASM_ALL_CURVES
100
AcDbLine
 62
4
  6
CONTINUOUS
 10
12.1612933423
 20
8.6266868301
 11
12.1665975923
 21
8.6408314934
  0
LINE
  5
4BB
100
AcDbEntity
  8
03__ASM_ALL_CURVES
100
AcDbLine
 62
4
  6
CONTINUOUS
 10
12.2037273423
 20
8.598397496
 11
12.1984230923
 21
8.5842528289
  0
LINE
  5
4BC
100
AcDbEntity
  8
03__ASM_ALL_CURVES
100
AcDbLine
 62
4
  6
CONTINUOUS
 10
12.2779868423
 20
8.5108188301
 11
12.2885953423
 21
8.5391081618
  0
LINE
  5
4BD
100
AcDbEntity
  8
03__ASM_ALL_CURVES
100
AcDbLine
 62
4
  6
CONTINUOUS
 10
12.1984230923
 20
8.5842528289
 11
12.1931188423
 21
8.5771804953
  0
LINE
  5
4BE
100
AcDbEntity
  8
03__ASM_ALL_CURVES
100
AcDbLine
 62
4
  6
CONTINUOUS
 10
12.1612933423
 20
8.5249634934
 11
12.1665975923
 21
8.5320358301
  0
LINE
  5
4BF
100
AcDbEntity
  8
03__ASM_ALL_CURVES
100
AcDbLine
 62
4
  6
CONTINUOUS
 10
12.1772060923
 20
8.4896018276
 11
12.1665975923
 21
8.4754571618
  0
LINE
  5
4C0
100
AcDbEntity
  8
03__ASM_ALL_CURVES
100
AcDbLine
 62
4
  6
CONTINUOUS
 10
12.2885953423
 20
8.6337591618
 11
12.2832910923
 21
8.6266868301
  0
LINE
  5
4C1
100
AcDbEntity
  8
03__ASM_ALL_CURVES
100
AcDbLine
 62
4
  6
CONTINUOUS
 10
12.2037273423
 20
8.5108188301
 11
12.1984230923
 21
8.5037464934
  0
LINE
  5
4C2
100
AcDbEntity
  8
03__ASM_ALL_CURVES
100
AcDbLine
 62
4
  6
CONTINUOUS
 10
12.2938995923
 20
8.5913251618
 11
12.2832910923
 21
8.5771804953
  0
LINE
  5
4C3
100
AcDbEntity
  8
03__ASM_ALL_CURVES
100
AcDbLine
 62
4
  6
CONTINUOUS
 10
12.3575505923
 20
8.5842528289
 11
12.3469420923
 21
8.5701081618
  0
LINE
  5
4C4
100
AcDbEntity
  8
03__ASM_ALL_CURVES
100
AcDbLine
 62
4
  6
CONTINUOUS
 10
12.3575505923
 20
8.4683848289
 11
12.3469420923
 21
8.4542401618
  0
LINE
  5
4C5
100
AcDbEntity
  8
03__ASM_ALL_CURVES
100
AcDbLine
 62
4
  6
CONTINUOUS
 10
12.5272865923
 20
8.6549761618
 11
12.5166780923
 21
8.6408314934
  0
LINE
  5
4C6
100
AcDbEntity
  8
03__ASM_ALL_CURVES
100
AcDbLine
 62
4
  6
CONTINUOUS
 10
10.9024180088
 20
7.3312916618
 11
10.8953456752
 21
7.3259874118
  0
LINE
  5
4C7
100
AcDbEntity
  8
03__ASM_ALL_CURVES
100
AcDbLine
 62
4
  6
CONTINUOUS
 10
10.4573456752
 20
6.9122559118
 11
10.4714903423
 21
6.9228644118
  0
LINE
  5
4C8
100
AcDbEntity
  8
03__ASM_ALL_CURVES
100
AcDbLine
 62
4
  6
CONTINUOUS
 10
10.393694674
 20
6.7637369118
 11
10.4007670107
 21
6.7690411618
  0
LINE
  5
4C9
100
AcDbEntity
  8
03__ASM_ALL_CURVES
100
AcDbLine
 62
4
  6
CONTINUOUS
 10
10.4290563423
 20
6.7637369118
 11
10.4432010081
 21
6.7743454118
  0
LINE
  5
4CA
100
AcDbEntity
  8
03__ASM_ALL_CURVES
100
AcDbLine
 62
4
  6
CONTINUOUS
 10
12.7076310923
 20
8.5771804953
 11
12.6970225923
 21
8.5701081618
  0
LINE
  5
4CB
100
AcDbEntity
  8
03__ASM_ALL_CURVES
100
AcDbLine
 62
4
  6
CONTINUOUS
 10
10.4007670107
 20
7.2729449118
 11
10.414911674
 21
7.2782491618
  0
LINE
  5
4CC
100
AcDbEntity
  8
03__ASM_ALL_CURVES
100
AcDbLine
 62
4
  6
CONTINUOUS
 10
10.4290563423
 20
7.2411194118
 11
10.414911674
 21
7.2358151618
  0
LINE
  5
4CD
100
AcDbEntity
  8
03__ASM_ALL_CURVES
100
AcDbLine
 62
4
  6
CONTINUOUS
 10
10.8387670107
 20
7.3578129118
 11
10.852911674
 21
7.3631171618
  0
LINE
  5
4CE
100
AcDbEntity
  8
03__ASM_ALL_CURVES
100
AcDbLine
 62
4
  6
CONTINUOUS
 10
10.8953456752
 20
7.3259874118
 11
10.8812010081
 21
7.3206831618
  0
LINE
  5
4CF
100
AcDbEntity
  8
03__ASM_ALL_CURVES
100
AcDbLine
 62
4
  6
CONTINUOUS
 10
10.4007670107
 20
7.1032089118
 11
10.414911674
 21
7.1085131618
  0
LINE
  5
4D0
100
AcDbEntity
  8
0
100
AcDbLine
 62
7
  6
CONTINUOUS
 10
9.6060563423
 20
11.9534784959
 11
9.5470563423
 21
11.9875421618
  0
LINE
  5
4D1
100
AcDbEntity
  8
03__ASM_ALL_CURVES
100
AcDbLine
 62
4
  6
CONTINUOUS
 10
11.6096513423
 20
11.3935421618
 11
11.6149555923
 21
11.379397496
  0
LINE
  5
4D2
100
AcDbEntity
  8
03__ASM_ALL_CURVES
100
AcDbLine
 62
4
  6
CONTINUOUS
 10
11.5725215923
 20
11.9592528289
 11
11.5672173423
 21
11.973397496
  0
LINE
  5
4D3
100
AcDbEntity
  8
03__ASM_ALL_CURVES
100
AcDbLine
 62
4
  6
CONTINUOUS
 10
12.5113738423
 20
8.6054698276
 11
12.5166780923
 21
8.5842528289
  0
LINE
  5
4D4
100
AcDbEntity
  8
03__ASM_ALL_CURVES
100
AcDbLine
 62
4
  6
CONTINUOUS
 10
11.8324298423
 20
11.9804698276
 11
11.8377340923
 21
11.9592528289
  0
LINE
  5
4D5
100
AcDbEntity
  8
03__ASM_ALL_CURVES
100
AcDbLine
 62
4
  6
CONTINUOUS
 10
12.5113738423
 20
8.6196144934
 11
12.5113738423
 21
8.6054698276
  0
LINE
  5
4D6
100
AcDbEntity
  8
03__ASM_ALL_CURVES
100
AcDbLine
 62
4
  6
CONTINUOUS
 10
12.5856333423
 20
8.6549761618
 11
12.5856333423
 21
8.5701081618
  0
LINE
  5
4D7
100
AcDbEntity
  8
03__ASM_ALL_CURVES
100
AcDbLine
 62
4
  6
CONTINUOUS
 10
12.6705013423
 20
8.6408314934
 11
12.6705013423
 21
8.6337591618
  0
LINE
  5
4D8
100
AcDbEntity
  8
03__ASM_ALL_CURVES
100
AcDbLine
 62
4
  6
CONTINUOUS
 10
12.7129353423
 20
8.598397496
 11
12.7129353423
 21
8.5842528289
  0
LINE
  5
4D9
100
AcDbEntity
  8
03__ASM_ALL_CURVES
100
AcDbLine
 62
4
  6
CONTINUOUS
 10
12.3628548423
 20
8.4896018276
 11
12.3575505923
 21
8.4683848289
  0
LINE
  5
4DA
100
AcDbEntity
  8
03__ASM_ALL_CURVES
100
AcDbLine
 62
4
  6
CONTINUOUS
 10
12.5166780923
 20
8.6408314934
 11
12.5113738423
 21
8.6196144934
  0
LINE
  5
4DB
100
AcDbEntity
  8
03__ASM_ALL_CURVES
100
AcDbLine
 62
4
  6
CONTINUOUS
 10
12.6758055923
 20
8.6479038301
 11
12.6705013423
 21
8.6408314934
  0
LINE
  5
4DC
100
AcDbEntity
  8
03__ASM_ALL_CURVES
100
AcDbLine
 62
4
  6
CONTINUOUS
 10
12.7129353423
 20
8.5842528289
 11
12.7076310923
 21
8.5771804953
  0
LINE
  5
4DD
100
AcDbEntity
  8
03__ASM_ALL_CURVES
100
AcDbLine
 62
4
  6
CONTINUOUS
 10
12.7818905923
 20
8.5842528289
 11
12.7712820923
 21
8.5701081618
  0
LINE
  5
4DE
100
AcDbEntity
  8
03__ASM_ALL_CURVES
100
AcDbLine
 62
4
  6
CONTINUOUS
 10
10.4644180088
 20
6.7319114118
 11
10.4573456752
 21
6.7266071618
  0
LINE
  5
4DF
100
AcDbEntity
  8
03__ASM_ALL_CURVES
100
AcDbLine
 62
4
  6
CONTINUOUS
 10
10.460881842
 20
6.5913487868
 11
10.4714903423
 21
6.5993051618
  0
LINE
  5
4E0
100
AcDbEntity
  8
03__ASM_ALL_CURVES
100
AcDbLine
 62
4
  6
CONTINUOUS
 10
10.393694674
 20
6.5038286618
 11
10.4007670107
 21
6.5091329118
  0
LINE
  5
4E1
100
AcDbEntity
  8
03__ASM_ALL_CURVES
100
AcDbLine
 62
4
  6
CONTINUOUS
 10
10.4644180088
 20
6.4826116618
 11
10.4573456752
 21
6.4773074118
  0
LINE
  5
4E2
100
AcDbEntity
  8
03__ASM_ALL_CURVES
100
AcDbLine
 62
4
  6
CONTINUOUS
 10
10.4573456752
 20
7.0713834118
 11
10.4432010081
 21
7.0660791618
  0
LINE
  5
4E3
100
AcDbEntity
  8
03__ASM_ALL_CURVES
100
AcDbLine
 62
4
  6
CONTINUOUS
 10
12.1029465923
 20
11.3511081618
 11
12.0923380923
 21
11.3511081618
  0
LINE
  5
4E4
100
AcDbEntity
  8
03__ASM_ALL_CURVES
100
AcDbLine
 62
4
  6
CONTINUOUS
 10
12.0339913423
 20
11.3511081618
 11
12.0260349673
 21
11.3511081618
  0
LINE
  5
4E5
100
AcDbEntity
  8
03__ASM_ALL_CURVES
100
AcDbLine
 62
4
  6
CONTINUOUS
 10
11.9332105923
 20
11.3511081618
 11
11.9226020923
 21
11.3511081618
  0
LINE
  5
4E6
100
AcDbEntity
  8
03__ASM_ALL_CURVES
100
AcDbLine
 62
4
  6
CONTINUOUS
 10
11.8483425923
 20
11.3511081618
 11
11.8377340923
 21
11.3511081618
  0
LINE
  5
4E7
100
AcDbEntity
  8
03__ASM_ALL_CURVES
100
AcDbLine
 62
4
  6
CONTINUOUS
 10
11.5937385923
 20
11.3511081618
 11
11.5831300923
 21
11.3511081618
  0
LINE
  5
4E8
100
AcDbEntity
  8
03__ASM_ALL_CURVES
100
AcDbLine
 62
4
  6
CONTINUOUS
 10
11.5247833423
 20
11.3511081618
 11
11.5168269673
 21
11.3511081618
  0
LINE
  5
4E9
100
AcDbEntity
  8
03__ASM_ALL_CURVES
100
AcDbLine
 62
4
  6
CONTINUOUS
 10
11.4240025923
 20
11.3511081618
 11
11.4133940923
 21
11.3511081618
  0
LINE
  5
4EA
100
AcDbEntity
  8
0
100
AcDbLine
 62
7
  6
CONTINUOUS
 10
10.8670563423
 20
11.3935421618
 11
8.3050563061
 21
11.3935421618
  0
LINE
  5
4EB
100
AcDbEntity
  8
03__ASM_ALL_CURVES
100
AcDbLine
 62
4
  6
CONTINUOUS
 10
10.9519243423
 20
11.3935421618
 11
11.2065283423
 21
11.3935421618
  0
LINE
  5
4EC
100
AcDbEntity
  8
03__ASM_ALL_CURVES
100
AcDbLine
 62
4
  6
CONTINUOUS
 10
11.4133940923
 20
11.4006144934
 11
11.4240025923
 21
11.4006144934
  0
LINE
  5
4ED
100
AcDbEntity
  8
03__ASM_ALL_CURVES
100
AcDbLine
 62
4
  6
CONTINUOUS
 10
11.8377340923
 20
11.4006144934
 11
11.8483425923
 21
11.4006144934
  0
LINE
  5
4EE
100
AcDbEntity
  8
03__ASM_ALL_CURVES
100
AcDbLine
 62
4
  6
CONTINUOUS
 10
11.9226020923
 20
11.4006144934
 11
11.9332105923
 21
11.4006144934
  0
LINE
  5
4EF
100
AcDbEntity
  8
03__ASM_ALL_CURVES
100
AcDbLine
 62
4
  6
CONTINUOUS
 10
12.0923380923
 20
11.4006144934
 11
12.1029465923
 21
11.4006144934
  0
LINE
  5
4F0
100
AcDbEntity
  8
03__ASM_ALL_CURVES
100
AcDbLine
 62
4
  6
CONTINUOUS
 10
11.5831300923
 20
11.4076868301
 11
11.5937385923
 21
11.4076868301
  0
LINE
  5
4F1
100
AcDbEntity
  8
03__ASM_ALL_CURVES
100
AcDbLine
 62
4
  6
CONTINUOUS
 10
11.4027855923
 20
11.3581804953
 11
11.3974813423
 21
11.3652528289
  0
LINE
  5
4F2
100
AcDbEntity
  8
03__ASM_ALL_CURVES
100
AcDbLine
 62
4
  6
CONTINUOUS
 10
11.4346110923
 20
11.3935421618
 11
11.4452195923
 21
11.379397496
  0
LINE
  5
4F3
100
AcDbEntity
  8
03__ASM_ALL_CURVES
100
AcDbLine
 62
4
  6
CONTINUOUS
 10
11.4346110923
 20
11.4289038301
 11
11.4399153423
 21
11.4218314934
  0
LINE
  5
4F4
100
AcDbEntity
  8
03__ASM_ALL_CURVES
100
AcDbLine
 62
4
  6
CONTINUOUS
 10
11.5168269673
 20
11.3617166621
 11
11.5247833423
 21
11.3511081618
  0
LINE
  5
4F5
100
AcDbEntity
  8
03__ASM_ALL_CURVES
100
AcDbLine
 62
4
  6
CONTINUOUS
 10
11.5725215923
 20
11.3581804953
 11
11.5672173423
 21
11.3652528289
  0
LINE
  5
4F6
100
AcDbEntity
  8
03__ASM_ALL_CURVES
100
AcDbLine
 62
4
  6
CONTINUOUS
 10
11.6043470923
 20
11.4006144934
 11
11.6096513423
 21
11.3935421618
  0
LINE
  5
4F7
100
AcDbEntity
  8
03__ASM_ALL_CURVES
100
AcDbLine
 62
4
  6
CONTINUOUS
 10
11.6043470923
 20
12.0158314934
 11
11.6096513423
 21
12.0016868301
  0
LINE
  5
4F8
100
AcDbEntity
  8
03__ASM_ALL_CURVES
100
AcDbLine
 62
4
  6
CONTINUOUS
 10
11.6573895923
 20
11.9875421618
 11
11.6520853423
 21
12.0016868301
  0
LINE
  5
4F9
100
AcDbEntity
  8
03__ASM_ALL_CURVES
100
AcDbLine
 62
4
  6
CONTINUOUS
 10
11.6892150923
 20
12.0158314934
 11
11.6945193423
 21
12.0016868301
  0
LINE
  5
4FA
100
AcDbEntity
  8
03__ASM_ALL_CURVES
100
AcDbLine
 62
4
  6
CONTINUOUS
 10
12.7818905923
 20
8.6408314934
 11
12.7871948423
 21
8.6196144934
  0
LINE
  5
4FB
100
AcDbEntity
  8
03__ASM_ALL_CURVES
100
AcDbLine
 62
4
  6
CONTINUOUS
 10
12.7871948423
 20
8.6196144934
 11
12.7871948423
 21
8.6054698276
  0
LINE
  5
4FC
100
AcDbEntity
  8
03__ASM_ALL_CURVES
100
AcDbLine
 62
4
  6
CONTINUOUS
 10
12.7871948423
 20
8.6054698276
 11
12.7818905923
 21
8.5842528289
  0
LINE
  5
4FD
100
AcDbEntity
  8
03__ASM_ALL_CURVES
100
AcDbLine
 62
4
  6
CONTINUOUS
 10
11.6096513423
 20
11.4359761618
 11
11.5778258423
 21
11.4359761618
  0
LINE
  5
4FE
100
AcDbEntity
  8
03__ASM_ALL_CURVES
100
AcDbLine
 62
4
  6
CONTINUOUS
 10
11.4133940923
 20
11.4359761618
 11
11.4240025923
 21
11.4359761618
  0
LINE
  5
4FF
100
AcDbEntity
  8
03__ASM_ALL_CURVES
100
AcDbLine
 62
4
  6
CONTINUOUS
 10
11.8377340923
 20
11.4359761618
 11
11.8483425923
 21
11.4359761618
  0
LINE
  5
500
100
AcDbEntity
  8
03__ASM_ALL_CURVES
100
AcDbLine
 62
4
  6
CONTINUOUS
 10
11.9226020923
 20
11.4359761618
 11
11.9332105923
 21
11.4359761618
  0
LINE
  5
501
100
AcDbEntity
  8
03__ASM_ALL_CURVES
100
AcDbLine
 62
4
  6
CONTINUOUS
 10
12.0923380923
 20
11.4359761618
 11
12.1029465923
 21
11.4359761618
  0
LINE
  5
502
100
AcDbEntity
  8
0
100
AcDbLine
 62
7
  6
CONTINUOUS
 10
9.5455563423
 20
11.4565421618
 11
8.6885563423
 21
11.4565421618
  0
LINE
  5
503
100
AcDbEntity
  8
0
100
AcDbLine
 62
7
  6
CONTINUOUS
 10
9.6060563423
 20
11.5170421618
 11
9.6051588148
 21
11.5170421618
  0
LINE
  5
504
100
AcDbEntity
  8
0
100
AcDbLine
 62
7
  6
CONTINUOUS
 10
9.3867538698
 20
11.5170421618
 11
9.3354612873
 21
11.5170421618
  0
LINE
  5
505
100
AcDbEntity
  8
0
100
AcDbLine
 62
7
  6
CONTINUOUS
 10
8.8986513973
 20
11.5170421618
 11
8.8473588148
 21
11.5170421618
  0
LINE
  5
506
100
AcDbEntity
  8
0
100
AcDbLine
 62
7
  6
CONTINUOUS
 10
8.6289538698
 20
11.5170421618
 11
8.6280563423
 21
11.5170421618
  0
LINE
  5
507
100
AcDbEntity
  8
03__ASM_ALL_CURVES
100
AcDbLine
 62
4
  6
CONTINUOUS
 10
11.4133940923
 20
11.3511081618
 11
11.4027855923
 21
11.3581804953
  0
LINE
  5
508
100
AcDbEntity
  8
03__ASM_ALL_CURVES
100
AcDbLine
 62
4
  6
CONTINUOUS
 10
11.4240025923
 20
11.4006144934
 11
11.4346110923
 21
11.3935421618
  0
LINE
  5
509
100
AcDbEntity
  8
03__ASM_ALL_CURVES
100
AcDbLine
 62
4
  6
CONTINUOUS
 10
11.4240025923
 20
11.4359761618
 11
11.4346110923
 21
11.4289038301
  0
LINE
  5
50A
100
AcDbEntity
  8
03__ASM_ALL_CURVES
100
AcDbLine
 62
4
  6
CONTINUOUS
 10
11.5831300923
 20
11.3511081618
 11
11.5725215923
 21
11.3581804953
  0
LINE
  5
50B
100
AcDbEntity
  8
03__ASM_ALL_CURVES
100
AcDbLine
 62
4
  6
CONTINUOUS
 10
11.5937385923
 20
11.4076868301
 11
11.6043470923
 21
11.4006144934
  0
LINE
  5
50C
100
AcDbEntity
  8
03__ASM_ALL_CURVES
100
AcDbLine
 62
4
  6
CONTINUOUS
 10
11.7528660923
 20
11.3652528289
 11
11.7634745923
 21
11.3511081618
  0
LINE
  5
50D
100
AcDbEntity
  8
03__ASM_ALL_CURVES
100
AcDbLine
 62
4
  6
CONTINUOUS
 10
11.8271255923
 20
11.3581804953
 11
11.8165170923
 21
11.3723251618
  0
LINE
  5
50E
100
AcDbEntity
  8
03__ASM_ALL_CURVES
100
AcDbLine
 62
4
  6
CONTINUOUS
 10
11.8271255923
 20
11.4076868301
 11
11.8218213423
 21
11.4147591618
  0
LINE
  5
50F
100
AcDbEntity
  8
03__ASM_ALL_CURVES
100
AcDbLine
 62
4
  6
CONTINUOUS
 10
11.8589510923
 20
11.3935421618
 11
11.8695595923
 21
11.379397496
  0
LINE
  5
510
100
AcDbEntity
  8
03__ASM_ALL_CURVES
100
AcDbLine
 62
4
  6
CONTINUOUS
 10
11.8589510923
 20
11.4289038301
 11
11.8642553423
 21
11.4218314934
  0
LINE
  5
511
100
AcDbEntity
  8
03__ASM_ALL_CURVES
100
AcDbLine
 62
4
  6
CONTINUOUS
 10
11.9119935923
 20
11.3581804953
 11
11.9013850923
 21
11.3723251618
  0
LINE
  5
512
100
AcDbEntity
  8
03__ASM_ALL_CURVES
100
AcDbLine
 62
4
  6
CONTINUOUS
 10
11.9119935923
 20
11.4076868301
 11
11.9066893423
 21
11.4147591618
  0
LINE
  5
513
100
AcDbEntity
  8
03__ASM_ALL_CURVES
100
AcDbLine
 62
4
  6
CONTINUOUS
 10
11.5168269673
 20
11.9557166621
 11
11.5247833423
 21
11.9451081618
  0
LINE
  5
514
100
AcDbEntity
  8
03__ASM_ALL_CURVES
100
AcDbLine
 62
4
  6
CONTINUOUS
 10
12.1665975923
 20
11.3935421618
 11
12.1612933423
 21
11.4076868301
  0
LINE
  5
515
100
AcDbEntity
  8
03__ASM_ALL_CURVES
100
AcDbLine
 62
4
  6
CONTINUOUS
 10
11.9968615923
 20
11.9592528289
 11
11.9915573423
 21
11.973397496
  0
LINE
  5
516
100
AcDbEntity
  8
03__ASM_ALL_CURVES
100
AcDbLine
 62
4
  6
CONTINUOUS
 10
12.1984230923
 20
11.4218314934
 11
12.2037273423
 21
11.4076868301
  0
LINE
  5
517
100
AcDbEntity
  8
03__ASM_ALL_CURVES
100
AcDbLine
 62
4
  6
CONTINUOUS
 10
12.0286870923
 20
12.0158314934
 11
12.0339913423
 21
12.0016868301
  0
LINE
  5
518
100
AcDbEntity
  8
03__ASM_ALL_CURVES
100
AcDbLine
 62
4
  6
CONTINUOUS
 10
12.2726825923
 20
11.4218314934
 11
12.2779868423
 21
11.4006144934
  0
LINE
  5
519
100
AcDbEntity
  8
03__ASM_ALL_CURVES
100
AcDbLine
 62
4
  6
CONTINUOUS
 10
10.4007670107
 20
6.5091329118
 11
10.414911674
 21
6.5144371618
  0
LINE
  5
51A
100
AcDbEntity
  8
03__ASM_ALL_CURVES
100
AcDbLine
 62
4
  6
CONTINUOUS
 10
10.4573456752
 20
6.4773074118
 11
10.4432010081
 21
6.4720031618
  0
LINE
  5
51B
100
AcDbEntity
  8
03__ASM_ALL_CURVES
100
AcDbLine
 62
4
  6
CONTINUOUS
 10
12.1825103423
 20
11.3864698276
 11
12.1665975923
 21
11.3935421618
  0
LINE
  5
51C
100
AcDbEntity
  8
03__ASM_ALL_CURVES
100
AcDbLine
 62
4
  6
CONTINUOUS
 10
11.8377340923
 20
11.3511081618
 11
11.8271255923
 21
11.3581804953
  0
LINE
  5
51D
100
AcDbEntity
  8
03__ASM_ALL_CURVES
100
AcDbLine
 62
4
  6
CONTINUOUS
 10
11.8377340923
 20
11.4006144934
 11
11.8271255923
 21
11.4076868301
  0
LINE
  5
51E
100
AcDbEntity
  8
03__ASM_ALL_CURVES
100
AcDbLine
 62
4
  6
CONTINUOUS
 10
11.9226020923
 20
11.3511081618
 11
11.9119935923
 21
11.3581804953
  0
LINE
  5
51F
100
AcDbEntity
  8
03__ASM_ALL_CURVES
100
AcDbLine
 62
4
  6
CONTINUOUS
 10
11.8483425923
 20
11.4006144934
 11
11.8589510923
 21
11.3935421618
  0
LINE
  5
520
100
AcDbEntity
  8
03__ASM_ALL_CURVES
100
AcDbLine
 62
4
  6
CONTINUOUS
 10
11.8483425923
 20
11.4359761618
 11
11.8589510923
 21
11.4289038301
  0
LINE
  5
521
100
AcDbEntity
  8
03__ASM_ALL_CURVES
100
AcDbLine
 62
4
  6
CONTINUOUS
 10
11.9226020923
 20
11.4006144934
 11
11.9119935923
 21
11.4076868301
  0
LINE
  5
522
100
AcDbEntity
  8
03__ASM_ALL_CURVES
100
AcDbLine
 62
4
  6
CONTINUOUS
 10
11.9332105923
 20
11.4006144934
 11
11.9438190923
 21
11.3935421618
  0
LINE
  5
523
100
AcDbEntity
  8
03__ASM_ALL_CURVES
100
AcDbLine
 62
4
  6
CONTINUOUS
 10
11.9332105923
 20
11.4359761618
 11
11.9438190923
 21
11.4289038301
  0
LINE
  5
524
100
AcDbEntity
  8
03__ASM_ALL_CURVES
100
AcDbLine
 62
4
  6
CONTINUOUS
 10
12.0923380923
 20
11.3511081618
 11
12.0817295923
 21
11.3581804953
  0
LINE
  5
525
100
AcDbEntity
  8
03__ASM_ALL_CURVES
100
AcDbLine
 62
4
  6
CONTINUOUS
 10
11.9438190923
 20
11.3935421618
 11
11.9544275923
 21
11.379397496
  0
LINE
  5
526
100
AcDbEntity
  8
03__ASM_ALL_CURVES
100
AcDbLine
 62
4
  6
CONTINUOUS
 10
11.9438190923
 20
11.4289038301
 11
11.9491233423
 21
11.4218314934
  0
LINE
  5
527
100
AcDbEntity
  8
03__ASM_ALL_CURVES
100
AcDbLine
 62
4
  6
CONTINUOUS
 10
11.5778258423
 20
11.9521804953
 11
11.5725215923
 21
11.9592528289
  0
LINE
  5
528
100
AcDbEntity
  8
03__ASM_ALL_CURVES
100
AcDbLine
 62
4
  6
CONTINUOUS
 10
12.0260349673
 20
11.3617166621
 11
12.0339913423
 21
11.3511081618
  0
LINE
  5
529
100
AcDbEntity
  8
03__ASM_ALL_CURVES
100
AcDbLine
 62
4
  6
CONTINUOUS
 10
12.0817295923
 20
11.3581804953
 11
12.0711210923
 21
11.3723251618
  0
LINE
  5
52A
100
AcDbEntity
  8
03__ASM_ALL_CURVES
100
AcDbLine
 62
4
  6
CONTINUOUS
 10
11.5990428423
 20
12.0229038301
 11
11.6043470923
 21
12.0158314934
  0
LINE
  5
52B
100
AcDbEntity
  8
03__ASM_ALL_CURVES
100
AcDbLine
 62
4
  6
CONTINUOUS
 10
11.6626938423
 20
11.9521804953
 11
11.6573895923
 21
11.9592528289
  0
LINE
  5
52C
100
AcDbEntity
  8
03__ASM_ALL_CURVES
100
AcDbLine
 62
4
  6
CONTINUOUS
 10
12.0817295923
 20
11.4076868301
 11
12.0764253423
 21
11.4147591618
  0
LINE
  5
52D
100
AcDbEntity
  8
03__ASM_ALL_CURVES
100
AcDbLine
 62
4
  6
CONTINUOUS
 10
12.1135550923
 20
11.3935421618
 11
12.1241635923
 21
11.379397496
  0
LINE
  5
52E
100
AcDbEntity
  8
03__ASM_ALL_CURVES
100
AcDbLine
 62
4
  6
CONTINUOUS
 10
12.1135550923
 20
11.4289038301
 11
12.1188593423
 21
11.4218314934
  0
LINE
  5
52F
100
AcDbEntity
  8
03__ASM_ALL_CURVES
100
AcDbLine
 62
4
  6
CONTINUOUS
 10
12.1719018423
 20
11.3581804953
 11
12.1665975923
 21
11.3652528289
  0
LINE
  5
530
100
AcDbEntity
  8
03__ASM_ALL_CURVES
100
AcDbLine
 62
4
  6
CONTINUOUS
 10
11.6839108423
 20
12.0229038301
 11
11.6892150923
 21
12.0158314934
  0
LINE
  5
531
100
AcDbEntity
  8
03__ASM_ALL_CURVES
100
AcDbLine
 62
4
  6
CONTINUOUS
 10
12.1931188423
 20
11.4289038301
 11
12.1984230923
 21
11.4218314934
  0
LINE
  5
532
100
AcDbEntity
  8
03__ASM_ALL_CURVES
100
AcDbLine
 62
4
  6
CONTINUOUS
 10
12.4424185923
 20
12.0158314934
 11
12.4477228423
 21
11.9946144934
  0
LINE
  5
533
100
AcDbEntity
  8
03__ASM_ALL_CURVES
100
AcDbLine
 62
4
  6
CONTINUOUS
 10
12.3575505923
 20
11.9451081618
 11
12.3469420923
 21
11.9451081618
  0
LINE
  5
534
100
AcDbEntity
  8
03__ASM_ALL_CURVES
100
AcDbLine
 62
4
  6
CONTINUOUS
 10
12.2726825923
 20
11.9451081618
 11
12.2620740923
 21
11.9451081618
  0
LINE
  5
535
100
AcDbEntity
  8
03__ASM_ALL_CURVES
100
AcDbLine
 62
4
  6
CONTINUOUS
 10
12.2037273423
 20
11.9451081618
 11
12.1957709673
 21
11.9451081618
  0
LINE
  5
536
100
AcDbEntity
  8
03__ASM_ALL_CURVES
100
AcDbLine
 62
4
  6
CONTINUOUS
 10
12.1029465923
 20
11.9451081618
 11
12.0923380923
 21
11.9451081618
  0
LINE
  5
537
100
AcDbEntity
  8
03__ASM_ALL_CURVES
100
AcDbLine
 62
4
  6
CONTINUOUS
 10
11.5247833423
 20
11.9451081618
 11
11.5168269673
 21
11.9451081618
  0
LINE
  5
538
100
AcDbEntity
  8
0
100
AcDbLine
 62
7
  6
CONTINUOUS
 10
8.6280563423
 20
11.9534784959
 11
8.6289538698
 21
11.9534784959
  0
LINE
  5
539
100
AcDbEntity
  8
0
100
AcDbLine
 62
7
  6
CONTINUOUS
 10
8.8473588148
 20
11.9534784959
 11
8.8986513973
 21
11.9534784959
  0
LINE
  5
53A
100
AcDbEntity
  8
0
100
AcDbLine
 62
7
  6
CONTINUOUS
 10
9.3354612873
 20
11.9534784959
 11
9.3867538698
 21
11.9534784959
  0
LINE
  5
53B
100
AcDbEntity
  8
0
100
AcDbLine
 62
7
  6
CONTINUOUS
 10
9.6051588148
 20
11.9534784959
 11
9.6060563423
 21
11.9534784959
  0
LINE
  5
53C
100
AcDbEntity
  8
03__ASM_ALL_CURVES
100
AcDbLine
 62
4
  6
CONTINUOUS
 10
11.3974813423
 20
11.9663251618
 11
11.4452195923
 21
11.9663251618
  0
LINE
  5
53D
100
AcDbEntity
  8
0
100
AcDbLine
 62
7
  6
CONTINUOUS
 10
8.6870563423
 20
11.9875421618
 11
9.5470563423
 21
11.9875421618
  0
LINE
  5
53E
100
AcDbEntity
  8
03__ASM_ALL_CURVES
100
AcDbLine
 62
4
  6
CONTINUOUS
 10
10.9519243423
 20
11.9875421618
 11
11.2065283423
 21
11.9875421618
  0
LINE
  5
53F
100
AcDbEntity
  8
03__ASM_ALL_CURVES
100
AcDbLine
 62
4
  6
CONTINUOUS
 10
12.0923380923
 20
11.9946144934
 11
12.1029465923
 21
11.9946144934
  0
LINE
  5
540
100
AcDbEntity
  8
03__ASM_ALL_CURVES
100
AcDbLine
 62
4
  6
CONTINUOUS
 10
12.2620740923
 20
11.9946144934
 11
12.2726825923
 21
11.9946144934
  0
LINE
  5
541
100
AcDbEntity
  8
03__ASM_ALL_CURVES
100
AcDbLine
 62
4
  6
CONTINUOUS
 10
12.3469420923
 20
11.9946144934
 11
12.3575505923
 21
11.9946144934
  0
LINE
  5
542
100
AcDbEntity
  8
03__ASM_ALL_CURVES
100
AcDbLine
 62
4
  6
CONTINUOUS
 10
12.0923380923
 20
12.0299761618
 11
12.1029465923
 21
12.0299761618
  0
LINE
  5
543
100
AcDbEntity
  8
03__ASM_ALL_CURVES
100
AcDbLine
 62
4
  6
CONTINUOUS
 10
12.2620740923
 20
12.0299761618
 11
12.2726825923
 21
12.0299761618
  0
LINE
  5
544
100
AcDbEntity
  8
03__ASM_ALL_CURVES
100
AcDbLine
 62
4
  6
CONTINUOUS
 10
12.3469420923
 20
12.0299761618
 11
12.3575505923
 21
12.0299761618
  0
LINE
  5
545
100
AcDbEntity
  8
03__ASM_ALL_CURVES
100
AcDbLine
 62
4
  6
CONTINUOUS
 10
12.0923380923
 20
11.4006144934
 11
12.0817295923
 21
11.4076868301
  0
LINE
  5
546
100
AcDbEntity
  8
03__ASM_ALL_CURVES
100
AcDbLine
 62
4
  6
CONTINUOUS
 10
12.1029465923
 20
11.4006144934
 11
12.1135550923
 21
11.3935421618
  0
LINE
  5
547
100
AcDbEntity
  8
03__ASM_ALL_CURVES
100
AcDbLine
 62
4
  6
CONTINUOUS
 10
12.1825103423
 20
11.3511081618
 11
12.1719018423
 21
11.3581804953
  0
LINE
  5
548
100
AcDbEntity
  8
03__ASM_ALL_CURVES
100
AcDbLine
 62
4
  6
CONTINUOUS
 10
12.1029465923
 20
11.4359761618
 11
12.1135550923
 21
11.4289038301
  0
LINE
  5
549
100
AcDbEntity
  8
03__ASM_ALL_CURVES
100
AcDbLine
 62
4
  6
CONTINUOUS
 10
12.1825103423
 20
11.4359761618
 11
12.1931188423
 21
11.4289038301
  0
LINE
  5
54A
100
AcDbEntity
  8
03__ASM_ALL_CURVES
100
AcDbLine
 62
4
  6
CONTINUOUS
 10
11.5884343423
 20
11.9451081618
 11
11.5778258423
 21
11.9521804953
  0
LINE
  5
54B
100
AcDbEntity
  8
03__ASM_ALL_CURVES
100
AcDbLine
 62
4
  6
CONTINUOUS
 10
11.6733023423
 20
11.9451081618
 11
11.6626938423
 21
11.9521804953
  0
LINE
  5
54C
100
AcDbEntity
  8
03__ASM_ALL_CURVES
100
AcDbLine
 62
4
  6
CONTINUOUS
 10
11.8377340923
 20
11.9592528289
 11
11.8483425923
 21
11.9451081618
  0
LINE
  5
54D
100
AcDbEntity
  8
03__ASM_ALL_CURVES
100
AcDbLine
 62
4
  6
CONTINUOUS
 10
12.2620740923
 20
11.4359761618
 11
12.2726825923
 21
11.4218314934
  0
LINE
  5
54E
100
AcDbEntity
  8
03__ASM_ALL_CURVES
100
AcDbLine
 62
4
  6
CONTINUOUS
 10
12.0021658423
 20
11.9521804953
 11
11.9968615923
 21
11.9592528289
  0
LINE
  5
54F
100
AcDbEntity
  8
03__ASM_ALL_CURVES
100
AcDbLine
 62
4
  6
CONTINUOUS
 10
12.0233828423
 20
12.0229038301
 11
12.0286870923
 21
12.0158314934
  0
LINE
  5
550
100
AcDbEntity
  8
03__ASM_ALL_CURVES
100
AcDbLine
 62
4
  6
CONTINUOUS
 10
12.0817295923
 20
11.9521804953
 11
12.0764253423
 21
11.9592528289
  0
LINE
  5
551
100
AcDbEntity
  8
03__ASM_ALL_CURVES
100
AcDbLine
 62
4
  6
CONTINUOUS
 10
11.6733023423
 20
11.9804698276
 11
11.6573895923
 21
11.9875421618
  0
LINE
  5
552
100
AcDbEntity
  8
03__ASM_ALL_CURVES
100
AcDbLine
 62
4
  6
CONTINUOUS
 10
11.5884343423
 20
12.0299761618
 11
11.5990428423
 21
12.0229038301
  0
LINE
  5
553
100
AcDbEntity
  8
03__ASM_ALL_CURVES
100
AcDbLine
 62
4
  6
CONTINUOUS
 10
11.6733023423
 20
12.0299761618
 11
11.6839108423
 21
12.0229038301
  0
LINE
  5
554
100
AcDbEntity
  8
03__ASM_ALL_CURVES
100
AcDbLine
 62
4
  6
CONTINUOUS
 10
12.0127743423
 20
11.9451081618
 11
12.0021658423
 21
11.9521804953
  0
LINE
  5
555
100
AcDbEntity
  8
03__ASM_ALL_CURVES
100
AcDbLine
 62
4
  6
CONTINUOUS
 10
12.0923380923
 20
11.9451081618
 11
12.0817295923
 21
11.9521804953
  0
LINE
  5
556
100
AcDbEntity
  8
03__ASM_ALL_CURVES
100
AcDbLine
 62
4
  6
CONTINUOUS
 10
12.1135550923
 20
11.9875421618
 11
12.1241635923
 21
11.973397496
  0
LINE
  5
557
100
AcDbEntity
  8
03__ASM_ALL_CURVES
100
AcDbLine
 62
4
  6
CONTINUOUS
 10
12.1135550923
 20
12.0229038301
 11
12.1188593423
 21
12.0158314934
  0
LINE
  5
558
100
AcDbEntity
  8
03__ASM_ALL_CURVES
100
AcDbLine
 62
4
  6
CONTINUOUS
 10
12.1957709673
 20
11.9557166621
 11
12.2037273423
 21
11.9451081618
  0
LINE
  5
559
100
AcDbEntity
  8
03__ASM_ALL_CURVES
100
AcDbLine
 62
4
  6
CONTINUOUS
 10
12.2514655923
 20
11.9521804953
 11
12.2408570923
 21
11.9663251618
  0
LINE
  5
55A
100
AcDbEntity
  8
03__ASM_ALL_CURVES
100
AcDbLine
 62
4
  6
CONTINUOUS
 10
12.2514655923
 20
12.0016868301
 11
12.2461613423
 21
12.0087591618
  0
LINE
  5
55B
100
AcDbEntity
  8
03__ASM_ALL_CURVES
100
AcDbLine
 62
4
  6
CONTINUOUS
 10
12.2832910923
 20
11.9875421618
 11
12.2938995923
 21
11.973397496
  0
LINE
  5
55C
100
AcDbEntity
  8
03__ASM_ALL_CURVES
100
AcDbLine
 62
4
  6
CONTINUOUS
 10
12.2832910923
 20
12.0229038301
 11
12.2885953423
 21
12.0158314934
  0
LINE
  5
55D
100
AcDbEntity
  8
03__ASM_ALL_CURVES
100
AcDbLine
 62
4
  6
CONTINUOUS
 10
12.3363335923
 20
11.9521804953
 11
12.3257250923
 21
11.9663251618
  0
LINE
  5
55E
100
AcDbEntity
  8
03__ASM_ALL_CURVES
100
AcDbLine
 62
4
  6
CONTINUOUS
 10
12.3363335923
 20
12.0016868301
 11
12.3310293423
 21
12.0087591618
  0
LINE
  5
55F
100
AcDbEntity
  8
03__ASM_ALL_CURVES
100
AcDbLine
 62
4
  6
CONTINUOUS
 10
12.3681590923
 20
11.9875421618
 11
12.3787675923
 21
11.973397496
  0
LINE
  5
560
100
AcDbEntity
  8
03__ASM_ALL_CURVES
100
AcDbLine
 62
4
  6
CONTINUOUS
 10
12.3681590923
 20
12.0229038301
 11
12.3734633423
 21
12.0158314934
  0
LINE
  5
561
100
AcDbEntity
  8
03__ASM_ALL_CURVES
100
AcDbLine
 62
4
  6
CONTINUOUS
 10
12.0127743423
 20
12.0299761618
 11
12.0233828423
 21
12.0229038301
  0
LINE
  5
562
100
AcDbEntity
  8
03__ASM_ALL_CURVES
100
AcDbLine
 62
4
  6
CONTINUOUS
 10
12.1029465923
 20
11.9946144934
 11
12.1135550923
 21
11.9875421618
  0
LINE
  5
563
100
AcDbEntity
  8
03__ASM_ALL_CURVES
100
AcDbLine
 62
4
  6
CONTINUOUS
 10
12.1029465923
 20
12.0299761618
 11
12.1135550923
 21
12.0229038301
  0
LINE
  5
564
100
AcDbEntity
  8
03__ASM_ALL_CURVES
100
AcDbLine
 62
4
  6
CONTINUOUS
 10
12.2620740923
 20
11.9451081618
 11
12.2514655923
 21
11.9521804953
  0
LINE
  5
565
100
AcDbEntity
  8
03__ASM_ALL_CURVES
100
AcDbLine
 62
4
  6
CONTINUOUS
 10
12.2620740923
 20
11.9946144934
 11
12.2514655923
 21
12.0016868301
  0
LINE
  5
566
100
AcDbEntity
  8
03__ASM_ALL_CURVES
100
AcDbLine
 62
4
  6
CONTINUOUS
 10
12.3469420923
 20
11.9451081618
 11
12.3363335923
 21
11.9521804953
  0
LINE
  5
567
100
AcDbEntity
  8
03__ASM_ALL_CURVES
100
AcDbLine
 62
4
  6
CONTINUOUS
 10
12.2726825923
 20
11.9946144934
 11
12.2832910923
 21
11.9875421618
  0
LINE
  5
568
100
AcDbEntity
  8
03__ASM_ALL_CURVES
100
AcDbLine
 62
4
  6
CONTINUOUS
 10
12.2726825923
 20
12.0299761618
 11
12.2832910923
 21
12.0229038301
  0
LINE
  5
569
100
AcDbEntity
  8
03__ASM_ALL_CURVES
100
AcDbLine
 62
4
  6
CONTINUOUS
 10
12.3469420923
 20
11.9946144934
 11
12.3363335923
 21
12.0016868301
  0
LINE
  5
56A
100
AcDbEntity
  8
03__ASM_ALL_CURVES
100
AcDbLine
 62
4
  6
CONTINUOUS
 10
12.3575505923
 20
11.9946144934
 11
12.3681590923
 21
11.9875421618
  0
LINE
  5
56B
100
AcDbEntity
  8
03__ASM_ALL_CURVES
100
AcDbLine
 62
4
  6
CONTINUOUS
 10
12.3575505923
 20
12.0299761618
 11
12.3681590923
 21
12.0229038301
  0
LINE
  5
56C
100
AcDbEntity
  8
03__ASM_ALL_CURVES
100
AcDbLine
 62
4
  6
CONTINUOUS
 10
12.4318100923
 20
12.0299761618
 11
12.4424185923
 21
12.0158314934
  0
CIRCLE
  5
56D
100
AcDbEntity
  8
0
100
AcDbCircle
 62
7
  6
CONTINUOUS
 10
10.4290563488
 20
8.5815421852
 40
0.1985
  0
CIRCLE
  5
56E
100
AcDbEntity
  8
0
100
AcDbCircle
 62
7
  6
CONTINUOUS
 10
8.6790563786
 20
8.5815421852
 40
0.1985
  0
CIRCLE
  5
56F
100
AcDbEntity
  8
0
100
AcDbCircle
 62
7
  6
CONTINUOUS
 10
8.6790563786
 20
8.5815421852
 40
0.174
  0
CIRCLE
  5
570
100
AcDbEntity
  8
0
100
AcDbCircle
 62
7
  6
CONTINUOUS
 10
10.4290563488
 20
8.5815421852
 40
0.174
  0
SPLINE
  5
571
100
AcDbEntity
  8
0
100
AcDbSpline
 62
7
  6
CONTINUOUS
 70
0
 71
3
 72
21
 73
17
 74
15
 42
0.0000001
 43
0.0000001
 44
0.0000000001
 12
0.428009375
 22
0.1103687852
 32
0.0
 13
0.428009375
 23
-0.1103687852
 33
0.0
 40
0.0
 40
0.0
 40
0.0
 40
0.0
 40
0.0748340669
 40
0.1477292642
 40
0.2192818387
 40
0.2899894476
 40
0.360200991
 40
0.4301541685
 40
0.5000000002
 40
0.5698458319
 40
0.6397990095
 40
0.7100105528
 40
0.7807181617
 40
0.852270736
 40
0.9251659331
 40
1.0
 40
1.0
 40
1.0
 40
1.0
 10
8.8986513973
 20
11.9534784959
 30
0.0
 10
8.909327958
 20
11.9562316109
 30
0.0
 10
8.9304831516
 20
11.9613678385
 30
0.0
 10
8.9621067306
 20
11.9680103364
 30
0.0
 10
8.9933368389
 20
11.9734869662
 30
0.0
 10
9.0243514477
 20
11.9777917456
 30
0.0
 10
9.0552725481
 20
11.9809004912
 30
0.0
 10
9.0861658212
 20
11.9827823925
 30
0.0
 10
9.1170563424
 20
11.9834128087
 30
0.0
 10
9.1479468636
 20
11.9827823925
 30
0.0
 10
9.1788401367
 20
11.9809004912
 30
0.0
 10
9.2097612371
 20
11.9777917456
 30
0.0
 10
9.2407758459
 20
11.9734869662
 30
0.0
 10
9.2720059542
 20
11.9680103364
 30
0.0
 10
9.3036295331
 20
11.9613678385
 30
0.0
 10
9.3247847266
 20
11.9562316109
 30
0.0
 10
9.3354612873
 20
11.9534784959
 30
0.0
 11
8.8986513973
 21
11.9534784959
 31
0.0
 11
8.9307991599
 21
11.9612655803
 31
0.0
 11
8.9623348288
 21
11.9678730437
 31
0.0
 11
8.9934889655
 21
11.973321555
 31
0.0
 11
9.0244474056
 21
11.9776060211
 31
0.0
 11
9.0553269357
 21
11.980700968
 31
0.0
 11
9.086190135
 21
11.9825749468
 31
0.0
 11
9.1170563424
 21
11.9832027775
 31
0.0
 11
9.1479225498
 21
11.9825749468
 31
0.0
 11
9.1787857492
 21
11.980700968
 31
0.0
 11
9.2096652792
 21
11.9776060211
 31
0.0
 11
9.2406237193
 21
11.9733215549
 31
0.0
 11
9.271777856
 21
11.9678730437
 31
0.0
 11
9.3033135248
 21
11.9612655803
 31
0.0
 11
9.3354612873
 21
11.9534784959
 31
0.0
  0
SPLINE
  5
572
100
AcDbEntity
  8
0
100
AcDbSpline
 62
7
  6
CONTINUOUS
 70
0
 71
3
 72
22
 73
18
 74
16
 42
0.0000001
 43
0.0000001
 44
0.0000000001
 12
0.4128214542
 22
-0.1843808732
 32
0.0
 13
0.4128214542
 23
0.1843808732
 33
0.0
 40
0.0
 40
0.0
 40
0.0
 40
0.0
 40
0.0753081232
 40
0.1465321839
 40
0.2145919857
 40
0.2802693993
 40
0.3442109576
 40
0.4069779893
 40
0.4690663856
 40
0.5309336155
 40
0.5930220118
 40
0.6557890432
 40
0.7197306014
 40
0.7854080149
 40
0.8534678163
 40
0.9246918767
 40
1.0
 40
1.0
 40
1.0
 40
1.0
 10
8.8986513973
 20
11.5170421618
 30
0.0
 10
8.9090143336
 20
11.5124137026
 30
0.0
 10
8.929372717
 20
11.5038335204
 30
0.0
 10
8.9597485332
 20
11.4926956659
 30
0.0
 10
8.9892687605
 20
11.4835519033
 30
0.0
 10
9.0181811209
 20
11.4763014149
 30
0.0
 10
9.0466828315
 20
11.4708876121
 30
0.0
 10
9.0749254763
 20
11.4672846525
 30
0.0
 10
9.1030275114
 20
11.4654838854
 30
0.0
 10
9.1310851738
 20
11.4654838854
 30
0.0
 10
9.1591872088
 20
11.4672846526
 30
0.0
 10
9.1874298536
 20
11.4708876121
 30
0.0
 10
9.215931564
 20
11.4763014149
 30
0.0
 10
9.2448439244
 20
11.4835519034
 30
0.0
 10
9.2743641515
 20
11.4926956659
 30
0.0
 10
9.3047399676
 20
11.5038335204
 30
0.0
 10
9.325098351
 20
11.5124137026
 30
0.0
 10
9.3354612873
 20
11.5170421618
 30
0.0
 11
8.8986513973
 21
11.5170421618
 31
0.0
 11
8.9300414193
 21
11.5038518521
 31
0.0
 11
8.9602866473
 21
11.4927969544
 31
0.0
 11
8.9896891647
 21
11.4837204232
 31
0.0
 11
9.0184978776
 21
11.4765218726
 31
0.0
 11
9.0469034329
 21
11.471146789
 31
0.0
 11
9.0750556717
 21
11.4675695629
 31
0.0
 11
9.1030704531
 21
11.4657816792
 31
0.0
 11
9.1310422321
 21
11.4657816792
 31
0.0
 11
9.1590570134
 21
11.467569563
 31
0.0
 11
9.1872092521
 21
11.4711467891
 31
0.0
 11
9.2156148074
 21
11.4765218726
 31
0.0
 11
9.2444235202
 21
11.4837204233
 31
0.0
 11
9.2738260375
 21
11.4927969545
 31
0.0
 11
9.3040712653
 21
11.5038518521
 31
0.0
 11
9.3354612873
 21
11.5170421618
 31
0.0
  0
SPLINE
  5
573
100
AcDbEntity
  8
0
100
AcDbSpline
 62
7
  6
CONTINUOUS
 70
0
 71
3
 72
21
 73
17
 74
15
 42
0.0000001
 43
0.0000001
 44
0.0000000001
 12
0.2030979382
 22
0.1047438399
 32
0.0
 13
0.2030979382
 23
-0.1047438399
 33
0.0
 40
0.0
 40
0.0
 40
0.0
 40
0.0
 40
0.0781596132
 40
0.1529736848
 40
0.2251891456
 40
0.2954737185
 40
0.3643828235
 40
0.4324082454
 40
0.5000000002
 40
0.567591755
 40
0.635617177
 40
0.7045262819
 40
0.7748108548
 40
0.8470263155
 40
0.9218403867
 40
1.0
 40
1.0
 40
1.0
 40
1.0
 10
9.3867538698
 20
11.9534784959
 30
0.0
 10
9.3920452219
 20
11.9562074086
 30
0.0
 10
9.402530231
 20
11.961304578
 30
0.0
 10
9.4183496263
 20
11.9679594951
 30
0.0
 10
9.4339777754
 20
11.9734497809
 30
0.0
 10
9.4495048703
 20
11.9777683606
 30
0.0
 10
9.4649927048
 20
11.9808894095
 30
0.0
 10
9.4804732413
 20
11.9827799609
 30
0.0
 10
9.4959563424
 20
11.9834135098
 30
0.0
 10
9.5114394435
 20
11.9827799609
 30
0.0
 10
9.52691998
 20
11.9808894095
 30
0.0
 10
9.5424078144
 20
11.9777683606
 30
0.0
 10
9.5579349093
 20
11.9734497809
 30
0.0
 10
9.5735630583
 20
11.9679594951
 30
0.0
 10
9.5893824536
 20
11.961304578
 30
0.0
 10
9.5998674627
 20
11.9562074086
 30
0.0
 10
9.6051588148
 20
11.9534784959
 30
0.0
 11
9.3867538698
 21
11.9534784959
 31
0.0
 11
9.4028277511
 21
11.9612655803
 31
0.0
 11
9.4185955856
 21
11.9678730437
 31
0.0
 11
9.4341726539
 21
11.973321555
 31
0.0
 11
9.449651874
 21
11.9776060211
 31
0.0
 11
9.465091639
 21
11.980700968
 31
0.0
 11
9.4805232387
 21
11.9825749468
 31
0.0
 11
9.4959563424
 21
11.9832027775
 31
0.0
 11
9.5113894461
 21
11.9825749468
 31
0.0
 11
9.5268210457
 21
11.980700968
 31
0.0
 11
9.5422608108
 21
11.9776060211
 31
0.0
 11
9.5577400308
 21
11.9733215549
 31
0.0
 11
9.5733170991
 21
11.9678730437
 31
0.0
 11
9.5890849335
 21
11.9612655803
 31
0.0
 11
9.6051588148
 21
11.9534784959
 31
0.0
  0
SPLINE
  5
574
100
AcDbEntity
  8
0
100
AcDbSpline
 62
7
  6
CONTINUOUS
 70
0
 71
3
 72
22
 73
18
 74
16
 42
0.0000001
 43
0.0000001
 44
0.0000000001
 12
0.1841159884
 22
-0.1644656127
 32
0.0
 13
0.1841159884
 23
0.1644656127
 33
0.0
 40
0.0
 40
0.0
 40
0.0
 40
0.0
 40
0.0830444052
 40
0.1589224034
 40
0.2289068164
 40
0.2941337099
 40
0.3556458774
 40
0.4144752938
 40
0.4716742342
 40
0.5283257669
 40
0.5855247072
 40
0.6443541234
 40
0.7058662908
 40
0.7710931842
 40
0.8410775968
 40
0.9169555947
 40
1.0
 40
1.0
 40
1.0
 40
1.0
 10
9.3867538698
 20
11.5170421618
 30
0.0
 10
9.3918504707
 20
11.5124895121
 30
0.0
 10
9.4018486743
 20
11.5040437822
 30
0.0
 10
9.4170375939
 20
11.4928753714
 30
0.0
 10
9.4318081159
 20
11.4836946853
 30
0.0
 10
9.44628888
 20
11.4764022901
 30
0.0
 10
9.4605830768
 20
11.4709456498
 30
0.0
 10
9.4747679922
 20
11.4673062785
 30
0.0
 10
9.4888988549
 20
11.465484235
 30
0.0
 10
9.50301383
 20
11.465484235
 30
0.0
 10
9.5171446927
 20
11.4673062786
 30
0.0
 10
9.5313296081
 20
11.4709456499
 30
0.0
 10
9.5456238048
 20
11.4764022902
 30
0.0
 10
9.5601045689
 20
11.4836946854
 30
0.0
 10
9.5748750908
 20
11.4928753714
 30
0.0
 10
9.5900640104
 20
11.5040437822
 30
0.0
 10
9.6000622139
 20
11.5124895121
 30
0.0
 10
9.6051588148
 20
11.5170421618
 30
0.0
 11
9.3867538698
 21
11.5170421618
 31
0.0
 11
9.4024488808
 21
11.5038518521
 31
0.0
 11
9.4175714948
 21
11.4927969544
 31
0.0
 11
9.4322727535
 21
11.4837204232
 31
0.0
 11
9.44667711
 21
11.4765218726
 31
0.0
 11
9.4608798876
 21
11.471146789
 31
0.0
 11
9.474956007
 21
11.4675695629
 31
0.0
 11
9.4889633977
 21
11.4657816792
 31
0.0
 11
9.5029492872
 21
11.4657816792
 31
0.0
 11
9.5169566779
 21
11.467569563
 31
0.0
 11
9.5310327972
 21
11.4711467891
 31
0.0
 11
9.5452355748
 21
11.4765218726
 31
0.0
 11
9.5596399313
 21
11.4837204233
 31
0.0
 11
9.5743411899
 21
11.4927969545
 31
0.0
 11
9.5894638038
 21
11.5038518521
 31
0.0
 11
9.6051588148
 21
11.5170421618
 31
0.0
  0
SPLINE
  5
575
100
AcDbEntity
  8
0
100
AcDbSpline
 62
7
  6
CONTINUOUS
 70
0
 71
3
 72
22
 73
18
 74
16
 42
0.0000001
 43
0.0000001
 44
0.0000000001
 12
0.1841159884
 22
-0.1644656127
 32
0.0
 13
0.1841159884
 23
0.1644656127
 33
0.0
 40
0.0
 40
0.0
 40
0.0
 40
0.0
 40
0.0830444052
 40
0.1589224034
 40
0.2289068164
 40
0.2941337099
 40
0.3556458774
 40
0.4144752938
 40
0.4716742342
 40
0.5283257669
 40
0.5855247072
 40
0.6443541234
 40
0.7058662908
 40
0.7710931842
 40
0.8410775968
 40
0.9169555947
 40
1.0
 40
1.0
 40
1.0
 40
1.0
 10
8.6289538698
 20
11.5170421618
 30
0.0
 10
8.6340504707
 20
11.5124895121
 30
0.0
 10
8.6440486743
 20
11.5040437822
 30
0.0
 10
8.6592375939
 20
11.4928753714
 30
0.0
 10
8.6740081159
 20
11.4836946853
 30
0.0
 10
8.68848888
 20
11.4764022901
 30
0.0
 10
8.7027830768
 20
11.4709456498
 30
0.0
 10
8.7169679922
 20
11.4673062785
 30
0.0
 10
8.7310988549
 20
11.465484235
 30
0.0
 10
8.74521383
 20
11.465484235
 30
0.0
 10
8.7593446927
 20
11.4673062786
 30
0.0
 10
8.7735296081
 20
11.4709456499
 30
0.0
 10
8.7878238048
 20
11.4764022902
 30
0.0
 10
8.8023045689
 20
11.4836946854
 30
0.0
 10
8.8170750908
 20
11.4928753714
 30
0.0
 10
8.8322640104
 20
11.5040437822
 30
0.0
 10
8.8422622139
 20
11.5124895121
 30
0.0
 10
8.8473588148
 20
11.5170421618
 30
0.0
 11
8.6289538698
 21
11.5170421618
 31
0.0
 11
8.6446488808
 21
11.5038518521
 31
0.0
 11
8.6597714948
 21
11.4927969544
 31
0.0
 11
8.6744727535
 21
11.4837204232
 31
0.0
 11
8.68887711
 21
11.4765218726
 31
0.0
 11
8.7030798876
 21
11.471146789
 31
0.0
 11
8.717156007
 21
11.4675695629
 31
0.0
 11
8.7311633977
 21
11.4657816792
 31
0.0
 11
8.7451492872
 21
11.4657816792
 31
0.0
 11
8.7591566779
 21
11.467569563
 31
0.0
 11
8.7732327972
 21
11.4711467891
 31
0.0
 11
8.7874355748
 21
11.4765218726
 31
0.0
 11
8.8018399313
 21
11.4837204233
 31
0.0
 11
8.8165411899
 21
11.4927969545
 31
0.0
 11
8.8316638038
 21
11.5038518521
 31
0.0
 11
8.8473588148
 21
11.5170421618
 31
0.0
  0
SPLINE
  5
576
100
AcDbEntity
  8
0
100
AcDbSpline
 62
7
  6
CONTINUOUS
 70
0
 71
3
 72
21
 73
17
 74
15
 42
0.0000001
 43
0.0000001
 44
0.0000000001
 12
0.2030979382
 22
0.1047438399
 32
0.0
 13
0.2030979382
 23
-0.1047438399
 33
0.0
 40
0.0
 40
0.0
 40
0.0
 40
0.0
 40
0.0781596132
 40
0.1529736848
 40
0.2251891456
 40
0.2954737185
 40
0.3643828235
 40
0.4324082454
 40
0.5000000002
 40
0.567591755
 40
0.635617177
 40
0.7045262819
 40
0.7748108548
 40
0.8470263155
 40
0.9218403867
 40
1.0
 40
1.0
 40
1.0
 40
1.0
 10
8.6289538698
 20
11.9534784959
 30
0.0
 10
8.6342452219
 20
11.9562074086
 30
0.0
 10
8.644730231
 20
11.961304578
 30
0.0
 10
8.6605496263
 20
11.9679594951
 30
0.0
 10
8.6761777754
 20
11.9734497809
 30
0.0
 10
8.6917048703
 20
11.9777683606
 30
0.0
 10
8.7071927048
 20
11.9808894095
 30
0.0
 10
8.7226732413
 20
11.9827799609
 30
0.0
 10
8.7381563424
 20
11.9834135098
 30
0.0
 10
8.7536394435
 20
11.9827799609
 30
0.0
 10
8.76911998
 20
11.9808894095
 30
0.0
 10
8.7846078144
 20
11.9777683606
 30
0.0
 10
8.8001349093
 20
11.9734497809
 30
0.0
 10
8.8157630583
 20
11.9679594951
 30
0.0
 10
8.8315824536
 20
11.961304578
 30
0.0
 10
8.8420674627
 20
11.9562074086
 30
0.0
 10
8.8473588148
 20
11.9534784959
 30
0.0
 11
8.6289538698
 21
11.9534784959
 31
0.0
 11
8.6450277511
 21
11.9612655803
 31
0.0
 11
8.6607955856
 21
11.9678730437
 31
0.0
 11
8.6763726539
 21
11.973321555
 31
0.0
 11
8.691851874
 21
11.9776060211
 31
0.0
 11
8.707291639
 21
11.980700968
 31
0.0
 11
8.7227232387
 21
11.9825749468
 31
0.0
 11
8.7381563424
 21
11.9832027775
 31
0.0
 11
8.7535894461
 21
11.9825749468
 31
0.0
 11
8.7690210457
 21
11.980700968
 31
0.0
 11
8.7844608108
 21
11.9776060211
 31
0.0
 11
8.7999400308
 21
11.9733215549
 31
0.0
 11
8.8155170991
 21
11.9678730437
 31
0.0
 11
8.8312849335
 21
11.9612655803
 31
0.0
 11
8.8473588148
 21
11.9534784959
 31
0.0
  0
ENDSEC
  0
SECTION
  2
OBJECTS
  0
DICTIONARY
  5
C
100
AcDbDictionary
280
0
281
1
  3
ACAD_GROUP
350
D
  3
ACAD_MLINESTYLE
350
17
  3
ACAD_LAYOUT
350
1A
  3
ACAD_PLOTSETTINGS
350
19
  3
ACAD_PLOTSTYLENAME
350
E
  0
DICTIONARY
  5
D
102
{ACAD_REACTORS
330
C
102
}
100
AcDbDictionary
280
0
281
1
  0
ACDBDICTIONARYWDFLT
  5
E
102
{ACAD_REACTORS
330
C
102
}
100
AcDbDictionary
281
1
  3
Normal
350
F
100
AcDbDictionaryWithDefault
340
F
  0
DICTIONARY
  5
17
102
{ACAD_REACTORS
330
C
102
}
100
AcDbDictionary
280
0
281
1
  3
Standard
350
18
  0
DICTIONARY
  5
19
102
{ACAD_REACTORS
330
C
102
}
100
AcDbDictionary
281
1
  0
DICTIONARY
  5
1A
102
{ACAD_REACTORS
330
C
102
}
100
AcDbDictionary
281
1
  3
Layout1
350
1E
  3
Model
350
22
  0
ACDBPLACEHOLDER
  5
F
102
{ACAD_REACTORS
330
E
102
}
  0
MLINESTYLE
  5
18
102
{ACAD_REACTORS
330
17
102
}
100
AcDbMlineStyle
  2
STANDARD
 70
0
  3

 62
256
 51
90.0
 52
90.0
 71
2
 49
0.5
 62
256
  6
BYLAYER
 49
-0.5
 62
256
  6
BYLAYER
  0
LAYOUT
  5
1E
102
{ACAD_REACTORS
330
1A
102
}
100
AcDbPlotSettings
  1

  2

  4

  6

 40
0.0
 41
0.0
 42
0.0
 43
0.0
 44
0.0
 45
0.0
 46
0.0
 47
0.0
 48
0.0
 49
0.0
140
0.0
141
0.0
142
1.0
143
1.0
 70
0
 72
0
 73
0
 74
0
  7

 75
0
147
1.0
148
0.0
149
0.0
100
AcDbLayout
  1
Layout1
 70
0
 71
0
 10
0.0
 20
0.0
 11
0.0
 21
0.0
 12
0.0
 22
0.0
 32
0.0
 14
0.0
 24
0.0
 34
0.0
 15
0.0
 25
0.0
 35
0.0
146
0.0
 13
0.0
 23
0.0
 33
0.0
 16
0.0
 26
0.0
 36
0.0
 17
0.0
 27
0.0
 37
0.0
 76
0
330
1B
331
0
345
0
346
0
  0
LAYOUT
  5
22
102
{ACAD_REACTORS
330
1A
102
}
100
AcDbPlotSettings
  1

  2

  4

  6

 40
0.0
 41
0.0
 42
0.0
 43
0.0
 44
0.0
 45
0.0
 46
0.0
 47
0.0
 48
0.0
 49
0.0
140
0.0
141
0.0
142
1.0
143
1.0
 70
0
 72
0
 73
0
 74
0
  7

 75
0
147
1.0
148
0.0
149
0.0
100
AcDbLayout
  1
Model
 70
0
 71
0
 10
0.0
 20
0.0
 11
0.0
 21
0.0
 12
0.0
 22
0.0
 32
0.0
 14
0.0
 24
0.0
 34
0.0
 15
0.0
 25
0.0
 35
0.0
146
0.0
 13
0.0
 23
0.0
 33
0.0
 16
0.0
 26
0.0
 36
0.0
 17
0.0
 27
0.0
 37
0.0
 76
0
330
1F
331
0
345
0
346
0
  0
ENDSEC
  0
EOF
