999
DXF file: E2V_assy_2.dxf
999
Pro/ENGINEER 2014200 by Parametric Technology Corporation
  0
SECTION
  2
HEADER
  9
$ACADVER
  1
AC1021
  9
$DWGCODEPAGE
  3
ANSI_1252
  9
$EXTMAX
 10
22.0
 20
17.0
 30
0.0
  9
$EXTMIN
 10
0.0
 20
0.0
 30
0.0
  9
$LIMMIN
 10
0.0
 20
0.0
  9
$LIMMAX
 10
22.0
 20
17.0
  9
$VIEWCTR
 10
11.0
 20
8.5
  9
$VIEWSIZE
 40
17.0
  9
$CLAYER
  8
0
  9
$LTSCALE
 40
1.21
  9
$CELTYPE
  6
BYLAYER
  9
$DIMSCALE
 40
1.0
  9
$DIMASZ
 40
0.1875
  9
$DIMEXO
 40
0.0625
  9
$DIMDLI
 40
0.836
  9
$DIMEXE
 40
0.125
  9
$DIMCEN
 40
0.198
  9
$DIMLFAC
 40
1.0
  9
$DIMBLK
  1
_FILLED
  9
$DIMTXT
 40
0.1
  9
$DIMTOL
 70
0
  9
$DIMLIM
 70
0
  9
$DIMTFAC
 40
1.0
  9
$DIMGAP
 40
0.09
  9
$DIMDSEP
 70
46
  9
$AUNITS
 70
0
  9
$PDMODE
 70
3
  9
$PDSIZE
 40
0.3125
  9
$HANDSEED
  5
398
  9
$TILEMODE
 70
1
  9
$MEASUREMENT
 70
0
  9
$INSUNITS
 70
1
  0
ENDSEC
  0
SECTION
  2
CLASSES
  0
CLASS
  1
ACDBDICTIONARYWDFLT
  2
AcDbDictionaryWithDefault
  3
AutoCAD 2000
 90
0
 91
1
280
0
281
0
  0
CLASS
  1
ACDBPLACEHOLDER
  2
AcDbPlaceHolder
  3
AutoCAD 2000
 90
0
 91
1
280
0
281
0
  0
CLASS
  1
LAYOUT
  2
AcDbLayout
  3
AutoCAD 2000
 90
0
 91
0
280
0
281
0
  0
CLASS
  1
RASTERVARIABLES
  2
AcDbRasterVariables
  3
ISM
 90
0
 91
1
280
0
281
0
  0
CLASS
  1
IMAGEDEF
  2
AcDbRasterImageDef
  3
ISM
 90
0
 91
1
280
0
281
0
  0
CLASS
  1
IMAGEDEF_REACTOR
  2
AcDbRasterImageDefReactor
  3
ISM
 90
0
 91
1
280
0
281
0
  0
CLASS
  1
IMAGE
  2
AcDbRasterImage
  3
ISM
 90
127
 91
1
280
0
281
1
  0
CLASS
  1
TABLESTYLE
  2
AcDbTableStyle
  3
ObjectDBX Classes
 90
2047
 91
1
280
0
281
0
  0
CLASS
  1
ACAD_TABLE
  2
AcDbTable
  3
ObjectDBX Classes
 90
1025
 91
3
280
0
281
1
  0
ENDSEC
  0
SECTION
  2
TABLES
  0
TABLE
  2
VPORT
  5
8
100
AcDbSymbolTable
 70
2
  0
VPORT
  5
1F4
100
AcDbSymbolTableRecord
100
AcDbViewportTableRecord
  2
*ACTIVE
 70
0
 10
0.0
 20
0.0
 11
1.0
 21
1.0
 12
11.0
 22
8.5
 13
0.0
 23
0.0
 14
1.0
 24
1.0
 15
0.0
 25
0.0
 16
0.0
 26
0.0
 36
1.0
 17
0.0
 27
0.0
 37
0.0
 40
17.0
 41
1.2941176471
 42
50.0
 43
0.0
 44
0.0
 50
0.0
 51
0.0
 71
0
 72
100
 73
1
 74
1
 75
0
 76
0
 77
0
 78
0
  0
ENDTAB
  0
TABLE
  2
LTYPE
  5
5
100
AcDbSymbolTable
 70
6
  0
LTYPE
  5
14
100
AcDbSymbolTableRecord
100
AcDbLinetypeTableRecord
  2
BYBLOCK
 70
0
  3

 72
65
 73
0
 40
0.0
  0
LTYPE
  5
15
100
AcDbSymbolTableRecord
100
AcDbLinetypeTableRecord
  2
BYLAYER
 70
0
  3

 72
65
 73
0
 40
0.0
  0
LTYPE
  5
16
100
AcDbSymbolTableRecord
100
AcDbLinetypeTableRecord
  2
CONTINUOUS
 70
64
  3
Solid line
 72
65
 73
0
 40
0.0
  0
LTYPE
  5
1F5
100
AcDbSymbolTableRecord
100
AcDbLinetypeTableRecord
  2
CENTER
 70
64
  3
____ _ ____ _ ____ _ ____ _ ____ _ ____ _ ____
 72
65
 73
4
 40
0.6
 49
0.375
 74
0
 49
-0.075
 74
0
 49
0.075
 74
0
 49
-0.075
 74
0
  0
LTYPE
  5
1F6
100
AcDbSymbolTableRecord
100
AcDbLinetypeTableRecord
  2
HIDDEN
 70
64
  3
- - - - - - - - - - - - - - - - - - - -
 72
65
 73
2
 40
0.2
 49
0.1
 74
0
 49
-0.1
 74
0
  0
LTYPE
  5
1F7
100
AcDbSymbolTableRecord
100
AcDbLinetypeTableRecord
  2
PHANTOM
 70
64
  3
_____ _ _ _____ _ _ _____ _ _ _____
 72
65
 73
6
 40
0.8
 49
0.45
 74
0
 49
-0.05
 74
0
 49
0.1
 74
0
 49
-0.05
 74
0
 49
0.1
 74
0
 49
-0.05
 74
0
  0
LTYPE
  5
1F8
100
AcDbSymbolTableRecord
100
AcDbLinetypeTableRecord
  2
DOT
 70
64
  3
. . . . . . . . . . . . . . . . . . . .
 72
65
 73
2
 40
0.2
 49
0.1
 74
0
 49
-0.1
 74
0
  0
LTYPE
  5
1F9
100
AcDbSymbolTableRecord
100
AcDbLinetypeTableRecord
  2
DASHED
 70
64
  3
- - - - - - - - - - - - - - - - - - - -
 72
65
 73
2
 40
0.2
 49
0.1
 74
0
 49
-0.1
 74
0
  0
ENDTAB
  0
TABLE
  2
LAYER
  5
2
100
AcDbSymbolTable
 70
36
  0
LAYER
  5
10
100
AcDbSymbolTableRecord
100
AcDbLayerTableRecord
  2
0
 70
0
 62
7
  6
CONTINUOUS
370
-3
390
F
  0
LAYER
  5
1FA
100
AcDbSymbolTableRecord
100
AcDbLayerTableRecord
  2
DEFAULT_1
 70
0
 62
7
  6
CENTER
370
-3
390
F
  0
LAYER
  5
1FB
100
AcDbSymbolTableRecord
100
AcDbLayerTableRecord
  2
DEFAULT_2
 70
0
 62
8
  6
HIDDEN
370
-3
390
F
  0
LAYER
  5
1FC
100
AcDbSymbolTableRecord
100
AcDbLayerTableRecord
  2
DEFAULT_3
 70
0
 62
7
  6
PHANTOM
370
-3
390
F
  0
LAYER
  5
1FD
100
AcDbSymbolTableRecord
100
AcDbLayerTableRecord
  2
01___PRT_ALL_DTM_PLN
 70
0
 62
7
  6
CONTINUOUS
370
-3
390
F
  0
LAYER
  5
1FE
100
AcDbSymbolTableRecord
100
AcDbLayerTableRecord
  2
01___PRT_DEF_DTM_PLN
 70
0
 62
7
  6
CONTINUOUS
370
-3
390
F
  0
LAYER
  5
1FF
100
AcDbSymbolTableRecord
100
AcDbLayerTableRecord
  2
02___PRT_ALL_AXES
 70
0
 62
7
  6
CONTINUOUS
370
-3
390
F
  0
LAYER
  5
200
100
AcDbSymbolTableRecord
100
AcDbLayerTableRecord
  2
03___PRT_ALL_CURVES
 70
0
 62
7
  6
CONTINUOUS
370
-3
390
F
  0
LAYER
  5
201
100
AcDbSymbolTableRecord
100
AcDbLayerTableRecord
  2
04___PRT_ALL_DTM_PNT
 70
0
 62
7
  6
CONTINUOUS
370
-3
390
F
  0
LAYER
  5
202
100
AcDbSymbolTableRecord
100
AcDbLayerTableRecord
  2
05___PRT_ALL_DTM_CSYS
 70
0
 62
7
  6
CONTINUOUS
370
-3
390
F
  0
LAYER
  5
203
100
AcDbSymbolTableRecord
100
AcDbLayerTableRecord
  2
05___PRT_DEF_DTM_CSYS
 70
0
 62
7
  6
CONTINUOUS
370
-3
390
F
  0
LAYER
  5
204
100
AcDbSymbolTableRecord
100
AcDbLayerTableRecord
  2
06___PRT_ALL_SURFS
 70
0
 62
7
  6
CONTINUOUS
370
-3
390
F
  0
LAYER
  5
205
100
AcDbSymbolTableRecord
100
AcDbLayerTableRecord
  2
DATUM_PLANES
 70
0
 62
7
  6
CONTINUOUS
370
-3
390
F
  0
LAYER
  5
206
100
AcDbSymbolTableRecord
100
AcDbLayerTableRecord
  2
PORT_AREAS
 70
0
 62
7
  6
CONTINUOUS
370
-3
390
F
  0
LAYER
  5
207
100
AcDbSymbolTableRecord
100
AcDbLayerTableRecord
  2
SUNNBOMCOSMETIC
 70
0
 62
7
  6
CONTINUOUS
370
-3
390
F
  0
LAYER
  5
208
100
AcDbSymbolTableRecord
100
AcDbLayerTableRecord
  2
SUNNBOMSTAMPING
 70
0
 62
7
  6
CONTINUOUS
370
-3
390
F
  0
LAYER
  5
209
100
AcDbSymbolTableRecord
100
AcDbLayerTableRecord
  2
THREADS
 70
0
 62
7
  6
CONTINUOUS
370
-3
390
F
  0
ENDTAB
  0
TABLE
  2
STYLE
  5
3
100
AcDbSymbolTable
 70
1
  0
STYLE
  5
11
100
AcDbSymbolTableRecord
100
AcDbTextStyleTableRecord
  2
STANDARD
 70
0
 40
0.0
 41
0.8
 50
0.0
 71
0
 42
0.2
  3
txt
  4

  0
STYLE
  5
20A
100
AcDbSymbolTableRecord
100
AcDbTextStyleTableRecord
  2
TEXTSTYLE_1
 70
0
 40
0.0
 41
0.8
 50
0.0
 71
0
 42
0.2
  3
gdt
  4

  0
ENDTAB
  0
TABLE
  2
VIEW
  5
6
100
AcDbSymbolTable
 70
0
  0
ENDTAB
  0
TABLE
  2
UCS
  5
7
100
AcDbSymbolTable
 70
0
  0
ENDTAB
  0
TABLE
  2
APPID
  5
9
100
AcDbSymbolTable
 70
1
  0
APPID
  5
20B
100
AcDbSymbolTableRecord
100
AcDbRegAppTableRecord
  2
ACAD
 70
0
  0
ENDTAB
  0
TABLE
  2
BLOCK_RECORD
  5
1
100
AcDbSymbolTable
 70
0
  0
BLOCK_RECORD
  5
20C
100
AcDbSymbolTableRecord
100
AcDbBlockTableRecord
  2
*Model_Space
  0
BLOCK_RECORD
  5
20D
100
AcDbSymbolTableRecord
100
AcDbBlockTableRecord
  2
*Paper_Space
  0
BLOCK_RECORD
  5
20E
100
AcDbSymbolTableRecord
100
AcDbBlockTableRecord
  2
SUN_FIRST_THIRD_ANGLE_BL0
  0
BLOCK_RECORD
  5
20F
100
AcDbSymbolTableRecord
100
AcDbBlockTableRecord
  2
*T1
  0
BLOCK_RECORD
  5
210
100
AcDbSymbolTableRecord
100
AcDbBlockTableRecord
  2
*T2
  0
BLOCK_RECORD
  5
211
100
AcDbSymbolTableRecord
100
AcDbBlockTableRecord
  2
*T3
  0
ENDTAB
  0
TABLE
  2
DIMSTYLE
  5
A
100
AcDbSymbolTable
 70
1
100
AcDbDimStyleTable
 71
0
  0
DIMSTYLE
105
212
100
AcDbSymbolTableRecord
100
AcDbDimStyleTableRecord
  2
STANDARD
 70
0
  3

  4

 40
1.0
 41
0.1875
 42
0.0625
 43
0.38
 44
0.125
 45
0.0
 46
0.0
 47
0.001
 48
0.001
140
0.1
141
0.09
142
0.0
143
25.4
144
1.0
145
0.0
146
1.0
147
0.09
 71
0.0
 72
0.0
 73
1
 74
1
 75
0
 76
0
 77
0
 78
4
170
0
171
2
172
0
173
0
174
0
175
0
176
0
177
0
178
0
270
2
271
3
272
3
273
2
274
2
275
0
280
0
281
0
282
0
283
1
284
4
285
0
286
0
287
3
288
0
340
11
278
46
  0
ENDTAB
  0
ENDSEC
  0
SECTION
  2
BLOCKS
  0
BLOCK
  5
20
100
AcDbEntity
  8
0
100
AcDbBlockBegin
  2
*Model_Space
 70
0
 10
0.0
 20
0.0
 30
0.0
  3
*Model_Space
  1

  0
ENDBLK
  5
21
100
AcDbEntity
  8
0
100
AcDbBlockEnd
  0
BLOCK
  5
1C
100
AcDbEntity
  8
0
100
AcDbBlockBegin
  2
*Paper_Space
 70
0
 10
0.0
 20
0.0
 30
0.0
  3
*Paper_Space
  1

  0
ENDBLK
  5
1D
100
AcDbEntity
  8
0
100
AcDbBlockEnd
  0
BLOCK
  5
213
100
AcDbEntity
  8
0
100
AcDbBlockBegin
 62
2
  6
CONTINUOUS
  2
SUN_FIRST_THIRD_ANGLE_BL0
 70
64
 10
20.4816717061
 20
1.2289683772
  3
SUN_FIRST_THIRD_ANGLE_BL0
  1

  0
TEXT
  5
214
100
AcDbEntity
  8
0
100
AcDbText
 62
2
  6
CONTINUOUS
 10
19.4750896608
 20
1.4136269581
  7
STANDARD
 40
0.08
  1
FIRST ANGLE
 41
0.8
 72
0
100
AcDbText
  0
TEXT
  5
215
100
AcDbEntity
  8
0
100
AcDbText
 62
2
  6
CONTINUOUS
 10
20.7842537513
 20
1.4047600029
  7
STANDARD
 40
0.08
  1
THIRD ANGLE
 41
0.8
 72
0
100
AcDbText
  0
LINE
  5
216
100
AcDbEntity
  8
0
100
AcDbLine
 62
7
  6
CONTINUOUS
 10
19.4767170086
 20
1.1727031207
 11
19.6334271527
 21
1.1717972817
  0
LINE
  5
217
100
AcDbEntity
  8
0
100
AcDbLine
 62
7
  6
CONTINUOUS
 10
19.6596964832
 20
1.1717972817
 11
19.6950230232
 21
1.171593082
  0
LINE
  5
218
100
AcDbEntity
  8
0
100
AcDbLine
 62
7
  6
CONTINUOUS
 10
19.7194818561
 20
1.1708914427
 11
19.8852396156
 21
1.1699333054
  0
LINE
  5
219
100
AcDbEntity
  8
0
100
AcDbLine
 62
7
  6
CONTINUOUS
 10
19.4758111696
 20
1.2723454088
 11
19.88525039
 21
1.3511534004
  0
LINE
  5
21A
100
AcDbEntity
  8
0
100
AcDbLine
 62
7
  6
CONTINUOUS
 10
19.88525039
 20
1.3511534004
 11
19.8831348489
 21
0.9851647912
  0
LINE
  5
21B
100
AcDbEntity
  8
0
100
AcDbLine
 62
7
  6
CONTINUOUS
 10
19.8831348489
 20
0.9851647912
 11
19.4767170086
 21
1.0658141206
  0
LINE
  5
21C
100
AcDbEntity
  8
0
100
AcDbLine
 62
7
  6
CONTINUOUS
 10
19.4767170086
 20
1.0658141206
 11
19.4779056764
 21
1.2714536432
  0
CIRCLE
  5
21D
100
AcDbEntity
  8
0
100
AcDbCircle
 62
7
  6
CONTINUOUS
 10
20.2068232291
 20
1.1717972817
 40
0.175742101
  0
CIRCLE
  5
21E
100
AcDbEntity
  8
0
100
AcDbCircle
 62
7
  6
CONTINUOUS
 10
20.2068232291
 20
1.1717972817
 40
0.1005522074
  0
LINE
  5
21F
100
AcDbEntity
  8
0
100
AcDbLine
 62
7
  6
CONTINUOUS
 10
20.2077290681
 20
1.3756110529
 11
20.2071171714
 21
1.2379342989
  0
LINE
  5
220
100
AcDbEntity
  8
0
100
AcDbLine
 62
7
  6
CONTINUOUS
 10
20.2077290681
 20
1.2016899681
 11
20.2074674401
 21
1.1428236749
  0
LINE
  5
221
100
AcDbEntity
  8
0
100
AcDbLine
 62
7
  6
CONTINUOUS
 10
20.208634907
 20
1.101141841
 11
20.2080230104
 21
0.963465087
  0
LINE
  5
222
100
AcDbEntity
  8
0
100
AcDbLine
 62
7
  6
CONTINUOUS
 10
20.0066328138
 20
1.1745147986
 11
20.1443095678
 21
1.1739029019
  0
LINE
  5
223
100
AcDbEntity
  8
0
100
AcDbLine
 62
7
  6
CONTINUOUS
 10
20.1832714155
 20
1.1727031207
 11
20.238153505
 21
1.172335442
  0
LINE
  5
224
100
AcDbEntity
  8
0
100
AcDbLine
 62
7
  6
CONTINUOUS
 10
20.2756669918
 20
1.1717972817
 11
20.407916871
 21
1.1712095044
  0
CIRCLE
  5
225
100
AcDbEntity
  8
0
100
AcDbCircle
 62
7
  6
CONTINUOUS
 10
20.7509457401
 20
1.1693297793
 40
0.1722024983
  0
CIRCLE
  5
226
100
AcDbEntity
  8
0
100
AcDbCircle
 62
7
  6
CONTINUOUS
 10
20.7509457401
 20
1.1693297793
 40
0.0985164967
  0
LINE
  5
227
100
AcDbEntity
  8
0
100
AcDbLine
 62
7
  6
CONTINUOUS
 10
20.7169767782
 20
1.170462078
 11
20.7825395137
 21
1.1682766535
  0
LINE
  5
228
100
AcDbEntity
  8
0
100
AcDbLine
 62
7
  6
CONTINUOUS
 10
20.8177513651
 20
1.1693297793
 11
20.947965719
 21
1.1693297793
  0
LINE
  5
229
100
AcDbEntity
  8
0
100
AcDbLine
 62
7
  6
CONTINUOUS
 10
20.6875370113
 20
1.170462078
 11
20.5573226574
 21
1.170462078
  0
LINE
  5
22A
100
AcDbEntity
  8
0
100
AcDbLine
 62
7
  6
CONTINUOUS
 10
20.7486811426
 20
1.1987695462
 11
20.7486811426
 21
1.1432869085
  0
LINE
  5
22B
100
AcDbEntity
  8
0
100
AcDbLine
 62
7
  6
CONTINUOUS
 10
20.7498134414
 20
1.1059210505
 11
20.7498134414
 21
0.9757066966
  0
LINE
  5
22C
100
AcDbEntity
  8
0
100
AcDbLine
 62
7
  6
CONTINUOUS
 10
20.7486811426
 20
1.2338708068
 11
20.7486811426
 21
1.3640851607
  0
LINE
  5
22D
100
AcDbEntity
  8
0
100
AcDbLine
 62
7
  6
CONTINUOUS
 10
21.0702539817
 20
1.2701043662
 11
21.4790138229
 21
1.3448360823
  0
LINE
  5
22E
100
AcDbEntity
  8
0
100
AcDbLine
 62
7
  6
CONTINUOUS
 10
21.4790138229
 20
1.3448360823
 11
21.4790138229
 21
0.9779712941
  0
LINE
  5
22F
100
AcDbEntity
  8
0
100
AcDbLine
 62
7
  6
CONTINUOUS
 10
21.4790138229
 20
0.9779712941
 11
21.069121683
 21
1.0617614
  0
LINE
  5
230
100
AcDbEntity
  8
0
100
AcDbLine
 62
7
  6
CONTINUOUS
 10
21.0702539817
 20
1.2701043662
 11
21.069121683
 21
1.0617614
  0
LINE
  5
231
100
AcDbEntity
  8
0
100
AcDbLine
 62
7
  6
CONTINUOUS
 10
21.4790138229
 20
1.1693297793
 11
21.3159628059
 21
1.1693297793
  0
LINE
  5
232
100
AcDbEntity
  8
0
100
AcDbLine
 62
7
  6
CONTINUOUS
 10
21.2876553377
 20
1.1693297793
 11
21.2502894796
 21
1.1693297793
  0
LINE
  5
233
100
AcDbEntity
  8
0
100
AcDbLine
 62
7
  6
CONTINUOUS
 10
21.2208497126
 20
1.1659328831
 11
21.0713862804
 21
1.1659328831
  0
LINE
  5
234
100
AcDbEntity
  8
0
100
AcDbLine
 62
7
  6
CONTINUOUS
 10
20.4796138713
 20
1.5284908897
 11
20.4766766948
 21
0.9294458646
  0
ENDBLK
  5
235
100
AcDbEntity
  8
0
  6
BYBLOCK
 62
0
100
AcDbBlockEnd
  0
BLOCK
  5
236
100
AcDbEntity
  8
0
100
AcDbBlockBegin
  2
*T1
 70
1
 10
0.0
 20
0.0
  3
*T1
  1

  0
LINE
  5
237
100
AcDbEntity
  8
0
100
AcDbLine
 62
2
  6
CONTINUOUS
 10
9.275
 20
0.0
 11
-0.0
 21
0.0
  0
LINE
  5
238
100
AcDbEntity
  8
0
100
AcDbLine
 62
2
  6
CONTINUOUS
 10
9.275
 20
0.0
 11
9.275
 21
1.25
  0
LINE
  5
239
100
AcDbEntity
  8
0
100
AcDbLine
 62
2
  6
CONTINUOUS
 10
9.275
 20
0.625
 11
-0.0
 21
0.625
  0
LINE
  5
23A
100
AcDbEntity
  8
0
100
AcDbLine
 62
2
  6
CONTINUOUS
 10
9.275
 20
1.25
 11
-0.0
 21
1.25
  0
LINE
  5
23B
100
AcDbEntity
  8
0
100
AcDbLine
 62
2
  6
CONTINUOUS
 10
6.8
 20
0.0
 11
6.8
 21
1.25
  0
LINE
  5
23C
100
AcDbEntity
  8
0
100
AcDbLine
 62
2
  6
CONTINUOUS
 10
6.4
 20
0.0
 11
6.4
 21
0.625
  0
LINE
  5
23D
100
AcDbEntity
  8
0
100
AcDbLine
 62
2
  6
CONTINUOUS
 10
5.9
 20
0.0
 11
5.9
 21
0.625
  0
LINE
  5
23E
100
AcDbEntity
  8
0
100
AcDbLine
 62
2
  6
CONTINUOUS
 10
5.2
 20
0.0
 11
5.2
 21
0.625
  0
LINE
  5
23F
100
AcDbEntity
  8
0
100
AcDbLine
 62
2
  6
CONTINUOUS
 10
4.1
 20
0.0
 11
4.1
 21
1.25
  0
LINE
  5
240
100
AcDbEntity
  8
0
100
AcDbLine
 62
2
  6
CONTINUOUS
 10
-0.0
 20
0.0
 11
-0.0
 21
1.25
  0
MTEXT
  5
241
100
AcDbEntity
  8
0
100
AcDbMText
 62
2
  6
CONTINUOUS
  7
STANDARD
 71
2
 72
1
 10
6.6
 20
0.325
 30
0.0
 11
1.0
 21
0.0
 31
0.0
 44
0.9
  1
2
 40
0.125
 41
0.2
  0
MTEXT
  5
242
100
AcDbEntity
  8
0
100
AcDbMText
 62
2
  6
CONTINUOUS
  7
STANDARD
 71
2
 72
1
 10
6.15
 20
0.325
 30
0.0
 11
1.0
 21
0.0
 31
0.0
 44
0.9
  1
C
 40
0.125
 41
0.2
  0
MTEXT
  5
243
100
AcDbEntity
  8
0
100
AcDbMText
 62
2
  6
CONTINUOUS
  7
STANDARD
 71
2
 72
1
 10
5.55
 20
0.325
 30
0.0
 11
1.0
 21
0.0
 31
0.0
 44
0.9
  1
1.000
 40
0.125
 41
1.0
  0
MTEXT
  5
244
100
AcDbEntity
  8
0
100
AcDbMText
 62
2
  6
CONTINUOUS
  7
STANDARD
 71
2
 72
1
 10
4.65
 20
0.325
 30
0.0
 11
1.0
 21
0.0
 31
0.0
 44
0.9
  1
Aug-13-19
 40
0.125
 41
1.8
  0
MTEXT
  5
245
100
AcDbEntity
  8
0
100
AcDbMText
 62
2
  6
CONTINUOUS
  7
STANDARD
 71
2
 72
1
 10
2.05
 20
0.4625
 30
0.0
 11
1.0
 21
0.0
 31
0.0
 44
0.9
  1
T-11A Line mount\P(See Technical Data for Body Features)
 40
0.125
 41
7.6
  0
MTEXT
  5
246
100
AcDbEntity
  8
0
100
AcDbMText
 62
2
  6
CONTINUOUS
  7
STANDARD
 71
1
 72
1
 10
6.45
 20
0.5625
 30
0.0
 11
1.0
 21
0.0
 31
0.0
 44
0.9
  1
SHEET
 40
0.06
 41
0.48
  0
MTEXT
  5
247
100
AcDbEntity
  8
0
100
AcDbMText
 62
2
  6
CONTINUOUS
  7
STANDARD
 71
1
 72
1
 10
5.95
 20
0.5625
 30
0.0
 11
1.0
 21
0.0
 31
0.0
 44
0.9
  1
DWG SIZE
 40
0.06
 41
0.768
  0
MTEXT
  5
248
100
AcDbEntity
  8
0
100
AcDbMText
 62
2
  6
CONTINUOUS
  7
STANDARD
 71
1
 72
1
 10
5.25
 20
0.5625
 30
0.0
 11
1.0
 21
0.0
 31
0.0
 44
0.9
  1
SCALE
 40
0.06
 41
0.48
  0
MTEXT
  5
249
100
AcDbEntity
  8
0
100
AcDbMText
 62
2
  6
CONTINUOUS
  7
STANDARD
 71
1
 72
1
 10
4.15
 20
0.5625
 30
0.0
 11
1.0
 21
0.0
 31
0.0
 44
0.9
  1
DATE
 40
0.06
 41
0.384
  0
MTEXT
  5
24A
100
AcDbEntity
  8
0
100
AcDbMText
 62
2
  6
CONTINUOUS
  7
STANDARD
 71
1
 72
1
 10
0.05
 20
0.5625
 30
0.0
 11
1.0
 21
0.0
 31
0.0
 44
0.9
  1
DESCRIPTION
 40
0.06
 41
1.056
  0
MTEXT
  5
24B
100
AcDbEntity
  8
0
100
AcDbMText
 62
2
  6
CONTINUOUS
  7
STANDARD
 71
2
 72
1
 10
5.45
 20
1.0375
 30
0.0
 11
1.0
 21
0.0
 31
0.0
 44
0.9
  1
ALL DIMENSIONS IN INCH\PVIEWS ARE THIRD ANGLE
 40
0.12
 41
4.224
  0
MTEXT
  5
24C
100
AcDbEntity
  8
0
100
AcDbMText
 62
2
  6
CONTINUOUS
  7
STANDARD
 71
2
 72
1
 10
2.05
 20
0.95
 30
0.0
 11
1.0
 21
0.0
 31
0.0
 44
0.9
  1
E2V
 40
0.125
 41
0.6
  0
MTEXT
  5
24D
100
AcDbEntity
  8
0
100
AcDbMText
 62
2
  6
CONTINUOUS
  7
STANDARD
 71
1
 72
1
 10
0.05
 20
1.1875
 30
0.0
 11
1.0
 21
0.0
 31
0.0
 44
0.9
  1
MODEL
 40
0.06
 41
0.48
  0
ENDBLK
  5
24E
100
AcDbEntity
  8
0
  6
BYBLOCK
 62
0
100
AcDbBlockEnd
  0
BLOCK
  5
24F
100
AcDbEntity
  8
0
100
AcDbBlockBegin
  2
*T2
 70
1
 10
0.0
 20
0.0
  3
*T2
  1

  0
LINE
  5
250
100
AcDbEntity
  8
0
100
AcDbLine
 62
2
  6
CONTINUOUS
 10
0.0
 20
0.0
 11
9.055
 21
0.0
  0
LINE
  5
251
100
AcDbEntity
  8
0
100
AcDbLine
 62
2
  6
CONTINUOUS
 10
0.0
 20
0.0
 11
0.0
 21
-2.594
  0
LINE
  5
252
100
AcDbEntity
  8
0
100
AcDbLine
 62
2
  6
CONTINUOUS
 10
0.0
 20
-0.344
 11
9.055
 21
-0.344
  0
LINE
  5
253
100
AcDbEntity
  8
0
100
AcDbLine
 62
2
  6
CONTINUOUS
 10
0.0
 20
-0.594
 11
9.055
 21
-0.594
  0
LINE
  5
254
100
AcDbEntity
  8
0
100
AcDbLine
 62
2
  6
CONTINUOUS
 10
0.0
 20
-0.844
 11
9.055
 21
-0.844
  0
LINE
  5
255
100
AcDbEntity
  8
0
100
AcDbLine
 62
2
  6
CONTINUOUS
 10
0.0
 20
-1.094
 11
9.055
 21
-1.094
  0
LINE
  5
256
100
AcDbEntity
  8
0
100
AcDbLine
 62
2
  6
CONTINUOUS
 10
0.0
 20
-1.344
 11
9.055
 21
-1.344
  0
LINE
  5
257
100
AcDbEntity
  8
0
100
AcDbLine
 62
2
  6
CONTINUOUS
 10
0.0
 20
-1.594
 11
9.055
 21
-1.594
  0
LINE
  5
258
100
AcDbEntity
  8
0
100
AcDbLine
 62
2
  6
CONTINUOUS
 10
0.0
 20
-1.844
 11
9.055
 21
-1.844
  0
LINE
  5
259
100
AcDbEntity
  8
0
100
AcDbLine
 62
2
  6
CONTINUOUS
 10
0.0
 20
-2.094
 11
9.055
 21
-2.094
  0
LINE
  5
25A
100
AcDbEntity
  8
0
100
AcDbLine
 62
2
  6
CONTINUOUS
 10
0.0
 20
-2.344
 11
9.055
 21
-2.344
  0
LINE
  5
25B
100
AcDbEntity
  8
0
100
AcDbLine
 62
2
  6
CONTINUOUS
 10
0.0
 20
-2.594
 11
9.055
 21
-2.594
  0
LINE
  5
25C
100
AcDbEntity
  8
0
100
AcDbLine
 62
2
  6
CONTINUOUS
 10
3.055
 20
0.0
 11
3.055
 21
-2.594
  0
LINE
  5
25D
100
AcDbEntity
  8
0
100
AcDbLine
 62
2
  6
CONTINUOUS
 10
9.055
 20
0.0
 11
9.055
 21
-2.594
  0
MTEXT
  5
25E
100
AcDbEntity
  8
0
100
AcDbMText
 62
2
  6
CONTINUOUS
  7
STANDARD
 71
2
 72
1
 10
1.5275
 20
-0.0995
 30
0.0
 11
1.0
 21
0.0
 31
0.0
 44
0.9
  1
Technical Data
 40
0.145
 41
3.248
  0
MTEXT
  5
25F
100
AcDbEntity
  8
0
100
AcDbMText
 62
2
  6
CONTINUOUS
  7
STANDARD
 71
2
 72
1
 10
4.555
 20
-0.0995
 30
0.0
 11
1.0
 21
0.0
 31
0.0
 44
0.9
  1
U.S. Units
 40
0.145
 41
2.32
  0
MTEXT
  5
260
100
AcDbEntity
  8
0
100
AcDbMText
 62
2
  6
CONTINUOUS
  7
STANDARD
 71
2
 72
1
 10
7.555
 20
-0.0995
 30
0.0
 11
1.0
 21
0.0
 31
0.0
 44
0.9
  1
Metric Units
 40
0.145
 41
2.784
  0
MTEXT
  5
261
100
AcDbEntity
  8
0
100
AcDbMText
 62
2
  6
CONTINUOUS
  7
STANDARD
 71
2
 72
1
 10
1.5275
 20
-0.4065
 30
0.0
 11
1.0
 21
0.0
 31
0.0
 44
0.9
  1
Cavity
 40
0.125
 41
1.2
  0
MTEXT
  5
262
100
AcDbEntity
  8
0
100
AcDbMText
 62
2
  6
CONTINUOUS
  7
STANDARD
 71
2
 72
1
 10
6.055
 20
-0.4065
 30
0.0
 11
1.0
 21
0.0
 31
0.0
 44
0.9
  1
T-11A
 40
0.125
 41
1.0
  0
MTEXT
  5
263
100
AcDbEntity
  8
0
100
AcDbMText
 62
2
  6
CONTINUOUS
  7
STANDARD
 71
2
 72
1
 10
1.5275
 20
-0.6565
 30
0.0
 11
1.0
 21
0.0
 31
0.0
 44
0.9
  1
Body Features
 40
0.125
 41
2.6
  0
MTEXT
  5
264
100
AcDbEntity
  8
0
100
AcDbMText
 62
2
  6
CONTINUOUS
  7
STANDARD
 71
2
 72
1
 10
6.055
 20
-0.6565
 30
0.0
 11
1.0
 21
0.0
 31
0.0
 44
0.9
  1
Ninety degree with reverse flow check - reducing
 40
0.125
 41
9.6
  0
MTEXT
  5
265
100
AcDbEntity
  8
0
100
AcDbMText
 62
2
  6
CONTINUOUS
  7
STANDARD
 71
2
 72
1
 10
1.5275
 20
-0.9065
 30
0.0
 11
1.0
 21
0.0
 31
0.0
 44
0.9
  1
Body Type
 40
0.125
 41
1.8
  0
MTEXT
  5
266
100
AcDbEntity
  8
0
100
AcDbMText
 62
2
  6
CONTINUOUS
  7
STANDARD
 71
2
 72
1
 10
6.055
 20
-0.9065
 30
0.0
 11
1.0
 21
0.0
 31
0.0
 44
0.9
  1
Line mount
 40
0.125
 41
2.0
  0
MTEXT
  5
267
100
AcDbEntity
  8
0
100
AcDbMText
 62
2
  6
CONTINUOUS
  7
STANDARD
 71
2
 72
1
 10
1.5275
 20
-1.1565
 30
0.0
 11
1.0
 21
0.0
 31
0.0
 44
0.9
  1
Interface
 40
0.125
 41
1.8
  0
MTEXT
  5
268
100
AcDbEntity
  8
0
100
AcDbMText
 62
2
  6
CONTINUOUS
  7
STANDARD
 71
2
 72
1
 10
6.055
 20
-1.1565
 30
0.0
 11
1.0
 21
0.0
 31
0.0
 44
0.9
  1
None
 40
0.125
 41
0.8
  0
MTEXT
  5
269
100
AcDbEntity
  8
0
100
AcDbMText
 62
2
  6
CONTINUOUS
  7
STANDARD
 71
2
 72
1
 10
1.5275
 20
-1.4065
 30
0.0
 11
1.0
 21
0.0
 31
0.0
 44
0.9
  1
Open Cavity Quantity
 40
0.125
 41
4.0
  0
MTEXT
  5
26A
100
AcDbEntity
  8
0
100
AcDbMText
 62
2
  6
CONTINUOUS
  7
STANDARD
 71
2
 72
1
 10
6.055
 20
-1.4065
 30
0.0
 11
1.0
 21
0.0
 31
0.0
 44
0.9
  1
1
 40
0.125
 41
0.2
  0
MTEXT
  5
26B
100
AcDbEntity
  8
0
100
AcDbMText
 62
2
  6
CONTINUOUS
  7
STANDARD
 71
2
 72
1
 10
1.5275
 20
-1.6565
 30
0.0
 11
1.0
 21
0.0
 31
0.0
 44
0.9
  1
Weight
 40
0.125
 41
1.2
  0
MTEXT
  5
26C
100
AcDbEntity
  8
0
100
AcDbMText
 62
2
  6
CONTINUOUS
  7
STANDARD
 71
2
 72
1
 10
4.555
 20
-1.6565
 30
0.0
 11
1.0
 21
0.0
 31
0.0
 44
0.9
  1
1.194 lb.
 40
0.125
 41
1.8
  0
MTEXT
  5
26D
100
AcDbEntity
  8
0
100
AcDbMText
 62
2
  6
CONTINUOUS
  7
STANDARD
 71
2
 72
1
 10
7.555
 20
-1.6565
 30
0.0
 11
1.0
 21
0.0
 31
0.0
 44
0.9
  1
0,542 kg.
 40
0.125
 41
1.8
  0
MTEXT
  5
26E
100
AcDbEntity
  8
0
100
AcDbMText
 62
2
  6
CONTINUOUS
  7
STANDARD
 71
2
 72
1
 10
1.5275
 20
-1.9065
 30
0.0
 11
1.0
 21
0.0
 31
0.0
 44
0.9
  1
Mounting Hole Diameter
 40
0.125
 41
4.4
  0
MTEXT
  5
26F
100
AcDbEntity
  8
0
100
AcDbMText
 62
2
  6
CONTINUOUS
  7
STANDARD
 71
2
 72
1
 10
4.555
 20
-1.9065
 30
0.0
 11
1.0
 21
0.0
 31
0.0
 44
0.9
  1
.34 in.
 40
0.125
 41
1.4
  0
MTEXT
  5
270
100
AcDbEntity
  8
0
100
AcDbMText
 62
2
  6
CONTINUOUS
  7
STANDARD
 71
2
 72
1
 10
7.555
 20
-1.9065
 30
0.0
 11
1.0
 21
0.0
 31
0.0
 44
0.9
  1
8.6 mm
 40
0.125
 41
1.2
  0
MTEXT
  5
271
100
AcDbEntity
  8
0
100
AcDbMText
 62
2
  6
CONTINUOUS
  7
STANDARD
 71
2
 72
1
 10
1.5275
 20
-2.1565
 30
0.0
 11
1.0
 21
0.0
 31
0.0
 44
0.9
  1
Mounting Hole Depth
 40
0.125
 41
3.8
  0
MTEXT
  5
272
100
AcDbEntity
  8
0
100
AcDbMText
 62
2
  6
CONTINUOUS
  7
STANDARD
 71
2
 72
1
 10
6.055
 20
-2.1565
 30
0.0
 11
1.0
 21
0.0
 31
0.0
 44
0.9
  1
Through
 40
0.125
 41
1.4
  0
MTEXT
  5
273
100
AcDbEntity
  8
0
100
AcDbMText
 62
2
  6
CONTINUOUS
  7
STANDARD
 71
2
 72
1
 10
1.5275
 20
-2.4065
 30
0.0
 11
1.0
 21
0.0
 31
0.0
 44
0.9
  1
Mounting Hole Quantity
 40
0.125
 41
4.4
  0
MTEXT
  5
274
100
AcDbEntity
  8
0
100
AcDbMText
 62
2
  6
CONTINUOUS
  7
STANDARD
 71
2
 72
1
 10
6.055
 20
-2.4065
 30
0.0
 11
1.0
 21
0.0
 31
0.0
 44
0.9
  1
2
 40
0.125
 41
0.2
  0
ENDBLK
  5
275
100
AcDbEntity
  8
0
  6
BYBLOCK
 62
0
100
AcDbBlockEnd
  0
BLOCK
  5
276
100
AcDbEntity
  8
0
100
AcDbBlockBegin
  2
*T3
 70
1
 10
0.0
 20
0.0
  3
*T3
  1

  0
LINE
  5
277
100
AcDbEntity
  8
0
100
AcDbLine
 62
2
  6
CONTINUOUS
 10
0.0
 20
0.0
 11
4.6
 21
0.0
  0
LINE
  5
278
100
AcDbEntity
  8
0
100
AcDbLine
 62
2
  6
CONTINUOUS
 10
0.0
 20
0.0
 11
0.0
 21
-1.43775
  0
LINE
  5
279
100
AcDbEntity
  8
0
100
AcDbLine
 62
2
  6
CONTINUOUS
 10
0.0
 20
-0.34375
 11
4.6
 21
-0.34375
  0
LINE
  5
27A
100
AcDbEntity
  8
0
100
AcDbLine
 62
2
  6
CONTINUOUS
 10
0.0
 20
-0.68775
 11
4.6
 21
-0.68775
  0
LINE
  5
27B
100
AcDbEntity
  8
0
100
AcDbLine
 62
2
  6
CONTINUOUS
 10
0.0
 20
-0.93775
 11
4.6
 21
-0.93775
  0
LINE
  5
27C
100
AcDbEntity
  8
0
100
AcDbLine
 62
2
  6
CONTINUOUS
 10
0.0
 20
-1.18775
 11
4.6
 21
-1.18775
  0
LINE
  5
27D
100
AcDbEntity
  8
0
100
AcDbLine
 62
2
  6
CONTINUOUS
 10
0.0
 20
-1.43775
 11
4.6
 21
-1.43775
  0
LINE
  5
27E
100
AcDbEntity
  8
0
100
AcDbLine
 62
2
  6
CONTINUOUS
 10
1.3
 20
-0.34375
 11
1.3
 21
-1.43775
  0
LINE
  5
27F
100
AcDbEntity
  8
0
100
AcDbLine
 62
2
  6
CONTINUOUS
 10
3.3
 20
-0.34375
 11
3.3
 21
-1.43775
  0
LINE
  5
280
100
AcDbEntity
  8
0
100
AcDbLine
 62
2
  6
CONTINUOUS
 10
4.6
 20
0.0
 11
4.6
 21
-1.43775
  0
MTEXT
  5
281
100
AcDbEntity
  8
0
100
AcDbMText
 62
2
  6
CONTINUOUS
  7
STANDARD
 71
2
 72
1
 10
2.3
 20
-0.099375
 30
0.0
 11
1.0
 21
0.0
 31
0.0
 44
0.9
  1
Port Headings
 40
0.145
 41
3.016
  0
MTEXT
  5
282
100
AcDbEntity
  8
0
100
AcDbMText
 62
2
  6
CONTINUOUS
  7
STANDARD
 71
2
 72
1
 10
0.65
 20
-0.44325
 30
0.0
 11
1.0
 21
0.0
 31
0.0
 44
0.9
  1
Product
 40
0.145
 41
1.624
  0
MTEXT
  5
283
100
AcDbEntity
  8
0
100
AcDbMText
 62
2
  6
CONTINUOUS
  7
STANDARD
 71
2
 72
1
 10
2.3
 20
-0.44325
 30
0.0
 11
1.0
 21
0.0
 31
0.0
 44
0.9
  1
Port
 40
0.145
 41
0.928
  0
MTEXT
  5
284
100
AcDbEntity
  8
0
100
AcDbMText
 62
2
  6
CONTINUOUS
  7
STANDARD
 71
2
 72
1
 10
3.95
 20
-0.44325
 30
0.0
 11
1.0
 21
0.0
 31
0.0
 44
0.9
  1
Size
 40
0.145
 41
0.928
  0
MTEXT
  5
285
100
AcDbEntity
  8
0
100
AcDbMText
 62
2
  6
CONTINUOUS
  7
STANDARD
 71
2
 72
1
 10
0.65
 20
-0.75025
 30
0.0
 11
1.0
 21
0.0
 31
0.0
 44
0.9
  1
E2V
 40
0.125
 41
0.6
  0
MTEXT
  5
286
100
AcDbEntity
  8
0
100
AcDbMText
 62
2
  6
CONTINUOUS
  7
STANDARD
 71
2
 72
1
 10
2.3
 20
-0.75025
 30
0.0
 11
1.0
 21
0.0
 31
0.0
 44
0.9
  1
Ports 1 &  2
 40
0.125
 41
2.4
  0
MTEXT
  5
287
100
AcDbEntity
  8
0
100
AcDbMText
 62
2
  6
CONTINUOUS
  7
STANDARD
 71
2
 72
1
 10
3.95
 20
-0.75025
 30
0.0
 11
1.0
 21
0.0
 31
0.0
 44
0.9
  1
1/2" BSPP
 40
0.125
 41
1.8
  0
MTEXT
  5
288
100
AcDbEntity
  8
0
100
AcDbMText
 62
2
  6
CONTINUOUS
  7
STANDARD
 71
2
 72
1
 10
0.65
 20
-1.00025
 30
0.0
 11
1.0
 21
0.0
 31
0.0
 44
0.9
  1
E2V
 40
0.125
 41
0.6
  0
MTEXT
  5
289
100
AcDbEntity
  8
0
100
AcDbMText
 62
2
  6
CONTINUOUS
  7
STANDARD
 71
2
 72
1
 10
2.3
 20
-1.00025
 30
0.0
 11
1.0
 21
0.0
 31
0.0
 44
0.9
  1
Port 3
 40
0.125
 41
1.2
  0
MTEXT
  5
28A
100
AcDbEntity
  8
0
100
AcDbMText
 62
2
  6
CONTINUOUS
  7
STANDARD
 71
2
 72
1
 10
3.95
 20
-1.00025
 30
0.0
 11
1.0
 21
0.0
 31
0.0
 44
0.9
  1
1/4" BSPP
 40
0.125
 41
1.8
  0
MTEXT
  5
28B
100
AcDbEntity
  8
0
100
AcDbMText
 62
2
  6
CONTINUOUS
  7
STANDARD
 71
2
 72
1
 10
0.65
 20
-1.25025
 30
0.0
 11
1.0
 21
0.0
 31
0.0
 44
0.9
  1
E2V
 40
0.125
 41
0.6
  0
MTEXT
  5
28C
100
AcDbEntity
  8
0
100
AcDbMText
 62
2
  6
CONTINUOUS
  7
STANDARD
 71
2
 72
1
 10
2.3
 20
-1.25025
 30
0.0
 11
1.0
 21
0.0
 31
0.0
 44
0.9
  1
Gage Port
 40
0.125
 41
1.8
  0
MTEXT
  5
28D
100
AcDbEntity
  8
0
100
AcDbMText
 62
2
  6
CONTINUOUS
  7
STANDARD
 71
2
 72
1
 10
3.95
 20
-1.25025
 30
0.0
 11
1.0
 21
0.0
 31
0.0
 44
0.9
  1
1/4" BSPP
 40
0.125
 41
1.8
  0
ENDBLK
  5
28E
100
AcDbEntity
  8
0
  6
BYBLOCK
 62
0
100
AcDbBlockEnd
  0
ENDSEC
  0
SECTION
  2
ENTITIES
  0
IMAGE
  5
28F
100
AcDbEntity
  8
0
100
AcDbRasterImage
 62
7
  6
CONTINUOUS
 10
19.2297077316
 20
0.3094318264
 30
0.0
 11
0.0066666667
 21
0.0
 31
0.0
 12
0.0
 22
0.0066666667
 32
0.0
 13
369.0
 23
92.0
340
       395
 70
9
280
0
281
50
282
50
283
0
360
       38F
 71
1
 91
2
 14
-0.5
 24
-0.5
 14
368.5
 24
91.5
  0
INSERT
  5
290
100
AcDbEntity
  8
0
100
AcDbBlockReference
 62
2
  6
CONTINUOUS
  2
SUN_FIRST_THIRD_ANGLE_BL0
 10
20.4816717061
 20
1.2289683772
  0
ACAD_TABLE
  5
291
100
AcDbEntity
  8
0
 62
2
  6
CONTINUOUS
100
AcDbBlockReference
  2
*T1
 10
12.42375
 20
0.30125
 30
0.0
100
AcDbTable
342
       397
343
20F
 11
1.0
 21
0.0
 31
0.0
 90
6
 91
4
 92
6
 93
20
 94
0
 95
0
 96
0
 70
1
 41
0.0
141
0.525
141
0.1
141
0.525
141
0.1
142
4.1
142
1.1
142
0.7
142
0.5
142
0.4
142
2.475
171
1
172
0
173
0
174
0
175
1
176
1
 91
33
178
0
145
0.0
301
CELL_VALUE
 90
4
  1
T-11A Line mount\P(See Technical Data for Body Features)
304
ACVALUE_END
170
2
140
0.125
171
1
172
0
173
0
174
0
175
1
176
1
 91
33
178
0
145
0.0
301
CELL_VALUE
 90
4
  1
Aug-13-19
304
ACVALUE_END
170
5
140
0.125
171
1
172
0
173
0
174
0
175
1
176
1
 91
33
178
0
145
0.0
301
CELL_VALUE
 90
4
  1
1.000
304
ACVALUE_END
170
5
140
0.125
171
1
172
0
173
0
174
0
175
1
176
1
 91
33
178
0
145
0.0
301
CELL_VALUE
 90
4
  1
C
304
ACVALUE_END
170
5
140
0.125
171
1
172
0
173
0
174
0
175
1
176
1
 91
33
178
0
145
0.0
301
CELL_VALUE
 90
4
  1
2
304
ACVALUE_END
170
5
140
0.125
171
1
172
0
173
0
174
0
175
1
176
1
 91
33
178
0
145
0.0
301
CELL_VALUE
 90
4
  1
 
304
ACVALUE_END
170
1
140
0.125
171
1
172
0
173
0
174
0
175
1
176
1
 91
33
178
0
145
0.0
301
CELL_VALUE
 90
4
  1
DESCRIPTION
304
ACVALUE_END
170
1
140
0.06
171
1
172
0
173
0
174
0
175
1
176
1
 91
33
178
0
145
0.0
301
CELL_VALUE
 90
4
  1
DATE
304
ACVALUE_END
170
1
140
0.06
171
1
172
0
173
0
174
0
175
1
176
1
 91
33
178
0
145
0.0
301
CELL_VALUE
 90
4
  1
SCALE
304
ACVALUE_END
170
1
140
0.06
171
1
172
0
173
0
174
0
175
1
176
1
 91
33
178
0
145
0.0
301
CELL_VALUE
 90
4
  1
DWG SIZE
304
ACVALUE_END
170
1
140
0.06
171
1
172
0
173
0
174
0
175
1
176
1
 91
33
178
0
145
0.0
301
CELL_VALUE
 90
4
  1
SHEET
304
ACVALUE_END
170
1
140
0.06
171
1
172
0
173
0
174
0
175
1
176
1
 91
33
178
0
145
0.0
301
CELL_VALUE
 90
4
  1
 
304
ACVALUE_END
170
1
140
0.125
171
1
172
0
173
0
174
0
175
1
176
1
 91
33
178
0
145
0.0
301
CELL_VALUE
 90
4
  1
E2V
304
ACVALUE_END
170
5
140
0.125
171
1
172
0
173
0
174
0
175
4
176
1
 91
33
178
0
145
0.0
301
CELL_VALUE
 90
4
  1
ALL DIMENSIONS IN INCH\PVIEWS ARE THIRD ANGLE
304
ACVALUE_END
170
5
140
0.12
171
1
172
0
173
1
174
0
175
1
176
1
 91
1
178
0
145
0.0
170
1
171
1
172
0
173
1
174
0
175
1
176
1
 91
1
178
0
145
0.0
170
1
171
1
172
0
173
1
174
0
175
1
176
1
 91
1
178
0
145
0.0
170
5
171
1
172
0
173
0
174
0
175
1
176
1
 91
33
178
0
145
0.0
301
CELL_VALUE
 90
4
  1
 
304
ACVALUE_END
170
1
140
0.125
171
1
172
0
173
0
174
0
175
1
176
1
 91
33
178
0
145
0.0
301
CELL_VALUE
 90
4
  1
MODEL
304
ACVALUE_END
170
1
140
0.06
171
1
172
0
173
0
174
0
175
1
176
1
 91
33
178
0
145
0.0
301
CELL_VALUE
 90
4
  1
 
304
ACVALUE_END
170
1
140
0.125
171
1
172
0
173
0
174
0
175
1
176
1
 91
33
178
0
145
0.0
301
CELL_VALUE
 90
4
  1
 
304
ACVALUE_END
170
1
140
0.125
171
1
172
0
173
0
174
0
175
1
176
1
 91
33
178
0
145
0.0
301
CELL_VALUE
 90
4
  1
 
304
ACVALUE_END
170
1
140
0.125
171
1
172
0
173
0
174
0
175
1
176
1
 91
33
178
0
145
0.0
301
CELL_VALUE
 90
4
  1
 
304
ACVALUE_END
170
1
140
0.125
171
1
172
0
173
0
174
0
175
1
176
1
 91
33
178
0
145
0.0
301
CELL_VALUE
 90
4
  1
 
304
ACVALUE_END
170
1
140
0.125
  0
ACAD_TABLE
  5
292
100
AcDbEntity
  8
0
 62
2
  6
CONTINUOUS
100
AcDbBlockReference
  2
*T2
 10
12.4237499994
 20
16.47875
 30
0.0
100
AcDbTable
342
       396
343
210
 11
1.0
 21
0.0
 31
0.0
 90
22
 91
10
 92
3
 93
16
 94
0
 95
0
 96
0
 41
0.028
141
0.344
141
0.25
141
0.25
141
0.25
141
0.25
141
0.25
141
0.25
141
0.25
141
0.25
141
0.25
142
3.055
142
3.0
142
3.0
171
1
172
0
173
0
174
0
175
1
176
1
 91
33
178
0
145
0.0
301
CELL_VALUE
 90
4
  1
Technical Data
304
ACVALUE_END
170
5
140
0.145
171
1
172
0
173
0
174
0
175
1
176
1
 91
33
178
0
145
0.0
301
CELL_VALUE
 90
4
  1
U.S. Units
304
ACVALUE_END
170
5
140
0.145
171
1
172
0
173
0
174
0
175
1
176
1
 91
33
178
0
145
0.0
301
CELL_VALUE
 90
4
  1
Metric Units
304
ACVALUE_END
170
5
140
0.145
171
1
172
0
173
0
174
0
175
1
176
1
 91
33
178
0
145
0.0
301
CELL_VALUE
 90
4
  1
Cavity
304
ACVALUE_END
170
5
140
0.125
171
1
172
0
173
0
174
0
175
2
176
1
 91
33
178
0
145
0.0
301
CELL_VALUE
 90
4
  1
T-11A
304
ACVALUE_END
170
5
140
0.125
171
1
172
0
173
1
174
0
175
1
176
1
 91
1
178
0
145
0.0
170
1
171
1
172
0
173
0
174
0
175
1
176
1
 91
33
178
0
145
0.0
301
CELL_VALUE
 90
4
  1
Body Features
304
ACVALUE_END
170
5
140
0.125
171
1
172
0
173
0
174
0
175
2
176
1
 91
33
178
0
145
0.0
301
CELL_VALUE
 90
4
  1
Ninety degree with reverse flow check - reducing
304
ACVALUE_END
170
5
140
0.125
171
1
172
0
173
1
174
0
175
1
176
1
 91
1
178
0
145
0.0
170
1
171
1
172
0
173
0
174
0
175
1
176
1
 91
33
178
0
145
0.0
301
CELL_VALUE
 90
4
  1
Body Type
304
ACVALUE_END
170
5
140
0.125
171
1
172
0
173
0
174
0
175
2
176
1
 91
33
178
0
145
0.0
301
CELL_VALUE
 90
4
  1
Line mount
304
ACVALUE_END
170
5
140
0.125
171
1
172
0
173
1
174
0
175
1
176
1
 91
1
178
0
145
0.0
170
1
171
1
172
0
173
0
174
0
175
1
176
1
 91
33
178
0
145
0.0
301
CELL_VALUE
 90
4
  1
Interface
304
ACVALUE_END
170
5
140
0.125
171
1
172
0
173
0
174
0
175
2
176
1
 91
33
178
0
145
0.0
301
CELL_VALUE
 90
4
  1
None
304
ACVALUE_END
170
5
140
0.125
171
1
172
0
173
1
174
0
175
1
176
1
 91
1
178
0
145
0.0
170
1
171
1
172
0
173
0
174
0
175
1
176
1
 91
33
178
0
145
0.0
301
CELL_VALUE
 90
4
  1
Open Cavity Quantity
304
ACVALUE_END
170
5
140
0.125
171
1
172
0
173
0
174
0
175
2
176
1
 91
33
178
0
145
0.0
301
CELL_VALUE
 90
4
  1
1
304
ACVALUE_END
170
5
140
0.125
171
1
172
0
173
1
174
0
175
1
176
1
 91
1
178
0
145
0.0
170
1
171
1
172
0
173
0
174
0
175
1
176
1
 91
33
178
0
145
0.0
301
CELL_VALUE
 90
4
  1
Weight
304
ACVALUE_END
170
5
140
0.125
171
1
172
0
173
0
174
0
175
1
176
1
 91
33
178
0
145
0.0
301
CELL_VALUE
 90
4
  1
1.194 lb.
304
ACVALUE_END
170
5
140
0.125
171
1
172
0
173
0
174
0
175
1
176
1
 91
33
178
0
145
0.0
301
CELL_VALUE
 90
4
  1
0,542 kg.
304
ACVALUE_END
170
5
140
0.125
171
1
172
0
173
0
174
0
175
1
176
1
 91
33
178
0
145
0.0
301
CELL_VALUE
 90
4
  1
Mounting Hole Diameter
304
ACVALUE_END
170
5
140
0.125
171
1
172
0
173
0
174
0
175
1
176
1
 91
33
178
0
145
0.0
301
CELL_VALUE
 90
4
  1
.34 in.
304
ACVALUE_END
170
5
140
0.125
171
1
172
0
173
0
174
0
175
1
176
1
 91
33
178
0
145
0.0
301
CELL_VALUE
 90
4
  1
8.6 mm
304
ACVALUE_END
170
5
140
0.125
171
1
172
0
173
0
174
0
175
1
176
1
 91
33
178
0
145
0.0
301
CELL_VALUE
 90
4
  1
Mounting Hole Depth
304
ACVALUE_END
170
5
140
0.125
171
1
172
0
173
0
174
0
175
2
176
1
 91
33
178
0
145
0.0
301
CELL_VALUE
 90
4
  1
Through
304
ACVALUE_END
170
5
140
0.125
171
1
172
0
173
1
174
0
175
1
176
1
 91
1
178
0
145
0.0
170
1
171
1
172
0
173
0
174
0
175
1
176
1
 91
33
178
0
145
0.0
301
CELL_VALUE
 90
4
  1
Mounting Hole Quantity
304
ACVALUE_END
170
5
140
0.125
171
1
172
0
173
0
174
0
175
2
176
1
 91
33
178
0
145
0.0
301
CELL_VALUE
 90
4
  1
2
304
ACVALUE_END
170
5
140
0.125
171
1
172
0
173
1
174
0
175
1
176
1
 91
1
178
0
145
0.0
170
1
  0
ACAD_TABLE
  5
293
100
AcDbEntity
  8
0
 62
2
  6
CONTINUOUS
100
AcDbBlockReference
  2
*T3
 10
0.52125
 20
1.959
 30
0.0
100
AcDbTable
342
       396
343
211
 11
1.0
 21
0.0
 31
0.0
 90
22
 91
5
 92
3
 93
16
 94
0
 95
0
 96
0
 41
0.05
141
0.34375
141
0.344
141
0.25
141
0.25
141
0.25
142
1.3
142
2.0
142
1.3
171
1
172
0
173
0
174
0
175
3
176
1
 91
33
178
0
145
0.0
301
CELL_VALUE
 90
4
  1
Port Headings
304
ACVALUE_END
170
5
140
0.145
171
1
172
0
173
1
174
0
175
1
176
1
 91
1
178
0
145
0.0
170
1
171
1
172
0
173
1
174
0
175
1
176
1
 91
1
178
0
145
0.0
170
1
171
1
172
0
173
0
174
0
175
1
176
1
 91
33
178
0
145
0.0
301
CELL_VALUE
 90
4
  1
Product
304
ACVALUE_END
170
5
140
0.145
171
1
172
0
173
0
174
0
175
1
176
1
 91
33
178
0
145
0.0
301
CELL_VALUE
 90
4
  1
Port
304
ACVALUE_END
170
5
140
0.145
171
1
172
0
173
0
174
0
175
1
176
1
 91
33
178
0
145
0.0
301
CELL_VALUE
 90
4
  1
Size
304
ACVALUE_END
170
5
140
0.145
171
1
172
0
173
0
174
0
175
1
176
1
 91
33
178
0
145
0.0
301
CELL_VALUE
 90
4
  1
E2V
304
ACVALUE_END
170
5
140
0.125
171
1
172
0
173
0
174
0
175
1
176
1
 91
33
178
0
145
0.0
301
CELL_VALUE
 90
4
  1
Ports 1 &  2
304
ACVALUE_END
170
5
140
0.125
171
1
172
0
173
0
174
0
175
1
176
1
 91
33
178
0
145
0.0
301
CELL_VALUE
 90
4
  1
1/2" BSPP
304
ACVALUE_END
170
5
140
0.125
171
1
172
0
173
0
174
0
175
1
176
1
 91
33
178
0
145
0.0
301
CELL_VALUE
 90
4
  1
E2V
304
ACVALUE_END
170
5
140
0.125
171
1
172
0
173
0
174
0
175
1
176
1
 91
33
178
0
145
0.0
301
CELL_VALUE
 90
4
  1
Port 3
304
ACVALUE_END
170
5
140
0.125
171
1
172
0
173
0
174
0
175
1
176
1
 91
33
178
0
145
0.0
301
CELL_VALUE
 90
4
  1
1/4" BSPP
304
ACVALUE_END
170
5
140
0.125
171
1
172
0
173
0
174
0
175
1
176
1
 91
33
178
0
145
0.0
301
CELL_VALUE
 90
4
  1
E2V
304
ACVALUE_END
170
5
140
0.125
171
1
172
0
173
0
174
0
175
1
176
1
 91
33
178
0
145
0.0
301
CELL_VALUE
 90
4
  1
Gage Port
304
ACVALUE_END
170
5
140
0.125
171
1
172
0
173
0
174
0
175
1
176
1
 91
33
178
0
145
0.0
301
CELL_VALUE
 90
4
  1
1/4" BSPP
304
ACVALUE_END
170
5
140
0.125
  0
MTEXT
  5
294
100
AcDbEntity
  8
0
100
AcDbMText
 62
2
  6
CONTINUOUS
  7
STANDARD
 71
1
 72
1
 10
0.52125
 20
5.75995
 30
0.0
 11
1.0
 21
0.0
 31
0.0
 44
0.6
  3
Notes\P \P1. Important: Carefully consider\P   the maximum system pressure. The\P   pressure rating of the manifold is\P   dependent on the manifold material,\P   with the port type/size a secondary\P   consideration. Manifolds\P   constructed of alu
  1
minum are not\P   rated for pressures higher than\P   3000 psi (210 bar), regardless of\P   the port type/size specified.
 40
0.1
 41
3.04
  0
LINE
  5
295
100
AcDbEntity
  8
0
100
AcDbLine
 62
7
  6
CONTINUOUS
 10
0.30125
 20
0.30125
 11
0.30125
 21
16.69875
  0
LINE
  5
296
100
AcDbEntity
  8
0
100
AcDbLine
 62
7
  6
CONTINUOUS
 10
0.30125
 20
0.30125
 11
21.69875
 21
0.30125
  0
LINE
  5
297
100
AcDbEntity
  8
0
100
AcDbLine
 62
7
  6
CONTINUOUS
 10
0.30125
 20
16.69875
 11
21.69875
 21
16.69875
  0
LINE
  5
298
100
AcDbEntity
  8
0
100
AcDbLine
 62
7
  6
CONTINUOUS
 10
21.69875
 20
0.30125
 11
21.69875
 21
16.69875
  0
LINE
  5
299
100
AcDbEntity
  8
0
100
AcDbLine
 62
7
  6
CONTINUOUS
 10
9.7128729444
 20
10.7425635365
 11
9.389349405
 21
10.4300637758
  0
LINE
  5
29A
100
AcDbEntity
  8
0
100
AcDbLine
 62
4
  6
CONTINUOUS
 10
9.6288989878
 20
9.956568046
 11
9.6216545439
 21
9.9474111936
  0
LINE
  5
29B
100
AcDbEntity
  8
0
100
AcDbLine
 62
4
  6
CONTINUOUS
 10
9.6361434318
 20
9.8981100904
 11
9.6216545439
 21
9.8797963812
  0
LINE
  5
29C
100
AcDbEntity
  8
0
100
AcDbLine
 62
4
  6
CONTINUOUS
 10
9.5781878801
 20
9.9794033928
 11
9.592676768
 21
9.9880578413
  0
LINE
  5
29D
100
AcDbEntity
  8
0
100
AcDbLine
 62
4
  6
CONTINUOUS
 10
9.6216545439
 20
9.9474111936
 11
9.6071656559
 21
9.9387567382
  0
LINE
  5
29E
100
AcDbEntity
  8
0
100
AcDbLine
 62
4
  6
CONTINUOUS
 10
9.6216545439
 20
9.8797963812
 11
9.6071656559
 21
9.8711419301
  0
LINE
  5
29F
100
AcDbEntity
  8
0
100
AcDbLine
 62
7
  6
CONTINUOUS
 10
11.2065145113
 20
6.3251270685
 11
11.2228173394
 21
6.3170737835
  0
LINE
  5
2A0
100
AcDbEntity
  8
0
100
AcDbLine
 62
7
  6
CONTINUOUS
 10
9.389349405
 20
6.9285824481
 11
12.2871270556
 21
6.7276208855
  0
LINE
  5
2A1
100
AcDbEntity
  8
0
100
AcDbLine
 62
7
  6
CONTINUOUS
 10
9.389349405
 20
6.9285824481
 11
9.389349405
 21
10.4300637758
  0
LINE
  5
2A2
100
AcDbEntity
  8
0
100
AcDbLine
 62
4
  6
CONTINUOUS
 10
9.6288989878
 20
9.9662273023
 11
9.6288989878
 21
9.956568046
  0
LINE
  5
2A3
100
AcDbEntity
  8
0
100
AcDbLine
 62
4
  6
CONTINUOUS
 10
9.6288989878
 20
7.9184643874
 11
9.6288989878
 21
7.8025532839
  0
LINE
  5
2A4
100
AcDbEntity
  8
0
100
AcDbLine
 62
4
  6
CONTINUOUS
 10
9.6361434318
 20
9.9077693502
 11
9.6361434318
 21
9.8981100904
  0
LINE
  5
2A5
100
AcDbEntity
  8
0
100
AcDbLine
 62
4
  6
CONTINUOUS
 10
11.1748634168
 20
7.137035146
 11
11.1603745288
 21
7.1380399538
  0
LINE
  5
2A6
100
AcDbEntity
  8
0
100
AcDbLine
 62
4
  6
CONTINUOUS
 10
11.1676189728
 20
7.1954931016
 11
11.1965967487
 21
7.193483486
  0
LINE
  5
2A7
100
AcDbEntity
  8
0
100
AcDbLine
 62
4
  6
CONTINUOUS
 10
11.1603745288
 20
7.2539510572
 11
11.1748634168
 21
7.2529462494
  0
LINE
  5
2A8
100
AcDbEntity
  8
0
100
AcDbLine
 62
4
  6
CONTINUOUS
 10
11.1603745288
 20
7.1380399538
 11
11.1458856409
 21
7.1487040205
  0
LINE
  5
2A9
100
AcDbEntity
  8
0
100
AcDbLine
 62
4
  6
CONTINUOUS
 10
11.1748634168
 20
7.2529462494
 11
11.1893523047
 21
7.2422821853
  0
LINE
  5
2AA
100
AcDbEntity
  8
0
100
AcDbLine
 62
4
  6
CONTINUOUS
 10
10.2959398651
 20
8.9596995123
 11
10.3124985949
 21
8.9751098885
  0
LINE
  5
2AB
100
AcDbEntity
  8
0
100
AcDbLine
 62
4
  6
CONTINUOUS
 10
10.3373366887
 20
8.8574762574
 11
10.3538954168
 21
8.8728866355
  0
LINE
  5
2AC
100
AcDbEntity
  8
0
100
AcDbLine
 62
4
  6
CONTINUOUS
 10
10.2959398651
 20
8.9431407842
 11
10.2959398651
 21
8.9596995123
  0
LINE
  5
2AD
100
AcDbEntity
  8
0
100
AcDbLine
 62
4
  6
CONTINUOUS
 10
10.3538954168
 20
8.8728866355
 11
10.3538954168
 21
8.8894453653
  0
LINE
  5
2AE
100
AcDbEntity
  8
0
100
AcDbLine
 62
4
  6
CONTINUOUS
 10
10.387012873
 20
8.9699423058
 11
10.387012873
 21
8.8705899322
  0
LINE
  5
2AF
100
AcDbEntity
  8
0
100
AcDbLine
 62
4
  6
CONTINUOUS
 10
10.4228901335
 20
8.2603964784
 11
10.4228901335
 21
8.3763075818
  0
LINE
  5
2B0
100
AcDbEntity
  8
0
100
AcDbLine
 62
4
  6
CONTINUOUS
 10
10.4449684247
 20
8.866570701
 11
10.4449684247
 21
8.9659230746
  0
LINE
  5
2B1
100
AcDbEntity
  8
0
100
AcDbLine
 62
4
  6
CONTINUOUS
 10
10.4284097035
 20
8.8511603224
 11
10.4449684247
 21
8.866570701
  0
LINE
  5
2B2
100
AcDbEntity
  8
0
100
AcDbLine
 62
4
  6
CONTINUOUS
 10
11.1458856409
 20
7.1487040205
 11
11.131396753
 21
7.1690273452
  0
LINE
  5
2B3
100
AcDbEntity
  8
0
100
AcDbLine
 62
4
  6
CONTINUOUS
 10
11.1893523047
 20
7.2422821853
 11
11.1965967487
 21
7.2321205182
  0
LINE
  5
2B4
100
AcDbEntity
  8
0
100
AcDbLine
 62
4
  6
CONTINUOUS
 10
10.4780858808
 20
8.8477152678
 11
10.4780858808
 21
8.9636263712
  0
LINE
  5
2B5
100
AcDbEntity
  8
0
100
AcDbLine
 62
4
  6
CONTINUOUS
 10
10.4808456783
 20
8.3557296231
 11
10.4808456783
 21
8.2729359775
  0
LINE
  5
2B6
100
AcDbEntity
  8
0
100
AcDbLine
 62
4
  6
CONTINUOUS
 10
10.5360414326
 20
8.8436960366
 11
10.5360414326
 21
8.9596071401
  0
LINE
  5
2B7
100
AcDbEntity
  8
0
100
AcDbLine
 62
4
  6
CONTINUOUS
 10
10.5277620779
 20
8.2531235843
 11
10.5608795341
 21
8.3667379844
  0
LINE
  5
2B8
100
AcDbEntity
  8
0
100
AcDbLine
 62
7
  6
CONTINUOUS
 10
12.2871270556
 20
10.2291022132
 11
12.610650595
 21
10.5416019738
  0
LINE
  5
2B9
100
AcDbEntity
  8
0
100
AcDbLine
 62
4
  6
CONTINUOUS
 10
10.8147800529
 20
8.8988797275
 11
10.8313387741
 21
8.9060107437
  0
LINE
  5
2BA
100
AcDbEntity
  8
0
100
AcDbLine
 62
4
  6
CONTINUOUS
 10
10.3566552143
 20
8.3146660733
 11
10.4008118259
 21
8.2895254961
  0
LINE
  5
2BB
100
AcDbEntity
  8
0
100
AcDbLine
 62
4
  6
CONTINUOUS
 10
10.4642869502
 20
8.3734367028
 11
10.4808456783
 21
8.3557296231
  0
LINE
  5
2BC
100
AcDbEntity
  8
0
100
AcDbLine
 62
4
  6
CONTINUOUS
 10
9.5781878801
 20
9.8828108046
 11
9.5709434361
 21
9.8929724674
  0
LINE
  5
2BD
100
AcDbEntity
  8
0
100
AcDbLine
 62
4
  6
CONTINUOUS
 10
10.5608795341
 20
8.3667379844
 11
10.593997004
 21
8.2485301766
  0
LINE
  5
2BE
100
AcDbEntity
  8
0
100
AcDbLine
 62
4
  6
CONTINUOUS
 10
10.6602318966
 20
8.8350833987
 11
10.6602318966
 21
8.9509945021
  0
LINE
  5
2BF
100
AcDbEntity
  8
0
100
AcDbLine
 62
4
  6
CONTINUOUS
 10
10.6602319163
 20
8.2439367698
 11
10.6602319163
 21
8.3598478733
  0
LINE
  5
2C0
100
AcDbEntity
  8
0
100
AcDbLine
 62
4
  6
CONTINUOUS
 10
10.7099080877
 20
8.9061526229
 11
10.7099080877
 21
8.8316383432
  0
LINE
  5
2C1
100
AcDbEntity
  8
0
100
AcDbLine
 62
4
  6
CONTINUOUS
 10
10.7181874577
 20
8.4949219669
 11
10.7181874577
 21
8.6108330704
  0
LINE
  5
2C2
100
AcDbEntity
  8
0
100
AcDbLine
 62
4
  6
CONTINUOUS
 10
10.7264668286
 20
8.2393433631
 11
10.7264668286
 21
8.3552544665
  0
LINE
  5
2C3
100
AcDbEntity
  8
0
100
AcDbLine
 62
4
  6
CONTINUOUS
 10
10.8147800529
 20
8.8326448126
 11
10.8147800529
 21
8.8988797275
  0
LINE
  5
2C4
100
AcDbEntity
  8
0
100
AcDbLine
 62
4
  6
CONTINUOUS
 10
10.7595842788
 20
8.8005954057
 11
10.7927017212
 21
8.9086902325
  0
LINE
  5
2C5
100
AcDbEntity
  8
0
100
AcDbLine
 62
4
  6
CONTINUOUS
 10
10.8175398331
 20
8.6039429597
 11
10.800981105
 21
8.5802532159
  0
LINE
  5
2C6
100
AcDbEntity
  8
0
100
AcDbLine
 62
4
  6
CONTINUOUS
 10
10.4808456783
 20
8.2729359775
 11
10.4642869502
 21
8.2575255994
  0
LINE
  5
2C7
100
AcDbEntity
  8
0
100
AcDbLine
 62
4
  6
CONTINUOUS
 10
10.9720879869
 20
8.846573565
 11
10.988646708
 21
8.8537045778
  0
LINE
  5
2C8
100
AcDbEntity
  8
0
100
AcDbLine
 62
4
  6
CONTINUOUS
 10
11.1293958854
 20
8.2114001381
 11
11.0879990548
 21
8.214271018
  0
LINE
  5
2C9
100
AcDbEntity
  8
0
100
AcDbLine
 62
4
  6
CONTINUOUS
 10
11.0383228913
 20
8.2177160717
 11
11.0134847819
 21
8.2194386004
  0
LINE
  5
2CA
100
AcDbEntity
  8
0
100
AcDbLine
 62
4
  6
CONTINUOUS
 10
10.9500096749
 20
8.223840614
 11
10.9168922326
 21
8.2261373164
  0
LINE
  5
2CB
100
AcDbEntity
  8
0
100
AcDbLine
 62
4
  6
CONTINUOUS
 10
10.4642869502
 20
8.2575255994
 11
10.4228901335
 21
8.2603964784
  0
LINE
  5
2CC
100
AcDbEntity
  8
0
100
AcDbLine
 62
4
  6
CONTINUOUS
 10
10.7264668286
 20
8.2393433631
 11
10.7761430198
 21
8.2358983075
  0
LINE
  5
2CD
100
AcDbEntity
  8
0
100
AcDbLine
 62
4
  6
CONTINUOUS
 10
11.1928710477
 20
8.2069981206
 11
11.2425472112
 21
8.203553067
  0
LINE
  5
2CE
100
AcDbEntity
  8
0
100
AcDbLine
 62
4
  6
CONTINUOUS
 10
10.53880123
 20
8.2854754761
 11
10.5829578382
 21
8.282413205
  0
LINE
  5
2CF
100
AcDbEntity
  8
0
100
AcDbLine
 62
4
  6
CONTINUOUS
 10
11.22598849
 20
8.2709363374
 11
11.1928710477
 21
8.2732330398
  0
LINE
  5
2D0
100
AcDbEntity
  8
0
100
AcDbLine
 62
4
  6
CONTINUOUS
 10
10.7595842986
 20
8.3032815779
 11
10.7264668286
 21
8.3055782823
  0
LINE
  5
2D1
100
AcDbEntity
  8
0
100
AcDbLine
 62
4
  6
CONTINUOUS
 10
10.4228901335
 20
8.3763075818
 11
10.4642869502
 21
8.3734367028
  0
LINE
  5
2D2
100
AcDbEntity
  8
0
100
AcDbLine
 62
4
  6
CONTINUOUS
 10
10.6271144464
 20
8.3621445776
 11
10.6933493587
 21
8.3575511708
  0
LINE
  5
2D3
100
AcDbEntity
  8
0
100
AcDbLine
 62
4
  6
CONTINUOUS
 10
10.7264668286
 20
8.3552544665
 11
10.7761430198
 21
8.3518094109
  0
LINE
  5
2D4
100
AcDbEntity
  8
0
100
AcDbLine
 62
4
  6
CONTINUOUS
 10
10.9168922326
 20
8.3420484199
 11
10.9500096749
 21
8.3397517175
  0
LINE
  5
2D5
100
AcDbEntity
  8
0
100
AcDbLine
 62
4
  6
CONTINUOUS
 10
11.0134847819
 20
8.3353497038
 11
11.0383228913
 21
8.3336271751
  0
LINE
  5
2D6
100
AcDbEntity
  8
0
100
AcDbLine
 62
4
  6
CONTINUOUS
 10
11.0879990548
 20
8.3301821215
 11
11.1293958854
 21
8.3273112415
  0
LINE
  5
2D7
100
AcDbEntity
  8
0
100
AcDbLine
 62
4
  6
CONTINUOUS
 10
11.1928710477
 20
8.322909224
 11
11.2425472112
 21
8.3194641704
  0
LINE
  5
2D8
100
AcDbEntity
  8
0
100
AcDbLine
 62
4
  6
CONTINUOUS
 10
10.2959398651
 20
8.8686265018
 11
10.30421923
 21
8.859772961
  0
LINE
  5
2D9
100
AcDbEntity
  8
0
100
AcDbLine
 62
4
  6
CONTINUOUS
 10
10.9168922326
 20
8.2261373164
 11
10.9003335114
 21
8.2438443975
  0
LINE
  5
2DA
100
AcDbEntity
  8
0
100
AcDbLine
 62
4
  6
CONTINUOUS
 10
10.387012873
 20
8.8705899322
 11
10.403571601
 21
8.8528828507
  0
LINE
  5
2DB
100
AcDbEntity
  8
0
100
AcDbLine
 62
4
  6
CONTINUOUS
 10
11.0134847819
 20
8.2194386004
 11
10.9969260608
 21
8.2371456814
  0
LINE
  5
2DC
100
AcDbEntity
  8
0
100
AcDbLine
 62
4
  6
CONTINUOUS
 10
9.6216545439
 20
9.928092674
 11
9.6361434318
 21
9.9077693502
  0
LINE
  5
2DD
100
AcDbEntity
  8
0
100
AcDbLine
 62
4
  6
CONTINUOUS
 10
9.6216545439
 20
9.9763889694
 11
9.6288989878
 21
9.9662273023
  0
LINE
  5
2DE
100
AcDbEntity
  8
0
100
AcDbLine
 62
4
  6
CONTINUOUS
 10
10.4780858808
 20
8.9636263712
 11
10.5360414326
 21
8.8436960366
  0
LINE
  5
2DF
100
AcDbEntity
  8
0
100
AcDbLine
 62
4
  6
CONTINUOUS
 10
11.131396753
 20
7.1690273452
 11
11.124152309
 21
7.198507525
  0
LINE
  5
2E0
100
AcDbEntity
  8
0
100
AcDbLine
 62
4
  6
CONTINUOUS
 10
10.8589366567
 20
8.5679546241
 11
10.8589366567
 21
8.5845133522
  0
LINE
  5
2E1
100
AcDbEntity
  8
0
100
AcDbLine
 62
4
  6
CONTINUOUS
 10
10.8644562164
 20
8.9368314975
 11
10.8644562164
 21
8.820920394
  0
LINE
  5
2E2
100
AcDbEntity
  8
0
100
AcDbLine
 62
4
  6
CONTINUOUS
 10
10.897573714
 20
8.8186236878
 11
10.897573714
 21
8.901417335
  0
LINE
  5
2E3
100
AcDbEntity
  8
0
100
AcDbLine
 62
4
  6
CONTINUOUS
 10
10.9003335114
 20
8.2438443975
 11
10.9003335114
 21
8.326638043
  0
LINE
  5
2E4
100
AcDbEntity
  8
0
100
AcDbLine
 62
4
  6
CONTINUOUS
 10
10.9362107116
 20
8.8904584827
 11
10.9362107116
 21
8.8738997546
  0
LINE
  5
2E5
100
AcDbEntity
  8
0
100
AcDbLine
 62
4
  6
CONTINUOUS
 10
10.9720879869
 20
8.8217354703
 11
10.9720879869
 21
8.846573565
  0
LINE
  5
2E6
100
AcDbEntity
  8
0
100
AcDbLine
 62
4
  6
CONTINUOUS
 10
10.9969260608
 20
8.2371456814
 11
10.9969260608
 21
8.319939327
  0
LINE
  5
2E7
100
AcDbEntity
  8
0
100
AcDbLine
 62
4
  6
CONTINUOUS
 10
11.0217641504
 20
8.8100110517
 11
11.0217641504
 21
8.876245971
  0
LINE
  5
2E8
100
AcDbEntity
  8
0
100
AcDbLine
 62
4
  6
CONTINUOUS
 10
10.925171569
 20
8.4805675701
 11
10.9582890252
 21
8.5941819701
  0
LINE
  5
2E9
100
AcDbEntity
  8
0
100
AcDbLine
 62
4
  6
CONTINUOUS
 10
10.800981105
 20
8.489180208
 11
10.8589366567
 21
8.5679546241
  0
LINE
  5
2EA
100
AcDbEntity
  8
0
100
AcDbLine
 62
4
  6
CONTINUOUS
 10
11.2563461349
 20
8.8682570157
 11
11.2646254678
 21
8.8759622095
  0
LINE
  5
2EB
100
AcDbEntity
  8
0
100
AcDbLine
 62
4
  6
CONTINUOUS
 10
11.330860463
 20
8.8630894294
 11
11.339139796
 21
8.8707946233
  0
LINE
  5
2EC
100
AcDbEntity
  8
0
100
AcDbLine
 62
4
  6
CONTINUOUS
 10
10.4008118259
 20
8.3336821094
 11
10.3566552143
 21
8.3146660733
  0
LINE
  5
2ED
100
AcDbEntity
  8
0
100
AcDbLine
 62
4
  6
CONTINUOUS
 10
10.8589366567
 20
8.4851609768
 11
10.800981105
 21
8.489180208
  0
LINE
  5
2EE
100
AcDbEntity
  8
0
100
AcDbLine
 62
4
  6
CONTINUOUS
 10
10.7181874577
 20
8.4949219669
 11
10.7678636454
 21
8.4914769116
  0
LINE
  5
2EF
100
AcDbEntity
  8
0
100
AcDbLine
 62
4
  6
CONTINUOUS
 10
11.2756646535
 20
8.2730108598
 11
11.3198212617
 21
8.247870281
  0
LINE
  5
2F0
100
AcDbEntity
  8
0
100
AcDbLine
 62
4
  6
CONTINUOUS
 10
10.3538954168
 20
8.8894453653
 11
10.2959398651
 21
8.9431407842
  0
LINE
  5
2F1
100
AcDbEntity
  8
0
100
AcDbLine
 62
4
  6
CONTINUOUS
 10
10.3456160528
 20
8.972813185
 11
10.3538954168
 21
8.9639596417
  0
LINE
  5
2F2
100
AcDbEntity
  8
0
100
AcDbLine
 62
4
  6
CONTINUOUS
 10
11.0383228913
 20
8.3336271751
 11
11.0548816125
 21
8.3159200958
  0
LINE
  5
2F3
100
AcDbEntity
  8
0
100
AcDbLine
 62
4
  6
CONTINUOUS
 10
10.8589366567
 20
8.5845133522
 11
10.8423779217
 21
8.6022204324
  0
LINE
  5
2F4
100
AcDbEntity
  8
0
100
AcDbLine
 62
4
  6
CONTINUOUS
 10
11.1293958854
 20
8.3273112415
 11
11.1459546065
 21
8.3096041622
  0
LINE
  5
2F5
100
AcDbEntity
  8
0
100
AcDbLine
 62
4
  6
CONTINUOUS
 10
10.7430255577
 20
8.9121352861
 11
10.7678636671
 21
8.8276191101
  0
LINE
  5
2F6
100
AcDbEntity
  8
0
100
AcDbLine
 62
4
  6
CONTINUOUS
 10
10.8920541129
 20
8.5987753769
 11
10.925171569
 21
8.4805675701
  0
LINE
  5
2F7
100
AcDbEntity
  8
0
100
AcDbLine
 62
4
  6
CONTINUOUS
 10
11.0548815927
 20
8.8905079966
 11
11.0548815927
 21
8.8159937142
  0
LINE
  5
2F8
100
AcDbEntity
  8
0
100
AcDbLine
 62
4
  6
CONTINUOUS
 10
11.0548816125
 20
8.3159200958
 11
11.0548816125
 21
8.2331264502
  0
LINE
  5
2F9
100
AcDbEntity
  8
0
100
AcDbLine
 62
4
  6
CONTINUOUS
 10
11.0879990548
 20
8.214271018
 11
11.0879990548
 21
8.3301821215
  0
LINE
  5
2FA
100
AcDbEntity
  8
0
100
AcDbLine
 62
4
  6
CONTINUOUS
 10
11.1045578115
 20
8.8042692918
 11
11.1045578115
 21
8.8870629391
  0
LINE
  5
2FB
100
AcDbEntity
  8
0
100
AcDbLine
 62
7
  6
CONTINUOUS
 10
11.1245682596
 20
6.8082446118
 11
11.1245682596
 21
6.4269207276
  0
LINE
  5
2FC
100
AcDbEntity
  8
0
100
AcDbLine
 62
4
  6
CONTINUOUS
 10
11.1376752538
 20
8.8102519543
 11
11.1376752538
 21
8.9178836929
  0
LINE
  5
2FD
100
AcDbEntity
  8
0
100
AcDbLine
 62
4
  6
CONTINUOUS
 10
11.1459546065
 20
8.3096041622
 11
11.1459546065
 21
8.2268105167
  0
LINE
  5
2FE
100
AcDbEntity
  8
0
100
AcDbLine
 62
4
  6
CONTINUOUS
 10
11.1928710477
 20
8.2069981206
 11
11.1928710477
 21
8.322909224
  0
LINE
  5
2FF
100
AcDbEntity
  8
0
100
AcDbLine
 62
4
  6
CONTINUOUS
 10
11.1965967487
 20
7.193483486
 11
11.1965967487
 21
7.1548464521
  0
LINE
  5
300
100
AcDbEntity
  8
0
100
AcDbLine
 62
4
  6
CONTINUOUS
 10
11.2149493043
 20
8.9125247192
 11
11.2121895267
 21
8.904436743
  0
LINE
  5
301
100
AcDbEntity
  8
0
100
AcDbLine
 62
4
  6
CONTINUOUS
 10
11.3722572383
 20
8.7857042735
 11
11.3805365713
 21
8.7934094648
  0
LINE
  5
302
100
AcDbEntity
  8
0
100
AcDbLine
 62
4
  6
CONTINUOUS
 10
10.9003335114
 20
8.326638043
 11
10.9168922326
 21
8.3420484199
  0
LINE
  5
303
100
AcDbEntity
  8
0
100
AcDbLine
 62
4
  6
CONTINUOUS
 10
10.9969260608
 20
8.319939327
 11
11.0134847819
 21
8.3353497038
  0
LINE
  5
304
100
AcDbEntity
  8
0
100
AcDbLine
 62
4
  6
CONTINUOUS
 10
10.7513049173
 20
8.5588601825
 11
10.7181874577
 21
8.5611568861
  0
LINE
  5
305
100
AcDbEntity
  8
0
100
AcDbLine
 62
4
  6
CONTINUOUS
 10
10.8423779217
 20
8.6022204324
 11
10.8175398331
 21
8.6039429597
  0
LINE
  5
306
100
AcDbEntity
  8
0
100
AcDbLine
 62
4
  6
CONTINUOUS
 10
10.7181874577
 20
8.6108330704
 11
10.7678636454
 21
8.6073880151
  0
LINE
  5
307
100
AcDbEntity
  8
0
100
AcDbLine
 62
4
  6
CONTINUOUS
 10
10.8313387741
 20
8.8232170964
 11
10.8147800529
 21
8.8326448126
  0
LINE
  5
308
100
AcDbEntity
  8
0
100
AcDbLine
 62
4
  6
CONTINUOUS
 10
10.7016287271
 20
8.915006166
 11
10.7099080877
 21
8.9061526229
  0
LINE
  5
309
100
AcDbEntity
  8
0
100
AcDbLine
 62
4
  6
CONTINUOUS
 10
10.9306911563
 20
8.8991206326
 11
10.9362107116
 21
8.8904584827
  0
LINE
  5
30A
100
AcDbEntity
  8
0
100
AcDbLine
 62
4
  6
CONTINUOUS
 10
11.0217641504
 20
8.876245971
 11
11.0134848174
 21
8.8933788727
  0
LINE
  5
30B
100
AcDbEntity
  8
0
100
AcDbLine
 62
4
  6
CONTINUOUS
 10
11.2121895267
 20
8.796805007
 11
11.2121895267
 21
8.8795986543
  0
LINE
  5
30C
100
AcDbEntity
  8
0
100
AcDbLine
 62
4
  6
CONTINUOUS
 10
11.2121895267
 20
8.904436743
 11
11.2121895267
 21
8.9127161105
  0
LINE
  5
30D
100
AcDbEntity
  8
0
100
AcDbLine
 62
7
  6
CONTINUOUS
 10
11.2376230716
 20
6.7383175774
 11
11.2376230716
 21
6.3177183517
  0
LINE
  5
30E
100
AcDbEntity
  8
0
100
AcDbLine
 62
4
  6
CONTINUOUS
 10
11.2563461349
 20
8.8020221008
 11
11.2563461349
 21
8.8682570157
  0
LINE
  5
30F
100
AcDbEntity
  8
0
100
AcDbLine
 62
7
  6
CONTINUOUS
 10
11.2795032991
 20
6.7274781907
 11
11.2795032991
 21
6.3068789649
  0
LINE
  5
310
100
AcDbEntity
  8
0
100
AcDbLine
 62
4
  6
CONTINUOUS
 10
11.330860463
 20
8.8382513373
 11
11.330860463
 21
8.8630894294
  0
LINE
  5
311
100
AcDbEntity
  8
0
100
AcDbLine
 62
4
  6
CONTINUOUS
 10
11.3805365713
 20
8.7934094648
 11
11.3805365713
 21
8.8182475595
  0
LINE
  5
312
100
AcDbEntity
  8
0
100
AcDbLine
 62
4
  6
CONTINUOUS
 10
11.0548816125
 20
8.2331264502
 11
11.0383228913
 21
8.2177160717
  0
LINE
  5
313
100
AcDbEntity
  8
0
100
AcDbLine
 62
4
  6
CONTINUOUS
 10
11.1459546065
 20
8.2268105167
 11
11.1293958854
 21
8.2114001381
  0
LINE
  5
314
100
AcDbEntity
  8
0
100
AcDbLine
 62
4
  6
CONTINUOUS
 10
12.1127774397
 20
8.8676467311
 11
12.1272663276
 21
8.8763011796
  0
LINE
  5
315
100
AcDbEntity
  8
0
100
AcDbLine
 62
4
  6
CONTINUOUS
 10
12.1562441035
 20
8.8259952686
 11
12.1272663276
 21
8.8086863681
  0
LINE
  5
316
100
AcDbEntity
  8
0
100
AcDbLine
 62
4
  6
CONTINUOUS
 10
11.3198212617
 20
8.247870281
 11
11.2756646535
 21
8.2288542464
  0
LINE
  5
317
100
AcDbEntity
  8
0
100
AcDbLine
 62
4
  6
CONTINUOUS
 10
10.7430255577
 20
8.801743757
 11
10.7595842788
 21
8.8005954057
  0
LINE
  5
318
100
AcDbEntity
  8
0
100
AcDbLine
 62
4
  6
CONTINUOUS
 10
11.2977430207
 20
8.7908718521
 11
11.2646254678
 21
8.7931685622
  0
LINE
  5
319
100
AcDbEntity
  8
0
100
AcDbLine
 62
4
  6
CONTINUOUS
 10
11.1625133632
 20
8.8002500607
 11
11.145954642
 21
8.8013984119
  0
LINE
  5
31A
100
AcDbEntity
  8
0
100
AcDbLine
 62
4
  6
CONTINUOUS
 10
11.0217641504
 20
8.8100110517
 11
10.988646708
 21
8.8123077542
  0
LINE
  5
31B
100
AcDbEntity
  8
0
100
AcDbLine
 62
4
  6
CONTINUOUS
 10
10.8644562164
 20
8.820920394
 11
10.8313387741
 21
8.8232170964
  0
LINE
  5
31C
100
AcDbEntity
  8
0
100
AcDbLine
 62
4
  6
CONTINUOUS
 10
10.30421923
 20
8.859772961
 11
10.3373366887
 21
8.8574762574
  0
LINE
  5
31D
100
AcDbEntity
  8
0
100
AcDbLine
 62
4
  6
CONTINUOUS
 10
10.403571601
 20
8.8528828507
 11
10.4284097035
 21
8.8511603224
  0
LINE
  5
31E
100
AcDbEntity
  8
0
100
AcDbLine
 62
4
  6
CONTINUOUS
 10
11.0631609809
 20
8.8071401718
 11
11.1045578115
 21
8.8042692918
  0
LINE
  5
31F
100
AcDbEntity
  8
0
100
AcDbLine
 62
4
  6
CONTINUOUS
 10
11.339139796
 20
8.788000976
 11
11.3722572383
 21
8.7857042735
  0
LINE
  5
320
100
AcDbEntity
  8
0
100
AcDbLine
 62
4
  6
CONTINUOUS
 10
12.1055329957
 20
8.7618972879
 11
12.1634885474
 21
8.7578780567
  0
LINE
  5
321
100
AcDbEntity
  8
0
100
AcDbLine
 62
4
  6
CONTINUOUS
 10
10.988646708
 20
8.8537045778
 11
11.0217641504
 21
8.8514078754
  0
LINE
  5
322
100
AcDbEntity
  8
0
100
AcDbLine
 62
4
  6
CONTINUOUS
 10
10.988646708
 20
8.8123077542
 11
10.9720879869
 21
8.8217354703
  0
LINE
  5
323
100
AcDbEntity
  8
0
100
AcDbLine
 62
4
  6
CONTINUOUS
 10
9.592676768
 20
9.8721467379
 11
9.5781878801
 21
9.8828108046
  0
LINE
  5
324
100
AcDbEntity
  8
0
100
AcDbLine
 62
4
  6
CONTINUOUS
 10
9.6071656559
 20
9.9387567382
 11
9.6216545439
 21
9.928092674
  0
LINE
  5
325
100
AcDbEntity
  8
0
100
AcDbLine
 62
4
  6
CONTINUOUS
 10
9.6071656559
 20
9.9870530336
 11
9.6216545439
 21
9.9763889694
  0
LINE
  5
326
100
AcDbEntity
  8
0
100
AcDbLine
 62
4
  6
CONTINUOUS
 10
11.0548815927
 20
8.8159937142
 11
11.0631609809
 21
8.8071401718
  0
LINE
  5
327
100
AcDbEntity
  8
0
100
AcDbLine
 62
4
  6
CONTINUOUS
 10
11.145954642
 20
8.8013984119
 11
11.1376752538
 21
8.8102519543
  0
LINE
  5
328
100
AcDbEntity
  8
0
100
AcDbLine
 62
4
  6
CONTINUOUS
 10
11.124152309
 20
7.198507525
 11
11.131396753
 21
7.226982897
  0
LINE
  5
329
100
AcDbEntity
  8
0
100
AcDbLine
 62
7
  6
CONTINUOUS
 10
12.4189939711
 20
9.2795749984
 11
12.4179791963
 21
9.2786128043
  0
LINE
  5
32A
100
AcDbEntity
  8
0
100
AcDbLine
 62
4
  6
CONTINUOUS
 10
11.0134848174
 20
8.8933788727
 11
10.9720879869
 21
8.8962497527
  0
LINE
  5
32B
100
AcDbEntity
  8
0
100
AcDbLine
 62
4
  6
CONTINUOUS
 10
10.6602318966
 20
8.917877046
 11
10.7016287271
 21
8.915006166
  0
LINE
  5
32C
100
AcDbEntity
  8
0
100
AcDbLine
 62
4
  6
CONTINUOUS
 10
10.8313387741
 20
8.9060107437
 11
10.8644562164
 21
8.9037140413
  0
LINE
  5
32D
100
AcDbEntity
  8
0
100
AcDbLine
 62
4
  6
CONTINUOUS
 10
10.897573714
 20
8.901417335
 11
10.9306911563
 21
8.8991206326
  0
LINE
  5
32E
100
AcDbEntity
  8
0
100
AcDbLine
 62
4
  6
CONTINUOUS
 10
11.2646254678
 20
8.8759622095
 11
11.2977430207
 21
8.8736654994
  0
LINE
  5
32F
100
AcDbEntity
  8
0
100
AcDbLine
 62
4
  6
CONTINUOUS
 10
11.339139796
 20
8.8707946233
 11
11.3722572383
 21
8.8684979208
  0
LINE
  5
330
100
AcDbEntity
  8
0
100
AcDbLine
 62
4
  6
CONTINUOUS
 10
10.3124985949
 20
8.9751098885
 11
10.3456160528
 21
8.972813185
  0
LINE
  5
331
100
AcDbEntity
  8
0
100
AcDbLine
 62
4
  6
CONTINUOUS
 10
11.2121895267
 20
8.9127161105
 11
11.2149493043
 21
8.9125247192
  0
LINE
  5
332
100
AcDbEntity
  8
0
100
AcDbLine
 62
4
  6
CONTINUOUS
 10
12.1272663276
 20
8.8763011796
 11
12.1417552155
 21
8.8752963718
  0
LINE
  5
333
100
AcDbEntity
  8
0
100
AcDbLine
 62
4
  6
CONTINUOUS
 10
11.3722572383
 20
8.8243413092
 11
11.339139796
 21
8.8321575876
  0
LINE
  5
334
100
AcDbEntity
  8
0
100
AcDbLine
 62
4
  6
CONTINUOUS
 10
11.339139796
 20
8.8321575876
 11
11.330860463
 21
8.8382513373
  0
LINE
  5
335
100
AcDbEntity
  8
0
100
AcDbLine
 62
4
  6
CONTINUOUS
 10
11.3805365713
 20
8.8182475595
 11
11.3722572383
 21
8.8243413092
  0
LINE
  5
336
100
AcDbEntity
  8
0
100
AcDbLine
 62
4
  6
CONTINUOUS
 10
11.2646254678
 20
8.7931685622
 11
11.2563461349
 21
8.8020221008
  0
LINE
  5
337
100
AcDbEntity
  8
0
100
AcDbLine
 62
4
  6
CONTINUOUS
 10
11.330860463
 20
8.7968545146
 11
11.339139796
 21
8.788000976
  0
LINE
  5
338
100
AcDbEntity
  8
0
100
AcDbLine
 62
4
  6
CONTINUOUS
 10
11.3722572383
 20
8.8684979208
 11
11.3805365713
 21
8.8596443796
  0
LINE
  5
339
100
AcDbEntity
  8
0
100
AcDbLine
 62
7
  6
CONTINUOUS
 10
11.701429278
 20
6.6982175246
 11
11.701429278
 21
6.2776182989
  0
LINE
  5
33A
100
AcDbEntity
  8
0
100
AcDbLine
 62
7
  6
CONTINUOUS
 10
11.7586387166
 20
6.7021850197
 11
11.7586387166
 21
6.281585794
  0
LINE
  5
33B
100
AcDbEntity
  8
0
100
AcDbLine
 62
4
  6
CONTINUOUS
 10
12.1055329957
 20
8.8584898717
 11
12.1127774397
 21
8.8676467311
  0
LINE
  5
33C
100
AcDbEntity
  8
0
100
AcDbLine
 62
4
  6
CONTINUOUS
 10
12.1272663276
 20
8.8086863681
 11
12.1127774397
 21
8.7903726598
  0
LINE
  5
33D
100
AcDbEntity
  8
0
100
AcDbLine
 62
4
  6
CONTINUOUS
 10
12.1634885474
 20
8.8351521279
 11
12.1562441035
 21
8.8259952686
  0
LINE
  5
33E
100
AcDbEntity
  8
0
100
AcDbLine
 62
4
  6
CONTINUOUS
 10
11.131396753
 20
7.226982897
 11
11.1458856409
 21
7.2452966087
  0
LINE
  5
33F
100
AcDbEntity
  8
0
100
AcDbLine
 62
7
  6
CONTINUOUS
 10
12.0675098836
 20
6.7428513881
 11
12.0675098836
 21
6.3615275038
  0
LINE
  5
340
100
AcDbEntity
  8
0
100
AcDbLine
 62
7
  6
CONTINUOUS
 10
12.0828390948
 20
6.7417883037
 11
12.0828390948
 21
6.3763343857
  0
LINE
  5
341
100
AcDbEntity
  8
0
100
AcDbLine
 62
4
  6
CONTINUOUS
 10
12.1127774397
 20
8.7903726598
 11
12.1055329957
 21
8.7618972879
  0
LINE
  5
342
100
AcDbEntity
  8
0
100
AcDbLine
 62
4
  6
CONTINUOUS
 10
11.1965967487
 20
7.1548464521
 11
11.1893523047
 21
7.1456895971
  0
LINE
  5
343
100
AcDbEntity
  8
0
100
AcDbLine
 62
4
  6
CONTINUOUS
 10
12.1417552155
 20
8.8752963718
 11
12.1562441035
 21
8.8646323077
  0
LINE
  5
344
100
AcDbEntity
  8
0
100
AcDbLine
 62
4
  6
CONTINUOUS
 10
12.1634885474
 20
8.8544706406
 11
12.1634885474
 21
8.8351521279
  0
LINE
  5
345
100
AcDbEntity
  8
0
100
AcDbLine
 62
7
  6
CONTINUOUS
 10
12.2871270556
 20
6.7276208855
 11
12.2871270556
 21
10.2291022132
  0
LINE
  5
346
100
AcDbEntity
  8
0
100
AcDbLine
 62
4
  6
CONTINUOUS
 10
11.1458856409
 20
7.2452966087
 11
11.1603745288
 21
7.2539510572
  0
LINE
  5
347
100
AcDbEntity
  8
0
100
AcDbLine
 62
4
  6
CONTINUOUS
 10
11.1893523047
 20
7.1456895971
 11
11.1748634168
 21
7.137035146
  0
LINE
  5
348
100
AcDbEntity
  8
0
100
AcDbLine
 62
4
  6
CONTINUOUS
 10
9.6071656559
 20
9.8711419301
 11
9.592676768
 21
9.8721467379
  0
LINE
  5
349
100
AcDbEntity
  8
0
100
AcDbLine
 62
4
  6
CONTINUOUS
 10
12.1562441035
 20
8.8646323077
 11
12.1634885474
 21
8.8544706406
  0
LINE
  5
34A
100
AcDbEntity
  8
0
100
AcDbLine
 62
4
  6
CONTINUOUS
 10
9.592676768
 20
9.9397615459
 11
9.6071656559
 21
9.9387567382
  0
LINE
  5
34B
100
AcDbEntity
  8
0
100
AcDbLine
 62
4
  6
CONTINUOUS
 10
9.592676768
 20
9.9880578413
 11
9.6071656559
 21
9.9870530336
  0
LINE
  5
34C
100
AcDbEntity
  8
0
100
AcDbLine
 62
7
  6
CONTINUOUS
 10
12.610650595
 20
7.0401206461
 11
12.610650595
 21
10.5416019738
  0
LINE
  5
34D
100
AcDbEntity
  8
0
100
AcDbLine
 62
7
  6
CONTINUOUS
 10
9.389349405
 20
10.4300637758
 11
12.2871270556
 21
10.2291022132
  0
LINE
  5
34E
100
AcDbEntity
  8
0
100
AcDbLine
 62
7
  6
CONTINUOUS
 10
12.2871270556
 20
6.7276208855
 11
12.610650595
 21
7.0401206461
  0
LINE
  5
34F
100
AcDbEntity
  8
0
100
AcDbLine
 62
7
  6
CONTINUOUS
 10
12.610650595
 20
10.5416019738
 11
9.7128729444
 21
10.7425635365
  0
LINE
  5
350
100
AcDbEntity
  8
0
100
AcDbLine
 62
7
  6
CONTINUOUS
 10
12.0097556245
 20
6.3295051128
 11
11.984590015
 21
6.3170737835
  0
ARC
  5
351
100
AcDbEntity
  8
0
100
AcDbCircle
 62
7
  6
CONTINUOUS
 10
11.6115059339
 20
8.4093209719
 40
1.7134646816
100
AcDbArc
 50
273.0082884861
 51
274.9259735842
  0
ARC
  5
352
100
AcDbEntity
  8
0
100
AcDbCircle
 62
7
  6
CONTINUOUS
 10
11.6115059339
 20
7.9887217461
 40
1.7134646816
100
AcDbArc
 50
273.0082884861
 51
274.9259735842
  0
ARC
  5
353
100
AcDbEntity
  8
0
100
AcDbCircle
 62
7
  6
CONTINUOUS
 10
11.7472714954
 20
6.860440605
 40
0.5922756118
100
AcDbArc
 50
293.5909107106
 51
296.3039528614
  0
ARC
  5
354
100
AcDbEntity
  8
0
100
AcDbCircle
 62
7
  6
CONTINUOUS
 10
10.8069864136
 20
7.7521603114
 40
0.383094934
100
AcDbArc
 50
135.0442200435
 51
135.7290178095
  0
ARC
  5
355
100
AcDbEntity
  8
0
100
AcDbCircle
 62
7
  6
CONTINUOUS
 10
10.8860977488
 20
7.6702574
 40
0.3830336875
100
AcDbArc
 50
312.2858055811
 51
312.8337343035
  0
SPLINE
  5
356
100
AcDbEntity
  8
0
100
AcDbSpline
 62
7
  6
CONTINUOUS
 70
0
 71
3
 72
9
 73
5
 74
0
 42
0.0000001
 43
0.0000001
 44
0.0000000001
 40
0.0
 40
0.0
 40
0.0
 40
0.0
 40
0.4865082157
 40
1.0
 40
1.0
 40
1.0
 40
1.0
 10
12.0760414342
 20
6.3688708219
 30
0.0
 10
12.0747279642
 20
6.3676021072
 30
0.0
 10
12.0719468229
 20
6.3650777023
 30
0.0
 10
12.0690335169
 20
6.3627079979
 30
0.0
 10
12.0675098836
 20
6.3615275038
 30
0.0
  0
SPLINE
  5
357
100
AcDbEntity
  8
0
100
AcDbSpline
 62
7
  6
CONTINUOUS
 70
0
 71
3
 72
9
 73
5
 74
0
 42
0.0000001
 43
0.0000001
 44
0.0000000001
 40
0.0
 40
0.0
 40
0.0
 40
0.0
 40
0.4864210225
 40
1.0
 40
1.0
 40
1.0
 40
1.0
 10
12.0828390948
 20
6.3763343857
 30
0.0
 10
12.0818253878
 20
6.3750480356
 30
0.0
 10
12.0796388976
 20
6.3724832508
 30
0.0
 10
12.0772851785
 20
6.3700721867
 30
0.0
 10
12.0760414342
 20
6.3688708219
 30
0.0
  0
SPLINE
  5
358
100
AcDbEntity
  8
0
100
AcDbSpline
 62
7
  6
CONTINUOUS
 70
0
 71
3
 72
9
 73
5
 74
0
 42
0.0000001
 43
0.0000001
 44
0.0000000001
 40
0.0
 40
0.0
 40
0.0
 40
0.0
 40
0.503991706
 40
1.0
 40
1.0
 40
1.0
 40
1.0
 10
12.0675098836
 20
6.3615275038
 30
0.0
 10
12.0580365361
 20
6.3557386286
 30
0.0
 10
12.0390211191
 20
6.3446054483
 30
0.0
 10
12.0195244542
 20
6.3343309348
 30
0.0
 10
12.0097283871
 20
6.3294916617
 30
0.0
  0
SPLINE
  5
359
100
AcDbEntity
  8
0
100
AcDbSpline
 62
7
  6
CONTINUOUS
 70
0
 71
3
 72
23
 73
19
 74
0
 42
0.0000001
 43
0.0000001
 44
0.0000000001
 40
0.0
 40
0.0
 40
0.0
 40
0.0
 40
0.0439943064
 40
0.0899281819
 40
0.1380403338
 40
0.1885309998
 40
0.2415683448
 40
0.2972701743
 40
0.3557174883
 40
0.4169406608
 40
0.4809367475
 40
0.5476614984
 40
0.617045644
 40
0.688992165
 40
0.7633891149
 40
0.8401121098
 40
0.9190285012
 40
1.0
 40
1.0
 40
1.0
 40
1.0
 10
11.206515405
 20
6.3251266269
 30
0.0
 10
11.2047715237
 20
6.3259880864
 30
0.0
 10
11.201271393
 20
6.3278823931
 30
0.0
 10
11.1961149208
 20
6.3311550678
 30
0.0
 10
11.1909515278
 20
6.3349271652
 30
0.0
 10
11.1857838084
 20
6.3392040315
 30
0.0
 10
11.1806159683
 20
6.3439892678
 30
0.0
 10
11.1754500776
 20
6.3492798771
 30
0.0
 10
11.1702904092
 20
6.3550705141
 30
0.0
 10
11.1651388447
 20
6.3613499503
 30
0.0
 10
11.1599991712
 20
6.3681047078
 30
0.0
 10
11.1548730069
 20
6.3753168728
 30
0.0
 10
11.1497632772
 20
6.3829669071
 30
0.0
 10
11.1446712101
 20
6.3910325911
 30
0.0
 10
11.1395986736
 20
6.3994910486
 30
0.0
 10
11.1345464214
 20
6.408318364
 30
0.0
 10
11.1295153937
 20
6.4174905993
 30
0.0
 10
11.1262163251
 20
6.4237427794
 30
0.0
 10
11.1245682596
 20
6.4269207276
 30
0.0
  0
SPLINE
  5
35A
100
AcDbEntity
  8
0
100
AcDbSpline
 62
7
  6
CONTINUOUS
 70
0
 71
3
 72
46
 73
42
 74
0
 42
0.0000001
 43
0.0000001
 44
0.0000000001
 40
0.0
 40
0.0
 40
0.0
 40
0.0
 40
0.0099874435
 40
0.0204476157
 40
0.0313771114
 40
0.0427707225
 40
0.054621686
 40
0.0669224317
 40
0.0796639566
 40
0.0928360449
 40
0.1204269131
 40
0.1495981875
 40
0.1802403745
 40
0.2122335405
 40
0.2454486791
 40
0.2797494061
 40
0.3149926211
 40
0.3510295021
 40
0.387706851
 40
0.4248677397
 40
0.4623524596
 40
0.499999592
 40
0.537646712
 40
0.5751314595
 40
0.6122923998
 40
0.6489698028
 40
0.6850067986
 40
0.7202500982
 40
0.7545508962
 40
0.7877662248
 40
0.8197595459
 40
0.8504018313
 40
0.8795733387
 40
0.9071643906
 40
0.9330770134
 40
0.9453779539
 40
0.9572290359
 40
0.9686226679
 40
0.9795523026
 40
0.9900125123
 40
1.0
 40
1.0
 40
1.0
 40
1.0
 10
11.9845935448
 20
6.3170755709
 30
0.0
 10
11.9822765659
 20
6.3159310098
 30
0.0
 10
11.9774933731
 20
6.3136671598
 30
0.0
 10
11.9700538708
 20
6.3104135005
 30
0.0
 10
11.9621913311
 20
6.307227043
 30
0.0
 10
11.9539148968
 20
6.3041114836
 30
0.0
 10
11.9452340775
 20
6.3010702178
 30
0.0
 10
11.9361587631
 20
6.2981069844
 30
0.0
 10
11.9266993856
 20
6.2952251118
 30
0.0
 10
11.913382749
 20
6.2914367828
 30
0.0
 10
11.8958493845
 20
6.2869466232
 30
0.0
 10
11.8737751165
 20
6.2820123505
 30
0.0
 10
11.8504544306
 20
6.2774755337
 30
0.0
 10
11.8259948337
 20
6.2733573945
 30
0.0
 10
11.8005089302
 20
6.2696770924
 30
0.0
 10
11.7741142258
 20
6.266451958
 30
0.0
 10
11.7469324796
 20
6.2636971329
 30
0.0
 10
11.719089182
 20
6.2614253426
 30
0.0
 10
11.6907128957
 20
6.259647293
 30
0.0
 10
11.6619346625
 20
6.2583713529
 30
0.0
 10
11.6328874167
 20
6.2576033315
 30
0.0
 10
11.6037053518
 20
6.2573468866
 30
0.0
 10
11.5745232798
 20
6.257603296
 30
0.0
 10
11.545476014
 20
6.2583712137
 30
0.0
 10
11.516697744
 20
6.2596471135
 30
0.0
 10
11.4883213993
 20
6.2614251364
 30
0.0
 10
11.4604780276
 20
6.2636968235
 30
0.0
 10
11.4332962066
 20
6.2664516069
 30
0.0
 10
11.406901409
 20
6.2696767239
 30
0.0
 10
11.3814153879
 20
6.2733569283
 30
0.0
 10
11.3569556485
 20
6.2774750206
 30
0.0
 10
11.3336348986
 20
6.2820118529
 30
0.0
 10
11.311560252
 20
6.2869459729
 30
0.0
 10
11.2908333129
 20
6.2922542855
 30
0.0
 10
11.2744906424
 20
6.2970486475
 30
0.0
 10
11.2621753032
 20
6.3010694894
 30
0.0
 10
11.2534943792
 20
6.3041107721
 30
0.0
 10
11.2452178902
 20
6.307226376
 30
0.0
 10
11.2373552501
 20
6.3104127228
 30
0.0
 10
11.2299156633
 20
6.3136663338
 30
0.0
 10
11.2251324562
 20
6.3159302035
 30
0.0
 10
11.2228154642
 20
6.3170747636
 30
0.0
  0
SPLINE
  5
35B
100
AcDbEntity
  8
0
100
AcDbSpline
 62
7
  6
CONTINUOUS
 70
0
 71
3
 72
9
 73
5
 74
0
 42
0.0000001
 43
0.0000001
 44
0.0000000001
 40
0.0
 40
0.0
 40
0.0
 40
0.0
 40
0.5132482879
 40
1.0
 40
1.0
 40
1.0
 40
1.0
 10
11.2795032991
 20
6.7274781907
 30
0.0
 10
11.2722885177
 20
6.7291318866
 30
0.0
 10
11.2582722734
 20
6.7325357461
 30
0.0
 10
11.2443609716
 20
6.7363484064
 30
0.0
 10
11.2376230716
 20
6.7383175774
 30
0.0
  0
SPLINE
  5
35C
100
AcDbEntity
  8
0
100
AcDbSpline
 62
7
  6
CONTINUOUS
 70
0
 71
3
 72
17
 73
13
 74
0
 42
0.0000001
 43
0.0000001
 44
0.0000000001
 40
0.0
 40
0.0
 40
0.0
 40
0.0
 40
0.131593939
 40
0.2633887997
 40
0.3943193775
 40
0.5233296479
 40
0.64938366
 40
0.7714770019
 40
0.8307377895
 40
0.888652
 40
0.9451084391
 40
1.0
 40
1.0
 40
1.0
 40
1.0
 10
11.6509171416
 20
6.771663033
 30
0.0
 10
11.6376837352
 20
6.7712824107
 30
0.0
 10
11.6111863355
 20
6.7708439807
 30
0.0
 10
11.571513701
 20
6.7711407118
 30
0.0
 10
11.532119287
 20
6.7723870274
 30
0.0
 10
11.493344057
 20
6.7745718898
 30
0.0
 10
11.4555234611
 20
6.7776761
 30
0.0
 10
11.4247757681
 20
6.7810385203
 30
0.0
 10
11.4009098147
 20
6.7841823056
 30
0.0
 10
11.3836274525
 20
6.7867274356
 30
0.0
 10
11.3668218134
 20
6.7894775502
 30
0.0
 10
11.3557982106
 20
6.7914728815
 30
0.0
 10
11.3503733628
 20
6.7925058149
 30
0.0
  0
SPLINE
  5
35D
100
AcDbEntity
  8
0
100
AcDbSpline
 62
7
  6
CONTINUOUS
 70
0
 71
3
 72
9
 73
5
 74
0
 42
0.0000001
 43
0.0000001
 44
0.0000000001
 40
0.0
 40
0.0
 40
0.0
 40
0.0
 40
0.5132482879
 40
1.0
 40
1.0
 40
1.0
 40
1.0
 10
11.2795032991
 20
6.3068789649
 30
0.0
 10
11.2722885177
 20
6.3085326609
 30
0.0
 10
11.2582722734
 20
6.3119365203
 30
0.0
 10
11.2443609716
 20
6.3157491807
 30
0.0
 10
11.2376230716
 20
6.3177183517
 30
0.0
  0
SPLINE
  5
35E
100
AcDbEntity
  8
0
100
AcDbSpline
 62
7
  6
CONTINUOUS
 70
0
 71
3
 72
11
 73
7
 74
0
 42
0.0000001
 43
0.0000001
 44
0.0000000001
 40
0.0
 40
0.0
 40
0.0
 40
0.0
 40
0.2432253995
 40
0.4912799274
 40
0.7437055985
 40
1.0
 40
1.0
 40
1.0
 40
1.0
 10
11.8360239493
 20
6.7590337364
 30
0.0
 10
11.8293071172
 20
6.7550779632
 30
0.0
 10
11.8159788569
 20
6.7466771342
 30
0.0
 10
11.7964969748
 20
6.7329302399
 30
0.0
 10
11.7773259526
 20
6.7180620183
 30
0.0
 10
11.7648389603
 20
6.7075726289
 30
0.0
 10
11.7586387166
 20
6.7021850197
 30
0.0
  0
SPLINE
  5
35F
100
AcDbEntity
  8
0
100
AcDbSpline
 62
7
  6
CONTINUOUS
 70
0
 71
3
 72
21
 73
17
 74
0
 42
0.0000001
 43
0.0000001
 44
0.0000000001
 40
0.0
 40
0.0
 40
0.0
 40
0.0
 40
0.1230814817
 40
0.1847942657
 40
0.2466337258
 40
0.3086097846
 40
0.3707312098
 40
0.4330051319
 40
0.4954352436
 40
0.5580223626
 40
0.6207641208
 40
0.6836547008
 40
0.7466862848
 40
0.8098488395
 40
0.8731308835
 40
1.0
 40
1.0
 40
1.0
 40
1.0
 10
11.701429278
 20
6.2776182989
 30
0.0
 10
11.6841766374
 20
6.2743659155
 30
0.0
 10
11.6581454998
 20
6.270115197
 30
0.0
 10
11.6232089096
 20
6.2659478476
 30
0.0
 10
11.596842212
 20
6.2636258012
 30
0.0
 10
11.5703551452
 20
6.2621661011
 30
0.0
 10
11.5437710861
 20
6.2616159593
 30
0.0
 10
11.5171192218
 20
6.2620123909
 30
0.0
 10
11.4904327289
 20
6.2633773786
 30
0.0
 10
11.4637469571
 20
6.2657162021
 30
0.0
 10
11.437097254
 20
6.2690184914
 30
0.0
 10
11.4105165899
 20
6.2732575111
 30
0.0
 10
11.3840337466
 20
6.2783921523
 30
0.0
 10
11.3576718692
 20
6.2843719002
 30
0.0
 10
11.3226811947
 20
6.2934010198
 30
0.0
 10
11.2967027362
 20
6.3012510411
 30
0.0
 10
11.2795032991
 20
6.3068789649
 30
0.0
  0
SPLINE
  5
360
100
AcDbEntity
  8
0
100
AcDbSpline
 62
7
  6
CONTINUOUS
 70
0
 71
3
 72
28
 73
24
 74
0
 42
0.0000001
 43
0.0000001
 44
0.0000000001
 40
0.0
 40
0.0
 40
0.0
 40
0.0
 40
0.0640274484
 40
0.1279405369
 40
0.1917105404
 40
0.2553123355
 40
0.3187161223
 40
0.3818930725
 40
0.4133919091
 40
0.4448254452
 40
0.4761912782
 40
0.5074882562
 40
0.5387156619
 40
0.5698732312
 40
0.6009621492
 40
0.6319833386
 40
0.6938248821
 40
0.7554274775
 40
0.8168179251
 40
0.8780243018
 40
0.9085700262
 40
0.9390802882
 40
1.0
 40
1.0
 40
1.0
 40
1.0
 10
11.701429278
 20
6.6982175246
 30
0.0
 10
11.6931284273
 20
6.7025006483
 30
0.0
 10
11.6763973676
 20
6.7107840356
 30
0.0
 10
11.6508782013
 20
6.722246022
 30
0.0
 10
11.624954423
 20
6.7326002844
 30
0.0
 10
11.5986412479
 20
6.7417023404
 30
0.0
 10
11.5719734182
 20
6.7494058148
 30
0.0
 10
11.5494779861
 20
6.7545500467
 30
0.0
 10
11.531373914
 20
6.7578371021
 30
0.0
 10
11.5177666586
 20
6.7598758288
 30
0.0
 10
11.504131331
 20
6.761482506
 30
0.0
 10
11.4904814799
 20
6.7626495829
 30
0.0
 10
11.4768315465
 20
6.7633767327
 30
0.0
 10
11.4631956391
 20
6.7636622651
 30
0.0
 10
11.4495875897
 20
6.7635117916
 30
0.0
 10
11.4315187653
 20
6.762738516
 30
0.0
 10
11.4090592758
 20
6.7607231122
 30
0.0
 10
11.382378319
 20
6.7567220057
 30
0.0
 10
11.3560519573
 20
6.7512712914
 30
0.0
 10
11.3344234847
 20
6.7456354665
 30
0.0
 10
11.3173278898
 20
6.7405441084
 30
0.0
 10
11.3003873686
 20
6.7350938803
 30
0.0
 10
11.2878185241
 20
6.7306154057
 30
0.0
 10
11.2795032991
 20
6.7274781907
 30
0.0
  0
SPLINE
  5
361
100
AcDbEntity
  8
0
100
AcDbSpline
 62
7
  6
CONTINUOUS
 70
0
 71
3
 72
13
 73
9
 74
0
 42
0.0000001
 43
0.0000001
 44
0.0000000001
 40
0.0
 40
0.0
 40
0.0
 40
0.0
 40
0.2392401476
 40
0.3604630295
 40
0.4832816768
 40
0.6081576999
 40
0.7355839368
 40
1.0
 40
1.0
 40
1.0
 40
1.0
 10
11.2376230716
 20
6.3177183517
 30
0.0
 10
11.2350510601
 20
6.3177275038
 30
0.0
 10
11.2311718337
 20
6.3179463957
 30
0.0
 10
11.2260254741
 20
6.3186752135
 30
0.0
 10
11.2221347149
 20
6.3194569521
 30
0.0
 10
11.2182316966
 20
6.3204816833
 30
0.0
 10
11.2129484779
 20
6.3222058881
 30
0.0
 10
11.2090640815
 20
6.3238676069
 30
0.0
 10
11.206515405
 20
6.3251266269
 30
0.0
  0
SPLINE
  5
362
100
AcDbEntity
  8
0
100
AcDbSpline
 62
7
  6
CONTINUOUS
 70
0
 71
3
 72
14
 73
10
 74
0
 42
0.0000001
 43
0.0000001
 44
0.0000000001
 40
0.0
 40
0.0
 40
0.0
 40
0.0
 40
0.2696294493
 40
0.4000826278
 40
0.5273422312
 40
0.6511852899
 40
0.7713928731
 40
0.8877388029
 40
1.0
 40
1.0
 40
1.0
 40
1.0
 10
11.2376230716
 20
6.7383175774
 30
0.0
 10
11.2353828618
 20
6.7442155809
 30
0.0
 10
11.2319718618
 20
6.7529348182
 30
0.0
 10
11.2272606745
 20
6.7643397509
 30
0.0
 10
11.2237380573
 20
6.7725439083
 30
0.0
 10
11.2201874299
 20
6.7804740638
 30
0.0
 10
11.2166091507
 20
6.78811078
 30
0.0
 10
11.2130041011
 20
6.7954340503
 30
0.0
 10
11.2105379331
 20
6.8001815081
 30
0.0
 10
11.2092980831
 20
6.8024973189
 30
0.0
  0
SPLINE
  5
363
100
AcDbEntity
  8
0
100
AcDbSpline
 62
7
  6
CONTINUOUS
 70
0
 71
3
 72
15
 73
11
 74
0
 42
0.0000001
 43
0.0000001
 44
0.0000000001
 40
0.0
 40
0.0
 40
0.0
 40
0.0
 40
0.1319943798
 40
0.2615530082
 40
0.3887795478
 40
0.5138991626
 40
0.6372282088
 40
0.759125931
 40
0.8799459217
 40
1.0
 40
1.0
 40
1.0
 40
1.0
 10
11.9843023616
 20
6.3176636997
 30
0.0
 10
11.9749803544
 20
6.3136014175
 30
0.0
 10
11.9562794724
 20
6.3060622345
 30
0.0
 10
11.9278409127
 20
6.2966007939
 30
0.0
 10
11.8993449249
 20
6.2891874183
 30
0.0
 10
11.8708764255
 20
6.283848544
 30
0.0
 10
11.8425164758
 20
6.2805336715
 30
0.0
 10
11.8143322091
 20
6.2791257434
 30
0.0
 10
11.7863710472
 20
6.2794610795
 30
0.0
 10
11.7678474202
 20
6.2807254085
 30
0.0
 10
11.7586387166
 20
6.281585794
 30
0.0
  0
SPLINE
  5
364
100
AcDbEntity
  8
0
100
AcDbSpline
 62
7
  6
CONTINUOUS
 70
0
 71
3
 72
86
 73
82
 74
0
 42
0.0000001
 43
0.0000001
 44
0.0000000001
 40
0.0
 40
0.0
 40
0.0
 40
0.0
 40
0.0039801735
 40
0.0081241171
 40
0.0124359931
 40
0.016919361
 40
0.0215772361
 40
0.0264119817
 40
0.0314252561
 40
0.0366182449
 40
0.0419916453
 40
0.0475457694
 40
0.0532805541
 40
0.0591955582
 40
0.0652900785
 40
0.0715630739
 40
0.0846387684
 40
0.0984101018
 40
0.112860694
 40
0.1279712428
 40
0.1437198619
 40
0.1600823544
 40
0.1770324406
 40
0.1945419645
 40
0.2125810668
 40
0.2311183398
 40
0.2501209668
 40
0.2695548486
 40
0.289384725
 40
0.3095742955
 40
0.3300863312
 40
0.3508827821
 40
0.3719248818
 40
0.3931732491
 40
0.4145879914
 40
0.4577543474
 40
0.501099203
 40
0.5442952951
 40
0.5657359749
 40
0.587017582
 40
0.6081001434
 40
0.6289441761
 40
0.6495107926
 40
0.6697618048
 40
0.6896598276
 40
0.709168385
 40
0.7282520204
 40
0.7468764117
 40
0.7650084972
 40
0.7826166038
 40
0.7996705814
 40
0.8161419537
 40
0.8320040874
 40
0.8472323859
 40
0.8618045214
 40
0.8757007003
 40
0.8889039845
 40
0.9014006969
 40
0.9073810972
 40
0.9131815075
 40
0.9188013673
 40
0.9242405009
 40
0.9294990443
 40
0.9345775709
 40
0.9394770909
 40
0.9441990928
 40
0.9487456636
 40
0.9531194621
 40
0.9573238984
 40
0.9613631411
 40
0.9652422549
 40
0.9689673208
 40
0.9725454977
 40
0.9759852252
 40
0.9824864215
 40
0.9855752926
 40
0.9885737717
 40
0.9914977072
 40
0.9943643167
 40
0.9971920017
 40
1.0
 40
1.0
 40
1.0
 40
1.0
 10
11.211537751
 20
10.471162682
 30
0.0
 10
11.2105474736
 20
10.4702061474
 30
0.0
 10
11.2084812003
 20
10.4682998394
 30
0.0
 10
11.2052005885
 20
10.4655155259
 30
0.0
 10
11.2016790656
 20
10.4627511735
 30
0.0
 10
11.1979185647
 20
10.4600082714
 30
0.0
 10
11.1939209324
 20
10.4572880874
 30
0.0
 10
11.1896881134
 20
10.4545919586
 30
0.0
 10
11.1852222295
 20
10.4519211587
 30
0.0
 10
11.180525494
 20
10.4492770777
 30
0.0
 10
11.1756002762
 20
10.4466610006
 30
0.0
 10
11.1704490351
 20
10.4440742448
 30
0.0
 10
11.1650743467
 20
10.4415181195
 30
0.0
 10
11.1594789212
 20
10.4389938803
 30
0.0
 10
11.1536655501
 20
10.4365028261
 30
0.0
 10
11.1455146947
 20
10.4331813251
 30
0.0
 10
11.1347956366
 20
10.4291304342
 30
0.0
 10
11.1212841448
 20
10.4244860288
 30
0.0
 10
11.1069790132
 20
10.4200028835
 30
0.0
 10
11.0919090826
 20
10.4156901105
 30
0.0
 10
11.0761046041
 20
10.4115564893
 30
0.0
 10
11.0595974146
 20
10.4076104399
 30
0.0
 10
11.0424207938
 20
10.403859998
 30
0.0
 10
11.0246094063
 20
10.4003128028
 30
0.0
 10
11.0061992181
 20
10.3969760794
 30
0.0
 10
10.9872274216
 20
10.3938566235
 30
0.0
 10
10.9677323582
 20
10.3909607883
 30
0.0
 10
10.9477534403
 20
10.3882944699
 30
0.0
 10
10.9273310698
 20
10.3858630918
 30
0.0
 10
10.9065065521
 20
10.3836716003
 30
0.0
 10
10.8853220111
 20
10.3817244537
 30
0.0
 10
10.863820299
 20
10.3800256116
 30
0.0
 10
10.8420449266
 20
10.378578537
 30
0.0
 10
10.8200399142
 20
10.3773861495
 30
0.0
 10
10.790375773
 20
10.3761359649
 30
0.0
 10
10.7530495898
 20
10.3752278845
 30
0.0
 10
10.7081778065
 20
10.375180538
 30
0.0
 10
10.6708305327
 20
10.3760096928
 30
0.0
 10
10.6411330244
 20
10.3771968624
 30
0.0
 10
10.6190910254
 20
10.3783426507
 30
0.0
 10
10.5972705997
 20
10.3797436032
 30
0.0
 10
10.5757158599
 20
10.3813968972
 30
0.0
 10
10.5544704259
 20
10.3832991641
 30
0.0
 10
10.5335772742
 20
10.3854465342
 30
0.0
 10
10.5130786671
 20
10.3878346382
 30
0.0
 10
10.4930160638
 20
10.3904586175
 30
0.0
 10
10.4734300363
 20
10.3933131327
 30
0.0
 10
10.454360185
 20
10.3963923762
 30
0.0
 10
10.4358450539
 20
10.3996900779
 30
0.0
 10
10.4179220497
 20
10.4031995202
 30
0.0
 10
10.4006273658
 20
10.4069135545
 30
0.0
 10
10.3839959063
 20
10.410824615
 30
0.0
 10
10.3680612119
 20
10.4149247352
 30
0.0
 10
10.3528553769
 20
10.4192055672
 30
0.0
 10
10.3384089954
 20
10.4236583954
 30
0.0
 10
10.3247510057
 20
10.4282741661
 30
0.0
 10
10.311908908
 20
10.4330435086
 30
0.0
 10
10.3017648118
 20
10.4371965018
 30
0.0
 10
10.2940851939
 20
10.4405961683
 30
0.0
 10
10.2886298858
 20
10.4431408489
 30
0.0
 10
10.2833970669
 20
10.4457166238
 30
0.0
 10
10.2783893375
 20
10.4483221741
 30
0.0
 10
10.2736092216
 20
10.4509562287
 30
0.0
 10
10.2690591028
 20
10.453617455
 30
0.0
 10
10.2647412477
 20
10.4563045224
 30
0.0
 10
10.2606578263
 20
10.4590161372
 30
0.0
 10
10.256810843
 20
10.4617509169
 30
0.0
 10
10.2532022421
 20
10.464507586
 30
0.0
 10
10.249833791
 20
10.4672847751
 30
0.0
 10
10.2467071837
 20
10.4700811742
 30
0.0
 10
10.2438239816
 20
10.4728955093
 30
0.0
 10
10.241185675
 20
10.4757263444
 30
0.0
 10
10.2387934619
 20
10.4785727833
 30
0.0
 10
10.2359871131
 20
10.4823154727
 30
0.0
 10
10.2336041009
 20
10.4861590801
 30
0.0
 10
10.2317120612
 20
10.4900847392
 30
0.0
 10
10.2305689159
 20
10.492988067
 30
0.0
 10
10.229678662
 20
10.495898445
 30
0.0
 10
10.229042128
 20
10.4988144891
 30
0.0
 10
10.2286599064
 20
10.5017340934
 30
0.0
 10
10.2285748173
 20
10.5036846233
 30
0.0
 10
10.2285748129
 20
10.5046559584
 30
0.0
  0
SPLINE
  5
365
100
AcDbEntity
  8
0
100
AcDbSpline
 62
7
  6
CONTINUOUS
 70
0
 71
3
 72
18
 73
14
 74
0
 42
0.0000001
 43
0.0000001
 44
0.0000000001
 40
0.0
 40
0.0
 40
0.0
 40
0.0
 40
0.150467608
 40
0.291710008
 40
0.4244359371
 40
0.549562455
 40
0.6682139939
 40
0.7255497488
 40
0.7817912909
 40
0.8371402503
 40
0.8918093826
 40
0.9460201179
 40
1.0
 40
1.0
 40
1.0
 40
1.0
 10
12.4488888253
 20
9.4503358733
 30
0.0
 10
12.4505709442
 20
9.4519606755
 30
0.0
 10
12.4539327936
 20
9.4550092226
 30
0.0
 10
12.4591385903
 20
9.4590719321
 30
0.0
 10
12.4643382725
 20
9.4624697775
 30
0.0
 10
12.4695264567
 20
9.4651971815
 30
0.0
 10
12.4738870684
 20
9.4669266635
 30
0.0
 10
12.4773492015
 20
9.4679542182
 30
0.0
 10
12.479908923
 20
9.4685464862
 30
0.0
 10
12.4824601525
 20
9.4689686107
 30
0.0
 10
12.485002175
 20
9.4692204425
 30
0.0
 10
12.4875339794
 20
9.4693018504
 30
0.0
 10
12.4892160375
 20
9.4692423579
 30
0.0
 10
12.4900530293
 20
9.4691843159
 30
0.0
  0
SPLINE
  5
366
100
AcDbEntity
  8
0
100
AcDbSpline
 62
7
  6
CONTINUOUS
 70
0
 71
3
 72
23
 73
19
 74
0
 42
0.0000001
 43
0.0000001
 44
0.0000000001
 40
0.0
 40
0.0
 40
0.0
 40
0.0
 40
0.0637776288
 40
0.1273446152
 40
0.1907020433
 40
0.2538561391
 40
0.3168131818
 40
0.3795820998
 40
0.442173387
 40
0.5045993408
 40
0.5668738683
 40
0.6290123813
 40
0.69103165
 40
0.7529496426
 40
0.8147853504
 40
0.8765585998
 40
0.9382898528
 40
1.0
 40
1.0
 40
1.0
 40
1.0
 10
11.2632456191
 20
7.6737561722
 30
0.0
 10
11.2632456191
 20
7.6669674509
 30
0.0
 10
11.2629207057
 20
7.6534101284
 30
0.0
 10
11.261454085
 20
7.633156571
 30
0.0
 10
11.2590122393
 20
7.613063624
 30
0.0
 10
11.2556008754
 20
7.593178311
 30
0.0
 10
11.2512277193
 20
7.5735462142
 30
0.0
 10
11.2459028538
 20
7.5542126721
 30
0.0
 10
11.2396384864
 20
7.5352222378
 30
0.0
 10
11.2324490228
 20
7.5166187101
 30
0.0
 10
11.2243509966
 20
7.4984449945
 30
0.0
 10
11.2153630499
 20
7.4807430082
 30
0.0
 10
11.2055058829
 20
7.4635535877
 30
0.0
 10
11.1948021935
 20
7.446916379
 30
0.0
 10
11.1832766826
 20
7.4308697997
 30
0.0
 10
11.1709557831
 20
7.415450746
 30
0.0
 10
11.1578683978
 20
7.4006952652
 30
0.0
 10
11.1486508424
 20
7.3913216481
 30
0.0
 10
11.1439263064
 20
7.3867581037
 30
0.0
  0
SPLINE
  5
367
100
AcDbEntity
  8
0
100
AcDbSpline
 62
7
  6
CONTINUOUS
 70
0
 71
3
 72
21
 73
17
 74
0
 42
0.0000001
 43
0.0000001
 44
0.0000000001
 40
0.0
 40
0.0
 40
0.0
 40
0.0
 40
0.1273176366
 40
0.2537999756
 40
0.3167619475
 40
0.3795355041
 40
0.4421314991
 40
0.5045621439
 40
0.5668413432
 40
0.6289845283
 40
0.6910084528
 40
0.7529310935
 40
0.8147714495
 40
0.8765493365
 40
0.9382852194
 40
1.0
 40
1.0
 40
1.0
 40
1.0
 10
11.487340424
 20
9.982232838
 30
0.0
 10
11.487340424
 20
9.9769355881
 30
0.0
 10
11.4868347666
 20
9.9663690238
 30
0.0
 10
11.4849250625
 20
9.9533064674
 30
0.0
 10
11.4826425415
 20
9.9430600338
 30
0.0
 10
11.480561005
 20
9.9355022607
 30
0.0
 10
11.4781122174
 20
9.9280787767
 30
0.0
 10
11.4753017896
 20
9.9208064968
 30
0.0
 10
11.4721362222
 20
9.9137022349
 30
0.0
 10
11.4686227709
 20
9.9067823746
 30
0.0
 10
11.4647695176
 20
9.9000628903
 30
0.0
 10
11.460585371
 20
9.8935592583
 30
0.0
 10
11.4560799687
 20
9.8872865056
 30
0.0
 10
11.4512636214
 20
9.8812590737
 30
0.0
 10
11.4461476628
 20
9.8754910271
 30
0.0
 10
11.4425444596
 20
9.8718267871
 30
0.0
 10
11.4406976008
 20
9.8700428582
 30
0.0
  0
SPLINE
  5
368
100
AcDbEntity
  8
0
100
AcDbSpline
 62
7
  6
CONTINUOUS
 70
0
 71
3
 72
21
 73
17
 74
0
 42
0.0000001
 43
0.0000001
 44
0.0000000001
 40
0.0
 40
0.0
 40
0.0
 40
0.0
 40
0.1273176366
 40
0.2537999756
 40
0.3167619475
 40
0.3795355041
 40
0.4421314991
 40
0.5045621439
 40
0.5668413432
 40
0.6289845283
 40
0.6910084528
 40
0.7529310935
 40
0.8147714495
 40
0.8765493365
 40
0.9382852194
 40
1.0
 40
1.0
 40
1.0
 40
1.0
 10
10.5214145405
 20
7.1514423462
 30
0.0
 10
10.5214145405
 20
7.1461450962
 30
0.0
 10
10.5209088831
 20
7.135578532
 30
0.0
 10
10.518999179
 20
7.1225159756
 30
0.0
 10
10.516716658
 20
7.1122695419
 30
0.0
 10
10.5146351215
 20
7.1047117688
 30
0.0
 10
10.5121863339
 20
7.0972882849
 30
0.0
 10
10.5093759061
 20
7.090016005
 30
0.0
 10
10.5062103387
 20
7.0829117431
 30
0.0
 10
10.5026968873
 20
7.0759918827
 30
0.0
 10
10.4988436341
 20
7.0692723985
 30
0.0
 10
10.4946594875
 20
7.0627687665
 30
0.0
 10
10.4901540852
 20
7.0564960138
 30
0.0
 10
10.4853377379
 20
7.0504685819
 30
0.0
 10
10.4802217793
 20
7.0447005353
 30
0.0
 10
10.476618576
 20
7.0410362953
 30
0.0
 10
10.4747717172
 20
7.0392523664
 30
0.0
  0
SPLINE
  5
369
100
AcDbEntity
  8
0
100
AcDbSpline
 62
7
  6
CONTINUOUS
 70
0
 71
3
 72
39
 73
35
 74
0
 42
0.0000001
 43
0.0000001
 44
0.0000000001
 40
0.0
 40
0.0
 40
0.0
 40
0.0
 40
0.032605325
 40
0.0649167362
 40
0.0969376395
 40
0.128684744
 40
0.16018853
 40
0.1914903748
 40
0.222639769
 40
0.253691444
 40
0.2847030134
 40
0.3157330764
 40
0.346839779
 40
0.378079873
 40
0.4095079108
 40
0.4411753669
 40
0.4731293077
 40
0.5054100948
 40
0.5380475446
 40
0.5710545791
 40
0.6044177851
 40
0.6380845523
 40
0.6719479101
 40
0.7058338674
 40
0.7395003718
 40
0.7726568212
 40
0.8050078746
 40
0.8363078507
 40
0.8664038604
 40
0.8952498392
 40
0.9228944868
 40
0.9494561499
 40
0.9750964728
 40
1.0
 40
1.0
 40
1.0
 40
1.0
 10
10.6921265325
 20
7.797097464
 30
0.0
 10
10.6921265325
 20
7.7919149683
 30
0.0
 10
10.6925518258
 20
7.7815913381
 30
0.0
 10
10.6944753324
 20
7.7662865076
 30
0.0
 10
10.6976515735
 20
7.7513303093
 30
0.0
 10
10.7020332402
 20
7.7368166424
 30
0.0
 10
10.7075594076
 20
7.7228225181
 30
0.0
 10
10.7141603303
 20
7.7094089268
 30
0.0
 10
10.7217618893
 20
7.6966207037
 30
0.0
 10
10.730289549
 20
7.6844881926
 30
0.0
 10
10.7396713897
 20
7.6730293743
 30
0.0
 10
10.7498402342
 20
7.6622523196
 30
0.0
 10
10.7607349262
 20
7.6521576096
 30
0.0
 10
10.7723008869
 20
7.642740564
 30
0.0
 10
10.7844900915
 20
7.6339932051
 30
0.0
 10
10.7972605233
 20
7.6259059761
 30
0.0
 10
10.8105750976
 20
7.6184692694
 30
0.0
 10
10.8243999445
 20
7.6116748386
 30
0.0
 10
10.8387017953
 20
7.6055171642
 30
0.0
 10
10.8534441717
 20
7.5999947968
 30
0.0
 10
10.8685820779
 20
7.5951116223
 30
0.0
 10
10.8840551929
 20
7.5908778281
 30
0.0
 10
10.8997803966
 20
7.5873101267
 30
0.0
 10
10.9156459827
 20
7.5844306091
 30
0.0
 10
10.9315112386
 20
7.5822638714
 30
0.0
 10
10.9472149731
 20
7.5808325917
 30
0.0
 10
10.9625930528
 20
7.580152844
 30
0.0
 10
10.9775000702
 20
7.5802313109
 30
0.0
 10
10.9918266242
 20
7.5810651495
 30
0.0
 10
11.0055063001
 20
7.5826450151
 30
0.0
 10
11.0185116375
 20
7.5849590938
 30
0.0
 10
11.0308441023
 20
7.5879970063
 30
0.0
 10
11.042520835
 20
7.5917515045
 30
0.0
 10
11.0499764167
 20
7.5947680044
 30
0.0
 10
11.0535856272
 20
7.596393404
 30
0.0
  0
SPLINE
  5
36A
100
AcDbEntity
  8
0
100
AcDbSpline
 62
7
  6
CONTINUOUS
 70
0
 71
3
 72
23
 73
19
 74
0
 42
0.0000001
 43
0.0000001
 44
0.0000000001
 40
0.0
 40
0.0
 40
0.0
 40
0.0
 40
0.0637764156
 40
0.1273451284
 40
0.1907019885
 40
0.2538560635
 40
0.3168132288
 40
0.3795820795
 40
0.4421733867
 40
0.5045993416
 40
0.5668738629
 40
0.6290123789
 40
0.691031653
 40
0.7529496458
 40
0.8147853519
 40
0.8765586031
 40
0.9382898573
 40
1.0
 40
1.0
 40
1.0
 40
1.0
 10
11.0812775807
 20
7.702988534
 30
0.0
 10
11.0812775807
 20
7.6993628155
 30
0.0
 10
11.0811040197
 20
7.6921219586
 30
0.0
 10
11.0803207567
 20
7.6813047383
 30
0.0
 10
11.0790165734
 20
7.670573235
 30
0.0
 10
11.0771946117
 20
7.6599527152
 30
0.0
 10
11.0748589501
 20
7.649467409
 30
0.0
 10
11.0720149919
 20
7.639141556
 30
0.0
 10
11.068669279
 20
7.6289989522
 30
0.0
 10
11.0648294532
 20
7.6190629971
 30
0.0
 10
11.060504382
 20
7.6093565986
 30
0.0
 10
11.0557040325
 20
7.5999021355
 30
0.0
 10
11.0504394338
 20
7.5907214304
 30
0.0
 10
11.0447226983
 20
7.581835667
 30
0.0
 10
11.0385670504
 20
7.573265344
 30
0.0
 10
11.0319866042
 20
7.5650301654
 30
0.0
 10
11.0249967644
 20
7.5571494117
 30
0.0
 10
11.0200737685
 20
7.5521430509
 30
0.0
 10
11.0175504434
 20
7.5497057065
 30
0.0
  0
SPLINE
  5
36B
100
AcDbEntity
  8
0
100
AcDbSpline
 62
7
  6
CONTINUOUS
 70
0
 71
3
 72
39
 73
35
 74
0
 42
0.0000001
 43
0.0000001
 44
0.0000000001
 40
0.0
 40
0.0
 40
0.0
 40
0.0
 40
0.0310753278
 40
0.0623079062
 40
0.093693137
 40
0.1252222865
 40
0.1568840454
 40
0.1886642043
 40
0.2205461643
 40
0.2525112486
 40
0.2845391082
 40
0.3166081368
 40
0.3486959081
 40
0.3807796237
 40
0.412836566
 40
0.4448445497
 40
0.4767823661
 40
0.5086302138
 40
0.5403701085
 40
0.5719862661
 40
0.6034654517
 40
0.6347972864
 40
0.6659745051
 40
0.6969931566
 40
0.7278527388
 40
0.758556263
 40
0.78911024
 40
0.8195245851
 40
0.8498124377
 40
0.8799898969
 40
0.9100756761
 40
0.9400906823
 40
0.9700575294
 40
1.0
 40
1.0
 40
1.0
 40
1.0
 10
11.0812775807
 20
7.702988534
 30
0.0
 10
11.0812775807
 20
7.7086139025
 30
0.0
 10
11.0808579417
 20
7.7198974344
 30
0.0
 10
11.0789843397
 20
7.7367687193
 30
0.0
 10
11.075875573
 20
7.7535409378
 30
0.0
 10
11.0715488151
 20
7.770120796
 30
0.0
 10
11.0660280376
 20
7.7864175639
 30
0.0
 10
11.0593436674
 20
7.8023417138
 30
0.0
 10
11.0515325251
 20
7.8178058786
 30
0.0
 10
11.042637577
 20
7.8327251964
 30
0.0
 10
11.0327077167
 20
7.8470178062
 30
0.0
 10
11.0217974923
 20
7.8606052808
 30
0.0
 10
11.0099668152
 20
7.8734130588
 30
0.0
 10
10.9972806294
 20
7.8853708464
 30
0.0
 10
10.9838085583
 20
7.8964129984
 30
0.0
 10
10.9696245264
 20
7.9064788754
 30
0.0
 10
10.9548063587
 20
7.9155131734
 30
0.0
 10
10.9394353587
 20
7.9234662254
 30
0.0
 10
10.9235958686
 20
7.930294272
 30
0.0
 10
10.9073748123
 20
7.9359597025
 30
0.0
 10
10.8908612252
 20
7.9404312604
 30
0.0
 10
10.8741457743
 20
7.9436842241
 30
0.0
 10
10.8573202646
 20
7.9457005428
 30
0.0
 10
10.8404771422
 20
7.9464689395
 30
0.0
 10
10.8237089924
 20
7.9459849817
 30
0.0
 10
10.8071080353
 20
7.9442511143
 30
0.0
 10
10.7907656226
 20
7.9412766583
 30
0.0
 10
10.7747717327
 20
7.9370777695
 30
0.0
 10
10.7592144811
 20
7.9316773707
 30
0.0
 10
10.744179599
 20
7.9251050069
 30
0.0
 10
10.7297500628
 20
7.9173968076
 30
0.0
 10
10.7160052038
 20
7.9085948872
 30
0.0
 10
10.7030218209
 20
7.8987486237
 30
0.0
 10
10.6949181249
 20
7.8915210705
 30
0.0
 10
10.6910195528
 20
7.8877553396
 30
0.0
  0
SPLINE
  5
36C
100
AcDbEntity
  8
0
100
AcDbSpline
 62
7
  6
CONTINUOUS
 70
0
 71
3
 72
18
 73
14
 74
0
 42
0.0000001
 43
0.0000001
 44
0.0000000001
 40
0.0
 40
0.0
 40
0.0
 40
0.0
 40
0.0548621106
 40
0.1099281304
 40
0.165399556
 40
0.2214731722
 40
0.2783387379
 40
0.3361775111
 40
0.4554063056
 40
0.5804414047
 40
0.7123341351
 40
0.8519581983
 40
1.0
 40
1.0
 40
1.0
 40
1.0
 10
11.2285748055
 20
10.5046565932
 30
0.0
 10
11.2285748087
 20
10.5039504472
 30
0.0
 10
11.2285299962
 20
10.5025351251
 30
0.0
 10
11.2283285
 20
10.5004144421
 30
0.0
 10
11.2279927496
 20
10.4982949828
 30
0.0
 10
11.2275228719
 20
10.4961775206
 30
0.0
 10
11.2269190649
 20
10.4940625844
 30
0.0
 10
11.2259259143
 20
10.491218566
 30
0.0
 10
11.2243348972
 20
10.4876614636
 30
0.0
 10
11.2219132639
 20
10.4834605074
 30
0.0
 10
11.2189638313
 20
10.4792867368
 30
0.0
 10
11.2154910864
 20
10.4751443581
 30
0.0
 10
11.2129082823
 20
10.4724865137
 30
0.0
 10
11.211537751
 20
10.471162682
 30
0.0
  0
SPLINE
  5
36D
100
AcDbEntity
  8
0
100
AcDbSpline
 62
7
  6
CONTINUOUS
 70
0
 71
3
 72
47
 73
43
 74
0
 42
0.0000001
 43
0.0000001
 44
0.0000000001
 40
0.0
 40
0.0
 40
0.0
 40
0.0
 40
0.0149719699
 40
0.0299469986
 40
0.0449281275
 40
0.0599183593
 40
0.0749206409
 40
0.0899378479
 40
0.1049727642
 40
0.1200280654
 40
0.1351063071
 40
0.1502099062
 40
0.1653411266
 40
0.1805020712
 40
0.195694667
 40
0.2109206532
 40
0.226181577
 40
0.2414787841
 40
0.2721808909
 40
0.30303905
 40
0.3340562704
 40
0.3652320501
 40
0.3965624391
 40
0.4280401707
 40
0.4596548674
 40
0.4913932962
 40
0.5232396724
 40
0.5551760134
 40
0.5871825188
 40
0.61923798
 40
0.6513202127
 40
0.6834065006
 40
0.7154740464
 40
0.7475004247
 40
0.7794640313
 40
0.8113445177
 40
0.8431232087
 40
0.8747834982
 40
0.9063112124
 40
0.9376949433
 40
0.9689261019
 40
1.0
 40
1.0
 40
1.0
 40
1.0
 10
10.5325501542
 20
8.0197029657
 30
0.0
 10
10.5362002293
 20
8.0232286622
 30
0.0
 10
10.5436421725
 20
8.0301364167
 30
0.0
 10
10.5552092272
 20
8.0400474049
 30
0.0
 10
10.567165754
 20
8.0494952607
 30
0.0
 10
10.5794950882
 20
8.0584667373
 30
0.0
 10
10.5921802912
 20
8.066949591
 30
0.0
 10
10.6052038948
 20
8.0749321305
 30
0.0
 10
10.618547999
 20
8.0824033438
 30
0.0
 10
10.6321942116
 20
8.0893529989
 30
0.0
 10
10.6461237564
 20
8.0957715378
 30
0.0
 10
10.6603174809
 20
8.1016500952
 30
0.0
 10
10.6747558341
 20
8.1069806364
 30
0.0
 10
10.6894189448
 20
8.1117558383
 30
0.0
 10
10.7042866706
 20
8.1159690972
 30
0.0
 10
10.7193384653
 20
8.1196146676
 30
0.0
 10
10.7345539059
 20
8.1226875669
 30
0.0
 10
10.7550534283
 20
8.1260192462
 30
0.0
 10
10.7809905624
 20
8.128728416
 30
0.0
 10
10.812385493
 20
8.1296343512
 30
0.0
 10
10.8439217333
 20
8.1281956616
 30
0.0
 10
10.8754247423
 20
8.1244203916
 30
0.0
 10
10.9067217442
 20
8.11832969
 30
0.0
 10
10.937640774
 20
8.1099573979
 30
0.0
 10
10.9680120932
 20
8.0993497771
 30
0.0
 10
10.9976689804
 20
8.0865653268
 30
0.0
 10
11.0264487071
 20
8.0716745131
 30
0.0
 10
11.0541933383
 20
8.0547592279
 30
0.0
 10
11.0807506392
 20
8.0359124623
 30
0.0
 10
11.1059749235
 20
8.0152378018
 30
0.0
 10
11.1297277502
 20
7.9928487467
 30
0.0
 10
11.1518787664
 20
7.9688682181
 30
0.0
 10
11.1723064083
 20
7.9434278565
 30
0.0
 10
11.1908984641
 20
7.9166672333
 30
0.0
 10
11.2075528137
 20
7.8887332028
 30
0.0
 10
11.2221779377
 20
7.8597790465
 30
0.0
 10
11.2346933297
 20
7.8299636291
 30
0.0
 10
11.2450300952
 20
7.7994505432
 30
0.0
 10
11.2531312454
 20
7.7684074325
 30
0.0
 10
11.2589519059
 20
7.7370041484
 30
0.0
 10
11.2624599018
 20
7.7054153828
 30
0.0
 10
11.2632456191
 20
7.684288773
 30
0.0
 10
11.2632456191
 20
7.6737561722
 30
0.0
  0
SPLINE
  5
36E
100
AcDbEntity
  8
0
100
AcDbSpline
 62
7
  6
CONTINUOUS
 70
0
 71
3
 72
19
 73
15
 74
0
 42
0.0000001
 43
0.0000001
 44
0.0000000001
 40
0.0
 40
0.0
 40
0.0
 40
0.0
 40
0.1263681917
 40
0.1895187361
 40
0.2526243292
 40
0.3786209178
 40
0.5042411903
 40
0.5668744796
 40
0.6293566238
 40
0.691668075
 40
0.7537896659
 40
0.8157018252
 40
0.8773881144
 40
1.0
 40
1.0
 40
1.0
 40
1.0
 10
10.7308592159
 20
7.9178534321
 30
0.0
 10
10.7278472662
 20
7.9133483706
 30
0.0
 10
10.7235423244
 20
7.9064460813
 30
0.0
 10
10.7182679826
 20
7.8969814713
 30
0.0
 10
10.7133203006
 20
7.8873595932
 30
0.0
 10
10.7077653327
 20
7.8750467086
 30
0.0
 10
10.7031042443
 20
7.8623886024
 30
0.0
 10
10.699952677
 20
7.8521060722
 30
0.0
 10
10.6978874288
 20
7.8443362517
 30
0.0
 10
10.696126033
 20
7.8365144658
 30
0.0
 10
10.6946751989
 20
7.8286540068
 30
0.0
 10
10.6935403793
 20
7.8207685123
 30
0.0
 10
10.6924571705
 20
7.8102638768
 30
0.0
 10
10.6921265325
 20
7.8023555501
 30
0.0
 10
10.6921265325
 20
7.797097464
 30
0.0
  0
SPLINE
  5
36F
100
AcDbEntity
  8
0
100
AcDbSpline
 62
7
  6
CONTINUOUS
 70
0
 71
3
 72
42
 73
38
 74
0
 42
0.0000001
 43
0.0000001
 44
0.0000000001
 40
0.0
 40
0.0
 40
0.0
 40
0.0
 40
0.0299419663
 40
0.0449235352
 40
0.0599142051
 40
0.0899287052
 40
0.1200139767
 40
0.135092661
 40
0.150196701
 40
0.1804840414
 40
0.210897872
 40
0.2414513324
 40
0.2721543376
 40
0.3030133986
 40
0.3340315263
 40
0.3652082187
 40
0.3965395244
 40
0.4280181782
 40
0.4596338019
 40
0.4913731609
 40
0.5232204716
 40
0.55515775
 40
0.5871651943
 40
0.6192215961
 40
0.6513047701
 40
0.6833919991
 40
0.7154604852
 40
0.7474878032
 40
0.7794523473
 40
0.8113337692
 40
0.8431133916
 40
0.8747746171
 40
0.9063032365
 40
0.9376879249
 40
0.9533258257
 40
0.968925233
 40
1.0
 40
1.0
 40
1.0
 40
1.0
 10
11.2017047434
 20
10.1174664103
 30
0.0
 10
11.2045581661
 20
10.1202226054
 30
0.0
 10
11.209006475
 20
10.1241899127
 30
0.0
 10
11.2152362624
 20
10.1291124518
 30
0.0
 10
11.2216644239
 20
10.1337900586
 30
0.0
 10
11.2300521325
 20
10.1391614602
 30
0.0
 10
11.2388476667
 20
10.1438598753
 30
0.0
 10
11.2461016882
 20
10.1472023753
 30
0.0
 10
11.2535055842
 20
10.150268893
 30
0.0
 10
11.263004428
 20
10.1535663195
 30
0.0
 10
11.2747103278
 20
10.1566394321
 30
0.0
 10
11.2866716543
 20
10.1588165163
 30
0.0
 10
11.2988221226
 20
10.1600855534
 30
0.0
 10
11.3110949867
 20
10.160439773
 30
0.0
 10
11.3234227178
 20
10.1598773715
 30
0.0
 10
11.3357375596
 20
10.1584015976
 30
0.0
 10
11.3479718474
 20
10.1560207049
 30
0.0
 10
11.3600583884
 20
10.1527479065
 30
0.0
 10
11.3719308228
 20
10.1486012975
 30
0.0
 10
11.3835239837
 20
10.1436037521
 30
0.0
 10
11.3947742493
 20
10.1377827968
 30
0.0
 10
11.4056198879
 20
10.1311704594
 30
0.0
 10
11.4160013918
 20
10.1238030923
 30
0.0
 10
11.4258617998
 20
10.1157211738
 30
0.0
 10
11.4351470055
 20
10.1069690877
 30
0.0
 10
11.4438060516
 20
10.0975948815
 30
0.0
 10
11.451791406
 20
10.0876500054
 30
0.0
 10
11.4590592202
 20
10.0771890321
 30
0.0
 10
11.4655695682
 20
10.0662693639
 30
0.0
 10
11.4712866637
 20
10.0549509087
 30
0.0
 10
11.4761790549
 20
10.0432958021
 30
0.0
 10
11.4802198042
 20
10.0313678985
 30
0.0
 10
11.4833865929
 20
10.0192330624
 30
0.0
 10
11.4852851499
 20
10.0089899408
 30
0.0
 10
11.4863501874
 20
10.0007597235
 30
0.0
 10
11.4871102769
 20
9.9925373797
 30
0.0
 10
11.487340424
 20
9.9863501243
 30
0.0
 10
11.487340424
 20
9.982232838
 30
0.0
  0
SPLINE
  5
370
100
AcDbEntity
  8
0
100
AcDbSpline
 62
7
  6
CONTINUOUS
 70
0
 71
3
 72
42
 73
38
 74
0
 42
0.0000001
 43
0.0000001
 44
0.0000000001
 40
0.0
 40
0.0
 40
0.0
 40
0.0
 40
0.0299419663
 40
0.0449235352
 40
0.0599142051
 40
0.0899287052
 40
0.1200139767
 40
0.135092661
 40
0.150196701
 40
0.1804840414
 40
0.210897872
 40
0.2414513324
 40
0.2721543376
 40
0.3030133986
 40
0.3340315263
 40
0.3652082187
 40
0.3965395244
 40
0.4280181782
 40
0.4596338019
 40
0.4913731609
 40
0.5232204716
 40
0.55515775
 40
0.5871651943
 40
0.6192215961
 40
0.6513047701
 40
0.6833919991
 40
0.7154604852
 40
0.7474878032
 40
0.7794523473
 40
0.8113337692
 40
0.8431133916
 40
0.8747746171
 40
0.9063032365
 40
0.9376879249
 40
0.9533258257
 40
0.968925233
 40
1.0
 40
1.0
 40
1.0
 40
1.0
 10
10.2357788599
 20
7.2866759185
 30
0.0
 10
10.2386322826
 20
7.2894321136
 30
0.0
 10
10.2430805915
 20
7.2933994209
 30
0.0
 10
10.2493103789
 20
7.29832196
 30
0.0
 10
10.2557385403
 20
7.3029995668
 30
0.0
 10
10.2641262489
 20
7.3083709684
 30
0.0
 10
10.2729217831
 20
7.3130693834
 30
0.0
 10
10.2801758046
 20
7.3164118835
 30
0.0
 10
10.2875797007
 20
7.3194784012
 30
0.0
 10
10.2970785445
 20
7.3227758277
 30
0.0
 10
10.3087844443
 20
7.3258489403
 30
0.0
 10
10.3207457707
 20
7.3280260245
 30
0.0
 10
10.3328962391
 20
7.3292950616
 30
0.0
 10
10.3451691031
 20
7.3296492812
 30
0.0
 10
10.3574968342
 20
7.3290868797
 30
0.0
 10
10.3698116761
 20
7.3276111058
 30
0.0
 10
10.3820459638
 20
7.325230213
 30
0.0
 10
10.3941325049
 20
7.3219574147
 30
0.0
 10
10.4060049393
 20
7.3178108057
 30
0.0
 10
10.4175981002
 20
7.3128132602
 30
0.0
 10
10.4288483658
 20
7.306992305
 30
0.0
 10
10.4396940044
 20
7.3003799676
 30
0.0
 10
10.4500755083
 20
7.2930126005
 30
0.0
 10
10.4599359162
 20
7.284930682
 30
0.0
 10
10.469221122
 20
7.2761785959
 30
0.0
 10
10.4778801681
 20
7.2668043897
 30
0.0
 10
10.4858655225
 20
7.2568595136
 30
0.0
 10
10.4931333367
 20
7.2463985403
 30
0.0
 10
10.4996436847
 20
7.2354788721
 30
0.0
 10
10.5053607802
 20
7.2241604169
 30
0.0
 10
10.5102531714
 20
7.2125053103
 30
0.0
 10
10.5142939207
 20
7.2005774067
 30
0.0
 10
10.5174607094
 20
7.1884425706
 30
0.0
 10
10.5193592663
 20
7.178199449
 30
0.0
 10
10.5204243039
 20
7.1699692317
 30
0.0
 10
10.5211843934
 20
7.1617468879
 30
0.0
 10
10.5214145405
 20
7.1555596325
 30
0.0
 10
10.5214145405
 20
7.1514423462
 30
0.0
  0
SPLINE
  5
371
100
AcDbEntity
  8
0
100
AcDbSpline
 62
7
  6
CONTINUOUS
 70
0
 71
3
 72
91
 73
87
 74
0
 42
0.0000001
 43
0.0000001
 44
0.0000000001
 40
0.0
 40
0.0
 40
0.0
 40
0.0
 40
0.0027164146
 40
0.005453202
 40
0.008230252
 40
0.0110665198
 40
0.0139797053
 40
0.0169859824
 40
0.0200999174
 40
0.023334401
 40
0.0267007187
 40
0.0302086385
 40
0.0338665091
 40
0.0376814414
 40
0.0416593691
 40
0.0458052582
 40
0.0501231421
 40
0.0546162891
 40
0.0592872586
 40
0.064137982
 40
0.0691698666
 40
0.0743837897
 40
0.079780237
 40
0.0853592528
 40
0.0911205635
 40
0.0970635488
 40
0.1031872988
 40
0.1094906474
 40
0.1226297881
 40
0.1364673429
 40
0.1509860432
 40
0.166165828
 40
0.1819841602
 40
0.1984162836
 40
0.2154354412
 40
0.2330130641
 40
0.2511189358
 40
0.2697213391
 40
0.2887871904
 40
0.3082821639
 40
0.3281708096
 40
0.3484166635
 40
0.368982358
 40
0.3898297276
 40
0.4109199118
 40
0.4322134566
 40
0.4536704139
 40
0.4752504412
 40
0.4969128994
 40
0.5186169519
 40
0.5403216628
 40
0.5619860952
 40
0.5835694083
 40
0.6050309559
 40
0.6263303839
 40
0.6474277291
 40
0.6682835187
 40
0.688858872
 40
0.7091156002
 40
0.7290163102
 40
0.7485245085
 40
0.7676047097
 40
0.7862225487
 40
0.8043448976
 40
0.8219399925
 40
0.8389775679
 40
0.8554290014
 40
0.8712674776
 40
0.8864681732
 40
0.9010084737
 40
0.9148682315
 40
0.9280300795
 40
0.9343449284
 40
0.9404802779
 40
0.9464349254
 40
0.952207944
 40
0.9577987094
 40
0.9632068925
 40
0.9684325652
 40
0.9734761403
 40
0.9783384919
 40
0.9830209404
 40
0.9875254382
 40
0.9918545985
 40
0.9960115586
 40
1.0
 40
1.0
 40
1.0
 40
1.0
 10
12.4077246212
 20
8.2820356292
 30
0.0
 10
12.4066141264
 20
8.2821126375
 30
0.0
 10
12.4043904938
 20
8.2823677331
 30
0.0
 10
12.4010833469
 20
8.2830503722
 30
0.0
 10
12.397801208
 20
8.2840329477
 30
0.0
 10
12.3945463793
 20
8.2853144135
 30
0.0
 10
12.3913205934
 20
8.286893743
 30
0.0
 10
12.3881254483
 20
8.2887695931
 30
0.0
 10
12.3849624652
 20
8.2909407108
 30
0.0
 10
12.3818330183
 20
8.29340567
 30
0.0
 10
12.3787384675
 20
8.2961630474
 30
0.0
 10
12.3756801654
 20
8.2992113487
 30
0.0
 10
12.3726594053
 20
8.3025489512
 30
0.0
 10
12.3696775864
 20
8.3061742059
 30
0.0
 10
12.3667359931
 20
8.3100852603
 30
0.0
 10
12.3638360462
 20
8.3142802215
 30
0.0
 10
12.3609790582
 20
8.3187569946
 30
0.0
 10
12.3581664192
 20
8.3235133927
 30
0.0
 10
12.355399482
 20
8.3285470687
 30
0.0
 10
12.3526795742
 20
8.3338555316
 30
0.0
 10
12.3500080717
 20
8.3394361687
 30
0.0
 10
12.3473862408
 20
8.3452861969
 30
0.0
 10
12.3448154403
 20
8.3514027265
 30
0.0
 10
12.3422969002
 20
8.3577826995
 30
0.0
 10
12.3398319153
 20
8.3644229455
 30
0.0
 10
12.3374217075
 20
8.3713201424
 30
0.0
 10
12.3350674621
 20
8.3784708546
 30
0.0
 10
12.3319617093
 20
8.3884771911
 30
0.0
 10
12.3282389023
 20
8.4015995592
 30
0.0
 10
12.3240724376
 20
8.4180877634
 30
0.0
 10
12.3201557735
 20
8.4354951265
 30
0.0
 10
12.3164968575
 20
8.4537867536
 30
0.0
 10
12.3131031363
 20
8.4729261152
 30
0.0
 10
12.3099815155
 20
8.4928748688
 30
0.0
 10
12.3071383481
 20
8.5135930235
 30
0.0
 10
12.3045794211
 20
8.5350390081
 30
0.0
 10
12.3023099433
 20
8.5571697678
 30
0.0
 10
12.3003345349
 20
8.5799408533
 30
0.0
 10
12.2986572187
 20
8.6033065146
 30
0.0
 10
12.2972814121
 20
8.6272197949
 30
0.0
 10
12.2962099213
 20
8.6516326265
 30
0.0
 10
12.2954449337
 20
8.6764959294
 30
0.0
 10
12.2949880152
 20
8.7017597111
 30
0.0
 10
12.2948401085
 20
8.72737317
 30
0.0
 10
12.295001531
 20
8.7532847981
 30
0.0
 10
12.2954719748
 20
8.7794424852
 30
0.0
 10
12.2962505075
 20
8.8057936239
 30
0.0
 10
12.2973355739
 20
8.8322852161
 30
0.0
 10
12.2987249997
 20
8.8588639796
 30
0.0
 10
12.3004159936
 20
8.8854764561
 30
0.0
 10
12.3024051552
 20
8.9120691194
 30
0.0
 10
12.3046884819
 20
8.9385884838
 30
0.0
 10
12.3072613771
 20
8.9649812117
 30
0.0
 10
12.3101186594
 20
8.9911942212
 30
0.0
 10
12.3132545725
 20
9.0171747928
 30
0.0
 10
12.3166627975
 20
9.042870676
 30
0.0
 10
12.3203364643
 20
9.0682301958
 30
0.0
 10
12.3242681641
 20
9.0932023576
 30
0.0
 10
12.3284499667
 20
9.1177369506
 30
0.0
 10
12.3328734351
 20
9.1417846488
 30
0.0
 10
12.3375296431
 20
9.1652971114
 30
0.0
 10
12.3424091926
 20
9.1882270811
 30
0.0
 10
12.3475022319
 20
9.2105284807
 30
0.0
 10
12.3527984766
 20
9.2321565083
 30
0.0
 10
12.3582872279
 20
9.2530677318
 30
0.0
 10
12.3639573947
 20
9.2732201806
 30
0.0
 10
12.3697975181
 20
9.2925734316
 30
0.0
 10
12.375795795
 20
9.3110887023
 30
0.0
 10
12.3819401036
 20
9.328728914
 30
0.0
 10
12.3882180349
 20
9.3454588535
 30
0.0
 10
12.3946169127
 20
9.3612449903
 30
0.0
 10
12.4001125181
 20
9.3737543863
 30
0.0
 10
12.4045676439
 20
9.3832579629
 30
0.0
 10
12.4078850308
 20
9.3900317913
 30
0.0
 10
12.4112229652
 20
9.396547019
 30
0.0
 10
12.4145798029
 20
9.4028003938
 30
0.0
 10
12.4179538324
 20
9.4087888019
 30
0.0
 10
12.4213434113
 20
9.4145092445
 30
0.0
 10
12.4247468034
 20
9.4199588976
 30
0.0
 10
12.4281623718
 20
9.4251350259
 30
0.0
 10
12.431588366
 20
9.4300350747
 30
0.0
 10
12.4350231303
 20
9.4346566109
 30
0.0
 10
12.4384650042
 20
9.4389973787
 30
0.0
 10
12.441912371
 20
9.4430552801
 30
0.0
 10
12.4453634171
 20
9.4468281138
 30
0.0
 10
12.4477132565
 20
9.449200361
 30
0.0
 10
12.4488888253
 20
9.4503358733
 30
0.0
  0
SPLINE
  5
372
100
AcDbEntity
  8
0
100
AcDbSpline
 62
7
  6
CONTINUOUS
 70
0
 71
3
 72
64
 73
60
 74
0
 42
0.0000001
 43
0.0000001
 44
0.0000000001
 40
0.0
 40
0.0
 40
0.0
 40
0.0
 40
0.0036899171
 40
0.0075220509
 40
0.0114999147
 40
0.0156263711
 40
0.0199037842
 40
0.0243340462
 40
0.0336577491
 40
0.0436055052
 40
0.0541794161
 40
0.0653773962
 40
0.0771938899
 40
0.0896203779
 40
0.1026457317
 40
0.116256577
 40
0.1304375629
 40
0.1451715332
 40
0.1604396972
 40
0.1762218171
 40
0.1924963225
 40
0.2092403855
 40
0.2264300592
 40
0.2440403769
 40
0.2620454078
 40
0.2804183377
 40
0.2991315723
 40
0.337464377
 40
0.3768104773
 40
0.416927532
 40
0.457566968
 40
0.498476051
 40
0.5393999116
 40
0.5800835632
 40
0.6202739153
 40
0.6597218218
 40
0.698184094
 40
0.7169721221
 40
0.7354263331
 40
0.7535189619
 40
0.7712230211
 40
0.7885123599
 40
0.8053617693
 40
0.8217470726
 40
0.8376451827
 40
0.8530342052
 40
0.8678935889
 40
0.8822042145
 40
0.89594852
 40
0.909110705
 40
0.9216769353
 40
0.9336355467
 40
0.9449773553
 40
0.9556960798
 40
0.9657888174
 40
0.9752566
 40
0.984105233
 40
0.9923468705
 40
1.0
 40
1.0
 40
1.0
 40
1.0
 10
12.3635176887
 20
8.4796391376
 30
0.0
 10
12.3628763983
 20
8.4804276335
 30
0.0
 10
12.3616023397
 20
8.4820622927
 30
0.0
 10
12.3597503941
 20
8.4846328605
 30
0.0
 10
12.3579227553
 20
8.4873666315
 30
0.0
 10
12.3561201582
 20
8.4902624067
 30
0.0
 10
12.3543432992
 20
8.4933190372
 30
0.0
 10
12.3519689712
 20
8.4976819509
 30
0.0
 10
12.3490787
 20
8.5035390186
 30
0.0
 10
12.3457813003
 20
8.5110719926
 30
0.0
 10
12.3426033837
 20
8.5192127369
 30
0.0
 10
12.3395501557
 20
8.5279479003
 30
0.0
 10
12.3366266409
 20
8.5372633417
 30
0.0
 10
12.3338377132
 20
8.5471438145
 30
0.0
 10
12.3311880118
 20
8.5575730913
 30
0.0
 10
12.3286819672
 20
8.5685339883
 30
0.0
 10
12.3263237901
 20
8.5800084152
 30
0.0
 10
12.3241174375
 20
8.5919773971
 30
0.0
 10
12.3220666009
 20
8.6044211126
 30
0.0
 10
12.3201747262
 20
8.6173189417
 30
0.0
 10
12.3184450007
 20
8.6306494989
 30
0.0
 10
12.3168803174
 20
8.6443906633
 30
0.0
 10
12.3154833004
 20
8.6585196244
 30
0.0
 10
12.3142563027
 20
8.673012927
 30
0.0
 10
12.3132013913
 20
8.6878464955
 30
0.0
 10
12.3123203071
 20
8.7029957089
 30
0.0
 10
12.3113717938
 20
8.7237479901
 30
0.0
 10
12.3106397839
 20
8.7502909243
 30
0.0
 10
12.3104767572
 20
8.7827389281
 30
0.0
 10
12.3110238077
 20
8.8158181274
 30
0.0
 10
12.3122774228
 20
8.8493087812
 30
0.0
 10
12.3142294063
 20
8.8829885609
 30
0.0
 10
12.316866841
 20
8.9166338198
 30
0.0
 10
12.3201721659
 20
8.9500211452
 30
0.0
 10
12.3241233534
 20
8.9829289055
 30
0.0
 10
12.328693997
 20
9.0151385139
 30
0.0
 10
12.3330266005
 20
9.0414211011
 30
0.0
 10
12.3367873317
 20
9.0619317676
 30
0.0
 10
12.3397206347
 20
9.0768887741
 30
0.0
 10
12.3427836974
 20
9.0915148372
 30
0.0
 10
12.3459714332
 20
9.1057856838
 30
0.0
 10
12.3492785281
 20
9.1196776061
 30
0.0
 10
12.3526994684
 20
9.1331675411
 30
0.0
 10
12.3562285373
 20
9.1462331038
 30
0.0
 10
12.359859848
 20
9.1588526167
 30
0.0
 10
12.363587352
 20
9.1710051497
 30
0.0
 10
12.3674048185
 20
9.1826705707
 30
0.0
 10
12.3713058736
 20
9.1938295706
 30
0.0
 10
12.3752840197
 20
9.2044636917
 30
0.0
 10
12.379332627
 20
9.2145553775
 30
0.0
 10
12.3834449446
 20
9.2240880114
 30
0.0
 10
12.3876141429
 20
9.233045934
 30
0.0
 10
12.3918333375
 20
9.241414479
 30
0.0
 10
12.3960955686
 20
9.2491800371
 30
0.0
 10
12.4003939035
 20
9.2563300725
 30
0.0
 10
12.4047214099
 20
9.2628530673
 30
0.0
 10
12.4090714529
 20
9.2687389014
 30
0.0
 10
12.4134370447
 20
9.2739778001
 30
0.0
 10
12.4164630159
 20
9.2771482864
 30
0.0
 10
12.4179791963
 20
9.2786128043
 30
0.0
  0
SPLINE
  5
373
100
AcDbEntity
  8
0
100
AcDbSpline
 62
7
  6
CONTINUOUS
 70
0
 71
3
 72
9
 73
5
 74
0
 42
0.0000001
 43
0.0000001
 44
0.0000000001
 40
0.0
 40
0.0
 40
0.0
 40
0.0
 40
0.4960909153
 40
1.0
 40
1.0
 40
1.0
 40
1.0
 10
12.3533981369
 20
8.5063315955
 30
0.0
 10
12.3523792312
 20
8.5064022544
 30
0.0
 10
12.3503325595
 20
8.5066799364
 30
0.0
 10
12.3483393003
 20
8.5072191617
 30
0.0
 10
12.3473561105
 20
8.5075502781
 30
0.0
  0
SPLINE
  5
374
100
AcDbEntity
  8
0
100
AcDbSpline
 62
7
  6
CONTINUOUS
 70
0
 71
3
 72
9
 73
5
 74
0
 42
0.0000001
 43
0.0000001
 44
0.0000000001
 40
0.0
 40
0.0
 40
0.0
 40
0.0
 40
0.4959902741
 40
1.0
 40
1.0
 40
1.0
 40
1.0
 10
12.4052861849
 20
9.2545345048
 30
0.0
 10
12.4042539071
 20
9.254606091
 30
0.0
 10
12.402160784
 20
9.2546118752
 30
0.0
 10
12.4000853853
 20
9.2543442381
 30
0.0
 10
12.3990527359
 20
9.2541460934
 30
0.0
  0
SPLINE
  5
375
100
AcDbEntity
  8
0
100
AcDbSpline
 62
7
  6
CONTINUOUS
 70
0
 71
3
 72
69
 73
65
 74
0
 42
0.0000001
 43
0.0000001
 44
0.0000000001
 40
0.0
 40
0.0
 40
0.0
 40
0.0
 40
0.0155843576
 40
0.0311165404
 40
0.0465960308
 40
0.0620249371
 40
0.0774047753
 40
0.0927378621
 40
0.108026966
 40
0.1232752762
 40
0.1384864185
 40
0.1536643981
 40
0.1688135695
 40
0.1839385908
 40
0.1990443744
 40
0.2141360361
 40
0.2292188427
 40
0.2442981572
 40
0.2593793793
 40
0.2744678873
 40
0.2895689813
 40
0.3046878282
 40
0.319829407
 40
0.3349984551
 40
0.350199419
 40
0.3654364118
 40
0.3807131731
 40
0.3960330322
 40
0.4113988751
 40
0.4268131209
 40
0.4422777041
 40
0.4577940584
 40
0.473363106
 40
0.4889852529
 40
0.5046603946
 40
0.5203879208
 40
0.5361667243
 40
0.551995215
 40
0.5678713429
 40
0.5837926213
 40
0.599756151
 40
0.6157586479
 40
0.6317964791
 40
0.6478656978
 40
0.6800725949
 40
0.7123515113
 40
0.7285100947
 40
0.7446719372
 40
0.7608319994
 40
0.7769852592
 40
0.7931267537
 40
0.8092516208
 40
0.8253551437
 40
0.8414327945
 40
0.857480274
 40
0.8734935475
 40
0.889468884
 40
0.9054029007
 40
0.9212925699
 40
0.9371352942
 40
0.952928929
 40
0.9686714788
 40
0.9843625188
 40
1.0
 40
1.0
 40
1.0
 40
1.0
 10
11.1024907922
 20
7.6934789241
 30
0.0
 10
11.1024907922
 20
7.6892982387
 30
0.0
 10
11.1022861768
 20
7.6809493827
 30
0.0
 10
11.1013626412
 20
7.6684787255
 30
0.0
 10
11.0998250136
 20
7.6561104703
 30
0.0
 10
11.0976771558
 20
7.6438749928
 30
0.0
 10
11.0949240752
 20
7.6318015371
 30
0.0
 10
11.0915724284
 20
7.6199192878
 30
0.0
 10
11.0876302766
 20
7.6082568685
 30
0.0
 10
11.083107088
 20
7.5968424021
 30
0.0
 10
11.0780137284
 20
7.5857034246
 30
0.0
 10
11.0723624533
 20
7.5748668055
 30
0.0
 10
11.0661668893
 20
7.5643586755
 30
0.0
 10
11.059441961
 20
7.5542043825
 30
0.0
 10
11.0522038622
 20
7.5444284312
 30
0.0
 10
11.044470029
 20
7.5350544178
 30
0.0
 10
11.0362591279
 20
7.5261049425
 30
0.0
 10
11.0275909626
 20
7.5176015908
 30
0.0
 10
11.0184864351
 20
7.5095648775
 30
0.0
 10
11.0089674936
 20
7.5020142033
 30
0.0
 10
10.9990571162
 20
7.4949677597
 30
0.0
 10
10.9887792171
 20
7.4884425242
 30
0.0
 10
10.9781585888
 20
7.4824542226
 30
0.0
 10
10.9672208416
 20
7.4770173012
 30
0.0
 10
10.9559923658
 20
7.4721448442
 30
0.0
 10
10.9445002507
 20
7.4678485624
 30
0.0
 10
10.93277221
 20
7.4641387888
 30
0.0
 10
10.9208365181
 20
7.461024457
 30
0.0
 10
10.9087219522
 20
7.4585130507
 30
0.0
 10
10.8964577208
 20
7.4566105709
 30
0.0
 10
10.884073382
 20
7.4553215694
 30
0.0
 10
10.871598777
 20
7.4546491322
 30
0.0
 10
10.8590639629
 20
7.4545948655
 30
0.0
 10
10.8464991379
 20
7.4551588458
 30
0.0
 10
10.8339345654
 20
7.4563396794
 30
0.0
 10
10.8214005042
 20
7.4581344987
 30
0.0
 10
10.808927141
 20
7.4605389764
 30
0.0
 10
10.7965445076
 20
7.4635472786
 30
0.0
 10
10.7842824112
 20
7.4671521276
 30
0.0
 10
10.7721703746
 20
7.47134482
 30
0.0
 10
10.7602375417
 20
7.4761152745
 30
0.0
 10
10.7485127047
 20
7.4814519327
 30
0.0
 10
10.7370238136
 20
7.487342101
 30
0.0
 10
10.7220481226
 20
7.4959195137
 30
0.0
 10
10.7040589426
 20
7.507952296
 30
0.0
 10
10.6872324889
 20
7.5216011671
 30
0.0
 10
10.6745513986
 20
7.5334196883
 30
0.0
 10
10.6654498291
 20
7.5427162934
 30
0.0
 10
10.6567845371
 20
7.5524185786
 30
0.0
 10
10.6485761176
 20
7.5625033895
 30
0.0
 10
10.6408444045
 20
7.5729464025
 30
0.0
 10
10.6336080144
 20
7.5837225105
 30
0.0
 10
10.6268843678
 20
7.5948057647
 30
0.0
 10
10.6206896466
 20
7.6061694856
 30
0.0
 10
10.6150387751
 20
7.6177863248
 30
0.0
 10
10.6099453891
 20
7.629628331
 30
0.0
 10
10.6054217636
 20
7.6416669997
 30
0.0
 10
10.6014787934
 20
7.6538733466
 30
0.0
 10
10.5981259845
 20
7.666217988
 30
0.0
 10
10.5953714426
 20
7.6786712296
 30
0.0
 10
10.593221875
 20
7.6912030077
 30
0.0
 10
10.5916823486
 20
7.703783398
 30
0.0
 10
10.5907567832
 20
7.7163815287
 30
0.0
 10
10.590550074
 20
7.7247871971
 30
0.0
 10
10.590550074
 20
7.7289821335
 30
0.0
  0
SPLINE
  5
376
100
AcDbEntity
  8
0
100
AcDbSpline
 62
7
  6
CONTINUOUS
 70
0
 71
3
 72
21
 73
17
 74
0
 42
0.0000001
 43
0.0000001
 44
0.0000000001
 40
0.0
 40
0.0
 40
0.0
 40
0.0
 40
0.1273176366
 40
0.2537999756
 40
0.3167619475
 40
0.3795355041
 40
0.4421314991
 40
0.5045621439
 40
0.5668413432
 40
0.6289845283
 40
0.6910084528
 40
0.7529310935
 40
0.8147714495
 40
0.8765493365
 40
0.9382852194
 40
1.0
 40
1.0
 40
1.0
 40
1.0
 10
10.1891360366
 20
7.1744859387
 30
0.0
 10
10.1891360366
 20
7.1797831886
 30
0.0
 10
10.189641694
 20
7.1903497528
 30
0.0
 10
10.1915513981
 20
7.2034123093
 30
0.0
 10
10.1938339191
 20
7.2136587429
 30
0.0
 10
10.1959154556
 20
7.221216516
 30
0.0
 10
10.1983642432
 20
7.22864
 30
0.0
 10
10.201174671
 20
7.2359122798
 30
0.0
 10
10.2043402384
 20
7.2430165417
 30
0.0
 10
10.2078536898
 20
7.2499364021
 30
0.0
 10
10.211706943
 20
7.2566558863
 30
0.0
 10
10.2158910896
 20
7.2631595183
 30
0.0
 10
10.2203964919
 20
7.269432271
 30
0.0
 10
10.2252128392
 20
7.2754597029
 30
0.0
 10
10.2303287978
 20
7.2812277495
 30
0.0
 10
10.2339320011
 20
7.2848919895
 30
0.0
 10
10.2357788599
 20
7.2866759185
 30
0.0
  0
SPLINE
  5
377
100
AcDbEntity
  8
0
100
AcDbSpline
 62
7
  6
CONTINUOUS
 70
0
 71
3
 72
18
 73
14
 74
0
 42
0.0000001
 43
0.0000001
 44
0.0000000001
 40
0.0
 40
0.0
 40
0.0
 40
0.0
 40
0.0548621106
 40
0.1099281304
 40
0.165399556
 40
0.2214731722
 40
0.2783387379
 40
0.3361775111
 40
0.4554063056
 40
0.5804414047
 40
0.7123341351
 40
0.8519581983
 40
1.0
 40
1.0
 40
1.0
 40
1.0
 10
10.2285748129
 20
10.5046559584
 30
0.0
 10
10.2285748097
 20
10.5053621043
 30
0.0
 10
10.2286196223
 20
10.5067774264
 30
0.0
 10
10.2288211185
 20
10.5088981094
 30
0.0
 10
10.2291568689
 20
10.5110175687
 30
0.0
 10
10.2296267465
 20
10.5131350309
 30
0.0
 10
10.2302305536
 20
10.5152499671
 30
0.0
 10
10.2312237042
 20
10.5180939855
 30
0.0
 10
10.2328147212
 20
10.521651088
 30
0.0
 10
10.2352363545
 20
10.5258520441
 30
0.0
 10
10.2381857872
 20
10.5300258147
 30
0.0
 10
10.2416585321
 20
10.5341681934
 30
0.0
 10
10.2442413361
 20
10.5368260379
 30
0.0
 10
10.2456118675
 20
10.5381498695
 30
0.0
  0
SPLINE
  5
378
100
AcDbEntity
  8
0
100
AcDbSpline
 62
7
  6
CONTINUOUS
 70
0
 71
3
 72
47
 73
43
 74
0
 42
0.0000001
 43
0.0000001
 44
0.0000000001
 40
0.0
 40
0.0
 40
0.0
 40
0.0
 40
0.0149719699
 40
0.0299469986
 40
0.0449281275
 40
0.0599183593
 40
0.0749206409
 40
0.0899378479
 40
0.1049727642
 40
0.1200280654
 40
0.1351063071
 40
0.1502099062
 40
0.1653411266
 40
0.1805020712
 40
0.195694667
 40
0.2109206532
 40
0.226181577
 40
0.2414787841
 40
0.2721808909
 40
0.30303905
 40
0.3340562704
 40
0.3652320501
 40
0.3965624391
 40
0.4280401707
 40
0.4596548674
 40
0.4913932962
 40
0.5232396724
 40
0.5551760134
 40
0.5871825188
 40
0.61923798
 40
0.6513202127
 40
0.6834065006
 40
0.7154740464
 40
0.7475004247
 40
0.7794640313
 40
0.8113445177
 40
0.8431232087
 40
0.8747834982
 40
0.9063112124
 40
0.9376949433
 40
0.9689261019
 40
1.0
 40
1.0
 40
1.0
 40
1.0
 10
11.1439263064
 20
7.3867581037
 30
0.0
 10
11.1402762314
 20
7.3832324073
 30
0.0
 10
11.1328342881
 20
7.3763246528
 30
0.0
 10
11.1212672334
 20
7.3664136646
 30
0.0
 10
11.1093107067
 20
7.3569658088
 30
0.0
 10
11.0969813724
 20
7.3479943322
 30
0.0
 10
11.0842961694
 20
7.3395114784
 30
0.0
 10
11.0712725658
 20
7.331528939
 30
0.0
 10
11.0579284616
 20
7.3240577257
 30
0.0
 10
11.0442822491
 20
7.3171080706
 30
0.0
 10
11.0303527042
 20
7.3106895317
 30
0.0
 10
11.0161589797
 20
7.3048109743
 30
0.0
 10
11.0017206265
 20
7.2994804331
 30
0.0
 10
10.9870575158
 20
7.2947052312
 30
0.0
 10
10.97218979
 20
7.2904919722
 30
0.0
 10
10.9571379953
 20
7.2868464018
 30
0.0
 10
10.9419225547
 20
7.2837735026
 30
0.0
 10
10.9214230323
 20
7.2804418233
 30
0.0
 10
10.8954858982
 20
7.2777326534
 30
0.0
 10
10.8640909676
 20
7.2768267183
 30
0.0
 10
10.8325547273
 20
7.2782654079
 30
0.0
 10
10.8010517184
 20
7.2820406779
 30
0.0
 10
10.7697547165
 20
7.2881313794
 30
0.0
 10
10.7388356867
 20
7.2965036716
 30
0.0
 10
10.7084643674
 20
7.3071112924
 30
0.0
 10
10.6788074802
 20
7.3198957427
 30
0.0
 10
10.6500277535
 20
7.3347865563
 30
0.0
 10
10.6222831224
 20
7.3517018416
 30
0.0
 10
10.5957258214
 20
7.3705486071
 30
0.0
 10
10.5705015372
 20
7.3912232677
 30
0.0
 10
10.5467487104
 20
7.4136123228
 30
0.0
 10
10.5245976943
 20
7.4375928514
 30
0.0
 10
10.5041700524
 20
7.4630332129
 30
0.0
 10
10.4855779965
 20
7.4897938362
 30
0.0
 10
10.468923647
 20
7.5177278667
 30
0.0
 10
10.4542985229
 20
7.546682023
 30
0.0
 10
10.4417831309
 20
7.5764974404
 30
0.0
 10
10.4314463654
 20
7.6070105263
 30
0.0
 10
10.4233452152
 20
7.638053637
 30
0.0
 10
10.4175245547
 20
7.669456921
 30
0.0
 10
10.4140165588
 20
7.7010456866
 30
0.0
 10
10.4132308416
 20
7.7221722965
 30
0.0
 10
10.4132308416
 20
7.7327048973
 30
0.0
  0
SPLINE
  5
379
100
AcDbEntity
  8
0
100
AcDbSpline
 62
7
  6
CONTINUOUS
 70
0
 71
3
 72
45
 73
41
 74
0
 42
0.0000001
 43
0.0000001
 44
0.0000000001
 40
0.0
 40
0.0
 40
0.0
 40
0.0
 40
0.0149665987
 40
0.0299384552
 40
0.0449185125
 40
0.0599096651
 40
0.0749147395
 40
0.0899364813
 40
0.1049775385
 40
0.1200404425
 40
0.1351275989
 40
0.1502412726
 40
0.1653835713
 40
0.1805564403
 40
0.2109952993
 40
0.2415753026
 40
0.2723051805
 40
0.3031903474
 40
0.3342328281
 40
0.365431268
 40
0.3967810137
 40
0.4282742548
 40
0.4599002279
 40
0.491645476
 40
0.5234941479
 40
0.5554283355
 40
0.5874284477
 40
0.6194736037
 40
0.6515420451
 40
0.6836115618
 40
0.7156599229
 40
0.7476653083
 40
0.7796067341
 40
0.8114644662
 40
0.8432204189
 40
0.8748585266
 40
0.9063650866
 40
0.9377290953
 40
0.9689422226
 40
1.0
 40
1.0
 40
1.0
 40
1.0
 10
11.1438140202
 20
7.3868899192
 30
0.0
 10
11.1401035245
 20
7.3835153065
 30
0.0
 10
11.1325478177
 20
7.376909928
 30
0.0
 10
11.1208319456
 20
7.3674526624
 30
0.0
 10
11.108747484
 20
7.3584569858
 30
0.0
 10
11.0963108593
 20
7.3499352408
 30
0.0
 10
11.0835387359
 20
7.3418988112
 30
0.0
 10
11.070448318
 20
7.3343584676
 30
0.0
 10
11.057057162
 20
7.3273243859
 30
0.0
 10
11.0433832863
 20
7.3208059902
 30
0.0
 10
11.0294450587
 20
7.314811997
 30
0.0
 10
11.0152612593
 20
7.3093505248
 30
0.0
 10
11.000850687
 20
7.304428813
 30
0.0
 10
10.9813421084
 20
7.2985894572
 30
0.0
 10
10.9564762629
 20
7.2926733454
 30
0.0
 10
10.9260847109
 20
7.2878316683
 30
0.0
 10
10.8952666227
 20
7.2852640157
 30
0.0
 10
10.8641887104
 20
7.2849842131
 30
0.0
 10
10.8330175571
 20
7.2869932509
 30
0.0
 10
10.8019205473
 20
7.291279989
 30
0.0
 10
10.7710644998
 20
7.2978211135
 30
0.0
 10
10.7406149046
 20
7.3065812132
 30
0.0
 10
10.7107350015
 20
7.3175129914
 30
0.0
 10
10.681584957
 20
7.3305576101
 30
0.0
 10
10.6533210009
 20
7.345644939
 30
0.0
 10
10.6260945673
 20
7.3626938917
 30
0.0
 10
10.6000515464
 20
7.3816129607
 30
0.0
 10
10.5753315102
 20
7.4023006744
 30
0.0
 10
10.552066904
 20
7.424646058
 30
0.0
 10
10.530382412
 20
7.4485293169
 30
0.0
 10
10.510394315
 20
7.47382247
 30
0.0
 10
10.4922097837
 20
7.5003899535
 30
0.0
 10
10.4759263598
 20
7.5280893932
 30
0.0
 10
10.4616314877
 20
7.5567723847
 30
0.0
 10
10.4494019653
 20
7.5862852072
 30
0.0
 10
10.4393035337
 20
7.6164697223
 30
0.0
 10
10.4313905989
 20
7.6471639897
 30
0.0
 10
10.425705944
 20
7.6782039819
 30
0.0
 10
10.4222802369
 20
7.7094210832
 30
0.0
 10
10.4215130444
 20
7.7302969166
 30
0.0
 10
10.4215130444
 20
7.7407048913
 30
0.0
  0
SPLINE
  5
37A
100
AcDbEntity
  8
0
100
AcDbSpline
 62
7
  6
CONTINUOUS
 70
0
 71
3
 72
69
 73
65
 74
0
 42
0.0000001
 43
0.0000001
 44
0.0000000001
 40
0.0
 40
0.0
 40
0.0
 40
0.0
 40
0.0156374812
 40
0.0313285212
 40
0.047071071
 40
0.0628647058
 40
0.0787074301
 40
0.0945970993
 40
0.110531116
 40
0.1265064525
 40
0.142519726
 40
0.1585672055
 40
0.1746448563
 40
0.1907483792
 40
0.2068732463
 40
0.2230147408
 40
0.2391680006
 40
0.2553280628
 40
0.2714899053
 40
0.2876484887
 40
0.3199274051
 40
0.3521343022
 40
0.3682035209
 40
0.3842413521
 40
0.400243849
 40
0.4162073787
 40
0.4321286571
 40
0.448004785
 40
0.4638332757
 40
0.4796120792
 40
0.4953396054
 40
0.5110147471
 40
0.526636894
 40
0.5422059416
 40
0.5577222959
 40
0.5731868791
 40
0.5886011249
 40
0.6039669678
 40
0.6192868269
 40
0.6345635882
 40
0.649800581
 40
0.6650015449
 40
0.680170593
 40
0.6953121718
 40
0.7104310187
 40
0.7255321127
 40
0.7406206207
 40
0.7557018428
 40
0.7707811573
 40
0.7858639639
 40
0.8009556256
 40
0.8160614092
 40
0.8311864305
 40
0.8463356019
 40
0.8615135815
 40
0.8767247238
 40
0.891973034
 40
0.9072621379
 40
0.9225952247
 40
0.9379750629
 40
0.9534039692
 40
0.9688834596
 40
0.9844156424
 40
1.0
 40
1.0
 40
1.0
 40
1.0
 10
11.1024907922
 20
7.6934789241
 30
0.0
 10
11.1024907922
 20
7.6976738605
 30
0.0
 10
11.102284083
 20
7.7060795289
 30
0.0
 10
11.1013585176
 20
7.7186776596
 30
0.0
 10
11.0998189912
 20
7.7312580499
 30
0.0
 10
11.0976694237
 20
7.743789828
 30
0.0
 10
11.0949148817
 20
7.7562430696
 30
0.0
 10
11.0915620728
 20
7.768587711
 30
0.0
 10
11.0876191027
 20
7.7807940579
 30
0.0
 10
11.0830954772
 20
7.7928327266
 30
0.0
 10
11.0780020911
 20
7.8046747328
 30
0.0
 10
11.0723512197
 20
7.816291572
 30
0.0
 10
11.0661564984
 20
7.8276552929
 30
0.0
 10
11.0594328518
 20
7.8387385471
 30
0.0
 10
11.0521964618
 20
7.8495146551
 30
0.0
 10
11.0444647486
 20
7.8599576681
 30
0.0
 10
11.0362563291
 20
7.870042479
 30
0.0
 10
11.0275910371
 20
7.8797447642
 30
0.0
 10
11.0184894677
 20
7.8890413693
 30
0.0
 10
11.0058083773
 20
7.9008598905
 30
0.0
 10
10.9889819236
 20
7.9145087616
 30
0.0
 10
10.9709927436
 20
7.9265415439
 30
0.0
 10
10.9560170526
 20
7.9351189566
 30
0.0
 10
10.9445281615
 20
7.9410091249
 30
0.0
 10
10.9328033245
 20
7.9463457831
 30
0.0
 10
10.9208704916
 20
7.9511162376
 30
0.0
 10
10.908758455
 20
7.95530893
 30
0.0
 10
10.8964963586
 20
7.958913779
 30
0.0
 10
10.8841137252
 20
7.9619220812
 30
0.0
 10
10.871640362
 20
7.9643265589
 30
0.0
 10
10.8591063008
 20
7.9661213782
 30
0.0
 10
10.8465417284
 20
7.9673022118
 30
0.0
 10
10.8339769034
 20
7.9678661921
 30
0.0
 10
10.8214420892
 20
7.9678119254
 30
0.0
 10
10.8089674842
 20
7.9671394882
 30
0.0
 10
10.7965831454
 20
7.9658504867
 30
0.0
 10
10.7843189141
 20
7.9639480069
 30
0.0
 10
10.7722043482
 20
7.9614366006
 30
0.0
 10
10.7602686562
 20
7.9583222688
 30
0.0
 10
10.7485406155
 20
7.9546124952
 30
0.0
 10
10.7370485004
 20
7.9503162134
 30
0.0
 10
10.7258200246
 20
7.9454437564
 30
0.0
 10
10.7148822774
 20
7.940006835
 30
0.0
 10
10.7042616491
 20
7.9340185334
 30
0.0
 10
10.69398375
 20
7.9274932979
 30
0.0
 10
10.6840733727
 20
7.9204468543
 30
0.0
 10
10.6745544311
 20
7.9128961801
 30
0.0
 10
10.6654499036
 20
7.9048594668
 30
0.0
 10
10.6567817383
 20
7.8963561151
 30
0.0
 10
10.6485708372
 20
7.8874066398
 30
0.0
 10
10.640837004
 20
7.8780326264
 30
0.0
 10
10.6335989052
 20
7.8682566751
 30
0.0
 10
10.626873977
 20
7.8581023821
 30
0.0
 10
10.620678413
 20
7.8475942521
 30
0.0
 10
10.6150271378
 20
7.836757633
 30
0.0
 10
10.6099337782
 20
7.8256186555
 30
0.0
 10
10.6054105896
 20
7.8142041891
 30
0.0
 10
10.6014684378
 20
7.8025417698
 30
0.0
 10
10.598116791
 20
7.7906595205
 30
0.0
 10
10.5953637105
 20
7.7785860648
 30
0.0
 10
10.5932158526
 20
7.7663505873
 30
0.0
 10
10.591678225
 20
7.7539823321
 30
0.0
 10
10.5907546895
 20
7.7415116749
 30
0.0
 10
10.590550074
 20
7.7331628189
 30
0.0
 10
10.590550074
 20
7.7289821335
 30
0.0
  0
SPLINE
  5
37B
100
AcDbEntity
  8
0
100
AcDbSpline
 62
7
  6
CONTINUOUS
 70
0
 71
3
 72
39
 73
35
 74
0
 42
0.0000001
 43
0.0000001
 44
0.0000000001
 40
0.0
 40
0.0
 40
0.0
 40
0.0
 40
0.0299424706
 40
0.0599093177
 40
0.0899243239
 40
0.1200101031
 40
0.1501875623
 40
0.1804754149
 40
0.21088976
 40
0.241443737
 40
0.2721472612
 40
0.3030068434
 40
0.3340254949
 40
0.3652027136
 40
0.3965345483
 40
0.4280137339
 40
0.4596298915
 40
0.4913697862
 40
0.5232176339
 40
0.5551554503
 40
0.587163434
 40
0.6192203763
 40
0.6513040919
 40
0.6833918632
 40
0.7154608918
 40
0.7474887514
 40
0.7794538357
 40
0.8113357957
 40
0.8431159546
 40
0.8747777135
 40
0.906306863
 40
0.9376920938
 40
0.9689246722
 40
1.0
 40
1.0
 40
1.0
 40
1.0
 10
11.0175504434
 20
7.5497057065
 30
0.0
 10
11.0136518712
 20
7.5459399756
 30
0.0
 10
11.0055481752
 20
7.5387124224
 30
0.0
 10
10.9925647924
 20
7.528866159
 30
0.0
 10
10.9788199334
 20
7.5200642385
 30
0.0
 10
10.9643903971
 20
7.5123560393
 30
0.0
 10
10.9493555151
 20
7.5057836754
 30
0.0
 10
10.9337982634
 20
7.5003832766
 30
0.0
 10
10.9178043735
 20
7.4961843878
 30
0.0
 10
10.9014619608
 20
7.4932099318
 30
0.0
 10
10.8848610037
 20
7.4914760644
 30
0.0
 10
10.8680928539
 20
7.4909921066
 30
0.0
 10
10.8512497315
 20
7.4917605034
 30
0.0
 10
10.8344242219
 20
7.493776822
 30
0.0
 10
10.8177087709
 20
7.4970297857
 30
0.0
 10
10.8011951838
 20
7.5015013436
 30
0.0
 10
10.7849741275
 20
7.5071667741
 30
0.0
 10
10.7691346374
 20
7.5139948208
 30
0.0
 10
10.7537636375
 20
7.5219478727
 30
0.0
 10
10.7389454697
 20
7.5309821707
 30
0.0
 10
10.7247614378
 20
7.5410480477
 30
0.0
 10
10.7112893667
 20
7.5520901997
 30
0.0
 10
10.698603181
 20
7.5640479873
 30
0.0
 10
10.6867725038
 20
7.5768557653
 30
0.0
 10
10.6758622794
 20
7.5904432399
 30
0.0
 10
10.6659324191
 20
7.6047358497
 30
0.0
 10
10.6570374711
 20
7.6196551675
 30
0.0
 10
10.6492263287
 20
7.6351193323
 30
0.0
 10
10.6425419585
 20
7.6510434822
 30
0.0
 10
10.637021181
 20
7.6673402501
 30
0.0
 10
10.6326944231
 20
7.6839201083
 30
0.0
 10
10.6295856564
 20
7.7006923268
 30
0.0
 10
10.6277120544
 20
7.7175636117
 30
0.0
 10
10.6272924154
 20
7.7288471436
 30
0.0
 10
10.6272924154
 20
7.7344725121
 30
0.0
  0
SPLINE
  5
37C
100
AcDbEntity
  8
0
100
AcDbSpline
 62
7
  6
CONTINUOUS
 70
0
 71
3
 72
23
 73
19
 74
0
 42
0.0000001
 43
0.0000001
 44
0.0000000001
 40
0.0
 40
0.0
 40
0.0
 40
0.0
 40
0.061689837
 40
0.1234110578
 40
0.1851828619
 40
0.2470239701
 40
0.3089524482
 40
0.3709855389
 40
0.4331395051
 40
0.4954294877
 40
0.557869367
 40
0.6204716549
 40
0.6832473761
 40
0.7462059436
 40
0.8093553995
 40
0.8727010945
 40
0.9362493595
 40
1.0
 40
1.0
 40
1.0
 40
1.0
 10
10.532672681
 20
8.0195807755
 30
0.0
 10
10.5282541416
 20
8.0150483392
 30
0.0
 10
10.5196381142
 20
8.0057603446
 30
0.0
 10
10.5074166253
 20
7.9912016392
 30
0.0
 10
10.4959203555
 20
7.9760436571
 30
0.0
 10
10.4851743289
 20
7.9603193048
 30
0.0
 10
10.4752014314
 20
7.9440621323
 30
0.0
 10
10.466023027
 20
7.9273069863
 30
0.0
 10
10.4576587233
 20
7.9100897427
 30
0.0
 10
10.4501263972
 20
7.8924472705
 30
0.0
 10
10.4434421394
 20
7.8744173408
 30
0.0
 10
10.4376202263
 20
7.8560385482
 30
0.0
 10
10.4326730972
 20
7.8373502352
 30
0.0
 10
10.4286112772
 20
7.8183923752
 30
0.0
 10
10.4254434673
 20
7.7992056297
 30
0.0
 10
10.4231762888
 20
7.7798307763
 30
0.0
 10
10.4218147223
 20
7.7603099653
 30
0.0
 10
10.4215130444
 20
7.7472461521
 30
0.0
 10
10.4215130444
 20
7.7407048913
 30
0.0
  0
SPLINE
  5
37D
100
AcDbEntity
  8
0
100
AcDbSpline
 62
7
  6
CONTINUOUS
 70
0
 71
3
 72
23
 73
19
 74
0
 42
0.0000001
 43
0.0000001
 44
0.0000000001
 40
0.0
 40
0.0
 40
0.0
 40
0.0
 40
0.0617101427
 40
0.1234413969
 40
0.1852146481
 40
0.2470503542
 40
0.308968347
 40
0.3709876211
 40
0.4331261371
 40
0.4954006584
 40
0.5578266133
 40
0.6204179205
 40
0.6831867712
 40
0.7461439365
 40
0.8092980115
 40
0.8726548716
 40
0.9362235844
 40
1.0
 40
1.0
 40
1.0
 40
1.0
 10
10.6910195528
 20
7.8877553396
 30
0.0
 10
10.6884962276
 20
7.8853179952
 30
0.0
 10
10.6835732317
 20
7.8803116344
 30
0.0
 10
10.6765833919
 20
7.8724308807
 30
0.0
 10
10.6700029458
 20
7.8641957021
 30
0.0
 10
10.6638472978
 20
7.8556253791
 30
0.0
 10
10.6581305624
 20
7.8467396157
 30
0.0
 10
10.6528659637
 20
7.8375589106
 30
0.0
 10
10.6480656141
 20
7.8281044475
 30
0.0
 10
10.643740543
 20
7.818398049
 30
0.0
 10
10.6399007172
 20
7.8084620939
 30
0.0
 10
10.6365550042
 20
7.7983194901
 30
0.0
 10
10.633711046
 20
7.7879936371
 30
0.0
 10
10.6313753844
 20
7.777508331
 30
0.0
 10
10.6295534227
 20
7.7668878111
 30
0.0
 10
10.6282492394
 20
7.7561563078
 30
0.0
 10
10.6274659764
 20
7.7453390876
 30
0.0
 10
10.6272924154
 20
7.7380982306
 30
0.0
 10
10.6272924154
 20
7.7344725121
 30
0.0
  0
SPLINE
  5
37E
100
AcDbEntity
  8
0
100
AcDbSpline
 62
7
  6
CONTINUOUS
 70
0
 71
3
 72
42
 73
38
 74
0
 42
0.0000001
 43
0.0000001
 44
0.0000000001
 40
0.0
 40
0.0
 40
0.0
 40
0.0
 40
0.0299419663
 40
0.0449235352
 40
0.0599142051
 40
0.0899287052
 40
0.1200139767
 40
0.135092661
 40
0.150196701
 40
0.1804840414
 40
0.210897872
 40
0.2414513324
 40
0.2721543376
 40
0.3030133986
 40
0.3340315263
 40
0.3652082187
 40
0.3965395244
 40
0.4280181782
 40
0.4596338019
 40
0.4913731609
 40
0.5232204716
 40
0.55515775
 40
0.5871651943
 40
0.6192215961
 40
0.6513047701
 40
0.6833919991
 40
0.7154604852
 40
0.7474878032
 40
0.7794523473
 40
0.8113337692
 40
0.8431133916
 40
0.8747746171
 40
0.9063032365
 40
0.9376879249
 40
0.9533258257
 40
0.968925233
 40
1.0
 40
1.0
 40
1.0
 40
1.0
 10
11.4406976008
 20
9.8700428582
 30
0.0
 10
11.437844178
 20
9.867286663
 30
0.0
 10
11.4333958691
 20
9.8633193557
 30
0.0
 10
11.4271660817
 20
9.8583968166
 30
0.0
 10
11.4207379203
 20
9.8537192098
 30
0.0
 10
11.4123502117
 20
9.8483478083
 30
0.0
 10
11.4035546775
 20
9.8436493932
 30
0.0
 10
11.396300656
 20
9.8403068932
 30
0.0
 10
11.3888967599
 20
9.8372403754
 30
0.0
 10
11.3793979161
 20
9.8339429489
 30
0.0
 10
11.3676920163
 20
9.8308698363
 30
0.0
 10
11.3557306899
 20
9.8286927522
 30
0.0
 10
11.3435802216
 20
9.8274237151
 30
0.0
 10
11.3313073575
 20
9.8270694955
 30
0.0
 10
11.3189796264
 20
9.8276318969
 30
0.0
 10
11.3066647845
 20
9.8291076708
 30
0.0
 10
11.2944304968
 20
9.8314885636
 30
0.0
 10
11.2823439558
 20
9.8347613619
 30
0.0
 10
11.2704715213
 20
9.838907971
 30
0.0
 10
11.2588783604
 20
9.8439055164
 30
0.0
 10
11.2476280949
 20
9.8497264717
 30
0.0
 10
11.2367824563
 20
9.856338809
 30
0.0
 10
11.2264009523
 20
9.8637061761
 30
0.0
 10
11.2165405444
 20
9.8717880946
 30
0.0
 10
11.2072553386
 20
9.8805401807
 30
0.0
 10
11.1985962925
 20
9.889914387
 30
0.0
 10
11.1906109381
 20
9.899859263
 30
0.0
 10
11.1833431239
 20
9.9103202363
 30
0.0
 10
11.1768327759
 20
9.9212399045
 30
0.0
 10
11.1711156804
 20
9.9325583598
 30
0.0
 10
11.1662232892
 20
9.9442134664
 30
0.0
 10
11.16218254
 20
9.95614137
 30
0.0
 10
11.1590157513
 20
9.9682762061
 30
0.0
 10
11.1571171943
 20
9.9785193276
 30
0.0
 10
11.1560521567
 20
9.986749545
 30
0.0
 10
11.1552920673
 20
9.9949718887
 30
0.0
 10
11.1550619201
 20
10.0011591441
 30
0.0
 10
11.1550619201
 20
10.0052764305
 30
0.0
  0
SPLINE
  5
37F
100
AcDbEntity
  8
0
100
AcDbSpline
 62
7
  6
CONTINUOUS
 70
0
 71
3
 72
42
 73
38
 74
0
 42
0.0000001
 43
0.0000001
 44
0.0000000001
 40
0.0
 40
0.0
 40
0.0
 40
0.0
 40
0.0299419663
 40
0.0449235352
 40
0.0599142051
 40
0.0899287052
 40
0.1200139767
 40
0.135092661
 40
0.150196701
 40
0.1804840414
 40
0.210897872
 40
0.2414513324
 40
0.2721543376
 40
0.3030133986
 40
0.3340315263
 40
0.3652082187
 40
0.3965395244
 40
0.4280181782
 40
0.4596338019
 40
0.4913731609
 40
0.5232204716
 40
0.55515775
 40
0.5871651943
 40
0.6192215961
 40
0.6513047701
 40
0.6833919991
 40
0.7154604852
 40
0.7474878032
 40
0.7794523473
 40
0.8113337692
 40
0.8431133916
 40
0.8747746171
 40
0.9063032365
 40
0.9376879249
 40
0.9533258257
 40
0.968925233
 40
1.0
 40
1.0
 40
1.0
 40
1.0
 10
10.4747717172
 20
7.0392523664
 30
0.0
 10
10.4719182945
 20
7.0364961712
 30
0.0
 10
10.4674699856
 20
7.0325288639
 30
0.0
 10
10.4612401982
 20
7.0276063248
 30
0.0
 10
10.4548120368
 20
7.022928718
 30
0.0
 10
10.4464243282
 20
7.0175573165
 30
0.0
 10
10.437628794
 20
7.0128589014
 30
0.0
 10
10.4303747725
 20
7.0095164013
 30
0.0
 10
10.4229708764
 20
7.0064498836
 30
0.0
 10
10.4134720326
 20
7.0031524571
 30
0.0
 10
10.4017661328
 20
7.0000793445
 30
0.0
 10
10.3898048064
 20
6.9979022604
 30
0.0
 10
10.377654338
 20
6.9966332233
 30
0.0
 10
10.3653814739
 20
6.9962790037
 30
0.0
 10
10.3530537428
 20
6.9968414051
 30
0.0
 10
10.340738901
 20
6.998317179
 30
0.0
 10
10.3285046132
 20
7.0006980718
 30
0.0
 10
10.3164180722
 20
7.0039708701
 30
0.0
 10
10.3045456378
 20
7.0081174792
 30
0.0
 10
10.2929524769
 20
7.0131150246
 30
0.0
 10
10.2817022113
 20
7.0189359798
 30
0.0
 10
10.2708565727
 20
7.0255483172
 30
0.0
 10
10.2604750688
 20
7.0329156843
 30
0.0
 10
10.2506146609
 20
7.0409976028
 30
0.0
 10
10.2413294551
 20
7.0497496889
 30
0.0
 10
10.232670409
 20
7.0591238951
 30
0.0
 10
10.2246850546
 20
7.0690687712
 30
0.0
 10
10.2174172404
 20
7.0795297445
 30
0.0
 10
10.2109068924
 20
7.0904494127
 30
0.0
 10
10.2051897969
 20
7.101767868
 30
0.0
 10
10.2002974057
 20
7.1134229746
 30
0.0
 10
10.1962566564
 20
7.1253508782
 30
0.0
 10
10.1930898677
 20
7.1374857143
 30
0.0
 10
10.1911913108
 20
7.1477288358
 30
0.0
 10
10.1901262732
 20
7.1559590532
 30
0.0
 10
10.1893661837
 20
7.1641813969
 30
0.0
 10
10.1891360366
 20
7.1703686523
 30
0.0
 10
10.1891360366
 20
7.1744859387
 30
0.0
  0
SPLINE
  5
380
100
AcDbEntity
  8
0
100
AcDbSpline
 62
7
  6
CONTINUOUS
 70
0
 71
3
 72
86
 73
82
 74
0
 42
0.0000001
 43
0.0000001
 44
0.0000000001
 40
0.0
 40
0.0
 40
0.0
 40
0.0
 40
0.0039801735
 40
0.0081241171
 40
0.0124359931
 40
0.016919361
 40
0.0215772361
 40
0.0264119817
 40
0.0314252561
 40
0.0366182449
 40
0.0419916453
 40
0.0475457694
 40
0.0532805541
 40
0.0591955582
 40
0.0652900785
 40
0.0715630739
 40
0.0846387684
 40
0.0984101018
 40
0.112860694
 40
0.1279712428
 40
0.1437198619
 40
0.1600823544
 40
0.1770324406
 40
0.1945419645
 40
0.2125810668
 40
0.2311183398
 40
0.2501209668
 40
0.2695548486
 40
0.289384725
 40
0.3095742955
 40
0.3300863312
 40
0.3508827821
 40
0.3719248818
 40
0.3931732491
 40
0.4145879914
 40
0.4577543474
 40
0.501099203
 40
0.5442952951
 40
0.5657359749
 40
0.587017582
 40
0.6081001434
 40
0.6289441761
 40
0.6495107926
 40
0.6697618048
 40
0.6896598276
 40
0.709168385
 40
0.7282520204
 40
0.7468764117
 40
0.7650084972
 40
0.7826166038
 40
0.7996705814
 40
0.8161419537
 40
0.8320040874
 40
0.8472323859
 40
0.8618045214
 40
0.8757007003
 40
0.8889039845
 40
0.9014006969
 40
0.9073810972
 40
0.9131815075
 40
0.9188013673
 40
0.9242405009
 40
0.9294990443
 40
0.9345775709
 40
0.9394770909
 40
0.9441990928
 40
0.9487456636
 40
0.9531194621
 40
0.9573238984
 40
0.9613631411
 40
0.9652422549
 40
0.9689673208
 40
0.9725454977
 40
0.9759852252
 40
0.9824864215
 40
0.9855752926
 40
0.9885737717
 40
0.9914977072
 40
0.9943643167
 40
0.9971920017
 40
1.0
 40
1.0
 40
1.0
 40
1.0
 10
10.2456118675
 20
10.5381498695
 30
0.0
 10
10.2466021449
 20
10.5391064041
 30
0.0
 10
10.2486684182
 20
10.5410127121
 30
0.0
 10
10.2519490299
 20
10.5437970256
 30
0.0
 10
10.2554705528
 20
10.546561378
 30
0.0
 10
10.2592310537
 20
10.5493042801
 30
0.0
 10
10.263228686
 20
10.5520244642
 30
0.0
 10
10.267461505
 20
10.5547205929
 30
0.0
 10
10.271927389
 20
10.5573913928
 30
0.0
 10
10.2766241245
 20
10.5600354738
 30
0.0
 10
10.2815493423
 20
10.5626515509
 30
0.0
 10
10.2867005834
 20
10.5652383067
 30
0.0
 10
10.2920752718
 20
10.567794432
 30
0.0
 10
10.2976706973
 20
10.5703186712
 30
0.0
 10
10.3034840684
 20
10.5728097254
 30
0.0
 10
10.3116349237
 20
10.5761312264
 30
0.0
 10
10.3223539819
 20
10.5801821173
 30
0.0
 10
10.3358654736
 20
10.5848265227
 30
0.0
 10
10.3501706053
 20
10.589309668
 30
0.0
 10
10.3652405359
 20
10.593622441
 30
0.0
 10
10.3810450144
 20
10.5977560622
 30
0.0
 10
10.3975522038
 20
10.6017021116
 30
0.0
 10
10.4147288246
 20
10.6054525535
 30
0.0
 10
10.4325402122
 20
10.6089997487
 30
0.0
 10
10.4509504004
 20
10.6123364721
 30
0.0
 10
10.4699221969
 20
10.6154559281
 30
0.0
 10
10.4894172603
 20
10.6183517632
 30
0.0
 10
10.5093961782
 20
10.6210180816
 30
0.0
 10
10.5298185486
 20
10.6234494597
 30
0.0
 10
10.5506430663
 20
10.6256409512
 30
0.0
 10
10.5718276074
 20
10.6275880978
 30
0.0
 10
10.5933293194
 20
10.6292869399
 30
0.0
 10
10.6151046918
 20
10.6307340145
 30
0.0
 10
10.6371097042
 20
10.631926402
 30
0.0
 10
10.6667738454
 20
10.6331765866
 30
0.0
 10
10.7041000287
 20
10.6340846671
 30
0.0
 10
10.748971812
 20
10.6341320135
 30
0.0
 10
10.7863190858
 20
10.6333028587
 30
0.0
 10
10.8160165941
 20
10.6321156891
 30
0.0
 10
10.838058593
 20
10.6309699008
 30
0.0
 10
10.8598790187
 20
10.6295689483
 30
0.0
 10
10.8814337585
 20
10.6279156543
 30
0.0
 10
10.9026791925
 20
10.6260133874
 30
0.0
 10
10.9235723443
 20
10.6238660173
 30
0.0
 10
10.9440709513
 20
10.6214779133
 30
0.0
 10
10.9641335547
 20
10.618853934
 30
0.0
 10
10.9837195822
 20
10.6159994188
 30
0.0
 10
11.0027894334
 20
10.6129201753
 30
0.0
 10
11.0213045646
 20
10.6096224736
 30
0.0
 10
11.0392275688
 20
10.6061130313
 30
0.0
 10
11.0565222526
 20
10.6023989971
 30
0.0
 10
11.0731537122
 20
10.5984879365
 30
0.0
 10
11.0890884066
 20
10.5943878163
 30
0.0
 10
11.1042942416
 20
10.5901069843
 30
0.0
 10
11.118740623
 20
10.5856541561
 30
0.0
 10
11.1323986128
 20
10.5810383854
 30
0.0
 10
11.1452407104
 20
10.576269043
 30
0.0
 10
11.1553848067
 20
10.5721160497
 30
0.0
 10
11.1630644246
 20
10.5687163832
 30
0.0
 10
11.1685197326
 20
10.5661717026
 30
0.0
 10
11.1737525516
 20
10.5635959277
 30
0.0
 10
11.178760281
 20
10.5609903775
 30
0.0
 10
11.1835403969
 20
10.5583563228
 30
0.0
 10
11.1880905156
 20
10.5556950965
 30
0.0
 10
11.1924083707
 20
10.5530080291
 30
0.0
 10
11.1964917921
 20
10.5502964143
 30
0.0
 10
11.2003387754
 20
10.5475616346
 30
0.0
 10
11.2039473763
 20
10.5448049655
 30
0.0
 10
11.2073158274
 20
10.5420277764
 30
0.0
 10
11.2104424347
 20
10.5392313773
 30
0.0
 10
11.2133256368
 20
10.5364170422
 30
0.0
 10
11.2159639434
 20
10.5335862071
 30
0.0
 10
11.2183561566
 20
10.5307397682
 30
0.0
 10
11.2211625054
 20
10.5269970788
 30
0.0
 10
11.2235455176
 20
10.5231534714
 30
0.0
 10
11.2254375572
 20
10.5192278123
 30
0.0
 10
11.2265807026
 20
10.5163244845
 30
0.0
 10
11.2274709565
 20
10.5134141065
 30
0.0
 10
11.2281074904
 20
10.5104980625
 30
0.0
 10
11.2284897121
 20
10.5075784581
 30
0.0
 10
11.2285748011
 20
10.5056279282
 30
0.0
 10
11.2285748055
 20
10.5046565932
 30
0.0
  0
SPLINE
  5
381
100
AcDbEntity
  8
0
100
AcDbSpline
 62
7
  6
CONTINUOUS
 70
0
 71
3
 72
86
 73
82
 74
0
 42
0.0000001
 43
0.0000001
 44
0.0000000001
 40
0.0
 40
0.0
 40
0.0
 40
0.0
 40
0.0038907612
 40
0.0079399189
 40
0.0121508387
 40
0.0165263936
 40
0.0210690144
 40
0.0257805905
 40
0.0306624091
 40
0.0357153601
 40
0.0409399235
 40
0.0463362504
 40
0.0519041819
 40
0.0576432294
 40
0.063552686
 40
0.0696315563
 40
0.0822922071
 40
0.0956135991
 40
0.1095808383
 40
0.1241765013
 40
0.1393809182
 40
0.1551723997
 40
0.171527434
 40
0.1884208597
 40
0.2058260116
 40
0.2237148507
 40
0.2420580805
 40
0.2608252521
 40
0.279984871
 40
0.2995044966
 40
0.3193508348
 40
0.3394898276
 40
0.3598867395
 40
0.3805062424
 40
0.4013125043
 40
0.4222692737
 40
0.4433399626
 40
0.4856749341
 40
0.5280217287
 40
0.5491071731
 40
0.570084555
 40
0.590917238
 40
0.6115689104
 40
0.6320036694
 40
0.652186104
 40
0.6720813785
 40
0.6916553184
 40
0.7108744981
 40
0.7297063359
 40
0.7481191844
 40
0.7660824249
 40
0.783566568
 40
0.8005433615
 40
0.8169859091
 40
0.8328688043
 40
0.8481682684
 40
0.8628623115
 40
0.8769309228
 40
0.8903562965
 40
0.9031231125
 40
0.91521888
 40
0.9210123363
 40
0.9266348566
 40
0.9320859127
 40
0.937365218
 40
0.942472816
 40
0.9474090967
 40
0.952174799
 40
0.956771128
 40
0.9611997117
 40
0.9654627397
 40
0.9695629797
 40
0.9735038534
 40
0.9772895646
 40
0.9809251182
 40
0.9844165069
 40
0.9877707531
 40
0.9909960547
 40
0.9941018991
 40
0.9970991165
 40
1.0
 40
1.0
 40
1.0
 40
1.0
 10
12.4179791963
 20
8.3030276619
 30
0.0
 10
12.4191110796
 20
8.3041209773
 30
0.0
 10
12.4213737
 20
8.3064014433
 30
0.0
 10
12.4246992567
 20
8.3100214596
 30
0.0
 10
12.4280215437
 20
8.3139063211
 30
0.0
 10
12.4313389007
 20
8.3180540665
 30
0.0
 10
12.4346498973
 20
8.3224628108
 30
0.0
 10
12.4379530258
 20
8.3271305772
 30
0.0
 10
12.4412468338
 20
8.3320552034
 30
0.0
 10
12.4445297455
 20
8.3372344363
 30
0.0
 10
12.4478002731
 20
8.3426658639
 30
0.0
 10
12.4510569024
 20
8.3483469796
 30
0.0
 10
12.454298106
 20
8.354275164
 30
0.0
 10
12.4575224122
 20
8.3604476542
 30
0.0
 10
12.4607282949
 20
8.3668616088
 30
0.0
 10
12.4650347281
 20
8.3758537165
 30
0.0
 10
12.4703518996
 20
8.3876835148
 30
0.0
 10
12.476552176
 20
8.402606862
 30
0.0
 10
12.4826440102
 20
8.4184164195
 30
0.0
 10
12.4886159872
 20
8.4350827706
 30
0.0
 10
12.494456912
 20
8.4525750381
 30
0.0
 10
12.50015583
 20
8.4708607021
 30
0.0
 10
12.5057020533
 20
8.4899057418
 30
0.0
 10
12.5110851782
 20
8.5096746892
 30
0.0
 10
12.5162951081
 20
8.5301307084
 30
0.0
 10
12.5213220719
 20
8.5512356654
 30
0.0
 10
12.5261566421
 20
8.5729502004
 30
0.0
 10
12.5307897583
 20
8.5952338015
 30
0.0
 10
12.5352127397
 20
8.6180448845
 30
0.0
 10
12.5394172999
 20
8.6413408751
 30
0.0
 10
12.5433955632
 20
8.6650782891
 30
0.0
 10
12.5471400779
 20
8.6892128141
 30
0.0
 10
12.5506438308
 20
8.7136993906
 30
0.0
 10
12.5539002676
 20
8.7384922993
 30
0.0
 10
12.5569032892
 20
8.7635452357
 30
0.0
 10
12.5596473007
 20
8.7888114499
 30
0.0
 10
12.5629587313
 20
8.8227728856
 30
0.0
 10
12.5664143935
 20
8.8654101436
 30
0.0
 10
12.5689510676
 20
8.9081179047
 30
0.0
 10
12.5704193816
 20
8.9422278973
 30
0.0
 10
12.5712347562
 20
8.9676546
 30
0.0
 10
12.5717643482
 20
8.9929133581
 30
0.0
 10
12.572007161
 20
9.0179570378
 30
0.0
 10
12.5719627615
 20
9.0427388654
 30
0.0
 10
12.5716312477
 20
9.0672125702
 30
0.0
 10
12.5710132576
 20
9.0913324557
 30
0.0
 10
12.5701099661
 20
9.1150534886
 30
0.0
 10
12.5689230829
 20
9.1383313845
 30
0.0
 10
12.5674548559
 20
9.1611226933
 30
0.0
 10
12.5657080626
 20
9.1833848814
 30
0.0
 10
12.5636860036
 20
9.2050764105
 30
0.0
 10
12.5613924979
 20
9.2261568154
 30
0.0
 10
12.5588318751
 20
9.2465867828
 30
0.0
 10
12.5560089683
 20
9.2663282297
 30
0.0
 10
12.5529291117
 20
9.285344382
 30
0.0
 10
12.5495981221
 20
9.3035998438
 30
0.0
 10
12.5460222882
 20
9.3210606744
 30
0.0
 10
12.5422083565
 20
9.3376944356
 30
0.0
 10
12.5381635133
 20
9.3534703475
 30
0.0
 10
12.5338953649
 20
9.36835908
 30
0.0
 10
12.5301067215
 20
9.3801681461
 30
0.0
 10
12.5269613518
 20
9.3891431552
 30
0.0
 10
12.5245854115
 20
9.3955386917
 30
0.0
 10
12.5221597871
 20
9.4016925759
 30
0.0
 10
12.5196855497
 20
9.4076019616
 30
0.0
 10
12.5171638571
 20
9.4132641132
 30
0.0
 10
12.5145958943
 20
9.4186764251
 30
0.0
 10
12.5119827957
 20
9.4238363858
 30
0.0
 10
12.5093258122
 20
9.4287416427
 30
0.0
 10
12.5066261003
 20
9.4333899245
 30
0.0
 10
12.5038849047
 20
9.4377791118
 30
0.0
 10
12.5011034491
 20
9.4419071993
 30
0.0
 10
12.4982829248
 20
9.4457722767
 30
0.0
 10
12.4954246115
 20
9.4493726062
 30
0.0
 10
12.4925296662
 20
9.4527064855
 30
0.0
 10
12.4895993553
 20
9.4557723927
 30
0.0
 10
12.4866348576
 20
9.4585688549
 30
0.0
 10
12.4836373899
 20
9.4610944701
 30
0.0
 10
12.4806081342
 20
9.4633480099
 30
0.0
 10
12.4775485209
 20
9.4653280392
 30
0.0
 10
12.475457948
 20
9.46648231
 30
0.0
 10
12.4744101412
 20
9.4670102964
 30
0.0
  0
SPLINE
  5
382
100
AcDbEntity
  8
0
100
AcDbSpline
 62
7
  6
CONTINUOUS
 70
0
 71
3
 72
15
 73
11
 74
0
 42
0.0000001
 43
0.0000001
 44
0.0000000001
 40
0.0
 40
0.0
 40
0.0
 40
0.0
 40
0.1420790558
 40
0.27875401
 40
0.4102313165
 40
0.5367609623
 40
0.6586404782
 40
0.7762093883
 40
0.8898521896
 40
1.0
 40
1.0
 40
1.0
 40
1.0
 10
12.4179791963
 20
8.3030276619
 30
0.0
 10
12.4169352255
 20
8.3020192636
 30
0.0
 10
12.4148478878
 20
8.3000807124
 30
0.0
 10
12.4116557398
 20
8.2973631875
 30
0.0
 10
12.4084656338
 20
8.2948947281
 30
0.0
 10
12.4052789498
 20
8.2926766191
 30
0.0
 10
12.4020969574
 20
8.2907098328
 30
0.0
 10
12.398920754
 20
8.2889953472
 30
0.0
 10
12.3957518388
 20
8.2875340868
 30
0.0
 10
12.3936140675
 20
8.2867175712
 30
0.0
 10
12.3925490483
 20
8.2863543408
 30
0.0
  0
SPLINE
  5
383
100
AcDbEntity
  8
0
100
AcDbSpline
 62
7
  6
CONTINUOUS
 70
0
 71
3
 72
28
 73
24
 74
0
 42
0.0000001
 43
0.0000001
 44
0.0000000001
 40
0.0
 40
0.0
 40
0.0
 40
0.0
 40
0.075586486
 40
0.1466186449
 40
0.2134346186
 40
0.2764747341
 40
0.3362787133
 40
0.3934907744
 40
0.4213687662
 40
0.4488871414
 40
0.4761523432
 40
0.5032741136
 40
0.5303640302
 40
0.5575341327
 40
0.5848953814
 40
0.61255619
 40
0.6406212621
 40
0.6691904178
 40
0.7281874797
 40
0.7902492613
 40
0.8559439887
 40
0.9257370602
 40
1.0
 40
1.0
 40
1.0
 40
1.0
 10
12.4179791963
 20
8.476894321
 30
0.0
 10
12.4168257918
 20
8.4757802177
 30
0.0
 10
12.4145205429
 20
8.4736875998
 30
0.0
 10
12.4109529185
 20
8.4708920199
 30
0.0
 10
12.4073895304
 20
8.468544112
 30
0.0
 10
12.4038334747
 20
8.4666474443
 30
0.0
 10
12.4002882144
 20
8.4652053827
 30
0.0
 10
12.3973191201
 20
8.4643784444
 30
0.0
 10
12.3949664413
 20
8.4639553638
 30
0.0
 10
12.3932229143
 20
8.4637552946
 30
0.0
 10
12.3914860969
 20
8.4636700174
 30
0.0
 10
12.3897564966
 20
8.4636995181
 30
0.0
 10
12.3880346956
 20
8.4638438119
 30
0.0
 10
12.3863212649
 20
8.4641028857
 30
0.0
 10
12.3846167614
 20
8.4644766077
 30
0.0
 10
12.382921733
 20
8.464964793
 30
0.0
 10
12.3812366619
 20
8.4655673011
 30
0.0
 10
12.378980092
 20
8.4665328579
 30
0.0
 10
12.3761774898
 20
8.4680393732
 30
0.0
 10
12.3729024591
 20
8.4702807659
 30
0.0
 10
12.3696813415
 20
8.4729712007
 30
0.0
 10
12.3665172065
 20
8.4761066409
 30
0.0
 10
12.364511802
 20
8.4784168296
 30
0.0
 10
12.3635176887
 20
8.4796391376
 30
0.0
  0
SPLINE
  5
384
100
AcDbEntity
  8
0
100
AcDbSpline
 62
7
  6
CONTINUOUS
 70
0
 71
3
 72
18
 73
14
 74
0
 42
0.0000001
 43
0.0000001
 44
0.0000000001
 40
0.0
 40
0.0
 40
0.0
 40
0.0
 40
0.150467008
 40
0.2917141408
 40
0.4244426259
 40
0.4879099277
 40
0.549609295
 40
0.6682624161
 40
0.7817883561
 40
0.8371380822
 40
0.8918079419
 40
0.9460193459
 40
1.0
 40
1.0
 40
1.0
 40
1.0
 10
12.3793421609
 20
8.5182108438
 30
0.0
 10
12.3782820133
 20
8.5171868198
 30
0.0
 10
12.37616314
 20
8.515265445
 30
0.0
 10
12.3728823004
 20
8.5127049581
 30
0.0
 10
12.3701110558
 20
8.510894051
 30
0.0
 10
12.3679012458
 20
8.5096677529
 30
0.0
 10
12.3657564455
 20
8.5086149461
 30
0.0
 10
12.3630747628
 20
8.5075511202
 30
0.0
 10
12.3603453798
 20
8.5068251347
 30
0.0
 10
12.3581836214
 20
8.5064675176
 30
0.0
 10
12.356581464
 20
8.5063087748
 30
0.0
 10
12.3549857854
 20
8.5062575104
 30
0.0
 10
12.3539256568
 20
8.5062950131
 30
0.0
 10
12.3533981369
 20
8.5063315955
 30
0.0
  0
SPLINE
  5
385
100
AcDbEntity
  8
0
100
AcDbSpline
 62
7
  6
CONTINUOUS
 70
0
 71
3
 72
91
 73
87
 74
0
 42
0.0000001
 43
0.0000001
 44
0.0000000001
 40
0.0
 40
0.0
 40
0.0
 40
0.0
 40
0.0027164146
 40
0.005453202
 40
0.008230252
 40
0.0110665198
 40
0.0139797053
 40
0.0169859824
 40
0.0200999174
 40
0.023334401
 40
0.0267007187
 40
0.0302086385
 40
0.0338665091
 40
0.0376814414
 40
0.0416593691
 40
0.0458052582
 40
0.0501231421
 40
0.0546162891
 40
0.0592872586
 40
0.064137982
 40
0.0691698666
 40
0.0743837897
 40
0.079780237
 40
0.0853592528
 40
0.0911205635
 40
0.0970635488
 40
0.1031872988
 40
0.1094906474
 40
0.1226297881
 40
0.1364673429
 40
0.1509860432
 40
0.166165828
 40
0.1819841602
 40
0.1984162836
 40
0.2154354412
 40
0.2330130641
 40
0.2511189358
 40
0.2697213391
 40
0.2887871904
 40
0.3082821639
 40
0.3281708096
 40
0.3484166635
 40
0.368982358
 40
0.3898297276
 40
0.4109199118
 40
0.4322134566
 40
0.4536704139
 40
0.4752504412
 40
0.4969128994
 40
0.5186169519
 40
0.5403216628
 40
0.5619860952
 40
0.5835694083
 40
0.6050309559
 40
0.6263303839
 40
0.6474277291
 40
0.6682835187
 40
0.688858872
 40
0.7091156002
 40
0.7290163102
 40
0.7485245085
 40
0.7676047097
 40
0.7862225487
 40
0.8043448976
 40
0.8219399925
 40
0.8389775679
 40
0.8554290014
 40
0.8712674776
 40
0.8864681732
 40
0.9010084737
 40
0.9148682315
 40
0.9280300795
 40
0.9343449284
 40
0.9404802779
 40
0.9464349254
 40
0.952207944
 40
0.9577987094
 40
0.9632068925
 40
0.9684325652
 40
0.9734761403
 40
0.9783384919
 40
0.9830209404
 40
0.9875254382
 40
0.9918545985
 40
0.9960115586
 40
1.0
 40
1.0
 40
1.0
 40
1.0
 10
12.4900530293
 20
9.4691843159
 30
0.0
 10
12.4911635242
 20
9.4691073076
 30
0.0
 10
12.4933871568
 20
9.4688522121
 30
0.0
 10
12.4966943036
 20
9.468169573
 30
0.0
 10
12.4999764425
 20
9.4671869975
 30
0.0
 10
12.5032312713
 20
9.4659055317
 30
0.0
 10
12.5064570572
 20
9.4643262022
 30
0.0
 10
12.5096522023
 20
9.4624503521
 30
0.0
 10
12.5128151854
 20
9.4602792344
 30
0.0
 10
12.5159446323
 20
9.4578142752
 30
0.0
 10
12.5190391831
 20
9.4550568977
 30
0.0
 10
12.5220974852
 20
9.4520085964
 30
0.0
 10
12.5251182453
 20
9.4486709939
 30
0.0
 10
12.5281000642
 20
9.4450457393
 30
0.0
 10
12.5310416575
 20
9.4411346848
 30
0.0
 10
12.5339416044
 20
9.4369397237
 30
0.0
 10
12.5367985923
 20
9.4324629506
 30
0.0
 10
12.5396112314
 20
9.4277065524
 30
0.0
 10
12.5423781685
 20
9.4226728765
 30
0.0
 10
12.5450980764
 20
9.4173644136
 30
0.0
 10
12.5477695789
 20
9.4117837765
 30
0.0
 10
12.5503914097
 20
9.4059337483
 30
0.0
 10
12.5529622103
 20
9.3998172187
 30
0.0
 10
12.5554807504
 20
9.3934372457
 30
0.0
 10
12.5579457353
 20
9.3867969997
 30
0.0
 10
12.560355943
 20
9.3798998028
 30
0.0
 10
12.5627101885
 20
9.3727490906
 30
0.0
 10
12.5658159413
 20
9.3627427541
 30
0.0
 10
12.5695387483
 20
9.349620386
 30
0.0
 10
12.573705213
 20
9.3331321818
 30
0.0
 10
12.577621877
 20
9.3157248186
 30
0.0
 10
12.5812807931
 20
9.2974331915
 30
0.0
 10
12.5846745142
 20
9.27829383
 30
0.0
 10
12.5877961351
 20
9.2583450764
 30
0.0
 10
12.5906393025
 20
9.2376269217
 30
0.0
 10
12.5931982295
 20
9.2161809371
 30
0.0
 10
12.5954677073
 20
9.1940501774
 30
0.0
 10
12.5974431156
 20
9.1712790919
 30
0.0
 10
12.5991204319
 20
9.1479134306
 30
0.0
 10
12.6004962385
 20
9.1240001503
 30
0.0
 10
12.6015677292
 20
9.0995873186
 30
0.0
 10
12.6023327169
 20
9.0747240158
 30
0.0
 10
12.6027896354
 20
9.0494602341
 30
0.0
 10
12.6029375421
 20
9.0238467751
 30
0.0
 10
12.6027761196
 20
8.997935147
 30
0.0
 10
12.6023056757
 20
8.97177746
 30
0.0
 10
12.6015271431
 20
8.9454263213
 30
0.0
 10
12.6004420766
 20
8.918934729
 30
0.0
 10
12.5990526508
 20
8.8923559656
 30
0.0
 10
12.5973616569
 20
8.8657434891
 30
0.0
 10
12.5953724954
 20
8.8391508258
 30
0.0
 10
12.5930891687
 20
8.8126314614
 30
0.0
 10
12.5905162734
 20
8.7862387335
 30
0.0
 10
12.5876589912
 20
8.760025724
 30
0.0
 10
12.5845230781
 20
8.7340451524
 30
0.0
 10
12.5811148531
 20
8.7083492692
 30
0.0
 10
12.5774411863
 20
8.6829897494
 30
0.0
 10
12.5735094864
 20
8.6580175875
 30
0.0
 10
12.5693276839
 20
8.6334829946
 30
0.0
 10
12.5649042155
 20
8.6094352964
 30
0.0
 10
12.5602480074
 20
8.5859228337
 30
0.0
 10
12.555368458
 20
8.562992864
 30
0.0
 10
12.5502754187
 20
8.5406914645
 30
0.0
 10
12.544979174
 20
8.5190634369
 30
0.0
 10
12.5394904227
 20
8.4981522134
 30
0.0
 10
12.5338202559
 20
8.4779997646
 30
0.0
 10
12.5279801325
 20
8.4586465136
 30
0.0
 10
12.5219818556
 20
8.4401312429
 30
0.0
 10
12.5158375469
 20
8.4224910312
 30
0.0
 10
12.5095596157
 20
8.4057610917
 30
0.0
 10
12.5031607379
 20
8.3899749549
 30
0.0
 10
12.4976651325
 20
8.3774655589
 30
0.0
 10
12.4932100066
 20
8.3679619823
 30
0.0
 10
12.4898926197
 20
8.3611881539
 30
0.0
 10
12.4865546853
 20
8.3546729262
 30
0.0
 10
12.4831978477
 20
8.3484195514
 30
0.0
 10
12.4798238181
 20
8.3424311433
 30
0.0
 10
12.4764342393
 20
8.3367107007
 30
0.0
 10
12.4730308472
 20
8.3312610475
 30
0.0
 10
12.4696152787
 20
8.3260849193
 30
0.0
 10
12.4661892846
 20
8.3211848705
 30
0.0
 10
12.4627545202
 20
8.3165633343
 30
0.0
 10
12.4593126464
 20
8.3122225665
 30
0.0
 10
12.4558652796
 20
8.3081646651
 30
0.0
 10
12.4524142335
 20
8.3043918314
 30
0.0
 10
12.4500643941
 20
8.3020195842
 30
0.0
 10
12.4488888253
 20
8.3008840719
 30
0.0
  0
SPLINE
  5
386
100
AcDbEntity
  8
0
100
AcDbSpline
 62
7
  6
CONTINUOUS
 70
0
 71
3
 72
18
 73
14
 74
0
 42
0.0000001
 43
0.0000001
 44
0.0000000001
 40
0.0
 40
0.0
 40
0.0
 40
0.0
 40
0.150467608
 40
0.291710008
 40
0.4244359371
 40
0.549562455
 40
0.6682139939
 40
0.7255497488
 40
0.7817912909
 40
0.8371402503
 40
0.8918093826
 40
0.9460201179
 40
1.0
 40
1.0
 40
1.0
 40
1.0
 10
12.4488888253
 20
8.3008840719
 30
0.0
 10
12.4472067064
 20
8.2992592697
 30
0.0
 10
12.4438448569
 20
8.2962107226
 30
0.0
 10
12.4386390603
 20
8.2921480131
 30
0.0
 10
12.4334393781
 20
8.2887501677
 30
0.0
 10
12.4282511939
 20
8.2860227637
 30
0.0
 10
12.4238905821
 20
8.2842932817
 30
0.0
 10
12.420428449
 20
8.283265727
 30
0.0
 10
12.4178687275
 20
8.282673459
 30
0.0
 10
12.4153174981
 20
8.2822513345
 30
0.0
 10
12.4127754756
 20
8.2819995027
 30
0.0
 10
12.4102436712
 20
8.2819180948
 30
0.0
 10
12.4085616131
 20
8.2819775873
 30
0.0
 10
12.4077246212
 20
8.2820356292
 30
0.0
  0
SPLINE
  5
387
100
AcDbEntity
  8
0
100
AcDbSpline
 62
7
  6
CONTINUOUS
 70
0
 71
3
 72
94
 73
90
 74
0
 42
0.0000001
 43
0.0000001
 44
0.0000000001
 40
0.0
 40
0.0
 40
0.0
 40
0.0
 40
0.0042067424
 40
0.0086075207
 40
0.0132068055
 40
0.0180083081
 40
0.0230150438
 40
0.0282291866
 40
0.0336520718
 40
0.0392844708
 40
0.0451265555
 40
0.0511780678
 40
0.0574382557
 40
0.0639059723
 40
0.0705797218
 40
0.0774576307
 40
0.0918166637
 40
0.106963036
 40
0.1228722614
 40
0.1395164096
 40
0.1568645009
 40
0.1748828316
 40
0.1935352497
 40
0.2127833934
 40
0.2325869017
 40
0.2529036149
 40
0.2736897561
 40
0.294900102
 40
0.3164881462
 40
0.3384062565
 40
0.3606058283
 40
0.3830374351
 40
0.4056509809
 40
0.428395848
 40
0.4512210441
 40
0.4740753475
 40
0.4969074533
 40
0.5196661186
 40
0.5423003107
 40
0.5647593531
 40
0.5869930724
 40
0.6089519455
 40
0.6305872482
 40
0.6518512057
 40
0.6726971477
 40
0.693079669
 40
0.7129547903
 40
0.7322801267
 40
0.7510150672
 40
0.7691209668
 40
0.7865613576
 40
0.8033021866
 40
0.8193120912
 40
0.8345627126
 40
0.8490290789
 40
0.8626900818
 40
0.8692134624
 40
0.8755296878
 40
0.8816374943
 40
0.8875360586
 40
0.8932249277
 40
0.898704201
 40
0.9039744583
 40
0.9090369231
 40
0.9138934947
 40
0.9185468289
 40
0.923000513
 40
0.9272590847
 40
0.9313283041
 40
0.9352152008
 40
0.9389283442
 40
0.9424779984
 40
0.9458763116
 40
0.949137545
 40
0.952278132
 40
0.955316811
 40
0.9582744813
 40
0.9611740125
 40
0.9640398039
 40
0.9668971994
 40
0.9697717834
 40
0.9726886544
 40
0.975671739
 40
0.9787432816
 40
0.9852254311
 40
0.9886743433
 40
0.9922790841
 40
0.9960512073
 40
1.0
 40
1.0
 40
1.0
 40
1.0
 10
12.4179791963
 20
8.476894321
 30
0.0
 10
12.4188753935
 20
8.477759981
 30
0.0
 10
12.4206665946
 20
8.4795756822
 30
0.0
 10
12.4232920872
 20
8.4824768459
 30
0.0
 10
12.4259142432
 20
8.4856142876
 30
0.0
 10
12.4285314209
 20
8.4889859881
 30
0.0
 10
12.4311421706
 20
8.4925900075
 30
0.0
 10
12.4337449844
 20
8.4964242646
 30
0.0
 10
12.4363383819
 20
8.5004864937
 30
0.0
 10
12.4389207689
 20
8.5047743164
 30
0.0
 10
12.4414906709
 20
8.5092851718
 30
0.0
 10
12.4440465243
 20
8.5140164083
 30
0.0
 10
12.4465868348
 20
8.5189652127
 30
0.0
 10
12.4491100802
 20
8.5241286465
 30
0.0
 10
12.4516147548
 20
8.5295036482
 30
0.0
 10
12.4549758947
 20
8.5370568624
 30
0.0
 10
12.4591116455
 20
8.54701024
 30
0.0
 10
12.4639085749
 20
8.5595791177
 30
0.0
 10
12.4685965943
 20
8.5729085995
 30
0.0
 10
12.4731644288
 20
8.5869668895
 30
0.0
 10
12.4776010833
 20
8.601720567
 30
0.0
 10
12.481895877
 20
8.617134455
 30
0.0
 10
12.4860384713
 20
8.6331717782
 30
0.0
 10
12.4900188957
 20
8.649794238
 30
0.0
 10
12.4938275758
 20
8.6669621144
 30
0.0
 10
12.4974553526
 20
8.684634366
 30
0.0
 10
12.5008935048
 20
8.7027687328
 30
0.0
 10
12.5041337696
 20
8.72132184
 30
0.0
 10
12.5071683617
 20
8.7402493032
 30
0.0
 10
12.5099899921
 20
8.7595058358
 30
0.0
 10
12.5125918849
 20
8.7790453577
 30
0.0
 10
12.5149677967
 20
8.7988211066
 30
0.0
 10
12.5171120279
 20
8.8187857518
 30
0.0
 10
12.5190194365
 20
8.8388915091
 30
0.0
 10
12.5206854503
 20
8.859090255
 30
0.0
 10
12.5221060775
 20
8.8793336426
 30
0.0
 10
12.5232779165
 20
8.899573217
 30
0.0
 10
12.5241981642
 20
8.9197605321
 30
0.0
 10
12.5248646256
 20
8.9398472677
 30
0.0
 10
12.5252757163
 20
8.9597853458
 30
0.0
 10
12.5254304662
 20
8.9795270464
 30
0.0
 10
12.5253285222
 20
8.9990251216
 30
0.0
 10
12.5249701496
 20
9.0182329094
 30
0.0
 10
12.5243562311
 20
9.0371044459
 30
0.0
 10
12.5234882661
 20
9.0555945777
 30
0.0
 10
12.5223683701
 20
9.0736590724
 30
0.0
 10
12.5209992674
 20
9.091254726
 30
0.0
 10
12.5193842846
 20
9.1083394676
 30
0.0
 10
12.5175273437
 20
9.1248724628
 30
0.0
 10
12.5154329531
 20
9.140814215
 30
0.0
 10
12.5131061967
 20
9.1561266644
 30
0.0
 10
12.5105527225
 20
9.1707732942
 30
0.0
 10
12.507778729
 20
9.184719207
 30
0.0
 10
12.5047909514
 20
9.1979312978
 30
0.0
 10
12.50159661
 20
9.2103780833
 30
0.0
 10
12.4987265873
 20
9.2202342771
 30
0.0
 10
12.4963247355
 20
9.2277074983
 30
0.0
 10
12.4945042809
 20
9.2330165327
 30
0.0
 10
12.4926380923
 20
9.2381130439
 30
0.0
 10
12.4907273052
 20
9.2429940253
 30
0.0
 10
12.4887730061
 20
9.2476565705
 30
0.0
 10
12.4867764034
 20
9.2520979371
 30
0.0
 10
12.4847386346
 20
9.2563154956
 30
0.0
 10
12.4826609099
 20
9.2603067691
 30
0.0
 10
12.4805444445
 20
9.2640694223
 30
0.0
 10
12.4783904181
 20
9.2676012375
 30
0.0
 10
12.476200106
 20
9.2709001811
 30
0.0
 10
12.4739746613
 20
9.2739642937
 30
0.0
 10
12.471715359
 20
9.2767918195
 30
0.0
 10
12.4694233541
 20
9.2793810632
 30
0.0
 10
12.4670998539
 20
9.2817304795
 30
0.0
 10
12.4647460412
 20
9.2838386203
 30
0.0
 10
12.4623630516
 20
9.2857040568
 30
0.0
 10
12.4599521282
 20
9.2873255199
 30
0.0
 10
12.4575144576
 20
9.2887016305
 30
0.0
 10
12.4550514463
 20
9.2898312137
 30
0.0
 10
12.4525645781
 20
9.2907130237
 30
0.0
 10
12.4500556
 20
9.291346045
 30
0.0
 10
12.4475264525
 20
9.2917294876
 30
0.0
 10
12.4449792461
 20
9.2918628171
 30
0.0
 10
12.4424161485
 20
9.2917460453
 30
0.0
 10
12.43983933
 20
9.2913793872
 30
0.0
 10
12.4372506005
 20
9.2907634985
 30
0.0
 10
12.4337233349
 20
9.2895905114
 30
0.0
 10
12.4302330096
 20
9.2879207788
 30
0.0
 10
12.4268120008
 20
9.2858270609
 30
0.0
 10
12.4241880925
 20
9.2839799595
 30
0.0
 10
12.4215618248
 20
9.281890294
 30
0.0
 10
12.419850161
 20
9.2803719205
 30
0.0
 10
12.4189939713
 20
9.2795751043
 30
0.0
  0
SPLINE
  5
388
100
AcDbEntity
  8
0
100
AcDbSpline
 62
7
  6
CONTINUOUS
 70
0
 71
3
 72
80
 73
76
 74
0
 42
0.0000001
 43
0.0000001
 44
0.0000000001
 40
0.0
 40
0.0
 40
0.0
 40
0.0
 40
0.0039883799
 40
0.0081453752
 40
0.0124746386
 40
0.0169792156
 40
0.021661669
 40
0.0265240231
 40
0.0315676328
 40
0.0367933336
 40
0.042201574
 40
0.0477923628
 40
0.0595195651
 40
0.0719693889
 40
0.0851313116
 40
0.0989911574
 40
0.1135315518
 40
0.1287323373
 40
0.1445709047
 40
0.1610224436
 40
0.1780601318
 40
0.1956553356
 40
0.2137777909
 40
0.2323957448
 40
0.2514760677
 40
0.2709843863
 40
0.2908852167
 40
0.311142073
 40
0.3317175598
 40
0.3736702008
 40
0.4164307353
 40
0.4596780682
 40
0.5030864323
 40
0.5463285118
 40
0.5890785868
 40
0.6310156693
 40
0.6515815081
 40
0.6718274996
 40
0.6917162816
 40
0.711211397
 40
0.7302773921
 40
0.7488799298
 40
0.7669859313
 40
0.7845636874
 40
0.801582979
 40
0.818015225
 40
0.8338336755
 40
0.8490135854
 40
0.8635324141
 40
0.8773700842
 40
0.8905093296
 40
0.9029360806
 40
0.9146399417
 40
0.9202190025
 40
0.9256155028
 40
0.9308294768
 40
0.9358613995
 40
0.940712184
 40
0.9453831863
 40
0.9498763813
 40
0.9541943136
 40
0.9583402313
 40
0.9623182136
 40
0.9661331738
 40
0.9697910847
 40
0.9732990446
 40
0.9766653897
 40
0.9798999101
 40
0.9830138747
 40
0.9860201789
 40
0.9889333931
 40
0.9917696852
 40
0.9945467564
 40
0.9972835667
 40
1.0
 40
1.0
 40
1.0
 40
1.0
 10
12.3793421609
 20
8.5182108438
 30
0.0
 10
12.3800830488
 20
8.5189264866
 30
0.0
 10
12.3815640209
 20
8.5204215885
 30
0.0
 10
12.3837390447
 20
8.5227994244
 30
0.0
 10
12.3859117906
 20
8.5253569367
 30
0.0
 10
12.3880810455
 20
8.528092739
 30
0.0
 10
12.3902458181
 20
8.531005463
 30
0.0
 10
12.3924050424
 20
8.53409372
 30
0.0
 10
12.3945576963
 20
8.5373559823
 30
0.0
 10
12.3967027097
 20
8.5407906254
 30
0.0
 10
12.3988389941
 20
8.5443959569
 30
0.0
 10
12.4017203383
 20
8.5495099968
 30
0.0
 10
12.4052852276
 20
8.5563240489
 30
0.0
 10
12.4094461044
 20
8.5650256843
 30
0.0
 10
12.413547124
 20
8.5743604632
 30
0.0
 10
12.4175800276
 20
8.5843097516
 30
0.0
 10
12.421536702
 20
8.5948538051
 30
0.0
 10
12.4254091645
 20
8.605971575
 30
0.0
 10
12.4291895927
 20
8.6176408456
 30
0.0
 10
12.4328703393
 20
8.629838261
 30
0.0
 10
12.436443969
 20
8.6425393737
 30
0.0
 10
12.4399032646
 20
8.655718702
 30
0.0
 10
12.443241236
 20
8.6693497941
 30
0.0
 10
12.4464511342
 20
8.6834052817
 30
0.0
 10
12.4495264773
 20
8.6978569282
 30
0.0
 10
12.4524610634
 20
8.7126756917
 30
0.0
 10
12.4552489626
 20
8.7278317829
 30
0.0
 10
12.4578845684
 20
8.7432947601
 30
0.0
 10
12.461209882
 20
8.7644159123
 30
0.0
 10
12.4649407874
 20
8.7913545193
 30
0.0
 10
12.4687069017
 20
8.8241903917
 30
0.0
 10
12.4717598741
 20
8.8574778207
 30
0.0
 10
12.4740750882
 20
8.8909492794
 30
0.0
 10
12.4756339645
 20
8.9243359871
 30
0.0
 10
12.4764240336
 20
8.9573696102
 30
0.0
 10
12.4764369092
 20
8.9845561377
 30
0.0
 10
12.4760505192
 20
9.0059246477
 30
0.0
 10
12.4755683727
 20
9.0215948069
 30
0.0
 10
12.4748930707
 20
9.0369810368
 30
0.0
 10
12.4740259731
 20
9.0520524329
 30
0.0
 10
12.4729688518
 20
9.0667786918
 30
0.0
 10
12.4717238513
 20
9.0811302176
 30
0.0
 10
12.4702935126
 20
9.0950781766
 30
0.0
 10
12.4686807512
 20
9.1085945581
 30
0.0
 10
12.4668888493
 20
9.121652225
 30
0.0
 10
12.4649214459
 20
9.1342249745
 30
0.0
 10
12.4627825503
 20
9.1462876024
 30
0.0
 10
12.4604765199
 20
9.1578159558
 30
0.0
 10
12.4580080455
 20
9.1687869845
 30
0.0
 10
12.4553821334
 20
9.1791787771
 30
0.0
 10
12.4526041122
 20
9.1889707021
 30
0.0
 10
12.4496795965
 20
9.1981432067
 30
0.0
 10
12.4470855912
 20
9.205366803
 30
0.0
 10
12.4449347655
 20
9.2108154493
 30
0.0
 10
12.4433145054
 20
9.2146704201
 30
0.0
 10
12.4416621037
 20
9.218357424
 30
0.0
 10
12.4399783721
 20
9.2218746388
 30
0.0
 10
12.4382641681
 20
9.2252203283
 30
0.0
 10
12.4365202875
 20
9.2283928183
 30
0.0
 10
12.4347476242
 20
9.231390562
 30
0.0
 10
12.4329470151
 20
9.2342120763
 30
0.0
 10
12.4311193001
 20
9.2368559599
 30
0.0
 10
12.4292653825
 20
9.239320939
 30
0.0
 10
12.4273860703
 20
9.2416057651
 30
0.0
 10
12.4254822391
 20
9.2437093136
 30
0.0
 10
12.4235547478
 20
9.2456305341
 30
0.0
 10
12.4216043924
 20
9.2473683795
 30
0.0
 10
12.4196320644
 20
9.2489219504
 30
0.0
 10
12.4176385881
 20
9.2502903148
 30
0.0
 10
12.4156248423
 20
9.2514725847
 30
0.0
 10
12.4135917904
 20
9.2524679828
 30
0.0
 10
12.4115404309
 20
9.253275648
 30
0.0
 10
12.4094718551
 20
9.2538949194
 30
0.0
 10
12.4073875273
 20
9.2543251993
 30
0.0
 10
12.4059860762
 20
9.2544859689
 30
0.0
 10
12.4052861849
 20
9.2545345048
 30
0.0
  0
SPLINE
  5
389
100
AcDbEntity
  8
0
100
AcDbSpline
 62
7
  6
CONTINUOUS
 70
0
 71
3
 72
61
 73
57
 74
0
 42
0.0000001
 43
0.0000001
 44
0.0000000001
 40
0.0
 40
0.0
 40
0.0
 40
0.0
 40
0.0085500831
 40
0.0176518282
 40
0.0273119388
 40
0.0375330487
 40
0.0483143346
 40
0.0596520489
 40
0.0715399689
 40
0.0839696868
 40
0.0969308502
 40
0.110411427
 40
0.1243978625
 40
0.1388751847
 40
0.1538271778
 40
0.1692364905
 40
0.185084685
 40
0.2013523522
 40
0.2180192038
 40
0.2350641067
 40
0.252465154
 40
0.2701997535
 40
0.2882446631
 40
0.3065760341
 40
0.3439996166
 40
0.3822705894
 40
0.4211822648
 40
0.4605233554
 40
0.5000795412
 40
0.5396349815
 40
0.5789738425
 40
0.6178818121
 40
0.6561476434
 40
0.6935646733
 40
0.711892258
 40
0.729933038
 40
0.7476631939
 40
0.7650594851
 40
0.7820993091
 40
0.7987607922
 40
0.8150228167
 40
0.8308650777
 40
0.846268195
 40
0.8612137644
 40
0.8756844182
 40
0.889663959
 40
0.9031374659
 40
0.9160913786
 40
0.9285136711
 40
0.9403940542
 40
0.9517241379
 40
0.9624977005
 40
0.972711059
 40
0.9823634567
 40
0.9914575366
 40
1.0
 40
1.0
 40
1.0
 40
1.0
 10
11.1987740935
 20
10.4607658596
 30
0.0
 10
11.1965349526
 20
10.462368421
 30
0.0
 10
11.1918152467
 20
10.4655428414
 30
0.0
 10
11.1842798562
 20
10.4700853834
 30
0.0
 10
11.1760799268
 20
10.4745501083
 30
0.0
 10
11.1672273695
 20
10.4789304834
 30
0.0
 10
11.1577347002
 20
10.483220322
 30
0.0
 10
11.1476155588
 20
10.4874134243
 30
0.0
 10
11.1368845004
 20
10.4915036878
 30
0.0
 10
11.1255570338
 20
10.495485133
 30
0.0
 10
11.1136495826
 20
10.499351949
 30
0.0
 10
11.1011794368
 20
10.5030984592
 30
0.0
 10
11.0881647302
 20
10.5067191491
 30
0.0
 10
11.074624423
 20
10.5102087165
 30
0.0
 10
11.0605782533
 20
10.5135620339
 30
0.0
 10
11.0460467061
 20
10.5167741577
 30
0.0
 10
11.031050994
 20
10.519840377
 30
0.0
 10
11.0156130164
 20
10.5227561922
 30
0.0
 10
10.9997553195
 20
10.525517306
 30
0.0
 10
10.9835010737
 20
10.5281196623
 30
0.0
 10
10.9668740347
 20
10.5305594508
 30
0.0
 10
10.9498985094
 20
10.5328330748
 30
0.0
 10
10.9325992902
 20
10.534937208
 30
0.0
 10
10.9089736448
 20
10.537530336
 30
0.0
 10
10.8788186345
 20
10.5403177547
 30
0.0
 10
10.8419992796
 20
10.5429219378
 30
0.0
 10
10.8045170742
 20
10.54479238
 30
0.0
 10
10.7665911452
 20
10.5459180633
 30
0.0
 10
10.7284430592
 20
10.546292291
 30
0.0
 10
10.6902957426
 20
10.5459128603
 30
0.0
 10
10.652372119
 20
10.544782022
 30
0.0
 10
10.6148937405
 20
10.5429064594
 30
0.0
 10
10.5780797107
 20
10.5402972725
 30
0.0
 10
10.5479300886
 20
10.5375057149
 30
0.0
 10
10.5243094869
 20
10.5349093411
 30
0.0
 10
10.5070145658
 20
10.5328028366
 30
0.0
 10
10.4900436812
 20
10.5305269005
 30
0.0
 10
10.4734216215
 20
10.5280848504
 30
0.0
 10
10.4571726906
 20
10.5254802672
 30
0.0
 10
10.4413206301
 20
10.5227169893
 30
0.0
 10
10.4258886014
 20
10.5197990789
 30
0.0
 10
10.41089915
 20
10.5167308085
 30
0.0
 10
10.3963741609
 20
10.5135166972
 30
0.0
 10
10.3823348313
 20
10.5101614762
 30
0.0
 10
10.368801646
 20
10.5066700628
 30
0.0
 10
10.3557943321
 20
10.503047589
 30
0.0
 10
10.343331827
 20
10.4992993893
 30
0.0
 10
10.3314322622
 20
10.4954309576
 30
0.0
 10
10.3201129232
 20
10.4914479575
 30
0.0
 10
10.3093902049
 20
10.4873562374
 30
0.0
 10
10.2992796062
 20
10.4831617699
 30
0.0
 10
10.2897956885
 20
10.4788706266
 30
0.0
 10
10.2809520572
 20
10.4744890432
 30
0.0
 10
10.272761205
 20
10.4700232128
 30
0.0
 10
10.2652350834
 20
10.4654796302
 30
0.0
 10
10.260521763
 20
10.4623045236
 30
0.0
 10
10.2582858707
 20
10.460701641
 30
0.0
  0
SPLINE
  5
38A
100
AcDbEntity
  8
0
100
AcDbSpline
 62
7
  6
CONTINUOUS
 70
0
 71
3
 72
46
 73
42
 74
0
 42
0.0000001
 43
0.0000001
 44
0.0000000001
 40
0.0
 40
0.0
 40
0.0
 40
0.0
 40
0.0112073763
 40
0.0228002203
 40
0.0347721982
 40
0.0471162545
 40
0.0598246425
 40
0.0728890297
 40
0.1000488613
 40
0.1285188471
 40
0.158213824
 40
0.1890420372
 40
0.2209059277
 40
0.2537028361
 40
0.2873256502
 40
0.321663413
 40
0.3566019035
 40
0.3920242006
 40
0.4278112336
 40
0.4638423255
 40
0.4999957306
 40
0.5361491696
 40
0.5721803632
 40
0.6079675654
 40
0.6433900987
 40
0.6783288914
 40
0.712667021
 40
0.7462902652
 40
0.7790876647
 40
0.8109521051
 40
0.8417809244
 40
0.8714765603
 40
0.8999472544
 40
0.9136966633
 40
0.9271084882
 40
0.9401732573
 40
0.9528820575
 40
0.9652265139
 40
0.9771989212
 40
0.9887921818
 40
1.0
 40
1.0
 40
1.0
 40
1.0
 10
11.0821199427
 20
10.4131999105
 30
0.0
 10
11.0796109365
 20
10.414134568
 30
0.0
 10
11.0744861981
 20
10.4159815736
 30
0.0
 10
11.0666170993
 20
10.4186447609
 30
0.0
 10
11.0584417341
 20
10.4212455707
 30
0.0
 10
11.0499675309
 20
10.4237816053
 30
0.0
 10
11.0412021236
 20
10.4262506079
 30
0.0
 10
11.0289786208
 20
10.4294921544
 30
0.0
 10
11.013024802
 20
10.4333488855
 30
0.0
 10
10.9930906609
 20
10.4376179105
 30
0.0
 10
10.9721988129
 20
10.4415700386
 30
0.0
 10
10.9504248584
 20
10.4451908105
 30
0.0
 10
10.9278474638
 20
10.4484669553
 30
0.0
 10
10.9045483137
 20
10.4513864799
 30
0.0
 10
10.8806117295
 20
10.4539387002
 30
0.0
 10
10.8561243756
 20
10.4561142811
 30
0.0
 10
10.8311749318
 20
10.457905268
 30
0.0
 10
10.8058537685
 20
10.459305115
 30
0.0
 10
10.7802526147
 20
10.4603087068
 30
0.0
 10
10.7544642221
 20
10.460912377
 30
0.0
 10
10.7285820258
 20
10.4611139203
 30
0.0
 10
10.7026998034
 20
10.4609126007
 30
0.0
 10
10.6769113327
 20
10.4603091537
 30
0.0
 10
10.651310049
 20
10.4593057836
 30
0.0
 10
10.6259887043
 20
10.4579061561
 30
0.0
 10
10.6010390282
 20
10.4561153855
 30
0.0
 10
10.5765513917
 20
10.4539400172
 30
0.0
 10
10.5526144767
 20
10.4513880045
 30
0.0
 10
10.5293149447
 20
10.4484686825
 30
0.0
 10
10.5067371325
 20
10.4451927322
 30
0.0
 10
10.4849626775
 20
10.4415721545
 30
0.0
 10
10.4640704201
 20
10.4376201883
 30
0.0
 10
10.4472686322
 20
10.4340223451
 30
0.0
 10
10.4343304642
 20
10.4309810142
 30
0.0
 10
10.4250063989
 20
10.4286528997
 30
0.0
 10
10.4159574196
 20
10.4262533039
 30
0.0
 10
10.4071916974
 20
10.4237844043
 30
0.0
 10
10.3987171649
 20
10.4212484266
 30
0.0
 10
10.3905414611
 20
10.4186477018
 30
0.0
 10
10.3826720188
 20
10.4159845691
 30
0.0
 10
10.3775470424
 20
10.4141376194
 30
0.0
 10
10.3750379159
 20
10.4132029822
 30
0.0
  0
SPLINE
  5
38B
100
AcDbEntity
  8
0
100
AcDbSpline
 62
7
  6
CONTINUOUS
 70
0
 71
3
 72
23
 73
19
 74
0
 42
0.0000001
 43
0.0000001
 44
0.0000000001
 40
0.0
 40
0.0
 40
0.0
 40
0.0
 40
0.0637776288
 40
0.1273446152
 40
0.1907020433
 40
0.2538561391
 40
0.3168131818
 40
0.3795820998
 40
0.442173387
 40
0.5045993408
 40
0.5668738683
 40
0.6290123813
 40
0.69103165
 40
0.7529496426
 40
0.8147853504
 40
0.8765585998
 40
0.9382898528
 40
1.0
 40
1.0
 40
1.0
 40
1.0
 10
10.4132308416
 20
7.7327048973
 30
0.0
 10
10.4132308416
 20
7.7394936186
 30
0.0
 10
10.4135557549
 20
7.7530509411
 30
0.0
 10
10.4150223756
 20
7.7733044985
 30
0.0
 10
10.4174642213
 20
7.7933974454
 30
0.0
 10
10.4208755852
 20
7.8132827585
 30
0.0
 10
10.4252487413
 20
7.8329148553
 30
0.0
 10
10.4305736068
 20
7.8522483973
 30
0.0
 10
10.4368379742
 20
7.8712388317
 30
0.0
 10
10.4440274378
 20
7.8898423593
 30
0.0
 10
10.452125464
 20
7.908016075
 30
0.0
 10
10.4611134108
 20
7.9257180613
 30
0.0
 10
10.4709705777
 20
7.9429074818
 30
0.0
 10
10.4816742671
 20
7.9595446905
 30
0.0
 10
10.493199778
 20
7.9755912698
 30
0.0
 10
10.5055206775
 20
7.9910103235
 30
0.0
 10
10.5186080629
 20
8.0057658043
 30
0.0
 10
10.5278256183
 20
8.0151394213
 30
0.0
 10
10.5325501542
 20
8.0197029657
 30
0.0
  0
SPLINE
  5
38C
100
AcDbEntity
  8
0
100
AcDbSpline
 62
7
  6
CONTINUOUS
 70
0
 71
3
 72
21
 73
17
 74
0
 42
0.0000001
 43
0.0000001
 44
0.0000000001
 40
0.0
 40
0.0
 40
0.0
 40
0.0
 40
0.1273176366
 40
0.2537999756
 40
0.3167619475
 40
0.3795355041
 40
0.4421314991
 40
0.5045621439
 40
0.5668413432
 40
0.6289845283
 40
0.6910084528
 40
0.7529310935
 40
0.8147714495
 40
0.8765493365
 40
0.9382852194
 40
1.0
 40
1.0
 40
1.0
 40
1.0
 10
11.1550619201
 20
10.0052764305
 30
0.0
 10
11.1550619201
 20
10.0105736804
 30
0.0
 10
11.1555675776
 20
10.0211402446
 30
0.0
 10
11.1574772816
 20
10.0342028011
 30
0.0
 10
11.1597598026
 20
10.0444492347
 30
0.0
 10
11.1618413391
 20
10.0520070078
 30
0.0
 10
11.1642901267
 20
10.0594304918
 30
0.0
 10
11.1671005545
 20
10.0667027716
 30
0.0
 10
11.1702661219
 20
10.0738070335
 30
0.0
 10
11.1737795733
 20
10.0807268939
 30
0.0
 10
11.1776328266
 20
10.0874463782
 30
0.0
 10
11.1818169731
 20
10.0939500101
 30
0.0
 10
11.1863223755
 20
10.1002227628
 30
0.0
 10
11.1911387227
 20
10.1062501947
 30
0.0
 10
11.1962546813
 20
10.1120182413
 30
0.0
 10
11.1998578846
 20
10.1156824814
 30
0.0
 10
11.2017047434
 20
10.1174664103
 30
0.0
  0
SPLINE
  5
38D
100
AcDbEntity
  8
0
100
AcDbSpline
 62
4
  6
CONTINUOUS
 70
0
 71
3
 72
403
 73
399
 74
0
 42
0.0000001
 43
0.0000001
 44
0.0000000001
 40
0.0
 40
0.0
 40
0.0
 40
0.0
 40
0.015625
 40
0.0234375
 40
0.03125
 40
0.0390625
 40
0.04296875
 40
0.046875
 40
0.05078125
 40
0.0546875
 40
0.056640625
 40
0.05859375
 40
0.0595703125
 40
0.060546875
 40
0.0615234375
 40
0.0620117188
 40
0.0622558594
 40
0.0625
 40
0.0627441406
 40
0.0629882812
 40
0.0634765625
 40
0.064453125
 40
0.0654296875
 40
0.06640625
 40
0.068359375
 40
0.0703125
 40
0.07421875
 40
0.078125
 40
0.08203125
 40
0.0859375
 40
0.09375
 40
0.1015625
 40
0.10546875
 40
0.109375
 40
0.11328125
 40
0.1171875
 40
0.119140625
 40
0.12109375
 40
0.1220703125
 40
0.123046875
 40
0.1240234375
 40
0.1245117188
 40
0.1247558594
 40
0.125
 40
0.1252441406
 40
0.1254882812
 40
0.1259765625
 40
0.126953125
 40
0.1279296875
 40
0.12890625
 40
0.130859375
 40
0.1328125
 40
0.13671875
 40
0.140625
 40
0.14453125
 40
0.1484375
 40
0.15625
 40
0.1640625
 40
0.16796875
 40
0.171875
 40
0.17578125
 40
0.1796875
 40
0.181640625
 40
0.18359375
 40
0.1845703125
 40
0.185546875
 40
0.1865234375
 40
0.1870117188
 40
0.1872558594
 40
0.1875
 40
0.1877441406
 40
0.1879882812
 40
0.1884765625
 40
0.189453125
 40
0.1904296875
 40
0.19140625
 40
0.193359375
 40
0.1953125
 40
0.19921875
 40
0.203125
 40
0.20703125
 40
0.2109375
 40
0.21875
 40
0.2265625
 40
0.23046875
 40
0.234375
 40
0.23828125
 40
0.2421875
 40
0.244140625
 40
0.24609375
 40
0.2470703125
 40
0.248046875
 40
0.2490234375
 40
0.2495117188
 40
0.2497558594
 40
0.25
 40
0.2502441406
 40
0.2504882812
 40
0.2509765625
 40
0.251953125
 40
0.2529296875
 40
0.25390625
 40
0.255859375
 40
0.2578125
 40
0.26171875
 40
0.265625
 40
0.26953125
 40
0.2734375
 40
0.28125
 40
0.2890625
 40
0.29296875
 40
0.296875
 40
0.30078125
 40
0.3046875
 40
0.306640625
 40
0.30859375
 40
0.3095703125
 40
0.310546875
 40
0.3115234375
 40
0.3120117188
 40
0.3122558594
 40
0.3125
 40
0.3127441406
 40
0.3129882812
 40
0.3134765625
 40
0.314453125
 40
0.3154296875
 40
0.31640625
 40
0.318359375
 40
0.3203125
 40
0.32421875
 40
0.328125
 40
0.33203125
 40
0.3359375
 40
0.34375
 40
0.3515625
 40
0.35546875
 40
0.359375
 40
0.36328125
 40
0.3671875
 40
0.369140625
 40
0.37109375
 40
0.3720703125
 40
0.373046875
 40
0.3740234375
 40
0.3745117188
 40
0.3747558594
 40
0.375
 40
0.3752441406
 40
0.3754882812
 40
0.3759765625
 40
0.376953125
 40
0.3779296875
 40
0.37890625
 40
0.380859375
 40
0.3828125
 40
0.38671875
 40
0.390625
 40
0.39453125
 40
0.3984375
 40
0.40625
 40
0.4140625
 40
0.41796875
 40
0.421875
 40
0.42578125
 40
0.4296875
 40
0.431640625
 40
0.43359375
 40
0.4345703125
 40
0.435546875
 40
0.4365234375
 40
0.4370117188
 40
0.4372558594
 40
0.4375
 40
0.4377441406
 40
0.4379882812
 40
0.4384765625
 40
0.439453125
 40
0.4404296875
 40
0.44140625
 40
0.443359375
 40
0.4453125
 40
0.44921875
 40
0.453125
 40
0.45703125
 40
0.4609375
 40
0.46875
 40
0.4765625
 40
0.48046875
 40
0.484375
 40
0.48828125
 40
0.4921875
 40
0.494140625
 40
0.49609375
 40
0.4970703125
 40
0.498046875
 40
0.4990234375
 40
0.4995117188
 40
0.4997558594
 40
0.5
 40
0.5002441406
 40
0.5004882812
 40
0.5009765625
 40
0.501953125
 40
0.5029296875
 40
0.50390625
 40
0.505859375
 40
0.5078125
 40
0.51171875
 40
0.515625
 40
0.51953125
 40
0.5234375
 40
0.53125
 40
0.5390625
 40
0.54296875
 40
0.546875
 40
0.55078125
 40
0.5546875
 40
0.556640625
 40
0.55859375
 40
0.5595703125
 40
0.560546875
 40
0.5615234375
 40
0.5620117188
 40
0.5622558594
 40
0.5625
 40
0.5627441406
 40
0.5629882812
 40
0.5634765625
 40
0.564453125
 40
0.5654296875
 40
0.56640625
 40
0.568359375
 40
0.5703125
 40
0.57421875
 40
0.578125
 40
0.58203125
 40
0.5859375
 40
0.59375
 40
0.6015625
 40
0.60546875
 40
0.609375
 40
0.61328125
 40
0.6171875
 40
0.619140625
 40
0.62109375
 40
0.6220703125
 40
0.623046875
 40
0.6240234375
 40
0.6245117188
 40
0.6247558594
 40
0.625
 40
0.6252441406
 40
0.6254882812
 40
0.6259765625
 40
0.626953125
 40
0.6279296875
 40
0.62890625
 40
0.630859375
 40
0.6328125
 40
0.63671875
 40
0.640625
 40
0.64453125
 40
0.6484375
 40
0.65625
 40
0.6640625
 40
0.66796875
 40
0.671875
 40
0.67578125
 40
0.6796875
 40
0.681640625
 40
0.68359375
 40
0.6845703125
 40
0.685546875
 40
0.6865234375
 40
0.6870117188
 40
0.6872558594
 40
0.6875
 40
0.6877441406
 40
0.6879882812
 40
0.6884765625
 40
0.689453125
 40
0.6904296875
 40
0.69140625
 40
0.693359375
 40
0.6953125
 40
0.69921875
 40
0.703125
 40
0.70703125
 40
0.7109375
 40
0.71875
 40
0.7265625
 40
0.73046875
 40
0.734375
 40
0.73828125
 40
0.7421875
 40
0.744140625
 40
0.74609375
 40
0.7470703125
 40
0.748046875
 40
0.7490234375
 40
0.7495117188
 40
0.7497558594
 40
0.75
 40
0.7502441406
 40
0.7504882812
 40
0.7509765625
 40
0.751953125
 40
0.7529296875
 40
0.75390625
 40
0.755859375
 40
0.7578125
 40
0.76171875
 40
0.765625
 40
0.76953125
 40
0.7734375
 40
0.78125
 40
0.7890625
 40
0.79296875
 40
0.796875
 40
0.80078125
 40
0.8046875
 40
0.806640625
 40
0.80859375
 40
0.8095703125
 40
0.810546875
 40
0.8115234375
 40
0.8120117188
 40
0.8122558594
 40
0.8125
 40
0.8127441406
 40
0.8129882812
 40
0.8134765625
 40
0.814453125
 40
0.8154296875
 40
0.81640625
 40
0.818359375
 40
0.8203125
 40
0.82421875
 40
0.828125
 40
0.83203125
 40
0.8359375
 40
0.84375
 40
0.8515625
 40
0.85546875
 40
0.859375
 40
0.86328125
 40
0.8671875
 40
0.869140625
 40
0.87109375
 40
0.8720703125
 40
0.873046875
 40
0.8740234375
 40
0.8745117188
 40
0.8747558594
 40
0.875
 40
0.8752441406
 40
0.8754882812
 40
0.8759765625
 40
0.876953125
 40
0.8779296875
 40
0.87890625
 40
0.880859375
 40
0.8828125
 40
0.88671875
 40
0.890625
 40
0.89453125
 40
0.8984375
 40
0.90625
 40
0.9140625
 40
0.91796875
 40
0.921875
 40
0.92578125
 40
0.9296875
 40
0.931640625
 40
0.93359375
 40
0.9345703125
 40
0.935546875
 40
0.9365234375
 40
0.9370117188
 40
0.9372558594
 40
0.9375
 40
0.9377441406
 40
0.9379882812
 40
0.9384765625
 40
0.939453125
 40
0.9404296875
 40
0.94140625
 40
0.943359375
 40
0.9453125
 40
0.94921875
 40
0.953125
 40
0.95703125
 40
0.9609375
 40
0.96875
 40
0.9765625
 40
0.984375
 40
1.0
 40
1.0
 40
1.0
 40
1.0
 10
10.4128444807
 20
8.7166237833
 30
0.0
 10
10.4159776676
 20
8.7167137077
 30
0.0
 10
10.420677448
 20
8.7168485943
 30
0.0
 10
10.4269438218
 20
8.7170284431
 30
0.0
 10
10.4316436022
 20
8.7171633298
 30
0.0
 10
10.4355600859
 20
8.7172757351
 30
0.0
 10
10.4386932727
 20
8.7173656599
 30
0.0
 10
10.4410431631
 20
8.7174331022
 30
0.0
 10
10.4433930526
 20
8.7175005492
 30
0.0
 10
10.4453512967
 20
8.7175567404
 30
0.0
 10
10.4469178855
 20
8.7176017263
 30
0.0
 10
10.4478970182
 20
8.7176297673
 30
0.0
 10
10.4486802908
 20
8.7176523722
 30
0.0
 10
10.4492678372
 20
8.717668855
 30
0.0
 10
10.4497571666
 20
8.7176840885
 30
0.0
 10
10.4501002713
 20
8.7176918124
 30
0.0
 10
10.4502954347
 20
8.717700816
 30
0.0
 10
10.4504443327
 20
8.7176946385
 30
0.0
 10
10.4505835768
 20
8.717737887
 30
0.0
 10
10.4507726029
 20
8.7177783113
 30
0.0
 10
10.4511018298
 20
8.7178570863
 30
0.0
 10
10.451572974
 20
8.7179654226
 30
0.0
 10
10.4521379961
 20
8.7180972236
 30
0.0
 10
10.4528914815
 20
8.7182723305
 30
0.0
 10
10.4538332962
 20
8.7184914291
 30
0.0
 10
10.4553402232
 20
8.7188418667
 30
0.0
 10
10.457223874
 20
8.7192799549
 30
0.0
 10
10.4594842583
 20
8.7198056431
 30
0.0
 10
10.4617446417
 20
8.720331336
 30
0.0
 10
10.4647584866
 20
8.7210322582
 30
0.0
 10
10.4685257925
 20
8.7219084116
 30
0.0
 10
10.4722930986
 20
8.7227845645
 30
0.0
 10
10.4753069433
 20
8.7234854874
 30
0.0
 10
10.4775673273
 20
8.7240111784
 30
0.0
 10
10.4798277094
 20
8.7245368738
 30
0.0
 10
10.4817113669
 20
8.7249749393
 30
0.0
 10
10.4832182802
 20
8.7253254233
 30
0.0
 10
10.4841601298
 20
8.7255444039
 30
0.0
 10
10.4849135436
 20
8.7257197529
 30
0.0
 10
10.4854787844
 20
8.7258508143
 30
0.0
 10
10.4859492443
 20
8.7259614647
 30
0.0
 10
10.4862796928
 20
8.7260361087
 30
0.0
 10
10.4864667616
 20
8.7260831519
 30
0.0
 10
10.4866120181
 20
8.7261060691
 30
0.0
 10
10.4867383343
 20
8.7261762524
 30
0.0
 10
10.4869133624
 20
8.7262533433
 30
0.0
 10
10.4872165836
 20
8.7263959339
 30
0.0
 10
10.487651366
 20
8.7265956188
 30
0.0
 10
10.4881724161
 20
8.7268369596
 30
0.0
 10
10.48886739
 20
8.727158147
 30
0.0
 10
10.4897360252
 20
8.7275598367
 30
0.0
 10
10.4911258874
 20
8.7282024254
 30
0.0
 10
10.4928631993
 20
8.7290057008
 30
0.0
 10
10.4949479805
 20
8.7299696143
 30
0.0
 10
10.4970327598
 20
8.7309335323
 30
0.0
 10
10.4998124662
 20
8.7322187547
 30
0.0
 10
10.503287099
 20
8.7338252834
 30
0.0
 10
10.5067617319
 20
8.7354318116
 30
0.0
 10
10.509541438
 20
8.7367170347
 30
0.0
 10
10.5116262182
 20
8.7376809508
 30
0.0
 10
10.5137109961
 20
8.7386448714
 30
0.0
 10
10.5154483182
 20
8.7394481248
 30
0.0
 10
10.5168381597
 20
8.7400907583
 30
0.0
 10
10.5177068475
 20
8.740492334
 30
0.0
 10
10.5184017133
 20
8.7408137556
 30
0.0
 10
10.5189230939
 20
8.7410543807
 30
0.0
 10
10.519356842
 20
8.7412563048
 30
0.0
 10
10.5196619096
 20
8.741394898
 30
0.0
 10
10.5198339793
 20
8.7414783937
 30
0.0
 10
10.5199693831
 20
8.7415289036
 30
0.0
 10
10.5200805081
 20
8.7416257111
 30
0.0
 10
10.5202371435
 20
8.7417386387
 30
0.0
 10
10.5205073097
 20
8.7419437861
 30
0.0
 10
10.5208953243
 20
8.7422329202
 30
0.0
 10
10.5213600588
 20
8.7425815648
 30
0.0
 10
10.5219800132
 20
8.7430458362
 30
0.0
 10
10.5227548506
 20
8.7436263767
 30
0.0
 10
10.5239946495
 20
8.7445551291
 30
0.0
 10
10.5255443779
 20
8.7457161083
 30
0.0
 10
10.5274040607
 20
8.7471092666
 30
0.0
 10
10.5292637411
 20
8.7485024294
 30
0.0
 10
10.5317433158
 20
8.7503599783
 30
0.0
 10
10.5348427839
 20
8.752681915
 30
0.0
 10
10.5379422522
 20
8.7550038513
 30
0.0
 10
10.5404218265
 20
8.7568614007
 30
0.0
 10
10.5422815082
 20
8.7582545619
 30
0.0
 10
10.5441411862
 20
8.7596477264
 30
0.0
 10
10.5456909294
 20
8.7608086863
 30
0.0
 10
10.546930698
 20
8.7617374778
 30
0.0
 10
10.5477056126
 20
8.7623179189
 30
0.0
 10
10.5483254087
 20
8.7627823946
 30
0.0
 10
10.5487906268
 20
8.7631304149
 30
0.0
 10
10.5491771285
 20
8.7634215022
 30
0.0
 10
10.5494499954
 20
8.7636231628
 30
0.0
 10
10.5496023036
 20
8.7637416772
 30
0.0
 10
10.5497267204
 20
8.7638213236
 30
0.0
 10
10.5498122023
 20
8.7639362881
 30
0.0
 10
10.5499397592
 20
8.7640772547
 30
0.0
 10
10.5501566562
 20
8.7643296862
 30
0.0
 10
10.5504698171
 20
8.7646873017
 30
0.0
 10
10.5508441942
 20
8.7651177248
 30
0.0
 10
10.5513438582
 20
8.7656911736
 30
0.0
 10
10.5519682689
 20
8.7664081382
 30
0.0
 10
10.5529674207
 20
8.7675551958
 30
0.0
 10
10.554216328
 20
8.7689890471
 30
0.0
 10
10.5557150306
 20
8.7707096562
 30
0.0
 10
10.5572137296
 20
8.7724302686
 30
0.0
 10
10.5592119961
 20
8.7747244173
 30
0.0
 10
10.5617098288
 20
8.7775921036
 30
0.0
 10
10.5642076618
 20
8.7804597896
 30
0.0
 10
10.5662059277
 20
8.7827539387
 30
0.0
 10
10.5677046283
 20
8.7844745498
 30
0.0
 10
10.5692033249
 20
8.7861951638
 30
0.0
 10
10.570452251
 20
8.7876289997
 30
0.0
 10
10.5714513643
 20
8.7887760888
 30
0.0
 10
10.5720758729
 20
8.7894929732
 30
0.0
 10
10.5725753361
 20
8.7900665868
 30
0.0
 10
10.5729503269
 20
8.7904965063
 30
0.0
 10
10.5732615676
 20
8.7908556973
 30
0.0
 10
10.5734818925
 20
8.7911053162
 30
0.0
 10
10.5736039568
 20
8.7912507893
 30
0.0
 10
10.5737063102
 20
8.7913519115
 30
0.0
 10
10.573767361
 20
8.7914835475
 30
0.0
 10
10.573863169
 20
8.7916484186
 30
0.0
 10
10.5740241205
 20
8.7919419021
 30
0.0
 10
10.5742575605
 20
8.7923585716
 30
0.0
 10
10.5745361865
 20
8.7928596847
 30
0.0
 10
10.5749082124
 20
8.793527448
 30
0.0
 10
10.5753730651
 20
8.7943622847
 30
0.0
 10
10.57611693
 20
8.7956979493
 30
0.0
 10
10.5770467265
 20
8.7973675556
 30
0.0
 10
10.5781624971
 20
8.7993710722
 30
0.0
 10
10.5792782638
 20
8.8013745917
 30
0.0
 10
10.5807659541
 20
8.80404595
 30
0.0
 10
10.5826255665
 20
8.8073851482
 30
0.0
 10
10.5844851792
 20
8.8107243463
 30
0.0
 10
10.5859728689
 20
8.813395705
 30
0.0
 10
10.5870886374
 20
8.8153992234
 30
0.0
 10
10.5882044014
 20
8.817402744
 30
0.0
 10
10.5891342185
 20
8.8190723378
 30
0.0
 10
10.5898780415
 20
8.8204080277
 30
0.0
 10
10.5903430006
 20
8.8212428001
 30
0.0
 10
10.5907148082
 20
8.8219106955
 30
0.0
 10
10.5909941011
 20
8.8224114048
 30
0.0
 10
10.5912254545
 20
8.8228293378
 30
0.0
 10
10.591390131
 20
8.8231205657
 30
0.0
 10
10.5914799705
 20
8.8232890509
 30
0.0
 10
10.5915593544
 20
8.8234095855
 30
0.0
 10
10.591592852
 20
8.8235524029
 30
0.0
 10
10.5916535211
 20
8.8237350536
 30
0.0
 10
10.5917522347
 20
8.8240583137
 30
0.0
 10
10.5918971529
 20
8.8245182206
 30
0.0
 10
10.5920693859
 20
8.8250709192
 30
0.0
 10
10.5922996128
 20
8.8258075676
 30
0.0
 10
10.5925871969
 20
8.8267284751
 30
0.0
 10
10.593047443
 20
8.8282018728
 30
0.0
 10
10.5936227123
 20
8.8300436386
 30
0.0
 10
10.5943130518
 20
8.8322537496
 30
0.0
 10
10.595003387
 20
8.8344638627
 30
0.0
 10
10.5959238354
 20
8.8374106794
 30
0.0
 10
10.5970743954
 20
8.8410942006
 30
0.0
 10
10.5982249558
 20
8.8447777217
 30
0.0
 10
10.5991454036
 20
8.8477245387
 30
0.0
 10
10.5998357407
 20
8.849934651
 30
0.0
 10
10.6005260731
 20
8.852144765
 30
0.0
 10
10.6011013646
 20
8.8539865214
 30
0.0
 10
10.6015615653
 20
8.8554599383
 30
0.0
 10
10.6018492648
 20
8.8563807969
 30
0.0
 10
10.6020792549
 20
8.8571175456
 30
0.0
 10
10.6022522115
 20
8.857669938
 30
0.0
 10
10.6023948657
 20
8.8581308031
 30
0.0
 10
10.6024976209
 20
8.8584523525
 30
0.0
 10
10.6025518143
 20
8.8586377441
 30
0.0
 10
10.6026052034
 20
8.8587721423
 30
0.0
 10
10.602609878
 20
8.858924298
 30
0.0
 10
10.602633103
 20
8.8591209782
 30
0.0
 10
10.6026658298
 20
8.8594680545
 30
0.0
 10
10.6027167214
 20
8.859962369
 30
0.0
 10
10.6027760197
 20
8.8605561922
 30
0.0
 10
10.6028557029
 20
8.8613477309
 30
0.0
 10
10.602955095
 20
8.8623372316
 30
0.0
 10
10.6031142408
 20
8.8639203894
 30
0.0
 10
10.6033131325
 20
8.8658993515
 30
0.0
 10
10.6035518198
 20
8.8682740996
 30
0.0
 10
10.6037905026
 20
8.8706488495
 30
0.0
 10
10.6041087478
 20
8.873815182
 30
0.0
 10
10.6045065538
 20
8.8777730979
 30
0.0
 10
10.6049043602
 20
8.8817310137
 30
0.0
 10
10.6052226047
 20
8.8848973464
 30
0.0
 10
10.6054612895
 20
8.8872720959
 30
0.0
 10
10.6056999693
 20
8.8896468453
 30
0.0
 10
10.6058988843
 20
8.8916258035
 30
0.0
 10
10.6060579825
 20
8.8932089694
 30
0.0
 10
10.6061574958
 20
8.8941984495
 30
0.0
 10
10.6062369303
 20
8.8949900303
 30
0.0
 10
10.6062969883
 20
8.895583725
 30
0.0
 10
10.6063455032
 20
8.8960784415
 30
0.0
 10
10.6063824728
 20
8.8964248001
 30
0.0
 10
10.6063988997
 20
8.8966226303
 30
0.0
 10
10.606424456
 20
8.8967712535
 30
0.0
 10
10.6063994169
 20
8.896918919
 30
0.0
 10
10.6063836796
 20
8.8971161403
 30
0.0
 10
10.6063479167
 20
8.8974611219
 30
0.0
 10
10.6063011257
 20
8.8979540343
 30
0.0
 10
10.6062431365
 20
8.8985454942
 30
0.0
 10
10.6061664603
 20
8.8993341196
 30
0.0
 10
10.606070395
 20
8.9003198972
 30
0.0
 10
10.6059168134
 20
8.9018971438
 30
0.0
 10
10.6057247942
 20
8.9038687011
 30
0.0
 10
10.6054943893
 20
8.9062345703
 30
0.0
 10
10.6052639795
 20
8.9086004393
 30
0.0
 10
10.6049567682
 20
8.9117549315
 30
0.0
 10
10.6045727534
 20
8.9156980466
 30
0.0
 10
10.604188739
 20
8.9196411618
 30
0.0
 10
10.603881527
 20
8.9227956539
 30
0.0
 10
10.6036511193
 20
8.9251615231
 30
0.0
 10
10.6034207068
 20
8.9275273917
 30
0.0
 10
10.603228711
 20
8.9294989507
 30
0.0
 10
10.6030750818
 20
8.9310761938
 30
0.0
 10
10.6029791376
 20
8.9320619802
 30
0.0
 10
10.6029022126
 20
8.9328505876
 30
0.0
 10
10.6028449834
 20
8.9334421028
 30
0.0
 10
10.6027958147
 20
8.9339348421
 30
0.0
 10
10.6027642965
 20
8.9342801326
 30
0.0
 10
10.6027417582
 20
8.934476859
 30
0.0
 10
10.6027376096
 20
8.9346260448
 30
0.0
 10
10.6026847045
 20
8.9347689578
 30
0.0
 10
10.6026311712
 20
8.9349616965
 30
0.0
 10
10.6025295642
 20
8.9352979698
 30
0.0
 10
10.602388554
 20
8.9357788932
 30
0.0
 10
10.6022175685
 20
8.9363557731
 30
0.0
 10
10.6019902073
 20
8.9371250261
 30
0.0
 10
10.6017057936
 20
8.9380865649
 30
0.0
 10
10.6012508503
 20
8.9396250424
 30
0.0
 10
10.6006821304
 20
8.941548134
 30
0.0
 10
10.5999996841
 20
8.9438558461
 30
0.0
 10
10.5993172331
 20
8.9461635577
 30
0.0
 10
10.5984073
 20
8.9492405066
 30
0.0
 10
10.597269883
 20
8.9530866927
 30
0.0
 10
10.5961324665
 20
8.9569328789
 30
0.0
 10
10.5952225328
 20
8.9600098277
 30
0.0
 10
10.5945400837
 20
8.9623175397
 30
0.0
 10
10.5938576302
 20
8.9646252501
 30
0.0
 10
10.5932889326
 20
8.9665483469
 30
0.0
 10
10.5928339439
 20
8.9680868138
 30
0.0
 10
10.5925496457
 20
8.9690483795
 30
0.0
 10
10.5923220473
 20
8.9698175773
 30
0.0
 10
10.5921517863
 20
8.9703946257
 30
0.0
 10
10.5920085095
 20
8.970875022
 30
0.0
 10
10.5919109488
 20
8.9712122363
 30
0.0
 10
10.5918509323
 20
8.9714034672
 30
0.0
 10
10.5918179416
 20
8.9715510117
 30
0.0
 10
10.5917389981
 20
8.9716828026
 30
0.0
 10
10.591649769
 20
8.9718640189
 30
0.0
 10
10.5914861499
 20
8.972178587
 30
0.0
 10
10.5912563128
 20
8.9726293087
 30
0.0
 10
10.590978837
 20
8.9731696018
 30
0.0
 10
10.5906094531
 20
8.9738901926
 30
0.0
 10
10.5901475233
 20
8.9747908627
 30
0.0
 10
10.5894085473
 20
8.976231973
 30
0.0
 10
10.5884847889
 20
8.9780333479
 30
0.0
 10
10.5873762954
 20
8.9801950033
 30
0.0
 10
10.5862677974
 20
8.9823566572
 30
0.0
 10
10.5847898017
 20
8.985238863
 30
0.0
 10
10.5829423064
 20
8.9888416199
 30
0.0
 10
10.5810948116
 20
8.9924443771
 30
0.0
 10
10.5796168152
 20
8.9953265826
 30
0.0
 10
10.5785083191
 20
8.9974882373
 30
0.0
 10
10.5773998187
 20
8.9996498899
 30
0.0
 10
10.5764760816
 20
9.0014512734
 30
0.0
 10
10.5757370622
 20
9.0028923661
 30
0.0
 10
10.5752752429
 20
9.0037930812
 30
0.0
 10
10.5749056322
 20
9.0045135795
 30
0.0
 10
10.5746288492
 20
9.0050541552
 30
0.0
 10
10.5743968446
 20
9.0055039928
 30
0.0
 10
10.5742370948
 20
9.0058201391
 30
0.0
 10
10.5741416661
 20
9.0059988268
 30
0.0
 10
10.5740817659
 20
9.0061383847
 30
0.0
 10
10.5739772518
 20
9.0062567577
 30
0.0
 10
10.5738534615
 20
9.006421978
 30
0.0
 10
10.573629578
 20
9.0067076706
 30
0.0
 10
10.5733135351
 20
9.0071176028
 30
0.0
 10
10.572932661
 20
9.007608751
 30
0.0
 10
10.5724253957
 20
9.0082638844
 30
0.0
 10
10.5717911199
 20
9.009082709
 30
0.0
 10
10.5707763872
 20
9.0103928799
 30
0.0
 10
10.569507934
 20
9.0120305758
 30
0.0
 10
10.5679858062
 20
9.0139958185
 30
0.0
 10
10.5664636741
 20
9.0159610591
 30
0.0
 10
10.5644341662
 20
9.0185813807
 30
0.0
 10
10.5618972807
 20
9.0218567824
 30
0.0
 10
10.5593603955
 20
9.0251321843
 30
0.0
 10
10.557330887
 20
9.0277525055
 30
0.0
 10
10.5558087565
 20
9.0297177473
 30
0.0
 10
10.5542866228
 20
9.0316829856
 30
0.0
 10
10.5530181879
 20
9.0333206951
 30
0.0
 10
10.5520034181
 20
9.0346308382
 30
0.0
 10
10.5513692366
 20
9.0354497334
 30
0.0
 10
10.5508617778
 20
9.0361047219
 30
0.0
 10
10.5504814945
 20
9.0365963127
 30
0.0
 10
10.5501636032
 20
9.0370048603
 30
0.0
 10
10.5499430193
 20
9.0372930247
 30
0.0
 10
10.5498139422
 20
9.0374542844
 30
0.0
 10
10.5497256676
 20
9.0375848231
 30
0.0
 10
10.5496047749
 20
9.037678689
 30
0.0
 10
10.5494549621
 20
9.0378166354
 30
0.0
 10
10.5491874888
 20
9.0380520817
 30
0.0
 10
10.5488081555
 20
9.0383915495
 30
0.0
 10
10.5483517693
 20
9.0387975771
 30
0.0
 10
10.5477436687
 20
9.039339413
 30
0.0
 10
10.546983401
 20
9.0400165485
 30
0.0
 10
10.5457670521
 20
9.0411000544
 30
0.0
 10
10.5442465887
 20
9.0424544061
 30
0.0
 10
10.5424220442
 20
9.0440796414
 30
0.0
 10
10.5405974967
 20
9.0457048731
 30
0.0
 10
10.5381647678
 20
9.0478718499
 30
0.0
 10
10.5351238562
 20
9.0505805705
 30
0.0
 10
10.5320829448
 20
9.0532892915
 30
0.0
 10
10.5296502155
 20
9.0554562678
 30
0.0
 10
10.5278256692
 20
9.057081501
 30
0.0
 10
10.5260011202
 20
9.0587067305
 30
0.0
 10
10.524480671
 20
9.0600611002
 30
0.0
 10
10.5232642931
 20
9.0611445696
 30
0.0
 10
10.522504099
 20
9.0618217978
 30
0.0
 10
10.5218958475
 20
9.0623634434
 30
0.0
 10
10.5214399223
 20
9.0627700527
 30
0.0
 10
10.5210591466
 20
9.0631077003
 30
0.0
 10
10.5207942481
 20
9.063346396
 30
0.0
 10
10.5206403098
 20
9.063479136
 30
0.0
 10
10.5205320895
 20
9.0635889944
 30
0.0
 10
10.5203962196
 20
9.0636594679
 30
0.0
 10
10.5202247041
 20
9.0637671705
 30
0.0
 10
10.5199200586
 20
9.0639492492
 30
0.0
 10
10.5194872
 20
9.0642127081
 30
0.0
 10
10.5189667641
 20
9.0645274264
 30
0.0
 10
10.5182732008
 20
9.0649475511
 30
0.0
 10
10.5174061264
 20
9.0654725357
 30
0.0
 10
10.5160188745
 20
9.0663126067
 30
0.0
 10
10.5142847867
 20
9.0673626627
 30
0.0
 10
10.5122038912
 20
9.0686227439
 30
0.0
 10
10.510122993
 20
9.0698828214
 30
0.0
 10
10.507348463
 20
9.071562926
 30
0.0
 10
10.5038803002
 20
9.0736630562
 30
0.0
 10
10.5004121375
 20
9.0757631868
 30
0.0
 10
10.4976376072
 20
9.0774432909
 30
0.0
 10
10.49555671
 20
9.0787033701
 30
0.0
 10
10.4934758109
 20
9.0799634449
 30
0.0
 10
10.4917417341
 20
9.0810135206
 30
0.0
 10
10.4903544598
 20
9.0818535514
 30
0.0
 10
10.4894874424
 20
9.0823786384
 30
0.0
 10
10.4887937621
 20
9.0827985529
 30
0.0
 10
10.4882736838
 20
9.0831139134
 30
0.0
 10
10.4878397063
 20
9.0833753632
 30
0.0
 10
10.4875370581
 20
9.0835610284
 30
0.0
 10
10.4873623425
 20
9.0836629845
 30
0.0
 10
10.4872363026
 20
9.0837511093
 30
0.0
 10
10.4870911621
 20
9.0837946724
 30
0.0
 10
10.486904304
 20
9.0838683002
 30
0.0
 10
10.4865741981
 20
9.0839899067
 30
0.0
 10
10.4861042411
 20
9.0841674165
 30
0.0
 10
10.4855395981
 20
9.0843788077
 30
0.0
 10
10.4847869834
 20
9.0846612286
 30
0.0
 10
10.4838461319
 20
9.0850140609
 30
0.0
 10
10.482340816
 20
9.085578701
 30
0.0
 10
10.4804591551
 20
9.0862844639
 30
0.0
 10
10.478201169
 20
9.0871313954
 30
0.0
 10
10.4759431809
 20
9.0879783226
 30
0.0
 10
10.4729325309
 20
9.0891075603
 30
0.0
 10
10.4691692181
 20
9.0905191069
 30
0.0
 10
10.4654059054
 20
9.0919306539
 30
0.0
 10
10.4623952551
 20
9.093059891
 30
0.0
 10
10.4601372678
 20
9.09390682
 30
0.0
 10
10.4578792791
 20
9.0947537445
 30
0.0
 10
10.4559976261
 20
9.0954595291
 30
0.0
 10
10.4544922941
 20
9.0960241249
 30
0.0
 10
10.4535514835
 20
9.0963770698
 30
0.0
 10
10.4527987849
 20
9.0966592597
 30
0.0
 10
10.452234398
 20
9.0968713567
 30
0.0
 10
10.4517636398
 20
9.0970466581
 30
0.0
 10
10.4514349642
 20
9.0971722071
 30
0.0
 10
10.4512458143
 20
9.097239518
 30
0.0
 10
10.4511077136
 20
9.0973024844
 30
0.0
 10
10.4509552336
 20
9.0973177336
 30
0.0
 10
10.4507569426
 20
9.0973547101
 30
0.0
 10
10.4504075966
 20
9.0974116641
 30
0.0
 10
10.4499097525
 20
9.0974970813
 30
0.0
 10
10.4493118167
 20
9.0975978466
 30
0.0
 10
10.4485147516
 20
9.0977328065
 30
0.0
 10
10.4475183577
 20
9.0979012988
 30
0.0
 10
10.4459241623
 20
9.0981710024
 30
0.0
 10
10.4439314062
 20
9.0985080921
 30
0.0
 10
10.4415401039
 20
9.0989126169
 30
0.0
 10
10.4391488003
 20
9.0993171371
 30
0.0
 10
10.435960396
 20
9.0998564989
 30
0.0
 10
10.4319748904
 20
9.1005307007
 30
0.0
 10
10.4271922838
 20
9.101339743
 30
0.0
 10
10.4208154749
 20
9.1024184661
 30
0.0
 10
10.4160328682
 20
9.1032275084
 30
0.0
 10
10.4128444638
 20
9.1037668699
 30
0.0
  0
SPLINE
  5
38E
100
AcDbEntity
  8
0
100
AcDbSpline
 62
4
  6
CONTINUOUS
 70
0
 71
3
 72
403
 73
399
 74
0
 42
0.0000001
 43
0.0000001
 44
0.0000000001
 40
0.0
 40
0.0
 40
0.0
 40
0.0
 40
0.015625
 40
0.0234375
 40
0.03125
 40
0.0390625
 40
0.04296875
 40
0.046875
 40
0.05078125
 40
0.0546875
 40
0.056640625
 40
0.05859375
 40
0.0595703125
 40
0.060546875
 40
0.0615234375
 40
0.0620117188
 40
0.0622558594
 40
0.0625
 40
0.0627441406
 40
0.0629882812
 40
0.0634765625
 40
0.064453125
 40
0.0654296875
 40
0.06640625
 40
0.068359375
 40
0.0703125
 40
0.07421875
 40
0.078125
 40
0.08203125
 40
0.0859375
 40
0.09375
 40
0.1015625
 40
0.10546875
 40
0.109375
 40
0.11328125
 40
0.1171875
 40
0.119140625
 40
0.12109375
 40
0.1220703125
 40
0.123046875
 40
0.1240234375
 40
0.1245117188
 40
0.1247558594
 40
0.125
 40
0.1252441406
 40
0.1254882812
 40
0.1259765625
 40
0.126953125
 40
0.1279296875
 40
0.12890625
 40
0.130859375
 40
0.1328125
 40
0.13671875
 40
0.140625
 40
0.14453125
 40
0.1484375
 40
0.15625
 40
0.1640625
 40
0.16796875
 40
0.171875
 40
0.17578125
 40
0.1796875
 40
0.181640625
 40
0.18359375
 40
0.1845703125
 40
0.185546875
 40
0.1865234375
 40
0.1870117188
 40
0.1872558594
 40
0.1875
 40
0.1877441406
 40
0.1879882812
 40
0.1884765625
 40
0.189453125
 40
0.1904296875
 40
0.19140625
 40
0.193359375
 40
0.1953125
 40
0.19921875
 40
0.203125
 40
0.20703125
 40
0.2109375
 40
0.21875
 40
0.2265625
 40
0.23046875
 40
0.234375
 40
0.23828125
 40
0.2421875
 40
0.244140625
 40
0.24609375
 40
0.2470703125
 40
0.248046875
 40
0.2490234375
 40
0.2495117188
 40
0.2497558594
 40
0.25
 40
0.2502441406
 40
0.2504882812
 40
0.2509765625
 40
0.251953125
 40
0.2529296875
 40
0.25390625
 40
0.255859375
 40
0.2578125
 40
0.26171875
 40
0.265625
 40
0.26953125
 40
0.2734375
 40
0.28125
 40
0.2890625
 40
0.29296875
 40
0.296875
 40
0.30078125
 40
0.3046875
 40
0.306640625
 40
0.30859375
 40
0.3095703125
 40
0.310546875
 40
0.3115234375
 40
0.3120117188
 40
0.3122558594
 40
0.3125
 40
0.3127441406
 40
0.3129882812
 40
0.3134765625
 40
0.314453125
 40
0.3154296875
 40
0.31640625
 40
0.318359375
 40
0.3203125
 40
0.32421875
 40
0.328125
 40
0.33203125
 40
0.3359375
 40
0.34375
 40
0.3515625
 40
0.35546875
 40
0.359375
 40
0.36328125
 40
0.3671875
 40
0.369140625
 40
0.37109375
 40
0.3720703125
 40
0.373046875
 40
0.3740234375
 40
0.3745117188
 40
0.3747558594
 40
0.375
 40
0.3752441406
 40
0.3754882812
 40
0.3759765625
 40
0.376953125
 40
0.3779296875
 40
0.37890625
 40
0.380859375
 40
0.3828125
 40
0.38671875
 40
0.390625
 40
0.39453125
 40
0.3984375
 40
0.40625
 40
0.4140625
 40
0.41796875
 40
0.421875
 40
0.42578125
 40
0.4296875
 40
0.431640625
 40
0.43359375
 40
0.4345703125
 40
0.435546875
 40
0.4365234375
 40
0.4370117188
 40
0.4372558594
 40
0.4375
 40
0.4377441406
 40
0.4379882812
 40
0.4384765625
 40
0.439453125
 40
0.4404296875
 40
0.44140625
 40
0.443359375
 40
0.4453125
 40
0.44921875
 40
0.453125
 40
0.45703125
 40
0.4609375
 40
0.46875
 40
0.4765625
 40
0.48046875
 40
0.484375
 40
0.48828125
 40
0.4921875
 40
0.494140625
 40
0.49609375
 40
0.4970703125
 40
0.498046875
 40
0.4990234375
 40
0.4995117188
 40
0.4997558594
 40
0.5
 40
0.5002441406
 40
0.5004882812
 40
0.5009765625
 40
0.501953125
 40
0.5029296875
 40
0.50390625
 40
0.505859375
 40
0.5078125
 40
0.51171875
 40
0.515625
 40
0.51953125
 40
0.5234375
 40
0.53125
 40
0.5390625
 40
0.54296875
 40
0.546875
 40
0.55078125
 40
0.5546875
 40
0.556640625
 40
0.55859375
 40
0.5595703125
 40
0.560546875
 40
0.5615234375
 40
0.5620117188
 40
0.5622558594
 40
0.5625
 40
0.5627441406
 40
0.5629882812
 40
0.5634765625
 40
0.564453125
 40
0.5654296875
 40
0.56640625
 40
0.568359375
 40
0.5703125
 40
0.57421875
 40
0.578125
 40
0.58203125
 40
0.5859375
 40
0.59375
 40
0.6015625
 40
0.60546875
 40
0.609375
 40
0.61328125
 40
0.6171875
 40
0.619140625
 40
0.62109375
 40
0.6220703125
 40
0.623046875
 40
0.6240234375
 40
0.6245117188
 40
0.6247558594
 40
0.625
 40
0.6252441406
 40
0.6254882812
 40
0.6259765625
 40
0.626953125
 40
0.6279296875
 40
0.62890625
 40
0.630859375
 40
0.6328125
 40
0.63671875
 40
0.640625
 40
0.64453125
 40
0.6484375
 40
0.65625
 40
0.6640625
 40
0.66796875
 40
0.671875
 40
0.67578125
 40
0.6796875
 40
0.681640625
 40
0.68359375
 40
0.6845703125
 40
0.685546875
 40
0.6865234375
 40
0.6870117188
 40
0.6872558594
 40
0.6875
 40
0.6877441406
 40
0.6879882812
 40
0.6884765625
 40
0.689453125
 40
0.6904296875
 40
0.69140625
 40
0.693359375
 40
0.6953125
 40
0.69921875
 40
0.703125
 40
0.70703125
 40
0.7109375
 40
0.71875
 40
0.7265625
 40
0.73046875
 40
0.734375
 40
0.73828125
 40
0.7421875
 40
0.744140625
 40
0.74609375
 40
0.7470703125
 40
0.748046875
 40
0.7490234375
 40
0.7495117188
 40
0.7497558594
 40
0.75
 40
0.7502441406
 40
0.7504882812
 40
0.7509765625
 40
0.751953125
 40
0.7529296875
 40
0.75390625
 40
0.755859375
 40
0.7578125
 40
0.76171875
 40
0.765625
 40
0.76953125
 40
0.7734375
 40
0.78125
 40
0.7890625
 40
0.79296875
 40
0.796875
 40
0.80078125
 40
0.8046875
 40
0.806640625
 40
0.80859375
 40
0.8095703125
 40
0.810546875
 40
0.8115234375
 40
0.8120117188
 40
0.8122558594
 40
0.8125
 40
0.8127441406
 40
0.8129882812
 40
0.8134765625
 40
0.814453125
 40
0.8154296875
 40
0.81640625
 40
0.818359375
 40
0.8203125
 40
0.82421875
 40
0.828125
 40
0.83203125
 40
0.8359375
 40
0.84375
 40
0.8515625
 40
0.85546875
 40
0.859375
 40
0.86328125
 40
0.8671875
 40
0.869140625
 40
0.87109375
 40
0.8720703125
 40
0.873046875
 40
0.8740234375
 40
0.8745117188
 40
0.8747558594
 40
0.875
 40
0.8752441406
 40
0.8754882812
 40
0.8759765625
 40
0.876953125
 40
0.8779296875
 40
0.87890625
 40
0.880859375
 40
0.8828125
 40
0.88671875
 40
0.890625
 40
0.89453125
 40
0.8984375
 40
0.90625
 40
0.9140625
 40
0.91796875
 40
0.921875
 40
0.92578125
 40
0.9296875
 40
0.931640625
 40
0.93359375
 40
0.9345703125
 40
0.935546875
 40
0.9365234375
 40
0.9370117188
 40
0.9372558594
 40
0.9375
 40
0.9377441406
 40
0.9379882812
 40
0.9384765625
 40
0.939453125
 40
0.9404296875
 40
0.94140625
 40
0.943359375
 40
0.9453125
 40
0.94921875
 40
0.953125
 40
0.95703125
 40
0.9609375
 40
0.96875
 40
0.9765625
 40
0.984375
 40
1.0
 40
1.0
 40
1.0
 40
1.0
 10
10.4128444807
 20
9.1037668687
 30
0.0
 10
10.4097112938
 20
9.1036769443
 30
0.0
 10
10.4050115134
 20
9.1035420577
 30
0.0
 10
10.3987451396
 20
9.1033622089
 30
0.0
 10
10.3940453592
 20
9.1032273222
 30
0.0
 10
10.3901288755
 20
9.1031149168
 30
0.0
 10
10.3869956887
 20
9.1030249921
 30
0.0
 10
10.3846457983
 20
9.1029575498
 30
0.0
 10
10.3822959088
 20
9.1028901027
 30
0.0
 10
10.3803376647
 20
9.1028339116
 30
0.0
 10
10.3787710759
 20
9.1027889257
 30
0.0
 10
10.3777919432
 20
9.1027608846
 30
0.0
 10
10.3770086707
 20
9.1027382798
 30
0.0
 10
10.3764211243
 20
9.102721797
 30
0.0
 10
10.3759317949
 20
9.1027065634
 30
0.0
 10
10.3755886901
 20
9.1026988396
 30
0.0
 10
10.3753935268
 20
9.1026898359
 30
0.0
 10
10.3752446287
 20
9.1026960134
 30
0.0
 10
10.3751053847
 20
9.102652765
 30
0.0
 10
10.3749163585
 20
9.1026123407
 30
0.0
 10
10.3745871317
 20
9.1025335657
 30
0.0
 10
10.3741159874
 20
9.1024252294
 30
0.0
 10
10.3735509653
 20
9.1022934284
 30
0.0
 10
10.37279748
 20
9.1021183215
 30
0.0
 10
10.3718556652
 20
9.1018992229
 30
0.0
 10
10.3703487382
 20
9.1015487853
 30
0.0
 10
10.3684650875
 20
9.1011106971
 30
0.0
 10
10.3662047031
 20
9.1005850089
 30
0.0
 10
10.3639443197
 20
9.100059316
 30
0.0
 10
10.3609304749
 20
9.0993583938
 30
0.0
 10
10.3571631689
 20
9.0984822404
 30
0.0
 10
10.3533958628
 20
9.0976060874
 30
0.0
 10
10.3503820182
 20
9.0969051646
 30
0.0
 10
10.3481216342
 20
9.0963794736
 30
0.0
 10
10.345861252
 20
9.0958537781
 30
0.0
 10
10.3439775946
 20
9.0954157126
 30
0.0
 10
10.3424706812
 20
9.0950652287
 30
0.0
 10
10.3415288316
 20
9.0948462481
 30
0.0
 10
10.3407754179
 20
9.0946708991
 30
0.0
 10
10.3402101771
 20
9.0945398377
 30
0.0
 10
10.3397397171
 20
9.0944291873
 30
0.0
 10
10.3394092686
 20
9.0943545433
 30
0.0
 10
10.3392221999
 20
9.0943075001
 30
0.0
 10
10.3390769434
 20
9.0942845829
 30
0.0
 10
10.3389506272
 20
9.0942143995
 30
0.0
 10
10.338775599
 20
9.0941373086
 30
0.0
 10
10.3384723778
 20
9.093994718
 30
0.0
 10
10.3380375954
 20
9.0937950332
 30
0.0
 10
10.3375165454
 20
9.0935536924
 30
0.0
 10
10.3368215714
 20
9.093232505
 30
0.0
 10
10.3359529363
 20
9.0928308152
 30
0.0
 10
10.3345630741
 20
9.0921882265
 30
0.0
 10
10.3328257621
 20
9.0913849512
 30
0.0
 10
10.330740981
 20
9.0904210377
 30
0.0
 10
10.3286562016
 20
9.0894571197
 30
0.0
 10
10.3258764952
 20
9.0881718972
 30
0.0
 10
10.3224018625
 20
9.0865653686
 30
0.0
 10
10.3189272295
 20
9.0849588403
 30
0.0
 10
10.3161475234
 20
9.0836736173
 30
0.0
 10
10.3140627432
 20
9.0827097011
 30
0.0
 10
10.3119779654
 20
9.0817457806
 30
0.0
 10
10.3102406432
 20
9.0809425272
 30
0.0
 10
10.3088508017
 20
9.0802998936
 30
0.0
 10
10.3079821139
 20
9.079898318
 30
0.0
 10
10.3072872481
 20
9.0795768964
 30
0.0
 10
10.3067658675
 20
9.0793362713
 30
0.0
 10
10.3063321194
 20
9.0791343472
 30
0.0
 10
10.3060270518
 20
9.078995754
 30
0.0
 10
10.3058549821
 20
9.0789122583
 30
0.0
 10
10.3057195783
 20
9.0788617484
 30
0.0
 10
10.3056084533
 20
9.0787649409
 30
0.0
 10
10.3054518179
 20
9.0786520133
 30
0.0
 10
10.3051816517
 20
9.0784468658
 30
0.0
 10
10.3047936372
 20
9.0781577318
 30
0.0
 10
10.3043289027
 20
9.0778090872
 30
0.0
 10
10.3037089482
 20
9.0773448158
 30
0.0
 10
10.3029341108
 20
9.0767642752
 30
0.0
 10
10.3016943119
 20
9.0758355228
 30
0.0
 10
10.3001445835
 20
9.0746745437
 30
0.0
 10
10.2982849008
 20
9.0732813853
 30
0.0
 10
10.2964252203
 20
9.0718882225
 30
0.0
 10
10.2939456456
 20
9.0700306737
 30
0.0
 10
10.2908461776
 20
9.067708737
 30
0.0
 10
10.2877467092
 20
9.0653868007
 30
0.0
 10
10.2852671349
 20
9.0635292513
 30
0.0
 10
10.2834074532
 20
9.0621360901
 30
0.0
 10
10.2815477753
 20
9.0607429256
 30
0.0
 10
10.279998032
 20
9.0595819656
 30
0.0
 10
10.2787582634
 20
9.0586531741
 30
0.0
 10
10.2779833489
 20
9.0580727331
 30
0.0
 10
10.2773635527
 20
9.0576082574
 30
0.0
 10
10.2768983347
 20
9.057260237
 30
0.0
 10
10.2765118329
 20
9.0569691497
 30
0.0
 10
10.276238966
 20
9.0567674892
 30
0.0
 10
10.2760866579
 20
9.0566489747
 30
0.0
 10
10.2759622411
 20
9.0565693284
 30
0.0
 10
10.2758767591
 20
9.0564543639
 30
0.0
 10
10.2757492022
 20
9.0563133972
 30
0.0
 10
10.2755323053
 20
9.0560609658
 30
0.0
 10
10.2752191444
 20
9.0557033503
 30
0.0
 10
10.2748447673
 20
9.0552729272
 30
0.0
 10
10.2743451032
 20
9.0546994784
 30
0.0
 10
10.2737206925
 20
9.0539825138
 30
0.0
 10
10.2727215407
 20
9.0528354562
 30
0.0
 10
10.2714726334
 20
9.0514016048
 30
0.0
 10
10.2699739308
 20
9.0496809958
 30
0.0
 10
10.2684752319
 20
9.0479603834
 30
0.0
 10
10.2664769653
 20
9.0456662347
 30
0.0
 10
10.2639791327
 20
9.0427985484
 30
0.0
 10
10.2614812997
 20
9.0399308624
 30
0.0
 10
10.2594830337
 20
9.0376367132
 30
0.0
 10
10.2579843332
 20
9.0359161021
 30
0.0
 10
10.2564856366
 20
9.0341954881
 30
0.0
 10
10.2552367104
 20
9.0327616522
 30
0.0
 10
10.2542375971
 20
9.0316145631
 30
0.0
 10
10.2536130885
 20
9.0308976788
 30
0.0
 10
10.2531136254
 20
9.0303240652
 30
0.0
 10
10.2527386345
 20
9.0298941457
 30
0.0
 10
10.2524273939
 20
9.0295349546
 30
0.0
 10
10.2522070689
 20
9.0292853357
 30
0.0
 10
10.2520850046
 20
9.0291398626
 30
0.0
 10
10.2519826513
 20
9.0290387405
 30
0.0
 10
10.2519216004
 20
9.0289071045
 30
0.0
 10
10.2518257925
 20
9.0287422334
 30
0.0
 10
10.2516648409
 20
9.0284487499
 30
0.0
 10
10.2514314009
 20
9.0280320804
 30
0.0
 10
10.251152775
 20
9.0275309672
 30
0.0
 10
10.250780749
 20
9.026863204
 30
0.0
 10
10.2503158963
 20
9.0260283673
 30
0.0
 10
10.2495720315
 20
9.0246927026
 30
0.0
 10
10.2486422349
 20
9.0230230964
 30
0.0
 10
10.2475264643
 20
9.0210195798
 30
0.0
 10
10.2464106976
 20
9.0190160603
 30
0.0
 10
10.2449230073
 20
9.016344702
 30
0.0
 10
10.2430633949
 20
9.0130055037
 30
0.0
 10
10.2412037822
 20
9.0096663057
 30
0.0
 10
10.2397160925
 20
9.006994947
 30
0.0
 10
10.2386003241
 20
9.0049914286
 30
0.0
 10
10.23748456
 20
9.002987908
 30
0.0
 10
10.236554743
 20
9.0013183142
 30
0.0
 10
10.2358109199
 20
8.9999826242
 30
0.0
 10
10.2353459608
 20
8.9991478519
 30
0.0
 10
10.2349741532
 20
8.9984799565
 30
0.0
 10
10.2346948603
 20
8.9979792472
 30
0.0
 10
10.234463507
 20
8.9975613141
 30
0.0
 10
10.2342988304
 20
8.9972700863
 30
0.0
 10
10.2342089909
 20
8.997101601
 30
0.0
 10
10.234129607
 20
8.9969810665
 30
0.0
 10
10.2340961094
 20
8.9968382491
 30
0.0
 10
10.2340354403
 20
8.9966555984
 30
0.0
 10
10.2339367267
 20
8.9963323383
 30
0.0
 10
10.2337918085
 20
8.9958724314
 30
0.0
 10
10.2336195755
 20
8.9953197328
 30
0.0
 10
10.2333893486
 20
8.9945830844
 30
0.0
 10
10.2331017645
 20
8.9936621769
 30
0.0
 10
10.2326415185
 20
8.9921887791
 30
0.0
 10
10.2320662492
 20
8.9903470134
 30
0.0
 10
10.2313759096
 20
8.9881369024
 30
0.0
 10
10.2306855744
 20
8.9859267893
 30
0.0
 10
10.229765126
 20
8.9829799725
 30
0.0
 10
10.228614566
 20
8.9792964513
 30
0.0
 10
10.2274640056
 20
8.9756129303
 30
0.0
 10
10.2265435578
 20
8.9726661133
 30
0.0
 10
10.2258532208
 20
8.970456001
 30
0.0
 10
10.2251628883
 20
8.968245887
 30
0.0
 10
10.2245875968
 20
8.9664041306
 30
0.0
 10
10.2241273961
 20
8.9649307136
 30
0.0
 10
10.2238396966
 20
8.964009855
 30
0.0
 10
10.2236097066
 20
8.9632731063
 30
0.0
 10
10.2234367499
 20
8.962720714
 30
0.0
 10
10.2232940958
 20
8.9622598489
 30
0.0
 10
10.2231913405
 20
8.9619382995
 30
0.0
 10
10.2231371472
 20
8.9617529078
 30
0.0
 10
10.2230837581
 20
8.9616185096
 30
0.0
 10
10.2230790834
 20
8.961466354
 30
0.0
 10
10.2230558584
 20
8.9612696737
 30
0.0
 10
10.2230231317
 20
8.9609225974
 30
0.0
 10
10.22297224
 20
8.9604282829
 30
0.0
 10
10.2229129417
 20
8.9598344597
 30
0.0
 10
10.2228332585
 20
8.959042921
 30
0.0
 10
10.2227338664
 20
8.9580534204
 30
0.0
 10
10.2225747206
 20
8.9564702626
 30
0.0
 10
10.222375829
 20
8.9544913005
 30
0.0
 10
10.2221371416
 20
8.9521165523
 30
0.0
 10
10.2218984589
 20
8.9497418025
 30
0.0
 10
10.2215802136
 20
8.9465754699
 30
0.0
 10
10.2211824076
 20
8.942617554
 30
0.0
 10
10.2207846013
 20
8.9386596382
 30
0.0
 10
10.2204663567
 20
8.9354933056
 30
0.0
 10
10.220227672
 20
8.933118556
 30
0.0
 10
10.2199889921
 20
8.9307438066
 30
0.0
 10
10.2197900771
 20
8.9287648485
 30
0.0
 10
10.2196309789
 20
8.9271816826
 30
0.0
 10
10.2195314656
 20
8.9261922025
 30
0.0
 10
10.2194520311
 20
8.9254006217
 30
0.0
 10
10.2193919732
 20
8.924806927
 30
0.0
 10
10.2193434583
 20
8.9243122105
 30
0.0
 10
10.2193064886
 20
8.9239658519
 30
0.0
 10
10.2192900618
 20
8.9237680217
 30
0.0
 10
10.2192645054
 20
8.9236193984
 30
0.0
 10
10.2192895446
 20
8.923471733
 30
0.0
 10
10.2193052818
 20
8.9232745117
 30
0.0
 10
10.2193410447
 20
8.92292953
 30
0.0
 10
10.2193878357
 20
8.9224366177
 30
0.0
 10
10.2194458249
 20
8.9218451578
 30
0.0
 10
10.2195225011
 20
8.9210565323
 30
0.0
 10
10.2196185665
 20
8.9200707547
 30
0.0
 10
10.2197721481
 20
8.9184935082
 30
0.0
 10
10.2199641672
 20
8.9165219509
 30
0.0
 10
10.2201945722
 20
8.9141560817
 30
0.0
 10
10.2204249819
 20
8.9117902126
 30
0.0
 10
10.2207321933
 20
8.9086357205
 30
0.0
 10
10.221116208
 20
8.9046926054
 30
0.0
 10
10.2215002224
 20
8.9007494902
 30
0.0
 10
10.2218074344
 20
8.8975949981
 30
0.0
 10
10.2220378422
 20
8.8952291289
 30
0.0
 10
10.2222682546
 20
8.8928632603
 30
0.0
 10
10.2224602504
 20
8.8908917012
 30
0.0
 10
10.2226138796
 20
8.8893144582
 30
0.0
 10
10.2227098238
 20
8.8883286717
 30
0.0
 10
10.2227867488
 20
8.8875400644
 30
0.0
 10
10.222843978
 20
8.8869485492
 30
0.0
 10
10.2228931467
 20
8.8864558099
 30
0.0
 10
10.222924665
 20
8.8861105193
 30
0.0
 10
10.2229472032
 20
8.885913793
 30
0.0
 10
10.2229513519
 20
8.8857646072
 30
0.0
 10
10.2230042569
 20
8.8856216942
 30
0.0
 10
10.2230577902
 20
8.8854289555
 30
0.0
 10
10.2231593972
 20
8.8850926822
 30
0.0
 10
10.2233004074
 20
8.8846117588
 30
0.0
 10
10.2234713929
 20
8.8840348788
 30
0.0
 10
10.2236987542
 20
8.8832656259
 30
0.0
 10
10.2239831678
 20
8.882304087
 30
0.0
 10
10.2244381112
 20
8.8807656096
 30
0.0
 10
10.225006831
 20
8.878842518
 30
0.0
 10
10.2256892773
 20
8.8765348058
 30
0.0
 10
10.2263717284
 20
8.8742270943
 30
0.0
 10
10.2272816614
 20
8.8711501454
 30
0.0
 10
10.2284190784
 20
8.8673039593
 30
0.0
 10
10.2295564949
 20
8.8634577731
 30
0.0
 10
10.2304664286
 20
8.8603808243
 30
0.0
 10
10.2311488777
 20
8.8580731123
 30
0.0
 10
10.2318313313
 20
8.8557654018
 30
0.0
 10
10.2324000288
 20
8.8538423051
 30
0.0
 10
10.2328550176
 20
8.8523038382
 30
0.0
 10
10.2331393157
 20
8.8513422724
 30
0.0
 10
10.2333669141
 20
8.8505730746
 30
0.0
 10
10.2335371751
 20
8.8499960262
 30
0.0
 10
10.233680452
 20
8.84951563
 30
0.0
 10
10.2337780127
 20
8.8491784156
 30
0.0
 10
10.2338380291
 20
8.8489871847
 30
0.0
 10
10.2338710199
 20
8.8488396403
 30
0.0
 10
10.2339499633
 20
8.8487078494
 30
0.0
 10
10.2340391924
 20
8.8485266331
 30
0.0
 10
10.2342028115
 20
8.8482120649
 30
0.0
 10
10.2344326486
 20
8.8477613433
 30
0.0
 10
10.2347101244
 20
8.8472210502
 30
0.0
 10
10.2350795084
 20
8.8465004594
 30
0.0
 10
10.2355414382
 20
8.8455997893
 30
0.0
 10
10.2362804142
 20
8.8441586789
 30
0.0
 10
10.2372041725
 20
8.8423573041
 30
0.0
 10
10.2383126661
 20
8.8401956487
 30
0.0
 10
10.239421164
 20
8.8380339948
 30
0.0
 10
10.2408991598
 20
8.835151789
 30
0.0
 10
10.242746655
 20
8.831549032
 30
0.0
 10
10.2445941499
 20
8.8279462749
 30
0.0
 10
10.2460721462
 20
8.8250640694
 30
0.0
 10
10.2471806423
 20
8.8229024147
 30
0.0
 10
10.2482891427
 20
8.8207407621
 30
0.0
 10
10.2492128798
 20
8.8189393786
 30
0.0
 10
10.2499518992
 20
8.8174982859
 30
0.0
 10
10.2504137185
 20
8.8165975708
 30
0.0
 10
10.2507833292
 20
8.8158770724
 30
0.0
 10
10.2510601122
 20
8.8153364968
 30
0.0
 10
10.2512921168
 20
8.8148866592
 30
0.0
 10
10.2514518666
 20
8.8145705129
 30
0.0
 10
10.2515472953
 20
8.8143918252
 30
0.0
 10
10.2516071955
 20
8.8142522673
 30
0.0
 10
10.2517117096
 20
8.8141338942
 30
0.0
 10
10.2518354999
 20
8.813968674
 30
0.0
 10
10.2520593834
 20
8.8136829814
 30
0.0
 10
10.2523754264
 20
8.8132730492
 30
0.0
 10
10.2527563004
 20
8.8127819009
 30
0.0
 10
10.2532635658
 20
8.8121267675
 30
0.0
 10
10.2538978415
 20
8.8113079429
 30
0.0
 10
10.2549125743
 20
8.8099977721
 30
0.0
 10
10.2561810274
 20
8.8083600762
 30
0.0
 10
10.2577031552
 20
8.8063948335
 30
0.0
 10
10.2592252873
 20
8.8044295929
 30
0.0
 10
10.2612547953
 20
8.8018092713
 30
0.0
 10
10.2637916808
 20
8.7985338696
 30
0.0
 10
10.2663285659
 20
8.7952584677
 30
0.0
 10
10.2683580744
 20
8.7926381465
 30
0.0
 10
10.2698802049
 20
8.7906729047
 30
0.0
 10
10.2714023386
 20
8.7887076664
 30
0.0
 10
10.2726707736
 20
8.7870699569
 30
0.0
 10
10.2736855433
 20
8.7857598138
 30
0.0
 10
10.2743197249
 20
8.7849409186
 30
0.0
 10
10.2748271836
 20
8.78428593
 30
0.0
 10
10.2752074669
 20
8.7837943393
 30
0.0
 10
10.2755253582
 20
8.7833857917
 30
0.0
 10
10.2757459421
 20
8.7830976273
 30
0.0
 10
10.2758750192
 20
8.7829363676
 30
0.0
 10
10.2759632939
 20
8.7828058289
 30
0.0
 10
10.2760841866
 20
8.782711963
 30
0.0
 10
10.2762339993
 20
8.7825740165
 30
0.0
 10
10.2765014726
 20
8.7823385703
 30
0.0
 10
10.2768808059
 20
8.7819991025
 30
0.0
 10
10.2773371922
 20
8.7815930749
 30
0.0
 10
10.2779452928
 20
8.7810512389
 30
0.0
 10
10.2787055604
 20
8.7803741035
 30
0.0
 10
10.2799219094
 20
8.7792905976
 30
0.0
 10
10.2814423728
 20
8.7779362458
 30
0.0
 10
10.2832669172
 20
8.7763110106
 30
0.0
 10
10.2850914647
 20
8.7746857789
 30
0.0
 10
10.2875241937
 20
8.772518802
 30
0.0
 10
10.2905651053
 20
8.7698100814
 30
0.0
 10
10.2936060166
 20
8.7671013605
 30
0.0
 10
10.2960387459
 20
8.7649343842
 30
0.0
 10
10.2978632923
 20
8.7633091509
 30
0.0
 10
10.2996878412
 20
8.7616839214
 30
0.0
 10
10.3012082905
 20
8.7603295518
 30
0.0
 10
10.3024246683
 20
8.7592460824
 30
0.0
 10
10.3031848624
 20
8.7585688542
 30
0.0
 10
10.303793114
 20
8.7580272086
 30
0.0
 10
10.3042490392
 20
8.7576205992
 30
0.0
 10
10.3046298148
 20
8.7572829517
 30
0.0
 10
10.3048947133
 20
8.757044256
 30
0.0
 10
10.3050486516
 20
8.756911516
 30
0.0
 10
10.3051568719
 20
8.7568016576
 30
0.0
 10
10.3052927419
 20
8.7567311841
 30
0.0
 10
10.3054642573
 20
8.7566234815
 30
0.0
 10
10.3057689028
 20
8.7564414028
 30
0.0
 10
10.3062017614
 20
8.7561779439
 30
0.0
 10
10.3067221973
 20
8.7558632256
 30
0.0
 10
10.3074157606
 20
8.7554431009
 30
0.0
 10
10.308282835
 20
8.7549181163
 30
0.0
 10
10.3096700869
 20
8.7540780453
 30
0.0
 10
10.3114041747
 20
8.7530279893
 30
0.0
 10
10.3134850703
 20
8.7517679081
 30
0.0
 10
10.3155659685
 20
8.7505078306
 30
0.0
 10
10.3183404984
 20
8.748827726
 30
0.0
 10
10.3218086613
 20
8.7467275957
 30
0.0
 10
10.3252768239
 20
8.7446274651
 30
0.0
 10
10.3280513542
 20
8.7429473611
 30
0.0
 10
10.3301322514
 20
8.7416872819
 30
0.0
 10
10.3322131505
 20
8.740427207
 30
0.0
 10
10.3339472274
 20
8.7393771313
 30
0.0
 10
10.3353345016
 20
8.7385371005
 30
0.0
 10
10.336201519
 20
8.7380120136
 30
0.0
 10
10.3368951994
 20
8.737592099
 30
0.0
 10
10.3374152777
 20
8.7372767386
 30
0.0
 10
10.3378492551
 20
8.7370152888
 30
0.0
 10
10.3381519033
 20
8.7368296235
 30
0.0
 10
10.338326619
 20
8.7367276674
 30
0.0
 10
10.3384526588
 20
8.7366395426
 30
0.0
 10
10.3385977993
 20
8.7365959795
 30
0.0
 10
10.3387846574
 20
8.7365223518
 30
0.0
 10
10.3391147633
 20
8.7364007453
 30
0.0
 10
10.3395847203
 20
8.7362232355
 30
0.0
 10
10.3401493633
 20
8.7360118443
 30
0.0
 10
10.340901978
 20
8.7357294234
 30
0.0
 10
10.3418428295
 20
8.735376591
 30
0.0
 10
10.3433481454
 20
8.7348119509
 30
0.0
 10
10.3452298063
 20
8.734106188
 30
0.0
 10
10.3474877925
 20
8.7332592566
 30
0.0
 10
10.3497457805
 20
8.7324123294
 30
0.0
 10
10.3527564306
 20
8.7312830917
 30
0.0
 10
10.3565197434
 20
8.7298715451
 30
0.0
 10
10.360283056
 20
8.7284599981
 30
0.0
 10
10.3632937063
 20
8.727330761
 30
0.0
 10
10.3655516936
 20
8.726483832
 30
0.0
 10
10.3678096824
 20
8.7256369075
 30
0.0
 10
10.3696913353
 20
8.7249311229
 30
0.0
 10
10.3711966673
 20
8.724366527
 30
0.0
 10
10.372137478
 20
8.7240135821
 30
0.0
 10
10.3728901765
 20
8.7237313922
 30
0.0
 10
10.3734545634
 20
8.7235192952
 30
0.0
 10
10.3739253217
 20
8.7233439939
 30
0.0
 10
10.3742539972
 20
8.7232184449
 30
0.0
 10
10.3744431471
 20
8.723151134
 30
0.0
 10
10.3745812479
 20
8.7230881675
 30
0.0
 10
10.3747337278
 20
8.7230729184
 30
0.0
 10
10.3749320188
 20
8.7230359419
 30
0.0
 10
10.3752813648
 20
8.7229789879
 30
0.0
 10
10.3757792089
 20
8.7228935706
 30
0.0
 10
10.3763771447
 20
8.7227928053
 30
0.0
 10
10.3771742098
 20
8.7226578455
 30
0.0
 10
10.3781706038
 20
8.7224893532
 30
0.0
 10
10.3797647991
 20
8.7222196496
 30
0.0
 10
10.3817575552
 20
8.7218825598
 30
0.0
 10
10.3841488575
 20
8.7214780351
 30
0.0
 10
10.3865401611
 20
8.7210735149
 30
0.0
 10
10.3897285654
 20
8.720534153
 30
0.0
 10
10.393714071
 20
8.7198599513
 30
0.0
 10
10.3984966777
 20
8.7190509089
 30
0.0
 10
10.4048734865
 20
8.7179721859
 30
0.0
 10
10.4096560932
 20
8.7171631436
 30
0.0
 10
10.4128444976
 20
8.7166237821
 30
0.0
  0
ENDSEC
  0
SECTION
  2
OBJECTS
  0
DICTIONARY
  5
C
100
AcDbDictionary
280
0
281
1
  3
ACAD_GROUP
350
D
  3
ACAD_MLINESTYLE
350
17
  3
ACAD_LAYOUT
350
1A
  3
ACAD_PLOTSETTINGS
350
19
  3
ACAD_PLOTSTYLENAME
350
E
  3
ACAD_IMAGE_DICT
350
       390
  3
ACAD_IMAGE_VARS
350
       391
  3
ACAD_TABLESTYLE
350
       392
  0
IMAGEDEF_REACTOR
  5
38F
100
AcDbRasterImageDefReactor
 90
2
330
28F
  0
DICTIONARY
  5
D
102
{ACAD_REACTORS
330
C
102
}
100
AcDbDictionary
280
0
281
1
  0
ACDBDICTIONARYWDFLT
  5
E
102
{ACAD_REACTORS
330
C
102
}
100
AcDbDictionary
281
1
  3
Normal
350
F
100
AcDbDictionaryWithDefault
340
F
  0
DICTIONARY
  5
390
330
C
100
AcDbDictionary
281
1
  3
E2V_assy_2_img_1
350
       395
  0
RASTERVARIABLES
  5
391
330
C
100
AcDbRasterVariables
 90
0
 70
0
 71
1
 72
5
  0
DICTIONARY
  5
17
102
{ACAD_REACTORS
330
C
102
}
100
AcDbDictionary
280
0
281
1
  3
Standard
350
18
  0
DICTIONARY
  5
392
330
C
100
AcDbDictionary
281
1
  3
Standard
350
       396
  3
Standard1
350
       397
  0
DICTIONARY
  5
19
102
{ACAD_REACTORS
330
C
102
}
100
AcDbDictionary
281
1
  0
DICTIONARY
  5
1A
102
{ACAD_REACTORS
330
C
102
}
100
AcDbDictionary
281
1
  3
Model
350
393
  3
Layout1
350
394
  0
ACDBPLACEHOLDER
  5
F
102
{ACAD_REACTORS
330
E
102
}
  0
MLINESTYLE
  5
18
102
{ACAD_REACTORS
330
17
102
}
100
AcDbMlineStyle
  2
STANDARD
 70
0
  3

 62
256
 51
90.0
 52
90.0
 71
2
 49
0.5
 62
256
  6
BYLAYER
 49
-0.5
 62
256
  6
BYLAYER
  0
LAYOUT
  5
393
102
{ACAD_REACTORS
330
1A
102
}
100
AcDbPlotSettings
  1

  2
none_device
  4
ANSI_C_(22.00_x_17.00_Inches)
  6

 40
0.0
 41
0.0
 42
0.0
 43
0.0
 44
558.8
 45
431.8
 46
0.0
 47
0.0
 48
0.0
 49
0.0
140
0.0
141
0.0
142
1.0
143
1.0
 70
1024
 72
0
 73
0
 74
0
  7

 75
0
147
1.0
148
0.0
149
0.0
100
AcDbLayout
  1
Model
 70
0
 71
0
 10
0.0
 20
0.0
 11
22.0
 21
17.0
 12
0.0
 22
0.0
 32
0.0
 14
0.0
 24
0.0
 34
0.0
 15
0.0
 25
0.0
 35
0.0
146
0.0
 13
0.0
 23
0.0
 33
0.0
 16
1.0
 26
0.0
 36
0.0
 17
0.0
 27
1.0
 37
0.0
 76
0
330
20C
345
0
346
0
  0
LAYOUT
  5
394
102
{ACAD_REACTORS
330
1A
102
}
100
AcDbPlotSettings
  1

  2
none_device
  4
ANSI_C_(22.00_x_17.00_Inches)
  6

 40
0.0
 41
0.0
 42
0.0
 43
0.0
 44
558.8
 45
431.8
 46
0.0
 47
0.0
 48
0.0
 49
0.0
140
0.0
141
0.0
142
1.0
143
1.0
 70
0
 72
0
 73
0
 74
0
  7

 75
0
147
1.0
148
0.0
149
0.0
100
AcDbLayout
  1
Layout1
 70
0
 71
1
 10
0.0
 20
0.0
 11
22.0
 21
17.0
 12
0.0
 22
0.0
 32
0.0
 14
0.0
 24
0.0
 34
0.0
 15
0.0
 25
0.0
 35
0.0
146
0.0
 13
0.0
 23
0.0
 33
0.0
 16
1.0
 26
0.0
 36
0.0
 17
0.0
 27
1.0
 37
0.0
 76
0
330
20D
345
0
346
0
  0
IMAGEDEF
  5
395
102
{ACAD_REACTORS
330
390
330
38F
102
}
100
AcDbRasterImageDef
 90
0
  1
E2V_assy_2_img_1.png
 10
369.0
 20
92.0
 11
0.0066666667
 21
0.0066666667
280
1
281
0
  0
TABLESTYLE
  5
396
102
{ACAD_REACTORS
330
392
330
292
330
293
102
}
330
392
100
AcDbTableStyle
  3
Standard
 70
0
 71
0
 40
0.06
 41
0.06
280
1
281
1
  7
Standard
140
0.18
170
1
 62
0
 63
7
283
0
  7
Standard
140
0.18
170
1
 62
0
 63
7
283
0
  7
Standard
140
0.18
170
1
 62
0
 63
7
283
0
  0
TABLESTYLE
  5
397
102
{ACAD_REACTORS
330
392
330
291
102
}
330
392
100
AcDbTableStyle
  3
Standard1
 70
1
 71
0
 40
0.06
 41
0.06
280
1
281
1
  7
Standard
140
0.18
170
1
 62
0
 63
7
283
0
  7
Standard
140
0.18
170
1
 62
0
 63
7
283
0
  7
Standard
140
0.18
170
1
 62
0
 63
7
283
0
  0
ENDSEC
  0
EOF
