999
DXF file: E2U_assy_2.dxf
999
Pro/ENGINEER 2014200 by Parametric Technology Corporation
  0
SECTION
  2
HEADER
  9
$ACADVER
  1
AC1021
  9
$DWGCODEPAGE
  3
ANSI_1252
  9
$EXTMAX
 10
22.0
 20
17.0
 30
0.0
  9
$EXTMIN
 10
0.0
 20
0.0
 30
0.0
  9
$LIMMIN
 10
0.0
 20
0.0
  9
$LIMMAX
 10
22.0
 20
17.0
  9
$VIEWCTR
 10
11.0
 20
8.5
  9
$VIEWSIZE
 40
17.0
  9
$CLAYER
  8
0
  9
$LTSCALE
 40
1.21
  9
$CELTYPE
  6
BYLAYER
  9
$DIMSCALE
 40
1.0
  9
$DIMASZ
 40
0.1875
  9
$DIMEXO
 40
0.0625
  9
$DIMDLI
 40
0.836
  9
$DIMEXE
 40
0.125
  9
$DIMCEN
 40
0.198
  9
$DIMLFAC
 40
1.0
  9
$DIMBLK
  1
_FILLED
  9
$DIMTXT
 40
0.1
  9
$DIMTOL
 70
0
  9
$DIMLIM
 70
0
  9
$DIMTFAC
 40
1.0
  9
$DIMGAP
 40
0.09
  9
$DIMDSEP
 70
46
  9
$AUNITS
 70
0
  9
$PDMODE
 70
3
  9
$PDSIZE
 40
0.3125
  9
$HANDSEED
  5
39C
  9
$TILEMODE
 70
1
  9
$MEASUREMENT
 70
0
  9
$INSUNITS
 70
1
  0
ENDSEC
  0
SECTION
  2
CLASSES
  0
CLASS
  1
ACDBDICTIONARYWDFLT
  2
AcDbDictionaryWithDefault
  3
AutoCAD 2000
 90
0
 91
1
280
0
281
0
  0
CLASS
  1
ACDBPLACEHOLDER
  2
AcDbPlaceHolder
  3
AutoCAD 2000
 90
0
 91
1
280
0
281
0
  0
CLASS
  1
LAYOUT
  2
AcDbLayout
  3
AutoCAD 2000
 90
0
 91
0
280
0
281
0
  0
CLASS
  1
RASTERVARIABLES
  2
AcDbRasterVariables
  3
ISM
 90
0
 91
1
280
0
281
0
  0
CLASS
  1
IMAGEDEF
  2
AcDbRasterImageDef
  3
ISM
 90
0
 91
1
280
0
281
0
  0
CLASS
  1
IMAGEDEF_REACTOR
  2
AcDbRasterImageDefReactor
  3
ISM
 90
0
 91
1
280
0
281
0
  0
CLASS
  1
IMAGE
  2
AcDbRasterImage
  3
ISM
 90
127
 91
1
280
0
281
1
  0
CLASS
  1
TABLESTYLE
  2
AcDbTableStyle
  3
ObjectDBX Classes
 90
2047
 91
1
280
0
281
0
  0
CLASS
  1
ACAD_TABLE
  2
AcDbTable
  3
ObjectDBX Classes
 90
1025
 91
3
280
0
281
1
  0
ENDSEC
  0
SECTION
  2
TABLES
  0
TABLE
  2
VPORT
  5
8
100
AcDbSymbolTable
 70
2
  0
VPORT
  5
1F4
100
AcDbSymbolTableRecord
100
AcDbViewportTableRecord
  2
*ACTIVE
 70
0
 10
0.0
 20
0.0
 11
1.0
 21
1.0
 12
11.0
 22
8.5
 13
0.0
 23
0.0
 14
1.0
 24
1.0
 15
0.0
 25
0.0
 16
0.0
 26
0.0
 36
1.0
 17
0.0
 27
0.0
 37
0.0
 40
17.0
 41
1.2941176471
 42
50.0
 43
0.0
 44
0.0
 50
0.0
 51
0.0
 71
0
 72
100
 73
1
 74
1
 75
0
 76
0
 77
0
 78
0
  0
ENDTAB
  0
TABLE
  2
LTYPE
  5
5
100
AcDbSymbolTable
 70
6
  0
LTYPE
  5
14
100
AcDbSymbolTableRecord
100
AcDbLinetypeTableRecord
  2
BYBLOCK
 70
0
  3

 72
65
 73
0
 40
0.0
  0
LTYPE
  5
15
100
AcDbSymbolTableRecord
100
AcDbLinetypeTableRecord
  2
BYLAYER
 70
0
  3

 72
65
 73
0
 40
0.0
  0
LTYPE
  5
16
100
AcDbSymbolTableRecord
100
AcDbLinetypeTableRecord
  2
CONTINUOUS
 70
64
  3
Solid line
 72
65
 73
0
 40
0.0
  0
LTYPE
  5
1F5
100
AcDbSymbolTableRecord
100
AcDbLinetypeTableRecord
  2
CENTER
 70
64
  3
____ _ ____ _ ____ _ ____ _ ____ _ ____ _ ____
 72
65
 73
4
 40
0.6
 49
0.375
 74
0
 49
-0.075
 74
0
 49
0.075
 74
0
 49
-0.075
 74
0
  0
LTYPE
  5
1F6
100
AcDbSymbolTableRecord
100
AcDbLinetypeTableRecord
  2
HIDDEN
 70
64
  3
- - - - - - - - - - - - - - - - - - - -
 72
65
 73
2
 40
0.2
 49
0.1
 74
0
 49
-0.1
 74
0
  0
LTYPE
  5
1F7
100
AcDbSymbolTableRecord
100
AcDbLinetypeTableRecord
  2
PHANTOM
 70
64
  3
_____ _ _ _____ _ _ _____ _ _ _____
 72
65
 73
6
 40
0.8
 49
0.45
 74
0
 49
-0.05
 74
0
 49
0.1
 74
0
 49
-0.05
 74
0
 49
0.1
 74
0
 49
-0.05
 74
0
  0
LTYPE
  5
1F8
100
AcDbSymbolTableRecord
100
AcDbLinetypeTableRecord
  2
DOT
 70
64
  3
. . . . . . . . . . . . . . . . . . . .
 72
65
 73
2
 40
0.2
 49
0.1
 74
0
 49
-0.1
 74
0
  0
LTYPE
  5
1F9
100
AcDbSymbolTableRecord
100
AcDbLinetypeTableRecord
  2
DASHED
 70
64
  3
- - - - - - - - - - - - - - - - - - - -
 72
65
 73
2
 40
0.2
 49
0.1
 74
0
 49
-0.1
 74
0
  0
ENDTAB
  0
TABLE
  2
LAYER
  5
2
100
AcDbSymbolTable
 70
36
  0
LAYER
  5
10
100
AcDbSymbolTableRecord
100
AcDbLayerTableRecord
  2
0
 70
0
 62
7
  6
CONTINUOUS
370
-3
390
F
  0
LAYER
  5
1FA
100
AcDbSymbolTableRecord
100
AcDbLayerTableRecord
  2
DEFAULT_1
 70
0
 62
7
  6
CENTER
370
-3
390
F
  0
LAYER
  5
1FB
100
AcDbSymbolTableRecord
100
AcDbLayerTableRecord
  2
DEFAULT_2
 70
0
 62
8
  6
HIDDEN
370
-3
390
F
  0
LAYER
  5
1FC
100
AcDbSymbolTableRecord
100
AcDbLayerTableRecord
  2
DEFAULT_3
 70
0
 62
7
  6
PHANTOM
370
-3
390
F
  0
LAYER
  5
1FD
100
AcDbSymbolTableRecord
100
AcDbLayerTableRecord
  2
01___PRT_ALL_DTM_PLN
 70
0
 62
7
  6
CONTINUOUS
370
-3
390
F
  0
LAYER
  5
1FE
100
AcDbSymbolTableRecord
100
AcDbLayerTableRecord
  2
01___PRT_DEF_DTM_PLN
 70
0
 62
7
  6
CONTINUOUS
370
-3
390
F
  0
LAYER
  5
1FF
100
AcDbSymbolTableRecord
100
AcDbLayerTableRecord
  2
02___PRT_ALL_AXES
 70
0
 62
7
  6
CONTINUOUS
370
-3
390
F
  0
LAYER
  5
200
100
AcDbSymbolTableRecord
100
AcDbLayerTableRecord
  2
03___PRT_ALL_CURVES
 70
0
 62
7
  6
CONTINUOUS
370
-3
390
F
  0
LAYER
  5
201
100
AcDbSymbolTableRecord
100
AcDbLayerTableRecord
  2
04___PRT_ALL_DTM_PNT
 70
0
 62
7
  6
CONTINUOUS
370
-3
390
F
  0
LAYER
  5
202
100
AcDbSymbolTableRecord
100
AcDbLayerTableRecord
  2
05___PRT_ALL_DTM_CSYS
 70
0
 62
7
  6
CONTINUOUS
370
-3
390
F
  0
LAYER
  5
203
100
AcDbSymbolTableRecord
100
AcDbLayerTableRecord
  2
05___PRT_DEF_DTM_CSYS
 70
0
 62
7
  6
CONTINUOUS
370
-3
390
F
  0
LAYER
  5
204
100
AcDbSymbolTableRecord
100
AcDbLayerTableRecord
  2
06___PRT_ALL_SURFS
 70
0
 62
7
  6
CONTINUOUS
370
-3
390
F
  0
LAYER
  5
205
100
AcDbSymbolTableRecord
100
AcDbLayerTableRecord
  2
DATUM_PLANES
 70
0
 62
7
  6
CONTINUOUS
370
-3
390
F
  0
LAYER
  5
206
100
AcDbSymbolTableRecord
100
AcDbLayerTableRecord
  2
PORT_AREAS
 70
0
 62
7
  6
CONTINUOUS
370
-3
390
F
  0
LAYER
  5
207
100
AcDbSymbolTableRecord
100
AcDbLayerTableRecord
  2
SUNNBOMCOSMETIC
 70
0
 62
7
  6
CONTINUOUS
370
-3
390
F
  0
LAYER
  5
208
100
AcDbSymbolTableRecord
100
AcDbLayerTableRecord
  2
SUNNBOMSTAMPING
 70
0
 62
7
  6
CONTINUOUS
370
-3
390
F
  0
LAYER
  5
209
100
AcDbSymbolTableRecord
100
AcDbLayerTableRecord
  2
THREADS
 70
0
 62
7
  6
CONTINUOUS
370
-3
390
F
  0
ENDTAB
  0
TABLE
  2
STYLE
  5
3
100
AcDbSymbolTable
 70
1
  0
STYLE
  5
11
100
AcDbSymbolTableRecord
100
AcDbTextStyleTableRecord
  2
STANDARD
 70
0
 40
0.0
 41
0.8
 50
0.0
 71
0
 42
0.2
  3
txt
  4

  0
STYLE
  5
20A
100
AcDbSymbolTableRecord
100
AcDbTextStyleTableRecord
  2
TEXTSTYLE_1
 70
0
 40
0.0
 41
0.8
 50
0.0
 71
0
 42
0.2
  3
gdt
  4

  0
ENDTAB
  0
TABLE
  2
VIEW
  5
6
100
AcDbSymbolTable
 70
0
  0
ENDTAB
  0
TABLE
  2
UCS
  5
7
100
AcDbSymbolTable
 70
0
  0
ENDTAB
  0
TABLE
  2
APPID
  5
9
100
AcDbSymbolTable
 70
1
  0
APPID
  5
20B
100
AcDbSymbolTableRecord
100
AcDbRegAppTableRecord
  2
ACAD
 70
0
  0
ENDTAB
  0
TABLE
  2
BLOCK_RECORD
  5
1
100
AcDbSymbolTable
 70
0
  0
BLOCK_RECORD
  5
20C
100
AcDbSymbolTableRecord
100
AcDbBlockTableRecord
  2
*Model_Space
  0
BLOCK_RECORD
  5
20D
100
AcDbSymbolTableRecord
100
AcDbBlockTableRecord
  2
*Paper_Space
  0
BLOCK_RECORD
  5
20E
100
AcDbSymbolTableRecord
100
AcDbBlockTableRecord
  2
SUN_FIRST_THIRD_ANGLE_BL0
  0
BLOCK_RECORD
  5
20F
100
AcDbSymbolTableRecord
100
AcDbBlockTableRecord
  2
*T1
  0
BLOCK_RECORD
  5
210
100
AcDbSymbolTableRecord
100
AcDbBlockTableRecord
  2
*T2
  0
BLOCK_RECORD
  5
211
100
AcDbSymbolTableRecord
100
AcDbBlockTableRecord
  2
*T3
  0
ENDTAB
  0
TABLE
  2
DIMSTYLE
  5
A
100
AcDbSymbolTable
 70
1
100
AcDbDimStyleTable
 71
0
  0
DIMSTYLE
105
212
100
AcDbSymbolTableRecord
100
AcDbDimStyleTableRecord
  2
STANDARD
 70
0
  3

  4

 40
1.0
 41
0.1875
 42
0.0625
 43
0.38
 44
0.125
 45
0.0
 46
0.0
 47
0.001
 48
0.001
140
0.1
141
0.09
142
0.0
143
25.4
144
1.0
145
0.0
146
1.0
147
0.09
 71
0.0
 72
0.0
 73
1
 74
1
 75
0
 76
0
 77
0
 78
4
170
0
171
2
172
0
173
0
174
0
175
0
176
0
177
0
178
0
270
2
271
3
272
3
273
2
274
2
275
0
280
0
281
0
282
0
283
1
284
4
285
0
286
0
287
3
288
0
340
11
278
46
  0
ENDTAB
  0
ENDSEC
  0
SECTION
  2
BLOCKS
  0
BLOCK
  5
20
100
AcDbEntity
  8
0
100
AcDbBlockBegin
  2
*Model_Space
 70
0
 10
0.0
 20
0.0
 30
0.0
  3
*Model_Space
  1

  0
ENDBLK
  5
21
100
AcDbEntity
  8
0
100
AcDbBlockEnd
  0
BLOCK
  5
1C
100
AcDbEntity
  8
0
100
AcDbBlockBegin
  2
*Paper_Space
 70
0
 10
0.0
 20
0.0
 30
0.0
  3
*Paper_Space
  1

  0
ENDBLK
  5
1D
100
AcDbEntity
  8
0
100
AcDbBlockEnd
  0
BLOCK
  5
213
100
AcDbEntity
  8
0
100
AcDbBlockBegin
 62
2
  6
CONTINUOUS
  2
SUN_FIRST_THIRD_ANGLE_BL0
 70
64
 10
20.4816717061
 20
1.2289683772
  3
SUN_FIRST_THIRD_ANGLE_BL0
  1

  0
TEXT
  5
214
100
AcDbEntity
  8
0
100
AcDbText
 62
2
  6
CONTINUOUS
 10
19.4750896608
 20
1.4136269581
  7
STANDARD
 40
0.08
  1
FIRST ANGLE
 41
0.8
 72
0
100
AcDbText
  0
TEXT
  5
215
100
AcDbEntity
  8
0
100
AcDbText
 62
2
  6
CONTINUOUS
 10
20.7842537513
 20
1.4047600029
  7
STANDARD
 40
0.08
  1
THIRD ANGLE
 41
0.8
 72
0
100
AcDbText
  0
LINE
  5
216
100
AcDbEntity
  8
0
100
AcDbLine
 62
7
  6
CONTINUOUS
 10
19.4767170086
 20
1.1727031207
 11
19.6334271527
 21
1.1717972817
  0
LINE
  5
217
100
AcDbEntity
  8
0
100
AcDbLine
 62
7
  6
CONTINUOUS
 10
19.6596964832
 20
1.1717972817
 11
19.6950230232
 21
1.171593082
  0
LINE
  5
218
100
AcDbEntity
  8
0
100
AcDbLine
 62
7
  6
CONTINUOUS
 10
19.7194818561
 20
1.1708914427
 11
19.8852396156
 21
1.1699333054
  0
LINE
  5
219
100
AcDbEntity
  8
0
100
AcDbLine
 62
7
  6
CONTINUOUS
 10
19.4758111696
 20
1.2723454088
 11
19.88525039
 21
1.3511534004
  0
LINE
  5
21A
100
AcDbEntity
  8
0
100
AcDbLine
 62
7
  6
CONTINUOUS
 10
19.88525039
 20
1.3511534004
 11
19.8831348489
 21
0.9851647912
  0
LINE
  5
21B
100
AcDbEntity
  8
0
100
AcDbLine
 62
7
  6
CONTINUOUS
 10
19.8831348489
 20
0.9851647912
 11
19.4767170086
 21
1.0658141206
  0
LINE
  5
21C
100
AcDbEntity
  8
0
100
AcDbLine
 62
7
  6
CONTINUOUS
 10
19.4767170086
 20
1.0658141206
 11
19.4779056764
 21
1.2714536432
  0
CIRCLE
  5
21D
100
AcDbEntity
  8
0
100
AcDbCircle
 62
7
  6
CONTINUOUS
 10
20.2068232291
 20
1.1717972817
 40
0.175742101
  0
CIRCLE
  5
21E
100
AcDbEntity
  8
0
100
AcDbCircle
 62
7
  6
CONTINUOUS
 10
20.2068232291
 20
1.1717972817
 40
0.1005522074
  0
LINE
  5
21F
100
AcDbEntity
  8
0
100
AcDbLine
 62
7
  6
CONTINUOUS
 10
20.2077290681
 20
1.3756110529
 11
20.2071171714
 21
1.2379342989
  0
LINE
  5
220
100
AcDbEntity
  8
0
100
AcDbLine
 62
7
  6
CONTINUOUS
 10
20.2077290681
 20
1.2016899681
 11
20.2074674401
 21
1.1428236749
  0
LINE
  5
221
100
AcDbEntity
  8
0
100
AcDbLine
 62
7
  6
CONTINUOUS
 10
20.208634907
 20
1.101141841
 11
20.2080230104
 21
0.963465087
  0
LINE
  5
222
100
AcDbEntity
  8
0
100
AcDbLine
 62
7
  6
CONTINUOUS
 10
20.0066328138
 20
1.1745147986
 11
20.1443095678
 21
1.1739029019
  0
LINE
  5
223
100
AcDbEntity
  8
0
100
AcDbLine
 62
7
  6
CONTINUOUS
 10
20.1832714155
 20
1.1727031207
 11
20.238153505
 21
1.172335442
  0
LINE
  5
224
100
AcDbEntity
  8
0
100
AcDbLine
 62
7
  6
CONTINUOUS
 10
20.2756669918
 20
1.1717972817
 11
20.407916871
 21
1.1712095044
  0
CIRCLE
  5
225
100
AcDbEntity
  8
0
100
AcDbCircle
 62
7
  6
CONTINUOUS
 10
20.7509457401
 20
1.1693297793
 40
0.1722024983
  0
CIRCLE
  5
226
100
AcDbEntity
  8
0
100
AcDbCircle
 62
7
  6
CONTINUOUS
 10
20.7509457401
 20
1.1693297793
 40
0.0985164967
  0
LINE
  5
227
100
AcDbEntity
  8
0
100
AcDbLine
 62
7
  6
CONTINUOUS
 10
20.7169767782
 20
1.170462078
 11
20.7825395137
 21
1.1682766535
  0
LINE
  5
228
100
AcDbEntity
  8
0
100
AcDbLine
 62
7
  6
CONTINUOUS
 10
20.8177513651
 20
1.1693297793
 11
20.947965719
 21
1.1693297793
  0
LINE
  5
229
100
AcDbEntity
  8
0
100
AcDbLine
 62
7
  6
CONTINUOUS
 10
20.6875370113
 20
1.170462078
 11
20.5573226574
 21
1.170462078
  0
LINE
  5
22A
100
AcDbEntity
  8
0
100
AcDbLine
 62
7
  6
CONTINUOUS
 10
20.7486811426
 20
1.1987695462
 11
20.7486811426
 21
1.1432869085
  0
LINE
  5
22B
100
AcDbEntity
  8
0
100
AcDbLine
 62
7
  6
CONTINUOUS
 10
20.7498134414
 20
1.1059210505
 11
20.7498134414
 21
0.9757066966
  0
LINE
  5
22C
100
AcDbEntity
  8
0
100
AcDbLine
 62
7
  6
CONTINUOUS
 10
20.7486811426
 20
1.2338708068
 11
20.7486811426
 21
1.3640851607
  0
LINE
  5
22D
100
AcDbEntity
  8
0
100
AcDbLine
 62
7
  6
CONTINUOUS
 10
21.0702539817
 20
1.2701043662
 11
21.4790138229
 21
1.3448360823
  0
LINE
  5
22E
100
AcDbEntity
  8
0
100
AcDbLine
 62
7
  6
CONTINUOUS
 10
21.4790138229
 20
1.3448360823
 11
21.4790138229
 21
0.9779712941
  0
LINE
  5
22F
100
AcDbEntity
  8
0
100
AcDbLine
 62
7
  6
CONTINUOUS
 10
21.4790138229
 20
0.9779712941
 11
21.069121683
 21
1.0617614
  0
LINE
  5
230
100
AcDbEntity
  8
0
100
AcDbLine
 62
7
  6
CONTINUOUS
 10
21.0702539817
 20
1.2701043662
 11
21.069121683
 21
1.0617614
  0
LINE
  5
231
100
AcDbEntity
  8
0
100
AcDbLine
 62
7
  6
CONTINUOUS
 10
21.4790138229
 20
1.1693297793
 11
21.3159628059
 21
1.1693297793
  0
LINE
  5
232
100
AcDbEntity
  8
0
100
AcDbLine
 62
7
  6
CONTINUOUS
 10
21.2876553377
 20
1.1693297793
 11
21.2502894796
 21
1.1693297793
  0
LINE
  5
233
100
AcDbEntity
  8
0
100
AcDbLine
 62
7
  6
CONTINUOUS
 10
21.2208497126
 20
1.1659328831
 11
21.0713862804
 21
1.1659328831
  0
LINE
  5
234
100
AcDbEntity
  8
0
100
AcDbLine
 62
7
  6
CONTINUOUS
 10
20.4796138713
 20
1.5284908897
 11
20.4766766948
 21
0.9294458646
  0
ENDBLK
  5
235
100
AcDbEntity
  8
0
  6
BYBLOCK
 62
0
100
AcDbBlockEnd
  0
BLOCK
  5
236
100
AcDbEntity
  8
0
100
AcDbBlockBegin
  2
*T1
 70
1
 10
0.0
 20
0.0
  3
*T1
  1

  0
LINE
  5
237
100
AcDbEntity
  8
0
100
AcDbLine
 62
2
  6
CONTINUOUS
 10
9.275
 20
0.0
 11
-0.0
 21
0.0
  0
LINE
  5
238
100
AcDbEntity
  8
0
100
AcDbLine
 62
2
  6
CONTINUOUS
 10
9.275
 20
0.0
 11
9.275
 21
1.25
  0
LINE
  5
239
100
AcDbEntity
  8
0
100
AcDbLine
 62
2
  6
CONTINUOUS
 10
9.275
 20
0.625
 11
-0.0
 21
0.625
  0
LINE
  5
23A
100
AcDbEntity
  8
0
100
AcDbLine
 62
2
  6
CONTINUOUS
 10
9.275
 20
1.25
 11
-0.0
 21
1.25
  0
LINE
  5
23B
100
AcDbEntity
  8
0
100
AcDbLine
 62
2
  6
CONTINUOUS
 10
6.8
 20
0.0
 11
6.8
 21
1.25
  0
LINE
  5
23C
100
AcDbEntity
  8
0
100
AcDbLine
 62
2
  6
CONTINUOUS
 10
6.4
 20
0.0
 11
6.4
 21
0.625
  0
LINE
  5
23D
100
AcDbEntity
  8
0
100
AcDbLine
 62
2
  6
CONTINUOUS
 10
5.9
 20
0.0
 11
5.9
 21
0.625
  0
LINE
  5
23E
100
AcDbEntity
  8
0
100
AcDbLine
 62
2
  6
CONTINUOUS
 10
5.2
 20
0.0
 11
5.2
 21
0.625
  0
LINE
  5
23F
100
AcDbEntity
  8
0
100
AcDbLine
 62
2
  6
CONTINUOUS
 10
4.1
 20
0.0
 11
4.1
 21
1.25
  0
LINE
  5
240
100
AcDbEntity
  8
0
100
AcDbLine
 62
2
  6
CONTINUOUS
 10
-0.0
 20
0.0
 11
-0.0
 21
1.25
  0
MTEXT
  5
241
100
AcDbEntity
  8
0
100
AcDbMText
 62
2
  6
CONTINUOUS
  7
STANDARD
 71
2
 72
1
 10
6.6
 20
0.325
 30
0.0
 11
1.0
 21
0.0
 31
0.0
 44
0.9
  1
2
 40
0.125
 41
0.2
  0
MTEXT
  5
242
100
AcDbEntity
  8
0
100
AcDbMText
 62
2
  6
CONTINUOUS
  7
STANDARD
 71
2
 72
1
 10
6.15
 20
0.325
 30
0.0
 11
1.0
 21
0.0
 31
0.0
 44
0.9
  1
C
 40
0.125
 41
0.2
  0
MTEXT
  5
243
100
AcDbEntity
  8
0
100
AcDbMText
 62
2
  6
CONTINUOUS
  7
STANDARD
 71
2
 72
1
 10
5.55
 20
0.325
 30
0.0
 11
1.0
 21
0.0
 31
0.0
 44
0.9
  1
1.000
 40
0.125
 41
1.0
  0
MTEXT
  5
244
100
AcDbEntity
  8
0
100
AcDbMText
 62
2
  6
CONTINUOUS
  7
STANDARD
 71
2
 72
1
 10
4.65
 20
0.325
 30
0.0
 11
1.0
 21
0.0
 31
0.0
 44
0.9
  1
Apr-05-23
 40
0.125
 41
1.8
  0
MTEXT
  5
245
100
AcDbEntity
  8
0
100
AcDbMText
 62
2
  6
CONTINUOUS
  7
STANDARD
 71
2
 72
1
 10
2.05
 20
0.4625
 30
0.0
 11
1.0
 21
0.0
 31
0.0
 44
0.9
  1
T-11A Line mount\P(See Technical Data for Body Features)
 40
0.125
 41
7.6
  0
MTEXT
  5
246
100
AcDbEntity
  8
0
100
AcDbMText
 62
2
  6
CONTINUOUS
  7
STANDARD
 71
1
 72
1
 10
6.45
 20
0.5625
 30
0.0
 11
1.0
 21
0.0
 31
0.0
 44
0.9
  1
SHEET
 40
0.06
 41
0.48
  0
MTEXT
  5
247
100
AcDbEntity
  8
0
100
AcDbMText
 62
2
  6
CONTINUOUS
  7
STANDARD
 71
1
 72
1
 10
5.95
 20
0.5625
 30
0.0
 11
1.0
 21
0.0
 31
0.0
 44
0.9
  1
DWG SIZE
 40
0.06
 41
0.768
  0
MTEXT
  5
248
100
AcDbEntity
  8
0
100
AcDbMText
 62
2
  6
CONTINUOUS
  7
STANDARD
 71
1
 72
1
 10
5.25
 20
0.5625
 30
0.0
 11
1.0
 21
0.0
 31
0.0
 44
0.9
  1
SCALE
 40
0.06
 41
0.48
  0
MTEXT
  5
249
100
AcDbEntity
  8
0
100
AcDbMText
 62
2
  6
CONTINUOUS
  7
STANDARD
 71
1
 72
1
 10
4.15
 20
0.5625
 30
0.0
 11
1.0
 21
0.0
 31
0.0
 44
0.9
  1
DATE
 40
0.06
 41
0.384
  0
MTEXT
  5
24A
100
AcDbEntity
  8
0
100
AcDbMText
 62
2
  6
CONTINUOUS
  7
STANDARD
 71
1
 72
1
 10
0.05
 20
0.5625
 30
0.0
 11
1.0
 21
0.0
 31
0.0
 44
0.9
  1
DESCRIPTION
 40
0.06
 41
1.056
  0
MTEXT
  5
24B
100
AcDbEntity
  8
0
100
AcDbMText
 62
2
  6
CONTINUOUS
  7
STANDARD
 71
2
 72
1
 10
5.45
 20
1.0375
 30
0.0
 11
1.0
 21
0.0
 31
0.0
 44
0.9
  1
ALL DIMENSIONS IN INCH\PVIEWS ARE THIRD ANGLE
 40
0.12
 41
4.224
  0
MTEXT
  5
24C
100
AcDbEntity
  8
0
100
AcDbMText
 62
2
  6
CONTINUOUS
  7
STANDARD
 71
2
 72
1
 10
2.05
 20
0.95
 30
0.0
 11
1.0
 21
0.0
 31
0.0
 44
0.9
  1
E2U
 40
0.125
 41
0.6
  0
MTEXT
  5
24D
100
AcDbEntity
  8
0
100
AcDbMText
 62
2
  6
CONTINUOUS
  7
STANDARD
 71
1
 72
1
 10
0.05
 20
1.1875
 30
0.0
 11
1.0
 21
0.0
 31
0.0
 44
0.9
  1
MODEL
 40
0.06
 41
0.48
  0
ENDBLK
  5
24E
100
AcDbEntity
  8
0
  6
BYBLOCK
 62
0
100
AcDbBlockEnd
  0
BLOCK
  5
24F
100
AcDbEntity
  8
0
100
AcDbBlockBegin
  2
*T2
 70
1
 10
0.0
 20
0.0
  3
*T2
  1

  0
LINE
  5
250
100
AcDbEntity
  8
0
100
AcDbLine
 62
2
  6
CONTINUOUS
 10
0.0
 20
0.0
 11
9.055
 21
0.0
  0
LINE
  5
251
100
AcDbEntity
  8
0
100
AcDbLine
 62
2
  6
CONTINUOUS
 10
0.0
 20
0.0
 11
0.0
 21
-2.844
  0
LINE
  5
252
100
AcDbEntity
  8
0
100
AcDbLine
 62
2
  6
CONTINUOUS
 10
0.0
 20
-0.344
 11
9.055
 21
-0.344
  0
LINE
  5
253
100
AcDbEntity
  8
0
100
AcDbLine
 62
2
  6
CONTINUOUS
 10
0.0
 20
-0.594
 11
9.055
 21
-0.594
  0
LINE
  5
254
100
AcDbEntity
  8
0
100
AcDbLine
 62
2
  6
CONTINUOUS
 10
0.0
 20
-0.844
 11
9.055
 21
-0.844
  0
LINE
  5
255
100
AcDbEntity
  8
0
100
AcDbLine
 62
2
  6
CONTINUOUS
 10
0.0
 20
-1.094
 11
9.055
 21
-1.094
  0
LINE
  5
256
100
AcDbEntity
  8
0
100
AcDbLine
 62
2
  6
CONTINUOUS
 10
0.0
 20
-1.344
 11
9.055
 21
-1.344
  0
LINE
  5
257
100
AcDbEntity
  8
0
100
AcDbLine
 62
2
  6
CONTINUOUS
 10
0.0
 20
-1.594
 11
9.055
 21
-1.594
  0
LINE
  5
258
100
AcDbEntity
  8
0
100
AcDbLine
 62
2
  6
CONTINUOUS
 10
0.0
 20
-1.844
 11
9.055
 21
-1.844
  0
LINE
  5
259
100
AcDbEntity
  8
0
100
AcDbLine
 62
2
  6
CONTINUOUS
 10
0.0
 20
-2.094
 11
9.055
 21
-2.094
  0
LINE
  5
25A
100
AcDbEntity
  8
0
100
AcDbLine
 62
2
  6
CONTINUOUS
 10
0.0
 20
-2.344
 11
9.055
 21
-2.344
  0
LINE
  5
25B
100
AcDbEntity
  8
0
100
AcDbLine
 62
2
  6
CONTINUOUS
 10
0.0
 20
-2.594
 11
9.055
 21
-2.594
  0
LINE
  5
25C
100
AcDbEntity
  8
0
100
AcDbLine
 62
2
  6
CONTINUOUS
 10
0.0
 20
-2.844
 11
9.055
 21
-2.844
  0
LINE
  5
25D
100
AcDbEntity
  8
0
100
AcDbLine
 62
2
  6
CONTINUOUS
 10
3.055
 20
0.0
 11
3.055
 21
-2.844
  0
LINE
  5
25E
100
AcDbEntity
  8
0
100
AcDbLine
 62
2
  6
CONTINUOUS
 10
9.055
 20
0.0
 11
9.055
 21
-2.844
  0
MTEXT
  5
25F
100
AcDbEntity
  8
0
100
AcDbMText
 62
2
  6
CONTINUOUS
  7
STANDARD
 71
2
 72
1
 10
1.5275
 20
-0.0995
 30
0.0
 11
1.0
 21
0.0
 31
0.0
 44
0.9
  1
Technical Data
 40
0.145
 41
3.248
  0
MTEXT
  5
260
100
AcDbEntity
  8
0
100
AcDbMText
 62
2
  6
CONTINUOUS
  7
STANDARD
 71
2
 72
1
 10
4.555
 20
-0.0995
 30
0.0
 11
1.0
 21
0.0
 31
0.0
 44
0.9
  1
U.S. Units
 40
0.145
 41
2.32
  0
MTEXT
  5
261
100
AcDbEntity
  8
0
100
AcDbMText
 62
2
  6
CONTINUOUS
  7
STANDARD
 71
2
 72
1
 10
7.555
 20
-0.0995
 30
0.0
 11
1.0
 21
0.0
 31
0.0
 44
0.9
  1
Metric Units
 40
0.145
 41
2.784
  0
MTEXT
  5
262
100
AcDbEntity
  8
0
100
AcDbMText
 62
2
  6
CONTINUOUS
  7
STANDARD
 71
2
 72
1
 10
1.5275
 20
-0.4065
 30
0.0
 11
1.0
 21
0.0
 31
0.0
 44
0.9
  1
Cavity
 40
0.125
 41
1.2
  0
MTEXT
  5
263
100
AcDbEntity
  8
0
100
AcDbMText
 62
2
  6
CONTINUOUS
  7
STANDARD
 71
2
 72
1
 10
6.055
 20
-0.4065
 30
0.0
 11
1.0
 21
0.0
 31
0.0
 44
0.9
  1
T-11A
 40
0.125
 41
1.0
  0
MTEXT
  5
264
100
AcDbEntity
  8
0
100
AcDbMText
 62
2
  6
CONTINUOUS
  7
STANDARD
 71
2
 72
1
 10
1.5275
 20
-0.6565
 30
0.0
 11
1.0
 21
0.0
 31
0.0
 44
0.9
  1
Body Features
 40
0.125
 41
2.6
  0
MTEXT
  5
265
100
AcDbEntity
  8
0
100
AcDbMText
 62
2
  6
CONTINUOUS
  7
STANDARD
 71
2
 72
1
 10
6.055
 20
-0.6565
 30
0.0
 11
1.0
 21
0.0
 31
0.0
 44
0.9
  1
Ninety degree with reverse flow check - reducing
 40
0.125
 41
9.6
  0
MTEXT
  5
266
100
AcDbEntity
  8
0
100
AcDbMText
 62
2
  6
CONTINUOUS
  7
STANDARD
 71
2
 72
1
 10
1.5275
 20
-0.9065
 30
0.0
 11
1.0
 21
0.0
 31
0.0
 44
0.9
  1
Body Type
 40
0.125
 41
1.8
  0
MTEXT
  5
267
100
AcDbEntity
  8
0
100
AcDbMText
 62
2
  6
CONTINUOUS
  7
STANDARD
 71
2
 72
1
 10
6.055
 20
-0.9065
 30
0.0
 11
1.0
 21
0.0
 31
0.0
 44
0.9
  1
Line mount
 40
0.125
 41
2.0
  0
MTEXT
  5
268
100
AcDbEntity
  8
0
100
AcDbMText
 62
2
  6
CONTINUOUS
  7
STANDARD
 71
2
 72
1
 10
1.5275
 20
-1.1565
 30
0.0
 11
1.0
 21
0.0
 31
0.0
 44
0.9
  1
Interface
 40
0.125
 41
1.8
  0
MTEXT
  5
269
100
AcDbEntity
  8
0
100
AcDbMText
 62
2
  6
CONTINUOUS
  7
STANDARD
 71
2
 72
1
 10
6.055
 20
-1.1565
 30
0.0
 11
1.0
 21
0.0
 31
0.0
 44
0.9
  1
None
 40
0.125
 41
0.8
  0
MTEXT
  5
26A
100
AcDbEntity
  8
0
100
AcDbMText
 62
2
  6
CONTINUOUS
  7
STANDARD
 71
2
 72
1
 10
1.5275
 20
-1.4065
 30
0.0
 11
1.0
 21
0.0
 31
0.0
 44
0.9
  1
Open Cavity Quantity
 40
0.125
 41
4.0
  0
MTEXT
  5
26B
100
AcDbEntity
  8
0
100
AcDbMText
 62
2
  6
CONTINUOUS
  7
STANDARD
 71
2
 72
1
 10
6.055
 20
-1.4065
 30
0.0
 11
1.0
 21
0.0
 31
0.0
 44
0.9
  1
1
 40
0.125
 41
0.2
  0
MTEXT
  5
26C
100
AcDbEntity
  8
0
100
AcDbMText
 62
2
  6
CONTINUOUS
  7
STANDARD
 71
2
 72
1
 10
1.5275
 20
-1.6565
 30
0.0
 11
1.0
 21
0.0
 31
0.0
 44
0.9
  1
Weight
 40
0.125
 41
1.2
  0
MTEXT
  5
26D
100
AcDbEntity
  8
0
100
AcDbMText
 62
2
  6
CONTINUOUS
  7
STANDARD
 71
2
 72
1
 10
4.555
 20
-1.6565
 30
0.0
 11
1.0
 21
0.0
 31
0.0
 44
0.9
  1
1.229 lb.
 40
0.125
 41
1.8
  0
MTEXT
  5
26E
100
AcDbEntity
  8
0
100
AcDbMText
 62
2
  6
CONTINUOUS
  7
STANDARD
 71
2
 72
1
 10
7.555
 20
-1.6565
 30
0.0
 11
1.0
 21
0.0
 31
0.0
 44
0.9
  1
0,557 kg.
 40
0.125
 41
1.8
  0
MTEXT
  5
26F
100
AcDbEntity
  8
0
100
AcDbMText
 62
2
  6
CONTINUOUS
  7
STANDARD
 71
2
 72
1
 10
1.5275
 20
-1.9065
 30
0.0
 11
1.0
 21
0.0
 31
0.0
 44
0.9
  1
Mounting Hole Diameter
 40
0.125
 41
4.4
  0
MTEXT
  5
270
100
AcDbEntity
  8
0
100
AcDbMText
 62
2
  6
CONTINUOUS
  7
STANDARD
 71
2
 72
1
 10
4.555
 20
-1.9065
 30
0.0
 11
1.0
 21
0.0
 31
0.0
 44
0.9
  1
.34 in.
 40
0.125
 41
1.4
  0
MTEXT
  5
271
100
AcDbEntity
  8
0
100
AcDbMText
 62
2
  6
CONTINUOUS
  7
STANDARD
 71
2
 72
1
 10
7.555
 20
-1.9065
 30
0.0
 11
1.0
 21
0.0
 31
0.0
 44
0.9
  1
8.6 mm
 40
0.125
 41
1.2
  0
MTEXT
  5
272
100
AcDbEntity
  8
0
100
AcDbMText
 62
2
  6
CONTINUOUS
  7
STANDARD
 71
2
 72
1
 10
1.5275
 20
-2.1565
 30
0.0
 11
1.0
 21
0.0
 31
0.0
 44
0.9
  1
Mounting Hole Depth
 40
0.125
 41
3.8
  0
MTEXT
  5
273
100
AcDbEntity
  8
0
100
AcDbMText
 62
2
  6
CONTINUOUS
  7
STANDARD
 71
2
 72
1
 10
6.055
 20
-2.1565
 30
0.0
 11
1.0
 21
0.0
 31
0.0
 44
0.9
  1
Through
 40
0.125
 41
1.4
  0
MTEXT
  5
274
100
AcDbEntity
  8
0
100
AcDbMText
 62
2
  6
CONTINUOUS
  7
STANDARD
 71
2
 72
1
 10
1.5275
 20
-2.4065
 30
0.0
 11
1.0
 21
0.0
 31
0.0
 44
0.9
  1
Mounting Hole Quantity
 40
0.125
 41
4.4
  0
MTEXT
  5
275
100
AcDbEntity
  8
0
100
AcDbMText
 62
2
  6
CONTINUOUS
  7
STANDARD
 71
2
 72
1
 10
6.055
 20
-2.4065
 30
0.0
 11
1.0
 21
0.0
 31
0.0
 44
0.9
  1
2
 40
0.125
 41
0.2
  0
MTEXT
  5
276
100
AcDbEntity
  8
0
100
AcDbMText
 62
2
  6
CONTINUOUS
  7
STANDARD
 71
2
 72
1
 10
1.5275
 20
-2.6565
 30
0.0
 11
1.0
 21
0.0
 31
0.0
 44
0.9
  1
Includes integral cartridge(s)
 40
0.125
 41
6.0
  0
MTEXT
  5
277
100
AcDbEntity
  8
0
100
AcDbMText
 62
2
  6
CONTINUOUS
  7
STANDARD
 71
2
 72
1
 10
6.055
 20
-2.6565
 30
0.0
 11
1.0
 21
0.0
 31
0.0
 44
0.9
  1
Yes (see Included Components)
 40
0.125
 41
5.8
  0
ENDBLK
  5
278
100
AcDbEntity
  8
0
  6
BYBLOCK
 62
0
100
AcDbBlockEnd
  0
BLOCK
  5
279
100
AcDbEntity
  8
0
100
AcDbBlockBegin
  2
*T3
 70
1
 10
0.0
 20
0.0
  3
*T3
  1

  0
LINE
  5
27A
100
AcDbEntity
  8
0
100
AcDbLine
 62
2
  6
CONTINUOUS
 10
0.0
 20
0.0
 11
4.6
 21
0.0
  0
LINE
  5
27B
100
AcDbEntity
  8
0
100
AcDbLine
 62
2
  6
CONTINUOUS
 10
0.0
 20
0.0
 11
0.0
 21
-1.43775
  0
LINE
  5
27C
100
AcDbEntity
  8
0
100
AcDbLine
 62
2
  6
CONTINUOUS
 10
0.0
 20
-0.34375
 11
4.6
 21
-0.34375
  0
LINE
  5
27D
100
AcDbEntity
  8
0
100
AcDbLine
 62
2
  6
CONTINUOUS
 10
0.0
 20
-0.68775
 11
4.6
 21
-0.68775
  0
LINE
  5
27E
100
AcDbEntity
  8
0
100
AcDbLine
 62
2
  6
CONTINUOUS
 10
0.0
 20
-0.93775
 11
4.6
 21
-0.93775
  0
LINE
  5
27F
100
AcDbEntity
  8
0
100
AcDbLine
 62
2
  6
CONTINUOUS
 10
0.0
 20
-1.18775
 11
4.6
 21
-1.18775
  0
LINE
  5
280
100
AcDbEntity
  8
0
100
AcDbLine
 62
2
  6
CONTINUOUS
 10
0.0
 20
-1.43775
 11
4.6
 21
-1.43775
  0
LINE
  5
281
100
AcDbEntity
  8
0
100
AcDbLine
 62
2
  6
CONTINUOUS
 10
1.3
 20
-0.34375
 11
1.3
 21
-1.43775
  0
LINE
  5
282
100
AcDbEntity
  8
0
100
AcDbLine
 62
2
  6
CONTINUOUS
 10
3.3
 20
-0.34375
 11
3.3
 21
-1.43775
  0
LINE
  5
283
100
AcDbEntity
  8
0
100
AcDbLine
 62
2
  6
CONTINUOUS
 10
4.6
 20
0.0
 11
4.6
 21
-1.43775
  0
MTEXT
  5
284
100
AcDbEntity
  8
0
100
AcDbMText
 62
2
  6
CONTINUOUS
  7
STANDARD
 71
2
 72
1
 10
2.3
 20
-0.099375
 30
0.0
 11
1.0
 21
0.0
 31
0.0
 44
0.9
  1
Port Headings
 40
0.145
 41
3.016
  0
MTEXT
  5
285
100
AcDbEntity
  8
0
100
AcDbMText
 62
2
  6
CONTINUOUS
  7
STANDARD
 71
2
 72
1
 10
0.65
 20
-0.44325
 30
0.0
 11
1.0
 21
0.0
 31
0.0
 44
0.9
  1
Product
 40
0.145
 41
1.624
  0
MTEXT
  5
286
100
AcDbEntity
  8
0
100
AcDbMText
 62
2
  6
CONTINUOUS
  7
STANDARD
 71
2
 72
1
 10
2.3
 20
-0.44325
 30
0.0
 11
1.0
 21
0.0
 31
0.0
 44
0.9
  1
Port
 40
0.145
 41
0.928
  0
MTEXT
  5
287
100
AcDbEntity
  8
0
100
AcDbMText
 62
2
  6
CONTINUOUS
  7
STANDARD
 71
2
 72
1
 10
3.95
 20
-0.44325
 30
0.0
 11
1.0
 21
0.0
 31
0.0
 44
0.9
  1
Size
 40
0.145
 41
0.928
  0
MTEXT
  5
288
100
AcDbEntity
  8
0
100
AcDbMText
 62
2
  6
CONTINUOUS
  7
STANDARD
 71
2
 72
1
 10
0.65
 20
-0.75025
 30
0.0
 11
1.0
 21
0.0
 31
0.0
 44
0.9
  1
E2U
 40
0.125
 41
0.6
  0
MTEXT
  5
289
100
AcDbEntity
  8
0
100
AcDbMText
 62
2
  6
CONTINUOUS
  7
STANDARD
 71
2
 72
1
 10
2.3
 20
-0.75025
 30
0.0
 11
1.0
 21
0.0
 31
0.0
 44
0.9
  1
Ports 1 &  2
 40
0.125
 41
2.4
  0
MTEXT
  5
28A
100
AcDbEntity
  8
0
100
AcDbMText
 62
2
  6
CONTINUOUS
  7
STANDARD
 71
2
 72
1
 10
3.95
 20
-0.75025
 30
0.0
 11
1.0
 21
0.0
 31
0.0
 44
0.9
  1
3/8" BSPP
 40
0.125
 41
1.8
  0
MTEXT
  5
28B
100
AcDbEntity
  8
0
100
AcDbMText
 62
2
  6
CONTINUOUS
  7
STANDARD
 71
2
 72
1
 10
0.65
 20
-1.00025
 30
0.0
 11
1.0
 21
0.0
 31
0.0
 44
0.9
  1
E2U
 40
0.125
 41
0.6
  0
MTEXT
  5
28C
100
AcDbEntity
  8
0
100
AcDbMText
 62
2
  6
CONTINUOUS
  7
STANDARD
 71
2
 72
1
 10
2.3
 20
-1.00025
 30
0.0
 11
1.0
 21
0.0
 31
0.0
 44
0.9
  1
Port 3
 40
0.125
 41
1.2
  0
MTEXT
  5
28D
100
AcDbEntity
  8
0
100
AcDbMText
 62
2
  6
CONTINUOUS
  7
STANDARD
 71
2
 72
1
 10
3.95
 20
-1.00025
 30
0.0
 11
1.0
 21
0.0
 31
0.0
 44
0.9
  1
1/4" BSPP
 40
0.125
 41
1.8
  0
MTEXT
  5
28E
100
AcDbEntity
  8
0
100
AcDbMText
 62
2
  6
CONTINUOUS
  7
STANDARD
 71
2
 72
1
 10
0.65
 20
-1.25025
 30
0.0
 11
1.0
 21
0.0
 31
0.0
 44
0.9
  1
E2U
 40
0.125
 41
0.6
  0
MTEXT
  5
28F
100
AcDbEntity
  8
0
100
AcDbMText
 62
2
  6
CONTINUOUS
  7
STANDARD
 71
2
 72
1
 10
2.3
 20
-1.25025
 30
0.0
 11
1.0
 21
0.0
 31
0.0
 44
0.9
  1
Gage Port
 40
0.125
 41
1.8
  0
MTEXT
  5
290
100
AcDbEntity
  8
0
100
AcDbMText
 62
2
  6
CONTINUOUS
  7
STANDARD
 71
2
 72
1
 10
3.95
 20
-1.25025
 30
0.0
 11
1.0
 21
0.0
 31
0.0
 44
0.9
  1
1/4" BSPP
 40
0.125
 41
1.8
  0
ENDBLK
  5
291
100
AcDbEntity
  8
0
  6
BYBLOCK
 62
0
100
AcDbBlockEnd
  0
ENDSEC
  0
SECTION
  2
ENTITIES
  0
IMAGE
  5
292
100
AcDbEntity
  8
0
100
AcDbRasterImage
 62
7
  6
CONTINUOUS
 10
19.2297077316
 20
0.3094318264
 30
0.0
 11
0.0066666667
 21
0.0
 31
0.0
 12
0.0
 22
0.0066666667
 32
0.0
 13
369.0
 23
92.0
340
       399
 70
9
280
0
281
50
282
50
283
0
360
       393
 71
1
 91
2
 14
-0.5
 24
-0.5
 14
368.5
 24
91.5
  0
INSERT
  5
293
100
AcDbEntity
  8
0
100
AcDbBlockReference
 62
2
  6
CONTINUOUS
  2
SUN_FIRST_THIRD_ANGLE_BL0
 10
20.4816717061
 20
1.2289683772
  0
ACAD_TABLE
  5
294
100
AcDbEntity
  8
0
 62
2
  6
CONTINUOUS
100
AcDbBlockReference
  2
*T1
 10
12.42375
 20
0.30125
 30
0.0
100
AcDbTable
342
       39B
343
20F
 11
1.0
 21
0.0
 31
0.0
 90
6
 91
4
 92
6
 93
20
 94
0
 95
0
 96
0
 70
1
 41
0.0
141
0.525
141
0.1
141
0.525
141
0.1
142
4.1
142
1.1
142
0.7
142
0.5
142
0.4
142
2.475
171
1
172
0
173
0
174
0
175
1
176
1
 91
33
178
0
145
0.0
301
CELL_VALUE
 90
4
  1
T-11A Line mount\P(See Technical Data for Body Features)
304
ACVALUE_END
170
2
140
0.125
171
1
172
0
173
0
174
0
175
1
176
1
 91
33
178
0
145
0.0
301
CELL_VALUE
 90
4
  1
Apr-05-23
304
ACVALUE_END
170
5
140
0.125
171
1
172
0
173
0
174
0
175
1
176
1
 91
33
178
0
145
0.0
301
CELL_VALUE
 90
4
  1
1.000
304
ACVALUE_END
170
5
140
0.125
171
1
172
0
173
0
174
0
175
1
176
1
 91
33
178
0
145
0.0
301
CELL_VALUE
 90
4
  1
C
304
ACVALUE_END
170
5
140
0.125
171
1
172
0
173
0
174
0
175
1
176
1
 91
33
178
0
145
0.0
301
CELL_VALUE
 90
4
  1
2
304
ACVALUE_END
170
5
140
0.125
171
1
172
0
173
0
174
0
175
1
176
1
 91
33
178
0
145
0.0
301
CELL_VALUE
 90
4
  1
 
304
ACVALUE_END
170
1
140
0.125
171
1
172
0
173
0
174
0
175
1
176
1
 91
33
178
0
145
0.0
301
CELL_VALUE
 90
4
  1
DESCRIPTION
304
ACVALUE_END
170
1
140
0.06
171
1
172
0
173
0
174
0
175
1
176
1
 91
33
178
0
145
0.0
301
CELL_VALUE
 90
4
  1
DATE
304
ACVALUE_END
170
1
140
0.06
171
1
172
0
173
0
174
0
175
1
176
1
 91
33
178
0
145
0.0
301
CELL_VALUE
 90
4
  1
SCALE
304
ACVALUE_END
170
1
140
0.06
171
1
172
0
173
0
174
0
175
1
176
1
 91
33
178
0
145
0.0
301
CELL_VALUE
 90
4
  1
DWG SIZE
304
ACVALUE_END
170
1
140
0.06
171
1
172
0
173
0
174
0
175
1
176
1
 91
33
178
0
145
0.0
301
CELL_VALUE
 90
4
  1
SHEET
304
ACVALUE_END
170
1
140
0.06
171
1
172
0
173
0
174
0
175
1
176
1
 91
33
178
0
145
0.0
301
CELL_VALUE
 90
4
  1
 
304
ACVALUE_END
170
1
140
0.125
171
1
172
0
173
0
174
0
175
1
176
1
 91
33
178
0
145
0.0
301
CELL_VALUE
 90
4
  1
E2U
304
ACVALUE_END
170
5
140
0.125
171
1
172
0
173
0
174
0
175
4
176
1
 91
33
178
0
145
0.0
301
CELL_VALUE
 90
4
  1
ALL DIMENSIONS IN INCH\PVIEWS ARE THIRD ANGLE
304
ACVALUE_END
170
5
140
0.12
171
1
172
0
173
1
174
0
175
1
176
1
 91
1
178
0
145
0.0
170
1
171
1
172
0
173
1
174
0
175
1
176
1
 91
1
178
0
145
0.0
170
1
171
1
172
0
173
1
174
0
175
1
176
1
 91
1
178
0
145
0.0
170
5
171
1
172
0
173
0
174
0
175
1
176
1
 91
33
178
0
145
0.0
301
CELL_VALUE
 90
4
  1
 
304
ACVALUE_END
170
1
140
0.125
171
1
172
0
173
0
174
0
175
1
176
1
 91
33
178
0
145
0.0
301
CELL_VALUE
 90
4
  1
MODEL
304
ACVALUE_END
170
1
140
0.06
171
1
172
0
173
0
174
0
175
1
176
1
 91
33
178
0
145
0.0
301
CELL_VALUE
 90
4
  1
 
304
ACVALUE_END
170
1
140
0.125
171
1
172
0
173
0
174
0
175
1
176
1
 91
33
178
0
145
0.0
301
CELL_VALUE
 90
4
  1
 
304
ACVALUE_END
170
1
140
0.125
171
1
172
0
173
0
174
0
175
1
176
1
 91
33
178
0
145
0.0
301
CELL_VALUE
 90
4
  1
 
304
ACVALUE_END
170
1
140
0.125
171
1
172
0
173
0
174
0
175
1
176
1
 91
33
178
0
145
0.0
301
CELL_VALUE
 90
4
  1
 
304
ACVALUE_END
170
1
140
0.125
171
1
172
0
173
0
174
0
175
1
176
1
 91
33
178
0
145
0.0
301
CELL_VALUE
 90
4
  1
 
304
ACVALUE_END
170
1
140
0.125
  0
ACAD_TABLE
  5
295
100
AcDbEntity
  8
0
 62
2
  6
CONTINUOUS
100
AcDbBlockReference
  2
*T2
 10
12.4237499994
 20
16.47875
 30
0.0
100
AcDbTable
342
       39A
343
210
 11
1.0
 21
0.0
 31
0.0
 90
22
 91
11
 92
3
 93
16
 94
0
 95
0
 96
0
 41
0.028
141
0.344
141
0.25
141
0.25
141
0.25
141
0.25
141
0.25
141
0.25
141
0.25
141
0.25
141
0.25
141
0.25
142
3.055
142
3.0
142
3.0
171
1
172
0
173
0
174
0
175
1
176
1
 91
33
178
0
145
0.0
301
CELL_VALUE
 90
4
  1
Technical Data
304
ACVALUE_END
170
5
140
0.145
171
1
172
0
173
0
174
0
175
1
176
1
 91
33
178
0
145
0.0
301
CELL_VALUE
 90
4
  1
U.S. Units
304
ACVALUE_END
170
5
140
0.145
171
1
172
0
173
0
174
0
175
1
176
1
 91
33
178
0
145
0.0
301
CELL_VALUE
 90
4
  1
Metric Units
304
ACVALUE_END
170
5
140
0.145
171
1
172
0
173
0
174
0
175
1
176
1
 91
33
178
0
145
0.0
301
CELL_VALUE
 90
4
  1
Cavity
304
ACVALUE_END
170
5
140
0.125
171
1
172
0
173
0
174
0
175
2
176
1
 91
33
178
0
145
0.0
301
CELL_VALUE
 90
4
  1
T-11A
304
ACVALUE_END
170
5
140
0.125
171
1
172
0
173
1
174
0
175
1
176
1
 91
1
178
0
145
0.0
170
1
171
1
172
0
173
0
174
0
175
1
176
1
 91
33
178
0
145
0.0
301
CELL_VALUE
 90
4
  1
Body Features
304
ACVALUE_END
170
5
140
0.125
171
1
172
0
173
0
174
0
175
2
176
1
 91
33
178
0
145
0.0
301
CELL_VALUE
 90
4
  1
Ninety degree with reverse flow check - reducing
304
ACVALUE_END
170
5
140
0.125
171
1
172
0
173
1
174
0
175
1
176
1
 91
1
178
0
145
0.0
170
1
171
1
172
0
173
0
174
0
175
1
176
1
 91
33
178
0
145
0.0
301
CELL_VALUE
 90
4
  1
Body Type
304
ACVALUE_END
170
5
140
0.125
171
1
172
0
173
0
174
0
175
2
176
1
 91
33
178
0
145
0.0
301
CELL_VALUE
 90
4
  1
Line mount
304
ACVALUE_END
170
5
140
0.125
171
1
172
0
173
1
174
0
175
1
176
1
 91
1
178
0
145
0.0
170
1
171
1
172
0
173
0
174
0
175
1
176
1
 91
33
178
0
145
0.0
301
CELL_VALUE
 90
4
  1
Interface
304
ACVALUE_END
170
5
140
0.125
171
1
172
0
173
0
174
0
175
2
176
1
 91
33
178
0
145
0.0
301
CELL_VALUE
 90
4
  1
None
304
ACVALUE_END
170
5
140
0.125
171
1
172
0
173
1
174
0
175
1
176
1
 91
1
178
0
145
0.0
170
1
171
1
172
0
173
0
174
0
175
1
176
1
 91
33
178
0
145
0.0
301
CELL_VALUE
 90
4
  1
Open Cavity Quantity
304
ACVALUE_END
170
5
140
0.125
171
1
172
0
173
0
174
0
175
2
176
1
 91
33
178
0
145
0.0
301
CELL_VALUE
 90
4
  1
1
304
ACVALUE_END
170
5
140
0.125
171
1
172
0
173
1
174
0
175
1
176
1
 91
1
178
0
145
0.0
170
1
171
1
172
0
173
0
174
0
175
1
176
1
 91
33
178
0
145
0.0
301
CELL_VALUE
 90
4
  1
Weight
304
ACVALUE_END
170
5
140
0.125
171
1
172
0
173
0
174
0
175
1
176
1
 91
33
178
0
145
0.0
301
CELL_VALUE
 90
4
  1
1.229 lb.
304
ACVALUE_END
170
5
140
0.125
171
1
172
0
173
0
174
0
175
1
176
1
 91
33
178
0
145
0.0
301
CELL_VALUE
 90
4
  1
0,557 kg.
304
ACVALUE_END
170
5
140
0.125
171
1
172
0
173
0
174
0
175
1
176
1
 91
33
178
0
145
0.0
301
CELL_VALUE
 90
4
  1
Mounting Hole Diameter
304
ACVALUE_END
170
5
140
0.125
171
1
172
0
173
0
174
0
175
1
176
1
 91
33
178
0
145
0.0
301
CELL_VALUE
 90
4
  1
.34 in.
304
ACVALUE_END
170
5
140
0.125
171
1
172
0
173
0
174
0
175
1
176
1
 91
33
178
0
145
0.0
301
CELL_VALUE
 90
4
  1
8.6 mm
304
ACVALUE_END
170
5
140
0.125
171
1
172
0
173
0
174
0
175
1
176
1
 91
33
178
0
145
0.0
301
CELL_VALUE
 90
4
  1
Mounting Hole Depth
304
ACVALUE_END
170
5
140
0.125
171
1
172
0
173
0
174
0
175
2
176
1
 91
33
178
0
145
0.0
301
CELL_VALUE
 90
4
  1
Through
304
ACVALUE_END
170
5
140
0.125
171
1
172
0
173
1
174
0
175
1
176
1
 91
1
178
0
145
0.0
170
1
171
1
172
0
173
0
174
0
175
1
176
1
 91
33
178
0
145
0.0
301
CELL_VALUE
 90
4
  1
Mounting Hole Quantity
304
ACVALUE_END
170
5
140
0.125
171
1
172
0
173
0
174
0
175
2
176
1
 91
33
178
0
145
0.0
301
CELL_VALUE
 90
4
  1
2
304
ACVALUE_END
170
5
140
0.125
171
1
172
0
173
1
174
0
175
1
176
1
 91
1
178
0
145
0.0
170
1
171
1
172
0
173
0
174
0
175
1
176
1
 91
33
178
0
145
0.0
301
CELL_VALUE
 90
4
  1
Includes integral cartridge(s)
304
ACVALUE_END
170
5
140
0.125
171
1
172
0
173
0
174
0
175
2
176
1
 91
33
178
0
145
0.0
301
CELL_VALUE
 90
4
  1
Yes (see Included Components)
304
ACVALUE_END
170
5
140
0.125
171
1
172
0
173
1
174
0
175
1
176
1
 91
1
178
0
145
0.0
170
1
  0
ACAD_TABLE
  5
296
100
AcDbEntity
  8
0
 62
2
  6
CONTINUOUS
100
AcDbBlockReference
  2
*T3
 10
0.52125
 20
1.959
 30
0.0
100
AcDbTable
342
       39A
343
211
 11
1.0
 21
0.0
 31
0.0
 90
22
 91
5
 92
3
 93
16
 94
0
 95
0
 96
0
 41
0.05
141
0.34375
141
0.344
141
0.25
141
0.25
141
0.25
142
1.3
142
2.0
142
1.3
171
1
172
0
173
0
174
0
175
3
176
1
 91
33
178
0
145
0.0
301
CELL_VALUE
 90
4
  1
Port Headings
304
ACVALUE_END
170
5
140
0.145
171
1
172
0
173
1
174
0
175
1
176
1
 91
1
178
0
145
0.0
170
1
171
1
172
0
173
1
174
0
175
1
176
1
 91
1
178
0
145
0.0
170
1
171
1
172
0
173
0
174
0
175
1
176
1
 91
33
178
0
145
0.0
301
CELL_VALUE
 90
4
  1
Product
304
ACVALUE_END
170
5
140
0.145
171
1
172
0
173
0
174
0
175
1
176
1
 91
33
178
0
145
0.0
301
CELL_VALUE
 90
4
  1
Port
304
ACVALUE_END
170
5
140
0.145
171
1
172
0
173
0
174
0
175
1
176
1
 91
33
178
0
145
0.0
301
CELL_VALUE
 90
4
  1
Size
304
ACVALUE_END
170
5
140
0.145
171
1
172
0
173
0
174
0
175
1
176
1
 91
33
178
0
145
0.0
301
CELL_VALUE
 90
4
  1
E2U
304
ACVALUE_END
170
5
140
0.125
171
1
172
0
173
0
174
0
175
1
176
1
 91
33
178
0
145
0.0
301
CELL_VALUE
 90
4
  1
Ports 1 &  2
304
ACVALUE_END
170
5
140
0.125
171
1
172
0
173
0
174
0
175
1
176
1
 91
33
178
0
145
0.0
301
CELL_VALUE
 90
4
  1
3/8" BSPP
304
ACVALUE_END
170
5
140
0.125
171
1
172
0
173
0
174
0
175
1
176
1
 91
33
178
0
145
0.0
301
CELL_VALUE
 90
4
  1
E2U
304
ACVALUE_END
170
5
140
0.125
171
1
172
0
173
0
174
0
175
1
176
1
 91
33
178
0
145
0.0
301
CELL_VALUE
 90
4
  1
Port 3
304
ACVALUE_END
170
5
140
0.125
171
1
172
0
173
0
174
0
175
1
176
1
 91
33
178
0
145
0.0
301
CELL_VALUE
 90
4
  1
1/4" BSPP
304
ACVALUE_END
170
5
140
0.125
171
1
172
0
173
0
174
0
175
1
176
1
 91
33
178
0
145
0.0
301
CELL_VALUE
 90
4
  1
E2U
304
ACVALUE_END
170
5
140
0.125
171
1
172
0
173
0
174
0
175
1
176
1
 91
33
178
0
145
0.0
301
CELL_VALUE
 90
4
  1
Gage Port
304
ACVALUE_END
170
5
140
0.125
171
1
172
0
173
0
174
0
175
1
176
1
 91
33
178
0
145
0.0
301
CELL_VALUE
 90
4
  1
1/4" BSPP
304
ACVALUE_END
170
5
140
0.125
  0
MTEXT
  5
297
100
AcDbEntity
  8
0
100
AcDbMText
 62
2
  6
CONTINUOUS
  7
STANDARD
 71
1
 72
1
 10
0.52125
 20
5.75995
 30
0.0
 11
1.0
 21
0.0
 31
0.0
 44
0.6
  3
Notes\P \P1. Important: Carefully consider\P   the maximum system pressure. The\P   pressure rating of the manifold is\P   dependent on the manifold material,\P   with the port type/size a secondary\P   consideration. Manifolds\P   constructed of alu
  1
minum are not\P   rated for pressures higher than\P   3000 psi (210 bar), regardless of\P   the port type/size specified.
 40
0.1
 41
3.04
  0
LINE
  5
298
100
AcDbEntity
  8
0
100
AcDbLine
 62
7
  6
CONTINUOUS
 10
0.30125
 20
0.30125
 11
0.30125
 21
16.69875
  0
LINE
  5
299
100
AcDbEntity
  8
0
100
AcDbLine
 62
7
  6
CONTINUOUS
 10
0.30125
 20
0.30125
 11
21.69875
 21
0.30125
  0
LINE
  5
29A
100
AcDbEntity
  8
0
100
AcDbLine
 62
7
  6
CONTINUOUS
 10
0.30125
 20
16.69875
 11
21.69875
 21
16.69875
  0
LINE
  5
29B
100
AcDbEntity
  8
0
100
AcDbLine
 62
7
  6
CONTINUOUS
 10
21.69875
 20
0.30125
 11
21.69875
 21
16.69875
  0
LINE
  5
29C
100
AcDbEntity
  8
0
100
AcDbLine
 62
7
  6
CONTINUOUS
 10
9.7128729444
 20
10.7425635365
 11
9.389349405
 21
10.4300637758
  0
LINE
  5
29D
100
AcDbEntity
  8
0
100
AcDbLine
 62
4
  6
CONTINUOUS
 10
9.6288989878
 20
9.956568046
 11
9.6216545439
 21
9.9474111936
  0
LINE
  5
29E
100
AcDbEntity
  8
0
100
AcDbLine
 62
4
  6
CONTINUOUS
 10
9.6361434318
 20
9.8981100904
 11
9.6216545439
 21
9.8797963812
  0
LINE
  5
29F
100
AcDbEntity
  8
0
100
AcDbLine
 62
4
  6
CONTINUOUS
 10
9.5781878801
 20
9.9794033928
 11
9.592676768
 21
9.9880578413
  0
LINE
  5
2A0
100
AcDbEntity
  8
0
100
AcDbLine
 62
4
  6
CONTINUOUS
 10
9.6216545439
 20
9.9474111936
 11
9.6071656559
 21
9.9387567382
  0
LINE
  5
2A1
100
AcDbEntity
  8
0
100
AcDbLine
 62
4
  6
CONTINUOUS
 10
9.6216545439
 20
9.8797963812
 11
9.6071656559
 21
9.8711419301
  0
LINE
  5
2A2
100
AcDbEntity
  8
0
100
AcDbLine
 62
7
  6
CONTINUOUS
 10
11.2065145113
 20
6.3251270685
 11
11.2228173394
 21
6.3170737835
  0
LINE
  5
2A3
100
AcDbEntity
  8
0
100
AcDbLine
 62
7
  6
CONTINUOUS
 10
9.389349405
 20
6.9285824481
 11
12.2871270556
 21
6.7276208855
  0
LINE
  5
2A4
100
AcDbEntity
  8
0
100
AcDbLine
 62
7
  6
CONTINUOUS
 10
9.389349405
 20
6.9285824481
 11
9.389349405
 21
10.4300637758
  0
LINE
  5
2A5
100
AcDbEntity
  8
0
100
AcDbLine
 62
4
  6
CONTINUOUS
 10
9.6288989878
 20
9.9662273023
 11
9.6288989878
 21
9.956568046
  0
LINE
  5
2A6
100
AcDbEntity
  8
0
100
AcDbLine
 62
4
  6
CONTINUOUS
 10
9.6288989878
 20
7.9184643874
 11
9.6288989878
 21
7.8025532839
  0
LINE
  5
2A7
100
AcDbEntity
  8
0
100
AcDbLine
 62
4
  6
CONTINUOUS
 10
9.6361434318
 20
9.9077693502
 11
9.6361434318
 21
9.8981100904
  0
LINE
  5
2A8
100
AcDbEntity
  8
0
100
AcDbLine
 62
4
  6
CONTINUOUS
 10
11.1748634168
 20
7.137035146
 11
11.1603745288
 21
7.1380399538
  0
LINE
  5
2A9
100
AcDbEntity
  8
0
100
AcDbLine
 62
4
  6
CONTINUOUS
 10
11.1676189728
 20
7.1954931016
 11
11.1965967487
 21
7.193483486
  0
LINE
  5
2AA
100
AcDbEntity
  8
0
100
AcDbLine
 62
4
  6
CONTINUOUS
 10
11.1603745288
 20
7.2539510572
 11
11.1748634168
 21
7.2529462494
  0
LINE
  5
2AB
100
AcDbEntity
  8
0
100
AcDbLine
 62
4
  6
CONTINUOUS
 10
10.2959398651
 20
9.152884735
 11
10.3124985949
 21
9.1682951113
  0
LINE
  5
2AC
100
AcDbEntity
  8
0
100
AcDbLine
 62
4
  6
CONTINUOUS
 10
11.1603745288
 20
7.1380399538
 11
11.1458856409
 21
7.1487040205
  0
LINE
  5
2AD
100
AcDbEntity
  8
0
100
AcDbLine
 62
4
  6
CONTINUOUS
 10
11.1748634168
 20
7.2529462494
 11
11.1893523047
 21
7.2422821853
  0
LINE
  5
2AE
100
AcDbEntity
  8
0
100
AcDbLine
 62
4
  6
CONTINUOUS
 10
10.3373366887
 20
9.0506614802
 11
10.3538954168
 21
9.0660718583
  0
LINE
  5
2AF
100
AcDbEntity
  8
0
100
AcDbLine
 62
4
  6
CONTINUOUS
 10
10.4284097035
 20
9.0443455452
 11
10.4449684247
 21
9.0597559238
  0
LINE
  5
2B0
100
AcDbEntity
  8
0
100
AcDbLine
 62
4
  6
CONTINUOUS
 10
10.2959398651
 20
9.1363260069
 11
10.2959398651
 21
9.152884735
  0
LINE
  5
2B1
100
AcDbEntity
  8
0
100
AcDbLine
 62
4
  6
CONTINUOUS
 10
10.3538954168
 20
9.0660718583
 11
10.3538954168
 21
9.0826305881
  0
LINE
  5
2B2
100
AcDbEntity
  8
0
100
AcDbLine
 62
4
  6
CONTINUOUS
 10
10.387012873
 20
9.1631275285
 11
10.387012873
 21
9.0637751549
  0
LINE
  5
2B3
100
AcDbEntity
  8
0
100
AcDbLine
 62
4
  6
CONTINUOUS
 10
10.4228901335
 20
8.4535817011
 11
10.4228901335
 21
8.5694928046
  0
LINE
  5
2B4
100
AcDbEntity
  8
0
100
AcDbLine
 62
4
  6
CONTINUOUS
 10
10.4449684247
 20
9.0597559238
 11
10.4449684247
 21
9.1591082974
  0
LINE
  5
2B5
100
AcDbEntity
  8
0
100
AcDbLine
 62
4
  6
CONTINUOUS
 10
10.8147800529
 20
9.0920649502
 11
10.8313387741
 21
9.0991959665
  0
LINE
  5
2B6
100
AcDbEntity
  8
0
100
AcDbLine
 62
4
  6
CONTINUOUS
 10
11.1458856409
 20
7.1487040205
 11
11.131396753
 21
7.1690273452
  0
LINE
  5
2B7
100
AcDbEntity
  8
0
100
AcDbLine
 62
4
  6
CONTINUOUS
 10
11.1893523047
 20
7.2422821853
 11
11.1965967487
 21
7.2321205182
  0
LINE
  5
2B8
100
AcDbEntity
  8
0
100
AcDbLine
 62
4
  6
CONTINUOUS
 10
10.4780858808
 20
9.0409004906
 11
10.4780858808
 21
9.156811594
  0
LINE
  5
2B9
100
AcDbEntity
  8
0
100
AcDbLine
 62
4
  6
CONTINUOUS
 10
10.4808456783
 20
8.5489148458
 11
10.4808456783
 21
8.4661212003
  0
LINE
  5
2BA
100
AcDbEntity
  8
0
100
AcDbLine
 62
4
  6
CONTINUOUS
 10
10.5360414326
 20
9.0368812594
 11
10.5360414326
 21
9.1527923628
  0
LINE
  5
2BB
100
AcDbEntity
  8
0
100
AcDbLine
 62
4
  6
CONTINUOUS
 10
10.5277620779
 20
8.4463088071
 11
10.5608795341
 21
8.5599232071
  0
LINE
  5
2BC
100
AcDbEntity
  8
0
100
AcDbLine
 62
4
  6
CONTINUOUS
 10
10.7595842788
 20
8.9937806285
 11
10.7927017212
 21
9.1018754552
  0
LINE
  5
2BD
100
AcDbEntity
  8
0
100
AcDbLine
 62
7
  6
CONTINUOUS
 10
12.2871270556
 20
10.2291022132
 11
12.610650595
 21
10.5416019738
  0
LINE
  5
2BE
100
AcDbEntity
  8
0
100
AcDbLine
 62
4
  6
CONTINUOUS
 10
10.9720879869
 20
9.0397587878
 11
10.988646708
 21
9.0468898006
  0
LINE
  5
2BF
100
AcDbEntity
  8
0
100
AcDbLine
 62
4
  6
CONTINUOUS
 10
10.4642869502
 20
8.5666219256
 11
10.4808456783
 21
8.5489148458
  0
LINE
  5
2C0
100
AcDbEntity
  8
0
100
AcDbLine
 62
4
  6
CONTINUOUS
 10
9.5781878801
 20
9.8828108046
 11
9.5709434361
 21
9.8929724674
  0
LINE
  5
2C1
100
AcDbEntity
  8
0
100
AcDbLine
 62
4
  6
CONTINUOUS
 10
10.5608795341
 20
8.5599232071
 11
10.593997004
 21
8.4417153994
  0
LINE
  5
2C2
100
AcDbEntity
  8
0
100
AcDbLine
 62
4
  6
CONTINUOUS
 10
10.6602318966
 20
9.0282686215
 11
10.6602318966
 21
9.1441797249
  0
LINE
  5
2C3
100
AcDbEntity
  8
0
100
AcDbLine
 62
4
  6
CONTINUOUS
 10
10.6602319163
 20
8.4371219926
 11
10.6602319163
 21
8.553033096
  0
LINE
  5
2C4
100
AcDbEntity
  8
0
100
AcDbLine
 62
4
  6
CONTINUOUS
 10
10.7099080877
 20
9.0993378457
 11
10.7099080877
 21
9.0248235659
  0
LINE
  5
2C5
100
AcDbEntity
  8
0
100
AcDbLine
 62
4
  6
CONTINUOUS
 10
10.7223271197
 20
8.6878201032
 11
10.7223271197
 21
8.8037312066
  0
LINE
  5
2C6
100
AcDbEntity
  8
0
100
AcDbLine
 62
4
  6
CONTINUOUS
 10
10.7264668286
 20
8.4325285858
 11
10.7264668286
 21
8.5484396893
  0
LINE
  5
2C7
100
AcDbEntity
  8
0
100
AcDbLine
 62
4
  6
CONTINUOUS
 10
10.8147800529
 20
9.0258300353
 11
10.8147800529
 21
9.0920649502
  0
LINE
  5
2C8
100
AcDbEntity
  8
0
100
AcDbLine
 62
4
  6
CONTINUOUS
 10
10.821679495
 20
8.796841096
 11
10.805120767
 21
8.7731513521
  0
LINE
  5
2C9
100
AcDbEntity
  8
0
100
AcDbLine
 62
4
  6
CONTINUOUS
 10
10.805120767
 20
8.6820783442
 11
10.8630763187
 21
8.7608527603
  0
LINE
  5
2CA
100
AcDbEntity
  8
0
100
AcDbLine
 62
4
  6
CONTINUOUS
 10
10.4808456783
 20
8.4661212003
 11
10.4642869502
 21
8.4507108222
  0
LINE
  5
2CB
100
AcDbEntity
  8
0
100
AcDbLine
 62
4
  6
CONTINUOUS
 10
11.2563461349
 20
9.0614422384
 11
11.2646254678
 21
9.0691474322
  0
LINE
  5
2CC
100
AcDbEntity
  8
0
100
AcDbLine
 62
4
  6
CONTINUOUS
 10
11.330860463
 20
9.0562746522
 11
11.339139796
 21
9.063979846
  0
LINE
  5
2CD
100
AcDbEntity
  8
0
100
AcDbLine
 62
4
  6
CONTINUOUS
 10
10.9375905916
 20
8.6728915307
 11
10.9541493265
 21
8.6883019083
  0
LINE
  5
2CE
100
AcDbEntity
  8
0
100
AcDbLine
 62
4
  6
CONTINUOUS
 10
10.4008118259
 20
8.5268673322
 11
10.3566552143
 21
8.5078512961
  0
LINE
  5
2CF
100
AcDbEntity
  8
0
100
AcDbLine
 62
4
  6
CONTINUOUS
 10
10.3566552143
 20
8.5078512961
 11
10.4008118259
 21
8.4827107188
  0
LINE
  5
2D0
100
AcDbEntity
  8
0
100
AcDbLine
 62
4
  6
CONTINUOUS
 10
9.6216545439
 20
9.928092674
 11
9.6361434318
 21
9.9077693502
  0
LINE
  5
2D1
100
AcDbEntity
  8
0
100
AcDbLine
 62
4
  6
CONTINUOUS
 10
9.6216545439
 20
9.9763889694
 11
9.6288989878
 21
9.9662273023
  0
LINE
  5
2D2
100
AcDbEntity
  8
0
100
AcDbLine
 62
4
  6
CONTINUOUS
 10
10.4780858808
 20
9.156811594
 11
10.5360414326
 21
9.0368812594
  0
LINE
  5
2D3
100
AcDbEntity
  8
0
100
AcDbLine
 62
4
  6
CONTINUOUS
 10
11.131396753
 20
7.1690273452
 11
11.124152309
 21
7.198507525
  0
LINE
  5
2D4
100
AcDbEntity
  8
0
100
AcDbLine
 62
4
  6
CONTINUOUS
 10
10.8630763187
 20
8.7608527603
 11
10.8630763187
 21
8.7774114884
  0
LINE
  5
2D5
100
AcDbEntity
  8
0
100
AcDbLine
 62
4
  6
CONTINUOUS
 10
10.8644562164
 20
9.1300167202
 11
10.8644562164
 21
9.0141056168
  0
LINE
  5
2D6
100
AcDbEntity
  8
0
100
AcDbLine
 62
4
  6
CONTINUOUS
 10
10.8961937748
 20
8.7916735131
 11
10.8961937748
 21
8.6923211395
  0
LINE
  5
2D7
100
AcDbEntity
  8
0
100
AcDbLine
 62
4
  6
CONTINUOUS
 10
10.897573714
 20
9.0118089105
 11
10.897573714
 21
9.0946025578
  0
LINE
  5
2D8
100
AcDbEntity
  8
0
100
AcDbLine
 62
4
  6
CONTINUOUS
 10
10.9003335114
 20
8.4370296202
 11
10.9003335114
 21
8.5198232658
  0
LINE
  5
2D9
100
AcDbEntity
  8
0
100
AcDbLine
 62
4
  6
CONTINUOUS
 10
10.9362107116
 20
9.0836437054
 11
10.9362107116
 21
9.0670849774
  0
LINE
  5
2DA
100
AcDbEntity
  8
0
100
AcDbLine
 62
4
  6
CONTINUOUS
 10
10.9541493265
 20
8.6883019083
 11
10.9541493265
 21
8.787654282
  0
LINE
  5
2DB
100
AcDbEntity
  8
0
100
AcDbLine
 62
4
  6
CONTINUOUS
 10
10.9720879869
 20
9.0149206931
 11
10.9720879869
 21
9.0397587878
  0
LINE
  5
2DC
100
AcDbEntity
  8
0
100
AcDbLine
 62
4
  6
CONTINUOUS
 10
10.9969260608
 20
8.4303309042
 11
10.9969260608
 21
8.5131245497
  0
LINE
  5
2DD
100
AcDbEntity
  8
0
100
AcDbLine
 62
4
  6
CONTINUOUS
 10
11.0217641504
 20
9.0031962745
 11
11.0217641504
 21
9.0694311937
  0
LINE
  5
2DE
100
AcDbEntity
  8
0
100
AcDbLine
 62
4
  6
CONTINUOUS
 10
11.2149493043
 20
9.105709942
 11
11.2121895267
 21
9.0976219658
  0
LINE
  5
2DF
100
AcDbEntity
  8
0
100
AcDbLine
 62
4
  6
CONTINUOUS
 10
11.3722572383
 20
8.9788894963
 11
11.3805365713
 21
8.9865946875
  0
LINE
  5
2E0
100
AcDbEntity
  8
0
100
AcDbLine
 62
4
  6
CONTINUOUS
 10
10.9003335114
 20
8.5198232658
 11
10.9168922326
 21
8.5352336426
  0
LINE
  5
2E1
100
AcDbEntity
  8
0
100
AcDbLine
 62
4
  6
CONTINUOUS
 10
10.9969260608
 20
8.5131245497
 11
11.0134847819
 21
8.5285349266
  0
LINE
  5
2E2
100
AcDbEntity
  8
0
100
AcDbLine
 62
4
  6
CONTINUOUS
 10
11.1293958854
 20
8.4045853608
 11
11.0879990548
 21
8.4074562408
  0
LINE
  5
2E3
100
AcDbEntity
  8
0
100
AcDbLine
 62
4
  6
CONTINUOUS
 10
11.0383228913
 20
8.4109012944
 11
11.0134847819
 21
8.4126238232
  0
LINE
  5
2E4
100
AcDbEntity
  8
0
100
AcDbLine
 62
4
  6
CONTINUOUS
 10
10.9500096749
 20
8.4170258368
 11
10.9168922326
 21
8.4193225392
  0
LINE
  5
2E5
100
AcDbEntity
  8
0
100
AcDbLine
 62
4
  6
CONTINUOUS
 10
10.4642869502
 20
8.4507108222
 11
10.4228901335
 21
8.4535817011
  0
LINE
  5
2E6
100
AcDbEntity
  8
0
100
AcDbLine
 62
4
  6
CONTINUOUS
 10
10.7264668286
 20
8.4325285858
 11
10.7761430198
 21
8.4290835303
  0
LINE
  5
2E7
100
AcDbEntity
  8
0
100
AcDbLine
 62
4
  6
CONTINUOUS
 10
11.1928710477
 20
8.4001833434
 11
11.2425472112
 21
8.3967382897
  0
LINE
  5
2E8
100
AcDbEntity
  8
0
100
AcDbLine
 62
4
  6
CONTINUOUS
 10
10.53880123
 20
8.4786606989
 11
10.5829578382
 21
8.4755984277
  0
LINE
  5
2E9
100
AcDbEntity
  8
0
100
AcDbLine
 62
4
  6
CONTINUOUS
 10
11.22598849
 20
8.4641215602
 11
11.1928710477
 21
8.4664182626
  0
LINE
  5
2EA
100
AcDbEntity
  8
0
100
AcDbLine
 62
4
  6
CONTINUOUS
 10
10.7595842986
 20
8.4964668007
 11
10.7264668286
 21
8.498763505
  0
LINE
  5
2EB
100
AcDbEntity
  8
0
100
AcDbLine
 62
4
  6
CONTINUOUS
 10
10.3538954168
 20
9.0826305881
 11
10.2959398651
 21
9.1363260069
  0
LINE
  5
2EC
100
AcDbEntity
  8
0
100
AcDbLine
 62
4
  6
CONTINUOUS
 10
10.2959398651
 20
9.0618117246
 11
10.30421923
 21
9.0529581838
  0
LINE
  5
2ED
100
AcDbEntity
  8
0
100
AcDbLine
 62
4
  6
CONTINUOUS
 10
10.9168922326
 20
8.4193225392
 11
10.9003335114
 21
8.4370296202
  0
LINE
  5
2EE
100
AcDbEntity
  8
0
100
AcDbLine
 62
4
  6
CONTINUOUS
 10
10.387012873
 20
9.0637751549
 11
10.403571601
 21
9.0460680734
  0
LINE
  5
2EF
100
AcDbEntity
  8
0
100
AcDbLine
 62
4
  6
CONTINUOUS
 10
11.0134847819
 20
8.4126238232
 11
10.9969260608
 21
8.4303309042
  0
LINE
  5
2F0
100
AcDbEntity
  8
0
100
AcDbLine
 62
4
  6
CONTINUOUS
 10
10.3456160528
 20
9.1659984078
 11
10.3538954168
 21
9.1571448644
  0
LINE
  5
2F1
100
AcDbEntity
  8
0
100
AcDbLine
 62
4
  6
CONTINUOUS
 10
10.7430255577
 20
9.1053205089
 11
10.7678636671
 21
9.0208043328
  0
LINE
  5
2F2
100
AcDbEntity
  8
0
100
AcDbLine
 62
4
  6
CONTINUOUS
 10
11.0548815927
 20
9.0836932194
 11
11.0548815927
 21
9.009178937
  0
LINE
  5
2F3
100
AcDbEntity
  8
0
100
AcDbLine
 62
4
  6
CONTINUOUS
 10
11.0548816125
 20
8.5091053186
 11
11.0548816125
 21
8.426311673
  0
LINE
  5
2F4
100
AcDbEntity
  8
0
100
AcDbLine
 62
4
  6
CONTINUOUS
 10
11.0879990548
 20
8.4074562408
 11
11.0879990548
 21
8.5233673442
  0
LINE
  5
2F5
100
AcDbEntity
  8
0
100
AcDbLine
 62
4
  6
CONTINUOUS
 10
11.1045578115
 20
8.9974545146
 11
11.1045578115
 21
9.0802481619
  0
LINE
  5
2F6
100
AcDbEntity
  8
0
100
AcDbLine
 62
7
  6
CONTINUOUS
 10
11.1245682596
 20
6.8082446118
 11
11.1245682596
 21
6.4269207276
  0
LINE
  5
2F7
100
AcDbEntity
  8
0
100
AcDbLine
 62
4
  6
CONTINUOUS
 10
11.1376752538
 20
9.0034371771
 11
11.1376752538
 21
9.1110689156
  0
LINE
  5
2F8
100
AcDbEntity
  8
0
100
AcDbLine
 62
4
  6
CONTINUOUS
 10
11.1459546065
 20
8.502789385
 11
11.1459546065
 21
8.4199957394
  0
LINE
  5
2F9
100
AcDbEntity
  8
0
100
AcDbLine
 62
4
  6
CONTINUOUS
 10
11.1928710477
 20
8.4001833434
 11
11.1928710477
 21
8.5160944468
  0
LINE
  5
2FA
100
AcDbEntity
  8
0
100
AcDbLine
 62
4
  6
CONTINUOUS
 10
11.1965967487
 20
7.193483486
 11
11.1965967487
 21
7.1548464521
  0
LINE
  5
2FB
100
AcDbEntity
  8
0
100
AcDbLine
 62
4
  6
CONTINUOUS
 10
11.0548816125
 20
8.426311673
 11
11.0383228913
 21
8.4109012944
  0
LINE
  5
2FC
100
AcDbEntity
  8
0
100
AcDbLine
 62
4
  6
CONTINUOUS
 10
11.1459546065
 20
8.4199957394
 11
11.1293958854
 21
8.4045853608
  0
LINE
  5
2FD
100
AcDbEntity
  8
0
100
AcDbLine
 62
4
  6
CONTINUOUS
 10
11.3198212617
 20
8.4410555038
 11
11.2756646535
 21
8.4220394692
  0
LINE
  5
2FE
100
AcDbEntity
  8
0
100
AcDbLine
 62
4
  6
CONTINUOUS
 10
10.4228901335
 20
8.5694928046
 11
10.4642869502
 21
8.5666219256
  0
LINE
  5
2FF
100
AcDbEntity
  8
0
100
AcDbLine
 62
4
  6
CONTINUOUS
 10
10.6271144464
 20
8.5553298004
 11
10.6933493587
 21
8.5507363936
  0
LINE
  5
300
100
AcDbEntity
  8
0
100
AcDbLine
 62
4
  6
CONTINUOUS
 10
10.7264668286
 20
8.5484396893
 11
10.7761430198
 21
8.5449946337
  0
LINE
  5
301
100
AcDbEntity
  8
0
100
AcDbLine
 62
4
  6
CONTINUOUS
 10
10.9168922326
 20
8.5352336426
 11
10.9500096749
 21
8.5329369402
  0
LINE
  5
302
100
AcDbEntity
  8
0
100
AcDbLine
 62
4
  6
CONTINUOUS
 10
11.0134847819
 20
8.5285349266
 11
11.0383228913
 21
8.5268123979
  0
LINE
  5
303
100
AcDbEntity
  8
0
100
AcDbLine
 62
4
  6
CONTINUOUS
 10
11.0879990548
 20
8.5233673442
 11
11.1293958854
 21
8.5204964643
  0
LINE
  5
304
100
AcDbEntity
  8
0
100
AcDbLine
 62
4
  6
CONTINUOUS
 10
11.1928710477
 20
8.5160944468
 11
11.2425472112
 21
8.5126493932
  0
LINE
  5
305
100
AcDbEntity
  8
0
100
AcDbLine
 62
4
  6
CONTINUOUS
 10
10.8630763187
 20
8.6780591131
 11
10.805120767
 21
8.6820783442
  0
LINE
  5
306
100
AcDbEntity
  8
0
100
AcDbLine
 62
4
  6
CONTINUOUS
 10
10.7223271197
 20
8.6878201032
 11
10.7720033074
 21
8.6843750479
  0
LINE
  5
307
100
AcDbEntity
  8
0
100
AcDbLine
 62
4
  6
CONTINUOUS
 10
10.9127525098
 20
8.6746140575
 11
10.9375905916
 21
8.6728915307
  0
LINE
  5
308
100
AcDbEntity
  8
0
100
AcDbLine
 62
4
  6
CONTINUOUS
 10
11.2756646535
 20
8.4661960825
 11
11.3198212617
 21
8.4410555038
  0
LINE
  5
309
100
AcDbEntity
  8
0
100
AcDbLine
 62
4
  6
CONTINUOUS
 10
11.0383228913
 20
8.5268123979
 11
11.0548816125
 21
8.5091053186
  0
LINE
  5
30A
100
AcDbEntity
  8
0
100
AcDbLine
 62
4
  6
CONTINUOUS
 10
10.8961937748
 20
8.6923211395
 11
10.9127525098
 21
8.6746140575
  0
LINE
  5
30B
100
AcDbEntity
  8
0
100
AcDbLine
 62
4
  6
CONTINUOUS
 10
10.8630763187
 20
8.7774114884
 11
10.8465175837
 21
8.7951185687
  0
LINE
  5
30C
100
AcDbEntity
  8
0
100
AcDbLine
 62
4
  6
CONTINUOUS
 10
11.1293958854
 20
8.5204964643
 11
11.1459546065
 21
8.502789385
  0
LINE
  5
30D
100
AcDbEntity
  8
0
100
AcDbLine
 62
4
  6
CONTINUOUS
 10
10.7016287271
 20
9.1081913888
 11
10.7099080877
 21
9.0993378457
  0
LINE
  5
30E
100
AcDbEntity
  8
0
100
AcDbLine
 62
4
  6
CONTINUOUS
 10
11.2121895267
 20
8.9899902298
 11
11.2121895267
 21
9.0727838771
  0
LINE
  5
30F
100
AcDbEntity
  8
0
100
AcDbLine
 62
4
  6
CONTINUOUS
 10
11.2121895267
 20
9.0976219658
 11
11.2121895267
 21
9.1059013332
  0
LINE
  5
310
100
AcDbEntity
  8
0
100
AcDbLine
 62
7
  6
CONTINUOUS
 10
11.2376230716
 20
6.7383175774
 11
11.2376230716
 21
6.3177183517
  0
LINE
  5
311
100
AcDbEntity
  8
0
100
AcDbLine
 62
4
  6
CONTINUOUS
 10
11.2563461349
 20
8.9952073235
 11
11.2563461349
 21
9.0614422384
  0
LINE
  5
312
100
AcDbEntity
  8
0
100
AcDbLine
 62
7
  6
CONTINUOUS
 10
11.2795032991
 20
6.7274781907
 11
11.2795032991
 21
6.3068789649
  0
LINE
  5
313
100
AcDbEntity
  8
0
100
AcDbLine
 62
4
  6
CONTINUOUS
 10
11.330860463
 20
9.0314365601
 11
11.330860463
 21
9.0562746522
  0
LINE
  5
314
100
AcDbEntity
  8
0
100
AcDbLine
 62
4
  6
CONTINUOUS
 10
11.3805365713
 20
8.9865946875
 11
11.3805365713
 21
9.0114327822
  0
LINE
  5
315
100
AcDbEntity
  8
0
100
AcDbLine
 62
4
  6
CONTINUOUS
 10
12.1127774397
 20
8.8676467311
 11
12.1272663276
 21
8.8763011796
  0
LINE
  5
316
100
AcDbEntity
  8
0
100
AcDbLine
 62
4
  6
CONTINUOUS
 10
12.1562441035
 20
8.8259952686
 11
12.1272663276
 21
8.8086863681
  0
LINE
  5
317
100
AcDbEntity
  8
0
100
AcDbLine
 62
4
  6
CONTINUOUS
 10
10.7554445793
 20
8.7517583188
 11
10.7223271197
 21
8.7540550224
  0
LINE
  5
318
100
AcDbEntity
  8
0
100
AcDbLine
 62
4
  6
CONTINUOUS
 10
10.8465175837
 20
8.7951185687
 11
10.821679495
 21
8.796841096
  0
LINE
  5
319
100
AcDbEntity
  8
0
100
AcDbLine
 62
4
  6
CONTINUOUS
 10
10.7223271197
 20
8.8037312066
 11
10.7720033074
 21
8.8002861513
  0
LINE
  5
31A
100
AcDbEntity
  8
0
100
AcDbLine
 62
4
  6
CONTINUOUS
 10
12.1055329957
 20
8.7618972879
 11
12.1634885474
 21
8.7578780567
  0
LINE
  5
31B
100
AcDbEntity
  8
0
100
AcDbLine
 62
4
  6
CONTINUOUS
 10
10.8313387741
 20
9.0164023192
 11
10.8147800529
 21
9.0258300353
  0
LINE
  5
31C
100
AcDbEntity
  8
0
100
AcDbLine
 62
4
  6
CONTINUOUS
 10
9.592676768
 20
9.8721467379
 11
9.5781878801
 21
9.8828108046
  0
LINE
  5
31D
100
AcDbEntity
  8
0
100
AcDbLine
 62
4
  6
CONTINUOUS
 10
9.6071656559
 20
9.9387567382
 11
9.6216545439
 21
9.928092674
  0
LINE
  5
31E
100
AcDbEntity
  8
0
100
AcDbLine
 62
4
  6
CONTINUOUS
 10
9.6071656559
 20
9.9870530336
 11
9.6216545439
 21
9.9763889694
  0
LINE
  5
31F
100
AcDbEntity
  8
0
100
AcDbLine
 62
4
  6
CONTINUOUS
 10
11.0548815927
 20
9.009178937
 11
11.0631609809
 21
9.0003253946
  0
LINE
  5
320
100
AcDbEntity
  8
0
100
AcDbLine
 62
4
  6
CONTINUOUS
 10
10.9306911563
 20
9.0923058554
 11
10.9362107116
 21
9.0836437054
  0
LINE
  5
321
100
AcDbEntity
  8
0
100
AcDbLine
 62
4
  6
CONTINUOUS
 10
11.0217641504
 20
9.0694311937
 11
11.0134848174
 21
9.0865640955
  0
LINE
  5
322
100
AcDbEntity
  8
0
100
AcDbLine
 62
4
  6
CONTINUOUS
 10
11.124152309
 20
7.198507525
 11
11.131396753
 21
7.226982897
  0
LINE
  5
323
100
AcDbEntity
  8
0
100
AcDbLine
 62
7
  6
CONTINUOUS
 10
12.4342532587
 20
9.2010437163
 11
12.4334340104
 21
9.2002669386
  0
LINE
  5
324
100
AcDbEntity
  8
0
100
AcDbLine
 62
4
  6
CONTINUOUS
 10
12.1272663276
 20
8.8763011796
 11
12.1417552155
 21
8.8752963718
  0
LINE
  5
325
100
AcDbEntity
  8
0
100
AcDbLine
 62
4
  6
CONTINUOUS
 10
10.7430255577
 20
8.9949289797
 11
10.7595842788
 21
8.9937806285
  0
LINE
  5
326
100
AcDbEntity
  8
0
100
AcDbLine
 62
4
  6
CONTINUOUS
 10
11.2977430207
 20
8.9840570748
 11
11.2646254678
 21
8.9863537849
  0
LINE
  5
327
100
AcDbEntity
  8
0
100
AcDbLine
 62
4
  6
CONTINUOUS
 10
11.1625133632
 20
8.9934352835
 11
11.145954642
 21
8.9945836347
  0
LINE
  5
328
100
AcDbEntity
  8
0
100
AcDbLine
 62
4
  6
CONTINUOUS
 10
11.0217641504
 20
9.0031962745
 11
10.988646708
 21
9.0054929769
  0
LINE
  5
329
100
AcDbEntity
  8
0
100
AcDbLine
 62
4
  6
CONTINUOUS
 10
10.8644562164
 20
9.0141056168
 11
10.8313387741
 21
9.0164023192
  0
LINE
  5
32A
100
AcDbEntity
  8
0
100
AcDbLine
 62
4
  6
CONTINUOUS
 10
10.30421923
 20
9.0529581838
 11
10.3373366887
 21
9.0506614802
  0
LINE
  5
32B
100
AcDbEntity
  8
0
100
AcDbLine
 62
4
  6
CONTINUOUS
 10
10.403571601
 20
9.0460680734
 11
10.4284097035
 21
9.0443455452
  0
LINE
  5
32C
100
AcDbEntity
  8
0
100
AcDbLine
 62
4
  6
CONTINUOUS
 10
11.0631609809
 20
9.0003253946
 11
11.1045578115
 21
8.9974545146
  0
LINE
  5
32D
100
AcDbEntity
  8
0
100
AcDbLine
 62
4
  6
CONTINUOUS
 10
11.339139796
 20
8.9811861987
 11
11.3722572383
 21
8.9788894963
  0
LINE
  5
32E
100
AcDbEntity
  8
0
100
AcDbLine
 62
4
  6
CONTINUOUS
 10
10.988646708
 20
9.0468898006
 11
11.0217641504
 21
9.0445930982
  0
LINE
  5
32F
100
AcDbEntity
  8
0
100
AcDbLine
 62
4
  6
CONTINUOUS
 10
10.988646708
 20
9.0054929769
 11
10.9720879869
 21
9.0149206931
  0
LINE
  5
330
100
AcDbEntity
  8
0
100
AcDbLine
 62
4
  6
CONTINUOUS
 10
11.145954642
 20
8.9945836347
 11
11.1376752538
 21
9.0034371771
  0
LINE
  5
331
100
AcDbEntity
  8
0
100
AcDbLine
 62
4
  6
CONTINUOUS
 10
11.2646254678
 20
8.9863537849
 11
11.2563461349
 21
8.9952073235
  0
LINE
  5
332
100
AcDbEntity
  8
0
100
AcDbLine
 62
4
  6
CONTINUOUS
 10
11.330860463
 20
8.9900397373
 11
11.339139796
 21
8.9811861987
  0
LINE
  5
333
100
AcDbEntity
  8
0
100
AcDbLine
 62
7
  6
CONTINUOUS
 10
11.701429278
 20
6.6982175246
 11
11.701429278
 21
6.2776182989
  0
LINE
  5
334
100
AcDbEntity
  8
0
100
AcDbLine
 62
7
  6
CONTINUOUS
 10
11.7586387166
 20
6.7021850197
 11
11.7586387166
 21
6.281585794
  0
LINE
  5
335
100
AcDbEntity
  8
0
100
AcDbLine
 62
4
  6
CONTINUOUS
 10
12.1055329957
 20
8.8584898717
 11
12.1127774397
 21
8.8676467311
  0
LINE
  5
336
100
AcDbEntity
  8
0
100
AcDbLine
 62
4
  6
CONTINUOUS
 10
12.1272663276
 20
8.8086863681
 11
12.1127774397
 21
8.7903726598
  0
LINE
  5
337
100
AcDbEntity
  8
0
100
AcDbLine
 62
4
  6
CONTINUOUS
 10
12.1634885474
 20
8.8351521279
 11
12.1562441035
 21
8.8259952686
  0
LINE
  5
338
100
AcDbEntity
  8
0
100
AcDbLine
 62
4
  6
CONTINUOUS
 10
11.0134848174
 20
9.0865640955
 11
10.9720879869
 21
9.0894349754
  0
LINE
  5
339
100
AcDbEntity
  8
0
100
AcDbLine
 62
4
  6
CONTINUOUS
 10
10.6602318966
 20
9.1110622688
 11
10.7016287271
 21
9.1081913888
  0
LINE
  5
33A
100
AcDbEntity
  8
0
100
AcDbLine
 62
4
  6
CONTINUOUS
 10
10.8313387741
 20
9.0991959665
 11
10.8644562164
 21
9.0968992641
  0
LINE
  5
33B
100
AcDbEntity
  8
0
100
AcDbLine
 62
4
  6
CONTINUOUS
 10
10.897573714
 20
9.0946025578
 11
10.9306911563
 21
9.0923058554
  0
LINE
  5
33C
100
AcDbEntity
  8
0
100
AcDbLine
 62
4
  6
CONTINUOUS
 10
11.2646254678
 20
9.0691474322
 11
11.2977430207
 21
9.0668507221
  0
LINE
  5
33D
100
AcDbEntity
  8
0
100
AcDbLine
 62
4
  6
CONTINUOUS
 10
11.339139796
 20
9.063979846
 11
11.3722572383
 21
9.0616831436
  0
LINE
  5
33E
100
AcDbEntity
  8
0
100
AcDbLine
 62
4
  6
CONTINUOUS
 10
10.3124985949
 20
9.1682951113
 11
10.3456160528
 21
9.1659984078
  0
LINE
  5
33F
100
AcDbEntity
  8
0
100
AcDbLine
 62
4
  6
CONTINUOUS
 10
11.2121895267
 20
9.1059013332
 11
11.2149493043
 21
9.105709942
  0
LINE
  5
340
100
AcDbEntity
  8
0
100
AcDbLine
 62
4
  6
CONTINUOUS
 10
11.3722572383
 20
9.0175265319
 11
11.339139796
 21
9.0253428104
  0
LINE
  5
341
100
AcDbEntity
  8
0
100
AcDbLine
 62
4
  6
CONTINUOUS
 10
11.339139796
 20
9.0253428104
 11
11.330860463
 21
9.0314365601
  0
LINE
  5
342
100
AcDbEntity
  8
0
100
AcDbLine
 62
4
  6
CONTINUOUS
 10
11.3805365713
 20
9.0114327822
 11
11.3722572383
 21
9.0175265319
  0
LINE
  5
343
100
AcDbEntity
  8
0
100
AcDbLine
 62
4
  6
CONTINUOUS
 10
11.3722572383
 20
9.0616831436
 11
11.3805365713
 21
9.0528296024
  0
LINE
  5
344
100
AcDbEntity
  8
0
100
AcDbLine
 62
4
  6
CONTINUOUS
 10
11.131396753
 20
7.226982897
 11
11.1458856409
 21
7.2452966087
  0
LINE
  5
345
100
AcDbEntity
  8
0
100
AcDbLine
 62
7
  6
CONTINUOUS
 10
12.0675098836
 20
6.7428513881
 11
12.0675098836
 21
6.3615275038
  0
LINE
  5
346
100
AcDbEntity
  8
0
100
AcDbLine
 62
7
  6
CONTINUOUS
 10
12.0828390948
 20
6.7417883037
 11
12.0828390948
 21
6.3763343857
  0
LINE
  5
347
100
AcDbEntity
  8
0
100
AcDbLine
 62
4
  6
CONTINUOUS
 10
12.1127774397
 20
8.7903726598
 11
12.1055329957
 21
8.7618972879
  0
LINE
  5
348
100
AcDbEntity
  8
0
100
AcDbLine
 62
4
  6
CONTINUOUS
 10
11.1965967487
 20
7.1548464521
 11
11.1893523047
 21
7.1456895971
  0
LINE
  5
349
100
AcDbEntity
  8
0
100
AcDbLine
 62
4
  6
CONTINUOUS
 10
12.1417552155
 20
8.8752963718
 11
12.1562441035
 21
8.8646323077
  0
LINE
  5
34A
100
AcDbEntity
  8
0
100
AcDbLine
 62
4
  6
CONTINUOUS
 10
12.1634885474
 20
8.8544706406
 11
12.1634885474
 21
8.8351521279
  0
LINE
  5
34B
100
AcDbEntity
  8
0
100
AcDbLine
 62
7
  6
CONTINUOUS
 10
12.2871270556
 20
6.7276208855
 11
12.2871270556
 21
10.2291022132
  0
LINE
  5
34C
100
AcDbEntity
  8
0
100
AcDbLine
 62
4
  6
CONTINUOUS
 10
11.1458856409
 20
7.2452966087
 11
11.1603745288
 21
7.2539510572
  0
LINE
  5
34D
100
AcDbEntity
  8
0
100
AcDbLine
 62
4
  6
CONTINUOUS
 10
11.1893523047
 20
7.1456895971
 11
11.1748634168
 21
7.137035146
  0
LINE
  5
34E
100
AcDbEntity
  8
0
100
AcDbLine
 62
4
  6
CONTINUOUS
 10
9.6071656559
 20
9.8711419301
 11
9.592676768
 21
9.8721467379
  0
LINE
  5
34F
100
AcDbEntity
  8
0
100
AcDbLine
 62
4
  6
CONTINUOUS
 10
12.1562441035
 20
8.8646323077
 11
12.1634885474
 21
8.8544706406
  0
LINE
  5
350
100
AcDbEntity
  8
0
100
AcDbLine
 62
4
  6
CONTINUOUS
 10
9.592676768
 20
9.9397615459
 11
9.6071656559
 21
9.9387567382
  0
LINE
  5
351
100
AcDbEntity
  8
0
100
AcDbLine
 62
4
  6
CONTINUOUS
 10
9.592676768
 20
9.9880578413
 11
9.6071656559
 21
9.9870530336
  0
LINE
  5
352
100
AcDbEntity
  8
0
100
AcDbLine
 62
7
  6
CONTINUOUS
 10
12.610650595
 20
7.0401206461
 11
12.610650595
 21
10.5416019738
  0
LINE
  5
353
100
AcDbEntity
  8
0
100
AcDbLine
 62
7
  6
CONTINUOUS
 10
9.389349405
 20
10.4300637758
 11
12.2871270556
 21
10.2291022132
  0
LINE
  5
354
100
AcDbEntity
  8
0
100
AcDbLine
 62
7
  6
CONTINUOUS
 10
12.2871270556
 20
6.7276208855
 11
12.610650595
 21
7.0401206461
  0
LINE
  5
355
100
AcDbEntity
  8
0
100
AcDbLine
 62
7
  6
CONTINUOUS
 10
12.610650595
 20
10.5416019738
 11
9.7128729444
 21
10.7425635365
  0
LINE
  5
356
100
AcDbEntity
  8
0
100
AcDbLine
 62
7
  6
CONTINUOUS
 10
12.0097556245
 20
6.3295051128
 11
11.984590015
 21
6.3170737835
  0
ARC
  5
357
100
AcDbEntity
  8
0
100
AcDbCircle
 62
7
  6
CONTINUOUS
 10
11.6115059339
 20
8.4093209719
 40
1.7134646816
100
AcDbArc
 50
273.0082884861
 51
274.9259735842
  0
ARC
  5
358
100
AcDbEntity
  8
0
100
AcDbCircle
 62
7
  6
CONTINUOUS
 10
11.6115059339
 20
7.9887217461
 40
1.7134646816
100
AcDbArc
 50
273.0082884861
 51
274.9259735842
  0
ARC
  5
359
100
AcDbEntity
  8
0
100
AcDbCircle
 62
7
  6
CONTINUOUS
 10
11.7472714954
 20
6.860440605
 40
0.5922756118
100
AcDbArc
 50
293.5909107106
 51
296.3039528614
  0
ARC
  5
35A
100
AcDbEntity
  8
0
100
AcDbCircle
 62
7
  6
CONTINUOUS
 10
12.4190766308
 20
9.1593250118
 40
0.0190272897
100
AcDbArc
 50
86.0666590647
 51
96.8902592653
  0
ARC
  5
35B
100
AcDbEntity
  8
0
100
AcDbCircle
 62
7
  6
CONTINUOUS
 10
12.3801983655
 20
8.5987210825
 40
0.0190222684
100
AcDbArc
 50
255.3340835033
 51
265.9998373141
  0
SPLINE
  5
35C
100
AcDbEntity
  8
0
100
AcDbSpline
 62
7
  6
CONTINUOUS
 70
0
 71
3
 72
9
 73
5
 74
0
 42
0.0000001
 43
0.0000001
 44
0.0000000001
 40
0.0
 40
0.0
 40
0.0
 40
0.0
 40
0.4865082157
 40
1.0
 40
1.0
 40
1.0
 40
1.0
 10
12.0760414342
 20
6.3688708219
 30
0.0
 10
12.0747279642
 20
6.3676021072
 30
0.0
 10
12.0719468229
 20
6.3650777023
 30
0.0
 10
12.0690335169
 20
6.3627079979
 30
0.0
 10
12.0675098836
 20
6.3615275038
 30
0.0
  0
SPLINE
  5
35D
100
AcDbEntity
  8
0
100
AcDbSpline
 62
7
  6
CONTINUOUS
 70
0
 71
3
 72
9
 73
5
 74
0
 42
0.0000001
 43
0.0000001
 44
0.0000000001
 40
0.0
 40
0.0
 40
0.0
 40
0.0
 40
0.4864210225
 40
1.0
 40
1.0
 40
1.0
 40
1.0
 10
12.0828390948
 20
6.3763343857
 30
0.0
 10
12.0818253878
 20
6.3750480356
 30
0.0
 10
12.0796388976
 20
6.3724832508
 30
0.0
 10
12.0772851785
 20
6.3700721867
 30
0.0
 10
12.0760414342
 20
6.3688708219
 30
0.0
  0
SPLINE
  5
35E
100
AcDbEntity
  8
0
100
AcDbSpline
 62
7
  6
CONTINUOUS
 70
0
 71
3
 72
9
 73
5
 74
0
 42
0.0000001
 43
0.0000001
 44
0.0000000001
 40
0.0
 40
0.0
 40
0.0
 40
0.0
 40
0.503991706
 40
1.0
 40
1.0
 40
1.0
 40
1.0
 10
12.0675098836
 20
6.3615275038
 30
0.0
 10
12.0580365361
 20
6.3557386286
 30
0.0
 10
12.0390211191
 20
6.3446054483
 30
0.0
 10
12.0195244542
 20
6.3343309348
 30
0.0
 10
12.0097283871
 20
6.3294916617
 30
0.0
  0
SPLINE
  5
35F
100
AcDbEntity
  8
0
100
AcDbSpline
 62
7
  6
CONTINUOUS
 70
0
 71
3
 72
23
 73
19
 74
0
 42
0.0000001
 43
0.0000001
 44
0.0000000001
 40
0.0
 40
0.0
 40
0.0
 40
0.0
 40
0.0439943064
 40
0.0899281819
 40
0.1380403338
 40
0.1885309998
 40
0.2415683448
 40
0.2972701743
 40
0.3557174883
 40
0.4169406608
 40
0.4809367475
 40
0.5476614984
 40
0.617045644
 40
0.688992165
 40
0.7633891149
 40
0.8401121098
 40
0.9190285012
 40
1.0
 40
1.0
 40
1.0
 40
1.0
 10
11.206515405
 20
6.3251266269
 30
0.0
 10
11.2047715237
 20
6.3259880864
 30
0.0
 10
11.201271393
 20
6.3278823931
 30
0.0
 10
11.1961149208
 20
6.3311550678
 30
0.0
 10
11.1909515278
 20
6.3349271652
 30
0.0
 10
11.1857838084
 20
6.3392040315
 30
0.0
 10
11.1806159683
 20
6.3439892678
 30
0.0
 10
11.1754500776
 20
6.3492798771
 30
0.0
 10
11.1702904092
 20
6.3550705141
 30
0.0
 10
11.1651388447
 20
6.3613499503
 30
0.0
 10
11.1599991712
 20
6.3681047078
 30
0.0
 10
11.1548730069
 20
6.3753168728
 30
0.0
 10
11.1497632772
 20
6.3829669071
 30
0.0
 10
11.1446712101
 20
6.3910325911
 30
0.0
 10
11.1395986736
 20
6.3994910486
 30
0.0
 10
11.1345464214
 20
6.408318364
 30
0.0
 10
11.1295153937
 20
6.4174905993
 30
0.0
 10
11.1262163251
 20
6.4237427794
 30
0.0
 10
11.1245682596
 20
6.4269207276
 30
0.0
  0
SPLINE
  5
360
100
AcDbEntity
  8
0
100
AcDbSpline
 62
7
  6
CONTINUOUS
 70
0
 71
3
 72
46
 73
42
 74
0
 42
0.0000001
 43
0.0000001
 44
0.0000000001
 40
0.0
 40
0.0
 40
0.0
 40
0.0
 40
0.0099874435
 40
0.0204476157
 40
0.0313771114
 40
0.0427707225
 40
0.054621686
 40
0.0669224317
 40
0.0796639566
 40
0.0928360449
 40
0.1204269131
 40
0.1495981875
 40
0.1802403745
 40
0.2122335405
 40
0.2454486791
 40
0.2797494061
 40
0.3149926211
 40
0.3510295021
 40
0.387706851
 40
0.4248677397
 40
0.4623524596
 40
0.499999592
 40
0.537646712
 40
0.5751314595
 40
0.6122923998
 40
0.6489698028
 40
0.6850067986
 40
0.7202500982
 40
0.7545508962
 40
0.7877662248
 40
0.8197595459
 40
0.8504018313
 40
0.8795733387
 40
0.9071643906
 40
0.9330770134
 40
0.9453779539
 40
0.9572290359
 40
0.9686226679
 40
0.9795523026
 40
0.9900125123
 40
1.0
 40
1.0
 40
1.0
 40
1.0
 10
11.9845935448
 20
6.3170755709
 30
0.0
 10
11.9822765659
 20
6.3159310098
 30
0.0
 10
11.9774933731
 20
6.3136671598
 30
0.0
 10
11.9700538708
 20
6.3104135005
 30
0.0
 10
11.9621913311
 20
6.307227043
 30
0.0
 10
11.9539148968
 20
6.3041114836
 30
0.0
 10
11.9452340775
 20
6.3010702178
 30
0.0
 10
11.9361587631
 20
6.2981069844
 30
0.0
 10
11.9266993856
 20
6.2952251118
 30
0.0
 10
11.913382749
 20
6.2914367828
 30
0.0
 10
11.8958493845
 20
6.2869466232
 30
0.0
 10
11.8737751165
 20
6.2820123505
 30
0.0
 10
11.8504544306
 20
6.2774755337
 30
0.0
 10
11.8259948337
 20
6.2733573945
 30
0.0
 10
11.8005089302
 20
6.2696770924
 30
0.0
 10
11.7741142258
 20
6.266451958
 30
0.0
 10
11.7469324796
 20
6.2636971329
 30
0.0
 10
11.719089182
 20
6.2614253426
 30
0.0
 10
11.6907128957
 20
6.259647293
 30
0.0
 10
11.6619346625
 20
6.2583713529
 30
0.0
 10
11.6328874167
 20
6.2576033315
 30
0.0
 10
11.6037053518
 20
6.2573468866
 30
0.0
 10
11.5745232798
 20
6.257603296
 30
0.0
 10
11.545476014
 20
6.2583712137
 30
0.0
 10
11.516697744
 20
6.2596471135
 30
0.0
 10
11.4883213993
 20
6.2614251364
 30
0.0
 10
11.4604780276
 20
6.2636968235
 30
0.0
 10
11.4332962066
 20
6.2664516069
 30
0.0
 10
11.406901409
 20
6.2696767239
 30
0.0
 10
11.3814153879
 20
6.2733569283
 30
0.0
 10
11.3569556485
 20
6.2774750206
 30
0.0
 10
11.3336348986
 20
6.2820118529
 30
0.0
 10
11.311560252
 20
6.2869459729
 30
0.0
 10
11.2908333129
 20
6.2922542855
 30
0.0
 10
11.2744906424
 20
6.2970486475
 30
0.0
 10
11.2621753032
 20
6.3010694894
 30
0.0
 10
11.2534943792
 20
6.3041107721
 30
0.0
 10
11.2452178902
 20
6.307226376
 30
0.0
 10
11.2373552501
 20
6.3104127228
 30
0.0
 10
11.2299156633
 20
6.3136663338
 30
0.0
 10
11.2251324562
 20
6.3159302035
 30
0.0
 10
11.2228154642
 20
6.3170747636
 30
0.0
  0
SPLINE
  5
361
100
AcDbEntity
  8
0
100
AcDbSpline
 62
7
  6
CONTINUOUS
 70
0
 71
3
 72
9
 73
5
 74
0
 42
0.0000001
 43
0.0000001
 44
0.0000000001
 40
0.0
 40
0.0
 40
0.0
 40
0.0
 40
0.5132482879
 40
1.0
 40
1.0
 40
1.0
 40
1.0
 10
11.2795032991
 20
6.7274781907
 30
0.0
 10
11.2722885177
 20
6.7291318866
 30
0.0
 10
11.2582722734
 20
6.7325357461
 30
0.0
 10
11.2443609716
 20
6.7363484064
 30
0.0
 10
11.2376230716
 20
6.7383175774
 30
0.0
  0
SPLINE
  5
362
100
AcDbEntity
  8
0
100
AcDbSpline
 62
7
  6
CONTINUOUS
 70
0
 71
3
 72
17
 73
13
 74
0
 42
0.0000001
 43
0.0000001
 44
0.0000000001
 40
0.0
 40
0.0
 40
0.0
 40
0.0
 40
0.131593939
 40
0.2633887997
 40
0.3943193775
 40
0.5233296479
 40
0.64938366
 40
0.7714770019
 40
0.8307377895
 40
0.888652
 40
0.9451084391
 40
1.0
 40
1.0
 40
1.0
 40
1.0
 10
11.6509171416
 20
6.771663033
 30
0.0
 10
11.6376837352
 20
6.7712824107
 30
0.0
 10
11.6111863355
 20
6.7708439807
 30
0.0
 10
11.571513701
 20
6.7711407118
 30
0.0
 10
11.532119287
 20
6.7723870274
 30
0.0
 10
11.493344057
 20
6.7745718898
 30
0.0
 10
11.4555234611
 20
6.7776761
 30
0.0
 10
11.4247757681
 20
6.7810385203
 30
0.0
 10
11.4009098147
 20
6.7841823056
 30
0.0
 10
11.3836274525
 20
6.7867274356
 30
0.0
 10
11.3668218134
 20
6.7894775502
 30
0.0
 10
11.3557982106
 20
6.7914728815
 30
0.0
 10
11.3503733628
 20
6.7925058149
 30
0.0
  0
SPLINE
  5
363
100
AcDbEntity
  8
0
100
AcDbSpline
 62
7
  6
CONTINUOUS
 70
0
 71
3
 72
9
 73
5
 74
0
 42
0.0000001
 43
0.0000001
 44
0.0000000001
 40
0.0
 40
0.0
 40
0.0
 40
0.0
 40
0.5132482879
 40
1.0
 40
1.0
 40
1.0
 40
1.0
 10
11.2795032991
 20
6.3068789649
 30
0.0
 10
11.2722885177
 20
6.3085326609
 30
0.0
 10
11.2582722734
 20
6.3119365203
 30
0.0
 10
11.2443609716
 20
6.3157491807
 30
0.0
 10
11.2376230716
 20
6.3177183517
 30
0.0
  0
SPLINE
  5
364
100
AcDbEntity
  8
0
100
AcDbSpline
 62
7
  6
CONTINUOUS
 70
0
 71
3
 72
11
 73
7
 74
0
 42
0.0000001
 43
0.0000001
 44
0.0000000001
 40
0.0
 40
0.0
 40
0.0
 40
0.0
 40
0.2432253995
 40
0.4912799274
 40
0.7437055985
 40
1.0
 40
1.0
 40
1.0
 40
1.0
 10
11.8360239493
 20
6.7590337364
 30
0.0
 10
11.8293071172
 20
6.7550779632
 30
0.0
 10
11.8159788569
 20
6.7466771342
 30
0.0
 10
11.7964969748
 20
6.7329302399
 30
0.0
 10
11.7773259526
 20
6.7180620183
 30
0.0
 10
11.7648389603
 20
6.7075726289
 30
0.0
 10
11.7586387166
 20
6.7021850197
 30
0.0
  0
SPLINE
  5
365
100
AcDbEntity
  8
0
100
AcDbSpline
 62
7
  6
CONTINUOUS
 70
0
 71
3
 72
21
 73
17
 74
0
 42
0.0000001
 43
0.0000001
 44
0.0000000001
 40
0.0
 40
0.0
 40
0.0
 40
0.0
 40
0.1230814817
 40
0.1847942657
 40
0.2466337258
 40
0.3086097846
 40
0.3707312098
 40
0.4330051319
 40
0.4954352436
 40
0.5580223626
 40
0.6207641208
 40
0.6836547008
 40
0.7466862848
 40
0.8098488395
 40
0.8731308835
 40
1.0
 40
1.0
 40
1.0
 40
1.0
 10
11.701429278
 20
6.2776182989
 30
0.0
 10
11.6841766374
 20
6.2743659155
 30
0.0
 10
11.6581454998
 20
6.270115197
 30
0.0
 10
11.6232089096
 20
6.2659478476
 30
0.0
 10
11.596842212
 20
6.2636258012
 30
0.0
 10
11.5703551452
 20
6.2621661011
 30
0.0
 10
11.5437710861
 20
6.2616159593
 30
0.0
 10
11.5171192218
 20
6.2620123909
 30
0.0
 10
11.4904327289
 20
6.2633773786
 30
0.0
 10
11.4637469571
 20
6.2657162021
 30
0.0
 10
11.437097254
 20
6.2690184914
 30
0.0
 10
11.4105165899
 20
6.2732575111
 30
0.0
 10
11.3840337466
 20
6.2783921523
 30
0.0
 10
11.3576718692
 20
6.2843719002
 30
0.0
 10
11.3226811947
 20
6.2934010198
 30
0.0
 10
11.2967027362
 20
6.3012510411
 30
0.0
 10
11.2795032991
 20
6.3068789649
 30
0.0
  0
SPLINE
  5
366
100
AcDbEntity
  8
0
100
AcDbSpline
 62
7
  6
CONTINUOUS
 70
0
 71
3
 72
28
 73
24
 74
0
 42
0.0000001
 43
0.0000001
 44
0.0000000001
 40
0.0
 40
0.0
 40
0.0
 40
0.0
 40
0.0640274484
 40
0.1279405369
 40
0.1917105404
 40
0.2553123355
 40
0.3187161223
 40
0.3818930725
 40
0.4133919091
 40
0.4448254452
 40
0.4761912782
 40
0.5074882562
 40
0.5387156619
 40
0.5698732312
 40
0.6009621492
 40
0.6319833386
 40
0.6938248821
 40
0.7554274775
 40
0.8168179251
 40
0.8780243018
 40
0.9085700262
 40
0.9390802882
 40
1.0
 40
1.0
 40
1.0
 40
1.0
 10
11.701429278
 20
6.6982175246
 30
0.0
 10
11.6931284273
 20
6.7025006483
 30
0.0
 10
11.6763973676
 20
6.7107840356
 30
0.0
 10
11.6508782013
 20
6.722246022
 30
0.0
 10
11.624954423
 20
6.7326002844
 30
0.0
 10
11.5986412479
 20
6.7417023404
 30
0.0
 10
11.5719734182
 20
6.7494058148
 30
0.0
 10
11.5494779861
 20
6.7545500467
 30
0.0
 10
11.531373914
 20
6.7578371021
 30
0.0
 10
11.5177666586
 20
6.7598758288
 30
0.0
 10
11.504131331
 20
6.761482506
 30
0.0
 10
11.4904814799
 20
6.7626495829
 30
0.0
 10
11.4768315465
 20
6.7633767327
 30
0.0
 10
11.4631956391
 20
6.7636622651
 30
0.0
 10
11.4495875897
 20
6.7635117916
 30
0.0
 10
11.4315187653
 20
6.762738516
 30
0.0
 10
11.4090592758
 20
6.7607231122
 30
0.0
 10
11.382378319
 20
6.7567220057
 30
0.0
 10
11.3560519573
 20
6.7512712914
 30
0.0
 10
11.3344234847
 20
6.7456354665
 30
0.0
 10
11.3173278898
 20
6.7405441084
 30
0.0
 10
11.3003873686
 20
6.7350938803
 30
0.0
 10
11.2878185241
 20
6.7306154057
 30
0.0
 10
11.2795032991
 20
6.7274781907
 30
0.0
  0
SPLINE
  5
367
100
AcDbEntity
  8
0
100
AcDbSpline
 62
7
  6
CONTINUOUS
 70
0
 71
3
 72
13
 73
9
 74
0
 42
0.0000001
 43
0.0000001
 44
0.0000000001
 40
0.0
 40
0.0
 40
0.0
 40
0.0
 40
0.2392401476
 40
0.3604630295
 40
0.4832816768
 40
0.6081576999
 40
0.7355839368
 40
1.0
 40
1.0
 40
1.0
 40
1.0
 10
11.2376230716
 20
6.3177183517
 30
0.0
 10
11.2350510601
 20
6.3177275038
 30
0.0
 10
11.2311718337
 20
6.3179463957
 30
0.0
 10
11.2260254741
 20
6.3186752135
 30
0.0
 10
11.2221347149
 20
6.3194569521
 30
0.0
 10
11.2182316966
 20
6.3204816833
 30
0.0
 10
11.2129484779
 20
6.3222058881
 30
0.0
 10
11.2090640815
 20
6.3238676069
 30
0.0
 10
11.206515405
 20
6.3251266269
 30
0.0
  0
SPLINE
  5
368
100
AcDbEntity
  8
0
100
AcDbSpline
 62
7
  6
CONTINUOUS
 70
0
 71
3
 72
14
 73
10
 74
0
 42
0.0000001
 43
0.0000001
 44
0.0000000001
 40
0.0
 40
0.0
 40
0.0
 40
0.0
 40
0.2696294493
 40
0.4000826278
 40
0.5273422312
 40
0.6511852899
 40
0.7713928731
 40
0.8877388029
 40
1.0
 40
1.0
 40
1.0
 40
1.0
 10
11.2376230716
 20
6.7383175774
 30
0.0
 10
11.2353828618
 20
6.7442155809
 30
0.0
 10
11.2319718618
 20
6.7529348182
 30
0.0
 10
11.2272606745
 20
6.7643397509
 30
0.0
 10
11.2237380573
 20
6.7725439083
 30
0.0
 10
11.2201874299
 20
6.7804740638
 30
0.0
 10
11.2166091507
 20
6.78811078
 30
0.0
 10
11.2130041011
 20
6.7954340503
 30
0.0
 10
11.2105379331
 20
6.8001815081
 30
0.0
 10
11.2092980831
 20
6.8024973189
 30
0.0
  0
SPLINE
  5
369
100
AcDbEntity
  8
0
100
AcDbSpline
 62
7
  6
CONTINUOUS
 70
0
 71
3
 72
15
 73
11
 74
0
 42
0.0000001
 43
0.0000001
 44
0.0000000001
 40
0.0
 40
0.0
 40
0.0
 40
0.0
 40
0.1319943798
 40
0.2615530082
 40
0.3887795478
 40
0.5138991626
 40
0.6372282088
 40
0.759125931
 40
0.8799459217
 40
1.0
 40
1.0
 40
1.0
 40
1.0
 10
11.9843023616
 20
6.3176636997
 30
0.0
 10
11.9749803544
 20
6.3136014175
 30
0.0
 10
11.9562794724
 20
6.3060622345
 30
0.0
 10
11.9278409127
 20
6.2966007939
 30
0.0
 10
11.8993449249
 20
6.2891874183
 30
0.0
 10
11.8708764255
 20
6.283848544
 30
0.0
 10
11.8425164758
 20
6.2805336715
 30
0.0
 10
11.8143322091
 20
6.2791257434
 30
0.0
 10
11.7863710472
 20
6.2794610795
 30
0.0
 10
11.7678474202
 20
6.2807254085
 30
0.0
 10
11.7586387166
 20
6.281585794
 30
0.0
  0
SPLINE
  5
36A
100
AcDbEntity
  8
0
100
AcDbSpline
 62
7
  6
CONTINUOUS
 70
0
 71
3
 72
86
 73
82
 74
0
 42
0.0000001
 43
0.0000001
 44
0.0000000001
 40
0.0
 40
0.0
 40
0.0
 40
0.0
 40
0.0039801735
 40
0.0081241171
 40
0.0124359931
 40
0.016919361
 40
0.0215772361
 40
0.0264119817
 40
0.0314252561
 40
0.0366182449
 40
0.0419916453
 40
0.0475457694
 40
0.0532805541
 40
0.0591955582
 40
0.0652900785
 40
0.0715630739
 40
0.0846387684
 40
0.0984101018
 40
0.112860694
 40
0.1279712428
 40
0.1437198619
 40
0.1600823544
 40
0.1770324406
 40
0.1945419645
 40
0.2125810668
 40
0.2311183398
 40
0.2501209668
 40
0.2695548486
 40
0.289384725
 40
0.3095742955
 40
0.3300863312
 40
0.3508827821
 40
0.3719248818
 40
0.3931732491
 40
0.4145879914
 40
0.4577543474
 40
0.501099203
 40
0.5442952951
 40
0.5657359749
 40
0.587017582
 40
0.6081001434
 40
0.6289441761
 40
0.6495107926
 40
0.6697618048
 40
0.6896598276
 40
0.709168385
 40
0.7282520204
 40
0.7468764117
 40
0.7650084972
 40
0.7826166038
 40
0.7996705814
 40
0.8161419537
 40
0.8320040874
 40
0.8472323859
 40
0.8618045214
 40
0.8757007003
 40
0.8889039845
 40
0.9014006969
 40
0.9073810972
 40
0.9131815075
 40
0.9188013673
 40
0.9242405009
 40
0.9294990443
 40
0.9345775709
 40
0.9394770909
 40
0.9441990928
 40
0.9487456636
 40
0.9531194621
 40
0.9573238984
 40
0.9613631411
 40
0.9652422549
 40
0.9689673208
 40
0.9725454977
 40
0.9759852252
 40
0.9824864215
 40
0.9855752926
 40
0.9885737717
 40
0.9914977072
 40
0.9943643167
 40
0.9971920017
 40
1.0
 40
1.0
 40
1.0
 40
1.0
 10
11.211537751
 20
10.471162682
 30
0.0
 10
11.2105474736
 20
10.4702061474
 30
0.0
 10
11.2084812003
 20
10.4682998394
 30
0.0
 10
11.2052005885
 20
10.4655155259
 30
0.0
 10
11.2016790656
 20
10.4627511735
 30
0.0
 10
11.1979185647
 20
10.4600082714
 30
0.0
 10
11.1939209324
 20
10.4572880874
 30
0.0
 10
11.1896881134
 20
10.4545919586
 30
0.0
 10
11.1852222295
 20
10.4519211587
 30
0.0
 10
11.180525494
 20
10.4492770777
 30
0.0
 10
11.1756002762
 20
10.4466610006
 30
0.0
 10
11.1704490351
 20
10.4440742448
 30
0.0
 10
11.1650743467
 20
10.4415181195
 30
0.0
 10
11.1594789212
 20
10.4389938803
 30
0.0
 10
11.1536655501
 20
10.4365028261
 30
0.0
 10
11.1455146947
 20
10.4331813251
 30
0.0
 10
11.1347956366
 20
10.4291304342
 30
0.0
 10
11.1212841448
 20
10.4244860288
 30
0.0
 10
11.1069790132
 20
10.4200028835
 30
0.0
 10
11.0919090826
 20
10.4156901105
 30
0.0
 10
11.0761046041
 20
10.4115564893
 30
0.0
 10
11.0595974146
 20
10.4076104399
 30
0.0
 10
11.0424207938
 20
10.403859998
 30
0.0
 10
11.0246094063
 20
10.4003128028
 30
0.0
 10
11.0061992181
 20
10.3969760794
 30
0.0
 10
10.9872274216
 20
10.3938566235
 30
0.0
 10
10.9677323582
 20
10.3909607883
 30
0.0
 10
10.9477534403
 20
10.3882944699
 30
0.0
 10
10.9273310698
 20
10.3858630918
 30
0.0
 10
10.9065065521
 20
10.3836716003
 30
0.0
 10
10.8853220111
 20
10.3817244537
 30
0.0
 10
10.863820299
 20
10.3800256116
 30
0.0
 10
10.8420449266
 20
10.378578537
 30
0.0
 10
10.8200399142
 20
10.3773861495
 30
0.0
 10
10.790375773
 20
10.3761359649
 30
0.0
 10
10.7530495898
 20
10.3752278845
 30
0.0
 10
10.7081778065
 20
10.375180538
 30
0.0
 10
10.6708305327
 20
10.3760096928
 30
0.0
 10
10.6411330244
 20
10.3771968624
 30
0.0
 10
10.6190910254
 20
10.3783426507
 30
0.0
 10
10.5972705997
 20
10.3797436032
 30
0.0
 10
10.5757158599
 20
10.3813968972
 30
0.0
 10
10.5544704259
 20
10.3832991641
 30
0.0
 10
10.5335772742
 20
10.3854465342
 30
0.0
 10
10.5130786671
 20
10.3878346382
 30
0.0
 10
10.4930160638
 20
10.3904586175
 30
0.0
 10
10.4734300363
 20
10.3933131327
 30
0.0
 10
10.454360185
 20
10.3963923762
 30
0.0
 10
10.4358450539
 20
10.3996900779
 30
0.0
 10
10.4179220497
 20
10.4031995202
 30
0.0
 10
10.4006273658
 20
10.4069135545
 30
0.0
 10
10.3839959063
 20
10.410824615
 30
0.0
 10
10.3680612119
 20
10.4149247352
 30
0.0
 10
10.3528553769
 20
10.4192055672
 30
0.0
 10
10.3384089954
 20
10.4236583954
 30
0.0
 10
10.3247510057
 20
10.4282741661
 30
0.0
 10
10.311908908
 20
10.4330435086
 30
0.0
 10
10.3017648118
 20
10.4371965018
 30
0.0
 10
10.2940851939
 20
10.4405961683
 30
0.0
 10
10.2886298858
 20
10.4431408489
 30
0.0
 10
10.2833970669
 20
10.4457166238
 30
0.0
 10
10.2783893375
 20
10.4483221741
 30
0.0
 10
10.2736092216
 20
10.4509562287
 30
0.0
 10
10.2690591028
 20
10.453617455
 30
0.0
 10
10.2647412477
 20
10.4563045224
 30
0.0
 10
10.2606578263
 20
10.4590161372
 30
0.0
 10
10.256810843
 20
10.4617509169
 30
0.0
 10
10.2532022421
 20
10.464507586
 30
0.0
 10
10.249833791
 20
10.4672847751
 30
0.0
 10
10.2467071837
 20
10.4700811742
 30
0.0
 10
10.2438239816
 20
10.4728955093
 30
0.0
 10
10.241185675
 20
10.4757263444
 30
0.0
 10
10.2387934619
 20
10.4785727833
 30
0.0
 10
10.2359871131
 20
10.4823154727
 30
0.0
 10
10.2336041009
 20
10.4861590801
 30
0.0
 10
10.2317120612
 20
10.4900847392
 30
0.0
 10
10.2305689159
 20
10.492988067
 30
0.0
 10
10.229678662
 20
10.495898445
 30
0.0
 10
10.229042128
 20
10.4988144891
 30
0.0
 10
10.2286599064
 20
10.5017340934
 30
0.0
 10
10.2285748173
 20
10.5036846233
 30
0.0
 10
10.2285748129
 20
10.5046559584
 30
0.0
  0
SPLINE
  5
36B
100
AcDbEntity
  8
0
100
AcDbSpline
 62
7
  6
CONTINUOUS
 70
0
 71
3
 72
19
 73
15
 74
0
 42
0.0000001
 43
0.0000001
 44
0.0000000001
 40
0.0
 40
0.0
 40
0.0
 40
0.0
 40
0.150460937
 40
0.2916987357
 40
0.424419542
 40
0.4878837275
 40
0.5495802504
 40
0.6682271673
 40
0.7255606103
 40
0.7817998831
 40
0.8371466721
 40
0.8918135967
 40
0.94602219
 40
1.0
 40
1.0
 40
1.0
 40
1.0
 10
12.4488888253
 20
9.3344247673
 30
0.0
 10
12.4502316965
 20
9.3357218813
 30
0.0
 10
12.4529155918
 20
9.3381556362
 30
0.0
 10
12.4570713446
 20
9.3413988938
 30
0.0
 10
12.4605815319
 20
9.3436927059
 30
0.0
 10
12.4633806818
 20
9.3452460095
 30
0.0
 10
12.4660972522
 20
9.3465795537
 30
0.0
 10
12.4688456291
 20
9.3476696064
 30
0.0
 10
12.4716094686
 20
9.348489876
 30
0.0
 10
12.473652976
 20
9.3489626842
 30
0.0
 10
12.4756896807
 20
9.3492996807
 30
0.0
 10
12.4777190448
 20
9.3495006985
 30
0.0
 10
12.4797402479
 20
9.3495656598
 30
0.0
 10
12.4810830778
 20
9.3495181691
 30
0.0
 10
12.4817512699
 20
9.3494718298
 30
0.0
  0
SPLINE
  5
36C
100
AcDbEntity
  8
0
100
AcDbSpline
 62
7
  6
CONTINUOUS
 70
0
 71
3
 72
23
 73
19
 74
0
 42
0.0000001
 43
0.0000001
 44
0.0000000001
 40
0.0
 40
0.0
 40
0.0
 40
0.0
 40
0.0637776288
 40
0.1273446152
 40
0.1907020433
 40
0.2538561391
 40
0.3168131818
 40
0.3795820998
 40
0.442173387
 40
0.5045993408
 40
0.5668738683
 40
0.6290123813
 40
0.69103165
 40
0.7529496426
 40
0.8147853504
 40
0.8765585998
 40
0.9382898528
 40
1.0
 40
1.0
 40
1.0
 40
1.0
 10
11.2632456191
 20
7.6737561722
 30
0.0
 10
11.2632456191
 20
7.6669674509
 30
0.0
 10
11.2629207057
 20
7.6534101284
 30
0.0
 10
11.261454085
 20
7.633156571
 30
0.0
 10
11.2590122393
 20
7.613063624
 30
0.0
 10
11.2556008754
 20
7.593178311
 30
0.0
 10
11.2512277193
 20
7.5735462142
 30
0.0
 10
11.2459028538
 20
7.5542126721
 30
0.0
 10
11.2396384864
 20
7.5352222378
 30
0.0
 10
11.2324490228
 20
7.5166187101
 30
0.0
 10
11.2243509966
 20
7.4984449945
 30
0.0
 10
11.2153630499
 20
7.4807430082
 30
0.0
 10
11.2055058829
 20
7.4635535877
 30
0.0
 10
11.1948021935
 20
7.446916379
 30
0.0
 10
11.1832766826
 20
7.4308697997
 30
0.0
 10
11.1709557831
 20
7.415450746
 30
0.0
 10
11.1578683978
 20
7.4006952652
 30
0.0
 10
11.1486508424
 20
7.3913216481
 30
0.0
 10
11.1439263064
 20
7.3867581037
 30
0.0
  0
SPLINE
  5
36D
100
AcDbEntity
  8
0
100
AcDbSpline
 62
7
  6
CONTINUOUS
 70
0
 71
3
 72
21
 73
17
 74
0
 42
0.0000001
 43
0.0000001
 44
0.0000000001
 40
0.0
 40
0.0
 40
0.0
 40
0.0
 40
0.1273176366
 40
0.2537999756
 40
0.3167619475
 40
0.3795355041
 40
0.4421314991
 40
0.5045621439
 40
0.5668413432
 40
0.6289845283
 40
0.6910084528
 40
0.7529310935
 40
0.8147714495
 40
0.8765493365
 40
0.9382852194
 40
1.0
 40
1.0
 40
1.0
 40
1.0
 10
11.487340424
 20
9.982232838
 30
0.0
 10
11.487340424
 20
9.9769355881
 30
0.0
 10
11.4868347666
 20
9.9663690238
 30
0.0
 10
11.4849250625
 20
9.9533064674
 30
0.0
 10
11.4826425415
 20
9.9430600338
 30
0.0
 10
11.480561005
 20
9.9355022607
 30
0.0
 10
11.4781122174
 20
9.9280787767
 30
0.0
 10
11.4753017896
 20
9.9208064968
 30
0.0
 10
11.4721362222
 20
9.9137022349
 30
0.0
 10
11.4686227709
 20
9.9067823746
 30
0.0
 10
11.4647695176
 20
9.9000628903
 30
0.0
 10
11.460585371
 20
9.8935592583
 30
0.0
 10
11.4560799687
 20
9.8872865056
 30
0.0
 10
11.4512636214
 20
9.8812590737
 30
0.0
 10
11.4461476628
 20
9.8754910271
 30
0.0
 10
11.4425444596
 20
9.8718267871
 30
0.0
 10
11.4406976008
 20
9.8700428582
 30
0.0
  0
SPLINE
  5
36E
100
AcDbEntity
  8
0
100
AcDbSpline
 62
7
  6
CONTINUOUS
 70
0
 71
3
 72
21
 73
17
 74
0
 42
0.0000001
 43
0.0000001
 44
0.0000000001
 40
0.0
 40
0.0
 40
0.0
 40
0.0
 40
0.1273176366
 40
0.2537999756
 40
0.3167619475
 40
0.3795355041
 40
0.4421314991
 40
0.5045621439
 40
0.5668413432
 40
0.6289845283
 40
0.6910084528
 40
0.7529310935
 40
0.8147714495
 40
0.8765493365
 40
0.9382852194
 40
1.0
 40
1.0
 40
1.0
 40
1.0
 10
10.5214145405
 20
7.1514423462
 30
0.0
 10
10.5214145405
 20
7.1461450962
 30
0.0
 10
10.5209088831
 20
7.135578532
 30
0.0
 10
10.518999179
 20
7.1225159756
 30
0.0
 10
10.516716658
 20
7.1122695419
 30
0.0
 10
10.5146351215
 20
7.1047117688
 30
0.0
 10
10.5121863339
 20
7.0972882849
 30
0.0
 10
10.5093759061
 20
7.090016005
 30
0.0
 10
10.5062103387
 20
7.0829117431
 30
0.0
 10
10.5026968873
 20
7.0759918827
 30
0.0
 10
10.4988436341
 20
7.0692723985
 30
0.0
 10
10.4946594875
 20
7.0627687665
 30
0.0
 10
10.4901540852
 20
7.0564960138
 30
0.0
 10
10.4853377379
 20
7.0504685819
 30
0.0
 10
10.4802217793
 20
7.0447005353
 30
0.0
 10
10.476618576
 20
7.0410362953
 30
0.0
 10
10.4747717172
 20
7.0392523664
 30
0.0
  0
SPLINE
  5
36F
100
AcDbEntity
  8
0
100
AcDbSpline
 62
7
  6
CONTINUOUS
 70
0
 71
3
 72
42
 73
38
 74
0
 42
0.0000001
 43
0.0000001
 44
0.0000000001
 40
0.0
 40
0.0
 40
0.0
 40
0.0
 40
0.0330374712
 40
0.0657195938
 40
0.0980415484
 40
0.1300146769
 40
0.1616667197
 40
0.1930385495
 40
0.2241806328
 40
0.2551496325
 40
0.2860056479
 40
0.3168101453
 40
0.3476246146
 40
0.3785099369
 40
0.4095262634
 40
0.4407331335
 40
0.4721896191
 40
0.5039541323
 40
0.5686118852
 40
0.6016149876
 40
0.6350915834
 40
0.6690125689
 40
0.703270597
 40
0.7376420745
 40
0.7547638474
 40
0.7717694568
 40
0.7885984124
 40
0.8051901636
 40
0.8214885413
 40
0.8374459759
 40
0.8530266777
 40
0.8682079188
 40
0.897341437
 40
0.9248967035
 40
0.9510395132
 40
0.975993468
 40
1.0
 40
1.0
 40
1.0
 40
1.0
 10
10.7002793257
 20
7.8049724579
 30
0.0
 10
10.7002793257
 20
7.7998430251
 30
0.0
 10
10.7007034305
 20
7.7896338918
 30
0.0
 10
10.7026237051
 20
7.774515739
 30
0.0
 10
10.705791464
 20
7.7597769991
 30
0.0
 10
10.7101543359
 20
7.7455147423
 30
0.0
 10
10.71564527
 20
7.7318071672
 30
0.0
 10
10.7221880006
 20
7.7187145049
 30
0.0
 10
10.7297021604
 20
7.7062791808
 30
0.0
 10
10.73810759
 20
7.6945278499
 30
0.0
 10
10.7473276242
 20
7.6834738907
 30
0.0
 10
10.7572913409
 20
7.6731201398
 30
0.0
 10
10.7679349135
 20
7.6634614739
 30
0.0
 10
10.7792022586
 20
7.6544870747
 30
0.0
 10
10.7910452539
 20
7.6461822788
 30
0.0
 10
10.8034233783
 20
7.6385301644
 30
0.0
 10
10.8163039159
 20
7.6315124692
 30
0.0
 10
10.8342145512
 20
7.6229281015
 30
0.0
 10
10.8529618499
 20
7.6155970634
 30
0.0
 10
10.8723742468
 20
7.6094429121
 30
0.0
 10
10.8874226748
 20
7.6053575626
 30
0.0
 10
10.9028111742
 20
7.6018325998
 30
0.0
 10
10.9184595211
 20
7.5988728641
 30
0.0
 10
10.931627468
 20
7.5968851156
 30
0.0
 10
10.9421839554
 20
7.5955894433
 30
0.0
 10
10.9500536318
 20
7.5947719729
 30
0.0
 10
10.9578553434
 20
7.5941103645
 30
0.0
 10
10.9655588598
 20
7.5936071311
 30
0.0
 10
10.9731357557
 20
7.5932641902
 30
0.0
 10
10.9805612339
 20
7.5930827775
 30
0.0
 10
10.9878155572
 20
7.5930634043
 30
0.0
 10
10.9971137169
 20
7.5932510873
 30
0.0
 10
11.0082601106
 20
7.593872536
 30
0.0
 10
11.0210509648
 20
7.5952709321
 30
0.0
 10
11.0330992097
 20
7.597309044
 30
0.0
 10
11.044456466
 20
7.5999868852
 30
0.0
 10
11.0517249012
 20
7.6022387211
 30
0.0
 10
11.0552418602
 20
7.6034730682
 30
0.0
  0
SPLINE
  5
370
100
AcDbEntity
  8
0
100
AcDbSpline
 62
7
  6
CONTINUOUS
 70
0
 71
3
 72
16
 73
12
 74
0
 42
0.0000001
 43
0.0000001
 44
0.0000000001
 40
0.0
 40
0.0
 40
0.0
 40
0.0
 40
0.1263028546
 40
0.2525345085
 40
0.3785655566
 40
0.5042429435
 40
0.6293966177
 40
0.7538492926
 40
0.8157682593
 40
0.8774487558
 40
1.0
 40
1.0
 40
1.0
 40
1.0
 10
10.7341906055
 20
7.9178004178
 30
0.0
 10
10.7315521893
 20
7.9135261602
 30
0.0
 10
10.7265265192
 20
7.9048227208
 30
0.0
 10
10.719804938
 20
7.8913406463
 30
0.0
 10
10.7139655712
 20
7.8774791971
 30
0.0
 10
10.7090745478
 20
7.8632998514
 30
0.0
 10
10.7051935547
 20
7.8488758772
 30
0.0
 10
10.7028418852
 20
7.8366995909
 30
0.0
 10
10.7015161626
 20
7.8269219999
 30
0.0
 10
10.7005686967
 20
7.8171770428
 30
0.0
 10
10.7002793257
 20
7.8098462573
 30
0.0
 10
10.7002793257
 20
7.8049724579
 30
0.0
  0
SPLINE
  5
371
100
AcDbEntity
  8
0
100
AcDbSpline
 62
7
  6
CONTINUOUS
 70
0
 71
3
 72
23
 73
19
 74
0
 42
0.0000001
 43
0.0000001
 44
0.0000000001
 40
0.0
 40
0.0
 40
0.0
 40
0.0
 40
0.0637764156
 40
0.1273451284
 40
0.1907019885
 40
0.2538560635
 40
0.3168132288
 40
0.3795820795
 40
0.4421733867
 40
0.5045993416
 40
0.5668738629
 40
0.6290123789
 40
0.691031653
 40
0.7529496458
 40
0.8147853519
 40
0.8765586031
 40
0.9382898573
 40
1.0
 40
1.0
 40
1.0
 40
1.0
 10
11.0771364794
 20
7.698988537
 30
0.0
 10
11.0771364794
 20
7.6953628186
 30
0.0
 10
11.0769629184
 20
7.6881219616
 30
0.0
 10
11.0761796554
 20
7.6773047414
 30
0.0
 10
11.0748754721
 20
7.666573238
 30
0.0
 10
11.0730535104
 20
7.6559527182
 30
0.0
 10
11.0707178488
 20
7.6454674121
 30
0.0
 10
11.0678738906
 20
7.6351415591
 30
0.0
 10
11.0645281776
 20
7.6249989553
 30
0.0
 10
11.0606883519
 20
7.6150630002
 30
0.0
 10
11.0563632807
 20
7.6053566017
 30
0.0
 10
11.0515629312
 20
7.5959021386
 30
0.0
 10
11.0462983325
 20
7.5867214335
 30
0.0
 10
11.040581597
 20
7.5778356701
 30
0.0
 10
11.0344259491
 20
7.569265347
 30
0.0
 10
11.0278455029
 20
7.5610301685
 30
0.0
 10
11.0208556631
 20
7.5531494148
 30
0.0
 10
11.0159326672
 20
7.548143054
 30
0.0
 10
11.0134093421
 20
7.5457057095
 30
0.0
  0
SPLINE
  5
372
100
AcDbEntity
  8
0
100
AcDbSpline
 62
7
  6
CONTINUOUS
 70
0
 71
3
 72
39
 73
35
 74
0
 42
0.0000001
 43
0.0000001
 44
0.0000000001
 40
0.0
 40
0.0
 40
0.0
 40
0.0
 40
0.0310753278
 40
0.0623079062
 40
0.093693137
 40
0.1252222865
 40
0.1568840454
 40
0.1886642043
 40
0.2205461643
 40
0.2525112486
 40
0.2845391082
 40
0.3166081368
 40
0.3486959081
 40
0.3807796237
 40
0.412836566
 40
0.4448445497
 40
0.4767823661
 40
0.5086302138
 40
0.5403701085
 40
0.5719862661
 40
0.6034654517
 40
0.6347972864
 40
0.6659745051
 40
0.6969931566
 40
0.7278527388
 40
0.758556263
 40
0.78911024
 40
0.8195245851
 40
0.8498124377
 40
0.8799898969
 40
0.9100756761
 40
0.9400906823
 40
0.9700575294
 40
1.0
 40
1.0
 40
1.0
 40
1.0
 10
11.0771364794
 20
7.698988537
 30
0.0
 10
11.0771364794
 20
7.7046139055
 30
0.0
 10
11.0767168404
 20
7.7158974374
 30
0.0
 10
11.0748432384
 20
7.7327687224
 30
0.0
 10
11.0717344717
 20
7.7495409409
 30
0.0
 10
11.0674077138
 20
7.7661207991
 30
0.0
 10
11.0618869363
 20
7.782417567
 30
0.0
 10
11.0552025661
 20
7.7983417169
 30
0.0
 10
11.0473914237
 20
7.8138058816
 30
0.0
 10
11.0384964757
 20
7.8287251994
 30
0.0
 10
11.0285666154
 20
7.8430178093
 30
0.0
 10
11.017656391
 20
7.8566052839
 30
0.0
 10
11.0058257139
 20
7.8694130619
 30
0.0
 10
10.9931395281
 20
7.8813708494
 30
0.0
 10
10.979667457
 20
7.8924130014
 30
0.0
 10
10.9654834251
 20
7.9024788785
 30
0.0
 10
10.9506652573
 20
7.9115131765
 30
0.0
 10
10.9352942574
 20
7.9194662284
 30
0.0
 10
10.9194547673
 20
7.9262942751
 30
0.0
 10
10.903233711
 20
7.9319597055
 30
0.0
 10
10.8867201239
 20
7.9364312635
 30
0.0
 10
10.870004673
 20
7.9396842272
 30
0.0
 10
10.8531791633
 20
7.9417005458
 30
0.0
 10
10.8363360409
 20
7.9424689426
 30
0.0
 10
10.8195678911
 20
7.9419849848
 30
0.0
 10
10.802966934
 20
7.9402511174
 30
0.0
 10
10.7866245213
 20
7.9372766613
 30
0.0
 10
10.7706306314
 20
7.9330777726
 30
0.0
 10
10.7550733798
 20
7.9276773737
 30
0.0
 10
10.7400384977
 20
7.9211050099
 30
0.0
 10
10.7256089615
 20
7.9133968106
 30
0.0
 10
10.7118641025
 20
7.9045948902
 30
0.0
 10
10.6988807196
 20
7.8947486267
 30
0.0
 10
10.6907770236
 20
7.8875210735
 30
0.0
 10
10.6868784514
 20
7.8837553427
 30
0.0
  0
SPLINE
  5
373
100
AcDbEntity
  8
0
100
AcDbSpline
 62
7
  6
CONTINUOUS
 70
0
 71
3
 72
18
 73
14
 74
0
 42
0.0000001
 43
0.0000001
 44
0.0000000001
 40
0.0
 40
0.0
 40
0.0
 40
0.0
 40
0.0548621106
 40
0.1099281304
 40
0.165399556
 40
0.2214731722
 40
0.2783387379
 40
0.3361775111
 40
0.4554063056
 40
0.5804414047
 40
0.7123341351
 40
0.8519581983
 40
1.0
 40
1.0
 40
1.0
 40
1.0
 10
11.2285748055
 20
10.5046565932
 30
0.0
 10
11.2285748087
 20
10.5039504472
 30
0.0
 10
11.2285299962
 20
10.5025351251
 30
0.0
 10
11.2283285
 20
10.5004144421
 30
0.0
 10
11.2279927496
 20
10.4982949828
 30
0.0
 10
11.2275228719
 20
10.4961775206
 30
0.0
 10
11.2269190649
 20
10.4940625844
 30
0.0
 10
11.2259259143
 20
10.491218566
 30
0.0
 10
11.2243348972
 20
10.4876614636
 30
0.0
 10
11.2219132639
 20
10.4834605074
 30
0.0
 10
11.2189638313
 20
10.4792867368
 30
0.0
 10
11.2154910864
 20
10.4751443581
 30
0.0
 10
11.2129082823
 20
10.4724865137
 30
0.0
 10
11.211537751
 20
10.471162682
 30
0.0
  0
SPLINE
  5
374
100
AcDbEntity
  8
0
100
AcDbSpline
 62
7
  6
CONTINUOUS
 70
0
 71
3
 72
47
 73
43
 74
0
 42
0.0000001
 43
0.0000001
 44
0.0000000001
 40
0.0
 40
0.0
 40
0.0
 40
0.0
 40
0.0149719699
 40
0.0299469986
 40
0.0449281275
 40
0.0599183593
 40
0.0749206409
 40
0.0899378479
 40
0.1049727642
 40
0.1200280654
 40
0.1351063071
 40
0.1502099062
 40
0.1653411266
 40
0.1805020712
 40
0.195694667
 40
0.2109206532
 40
0.226181577
 40
0.2414787841
 40
0.2721808909
 40
0.30303905
 40
0.3340562704
 40
0.3652320501
 40
0.3965624391
 40
0.4280401707
 40
0.4596548674
 40
0.4913932962
 40
0.5232396724
 40
0.5551760134
 40
0.5871825188
 40
0.61923798
 40
0.6513202127
 40
0.6834065006
 40
0.7154740464
 40
0.7475004247
 40
0.7794640313
 40
0.8113445177
 40
0.8431232087
 40
0.8747834982
 40
0.9063112124
 40
0.9376949433
 40
0.9689261019
 40
1.0
 40
1.0
 40
1.0
 40
1.0
 10
10.5325501542
 20
8.0197029657
 30
0.0
 10
10.5362002293
 20
8.0232286622
 30
0.0
 10
10.5436421725
 20
8.0301364167
 30
0.0
 10
10.5552092272
 20
8.0400474049
 30
0.0
 10
10.567165754
 20
8.0494952607
 30
0.0
 10
10.5794950882
 20
8.0584667373
 30
0.0
 10
10.5921802912
 20
8.066949591
 30
0.0
 10
10.6052038948
 20
8.0749321305
 30
0.0
 10
10.618547999
 20
8.0824033438
 30
0.0
 10
10.6321942116
 20
8.0893529989
 30
0.0
 10
10.6461237564
 20
8.0957715378
 30
0.0
 10
10.6603174809
 20
8.1016500952
 30
0.0
 10
10.6747558341
 20
8.1069806364
 30
0.0
 10
10.6894189448
 20
8.1117558383
 30
0.0
 10
10.7042866706
 20
8.1159690972
 30
0.0
 10
10.7193384653
 20
8.1196146676
 30
0.0
 10
10.7345539059
 20
8.1226875669
 30
0.0
 10
10.7550534283
 20
8.1260192462
 30
0.0
 10
10.7809905624
 20
8.128728416
 30
0.0
 10
10.812385493
 20
8.1296343512
 30
0.0
 10
10.8439217333
 20
8.1281956616
 30
0.0
 10
10.8754247423
 20
8.1244203916
 30
0.0
 10
10.9067217442
 20
8.11832969
 30
0.0
 10
10.937640774
 20
8.1099573979
 30
0.0
 10
10.9680120932
 20
8.0993497771
 30
0.0
 10
10.9976689804
 20
8.0865653268
 30
0.0
 10
11.0264487071
 20
8.0716745131
 30
0.0
 10
11.0541933383
 20
8.0547592279
 30
0.0
 10
11.0807506392
 20
8.0359124623
 30
0.0
 10
11.1059749235
 20
8.0152378018
 30
0.0
 10
11.1297277502
 20
7.9928487467
 30
0.0
 10
11.1518787664
 20
7.9688682181
 30
0.0
 10
11.1723064083
 20
7.9434278565
 30
0.0
 10
11.1908984641
 20
7.9166672333
 30
0.0
 10
11.2075528137
 20
7.8887332028
 30
0.0
 10
11.2221779377
 20
7.8597790465
 30
0.0
 10
11.2346933297
 20
7.8299636291
 30
0.0
 10
11.2450300952
 20
7.7994505432
 30
0.0
 10
11.2531312454
 20
7.7684074325
 30
0.0
 10
11.2589519059
 20
7.7370041484
 30
0.0
 10
11.2624599018
 20
7.7054153828
 30
0.0
 10
11.2632456191
 20
7.684288773
 30
0.0
 10
11.2632456191
 20
7.6737561722
 30
0.0
  0
SPLINE
  5
375
100
AcDbEntity
  8
0
100
AcDbSpline
 62
7
  6
CONTINUOUS
 70
0
 71
3
 72
42
 73
38
 74
0
 42
0.0000001
 43
0.0000001
 44
0.0000000001
 40
0.0
 40
0.0
 40
0.0
 40
0.0
 40
0.0299419663
 40
0.0449235352
 40
0.0599142051
 40
0.0899287052
 40
0.1200139767
 40
0.135092661
 40
0.150196701
 40
0.1804840414
 40
0.210897872
 40
0.2414513324
 40
0.2721543376
 40
0.3030133986
 40
0.3340315263
 40
0.3652082187
 40
0.3965395244
 40
0.4280181782
 40
0.4596338019
 40
0.4913731609
 40
0.5232204716
 40
0.55515775
 40
0.5871651943
 40
0.6192215961
 40
0.6513047701
 40
0.6833919991
 40
0.7154604852
 40
0.7474878032
 40
0.7794523473
 40
0.8113337692
 40
0.8431133916
 40
0.8747746171
 40
0.9063032365
 40
0.9376879249
 40
0.9533258257
 40
0.968925233
 40
1.0
 40
1.0
 40
1.0
 40
1.0
 10
11.2017047434
 20
10.1174664103
 30
0.0
 10
11.2045581661
 20
10.1202226054
 30
0.0
 10
11.209006475
 20
10.1241899127
 30
0.0
 10
11.2152362624
 20
10.1291124518
 30
0.0
 10
11.2216644239
 20
10.1337900586
 30
0.0
 10
11.2300521325
 20
10.1391614602
 30
0.0
 10
11.2388476667
 20
10.1438598753
 30
0.0
 10
11.2461016882
 20
10.1472023753
 30
0.0
 10
11.2535055842
 20
10.150268893
 30
0.0
 10
11.263004428
 20
10.1535663195
 30
0.0
 10
11.2747103278
 20
10.1566394321
 30
0.0
 10
11.2866716543
 20
10.1588165163
 30
0.0
 10
11.2988221226
 20
10.1600855534
 30
0.0
 10
11.3110949867
 20
10.160439773
 30
0.0
 10
11.3234227178
 20
10.1598773715
 30
0.0
 10
11.3357375596
 20
10.1584015976
 30
0.0
 10
11.3479718474
 20
10.1560207049
 30
0.0
 10
11.3600583884
 20
10.1527479065
 30
0.0
 10
11.3719308228
 20
10.1486012975
 30
0.0
 10
11.3835239837
 20
10.1436037521
 30
0.0
 10
11.3947742493
 20
10.1377827968
 30
0.0
 10
11.4056198879
 20
10.1311704594
 30
0.0
 10
11.4160013918
 20
10.1238030923
 30
0.0
 10
11.4258617998
 20
10.1157211738
 30
0.0
 10
11.4351470055
 20
10.1069690877
 30
0.0
 10
11.4438060516
 20
10.0975948815
 30
0.0
 10
11.451791406
 20
10.0876500054
 30
0.0
 10
11.4590592202
 20
10.0771890321
 30
0.0
 10
11.4655695682
 20
10.0662693639
 30
0.0
 10
11.4712866637
 20
10.0549509087
 30
0.0
 10
11.4761790549
 20
10.0432958021
 30
0.0
 10
11.4802198042
 20
10.0313678985
 30
0.0
 10
11.4833865929
 20
10.0192330624
 30
0.0
 10
11.4852851499
 20
10.0089899408
 30
0.0
 10
11.4863501874
 20
10.0007597235
 30
0.0
 10
11.4871102769
 20
9.9925373797
 30
0.0
 10
11.487340424
 20
9.9863501243
 30
0.0
 10
11.487340424
 20
9.982232838
 30
0.0
  0
SPLINE
  5
376
100
AcDbEntity
  8
0
100
AcDbSpline
 62
7
  6
CONTINUOUS
 70
0
 71
3
 72
42
 73
38
 74
0
 42
0.0000001
 43
0.0000001
 44
0.0000000001
 40
0.0
 40
0.0
 40
0.0
 40
0.0
 40
0.0299419663
 40
0.0449235352
 40
0.0599142051
 40
0.0899287052
 40
0.1200139767
 40
0.135092661
 40
0.150196701
 40
0.1804840414
 40
0.210897872
 40
0.2414513324
 40
0.2721543376
 40
0.3030133986
 40
0.3340315263
 40
0.3652082187
 40
0.3965395244
 40
0.4280181782
 40
0.4596338019
 40
0.4913731609
 40
0.5232204716
 40
0.55515775
 40
0.5871651943
 40
0.6192215961
 40
0.6513047701
 40
0.6833919991
 40
0.7154604852
 40
0.7474878032
 40
0.7794523473
 40
0.8113337692
 40
0.8431133916
 40
0.8747746171
 40
0.9063032365
 40
0.9376879249
 40
0.9533258257
 40
0.968925233
 40
1.0
 40
1.0
 40
1.0
 40
1.0
 10
10.2357788599
 20
7.2866759185
 30
0.0
 10
10.2386322826
 20
7.2894321136
 30
0.0
 10
10.2430805915
 20
7.2933994209
 30
0.0
 10
10.2493103789
 20
7.29832196
 30
0.0
 10
10.2557385403
 20
7.3029995668
 30
0.0
 10
10.2641262489
 20
7.3083709684
 30
0.0
 10
10.2729217831
 20
7.3130693834
 30
0.0
 10
10.2801758046
 20
7.3164118835
 30
0.0
 10
10.2875797007
 20
7.3194784012
 30
0.0
 10
10.2970785445
 20
7.3227758277
 30
0.0
 10
10.3087844443
 20
7.3258489403
 30
0.0
 10
10.3207457707
 20
7.3280260245
 30
0.0
 10
10.3328962391
 20
7.3292950616
 30
0.0
 10
10.3451691031
 20
7.3296492812
 30
0.0
 10
10.3574968342
 20
7.3290868797
 30
0.0
 10
10.3698116761
 20
7.3276111058
 30
0.0
 10
10.3820459638
 20
7.325230213
 30
0.0
 10
10.3941325049
 20
7.3219574147
 30
0.0
 10
10.4060049393
 20
7.3178108057
 30
0.0
 10
10.4175981002
 20
7.3128132602
 30
0.0
 10
10.4288483658
 20
7.306992305
 30
0.0
 10
10.4396940044
 20
7.3003799676
 30
0.0
 10
10.4500755083
 20
7.2930126005
 30
0.0
 10
10.4599359162
 20
7.284930682
 30
0.0
 10
10.469221122
 20
7.2761785959
 30
0.0
 10
10.4778801681
 20
7.2668043897
 30
0.0
 10
10.4858655225
 20
7.2568595136
 30
0.0
 10
10.4931333367
 20
7.2463985403
 30
0.0
 10
10.4996436847
 20
7.2354788721
 30
0.0
 10
10.5053607802
 20
7.2241604169
 30
0.0
 10
10.5102531714
 20
7.2125053103
 30
0.0
 10
10.5142939207
 20
7.2005774067
 30
0.0
 10
10.5174607094
 20
7.1884425706
 30
0.0
 10
10.5193592663
 20
7.178199449
 30
0.0
 10
10.5204243039
 20
7.1699692317
 30
0.0
 10
10.5211843934
 20
7.1617468879
 30
0.0
 10
10.5214145405
 20
7.1555596325
 30
0.0
 10
10.5214145405
 20
7.1514423462
 30
0.0
  0
SPLINE
  5
377
100
AcDbEntity
  8
0
100
AcDbSpline
 62
7
  6
CONTINUOUS
 70
0
 71
3
 72
86
 73
82
 74
0
 42
0.0000001
 43
0.0000001
 44
0.0000000001
 40
0.0
 40
0.0
 40
0.0
 40
0.0
 40
0.0027164229
 40
0.0054532199
 40
0.0082302803
 40
0.0110665652
 40
0.0139797601
 40
0.0169860612
 40
0.0201000083
 40
0.0233345154
 40
0.0267008552
 40
0.0302087911
 40
0.0338666949
 40
0.0376816386
 40
0.0416596027
 40
0.0458055094
 40
0.0501234214
 40
0.0546165986
 40
0.0592875859
 40
0.0641383491
 40
0.0691702497
 40
0.0743842108
 40
0.0797806815
 40
0.0853597253
 40
0.0911210701
 40
0.0970640767
 40
0.1094907819
 40
0.1226299857
 40
0.1364676026
 40
0.1509863633
 40
0.166166208
 40
0.1819846021
 40
0.1984167887
 40
0.2154360082
 40
0.2330136911
 40
0.2511196222
 40
0.2697220861
 40
0.2887880011
 40
0.3082830385
 40
0.3281717446
 40
0.3484176561
 40
0.3689834073
 40
0.3898308346
 40
0.4109210783
 40
0.4322146819
 40
0.4536716962
 40
0.4969136001
 40
0.5403217884
 40
0.5835689461
 40
0.6050305436
 40
0.6263300209
 40
0.6474274143
 40
0.6682832501
 40
0.6888586484
 40
0.7091154216
 40
0.7290161766
 40
0.7485244187
 40
0.7676046599
 40
0.7862225346
 40
0.8043449193
 40
0.8219400528
 40
0.8389776685
 40
0.8554291414
 40
0.8712676506
 40
0.8864683732
 40
0.9010086996
 40
0.9148684857
 40
0.9280303658
 40
0.9404801448
 40
0.9464347977
 40
0.952207837
 40
0.9577986052
 40
0.9632068066
 40
0.9684324934
 40
0.9734760794
 40
0.9783384382
 40
0.9830208843
 40
0.9875254058
 40
0.9918546018
 40
0.9960115767
 40
1.0
 40
1.0
 40
1.0
 40
1.0
 10
12.4160263807
 20
8.4017481154
 30
0.0
 10
12.4151398517
 20
8.4018095964
 30
0.0
 10
12.4133646861
 20
8.4020132779
 30
0.0
 10
12.4107245312
 20
8.4025582585
 30
0.0
 10
12.4081043349
 20
8.403342679
 30
0.0
 10
12.4055059593
 20
8.404365747
 30
0.0
 10
12.402930737
 20
8.4056265424
 30
0.0
 10
12.400380017
 20
8.4071241255
 30
0.0
 10
12.3978549322
 20
8.4088573652
 30
0.0
 10
12.3953566491
 20
8.4108252241
 30
0.0
 10
12.3928862159
 20
8.4130265119
 30
0.0
 10
12.3904447041
 20
8.4154600377
 30
0.0
 10
12.3880332024
 20
8.4181245477
 30
0.0
 10
12.385652734
 20
8.4210186567
 30
0.0
 10
12.3833044351
 20
8.4241409624
 30
0.0
 10
12.3809893378
 20
8.4274898875
 30
0.0
 10
12.3787085603
 20
8.4310638029
 30
0.0
 10
12.3764631873
 20
8.4348609459
 30
0.0
 10
12.374254276
 20
8.4388794362
 30
0.0
 10
12.3720829487
 20
8.4431173085
 30
0.0
 10
12.3699502188
 20
8.4475724467
 30
0.0
 10
12.3678571839
 20
8.4522426573
 30
0.0
 10
12.3658048584
 20
8.4571256122
 30
0.0
 10
12.3637942682
 20
8.4622188801
 30
0.0
 10
12.3618264215
 20
8.4675199355
 30
0.0
 10
12.3592221234
 20
8.4749727264
 30
0.0
 10
12.3560903497
 20
8.4847957312
 30
0.0
 10
12.3525715217
 20
8.4971987149
 30
0.0
 10
12.3492453704
 20
8.5103616913
 30
0.0
 10
12.3461186294
 20
8.5242583116
 30
0.0
 10
12.3431976556
 20
8.5388608931
 30
0.0
 10
12.3404883923
 20
8.554140225
 30
0.0
 10
12.3379963528
 20
8.5700657119
 30
0.0
 10
12.335726607
 20
8.5866054229
 30
0.0
 10
12.3336837747
 20
8.6037261714
 30
0.0
 10
12.3318720145
 20
8.6213935867
 30
0.0
 10
12.3302950157
 20
8.639572186
 30
0.0
 10
12.328955992
 20
8.6582254467
 30
0.0
 10
12.3278576698
 20
8.6773158807
 30
0.0
 10
12.3270022865
 20
8.6968051126
 30
0.0
 10
12.3263915882
 20
8.7166539609
 30
0.0
 10
12.3260268265
 20
8.7368225166
 30
0.0
 10
12.325908754
 20
8.7572702281
 30
0.0
 10
12.3260376318
 20
8.7779559663
 30
0.0
 10
12.3264131927
 20
8.7988381647
 30
0.0
 10
12.3272440619
 20
8.8269582399
 30
0.0
 10
12.3288938011
 20
8.8622895261
 30
0.0
 10
12.3318263979
 20
8.9046865294
 30
0.0
 10
12.3350570174
 20
8.9399116919
 30
0.0
 10
12.3381059554
 20
8.9678835015
 30
0.0
 10
12.3406094319
 20
8.988624294
 30
0.0
 10
12.3433302813
 20
9.0091377885
 30
0.0
 10
12.3462630437
 20
9.0293827634
 30
0.0
 10
12.3494017968
 20
9.0493185012
 30
0.0
 10
12.3527402108
 20
9.0689049204
 30
0.0
 10
12.3562715503
 20
9.088102643
 30
0.0
 10
12.3599886898
 20
9.1068730763
 30
0.0
 10
12.3638841283
 20
9.1251784923
 30
0.0
 10
12.3679500013
 20
9.1429821069
 30
0.0
 10
12.3721780954
 20
9.1602481571
 30
0.0
 10
12.3765598691
 20
9.1769419727
 30
0.0
 10
12.3810864692
 20
9.1930300468
 30
0.0
 10
12.3857487483
 20
9.208480107
 30
0.0
 10
12.3905372864
 20
9.2232611849
 30
0.0
 10
12.3954424062
 20
9.2373436945
 30
0.0
 10
12.4004541967
 20
9.250699478
 30
0.0
 10
12.405562547
 20
9.2633019448
 30
0.0
 10
12.4107571557
 20
9.2751258767
 30
0.0
 10
12.415212827
 20
9.2844443368
 30
0.0
 10
12.41881946
 20
9.2914841238
 30
0.0
 10
12.4214992862
 20
9.2964763152
 30
0.0
 10
12.4241928458
 20
9.3012569661
 30
0.0
 10
12.4268988031
 20
9.3058237053
 30
0.0
 10
12.4296157995
 20
9.3101742641
 30
0.0
 10
12.4323425137
 20
9.3143064607
 30
0.0
 10
12.4350775384
 20
9.3182182607
 30
0.0
 10
12.4378195793
 20
9.3219077137
 30
0.0
 10
12.4405672928
 20
9.3253730388
 30
0.0
 10
12.4433194049
 20
9.328612543
 30
0.0
 10
12.4460744395
 20
9.3316244674
 30
0.0
 10
12.4479503533
 20
9.3335182729
 30
0.0
 10
12.4488888253
 20
9.3344247673
 30
0.0
  0
SPLINE
  5
378
100
AcDbEntity
  8
0
100
AcDbSpline
 62
7
  6
CONTINUOUS
 70
0
 71
3
 72
59
 73
55
 74
0
 42
0.0000001
 43
0.0000001
 44
0.0000000001
 40
0.0
 40
0.0
 40
0.0
 40
0.0
 40
0.0075208311
 40
0.0156241766
 40
0.0243311007
 40
0.0336549386
 40
0.0436028077
 40
0.0541768317
 40
0.0653749453
 40
0.0771915599
 40
0.08961816
 40
0.10264364
 40
0.1162546046
 40
0.1304357049
 40
0.1451697937
 40
0.1604380695
 40
0.1762203028
 40
0.1924949219
 40
0.2092390877
 40
0.2264288677
 40
0.2440392968
 40
0.2620444227
 40
0.2991300734
 40
0.337463055
 40
0.3768093382
 40
0.4169265582
 40
0.4575661491
 40
0.4984753803
 40
0.5393993789
 40
0.5800831581
 40
0.6202736296
 40
0.6597216473
 40
0.6981840261
 40
0.7354256484
 40
0.7535183302
 40
0.7712224299
 40
0.7885118037
 40
0.8053612647
 40
0.8217466086
 40
0.8376447426
 40
0.8530338123
 40
0.8678932395
 40
0.8822038834
 40
0.8959482262
 40
0.9091104572
 40
0.9216767058
 40
0.9336353451
 40
0.9449771968
 40
0.955695942
 40
0.9657887114
 40
0.9752565152
 40
0.9841051685
 40
0.9923468893
 40
1.0
 40
1.0
 40
1.0
 40
1.0
 10
12.3894706538
 20
8.5553128465
 30
0.0
 10
12.3884155507
 20
8.5566101603
 30
0.0
 10
12.3863366731
 20
8.5593983624
 30
0.0
 10
12.383411142
 20
8.5639530352
 30
0.0
 10
12.3805691453
 20
8.5690249198
 30
0.0
 10
12.3778151884
 20
8.5746057015
 30
0.0
 10
12.3751534178
 20
8.5806866926
 30
0.0
 10
12.3725881337
 20
8.5872581536
 30
0.0
 10
12.3701235052
 20
8.5943094896
 30
0.0
 10
12.3677635784
 20
8.6018292238
 30
0.0
 10
12.365512289
 20
8.6098050651
 30
0.0
 10
12.3633733979
 20
8.6182239152
 30
0.0
 10
12.3613504649
 20
8.6270719006
 30
0.0
 10
12.3594468931
 20
8.6363344174
 30
0.0
 10
12.357665883
 20
8.6459961499
 30
0.0
 10
12.3560104051
 20
8.6560410973
 30
0.0
 10
12.3544832477
 20
8.6664526155
 30
0.0
 10
12.3530869843
 20
8.6772134399
 30
0.0
 10
12.3518239401
 20
8.6883057147
 30
0.0
 10
12.3506962475
 20
8.6997110247
 30
0.0
 10
12.3497057893
 20
8.7114104515
 30
0.0
 10
12.3485591657
 20
8.7275347399
 30
0.0
 10
12.3474901152
 20
8.7482816961
 30
0.0
 10
12.3467864799
 20
8.7737913663
 30
0.0
 10
12.3466549526
 20
8.7999843941
 30
0.0
 10
12.347096557
 20
8.826686811
 30
0.0
 10
12.3481085313
 20
8.8537213894
 30
0.0
 10
12.3496842534
 20
8.8809086191
 30
0.0
 10
12.3518132756
 20
8.908067977
 30
0.0
 10
12.3544814429
 20
8.935019126
 30
0.0
 10
12.357670969
 20
8.9615831183
 30
0.0
 10
12.3613605118
 20
8.9875836641
 30
0.0
 10
12.3655254157
 20
9.0128480892
 30
0.0
 10
12.3694053459
 20
9.033341403
 30
0.0
 10
12.372734127
 20
9.0492365579
 30
0.0
 10
12.375307374
 20
9.0607563657
 30
0.0
 10
12.3779769557
 20
9.0719702847
 30
0.0
 10
12.3807384288
 20
9.0828597155
 30
0.0
 10
12.3835871906
 20
9.093406578
 30
0.0
 10
12.3865184945
 20
9.1035933744
 30
0.0
 10
12.3895274325
 20
9.1134032183
 30
0.0
 10
12.3926089923
 20
9.1228198519
 30
0.0
 10
12.3957580408
 20
9.1318276828
 30
0.0
 10
12.3989693072
 20
9.1404118233
 30
0.0
 10
12.4022374456
 20
9.1485580995
 30
0.0
 10
12.4055570283
 20
9.1562530865
 30
0.0
 10
12.4089225215
 20
9.1634841534
 30
0.0
 10
12.4123283599
 20
9.1702394676
 30
0.0
 10
12.4157689541
 20
9.176508029
 30
0.0
 10
12.4192386921
 20
9.1822797191
 30
0.0
 10
12.4227319609
 20
9.1875452577
 30
0.0
 10
12.4262434411
 20
9.192296466
 30
0.0
 10
12.4297674733
 20
9.196525439
 30
0.0
 10
12.4322101158
 20
9.1990847472
 30
0.0
 10
12.4334340104
 20
9.2002669386
 30
0.0
  0
SPLINE
  5
379
100
AcDbEntity
  8
0
100
AcDbSpline
 62
7
  6
CONTINUOUS
 70
0
 71
3
 72
21
 73
17
 74
0
 42
0.0000001
 43
0.0000001
 44
0.0000000001
 40
0.0
 40
0.0
 40
0.0
 40
0.0
 40
0.1273176366
 40
0.2537999756
 40
0.3167619475
 40
0.3795355041
 40
0.4421314991
 40
0.5045621439
 40
0.5668413432
 40
0.6289845283
 40
0.6910084528
 40
0.7529310935
 40
0.8147714495
 40
0.8765493365
 40
0.9382852194
 40
1.0
 40
1.0
 40
1.0
 40
1.0
 10
10.1891360366
 20
7.1744859387
 30
0.0
 10
10.1891360366
 20
7.1797831886
 30
0.0
 10
10.189641694
 20
7.1903497528
 30
0.0
 10
10.1915513981
 20
7.2034123093
 30
0.0
 10
10.1938339191
 20
7.2136587429
 30
0.0
 10
10.1959154556
 20
7.221216516
 30
0.0
 10
10.1983642432
 20
7.22864
 30
0.0
 10
10.201174671
 20
7.2359122798
 30
0.0
 10
10.2043402384
 20
7.2430165417
 30
0.0
 10
10.2078536898
 20
7.2499364021
 30
0.0
 10
10.211706943
 20
7.2566558863
 30
0.0
 10
10.2158910896
 20
7.2631595183
 30
0.0
 10
10.2203964919
 20
7.269432271
 30
0.0
 10
10.2252128392
 20
7.2754597029
 30
0.0
 10
10.2303287978
 20
7.2812277495
 30
0.0
 10
10.2339320011
 20
7.2848919895
 30
0.0
 10
10.2357788599
 20
7.2866759185
 30
0.0
  0
SPLINE
  5
37A
100
AcDbEntity
  8
0
100
AcDbSpline
 62
7
  6
CONTINUOUS
 70
0
 71
3
 72
69
 73
65
 74
0
 42
0.0000001
 43
0.0000001
 44
0.0000000001
 40
0.0
 40
0.0
 40
0.0
 40
0.0
 40
0.0155843576
 40
0.0311165404
 40
0.0465960308
 40
0.0620249371
 40
0.0774047753
 40
0.0927378621
 40
0.108026966
 40
0.1232752762
 40
0.1384864185
 40
0.1536643981
 40
0.1688135695
 40
0.1839385908
 40
0.1990443744
 40
0.2141360361
 40
0.2292188427
 40
0.2442981572
 40
0.2593793793
 40
0.2744678873
 40
0.2895689813
 40
0.3046878282
 40
0.319829407
 40
0.3349984551
 40
0.350199419
 40
0.3654364118
 40
0.3807131731
 40
0.3960330322
 40
0.4113988751
 40
0.4268131209
 40
0.4422777041
 40
0.4577940584
 40
0.473363106
 40
0.4889852529
 40
0.5046603946
 40
0.5203879208
 40
0.5361667243
 40
0.551995215
 40
0.5678713429
 40
0.5837926213
 40
0.599756151
 40
0.6157586479
 40
0.6317964791
 40
0.6478656978
 40
0.6800725949
 40
0.7123515113
 40
0.7285100947
 40
0.7446719372
 40
0.7608319994
 40
0.7769852592
 40
0.7931267537
 40
0.8092516208
 40
0.8253551437
 40
0.8414327945
 40
0.857480274
 40
0.8734935475
 40
0.889468884
 40
0.9054029007
 40
0.9212925699
 40
0.9371352942
 40
0.952928929
 40
0.9686714788
 40
0.9843625188
 40
1.0
 40
1.0
 40
1.0
 40
1.0
 10
11.0983496909
 20
7.6894789272
 30
0.0
 10
11.0983496909
 20
7.6852982418
 30
0.0
 10
11.0981450755
 20
7.6769493858
 30
0.0
 10
11.0972215399
 20
7.6644787286
 30
0.0
 10
11.0956839123
 20
7.6521104734
 30
0.0
 10
11.0935360545
 20
7.6398749958
 30
0.0
 10
11.0907829739
 20
7.6278015401
 30
0.0
 10
11.0874313271
 20
7.6159192909
 30
0.0
 10
11.0834891753
 20
7.6042568716
 30
0.0
 10
11.0789659867
 20
7.5928424052
 30
0.0
 10
11.0738726271
 20
7.5817034277
 30
0.0
 10
11.068221352
 20
7.5708668086
 30
0.0
 10
11.062025788
 20
7.5603586786
 30
0.0
 10
11.0553008597
 20
7.5502043856
 30
0.0
 10
11.0480627609
 20
7.5404284343
 30
0.0
 10
11.0403289277
 20
7.5310544209
 30
0.0
 10
11.0321180266
 20
7.5221049456
 30
0.0
 10
11.0234498613
 20
7.5136015939
 30
0.0
 10
11.0143453338
 20
7.5055648805
 30
0.0
 10
11.0048263923
 20
7.4980142064
 30
0.0
 10
10.9949160149
 20
7.4909677628
 30
0.0
 10
10.9846381158
 20
7.4844425272
 30
0.0
 10
10.9740174875
 20
7.4784542257
 30
0.0
 10
10.9630797403
 20
7.4730173043
 30
0.0
 10
10.9518512645
 20
7.4681448473
 30
0.0
 10
10.9403591494
 20
7.4638485655
 30
0.0
 10
10.9286311087
 20
7.4601387918
 30
0.0
 10
10.9166954168
 20
7.45702446
 30
0.0
 10
10.9045808509
 20
7.4545130537
 30
0.0
 10
10.8923166195
 20
7.4526105739
 30
0.0
 10
10.8799322807
 20
7.4513215725
 30
0.0
 10
10.8674576757
 20
7.4506491352
 30
0.0
 10
10.8549228616
 20
7.4505948685
 30
0.0
 10
10.8423580366
 20
7.4511588488
 30
0.0
 10
10.8297934641
 20
7.4523396824
 30
0.0
 10
10.8172594029
 20
7.4541345017
 30
0.0
 10
10.8047860397
 20
7.4565389795
 30
0.0
 10
10.7924034063
 20
7.4595472817
 30
0.0
 10
10.7801413099
 20
7.4631521306
 30
0.0
 10
10.7680292733
 20
7.467344823
 30
0.0
 10
10.7560964404
 20
7.4721152776
 30
0.0
 10
10.7443716034
 20
7.4774519357
 30
0.0
 10
10.7328827123
 20
7.483342104
 30
0.0
 10
10.7179070213
 20
7.4919195168
 30
0.0
 10
10.6999178413
 20
7.5039522991
 30
0.0
 10
10.6830913876
 20
7.5176011702
 30
0.0
 10
10.6704102973
 20
7.5294196914
 30
0.0
 10
10.6613087278
 20
7.5387162964
 30
0.0
 10
10.6526434358
 20
7.5484185816
 30
0.0
 10
10.6444350163
 20
7.5585033926
 30
0.0
 10
10.6367033032
 20
7.5689464056
 30
0.0
 10
10.6294669131
 20
7.5797225136
 30
0.0
 10
10.6227432665
 20
7.5908057678
 30
0.0
 10
10.6165485453
 20
7.6021694887
 30
0.0
 10
10.6108976738
 20
7.6137863279
 30
0.0
 10
10.6058042878
 20
7.6256283341
 30
0.0
 10
10.6012806623
 20
7.6376670028
 30
0.0
 10
10.5973376921
 20
7.6498733496
 30
0.0
 10
10.5939848832
 20
7.662217991
 30
0.0
 10
10.5912303413
 20
7.6746712327
 30
0.0
 10
10.5890807737
 20
7.6872030108
 30
0.0
 10
10.5875412473
 20
7.6997834011
 30
0.0
 10
10.5866156819
 20
7.7123815317
 30
0.0
 10
10.5864089727
 20
7.7207872001
 30
0.0
 10
10.5864089727
 20
7.7249821366
 30
0.0
  0
SPLINE
  5
37B
100
AcDbEntity
  8
0
100
AcDbSpline
 62
7
  6
CONTINUOUS
 70
0
 71
3
 72
69
 73
65
 74
0
 42
0.0000001
 43
0.0000001
 44
0.0000000001
 40
0.0
 40
0.0
 40
0.0
 40
0.0
 40
0.0156374812
 40
0.0313285212
 40
0.047071071
 40
0.0628647058
 40
0.0787074301
 40
0.0945970993
 40
0.110531116
 40
0.1265064525
 40
0.142519726
 40
0.1585672055
 40
0.1746448563
 40
0.1907483792
 40
0.2068732463
 40
0.2230147408
 40
0.2391680006
 40
0.2553280628
 40
0.2714899053
 40
0.2876484887
 40
0.3199274051
 40
0.3521343022
 40
0.3682035209
 40
0.3842413521
 40
0.400243849
 40
0.4162073787
 40
0.4321286571
 40
0.448004785
 40
0.4638332757
 40
0.4796120792
 40
0.4953396054
 40
0.5110147471
 40
0.526636894
 40
0.5422059416
 40
0.5577222959
 40
0.5731868791
 40
0.5886011249
 40
0.6039669678
 40
0.6192868269
 40
0.6345635882
 40
0.649800581
 40
0.6650015449
 40
0.680170593
 40
0.6953121718
 40
0.7104310187
 40
0.7255321127
 40
0.7406206207
 40
0.7557018428
 40
0.7707811573
 40
0.7858639639
 40
0.8009556256
 40
0.8160614092
 40
0.8311864305
 40
0.8463356019
 40
0.8615135815
 40
0.8767247238
 40
0.891973034
 40
0.9072621379
 40
0.9225952247
 40
0.9379750629
 40
0.9534039692
 40
0.9688834596
 40
0.9844156424
 40
1.0
 40
1.0
 40
1.0
 40
1.0
 10
11.0983496909
 20
7.6894789272
 30
0.0
 10
11.0983496909
 20
7.6936738636
 30
0.0
 10
11.0981429817
 20
7.702079532
 30
0.0
 10
11.0972174163
 20
7.7146776626
 30
0.0
 10
11.0956778899
 20
7.727258053
 30
0.0
 10
11.0935283224
 20
7.7397898311
 30
0.0
 10
11.0907737804
 20
7.7522430727
 30
0.0
 10
11.0874209715
 20
7.7645877141
 30
0.0
 10
11.0834780014
 20
7.7767940609
 30
0.0
 10
11.0789543758
 20
7.7888327296
 30
0.0
 10
11.0738609898
 20
7.8006747359
 30
0.0
 10
11.0682101184
 20
7.8122915751
 30
0.0
 10
11.0620153971
 20
7.8236552959
 30
0.0
 10
11.0552917505
 20
7.8347385501
 30
0.0
 10
11.0480553604
 20
7.8455146581
 30
0.0
 10
11.0403236473
 20
7.8559576712
 30
0.0
 10
11.0321152278
 20
7.8660424821
 30
0.0
 10
11.0234499358
 20
7.8757447673
 30
0.0
 10
11.0143483664
 20
7.8850413723
 30
0.0
 10
11.001667276
 20
7.8968598935
 30
0.0
 10
10.9848408223
 20
7.9105087647
 30
0.0
 10
10.9668516423
 20
7.922541547
 30
0.0
 10
10.9518759513
 20
7.9311189597
 30
0.0
 10
10.9403870602
 20
7.937009128
 30
0.0
 10
10.9286622232
 20
7.9423457861
 30
0.0
 10
10.9167293903
 20
7.9471162407
 30
0.0
 10
10.9046173537
 20
7.9513089331
 30
0.0
 10
10.8923552573
 20
7.954913782
 30
0.0
 10
10.8799726239
 20
7.9579220842
 30
0.0
 10
10.8674992607
 20
7.960326562
 30
0.0
 10
10.8549651995
 20
7.9621213813
 30
0.0
 10
10.8424006271
 20
7.9633022149
 30
0.0
 10
10.8298358021
 20
7.9638661952
 30
0.0
 10
10.8173009879
 20
7.9638119285
 30
0.0
 10
10.8048263829
 20
7.9631394912
 30
0.0
 10
10.7924420441
 20
7.9618504898
 30
0.0
 10
10.7801778127
 20
7.95994801
 30
0.0
 10
10.7680632469
 20
7.9574366037
 30
0.0
 10
10.7561275549
 20
7.9543222719
 30
0.0
 10
10.7443995142
 20
7.9506124983
 30
0.0
 10
10.7329073991
 20
7.9463162164
 30
0.0
 10
10.7216789233
 20
7.9414437594
 30
0.0
 10
10.7107411761
 20
7.9360068381
 30
0.0
 10
10.7001205478
 20
7.9300185365
 30
0.0
 10
10.6898426487
 20
7.9234933009
 30
0.0
 10
10.6799322714
 20
7.9164468573
 30
0.0
 10
10.6704133298
 20
7.9088961832
 30
0.0
 10
10.6613088023
 20
7.9008594698
 30
0.0
 10
10.652640637
 20
7.8923561181
 30
0.0
 10
10.6444297359
 20
7.8834066429
 30
0.0
 10
10.6366959027
 20
7.8740326294
 30
0.0
 10
10.6294578039
 20
7.8642566781
 30
0.0
 10
10.6227328757
 20
7.8541023851
 30
0.0
 10
10.6165373117
 20
7.8435942552
 30
0.0
 10
10.6108860365
 20
7.832757636
 30
0.0
 10
10.6057926769
 20
7.8216186585
 30
0.0
 10
10.6012694883
 20
7.8102041921
 30
0.0
 10
10.5973273365
 20
7.7985417728
 30
0.0
 10
10.5939756897
 20
7.7866595236
 30
0.0
 10
10.5912226092
 20
7.7745860679
 30
0.0
 10
10.5890747513
 20
7.7623505904
 30
0.0
 10
10.5875371237
 20
7.7499823352
 30
0.0
 10
10.5866135882
 20
7.7375116779
 30
0.0
 10
10.5864089727
 20
7.729162822
 30
0.0
 10
10.5864089727
 20
7.7249821366
 30
0.0
  0
SPLINE
  5
37C
100
AcDbEntity
  8
0
100
AcDbSpline
 62
7
  6
CONTINUOUS
 70
0
 71
3
 72
86
 73
82
 74
0
 42
0.0000001
 43
0.0000001
 44
0.0000000001
 40
0.0
 40
0.0
 40
0.0
 40
0.0
 40
0.0039801735
 40
0.0081241171
 40
0.0124359931
 40
0.016919361
 40
0.0215772361
 40
0.0264119817
 40
0.0314252561
 40
0.0366182449
 40
0.0419916453
 40
0.0475457694
 40
0.0532805541
 40
0.0591955582
 40
0.0652900785
 40
0.0715630739
 40
0.0846387684
 40
0.0984101018
 40
0.112860694
 40
0.1279712428
 40
0.1437198619
 40
0.1600823544
 40
0.1770324406
 40
0.1945419645
 40
0.2125810668
 40
0.2311183398
 40
0.2501209668
 40
0.2695548486
 40
0.289384725
 40
0.3095742955
 40
0.3300863312
 40
0.3508827821
 40
0.3719248818
 40
0.3931732491
 40
0.4145879914
 40
0.4577543474
 40
0.501099203
 40
0.5442952951
 40
0.5657359749
 40
0.587017582
 40
0.6081001434
 40
0.6289441761
 40
0.6495107926
 40
0.6697618048
 40
0.6896598276
 40
0.709168385
 40
0.7282520204
 40
0.7468764117
 40
0.7650084972
 40
0.7826166038
 40
0.7996705814
 40
0.8161419537
 40
0.8320040874
 40
0.8472323859
 40
0.8618045214
 40
0.8757007003
 40
0.8889039845
 40
0.9014006969
 40
0.9073810972
 40
0.9131815075
 40
0.9188013673
 40
0.9242405009
 40
0.9294990443
 40
0.9345775709
 40
0.9394770909
 40
0.9441990928
 40
0.9487456636
 40
0.9531194621
 40
0.9573238984
 40
0.9613631411
 40
0.9652422549
 40
0.9689673208
 40
0.9725454977
 40
0.9759852252
 40
0.9824864215
 40
0.9855752926
 40
0.9885737717
 40
0.9914977072
 40
0.9943643167
 40
0.9971920017
 40
1.0
 40
1.0
 40
1.0
 40
1.0
 10
10.2456118675
 20
10.5381498695
 30
0.0
 10
10.2466021449
 20
10.5391064041
 30
0.0
 10
10.2486684182
 20
10.5410127121
 30
0.0
 10
10.2519490299
 20
10.5437970256
 30
0.0
 10
10.2554705528
 20
10.546561378
 30
0.0
 10
10.2592310537
 20
10.5493042801
 30
0.0
 10
10.263228686
 20
10.5520244642
 30
0.0
 10
10.267461505
 20
10.5547205929
 30
0.0
 10
10.271927389
 20
10.5573913928
 30
0.0
 10
10.2766241245
 20
10.5600354738
 30
0.0
 10
10.2815493423
 20
10.5626515509
 30
0.0
 10
10.2867005834
 20
10.5652383067
 30
0.0
 10
10.2920752718
 20
10.567794432
 30
0.0
 10
10.2976706973
 20
10.5703186712
 30
0.0
 10
10.3034840684
 20
10.5728097254
 30
0.0
 10
10.3116349237
 20
10.5761312264
 30
0.0
 10
10.3223539819
 20
10.5801821173
 30
0.0
 10
10.3358654736
 20
10.5848265227
 30
0.0
 10
10.3501706053
 20
10.589309668
 30
0.0
 10
10.3652405359
 20
10.593622441
 30
0.0
 10
10.3810450144
 20
10.5977560622
 30
0.0
 10
10.3975522038
 20
10.6017021116
 30
0.0
 10
10.4147288246
 20
10.6054525535
 30
0.0
 10
10.4325402122
 20
10.6089997487
 30
0.0
 10
10.4509504004
 20
10.6123364721
 30
0.0
 10
10.4699221969
 20
10.6154559281
 30
0.0
 10
10.4894172603
 20
10.6183517632
 30
0.0
 10
10.5093961782
 20
10.6210180816
 30
0.0
 10
10.5298185486
 20
10.6234494597
 30
0.0
 10
10.5506430663
 20
10.6256409512
 30
0.0
 10
10.5718276074
 20
10.6275880978
 30
0.0
 10
10.5933293194
 20
10.6292869399
 30
0.0
 10
10.6151046918
 20
10.6307340145
 30
0.0
 10
10.6371097042
 20
10.631926402
 30
0.0
 10
10.6667738454
 20
10.6331765866
 30
0.0
 10
10.7041000287
 20
10.6340846671
 30
0.0
 10
10.748971812
 20
10.6341320135
 30
0.0
 10
10.7863190858
 20
10.6333028587
 30
0.0
 10
10.8160165941
 20
10.6321156891
 30
0.0
 10
10.838058593
 20
10.6309699008
 30
0.0
 10
10.8598790187
 20
10.6295689483
 30
0.0
 10
10.8814337585
 20
10.6279156543
 30
0.0
 10
10.9026791925
 20
10.6260133874
 30
0.0
 10
10.9235723443
 20
10.6238660173
 30
0.0
 10
10.9440709513
 20
10.6214779133
 30
0.0
 10
10.9641335547
 20
10.618853934
 30
0.0
 10
10.9837195822
 20
10.6159994188
 30
0.0
 10
11.0027894334
 20
10.6129201753
 30
0.0
 10
11.0213045646
 20
10.6096224736
 30
0.0
 10
11.0392275688
 20
10.6061130313
 30
0.0
 10
11.0565222526
 20
10.6023989971
 30
0.0
 10
11.0731537122
 20
10.5984879365
 30
0.0
 10
11.0890884066
 20
10.5943878163
 30
0.0
 10
11.1042942416
 20
10.5901069843
 30
0.0
 10
11.118740623
 20
10.5856541561
 30
0.0
 10
11.1323986128
 20
10.5810383854
 30
0.0
 10
11.1452407104
 20
10.576269043
 30
0.0
 10
11.1553848067
 20
10.5721160497
 30
0.0
 10
11.1630644246
 20
10.5687163832
 30
0.0
 10
11.1685197326
 20
10.5661717026
 30
0.0
 10
11.1737525516
 20
10.5635959277
 30
0.0
 10
11.178760281
 20
10.5609903775
 30
0.0
 10
11.1835403969
 20
10.5583563228
 30
0.0
 10
11.1880905156
 20
10.5556950965
 30
0.0
 10
11.1924083707
 20
10.5530080291
 30
0.0
 10
11.1964917921
 20
10.5502964143
 30
0.0
 10
11.2003387754
 20
10.5475616346
 30
0.0
 10
11.2039473763
 20
10.5448049655
 30
0.0
 10
11.2073158274
 20
10.5420277764
 30
0.0
 10
11.2104424347
 20
10.5392313773
 30
0.0
 10
11.2133256368
 20
10.5364170422
 30
0.0
 10
11.2159639434
 20
10.5335862071
 30
0.0
 10
11.2183561566
 20
10.5307397682
 30
0.0
 10
11.2211625054
 20
10.5269970788
 30
0.0
 10
11.2235455176
 20
10.5231534714
 30
0.0
 10
11.2254375572
 20
10.5192278123
 30
0.0
 10
11.2265807026
 20
10.5163244845
 30
0.0
 10
11.2274709565
 20
10.5134141065
 30
0.0
 10
11.2281074904
 20
10.5104980625
 30
0.0
 10
11.2284897121
 20
10.5075784581
 30
0.0
 10
11.2285748011
 20
10.5056279282
 30
0.0
 10
11.2285748055
 20
10.5046565932
 30
0.0
  0
SPLINE
  5
37D
100
AcDbEntity
  8
0
100
AcDbSpline
 62
7
  6
CONTINUOUS
 70
0
 71
3
 72
18
 73
14
 74
0
 42
0.0000001
 43
0.0000001
 44
0.0000000001
 40
0.0
 40
0.0
 40
0.0
 40
0.0
 40
0.0548621106
 40
0.1099281304
 40
0.165399556
 40
0.2214731722
 40
0.2783387379
 40
0.3361775111
 40
0.4554063056
 40
0.5804414047
 40
0.7123341351
 40
0.8519581983
 40
1.0
 40
1.0
 40
1.0
 40
1.0
 10
10.2285748129
 20
10.5046559584
 30
0.0
 10
10.2285748097
 20
10.5053621043
 30
0.0
 10
10.2286196223
 20
10.5067774264
 30
0.0
 10
10.2288211185
 20
10.5088981094
 30
0.0
 10
10.2291568689
 20
10.5110175687
 30
0.0
 10
10.2296267465
 20
10.5131350309
 30
0.0
 10
10.2302305536
 20
10.5152499671
 30
0.0
 10
10.2312237042
 20
10.5180939855
 30
0.0
 10
10.2328147212
 20
10.521651088
 30
0.0
 10
10.2352363545
 20
10.5258520441
 30
0.0
 10
10.2381857872
 20
10.5300258147
 30
0.0
 10
10.2416585321
 20
10.5341681934
 30
0.0
 10
10.2442413361
 20
10.5368260379
 30
0.0
 10
10.2456118675
 20
10.5381498695
 30
0.0
  0
SPLINE
  5
37E
100
AcDbEntity
  8
0
100
AcDbSpline
 62
7
  6
CONTINUOUS
 70
0
 71
3
 72
47
 73
43
 74
0
 42
0.0000001
 43
0.0000001
 44
0.0000000001
 40
0.0
 40
0.0
 40
0.0
 40
0.0
 40
0.0149719699
 40
0.0299469986
 40
0.0449281275
 40
0.0599183593
 40
0.0749206409
 40
0.0899378479
 40
0.1049727642
 40
0.1200280654
 40
0.1351063071
 40
0.1502099062
 40
0.1653411266
 40
0.1805020712
 40
0.195694667
 40
0.2109206532
 40
0.226181577
 40
0.2414787841
 40
0.2721808909
 40
0.30303905
 40
0.3340562704
 40
0.3652320501
 40
0.3965624391
 40
0.4280401707
 40
0.4596548674
 40
0.4913932962
 40
0.5232396724
 40
0.5551760134
 40
0.5871825188
 40
0.61923798
 40
0.6513202127
 40
0.6834065006
 40
0.7154740464
 40
0.7475004247
 40
0.7794640313
 40
0.8113445177
 40
0.8431232087
 40
0.8747834982
 40
0.9063112124
 40
0.9376949433
 40
0.9689261019
 40
1.0
 40
1.0
 40
1.0
 40
1.0
 10
11.1439263064
 20
7.3867581037
 30
0.0
 10
11.1402762314
 20
7.3832324073
 30
0.0
 10
11.1328342881
 20
7.3763246528
 30
0.0
 10
11.1212672334
 20
7.3664136646
 30
0.0
 10
11.1093107067
 20
7.3569658088
 30
0.0
 10
11.0969813724
 20
7.3479943322
 30
0.0
 10
11.0842961694
 20
7.3395114784
 30
0.0
 10
11.0712725658
 20
7.331528939
 30
0.0
 10
11.0579284616
 20
7.3240577257
 30
0.0
 10
11.0442822491
 20
7.3171080706
 30
0.0
 10
11.0303527042
 20
7.3106895317
 30
0.0
 10
11.0161589797
 20
7.3048109743
 30
0.0
 10
11.0017206265
 20
7.2994804331
 30
0.0
 10
10.9870575158
 20
7.2947052312
 30
0.0
 10
10.97218979
 20
7.2904919722
 30
0.0
 10
10.9571379953
 20
7.2868464018
 30
0.0
 10
10.9419225547
 20
7.2837735026
 30
0.0
 10
10.9214230323
 20
7.2804418233
 30
0.0
 10
10.8954858982
 20
7.2777326534
 30
0.0
 10
10.8640909676
 20
7.2768267183
 30
0.0
 10
10.8325547273
 20
7.2782654079
 30
0.0
 10
10.8010517184
 20
7.2820406779
 30
0.0
 10
10.7697547165
 20
7.2881313794
 30
0.0
 10
10.7388356867
 20
7.2965036716
 30
0.0
 10
10.7084643674
 20
7.3071112924
 30
0.0
 10
10.6788074802
 20
7.3198957427
 30
0.0
 10
10.6500277535
 20
7.3347865563
 30
0.0
 10
10.6222831224
 20
7.3517018416
 30
0.0
 10
10.5957258214
 20
7.3705486071
 30
0.0
 10
10.5705015372
 20
7.3912232677
 30
0.0
 10
10.5467487104
 20
7.4136123228
 30
0.0
 10
10.5245976943
 20
7.4375928514
 30
0.0
 10
10.5041700524
 20
7.4630332129
 30
0.0
 10
10.4855779965
 20
7.4897938362
 30
0.0
 10
10.468923647
 20
7.5177278667
 30
0.0
 10
10.4542985229
 20
7.546682023
 30
0.0
 10
10.4417831309
 20
7.5764974404
 30
0.0
 10
10.4314463654
 20
7.6070105263
 30
0.0
 10
10.4233452152
 20
7.638053637
 30
0.0
 10
10.4175245547
 20
7.669456921
 30
0.0
 10
10.4140165588
 20
7.7010456866
 30
0.0
 10
10.4132308416
 20
7.7221722965
 30
0.0
 10
10.4132308416
 20
7.7327048973
 30
0.0
  0
SPLINE
  5
37F
100
AcDbEntity
  8
0
100
AcDbSpline
 62
7
  6
CONTINUOUS
 70
0
 71
3
 72
45
 73
41
 74
0
 42
0.0000001
 43
0.0000001
 44
0.0000000001
 40
0.0
 40
0.0
 40
0.0
 40
0.0
 40
0.0149691714
 40
0.0299425107
 40
0.0449230116
 40
0.0599136223
 40
0.074917231
 40
0.0899366492
 40
0.104974592
 40
0.120033664
 40
0.1351163465
 40
0.1502249787
 40
0.1653617474
 40
0.1805286773
 40
0.2109546592
 40
0.241521074
 40
0.2722372378
 40
0.3031091074
 40
0.3341391963
 40
0.3653265683
 40
0.3966669148
 40
0.4281526939
 40
0.4597733285
 40
0.4915154682
 40
0.5233632927
 40
0.5552988529
 40
0.58730245
 40
0.6193530382
 40
0.6514286454
 40
0.6835068075
 40
0.7155650106
 40
0.747581133
 40
0.7795338816
 40
0.8114032159
 40
0.8431707572
 40
0.874820171
 40
0.9063375198
 40
0.9377116029
 40
0.9689339502
 40
1.0
 40
1.0
 40
1.0
 40
1.0
 10
11.1438965001
 20
7.3867894835
 30
0.0
 10
11.1402155255
 20
7.3833393687
 30
0.0
 10
11.1327153167
 20
7.3765829358
 30
0.0
 10
11.1210718634
 20
7.3668990705
 30
0.0
 10
11.1090494206
 20
7.3576776665
 30
0.0
 10
11.0966645511
 20
7.3489314992
 30
0.0
 10
11.0839340743
 20
7.3406723518
 30
0.0
 10
11.0708753013
 20
7.3329114942
 30
0.0
 10
11.0575059782
 20
7.3256594912
 30
0.0
 10
11.0438443226
 20
7.3189261468
 30
0.0
 10
11.0299088738
 20
7.3127206427
 30
0.0
 10
11.015718657
 20
7.307051434
 30
0.0
 10
11.0012927061
 20
7.3019261132
 30
0.0
 10
10.9817521917
 20
7.2958211691
 30
0.0
 10
10.9568249648
 20
7.2895849482
 30
0.0
 10
10.926328137
 20
7.2843816451
 30
0.0
 10
10.8953758428
 20
7.2814766335
 30
0.0
 10
10.8641375311
 20
7.2808857383
 30
0.0
 10
10.8327826618
 20
7.2826116936
 30
0.0
 10
10.8014816328
 20
7.2866447269
 30
0.0
 10
10.7704043667
 20
7.2929625863
 30
0.0
 10
10.7397195478
 20
7.3015306841
 30
0.0
 10
10.7095936482
 20
7.3123021769
 30
0.0
 10
10.6801900751
 20
7.3252183584
 30
0.0
 10
10.651668311
 20
7.3402089742
 30
0.0
 10
10.6241830028
 20
7.3571924892
 30
0.0
 10
10.597883174
 20
7.3760766307
 30
0.0
 10
10.5729114588
 20
7.3967589067
 30
0.0
 10
10.549403261
 20
7.4191270558
 30
0.0
 10
10.5274860605
 20
7.4430597107
 30
0.0
 10
10.5072787841
 20
7.4684270909
 30
0.0
 10
10.4888910883
 20
7.4950916232
 30
0.0
 10
10.4724227703
 20
7.5229086968
 30
0.0
 10
10.4579633161
 20
7.5517274948
 30
0.0
 10
10.4455913504
 20
7.5813917318
 30
0.0
 10
10.4353741674
 20
7.6117405561
 30
0.0
 10
10.427367467
 20
7.6426091997
 30
0.0
 10
10.4216150629
 20
7.6738307367
 30
0.0
 10
10.418148362
 20
7.7052335356
 30
0.0
 10
10.4173719431
 20
7.7262346549
 30
0.0
 10
10.4173719431
 20
7.7367048944
 30
0.0
  0
SPLINE
  5
380
100
AcDbEntity
  8
0
100
AcDbSpline
 62
7
  6
CONTINUOUS
 70
0
 71
3
 72
39
 73
35
 74
0
 42
0.0000001
 43
0.0000001
 44
0.0000000001
 40
0.0
 40
0.0
 40
0.0
 40
0.0
 40
0.0299424706
 40
0.0599093177
 40
0.0899243239
 40
0.1200101031
 40
0.1501875623
 40
0.1804754149
 40
0.21088976
 40
0.241443737
 40
0.2721472612
 40
0.3030068434
 40
0.3340254949
 40
0.3652027136
 40
0.3965345483
 40
0.4280137339
 40
0.4596298915
 40
0.4913697862
 40
0.5232176339
 40
0.5551554503
 40
0.587163434
 40
0.6192203763
 40
0.6513040919
 40
0.6833918632
 40
0.7154608918
 40
0.7474887514
 40
0.7794538357
 40
0.8113357957
 40
0.8431159546
 40
0.8747777135
 40
0.906306863
 40
0.9376920938
 40
0.9689246722
 40
1.0
 40
1.0
 40
1.0
 40
1.0
 10
11.0134093421
 20
7.5457057095
 30
0.0
 10
11.0095107699
 20
7.5419399787
 30
0.0
 10
11.0014070739
 20
7.5347124255
 30
0.0
 10
10.9884236911
 20
7.524866162
 30
0.0
 10
10.9746788321
 20
7.5160642416
 30
0.0
 10
10.9602492958
 20
7.5083560423
 30
0.0
 10
10.9452144137
 20
7.5017836785
 30
0.0
 10
10.9296571621
 20
7.4963832797
 30
0.0
 10
10.9136632722
 20
7.4921843909
 30
0.0
 10
10.8973208595
 20
7.4892099349
 30
0.0
 10
10.8807199024
 20
7.4874760675
 30
0.0
 10
10.8639517526
 20
7.4869921096
 30
0.0
 10
10.8471086302
 20
7.4877605064
 30
0.0
 10
10.8302831206
 20
7.4897768251
 30
0.0
 10
10.8135676696
 20
7.4930297887
 30
0.0
 10
10.7970540825
 20
7.4975013467
 30
0.0
 10
10.7808330262
 20
7.5031667771
 30
0.0
 10
10.7649935361
 20
7.5099948238
 30
0.0
 10
10.7496225362
 20
7.5179478757
 30
0.0
 10
10.7348043684
 20
7.5269821738
 30
0.0
 10
10.7206203365
 20
7.5370480508
 30
0.0
 10
10.7071482654
 20
7.5480902028
 30
0.0
 10
10.6944620797
 20
7.5600479903
 30
0.0
 10
10.6826314025
 20
7.5728557683
 30
0.0
 10
10.6717211781
 20
7.5864432429
 30
0.0
 10
10.6617913178
 20
7.6007358528
 30
0.0
 10
10.6528963698
 20
7.6156551706
 30
0.0
 10
10.6450852274
 20
7.6311193354
 30
0.0
 10
10.6384008572
 20
7.6470434852
 30
0.0
 10
10.6328800797
 20
7.6633402532
 30
0.0
 10
10.6285533218
 20
7.6799201113
 30
0.0
 10
10.6254445551
 20
7.6966923299
 30
0.0
 10
10.6235709531
 20
7.7135636148
 30
0.0
 10
10.6231513141
 20
7.7248471467
 30
0.0
 10
10.6231513141
 20
7.7304725152
 30
0.0
  0
SPLINE
  5
381
100
AcDbEntity
  8
0
100
AcDbSpline
 62
7
  6
CONTINUOUS
 70
0
 71
3
 72
23
 73
19
 74
0
 42
0.0000001
 43
0.0000001
 44
0.0000000001
 40
0.0
 40
0.0
 40
0.0
 40
0.0
 40
0.0616994033
 40
0.1234251683
 40
0.185197337
 40
0.2470354943
 40
0.3089585766
 40
0.3709846908
 40
0.4331309421
 40
0.4954132756
 40
0.5578463258
 40
0.620443292
 40
0.6832158241
 40
0.7461738619
 40
0.8093258979
 40
0.8726776911
 40
0.9362356357
 40
1.0
 40
1.0
 40
1.0
 40
1.0
 10
10.532581273
 20
8.0196728879
 30
0.0
 10
10.5280105311
 20
8.0151231647
 30
0.0
 10
10.5190953932
 20
8.005789059
 30
0.0
 10
10.5064435781
 20
7.9911275373
 30
0.0
 10
10.4945376805
 20
7.9758350805
 30
0.0
 10
10.4834046201
 20
7.9599461484
 30
0.0
 10
10.4730690068
 20
7.9434959492
 30
0.0
 10
10.4635538212
 20
7.9265210986
 30
0.0
 10
10.4548801762
 20
7.9090593307
 30
0.0
 10
10.4470673226
 20
7.8911494693
 30
0.0
 10
10.440132592
 20
7.8728313264
 30
0.0
 10
10.4340913637
 20
7.8541456151
 30
0.0
 10
10.4289570342
 20
7.8351338697
 30
0.0
 10
10.42474094
 20
7.8158383143
 30
0.0
 10
10.4214524592
 20
7.7963019108
 30
0.0
 10
10.4190987421
 20
7.7765677879
 30
0.0
 10
10.4176851338
 20
7.7566804976
 30
0.0
 10
10.4173719431
 20
7.7433698953
 30
0.0
 10
10.4173719431
 20
7.7367048944
 30
0.0
  0
SPLINE
  5
382
100
AcDbEntity
  8
0
100
AcDbSpline
 62
7
  6
CONTINUOUS
 70
0
 71
3
 72
23
 73
19
 74
0
 42
0.0000001
 43
0.0000001
 44
0.0000000001
 40
0.0
 40
0.0
 40
0.0
 40
0.0
 40
0.0617101427
 40
0.1234413969
 40
0.1852146481
 40
0.2470503542
 40
0.308968347
 40
0.3709876211
 40
0.4331261371
 40
0.4954006584
 40
0.5578266133
 40
0.6204179205
 40
0.6831867712
 40
0.7461439365
 40
0.8092980115
 40
0.8726548716
 40
0.9362235844
 40
1.0
 40
1.0
 40
1.0
 40
1.0
 10
10.6868784514
 20
7.8837553427
 30
0.0
 10
10.6843551263
 20
7.8813179983
 30
0.0
 10
10.6794321304
 20
7.8763116374
 30
0.0
 10
10.6724422906
 20
7.8684308838
 30
0.0
 10
10.6658618445
 20
7.8601957052
 30
0.0
 10
10.6597061965
 20
7.8516253822
 30
0.0
 10
10.6539894611
 20
7.8427396188
 30
0.0
 10
10.6487248623
 20
7.8335589136
 30
0.0
 10
10.6439245128
 20
7.8241044506
 30
0.0
 10
10.6395994417
 20
7.814398052
 30
0.0
 10
10.6357596159
 20
7.804462097
 30
0.0
 10
10.6324139029
 20
7.7943194932
 30
0.0
 10
10.6295699447
 20
7.7839936402
 30
0.0
 10
10.6272342831
 20
7.773508334
 30
0.0
 10
10.6254123214
 20
7.7628878142
 30
0.0
 10
10.6241081381
 20
7.7521563108
 30
0.0
 10
10.6233248751
 20
7.7413390906
 30
0.0
 10
10.6231513141
 20
7.7340982337
 30
0.0
 10
10.6231513141
 20
7.7304725152
 30
0.0
  0
SPLINE
  5
383
100
AcDbEntity
  8
0
100
AcDbSpline
 62
7
  6
CONTINUOUS
 70
0
 71
3
 72
42
 73
38
 74
0
 42
0.0000001
 43
0.0000001
 44
0.0000000001
 40
0.0
 40
0.0
 40
0.0
 40
0.0
 40
0.0299419663
 40
0.0449235352
 40
0.0599142051
 40
0.0899287052
 40
0.1200139767
 40
0.135092661
 40
0.150196701
 40
0.1804840414
 40
0.210897872
 40
0.2414513324
 40
0.2721543376
 40
0.3030133986
 40
0.3340315263
 40
0.3652082187
 40
0.3965395244
 40
0.4280181782
 40
0.4596338019
 40
0.4913731609
 40
0.5232204716
 40
0.55515775
 40
0.5871651943
 40
0.6192215961
 40
0.6513047701
 40
0.6833919991
 40
0.7154604852
 40
0.7474878032
 40
0.7794523473
 40
0.8113337692
 40
0.8431133916
 40
0.8747746171
 40
0.9063032365
 40
0.9376879249
 40
0.9533258257
 40
0.968925233
 40
1.0
 40
1.0
 40
1.0
 40
1.0
 10
11.4406976008
 20
9.8700428582
 30
0.0
 10
11.437844178
 20
9.867286663
 30
0.0
 10
11.4333958691
 20
9.8633193557
 30
0.0
 10
11.4271660817
 20
9.8583968166
 30
0.0
 10
11.4207379203
 20
9.8537192098
 30
0.0
 10
11.4123502117
 20
9.8483478083
 30
0.0
 10
11.4035546775
 20
9.8436493932
 30
0.0
 10
11.396300656
 20
9.8403068932
 30
0.0
 10
11.3888967599
 20
9.8372403754
 30
0.0
 10
11.3793979161
 20
9.8339429489
 30
0.0
 10
11.3676920163
 20
9.8308698363
 30
0.0
 10
11.3557306899
 20
9.8286927522
 30
0.0
 10
11.3435802216
 20
9.8274237151
 30
0.0
 10
11.3313073575
 20
9.8270694955
 30
0.0
 10
11.3189796264
 20
9.8276318969
 30
0.0
 10
11.3066647845
 20
9.8291076708
 30
0.0
 10
11.2944304968
 20
9.8314885636
 30
0.0
 10
11.2823439558
 20
9.8347613619
 30
0.0
 10
11.2704715213
 20
9.838907971
 30
0.0
 10
11.2588783604
 20
9.8439055164
 30
0.0
 10
11.2476280949
 20
9.8497264717
 30
0.0
 10
11.2367824563
 20
9.856338809
 30
0.0
 10
11.2264009523
 20
9.8637061761
 30
0.0
 10
11.2165405444
 20
9.8717880946
 30
0.0
 10
11.2072553386
 20
9.8805401807
 30
0.0
 10
11.1985962925
 20
9.889914387
 30
0.0
 10
11.1906109381
 20
9.899859263
 30
0.0
 10
11.1833431239
 20
9.9103202363
 30
0.0
 10
11.1768327759
 20
9.9212399045
 30
0.0
 10
11.1711156804
 20
9.9325583598
 30
0.0
 10
11.1662232892
 20
9.9442134664
 30
0.0
 10
11.16218254
 20
9.95614137
 30
0.0
 10
11.1590157513
 20
9.9682762061
 30
0.0
 10
11.1571171943
 20
9.9785193276
 30
0.0
 10
11.1560521567
 20
9.986749545
 30
0.0
 10
11.1552920673
 20
9.9949718887
 30
0.0
 10
11.1550619201
 20
10.0011591441
 30
0.0
 10
11.1550619201
 20
10.0052764305
 30
0.0
  0
SPLINE
  5
384
100
AcDbEntity
  8
0
100
AcDbSpline
 62
7
  6
CONTINUOUS
 70
0
 71
3
 72
81
 73
77
 74
0
 42
0.0000001
 43
0.0000001
 44
0.0000000001
 40
0.0
 40
0.0
 40
0.0
 40
0.0
 40
0.0039265969
 40
0.0080153213
 40
0.0122696421
 40
0.0166924926
 40
0.0212863518
 40
0.0260531663
 40
0.0309942425
 40
0.0361104541
 40
0.0414022712
 40
0.0468697881
 40
0.0525128166
 40
0.0583308053
 40
0.0704878107
 40
0.0833319863
 40
0.0968505465
 40
0.1110277198
 40
0.1258451092
 40
0.1412819794
 40
0.1573155145
 40
0.1739210212
 40
0.1910721019
 40
0.2087407976
 40
0.2268977225
 40
0.2455121993
 40
0.2645523737
 40
0.2839853198
 40
0.3037771356
 40
0.3238930436
 40
0.3442974932
 40
0.3649542529
 40
0.4068762245
 40
0.4493595769
 40
0.4920990469
 40
0.5347870221
 40
0.5771163665
 40
0.5980517321
 40
0.6187839141
 40
0.6392759139
 40
0.6594912933
 40
0.6793942639
 40
0.6989497806
 40
0.718123645
 40
0.7368825983
 40
0.7551944177
 40
0.7730280207
 40
0.7903535805
 40
0.8071426575
 40
0.8233683217
 40
0.8390052944
 40
0.8540301135
 40
0.8684213314
 40
0.8821597546
 40
0.8952287055
 40
0.9076143594
 40
0.919306174
 40
0.9248899059
 40
0.930298042
 40
0.9355304608
 40
0.9405873795
 40
0.9454694318
 40
0.9501776195
 40
0.9547134671
 40
0.9590790005
 40
0.963276832
 40
0.9673102807
 40
0.9711833694
 40
0.974901018
 40
0.978469083
 40
0.9818944848
 40
0.9883482352
 40
0.9913997823
 40
0.9943494344
 40
0.9972110504
 40
1.0
 40
1.0
 40
1.0
 40
1.0
 10
12.4334340104
 20
8.417866973
 30
0.0
 10
12.4343504806
 20
8.4187522152
 30
0.0
 10
12.4361824693
 20
8.4205997711
 30
0.0
 10
12.4388743243
 20
8.4235346471
 30
0.0
 10
12.4415634699
 20
8.4266868542
 30
0.0
 10
12.4442485029
 20
8.4300547574
 30
0.0
 10
12.4469282437
 20
8.4336367689
 30
0.0
 10
12.4496014309
 20
8.4374312494
 30
0.0
 10
12.4522668627
 20
8.4414363936
 30
0.0
 10
12.4549232432
 20
8.445650312
 30
0.0
 10
12.4575693041
 20
8.450071
 30
0.0
 10
12.4602038125
 20
8.4546963429
 30
0.0
 10
12.4628254944
 20
8.4595241648
 30
0.0
 10
12.4663540991
 20
8.466328119
 30
0.0
 10
12.4707156638
 20
8.4753302328
 30
0.0
 10
12.4758049238
 20
8.4867490604
 30
0.0
 10
12.4808136406
 20
8.4989153827
 30
0.0
 10
12.4857321722
 20
8.5118059648
 30
0.0
 10
12.4905510486
 20
8.5253963114
 30
0.0
 10
12.495260985
 20
8.539660479
 30
0.0
 10
12.4998528988
 20
8.554571213
 30
0.0
 10
12.5043179327
 20
8.5700999906
 30
0.0
 10
12.5086474716
 20
8.5862170844
 30
0.0
 10
12.5128331645
 20
8.6028916167
 30
0.0
 10
12.5168669452
 20
8.6200916222
 30
0.0
 10
12.5207410383
 20
8.6377841174
 30
0.0
 10
12.5244479774
 20
8.6559351685
 30
0.0
 10
12.5279806162
 20
8.6745099544
 30
0.0
 10
12.5313321515
 20
8.6934728339
 30
0.0
 10
12.534496126
 20
8.712787405
 30
0.0
 10
12.5374664738
 20
8.7324166228
 30
0.0
 10
12.541179146
 20
8.759088315
 30
0.0
 10
12.5452893933
 20
8.7929359221
 30
0.0
 10
12.5493457131
 20
8.8339982501
 30
0.0
 10
12.5525184876
 20
8.8753876856
 30
0.0
 10
12.5547833197
 20
8.9167865253
 30
0.0
 10
12.5559038671
 20
8.9511534181
 30
0.0
 10
12.5563280847
 20
8.9784078973
 30
0.0
 10
12.5564094381
 20
8.9985791995
 30
0.0
 10
12.556255069
 20
9.0185164216
 30
0.0
 10
12.5558652698
 20
9.0381813224
 30
0.0
 10
12.55524081
 20
9.0575361448
 30
0.0
 10
12.5543829033
 20
9.0765437404
 30
0.0
 10
12.5532932245
 20
9.0951676308
 30
0.0
 10
12.5519738951
 20
9.113372082
 30
0.0
 10
12.5504274792
 20
9.131122169
 30
0.0
 10
12.5486569791
 20
9.1483838439
 30
0.0
 10
12.5466658294
 20
9.1651240067
 30
0.0
 10
12.5444579018
 20
9.1813105745
 30
0.0
 10
12.5420374859
 20
9.1969125439
 30
0.0
 10
12.5394092826
 20
9.2119000502
 30
0.0
 10
12.5365783922
 20
9.2262444281
 30
0.0
 10
12.5335503055
 20
9.2399182857
 30
0.0
 10
12.5303308991
 20
9.2528955468
 30
0.0
 10
12.5269264073
 20
9.2651515905
 30
0.0
 10
12.5233433972
 20
9.2766630261
 30
0.0
 10
12.5201677117
 20
9.2857517606
 30
0.0
 10
12.5175352278
 20
9.2926263416
 30
0.0
 10
12.515550871
 20
9.2975033463
 30
0.0
 10
12.5135271522
 20
9.3021784626
 30
0.0
 10
12.5114649878
 20
9.3066494698
 30
0.0
 10
12.5093654028
 20
9.3109142611
 30
0.0
 10
12.5072293352
 20
9.3149708013
 30
0.0
 10
12.5050578203
 20
9.3188171881
 30
0.0
 10
12.5028518603
 20
9.322451608
 30
0.0
 10
12.5006124411
 20
9.3258723373
 30
0.0
 10
12.4983406344
 20
9.3290777894
 30
0.0
 10
12.4960373847
 20
9.3320664433
 30
0.0
 10
12.4937038104
 20
9.3348368402
 30
0.0
 10
12.4913406769
 20
9.3373878926
 30
0.0
 10
12.4882145075
 20
9.3404339645
 30
0.0
 10
12.4849713331
 20
9.3431156193
 30
0.0
 10
12.4816151158
 20
9.3453722185
 30
0.0
 10
12.4791202388
 20
9.3468081926
 30
0.0
 10
12.4766024346
 20
9.3480179403
 30
0.0
 10
12.4748901599
 20
9.3486805022
 30
0.0
 10
12.4740332566
 20
9.3489716808
 30
0.0
  0
SPLINE
  5
385
100
AcDbEntity
  8
0
100
AcDbSpline
 62
7
  6
CONTINUOUS
 70
0
 71
3
 72
15
 73
11
 74
0
 42
0.0000001
 43
0.0000001
 44
0.0000000001
 40
0.0
 40
0.0
 40
0.0
 40
0.0
 40
0.1457213483
 40
0.2845991187
 40
0.4169826454
 40
0.5433126665
 40
0.664117082
 40
0.7800117701
 40
0.8917048522
 40
1.0
 40
1.0
 40
1.0
 40
1.0
 10
12.4334340104
 20
8.417866973
 30
0.0
 10
12.4324052934
 20
8.4168733085
 30
0.0
 10
12.4303487469
 20
8.4149808037
 30
0.0
 10
12.4271889053
 20
8.4123763743
 30
0.0
 10
12.4240318539
 20
8.410078179
 30
0.0
 10
12.4208795883
 20
8.4080880148
 30
0.0
 10
12.4177338255
 20
8.4064074758
 30
0.0
 10
12.41459627
 20
8.4050380155
 30
0.0
 10
12.4114692364
 20
8.4039812521
 30
0.0
 10
12.4093652097
 20
8.4034795925
 30
0.0
 10
12.4083204299
 20
8.403284077
 30
0.0
  0
SPLINE
  5
386
100
AcDbEntity
  8
0
100
AcDbSpline
 62
7
  6
CONTINUOUS
 70
0
 71
3
 72
23
 73
19
 74
0
 42
0.0000001
 43
0.0000001
 44
0.0000000001
 40
0.0
 40
0.0
 40
0.0
 40
0.0
 40
0.0755963493
 40
0.1466389404
 40
0.2134644447
 40
0.2765130444
 40
0.3363250756
 40
0.3935451244
 40
0.4489211068
 40
0.5032859965
 40
0.5575238004
 40
0.612525131
 40
0.6691411996
 40
0.728147006
 40
0.7902177883
 40
0.855922422
 40
0.9257258939
 40
1.0
 40
1.0
 40
1.0
 40
1.0
 10
12.4334340104
 20
8.5530965967
 30
0.0
 10
12.432502947
 20
8.5521972584
 30
0.0
 10
12.4306420581
 20
8.550508026
 30
0.0
 10
12.4277621461
 20
8.5482513211
 30
0.0
 10
12.4248856116
 20
8.5463560086
 30
0.0
 10
12.4220150959
 20
8.544824954
 30
0.0
 10
12.4191530055
 20
8.5436608965
 30
0.0
 10
12.4163022731
 20
8.5428667519
 30
0.0
 10
12.4134666537
 20
8.5424452528
 30
0.0
 10
12.4106508651
 20
8.5423984737
 30
0.0
 10
12.4078603128
 20
8.5427270094
 30
0.0
 10
12.4051004266
 20
8.543429996
 30
0.0
 10
12.4023758571
 20
8.5445049406
 30
0.0
 10
12.3996902661
 20
8.5459488218
 30
0.0
 10
12.3970463183
 20
8.5477582394
 30
0.0
 10
12.3944461941
 20
8.5499301216
 30
0.0
 10
12.3918919613
 20
8.55246122
 30
0.0
 10
12.3902731425
 20
8.5543261376
 30
0.0
 10
12.3894706538
 20
8.5553128465
 30
0.0
  0
SPLINE
  5
387
100
AcDbEntity
  8
0
100
AcDbSpline
 62
7
  6
CONTINUOUS
 70
0
 71
3
 72
42
 73
38
 74
0
 42
0.0000001
 43
0.0000001
 44
0.0000000001
 40
0.0
 40
0.0
 40
0.0
 40
0.0
 40
0.0299419663
 40
0.0449235352
 40
0.0599142051
 40
0.0899287052
 40
0.1200139767
 40
0.135092661
 40
0.150196701
 40
0.1804840414
 40
0.210897872
 40
0.2414513324
 40
0.2721543376
 40
0.3030133986
 40
0.3340315263
 40
0.3652082187
 40
0.3965395244
 40
0.4280181782
 40
0.4596338019
 40
0.4913731609
 40
0.5232204716
 40
0.55515775
 40
0.5871651943
 40
0.6192215961
 40
0.6513047701
 40
0.6833919991
 40
0.7154604852
 40
0.7474878032
 40
0.7794523473
 40
0.8113337692
 40
0.8431133916
 40
0.8747746171
 40
0.9063032365
 40
0.9376879249
 40
0.9533258257
 40
0.968925233
 40
1.0
 40
1.0
 40
1.0
 40
1.0
 10
10.4747717172
 20
7.0392523664
 30
0.0
 10
10.4719182945
 20
7.0364961712
 30
0.0
 10
10.4674699856
 20
7.0325288639
 30
0.0
 10
10.4612401982
 20
7.0276063248
 30
0.0
 10
10.4548120368
 20
7.022928718
 30
0.0
 10
10.4464243282
 20
7.0175573165
 30
0.0
 10
10.437628794
 20
7.0128589014
 30
0.0
 10
10.4303747725
 20
7.0095164013
 30
0.0
 10
10.4229708764
 20
7.0064498836
 30
0.0
 10
10.4134720326
 20
7.0031524571
 30
0.0
 10
10.4017661328
 20
7.0000793445
 30
0.0
 10
10.3898048064
 20
6.9979022604
 30
0.0
 10
10.377654338
 20
6.9966332233
 30
0.0
 10
10.3653814739
 20
6.9962790037
 30
0.0
 10
10.3530537428
 20
6.9968414051
 30
0.0
 10
10.340738901
 20
6.998317179
 30
0.0
 10
10.3285046132
 20
7.0006980718
 30
0.0
 10
10.3164180722
 20
7.0039708701
 30
0.0
 10
10.3045456378
 20
7.0081174792
 30
0.0
 10
10.2929524769
 20
7.0131150246
 30
0.0
 10
10.2817022113
 20
7.0189359798
 30
0.0
 10
10.2708565727
 20
7.0255483172
 30
0.0
 10
10.2604750688
 20
7.0329156843
 30
0.0
 10
10.2506146609
 20
7.0409976028
 30
0.0
 10
10.2413294551
 20
7.0497496889
 30
0.0
 10
10.232670409
 20
7.0591238951
 30
0.0
 10
10.2246850546
 20
7.0690687712
 30
0.0
 10
10.2174172404
 20
7.0795297445
 30
0.0
 10
10.2109068924
 20
7.0904494127
 30
0.0
 10
10.2051897969
 20
7.101767868
 30
0.0
 10
10.2002974057
 20
7.1134229746
 30
0.0
 10
10.1962566564
 20
7.1253508782
 30
0.0
 10
10.1930898677
 20
7.1374857143
 30
0.0
 10
10.1911913108
 20
7.1477288358
 30
0.0
 10
10.1901262732
 20
7.1559590532
 30
0.0
 10
10.1893661837
 20
7.1641813969
 30
0.0
 10
10.1891360366
 20
7.1703686523
 30
0.0
 10
10.1891360366
 20
7.1744859387
 30
0.0
  0
SPLINE
  5
388
100
AcDbEntity
  8
0
100
AcDbSpline
 62
7
  6
CONTINUOUS
 70
0
 71
3
 72
18
 73
14
 74
0
 42
0.0000001
 43
0.0000001
 44
0.0000000001
 40
0.0
 40
0.0
 40
0.0
 40
0.0
 40
0.1504654776
 40
0.2917138659
 40
0.4244431221
 40
0.4879103299
 40
0.5496094336
 40
0.6682621302
 40
0.7817883943
 40
0.837138095
 40
0.8918079579
 40
0.9460193786
 40
1.0
 40
1.0
 40
1.0
 40
1.0
 10
12.3996266045
 20
8.5892485541
 30
0.0
 10
12.398778495
 20
8.5884293433
 30
0.0
 10
12.3970833931
 20
8.5868922508
 30
0.0
 10
12.3944587262
 20
8.5848438492
 30
0.0
 10
12.3922417156
 20
8.583395118
 30
0.0
 10
12.3904738656
 20
8.5824140773
 30
0.0
 10
12.3887580333
 20
8.5815718286
 30
0.0
 10
12.3866126809
 20
8.5807207946
 30
0.0
 10
12.3844291835
 20
8.5801399766
 30
0.0
 10
12.3826997711
 20
8.5798538991
 30
0.0
 10
12.3814180457
 20
8.5797269079
 30
0.0
 10
12.3801415035
 20
8.5796858757
 30
0.0
 10
12.3792934006
 20
8.5797158853
 30
0.0
 10
12.3788713853
 20
8.5797451551
 30
0.0
  0
SPLINE
  5
389
100
AcDbEntity
  8
0
100
AcDbSpline
 62
7
  6
CONTINUOUS
 70
0
 71
3
 72
19
 73
15
 74
0
 42
0.0000001
 43
0.0000001
 44
0.0000000001
 40
0.0
 40
0.0
 40
0.0
 40
0.0
 40
0.150460937
 40
0.2916987357
 40
0.424419542
 40
0.4878837275
 40
0.5495802504
 40
0.6682271673
 40
0.7255606103
 40
0.7817998831
 40
0.8371466721
 40
0.8918135967
 40
0.94602219
 40
1.0
 40
1.0
 40
1.0
 40
1.0
 10
12.4488888253
 20
8.4167951779
 30
0.0
 10
12.4475459541
 20
8.4154980639
 30
0.0
 10
12.4448620588
 20
8.413064309
 30
0.0
 10
12.440706306
 20
8.4098210514
 30
0.0
 10
12.4371961187
 20
8.4075272393
 30
0.0
 10
12.4343969688
 20
8.4059739357
 30
0.0
 10
12.4316803984
 20
8.4046403915
 30
0.0
 10
12.4289320215
 20
8.4035503388
 30
0.0
 10
12.426168182
 20
8.4027300692
 30
0.0
 10
12.4241246746
 20
8.402257261
 30
0.0
 10
12.4220879699
 20
8.4019202645
 30
0.0
 10
12.4200586057
 20
8.4017192467
 30
0.0
 10
12.4180374027
 20
8.4016542854
 30
0.0
 10
12.4166945728
 20
8.4017017761
 30
0.0
 10
12.4160263807
 20
8.4017481154
 30
0.0
  0
SPLINE
  5
38A
100
AcDbEntity
  8
0
100
AcDbSpline
 62
7
  6
CONTINUOUS
 70
0
 71
3
 72
90
 73
86
 74
0
 42
0.0000001
 43
0.0000001
 44
0.0000000001
 40
0.0
 40
0.0
 40
0.0
 40
0.0
 40
0.0042067139
 40
0.0086075106
 40
0.0132068447
 40
0.0180083824
 40
0.0230151146
 40
0.028229264
 40
0.0336521653
 40
0.0392845792
 40
0.0451266929
 40
0.0511782066
 40
0.0574384217
 40
0.0639061517
 40
0.0774573436
 40
0.0918164152
 40
0.1069628211
 40
0.1228720818
 40
0.1395162759
 40
0.1568644227
 40
0.1748828085
 40
0.1935352766
 40
0.2127834662
 40
0.2325870248
 40
0.2529037961
 40
0.2736899977
 40
0.2949004031
 40
0.3164885061
 40
0.3384066765
 40
0.3606063111
 40
0.3830379815
 40
0.4056515908
 40
0.4512209219
 40
0.4969066077
 40
0.5422987265
 40
0.5647578391
 40
0.5869916272
 40
0.6089505648
 40
0.6305859305
 40
0.6518499538
 40
0.6726959666
 40
0.6930785587
 40
0.712953744
 40
0.7322791409
 40
0.7510141425
 40
0.7691201056
 40
0.7865605606
 40
0.8033014491
 40
0.8193114103
 40
0.8345620898
 40
0.849028516
 40
0.8626895765
 40
0.8692129732
 40
0.8755292298
 40
0.8816370628
 40
0.8875356423
 40
0.893224552
 40
0.8987038322
 40
0.9039741269
 40
0.9090366075
 40
0.9138931976
 40
0.9185465659
 40
0.9230002528
 40
0.9272588634
 40
0.9313280884
 40
0.9352150088
 40
0.9389281738
 40
0.9424778347
 40
0.945876177
 40
0.9491374133
 40
0.9522780215
 40
0.9553167112
 40
0.9582743918
 40
0.9611739364
 40
0.9640397357
 40
0.9668971385
 40
0.9697717291
 40
0.9726886059
 40
0.9756716978
 40
0.978743252
 40
0.985225384
 40
0.9886743023
 40
0.9922790789
 40
0.9960512307
 40
1.0
 40
1.0
 40
1.0
 40
1.0
 10
12.4334340104
 20
8.5530965967
 30
0.0
 10
12.4341574394
 20
8.5537953755
 30
0.0
 10
12.4356033405
 20
8.5552610572
 30
0.0
 10
12.4377227125
 20
8.5576029604
 30
0.0
 10
12.4398394084
 20
8.5601355989
 30
0.0
 10
12.4419520705
 20
8.5628573428
 30
0.0
 10
12.444059547
 20
8.5657666053
 30
0.0
 10
12.446160603
 20
8.5688617264
 30
0.0
 10
12.4482540654
 20
8.5721408725
 30
0.0
 10
12.450338652
 20
8.5756021227
 30
0.0
 10
12.4524131395
 20
8.5792434195
 30
0.0
 10
12.4544763088
 20
8.5830626019
 30
0.0
 10
12.4565269194
 20
8.5870574239
 30
0.0
 10
12.4592857055
 20
8.5927029588
 30
0.0
 10
12.4626864702
 20
8.6001880854
 30
0.0
 10
12.4666372993
 20
8.6096961002
 30
0.0
 10
12.4705095191
 20
8.6198421402
 30
0.0
 10
12.4742938255
 20
8.6306020465
 30
0.0
 10
12.4779811126
 20
8.6419503056
 30
0.0
 10
12.4815625048
 20
8.653859896
 30
0.0
 10
12.4850293839
 20
8.6663024293
 30
0.0
 10
12.4883734051
 20
8.6792482122
 30
0.0
 10
12.4915865209
 20
8.6926663313
 30
0.0
 10
12.4946609992
 20
8.7065247273
 30
0.0
 10
12.497589444
 20
8.7207902725
 30
0.0
 10
12.5003648185
 20
8.7354288514
 30
0.0
 10
12.5029804535
 20
8.7504054488
 30
0.0
 10
12.5054300647
 20
8.7656842356
 30
0.0
 10
12.5077077688
 20
8.7812286584
 30
0.0
 10
12.5098080881
 20
8.797001513
 30
0.0
 10
12.5117260074
 20
8.8129650801
 30
0.0
 10
12.5140395962
 20
8.8345071529
 30
0.0
 10
12.5164424315
 20
8.861629354
 30
0.0
 10
12.5185311636
 20
8.8942372179
 30
0.0
 10
12.5196027887
 20
8.9213652228
 30
0.0
 10
12.5200468734
 20
8.9428999899
 30
0.0
 10
12.5201717822
 20
8.9588360773
 30
0.0
 10
12.520089493
 20
8.9745754775
 30
0.0
 10
12.5198002037
 20
8.9900805559
 30
0.0
 10
12.5193046339
 20
9.0053142032
 30
0.0
 10
12.5186039933
 20
9.0202399732
 30
0.0
 10
12.5176999866
 20
9.0348221572
 30
0.0
 10
12.5165948093
 20
9.0490258776
 30
0.0
 10
12.5152911501
 20
9.0628171741
 30
0.0
 10
12.5137921764
 20
9.0761630862
 30
0.0
 10
12.5121015278
 20
9.0890317326
 30
0.0
 10
12.510223308
 20
9.1013923891
 30
0.0
 10
12.508162073
 20
9.1132155765
 30
0.0
 10
12.5059228279
 20
9.1244731251
 30
0.0
 10
12.5035110118
 20
9.1351383139
 30
0.0
 10
12.5009324505
 20
9.145185728
 30
0.0
 10
12.4986156952
 20
9.1531419406
 30
0.0
 10
12.496676844
 20
9.1591745431
 30
0.0
 10
12.4952073265
 20
9.1634601541
 30
0.0
 10
12.4937008907
 20
9.1675742108
 30
0.0
 10
12.492158437
 20
9.1715142817
 30
0.0
 10
12.4905808923
 20
9.1752780341
 30
0.0
 10
12.488969157
 20
9.1788632329
 30
0.0
 10
12.4873242305
 20
9.1822677794
 30
0.0
 10
12.4856470256
 20
9.1854896543
 30
0.0
 10
12.4839385487
 20
9.1885269791
 30
0.0
 10
12.482199778
 20
9.1913779789
 30
0.0
 10
12.4804316683
 20
9.1940409727
 30
0.0
 10
12.4786352562
 20
9.1965144372
 30
0.0
 10
12.476811462
 20
9.198796891
 30
0.0
 10
12.4749612991
 20
9.2008870149
 30
0.0
 10
12.473085712
 20
9.2027835477
 30
0.0
 10
12.4711856277
 20
9.2044852855
 30
0.0
 10
12.4692620382
 20
9.2059911592
 30
0.0
 10
12.4673158474
 20
9.2073000252
 30
0.0
 10
12.4653481077
 20
9.2084108941
 30
0.0
 10
12.4633598895
 20
9.2093227274
 30
0.0
 10
12.4613524168
 20
9.2100345466
 30
0.0
 10
12.4593271049
 20
9.2105455782
 30
0.0
 10
12.4572854994
 20
9.2108550737
 30
0.0
 10
12.4552293253
 20
9.2109627455
 30
0.0
 10
12.4531603204
 20
9.2108684707
 30
0.0
 10
12.4510802389
 20
9.2105725109
 30
0.0
 10
12.4489905385
 20
9.2100753621
 30
0.0
 10
12.4461432396
 20
9.209128488
 30
0.0
 10
12.4433257463
 20
9.2077806616
 30
0.0
 10
12.4405642069
 20
9.2060905637
 30
0.0
 10
12.4384461031
 20
9.2045995285
 30
0.0
 10
12.436326102
 20
9.2029126911
 30
0.0
 10
12.4349443956
 20
9.2016870255
 30
0.0
 10
12.4342532589
 20
9.2010438205
 30
0.0
  0
SPLINE
  5
38B
100
AcDbEntity
  8
0
100
AcDbSpline
 62
7
  6
CONTINUOUS
 70
0
 71
3
 72
86
 73
82
 74
0
 42
0.0000001
 43
0.0000001
 44
0.0000000001
 40
0.0
 40
0.0
 40
0.0
 40
0.0
 40
0.0027164229
 40
0.0054532199
 40
0.0082302803
 40
0.0110665652
 40
0.0139797601
 40
0.0169860612
 40
0.0201000083
 40
0.0233345154
 40
0.0267008552
 40
0.0302087911
 40
0.0338666949
 40
0.0376816386
 40
0.0416596027
 40
0.0458055094
 40
0.0501234214
 40
0.0546165986
 40
0.0592875859
 40
0.0641383491
 40
0.0691702497
 40
0.0743842108
 40
0.0797806815
 40
0.0853597253
 40
0.0911210701
 40
0.0970640767
 40
0.1094907819
 40
0.1226299857
 40
0.1364676026
 40
0.1509863633
 40
0.166166208
 40
0.1819846021
 40
0.1984167887
 40
0.2154360082
 40
0.2330136911
 40
0.2511196222
 40
0.2697220861
 40
0.2887880011
 40
0.3082830385
 40
0.3281717446
 40
0.3484176561
 40
0.3689834073
 40
0.3898308346
 40
0.4109210783
 40
0.4322146819
 40
0.4536716962
 40
0.4969136001
 40
0.5403217884
 40
0.5835689461
 40
0.6050305436
 40
0.6263300209
 40
0.6474274143
 40
0.6682832501
 40
0.6888586484
 40
0.7091154216
 40
0.7290161766
 40
0.7485244187
 40
0.7676046599
 40
0.7862225346
 40
0.8043449193
 40
0.8219400528
 40
0.8389776685
 40
0.8554291414
 40
0.8712676506
 40
0.8864683732
 40
0.9010086996
 40
0.9148684857
 40
0.9280303658
 40
0.9404801448
 40
0.9464347977
 40
0.952207837
 40
0.9577986052
 40
0.9632068066
 40
0.9684324934
 40
0.9734760794
 40
0.9783384382
 40
0.9830208843
 40
0.9875254058
 40
0.9918546018
 40
0.9960115767
 40
1.0
 40
1.0
 40
1.0
 40
1.0
 10
12.4817512699
 20
9.3494718298
 30
0.0
 10
12.4826377989
 20
9.3494103488
 30
0.0
 10
12.4844129644
 20
9.3492066673
 30
0.0
 10
12.4870531194
 20
9.3486616866
 30
0.0
 10
12.4896733156
 20
9.3478772661
 30
0.0
 10
12.4922716913
 20
9.3468541982
 30
0.0
 10
12.4948469135
 20
9.3455934028
 30
0.0
 10
12.4973976336
 20
9.3440958197
 30
0.0
 10
12.4999227184
 20
9.34236258
 30
0.0
 10
12.5024210015
 20
9.340394721
 30
0.0
 10
12.5048914346
 20
9.3381934333
 30
0.0
 10
12.5073329465
 20
9.3357599075
 30
0.0
 10
12.5097444482
 20
9.3330953975
 30
0.0
 10
12.5121249165
 20
9.3302012884
 30
0.0
 10
12.5144732155
 20
9.3270789828
 30
0.0
 10
12.5167883128
 20
9.3237300576
 30
0.0
 10
12.5190690903
 20
9.3201561423
 30
0.0
 10
12.5213144632
 20
9.3163589993
 30
0.0
 10
12.5235233746
 20
9.312340509
 30
0.0
 10
12.5256947019
 20
9.3081026367
 30
0.0
 10
12.5278274317
 20
9.3036474985
 30
0.0
 10
12.5299204666
 20
9.2989772879
 30
0.0
 10
12.5319727922
 20
9.2940943329
 30
0.0
 10
12.5339833823
 20
9.289001065
 30
0.0
 10
12.535951229
 20
9.2837000097
 30
0.0
 10
12.5385555271
 20
9.2762472188
 30
0.0
 10
12.5416873009
 20
9.266424214
 30
0.0
 10
12.5452061288
 20
9.2540212303
 30
0.0
 10
12.5485322801
 20
9.2408582538
 30
0.0
 10
12.5516590212
 20
9.2269616335
 30
0.0
 10
12.554579995
 20
9.2123590521
 30
0.0
 10
12.5572892583
 20
9.1970797202
 30
0.0
 10
12.5597812978
 20
9.1811542332
 30
0.0
 10
12.5620510436
 20
9.1646145223
 30
0.0
 10
12.5640938759
 20
9.1474937737
 30
0.0
 10
12.5659056361
 20
9.1298263585
 30
0.0
 10
12.5674826349
 20
9.1116477592
 30
0.0
 10
12.5688216586
 20
9.0929944985
 30
0.0
 10
12.5699199808
 20
9.0739040645
 30
0.0
 10
12.570775364
 20
9.0544148326
 30
0.0
 10
12.5713860623
 20
9.0345659843
 30
0.0
 10
12.5717508241
 20
9.0143974285
 30
0.0
 10
12.5718688965
 20
8.9939497171
 30
0.0
 10
12.5717400188
 20
8.9732639789
 30
0.0
 10
12.5713644578
 20
8.9523817805
 30
0.0
 10
12.5705335886
 20
8.9242617053
 30
0.0
 10
12.5688838495
 20
8.8889304191
 30
0.0
 10
12.5659512527
 20
8.8465334158
 30
0.0
 10
12.5627206331
 20
8.8113082533
 30
0.0
 10
12.5596716951
 20
8.7833364437
 30
0.0
 10
12.5571682187
 20
8.7625956512
 30
0.0
 10
12.5544473692
 20
8.7420821567
 30
0.0
 10
12.5515146068
 20
8.7218371818
 30
0.0
 10
12.5483758538
 20
8.701901444
 30
0.0
 10
12.5450374397
 20
8.6823150248
 30
0.0
 10
12.5415061003
 20
8.6631173022
 30
0.0
 10
12.5377889608
 20
8.6443468689
 30
0.0
 10
12.5338935223
 20
8.6260414529
 30
0.0
 10
12.5298276492
 20
8.6082378383
 30
0.0
 10
12.5255995552
 20
8.590971788
 30
0.0
 10
12.5212177814
 20
8.5742779725
 30
0.0
 10
12.5166911814
 20
8.5581898984
 30
0.0
 10
12.5120289022
 20
8.5427398382
 30
0.0
 10
12.5072403642
 20
8.5279587602
 30
0.0
 10
12.5023352444
 20
8.5138762507
 30
0.0
 10
12.4973234538
 20
8.5005204672
 30
0.0
 10
12.4922151036
 20
8.4879180004
 30
0.0
 10
12.4870204949
 20
8.4760940685
 30
0.0
 10
12.4825648236
 20
8.4667756084
 30
0.0
 10
12.4789581906
 20
8.4597358214
 30
0.0
 10
12.4762783644
 20
8.45474363
 30
0.0
 10
12.4735848048
 20
8.4499629791
 30
0.0
 10
12.4708788475
 20
8.4453962399
 30
0.0
 10
12.468161851
 20
8.4410456811
 30
0.0
 10
12.4654351368
 20
8.4369134845
 30
0.0
 10
12.4627001122
 20
8.4330016845
 30
0.0
 10
12.4599580712
 20
8.4293122315
 30
0.0
 10
12.4572103578
 20
8.4258469063
 30
0.0
 10
12.4544582456
 20
8.4226074021
 30
0.0
 10
12.4517032111
 20
8.4195954778
 30
0.0
 10
12.4498272973
 20
8.4177016723
 30
0.0
 10
12.4488888253
 20
8.4167951779
 30
0.0
  0
SPLINE
  5
38C
100
AcDbEntity
  8
0
100
AcDbSpline
 62
7
  6
CONTINUOUS
 70
0
 71
3
 72
74
 73
70
 74
0
 42
0.0000001
 43
0.0000001
 44
0.0000000001
 40
0.0
 40
0.0
 40
0.0
 40
0.0
 40
0.0039883519
 40
0.0081453644
 40
0.0124746814
 40
0.016979313
 40
0.0216617936
 40
0.0265241435
 40
0.0367926924
 40
0.0477911298
 40
0.0595183719
 40
0.071968247
 40
0.0851302476
 40
0.0989901559
 40
0.1135306008
 40
0.1287314592
 40
0.1445701145
 40
0.1610217219
 40
0.1780594753
 40
0.1956547688
 40
0.2137773147
 40
0.2323953455
 40
0.2514757521
 40
0.270984166
 40
0.2908850885
 40
0.3317167953
 40
0.3736696279
 40
0.4164303592
 40
0.4596778894
 40
0.5030864515
 40
0.5463287307
 40
0.5890789994
 40
0.6310162743
 40
0.6718274719
 40
0.6917163484
 40
0.7112115449
 40
0.730277625
 40
0.7488802574
 40
0.7669863396
 40
0.7845641708
 40
0.8015835426
 40
0.8180158662
 40
0.8338343861
 40
0.8490143681
 40
0.8635332647
 40
0.8773709904
 40
0.8905102994
 40
0.9029371174
 40
0.9146410232
 40
0.9256159641
 40
0.9358611083
 40
0.9407119013
 40
0.9453829478
 40
0.9498761478
 40
0.9541940979
 40
0.9583400521
 40
0.9623180316
 40
0.96613302
 40
0.9697909533
 40
0.9732989123
 40
0.9766652887
 40
0.9798998188
 40
0.9830137913
 40
0.9860201207
 40
0.9889333397
 40
0.9917696463
 40
0.9945467339
 40
0.9972835538
 40
1.0
 40
1.0
 40
1.0
 40
1.0
 10
12.3996266045
 20
8.5892485541
 30
0.0
 10
12.4002193079
 20
8.5898210617
 30
0.0
 10
12.4014040772
 20
8.5910171376
 30
0.0
 10
12.4031440919
 20
8.5929194059
 30
0.0
 10
12.4048823048
 20
8.5949654208
 30
0.0
 10
12.4066177135
 20
8.597154075
 30
0.0
 10
12.4083495471
 20
8.5994842583
 30
0.0
 10
12.4106955126
 20
8.6028397088
 30
0.0
 10
12.4136065685
 20
8.6073893393
 30
0.0
 10
12.417011084
 20
8.6132977813
 30
0.0
 10
12.4203810541
 20
8.6197390689
 30
0.0
 10
12.4237097651
 20
8.6267004385
 30
0.0
 10
12.4269905708
 20
8.6341682493
 30
0.0
 10
12.4302168947
 20
8.6421276852
 30
0.0
 10
12.4333822409
 20
8.6505629207
 30
0.0
 10
12.4364802098
 20
8.6594571382
 30
0.0
 10
12.4395045452
 20
8.6687925594
 30
0.0
 10
12.4424491454
 20
8.6785504898
 30
0.0
 10
12.4453080554
 20
8.688711376
 30
0.0
 10
12.4480754872
 20
8.6992548408
 30
0.0
 10
12.4507458604
 20
8.7101597169
 30
0.0
 10
12.4533137842
 20
8.7214041057
 30
0.0
 10
12.455774057
 20
8.7329654186
 30
0.0
 10
12.4581217365
 20
8.7448204408
 30
0.0
 10
12.4611210633
 20
8.7611262907
 30
0.0
 10
12.4645464983
 20
8.7820668145
 30
0.0
 10
12.4681055242
 20
8.8077634145
 30
0.0
 10
12.4711183898
 20
8.8340322147
 30
0.0
 10
12.4735607785
 20
8.8606621276
 30
0.0
 10
12.4754129452
 20
8.8874393096
 30
0.0
 10
12.4766600409
 20
8.9141486466
 30
0.0
 10
12.4772921306
 20
8.9405756432
 30
0.0
 10
12.4773042794
 20
8.9665079241
 30
0.0
 10
12.4767938339
 20
8.9877106831
 30
0.0
 10
12.4760673457
 20
9.0042646991
 30
0.0
 10
12.4753736493
 20
9.016321826
 30
0.0
 10
12.4745279547
 20
9.0281028297
 30
0.0
 10
12.4735319593
 20
9.0395840527
 30
0.0
 10
12.4723876863
 20
9.0507424198
 30
0.0
 10
12.4710974748
 20
9.0615555237
 30
0.0
 10
12.4696639548
 20
9.0720016572
 30
0.0
 10
12.4680900333
 20
9.0820598573
 30
0.0
 10
12.4663789147
 20
9.0917099596
 30
0.0
 10
12.4645340918
 20
9.1009326432
 30
0.0
 10
12.4625593139
 20
9.1097094642
 30
0.0
 10
12.4604585801
 20
9.1180229019
 30
0.0
 10
12.4582361632
 20
9.1258564246
 30
0.0
 10
12.4558965595
 20
9.1331944953
 30
0.0
 10
12.4534444445
 20
9.1400227042
 30
0.0
 10
12.4508847078
 20
9.1463275134
 30
0.0
 10
12.4486267413
 20
9.1512208594
 30
0.0
 10
12.4467642107
 20
9.1548561323
 30
0.0
 10
12.4453691142
 20
9.1573941384
 30
0.0
 10
12.4439509723
 20
9.1597923255
 30
0.0
 10
12.4425104806
 20
9.1620495342
 30
0.0
 10
12.4410483292
 20
9.1641646543
 30
0.0
 10
12.4395651709
 20
9.1661366213
 30
0.0
 10
12.4380617331
 20
9.1679644899
 30
0.0
 10
12.4365386764
 20
9.1696473372
 30
0.0
 10
12.4349966606
 20
9.1711842915
 30
0.0
 10
12.4334363983
 20
9.1725745899
 30
0.0
 10
12.4318585283
 20
9.1738174403
 30
0.0
 10
12.4302637378
 20
9.1749121159
 30
0.0
 10
12.4286527595
 20
9.1758579625
 30
0.0
 10
12.4270263032
 20
9.1766542547
 30
0.0
 10
12.4253852195
 20
9.1773003903
 30
0.0
 10
12.4237303641
 20
9.1777958312
 30
0.0
 10
12.4220628941
 20
9.1781400195
 30
0.0
 10
12.4209417365
 20
9.1782686493
 30
0.0
 10
12.4203818237
 20
9.1783074833
 30
0.0
  0
SPLINE
  5
38D
100
AcDbEntity
  8
0
100
AcDbSpline
 62
7
  6
CONTINUOUS
 70
0
 71
3
 72
23
 73
19
 74
0
 42
0.0000001
 43
0.0000001
 44
0.0000000001
 40
0.0
 40
0.0
 40
0.0
 40
0.0
 40
0.0637776288
 40
0.1273446152
 40
0.1907020433
 40
0.2538561391
 40
0.3168131818
 40
0.3795820998
 40
0.442173387
 40
0.5045993408
 40
0.5668738683
 40
0.6290123813
 40
0.69103165
 40
0.7529496426
 40
0.8147853504
 40
0.8765585998
 40
0.9382898528
 40
1.0
 40
1.0
 40
1.0
 40
1.0
 10
10.4132308416
 20
7.7327048973
 30
0.0
 10
10.4132308416
 20
7.7394936186
 30
0.0
 10
10.4135557549
 20
7.7530509411
 30
0.0
 10
10.4150223756
 20
7.7733044985
 30
0.0
 10
10.4174642213
 20
7.7933974454
 30
0.0
 10
10.4208755852
 20
7.8132827585
 30
0.0
 10
10.4252487413
 20
7.8329148553
 30
0.0
 10
10.4305736068
 20
7.8522483973
 30
0.0
 10
10.4368379742
 20
7.8712388317
 30
0.0
 10
10.4440274378
 20
7.8898423593
 30
0.0
 10
10.452125464
 20
7.908016075
 30
0.0
 10
10.4611134108
 20
7.9257180613
 30
0.0
 10
10.4709705777
 20
7.9429074818
 30
0.0
 10
10.4816742671
 20
7.9595446905
 30
0.0
 10
10.493199778
 20
7.9755912698
 30
0.0
 10
10.5055206775
 20
7.9910103235
 30
0.0
 10
10.5186080629
 20
8.0057658043
 30
0.0
 10
10.5278256183
 20
8.0151394213
 30
0.0
 10
10.5325501542
 20
8.0197029657
 30
0.0
  0
SPLINE
  5
38E
100
AcDbEntity
  8
0
100
AcDbSpline
 62
7
  6
CONTINUOUS
 70
0
 71
3
 72
61
 73
57
 74
0
 42
0.0000001
 43
0.0000001
 44
0.0000000001
 40
0.0
 40
0.0
 40
0.0
 40
0.0
 40
0.0085500831
 40
0.0176518282
 40
0.0273119388
 40
0.0375330487
 40
0.0483143346
 40
0.0596520489
 40
0.0715399689
 40
0.0839696868
 40
0.0969308502
 40
0.110411427
 40
0.1243978625
 40
0.1388751847
 40
0.1538271778
 40
0.1692364905
 40
0.185084685
 40
0.2013523522
 40
0.2180192038
 40
0.2350641067
 40
0.252465154
 40
0.2701997535
 40
0.2882446631
 40
0.3065760341
 40
0.3439996166
 40
0.3822705894
 40
0.4211822648
 40
0.4605233554
 40
0.5000795412
 40
0.5396349815
 40
0.5789738425
 40
0.6178818121
 40
0.6561476434
 40
0.6935646733
 40
0.711892258
 40
0.729933038
 40
0.7476631939
 40
0.7650594851
 40
0.7820993091
 40
0.7987607922
 40
0.8150228167
 40
0.8308650777
 40
0.846268195
 40
0.8612137644
 40
0.8756844182
 40
0.889663959
 40
0.9031374659
 40
0.9160913786
 40
0.9285136711
 40
0.9403940542
 40
0.9517241379
 40
0.9624977005
 40
0.972711059
 40
0.9823634567
 40
0.9914575366
 40
1.0
 40
1.0
 40
1.0
 40
1.0
 10
11.1987740935
 20
10.4607658596
 30
0.0
 10
11.1965349526
 20
10.462368421
 30
0.0
 10
11.1918152467
 20
10.4655428414
 30
0.0
 10
11.1842798562
 20
10.4700853834
 30
0.0
 10
11.1760799268
 20
10.4745501083
 30
0.0
 10
11.1672273695
 20
10.4789304834
 30
0.0
 10
11.1577347002
 20
10.483220322
 30
0.0
 10
11.1476155588
 20
10.4874134243
 30
0.0
 10
11.1368845004
 20
10.4915036878
 30
0.0
 10
11.1255570338
 20
10.495485133
 30
0.0
 10
11.1136495826
 20
10.499351949
 30
0.0
 10
11.1011794368
 20
10.5030984592
 30
0.0
 10
11.0881647302
 20
10.5067191491
 30
0.0
 10
11.074624423
 20
10.5102087165
 30
0.0
 10
11.0605782533
 20
10.5135620339
 30
0.0
 10
11.0460467061
 20
10.5167741577
 30
0.0
 10
11.031050994
 20
10.519840377
 30
0.0
 10
11.0156130164
 20
10.5227561922
 30
0.0
 10
10.9997553195
 20
10.525517306
 30
0.0
 10
10.9835010737
 20
10.5281196623
 30
0.0
 10
10.9668740347
 20
10.5305594508
 30
0.0
 10
10.9498985094
 20
10.5328330748
 30
0.0
 10
10.9325992902
 20
10.534937208
 30
0.0
 10
10.9089736448
 20
10.537530336
 30
0.0
 10
10.8788186345
 20
10.5403177547
 30
0.0
 10
10.8419992796
 20
10.5429219378
 30
0.0
 10
10.8045170742
 20
10.54479238
 30
0.0
 10
10.7665911452
 20
10.5459180633
 30
0.0
 10
10.7284430592
 20
10.546292291
 30
0.0
 10
10.6902957426
 20
10.5459128603
 30
0.0
 10
10.652372119
 20
10.544782022
 30
0.0
 10
10.6148937405
 20
10.5429064594
 30
0.0
 10
10.5780797107
 20
10.5402972725
 30
0.0
 10
10.5479300886
 20
10.5375057149
 30
0.0
 10
10.5243094869
 20
10.5349093411
 30
0.0
 10
10.5070145658
 20
10.5328028366
 30
0.0
 10
10.4900436812
 20
10.5305269005
 30
0.0
 10
10.4734216215
 20
10.5280848504
 30
0.0
 10
10.4571726906
 20
10.5254802672
 30
0.0
 10
10.4413206301
 20
10.5227169893
 30
0.0
 10
10.4258886014
 20
10.5197990789
 30
0.0
 10
10.41089915
 20
10.5167308085
 30
0.0
 10
10.3963741609
 20
10.5135166972
 30
0.0
 10
10.3823348313
 20
10.5101614762
 30
0.0
 10
10.368801646
 20
10.5066700628
 30
0.0
 10
10.3557943321
 20
10.503047589
 30
0.0
 10
10.343331827
 20
10.4992993893
 30
0.0
 10
10.3314322622
 20
10.4954309576
 30
0.0
 10
10.3201129232
 20
10.4914479575
 30
0.0
 10
10.3093902049
 20
10.4873562374
 30
0.0
 10
10.2992796062
 20
10.4831617699
 30
0.0
 10
10.2897956885
 20
10.4788706266
 30
0.0
 10
10.2809520572
 20
10.4744890432
 30
0.0
 10
10.272761205
 20
10.4700232128
 30
0.0
 10
10.2652350834
 20
10.4654796302
 30
0.0
 10
10.260521763
 20
10.4623045236
 30
0.0
 10
10.2582858707
 20
10.460701641
 30
0.0
  0
SPLINE
  5
38F
100
AcDbEntity
  8
0
100
AcDbSpline
 62
7
  6
CONTINUOUS
 70
0
 71
3
 72
46
 73
42
 74
0
 42
0.0000001
 43
0.0000001
 44
0.0000000001
 40
0.0
 40
0.0
 40
0.0
 40
0.0
 40
0.0112073763
 40
0.0228002203
 40
0.0347721982
 40
0.0471162545
 40
0.0598246425
 40
0.0728890297
 40
0.1000488613
 40
0.1285188471
 40
0.158213824
 40
0.1890420372
 40
0.2209059277
 40
0.2537028361
 40
0.2873256502
 40
0.321663413
 40
0.3566019035
 40
0.3920242006
 40
0.4278112336
 40
0.4638423255
 40
0.4999957306
 40
0.5361491696
 40
0.5721803632
 40
0.6079675654
 40
0.6433900987
 40
0.6783288914
 40
0.712667021
 40
0.7462902652
 40
0.7790876647
 40
0.8109521051
 40
0.8417809244
 40
0.8714765603
 40
0.8999472544
 40
0.9136966633
 40
0.9271084882
 40
0.9401732573
 40
0.9528820575
 40
0.9652265139
 40
0.9771989212
 40
0.9887921818
 40
1.0
 40
1.0
 40
1.0
 40
1.0
 10
11.0821199427
 20
10.4131999105
 30
0.0
 10
11.0796109365
 20
10.414134568
 30
0.0
 10
11.0744861981
 20
10.4159815736
 30
0.0
 10
11.0666170993
 20
10.4186447609
 30
0.0
 10
11.0584417341
 20
10.4212455707
 30
0.0
 10
11.0499675309
 20
10.4237816053
 30
0.0
 10
11.0412021236
 20
10.4262506079
 30
0.0
 10
11.0289786208
 20
10.4294921544
 30
0.0
 10
11.013024802
 20
10.4333488855
 30
0.0
 10
10.9930906609
 20
10.4376179105
 30
0.0
 10
10.9721988129
 20
10.4415700386
 30
0.0
 10
10.9504248584
 20
10.4451908105
 30
0.0
 10
10.9278474638
 20
10.4484669553
 30
0.0
 10
10.9045483137
 20
10.4513864799
 30
0.0
 10
10.8806117295
 20
10.4539387002
 30
0.0
 10
10.8561243756
 20
10.4561142811
 30
0.0
 10
10.8311749318
 20
10.457905268
 30
0.0
 10
10.8058537685
 20
10.459305115
 30
0.0
 10
10.7802526147
 20
10.4603087068
 30
0.0
 10
10.7544642221
 20
10.460912377
 30
0.0
 10
10.7285820258
 20
10.4611139203
 30
0.0
 10
10.7026998034
 20
10.4609126007
 30
0.0
 10
10.6769113327
 20
10.4603091537
 30
0.0
 10
10.651310049
 20
10.4593057836
 30
0.0
 10
10.6259887043
 20
10.4579061561
 30
0.0
 10
10.6010390282
 20
10.4561153855
 30
0.0
 10
10.5765513917
 20
10.4539400172
 30
0.0
 10
10.5526144767
 20
10.4513880045
 30
0.0
 10
10.5293149447
 20
10.4484686825
 30
0.0
 10
10.5067371325
 20
10.4451927322
 30
0.0
 10
10.4849626775
 20
10.4415721545
 30
0.0
 10
10.4640704201
 20
10.4376201883
 30
0.0
 10
10.4472686322
 20
10.4340223451
 30
0.0
 10
10.4343304642
 20
10.4309810142
 30
0.0
 10
10.4250063989
 20
10.4286528997
 30
0.0
 10
10.4159574196
 20
10.4262533039
 30
0.0
 10
10.4071916974
 20
10.4237844043
 30
0.0
 10
10.3987171649
 20
10.4212484266
 30
0.0
 10
10.3905414611
 20
10.4186477018
 30
0.0
 10
10.3826720188
 20
10.4159845691
 30
0.0
 10
10.3775470424
 20
10.4141376194
 30
0.0
 10
10.3750379159
 20
10.4132029822
 30
0.0
  0
SPLINE
  5
390
100
AcDbEntity
  8
0
100
AcDbSpline
 62
7
  6
CONTINUOUS
 70
0
 71
3
 72
21
 73
17
 74
0
 42
0.0000001
 43
0.0000001
 44
0.0000000001
 40
0.0
 40
0.0
 40
0.0
 40
0.0
 40
0.1273176366
 40
0.2537999756
 40
0.3167619475
 40
0.3795355041
 40
0.4421314991
 40
0.5045621439
 40
0.5668413432
 40
0.6289845283
 40
0.6910084528
 40
0.7529310935
 40
0.8147714495
 40
0.8765493365
 40
0.9382852194
 40
1.0
 40
1.0
 40
1.0
 40
1.0
 10
11.1550619201
 20
10.0052764305
 30
0.0
 10
11.1550619201
 20
10.0105736804
 30
0.0
 10
11.1555675776
 20
10.0211402446
 30
0.0
 10
11.1574772816
 20
10.0342028011
 30
0.0
 10
11.1597598026
 20
10.0444492347
 30
0.0
 10
11.1618413391
 20
10.0520070078
 30
0.0
 10
11.1642901267
 20
10.0594304918
 30
0.0
 10
11.1671005545
 20
10.0667027716
 30
0.0
 10
11.1702661219
 20
10.0738070335
 30
0.0
 10
11.1737795733
 20
10.0807268939
 30
0.0
 10
11.1776328266
 20
10.0874463782
 30
0.0
 10
11.1818169731
 20
10.0939500101
 30
0.0
 10
11.1863223755
 20
10.1002227628
 30
0.0
 10
11.1911387227
 20
10.1062501947
 30
0.0
 10
11.1962546813
 20
10.1120182413
 30
0.0
 10
11.1998578846
 20
10.1156824814
 30
0.0
 10
11.2017047434
 20
10.1174664103
 30
0.0
  0
SPLINE
  5
391
100
AcDbEntity
  8
0
100
AcDbSpline
 62
4
  6
CONTINUOUS
 70
0
 71
3
 72
403
 73
399
 74
0
 42
0.0000001
 43
0.0000001
 44
0.0000000001
 40
0.0
 40
0.0
 40
0.0
 40
0.0
 40
0.015625
 40
0.0234375
 40
0.03125
 40
0.0390625
 40
0.04296875
 40
0.046875
 40
0.05078125
 40
0.0546875
 40
0.056640625
 40
0.05859375
 40
0.0595703125
 40
0.060546875
 40
0.0615234375
 40
0.0620117188
 40
0.0622558594
 40
0.0625
 40
0.0627441406
 40
0.0629882812
 40
0.0634765625
 40
0.064453125
 40
0.0654296875
 40
0.06640625
 40
0.068359375
 40
0.0703125
 40
0.07421875
 40
0.078125
 40
0.08203125
 40
0.0859375
 40
0.09375
 40
0.1015625
 40
0.10546875
 40
0.109375
 40
0.11328125
 40
0.1171875
 40
0.119140625
 40
0.12109375
 40
0.1220703125
 40
0.123046875
 40
0.1240234375
 40
0.1245117188
 40
0.1247558594
 40
0.125
 40
0.1252441406
 40
0.1254882812
 40
0.1259765625
 40
0.126953125
 40
0.1279296875
 40
0.12890625
 40
0.130859375
 40
0.1328125
 40
0.13671875
 40
0.140625
 40
0.14453125
 40
0.1484375
 40
0.15625
 40
0.1640625
 40
0.16796875
 40
0.171875
 40
0.17578125
 40
0.1796875
 40
0.181640625
 40
0.18359375
 40
0.1845703125
 40
0.185546875
 40
0.1865234375
 40
0.1870117188
 40
0.1872558594
 40
0.1875
 40
0.1877441406
 40
0.1879882812
 40
0.1884765625
 40
0.189453125
 40
0.1904296875
 40
0.19140625
 40
0.193359375
 40
0.1953125
 40
0.19921875
 40
0.203125
 40
0.20703125
 40
0.2109375
 40
0.21875
 40
0.2265625
 40
0.23046875
 40
0.234375
 40
0.23828125
 40
0.2421875
 40
0.244140625
 40
0.24609375
 40
0.2470703125
 40
0.248046875
 40
0.2490234375
 40
0.2495117188
 40
0.2497558594
 40
0.25
 40
0.2502441406
 40
0.2504882812
 40
0.2509765625
 40
0.251953125
 40
0.2529296875
 40
0.25390625
 40
0.255859375
 40
0.2578125
 40
0.26171875
 40
0.265625
 40
0.26953125
 40
0.2734375
 40
0.28125
 40
0.2890625
 40
0.29296875
 40
0.296875
 40
0.30078125
 40
0.3046875
 40
0.306640625
 40
0.30859375
 40
0.3095703125
 40
0.310546875
 40
0.3115234375
 40
0.3120117188
 40
0.3122558594
 40
0.3125
 40
0.3127441406
 40
0.3129882812
 40
0.3134765625
 40
0.314453125
 40
0.3154296875
 40
0.31640625
 40
0.318359375
 40
0.3203125
 40
0.32421875
 40
0.328125
 40
0.33203125
 40
0.3359375
 40
0.34375
 40
0.3515625
 40
0.35546875
 40
0.359375
 40
0.36328125
 40
0.3671875
 40
0.369140625
 40
0.37109375
 40
0.3720703125
 40
0.373046875
 40
0.3740234375
 40
0.3745117188
 40
0.3747558594
 40
0.375
 40
0.3752441406
 40
0.3754882812
 40
0.3759765625
 40
0.376953125
 40
0.3779296875
 40
0.37890625
 40
0.380859375
 40
0.3828125
 40
0.38671875
 40
0.390625
 40
0.39453125
 40
0.3984375
 40
0.40625
 40
0.4140625
 40
0.41796875
 40
0.421875
 40
0.42578125
 40
0.4296875
 40
0.431640625
 40
0.43359375
 40
0.4345703125
 40
0.435546875
 40
0.4365234375
 40
0.4370117188
 40
0.4372558594
 40
0.4375
 40
0.4377441406
 40
0.4379882812
 40
0.4384765625
 40
0.439453125
 40
0.4404296875
 40
0.44140625
 40
0.443359375
 40
0.4453125
 40
0.44921875
 40
0.453125
 40
0.45703125
 40
0.4609375
 40
0.46875
 40
0.4765625
 40
0.48046875
 40
0.484375
 40
0.48828125
 40
0.4921875
 40
0.494140625
 40
0.49609375
 40
0.4970703125
 40
0.498046875
 40
0.4990234375
 40
0.4995117188
 40
0.4997558594
 40
0.5
 40
0.5002441406
 40
0.5004882812
 40
0.5009765625
 40
0.501953125
 40
0.5029296875
 40
0.50390625
 40
0.505859375
 40
0.5078125
 40
0.51171875
 40
0.515625
 40
0.51953125
 40
0.5234375
 40
0.53125
 40
0.5390625
 40
0.54296875
 40
0.546875
 40
0.55078125
 40
0.5546875
 40
0.556640625
 40
0.55859375
 40
0.5595703125
 40
0.560546875
 40
0.5615234375
 40
0.5620117188
 40
0.5622558594
 40
0.5625
 40
0.5627441406
 40
0.5629882812
 40
0.5634765625
 40
0.564453125
 40
0.5654296875
 40
0.56640625
 40
0.568359375
 40
0.5703125
 40
0.57421875
 40
0.578125
 40
0.58203125
 40
0.5859375
 40
0.59375
 40
0.6015625
 40
0.60546875
 40
0.609375
 40
0.61328125
 40
0.6171875
 40
0.619140625
 40
0.62109375
 40
0.6220703125
 40
0.623046875
 40
0.6240234375
 40
0.6245117188
 40
0.6247558594
 40
0.625
 40
0.6252441406
 40
0.6254882812
 40
0.6259765625
 40
0.626953125
 40
0.6279296875
 40
0.62890625
 40
0.630859375
 40
0.6328125
 40
0.63671875
 40
0.640625
 40
0.64453125
 40
0.6484375
 40
0.65625
 40
0.6640625
 40
0.66796875
 40
0.671875
 40
0.67578125
 40
0.6796875
 40
0.681640625
 40
0.68359375
 40
0.6845703125
 40
0.685546875
 40
0.6865234375
 40
0.6870117188
 40
0.6872558594
 40
0.6875
 40
0.6877441406
 40
0.6879882812
 40
0.6884765625
 40
0.689453125
 40
0.6904296875
 40
0.69140625
 40
0.693359375
 40
0.6953125
 40
0.69921875
 40
0.703125
 40
0.70703125
 40
0.7109375
 40
0.71875
 40
0.7265625
 40
0.73046875
 40
0.734375
 40
0.73828125
 40
0.7421875
 40
0.744140625
 40
0.74609375
 40
0.7470703125
 40
0.748046875
 40
0.7490234375
 40
0.7495117188
 40
0.7497558594
 40
0.75
 40
0.7502441406
 40
0.7504882812
 40
0.7509765625
 40
0.751953125
 40
0.7529296875
 40
0.75390625
 40
0.755859375
 40
0.7578125
 40
0.76171875
 40
0.765625
 40
0.76953125
 40
0.7734375
 40
0.78125
 40
0.7890625
 40
0.79296875
 40
0.796875
 40
0.80078125
 40
0.8046875
 40
0.806640625
 40
0.80859375
 40
0.8095703125
 40
0.810546875
 40
0.8115234375
 40
0.8120117188
 40
0.8122558594
 40
0.8125
 40
0.8127441406
 40
0.8129882812
 40
0.8134765625
 40
0.814453125
 40
0.8154296875
 40
0.81640625
 40
0.818359375
 40
0.8203125
 40
0.82421875
 40
0.828125
 40
0.83203125
 40
0.8359375
 40
0.84375
 40
0.8515625
 40
0.85546875
 40
0.859375
 40
0.86328125
 40
0.8671875
 40
0.869140625
 40
0.87109375
 40
0.8720703125
 40
0.873046875
 40
0.8740234375
 40
0.8745117188
 40
0.8747558594
 40
0.875
 40
0.8752441406
 40
0.8754882812
 40
0.8759765625
 40
0.876953125
 40
0.8779296875
 40
0.87890625
 40
0.880859375
 40
0.8828125
 40
0.88671875
 40
0.890625
 40
0.89453125
 40
0.8984375
 40
0.90625
 40
0.9140625
 40
0.91796875
 40
0.921875
 40
0.92578125
 40
0.9296875
 40
0.931640625
 40
0.93359375
 40
0.9345703125
 40
0.935546875
 40
0.9365234375
 40
0.9370117188
 40
0.9372558594
 40
0.9375
 40
0.9377441406
 40
0.9379882812
 40
0.9384765625
 40
0.939453125
 40
0.9404296875
 40
0.94140625
 40
0.943359375
 40
0.9453125
 40
0.94921875
 40
0.953125
 40
0.95703125
 40
0.9609375
 40
0.96875
 40
0.9765625
 40
0.984375
 40
1.0
 40
1.0
 40
1.0
 40
1.0
 10
10.4128444807
 20
8.909809006
 30
0.0
 10
10.4159776676
 20
8.9098989304
 30
0.0
 10
10.420677448
 20
8.9100338171
 30
0.0
 10
10.4269438218
 20
8.9102136659
 30
0.0
 10
10.4316436022
 20
8.9103485525
 30
0.0
 10
10.4355600859
 20
8.9104609579
 30
0.0
 10
10.4386932727
 20
8.9105508826
 30
0.0
 10
10.4410431631
 20
8.9106183249
 30
0.0
 10
10.4433930526
 20
8.910685772
 30
0.0
 10
10.4453512967
 20
8.9107419631
 30
0.0
 10
10.4469178855
 20
8.910786949
 30
0.0
 10
10.4478970182
 20
8.9108149901
 30
0.0
 10
10.4486802908
 20
8.910837595
 30
0.0
 10
10.4492678372
 20
8.9108540777
 30
0.0
 10
10.4497571666
 20
8.9108693113
 30
0.0
 10
10.4501002713
 20
8.9108770351
 30
0.0
 10
10.4502954347
 20
8.9108860388
 30
0.0
 10
10.4504443327
 20
8.9108798613
 30
0.0
 10
10.4505835768
 20
8.9109231098
 30
0.0
 10
10.4507726029
 20
8.910963534
 30
0.0
 10
10.4511018298
 20
8.9110423091
 30
0.0
 10
10.451572974
 20
8.9111506453
 30
0.0
 10
10.4521379961
 20
8.9112824464
 30
0.0
 10
10.4528914815
 20
8.9114575533
 30
0.0
 10
10.4538332962
 20
8.9116766519
 30
0.0
 10
10.4553402232
 20
8.9120270894
 30
0.0
 10
10.457223874
 20
8.9124651776
 30
0.0
 10
10.4594842583
 20
8.9129908658
 30
0.0
 10
10.4617446417
 20
8.9135165587
 30
0.0
 10
10.4647584866
 20
8.9142174809
 30
0.0
 10
10.4685257925
 20
8.9150936343
 30
0.0
 10
10.4722930986
 20
8.9159697873
 30
0.0
 10
10.4753069433
 20
8.9166707102
 30
0.0
 10
10.4775673273
 20
8.9171964011
 30
0.0
 10
10.4798277094
 20
8.9177220966
 30
0.0
 10
10.4817113669
 20
8.9181601621
 30
0.0
 10
10.4832182802
 20
8.918510646
 30
0.0
 10
10.4841601298
 20
8.9187296267
 30
0.0
 10
10.4849135436
 20
8.9189049756
 30
0.0
 10
10.4854787844
 20
8.9190360371
 30
0.0
 10
10.4859492443
 20
8.9191466874
 30
0.0
 10
10.4862796928
 20
8.9192213314
 30
0.0
 10
10.4864667616
 20
8.9192683747
 30
0.0
 10
10.4866120181
 20
8.9192912918
 30
0.0
 10
10.4867383343
 20
8.9193614752
 30
0.0
 10
10.4869133624
 20
8.9194385661
 30
0.0
 10
10.4872165836
 20
8.9195811567
 30
0.0
 10
10.487651366
 20
8.9197808416
 30
0.0
 10
10.4881724161
 20
8.9200221824
 30
0.0
 10
10.48886739
 20
8.9203433697
 30
0.0
 10
10.4897360252
 20
8.9207450595
 30
0.0
 10
10.4911258874
 20
8.9213876482
 30
0.0
 10
10.4928631993
 20
8.9221909235
 30
0.0
 10
10.4949479805
 20
8.923154837
 30
0.0
 10
10.4970327598
 20
8.9241187551
 30
0.0
 10
10.4998124662
 20
8.9254039775
 30
0.0
 10
10.503287099
 20
8.9270105061
 30
0.0
 10
10.5067617319
 20
8.9286170344
 30
0.0
 10
10.509541438
 20
8.9299022575
 30
0.0
 10
10.5116262182
 20
8.9308661736
 30
0.0
 10
10.5137109961
 20
8.9318300942
 30
0.0
 10
10.5154483182
 20
8.9326333475
 30
0.0
 10
10.5168381597
 20
8.9332759811
 30
0.0
 10
10.5177068475
 20
8.9336775567
 30
0.0
 10
10.5184017133
 20
8.9339989783
 30
0.0
 10
10.5189230939
 20
8.9342396035
 30
0.0
 10
10.519356842
 20
8.9344415275
 30
0.0
 10
10.5196619096
 20
8.9345801208
 30
0.0
 10
10.5198339793
 20
8.9346636164
 30
0.0
 10
10.5199693831
 20
8.9347141263
 30
0.0
 10
10.5200805081
 20
8.9348109339
 30
0.0
 10
10.5202371435
 20
8.9349238615
 30
0.0
 10
10.5205073097
 20
8.9351290089
 30
0.0
 10
10.5208953243
 20
8.9354181429
 30
0.0
 10
10.5213600588
 20
8.9357667875
 30
0.0
 10
10.5219800132
 20
8.9362310589
 30
0.0
 10
10.5227548506
 20
8.9368115995
 30
0.0
 10
10.5239946495
 20
8.9377403519
 30
0.0
 10
10.5255443779
 20
8.938901331
 30
0.0
 10
10.5274040607
 20
8.9402944894
 30
0.0
 10
10.5292637411
 20
8.9416876522
 30
0.0
 10
10.5317433158
 20
8.9435452011
 30
0.0
 10
10.5348427839
 20
8.9458671377
 30
0.0
 10
10.5379422522
 20
8.948189074
 30
0.0
 10
10.5404218265
 20
8.9500466234
 30
0.0
 10
10.5422815082
 20
8.9514397846
 30
0.0
 10
10.5441411862
 20
8.9528329492
 30
0.0
 10
10.5456909294
 20
8.9539939091
 30
0.0
 10
10.546930698
 20
8.9549227006
 30
0.0
 10
10.5477056126
 20
8.9555031416
 30
0.0
 10
10.5483254087
 20
8.9559676174
 30
0.0
 10
10.5487906268
 20
8.9563156377
 30
0.0
 10
10.5491771285
 20
8.956606725
 30
0.0
 10
10.5494499954
 20
8.9568083855
 30
0.0
 10
10.5496023036
 20
8.9569269
 30
0.0
 10
10.5497267204
 20
8.9570065463
 30
0.0
 10
10.5498122023
 20
8.9571215109
 30
0.0
 10
10.5499397592
 20
8.9572624775
 30
0.0
 10
10.5501566562
 20
8.957514909
 30
0.0
 10
10.5504698171
 20
8.9578725245
 30
0.0
 10
10.5508441942
 20
8.9583029476
 30
0.0
 10
10.5513438582
 20
8.9588763964
 30
0.0
 10
10.5519682689
 20
8.959593361
 30
0.0
 10
10.5529674207
 20
8.9607404185
 30
0.0
 10
10.554216328
 20
8.9621742699
 30
0.0
 10
10.5557150306
 20
8.9638948789
 30
0.0
 10
10.5572137296
 20
8.9656154913
 30
0.0
 10
10.5592119961
 20
8.96790964
 30
0.0
 10
10.5617098288
 20
8.9707773263
 30
0.0
 10
10.5642076618
 20
8.9736450124
 30
0.0
 10
10.5662059277
 20
8.9759391615
 30
0.0
 10
10.5677046283
 20
8.9776597726
 30
0.0
 10
10.5692033249
 20
8.9793803866
 30
0.0
 10
10.570452251
 20
8.9808142225
 30
0.0
 10
10.5714513643
 20
8.9819613116
 30
0.0
 10
10.5720758729
 20
8.9826781959
 30
0.0
 10
10.5725753361
 20
8.9832518095
 30
0.0
 10
10.5729503269
 20
8.9836817291
 30
0.0
 10
10.5732615676
 20
8.9840409201
 30
0.0
 10
10.5734818925
 20
8.984290539
 30
0.0
 10
10.5736039568
 20
8.9844360121
 30
0.0
 10
10.5737063102
 20
8.9845371342
 30
0.0
 10
10.573767361
 20
8.9846687702
 30
0.0
 10
10.573863169
 20
8.9848336414
 30
0.0
 10
10.5740241205
 20
8.9851271249
 30
0.0
 10
10.5742575605
 20
8.9855437944
 30
0.0
 10
10.5745361865
 20
8.9860449075
 30
0.0
 10
10.5749082124
 20
8.9867126707
 30
0.0
 10
10.5753730651
 20
8.9875475075
 30
0.0
 10
10.57611693
 20
8.9888831721
 30
0.0
 10
10.5770467265
 20
8.9905527783
 30
0.0
 10
10.5781624971
 20
8.9925562949
 30
0.0
 10
10.5792782638
 20
8.9945598144
 30
0.0
 10
10.5807659541
 20
8.9972311727
 30
0.0
 10
10.5826255665
 20
9.000570371
 30
0.0
 10
10.5844851792
 20
9.0039095691
 30
0.0
 10
10.5859728689
 20
9.0065809277
 30
0.0
 10
10.5870886374
 20
9.0085844462
 30
0.0
 10
10.5882044014
 20
9.0105879667
 30
0.0
 10
10.5891342185
 20
9.0122575606
 30
0.0
 10
10.5898780415
 20
9.0135932505
 30
0.0
 10
10.5903430006
 20
9.0144280229
 30
0.0
 10
10.5907148082
 20
9.0150959183
 30
0.0
 10
10.5909941011
 20
9.0155966276
 30
0.0
 10
10.5912254545
 20
9.0160145606
 30
0.0
 10
10.591390131
 20
9.0163057884
 30
0.0
 10
10.5914799705
 20
9.0164742737
 30
0.0
 10
10.5915593544
 20
9.0165948082
 30
0.0
 10
10.591592852
 20
9.0167376257
 30
0.0
 10
10.5916535211
 20
9.0169202764
 30
0.0
 10
10.5917522347
 20
9.0172435365
 30
0.0
 10
10.5918971529
 20
9.0177034433
 30
0.0
 10
10.5920693859
 20
9.0182561419
 30
0.0
 10
10.5922996128
 20
9.0189927904
 30
0.0
 10
10.5925871969
 20
9.0199136978
 30
0.0
 10
10.593047443
 20
9.0213870956
 30
0.0
 10
10.5936227123
 20
9.0232288614
 30
0.0
 10
10.5943130518
 20
9.0254389724
 30
0.0
 10
10.595003387
 20
9.0276490855
 30
0.0
 10
10.5959238354
 20
9.0305959022
 30
0.0
 10
10.5970743954
 20
9.0342794234
 30
0.0
 10
10.5982249558
 20
9.0379629444
 30
0.0
 10
10.5991454036
 20
9.0409097614
 30
0.0
 10
10.5998357407
 20
9.0431198737
 30
0.0
 10
10.6005260731
 20
9.0453299878
 30
0.0
 10
10.6011013646
 20
9.0471717441
 30
0.0
 10
10.6015615653
 20
9.0486451611
 30
0.0
 10
10.6018492648
 20
9.0495660197
 30
0.0
 10
10.6020792549
 20
9.0503027684
 30
0.0
 10
10.6022522115
 20
9.0508551607
 30
0.0
 10
10.6023948657
 20
9.0513160258
 30
0.0
 10
10.6024976209
 20
9.0516375753
 30
0.0
 10
10.6025518143
 20
9.0518229669
 30
0.0
 10
10.6026052034
 20
9.0519573651
 30
0.0
 10
10.602609878
 20
9.0521095208
 30
0.0
 10
10.602633103
 20
9.052306201
 30
0.0
 10
10.6026658298
 20
9.0526532773
 30
0.0
 10
10.6027167214
 20
9.0531475918
 30
0.0
 10
10.6027760197
 20
9.053741415
 30
0.0
 10
10.6028557029
 20
9.0545329537
 30
0.0
 10
10.602955095
 20
9.0555224543
 30
0.0
 10
10.6031142408
 20
9.0571056122
 30
0.0
 10
10.6033131325
 20
9.0590845742
 30
0.0
 10
10.6035518198
 20
9.0614593224
 30
0.0
 10
10.6037905026
 20
9.0638340723
 30
0.0
 10
10.6041087478
 20
9.0670004048
 30
0.0
 10
10.6045065538
 20
9.0709583207
 30
0.0
 10
10.6049043602
 20
9.0749162365
 30
0.0
 10
10.6052226047
 20
9.0780825692
 30
0.0
 10
10.6054612895
 20
9.0804573187
 30
0.0
 10
10.6056999693
 20
9.0828320681
 30
0.0
 10
10.6058988843
 20
9.0848110263
 30
0.0
 10
10.6060579825
 20
9.0863941921
 30
0.0
 10
10.6061574958
 20
9.0873836723
 30
0.0
 10
10.6062369303
 20
9.088175253
 30
0.0
 10
10.6062969883
 20
9.0887689477
 30
0.0
 10
10.6063455032
 20
9.0892636643
 30
0.0
 10
10.6063824728
 20
9.0896100228
 30
0.0
 10
10.6063988997
 20
9.0898078531
 30
0.0
 10
10.606424456
 20
9.0899564763
 30
0.0
 10
10.6063994169
 20
9.0901041417
 30
0.0
 10
10.6063836796
 20
9.090301363
 30
0.0
 10
10.6063479167
 20
9.0906463447
 30
0.0
 10
10.6063011257
 20
9.091139257
 30
0.0
 10
10.6062431365
 20
9.091730717
 30
0.0
 10
10.6061664603
 20
9.0925193424
 30
0.0
 10
10.606070395
 20
9.09350512
 30
0.0
 10
10.6059168134
 20
9.0950823665
 30
0.0
 10
10.6057247942
 20
9.0970539239
 30
0.0
 10
10.6054943893
 20
9.099419793
 30
0.0
 10
10.6052639795
 20
9.1017856621
 30
0.0
 10
10.6049567682
 20
9.1049401542
 30
0.0
 10
10.6045727534
 20
9.1088832694
 30
0.0
 10
10.604188739
 20
9.1128263845
 30
0.0
 10
10.603881527
 20
9.1159808766
 30
0.0
 10
10.6036511193
 20
9.1183467458
 30
0.0
 10
10.6034207068
 20
9.1207126145
 30
0.0
 10
10.603228711
 20
9.1226841735
 30
0.0
 10
10.6030750818
 20
9.1242614166
 30
0.0
 10
10.6029791376
 20
9.125247203
 30
0.0
 10
10.6029022126
 20
9.1260358103
 30
0.0
 10
10.6028449834
 20
9.1266273256
 30
0.0
 10
10.6027958147
 20
9.1271200648
 30
0.0
 10
10.6027642965
 20
9.1274653554
 30
0.0
 10
10.6027417582
 20
9.1276620818
 30
0.0
 10
10.6027376096
 20
9.1278112676
 30
0.0
 10
10.6026847045
 20
9.1279541806
 30
0.0
 10
10.6026311712
 20
9.1281469193
 30
0.0
 10
10.6025295642
 20
9.1284831926
 30
0.0
 10
10.602388554
 20
9.128964116
 30
0.0
 10
10.6022175685
 20
9.1295409959
 30
0.0
 10
10.6019902073
 20
9.1303102488
 30
0.0
 10
10.6017057936
 20
9.1312717877
 30
0.0
 10
10.6012508503
 20
9.1328102652
 30
0.0
 10
10.6006821304
 20
9.1347333567
 30
0.0
 10
10.5999996841
 20
9.1370410689
 30
0.0
 10
10.5993172331
 20
9.1393487804
 30
0.0
 10
10.5984073
 20
9.1424257294
 30
0.0
 10
10.597269883
 20
9.1462719155
 30
0.0
 10
10.5961324665
 20
9.1501181016
 30
0.0
 10
10.5952225328
 20
9.1531950504
 30
0.0
 10
10.5945400837
 20
9.1555027624
 30
0.0
 10
10.5938576302
 20
9.1578104729
 30
0.0
 10
10.5932889326
 20
9.1597335697
 30
0.0
 10
10.5928339439
 20
9.1612720366
 30
0.0
 10
10.5925496457
 20
9.1622336023
 30
0.0
 10
10.5923220473
 20
9.1630028001
 30
0.0
 10
10.5921517863
 20
9.1635798485
 30
0.0
 10
10.5920085095
 20
9.1640602448
 30
0.0
 10
10.5919109488
 20
9.1643974591
 30
0.0
 10
10.5918509323
 20
9.16458869
 30
0.0
 10
10.5918179416
 20
9.1647362344
 30
0.0
 10
10.5917389981
 20
9.1648680254
 30
0.0
 10
10.591649769
 20
9.1650492416
 30
0.0
 10
10.5914861499
 20
9.1653638098
 30
0.0
 10
10.5912563128
 20
9.1658145315
 30
0.0
 10
10.590978837
 20
9.1663548245
 30
0.0
 10
10.5906094531
 20
9.1670754154
 30
0.0
 10
10.5901475233
 20
9.1679760854
 30
0.0
 10
10.5894085473
 20
9.1694171958
 30
0.0
 10
10.5884847889
 20
9.1712185706
 30
0.0
 10
10.5873762954
 20
9.1733802261
 30
0.0
 10
10.5862677974
 20
9.17554188
 30
0.0
 10
10.5847898017
 20
9.1784240857
 30
0.0
 10
10.5829423064
 20
9.1820268427
 30
0.0
 10
10.5810948116
 20
9.1856295999
 30
0.0
 10
10.5796168152
 20
9.1885118054
 30
0.0
 10
10.5785083191
 20
9.19067346
 30
0.0
 10
10.5773998187
 20
9.1928351127
 30
0.0
 10
10.5764760816
 20
9.1946364962
 30
0.0
 10
10.5757370622
 20
9.1960775888
 30
0.0
 10
10.5752752429
 20
9.1969783039
 30
0.0
 10
10.5749056322
 20
9.1976988023
 30
0.0
 10
10.5746288492
 20
9.1982393779
 30
0.0
 10
10.5743968446
 20
9.1986892155
 30
0.0
 10
10.5742370948
 20
9.1990053619
 30
0.0
 10
10.5741416661
 20
9.1991840495
 30
0.0
 10
10.5740817659
 20
9.1993236074
 30
0.0
 10
10.5739772518
 20
9.1994419805
 30
0.0
 10
10.5738534615
 20
9.1996072008
 30
0.0
 10
10.573629578
 20
9.1998928933
 30
0.0
 10
10.5733135351
 20
9.2003028256
 30
0.0
 10
10.572932661
 20
9.2007939738
 30
0.0
 10
10.5724253957
 20
9.2014491072
 30
0.0
 10
10.5717911199
 20
9.2022679318
 30
0.0
 10
10.5707763872
 20
9.2035781027
 30
0.0
 10
10.569507934
 20
9.2052157986
 30
0.0
 10
10.5679858062
 20
9.2071810412
 30
0.0
 10
10.5664636741
 20
9.2091462819
 30
0.0
 10
10.5644341662
 20
9.2117666034
 30
0.0
 10
10.5618972807
 20
9.2150420051
 30
0.0
 10
10.5593603955
 20
9.218317407
 30
0.0
 10
10.557330887
 20
9.2209377282
 30
0.0
 10
10.5558087565
 20
9.22290297
 30
0.0
 10
10.5542866228
 20
9.2248682083
 30
0.0
 10
10.5530181879
 20
9.2265059178
 30
0.0
 10
10.5520034181
 20
9.227816061
 30
0.0
 10
10.5513692366
 20
9.2286349561
 30
0.0
 10
10.5508617778
 20
9.2292899447
 30
0.0
 10
10.5504814945
 20
9.2297815355
 30
0.0
 10
10.5501636032
 20
9.230190083
 30
0.0
 10
10.5499430193
 20
9.2304782475
 30
0.0
 10
10.5498139422
 20
9.2306395072
 30
0.0
 10
10.5497256676
 20
9.2307700458
 30
0.0
 10
10.5496047749
 20
9.2308639118
 30
0.0
 10
10.5494549621
 20
9.2310018582
 30
0.0
 10
10.5491874888
 20
9.2312373045
 30
0.0
 10
10.5488081555
 20
9.2315767722
 30
0.0
 10
10.5483517693
 20
9.2319827998
 30
0.0
 10
10.5477436687
 20
9.2325246358
 30
0.0
 10
10.546983401
 20
9.2332017713
 30
0.0
 10
10.5457670521
 20
9.2342852771
 30
0.0
 10
10.5442465887
 20
9.2356396289
 30
0.0
 10
10.5424220442
 20
9.2372648641
 30
0.0
 10
10.5405974967
 20
9.2388900958
 30
0.0
 10
10.5381647678
 20
9.2410570727
 30
0.0
 10
10.5351238562
 20
9.2437657933
 30
0.0
 10
10.5320829448
 20
9.2464745142
 30
0.0
 10
10.5296502155
 20
9.2486414906
 30
0.0
 10
10.5278256692
 20
9.2502667238
 30
0.0
 10
10.5260011202
 20
9.2518919533
 30
0.0
 10
10.524480671
 20
9.2532463229
 30
0.0
 10
10.5232642931
 20
9.2543297924
 30
0.0
 10
10.522504099
 20
9.2550070206
 30
0.0
 10
10.5218958475
 20
9.2555486661
 30
0.0
 10
10.5214399223
 20
9.2559552755
 30
0.0
 10
10.5210591466
 20
9.256292923
 30
0.0
 10
10.5207942481
 20
9.2565316187
 30
0.0
 10
10.5206403098
 20
9.2566643587
 30
0.0
 10
10.5205320895
 20
9.2567742172
 30
0.0
 10
10.5203962196
 20
9.2568446907
 30
0.0
 10
10.5202247041
 20
9.2569523932
 30
0.0
 10
10.5199200586
 20
9.257134472
 30
0.0
 10
10.5194872
 20
9.2573979309
 30
0.0
 10
10.5189667641
 20
9.2577126492
 30
0.0
 10
10.5182732008
 20
9.2581327739
 30
0.0
 10
10.5174061264
 20
9.2586577584
 30
0.0
 10
10.5160188745
 20
9.2594978295
 30
0.0
 10
10.5142847867
 20
9.2605478854
 30
0.0
 10
10.5122038912
 20
9.2618079667
 30
0.0
 10
10.510122993
 20
9.2630680441
 30
0.0
 10
10.507348463
 20
9.2647481487
 30
0.0
 10
10.5038803002
 20
9.266848279
 30
0.0
 10
10.5004121375
 20
9.2689484096
 30
0.0
 10
10.4976376072
 20
9.2706285137
 30
0.0
 10
10.49555671
 20
9.2718885928
 30
0.0
 10
10.4934758109
 20
9.2731486677
 30
0.0
 10
10.4917417341
 20
9.2741987434
 30
0.0
 10
10.4903544598
 20
9.2750387742
 30
0.0
 10
10.4894874424
 20
9.2755638612
 30
0.0
 10
10.4887937621
 20
9.2759837757
 30
0.0
 10
10.4882736838
 20
9.2762991361
 30
0.0
 10
10.4878397063
 20
9.2765605859
 30
0.0
 10
10.4875370581
 20
9.2767462512
 30
0.0
 10
10.4873623425
 20
9.2768482073
 30
0.0
 10
10.4872363026
 20
9.2769363321
 30
0.0
 10
10.4870911621
 20
9.2769798952
 30
0.0
 10
10.486904304
 20
9.2770535229
 30
0.0
 10
10.4865741981
 20
9.2771751295
 30
0.0
 10
10.4861042411
 20
9.2773526393
 30
0.0
 10
10.4855395981
 20
9.2775640304
 30
0.0
 10
10.4847869834
 20
9.2778464514
 30
0.0
 10
10.4838461319
 20
9.2781992837
 30
0.0
 10
10.482340816
 20
9.2787639238
 30
0.0
 10
10.4804591551
 20
9.2794696867
 30
0.0
 10
10.478201169
 20
9.2803166181
 30
0.0
 10
10.4759431809
 20
9.2811635453
 30
0.0
 10
10.4729325309
 20
9.282292783
 30
0.0
 10
10.4691692181
 20
9.2837043296
 30
0.0
 10
10.4654059054
 20
9.2851158766
 30
0.0
 10
10.4623952551
 20
9.2862451137
 30
0.0
 10
10.4601372678
 20
9.2870920428
 30
0.0
 10
10.4578792791
 20
9.2879389672
 30
0.0
 10
10.4559976261
 20
9.2886447519
 30
0.0
 10
10.4544922941
 20
9.2892093477
 30
0.0
 10
10.4535514835
 20
9.2895622926
 30
0.0
 10
10.4527987849
 20
9.2898444825
 30
0.0
 10
10.452234398
 20
9.2900565795
 30
0.0
 10
10.4517636398
 20
9.2902318809
 30
0.0
 10
10.4514349642
 20
9.2903574298
 30
0.0
 10
10.4512458143
 20
9.2904247408
 30
0.0
 10
10.4511077136
 20
9.2904877072
 30
0.0
 10
10.4509552336
 20
9.2905029563
 30
0.0
 10
10.4507569426
 20
9.2905399329
 30
0.0
 10
10.4504075966
 20
9.2905968869
 30
0.0
 10
10.4499097525
 20
9.2906823041
 30
0.0
 10
10.4493118167
 20
9.2907830694
 30
0.0
 10
10.4485147516
 20
9.2909180292
 30
0.0
 10
10.4475183577
 20
9.2910865215
 30
0.0
 10
10.4459241623
 20
9.2913562252
 30
0.0
 10
10.4439314062
 20
9.2916933149
 30
0.0
 10
10.4415401039
 20
9.2920978397
 30
0.0
 10
10.4391488003
 20
9.2925023598
 30
0.0
 10
10.435960396
 20
9.2930417217
 30
0.0
 10
10.4319748904
 20
9.2937159234
 30
0.0
 10
10.4271922838
 20
9.2945249658
 30
0.0
 10
10.4208154749
 20
9.2956036888
 30
0.0
 10
10.4160328682
 20
9.2964127311
 30
0.0
 10
10.4128444638
 20
9.2969520927
 30
0.0
  0
SPLINE
  5
392
100
AcDbEntity
  8
0
100
AcDbSpline
 62
4
  6
CONTINUOUS
 70
0
 71
3
 72
403
 73
399
 74
0
 42
0.0000001
 43
0.0000001
 44
0.0000000001
 40
0.0
 40
0.0
 40
0.0
 40
0.0
 40
0.015625
 40
0.0234375
 40
0.03125
 40
0.0390625
 40
0.04296875
 40
0.046875
 40
0.05078125
 40
0.0546875
 40
0.056640625
 40
0.05859375
 40
0.0595703125
 40
0.060546875
 40
0.0615234375
 40
0.0620117188
 40
0.0622558594
 40
0.0625
 40
0.0627441406
 40
0.0629882812
 40
0.0634765625
 40
0.064453125
 40
0.0654296875
 40
0.06640625
 40
0.068359375
 40
0.0703125
 40
0.07421875
 40
0.078125
 40
0.08203125
 40
0.0859375
 40
0.09375
 40
0.1015625
 40
0.10546875
 40
0.109375
 40
0.11328125
 40
0.1171875
 40
0.119140625
 40
0.12109375
 40
0.1220703125
 40
0.123046875
 40
0.1240234375
 40
0.1245117188
 40
0.1247558594
 40
0.125
 40
0.1252441406
 40
0.1254882812
 40
0.1259765625
 40
0.126953125
 40
0.1279296875
 40
0.12890625
 40
0.130859375
 40
0.1328125
 40
0.13671875
 40
0.140625
 40
0.14453125
 40
0.1484375
 40
0.15625
 40
0.1640625
 40
0.16796875
 40
0.171875
 40
0.17578125
 40
0.1796875
 40
0.181640625
 40
0.18359375
 40
0.1845703125
 40
0.185546875
 40
0.1865234375
 40
0.1870117188
 40
0.1872558594
 40
0.1875
 40
0.1877441406
 40
0.1879882812
 40
0.1884765625
 40
0.189453125
 40
0.1904296875
 40
0.19140625
 40
0.193359375
 40
0.1953125
 40
0.19921875
 40
0.203125
 40
0.20703125
 40
0.2109375
 40
0.21875
 40
0.2265625
 40
0.23046875
 40
0.234375
 40
0.23828125
 40
0.2421875
 40
0.244140625
 40
0.24609375
 40
0.2470703125
 40
0.248046875
 40
0.2490234375
 40
0.2495117188
 40
0.2497558594
 40
0.25
 40
0.2502441406
 40
0.2504882812
 40
0.2509765625
 40
0.251953125
 40
0.2529296875
 40
0.25390625
 40
0.255859375
 40
0.2578125
 40
0.26171875
 40
0.265625
 40
0.26953125
 40
0.2734375
 40
0.28125
 40
0.2890625
 40
0.29296875
 40
0.296875
 40
0.30078125
 40
0.3046875
 40
0.306640625
 40
0.30859375
 40
0.3095703125
 40
0.310546875
 40
0.3115234375
 40
0.3120117188
 40
0.3122558594
 40
0.3125
 40
0.3127441406
 40
0.3129882812
 40
0.3134765625
 40
0.314453125
 40
0.3154296875
 40
0.31640625
 40
0.318359375
 40
0.3203125
 40
0.32421875
 40
0.328125
 40
0.33203125
 40
0.3359375
 40
0.34375
 40
0.3515625
 40
0.35546875
 40
0.359375
 40
0.36328125
 40
0.3671875
 40
0.369140625
 40
0.37109375
 40
0.3720703125
 40
0.373046875
 40
0.3740234375
 40
0.3745117188
 40
0.3747558594
 40
0.375
 40
0.3752441406
 40
0.3754882812
 40
0.3759765625
 40
0.376953125
 40
0.3779296875
 40
0.37890625
 40
0.380859375
 40
0.3828125
 40
0.38671875
 40
0.390625
 40
0.39453125
 40
0.3984375
 40
0.40625
 40
0.4140625
 40
0.41796875
 40
0.421875
 40
0.42578125
 40
0.4296875
 40
0.431640625
 40
0.43359375
 40
0.4345703125
 40
0.435546875
 40
0.4365234375
 40
0.4370117188
 40
0.4372558594
 40
0.4375
 40
0.4377441406
 40
0.4379882812
 40
0.4384765625
 40
0.439453125
 40
0.4404296875
 40
0.44140625
 40
0.443359375
 40
0.4453125
 40
0.44921875
 40
0.453125
 40
0.45703125
 40
0.4609375
 40
0.46875
 40
0.4765625
 40
0.48046875
 40
0.484375
 40
0.48828125
 40
0.4921875
 40
0.494140625
 40
0.49609375
 40
0.4970703125
 40
0.498046875
 40
0.4990234375
 40
0.4995117188
 40
0.4997558594
 40
0.5
 40
0.5002441406
 40
0.5004882812
 40
0.5009765625
 40
0.501953125
 40
0.5029296875
 40
0.50390625
 40
0.505859375
 40
0.5078125
 40
0.51171875
 40
0.515625
 40
0.51953125
 40
0.5234375
 40
0.53125
 40
0.5390625
 40
0.54296875
 40
0.546875
 40
0.55078125
 40
0.5546875
 40
0.556640625
 40
0.55859375
 40
0.5595703125
 40
0.560546875
 40
0.5615234375
 40
0.5620117188
 40
0.5622558594
 40
0.5625
 40
0.5627441406
 40
0.5629882812
 40
0.5634765625
 40
0.564453125
 40
0.5654296875
 40
0.56640625
 40
0.568359375
 40
0.5703125
 40
0.57421875
 40
0.578125
 40
0.58203125
 40
0.5859375
 40
0.59375
 40
0.6015625
 40
0.60546875
 40
0.609375
 40
0.61328125
 40
0.6171875
 40
0.619140625
 40
0.62109375
 40
0.6220703125
 40
0.623046875
 40
0.6240234375
 40
0.6245117188
 40
0.6247558594
 40
0.625
 40
0.6252441406
 40
0.6254882812
 40
0.6259765625
 40
0.626953125
 40
0.6279296875
 40
0.62890625
 40
0.630859375
 40
0.6328125
 40
0.63671875
 40
0.640625
 40
0.64453125
 40
0.6484375
 40
0.65625
 40
0.6640625
 40
0.66796875
 40
0.671875
 40
0.67578125
 40
0.6796875
 40
0.681640625
 40
0.68359375
 40
0.6845703125
 40
0.685546875
 40
0.6865234375
 40
0.6870117188
 40
0.6872558594
 40
0.6875
 40
0.6877441406
 40
0.6879882812
 40
0.6884765625
 40
0.689453125
 40
0.6904296875
 40
0.69140625
 40
0.693359375
 40
0.6953125
 40
0.69921875
 40
0.703125
 40
0.70703125
 40
0.7109375
 40
0.71875
 40
0.7265625
 40
0.73046875
 40
0.734375
 40
0.73828125
 40
0.7421875
 40
0.744140625
 40
0.74609375
 40
0.7470703125
 40
0.748046875
 40
0.7490234375
 40
0.7495117188
 40
0.7497558594
 40
0.75
 40
0.7502441406
 40
0.7504882812
 40
0.7509765625
 40
0.751953125
 40
0.7529296875
 40
0.75390625
 40
0.755859375
 40
0.7578125
 40
0.76171875
 40
0.765625
 40
0.76953125
 40
0.7734375
 40
0.78125
 40
0.7890625
 40
0.79296875
 40
0.796875
 40
0.80078125
 40
0.8046875
 40
0.806640625
 40
0.80859375
 40
0.8095703125
 40
0.810546875
 40
0.8115234375
 40
0.8120117188
 40
0.8122558594
 40
0.8125
 40
0.8127441406
 40
0.8129882812
 40
0.8134765625
 40
0.814453125
 40
0.8154296875
 40
0.81640625
 40
0.818359375
 40
0.8203125
 40
0.82421875
 40
0.828125
 40
0.83203125
 40
0.8359375
 40
0.84375
 40
0.8515625
 40
0.85546875
 40
0.859375
 40
0.86328125
 40
0.8671875
 40
0.869140625
 40
0.87109375
 40
0.8720703125
 40
0.873046875
 40
0.8740234375
 40
0.8745117188
 40
0.8747558594
 40
0.875
 40
0.8752441406
 40
0.8754882812
 40
0.8759765625
 40
0.876953125
 40
0.8779296875
 40
0.87890625
 40
0.880859375
 40
0.8828125
 40
0.88671875
 40
0.890625
 40
0.89453125
 40
0.8984375
 40
0.90625
 40
0.9140625
 40
0.91796875
 40
0.921875
 40
0.92578125
 40
0.9296875
 40
0.931640625
 40
0.93359375
 40
0.9345703125
 40
0.935546875
 40
0.9365234375
 40
0.9370117188
 40
0.9372558594
 40
0.9375
 40
0.9377441406
 40
0.9379882812
 40
0.9384765625
 40
0.939453125
 40
0.9404296875
 40
0.94140625
 40
0.943359375
 40
0.9453125
 40
0.94921875
 40
0.953125
 40
0.95703125
 40
0.9609375
 40
0.96875
 40
0.9765625
 40
0.984375
 40
1.0
 40
1.0
 40
1.0
 40
1.0
 10
10.4128444807
 20
9.2969520915
 30
0.0
 10
10.4097112938
 20
9.2968621671
 30
0.0
 10
10.4050115134
 20
9.2967272804
 30
0.0
 10
10.3987451396
 20
9.2965474316
 30
0.0
 10
10.3940453592
 20
9.296412545
 30
0.0
 10
10.3901288755
 20
9.2963001396
 30
0.0
 10
10.3869956887
 20
9.2962102149
 30
0.0
 10
10.3846457983
 20
9.2961427726
 30
0.0
 10
10.3822959088
 20
9.2960753255
 30
0.0
 10
10.3803376647
 20
9.2960191344
 30
0.0
 10
10.3787710759
 20
9.2959741485
 30
0.0
 10
10.3777919432
 20
9.2959461074
 30
0.0
 10
10.3770086707
 20
9.2959235025
 30
0.0
 10
10.3764211243
 20
9.2959070198
 30
0.0
 10
10.3759317949
 20
9.2958917862
 30
0.0
 10
10.3755886901
 20
9.2958840624
 30
0.0
 10
10.3753935268
 20
9.2958750587
 30
0.0
 10
10.3752446287
 20
9.2958812362
 30
0.0
 10
10.3751053847
 20
9.2958379877
 30
0.0
 10
10.3749163585
 20
9.2957975635
 30
0.0
 10
10.3745871317
 20
9.2957187884
 30
0.0
 10
10.3741159874
 20
9.2956104522
 30
0.0
 10
10.3735509653
 20
9.2954786511
 30
0.0
 10
10.37279748
 20
9.2953035442
 30
0.0
 10
10.3718556652
 20
9.2950844456
 30
0.0
 10
10.3703487382
 20
9.2947340081
 30
0.0
 10
10.3684650875
 20
9.2942959199
 30
0.0
 10
10.3662047031
 20
9.2937702317
 30
0.0
 10
10.3639443197
 20
9.2932445388
 30
0.0
 10
10.3609304749
 20
9.2925436166
 30
0.0
 10
10.3571631689
 20
9.2916674632
 30
0.0
 10
10.3533958628
 20
9.2907913102
 30
0.0
 10
10.3503820182
 20
9.2900903873
 30
0.0
 10
10.3481216342
 20
9.2895646964
 30
0.0
 10
10.345861252
 20
9.2890390009
 30
0.0
 10
10.3439775946
 20
9.2886009354
 30
0.0
 10
10.3424706812
 20
9.2882504515
 30
0.0
 10
10.3415288316
 20
9.2880314708
 30
0.0
 10
10.3407754179
 20
9.2878561219
 30
0.0
 10
10.3402101771
 20
9.2877250604
 30
0.0
 10
10.3397397171
 20
9.2876144101
 30
0.0
 10
10.3394092686
 20
9.2875397661
 30
0.0
 10
10.3392221999
 20
9.2874927228
 30
0.0
 10
10.3390769434
 20
9.2874698057
 30
0.0
 10
10.3389506272
 20
9.2873996223
 30
0.0
 10
10.338775599
 20
9.2873225314
 30
0.0
 10
10.3384723778
 20
9.2871799408
 30
0.0
 10
10.3380375954
 20
9.2869802559
 30
0.0
 10
10.3375165454
 20
9.2867389151
 30
0.0
 10
10.3368215714
 20
9.2864177278
 30
0.0
 10
10.3359529363
 20
9.286016038
 30
0.0
 10
10.3345630741
 20
9.2853734493
 30
0.0
 10
10.3328257621
 20
9.2845701739
 30
0.0
 10
10.330740981
 20
9.2836062605
 30
0.0
 10
10.3286562016
 20
9.2826423424
 30
0.0
 10
10.3258764952
 20
9.28135712
 30
0.0
 10
10.3224018625
 20
9.2797505913
 30
0.0
 10
10.3189272295
 20
9.2781440631
 30
0.0
 10
10.3161475234
 20
9.27685884
 30
0.0
 10
10.3140627432
 20
9.2758949239
 30
0.0
 10
10.3119779654
 20
9.2749310033
 30
0.0
 10
10.3102406432
 20
9.27412775
 30
0.0
 10
10.3088508017
 20
9.2734851164
 30
0.0
 10
10.3079821139
 20
9.2730835408
 30
0.0
 10
10.3072872481
 20
9.2727621192
 30
0.0
 10
10.3067658675
 20
9.272521494
 30
0.0
 10
10.3063321194
 20
9.27231957
 30
0.0
 10
10.3060270518
 20
9.2721809767
 30
0.0
 10
10.3058549821
 20
9.2720974811
 30
0.0
 10
10.3057195783
 20
9.2720469711
 30
0.0
 10
10.3056084533
 20
9.2719501636
 30
0.0
 10
10.3054518179
 20
9.271837236
 30
0.0
 10
10.3051816517
 20
9.2716320886
 30
0.0
 10
10.3047936372
 20
9.2713429546
 30
0.0
 10
10.3043289027
 20
9.27099431
 30
0.0
 10
10.3037089482
 20
9.2705300386
 30
0.0
 10
10.3029341108
 20
9.269949498
 30
0.0
 10
10.3016943119
 20
9.2690207456
 30
0.0
 10
10.3001445835
 20
9.2678597665
 30
0.0
 10
10.2982849008
 20
9.2664666081
 30
0.0
 10
10.2964252203
 20
9.2650734453
 30
0.0
 10
10.2939456456
 20
9.2632158964
 30
0.0
 10
10.2908461776
 20
9.2608939598
 30
0.0
 10
10.2877467092
 20
9.2585720235
 30
0.0
 10
10.2852671349
 20
9.256714474
 30
0.0
 10
10.2834074532
 20
9.2553213129
 30
0.0
 10
10.2815477753
 20
9.2539281483
 30
0.0
 10
10.279998032
 20
9.2527671884
 30
0.0
 10
10.2787582634
 20
9.2518383969
 30
0.0
 10
10.2779833489
 20
9.2512579558
 30
0.0
 10
10.2773635527
 20
9.2507934801
 30
0.0
 10
10.2768983347
 20
9.2504454598
 30
0.0
 10
10.2765118329
 20
9.2501543725
 30
0.0
 10
10.276238966
 20
9.249952712
 30
0.0
 10
10.2760866579
 20
9.2498341975
 30
0.0
 10
10.2759622411
 20
9.2497545512
 30
0.0
 10
10.2758767591
 20
9.2496395866
 30
0.0
 10
10.2757492022
 20
9.24949862
 30
0.0
 10
10.2755323053
 20
9.2492461885
 30
0.0
 10
10.2752191444
 20
9.248888573
 30
0.0
 10
10.2748447673
 20
9.2484581499
 30
0.0
 10
10.2743451032
 20
9.2478847011
 30
0.0
 10
10.2737206925
 20
9.2471677365
 30
0.0
 10
10.2727215407
 20
9.246020679
 30
0.0
 10
10.2714726334
 20
9.2445868276
 30
0.0
 10
10.2699739308
 20
9.2428662186
 30
0.0
 10
10.2684752319
 20
9.2411456062
 30
0.0
 10
10.2664769653
 20
9.2388514575
 30
0.0
 10
10.2639791327
 20
9.2359837712
 30
0.0
 10
10.2614812997
 20
9.2331160851
 30
0.0
 10
10.2594830337
 20
9.230821936
 30
0.0
 10
10.2579843332
 20
9.2291013249
 30
0.0
 10
10.2564856366
 20
9.2273807109
 30
0.0
 10
10.2552367104
 20
9.225946875
 30
0.0
 10
10.2542375971
 20
9.2247997859
 30
0.0
 10
10.2536130885
 20
9.2240829016
 30
0.0
 10
10.2531136254
 20
9.2235092879
 30
0.0
 10
10.2527386345
 20
9.2230793684
 30
0.0
 10
10.2524273939
 20
9.2227201774
 30
0.0
 10
10.2522070689
 20
9.2224705585
 30
0.0
 10
10.2520850046
 20
9.2223250854
 30
0.0
 10
10.2519826513
 20
9.2222239633
 30
0.0
 10
10.2519216004
 20
9.2220923272
 30
0.0
 10
10.2518257925
 20
9.2219274561
 30
0.0
 10
10.2516648409
 20
9.2216339726
 30
0.0
 10
10.2514314009
 20
9.2212173031
 30
0.0
 10
10.251152775
 20
9.22071619
 30
0.0
 10
10.250780749
 20
9.2200484268
 30
0.0
 10
10.2503158963
 20
9.21921359
 30
0.0
 10
10.2495720315
 20
9.2178779254
 30
0.0
 10
10.2486422349
 20
9.2162083191
 30
0.0
 10
10.2475264643
 20
9.2142048026
 30
0.0
 10
10.2464106976
 20
9.2122012831
 30
0.0
 10
10.2449230073
 20
9.2095299248
 30
0.0
 10
10.2430633949
 20
9.2061907265
 30
0.0
 10
10.2412037822
 20
9.2028515284
 30
0.0
 10
10.2397160925
 20
9.2001801698
 30
0.0
 10
10.2386003241
 20
9.1981766513
 30
0.0
 10
10.23748456
 20
9.1961731308
 30
0.0
 10
10.236554743
 20
9.1945035369
 30
0.0
 10
10.2358109199
 20
9.193167847
 30
0.0
 10
10.2353459608
 20
9.1923330746
 30
0.0
 10
10.2349741532
 20
9.1916651792
 30
0.0
 10
10.2346948603
 20
9.1911644699
 30
0.0
 10
10.234463507
 20
9.1907465369
 30
0.0
 10
10.2342988304
 20
9.1904553091
 30
0.0
 10
10.2342089909
 20
9.1902868238
 30
0.0
 10
10.234129607
 20
9.1901662892
 30
0.0
 10
10.2340961094
 20
9.1900234718
 30
0.0
 10
10.2340354403
 20
9.1898408211
 30
0.0
 10
10.2339367267
 20
9.189517561
 30
0.0
 10
10.2337918085
 20
9.1890576542
 30
0.0
 10
10.2336195755
 20
9.1885049556
 30
0.0
 10
10.2333893486
 20
9.1877683071
 30
0.0
 10
10.2331017645
 20
9.1868473997
 30
0.0
 10
10.2326415185
 20
9.1853740019
 30
0.0
 10
10.2320662492
 20
9.1835322361
 30
0.0
 10
10.2313759096
 20
9.1813221251
 30
0.0
 10
10.2306855744
 20
9.179112012
 30
0.0
 10
10.229765126
 20
9.1761651953
 30
0.0
 10
10.228614566
 20
9.1724816741
 30
0.0
 10
10.2274640056
 20
9.1687981531
 30
0.0
 10
10.2265435578
 20
9.1658513361
 30
0.0
 10
10.2258532208
 20
9.1636412237
 30
0.0
 10
10.2251628883
 20
9.1614311097
 30
0.0
 10
10.2245875968
 20
9.1595893534
 30
0.0
 10
10.2241273961
 20
9.1581159364
 30
0.0
 10
10.2238396966
 20
9.1571950778
 30
0.0
 10
10.2236097066
 20
9.1564583291
 30
0.0
 10
10.2234367499
 20
9.1559059368
 30
0.0
 10
10.2232940958
 20
9.1554450717
 30
0.0
 10
10.2231913405
 20
9.1551235222
 30
0.0
 10
10.2231371472
 20
9.1549381306
 30
0.0
 10
10.2230837581
 20
9.1548037324
 30
0.0
 10
10.2230790834
 20
9.1546515767
 30
0.0
 10
10.2230558584
 20
9.1544548965
 30
0.0
 10
10.2230231317
 20
9.1541078202
 30
0.0
 10
10.22297224
 20
9.1536135057
 30
0.0
 10
10.2229129417
 20
9.1530196825
 30
0.0
 10
10.2228332585
 20
9.1522281438
 30
0.0
 10
10.2227338664
 20
9.1512386432
 30
0.0
 10
10.2225747206
 20
9.1496554853
 30
0.0
 10
10.222375829
 20
9.1476765233
 30
0.0
 10
10.2221371416
 20
9.1453017751
 30
0.0
 10
10.2218984589
 20
9.1429270252
 30
0.0
 10
10.2215802136
 20
9.1397606927
 30
0.0
 10
10.2211824076
 20
9.1358027768
 30
0.0
 10
10.2207846013
 20
9.131844861
 30
0.0
 10
10.2204663567
 20
9.1286785283
 30
0.0
 10
10.220227672
 20
9.1263037788
 30
0.0
 10
10.2199889921
 20
9.1239290294
 30
0.0
 10
10.2197900771
 20
9.1219500712
 30
0.0
 10
10.2196309789
 20
9.1203669054
 30
0.0
 10
10.2195314656
 20
9.1193774252
 30
0.0
 10
10.2194520311
 20
9.1185858445
 30
0.0
 10
10.2193919732
 20
9.1179921498
 30
0.0
 10
10.2193434583
 20
9.1174974332
 30
0.0
 10
10.2193064886
 20
9.1171510747
 30
0.0
 10
10.2192900618
 20
9.1169532444
 30
0.0
 10
10.2192645054
 20
9.1168046212
 30
0.0
 10
10.2192895446
 20
9.1166569558
 30
0.0
 10
10.2193052818
 20
9.1164597345
 30
0.0
 10
10.2193410447
 20
9.1161147528
 30
0.0
 10
10.2193878357
 20
9.1156218405
 30
0.0
 10
10.2194458249
 20
9.1150303805
 30
0.0
 10
10.2195225011
 20
9.1142417551
 30
0.0
 10
10.2196185665
 20
9.1132559775
 30
0.0
 10
10.2197721481
 20
9.111678731
 30
0.0
 10
10.2199641672
 20
9.1097071736
 30
0.0
 10
10.2201945722
 20
9.1073413045
 30
0.0
 10
10.2204249819
 20
9.1049754354
 30
0.0
 10
10.2207321933
 20
9.1018209433
 30
0.0
 10
10.221116208
 20
9.0978778281
 30
0.0
 10
10.2215002224
 20
9.093934713
 30
0.0
 10
10.2218074344
 20
9.0907802209
 30
0.0
 10
10.2220378422
 20
9.0884143517
 30
0.0
 10
10.2222682546
 20
9.086048483
 30
0.0
 10
10.2224602504
 20
9.084076924
 30
0.0
 10
10.2226138796
 20
9.0824996809
 30
0.0
 10
10.2227098238
 20
9.0815138945
 30
0.0
 10
10.2227867488
 20
9.0807252872
 30
0.0
 10
10.222843978
 20
9.0801337719
 30
0.0
 10
10.2228931467
 20
9.0796410327
 30
0.0
 10
10.222924665
 20
9.0792957421
 30
0.0
 10
10.2229472032
 20
9.0790990157
 30
0.0
 10
10.2229513519
 20
9.0789498299
 30
0.0
 10
10.2230042569
 20
9.0788069169
 30
0.0
 10
10.2230577902
 20
9.0786141782
 30
0.0
 10
10.2231593972
 20
9.0782779049
 30
0.0
 10
10.2233004074
 20
9.0777969815
 30
0.0
 10
10.2234713929
 20
9.0772201016
 30
0.0
 10
10.2236987542
 20
9.0764508487
 30
0.0
 10
10.2239831678
 20
9.0754893098
 30
0.0
 10
10.2244381112
 20
9.0739508323
 30
0.0
 10
10.225006831
 20
9.0720277408
 30
0.0
 10
10.2256892773
 20
9.0697200286
 30
0.0
 10
10.2263717284
 20
9.0674123171
 30
0.0
 10
10.2272816614
 20
9.0643353681
 30
0.0
 10
10.2284190784
 20
9.060489182
 30
0.0
 10
10.2295564949
 20
9.0566429959
 30
0.0
 10
10.2304664286
 20
9.0535660471
 30
0.0
 10
10.2311488777
 20
9.0512583351
 30
0.0
 10
10.2318313313
 20
9.0489506246
 30
0.0
 10
10.2324000288
 20
9.0470275278
 30
0.0
 10
10.2328550176
 20
9.0454890609
 30
0.0
 10
10.2331393157
 20
9.0445274952
 30
0.0
 10
10.2333669141
 20
9.0437582974
 30
0.0
 10
10.2335371751
 20
9.043181249
 30
0.0
 10
10.233680452
 20
9.0427008527
 30
0.0
 10
10.2337780127
 20
9.0423636384
 30
0.0
 10
10.2338380291
 20
9.0421724075
 30
0.0
 10
10.2338710199
 20
9.042024863
 30
0.0
 10
10.2339499633
 20
9.0418930721
 30
0.0
 10
10.2340391924
 20
9.0417118559
 30
0.0
 10
10.2342028115
 20
9.0413972877
 30
0.0
 10
10.2344326486
 20
9.040946566
 30
0.0
 10
10.2347101244
 20
9.040406273
 30
0.0
 10
10.2350795084
 20
9.0396856821
 30
0.0
 10
10.2355414382
 20
9.0387850121
 30
0.0
 10
10.2362804142
 20
9.0373439017
 30
0.0
 10
10.2372041725
 20
9.0355425269
 30
0.0
 10
10.2383126661
 20
9.0333808714
 30
0.0
 10
10.239421164
 20
9.0312192175
 30
0.0
 10
10.2408991598
 20
9.0283370118
 30
0.0
 10
10.242746655
 20
9.0247342548
 30
0.0
 10
10.2445941499
 20
9.0211314976
 30
0.0
 10
10.2460721462
 20
9.0182492921
 30
0.0
 10
10.2471806423
 20
9.0160876375
 30
0.0
 10
10.2482891427
 20
9.0139259848
 30
0.0
 10
10.2492128798
 20
9.0121246013
 30
0.0
 10
10.2499518992
 20
9.0106835087
 30
0.0
 10
10.2504137185
 20
9.0097827936
 30
0.0
 10
10.2507833292
 20
9.0090622952
 30
0.0
 10
10.2510601122
 20
9.0085217196
 30
0.0
 10
10.2512921168
 20
9.0080718819
 30
0.0
 10
10.2514518666
 20
9.0077557356
 30
0.0
 10
10.2515472953
 20
9.0075770479
 30
0.0
 10
10.2516071955
 20
9.0074374901
 30
0.0
 10
10.2517117096
 20
9.007319117
 30
0.0
 10
10.2518354999
 20
9.0071538967
 30
0.0
 10
10.2520593834
 20
9.0068682042
 30
0.0
 10
10.2523754264
 20
9.0064582719
 30
0.0
 10
10.2527563004
 20
9.0059671237
 30
0.0
 10
10.2532635658
 20
9.0053119903
 30
0.0
 10
10.2538978415
 20
9.0044931657
 30
0.0
 10
10.2549125743
 20
9.0031829948
 30
0.0
 10
10.2561810274
 20
9.0015452989
 30
0.0
 10
10.2577031552
 20
8.9995800563
 30
0.0
 10
10.2592252873
 20
8.9976148156
 30
0.0
 10
10.2612547953
 20
8.994994494
 30
0.0
 10
10.2637916808
 20
8.9917190924
 30
0.0
 10
10.2663285659
 20
8.9884436905
 30
0.0
 10
10.2683580744
 20
8.9858233693
 30
0.0
 10
10.2698802049
 20
8.9838581275
 30
0.0
 10
10.2714023386
 20
8.9818928892
 30
0.0
 10
10.2726707736
 20
8.9802551797
 30
0.0
 10
10.2736855433
 20
8.9789450365
 30
0.0
 10
10.2743197249
 20
8.9781261413
 30
0.0
 10
10.2748271836
 20
8.9774711528
 30
0.0
 10
10.2752074669
 20
8.976979562
 30
0.0
 10
10.2755253582
 20
8.9765710145
 30
0.0
 10
10.2757459421
 20
8.97628285
 30
0.0
 10
10.2758750192
 20
8.9761215903
 30
0.0
 10
10.2759632939
 20
8.9759910516
 30
0.0
 10
10.2760841866
 20
8.9758971857
 30
0.0
 10
10.2762339993
 20
8.9757592393
 30
0.0
 10
10.2765014726
 20
8.975523793
 30
0.0
 10
10.2768808059
 20
8.9751843253
 30
0.0
 10
10.2773371922
 20
8.9747782977
 30
0.0
 10
10.2779452928
 20
8.9742364617
 30
0.0
 10
10.2787055604
 20
8.9735593262
 30
0.0
 10
10.2799219094
 20
8.9724758204
 30
0.0
 10
10.2814423728
 20
8.9711214686
 30
0.0
 10
10.2832669172
 20
8.9694962334
 30
0.0
 10
10.2850914647
 20
8.9678710017
 30
0.0
 10
10.2875241937
 20
8.9657040248
 30
0.0
 10
10.2905651053
 20
8.9629953042
 30
0.0
 10
10.2936060166
 20
8.9602865833
 30
0.0
 10
10.2960387459
 20
8.9581196069
 30
0.0
 10
10.2978632923
 20
8.9564943737
 30
0.0
 10
10.2996878412
 20
8.9548691442
 30
0.0
 10
10.3012082905
 20
8.9535147746
 30
0.0
 10
10.3024246683
 20
8.9524313051
 30
0.0
 10
10.3031848624
 20
8.9517540769
 30
0.0
 10
10.303793114
 20
8.9512124314
 30
0.0
 10
10.3042490392
 20
8.950805822
 30
0.0
 10
10.3046298148
 20
8.9504681745
 30
0.0
 10
10.3048947133
 20
8.9502294788
 30
0.0
 10
10.3050486516
 20
8.9500967388
 30
0.0
 10
10.3051568719
 20
8.9499868803
 30
0.0
 10
10.3052927419
 20
8.9499164068
 30
0.0
 10
10.3054642573
 20
8.9498087043
 30
0.0
 10
10.3057689028
 20
8.9496266255
 30
0.0
 10
10.3062017614
 20
8.9493631666
 30
0.0
 10
10.3067221973
 20
8.9490484483
 30
0.0
 10
10.3074157606
 20
8.9486283236
 30
0.0
 10
10.308282835
 20
8.9481033391
 30
0.0
 10
10.3096700869
 20
8.947263268
 30
0.0
 10
10.3114041747
 20
8.9462132121
 30
0.0
 10
10.3134850703
 20
8.9449531308
 30
0.0
 10
10.3155659685
 20
8.9436930534
 30
0.0
 10
10.3183404984
 20
8.9420129488
 30
0.0
 10
10.3218086613
 20
8.9399128185
 30
0.0
 10
10.3252768239
 20
8.9378126879
 30
0.0
 10
10.3280513542
 20
8.9361325838
 30
0.0
 10
10.3301322514
 20
8.9348725047
 30
0.0
 10
10.3322131505
 20
8.9336124298
 30
0.0
 10
10.3339472274
 20
8.9325623541
 30
0.0
 10
10.3353345016
 20
8.9317223233
 30
0.0
 10
10.336201519
 20
8.9311972363
 30
0.0
 10
10.3368951994
 20
8.9307773218
 30
0.0
 10
10.3374152777
 20
8.9304619614
 30
0.0
 10
10.3378492551
 20
8.9302005115
 30
0.0
 10
10.3381519033
 20
8.9300148463
 30
0.0
 10
10.338326619
 20
8.9299128902
 30
0.0
 10
10.3384526588
 20
8.9298247654
 30
0.0
 10
10.3385977993
 20
8.9297812023
 30
0.0
 10
10.3387846574
 20
8.9297075745
 30
0.0
 10
10.3391147633
 20
8.929585968
 30
0.0
 10
10.3395847203
 20
8.9294084582
 30
0.0
 10
10.3401493633
 20
8.9291970671
 30
0.0
 10
10.340901978
 20
8.9289146461
 30
0.0
 10
10.3418428295
 20
8.9285618138
 30
0.0
 10
10.3433481454
 20
8.9279971737
 30
0.0
 10
10.3452298063
 20
8.9272914108
 30
0.0
 10
10.3474877925
 20
8.9264444794
 30
0.0
 10
10.3497457805
 20
8.9255975522
 30
0.0
 10
10.3527564306
 20
8.9244683144
 30
0.0
 10
10.3565197434
 20
8.9230567679
 30
0.0
 10
10.360283056
 20
8.9216452209
 30
0.0
 10
10.3632937063
 20
8.9205159838
 30
0.0
 10
10.3655516936
 20
8.9196690547
 30
0.0
 10
10.3678096824
 20
8.9188221303
 30
0.0
 10
10.3696913353
 20
8.9181163456
 30
0.0
 10
10.3711966673
 20
8.9175517498
 30
0.0
 10
10.372137478
 20
8.9171988049
 30
0.0
 10
10.3728901765
 20
8.916916615
 30
0.0
 10
10.3734545634
 20
8.916704518
 30
0.0
 10
10.3739253217
 20
8.9165292166
 30
0.0
 10
10.3742539972
 20
8.9164036676
 30
0.0
 10
10.3744431471
 20
8.9163363567
 30
0.0
 10
10.3745812479
 20
8.9162733903
 30
0.0
 10
10.3747337278
 20
8.9162581412
 30
0.0
 10
10.3749320188
 20
8.9162211646
 30
0.0
 10
10.3752813648
 20
8.9161642106
 30
0.0
 10
10.3757792089
 20
8.9160787934
 30
0.0
 10
10.3763771447
 20
8.9159780281
 30
0.0
 10
10.3771742098
 20
8.9158430682
 30
0.0
 10
10.3781706038
 20
8.915674576
 30
0.0
 10
10.3797647991
 20
8.9154048723
 30
0.0
 10
10.3817575552
 20
8.9150677826
 30
0.0
 10
10.3841488575
 20
8.9146632578
 30
0.0
 10
10.3865401611
 20
8.9142587377
 30
0.0
 10
10.3897285654
 20
8.9137193758
 30
0.0
 10
10.393714071
 20
8.9130451741
 30
0.0
 10
10.3984966777
 20
8.9122361317
 30
0.0
 10
10.4048734865
 20
8.9111574087
 30
0.0
 10
10.4096560932
 20
8.9103483664
 30
0.0
 10
10.4128444976
 20
8.9098090048
 30
0.0
  0
ENDSEC
  0
SECTION
  2
OBJECTS
  0
DICTIONARY
  5
C
100
AcDbDictionary
280
0
281
1
  3
ACAD_GROUP
350
D
  3
ACAD_MLINESTYLE
350
17
  3
ACAD_LAYOUT
350
1A
  3
ACAD_PLOTSETTINGS
350
19
  3
ACAD_PLOTSTYLENAME
350
E
  3
ACAD_IMAGE_DICT
350
       394
  3
ACAD_IMAGE_VARS
350
       395
  3
ACAD_TABLESTYLE
350
       396
  0
IMAGEDEF_REACTOR
  5
393
100
AcDbRasterImageDefReactor
 90
2
330
292
  0
DICTIONARY
  5
D
102
{ACAD_REACTORS
330
C
102
}
100
AcDbDictionary
280
0
281
1
  0
ACDBDICTIONARYWDFLT
  5
E
102
{ACAD_REACTORS
330
C
102
}
100
AcDbDictionary
281
1
  3
Normal
350
F
100
AcDbDictionaryWithDefault
340
F
  0
DICTIONARY
  5
394
330
C
100
AcDbDictionary
281
1
  3
E2U_assy_2_img_1
350
       399
  0
RASTERVARIABLES
  5
395
330
C
100
AcDbRasterVariables
 90
0
 70
0
 71
1
 72
5
  0
DICTIONARY
  5
17
102
{ACAD_REACTORS
330
C
102
}
100
AcDbDictionary
280
0
281
1
  3
Standard
350
18
  0
DICTIONARY
  5
396
330
C
100
AcDbDictionary
281
1
  3
Standard
350
       39A
  3
Standard1
350
       39B
  0
DICTIONARY
  5
19
102
{ACAD_REACTORS
330
C
102
}
100
AcDbDictionary
281
1
  0
DICTIONARY
  5
1A
102
{ACAD_REACTORS
330
C
102
}
100
AcDbDictionary
281
1
  3
Model
350
397
  3
Layout1
350
398
  0
ACDBPLACEHOLDER
  5
F
102
{ACAD_REACTORS
330
E
102
}
  0
MLINESTYLE
  5
18
102
{ACAD_REACTORS
330
17
102
}
100
AcDbMlineStyle
  2
STANDARD
 70
0
  3

 62
256
 51
90.0
 52
90.0
 71
2
 49
0.5
 62
256
  6
BYLAYER
 49
-0.5
 62
256
  6
BYLAYER
  0
LAYOUT
  5
397
102
{ACAD_REACTORS
330
1A
102
}
100
AcDbPlotSettings
  1

  2
none_device
  4
ANSI_C_(22.00_x_17.00_Inches)
  6

 40
0.0
 41
0.0
 42
0.0
 43
0.0
 44
558.8
 45
431.8
 46
0.0
 47
0.0
 48
0.0
 49
0.0
140
0.0
141
0.0
142
1.0
143
1.0
 70
1024
 72
0
 73
0
 74
0
  7

 75
0
147
1.0
148
0.0
149
0.0
100
AcDbLayout
  1
Model
 70
0
 71
0
 10
0.0
 20
0.0
 11
22.0
 21
17.0
 12
0.0
 22
0.0
 32
0.0
 14
0.0
 24
0.0
 34
0.0
 15
0.0
 25
0.0
 35
0.0
146
0.0
 13
0.0
 23
0.0
 33
0.0
 16
1.0
 26
0.0
 36
0.0
 17
0.0
 27
1.0
 37
0.0
 76
0
330
20C
345
0
346
0
  0
LAYOUT
  5
398
102
{ACAD_REACTORS
330
1A
102
}
100
AcDbPlotSettings
  1

  2
none_device
  4
ANSI_C_(22.00_x_17.00_Inches)
  6

 40
0.0
 41
0.0
 42
0.0
 43
0.0
 44
558.8
 45
431.8
 46
0.0
 47
0.0
 48
0.0
 49
0.0
140
0.0
141
0.0
142
1.0
143
1.0
 70
0
 72
0
 73
0
 74
0
  7

 75
0
147
1.0
148
0.0
149
0.0
100
AcDbLayout
  1
Layout1
 70
0
 71
1
 10
0.0
 20
0.0
 11
22.0
 21
17.0
 12
0.0
 22
0.0
 32
0.0
 14
0.0
 24
0.0
 34
0.0
 15
0.0
 25
0.0
 35
0.0
146
0.0
 13
0.0
 23
0.0
 33
0.0
 16
1.0
 26
0.0
 36
0.0
 17
0.0
 27
1.0
 37
0.0
 76
0
330
20D
345
0
346
0
  0
IMAGEDEF
  5
399
102
{ACAD_REACTORS
330
394
330
393
102
}
100
AcDbRasterImageDef
 90
0
  1
E2U_assy_2_img_1.png
 10
369.0
 20
92.0
 11
0.0066666667
 21
0.0066666667
280
1
281
0
  0
TABLESTYLE
  5
39A
102
{ACAD_REACTORS
330
396
330
295
330
296
102
}
330
396
100
AcDbTableStyle
  3
Standard
 70
0
 71
0
 40
0.06
 41
0.06
280
1
281
1
  7
Standard
140
0.18
170
1
 62
0
 63
7
283
0
  7
Standard
140
0.18
170
1
 62
0
 63
7
283
0
  7
Standard
140
0.18
170
1
 62
0
 63
7
283
0
  0
TABLESTYLE
  5
39B
102
{ACAD_REACTORS
330
396
330
294
102
}
330
396
100
AcDbTableStyle
  3
Standard1
 70
1
 71
0
 40
0.06
 41
0.06
280
1
281
1
  7
Standard
140
0.18
170
1
 62
0
 63
7
283
0
  7
Standard
140
0.18
170
1
 62
0
 63
7
283
0
  7
Standard
140
0.18
170
1
 62
0
 63
7
283
0
  0
ENDSEC
  0
EOF
