999
DXF file: E2T_assy_2.dxf
999
Pro/ENGINEER 2014200 by Parametric Technology Corporation
  0
SECTION
  2
HEADER
  9
$ACADVER
  1
AC1021
  9
$DWGCODEPAGE
  3
ANSI_1252
  9
$EXTMAX
 10
22.0
 20
17.0
 30
0.0
  9
$EXTMIN
 10
0.0
 20
0.0
 30
0.0
  9
$LIMMIN
 10
0.0
 20
0.0
  9
$LIMMAX
 10
22.0
 20
17.0
  9
$VIEWCTR
 10
11.0
 20
8.5
  9
$VIEWSIZE
 40
17.0
  9
$CLAYER
  8
0
  9
$LTSCALE
 40
1.21
  9
$CELTYPE
  6
BYLAYER
  9
$DIMSCALE
 40
1.0
  9
$DIMASZ
 40
0.1875
  9
$DIMEXO
 40
0.0625
  9
$DIMDLI
 40
0.836
  9
$DIMEXE
 40
0.125
  9
$DIMCEN
 40
0.198
  9
$DIMLFAC
 40
1.0
  9
$DIMBLK
  1
_FILLED
  9
$DIMTXT
 40
0.1
  9
$DIMTOL
 70
0
  9
$DIMLIM
 70
0
  9
$DIMTFAC
 40
1.0
  9
$DIMGAP
 40
0.09
  9
$DIMDSEP
 70
46
  9
$AUNITS
 70
0
  9
$PDMODE
 70
3
  9
$PDSIZE
 40
0.3125
  9
$HANDSEED
  5
388
  9
$TILEMODE
 70
1
  9
$MEASUREMENT
 70
0
  9
$INSUNITS
 70
1
  0
ENDSEC
  0
SECTION
  2
CLASSES
  0
CLASS
  1
ACDBDICTIONARYWDFLT
  2
AcDbDictionaryWithDefault
  3
AutoCAD 2000
 90
0
 91
1
280
0
281
0
  0
CLASS
  1
ACDBPLACEHOLDER
  2
AcDbPlaceHolder
  3
AutoCAD 2000
 90
0
 91
1
280
0
281
0
  0
CLASS
  1
LAYOUT
  2
AcDbLayout
  3
AutoCAD 2000
 90
0
 91
0
280
0
281
0
  0
CLASS
  1
RASTERVARIABLES
  2
AcDbRasterVariables
  3
ISM
 90
0
 91
1
280
0
281
0
  0
CLASS
  1
IMAGEDEF
  2
AcDbRasterImageDef
  3
ISM
 90
0
 91
1
280
0
281
0
  0
CLASS
  1
IMAGEDEF_REACTOR
  2
AcDbRasterImageDefReactor
  3
ISM
 90
0
 91
1
280
0
281
0
  0
CLASS
  1
IMAGE
  2
AcDbRasterImage
  3
ISM
 90
127
 91
1
280
0
281
1
  0
CLASS
  1
TABLESTYLE
  2
AcDbTableStyle
  3
ObjectDBX Classes
 90
2047
 91
1
280
0
281
0
  0
CLASS
  1
ACAD_TABLE
  2
AcDbTable
  3
ObjectDBX Classes
 90
1025
 91
3
280
0
281
1
  0
ENDSEC
  0
SECTION
  2
TABLES
  0
TABLE
  2
VPORT
  5
8
100
AcDbSymbolTable
 70
2
  0
VPORT
  5
1F4
100
AcDbSymbolTableRecord
100
AcDbViewportTableRecord
  2
*ACTIVE
 70
0
 10
0.0
 20
0.0
 11
1.0
 21
1.0
 12
11.0
 22
8.5
 13
0.0
 23
0.0
 14
1.0
 24
1.0
 15
0.0
 25
0.0
 16
0.0
 26
0.0
 36
1.0
 17
0.0
 27
0.0
 37
0.0
 40
17.0
 41
1.2941176471
 42
50.0
 43
0.0
 44
0.0
 50
0.0
 51
0.0
 71
0
 72
100
 73
1
 74
1
 75
0
 76
0
 77
0
 78
0
  0
ENDTAB
  0
TABLE
  2
LTYPE
  5
5
100
AcDbSymbolTable
 70
6
  0
LTYPE
  5
14
100
AcDbSymbolTableRecord
100
AcDbLinetypeTableRecord
  2
BYBLOCK
 70
0
  3

 72
65
 73
0
 40
0.0
  0
LTYPE
  5
15
100
AcDbSymbolTableRecord
100
AcDbLinetypeTableRecord
  2
BYLAYER
 70
0
  3

 72
65
 73
0
 40
0.0
  0
LTYPE
  5
16
100
AcDbSymbolTableRecord
100
AcDbLinetypeTableRecord
  2
CONTINUOUS
 70
64
  3
Solid line
 72
65
 73
0
 40
0.0
  0
LTYPE
  5
1F5
100
AcDbSymbolTableRecord
100
AcDbLinetypeTableRecord
  2
CENTER
 70
64
  3
____ _ ____ _ ____ _ ____ _ ____ _ ____ _ ____
 72
65
 73
4
 40
0.6
 49
0.375
 74
0
 49
-0.075
 74
0
 49
0.075
 74
0
 49
-0.075
 74
0
  0
LTYPE
  5
1F6
100
AcDbSymbolTableRecord
100
AcDbLinetypeTableRecord
  2
HIDDEN
 70
64
  3
- - - - - - - - - - - - - - - - - - - -
 72
65
 73
2
 40
0.2
 49
0.1
 74
0
 49
-0.1
 74
0
  0
LTYPE
  5
1F7
100
AcDbSymbolTableRecord
100
AcDbLinetypeTableRecord
  2
PHANTOM
 70
64
  3
_____ _ _ _____ _ _ _____ _ _ _____
 72
65
 73
6
 40
0.8
 49
0.45
 74
0
 49
-0.05
 74
0
 49
0.1
 74
0
 49
-0.05
 74
0
 49
0.1
 74
0
 49
-0.05
 74
0
  0
LTYPE
  5
1F8
100
AcDbSymbolTableRecord
100
AcDbLinetypeTableRecord
  2
DOT
 70
64
  3
. . . . . . . . . . . . . . . . . . . .
 72
65
 73
2
 40
0.2
 49
0.1
 74
0
 49
-0.1
 74
0
  0
LTYPE
  5
1F9
100
AcDbSymbolTableRecord
100
AcDbLinetypeTableRecord
  2
DASHED
 70
64
  3
- - - - - - - - - - - - - - - - - - - -
 72
65
 73
2
 40
0.2
 49
0.1
 74
0
 49
-0.1
 74
0
  0
ENDTAB
  0
TABLE
  2
LAYER
  5
2
100
AcDbSymbolTable
 70
36
  0
LAYER
  5
10
100
AcDbSymbolTableRecord
100
AcDbLayerTableRecord
  2
0
 70
0
 62
7
  6
CONTINUOUS
370
-3
390
F
  0
LAYER
  5
1FA
100
AcDbSymbolTableRecord
100
AcDbLayerTableRecord
  2
DEFAULT_1
 70
0
 62
7
  6
CENTER
370
-3
390
F
  0
LAYER
  5
1FB
100
AcDbSymbolTableRecord
100
AcDbLayerTableRecord
  2
DEFAULT_2
 70
0
 62
8
  6
HIDDEN
370
-3
390
F
  0
LAYER
  5
1FC
100
AcDbSymbolTableRecord
100
AcDbLayerTableRecord
  2
DEFAULT_3
 70
0
 62
7
  6
PHANTOM
370
-3
390
F
  0
LAYER
  5
1FD
100
AcDbSymbolTableRecord
100
AcDbLayerTableRecord
  2
01___PRT_ALL_DTM_PLN
 70
0
 62
7
  6
CONTINUOUS
370
-3
390
F
  0
LAYER
  5
1FE
100
AcDbSymbolTableRecord
100
AcDbLayerTableRecord
  2
01___PRT_DEF_DTM_PLN
 70
0
 62
7
  6
CONTINUOUS
370
-3
390
F
  0
LAYER
  5
1FF
100
AcDbSymbolTableRecord
100
AcDbLayerTableRecord
  2
02___PRT_ALL_AXES
 70
0
 62
7
  6
CONTINUOUS
370
-3
390
F
  0
LAYER
  5
200
100
AcDbSymbolTableRecord
100
AcDbLayerTableRecord
  2
03___PRT_ALL_CURVES
 70
0
 62
7
  6
CONTINUOUS
370
-3
390
F
  0
LAYER
  5
201
100
AcDbSymbolTableRecord
100
AcDbLayerTableRecord
  2
04___PRT_ALL_DTM_PNT
 70
0
 62
7
  6
CONTINUOUS
370
-3
390
F
  0
LAYER
  5
202
100
AcDbSymbolTableRecord
100
AcDbLayerTableRecord
  2
05___PRT_ALL_DTM_CSYS
 70
0
 62
7
  6
CONTINUOUS
370
-3
390
F
  0
LAYER
  5
203
100
AcDbSymbolTableRecord
100
AcDbLayerTableRecord
  2
05___PRT_DEF_DTM_CSYS
 70
0
 62
7
  6
CONTINUOUS
370
-3
390
F
  0
LAYER
  5
204
100
AcDbSymbolTableRecord
100
AcDbLayerTableRecord
  2
06___PRT_ALL_SURFS
 70
0
 62
7
  6
CONTINUOUS
370
-3
390
F
  0
LAYER
  5
205
100
AcDbSymbolTableRecord
100
AcDbLayerTableRecord
  2
DATUM_PLANES
 70
0
 62
7
  6
CONTINUOUS
370
-3
390
F
  0
LAYER
  5
206
100
AcDbSymbolTableRecord
100
AcDbLayerTableRecord
  2
PORT_AREAS
 70
0
 62
7
  6
CONTINUOUS
370
-3
390
F
  0
LAYER
  5
207
100
AcDbSymbolTableRecord
100
AcDbLayerTableRecord
  2
SUNNBOMCOSMETIC
 70
0
 62
7
  6
CONTINUOUS
370
-3
390
F
  0
LAYER
  5
208
100
AcDbSymbolTableRecord
100
AcDbLayerTableRecord
  2
SUNNBOMSTAMPING
 70
0
 62
7
  6
CONTINUOUS
370
-3
390
F
  0
LAYER
  5
209
100
AcDbSymbolTableRecord
100
AcDbLayerTableRecord
  2
THREADS
 70
0
 62
7
  6
CONTINUOUS
370
-3
390
F
  0
ENDTAB
  0
TABLE
  2
STYLE
  5
3
100
AcDbSymbolTable
 70
1
  0
STYLE
  5
11
100
AcDbSymbolTableRecord
100
AcDbTextStyleTableRecord
  2
STANDARD
 70
0
 40
0.0
 41
0.8
 50
0.0
 71
0
 42
0.2
  3
txt
  4

  0
STYLE
  5
20A
100
AcDbSymbolTableRecord
100
AcDbTextStyleTableRecord
  2
TEXTSTYLE_1
 70
0
 40
0.0
 41
0.8
 50
0.0
 71
0
 42
0.2
  3
gdt
  4

  0
ENDTAB
  0
TABLE
  2
VIEW
  5
6
100
AcDbSymbolTable
 70
0
  0
ENDTAB
  0
TABLE
  2
UCS
  5
7
100
AcDbSymbolTable
 70
0
  0
ENDTAB
  0
TABLE
  2
APPID
  5
9
100
AcDbSymbolTable
 70
1
  0
APPID
  5
20B
100
AcDbSymbolTableRecord
100
AcDbRegAppTableRecord
  2
ACAD
 70
0
  0
ENDTAB
  0
TABLE
  2
BLOCK_RECORD
  5
1
100
AcDbSymbolTable
 70
0
  0
BLOCK_RECORD
  5
20C
100
AcDbSymbolTableRecord
100
AcDbBlockTableRecord
  2
*Model_Space
  0
BLOCK_RECORD
  5
20D
100
AcDbSymbolTableRecord
100
AcDbBlockTableRecord
  2
*Paper_Space
  0
BLOCK_RECORD
  5
20E
100
AcDbSymbolTableRecord
100
AcDbBlockTableRecord
  2
SUN_FIRST_THIRD_ANGLE_BL0
  0
BLOCK_RECORD
  5
20F
100
AcDbSymbolTableRecord
100
AcDbBlockTableRecord
  2
*T1
  0
BLOCK_RECORD
  5
210
100
AcDbSymbolTableRecord
100
AcDbBlockTableRecord
  2
*T2
  0
BLOCK_RECORD
  5
211
100
AcDbSymbolTableRecord
100
AcDbBlockTableRecord
  2
*T3
  0
ENDTAB
  0
TABLE
  2
DIMSTYLE
  5
A
100
AcDbSymbolTable
 70
1
100
AcDbDimStyleTable
 71
0
  0
DIMSTYLE
105
212
100
AcDbSymbolTableRecord
100
AcDbDimStyleTableRecord
  2
STANDARD
 70
0
  3

  4

 40
1.0
 41
0.1875
 42
0.0625
 43
0.38
 44
0.125
 45
0.0
 46
0.0
 47
0.001
 48
0.001
140
0.1
141
0.09
142
0.0
143
25.4
144
1.0
145
0.0
146
1.0
147
0.09
 71
0.0
 72
0.0
 73
1
 74
1
 75
0
 76
0
 77
0
 78
4
170
0
171
2
172
0
173
0
174
0
175
0
176
0
177
0
178
0
270
2
271
3
272
3
273
2
274
2
275
0
280
0
281
0
282
0
283
1
284
4
285
0
286
0
287
3
288
0
340
11
278
46
  0
ENDTAB
  0
ENDSEC
  0
SECTION
  2
BLOCKS
  0
BLOCK
  5
20
100
AcDbEntity
  8
0
100
AcDbBlockBegin
  2
*Model_Space
 70
0
 10
0.0
 20
0.0
 30
0.0
  3
*Model_Space
  1

  0
ENDBLK
  5
21
100
AcDbEntity
  8
0
100
AcDbBlockEnd
  0
BLOCK
  5
1C
100
AcDbEntity
  8
0
100
AcDbBlockBegin
  2
*Paper_Space
 70
0
 10
0.0
 20
0.0
 30
0.0
  3
*Paper_Space
  1

  0
ENDBLK
  5
1D
100
AcDbEntity
  8
0
100
AcDbBlockEnd
  0
BLOCK
  5
213
100
AcDbEntity
  8
0
100
AcDbBlockBegin
 62
2
  6
CONTINUOUS
  2
SUN_FIRST_THIRD_ANGLE_BL0
 70
64
 10
20.4816717061
 20
1.2289683772
  3
SUN_FIRST_THIRD_ANGLE_BL0
  1

  0
TEXT
  5
214
100
AcDbEntity
  8
0
100
AcDbText
 62
2
  6
CONTINUOUS
 10
19.4750896608
 20
1.4136269581
  7
STANDARD
 40
0.08
  1
FIRST ANGLE
 41
0.8
 72
0
100
AcDbText
  0
TEXT
  5
215
100
AcDbEntity
  8
0
100
AcDbText
 62
2
  6
CONTINUOUS
 10
20.7842537513
 20
1.4047600029
  7
STANDARD
 40
0.08
  1
THIRD ANGLE
 41
0.8
 72
0
100
AcDbText
  0
LINE
  5
216
100
AcDbEntity
  8
0
100
AcDbLine
 62
7
  6
CONTINUOUS
 10
19.4767170086
 20
1.1727031207
 11
19.6334271527
 21
1.1717972817
  0
LINE
  5
217
100
AcDbEntity
  8
0
100
AcDbLine
 62
7
  6
CONTINUOUS
 10
19.6596964832
 20
1.1717972817
 11
19.6950230232
 21
1.171593082
  0
LINE
  5
218
100
AcDbEntity
  8
0
100
AcDbLine
 62
7
  6
CONTINUOUS
 10
19.7194818561
 20
1.1708914427
 11
19.8852396156
 21
1.1699333054
  0
LINE
  5
219
100
AcDbEntity
  8
0
100
AcDbLine
 62
7
  6
CONTINUOUS
 10
19.4758111696
 20
1.2723454088
 11
19.88525039
 21
1.3511534004
  0
LINE
  5
21A
100
AcDbEntity
  8
0
100
AcDbLine
 62
7
  6
CONTINUOUS
 10
19.88525039
 20
1.3511534004
 11
19.8831348489
 21
0.9851647912
  0
LINE
  5
21B
100
AcDbEntity
  8
0
100
AcDbLine
 62
7
  6
CONTINUOUS
 10
19.8831348489
 20
0.9851647912
 11
19.4767170086
 21
1.0658141206
  0
LINE
  5
21C
100
AcDbEntity
  8
0
100
AcDbLine
 62
7
  6
CONTINUOUS
 10
19.4767170086
 20
1.0658141206
 11
19.4779056764
 21
1.2714536432
  0
CIRCLE
  5
21D
100
AcDbEntity
  8
0
100
AcDbCircle
 62
7
  6
CONTINUOUS
 10
20.2068232291
 20
1.1717972817
 40
0.175742101
  0
CIRCLE
  5
21E
100
AcDbEntity
  8
0
100
AcDbCircle
 62
7
  6
CONTINUOUS
 10
20.2068232291
 20
1.1717972817
 40
0.1005522074
  0
LINE
  5
21F
100
AcDbEntity
  8
0
100
AcDbLine
 62
7
  6
CONTINUOUS
 10
20.2077290681
 20
1.3756110529
 11
20.2071171714
 21
1.2379342989
  0
LINE
  5
220
100
AcDbEntity
  8
0
100
AcDbLine
 62
7
  6
CONTINUOUS
 10
20.2077290681
 20
1.2016899681
 11
20.2074674401
 21
1.1428236749
  0
LINE
  5
221
100
AcDbEntity
  8
0
100
AcDbLine
 62
7
  6
CONTINUOUS
 10
20.208634907
 20
1.101141841
 11
20.2080230104
 21
0.963465087
  0
LINE
  5
222
100
AcDbEntity
  8
0
100
AcDbLine
 62
7
  6
CONTINUOUS
 10
20.0066328138
 20
1.1745147986
 11
20.1443095678
 21
1.1739029019
  0
LINE
  5
223
100
AcDbEntity
  8
0
100
AcDbLine
 62
7
  6
CONTINUOUS
 10
20.1832714155
 20
1.1727031207
 11
20.238153505
 21
1.172335442
  0
LINE
  5
224
100
AcDbEntity
  8
0
100
AcDbLine
 62
7
  6
CONTINUOUS
 10
20.2756669918
 20
1.1717972817
 11
20.407916871
 21
1.1712095044
  0
CIRCLE
  5
225
100
AcDbEntity
  8
0
100
AcDbCircle
 62
7
  6
CONTINUOUS
 10
20.7509457401
 20
1.1693297793
 40
0.1722024983
  0
CIRCLE
  5
226
100
AcDbEntity
  8
0
100
AcDbCircle
 62
7
  6
CONTINUOUS
 10
20.7509457401
 20
1.1693297793
 40
0.0985164967
  0
LINE
  5
227
100
AcDbEntity
  8
0
100
AcDbLine
 62
7
  6
CONTINUOUS
 10
20.7169767782
 20
1.170462078
 11
20.7825395137
 21
1.1682766535
  0
LINE
  5
228
100
AcDbEntity
  8
0
100
AcDbLine
 62
7
  6
CONTINUOUS
 10
20.8177513651
 20
1.1693297793
 11
20.947965719
 21
1.1693297793
  0
LINE
  5
229
100
AcDbEntity
  8
0
100
AcDbLine
 62
7
  6
CONTINUOUS
 10
20.6875370113
 20
1.170462078
 11
20.5573226574
 21
1.170462078
  0
LINE
  5
22A
100
AcDbEntity
  8
0
100
AcDbLine
 62
7
  6
CONTINUOUS
 10
20.7486811426
 20
1.1987695462
 11
20.7486811426
 21
1.1432869085
  0
LINE
  5
22B
100
AcDbEntity
  8
0
100
AcDbLine
 62
7
  6
CONTINUOUS
 10
20.7498134414
 20
1.1059210505
 11
20.7498134414
 21
0.9757066966
  0
LINE
  5
22C
100
AcDbEntity
  8
0
100
AcDbLine
 62
7
  6
CONTINUOUS
 10
20.7486811426
 20
1.2338708068
 11
20.7486811426
 21
1.3640851607
  0
LINE
  5
22D
100
AcDbEntity
  8
0
100
AcDbLine
 62
7
  6
CONTINUOUS
 10
21.0702539817
 20
1.2701043662
 11
21.4790138229
 21
1.3448360823
  0
LINE
  5
22E
100
AcDbEntity
  8
0
100
AcDbLine
 62
7
  6
CONTINUOUS
 10
21.4790138229
 20
1.3448360823
 11
21.4790138229
 21
0.9779712941
  0
LINE
  5
22F
100
AcDbEntity
  8
0
100
AcDbLine
 62
7
  6
CONTINUOUS
 10
21.4790138229
 20
0.9779712941
 11
21.069121683
 21
1.0617614
  0
LINE
  5
230
100
AcDbEntity
  8
0
100
AcDbLine
 62
7
  6
CONTINUOUS
 10
21.0702539817
 20
1.2701043662
 11
21.069121683
 21
1.0617614
  0
LINE
  5
231
100
AcDbEntity
  8
0
100
AcDbLine
 62
7
  6
CONTINUOUS
 10
21.4790138229
 20
1.1693297793
 11
21.3159628059
 21
1.1693297793
  0
LINE
  5
232
100
AcDbEntity
  8
0
100
AcDbLine
 62
7
  6
CONTINUOUS
 10
21.2876553377
 20
1.1693297793
 11
21.2502894796
 21
1.1693297793
  0
LINE
  5
233
100
AcDbEntity
  8
0
100
AcDbLine
 62
7
  6
CONTINUOUS
 10
21.2208497126
 20
1.1659328831
 11
21.0713862804
 21
1.1659328831
  0
LINE
  5
234
100
AcDbEntity
  8
0
100
AcDbLine
 62
7
  6
CONTINUOUS
 10
20.4796138713
 20
1.5284908897
 11
20.4766766948
 21
0.9294458646
  0
ENDBLK
  5
235
100
AcDbEntity
  8
0
  6
BYBLOCK
 62
0
100
AcDbBlockEnd
  0
BLOCK
  5
236
100
AcDbEntity
  8
0
100
AcDbBlockBegin
  2
*T1
 70
1
 10
0.0
 20
0.0
  3
*T1
  1

  0
LINE
  5
237
100
AcDbEntity
  8
0
100
AcDbLine
 62
2
  6
CONTINUOUS
 10
9.275
 20
0.0
 11
-0.0
 21
0.0
  0
LINE
  5
238
100
AcDbEntity
  8
0
100
AcDbLine
 62
2
  6
CONTINUOUS
 10
9.275
 20
0.0
 11
9.275
 21
1.25
  0
LINE
  5
239
100
AcDbEntity
  8
0
100
AcDbLine
 62
2
  6
CONTINUOUS
 10
9.275
 20
0.625
 11
-0.0
 21
0.625
  0
LINE
  5
23A
100
AcDbEntity
  8
0
100
AcDbLine
 62
2
  6
CONTINUOUS
 10
9.275
 20
1.25
 11
-0.0
 21
1.25
  0
LINE
  5
23B
100
AcDbEntity
  8
0
100
AcDbLine
 62
2
  6
CONTINUOUS
 10
6.8
 20
0.0
 11
6.8
 21
1.25
  0
LINE
  5
23C
100
AcDbEntity
  8
0
100
AcDbLine
 62
2
  6
CONTINUOUS
 10
6.4
 20
0.0
 11
6.4
 21
0.625
  0
LINE
  5
23D
100
AcDbEntity
  8
0
100
AcDbLine
 62
2
  6
CONTINUOUS
 10
5.9
 20
0.0
 11
5.9
 21
0.625
  0
LINE
  5
23E
100
AcDbEntity
  8
0
100
AcDbLine
 62
2
  6
CONTINUOUS
 10
5.2
 20
0.0
 11
5.2
 21
0.625
  0
LINE
  5
23F
100
AcDbEntity
  8
0
100
AcDbLine
 62
2
  6
CONTINUOUS
 10
4.1
 20
0.0
 11
4.1
 21
1.25
  0
LINE
  5
240
100
AcDbEntity
  8
0
100
AcDbLine
 62
2
  6
CONTINUOUS
 10
-0.0
 20
0.0
 11
-0.0
 21
1.25
  0
MTEXT
  5
241
100
AcDbEntity
  8
0
100
AcDbMText
 62
2
  6
CONTINUOUS
  7
STANDARD
 71
2
 72
1
 10
6.6
 20
0.325
 30
0.0
 11
1.0
 21
0.0
 31
0.0
 44
0.9
  1
2
 40
0.125
 41
0.2
  0
MTEXT
  5
242
100
AcDbEntity
  8
0
100
AcDbMText
 62
2
  6
CONTINUOUS
  7
STANDARD
 71
2
 72
1
 10
6.15
 20
0.325
 30
0.0
 11
1.0
 21
0.0
 31
0.0
 44
0.9
  1
C
 40
0.125
 41
0.2
  0
MTEXT
  5
243
100
AcDbEntity
  8
0
100
AcDbMText
 62
2
  6
CONTINUOUS
  7
STANDARD
 71
2
 72
1
 10
5.55
 20
0.325
 30
0.0
 11
1.0
 21
0.0
 31
0.0
 44
0.9
  1
1.000
 40
0.125
 41
1.0
  0
MTEXT
  5
244
100
AcDbEntity
  8
0
100
AcDbMText
 62
2
  6
CONTINUOUS
  7
STANDARD
 71
2
 72
1
 10
4.65
 20
0.325
 30
0.0
 11
1.0
 21
0.0
 31
0.0
 44
0.9
  1
Sep-12-23
 40
0.125
 41
1.8
  0
MTEXT
  5
245
100
AcDbEntity
  8
0
100
AcDbMText
 62
2
  6
CONTINUOUS
  7
STANDARD
 71
2
 72
1
 10
2.05
 20
0.4625
 30
0.0
 11
1.0
 21
0.0
 31
0.0
 44
0.9
  1
T-11A Line mount\P(See Technical Data for Body Features)
 40
0.125
 41
7.6
  0
MTEXT
  5
246
100
AcDbEntity
  8
0
100
AcDbMText
 62
2
  6
CONTINUOUS
  7
STANDARD
 71
1
 72
1
 10
6.45
 20
0.5625
 30
0.0
 11
1.0
 21
0.0
 31
0.0
 44
0.9
  1
SHEET
 40
0.06
 41
0.48
  0
MTEXT
  5
247
100
AcDbEntity
  8
0
100
AcDbMText
 62
2
  6
CONTINUOUS
  7
STANDARD
 71
1
 72
1
 10
5.95
 20
0.5625
 30
0.0
 11
1.0
 21
0.0
 31
0.0
 44
0.9
  1
DWG SIZE
 40
0.06
 41
0.768
  0
MTEXT
  5
248
100
AcDbEntity
  8
0
100
AcDbMText
 62
2
  6
CONTINUOUS
  7
STANDARD
 71
1
 72
1
 10
5.25
 20
0.5625
 30
0.0
 11
1.0
 21
0.0
 31
0.0
 44
0.9
  1
SCALE
 40
0.06
 41
0.48
  0
MTEXT
  5
249
100
AcDbEntity
  8
0
100
AcDbMText
 62
2
  6
CONTINUOUS
  7
STANDARD
 71
1
 72
1
 10
4.15
 20
0.5625
 30
0.0
 11
1.0
 21
0.0
 31
0.0
 44
0.9
  1
DATE
 40
0.06
 41
0.384
  0
MTEXT
  5
24A
100
AcDbEntity
  8
0
100
AcDbMText
 62
2
  6
CONTINUOUS
  7
STANDARD
 71
1
 72
1
 10
0.05
 20
0.5625
 30
0.0
 11
1.0
 21
0.0
 31
0.0
 44
0.9
  1
DESCRIPTION
 40
0.06
 41
1.056
  0
MTEXT
  5
24B
100
AcDbEntity
  8
0
100
AcDbMText
 62
2
  6
CONTINUOUS
  7
STANDARD
 71
2
 72
1
 10
5.45
 20
1.0375
 30
0.0
 11
1.0
 21
0.0
 31
0.0
 44
0.9
  1
ALL DIMENSIONS IN INCH\PVIEWS ARE THIRD ANGLE
 40
0.12
 41
4.224
  0
MTEXT
  5
24C
100
AcDbEntity
  8
0
100
AcDbMText
 62
2
  6
CONTINUOUS
  7
STANDARD
 71
2
 72
1
 10
2.05
 20
0.95
 30
0.0
 11
1.0
 21
0.0
 31
0.0
 44
0.9
  1
E2T
 40
0.125
 41
0.6
  0
MTEXT
  5
24D
100
AcDbEntity
  8
0
100
AcDbMText
 62
2
  6
CONTINUOUS
  7
STANDARD
 71
1
 72
1
 10
0.05
 20
1.1875
 30
0.0
 11
1.0
 21
0.0
 31
0.0
 44
0.9
  1
MODEL
 40
0.06
 41
0.48
  0
ENDBLK
  5
24E
100
AcDbEntity
  8
0
  6
BYBLOCK
 62
0
100
AcDbBlockEnd
  0
BLOCK
  5
24F
100
AcDbEntity
  8
0
100
AcDbBlockBegin
  2
*T2
 70
1
 10
0.0
 20
0.0
  3
*T2
  1

  0
LINE
  5
250
100
AcDbEntity
  8
0
100
AcDbLine
 62
2
  6
CONTINUOUS
 10
0.0
 20
0.0
 11
9.055
 21
0.0
  0
LINE
  5
251
100
AcDbEntity
  8
0
100
AcDbLine
 62
2
  6
CONTINUOUS
 10
0.0
 20
0.0
 11
0.0
 21
-2.844
  0
LINE
  5
252
100
AcDbEntity
  8
0
100
AcDbLine
 62
2
  6
CONTINUOUS
 10
0.0
 20
-0.344
 11
9.055
 21
-0.344
  0
LINE
  5
253
100
AcDbEntity
  8
0
100
AcDbLine
 62
2
  6
CONTINUOUS
 10
0.0
 20
-0.594
 11
9.055
 21
-0.594
  0
LINE
  5
254
100
AcDbEntity
  8
0
100
AcDbLine
 62
2
  6
CONTINUOUS
 10
0.0
 20
-0.844
 11
9.055
 21
-0.844
  0
LINE
  5
255
100
AcDbEntity
  8
0
100
AcDbLine
 62
2
  6
CONTINUOUS
 10
0.0
 20
-1.094
 11
9.055
 21
-1.094
  0
LINE
  5
256
100
AcDbEntity
  8
0
100
AcDbLine
 62
2
  6
CONTINUOUS
 10
0.0
 20
-1.344
 11
9.055
 21
-1.344
  0
LINE
  5
257
100
AcDbEntity
  8
0
100
AcDbLine
 62
2
  6
CONTINUOUS
 10
0.0
 20
-1.594
 11
9.055
 21
-1.594
  0
LINE
  5
258
100
AcDbEntity
  8
0
100
AcDbLine
 62
2
  6
CONTINUOUS
 10
0.0
 20
-1.844
 11
9.055
 21
-1.844
  0
LINE
  5
259
100
AcDbEntity
  8
0
100
AcDbLine
 62
2
  6
CONTINUOUS
 10
0.0
 20
-2.094
 11
9.055
 21
-2.094
  0
LINE
  5
25A
100
AcDbEntity
  8
0
100
AcDbLine
 62
2
  6
CONTINUOUS
 10
0.0
 20
-2.344
 11
9.055
 21
-2.344
  0
LINE
  5
25B
100
AcDbEntity
  8
0
100
AcDbLine
 62
2
  6
CONTINUOUS
 10
0.0
 20
-2.594
 11
9.055
 21
-2.594
  0
LINE
  5
25C
100
AcDbEntity
  8
0
100
AcDbLine
 62
2
  6
CONTINUOUS
 10
0.0
 20
-2.844
 11
9.055
 21
-2.844
  0
LINE
  5
25D
100
AcDbEntity
  8
0
100
AcDbLine
 62
2
  6
CONTINUOUS
 10
3.055
 20
0.0
 11
3.055
 21
-2.844
  0
LINE
  5
25E
100
AcDbEntity
  8
0
100
AcDbLine
 62
2
  6
CONTINUOUS
 10
9.055
 20
0.0
 11
9.055
 21
-2.844
  0
MTEXT
  5
25F
100
AcDbEntity
  8
0
100
AcDbMText
 62
2
  6
CONTINUOUS
  7
STANDARD
 71
2
 72
1
 10
1.5275
 20
-0.0995
 30
0.0
 11
1.0
 21
0.0
 31
0.0
 44
0.9
  1
Technical Data
 40
0.145
 41
3.248
  0
MTEXT
  5
260
100
AcDbEntity
  8
0
100
AcDbMText
 62
2
  6
CONTINUOUS
  7
STANDARD
 71
2
 72
1
 10
4.555
 20
-0.0995
 30
0.0
 11
1.0
 21
0.0
 31
0.0
 44
0.9
  1
U.S. Units
 40
0.145
 41
2.32
  0
MTEXT
  5
261
100
AcDbEntity
  8
0
100
AcDbMText
 62
2
  6
CONTINUOUS
  7
STANDARD
 71
2
 72
1
 10
7.555
 20
-0.0995
 30
0.0
 11
1.0
 21
0.0
 31
0.0
 44
0.9
  1
Metric Units
 40
0.145
 41
2.784
  0
MTEXT
  5
262
100
AcDbEntity
  8
0
100
AcDbMText
 62
2
  6
CONTINUOUS
  7
STANDARD
 71
2
 72
1
 10
1.5275
 20
-0.4065
 30
0.0
 11
1.0
 21
0.0
 31
0.0
 44
0.9
  1
Cavity
 40
0.125
 41
1.2
  0
MTEXT
  5
263
100
AcDbEntity
  8
0
100
AcDbMText
 62
2
  6
CONTINUOUS
  7
STANDARD
 71
2
 72
1
 10
6.055
 20
-0.4065
 30
0.0
 11
1.0
 21
0.0
 31
0.0
 44
0.9
  1
T-11A
 40
0.125
 41
1.0
  0
MTEXT
  5
264
100
AcDbEntity
  8
0
100
AcDbMText
 62
2
  6
CONTINUOUS
  7
STANDARD
 71
2
 72
1
 10
1.5275
 20
-0.6565
 30
0.0
 11
1.0
 21
0.0
 31
0.0
 44
0.9
  1
Body Features
 40
0.125
 41
2.6
  0
MTEXT
  5
265
100
AcDbEntity
  8
0
100
AcDbMText
 62
2
  6
CONTINUOUS
  7
STANDARD
 71
2
 72
1
 10
6.055
 20
-0.6565
 30
0.0
 11
1.0
 21
0.0
 31
0.0
 44
0.9
  1
Ninety degree with reverse flow check - reducing
 40
0.125
 41
9.6
  0
MTEXT
  5
266
100
AcDbEntity
  8
0
100
AcDbMText
 62
2
  6
CONTINUOUS
  7
STANDARD
 71
2
 72
1
 10
1.5275
 20
-0.9065
 30
0.0
 11
1.0
 21
0.0
 31
0.0
 44
0.9
  1
Body Type
 40
0.125
 41
1.8
  0
MTEXT
  5
267
100
AcDbEntity
  8
0
100
AcDbMText
 62
2
  6
CONTINUOUS
  7
STANDARD
 71
2
 72
1
 10
6.055
 20
-0.9065
 30
0.0
 11
1.0
 21
0.0
 31
0.0
 44
0.9
  1
Line mount
 40
0.125
 41
2.0
  0
MTEXT
  5
268
100
AcDbEntity
  8
0
100
AcDbMText
 62
2
  6
CONTINUOUS
  7
STANDARD
 71
2
 72
1
 10
1.5275
 20
-1.1565
 30
0.0
 11
1.0
 21
0.0
 31
0.0
 44
0.9
  1
Interface
 40
0.125
 41
1.8
  0
MTEXT
  5
269
100
AcDbEntity
  8
0
100
AcDbMText
 62
2
  6
CONTINUOUS
  7
STANDARD
 71
2
 72
1
 10
6.055
 20
-1.1565
 30
0.0
 11
1.0
 21
0.0
 31
0.0
 44
0.9
  1
None
 40
0.125
 41
0.8
  0
MTEXT
  5
26A
100
AcDbEntity
  8
0
100
AcDbMText
 62
2
  6
CONTINUOUS
  7
STANDARD
 71
2
 72
1
 10
1.5275
 20
-1.4065
 30
0.0
 11
1.0
 21
0.0
 31
0.0
 44
0.9
  1
Open Cavity Quantity
 40
0.125
 41
4.0
  0
MTEXT
  5
26B
100
AcDbEntity
  8
0
100
AcDbMText
 62
2
  6
CONTINUOUS
  7
STANDARD
 71
2
 72
1
 10
6.055
 20
-1.4065
 30
0.0
 11
1.0
 21
0.0
 31
0.0
 44
0.9
  1
1
 40
0.125
 41
0.2
  0
MTEXT
  5
26C
100
AcDbEntity
  8
0
100
AcDbMText
 62
2
  6
CONTINUOUS
  7
STANDARD
 71
2
 72
1
 10
1.5275
 20
-1.6565
 30
0.0
 11
1.0
 21
0.0
 31
0.0
 44
0.9
  1
Weight
 40
0.125
 41
1.2
  0
MTEXT
  5
26D
100
AcDbEntity
  8
0
100
AcDbMText
 62
2
  6
CONTINUOUS
  7
STANDARD
 71
2
 72
1
 10
4.555
 20
-1.6565
 30
0.0
 11
1.0
 21
0.0
 31
0.0
 44
0.9
  1
1.258 lb.
 40
0.125
 41
1.8
  0
MTEXT
  5
26E
100
AcDbEntity
  8
0
100
AcDbMText
 62
2
  6
CONTINUOUS
  7
STANDARD
 71
2
 72
1
 10
7.555
 20
-1.6565
 30
0.0
 11
1.0
 21
0.0
 31
0.0
 44
0.9
  1
0,570 kg.
 40
0.125
 41
1.8
  0
MTEXT
  5
26F
100
AcDbEntity
  8
0
100
AcDbMText
 62
2
  6
CONTINUOUS
  7
STANDARD
 71
2
 72
1
 10
1.5275
 20
-1.9065
 30
0.0
 11
1.0
 21
0.0
 31
0.0
 44
0.9
  1
Mounting Hole Diameter
 40
0.125
 41
4.4
  0
MTEXT
  5
270
100
AcDbEntity
  8
0
100
AcDbMText
 62
2
  6
CONTINUOUS
  7
STANDARD
 71
2
 72
1
 10
4.555
 20
-1.9065
 30
0.0
 11
1.0
 21
0.0
 31
0.0
 44
0.9
  1
.34 in.
 40
0.125
 41
1.4
  0
MTEXT
  5
271
100
AcDbEntity
  8
0
100
AcDbMText
 62
2
  6
CONTINUOUS
  7
STANDARD
 71
2
 72
1
 10
7.555
 20
-1.9065
 30
0.0
 11
1.0
 21
0.0
 31
0.0
 44
0.9
  1
8.6 mm
 40
0.125
 41
1.2
  0
MTEXT
  5
272
100
AcDbEntity
  8
0
100
AcDbMText
 62
2
  6
CONTINUOUS
  7
STANDARD
 71
2
 72
1
 10
1.5275
 20
-2.1565
 30
0.0
 11
1.0
 21
0.0
 31
0.0
 44
0.9
  1
Mounting Hole Depth
 40
0.125
 41
3.8
  0
MTEXT
  5
273
100
AcDbEntity
  8
0
100
AcDbMText
 62
2
  6
CONTINUOUS
  7
STANDARD
 71
2
 72
1
 10
6.055
 20
-2.1565
 30
0.0
 11
1.0
 21
0.0
 31
0.0
 44
0.9
  1
Through
 40
0.125
 41
1.4
  0
MTEXT
  5
274
100
AcDbEntity
  8
0
100
AcDbMText
 62
2
  6
CONTINUOUS
  7
STANDARD
 71
2
 72
1
 10
1.5275
 20
-2.4065
 30
0.0
 11
1.0
 21
0.0
 31
0.0
 44
0.9
  1
Mounting Hole Quantity
 40
0.125
 41
4.4
  0
MTEXT
  5
275
100
AcDbEntity
  8
0
100
AcDbMText
 62
2
  6
CONTINUOUS
  7
STANDARD
 71
2
 72
1
 10
6.055
 20
-2.4065
 30
0.0
 11
1.0
 21
0.0
 31
0.0
 44
0.9
  1
2
 40
0.125
 41
0.2
  0
MTEXT
  5
276
100
AcDbEntity
  8
0
100
AcDbMText
 62
2
  6
CONTINUOUS
  7
STANDARD
 71
2
 72
1
 10
1.5275
 20
-2.6565
 30
0.0
 11
1.0
 21
0.0
 31
0.0
 44
0.9
  1
Includes integral cartridge(s)
 40
0.125
 41
6.0
  0
MTEXT
  5
277
100
AcDbEntity
  8
0
100
AcDbMText
 62
2
  6
CONTINUOUS
  7
STANDARD
 71
2
 72
1
 10
6.055
 20
-2.6565
 30
0.0
 11
1.0
 21
0.0
 31
0.0
 44
0.9
  1
Yes (see Included Components)
 40
0.125
 41
5.8
  0
ENDBLK
  5
278
100
AcDbEntity
  8
0
  6
BYBLOCK
 62
0
100
AcDbBlockEnd
  0
BLOCK
  5
279
100
AcDbEntity
  8
0
100
AcDbBlockBegin
  2
*T3
 70
1
 10
0.0
 20
0.0
  3
*T3
  1

  0
LINE
  5
27A
100
AcDbEntity
  8
0
100
AcDbLine
 62
2
  6
CONTINUOUS
 10
0.0
 20
0.0
 11
4.6
 21
0.0
  0
LINE
  5
27B
100
AcDbEntity
  8
0
100
AcDbLine
 62
2
  6
CONTINUOUS
 10
0.0
 20
0.0
 11
0.0
 21
-1.43775
  0
LINE
  5
27C
100
AcDbEntity
  8
0
100
AcDbLine
 62
2
  6
CONTINUOUS
 10
0.0
 20
-0.34375
 11
4.6
 21
-0.34375
  0
LINE
  5
27D
100
AcDbEntity
  8
0
100
AcDbLine
 62
2
  6
CONTINUOUS
 10
0.0
 20
-0.68775
 11
4.6
 21
-0.68775
  0
LINE
  5
27E
100
AcDbEntity
  8
0
100
AcDbLine
 62
2
  6
CONTINUOUS
 10
0.0
 20
-0.93775
 11
4.6
 21
-0.93775
  0
LINE
  5
27F
100
AcDbEntity
  8
0
100
AcDbLine
 62
2
  6
CONTINUOUS
 10
0.0
 20
-1.18775
 11
4.6
 21
-1.18775
  0
LINE
  5
280
100
AcDbEntity
  8
0
100
AcDbLine
 62
2
  6
CONTINUOUS
 10
0.0
 20
-1.43775
 11
4.6
 21
-1.43775
  0
LINE
  5
281
100
AcDbEntity
  8
0
100
AcDbLine
 62
2
  6
CONTINUOUS
 10
1.3
 20
-0.34375
 11
1.3
 21
-1.43775
  0
LINE
  5
282
100
AcDbEntity
  8
0
100
AcDbLine
 62
2
  6
CONTINUOUS
 10
3.3
 20
-0.34375
 11
3.3
 21
-1.43775
  0
LINE
  5
283
100
AcDbEntity
  8
0
100
AcDbLine
 62
2
  6
CONTINUOUS
 10
4.6
 20
0.0
 11
4.6
 21
-1.43775
  0
MTEXT
  5
284
100
AcDbEntity
  8
0
100
AcDbMText
 62
2
  6
CONTINUOUS
  7
STANDARD
 71
2
 72
1
 10
2.3
 20
-0.099375
 30
0.0
 11
1.0
 21
0.0
 31
0.0
 44
0.9
  1
Port Headings
 40
0.145
 41
3.016
  0
MTEXT
  5
285
100
AcDbEntity
  8
0
100
AcDbMText
 62
2
  6
CONTINUOUS
  7
STANDARD
 71
2
 72
1
 10
0.65
 20
-0.44325
 30
0.0
 11
1.0
 21
0.0
 31
0.0
 44
0.9
  1
Product
 40
0.145
 41
1.624
  0
MTEXT
  5
286
100
AcDbEntity
  8
0
100
AcDbMText
 62
2
  6
CONTINUOUS
  7
STANDARD
 71
2
 72
1
 10
2.3
 20
-0.44325
 30
0.0
 11
1.0
 21
0.0
 31
0.0
 44
0.9
  1
Port
 40
0.145
 41
0.928
  0
MTEXT
  5
287
100
AcDbEntity
  8
0
100
AcDbMText
 62
2
  6
CONTINUOUS
  7
STANDARD
 71
2
 72
1
 10
3.95
 20
-0.44325
 30
0.0
 11
1.0
 21
0.0
 31
0.0
 44
0.9
  1
Size
 40
0.145
 41
0.928
  0
MTEXT
  5
288
100
AcDbEntity
  8
0
100
AcDbMText
 62
2
  6
CONTINUOUS
  7
STANDARD
 71
2
 72
1
 10
0.65
 20
-0.75025
 30
0.0
 11
1.0
 21
0.0
 31
0.0
 44
0.9
  1
E2T
 40
0.125
 41
0.6
  0
MTEXT
  5
289
100
AcDbEntity
  8
0
100
AcDbMText
 62
2
  6
CONTINUOUS
  7
STANDARD
 71
2
 72
1
 10
2.3
 20
-0.75025
 30
0.0
 11
1.0
 21
0.0
 31
0.0
 44
0.9
  1
Ports 1 &  2
 40
0.125
 41
2.4
  0
MTEXT
  5
28A
100
AcDbEntity
  8
0
100
AcDbMText
 62
2
  6
CONTINUOUS
  7
STANDARD
 71
2
 72
1
 10
3.95
 20
-0.75025
 30
0.0
 11
1.0
 21
0.0
 31
0.0
 44
0.9
  1
1/4" BSPP
 40
0.125
 41
1.8
  0
MTEXT
  5
28B
100
AcDbEntity
  8
0
100
AcDbMText
 62
2
  6
CONTINUOUS
  7
STANDARD
 71
2
 72
1
 10
0.65
 20
-1.00025
 30
0.0
 11
1.0
 21
0.0
 31
0.0
 44
0.9
  1
E2T
 40
0.125
 41
0.6
  0
MTEXT
  5
28C
100
AcDbEntity
  8
0
100
AcDbMText
 62
2
  6
CONTINUOUS
  7
STANDARD
 71
2
 72
1
 10
2.3
 20
-1.00025
 30
0.0
 11
1.0
 21
0.0
 31
0.0
 44
0.9
  1
Port 3
 40
0.125
 41
1.2
  0
MTEXT
  5
28D
100
AcDbEntity
  8
0
100
AcDbMText
 62
2
  6
CONTINUOUS
  7
STANDARD
 71
2
 72
1
 10
3.95
 20
-1.00025
 30
0.0
 11
1.0
 21
0.0
 31
0.0
 44
0.9
  1
1/4" BSPP
 40
0.125
 41
1.8
  0
MTEXT
  5
28E
100
AcDbEntity
  8
0
100
AcDbMText
 62
2
  6
CONTINUOUS
  7
STANDARD
 71
2
 72
1
 10
0.65
 20
-1.25025
 30
0.0
 11
1.0
 21
0.0
 31
0.0
 44
0.9
  1
E2T
 40
0.125
 41
0.6
  0
MTEXT
  5
28F
100
AcDbEntity
  8
0
100
AcDbMText
 62
2
  6
CONTINUOUS
  7
STANDARD
 71
2
 72
1
 10
2.3
 20
-1.25025
 30
0.0
 11
1.0
 21
0.0
 31
0.0
 44
0.9
  1
Gage Port
 40
0.125
 41
1.8
  0
MTEXT
  5
290
100
AcDbEntity
  8
0
100
AcDbMText
 62
2
  6
CONTINUOUS
  7
STANDARD
 71
2
 72
1
 10
3.95
 20
-1.25025
 30
0.0
 11
1.0
 21
0.0
 31
0.0
 44
0.9
  1
1/4" BSPP
 40
0.125
 41
1.8
  0
ENDBLK
  5
291
100
AcDbEntity
  8
0
  6
BYBLOCK
 62
0
100
AcDbBlockEnd
  0
ENDSEC
  0
SECTION
  2
ENTITIES
  0
IMAGE
  5
292
100
AcDbEntity
  8
0
100
AcDbRasterImage
 62
7
  6
CONTINUOUS
 10
19.2297077316
 20
0.3094318264
 30
0.0
 11
0.0066666667
 21
0.0
 31
0.0
 12
0.0
 22
0.0066666667
 32
0.0
 13
369.0
 23
92.0
340
       385
 70
9
280
0
281
50
282
50
283
0
360
       37F
 71
1
 91
2
 14
-0.5
 24
-0.5
 14
368.5
 24
91.5
  0
INSERT
  5
293
100
AcDbEntity
  8
0
100
AcDbBlockReference
 62
2
  6
CONTINUOUS
  2
SUN_FIRST_THIRD_ANGLE_BL0
 10
20.4816717061
 20
1.2289683772
  0
ACAD_TABLE
  5
294
100
AcDbEntity
  8
0
 62
2
  6
CONTINUOUS
100
AcDbBlockReference
  2
*T1
 10
12.42375
 20
0.30125
 30
0.0
100
AcDbTable
342
       387
343
20F
 11
1.0
 21
0.0
 31
0.0
 90
6
 91
4
 92
6
 93
20
 94
0
 95
0
 96
0
 70
1
 41
0.0
141
0.525
141
0.1
141
0.525
141
0.1
142
4.1
142
1.1
142
0.7
142
0.5
142
0.4
142
2.475
171
1
172
0
173
0
174
0
175
1
176
1
 91
33
178
0
145
0.0
301
CELL_VALUE
 90
4
  1
T-11A Line mount\P(See Technical Data for Body Features)
304
ACVALUE_END
170
2
140
0.125
171
1
172
0
173
0
174
0
175
1
176
1
 91
33
178
0
145
0.0
301
CELL_VALUE
 90
4
  1
Sep-12-23
304
ACVALUE_END
170
5
140
0.125
171
1
172
0
173
0
174
0
175
1
176
1
 91
33
178
0
145
0.0
301
CELL_VALUE
 90
4
  1
1.000
304
ACVALUE_END
170
5
140
0.125
171
1
172
0
173
0
174
0
175
1
176
1
 91
33
178
0
145
0.0
301
CELL_VALUE
 90
4
  1
C
304
ACVALUE_END
170
5
140
0.125
171
1
172
0
173
0
174
0
175
1
176
1
 91
33
178
0
145
0.0
301
CELL_VALUE
 90
4
  1
2
304
ACVALUE_END
170
5
140
0.125
171
1
172
0
173
0
174
0
175
1
176
1
 91
33
178
0
145
0.0
301
CELL_VALUE
 90
4
  1
 
304
ACVALUE_END
170
1
140
0.125
171
1
172
0
173
0
174
0
175
1
176
1
 91
33
178
0
145
0.0
301
CELL_VALUE
 90
4
  1
DESCRIPTION
304
ACVALUE_END
170
1
140
0.06
171
1
172
0
173
0
174
0
175
1
176
1
 91
33
178
0
145
0.0
301
CELL_VALUE
 90
4
  1
DATE
304
ACVALUE_END
170
1
140
0.06
171
1
172
0
173
0
174
0
175
1
176
1
 91
33
178
0
145
0.0
301
CELL_VALUE
 90
4
  1
SCALE
304
ACVALUE_END
170
1
140
0.06
171
1
172
0
173
0
174
0
175
1
176
1
 91
33
178
0
145
0.0
301
CELL_VALUE
 90
4
  1
DWG SIZE
304
ACVALUE_END
170
1
140
0.06
171
1
172
0
173
0
174
0
175
1
176
1
 91
33
178
0
145
0.0
301
CELL_VALUE
 90
4
  1
SHEET
304
ACVALUE_END
170
1
140
0.06
171
1
172
0
173
0
174
0
175
1
176
1
 91
33
178
0
145
0.0
301
CELL_VALUE
 90
4
  1
 
304
ACVALUE_END
170
1
140
0.125
171
1
172
0
173
0
174
0
175
1
176
1
 91
33
178
0
145
0.0
301
CELL_VALUE
 90
4
  1
E2T
304
ACVALUE_END
170
5
140
0.125
171
1
172
0
173
0
174
0
175
4
176
1
 91
33
178
0
145
0.0
301
CELL_VALUE
 90
4
  1
ALL DIMENSIONS IN INCH\PVIEWS ARE THIRD ANGLE
304
ACVALUE_END
170
5
140
0.12
171
1
172
0
173
1
174
0
175
1
176
1
 91
1
178
0
145
0.0
170
1
171
1
172
0
173
1
174
0
175
1
176
1
 91
1
178
0
145
0.0
170
1
171
1
172
0
173
1
174
0
175
1
176
1
 91
1
178
0
145
0.0
170
5
171
1
172
0
173
0
174
0
175
1
176
1
 91
33
178
0
145
0.0
301
CELL_VALUE
 90
4
  1
 
304
ACVALUE_END
170
1
140
0.125
171
1
172
0
173
0
174
0
175
1
176
1
 91
33
178
0
145
0.0
301
CELL_VALUE
 90
4
  1
MODEL
304
ACVALUE_END
170
1
140
0.06
171
1
172
0
173
0
174
0
175
1
176
1
 91
33
178
0
145
0.0
301
CELL_VALUE
 90
4
  1
 
304
ACVALUE_END
170
1
140
0.125
171
1
172
0
173
0
174
0
175
1
176
1
 91
33
178
0
145
0.0
301
CELL_VALUE
 90
4
  1
 
304
ACVALUE_END
170
1
140
0.125
171
1
172
0
173
0
174
0
175
1
176
1
 91
33
178
0
145
0.0
301
CELL_VALUE
 90
4
  1
 
304
ACVALUE_END
170
1
140
0.125
171
1
172
0
173
0
174
0
175
1
176
1
 91
33
178
0
145
0.0
301
CELL_VALUE
 90
4
  1
 
304
ACVALUE_END
170
1
140
0.125
171
1
172
0
173
0
174
0
175
1
176
1
 91
33
178
0
145
0.0
301
CELL_VALUE
 90
4
  1
 
304
ACVALUE_END
170
1
140
0.125
  0
ACAD_TABLE
  5
295
100
AcDbEntity
  8
0
 62
2
  6
CONTINUOUS
100
AcDbBlockReference
  2
*T2
 10
12.4237499994
 20
16.47875
 30
0.0
100
AcDbTable
342
       386
343
210
 11
1.0
 21
0.0
 31
0.0
 90
22
 91
11
 92
3
 93
16
 94
0
 95
0
 96
0
 41
0.028
141
0.344
141
0.25
141
0.25
141
0.25
141
0.25
141
0.25
141
0.25
141
0.25
141
0.25
141
0.25
141
0.25
142
3.055
142
3.0
142
3.0
171
1
172
0
173
0
174
0
175
1
176
1
 91
33
178
0
145
0.0
301
CELL_VALUE
 90
4
  1
Technical Data
304
ACVALUE_END
170
5
140
0.145
171
1
172
0
173
0
174
0
175
1
176
1
 91
33
178
0
145
0.0
301
CELL_VALUE
 90
4
  1
U.S. Units
304
ACVALUE_END
170
5
140
0.145
171
1
172
0
173
0
174
0
175
1
176
1
 91
33
178
0
145
0.0
301
CELL_VALUE
 90
4
  1
Metric Units
304
ACVALUE_END
170
5
140
0.145
171
1
172
0
173
0
174
0
175
1
176
1
 91
33
178
0
145
0.0
301
CELL_VALUE
 90
4
  1
Cavity
304
ACVALUE_END
170
5
140
0.125
171
1
172
0
173
0
174
0
175
2
176
1
 91
33
178
0
145
0.0
301
CELL_VALUE
 90
4
  1
T-11A
304
ACVALUE_END
170
5
140
0.125
171
1
172
0
173
1
174
0
175
1
176
1
 91
1
178
0
145
0.0
170
1
171
1
172
0
173
0
174
0
175
1
176
1
 91
33
178
0
145
0.0
301
CELL_VALUE
 90
4
  1
Body Features
304
ACVALUE_END
170
5
140
0.125
171
1
172
0
173
0
174
0
175
2
176
1
 91
33
178
0
145
0.0
301
CELL_VALUE
 90
4
  1
Ninety degree with reverse flow check - reducing
304
ACVALUE_END
170
5
140
0.125
171
1
172
0
173
1
174
0
175
1
176
1
 91
1
178
0
145
0.0
170
1
171
1
172
0
173
0
174
0
175
1
176
1
 91
33
178
0
145
0.0
301
CELL_VALUE
 90
4
  1
Body Type
304
ACVALUE_END
170
5
140
0.125
171
1
172
0
173
0
174
0
175
2
176
1
 91
33
178
0
145
0.0
301
CELL_VALUE
 90
4
  1
Line mount
304
ACVALUE_END
170
5
140
0.125
171
1
172
0
173
1
174
0
175
1
176
1
 91
1
178
0
145
0.0
170
1
171
1
172
0
173
0
174
0
175
1
176
1
 91
33
178
0
145
0.0
301
CELL_VALUE
 90
4
  1
Interface
304
ACVALUE_END
170
5
140
0.125
171
1
172
0
173
0
174
0
175
2
176
1
 91
33
178
0
145
0.0
301
CELL_VALUE
 90
4
  1
None
304
ACVALUE_END
170
5
140
0.125
171
1
172
0
173
1
174
0
175
1
176
1
 91
1
178
0
145
0.0
170
1
171
1
172
0
173
0
174
0
175
1
176
1
 91
33
178
0
145
0.0
301
CELL_VALUE
 90
4
  1
Open Cavity Quantity
304
ACVALUE_END
170
5
140
0.125
171
1
172
0
173
0
174
0
175
2
176
1
 91
33
178
0
145
0.0
301
CELL_VALUE
 90
4
  1
1
304
ACVALUE_END
170
5
140
0.125
171
1
172
0
173
1
174
0
175
1
176
1
 91
1
178
0
145
0.0
170
1
171
1
172
0
173
0
174
0
175
1
176
1
 91
33
178
0
145
0.0
301
CELL_VALUE
 90
4
  1
Weight
304
ACVALUE_END
170
5
140
0.125
171
1
172
0
173
0
174
0
175
1
176
1
 91
33
178
0
145
0.0
301
CELL_VALUE
 90
4
  1
1.258 lb.
304
ACVALUE_END
170
5
140
0.125
171
1
172
0
173
0
174
0
175
1
176
1
 91
33
178
0
145
0.0
301
CELL_VALUE
 90
4
  1
0,570 kg.
304
ACVALUE_END
170
5
140
0.125
171
1
172
0
173
0
174
0
175
1
176
1
 91
33
178
0
145
0.0
301
CELL_VALUE
 90
4
  1
Mounting Hole Diameter
304
ACVALUE_END
170
5
140
0.125
171
1
172
0
173
0
174
0
175
1
176
1
 91
33
178
0
145
0.0
301
CELL_VALUE
 90
4
  1
.34 in.
304
ACVALUE_END
170
5
140
0.125
171
1
172
0
173
0
174
0
175
1
176
1
 91
33
178
0
145
0.0
301
CELL_VALUE
 90
4
  1
8.6 mm
304
ACVALUE_END
170
5
140
0.125
171
1
172
0
173
0
174
0
175
1
176
1
 91
33
178
0
145
0.0
301
CELL_VALUE
 90
4
  1
Mounting Hole Depth
304
ACVALUE_END
170
5
140
0.125
171
1
172
0
173
0
174
0
175
2
176
1
 91
33
178
0
145
0.0
301
CELL_VALUE
 90
4
  1
Through
304
ACVALUE_END
170
5
140
0.125
171
1
172
0
173
1
174
0
175
1
176
1
 91
1
178
0
145
0.0
170
1
171
1
172
0
173
0
174
0
175
1
176
1
 91
33
178
0
145
0.0
301
CELL_VALUE
 90
4
  1
Mounting Hole Quantity
304
ACVALUE_END
170
5
140
0.125
171
1
172
0
173
0
174
0
175
2
176
1
 91
33
178
0
145
0.0
301
CELL_VALUE
 90
4
  1
2
304
ACVALUE_END
170
5
140
0.125
171
1
172
0
173
1
174
0
175
1
176
1
 91
1
178
0
145
0.0
170
1
171
1
172
0
173
0
174
0
175
1
176
1
 91
33
178
0
145
0.0
301
CELL_VALUE
 90
4
  1
Includes integral cartridge(s)
304
ACVALUE_END
170
5
140
0.125
171
1
172
0
173
0
174
0
175
2
176
1
 91
33
178
0
145
0.0
301
CELL_VALUE
 90
4
  1
Yes (see Included Components)
304
ACVALUE_END
170
5
140
0.125
171
1
172
0
173
1
174
0
175
1
176
1
 91
1
178
0
145
0.0
170
1
  0
ACAD_TABLE
  5
296
100
AcDbEntity
  8
0
 62
2
  6
CONTINUOUS
100
AcDbBlockReference
  2
*T3
 10
0.52125
 20
1.959
 30
0.0
100
AcDbTable
342
       386
343
211
 11
1.0
 21
0.0
 31
0.0
 90
22
 91
5
 92
3
 93
16
 94
0
 95
0
 96
0
 41
0.05
141
0.34375
141
0.344
141
0.25
141
0.25
141
0.25
142
1.3
142
2.0
142
1.3
171
1
172
0
173
0
174
0
175
3
176
1
 91
33
178
0
145
0.0
301
CELL_VALUE
 90
4
  1
Port Headings
304
ACVALUE_END
170
5
140
0.145
171
1
172
0
173
1
174
0
175
1
176
1
 91
1
178
0
145
0.0
170
1
171
1
172
0
173
1
174
0
175
1
176
1
 91
1
178
0
145
0.0
170
1
171
1
172
0
173
0
174
0
175
1
176
1
 91
33
178
0
145
0.0
301
CELL_VALUE
 90
4
  1
Product
304
ACVALUE_END
170
5
140
0.145
171
1
172
0
173
0
174
0
175
1
176
1
 91
33
178
0
145
0.0
301
CELL_VALUE
 90
4
  1
Port
304
ACVALUE_END
170
5
140
0.145
171
1
172
0
173
0
174
0
175
1
176
1
 91
33
178
0
145
0.0
301
CELL_VALUE
 90
4
  1
Size
304
ACVALUE_END
170
5
140
0.145
171
1
172
0
173
0
174
0
175
1
176
1
 91
33
178
0
145
0.0
301
CELL_VALUE
 90
4
  1
E2T
304
ACVALUE_END
170
5
140
0.125
171
1
172
0
173
0
174
0
175
1
176
1
 91
33
178
0
145
0.0
301
CELL_VALUE
 90
4
  1
Ports 1 &  2
304
ACVALUE_END
170
5
140
0.125
171
1
172
0
173
0
174
0
175
1
176
1
 91
33
178
0
145
0.0
301
CELL_VALUE
 90
4
  1
1/4" BSPP
304
ACVALUE_END
170
5
140
0.125
171
1
172
0
173
0
174
0
175
1
176
1
 91
33
178
0
145
0.0
301
CELL_VALUE
 90
4
  1
E2T
304
ACVALUE_END
170
5
140
0.125
171
1
172
0
173
0
174
0
175
1
176
1
 91
33
178
0
145
0.0
301
CELL_VALUE
 90
4
  1
Port 3
304
ACVALUE_END
170
5
140
0.125
171
1
172
0
173
0
174
0
175
1
176
1
 91
33
178
0
145
0.0
301
CELL_VALUE
 90
4
  1
1/4" BSPP
304
ACVALUE_END
170
5
140
0.125
171
1
172
0
173
0
174
0
175
1
176
1
 91
33
178
0
145
0.0
301
CELL_VALUE
 90
4
  1
E2T
304
ACVALUE_END
170
5
140
0.125
171
1
172
0
173
0
174
0
175
1
176
1
 91
33
178
0
145
0.0
301
CELL_VALUE
 90
4
  1
Gage Port
304
ACVALUE_END
170
5
140
0.125
171
1
172
0
173
0
174
0
175
1
176
1
 91
33
178
0
145
0.0
301
CELL_VALUE
 90
4
  1
1/4" BSPP
304
ACVALUE_END
170
5
140
0.125
  0
MTEXT
  5
297
100
AcDbEntity
  8
0
100
AcDbMText
 62
2
  6
CONTINUOUS
  7
STANDARD
 71
1
 72
1
 10
0.52125
 20
5.75995
 30
0.0
 11
1.0
 21
0.0
 31
0.0
 44
0.6
  3
Notes\P \P1. Important: Carefully consider\P   the maximum system pressure. The\P   pressure rating of the manifold is\P   dependent on the manifold material,\P   with the port type/size a secondary\P   consideration. Manifolds\P   constructed of alu
  3
minum are not\P   rated for pressures higher than\P   3000 psi (210 bar), regardless of\P   the port type/size specified.\P2. This drawing is for reference\P   only. It is generated by an\P   automated process and does not fall\P   under Sun's docume
  1
nt control\P   process.
 40
0.1
 41
3.04
  0
LINE
  5
298
100
AcDbEntity
  8
0
100
AcDbLine
 62
7
  6
CONTINUOUS
 10
0.30125
 20
0.30125
 11
0.30125
 21
16.69875
  0
LINE
  5
299
100
AcDbEntity
  8
0
100
AcDbLine
 62
7
  6
CONTINUOUS
 10
0.30125
 20
0.30125
 11
21.69875
 21
0.30125
  0
LINE
  5
29A
100
AcDbEntity
  8
0
100
AcDbLine
 62
7
  6
CONTINUOUS
 10
0.30125
 20
16.69875
 11
21.69875
 21
16.69875
  0
LINE
  5
29B
100
AcDbEntity
  8
0
100
AcDbLine
 62
7
  6
CONTINUOUS
 10
21.69875
 20
0.30125
 11
21.69875
 21
16.69875
  0
LINE
  5
29C
100
AcDbEntity
  8
0
100
AcDbLine
 62
7
  6
CONTINUOUS
 10
9.7128729444
 20
10.7425635365
 11
9.389349405
 21
10.4300637758
  0
LINE
  5
29D
100
AcDbEntity
  8
0
100
AcDbLine
 62
4
  6
CONTINUOUS
 10
9.5921939314
 20
9.9591135503
 11
9.5849494874
 21
9.9499566979
  0
LINE
  5
29E
100
AcDbEntity
  8
0
100
AcDbLine
 62
4
  6
CONTINUOUS
 10
9.5414828236
 20
9.9819488971
 11
9.5559717116
 21
9.9906033457
  0
LINE
  5
29F
100
AcDbEntity
  8
0
100
AcDbLine
 62
4
  6
CONTINUOUS
 10
9.5994383754
 20
9.9006555947
 11
9.5849494874
 21
9.8823418855
  0
LINE
  5
2A0
100
AcDbEntity
  8
0
100
AcDbLine
 62
4
  6
CONTINUOUS
 10
9.5849494874
 20
9.9499566979
 11
9.5704605995
 21
9.9413022425
  0
LINE
  5
2A1
100
AcDbEntity
  8
0
100
AcDbLine
 62
4
  6
CONTINUOUS
 10
9.5849494874
 20
9.8823418855
 11
9.5704605995
 21
9.8736874344
  0
LINE
  5
2A2
100
AcDbEntity
  8
0
100
AcDbLine
 62
7
  6
CONTINUOUS
 10
11.2065145113
 20
6.3251270685
 11
11.2228173394
 21
6.3170737835
  0
LINE
  5
2A3
100
AcDbEntity
  8
0
100
AcDbLine
 62
7
  6
CONTINUOUS
 10
9.389349405
 20
6.9285824481
 11
12.2871270556
 21
6.7276208855
  0
LINE
  5
2A4
100
AcDbEntity
  8
0
100
AcDbLine
 62
7
  6
CONTINUOUS
 10
9.389349405
 20
6.9285824481
 11
9.389349405
 21
10.4300637758
  0
LINE
  5
2A5
100
AcDbEntity
  8
0
100
AcDbLine
 62
4
  6
CONTINUOUS
 10
9.5921939314
 20
9.9687728066
 11
9.5921939314
 21
9.9591135503
  0
LINE
  5
2A6
100
AcDbEntity
  8
0
100
AcDbLine
 62
4
  6
CONTINUOUS
 10
9.5921939314
 20
7.9210098917
 11
9.5921939314
 21
7.8050987883
  0
LINE
  5
2A7
100
AcDbEntity
  8
0
100
AcDbLine
 62
4
  6
CONTINUOUS
 10
9.5994383754
 20
9.9103148545
 11
9.5994383754
 21
9.9006555947
  0
LINE
  5
2A8
100
AcDbEntity
  8
0
100
AcDbLine
 62
4
  6
CONTINUOUS
 10
11.1748634168
 20
7.137035146
 11
11.1603745288
 21
7.1380399538
  0
LINE
  5
2A9
100
AcDbEntity
  8
0
100
AcDbLine
 62
4
  6
CONTINUOUS
 10
11.1676189728
 20
7.1954931016
 11
11.1965967487
 21
7.193483486
  0
LINE
  5
2AA
100
AcDbEntity
  8
0
100
AcDbLine
 62
4
  6
CONTINUOUS
 10
11.1603745288
 20
7.2539510572
 11
11.1748634168
 21
7.2529462494
  0
LINE
  5
2AB
100
AcDbEntity
  8
0
100
AcDbLine
 62
4
  6
CONTINUOUS
 10
11.1603745288
 20
7.1380399538
 11
11.1458856409
 21
7.1487040205
  0
LINE
  5
2AC
100
AcDbEntity
  8
0
100
AcDbLine
 62
4
  6
CONTINUOUS
 10
11.1748634168
 20
7.2529462494
 11
11.1893523047
 21
7.2422821853
  0
LINE
  5
2AD
100
AcDbEntity
  8
0
100
AcDbLine
 62
7
  6
CONTINUOUS
 10
10.8716692051
 20
7.6568734308
 11
10.8767415109
 21
7.6566604296
  0
LINE
  5
2AE
100
AcDbEntity
  8
0
100
AcDbLine
 62
4
  6
CONTINUOUS
 10
10.2886264026
 20
9.3389876383
 11
10.2886264026
 21
9.2810320853
  0
LINE
  5
2AF
100
AcDbEntity
  8
0
100
AcDbLine
 62
4
  6
CONTINUOUS
 10
10.3465819556
 20
9.277012854
 11
10.3465819556
 21
9.219057301
  0
LINE
  5
2B0
100
AcDbEntity
  8
0
100
AcDbLine
 62
4
  6
CONTINUOUS
 10
10.3755597321
 20
9.2170476854
 11
10.3755597321
 21
9.3329587914
  0
LINE
  5
2B1
100
AcDbEntity
  8
0
100
AcDbLine
 62
4
  6
CONTINUOUS
 10
10.4228901062
 20
8.6226186721
 11
10.4228901062
 21
8.7385297781
  0
LINE
  5
2B2
100
AcDbEntity
  8
0
100
AcDbLine
 62
4
  6
CONTINUOUS
 10
10.4335152851
 20
9.3289395602
 11
10.4335152851
 21
9.2130284541
  0
LINE
  5
2B3
100
AcDbEntity
  8
0
100
AcDbLine
 62
4
  6
CONTINUOUS
 10
10.4624930616
 20
9.3269299445
 11
10.4624930616
 21
9.2110188385
  0
LINE
  5
2B4
100
AcDbEntity
  8
0
100
AcDbLine
 62
4
  6
CONTINUOUS
 10
11.1458856409
 20
7.1487040205
 11
11.131396753
 21
7.1690273452
  0
LINE
  5
2B5
100
AcDbEntity
  8
0
100
AcDbLine
 62
4
  6
CONTINUOUS
 10
11.1893523047
 20
7.2422821853
 11
11.1965967487
 21
7.2321205182
  0
LINE
  5
2B6
100
AcDbEntity
  8
0
100
AcDbLine
 62
4
  6
CONTINUOUS
 10
10.4808456523
 20
8.7179518189
 11
10.4808456523
 21
8.6351581715
  0
LINE
  5
2B7
100
AcDbEntity
  8
0
100
AcDbLine
 62
4
  6
CONTINUOUS
 10
10.5204486146
 20
9.3229107133
 11
10.5204486146
 21
9.2069996073
  0
LINE
  5
2B8
100
AcDbEntity
  8
0
100
AcDbLine
 62
4
  6
CONTINUOUS
 10
10.6363597207
 20
9.1989611448
 11
10.6363597207
 21
9.3148722508
  0
LINE
  5
2B9
100
AcDbEntity
  8
0
100
AcDbLine
 62
4
  6
CONTINUOUS
 10
10.527762053
 20
8.6153457779
 11
10.5608795099
 21
8.7289601805
  0
LINE
  5
2BA
100
AcDbEntity
  8
0
100
AcDbLine
 62
4
  6
CONTINUOUS
 10
10.8175398209
 20
8.9661651607
 11
10.8009810925
 21
8.9424754163
  0
LINE
  5
2BB
100
AcDbEntity
  8
0
100
AcDbLine
 62
4
  6
CONTINUOUS
 10
10.8009810925
 20
8.8514024064
 11
10.8589366455
 21
8.9301768243
  0
LINE
  5
2BC
100
AcDbEntity
  8
0
100
AcDbLine
 62
7
  6
CONTINUOUS
 10
12.2871270556
 20
10.2291022132
 11
12.610650595
 21
10.5416019738
  0
LINE
  5
2BD
100
AcDbEntity
  8
0
100
AcDbLine
 62
4
  6
CONTINUOUS
 10
10.4808456523
 20
8.6351581715
 11
10.4642869238
 21
8.619747793
  0
LINE
  5
2BE
100
AcDbEntity
  8
0
100
AcDbLine
 62
4
  6
CONTINUOUS
 10
10.4008117981
 20
8.6959043048
 11
10.3566551855
 21
8.6768882682
  0
LINE
  5
2BF
100
AcDbEntity
  8
0
100
AcDbLine
 62
4
  6
CONTINUOUS
 10
9.5414828236
 20
9.8853563089
 11
9.5342383797
 21
9.8955179717
  0
LINE
  5
2C0
100
AcDbEntity
  8
0
100
AcDbLine
 62
4
  6
CONTINUOUS
 10
10.5608795099
 20
8.7289601805
 11
10.5939969806
 21
8.61075237
  0
LINE
  5
2C1
100
AcDbEntity
  8
0
100
AcDbLine
 62
4
  6
CONTINUOUS
 10
10.6602318943
 20
8.6061589632
 11
10.6602318943
 21
8.7220700692
  0
LINE
  5
2C2
100
AcDbEntity
  8
0
100
AcDbLine
 62
4
  6
CONTINUOUS
 10
10.6943152737
 20
9.1949419135
 11
10.6943152737
 21
9.2528974665
  0
LINE
  5
2C3
100
AcDbEntity
  8
0
100
AcDbLine
 62
4
  6
CONTINUOUS
 10
10.7181874433
 20
8.8571441654
 11
10.7181874433
 21
8.9730552715
  0
LINE
  5
2C4
100
AcDbEntity
  8
0
100
AcDbLine
 62
4
  6
CONTINUOUS
 10
10.7264668081
 20
8.6015655563
 11
10.7264668081
 21
8.7174766623
  0
LINE
  5
2C5
100
AcDbEntity
  8
0
100
AcDbLine
 62
4
  6
CONTINUOUS
 10
10.741645642
 20
9.1916595413
 11
10.741645642
 21
9.2496150943
  0
LINE
  5
2C6
100
AcDbEntity
  8
0
100
AcDbLine
 62
4
  6
CONTINUOUS
 10
10.799601195
 20
9.2455958631
 11
10.799601195
 21
9.129684757
  0
LINE
  5
2C7
100
AcDbEntity
  8
0
100
AcDbLine
 62
4
  6
CONTINUOUS
 10
10.8382382303
 20
9.1849608226
 11
10.8382382303
 21
9.2429163756
  0
LINE
  5
2C8
100
AcDbEntity
  8
0
100
AcDbLine
 62
4
  6
CONTINUOUS
 10
10.9003334948
 20
8.6888602382
 11
10.9168922163
 21
8.7042706154
  0
LINE
  5
2C9
100
AcDbEntity
  8
0
100
AcDbLine
 62
4
  6
CONTINUOUS
 10
10.3566551855
 20
8.6768882682
 11
10.4008117981
 21
8.6517476904
  0
LINE
  5
2CA
100
AcDbEntity
  8
0
100
AcDbLine
 62
4
  6
CONTINUOUS
 10
10.4642869238
 20
8.7356588991
 11
10.4808456523
 21
8.7179518189
  0
LINE
  5
2CB
100
AcDbEntity
  8
0
100
AcDbLine
 62
4
  6
CONTINUOUS
 10
9.5849494874
 20
9.9306381784
 11
9.5994383754
 21
9.9103148545
  0
LINE
  5
2CC
100
AcDbEntity
  8
0
100
AcDbLine
 62
4
  6
CONTINUOUS
 10
9.5849494874
 20
9.9789344738
 11
9.5921939314
 21
9.9687728066
  0
LINE
  5
2CD
100
AcDbEntity
  8
0
100
AcDbLine
 62
4
  6
CONTINUOUS
 10
11.131396753
 20
7.1690273452
 11
11.124152309
 21
7.198507525
  0
LINE
  5
2CE
100
AcDbEntity
  8
0
100
AcDbLine
 62
4
  6
CONTINUOUS
 10
10.8589366455
 20
8.9301768243
 11
10.8589366455
 21
8.9467355527
  0
LINE
  5
2CF
100
AcDbEntity
  8
0
100
AcDbLine
 62
4
  6
CONTINUOUS
 10
10.8961937833
 20
9.2968526973
 11
10.8961937833
 21
9.1809415913
  0
LINE
  5
2D0
100
AcDbEntity
  8
0
100
AcDbLine
 62
4
  6
CONTINUOUS
 10
10.9003334948
 20
8.6060665908
 11
10.9003334948
 21
8.6888602382
  0
LINE
  5
2D1
100
AcDbEntity
  8
0
100
AcDbLine
 62
4
  6
CONTINUOUS
 10
10.9251715593
 20
8.8427897683
 11
10.9251715593
 21
8.9587008743
  0
LINE
  5
2D2
100
AcDbEntity
  8
0
100
AcDbLine
 62
4
  6
CONTINUOUS
 10
10.9348308187
 20
9.2362176568
 11
10.9348308187
 21
9.1782621038
  0
LINE
  5
2D3
100
AcDbEntity
  8
0
100
AcDbLine
 62
4
  6
CONTINUOUS
 10
10.9969260463
 20
8.5993678746
 11
10.9969260463
 21
8.682161522
  0
LINE
  5
2D4
100
AcDbEntity
  8
0
100
AcDbLine
 62
4
  6
CONTINUOUS
 10
10.9969260463
 20
8.682161522
 11
11.0134847678
 21
8.6975718992
  0
LINE
  5
2D5
100
AcDbEntity
  8
0
100
AcDbLine
 62
4
  6
CONTINUOUS
 10
11.0548815993
 20
8.5953486433
 11
11.0383228778
 21
8.5799382644
  0
LINE
  5
2D6
100
AcDbEntity
  8
0
100
AcDbLine
 62
4
  6
CONTINUOUS
 10
10.9168922163
 20
8.5883595094
 11
10.9003334948
 21
8.6060665908
  0
LINE
  5
2D7
100
AcDbEntity
  8
0
100
AcDbLine
 62
4
  6
CONTINUOUS
 10
11.031423407
 20
9.1715633851
 11
11.031423407
 21
9.2102004204
  0
LINE
  5
2D8
100
AcDbEntity
  8
0
100
AcDbLine
 62
4
  6
CONTINUOUS
 10
11.0548815993
 20
8.6781422908
 11
11.0548815993
 21
8.5953486433
  0
LINE
  5
2D9
100
AcDbEntity
  8
0
100
AcDbLine
 62
4
  6
CONTINUOUS
 10
11.0879990424
 20
8.5764932107
 11
11.0879990424
 21
8.6924043167
  0
LINE
  5
2DA
100
AcDbEntity
  8
0
100
AcDbLine
 62
4
  6
CONTINUOUS
 10
11.08937896
 20
9.2254997068
 11
11.08937896
 21
9.1675441538
  0
LINE
  5
2DB
100
AcDbEntity
  8
0
100
AcDbLine
 62
7
  6
CONTINUOUS
 10
11.1245682596
 20
6.8082446118
 11
11.1245682596
 21
6.4269207276
  0
LINE
  5
2DC
100
AcDbEntity
  8
0
100
AcDbLine
 62
4
  6
CONTINUOUS
 10
11.1280159954
 20
9.2228202193
 11
11.1280159954
 21
9.1648646663
  0
LINE
  5
2DD
100
AcDbEntity
  8
0
100
AcDbLine
 62
4
  6
CONTINUOUS
 10
11.1459545954
 20
8.671826357
 11
11.1459545954
 21
8.5890327096
  0
LINE
  5
2DE
100
AcDbEntity
  8
0
100
AcDbLine
 62
4
  6
CONTINUOUS
 10
11.1859715484
 20
9.160845435
 11
11.1859715484
 21
9.2188009881
  0
LINE
  5
2DF
100
AcDbEntity
  8
0
100
AcDbLine
 62
4
  6
CONTINUOUS
 10
11.1928710376
 20
8.5692203131
 11
11.1928710376
 21
8.6851314192
  0
LINE
  5
2E0
100
AcDbEntity
  8
0
100
AcDbLine
 62
4
  6
CONTINUOUS
 10
11.1965967487
 20
7.193483486
 11
11.1965967487
 21
7.1548464521
  0
LINE
  5
2E1
100
AcDbEntity
  8
0
100
AcDbLine
 62
4
  6
CONTINUOUS
 10
11.1459545954
 20
8.5890327096
 11
11.1293958739
 21
8.5736223307
  0
LINE
  5
2E2
100
AcDbEntity
  8
0
100
AcDbLine
 62
4
  6
CONTINUOUS
 10
11.3198212544
 20
8.6100924745
 11
11.2756646452
 21
8.5910764394
  0
LINE
  5
2E3
100
AcDbEntity
  8
0
100
AcDbLine
 62
4
  6
CONTINUOUS
 10
11.1293958739
 20
8.5736223307
 11
11.0879990424
 21
8.5764932107
  0
LINE
  5
2E4
100
AcDbEntity
  8
0
100
AcDbLine
 62
4
  6
CONTINUOUS
 10
11.0383228778
 20
8.5799382644
 11
11.0134847678
 21
8.5816607932
  0
LINE
  5
2E5
100
AcDbEntity
  8
0
100
AcDbLine
 62
4
  6
CONTINUOUS
 10
10.9500096594
 20
8.5860628069
 11
10.9168922163
 21
8.5883595094
  0
LINE
  5
2E6
100
AcDbEntity
  8
0
100
AcDbLine
 62
4
  6
CONTINUOUS
 10
10.4642869238
 20
8.619747793
 11
10.4228901062
 21
8.6226186721
  0
LINE
  5
2E7
100
AcDbEntity
  8
0
100
AcDbLine
 62
4
  6
CONTINUOUS
 10
10.7264668081
 20
8.6015655563
 11
10.7761430004
 21
8.5981205007
  0
LINE
  5
2E8
100
AcDbEntity
  8
0
100
AcDbLine
 62
4
  6
CONTINUOUS
 10
11.1928710376
 20
8.5692203131
 11
11.2425472022
 21
8.5657752594
  0
LINE
  5
2E9
100
AcDbEntity
  8
0
100
AcDbLine
 62
4
  6
CONTINUOUS
 10
10.5388012053
 20
8.6476976704
 11
10.5829578145
 21
8.6446353992
  0
LINE
  5
2EA
100
AcDbEntity
  8
0
100
AcDbLine
 62
4
  6
CONTINUOUS
 10
11.2259884806
 20
8.6331585313
 11
11.1928710376
 21
8.6354552338
  0
LINE
  5
2EB
100
AcDbEntity
  8
0
100
AcDbLine
 62
4
  6
CONTINUOUS
 10
10.7595842788
 20
8.6655037726
 11
10.7264668081
 21
8.667800477
  0
LINE
  5
2EC
100
AcDbEntity
  8
0
100
AcDbLine
 62
4
  6
CONTINUOUS
 10
10.4228901062
 20
8.7385297781
 11
10.4642869238
 21
8.7356588991
  0
LINE
  5
2ED
100
AcDbEntity
  8
0
100
AcDbLine
 62
4
  6
CONTINUOUS
 10
10.6271144236
 20
8.7243667736
 11
10.6933493374
 21
8.7197733667
  0
LINE
  5
2EE
100
AcDbEntity
  8
0
100
AcDbLine
 62
4
  6
CONTINUOUS
 10
10.7264668081
 20
8.7174766623
 11
10.7761430004
 21
8.7140316067
  0
LINE
  5
2EF
100
AcDbEntity
  8
0
100
AcDbLine
 62
4
  6
CONTINUOUS
 10
10.9168922163
 20
8.7042706154
 11
10.9500096594
 21
8.7019739129
  0
LINE
  5
2F0
100
AcDbEntity
  8
0
100
AcDbLine
 62
4
  6
CONTINUOUS
 10
11.0134847678
 20
8.6975718992
 11
11.0383228778
 21
8.6958493704
  0
LINE
  5
2F1
100
AcDbEntity
  8
0
100
AcDbLine
 62
4
  6
CONTINUOUS
 10
11.0879990424
 20
8.6924043167
 11
11.1293958739
 21
8.6895334367
  0
LINE
  5
2F2
100
AcDbEntity
  8
0
100
AcDbLine
 62
4
  6
CONTINUOUS
 10
11.1928710376
 20
8.6851314192
 11
11.2425472022
 21
8.6816863654
  0
LINE
  5
2F3
100
AcDbEntity
  8
0
100
AcDbLine
 62
4
  6
CONTINUOUS
 10
11.0134847678
 20
8.5816607932
 11
10.9969260463
 21
8.5993678746
  0
LINE
  5
2F4
100
AcDbEntity
  8
0
100
AcDbLine
 62
4
  6
CONTINUOUS
 10
11.0383228778
 20
8.6958493704
 11
11.0548815993
 21
8.6781422908
  0
LINE
  5
2F5
100
AcDbEntity
  8
0
100
AcDbLine
 62
4
  6
CONTINUOUS
 10
10.8589366455
 20
8.9467355527
 11
10.8423779101
 21
8.9644426333
  0
LINE
  5
2F6
100
AcDbEntity
  8
0
100
AcDbLine
 62
4
  6
CONTINUOUS
 10
11.2246085837
 20
9.1581659475
 11
11.2246085837
 21
9.2740770536
  0
LINE
  5
2F7
100
AcDbEntity
  8
0
100
AcDbLine
 62
7
  6
CONTINUOUS
 10
11.2376230716
 20
6.7383175774
 11
11.2376230716
 21
6.3177183517
  0
LINE
  5
2F8
100
AcDbEntity
  8
0
100
AcDbLine
 62
4
  6
CONTINUOUS
 10
11.2632456191
 20
9.15548646
 11
11.2632456191
 21
9.2134420131
  0
LINE
  5
2F9
100
AcDbEntity
  8
0
100
AcDbLine
 62
7
  6
CONTINUOUS
 10
11.2795032991
 20
6.7274781907
 11
11.2795032991
 21
6.3068789649
  0
LINE
  5
2FA
100
AcDbEntity
  8
0
100
AcDbLine
 62
4
  6
CONTINUOUS
 10
11.3018826544
 20
9.2107625256
 11
11.3018826544
 21
9.1528069725
  0
LINE
  5
2FB
100
AcDbEntity
  8
0
100
AcDbLine
 62
4
  6
CONTINUOUS
 10
12.1127774397
 20
8.8676467311
 11
12.1272663276
 21
8.8763011796
  0
LINE
  5
2FC
100
AcDbEntity
  8
0
100
AcDbLine
 62
4
  6
CONTINUOUS
 10
12.1562441035
 20
8.8259952686
 11
12.1272663276
 21
8.8086863681
  0
LINE
  5
2FD
100
AcDbEntity
  8
0
100
AcDbLine
 62
4
  6
CONTINUOUS
 10
10.8589366455
 20
8.8473831751
 11
10.8009810925
 21
8.8514024064
  0
LINE
  5
2FE
100
AcDbEntity
  8
0
100
AcDbLine
 62
4
  6
CONTINUOUS
 10
10.7181874433
 20
8.8571441654
 11
10.7678636321
 21
8.8536991101
  0
LINE
  5
2FF
100
AcDbEntity
  8
0
100
AcDbLine
 62
4
  6
CONTINUOUS
 10
12.1055329957
 20
8.7618972879
 11
12.1634885474
 21
8.7578780567
  0
LINE
  5
300
100
AcDbEntity
  8
0
100
AcDbLine
 62
4
  6
CONTINUOUS
 10
11.2756646452
 20
8.6352330538
 11
11.3198212544
 21
8.6100924745
  0
LINE
  5
301
100
AcDbEntity
  8
0
100
AcDbLine
 62
4
  6
CONTINUOUS
 10
9.5559717116
 20
9.8746922422
 11
9.5414828236
 21
9.8853563089
  0
LINE
  5
302
100
AcDbEntity
  8
0
100
AcDbLine
 62
4
  6
CONTINUOUS
 10
9.5704605995
 20
9.9413022425
 11
9.5849494874
 21
9.9306381784
  0
LINE
  5
303
100
AcDbEntity
  8
0
100
AcDbLine
 62
4
  6
CONTINUOUS
 10
9.5704605995
 20
9.9895985379
 11
9.5849494874
 21
9.9789344738
  0
LINE
  5
304
100
AcDbEntity
  8
0
100
AcDbLine
 62
4
  6
CONTINUOUS
 10
11.1293958739
 20
8.6895334367
 11
11.1459545954
 21
8.671826357
  0
LINE
  5
305
100
AcDbEntity
  8
0
100
AcDbLine
 62
4
  6
CONTINUOUS
 10
11.3984752428
 20
9.2040638068
 11
11.3984752428
 21
9.1750860303
  0
LINE
  5
306
100
AcDbEntity
  8
0
100
AcDbLine
 62
4
  6
CONTINUOUS
 10
11.4564307958
 20
9.171066799
 11
11.4564307958
 21
9.1420890225
  0
LINE
  5
307
100
AcDbEntity
  8
0
100
AcDbLine
 62
4
  6
CONTINUOUS
 10
11.124152309
 20
7.198507525
 11
11.131396753
 21
7.226982897
  0
LINE
  5
308
100
AcDbEntity
  8
0
100
AcDbLine
 62
7
  6
CONTINUOUS
 10
12.4340821603
 20
9.1332666546
 11
12.4334340104
 21
9.1326521268
  0
LINE
  5
309
100
AcDbEntity
  8
0
100
AcDbLine
 62
4
  6
CONTINUOUS
 10
10.7513049037
 20
8.9210823825
 11
10.7181874433
 21
8.9233790861
  0
LINE
  5
30A
100
AcDbEntity
  8
0
100
AcDbLine
 62
4
  6
CONTINUOUS
 10
10.8423779101
 20
8.9644426333
 11
10.8175398209
 21
8.9661651607
  0
LINE
  5
30B
100
AcDbEntity
  8
0
100
AcDbLine
 62
4
  6
CONTINUOUS
 10
10.7181874433
 20
8.9730552715
 11
10.7678636321
 21
8.9696102161
  0
LINE
  5
30C
100
AcDbEntity
  8
0
100
AcDbLine
 62
4
  6
CONTINUOUS
 10
10.8920541024
 20
8.9609975777
 11
10.9582890161
 21
8.9564041708
  0
LINE
  5
30D
100
AcDbEntity
  8
0
100
AcDbLine
 62
4
  6
CONTINUOUS
 10
12.1272663276
 20
8.8763011796
 11
12.1417552155
 21
8.8752963718
  0
LINE
  5
30E
100
AcDbEntity
  8
0
100
AcDbLine
 62
7
  6
CONTINUOUS
 10
11.701429278
 20
6.6982175246
 11
11.701429278
 21
6.2776182989
  0
LINE
  5
30F
100
AcDbEntity
  8
0
100
AcDbLine
 62
7
  6
CONTINUOUS
 10
11.7586387166
 20
6.7021850197
 11
11.7586387166
 21
6.281585794
  0
LINE
  5
310
100
AcDbEntity
  8
0
100
AcDbLine
 62
4
  6
CONTINUOUS
 10
12.1055329957
 20
8.8584898717
 11
12.1127774397
 21
8.8676467311
  0
LINE
  5
311
100
AcDbEntity
  8
0
100
AcDbLine
 62
4
  6
CONTINUOUS
 10
12.1272663276
 20
8.8086863681
 11
12.1127774397
 21
8.7903726598
  0
LINE
  5
312
100
AcDbEntity
  8
0
100
AcDbLine
 62
4
  6
CONTINUOUS
 10
12.1634885474
 20
8.8351521279
 11
12.1562441035
 21
8.8259952686
  0
LINE
  5
313
100
AcDbEntity
  8
0
100
AcDbLine
 62
4
  6
CONTINUOUS
 10
10.799601195
 20
9.129684757
 11
10.7609641596
 21
9.1323642446
  0
LINE
  5
314
100
AcDbEntity
  8
0
100
AcDbLine
 62
4
  6
CONTINUOUS
 10
11.4564307958
 20
9.1420890225
 11
11.3984752428
 21
9.1461082538
  0
LINE
  5
315
100
AcDbEntity
  8
0
100
AcDbLine
 62
4
  6
CONTINUOUS
 10
11.08937896
 20
9.1675441538
 11
11.031423407
 21
9.1715633851
  0
LINE
  5
316
100
AcDbEntity
  8
0
100
AcDbLine
 62
4
  6
CONTINUOUS
 10
10.8961937833
 20
9.1809415913
 11
10.8382382303
 21
9.1849608226
  0
LINE
  5
317
100
AcDbEntity
  8
0
100
AcDbLine
 62
4
  6
CONTINUOUS
 10
10.799601195
 20
9.1876403101
 11
10.741645642
 21
9.1916595413
  0
LINE
  5
318
100
AcDbEntity
  8
0
100
AcDbLine
 62
4
  6
CONTINUOUS
 10
10.4335152851
 20
9.2130284541
 11
10.3755597321
 21
9.2170476854
  0
LINE
  5
319
100
AcDbEntity
  8
0
100
AcDbLine
 62
4
  6
CONTINUOUS
 10
10.3465819556
 20
9.219057301
 11
10.2886264026
 21
9.2230765323
  0
LINE
  5
31A
100
AcDbEntity
  8
0
100
AcDbLine
 62
4
  6
CONTINUOUS
 10
11.1280159954
 20
9.1648646663
 11
11.1859715484
 21
9.160845435
  0
LINE
  5
31B
100
AcDbEntity
  8
0
100
AcDbLine
 62
4
  6
CONTINUOUS
 10
11.3018826544
 20
9.1528069725
 11
11.3598382074
 21
9.1487877413
  0
LINE
  5
31C
100
AcDbEntity
  8
0
100
AcDbLine
 62
4
  6
CONTINUOUS
 10
11.3984752428
 20
9.1750860303
 11
11.4564307958
 21
9.171066799
  0
LINE
  5
31D
100
AcDbEntity
  8
0
100
AcDbLine
 62
4
  6
CONTINUOUS
 10
11.031423407
 20
9.2102004204
 11
11.08937896
 21
9.2061811891
  0
LINE
  5
31E
100
AcDbEntity
  8
0
100
AcDbLine
 62
4
  6
CONTINUOUS
 10
11.08937896
 20
9.2254997068
 11
11.0507419247
 21
9.2281791943
  0
LINE
  5
31F
100
AcDbEntity
  8
0
100
AcDbLine
 62
4
  6
CONTINUOUS
 10
10.6943152737
 20
9.2528974665
 11
10.6363597207
 21
9.2569166978
  0
LINE
  5
320
100
AcDbEntity
  8
0
100
AcDbLine
 62
4
  6
CONTINUOUS
 10
10.2886264026
 20
9.2810320853
 11
10.3465819556
 21
9.277012854
  0
LINE
  5
321
100
AcDbEntity
  8
0
100
AcDbLine
 62
4
  6
CONTINUOUS
 10
10.8382382303
 20
9.2429163756
 11
10.8961937833
 21
9.2388971443
  0
LINE
  5
322
100
AcDbEntity
  8
0
100
AcDbLine
 62
4
  6
CONTINUOUS
 10
10.9348308187
 20
9.2362176568
 11
10.9927863717
 21
9.2321984256
  0
LINE
  5
323
100
AcDbEntity
  8
0
100
AcDbLine
 62
4
  6
CONTINUOUS
 10
11.3018826544
 20
9.2107625256
 11
11.3598382074
 21
9.2067432943
  0
LINE
  5
324
100
AcDbEntity
  8
0
100
AcDbLine
 62
4
  6
CONTINUOUS
 10
11.3984752428
 20
9.2040638068
 11
11.4564307958
 21
9.2000445755
  0
LINE
  5
325
100
AcDbEntity
  8
0
100
AcDbLine
 62
4
  6
CONTINUOUS
 10
11.2560011749
 20
9.2429221935
 11
11.2704900632
 21
9.2419173857
  0
LINE
  5
326
100
AcDbEntity
  8
0
100
AcDbLine
 62
4
  6
CONTINUOUS
 10
11.131396753
 20
7.226982897
 11
11.1458856409
 21
7.2452966087
  0
LINE
  5
327
100
AcDbEntity
  8
0
100
AcDbLine
 62
4
  6
CONTINUOUS
 10
10.3465819556
 20
9.334968407
 11
10.2886264026
 21
9.3389876383
  0
LINE
  5
328
100
AcDbEntity
  8
0
100
AcDbLine
 62
4
  6
CONTINUOUS
 10
10.4624930616
 20
9.3269299445
 11
10.5204486146
 21
9.3229107133
  0
LINE
  5
329
100
AcDbEntity
  8
0
100
AcDbLine
 62
7
  6
CONTINUOUS
 10
12.0675098836
 20
6.7428513881
 11
12.0675098836
 21
6.3615275038
  0
LINE
  5
32A
100
AcDbEntity
  8
0
100
AcDbLine
 62
7
  6
CONTINUOUS
 10
12.0828390948
 20
6.7417883037
 11
12.0828390948
 21
6.3763343857
  0
LINE
  5
32B
100
AcDbEntity
  8
0
100
AcDbLine
 62
4
  6
CONTINUOUS
 10
12.1127774397
 20
8.7903726598
 11
12.1055329957
 21
8.7618972879
  0
LINE
  5
32C
100
AcDbEntity
  8
0
100
AcDbLine
 62
4
  6
CONTINUOUS
 10
11.1965967487
 20
7.1548464521
 11
11.1893523047
 21
7.1456895971
  0
LINE
  5
32D
100
AcDbEntity
  8
0
100
AcDbLine
 62
4
  6
CONTINUOUS
 10
12.1417552155
 20
8.8752963718
 11
12.1562441035
 21
8.8646323077
  0
LINE
  5
32E
100
AcDbEntity
  8
0
100
AcDbLine
 62
4
  6
CONTINUOUS
 10
12.1634885474
 20
8.8544706406
 11
12.1634885474
 21
8.8351521279
  0
LINE
  5
32F
100
AcDbEntity
  8
0
100
AcDbLine
 62
7
  6
CONTINUOUS
 10
12.2871270556
 20
6.7276208855
 11
12.2871270556
 21
10.2291022132
  0
LINE
  5
330
100
AcDbEntity
  8
0
100
AcDbLine
 62
4
  6
CONTINUOUS
 10
11.1458856409
 20
7.2452966087
 11
11.1603745288
 21
7.2539510572
  0
LINE
  5
331
100
AcDbEntity
  8
0
100
AcDbLine
 62
4
  6
CONTINUOUS
 10
11.1893523047
 20
7.1456895971
 11
11.1748634168
 21
7.137035146
  0
LINE
  5
332
100
AcDbEntity
  8
0
100
AcDbLine
 62
4
  6
CONTINUOUS
 10
9.5704605995
 20
9.8736874344
 11
9.5559717116
 21
9.8746922422
  0
LINE
  5
333
100
AcDbEntity
  8
0
100
AcDbLine
 62
4
  6
CONTINUOUS
 10
12.1562441035
 20
8.8646323077
 11
12.1634885474
 21
8.8544706406
  0
LINE
  5
334
100
AcDbEntity
  8
0
100
AcDbLine
 62
4
  6
CONTINUOUS
 10
9.5559717116
 20
9.9423070503
 11
9.5704605995
 21
9.9413022425
  0
LINE
  5
335
100
AcDbEntity
  8
0
100
AcDbLine
 62
4
  6
CONTINUOUS
 10
9.5559717116
 20
9.9906033457
 11
9.5704605995
 21
9.9895985379
  0
LINE
  5
336
100
AcDbEntity
  8
0
100
AcDbLine
 62
7
  6
CONTINUOUS
 10
12.610650595
 20
7.0401206461
 11
12.610650595
 21
10.5416019738
  0
LINE
  5
337
100
AcDbEntity
  8
0
100
AcDbLine
 62
7
  6
CONTINUOUS
 10
9.389349405
 20
10.4300637758
 11
12.2871270556
 21
10.2291022132
  0
LINE
  5
338
100
AcDbEntity
  8
0
100
AcDbLine
 62
7
  6
CONTINUOUS
 10
12.2871270556
 20
6.7276208855
 11
12.610650595
 21
7.0401206461
  0
LINE
  5
339
100
AcDbEntity
  8
0
100
AcDbLine
 62
7
  6
CONTINUOUS
 10
12.610650595
 20
10.5416019738
 11
9.7128729444
 21
10.7425635365
  0
LINE
  5
33A
100
AcDbEntity
  8
0
100
AcDbLine
 62
7
  6
CONTINUOUS
 10
12.0097556245
 20
6.3295051128
 11
11.984590015
 21
6.3170737835
  0
ARC
  5
33B
100
AcDbEntity
  8
0
100
AcDbCircle
 62
7
  6
CONTINUOUS
 10
11.6115059339
 20
8.4093209719
 40
1.7134646816
100
AcDbArc
 50
273.0082884861
 51
274.9259735842
  0
ARC
  5
33C
100
AcDbEntity
  8
0
100
AcDbCircle
 62
7
  6
CONTINUOUS
 10
11.6115059339
 20
7.9887217461
 40
1.7134646816
100
AcDbArc
 50
273.0082884861
 51
274.9259735842
  0
ARC
  5
33D
100
AcDbEntity
  8
0
100
AcDbCircle
 62
7
  6
CONTINUOUS
 10
11.7472714954
 20
6.860440605
 40
0.5922756118
100
AcDbArc
 50
293.5909107106
 51
296.3039528614
  0
ARC
  5
33E
100
AcDbEntity
  8
0
100
AcDbCircle
 62
7
  6
CONTINUOUS
 10
12.3892187102
 20
8.6589610447
 40
0.0147419602
100
AcDbArc
 50
259.7519897449
 51
266.0296694811
  0
ARC
  5
33F
100
AcDbEntity
  8
0
100
AcDbCircle
 62
7
  6
CONTINUOUS
 10
12.4196953688
 20
9.0984231531
 40
0.014740421
100
AcDbArc
 50
86.0355316287
 51
92.346948351
  0
SPLINE
  5
340
100
AcDbEntity
  8
0
100
AcDbSpline
 62
7
  6
CONTINUOUS
 70
0
 71
3
 72
9
 73
5
 74
0
 42
0.0000001
 43
0.0000001
 44
0.0000000001
 40
0.0
 40
0.0
 40
0.0
 40
0.0
 40
0.4865082157
 40
1.0
 40
1.0
 40
1.0
 40
1.0
 10
12.0760414342
 20
6.3688708219
 30
0.0
 10
12.0747279642
 20
6.3676021072
 30
0.0
 10
12.0719468229
 20
6.3650777023
 30
0.0
 10
12.0690335169
 20
6.3627079979
 30
0.0
 10
12.0675098836
 20
6.3615275038
 30
0.0
  0
SPLINE
  5
341
100
AcDbEntity
  8
0
100
AcDbSpline
 62
7
  6
CONTINUOUS
 70
0
 71
3
 72
9
 73
5
 74
0
 42
0.0000001
 43
0.0000001
 44
0.0000000001
 40
0.0
 40
0.0
 40
0.0
 40
0.0
 40
0.4864210225
 40
1.0
 40
1.0
 40
1.0
 40
1.0
 10
12.0828390948
 20
6.3763343857
 30
0.0
 10
12.0818253878
 20
6.3750480356
 30
0.0
 10
12.0796388976
 20
6.3724832508
 30
0.0
 10
12.0772851785
 20
6.3700721867
 30
0.0
 10
12.0760414342
 20
6.3688708219
 30
0.0
  0
SPLINE
  5
342
100
AcDbEntity
  8
0
100
AcDbSpline
 62
7
  6
CONTINUOUS
 70
0
 71
3
 72
9
 73
5
 74
0
 42
0.0000001
 43
0.0000001
 44
0.0000000001
 40
0.0
 40
0.0
 40
0.0
 40
0.0
 40
0.503991706
 40
1.0
 40
1.0
 40
1.0
 40
1.0
 10
12.0675098836
 20
6.3615275038
 30
0.0
 10
12.0580365361
 20
6.3557386286
 30
0.0
 10
12.0390211191
 20
6.3446054483
 30
0.0
 10
12.0195244542
 20
6.3343309348
 30
0.0
 10
12.0097283871
 20
6.3294916617
 30
0.0
  0
SPLINE
  5
343
100
AcDbEntity
  8
0
100
AcDbSpline
 62
7
  6
CONTINUOUS
 70
0
 71
3
 72
23
 73
19
 74
0
 42
0.0000001
 43
0.0000001
 44
0.0000000001
 40
0.0
 40
0.0
 40
0.0
 40
0.0
 40
0.0439943064
 40
0.0899281819
 40
0.1380403338
 40
0.1885309998
 40
0.2415683448
 40
0.2972701743
 40
0.3557174883
 40
0.4169406608
 40
0.4809367475
 40
0.5476614984
 40
0.617045644
 40
0.688992165
 40
0.7633891149
 40
0.8401121098
 40
0.9190285012
 40
1.0
 40
1.0
 40
1.0
 40
1.0
 10
11.206515405
 20
6.3251266269
 30
0.0
 10
11.2047715237
 20
6.3259880864
 30
0.0
 10
11.201271393
 20
6.3278823931
 30
0.0
 10
11.1961149208
 20
6.3311550678
 30
0.0
 10
11.1909515278
 20
6.3349271652
 30
0.0
 10
11.1857838084
 20
6.3392040315
 30
0.0
 10
11.1806159683
 20
6.3439892678
 30
0.0
 10
11.1754500776
 20
6.3492798771
 30
0.0
 10
11.1702904092
 20
6.3550705141
 30
0.0
 10
11.1651388447
 20
6.3613499503
 30
0.0
 10
11.1599991712
 20
6.3681047078
 30
0.0
 10
11.1548730069
 20
6.3753168728
 30
0.0
 10
11.1497632772
 20
6.3829669071
 30
0.0
 10
11.1446712101
 20
6.3910325911
 30
0.0
 10
11.1395986736
 20
6.3994910486
 30
0.0
 10
11.1345464214
 20
6.408318364
 30
0.0
 10
11.1295153937
 20
6.4174905993
 30
0.0
 10
11.1262163251
 20
6.4237427794
 30
0.0
 10
11.1245682596
 20
6.4269207276
 30
0.0
  0
SPLINE
  5
344
100
AcDbEntity
  8
0
100
AcDbSpline
 62
7
  6
CONTINUOUS
 70
0
 71
3
 72
46
 73
42
 74
0
 42
0.0000001
 43
0.0000001
 44
0.0000000001
 40
0.0
 40
0.0
 40
0.0
 40
0.0
 40
0.0099874435
 40
0.0204476157
 40
0.0313771114
 40
0.0427707225
 40
0.054621686
 40
0.0669224317
 40
0.0796639566
 40
0.0928360449
 40
0.1204269131
 40
0.1495981875
 40
0.1802403745
 40
0.2122335405
 40
0.2454486791
 40
0.2797494061
 40
0.3149926211
 40
0.3510295021
 40
0.387706851
 40
0.4248677397
 40
0.4623524596
 40
0.499999592
 40
0.537646712
 40
0.5751314595
 40
0.6122923998
 40
0.6489698028
 40
0.6850067986
 40
0.7202500982
 40
0.7545508962
 40
0.7877662248
 40
0.8197595459
 40
0.8504018313
 40
0.8795733387
 40
0.9071643906
 40
0.9330770134
 40
0.9453779539
 40
0.9572290359
 40
0.9686226679
 40
0.9795523026
 40
0.9900125123
 40
1.0
 40
1.0
 40
1.0
 40
1.0
 10
11.9845935448
 20
6.3170755709
 30
0.0
 10
11.9822765659
 20
6.3159310098
 30
0.0
 10
11.9774933731
 20
6.3136671598
 30
0.0
 10
11.9700538708
 20
6.3104135005
 30
0.0
 10
11.9621913311
 20
6.307227043
 30
0.0
 10
11.9539148968
 20
6.3041114836
 30
0.0
 10
11.9452340775
 20
6.3010702178
 30
0.0
 10
11.9361587631
 20
6.2981069844
 30
0.0
 10
11.9266993856
 20
6.2952251118
 30
0.0
 10
11.913382749
 20
6.2914367828
 30
0.0
 10
11.8958493845
 20
6.2869466232
 30
0.0
 10
11.8737751165
 20
6.2820123505
 30
0.0
 10
11.8504544306
 20
6.2774755337
 30
0.0
 10
11.8259948337
 20
6.2733573945
 30
0.0
 10
11.8005089302
 20
6.2696770924
 30
0.0
 10
11.7741142258
 20
6.266451958
 30
0.0
 10
11.7469324796
 20
6.2636971329
 30
0.0
 10
11.719089182
 20
6.2614253426
 30
0.0
 10
11.6907128957
 20
6.259647293
 30
0.0
 10
11.6619346625
 20
6.2583713529
 30
0.0
 10
11.6328874167
 20
6.2576033315
 30
0.0
 10
11.6037053518
 20
6.2573468866
 30
0.0
 10
11.5745232798
 20
6.257603296
 30
0.0
 10
11.545476014
 20
6.2583712137
 30
0.0
 10
11.516697744
 20
6.2596471135
 30
0.0
 10
11.4883213993
 20
6.2614251364
 30
0.0
 10
11.4604780276
 20
6.2636968235
 30
0.0
 10
11.4332962066
 20
6.2664516069
 30
0.0
 10
11.406901409
 20
6.2696767239
 30
0.0
 10
11.3814153879
 20
6.2733569283
 30
0.0
 10
11.3569556485
 20
6.2774750206
 30
0.0
 10
11.3336348986
 20
6.2820118529
 30
0.0
 10
11.311560252
 20
6.2869459729
 30
0.0
 10
11.2908333129
 20
6.2922542855
 30
0.0
 10
11.2744906424
 20
6.2970486475
 30
0.0
 10
11.2621753032
 20
6.3010694894
 30
0.0
 10
11.2534943792
 20
6.3041107721
 30
0.0
 10
11.2452178902
 20
6.307226376
 30
0.0
 10
11.2373552501
 20
6.3104127228
 30
0.0
 10
11.2299156633
 20
6.3136663338
 30
0.0
 10
11.2251324562
 20
6.3159302035
 30
0.0
 10
11.2228154642
 20
6.3170747636
 30
0.0
  0
SPLINE
  5
345
100
AcDbEntity
  8
0
100
AcDbSpline
 62
7
  6
CONTINUOUS
 70
0
 71
3
 72
9
 73
5
 74
0
 42
0.0000001
 43
0.0000001
 44
0.0000000001
 40
0.0
 40
0.0
 40
0.0
 40
0.0
 40
0.5132482879
 40
1.0
 40
1.0
 40
1.0
 40
1.0
 10
11.2795032991
 20
6.7274781907
 30
0.0
 10
11.2722885177
 20
6.7291318866
 30
0.0
 10
11.2582722734
 20
6.7325357461
 30
0.0
 10
11.2443609716
 20
6.7363484064
 30
0.0
 10
11.2376230716
 20
6.7383175774
 30
0.0
  0
SPLINE
  5
346
100
AcDbEntity
  8
0
100
AcDbSpline
 62
7
  6
CONTINUOUS
 70
0
 71
3
 72
17
 73
13
 74
0
 42
0.0000001
 43
0.0000001
 44
0.0000000001
 40
0.0
 40
0.0
 40
0.0
 40
0.0
 40
0.131593939
 40
0.2633887997
 40
0.3943193775
 40
0.5233296479
 40
0.64938366
 40
0.7714770019
 40
0.8307377895
 40
0.888652
 40
0.9451084391
 40
1.0
 40
1.0
 40
1.0
 40
1.0
 10
11.6509171416
 20
6.771663033
 30
0.0
 10
11.6376837352
 20
6.7712824107
 30
0.0
 10
11.6111863355
 20
6.7708439807
 30
0.0
 10
11.571513701
 20
6.7711407118
 30
0.0
 10
11.532119287
 20
6.7723870274
 30
0.0
 10
11.493344057
 20
6.7745718898
 30
0.0
 10
11.4555234611
 20
6.7776761
 30
0.0
 10
11.4247757681
 20
6.7810385203
 30
0.0
 10
11.4009098147
 20
6.7841823056
 30
0.0
 10
11.3836274525
 20
6.7867274356
 30
0.0
 10
11.3668218134
 20
6.7894775502
 30
0.0
 10
11.3557982106
 20
6.7914728815
 30
0.0
 10
11.3503733628
 20
6.7925058149
 30
0.0
  0
SPLINE
  5
347
100
AcDbEntity
  8
0
100
AcDbSpline
 62
7
  6
CONTINUOUS
 70
0
 71
3
 72
9
 73
5
 74
0
 42
0.0000001
 43
0.0000001
 44
0.0000000001
 40
0.0
 40
0.0
 40
0.0
 40
0.0
 40
0.5132482879
 40
1.0
 40
1.0
 40
1.0
 40
1.0
 10
11.2795032991
 20
6.3068789649
 30
0.0
 10
11.2722885177
 20
6.3085326609
 30
0.0
 10
11.2582722734
 20
6.3119365203
 30
0.0
 10
11.2443609716
 20
6.3157491807
 30
0.0
 10
11.2376230716
 20
6.3177183517
 30
0.0
  0
SPLINE
  5
348
100
AcDbEntity
  8
0
100
AcDbSpline
 62
7
  6
CONTINUOUS
 70
0
 71
3
 72
11
 73
7
 74
0
 42
0.0000001
 43
0.0000001
 44
0.0000000001
 40
0.0
 40
0.0
 40
0.0
 40
0.0
 40
0.2432253995
 40
0.4912799274
 40
0.7437055985
 40
1.0
 40
1.0
 40
1.0
 40
1.0
 10
11.8360239493
 20
6.7590337364
 30
0.0
 10
11.8293071172
 20
6.7550779632
 30
0.0
 10
11.8159788569
 20
6.7466771342
 30
0.0
 10
11.7964969748
 20
6.7329302399
 30
0.0
 10
11.7773259526
 20
6.7180620183
 30
0.0
 10
11.7648389603
 20
6.7075726289
 30
0.0
 10
11.7586387166
 20
6.7021850197
 30
0.0
  0
SPLINE
  5
349
100
AcDbEntity
  8
0
100
AcDbSpline
 62
7
  6
CONTINUOUS
 70
0
 71
3
 72
21
 73
17
 74
0
 42
0.0000001
 43
0.0000001
 44
0.0000000001
 40
0.0
 40
0.0
 40
0.0
 40
0.0
 40
0.1230814817
 40
0.1847942657
 40
0.2466337258
 40
0.3086097846
 40
0.3707312098
 40
0.4330051319
 40
0.4954352436
 40
0.5580223626
 40
0.6207641208
 40
0.6836547008
 40
0.7466862848
 40
0.8098488395
 40
0.8731308835
 40
1.0
 40
1.0
 40
1.0
 40
1.0
 10
11.701429278
 20
6.2776182989
 30
0.0
 10
11.6841766374
 20
6.2743659155
 30
0.0
 10
11.6581454998
 20
6.270115197
 30
0.0
 10
11.6232089096
 20
6.2659478476
 30
0.0
 10
11.596842212
 20
6.2636258012
 30
0.0
 10
11.5703551452
 20
6.2621661011
 30
0.0
 10
11.5437710861
 20
6.2616159593
 30
0.0
 10
11.5171192218
 20
6.2620123909
 30
0.0
 10
11.4904327289
 20
6.2633773786
 30
0.0
 10
11.4637469571
 20
6.2657162021
 30
0.0
 10
11.437097254
 20
6.2690184914
 30
0.0
 10
11.4105165899
 20
6.2732575111
 30
0.0
 10
11.3840337466
 20
6.2783921523
 30
0.0
 10
11.3576718692
 20
6.2843719002
 30
0.0
 10
11.3226811947
 20
6.2934010198
 30
0.0
 10
11.2967027362
 20
6.3012510411
 30
0.0
 10
11.2795032991
 20
6.3068789649
 30
0.0
  0
SPLINE
  5
34A
100
AcDbEntity
  8
0
100
AcDbSpline
 62
7
  6
CONTINUOUS
 70
0
 71
3
 72
28
 73
24
 74
0
 42
0.0000001
 43
0.0000001
 44
0.0000000001
 40
0.0
 40
0.0
 40
0.0
 40
0.0
 40
0.0640274484
 40
0.1279405369
 40
0.1917105404
 40
0.2553123355
 40
0.3187161223
 40
0.3818930725
 40
0.4133919091
 40
0.4448254452
 40
0.4761912782
 40
0.5074882562
 40
0.5387156619
 40
0.5698732312
 40
0.6009621492
 40
0.6319833386
 40
0.6938248821
 40
0.7554274775
 40
0.8168179251
 40
0.8780243018
 40
0.9085700262
 40
0.9390802882
 40
1.0
 40
1.0
 40
1.0
 40
1.0
 10
11.701429278
 20
6.6982175246
 30
0.0
 10
11.6931284273
 20
6.7025006483
 30
0.0
 10
11.6763973676
 20
6.7107840356
 30
0.0
 10
11.6508782013
 20
6.722246022
 30
0.0
 10
11.624954423
 20
6.7326002844
 30
0.0
 10
11.5986412479
 20
6.7417023404
 30
0.0
 10
11.5719734182
 20
6.7494058148
 30
0.0
 10
11.5494779861
 20
6.7545500467
 30
0.0
 10
11.531373914
 20
6.7578371021
 30
0.0
 10
11.5177666586
 20
6.7598758288
 30
0.0
 10
11.504131331
 20
6.761482506
 30
0.0
 10
11.4904814799
 20
6.7626495829
 30
0.0
 10
11.4768315465
 20
6.7633767327
 30
0.0
 10
11.4631956391
 20
6.7636622651
 30
0.0
 10
11.4495875897
 20
6.7635117916
 30
0.0
 10
11.4315187653
 20
6.762738516
 30
0.0
 10
11.4090592758
 20
6.7607231122
 30
0.0
 10
11.382378319
 20
6.7567220057
 30
0.0
 10
11.3560519573
 20
6.7512712914
 30
0.0
 10
11.3344234847
 20
6.7456354665
 30
0.0
 10
11.3173278898
 20
6.7405441084
 30
0.0
 10
11.3003873686
 20
6.7350938803
 30
0.0
 10
11.2878185241
 20
6.7306154057
 30
0.0
 10
11.2795032991
 20
6.7274781907
 30
0.0
  0
SPLINE
  5
34B
100
AcDbEntity
  8
0
100
AcDbSpline
 62
7
  6
CONTINUOUS
 70
0
 71
3
 72
13
 73
9
 74
0
 42
0.0000001
 43
0.0000001
 44
0.0000000001
 40
0.0
 40
0.0
 40
0.0
 40
0.0
 40
0.2392401476
 40
0.3604630295
 40
0.4832816768
 40
0.6081576999
 40
0.7355839368
 40
1.0
 40
1.0
 40
1.0
 40
1.0
 10
11.2376230716
 20
6.3177183517
 30
0.0
 10
11.2350510601
 20
6.3177275038
 30
0.0
 10
11.2311718337
 20
6.3179463957
 30
0.0
 10
11.2260254741
 20
6.3186752135
 30
0.0
 10
11.2221347149
 20
6.3194569521
 30
0.0
 10
11.2182316966
 20
6.3204816833
 30
0.0
 10
11.2129484779
 20
6.3222058881
 30
0.0
 10
11.2090640815
 20
6.3238676069
 30
0.0
 10
11.206515405
 20
6.3251266269
 30
0.0
  0
SPLINE
  5
34C
100
AcDbEntity
  8
0
100
AcDbSpline
 62
7
  6
CONTINUOUS
 70
0
 71
3
 72
14
 73
10
 74
0
 42
0.0000001
 43
0.0000001
 44
0.0000000001
 40
0.0
 40
0.0
 40
0.0
 40
0.0
 40
0.2696294493
 40
0.4000826278
 40
0.5273422312
 40
0.6511852899
 40
0.7713928731
 40
0.8877388029
 40
1.0
 40
1.0
 40
1.0
 40
1.0
 10
11.2376230716
 20
6.7383175774
 30
0.0
 10
11.2353828618
 20
6.7442155809
 30
0.0
 10
11.2319718618
 20
6.7529348182
 30
0.0
 10
11.2272606745
 20
6.7643397509
 30
0.0
 10
11.2237380573
 20
6.7725439083
 30
0.0
 10
11.2201874299
 20
6.7804740638
 30
0.0
 10
11.2166091507
 20
6.78811078
 30
0.0
 10
11.2130041011
 20
6.7954340503
 30
0.0
 10
11.2105379331
 20
6.8001815081
 30
0.0
 10
11.2092980831
 20
6.8024973189
 30
0.0
  0
SPLINE
  5
34D
100
AcDbEntity
  8
0
100
AcDbSpline
 62
7
  6
CONTINUOUS
 70
0
 71
3
 72
15
 73
11
 74
0
 42
0.0000001
 43
0.0000001
 44
0.0000000001
 40
0.0
 40
0.0
 40
0.0
 40
0.0
 40
0.1319943798
 40
0.2615530082
 40
0.3887795478
 40
0.5138991626
 40
0.6372282088
 40
0.759125931
 40
0.8799459217
 40
1.0
 40
1.0
 40
1.0
 40
1.0
 10
11.9843023616
 20
6.3176636997
 30
0.0
 10
11.9749803544
 20
6.3136014175
 30
0.0
 10
11.9562794724
 20
6.3060622345
 30
0.0
 10
11.9278409127
 20
6.2966007939
 30
0.0
 10
11.8993449249
 20
6.2891874183
 30
0.0
 10
11.8708764255
 20
6.283848544
 30
0.0
 10
11.8425164758
 20
6.2805336715
 30
0.0
 10
11.8143322091
 20
6.2791257434
 30
0.0
 10
11.7863710472
 20
6.2794610795
 30
0.0
 10
11.7678474202
 20
6.2807254085
 30
0.0
 10
11.7586387166
 20
6.281585794
 30
0.0
  0
SPLINE
  5
34E
100
AcDbEntity
  8
0
100
AcDbSpline
 62
7
  6
CONTINUOUS
 70
0
 71
3
 72
86
 73
82
 74
0
 42
0.0000001
 43
0.0000001
 44
0.0000000001
 40
0.0
 40
0.0
 40
0.0
 40
0.0
 40
0.0039801735
 40
0.0081241171
 40
0.0124359931
 40
0.016919361
 40
0.0215772361
 40
0.0264119817
 40
0.0314252561
 40
0.0366182449
 40
0.0419916453
 40
0.0475457694
 40
0.0532805541
 40
0.0591955582
 40
0.0652900785
 40
0.0715630739
 40
0.0846387684
 40
0.0984101018
 40
0.112860694
 40
0.1279712428
 40
0.1437198619
 40
0.1600823544
 40
0.1770324406
 40
0.1945419645
 40
0.2125810668
 40
0.2311183398
 40
0.2501209668
 40
0.2695548486
 40
0.289384725
 40
0.3095742955
 40
0.3300863312
 40
0.3508827821
 40
0.3719248818
 40
0.3931732491
 40
0.4145879914
 40
0.4577543474
 40
0.501099203
 40
0.5442952951
 40
0.5657359749
 40
0.587017582
 40
0.6081001434
 40
0.6289441761
 40
0.6495107926
 40
0.6697618048
 40
0.6896598276
 40
0.709168385
 40
0.7282520204
 40
0.7468764117
 40
0.7650084972
 40
0.7826166038
 40
0.7996705814
 40
0.8161419537
 40
0.8320040874
 40
0.8472323859
 40
0.8618045214
 40
0.8757007003
 40
0.8889039845
 40
0.9014006969
 40
0.9073810972
 40
0.9131815075
 40
0.9188013673
 40
0.9242405009
 40
0.9294990443
 40
0.9345775709
 40
0.9394770909
 40
0.9441990928
 40
0.9487456636
 40
0.9531194621
 40
0.9573238984
 40
0.9613631411
 40
0.9652422549
 40
0.9689673208
 40
0.9725454977
 40
0.9759852252
 40
0.9824864215
 40
0.9855752926
 40
0.9885737717
 40
0.9914977072
 40
0.9943643167
 40
0.9971920017
 40
1.0
 40
1.0
 40
1.0
 40
1.0
 10
11.211537751
 20
10.471162682
 30
0.0
 10
11.2105474736
 20
10.4702061474
 30
0.0
 10
11.2084812003
 20
10.4682998394
 30
0.0
 10
11.2052005885
 20
10.4655155259
 30
0.0
 10
11.2016790656
 20
10.4627511735
 30
0.0
 10
11.1979185647
 20
10.4600082714
 30
0.0
 10
11.1939209324
 20
10.4572880874
 30
0.0
 10
11.1896881134
 20
10.4545919586
 30
0.0
 10
11.1852222295
 20
10.4519211587
 30
0.0
 10
11.180525494
 20
10.4492770777
 30
0.0
 10
11.1756002762
 20
10.4466610006
 30
0.0
 10
11.1704490351
 20
10.4440742448
 30
0.0
 10
11.1650743467
 20
10.4415181195
 30
0.0
 10
11.1594789212
 20
10.4389938803
 30
0.0
 10
11.1536655501
 20
10.4365028261
 30
0.0
 10
11.1455146947
 20
10.4331813251
 30
0.0
 10
11.1347956366
 20
10.4291304342
 30
0.0
 10
11.1212841448
 20
10.4244860288
 30
0.0
 10
11.1069790132
 20
10.4200028835
 30
0.0
 10
11.0919090826
 20
10.4156901105
 30
0.0
 10
11.0761046041
 20
10.4115564893
 30
0.0
 10
11.0595974146
 20
10.4076104399
 30
0.0
 10
11.0424207938
 20
10.403859998
 30
0.0
 10
11.0246094063
 20
10.4003128028
 30
0.0
 10
11.0061992181
 20
10.3969760794
 30
0.0
 10
10.9872274216
 20
10.3938566235
 30
0.0
 10
10.9677323582
 20
10.3909607883
 30
0.0
 10
10.9477534403
 20
10.3882944699
 30
0.0
 10
10.9273310698
 20
10.3858630918
 30
0.0
 10
10.9065065521
 20
10.3836716003
 30
0.0
 10
10.8853220111
 20
10.3817244537
 30
0.0
 10
10.863820299
 20
10.3800256116
 30
0.0
 10
10.8420449266
 20
10.378578537
 30
0.0
 10
10.8200399142
 20
10.3773861495
 30
0.0
 10
10.790375773
 20
10.3761359649
 30
0.0
 10
10.7530495898
 20
10.3752278845
 30
0.0
 10
10.7081778065
 20
10.375180538
 30
0.0
 10
10.6708305327
 20
10.3760096928
 30
0.0
 10
10.6411330244
 20
10.3771968624
 30
0.0
 10
10.6190910254
 20
10.3783426507
 30
0.0
 10
10.5972705997
 20
10.3797436032
 30
0.0
 10
10.5757158599
 20
10.3813968972
 30
0.0
 10
10.5544704259
 20
10.3832991641
 30
0.0
 10
10.5335772742
 20
10.3854465342
 30
0.0
 10
10.5130786671
 20
10.3878346382
 30
0.0
 10
10.4930160638
 20
10.3904586175
 30
0.0
 10
10.4734300363
 20
10.3933131327
 30
0.0
 10
10.454360185
 20
10.3963923762
 30
0.0
 10
10.4358450539
 20
10.3996900779
 30
0.0
 10
10.4179220497
 20
10.4031995202
 30
0.0
 10
10.4006273658
 20
10.4069135545
 30
0.0
 10
10.3839959063
 20
10.410824615
 30
0.0
 10
10.3680612119
 20
10.4149247352
 30
0.0
 10
10.3528553769
 20
10.4192055672
 30
0.0
 10
10.3384089954
 20
10.4236583954
 30
0.0
 10
10.3247510057
 20
10.4282741661
 30
0.0
 10
10.311908908
 20
10.4330435086
 30
0.0
 10
10.3017648118
 20
10.4371965018
 30
0.0
 10
10.2940851939
 20
10.4405961683
 30
0.0
 10
10.2886298858
 20
10.4431408489
 30
0.0
 10
10.2833970669
 20
10.4457166238
 30
0.0
 10
10.2783893375
 20
10.4483221741
 30
0.0
 10
10.2736092216
 20
10.4509562287
 30
0.0
 10
10.2690591028
 20
10.453617455
 30
0.0
 10
10.2647412477
 20
10.4563045224
 30
0.0
 10
10.2606578263
 20
10.4590161372
 30
0.0
 10
10.256810843
 20
10.4617509169
 30
0.0
 10
10.2532022421
 20
10.464507586
 30
0.0
 10
10.249833791
 20
10.4672847751
 30
0.0
 10
10.2467071837
 20
10.4700811742
 30
0.0
 10
10.2438239816
 20
10.4728955093
 30
0.0
 10
10.241185675
 20
10.4757263444
 30
0.0
 10
10.2387934619
 20
10.4785727833
 30
0.0
 10
10.2359871131
 20
10.4823154727
 30
0.0
 10
10.2336041009
 20
10.4861590801
 30
0.0
 10
10.2317120612
 20
10.4900847392
 30
0.0
 10
10.2305689159
 20
10.492988067
 30
0.0
 10
10.229678662
 20
10.495898445
 30
0.0
 10
10.229042128
 20
10.4988144891
 30
0.0
 10
10.2286599064
 20
10.5017340934
 30
0.0
 10
10.2285748173
 20
10.5036846233
 30
0.0
 10
10.2285748129
 20
10.5046559584
 30
0.0
  0
SPLINE
  5
34F
100
AcDbEntity
  8
0
100
AcDbSpline
 62
7
  6
CONTINUOUS
 70
0
 71
3
 72
18
 73
14
 74
0
 42
0.0000001
 43
0.0000001
 44
0.0000000001
 40
0.0
 40
0.0
 40
0.0
 40
0.0
 40
0.1504686872
 40
0.2917143508
 40
0.4244422581
 40
0.4879097286
 40
0.549609416
 40
0.6682625881
 40
0.7817882869
 40
0.8371380068
 40
0.8918078217
 40
0.9460192903
 40
1.0
 40
1.0
 40
1.0
 40
1.0
 10
12.4488888253
 20
9.3006173613
 30
0.0
 10
12.4501327532
 20
9.3018189035
 30
0.0
 10
12.4526189072
 20
9.3040733409
 30
0.0
 10
12.4564684618
 20
9.3070776399
 30
0.0
 10
12.4597200529
 20
9.3092024453
 30
0.0
 10
12.4623129212
 20
9.3106412924
 30
0.0
 10
12.4648295055
 20
9.3118765995
 30
0.0
 10
12.4679760373
 20
9.3131248242
 30
0.0
 10
12.4711785364
 20
9.3139766255
 30
0.0
 10
12.4737150117
 20
9.3143962352
 30
0.0
 10
12.4755948921
 20
9.3145824526
 30
0.0
 10
12.4774671662
 20
9.3146426046
 30
0.0
 10
12.4787110599
 20
9.3145986055
 30
0.0
 10
12.4793300206
 20
9.3145556783
 30
0.0
  0
SPLINE
  5
350
100
AcDbEntity
  8
0
100
AcDbSpline
 62
7
  6
CONTINUOUS
 70
0
 71
3
 72
23
 73
19
 74
0
 42
0.0000001
 43
0.0000001
 44
0.0000000001
 40
0.0
 40
0.0
 40
0.0
 40
0.0
 40
0.0637776288
 40
0.1273446152
 40
0.1907020433
 40
0.2538561391
 40
0.3168131818
 40
0.3795820998
 40
0.442173387
 40
0.5045993408
 40
0.5668738683
 40
0.6290123813
 40
0.69103165
 40
0.7529496426
 40
0.8147853504
 40
0.8765585998
 40
0.9382898528
 40
1.0
 40
1.0
 40
1.0
 40
1.0
 10
11.2632456191
 20
7.6737561722
 30
0.0
 10
11.2632456191
 20
7.6669674509
 30
0.0
 10
11.2629207057
 20
7.6534101284
 30
0.0
 10
11.261454085
 20
7.633156571
 30
0.0
 10
11.2590122393
 20
7.613063624
 30
0.0
 10
11.2556008754
 20
7.593178311
 30
0.0
 10
11.2512277193
 20
7.5735462142
 30
0.0
 10
11.2459028538
 20
7.5542126721
 30
0.0
 10
11.2396384864
 20
7.5352222378
 30
0.0
 10
11.2324490228
 20
7.5166187101
 30
0.0
 10
11.2243509966
 20
7.4984449945
 30
0.0
 10
11.2153630499
 20
7.4807430082
 30
0.0
 10
11.2055058829
 20
7.4635535877
 30
0.0
 10
11.1948021935
 20
7.446916379
 30
0.0
 10
11.1832766826
 20
7.4308697997
 30
0.0
 10
11.1709557831
 20
7.415450746
 30
0.0
 10
11.1578683978
 20
7.4006952652
 30
0.0
 10
11.1486508424
 20
7.3913216481
 30
0.0
 10
11.1439263064
 20
7.3867581037
 30
0.0
  0
SPLINE
  5
351
100
AcDbEntity
  8
0
100
AcDbSpline
 62
7
  6
CONTINUOUS
 70
0
 71
3
 72
21
 73
17
 74
0
 42
0.0000001
 43
0.0000001
 44
0.0000000001
 40
0.0
 40
0.0
 40
0.0
 40
0.0
 40
0.1273176366
 40
0.2537999756
 40
0.3167619475
 40
0.3795355041
 40
0.4421314991
 40
0.5045621439
 40
0.5668413432
 40
0.6289845283
 40
0.6910084528
 40
0.7529310935
 40
0.8147714495
 40
0.8765493365
 40
0.9382852194
 40
1.0
 40
1.0
 40
1.0
 40
1.0
 10
11.487340424
 20
9.982232838
 30
0.0
 10
11.487340424
 20
9.9769355881
 30
0.0
 10
11.4868347666
 20
9.9663690238
 30
0.0
 10
11.4849250625
 20
9.9533064674
 30
0.0
 10
11.4826425415
 20
9.9430600338
 30
0.0
 10
11.480561005
 20
9.9355022607
 30
0.0
 10
11.4781122174
 20
9.9280787767
 30
0.0
 10
11.4753017896
 20
9.9208064968
 30
0.0
 10
11.4721362222
 20
9.9137022349
 30
0.0
 10
11.4686227709
 20
9.9067823746
 30
0.0
 10
11.4647695176
 20
9.9000628903
 30
0.0
 10
11.460585371
 20
9.8935592583
 30
0.0
 10
11.4560799687
 20
9.8872865056
 30
0.0
 10
11.4512636214
 20
9.8812590737
 30
0.0
 10
11.4461476628
 20
9.8754910271
 30
0.0
 10
11.4425444596
 20
9.8718267871
 30
0.0
 10
11.4406976008
 20
9.8700428582
 30
0.0
  0
SPLINE
  5
352
100
AcDbEntity
  8
0
100
AcDbSpline
 62
7
  6
CONTINUOUS
 70
0
 71
3
 72
21
 73
17
 74
0
 42
0.0000001
 43
0.0000001
 44
0.0000000001
 40
0.0
 40
0.0
 40
0.0
 40
0.0
 40
0.1273176366
 40
0.2537999756
 40
0.3167619475
 40
0.3795355041
 40
0.4421314991
 40
0.5045621439
 40
0.5668413432
 40
0.6289845283
 40
0.6910084528
 40
0.7529310935
 40
0.8147714495
 40
0.8765493365
 40
0.9382852194
 40
1.0
 40
1.0
 40
1.0
 40
1.0
 10
10.5214145405
 20
7.1514423462
 30
0.0
 10
10.5214145405
 20
7.1461450962
 30
0.0
 10
10.5209088831
 20
7.135578532
 30
0.0
 10
10.518999179
 20
7.1225159756
 30
0.0
 10
10.516716658
 20
7.1122695419
 30
0.0
 10
10.5146351215
 20
7.1047117688
 30
0.0
 10
10.5121863339
 20
7.0972882849
 30
0.0
 10
10.5093759061
 20
7.090016005
 30
0.0
 10
10.5062103387
 20
7.0829117431
 30
0.0
 10
10.5026968873
 20
7.0759918827
 30
0.0
 10
10.4988436341
 20
7.0692723985
 30
0.0
 10
10.4946594875
 20
7.0627687665
 30
0.0
 10
10.4901540852
 20
7.0564960138
 30
0.0
 10
10.4853377379
 20
7.0504685819
 30
0.0
 10
10.4802217793
 20
7.0447005353
 30
0.0
 10
10.476618576
 20
7.0410362953
 30
0.0
 10
10.4747717172
 20
7.0392523664
 30
0.0
  0
SPLINE
  5
353
100
AcDbEntity
  8
0
100
AcDbSpline
 62
7
  6
CONTINUOUS
 70
0
 71
3
 72
13
 73
9
 74
0
 42
0.0000001
 43
0.0000001
 44
0.0000000001
 40
0.0
 40
0.0
 40
0.0
 40
0.0
 40
0.1245273733
 40
0.2492210127
 40
0.4990040309
 40
0.7493212145
 40
0.8746496607
 40
1.0
 40
1.0
 40
1.0
 40
1.0
 10
10.7054616533
 20
7.8099782023
 30
0.0
 10
10.7054616533
 20
7.8061228857
 30
0.0
 10
10.7056676274
 20
7.7984053381
 30
0.0
 10
10.7069012813
 20
7.7829999467
 30
0.0
 10
10.709984498
 20
7.7638642807
 30
0.0
 10
10.7150999421
 20
7.7451475719
 30
0.0
 10
10.7203935814
 20
7.7305617433
 30
0.0
 10
10.7234390177
 20
7.7234180327
 30
0.0
 10
10.725059375
 20
7.7198917012
 30
0.0
  0
SPLINE
  5
354
100
AcDbEntity
  8
0
100
AcDbSpline
 62
7
  6
CONTINUOUS
 70
0
 71
3
 72
14
 73
10
 74
0
 42
0.0000001
 43
0.0000001
 44
0.0000000001
 40
0.0
 40
0.0
 40
0.0
 40
0.0
 40
0.2416740831
 40
0.3652837165
 40
0.4904427239
 40
0.6168681261
 40
0.7442188391
 40
0.8720885794
 40
1.0
 40
1.0
 40
1.0
 40
1.0
 10
10.725059375
 20
7.7198917012
 30
0.0
 10
10.7290567793
 20
7.7175968822
 30
0.0
 10
10.7351844708
 20
7.7142743002
 30
0.0
 10
10.7435706402
 20
7.7101293399
 30
0.0
 10
10.7500684408
 20
7.7071297132
 30
0.0
 10
10.7567131745
 20
7.7042848203
 30
0.0
 10
10.7634878022
 20
7.7016196215
 30
0.0
 10
10.7703707016
 20
7.6991621625
 30
0.0
 10
10.7750200965
 20
7.6976810568
 30
0.0
 10
10.7773581683
 20
7.6969847175
 30
0.0
  0
SPLINE
  5
355
100
AcDbEntity
  8
0
100
AcDbSpline
 62
7
  6
CONTINUOUS
 70
0
 71
3
 72
19
 73
15
 74
0
 42
0.0000001
 43
0.0000001
 44
0.0000000001
 40
0.0
 40
0.0
 40
0.0
 40
0.0
 40
0.1345825654
 40
0.2671155769
 40
0.3975295005
 40
0.5255939075
 40
0.5886267359
 40
0.6508858512
 40
0.7122643979
 40
0.7726340144
 40
0.8318249286
 40
0.8896324384
 40
0.9457962151
 40
1.0
 40
1.0
 40
1.0
 40
1.0
 10
10.7773581683
 20
7.6969847175
 30
0.0
 10
10.7809441514
 20
7.6939993697
 30
0.0
 10
10.7883017603
 20
7.6883564608
 30
0.0
 10
10.799863447
 20
7.6808312751
 30
0.0
 10
10.8117543175
 20
7.6742959404
 30
0.0
 10
10.8218956682
 20
7.669644164
 30
0.0
 10
10.8300676141
 20
7.6664186648
 30
0.0
 10
10.8361707387
 20
7.6642607576
 30
0.0
 10
10.8422604102
 20
7.6623547281
 30
0.0
 10
10.8483143542
 20
7.6607050015
 30
0.0
 10
10.8543069312
 20
7.6593181327
 30
0.0
 10
10.8602077192
 20
7.6582023386
 30
0.0
 10
10.8659803109
 20
7.6573684921
 30
0.0
 10
10.869791169
 20
7.6570021265
 30
0.0
 10
10.8716660276
 20
7.6568736549
 30
0.0
  0
SPLINE
  5
356
100
AcDbEntity
  8
0
100
AcDbSpline
 62
7
  6
CONTINUOUS
 70
0
 71
3
 72
23
 73
19
 74
0
 42
0.0000001
 43
0.0000001
 44
0.0000000001
 40
0.0
 40
0.0
 40
0.0
 40
0.0
 40
0.0637764156
 40
0.1273451284
 40
0.1907019885
 40
0.2538560635
 40
0.3168132288
 40
0.3795820795
 40
0.4421733867
 40
0.5045993416
 40
0.5668738629
 40
0.6290123789
 40
0.691031653
 40
0.7529496458
 40
0.8147853519
 40
0.8765586031
 40
0.9382898573
 40
1.0
 40
1.0
 40
1.0
 40
1.0
 10
11.0771364794
 20
7.698988537
 30
0.0
 10
11.0771364794
 20
7.6953628186
 30
0.0
 10
11.0769629184
 20
7.6881219616
 30
0.0
 10
11.0761796554
 20
7.6773047414
 30
0.0
 10
11.0748754721
 20
7.666573238
 30
0.0
 10
11.0730535104
 20
7.6559527182
 30
0.0
 10
11.0707178488
 20
7.6454674121
 30
0.0
 10
11.0678738906
 20
7.6351415591
 30
0.0
 10
11.0645281776
 20
7.6249989553
 30
0.0
 10
11.0606883519
 20
7.6150630002
 30
0.0
 10
11.0563632807
 20
7.6053566017
 30
0.0
 10
11.0515629312
 20
7.5959021386
 30
0.0
 10
11.0462983325
 20
7.5867214335
 30
0.0
 10
11.040581597
 20
7.5778356701
 30
0.0
 10
11.0344259491
 20
7.569265347
 30
0.0
 10
11.0278455029
 20
7.5610301685
 30
0.0
 10
11.0208556631
 20
7.5531494148
 30
0.0
 10
11.0159326672
 20
7.548143054
 30
0.0
 10
11.0134093421
 20
7.5457057095
 30
0.0
  0
SPLINE
  5
357
100
AcDbEntity
  8
0
100
AcDbSpline
 62
7
  6
CONTINUOUS
 70
0
 71
3
 72
39
 73
35
 74
0
 42
0.0000001
 43
0.0000001
 44
0.0000000001
 40
0.0
 40
0.0
 40
0.0
 40
0.0
 40
0.0310753278
 40
0.0623079062
 40
0.093693137
 40
0.1252222865
 40
0.1568840454
 40
0.1886642043
 40
0.2205461643
 40
0.2525112486
 40
0.2845391082
 40
0.3166081368
 40
0.3486959081
 40
0.3807796237
 40
0.412836566
 40
0.4448445497
 40
0.4767823661
 40
0.5086302138
 40
0.5403701085
 40
0.5719862661
 40
0.6034654517
 40
0.6347972864
 40
0.6659745051
 40
0.6969931566
 40
0.7278527388
 40
0.758556263
 40
0.78911024
 40
0.8195245851
 40
0.8498124377
 40
0.8799898969
 40
0.9100756761
 40
0.9400906823
 40
0.9700575294
 40
1.0
 40
1.0
 40
1.0
 40
1.0
 10
11.0771364794
 20
7.698988537
 30
0.0
 10
11.0771364794
 20
7.7046139055
 30
0.0
 10
11.0767168404
 20
7.7158974374
 30
0.0
 10
11.0748432384
 20
7.7327687224
 30
0.0
 10
11.0717344717
 20
7.7495409409
 30
0.0
 10
11.0674077138
 20
7.7661207991
 30
0.0
 10
11.0618869363
 20
7.782417567
 30
0.0
 10
11.0552025661
 20
7.7983417169
 30
0.0
 10
11.0473914237
 20
7.8138058816
 30
0.0
 10
11.0384964757
 20
7.8287251994
 30
0.0
 10
11.0285666154
 20
7.8430178093
 30
0.0
 10
11.017656391
 20
7.8566052839
 30
0.0
 10
11.0058257139
 20
7.8694130619
 30
0.0
 10
10.9931395281
 20
7.8813708494
 30
0.0
 10
10.979667457
 20
7.8924130014
 30
0.0
 10
10.9654834251
 20
7.9024788785
 30
0.0
 10
10.9506652573
 20
7.9115131765
 30
0.0
 10
10.9352942574
 20
7.9194662284
 30
0.0
 10
10.9194547673
 20
7.9262942751
 30
0.0
 10
10.903233711
 20
7.9319597055
 30
0.0
 10
10.8867201239
 20
7.9364312635
 30
0.0
 10
10.870004673
 20
7.9396842272
 30
0.0
 10
10.8531791633
 20
7.9417005458
 30
0.0
 10
10.8363360409
 20
7.9424689426
 30
0.0
 10
10.8195678911
 20
7.9419849848
 30
0.0
 10
10.802966934
 20
7.9402511174
 30
0.0
 10
10.7866245213
 20
7.9372766613
 30
0.0
 10
10.7706306314
 20
7.9330777726
 30
0.0
 10
10.7550733798
 20
7.9276773737
 30
0.0
 10
10.7400384977
 20
7.9211050099
 30
0.0
 10
10.7256089615
 20
7.9133968106
 30
0.0
 10
10.7118641025
 20
7.9045948902
 30
0.0
 10
10.6988807196
 20
7.8947486267
 30
0.0
 10
10.6907770236
 20
7.8875210735
 30
0.0
 10
10.6868784514
 20
7.8837553427
 30
0.0
  0
SPLINE
  5
358
100
AcDbEntity
  8
0
100
AcDbSpline
 62
7
  6
CONTINUOUS
 70
0
 71
3
 72
18
 73
14
 74
0
 42
0.0000001
 43
0.0000001
 44
0.0000000001
 40
0.0
 40
0.0
 40
0.0
 40
0.0
 40
0.0548621106
 40
0.1099281304
 40
0.165399556
 40
0.2214731722
 40
0.2783387379
 40
0.3361775111
 40
0.4554063056
 40
0.5804414047
 40
0.7123341351
 40
0.8519581983
 40
1.0
 40
1.0
 40
1.0
 40
1.0
 10
11.2285748055
 20
10.5046565932
 30
0.0
 10
11.2285748087
 20
10.5039504472
 30
0.0
 10
11.2285299962
 20
10.5025351251
 30
0.0
 10
11.2283285
 20
10.5004144421
 30
0.0
 10
11.2279927496
 20
10.4982949828
 30
0.0
 10
11.2275228719
 20
10.4961775206
 30
0.0
 10
11.2269190649
 20
10.4940625844
 30
0.0
 10
11.2259259143
 20
10.491218566
 30
0.0
 10
11.2243348972
 20
10.4876614636
 30
0.0
 10
11.2219132639
 20
10.4834605074
 30
0.0
 10
11.2189638313
 20
10.4792867368
 30
0.0
 10
11.2154910864
 20
10.4751443581
 30
0.0
 10
11.2129082823
 20
10.4724865137
 30
0.0
 10
11.211537751
 20
10.471162682
 30
0.0
  0
SPLINE
  5
359
100
AcDbEntity
  8
0
100
AcDbSpline
 62
7
  6
CONTINUOUS
 70
0
 71
3
 72
47
 73
43
 74
0
 42
0.0000001
 43
0.0000001
 44
0.0000000001
 40
0.0
 40
0.0
 40
0.0
 40
0.0
 40
0.0149719699
 40
0.0299469986
 40
0.0449281275
 40
0.0599183593
 40
0.0749206409
 40
0.0899378479
 40
0.1049727642
 40
0.1200280654
 40
0.1351063071
 40
0.1502099062
 40
0.1653411266
 40
0.1805020712
 40
0.195694667
 40
0.2109206532
 40
0.226181577
 40
0.2414787841
 40
0.2721808909
 40
0.30303905
 40
0.3340562704
 40
0.3652320501
 40
0.3965624391
 40
0.4280401707
 40
0.4596548674
 40
0.4913932962
 40
0.5232396724
 40
0.5551760134
 40
0.5871825188
 40
0.61923798
 40
0.6513202127
 40
0.6834065006
 40
0.7154740464
 40
0.7475004247
 40
0.7794640313
 40
0.8113445177
 40
0.8431232087
 40
0.8747834982
 40
0.9063112124
 40
0.9376949433
 40
0.9689261019
 40
1.0
 40
1.0
 40
1.0
 40
1.0
 10
10.5325501542
 20
8.0197029657
 30
0.0
 10
10.5362002293
 20
8.0232286622
 30
0.0
 10
10.5436421725
 20
8.0301364167
 30
0.0
 10
10.5552092272
 20
8.0400474049
 30
0.0
 10
10.567165754
 20
8.0494952607
 30
0.0
 10
10.5794950882
 20
8.0584667373
 30
0.0
 10
10.5921802912
 20
8.066949591
 30
0.0
 10
10.6052038948
 20
8.0749321305
 30
0.0
 10
10.618547999
 20
8.0824033438
 30
0.0
 10
10.6321942116
 20
8.0893529989
 30
0.0
 10
10.6461237564
 20
8.0957715378
 30
0.0
 10
10.6603174809
 20
8.1016500952
 30
0.0
 10
10.6747558341
 20
8.1069806364
 30
0.0
 10
10.6894189448
 20
8.1117558383
 30
0.0
 10
10.7042866706
 20
8.1159690972
 30
0.0
 10
10.7193384653
 20
8.1196146676
 30
0.0
 10
10.7345539059
 20
8.1226875669
 30
0.0
 10
10.7550534283
 20
8.1260192462
 30
0.0
 10
10.7809905624
 20
8.128728416
 30
0.0
 10
10.812385493
 20
8.1296343512
 30
0.0
 10
10.8439217333
 20
8.1281956616
 30
0.0
 10
10.8754247423
 20
8.1244203916
 30
0.0
 10
10.9067217442
 20
8.11832969
 30
0.0
 10
10.937640774
 20
8.1099573979
 30
0.0
 10
10.9680120932
 20
8.0993497771
 30
0.0
 10
10.9976689804
 20
8.0865653268
 30
0.0
 10
11.0264487071
 20
8.0716745131
 30
0.0
 10
11.0541933383
 20
8.0547592279
 30
0.0
 10
11.0807506392
 20
8.0359124623
 30
0.0
 10
11.1059749235
 20
8.0152378018
 30
0.0
 10
11.1297277502
 20
7.9928487467
 30
0.0
 10
11.1518787664
 20
7.9688682181
 30
0.0
 10
11.1723064083
 20
7.9434278565
 30
0.0
 10
11.1908984641
 20
7.9166672333
 30
0.0
 10
11.2075528137
 20
7.8887332028
 30
0.0
 10
11.2221779377
 20
7.8597790465
 30
0.0
 10
11.2346933297
 20
7.8299636291
 30
0.0
 10
11.2450300952
 20
7.7994505432
 30
0.0
 10
11.2531312454
 20
7.7684074325
 30
0.0
 10
11.2589519059
 20
7.7370041484
 30
0.0
 10
11.2624599018
 20
7.7054153828
 30
0.0
 10
11.2632456191
 20
7.684288773
 30
0.0
 10
11.2632456191
 20
7.6737561722
 30
0.0
  0
SPLINE
  5
35A
100
AcDbEntity
  8
0
100
AcDbSpline
 62
7
  6
CONTINUOUS
 70
0
 71
3
 72
15
 73
11
 74
0
 42
0.0000001
 43
0.0000001
 44
0.0000000001
 40
0.0
 40
0.0
 40
0.0
 40
0.0
 40
0.1259960987
 40
0.2514543855
 40
0.3765030539
 40
0.5012779694
 40
0.6259101107
 40
0.7505151779
 40
0.8751887223
 40
1.0
 40
1.0
 40
1.0
 40
1.0
 10
10.7347139255
 20
7.9180832204
 30
0.0
 10
10.7323150411
 20
7.9139739524
 30
0.0
 10
10.7277932178
 20
7.9056143297
 30
0.0
 10
10.7218649817
 20
7.8926796026
 30
0.0
 10
10.7168251792
 20
7.8794221548
 30
0.0
 10
10.7126878184
 20
7.8658887656
 30
0.0
 10
10.70946223
 20
7.8521268651
 30
0.0
 10
10.7071547049
 20
7.8381854528
 30
0.0
 10
10.7057691614
 20
7.8241163774
 30
0.0
 10
10.7054616533
 20
7.8146916853
 30
0.0
 10
10.7054616533
 20
7.8099782023
 30
0.0
  0
SPLINE
  5
35B
100
AcDbEntity
  8
0
100
AcDbSpline
 62
7
  6
CONTINUOUS
 70
0
 71
3
 72
42
 73
38
 74
0
 42
0.0000001
 43
0.0000001
 44
0.0000000001
 40
0.0
 40
0.0
 40
0.0
 40
0.0
 40
0.0299419663
 40
0.0449235352
 40
0.0599142051
 40
0.0899287052
 40
0.1200139767
 40
0.135092661
 40
0.150196701
 40
0.1804840414
 40
0.210897872
 40
0.2414513324
 40
0.2721543376
 40
0.3030133986
 40
0.3340315263
 40
0.3652082187
 40
0.3965395244
 40
0.4280181782
 40
0.4596338019
 40
0.4913731609
 40
0.5232204716
 40
0.55515775
 40
0.5871651943
 40
0.6192215961
 40
0.6513047701
 40
0.6833919991
 40
0.7154604852
 40
0.7474878032
 40
0.7794523473
 40
0.8113337692
 40
0.8431133916
 40
0.8747746171
 40
0.9063032365
 40
0.9376879249
 40
0.9533258257
 40
0.968925233
 40
1.0
 40
1.0
 40
1.0
 40
1.0
 10
11.2017047434
 20
10.1174664103
 30
0.0
 10
11.2045581661
 20
10.1202226054
 30
0.0
 10
11.209006475
 20
10.1241899127
 30
0.0
 10
11.2152362624
 20
10.1291124518
 30
0.0
 10
11.2216644239
 20
10.1337900586
 30
0.0
 10
11.2300521325
 20
10.1391614602
 30
0.0
 10
11.2388476667
 20
10.1438598753
 30
0.0
 10
11.2461016882
 20
10.1472023753
 30
0.0
 10
11.2535055842
 20
10.150268893
 30
0.0
 10
11.263004428
 20
10.1535663195
 30
0.0
 10
11.2747103278
 20
10.1566394321
 30
0.0
 10
11.2866716543
 20
10.1588165163
 30
0.0
 10
11.2988221226
 20
10.1600855534
 30
0.0
 10
11.3110949867
 20
10.160439773
 30
0.0
 10
11.3234227178
 20
10.1598773715
 30
0.0
 10
11.3357375596
 20
10.1584015976
 30
0.0
 10
11.3479718474
 20
10.1560207049
 30
0.0
 10
11.3600583884
 20
10.1527479065
 30
0.0
 10
11.3719308228
 20
10.1486012975
 30
0.0
 10
11.3835239837
 20
10.1436037521
 30
0.0
 10
11.3947742493
 20
10.1377827968
 30
0.0
 10
11.4056198879
 20
10.1311704594
 30
0.0
 10
11.4160013918
 20
10.1238030923
 30
0.0
 10
11.4258617998
 20
10.1157211738
 30
0.0
 10
11.4351470055
 20
10.1069690877
 30
0.0
 10
11.4438060516
 20
10.0975948815
 30
0.0
 10
11.451791406
 20
10.0876500054
 30
0.0
 10
11.4590592202
 20
10.0771890321
 30
0.0
 10
11.4655695682
 20
10.0662693639
 30
0.0
 10
11.4712866637
 20
10.0549509087
 30
0.0
 10
11.4761790549
 20
10.0432958021
 30
0.0
 10
11.4802198042
 20
10.0313678985
 30
0.0
 10
11.4833865929
 20
10.0192330624
 30
0.0
 10
11.4852851499
 20
10.0089899408
 30
0.0
 10
11.4863501874
 20
10.0007597235
 30
0.0
 10
11.4871102769
 20
9.9925373797
 30
0.0
 10
11.487340424
 20
9.9863501243
 30
0.0
 10
11.487340424
 20
9.982232838
 30
0.0
  0
SPLINE
  5
35C
100
AcDbEntity
  8
0
100
AcDbSpline
 62
7
  6
CONTINUOUS
 70
0
 71
3
 72
42
 73
38
 74
0
 42
0.0000001
 43
0.0000001
 44
0.0000000001
 40
0.0
 40
0.0
 40
0.0
 40
0.0
 40
0.0299419663
 40
0.0449235352
 40
0.0599142051
 40
0.0899287052
 40
0.1200139767
 40
0.135092661
 40
0.150196701
 40
0.1804840414
 40
0.210897872
 40
0.2414513324
 40
0.2721543376
 40
0.3030133986
 40
0.3340315263
 40
0.3652082187
 40
0.3965395244
 40
0.4280181782
 40
0.4596338019
 40
0.4913731609
 40
0.5232204716
 40
0.55515775
 40
0.5871651943
 40
0.6192215961
 40
0.6513047701
 40
0.6833919991
 40
0.7154604852
 40
0.7474878032
 40
0.7794523473
 40
0.8113337692
 40
0.8431133916
 40
0.8747746171
 40
0.9063032365
 40
0.9376879249
 40
0.9533258257
 40
0.968925233
 40
1.0
 40
1.0
 40
1.0
 40
1.0
 10
10.2357788599
 20
7.2866759185
 30
0.0
 10
10.2386322826
 20
7.2894321136
 30
0.0
 10
10.2430805915
 20
7.2933994209
 30
0.0
 10
10.2493103789
 20
7.29832196
 30
0.0
 10
10.2557385403
 20
7.3029995668
 30
0.0
 10
10.2641262489
 20
7.3083709684
 30
0.0
 10
10.2729217831
 20
7.3130693834
 30
0.0
 10
10.2801758046
 20
7.3164118835
 30
0.0
 10
10.2875797007
 20
7.3194784012
 30
0.0
 10
10.2970785445
 20
7.3227758277
 30
0.0
 10
10.3087844443
 20
7.3258489403
 30
0.0
 10
10.3207457707
 20
7.3280260245
 30
0.0
 10
10.3328962391
 20
7.3292950616
 30
0.0
 10
10.3451691031
 20
7.3296492812
 30
0.0
 10
10.3574968342
 20
7.3290868797
 30
0.0
 10
10.3698116761
 20
7.3276111058
 30
0.0
 10
10.3820459638
 20
7.325230213
 30
0.0
 10
10.3941325049
 20
7.3219574147
 30
0.0
 10
10.4060049393
 20
7.3178108057
 30
0.0
 10
10.4175981002
 20
7.3128132602
 30
0.0
 10
10.4288483658
 20
7.306992305
 30
0.0
 10
10.4396940044
 20
7.3003799676
 30
0.0
 10
10.4500755083
 20
7.2930126005
 30
0.0
 10
10.4599359162
 20
7.284930682
 30
0.0
 10
10.469221122
 20
7.2761785959
 30
0.0
 10
10.4778801681
 20
7.2668043897
 30
0.0
 10
10.4858655225
 20
7.2568595136
 30
0.0
 10
10.4931333367
 20
7.2463985403
 30
0.0
 10
10.4996436847
 20
7.2354788721
 30
0.0
 10
10.5053607802
 20
7.2241604169
 30
0.0
 10
10.5102531714
 20
7.2125053103
 30
0.0
 10
10.5142939207
 20
7.2005774067
 30
0.0
 10
10.5174607094
 20
7.1884425706
 30
0.0
 10
10.5193592663
 20
7.178199449
 30
0.0
 10
10.5204243039
 20
7.1699692317
 30
0.0
 10
10.5211843934
 20
7.1617468879
 30
0.0
 10
10.5214145405
 20
7.1555596325
 30
0.0
 10
10.5214145405
 20
7.1514423462
 30
0.0
  0
SPLINE
  5
35D
100
AcDbEntity
  8
0
100
AcDbSpline
 62
7
  6
CONTINUOUS
 70
0
 71
3
 72
84
 73
80
 74
0
 42
0.0000001
 43
0.0000001
 44
0.0000000001
 40
0.0
 40
0.0
 40
0.0
 40
0.0
 40
0.0027164264
 40
0.0054532293
 40
0.008230295
 40
0.0110665896
 40
0.0139797932
 40
0.0169861044
 40
0.0201000661
 40
0.0233345812
 40
0.0267009392
 40
0.0302088856
 40
0.0338668056
 40
0.037681768
 40
0.0416597414
 40
0.0458056718
 40
0.050123593
 40
0.0546167913
 40
0.0592877975
 40
0.0641385717
 40
0.0691704988
 40
0.074384467
 40
0.0797809628
 40
0.0853600226
 40
0.0911213815
 40
0.0970644148
 40
0.1094911534
 40
0.122630387
 40
0.136468035
 40
0.1509868331
 40
0.1661667198
 40
0.1819851503
 40
0.1984173662
 40
0.2154366132
 40
0.2330143274
 40
0.2511202956
 40
0.2697227959
 40
0.2887887406
 40
0.3082838034
 40
0.3281725359
 40
0.3484184777
 40
0.3689842604
 40
0.3898317162
 40
0.4109219843
 40
0.4536719359
 40
0.4969138893
 40
0.5403221212
 40
0.5835693222
 40
0.6263297187
 40
0.6474271304
 40
0.6682829869
 40
0.6888584043
 40
0.7091151927
 40
0.7290159604
 40
0.748524216
 40
0.7676044742
 40
0.7862223676
 40
0.8043447661
 40
0.8219399096
 40
0.838977535
 40
0.8554290199
 40
0.8712675451
 40
0.8864682815
 40
0.9010086172
 40
0.9148684112
 40
0.9280303001
 40
0.9404800906
 40
0.946434749
 40
0.9522077946
 40
0.957798564
 40
0.9632067735
 40
0.9684324641
 40
0.9734760551
 40
0.9783384155
 40
0.983020862
 40
0.9875253935
 40
0.9918546029
 40
0.9960115831
 40
1.0
 40
1.0
 40
1.0
 40
1.0
 10
12.41844763
 20
8.4366642669
 30
0.0
 10
12.4176264246
 20
8.4367212206
 30
0.0
 10
12.4159820613
 20
8.4369099037
 30
0.0
 10
12.41353645
 20
8.4374147561
 30
0.0
 10
12.4111093191
 20
8.438141379
 30
0.0
 10
12.4087024105
 20
8.4390890917
 30
0.0
 10
12.4063169423
 20
8.4402569965
 30
0.0
 10
12.4039541712
 20
8.4416442455
 30
0.0
 10
12.4016151561
 20
8.4432497971
 30
0.0
 10
12.3993009488
 20
8.4450726577
 30
0.0
 10
12.3970125629
 20
8.447111772
 30
0.0
 10
12.3947509464
 20
8.4493659911
 30
0.0
 10
12.3925171401
 20
8.4518341858
 30
0.0
 10
12.3903120844
 20
8.4545150621
 30
0.0
 10
12.3881368086
 20
8.4574073085
 30
0.0
 10
12.3859923163
 20
8.4605094918
 30
0.0
 10
12.3838795858
 20
8.463820071
 30
0.0
 10
12.3817996726
 20
8.4673374409
 30
0.0
 10
12.3797535285
 20
8.4710598443
 30
0.0
 10
12.3777421874
 20
8.4749854603
 30
0.0
 10
12.3757666249
 20
8.4791123407
 30
0.0
 10
12.373827801
 20
8.4834384358
 30
0.0
 10
12.3719267151
 20
8.4879616079
 30
0.0
 10
12.3700642735
 20
8.4926795911
 30
0.0
 10
12.3682414257
 20
8.4975900516
 30
0.0
 10
12.3658290387
 20
8.504493706
 30
0.0
 10
12.3629280274
 20
8.5135929224
 30
0.0
 10
12.3596684885
 20
8.5250820134
 30
0.0
 10
12.3565874268
 20
8.5372750969
 30
0.0
 10
12.3536910855
 20
8.5501477697
 30
0.0
 10
12.3509853526
 20
8.5636743864
 30
0.0
 10
12.3484757274
 20
8.5778278834
 30
0.0
 10
12.3461673169
 20
8.5925799179
 30
0.0
 10
12.3440648198
 20
8.6079009152
 30
0.0
 10
12.3421725175
 20
8.6237601384
 30
0.0
 10
12.3404942651
 20
8.6401257499
 30
0.0
 10
12.3390334759
 20
8.6569648778
 30
0.0
 10
12.337793123
 20
8.6742436873
 30
0.0
 10
12.3367757329
 20
8.6919274536
 30
0.0
 10
12.3359833812
 20
8.7099806318
 30
0.0
 10
12.3354176874
 20
8.7283669313
 30
0.0
 10
12.3350798147
 20
8.7470493751
 30
0.0
 10
12.3349704374
 20
8.7659904253
 30
0.0
 10
12.3351303947
 20
8.7916539396
 30
0.0
 10
12.3359064892
 20
8.8240977013
 30
0.0
 10
12.337735539
 20
8.8632712803
 30
0.0
 10
12.3404520684
 20
8.9025445022
 30
0.0
 10
12.3440342465
 20
8.941601584
 30
0.0
 10
12.347732884
 20
8.9738501361
 30
0.0
 10
12.3511083071
 20
8.9992991507
 30
0.0
 10
12.3538249835
 20
9.0180523932
 30
0.0
 10
12.3567324558
 20
9.0365191635
 30
0.0
 10
12.3598248844
 20
9.0546623574
 30
0.0
 10
12.3630960216
 20
9.0724454928
 30
0.0
 10
12.3665392674
 20
9.0898328252
 30
0.0
 10
12.3701476718
 20
9.1067894075
 30
0.0
 10
12.3739139508
 20
9.1232811645
 30
0.0
 10
12.3778305007
 20
9.1392749649
 30
0.0
 10
12.381889407
 20
9.1547386932
 30
0.0
 10
12.3860824677
 20
9.169641314
 30
0.0
 10
12.3904012091
 20
9.1839529353
 30
0.0
 10
12.3948369034
 20
9.1976448709
 30
0.0
 10
12.3993805906
 20
9.2106897114
 30
0.0
 10
12.40402309
 20
9.2230613719
 30
0.0
 10
12.4087550337
 20
9.2347352228
 30
0.0
 10
12.4135668798
 20
9.2456879062
 30
0.0
 10
12.4176942349
 20
9.2543197359
 30
0.0
 10
12.4210351151
 20
9.2608407966
 30
0.0
 10
12.423517476
 20
9.2654651395
 30
0.0
 10
12.4260125655
 20
9.2698935261
 30
0.0
 10
12.4285191311
 20
9.2741237672
 30
0.0
 10
12.4310359302
 20
9.2781537538
 30
0.0
 10
12.4335617254
 20
9.2819814696
 30
0.0
 10
12.4360952178
 20
9.2856050283
 30
0.0
 10
12.4386352134
 20
9.289022623
 30
0.0
 10
12.441180463
 20
9.2922326096
 30
0.0
 10
12.4437297917
 20
9.2952334132
 30
0.0
 10
12.4462818217
 20
9.2980234047
 30
0.0
 10
12.4480195067
 20
9.299777664
 30
0.0
 10
12.4488888253
 20
9.3006173613
 30
0.0
  0
SPLINE
  5
35E
100
AcDbEntity
  8
0
100
AcDbSpline
 62
7
  6
CONTINUOUS
 70
0
 71
3
 72
58
 73
54
 74
0
 42
0.0000001
 43
0.0000001
 44
0.0000000001
 40
0.0
 40
0.0
 40
0.0
 40
0.0
 40
0.0075207316
 40
0.0156240154
 40
0.0243308441
 40
0.0336545885
 40
0.0436023967
 40
0.0541763293
 40
0.0653743668
 40
0.0771909241
 40
0.0896174474
 40
0.1026428707
 40
0.1162537836
 40
0.1304348295
 40
0.1451688775
 40
0.1604371108
 40
0.1762193149
 40
0.192493906
 40
0.2092380423
 40
0.2264278164
 40
0.2440382293
 40
0.2620433425
 40
0.2991290016
 40
0.3374620136
 40
0.3768083309
 40
0.4169256089
 40
0.4575652772
 40
0.498474595
 40
0.5393986926
 40
0.5800825786
 40
0.6202731659
 40
0.6597213038
 40
0.6981838101
 40
0.7354255563
 40
0.771221655
 40
0.7885111024
 40
0.8053606191
 40
0.8217460097
 40
0.8376442201
 40
0.8530333336
 40
0.8678928049
 40
0.8822035224
 40
0.8959478967
 40
0.9091101695
 40
0.9216764813
 40
0.9336351439
 40
0.9449770313
 40
0.9556958254
 40
0.9657886213
 40
0.9752564319
 40
0.9841051206
 40
0.9923469282
 40
1.0
 40
1.0
 40
1.0
 40
1.0
 10
12.3986574581
 20
8.622464036
 30
0.0
 10
12.3978228274
 20
8.6234902501
 30
0.0
 10
12.396178304
 20
8.6256957804
 30
0.0
 10
12.3938640869
 20
8.6292986867
 30
0.0
 10
12.3916159105
 20
8.6333107087
 30
0.0
 10
12.3894373838
 20
8.6377252999
 30
0.0
 10
12.3873317999
 20
8.6425355899
 30
0.0
 10
12.3853025167
 20
8.6477338582
 30
0.0
 10
12.3833528668
 20
8.6533117358
 30
0.0
 10
12.381486048
 20
8.6592601432
 30
0.0
 10
12.379705151
 20
8.6655693517
 30
0.0
 10
12.3780131771
 20
8.6722290052
 30
0.0
 10
12.3764129296
 20
8.6792281282
 30
0.0
 10
12.3749070978
 20
8.6865551668
 30
0.0
 10
12.373498224
 20
8.6941980062
 30
0.0
 10
12.3721886462
 20
8.70214399
 30
0.0
 10
12.370980581
 20
8.7103799512
 30
0.0
 10
12.3698760578
 20
8.7188922319
 30
0.0
 10
12.3688769112
 20
8.7276667086
 30
0.0
 10
12.3679848461
 20
8.7366888138
 30
0.0
 10
12.3672013304
 20
8.7459435811
 30
0.0
 10
12.3662942747
 20
8.7586986161
 30
0.0
 10
12.3654485863
 20
8.7751103991
 30
0.0
 10
12.3648919571
 20
8.7952897125
 30
0.0
 10
12.3647878809
 20
8.8160096017
 30
0.0
 10
12.3651371873
 20
8.8371324498
 30
0.0
 10
12.3659376913
 20
8.8585180619
 30
0.0
 10
12.3671841366
 20
8.8800244358
 30
0.0
 10
12.3688682726
 20
8.9015087681
 30
0.0
 10
12.3709789052
 20
8.9228283999
 30
0.0
 10
12.3735019518
 20
8.9438417866
 30
0.0
 10
12.3764205472
 20
8.9644094325
 30
0.0
 10
12.3797151466
 20
8.9843948923
 30
0.0
 10
12.3833637035
 20
9.0036654811
 30
0.0
 10
12.3867162509
 20
9.0191969218
 30
0.0
 10
12.3895648806
 20
9.0311633086
 30
0.0
 10
12.3917493483
 20
9.0397773776
 30
0.0
 10
12.3940028532
 20
9.0481204505
 30
0.0
 10
12.3963216391
 20
9.0561787
 30
0.0
 10
12.3987018543
 20
9.0639387569
 30
0.0
 10
12.4011395161
 20
9.0713877663
 30
0.0
 10
12.4036305468
 20
9.0785133982
 30
0.0
 10
12.4061708177
 20
9.0853038635
 30
0.0
 10
12.4087560693
 20
9.0917479589
 30
0.0
 10
12.411382003
 20
9.0978350685
 30
0.0
 10
12.4140442765
 20
9.1035551852
 30
0.0
 10
12.4167384514
 20
9.1088989634
 30
0.0
 10
12.4194601165
 20
9.1138577013
 30
0.0
 10
12.4222048522
 20
9.1184233759
 30
0.0
 10
12.4249681816
 20
9.1225886716
 30
0.0
 10
12.4277459327
 20
9.126347112
 30
0.0
 10
12.4305336186
 20
9.1296924251
 30
0.0
 10
12.4324658594
 20
9.1317169647
 30
0.0
 10
12.4334340104
 20
9.1326521268
 30
0.0
  0
SPLINE
  5
35F
100
AcDbEntity
  8
0
100
AcDbSpline
 62
7
  6
CONTINUOUS
 70
0
 71
3
 72
84
 73
80
 74
0
 42
0.0000001
 43
0.0000001
 44
0.0000000001
 40
0.0
 40
0.0
 40
0.0
 40
0.0
 40
0.0042066828
 40
0.0086075017
 40
0.0132068972
 40
0.0180084884
 40
0.0230152339
 40
0.0282293841
 40
0.0336523128
 40
0.039284743
 40
0.0451268972
 40
0.051178438
 40
0.0639058216
 40
0.0774570637
 40
0.0918161846
 40
0.1069626606
 40
0.122872004
 40
0.1395162689
 40
0.1568644759
 40
0.1748829339
 40
0.1935354914
 40
0.2127837696
 40
0.2325874085
 40
0.2529042599
 40
0.2736905535
 40
0.2949010535
 40
0.3164892494
 40
0.360606295
 40
0.4056508784
 40
0.4512204125
 40
0.4969063018
 40
0.5422986299
 40
0.5869908159
 40
0.6089498611
 40
0.6305853341
 40
0.6518494543
 40
0.6726955607
 40
0.693078253
 40
0.7129535452
 40
0.7322790381
 40
0.751014129
 40
0.7691201837
 40
0.7865607334
 40
0.8033017103
 40
0.8193117553
 40
0.8345625217
 40
0.8490290349
 40
0.8626901676
 40
0.875529284
 40
0.8875350361
 40
0.8932239811
 40
0.898703308
 40
0.9039736149
 40
0.9090361494
 40
0.9138927595
 40
0.9185461532
 40
0.9229998879
 40
0.9272585036
 40
0.9313277736
 40
0.9352147153
 40
0.9389278968
 40
0.9424775986
 40
0.9458759463
 40
0.949137213
 40
0.9522778414
 40
0.9553165434
 40
0.9582742478
 40
0.961173804
 40
0.9640396181
 40
0.9668970317
 40
0.9697716345
 40
0.9726885202
 40
0.9756716312
 40
0.9787431922
 40
0.985225311
 40
0.9886742455
 40
0.9922790748
 40
0.9960512574
 40
1.0
 40
1.0
 40
1.0
 40
1.0
 10
12.4334340104
 20
8.6207114085
 30
0.0
 10
12.4340062681
 20
8.621264167
 30
0.0
 10
12.4351500322
 20
8.6224235817
 30
0.0
 10
12.436826547
 20
8.6242761315
 30
0.0
 10
12.4385009638
 20
8.6262795659
 30
0.0
 10
12.4401721779
 20
8.6284325981
 30
0.0
 10
12.4418392873
 20
8.6307339526
 30
0.0
 10
12.4435013132
 20
8.6331823262
 30
0.0
 10
12.4451573242
 20
8.6357762773
 30
0.0
 10
12.4468063351
 20
8.6385142735
 30
0.0
 10
12.4484473518
 20
8.6413947074
 30
0.0
 10
12.4506607542
 20
8.6454920948
 30
0.0
 10
12.4533940249
 20
8.650963916
 30
0.0
 10
12.4565740034
 20
8.6579627944
 30
0.0
 10
12.4596992907
 20
8.6654841377
 30
0.0
 10
12.4627623869
 20
8.6735100808
 30
0.0
 10
12.4657559371
 20
8.6820216554
 30
0.0
 10
12.4686727453
 20
8.6909986281
 30
0.0
 10
12.4715057904
 20
8.7004196364
 30
0.0
 10
12.474248248
 20
8.7102622282
 30
0.0
 10
12.4768935142
 20
8.7205029182
 30
0.0
 10
12.4794352302
 20
8.7311172467
 30
0.0
 10
12.4818672808
 20
8.7420798495
 30
0.0
 10
12.4841838163
 20
8.7533645254
 30
0.0
 10
12.486379256
 20
8.7649442861
 30
0.0
 10
12.4884483545
 20
8.7767914512
 30
0.0
 10
12.491050703
 20
8.7930233119
 30
0.0
 10
12.4939458369
 20
8.8137714836
 30
0.0
 10
12.4968221607
 20
8.8390934549
 30
0.0
 10
12.4990973793
 20
8.8647744096
 30
0.0
 10
12.5007496827
 20
8.8905688365
 30
0.0
 10
12.5017632692
 20
8.9162301378
 30
0.0
 10
12.5020696244
 20
8.9374216894
 30
0.0
 10
12.501982389
 20
8.9541198774
 30
0.0
 10
12.5017535423
 20
8.9663851007
 30
0.0
 10
12.5013615267
 20
8.9784355911
 30
0.0
 10
12.5008072878
 20
8.990242541
 30
0.0
 10
12.5000921819
 20
9.0017777013
 30
0.0
 10
12.4992179448
 20
9.0130134825
 30
0.0
 10
12.498186694
 20
9.0239230169
 30
0.0
 10
12.4970009399
 20
9.0344802311
 30
0.0
 10
12.4956635642
 20
9.0446599084
 30
0.0
 10
12.4941778136
 20
9.0544377455
 30
0.0
 10
12.4925472874
 20
9.0637904191
 30
0.0
 10
12.4907759472
 20
9.0726956533
 30
0.0
 10
12.4888680946
 20
9.0811322868
 30
0.0
 10
12.4868283518
 20
9.0890803027
 30
0.0
 10
12.4846616385
 20
9.0965209716
 30
0.0
 10
12.4823731608
 20
9.1034366573
 30
0.0
 10
12.4803342009
 20
9.1088419764
 30
0.0
 10
12.4786398166
 20
9.112884647
 30
0.0
 10
12.4773648637
 20
9.1157207127
 30
0.0
 10
12.4760636373
 20
9.1184138584
 30
0.0
 10
12.4747369145
 20
9.1209625197
 30
0.0
 10
12.473385425
 20
9.1233651815
 30
0.0
 10
12.4720099743
 20
9.1256204516
 30
0.0
 10
12.4706113436
 20
9.1277270178
 30
0.0
 10
12.4691902759
 20
9.1296836286
 30
0.0
 10
12.4677475953
 20
9.1314891716
 30
0.0
 10
12.4662840302
 20
9.1331425578
 30
0.0
 10
12.4648003461
 20
9.1346427944
 30
0.0
 10
12.4632973202
 20
9.1359889779
 30
0.0
 10
12.4617756515
 20
9.1371801702
 30
0.0
 10
12.4602361437
 20
9.1382155664
 30
0.0
 10
12.4586795749
 20
9.1390943253
 30
0.0
 10
12.4571067969
 20
9.13981561
 30
0.0
 10
12.4555188102
 20
9.1403787342
 30
0.0
 10
12.4539166894
 20
9.1407829582
 30
0.0
 10
12.4523016943
 20
9.1410278058
 30
0.0
 10
12.4506751688
 20
9.1411129989
 30
0.0
 10
12.4490384967
 20
9.1410384072
 30
0.0
 10
12.4473930549
 20
9.1408043245
 30
0.0
 10
12.4457400128
 20
9.1404110436
 30
0.0
 10
12.4434876746
 20
9.139662048
 30
0.0
 10
12.4412589162
 20
9.1385958688
 30
0.0
 10
12.4390744084
 20
9.1372589403
 30
0.0
 10
12.4373988866
 20
9.1360794589
 30
0.0
 10
12.4357218679
 20
9.1347450986
 30
0.0
 10
12.4346288761
 20
9.1337755522
 30
0.0
 10
12.4340821606
 20
9.1332667562
 30
0.0
  0
SPLINE
  5
360
100
AcDbEntity
  8
0
100
AcDbSpline
 62
7
  6
CONTINUOUS
 70
0
 71
3
 72
64
 73
60
 74
0
 42
0.0000001
 43
0.0000001
 44
0.0000000001
 40
0.0
 40
0.0
 40
0.0
 40
0.0
 40
0.0081438225
 40
0.0169767329
 40
0.0265207112
 40
0.0367894254
 40
0.0477880522
 40
0.0595154814
 40
0.0719655878
 40
0.0851278048
 40
0.0989879293
 40
0.1135286419
 40
0.1287297598
 40
0.1445686607
 40
0.161020561
 40
0.1780586131
 40
0.1956541848
 40
0.2137770432
 40
0.2323953996
 40
0.2514761184
 40
0.2709848629
 40
0.2908861283
 40
0.3317185223
 40
0.3736720652
 40
0.4164335211
 40
0.4596817842
 40
0.5030910807
 40
0.5463340889
 40
0.589085086
 40
0.6310230706
 40
0.6718349506
 40
0.7112187893
 40
0.7302851809
 40
0.7488881287
 40
0.766994527
 40
0.784572648
 40
0.8015923073
 40
0.8180249135
 40
0.8338436972
 40
0.8490239403
 40
0.8635430796
 40
0.8773810344
 40
0.8905205778
 40
0.9029476025
 40
0.9146516917
 40
0.9256268362
 40
0.9358721574
 40
0.9453931212
 40
0.9542031594
 40
0.9623256124
 40
0.9697965425
 40
0.9766683085
 40
0.9830135138
 40
0.9860198807
 40
0.9889331503
 40
0.9917695126
 40
0.9945466408
 40
0.9972835084
 40
1.0
 40
1.0
 40
1.0
 40
1.0
 10
12.4044562339
 20
8.6516988006
 30
0.0
 10
12.4054042409
 20
8.6526145051
 30
0.0
 10
12.4072953351
 20
8.6546125918
 30
0.0
 10
12.4100127109
 20
8.6579389364
 30
0.0
 10
12.4127184053
 20
8.6617069183
 30
0.0
 10
12.4154071766
 20
8.6659090184
 30
0.0
 10
12.4180740832
 20
8.6705373816
 30
0.0
 10
12.42071389
 20
8.6755830296
 30
0.0
 10
12.4233213714
 20
8.6810361163
 30
0.0
 10
12.4258913391
 20
8.6868858964
 30
0.0
 10
12.4284186343
 20
8.6931207848
 30
0.0
 10
12.4308981458
 20
8.6997283904
 30
0.0
 10
12.4333248873
 20
8.7066955278
 30
0.0
 10
12.4356939599
 20
8.7140082702
 30
0.0
 10
12.4380005571
 20
8.7216519847
 30
0.0
 10
12.4402400317
 20
8.7296113476
 30
0.0
 10
12.4424078628
 20
8.7378703918
 30
0.0
 10
12.444499652
 20
8.7464125451
 30
0.0
 10
12.4465111872
 20
8.7552206516
 30
0.0
 10
12.4484384068
 20
8.7642770121
 30
0.0
 10
12.4502774218
 20
8.7735634455
 30
0.0
 10
12.4526268902
 20
8.7863363623
 30
0.0
 10
12.4553101521
 20
8.8027397722
 30
0.0
 10
12.4580980543
 20
8.8228687752
 30
0.0
 10
12.4604581322
 20
8.8434460021
 30
0.0
 10
12.462371334
 20
8.8643061014
 30
0.0
 10
12.4638222047
 20
8.8852815578
 30
0.0
 10
12.4647990896
 20
8.9062038792
 30
0.0
 10
12.4652942228
 20
8.9269050016
 30
0.0
 10
12.4653037769
 20
8.9472187108
 30
0.0
 10
12.4648278444
 20
8.9669817925
 30
0.0
 10
12.4640218433
 20
8.9830288893
 30
0.0
 10
12.4631289658
 20
8.9954679755
 30
0.0
 10
12.4623487572
 20
9.0044616092
 30
0.0
 10
12.461452418
 20
9.0132023287
 30
0.0
 10
12.460441747
 20
9.0216725936
 30
0.0
 10
12.4593188238
 20
9.0298553974
 30
0.0
 10
12.4580859208
 20
9.0377343212
 30
0.0
 10
12.4567455417
 20
9.0452935682
 30
0.0
 10
12.4553004331
 20
9.0525180037
 30
0.0
 10
12.4537535228
 20
9.0593931791
 30
0.0
 10
12.4521079446
 20
9.0659053724
 30
0.0
 10
12.4503670572
 20
9.0720416316
 30
0.0
 10
12.4485343665
 20
9.0777897936
 30
0.0
 10
12.4466135376
 20
9.0831385276
 30
0.0
 10
12.4446084091
 20
9.0880773889
 30
0.0
 10
12.4425228745
 20
9.0925968306
 30
0.0
 10
12.4403608552
 20
9.0966882368
 30
0.0
 10
12.4381262321
 20
9.1003439813
 30
0.0
 10
12.4358227005
 20
9.1035573055
 30
0.0
 10
12.4334533386
 20
9.1063223203
 30
0.0
 10
12.4310214236
 20
9.1086332478
 30
0.0
 10
12.4289065877
 20
9.1102036714
 30
0.0
 10
12.4271934037
 20
9.1112094827
 30
0.0
 10
12.425919323
 20
9.1118332603
 30
0.0
 10
12.4246338225
 20
9.1123394214
 30
0.0
 10
12.4233375072
 20
9.1127274866
 30
0.0
 10
12.4220313272
 20
9.1129971098
 30
0.0
 10
12.4211530878
 20
9.1130978829
 30
0.0
 10
12.4207144894
 20
9.113128302
 30
0.0
  0
SPLINE
  5
361
100
AcDbEntity
  8
0
100
AcDbSpline
 62
7
  6
CONTINUOUS
 70
0
 71
3
 72
27
 73
23
 74
0
 42
0.0000001
 43
0.0000001
 44
0.0000000001
 40
0.0
 40
0.0
 40
0.0
 40
0.0
 40
0.0679331167
 40
0.1352596488
 40
0.2019191793
 40
0.2678414094
 40
0.3329455681
 40
0.3971354089
 40
0.4603139384
 40
0.4914938677
 40
0.5223881706
 40
0.5832692783
 40
0.6429792829
 40
0.7016946315
 40
0.7308247356
 40
0.7598912617
 40
0.7889889235
 40
0.8182136697
 40
0.8476588659
 40
0.8774004119
 40
0.9379316822
 40
1.0
 40
1.0
 40
1.0
 40
1.0
 10
10.7115278492
 20
7.7593399832
 30
0.0
 10
10.7121931479
 20
7.7586399249
 30
0.0
 10
10.7135062468
 20
7.7572350006
 30
0.0
 10
10.7154253008
 20
7.7550999213
 30
0.0
 10
10.7172766264
 20
7.7529432778
 30
0.0
 10
10.7190491337
 20
7.7507618249
 30
0.0
 10
10.7207288414
 20
7.7485518231
 30
0.0
 10
10.7222971245
 20
7.7463085828
 30
0.0
 10
10.7234975774
 20
7.7443993546
 30
0.0
 10
10.7243742266
 20
7.7428490793
 30
0.0
 10
10.7251816172
 20
7.7412984433
 30
0.0
 10
10.7260642417
 20
7.7393308037
 30
0.0
 10
10.7268748624
 20
7.7369089025
 30
0.0
 10
10.727291182
 20
7.73484543
 30
0.0
 10
10.7274361536
 20
7.7331882276
 30
0.0
 10
10.7274468567
 20
7.7319458713
 30
0.0
 10
10.7273547842
 20
7.7307054959
 30
0.0
 10
10.7271591441
 20
7.7294717295
 30
0.0
 10
10.7268599124
 20
7.7282495224
 30
0.0
 10
10.7263256462
 20
7.7266319705
 30
0.0
 10
10.7254172718
 20
7.7246578163
 30
0.0
 10
10.7244986842
 20
7.7231722608
 30
0.0
 10
10.7239997289
 20
7.7224444868
 30
0.0
  0
SPLINE
  5
362
100
AcDbEntity
  8
0
100
AcDbSpline
 62
7
  6
CONTINUOUS
 70
0
 71
3
 72
27
 73
23
 74
0
 42
0.0000001
 43
0.0000001
 44
0.0000000001
 40
0.0
 40
0.0
 40
0.0
 40
0.0
 40
0.0208136893
 40
0.0425491526
 40
0.065191778
 40
0.0887276049
 40
0.1131402031
 40
0.13841013
 40
0.1645160882
 40
0.1914352081
 40
0.2476108945
 40
0.3067236515
 40
0.3685367186
 40
0.4327948828
 40
0.4992270163
 40
0.5675483501
 40
0.6374625912
 40
0.7086639436
 40
0.7808390568
 40
0.8536689321
 40
0.9268308028
 40
1.0
 40
1.0
 40
1.0
 40
1.0
 10
10.9566250041
 20
7.8234065919
 30
0.0
 10
10.9550378526
 20
7.8241006456
 30
0.0
 10
10.951772203
 20
7.8254717205
 30
0.0
 10
10.9467153778
 20
7.8274397324
 30
0.0
 10
10.9413992767
 20
7.829361575
 30
0.0
 10
10.9358303652
 20
7.8312349351
 30
0.0
 10
10.9300151331
 20
7.833057618
 30
0.0
 10
10.923960449
 20
7.8348274364
 30
0.0
 10
10.9176734968
 20
7.8365423061
 30
0.0
 10
10.9088655782
 20
7.8387846375
 30
0.0
 10
10.8973263307
 20
7.8414255375
 30
0.0
 10
10.8828681907
 20
7.8443017385
 30
0.0
 10
10.86767723
 20
7.8469144835
 30
0.0
 10
10.8518255531
 20
7.8492512015
 30
0.0
 10
10.8353883009
 20
7.8513006227
 30
0.0
 10
10.8184435028
 20
7.8530528806
 30
0.0
 10
10.8010716255
 20
7.8544995434
 30
0.0
 10
10.7833551961
 20
7.8556336543
 30
0.0
 10
10.7653784042
 20
7.8564497622
 30
0.0
 10
10.7472266643
 20
7.8569439443
 30
0.0
 10
10.7289863289
 20
7.8571138301
 30
0.0
 10
10.7168072418
 20
7.8570101887
 30
0.0
 10
10.7107184861
 20
7.856903763
 30
0.0
  0
SPLINE
  5
363
100
AcDbEntity
  8
0
100
AcDbSpline
 62
7
  6
CONTINUOUS
 70
0
 71
3
 72
55
 73
51
 74
0
 42
0.0000001
 43
0.0000001
 44
0.0000000001
 40
0.0
 40
0.0
 40
0.0
 40
0.0
 40
0.0082511912
 40
0.0168226418
 40
0.0257073663
 40
0.0348950419
 40
0.0541234675
 40
0.0641322981
 40
0.0743809269
 40
0.0795897562
 40
0.0848523588
 40
0.0955318617
 40
0.1064121934
 40
0.1175012198
 40
0.1288372325
 40
0.1346266375
 40
0.1405182268
 40
0.146535372
 40
0.1527044908
 40
0.1590530528
 40
0.1656060873
 40
0.1723803235
 40
0.1793827354
 40
0.1866088677
 40
0.1940449424
 40
0.2016710813
 40
0.2094647434
 40
0.2174032727
 40
0.2254658076
 40
0.2336334808
 40
0.2418909569
 40
0.2586217482
 40
0.2755768654
 40
0.2926995428
 40
0.3099501219
 40
0.3272999538
 40
0.3447289237
 40
0.3622215973
 40
0.397353751
 40
0.4326302746
 40
0.4680077933
 40
0.5034561553
 40
0.5389531684
 40
0.5744817995
 40
0.6455821512
 40
0.7166756588
 40
0.7877039726
 40
0.8586227708
 40
0.9293979682
 40
1.0
 40
1.0
 40
1.0
 40
1.0
 10
10.7907690899
 20
7.6869821334
 30
0.0
 10
10.7906479023
 20
7.6876301647
 30
0.0
 10
10.7903694047
 20
7.688945625
 30
0.0
 10
10.7898657377
 20
7.6909373233
 30
0.0
 10
10.7892778611
 20
7.6929836783
 30
0.0
 10
10.7883831339
 20
7.6958267744
 30
0.0
 10
10.7873792347
 20
7.698728526
 30
0.0
 10
10.7863297231
 20
7.7017036752
 30
0.0
 10
10.7856603507
 20
7.7036252085
 30
0.0
 10
10.7851324245
 20
7.7051943229
 30
0.0
 10
10.7846090157
 20
7.7068011912
 30
0.0
 10
10.7839856431
 20
7.7088520205
 30
0.0
 10
10.7833301039
 20
7.7113780851
 30
0.0
 10
10.7828197434
 20
7.7139919286
 30
0.0
 10
10.7825801788
 20
7.7162378936
 30
0.0
 10
10.7825446727
 20
7.7180776981
 30
0.0
 10
10.7826110147
 20
7.7194913818
 30
0.0
 10
10.7827845803
 20
7.7209267489
 30
0.0
 10
10.7830788421
 20
7.72237982
 30
0.0
 10
10.7835045231
 20
7.7238447571
 30
0.0
 10
10.784069051
 20
7.7253139427
 30
0.0
 10
10.7847741547
 20
7.7267791499
 30
0.0
 10
10.7856162418
 20
7.7282324355
 30
0.0
 10
10.7865876259
 20
7.7296666987
 30
0.0
 10
10.7876763277
 20
7.7310772466
 30
0.0
 10
10.7888697666
 20
7.7324605222
 30
0.0
 10
10.7901541865
 20
7.7338153627
 30
0.0
 10
10.791517204
 20
7.7351413973
 30
0.0
 10
10.7929472153
 20
7.7364396079
 30
0.0
 10
10.7944343752
 20
7.7377113887
 30
0.0
 10
10.7964911705
 20
7.7393813447
 30
0.0
 10
10.7991617103
 20
7.7414075027
 30
0.0
 10
10.8024751323
 20
7.7437538822
 30
0.0
 10
10.8058814541
 20
7.7460383877
 30
0.0
 10
10.80935925
 20
7.7482712015
 30
0.0
 10
10.8128930285
 20
7.7504610035
 30
0.0
 10
10.8164717267
 20
7.7526142745
 30
0.0
 10
10.8212988474
 20
7.7554478529
 30
0.0
 10
10.8274037423
 20
7.758920763
 30
0.0
 10
10.8348052015
 20
7.763002657
 30
0.0
 10
10.8422699098
 20
7.7670211783
 30
0.0
 10
10.8497822198
 20
7.7709877653
 30
0.0
 10
10.8573310708
 20
7.7749105708
 30
0.0
 10
10.8674361539
 20
7.780091517
 30
0.0
 10
10.8801170944
 20
7.78648188
 30
0.0
 10
10.8953849693
 20
7.7940404612
 30
0.0
 10
10.9106830304
 20
7.8015046833
 30
0.0
 10
10.9259941243
 20
7.8088836884
 30
0.0
 10
10.9413053662
 20
7.8161835568
 30
0.0
 10
10.9515199133
 20
7.8210066676
 30
0.0
 10
10.9566250041
 20
7.8234065919
 30
0.0
  0
SPLINE
  5
364
100
AcDbEntity
  8
0
100
AcDbSpline
 62
7
  6
CONTINUOUS
 70
0
 71
3
 72
61
 73
57
 74
0
 42
0.0000001
 43
0.0000001
 44
0.0000000001
 40
0.0
 40
0.0
 40
0.0
 40
0.0
 40
0.0085500831
 40
0.0176518282
 40
0.0273119388
 40
0.0375330487
 40
0.0483143346
 40
0.0596520489
 40
0.0715399689
 40
0.0839696868
 40
0.0969308502
 40
0.110411427
 40
0.1243978625
 40
0.1388751847
 40
0.1538271778
 40
0.1692364905
 40
0.185084685
 40
0.2013523522
 40
0.2180192038
 40
0.2350641067
 40
0.252465154
 40
0.2701997535
 40
0.2882446631
 40
0.3065760341
 40
0.3439996166
 40
0.3822705894
 40
0.4211822648
 40
0.4605233554
 40
0.5000795412
 40
0.5396349815
 40
0.5789738425
 40
0.6178818121
 40
0.6561476434
 40
0.6935646733
 40
0.711892258
 40
0.729933038
 40
0.7476631939
 40
0.7650594851
 40
0.7820993091
 40
0.7987607922
 40
0.8150228167
 40
0.8308650777
 40
0.846268195
 40
0.8612137644
 40
0.8756844182
 40
0.889663959
 40
0.9031374659
 40
0.9160913786
 40
0.9285136711
 40
0.9403940542
 40
0.9517241379
 40
0.9624977005
 40
0.972711059
 40
0.9823634567
 40
0.9914575366
 40
1.0
 40
1.0
 40
1.0
 40
1.0
 10
11.1987740935
 20
10.4607658596
 30
0.0
 10
11.1965349526
 20
10.462368421
 30
0.0
 10
11.1918152467
 20
10.4655428414
 30
0.0
 10
11.1842798562
 20
10.4700853834
 30
0.0
 10
11.1760799268
 20
10.4745501083
 30
0.0
 10
11.1672273695
 20
10.4789304834
 30
0.0
 10
11.1577347002
 20
10.483220322
 30
0.0
 10
11.1476155588
 20
10.4874134243
 30
0.0
 10
11.1368845004
 20
10.4915036878
 30
0.0
 10
11.1255570338
 20
10.495485133
 30
0.0
 10
11.1136495826
 20
10.499351949
 30
0.0
 10
11.1011794368
 20
10.5030984592
 30
0.0
 10
11.0881647302
 20
10.5067191491
 30
0.0
 10
11.074624423
 20
10.5102087165
 30
0.0
 10
11.0605782533
 20
10.5135620339
 30
0.0
 10
11.0460467061
 20
10.5167741577
 30
0.0
 10
11.031050994
 20
10.519840377
 30
0.0
 10
11.0156130164
 20
10.5227561922
 30
0.0
 10
10.9997553195
 20
10.525517306
 30
0.0
 10
10.9835010737
 20
10.5281196623
 30
0.0
 10
10.9668740347
 20
10.5305594508
 30
0.0
 10
10.9498985094
 20
10.5328330748
 30
0.0
 10
10.9325992902
 20
10.534937208
 30
0.0
 10
10.9089736448
 20
10.537530336
 30
0.0
 10
10.8788186345
 20
10.5403177547
 30
0.0
 10
10.8419992796
 20
10.5429219378
 30
0.0
 10
10.8045170742
 20
10.54479238
 30
0.0
 10
10.7665911452
 20
10.5459180633
 30
0.0
 10
10.7284430592
 20
10.546292291
 30
0.0
 10
10.6902957426
 20
10.5459128603
 30
0.0
 10
10.652372119
 20
10.544782022
 30
0.0
 10
10.6148937405
 20
10.5429064594
 30
0.0
 10
10.5780797107
 20
10.5402972725
 30
0.0
 10
10.5479300886
 20
10.5375057149
 30
0.0
 10
10.5243094869
 20
10.5349093411
 30
0.0
 10
10.5070145658
 20
10.5328028366
 30
0.0
 10
10.4900436812
 20
10.5305269005
 30
0.0
 10
10.4734216215
 20
10.5280848504
 30
0.0
 10
10.4571726906
 20
10.5254802672
 30
0.0
 10
10.4413206301
 20
10.5227169893
 30
0.0
 10
10.4258886014
 20
10.5197990789
 30
0.0
 10
10.41089915
 20
10.5167308085
 30
0.0
 10
10.3963741609
 20
10.5135166972
 30
0.0
 10
10.3823348313
 20
10.5101614762
 30
0.0
 10
10.368801646
 20
10.5066700628
 30
0.0
 10
10.3557943321
 20
10.503047589
 30
0.0
 10
10.343331827
 20
10.4992993893
 30
0.0
 10
10.3314322622
 20
10.4954309576
 30
0.0
 10
10.3201129232
 20
10.4914479575
 30
0.0
 10
10.3093902049
 20
10.4873562374
 30
0.0
 10
10.2992796062
 20
10.4831617699
 30
0.0
 10
10.2897956885
 20
10.4788706266
 30
0.0
 10
10.2809520572
 20
10.4744890432
 30
0.0
 10
10.272761205
 20
10.4700232128
 30
0.0
 10
10.2652350834
 20
10.4654796302
 30
0.0
 10
10.260521763
 20
10.4623045236
 30
0.0
 10
10.2582858707
 20
10.460701641
 30
0.0
  0
SPLINE
  5
365
100
AcDbEntity
  8
0
100
AcDbSpline
 62
7
  6
CONTINUOUS
 70
0
 71
3
 72
46
 73
42
 74
0
 42
0.0000001
 43
0.0000001
 44
0.0000000001
 40
0.0
 40
0.0
 40
0.0
 40
0.0
 40
0.0112073763
 40
0.0228002203
 40
0.0347721982
 40
0.0471162545
 40
0.0598246425
 40
0.0728890297
 40
0.1000488613
 40
0.1285188471
 40
0.158213824
 40
0.1890420372
 40
0.2209059277
 40
0.2537028361
 40
0.2873256502
 40
0.321663413
 40
0.3566019035
 40
0.3920242006
 40
0.4278112336
 40
0.4638423255
 40
0.4999957306
 40
0.5361491696
 40
0.5721803632
 40
0.6079675654
 40
0.6433900987
 40
0.6783288914
 40
0.712667021
 40
0.7462902652
 40
0.7790876647
 40
0.8109521051
 40
0.8417809244
 40
0.8714765603
 40
0.8999472544
 40
0.9136966633
 40
0.9271084882
 40
0.9401732573
 40
0.9528820575
 40
0.9652265139
 40
0.9771989212
 40
0.9887921818
 40
1.0
 40
1.0
 40
1.0
 40
1.0
 10
11.0821199427
 20
10.4131999105
 30
0.0
 10
11.0796109365
 20
10.414134568
 30
0.0
 10
11.0744861981
 20
10.4159815736
 30
0.0
 10
11.0666170993
 20
10.4186447609
 30
0.0
 10
11.0584417341
 20
10.4212455707
 30
0.0
 10
11.0499675309
 20
10.4237816053
 30
0.0
 10
11.0412021236
 20
10.4262506079
 30
0.0
 10
11.0289786208
 20
10.4294921544
 30
0.0
 10
11.013024802
 20
10.4333488855
 30
0.0
 10
10.9930906609
 20
10.4376179105
 30
0.0
 10
10.9721988129
 20
10.4415700386
 30
0.0
 10
10.9504248584
 20
10.4451908105
 30
0.0
 10
10.9278474638
 20
10.4484669553
 30
0.0
 10
10.9045483137
 20
10.4513864799
 30
0.0
 10
10.8806117295
 20
10.4539387002
 30
0.0
 10
10.8561243756
 20
10.4561142811
 30
0.0
 10
10.8311749318
 20
10.457905268
 30
0.0
 10
10.8058537685
 20
10.459305115
 30
0.0
 10
10.7802526147
 20
10.4603087068
 30
0.0
 10
10.7544642221
 20
10.460912377
 30
0.0
 10
10.7285820258
 20
10.4611139203
 30
0.0
 10
10.7026998034
 20
10.4609126007
 30
0.0
 10
10.6769113327
 20
10.4603091537
 30
0.0
 10
10.651310049
 20
10.4593057836
 30
0.0
 10
10.6259887043
 20
10.4579061561
 30
0.0
 10
10.6010390282
 20
10.4561153855
 30
0.0
 10
10.5765513917
 20
10.4539400172
 30
0.0
 10
10.5526144767
 20
10.4513880045
 30
0.0
 10
10.5293149447
 20
10.4484686825
 30
0.0
 10
10.5067371325
 20
10.4451927322
 30
0.0
 10
10.4849626775
 20
10.4415721545
 30
0.0
 10
10.4640704201
 20
10.4376201883
 30
0.0
 10
10.4472686322
 20
10.4340223451
 30
0.0
 10
10.4343304642
 20
10.4309810142
 30
0.0
 10
10.4250063989
 20
10.4286528997
 30
0.0
 10
10.4159574196
 20
10.4262533039
 30
0.0
 10
10.4071916974
 20
10.4237844043
 30
0.0
 10
10.3987171649
 20
10.4212484266
 30
0.0
 10
10.3905414611
 20
10.4186477018
 30
0.0
 10
10.3826720188
 20
10.4159845691
 30
0.0
 10
10.3775470424
 20
10.4141376194
 30
0.0
 10
10.3750379159
 20
10.4132029822
 30
0.0
  0
SPLINE
  5
366
100
AcDbEntity
  8
0
100
AcDbSpline
 62
7
  6
CONTINUOUS
 70
0
 71
3
 72
19
 73
15
 74
0
 42
0.0000001
 43
0.0000001
 44
0.0000000001
 40
0.0
 40
0.0
 40
0.0
 40
0.0
 40
0.1291539397
 40
0.2580323136
 40
0.3862480967
 40
0.4499543838
 40
0.5133008199
 40
0.5762165003
 40
0.6386333517
 40
0.7004898817
 40
0.7617344371
 40
0.8223275266
 40
0.8822429058
 40
1.0
 40
1.0
 40
1.0
 40
1.0
 10
10.8767415109
 20
7.6566604296
 30
0.0
 10
10.8850685766
 20
7.6561586383
 30
0.0
 10
10.9017079431
 20
7.65520616
 30
0.0
 10
10.9266184007
 20
7.6538362692
 30
0.0
 10
10.947306215
 20
7.6526668619
 30
0.0
 10
10.9637645441
 20
7.6516773683
 30
0.0
 10
10.9760104316
 20
7.6509044704
 30
0.0
 10
10.9881704981
 20
7.6500950916
 30
0.0
 10
11.0002315219
 20
7.6492479169
 30
0.0
 10
11.0121817092
 20
7.648364463
 30
0.0
 10
11.0240113365
 20
7.6474490203
 30
0.0
 10
11.0357131935
 20
7.6465083131
 30
0.0
 10
11.0510505996
 20
7.645239481
 30
0.0
 10
11.0624853823
 20
7.644267321
 30
0.0
 10
11.0700643787
 20
7.6436265147
 30
0.0
  0
SPLINE
  5
367
100
AcDbEntity
  8
0
100
AcDbSpline
 62
7
  6
CONTINUOUS
 70
0
 71
3
 72
86
 73
82
 74
0
 42
0.0000001
 43
0.0000001
 44
0.0000000001
 40
0.0
 40
0.0
 40
0.0
 40
0.0
 40
0.0039801735
 40
0.0081241171
 40
0.0124359931
 40
0.016919361
 40
0.0215772361
 40
0.0264119817
 40
0.0314252561
 40
0.0366182449
 40
0.0419916453
 40
0.0475457694
 40
0.0532805541
 40
0.0591955582
 40
0.0652900785
 40
0.0715630739
 40
0.0846387684
 40
0.0984101018
 40
0.112860694
 40
0.1279712428
 40
0.1437198619
 40
0.1600823544
 40
0.1770324406
 40
0.1945419645
 40
0.2125810668
 40
0.2311183398
 40
0.2501209668
 40
0.2695548486
 40
0.289384725
 40
0.3095742955
 40
0.3300863312
 40
0.3508827821
 40
0.3719248818
 40
0.3931732491
 40
0.4145879914
 40
0.4577543474
 40
0.501099203
 40
0.5442952951
 40
0.5657359749
 40
0.587017582
 40
0.6081001434
 40
0.6289441761
 40
0.6495107926
 40
0.6697618048
 40
0.6896598276
 40
0.709168385
 40
0.7282520204
 40
0.7468764117
 40
0.7650084972
 40
0.7826166038
 40
0.7996705814
 40
0.8161419537
 40
0.8320040874
 40
0.8472323859
 40
0.8618045214
 40
0.8757007003
 40
0.8889039845
 40
0.9014006969
 40
0.9073810972
 40
0.9131815075
 40
0.9188013673
 40
0.9242405009
 40
0.9294990443
 40
0.9345775709
 40
0.9394770909
 40
0.9441990928
 40
0.9487456636
 40
0.9531194621
 40
0.9573238984
 40
0.9613631411
 40
0.9652422549
 40
0.9689673208
 40
0.9725454977
 40
0.9759852252
 40
0.9824864215
 40
0.9855752926
 40
0.9885737717
 40
0.9914977072
 40
0.9943643167
 40
0.9971920017
 40
1.0
 40
1.0
 40
1.0
 40
1.0
 10
10.2456118675
 20
10.5381498695
 30
0.0
 10
10.2466021449
 20
10.5391064041
 30
0.0
 10
10.2486684182
 20
10.5410127121
 30
0.0
 10
10.2519490299
 20
10.5437970256
 30
0.0
 10
10.2554705528
 20
10.546561378
 30
0.0
 10
10.2592310537
 20
10.5493042801
 30
0.0
 10
10.263228686
 20
10.5520244642
 30
0.0
 10
10.267461505
 20
10.5547205929
 30
0.0
 10
10.271927389
 20
10.5573913928
 30
0.0
 10
10.2766241245
 20
10.5600354738
 30
0.0
 10
10.2815493423
 20
10.5626515509
 30
0.0
 10
10.2867005834
 20
10.5652383067
 30
0.0
 10
10.2920752718
 20
10.567794432
 30
0.0
 10
10.2976706973
 20
10.5703186712
 30
0.0
 10
10.3034840684
 20
10.5728097254
 30
0.0
 10
10.3116349237
 20
10.5761312264
 30
0.0
 10
10.3223539819
 20
10.5801821173
 30
0.0
 10
10.3358654736
 20
10.5848265227
 30
0.0
 10
10.3501706053
 20
10.589309668
 30
0.0
 10
10.3652405359
 20
10.593622441
 30
0.0
 10
10.3810450144
 20
10.5977560622
 30
0.0
 10
10.3975522038
 20
10.6017021116
 30
0.0
 10
10.4147288246
 20
10.6054525535
 30
0.0
 10
10.4325402122
 20
10.6089997487
 30
0.0
 10
10.4509504004
 20
10.6123364721
 30
0.0
 10
10.4699221969
 20
10.6154559281
 30
0.0
 10
10.4894172603
 20
10.6183517632
 30
0.0
 10
10.5093961782
 20
10.6210180816
 30
0.0
 10
10.5298185486
 20
10.6234494597
 30
0.0
 10
10.5506430663
 20
10.6256409512
 30
0.0
 10
10.5718276074
 20
10.6275880978
 30
0.0
 10
10.5933293194
 20
10.6292869399
 30
0.0
 10
10.6151046918
 20
10.6307340145
 30
0.0
 10
10.6371097042
 20
10.631926402
 30
0.0
 10
10.6667738454
 20
10.6331765866
 30
0.0
 10
10.7041000287
 20
10.6340846671
 30
0.0
 10
10.748971812
 20
10.6341320135
 30
0.0
 10
10.7863190858
 20
10.6333028587
 30
0.0
 10
10.8160165941
 20
10.6321156891
 30
0.0
 10
10.838058593
 20
10.6309699008
 30
0.0
 10
10.8598790187
 20
10.6295689483
 30
0.0
 10
10.8814337585
 20
10.6279156543
 30
0.0
 10
10.9026791925
 20
10.6260133874
 30
0.0
 10
10.9235723443
 20
10.6238660173
 30
0.0
 10
10.9440709513
 20
10.6214779133
 30
0.0
 10
10.9641335547
 20
10.618853934
 30
0.0
 10
10.9837195822
 20
10.6159994188
 30
0.0
 10
11.0027894334
 20
10.6129201753
 30
0.0
 10
11.0213045646
 20
10.6096224736
 30
0.0
 10
11.0392275688
 20
10.6061130313
 30
0.0
 10
11.0565222526
 20
10.6023989971
 30
0.0
 10
11.0731537122
 20
10.5984879365
 30
0.0
 10
11.0890884066
 20
10.5943878163
 30
0.0
 10
11.1042942416
 20
10.5901069843
 30
0.0
 10
11.118740623
 20
10.5856541561
 30
0.0
 10
11.1323986128
 20
10.5810383854
 30
0.0
 10
11.1452407104
 20
10.576269043
 30
0.0
 10
11.1553848067
 20
10.5721160497
 30
0.0
 10
11.1630644246
 20
10.5687163832
 30
0.0
 10
11.1685197326
 20
10.5661717026
 30
0.0
 10
11.1737525516
 20
10.5635959277
 30
0.0
 10
11.178760281
 20
10.5609903775
 30
0.0
 10
11.1835403969
 20
10.5583563228
 30
0.0
 10
11.1880905156
 20
10.5556950965
 30
0.0
 10
11.1924083707
 20
10.5530080291
 30
0.0
 10
11.1964917921
 20
10.5502964143
 30
0.0
 10
11.2003387754
 20
10.5475616346
 30
0.0
 10
11.2039473763
 20
10.5448049655
 30
0.0
 10
11.2073158274
 20
10.5420277764
 30
0.0
 10
11.2104424347
 20
10.5392313773
 30
0.0
 10
11.2133256368
 20
10.5364170422
 30
0.0
 10
11.2159639434
 20
10.5335862071
 30
0.0
 10
11.2183561566
 20
10.5307397682
 30
0.0
 10
11.2211625054
 20
10.5269970788
 30
0.0
 10
11.2235455176
 20
10.5231534714
 30
0.0
 10
11.2254375572
 20
10.5192278123
 30
0.0
 10
11.2265807026
 20
10.5163244845
 30
0.0
 10
11.2274709565
 20
10.5134141065
 30
0.0
 10
11.2281074904
 20
10.5104980625
 30
0.0
 10
11.2284897121
 20
10.5075784581
 30
0.0
 10
11.2285748011
 20
10.5056279282
 30
0.0
 10
11.2285748055
 20
10.5046565932
 30
0.0
  0
SPLINE
  5
368
100
AcDbEntity
  8
0
100
AcDbSpline
 62
7
  6
CONTINUOUS
 70
0
 71
3
 72
69
 73
65
 74
0
 42
0.0000001
 43
0.0000001
 44
0.0000000001
 40
0.0
 40
0.0
 40
0.0
 40
0.0
 40
0.0155843576
 40
0.0311165404
 40
0.0465960308
 40
0.0620249371
 40
0.0774047753
 40
0.0927378621
 40
0.108026966
 40
0.1232752762
 40
0.1384864185
 40
0.1536643981
 40
0.1688135695
 40
0.1839385908
 40
0.1990443744
 40
0.2141360361
 40
0.2292188427
 40
0.2442981572
 40
0.2593793793
 40
0.2744678873
 40
0.2895689813
 40
0.3046878282
 40
0.319829407
 40
0.3349984551
 40
0.350199419
 40
0.3654364118
 40
0.3807131731
 40
0.3960330322
 40
0.4113988751
 40
0.4268131209
 40
0.4422777041
 40
0.4577940584
 40
0.473363106
 40
0.4889852529
 40
0.5046603946
 40
0.5203879208
 40
0.5361667243
 40
0.551995215
 40
0.5678713429
 40
0.5837926213
 40
0.599756151
 40
0.6157586479
 40
0.6317964791
 40
0.6478656978
 40
0.6800725949
 40
0.7123515113
 40
0.7285100947
 40
0.7446719372
 40
0.7608319994
 40
0.7769852592
 40
0.7931267537
 40
0.8092516208
 40
0.8253551437
 40
0.8414327945
 40
0.857480274
 40
0.8734935475
 40
0.889468884
 40
0.9054029007
 40
0.9212925699
 40
0.9371352942
 40
0.952928929
 40
0.9686714788
 40
0.9843625188
 40
1.0
 40
1.0
 40
1.0
 40
1.0
 10
11.0983496909
 20
7.6894789272
 30
0.0
 10
11.0983496909
 20
7.6852982418
 30
0.0
 10
11.0981450755
 20
7.6769493858
 30
0.0
 10
11.0972215399
 20
7.6644787286
 30
0.0
 10
11.0956839123
 20
7.6521104734
 30
0.0
 10
11.0935360545
 20
7.6398749958
 30
0.0
 10
11.0907829739
 20
7.6278015401
 30
0.0
 10
11.0874313271
 20
7.6159192909
 30
0.0
 10
11.0834891753
 20
7.6042568716
 30
0.0
 10
11.0789659867
 20
7.5928424052
 30
0.0
 10
11.0738726271
 20
7.5817034277
 30
0.0
 10
11.068221352
 20
7.5708668086
 30
0.0
 10
11.062025788
 20
7.5603586786
 30
0.0
 10
11.0553008597
 20
7.5502043856
 30
0.0
 10
11.0480627609
 20
7.5404284343
 30
0.0
 10
11.0403289277
 20
7.5310544209
 30
0.0
 10
11.0321180266
 20
7.5221049456
 30
0.0
 10
11.0234498613
 20
7.5136015939
 30
0.0
 10
11.0143453338
 20
7.5055648805
 30
0.0
 10
11.0048263923
 20
7.4980142064
 30
0.0
 10
10.9949160149
 20
7.4909677628
 30
0.0
 10
10.9846381158
 20
7.4844425272
 30
0.0
 10
10.9740174875
 20
7.4784542257
 30
0.0
 10
10.9630797403
 20
7.4730173043
 30
0.0
 10
10.9518512645
 20
7.4681448473
 30
0.0
 10
10.9403591494
 20
7.4638485655
 30
0.0
 10
10.9286311087
 20
7.4601387918
 30
0.0
 10
10.9166954168
 20
7.45702446
 30
0.0
 10
10.9045808509
 20
7.4545130537
 30
0.0
 10
10.8923166195
 20
7.4526105739
 30
0.0
 10
10.8799322807
 20
7.4513215725
 30
0.0
 10
10.8674576757
 20
7.4506491352
 30
0.0
 10
10.8549228616
 20
7.4505948685
 30
0.0
 10
10.8423580366
 20
7.4511588488
 30
0.0
 10
10.8297934641
 20
7.4523396824
 30
0.0
 10
10.8172594029
 20
7.4541345017
 30
0.0
 10
10.8047860397
 20
7.4565389795
 30
0.0
 10
10.7924034063
 20
7.4595472817
 30
0.0
 10
10.7801413099
 20
7.4631521306
 30
0.0
 10
10.7680292733
 20
7.467344823
 30
0.0
 10
10.7560964404
 20
7.4721152776
 30
0.0
 10
10.7443716034
 20
7.4774519357
 30
0.0
 10
10.7328827123
 20
7.483342104
 30
0.0
 10
10.7179070213
 20
7.4919195168
 30
0.0
 10
10.6999178413
 20
7.5039522991
 30
0.0
 10
10.6830913876
 20
7.5176011702
 30
0.0
 10
10.6704102973
 20
7.5294196914
 30
0.0
 10
10.6613087278
 20
7.5387162964
 30
0.0
 10
10.6526434358
 20
7.5484185816
 30
0.0
 10
10.6444350163
 20
7.5585033926
 30
0.0
 10
10.6367033032
 20
7.5689464056
 30
0.0
 10
10.6294669131
 20
7.5797225136
 30
0.0
 10
10.6227432665
 20
7.5908057678
 30
0.0
 10
10.6165485453
 20
7.6021694887
 30
0.0
 10
10.6108976738
 20
7.6137863279
 30
0.0
 10
10.6058042878
 20
7.6256283341
 30
0.0
 10
10.6012806623
 20
7.6376670028
 30
0.0
 10
10.5973376921
 20
7.6498733496
 30
0.0
 10
10.5939848832
 20
7.662217991
 30
0.0
 10
10.5912303413
 20
7.6746712327
 30
0.0
 10
10.5890807737
 20
7.6872030108
 30
0.0
 10
10.5875412473
 20
7.6997834011
 30
0.0
 10
10.5866156819
 20
7.7123815317
 30
0.0
 10
10.5864089727
 20
7.7207872001
 30
0.0
 10
10.5864089727
 20
7.7249821366
 30
0.0
  0
SPLINE
  5
369
100
AcDbEntity
  8
0
100
AcDbSpline
 62
7
  6
CONTINUOUS
 70
0
 71
3
 72
47
 73
43
 74
0
 42
0.0000001
 43
0.0000001
 44
0.0000000001
 40
0.0
 40
0.0
 40
0.0
 40
0.0
 40
0.0149719699
 40
0.0299469986
 40
0.0449281275
 40
0.0599183593
 40
0.0749206409
 40
0.0899378479
 40
0.1049727642
 40
0.1200280654
 40
0.1351063071
 40
0.1502099062
 40
0.1653411266
 40
0.1805020712
 40
0.195694667
 40
0.2109206532
 40
0.226181577
 40
0.2414787841
 40
0.2721808909
 40
0.30303905
 40
0.3340562704
 40
0.3652320501
 40
0.3965624391
 40
0.4280401707
 40
0.4596548674
 40
0.4913932962
 40
0.5232396724
 40
0.5551760134
 40
0.5871825188
 40
0.61923798
 40
0.6513202127
 40
0.6834065006
 40
0.7154740464
 40
0.7475004247
 40
0.7794640313
 40
0.8113445177
 40
0.8431232087
 40
0.8747834982
 40
0.9063112124
 40
0.9376949433
 40
0.9689261019
 40
1.0
 40
1.0
 40
1.0
 40
1.0
 10
11.1439263064
 20
7.3867581037
 30
0.0
 10
11.1402762314
 20
7.3832324073
 30
0.0
 10
11.1328342881
 20
7.3763246528
 30
0.0
 10
11.1212672334
 20
7.3664136646
 30
0.0
 10
11.1093107067
 20
7.3569658088
 30
0.0
 10
11.0969813724
 20
7.3479943322
 30
0.0
 10
11.0842961694
 20
7.3395114784
 30
0.0
 10
11.0712725658
 20
7.331528939
 30
0.0
 10
11.0579284616
 20
7.3240577257
 30
0.0
 10
11.0442822491
 20
7.3171080706
 30
0.0
 10
11.0303527042
 20
7.3106895317
 30
0.0
 10
11.0161589797
 20
7.3048109743
 30
0.0
 10
11.0017206265
 20
7.2994804331
 30
0.0
 10
10.9870575158
 20
7.2947052312
 30
0.0
 10
10.97218979
 20
7.2904919722
 30
0.0
 10
10.9571379953
 20
7.2868464018
 30
0.0
 10
10.9419225547
 20
7.2837735026
 30
0.0
 10
10.9214230323
 20
7.2804418233
 30
0.0
 10
10.8954858982
 20
7.2777326534
 30
0.0
 10
10.8640909676
 20
7.2768267183
 30
0.0
 10
10.8325547273
 20
7.2782654079
 30
0.0
 10
10.8010517184
 20
7.2820406779
 30
0.0
 10
10.7697547165
 20
7.2881313794
 30
0.0
 10
10.7388356867
 20
7.2965036716
 30
0.0
 10
10.7084643674
 20
7.3071112924
 30
0.0
 10
10.6788074802
 20
7.3198957427
 30
0.0
 10
10.6500277535
 20
7.3347865563
 30
0.0
 10
10.6222831224
 20
7.3517018416
 30
0.0
 10
10.5957258214
 20
7.3705486071
 30
0.0
 10
10.5705015372
 20
7.3912232677
 30
0.0
 10
10.5467487104
 20
7.4136123228
 30
0.0
 10
10.5245976943
 20
7.4375928514
 30
0.0
 10
10.5041700524
 20
7.4630332129
 30
0.0
 10
10.4855779965
 20
7.4897938362
 30
0.0
 10
10.468923647
 20
7.5177278667
 30
0.0
 10
10.4542985229
 20
7.546682023
 30
0.0
 10
10.4417831309
 20
7.5764974404
 30
0.0
 10
10.4314463654
 20
7.6070105263
 30
0.0
 10
10.4233452152
 20
7.638053637
 30
0.0
 10
10.4175245547
 20
7.669456921
 30
0.0
 10
10.4140165588
 20
7.7010456866
 30
0.0
 10
10.4132308416
 20
7.7221722965
 30
0.0
 10
10.4132308416
 20
7.7327048973
 30
0.0
  0
SPLINE
  5
36A
100
AcDbEntity
  8
0
100
AcDbSpline
 62
7
  6
CONTINUOUS
 70
0
 71
3
 72
45
 73
41
 74
0
 42
0.0000001
 43
0.0000001
 44
0.0000000001
 40
0.0
 40
0.0
 40
0.0
 40
0.0
 40
0.0149691714
 40
0.0299425107
 40
0.0449230116
 40
0.0599136223
 40
0.074917231
 40
0.0899366492
 40
0.104974592
 40
0.120033664
 40
0.1351163465
 40
0.1502249787
 40
0.1653617474
 40
0.1805286773
 40
0.2109546592
 40
0.241521074
 40
0.2722372378
 40
0.3031091074
 40
0.3341391963
 40
0.3653265683
 40
0.3966669148
 40
0.4281526939
 40
0.4597733285
 40
0.4915154682
 40
0.5233632927
 40
0.5552988529
 40
0.58730245
 40
0.6193530382
 40
0.6514286454
 40
0.6835068075
 40
0.7155650106
 40
0.747581133
 40
0.7795338816
 40
0.8114032159
 40
0.8431707572
 40
0.874820171
 40
0.9063375198
 40
0.9377116029
 40
0.9689339502
 40
1.0
 40
1.0
 40
1.0
 40
1.0
 10
11.1438965001
 20
7.3867894835
 30
0.0
 10
11.1402155255
 20
7.3833393687
 30
0.0
 10
11.1327153167
 20
7.3765829358
 30
0.0
 10
11.1210718634
 20
7.3668990705
 30
0.0
 10
11.1090494206
 20
7.3576776665
 30
0.0
 10
11.0966645511
 20
7.3489314992
 30
0.0
 10
11.0839340743
 20
7.3406723518
 30
0.0
 10
11.0708753013
 20
7.3329114942
 30
0.0
 10
11.0575059782
 20
7.3256594912
 30
0.0
 10
11.0438443226
 20
7.3189261468
 30
0.0
 10
11.0299088738
 20
7.3127206427
 30
0.0
 10
11.015718657
 20
7.307051434
 30
0.0
 10
11.0012927061
 20
7.3019261132
 30
0.0
 10
10.9817521917
 20
7.2958211691
 30
0.0
 10
10.9568249648
 20
7.2895849482
 30
0.0
 10
10.926328137
 20
7.2843816451
 30
0.0
 10
10.8953758428
 20
7.2814766335
 30
0.0
 10
10.8641375311
 20
7.2808857383
 30
0.0
 10
10.8327826618
 20
7.2826116936
 30
0.0
 10
10.8014816328
 20
7.2866447269
 30
0.0
 10
10.7704043667
 20
7.2929625863
 30
0.0
 10
10.7397195478
 20
7.3015306841
 30
0.0
 10
10.7095936482
 20
7.3123021769
 30
0.0
 10
10.6801900751
 20
7.3252183584
 30
0.0
 10
10.651668311
 20
7.3402089742
 30
0.0
 10
10.6241830028
 20
7.3571924892
 30
0.0
 10
10.597883174
 20
7.3760766307
 30
0.0
 10
10.5729114588
 20
7.3967589067
 30
0.0
 10
10.549403261
 20
7.4191270558
 30
0.0
 10
10.5274860605
 20
7.4430597107
 30
0.0
 10
10.5072787841
 20
7.4684270909
 30
0.0
 10
10.4888910883
 20
7.4950916232
 30
0.0
 10
10.4724227703
 20
7.5229086968
 30
0.0
 10
10.4579633161
 20
7.5517274948
 30
0.0
 10
10.4455913504
 20
7.5813917318
 30
0.0
 10
10.4353741674
 20
7.6117405561
 30
0.0
 10
10.427367467
 20
7.6426091997
 30
0.0
 10
10.4216150629
 20
7.6738307367
 30
0.0
 10
10.418148362
 20
7.7052335356
 30
0.0
 10
10.4173719431
 20
7.7262346549
 30
0.0
 10
10.4173719431
 20
7.7367048944
 30
0.0
  0
SPLINE
  5
36B
100
AcDbEntity
  8
0
100
AcDbSpline
 62
7
  6
CONTINUOUS
 70
0
 71
3
 72
39
 73
35
 74
0
 42
0.0000001
 43
0.0000001
 44
0.0000000001
 40
0.0
 40
0.0
 40
0.0
 40
0.0
 40
0.0299424706
 40
0.0599093177
 40
0.0899243239
 40
0.1200101031
 40
0.1501875623
 40
0.1804754149
 40
0.21088976
 40
0.241443737
 40
0.2721472612
 40
0.3030068434
 40
0.3340254949
 40
0.3652027136
 40
0.3965345483
 40
0.4280137339
 40
0.4596298915
 40
0.4913697862
 40
0.5232176339
 40
0.5551554503
 40
0.587163434
 40
0.6192203763
 40
0.6513040919
 40
0.6833918632
 40
0.7154608918
 40
0.7474887514
 40
0.7794538357
 40
0.8113357957
 40
0.8431159546
 40
0.8747777135
 40
0.906306863
 40
0.9376920938
 40
0.9689246722
 40
1.0
 40
1.0
 40
1.0
 40
1.0
 10
11.0134093421
 20
7.5457057095
 30
0.0
 10
11.0095107699
 20
7.5419399787
 30
0.0
 10
11.0014070739
 20
7.5347124255
 30
0.0
 10
10.9884236911
 20
7.524866162
 30
0.0
 10
10.9746788321
 20
7.5160642416
 30
0.0
 10
10.9602492958
 20
7.5083560423
 30
0.0
 10
10.9452144137
 20
7.5017836785
 30
0.0
 10
10.9296571621
 20
7.4963832797
 30
0.0
 10
10.9136632722
 20
7.4921843909
 30
0.0
 10
10.8973208595
 20
7.4892099349
 30
0.0
 10
10.8807199024
 20
7.4874760675
 30
0.0
 10
10.8639517526
 20
7.4869921096
 30
0.0
 10
10.8471086302
 20
7.4877605064
 30
0.0
 10
10.8302831206
 20
7.4897768251
 30
0.0
 10
10.8135676696
 20
7.4930297887
 30
0.0
 10
10.7970540825
 20
7.4975013467
 30
0.0
 10
10.7808330262
 20
7.5031667771
 30
0.0
 10
10.7649935361
 20
7.5099948238
 30
0.0
 10
10.7496225362
 20
7.5179478757
 30
0.0
 10
10.7348043684
 20
7.5269821738
 30
0.0
 10
10.7206203365
 20
7.5370480508
 30
0.0
 10
10.7071482654
 20
7.5480902028
 30
0.0
 10
10.6944620797
 20
7.5600479903
 30
0.0
 10
10.6826314025
 20
7.5728557683
 30
0.0
 10
10.6717211781
 20
7.5864432429
 30
0.0
 10
10.6617913178
 20
7.6007358528
 30
0.0
 10
10.6528963698
 20
7.6156551706
 30
0.0
 10
10.6450852274
 20
7.6311193354
 30
0.0
 10
10.6384008572
 20
7.6470434852
 30
0.0
 10
10.6328800797
 20
7.6633402532
 30
0.0
 10
10.6285533218
 20
7.6799201113
 30
0.0
 10
10.6254445551
 20
7.6966923299
 30
0.0
 10
10.6235709531
 20
7.7135636148
 30
0.0
 10
10.6231513141
 20
7.7248471467
 30
0.0
 10
10.6231513141
 20
7.7304725152
 30
0.0
  0
SPLINE
  5
36C
100
AcDbEntity
  8
0
100
AcDbSpline
 62
7
  6
CONTINUOUS
 70
0
 71
3
 72
16
 73
12
 74
0
 42
0.0000001
 43
0.0000001
 44
0.0000000001
 40
0.0
 40
0.0
 40
0.0
 40
0.0
 40
0.1227247244
 40
0.2468989503
 40
0.37221928
 40
0.4983225921
 40
0.6247545784
 40
0.7509577329
 40
0.8762733773
 40
0.938382269
 40
1.0
 40
1.0
 40
1.0
 40
1.0
 10
10.9566250041
 20
7.8234065919
 30
0.0
 10
10.9554263447
 20
7.8271686707
 30
0.0
 10
10.9530638054
 20
7.8347530455
 30
0.0
 10
10.9497084094
 20
7.846249633
 30
0.0
 10
10.946598393
 20
7.8579281641
 30
0.0
 10
10.9438231743
 20
7.8697661752
 30
0.0
 10
10.9414789862
 20
7.8817270883
 30
0.0
 10
10.9396630362
 20
7.8937548933
 30
0.0
 10
10.9386605687
 20
7.9038006975
 30
0.0
 10
10.9382017484
 20
7.9118008795
 30
0.0
 10
10.9380898844
 20
7.9157806767
 30
0.0
 10
10.9380640229
 20
7.917762934
 30
0.0
  0
SPLINE
  5
36D
100
AcDbEntity
  8
0
100
AcDbSpline
 62
7
  6
CONTINUOUS
 70
0
 71
3
 72
18
 73
14
 74
0
 42
0.0000001
 43
0.0000001
 44
0.0000000001
 40
0.0
 40
0.0
 40
0.0
 40
0.0
 40
0.0548621106
 40
0.1099281304
 40
0.165399556
 40
0.2214731722
 40
0.2783387379
 40
0.3361775111
 40
0.4554063056
 40
0.5804414047
 40
0.7123341351
 40
0.8519581983
 40
1.0
 40
1.0
 40
1.0
 40
1.0
 10
10.2285748129
 20
10.5046559584
 30
0.0
 10
10.2285748097
 20
10.5053621043
 30
0.0
 10
10.2286196223
 20
10.5067774264
 30
0.0
 10
10.2288211185
 20
10.5088981094
 30
0.0
 10
10.2291568689
 20
10.5110175687
 30
0.0
 10
10.2296267465
 20
10.5131350309
 30
0.0
 10
10.2302305536
 20
10.5152499671
 30
0.0
 10
10.2312237042
 20
10.5180939855
 30
0.0
 10
10.2328147212
 20
10.521651088
 30
0.0
 10
10.2352363545
 20
10.5258520441
 30
0.0
 10
10.2381857872
 20
10.5300258147
 30
0.0
 10
10.2416585321
 20
10.5341681934
 30
0.0
 10
10.2442413361
 20
10.5368260379
 30
0.0
 10
10.2456118675
 20
10.5381498695
 30
0.0
  0
SPLINE
  5
36E
100
AcDbEntity
  8
0
100
AcDbSpline
 62
7
  6
CONTINUOUS
 70
0
 71
3
 72
23
 73
19
 74
0
 42
0.0000001
 43
0.0000001
 44
0.0000000001
 40
0.0
 40
0.0
 40
0.0
 40
0.0
 40
0.0616994033
 40
0.1234251683
 40
0.185197337
 40
0.2470354943
 40
0.3089585766
 40
0.3709846908
 40
0.4331309421
 40
0.4954132756
 40
0.5578463258
 40
0.620443292
 40
0.6832158241
 40
0.7461738619
 40
0.8093258979
 40
0.8726776911
 40
0.9362356357
 40
1.0
 40
1.0
 40
1.0
 40
1.0
 10
10.532581273
 20
8.0196728879
 30
0.0
 10
10.5280105311
 20
8.0151231647
 30
0.0
 10
10.5190953932
 20
8.005789059
 30
0.0
 10
10.5064435781
 20
7.9911275373
 30
0.0
 10
10.4945376805
 20
7.9758350805
 30
0.0
 10
10.4834046201
 20
7.9599461484
 30
0.0
 10
10.4730690068
 20
7.9434959492
 30
0.0
 10
10.4635538212
 20
7.9265210986
 30
0.0
 10
10.4548801762
 20
7.9090593307
 30
0.0
 10
10.4470673226
 20
7.8911494693
 30
0.0
 10
10.440132592
 20
7.8728313264
 30
0.0
 10
10.4340913637
 20
7.8541456151
 30
0.0
 10
10.4289570342
 20
7.8351338697
 30
0.0
 10
10.42474094
 20
7.8158383143
 30
0.0
 10
10.4214524592
 20
7.7963019108
 30
0.0
 10
10.4190987421
 20
7.7765677879
 30
0.0
 10
10.4176851338
 20
7.7566804976
 30
0.0
 10
10.4173719431
 20
7.7433698953
 30
0.0
 10
10.4173719431
 20
7.7367048944
 30
0.0
  0
SPLINE
  5
36F
100
AcDbEntity
  8
0
100
AcDbSpline
 62
7
  6
CONTINUOUS
 70
0
 71
3
 72
23
 73
19
 74
0
 42
0.0000001
 43
0.0000001
 44
0.0000000001
 40
0.0
 40
0.0
 40
0.0
 40
0.0
 40
0.0617101427
 40
0.1234413969
 40
0.1852146481
 40
0.2470503542
 40
0.308968347
 40
0.3709876211
 40
0.4331261371
 40
0.4954006584
 40
0.5578266133
 40
0.6204179205
 40
0.6831867712
 40
0.7461439365
 40
0.8092980115
 40
0.8726548716
 40
0.9362235844
 40
1.0
 40
1.0
 40
1.0
 40
1.0
 10
10.6868784514
 20
7.8837553427
 30
0.0
 10
10.6843551263
 20
7.8813179983
 30
0.0
 10
10.6794321304
 20
7.8763116374
 30
0.0
 10
10.6724422906
 20
7.8684308838
 30
0.0
 10
10.6658618445
 20
7.8601957052
 30
0.0
 10
10.6597061965
 20
7.8516253822
 30
0.0
 10
10.6539894611
 20
7.8427396188
 30
0.0
 10
10.6487248623
 20
7.8335589136
 30
0.0
 10
10.6439245128
 20
7.8241044506
 30
0.0
 10
10.6395994417
 20
7.814398052
 30
0.0
 10
10.6357596159
 20
7.804462097
 30
0.0
 10
10.6324139029
 20
7.7943194932
 30
0.0
 10
10.6295699447
 20
7.7839936402
 30
0.0
 10
10.6272342831
 20
7.773508334
 30
0.0
 10
10.6254123214
 20
7.7628878142
 30
0.0
 10
10.6241081381
 20
7.7521563108
 30
0.0
 10
10.6233248751
 20
7.7413390906
 30
0.0
 10
10.6231513141
 20
7.7340982337
 30
0.0
 10
10.6231513141
 20
7.7304725152
 30
0.0
  0
SPLINE
  5
370
100
AcDbEntity
  8
0
100
AcDbSpline
 62
7
  6
CONTINUOUS
 70
0
 71
3
 72
23
 73
19
 74
0
 42
0.0000001
 43
0.0000001
 44
0.0000000001
 40
0.0
 40
0.0
 40
0.0
 40
0.0
 40
0.0608921874
 40
0.1219836694
 40
0.1832863836
 40
0.2448093859
 40
0.3065591537
 40
0.3685394832
 40
0.4307514671
 40
0.4931935236
 40
0.555861433
 40
0.6187484212
 40
0.6818452667
 40
0.7451403376
 40
0.8086201845
 40
0.8722681695
 40
0.9360688671
 40
1.0
 40
1.0
 40
1.0
 40
1.0
 10
11.0657191112
 20
7.6287701064
 30
0.0
 10
11.0618904528
 20
7.6276265236
 30
0.0
 10
11.0541544814
 20
7.6255507634
 30
0.0
 10
11.0423765045
 20
7.6230850813
 30
0.0
 10
11.0304388255
 20
7.6212690468
 30
0.0
 10
11.0183765213
 20
7.6201080422
 30
0.0
 10
11.0062244389
 20
7.6196053413
 30
0.0
 10
10.9940178361
 20
7.6197623644
 30
0.0
 10
10.9817920768
 20
7.6205786094
 30
0.0
 10
10.9695825861
 20
7.6220516707
 30
0.0
 10
10.9574247328
 20
7.6241772431
 30
0.0
 10
10.9453537314
 20
7.6269491367
 30
0.0
 10
10.9334045481
 20
7.6303592897
 30
0.0
 10
10.9216117565
 20
7.6343977811
 30
0.0
 10
10.9100095825
 20
7.6390528891
 30
0.0
 10
10.8986313965
 20
7.6443111353
 30
0.0
 10
10.8875106557
 20
7.6501571022
 30
0.0
 10
10.8802956174
 20
7.65443149
 30
0.0
 10
10.8767415109
 20
7.6566604296
 30
0.0
  0
SPLINE
  5
371
100
AcDbEntity
  8
0
100
AcDbSpline
 62
7
  6
CONTINUOUS
 70
0
 71
3
 72
42
 73
38
 74
0
 42
0.0000001
 43
0.0000001
 44
0.0000000001
 40
0.0
 40
0.0
 40
0.0
 40
0.0
 40
0.0299419663
 40
0.0449235352
 40
0.0599142051
 40
0.0899287052
 40
0.1200139767
 40
0.135092661
 40
0.150196701
 40
0.1804840414
 40
0.210897872
 40
0.2414513324
 40
0.2721543376
 40
0.3030133986
 40
0.3340315263
 40
0.3652082187
 40
0.3965395244
 40
0.4280181782
 40
0.4596338019
 40
0.4913731609
 40
0.5232204716
 40
0.55515775
 40
0.5871651943
 40
0.6192215961
 40
0.6513047701
 40
0.6833919991
 40
0.7154604852
 40
0.7474878032
 40
0.7794523473
 40
0.8113337692
 40
0.8431133916
 40
0.8747746171
 40
0.9063032365
 40
0.9376879249
 40
0.9533258257
 40
0.968925233
 40
1.0
 40
1.0
 40
1.0
 40
1.0
 10
11.4406976008
 20
9.8700428582
 30
0.0
 10
11.437844178
 20
9.867286663
 30
0.0
 10
11.4333958691
 20
9.8633193557
 30
0.0
 10
11.4271660817
 20
9.8583968166
 30
0.0
 10
11.4207379203
 20
9.8537192098
 30
0.0
 10
11.4123502117
 20
9.8483478083
 30
0.0
 10
11.4035546775
 20
9.8436493932
 30
0.0
 10
11.396300656
 20
9.8403068932
 30
0.0
 10
11.3888967599
 20
9.8372403754
 30
0.0
 10
11.3793979161
 20
9.8339429489
 30
0.0
 10
11.3676920163
 20
9.8308698363
 30
0.0
 10
11.3557306899
 20
9.8286927522
 30
0.0
 10
11.3435802216
 20
9.8274237151
 30
0.0
 10
11.3313073575
 20
9.8270694955
 30
0.0
 10
11.3189796264
 20
9.8276318969
 30
0.0
 10
11.3066647845
 20
9.8291076708
 30
0.0
 10
11.2944304968
 20
9.8314885636
 30
0.0
 10
11.2823439558
 20
9.8347613619
 30
0.0
 10
11.2704715213
 20
9.838907971
 30
0.0
 10
11.2588783604
 20
9.8439055164
 30
0.0
 10
11.2476280949
 20
9.8497264717
 30
0.0
 10
11.2367824563
 20
9.856338809
 30
0.0
 10
11.2264009523
 20
9.8637061761
 30
0.0
 10
11.2165405444
 20
9.8717880946
 30
0.0
 10
11.2072553386
 20
9.8805401807
 30
0.0
 10
11.1985962925
 20
9.889914387
 30
0.0
 10
11.1906109381
 20
9.899859263
 30
0.0
 10
11.1833431239
 20
9.9103202363
 30
0.0
 10
11.1768327759
 20
9.9212399045
 30
0.0
 10
11.1711156804
 20
9.9325583598
 30
0.0
 10
11.1662232892
 20
9.9442134664
 30
0.0
 10
11.16218254
 20
9.95614137
 30
0.0
 10
11.1590157513
 20
9.9682762061
 30
0.0
 10
11.1571171943
 20
9.9785193276
 30
0.0
 10
11.1560521567
 20
9.986749545
 30
0.0
 10
11.1552920673
 20
9.9949718887
 30
0.0
 10
11.1550619201
 20
10.0011591441
 30
0.0
 10
11.1550619201
 20
10.0052764305
 30
0.0
  0
SPLINE
  5
372
100
AcDbEntity
  8
0
100
AcDbSpline
 62
7
  6
CONTINUOUS
 70
0
 71
3
 72
18
 73
14
 74
0
 42
0.0000001
 43
0.0000001
 44
0.0000000001
 40
0.0
 40
0.0
 40
0.0
 40
0.0
 40
0.1504686872
 40
0.2917143508
 40
0.4244422581
 40
0.4879097286
 40
0.549609416
 40
0.6682625881
 40
0.7817882869
 40
0.8371380068
 40
0.8918078217
 40
0.9460192903
 40
1.0
 40
1.0
 40
1.0
 40
1.0
 10
12.4488888253
 20
8.4506025838
 30
0.0
 10
12.4476448973
 20
8.4494010416
 30
0.0
 10
12.4451587433
 20
8.4471466043
 30
0.0
 10
12.4413091888
 20
8.4441423053
 30
0.0
 10
12.4380575977
 20
8.4420174998
 30
0.0
 10
12.4354647294
 20
8.4405786527
 30
0.0
 10
12.432948145
 20
8.4393433457
 30
0.0
 10
12.4298016132
 20
8.4380951209
 30
0.0
 10
12.4265991142
 20
8.4372433196
 30
0.0
 10
12.4240626389
 20
8.43682371
 30
0.0
 10
12.4221827584
 20
8.4366374925
 30
0.0
 10
12.4203104844
 20
8.4365773406
 30
0.0
 10
12.4190665907
 20
8.4366213397
 30
0.0
 10
12.41844763
 20
8.4366642669
 30
0.0
  0
SPLINE
  5
373
100
AcDbEntity
  8
0
100
AcDbSpline
 62
7
  6
CONTINUOUS
 70
0
 71
3
 72
42
 73
38
 74
0
 42
0.0000001
 43
0.0000001
 44
0.0000000001
 40
0.0
 40
0.0
 40
0.0
 40
0.0
 40
0.0299419663
 40
0.0449235352
 40
0.0599142051
 40
0.0899287052
 40
0.1200139767
 40
0.135092661
 40
0.150196701
 40
0.1804840414
 40
0.210897872
 40
0.2414513324
 40
0.2721543376
 40
0.3030133986
 40
0.3340315263
 40
0.3652082187
 40
0.3965395244
 40
0.4280181782
 40
0.4596338019
 40
0.4913731609
 40
0.5232204716
 40
0.55515775
 40
0.5871651943
 40
0.6192215961
 40
0.6513047701
 40
0.6833919991
 40
0.7154604852
 40
0.7474878032
 40
0.7794523473
 40
0.8113337692
 40
0.8431133916
 40
0.8747746171
 40
0.9063032365
 40
0.9376879249
 40
0.9533258257
 40
0.968925233
 40
1.0
 40
1.0
 40
1.0
 40
1.0
 10
10.4747717172
 20
7.0392523664
 30
0.0
 10
10.4719182945
 20
7.0364961712
 30
0.0
 10
10.4674699856
 20
7.0325288639
 30
0.0
 10
10.4612401982
 20
7.0276063248
 30
0.0
 10
10.4548120368
 20
7.022928718
 30
0.0
 10
10.4464243282
 20
7.0175573165
 30
0.0
 10
10.437628794
 20
7.0128589014
 30
0.0
 10
10.4303747725
 20
7.0095164013
 30
0.0
 10
10.4229708764
 20
7.0064498836
 30
0.0
 10
10.4134720326
 20
7.0031524571
 30
0.0
 10
10.4017661328
 20
7.0000793445
 30
0.0
 10
10.3898048064
 20
6.9979022604
 30
0.0
 10
10.377654338
 20
6.9966332233
 30
0.0
 10
10.3653814739
 20
6.9962790037
 30
0.0
 10
10.3530537428
 20
6.9968414051
 30
0.0
 10
10.340738901
 20
6.998317179
 30
0.0
 10
10.3285046132
 20
7.0006980718
 30
0.0
 10
10.3164180722
 20
7.0039708701
 30
0.0
 10
10.3045456378
 20
7.0081174792
 30
0.0
 10
10.2929524769
 20
7.0131150246
 30
0.0
 10
10.2817022113
 20
7.0189359798
 30
0.0
 10
10.2708565727
 20
7.0255483172
 30
0.0
 10
10.2604750688
 20
7.0329156843
 30
0.0
 10
10.2506146609
 20
7.0409976028
 30
0.0
 10
10.2413294551
 20
7.0497496889
 30
0.0
 10
10.232670409
 20
7.0591238951
 30
0.0
 10
10.2246850546
 20
7.0690687712
 30
0.0
 10
10.2174172404
 20
7.0795297445
 30
0.0
 10
10.2109068924
 20
7.0904494127
 30
0.0
 10
10.2051897969
 20
7.101767868
 30
0.0
 10
10.2002974057
 20
7.1134229746
 30
0.0
 10
10.1962566564
 20
7.1253508782
 30
0.0
 10
10.1930898677
 20
7.1374857143
 30
0.0
 10
10.1911913108
 20
7.1477288358
 30
0.0
 10
10.1901262732
 20
7.1559590532
 30
0.0
 10
10.1893661837
 20
7.1641813969
 30
0.0
 10
10.1891360366
 20
7.1703686523
 30
0.0
 10
10.1891360366
 20
7.1744859387
 30
0.0
  0
SPLINE
  5
374
100
AcDbEntity
  8
0
100
AcDbSpline
 62
7
  6
CONTINUOUS
 70
0
 71
3
 72
69
 73
65
 74
0
 42
0.0000001
 43
0.0000001
 44
0.0000000001
 40
0.0
 40
0.0
 40
0.0
 40
0.0
 40
0.0156374812
 40
0.0313285212
 40
0.047071071
 40
0.0628647058
 40
0.0787074301
 40
0.0945970993
 40
0.110531116
 40
0.1265064525
 40
0.142519726
 40
0.1585672055
 40
0.1746448563
 40
0.1907483792
 40
0.2068732463
 40
0.2230147408
 40
0.2391680006
 40
0.2553280628
 40
0.2714899053
 40
0.2876484887
 40
0.3199274051
 40
0.3521343022
 40
0.3682035209
 40
0.3842413521
 40
0.400243849
 40
0.4162073787
 40
0.4321286571
 40
0.448004785
 40
0.4638332757
 40
0.4796120792
 40
0.4953396054
 40
0.5110147471
 40
0.526636894
 40
0.5422059416
 40
0.5577222959
 40
0.5731868791
 40
0.5886011249
 40
0.6039669678
 40
0.6192868269
 40
0.6345635882
 40
0.649800581
 40
0.6650015449
 40
0.680170593
 40
0.6953121718
 40
0.7104310187
 40
0.7255321127
 40
0.7406206207
 40
0.7557018428
 40
0.7707811573
 40
0.7858639639
 40
0.8009556256
 40
0.8160614092
 40
0.8311864305
 40
0.8463356019
 40
0.8615135815
 40
0.8767247238
 40
0.891973034
 40
0.9072621379
 40
0.9225952247
 40
0.9379750629
 40
0.9534039692
 40
0.9688834596
 40
0.9844156424
 40
1.0
 40
1.0
 40
1.0
 40
1.0
 10
11.0983496909
 20
7.6894789272
 30
0.0
 10
11.0983496909
 20
7.6936738636
 30
0.0
 10
11.0981429817
 20
7.702079532
 30
0.0
 10
11.0972174163
 20
7.7146776626
 30
0.0
 10
11.0956778899
 20
7.727258053
 30
0.0
 10
11.0935283224
 20
7.7397898311
 30
0.0
 10
11.0907737804
 20
7.7522430727
 30
0.0
 10
11.0874209715
 20
7.7645877141
 30
0.0
 10
11.0834780014
 20
7.7767940609
 30
0.0
 10
11.0789543758
 20
7.7888327296
 30
0.0
 10
11.0738609898
 20
7.8006747359
 30
0.0
 10
11.0682101184
 20
7.8122915751
 30
0.0
 10
11.0620153971
 20
7.8236552959
 30
0.0
 10
11.0552917505
 20
7.8347385501
 30
0.0
 10
11.0480553604
 20
7.8455146581
 30
0.0
 10
11.0403236473
 20
7.8559576712
 30
0.0
 10
11.0321152278
 20
7.8660424821
 30
0.0
 10
11.0234499358
 20
7.8757447673
 30
0.0
 10
11.0143483664
 20
7.8850413723
 30
0.0
 10
11.001667276
 20
7.8968598935
 30
0.0
 10
10.9848408223
 20
7.9105087647
 30
0.0
 10
10.9668516423
 20
7.922541547
 30
0.0
 10
10.9518759513
 20
7.9311189597
 30
0.0
 10
10.9403870602
 20
7.937009128
 30
0.0
 10
10.9286622232
 20
7.9423457861
 30
0.0
 10
10.9167293903
 20
7.9471162407
 30
0.0
 10
10.9046173537
 20
7.9513089331
 30
0.0
 10
10.8923552573
 20
7.954913782
 30
0.0
 10
10.8799726239
 20
7.9579220842
 30
0.0
 10
10.8674992607
 20
7.960326562
 30
0.0
 10
10.8549651995
 20
7.9621213813
 30
0.0
 10
10.8424006271
 20
7.9633022149
 30
0.0
 10
10.8298358021
 20
7.9638661952
 30
0.0
 10
10.8173009879
 20
7.9638119285
 30
0.0
 10
10.8048263829
 20
7.9631394912
 30
0.0
 10
10.7924420441
 20
7.9618504898
 30
0.0
 10
10.7801778127
 20
7.95994801
 30
0.0
 10
10.7680632469
 20
7.9574366037
 30
0.0
 10
10.7561275549
 20
7.9543222719
 30
0.0
 10
10.7443995142
 20
7.9506124983
 30
0.0
 10
10.7329073991
 20
7.9463162164
 30
0.0
 10
10.7216789233
 20
7.9414437594
 30
0.0
 10
10.7107411761
 20
7.9360068381
 30
0.0
 10
10.7001205478
 20
7.9300185365
 30
0.0
 10
10.6898426487
 20
7.9234933009
 30
0.0
 10
10.6799322714
 20
7.9164468573
 30
0.0
 10
10.6704133298
 20
7.9088961832
 30
0.0
 10
10.6613088023
 20
7.9008594698
 30
0.0
 10
10.652640637
 20
7.8923561181
 30
0.0
 10
10.6444297359
 20
7.8834066429
 30
0.0
 10
10.6366959027
 20
7.8740326294
 30
0.0
 10
10.6294578039
 20
7.8642566781
 30
0.0
 10
10.6227328757
 20
7.8541023851
 30
0.0
 10
10.6165373117
 20
7.8435942552
 30
0.0
 10
10.6108860365
 20
7.832757636
 30
0.0
 10
10.6057926769
 20
7.8216186585
 30
0.0
 10
10.6012694883
 20
7.8102041921
 30
0.0
 10
10.5973273365
 20
7.7985417728
 30
0.0
 10
10.5939756897
 20
7.7866595236
 30
0.0
 10
10.5912226092
 20
7.7745860679
 30
0.0
 10
10.5890747513
 20
7.7623505904
 30
0.0
 10
10.5875371237
 20
7.7499823352
 30
0.0
 10
10.5866135882
 20
7.7375116779
 30
0.0
 10
10.5864089727
 20
7.729162822
 30
0.0
 10
10.5864089727
 20
7.7249821366
 30
0.0
  0
SPLINE
  5
375
100
AcDbEntity
  8
0
100
AcDbSpline
 62
7
  6
CONTINUOUS
 70
0
 71
3
 72
23
 73
19
 74
0
 42
0.0000001
 43
0.0000001
 44
0.0000000001
 40
0.0
 40
0.0
 40
0.0
 40
0.0
 40
0.0637776288
 40
0.1273446152
 40
0.1907020433
 40
0.2538561391
 40
0.3168131818
 40
0.3795820998
 40
0.442173387
 40
0.5045993408
 40
0.5668738683
 40
0.6290123813
 40
0.69103165
 40
0.7529496426
 40
0.8147853504
 40
0.8765585998
 40
0.9382898528
 40
1.0
 40
1.0
 40
1.0
 40
1.0
 10
10.4132308416
 20
7.7327048973
 30
0.0
 10
10.4132308416
 20
7.7394936186
 30
0.0
 10
10.4135557549
 20
7.7530509411
 30
0.0
 10
10.4150223756
 20
7.7733044985
 30
0.0
 10
10.4174642213
 20
7.7933974454
 30
0.0
 10
10.4208755852
 20
7.8132827585
 30
0.0
 10
10.4252487413
 20
7.8329148553
 30
0.0
 10
10.4305736068
 20
7.8522483973
 30
0.0
 10
10.4368379742
 20
7.8712388317
 30
0.0
 10
10.4440274378
 20
7.8898423593
 30
0.0
 10
10.452125464
 20
7.908016075
 30
0.0
 10
10.4611134108
 20
7.9257180613
 30
0.0
 10
10.4709705777
 20
7.9429074818
 30
0.0
 10
10.4816742671
 20
7.9595446905
 30
0.0
 10
10.493199778
 20
7.9755912698
 30
0.0
 10
10.5055206775
 20
7.9910103235
 30
0.0
 10
10.5186080629
 20
8.0057658043
 30
0.0
 10
10.5278256183
 20
8.0151394213
 30
0.0
 10
10.5325501542
 20
8.0197029657
 30
0.0
  0
SPLINE
  5
376
100
AcDbEntity
  8
0
100
AcDbSpline
 62
7
  6
CONTINUOUS
 70
0
 71
3
 72
84
 73
80
 74
0
 42
0.0000001
 43
0.0000001
 44
0.0000000001
 40
0.0
 40
0.0
 40
0.0
 40
0.0
 40
0.0027164264
 40
0.0054532293
 40
0.008230295
 40
0.0110665896
 40
0.0139797932
 40
0.0169861044
 40
0.0201000661
 40
0.0233345812
 40
0.0267009392
 40
0.0302088856
 40
0.0338668056
 40
0.037681768
 40
0.0416597414
 40
0.0458056718
 40
0.050123593
 40
0.0546167913
 40
0.0592877975
 40
0.0641385717
 40
0.0691704988
 40
0.074384467
 40
0.0797809628
 40
0.0853600226
 40
0.0911213815
 40
0.0970644148
 40
0.1094911534
 40
0.122630387
 40
0.136468035
 40
0.1509868331
 40
0.1661667198
 40
0.1819851503
 40
0.1984173662
 40
0.2154366132
 40
0.2330143274
 40
0.2511202956
 40
0.2697227959
 40
0.2887887406
 40
0.3082838034
 40
0.3281725359
 40
0.3484184777
 40
0.3689842604
 40
0.3898317162
 40
0.4109219843
 40
0.4536719359
 40
0.4969138893
 40
0.5403221212
 40
0.5835693222
 40
0.6263297187
 40
0.6474271304
 40
0.6682829869
 40
0.6888584043
 40
0.7091151927
 40
0.7290159604
 40
0.748524216
 40
0.7676044742
 40
0.7862223676
 40
0.8043447661
 40
0.8219399096
 40
0.838977535
 40
0.8554290199
 40
0.8712675451
 40
0.8864682815
 40
0.9010086172
 40
0.9148684112
 40
0.9280303001
 40
0.9404800906
 40
0.946434749
 40
0.9522077946
 40
0.957798564
 40
0.9632067735
 40
0.9684324641
 40
0.9734760551
 40
0.9783384155
 40
0.983020862
 40
0.9875253935
 40
0.9918546029
 40
0.9960115831
 40
1.0
 40
1.0
 40
1.0
 40
1.0
 10
12.4793300206
 20
9.3145556783
 30
0.0
 10
12.4801512259
 20
9.3144987246
 30
0.0
 10
12.4817955893
 20
9.3143100415
 30
0.0
 10
12.4842412006
 20
9.3138051891
 30
0.0
 10
12.4866683315
 20
9.3130785662
 30
0.0
 10
12.48907524
 20
9.3121308535
 30
0.0
 10
12.4914607083
 20
9.3109629487
 30
0.0
 10
12.4938234793
 20
9.3095756997
 30
0.0
 10
12.4961624945
 20
9.3079701481
 30
0.0
 10
12.4984767018
 20
9.3061472874
 30
0.0
 10
12.5007650877
 20
9.3041081732
 30
0.0
 10
12.5030267041
 20
9.301853954
 30
0.0
 10
12.5052605105
 20
9.2993857594
 30
0.0
 10
12.5074655662
 20
9.296704883
 30
0.0
 10
12.509640842
 20
9.2938126367
 30
0.0
 10
12.5117853342
 20
9.2907104534
 30
0.0
 10
12.5138980648
 20
9.2873998742
 30
0.0
 10
12.515977978
 20
9.2838825042
 30
0.0
 10
12.5180241221
 20
9.2801601009
 30
0.0
 10
12.5200354632
 20
9.2762344849
 30
0.0
 10
12.5220110257
 20
9.2721076044
 30
0.0
 10
12.5239498496
 20
9.2677815094
 30
0.0
 10
12.5258509355
 20
9.2632583373
 30
0.0
 10
12.5277133771
 20
9.258540354
 30
0.0
 10
12.5295362249
 20
9.2536298936
 30
0.0
 10
12.5319486119
 20
9.2467262392
 30
0.0
 10
12.5348496232
 20
9.2376270227
 30
0.0
 10
12.5381091621
 20
9.2261379318
 30
0.0
 10
12.5411902238
 20
9.2139448483
 30
0.0
 10
12.5440865651
 20
9.2010721755
 30
0.0
 10
12.546792298
 20
9.1875455588
 30
0.0
 10
12.5493019231
 20
9.1733920618
 30
0.0
 10
12.5516103337
 20
9.1586400273
 30
0.0
 10
12.5537128308
 20
9.14331903
 30
0.0
 10
12.555605133
 20
9.1274598067
 30
0.0
 10
12.5572833855
 20
9.1110941953
 30
0.0
 10
12.5587441747
 20
9.0942550674
 30
0.0
 10
12.5599845276
 20
9.0769762578
 30
0.0
 10
12.5610019176
 20
9.0592924916
 30
0.0
 10
12.5617942693
 20
9.0412393133
 30
0.0
 10
12.5623599632
 20
9.0228530139
 30
0.0
 10
12.5626978358
 20
9.00417057
 30
0.0
 10
12.5628072132
 20
8.9852295199
 30
0.0
 10
12.5626472559
 20
8.9595660056
 30
0.0
 10
12.5618711613
 20
8.9271222439
 30
0.0
 10
12.5600421116
 20
8.8879486649
 30
0.0
 10
12.5573255822
 20
8.848675443
 30
0.0
 10
12.553743404
 20
8.8096183612
 30
0.0
 10
12.5500447666
 20
8.7773698091
 30
0.0
 10
12.5466693435
 20
8.7519207945
 30
0.0
 10
12.5439526671
 20
8.733167552
 30
0.0
 10
12.5410451948
 20
8.7147007817
 30
0.0
 10
12.5379527662
 20
8.6965575877
 30
0.0
 10
12.534681629
 20
8.6787744524
 30
0.0
 10
12.5312383831
 20
8.66138712
 30
0.0
 10
12.5276299788
 20
8.6444305377
 30
0.0
 10
12.5238636998
 20
8.6279387807
 30
0.0
 10
12.5199471498
 20
8.6119449802
 30
0.0
 10
12.5158882435
 20
8.596481252
 30
0.0
 10
12.5116951829
 20
8.5815786312
 30
0.0
 10
12.5073764415
 20
8.5672670098
 30
0.0
 10
12.5029407472
 20
8.5535750742
 30
0.0
 10
12.49839706
 20
8.5405302338
 30
0.0
 10
12.4937545606
 20
8.5281585733
 30
0.0
 10
12.4890226169
 20
8.5164847224
 30
0.0
 10
12.4842107708
 20
8.5055320389
 30
0.0
 10
12.4800834156
 20
8.4969002093
 30
0.0
 10
12.4767425355
 20
8.4903791485
 30
0.0
 10
12.4742601746
 20
8.4857548057
 30
0.0
 10
12.4717650851
 20
8.4813264191
 30
0.0
 10
12.4692585195
 20
8.477096178
 30
0.0
 10
12.4667417203
 20
8.4730661914
 30
0.0
 10
12.4642159252
 20
8.4692384756
 30
0.0
 10
12.4616824327
 20
8.4656149169
 30
0.0
 10
12.4591424372
 20
8.4621973222
 30
0.0
 10
12.4565971876
 20
8.4589873356
 30
0.0
 10
12.4540478589
 20
8.4559865319
 30
0.0
 10
12.4514958289
 20
8.4531965405
 30
0.0
 10
12.4497581439
 20
8.4514422812
 30
0.0
 10
12.4488888253
 20
8.4506025838
 30
0.0
  0
SPLINE
  5
377
100
AcDbEntity
  8
0
100
AcDbSpline
 62
7
  6
CONTINUOUS
 70
0
 71
3
 72
79
 73
75
 74
0
 42
0.0000001
 43
0.0000001
 44
0.0000000001
 40
0.0
 40
0.0
 40
0.0
 40
0.0
 40
0.0039210665
 40
0.0080037018
 40
0.0122513545
 40
0.0166669328
 40
0.021252899
 40
0.0260112006
 40
0.0309431514
 40
0.0360496178
 40
0.041331081
 40
0.0467876322
 40
0.0582244054
 40
0.0703553633
 40
0.0831712702
 40
0.0966594674
 40
0.1108043225
 40
0.1255875792
 40
0.1409886676
 40
0.1569849517
 40
0.1735519287
 40
0.1906633889
 40
0.2082915654
 40
0.2264072849
 40
0.24498009
 40
0.2639783484
 40
0.2833693478
 40
0.30311941
 40
0.3231939923
 40
0.3435577798
 40
0.364174771
 40
0.4060207999
 40
0.4484345498
 40
0.4911125596
 40
0.5337489628
 40
0.5760382666
 40
0.6176781545
 40
0.6381620051
 40
0.6583730024
 40
0.6782755083
 40
0.697834615
 40
0.7170162353
 40
0.7357872035
 40
0.7541153861
 40
0.7719697752
 40
0.7893205941
 40
0.8061394152
 40
0.8223993044
 40
0.8380749632
 40
0.8531428777
 40
0.867581504
 40
0.8813714964
 40
0.8944959922
 40
0.9069409229
 40
0.9186954227
 40
0.9243116332
 40
0.9297529355
 40
0.9350191138
 40
0.9401103276
 40
0.945027096
 40
0.9497703157
 40
0.9543413944
 40
0.958742197
 40
0.9629751886
 40
0.9670434886
 40
0.9709509018
 40
0.9747021078
 40
0.978302669
 40
0.9817591934
 40
0.9882696763
 40
0.991345897
 40
0.994317184
 40
0.9971969192
 40
1.0
 40
1.0
 40
1.0
 40
1.0
 10
12.4334340104
 20
8.4516743789
 30
0.0
 10
12.4342811216
 20
8.4524926255
 30
0.0
 10
12.4359744707
 20
8.4542002067
 30
0.0
 10
12.438462727
 20
8.4569124429
 30
0.0
 10
12.4409484968
 20
8.4598251567
 30
0.0
 10
12.4434304768
 20
8.4629368442
 30
0.0
 10
12.4459075841
 20
8.4662460367
 30
0.0
 10
12.4483786568
 20
8.4697512301
 30
0.0
 10
12.4508425887
 20
8.4734507672
 30
0.0
 10
12.4532981933
 20
8.4773429044
 30
0.0
 10
12.4557443096
 20
8.4814258082
 30
0.0
 10
12.4590434238
 20
8.4872124431
 30
0.0
 10
12.4631272233
 20
8.4949174147
 30
0.0
 10
12.4678978625
 20
8.5047518292
 30
0.0
 10
12.4726033382
 20
8.5152959673
 30
0.0
 10
12.4772346543
 20
8.5265298177
 30
0.0
 10
12.4817829475
 20
8.5384322016
 30
0.0
 10
12.4862395009
 20
8.5509805383
 30
0.0
 10
12.4905957626
 20
8.5641509899
 30
0.0
 10
12.4948433667
 20
8.5779184976
 30
0.0
 10
12.4989741511
 20
8.5922568409
 30
0.0
 10
12.5029801808
 20
8.6071386836
 30
0.0
 10
12.506853768
 20
8.6225356303
 30
0.0
 10
12.5105874755
 20
8.6384182913
 30
0.0
 10
12.5141741355
 20
8.6547563422
 30
0.0
 10
12.5176068596
 20
8.6715185801
 30
0.0
 10
12.5208790655
 20
8.6886729793
 30
0.0
 10
12.5239844804
 20
8.7061867607
 30
0.0
 10
12.526917143
 20
8.7240264486
 30
0.0
 10
12.5296714508
 20
8.7421579742
 30
0.0
 10
12.5331158453
 20
8.7667973868
 30
0.0
 10
12.5369324361
 20
8.7980699594
 30
0.0
 10
12.5407048703
 20
8.8360139456
 30
0.0
 10
12.54366303
 20
8.8742682513
 30
0.0
 10
12.5457843491
 20
8.9125406484
 30
0.0
 10
12.5470526118
 20
8.9505387729
 30
0.0
 10
12.5473927191
 20
8.981902294
 30
0.0
 10
12.5472239627
 20
9.0066329241
 30
0.0
 10
12.5468808183
 20
9.0248316606
 30
0.0
 10
12.5463211637
 20
9.0427471277
 30
0.0
 10
12.5455460667
 20
9.0603451123
 30
0.0
 10
12.5445570335
 20
9.0775919736
 30
0.0
 10
12.5433559741
 20
9.0944547566
 30
0.0
 10
12.5419452188
 20
9.1109012468
 30
0.0
 10
12.5403274979
 20
9.1269000341
 30
0.0
 10
12.5385059398
 20
9.1424205684
 30
0.0
 10
12.5364840616
 20
9.1574332232
 30
0.0
 10
12.5342657746
 20
9.1719093597
 30
0.0
 10
12.5318553731
 20
9.1858213866
 30
0.0
 10
12.5292575178
 20
9.1991428088
 30
0.0
 10
12.5264772276
 20
9.2118482887
 30
0.0
 10
12.5235198651
 20
9.2239136868
 30
0.0
 10
12.5203911402
 20
9.2353161994
 30
0.0
 10
12.5170970639
 20
9.2460341548
 30
0.0
 10
12.5141768353
 20
9.2545026266
 30
0.0
 10
12.5117555474
 20
9.2609129821
 30
0.0
 10
12.5099298211
 20
9.2654639025
 30
0.0
 10
12.5080675633
 20
9.26982908
 30
0.0
 10
12.5061696519
 20
9.274006461
 30
0.0
 10
12.5042370003
 20
9.2779940761
 30
0.0
 10
12.5022704759
 20
9.2817900302
 30
0.0
 10
12.5002710442
 20
9.2853925565
 30
0.0
 10
12.4982395978
 20
9.2887999499
 30
0.0
 10
12.4961770724
 20
9.2920106148
 30
0.0
 10
12.4940844372
 20
9.2950230598
 30
0.0
 10
12.4919625617
 20
9.29783586
 30
0.0
 10
12.489812489
 20
9.3004476619
 30
0.0
 10
12.4876349159
 20
9.3028574291
 30
0.0
 10
12.4847541146
 20
9.3057413411
 30
0.0
 10
12.4817652856
 20
9.3082911082
 30
0.0
 10
12.478670408
 20
9.3104515818
 30
0.0
 10
12.476370105
 20
9.3118340928
 30
0.0
 10
12.4740483714
 20
9.313008165
 30
0.0
 10
12.4724681333
 20
9.3136591482
 30
0.0
 10
12.4716771247
 20
9.3139475831
 30
0.0
  0
SPLINE
  5
378
100
AcDbEntity
  8
0
100
AcDbSpline
 62
7
  6
CONTINUOUS
 70
0
 71
3
 72
15
 73
11
 74
0
 42
0.0000001
 43
0.0000001
 44
0.0000000001
 40
0.0
 40
0.0
 40
0.0
 40
0.0
 40
0.145315653
 40
0.2839590883
 40
0.4162598291
 40
0.5426317656
 40
0.6635711563
 40
0.7796555759
 40
0.8915480831
 40
1.0
 40
1.0
 40
1.0
 40
1.0
 10
12.4334340104
 20
8.4516743789
 30
0.0
 10
12.4325022528
 20
8.4507743701
 30
0.0
 10
12.4306395032
 20
8.4490583668
 30
0.0
 10
12.4277790072
 20
8.4466915899
 30
0.0
 10
12.4249209558
 20
8.4445956794
 30
0.0
 10
12.4220670885
 20
8.4427722129
 30
0.0
 10
12.4192189177
 20
8.4412225416
 30
0.0
 10
12.4163778973
 20
8.4399479385
 30
0.0
 10
12.4135460354
 20
8.4389497314
 30
0.0
 10
12.4116396589
 20
8.4384628526
 30
0.0
 10
12.4106925986
 20
8.4382683905
 30
0.0
  0
SPLINE
  5
379
100
AcDbEntity
  8
0
100
AcDbSpline
 62
7
  6
CONTINUOUS
 70
0
 71
3
 72
21
 73
17
 74
0
 42
0.0000001
 43
0.0000001
 44
0.0000000001
 40
0.0
 40
0.0
 40
0.0
 40
0.0
 40
0.1273176366
 40
0.2537999756
 40
0.3167619475
 40
0.3795355041
 40
0.4421314991
 40
0.5045621439
 40
0.5668413432
 40
0.6289845283
 40
0.6910084528
 40
0.7529310935
 40
0.8147714495
 40
0.8765493365
 40
0.9382852194
 40
1.0
 40
1.0
 40
1.0
 40
1.0
 10
11.1550619201
 20
10.0052764305
 30
0.0
 10
11.1550619201
 20
10.0105736804
 30
0.0
 10
11.1555675776
 20
10.0211402446
 30
0.0
 10
11.1574772816
 20
10.0342028011
 30
0.0
 10
11.1597598026
 20
10.0444492347
 30
0.0
 10
11.1618413391
 20
10.0520070078
 30
0.0
 10
11.1642901267
 20
10.0594304918
 30
0.0
 10
11.1671005545
 20
10.0667027716
 30
0.0
 10
11.1702661219
 20
10.0738070335
 30
0.0
 10
11.1737795733
 20
10.0807268939
 30
0.0
 10
11.1776328266
 20
10.0874463782
 30
0.0
 10
11.1818169731
 20
10.0939500101
 30
0.0
 10
11.1863223755
 20
10.1002227628
 30
0.0
 10
11.1911387227
 20
10.1062501947
 30
0.0
 10
11.1962546813
 20
10.1120182413
 30
0.0
 10
11.1998578846
 20
10.1156824814
 30
0.0
 10
11.2017047434
 20
10.1174664103
 30
0.0
  0
SPLINE
  5
37A
100
AcDbEntity
  8
0
100
AcDbSpline
 62
7
  6
CONTINUOUS
 70
0
 71
3
 72
23
 73
19
 74
0
 42
0.0000001
 43
0.0000001
 44
0.0000000001
 40
0.0
 40
0.0
 40
0.0
 40
0.0
 40
0.0755957668
 40
0.1466392768
 40
0.213465616
 40
0.2765144371
 40
0.3363265454
 40
0.3935471053
 40
0.4489233774
 40
0.5032884899
 40
0.5575264287
 40
0.6125277193
 40
0.6691437645
 40
0.7281492125
 40
0.7902196994
 40
0.8559237551
 40
0.9257265947
 40
1.0
 40
1.0
 40
1.0
 40
1.0
 10
12.4334340104
 20
8.6207114085
 30
0.0
 10
12.4326975156
 20
8.6200000091
 30
0.0
 10
12.4312254865
 20
8.6186637747
 30
0.0
 10
12.4289473823
 20
8.6168786279
 30
0.0
 10
12.4266719325
 20
8.6153793594
 30
0.0
 10
12.4244012619
 20
8.6141682164
 30
0.0
 10
12.4221372446
 20
8.6132474182
 30
0.0
 10
12.4198822279
 20
8.6126191696
 30
0.0
 10
12.4176391495
 20
8.6122857558
 30
0.0
 10
12.4154117641
 20
8.6122486849
 30
0.0
 10
12.413204346
 20
8.6125085741
 30
0.0
 10
12.4110211694
 20
8.6130645828
 30
0.0
 10
12.4088659514
 20
8.6139148909
 30
0.0
 10
12.4067415395
 20
8.6150569786
 30
0.0
 10
12.4046500929
 20
8.6164882565
 30
0.0
 10
12.4025932923
 20
8.6182062264
 30
0.0
 10
12.4005728042
 20
8.620208359
 30
0.0
 10
12.3992922516
 20
8.6216835301
 30
0.0
 10
12.3986574581
 20
8.622464036
 30
0.0
  0
SPLINE
  5
37B
100
AcDbEntity
  8
0
100
AcDbSpline
 62
7
  6
CONTINUOUS
 70
0
 71
3
 72
16
 73
12
 74
0
 42
0.0000001
 43
0.0000001
 44
0.0000000001
 40
0.0
 40
0.0
 40
0.0
 40
0.0
 40
0.1504815401
 40
0.2917481174
 40
0.4244944817
 40
0.4879692635
 40
0.5496755268
 40
0.6683417309
 40
0.7818818905
 40
0.8918563508
 40
1.0
 40
1.0
 40
1.0
 40
1.0
 10
12.4044562339
 20
8.6516988006
 30
0.0
 10
12.4037918901
 20
8.6510570938
 30
0.0
 10
12.4024640591
 20
8.6498530457
 30
0.0
 10
12.400408072
 20
8.6482484557
 30
0.0
 10
12.3986714041
 20
8.6471136059
 30
0.0
 10
12.3972865767
 20
8.6463451247
 30
0.0
 10
12.3959425349
 20
8.6456853564
 30
0.0
 10
12.3942618805
 20
8.6450187334
 30
0.0
 10
12.3922270997
 20
8.6444773406
 30
0.0
 10
12.3902038056
 20
8.6442070334
 30
0.0
 10
12.3888601736
 20
8.6442085378
 30
0.0
 10
12.3881979784
 20
8.6442544646
 30
0.0
  0
SPLINE
  5
37C
100
AcDbEntity
  8
0
100
AcDbSpline
 62
7
  6
CONTINUOUS
 70
0
 71
3
 72
21
 73
17
 74
0
 42
0.0000001
 43
0.0000001
 44
0.0000000001
 40
0.0
 40
0.0
 40
0.0
 40
0.0
 40
0.1273176366
 40
0.2537999756
 40
0.3167619475
 40
0.3795355041
 40
0.4421314991
 40
0.5045621439
 40
0.5668413432
 40
0.6289845283
 40
0.6910084528
 40
0.7529310935
 40
0.8147714495
 40
0.8765493365
 40
0.9382852194
 40
1.0
 40
1.0
 40
1.0
 40
1.0
 10
10.1891360366
 20
7.1744859387
 30
0.0
 10
10.1891360366
 20
7.1797831886
 30
0.0
 10
10.189641694
 20
7.1903497528
 30
0.0
 10
10.1915513981
 20
7.2034123093
 30
0.0
 10
10.1938339191
 20
7.2136587429
 30
0.0
 10
10.1959154556
 20
7.221216516
 30
0.0
 10
10.1983642432
 20
7.22864
 30
0.0
 10
10.201174671
 20
7.2359122798
 30
0.0
 10
10.2043402384
 20
7.2430165417
 30
0.0
 10
10.2078536898
 20
7.2499364021
 30
0.0
 10
10.211706943
 20
7.2566558863
 30
0.0
 10
10.2158910896
 20
7.2631595183
 30
0.0
 10
10.2203964919
 20
7.269432271
 30
0.0
 10
10.2252128392
 20
7.2754597029
 30
0.0
 10
10.2303287978
 20
7.2812277495
 30
0.0
 10
10.2339320011
 20
7.2848919895
 30
0.0
 10
10.2357788599
 20
7.2866759185
 30
0.0
  0
SPLINE
  5
37D
100
AcDbEntity
  8
0
100
AcDbSpline
 62
4
  6
CONTINUOUS
 70
0
 71
3
 72
397
 73
393
 74
0
 42
0.0000001
 43
0.0000001
 44
0.0000000001
 40
0.0
 40
0.0
 40
0.0
 40
0.0
 40
0.015625
 40
0.0234375
 40
0.03125
 40
0.0390625
 40
0.04296875
 40
0.046875
 40
0.05078125
 40
0.0546875
 40
0.056640625
 40
0.05859375
 40
0.0595703125
 40
0.060546875
 40
0.0615234375
 40
0.0620117188
 40
0.0622558594
 40
0.0625
 40
0.0627441406
 40
0.0629882812
 40
0.0634765625
 40
0.064453125
 40
0.0654296875
 40
0.06640625
 40
0.068359375
 40
0.0703125
 40
0.07421875
 40
0.078125
 40
0.08203125
 40
0.0859375
 40
0.09375
 40
0.1015625
 40
0.10546875
 40
0.109375
 40
0.11328125
 40
0.1171875
 40
0.119140625
 40
0.12109375
 40
0.1220703125
 40
0.123046875
 40
0.1240234375
 40
0.1245117188
 40
0.1247558594
 40
0.125
 40
0.1252441406
 40
0.1254882812
 40
0.1259765625
 40
0.126953125
 40
0.1279296875
 40
0.12890625
 40
0.130859375
 40
0.1328125
 40
0.13671875
 40
0.140625
 40
0.14453125
 40
0.1484375
 40
0.15625
 40
0.1640625
 40
0.16796875
 40
0.171875
 40
0.17578125
 40
0.1796875
 40
0.181640625
 40
0.18359375
 40
0.1845703125
 40
0.185546875
 40
0.1865234375
 40
0.1870117188
 40
0.1872558594
 40
0.1875
 40
0.1877441406
 40
0.1879882812
 40
0.1884765625
 40
0.189453125
 40
0.1904296875
 40
0.19140625
 40
0.193359375
 40
0.1953125
 40
0.19921875
 40
0.203125
 40
0.20703125
 40
0.2109375
 40
0.21875
 40
0.2265625
 40
0.23046875
 40
0.234375
 40
0.23828125
 40
0.2421875
 40
0.244140625
 40
0.24609375
 40
0.2470703125
 40
0.248046875
 40
0.2490234375
 40
0.2495117188
 40
0.2497558594
 40
0.25
 40
0.2502441406
 40
0.2504882812
 40
0.2509765625
 40
0.251953125
 40
0.2529296875
 40
0.25390625
 40
0.255859375
 40
0.2578125
 40
0.26171875
 40
0.265625
 40
0.26953125
 40
0.2734375
 40
0.28125
 40
0.2890625
 40
0.29296875
 40
0.296875
 40
0.30078125
 40
0.3046875
 40
0.306640625
 40
0.30859375
 40
0.3095703125
 40
0.310546875
 40
0.3115234375
 40
0.3120117188
 40
0.3122558594
 40
0.3125
 40
0.3127441406
 40
0.3129882812
 40
0.3134765625
 40
0.314453125
 40
0.3154296875
 40
0.31640625
 40
0.318359375
 40
0.3203125
 40
0.32421875
 40
0.328125
 40
0.33203125
 40
0.3359375
 40
0.34375
 40
0.3515625
 40
0.35546875
 40
0.359375
 40
0.36328125
 40
0.3671875
 40
0.369140625
 40
0.37109375
 40
0.3720703125
 40
0.373046875
 40
0.3740234375
 40
0.3745117188
 40
0.3747558594
 40
0.375
 40
0.3752441406
 40
0.3754882812
 40
0.3759765625
 40
0.376953125
 40
0.3779296875
 40
0.37890625
 40
0.380859375
 40
0.3828125
 40
0.38671875
 40
0.390625
 40
0.39453125
 40
0.3984375
 40
0.40625
 40
0.4140625
 40
0.41796875
 40
0.421875
 40
0.42578125
 40
0.4296875
 40
0.431640625
 40
0.43359375
 40
0.4345703125
 40
0.435546875
 40
0.4365234375
 40
0.4370117188
 40
0.4372558594
 40
0.4375
 40
0.4377441406
 40
0.4379882812
 40
0.4384765625
 40
0.439453125
 40
0.4404296875
 40
0.44140625
 40
0.443359375
 40
0.4453125
 40
0.44921875
 40
0.453125
 40
0.45703125
 40
0.4609375
 40
0.46875
 40
0.4765625
 40
0.48046875
 40
0.484375
 40
0.48828125
 40
0.4921875
 40
0.494140625
 40
0.49609375
 40
0.4970703125
 40
0.498046875
 40
0.4990234375
 40
0.4995117188
 40
0.4997558594
 40
0.5
 40
0.5002441406
 40
0.5004882812
 40
0.5009765625
 40
0.501953125
 40
0.5029296875
 40
0.50390625
 40
0.505859375
 40
0.5078125
 40
0.51171875
 40
0.515625
 40
0.51953125
 40
0.5234375
 40
0.53125
 40
0.5390625
 40
0.54296875
 40
0.546875
 40
0.55078125
 40
0.5546875
 40
0.556640625
 40
0.55859375
 40
0.5595703125
 40
0.560546875
 40
0.5615234375
 40
0.5620117188
 40
0.5622558594
 40
0.5625
 40
0.5627441406
 40
0.5629882812
 40
0.5634765625
 40
0.564453125
 40
0.5654296875
 40
0.56640625
 40
0.568359375
 40
0.5703125
 40
0.57421875
 40
0.578125
 40
0.58203125
 40
0.5859375
 40
0.59375
 40
0.6015625
 40
0.60546875
 40
0.609375
 40
0.61328125
 40
0.6171875
 40
0.619140625
 40
0.62109375
 40
0.6220703125
 40
0.623046875
 40
0.6240234375
 40
0.6245117188
 40
0.625
 40
0.6254882812
 40
0.6259765625
 40
0.626953125
 40
0.6279296875
 40
0.62890625
 40
0.630859375
 40
0.6328125
 40
0.63671875
 40
0.640625
 40
0.64453125
 40
0.6484375
 40
0.65625
 40
0.6640625
 40
0.66796875
 40
0.671875
 40
0.67578125
 40
0.6796875
 40
0.681640625
 40
0.68359375
 40
0.6845703125
 40
0.685546875
 40
0.6865234375
 40
0.6870117188
 40
0.6872558594
 40
0.6875
 40
0.6877441406
 40
0.6879882812
 40
0.6884765625
 40
0.689453125
 40
0.6904296875
 40
0.69140625
 40
0.693359375
 40
0.6953125
 40
0.69921875
 40
0.703125
 40
0.70703125
 40
0.7109375
 40
0.71875
 40
0.7265625
 40
0.73046875
 40
0.734375
 40
0.73828125
 40
0.7421875
 40
0.744140625
 40
0.74609375
 40
0.7470703125
 40
0.748046875
 40
0.7490234375
 40
0.7495117188
 40
0.7497558594
 40
0.75
 40
0.7502441406
 40
0.7504882812
 40
0.7509765625
 40
0.751953125
 40
0.7529296875
 40
0.75390625
 40
0.755859375
 40
0.7578125
 40
0.76171875
 40
0.765625
 40
0.76953125
 40
0.7734375
 40
0.78125
 40
0.7890625
 40
0.79296875
 40
0.796875
 40
0.80078125
 40
0.8046875
 40
0.806640625
 40
0.80859375
 40
0.8095703125
 40
0.810546875
 40
0.8115234375
 40
0.8120117188
 40
0.8125
 40
0.8129882812
 40
0.8134765625
 40
0.814453125
 40
0.8154296875
 40
0.81640625
 40
0.818359375
 40
0.8203125
 40
0.82421875
 40
0.828125
 40
0.83203125
 40
0.8359375
 40
0.84375
 40
0.8515625
 40
0.85546875
 40
0.859375
 40
0.86328125
 40
0.8671875
 40
0.869140625
 40
0.87109375
 40
0.8720703125
 40
0.873046875
 40
0.8740234375
 40
0.8745117188
 40
0.875
 40
0.8754882812
 40
0.8759765625
 40
0.876953125
 40
0.8779296875
 40
0.87890625
 40
0.880859375
 40
0.8828125
 40
0.88671875
 40
0.890625
 40
0.89453125
 40
0.8984375
 40
0.90625
 40
0.9140625
 40
0.91796875
 40
0.921875
 40
0.92578125
 40
0.9296875
 40
0.931640625
 40
0.93359375
 40
0.9345703125
 40
0.935546875
 40
0.9365234375
 40
0.9370117188
 40
0.9372558594
 40
0.9375
 40
0.9377441406
 40
0.9379882812
 40
0.9384765625
 40
0.939453125
 40
0.9404296875
 40
0.94140625
 40
0.943359375
 40
0.9453125
 40
0.94921875
 40
0.953125
 40
0.95703125
 40
0.9609375
 40
0.96875
 40
0.9765625
 40
0.984375
 40
1.0
 40
1.0
 40
1.0
 40
1.0
 10
10.4045375086
 20
9.0991269637
 30
0.0
 10
10.4073517484
 20
9.0992077342
 30
0.0
 10
10.4115731081
 20
9.0993288898
 30
0.0
 10
10.4172015878
 20
9.0994904307
 30
0.0
 10
10.4214229475
 20
9.0996115864
 30
0.0
 10
10.4249407472
 20
9.0997125493
 30
0.0
 10
10.427754987
 20
9.09979332
 30
0.0
 10
10.429865667
 20
9.0998538969
 30
0.0
 10
10.4319763462
 20
9.0999144781
 30
0.0
 10
10.4337352482
 20
9.0999649492
 30
0.0
 10
10.4351423639
 20
9.1000053557
 30
0.0
 10
10.4360218244
 20
9.1000305423
 30
0.0
 10
10.4367253627
 20
9.1000508461
 30
0.0
 10
10.437253099
 20
9.1000656509
 30
0.0
 10
10.4376926164
 20
9.1000793338
 30
0.0
 10
10.4380007943
 20
9.1000862714
 30
0.0
 10
10.4381760908
 20
9.1000943585
 30
0.0
 10
10.4383098315
 20
9.1000888098
 30
0.0
 10
10.438434901
 20
9.1001276557
 30
0.0
 10
10.438604685
 20
9.100163965
 30
0.0
 10
10.4389003977
 20
9.100234721
 30
0.0
 10
10.4393235812
 20
9.100332029
 30
0.0
 10
10.4398310861
 20
9.1004504132
 30
0.0
 10
10.4405078694
 20
9.1006076948
 30
0.0
 10
10.4413538108
 20
9.10080449
 30
0.0
 10
10.4427073381
 20
9.1011192543
 30
0.0
 10
10.44439924
 20
9.1015127467
 30
0.0
 10
10.4464295253
 20
9.1019849217
 30
0.0
 10
10.4484598099
 20
9.102457101
 30
0.0
 10
10.4511668562
 20
9.1030866718
 30
0.0
 10
10.454550664
 20
9.103873636
 30
0.0
 10
10.457934472
 20
9.1046605998
 30
0.0
 10
10.4606415181
 20
9.1052901712
 30
0.0
 10
10.4626718032
 20
9.1057623487
 30
0.0
 10
10.4647020866
 20
9.1062345303
 30
0.0
 10
10.4663939946
 20
9.1066280023
 30
0.0
 10
10.4677475096
 20
9.1069428082
 30
0.0
 10
10.4685934823
 20
9.1071394974
 30
0.0
 10
10.4692702013
 20
9.1072969965
 30
0.0
 10
10.4697779026
 20
9.1074147164
 30
0.0
 10
10.4702004714
 20
9.1075141029
 30
0.0
 10
10.4704972814
 20
9.1075811484
 30
0.0
 10
10.4706653072
 20
9.1076234028
 30
0.0
 10
10.4707957772
 20
9.1076439871
 30
0.0
 10
10.4709092348
 20
9.1077070261
 30
0.0
 10
10.4710664458
 20
9.1077762694
 30
0.0
 10
10.4713388001
 20
9.1079043448
 30
0.0
 10
10.4717293232
 20
9.1080837025
 30
0.0
 10
10.4721973323
 20
9.1083004756
 30
0.0
 10
10.4728215604
 20
9.1085889673
 30
0.0
 10
10.4736017716
 20
9.1089497665
 30
0.0
 10
10.4748501509
 20
9.109526942
 30
0.0
 10
10.4764106108
 20
9.1102484468
 30
0.0
 10
10.4782831687
 20
9.1111142374
 30
0.0
 10
10.480155725
 20
9.111980032
 30
0.0
 10
10.4826524674
 20
9.1131344235
 30
0.0
 10
10.4857733951
 20
9.1145774133
 30
0.0
 10
10.4888943229
 20
9.1160204028
 30
0.0
 10
10.491391065
 20
9.1171747948
 30
0.0
 10
10.4932636221
 20
9.1180405878
 30
0.0
 10
10.4951361771
 20
9.1189063847
 30
0.0
 10
10.4966966461
 20
9.1196278697
 30
0.0
 10
10.4979450068
 20
9.1202050855
 30
0.0
 10
10.4987252653
 20
9.1205657822
 30
0.0
 10
10.4993493963
 20
9.1208544843
 30
0.0
 10
10.4998177023
 20
9.1210706146
 30
0.0
 10
10.5002072963
 20
9.1212519836
 30
0.0
 10
10.5004813092
 20
9.1213764685
 30
0.0
 10
10.5006358628
 20
9.1214514646
 30
0.0
 10
10.500757483
 20
9.1214968328
 30
0.0
 10
10.5008572958
 20
9.1215837857
 30
0.0
 10
10.5009979863
 20
9.1216852176
 30
0.0
 10
10.5012406506
 20
9.1218694818
 30
0.0
 10
10.5015891667
 20
9.122129183
 30
0.0
 10
10.5020065929
 20
9.1224423369
 30
0.0
 10
10.5025634382
 20
9.1228593471
 30
0.0
 10
10.5032594
 20
9.1233807908
 30
0.0
 10
10.5043729918
 20
9.1242149995
 30
0.0
 10
10.5057649635
 20
9.1252577952
 30
0.0
 10
10.5074353372
 20
9.1265091351
 30
0.0
 10
10.5091057089
 20
9.1277604789
 30
0.0
 10
10.5113328719
 20
9.129428936
 30
0.0
 10
10.5141168253
 20
9.1315145079
 30
0.0
 10
10.5169007789
 20
9.1336000795
 30
0.0
 10
10.5191279415
 20
9.1352685371
 30
0.0
 10
10.5207983143
 20
9.1365198795
 30
0.0
 10
10.5224686838
 20
9.1377712249
 30
0.0
 10
10.5238606688
 20
9.1388140033
 30
0.0
 10
10.5249742334
 20
9.1396482472
 30
0.0
 10
10.5256702645
 20
9.1401696015
 30
0.0
 10
10.5262269676
 20
9.1405867952
 30
0.0
 10
10.5266448282
 20
9.1408993883
 30
0.0
 10
10.5269919854
 20
9.141160844
 30
0.0
 10
10.5272370754
 20
9.1413419762
 30
0.0
 10
10.5273738792
 20
9.1414484264
 30
0.0
 10
10.5274856308
 20
9.141519965
 30
0.0
 10
10.527562411
 20
9.1416232265
 30
0.0
 10
10.5276769831
 20
9.1417498433
 30
0.0
 10
10.5278718007
 20
9.1419765781
 30
0.0
 10
10.5281530829
 20
9.1422977897
 30
0.0
 10
10.5284893498
 20
9.1426843972
 30
0.0
 10
10.5289381499
 20
9.143199471
 30
0.0
 10
10.5294989978
 20
9.1438434512
 30
0.0
 10
10.5303964396
 20
9.1448737425
 30
0.0
 10
10.5315182126
 20
9.146161633
 30
0.0
 10
10.5328643527
 20
9.1477070902
 30
0.0
 10
10.5342104895
 20
9.1492525505
 30
0.0
 10
10.5360053397
 20
9.1513131631
 30
0.0
 10
10.5382489021
 20
9.1538889293
 30
0.0
 10
10.5404924647
 20
9.1564646953
 30
0.0
 10
10.5422873144
 20
9.1585253083
 30
0.0
 10
10.5436334526
 20
9.1600707674
 30
0.0
 10
10.5449795873
 20
9.1616162291
 30
0.0
 10
10.5461013773
 20
9.1629041057
 30
0.0
 10
10.5469987845
 20
9.1639344253
 30
0.0
 10
10.5475597204
 20
9.1645783334
 30
0.0
 10
10.54800834
 20
9.1650935552
 30
0.0
 10
10.5483451581
 20
9.1654797105
 30
0.0
 10
10.5486247156
 20
9.1658023372
 30
0.0
 10
10.5488226122
 20
9.1660265457
 30
0.0
 10
10.5489322509
 20
9.1661572102
 30
0.0
 10
10.549024185
 20
9.1662480385
 30
0.0
 10
10.5490790211
 20
9.1663662744
 30
0.0
 10
10.5491650761
 20
9.1665143623
 30
0.0
 10
10.5493096434
 20
9.1667779702
 30
0.0
 10
10.5495193201
 20
9.1671522243
 30
0.0
 10
10.5497695829
 20
9.1676023259
 30
0.0
 10
10.5501037379
 20
9.1682021132
 30
0.0
 10
10.5505212703
 20
9.1689519666
 30
0.0
 10
10.5511894124
 20
9.1701516654
 30
0.0
 10
10.552024559
 20
9.1716513118
 30
0.0
 10
10.5530267482
 20
9.1734508776
 30
0.0
 10
10.5540289339
 20
9.1752504461
 30
0.0
 10
10.5553651827
 20
9.1776498697
 30
0.0
 10
10.5570354933
 20
9.1806491497
 30
0.0
 10
10.5587058041
 20
9.1836484294
 30
0.0
 10
10.5600420524
 20
9.1860478534
 30
0.0
 10
10.5610442396
 20
9.1878474209
 30
0.0
 10
10.5620464229
 20
9.1896469904
 30
0.0
 10
10.562881588
 20
9.1911466256
 30
0.0
 10
10.5635496925
 20
9.1923463471
 30
0.0
 10
10.5639673204
 20
9.1930961426
 30
0.0
 10
10.5643012794
 20
9.1936960487
 30
0.0
 10
10.5645521413
 20
9.1941457876
 30
0.0
 10
10.5647599437
 20
9.1945211766
 30
0.0
 10
10.5649078568
 20
9.1947827585
 30
0.0
 10
10.5649885509
 20
9.1949340925
 30
0.0
 10
10.5650598539
 20
9.1950423571
 30
0.0
 10
10.5650899415
 20
9.1951706362
 30
0.0
 10
10.5651444347
 20
9.1953346938
 30
0.0
 10
10.5652330996
 20
9.1956250471
 30
0.0
 10
10.5653632657
 20
9.1960381371
 30
0.0
 10
10.565517966
 20
9.196534573
 30
0.0
 10
10.5657247566
 20
9.1971962333
 30
0.0
 10
10.5659830657
 20
9.1980233957
 30
0.0
 10
10.5663964604
 20
9.1993468069
 30
0.0
 10
10.5669131693
 20
9.2010010876
 30
0.0
 10
10.5675332348
 20
9.2029862173
 30
0.0
 10
10.5681532964
 20
9.2049713489
 30
0.0
 10
10.5689800465
 20
9.2076181903
 30
0.0
 10
10.5700134836
 20
9.2109267423
 30
0.0
 10
10.5710469211
 20
9.2142352942
 30
0.0
 10
10.5718736706
 20
9.2168821359
 30
0.0
 10
10.5724937339
 20
9.2188672668
 30
0.0
 10
10.5731137929
 20
9.2208523992
 30
0.0
 10
10.5736305219
 20
9.2225066714
 30
0.0
 10
10.5740438758
 20
9.2238300998
 30
0.0
 10
10.5743022885
 20
9.2246572184
 30
0.0
 10
10.5745088664
 20
9.2253189687
 30
0.0
 10
10.5746642167
 20
9.2258151295
 30
0.0
 10
10.5747923492
 20
9.2262290802
 30
0.0
 10
10.5748846444
 20
9.2265178971
 30
0.0
 10
10.574933321
 20
9.2266844165
 30
0.0
 10
10.5749812753
 20
9.2268051334
 30
0.0
 10
10.574985474
 20
9.2269418002
 30
0.0
 10
10.5750063348
 20
9.2271184591
 30
0.0
 10
10.5750357301
 20
9.2274302043
 30
0.0
 10
10.5750814412
 20
9.2278741994
 30
0.0
 10
10.5751347031
 20
9.2284075735
 30
0.0
 10
10.5752062749
 20
9.2291185364
 30
0.0
 10
10.5752955492
 20
9.2300073095
 30
0.0
 10
10.5754384946
 20
9.2314293075
 30
0.0
 10
10.5756171398
 20
9.2332068184
 30
0.0
 10
10.5758315296
 20
9.2353398258
 30
0.0
 10
10.5760459153
 20
9.2374728347
 30
0.0
 10
10.5763317643
 20
9.240316846
 30
0.0
 10
10.5766890751
 20
9.2438718604
 30
0.0
 10
10.5770463862
 20
9.2474268747
 30
0.0
 10
10.5773322347
 20
9.2502708861
 30
0.0
 10
10.5775466221
 20
9.2524038947
 30
0.0
 10
10.5777610053
 20
9.2545369032
 30
0.0
 10
10.5779396714
 20
9.2563144106
 30
0.0
 10
10.578082574
 20
9.2577364159
 30
0.0
 10
10.5781719572
 20
9.2586251705
 30
0.0
 10
10.5782433056
 20
9.2593361712
 30
0.0
 10
10.5782972498
 20
9.2598694299
 30
0.0
 10
10.5783408261
 20
9.2603137861
 30
0.0
 10
10.5783740324
 20
9.2606248866
 30
0.0
 10
10.578388787
 20
9.2608025785
 30
0.0
 10
10.5784117418
 20
9.2609360724
 30
0.0
 10
10.5783892515
 20
9.261068706
 30
0.0
 10
10.5783751163
 20
9.2612458509
 30
0.0
 10
10.5783429939
 20
9.2615557147
 30
0.0
 10
10.5783009661
 20
9.2619984503
 30
0.0
 10
10.57824888
 20
9.2625297018
 30
0.0
 10
10.5781800091
 20
9.263238048
 30
0.0
 10
10.5780937229
 20
9.264123477
 30
0.0
 10
10.5779557753
 20
9.2655401655
 30
0.0
 10
10.577783303
 20
9.2673110255
 30
0.0
 10
10.5775763525
 20
9.2694360577
 30
0.0
 10
10.5773693976
 20
9.2715610898
 30
0.0
 10
10.5770934593
 20
9.2743944661
 30
0.0
 10
10.5767485358
 20
9.2779361863
 30
0.0
 10
10.5764036127
 20
9.2814779066
 30
0.0
 10
10.5761276738
 20
9.2843112828
 30
0.0
 10
10.5759207207
 20
9.2864363151
 30
0.0
 10
10.5757137634
 20
9.2885613468
 30
0.0
 10
10.5755413121
 20
9.2903322083
 30
0.0
 10
10.5754033218
 20
9.2917488937
 30
0.0
 10
10.5753171444
 20
9.2926343306
 30
0.0
 10
10.5752480501
 20
9.2933426606
 30
0.0
 10
10.5751966466
 20
9.2938739617
 30
0.0
 10
10.5751524831
 20
9.2943165419
 30
0.0
 10
10.5751241733
 20
9.2946266831
 30
0.0
 10
10.5751039293
 20
9.2948033835
 30
0.0
 10
10.575100203
 20
9.2949373827
 30
0.0
 10
10.5750526835
 20
9.2950657477
 30
0.0
 10
10.5750045997
 20
9.2952388663
 30
0.0
 10
10.5749133359
 20
9.2955409081
 30
0.0
 10
10.57478668
 20
9.2959728753
 30
0.0
 10
10.5746331003
 20
9.2964910309
 30
0.0
 10
10.5744288836
 20
9.2971819767
 30
0.0
 10
10.5741734222
 20
9.2980456344
 30
0.0
 10
10.5737647904
 20
9.2994275004
 30
0.0
 10
10.5732539642
 20
9.3011548282
 30
0.0
 10
10.5726409884
 20
9.3032276236
 30
0.0
 10
10.5720280085
 20
9.3053004184
 30
0.0
 10
10.5712107033
 20
9.3080641451
 30
0.0
 10
10.5701890714
 20
9.3115188034
 30
0.0
 10
10.5691674393
 20
9.3149734615
 30
0.0
 10
10.5683501346
 20
9.3177371884
 30
0.0
 10
10.5677371531
 20
9.3198099825
 30
0.0
 10
10.5671241828
 20
9.3218827805
 30
0.0
 10
10.5666133395
 20
9.3236101003
 30
0.0
 10
10.5662047426
 20
9.3249919827
 30
0.0
 10
10.5659491926
 20
9.3258555986
 30
0.0
 10
10.5657451578
 20
9.3265466302
 30
0.0
 10
10.5655910222
 20
9.3270645235
 30
0.0
 10
10.5654661055
 20
9.3274973114
 30
0.0
 10
10.5653582557
 20
9.3278408277
 30
0.0
 10
10.5652989999
 20
9.3281058807
 30
0.0
 10
10.5651571763
 20
9.3283426278
 30
0.0
 10
10.5649969203
 20
9.3286681782
 30
0.0
 10
10.5647867046
 20
9.3290717238
 30
0.0
 10
10.5645386815
 20
9.3295574307
 30
0.0
 10
10.5642065046
 20
9.3302045326
 30
0.0
 10
10.5637917899
 20
9.3310135836
 30
0.0
 10
10.5631279634
 20
9.3323079683
 30
0.0
 10
10.5622982774
 20
9.3339259823
 30
0.0
 10
10.5613026126
 20
9.335867585
 30
0.0
 10
10.5603069589
 20
9.3378091914
 30
0.0
 10
10.5589794167
 20
9.3403979987
 30
0.0
 10
10.5573199903
 20
9.3436340082
 30
0.0
 10
10.5556605636
 20
9.3468700176
 30
0.0
 10
10.554333022
 20
9.349458825
 30
0.0
 10
10.5533373668
 20
9.3514004311
 30
0.0
 10
10.5523417077
 20
9.3533420353
 30
0.0
 10
10.5515120038
 20
9.3549600444
 30
0.0
 10
10.5508482139
 20
9.3562544391
 30
0.0
 10
10.550433406
 20
9.3570634647
 30
0.0
 10
10.5501014204
 20
9.3577106189
 30
0.0
 10
10.5498528129
 20
9.3581961659
 30
0.0
 10
10.5496444255
 20
9.3586002116
 30
0.0
 10
10.5495009377
 20
9.3588841754
 30
0.0
 10
10.5494152233
 20
9.3590446733
 30
0.0
 10
10.5493614207
 20
9.3591700247
 30
0.0
 10
10.5492675458
 20
9.3592763478
 30
0.0
 10
10.5491563569
 20
9.3594247493
 30
0.0
 10
10.5489552639
 20
9.3596813594
 30
0.0
 10
10.548671393
 20
9.360049562
 30
0.0
 10
10.5483292905
 20
9.3604907131
 30
0.0
 10
10.547873663
 20
9.3610791563
 30
0.0
 10
10.5473039542
 20
9.3618146275
 30
0.0
 10
10.5463925176
 20
9.3629914277
 30
0.0
 10
10.5452531884
 20
9.3644624121
 30
0.0
 10
10.5438860077
 20
9.3662276002
 30
0.0
 10
10.5425188231
 20
9.3679927864
 30
0.0
 10
10.5406959118
 20
9.3703463687
 30
0.0
 10
10.538417272
 20
9.3732883463
 30
0.0
 10
10.5361386326
 20
9.3762303242
 30
0.0
 10
10.5343157208
 20
9.3785839061
 30
0.0
 10
10.5329485376
 20
9.3803490934
 30
0.0
 10
10.5315813517
 20
9.3821142775
 30
0.0
 10
10.5304420388
 20
9.3835852741
 30
0.0
 10
10.5295305689
 20
9.3847620494
 30
0.0
 10
10.5289609448
 20
9.385497584
 30
0.0
 10
10.5285051435
 20
9.3860858971
 30
0.0
 10
10.5281635717
 20
9.3865274457
 30
0.0
 10
10.5278780406
 20
9.3868944046
 30
0.0
 10
10.5276799113
 20
9.387153235
 30
0.0
 10
10.5275639738
 20
9.387298079
 30
0.0
 10
10.5274846852
 20
9.3874153293
 30
0.0
 10
10.5273760989
 20
9.38749964
 30
0.0
 10
10.5272415366
 20
9.387623544
 30
0.0
 10
10.5270012911
 20
9.3878350227
 30
0.0
 10
10.5266605725
 20
9.3881399339
 30
0.0
 10
10.5262506448
 20
9.3885046293
 30
0.0
 10
10.5257044466
 20
9.3889913084
 30
0.0
 10
10.5250215714
 20
9.3895995139
 30
0.0
 10
10.5239290424
 20
9.3905727228
 30
0.0
 10
10.5225633567
 20
9.3917892064
 30
0.0
 10
10.5209245443
 20
9.3932489986
 30
0.0
 10
10.5192857291
 20
9.3947087876
 30
0.0
 10
10.5171006432
 20
9.396655174
 30
0.0
 10
10.5143692855
 20
9.3990881567
 30
0.0
 10
10.5116379276
 20
9.4015211392
 30
0.0
 10
10.509452842
 20
9.4034675261
 30
0.0
 10
10.507814026
 20
9.4049273137
 30
0.0
 10
10.5061752167
 20
9.4063871109
 30
0.0
 10
10.5048095214
 20
9.4076035789
 30
0.0
 10
10.5037170119
 20
9.4085768198
 30
0.0
 10
10.503034087
 20
9.4091849438
 30
0.0
 10
10.5024879909
 20
9.4096717902
 30
0.0
 10
10.5020777513
 20
9.4100359741
 30
0.0
 10
10.5017380086
 20
9.4103424859
 30
0.0
 10
10.5014614513
 20
9.4105809103
 30
0.0
 10
10.5012670488
 20
9.4107782684
 30
0.0
 10
10.5010229657
 20
9.4109048599
 30
0.0
 10
10.5007148757
 20
9.4110983682
 30
0.0
 10
10.5003238091
 20
9.4113317724
 30
0.0
 10
10.4998570777
 20
9.4116154876
 30
0.0
 10
10.4992338789
 20
9.4119925066
 30
0.0
 10
10.4984551854
 20
9.4124642146
 30
0.0
 10
10.4972091053
 20
9.4132187046
 30
0.0
 10
10.4956515636
 20
9.4141619005
 30
0.0
 10
10.4937824885
 20
9.4152936998
 30
0.0
 10
10.4919134202
 20
9.4164255086
 30
0.0
 10
10.4894213267
 20
9.4179345838
 30
0.0
 10
10.4863062107
 20
9.4198209289
 30
0.0
 10
10.4831910942
 20
9.4217072732
 30
0.0
 10
10.4806990015
 20
9.4232163498
 30
0.0
 10
10.4788299307
 20
9.4243481543
 30
0.0
 10
10.4769608646
 20
9.4254799697
 30
0.0
 10
10.4754032951
 20
9.4264231155
 30
0.0
 10
10.4741572718
 20
9.4271777076
 30
0.0
 10
10.4733784337
 20
9.427649156
 30
0.0
 10
10.4727555316
 20
9.4280267077
 30
0.0
 10
10.4722878939
 20
9.4283087955
 30
0.0
 10
10.4718996629
 20
9.4285472915
 30
0.0
 10
10.4715857876
 20
9.4287304115
 30
0.0
 10
10.4713593724
 20
9.4288887282
 30
0.0
 10
10.4710986373
 20
9.4289669766
 30
0.0
 10
10.4707629789
 20
9.4290992767
 30
0.0
 10
10.4703392927
 20
9.4292550559
 30
0.0
 10
10.4698326298
 20
9.4294460982
 30
0.0
 10
10.4691564644
 20
9.4296993867
 30
0.0
 10
10.4683114682
 20
9.4300164886
 30
0.0
 10
10.4669593565
 20
9.430523577
 30
0.0
 10
10.4652692574
 20
9.4311575318
 30
0.0
 10
10.4632411211
 20
9.4319182371
 30
0.0
 10
10.4612129894
 20
9.4326789532
 30
0.0
 10
10.4585088122
 20
9.4336932376
 30
0.0
 10
10.4551285913
 20
9.4349610944
 30
0.0
 10
10.4517483702
 20
9.4362289509
 30
0.0
 10
10.4490441932
 20
9.4372432357
 30
0.0
 10
10.4470160608
 20
9.4380039504
 30
0.0
 10
10.4449879272
 20
9.4387646611
 30
0.0
 10
10.4432978197
 20
9.4393985993
 30
0.0
 10
10.4419457251
 20
9.4399057214
 30
0.0
 10
10.4411006855
 20
9.4402227378
 30
0.0
 10
10.440424609
 20
9.4404762017
 30
0.0
 10
10.4399176746
 20
9.440666708
 30
0.0
 10
10.4394948379
 20
9.4408241643
 30
0.0
 10
10.4391996203
 20
9.4409369329
 30
0.0
 10
10.4390297252
 20
9.4409973918
 30
0.0
 10
10.4389056826
 20
9.4410539485
 30
0.0
 10
10.4387687246
 20
9.4410676453
 30
0.0
 10
10.4385906189
 20
9.4411008578
 30
0.0
 10
10.438276835
 20
9.4411520141
 30
0.0
 10
10.4378296697
 20
9.4412287361
 30
0.0
 10
10.4372926015
 20
9.4413192439
 30
0.0
 10
10.4365766748
 20
9.4414404653
 30
0.0
 10
10.4356817102
 20
9.4415918057
 30
0.0
 10
10.4342497982
 20
9.4418340545
 30
0.0
 10
10.4324598974
 20
9.4421368297
 30
0.0
 10
10.4303120211
 20
9.4425001753
 30
0.0
 10
10.4281641435
 20
9.4428635168
 30
0.0
 10
10.4253003072
 20
9.4433479735
 30
0.0
 10
10.4217205117
 20
9.443953544
 30
0.0
 10
10.4174247571
 20
9.4446802287
 30
0.0
 10
10.4116970844
 20
9.4456491417
 30
0.0
 10
10.4074013298
 20
9.4463758264
 30
0.0
 10
10.4045374934
 20
9.4468602829
 30
0.0
  0
SPLINE
  5
37E
100
AcDbEntity
  8
0
100
AcDbSpline
 62
4
  6
CONTINUOUS
 70
0
 71
3
 72
397
 73
393
 74
0
 42
0.0000001
 43
0.0000001
 44
0.0000000001
 40
0.0
 40
0.0
 40
0.0
 40
0.0
 40
0.015625
 40
0.0234375
 40
0.03125
 40
0.0390625
 40
0.04296875
 40
0.046875
 40
0.05078125
 40
0.0546875
 40
0.056640625
 40
0.05859375
 40
0.0595703125
 40
0.060546875
 40
0.0615234375
 40
0.0620117188
 40
0.0622558594
 40
0.0625
 40
0.0627441406
 40
0.0629882812
 40
0.0634765625
 40
0.064453125
 40
0.0654296875
 40
0.06640625
 40
0.068359375
 40
0.0703125
 40
0.07421875
 40
0.078125
 40
0.08203125
 40
0.0859375
 40
0.09375
 40
0.1015625
 40
0.10546875
 40
0.109375
 40
0.11328125
 40
0.1171875
 40
0.119140625
 40
0.12109375
 40
0.1220703125
 40
0.123046875
 40
0.1240234375
 40
0.1245117188
 40
0.1247558594
 40
0.125
 40
0.1252441406
 40
0.1254882812
 40
0.1259765625
 40
0.126953125
 40
0.1279296875
 40
0.12890625
 40
0.130859375
 40
0.1328125
 40
0.13671875
 40
0.140625
 40
0.14453125
 40
0.1484375
 40
0.15625
 40
0.1640625
 40
0.16796875
 40
0.171875
 40
0.17578125
 40
0.1796875
 40
0.181640625
 40
0.18359375
 40
0.1845703125
 40
0.185546875
 40
0.1865234375
 40
0.1870117188
 40
0.1872558594
 40
0.1875
 40
0.1877441406
 40
0.1879882812
 40
0.1884765625
 40
0.189453125
 40
0.1904296875
 40
0.19140625
 40
0.193359375
 40
0.1953125
 40
0.19921875
 40
0.203125
 40
0.20703125
 40
0.2109375
 40
0.21875
 40
0.2265625
 40
0.23046875
 40
0.234375
 40
0.23828125
 40
0.2421875
 40
0.244140625
 40
0.24609375
 40
0.2470703125
 40
0.248046875
 40
0.2490234375
 40
0.2495117188
 40
0.2497558594
 40
0.25
 40
0.2502441406
 40
0.2504882812
 40
0.2509765625
 40
0.251953125
 40
0.2529296875
 40
0.25390625
 40
0.255859375
 40
0.2578125
 40
0.26171875
 40
0.265625
 40
0.26953125
 40
0.2734375
 40
0.28125
 40
0.2890625
 40
0.29296875
 40
0.296875
 40
0.30078125
 40
0.3046875
 40
0.306640625
 40
0.30859375
 40
0.3095703125
 40
0.310546875
 40
0.3115234375
 40
0.3120117188
 40
0.3122558594
 40
0.3125
 40
0.3127441406
 40
0.3129882812
 40
0.3134765625
 40
0.314453125
 40
0.3154296875
 40
0.31640625
 40
0.318359375
 40
0.3203125
 40
0.32421875
 40
0.328125
 40
0.33203125
 40
0.3359375
 40
0.34375
 40
0.3515625
 40
0.35546875
 40
0.359375
 40
0.36328125
 40
0.3671875
 40
0.369140625
 40
0.37109375
 40
0.3720703125
 40
0.373046875
 40
0.3740234375
 40
0.3745117188
 40
0.3747558594
 40
0.375
 40
0.3752441406
 40
0.3754882812
 40
0.3759765625
 40
0.376953125
 40
0.3779296875
 40
0.37890625
 40
0.380859375
 40
0.3828125
 40
0.38671875
 40
0.390625
 40
0.39453125
 40
0.3984375
 40
0.40625
 40
0.4140625
 40
0.41796875
 40
0.421875
 40
0.42578125
 40
0.4296875
 40
0.431640625
 40
0.43359375
 40
0.4345703125
 40
0.435546875
 40
0.4365234375
 40
0.4370117188
 40
0.4372558594
 40
0.4375
 40
0.4377441406
 40
0.4379882812
 40
0.4384765625
 40
0.439453125
 40
0.4404296875
 40
0.44140625
 40
0.443359375
 40
0.4453125
 40
0.44921875
 40
0.453125
 40
0.45703125
 40
0.4609375
 40
0.46875
 40
0.4765625
 40
0.48046875
 40
0.484375
 40
0.48828125
 40
0.4921875
 40
0.494140625
 40
0.49609375
 40
0.4970703125
 40
0.498046875
 40
0.4990234375
 40
0.4995117188
 40
0.4997558594
 40
0.5
 40
0.5002441406
 40
0.5004882812
 40
0.5009765625
 40
0.501953125
 40
0.5029296875
 40
0.50390625
 40
0.505859375
 40
0.5078125
 40
0.51171875
 40
0.515625
 40
0.51953125
 40
0.5234375
 40
0.53125
 40
0.5390625
 40
0.54296875
 40
0.546875
 40
0.55078125
 40
0.5546875
 40
0.556640625
 40
0.55859375
 40
0.5595703125
 40
0.560546875
 40
0.5615234375
 40
0.5620117188
 40
0.5622558594
 40
0.5625
 40
0.5627441406
 40
0.5629882812
 40
0.5634765625
 40
0.564453125
 40
0.5654296875
 40
0.56640625
 40
0.568359375
 40
0.5703125
 40
0.57421875
 40
0.578125
 40
0.58203125
 40
0.5859375
 40
0.59375
 40
0.6015625
 40
0.60546875
 40
0.609375
 40
0.61328125
 40
0.6171875
 40
0.619140625
 40
0.62109375
 40
0.6220703125
 40
0.623046875
 40
0.6240234375
 40
0.6245117188
 40
0.625
 40
0.6254882812
 40
0.6259765625
 40
0.626953125
 40
0.6279296875
 40
0.62890625
 40
0.630859375
 40
0.6328125
 40
0.63671875
 40
0.640625
 40
0.64453125
 40
0.6484375
 40
0.65625
 40
0.6640625
 40
0.66796875
 40
0.671875
 40
0.67578125
 40
0.6796875
 40
0.681640625
 40
0.68359375
 40
0.6845703125
 40
0.685546875
 40
0.6865234375
 40
0.6870117188
 40
0.6872558594
 40
0.6875
 40
0.6877441406
 40
0.6879882812
 40
0.6884765625
 40
0.689453125
 40
0.6904296875
 40
0.69140625
 40
0.693359375
 40
0.6953125
 40
0.69921875
 40
0.703125
 40
0.70703125
 40
0.7109375
 40
0.71875
 40
0.7265625
 40
0.73046875
 40
0.734375
 40
0.73828125
 40
0.7421875
 40
0.744140625
 40
0.74609375
 40
0.7470703125
 40
0.748046875
 40
0.7490234375
 40
0.7495117188
 40
0.7497558594
 40
0.75
 40
0.7502441406
 40
0.7504882812
 40
0.7509765625
 40
0.751953125
 40
0.7529296875
 40
0.75390625
 40
0.755859375
 40
0.7578125
 40
0.76171875
 40
0.765625
 40
0.76953125
 40
0.7734375
 40
0.78125
 40
0.7890625
 40
0.79296875
 40
0.796875
 40
0.80078125
 40
0.8046875
 40
0.806640625
 40
0.80859375
 40
0.8095703125
 40
0.810546875
 40
0.8115234375
 40
0.8120117188
 40
0.8125
 40
0.8129882812
 40
0.8134765625
 40
0.814453125
 40
0.8154296875
 40
0.81640625
 40
0.818359375
 40
0.8203125
 40
0.82421875
 40
0.828125
 40
0.83203125
 40
0.8359375
 40
0.84375
 40
0.8515625
 40
0.85546875
 40
0.859375
 40
0.86328125
 40
0.8671875
 40
0.869140625
 40
0.87109375
 40
0.8720703125
 40
0.873046875
 40
0.8740234375
 40
0.8745117188
 40
0.875
 40
0.8754882812
 40
0.8759765625
 40
0.876953125
 40
0.8779296875
 40
0.87890625
 40
0.880859375
 40
0.8828125
 40
0.88671875
 40
0.890625
 40
0.89453125
 40
0.8984375
 40
0.90625
 40
0.9140625
 40
0.91796875
 40
0.921875
 40
0.92578125
 40
0.9296875
 40
0.931640625
 40
0.93359375
 40
0.9345703125
 40
0.935546875
 40
0.9365234375
 40
0.9370117188
 40
0.9372558594
 40
0.9375
 40
0.9377441406
 40
0.9379882812
 40
0.9384765625
 40
0.939453125
 40
0.9404296875
 40
0.94140625
 40
0.943359375
 40
0.9453125
 40
0.94921875
 40
0.953125
 40
0.95703125
 40
0.9609375
 40
0.96875
 40
0.9765625
 40
0.984375
 40
1.0
 40
1.0
 40
1.0
 40
1.0
 10
10.4045375086
 20
9.4468602818
 30
0.0
 10
10.4017232688
 20
9.4467795114
 30
0.0
 10
10.3975019091
 20
9.4466583557
 30
0.0
 10
10.3918734295
 20
9.4464968149
 30
0.0
 10
10.3876520698
 20
9.4463756592
 30
0.0
 10
10.38413427
 20
9.4462746963
 30
0.0
 10
10.3813200302
 20
9.4461939256
 30
0.0
 10
10.3792093502
 20
9.4461333486
 30
0.0
 10
10.377098671
 20
9.4460727675
 30
0.0
 10
10.3753397691
 20
9.4460222964
 30
0.0
 10
10.3739326533
 20
9.4459818899
 30
0.0
 10
10.3730531928
 20
9.4459567033
 30
0.0
 10
10.3723496546
 20
9.4459363995
 30
0.0
 10
10.3718219183
 20
9.4459215946
 30
0.0
 10
10.3713824008
 20
9.4459079118
 30
0.0
 10
10.3710742229
 20
9.4459009742
 30
0.0
 10
10.3708989265
 20
9.4458928871
 30
0.0
 10
10.3707651857
 20
9.4458984357
 30
0.0
 10
10.3706401162
 20
9.4458595898
 30
0.0
 10
10.3704703322
 20
9.4458232806
 30
0.0
 10
10.3701746195
 20
9.4457525246
 30
0.0
 10
10.369751436
 20
9.4456552165
 30
0.0
 10
10.3692439311
 20
9.4455368324
 30
0.0
 10
10.3685671478
 20
9.4453795507
 30
0.0
 10
10.3677212065
 20
9.4451827556
 30
0.0
 10
10.3663676791
 20
9.4448679913
 30
0.0
 10
10.3646757773
 20
9.4444744989
 30
0.0
 10
10.3626454919
 20
9.4440023238
 30
0.0
 10
10.3606152073
 20
9.4435301446
 30
0.0
 10
10.357908161
 20
9.4429005737
 30
0.0
 10
10.3545243532
 20
9.4421136096
 30
0.0
 10
10.3511405452
 20
9.4413266458
 30
0.0
 10
10.3484334991
 20
9.4406970743
 30
0.0
 10
10.346403214
 20
9.4402248968
 30
0.0
 10
10.3443729306
 20
9.4397527152
 30
0.0
 10
10.3426810227
 20
9.4393592433
 30
0.0
 10
10.3413275077
 20
9.4390444373
 30
0.0
 10
10.3404815349
 20
9.4388477481
 30
0.0
 10
10.339804816
 20
9.438690249
 30
0.0
 10
10.3392971147
 20
9.4385725292
 30
0.0
 10
10.3388745458
 20
9.4384731426
 30
0.0
 10
10.3385777358
 20
9.4384060971
 30
0.0
 10
10.33840971
 20
9.4383638427
 30
0.0
 10
10.33827924
 20
9.4383432584
 30
0.0
 10
10.3381657824
 20
9.4382802195
 30
0.0
 10
10.3380085714
 20
9.4382109762
 30
0.0
 10
10.3377362171
 20
9.4380829008
 30
0.0
 10
10.337345694
 20
9.4379035431
 30
0.0
 10
10.3368776849
 20
9.4376867699
 30
0.0
 10
10.3362534568
 20
9.4373982783
 30
0.0
 10
10.3354732456
 20
9.4370374791
 30
0.0
 10
10.3342248663
 20
9.4364603036
 30
0.0
 10
10.3326644064
 20
9.4357387988
 30
0.0
 10
10.3307918485
 20
9.4348730082
 30
0.0
 10
10.3289192922
 20
9.4340072135
 30
0.0
 10
10.3264225498
 20
9.4328528221
 30
0.0
 10
10.3233016221
 20
9.4314098322
 30
0.0
 10
10.3201806943
 20
9.4299668428
 30
0.0
 10
10.3176839522
 20
9.4288124508
 30
0.0
 10
10.3158113951
 20
9.4279466578
 30
0.0
 10
10.3139388401
 20
9.4270808609
 30
0.0
 10
10.3123783711
 20
9.4263593758
 30
0.0
 10
10.3111300104
 20
9.42578216
 30
0.0
 10
10.3103497519
 20
9.4254214633
 30
0.0
 10
10.3097256209
 20
9.4251327613
 30
0.0
 10
10.309257315
 20
9.4249166309
 30
0.0
 10
10.3088677209
 20
9.424735262
 30
0.0
 10
10.308593708
 20
9.424610777
 30
0.0
 10
10.3084391544
 20
9.4245357809
 30
0.0
 10
10.3083175343
 20
9.4244904127
 30
0.0
 10
10.3082177214
 20
9.4244034599
 30
0.0
 10
10.3080770309
 20
9.4243020279
 30
0.0
 10
10.3078343667
 20
9.4241177637
 30
0.0
 10
10.3074858506
 20
9.4238580625
 30
0.0
 10
10.3070684243
 20
9.4235449087
 30
0.0
 10
10.306511579
 20
9.4231278984
 30
0.0
 10
10.3058156173
 20
9.4226064548
 30
0.0
 10
10.3047020254
 20
9.421772246
 30
0.0
 10
10.3033100538
 20
9.4207294504
 30
0.0
 10
10.30163968
 20
9.4194781105
 30
0.0
 10
10.2999693083
 20
9.4182267666
 30
0.0
 10
10.2977421454
 20
9.4165583095
 30
0.0
 10
10.2949581919
 20
9.4144727376
 30
0.0
 10
10.2921742383
 20
9.4123871661
 30
0.0
 10
10.2899470757
 20
9.4107187085
 30
0.0
 10
10.2882767029
 20
9.4094673661
 30
0.0
 10
10.2866063334
 20
9.4082160206
 30
0.0
 10
10.2852143484
 20
9.4071732422
 30
0.0
 10
10.2841007838
 20
9.4063389983
 30
0.0
 10
10.2834047527
 20
9.4058176441
 30
0.0
 10
10.2828480496
 20
9.4054004503
 30
0.0
 10
10.2824301891
 20
9.4050878572
 30
0.0
 10
10.2820830318
 20
9.4048264016
 30
0.0
 10
10.2818379418
 20
9.4046452693
 30
0.0
 10
10.281701138
 20
9.4045388192
 30
0.0
 10
10.2815893864
 20
9.4044672806
 30
0.0
 10
10.2815126062
 20
9.404364019
 30
0.0
 10
10.2813980341
 20
9.4042374023
 30
0.0
 10
10.2812032165
 20
9.4040106674
 30
0.0
 10
10.2809219343
 20
9.4036894559
 30
0.0
 10
10.2805856674
 20
9.4033028483
 30
0.0
 10
10.2801368673
 20
9.4027877745
 30
0.0
 10
10.2795760194
 20
9.4021437943
 30
0.0
 10
10.2786785776
 20
9.4011135031
 30
0.0
 10
10.2775568046
 20
9.3998256126
 30
0.0
 10
10.2762106645
 20
9.3982801554
 30
0.0
 10
10.2748645277
 20
9.3967346951
 30
0.0
 10
10.2730696775
 20
9.3946740824
 30
0.0
 10
10.2708261152
 20
9.3920983162
 30
0.0
 10
10.2685825525
 20
9.3895225503
 30
0.0
 10
10.2667877028
 20
9.3874619372
 30
0.0
 10
10.2654415646
 20
9.3859164781
 30
0.0
 10
10.2640954299
 20
9.3843710164
 30
0.0
 10
10.2629736399
 20
9.3830831398
 30
0.0
 10
10.2620762327
 20
9.3820528203
 30
0.0
 10
10.2615152969
 20
9.3814089122
 30
0.0
 10
10.2610666772
 20
9.3808936903
 30
0.0
 10
10.2607298591
 20
9.3805075351
 30
0.0
 10
10.2604503016
 20
9.3801849084
 30
0.0
 10
10.260252405
 20
9.3799606998
 30
0.0
 10
10.2601427663
 20
9.3798300353
 30
0.0
 10
10.2600508322
 20
9.3797392071
 30
0.0
 10
10.2599959961
 20
9.3796209711
 30
0.0
 10
10.2599099411
 20
9.3794728833
 30
0.0
 10
10.2597653738
 20
9.3792092753
 30
0.0
 10
10.2595556972
 20
9.3788350213
 30
0.0
 10
10.2593054343
 20
9.3783849197
 30
0.0
 10
10.2589712793
 20
9.3777851323
 30
0.0
 10
10.2585537469
 20
9.3770352789
 30
0.0
 10
10.2578856048
 20
9.3758355801
 30
0.0
 10
10.2570504582
 20
9.3743359338
 30
0.0
 10
10.256048269
 20
9.372536368
 30
0.0
 10
10.2550460833
 20
9.3707367995
 30
0.0
 10
10.2537098345
 20
9.3683373758
 30
0.0
 10
10.252039524
 20
9.3653380959
 30
0.0
 10
10.2503692131
 20
9.3623388161
 30
0.0
 10
10.2490329648
 20
9.3599393921
 30
0.0
 10
10.2480307776
 20
9.3581398246
 30
0.0
 10
10.2470285943
 20
9.3563402552
 30
0.0
 10
10.2461934292
 20
9.35484062
 30
0.0
 10
10.2455253247
 20
9.3536408985
 30
0.0
 10
10.2451076968
 20
9.3528911029
 30
0.0
 10
10.2447737378
 20
9.3522911968
 30
0.0
 10
10.244522876
 20
9.3518414579
 30
0.0
 10
10.2443150735
 20
9.351466069
 30
0.0
 10
10.2441671605
 20
9.3512044871
 30
0.0
 10
10.2440864663
 20
9.351053153
 30
0.0
 10
10.2440151634
 20
9.3509448884
 30
0.0
 10
10.2439850757
 20
9.3508166093
 30
0.0
 10
10.2439305825
 20
9.3506525518
 30
0.0
 10
10.2438419176
 20
9.3503621984
 30
0.0
 10
10.2437117516
 20
9.3499491084
 30
0.0
 10
10.2435570512
 20
9.3494526725
 30
0.0
 10
10.2433502606
 20
9.3487910122
 30
0.0
 10
10.2430919515
 20
9.3479638498
 30
0.0
 10
10.2426785569
 20
9.3466404386
 30
0.0
 10
10.2421618479
 20
9.3449861579
 30
0.0
 10
10.2415417824
 20
9.3430010283
 30
0.0
 10
10.2409217209
 20
9.3410158967
 30
0.0
 10
10.2400949707
 20
9.3383690553
 30
0.0
 10
10.2390615336
 20
9.3350605032
 30
0.0
 10
10.2380280961
 20
9.3317519513
 30
0.0
 10
10.2372013466
 20
9.3291051096
 30
0.0
 10
10.2365812833
 20
9.3271199788
 30
0.0
 10
10.2359612243
 20
9.3251348464
 30
0.0
 10
10.2354444953
 20
9.3234805742
 30
0.0
 10
10.2350311414
 20
9.3221571457
 30
0.0
 10
10.2347727287
 20
9.3213300272
 30
0.0
 10
10.2345661508
 20
9.3206682769
 30
0.0
 10
10.2344108005
 20
9.3201721161
 30
0.0
 10
10.234282668
 20
9.3197581654
 30
0.0
 10
10.2341903729
 20
9.3194693485
 30
0.0
 10
10.2341416962
 20
9.3193028291
 30
0.0
 10
10.2340937419
 20
9.3191821121
 30
0.0
 10
10.2340895432
 20
9.3190454453
 30
0.0
 10
10.2340686824
 20
9.3188687864
 30
0.0
 10
10.2340392871
 20
9.3185570413
 30
0.0
 10
10.233993576
 20
9.3181130462
 30
0.0
 10
10.2339403141
 20
9.317579672
 30
0.0
 10
10.2338687423
 20
9.3168687091
 30
0.0
 10
10.233779468
 20
9.3159799361
 30
0.0
 10
10.2336365226
 20
9.314557938
 30
0.0
 10
10.2334578775
 20
9.3127804271
 30
0.0
 10
10.2332434876
 20
9.3106474197
 30
0.0
 10
10.2330291019
 20
9.3085144108
 30
0.0
 10
10.2327432529
 20
9.3056703995
 30
0.0
 10
10.2323859421
 20
9.3021153852
 30
0.0
 10
10.232028631
 20
9.2985603709
 30
0.0
 10
10.2317427826
 20
9.2957163594
 30
0.0
 10
10.2315283951
 20
9.2935833508
 30
0.0
 10
10.231314012
 20
9.2914503423
 30
0.0
 10
10.2311353458
 20
9.289672835
 30
0.0
 10
10.2309924432
 20
9.2882508297
 30
0.0
 10
10.2309030601
 20
9.287362075
 30
0.0
 10
10.2308317117
 20
9.2866510743
 30
0.0
 10
10.2307777674
 20
9.2861178156
 30
0.0
 10
10.2307341911
 20
9.2856734594
 30
0.0
 10
10.2307009849
 20
9.2853623589
 30
0.0
 10
10.2306862302
 20
9.2851846671
 30
0.0
 10
10.2306632754
 20
9.2850511731
 30
0.0
 10
10.2306857657
 20
9.2849185395
 30
0.0
 10
10.2306999009
 20
9.2847413946
 30
0.0
 10
10.2307320233
 20
9.2844315309
 30
0.0
 10
10.2307740511
 20
9.2839887952
 30
0.0
 10
10.2308261372
 20
9.2834575438
 30
0.0
 10
10.2308950081
 20
9.2827491976
 30
0.0
 10
10.2309812943
 20
9.2818637686
 30
0.0
 10
10.2311192419
 20
9.28044708
 30
0.0
 10
10.2312917142
 20
9.2786762201
 30
0.0
 10
10.2314986647
 20
9.2765511879
 30
0.0
 10
10.2317056196
 20
9.2744261557
 30
0.0
 10
10.2319815579
 20
9.2715927795
 30
0.0
 10
10.2323264814
 20
9.2680510592
 30
0.0
 10
10.2326714045
 20
9.2645093389
 30
0.0
 10
10.2329473434
 20
9.2616759628
 30
0.0
 10
10.2331542965
 20
9.2595509305
 30
0.0
 10
10.2333612538
 20
9.2574258987
 30
0.0
 10
10.2335337051
 20
9.2556550373
 30
0.0
 10
10.2336716954
 20
9.2542383519
 30
0.0
 10
10.2337578728
 20
9.2533529149
 30
0.0
 10
10.2338269671
 20
9.252644585
 30
0.0
 10
10.2338783707
 20
9.2521132838
 30
0.0
 10
10.2339225341
 20
9.2516707037
 30
0.0
 10
10.2339508439
 20
9.2513605624
 30
0.0
 10
10.2339710879
 20
9.2511838621
 30
0.0
 10
10.2339748142
 20
9.2510498629
 30
0.0
 10
10.2340223337
 20
9.2509214979
 30
0.0
 10
10.2340704175
 20
9.2507483793
 30
0.0
 10
10.2341616813
 20
9.2504463374
 30
0.0
 10
10.2342883372
 20
9.2500143703
 30
0.0
 10
10.2344419169
 20
9.2494962146
 30
0.0
 10
10.2346461337
 20
9.2488052689
 30
0.0
 10
10.234901595
 20
9.2479416112
 30
0.0
 10
10.2353102268
 20
9.2465597452
 30
0.0
 10
10.235821053
 20
9.2448324174
 30
0.0
 10
10.2364340288
 20
9.242759622
 30
0.0
 10
10.2370470087
 20
9.2406868271
 30
0.0
 10
10.2378643139
 20
9.2379231005
 30
0.0
 10
10.2388859458
 20
9.2344684422
 30
0.0
 10
10.239907578
 20
9.231013784
 30
0.0
 10
10.2407248827
 20
9.2282500572
 30
0.0
 10
10.2413378641
 20
9.226177263
 30
0.0
 10
10.2419508344
 20
9.224104465
 30
0.0
 10
10.2424616777
 20
9.2223771453
 30
0.0
 10
10.2428702746
 20
9.2209952628
 30
0.0
 10
10.2431258246
 20
9.220131647
 30
0.0
 10
10.2433298594
 20
9.2194406153
 30
0.0
 10
10.243483995
 20
9.218922722
 30
0.0
 10
10.2436089117
 20
9.2184899342
 30
0.0
 10
10.2437167615
 20
9.2181464178
 30
0.0
 10
10.2437760173
 20
9.2178813649
 30
0.0
 10
10.2439178409
 20
9.2176446178
 30
0.0
 10
10.2440780969
 20
9.2173190673
 30
0.0
 10
10.2442883126
 20
9.2169155217
 30
0.0
 10
10.2445363357
 20
9.2164298149
 30
0.0
 10
10.2448685127
 20
9.215782713
 30
0.0
 10
10.2452832273
 20
9.2149736619
 30
0.0
 10
10.2459470538
 20
9.2136792773
 30
0.0
 10
10.2467767398
 20
9.2120612632
 30
0.0
 10
10.2477724046
 20
9.2101196606
 30
0.0
 10
10.2487680583
 20
9.2081780541
 30
0.0
 10
10.2500956005
 20
9.2055892469
 30
0.0
 10
10.2517550269
 20
9.2023532374
 30
0.0
 10
10.2534144536
 20
9.1991172279
 30
0.0
 10
10.2547419952
 20
9.1965284205
 30
0.0
 10
10.2557376505
 20
9.1945868145
 30
0.0
 10
10.2567333095
 20
9.1926452103
 30
0.0
 10
10.2575630135
 20
9.1910272011
 30
0.0
 10
10.2582268034
 20
9.1897328065
 30
0.0
 10
10.2586416112
 20
9.1889237809
 30
0.0
 10
10.2589735968
 20
9.1882766267
 30
0.0
 10
10.2592222043
 20
9.1877910797
 30
0.0
 10
10.2594305917
 20
9.1873870339
 30
0.0
 10
10.2595740795
 20
9.1871030701
 30
0.0
 10
10.259659794
 20
9.1869425722
 30
0.0
 10
10.2597135965
 20
9.1868172208
 30
0.0
 10
10.2598074714
 20
9.1867108977
 30
0.0
 10
10.2599186603
 20
9.1865624963
 30
0.0
 10
10.2601197533
 20
9.1863058862
 30
0.0
 10
10.2604036242
 20
9.1859376836
 30
0.0
 10
10.2607457267
 20
9.1854965325
 30
0.0
 10
10.2612013543
 20
9.1849080893
 30
0.0
 10
10.261771063
 20
9.1841726181
 30
0.0
 10
10.2626824996
 20
9.1829958179
 30
0.0
 10
10.2638218288
 20
9.1815248335
 30
0.0
 10
10.2651890095
 20
9.1797596454
 30
0.0
 10
10.2665561941
 20
9.1779944592
 30
0.0
 10
10.2683791055
 20
9.1756408769
 30
0.0
 10
10.2706577452
 20
9.1726988992
 30
0.0
 10
10.2729363846
 20
9.1697569214
 30
0.0
 10
10.2747592964
 20
9.1674033394
 30
0.0
 10
10.2761264796
 20
9.1656381522
 30
0.0
 10
10.2774936655
 20
9.163872968
 30
0.0
 10
10.2786329784
 20
9.1624019714
 30
0.0
 10
10.2795444483
 20
9.1612251961
 30
0.0
 10
10.2801140724
 20
9.1604896615
 30
0.0
 10
10.2805698737
 20
9.1599013484
 30
0.0
 10
10.2809114455
 20
9.1594597998
 30
0.0
 10
10.2811969766
 20
9.1590928409
 30
0.0
 10
10.2813951059
 20
9.1588340106
 30
0.0
 10
10.2815110434
 20
9.1586891666
 30
0.0
 10
10.281590332
 20
9.1585719162
 30
0.0
 10
10.2816989183
 20
9.1584876055
 30
0.0
 10
10.2818334807
 20
9.1583637016
 30
0.0
 10
10.2820737262
 20
9.1581522229
 30
0.0
 10
10.2824144447
 20
9.1578473117
 30
0.0
 10
10.2828243724
 20
9.1574826162
 30
0.0
 10
10.2833705706
 20
9.1569959372
 30
0.0
 10
10.2840534458
 20
9.1563877317
 30
0.0
 10
10.2851459748
 20
9.1554145228
 30
0.0
 10
10.2865116605
 20
9.1541980391
 30
0.0
 10
10.2881504729
 20
9.152738247
 30
0.0
 10
10.2897892881
 20
9.151278458
 30
0.0
 10
10.291974374
 20
9.1493320716
 30
0.0
 10
10.2947057317
 20
9.1468990888
 30
0.0
 10
10.2974370896
 20
9.1444661063
 30
0.0
 10
10.2996221752
 20
9.1425197195
 30
0.0
 10
10.3012609912
 20
9.1410599318
 30
0.0
 10
10.3028998005
 20
9.1396001346
 30
0.0
 10
10.3042654958
 20
9.1383836667
 30
0.0
 10
10.3053580053
 20
9.1374104257
 30
0.0
 10
10.3060409302
 20
9.1368023018
 30
0.0
 10
10.3065870263
 20
9.1363154553
 30
0.0
 10
10.306997266
 20
9.1359512714
 30
0.0
 10
10.3073370086
 20
9.1356447597
 30
0.0
 10
10.3076135659
 20
9.1354063352
 30
0.0
 10
10.3078079684
 20
9.1352089771
 30
0.0
 10
10.3080520515
 20
9.1350823857
 30
0.0
 10
10.3083601415
 20
9.1348888774
 30
0.0
 10
10.3087512081
 20
9.1346554732
 30
0.0
 10
10.3092179396
 20
9.1343717579
 30
0.0
 10
10.3098411383
 20
9.1339947389
 30
0.0
 10
10.3106198319
 20
9.133523031
 30
0.0
 10
10.311865912
 20
9.1327685409
 30
0.0
 10
10.3134234536
 20
9.1318253451
 30
0.0
 10
10.3152925287
 20
9.1306935458
 30
0.0
 10
10.317161597
 20
9.1295617369
 30
0.0
 10
10.3196536905
 20
9.1280526618
 30
0.0
 10
10.3227688065
 20
9.1261663166
 30
0.0
 10
10.325883923
 20
9.1242799724
 30
0.0
 10
10.3283760157
 20
9.1227708958
 30
0.0
 10
10.3302450865
 20
9.1216390912
 30
0.0
 10
10.3321141526
 20
9.1205072759
 30
0.0
 10
10.3336717221
 20
9.11956413
 30
0.0
 10
10.3349177454
 20
9.118809538
 30
0.0
 10
10.3356965835
 20
9.1183380896
 30
0.0
 10
10.3363194856
 20
9.1179605379
 30
0.0
 10
10.3367871233
 20
9.11767845
 30
0.0
 10
10.3371753543
 20
9.117439954
 30
0.0
 10
10.3374892296
 20
9.117256834
 30
0.0
 10
10.3377156448
 20
9.1170985173
 30
0.0
 10
10.3379763799
 20
9.1170202689
 30
0.0
 10
10.3383120383
 20
9.1168879688
 30
0.0
 10
10.3387357245
 20
9.1167321897
 30
0.0
 10
10.3392423874
 20
9.1165411473
 30
0.0
 10
10.3399185528
 20
9.1162878588
 30
0.0
 10
10.340763549
 20
9.115970757
 30
0.0
 10
10.3421156607
 20
9.1154636685
 30
0.0
 10
10.3438057598
 20
9.1148297138
 30
0.0
 10
10.3458338962
 20
9.1140690084
 30
0.0
 10
10.3478620278
 20
9.1133082923
 30
0.0
 10
10.350566205
 20
9.1122940079
 30
0.0
 10
10.353946426
 20
9.1110261512
 30
0.0
 10
10.357326647
 20
9.1097582947
 30
0.0
 10
10.360030824
 20
9.1087440098
 30
0.0
 10
10.3620589564
 20
9.1079832951
 30
0.0
 10
10.36408709
 20
9.1072225845
 30
0.0
 10
10.3657771975
 20
9.1065886462
 30
0.0
 10
10.3671292921
 20
9.1060815242
 30
0.0
 10
10.3679743317
 20
9.1057645078
 30
0.0
 10
10.3686504082
 20
9.1055110438
 30
0.0
 10
10.3691573426
 20
9.1053205375
 30
0.0
 10
10.3695801793
 20
9.1051630812
 30
0.0
 10
10.3698753969
 20
9.1050503126
 30
0.0
 10
10.370045292
 20
9.1049898537
 30
0.0
 10
10.3701693346
 20
9.1049332971
 30
0.0
 10
10.3703062927
 20
9.1049196002
 30
0.0
 10
10.3704843983
 20
9.1048863878
 30
0.0
 10
10.3707981822
 20
9.1048352315
 30
0.0
 10
10.3712453476
 20
9.1047585094
 30
0.0
 10
10.3717824157
 20
9.1046680017
 30
0.0
 10
10.3724983424
 20
9.1045467802
 30
0.0
 10
10.3733933071
 20
9.1043954399
 30
0.0
 10
10.3748252191
 20
9.1041531911
 30
0.0
 10
10.3766151198
 20
9.1038504159
 30
0.0
 10
10.3787629961
 20
9.1034870703
 30
0.0
 10
10.3809108737
 20
9.1031237288
 30
0.0
 10
10.38377471
 20
9.102639272
 30
0.0
 10
10.3873545055
 20
9.1020337016
 30
0.0
 10
10.3916502601
 20
9.1013070168
 30
0.0
 10
10.3973779329
 20
9.1003381039
 30
0.0
 10
10.4016736874
 20
9.0996114192
 30
0.0
 10
10.4045375238
 20
9.0991269627
 30
0.0
  0
ENDSEC
  0
SECTION
  2
OBJECTS
  0
DICTIONARY
  5
C
100
AcDbDictionary
280
0
281
1
  3
ACAD_GROUP
350
D
  3
ACAD_MLINESTYLE
350
17
  3
ACAD_LAYOUT
350
1A
  3
ACAD_PLOTSETTINGS
350
19
  3
ACAD_PLOTSTYLENAME
350
E
  3
ACAD_IMAGE_DICT
350
       380
  3
ACAD_IMAGE_VARS
350
       381
  3
ACAD_TABLESTYLE
350
       382
  0
IMAGEDEF_REACTOR
  5
37F
100
AcDbRasterImageDefReactor
 90
2
330
292
  0
DICTIONARY
  5
D
102
{ACAD_REACTORS
330
C
102
}
100
AcDbDictionary
280
0
281
1
  0
ACDBDICTIONARYWDFLT
  5
E
102
{ACAD_REACTORS
330
C
102
}
100
AcDbDictionary
281
1
  3
Normal
350
F
100
AcDbDictionaryWithDefault
340
F
  0
DICTIONARY
  5
380
330
C
100
AcDbDictionary
281
1
  3
E2T_assy_2_img_1
350
       385
  0
RASTERVARIABLES
  5
381
330
C
100
AcDbRasterVariables
 90
0
 70
0
 71
1
 72
5
  0
DICTIONARY
  5
17
102
{ACAD_REACTORS
330
C
102
}
100
AcDbDictionary
280
0
281
1
  3
Standard
350
18
  0
DICTIONARY
  5
382
330
C
100
AcDbDictionary
281
1
  3
Standard
350
       386
  3
Standard1
350
       387
  0
DICTIONARY
  5
19
102
{ACAD_REACTORS
330
C
102
}
100
AcDbDictionary
281
1
  0
DICTIONARY
  5
1A
102
{ACAD_REACTORS
330
C
102
}
100
AcDbDictionary
281
1
  3
Model
350
383
  3
Layout1
350
384
  0
ACDBPLACEHOLDER
  5
F
102
{ACAD_REACTORS
330
E
102
}
  0
MLINESTYLE
  5
18
102
{ACAD_REACTORS
330
17
102
}
100
AcDbMlineStyle
  2
STANDARD
 70
0
  3

 62
256
 51
90.0
 52
90.0
 71
2
 49
0.5
 62
256
  6
BYLAYER
 49
-0.5
 62
256
  6
BYLAYER
  0
LAYOUT
  5
383
102
{ACAD_REACTORS
330
1A
102
}
100
AcDbPlotSettings
  1

  2
none_device
  4
ANSI_C_(22.00_x_17.00_Inches)
  6

 40
0.0
 41
0.0
 42
0.0
 43
0.0
 44
558.8
 45
431.8
 46
0.0
 47
0.0
 48
0.0
 49
0.0
140
0.0
141
0.0
142
1.0
143
1.0
 70
1024
 72
0
 73
0
 74
0
  7

 75
0
147
1.0
148
0.0
149
0.0
100
AcDbLayout
  1
Model
 70
0
 71
0
 10
0.0
 20
0.0
 11
22.0
 21
17.0
 12
0.0
 22
0.0
 32
0.0
 14
0.0
 24
0.0
 34
0.0
 15
0.0
 25
0.0
 35
0.0
146
0.0
 13
0.0
 23
0.0
 33
0.0
 16
1.0
 26
0.0
 36
0.0
 17
0.0
 27
1.0
 37
0.0
 76
0
330
20C
345
0
346
0
  0
LAYOUT
  5
384
102
{ACAD_REACTORS
330
1A
102
}
100
AcDbPlotSettings
  1

  2
none_device
  4
ANSI_C_(22.00_x_17.00_Inches)
  6

 40
0.0
 41
0.0
 42
0.0
 43
0.0
 44
558.8
 45
431.8
 46
0.0
 47
0.0
 48
0.0
 49
0.0
140
0.0
141
0.0
142
1.0
143
1.0
 70
0
 72
0
 73
0
 74
0
  7

 75
0
147
1.0
148
0.0
149
0.0
100
AcDbLayout
  1
Layout1
 70
0
 71
1
 10
0.0
 20
0.0
 11
22.0
 21
17.0
 12
0.0
 22
0.0
 32
0.0
 14
0.0
 24
0.0
 34
0.0
 15
0.0
 25
0.0
 35
0.0
146
0.0
 13
0.0
 23
0.0
 33
0.0
 16
1.0
 26
0.0
 36
0.0
 17
0.0
 27
1.0
 37
0.0
 76
0
330
20D
345
0
346
0
  0
IMAGEDEF
  5
385
102
{ACAD_REACTORS
330
380
330
37F
102
}
100
AcDbRasterImageDef
 90
0
  1
E2T_assy_2_img_1.png
 10
369.0
 20
92.0
 11
0.0066666667
 21
0.0066666667
280
1
281
0
  0
TABLESTYLE
  5
386
102
{ACAD_REACTORS
330
382
330
295
330
296
102
}
330
382
100
AcDbTableStyle
  3
Standard
 70
0
 71
0
 40
0.06
 41
0.06
280
1
281
1
  7
Standard
140
0.18
170
1
 62
0
 63
7
283
0
  7
Standard
140
0.18
170
1
 62
0
 63
7
283
0
  7
Standard
140
0.18
170
1
 62
0
 63
7
283
0
  0
TABLESTYLE
  5
387
102
{ACAD_REACTORS
330
382
330
294
102
}
330
382
100
AcDbTableStyle
  3
Standard1
 70
1
 71
0
 40
0.06
 41
0.06
280
1
281
1
  7
Standard
140
0.18
170
1
 62
0
 63
7
283
0
  7
Standard
140
0.18
170
1
 62
0
 63
7
283
0
  7
Standard
140
0.18
170
1
 62
0
 63
7
283
0
  0
ENDSEC
  0
EOF
