999
DXF file: E2J_assy_2.dxf
999
Pro/ENGINEER 2014200 by Parametric Technology Corporation
  0
SECTION
  2
HEADER
  9
$ACADVER
  1
AC1021
  9
$DWGCODEPAGE
  3
ANSI_1252
  9
$EXTMAX
 10
22.0
 20
17.0
 30
0.0
  9
$EXTMIN
 10
0.0
 20
0.0
 30
0.0
  9
$LIMMIN
 10
0.0
 20
0.0
  9
$LIMMAX
 10
22.0
 20
17.0
  9
$VIEWCTR
 10
11.0
 20
8.5
  9
$VIEWSIZE
 40
17.0
  9
$CLAYER
  8
0
  9
$LTSCALE
 40
1.21
  9
$CELTYPE
  6
BYLAYER
  9
$DIMSCALE
 40
1.0
  9
$DIMASZ
 40
0.1875
  9
$DIMEXO
 40
0.0625
  9
$DIMDLI
 40
0.836
  9
$DIMEXE
 40
0.125
  9
$DIMCEN
 40
0.198
  9
$DIMLFAC
 40
1.0
  9
$DIMBLK
  1
_FILLED
  9
$DIMTXT
 40
0.1
  9
$DIMTOL
 70
0
  9
$DIMLIM
 70
0
  9
$DIMTFAC
 40
1.0
  9
$DIMGAP
 40
0.09
  9
$DIMDSEP
 70
46
  9
$AUNITS
 70
0
  9
$PDMODE
 70
3
  9
$PDSIZE
 40
0.3125
  9
$HANDSEED
  5
378
  9
$TILEMODE
 70
1
  9
$MEASUREMENT
 70
0
  9
$INSUNITS
 70
1
  0
ENDSEC
  0
SECTION
  2
CLASSES
  0
CLASS
  1
ACDBDICTIONARYWDFLT
  2
AcDbDictionaryWithDefault
  3
AutoCAD 2000
 90
0
 91
1
280
0
281
0
  0
CLASS
  1
ACDBPLACEHOLDER
  2
AcDbPlaceHolder
  3
AutoCAD 2000
 90
0
 91
1
280
0
281
0
  0
CLASS
  1
LAYOUT
  2
AcDbLayout
  3
AutoCAD 2000
 90
0
 91
0
280
0
281
0
  0
CLASS
  1
RASTERVARIABLES
  2
AcDbRasterVariables
  3
ISM
 90
0
 91
1
280
0
281
0
  0
CLASS
  1
IMAGEDEF
  2
AcDbRasterImageDef
  3
ISM
 90
0
 91
1
280
0
281
0
  0
CLASS
  1
IMAGEDEF_REACTOR
  2
AcDbRasterImageDefReactor
  3
ISM
 90
0
 91
1
280
0
281
0
  0
CLASS
  1
IMAGE
  2
AcDbRasterImage
  3
ISM
 90
127
 91
1
280
0
281
1
  0
CLASS
  1
TABLESTYLE
  2
AcDbTableStyle
  3
ObjectDBX Classes
 90
2047
 91
1
280
0
281
0
  0
CLASS
  1
ACAD_TABLE
  2
AcDbTable
  3
ObjectDBX Classes
 90
1025
 91
3
280
0
281
1
  0
ENDSEC
  0
SECTION
  2
TABLES
  0
TABLE
  2
VPORT
  5
8
100
AcDbSymbolTable
 70
2
  0
VPORT
  5
1F4
100
AcDbSymbolTableRecord
100
AcDbViewportTableRecord
  2
*ACTIVE
 70
0
 10
0.0
 20
0.0
 11
1.0
 21
1.0
 12
11.0
 22
8.5
 13
0.0
 23
0.0
 14
1.0
 24
1.0
 15
0.0
 25
0.0
 16
0.0
 26
0.0
 36
1.0
 17
0.0
 27
0.0
 37
0.0
 40
17.0
 41
1.2941176471
 42
50.0
 43
0.0
 44
0.0
 50
0.0
 51
0.0
 71
0
 72
100
 73
1
 74
1
 75
0
 76
0
 77
0
 78
0
  0
ENDTAB
  0
TABLE
  2
LTYPE
  5
5
100
AcDbSymbolTable
 70
6
  0
LTYPE
  5
14
100
AcDbSymbolTableRecord
100
AcDbLinetypeTableRecord
  2
BYBLOCK
 70
0
  3

 72
65
 73
0
 40
0.0
  0
LTYPE
  5
15
100
AcDbSymbolTableRecord
100
AcDbLinetypeTableRecord
  2
BYLAYER
 70
0
  3

 72
65
 73
0
 40
0.0
  0
LTYPE
  5
16
100
AcDbSymbolTableRecord
100
AcDbLinetypeTableRecord
  2
CONTINUOUS
 70
64
  3
Solid line
 72
65
 73
0
 40
0.0
  0
LTYPE
  5
1F5
100
AcDbSymbolTableRecord
100
AcDbLinetypeTableRecord
  2
CENTER
 70
64
  3
____ _ ____ _ ____ _ ____ _ ____ _ ____ _ ____
 72
65
 73
4
 40
0.6
 49
0.375
 74
0
 49
-0.075
 74
0
 49
0.075
 74
0
 49
-0.075
 74
0
  0
LTYPE
  5
1F6
100
AcDbSymbolTableRecord
100
AcDbLinetypeTableRecord
  2
HIDDEN
 70
64
  3
- - - - - - - - - - - - - - - - - - - -
 72
65
 73
2
 40
0.2
 49
0.1
 74
0
 49
-0.1
 74
0
  0
LTYPE
  5
1F7
100
AcDbSymbolTableRecord
100
AcDbLinetypeTableRecord
  2
PHANTOM
 70
64
  3
_____ _ _ _____ _ _ _____ _ _ _____
 72
65
 73
6
 40
0.8
 49
0.45
 74
0
 49
-0.05
 74
0
 49
0.1
 74
0
 49
-0.05
 74
0
 49
0.1
 74
0
 49
-0.05
 74
0
  0
LTYPE
  5
1F8
100
AcDbSymbolTableRecord
100
AcDbLinetypeTableRecord
  2
DOT
 70
64
  3
. . . . . . . . . . . . . . . . . . . .
 72
65
 73
2
 40
0.2
 49
0.1
 74
0
 49
-0.1
 74
0
  0
LTYPE
  5
1F9
100
AcDbSymbolTableRecord
100
AcDbLinetypeTableRecord
  2
DASHED
 70
64
  3
- - - - - - - - - - - - - - - - - - - -
 72
65
 73
2
 40
0.2
 49
0.1
 74
0
 49
-0.1
 74
0
  0
ENDTAB
  0
TABLE
  2
LAYER
  5
2
100
AcDbSymbolTable
 70
36
  0
LAYER
  5
10
100
AcDbSymbolTableRecord
100
AcDbLayerTableRecord
  2
0
 70
0
 62
7
  6
CONTINUOUS
370
-3
390
F
  0
LAYER
  5
1FA
100
AcDbSymbolTableRecord
100
AcDbLayerTableRecord
  2
DEFAULT_1
 70
0
 62
7
  6
CENTER
370
-3
390
F
  0
LAYER
  5
1FB
100
AcDbSymbolTableRecord
100
AcDbLayerTableRecord
  2
DEFAULT_2
 70
0
 62
8
  6
HIDDEN
370
-3
390
F
  0
LAYER
  5
1FC
100
AcDbSymbolTableRecord
100
AcDbLayerTableRecord
  2
DEFAULT_3
 70
0
 62
7
  6
PHANTOM
370
-3
390
F
  0
LAYER
  5
1FD
100
AcDbSymbolTableRecord
100
AcDbLayerTableRecord
  2
01___PRT_ALL_DTM_PLN
 70
0
 62
7
  6
CONTINUOUS
370
-3
390
F
  0
LAYER
  5
1FE
100
AcDbSymbolTableRecord
100
AcDbLayerTableRecord
  2
01___PRT_DEF_DTM_PLN
 70
0
 62
7
  6
CONTINUOUS
370
-3
390
F
  0
LAYER
  5
1FF
100
AcDbSymbolTableRecord
100
AcDbLayerTableRecord
  2
02___PRT_ALL_AXES
 70
0
 62
7
  6
CONTINUOUS
370
-3
390
F
  0
LAYER
  5
200
100
AcDbSymbolTableRecord
100
AcDbLayerTableRecord
  2
03___PRT_ALL_CURVES
 70
0
 62
7
  6
CONTINUOUS
370
-3
390
F
  0
LAYER
  5
201
100
AcDbSymbolTableRecord
100
AcDbLayerTableRecord
  2
04___PRT_ALL_DTM_PNT
 70
0
 62
7
  6
CONTINUOUS
370
-3
390
F
  0
LAYER
  5
202
100
AcDbSymbolTableRecord
100
AcDbLayerTableRecord
  2
05___PRT_ALL_DTM_CSYS
 70
0
 62
7
  6
CONTINUOUS
370
-3
390
F
  0
LAYER
  5
203
100
AcDbSymbolTableRecord
100
AcDbLayerTableRecord
  2
05___PRT_DEF_DTM_CSYS
 70
0
 62
7
  6
CONTINUOUS
370
-3
390
F
  0
LAYER
  5
204
100
AcDbSymbolTableRecord
100
AcDbLayerTableRecord
  2
06___PRT_ALL_SURFS
 70
0
 62
7
  6
CONTINUOUS
370
-3
390
F
  0
LAYER
  5
205
100
AcDbSymbolTableRecord
100
AcDbLayerTableRecord
  2
DATUM_PLANES
 70
0
 62
7
  6
CONTINUOUS
370
-3
390
F
  0
LAYER
  5
206
100
AcDbSymbolTableRecord
100
AcDbLayerTableRecord
  2
PORT_AREAS
 70
0
 62
7
  6
CONTINUOUS
370
-3
390
F
  0
LAYER
  5
207
100
AcDbSymbolTableRecord
100
AcDbLayerTableRecord
  2
SUNNBOMCOSMETIC
 70
0
 62
7
  6
CONTINUOUS
370
-3
390
F
  0
LAYER
  5
208
100
AcDbSymbolTableRecord
100
AcDbLayerTableRecord
  2
SUNNBOMSTAMPING
 70
0
 62
7
  6
CONTINUOUS
370
-3
390
F
  0
LAYER
  5
209
100
AcDbSymbolTableRecord
100
AcDbLayerTableRecord
  2
THREADS
 70
0
 62
7
  6
CONTINUOUS
370
-3
390
F
  0
ENDTAB
  0
TABLE
  2
STYLE
  5
3
100
AcDbSymbolTable
 70
1
  0
STYLE
  5
11
100
AcDbSymbolTableRecord
100
AcDbTextStyleTableRecord
  2
STANDARD
 70
0
 40
0.0
 41
0.8
 50
0.0
 71
0
 42
0.2
  3
txt
  4

  0
STYLE
  5
20A
100
AcDbSymbolTableRecord
100
AcDbTextStyleTableRecord
  2
TEXTSTYLE_1
 70
0
 40
0.0
 41
0.8
 50
0.0
 71
0
 42
0.2
  3
gdt
  4

  0
ENDTAB
  0
TABLE
  2
VIEW
  5
6
100
AcDbSymbolTable
 70
0
  0
ENDTAB
  0
TABLE
  2
UCS
  5
7
100
AcDbSymbolTable
 70
0
  0
ENDTAB
  0
TABLE
  2
APPID
  5
9
100
AcDbSymbolTable
 70
1
  0
APPID
  5
20B
100
AcDbSymbolTableRecord
100
AcDbRegAppTableRecord
  2
ACAD
 70
0
  0
ENDTAB
  0
TABLE
  2
BLOCK_RECORD
  5
1
100
AcDbSymbolTable
 70
0
  0
BLOCK_RECORD
  5
20C
100
AcDbSymbolTableRecord
100
AcDbBlockTableRecord
  2
*Model_Space
  0
BLOCK_RECORD
  5
20D
100
AcDbSymbolTableRecord
100
AcDbBlockTableRecord
  2
*Paper_Space
  0
BLOCK_RECORD
  5
20E
100
AcDbSymbolTableRecord
100
AcDbBlockTableRecord
  2
SUN_FIRST_THIRD_ANGLE_BL0
  0
BLOCK_RECORD
  5
20F
100
AcDbSymbolTableRecord
100
AcDbBlockTableRecord
  2
*T1
  0
BLOCK_RECORD
  5
210
100
AcDbSymbolTableRecord
100
AcDbBlockTableRecord
  2
*T2
  0
BLOCK_RECORD
  5
211
100
AcDbSymbolTableRecord
100
AcDbBlockTableRecord
  2
*T3
  0
ENDTAB
  0
TABLE
  2
DIMSTYLE
  5
A
100
AcDbSymbolTable
 70
1
100
AcDbDimStyleTable
 71
0
  0
DIMSTYLE
105
212
100
AcDbSymbolTableRecord
100
AcDbDimStyleTableRecord
  2
STANDARD
 70
0
  3

  4

 40
1.0
 41
0.1875
 42
0.0625
 43
0.38
 44
0.125
 45
0.0
 46
0.0
 47
0.001
 48
0.001
140
0.1
141
0.09
142
0.0
143
25.4
144
1.0
145
0.0
146
1.0
147
0.09
 71
0.0
 72
0.0
 73
1
 74
1
 75
0
 76
0
 77
0
 78
4
170
0
171
2
172
0
173
0
174
0
175
0
176
0
177
0
178
0
270
2
271
3
272
3
273
2
274
2
275
0
280
0
281
0
282
0
283
1
284
4
285
0
286
0
287
3
288
0
340
11
278
46
  0
ENDTAB
  0
ENDSEC
  0
SECTION
  2
BLOCKS
  0
BLOCK
  5
20
100
AcDbEntity
  8
0
100
AcDbBlockBegin
  2
*Model_Space
 70
0
 10
0.0
 20
0.0
 30
0.0
  3
*Model_Space
  1

  0
ENDBLK
  5
21
100
AcDbEntity
  8
0
100
AcDbBlockEnd
  0
BLOCK
  5
1C
100
AcDbEntity
  8
0
100
AcDbBlockBegin
  2
*Paper_Space
 70
0
 10
0.0
 20
0.0
 30
0.0
  3
*Paper_Space
  1

  0
ENDBLK
  5
1D
100
AcDbEntity
  8
0
100
AcDbBlockEnd
  0
BLOCK
  5
213
100
AcDbEntity
  8
0
100
AcDbBlockBegin
 62
2
  6
CONTINUOUS
  2
SUN_FIRST_THIRD_ANGLE_BL0
 70
64
 10
20.4816717061
 20
1.2289683772
  3
SUN_FIRST_THIRD_ANGLE_BL0
  1

  0
TEXT
  5
214
100
AcDbEntity
  8
0
100
AcDbText
 62
2
  6
CONTINUOUS
 10
19.4750896608
 20
1.4136269581
  7
STANDARD
 40
0.08
  1
FIRST ANGLE
 41
0.8
 72
0
100
AcDbText
  0
TEXT
  5
215
100
AcDbEntity
  8
0
100
AcDbText
 62
2
  6
CONTINUOUS
 10
20.7842537513
 20
1.4047600029
  7
STANDARD
 40
0.08
  1
THIRD ANGLE
 41
0.8
 72
0
100
AcDbText
  0
LINE
  5
216
100
AcDbEntity
  8
0
100
AcDbLine
 62
7
  6
CONTINUOUS
 10
19.4767170086
 20
1.1727031207
 11
19.6334271527
 21
1.1717972817
  0
LINE
  5
217
100
AcDbEntity
  8
0
100
AcDbLine
 62
7
  6
CONTINUOUS
 10
19.6596964832
 20
1.1717972817
 11
19.6950230232
 21
1.171593082
  0
LINE
  5
218
100
AcDbEntity
  8
0
100
AcDbLine
 62
7
  6
CONTINUOUS
 10
19.7194818561
 20
1.1708914427
 11
19.8852396156
 21
1.1699333054
  0
LINE
  5
219
100
AcDbEntity
  8
0
100
AcDbLine
 62
7
  6
CONTINUOUS
 10
19.4758111696
 20
1.2723454088
 11
19.88525039
 21
1.3511534004
  0
LINE
  5
21A
100
AcDbEntity
  8
0
100
AcDbLine
 62
7
  6
CONTINUOUS
 10
19.88525039
 20
1.3511534004
 11
19.8831348489
 21
0.9851647912
  0
LINE
  5
21B
100
AcDbEntity
  8
0
100
AcDbLine
 62
7
  6
CONTINUOUS
 10
19.8831348489
 20
0.9851647912
 11
19.4767170086
 21
1.0658141206
  0
LINE
  5
21C
100
AcDbEntity
  8
0
100
AcDbLine
 62
7
  6
CONTINUOUS
 10
19.4767170086
 20
1.0658141206
 11
19.4779056764
 21
1.2714536432
  0
CIRCLE
  5
21D
100
AcDbEntity
  8
0
100
AcDbCircle
 62
7
  6
CONTINUOUS
 10
20.2068232291
 20
1.1717972817
 40
0.175742101
  0
CIRCLE
  5
21E
100
AcDbEntity
  8
0
100
AcDbCircle
 62
7
  6
CONTINUOUS
 10
20.2068232291
 20
1.1717972817
 40
0.1005522074
  0
LINE
  5
21F
100
AcDbEntity
  8
0
100
AcDbLine
 62
7
  6
CONTINUOUS
 10
20.2077290681
 20
1.3756110529
 11
20.2071171714
 21
1.2379342989
  0
LINE
  5
220
100
AcDbEntity
  8
0
100
AcDbLine
 62
7
  6
CONTINUOUS
 10
20.2077290681
 20
1.2016899681
 11
20.2074674401
 21
1.1428236749
  0
LINE
  5
221
100
AcDbEntity
  8
0
100
AcDbLine
 62
7
  6
CONTINUOUS
 10
20.208634907
 20
1.101141841
 11
20.2080230104
 21
0.963465087
  0
LINE
  5
222
100
AcDbEntity
  8
0
100
AcDbLine
 62
7
  6
CONTINUOUS
 10
20.0066328138
 20
1.1745147986
 11
20.1443095678
 21
1.1739029019
  0
LINE
  5
223
100
AcDbEntity
  8
0
100
AcDbLine
 62
7
  6
CONTINUOUS
 10
20.1832714155
 20
1.1727031207
 11
20.238153505
 21
1.172335442
  0
LINE
  5
224
100
AcDbEntity
  8
0
100
AcDbLine
 62
7
  6
CONTINUOUS
 10
20.2756669918
 20
1.1717972817
 11
20.407916871
 21
1.1712095044
  0
CIRCLE
  5
225
100
AcDbEntity
  8
0
100
AcDbCircle
 62
7
  6
CONTINUOUS
 10
20.7509457401
 20
1.1693297793
 40
0.1722024983
  0
CIRCLE
  5
226
100
AcDbEntity
  8
0
100
AcDbCircle
 62
7
  6
CONTINUOUS
 10
20.7509457401
 20
1.1693297793
 40
0.0985164967
  0
LINE
  5
227
100
AcDbEntity
  8
0
100
AcDbLine
 62
7
  6
CONTINUOUS
 10
20.7169767782
 20
1.170462078
 11
20.7825395137
 21
1.1682766535
  0
LINE
  5
228
100
AcDbEntity
  8
0
100
AcDbLine
 62
7
  6
CONTINUOUS
 10
20.8177513651
 20
1.1693297793
 11
20.947965719
 21
1.1693297793
  0
LINE
  5
229
100
AcDbEntity
  8
0
100
AcDbLine
 62
7
  6
CONTINUOUS
 10
20.6875370113
 20
1.170462078
 11
20.5573226574
 21
1.170462078
  0
LINE
  5
22A
100
AcDbEntity
  8
0
100
AcDbLine
 62
7
  6
CONTINUOUS
 10
20.7486811426
 20
1.1987695462
 11
20.7486811426
 21
1.1432869085
  0
LINE
  5
22B
100
AcDbEntity
  8
0
100
AcDbLine
 62
7
  6
CONTINUOUS
 10
20.7498134414
 20
1.1059210505
 11
20.7498134414
 21
0.9757066966
  0
LINE
  5
22C
100
AcDbEntity
  8
0
100
AcDbLine
 62
7
  6
CONTINUOUS
 10
20.7486811426
 20
1.2338708068
 11
20.7486811426
 21
1.3640851607
  0
LINE
  5
22D
100
AcDbEntity
  8
0
100
AcDbLine
 62
7
  6
CONTINUOUS
 10
21.0702539817
 20
1.2701043662
 11
21.4790138229
 21
1.3448360823
  0
LINE
  5
22E
100
AcDbEntity
  8
0
100
AcDbLine
 62
7
  6
CONTINUOUS
 10
21.4790138229
 20
1.3448360823
 11
21.4790138229
 21
0.9779712941
  0
LINE
  5
22F
100
AcDbEntity
  8
0
100
AcDbLine
 62
7
  6
CONTINUOUS
 10
21.4790138229
 20
0.9779712941
 11
21.069121683
 21
1.0617614
  0
LINE
  5
230
100
AcDbEntity
  8
0
100
AcDbLine
 62
7
  6
CONTINUOUS
 10
21.0702539817
 20
1.2701043662
 11
21.069121683
 21
1.0617614
  0
LINE
  5
231
100
AcDbEntity
  8
0
100
AcDbLine
 62
7
  6
CONTINUOUS
 10
21.4790138229
 20
1.1693297793
 11
21.3159628059
 21
1.1693297793
  0
LINE
  5
232
100
AcDbEntity
  8
0
100
AcDbLine
 62
7
  6
CONTINUOUS
 10
21.2876553377
 20
1.1693297793
 11
21.2502894796
 21
1.1693297793
  0
LINE
  5
233
100
AcDbEntity
  8
0
100
AcDbLine
 62
7
  6
CONTINUOUS
 10
21.2208497126
 20
1.1659328831
 11
21.0713862804
 21
1.1659328831
  0
LINE
  5
234
100
AcDbEntity
  8
0
100
AcDbLine
 62
7
  6
CONTINUOUS
 10
20.4796138713
 20
1.5284908897
 11
20.4766766948
 21
0.9294458646
  0
ENDBLK
  5
235
100
AcDbEntity
  8
0
  6
BYBLOCK
 62
0
100
AcDbBlockEnd
  0
BLOCK
  5
236
100
AcDbEntity
  8
0
100
AcDbBlockBegin
  2
*T1
 70
1
 10
0.0
 20
0.0
  3
*T1
  1

  0
LINE
  5
237
100
AcDbEntity
  8
0
100
AcDbLine
 62
2
  6
CONTINUOUS
 10
9.275
 20
0.0
 11
-0.0
 21
0.0
  0
LINE
  5
238
100
AcDbEntity
  8
0
100
AcDbLine
 62
2
  6
CONTINUOUS
 10
9.275
 20
0.0
 11
9.275
 21
1.25
  0
LINE
  5
239
100
AcDbEntity
  8
0
100
AcDbLine
 62
2
  6
CONTINUOUS
 10
9.275
 20
0.625
 11
-0.0
 21
0.625
  0
LINE
  5
23A
100
AcDbEntity
  8
0
100
AcDbLine
 62
2
  6
CONTINUOUS
 10
9.275
 20
1.25
 11
-0.0
 21
1.25
  0
LINE
  5
23B
100
AcDbEntity
  8
0
100
AcDbLine
 62
2
  6
CONTINUOUS
 10
6.8
 20
0.0
 11
6.8
 21
1.25
  0
LINE
  5
23C
100
AcDbEntity
  8
0
100
AcDbLine
 62
2
  6
CONTINUOUS
 10
6.4
 20
0.0
 11
6.4
 21
0.625
  0
LINE
  5
23D
100
AcDbEntity
  8
0
100
AcDbLine
 62
2
  6
CONTINUOUS
 10
5.9
 20
0.0
 11
5.9
 21
0.625
  0
LINE
  5
23E
100
AcDbEntity
  8
0
100
AcDbLine
 62
2
  6
CONTINUOUS
 10
5.2
 20
0.0
 11
5.2
 21
0.625
  0
LINE
  5
23F
100
AcDbEntity
  8
0
100
AcDbLine
 62
2
  6
CONTINUOUS
 10
4.1
 20
0.0
 11
4.1
 21
1.25
  0
LINE
  5
240
100
AcDbEntity
  8
0
100
AcDbLine
 62
2
  6
CONTINUOUS
 10
-0.0
 20
0.0
 11
-0.0
 21
1.25
  0
MTEXT
  5
241
100
AcDbEntity
  8
0
100
AcDbMText
 62
2
  6
CONTINUOUS
  7
STANDARD
 71
2
 72
1
 10
6.6
 20
0.325
 30
0.0
 11
1.0
 21
0.0
 31
0.0
 44
0.9
  1
2
 40
0.125
 41
0.2
  0
MTEXT
  5
242
100
AcDbEntity
  8
0
100
AcDbMText
 62
2
  6
CONTINUOUS
  7
STANDARD
 71
2
 72
1
 10
6.15
 20
0.325
 30
0.0
 11
1.0
 21
0.0
 31
0.0
 44
0.9
  1
C
 40
0.125
 41
0.2
  0
MTEXT
  5
243
100
AcDbEntity
  8
0
100
AcDbMText
 62
2
  6
CONTINUOUS
  7
STANDARD
 71
2
 72
1
 10
5.55
 20
0.325
 30
0.0
 11
1.0
 21
0.0
 31
0.0
 44
0.9
  1
1.000
 40
0.125
 41
1.0
  0
MTEXT
  5
244
100
AcDbEntity
  8
0
100
AcDbMText
 62
2
  6
CONTINUOUS
  7
STANDARD
 71
2
 72
1
 10
4.65
 20
0.325
 30
0.0
 11
1.0
 21
0.0
 31
0.0
 44
0.9
  1
Aug-01-23
 40
0.125
 41
1.8
  0
MTEXT
  5
245
100
AcDbEntity
  8
0
100
AcDbMText
 62
2
  6
CONTINUOUS
  7
STANDARD
 71
2
 72
1
 10
2.05
 20
0.4625
 30
0.0
 11
1.0
 21
0.0
 31
0.0
 44
0.9
  1
T-11A Line mount\P(See Technical Data for Body Features)
 40
0.125
 41
7.6
  0
MTEXT
  5
246
100
AcDbEntity
  8
0
100
AcDbMText
 62
2
  6
CONTINUOUS
  7
STANDARD
 71
1
 72
1
 10
6.45
 20
0.5625
 30
0.0
 11
1.0
 21
0.0
 31
0.0
 44
0.9
  1
SHEET
 40
0.06
 41
0.48
  0
MTEXT
  5
247
100
AcDbEntity
  8
0
100
AcDbMText
 62
2
  6
CONTINUOUS
  7
STANDARD
 71
1
 72
1
 10
5.95
 20
0.5625
 30
0.0
 11
1.0
 21
0.0
 31
0.0
 44
0.9
  1
DWG SIZE
 40
0.06
 41
0.768
  0
MTEXT
  5
248
100
AcDbEntity
  8
0
100
AcDbMText
 62
2
  6
CONTINUOUS
  7
STANDARD
 71
1
 72
1
 10
5.25
 20
0.5625
 30
0.0
 11
1.0
 21
0.0
 31
0.0
 44
0.9
  1
SCALE
 40
0.06
 41
0.48
  0
MTEXT
  5
249
100
AcDbEntity
  8
0
100
AcDbMText
 62
2
  6
CONTINUOUS
  7
STANDARD
 71
1
 72
1
 10
4.15
 20
0.5625
 30
0.0
 11
1.0
 21
0.0
 31
0.0
 44
0.9
  1
DATE
 40
0.06
 41
0.384
  0
MTEXT
  5
24A
100
AcDbEntity
  8
0
100
AcDbMText
 62
2
  6
CONTINUOUS
  7
STANDARD
 71
1
 72
1
 10
0.05
 20
0.5625
 30
0.0
 11
1.0
 21
0.0
 31
0.0
 44
0.9
  1
DESCRIPTION
 40
0.06
 41
1.056
  0
MTEXT
  5
24B
100
AcDbEntity
  8
0
100
AcDbMText
 62
2
  6
CONTINUOUS
  7
STANDARD
 71
2
 72
1
 10
5.45
 20
1.0375
 30
0.0
 11
1.0
 21
0.0
 31
0.0
 44
0.9
  1
ALL DIMENSIONS IN INCH\PVIEWS ARE THIRD ANGLE
 40
0.12
 41
4.224
  0
MTEXT
  5
24C
100
AcDbEntity
  8
0
100
AcDbMText
 62
2
  6
CONTINUOUS
  7
STANDARD
 71
2
 72
1
 10
2.05
 20
0.95
 30
0.0
 11
1.0
 21
0.0
 31
0.0
 44
0.9
  1
E2J
 40
0.125
 41
0.6
  0
MTEXT
  5
24D
100
AcDbEntity
  8
0
100
AcDbMText
 62
2
  6
CONTINUOUS
  7
STANDARD
 71
1
 72
1
 10
0.05
 20
1.1875
 30
0.0
 11
1.0
 21
0.0
 31
0.0
 44
0.9
  1
MODEL
 40
0.06
 41
0.48
  0
ENDBLK
  5
24E
100
AcDbEntity
  8
0
  6
BYBLOCK
 62
0
100
AcDbBlockEnd
  0
BLOCK
  5
24F
100
AcDbEntity
  8
0
100
AcDbBlockBegin
  2
*T2
 70
1
 10
0.0
 20
0.0
  3
*T2
  1

  0
LINE
  5
250
100
AcDbEntity
  8
0
100
AcDbLine
 62
2
  6
CONTINUOUS
 10
0.0
 20
0.0
 11
9.055
 21
0.0
  0
LINE
  5
251
100
AcDbEntity
  8
0
100
AcDbLine
 62
2
  6
CONTINUOUS
 10
0.0
 20
0.0
 11
0.0
 21
-2.844
  0
LINE
  5
252
100
AcDbEntity
  8
0
100
AcDbLine
 62
2
  6
CONTINUOUS
 10
0.0
 20
-0.344
 11
9.055
 21
-0.344
  0
LINE
  5
253
100
AcDbEntity
  8
0
100
AcDbLine
 62
2
  6
CONTINUOUS
 10
0.0
 20
-0.594
 11
9.055
 21
-0.594
  0
LINE
  5
254
100
AcDbEntity
  8
0
100
AcDbLine
 62
2
  6
CONTINUOUS
 10
0.0
 20
-0.844
 11
9.055
 21
-0.844
  0
LINE
  5
255
100
AcDbEntity
  8
0
100
AcDbLine
 62
2
  6
CONTINUOUS
 10
0.0
 20
-1.094
 11
9.055
 21
-1.094
  0
LINE
  5
256
100
AcDbEntity
  8
0
100
AcDbLine
 62
2
  6
CONTINUOUS
 10
0.0
 20
-1.344
 11
9.055
 21
-1.344
  0
LINE
  5
257
100
AcDbEntity
  8
0
100
AcDbLine
 62
2
  6
CONTINUOUS
 10
0.0
 20
-1.594
 11
9.055
 21
-1.594
  0
LINE
  5
258
100
AcDbEntity
  8
0
100
AcDbLine
 62
2
  6
CONTINUOUS
 10
0.0
 20
-1.844
 11
9.055
 21
-1.844
  0
LINE
  5
259
100
AcDbEntity
  8
0
100
AcDbLine
 62
2
  6
CONTINUOUS
 10
0.0
 20
-2.094
 11
9.055
 21
-2.094
  0
LINE
  5
25A
100
AcDbEntity
  8
0
100
AcDbLine
 62
2
  6
CONTINUOUS
 10
0.0
 20
-2.344
 11
9.055
 21
-2.344
  0
LINE
  5
25B
100
AcDbEntity
  8
0
100
AcDbLine
 62
2
  6
CONTINUOUS
 10
0.0
 20
-2.594
 11
9.055
 21
-2.594
  0
LINE
  5
25C
100
AcDbEntity
  8
0
100
AcDbLine
 62
2
  6
CONTINUOUS
 10
0.0
 20
-2.844
 11
9.055
 21
-2.844
  0
LINE
  5
25D
100
AcDbEntity
  8
0
100
AcDbLine
 62
2
  6
CONTINUOUS
 10
3.055
 20
0.0
 11
3.055
 21
-2.844
  0
LINE
  5
25E
100
AcDbEntity
  8
0
100
AcDbLine
 62
2
  6
CONTINUOUS
 10
9.055
 20
0.0
 11
9.055
 21
-2.844
  0
MTEXT
  5
25F
100
AcDbEntity
  8
0
100
AcDbMText
 62
2
  6
CONTINUOUS
  7
STANDARD
 71
2
 72
1
 10
1.5275
 20
-0.0995
 30
0.0
 11
1.0
 21
0.0
 31
0.0
 44
0.9
  1
Technical Data
 40
0.145
 41
3.248
  0
MTEXT
  5
260
100
AcDbEntity
  8
0
100
AcDbMText
 62
2
  6
CONTINUOUS
  7
STANDARD
 71
2
 72
1
 10
4.555
 20
-0.0995
 30
0.0
 11
1.0
 21
0.0
 31
0.0
 44
0.9
  1
U.S. Units
 40
0.145
 41
2.32
  0
MTEXT
  5
261
100
AcDbEntity
  8
0
100
AcDbMText
 62
2
  6
CONTINUOUS
  7
STANDARD
 71
2
 72
1
 10
7.555
 20
-0.0995
 30
0.0
 11
1.0
 21
0.0
 31
0.0
 44
0.9
  1
Metric Units
 40
0.145
 41
2.784
  0
MTEXT
  5
262
100
AcDbEntity
  8
0
100
AcDbMText
 62
2
  6
CONTINUOUS
  7
STANDARD
 71
2
 72
1
 10
1.5275
 20
-0.4065
 30
0.0
 11
1.0
 21
0.0
 31
0.0
 44
0.9
  1
Cavity
 40
0.125
 41
1.2
  0
MTEXT
  5
263
100
AcDbEntity
  8
0
100
AcDbMText
 62
2
  6
CONTINUOUS
  7
STANDARD
 71
2
 72
1
 10
6.055
 20
-0.4065
 30
0.0
 11
1.0
 21
0.0
 31
0.0
 44
0.9
  1
T-11A
 40
0.125
 41
1.0
  0
MTEXT
  5
264
100
AcDbEntity
  8
0
100
AcDbMText
 62
2
  6
CONTINUOUS
  7
STANDARD
 71
2
 72
1
 10
1.5275
 20
-0.6565
 30
0.0
 11
1.0
 21
0.0
 31
0.0
 44
0.9
  1
Body Features
 40
0.125
 41
2.6
  0
MTEXT
  5
265
100
AcDbEntity
  8
0
100
AcDbMText
 62
2
  6
CONTINUOUS
  7
STANDARD
 71
2
 72
1
 10
6.055
 20
-0.6565
 30
0.0
 11
1.0
 21
0.0
 31
0.0
 44
0.9
  1
Ninety degree with reverse flow check - reducing
 40
0.125
 41
9.6
  0
MTEXT
  5
266
100
AcDbEntity
  8
0
100
AcDbMText
 62
2
  6
CONTINUOUS
  7
STANDARD
 71
2
 72
1
 10
1.5275
 20
-0.9065
 30
0.0
 11
1.0
 21
0.0
 31
0.0
 44
0.9
  1
Body Type
 40
0.125
 41
1.8
  0
MTEXT
  5
267
100
AcDbEntity
  8
0
100
AcDbMText
 62
2
  6
CONTINUOUS
  7
STANDARD
 71
2
 72
1
 10
6.055
 20
-0.9065
 30
0.0
 11
1.0
 21
0.0
 31
0.0
 44
0.9
  1
Line mount
 40
0.125
 41
2.0
  0
MTEXT
  5
268
100
AcDbEntity
  8
0
100
AcDbMText
 62
2
  6
CONTINUOUS
  7
STANDARD
 71
2
 72
1
 10
1.5275
 20
-1.1565
 30
0.0
 11
1.0
 21
0.0
 31
0.0
 44
0.9
  1
Interface
 40
0.125
 41
1.8
  0
MTEXT
  5
269
100
AcDbEntity
  8
0
100
AcDbMText
 62
2
  6
CONTINUOUS
  7
STANDARD
 71
2
 72
1
 10
6.055
 20
-1.1565
 30
0.0
 11
1.0
 21
0.0
 31
0.0
 44
0.9
  1
None
 40
0.125
 41
0.8
  0
MTEXT
  5
26A
100
AcDbEntity
  8
0
100
AcDbMText
 62
2
  6
CONTINUOUS
  7
STANDARD
 71
2
 72
1
 10
1.5275
 20
-1.4065
 30
0.0
 11
1.0
 21
0.0
 31
0.0
 44
0.9
  1
Open Cavity Quantity
 40
0.125
 41
4.0
  0
MTEXT
  5
26B
100
AcDbEntity
  8
0
100
AcDbMText
 62
2
  6
CONTINUOUS
  7
STANDARD
 71
2
 72
1
 10
6.055
 20
-1.4065
 30
0.0
 11
1.0
 21
0.0
 31
0.0
 44
0.9
  1
1
 40
0.125
 41
0.2
  0
MTEXT
  5
26C
100
AcDbEntity
  8
0
100
AcDbMText
 62
2
  6
CONTINUOUS
  7
STANDARD
 71
2
 72
1
 10
1.5275
 20
-1.6565
 30
0.0
 11
1.0
 21
0.0
 31
0.0
 44
0.9
  1
Weight
 40
0.125
 41
1.2
  0
MTEXT
  5
26D
100
AcDbEntity
  8
0
100
AcDbMText
 62
2
  6
CONTINUOUS
  7
STANDARD
 71
2
 72
1
 10
4.555
 20
-1.6565
 30
0.0
 11
1.0
 21
0.0
 31
0.0
 44
0.9
  1
1.202 lb.
 40
0.125
 41
1.8
  0
MTEXT
  5
26E
100
AcDbEntity
  8
0
100
AcDbMText
 62
2
  6
CONTINUOUS
  7
STANDARD
 71
2
 72
1
 10
7.555
 20
-1.6565
 30
0.0
 11
1.0
 21
0.0
 31
0.0
 44
0.9
  1
0,545 kg.
 40
0.125
 41
1.8
  0
MTEXT
  5
26F
100
AcDbEntity
  8
0
100
AcDbMText
 62
2
  6
CONTINUOUS
  7
STANDARD
 71
2
 72
1
 10
1.5275
 20
-1.9065
 30
0.0
 11
1.0
 21
0.0
 31
0.0
 44
0.9
  1
Mounting Hole Diameter
 40
0.125
 41
4.4
  0
MTEXT
  5
270
100
AcDbEntity
  8
0
100
AcDbMText
 62
2
  6
CONTINUOUS
  7
STANDARD
 71
2
 72
1
 10
4.555
 20
-1.9065
 30
0.0
 11
1.0
 21
0.0
 31
0.0
 44
0.9
  1
.34 in.
 40
0.125
 41
1.4
  0
MTEXT
  5
271
100
AcDbEntity
  8
0
100
AcDbMText
 62
2
  6
CONTINUOUS
  7
STANDARD
 71
2
 72
1
 10
7.555
 20
-1.9065
 30
0.0
 11
1.0
 21
0.0
 31
0.0
 44
0.9
  1
8.6 mm
 40
0.125
 41
1.2
  0
MTEXT
  5
272
100
AcDbEntity
  8
0
100
AcDbMText
 62
2
  6
CONTINUOUS
  7
STANDARD
 71
2
 72
1
 10
1.5275
 20
-2.1565
 30
0.0
 11
1.0
 21
0.0
 31
0.0
 44
0.9
  1
Mounting Hole Depth
 40
0.125
 41
3.8
  0
MTEXT
  5
273
100
AcDbEntity
  8
0
100
AcDbMText
 62
2
  6
CONTINUOUS
  7
STANDARD
 71
2
 72
1
 10
6.055
 20
-2.1565
 30
0.0
 11
1.0
 21
0.0
 31
0.0
 44
0.9
  1
Through
 40
0.125
 41
1.4
  0
MTEXT
  5
274
100
AcDbEntity
  8
0
100
AcDbMText
 62
2
  6
CONTINUOUS
  7
STANDARD
 71
2
 72
1
 10
1.5275
 20
-2.4065
 30
0.0
 11
1.0
 21
0.0
 31
0.0
 44
0.9
  1
Mounting Hole Quantity
 40
0.125
 41
4.4
  0
MTEXT
  5
275
100
AcDbEntity
  8
0
100
AcDbMText
 62
2
  6
CONTINUOUS
  7
STANDARD
 71
2
 72
1
 10
6.055
 20
-2.4065
 30
0.0
 11
1.0
 21
0.0
 31
0.0
 44
0.9
  1
2
 40
0.125
 41
0.2
  0
MTEXT
  5
276
100
AcDbEntity
  8
0
100
AcDbMText
 62
2
  6
CONTINUOUS
  7
STANDARD
 71
2
 72
1
 10
1.5275
 20
-2.6565
 30
0.0
 11
1.0
 21
0.0
 31
0.0
 44
0.9
  1
Includes integral cartridge(s)
 40
0.125
 41
6.0
  0
MTEXT
  5
277
100
AcDbEntity
  8
0
100
AcDbMText
 62
2
  6
CONTINUOUS
  7
STANDARD
 71
2
 72
1
 10
6.055
 20
-2.6565
 30
0.0
 11
1.0
 21
0.0
 31
0.0
 44
0.9
  1
Yes (see Included Components)
 40
0.125
 41
5.8
  0
ENDBLK
  5
278
100
AcDbEntity
  8
0
  6
BYBLOCK
 62
0
100
AcDbBlockEnd
  0
BLOCK
  5
279
100
AcDbEntity
  8
0
100
AcDbBlockBegin
  2
*T3
 70
1
 10
0.0
 20
0.0
  3
*T3
  1

  0
LINE
  5
27A
100
AcDbEntity
  8
0
100
AcDbLine
 62
2
  6
CONTINUOUS
 10
0.0
 20
0.0
 11
4.6
 21
0.0
  0
LINE
  5
27B
100
AcDbEntity
  8
0
100
AcDbLine
 62
2
  6
CONTINUOUS
 10
0.0
 20
0.0
 11
0.0
 21
-1.43775
  0
LINE
  5
27C
100
AcDbEntity
  8
0
100
AcDbLine
 62
2
  6
CONTINUOUS
 10
0.0
 20
-0.34375
 11
4.6
 21
-0.34375
  0
LINE
  5
27D
100
AcDbEntity
  8
0
100
AcDbLine
 62
2
  6
CONTINUOUS
 10
0.0
 20
-0.68775
 11
4.6
 21
-0.68775
  0
LINE
  5
27E
100
AcDbEntity
  8
0
100
AcDbLine
 62
2
  6
CONTINUOUS
 10
0.0
 20
-0.93775
 11
4.6
 21
-0.93775
  0
LINE
  5
27F
100
AcDbEntity
  8
0
100
AcDbLine
 62
2
  6
CONTINUOUS
 10
0.0
 20
-1.18775
 11
4.6
 21
-1.18775
  0
LINE
  5
280
100
AcDbEntity
  8
0
100
AcDbLine
 62
2
  6
CONTINUOUS
 10
0.0
 20
-1.43775
 11
4.6
 21
-1.43775
  0
LINE
  5
281
100
AcDbEntity
  8
0
100
AcDbLine
 62
2
  6
CONTINUOUS
 10
1.3
 20
-0.34375
 11
1.3
 21
-1.43775
  0
LINE
  5
282
100
AcDbEntity
  8
0
100
AcDbLine
 62
2
  6
CONTINUOUS
 10
3.3
 20
-0.34375
 11
3.3
 21
-1.43775
  0
LINE
  5
283
100
AcDbEntity
  8
0
100
AcDbLine
 62
2
  6
CONTINUOUS
 10
4.6
 20
0.0
 11
4.6
 21
-1.43775
  0
MTEXT
  5
284
100
AcDbEntity
  8
0
100
AcDbMText
 62
2
  6
CONTINUOUS
  7
STANDARD
 71
2
 72
1
 10
2.3
 20
-0.099375
 30
0.0
 11
1.0
 21
0.0
 31
0.0
 44
0.9
  1
Port Headings
 40
0.145
 41
3.016
  0
MTEXT
  5
285
100
AcDbEntity
  8
0
100
AcDbMText
 62
2
  6
CONTINUOUS
  7
STANDARD
 71
2
 72
1
 10
0.65
 20
-0.44325
 30
0.0
 11
1.0
 21
0.0
 31
0.0
 44
0.9
  1
Product
 40
0.145
 41
1.624
  0
MTEXT
  5
286
100
AcDbEntity
  8
0
100
AcDbMText
 62
2
  6
CONTINUOUS
  7
STANDARD
 71
2
 72
1
 10
2.3
 20
-0.44325
 30
0.0
 11
1.0
 21
0.0
 31
0.0
 44
0.9
  1
Port
 40
0.145
 41
0.928
  0
MTEXT
  5
287
100
AcDbEntity
  8
0
100
AcDbMText
 62
2
  6
CONTINUOUS
  7
STANDARD
 71
2
 72
1
 10
3.95
 20
-0.44325
 30
0.0
 11
1.0
 21
0.0
 31
0.0
 44
0.9
  1
Size
 40
0.145
 41
0.928
  0
MTEXT
  5
288
100
AcDbEntity
  8
0
100
AcDbMText
 62
2
  6
CONTINUOUS
  7
STANDARD
 71
2
 72
1
 10
0.65
 20
-0.75025
 30
0.0
 11
1.0
 21
0.0
 31
0.0
 44
0.9
  1
E2J
 40
0.125
 41
0.6
  0
MTEXT
  5
289
100
AcDbEntity
  8
0
100
AcDbMText
 62
2
  6
CONTINUOUS
  7
STANDARD
 71
2
 72
1
 10
2.3
 20
-0.75025
 30
0.0
 11
1.0
 21
0.0
 31
0.0
 44
0.9
  1
Ports 1 &  2
 40
0.125
 41
2.4
  0
MTEXT
  5
28A
100
AcDbEntity
  8
0
100
AcDbMText
 62
2
  6
CONTINUOUS
  7
STANDARD
 71
2
 72
1
 10
3.95
 20
-0.75025
 30
0.0
 11
1.0
 21
0.0
 31
0.0
 44
0.9
  1
SAE 8
 40
0.125
 41
1.0
  0
MTEXT
  5
28B
100
AcDbEntity
  8
0
100
AcDbMText
 62
2
  6
CONTINUOUS
  7
STANDARD
 71
2
 72
1
 10
0.65
 20
-1.00025
 30
0.0
 11
1.0
 21
0.0
 31
0.0
 44
0.9
  1
E2J
 40
0.125
 41
0.6
  0
MTEXT
  5
28C
100
AcDbEntity
  8
0
100
AcDbMText
 62
2
  6
CONTINUOUS
  7
STANDARD
 71
2
 72
1
 10
2.3
 20
-1.00025
 30
0.0
 11
1.0
 21
0.0
 31
0.0
 44
0.9
  1
Port 3
 40
0.125
 41
1.2
  0
MTEXT
  5
28D
100
AcDbEntity
  8
0
100
AcDbMText
 62
2
  6
CONTINUOUS
  7
STANDARD
 71
2
 72
1
 10
3.95
 20
-1.00025
 30
0.0
 11
1.0
 21
0.0
 31
0.0
 44
0.9
  1
SAE 6
 40
0.125
 41
1.0
  0
MTEXT
  5
28E
100
AcDbEntity
  8
0
100
AcDbMText
 62
2
  6
CONTINUOUS
  7
STANDARD
 71
2
 72
1
 10
0.65
 20
-1.25025
 30
0.0
 11
1.0
 21
0.0
 31
0.0
 44
0.9
  1
E2J
 40
0.125
 41
0.6
  0
MTEXT
  5
28F
100
AcDbEntity
  8
0
100
AcDbMText
 62
2
  6
CONTINUOUS
  7
STANDARD
 71
2
 72
1
 10
2.3
 20
-1.25025
 30
0.0
 11
1.0
 21
0.0
 31
0.0
 44
0.9
  1
Gage Port
 40
0.125
 41
1.8
  0
MTEXT
  5
290
100
AcDbEntity
  8
0
100
AcDbMText
 62
2
  6
CONTINUOUS
  7
STANDARD
 71
2
 72
1
 10
3.95
 20
-1.25025
 30
0.0
 11
1.0
 21
0.0
 31
0.0
 44
0.9
  1
1/4" NPTF
 40
0.125
 41
1.8
  0
ENDBLK
  5
291
100
AcDbEntity
  8
0
  6
BYBLOCK
 62
0
100
AcDbBlockEnd
  0
ENDSEC
  0
SECTION
  2
ENTITIES
  0
IMAGE
  5
292
100
AcDbEntity
  8
0
100
AcDbRasterImage
 62
7
  6
CONTINUOUS
 10
19.2297077316
 20
0.3094318264
 30
0.0
 11
0.0066666667
 21
0.0
 31
0.0
 12
0.0
 22
0.0066666667
 32
0.0
 13
369.0
 23
92.0
340
       375
 70
9
280
0
281
50
282
50
283
0
360
       36F
 71
1
 91
2
 14
-0.5
 24
-0.5
 14
368.5
 24
91.5
  0
INSERT
  5
293
100
AcDbEntity
  8
0
100
AcDbBlockReference
 62
2
  6
CONTINUOUS
  2
SUN_FIRST_THIRD_ANGLE_BL0
 10
20.4816717061
 20
1.2289683772
  0
ACAD_TABLE
  5
294
100
AcDbEntity
  8
0
 62
2
  6
CONTINUOUS
100
AcDbBlockReference
  2
*T1
 10
12.42375
 20
0.30125
 30
0.0
100
AcDbTable
342
       377
343
20F
 11
1.0
 21
0.0
 31
0.0
 90
6
 91
4
 92
6
 93
20
 94
0
 95
0
 96
0
 70
1
 41
0.0
141
0.525
141
0.1
141
0.525
141
0.1
142
4.1
142
1.1
142
0.7
142
0.5
142
0.4
142
2.475
171
1
172
0
173
0
174
0
175
1
176
1
 91
33
178
0
145
0.0
301
CELL_VALUE
 90
4
  1
T-11A Line mount\P(See Technical Data for Body Features)
304
ACVALUE_END
170
2
140
0.125
171
1
172
0
173
0
174
0
175
1
176
1
 91
33
178
0
145
0.0
301
CELL_VALUE
 90
4
  1
Aug-01-23
304
ACVALUE_END
170
5
140
0.125
171
1
172
0
173
0
174
0
175
1
176
1
 91
33
178
0
145
0.0
301
CELL_VALUE
 90
4
  1
1.000
304
ACVALUE_END
170
5
140
0.125
171
1
172
0
173
0
174
0
175
1
176
1
 91
33
178
0
145
0.0
301
CELL_VALUE
 90
4
  1
C
304
ACVALUE_END
170
5
140
0.125
171
1
172
0
173
0
174
0
175
1
176
1
 91
33
178
0
145
0.0
301
CELL_VALUE
 90
4
  1
2
304
ACVALUE_END
170
5
140
0.125
171
1
172
0
173
0
174
0
175
1
176
1
 91
33
178
0
145
0.0
301
CELL_VALUE
 90
4
  1
 
304
ACVALUE_END
170
1
140
0.125
171
1
172
0
173
0
174
0
175
1
176
1
 91
33
178
0
145
0.0
301
CELL_VALUE
 90
4
  1
DESCRIPTION
304
ACVALUE_END
170
1
140
0.06
171
1
172
0
173
0
174
0
175
1
176
1
 91
33
178
0
145
0.0
301
CELL_VALUE
 90
4
  1
DATE
304
ACVALUE_END
170
1
140
0.06
171
1
172
0
173
0
174
0
175
1
176
1
 91
33
178
0
145
0.0
301
CELL_VALUE
 90
4
  1
SCALE
304
ACVALUE_END
170
1
140
0.06
171
1
172
0
173
0
174
0
175
1
176
1
 91
33
178
0
145
0.0
301
CELL_VALUE
 90
4
  1
DWG SIZE
304
ACVALUE_END
170
1
140
0.06
171
1
172
0
173
0
174
0
175
1
176
1
 91
33
178
0
145
0.0
301
CELL_VALUE
 90
4
  1
SHEET
304
ACVALUE_END
170
1
140
0.06
171
1
172
0
173
0
174
0
175
1
176
1
 91
33
178
0
145
0.0
301
CELL_VALUE
 90
4
  1
 
304
ACVALUE_END
170
1
140
0.125
171
1
172
0
173
0
174
0
175
1
176
1
 91
33
178
0
145
0.0
301
CELL_VALUE
 90
4
  1
E2J
304
ACVALUE_END
170
5
140
0.125
171
1
172
0
173
0
174
0
175
4
176
1
 91
33
178
0
145
0.0
301
CELL_VALUE
 90
4
  1
ALL DIMENSIONS IN INCH\PVIEWS ARE THIRD ANGLE
304
ACVALUE_END
170
5
140
0.12
171
1
172
0
173
1
174
0
175
1
176
1
 91
1
178
0
145
0.0
170
1
171
1
172
0
173
1
174
0
175
1
176
1
 91
1
178
0
145
0.0
170
1
171
1
172
0
173
1
174
0
175
1
176
1
 91
1
178
0
145
0.0
170
5
171
1
172
0
173
0
174
0
175
1
176
1
 91
33
178
0
145
0.0
301
CELL_VALUE
 90
4
  1
 
304
ACVALUE_END
170
1
140
0.125
171
1
172
0
173
0
174
0
175
1
176
1
 91
33
178
0
145
0.0
301
CELL_VALUE
 90
4
  1
MODEL
304
ACVALUE_END
170
1
140
0.06
171
1
172
0
173
0
174
0
175
1
176
1
 91
33
178
0
145
0.0
301
CELL_VALUE
 90
4
  1
 
304
ACVALUE_END
170
1
140
0.125
171
1
172
0
173
0
174
0
175
1
176
1
 91
33
178
0
145
0.0
301
CELL_VALUE
 90
4
  1
 
304
ACVALUE_END
170
1
140
0.125
171
1
172
0
173
0
174
0
175
1
176
1
 91
33
178
0
145
0.0
301
CELL_VALUE
 90
4
  1
 
304
ACVALUE_END
170
1
140
0.125
171
1
172
0
173
0
174
0
175
1
176
1
 91
33
178
0
145
0.0
301
CELL_VALUE
 90
4
  1
 
304
ACVALUE_END
170
1
140
0.125
171
1
172
0
173
0
174
0
175
1
176
1
 91
33
178
0
145
0.0
301
CELL_VALUE
 90
4
  1
 
304
ACVALUE_END
170
1
140
0.125
  0
ACAD_TABLE
  5
295
100
AcDbEntity
  8
0
 62
2
  6
CONTINUOUS
100
AcDbBlockReference
  2
*T2
 10
12.4237499994
 20
16.47875
 30
0.0
100
AcDbTable
342
       376
343
210
 11
1.0
 21
0.0
 31
0.0
 90
22
 91
11
 92
3
 93
16
 94
0
 95
0
 96
0
 41
0.028
141
0.344
141
0.25
141
0.25
141
0.25
141
0.25
141
0.25
141
0.25
141
0.25
141
0.25
141
0.25
141
0.25
142
3.055
142
3.0
142
3.0
171
1
172
0
173
0
174
0
175
1
176
1
 91
33
178
0
145
0.0
301
CELL_VALUE
 90
4
  1
Technical Data
304
ACVALUE_END
170
5
140
0.145
171
1
172
0
173
0
174
0
175
1
176
1
 91
33
178
0
145
0.0
301
CELL_VALUE
 90
4
  1
U.S. Units
304
ACVALUE_END
170
5
140
0.145
171
1
172
0
173
0
174
0
175
1
176
1
 91
33
178
0
145
0.0
301
CELL_VALUE
 90
4
  1
Metric Units
304
ACVALUE_END
170
5
140
0.145
171
1
172
0
173
0
174
0
175
1
176
1
 91
33
178
0
145
0.0
301
CELL_VALUE
 90
4
  1
Cavity
304
ACVALUE_END
170
5
140
0.125
171
1
172
0
173
0
174
0
175
2
176
1
 91
33
178
0
145
0.0
301
CELL_VALUE
 90
4
  1
T-11A
304
ACVALUE_END
170
5
140
0.125
171
1
172
0
173
1
174
0
175
1
176
1
 91
1
178
0
145
0.0
170
1
171
1
172
0
173
0
174
0
175
1
176
1
 91
33
178
0
145
0.0
301
CELL_VALUE
 90
4
  1
Body Features
304
ACVALUE_END
170
5
140
0.125
171
1
172
0
173
0
174
0
175
2
176
1
 91
33
178
0
145
0.0
301
CELL_VALUE
 90
4
  1
Ninety degree with reverse flow check - reducing
304
ACVALUE_END
170
5
140
0.125
171
1
172
0
173
1
174
0
175
1
176
1
 91
1
178
0
145
0.0
170
1
171
1
172
0
173
0
174
0
175
1
176
1
 91
33
178
0
145
0.0
301
CELL_VALUE
 90
4
  1
Body Type
304
ACVALUE_END
170
5
140
0.125
171
1
172
0
173
0
174
0
175
2
176
1
 91
33
178
0
145
0.0
301
CELL_VALUE
 90
4
  1
Line mount
304
ACVALUE_END
170
5
140
0.125
171
1
172
0
173
1
174
0
175
1
176
1
 91
1
178
0
145
0.0
170
1
171
1
172
0
173
0
174
0
175
1
176
1
 91
33
178
0
145
0.0
301
CELL_VALUE
 90
4
  1
Interface
304
ACVALUE_END
170
5
140
0.125
171
1
172
0
173
0
174
0
175
2
176
1
 91
33
178
0
145
0.0
301
CELL_VALUE
 90
4
  1
None
304
ACVALUE_END
170
5
140
0.125
171
1
172
0
173
1
174
0
175
1
176
1
 91
1
178
0
145
0.0
170
1
171
1
172
0
173
0
174
0
175
1
176
1
 91
33
178
0
145
0.0
301
CELL_VALUE
 90
4
  1
Open Cavity Quantity
304
ACVALUE_END
170
5
140
0.125
171
1
172
0
173
0
174
0
175
2
176
1
 91
33
178
0
145
0.0
301
CELL_VALUE
 90
4
  1
1
304
ACVALUE_END
170
5
140
0.125
171
1
172
0
173
1
174
0
175
1
176
1
 91
1
178
0
145
0.0
170
1
171
1
172
0
173
0
174
0
175
1
176
1
 91
33
178
0
145
0.0
301
CELL_VALUE
 90
4
  1
Weight
304
ACVALUE_END
170
5
140
0.125
171
1
172
0
173
0
174
0
175
1
176
1
 91
33
178
0
145
0.0
301
CELL_VALUE
 90
4
  1
1.202 lb.
304
ACVALUE_END
170
5
140
0.125
171
1
172
0
173
0
174
0
175
1
176
1
 91
33
178
0
145
0.0
301
CELL_VALUE
 90
4
  1
0,545 kg.
304
ACVALUE_END
170
5
140
0.125
171
1
172
0
173
0
174
0
175
1
176
1
 91
33
178
0
145
0.0
301
CELL_VALUE
 90
4
  1
Mounting Hole Diameter
304
ACVALUE_END
170
5
140
0.125
171
1
172
0
173
0
174
0
175
1
176
1
 91
33
178
0
145
0.0
301
CELL_VALUE
 90
4
  1
.34 in.
304
ACVALUE_END
170
5
140
0.125
171
1
172
0
173
0
174
0
175
1
176
1
 91
33
178
0
145
0.0
301
CELL_VALUE
 90
4
  1
8.6 mm
304
ACVALUE_END
170
5
140
0.125
171
1
172
0
173
0
174
0
175
1
176
1
 91
33
178
0
145
0.0
301
CELL_VALUE
 90
4
  1
Mounting Hole Depth
304
ACVALUE_END
170
5
140
0.125
171
1
172
0
173
0
174
0
175
2
176
1
 91
33
178
0
145
0.0
301
CELL_VALUE
 90
4
  1
Through
304
ACVALUE_END
170
5
140
0.125
171
1
172
0
173
1
174
0
175
1
176
1
 91
1
178
0
145
0.0
170
1
171
1
172
0
173
0
174
0
175
1
176
1
 91
33
178
0
145
0.0
301
CELL_VALUE
 90
4
  1
Mounting Hole Quantity
304
ACVALUE_END
170
5
140
0.125
171
1
172
0
173
0
174
0
175
2
176
1
 91
33
178
0
145
0.0
301
CELL_VALUE
 90
4
  1
2
304
ACVALUE_END
170
5
140
0.125
171
1
172
0
173
1
174
0
175
1
176
1
 91
1
178
0
145
0.0
170
1
171
1
172
0
173
0
174
0
175
1
176
1
 91
33
178
0
145
0.0
301
CELL_VALUE
 90
4
  1
Includes integral cartridge(s)
304
ACVALUE_END
170
5
140
0.125
171
1
172
0
173
0
174
0
175
2
176
1
 91
33
178
0
145
0.0
301
CELL_VALUE
 90
4
  1
Yes (see Included Components)
304
ACVALUE_END
170
5
140
0.125
171
1
172
0
173
1
174
0
175
1
176
1
 91
1
178
0
145
0.0
170
1
  0
ACAD_TABLE
  5
296
100
AcDbEntity
  8
0
 62
2
  6
CONTINUOUS
100
AcDbBlockReference
  2
*T3
 10
0.52125
 20
1.959
 30
0.0
100
AcDbTable
342
       376
343
211
 11
1.0
 21
0.0
 31
0.0
 90
22
 91
5
 92
3
 93
16
 94
0
 95
0
 96
0
 41
0.05
141
0.34375
141
0.344
141
0.25
141
0.25
141
0.25
142
1.3
142
2.0
142
1.3
171
1
172
0
173
0
174
0
175
3
176
1
 91
33
178
0
145
0.0
301
CELL_VALUE
 90
4
  1
Port Headings
304
ACVALUE_END
170
5
140
0.145
171
1
172
0
173
1
174
0
175
1
176
1
 91
1
178
0
145
0.0
170
1
171
1
172
0
173
1
174
0
175
1
176
1
 91
1
178
0
145
0.0
170
1
171
1
172
0
173
0
174
0
175
1
176
1
 91
33
178
0
145
0.0
301
CELL_VALUE
 90
4
  1
Product
304
ACVALUE_END
170
5
140
0.145
171
1
172
0
173
0
174
0
175
1
176
1
 91
33
178
0
145
0.0
301
CELL_VALUE
 90
4
  1
Port
304
ACVALUE_END
170
5
140
0.145
171
1
172
0
173
0
174
0
175
1
176
1
 91
33
178
0
145
0.0
301
CELL_VALUE
 90
4
  1
Size
304
ACVALUE_END
170
5
140
0.145
171
1
172
0
173
0
174
0
175
1
176
1
 91
33
178
0
145
0.0
301
CELL_VALUE
 90
4
  1
E2J
304
ACVALUE_END
170
5
140
0.125
171
1
172
0
173
0
174
0
175
1
176
1
 91
33
178
0
145
0.0
301
CELL_VALUE
 90
4
  1
Ports 1 &  2
304
ACVALUE_END
170
5
140
0.125
171
1
172
0
173
0
174
0
175
1
176
1
 91
33
178
0
145
0.0
301
CELL_VALUE
 90
4
  1
SAE 8
304
ACVALUE_END
170
5
140
0.125
171
1
172
0
173
0
174
0
175
1
176
1
 91
33
178
0
145
0.0
301
CELL_VALUE
 90
4
  1
E2J
304
ACVALUE_END
170
5
140
0.125
171
1
172
0
173
0
174
0
175
1
176
1
 91
33
178
0
145
0.0
301
CELL_VALUE
 90
4
  1
Port 3
304
ACVALUE_END
170
5
140
0.125
171
1
172
0
173
0
174
0
175
1
176
1
 91
33
178
0
145
0.0
301
CELL_VALUE
 90
4
  1
SAE 6
304
ACVALUE_END
170
5
140
0.125
171
1
172
0
173
0
174
0
175
1
176
1
 91
33
178
0
145
0.0
301
CELL_VALUE
 90
4
  1
E2J
304
ACVALUE_END
170
5
140
0.125
171
1
172
0
173
0
174
0
175
1
176
1
 91
33
178
0
145
0.0
301
CELL_VALUE
 90
4
  1
Gage Port
304
ACVALUE_END
170
5
140
0.125
171
1
172
0
173
0
174
0
175
1
176
1
 91
33
178
0
145
0.0
301
CELL_VALUE
 90
4
  1
1/4" NPTF
304
ACVALUE_END
170
5
140
0.125
  0
MTEXT
  5
297
100
AcDbEntity
  8
0
100
AcDbMText
 62
2
  6
CONTINUOUS
  7
STANDARD
 71
1
 72
1
 10
0.52125
 20
5.75995
 30
0.0
 11
1.0
 21
0.0
 31
0.0
 44
0.6
  3
Notes\P \P1. Important: Carefully consider\P   the maximum system pressure. The\P   pressure rating of the manifold is\P   dependent on the manifold material,\P   with the port type/size a secondary\P   consideration. Manifolds\P   constructed of alu
  3
minum are not\P   rated for pressures higher than\P   3000 psi (210 bar), regardless of\P   the port type/size specified.\P2. This drawing is for reference\P   only. It is generated by an\P   automated process and does not fall\P   under Sun's docume
  1
nt control\P   process.
 40
0.1
 41
3.04
  0
LINE
  5
298
100
AcDbEntity
  8
0
100
AcDbLine
 62
7
  6
CONTINUOUS
 10
0.30125
 20
0.30125
 11
0.30125
 21
16.69875
  0
LINE
  5
299
100
AcDbEntity
  8
0
100
AcDbLine
 62
7
  6
CONTINUOUS
 10
0.30125
 20
0.30125
 11
21.69875
 21
0.30125
  0
LINE
  5
29A
100
AcDbEntity
  8
0
100
AcDbLine
 62
7
  6
CONTINUOUS
 10
0.30125
 20
16.69875
 11
21.69875
 21
16.69875
  0
LINE
  5
29B
100
AcDbEntity
  8
0
100
AcDbLine
 62
7
  6
CONTINUOUS
 10
21.69875
 20
0.30125
 11
21.69875
 21
16.69875
  0
LINE
  5
29C
100
AcDbEntity
  8
0
100
AcDbLine
 62
7
  6
CONTINUOUS
 10
9.7128729444
 20
10.7425635365
 11
9.389349405
 21
10.4300637758
  0
LINE
  5
29D
100
AcDbEntity
  8
0
100
AcDbLine
 62
4
  6
CONTINUOUS
 10
9.6288989878
 20
9.956568046
 11
9.6216545439
 21
9.9474111936
  0
LINE
  5
29E
100
AcDbEntity
  8
0
100
AcDbLine
 62
4
  6
CONTINUOUS
 10
9.6361434318
 20
9.8981100904
 11
9.6216545439
 21
9.8797963812
  0
LINE
  5
29F
100
AcDbEntity
  8
0
100
AcDbLine
 62
4
  6
CONTINUOUS
 10
9.5781878801
 20
9.9794033928
 11
9.592676768
 21
9.9880578413
  0
LINE
  5
2A0
100
AcDbEntity
  8
0
100
AcDbLine
 62
4
  6
CONTINUOUS
 10
9.6216545439
 20
9.9474111936
 11
9.6071656559
 21
9.9387567382
  0
LINE
  5
2A1
100
AcDbEntity
  8
0
100
AcDbLine
 62
4
  6
CONTINUOUS
 10
9.6216545439
 20
9.8797963812
 11
9.6071656559
 21
9.8711419301
  0
LINE
  5
2A2
100
AcDbEntity
  8
0
100
AcDbLine
 62
7
  6
CONTINUOUS
 10
11.2065145113
 20
6.3251270685
 11
11.2228173394
 21
6.3170737835
  0
LINE
  5
2A3
100
AcDbEntity
  8
0
100
AcDbLine
 62
7
  6
CONTINUOUS
 10
9.389349405
 20
6.9285824481
 11
12.2871270556
 21
6.7276208855
  0
LINE
  5
2A4
100
AcDbEntity
  8
0
100
AcDbLine
 62
7
  6
CONTINUOUS
 10
9.389349405
 20
6.9285824481
 11
9.389349405
 21
10.4300637758
  0
LINE
  5
2A5
100
AcDbEntity
  8
0
100
AcDbLine
 62
4
  6
CONTINUOUS
 10
9.6288989878
 20
9.9662273023
 11
9.6288989878
 21
9.956568046
  0
LINE
  5
2A6
100
AcDbEntity
  8
0
100
AcDbLine
 62
4
  6
CONTINUOUS
 10
9.6288989878
 20
7.9184643874
 11
9.6288989878
 21
7.8025532839
  0
LINE
  5
2A7
100
AcDbEntity
  8
0
100
AcDbLine
 62
4
  6
CONTINUOUS
 10
9.6361434318
 20
9.9077693502
 11
9.6361434318
 21
9.8981100904
  0
LINE
  5
2A8
100
AcDbEntity
  8
0
100
AcDbLine
 62
4
  6
CONTINUOUS
 10
11.2956041522
 20
7.3701431897
 11
11.2811152643
 21
7.3711479975
  0
LINE
  5
2A9
100
AcDbEntity
  8
0
100
AcDbLine
 62
4
  6
CONTINUOUS
 10
11.2883597082
 20
7.4286011453
 11
11.3173374841
 21
7.4265915297
  0
LINE
  5
2AA
100
AcDbEntity
  8
0
100
AcDbLine
 62
4
  6
CONTINUOUS
 10
11.2811152643
 20
7.4870591009
 11
11.2956041522
 21
7.4860542931
  0
LINE
  5
2AB
100
AcDbEntity
  8
0
100
AcDbLine
 62
4
  6
CONTINUOUS
 10
11.2811152643
 20
7.3711479975
 11
11.2666263763
 21
7.3818120641
  0
LINE
  5
2AC
100
AcDbEntity
  8
0
100
AcDbLine
 62
4
  6
CONTINUOUS
 10
10.2886264026
 20
8.976765432
 11
10.2886264026
 21
8.918809879
  0
LINE
  5
2AD
100
AcDbEntity
  8
0
100
AcDbLine
 62
4
  6
CONTINUOUS
 10
10.3465819556
 20
8.9147906477
 11
10.3465819556
 21
8.8568350947
  0
LINE
  5
2AE
100
AcDbEntity
  8
0
100
AcDbLine
 62
4
  6
CONTINUOUS
 10
10.3755597321
 20
8.8548254791
 11
10.3755597321
 21
8.9707365851
  0
LINE
  5
2AF
100
AcDbEntity
  8
0
100
AcDbLine
 62
4
  6
CONTINUOUS
 10
10.4228901062
 20
8.2603964658
 11
10.4228901062
 21
8.3763075718
  0
LINE
  5
2B0
100
AcDbEntity
  8
0
100
AcDbLine
 62
4
  6
CONTINUOUS
 10
10.4335152851
 20
8.9667173538
 11
10.4335152851
 21
8.8508062478
  0
LINE
  5
2B1
100
AcDbEntity
  8
0
100
AcDbLine
 62
4
  6
CONTINUOUS
 10
10.4624930616
 20
8.9647077382
 11
10.4624930616
 21
8.8487966322
  0
LINE
  5
2B2
100
AcDbEntity
  8
0
100
AcDbLine
 62
4
  6
CONTINUOUS
 10
11.2956041522
 20
7.4860542931
 11
11.3100930401
 21
7.475390229
  0
LINE
  5
2B3
100
AcDbEntity
  8
0
100
AcDbLine
 62
4
  6
CONTINUOUS
 10
10.4808456523
 20
8.3557296126
 11
10.4808456523
 21
8.2729359652
  0
LINE
  5
2B4
100
AcDbEntity
  8
0
100
AcDbLine
 62
4
  6
CONTINUOUS
 10
10.5204486146
 20
8.960688507
 11
10.5204486146
 21
8.8447774009
  0
LINE
  5
2B5
100
AcDbEntity
  8
0
100
AcDbLine
 62
4
  6
CONTINUOUS
 10
10.6363597207
 20
8.8367389384
 11
10.6363597207
 21
8.9526500445
  0
LINE
  5
2B6
100
AcDbEntity
  8
0
100
AcDbLine
 62
4
  6
CONTINUOUS
 10
10.527762053
 20
8.2531235716
 11
10.5608795099
 21
8.3667379741
  0
LINE
  5
2B7
100
AcDbEntity
  8
0
100
AcDbLine
 62
7
  6
CONTINUOUS
 10
12.2871270556
 20
10.2291022132
 11
12.610650595
 21
10.5416019738
  0
LINE
  5
2B8
100
AcDbEntity
  8
0
100
AcDbLine
 62
4
  6
CONTINUOUS
 10
10.3566551855
 20
8.3146660619
 11
10.4008117981
 21
8.2895254841
  0
LINE
  5
2B9
100
AcDbEntity
  8
0
100
AcDbLine
 62
4
  6
CONTINUOUS
 10
10.4642869238
 20
8.3734366927
 11
10.4808456523
 21
8.3557296126
  0
LINE
  5
2BA
100
AcDbEntity
  8
0
100
AcDbLine
 62
4
  6
CONTINUOUS
 10
11.2666263763
 20
7.3818120641
 11
11.2521374884
 21
7.4021353889
  0
LINE
  5
2BB
100
AcDbEntity
  8
0
100
AcDbLine
 62
4
  6
CONTINUOUS
 10
9.5781878801
 20
9.8828108046
 11
9.5709434361
 21
9.8929724674
  0
LINE
  5
2BC
100
AcDbEntity
  8
0
100
AcDbLine
 62
4
  6
CONTINUOUS
 10
10.5608795099
 20
8.3667379741
 11
10.5939969806
 21
8.2485301637
  0
LINE
  5
2BD
100
AcDbEntity
  8
0
100
AcDbLine
 62
4
  6
CONTINUOUS
 10
10.6602318943
 20
8.2439367569
 11
10.6602318943
 21
8.3598478629
  0
LINE
  5
2BE
100
AcDbEntity
  8
0
100
AcDbLine
 62
4
  6
CONTINUOUS
 10
10.6943152737
 20
8.8327197072
 11
10.6943152737
 21
8.8906752602
  0
LINE
  5
2BF
100
AcDbEntity
  8
0
100
AcDbLine
 62
4
  6
CONTINUOUS
 10
10.7264668081
 20
8.23934335
 11
10.7264668081
 21
8.355254456
  0
LINE
  5
2C0
100
AcDbEntity
  8
0
100
AcDbLine
 62
4
  6
CONTINUOUS
 10
10.7306064868
 20
8.4940606955
 11
10.7306064868
 21
8.6099718016
  0
LINE
  5
2C1
100
AcDbEntity
  8
0
100
AcDbLine
 62
4
  6
CONTINUOUS
 10
10.741645642
 20
8.829437335
 11
10.741645642
 21
8.887392888
  0
LINE
  5
2C2
100
AcDbEntity
  8
0
100
AcDbLine
 62
4
  6
CONTINUOUS
 10
10.799601195
 20
8.8833736568
 11
10.799601195
 21
8.7674625507
  0
LINE
  5
2C3
100
AcDbEntity
  8
0
100
AcDbLine
 62
4
  6
CONTINUOUS
 10
10.8382382303
 20
8.8227386162
 11
10.8382382303
 21
8.8806941692
  0
LINE
  5
2C4
100
AcDbEntity
  8
0
100
AcDbLine
 62
4
  6
CONTINUOUS
 10
10.8299588644
 20
8.6030816908
 11
10.8134001359
 21
8.5793919464
  0
LINE
  5
2C5
100
AcDbEntity
  8
0
100
AcDbLine
 62
4
  6
CONTINUOUS
 10
10.4808456523
 20
8.2729359652
 11
10.4642869238
 21
8.2575255867
  0
LINE
  5
2C6
100
AcDbEntity
  8
0
100
AcDbLine
 62
4
  6
CONTINUOUS
 10
11.1293958739
 20
8.2114001244
 11
11.0879990424
 21
8.2142710044
  0
LINE
  5
2C7
100
AcDbEntity
  8
0
100
AcDbLine
 62
4
  6
CONTINUOUS
 10
11.0383228778
 20
8.2177160581
 11
11.0134847678
 21
8.2194385869
  0
LINE
  5
2C8
100
AcDbEntity
  8
0
100
AcDbLine
 62
4
  6
CONTINUOUS
 10
10.9500096594
 20
8.2238406006
 11
10.9168922163
 21
8.2261373031
  0
LINE
  5
2C9
100
AcDbEntity
  8
0
100
AcDbLine
 62
4
  6
CONTINUOUS
 10
10.4642869238
 20
8.2575255867
 11
10.4228901062
 21
8.2603964658
  0
LINE
  5
2CA
100
AcDbEntity
  8
0
100
AcDbLine
 62
4
  6
CONTINUOUS
 10
10.7264668081
 20
8.23934335
 11
10.7761430004
 21
8.2358982943
  0
LINE
  5
2CB
100
AcDbEntity
  8
0
100
AcDbLine
 62
4
  6
CONTINUOUS
 10
11.1928710376
 20
8.2069981068
 11
11.2425472022
 21
8.2035530531
  0
LINE
  5
2CC
100
AcDbEntity
  8
0
100
AcDbLine
 62
4
  6
CONTINUOUS
 10
10.5388012053
 20
8.2854754641
 11
10.5829578145
 21
8.2824131928
  0
LINE
  5
2CD
100
AcDbEntity
  8
0
100
AcDbLine
 62
4
  6
CONTINUOUS
 10
11.2259884806
 20
8.270936325
 11
11.1928710376
 21
8.2732330275
  0
LINE
  5
2CE
100
AcDbEntity
  8
0
100
AcDbLine
 62
4
  6
CONTINUOUS
 10
10.7595842788
 20
8.3032815663
 11
10.7264668081
 21
8.3055782707
  0
LINE
  5
2CF
100
AcDbEntity
  8
0
100
AcDbLine
 62
4
  6
CONTINUOUS
 10
10.4228901062
 20
8.3763075718
 11
10.4642869238
 21
8.3734366927
  0
LINE
  5
2D0
100
AcDbEntity
  8
0
100
AcDbLine
 62
4
  6
CONTINUOUS
 10
10.6271144236
 20
8.3621445673
 11
10.6933493374
 21
8.3575511604
  0
LINE
  5
2D1
100
AcDbEntity
  8
0
100
AcDbLine
 62
4
  6
CONTINUOUS
 10
10.7264668081
 20
8.355254456
 11
10.7761430004
 21
8.3518094004
  0
LINE
  5
2D2
100
AcDbEntity
  8
0
100
AcDbLine
 62
4
  6
CONTINUOUS
 10
10.9168922163
 20
8.3420484091
 11
10.9500096594
 21
8.3397517066
  0
LINE
  5
2D3
100
AcDbEntity
  8
0
100
AcDbLine
 62
4
  6
CONTINUOUS
 10
11.0134847678
 20
8.3353496929
 11
11.0383228778
 21
8.3336271641
  0
LINE
  5
2D4
100
AcDbEntity
  8
0
100
AcDbLine
 62
4
  6
CONTINUOUS
 10
11.0879990424
 20
8.3301821104
 11
11.1293958739
 21
8.3273112304
  0
LINE
  5
2D5
100
AcDbEntity
  8
0
100
AcDbLine
 62
4
  6
CONTINUOUS
 10
11.1928710376
 20
8.3229092128
 11
11.2425472022
 21
8.3194641591
  0
LINE
  5
2D6
100
AcDbEntity
  8
0
100
AcDbLine
 62
4
  6
CONTINUOUS
 10
10.9168922163
 20
8.2261373031
 11
10.9003334948
 21
8.2438443845
  0
LINE
  5
2D7
100
AcDbEntity
  8
0
100
AcDbLine
 62
4
  6
CONTINUOUS
 10
11.0134847678
 20
8.2194385869
 11
10.9969260463
 21
8.2371456683
  0
LINE
  5
2D8
100
AcDbEntity
  8
0
100
AcDbLine
 62
4
  6
CONTINUOUS
 10
11.3100930401
 20
7.475390229
 11
11.3173374841
 21
7.4652285619
  0
LINE
  5
2D9
100
AcDbEntity
  8
0
100
AcDbLine
 62
4
  6
CONTINUOUS
 10
9.6216545439
 20
9.928092674
 11
9.6361434318
 21
9.9077693502
  0
LINE
  5
2DA
100
AcDbEntity
  8
0
100
AcDbLine
 62
4
  6
CONTINUOUS
 10
9.6216545439
 20
9.9763889694
 11
9.6288989878
 21
9.9662273023
  0
LINE
  5
2DB
100
AcDbEntity
  8
0
100
AcDbLine
 62
4
  6
CONTINUOUS
 10
10.8713556889
 20
8.5670933543
 11
10.8713556889
 21
8.5836520828
  0
LINE
  5
2DC
100
AcDbEntity
  8
0
100
AcDbLine
 62
4
  6
CONTINUOUS
 10
10.8961937833
 20
8.934630491
 11
10.8961937833
 21
8.818719385
  0
LINE
  5
2DD
100
AcDbEntity
  8
0
100
AcDbLine
 62
4
  6
CONTINUOUS
 10
10.9003334948
 20
8.2438443845
 11
10.9003334948
 21
8.3266380319
  0
LINE
  5
2DE
100
AcDbEntity
  8
0
100
AcDbLine
 62
4
  6
CONTINUOUS
 10
10.9348308187
 20
8.8739954505
 11
10.9348308187
 21
8.8160398975
  0
LINE
  5
2DF
100
AcDbEntity
  8
0
100
AcDbLine
 62
4
  6
CONTINUOUS
 10
10.9458699635
 20
8.4956908529
 11
10.9458699635
 21
8.5950432287
  0
LINE
  5
2E0
100
AcDbEntity
  8
0
100
AcDbLine
 62
4
  6
CONTINUOUS
 10
10.9969260463
 20
8.2371456683
 11
10.9969260463
 21
8.3199393157
  0
LINE
  5
2E1
100
AcDbEntity
  8
0
100
AcDbLine
 62
4
  6
CONTINUOUS
 10
10.8134001359
 20
8.4883189365
 11
10.8713556889
 21
8.5670933543
  0
LINE
  5
2E2
100
AcDbEntity
  8
0
100
AcDbLine
 62
4
  6
CONTINUOUS
 10
10.9293112419
 20
8.480280474
 11
10.9458699635
 21
8.4956908529
  0
LINE
  5
2E3
100
AcDbEntity
  8
0
100
AcDbLine
 62
4
  6
CONTINUOUS
 10
10.4008117981
 20
8.3336820985
 11
10.3566551855
 21
8.3146660619
  0
LINE
  5
2E4
100
AcDbEntity
  8
0
100
AcDbLine
 62
4
  6
CONTINUOUS
 10
10.8713556889
 20
8.4842997052
 11
10.8134001359
 21
8.4883189365
  0
LINE
  5
2E5
100
AcDbEntity
  8
0
100
AcDbLine
 62
4
  6
CONTINUOUS
 10
10.7306064868
 20
8.4940606955
 11
10.7802826756
 21
8.4906156401
  0
LINE
  5
2E6
100
AcDbEntity
  8
0
100
AcDbLine
 62
4
  6
CONTINUOUS
 10
10.9044731458
 20
8.4820030018
 11
10.9293112419
 21
8.480280474
  0
LINE
  5
2E7
100
AcDbEntity
  8
0
100
AcDbLine
 62
4
  6
CONTINUOUS
 10
11.2756646452
 20
8.2730108474
 11
11.3198212544
 21
8.2478702682
  0
LINE
  5
2E8
100
AcDbEntity
  8
0
100
AcDbLine
 62
4
  6
CONTINUOUS
 10
11.0383228778
 20
8.3336271641
 11
11.0548815993
 21
8.3159200844
  0
LINE
  5
2E9
100
AcDbEntity
  8
0
100
AcDbLine
 62
4
  6
CONTINUOUS
 10
10.8713556889
 20
8.5836520828
 11
10.8547969536
 21
8.6013591634
  0
LINE
  5
2EA
100
AcDbEntity
  8
0
100
AcDbLine
 62
4
  6
CONTINUOUS
 10
11.1293958739
 20
8.3273112304
 11
11.1459545954
 21
8.3096041507
  0
LINE
  5
2EB
100
AcDbEntity
  8
0
100
AcDbLine
 62
4
  6
CONTINUOUS
 10
11.2521374884
 20
7.4021353889
 11
11.2448930445
 21
7.4316155686
  0
LINE
  5
2EC
100
AcDbEntity
  8
0
100
AcDbLine
 62
4
  6
CONTINUOUS
 10
11.031423407
 20
8.8093411787
 11
11.031423407
 21
8.8479782141
  0
LINE
  5
2ED
100
AcDbEntity
  8
0
100
AcDbLine
 62
4
  6
CONTINUOUS
 10
11.0548815993
 20
8.3159200844
 11
11.0548815993
 21
8.233126437
  0
LINE
  5
2EE
100
AcDbEntity
  8
0
100
AcDbLine
 62
4
  6
CONTINUOUS
 10
11.0879990424
 20
8.2142710044
 11
11.0879990424
 21
8.3301821104
  0
LINE
  5
2EF
100
AcDbEntity
  8
0
100
AcDbLine
 62
4
  6
CONTINUOUS
 10
11.08937896
 20
8.8632775005
 11
11.08937896
 21
8.8053219475
  0
LINE
  5
2F0
100
AcDbEntity
  8
0
100
AcDbLine
 62
7
  6
CONTINUOUS
 10
11.1245682596
 20
6.8082446118
 11
11.1245682596
 21
6.4269207276
  0
LINE
  5
2F1
100
AcDbEntity
  8
0
100
AcDbLine
 62
4
  6
CONTINUOUS
 10
11.1280159954
 20
8.860598013
 11
11.1280159954
 21
8.80264246
  0
LINE
  5
2F2
100
AcDbEntity
  8
0
100
AcDbLine
 62
4
  6
CONTINUOUS
 10
11.1459545954
 20
8.3096041507
 11
11.1459545954
 21
8.2268105033
  0
LINE
  5
2F3
100
AcDbEntity
  8
0
100
AcDbLine
 62
4
  6
CONTINUOUS
 10
11.1859715484
 20
8.7986232287
 11
11.1859715484
 21
8.8565787817
  0
LINE
  5
2F4
100
AcDbEntity
  8
0
100
AcDbLine
 62
4
  6
CONTINUOUS
 10
11.1928710376
 20
8.2069981068
 11
11.1928710376
 21
8.3229092128
  0
LINE
  5
2F5
100
AcDbEntity
  8
0
100
AcDbLine
 62
4
  6
CONTINUOUS
 10
10.9003334948
 20
8.3266380319
 11
10.9168922163
 21
8.3420484091
  0
LINE
  5
2F6
100
AcDbEntity
  8
0
100
AcDbLine
 62
4
  6
CONTINUOUS
 10
10.9969260463
 20
8.3199393157
 11
11.0134847678
 21
8.3353496929
  0
LINE
  5
2F7
100
AcDbEntity
  8
0
100
AcDbLine
 62
4
  6
CONTINUOUS
 10
10.7637239471
 20
8.5579989126
 11
10.7306064868
 21
8.5602956162
  0
LINE
  5
2F8
100
AcDbEntity
  8
0
100
AcDbLine
 62
4
  6
CONTINUOUS
 10
10.8547969536
 20
8.6013591634
 11
10.8299588644
 21
8.6030816908
  0
LINE
  5
2F9
100
AcDbEntity
  8
0
100
AcDbLine
 62
4
  6
CONTINUOUS
 10
10.7306064868
 20
8.6099718016
 11
10.7802826756
 21
8.6065267462
  0
LINE
  5
2FA
100
AcDbEntity
  8
0
100
AcDbLine
 62
4
  6
CONTINUOUS
 10
11.2246085837
 20
8.7959437412
 11
11.2246085837
 21
8.9118548472
  0
LINE
  5
2FB
100
AcDbEntity
  8
0
100
AcDbLine
 62
7
  6
CONTINUOUS
 10
11.2376230716
 20
6.7383175774
 11
11.2376230716
 21
6.3177183517
  0
LINE
  5
2FC
100
AcDbEntity
  8
0
100
AcDbLine
 62
4
  6
CONTINUOUS
 10
11.2632456191
 20
8.7932642537
 11
11.2632456191
 21
8.8512198067
  0
LINE
  5
2FD
100
AcDbEntity
  8
0
100
AcDbLine
 62
7
  6
CONTINUOUS
 10
11.2795032991
 20
6.7274781907
 11
11.2795032991
 21
6.3068789649
  0
LINE
  5
2FE
100
AcDbEntity
  8
0
100
AcDbLine
 62
4
  6
CONTINUOUS
 10
11.3018826544
 20
8.8485403192
 11
11.3018826544
 21
8.7905847662
  0
LINE
  5
2FF
100
AcDbEntity
  8
0
100
AcDbLine
 62
4
  6
CONTINUOUS
 10
11.3173374841
 20
7.4265915297
 11
11.3173374841
 21
7.3879544958
  0
LINE
  5
300
100
AcDbEntity
  8
0
100
AcDbLine
 62
4
  6
CONTINUOUS
 10
11.0548815993
 20
8.233126437
 11
11.0383228778
 21
8.2177160581
  0
LINE
  5
301
100
AcDbEntity
  8
0
100
AcDbLine
 62
4
  6
CONTINUOUS
 10
11.1459545954
 20
8.2268105033
 11
11.1293958739
 21
8.2114001244
  0
LINE
  5
302
100
AcDbEntity
  8
0
100
AcDbLine
 62
4
  6
CONTINUOUS
 10
12.1127774397
 20
8.8676467311
 11
12.1272663276
 21
8.8763011796
  0
LINE
  5
303
100
AcDbEntity
  8
0
100
AcDbLine
 62
4
  6
CONTINUOUS
 10
12.1562441035
 20
8.8259952686
 11
12.1272663276
 21
8.8086863681
  0
LINE
  5
304
100
AcDbEntity
  8
0
100
AcDbLine
 62
4
  6
CONTINUOUS
 10
11.3198212544
 20
8.2478702682
 11
11.2756646452
 21
8.2288542331
  0
LINE
  5
305
100
AcDbEntity
  8
0
100
AcDbLine
 62
4
  6
CONTINUOUS
 10
10.799601195
 20
8.7674625507
 11
10.7609641596
 21
8.7701420382
  0
LINE
  5
306
100
AcDbEntity
  8
0
100
AcDbLine
 62
4
  6
CONTINUOUS
 10
11.4564307958
 20
8.7798668162
 11
11.3984752428
 21
8.7838860475
  0
LINE
  5
307
100
AcDbEntity
  8
0
100
AcDbLine
 62
4
  6
CONTINUOUS
 10
11.08937896
 20
8.8053219475
 11
11.031423407
 21
8.8093411787
  0
LINE
  5
308
100
AcDbEntity
  8
0
100
AcDbLine
 62
4
  6
CONTINUOUS
 10
10.8961937833
 20
8.818719385
 11
10.8382382303
 21
8.8227386162
  0
LINE
  5
309
100
AcDbEntity
  8
0
100
AcDbLine
 62
4
  6
CONTINUOUS
 10
10.799601195
 20
8.8254181037
 11
10.741645642
 21
8.829437335
  0
LINE
  5
30A
100
AcDbEntity
  8
0
100
AcDbLine
 62
4
  6
CONTINUOUS
 10
10.4335152851
 20
8.8508062478
 11
10.3755597321
 21
8.8548254791
  0
LINE
  5
30B
100
AcDbEntity
  8
0
100
AcDbLine
 62
4
  6
CONTINUOUS
 10
10.3465819556
 20
8.8568350947
 11
10.2886264026
 21
8.8608543259
  0
LINE
  5
30C
100
AcDbEntity
  8
0
100
AcDbLine
 62
4
  6
CONTINUOUS
 10
11.1280159954
 20
8.80264246
 11
11.1859715484
 21
8.7986232287
  0
LINE
  5
30D
100
AcDbEntity
  8
0
100
AcDbLine
 62
4
  6
CONTINUOUS
 10
11.3018826544
 20
8.7905847662
 11
11.3598382074
 21
8.786565535
  0
LINE
  5
30E
100
AcDbEntity
  8
0
100
AcDbLine
 62
4
  6
CONTINUOUS
 10
12.1055329957
 20
8.7618972879
 11
12.1634885474
 21
8.7578780567
  0
LINE
  5
30F
100
AcDbEntity
  8
0
100
AcDbLine
 62
4
  6
CONTINUOUS
 10
11.3984752428
 20
8.812863824
 11
11.4564307958
 21
8.8088445927
  0
LINE
  5
310
100
AcDbEntity
  8
0
100
AcDbLine
 62
4
  6
CONTINUOUS
 10
11.031423407
 20
8.8479782141
 11
11.08937896
 21
8.8439589828
  0
LINE
  5
311
100
AcDbEntity
  8
0
100
AcDbLine
 62
4
  6
CONTINUOUS
 10
11.08937896
 20
8.8632775005
 11
11.0507419247
 21
8.865956988
  0
LINE
  5
312
100
AcDbEntity
  8
0
100
AcDbLine
 62
4
  6
CONTINUOUS
 10
10.6943152737
 20
8.8906752602
 11
10.6363597207
 21
8.8946944914
  0
LINE
  5
313
100
AcDbEntity
  8
0
100
AcDbLine
 62
4
  6
CONTINUOUS
 10
10.2886264026
 20
8.918809879
 11
10.3465819556
 21
8.9147906477
  0
LINE
  5
314
100
AcDbEntity
  8
0
100
AcDbLine
 62
4
  6
CONTINUOUS
 10
10.8382382303
 20
8.8806941692
 11
10.8961937833
 21
8.876674938
  0
LINE
  5
315
100
AcDbEntity
  8
0
100
AcDbLine
 62
4
  6
CONTINUOUS
 10
10.9348308187
 20
8.8739954505
 11
10.9927863717
 21
8.8699762192
  0
LINE
  5
316
100
AcDbEntity
  8
0
100
AcDbLine
 62
4
  6
CONTINUOUS
 10
11.3018826544
 20
8.8485403192
 11
11.3598382074
 21
8.844521088
  0
LINE
  5
317
100
AcDbEntity
  8
0
100
AcDbLine
 62
4
  6
CONTINUOUS
 10
11.3984752428
 20
8.8418416005
 11
11.4564307958
 21
8.8378223692
  0
LINE
  5
318
100
AcDbEntity
  8
0
100
AcDbLine
 62
4
  6
CONTINUOUS
 10
9.592676768
 20
9.8721467379
 11
9.5781878801
 21
9.8828108046
  0
LINE
  5
319
100
AcDbEntity
  8
0
100
AcDbLine
 62
4
  6
CONTINUOUS
 10
9.6071656559
 20
9.9387567382
 11
9.6216545439
 21
9.928092674
  0
LINE
  5
31A
100
AcDbEntity
  8
0
100
AcDbLine
 62
4
  6
CONTINUOUS
 10
9.6071656559
 20
9.9870530336
 11
9.6216545439
 21
9.9763889694
  0
LINE
  5
31B
100
AcDbEntity
  8
0
100
AcDbLine
 62
4
  6
CONTINUOUS
 10
11.3984752428
 20
8.8418416005
 11
11.3984752428
 21
8.812863824
  0
LINE
  5
31C
100
AcDbEntity
  8
0
100
AcDbLine
 62
4
  6
CONTINUOUS
 10
11.4564307958
 20
8.8088445927
 11
11.4564307958
 21
8.7798668162
  0
LINE
  5
31D
100
AcDbEntity
  8
0
100
AcDbLine
 62
4
  6
CONTINUOUS
 10
11.2448930445
 20
7.4316155686
 11
11.2521374884
 21
7.4600909406
  0
LINE
  5
31E
100
AcDbEntity
  8
0
100
AcDbLine
 62
4
  6
CONTINUOUS
 10
11.2560011749
 20
8.8806999871
 11
11.2704900632
 21
8.8796951793
  0
LINE
  5
31F
100
AcDbEntity
  8
0
100
AcDbLine
 62
4
  6
CONTINUOUS
 10
10.3465819556
 20
8.9727462007
 11
10.2886264026
 21
8.976765432
  0
LINE
  5
320
100
AcDbEntity
  8
0
100
AcDbLine
 62
4
  6
CONTINUOUS
 10
10.4624930616
 20
8.9647077382
 11
10.5204486146
 21
8.960688507
  0
LINE
  5
321
100
AcDbEntity
  8
0
100
AcDbLine
 62
4
  6
CONTINUOUS
 10
12.1272663276
 20
8.8763011796
 11
12.1417552155
 21
8.8752963718
  0
LINE
  5
322
100
AcDbEntity
  8
0
100
AcDbLine
 62
7
  6
CONTINUOUS
 10
11.701429278
 20
6.6982175246
 11
11.701429278
 21
6.2776182989
  0
LINE
  5
323
100
AcDbEntity
  8
0
100
AcDbLine
 62
7
  6
CONTINUOUS
 10
11.7586387166
 20
6.7021850197
 11
11.7586387166
 21
6.281585794
  0
LINE
  5
324
100
AcDbEntity
  8
0
100
AcDbLine
 62
4
  6
CONTINUOUS
 10
12.1055329957
 20
8.8584898717
 11
12.1127774397
 21
8.8676467311
  0
LINE
  5
325
100
AcDbEntity
  8
0
100
AcDbLine
 62
4
  6
CONTINUOUS
 10
12.1272663276
 20
8.8086863681
 11
12.1127774397
 21
8.7903726598
  0
LINE
  5
326
100
AcDbEntity
  8
0
100
AcDbLine
 62
4
  6
CONTINUOUS
 10
12.1634885474
 20
8.8351521279
 11
12.1562441035
 21
8.8259952686
  0
LINE
  5
327
100
AcDbEntity
  8
0
100
AcDbLine
 62
4
  6
CONTINUOUS
 10
11.2521374884
 20
7.4600909406
 11
11.2666263763
 21
7.4784046524
  0
LINE
  5
328
100
AcDbEntity
  8
0
100
AcDbLine
 62
4
  6
CONTINUOUS
 10
11.3173374841
 20
7.3879544958
 11
11.3100930401
 21
7.3787976408
  0
LINE
  5
329
100
AcDbEntity
  8
0
100
AcDbLine
 62
7
  6
CONTINUOUS
 10
12.0675098836
 20
6.7428513881
 11
12.0675098836
 21
6.3615275038
  0
LINE
  5
32A
100
AcDbEntity
  8
0
100
AcDbLine
 62
7
  6
CONTINUOUS
 10
12.0828390948
 20
6.7417883037
 11
12.0828390948
 21
6.3763343857
  0
LINE
  5
32B
100
AcDbEntity
  8
0
100
AcDbLine
 62
4
  6
CONTINUOUS
 10
12.1127774397
 20
8.7903726598
 11
12.1055329957
 21
8.7618972879
  0
LINE
  5
32C
100
AcDbEntity
  8
0
100
AcDbLine
 62
4
  6
CONTINUOUS
 10
11.2666263763
 20
7.4784046524
 11
11.2811152643
 21
7.4870591009
  0
LINE
  5
32D
100
AcDbEntity
  8
0
100
AcDbLine
 62
4
  6
CONTINUOUS
 10
11.3100930401
 20
7.3787976408
 11
11.2956041522
 21
7.3701431897
  0
LINE
  5
32E
100
AcDbEntity
  8
0
100
AcDbLine
 62
4
  6
CONTINUOUS
 10
12.1417552155
 20
8.8752963718
 11
12.1562441035
 21
8.8646323077
  0
LINE
  5
32F
100
AcDbEntity
  8
0
100
AcDbLine
 62
4
  6
CONTINUOUS
 10
12.1634885474
 20
8.8544706406
 11
12.1634885474
 21
8.8351521279
  0
LINE
  5
330
100
AcDbEntity
  8
0
100
AcDbLine
 62
7
  6
CONTINUOUS
 10
12.2871270556
 20
6.7276208855
 11
12.2871270556
 21
10.2291022132
  0
LINE
  5
331
100
AcDbEntity
  8
0
100
AcDbLine
 62
4
  6
CONTINUOUS
 10
9.6071656559
 20
9.8711419301
 11
9.592676768
 21
9.8721467379
  0
LINE
  5
332
100
AcDbEntity
  8
0
100
AcDbLine
 62
4
  6
CONTINUOUS
 10
12.1562441035
 20
8.8646323077
 11
12.1634885474
 21
8.8544706406
  0
LINE
  5
333
100
AcDbEntity
  8
0
100
AcDbLine
 62
4
  6
CONTINUOUS
 10
9.592676768
 20
9.9397615459
 11
9.6071656559
 21
9.9387567382
  0
LINE
  5
334
100
AcDbEntity
  8
0
100
AcDbLine
 62
4
  6
CONTINUOUS
 10
9.592676768
 20
9.9880578413
 11
9.6071656559
 21
9.9870530336
  0
LINE
  5
335
100
AcDbEntity
  8
0
100
AcDbLine
 62
7
  6
CONTINUOUS
 10
12.610650595
 20
7.0401206461
 11
12.610650595
 21
10.5416019738
  0
LINE
  5
336
100
AcDbEntity
  8
0
100
AcDbLine
 62
7
  6
CONTINUOUS
 10
9.389349405
 20
10.4300637758
 11
12.2871270556
 21
10.2291022132
  0
LINE
  5
337
100
AcDbEntity
  8
0
100
AcDbLine
 62
7
  6
CONTINUOUS
 10
12.2871270556
 20
6.7276208855
 11
12.610650595
 21
7.0401206461
  0
LINE
  5
338
100
AcDbEntity
  8
0
100
AcDbLine
 62
7
  6
CONTINUOUS
 10
12.610650595
 20
10.5416019738
 11
9.7128729444
 21
10.7425635365
  0
LINE
  5
339
100
AcDbEntity
  8
0
100
AcDbLine
 62
7
  6
CONTINUOUS
 10
12.0097556245
 20
6.3295051128
 11
11.984590015
 21
6.3170737835
  0
ARC
  5
33A
100
AcDbEntity
  8
0
100
AcDbCircle
 62
7
  6
CONTINUOUS
 10
11.6115059339
 20
8.4093209719
 40
1.7134646816
100
AcDbArc
 50
273.0082884861
 51
274.9259735842
  0
ARC
  5
33B
100
AcDbEntity
  8
0
100
AcDbCircle
 62
7
  6
CONTINUOUS
 10
11.6115059339
 20
7.9887217461
 40
1.7134646816
100
AcDbArc
 50
273.0082884861
 51
274.9259735842
  0
ARC
  5
33C
100
AcDbEntity
  8
0
100
AcDbCircle
 62
7
  6
CONTINUOUS
 10
11.7472714954
 20
6.860440605
 40
0.5922756118
100
AcDbArc
 50
293.5909107106
 51
296.3039528614
  0
SPLINE
  5
33D
100
AcDbEntity
  8
0
100
AcDbSpline
 62
7
  6
CONTINUOUS
 70
0
 71
3
 72
9
 73
5
 74
0
 42
0.0000001
 43
0.0000001
 44
0.0000000001
 40
0.0
 40
0.0
 40
0.0
 40
0.0
 40
0.4865082157
 40
1.0
 40
1.0
 40
1.0
 40
1.0
 10
12.0760414342
 20
6.3688708219
 30
0.0
 10
12.0747279642
 20
6.3676021072
 30
0.0
 10
12.0719468229
 20
6.3650777023
 30
0.0
 10
12.0690335169
 20
6.3627079979
 30
0.0
 10
12.0675098836
 20
6.3615275038
 30
0.0
  0
SPLINE
  5
33E
100
AcDbEntity
  8
0
100
AcDbSpline
 62
7
  6
CONTINUOUS
 70
0
 71
3
 72
9
 73
5
 74
0
 42
0.0000001
 43
0.0000001
 44
0.0000000001
 40
0.0
 40
0.0
 40
0.0
 40
0.0
 40
0.4864210225
 40
1.0
 40
1.0
 40
1.0
 40
1.0
 10
12.0828390948
 20
6.3763343857
 30
0.0
 10
12.0818253878
 20
6.3750480356
 30
0.0
 10
12.0796388976
 20
6.3724832508
 30
0.0
 10
12.0772851785
 20
6.3700721867
 30
0.0
 10
12.0760414342
 20
6.3688708219
 30
0.0
  0
SPLINE
  5
33F
100
AcDbEntity
  8
0
100
AcDbSpline
 62
7
  6
CONTINUOUS
 70
0
 71
3
 72
9
 73
5
 74
0
 42
0.0000001
 43
0.0000001
 44
0.0000000001
 40
0.0
 40
0.0
 40
0.0
 40
0.0
 40
0.503991706
 40
1.0
 40
1.0
 40
1.0
 40
1.0
 10
12.0675098836
 20
6.3615275038
 30
0.0
 10
12.0580365361
 20
6.3557386286
 30
0.0
 10
12.0390211191
 20
6.3446054483
 30
0.0
 10
12.0195244542
 20
6.3343309348
 30
0.0
 10
12.0097283871
 20
6.3294916617
 30
0.0
  0
SPLINE
  5
340
100
AcDbEntity
  8
0
100
AcDbSpline
 62
7
  6
CONTINUOUS
 70
0
 71
3
 72
23
 73
19
 74
0
 42
0.0000001
 43
0.0000001
 44
0.0000000001
 40
0.0
 40
0.0
 40
0.0
 40
0.0
 40
0.0439943064
 40
0.0899281819
 40
0.1380403338
 40
0.1885309998
 40
0.2415683448
 40
0.2972701743
 40
0.3557174883
 40
0.4169406608
 40
0.4809367475
 40
0.5476614984
 40
0.617045644
 40
0.688992165
 40
0.7633891149
 40
0.8401121098
 40
0.9190285012
 40
1.0
 40
1.0
 40
1.0
 40
1.0
 10
11.206515405
 20
6.3251266269
 30
0.0
 10
11.2047715237
 20
6.3259880864
 30
0.0
 10
11.201271393
 20
6.3278823931
 30
0.0
 10
11.1961149208
 20
6.3311550678
 30
0.0
 10
11.1909515278
 20
6.3349271652
 30
0.0
 10
11.1857838084
 20
6.3392040315
 30
0.0
 10
11.1806159683
 20
6.3439892678
 30
0.0
 10
11.1754500776
 20
6.3492798771
 30
0.0
 10
11.1702904092
 20
6.3550705141
 30
0.0
 10
11.1651388447
 20
6.3613499503
 30
0.0
 10
11.1599991712
 20
6.3681047078
 30
0.0
 10
11.1548730069
 20
6.3753168728
 30
0.0
 10
11.1497632772
 20
6.3829669071
 30
0.0
 10
11.1446712101
 20
6.3910325911
 30
0.0
 10
11.1395986736
 20
6.3994910486
 30
0.0
 10
11.1345464214
 20
6.408318364
 30
0.0
 10
11.1295153937
 20
6.4174905993
 30
0.0
 10
11.1262163251
 20
6.4237427794
 30
0.0
 10
11.1245682596
 20
6.4269207276
 30
0.0
  0
SPLINE
  5
341
100
AcDbEntity
  8
0
100
AcDbSpline
 62
7
  6
CONTINUOUS
 70
0
 71
3
 72
46
 73
42
 74
0
 42
0.0000001
 43
0.0000001
 44
0.0000000001
 40
0.0
 40
0.0
 40
0.0
 40
0.0
 40
0.0099874435
 40
0.0204476157
 40
0.0313771114
 40
0.0427707225
 40
0.054621686
 40
0.0669224317
 40
0.0796639566
 40
0.0928360449
 40
0.1204269131
 40
0.1495981875
 40
0.1802403745
 40
0.2122335405
 40
0.2454486791
 40
0.2797494061
 40
0.3149926211
 40
0.3510295021
 40
0.387706851
 40
0.4248677397
 40
0.4623524596
 40
0.499999592
 40
0.537646712
 40
0.5751314595
 40
0.6122923998
 40
0.6489698028
 40
0.6850067986
 40
0.7202500982
 40
0.7545508962
 40
0.7877662248
 40
0.8197595459
 40
0.8504018313
 40
0.8795733387
 40
0.9071643906
 40
0.9330770134
 40
0.9453779539
 40
0.9572290359
 40
0.9686226679
 40
0.9795523026
 40
0.9900125123
 40
1.0
 40
1.0
 40
1.0
 40
1.0
 10
11.9845935448
 20
6.3170755709
 30
0.0
 10
11.9822765659
 20
6.3159310098
 30
0.0
 10
11.9774933731
 20
6.3136671598
 30
0.0
 10
11.9700538708
 20
6.3104135005
 30
0.0
 10
11.9621913311
 20
6.307227043
 30
0.0
 10
11.9539148968
 20
6.3041114836
 30
0.0
 10
11.9452340775
 20
6.3010702178
 30
0.0
 10
11.9361587631
 20
6.2981069844
 30
0.0
 10
11.9266993856
 20
6.2952251118
 30
0.0
 10
11.913382749
 20
6.2914367828
 30
0.0
 10
11.8958493845
 20
6.2869466232
 30
0.0
 10
11.8737751165
 20
6.2820123505
 30
0.0
 10
11.8504544306
 20
6.2774755337
 30
0.0
 10
11.8259948337
 20
6.2733573945
 30
0.0
 10
11.8005089302
 20
6.2696770924
 30
0.0
 10
11.7741142258
 20
6.266451958
 30
0.0
 10
11.7469324796
 20
6.2636971329
 30
0.0
 10
11.719089182
 20
6.2614253426
 30
0.0
 10
11.6907128957
 20
6.259647293
 30
0.0
 10
11.6619346625
 20
6.2583713529
 30
0.0
 10
11.6328874167
 20
6.2576033315
 30
0.0
 10
11.6037053518
 20
6.2573468866
 30
0.0
 10
11.5745232798
 20
6.257603296
 30
0.0
 10
11.545476014
 20
6.2583712137
 30
0.0
 10
11.516697744
 20
6.2596471135
 30
0.0
 10
11.4883213993
 20
6.2614251364
 30
0.0
 10
11.4604780276
 20
6.2636968235
 30
0.0
 10
11.4332962066
 20
6.2664516069
 30
0.0
 10
11.406901409
 20
6.2696767239
 30
0.0
 10
11.3814153879
 20
6.2733569283
 30
0.0
 10
11.3569556485
 20
6.2774750206
 30
0.0
 10
11.3336348986
 20
6.2820118529
 30
0.0
 10
11.311560252
 20
6.2869459729
 30
0.0
 10
11.2908333129
 20
6.2922542855
 30
0.0
 10
11.2744906424
 20
6.2970486475
 30
0.0
 10
11.2621753032
 20
6.3010694894
 30
0.0
 10
11.2534943792
 20
6.3041107721
 30
0.0
 10
11.2452178902
 20
6.307226376
 30
0.0
 10
11.2373552501
 20
6.3104127228
 30
0.0
 10
11.2299156633
 20
6.3136663338
 30
0.0
 10
11.2251324562
 20
6.3159302035
 30
0.0
 10
11.2228154642
 20
6.3170747636
 30
0.0
  0
SPLINE
  5
342
100
AcDbEntity
  8
0
100
AcDbSpline
 62
7
  6
CONTINUOUS
 70
0
 71
3
 72
9
 73
5
 74
0
 42
0.0000001
 43
0.0000001
 44
0.0000000001
 40
0.0
 40
0.0
 40
0.0
 40
0.0
 40
0.5132482879
 40
1.0
 40
1.0
 40
1.0
 40
1.0
 10
11.2795032991
 20
6.7274781907
 30
0.0
 10
11.2722885177
 20
6.7291318866
 30
0.0
 10
11.2582722734
 20
6.7325357461
 30
0.0
 10
11.2443609716
 20
6.7363484064
 30
0.0
 10
11.2376230716
 20
6.7383175774
 30
0.0
  0
SPLINE
  5
343
100
AcDbEntity
  8
0
100
AcDbSpline
 62
7
  6
CONTINUOUS
 70
0
 71
3
 72
17
 73
13
 74
0
 42
0.0000001
 43
0.0000001
 44
0.0000000001
 40
0.0
 40
0.0
 40
0.0
 40
0.0
 40
0.131593939
 40
0.2633887997
 40
0.3943193775
 40
0.5233296479
 40
0.64938366
 40
0.7714770019
 40
0.8307377895
 40
0.888652
 40
0.9451084391
 40
1.0
 40
1.0
 40
1.0
 40
1.0
 10
11.6509171416
 20
6.771663033
 30
0.0
 10
11.6376837352
 20
6.7712824107
 30
0.0
 10
11.6111863355
 20
6.7708439807
 30
0.0
 10
11.571513701
 20
6.7711407118
 30
0.0
 10
11.532119287
 20
6.7723870274
 30
0.0
 10
11.493344057
 20
6.7745718898
 30
0.0
 10
11.4555234611
 20
6.7776761
 30
0.0
 10
11.4247757681
 20
6.7810385203
 30
0.0
 10
11.4009098147
 20
6.7841823056
 30
0.0
 10
11.3836274525
 20
6.7867274356
 30
0.0
 10
11.3668218134
 20
6.7894775502
 30
0.0
 10
11.3557982106
 20
6.7914728815
 30
0.0
 10
11.3503733628
 20
6.7925058149
 30
0.0
  0
SPLINE
  5
344
100
AcDbEntity
  8
0
100
AcDbSpline
 62
7
  6
CONTINUOUS
 70
0
 71
3
 72
9
 73
5
 74
0
 42
0.0000001
 43
0.0000001
 44
0.0000000001
 40
0.0
 40
0.0
 40
0.0
 40
0.0
 40
0.5132482879
 40
1.0
 40
1.0
 40
1.0
 40
1.0
 10
11.2795032991
 20
6.3068789649
 30
0.0
 10
11.2722885177
 20
6.3085326609
 30
0.0
 10
11.2582722734
 20
6.3119365203
 30
0.0
 10
11.2443609716
 20
6.3157491807
 30
0.0
 10
11.2376230716
 20
6.3177183517
 30
0.0
  0
SPLINE
  5
345
100
AcDbEntity
  8
0
100
AcDbSpline
 62
7
  6
CONTINUOUS
 70
0
 71
3
 72
11
 73
7
 74
0
 42
0.0000001
 43
0.0000001
 44
0.0000000001
 40
0.0
 40
0.0
 40
0.0
 40
0.0
 40
0.2432253995
 40
0.4912799274
 40
0.7437055985
 40
1.0
 40
1.0
 40
1.0
 40
1.0
 10
11.8360239493
 20
6.7590337364
 30
0.0
 10
11.8293071172
 20
6.7550779632
 30
0.0
 10
11.8159788569
 20
6.7466771342
 30
0.0
 10
11.7964969748
 20
6.7329302399
 30
0.0
 10
11.7773259526
 20
6.7180620183
 30
0.0
 10
11.7648389603
 20
6.7075726289
 30
0.0
 10
11.7586387166
 20
6.7021850197
 30
0.0
  0
SPLINE
  5
346
100
AcDbEntity
  8
0
100
AcDbSpline
 62
7
  6
CONTINUOUS
 70
0
 71
3
 72
21
 73
17
 74
0
 42
0.0000001
 43
0.0000001
 44
0.0000000001
 40
0.0
 40
0.0
 40
0.0
 40
0.0
 40
0.1230814817
 40
0.1847942657
 40
0.2466337258
 40
0.3086097846
 40
0.3707312098
 40
0.4330051319
 40
0.4954352436
 40
0.5580223626
 40
0.6207641208
 40
0.6836547008
 40
0.7466862848
 40
0.8098488395
 40
0.8731308835
 40
1.0
 40
1.0
 40
1.0
 40
1.0
 10
11.701429278
 20
6.2776182989
 30
0.0
 10
11.6841766374
 20
6.2743659155
 30
0.0
 10
11.6581454998
 20
6.270115197
 30
0.0
 10
11.6232089096
 20
6.2659478476
 30
0.0
 10
11.596842212
 20
6.2636258012
 30
0.0
 10
11.5703551452
 20
6.2621661011
 30
0.0
 10
11.5437710861
 20
6.2616159593
 30
0.0
 10
11.5171192218
 20
6.2620123909
 30
0.0
 10
11.4904327289
 20
6.2633773786
 30
0.0
 10
11.4637469571
 20
6.2657162021
 30
0.0
 10
11.437097254
 20
6.2690184914
 30
0.0
 10
11.4105165899
 20
6.2732575111
 30
0.0
 10
11.3840337466
 20
6.2783921523
 30
0.0
 10
11.3576718692
 20
6.2843719002
 30
0.0
 10
11.3226811947
 20
6.2934010198
 30
0.0
 10
11.2967027362
 20
6.3012510411
 30
0.0
 10
11.2795032991
 20
6.3068789649
 30
0.0
  0
SPLINE
  5
347
100
AcDbEntity
  8
0
100
AcDbSpline
 62
7
  6
CONTINUOUS
 70
0
 71
3
 72
28
 73
24
 74
0
 42
0.0000001
 43
0.0000001
 44
0.0000000001
 40
0.0
 40
0.0
 40
0.0
 40
0.0
 40
0.0640274484
 40
0.1279405369
 40
0.1917105404
 40
0.2553123355
 40
0.3187161223
 40
0.3818930725
 40
0.4133919091
 40
0.4448254452
 40
0.4761912782
 40
0.5074882562
 40
0.5387156619
 40
0.5698732312
 40
0.6009621492
 40
0.6319833386
 40
0.6938248821
 40
0.7554274775
 40
0.8168179251
 40
0.8780243018
 40
0.9085700262
 40
0.9390802882
 40
1.0
 40
1.0
 40
1.0
 40
1.0
 10
11.701429278
 20
6.6982175246
 30
0.0
 10
11.6931284273
 20
6.7025006483
 30
0.0
 10
11.6763973676
 20
6.7107840356
 30
0.0
 10
11.6508782013
 20
6.722246022
 30
0.0
 10
11.624954423
 20
6.7326002844
 30
0.0
 10
11.5986412479
 20
6.7417023404
 30
0.0
 10
11.5719734182
 20
6.7494058148
 30
0.0
 10
11.5494779861
 20
6.7545500467
 30
0.0
 10
11.531373914
 20
6.7578371021
 30
0.0
 10
11.5177666586
 20
6.7598758288
 30
0.0
 10
11.504131331
 20
6.761482506
 30
0.0
 10
11.4904814799
 20
6.7626495829
 30
0.0
 10
11.4768315465
 20
6.7633767327
 30
0.0
 10
11.4631956391
 20
6.7636622651
 30
0.0
 10
11.4495875897
 20
6.7635117916
 30
0.0
 10
11.4315187653
 20
6.762738516
 30
0.0
 10
11.4090592758
 20
6.7607231122
 30
0.0
 10
11.382378319
 20
6.7567220057
 30
0.0
 10
11.3560519573
 20
6.7512712914
 30
0.0
 10
11.3344234847
 20
6.7456354665
 30
0.0
 10
11.3173278898
 20
6.7405441084
 30
0.0
 10
11.3003873686
 20
6.7350938803
 30
0.0
 10
11.2878185241
 20
6.7306154057
 30
0.0
 10
11.2795032991
 20
6.7274781907
 30
0.0
  0
SPLINE
  5
348
100
AcDbEntity
  8
0
100
AcDbSpline
 62
7
  6
CONTINUOUS
 70
0
 71
3
 72
13
 73
9
 74
0
 42
0.0000001
 43
0.0000001
 44
0.0000000001
 40
0.0
 40
0.0
 40
0.0
 40
0.0
 40
0.2392401476
 40
0.3604630295
 40
0.4832816768
 40
0.6081576999
 40
0.7355839368
 40
1.0
 40
1.0
 40
1.0
 40
1.0
 10
11.2376230716
 20
6.3177183517
 30
0.0
 10
11.2350510601
 20
6.3177275038
 30
0.0
 10
11.2311718337
 20
6.3179463957
 30
0.0
 10
11.2260254741
 20
6.3186752135
 30
0.0
 10
11.2221347149
 20
6.3194569521
 30
0.0
 10
11.2182316966
 20
6.3204816833
 30
0.0
 10
11.2129484779
 20
6.3222058881
 30
0.0
 10
11.2090640815
 20
6.3238676069
 30
0.0
 10
11.206515405
 20
6.3251266269
 30
0.0
  0
SPLINE
  5
349
100
AcDbEntity
  8
0
100
AcDbSpline
 62
7
  6
CONTINUOUS
 70
0
 71
3
 72
14
 73
10
 74
0
 42
0.0000001
 43
0.0000001
 44
0.0000000001
 40
0.0
 40
0.0
 40
0.0
 40
0.0
 40
0.2696294493
 40
0.4000826278
 40
0.5273422312
 40
0.6511852899
 40
0.7713928731
 40
0.8877388029
 40
1.0
 40
1.0
 40
1.0
 40
1.0
 10
11.2376230716
 20
6.7383175774
 30
0.0
 10
11.2353828618
 20
6.7442155809
 30
0.0
 10
11.2319718618
 20
6.7529348182
 30
0.0
 10
11.2272606745
 20
6.7643397509
 30
0.0
 10
11.2237380573
 20
6.7725439083
 30
0.0
 10
11.2201874299
 20
6.7804740638
 30
0.0
 10
11.2166091507
 20
6.78811078
 30
0.0
 10
11.2130041011
 20
6.7954340503
 30
0.0
 10
11.2105379331
 20
6.8001815081
 30
0.0
 10
11.2092980831
 20
6.8024973189
 30
0.0
  0
SPLINE
  5
34A
100
AcDbEntity
  8
0
100
AcDbSpline
 62
7
  6
CONTINUOUS
 70
0
 71
3
 72
15
 73
11
 74
0
 42
0.0000001
 43
0.0000001
 44
0.0000000001
 40
0.0
 40
0.0
 40
0.0
 40
0.0
 40
0.1319943798
 40
0.2615530082
 40
0.3887795478
 40
0.5138991626
 40
0.6372282088
 40
0.759125931
 40
0.8799459217
 40
1.0
 40
1.0
 40
1.0
 40
1.0
 10
11.9843023616
 20
6.3176636997
 30
0.0
 10
11.9749803544
 20
6.3136014175
 30
0.0
 10
11.9562794724
 20
6.3060622345
 30
0.0
 10
11.9278409127
 20
6.2966007939
 30
0.0
 10
11.8993449249
 20
6.2891874183
 30
0.0
 10
11.8708764255
 20
6.283848544
 30
0.0
 10
11.8425164758
 20
6.2805336715
 30
0.0
 10
11.8143322091
 20
6.2791257434
 30
0.0
 10
11.7863710472
 20
6.2794610795
 30
0.0
 10
11.7678474202
 20
6.2807254085
 30
0.0
 10
11.7586387166
 20
6.281585794
 30
0.0
  0
SPLINE
  5
34B
100
AcDbEntity
  8
0
100
AcDbSpline
 62
7
  6
CONTINUOUS
 70
0
 71
3
 72
86
 73
82
 74
0
 42
0.0000001
 43
0.0000001
 44
0.0000000001
 40
0.0
 40
0.0
 40
0.0
 40
0.0
 40
0.0039801735
 40
0.0081241171
 40
0.0124359931
 40
0.016919361
 40
0.0215772361
 40
0.0264119817
 40
0.0314252561
 40
0.0366182449
 40
0.0419916453
 40
0.0475457694
 40
0.0532805541
 40
0.0591955582
 40
0.0652900785
 40
0.0715630739
 40
0.0846387684
 40
0.0984101018
 40
0.112860694
 40
0.1279712428
 40
0.1437198619
 40
0.1600823544
 40
0.1770324406
 40
0.1945419645
 40
0.2125810668
 40
0.2311183398
 40
0.2501209668
 40
0.2695548486
 40
0.289384725
 40
0.3095742955
 40
0.3300863312
 40
0.3508827821
 40
0.3719248818
 40
0.3931732491
 40
0.4145879914
 40
0.4577543474
 40
0.501099203
 40
0.5442952951
 40
0.5657359749
 40
0.587017582
 40
0.6081001434
 40
0.6289441761
 40
0.6495107926
 40
0.6697618048
 40
0.6896598276
 40
0.709168385
 40
0.7282520204
 40
0.7468764117
 40
0.7650084972
 40
0.7826166038
 40
0.7996705814
 40
0.8161419537
 40
0.8320040874
 40
0.8472323859
 40
0.8618045214
 40
0.8757007003
 40
0.8889039845
 40
0.9014006969
 40
0.9073810972
 40
0.9131815075
 40
0.9188013673
 40
0.9242405009
 40
0.9294990443
 40
0.9345775709
 40
0.9394770909
 40
0.9441990928
 40
0.9487456636
 40
0.9531194621
 40
0.9573238984
 40
0.9613631411
 40
0.9652422549
 40
0.9689673208
 40
0.9725454977
 40
0.9759852252
 40
0.9824864215
 40
0.9855752926
 40
0.9885737717
 40
0.9914977072
 40
0.9943643167
 40
0.9971920017
 40
1.0
 40
1.0
 40
1.0
 40
1.0
 10
11.211537751
 20
10.471162682
 30
0.0
 10
11.2105474736
 20
10.4702061474
 30
0.0
 10
11.2084812003
 20
10.4682998394
 30
0.0
 10
11.2052005885
 20
10.4655155259
 30
0.0
 10
11.2016790656
 20
10.4627511735
 30
0.0
 10
11.1979185647
 20
10.4600082714
 30
0.0
 10
11.1939209324
 20
10.4572880874
 30
0.0
 10
11.1896881134
 20
10.4545919586
 30
0.0
 10
11.1852222295
 20
10.4519211587
 30
0.0
 10
11.180525494
 20
10.4492770777
 30
0.0
 10
11.1756002762
 20
10.4466610006
 30
0.0
 10
11.1704490351
 20
10.4440742448
 30
0.0
 10
11.1650743467
 20
10.4415181195
 30
0.0
 10
11.1594789212
 20
10.4389938803
 30
0.0
 10
11.1536655501
 20
10.4365028261
 30
0.0
 10
11.1455146947
 20
10.4331813251
 30
0.0
 10
11.1347956366
 20
10.4291304342
 30
0.0
 10
11.1212841448
 20
10.4244860288
 30
0.0
 10
11.1069790132
 20
10.4200028835
 30
0.0
 10
11.0919090826
 20
10.4156901105
 30
0.0
 10
11.0761046041
 20
10.4115564893
 30
0.0
 10
11.0595974146
 20
10.4076104399
 30
0.0
 10
11.0424207938
 20
10.403859998
 30
0.0
 10
11.0246094063
 20
10.4003128028
 30
0.0
 10
11.0061992181
 20
10.3969760794
 30
0.0
 10
10.9872274216
 20
10.3938566235
 30
0.0
 10
10.9677323582
 20
10.3909607883
 30
0.0
 10
10.9477534403
 20
10.3882944699
 30
0.0
 10
10.9273310698
 20
10.3858630918
 30
0.0
 10
10.9065065521
 20
10.3836716003
 30
0.0
 10
10.8853220111
 20
10.3817244537
 30
0.0
 10
10.863820299
 20
10.3800256116
 30
0.0
 10
10.8420449266
 20
10.378578537
 30
0.0
 10
10.8200399142
 20
10.3773861495
 30
0.0
 10
10.790375773
 20
10.3761359649
 30
0.0
 10
10.7530495898
 20
10.3752278845
 30
0.0
 10
10.7081778065
 20
10.375180538
 30
0.0
 10
10.6708305327
 20
10.3760096928
 30
0.0
 10
10.6411330244
 20
10.3771968624
 30
0.0
 10
10.6190910254
 20
10.3783426507
 30
0.0
 10
10.5972705997
 20
10.3797436032
 30
0.0
 10
10.5757158599
 20
10.3813968972
 30
0.0
 10
10.5544704259
 20
10.3832991641
 30
0.0
 10
10.5335772742
 20
10.3854465342
 30
0.0
 10
10.5130786671
 20
10.3878346382
 30
0.0
 10
10.4930160638
 20
10.3904586175
 30
0.0
 10
10.4734300363
 20
10.3933131327
 30
0.0
 10
10.454360185
 20
10.3963923762
 30
0.0
 10
10.4358450539
 20
10.3996900779
 30
0.0
 10
10.4179220497
 20
10.4031995202
 30
0.0
 10
10.4006273658
 20
10.4069135545
 30
0.0
 10
10.3839959063
 20
10.410824615
 30
0.0
 10
10.3680612119
 20
10.4149247352
 30
0.0
 10
10.3528553769
 20
10.4192055672
 30
0.0
 10
10.3384089954
 20
10.4236583954
 30
0.0
 10
10.3247510057
 20
10.4282741661
 30
0.0
 10
10.311908908
 20
10.4330435086
 30
0.0
 10
10.3017648118
 20
10.4371965018
 30
0.0
 10
10.2940851939
 20
10.4405961683
 30
0.0
 10
10.2886298858
 20
10.4431408489
 30
0.0
 10
10.2833970669
 20
10.4457166238
 30
0.0
 10
10.2783893375
 20
10.4483221741
 30
0.0
 10
10.2736092216
 20
10.4509562287
 30
0.0
 10
10.2690591028
 20
10.453617455
 30
0.0
 10
10.2647412477
 20
10.4563045224
 30
0.0
 10
10.2606578263
 20
10.4590161372
 30
0.0
 10
10.256810843
 20
10.4617509169
 30
0.0
 10
10.2532022421
 20
10.464507586
 30
0.0
 10
10.249833791
 20
10.4672847751
 30
0.0
 10
10.2467071837
 20
10.4700811742
 30
0.0
 10
10.2438239816
 20
10.4728955093
 30
0.0
 10
10.241185675
 20
10.4757263444
 30
0.0
 10
10.2387934619
 20
10.4785727833
 30
0.0
 10
10.2359871131
 20
10.4823154727
 30
0.0
 10
10.2336041009
 20
10.4861590801
 30
0.0
 10
10.2317120612
 20
10.4900847392
 30
0.0
 10
10.2305689159
 20
10.492988067
 30
0.0
 10
10.229678662
 20
10.495898445
 30
0.0
 10
10.229042128
 20
10.4988144891
 30
0.0
 10
10.2286599064
 20
10.5017340934
 30
0.0
 10
10.2285748173
 20
10.5036846233
 30
0.0
 10
10.2285748129
 20
10.5046559584
 30
0.0
  0
SPLINE
  5
34C
100
AcDbEntity
  8
0
100
AcDbSpline
 62
7
  6
CONTINUOUS
 70
0
 71
3
 72
18
 73
14
 74
0
 42
0.0000001
 43
0.0000001
 44
0.0000000001
 40
0.0
 40
0.0
 40
0.0
 40
0.0
 40
0.150467608
 40
0.291710008
 40
0.4244359371
 40
0.549562455
 40
0.6682139939
 40
0.7255497488
 40
0.7817912909
 40
0.8371402503
 40
0.8918093826
 40
0.9460201179
 40
1.0
 40
1.0
 40
1.0
 40
1.0
 10
12.4488888253
 20
9.4455062439
 30
0.0
 10
12.4505568087
 20
9.4471173923
 30
0.0
 10
12.4538904073
 20
9.4501403213
 30
0.0
 10
12.4590524578
 20
9.4541688904
 30
0.0
 10
12.4642084452
 20
9.4575381825
 30
0.0
 10
12.4693530312
 20
9.4602426671
 30
0.0
 10
12.4736769992
 20
9.4619576157
 30
0.0
 10
12.4771100387
 20
9.4629765355
 30
0.0
 10
12.47964825
 20
9.4635638264
 30
0.0
 10
12.4821780405
 20
9.4639824037
 30
0.0
 10
12.4846987014
 20
9.4642321192
 30
0.0
 10
12.4872092302
 20
9.464312843
 30
0.0
 10
12.4888771533
 20
9.4642538505
 30
0.0
 10
12.4897071117
 20
9.4641962962
 30
0.0
  0
SPLINE
  5
34D
100
AcDbEntity
  8
0
100
AcDbSpline
 62
7
  6
CONTINUOUS
 70
0
 71
3
 72
21
 73
17
 74
0
 42
0.0000001
 43
0.0000001
 44
0.0000000001
 40
0.0
 40
0.0
 40
0.0
 40
0.0
 40
0.1273176366
 40
0.2537999756
 40
0.3167619475
 40
0.3795355041
 40
0.4421314991
 40
0.5045621439
 40
0.5668413432
 40
0.6289845283
 40
0.6910084528
 40
0.7529310935
 40
0.8147714495
 40
0.8765493365
 40
0.9382852194
 40
1.0
 40
1.0
 40
1.0
 40
1.0
 10
11.487340424
 20
9.982232838
 30
0.0
 10
11.487340424
 20
9.9769355881
 30
0.0
 10
11.4868347666
 20
9.9663690238
 30
0.0
 10
11.4849250625
 20
9.9533064674
 30
0.0
 10
11.4826425415
 20
9.9430600338
 30
0.0
 10
11.480561005
 20
9.9355022607
 30
0.0
 10
11.4781122174
 20
9.9280787767
 30
0.0
 10
11.4753017896
 20
9.9208064968
 30
0.0
 10
11.4721362222
 20
9.9137022349
 30
0.0
 10
11.4686227709
 20
9.9067823746
 30
0.0
 10
11.4647695176
 20
9.9000628903
 30
0.0
 10
11.460585371
 20
9.8935592583
 30
0.0
 10
11.4560799687
 20
9.8872865056
 30
0.0
 10
11.4512636214
 20
9.8812590737
 30
0.0
 10
11.4461476628
 20
9.8754910271
 30
0.0
 10
11.4425444596
 20
9.8718267871
 30
0.0
 10
11.4406976008
 20
9.8700428582
 30
0.0
  0
SPLINE
  5
34E
100
AcDbEntity
  8
0
100
AcDbSpline
 62
7
  6
CONTINUOUS
 70
0
 71
3
 72
21
 73
17
 74
0
 42
0.0000001
 43
0.0000001
 44
0.0000000001
 40
0.0
 40
0.0
 40
0.0
 40
0.0
 40
0.1273176366
 40
0.2537999756
 40
0.3167619475
 40
0.3795355041
 40
0.4421314991
 40
0.5045621439
 40
0.5668413432
 40
0.6289845283
 40
0.6910084528
 40
0.7529310935
 40
0.8147714495
 40
0.8765493365
 40
0.9382852194
 40
1.0
 40
1.0
 40
1.0
 40
1.0
 10
10.5214145405
 20
7.1514423462
 30
0.0
 10
10.5214145405
 20
7.1461450962
 30
0.0
 10
10.5209088831
 20
7.135578532
 30
0.0
 10
10.518999179
 20
7.1225159756
 30
0.0
 10
10.516716658
 20
7.1122695419
 30
0.0
 10
10.5146351215
 20
7.1047117688
 30
0.0
 10
10.5121863339
 20
7.0972882849
 30
0.0
 10
10.5093759061
 20
7.090016005
 30
0.0
 10
10.5062103387
 20
7.0829117431
 30
0.0
 10
10.5026968873
 20
7.0759918827
 30
0.0
 10
10.4988436341
 20
7.0692723985
 30
0.0
 10
10.4946594875
 20
7.0627687665
 30
0.0
 10
10.4901540852
 20
7.0564960138
 30
0.0
 10
10.4853377379
 20
7.0504685819
 30
0.0
 10
10.4802217793
 20
7.0447005353
 30
0.0
 10
10.476618576
 20
7.0410362953
 30
0.0
 10
10.4747717172
 20
7.0392523664
 30
0.0
  0
SPLINE
  5
34F
100
AcDbEntity
  8
0
100
AcDbSpline
 62
7
  6
CONTINUOUS
 70
0
 71
3
 72
39
 73
35
 74
0
 42
0.0000001
 43
0.0000001
 44
0.0000000001
 40
0.0
 40
0.0
 40
0.0
 40
0.0
 40
0.0321624082
 40
0.0640912178
 40
0.0957948614
 40
0.1272917745
 40
0.1586111408
 40
0.1897904539
 40
0.2208735529
 40
0.2519083328
 40
0.2829447797
 40
0.3140333138
 40
0.3452232701
 40
0.3765616776
 40
0.4080920796
 40
0.4398530315
 40
0.4718763116
 40
0.5041843969
 40
0.5367867109
 40
0.5696746057
 40
0.6028151261
 40
0.6361439433
 40
0.6695591015
 40
0.7029182158
 40
0.7360427339
 40
0.7687317544
 40
0.8007853076
 40
0.8320313912
 40
0.8623488147
 40
0.891679833
 40
0.9200302229
 40
0.947460537
 40
0.9740732733
 40
1.0
 40
1.0
 40
1.0
 40
1.0
 10
10.7153087537
 20
7.7954897715
 30
0.0
 10
10.7153087537
 20
7.7909099764
 30
0.0
 10
10.7156725935
 20
7.7817792636
 30
0.0
 10
10.717316424
 20
7.7682235246
 30
0.0
 10
10.7200342984
 20
7.7549376152
 30
0.0
 10
10.7237912631
 20
7.741998287
 30
0.0
 10
10.7285418292
 20
7.7294701395
 30
0.0
 10
10.734233292
 20
7.7174063153
 30
0.0
 10
10.7408087772
 20
7.7058481262
 30
0.0
 10
10.7482100948
 20
7.6948260329
 30
0.0
 10
10.756380013
 20
7.6843610191
 30
0.0
 10
10.7652639166
 20
7.6744663041
 30
0.0
 10
10.7748108327
 20
7.6651491299
 30
0.0
 10
10.7849738839
 20
7.6564125051
 30
0.0
 10
10.7957102236
 20
7.6482568249
 30
0.0
 10
10.8069804997
 20
7.6406813402
 30
0.0
 10
10.818747852
 20
7.6336854853
 30
0.0
 10
10.8309763983
 20
7.6272700813
 30
0.0
 10
10.8436291304
 20
7.6214384308
 30
0.0
 10
10.8566651664
 20
7.6161972437
 30
0.0
 10
10.8700364257
 20
7.6115572923
 30
0.0
 10
10.8836840102
 20
7.6075336018
 30
0.0
 10
10.8975349618
 20
7.6041449475
 30
0.0
 10
10.9115005424
 20
7.601412423
 30
0.0
 10
10.9254773646
 20
7.5993571034
 30
0.0
 10
10.9393523375
 20
7.5979970859
 30
0.0
 10
10.9530110979
 20
7.5973447397
 30
0.0
 10
10.966348027
 20
7.5974050749
 30
0.0
 10
10.9792749818
 20
7.5981757376
 30
0.0
 10
10.9917263469
 20
7.5996485679
 30
0.0
 10
11.0036594294
 20
7.6018121227
 30
0.0
 10
11.0150515782
 20
7.6046544474
 30
0.0
 10
11.0258937593
 20
7.6081645431
 30
0.0
 10
11.0328351016
 20
7.6109766763
 30
0.0
 10
11.0362021492
 20
7.6124908814
 30
0.0
  0
SPLINE
  5
350
100
AcDbEntity
  8
0
100
AcDbSpline
 62
7
  6
CONTINUOUS
 70
0
 71
3
 72
21
 73
17
 74
0
 42
0.0000001
 43
0.0000001
 44
0.0000000001
 40
0.0
 40
0.0
 40
0.0
 40
0.0
 40
0.12731758
 40
0.2538000122
 40
0.3167619425
 40
0.3795355005
 40
0.4421315041
 40
0.5045621466
 40
0.5668413435
 40
0.6289845285
 40
0.6910084568
 40
0.7529310961
 40
0.8147714484
 40
0.8765493394
 40
0.9382852242
 40
1.0
 40
1.0
 40
1.0
 40
1.0
 10
11.0599070911
 20
7.706346225
 30
0.0
 10
11.0599070911
 20
7.6998478565
 30
0.0
 10
11.0592867756
 20
7.6868853821
 30
0.0
 10
11.0569440661
 20
7.6708609637
 30
0.0
 10
11.0541439902
 20
7.6582912075
 30
0.0
 10
11.0515904699
 20
7.649019756
 30
0.0
 10
11.0485864455
 20
7.6399130347
 30
0.0
 10
11.0451387662
 20
7.630991807
 30
0.0
 10
11.0412554126
 20
7.6222766996
 30
0.0
 10
11.036945316
 20
7.6137877952
 30
0.0
 10
11.0322183633
 20
7.605544703
 30
0.0
 10
11.027085471
 20
7.5975664183
 30
0.0
 10
11.0215584956
 20
7.5898713542
 30
0.0
 10
11.0156500839
 20
7.5824772234
 30
0.0
 10
11.0093740918
 20
7.5754013215
 30
0.0
 10
11.0049538896
 20
7.570906229
 30
0.0
 10
11.0026882602
 20
7.5687178107
 30
0.0
  0
SPLINE
  5
351
100
AcDbEntity
  8
0
100
AcDbSpline
 62
7
  6
CONTINUOUS
 70
0
 71
3
 72
41
 73
37
 74
0
 42
0.0000001
 43
0.0000001
 44
0.0000000001
 40
0.0
 40
0.0
 40
0.0
 40
0.0
 40
0.0310750003
 40
0.046674464
 40
0.062312494
 40
0.0936974057
 40
0.1252262387
 40
0.1568876805
 40
0.1886675201
 40
0.2205491599
 40
0.2525139229
 40
0.268523588
 40
0.2845462912
 40
0.3166149974
 40
0.3487024468
 40
0.3807858411
 40
0.4128424624
 40
0.4448501254
 40
0.4767876212
 40
0.5086351486
 40
0.5403747235
 40
0.5719905626
 40
0.6034694315
 40
0.6348009518
 40
0.6659778585
 40
0.6969962
 40
0.7278554736
 40
0.7585586902
 40
0.7891123605
 40
0.8195263996
 40
0.849813947
 40
0.8799911023
 40
0.9100765789
 40
0.9400912834
 40
0.9700578297
 40
1.0
 40
1.0
 40
1.0
 40
1.0
 10
11.0599070911
 20
7.706346225
 30
0.0
 10
11.0599070911
 20
7.7113970852
 30
0.0
 10
11.0596247596
 20
7.7189872597
 30
0.0
 10
11.0586923251
 20
7.7290739706
 30
0.0
 10
11.0573857933
 20
7.739170338
 30
0.0
 10
11.0550567518
 20
7.7517360312
 30
0.0
 10
11.0511719077
 20
7.7666223755
 30
0.0
 10
11.046214955
 20
7.7812548441
 30
0.0
 10
11.0402132004
 20
7.7955527423
 30
0.0
 10
11.0331999534
 20
7.8094373521
 30
0.0
 10
11.0265472389
 20
7.8205957016
 30
0.0
 10
11.0207608544
 20
7.8292418426
 30
0.0
 10
11.0146679029
 20
7.8376955971
 30
0.0
 10
11.00650143
 20
7.8478661312
 30
0.0
 10
10.9958791658
 20
7.8593656443
 30
0.0
 10
10.9844885475
 20
7.8701022784
 30
0.0
 10
10.9723923595
 20
7.8800167044
 30
0.0
 10
10.9596569046
 20
7.8890545797
 30
0.0
 10
10.9463520802
 20
7.8971662209
 30
0.0
 10
10.9325508821
 20
7.9043070415
 30
0.0
 10
10.9183290406
 20
7.910437751
 30
0.0
 10
10.9037646025
 20
7.9155245817
 30
0.0
 10
10.8889375106
 20
7.9195394722
 30
0.0
 10
10.8739291706
 20
7.9224602242
 30
0.0
 10
10.8588220113
 20
7.9242706276
 30
0.0
 10
10.8436990373
 20
7.9249605553
 30
0.0
 10
10.8286433787
 20
7.9245260255
 30
0.0
 10
10.8137378384
 20
7.9229692317
 30
0.0
 10
10.7990644391
 20
7.9202985443
 30
0.0
 10
10.7847039698
 20
7.9165284715
 30
0.0
 10
10.7707355463
 20
7.9116795974
 30
0.0
 10
10.7572361428
 20
7.9057784525
 30
0.0
 10
10.7442802601
 20
7.8988574765
 30
0.0
 10
10.7319391304
 20
7.8909544782
 30
0.0
 10
10.7202817025
 20
7.8821137993
 30
0.0
 10
10.7130056279
 20
7.8756243689
 30
0.0
 10
10.7095051992
 20
7.8722432323
 30
0.0
  0
SPLINE
  5
352
100
AcDbEntity
  8
0
100
AcDbSpline
 62
7
  6
CONTINUOUS
 70
0
 71
3
 72
18
 73
14
 74
0
 42
0.0000001
 43
0.0000001
 44
0.0000000001
 40
0.0
 40
0.0
 40
0.0
 40
0.0
 40
0.0548621106
 40
0.1099281304
 40
0.165399556
 40
0.2214731722
 40
0.2783387379
 40
0.3361775111
 40
0.4554063056
 40
0.5804414047
 40
0.7123341351
 40
0.8519581983
 40
1.0
 40
1.0
 40
1.0
 40
1.0
 10
11.2285748055
 20
10.5046565932
 30
0.0
 10
11.2285748087
 20
10.5039504472
 30
0.0
 10
11.2285299962
 20
10.5025351251
 30
0.0
 10
11.2283285
 20
10.5004144421
 30
0.0
 10
11.2279927496
 20
10.4982949828
 30
0.0
 10
11.2275228719
 20
10.4961775206
 30
0.0
 10
11.2269190649
 20
10.4940625844
 30
0.0
 10
11.2259259143
 20
10.491218566
 30
0.0
 10
11.2243348972
 20
10.4876614636
 30
0.0
 10
11.2219132639
 20
10.4834605074
 30
0.0
 10
11.2189638313
 20
10.4792867368
 30
0.0
 10
11.2154910864
 20
10.4751443581
 30
0.0
 10
11.2129082823
 20
10.4724865137
 30
0.0
 10
11.211537751
 20
10.471162682
 30
0.0
  0
SPLINE
  5
353
100
AcDbEntity
  8
0
100
AcDbSpline
 62
7
  6
CONTINUOUS
 70
0
 71
3
 72
18
 73
14
 74
0
 42
0.0000001
 43
0.0000001
 44
0.0000000001
 40
0.0
 40
0.0
 40
0.0
 40
0.0
 40
0.1264462569
 40
0.1896026429
 40
0.2526949132
 40
0.378620474
 40
0.5041365625
 40
0.6291322962
 40
0.6914112289
 40
0.7535196859
 40
0.8154443188
 40
0.8771759799
 40
1.0
 40
1.0
 40
1.0
 40
1.0
 10
10.7476691957
 20
7.9005658359
 30
0.0
 10
10.7451280424
 20
7.8966154431
 30
0.0
 10
10.7415027204
 20
7.8905695192
 30
0.0
 10
10.7370725939
 20
7.8822923311
 30
0.0
 10
10.7329263283
 20
7.8738906546
 30
0.0
 10
10.7282846537
 20
7.8631574109
 30
0.0
 10
10.7236327798
 20
7.8499585302
 30
0.0
 10
10.720561747
 20
7.8387406722
 30
0.0
 10
10.7186144051
 20
7.8296819226
 30
0.0
 10
10.7174140436
 20
7.8228641318
 30
0.0
 10
10.7164760911
 20
7.8160256812
 30
0.0
 10
10.715581121
 20
7.8069119636
 30
0.0
 10
10.7153087537
 20
7.8000523487
 30
0.0
 10
10.7153087537
 20
7.7954897715
 30
0.0
  0
SPLINE
  5
354
100
AcDbEntity
  8
0
100
AcDbSpline
 62
7
  6
CONTINUOUS
 70
0
 71
3
 72
42
 73
38
 74
0
 42
0.0000001
 43
0.0000001
 44
0.0000000001
 40
0.0
 40
0.0
 40
0.0
 40
0.0
 40
0.0299419663
 40
0.0449235352
 40
0.0599142051
 40
0.0899287052
 40
0.1200139767
 40
0.135092661
 40
0.150196701
 40
0.1804840414
 40
0.210897872
 40
0.2414513324
 40
0.2721543376
 40
0.3030133986
 40
0.3340315263
 40
0.3652082187
 40
0.3965395244
 40
0.4280181782
 40
0.4596338019
 40
0.4913731609
 40
0.5232204716
 40
0.55515775
 40
0.5871651943
 40
0.6192215961
 40
0.6513047701
 40
0.6833919991
 40
0.7154604852
 40
0.7474878032
 40
0.7794523473
 40
0.8113337692
 40
0.8431133916
 40
0.8747746171
 40
0.9063032365
 40
0.9376879249
 40
0.9533258257
 40
0.968925233
 40
1.0
 40
1.0
 40
1.0
 40
1.0
 10
11.2017047434
 20
10.1174664103
 30
0.0
 10
11.2045581661
 20
10.1202226054
 30
0.0
 10
11.209006475
 20
10.1241899127
 30
0.0
 10
11.2152362624
 20
10.1291124518
 30
0.0
 10
11.2216644239
 20
10.1337900586
 30
0.0
 10
11.2300521325
 20
10.1391614602
 30
0.0
 10
11.2388476667
 20
10.1438598753
 30
0.0
 10
11.2461016882
 20
10.1472023753
 30
0.0
 10
11.2535055842
 20
10.150268893
 30
0.0
 10
11.263004428
 20
10.1535663195
 30
0.0
 10
11.2747103278
 20
10.1566394321
 30
0.0
 10
11.2866716543
 20
10.1588165163
 30
0.0
 10
11.2988221226
 20
10.1600855534
 30
0.0
 10
11.3110949867
 20
10.160439773
 30
0.0
 10
11.3234227178
 20
10.1598773715
 30
0.0
 10
11.3357375596
 20
10.1584015976
 30
0.0
 10
11.3479718474
 20
10.1560207049
 30
0.0
 10
11.3600583884
 20
10.1527479065
 30
0.0
 10
11.3719308228
 20
10.1486012975
 30
0.0
 10
11.3835239837
 20
10.1436037521
 30
0.0
 10
11.3947742493
 20
10.1377827968
 30
0.0
 10
11.4056198879
 20
10.1311704594
 30
0.0
 10
11.4160013918
 20
10.1238030923
 30
0.0
 10
11.4258617998
 20
10.1157211738
 30
0.0
 10
11.4351470055
 20
10.1069690877
 30
0.0
 10
11.4438060516
 20
10.0975948815
 30
0.0
 10
11.451791406
 20
10.0876500054
 30
0.0
 10
11.4590592202
 20
10.0771890321
 30
0.0
 10
11.4655695682
 20
10.0662693639
 30
0.0
 10
11.4712866637
 20
10.0549509087
 30
0.0
 10
11.4761790549
 20
10.0432958021
 30
0.0
 10
11.4802198042
 20
10.0313678985
 30
0.0
 10
11.4833865929
 20
10.0192330624
 30
0.0
 10
11.4852851499
 20
10.0089899408
 30
0.0
 10
11.4863501874
 20
10.0007597235
 30
0.0
 10
11.4871102769
 20
9.9925373797
 30
0.0
 10
11.487340424
 20
9.9863501243
 30
0.0
 10
11.487340424
 20
9.982232838
 30
0.0
  0
SPLINE
  5
355
100
AcDbEntity
  8
0
100
AcDbSpline
 62
7
  6
CONTINUOUS
 70
0
 71
3
 72
42
 73
38
 74
0
 42
0.0000001
 43
0.0000001
 44
0.0000000001
 40
0.0
 40
0.0
 40
0.0
 40
0.0
 40
0.0299419663
 40
0.0449235352
 40
0.0599142051
 40
0.0899287052
 40
0.1200139767
 40
0.135092661
 40
0.150196701
 40
0.1804840414
 40
0.210897872
 40
0.2414513324
 40
0.2721543376
 40
0.3030133986
 40
0.3340315263
 40
0.3652082187
 40
0.3965395244
 40
0.4280181782
 40
0.4596338019
 40
0.4913731609
 40
0.5232204716
 40
0.55515775
 40
0.5871651943
 40
0.6192215961
 40
0.6513047701
 40
0.6833919991
 40
0.7154604852
 40
0.7474878032
 40
0.7794523473
 40
0.8113337692
 40
0.8431133916
 40
0.8747746171
 40
0.9063032365
 40
0.9376879249
 40
0.9533258257
 40
0.968925233
 40
1.0
 40
1.0
 40
1.0
 40
1.0
 10
10.2357788599
 20
7.2866759185
 30
0.0
 10
10.2386322826
 20
7.2894321136
 30
0.0
 10
10.2430805915
 20
7.2933994209
 30
0.0
 10
10.2493103789
 20
7.29832196
 30
0.0
 10
10.2557385403
 20
7.3029995668
 30
0.0
 10
10.2641262489
 20
7.3083709684
 30
0.0
 10
10.2729217831
 20
7.3130693834
 30
0.0
 10
10.2801758046
 20
7.3164118835
 30
0.0
 10
10.2875797007
 20
7.3194784012
 30
0.0
 10
10.2970785445
 20
7.3227758277
 30
0.0
 10
10.3087844443
 20
7.3258489403
 30
0.0
 10
10.3207457707
 20
7.3280260245
 30
0.0
 10
10.3328962391
 20
7.3292950616
 30
0.0
 10
10.3451691031
 20
7.3296492812
 30
0.0
 10
10.3574968342
 20
7.3290868797
 30
0.0
 10
10.3698116761
 20
7.3276111058
 30
0.0
 10
10.3820459638
 20
7.325230213
 30
0.0
 10
10.3941325049
 20
7.3219574147
 30
0.0
 10
10.4060049393
 20
7.3178108057
 30
0.0
 10
10.4175981002
 20
7.3128132602
 30
0.0
 10
10.4288483658
 20
7.306992305
 30
0.0
 10
10.4396940044
 20
7.3003799676
 30
0.0
 10
10.4500755083
 20
7.2930126005
 30
0.0
 10
10.4599359162
 20
7.284930682
 30
0.0
 10
10.469221122
 20
7.2761785959
 30
0.0
 10
10.4778801681
 20
7.2668043897
 30
0.0
 10
10.4858655225
 20
7.2568595136
 30
0.0
 10
10.4931333367
 20
7.2463985403
 30
0.0
 10
10.4996436847
 20
7.2354788721
 30
0.0
 10
10.5053607802
 20
7.2241604169
 30
0.0
 10
10.5102531714
 20
7.2125053103
 30
0.0
 10
10.5142939207
 20
7.2005774067
 30
0.0
 10
10.5174607094
 20
7.1884425706
 30
0.0
 10
10.5193592663
 20
7.178199449
 30
0.0
 10
10.5204243039
 20
7.1699692317
 30
0.0
 10
10.5211843934
 20
7.1617468879
 30
0.0
 10
10.5214145405
 20
7.1555596325
 30
0.0
 10
10.5214145405
 20
7.1514423462
 30
0.0
  0
SPLINE
  5
356
100
AcDbEntity
  8
0
100
AcDbSpline
 62
7
  6
CONTINUOUS
 70
0
 71
3
 72
91
 73
87
 74
0
 42
0.0000001
 43
0.0000001
 44
0.0000000001
 40
0.0
 40
0.0
 40
0.0
 40
0.0
 40
0.0027164146
 40
0.005453202
 40
0.008230252
 40
0.0110665198
 40
0.0139797053
 40
0.0169859824
 40
0.0200999174
 40
0.023334401
 40
0.0267007187
 40
0.0302086385
 40
0.0338665091
 40
0.0376814414
 40
0.0416593691
 40
0.0458052582
 40
0.0501231421
 40
0.0546162891
 40
0.0592872586
 40
0.064137982
 40
0.0691698666
 40
0.0743837897
 40
0.079780237
 40
0.0853592528
 40
0.0911205635
 40
0.0970635488
 40
0.1031872988
 40
0.1094906474
 40
0.1226297881
 40
0.1364673429
 40
0.1509860432
 40
0.166165828
 40
0.1819841602
 40
0.1984162836
 40
0.2154354412
 40
0.2330130641
 40
0.2511189358
 40
0.2697213391
 40
0.2887871904
 40
0.3082821639
 40
0.3281708096
 40
0.3484166635
 40
0.368982358
 40
0.3898297276
 40
0.4109199118
 40
0.4322134566
 40
0.4536704139
 40
0.4752504412
 40
0.4969128994
 40
0.5186169519
 40
0.5403216628
 40
0.5619860952
 40
0.5835694083
 40
0.6050309559
 40
0.6263303839
 40
0.6474277291
 40
0.6682835187
 40
0.688858872
 40
0.7091156002
 40
0.7290163102
 40
0.7485245085
 40
0.7676047097
 40
0.7862225487
 40
0.8043448976
 40
0.8219399925
 40
0.8389775679
 40
0.8554290014
 40
0.8712674776
 40
0.8864681732
 40
0.9010084737
 40
0.9148682315
 40
0.9280300795
 40
0.9343449284
 40
0.9404802779
 40
0.9464349254
 40
0.952207944
 40
0.9577987094
 40
0.9632068925
 40
0.9684325652
 40
0.9734761403
 40
0.9783384919
 40
0.9830209404
 40
0.9875254382
 40
0.9918545985
 40
0.9960115586
 40
1.0
 40
1.0
 40
1.0
 40
1.0
 10
12.4080705389
 20
8.2870236489
 30
0.0
 10
12.406969376
 20
8.2871000101
 30
0.0
 10
12.4047644293
 20
8.287352962
 30
0.0
 10
12.4014850736
 20
8.2880298647
 30
0.0
 10
12.3982305157
 20
8.2890041832
 30
0.0
 10
12.3950030385
 20
8.2902748804
 30
0.0
 10
12.39180436
 20
8.2918409382
 30
0.0
 10
12.3886360649
 20
8.2937010248
 30
0.0
 10
12.3854996615
 20
8.2958538979
 30
0.0
 10
12.3823965124
 20
8.2982981431
 30
0.0
 10
12.3793279663
 20
8.3010323493
 30
0.0
 10
12.3762953642
 20
8.3040550346
 30
0.0
 10
12.3732999886
 20
8.3073645901
 30
0.0
 10
12.370343227
 20
8.3109593804
 30
0.0
 10
12.367426353
 20
8.3148375689
 30
0.0
 10
12.3645507754
 20
8.3189972782
 30
0.0
 10
12.3617177958
 20
8.3234364314
 30
0.0
 10
12.3589287924
 20
8.3281528598
 30
0.0
 10
12.3561851068
 20
8.333144236
 30
0.0
 10
12.3534880553
 20
8.3384080899
 30
0.0
 10
12.3508390024
 20
8.3439418309
 30
0.0
 10
12.3482392037
 20
8.3497426992
 30
0.0
 10
12.3456900066
 20
8.3558078294
 30
0.0
 10
12.3431926307
 20
8.3621341892
 30
0.0
 10
12.3407483599
 20
8.3687186348
 30
0.0
 10
12.338358406
 20
8.3755578721
 30
0.0
 10
12.3360239441
 20
8.3826484942
 30
0.0
 10
12.3329442901
 20
8.3925707439
 30
0.0
 10
12.3292527672
 20
8.40558284
 30
0.0
 10
12.3251213148
 20
8.4219324878
 30
0.0
 10
12.3212375639
 20
8.4391935706
 30
0.0
 10
12.317609395
 20
8.4573314866
 30
0.0
 10
12.3142441925
 20
8.4763100131
 30
0.0
 10
12.3111488038
 20
8.4960911301
 30
0.0
 10
12.3083295286
 20
8.5166351827
 30
0.0
 10
12.3057921052
 20
8.537900949
 30
0.0
 10
12.3035416986
 20
8.5598457359
 30
0.0
 10
12.3015828903
 20
8.5824254678
 30
0.0
 10
12.2999196692
 20
8.605594779
 30
0.0
 10
12.298555424
 20
8.6293071073
 30
0.0
 10
12.2974929373
 20
8.6535147891
 30
0.0
 10
12.2967343782
 20
8.6781691566
 30
0.0
 10
12.2962812993
 20
8.7032206377
 30
0.0
 10
12.2961346355
 20
8.7286188575
 30
0.0
 10
12.2962947015
 20
8.7543127408
 30
0.0
 10
12.2967611921
 20
8.7802506153
 30
0.0
 10
12.2975331824
 20
8.8063803159
 30
0.0
 10
12.2986091307
 20
8.8326492897
 30
0.0
 10
12.2999868806
 20
8.8590047023
 30
0.0
 10
12.3016636645
 20
8.8853935445
 30
0.0
 10
12.3036361104
 20
8.91176274
 30
0.0
 10
12.3059002495
 20
8.9380592526
 30
0.0
 10
12.3084515238
 20
8.9642301929
 30
0.0
 10
12.3112847952
 20
8.990222925
 30
0.0
 10
12.3143943561
 20
9.0159851724
 30
0.0
 10
12.3177739406
 20
9.0414651239
 30
0.0
 10
12.3214167362
 20
9.0666115384
 30
0.0
 10
12.3253153966
 20
9.0913738502
 30
0.0
 10
12.3294620579
 20
9.1157022701
 30
0.0
 10
12.3338483544
 20
9.1395478868
 30
0.0
 10
12.3384654346
 20
9.1628627657
 30
0.0
 10
12.3433039794
 20
9.1856000466
 30
0.0
 10
12.3483542201
 20
9.2077140394
 30
0.0
 10
12.3536059585
 20
9.2291603189
 30
0.0
 10
12.3590485859
 20
9.2498958178
 30
0.0
 10
12.3646711042
 20
9.2698789183
 30
0.0
 10
12.3704621509
 20
9.289069537
 30
0.0
 10
12.3764100221
 20
9.3074292171
 30
0.0
 10
12.3825026979
 20
9.3249211918
 30
0.0
 10
12.3887278734
 20
9.3415105436
 30
0.0
 10
12.3950729791
 20
9.3571640237
 30
0.0
 10
12.400522403
 20
9.3695682987
 30
0.0
 10
12.4049400908
 20
9.3789920134
 30
0.0
 10
12.4082296005
 20
9.3857089188
 30
0.0
 10
12.4115394851
 20
9.3921693968
 30
0.0
 10
12.414868114
 20
9.3983702222
 30
0.0
 10
12.4182137904
 20
9.4043083076
 30
0.0
 10
12.4215748854
 20
9.4099806792
 30
0.0
 10
12.4249496775
 20
9.4153845369
 30
0.0
 10
12.4283365437
 20
9.4205171683
 30
0.0
 10
12.431733748
 20
9.4253760403
 30
0.0
 10
12.4351396488
 20
9.42995874
 30
0.0
 10
12.4385525993
 20
9.4342630308
 30
0.0
 10
12.4419709966
 20
9.4382868322
 30
0.0
 10
12.4453930423
 20
9.4420279613
 30
0.0
 10
12.4477231352
 20
9.4443802737
 30
0.0
 10
12.4488888253
 20
9.4455062439
 30
0.0
  0
SPLINE
  5
357
100
AcDbEntity
  8
0
100
AcDbSpline
 62
7
  6
CONTINUOUS
 70
0
 71
3
 72
78
 73
74
 74
0
 42
0.0000001
 43
0.0000001
 44
0.0000000001
 40
0.0
 40
0.0
 40
0.0
 40
0.0
 40
0.0027966493
 40
0.0056682021
 40
0.0116913231
 40
0.0148721515
 40
0.0181792687
 40
0.0216219023
 40
0.0252079504
 40
0.0289441896
 40
0.032836314
 40
0.0368890703
 40
0.0411064178
 40
0.0454915166
 40
0.0500469073
 40
0.0547745577
 40
0.0596758685
 40
0.0647518381
 40
0.0700030116
 40
0.0810307655
 40
0.0927574002
 40
0.1051759979
 40
0.1182758382
 40
0.132042943
 40
0.1464605257
 40
0.1615093221
 40
0.1771678358
 40
0.193412564
 40
0.2102182129
 40
0.2275578587
 40
0.2454030706
 40
0.2637240415
 40
0.2824897301
 40
0.3016679683
 40
0.3212255498
 40
0.3411283305
 40
0.3613413433
 40
0.3818288877
 40
0.4234809086
 40
0.4657881558
 40
0.5084476299
 40
0.551153105
 40
0.5935979354
 40
0.6354778631
 40
0.656112597
 40
0.6764945252
 40
0.696587546
 40
0.7163562337
 40
0.7357659357
 40
0.7547828844
 40
0.7733742778
 40
0.7915083747
 40
0.80915461
 40
0.8262837295
 40
0.8428678905
 40
0.8588807896
 40
0.8742978235
 40
0.8890962884
 40
0.9032555546
 40
0.9167572978
 40
0.9295858042
 40
0.9417283685
 40
0.9531757164
 40
0.9586371621
 40
0.9639232487
 40
0.9690340572
 40
0.973970079
 40
0.9787321628
 40
0.9833216477
 40
0.9877404899
 40
0.9919911414
 40
0.9960764945
 40
1.0
 40
1.0
 40
1.0
 40
1.0
 10
12.3830383884
 20
8.475176805
 30
0.0
 10
12.3823091644
 20
8.4754346291
 30
0.0
 10
12.3808521546
 20
8.4760186224
 30
0.0
 10
12.3779514233
 20
8.4774528471
 30
0.0
 10
12.3751314093
 20
8.4792657197
 30
0.0
 10
12.3724092907
 20
8.4814037901
 30
0.0
 10
12.3703525093
 20
8.4832264337
 30
0.0
 10
12.3683193846
 20
8.485237618
 30
0.0
 10
12.3663104264
 20
8.4874364723
 30
0.0
 10
12.3643266142
 20
8.4898219217
 30
0.0
 10
12.3623687684
 20
8.4923928309
 30
0.0
 10
12.3604377348
 20
8.495147972
 30
0.0
 10
12.3585344238
 20
8.4980860809
 30
0.0
 10
12.3566596554
 20
8.5012057524
 30
0.0
 10
12.3548143063
 20
8.5045055319
 30
0.0
 10
12.3529992513
 20
8.5079838758
 30
0.0
 10
12.3512153016
 20
8.5116391259
 30
0.0
 10
12.3494633137
 20
8.5154695794
 30
0.0
 10
12.3471329534
 20
8.5208969392
 30
0.0
 10
12.3443147088
 20
8.5281140425
 30
0.0
 10
12.3411260722
 20
8.5373064045
 30
0.0
 10
12.3380838108
 20
8.5471495458
 30
0.0
 10
12.3351937589
 20
8.5576247704
 30
0.0
 10
12.3324614712
 20
8.5687123179
 30
0.0
 10
12.3298922265
 20
8.5803911381
 30
0.0
 10
12.3274910029
 20
8.5926390277
 30
0.0
 10
12.32526245
 20
8.6054326473
 30
0.0
 10
12.3232108771
 20
8.6187475828
 30
0.0
 10
12.3213402593
 20
8.6325584053
 30
0.0
 10
12.3196542278
 20
8.6468387243
 30
0.0
 10
12.3181560501
 20
8.6615612327
 30
0.0
 10
12.3168486219
 20
8.6766977632
 30
0.0
 10
12.3157344771
 20
8.6922193505
 30
0.0
 10
12.3148157823
 20
8.7080962885
 30
0.0
 10
12.3140943203
 20
8.7242981841
 30
0.0
 10
12.3135714909
 20
8.7407940069
 30
0.0
 10
12.3132482932
 20
8.7575521947
 30
0.0
 10
12.3130835879
 20
8.7803280411
 30
0.0
 10
12.3133859598
 20
8.8092157825
 30
0.0
 10
12.3145421494
 20
8.8442180359
 30
0.0
 10
12.3164851875
 20
8.8794772678
 30
0.0
 10
12.319200187
 20
8.9147236251
 30
0.0
 10
12.3226664152
 20
8.9496873519
 30
0.0
 10
12.326175645
 20
8.9785055407
 30
0.0
 10
12.3293438996
 20
9.0012124619
 30
0.0
 10
12.3318779614
 20
9.0179227448
 30
0.0
 10
12.334576599
 20
9.0343645588
 30
0.0
 10
12.3374346537
 20
9.0505064407
 30
0.0
 10
12.3404466337
 20
9.0663174767
 30
0.0
 10
12.3436067448
 20
9.081767403
 30
0.0
 10
12.3469089111
 20
9.0968266494
 30
0.0
 10
12.3503467868
 20
9.1114663954
 30
0.0
 10
12.353913766
 20
9.1256586317
 30
0.0
 10
12.3576029797
 20
9.1393762224
 30
0.0
 10
12.3614073285
 20
9.1525929509
 30
0.0
 10
12.3653194945
 20
9.1652835675
 30
0.0
 10
12.3693319566
 20
9.1774238489
 30
0.0
 10
12.3734369865
 20
9.1889906564
 30
0.0
 10
12.377626689
 20
9.199961983
 30
0.0
 10
12.3818930158
 20
9.2103169743
 30
0.0
 10
12.3862278009
 20
9.2200360619
 30
0.0
 10
12.3906227333
 20
9.2291007668
 30
0.0
 10
12.3943850331
 20
9.2362025619
 30
0.0
 10
12.3974244755
 20
9.2415360635
 30
0.0
 10
12.3996780561
 20
9.2452991318
 30
0.0
 10
12.4019404025
 20
9.2488862846
 30
0.0
 10
12.4042104197
 20
9.2522958398
 30
0.0
 10
12.4064870367
 20
9.2555261778
 30
0.0
 10
12.4087692246
 20
9.2585757783
 30
0.0
 10
12.4110559142
 20
9.2614432557
 30
0.0
 10
12.4133461082
 20
9.2641272415
 30
0.0
 10
12.4156385848
 20
9.2666263484
 30
0.0
 10
12.417198725
 20
9.2681996681
 30
0.0
 10
12.4179791963
 20
9.2689535455
 30
0.0
  0
SPLINE
  5
358
100
AcDbEntity
  8
0
100
AcDbSpline
 62
7
  6
CONTINUOUS
 70
0
 71
3
 72
15
 73
11
 74
0
 42
0.0000001
 43
0.0000001
 44
0.0000000001
 40
0.0
 40
0.0
 40
0.0
 40
0.0
 40
0.108441033
 40
0.2203202389
 40
0.3363917414
 40
0.457322038
 40
0.5836915292
 40
0.7159988585
 40
0.8546582553
 40
1.0
 40
1.0
 40
1.0
 40
1.0
 10
12.4389434368
 20
9.2812996582
 30
0.0
 10
12.4380704427
 20
9.281121458
 30
0.0
 10
12.4363131047
 20
9.2806746184
 30
0.0
 10
12.4337025628
 20
9.2797569212
 30
0.0
 10
12.4310835459
 20
9.2785840453
 30
0.0
 10
12.4284579308
 20
9.2771571701
 30
0.0
 10
12.4258270371
 20
9.2754775029
 30
0.0
 10
12.4231922819
 20
9.273546272
 30
0.0
 10
12.4205552709
 20
9.2713649619
 30
0.0
 10
12.418838121
 20
9.2697832031
 30
0.0
 10
12.4179791963
 20
9.2689535455
 30
0.0
  0
SPLINE
  5
359
100
AcDbEntity
  8
0
100
AcDbSpline
 62
7
  6
CONTINUOUS
 70
0
 71
3
 72
39
 73
35
 74
0
 42
0.0000001
 43
0.0000001
 44
0.0000000001
 40
0.0
 40
0.0
 40
0.0
 40
0.0
 40
0.0248516718
 40
0.0508785803
 40
0.0780238769
 40
0.1062259306
 40
0.1354188324
 40
0.1655328354
 40
0.19649475
 40
0.228228317
 40
0.2606545532
 40
0.2936920778
 40
0.327257428
 40
0.3612653661
 40
0.395629181
 40
0.4302609844
 40
0.4650720094
 40
0.4999729049
 40
0.5348740281
 40
0.5696857356
 40
0.6043186744
 40
0.6386840743
 40
0.6726940412
 40
0.7062618569
 40
0.7393022754
 40
0.7717318243
 40
0.8034691116
 40
0.8344351414
 40
0.8645536407
 40
0.8937514031
 40
0.9219586614
 40
0.9491094861
 40
0.9751422236
 40
1.0
 40
1.0
 40
1.0
 40
1.0
 10
12.3220776658
 20
8.6274016975
 30
0.0
 10
12.3235069931
 20
8.6314413818
 30
0.0
 10
12.3263186967
 20
8.6397526582
 30
0.0
 10
12.3303161962
 20
8.6525996425
 30
0.0
 10
12.3341830108
 20
8.6660885538
 30
0.0
 10
12.3379084452
 20
8.680182462
 30
0.0
 10
12.3414822418
 20
8.6948429183
 30
0.0
 10
12.3448945512
 20
8.7100298458
 30
0.0
 10
12.3481359787
 20
8.7257017172
 30
0.0
 10
12.3511976022
 20
8.7418156574
 30
0.0
 10
12.3540709979
 20
8.7583275702
 30
0.0
 10
12.3567482629
 20
8.7751922602
 30
0.0
 10
12.3592220365
 20
8.792363559
 30
0.0
 10
12.3614855197
 20
8.8097944524
 30
0.0
 10
12.3635324935
 20
8.8274372099
 30
0.0
 10
12.3653573374
 20
8.8452435167
 30
0.0
 10
12.3669550447
 20
8.8631646073
 30
0.0
 10
12.3683212341
 20
8.8811514007
 30
0.0
 10
12.3694521622
 20
8.8991546354
 30
0.0
 10
12.3703447334
 20
8.9171250045
 30
0.0
 10
12.3709965088
 20
8.9350132915
 30
0.0
 10
12.3714057129
 20
8.952770505
 30
0.0
 10
12.3715712387
 20
8.9703480147
 30
0.0
 10
12.3714926539
 20
8.9876976857
 30
0.0
 10
12.3711701993
 20
9.0047720116
 30
0.0
 10
12.370604789
 20
9.0215242457
 30
0.0
 10
12.3697980084
 20
9.0379085298
 30
0.0
 10
12.3687521102
 20
9.0538800218
 30
0.0
 10
12.3674700098
 20
9.0693950194
 30
0.0
 10
12.3659552762
 20
9.0844110892
 30
0.0
 10
12.3642121287
 20
9.0988871705
 30
0.0
 10
12.362245416
 20
9.1127837584
 30
0.0
 10
12.3600606311
 20
9.1260627919
 30
0.0
 10
12.3584238447
 20
9.1346848578
 30
0.0
 10
12.3575661931
 20
9.1388843198
 30
0.0
  0
SPLINE
  5
35A
100
AcDbEntity
  8
0
100
AcDbSpline
 62
7
  6
CONTINUOUS
 70
0
 71
3
 72
61
 73
57
 74
0
 42
0.0000001
 43
0.0000001
 44
0.0000000001
 40
0.0
 40
0.0
 40
0.0
 40
0.0
 40
0.0085500831
 40
0.0176518282
 40
0.0273119388
 40
0.0375330487
 40
0.0483143346
 40
0.0596520489
 40
0.0715399689
 40
0.0839696868
 40
0.0969308502
 40
0.110411427
 40
0.1243978625
 40
0.1388751847
 40
0.1538271778
 40
0.1692364905
 40
0.185084685
 40
0.2013523522
 40
0.2180192038
 40
0.2350641067
 40
0.252465154
 40
0.2701997535
 40
0.2882446631
 40
0.3065760341
 40
0.3439996166
 40
0.3822705894
 40
0.4211822648
 40
0.4605233554
 40
0.5000795412
 40
0.5396349815
 40
0.5789738425
 40
0.6178818121
 40
0.6561476434
 40
0.6935646733
 40
0.711892258
 40
0.729933038
 40
0.7476631939
 40
0.7650594851
 40
0.7820993091
 40
0.7987607922
 40
0.8150228167
 40
0.8308650777
 40
0.846268195
 40
0.8612137644
 40
0.8756844182
 40
0.889663959
 40
0.9031374659
 40
0.9160913786
 40
0.9285136711
 40
0.9403940542
 40
0.9517241379
 40
0.9624977005
 40
0.972711059
 40
0.9823634567
 40
0.9914575366
 40
1.0
 40
1.0
 40
1.0
 40
1.0
 10
11.1987740935
 20
10.4607658596
 30
0.0
 10
11.1965349526
 20
10.462368421
 30
0.0
 10
11.1918152467
 20
10.4655428414
 30
0.0
 10
11.1842798562
 20
10.4700853834
 30
0.0
 10
11.1760799268
 20
10.4745501083
 30
0.0
 10
11.1672273695
 20
10.4789304834
 30
0.0
 10
11.1577347002
 20
10.483220322
 30
0.0
 10
11.1476155588
 20
10.4874134243
 30
0.0
 10
11.1368845004
 20
10.4915036878
 30
0.0
 10
11.1255570338
 20
10.495485133
 30
0.0
 10
11.1136495826
 20
10.499351949
 30
0.0
 10
11.1011794368
 20
10.5030984592
 30
0.0
 10
11.0881647302
 20
10.5067191491
 30
0.0
 10
11.074624423
 20
10.5102087165
 30
0.0
 10
11.0605782533
 20
10.5135620339
 30
0.0
 10
11.0460467061
 20
10.5167741577
 30
0.0
 10
11.031050994
 20
10.519840377
 30
0.0
 10
11.0156130164
 20
10.5227561922
 30
0.0
 10
10.9997553195
 20
10.525517306
 30
0.0
 10
10.9835010737
 20
10.5281196623
 30
0.0
 10
10.9668740347
 20
10.5305594508
 30
0.0
 10
10.9498985094
 20
10.5328330748
 30
0.0
 10
10.9325992902
 20
10.534937208
 30
0.0
 10
10.9089736448
 20
10.537530336
 30
0.0
 10
10.8788186345
 20
10.5403177547
 30
0.0
 10
10.8419992796
 20
10.5429219378
 30
0.0
 10
10.8045170742
 20
10.54479238
 30
0.0
 10
10.7665911452
 20
10.5459180633
 30
0.0
 10
10.7284430592
 20
10.546292291
 30
0.0
 10
10.6902957426
 20
10.5459128603
 30
0.0
 10
10.652372119
 20
10.544782022
 30
0.0
 10
10.6148937405
 20
10.5429064594
 30
0.0
 10
10.5780797107
 20
10.5402972725
 30
0.0
 10
10.5479300886
 20
10.5375057149
 30
0.0
 10
10.5243094869
 20
10.5349093411
 30
0.0
 10
10.5070145658
 20
10.5328028366
 30
0.0
 10
10.4900436812
 20
10.5305269005
 30
0.0
 10
10.4734216215
 20
10.5280848504
 30
0.0
 10
10.4571726906
 20
10.5254802672
 30
0.0
 10
10.4413206301
 20
10.5227169893
 30
0.0
 10
10.4258886014
 20
10.5197990789
 30
0.0
 10
10.41089915
 20
10.5167308085
 30
0.0
 10
10.3963741609
 20
10.5135166972
 30
0.0
 10
10.3823348313
 20
10.5101614762
 30
0.0
 10
10.368801646
 20
10.5066700628
 30
0.0
 10
10.3557943321
 20
10.503047589
 30
0.0
 10
10.343331827
 20
10.4992993893
 30
0.0
 10
10.3314322622
 20
10.4954309576
 30
0.0
 10
10.3201129232
 20
10.4914479575
 30
0.0
 10
10.3093902049
 20
10.4873562374
 30
0.0
 10
10.2992796062
 20
10.4831617699
 30
0.0
 10
10.2897956885
 20
10.4788706266
 30
0.0
 10
10.2809520572
 20
10.4744890432
 30
0.0
 10
10.272761205
 20
10.4700232128
 30
0.0
 10
10.2652350834
 20
10.4654796302
 30
0.0
 10
10.260521763
 20
10.4623045236
 30
0.0
 10
10.2582858707
 20
10.460701641
 30
0.0
  0
SPLINE
  5
35B
100
AcDbEntity
  8
0
100
AcDbSpline
 62
7
  6
CONTINUOUS
 70
0
 71
3
 72
46
 73
42
 74
0
 42
0.0000001
 43
0.0000001
 44
0.0000000001
 40
0.0
 40
0.0
 40
0.0
 40
0.0
 40
0.0112073763
 40
0.0228002203
 40
0.0347721982
 40
0.0471162545
 40
0.0598246425
 40
0.0728890297
 40
0.1000488613
 40
0.1285188471
 40
0.158213824
 40
0.1890420372
 40
0.2209059277
 40
0.2537028361
 40
0.2873256502
 40
0.321663413
 40
0.3566019035
 40
0.3920242006
 40
0.4278112336
 40
0.4638423255
 40
0.4999957306
 40
0.5361491696
 40
0.5721803632
 40
0.6079675654
 40
0.6433900987
 40
0.6783288914
 40
0.712667021
 40
0.7462902652
 40
0.7790876647
 40
0.8109521051
 40
0.8417809244
 40
0.8714765603
 40
0.8999472544
 40
0.9136966633
 40
0.9271084882
 40
0.9401732573
 40
0.9528820575
 40
0.9652265139
 40
0.9771989212
 40
0.9887921818
 40
1.0
 40
1.0
 40
1.0
 40
1.0
 10
11.0821199427
 20
10.4131999105
 30
0.0
 10
11.0796109365
 20
10.414134568
 30
0.0
 10
11.0744861981
 20
10.4159815736
 30
0.0
 10
11.0666170993
 20
10.4186447609
 30
0.0
 10
11.0584417341
 20
10.4212455707
 30
0.0
 10
11.0499675309
 20
10.4237816053
 30
0.0
 10
11.0412021236
 20
10.4262506079
 30
0.0
 10
11.0289786208
 20
10.4294921544
 30
0.0
 10
11.013024802
 20
10.4333488855
 30
0.0
 10
10.9930906609
 20
10.4376179105
 30
0.0
 10
10.9721988129
 20
10.4415700386
 30
0.0
 10
10.9504248584
 20
10.4451908105
 30
0.0
 10
10.9278474638
 20
10.4484669553
 30
0.0
 10
10.9045483137
 20
10.4513864799
 30
0.0
 10
10.8806117295
 20
10.4539387002
 30
0.0
 10
10.8561243756
 20
10.4561142811
 30
0.0
 10
10.8311749318
 20
10.457905268
 30
0.0
 10
10.8058537685
 20
10.459305115
 30
0.0
 10
10.7802526147
 20
10.4603087068
 30
0.0
 10
10.7544642221
 20
10.460912377
 30
0.0
 10
10.7285820258
 20
10.4611139203
 30
0.0
 10
10.7026998034
 20
10.4609126007
 30
0.0
 10
10.6769113327
 20
10.4603091537
 30
0.0
 10
10.651310049
 20
10.4593057836
 30
0.0
 10
10.6259887043
 20
10.4579061561
 30
0.0
 10
10.6010390282
 20
10.4561153855
 30
0.0
 10
10.5765513917
 20
10.4539400172
 30
0.0
 10
10.5526144767
 20
10.4513880045
 30
0.0
 10
10.5293149447
 20
10.4484686825
 30
0.0
 10
10.5067371325
 20
10.4451927322
 30
0.0
 10
10.4849626775
 20
10.4415721545
 30
0.0
 10
10.4640704201
 20
10.4376201883
 30
0.0
 10
10.4472686322
 20
10.4340223451
 30
0.0
 10
10.4343304642
 20
10.4309810142
 30
0.0
 10
10.4250063989
 20
10.4286528997
 30
0.0
 10
10.4159574196
 20
10.4262533039
 30
0.0
 10
10.4071916974
 20
10.4237844043
 30
0.0
 10
10.3987171649
 20
10.4212484266
 30
0.0
 10
10.3905414611
 20
10.4186477018
 30
0.0
 10
10.3826720188
 20
10.4159845691
 30
0.0
 10
10.3775470424
 20
10.4141376194
 30
0.0
 10
10.3750379159
 20
10.4132029822
 30
0.0
  0
SPLINE
  5
35C
100
AcDbEntity
  8
0
100
AcDbSpline
 62
7
  6
CONTINUOUS
 70
0
 71
3
 72
21
 73
17
 74
0
 42
0.0000001
 43
0.0000001
 44
0.0000000001
 40
0.0
 40
0.0
 40
0.0
 40
0.0
 40
0.1273176366
 40
0.2537999756
 40
0.3167619475
 40
0.3795355041
 40
0.4421314991
 40
0.5045621439
 40
0.5668413432
 40
0.6289845283
 40
0.6910084528
 40
0.7529310935
 40
0.8147714495
 40
0.8765493365
 40
0.9382852194
 40
1.0
 40
1.0
 40
1.0
 40
1.0
 10
11.1550619201
 20
10.0052764305
 30
0.0
 10
11.1550619201
 20
10.0105736804
 30
0.0
 10
11.1555675776
 20
10.0211402446
 30
0.0
 10
11.1574772816
 20
10.0342028011
 30
0.0
 10
11.1597598026
 20
10.0444492347
 30
0.0
 10
11.1618413391
 20
10.0520070078
 30
0.0
 10
11.1642901267
 20
10.0594304918
 30
0.0
 10
11.1671005545
 20
10.0667027716
 30
0.0
 10
11.1702661219
 20
10.0738070335
 30
0.0
 10
11.1737795733
 20
10.0807268939
 30
0.0
 10
11.1776328266
 20
10.0874463782
 30
0.0
 10
11.1818169731
 20
10.0939500101
 30
0.0
 10
11.1863223755
 20
10.1002227628
 30
0.0
 10
11.1911387227
 20
10.1062501947
 30
0.0
 10
11.1962546813
 20
10.1120182413
 30
0.0
 10
11.1998578846
 20
10.1156824814
 30
0.0
 10
11.2017047434
 20
10.1174664103
 30
0.0
  0
SPLINE
  5
35D
100
AcDbEntity
  8
0
100
AcDbSpline
 62
7
  6
CONTINUOUS
 70
0
 71
3
 72
18
 73
14
 74
0
 42
0.0000001
 43
0.0000001
 44
0.0000000001
 40
0.0
 40
0.0
 40
0.0
 40
0.0
 40
0.0548621106
 40
0.1099281304
 40
0.165399556
 40
0.2214731722
 40
0.2783387379
 40
0.3361775111
 40
0.4554063056
 40
0.5804414047
 40
0.7123341351
 40
0.8519581983
 40
1.0
 40
1.0
 40
1.0
 40
1.0
 10
10.2285748129
 20
10.5046559584
 30
0.0
 10
10.2285748097
 20
10.5053621043
 30
0.0
 10
10.2286196223
 20
10.5067774264
 30
0.0
 10
10.2288211185
 20
10.5088981094
 30
0.0
 10
10.2291568689
 20
10.5110175687
 30
0.0
 10
10.2296267465
 20
10.5131350309
 30
0.0
 10
10.2302305536
 20
10.5152499671
 30
0.0
 10
10.2312237042
 20
10.5180939855
 30
0.0
 10
10.2328147212
 20
10.521651088
 30
0.0
 10
10.2352363545
 20
10.5258520441
 30
0.0
 10
10.2381857872
 20
10.5300258147
 30
0.0
 10
10.2416585321
 20
10.5341681934
 30
0.0
 10
10.2442413361
 20
10.5368260379
 30
0.0
 10
10.2456118675
 20
10.5381498695
 30
0.0
  0
SPLINE
  5
35E
100
AcDbEntity
  8
0
100
AcDbSpline
 62
7
  6
CONTINUOUS
 70
0
 71
3
 72
21
 73
17
 74
0
 42
0.0000001
 43
0.0000001
 44
0.0000000001
 40
0.0
 40
0.0
 40
0.0
 40
0.0
 40
0.1273176366
 40
0.2537999756
 40
0.3167619475
 40
0.3795355041
 40
0.4421314991
 40
0.5045621439
 40
0.5668413432
 40
0.6289845283
 40
0.6910084528
 40
0.7529310935
 40
0.8147714495
 40
0.8765493365
 40
0.9382852194
 40
1.0
 40
1.0
 40
1.0
 40
1.0
 10
10.1891360366
 20
7.1744859387
 30
0.0
 10
10.1891360366
 20
7.1797831886
 30
0.0
 10
10.189641694
 20
7.1903497528
 30
0.0
 10
10.1915513981
 20
7.2034123093
 30
0.0
 10
10.1938339191
 20
7.2136587429
 30
0.0
 10
10.1959154556
 20
7.221216516
 30
0.0
 10
10.1983642432
 20
7.22864
 30
0.0
 10
10.201174671
 20
7.2359122798
 30
0.0
 10
10.2043402384
 20
7.2430165417
 30
0.0
 10
10.2078536898
 20
7.2499364021
 30
0.0
 10
10.211706943
 20
7.2566558863
 30
0.0
 10
10.2158910896
 20
7.2631595183
 30
0.0
 10
10.2203964919
 20
7.269432271
 30
0.0
 10
10.2252128392
 20
7.2754597029
 30
0.0
 10
10.2303287978
 20
7.2812277495
 30
0.0
 10
10.2339320011
 20
7.2848919895
 30
0.0
 10
10.2357788599
 20
7.2866759185
 30
0.0
  0
SPLINE
  5
35F
100
AcDbEntity
  8
0
100
AcDbSpline
 62
7
  6
CONTINUOUS
 70
0
 71
3
 72
41
 73
37
 74
0
 42
0.0000001
 43
0.0000001
 44
0.0000000001
 40
0.0
 40
0.0
 40
0.0
 40
0.0
 40
0.0299421703
 40
0.0599087166
 40
0.0899234211
 40
0.1200088977
 40
0.150186053
 40
0.1804736004
 40
0.2108876395
 40
0.2414413098
 40
0.2721445264
 40
0.3030038
 40
0.3340221415
 40
0.3651990482
 40
0.3965305685
 40
0.4280094374
 40
0.4596252765
 40
0.4913648514
 40
0.5232123788
 40
0.5551498746
 40
0.5871575376
 40
0.6192141589
 40
0.6512975532
 40
0.6833850026
 40
0.7154537088
 40
0.731476412
 40
0.7474860771
 40
0.7794508401
 40
0.8113324799
 40
0.8431123195
 40
0.8747737613
 40
0.9063025943
 40
0.937687506
 40
0.953325536
 40
0.9689249997
 40
1.0
 40
1.0
 40
1.0
 40
1.0
 10
11.0026882602
 20
7.5687178107
 30
0.0
 10
10.9991878314
 20
7.5653366741
 30
0.0
 10
10.9919117569
 20
7.5588472438
 30
0.0
 10
10.980254329
 20
7.5500065648
 30
0.0
 10
10.9679131993
 20
7.5421035665
 30
0.0
 10
10.9549573166
 20
7.5351825905
 30
0.0
 10
10.9414579131
 20
7.5292814457
 30
0.0
 10
10.9274894896
 20
7.5244325715
 30
0.0
 10
10.9131290203
 20
7.5206624988
 30
0.0
 10
10.898455621
 20
7.5179918114
 30
0.0
 10
10.8835500807
 20
7.5164350176
 30
0.0
 10
10.8684944221
 20
7.5160004877
 30
0.0
 10
10.853371448
 20
7.5166904154
 30
0.0
 10
10.8382642887
 20
7.5185008189
 30
0.0
 10
10.8232559488
 20
7.5214215708
 30
0.0
 10
10.8084288568
 20
7.5254364613
 30
0.0
 10
10.7938644187
 20
7.5305232921
 30
0.0
 10
10.7796425773
 20
7.5366540015
 30
0.0
 10
10.7658413792
 20
7.5437948222
 30
0.0
 10
10.7525365547
 20
7.5519064634
 30
0.0
 10
10.7398010999
 20
7.5609443386
 30
0.0
 10
10.7277049118
 20
7.5708587647
 30
0.0
 10
10.7163142936
 20
7.5815953987
 30
0.0
 10
10.7056920294
 20
7.5930949119
 30
0.0
 10
10.6975255565
 20
7.603265446
 30
0.0
 10
10.691432605
 20
7.6117192004
 30
0.0
 10
10.6856462205
 20
7.6203653414
 30
0.0
 10
10.6789935059
 20
7.631523691
 30
0.0
 10
10.671980259
 20
7.6454083007
 30
0.0
 10
10.6659785044
 20
7.6597061989
 30
0.0
 10
10.6610215517
 20
7.6743386675
 30
0.0
 10
10.6571367076
 20
7.6892250119
 30
0.0
 10
10.654807666
 20
7.7017907051
 30
0.0
 10
10.6535011343
 20
7.7118870725
 30
0.0
 10
10.6525686998
 20
7.7219737833
 30
0.0
 10
10.6522863683
 20
7.7295639579
 30
0.0
 10
10.6522863683
 20
7.7346148181
 30
0.0
  0
SPLINE
  5
360
100
AcDbEntity
  8
0
100
AcDbSpline
 62
7
  6
CONTINUOUS
 70
0
 71
3
 72
21
 73
17
 74
0
 42
0.0000001
 43
0.0000001
 44
0.0000000001
 40
0.0
 40
0.0
 40
0.0
 40
0.0
 40
0.0617147758
 40
0.1234506606
 40
0.1852285516
 40
0.2470689039
 40
0.3089915432
 40
0.3710154715
 40
0.4331586565
 40
0.4954378534
 40
0.5578684959
 40
0.6204644995
 40
0.6832380575
 40
0.7461999878
 40
0.87268242
 40
1.0
 40
1.0
 40
1.0
 40
1.0
 10
10.7095051992
 20
7.8722432323
 30
0.0
 10
10.7072395697
 20
7.870054814
 30
0.0
 10
10.7028193676
 20
7.8655597216
 30
0.0
 10
10.6965433755
 20
7.8584838196
 30
0.0
 10
10.6906349637
 20
7.8510896889
 30
0.0
 10
10.6851079883
 20
7.8433946247
 30
0.0
 10
10.6799750961
 20
7.83541634
 30
0.0
 10
10.6752481433
 20
7.8271732479
 30
0.0
 10
10.6709380468
 20
7.8186843434
 30
0.0
 10
10.6670546932
 20
7.809969236
 30
0.0
 10
10.6636070139
 20
7.8010480083
 30
0.0
 10
10.6606029895
 20
7.7919412871
 30
0.0
 10
10.6580494692
 20
7.7826698356
 30
0.0
 10
10.6552493933
 20
7.7701000794
 30
0.0
 10
10.6529066837
 20
7.754075661
 30
0.0
 10
10.6522863683
 20
7.7411131866
 30
0.0
 10
10.6522863683
 20
7.7346148181
 30
0.0
  0
SPLINE
  5
361
100
AcDbEntity
  8
0
100
AcDbSpline
 62
7
  6
CONTINUOUS
 70
0
 71
3
 72
42
 73
38
 74
0
 42
0.0000001
 43
0.0000001
 44
0.0000000001
 40
0.0
 40
0.0
 40
0.0
 40
0.0
 40
0.0299419663
 40
0.0449235352
 40
0.0599142051
 40
0.0899287052
 40
0.1200139767
 40
0.135092661
 40
0.150196701
 40
0.1804840414
 40
0.210897872
 40
0.2414513324
 40
0.2721543376
 40
0.3030133986
 40
0.3340315263
 40
0.3652082187
 40
0.3965395244
 40
0.4280181782
 40
0.4596338019
 40
0.4913731609
 40
0.5232204716
 40
0.55515775
 40
0.5871651943
 40
0.6192215961
 40
0.6513047701
 40
0.6833919991
 40
0.7154604852
 40
0.7474878032
 40
0.7794523473
 40
0.8113337692
 40
0.8431133916
 40
0.8747746171
 40
0.9063032365
 40
0.9376879249
 40
0.9533258257
 40
0.968925233
 40
1.0
 40
1.0
 40
1.0
 40
1.0
 10
11.4406976008
 20
9.8700428582
 30
0.0
 10
11.437844178
 20
9.867286663
 30
0.0
 10
11.4333958691
 20
9.8633193557
 30
0.0
 10
11.4271660817
 20
9.8583968166
 30
0.0
 10
11.4207379203
 20
9.8537192098
 30
0.0
 10
11.4123502117
 20
9.8483478083
 30
0.0
 10
11.4035546775
 20
9.8436493932
 30
0.0
 10
11.396300656
 20
9.8403068932
 30
0.0
 10
11.3888967599
 20
9.8372403754
 30
0.0
 10
11.3793979161
 20
9.8339429489
 30
0.0
 10
11.3676920163
 20
9.8308698363
 30
0.0
 10
11.3557306899
 20
9.8286927522
 30
0.0
 10
11.3435802216
 20
9.8274237151
 30
0.0
 10
11.3313073575
 20
9.8270694955
 30
0.0
 10
11.3189796264
 20
9.8276318969
 30
0.0
 10
11.3066647845
 20
9.8291076708
 30
0.0
 10
11.2944304968
 20
9.8314885636
 30
0.0
 10
11.2823439558
 20
9.8347613619
 30
0.0
 10
11.2704715213
 20
9.838907971
 30
0.0
 10
11.2588783604
 20
9.8439055164
 30
0.0
 10
11.2476280949
 20
9.8497264717
 30
0.0
 10
11.2367824563
 20
9.856338809
 30
0.0
 10
11.2264009523
 20
9.8637061761
 30
0.0
 10
11.2165405444
 20
9.8717880946
 30
0.0
 10
11.2072553386
 20
9.8805401807
 30
0.0
 10
11.1985962925
 20
9.889914387
 30
0.0
 10
11.1906109381
 20
9.899859263
 30
0.0
 10
11.1833431239
 20
9.9103202363
 30
0.0
 10
11.1768327759
 20
9.9212399045
 30
0.0
 10
11.1711156804
 20
9.9325583598
 30
0.0
 10
11.1662232892
 20
9.9442134664
 30
0.0
 10
11.16218254
 20
9.95614137
 30
0.0
 10
11.1590157513
 20
9.9682762061
 30
0.0
 10
11.1571171943
 20
9.9785193276
 30
0.0
 10
11.1560521567
 20
9.986749545
 30
0.0
 10
11.1552920673
 20
9.9949718887
 30
0.0
 10
11.1550619201
 20
10.0011591441
 30
0.0
 10
11.1550619201
 20
10.0052764305
 30
0.0
  0
SPLINE
  5
362
100
AcDbEntity
  8
0
100
AcDbSpline
 62
7
  6
CONTINUOUS
 70
0
 71
3
 72
84
 73
80
 74
0
 42
0.0000001
 43
0.0000001
 44
0.0000000001
 40
0.0
 40
0.0
 40
0.0
 40
0.0
 40
0.0038900711
 40
0.0079384671
 40
0.0121485517
 40
0.016523196
 40
0.0210648294
 40
0.0257753409
 40
0.0306560174
 40
0.0357077488
 40
0.0409310156
 40
0.0463259695
 40
0.0518924526
 40
0.0576299774
 40
0.0635378383
 40
0.0696150414
 40
0.0822721501
 40
0.0955897357
 40
0.109552921
 40
0.1241443013
 40
0.1393442271
 40
0.1551310304
 40
0.1714812222
 40
0.188369665
 40
0.2057697185
 40
0.2236533693
 40
0.2419913474
 40
0.260753231
 40
0.2799075531
 40
0.2994219011
 40
0.3192630096
 40
0.3393968492
 40
0.3597887131
 40
0.380403302
 40
0.4012048129
 40
0.4432227384
 40
0.4855498032
 40
0.5278899008
 40
0.5699468146
 40
0.5907774501
 40
0.6114275005
 40
0.6318610846
 40
0.6520428114
 40
0.6719378639
 40
0.6915120844
 40
0.7107320631
 40
0.7295652318
 40
0.7479799549
 40
0.7659456229
 40
0.7834327536
 40
0.800413099
 40
0.816859765
 40
0.8327473437
 40
0.8480520512
 40
0.8627518884
 40
0.8768268306
 40
0.8902590523
 40
0.9030332082
 40
0.9151367728
 40
0.9209342848
 40
0.9265609575
 40
0.9320162545
 40
0.9372998816
 40
0.9424118707
 40
0.9473526024
 40
0.9521228014
 40
0.9567236584
 40
0.9611567853
 40
0.9654243511
 40
0.9695291031
 40
0.9734744361
 40
0.9772645259
 40
0.9809043448
 40
0.9843998469
 40
0.987758014
 40
0.9909869951
 40
0.9940962274
 40
0.9970964843
 40
1.0
 40
1.0
 40
1.0
 40
1.0
 10
12.4179791963
 20
8.3078572914
 30
0.0
 10
12.4191012553
 20
8.3089411172
 30
0.0
 10
12.421344238
 20
8.3112017639
 30
0.0
 10
12.42464095
 20
8.3147902697
 30
0.0
 10
12.4279344227
 20
8.3186412529
 30
0.0
 10
12.4312230106
 20
8.3227527704
 30
0.0
 10
12.4345052968
 20
8.3271229543
 30
0.0
 10
12.4377797873
 20
8.3317498467
 30
0.0
 10
12.4410450431
 20
8.336631305
 30
0.0
 10
12.4442995031
 20
8.3417650971
 30
0.0
 10
12.4475416929
 20
8.3471488337
 30
0.0
 10
12.4507701126
 20
8.3527800313
 30
0.0
 10
12.4539832484
 20
8.3586560951
 30
0.0
 10
12.4571796425
 20
8.3647742879
 30
0.0
 10
12.4603577829
 20
8.3711317949
 30
0.0
 10
12.4646269567
 20
8.3800447166
 30
0.0
 10
12.4698981592
 20
8.391770292
 30
0.0
 10
12.4760448963
 20
8.4065621218
 30
0.0
 10
12.4820841891
 20
8.4222323053
 30
0.0
 10
12.4880047269
 20
8.438751701
 30
0.0
 10
12.4937954173
 20
8.4560897208
 30
0.0
 10
12.499445406
 20
8.4742141492
 30
0.0
 10
12.5049441026
 20
8.4930912835
 30
0.0
 10
12.5102811982
 20
8.5126859881
 30
0.0
 10
12.515446688
 20
8.5329617715
 30
0.0
 10
12.5204308897
 20
8.5538808564
 30
0.0
 10
12.5252244607
 20
8.5754042509
 30
0.0
 10
12.5298184228
 20
8.5974918218
 30
0.0
 10
12.5342041731
 20
8.6201023731
 30
0.0
 10
12.5383734996
 20
8.6431937278
 30
0.0
 10
12.5423185962
 20
8.6667228069
 30
0.0
 10
12.5460320792
 20
8.6906457132
 30
0.0
 10
12.5495069907
 20
8.7149177981
 30
0.0
 10
12.5527368591
 20
8.7394937989
 30
0.0
 10
12.5567216333
 20
8.7727157068
 30
0.0
 10
12.561043447
 20
8.8146641421
 30
0.0
 10
12.5651523863
 20
8.8653059553
 30
0.0
 10
12.5681702788
 20
8.9160401425
 30
0.0
 10
12.5697624951
 20
8.9582131054
 30
0.0
 10
12.5704683472
 20
8.9917072317
 30
0.0
 10
12.5707117991
 20
9.016536
 30
0.0
 10
12.5706706251
 20
9.0411056843
 30
0.0
 10
12.5703448969
 20
9.0653704696
 30
0.0
 10
12.5697352464
 20
9.0892850649
 30
0.0
 10
12.5688428305
 20
9.1128048469
 30
0.0
 10
12.5676693379
 20
9.1358859303
 30
0.0
 10
12.5662169901
 20
9.1584852559
 30
0.0
 10
12.5644885329
 20
9.1805606715
 30
0.0
 10
12.5624872305
 20
9.2020710094
 30
0.0
 10
12.5602168605
 20
9.2229761641
 30
0.0
 10
12.5576817063
 20
9.2432371701
 30
0.0
 10
12.5548865508
 20
9.26281628
 30
0.0
 10
12.5518366725
 20
9.2816770416
 30
0.0
 10
12.5485378286
 20
9.299784367
 30
0.0
 10
12.5449962436
 20
9.3171046085
 30
0.0
 10
12.5412185957
 20
9.3336056056
 30
0.0
 10
12.5372119989
 20
9.3492568396
 30
0.0
 10
12.5329839839
 20
9.3640292275
 30
0.0
 10
12.5292308483
 20
9.3757470022
 30
0.0
 10
12.526114861
 20
9.3846534126
 30
0.0
 10
12.5237610201
 20
9.3910005906
 30
0.0
 10
12.5213579049
 20
9.3971083641
 30
0.0
 10
12.5189065794
 20
9.4029739103
 30
0.0
 10
12.516408186
 20
9.4085945143
 30
0.0
 10
12.5138639021
 20
9.4139675917
 30
0.0
 10
12.5112748488
 20
9.4190906501
 30
0.0
 10
12.5086422652
 20
9.4239613543
 30
0.0
 10
12.5059672992
 20
9.4285774515
 30
0.0
 10
12.5032511795
 20
9.4329368359
 30
0.0
 10
12.5004951235
 20
9.4370375193
 30
0.0
 10
12.4977003072
 20
9.440877603
 30
0.0
 10
12.4948680006
 20
9.4444553623
 30
0.0
 10
12.4919993514
 20
9.4477691081
 30
0.0
 10
12.4890956109
 20
9.4508173264
 30
0.0
 10
12.4861579526
 20
9.4535985592
 30
0.0
 10
12.4831875764
 20
9.4561114101
 30
0.0
 10
12.4801856577
 20
9.4583546637
 30
0.0
 10
12.4771536096
 20
9.4603268948
 30
0.0
 10
12.4750817121
 20
9.4614776468
 30
0.0
 10
12.4740432356
 20
9.4620043142
 30
0.0
  0
SPLINE
  5
363
100
AcDbEntity
  8
0
100
AcDbSpline
 62
7
  6
CONTINUOUS
 70
0
 71
3
 72
15
 73
11
 74
0
 42
0.0000001
 43
0.0000001
 44
0.0000000001
 40
0.0
 40
0.0
 40
0.0
 40
0.0
 40
0.1419816654
 40
0.278595296
 40
0.410044345
 40
0.536574793
 40
0.6584794438
 40
0.7760922473
 40
0.8897912072
 40
1.0
 40
1.0
 40
1.0
 40
1.0
 10
12.4179791963
 20
8.3078572914
 30
0.0
 10
12.4169501824
 20
8.3068633402
 30
0.0
 10
12.4148927425
 20
8.3049521083
 30
0.0
 10
12.411746689
 20
8.3022716561
 30
0.0
 10
12.4086026282
 20
8.2998351662
 30
0.0
 10
12.4054619047
 20
8.2976438942
 30
0.0
 10
12.4023257589
 20
8.2956987859
 30
0.0
 10
12.39919526
 20
8.2940007934
 30
0.0
 10
12.3960718651
 20
8.2925508185
 30
0.0
 10
12.3939647565
 20
8.2917383984
 30
0.0
 10
12.3929149438
 20
8.2913762847
 30
0.0
  0
SPLINE
  5
364
100
AcDbEntity
  8
0
100
AcDbSpline
 62
7
  6
CONTINUOUS
 70
0
 71
3
 72
42
 73
38
 74
0
 42
0.0000001
 43
0.0000001
 44
0.0000000001
 40
0.0
 40
0.0
 40
0.0
 40
0.0
 40
0.0299419663
 40
0.0449235352
 40
0.0599142051
 40
0.0899287052
 40
0.1200139767
 40
0.135092661
 40
0.150196701
 40
0.1804840414
 40
0.210897872
 40
0.2414513324
 40
0.2721543376
 40
0.3030133986
 40
0.3340315263
 40
0.3652082187
 40
0.3965395244
 40
0.4280181782
 40
0.4596338019
 40
0.4913731609
 40
0.5232204716
 40
0.55515775
 40
0.5871651943
 40
0.6192215961
 40
0.6513047701
 40
0.6833919991
 40
0.7154604852
 40
0.7474878032
 40
0.7794523473
 40
0.8113337692
 40
0.8431133916
 40
0.8747746171
 40
0.9063032365
 40
0.9376879249
 40
0.9533258257
 40
0.968925233
 40
1.0
 40
1.0
 40
1.0
 40
1.0
 10
10.4747717172
 20
7.0392523664
 30
0.0
 10
10.4719182945
 20
7.0364961712
 30
0.0
 10
10.4674699856
 20
7.0325288639
 30
0.0
 10
10.4612401982
 20
7.0276063248
 30
0.0
 10
10.4548120368
 20
7.022928718
 30
0.0
 10
10.4464243282
 20
7.0175573165
 30
0.0
 10
10.437628794
 20
7.0128589014
 30
0.0
 10
10.4303747725
 20
7.0095164013
 30
0.0
 10
10.4229708764
 20
7.0064498836
 30
0.0
 10
10.4134720326
 20
7.0031524571
 30
0.0
 10
10.4017661328
 20
7.0000793445
 30
0.0
 10
10.3898048064
 20
6.9979022604
 30
0.0
 10
10.377654338
 20
6.9966332233
 30
0.0
 10
10.3653814739
 20
6.9962790037
 30
0.0
 10
10.3530537428
 20
6.9968414051
 30
0.0
 10
10.340738901
 20
6.998317179
 30
0.0
 10
10.3285046132
 20
7.0006980718
 30
0.0
 10
10.3164180722
 20
7.0039708701
 30
0.0
 10
10.3045456378
 20
7.0081174792
 30
0.0
 10
10.2929524769
 20
7.0131150246
 30
0.0
 10
10.2817022113
 20
7.0189359798
 30
0.0
 10
10.2708565727
 20
7.0255483172
 30
0.0
 10
10.2604750688
 20
7.0329156843
 30
0.0
 10
10.2506146609
 20
7.0409976028
 30
0.0
 10
10.2413294551
 20
7.0497496889
 30
0.0
 10
10.232670409
 20
7.0591238951
 30
0.0
 10
10.2246850546
 20
7.0690687712
 30
0.0
 10
10.2174172404
 20
7.0795297445
 30
0.0
 10
10.2109068924
 20
7.0904494127
 30
0.0
 10
10.2051897969
 20
7.101767868
 30
0.0
 10
10.2002974057
 20
7.1134229746
 30
0.0
 10
10.1962566564
 20
7.1253508782
 30
0.0
 10
10.1930898677
 20
7.1374857143
 30
0.0
 10
10.1911913108
 20
7.1477288358
 30
0.0
 10
10.1901262732
 20
7.1559590532
 30
0.0
 10
10.1893661837
 20
7.1641813969
 30
0.0
 10
10.1891360366
 20
7.1703686523
 30
0.0
 10
10.1891360366
 20
7.1744859387
 30
0.0
  0
SPLINE
  5
365
100
AcDbEntity
  8
0
100
AcDbSpline
 62
7
  6
CONTINUOUS
 70
0
 71
3
 72
23
 73
19
 74
0
 42
0.0000001
 43
0.0000001
 44
0.0000000001
 40
0.0
 40
0.0
 40
0.0
 40
0.0
 40
0.0781363634
 40
0.1532312145
 40
0.2254044137
 40
0.2948000444
 40
0.3615918227
 40
0.425978862
 40
0.488187118
 40
0.5484703241
 40
0.6071102923
 40
0.6644171419
 40
0.7207254262
 40
0.7763893711
 40
0.8317768817
 40
0.8872617001
 40
0.9432155646
 40
1.0
 40
1.0
 40
1.0
 40
1.0
 10
12.4179791963
 20
8.4865535798
 30
0.0
 10
12.4172517047
 20
8.4858508769
 30
0.0
 10
12.4157971472
 20
8.4845012644
 30
0.0
 10
12.4135716358
 20
8.4826127689
 30
0.0
 10
12.4113475963
 20
8.4809021282
 30
0.0
 10
12.4091260305
 20
8.4793703261
 30
0.0
 10
12.4069078766
 20
8.4780180628
 30
0.0
 10
12.4046939782
 20
8.476846056
 30
0.0
 10
12.4024852339
 20
8.4758549616
 30
0.0
 10
12.4002826033
 20
8.4750453726
 30
0.0
 10
12.3980870577
 20
8.4744179575
 30
0.0
 10
12.3958996781
 20
8.4739732005
 30
0.0
 10
12.3937215978
 20
8.4737115079
 30
0.0
 10
12.3915540188
 20
8.4736332513
 30
0.0
 10
12.3893982254
 20
8.4737384884
 30
0.0
 10
12.3872554535
 20
8.4740272225
 30
0.0
 10
12.3851271445
 20
8.4744992013
 30
0.0
 10
12.3837314061
 20
8.4749317819
 30
0.0
 10
12.3830383884
 20
8.475176805
 30
0.0
  0
SPLINE
  5
366
100
AcDbEntity
  8
0
100
AcDbSpline
 62
7
  6
CONTINUOUS
 70
0
 71
3
 72
91
 73
87
 74
0
 42
0.0000001
 43
0.0000001
 44
0.0000000001
 40
0.0
 40
0.0
 40
0.0
 40
0.0
 40
0.0027164146
 40
0.005453202
 40
0.008230252
 40
0.0110665198
 40
0.0139797053
 40
0.0169859824
 40
0.0200999174
 40
0.023334401
 40
0.0267007187
 40
0.0302086385
 40
0.0338665091
 40
0.0376814414
 40
0.0416593691
 40
0.0458052582
 40
0.0501231421
 40
0.0546162891
 40
0.0592872586
 40
0.064137982
 40
0.0691698666
 40
0.0743837897
 40
0.079780237
 40
0.0853592528
 40
0.0911205635
 40
0.0970635488
 40
0.1031872988
 40
0.1094906474
 40
0.1226297881
 40
0.1364673429
 40
0.1509860432
 40
0.166165828
 40
0.1819841602
 40
0.1984162836
 40
0.2154354412
 40
0.2330130641
 40
0.2511189358
 40
0.2697213391
 40
0.2887871904
 40
0.3082821639
 40
0.3281708096
 40
0.3484166635
 40
0.368982358
 40
0.3898297276
 40
0.4109199118
 40
0.4322134566
 40
0.4536704139
 40
0.4752504412
 40
0.4969128994
 40
0.5186169519
 40
0.5403216628
 40
0.5619860952
 40
0.5835694083
 40
0.6050309559
 40
0.6263303839
 40
0.6474277291
 40
0.6682835187
 40
0.688858872
 40
0.7091156002
 40
0.7290163102
 40
0.7485245085
 40
0.7676047097
 40
0.7862225487
 40
0.8043448976
 40
0.8219399925
 40
0.8389775679
 40
0.8554290014
 40
0.8712674776
 40
0.8864681732
 40
0.9010084737
 40
0.9148682315
 40
0.9280300795
 40
0.9343449284
 40
0.9404802779
 40
0.9464349254
 40
0.952207944
 40
0.9577987094
 40
0.9632068925
 40
0.9684325652
 40
0.9734761403
 40
0.9783384919
 40
0.9830209404
 40
0.9875254382
 40
0.9918545985
 40
0.9960115586
 40
1.0
 40
1.0
 40
1.0
 40
1.0
 10
12.4897071117
 20
9.4641962962
 30
0.0
 10
12.4908082746
 20
9.4641199351
 30
0.0
 10
12.4930132213
 20
9.4638669832
 30
0.0
 10
12.4962925769
 20
9.4631900805
 30
0.0
 10
12.4995471348
 20
9.462215762
 30
0.0
 10
12.502774612
 20
9.4609450648
 30
0.0
 10
12.5059732905
 20
9.459379007
 30
0.0
 10
12.5091415857
 20
9.4575189203
 30
0.0
 10
12.5122779891
 20
9.4553660473
 30
0.0
 10
12.5153811381
 20
9.4529218021
 30
0.0
 10
12.5184496843
 20
9.4501875958
 30
0.0
 10
12.5214822863
 20
9.4471649105
 30
0.0
 10
12.5244776619
 20
9.4438553551
 30
0.0
 10
12.5274344235
 20
9.4402605648
 30
0.0
 10
12.5303512976
 20
9.4363823763
 30
0.0
 10
12.5332268752
 20
9.432222667
 30
0.0
 10
12.5360598548
 20
9.4277835138
 30
0.0
 10
12.5388488582
 20
9.4230670854
 30
0.0
 10
12.5415925438
 20
9.4180757092
 30
0.0
 10
12.5442895953
 20
9.4128118553
 30
0.0
 10
12.5469386482
 20
9.4072781143
 30
0.0
 10
12.5495384468
 20
9.401477246
 30
0.0
 10
12.552087644
 20
9.3954121157
 30
0.0
 10
12.5545850199
 20
9.389085756
 30
0.0
 10
12.5570292906
 20
9.3825013104
 30
0.0
 10
12.5594192446
 20
9.3756620731
 30
0.0
 10
12.5617537064
 20
9.368571451
 30
0.0
 10
12.5648333605
 20
9.3586492013
 30
0.0
 10
12.5685248834
 20
9.3456371052
 30
0.0
 10
12.5726563358
 20
9.3292874574
 30
0.0
 10
12.5765400867
 20
9.3120263745
 30
0.0
 10
12.5801682556
 20
9.2938884586
 30
0.0
 10
12.583533458
 20
9.274909932
 30
0.0
 10
12.5866288467
 20
9.255128815
 30
0.0
 10
12.589448122
 20
9.2345847625
 30
0.0
 10
12.5919855454
 20
9.2133189962
 30
0.0
 10
12.594235952
 20
9.1913742093
 30
0.0
 10
12.5961947603
 20
9.1687944774
 30
0.0
 10
12.5978579814
 20
9.1456251662
 30
0.0
 10
12.5992222266
 20
9.1219128379
 30
0.0
 10
12.6002847132
 20
9.0977051561
 30
0.0
 10
12.6010432724
 20
9.0730507886
 30
0.0
 10
12.6014963512
 20
9.0479993075
 30
0.0
 10
12.6016430151
 20
9.0226010877
 30
0.0
 10
12.601482949
 20
8.9969072044
 30
0.0
 10
12.6010164585
 20
8.9709693299
 30
0.0
 10
12.6002444681
 20
8.9448396293
 30
0.0
 10
12.5991685199
 20
8.9185706555
 30
0.0
 10
12.5977907699
 20
8.8922152429
 30
0.0
 10
12.5961139861
 20
8.8658264007
 30
0.0
 10
12.5941415402
 20
8.8394572052
 30
0.0
 10
12.5918774011
 20
8.8131606926
 30
0.0
 10
12.5893261268
 20
8.7869897523
 30
0.0
 10
12.5864928554
 20
8.7609970202
 30
0.0
 10
12.5833832945
 20
8.7352347727
 30
0.0
 10
12.58000371
 20
8.7097548213
 30
0.0
 10
12.5763609144
 20
8.6846084067
 30
0.0
 10
12.572462254
 20
8.659846095
 30
0.0
 10
12.5683155926
 20
8.6355176751
 30
0.0
 10
12.5639292962
 20
8.6116720584
 30
0.0
 10
12.559312216
 20
8.5883571795
 30
0.0
 10
12.5544736712
 20
8.5656198986
 30
0.0
 10
12.5494234305
 20
8.5435059058
 30
0.0
 10
12.5441716921
 20
8.5220596263
 30
0.0
 10
12.5387290647
 20
8.5013241273
 30
0.0
 10
12.5331065464
 20
8.4813410268
 30
0.0
 10
12.5273154997
 20
8.4621504082
 30
0.0
 10
12.5213676284
 20
8.443790728
 30
0.0
 10
12.5152749526
 20
8.4262987534
 30
0.0
 10
12.5090497771
 20
8.4097094016
 30
0.0
 10
12.5027046714
 20
8.3940559214
 30
0.0
 10
12.4972552476
 20
8.3816516464
 30
0.0
 10
12.4928375597
 20
8.3722279318
 30
0.0
 10
12.48954805
 20
8.3655110263
 30
0.0
 10
12.4862381655
 20
8.3590505484
 30
0.0
 10
12.4829095366
 20
8.352849723
 30
0.0
 10
12.4795638602
 20
8.3469116376
 30
0.0
 10
12.4762027652
 20
8.341239266
 30
0.0
 10
12.4728279731
 20
8.3358354082
 30
0.0
 10
12.4694411069
 20
8.3307027768
 30
0.0
 10
12.4660439026
 20
8.3258439049
 30
0.0
 10
12.4626380018
 20
8.3212612052
 30
0.0
 10
12.4592250512
 20
8.3169569144
 30
0.0
 10
12.4558066539
 20
8.312933113
 30
0.0
 10
12.4523846082
 20
8.3091919839
 30
0.0
 10
12.4500545154
 20
8.3068396715
 30
0.0
 10
12.4488888253
 20
8.3057137013
 30
0.0
  0
SPLINE
  5
367
100
AcDbEntity
  8
0
100
AcDbSpline
 62
7
  6
CONTINUOUS
 70
0
 71
3
 72
85
 73
81
 74
0
 42
0.0000001
 43
0.0000001
 44
0.0000000001
 40
0.0
 40
0.0
 40
0.0
 40
0.0
 40
0.0040523015
 40
0.0082800489
 40
0.0126871091
 40
0.0172767088
 40
0.0220515382
 40
0.0270136769
 40
0.0321644652
 40
0.0375047407
 40
0.0430348848
 40
0.0487548409
 40
0.0546642381
 40
0.0607622928
 40
0.0735193811
 40
0.0870148027
 40
0.1012328019
 40
0.1161542559
 40
0.1317570782
 40
0.1480165551
 40
0.1649056363
 40
0.1823951659
 40
0.2004540778
 40
0.2190495565
 40
0.2381472068
 40
0.2577112073
 40
0.2777044432
 40
0.2980886303
 40
0.3188244294
 40
0.3398715782
 40
0.3611890083
 40
0.3827349565
 40
0.4263417812
 40
0.4703490114
 40
0.5144087942
 40
0.5581727434
 40
0.5798360128
 40
0.6012962287
 40
0.6225112594
 40
0.6434396051
 40
0.6640405056
 40
0.6842740525
 40
0.7041013073
 40
0.7234844345
 40
0.7423868195
 40
0.7607731934
 40
0.7786097701
 40
0.7958644037
 40
0.8125067657
 40
0.828508514
 40
0.8438435
 40
0.8584880145
 40
0.8724210992
 40
0.8856249155
 40
0.8980851854
 40
0.904033427
 40
0.909792385
 40
0.9153615468
 40
0.9207408324
 40
0.9259305068
 40
0.9309313327
 40
0.9357445819
 40
0.9403720585
 40
0.944816278
 40
0.9490804273
 40
0.9531685533
 40
0.9570856524
 40
0.9608377435
 40
0.9644321096
 40
0.9678773368
 40
0.9711835297
 40
0.9774235376
 40
0.9803901424
 40
0.983275319
 40
0.9860978022
 40
0.9888777378
 40
0.9916362827
 40
0.9943951391
 40
0.9971759967
 40
1.0
 40
1.0
 40
1.0
 40
1.0
 10
12.4179791963
 20
8.4865535798
 30
0.0
 10
12.4187990671
 20
8.4873455143
 30
0.0
 10
12.4204378667
 20
8.4890017421
 30
0.0
 10
12.4228434335
 20
8.4916391057
 30
0.0
 10
12.4252463385
 20
8.4944799048
 30
0.0
 10
12.4276452027
 20
8.4975225241
 30
0.0
 10
12.4300388741
 20
8.5007653868
 30
0.0
 10
12.4324261138
 20
8.5042068662
 30
0.0
 10
12.434805745
 20
8.5078451658
 30
0.0
 10
12.4371765
 20
8.5116783999
 30
0.0
 10
12.4395371283
 20
8.5157045685
 30
0.0
 10
12.4418864272
 20
8.5199215542
 30
0.0
 10
12.4442231445
 20
8.5243271777
 30
0.0
 10
12.4473677559
 20
8.5305435579
 30
0.0
 10
12.4512504595
 20
8.5387758983
 30
0.0
 10
12.4557729438
 20
8.5492250035
 30
0.0
 10
12.4602165322
 20
8.5603660157
 30
0.0
 10
12.4645718181
 20
8.5721755601
 30
0.0
 10
12.4688295824
 20
8.5846289691
 30
0.0
 10
12.4729808053
 20
8.5977001161
 30
0.0
 10
12.4770166864
 20
8.6113615552
 30
0.0
 10
12.4809286686
 20
8.6255845697
 30
0.0
 10
12.484708454
 20
8.6403392387
 30
0.0
 10
12.4883480347
 20
8.6555944977
 30
0.0
 10
12.491839702
 20
8.6713182115
 30
0.0
 10
12.4951760595
 20
8.6874772499
 30
0.0
 10
12.4983500404
 20
8.7040375593
 30
0.0
 10
12.5013549205
 20
8.7209642312
 30
0.0
 10
12.504184346
 20
8.7382215772
 30
0.0
 10
12.5068323257
 20
8.7557731986
 30
0.0
 10
12.5092932819
 20
8.7735821088
 30
0.0
 10
12.5123301713
 20
8.7977158569
 30
0.0
 10
12.51561818
 20
8.8282485046
 30
0.0
 10
12.5187314237
 20
8.865159746
 30
0.0
 10
12.5210013165
 20
8.9021767068
 30
0.0
 10
12.5221783256
 20
8.9329553317
 30
0.0
 10
12.5226793709
 20
8.9573916227
 30
0.0
 10
12.5228333439
 20
8.9754894917
 30
0.0
 10
12.5227665263
 20
8.9933811526
 30
0.0
 10
12.5224790588
 20
9.0110289018
 30
0.0
 10
12.5219715709
 20
9.0283955143
 30
0.0
 10
12.5212451513
 20
9.0454443688
 30
0.0
 10
12.5203013526
 20
9.0621395161
 30
0.0
 10
12.5191421988
 20
9.0784457619
 30
0.0
 10
12.5177701702
 20
9.0943287406
 30
0.0
 10
12.5161881988
 20
9.1097549853
 30
0.0
 10
12.5143996612
 20
9.1246919998
 30
0.0
 10
12.5124083742
 20
9.1391083352
 30
0.0
 10
12.5102185972
 20
9.152973663
 30
0.0
 10
12.5078350087
 20
9.1662588393
 30
0.0
 10
12.505262699
 20
9.1789359727
 30
0.0
 10
12.5025071524
 20
9.1909784728
 30
0.0
 10
12.4995742438
 20
9.202361199
 30
0.0
 10
12.4964702065
 20
9.2130602764
 30
0.0
 10
12.4937052878
 20
9.2215141222
 30
0.0
 10
12.491405362
 20
9.2279118428
 30
0.0
 10
12.4896684943
 20
9.2324510011
 30
0.0
 10
12.4878938526
 20
9.2368031855
 30
0.0
 10
12.4860823923
 20
9.2409661444
 30
0.0
 10
12.4842350242
 20
9.2449376955
 30
0.0
 10
12.4823527188
 20
9.2487157766
 30
0.0
 10
12.4804364672
 20
9.2522984365
 30
0.0
 10
12.4784872034
 20
9.2556837994
 30
0.0
 10
12.4765059693
 20
9.2588701416
 30
0.0
 10
12.4744937194
 20
9.2618558024
 30
0.0
 10
12.4724514505
 20
9.2646392438
 30
0.0
 10
12.47038019
 20
9.2672190436
 30
0.0
 10
12.4682808399
 20
9.2695938345
 30
0.0
 10
12.4661545275
 20
9.2717623437
 30
0.0
 10
12.464001855
 20
9.273723572
 30
0.0
 10
12.4611539125
 20
9.2760157737
 30
0.0
 10
12.4581974862
 20
9.2779524616
 30
0.0
 10
12.4551509072
 20
9.2794718694
 30
0.0
 10
12.4528829998
 20
9.2803800242
 30
0.0
 10
12.4505955925
 20
9.2810746697
 30
0.0
 10
12.448290031
 20
9.2815552502
 30
0.0
 10
12.4459679267
 20
9.2818211404
 30
0.0
 10
12.4436309026
 20
9.2818721664
 30
0.0
 10
12.441280863
 20
9.281708365
 30
0.0
 10
12.4397217632
 20
9.2814585343
 30
0.0
 10
12.4389434368
 20
9.2812996582
 30
0.0
  0
SPLINE
  5
368
100
AcDbEntity
  8
0
100
AcDbSpline
 62
7
  6
CONTINUOUS
 70
0
 71
3
 72
86
 73
82
 74
0
 42
0.0000001
 43
0.0000001
 44
0.0000000001
 40
0.0
 40
0.0
 40
0.0
 40
0.0
 40
0.0039801735
 40
0.0081241171
 40
0.0124359931
 40
0.016919361
 40
0.0215772361
 40
0.0264119817
 40
0.0314252561
 40
0.0366182449
 40
0.0419916453
 40
0.0475457694
 40
0.0532805541
 40
0.0591955582
 40
0.0652900785
 40
0.0715630739
 40
0.0846387684
 40
0.0984101018
 40
0.112860694
 40
0.1279712428
 40
0.1437198619
 40
0.1600823544
 40
0.1770324406
 40
0.1945419645
 40
0.2125810668
 40
0.2311183398
 40
0.2501209668
 40
0.2695548486
 40
0.289384725
 40
0.3095742955
 40
0.3300863312
 40
0.3508827821
 40
0.3719248818
 40
0.3931732491
 40
0.4145879914
 40
0.4577543474
 40
0.501099203
 40
0.5442952951
 40
0.5657359749
 40
0.587017582
 40
0.6081001434
 40
0.6289441761
 40
0.6495107926
 40
0.6697618048
 40
0.6896598276
 40
0.709168385
 40
0.7282520204
 40
0.7468764117
 40
0.7650084972
 40
0.7826166038
 40
0.7996705814
 40
0.8161419537
 40
0.8320040874
 40
0.8472323859
 40
0.8618045214
 40
0.8757007003
 40
0.8889039845
 40
0.9014006969
 40
0.9073810972
 40
0.9131815075
 40
0.9188013673
 40
0.9242405009
 40
0.9294990443
 40
0.9345775709
 40
0.9394770909
 40
0.9441990928
 40
0.9487456636
 40
0.9531194621
 40
0.9573238984
 40
0.9613631411
 40
0.9652422549
 40
0.9689673208
 40
0.9725454977
 40
0.9759852252
 40
0.9824864215
 40
0.9855752926
 40
0.9885737717
 40
0.9914977072
 40
0.9943643167
 40
0.9971920017
 40
1.0
 40
1.0
 40
1.0
 40
1.0
 10
10.2456118675
 20
10.5381498695
 30
0.0
 10
10.2466021449
 20
10.5391064041
 30
0.0
 10
10.2486684182
 20
10.5410127121
 30
0.0
 10
10.2519490299
 20
10.5437970256
 30
0.0
 10
10.2554705528
 20
10.546561378
 30
0.0
 10
10.2592310537
 20
10.5493042801
 30
0.0
 10
10.263228686
 20
10.5520244642
 30
0.0
 10
10.267461505
 20
10.5547205929
 30
0.0
 10
10.271927389
 20
10.5573913928
 30
0.0
 10
10.2766241245
 20
10.5600354738
 30
0.0
 10
10.2815493423
 20
10.5626515509
 30
0.0
 10
10.2867005834
 20
10.5652383067
 30
0.0
 10
10.2920752718
 20
10.567794432
 30
0.0
 10
10.2976706973
 20
10.5703186712
 30
0.0
 10
10.3034840684
 20
10.5728097254
 30
0.0
 10
10.3116349237
 20
10.5761312264
 30
0.0
 10
10.3223539819
 20
10.5801821173
 30
0.0
 10
10.3358654736
 20
10.5848265227
 30
0.0
 10
10.3501706053
 20
10.589309668
 30
0.0
 10
10.3652405359
 20
10.593622441
 30
0.0
 10
10.3810450144
 20
10.5977560622
 30
0.0
 10
10.3975522038
 20
10.6017021116
 30
0.0
 10
10.4147288246
 20
10.6054525535
 30
0.0
 10
10.4325402122
 20
10.6089997487
 30
0.0
 10
10.4509504004
 20
10.6123364721
 30
0.0
 10
10.4699221969
 20
10.6154559281
 30
0.0
 10
10.4894172603
 20
10.6183517632
 30
0.0
 10
10.5093961782
 20
10.6210180816
 30
0.0
 10
10.5298185486
 20
10.6234494597
 30
0.0
 10
10.5506430663
 20
10.6256409512
 30
0.0
 10
10.5718276074
 20
10.6275880978
 30
0.0
 10
10.5933293194
 20
10.6292869399
 30
0.0
 10
10.6151046918
 20
10.6307340145
 30
0.0
 10
10.6371097042
 20
10.631926402
 30
0.0
 10
10.6667738454
 20
10.6331765866
 30
0.0
 10
10.7041000287
 20
10.6340846671
 30
0.0
 10
10.748971812
 20
10.6341320135
 30
0.0
 10
10.7863190858
 20
10.6333028587
 30
0.0
 10
10.8160165941
 20
10.6321156891
 30
0.0
 10
10.838058593
 20
10.6309699008
 30
0.0
 10
10.8598790187
 20
10.6295689483
 30
0.0
 10
10.8814337585
 20
10.6279156543
 30
0.0
 10
10.9026791925
 20
10.6260133874
 30
0.0
 10
10.9235723443
 20
10.6238660173
 30
0.0
 10
10.9440709513
 20
10.6214779133
 30
0.0
 10
10.9641335547
 20
10.618853934
 30
0.0
 10
10.9837195822
 20
10.6159994188
 30
0.0
 10
11.0027894334
 20
10.6129201753
 30
0.0
 10
11.0213045646
 20
10.6096224736
 30
0.0
 10
11.0392275688
 20
10.6061130313
 30
0.0
 10
11.0565222526
 20
10.6023989971
 30
0.0
 10
11.0731537122
 20
10.5984879365
 30
0.0
 10
11.0890884066
 20
10.5943878163
 30
0.0
 10
11.1042942416
 20
10.5901069843
 30
0.0
 10
11.118740623
 20
10.5856541561
 30
0.0
 10
11.1323986128
 20
10.5810383854
 30
0.0
 10
11.1452407104
 20
10.576269043
 30
0.0
 10
11.1553848067
 20
10.5721160497
 30
0.0
 10
11.1630644246
 20
10.5687163832
 30
0.0
 10
11.1685197326
 20
10.5661717026
 30
0.0
 10
11.1737525516
 20
10.5635959277
 30
0.0
 10
11.178760281
 20
10.5609903775
 30
0.0
 10
11.1835403969
 20
10.5583563228
 30
0.0
 10
11.1880905156
 20
10.5556950965
 30
0.0
 10
11.1924083707
 20
10.5530080291
 30
0.0
 10
11.1964917921
 20
10.5502964143
 30
0.0
 10
11.2003387754
 20
10.5475616346
 30
0.0
 10
11.2039473763
 20
10.5448049655
 30
0.0
 10
11.2073158274
 20
10.5420277764
 30
0.0
 10
11.2104424347
 20
10.5392313773
 30
0.0
 10
11.2133256368
 20
10.5364170422
 30
0.0
 10
11.2159639434
 20
10.5335862071
 30
0.0
 10
11.2183561566
 20
10.5307397682
 30
0.0
 10
11.2211625054
 20
10.5269970788
 30
0.0
 10
11.2235455176
 20
10.5231534714
 30
0.0
 10
11.2254375572
 20
10.5192278123
 30
0.0
 10
11.2265807026
 20
10.5163244845
 30
0.0
 10
11.2274709565
 20
10.5134141065
 30
0.0
 10
11.2281074904
 20
10.5104980625
 30
0.0
 10
11.2284897121
 20
10.5075784581
 30
0.0
 10
11.2285748011
 20
10.5056279282
 30
0.0
 10
11.2285748055
 20
10.5046565932
 30
0.0
  0
SPLINE
  5
369
100
AcDbEntity
  8
0
100
AcDbSpline
 62
7
  6
CONTINUOUS
 70
0
 71
3
 72
51
 73
47
 74
0
 42
0.0000001
 43
0.0000001
 44
0.0000000001
 40
0.0
 40
0.0
 40
0.0
 40
0.0
 40
0.0103086877
 40
0.0210704676
 40
0.0322802399
 40
0.0439316924
 40
0.0560173473
 40
0.0685287966
 40
0.0814566261
 40
0.0947906743
 40
0.1085199221
 40
0.1226327001
 40
0.1371166329
 40
0.151958741
 40
0.1826621704
 40
0.2146289112
 40
0.2477367159
 40
0.2818568025
 40
0.3168547678
 40
0.3525914482
 40
0.3889237459
 40
0.4257054342
 40
0.462787949
 40
0.5000211717
 40
0.5372542078
 40
0.574336163
 40
0.6111169213
 40
0.6474479232
 40
0.6831829488
 40
0.7181789094
 40
0.7522966526
 40
0.7854017889
 40
0.8173655523
 40
0.8480657114
 40
0.8629060728
 40
0.8773882065
 40
0.8914991067
 40
0.9052264337
 40
0.9185584894
 40
0.931484287
 40
0.9439936479
 40
0.9560771722
 40
0.9677264599
 40
0.9789340216
 40
0.9896935771
 40
1.0
 40
1.0
 40
1.0
 40
1.0
 10
12.3355857871
 20
8.5565361948
 30
0.0
 10
12.3366418508
 20
8.5585543037
 30
0.0
 10
12.338741427
 20
8.5627102957
 30
0.0
 10
12.3417935794
 20
8.5691573751
 30
0.0
 10
12.3448134614
 20
8.5759456776
 30
0.0
 10
12.347797754
 20
8.5830678641
 30
0.0
 10
12.3507432762
 20
8.5905163006
 30
0.0
 10
12.353646792
 20
8.5982829827
 30
0.0
 10
12.356505206
 20
8.6063595445
 30
0.0
 10
12.3593153747
 20
8.6147372927
 30
0.0
 10
12.3620742926
 20
8.6234071923
 30
0.0
 10
12.3647789373
 20
8.6323598935
 30
0.0
 10
12.3674264112
 20
8.6415857447
 30
0.0
 10
12.3709156908
 20
8.6543825218
 30
0.0
 10
12.3751044868
 20
8.6709907853
 30
0.0
 10
12.3798043122
 20
8.691626368
 30
0.0
 10
12.3842119267
 20
8.7130974856
 30
0.0
 10
12.3883081588
 20
8.7353114169
 30
0.0
 10
12.3920751798
 20
8.7581723342
 30
0.0
 10
12.395496614
 20
8.7815815347
 30
0.0
 10
12.3985575977
 20
8.8054379324
 30
0.0
 10
12.4012448446
 20
8.829638486
 30
0.0
 10
12.403546701
 20
8.8540786543
 30
0.0
 10
12.4054531959
 20
8.8786528511
 30
0.0
 10
12.406956083
 20
8.9032549061
 30
0.0
 10
12.4080488777
 20
8.9277785271
 30
0.0
 10
12.4087268859
 20
8.9521177635
 30
0.0
 10
12.4089872236
 20
8.9761674687
 30
0.0
 10
12.4088288313
 20
8.9998237575
 30
0.0
 10
12.4082524816
 20
9.0229844646
 30
0.0
 10
12.4072607735
 20
9.0455495783
 30
0.0
 10
12.4058581423
 20
9.0674217345
 30
0.0
 10
12.4040507801
 20
9.0885064614
 30
0.0
 10
12.4021938115
 20
9.1055320778
 30
0.0
 10
12.4005037004
 20
9.1186863984
 30
0.0
 10
12.3991546119
 20
9.128188104
 30
0.0
 10
12.3977111869
 20
9.1374271168
 30
0.0
 10
12.3961749963
 20
9.1463934775
 30
0.0
 10
12.3945477103
 20
9.1550775113
 30
0.0
 10
12.3928310884
 20
9.1634698562
 30
0.0
 10
12.3910270228
 20
9.1715614694
 30
0.0
 10
12.3891374356
 20
9.1793436399
 30
0.0
 10
12.38716443
 20
9.186807995
 30
0.0
 10
12.3851100861
 20
9.1939465346
 30
0.0
 10
12.3829767085
 20
9.200751537
 30
0.0
 10
12.3814706407
 20
9.2051564226
 30
0.0
 10
12.3807031293
 20
9.2073004099
 30
0.0
  0
SPLINE
  5
36A
100
AcDbEntity
  8
0
100
AcDbSpline
 62
7
  6
CONTINUOUS
 70
0
 71
3
 72
71
 73
67
 74
0
 42
0.0000001
 43
0.0000001
 44
0.0000000001
 40
0.0
 40
0.0
 40
0.0
 40
0.0
 40
0.0155841583
 40
0.0311159808
 40
0.0465952391
 40
0.0620238824
 40
0.0774034512
 40
0.0927362817
 40
0.1080251233
 40
0.1232731726
 40
0.138484055
 40
0.1536617764
 40
0.1688106901
 40
0.183935453
 40
0.1990409778
 40
0.2141323818
 40
0.2292149321
 40
0.24429399
 40
0.2593749541
 40
0.2744632037
 40
0.28956404
 40
0.3046826301
 40
0.319823951
 40
0.3349927394
 40
0.3501934432
 40
0.3654301763
 40
0.380706678
 40
0.3960262757
 40
0.4113918557
 40
0.4268058382
 40
0.442270158
 40
0.4577862479
 40
0.4733550295
 40
0.4889769098
 40
0.5046517843
 40
0.5203790419
 40
0.5361575758
 40
0.5519857968
 40
0.5678616544
 40
0.5837826609
 40
0.5997459173
 40
0.6157481415
 40
0.6317856999
 40
0.6478546445
 40
0.6639507497
 40
0.6800695506
 40
0.696206382
 40
0.7123564201
 40
0.7285147268
 40
0.7446762928
 40
0.7608360801
 40
0.7769890652
 40
0.7931302837
 40
0.8092548746
 40
0.8253581231
 40
0.8414355008
 40
0.8574827062
 40
0.8734957056
 40
0.8894707696
 40
0.9054045137
 40
0.9212939168
 40
0.9371363628
 40
0.9529297287
 40
0.9686720424
 40
0.9843627193
 40
1.0
 40
1.0
 40
1.0
 40
1.0
 10
11.1086974777
 20
7.6844741222
 30
0.0
 10
11.1086974777
 20
7.6800567754
 30
0.0
 10
11.1084812882
 20
7.6712353504
 30
0.0
 10
11.107505465
 20
7.6580588068
 30
0.0
 10
11.1058808082
 20
7.6449904789
 30
0.0
 10
11.1036113662
 20
7.6320624212
 30
0.0
 10
11.1007024594
 20
7.6193055609
 30
0.0
 10
11.0971611021
 20
7.6067507307
 30
0.0
 10
11.0929958013
 20
7.5944281761
 30
0.0
 10
11.0882165739
 20
7.5823676124
 30
0.0
 10
11.0828349169
 20
7.5705981244
 30
0.0
 10
11.0768637728
 20
7.5591481035
 30
0.0
 10
11.0703175113
 20
7.5480451759
 30
0.0
 10
11.0632119142
 20
7.5373161201
 30
0.0
 10
11.0555641078
 20
7.526986817
 30
0.0
 10
11.0473925257
 20
7.5170821867
 30
0.0
 10
11.0387168626
 20
7.5076261306
 30
0.0
 10
11.0295580357
 20
7.4986414671
 30
0.0
 10
11.0199381473
 20
7.4901498579
 30
0.0
 10
11.0098804054
 20
7.4821717788
 30
0.0
 10
10.9994090724
 20
7.4747264667
 30
0.0
 10
10.9885494043
 20
7.4678318782
 30
0.0
 10
10.9773275981
 20
7.4615046339
 30
0.0
 10
10.9657707335
 20
7.455759963
 30
0.0
 10
10.9539066892
 20
7.4506116947
 30
0.0
 10
10.9417640793
 20
7.4460722198
 30
0.0
 10
10.9293721838
 20
7.4421524677
 30
0.0
 10
10.9167608841
 20
7.4388618633
 30
0.0
 10
10.9039605901
 20
7.4362082942
 30
0.0
 10
10.8910021578
 20
7.4341981213
 30
0.0
 10
10.8779168183
 20
7.432836158
 30
0.0
 10
10.864736103
 20
7.4321256656
 30
0.0
 10
10.8514917712
 20
7.4320683241
 30
0.0
 10
10.8382157296
 20
7.4326642257
 30
0.0
 10
10.8249399549
 20
7.4339119011
 30
0.0
 10
10.8116964191
 20
7.4358083169
 30
0.0
 10
10.7985170152
 20
7.43834889
 30
0.0
 10
10.7854334774
 20
7.4415274733
 30
0.0
 10
10.7724773023
 20
7.445336375
 30
0.0
 10
10.7596796782
 20
7.449766399
 30
0.0
 10
10.7470714108
 20
7.4548068609
 30
0.0
 10
10.7346828535
 20
7.4604456188
 30
0.0
 10
10.7225438239
 20
7.466669077
 30
0.0
 10
10.7106835332
 20
7.4734622285
 30
0.0
 10
10.6991305247
 20
7.4808087071
 30
0.0
 10
10.6879126042
 20
7.4886908212
 30
0.0
 10
10.6770567786
 20
7.4970896003
 30
0.0
 10
10.6665891731
 20
7.505984816
 30
0.0
 10
10.6565349747
 20
7.5153550446
 30
0.0
 10
10.6469183821
 20
7.5251777286
 30
0.0
 10
10.6377625456
 20
7.5354292267
 30
0.0
 10
10.629089517
 20
7.5460848723
 30
0.0
 10
10.6209201713
 20
7.5571190125
 30
0.0
 10
10.6132741713
 20
7.5685050848
 30
0.0
 10
10.6061699284
 20
7.580215686
 30
0.0
 10
10.5996245576
 20
7.5922226344
 30
0.0
 10
10.5936538396
 20
7.6044970376
 30
0.0
 10
10.5882721546
 20
7.617009348
 30
0.0
 10
10.5834924658
 20
7.6297294468
 30
0.0
 10
10.5793263005
 20
7.6426267179
 30
0.0
 10
10.5757837152
 20
7.6556701131
 30
0.0
 10
10.5728732641
 20
7.6688282562
 30
0.0
 10
10.5706020158
 20
7.6820693863
 30
0.0
 10
10.5689753527
 20
7.6953618572
 30
0.0
 10
10.5679973848
 20
7.7086730897
 30
0.0
 10
10.5677789829
 20
7.7175545428
 30
0.0
 10
10.5677789829
 20
7.7219869473
 30
0.0
  0
SPLINE
  5
36B
100
AcDbEntity
  8
0
100
AcDbSpline
 62
7
  6
CONTINUOUS
 70
0
 71
3
 72
71
 73
67
 74
0
 42
0.0000001
 43
0.0000001
 44
0.0000000001
 40
0.0
 40
0.0
 40
0.0
 40
0.0
 40
0.0155841583
 40
0.0311159808
 40
0.0465952391
 40
0.0620238824
 40
0.0774034512
 40
0.0927362817
 40
0.1080251233
 40
0.1232731726
 40
0.138484055
 40
0.1536617764
 40
0.1688106901
 40
0.183935453
 40
0.1990409778
 40
0.2141323818
 40
0.2292149321
 40
0.24429399
 40
0.2593749541
 40
0.2744632037
 40
0.28956404
 40
0.3046826301
 40
0.319823951
 40
0.3349927394
 40
0.3501934432
 40
0.3654301763
 40
0.380706678
 40
0.3960262757
 40
0.4113918557
 40
0.4268058382
 40
0.442270158
 40
0.4577862479
 40
0.4733550295
 40
0.4889769098
 40
0.5046517843
 40
0.5203790419
 40
0.5361575758
 40
0.5519857968
 40
0.5678616544
 40
0.5837826609
 40
0.5997459173
 40
0.6157481415
 40
0.6317856999
 40
0.6478546445
 40
0.6639507497
 40
0.6800695506
 40
0.696206382
 40
0.7123564201
 40
0.7285147268
 40
0.7446762928
 40
0.7608360801
 40
0.7769890652
 40
0.7931302837
 40
0.8092548746
 40
0.8253581231
 40
0.8414355008
 40
0.8574827062
 40
0.8734957056
 40
0.8894707696
 40
0.9054045137
 40
0.9212939168
 40
0.9371363628
 40
0.9529297287
 40
0.9686720424
 40
0.9843627193
 40
1.0
 40
1.0
 40
1.0
 40
1.0
 10
10.5677789829
 20
7.7219869473
 30
0.0
 10
10.5677789829
 20
7.7264042941
 30
0.0
 10
10.5679951724
 20
7.7352257191
 30
0.0
 10
10.5689709957
 20
7.7484022627
 30
0.0
 10
10.5705956525
 20
7.7614705906
 30
0.0
 10
10.5728650944
 20
7.7743986483
 30
0.0
 10
10.5757740013
 20
7.7871555086
 30
0.0
 10
10.5793153585
 20
7.7997103388
 30
0.0
 10
10.5834806593
 20
7.8120328934
 30
0.0
 10
10.5882598868
 20
7.8240934571
 30
0.0
 10
10.5936415437
 20
7.8358629451
 30
0.0
 10
10.5996126878
 20
7.847312966
 30
0.0
 10
10.6061589494
 20
7.8584158936
 30
0.0
 10
10.6132645464
 20
7.8691449494
 30
0.0
 10
10.6209123528
 20
7.8794742525
 30
0.0
 10
10.6290839349
 20
7.8893788828
 30
0.0
 10
10.637759598
 20
7.8988349389
 30
0.0
 10
10.6469184249
 20
7.9078196024
 30
0.0
 10
10.6565383133
 20
7.9163112116
 30
0.0
 10
10.6665960552
 20
7.9242892907
 30
0.0
 10
10.6770673882
 20
7.9317346028
 30
0.0
 10
10.6879270563
 20
7.9386291913
 30
0.0
 10
10.6991488625
 20
7.9449564356
 30
0.0
 10
10.7107057271
 20
7.9507011065
 30
0.0
 10
10.7225697714
 20
7.9558493748
 30
0.0
 10
10.7347123813
 20
7.9603888497
 30
0.0
 10
10.7471042768
 20
7.9643086018
 30
0.0
 10
10.7597155765
 20
7.9675992062
 30
0.0
 10
10.7725158706
 20
7.9702527753
 30
0.0
 10
10.7854743028
 20
7.9722629482
 30
0.0
 10
10.7985596424
 20
7.9736249115
 30
0.0
 10
10.8117403576
 20
7.9743354039
 30
0.0
 10
10.8249846894
 20
7.9743927454
 30
0.0
 10
10.8382607311
 20
7.9737968438
 30
0.0
 10
10.8515365057
 20
7.9725491684
 30
0.0
 10
10.8647800415
 20
7.9706527526
 30
0.0
 10
10.8779594454
 20
7.9681121795
 30
0.0
 10
10.8910429832
 20
7.9649335962
 30
0.0
 10
10.9039991584
 20
7.9611246945
 30
0.0
 10
10.9167967825
 20
7.9566946704
 30
0.0
 10
10.9294050499
 20
7.9516542086
 30
0.0
 10
10.9417936071
 20
7.9460154506
 30
0.0
 10
10.9539326367
 20
7.9397919925
 30
0.0
 10
10.9657929274
 20
7.932998841
 30
0.0
 10
10.9773459359
 20
7.9256523624
 30
0.0
 10
10.9885638564
 20
7.9177702483
 30
0.0
 10
10.999419682
 20
7.9093714691
 30
0.0
 10
11.0098872876
 20
7.9004762535
 30
0.0
 10
11.0199414859
 20
7.8911060249
 30
0.0
 10
11.0295580785
 20
7.8812833409
 30
0.0
 10
11.038713915
 20
7.8710318428
 30
0.0
 10
11.0473869437
 20
7.8603761972
 30
0.0
 10
11.0555562893
 20
7.849342057
 30
0.0
 10
11.0632022894
 20
7.8379559847
 30
0.0
 10
11.0703065322
 20
7.8262453834
 30
0.0
 10
11.0768519031
 20
7.8142384351
 30
0.0
 10
11.082822621
 20
7.8019640319
 30
0.0
 10
11.088204306
 20
7.7894517215
 30
0.0
 10
11.0929839948
 20
7.7767316227
 30
0.0
 10
11.0971501602
 20
7.7638343516
 30
0.0
 10
11.1006927454
 20
7.7507909563
 30
0.0
 10
11.1036031965
 20
7.7376328133
 30
0.0
 10
11.1058744448
 20
7.7243916832
 30
0.0
 10
11.1075011079
 20
7.7110992123
 30
0.0
 10
11.1084790758
 20
7.6977879798
 30
0.0
 10
11.1086974777
 20
7.6889065267
 30
0.0
 10
11.1086974777
 20
7.6844741222
 30
0.0
  0
SPLINE
  5
36C
100
AcDbEntity
  8
0
100
AcDbSpline
 62
7
  6
CONTINUOUS
 70
0
 71
3
 72
18
 73
14
 74
0
 42
0.0000001
 43
0.0000001
 44
0.0000000001
 40
0.0
 40
0.0
 40
0.0
 40
0.0
 40
0.150467608
 40
0.291710008
 40
0.4244359371
 40
0.549562455
 40
0.6682139939
 40
0.7255497488
 40
0.7817912909
 40
0.8371402503
 40
0.8918093826
 40
0.9460201179
 40
1.0
 40
1.0
 40
1.0
 40
1.0
 10
12.4488888253
 20
8.3057137013
 30
0.0
 10
12.4472208418
 20
8.3041025529
 30
0.0
 10
12.4438872432
 20
8.3010796238
 30
0.0
 10
12.4387251927
 20
8.2970510547
 30
0.0
 10
12.4335692054
 20
8.2936817627
 30
0.0
 10
12.4284246193
 20
8.2909772781
 30
0.0
 10
12.4241006514
 20
8.2892623295
 30
0.0
 10
12.4206676119
 20
8.2882434097
 30
0.0
 10
12.4181294006
 20
8.2876561188
 30
0.0
 10
12.4155996101
 20
8.2872375415
 30
0.0
 10
12.4130789491
 20
8.286987826
 30
0.0
 10
12.4105684203
 20
8.2869071022
 30
0.0
 10
12.4089004972
 20
8.2869660947
 30
0.0
 10
12.4080705389
 20
8.2870236489
 30
0.0
  0
SPLINE
  5
36D
100
AcDbEntity
  8
0
100
AcDbSpline
 62
4
  6
CONTINUOUS
 70
0
 71
3
 72
397
 73
393
 74
0
 42
0.0000001
 43
0.0000001
 44
0.0000000001
 40
0.0
 40
0.0
 40
0.0
 40
0.0
 40
0.015625
 40
0.0234375
 40
0.03125
 40
0.0390625
 40
0.04296875
 40
0.046875
 40
0.05078125
 40
0.0546875
 40
0.056640625
 40
0.05859375
 40
0.0595703125
 40
0.060546875
 40
0.0615234375
 40
0.0620117188
 40
0.0622558594
 40
0.0625
 40
0.0627441406
 40
0.0629882812
 40
0.0634765625
 40
0.064453125
 40
0.0654296875
 40
0.06640625
 40
0.068359375
 40
0.0703125
 40
0.07421875
 40
0.078125
 40
0.08203125
 40
0.0859375
 40
0.09375
 40
0.1015625
 40
0.10546875
 40
0.109375
 40
0.11328125
 40
0.1171875
 40
0.119140625
 40
0.12109375
 40
0.1220703125
 40
0.123046875
 40
0.1240234375
 40
0.1245117188
 40
0.1247558594
 40
0.125
 40
0.1252441406
 40
0.1254882812
 40
0.1259765625
 40
0.126953125
 40
0.1279296875
 40
0.12890625
 40
0.130859375
 40
0.1328125
 40
0.13671875
 40
0.140625
 40
0.14453125
 40
0.1484375
 40
0.15625
 40
0.1640625
 40
0.16796875
 40
0.171875
 40
0.17578125
 40
0.1796875
 40
0.181640625
 40
0.18359375
 40
0.1845703125
 40
0.185546875
 40
0.1865234375
 40
0.1870117188
 40
0.1872558594
 40
0.1875
 40
0.1877441406
 40
0.1879882812
 40
0.1884765625
 40
0.189453125
 40
0.1904296875
 40
0.19140625
 40
0.193359375
 40
0.1953125
 40
0.19921875
 40
0.203125
 40
0.20703125
 40
0.2109375
 40
0.21875
 40
0.2265625
 40
0.23046875
 40
0.234375
 40
0.23828125
 40
0.2421875
 40
0.244140625
 40
0.24609375
 40
0.2470703125
 40
0.248046875
 40
0.2490234375
 40
0.2495117188
 40
0.2497558594
 40
0.25
 40
0.2502441406
 40
0.2504882812
 40
0.2509765625
 40
0.251953125
 40
0.2529296875
 40
0.25390625
 40
0.255859375
 40
0.2578125
 40
0.26171875
 40
0.265625
 40
0.26953125
 40
0.2734375
 40
0.28125
 40
0.2890625
 40
0.29296875
 40
0.296875
 40
0.30078125
 40
0.3046875
 40
0.306640625
 40
0.30859375
 40
0.3095703125
 40
0.310546875
 40
0.3115234375
 40
0.3120117188
 40
0.3122558594
 40
0.3125
 40
0.3127441406
 40
0.3129882812
 40
0.3134765625
 40
0.314453125
 40
0.3154296875
 40
0.31640625
 40
0.318359375
 40
0.3203125
 40
0.32421875
 40
0.328125
 40
0.33203125
 40
0.3359375
 40
0.34375
 40
0.3515625
 40
0.35546875
 40
0.359375
 40
0.36328125
 40
0.3671875
 40
0.369140625
 40
0.37109375
 40
0.3720703125
 40
0.373046875
 40
0.3740234375
 40
0.3745117188
 40
0.3747558594
 40
0.375
 40
0.3752441406
 40
0.3754882812
 40
0.3759765625
 40
0.376953125
 40
0.3779296875
 40
0.37890625
 40
0.380859375
 40
0.3828125
 40
0.38671875
 40
0.390625
 40
0.39453125
 40
0.3984375
 40
0.40625
 40
0.4140625
 40
0.41796875
 40
0.421875
 40
0.42578125
 40
0.4296875
 40
0.431640625
 40
0.43359375
 40
0.4345703125
 40
0.435546875
 40
0.4365234375
 40
0.4370117188
 40
0.4372558594
 40
0.4375
 40
0.4377441406
 40
0.4379882812
 40
0.4384765625
 40
0.439453125
 40
0.4404296875
 40
0.44140625
 40
0.443359375
 40
0.4453125
 40
0.44921875
 40
0.453125
 40
0.45703125
 40
0.4609375
 40
0.46875
 40
0.4765625
 40
0.48046875
 40
0.484375
 40
0.48828125
 40
0.4921875
 40
0.494140625
 40
0.49609375
 40
0.4970703125
 40
0.498046875
 40
0.4990234375
 40
0.4995117188
 40
0.4997558594
 40
0.5
 40
0.5002441406
 40
0.5004882812
 40
0.5009765625
 40
0.501953125
 40
0.5029296875
 40
0.50390625
 40
0.505859375
 40
0.5078125
 40
0.51171875
 40
0.515625
 40
0.51953125
 40
0.5234375
 40
0.53125
 40
0.5390625
 40
0.54296875
 40
0.546875
 40
0.55078125
 40
0.5546875
 40
0.556640625
 40
0.55859375
 40
0.5595703125
 40
0.560546875
 40
0.5615234375
 40
0.5620117188
 40
0.5622558594
 40
0.5625
 40
0.5627441406
 40
0.5629882812
 40
0.5634765625
 40
0.564453125
 40
0.5654296875
 40
0.56640625
 40
0.568359375
 40
0.5703125
 40
0.57421875
 40
0.578125
 40
0.58203125
 40
0.5859375
 40
0.59375
 40
0.6015625
 40
0.60546875
 40
0.609375
 40
0.61328125
 40
0.6171875
 40
0.619140625
 40
0.62109375
 40
0.6220703125
 40
0.623046875
 40
0.6240234375
 40
0.6245117188
 40
0.625
 40
0.6254882812
 40
0.6259765625
 40
0.626953125
 40
0.6279296875
 40
0.62890625
 40
0.630859375
 40
0.6328125
 40
0.63671875
 40
0.640625
 40
0.64453125
 40
0.6484375
 40
0.65625
 40
0.6640625
 40
0.66796875
 40
0.671875
 40
0.67578125
 40
0.6796875
 40
0.681640625
 40
0.68359375
 40
0.6845703125
 40
0.685546875
 40
0.6865234375
 40
0.6870117188
 40
0.6872558594
 40
0.6875
 40
0.6877441406
 40
0.6879882812
 40
0.6884765625
 40
0.689453125
 40
0.6904296875
 40
0.69140625
 40
0.693359375
 40
0.6953125
 40
0.69921875
 40
0.703125
 40
0.70703125
 40
0.7109375
 40
0.71875
 40
0.7265625
 40
0.73046875
 40
0.734375
 40
0.73828125
 40
0.7421875
 40
0.744140625
 40
0.74609375
 40
0.7470703125
 40
0.748046875
 40
0.7490234375
 40
0.7495117188
 40
0.7497558594
 40
0.75
 40
0.7502441406
 40
0.7504882812
 40
0.7509765625
 40
0.751953125
 40
0.7529296875
 40
0.75390625
 40
0.755859375
 40
0.7578125
 40
0.76171875
 40
0.765625
 40
0.76953125
 40
0.7734375
 40
0.78125
 40
0.7890625
 40
0.79296875
 40
0.796875
 40
0.80078125
 40
0.8046875
 40
0.806640625
 40
0.80859375
 40
0.8095703125
 40
0.810546875
 40
0.8115234375
 40
0.8120117188
 40
0.8125
 40
0.8129882812
 40
0.8134765625
 40
0.814453125
 40
0.8154296875
 40
0.81640625
 40
0.818359375
 40
0.8203125
 40
0.82421875
 40
0.828125
 40
0.83203125
 40
0.8359375
 40
0.84375
 40
0.8515625
 40
0.85546875
 40
0.859375
 40
0.86328125
 40
0.8671875
 40
0.869140625
 40
0.87109375
 40
0.8720703125
 40
0.873046875
 40
0.8740234375
 40
0.8745117188
 40
0.875
 40
0.8754882812
 40
0.8759765625
 40
0.876953125
 40
0.8779296875
 40
0.87890625
 40
0.880859375
 40
0.8828125
 40
0.88671875
 40
0.890625
 40
0.89453125
 40
0.8984375
 40
0.90625
 40
0.9140625
 40
0.91796875
 40
0.921875
 40
0.92578125
 40
0.9296875
 40
0.931640625
 40
0.93359375
 40
0.9345703125
 40
0.935546875
 40
0.9365234375
 40
0.9370117188
 40
0.9372558594
 40
0.9375
 40
0.9377441406
 40
0.9379882812
 40
0.9384765625
 40
0.939453125
 40
0.9404296875
 40
0.94140625
 40
0.943359375
 40
0.9453125
 40
0.94921875
 40
0.953125
 40
0.95703125
 40
0.9609375
 40
0.96875
 40
0.9765625
 40
0.984375
 40
1.0
 40
1.0
 40
1.0
 40
1.0
 10
10.4045375086
 20
8.7369047574
 30
0.0
 10
10.4073517484
 20
8.7369855279
 30
0.0
 10
10.4115731081
 20
8.7371066835
 30
0.0
 10
10.4172015878
 20
8.7372682244
 30
0.0
 10
10.4214229475
 20
8.7373893801
 30
0.0
 10
10.4249407472
 20
8.7374903429
 30
0.0
 10
10.427754987
 20
8.7375711137
 30
0.0
 10
10.429865667
 20
8.7376316906
 30
0.0
 10
10.4319763462
 20
8.7376922718
 30
0.0
 10
10.4337352482
 20
8.7377427429
 30
0.0
 10
10.4351423639
 20
8.7377831494
 30
0.0
 10
10.4360218244
 20
8.737808336
 30
0.0
 10
10.4367253627
 20
8.7378286397
 30
0.0
 10
10.437253099
 20
8.7378434446
 30
0.0
 10
10.4376926164
 20
8.7378571275
 30
0.0
 10
10.4380007943
 20
8.737864065
 30
0.0
 10
10.4381760908
 20
8.7378721522
 30
0.0
 10
10.4383098315
 20
8.7378666035
 30
0.0
 10
10.438434901
 20
8.7379054494
 30
0.0
 10
10.438604685
 20
8.7379417586
 30
0.0
 10
10.4389003977
 20
8.7380125147
 30
0.0
 10
10.4393235812
 20
8.7381098227
 30
0.0
 10
10.4398310861
 20
8.7382282069
 30
0.0
 10
10.4405078694
 20
8.7383854885
 30
0.0
 10
10.4413538108
 20
8.7385822837
 30
0.0
 10
10.4427073381
 20
8.738897048
 30
0.0
 10
10.44439924
 20
8.7392905404
 30
0.0
 10
10.4464295253
 20
8.7397627154
 30
0.0
 10
10.4484598099
 20
8.7402348947
 30
0.0
 10
10.4511668562
 20
8.7408644655
 30
0.0
 10
10.454550664
 20
8.7416514297
 30
0.0
 10
10.457934472
 20
8.7424383934
 30
0.0
 10
10.4606415181
 20
8.7430679649
 30
0.0
 10
10.4626718032
 20
8.7435401424
 30
0.0
 10
10.4647020866
 20
8.744012324
 30
0.0
 10
10.4663939946
 20
8.744405796
 30
0.0
 10
10.4677475096
 20
8.7447206019
 30
0.0
 10
10.4685934823
 20
8.7449172911
 30
0.0
 10
10.4692702013
 20
8.7450747902
 30
0.0
 10
10.4697779026
 20
8.7451925101
 30
0.0
 10
10.4702004714
 20
8.7452918966
 30
0.0
 10
10.4704972814
 20
8.7453589421
 30
0.0
 10
10.4706653072
 20
8.7454011965
 30
0.0
 10
10.4707957772
 20
8.7454217808
 30
0.0
 10
10.4709092348
 20
8.7454848198
 30
0.0
 10
10.4710664458
 20
8.7455540631
 30
0.0
 10
10.4713388001
 20
8.7456821385
 30
0.0
 10
10.4717293232
 20
8.7458614961
 30
0.0
 10
10.4721973323
 20
8.7460782693
 30
0.0
 10
10.4728215604
 20
8.746366761
 30
0.0
 10
10.4736017716
 20
8.7467275602
 30
0.0
 10
10.4748501509
 20
8.7473047357
 30
0.0
 10
10.4764106108
 20
8.7480262405
 30
0.0
 10
10.4782831687
 20
8.7488920311
 30
0.0
 10
10.480155725
 20
8.7497578257
 30
0.0
 10
10.4826524674
 20
8.7509122172
 30
0.0
 10
10.4857733951
 20
8.752355207
 30
0.0
 10
10.4888943229
 20
8.7537981965
 30
0.0
 10
10.491391065
 20
8.7549525885
 30
0.0
 10
10.4932636221
 20
8.7558183814
 30
0.0
 10
10.4951361771
 20
8.7566841784
 30
0.0
 10
10.4966966461
 20
8.7574056634
 30
0.0
 10
10.4979450068
 20
8.7579828792
 30
0.0
 10
10.4987252653
 20
8.7583435759
 30
0.0
 10
10.4993493963
 20
8.758632278
 30
0.0
 10
10.4998177023
 20
8.7588484083
 30
0.0
 10
10.5002072963
 20
8.7590297772
 30
0.0
 10
10.5004813092
 20
8.7591542622
 30
0.0
 10
10.5006358628
 20
8.7592292583
 30
0.0
 10
10.500757483
 20
8.7592746265
 30
0.0
 10
10.5008572958
 20
8.7593615794
 30
0.0
 10
10.5009979863
 20
8.7594630113
 30
0.0
 10
10.5012406506
 20
8.7596472755
 30
0.0
 10
10.5015891667
 20
8.7599069767
 30
0.0
 10
10.5020065929
 20
8.7602201306
 30
0.0
 10
10.5025634382
 20
8.7606371408
 30
0.0
 10
10.5032594
 20
8.7611585845
 30
0.0
 10
10.5043729918
 20
8.7619927932
 30
0.0
 10
10.5057649635
 20
8.7630355888
 30
0.0
 10
10.5074353372
 20
8.7642869287
 30
0.0
 10
10.5091057089
 20
8.7655382726
 30
0.0
 10
10.5113328719
 20
8.7672067297
 30
0.0
 10
10.5141168253
 20
8.7692923016
 30
0.0
 10
10.5169007789
 20
8.7713778732
 30
0.0
 10
10.5191279415
 20
8.7730463308
 30
0.0
 10
10.5207983143
 20
8.7742976732
 30
0.0
 10
10.5224686838
 20
8.7755490186
 30
0.0
 10
10.5238606688
 20
8.776591797
 30
0.0
 10
10.5249742334
 20
8.7774260409
 30
0.0
 10
10.5256702645
 20
8.7779473951
 30
0.0
 10
10.5262269676
 20
8.7783645889
 30
0.0
 10
10.5266448282
 20
8.778677182
 30
0.0
 10
10.5269919854
 20
8.7789386377
 30
0.0
 10
10.5272370754
 20
8.7791197699
 30
0.0
 10
10.5273738792
 20
8.77922622
 30
0.0
 10
10.5274856308
 20
8.7792977587
 30
0.0
 10
10.527562411
 20
8.7794010202
 30
0.0
 10
10.5276769831
 20
8.779527637
 30
0.0
 10
10.5278718007
 20
8.7797543718
 30
0.0
 10
10.5281530829
 20
8.7800755833
 30
0.0
 10
10.5284893498
 20
8.7804621909
 30
0.0
 10
10.5289381499
 20
8.7809772647
 30
0.0
 10
10.5294989978
 20
8.7816212449
 30
0.0
 10
10.5303964396
 20
8.7826515361
 30
0.0
 10
10.5315182126
 20
8.7839394266
 30
0.0
 10
10.5328643527
 20
8.7854848839
 30
0.0
 10
10.5342104895
 20
8.7870303442
 30
0.0
 10
10.5360053397
 20
8.7890909568
 30
0.0
 10
10.5382489021
 20
8.791666723
 30
0.0
 10
10.5404924647
 20
8.794242489
 30
0.0
 10
10.5422873144
 20
8.796303102
 30
0.0
 10
10.5436334526
 20
8.7978485611
 30
0.0
 10
10.5449795873
 20
8.7993940228
 30
0.0
 10
10.5461013773
 20
8.8006818994
 30
0.0
 10
10.5469987845
 20
8.801712219
 30
0.0
 10
10.5475597204
 20
8.8023561271
 30
0.0
 10
10.54800834
 20
8.8028713489
 30
0.0
 10
10.5483451581
 20
8.8032575042
 30
0.0
 10
10.5486247156
 20
8.8035801308
 30
0.0
 10
10.5488226122
 20
8.8038043394
 30
0.0
 10
10.5489322509
 20
8.8039350039
 30
0.0
 10
10.549024185
 20
8.8040258322
 30
0.0
 10
10.5490790211
 20
8.8041440681
 30
0.0
 10
10.5491650761
 20
8.8042921559
 30
0.0
 10
10.5493096434
 20
8.8045557639
 30
0.0
 10
10.5495193201
 20
8.8049300179
 30
0.0
 10
10.5497695829
 20
8.8053801196
 30
0.0
 10
10.5501037379
 20
8.8059799069
 30
0.0
 10
10.5505212703
 20
8.8067297603
 30
0.0
 10
10.5511894124
 20
8.8079294591
 30
0.0
 10
10.552024559
 20
8.8094291054
 30
0.0
 10
10.5530267482
 20
8.8112286713
 30
0.0
 10
10.5540289339
 20
8.8130282397
 30
0.0
 10
10.5553651827
 20
8.8154276634
 30
0.0
 10
10.5570354933
 20
8.8184269434
 30
0.0
 10
10.5587058041
 20
8.8214262231
 30
0.0
 10
10.5600420524
 20
8.8238256471
 30
0.0
 10
10.5610442396
 20
8.8256252146
 30
0.0
 10
10.5620464229
 20
8.827424784
 30
0.0
 10
10.562881588
 20
8.8289244193
 30
0.0
 10
10.5635496925
 20
8.8301241408
 30
0.0
 10
10.5639673204
 20
8.8308739363
 30
0.0
 10
10.5643012794
 20
8.8314738424
 30
0.0
 10
10.5645521413
 20
8.8319235813
 30
0.0
 10
10.5647599437
 20
8.8322989703
 30
0.0
 10
10.5649078568
 20
8.8325605522
 30
0.0
 10
10.5649885509
 20
8.8327118862
 30
0.0
 10
10.5650598539
 20
8.8328201508
 30
0.0
 10
10.5650899415
 20
8.8329484299
 30
0.0
 10
10.5651444347
 20
8.8331124874
 30
0.0
 10
10.5652330996
 20
8.8334028408
 30
0.0
 10
10.5653632657
 20
8.8338159308
 30
0.0
 10
10.565517966
 20
8.8343123667
 30
0.0
 10
10.5657247566
 20
8.834974027
 30
0.0
 10
10.5659830657
 20
8.8358011894
 30
0.0
 10
10.5663964604
 20
8.8371246006
 30
0.0
 10
10.5669131693
 20
8.8387788813
 30
0.0
 10
10.5675332348
 20
8.840764011
 30
0.0
 10
10.5681532964
 20
8.8427491425
 30
0.0
 10
10.5689800465
 20
8.845395984
 30
0.0
 10
10.5700134836
 20
8.848704536
 30
0.0
 10
10.5710469211
 20
8.8520130879
 30
0.0
 10
10.5718736706
 20
8.8546599296
 30
0.0
 10
10.5724937339
 20
8.8566450605
 30
0.0
 10
10.5731137929
 20
8.8586301928
 30
0.0
 10
10.5736305219
 20
8.8602844651
 30
0.0
 10
10.5740438758
 20
8.8616078935
 30
0.0
 10
10.5743022885
 20
8.862435012
 30
0.0
 10
10.5745088664
 20
8.8630967624
 30
0.0
 10
10.5746642167
 20
8.8635929232
 30
0.0
 10
10.5747923492
 20
8.8640068739
 30
0.0
 10
10.5748846444
 20
8.8642956907
 30
0.0
 10
10.574933321
 20
8.8644622102
 30
0.0
 10
10.5749812753
 20
8.8645829271
 30
0.0
 10
10.574985474
 20
8.8647195939
 30
0.0
 10
10.5750063348
 20
8.8648962528
 30
0.0
 10
10.5750357301
 20
8.865207998
 30
0.0
 10
10.5750814412
 20
8.865651993
 30
0.0
 10
10.5751347031
 20
8.8661853672
 30
0.0
 10
10.5752062749
 20
8.8668963301
 30
0.0
 10
10.5752955492
 20
8.8677851031
 30
0.0
 10
10.5754384946
 20
8.8692071012
 30
0.0
 10
10.5756171398
 20
8.8709846121
 30
0.0
 10
10.5758315296
 20
8.8731176195
 30
0.0
 10
10.5760459153
 20
8.8752506284
 30
0.0
 10
10.5763317643
 20
8.8780946397
 30
0.0
 10
10.5766890751
 20
8.8816496541
 30
0.0
 10
10.5770463862
 20
8.8852046684
 30
0.0
 10
10.5773322347
 20
8.8880486798
 30
0.0
 10
10.5775466221
 20
8.8901816884
 30
0.0
 10
10.5777610053
 20
8.8923146969
 30
0.0
 10
10.5779396714
 20
8.8940922043
 30
0.0
 10
10.578082574
 20
8.8955142096
 30
0.0
 10
10.5781719572
 20
8.8964029642
 30
0.0
 10
10.5782433056
 20
8.8971139649
 30
0.0
 10
10.5782972498
 20
8.8976472236
 30
0.0
 10
10.5783408261
 20
8.8980915798
 30
0.0
 10
10.5783740324
 20
8.8984026803
 30
0.0
 10
10.578388787
 20
8.8985803722
 30
0.0
 10
10.5784117418
 20
8.8987138661
 30
0.0
 10
10.5783892515
 20
8.8988464997
 30
0.0
 10
10.5783751163
 20
8.8990236446
 30
0.0
 10
10.5783429939
 20
8.8993335084
 30
0.0
 10
10.5783009661
 20
8.899776244
 30
0.0
 10
10.57824888
 20
8.9003074955
 30
0.0
 10
10.5781800091
 20
8.9010158417
 30
0.0
 10
10.5780937229
 20
8.9019012707
 30
0.0
 10
10.5779557753
 20
8.9033179592
 30
0.0
 10
10.577783303
 20
8.9050888191
 30
0.0
 10
10.5775763525
 20
8.9072138514
 30
0.0
 10
10.5773693976
 20
8.9093388835
 30
0.0
 10
10.5770934593
 20
8.9121722597
 30
0.0
 10
10.5767485358
 20
8.91571398
 30
0.0
 10
10.5764036127
 20
8.9192557003
 30
0.0
 10
10.5761276738
 20
8.9220890765
 30
0.0
 10
10.5759207207
 20
8.9242141088
 30
0.0
 10
10.5757137634
 20
8.9263391405
 30
0.0
 10
10.5755413121
 20
8.928110002
 30
0.0
 10
10.5754033218
 20
8.9295266874
 30
0.0
 10
10.5753171444
 20
8.9304121243
 30
0.0
 10
10.5752480501
 20
8.9311204543
 30
0.0
 10
10.5751966466
 20
8.9316517554
 30
0.0
 10
10.5751524831
 20
8.9320943356
 30
0.0
 10
10.5751241733
 20
8.9324044768
 30
0.0
 10
10.5751039293
 20
8.9325811771
 30
0.0
 10
10.575100203
 20
8.9327151764
 30
0.0
 10
10.5750526835
 20
8.9328435413
 30
0.0
 10
10.5750045997
 20
8.9330166599
 30
0.0
 10
10.5749133359
 20
8.9333187018
 30
0.0
 10
10.57478668
 20
8.933750669
 30
0.0
 10
10.5746331003
 20
8.9342688246
 30
0.0
 10
10.5744288836
 20
8.9349597704
 30
0.0
 10
10.5741734222
 20
8.9358234281
 30
0.0
 10
10.5737647904
 20
8.9372052941
 30
0.0
 10
10.5732539642
 20
8.9389326219
 30
0.0
 10
10.5726409884
 20
8.9410054173
 30
0.0
 10
10.5720280085
 20
8.9430782121
 30
0.0
 10
10.5712107033
 20
8.9458419388
 30
0.0
 10
10.5701890714
 20
8.949296597
 30
0.0
 10
10.5691674393
 20
8.9527512552
 30
0.0
 10
10.5683501346
 20
8.9555149821
 30
0.0
 10
10.5677371531
 20
8.9575877762
 30
0.0
 10
10.5671241828
 20
8.9596605742
 30
0.0
 10
10.5666133395
 20
8.961387894
 30
0.0
 10
10.5662047426
 20
8.9627697764
 30
0.0
 10
10.5659491926
 20
8.9636333923
 30
0.0
 10
10.5657451578
 20
8.9643244239
 30
0.0
 10
10.5655910222
 20
8.9648423172
 30
0.0
 10
10.5654661055
 20
8.965275105
 30
0.0
 10
10.5653582557
 20
8.9656186214
 30
0.0
 10
10.5652989999
 20
8.9658836744
 30
0.0
 10
10.5651571763
 20
8.9661204215
 30
0.0
 10
10.5649969203
 20
8.9664459719
 30
0.0
 10
10.5647867046
 20
8.9668495175
 30
0.0
 10
10.5645386815
 20
8.9673352243
 30
0.0
 10
10.5642065046
 20
8.9679823263
 30
0.0
 10
10.5637917899
 20
8.9687913773
 30
0.0
 10
10.5631279634
 20
8.9700857619
 30
0.0
 10
10.5622982774
 20
8.971703776
 30
0.0
 10
10.5613026126
 20
8.9736453787
 30
0.0
 10
10.5603069589
 20
8.9755869851
 30
0.0
 10
10.5589794167
 20
8.9781757924
 30
0.0
 10
10.5573199903
 20
8.9814118019
 30
0.0
 10
10.5556605636
 20
8.9846478113
 30
0.0
 10
10.554333022
 20
8.9872366187
 30
0.0
 10
10.5533373668
 20
8.9891782247
 30
0.0
 10
10.5523417077
 20
8.9911198289
 30
0.0
 10
10.5515120038
 20
8.9927378381
 30
0.0
 10
10.5508482139
 20
8.9940322328
 30
0.0
 10
10.550433406
 20
8.9948412583
 30
0.0
 10
10.5501014204
 20
8.9954884126
 30
0.0
 10
10.5498528129
 20
8.9959739595
 30
0.0
 10
10.5496444255
 20
8.9963780053
 30
0.0
 10
10.5495009377
 20
8.9966619691
 30
0.0
 10
10.5494152233
 20
8.996822467
 30
0.0
 10
10.5493614207
 20
8.9969478184
 30
0.0
 10
10.5492675458
 20
8.9970541415
 30
0.0
 10
10.5491563569
 20
8.997202543
 30
0.0
 10
10.5489552639
 20
8.9974591531
 30
0.0
 10
10.548671393
 20
8.9978273557
 30
0.0
 10
10.5483292905
 20
8.9982685068
 30
0.0
 10
10.547873663
 20
8.99885695
 30
0.0
 10
10.5473039542
 20
8.9995924212
 30
0.0
 10
10.5463925176
 20
9.0007692214
 30
0.0
 10
10.5452531884
 20
9.0022402058
 30
0.0
 10
10.5438860077
 20
9.0040053938
 30
0.0
 10
10.5425188231
 20
9.0057705801
 30
0.0
 10
10.5406959118
 20
9.0081241624
 30
0.0
 10
10.538417272
 20
9.01106614
 30
0.0
 10
10.5361386326
 20
9.0140081178
 30
0.0
 10
10.5343157208
 20
9.0163616998
 30
0.0
 10
10.5329485376
 20
9.0181268871
 30
0.0
 10
10.5315813517
 20
9.0198920712
 30
0.0
 10
10.5304420388
 20
9.0213630678
 30
0.0
 10
10.5295305689
 20
9.0225398431
 30
0.0
 10
10.5289609448
 20
9.0232753777
 30
0.0
 10
10.5285051435
 20
9.0238636908
 30
0.0
 10
10.5281635717
 20
9.0243052394
 30
0.0
 10
10.5278780406
 20
9.0246721983
 30
0.0
 10
10.5276799113
 20
9.0249310286
 30
0.0
 10
10.5275639738
 20
9.0250758727
 30
0.0
 10
10.5274846852
 20
9.025193123
 30
0.0
 10
10.5273760989
 20
9.0252774337
 30
0.0
 10
10.5272415366
 20
9.0254013377
 30
0.0
 10
10.5270012911
 20
9.0256128164
 30
0.0
 10
10.5266605725
 20
9.0259177276
 30
0.0
 10
10.5262506448
 20
9.026282423
 30
0.0
 10
10.5257044466
 20
9.026769102
 30
0.0
 10
10.5250215714
 20
9.0273773075
 30
0.0
 10
10.5239290424
 20
9.0283505164
 30
0.0
 10
10.5225633567
 20
9.0295670001
 30
0.0
 10
10.5209245443
 20
9.0310267922
 30
0.0
 10
10.5192857291
 20
9.0324865812
 30
0.0
 10
10.5171006432
 20
9.0344329677
 30
0.0
 10
10.5143692855
 20
9.0368659504
 30
0.0
 10
10.5116379276
 20
9.0392989329
 30
0.0
 10
10.509452842
 20
9.0412453198
 30
0.0
 10
10.507814026
 20
9.0427051074
 30
0.0
 10
10.5061752167
 20
9.0441649046
 30
0.0
 10
10.5048095214
 20
9.0453813726
 30
0.0
 10
10.5037170119
 20
9.0463546135
 30
0.0
 10
10.503034087
 20
9.0469627374
 30
0.0
 10
10.5024879909
 20
9.0474495839
 30
0.0
 10
10.5020777513
 20
9.0478137678
 30
0.0
 10
10.5017380086
 20
9.0481202796
 30
0.0
 10
10.5014614513
 20
9.048358704
 30
0.0
 10
10.5012670488
 20
9.0485560621
 30
0.0
 10
10.5010229657
 20
9.0486826536
 30
0.0
 10
10.5007148757
 20
9.0488761619
 30
0.0
 10
10.5003238091
 20
9.0491095661
 30
0.0
 10
10.4998570777
 20
9.0493932813
 30
0.0
 10
10.4992338789
 20
9.0497703003
 30
0.0
 10
10.4984551854
 20
9.0502420083
 30
0.0
 10
10.4972091053
 20
9.0509964983
 30
0.0
 10
10.4956515636
 20
9.0519396941
 30
0.0
 10
10.4937824885
 20
9.0530714935
 30
0.0
 10
10.4919134202
 20
9.0542033023
 30
0.0
 10
10.4894213267
 20
9.0557123774
 30
0.0
 10
10.4863062107
 20
9.0575987226
 30
0.0
 10
10.4831910942
 20
9.0594850669
 30
0.0
 10
10.4806990015
 20
9.0609941434
 30
0.0
 10
10.4788299307
 20
9.062125948
 30
0.0
 10
10.4769608646
 20
9.0632577634
 30
0.0
 10
10.4754032951
 20
9.0642009092
 30
0.0
 10
10.4741572718
 20
9.0649555012
 30
0.0
 10
10.4733784337
 20
9.0654269497
 30
0.0
 10
10.4727555316
 20
9.0658045014
 30
0.0
 10
10.4722878939
 20
9.0660865892
 30
0.0
 10
10.4718996629
 20
9.0663250852
 30
0.0
 10
10.4715857876
 20
9.0665082052
 30
0.0
 10
10.4713593724
 20
9.0666665219
 30
0.0
 10
10.4710986373
 20
9.0667447703
 30
0.0
 10
10.4707629789
 20
9.0668770704
 30
0.0
 10
10.4703392927
 20
9.0670328495
 30
0.0
 10
10.4698326298
 20
9.0672238919
 30
0.0
 10
10.4691564644
 20
9.0674771804
 30
0.0
 10
10.4683114682
 20
9.0677942823
 30
0.0
 10
10.4669593565
 20
9.0683013707
 30
0.0
 10
10.4652692574
 20
9.0689353255
 30
0.0
 10
10.4632411211
 20
9.0696960308
 30
0.0
 10
10.4612129894
 20
9.0704567469
 30
0.0
 10
10.4585088122
 20
9.0714710313
 30
0.0
 10
10.4551285913
 20
9.0727388881
 30
0.0
 10
10.4517483702
 20
9.0740067445
 30
0.0
 10
10.4490441932
 20
9.0750210294
 30
0.0
 10
10.4470160608
 20
9.0757817441
 30
0.0
 10
10.4449879272
 20
9.0765424547
 30
0.0
 10
10.4432978197
 20
9.077176393
 30
0.0
 10
10.4419457251
 20
9.077683515
 30
0.0
 10
10.4411006855
 20
9.0780005314
 30
0.0
 10
10.440424609
 20
9.0782539954
 30
0.0
 10
10.4399176746
 20
9.0784445017
 30
0.0
 10
10.4394948379
 20
9.078601958
 30
0.0
 10
10.4391996203
 20
9.0787147266
 30
0.0
 10
10.4390297252
 20
9.0787751855
 30
0.0
 10
10.4389056826
 20
9.0788317422
 30
0.0
 10
10.4387687246
 20
9.078845439
 30
0.0
 10
10.4385906189
 20
9.0788786515
 30
0.0
 10
10.438276835
 20
9.0789298078
 30
0.0
 10
10.4378296697
 20
9.0790065298
 30
0.0
 10
10.4372926015
 20
9.0790970376
 30
0.0
 10
10.4365766748
 20
9.079218259
 30
0.0
 10
10.4356817102
 20
9.0793695994
 30
0.0
 10
10.4342497982
 20
9.0796118481
 30
0.0
 10
10.4324598974
 20
9.0799146234
 30
0.0
 10
10.4303120211
 20
9.080277969
 30
0.0
 10
10.4281641435
 20
9.0806413105
 30
0.0
 10
10.4253003072
 20
9.0811257672
 30
0.0
 10
10.4217205117
 20
9.0817313377
 30
0.0
 10
10.4174247571
 20
9.0824580224
 30
0.0
 10
10.4116970844
 20
9.0834269354
 30
0.0
 10
10.4074013298
 20
9.0841536201
 30
0.0
 10
10.4045374934
 20
9.0846380765
 30
0.0
  0
SPLINE
  5
36E
100
AcDbEntity
  8
0
100
AcDbSpline
 62
4
  6
CONTINUOUS
 70
0
 71
3
 72
397
 73
393
 74
0
 42
0.0000001
 43
0.0000001
 44
0.0000000001
 40
0.0
 40
0.0
 40
0.0
 40
0.0
 40
0.015625
 40
0.0234375
 40
0.03125
 40
0.0390625
 40
0.04296875
 40
0.046875
 40
0.05078125
 40
0.0546875
 40
0.056640625
 40
0.05859375
 40
0.0595703125
 40
0.060546875
 40
0.0615234375
 40
0.0620117188
 40
0.0622558594
 40
0.0625
 40
0.0627441406
 40
0.0629882812
 40
0.0634765625
 40
0.064453125
 40
0.0654296875
 40
0.06640625
 40
0.068359375
 40
0.0703125
 40
0.07421875
 40
0.078125
 40
0.08203125
 40
0.0859375
 40
0.09375
 40
0.1015625
 40
0.10546875
 40
0.109375
 40
0.11328125
 40
0.1171875
 40
0.119140625
 40
0.12109375
 40
0.1220703125
 40
0.123046875
 40
0.1240234375
 40
0.1245117188
 40
0.1247558594
 40
0.125
 40
0.1252441406
 40
0.1254882812
 40
0.1259765625
 40
0.126953125
 40
0.1279296875
 40
0.12890625
 40
0.130859375
 40
0.1328125
 40
0.13671875
 40
0.140625
 40
0.14453125
 40
0.1484375
 40
0.15625
 40
0.1640625
 40
0.16796875
 40
0.171875
 40
0.17578125
 40
0.1796875
 40
0.181640625
 40
0.18359375
 40
0.1845703125
 40
0.185546875
 40
0.1865234375
 40
0.1870117188
 40
0.1872558594
 40
0.1875
 40
0.1877441406
 40
0.1879882812
 40
0.1884765625
 40
0.189453125
 40
0.1904296875
 40
0.19140625
 40
0.193359375
 40
0.1953125
 40
0.19921875
 40
0.203125
 40
0.20703125
 40
0.2109375
 40
0.21875
 40
0.2265625
 40
0.23046875
 40
0.234375
 40
0.23828125
 40
0.2421875
 40
0.244140625
 40
0.24609375
 40
0.2470703125
 40
0.248046875
 40
0.2490234375
 40
0.2495117188
 40
0.2497558594
 40
0.25
 40
0.2502441406
 40
0.2504882812
 40
0.2509765625
 40
0.251953125
 40
0.2529296875
 40
0.25390625
 40
0.255859375
 40
0.2578125
 40
0.26171875
 40
0.265625
 40
0.26953125
 40
0.2734375
 40
0.28125
 40
0.2890625
 40
0.29296875
 40
0.296875
 40
0.30078125
 40
0.3046875
 40
0.306640625
 40
0.30859375
 40
0.3095703125
 40
0.310546875
 40
0.3115234375
 40
0.3120117188
 40
0.3122558594
 40
0.3125
 40
0.3127441406
 40
0.3129882812
 40
0.3134765625
 40
0.314453125
 40
0.3154296875
 40
0.31640625
 40
0.318359375
 40
0.3203125
 40
0.32421875
 40
0.328125
 40
0.33203125
 40
0.3359375
 40
0.34375
 40
0.3515625
 40
0.35546875
 40
0.359375
 40
0.36328125
 40
0.3671875
 40
0.369140625
 40
0.37109375
 40
0.3720703125
 40
0.373046875
 40
0.3740234375
 40
0.3745117188
 40
0.3747558594
 40
0.375
 40
0.3752441406
 40
0.3754882812
 40
0.3759765625
 40
0.376953125
 40
0.3779296875
 40
0.37890625
 40
0.380859375
 40
0.3828125
 40
0.38671875
 40
0.390625
 40
0.39453125
 40
0.3984375
 40
0.40625
 40
0.4140625
 40
0.41796875
 40
0.421875
 40
0.42578125
 40
0.4296875
 40
0.431640625
 40
0.43359375
 40
0.4345703125
 40
0.435546875
 40
0.4365234375
 40
0.4370117188
 40
0.4372558594
 40
0.4375
 40
0.4377441406
 40
0.4379882812
 40
0.4384765625
 40
0.439453125
 40
0.4404296875
 40
0.44140625
 40
0.443359375
 40
0.4453125
 40
0.44921875
 40
0.453125
 40
0.45703125
 40
0.4609375
 40
0.46875
 40
0.4765625
 40
0.48046875
 40
0.484375
 40
0.48828125
 40
0.4921875
 40
0.494140625
 40
0.49609375
 40
0.4970703125
 40
0.498046875
 40
0.4990234375
 40
0.4995117188
 40
0.4997558594
 40
0.5
 40
0.5002441406
 40
0.5004882812
 40
0.5009765625
 40
0.501953125
 40
0.5029296875
 40
0.50390625
 40
0.505859375
 40
0.5078125
 40
0.51171875
 40
0.515625
 40
0.51953125
 40
0.5234375
 40
0.53125
 40
0.5390625
 40
0.54296875
 40
0.546875
 40
0.55078125
 40
0.5546875
 40
0.556640625
 40
0.55859375
 40
0.5595703125
 40
0.560546875
 40
0.5615234375
 40
0.5620117188
 40
0.5622558594
 40
0.5625
 40
0.5627441406
 40
0.5629882812
 40
0.5634765625
 40
0.564453125
 40
0.5654296875
 40
0.56640625
 40
0.568359375
 40
0.5703125
 40
0.57421875
 40
0.578125
 40
0.58203125
 40
0.5859375
 40
0.59375
 40
0.6015625
 40
0.60546875
 40
0.609375
 40
0.61328125
 40
0.6171875
 40
0.619140625
 40
0.62109375
 40
0.6220703125
 40
0.623046875
 40
0.6240234375
 40
0.6245117188
 40
0.625
 40
0.6254882812
 40
0.6259765625
 40
0.626953125
 40
0.6279296875
 40
0.62890625
 40
0.630859375
 40
0.6328125
 40
0.63671875
 40
0.640625
 40
0.64453125
 40
0.6484375
 40
0.65625
 40
0.6640625
 40
0.66796875
 40
0.671875
 40
0.67578125
 40
0.6796875
 40
0.681640625
 40
0.68359375
 40
0.6845703125
 40
0.685546875
 40
0.6865234375
 40
0.6870117188
 40
0.6872558594
 40
0.6875
 40
0.6877441406
 40
0.6879882812
 40
0.6884765625
 40
0.689453125
 40
0.6904296875
 40
0.69140625
 40
0.693359375
 40
0.6953125
 40
0.69921875
 40
0.703125
 40
0.70703125
 40
0.7109375
 40
0.71875
 40
0.7265625
 40
0.73046875
 40
0.734375
 40
0.73828125
 40
0.7421875
 40
0.744140625
 40
0.74609375
 40
0.7470703125
 40
0.748046875
 40
0.7490234375
 40
0.7495117188
 40
0.7497558594
 40
0.75
 40
0.7502441406
 40
0.7504882812
 40
0.7509765625
 40
0.751953125
 40
0.7529296875
 40
0.75390625
 40
0.755859375
 40
0.7578125
 40
0.76171875
 40
0.765625
 40
0.76953125
 40
0.7734375
 40
0.78125
 40
0.7890625
 40
0.79296875
 40
0.796875
 40
0.80078125
 40
0.8046875
 40
0.806640625
 40
0.80859375
 40
0.8095703125
 40
0.810546875
 40
0.8115234375
 40
0.8120117188
 40
0.8125
 40
0.8129882812
 40
0.8134765625
 40
0.814453125
 40
0.8154296875
 40
0.81640625
 40
0.818359375
 40
0.8203125
 40
0.82421875
 40
0.828125
 40
0.83203125
 40
0.8359375
 40
0.84375
 40
0.8515625
 40
0.85546875
 40
0.859375
 40
0.86328125
 40
0.8671875
 40
0.869140625
 40
0.87109375
 40
0.8720703125
 40
0.873046875
 40
0.8740234375
 40
0.8745117188
 40
0.875
 40
0.8754882812
 40
0.8759765625
 40
0.876953125
 40
0.8779296875
 40
0.87890625
 40
0.880859375
 40
0.8828125
 40
0.88671875
 40
0.890625
 40
0.89453125
 40
0.8984375
 40
0.90625
 40
0.9140625
 40
0.91796875
 40
0.921875
 40
0.92578125
 40
0.9296875
 40
0.931640625
 40
0.93359375
 40
0.9345703125
 40
0.935546875
 40
0.9365234375
 40
0.9370117188
 40
0.9372558594
 40
0.9375
 40
0.9377441406
 40
0.9379882812
 40
0.9384765625
 40
0.939453125
 40
0.9404296875
 40
0.94140625
 40
0.943359375
 40
0.9453125
 40
0.94921875
 40
0.953125
 40
0.95703125
 40
0.9609375
 40
0.96875
 40
0.9765625
 40
0.984375
 40
1.0
 40
1.0
 40
1.0
 40
1.0
 10
10.4045375086
 20
9.0846380755
 30
0.0
 10
10.4017232688
 20
9.0845573051
 30
0.0
 10
10.3975019091
 20
9.0844361494
 30
0.0
 10
10.3918734295
 20
9.0842746086
 30
0.0
 10
10.3876520698
 20
9.0841534529
 30
0.0
 10
10.38413427
 20
9.08405249
 30
0.0
 10
10.3813200302
 20
9.0839717192
 30
0.0
 10
10.3792093502
 20
9.0839111423
 30
0.0
 10
10.377098671
 20
9.0838505611
 30
0.0
 10
10.3753397691
 20
9.08380009
 30
0.0
 10
10.3739326533
 20
9.0837596835
 30
0.0
 10
10.3730531928
 20
9.0837344969
 30
0.0
 10
10.3723496546
 20
9.0837141932
 30
0.0
 10
10.3718219183
 20
9.0836993883
 30
0.0
 10
10.3713824008
 20
9.0836857055
 30
0.0
 10
10.3710742229
 20
9.0836787679
 30
0.0
 10
10.3708989265
 20
9.0836706808
 30
0.0
 10
10.3707651857
 20
9.0836762294
 30
0.0
 10
10.3706401162
 20
9.0836373835
 30
0.0
 10
10.3704703322
 20
9.0836010743
 30
0.0
 10
10.3701746195
 20
9.0835303182
 30
0.0
 10
10.369751436
 20
9.0834330102
 30
0.0
 10
10.3692439311
 20
9.083314626
 30
0.0
 10
10.3685671478
 20
9.0831573444
 30
0.0
 10
10.3677212065
 20
9.0829605493
 30
0.0
 10
10.3663676791
 20
9.082645785
 30
0.0
 10
10.3646757773
 20
9.0822522925
 30
0.0
 10
10.3626454919
 20
9.0817801175
 30
0.0
 10
10.3606152073
 20
9.0813079383
 30
0.0
 10
10.357908161
 20
9.0806783674
 30
0.0
 10
10.3545243532
 20
9.0798914032
 30
0.0
 10
10.3511405452
 20
9.0791044395
 30
0.0
 10
10.3484334991
 20
9.078474868
 30
0.0
 10
10.346403214
 20
9.0780026905
 30
0.0
 10
10.3443729306
 20
9.0775305089
 30
0.0
 10
10.3426810227
 20
9.0771370369
 30
0.0
 10
10.3413275077
 20
9.076822231
 30
0.0
 10
10.3404815349
 20
9.0766255418
 30
0.0
 10
10.339804816
 20
9.0764680427
 30
0.0
 10
10.3392971147
 20
9.0763503229
 30
0.0
 10
10.3388745458
 20
9.0762509363
 30
0.0
 10
10.3385777358
 20
9.0761838908
 30
0.0
 10
10.33840971
 20
9.0761416364
 30
0.0
 10
10.33827924
 20
9.0761210521
 30
0.0
 10
10.3381657824
 20
9.0760580131
 30
0.0
 10
10.3380085714
 20
9.0759887698
 30
0.0
 10
10.3377362171
 20
9.0758606944
 30
0.0
 10
10.337345694
 20
9.0756813368
 30
0.0
 10
10.3368776849
 20
9.0754645636
 30
0.0
 10
10.3362534568
 20
9.0751760719
 30
0.0
 10
10.3354732456
 20
9.0748152728
 30
0.0
 10
10.3342248663
 20
9.0742380972
 30
0.0
 10
10.3326644064
 20
9.0735165924
 30
0.0
 10
10.3307918485
 20
9.0726508018
 30
0.0
 10
10.3289192922
 20
9.0717850072
 30
0.0
 10
10.3264225498
 20
9.0706306158
 30
0.0
 10
10.3233016221
 20
9.0691876259
 30
0.0
 10
10.3201806943
 20
9.0677446364
 30
0.0
 10
10.3176839522
 20
9.0665902444
 30
0.0
 10
10.3158113951
 20
9.0657244515
 30
0.0
 10
10.3139388401
 20
9.0648586545
 30
0.0
 10
10.3123783711
 20
9.0641371695
 30
0.0
 10
10.3111300104
 20
9.0635599537
 30
0.0
 10
10.3103497519
 20
9.063199257
 30
0.0
 10
10.3097256209
 20
9.062910555
 30
0.0
 10
10.309257315
 20
9.0626944246
 30
0.0
 10
10.3088677209
 20
9.0625130557
 30
0.0
 10
10.308593708
 20
9.0623885707
 30
0.0
 10
10.3084391544
 20
9.0623135746
 30
0.0
 10
10.3083175343
 20
9.0622682064
 30
0.0
 10
10.3082177214
 20
9.0621812536
 30
0.0
 10
10.3080770309
 20
9.0620798216
 30
0.0
 10
10.3078343667
 20
9.0618955574
 30
0.0
 10
10.3074858506
 20
9.0616358562
 30
0.0
 10
10.3070684243
 20
9.0613227023
 30
0.0
 10
10.306511579
 20
9.0609056921
 30
0.0
 10
10.3058156173
 20
9.0603842485
 30
0.0
 10
10.3047020254
 20
9.0595500397
 30
0.0
 10
10.3033100538
 20
9.0585072441
 30
0.0
 10
10.30163968
 20
9.0572559042
 30
0.0
 10
10.2999693083
 20
9.0560045603
 30
0.0
 10
10.2977421454
 20
9.0543361032
 30
0.0
 10
10.2949581919
 20
9.0522505313
 30
0.0
 10
10.2921742383
 20
9.0501649597
 30
0.0
 10
10.2899470757
 20
9.0484965021
 30
0.0
 10
10.2882767029
 20
9.0472451597
 30
0.0
 10
10.2866063334
 20
9.0459938143
 30
0.0
 10
10.2852143484
 20
9.0449510359
 30
0.0
 10
10.2841007838
 20
9.044116792
 30
0.0
 10
10.2834047527
 20
9.0435954378
 30
0.0
 10
10.2828480496
 20
9.043178244
 30
0.0
 10
10.2824301891
 20
9.0428656509
 30
0.0
 10
10.2820830318
 20
9.0426041952
 30
0.0
 10
10.2818379418
 20
9.042423063
 30
0.0
 10
10.281701138
 20
9.0423166129
 30
0.0
 10
10.2815893864
 20
9.0422450743
 30
0.0
 10
10.2815126062
 20
9.0421418127
 30
0.0
 10
10.2813980341
 20
9.042015196
 30
0.0
 10
10.2812032165
 20
9.0417884611
 30
0.0
 10
10.2809219343
 20
9.0414672496
 30
0.0
 10
10.2805856674
 20
9.041080642
 30
0.0
 10
10.2801368673
 20
9.0405655682
 30
0.0
 10
10.2795760194
 20
9.039921588
 30
0.0
 10
10.2786785776
 20
9.0388912968
 30
0.0
 10
10.2775568046
 20
9.0376034063
 30
0.0
 10
10.2762106645
 20
9.036057949
 30
0.0
 10
10.2748645277
 20
9.0345124888
 30
0.0
 10
10.2730696775
 20
9.0324518761
 30
0.0
 10
10.2708261152
 20
9.0298761099
 30
0.0
 10
10.2685825525
 20
9.027300344
 30
0.0
 10
10.2667877028
 20
9.0252397309
 30
0.0
 10
10.2654415646
 20
9.0236942718
 30
0.0
 10
10.2640954299
 20
9.0221488101
 30
0.0
 10
10.2629736399
 20
9.0208609335
 30
0.0
 10
10.2620762327
 20
9.0198306139
 30
0.0
 10
10.2615152969
 20
9.0191867059
 30
0.0
 10
10.2610666772
 20
9.018671484
 30
0.0
 10
10.2607298591
 20
9.0182853288
 30
0.0
 10
10.2604503016
 20
9.0179627021
 30
0.0
 10
10.260252405
 20
9.0177384935
 30
0.0
 10
10.2601427663
 20
9.017607829
 30
0.0
 10
10.2600508322
 20
9.0175170008
 30
0.0
 10
10.2599959961
 20
9.0173987648
 30
0.0
 10
10.2599099411
 20
9.017250677
 30
0.0
 10
10.2597653738
 20
9.016987069
 30
0.0
 10
10.2595556972
 20
9.016612815
 30
0.0
 10
10.2593054343
 20
9.0161627134
 30
0.0
 10
10.2589712793
 20
9.015562926
 30
0.0
 10
10.2585537469
 20
9.0148130726
 30
0.0
 10
10.2578856048
 20
9.0136133738
 30
0.0
 10
10.2570504582
 20
9.0121137275
 30
0.0
 10
10.256048269
 20
9.0103141616
 30
0.0
 10
10.2550460833
 20
9.0085145932
 30
0.0
 10
10.2537098345
 20
9.0061151695
 30
0.0
 10
10.252039524
 20
9.0031158895
 30
0.0
 10
10.2503692131
 20
9.0001166098
 30
0.0
 10
10.2490329648
 20
8.9977171858
 30
0.0
 10
10.2480307776
 20
8.9959176183
 30
0.0
 10
10.2470285943
 20
8.9941180489
 30
0.0
 10
10.2461934292
 20
8.9926184137
 30
0.0
 10
10.2455253247
 20
8.9914186921
 30
0.0
 10
10.2451076968
 20
8.9906688966
 30
0.0
 10
10.2447737378
 20
8.9900689905
 30
0.0
 10
10.244522876
 20
8.9896192516
 30
0.0
 10
10.2443150735
 20
8.9892438627
 30
0.0
 10
10.2441671605
 20
8.9889822808
 30
0.0
 10
10.2440864663
 20
8.9888309467
 30
0.0
 10
10.2440151634
 20
8.9887226821
 30
0.0
 10
10.2439850757
 20
8.988594403
 30
0.0
 10
10.2439305825
 20
8.9884303455
 30
0.0
 10
10.2438419176
 20
8.9881399921
 30
0.0
 10
10.2437117516
 20
8.9877269021
 30
0.0
 10
10.2435570512
 20
8.9872304662
 30
0.0
 10
10.2433502606
 20
8.9865688059
 30
0.0
 10
10.2430919515
 20
8.9857416435
 30
0.0
 10
10.2426785569
 20
8.9844182323
 30
0.0
 10
10.2421618479
 20
8.9827639516
 30
0.0
 10
10.2415417824
 20
8.980778822
 30
0.0
 10
10.2409217209
 20
8.9787936904
 30
0.0
 10
10.2400949707
 20
8.9761468489
 30
0.0
 10
10.2390615336
 20
8.9728382969
 30
0.0
 10
10.2380280961
 20
8.969529745
 30
0.0
 10
10.2372013466
 20
8.9668829033
 30
0.0
 10
10.2365812833
 20
8.9648977725
 30
0.0
 10
10.2359612243
 20
8.9629126401
 30
0.0
 10
10.2354444953
 20
8.9612583678
 30
0.0
 10
10.2350311414
 20
8.9599349394
 30
0.0
 10
10.2347727287
 20
8.9591078209
 30
0.0
 10
10.2345661508
 20
8.9584460705
 30
0.0
 10
10.2344108005
 20
8.9579499098
 30
0.0
 10
10.234282668
 20
8.957535959
 30
0.0
 10
10.2341903729
 20
8.9572471422
 30
0.0
 10
10.2341416962
 20
8.9570806227
 30
0.0
 10
10.2340937419
 20
8.9569599058
 30
0.0
 10
10.2340895432
 20
8.956823239
 30
0.0
 10
10.2340686824
 20
8.9566465801
 30
0.0
 10
10.2340392871
 20
8.9563348349
 30
0.0
 10
10.233993576
 20
8.9558908399
 30
0.0
 10
10.2339403141
 20
8.9553574657
 30
0.0
 10
10.2338687423
 20
8.9546465028
 30
0.0
 10
10.233779468
 20
8.9537577298
 30
0.0
 10
10.2336365226
 20
8.9523357317
 30
0.0
 10
10.2334578775
 20
8.9505582208
 30
0.0
 10
10.2332434876
 20
8.9484252134
 30
0.0
 10
10.2330291019
 20
8.9462922045
 30
0.0
 10
10.2327432529
 20
8.9434481932
 30
0.0
 10
10.2323859421
 20
8.9398931788
 30
0.0
 10
10.232028631
 20
8.9363381645
 30
0.0
 10
10.2317427826
 20
8.9334941531
 30
0.0
 10
10.2315283951
 20
8.9313611445
 30
0.0
 10
10.231314012
 20
8.929228136
 30
0.0
 10
10.2311353458
 20
8.9274506287
 30
0.0
 10
10.2309924432
 20
8.9260286233
 30
0.0
 10
10.2309030601
 20
8.9251398687
 30
0.0
 10
10.2308317117
 20
8.924428868
 30
0.0
 10
10.2307777674
 20
8.9238956093
 30
0.0
 10
10.2307341911
 20
8.9234512531
 30
0.0
 10
10.2307009849
 20
8.9231401526
 30
0.0
 10
10.2306862302
 20
8.9229624608
 30
0.0
 10
10.2306632754
 20
8.9228289668
 30
0.0
 10
10.2306857657
 20
8.9226963332
 30
0.0
 10
10.2306999009
 20
8.9225191883
 30
0.0
 10
10.2307320233
 20
8.9222093245
 30
0.0
 10
10.2307740511
 20
8.9217665889
 30
0.0
 10
10.2308261372
 20
8.9212353375
 30
0.0
 10
10.2308950081
 20
8.9205269912
 30
0.0
 10
10.2309812943
 20
8.9196415622
 30
0.0
 10
10.2311192419
 20
8.9182248737
 30
0.0
 10
10.2312917142
 20
8.9164540138
 30
0.0
 10
10.2314986647
 20
8.9143289815
 30
0.0
 10
10.2317056196
 20
8.9122039494
 30
0.0
 10
10.2319815579
 20
8.9093705732
 30
0.0
 10
10.2323264814
 20
8.9058288529
 30
0.0
 10
10.2326714045
 20
8.9022871326
 30
0.0
 10
10.2329473434
 20
8.8994537564
 30
0.0
 10
10.2331542965
 20
8.8973287242
 30
0.0
 10
10.2333612538
 20
8.8952036924
 30
0.0
 10
10.2335337051
 20
8.893432831
 30
0.0
 10
10.2336716954
 20
8.8920161456
 30
0.0
 10
10.2337578728
 20
8.8911307086
 30
0.0
 10
10.2338269671
 20
8.8904223787
 30
0.0
 10
10.2338783707
 20
8.8898910775
 30
0.0
 10
10.2339225341
 20
8.8894484973
 30
0.0
 10
10.2339508439
 20
8.8891383561
 30
0.0
 10
10.2339710879
 20
8.8889616558
 30
0.0
 10
10.2339748142
 20
8.8888276566
 30
0.0
 10
10.2340223337
 20
8.8886992916
 30
0.0
 10
10.2340704175
 20
8.888526173
 30
0.0
 10
10.2341616813
 20
8.8882241311
 30
0.0
 10
10.2342883372
 20
8.887792164
 30
0.0
 10
10.2344419169
 20
8.8872740083
 30
0.0
 10
10.2346461337
 20
8.8865830626
 30
0.0
 10
10.234901595
 20
8.8857194049
 30
0.0
 10
10.2353102268
 20
8.8843375389
 30
0.0
 10
10.235821053
 20
8.882610211
 30
0.0
 10
10.2364340288
 20
8.8805374157
 30
0.0
 10
10.2370470087
 20
8.8784646208
 30
0.0
 10
10.2378643139
 20
8.8757008942
 30
0.0
 10
10.2388859458
 20
8.8722462359
 30
0.0
 10
10.239907578
 20
8.8687915777
 30
0.0
 10
10.2407248827
 20
8.8660278508
 30
0.0
 10
10.2413378641
 20
8.8639550567
 30
0.0
 10
10.2419508344
 20
8.8618822587
 30
0.0
 10
10.2424616777
 20
8.860154939
 30
0.0
 10
10.2428702746
 20
8.8587730565
 30
0.0
 10
10.2431258246
 20
8.8579094406
 30
0.0
 10
10.2433298594
 20
8.857218409
 30
0.0
 10
10.243483995
 20
8.8567005157
 30
0.0
 10
10.2436089117
 20
8.8562677279
 30
0.0
 10
10.2437167615
 20
8.8559242115
 30
0.0
 10
10.2437760173
 20
8.8556591586
 30
0.0
 10
10.2439178409
 20
8.8554224114
 30
0.0
 10
10.2440780969
 20
8.855096861
 30
0.0
 10
10.2442883126
 20
8.8546933154
 30
0.0
 10
10.2445363357
 20
8.8542076086
 30
0.0
 10
10.2448685127
 20
8.8535605067
 30
0.0
 10
10.2452832273
 20
8.8527514556
 30
0.0
 10
10.2459470538
 20
8.851457071
 30
0.0
 10
10.2467767398
 20
8.8498390569
 30
0.0
 10
10.2477724046
 20
8.8478974543
 30
0.0
 10
10.2487680583
 20
8.8459558478
 30
0.0
 10
10.2500956005
 20
8.8433670405
 30
0.0
 10
10.2517550269
 20
8.840131031
 30
0.0
 10
10.2534144536
 20
8.8368950216
 30
0.0
 10
10.2547419952
 20
8.8343062142
 30
0.0
 10
10.2557376505
 20
8.8323646082
 30
0.0
 10
10.2567333095
 20
8.830423004
 30
0.0
 10
10.2575630135
 20
8.8288049948
 30
0.0
 10
10.2582268034
 20
8.8275106001
 30
0.0
 10
10.2586416112
 20
8.8267015746
 30
0.0
 10
10.2589735968
 20
8.8260544203
 30
0.0
 10
10.2592222043
 20
8.8255688734
 30
0.0
 10
10.2594305917
 20
8.8251648276
 30
0.0
 10
10.2595740795
 20
8.8248808638
 30
0.0
 10
10.259659794
 20
8.8247203659
 30
0.0
 10
10.2597135965
 20
8.8245950145
 30
0.0
 10
10.2598074714
 20
8.8244886914
 30
0.0
 10
10.2599186603
 20
8.8243402899
 30
0.0
 10
10.2601197533
 20
8.8240836799
 30
0.0
 10
10.2604036242
 20
8.8237154772
 30
0.0
 10
10.2607457267
 20
8.8232743261
 30
0.0
 10
10.2612013543
 20
8.822685883
 30
0.0
 10
10.261771063
 20
8.8219504117
 30
0.0
 10
10.2626824996
 20
8.8207736115
 30
0.0
 10
10.2638218288
 20
8.8193026271
 30
0.0
 10
10.2651890095
 20
8.8175374391
 30
0.0
 10
10.2665561941
 20
8.8157722528
 30
0.0
 10
10.2683791055
 20
8.8134186705
 30
0.0
 10
10.2706577452
 20
8.8104766929
 30
0.0
 10
10.2729363846
 20
8.8075347151
 30
0.0
 10
10.2747592964
 20
8.8051811331
 30
0.0
 10
10.2761264796
 20
8.8034159458
 30
0.0
 10
10.2774936655
 20
8.8016507617
 30
0.0
 10
10.2786329784
 20
8.8001797651
 30
0.0
 10
10.2795444483
 20
8.7990029898
 30
0.0
 10
10.2801140724
 20
8.7982674552
 30
0.0
 10
10.2805698737
 20
8.7976791421
 30
0.0
 10
10.2809114455
 20
8.7972375935
 30
0.0
 10
10.2811969766
 20
8.7968706346
 30
0.0
 10
10.2813951059
 20
8.7966118043
 30
0.0
 10
10.2815110434
 20
8.7964669602
 30
0.0
 10
10.281590332
 20
8.7963497099
 30
0.0
 10
10.2816989183
 20
8.7962653992
 30
0.0
 10
10.2818334807
 20
8.7961414952
 30
0.0
 10
10.2820737262
 20
8.7959300165
 30
0.0
 10
10.2824144447
 20
8.7956251054
 30
0.0
 10
10.2828243724
 20
8.7952604099
 30
0.0
 10
10.2833705706
 20
8.7947737309
 30
0.0
 10
10.2840534458
 20
8.7941655254
 30
0.0
 10
10.2851459748
 20
8.7931923165
 30
0.0
 10
10.2865116605
 20
8.7919758328
 30
0.0
 10
10.2881504729
 20
8.7905160407
 30
0.0
 10
10.2897892881
 20
8.7890562517
 30
0.0
 10
10.291974374
 20
8.7871098653
 30
0.0
 10
10.2947057317
 20
8.7846768825
 30
0.0
 10
10.2974370896
 20
8.7822439
 30
0.0
 10
10.2996221752
 20
8.7802975131
 30
0.0
 10
10.3012609912
 20
8.7788377255
 30
0.0
 10
10.3028998005
 20
8.7773779283
 30
0.0
 10
10.3042654958
 20
8.7761614604
 30
0.0
 10
10.3053580053
 20
8.7751882194
 30
0.0
 10
10.3060409302
 20
8.7745800955
 30
0.0
 10
10.3065870263
 20
8.774093249
 30
0.0
 10
10.306997266
 20
8.7737290651
 30
0.0
 10
10.3073370086
 20
8.7734225534
 30
0.0
 10
10.3076135659
 20
8.7731841289
 30
0.0
 10
10.3078079684
 20
8.7729867708
 30
0.0
 10
10.3080520515
 20
8.7728601794
 30
0.0
 10
10.3083601415
 20
8.772666671
 30
0.0
 10
10.3087512081
 20
8.7724332669
 30
0.0
 10
10.3092179396
 20
8.7721495516
 30
0.0
 10
10.3098411383
 20
8.7717725326
 30
0.0
 10
10.3106198319
 20
8.7713008246
 30
0.0
 10
10.311865912
 20
8.7705463346
 30
0.0
 10
10.3134234536
 20
8.7696031388
 30
0.0
 10
10.3152925287
 20
8.7684713395
 30
0.0
 10
10.317161597
 20
8.7673395306
 30
0.0
 10
10.3196536905
 20
8.7658304555
 30
0.0
 10
10.3227688065
 20
8.7639441103
 30
0.0
 10
10.325883923
 20
8.762057766
 30
0.0
 10
10.3283760157
 20
8.7605486895
 30
0.0
 10
10.3302450865
 20
8.7594168849
 30
0.0
 10
10.3321141526
 20
8.7582850695
 30
0.0
 10
10.3336717221
 20
8.7573419237
 30
0.0
 10
10.3349177454
 20
8.7565873317
 30
0.0
 10
10.3356965835
 20
8.7561158833
 30
0.0
 10
10.3363194856
 20
8.7557383315
 30
0.0
 10
10.3367871233
 20
8.7554562437
 30
0.0
 10
10.3371753543
 20
8.7552177477
 30
0.0
 10
10.3374892296
 20
8.7550346277
 30
0.0
 10
10.3377156448
 20
8.754876311
 30
0.0
 10
10.3379763799
 20
8.7547980626
 30
0.0
 10
10.3383120383
 20
8.7546657625
 30
0.0
 10
10.3387357245
 20
8.7545099834
 30
0.0
 10
10.3392423874
 20
8.754318941
 30
0.0
 10
10.3399185528
 20
8.7540656525
 30
0.0
 10
10.340763549
 20
8.7537485506
 30
0.0
 10
10.3421156607
 20
8.7532414622
 30
0.0
 10
10.3438057598
 20
8.7526075074
 30
0.0
 10
10.3458338962
 20
8.7518468021
 30
0.0
 10
10.3478620278
 20
8.751086086
 30
0.0
 10
10.350566205
 20
8.7500718016
 30
0.0
 10
10.353946426
 20
8.7488039448
 30
0.0
 10
10.357326647
 20
8.7475360884
 30
0.0
 10
10.360030824
 20
8.7465218035
 30
0.0
 10
10.3620589564
 20
8.7457610888
 30
0.0
 10
10.36408709
 20
8.7450003782
 30
0.0
 10
10.3657771975
 20
8.7443664399
 30
0.0
 10
10.3671292921
 20
8.7438593179
 30
0.0
 10
10.3679743317
 20
8.7435423015
 30
0.0
 10
10.3686504082
 20
8.7432888375
 30
0.0
 10
10.3691573426
 20
8.7430983312
 30
0.0
 10
10.3695801793
 20
8.7429408749
 30
0.0
 10
10.3698753969
 20
8.7428281063
 30
0.0
 10
10.370045292
 20
8.7427676474
 30
0.0
 10
10.3701693346
 20
8.7427110908
 30
0.0
 10
10.3703062927
 20
8.7426973939
 30
0.0
 10
10.3704843983
 20
8.7426641815
 30
0.0
 10
10.3707981822
 20
8.7426130252
 30
0.0
 10
10.3712453476
 20
8.7425363031
 30
0.0
 10
10.3717824157
 20
8.7424457953
 30
0.0
 10
10.3724983424
 20
8.7423245739
 30
0.0
 10
10.3733933071
 20
8.7421732335
 30
0.0
 10
10.3748252191
 20
8.7419309848
 30
0.0
 10
10.3766151198
 20
8.7416282095
 30
0.0
 10
10.3787629961
 20
8.741264864
 30
0.0
 10
10.3809108737
 20
8.7409015225
 30
0.0
 10
10.38377471
 20
8.7404170657
 30
0.0
 10
10.3873545055
 20
8.7398114952
 30
0.0
 10
10.3916502601
 20
8.7390848105
 30
0.0
 10
10.3973779329
 20
8.7381158976
 30
0.0
 10
10.4016736874
 20
8.7373892128
 30
0.0
 10
10.4045375238
 20
8.7369047564
 30
0.0
  0
ENDSEC
  0
SECTION
  2
OBJECTS
  0
DICTIONARY
  5
C
100
AcDbDictionary
280
0
281
1
  3
ACAD_GROUP
350
D
  3
ACAD_MLINESTYLE
350
17
  3
ACAD_LAYOUT
350
1A
  3
ACAD_PLOTSETTINGS
350
19
  3
ACAD_PLOTSTYLENAME
350
E
  3
ACAD_IMAGE_DICT
350
       370
  3
ACAD_IMAGE_VARS
350
       371
  3
ACAD_TABLESTYLE
350
       372
  0
IMAGEDEF_REACTOR
  5
36F
100
AcDbRasterImageDefReactor
 90
2
330
292
  0
DICTIONARY
  5
D
102
{ACAD_REACTORS
330
C
102
}
100
AcDbDictionary
280
0
281
1
  0
ACDBDICTIONARYWDFLT
  5
E
102
{ACAD_REACTORS
330
C
102
}
100
AcDbDictionary
281
1
  3
Normal
350
F
100
AcDbDictionaryWithDefault
340
F
  0
DICTIONARY
  5
370
330
C
100
AcDbDictionary
281
1
  3
E2J_assy_2_img_1
350
       375
  0
RASTERVARIABLES
  5
371
330
C
100
AcDbRasterVariables
 90
0
 70
0
 71
1
 72
5
  0
DICTIONARY
  5
17
102
{ACAD_REACTORS
330
C
102
}
100
AcDbDictionary
280
0
281
1
  3
Standard
350
18
  0
DICTIONARY
  5
372
330
C
100
AcDbDictionary
281
1
  3
Standard
350
       376
  3
Standard1
350
       377
  0
DICTIONARY
  5
19
102
{ACAD_REACTORS
330
C
102
}
100
AcDbDictionary
281
1
  0
DICTIONARY
  5
1A
102
{ACAD_REACTORS
330
C
102
}
100
AcDbDictionary
281
1
  3
Model
350
373
  3
Layout1
350
374
  0
ACDBPLACEHOLDER
  5
F
102
{ACAD_REACTORS
330
E
102
}
  0
MLINESTYLE
  5
18
102
{ACAD_REACTORS
330
17
102
}
100
AcDbMlineStyle
  2
STANDARD
 70
0
  3

 62
256
 51
90.0
 52
90.0
 71
2
 49
0.5
 62
256
  6
BYLAYER
 49
-0.5
 62
256
  6
BYLAYER
  0
LAYOUT
  5
373
102
{ACAD_REACTORS
330
1A
102
}
100
AcDbPlotSettings
  1

  2
none_device
  4
ANSI_C_(22.00_x_17.00_Inches)
  6

 40
0.0
 41
0.0
 42
0.0
 43
0.0
 44
558.8
 45
431.8
 46
0.0
 47
0.0
 48
0.0
 49
0.0
140
0.0
141
0.0
142
1.0
143
1.0
 70
1024
 72
0
 73
0
 74
0
  7

 75
0
147
1.0
148
0.0
149
0.0
100
AcDbLayout
  1
Model
 70
0
 71
0
 10
0.0
 20
0.0
 11
22.0
 21
17.0
 12
0.0
 22
0.0
 32
0.0
 14
0.0
 24
0.0
 34
0.0
 15
0.0
 25
0.0
 35
0.0
146
0.0
 13
0.0
 23
0.0
 33
0.0
 16
1.0
 26
0.0
 36
0.0
 17
0.0
 27
1.0
 37
0.0
 76
0
330
20C
345
0
346
0
  0
LAYOUT
  5
374
102
{ACAD_REACTORS
330
1A
102
}
100
AcDbPlotSettings
  1

  2
none_device
  4
ANSI_C_(22.00_x_17.00_Inches)
  6

 40
0.0
 41
0.0
 42
0.0
 43
0.0
 44
558.8
 45
431.8
 46
0.0
 47
0.0
 48
0.0
 49
0.0
140
0.0
141
0.0
142
1.0
143
1.0
 70
0
 72
0
 73
0
 74
0
  7

 75
0
147
1.0
148
0.0
149
0.0
100
AcDbLayout
  1
Layout1
 70
0
 71
1
 10
0.0
 20
0.0
 11
22.0
 21
17.0
 12
0.0
 22
0.0
 32
0.0
 14
0.0
 24
0.0
 34
0.0
 15
0.0
 25
0.0
 35
0.0
146
0.0
 13
0.0
 23
0.0
 33
0.0
 16
1.0
 26
0.0
 36
0.0
 17
0.0
 27
1.0
 37
0.0
 76
0
330
20D
345
0
346
0
  0
IMAGEDEF
  5
375
102
{ACAD_REACTORS
330
370
330
36F
102
}
100
AcDbRasterImageDef
 90
0
  1
E2J_assy_2_img_1.png
 10
369.0
 20
92.0
 11
0.0066666667
 21
0.0066666667
280
1
281
0
  0
TABLESTYLE
  5
376
102
{ACAD_REACTORS
330
372
330
295
330
296
102
}
330
372
100
AcDbTableStyle
  3
Standard
 70
0
 71
0
 40
0.06
 41
0.06
280
1
281
1
  7
Standard
140
0.18
170
1
 62
0
 63
7
283
0
  7
Standard
140
0.18
170
1
 62
0
 63
7
283
0
  7
Standard
140
0.18
170
1
 62
0
 63
7
283
0
  0
TABLESTYLE
  5
377
102
{ACAD_REACTORS
330
372
330
294
102
}
330
372
100
AcDbTableStyle
  3
Standard1
 70
1
 71
0
 40
0.06
 41
0.06
280
1
281
1
  7
Standard
140
0.18
170
1
 62
0
 63
7
283
0
  7
Standard
140
0.18
170
1
 62
0
 63
7
283
0
  7
Standard
140
0.18
170
1
 62
0
 63
7
283
0
  0
ENDSEC
  0
EOF
