999
DXF file: DNL_assy_2.dxf
999
Pro/ENGINEER 2014200 by Parametric Technology Corporation
  0
SECTION
  2
HEADER
  9
$ACADVER
  1
AC1021
  9
$DWGCODEPAGE
  3
ANSI_1252
  9
$EXTMAX
 10
22.0
 20
17.0
 30
0.0
  9
$EXTMIN
 10
0.0
 20
0.0
 30
0.0
  9
$LIMMIN
 10
0.0
 20
0.0
  9
$LIMMAX
 10
22.0
 20
17.0
  9
$VIEWCTR
 10
11.0
 20
8.5
  9
$VIEWSIZE
 40
17.0
  9
$CLAYER
  8
0
  9
$LTSCALE
 40
1.21
  9
$CELTYPE
  6
BYLAYER
  9
$DIMSCALE
 40
1.0
  9
$DIMASZ
 40
0.1875
  9
$DIMEXO
 40
0.0625
  9
$DIMDLI
 40
0.836
  9
$DIMEXE
 40
0.125
  9
$DIMCEN
 40
0.198
  9
$DIMLFAC
 40
1.0
  9
$DIMBLK
  1
_FILLED
  9
$DIMTXT
 40
0.1
  9
$DIMTOL
 70
0
  9
$DIMLIM
 70
0
  9
$DIMTFAC
 40
1.0
  9
$DIMGAP
 40
0.09
  9
$DIMDSEP
 70
46
  9
$AUNITS
 70
0
  9
$PDMODE
 70
3
  9
$PDSIZE
 40
0.3125
  9
$HANDSEED
  5
369
  9
$TILEMODE
 70
1
  9
$MEASUREMENT
 70
0
  9
$INSUNITS
 70
1
  0
ENDSEC
  0
SECTION
  2
CLASSES
  0
CLASS
  1
ACDBDICTIONARYWDFLT
  2
AcDbDictionaryWithDefault
  3
AutoCAD 2000
 90
0
 91
1
280
0
281
0
  0
CLASS
  1
ACDBPLACEHOLDER
  2
AcDbPlaceHolder
  3
AutoCAD 2000
 90
0
 91
1
280
0
281
0
  0
CLASS
  1
LAYOUT
  2
AcDbLayout
  3
AutoCAD 2000
 90
0
 91
0
280
0
281
0
  0
CLASS
  1
RASTERVARIABLES
  2
AcDbRasterVariables
  3
ISM
 90
0
 91
1
280
0
281
0
  0
CLASS
  1
IMAGEDEF
  2
AcDbRasterImageDef
  3
ISM
 90
0
 91
1
280
0
281
0
  0
CLASS
  1
IMAGEDEF_REACTOR
  2
AcDbRasterImageDefReactor
  3
ISM
 90
0
 91
1
280
0
281
0
  0
CLASS
  1
IMAGE
  2
AcDbRasterImage
  3
ISM
 90
127
 91
1
280
0
281
1
  0
CLASS
  1
TABLESTYLE
  2
AcDbTableStyle
  3
ObjectDBX Classes
 90
2047
 91
1
280
0
281
0
  0
CLASS
  1
ACAD_TABLE
  2
AcDbTable
  3
ObjectDBX Classes
 90
1025
 91
3
280
0
281
1
  0
ENDSEC
  0
SECTION
  2
TABLES
  0
TABLE
  2
VPORT
  5
8
100
AcDbSymbolTable
 70
2
  0
VPORT
  5
1F4
100
AcDbSymbolTableRecord
100
AcDbViewportTableRecord
  2
*ACTIVE
 70
0
 10
0.0
 20
0.0
 11
1.0
 21
1.0
 12
11.0
 22
8.5
 13
0.0
 23
0.0
 14
1.0
 24
1.0
 15
0.0
 25
0.0
 16
0.0
 26
0.0
 36
1.0
 17
0.0
 27
0.0
 37
0.0
 40
17.0
 41
1.2941176471
 42
50.0
 43
0.0
 44
0.0
 50
0.0
 51
0.0
 71
0
 72
100
 73
1
 74
1
 75
0
 76
0
 77
0
 78
0
  0
ENDTAB
  0
TABLE
  2
LTYPE
  5
5
100
AcDbSymbolTable
 70
6
  0
LTYPE
  5
14
100
AcDbSymbolTableRecord
100
AcDbLinetypeTableRecord
  2
BYBLOCK
 70
0
  3

 72
65
 73
0
 40
0.0
  0
LTYPE
  5
15
100
AcDbSymbolTableRecord
100
AcDbLinetypeTableRecord
  2
BYLAYER
 70
0
  3

 72
65
 73
0
 40
0.0
  0
LTYPE
  5
16
100
AcDbSymbolTableRecord
100
AcDbLinetypeTableRecord
  2
CONTINUOUS
 70
64
  3
Solid line
 72
65
 73
0
 40
0.0
  0
LTYPE
  5
1F5
100
AcDbSymbolTableRecord
100
AcDbLinetypeTableRecord
  2
CENTER
 70
64
  3
____ _ ____ _ ____ _ ____ _ ____ _ ____ _ ____
 72
65
 73
4
 40
0.6
 49
0.375
 74
0
 49
-0.075
 74
0
 49
0.075
 74
0
 49
-0.075
 74
0
  0
LTYPE
  5
1F6
100
AcDbSymbolTableRecord
100
AcDbLinetypeTableRecord
  2
HIDDEN
 70
64
  3
- - - - - - - - - - - - - - - - - - - -
 72
65
 73
2
 40
0.2
 49
0.1
 74
0
 49
-0.1
 74
0
  0
LTYPE
  5
1F7
100
AcDbSymbolTableRecord
100
AcDbLinetypeTableRecord
  2
PHANTOM
 70
64
  3
_____ _ _ _____ _ _ _____ _ _ _____
 72
65
 73
6
 40
0.8
 49
0.45
 74
0
 49
-0.05
 74
0
 49
0.1
 74
0
 49
-0.05
 74
0
 49
0.1
 74
0
 49
-0.05
 74
0
  0
LTYPE
  5
1F8
100
AcDbSymbolTableRecord
100
AcDbLinetypeTableRecord
  2
DOT
 70
64
  3
. . . . . . . . . . . . . . . . . . . .
 72
65
 73
2
 40
0.2
 49
0.1
 74
0
 49
-0.1
 74
0
  0
LTYPE
  5
1F9
100
AcDbSymbolTableRecord
100
AcDbLinetypeTableRecord
  2
DASHED
 70
64
  3
- - - - - - - - - - - - - - - - - - - -
 72
65
 73
2
 40
0.2
 49
0.1
 74
0
 49
-0.1
 74
0
  0
ENDTAB
  0
TABLE
  2
LAYER
  5
2
100
AcDbSymbolTable
 70
36
  0
LAYER
  5
10
100
AcDbSymbolTableRecord
100
AcDbLayerTableRecord
  2
0
 70
0
 62
7
  6
CONTINUOUS
370
-3
390
F
  0
LAYER
  5
1FA
100
AcDbSymbolTableRecord
100
AcDbLayerTableRecord
  2
DEFAULT_1
 70
0
 62
7
  6
CENTER
370
-3
390
F
  0
LAYER
  5
1FB
100
AcDbSymbolTableRecord
100
AcDbLayerTableRecord
  2
DEFAULT_2
 70
0
 62
8
  6
HIDDEN
370
-3
390
F
  0
LAYER
  5
1FC
100
AcDbSymbolTableRecord
100
AcDbLayerTableRecord
  2
DEFAULT_3
 70
0
 62
7
  6
PHANTOM
370
-3
390
F
  0
LAYER
  5
1FD
100
AcDbSymbolTableRecord
100
AcDbLayerTableRecord
  2
01___PRT_ALL_DTM_PLN
 70
0
 62
7
  6
CONTINUOUS
370
-3
390
F
  0
LAYER
  5
1FE
100
AcDbSymbolTableRecord
100
AcDbLayerTableRecord
  2
01___PRT_DEF_DTM_PLN
 70
0
 62
7
  6
CONTINUOUS
370
-3
390
F
  0
LAYER
  5
1FF
100
AcDbSymbolTableRecord
100
AcDbLayerTableRecord
  2
02___PRT_ALL_AXES
 70
0
 62
7
  6
CONTINUOUS
370
-3
390
F
  0
LAYER
  5
200
100
AcDbSymbolTableRecord
100
AcDbLayerTableRecord
  2
03___PRT_ALL_CURVES
 70
0
 62
7
  6
CONTINUOUS
370
-3
390
F
  0
LAYER
  5
201
100
AcDbSymbolTableRecord
100
AcDbLayerTableRecord
  2
04___PRT_ALL_DTM_PNT
 70
0
 62
7
  6
CONTINUOUS
370
-3
390
F
  0
LAYER
  5
202
100
AcDbSymbolTableRecord
100
AcDbLayerTableRecord
  2
05___PRT_ALL_DTM_CSYS
 70
0
 62
7
  6
CONTINUOUS
370
-3
390
F
  0
LAYER
  5
203
100
AcDbSymbolTableRecord
100
AcDbLayerTableRecord
  2
05___PRT_DEF_DTM_CSYS
 70
0
 62
7
  6
CONTINUOUS
370
-3
390
F
  0
LAYER
  5
204
100
AcDbSymbolTableRecord
100
AcDbLayerTableRecord
  2
06___PRT_ALL_SURFS
 70
0
 62
7
  6
CONTINUOUS
370
-3
390
F
  0
LAYER
  5
205
100
AcDbSymbolTableRecord
100
AcDbLayerTableRecord
  2
DATUM_PLANES
 70
0
 62
7
  6
CONTINUOUS
370
-3
390
F
  0
LAYER
  5
206
100
AcDbSymbolTableRecord
100
AcDbLayerTableRecord
  2
PORT_AREAS
 70
0
 62
7
  6
CONTINUOUS
370
-3
390
F
  0
LAYER
  5
207
100
AcDbSymbolTableRecord
100
AcDbLayerTableRecord
  2
SUNNBOMCOSMETIC
 70
0
 62
7
  6
CONTINUOUS
370
-3
390
F
  0
LAYER
  5
208
100
AcDbSymbolTableRecord
100
AcDbLayerTableRecord
  2
SUNNBOMSTAMPING
 70
0
 62
7
  6
CONTINUOUS
370
-3
390
F
  0
LAYER
  5
209
100
AcDbSymbolTableRecord
100
AcDbLayerTableRecord
  2
THREADS
 70
0
 62
7
  6
CONTINUOUS
370
-3
390
F
  0
ENDTAB
  0
TABLE
  2
STYLE
  5
3
100
AcDbSymbolTable
 70
1
  0
STYLE
  5
11
100
AcDbSymbolTableRecord
100
AcDbTextStyleTableRecord
  2
STANDARD
 70
0
 40
0.0
 41
0.8
 50
0.0
 71
0
 42
0.2
  3
txt
  4

  0
STYLE
  5
20A
100
AcDbSymbolTableRecord
100
AcDbTextStyleTableRecord
  2
TEXTSTYLE_1
 70
0
 40
0.0
 41
0.8
 50
0.0
 71
0
 42
0.2
  3
gdt
  4

  0
ENDTAB
  0
TABLE
  2
VIEW
  5
6
100
AcDbSymbolTable
 70
0
  0
ENDTAB
  0
TABLE
  2
UCS
  5
7
100
AcDbSymbolTable
 70
0
  0
ENDTAB
  0
TABLE
  2
APPID
  5
9
100
AcDbSymbolTable
 70
1
  0
APPID
  5
20B
100
AcDbSymbolTableRecord
100
AcDbRegAppTableRecord
  2
ACAD
 70
0
  0
ENDTAB
  0
TABLE
  2
BLOCK_RECORD
  5
1
100
AcDbSymbolTable
 70
0
  0
BLOCK_RECORD
  5
20C
100
AcDbSymbolTableRecord
100
AcDbBlockTableRecord
  2
*Model_Space
  0
BLOCK_RECORD
  5
20D
100
AcDbSymbolTableRecord
100
AcDbBlockTableRecord
  2
*Paper_Space
  0
BLOCK_RECORD
  5
20E
100
AcDbSymbolTableRecord
100
AcDbBlockTableRecord
  2
SUN_FIRST_THIRD_ANGLE_BL0
  0
BLOCK_RECORD
  5
20F
100
AcDbSymbolTableRecord
100
AcDbBlockTableRecord
  2
*T1
  0
BLOCK_RECORD
  5
210
100
AcDbSymbolTableRecord
100
AcDbBlockTableRecord
  2
*T2
  0
BLOCK_RECORD
  5
211
100
AcDbSymbolTableRecord
100
AcDbBlockTableRecord
  2
*T3
  0
ENDTAB
  0
TABLE
  2
DIMSTYLE
  5
A
100
AcDbSymbolTable
 70
1
100
AcDbDimStyleTable
 71
0
  0
DIMSTYLE
105
212
100
AcDbSymbolTableRecord
100
AcDbDimStyleTableRecord
  2
STANDARD
 70
0
  3

  4

 40
1.0
 41
0.1875
 42
0.0625
 43
0.38
 44
0.125
 45
0.0
 46
0.0
 47
0.001
 48
0.001
140
0.1
141
0.09
142
0.0
143
25.4
144
1.0
145
0.0
146
1.0
147
0.09
 71
0.0
 72
0.0
 73
1
 74
1
 75
0
 76
0
 77
0
 78
4
170
0
171
2
172
0
173
0
174
0
175
0
176
0
177
0
178
0
270
2
271
3
272
3
273
2
274
2
275
0
280
0
281
0
282
0
283
1
284
4
285
0
286
0
287
3
288
0
340
11
278
46
  0
ENDTAB
  0
ENDSEC
  0
SECTION
  2
BLOCKS
  0
BLOCK
  5
20
100
AcDbEntity
  8
0
100
AcDbBlockBegin
  2
*Model_Space
 70
0
 10
0.0
 20
0.0
 30
0.0
  3
*Model_Space
  1

  0
ENDBLK
  5
21
100
AcDbEntity
  8
0
100
AcDbBlockEnd
  0
BLOCK
  5
1C
100
AcDbEntity
  8
0
100
AcDbBlockBegin
  2
*Paper_Space
 70
0
 10
0.0
 20
0.0
 30
0.0
  3
*Paper_Space
  1

  0
ENDBLK
  5
1D
100
AcDbEntity
  8
0
100
AcDbBlockEnd
  0
BLOCK
  5
213
100
AcDbEntity
  8
0
100
AcDbBlockBegin
 62
2
  6
CONTINUOUS
  2
SUN_FIRST_THIRD_ANGLE_BL0
 70
64
 10
20.4816717061
 20
1.2289683772
  3
SUN_FIRST_THIRD_ANGLE_BL0
  1

  0
TEXT
  5
214
100
AcDbEntity
  8
0
100
AcDbText
 62
2
  6
CONTINUOUS
 10
19.4750896608
 20
1.4136269581
  7
STANDARD
 40
0.08
  1
FIRST ANGLE
 41
0.8
 72
0
100
AcDbText
  0
TEXT
  5
215
100
AcDbEntity
  8
0
100
AcDbText
 62
2
  6
CONTINUOUS
 10
20.7842537513
 20
1.4047600029
  7
STANDARD
 40
0.08
  1
THIRD ANGLE
 41
0.8
 72
0
100
AcDbText
  0
LINE
  5
216
100
AcDbEntity
  8
0
100
AcDbLine
 62
7
  6
CONTINUOUS
 10
19.4767170086
 20
1.1727031207
 11
19.6334271527
 21
1.1717972817
  0
LINE
  5
217
100
AcDbEntity
  8
0
100
AcDbLine
 62
7
  6
CONTINUOUS
 10
19.6596964832
 20
1.1717972817
 11
19.6950230232
 21
1.171593082
  0
LINE
  5
218
100
AcDbEntity
  8
0
100
AcDbLine
 62
7
  6
CONTINUOUS
 10
19.7194818561
 20
1.1708914427
 11
19.8852396156
 21
1.1699333054
  0
LINE
  5
219
100
AcDbEntity
  8
0
100
AcDbLine
 62
7
  6
CONTINUOUS
 10
19.4758111696
 20
1.2723454088
 11
19.88525039
 21
1.3511534004
  0
LINE
  5
21A
100
AcDbEntity
  8
0
100
AcDbLine
 62
7
  6
CONTINUOUS
 10
19.88525039
 20
1.3511534004
 11
19.8831348489
 21
0.9851647912
  0
LINE
  5
21B
100
AcDbEntity
  8
0
100
AcDbLine
 62
7
  6
CONTINUOUS
 10
19.8831348489
 20
0.9851647912
 11
19.4767170086
 21
1.0658141206
  0
LINE
  5
21C
100
AcDbEntity
  8
0
100
AcDbLine
 62
7
  6
CONTINUOUS
 10
19.4767170086
 20
1.0658141206
 11
19.4779056764
 21
1.2714536432
  0
CIRCLE
  5
21D
100
AcDbEntity
  8
0
100
AcDbCircle
 62
7
  6
CONTINUOUS
 10
20.2068232291
 20
1.1717972817
 40
0.175742101
  0
CIRCLE
  5
21E
100
AcDbEntity
  8
0
100
AcDbCircle
 62
7
  6
CONTINUOUS
 10
20.2068232291
 20
1.1717972817
 40
0.1005522074
  0
LINE
  5
21F
100
AcDbEntity
  8
0
100
AcDbLine
 62
7
  6
CONTINUOUS
 10
20.2077290681
 20
1.3756110529
 11
20.2071171714
 21
1.2379342989
  0
LINE
  5
220
100
AcDbEntity
  8
0
100
AcDbLine
 62
7
  6
CONTINUOUS
 10
20.2077290681
 20
1.2016899681
 11
20.2074674401
 21
1.1428236749
  0
LINE
  5
221
100
AcDbEntity
  8
0
100
AcDbLine
 62
7
  6
CONTINUOUS
 10
20.208634907
 20
1.101141841
 11
20.2080230104
 21
0.963465087
  0
LINE
  5
222
100
AcDbEntity
  8
0
100
AcDbLine
 62
7
  6
CONTINUOUS
 10
20.0066328138
 20
1.1745147986
 11
20.1443095678
 21
1.1739029019
  0
LINE
  5
223
100
AcDbEntity
  8
0
100
AcDbLine
 62
7
  6
CONTINUOUS
 10
20.1832714155
 20
1.1727031207
 11
20.238153505
 21
1.172335442
  0
LINE
  5
224
100
AcDbEntity
  8
0
100
AcDbLine
 62
7
  6
CONTINUOUS
 10
20.2756669918
 20
1.1717972817
 11
20.407916871
 21
1.1712095044
  0
CIRCLE
  5
225
100
AcDbEntity
  8
0
100
AcDbCircle
 62
7
  6
CONTINUOUS
 10
20.7509457401
 20
1.1693297793
 40
0.1722024983
  0
CIRCLE
  5
226
100
AcDbEntity
  8
0
100
AcDbCircle
 62
7
  6
CONTINUOUS
 10
20.7509457401
 20
1.1693297793
 40
0.0985164967
  0
LINE
  5
227
100
AcDbEntity
  8
0
100
AcDbLine
 62
7
  6
CONTINUOUS
 10
20.7169767782
 20
1.170462078
 11
20.7825395137
 21
1.1682766535
  0
LINE
  5
228
100
AcDbEntity
  8
0
100
AcDbLine
 62
7
  6
CONTINUOUS
 10
20.8177513651
 20
1.1693297793
 11
20.947965719
 21
1.1693297793
  0
LINE
  5
229
100
AcDbEntity
  8
0
100
AcDbLine
 62
7
  6
CONTINUOUS
 10
20.6875370113
 20
1.170462078
 11
20.5573226574
 21
1.170462078
  0
LINE
  5
22A
100
AcDbEntity
  8
0
100
AcDbLine
 62
7
  6
CONTINUOUS
 10
20.7486811426
 20
1.1987695462
 11
20.7486811426
 21
1.1432869085
  0
LINE
  5
22B
100
AcDbEntity
  8
0
100
AcDbLine
 62
7
  6
CONTINUOUS
 10
20.7498134414
 20
1.1059210505
 11
20.7498134414
 21
0.9757066966
  0
LINE
  5
22C
100
AcDbEntity
  8
0
100
AcDbLine
 62
7
  6
CONTINUOUS
 10
20.7486811426
 20
1.2338708068
 11
20.7486811426
 21
1.3640851607
  0
LINE
  5
22D
100
AcDbEntity
  8
0
100
AcDbLine
 62
7
  6
CONTINUOUS
 10
21.0702539817
 20
1.2701043662
 11
21.4790138229
 21
1.3448360823
  0
LINE
  5
22E
100
AcDbEntity
  8
0
100
AcDbLine
 62
7
  6
CONTINUOUS
 10
21.4790138229
 20
1.3448360823
 11
21.4790138229
 21
0.9779712941
  0
LINE
  5
22F
100
AcDbEntity
  8
0
100
AcDbLine
 62
7
  6
CONTINUOUS
 10
21.4790138229
 20
0.9779712941
 11
21.069121683
 21
1.0617614
  0
LINE
  5
230
100
AcDbEntity
  8
0
100
AcDbLine
 62
7
  6
CONTINUOUS
 10
21.0702539817
 20
1.2701043662
 11
21.069121683
 21
1.0617614
  0
LINE
  5
231
100
AcDbEntity
  8
0
100
AcDbLine
 62
7
  6
CONTINUOUS
 10
21.4790138229
 20
1.1693297793
 11
21.3159628059
 21
1.1693297793
  0
LINE
  5
232
100
AcDbEntity
  8
0
100
AcDbLine
 62
7
  6
CONTINUOUS
 10
21.2876553377
 20
1.1693297793
 11
21.2502894796
 21
1.1693297793
  0
LINE
  5
233
100
AcDbEntity
  8
0
100
AcDbLine
 62
7
  6
CONTINUOUS
 10
21.2208497126
 20
1.1659328831
 11
21.0713862804
 21
1.1659328831
  0
LINE
  5
234
100
AcDbEntity
  8
0
100
AcDbLine
 62
7
  6
CONTINUOUS
 10
20.4796138713
 20
1.5284908897
 11
20.4766766948
 21
0.9294458646
  0
ENDBLK
  5
235
100
AcDbEntity
  8
0
  6
BYBLOCK
 62
0
100
AcDbBlockEnd
  0
BLOCK
  5
236
100
AcDbEntity
  8
0
100
AcDbBlockBegin
  2
*T1
 70
1
 10
0.0
 20
0.0
  3
*T1
  1

  0
LINE
  5
237
100
AcDbEntity
  8
0
100
AcDbLine
 62
2
  6
CONTINUOUS
 10
9.275
 20
0.0
 11
-0.0
 21
0.0
  0
LINE
  5
238
100
AcDbEntity
  8
0
100
AcDbLine
 62
2
  6
CONTINUOUS
 10
9.275
 20
0.0
 11
9.275
 21
1.25
  0
LINE
  5
239
100
AcDbEntity
  8
0
100
AcDbLine
 62
2
  6
CONTINUOUS
 10
9.275
 20
0.625
 11
-0.0
 21
0.625
  0
LINE
  5
23A
100
AcDbEntity
  8
0
100
AcDbLine
 62
2
  6
CONTINUOUS
 10
9.275
 20
1.25
 11
-0.0
 21
1.25
  0
LINE
  5
23B
100
AcDbEntity
  8
0
100
AcDbLine
 62
2
  6
CONTINUOUS
 10
6.8
 20
0.0
 11
6.8
 21
1.25
  0
LINE
  5
23C
100
AcDbEntity
  8
0
100
AcDbLine
 62
2
  6
CONTINUOUS
 10
6.4
 20
0.0
 11
6.4
 21
0.625
  0
LINE
  5
23D
100
AcDbEntity
  8
0
100
AcDbLine
 62
2
  6
CONTINUOUS
 10
5.9
 20
0.0
 11
5.9
 21
0.625
  0
LINE
  5
23E
100
AcDbEntity
  8
0
100
AcDbLine
 62
2
  6
CONTINUOUS
 10
5.2
 20
0.0
 11
5.2
 21
0.625
  0
LINE
  5
23F
100
AcDbEntity
  8
0
100
AcDbLine
 62
2
  6
CONTINUOUS
 10
4.1
 20
0.0
 11
4.1
 21
1.25
  0
LINE
  5
240
100
AcDbEntity
  8
0
100
AcDbLine
 62
2
  6
CONTINUOUS
 10
-0.0
 20
0.0
 11
-0.0
 21
1.25
  0
MTEXT
  5
241
100
AcDbEntity
  8
0
100
AcDbMText
 62
2
  6
CONTINUOUS
  7
STANDARD
 71
2
 72
1
 10
6.6
 20
0.325
 30
0.0
 11
1.0
 21
0.0
 31
0.0
 44
0.9
  1
2
 40
0.125
 41
0.2
  0
MTEXT
  5
242
100
AcDbEntity
  8
0
100
AcDbMText
 62
2
  6
CONTINUOUS
  7
STANDARD
 71
2
 72
1
 10
6.15
 20
0.325
 30
0.0
 11
1.0
 21
0.0
 31
0.0
 44
0.9
  1
C
 40
0.125
 41
0.2
  0
MTEXT
  5
243
100
AcDbEntity
  8
0
100
AcDbMText
 62
2
  6
CONTINUOUS
  7
STANDARD
 71
2
 72
1
 10
5.55
 20
0.325
 30
0.0
 11
1.0
 21
0.0
 31
0.0
 44
0.9
  1
1.000
 40
0.125
 41
1.0
  0
MTEXT
  5
244
100
AcDbEntity
  8
0
100
AcDbMText
 62
2
  6
CONTINUOUS
  7
STANDARD
 71
2
 72
1
 10
4.65
 20
0.325
 30
0.0
 11
1.0
 21
0.0
 31
0.0
 44
0.9
  1
Jan-20-21
 40
0.125
 41
1.8
  0
MTEXT
  5
245
100
AcDbEntity
  8
0
100
AcDbMText
 62
2
  6
CONTINUOUS
  7
STANDARD
 71
2
 72
1
 10
2.05
 20
0.4625
 30
0.0
 11
1.0
 21
0.0
 31
0.0
 44
0.9
  1
T-5A Line mount\PNinety degree with reverse flow check
 40
0.125
 41
7.4
  0
MTEXT
  5
246
100
AcDbEntity
  8
0
100
AcDbMText
 62
2
  6
CONTINUOUS
  7
STANDARD
 71
1
 72
1
 10
6.45
 20
0.5625
 30
0.0
 11
1.0
 21
0.0
 31
0.0
 44
0.9
  1
SHEET
 40
0.06
 41
0.48
  0
MTEXT
  5
247
100
AcDbEntity
  8
0
100
AcDbMText
 62
2
  6
CONTINUOUS
  7
STANDARD
 71
1
 72
1
 10
5.95
 20
0.5625
 30
0.0
 11
1.0
 21
0.0
 31
0.0
 44
0.9
  1
DWG SIZE
 40
0.06
 41
0.768
  0
MTEXT
  5
248
100
AcDbEntity
  8
0
100
AcDbMText
 62
2
  6
CONTINUOUS
  7
STANDARD
 71
1
 72
1
 10
5.25
 20
0.5625
 30
0.0
 11
1.0
 21
0.0
 31
0.0
 44
0.9
  1
SCALE
 40
0.06
 41
0.48
  0
MTEXT
  5
249
100
AcDbEntity
  8
0
100
AcDbMText
 62
2
  6
CONTINUOUS
  7
STANDARD
 71
1
 72
1
 10
4.15
 20
0.5625
 30
0.0
 11
1.0
 21
0.0
 31
0.0
 44
0.9
  1
DATE
 40
0.06
 41
0.384
  0
MTEXT
  5
24A
100
AcDbEntity
  8
0
100
AcDbMText
 62
2
  6
CONTINUOUS
  7
STANDARD
 71
1
 72
1
 10
0.05
 20
0.5625
 30
0.0
 11
1.0
 21
0.0
 31
0.0
 44
0.9
  1
DESCRIPTION
 40
0.06
 41
1.056
  0
MTEXT
  5
24B
100
AcDbEntity
  8
0
100
AcDbMText
 62
2
  6
CONTINUOUS
  7
STANDARD
 71
2
 72
1
 10
5.45
 20
1.0375
 30
0.0
 11
1.0
 21
0.0
 31
0.0
 44
0.9
  1
ALL DIMENSIONS IN INCH\PVIEWS ARE THIRD ANGLE
 40
0.12
 41
4.224
  0
MTEXT
  5
24C
100
AcDbEntity
  8
0
100
AcDbMText
 62
2
  6
CONTINUOUS
  7
STANDARD
 71
2
 72
1
 10
2.05
 20
0.95
 30
0.0
 11
1.0
 21
0.0
 31
0.0
 44
0.9
  1
DNL
 40
0.125
 41
0.6
  0
MTEXT
  5
24D
100
AcDbEntity
  8
0
100
AcDbMText
 62
2
  6
CONTINUOUS
  7
STANDARD
 71
1
 72
1
 10
0.05
 20
1.1875
 30
0.0
 11
1.0
 21
0.0
 31
0.0
 44
0.9
  1
MODEL
 40
0.06
 41
0.48
  0
ENDBLK
  5
24E
100
AcDbEntity
  8
0
  6
BYBLOCK
 62
0
100
AcDbBlockEnd
  0
BLOCK
  5
24F
100
AcDbEntity
  8
0
100
AcDbBlockBegin
  2
*T2
 70
1
 10
0.0
 20
0.0
  3
*T2
  1

  0
LINE
  5
250
100
AcDbEntity
  8
0
100
AcDbLine
 62
2
  6
CONTINUOUS
 10
0.0
 20
0.0
 11
9.055
 21
0.0
  0
LINE
  5
251
100
AcDbEntity
  8
0
100
AcDbLine
 62
2
  6
CONTINUOUS
 10
0.0
 20
0.0
 11
0.0
 21
-2.594
  0
LINE
  5
252
100
AcDbEntity
  8
0
100
AcDbLine
 62
2
  6
CONTINUOUS
 10
0.0
 20
-0.344
 11
9.055
 21
-0.344
  0
LINE
  5
253
100
AcDbEntity
  8
0
100
AcDbLine
 62
2
  6
CONTINUOUS
 10
0.0
 20
-0.594
 11
9.055
 21
-0.594
  0
LINE
  5
254
100
AcDbEntity
  8
0
100
AcDbLine
 62
2
  6
CONTINUOUS
 10
0.0
 20
-0.844
 11
9.055
 21
-0.844
  0
LINE
  5
255
100
AcDbEntity
  8
0
100
AcDbLine
 62
2
  6
CONTINUOUS
 10
0.0
 20
-1.094
 11
9.055
 21
-1.094
  0
LINE
  5
256
100
AcDbEntity
  8
0
100
AcDbLine
 62
2
  6
CONTINUOUS
 10
0.0
 20
-1.344
 11
9.055
 21
-1.344
  0
LINE
  5
257
100
AcDbEntity
  8
0
100
AcDbLine
 62
2
  6
CONTINUOUS
 10
0.0
 20
-1.594
 11
9.055
 21
-1.594
  0
LINE
  5
258
100
AcDbEntity
  8
0
100
AcDbLine
 62
2
  6
CONTINUOUS
 10
0.0
 20
-1.844
 11
9.055
 21
-1.844
  0
LINE
  5
259
100
AcDbEntity
  8
0
100
AcDbLine
 62
2
  6
CONTINUOUS
 10
0.0
 20
-2.094
 11
9.055
 21
-2.094
  0
LINE
  5
25A
100
AcDbEntity
  8
0
100
AcDbLine
 62
2
  6
CONTINUOUS
 10
0.0
 20
-2.344
 11
9.055
 21
-2.344
  0
LINE
  5
25B
100
AcDbEntity
  8
0
100
AcDbLine
 62
2
  6
CONTINUOUS
 10
0.0
 20
-2.594
 11
9.055
 21
-2.594
  0
LINE
  5
25C
100
AcDbEntity
  8
0
100
AcDbLine
 62
2
  6
CONTINUOUS
 10
3.055
 20
0.0
 11
3.055
 21
-2.594
  0
LINE
  5
25D
100
AcDbEntity
  8
0
100
AcDbLine
 62
2
  6
CONTINUOUS
 10
9.055
 20
0.0
 11
9.055
 21
-2.594
  0
MTEXT
  5
25E
100
AcDbEntity
  8
0
100
AcDbMText
 62
2
  6
CONTINUOUS
  7
STANDARD
 71
2
 72
1
 10
1.5275
 20
-0.0995
 30
0.0
 11
1.0
 21
0.0
 31
0.0
 44
0.9
  1
Technical Data
 40
0.145
 41
3.248
  0
MTEXT
  5
25F
100
AcDbEntity
  8
0
100
AcDbMText
 62
2
  6
CONTINUOUS
  7
STANDARD
 71
2
 72
1
 10
4.555
 20
-0.0995
 30
0.0
 11
1.0
 21
0.0
 31
0.0
 44
0.9
  1
U.S. Units
 40
0.145
 41
2.32
  0
MTEXT
  5
260
100
AcDbEntity
  8
0
100
AcDbMText
 62
2
  6
CONTINUOUS
  7
STANDARD
 71
2
 72
1
 10
7.555
 20
-0.0995
 30
0.0
 11
1.0
 21
0.0
 31
0.0
 44
0.9
  1
Metric Units
 40
0.145
 41
2.784
  0
MTEXT
  5
261
100
AcDbEntity
  8
0
100
AcDbMText
 62
2
  6
CONTINUOUS
  7
STANDARD
 71
2
 72
1
 10
1.5275
 20
-0.4065
 30
0.0
 11
1.0
 21
0.0
 31
0.0
 44
0.9
  1
Cavity
 40
0.125
 41
1.2
  0
MTEXT
  5
262
100
AcDbEntity
  8
0
100
AcDbMText
 62
2
  6
CONTINUOUS
  7
STANDARD
 71
2
 72
1
 10
6.055
 20
-0.4065
 30
0.0
 11
1.0
 21
0.0
 31
0.0
 44
0.9
  1
T-5A
 40
0.125
 41
0.8
  0
MTEXT
  5
263
100
AcDbEntity
  8
0
100
AcDbMText
 62
2
  6
CONTINUOUS
  7
STANDARD
 71
2
 72
1
 10
1.5275
 20
-0.6565
 30
0.0
 11
1.0
 21
0.0
 31
0.0
 44
0.9
  1
Body Features
 40
0.125
 41
2.6
  0
MTEXT
  5
264
100
AcDbEntity
  8
0
100
AcDbMText
 62
2
  6
CONTINUOUS
  7
STANDARD
 71
2
 72
1
 10
6.055
 20
-0.6565
 30
0.0
 11
1.0
 21
0.0
 31
0.0
 44
0.9
  1
Ninety degree with reverse flow check
 40
0.125
 41
7.4
  0
MTEXT
  5
265
100
AcDbEntity
  8
0
100
AcDbMText
 62
2
  6
CONTINUOUS
  7
STANDARD
 71
2
 72
1
 10
1.5275
 20
-0.9065
 30
0.0
 11
1.0
 21
0.0
 31
0.0
 44
0.9
  1
Body Type
 40
0.125
 41
1.8
  0
MTEXT
  5
266
100
AcDbEntity
  8
0
100
AcDbMText
 62
2
  6
CONTINUOUS
  7
STANDARD
 71
2
 72
1
 10
6.055
 20
-0.9065
 30
0.0
 11
1.0
 21
0.0
 31
0.0
 44
0.9
  1
Line mount
 40
0.125
 41
2.0
  0
MTEXT
  5
267
100
AcDbEntity
  8
0
100
AcDbMText
 62
2
  6
CONTINUOUS
  7
STANDARD
 71
2
 72
1
 10
1.5275
 20
-1.1565
 30
0.0
 11
1.0
 21
0.0
 31
0.0
 44
0.9
  1
Interface
 40
0.125
 41
1.8
  0
MTEXT
  5
268
100
AcDbEntity
  8
0
100
AcDbMText
 62
2
  6
CONTINUOUS
  7
STANDARD
 71
2
 72
1
 10
6.055
 20
-1.1565
 30
0.0
 11
1.0
 21
0.0
 31
0.0
 44
0.9
  1
None
 40
0.125
 41
0.8
  0
MTEXT
  5
269
100
AcDbEntity
  8
0
100
AcDbMText
 62
2
  6
CONTINUOUS
  7
STANDARD
 71
2
 72
1
 10
1.5275
 20
-1.4065
 30
0.0
 11
1.0
 21
0.0
 31
0.0
 44
0.9
  1
Open Cavity Quantity
 40
0.125
 41
4.0
  0
MTEXT
  5
26A
100
AcDbEntity
  8
0
100
AcDbMText
 62
2
  6
CONTINUOUS
  7
STANDARD
 71
2
 72
1
 10
6.055
 20
-1.4065
 30
0.0
 11
1.0
 21
0.0
 31
0.0
 44
0.9
  1
1
 40
0.125
 41
0.2
  0
MTEXT
  5
26B
100
AcDbEntity
  8
0
100
AcDbMText
 62
2
  6
CONTINUOUS
  7
STANDARD
 71
2
 72
1
 10
1.5275
 20
-1.6565
 30
0.0
 11
1.0
 21
0.0
 31
0.0
 44
0.9
  1
Weight
 40
0.125
 41
1.2
  0
MTEXT
  5
26C
100
AcDbEntity
  8
0
100
AcDbMText
 62
2
  6
CONTINUOUS
  7
STANDARD
 71
2
 72
1
 10
4.555
 20
-1.6565
 30
0.0
 11
1.0
 21
0.0
 31
0.0
 44
0.9
  1
1.941 lb.
 40
0.125
 41
1.8
  0
MTEXT
  5
26D
100
AcDbEntity
  8
0
100
AcDbMText
 62
2
  6
CONTINUOUS
  7
STANDARD
 71
2
 72
1
 10
7.555
 20
-1.6565
 30
0.0
 11
1.0
 21
0.0
 31
0.0
 44
0.9
  1
0,880 kg.
 40
0.125
 41
1.8
  0
MTEXT
  5
26E
100
AcDbEntity
  8
0
100
AcDbMText
 62
2
  6
CONTINUOUS
  7
STANDARD
 71
2
 72
1
 10
1.5275
 20
-1.9065
 30
0.0
 11
1.0
 21
0.0
 31
0.0
 44
0.9
  1
Mounting Hole Diameter
 40
0.125
 41
4.4
  0
MTEXT
  5
26F
100
AcDbEntity
  8
0
100
AcDbMText
 62
2
  6
CONTINUOUS
  7
STANDARD
 71
2
 72
1
 10
4.555
 20
-1.9065
 30
0.0
 11
1.0
 21
0.0
 31
0.0
 44
0.9
  1
.34 in.
 40
0.125
 41
1.4
  0
MTEXT
  5
270
100
AcDbEntity
  8
0
100
AcDbMText
 62
2
  6
CONTINUOUS
  7
STANDARD
 71
2
 72
1
 10
7.555
 20
-1.9065
 30
0.0
 11
1.0
 21
0.0
 31
0.0
 44
0.9
  1
8.6 mm
 40
0.125
 41
1.2
  0
MTEXT
  5
271
100
AcDbEntity
  8
0
100
AcDbMText
 62
2
  6
CONTINUOUS
  7
STANDARD
 71
2
 72
1
 10
1.5275
 20
-2.1565
 30
0.0
 11
1.0
 21
0.0
 31
0.0
 44
0.9
  1
Mounting Hole Depth
 40
0.125
 41
3.8
  0
MTEXT
  5
272
100
AcDbEntity
  8
0
100
AcDbMText
 62
2
  6
CONTINUOUS
  7
STANDARD
 71
2
 72
1
 10
6.055
 20
-2.1565
 30
0.0
 11
1.0
 21
0.0
 31
0.0
 44
0.9
  1
Through
 40
0.125
 41
1.4
  0
MTEXT
  5
273
100
AcDbEntity
  8
0
100
AcDbMText
 62
2
  6
CONTINUOUS
  7
STANDARD
 71
2
 72
1
 10
1.5275
 20
-2.4065
 30
0.0
 11
1.0
 21
0.0
 31
0.0
 44
0.9
  1
Mounting Hole Quantity
 40
0.125
 41
4.4
  0
MTEXT
  5
274
100
AcDbEntity
  8
0
100
AcDbMText
 62
2
  6
CONTINUOUS
  7
STANDARD
 71
2
 72
1
 10
6.055
 20
-2.4065
 30
0.0
 11
1.0
 21
0.0
 31
0.0
 44
0.9
  1
2
 40
0.125
 41
0.2
  0
ENDBLK
  5
275
100
AcDbEntity
  8
0
  6
BYBLOCK
 62
0
100
AcDbBlockEnd
  0
BLOCK
  5
276
100
AcDbEntity
  8
0
100
AcDbBlockBegin
  2
*T3
 70
1
 10
0.0
 20
0.0
  3
*T3
  1

  0
LINE
  5
277
100
AcDbEntity
  8
0
100
AcDbLine
 62
2
  6
CONTINUOUS
 10
0.0
 20
0.0
 11
4.6
 21
0.0
  0
LINE
  5
278
100
AcDbEntity
  8
0
100
AcDbLine
 62
2
  6
CONTINUOUS
 10
0.0
 20
0.0
 11
0.0
 21
-0.93775
  0
LINE
  5
279
100
AcDbEntity
  8
0
100
AcDbLine
 62
2
  6
CONTINUOUS
 10
0.0
 20
-0.34375
 11
4.6
 21
-0.34375
  0
LINE
  5
27A
100
AcDbEntity
  8
0
100
AcDbLine
 62
2
  6
CONTINUOUS
 10
0.0
 20
-0.68775
 11
4.6
 21
-0.68775
  0
LINE
  5
27B
100
AcDbEntity
  8
0
100
AcDbLine
 62
2
  6
CONTINUOUS
 10
0.0
 20
-0.93775
 11
4.6
 21
-0.93775
  0
LINE
  5
27C
100
AcDbEntity
  8
0
100
AcDbLine
 62
2
  6
CONTINUOUS
 10
1.3
 20
-0.34375
 11
1.3
 21
-0.93775
  0
LINE
  5
27D
100
AcDbEntity
  8
0
100
AcDbLine
 62
2
  6
CONTINUOUS
 10
3.3
 20
-0.34375
 11
3.3
 21
-0.93775
  0
LINE
  5
27E
100
AcDbEntity
  8
0
100
AcDbLine
 62
2
  6
CONTINUOUS
 10
4.6
 20
0.0
 11
4.6
 21
-0.93775
  0
MTEXT
  5
27F
100
AcDbEntity
  8
0
100
AcDbMText
 62
2
  6
CONTINUOUS
  7
STANDARD
 71
2
 72
1
 10
2.3
 20
-0.099375
 30
0.0
 11
1.0
 21
0.0
 31
0.0
 44
0.9
  1
Port Headings
 40
0.145
 41
3.016
  0
MTEXT
  5
280
100
AcDbEntity
  8
0
100
AcDbMText
 62
2
  6
CONTINUOUS
  7
STANDARD
 71
2
 72
1
 10
0.65
 20
-0.44325
 30
0.0
 11
1.0
 21
0.0
 31
0.0
 44
0.9
  1
Product
 40
0.145
 41
1.624
  0
MTEXT
  5
281
100
AcDbEntity
  8
0
100
AcDbMText
 62
2
  6
CONTINUOUS
  7
STANDARD
 71
2
 72
1
 10
2.3
 20
-0.44325
 30
0.0
 11
1.0
 21
0.0
 31
0.0
 44
0.9
  1
Port
 40
0.145
 41
0.928
  0
MTEXT
  5
282
100
AcDbEntity
  8
0
100
AcDbMText
 62
2
  6
CONTINUOUS
  7
STANDARD
 71
2
 72
1
 10
3.95
 20
-0.44325
 30
0.0
 11
1.0
 21
0.0
 31
0.0
 44
0.9
  1
Size
 40
0.145
 41
0.928
  0
MTEXT
  5
283
100
AcDbEntity
  8
0
100
AcDbMText
 62
2
  6
CONTINUOUS
  7
STANDARD
 71
2
 72
1
 10
0.65
 20
-0.75025
 30
0.0
 11
1.0
 21
0.0
 31
0.0
 44
0.9
  1
DNL
 40
0.125
 41
0.6
  0
MTEXT
  5
284
100
AcDbEntity
  8
0
100
AcDbMText
 62
2
  6
CONTINUOUS
  7
STANDARD
 71
2
 72
1
 10
2.3
 20
-0.75025
 30
0.0
 11
1.0
 21
0.0
 31
0.0
 44
0.9
  1
All Ports
 40
0.125
 41
1.8
  0
MTEXT
  5
285
100
AcDbEntity
  8
0
100
AcDbMText
 62
2
  6
CONTINUOUS
  7
STANDARD
 71
2
 72
1
 10
3.95
 20
-0.75025
 30
0.0
 11
1.0
 21
0.0
 31
0.0
 44
0.9
  1
SAE 12
 40
0.125
 41
1.2
  0
ENDBLK
  5
286
100
AcDbEntity
  8
0
  6
BYBLOCK
 62
0
100
AcDbBlockEnd
  0
ENDSEC
  0
SECTION
  2
ENTITIES
  0
IMAGE
  5
287
100
AcDbEntity
  8
0
100
AcDbRasterImage
 62
7
  6
CONTINUOUS
 10
19.2297077316
 20
0.3094318264
 30
0.0
 11
0.0066666667
 21
0.0
 31
0.0
 12
0.0
 22
0.0066666667
 32
0.0
 13
369.0
 23
92.0
340
       366
 70
9
280
0
281
50
282
50
283
0
360
       360
 71
1
 91
2
 14
-0.5
 24
-0.5
 14
368.5
 24
91.5
  0
INSERT
  5
288
100
AcDbEntity
  8
0
100
AcDbBlockReference
 62
2
  6
CONTINUOUS
  2
SUN_FIRST_THIRD_ANGLE_BL0
 10
20.4816717061
 20
1.2289683772
  0
ACAD_TABLE
  5
289
100
AcDbEntity
  8
0
 62
2
  6
CONTINUOUS
100
AcDbBlockReference
  2
*T1
 10
12.42375
 20
0.30125
 30
0.0
100
AcDbTable
342
       368
343
20F
 11
1.0
 21
0.0
 31
0.0
 90
6
 91
4
 92
6
 93
20
 94
0
 95
0
 96
0
 70
1
 41
0.0
141
0.525
141
0.1
141
0.525
141
0.1
142
4.1
142
1.1
142
0.7
142
0.5
142
0.4
142
2.475
171
1
172
0
173
0
174
0
175
1
176
1
 91
33
178
0
145
0.0
301
CELL_VALUE
 90
4
  1
T-5A Line mount\PNinety degree with reverse flow check
304
ACVALUE_END
170
2
140
0.125
171
1
172
0
173
0
174
0
175
1
176
1
 91
33
178
0
145
0.0
301
CELL_VALUE
 90
4
  1
Jan-20-21
304
ACVALUE_END
170
5
140
0.125
171
1
172
0
173
0
174
0
175
1
176
1
 91
33
178
0
145
0.0
301
CELL_VALUE
 90
4
  1
1.000
304
ACVALUE_END
170
5
140
0.125
171
1
172
0
173
0
174
0
175
1
176
1
 91
33
178
0
145
0.0
301
CELL_VALUE
 90
4
  1
C
304
ACVALUE_END
170
5
140
0.125
171
1
172
0
173
0
174
0
175
1
176
1
 91
33
178
0
145
0.0
301
CELL_VALUE
 90
4
  1
2
304
ACVALUE_END
170
5
140
0.125
171
1
172
0
173
0
174
0
175
1
176
1
 91
33
178
0
145
0.0
301
CELL_VALUE
 90
4
  1
 
304
ACVALUE_END
170
1
140
0.125
171
1
172
0
173
0
174
0
175
1
176
1
 91
33
178
0
145
0.0
301
CELL_VALUE
 90
4
  1
DESCRIPTION
304
ACVALUE_END
170
1
140
0.06
171
1
172
0
173
0
174
0
175
1
176
1
 91
33
178
0
145
0.0
301
CELL_VALUE
 90
4
  1
DATE
304
ACVALUE_END
170
1
140
0.06
171
1
172
0
173
0
174
0
175
1
176
1
 91
33
178
0
145
0.0
301
CELL_VALUE
 90
4
  1
SCALE
304
ACVALUE_END
170
1
140
0.06
171
1
172
0
173
0
174
0
175
1
176
1
 91
33
178
0
145
0.0
301
CELL_VALUE
 90
4
  1
DWG SIZE
304
ACVALUE_END
170
1
140
0.06
171
1
172
0
173
0
174
0
175
1
176
1
 91
33
178
0
145
0.0
301
CELL_VALUE
 90
4
  1
SHEET
304
ACVALUE_END
170
1
140
0.06
171
1
172
0
173
0
174
0
175
1
176
1
 91
33
178
0
145
0.0
301
CELL_VALUE
 90
4
  1
 
304
ACVALUE_END
170
1
140
0.125
171
1
172
0
173
0
174
0
175
1
176
1
 91
33
178
0
145
0.0
301
CELL_VALUE
 90
4
  1
DNL
304
ACVALUE_END
170
5
140
0.125
171
1
172
0
173
0
174
0
175
4
176
1
 91
33
178
0
145
0.0
301
CELL_VALUE
 90
4
  1
ALL DIMENSIONS IN INCH\PVIEWS ARE THIRD ANGLE
304
ACVALUE_END
170
5
140
0.12
171
1
172
0
173
1
174
0
175
1
176
1
 91
1
178
0
145
0.0
170
1
171
1
172
0
173
1
174
0
175
1
176
1
 91
1
178
0
145
0.0
170
1
171
1
172
0
173
1
174
0
175
1
176
1
 91
1
178
0
145
0.0
170
5
171
1
172
0
173
0
174
0
175
1
176
1
 91
33
178
0
145
0.0
301
CELL_VALUE
 90
4
  1
 
304
ACVALUE_END
170
1
140
0.125
171
1
172
0
173
0
174
0
175
1
176
1
 91
33
178
0
145
0.0
301
CELL_VALUE
 90
4
  1
MODEL
304
ACVALUE_END
170
1
140
0.06
171
1
172
0
173
0
174
0
175
1
176
1
 91
33
178
0
145
0.0
301
CELL_VALUE
 90
4
  1
 
304
ACVALUE_END
170
1
140
0.125
171
1
172
0
173
0
174
0
175
1
176
1
 91
33
178
0
145
0.0
301
CELL_VALUE
 90
4
  1
 
304
ACVALUE_END
170
1
140
0.125
171
1
172
0
173
0
174
0
175
1
176
1
 91
33
178
0
145
0.0
301
CELL_VALUE
 90
4
  1
 
304
ACVALUE_END
170
1
140
0.125
171
1
172
0
173
0
174
0
175
1
176
1
 91
33
178
0
145
0.0
301
CELL_VALUE
 90
4
  1
 
304
ACVALUE_END
170
1
140
0.125
171
1
172
0
173
0
174
0
175
1
176
1
 91
33
178
0
145
0.0
301
CELL_VALUE
 90
4
  1
 
304
ACVALUE_END
170
1
140
0.125
  0
ACAD_TABLE
  5
28A
100
AcDbEntity
  8
0
 62
2
  6
CONTINUOUS
100
AcDbBlockReference
  2
*T2
 10
12.4237499994
 20
16.47875
 30
0.0
100
AcDbTable
342
       367
343
210
 11
1.0
 21
0.0
 31
0.0
 90
22
 91
10
 92
3
 93
16
 94
0
 95
0
 96
0
 41
0.028
141
0.344
141
0.25
141
0.25
141
0.25
141
0.25
141
0.25
141
0.25
141
0.25
141
0.25
141
0.25
142
3.055
142
3.0
142
3.0
171
1
172
0
173
0
174
0
175
1
176
1
 91
33
178
0
145
0.0
301
CELL_VALUE
 90
4
  1
Technical Data
304
ACVALUE_END
170
5
140
0.145
171
1
172
0
173
0
174
0
175
1
176
1
 91
33
178
0
145
0.0
301
CELL_VALUE
 90
4
  1
U.S. Units
304
ACVALUE_END
170
5
140
0.145
171
1
172
0
173
0
174
0
175
1
176
1
 91
33
178
0
145
0.0
301
CELL_VALUE
 90
4
  1
Metric Units
304
ACVALUE_END
170
5
140
0.145
171
1
172
0
173
0
174
0
175
1
176
1
 91
33
178
0
145
0.0
301
CELL_VALUE
 90
4
  1
Cavity
304
ACVALUE_END
170
5
140
0.125
171
1
172
0
173
0
174
0
175
2
176
1
 91
33
178
0
145
0.0
301
CELL_VALUE
 90
4
  1
T-5A
304
ACVALUE_END
170
5
140
0.125
171
1
172
0
173
1
174
0
175
1
176
1
 91
1
178
0
145
0.0
170
1
171
1
172
0
173
0
174
0
175
1
176
1
 91
33
178
0
145
0.0
301
CELL_VALUE
 90
4
  1
Body Features
304
ACVALUE_END
170
5
140
0.125
171
1
172
0
173
0
174
0
175
2
176
1
 91
33
178
0
145
0.0
301
CELL_VALUE
 90
4
  1
Ninety degree with reverse flow check
304
ACVALUE_END
170
5
140
0.125
171
1
172
0
173
1
174
0
175
1
176
1
 91
1
178
0
145
0.0
170
1
171
1
172
0
173
0
174
0
175
1
176
1
 91
33
178
0
145
0.0
301
CELL_VALUE
 90
4
  1
Body Type
304
ACVALUE_END
170
5
140
0.125
171
1
172
0
173
0
174
0
175
2
176
1
 91
33
178
0
145
0.0
301
CELL_VALUE
 90
4
  1
Line mount
304
ACVALUE_END
170
5
140
0.125
171
1
172
0
173
1
174
0
175
1
176
1
 91
1
178
0
145
0.0
170
1
171
1
172
0
173
0
174
0
175
1
176
1
 91
33
178
0
145
0.0
301
CELL_VALUE
 90
4
  1
Interface
304
ACVALUE_END
170
5
140
0.125
171
1
172
0
173
0
174
0
175
2
176
1
 91
33
178
0
145
0.0
301
CELL_VALUE
 90
4
  1
None
304
ACVALUE_END
170
5
140
0.125
171
1
172
0
173
1
174
0
175
1
176
1
 91
1
178
0
145
0.0
170
1
171
1
172
0
173
0
174
0
175
1
176
1
 91
33
178
0
145
0.0
301
CELL_VALUE
 90
4
  1
Open Cavity Quantity
304
ACVALUE_END
170
5
140
0.125
171
1
172
0
173
0
174
0
175
2
176
1
 91
33
178
0
145
0.0
301
CELL_VALUE
 90
4
  1
1
304
ACVALUE_END
170
5
140
0.125
171
1
172
0
173
1
174
0
175
1
176
1
 91
1
178
0
145
0.0
170
1
171
1
172
0
173
0
174
0
175
1
176
1
 91
33
178
0
145
0.0
301
CELL_VALUE
 90
4
  1
Weight
304
ACVALUE_END
170
5
140
0.125
171
1
172
0
173
0
174
0
175
1
176
1
 91
33
178
0
145
0.0
301
CELL_VALUE
 90
4
  1
1.941 lb.
304
ACVALUE_END
170
5
140
0.125
171
1
172
0
173
0
174
0
175
1
176
1
 91
33
178
0
145
0.0
301
CELL_VALUE
 90
4
  1
0,880 kg.
304
ACVALUE_END
170
5
140
0.125
171
1
172
0
173
0
174
0
175
1
176
1
 91
33
178
0
145
0.0
301
CELL_VALUE
 90
4
  1
Mounting Hole Diameter
304
ACVALUE_END
170
5
140
0.125
171
1
172
0
173
0
174
0
175
1
176
1
 91
33
178
0
145
0.0
301
CELL_VALUE
 90
4
  1
.34 in.
304
ACVALUE_END
170
5
140
0.125
171
1
172
0
173
0
174
0
175
1
176
1
 91
33
178
0
145
0.0
301
CELL_VALUE
 90
4
  1
8.6 mm
304
ACVALUE_END
170
5
140
0.125
171
1
172
0
173
0
174
0
175
1
176
1
 91
33
178
0
145
0.0
301
CELL_VALUE
 90
4
  1
Mounting Hole Depth
304
ACVALUE_END
170
5
140
0.125
171
1
172
0
173
0
174
0
175
2
176
1
 91
33
178
0
145
0.0
301
CELL_VALUE
 90
4
  1
Through
304
ACVALUE_END
170
5
140
0.125
171
1
172
0
173
1
174
0
175
1
176
1
 91
1
178
0
145
0.0
170
1
171
1
172
0
173
0
174
0
175
1
176
1
 91
33
178
0
145
0.0
301
CELL_VALUE
 90
4
  1
Mounting Hole Quantity
304
ACVALUE_END
170
5
140
0.125
171
1
172
0
173
0
174
0
175
2
176
1
 91
33
178
0
145
0.0
301
CELL_VALUE
 90
4
  1
2
304
ACVALUE_END
170
5
140
0.125
171
1
172
0
173
1
174
0
175
1
176
1
 91
1
178
0
145
0.0
170
1
  0
ACAD_TABLE
  5
28B
100
AcDbEntity
  8
0
 62
2
  6
CONTINUOUS
100
AcDbBlockReference
  2
*T3
 10
0.52125
 20
1.459
 30
0.0
100
AcDbTable
342
       367
343
211
 11
1.0
 21
0.0
 31
0.0
 90
22
 91
3
 92
3
 93
16
 94
0
 95
0
 96
0
 41
0.05
141
0.34375
141
0.344
141
0.25
142
1.3
142
2.0
142
1.3
171
1
172
0
173
0
174
0
175
3
176
1
 91
33
178
0
145
0.0
301
CELL_VALUE
 90
4
  1
Port Headings
304
ACVALUE_END
170
5
140
0.145
171
1
172
0
173
1
174
0
175
1
176
1
 91
1
178
0
145
0.0
170
1
171
1
172
0
173
1
174
0
175
1
176
1
 91
1
178
0
145
0.0
170
1
171
1
172
0
173
0
174
0
175
1
176
1
 91
33
178
0
145
0.0
301
CELL_VALUE
 90
4
  1
Product
304
ACVALUE_END
170
5
140
0.145
171
1
172
0
173
0
174
0
175
1
176
1
 91
33
178
0
145
0.0
301
CELL_VALUE
 90
4
  1
Port
304
ACVALUE_END
170
5
140
0.145
171
1
172
0
173
0
174
0
175
1
176
1
 91
33
178
0
145
0.0
301
CELL_VALUE
 90
4
  1
Size
304
ACVALUE_END
170
5
140
0.145
171
1
172
0
173
0
174
0
175
1
176
1
 91
33
178
0
145
0.0
301
CELL_VALUE
 90
4
  1
DNL
304
ACVALUE_END
170
5
140
0.125
171
1
172
0
173
0
174
0
175
1
176
1
 91
33
178
0
145
0.0
301
CELL_VALUE
 90
4
  1
All Ports
304
ACVALUE_END
170
5
140
0.125
171
1
172
0
173
0
174
0
175
1
176
1
 91
33
178
0
145
0.0
301
CELL_VALUE
 90
4
  1
SAE 12
304
ACVALUE_END
170
5
140
0.125
  0
MTEXT
  5
28C
100
AcDbEntity
  8
0
100
AcDbMText
 62
2
  6
CONTINUOUS
  7
STANDARD
 71
1
 72
1
 10
0.52125
 20
5.75995
 30
0.0
 11
1.0
 21
0.0
 31
0.0
 44
0.6
  3
Notes\P \P1. Important: Carefully consider\P   the maximum system pressure. The\P   pressure rating of the manifold is\P   dependent on the manifold material,\P   with the port type/size a secondary\P   consideration. Manifolds\P   constructed of alu
  1
minum are not\P   rated for pressures higher than\P   3000 psi (210 bar), regardless of\P   the port type/size specified.
 40
0.1
 41
3.04
  0
LINE
  5
28D
100
AcDbEntity
  8
0
100
AcDbLine
 62
7
  6
CONTINUOUS
 10
0.30125
 20
0.30125
 11
0.30125
 21
16.69875
  0
LINE
  5
28E
100
AcDbEntity
  8
0
100
AcDbLine
 62
7
  6
CONTINUOUS
 10
0.30125
 20
0.30125
 11
21.69875
 21
0.30125
  0
LINE
  5
28F
100
AcDbEntity
  8
0
100
AcDbLine
 62
7
  6
CONTINUOUS
 10
0.30125
 20
16.69875
 11
21.69875
 21
16.69875
  0
LINE
  5
290
100
AcDbEntity
  8
0
100
AcDbLine
 62
7
  6
CONTINUOUS
 10
21.69875
 20
0.30125
 11
21.69875
 21
16.69875
  0
LINE
  5
291
100
AcDbEntity
  8
0
100
AcDbLine
 62
7
  6
CONTINUOUS
 10
9.2946147105
 20
10.5248944472
 11
8.8416817554
 21
10.0873947823
  0
LINE
  5
292
100
AcDbEntity
  8
0
100
AcDbLine
 62
7
  6
CONTINUOUS
 10
8.8416817554
 20
10.0873947823
 11
8.8416817554
 21
7.1896171317
  0
LINE
  5
293
100
AcDbEntity
  8
0
100
AcDbLine
 62
4
  6
CONTINUOUS
 10
8.947933602
 20
8.0824914394
 11
8.947933602
 21
7.966580336
  0
LINE
  5
294
100
AcDbEntity
  8
0
100
AcDbLine
 62
7
  6
CONTINUOUS
 10
11.0320233818
 20
6.5613809282
 11
11.0512412712
 21
6.5518876588
  0
LINE
  5
295
100
AcDbEntity
  8
0
100
AcDbLine
 62
7
  6
CONTINUOUS
 10
8.8416817554
 20
7.1896171317
 11
12.7053852895
 21
6.9216683816
  0
LINE
  5
296
100
AcDbEntity
  8
0
100
AcDbLine
 62
4
  6
CONTINUOUS
 10
10.2312351572
 20
8.5669781969
 11
10.2312351572
 21
8.5835369249
  0
LINE
  5
297
100
AcDbEntity
  8
0
100
AcDbLine
 62
4
  6
CONTINUOUS
 10
10.2919505064
 20
7.938503486
 11
10.336107118
 21
7.9133629087
  0
LINE
  5
298
100
AcDbEntity
  8
0
100
AcDbLine
 62
4
  6
CONTINUOUS
 10
10.3995822423
 20
7.9972741155
 11
10.4161409704
 21
7.9795670357
  0
LINE
  5
299
100
AcDbEntity
  8
0
100
AcDbLine
 62
4
  6
CONTINUOUS
 10
10.2891907089
 20
8.4967240482
 11
10.2891907089
 21
8.513282778
  0
LINE
  5
29A
100
AcDbEntity
  8
0
100
AcDbLine
 62
4
  6
CONTINUOUS
 10
10.3223081651
 20
8.5937797185
 11
10.3223081651
 21
8.4944273448
  0
LINE
  5
29B
100
AcDbEntity
  8
0
100
AcDbLine
 62
4
  6
CONTINUOUS
 10
10.3581854256
 20
7.8842338911
 11
10.3581854256
 21
8.0001449945
  0
LINE
  5
29C
100
AcDbEntity
  8
0
100
AcDbLine
 62
4
  6
CONTINUOUS
 10
10.3802637168
 20
8.4904081137
 11
10.3802637168
 21
8.5897604873
  0
LINE
  5
29D
100
AcDbEntity
  8
0
100
AcDbLine
 62
4
  6
CONTINUOUS
 10
10.413381173
 20
8.4715526805
 11
10.413381173
 21
8.5874637839
  0
LINE
  5
29E
100
AcDbEntity
  8
0
100
AcDbLine
 62
4
  6
CONTINUOUS
 10
10.4161409704
 20
7.9795670357
 11
10.4161409704
 21
7.8967733902
  0
LINE
  5
29F
100
AcDbEntity
  8
0
100
AcDbLine
 62
4
  6
CONTINUOUS
 10
10.2312351572
 20
8.5835369249
 11
10.247793887
 21
8.5989473012
  0
LINE
  5
2A0
100
AcDbEntity
  8
0
100
AcDbLine
 62
4
  6
CONTINUOUS
 10
11.0646911775
 20
7.8352375508
 11
11.0232943469
 21
7.8381084307
  0
LINE
  5
2A1
100
AcDbEntity
  8
0
100
AcDbLine
 62
4
  6
CONTINUOUS
 10
10.9736181834
 20
7.8415534843
 11
10.9487800741
 21
7.8432760131
  0
LINE
  5
2A2
100
AcDbEntity
  8
0
100
AcDbLine
 62
4
  6
CONTINUOUS
 10
10.8853049671
 20
7.8476780267
 11
10.8521875247
 21
7.8499747291
  0
LINE
  5
2A3
100
AcDbEntity
  8
0
100
AcDbLine
 62
4
  6
CONTINUOUS
 10
10.3995822423
 20
7.8813630121
 11
10.3581854256
 21
7.8842338911
  0
LINE
  5
2A4
100
AcDbEntity
  8
0
100
AcDbLine
 62
4
  6
CONTINUOUS
 10
10.6617621208
 20
7.8631807757
 11
10.7114383119
 21
7.8597357202
  0
LINE
  5
2A5
100
AcDbEntity
  8
0
100
AcDbLine
 62
4
  6
CONTINUOUS
 10
11.1281663398
 20
7.8308355333
 11
11.1778425033
 21
7.8273904797
  0
LINE
  5
2A6
100
AcDbEntity
  8
0
100
AcDbLine
 62
4
  6
CONTINUOUS
 10
10.4740965221
 20
7.9093128888
 11
10.5182531303
 21
7.9062506176
  0
LINE
  5
2A7
100
AcDbEntity
  8
0
100
AcDbLine
 62
4
  6
CONTINUOUS
 10
11.1612837821
 20
7.8947737501
 11
11.1281663398
 21
7.8970704525
  0
LINE
  5
2A8
100
AcDbEntity
  8
0
100
AcDbLine
 62
4
  6
CONTINUOUS
 10
10.6948795907
 20
7.9271189906
 11
10.6617621208
 21
7.929415695
  0
LINE
  5
2A9
100
AcDbEntity
  8
0
100
AcDbLine
 62
4
  6
CONTINUOUS
 10
10.2312351572
 20
8.4924639145
 11
10.2395145221
 21
8.4836103737
  0
LINE
  5
2AA
100
AcDbEntity
  8
0
100
AcDbLine
 62
4
  6
CONTINUOUS
 10
10.4961748262
 20
7.9905753971
 11
10.5292922962
 21
7.8723675893
  0
LINE
  5
2AB
100
AcDbEntity
  8
0
100
AcDbLine
 62
4
  6
CONTINUOUS
 10
10.4713367247
 20
8.4675334493
 11
10.4713367247
 21
8.5834445528
  0
LINE
  5
2AC
100
AcDbEntity
  8
0
100
AcDbLine
 62
4
  6
CONTINUOUS
 10
10.5955271887
 20
8.4589208114
 11
10.5955271887
 21
8.5748319148
  0
LINE
  5
2AD
100
AcDbEntity
  8
0
100
AcDbLine
 62
4
  6
CONTINUOUS
 10
10.5955272085
 20
7.8677741825
 11
10.5955272085
 21
7.983685286
  0
LINE
  5
2AE
100
AcDbEntity
  8
0
100
AcDbLine
 62
4
  6
CONTINUOUS
 10
10.2726319809
 20
8.4813136701
 11
10.2891907089
 21
8.4967240482
  0
LINE
  5
2AF
100
AcDbEntity
  8
0
100
AcDbLine
 62
4
  6
CONTINUOUS
 10
10.3637049956
 20
8.4749977351
 11
10.3802637168
 21
8.4904081137
  0
LINE
  5
2B0
100
AcDbEntity
  8
0
100
AcDbLine
 62
4
  6
CONTINUOUS
 10
10.3581854256
 20
8.0001449945
 11
10.3995822423
 21
7.9972741155
  0
LINE
  5
2B1
100
AcDbEntity
  8
0
100
AcDbLine
 62
4
  6
CONTINUOUS
 10
10.5624097385
 20
7.9859819903
 11
10.6286446508
 21
7.9813885835
  0
LINE
  5
2B2
100
AcDbEntity
  8
0
100
AcDbLine
 62
4
  6
CONTINUOUS
 10
10.6617621208
 20
7.9790918792
 11
10.7114383119
 21
7.9756468236
  0
LINE
  5
2B3
100
AcDbEntity
  8
0
100
AcDbLine
 62
4
  6
CONTINUOUS
 10
10.8521875247
 20
7.9658858326
 11
10.8853049671
 21
7.9635891301
  0
LINE
  5
2B4
100
AcDbEntity
  8
0
100
AcDbLine
 62
4
  6
CONTINUOUS
 10
10.9487800741
 20
7.9591871165
 11
10.9736181834
 21
7.9574645878
  0
LINE
  5
2B5
100
AcDbEntity
  8
0
100
AcDbLine
 62
4
  6
CONTINUOUS
 10
11.0232943469
 20
7.9540195341
 11
11.0646911775
 21
7.9511486542
  0
LINE
  5
2B6
100
AcDbEntity
  8
0
100
AcDbLine
 62
4
  6
CONTINUOUS
 10
11.1281663398
 20
7.9467466367
 11
11.1778425033
 21
7.9433015831
  0
LINE
  5
2B7
100
AcDbEntity
  8
0
100
AcDbLine
 62
4
  6
CONTINUOUS
 10
10.6962594992
 20
8.115792802
 11
10.6548626755
 21
8.1186636815
  0
LINE
  5
2B8
100
AcDbEntity
  8
0
100
AcDbLine
 62
4
  6
CONTINUOUS
 10
10.8508076348
 20
8.1050748524
 11
10.8922044653
 21
8.1022039724
  0
LINE
  5
2B9
100
AcDbEntity
  8
0
100
AcDbLine
 62
4
  6
CONTINUOUS
 10
11.2109599456
 20
7.8968482725
 11
11.2551165538
 21
7.8717076937
  0
LINE
  5
2BA
100
AcDbEntity
  8
0
100
AcDbLine
 62
4
  6
CONTINUOUS
 10
10.2891907089
 20
8.513282778
 11
10.2312351572
 21
8.5669781969
  0
LINE
  5
2BB
100
AcDbEntity
  8
0
100
AcDbLine
 62
4
  6
CONTINUOUS
 10
10.8521875247
 20
7.8499747291
 11
10.8356288036
 21
7.8676818101
  0
LINE
  5
2BC
100
AcDbEntity
  8
0
100
AcDbLine
 62
4
  6
CONTINUOUS
 10
10.3223081651
 20
8.4944273448
 11
10.3388668932
 21
8.4767202633
  0
LINE
  5
2BD
100
AcDbEntity
  8
0
100
AcDbLine
 62
4
  6
CONTINUOUS
 10
10.9487800741
 20
7.8432760131
 11
10.9322213529
 21
7.8609830941
  0
LINE
  5
2BE
100
AcDbEntity
  8
0
100
AcDbLine
 62
4
  6
CONTINUOUS
 10
10.2809113449
 20
8.5966505977
 11
10.2891907089
 21
8.5877970544
  0
LINE
  5
2BF
100
AcDbEntity
  8
0
100
AcDbLine
 62
4
  6
CONTINUOUS
 10
10.6962594992
 20
8.2317039054
 11
10.7128182273
 21
8.2139968256
  0
LINE
  5
2C0
100
AcDbEntity
  8
0
100
AcDbLine
 62
4
  6
CONTINUOUS
 10
10.9736181834
 20
7.9574645878
 11
10.9901769046
 21
7.9397575085
  0
LINE
  5
2C1
100
AcDbEntity
  8
0
100
AcDbLine
 62
4
  6
CONTINUOUS
 10
10.413381173
 20
8.5874637839
 11
10.4713367247
 21
8.4675334493
  0
LINE
  5
2C2
100
AcDbEntity
  8
0
100
AcDbLine
 62
4
  6
CONTINUOUS
 10
10.6452033798
 20
8.5299900356
 11
10.6452033798
 21
8.4554757558
  0
LINE
  5
2C3
100
AcDbEntity
  8
0
100
AcDbLine
 62
4
  6
CONTINUOUS
 10
10.6548626755
 20
8.1186636815
 11
10.6548626755
 21
8.2345747849
  0
LINE
  5
2C4
100
AcDbEntity
  8
0
100
AcDbLine
 62
4
  6
CONTINUOUS
 10
10.6617621208
 20
7.8631807757
 11
10.6617621208
 21
7.9790918792
  0
LINE
  5
2C5
100
AcDbEntity
  8
0
100
AcDbLine
 62
4
  6
CONTINUOUS
 10
10.7128182273
 20
8.2139968256
 11
10.7128182273
 21
8.1312031801
  0
LINE
  5
2C6
100
AcDbEntity
  8
0
100
AcDbLine
 62
4
  6
CONTINUOUS
 10
10.750075345
 20
8.4564822252
 11
10.750075345
 21
8.5227171401
  0
LINE
  5
2C7
100
AcDbEntity
  8
0
100
AcDbLine
 62
4
  6
CONTINUOUS
 10
10.7597346269
 20
8.1113907869
 11
10.7597346269
 21
8.2273018904
  0
LINE
  5
2C8
100
AcDbEntity
  8
0
100
AcDbLine
 62
4
  6
CONTINUOUS
 10
10.7997515085
 20
8.5606689101
 11
10.7997515085
 21
8.4447578067
  0
LINE
  5
2C9
100
AcDbEntity
  8
0
100
AcDbLine
 62
4
  6
CONTINUOUS
 10
10.8176901786
 20
8.1073715558
 11
10.8176901786
 21
8.2232826592
  0
LINE
  5
2CA
100
AcDbEntity
  8
0
100
AcDbLine
 62
4
  6
CONTINUOUS
 10
10.4630573701
 20
7.876960997
 11
10.4961748262
 21
7.9905753971
  0
LINE
  5
2CB
100
AcDbEntity
  8
0
100
AcDbLine
 62
4
  6
CONTINUOUS
 10
10.694879571
 20
8.4244328184
 11
10.7279970133
 21
8.5325276451
  0
LINE
  5
2CC
100
AcDbEntity
  8
0
100
AcDbLine
 62
4
  6
CONTINUOUS
 10
10.6548626755
 20
8.2345747849
 11
10.6962594992
 21
8.2317039054
  0
LINE
  5
2CD
100
AcDbEntity
  8
0
100
AcDbLine
 62
4
  6
CONTINUOUS
 10
11.0646911775
 20
7.9511486542
 11
11.0812498987
 21
7.9334415749
  0
LINE
  5
2CE
100
AcDbEntity
  8
0
100
AcDbLine
 62
4
  6
CONTINUOUS
 10
10.6369240192
 20
8.5388435787
 11
10.6452033798
 21
8.5299900356
  0
LINE
  5
2CF
100
AcDbEntity
  8
0
100
AcDbLine
 62
4
  6
CONTINUOUS
 10
10.7597346269
 20
8.2273018904
 11
10.8176901786
 21
8.1073715558
  0
LINE
  5
2D0
100
AcDbEntity
  8
0
100
AcDbLine
 62
4
  6
CONTINUOUS
 10
10.6783208498
 20
8.5359726988
 11
10.7031589592
 21
8.4514565228
  0
LINE
  5
2D1
100
AcDbEntity
  8
0
100
AcDbLine
 62
4
  6
CONTINUOUS
 10
10.8328690061
 20
8.4424611004
 11
10.8328690061
 21
8.5252547477
  0
LINE
  5
2D2
100
AcDbEntity
  8
0
100
AcDbLine
 62
4
  6
CONTINUOUS
 10
10.8356288036
 20
7.8676818101
 11
10.8356288036
 21
7.9504754557
  0
LINE
  5
2D3
100
AcDbEntity
  8
0
100
AcDbLine
 62
4
  6
CONTINUOUS
 10
10.8508076348
 20
8.2209859558
 11
10.8508076348
 21
8.1050748524
  0
LINE
  5
2D4
100
AcDbEntity
  8
0
100
AcDbLine
 62
4
  6
CONTINUOUS
 10
10.8715060038
 20
8.5142958954
 11
10.8715060038
 21
8.4977371673
  0
LINE
  5
2D5
100
AcDbEntity
  8
0
100
AcDbLine
 62
4
  6
CONTINUOUS
 10
10.907383279
 20
8.445572883
 11
10.907383279
 21
8.4704109777
  0
LINE
  5
2D6
100
AcDbEntity
  8
0
100
AcDbLine
 62
7
  6
CONTINUOUS
 10
10.9238231047
 20
7.0452201387
 11
10.9238231047
 21
6.6980605899
  0
LINE
  5
2D7
100
AcDbEntity
  8
0
100
AcDbLine
 62
4
  6
CONTINUOUS
 10
10.9322213529
 20
7.8609830941
 11
10.9322213529
 21
7.9437767397
  0
LINE
  5
2D8
100
AcDbEntity
  8
0
100
AcDbLine
 62
4
  6
CONTINUOUS
 10
10.9570594425
 20
8.4338484644
 11
10.9570594425
 21
8.5000833836
  0
LINE
  5
2D9
100
AcDbEntity
  8
0
100
AcDbLine
 62
4
  6
CONTINUOUS
 10
10.9901768848
 20
8.5143454093
 11
10.9901768848
 21
8.4398311269
  0
LINE
  5
2DA
100
AcDbEntity
  8
0
100
AcDbLine
 62
4
  6
CONTINUOUS
 10
10.9901769046
 20
7.9397575085
 11
10.9901769046
 21
7.8569638629
  0
LINE
  5
2DB
100
AcDbEntity
  8
0
100
AcDbLine
 62
4
  6
CONTINUOUS
 10
11.0232943469
 20
7.8381084307
 11
11.0232943469
 21
7.9540195341
  0
LINE
  5
2DC
100
AcDbEntity
  8
0
100
AcDbLine
 62
4
  6
CONTINUOUS
 10
10.750075345
 20
8.5227171401
 11
10.7666340662
 21
8.5298481564
  0
LINE
  5
2DD
100
AcDbEntity
  8
0
100
AcDbLine
 62
4
  6
CONTINUOUS
 10
10.907383279
 20
8.4704109777
 11
10.9239420002
 21
8.4775419905
  0
LINE
  5
2DE
100
AcDbEntity
  8
0
100
AcDbLine
 62
4
  6
CONTINUOUS
 10
10.6783208498
 20
8.4255811696
 11
10.694879571
 21
8.4244328184
  0
LINE
  5
2DF
100
AcDbEntity
  8
0
100
AcDbLine
 62
4
  6
CONTINUOUS
 10
11.2330383128
 20
8.4147092648
 11
11.19992076
 21
8.4170059749
  0
LINE
  5
2E0
100
AcDbEntity
  8
0
100
AcDbLine
 62
4
  6
CONTINUOUS
 10
11.0978086553
 20
8.4240874734
 11
11.0812499342
 21
8.4252358246
  0
LINE
  5
2E1
100
AcDbEntity
  8
0
100
AcDbLine
 62
4
  6
CONTINUOUS
 10
10.9570594425
 20
8.4338484644
 11
10.9239420002
 21
8.4361451669
  0
LINE
  5
2E2
100
AcDbEntity
  8
0
100
AcDbLine
 62
4
  6
CONTINUOUS
 10
10.7997515085
 20
8.4447578067
 11
10.7666340662
 21
8.4470545091
  0
LINE
  5
2E3
100
AcDbEntity
  8
0
100
AcDbLine
 62
4
  6
CONTINUOUS
 10
10.2395145221
 20
8.4836103737
 11
10.2726319809
 21
8.4813136701
  0
LINE
  5
2E4
100
AcDbEntity
  8
0
100
AcDbLine
 62
4
  6
CONTINUOUS
 10
10.3388668932
 20
8.4767202633
 11
10.3637049956
 21
8.4749977351
  0
LINE
  5
2E5
100
AcDbEntity
  8
0
100
AcDbLine
 62
4
  6
CONTINUOUS
 10
10.9984562731
 20
8.4309775845
 11
11.0398531036
 21
8.4281067045
  0
LINE
  5
2E6
100
AcDbEntity
  8
0
100
AcDbLine
 62
4
  6
CONTINUOUS
 10
11.2744350881
 20
8.4118383887
 11
11.3075525304
 21
8.4095416862
  0
LINE
  5
2E7
100
AcDbEntity
  8
0
100
AcDbLine
 62
4
  6
CONTINUOUS
 10
10.9239420002
 20
8.4775419905
 11
10.9570594425
 21
8.4752452881
  0
LINE
  5
2E8
100
AcDbEntity
  8
0
100
AcDbLine
 62
4
  6
CONTINUOUS
 10
10.9487801096
 20
8.5172162854
 11
10.907383279
 21
8.5200871654
  0
LINE
  5
2E9
100
AcDbEntity
  8
0
100
AcDbLine
 62
4
  6
CONTINUOUS
 10
10.5955271887
 20
8.5417144587
 11
10.6369240192
 21
8.5388435787
  0
LINE
  5
2EA
100
AcDbEntity
  8
0
100
AcDbLine
 62
4
  6
CONTINUOUS
 10
10.7666340662
 20
8.5298481564
 11
10.7997515085
 21
8.527551454
  0
LINE
  5
2EB
100
AcDbEntity
  8
0
100
AcDbLine
 62
4
  6
CONTINUOUS
 10
10.8328690061
 20
8.5252547477
 11
10.8659864485
 21
8.5229580453
  0
LINE
  5
2EC
100
AcDbEntity
  8
0
100
AcDbLine
 62
4
  6
CONTINUOUS
 10
11.19992076
 20
8.4997996221
 11
11.2330383128
 21
8.4975029121
  0
LINE
  5
2ED
100
AcDbEntity
  8
0
100
AcDbLine
 62
4
  6
CONTINUOUS
 10
11.2744350881
 20
8.4946320359
 11
11.3075525304
 21
8.4923353335
  0
LINE
  5
2EE
100
AcDbEntity
  8
0
100
AcDbLine
 62
4
  6
CONTINUOUS
 10
11.3075525304
 20
8.4481787219
 11
11.2744350881
 21
8.4559950003
  0
LINE
  5
2EF
100
AcDbEntity
  8
0
100
AcDbLine
 62
4
  6
CONTINUOUS
 10
10.7666340662
 20
8.4470545091
 11
10.750075345
 21
8.4564822252
  0
LINE
  5
2F0
100
AcDbEntity
  8
0
100
AcDbLine
 62
4
  6
CONTINUOUS
 10
10.9239420002
 20
8.4361451669
 11
10.907383279
 21
8.445572883
  0
LINE
  5
2F1
100
AcDbEntity
  8
0
100
AcDbLine
 62
4
  6
CONTINUOUS
 10
10.9901768848
 20
8.4398311269
 11
10.9984562731
 21
8.4309775845
  0
LINE
  5
2F2
100
AcDbEntity
  8
0
100
AcDbLine
 62
4
  6
CONTINUOUS
 10
11.0812499342
 20
8.4252358246
 11
11.0729705459
 21
8.434089367
  0
LINE
  5
2F3
100
AcDbEntity
  8
0
100
AcDbLine
 62
4
  6
CONTINUOUS
 10
10.8659864485
 20
8.5229580453
 11
10.8715060038
 21
8.5142958954
  0
LINE
  5
2F4
100
AcDbEntity
  8
0
100
AcDbLine
 62
4
  6
CONTINUOUS
 10
10.9570594425
 20
8.5000833836
 11
10.9487801096
 21
8.5172162854
  0
LINE
  5
2F5
100
AcDbEntity
  8
0
100
AcDbLine
 62
4
  6
CONTINUOUS
 10
11.0398531036
 20
8.4281067045
 11
11.0398531036
 21
8.5109003518
  0
LINE
  5
2F6
100
AcDbEntity
  8
0
100
AcDbLine
 62
4
  6
CONTINUOUS
 10
11.0729705459
 20
8.434089367
 11
11.0729705459
 21
8.5417211055
  0
LINE
  5
2F7
100
AcDbEntity
  8
0
100
AcDbLine
 62
7
  6
CONTINUOUS
 10
11.0752430442
 20
6.9362038511
 11
11.0752430442
 21
6.5518004098
  0
LINE
  5
2F8
100
AcDbEntity
  8
0
100
AcDbLine
 62
4
  6
CONTINUOUS
 10
11.0812498987
 20
7.9334415749
 11
11.0812498987
 21
7.8506479293
  0
LINE
  5
2F9
100
AcDbEntity
  8
0
100
AcDbLine
 62
7
  6
CONTINUOUS
 10
11.1147158221
 20
6.9259875574
 11
11.1147158221
 21
6.5415841161
  0
LINE
  5
2FA
100
AcDbEntity
  8
0
100
AcDbLine
 62
4
  6
CONTINUOUS
 10
11.1281663398
 20
7.8308355333
 11
11.1281663398
 21
7.9467466367
  0
LINE
  5
2FB
100
AcDbEntity
  8
0
100
AcDbLine
 62
4
  6
CONTINUOUS
 10
11.1474848188
 20
8.4206424197
 11
11.1474848188
 21
8.503436067
  0
LINE
  5
2FC
100
AcDbEntity
  8
0
100
AcDbLine
 62
4
  6
CONTINUOUS
 10
11.1474848188
 20
8.5282741557
 11
11.1474848188
 21
8.5365535232
  0
LINE
  5
2FD
100
AcDbEntity
  8
0
100
AcDbLine
 62
4
  6
CONTINUOUS
 10
11.191641427
 20
8.4258595135
 11
11.191641427
 21
8.4920944283
  0
LINE
  5
2FE
100
AcDbEntity
  8
0
100
AcDbLine
 62
4
  6
CONTINUOUS
 10
11.1502445965
 20
8.5363621319
 11
11.1474848188
 21
8.5282741557
  0
LINE
  5
2FF
100
AcDbEntity
  8
0
100
AcDbLine
 62
4
  6
CONTINUOUS
 10
10.4161409704
 20
7.8967733902
 11
10.3995822423
 21
7.8813630121
  0
LINE
  5
300
100
AcDbEntity
  8
0
100
AcDbLine
 62
4
  6
CONTINUOUS
 10
10.7128182273
 20
8.1312031801
 11
10.6962594992
 21
8.115792802
  0
LINE
  5
301
100
AcDbEntity
  8
0
100
AcDbLine
 62
4
  6
CONTINUOUS
 10
11.191641427
 20
8.4920944283
 11
11.19992076
 21
8.4997996221
  0
LINE
  5
302
100
AcDbEntity
  8
0
100
AcDbLine
 62
4
  6
CONTINUOUS
 10
11.2661557552
 20
8.4869268421
 11
11.2744350881
 21
8.4946320359
  0
LINE
  5
303
100
AcDbEntity
  8
0
100
AcDbLine
 62
4
  6
CONTINUOUS
 10
10.247793887
 20
8.5989473012
 11
10.2809113449
 21
8.5966505977
  0
LINE
  5
304
100
AcDbEntity
  8
0
100
AcDbLine
 62
4
  6
CONTINUOUS
 10
11.1474848188
 20
8.5365535232
 11
11.1502445965
 21
8.5363621319
  0
LINE
  5
305
100
AcDbEntity
  8
0
100
AcDbLine
 62
4
  6
CONTINUOUS
 10
11.2744350881
 20
8.4559950003
 11
11.2661557552
 21
8.46208875
  0
LINE
  5
306
100
AcDbEntity
  8
0
100
AcDbLine
 62
4
  6
CONTINUOUS
 10
11.3158318634
 20
8.4420849721
 11
11.3075525304
 21
8.4481787219
  0
LINE
  5
307
100
AcDbEntity
  8
0
100
AcDbLine
 62
4
  6
CONTINUOUS
 10
11.19992076
 20
8.4170059749
 11
11.191641427
 21
8.4258595135
  0
LINE
  5
308
100
AcDbEntity
  8
0
100
AcDbLine
 62
4
  6
CONTINUOUS
 10
11.2661557552
 20
8.4206919272
 11
11.2744350881
 21
8.4118383887
  0
LINE
  5
309
100
AcDbEntity
  8
0
100
AcDbLine
 62
4
  6
CONTINUOUS
 10
11.3075525304
 20
8.4923353335
 11
11.3158318634
 21
8.4834817923
  0
LINE
  5
30A
100
AcDbEntity
  8
0
100
AcDbLine
 62
4
  6
CONTINUOUS
 10
11.2661557552
 20
8.46208875
 11
11.2661557552
 21
8.4869268421
  0
LINE
  5
30B
100
AcDbEntity
  8
0
100
AcDbLine
 62
4
  6
CONTINUOUS
 10
11.3158318634
 20
8.4172468774
 11
11.3158318634
 21
8.4420849721
  0
LINE
  5
30C
100
AcDbEntity
  8
0
100
AcDbLine
 62
7
  6
CONTINUOUS
 10
13.1583182446
 20
10.256945697
 11
12.7053852895
 21
9.8194460321
  0
LINE
  5
30D
100
AcDbEntity
  8
0
100
AcDbLine
 62
4
  6
CONTINUOUS
 10
11.3075525304
 20
8.4095416862
 11
11.3158318634
 21
8.4172468774
  0
LINE
  5
30E
100
AcDbEntity
  8
0
100
AcDbLine
 62
4
  6
CONTINUOUS
 10
10.8356288036
 20
7.9504754557
 11
10.8521875247
 21
7.9658858326
  0
LINE
  5
30F
100
AcDbEntity
  8
0
100
AcDbLine
 62
4
  6
CONTINUOUS
 10
10.9322213529
 20
7.9437767397
 11
10.9487800741
 21
7.9591871165
  0
LINE
  5
310
100
AcDbEntity
  8
0
100
AcDbLine
 62
4
  6
CONTINUOUS
 10
12.5310357023
 20
9.0317506204
 11
12.5455245903
 21
9.040405069
  0
LINE
  5
311
100
AcDbEntity
  8
0
100
AcDbLine
 62
4
  6
CONTINUOUS
 10
12.5745023661
 20
8.990099158
 11
12.5455245903
 21
8.9727902575
  0
LINE
  5
312
100
AcDbEntity
  8
0
100
AcDbLine
 62
4
  6
CONTINUOUS
 10
10.336107118
 20
7.9575195221
 11
10.2919505064
 21
7.938503486
  0
LINE
  5
313
100
AcDbEntity
  8
0
100
AcDbLine
 62
4
  6
CONTINUOUS
 10
10.9901769046
 20
7.8569638629
 11
10.9736181834
 21
7.8415534843
  0
LINE
  5
314
100
AcDbEntity
  8
0
100
AcDbLine
 62
4
  6
CONTINUOUS
 10
11.0812498987
 20
7.8506479293
 11
11.0646911775
 21
7.8352375508
  0
LINE
  5
315
100
AcDbEntity
  8
0
100
AcDbLine
 62
4
  6
CONTINUOUS
 10
12.5237912584
 20
8.9260011772
 11
12.5817468101
 21
8.9219819461
  0
LINE
  5
316
100
AcDbEntity
  8
0
100
AcDbLine
 62
7
  6
CONTINUOUS
 10
11.6798222967
 20
6.8867972903
 11
11.6798222967
 21
6.502393849
  0
LINE
  5
317
100
AcDbEntity
  8
0
100
AcDbLine
 62
7
  6
CONTINUOUS
 10
11.7337430989
 20
6.8905367172
 11
11.7337430989
 21
6.5061332759
  0
LINE
  5
318
100
AcDbEntity
  8
0
100
AcDbLine
 62
4
  6
CONTINUOUS
 10
11.2551165538
 20
7.8717076937
 11
11.2109599456
 21
7.8526916591
  0
LINE
  5
319
100
AcDbEntity
  8
0
100
AcDbLine
 62
4
  6
CONTINUOUS
 10
12.5455245903
 20
9.040405069
 11
12.5600134782
 21
9.0394002612
  0
LINE
  5
31A
100
AcDbEntity
  8
0
100
AcDbLine
 62
4
  6
CONTINUOUS
 10
12.5237912584
 20
9.0225937611
 11
12.5310357023
 21
9.0317506204
  0
LINE
  5
31B
100
AcDbEntity
  8
0
100
AcDbLine
 62
4
  6
CONTINUOUS
 10
12.5455245903
 20
8.9727902575
 11
12.5310357023
 21
8.9544765492
  0
LINE
  5
31C
100
AcDbEntity
  8
0
100
AcDbLine
 62
4
  6
CONTINUOUS
 10
12.5817468101
 20
8.9992560173
 11
12.5745023661
 21
8.990099158
  0
LINE
  5
31D
100
AcDbEntity
  8
0
100
AcDbLine
 62
7
  6
CONTINUOUS
 10
12.147429634
 20
6.9603627377
 11
12.147429634
 21
6.6132031889
  0
LINE
  5
31E
100
AcDbEntity
  8
0
100
AcDbLine
 62
7
  6
CONTINUOUS
 10
12.1618776584
 20
6.9593607638
 11
12.1618776584
 21
6.6271589096
  0
LINE
  5
31F
100
AcDbEntity
  8
0
100
AcDbLine
 62
4
  6
CONTINUOUS
 10
12.5310357023
 20
8.9544765492
 11
12.5237912584
 21
8.9260011772
  0
LINE
  5
320
100
AcDbEntity
  8
0
100
AcDbLine
 62
4
  6
CONTINUOUS
 10
12.5600134782
 20
9.0394002612
 11
12.5745023661
 21
9.0287361971
  0
LINE
  5
321
100
AcDbEntity
  8
0
100
AcDbLine
 62
4
  6
CONTINUOUS
 10
12.5817468101
 20
9.01857453
 11
12.5817468101
 21
8.9992560173
  0
LINE
  5
322
100
AcDbEntity
  8
0
100
AcDbLine
 62
7
  6
CONTINUOUS
 10
12.7053852895
 20
9.8194460321
 11
8.8416817554
 21
10.0873947823
  0
LINE
  5
323
100
AcDbEntity
  8
0
100
AcDbLine
 62
4
  6
CONTINUOUS
 10
12.5745023661
 20
9.0287361971
 11
12.5817468101
 21
9.01857453
  0
LINE
  5
324
100
AcDbEntity
  8
0
100
AcDbLine
 62
7
  6
CONTINUOUS
 10
12.7053852895
 20
6.9216683816
 11
12.7053852895
 21
9.8194460321
  0
LINE
  5
325
100
AcDbEntity
  8
0
100
AcDbLine
 62
7
  6
CONTINUOUS
 10
13.1583182446
 20
10.256945697
 11
9.2946147105
 21
10.5248944472
  0
LINE
  5
326
100
AcDbEntity
  8
0
100
AcDbLine
 62
7
  6
CONTINUOUS
 10
13.1583182446
 20
7.3591680464
 11
13.1583182446
 21
10.256945697
  0
LINE
  5
327
100
AcDbEntity
  8
0
100
AcDbLine
 62
7
  6
CONTINUOUS
 10
13.1583182446
 20
7.3591680464
 11
12.7053852895
 21
6.9216683816
  0
LINE
  5
328
100
AcDbEntity
  8
0
100
AcDbLine
 62
7
  6
CONTINUOUS
 10
12.0651335024
 20
6.5670400327
 11
12.0344594919
 21
6.5518876588
  0
ARC
  5
329
100
AcDbEntity
  8
0
100
AcDbCircle
 62
7
  6
CONTINUOUS
 10
11.5522044615
 20
9.1176134765
 40
2.234463508
100
AcDbArc
 50
273.2741391254
 51
274.6601229449
  0
ARC
  5
32A
100
AcDbEntity
  8
0
100
AcDbCircle
 62
7
  6
CONTINUOUS
 10
11.5538899041
 20
8.7089067336
 40
2.210103635
100
AcDbArc
 50
273.2665005552
 51
274.6677615151
  0
ARC
  5
32B
100
AcDbEntity
  8
0
100
AcDbCircle
 62
7
  6
CONTINUOUS
 10
11.3339153306
 20
7.854274291
 40
0.9538158545
100
AcDbArc
 50
254.2644742826
 51
256.7139235525
  0
ARC
  5
32C
100
AcDbEntity
  8
0
100
AcDbCircle
 62
7
  6
CONTINUOUS
 10
11.3339153306
 20
7.4698708497
 40
0.9538158545
100
AcDbArc
 50
254.2644742826
 51
256.7139235525
  0
ARC
  5
32D
100
AcDbEntity
  8
0
100
AcDbCircle
 62
7
  6
CONTINUOUS
 10
11.7262525007
 20
7.2519352338
 40
0.7641475746
100
AcDbArc
 50
293.7608747297
 51
296.3085175792
  0
SPLINE
  5
32E
100
AcDbEntity
  8
0
100
AcDbSpline
 62
7
  6
CONTINUOUS
 70
0
 71
3
 72
9
 73
5
 74
0
 42
0.0000001
 43
0.0000001
 44
0.0000000001
 40
0.0
 40
0.0
 40
0.0
 40
0.0
 40
0.2426666479
 40
1.0
 40
1.0
 40
1.0
 40
1.0
 10
12.1618776584
 20
6.6271589096
 30
0.0
 10
12.1613700306
 20
6.6265651366
 30
0.0
 10
12.1592463347
 20
6.6241455522
 30
0.0
 10
12.1570009263
 20
6.6218336573
 30
0.0
 10
12.1552473917
 20
6.6201398728
 30
0.0
  0
SPLINE
  5
32F
100
AcDbEntity
  8
0
100
AcDbSpline
 62
7
  6
CONTINUOUS
 70
0
 71
3
 72
9
 73
5
 74
0
 42
0.0000001
 43
0.0000001
 44
0.0000000001
 40
0.0
 40
0.0
 40
0.0
 40
0.0
 40
0.2426770998
 40
1.0
 40
1.0
 40
1.0
 40
1.0
 10
12.1552473917
 20
6.6201398728
 30
0.0
 10
12.1546392012
 20
6.6195524059
 30
0.0
 10
12.1521061498
 20
6.6171595248
 30
0.0
 10
12.1494704361
 20
6.6148760553
 30
0.0
 10
12.147429634
 20
6.6132031889
 30
0.0
  0
SPLINE
  5
330
100
AcDbEntity
  8
0
100
AcDbSpline
 62
7
  6
CONTINUOUS
 70
0
 71
3
 72
9
 73
5
 74
0
 42
0.0000001
 43
0.0000001
 44
0.0000000001
 40
0.0
 40
0.0
 40
0.0
 40
0.0
 40
0.504378312
 40
1.0
 40
1.0
 40
1.0
 40
1.0
 10
12.147429634
 20
6.6132031889
 30
0.0
 10
12.1339258838
 20
6.6047943351
 30
0.0
 10
12.1068130463
 20
6.5886596791
 30
0.0
 10
12.0789402498
 20
6.5738624844
 30
0.0
 10
12.0649261119
 20
6.566937642
 30
0.0
  0
SPLINE
  5
331
100
AcDbEntity
  8
0
100
AcDbSpline
 62
7
  6
CONTINUOUS
 70
0
 71
3
 72
47
 73
43
 74
0
 42
0.0000001
 43
0.0000001
 44
0.0000000001
 40
0.0
 40
0.0
 40
0.0
 40
0.0
 40
0.0099874638
 40
0.0204476834
 40
0.0313771515
 40
0.0427708334
 40
0.0546218702
 40
0.0669225517
 40
0.0796641282
 40
0.0928362942
 40
0.1204271347
 40
0.1495984091
 40
0.1802407165
 40
0.2122338314
 40
0.2454489836
 40
0.2797497839
 40
0.3149929168
 40
0.3510298084
 40
0.3877071885
 40
0.4248680172
 40
0.4623527228
 40
0.4999997959
 40
0.5376468789
 40
0.575131606
 40
0.6122924455
 40
0.6489698269
 40
0.6850067267
 40
0.7202498875
 40
0.7545507276
 40
0.7877659112
 40
0.8197590481
 40
0.8504013805
 40
0.8795726993
 40
0.9071635849
 40
0.9203357726
 40
0.933077377
 40
0.9453780958
 40
0.9572291635
 40
0.968622847
 40
0.9795522717
 40
0.9900124597
 40
1.0
 40
1.0
 40
1.0
 40
1.0
 10
12.0344633773
 20
6.5518896135
 30
0.0
 10
12.031472843
 20
6.5504123357
 30
0.0
 10
12.0252991366
 20
6.5474904199
 30
0.0
 10
12.0156969381
 20
6.5432909762
 30
0.0
 10
12.0055487601
 20
6.5391781415
 30
0.0
 10
11.9948663121
 20
6.5351569317
 30
0.0
 10
11.9836619364
 20
6.5312316265
 30
0.0
 10
11.9719484357
 20
6.5274069074
 30
0.0
 10
11.9597391798
 20
6.5236873366
 30
0.0
 10
11.942551351
 20
6.5187978048
 30
0.0
 10
11.9199210387
 20
6.5130023233
 30
0.0
 10
11.8914297604
 20
6.506633651
 30
0.0
 10
11.8613297114
 20
6.5007781271
 30
0.0
 10
11.8297597052
 20
6.4954627854
 30
0.0
 10
11.7968650472
 20
6.4907126291
 30
0.0
 10
11.7627973961
 20
6.4865500969
 30
0.0
 10
11.7277139375
 20
6.4829943689
 30
0.0
 10
11.6917766167
 20
6.4800621986
 30
0.0
 10
11.6551513558
 20
6.4777674139
 30
0.0
 10
11.6180073233
 20
6.4761204665
 30
0.0
 10
11.5805160994
 20
6.4751292305
 30
0.0
 10
11.5428508591
 20
6.4747983739
 30
0.0
 10
11.5051856115
 20
6.4751292138
 30
0.0
 10
11.4676943731
 20
6.4761204337
 30
0.0
 10
11.4305503286
 20
6.4777673644
 30
0.0
 10
11.3939250599
 20
6.480062133
 30
0.0
 10
11.3579877251
 20
6.4829942864
 30
0.0
 10
11.3229042396
 20
6.4865499999
 30
0.0
 10
11.2888365534
 20
6.4907125173
 30
0.0
 10
11.2559418621
 20
6.4954626603
 30
0.0
 10
11.2243718266
 20
6.5007779862
 30
0.0
 10
11.1942717438
 20
6.5066334958
 30
0.0
 10
11.1657804241
 20
6.5130021585
 30
0.0
 10
11.1431500702
 20
6.5187976265
 30
0.0
 10
11.1259622057
 20
6.5236871488
 30
0.0
 10
11.113752919
 20
6.5274067181
 30
0.0
 10
11.1020393869
 20
6.5312314445
 30
0.0
 10
11.0908349875
 20
6.5351567523
 30
0.0
 10
11.0801525367
 20
6.5391779437
 30
0.0
 10
11.0700043646
 20
6.5432907276
 30
0.0
 10
11.0604021487
 20
6.5474901329
 30
0.0
 10
11.0542284275
 20
6.5504120535
 30
0.0
 10
11.0512378744
 20
6.5518893512
 30
0.0
  0
SPLINE
  5
332
100
AcDbEntity
  8
0
100
AcDbSpline
 62
7
  6
CONTINUOUS
 70
0
 71
3
 72
23
 73
19
 74
0
 42
0.0000001
 43
0.0000001
 44
0.0000000001
 40
0.0
 40
0.0
 40
0.0
 40
0.0
 40
0.0436203086
 40
0.0892268542
 40
0.137068591
 40
0.187353676
 40
0.2402538462
 40
0.2958872461
 40
0.3543311569
 40
0.4156094827
 40
0.4797102731
 40
0.5465788188
 40
0.6161346312
 40
0.6882694307
 40
0.7628606873
 40
0.8397744221
 40
0.9188692703
 40
1.0
 40
1.0
 40
1.0
 40
1.0
 10
11.032231615
 20
6.5612781013
 30
0.0
 10
11.0299216793
 20
6.5624186699
 30
0.0
 10
11.0252845556
 20
6.5649337664
 30
0.0
 10
11.0184572662
 20
6.5692948184
 30
0.0
 10
11.0116208773
 20
6.5743371049
 30
0.0
 10
11.0047793276
 20
6.5800680372
 30
0.0
 10
10.9979382293
 20
6.5864916881
 30
0.0
 10
10.9911006889
 20
6.5936032605
 30
0.0
 10
10.9842724297
 20
6.6013940725
 30
0.0
 10
10.9774561856
 20
6.6098474749
 30
0.0
 10
10.9706570171
 20
6.6189433808
 30
0.0
 10
10.9638771669
 20
6.6286557628
 30
0.0
 10
10.9571205
 20
6.6389563109
 30
0.0
 10
10.9503886129
 20
6.6498132649
 30
0.0
 10
10.943683896
 20
6.6611941185
 30
0.0
 10
10.9370072468
 20
6.6730652009
 30
0.0
 10
10.9303597543
 20
6.68539304
 30
0.0
 10
10.9260006363
 20
6.6937924571
 30
0.0
 10
10.9238231047
 20
6.6980605899
 30
0.0
  0
SPLINE
  5
333
100
AcDbEntity
  8
0
100
AcDbSpline
 62
7
  6
CONTINUOUS
 70
0
 71
3
 72
21
 73
17
 74
0
 42
0.0000001
 43
0.0000001
 44
0.0000000001
 40
0.0
 40
0.0
 40
0.0
 40
0.0
 40
0.1230212981
 40
0.1847065752
 40
0.2465215318
 40
0.3084771567
 40
0.3705832678
 40
0.432847904
 40
0.4952752623
 40
0.5578663069
 40
0.6206183946
 40
0.6835249868
 40
0.7465773451
 40
0.8097643485
 40
0.8730733734
 40
1.0
 40
1.0
 40
1.0
 40
1.0
 10
11.6798222967
 20
6.502393849
 30
0.0
 10
11.6567431157
 20
6.4978464928
 30
0.0
 10
11.6219106741
 20
6.4918740865
 30
0.0
 10
11.5751394592
 20
6.4859639391
 30
0.0
 10
11.5398281505
 20
6.4826367251
 30
0.0
 10
11.5043437077
 20
6.4805023175
 30
0.0
 10
11.4687189867
 20
6.4796315811
 30
0.0
 10
11.4329957752
 20
6.4800804763
 30
0.0
 10
11.3972221535
 20
6.4818824751
 30
0.0
 10
11.3614496273
 20
6.485045761
 30
0.0
 10
11.3257296874
 20
6.4895547116
 30
0.0
 10
11.290110074
 20
6.4953689534
 30
0.0
 10
11.2546319345
 20
6.5024266674
 30
0.0
 10
11.2193277437
 20
6.5106523572
 30
0.0
 10
11.1724838176
 20
6.5230719092
 30
0.0
 10
11.1377234079
 20
6.5338597036
 30
0.0
 10
11.1147158221
 20
6.5415841161
 30
0.0
  0
SPLINE
  5
334
100
AcDbEntity
  8
0
100
AcDbSpline
 62
7
  6
CONTINUOUS
 70
0
 71
3
 72
21
 73
17
 74
0
 42
0.0000001
 43
0.0000001
 44
0.0000000001
 40
0.0
 40
0.0
 40
0.0
 40
0.0
 40
0.1269266266
 40
0.1902356515
 40
0.253422655
 40
0.3164750132
 40
0.3793816055
 40
0.4421336932
 40
0.5047247377
 40
0.567152096
 40
0.6294167323
 40
0.6915228434
 40
0.7534784683
 40
0.8152934248
 40
0.8769787019
 40
1.0
 40
1.0
 40
1.0
 40
1.0
 10
11.6798222967
 20
6.8867972903
 30
0.0
 10
11.6568147109
 20
6.8945217028
 30
0.0
 10
11.6220543012
 20
6.9053094972
 30
0.0
 10
11.575210375
 20
6.9177290492
 30
0.0
 10
11.5399061843
 20
6.9259547389
 30
0.0
 10
11.5044280447
 20
6.933012453
 30
0.0
 10
11.4688084314
 20
6.9388266948
 30
0.0
 10
11.4330884915
 20
6.9433356454
 30
0.0
 10
11.3973159652
 20
6.9464989313
 30
0.0
 10
11.3615423435
 20
6.94830093
 30
0.0
 10
11.325819132
 20
6.9487498252
 30
0.0
 10
11.290194411
 20
6.9478790889
 30
0.0
 10
11.2547099682
 20
6.9457446813
 30
0.0
 10
11.2193986596
 20
6.9424174673
 30
0.0
 10
11.1726274446
 20
6.9365073199
 30
0.0
 10
11.1377950031
 20
6.9305349136
 30
0.0
 10
11.1147158221
 20
6.9259875574
 30
0.0
  0
SPLINE
  5
335
100
AcDbEntity
  8
0
100
AcDbSpline
 62
7
  6
CONTINUOUS
 70
0
 71
3
 72
11
 73
7
 74
0
 42
0.0000001
 43
0.0000001
 44
0.0000000001
 40
0.0
 40
0.0
 40
0.0
 40
0.0
 40
0.2465919593
 40
0.494712682
 40
0.7454424776
 40
1.0
 40
1.0
 40
1.0
 40
1.0
 10
11.0752430442
 20
6.5518004098
 30
0.0
 10
11.0733006313
 20
6.5517455752
 30
0.0
 10
11.0693993216
 20
6.5517529216
 30
0.0
 10
11.0635336304
 20
6.5521364435
 30
0.0
 10
11.0576435584
 20
6.5529147258
 30
0.0
 10
11.0537371013
 20
6.5537042737
 30
0.0
 10
11.0517856562
 20
6.5541687351
 30
0.0
  0
SPLINE
  5
336
100
AcDbEntity
  8
0
100
AcDbSpline
 62
7
  6
CONTINUOUS
 70
0
 71
3
 72
10
 73
6
 74
0
 42
0.0000001
 43
0.0000001
 44
0.0000000001
 40
0.0
 40
0.0
 40
0.0
 40
0.0
 40
0.2418255986
 40
0.4885199497
 40
1.0
 40
1.0
 40
1.0
 40
1.0
 10
11.0517856562
 20
6.5541687351
 30
0.0
 10
11.0501511387
 20
6.5545577648
 30
0.0
 10
11.0468708283
 20
6.5554386254
 30
0.0
 10
11.040271928
 20
6.5576209307
 30
0.0
 10
11.0354180496
 20
6.559704747
 30
0.0
 10
11.032231615
 20
6.5612781013
 30
0.0
  0
SPLINE
  5
337
100
AcDbEntity
  8
0
100
AcDbSpline
 62
7
  6
CONTINUOUS
 70
0
 71
3
 72
15
 73
11
 74
0
 42
0.0000001
 43
0.0000001
 44
0.0000000001
 40
0.0
 40
0.0
 40
0.0
 40
0.0
 40
0.1431866196
 40
0.2818682435
 40
0.415659448
 40
0.544192247
 40
0.6671322828
 40
0.7841946535
 40
0.895181422
 40
1.0
 40
1.0
 40
1.0
 40
1.0
 10
11.0752430442
 20
6.9362038511
 30
0.0
 10
11.072572511
 20
6.9414383059
 30
0.0
 10
11.0672275378
 20
6.9516980625
 30
0.0
 10
11.0590449908
 20
6.9666674374
 30
0.0
 10
11.0508194824
 20
6.9809234602
 30
0.0
 10
11.042552655
 20
6.9944038065
 30
0.0
 10
11.0342480136
 20
7.0070477578
 30
0.0
 10
11.0259088459
 20
7.0187973978
 30
0.0
 10
11.0175415169
 20
7.0296011057
 30
0.0
 10
11.0117833405
 20
7.0363366425
 30
0.0
 10
11.0088958339
 20
7.0395252306
 30
0.0
  0
SPLINE
  5
338
100
AcDbEntity
  8
0
100
AcDbSpline
 62
7
  6
CONTINUOUS
 70
0
 71
3
 72
34
 73
30
 74
0
 42
0.0000001
 43
0.0000001
 44
0.0000000001
 40
0.0
 40
0.0
 40
0.0
 40
0.0
 40
0.0193832927
 40
0.0401145361
 40
0.062172281
 40
0.0855252469
 40
0.1101353208
 40
0.1359569061
 40
0.1629394878
 40
0.1910265001
 40
0.2201576991
 40
0.2502678515
 40
0.2812889112
 40
0.3131487144
 40
0.3457729209
 40
0.3790838221
 40
0.4130020595
 40
0.4474456949
 40
0.5175730577
 40
0.5887851871
 40
0.6603856241
 40
0.7316731185
 40
0.8019503242
 40
0.8364962237
 40
0.8705345047
 40
0.9039828996
 40
0.936761524
 40
0.9687922481
 40
1.0
 40
1.0
 40
1.0
 40
1.0
 10
11.067874684
 20
7.0351545343
 30
0.0
 10
11.0723479389
 20
7.0329781868
 30
0.0
 10
11.0817192135
 20
7.0287055427
 30
0.0
 10
11.0965062699
 20
7.0227005516
 30
0.0
 10
11.1124624068
 20
7.0168982291
 30
0.0
 10
11.1295459337
 20
7.0113135376
 30
0.0
 10
11.1477127927
 20
7.0059616662
 30
0.0
 10
11.1669156473
 20
7.0008562368
 30
0.0
 10
11.1871044669
 20
6.9960113112
 30
0.0
 10
11.2082264816
 20
6.9914391581
 30
0.0
 10
11.23022644
 20
6.9871524536
 30
0.0
 10
11.2530467324
 20
6.9831619769
 30
0.0
 10
11.2766275563
 20
6.9794788597
 30
0.0
 10
11.3009071083
 20
6.9761122787
 30
0.0
 10
11.3258216996
 20
6.9730717013
 30
0.0
 10
11.3513059696
 20
6.97036462
 30
0.0
 10
11.3772930772
 20
6.9679986861
 30
0.0
 10
11.4127330861
 20
6.9652907649
 30
0.0
 10
11.4577847562
 20
6.9628118096
 30
0.0
 10
11.5124192609
 20
6.9612857271
 30
0.0
 10
11.567372986
 20
6.9612076606
 30
0.0
 10
11.6220694068
 20
6.9625784349
 30
0.0
 10
11.6672120863
 20
6.9649286939
 30
0.0
 10
11.7027554942
 20
6.9675346516
 30
0.0
 10
11.7288419376
 20
6.9698264013
 30
0.0
 10
11.7544401097
 20
6.972460634
 30
0.0
 10
11.7794829
 20
6.9754300866
 30
0.0
 10
11.8039045058
 20
6.9787272045
 30
0.0
 10
11.8199500935
 20
6.9811714706
 30
0.0
 10
11.8278567017
 20
6.9824496024
 30
0.0
  0
LINE
  5
339
100
AcDbEntity
  8
0
100
AcDbLine
 62
7
  6
CONTINUOUS
 10
12.0341431537
 20
6.5525606121
 11
12.0334140397
 21
6.5522407244
  0
SPLINE
  5
33A
100
AcDbEntity
  8
0
100
AcDbSpline
 62
7
  6
CONTINUOUS
 70
0
 71
3
 72
15
 73
11
 74
0
 42
0.0000001
 43
0.0000001
 44
0.0000000001
 40
0.0
 40
0.0
 40
0.0
 40
0.0
 40
0.1321602046
 40
0.2618009952
 40
0.3890353631
 40
0.5141096583
 40
0.6373677171
 40
0.75919507
 40
0.8799649792
 40
1.0
 40
1.0
 40
1.0
 40
1.0
 10
12.0334140397
 20
6.5522407244
 30
0.0
 10
12.0210329363
 20
6.5468169823
 30
0.0
 10
11.9961921724
 20
6.5367699931
 30
0.0
 10
11.9583981093
 20
6.5242365558
 30
0.0
 10
11.9205273398
 20
6.5145192662
 30
0.0
 10
11.8827009642
 20
6.507650762
 30
0.0
 10
11.8450335783
 20
6.5035509336
 30
0.0
 10
11.8076179963
 20
6.5020442457
 30
0.0
 10
11.7705171597
 20
6.5028910934
 30
0.0
 10
11.7459527402
 20
6.5048504433
 30
0.0
 10
11.7337430989
 20
6.5061332759
 30
0.0
  0
SPLINE
  5
33B
100
AcDbEntity
  8
0
100
AcDbSpline
 62
7
  6
CONTINUOUS
 70
0
 71
3
 72
13
 73
9
 74
0
 42
0.0000001
 43
0.0000001
 44
0.0000000001
 40
0.0
 40
0.0
 40
0.0
 40
0.0
 40
0.1201975627
 40
0.2418114272
 40
0.3648502554
 40
0.4892946852
 40
0.7421855128
 40
1.0
 40
1.0
 40
1.0
 40
1.0
 10
11.9150068517
 20
6.9766862155
 30
0.0
 10
11.9073046808
 20
6.9743027227
 30
0.0
 10
11.8919074613
 20
6.9691853282
 30
0.0
 10
11.8690016167
 20
6.9605518351
 30
0.0
 10
11.8461711741
 20
6.9509597126
 30
0.0
 10
11.8156947405
 20
6.9368849562
 30
0.0
 10
11.7779046727
 20
6.9171529505
 30
0.0
 10
11.748423092
 20
6.8996780234
 30
0.0
 10
11.7337430989
 20
6.8905367172
 30
0.0
  0
SPLINE
  5
33C
100
AcDbEntity
  8
0
100
AcDbSpline
 62
7
  6
CONTINUOUS
 70
0
 71
3
 72
42
 73
38
 74
0
 42
0.0000001
 43
0.0000001
 44
0.0000000001
 40
0.0
 40
0.0
 40
0.0
 40
0.0
 40
0.0311444347
 40
0.0467772112
 40
0.0624471461
 40
0.093891844
 40
0.1254739796
 40
0.1571813629
 40
0.1889992234
 40
0.2209106216
 40
0.2528967716
 40
0.2849374315
 40
0.3170113014
 40
0.34909644
 40
0.3811706886
 40
0.4132120984
 40
0.4451993552
 40
0.4771121951
 40
0.5089318057
 40
0.5406412074
 40
0.572225607
 40
0.6036727182
 40
0.6349730419
 40
0.6661200987
 40
0.6971106068
 40
0.7279445994
 40
0.7586254742
 40
0.7891599701
 40
0.8195580671
 40
0.8498328085
 40
0.864931571
 40
0.8800056544
 40
0.910083706
 40
0.9400929707
 40
0.9550814956
 40
0.9700611828
 40
1.0
 40
1.0
 40
1.0
 40
1.0
 10
9.2039039617
 20
9.8661916326
 30
0.0
 10
9.2079609262
 20
9.8659102812
 30
0.0
 10
9.214041788
 20
9.8652651382
 30
0.0
 10
9.2220933897
 20
9.8639686644
 30
0.0
 10
9.2301322089
 20
9.8623769925
 30
0.0
 10
9.2401002058
 20
9.8598421093
 30
0.0
 10
9.2518528657
 20
9.8559512643
 30
0.0
 10
9.2633494683
 20
9.8512284416
 30
0.0
 10
9.2745283697
 20
9.8456989701
 30
0.0
 10
9.2853301031
 20
9.8393923833
 30
0.0
 10
9.2956970871
 20
9.832342358
 30
0.0
 10
9.3055740925
 20
9.8245865123
 30
0.0
 10
9.3149084885
 20
9.8161662117
 30
0.0
 10
9.3236505322
 20
9.8071263492
 30
0.0
 10
9.3317536277
 20
9.7975151082
 30
0.0
 10
9.3391745725
 20
9.7873837084
 30
0.0
 10
9.3458737863
 20
9.7767861356
 30
0.0
 10
9.3518155195
 20
9.7657788568
 30
0.0
 10
9.3569680434
 20
9.7544205237
 30
0.0
 10
9.3613038182
 20
9.742771663
 30
0.0
 10
9.3647996404
 20
9.7308943589
 30
0.0
 10
9.3674367672
 20
9.718851926
 30
0.0
 10
9.3692010185
 20
9.706708577
 30
0.0
 10
9.3700828554
 20
9.6945290835
 30
0.0
 10
9.3700774366
 20
9.6823784386
 30
0.0
 10
9.3691846436
 20
9.6703215008
 30
0.0
 10
9.3674091115
 20
9.6584226978
 30
0.0
 10
9.3647601239
 20
9.6467455091
 30
0.0
 10
9.3612518976
 20
9.6353527718
 30
0.0
 10
9.3576238116
 20
9.6261367206
 30
0.0
 10
9.3543130076
 20
9.6189698147
 30
0.0
 10
9.3507400057
 20
9.6119587469
 30
0.0
 10
9.3457791076
 20
9.603478495
 30
0.0
 10
9.3401801616
 20
9.5954187837
 30
0.0
 10
9.335341852
 20
9.5892581459
 30
0.0
 10
9.3302727436
 20
9.5832985905
 30
0.0
 10
9.326211491
 20
9.5790559115
 30
0.0
 10
9.3233997121
 20
9.5763399582
 30
0.0
  0
SPLINE
  5
33D
100
AcDbEntity
  8
0
100
AcDbSpline
 62
7
  6
CONTINUOUS
 70
0
 71
3
 72
42
 73
38
 74
0
 42
0.0000001
 43
0.0000001
 44
0.0000000001
 40
0.0
 40
0.0
 40
0.0
 40
0.0
 40
0.0311444347
 40
0.0467772112
 40
0.0624471461
 40
0.093891844
 40
0.1254739796
 40
0.1571813629
 40
0.1889992234
 40
0.2209106216
 40
0.2528967716
 40
0.2849374315
 40
0.3170113014
 40
0.34909644
 40
0.3811706886
 40
0.4132120984
 40
0.4451993552
 40
0.4771121951
 40
0.5089318057
 40
0.5406412074
 40
0.572225607
 40
0.6036727182
 40
0.6349730419
 40
0.6661200987
 40
0.6971106068
 40
0.7279445994
 40
0.7586254742
 40
0.7891599701
 40
0.8195580671
 40
0.8498328085
 40
0.864931571
 40
0.8800056544
 40
0.910083706
 40
0.9400929707
 40
0.9550814956
 40
0.9700611828
 40
1.0
 40
1.0
 40
1.0
 40
1.0
 10
12.3431630832
 20
7.4751500352
 30
0.0
 10
12.3472200476
 20
7.4748686837
 30
0.0
 10
12.3533009095
 20
7.4742235408
 30
0.0
 10
12.3613525112
 20
7.472927067
 30
0.0
 10
12.3693913304
 20
7.4713353951
 30
0.0
 10
12.3793593273
 20
7.4688005119
 30
0.0
 10
12.3911119872
 20
7.4649096669
 30
0.0
 10
12.4026085898
 20
7.4601868441
 30
0.0
 10
12.4137874912
 20
7.4546573726
 30
0.0
 10
12.4245892245
 20
7.4483507858
 30
0.0
 10
12.4349562085
 20
7.4413007605
 30
0.0
 10
12.4448332139
 20
7.4335449148
 30
0.0
 10
12.4541676099
 20
7.4251246143
 30
0.0
 10
12.4629096537
 20
7.4160847518
 30
0.0
 10
12.4710127491
 20
7.4064735108
 30
0.0
 10
12.478433694
 20
7.396342111
 30
0.0
 10
12.4851329078
 20
7.3857445381
 30
0.0
 10
12.491074641
 20
7.3747372594
 30
0.0
 10
12.4962271649
 20
7.3633789262
 30
0.0
 10
12.5005629397
 20
7.3517300656
 30
0.0
 10
12.5040587618
 20
7.3398527615
 30
0.0
 10
12.5066958886
 20
7.3278103286
 30
0.0
 10
12.5084601399
 20
7.3156669796
 30
0.0
 10
12.5093419768
 20
7.303487486
 30
0.0
 10
12.509336558
 20
7.2913368411
 30
0.0
 10
12.508443765
 20
7.2792799034
 30
0.0
 10
12.5066682329
 20
7.2673811003
 30
0.0
 10
12.5040192453
 20
7.2557039117
 30
0.0
 10
12.5005110191
 20
7.2443111743
 30
0.0
 10
12.4968829331
 20
7.2350951231
 30
0.0
 10
12.4935721291
 20
7.2279282173
 30
0.0
 10
12.4899991272
 20
7.2209171494
 30
0.0
 10
12.4850382291
 20
7.2124368975
 30
0.0
 10
12.4794392831
 20
7.2043771863
 30
0.0
 10
12.4746009734
 20
7.1982165485
 30
0.0
 10
12.4695318651
 20
7.192256993
 30
0.0
 10
12.4654706125
 20
7.1880143141
 30
0.0
 10
12.4626588336
 20
7.1852983608
 30
0.0
  0
SPLINE
  5
33E
100
AcDbEntity
  8
0
100
AcDbSpline
 62
7
  6
CONTINUOUS
 70
0
 71
3
 72
58
 73
54
 74
0
 42
0.0000001
 43
0.0000001
 44
0.0000000001
 40
0.0
 40
0.0
 40
0.0
 40
0.0
 40
0.0417737815
 40
0.0840363436
 40
0.1266576064
 40
0.1695052937
 40
0.2124465984
 40
0.2553482464
 40
0.2980771385
 40
0.3405008543
 40
0.3824881812
 40
0.4239096424
 40
0.4646380292
 40
0.5045489411
 40
0.5435213405
 40
0.5814381219
 40
0.6181866987
 40
0.653659626
 40
0.6708859796
 40
0.6877558271
 40
0.7042574788
 40
0.7203797493
 40
0.7361118978
 40
0.7514437445
 40
0.7663656515
 40
0.7808685697
 40
0.7949441266
 40
0.8085845926
 40
0.8217830416
 40
0.8345333253
 40
0.8468302039
 40
0.858669439
 40
0.8700478439
 40
0.8809635106
 40
0.8914158534
 40
0.9014058857
 40
0.9109363984
 40
0.9200122215
 40
0.9286406186
 40
0.9368315859
 40
0.9445984316
 40
0.9519582536
 40
0.9589326111
 40
0.9655482378
 40
0.9718376879
 40
0.9778400313
 40
0.9836011623
 40
0.9864084693
 40
0.9891757863
 40
0.9919106548
 40
0.9946209077
 40
0.9973146114
 40
1.0
 40
1.0
 40
1.0
 40
1.0
 10
12.72298497
 20
8.991260871
 30
0.0
 10
12.72298497
 20
9.0063161897
 30
0.0
 10
12.7232198478
 20
9.0366034574
 30
0.0
 10
12.7242582094
 20
9.082240777
 30
0.0
 10
12.7259816231
 20
9.1282447468
 30
0.0
 10
12.7283844492
 20
9.1744631324
 30
0.0
 10
12.731458744
 20
9.2207429868
 30
0.0
 10
12.7351943477
 20
9.2669312097
 30
0.0
 10
12.739578888
 20
9.3128749904
 30
0.0
 10
12.7445978269
 20
9.3584223353
 30
0.0
 10
12.7502345117
 20
9.4034225719
 30
0.0
 10
12.7564702293
 20
9.4477268504
 30
0.0
 10
12.7632842672
 20
9.491188639
 30
0.0
 10
12.7706539803
 20
9.5336642198
 30
0.0
 10
12.7785548649
 20
9.5750131538
 30
0.0
 10
12.7869606253
 20
9.6150988288
 30
0.0
 10
12.7958433009
 20
9.6537886598
 30
0.0
 10
12.8036928528
 20
9.6850582345
 30
0.0
 10
12.8101993778
 20
9.7092725434
 30
0.0
 10
12.8151321476
 20
9.7268286717
 30
0.0
 10
12.8201613192
 20
9.743943092
 30
0.0
 10
12.8252827111
 20
9.7606016778
 30
0.0
 10
12.8304921044
 20
9.7767906549
 30
0.0
 10
12.835785158
 20
9.7924966543
 30
0.0
 10
12.8411574859
 20
9.8077067055
 30
0.0
 10
12.8466046518
 20
9.822408251
 30
0.0
 10
12.8521221059
 20
9.8365891693
 30
0.0
 10
12.8577053194
 20
9.850237761
 30
0.0
 10
12.8633496304
 20
9.8633427928
 30
0.0
 10
12.8690503908
 20
9.8758934771
 30
0.0
 10
12.8748028901
 20
9.8878794992
 30
0.0
 10
12.8806023564
 20
9.8992910339
 30
0.0
 10
12.8864440596
 20
9.9101187216
 30
0.0
 10
12.8923231559
 20
9.9203537367
 30
0.0
 10
12.8982348846
 20
9.929987727
 30
0.0
 10
12.9041744256
 20
9.9390128807
 30
0.0
 10
12.9101369905
 20
9.9474219058
 30
0.0
 10
12.9161178704
 20
9.9552080079
 30
0.0
 10
12.9221123272
 20
9.9623649704
 30
0.0
 10
12.9281158193
 20
9.9688870142
 30
0.0
 10
12.9341238177
 20
9.9747689171
 30
0.0
 10
12.9401319911
 20
9.9800058548
 30
0.0
 10
12.946136169
 20
9.9845933687
 30
0.0
 10
12.9521322055
 20
9.9885273346
 30
0.0
 10
12.9581162946
 20
9.9918036875
 30
0.0
 10
12.9640837342
 20
9.9944184766
 30
0.0
 10
12.9690831013
 20
9.9960570019
 30
0.0
 10
12.9730546798
 20
9.9970216653
 30
0.0
 10
12.9759999096
 20
9.9975723331
 30
0.0
 10
12.9789362112
 20
9.9979560882
 30
0.0
 10
12.9818630242
 20
9.9981728338
 30
0.0
 10
12.9847795237
 20
9.9982224399
 30
0.0
 10
12.9867178345
 20
9.9981440172
 30
0.0
 10
12.9876833326
 20
9.9980770595
 30
0.0
  0
SPLINE
  5
33F
100
AcDbEntity
  8
0
100
AcDbSpline
 62
7
  6
CONTINUOUS
 70
0
 71
3
 72
86
 73
82
 74
0
 42
0.0000001
 43
0.0000001
 44
0.0000000001
 40
0.0
 40
0.0
 40
0.0
 40
0.0
 40
0.0039801735
 40
0.0081241171
 40
0.0124359931
 40
0.016919361
 40
0.0215772361
 40
0.0264119817
 40
0.0314252561
 40
0.0366182449
 40
0.0419916453
 40
0.0475457694
 40
0.0532805541
 40
0.0591955582
 40
0.0652900785
 40
0.0715630739
 40
0.0846387684
 40
0.0984101018
 40
0.112860694
 40
0.1279712428
 40
0.1437198619
 40
0.1600823544
 40
0.1770324406
 40
0.1945419645
 40
0.2125810668
 40
0.2311183398
 40
0.2501209668
 40
0.2695548486
 40
0.289384725
 40
0.3095742955
 40
0.3300863312
 40
0.3508827821
 40
0.3719248818
 40
0.3931732491
 40
0.4145879914
 40
0.4577543474
 40
0.501099203
 40
0.5442952951
 40
0.5657359749
 40
0.587017582
 40
0.6081001434
 40
0.6289441761
 40
0.6495107926
 40
0.6697618048
 40
0.6896598276
 40
0.709168385
 40
0.7282520204
 40
0.7468764117
 40
0.7650084972
 40
0.7826166038
 40
0.7996705814
 40
0.8161419537
 40
0.8320040874
 40
0.8472323859
 40
0.8618045214
 40
0.8757007003
 40
0.8889039845
 40
0.9014006969
 40
0.9073810972
 40
0.9131815075
 40
0.9188013673
 40
0.9242405009
 40
0.9294990443
 40
0.9345775709
 40
0.9394770909
 40
0.9441990928
 40
0.9487456636
 40
0.9531194621
 40
0.9573238984
 40
0.9613631411
 40
0.9652422549
 40
0.9689673208
 40
0.9725454977
 40
0.9759852252
 40
0.9824864215
 40
0.9855752926
 40
0.9885737717
 40
0.9914977072
 40
0.9943643167
 40
0.9971920017
 40
1.0
 40
1.0
 40
1.0
 40
1.0
 10
10.9787495956
 20
10.1736439602
 30
0.0
 10
10.977680096
 20
10.1726109029
 30
0.0
 10
10.9754485208
 20
10.1705520902
 30
0.0
 10
10.9719054601
 20
10.1675450316
 30
0.0
 10
10.9681022154
 20
10.164559531
 30
0.0
 10
10.9640408744
 20
10.1615971968
 30
0.0
 10
10.9597234315
 20
10.158659398
 30
0.0
 10
10.955151987
 20
10.155747579
 30
0.0
 10
10.9503288323
 20
10.1528631151
 30
0.0
 10
10.945256358
 20
10.1500075076
 30
0.0
 10
10.9399371228
 20
10.1471821443
 30
0.0
 10
10.9343737824
 20
10.144388448
 30
0.0
 10
10.9285691189
 20
10.1416278327
 30
0.0
 10
10.9225260594
 20
10.1389016544
 30
0.0
 10
10.9162476186
 20
10.1362113158
 30
0.0
 10
10.9074446948
 20
10.1326240948
 30
0.0
 10
10.895868112
 20
10.1282491326
 30
0.0
 10
10.8812757009
 20
10.1232331748
 30
0.0
 10
10.8658261587
 20
10.1183913778
 30
0.0
 10
10.8495506337
 20
10.113733583
 30
0.0
 10
10.8324817969
 20
10.1092692721
 30
0.0
 10
10.8146540323
 20
10.1050075388
 30
0.0
 10
10.7961032818
 20
10.1009570615
 30
0.0
 10
10.7768669833
 20
10.0971260907
 30
0.0
 10
10.75698398
 20
10.0935224294
 30
0.0
 10
10.7364944398
 20
10.090153417
 30
0.0
 10
10.7154397713
 20
10.087025915
 30
0.0
 10
10.69386254
 20
10.0841462911
 30
0.0
 10
10.6718063799
 20
10.0815204028
 30
0.0
 10
10.6493159008
 20
10.079153592
 30
0.0
 10
10.6264365965
 20
10.0770506737
 30
0.0
 10
10.6032147474
 20
10.0752159242
 30
0.0
 10
10.5796973452
 20
10.0736530837
 30
0.0
 10
10.5559319319
 20
10.0723653051
 30
0.0
 10
10.5238946594
 20
10.0710151057
 30
0.0
 10
10.4835823815
 20
10.0700343789
 30
0.0
 10
10.4351208555
 20
10.0699832447
 30
0.0
 10
10.3947857998
 20
10.0708787319
 30
0.0
 10
10.3627124908
 20
10.072160875
 30
0.0
 10
10.338907132
 20
10.0733983264
 30
0.0
 10
10.3153410722
 20
10.0749113551
 30
0.0
 10
10.2920619532
 20
10.0766969126
 30
0.0
 10
10.2691168845
 20
10.0787513609
 30
0.0
 10
10.2465522806
 20
10.0810705206
 30
0.0
 10
10.224413785
 20
10.083649673
 30
0.0
 10
10.2027461733
 20
10.0864835706
 30
0.0
 10
10.1815932637
 20
10.089566447
 30
0.0
 10
10.1609978243
 20
10.09289203
 30
0.0
 10
10.1410014827
 20
10.0964535478
 30
0.0
 10
10.1216446381
 20
10.1002437455
 30
0.0
 10
10.1029663796
 20
10.1042549025
 30
0.0
 10
10.0850044033
 20
10.1084788479
 30
0.0
 10
10.0677949333
 20
10.1129069776
 30
0.0
 10
10.0513726315
 20
10.1175302763
 30
0.0
 10
10.0357705395
 20
10.1223393307
 30
0.0
 10
10.0210199106
 20
10.1273243631
 30
0.0
 10
10.0071504451
 20
10.1324752529
 30
0.0
 10
9.9961948212
 20
10.1369604856
 30
0.0
 10
9.9879008339
 20
10.1406321254
 30
0.0
 10
9.9820091012
 20
10.1433803804
 30
0.0
 10
9.9763576567
 20
10.1461622174
 30
0.0
 10
9.970949309
 20
10.1489762116
 30
0.0
 10
9.9657867838
 20
10.1518209907
 30
0.0
 10
9.9608726556
 20
10.1546951151
 30
0.0
 10
9.956209372
 20
10.1575971479
 30
0.0
 10
9.9517992769
 20
10.1605256918
 30
0.0
 10
9.9476445349
 20
10.1634792539
 30
0.0
 10
9.943747246
 20
10.1664564566
 30
0.0
 10
9.9401093188
 20
10.1694558207
 30
0.0
 10
9.9367325829
 20
10.1724759318
 30
0.0
 10
9.9336187246
 20
10.1755154137
 30
0.0
 10
9.9307693535
 20
10.1785727156
 30
0.0
 10
9.9281857633
 20
10.1816468697
 30
0.0
 10
9.9251549066
 20
10.1856889742
 30
0.0
 10
9.9225812534
 20
10.1898400702
 30
0.0
 10
9.9205378506
 20
10.194079782
 30
0.0
 10
9.9193032536
 20
10.197215376
 30
0.0
 10
9.9183417794
 20
10.2003585843
 30
0.0
 10
9.9176543227
 20
10.2035079118
 30
0.0
 10
9.9172415234
 20
10.2066610845
 30
0.0
 10
9.9171496272
 20
10.2087676568
 30
0.0
 10
9.9171496225
 20
10.2098166987
 30
0.0
  0
SPLINE
  5
340
100
AcDbEntity
  8
0
100
AcDbSpline
 62
7
  6
CONTINUOUS
 70
0
 71
3
 72
21
 73
17
 74
0
 42
0.0000001
 43
0.0000001
 44
0.0000000001
 40
0.0
 40
0.0
 40
0.0
 40
0.0
 40
0.06165322
 40
0.1233294719
 40
0.1850515326
 40
0.2468416528
 40
0.308721334
 40
0.3707110997
 40
0.4328302469
 40
0.4950966389
 40
0.5575265783
 40
0.620134583
 40
0.6829331586
 40
0.745933179
 40
0.8725262751
 40
1.0
 40
1.0
 40
1.0
 40
1.0
 10
9.0844082113
 20
9.8237648031
 30
0.0
 10
9.0863383975
 20
9.8256292085
 30
0.0
 10
9.0903006464
 20
9.829255601
 30
0.0
 10
9.096528944
 20
9.8343689911
 30
0.0
 10
9.1030277103
 20
9.8391443775
 30
0.0
 10
9.1097803396
 20
9.8435695236
 30
0.0
 10
9.1167698538
 20
9.8476333762
 30
0.0
 10
9.1239786315
 20
9.8513256818
 30
0.0
 10
9.1313885261
 20
9.8546371238
 30
0.0
 10
9.1389808422
 20
9.8575594146
 30
0.0
 10
9.1467364699
 20
9.8600852172
 30
0.0
 10
9.1546358226
 20
9.8622081448
 30
0.0
 10
9.1626592252
 20
9.8639229119
 30
0.0
 10
9.1735108076
 20
9.8656619201
 30
0.0
 10
9.1872905865
 20
9.8667917068
 30
0.0
 10
9.1983686976
 20
9.8665755045
 30
0.0
 10
9.2039039617
 20
9.8661916326
 30
0.0
  0
SPLINE
  5
341
100
AcDbEntity
  8
0
100
AcDbSpline
 62
7
  6
CONTINUOUS
 70
0
 71
3
 72
21
 73
17
 74
0
 42
0.0000001
 43
0.0000001
 44
0.0000000001
 40
0.0
 40
0.0
 40
0.0
 40
0.0
 40
0.06165322
 40
0.1233294719
 40
0.1850515326
 40
0.2468416528
 40
0.308721334
 40
0.3707110997
 40
0.4328302469
 40
0.4950966389
 40
0.5575265783
 40
0.620134583
 40
0.6829331586
 40
0.745933179
 40
0.8725262751
 40
1.0
 40
1.0
 40
1.0
 40
1.0
 10
12.2236673328
 20
7.4327232057
 30
0.0
 10
12.225597519
 20
7.434587611
 30
0.0
 10
12.2295597679
 20
7.4382140036
 30
0.0
 10
12.2357880654
 20
7.4433273937
 30
0.0
 10
12.2422868317
 20
7.44810278
 30
0.0
 10
12.249039461
 20
7.4525279262
 30
0.0
 10
12.2560289752
 20
7.4565917787
 30
0.0
 10
12.2632377529
 20
7.4602840844
 30
0.0
 10
12.2706476475
 20
7.4635955263
 30
0.0
 10
12.2782399637
 20
7.4665178172
 30
0.0
 10
12.2859955914
 20
7.4690436198
 30
0.0
 10
12.293894944
 20
7.4711665474
 30
0.0
 10
12.3019183466
 20
7.4728813145
 30
0.0
 10
12.312769929
 20
7.4746203226
 30
0.0
 10
12.326549708
 20
7.4757501094
 30
0.0
 10
12.3376278191
 20
7.4755339071
 30
0.0
 10
12.3431630832
 20
7.4751500352
 30
0.0
  0
SPLINE
  5
342
100
AcDbEntity
  8
0
100
AcDbSpline
 62
7
  6
CONTINUOUS
 70
0
 71
3
 72
51
 73
47
 74
0
 42
0.0000001
 43
0.0000001
 44
0.0000000001
 40
0.0
 40
0.0
 40
0.0
 40
0.0
 40
0.0063158597
 40
0.0126706287
 40
0.0191024404
 40
0.0256479634
 40
0.0323418202
 40
0.0392161353
 40
0.0536139103
 40
0.06119461
 40
0.0690563395
 40
0.0772174148
 40
0.0856937889
 40
0.0944991399
 40
0.1036452328
 40
0.1131419748
 40
0.1229976937
 40
0.1332192981
 40
0.1438123493
 40
0.1547813463
 40
0.1661296651
 40
0.1778598204
 40
0.1899734695
 40
0.2024714851
 40
0.2153541252
 40
0.228620927
 40
0.2422709442
 40
0.2707131194
 40
0.3006640006
 40
0.3320991612
 40
0.3649883313
 40
0.3992960968
 40
0.4349824571
 40
0.472003283
 40
0.5103107017
 40
0.549853417
 40
0.5905770029
 40
0.6324241717
 40
0.6753350024
 40
0.7192471605
 40
0.7640960879
 40
0.8098151579
 40
0.8563360516
 40
0.9035881878
 40
0.951501041
 40
1.0
 40
1.0
 40
1.0
 40
1.0
 10
12.8760202015
 20
8.3879443735
 30
0.0
 10
12.8746562207
 20
8.3880389662
 30
0.0
 10
12.8719263002
 20
8.3883403675
 30
0.0
 10
12.8678620192
 20
8.3891260288
 30
0.0
 10
12.8638248973
 20
8.3902451502
 30
0.0
 10
12.8598173091
 20
8.3916968983
 30
0.0
 10
12.8558408251
 20
8.3934804162
 30
0.0
 10
12.8505014574
 20
8.3963425751
 30
0.0
 10
12.8453071035
 20
8.3998463281
 30
0.0
 10
12.8402802869
 20
8.4039066223
 30
0.0
 10
12.8364833564
 20
8.407329939
 30
0.0
 10
12.8327269408
 20
8.4110767351
 30
0.0
 10
12.8290120553
 20
8.4151457415
 30
0.0
 10
12.8253401361
 20
8.4195351341
 30
0.0
 10
12.8217125985
 20
8.4242431794
 30
0.0
 10
12.8181308022
 20
8.4292679245
 30
0.0
 10
12.8145961429
 20
8.4346073399
 30
0.0
 10
12.8111100363
 20
8.4402592721
 30
0.0
 10
12.8076738133
 20
8.4462214065
 30
0.0
 10
12.8042889107
 20
8.4524913503
 30
0.0
 10
12.800956637
 20
8.4590665313
 30
0.0
 10
12.7976783729
 20
8.4659442853
 30
0.0
 10
12.7944554513
 20
8.4731218049
 30
0.0
 10
12.7912891577
 20
8.4805961522
 30
0.0
 10
12.7881808444
 20
8.4883642801
 30
0.0
 10
12.7851317042
 20
8.4964230056
 30
0.0
 10
12.7810914199
 20
8.5077060806
 30
0.0
 10
12.7762105694
 20
8.5225216557
 30
0.0
 10
12.7706865775
 20
8.5411692366
 30
0.0
 10
12.7654273135
 20
8.5608910702
 30
0.0
 10
12.7604415026
 20
8.5816547414
 30
0.0
 10
12.7557374339
 20
8.6034263022
 30
0.0
 10
12.7513229384
 20
8.6261700174
 30
0.0
 10
12.7472053705
 20
8.6498485287
 30
0.0
 10
12.7433915945
 20
8.6744228952
 30
0.0
 10
12.7398879648
 20
8.6998526698
 30
0.0
 10
12.7367003178
 20
8.7260959705
 30
0.0
 10
12.7338339655
 20
8.7531095567
 30
0.0
 10
12.7312936851
 20
8.7808489067
 30
0.0
 10
12.7290837119
 20
8.8092682913
 30
0.0
 10
12.7272077352
 20
8.8383208439
 30
0.0
 10
12.7256688761
 20
8.8679586724
 30
0.0
 10
12.7244697183
 20
8.8981328114
 30
0.0
 10
12.7236122323
 20
8.928793668
 30
0.0
 10
12.7230979048
 20
8.9598904054
 30
0.0
 10
12.72298497
 20
8.9807618195
 30
0.0
 10
12.72298497
 20
8.991260871
 30
0.0
  0
SPLINE
  5
343
100
AcDbEntity
  8
0
100
AcDbSpline
 62
7
  6
CONTINUOUS
 70
0
 71
3
 72
44
 73
40
 74
0
 42
0.0000001
 43
0.0000001
 44
0.0000000001
 40
0.0
 40
0.0
 40
0.0
 40
0.0
 40
0.0063858112
 40
0.0129182573
 40
0.0265227619
 40
0.0410103164
 40
0.0565331142
 40
0.064722815
 40
0.0732131195
 40
0.0820143988
 40
0.0911354929
 40
0.1005838527
 40
0.1103658135
 40
0.1204865425
 40
0.1309502233
 40
0.1417602426
 40
0.1529190827
 40
0.17628854
 40
0.2010670132
 40
0.2272526403
 40
0.2548360998
 40
0.2838017334
 40
0.3141284525
 40
0.3457903434
 40
0.3787571581
 40
0.4129948608
 40
0.4484659849
 40
0.4851298502
 40
0.5229429001
 40
0.5618589748
 40
0.6018294554
 40
0.6428034311
 40
0.6847279607
 40
0.7275481986
 40
0.771207444
 40
0.8156475481
 40
0.8608086825
 40
0.9066293186
 40
1.0
 40
1.0
 40
1.0
 40
1.0
 10
12.8513355723
 20
8.6235944492
 30
0.0
 10
12.8504271368
 20
8.623915625
 30
0.0
 10
12.8486123506
 20
8.6246322984
 30
0.0
 10
12.8449979257
 20
8.6263562043
 30
0.0
 10
12.8405170941
 20
8.6290718326
 30
0.0
 10
12.8353152506
 20
8.6331229587
 30
0.0
 10
12.8311448403
 20
8.6371152037
 30
0.0
 10
12.8278604641
 20
8.6406974675
 30
0.0
 10
12.8253804894
 20
8.6436370001
 30
0.0
 10
12.8229287932
 20
8.6467801167
 30
0.0
 10
12.820506124
 20
8.6501257991
 30
0.0
 10
12.8181133236
 20
8.6536727697
 30
0.0
 10
12.8157512717
 20
8.6574197746
 30
0.0
 10
12.81342079
 20
8.6613654333
 30
0.0
 10
12.8111227031
 20
8.6655082999
 30
0.0
 10
12.8088578573
 20
8.6698468924
 30
0.0
 10
12.8058368863
 20
8.6759853162
 30
0.0
 10
12.8021588467
 20
8.6841463916
 30
0.0
 10
12.7979561892
 20
8.6945479263
 30
0.0
 10
12.7939052233
 20
8.7056883431
 30
0.0
 10
12.790011896
 20
8.7175513095
 30
0.0
 10
12.7862819312
 20
8.7301196148
 30
0.0
 10
12.7827208687
 20
8.743374885
 30
0.0
 10
12.7793340089
 20
8.7572977028
 30
0.0
 10
12.7761263786
 20
8.7718676113
 30
0.0
 10
12.773102761
 20
8.7870631777
 30
0.0
 10
12.7702676809
 20
8.8028620245
 30
0.0
 10
12.7676253578
 20
8.8192408554
 30
0.0
 10
12.7651797286
 20
8.8361755015
 30
0.0
 10
12.7629344525
 20
8.8536409676
 30
0.0
 10
12.7608928844
 20
8.87161146
 30
0.0
 10
12.7590580579
 20
8.8900604266
 30
0.0
 10
12.7574327141
 20
8.9089606064
 30
0.0
 10
12.756019293
 20
8.9282840608
 30
0.0
 10
12.7548198889
 20
8.9480022374
 30
0.0
 10
12.7538363006
 20
8.9680859651
 30
0.0
 10
12.7530699891
 20
8.988505535
 30
0.0
 10
12.7523349572
 20
9.0163127146
 30
0.0
 10
12.7521213099
 20
9.0373159385
 30
0.0
 10
12.7521213099
 20
9.0514044167
 30
0.0
  0
SPLINE
  5
344
100
AcDbEntity
  8
0
100
AcDbSpline
 62
7
  6
CONTINUOUS
 70
0
 71
3
 72
52
 73
48
 74
0
 42
0.0000001
 43
0.0000001
 44
0.0000000001
 40
0.0
 40
0.0
 40
0.0
 40
0.0
 40
0.005498893
 40
0.0111936705
 40
0.0171298241
 40
0.0233468741
 40
0.0298784201
 40
0.0367525883
 40
0.0439925037
 40
0.0516169707
 40
0.059640948
 40
0.0680761908
 40
0.0769315812
 40
0.0862136651
 40
0.0959268299
 40
0.1060737461
 40
0.1166554244
 40
0.1276715886
 40
0.1391206478
 40
0.151000022
 40
0.1633060578
 40
0.1760343204
 40
0.1891794758
 40
0.2027355551
 40
0.2166958204
 40
0.2310530043
 40
0.2457991713
 40
0.2609259341
 40
0.2922843607
 40
0.3250519911
 40
0.3591451463
 40
0.3944741946
 40
0.4309442017
 40
0.4684555144
 40
0.5069042987
 40
0.5461830468
 40
0.5861810602
 40
0.6267849183
 40
0.6678789354
 40
0.709345611
 40
0.7510660745
 40
0.7929205252
 40
0.8347886797
 40
0.8765501865
 40
0.9180851339
 40
0.9592743114
 40
1.0
 40
1.0
 40
1.0
 40
1.0
 10
12.9307066166
 20
9.7680902151
 30
0.0
 10
12.9293411613
 20
9.7678114988
 30
0.0
 10
12.9265896962
 20
9.7670976533
 30
0.0
 10
12.9225077962
 20
9.7656020452
 30
0.0
 10
12.9184124672
 20
9.7636681272
 30
0.0
 10
12.9143071387
 20
9.7612983901
 30
0.0
 10
12.9101942302
 20
9.7584953139
 30
0.0
 10
12.9060764207
 20
9.755261395
 30
0.0
 10
12.9019562894
 20
9.7515993377
 30
0.0
 10
12.8978366039
 20
9.7475119488
 30
0.0
 10
12.8937201107
 20
9.7430023642
 30
0.0
 10
12.889609745
 20
9.7380739117
 30
0.0
 10
12.8855083872
 20
9.7327303002
 30
0.0
 10
12.8814190889
 20
9.7269754754
 30
0.0
 10
12.8773448065
 20
9.7208137728
 30
0.0
 10
12.8732886486
 20
9.7142497829
 30
0.0
 10
12.8692536002
 20
9.7072884744
 30
0.0
 10
12.8652427827
 20
9.6999350772
 30
0.0
 10
12.861259177
 20
9.6921951809
 30
0.0
 10
12.857305887
 20
9.6840746366
 30
0.0
 10
12.8533858672
 20
9.6755796352
 30
0.0
 10
12.8495021823
 20
9.6667166267
 30
0.0
 10
12.8456577446
 20
9.6574923807
 30
0.0
 10
12.8418555637
 20
9.6479139221
 30
0.0
 10
12.8380984961
 20
9.6379885749
 30
0.0
 10
12.8343894884
 20
9.6277239159
 30
0.0
 10
12.8307313105
 20
9.6171277902
 30
0.0
 10
12.8258669567
 20
9.6023913187
 30
0.0
 10
12.8199453579
 20
9.58319627
 30
0.0
 10
12.8131682234
 20
9.5592423356
 30
0.0
 10
12.8066582644
 20
9.5341734551
 30
0.0
 10
12.8004355561
 20
9.508066366
 30
0.0
 10
12.7945192946
 20
9.481000857
 30
0.0
 10
12.7889277175
 20
9.4530597509
 30
0.0
 10
12.7836780541
 20
9.4243285728
 30
0.0
 10
12.7787864722
 20
9.3948952991
 30
0.0
 10
12.7742680297
 20
9.3648500766
 30
0.0
 10
12.7701366292
 20
9.3342849433
 30
0.0
 10
12.766404976
 20
9.3032935425
 30
0.0
 10
12.7630845405
 20
9.2719708326
 30
0.0
 10
12.7601855228
 20
9.2404127941
 30
0.0
 10
12.7577168217
 20
9.2087161328
 30
0.0
 10
12.7556860094
 20
9.1769779828
 30
0.0
 10
12.7540993033
 20
9.1452956054
 30
0.0
 10
12.7529615567
 20
9.1137660816
 30
0.0
 10
12.7522762282
 20
9.0824861018
 30
0.0
 10
12.7521213099
 20
9.0617257231
 30
0.0
 10
12.7521213099
 20
9.0514044167
 30
0.0
  0
SPLINE
  5
345
100
AcDbEntity
  8
0
100
AcDbSpline
 62
7
  6
CONTINUOUS
 70
0
 71
3
 72
18
 73
14
 74
0
 42
0.0000001
 43
0.0000001
 44
0.0000000001
 40
0.0
 40
0.0
 40
0.0
 40
0.0
 40
0.0548621106
 40
0.1099281304
 40
0.165399556
 40
0.2214731722
 40
0.2783387379
 40
0.3361775111
 40
0.4554063056
 40
0.5804414047
 40
0.7123341351
 40
0.8519581983
 40
1.0
 40
1.0
 40
1.0
 40
1.0
 10
10.9971496145
 20
10.2098173843
 30
0.0
 10
10.9971496179
 20
10.2090547466
 30
0.0
 10
10.9971012204
 20
10.2075261987
 30
0.0
 10
10.9968836045
 20
10.2052358611
 30
0.0
 10
10.996520994
 20
10.2029468451
 30
0.0
 10
10.9960135262
 20
10.2006599859
 30
0.0
 10
10.9953614145
 20
10.1983758548
 30
0.0
 10
10.9942888119
 20
10.195304315
 30
0.0
 10
10.9925705135
 20
10.1914626443
 30
0.0
 10
10.9899551495
 20
10.1869256116
 30
0.0
 10
10.9867697623
 20
10.1824179394
 30
0.0
 10
10.9830191978
 20
10.1779441704
 30
0.0
 10
10.9802297694
 20
10.1750736984
 30
0.0
 10
10.9787495956
 20
10.1736439602
 30
0.0
  0
SPLINE
  5
346
100
AcDbEntity
  8
0
100
AcDbSpline
 62
7
  6
CONTINUOUS
 70
0
 71
3
 72
51
 73
47
 74
0
 42
0.0000001
 43
0.0000001
 44
0.0000000001
 40
0.0
 40
0.0
 40
0.0
 40
0.0
 40
0.0063158597
 40
0.0126706287
 40
0.0191024404
 40
0.0256479634
 40
0.0323418202
 40
0.0392161353
 40
0.0536139103
 40
0.06119461
 40
0.0690563395
 40
0.0772174148
 40
0.0856937889
 40
0.0944991399
 40
0.1036452328
 40
0.1131419748
 40
0.1229976937
 40
0.1332192981
 40
0.1438123493
 40
0.1547813463
 40
0.1661296651
 40
0.1778598204
 40
0.1899734695
 40
0.2024714851
 40
0.2153541252
 40
0.228620927
 40
0.2422709442
 40
0.2707131194
 40
0.3006640006
 40
0.3320991612
 40
0.3649883313
 40
0.3992960968
 40
0.4349824571
 40
0.472003283
 40
0.5103107017
 40
0.549853417
 40
0.5905770029
 40
0.6324241717
 40
0.6753350024
 40
0.7192471605
 40
0.7640960879
 40
0.8098151579
 40
0.8563360516
 40
0.9035881878
 40
0.951501041
 40
1.0
 40
1.0
 40
1.0
 40
1.0
 10
12.9876833326
 20
9.9980770595
 30
0.0
 10
12.9890473134
 20
9.9979824667
 30
0.0
 10
12.9917772339
 20
9.9976810654
 30
0.0
 10
12.9958415149
 20
9.9968954041
 30
0.0
 10
12.9998786368
 20
9.9957762827
 30
0.0
 10
13.003886225
 20
9.9943245347
 30
0.0
 10
13.007862709
 20
9.9925410168
 30
0.0
 10
13.0132020767
 20
9.9896788579
 30
0.0
 10
13.0183964306
 20
9.9861751049
 30
0.0
 10
13.0234232472
 20
9.9821148107
 30
0.0
 10
13.0272201777
 20
9.9786914939
 30
0.0
 10
13.0309765933
 20
9.9749446978
 30
0.0
 10
13.0346914788
 20
9.9708756915
 30
0.0
 10
13.038363398
 20
9.9664862989
 30
0.0
 10
13.0419909356
 20
9.9617782536
 30
0.0
 10
13.0455727319
 20
9.9567535084
 30
0.0
 10
13.0491073912
 20
9.9514140931
 30
0.0
 10
13.0525934978
 20
9.9457621608
 30
0.0
 10
13.0560297208
 20
9.9398000264
 30
0.0
 10
13.0594146234
 20
9.9335300827
 30
0.0
 10
13.0627468971
 20
9.9269549017
 30
0.0
 10
13.0660251612
 20
9.9200771477
 30
0.0
 10
13.0692480828
 20
9.9128996281
 30
0.0
 10
13.0724143764
 20
9.9054252808
 30
0.0
 10
13.0755226897
 20
9.8976571529
 30
0.0
 10
13.0785718299
 20
9.8895984274
 30
0.0
 10
13.0826121142
 20
9.8783153523
 30
0.0
 10
13.0874929646
 20
9.8634997773
 30
0.0
 10
13.0930169566
 20
9.8448521963
 30
0.0
 10
13.0982762206
 20
9.8251303628
 30
0.0
 10
13.1032620315
 20
9.8043666916
 30
0.0
 10
13.1079661002
 20
9.7825951308
 30
0.0
 10
13.1123805957
 20
9.7598514155
 30
0.0
 10
13.1164981635
 20
9.7361729043
 30
0.0
 10
13.1203119396
 20
9.7115985378
 30
0.0
 10
13.1238155693
 20
9.6861687631
 30
0.0
 10
13.1270032163
 20
9.6599254625
 30
0.0
 10
13.1298695686
 20
9.6329118762
 30
0.0
 10
13.132409849
 20
9.6051725263
 30
0.0
 10
13.1346198222
 20
9.5767531416
 30
0.0
 10
13.1364957989
 20
9.5477005891
 30
0.0
 10
13.138034658
 20
9.5180627605
 30
0.0
 10
13.1392338158
 20
9.4878886216
 30
0.0
 10
13.1400913018
 20
9.4572277649
 30
0.0
 10
13.1406056293
 20
9.4261310275
 30
0.0
 10
13.1407185641
 20
9.4052596135
 30
0.0
 10
13.1407185641
 20
9.3947605619
 30
0.0
  0
SPLINE
  5
347
100
AcDbEntity
  8
0
100
AcDbSpline
 62
7
  6
CONTINUOUS
 70
0
 71
3
 72
28
 73
24
 74
0
 42
0.0000001
 43
0.0000001
 44
0.0000000001
 40
0.0
 40
0.0
 40
0.0
 40
0.0
 40
0.078689332
 40
0.1560642285
 40
0.2319181377
 40
0.3060505667
 40
0.3782670121
 40
0.4483803105
 40
0.51621136
 40
0.5815901767
 40
0.6443569525
 40
0.7043632795
 40
0.761473557
 40
0.78890499
 40
0.8155682977
 40
0.8414509714
 40
0.8665416616
 40
0.8908303694
 40
0.9143084406
 40
0.9369688531
 40
0.9588061921
 40
0.9798170487
 40
1.0
 40
1.0
 40
1.0
 40
1.0
 10
12.9068948533
 20
9.3389041882
 30
0.0
 10
12.9068948533
 20
9.3481557544
 30
0.0
 10
12.9067636859
 20
9.3665046486
 30
0.0
 10
12.9061640044
 20
9.3937658408
 30
0.0
 10
12.9051646604
 20
9.4204793049
 30
0.0
 10
12.9037686201
 20
9.4465677089
 30
0.0
 10
12.9019799981
 20
9.4719556826
 30
0.0
 10
12.8998040674
 20
9.4965698505
 30
0.0
 10
12.8972472338
 20
9.5203391285
 30
0.0
 10
12.8943170205
 20
9.5431948923
 30
0.0
 10
12.8910220607
 20
9.5650712735
 30
0.0
 10
12.8873720166
 20
9.5859050958
 30
0.0
 10
12.8839997548
 20
9.6025642613
 30
0.0
 10
12.8811219512
 20
9.6153185209
 30
0.0
 10
12.8789106095
 20
9.624458224
 30
0.0
 10
12.8766189312
 20
9.6332941095
 30
0.0
 10
12.8742485377
 20
9.6418198206
 30
0.0
 10
12.8718011751
 20
9.6500292171
 30
0.0
 10
12.8692785877
 20
9.6579163938
 30
0.0
 10
12.8666826339
 20
9.6654756833
 30
0.0
 10
12.8640151405
 20
9.6727016807
 30
0.0
 10
12.8612781038
 20
9.6795891437
 30
0.0
 10
12.8593699274
 20
9.6840413963
 30
0.0
 10
12.8584030722
 20
9.686208414
 30
0.0
  0
SPLINE
  5
348
100
AcDbEntity
  8
0
100
AcDbSpline
 62
7
  6
CONTINUOUS
 70
0
 71
3
 72
22
 73
18
 74
0
 42
0.0000001
 43
0.0000001
 44
0.0000000001
 40
0.0
 40
0.0
 40
0.0
 40
0.0
 40
0.1443697926
 40
0.2151259769
 40
0.2847864836
 40
0.3532453227
 40
0.4203998214
 40
0.4861502983
 40
0.5503998468
 40
0.613055031
 40
0.6740260635
 40
0.7332270472
 40
0.7905763733
 40
0.8459972143
 40
0.8994178401
 40
0.9507720774
 40
1.0
 40
1.0
 40
1.0
 40
1.0
 10
12.8486912961
 20
9.3302068774
 30
0.0
 10
12.8486912961
 20
9.3429007478
 30
0.0
 10
12.848488116
 20
9.3618169267
 30
0.0
 10
12.8477876649
 20
9.3868476882
 30
0.0
 10
12.8470578279
 20
9.4051992577
 30
0.0
 10
12.8461212584
 20
9.4232243205
 30
0.0
 10
12.8449795146
 20
9.4408930916
 30
0.0
 10
12.8436345136
 20
9.4581763808
 30
0.0
 10
12.8420884847
 20
9.4750456596
 30
0.0
 10
12.8403440154
 20
9.4914730754
 30
0.0
 10
12.8384040237
 20
9.5074315217
 30
0.0
 10
12.8362717432
 20
9.5228946668
 30
0.0
 10
12.8339507215
 20
9.5378370109
 30
0.0
 10
12.8314448455
 20
9.5522339223
 30
0.0
 10
12.8287582916
 20
9.5660617276
 30
0.0
 10
12.8258955584
 20
9.5792975583
 30
0.0
 10
12.8238283051
 20
9.5878973885
 30
0.0
 10
12.822762955
 20
9.592092652
 30
0.0
  0
SPLINE
  5
349
100
AcDbEntity
  8
0
100
AcDbSpline
 62
7
  6
CONTINUOUS
 70
0
 71
3
 72
86
 73
82
 74
0
 42
0.0000001
 43
0.0000001
 44
0.0000000001
 40
0.0
 40
0.0
 40
0.0
 40
0.0
 40
0.0039801735
 40
0.0081241171
 40
0.0124359931
 40
0.016919361
 40
0.0215772361
 40
0.0264119817
 40
0.0314252561
 40
0.0366182449
 40
0.0419916453
 40
0.0475457694
 40
0.0532805541
 40
0.0591955582
 40
0.0652900785
 40
0.0715630739
 40
0.0846387684
 40
0.0984101018
 40
0.112860694
 40
0.1279712428
 40
0.1437198619
 40
0.1600823544
 40
0.1770324406
 40
0.1945419645
 40
0.2125810668
 40
0.2311183398
 40
0.2501209668
 40
0.2695548486
 40
0.289384725
 40
0.3095742955
 40
0.3300863312
 40
0.3508827821
 40
0.3719248818
 40
0.3931732491
 40
0.4145879914
 40
0.4577543474
 40
0.501099203
 40
0.5442952951
 40
0.5657359749
 40
0.587017582
 40
0.6081001434
 40
0.6289441761
 40
0.6495107926
 40
0.6697618048
 40
0.6896598276
 40
0.709168385
 40
0.7282520204
 40
0.7468764117
 40
0.7650084972
 40
0.7826166038
 40
0.7996705814
 40
0.8161419537
 40
0.8320040874
 40
0.8472323859
 40
0.8618045214
 40
0.8757007003
 40
0.8889039845
 40
0.9014006969
 40
0.9073810972
 40
0.9131815075
 40
0.9188013673
 40
0.9242405009
 40
0.9294990443
 40
0.9345775709
 40
0.9394770909
 40
0.9441990928
 40
0.9487456636
 40
0.9531194621
 40
0.9573238984
 40
0.9613631411
 40
0.9652422549
 40
0.9689673208
 40
0.9725454977
 40
0.9759852252
 40
0.9824864215
 40
0.9855752926
 40
0.9885737717
 40
0.9914977072
 40
0.9943643167
 40
0.9971920017
 40
1.0
 40
1.0
 40
1.0
 40
1.0
 10
9.9355496414
 20
10.2459901227
 30
0.0
 10
9.9366191409
 20
10.2470231801
 30
0.0
 10
9.9388507162
 20
10.2490819928
 30
0.0
 10
9.9423937768
 20
10.2520890514
 30
0.0
 10
9.9461970215
 20
10.2550745519
 30
0.0
 10
9.9502583625
 20
10.2580368861
 30
0.0
 10
9.9545758054
 20
10.2609746849
 30
0.0
 10
9.9591472499
 20
10.263886504
 30
0.0
 10
9.9639704046
 20
10.2667709679
 30
0.0
 10
9.9690428789
 20
10.2696265753
 30
0.0
 10
9.9743621141
 20
10.2724519387
 30
0.0
 10
9.9799254545
 20
10.2752456349
 30
0.0
 10
9.985730118
 20
10.2780062502
 30
0.0
 10
9.9917731775
 20
10.2807324286
 30
0.0
 10
9.9980516183
 20
10.2834227671
 30
0.0
 10
10.0068545421
 20
10.2870099882
 30
0.0
 10
10.0184311249
 20
10.2913849503
 30
0.0
 10
10.033023536
 20
10.2964009081
 30
0.0
 10
10.0484730782
 20
10.3012427051
 30
0.0
 10
10.0647486032
 20
10.3059004999
 30
0.0
 10
10.08181744
 20
10.3103648109
 30
0.0
 10
10.0996452046
 20
10.3146265442
 30
0.0
 10
10.1181959551
 20
10.3186770215
 30
0.0
 10
10.1374322536
 20
10.3225079923
 30
0.0
 10
10.1573152569
 20
10.3261116536
 30
0.0
 10
10.1778047971
 20
10.329480666
 30
0.0
 10
10.1988594656
 20
10.3326081679
 30
0.0
 10
10.2204366969
 20
10.3354877918
 30
0.0
 10
10.242492857
 20
10.3381136802
 30
0.0
 10
10.2649833361
 20
10.340480491
 30
0.0
 10
10.2878626404
 20
10.3425834092
 30
0.0
 10
10.3110844895
 20
10.3444181588
 30
0.0
 10
10.3346018917
 20
10.3459809993
 30
0.0
 10
10.358367305
 20
10.3472687778
 30
0.0
 10
10.3904045776
 20
10.3486189772
 30
0.0
 10
10.4307168554
 20
10.3495997041
 30
0.0
 10
10.4791783814
 20
10.3496508382
 30
0.0
 10
10.5195134371
 20
10.3487553511
 30
0.0
 10
10.5515867461
 20
10.3474732079
 30
0.0
 10
10.575392105
 20
10.3462357566
 30
0.0
 10
10.5989581647
 20
10.3447227279
 30
0.0
 10
10.6222372837
 20
10.3429371703
 30
0.0
 10
10.6451823524
 20
10.3408827221
 30
0.0
 10
10.6677469563
 20
10.3385635623
 30
0.0
 10
10.6898854519
 20
10.33598441
 30
0.0
 10
10.7115530636
 20
10.3331505124
 30
0.0
 10
10.7327059732
 20
10.3300676359
 30
0.0
 10
10.7533014126
 20
10.326742053
 30
0.0
 10
10.7732977543
 20
10.3231805351
 30
0.0
 10
10.7926545988
 20
10.3193903375
 30
0.0
 10
10.8113328573
 20
10.3153791805
 30
0.0
 10
10.8292948336
 20
10.3111552351
 30
0.0
 10
10.8465043036
 20
10.3067271053
 30
0.0
 10
10.8629266054
 20
10.3021038067
 30
0.0
 10
10.8785286974
 20
10.2972947522
 30
0.0
 10
10.8932793263
 20
10.2923097199
 30
0.0
 10
10.9071487918
 20
10.28715883
 30
0.0
 10
10.9181044157
 20
10.2826735974
 30
0.0
 10
10.926398403
 20
10.2790019576
 30
0.0
 10
10.9322901357
 20
10.2762537025
 30
0.0
 10
10.9379415802
 20
10.2734718656
 30
0.0
 10
10.9433499279
 20
10.2706578713
 30
0.0
 10
10.9485124531
 20
10.2678130923
 30
0.0
 10
10.9534265814
 20
10.2649389678
 30
0.0
 10
10.9580898649
 20
10.2620369351
 30
0.0
 10
10.96249996
 20
10.2591083911
 30
0.0
 10
10.966654702
 20
10.256154829
 30
0.0
 10
10.9705519909
 20
10.2531776264
 30
0.0
 10
10.9741899181
 20
10.2501782622
 30
0.0
 10
10.977566654
 20
10.2471581511
 30
0.0
 10
10.9806805123
 20
10.2441186692
 30
0.0
 10
10.9835298834
 20
10.2410613673
 30
0.0
 10
10.9861134736
 20
10.2379872133
 30
0.0
 10
10.9891443303
 20
10.2339451087
 30
0.0
 10
10.9917179835
 20
10.2297940128
 30
0.0
 10
10.9937613863
 20
10.225554301
 30
0.0
 10
10.9949959833
 20
10.2224187069
 30
0.0
 10
10.9959574575
 20
10.2192754987
 30
0.0
 10
10.9966449142
 20
10.2161261711
 30
0.0
 10
10.9970577135
 20
10.2129729984
 30
0.0
 10
10.9971496097
 20
10.2108664261
 30
0.0
 10
10.9971496145
 20
10.2098173843
 30
0.0
  0
SPLINE
  5
34A
100
AcDbEntity
  8
0
100
AcDbSpline
 62
7
  6
CONTINUOUS
 70
0
 71
3
 72
18
 73
14
 74
0
 42
0.0000001
 43
0.0000001
 44
0.0000000001
 40
0.0
 40
0.0
 40
0.0
 40
0.0
 40
0.0548621106
 40
0.1099281304
 40
0.165399556
 40
0.2214731722
 40
0.2783387379
 40
0.3361775111
 40
0.4554063056
 40
0.5804414047
 40
0.7123341351
 40
0.8519581983
 40
1.0
 40
1.0
 40
1.0
 40
1.0
 10
9.9171496225
 20
10.2098166987
 30
0.0
 10
9.917149619
 20
10.2105793363
 30
0.0
 10
9.9171980165
 20
10.2121078842
 30
0.0
 10
9.9174156325
 20
10.2143982218
 30
0.0
 10
9.9177782429
 20
10.2166872379
 30
0.0
 10
9.9182857108
 20
10.218974097
 30
0.0
 10
9.9189378224
 20
10.2212582281
 30
0.0
 10
9.920010425
 20
10.224329768
 30
0.0
 10
9.9217287234
 20
10.2281714386
 30
0.0
 10
9.9243440874
 20
10.2327084713
 30
0.0
 10
9.9275294746
 20
10.2372161436
 30
0.0
 10
9.9312800391
 20
10.2416899126
 30
0.0
 10
9.9340694675
 20
10.2445603845
 30
0.0
 10
9.9355496414
 20
10.2459901227
 30
0.0
  0
SPLINE
  5
34B
100
AcDbEntity
  8
0
100
AcDbSpline
 62
7
  6
CONTINUOUS
 70
0
 71
3
 72
21
 73
17
 74
0
 42
0.0000001
 43
0.0000001
 44
0.0000000001
 40
0.0
 40
0.0
 40
0.0
 40
0.0
 40
0.06165322
 40
0.1233294719
 40
0.1850515326
 40
0.2468416528
 40
0.308721334
 40
0.3707110997
 40
0.4328302469
 40
0.4950966389
 40
0.5575265783
 40
0.620134583
 40
0.6829331586
 40
0.745933179
 40
0.8725262751
 40
1.0
 40
1.0
 40
1.0
 40
1.0
 10
9.3233997121
 20
9.5763399582
 30
0.0
 10
9.3214695259
 20
9.5744755528
 30
0.0
 10
9.317507277
 20
9.5708491603
 30
0.0
 10
9.3112789795
 20
9.5657357702
 30
0.0
 10
9.3047802132
 20
9.5609603839
 30
0.0
 10
9.2980275838
 20
9.5565352377
 30
0.0
 10
9.2910380696
 20
9.5524713851
 30
0.0
 10
9.2838292919
 20
9.5487790795
 30
0.0
 10
9.2764193973
 20
9.5454676375
 30
0.0
 10
9.2688270812
 20
9.5425453467
 30
0.0
 10
9.2610714535
 20
9.5400195441
 30
0.0
 10
9.2531721009
 20
9.5378966165
 30
0.0
 10
9.2451486983
 20
9.5361818494
 30
0.0
 10
9.2342971159
 20
9.5344428412
 30
0.0
 10
9.2205173369
 20
9.5333130545
 30
0.0
 10
9.2094392258
 20
9.5335292568
 30
0.0
 10
9.2039039617
 20
9.5339131287
 30
0.0
  0
SPLINE
  5
34C
100
AcDbEntity
  8
0
100
AcDbSpline
 62
7
  6
CONTINUOUS
 70
0
 71
3
 72
42
 73
38
 74
0
 42
0.0000001
 43
0.0000001
 44
0.0000000001
 40
0.0
 40
0.0
 40
0.0
 40
0.0
 40
0.0311444347
 40
0.0467772112
 40
0.0624471461
 40
0.093891844
 40
0.1254739796
 40
0.1571813629
 40
0.1889992234
 40
0.2209106216
 40
0.2528967716
 40
0.2849374315
 40
0.3170113014
 40
0.34909644
 40
0.3811706886
 40
0.4132120984
 40
0.4451993552
 40
0.4771121951
 40
0.5089318057
 40
0.5406412074
 40
0.572225607
 40
0.6036727182
 40
0.6349730419
 40
0.6661200987
 40
0.6971106068
 40
0.7279445994
 40
0.7586254742
 40
0.7891599701
 40
0.8195580671
 40
0.8498328085
 40
0.864931571
 40
0.8800056544
 40
0.910083706
 40
0.9400929707
 40
0.9550814956
 40
0.9700611828
 40
1.0
 40
1.0
 40
1.0
 40
1.0
 10
9.2039039617
 20
9.5339131287
 30
0.0
 10
9.1998469973
 20
9.5341944801
 30
0.0
 10
9.1937661354
 20
9.5348396231
 30
0.0
 10
9.1857145337
 20
9.5361360969
 30
0.0
 10
9.1776757145
 20
9.5377277688
 30
0.0
 10
9.1677077176
 20
9.540262652
 30
0.0
 10
9.1559550577
 20
9.544153497
 30
0.0
 10
9.1444584551
 20
9.5488763197
 30
0.0
 10
9.1332795537
 20
9.5544057912
 30
0.0
 10
9.1224778204
 20
9.560712378
 30
0.0
 10
9.1121108364
 20
9.5677624033
 30
0.0
 10
9.102233831
 20
9.575518249
 30
0.0
 10
9.0928994349
 20
9.5839385496
 30
0.0
 10
9.0841573912
 20
9.5929784121
 30
0.0
 10
9.0760542958
 20
9.6025896531
 30
0.0
 10
9.0686333509
 20
9.6127210529
 30
0.0
 10
9.0619341371
 20
9.6233186258
 30
0.0
 10
9.0559924039
 20
9.6343259045
 30
0.0
 10
9.05083988
 20
9.6456842377
 30
0.0
 10
9.0465041052
 20
9.6573330983
 30
0.0
 10
9.043008283
 20
9.6692104024
 30
0.0
 10
9.0403711563
 20
9.6812528353
 30
0.0
 10
9.0386069049
 20
9.6933961843
 30
0.0
 10
9.0377250681
 20
9.7055756778
 30
0.0
 10
9.0377304869
 20
9.7177263227
 30
0.0
 10
9.0386232799
 20
9.7297832605
 30
0.0
 10
9.0403988119
 20
9.7416820635
 30
0.0
 10
9.0430477996
 20
9.7533592522
 30
0.0
 10
9.0465560258
 20
9.7647519895
 30
0.0
 10
9.0501841118
 20
9.7739680408
 30
0.0
 10
9.0534949158
 20
9.7811349466
 30
0.0
 10
9.0570679177
 20
9.7881460144
 30
0.0
 10
9.0620288158
 20
9.7966262663
 30
0.0
 10
9.0676277618
 20
9.8046859776
 30
0.0
 10
9.0724660714
 20
9.8108466154
 30
0.0
 10
9.0775351798
 20
9.8168061708
 30
0.0
 10
9.0815964324
 20
9.8210488498
 30
0.0
 10
9.0844082113
 20
9.8237648031
 30
0.0
  0
SPLINE
  5
34D
100
AcDbEntity
  8
0
100
AcDbSpline
 62
7
  6
CONTINUOUS
 70
0
 71
3
 72
21
 73
17
 74
0
 42
0.0000001
 43
0.0000001
 44
0.0000000001
 40
0.0
 40
0.0
 40
0.0
 40
0.0
 40
0.06165322
 40
0.1233294719
 40
0.1850515326
 40
0.2468416528
 40
0.308721334
 40
0.3707110997
 40
0.4328302469
 40
0.4950966389
 40
0.5575265783
 40
0.620134583
 40
0.6829331586
 40
0.745933179
 40
0.8725262751
 40
1.0
 40
1.0
 40
1.0
 40
1.0
 10
12.4626588336
 20
7.1852983608
 30
0.0
 10
12.4607286473
 20
7.1834339554
 30
0.0
 10
12.4567663984
 20
7.1798075629
 30
0.0
 10
12.4505381009
 20
7.1746941727
 30
0.0
 10
12.4440393346
 20
7.1699187864
 30
0.0
 10
12.4372867053
 20
7.1654936403
 30
0.0
 10
12.4302971911
 20
7.1614297877
 30
0.0
 10
12.4230884134
 20
7.157737482
 30
0.0
 10
12.4156785188
 20
7.1544260401
 30
0.0
 10
12.4080862026
 20
7.1515037492
 30
0.0
 10
12.400330575
 20
7.1489779467
 30
0.0
 10
12.3924312223
 20
7.146855019
 30
0.0
 10
12.3844078197
 20
7.145140252
 30
0.0
 10
12.3735562373
 20
7.1434012438
 30
0.0
 10
12.3597764583
 20
7.1422714571
 30
0.0
 10
12.3486983472
 20
7.1424876594
 30
0.0
 10
12.3431630832
 20
7.1428715313
 30
0.0
  0
SPLINE
  5
34E
100
AcDbEntity
  8
0
100
AcDbSpline
 62
7
  6
CONTINUOUS
 70
0
 71
3
 72
53
 73
49
 74
0
 42
0.0000001
 43
0.0000001
 44
0.0000000001
 40
0.0
 40
0.0
 40
0.0
 40
0.0
 40
0.049977977
 40
0.0993158238
 40
0.1479275978
 40
0.1957333188
 40
0.2426525021
 40
0.2886074965
 40
0.3335228209
 40
0.3773254927
 40
0.4199453107
 40
0.4613150708
 40
0.5013708891
 40
0.5400525146
 40
0.5773036508
 40
0.613072349
 40
0.6473114751
 40
0.6799793005
 40
0.7110401649
 40
0.7404652901
 40
0.7545581649
 40
0.7682350653
 40
0.7814947995
 40
0.7943369973
 40
0.806761939
 40
0.8187707847
 40
0.8303656606
 40
0.8415496191
 40
0.8523269935
 40
0.8627033118
 40
0.8726855735
 40
0.8822824605
 40
0.89150438
 40
0.9003639132
 40
0.9088758729
 40
0.9170576435
 40
0.9249294973
 40
0.9325146981
 40
0.9398398849
 40
0.9469350776
 40
0.9538337363
 40
0.9605726625
 40
0.9671915756
 40
0.9737326422
 40
0.9802396701
 40
0.9867572209
 40
0.9933296157
 40
1.0
 40
1.0
 40
1.0
 40
1.0
 10
13.0497629662
 20
9.3389041964
 30
0.0
 10
13.0497629662
 20
9.3467808172
 30
0.0
 10
13.0496737904
 20
9.3624333324
 30
0.0
 10
13.0492674299
 20
9.3857439757
 30
0.0
 10
13.0485899675
 20
9.4087058738
 30
0.0
 10
13.0476427211
 20
9.4312767308
 30
0.0
 10
13.0464274094
 20
9.4534154472
 30
0.0
 10
13.0449462971
 20
9.4750814382
 30
0.0
 10
13.0432021297
 20
9.4962350921
 30
0.0
 10
13.0411981368
 20
9.5168377226
 30
0.0
 10
13.0389380285
 20
9.5368516569
 30
0.0
 10
13.036425982
 20
9.5562403119
 30
0.0
 10
13.0336666458
 20
9.574968265
 30
0.0
 10
13.0306651317
 20
9.5930013268
 30
0.0
 10
13.0274269944
 20
9.6103066007
 30
0.0
 10
13.023958224
 20
9.6268525515
 30
0.0
 10
13.0202652262
 20
9.6426090528
 30
0.0
 10
13.0163548256
 20
9.6575475408
 30
0.0
 10
13.0122342246
 20
9.6716408
 30
0.0
 10
13.0085809265
 20
9.6828149628
 30
0.0
 10
13.0055504532
 20
9.6913047672
 30
0.0
 10
13.0032625329
 20
9.6973532497
 30
0.0
 10
13.0009278219
 20
9.7031719877
 30
0.0
 10
12.9985474078
 20
9.7087583625
 30
0.0
 10
12.9961223467
 20
9.7141098329
 30
0.0
 10
12.9936537306
 20
9.7192239753
 30
0.0
 10
12.9911427065
 20
9.7240984936
 30
0.0
 10
12.9885903427
 20
9.7287311677
 30
0.0
 10
12.9859978258
 20
9.7331199346
 30
0.0
 10
12.9833662731
 20
9.7372628135
 30
0.0
 10
12.9806968202
 20
9.7411579358
 30
0.0
 10
12.9779906631
 20
9.7448035811
 30
0.0
 10
12.9752488889
 20
9.7481980689
 30
0.0
 10
12.9724726948
 20
9.7513398952
 30
0.0
 10
12.9696632015
 20
9.7542276083
 30
0.0
 10
12.9668215241
 20
9.75685983
 30
0.0
 10
12.9639488478
 20
9.759235334
 30
0.0
 10
12.9610462572
 20
9.7613528414
 30
0.0
 10
12.9581149666
 20
9.7632112419
 30
0.0
 10
12.9551561831
 20
9.7648094194
 30
0.0
 10
12.9521711883
 20
9.7661462755
 30
0.0
 10
12.9491614295
 20
9.7672209195
 30
0.0
 10
12.9461284157
 20
9.768032402
 30
0.0
 10
12.9430738481
 20
9.768580095
 30
0.0
 10
12.939999532
 20
9.7688635361
 30
0.0
 10
12.9369072654
 20
9.7688824464
 30
0.0
 10
12.9337991658
 20
9.7686370466
 30
0.0
 10
12.9317366424
 20
9.7683004637
 30
0.0
 10
12.9307066166
 20
9.7680902151
 30
0.0
  0
SPLINE
  5
34F
100
AcDbEntity
  8
0
100
AcDbSpline
 62
7
  6
CONTINUOUS
 70
0
 71
3
 72
10
 73
6
 74
0
 42
0.0000001
 43
0.0000001
 44
0.0000000001
 40
0.0
 40
0.0
 40
0.0
 40
0.0
 40
0.2667371766
 40
0.5219138543
 40
1.0
 40
1.0
 40
1.0
 40
1.0
 10
9.9355496414
 20
10.2005916078
 30
0.0
 10
9.9344241869
 20
10.1995045021
 30
0.0
 10
9.9322726478
 20
10.1973235747
 30
0.0
 10
9.9283827957
 20
10.1929308168
 30
0.0
 10
9.9258100685
 20
10.189464107
 30
0.0
 10
9.9243060455
 20
10.1870969174
 30
0.0
  0
SPLINE
  5
350
100
AcDbEntity
  8
0
100
AcDbSpline
 62
7
  6
CONTINUOUS
 70
0
 71
3
 72
78
 73
74
 74
0
 42
0.0000001
 43
0.0000001
 44
0.0000000001
 40
0.0
 40
0.0
 40
0.0
 40
0.0
 40
0.0038331136
 40
0.0078149747
 40
0.0119492051
 40
0.0162389104
 40
0.0206867722
 40
0.0252949834
 40
0.0300651393
 40
0.0349983899
 40
0.0400955205
 40
0.0453569321
 40
0.0563722628
 40
0.0680424742
 40
0.080361075
 40
0.0933182388
 40
0.1069012388
 40
0.1210948041
 40
0.1358814302
 40
0.1512416182
 40
0.1671540658
 40
0.1835958193
 40
0.2005424378
 40
0.2179681276
 40
0.2358458555
 40
0.2541474412
 40
0.272843663
 40
0.2919043612
 40
0.3112985249
 40
0.3309943697
 40
0.350959418
 40
0.3711605912
 40
0.3915642881
 40
0.4328420256
 40
0.4745169097
 40
0.5163090858
 40
0.5579376769
 40
0.5991232263
 40
0.6194638595
 40
0.6395908332
 40
0.6594707077
 40
0.6790705909
 40
0.6983582296
 40
0.7173020872
 40
0.7358714208
 40
0.7540363656
 40
0.7717680362
 40
0.7890386255
 40
0.8058214936
 40
0.8220912739
 40
0.8378240003
 40
0.8529972571
 40
0.8675903151
 40
0.8815843036
 40
0.8949624214
 40
0.9077102121
 40
0.9198158646
 40
0.9312705902
 40
0.9367523187
 40
0.9420696899
 40
0.9472226784
 40
0.9522116136
 40
0.9570371533
 40
0.9617003101
 40
0.966202566
 40
0.9705458219
 40
0.9747325254
 40
0.978765716
 40
0.9826490461
 40
0.9863869453
 40
0.9899846219
 40
0.993448188
 40
1.0
 40
1.0
 40
1.0
 40
1.0
 10
9.9355496414
 20
10.2005916078
 30
0.0
 10
9.93655749
 20
10.2015651149
 30
0.0
 10
9.9386553794
 20
10.2035057106
 30
0.0
 10
9.941976673
 20
10.2063444524
 30
0.0
 10
9.9455297857
 20
10.2091642032
 30
0.0
 10
9.9493129775
 20
10.2119635581
 30
0.0
 10
9.9533245607
 20
10.2147413779
 30
0.0
 10
9.9575628154
 20
10.2174964368
 30
0.0
 10
9.9620258576
 20
10.2202275784
 30
0.0
 10
9.9667116993
 20
10.2229335749
 30
0.0
 10
9.9716182675
 20
10.2256132127
 30
0.0
 10
9.9785581895
 20
10.2292043636
 30
0.0
 10
9.9877795246
 20
10.2336090676
 30
0.0
 10
9.9995251415
 20
10.2386930373
 30
0.0
 10
10.0120934293
 20
10.2436440493
 30
0.0
 10
10.0254619174
 20
10.2484531937
 30
0.0
 10
10.0396068814
 20
10.2531118088
 30
0.0
 10
10.0545030516
 20
10.2576114852
 30
0.0
 10
10.0701237838
 20
10.2619440818
 30
0.0
 10
10.0864410919
 20
10.2661017502
 30
0.0
 10
10.1034257061
 20
10.2700769505
 30
0.0
 10
10.1210471229
 20
10.2738624867
 30
0.0
 10
10.139273673
 20
10.277451502
 30
0.0
 10
10.1580725883
 20
10.2808374933
 30
0.0
 10
10.1774100593
 20
10.2840143203
 30
0.0
 10
10.1972512917
 20
10.2869762311
 30
0.0
 10
10.2175605734
 20
10.2897178677
 30
0.0
 10
10.2383013464
 20
10.2922342668
 30
0.0
 10
10.2594362727
 20
10.2945208687
 30
0.0
 10
10.2809273005
 20
10.296573533
 30
0.0
 10
10.302735719
 20
10.2983885463
 30
0.0
 10
10.3248222858
 20
10.2999626483
 30
0.0
 10
10.3547030056
 20
10.3017431334
 30
0.0
 10
10.392455782
 20
10.3033425142
 30
0.0
 10
10.4380520698
 20
10.3042606384
 30
0.0
 10
10.4837859253
 20
10.3041780294
 30
0.0
 10
10.5293279747
 20
10.3030953158
 30
0.0
 10
10.5670009842
 20
10.3013592592
 30
0.0
 10
10.5967909969
 20
10.2994702131
 30
0.0
 10
10.6187901932
 20
10.297816301
 30
0.0
 10
10.6404982254
 20
10.2959225118
 30
0.0
 10
10.6618760316
 20
10.2937922424
 30
0.0
 10
10.6828851094
 20
10.2914293583
 30
0.0
 10
10.703487637
 20
10.2888381381
 30
0.0
 10
10.7236465237
 20
10.2860232728
 30
0.0
 10
10.743325481
 20
10.2829898528
 30
0.0
 10
10.7624890944
 20
10.2797433707
 30
0.0
 10
10.7811028909
 20
10.2762897131
 30
0.0
 10
10.7991333957
 20
10.2726351368
 30
0.0
 10
10.8165481923
 20
10.2687862606
 30
0.0
 10
10.8333159898
 20
10.2647500521
 30
0.0
 10
10.8494066907
 20
10.2605338325
 30
0.0
 10
10.8647914414
 20
10.2561452411
 30
0.0
 10
10.8794426904
 20
10.2515922232
 30
0.0
 10
10.8933342253
 20
10.246883006
 30
0.0
 10
10.9064413301
 20
10.2420260912
 30
0.0
 10
10.9187405374
 20
10.2370302387
 30
0.0
 10
10.9284357866
 20
10.2326975365
 30
0.0
 10
10.9357626361
 20
10.2291611873
 30
0.0
 10
10.9409615617
 20
10.2265187426
 30
0.0
 10
10.9459427164
 20
10.2238483469
 30
0.0
 10
10.950703896
 20
10.2211511908
 30
0.0
 10
10.9552429833
 20
10.2184284872
 30
0.0
 10
10.9595579389
 20
10.2156813988
 30
0.0
 10
10.9636468735
 20
10.212911187
 30
0.0
 10
10.9675079533
 20
10.210119026
 30
0.0
 10
10.9711394683
 20
10.207306131
 30
0.0
 10
10.9745398255
 20
10.2044737509
 30
0.0
 10
10.9777074922
 20
10.2016230134
 30
0.0
 10
10.9806410213
 20
10.1987552536
 30
0.0
 10
10.9833393183
 20
10.1958713423
 30
0.0
 10
10.9865612458
 20
10.19207744
 30
0.0
 10
10.9887173852
 20
10.1891060802
 30
0.0
 10
10.9900012745
 20
10.1870841754
 30
0.0
  0
SPLINE
  5
351
100
AcDbEntity
  8
0
100
AcDbSpline
 62
7
  6
CONTINUOUS
 70
0
 71
3
 72
82
 73
78
 74
0
 42
0.0000001
 43
0.0000001
 44
0.0000000001
 40
0.0
 40
0.0
 40
0.0
 40
0.0
 40
0.0038964297
 40
0.0079480606
 40
0.012158743
 40
0.0165317718
 40
0.0210699698
 40
0.0257756129
 40
0.0306503235
 40
0.0356952693
 40
0.0409112039
 40
0.0462984858
 40
0.0518571803
 40
0.0575869814
 40
0.0695569228
 40
0.0822012747
 40
0.095508873
 40
0.1094654708
 40
0.1240541154
 40
0.1392554588
 40
0.1550480254
 40
0.1714084247
 40
0.1883115291
 40
0.2057306189
 40
0.2236375304
 40
0.2420027892
 40
0.2607957257
 40
0.2799845794
 40
0.2995365937
 40
0.3194181239
 40
0.3395947342
 40
0.3600312884
 40
0.3806920361
 40
0.4015406996
 40
0.4436538948
 40
0.4860742486
 40
0.5285015934
 40
0.5706357039
 40
0.5914999864
 40
0.6121797505
 40
0.6326386792
 40
0.6528409678
 40
0.6727514123
 40
0.6923355081
 40
0.7115595388
 40
0.7303906667
 40
0.7487970279
 40
0.766747838
 40
0.7842135107
 40
0.8011657644
 40
0.8175777431
 40
0.8334241532
 40
0.8486814274
 40
0.8633279122
 40
0.8773440627
 40
0.8907126903
 40
0.9034192667
 40
0.9154523171
 40
0.9268039021
 40
0.9322230984
 40
0.9374708882
 40
0.9425475929
 40
0.9474539016
 40
0.9521908889
 40
0.956760142
 40
0.9611637111
 40
0.9654042531
 40
0.9694850709
 40
0.9734101586
 40
0.9771843701
 40
0.9808134215
 40
0.9843040581
 40
0.9876641434
 40
0.9909027229
 40
0.994030181
 40
0.9970582349
 40
1.0
 40
1.0
 40
1.0
 40
1.0
 10
9.9481066778
 20
10.1997207743
 30
0.0
 10
9.9491165828
 20
10.2006962677
 30
0.0
 10
9.9512209668
 20
10.2026406222
 30
0.0
 10
9.9545567343
 20
10.2054829571
 30
0.0
 10
9.9581306657
 20
10.2083056864
 30
0.0
 10
9.9619409194
 20
10.2111073484
 30
0.0
 10
9.9659857182
 20
10.2138867413
 30
0.0
 10
9.9702632323
 20
10.2166425729
 30
0.0
 10
9.9747714528
 20
10.2193736296
 30
0.0
 10
9.9795082756
 20
10.2220786035
 30
0.0
 10
9.9844714767
 20
10.2247562147
 30
0.0
 10
9.9896587088
 20
10.2274052416
 30
0.0
 10
9.9950675632
 20
10.2300244158
 30
0.0
 10
10.0026827263
 20
10.2335263178
 30
0.0
 10
10.0127458782
 20
10.2378106744
 30
0.0
 10
10.0254930043
 20
10.2427414312
 30
0.0
 10
10.0390576545
 20
10.2475245379
 30
0.0
 10
10.0534142368
 20
10.2521508946
 30
0.0
 10
10.0685358114
 20
10.2566116969
 30
0.0
 10
10.0843938662
 20
10.2608984442
 30
0.0
 10
10.1009584735
 20
10.2650029573
 30
0.0
 10
10.1181983343
 20
10.2689174009
 30
0.0
 10
10.1360808451
 20
10.2726342972
 30
0.0
 10
10.1545721583
 20
10.2761465539
 30
0.0
 10
10.1736372532
 20
10.2794474715
 30
0.0
 10
10.1932400116
 20
10.2825307516
 30
0.0
 10
10.2133432889
 20
10.2853905101
 30
0.0
 10
10.2339089815
 20
10.2880212874
 30
0.0
 10
10.2548980984
 20
10.2904180711
 30
0.0
 10
10.2762708388
 20
10.2925762935
 30
0.0
 10
10.2979866756
 20
10.2944918418
 30
0.0
 10
10.3200044173
 20
10.2961610561
 30
0.0
 10
10.3422823392
 20
10.2975807746
 30
0.0
 10
10.3723762741
 20
10.2991425261
 30
0.0
 10
10.4103324704
 20
10.3004492919
 30
0.0
 10
10.4560841415
 20
10.3009876627
 30
0.0
 10
10.5018438862
 20
10.3004971127
 30
0.0
 10
10.5398171187
 20
10.2992301394
 30
0.0
 10
10.5699327229
 20
10.2977000592
 30
0.0
 10
10.5922327033
 20
10.2963036937
 30
0.0
 10
10.6142764175
 20
10.2946575669
 30
0.0
 10
10.6360220894
 20
10.2927647919
 30
0.0
 10
10.6574284669
 20
10.2906289771
 30
0.0
 10
10.6784549586
 20
10.2882541958
 30
0.0
 10
10.6990616975
 20
10.2856449791
 30
0.0
 10
10.7192096167
 20
10.2828063026
 30
0.0
 10
10.7388605225
 20
10.2797435787
 30
0.0
 10
10.7579771727
 20
10.2764626451
 30
0.0
 10
10.7765233529
 20
10.2729697675
 30
0.0
 10
10.7944639446
 20
10.2692716139
 30
0.0
 10
10.8117649895
 20
10.2653752431
 30
0.0
 10
10.8283937576
 20
10.2612880895
 30
0.0
 10
10.8443188217
 20
10.2570179512
 30
0.0
 10
10.8595101244
 20
10.2525729826
 30
0.0
 10
10.8739390458
 20
10.2479616593
 30
0.0
 10
10.8875784341
 20
10.2431927649
 30
0.0
 10
10.9004027725
 20
10.2382753438
 30
0.0
 10
10.9123879091
 20
10.2332187272
 30
0.0
 10
10.921798081
 20
10.2288315261
 30
0.0
 10
10.9288795496
 20
10.2252513002
 30
0.0
 10
10.9338846114
 20
10.2225788842
 30
0.0
 10
10.9386637173
 20
10.2198789116
 30
0.0
 10
10.9432146429
 20
10.2171526321
 30
0.0
 10
10.9475352338
 20
10.2144012779
 30
0.0
 10
10.9516234987
 20
10.2116261757
 30
0.0
 10
10.9554775075
 20
10.2088285592
 30
0.0
 10
10.959095467
 20
10.2060097172
 30
0.0
 10
10.9624757066
 20
10.2031709463
 30
0.0
 10
10.9656166049
 20
10.2003134626
 30
0.0
 10
10.9685167271
 20
10.1974385836
 30
0.0
 10
10.9711746608
 20
10.1945475201
 30
0.0
 10
10.9735891138
 20
10.1916415216
 30
0.0
 10
10.9757589138
 20
10.188721848
 30
0.0
 10
10.9776828497
 20
10.1857897057
 30
0.0
 10
10.9793599367
 20
10.1828463325
 30
0.0
 10
10.9807890384
 20
10.1798932238
 30
0.0
 10
10.9815862329
 20
10.177892645
 30
0.0
 10
10.9819407611
 20
10.1768936047
 30
0.0
  0
SPLINE
  5
352
100
AcDbEntity
  8
0
100
AcDbSpline
 62
7
  6
CONTINUOUS
 70
0
 71
3
 72
77
 73
73
 74
0
 42
0.0000001
 43
0.0000001
 44
0.0000000001
 40
0.0
 40
0.0
 40
0.0
 40
0.0
 40
0.0038557029
 40
0.0078624606
 40
0.0120239763
 40
0.0163434232
 40
0.0208235337
 40
0.0254665308
 40
0.0302740199
 40
0.0352471576
 40
0.0403867187
 40
0.0456930891
 40
0.0568058066
 40
0.068583121
 40
0.0810181513
 40
0.094100599
 40
0.107817203
 40
0.122152096
 40
0.1370871212
 40
0.1526020796
 40
0.1686749317
 40
0.1852819555
 40
0.2023978997
 40
0.2199961303
 40
0.2380487491
 40
0.2565266977
 40
0.2753998502
 40
0.2946371236
 40
0.3142065719
 40
0.3340754717
 40
0.3542104014
 40
0.395140999
 40
0.4367210554
 40
0.4786666955
 40
0.5206908078
 40
0.5625055833
 40
0.6038250715
 40
0.6242112068
 40
0.6443684344
 40
0.6642626776
 40
0.6838604579
 40
0.7031289772
 40
0.7220362124
 40
0.7405510068
 40
0.758643152
 40
0.7762834822
 40
0.793443979
 40
0.8100978956
 40
0.8262198628
 40
0.8417860155
 40
0.8567741404
 40
0.8711638617
 40
0.8849368422
 40
0.8980770074
 40
0.9105708358
 40
0.9224077287
 40
0.9335804872
 40
0.9389169493
 40
0.9440865313
 40
0.9490896007
 40
0.9539268582
 40
0.9585993871
 40
0.9631087526
 40
0.9674569583
 40
0.9716465918
 40
0.9756808461
 40
0.9795635718
 40
0.9832994322
 40
0.9868939024
 40
0.9903534263
 40
0.9936855015
 40
1.0
 40
1.0
 40
1.0
 40
1.0
 10
9.9582488996
 20
10.1814505655
 30
0.0
 10
9.9592222176
 20
10.1823907185
 30
0.0
 10
9.9612490014
 20
10.1842647562
 30
0.0
 10
9.9644591865
 20
10.1870054714
 30
0.0
 10
9.9678952968
 20
10.1897276458
 30
0.0
 10
9.9715556181
 20
10.1924299038
 30
0.0
 10
9.9754384908
 20
10.1951111249
 30
0.0
 10
9.9795422175
 20
10.1977701024
 30
0.0
 10
9.9838649368
 20
10.2004057019
 30
0.0
 10
9.9884046897
 20
10.2030167079
 30
0.0
 10
9.993159426
 20
10.2056019357
 30
0.0
 10
9.9998866931
 20
10.2090664026
 30
0.0
 10
10.00882777
 20
10.2133145224
 30
0.0
 10
10.020218591
 20
10.2182155271
 30
0.0
 10
10.0324098524
 20
10.2229863627
 30
0.0
 10
10.0453793425
 20
10.2276182809
 30
0.0
 10
10.0591036064
 20
10.2321027741
 30
0.0
 10
10.0735576585
 20
10.2364315902
 30
0.0
 10
10.0887151491
 20
10.2405967474
 30
0.0
 10
10.1045484
 20
10.2445905572
 30
0.0
 10
10.1210284679
 20
10.2484056391
 30
0.0
 10
10.1381251927
 20
10.252034948
 30
0.0
 10
10.1558072604
 20
10.2554717873
 30
0.0
 10
10.1740422711
 20
10.258709811
 30
0.0
 10
10.1927968029
 20
10.2617430388
 30
0.0
 10
10.2120364691
 20
10.2645658666
 30
0.0
 10
10.2317259796
 20
10.2671730906
 30
0.0
 10
10.2518292151
 20
10.269559904
 30
0.0
 10
10.2723092851
 20
10.2717218964
 30
0.0
 10
10.2931286441
 20
10.2736551007
 30
0.0
 10
10.3214430344
 20
10.2759351689
 30
0.0
 10
10.3574019712
 20
10.2781811387
 30
0.0
 10
10.4010518418
 20
10.2799047891
 30
0.0
 10
10.4451131164
 20
10.2806583672
 30
0.0
 10
10.4892626332
 20
10.280436326
 30
0.0
 10
10.5331765903
 20
10.2792402434
 30
0.0
 10
10.5694674727
 20
10.2774314214
 30
0.0
 10
10.5981341887
 20
10.2754976075
 30
0.0
 10
10.6192798279
 20
10.2738178657
 30
0.0
 10
10.6401278564
 20
10.2719054745
 30
0.0
 10
10.660640047
 20
10.2697639367
 30
0.0
 10
10.6807787502
 20
10.2673972028
 30
0.0
 10
10.7005070187
 20
10.2648096376
 30
0.0
 10
10.7197886642
 20
10.2620060208
 30
0.0
 10
10.7385883238
 20
10.2589915264
 30
0.0
 10
10.7568715217
 20
10.2557717163
 30
0.0
 10
10.7746047404
 20
10.2523525288
 30
0.0
 10
10.7917554886
 20
10.2487402834
 30
0.0
 10
10.8082923598
 20
10.2449416526
 30
0.0
 10
10.8241850873
 20
10.2409636516
 30
0.0
 10
10.8394046061
 20
10.2368136199
 30
0.0
 10
10.8539231189
 20
10.2324992185
 30
0.0
 10
10.8677141635
 20
10.2280284103
 30
0.0
 10
10.8807526348
 20
10.2234094323
 30
0.0
 10
10.8930149335
 20
10.2186507597
 30
0.0
 10
10.9044787082
 20
10.2137611211
 30
0.0
 10
10.9134822363
 20
10.2095222614
 30
0.0
 10
10.9202605077
 20
10.2060648739
 30
0.0
 10
10.9250537358
 20
10.2034843958
 30
0.0
 10
10.9296323722
 20
10.20087796
 30
0.0
 10
10.9339943483
 20
10.1982467176
 30
0.0
 10
10.938137669
 20
10.1955918297
 30
0.0
 10
10.9420604864
 20
10.1929145336
 30
0.0
 10
10.9457610034
 20
10.1902159757
 30
0.0
 10
10.949237558
 20
10.1874973688
 30
0.0
 10
10.9524885941
 20
10.1847599157
 30
0.0
 10
10.9555125971
 20
10.1820047634
 30
0.0
 10
10.9583082492
 20
10.1792331153
 30
0.0
 10
10.960874168
 20
10.1764462063
 30
0.0
 10
10.9632093755
 20
10.1736448437
 30
0.0
 10
10.9659637258
 20
10.1699594048
 30
0.0
 10
10.9677608721
 20
10.1670769531
 30
0.0
 10
10.9688033487
 20
10.1651212562
 30
0.0
  0
SPLINE
  5
353
100
AcDbEntity
  8
0
100
AcDbSpline
 62
7
  6
CONTINUOUS
 70
0
 71
3
 72
39
 73
35
 74
0
 42
0.0000001
 43
0.0000001
 44
0.0000000001
 40
0.0
 40
0.0
 40
0.0
 40
0.0
 40
0.025566145
 40
0.0521821005
 40
0.0797948893
 40
0.1083477924
 40
0.1377807214
 40
0.168030553
 40
0.1990314368
 40
0.2307150814
 40
0.2630110238
 40
0.2958468889
 40
0.3291486401
 40
0.3628408242
 40
0.3968468126
 40
0.4310890383
 40
0.465489232
 40
0.4999686571
 40
0.5344483431
 40
0.5688493196
 40
0.6030928485
 40
0.6371006576
 40
0.6707951749
 40
0.7040997641
 40
0.7369389625
 40
0.7692387216
 40
0.8009266535
 40
0.8319322824
 40
0.8621873028
 40
0.8916258489
 40
0.9201847808
 40
0.9478039893
 40
0.9744267309
 40
1.0
 40
1.0
 40
1.0
 40
1.0
 10
10.0891528047
 20
10.1075360407
 30
0.0
 10
10.0952687162
 20
10.1091432941
 30
0.0
 10
10.1077927862
 20
10.1122689533
 30
0.0
 10
10.1270453887
 20
10.1166194994
 30
0.0
 10
10.1471076371
 20
10.1207187198
 30
0.0
 10
10.1679302791
 20
10.1245564364
 30
0.0
 10
10.189462367
 20
10.128123169
 30
0.0
 10
10.2116511298
 20
10.1314100971
 30
0.0
 10
10.2344421821
 20
10.1344090978
 30
0.0
 10
10.2577796413
 20
10.1371127613
 30
0.0
 10
10.2816062737
 20
10.1395144091
 30
0.0
 10
10.3058636357
 20
10.1416081104
 30
0.0
 10
10.3304922194
 20
10.1433886958
 30
0.0
 10
10.3554316001
 20
10.1448517694
 30
0.0
 10
10.380620586
 20
10.1459937199
 30
0.0
 10
10.4059973688
 20
10.1468117283
 30
0.0
 10
10.4314996767
 20
10.1473037762
 30
0.0
 10
10.4570649285
 20
10.14746865
 30
0.0
 10
10.4826303878
 20
10.1473059433
 30
0.0
 10
10.5081333179
 20
10.1468160577
 30
0.0
 10
10.5335111367
 20
10.1460002023
 30
0.0
 10
10.5587015704
 20
10.1448603901
 30
0.0
 10
10.5836428075
 20
10.1433994341
 30
0.0
 10
10.6082736511
 20
10.1416209399
 30
0.0
 10
10.6325336701
 20
10.1395292973
 30
0.0
 10
10.6563633491
 20
10.13712967
 30
0.0
 10
10.6797042363
 20
10.1344279842
 30
0.0
 10
10.7024990898
 20
10.131430914
 30
0.0
 10
10.7246920187
 20
10.1281458651
 30
0.0
 10
10.7462286286
 20
10.1245809563
 30
0.0
 10
10.7670561383
 20
10.1207450036
 30
0.0
 10
10.7871235891
 20
10.1166474849
 30
0.0
 10
10.8063817131
 20
10.1122985661
 30
0.0
 10
10.8189096045
 20
10.1091740151
 30
0.0
 10
10.8250274779
 20
10.1075672945
 30
0.0
  0
SPLINE
  5
354
100
AcDbEntity
  8
0
100
AcDbSpline
 62
7
  6
CONTINUOUS
 70
0
 71
3
 72
23
 73
19
 74
0
 42
0.0000001
 43
0.0000001
 44
0.0000000001
 40
0.0
 40
0.0
 40
0.0
 40
0.0
 40
0.0598250396
 40
0.1207117892
 40
0.1825149106
 40
0.2450861081
 40
0.3082746322
 40
0.3719277767
 40
0.4358913712
 40
0.5000102705
 40
0.5641288426
 40
0.6280914575
 40
0.6917429742
 40
0.7549292282
 40
0.8174975205
 40
0.8792971104
 40
0.9401797123
 40
1.0
 40
1.0
 40
1.0
 40
1.0
 10
10.2712601119
 20
10.0786729794
 30
0.0
 10
10.2786441221
 20
10.0794990792
 30
0.0
 10
10.2935564239
 20
10.0810496532
 30
0.0
 10
10.3161357809
 20
10.0830583302
 30
0.0
 10
10.3390818756
 20
10.0847668562
 30
0.0
 10
10.3623349771
 20
10.0861707568
 30
0.0
 10
10.3858346441
 20
10.0872663594
 30
0.0
 10
10.4095197647
 20
10.0880507971
 30
0.0
 10
10.4333287488
 20
10.0885220175
 30
0.0
 10
10.4571996804
 20
10.0886787871
 30
0.0
 10
10.4810704816
 20
10.0885206963
 30
0.0
 10
10.5048790751
 20
10.0880481592
 30
0.0
 10
10.5285635463
 20
10.0872624124
 30
0.0
 10
10.5520623069
 20
10.0861655115
 30
0.0
 10
10.5753142476
 20
10.0847603265
 30
0.0
 10
10.5982589298
 20
10.0830505327
 30
0.0
 10
10.6208366261
 20
10.0810406093
 30
0.0
 10
10.6357477299
 20
10.0794891999
 30
0.0
 10
10.6431311001
 20
10.0786626881
 30
0.0
  0
SPLINE
  5
355
100
AcDbEntity
  8
0
100
AcDbSpline
 62
7
  6
CONTINUOUS
 70
0
 71
3
 72
58
 73
54
 74
0
 42
0.0000001
 43
0.0000001
 44
0.0000000001
 40
0.0
 40
0.0
 40
0.0
 40
0.0
 40
0.0417737815
 40
0.0840363436
 40
0.1266576064
 40
0.1695052937
 40
0.2124465984
 40
0.2553482464
 40
0.2980771385
 40
0.3405008543
 40
0.3824881812
 40
0.4239096424
 40
0.4646380292
 40
0.5045489411
 40
0.5435213405
 40
0.5814381219
 40
0.6181866987
 40
0.653659626
 40
0.6708859796
 40
0.6877558271
 40
0.7042574788
 40
0.7203797493
 40
0.7361118978
 40
0.7514437445
 40
0.7663656515
 40
0.7808685697
 40
0.7949441266
 40
0.8085845926
 40
0.8217830416
 40
0.8345333253
 40
0.8468302039
 40
0.858669439
 40
0.8700478439
 40
0.8809635106
 40
0.8914158534
 40
0.9014058857
 40
0.9109363984
 40
0.9200122215
 40
0.9286406186
 40
0.9368315859
 40
0.9445984316
 40
0.9519582536
 40
0.9589326111
 40
0.9655482378
 40
0.9718376879
 40
0.9778400313
 40
0.9836011623
 40
0.9864084693
 40
0.9891757863
 40
0.9919106548
 40
0.9946209077
 40
0.9973146114
 40
1.0
 40
1.0
 40
1.0
 40
1.0
 10
13.1407185641
 20
9.3947605619
 30
0.0
 10
13.1407185641
 20
9.3797052433
 30
0.0
 10
13.1404836863
 20
9.3494179756
 30
0.0
 10
13.1394453247
 20
9.3037806559
 30
0.0
 10
13.1377219109
 20
9.2577766862
 30
0.0
 10
13.1353190849
 20
9.2115583006
 30
0.0
 10
13.1322447901
 20
9.1652784462
 30
0.0
 10
13.1285091864
 20
9.1190902232
 30
0.0
 10
13.1241246461
 20
9.0731464426
 30
0.0
 10
13.1191057072
 20
9.0275990977
 30
0.0
 10
13.1134690224
 20
8.9825988611
 30
0.0
 10
13.1072333048
 20
8.9382945825
 30
0.0
 10
13.1004192669
 20
8.894832794
 30
0.0
 10
13.0930495537
 20
8.8523572131
 30
0.0
 10
13.0851486692
 20
8.8110082792
 30
0.0
 10
13.0767429088
 20
8.7709226042
 30
0.0
 10
13.0678602331
 20
8.7322327732
 30
0.0
 10
13.0600106813
 20
8.7009631984
 30
0.0
 10
13.0535041562
 20
8.6767488896
 30
0.0
 10
13.0485713865
 20
8.6591927613
 30
0.0
 10
13.0435422149
 20
8.642078341
 30
0.0
 10
13.038420823
 20
8.6254197552
 30
0.0
 10
13.0332114297
 20
8.6092307781
 30
0.0
 10
13.0279183761
 20
8.5935247787
 30
0.0
 10
13.0225460482
 20
8.5783147274
 30
0.0
 10
13.0170988823
 20
8.563613182
 30
0.0
 10
13.0115814282
 20
8.5494322636
 30
0.0
 10
13.0059982147
 20
8.535783672
 30
0.0
 10
13.0003539037
 20
8.5226786401
 30
0.0
 10
12.9946531433
 20
8.5101279559
 30
0.0
 10
12.9889006439
 20
8.4981419338
 30
0.0
 10
12.9831011777
 20
8.4867303991
 30
0.0
 10
12.9772594744
 20
8.4759027114
 30
0.0
 10
12.9713803782
 20
8.4656676963
 30
0.0
 10
12.9654686495
 20
8.4560337059
 30
0.0
 10
12.9595291085
 20
8.4470085523
 30
0.0
 10
12.9535665436
 20
8.4385995272
 30
0.0
 10
12.9475856637
 20
8.4308134251
 30
0.0
 10
12.9415912069
 20
8.4236564626
 30
0.0
 10
12.9355877148
 20
8.4171344187
 30
0.0
 10
12.9295797164
 20
8.4112525159
 30
0.0
 10
12.923571543
 20
8.4060155782
 30
0.0
 10
12.9175673651
 20
8.4014280643
 30
0.0
 10
12.9115713286
 20
8.3974940983
 30
0.0
 10
12.9055872395
 20
8.3942177454
 30
0.0
 10
12.8996197999
 20
8.3916029564
 30
0.0
 10
12.8946204327
 20
8.3899644311
 30
0.0
 10
12.8906488543
 20
8.3889997676
 30
0.0
 10
12.8877036245
 20
8.3884490998
 30
0.0
 10
12.8847673229
 20
8.3880653448
 30
0.0
 10
12.8818405099
 20
8.3878485992
 30
0.0
 10
12.8789240104
 20
8.3877989931
 30
0.0
 10
12.8769856996
 20
8.3878774157
 30
0.0
 10
12.8760202015
 20
8.3879443735
 30
0.0
  0
SPLINE
  5
356
100
AcDbEntity
  8
0
100
AcDbSpline
 62
7
  6
CONTINUOUS
 70
0
 71
3
 72
14
 73
10
 74
0
 42
0.0000001
 43
0.0000001
 44
0.0000000001
 40
0.0
 40
0.0
 40
0.0
 40
0.0
 40
0.1414608153
 40
0.2776332769
 40
0.5350080301
 40
0.656915203
 40
0.7747595705
 40
0.8889644529
 40
1.0
 40
1.0
 40
1.0
 40
1.0
 10
9.9481066778
 20
10.1997207743
 30
0.0
 10
9.9471599152
 20
10.1988062718
 30
0.0
 10
9.9453387043
 20
10.1969724148
 30
0.0
 10
9.9419952558
 20
10.1932826187
 30
0.0
 10
9.9390339706
 20
10.18949562
 30
0.0
 10
9.9365118817
 20
10.1856150453
 30
0.0
 10
9.9348889356
 20
10.1827463841
 30
0.0
 10
9.9335015099
 20
10.1798686578
 30
0.0
 10
9.9327241964
 20
10.1779199391
 30
0.0
 10
9.9323773458
 20
10.1769466988
 30
0.0
  0
SPLINE
  5
357
100
AcDbEntity
  8
0
100
AcDbSpline
 62
7
  6
CONTINUOUS
 70
0
 71
3
 72
49
 73
45
 74
0
 42
0.0000001
 43
0.0000001
 44
0.0000000001
 40
0.0
 40
0.0
 40
0.0
 40
0.0
 40
0.0468112541
 40
0.0930941702
 40
0.1387838341
 40
0.1838202346
 40
0.2281425487
 40
0.271691861
 40
0.3144106695
 40
0.3562430017
 40
0.3971346346
 40
0.4370332164
 40
0.4758884475
 40
0.5136522215
 40
0.5502788016
 40
0.5857250352
 40
0.6199506116
 40
0.6529182901
 40
0.68459419
 40
0.7149481492
 40
0.74395419
 40
0.7715910152
 40
0.7978426282
 40
0.8104461105
 40
0.8227001847
 40
0.8346046991
 40
0.8461600981
 40
0.8573673865
 40
0.8682281471
 40
0.878744746
 40
0.888920234
 40
0.8987585385
 40
0.9082645558
 40
0.9174441461
 40
0.9263044114
 40
0.9348536914
 40
0.9431017383
 40
0.9510599408
 40
0.9587413454
 40
0.9733305733
 40
0.980279775
 40
0.9870248555
 40
0.9935895771
 40
1.0
 40
1.0
 40
1.0
 40
1.0
 10
13.1098089351
 20
9.396904152
 30
0.0
 10
13.1098089351
 20
9.4067970003
 30
0.0
 10
13.1097086155
 20
9.4264711998
 30
0.0
 10
13.1092520739
 20
9.4557980272
 30
0.0
 10
13.1084908821
 20
9.484743366
 30
0.0
 10
13.1074262283
 20
9.5132645208
 30
0.0
 10
13.1060596481
 20
9.541319977
 30
0.0
 10
13.1043931789
 20
9.5688685837
 30
0.0
 10
13.1024292886
 20
9.5958700423
 30
0.0
 10
13.1001708778
 20
9.622284842
 30
0.0
 10
13.0976212792
 20
9.6480743281
 30
0.0
 10
13.0947842563
 20
9.6732007756
 30
0.0
 10
13.0916640072
 20
9.6976274415
 30
0.0
 10
13.0882651417
 20
9.7213186166
 30
0.0
 10
13.0845926772
 20
9.7442396752
 30
0.0
 10
13.0806520311
 20
9.7663571359
 30
0.0
 10
13.0764490311
 20
9.7876387204
 30
0.0
 10
13.0719898844
 20
9.808053398
 30
0.0
 10
13.0672811703
 20
9.827571436
 30
0.0
 10
13.0623298203
 20
9.8461644304
 30
0.0
 10
13.0571431249
 20
9.8638054578
 30
0.0
 10
13.0517287031
 20
9.8804688101
 30
0.0
 10
13.046971164
 20
9.8936940037
 30
0.0
 10
13.0430482165
 20
9.9037581093
 30
0.0
 10
13.0400940313
 20
9.9109441488
 30
0.0
 10
13.037088941
 20
9.917868265
 30
0.0
 10
13.0340340316
 20
9.9245279607
 30
0.0
 10
13.0309304309
 20
9.930920824
 30
0.0
 10
13.0277792136
 20
9.9370445223
 30
0.0
 10
13.0245815651
 20
9.9428968611
 30
0.0
 10
13.0213385979
 20
9.9484757143
 30
0.0
 10
13.0180514621
 20
9.9537790654
 30
0.0
 10
13.0147213588
 20
9.9588050237
 30
0.0
 10
13.0113493973
 20
9.9635517477
 30
0.0
 10
13.007936799
 20
9.9680175453
 30
0.0
 10
13.0044847054
 20
9.9722008187
 30
0.0
 10
13.0009943327
 20
9.9760999486
 30
0.0
 10
12.9974666393
 20
9.9797137968
 30
0.0
 10
12.9927958873
 20
9.9840743037
 30
0.0
 10
12.9879745093
 20
9.9879552143
 30
0.0
 10
12.9830086893
 20
9.9912874309
 30
0.0
 10
12.979313017
 20
9.9934548394
 30
0.0
 10
12.9755877284
 20
9.9953295157
 30
0.0
 10
12.9730582334
 20
9.9963948995
 30
0.0
 10
12.9717917603
 20
9.9968759207
 30
0.0
  0
SPLINE
  5
358
100
AcDbEntity
  8
0
100
AcDbSpline
 62
7
  6
CONTINUOUS
 70
0
 71
3
 72
10
 73
6
 74
0
 42
0.0000001
 43
0.0000001
 44
0.0000000001
 40
0.0
 40
0.0
 40
0.0
 40
0.0
 40
0.2709977968
 40
0.5272764979
 40
1.0
 40
1.0
 40
1.0
 40
1.0
 10
9.9582488996
 20
10.1814505655
 30
0.0
 10
9.9568972452
 20
10.1801449675
 30
0.0
 10
9.9543427544
 20
10.1775235665
 30
0.0
 10
9.9498584724
 20
10.1722313718
 30
0.0
 10
9.947030021
 20
10.1680014621
 30
0.0
 10
9.9454889268
 20
10.1651081801
 30
0.0
  0
SPLINE
  5
359
100
AcDbEntity
  8
0
100
AcDbSpline
 62
7
  6
CONTINUOUS
 70
0
 71
3
 72
42
 73
38
 74
0
 42
0.0000001
 43
0.0000001
 44
0.0000000001
 40
0.0
 40
0.0
 40
0.0
 40
0.0
 40
0.0311444347
 40
0.0467772112
 40
0.0624471461
 40
0.093891844
 40
0.1254739796
 40
0.1571813629
 40
0.1889992234
 40
0.2209106216
 40
0.2528967716
 40
0.2849374315
 40
0.3170113014
 40
0.34909644
 40
0.3811706886
 40
0.4132120984
 40
0.4451993552
 40
0.4771121951
 40
0.5089318057
 40
0.5406412074
 40
0.572225607
 40
0.6036727182
 40
0.6349730419
 40
0.6661200987
 40
0.6971106068
 40
0.7279445994
 40
0.7586254742
 40
0.7891599701
 40
0.8195580671
 40
0.8498328085
 40
0.864931571
 40
0.8800056544
 40
0.910083706
 40
0.9400929707
 40
0.9550814956
 40
0.9700611828
 40
1.0
 40
1.0
 40
1.0
 40
1.0
 10
12.3431630832
 20
7.1428715313
 30
0.0
 10
12.3391061187
 20
7.1431528827
 30
0.0
 10
12.3330252568
 20
7.1437980257
 30
0.0
 10
12.3249736552
 20
7.1450944995
 30
0.0
 10
12.3169348359
 20
7.1466861714
 30
0.0
 10
12.3069668391
 20
7.1492210545
 30
0.0
 10
12.2952141791
 20
7.1531118995
 30
0.0
 10
12.2837175765
 20
7.1578347223
 30
0.0
 10
12.2725386751
 20
7.1633641938
 30
0.0
 10
12.2617369418
 20
7.1696707806
 30
0.0
 10
12.2513699578
 20
7.1767208059
 30
0.0
 10
12.2414929524
 20
7.1844766516
 30
0.0
 10
12.2321585564
 20
7.1928969522
 30
0.0
 10
12.2234165127
 20
7.2019368147
 30
0.0
 10
12.2153134172
 20
7.2115480556
 30
0.0
 10
12.2078924723
 20
7.2216794554
 30
0.0
 10
12.2011932586
 20
7.2322770283
 30
0.0
 10
12.1952515253
 20
7.2432843071
 30
0.0
 10
12.1900990015
 20
7.2546426402
 30
0.0
 10
12.1857632267
 20
7.2662915009
 30
0.0
 10
12.1822674045
 20
7.278168805
 30
0.0
 10
12.1796302777
 20
7.2902112378
 30
0.0
 10
12.1778660264
 20
7.3023545869
 30
0.0
 10
12.1769841895
 20
7.3145340804
 30
0.0
 10
12.1769896083
 20
7.3266847253
 30
0.0
 10
12.1778824013
 20
7.338741663
 30
0.0
 10
12.1796579334
 20
7.3506404661
 30
0.0
 10
12.182306921
 20
7.3623176548
 30
0.0
 10
12.1858151472
 20
7.3737103921
 30
0.0
 10
12.1894432333
 20
7.3829264433
 30
0.0
 10
12.1927540372
 20
7.3900933492
 30
0.0
 10
12.1963270391
 20
7.397104417
 30
0.0
 10
12.2012879373
 20
7.4055846689
 30
0.0
 10
12.2068868832
 20
7.4136443801
 30
0.0
 10
12.2117251929
 20
7.419805018
 30
0.0
 10
12.2167943012
 20
7.4257645734
 30
0.0
 10
12.2208555539
 20
7.4300072524
 30
0.0
 10
12.2236673328
 20
7.4327232057
 30
0.0
  0
SPLINE
  5
35A
100
AcDbEntity
  8
0
100
AcDbSpline
 62
7
  6
CONTINUOUS
 70
0
 71
3
 72
54
 73
50
 74
0
 42
0.0000001
 43
0.0000001
 44
0.0000000001
 40
0.0
 40
0.0
 40
0.0
 40
0.0
 40
0.0406284843
 40
0.0817179626
 40
0.1231521133
 40
0.1648127219
 40
0.2065810811
 40
0.2483379837
 40
0.2899642949
 40
0.3313413448
 40
0.37235137
 40
0.4128779461
 40
0.4528064255
 40
0.4920243807
 40
0.5304220521
 40
0.5678928086
 40
0.6043336214
 40
0.6396455611
 40
0.6737343249
 40
0.6902921951
 40
0.7065113219
 40
0.7223814634
 40
0.7378928355
 40
0.7530360323
 40
0.7678021669
 40
0.7821827937
 40
0.7961700324
 40
0.8097565446
 40
0.8229356018
 40
0.8357011498
 40
0.8480478096
 40
0.8599710344
 40
0.8714670676
 40
0.8825331657
 40
0.8931675735
 40
0.9033697653
 40
0.9131405122
 40
0.9224821105
 40
0.9313985975
 40
0.9398959752
 40
0.947982603
 40
0.9556694666
 40
0.9629707396
 40
0.9699041653
 40
0.9764917238
 40
0.9827601337
 40
0.9887414557
 40
0.9944735027
 40
1.0
 40
1.0
 40
1.0
 40
1.0
 10
13.1098089351
 20
9.396904152
 30
0.0
 10
13.1098089351
 20
9.3824711813
 30
0.0
 10
13.1095930956
 20
9.3534410566
 30
0.0
 10
13.1086381911
 20
9.3097011947
 30
0.0
 10
13.1070528865
 20
9.2656126845
 30
0.0
 10
13.1048419525
 20
9.2213096986
 30
0.0
 10
13.1020121111
 20
9.1769270512
 30
0.0
 10
13.09857196
 20
9.1325997557
 30
0.0
 10
13.0945319754
 20
9.0884626746
 30
0.0
 10
13.0899044678
 20
9.0446500831
 30
0.0
 10
13.0847035492
 20
9.0012952647
 30
0.0
 10
13.0789450891
 20
8.958530101
 30
0.0
 10
13.0726466683
 20
8.9164846671
 30
0.0
 10
13.0658275257
 20
8.8752868327
 30
0.0
 10
13.0585085009
 20
8.8350618632
 30
0.0
 10
13.0507119694
 20
8.7959320517
 30
0.0
 10
13.0424617847
 20
8.7580162718
 30
0.0
 10
13.0337831761
 20
8.7214298455
 30
0.0
 10
13.0261441151
 20
8.6918621425
 30
0.0
 10
13.0198288166
 20
8.6689630438
 30
0.0
 10
13.015047901
 20
8.6523555796
 30
0.0
 10
13.0101803147
 20
8.6361611155
 30
0.0
 10
13.0052297893
 20
8.6203919417
 30
0.0
 10
13.0002000576
 20
8.6050600496
 30
0.0
 10
12.9950949986
 20
8.5901770788
 30
0.0
 10
12.9899184659
 20
8.5757543363
 30
0.0
 10
12.9846744316
 20
8.5618027653
 30
0.0
 10
12.9793668807
 20
8.5483329516
 30
0.0
 10
12.9739998499
 20
8.5353551087
 30
0.0
 10
12.9685774492
 20
8.5228790624
 30
0.0
 10
12.9631037637
 20
8.5109142648
 30
0.0
 10
12.9575830056
 20
8.4994697464
 30
0.0
 10
12.9520193041
 20
8.4885541633
 30
0.0
 10
12.9464169326
 20
8.4781757214
 30
0.0
 10
12.9407800672
 20
8.4683422422
 30
0.0
 10
12.9351129878
 20
8.4590610859
 30
0.0
 10
12.9294199116
 20
8.4503392004
 30
0.0
 10
12.9237050667
 20
8.4421830872
 30
0.0
 10
12.917972678
 20
8.43459879
 30
0.0
 10
12.9122268625
 20
8.4275919514
 30
0.0
 10
12.9064717807
 20
8.4211677105
 30
0.0
 10
12.9007113783
 20
8.4153308812
 30
0.0
 10
12.894949643
 20
8.410085771
 30
0.0
 10
12.8891903112
 20
8.4054364649
 30
0.0
 10
12.8834371024
 20
8.4013866474
 30
0.0
 10
12.8776936623
 20
8.3979399125
 30
0.0
 10
12.8719633907
 20
8.3950996324
 30
0.0
 10
12.8662509391
 20
8.3928693333
 30
0.0
 10
12.8623962488
 20
8.391774143
 30
0.0
 10
12.8604825511
 20
8.3913358483
 30
0.0
  0
SPLINE
  5
35B
100
AcDbEntity
  8
0
100
AcDbSpline
 62
7
  6
CONTINUOUS
 70
0
 71
3
 72
55
 73
51
 74
0
 42
0.0000001
 43
0.0000001
 44
0.0000000001
 40
0.0
 40
0.0
 40
0.0
 40
0.0
 40
0.0427960547
 40
0.0861063967
 40
0.1297874194
 40
0.1736931635
 40
0.2176771166
 40
0.2615923
 40
0.3052920645
 40
0.3486306656
 40
0.3914639002
 40
0.4336497335
 40
0.4750489352
 40
0.5155257275
 40
0.5549484447
 40
0.5931902178
 40
0.6301296918
 40
0.6656517933
 40
0.6828476146
 40
0.6996492339
 40
0.7160444347
 40
0.7320215716
 40
0.7475695872
 40
0.7626781258
 40
0.7773374682
 40
0.7915387359
 40
0.8052737858
 40
0.8185354544
 40
0.8313174886
 40
0.843614768
 40
0.8554233487
 40
0.8667406285
 40
0.8775655537
 40
0.88789874
 40
0.8977428613
 40
0.9071027935
 40
0.9159861746
 40
0.9244036901
 40
0.932369777
 40
0.9399031696
 40
0.9470277158
 40
0.9537731914
 40
0.9601760989
 40
0.9662804498
 40
0.9721380756
 40
0.9778085542
 40
0.9833581507
 40
0.9888579632
 40
0.9943811817
 40
1.0
 40
1.0
 40
1.0
 40
1.0
 10
13.0497629662
 20
9.3389041964
 30
0.0
 10
13.0497629662
 20
9.3277710585
 30
0.0
 10
13.0495826896
 20
9.3053706183
 30
0.0
 10
13.0487862558
 20
9.2716153326
 30
0.0
 10
13.0474646959
 20
9.2375875694
 30
0.0
 10
13.0456226664
 20
9.2034085619
 30
0.0
 10
13.0432667264
 20
9.1692000691
 30
0.0
 10
13.0404052598
 20
9.135083917
 30
0.0
 10
13.037048475
 20
9.1011816168
 30
0.0
 10
13.0332083556
 20
9.0676139081
 30
0.0
 10
13.028898623
 20
9.0345003312
 30
0.0
 10
13.0241346866
 20
9.0019587964
 30
0.0
 10
13.0189335904
 20
8.97010516
 30
0.0
 10
13.0133139554
 20
8.9390528008
 30
0.0
 10
13.0072959103
 20
8.908912227
 30
0.0
 10
13.0009010309
 20
8.8797906082
 30
0.0
 10
12.9941522334
 20
8.8517916127
 30
0.0
 10
12.9881909008
 20
8.8292401353
 30
0.0
 10
12.9832538674
 20
8.8118415594
 30
0.0
 10
12.9795179586
 20
8.7992754327
 30
0.0
 10
12.9757122264
 20
8.7870619416
 30
0.0
 10
12.9718400521
 20
8.7752119373
 30
0.0
 10
12.9679048785
 20
8.7637359614
 30
0.0
 10
12.9639102517
 20
8.7526442074
 30
0.0
 10
12.9598596923
 20
8.7419465349
 30
0.0
 10
12.9557568669
 20
8.7316524302
 30
0.0
 10
12.951605381
 20
8.7217710334
 30
0.0
 10
12.9474089838
 20
8.7123110881
 30
0.0
 10
12.9431713716
 20
8.7032809735
 30
0.0
 10
12.9388963358
 20
8.6946886598
 30
0.0
 10
12.9345876602
 20
8.6865417229
 30
0.0
 10
12.9302491411
 20
8.6788473314
 30
0.0
 10
12.9258846279
 20
8.6716122174
 30
0.0
 10
12.9214978874
 20
8.6648427219
 30
0.0
 10
12.9170927841
 20
8.6585447024
 30
0.0
 10
12.9126730187
 20
8.6527236497
 30
0.0
 10
12.908242382
 20
8.6473845442
 30
0.0
 10
12.9038044585
 20
8.6425320237
 30
0.0
 10
12.8993628427
 20
8.6381702531
 30
0.0
 10
12.8949209318
 20
8.6343030881
 30
0.0
 10
12.8904820215
 20
8.630934069
 30
0.0
 10
12.8860493038
 20
8.6280665041
 30
0.0
 10
12.8816258807
 20
8.6257036841
 30
0.0
 10
12.8772150552
 20
8.6238487542
 30
0.0
 10
12.8728204207
 20
8.6225050483
 30
0.0
 10
12.8684463156
 20
8.6216754971
 30
0.0
 10
12.8640979397
 20
8.6213626874
 30
0.0
 10
12.8597810838
 20
8.6215679365
 30
0.0
 10
12.8555026836
 20
8.622290977
 30
0.0
 10
12.8527136804
 20
8.6231072215
 30
0.0
 10
12.8513355723
 20
8.6235944492
 30
0.0
  0
SPLINE
  5
35C
100
AcDbEntity
  8
0
100
AcDbSpline
 62
7
  6
CONTINUOUS
 70
0
 71
3
 72
34
 73
30
 74
0
 42
0.0000001
 43
0.0000001
 44
0.0000000001
 40
0.0
 40
0.0
 40
0.0
 40
0.0
 40
0.0718144385
 40
0.1447267072
 40
0.2182141849
 40
0.2917482318
 40
0.3647999342
 40
0.4009812753
 40
0.4368459712
 40
0.4723299544
 40
0.5073700408
 40
0.5419040826
 40
0.5758711332
 40
0.6092116168
 40
0.6418674817
 40
0.6737823667
 40
0.7049017764
 40
0.735173283
 40
0.7645467301
 40
0.7929744326
 40
0.8204114106
 40
0.846815656
 40
0.8721484604
 40
0.8963747704
 40
0.9194635972
 40
0.9413885378
 40
0.9621284306
 40
0.9816682155
 40
1.0
 40
1.0
 40
1.0
 40
1.0
 10
12.9068948533
 20
9.3389041882
 30
0.0
 10
12.9068948533
 20
9.3235701733
 30
0.0
 10
12.9065291828
 20
9.292666661
 30
0.0
 10
12.9049280694
 20
9.2460968674
 30
0.0
 10
12.9022809046
 20
9.1992068252
 30
0.0
 10
12.898607865
 20
9.1523563224
 30
0.0
 10
12.8947034354
 20
9.1135236672
 30
0.0
 10
12.8910837816
 20
9.0827536196
 30
0.0
 10
12.8881410912
 20
9.0599823379
 30
0.0
 10
12.8849676221
 20
9.0374881524
 30
0.0
 10
12.8815694526
 20
9.0153141858
 30
0.0
 10
12.877953123
 20
8.9935029861
 30
0.0
 10
12.8741255889
 20
8.9720963897
 30
0.0
 10
12.8700942222
 20
8.9511354514
 30
0.0
 10
12.8658667844
 20
8.930660365
 30
0.0
 10
12.8614514159
 20
8.9107103889
 30
0.0
 10
12.8568566169
 20
8.891323768
 30
0.0
 10
12.8520912394
 20
8.872537653
 30
0.0
 10
12.8471644707
 20
8.8543880253
 30
0.0
 10
12.8420858069
 20
8.8369096304
 30
0.0
 10
12.8368650377
 20
8.8201359109
 30
0.0
 10
12.831512222
 20
8.8040989351
 30
0.0
 10
12.8260376767
 20
8.7888293196
 30
0.0
 10
12.8204519524
 20
8.7743561664
 30
0.0
 10
12.814765791
 20
8.760706989
 30
0.0
 10
12.8089901266
 20
8.7479076981
 30
0.0
 10
12.8031359444
 20
8.7359823595
 30
0.0
 10
12.7972145721
 20
8.724953703
 30
0.0
 10
12.7930979207
 20
8.7179898923
 30
0.0
 10
12.7910248324
 20
8.7146696998
 30
0.0
  0
SPLINE
  5
35D
100
AcDbEntity
  8
0
100
AcDbSpline
 62
7
  6
CONTINUOUS
 70
0
 71
3
 72
29
 73
25
 74
0
 42
0.0000001
 43
0.0000001
 44
0.0000000001
 40
0.0
 40
0.0
 40
0.0
 40
0.0
 40
0.0676509645
 40
0.1362443261
 40
0.2054257463
 40
0.2748354733
 40
0.3441127611
 40
0.4128976929
 40
0.4808335901
 40
0.5475694444
 40
0.6127623157
 40
0.6760797726
 40
0.706935395
 40
0.7372035947
 40
0.7668469669
 40
0.7958292302
 40
0.8241153427
 40
0.851671678
 40
0.8784660305
 40
0.9044677667
 40
0.9296480347
 40
0.9539797928
 40
0.9774380225
 40
1.0
 40
1.0
 40
1.0
 40
1.0
 10
12.8486912961
 20
9.3302068774
 30
0.0
 10
12.8486912961
 20
9.3183407574
 30
0.0
 10
12.8484511257
 20
9.2944426097
 30
0.0
 10
12.8473950599
 20
9.2584239298
 30
0.0
 10
12.8456458392
 20
9.222123304
 30
0.0
 10
12.8432130625
 20
9.1857419047
 30
0.0
 10
12.8401102229
 20
9.1494812942
 30
0.0
 10
12.8363545516
 20
9.1135423418
 30
0.0
 10
12.8319669251
 20
9.0781241213
 30
0.0
 10
12.8269718074
 20
9.0434227374
 30
0.0
 10
12.8213970392
 20
9.0096304629
 30
0.0
 10
12.8162511497
 20
8.9821524578
 30
0.0
 10
12.8118591693
 20
8.960771188
 30
0.0
 10
12.8084687377
 20
8.9452152089
 30
0.0
 10
12.8049583588
 20
8.9300229125
 30
0.0
 10
12.8013328832
 20
8.9152153278
 30
0.0
 10
12.7975973455
 20
8.9008129698
 30
0.0
 10
12.7937569592
 20
8.8868357728
 30
0.0
 10
12.7898170596
 20
8.8733030853
 30
0.0
 10
12.7857831132
 20
8.8602336314
 30
0.0
 10
12.7816607549
 20
8.8476454832
 30
0.0
 10
12.7774557027
 20
8.8355560129
 30
0.0
 10
12.7731738174
 20
8.823982001
 30
0.0
 10
12.7702133984
 20
8.8164715851
 30
0.0
 10
12.7687192161
 20
8.8128070831
 30
0.0
  0
SPLINE
  5
35E
100
AcDbEntity
  8
0
100
AcDbSpline
 62
4
  6
CONTINUOUS
 70
0
 71
3
 72
403
 73
399
 74
0
 42
0.0000001
 43
0.0000001
 44
0.0000000001
 40
0.0
 40
0.0
 40
0.0
 40
0.0
 40
0.015625
 40
0.0234375
 40
0.03125
 40
0.0390625
 40
0.04296875
 40
0.046875
 40
0.05078125
 40
0.0546875
 40
0.056640625
 40
0.05859375
 40
0.0595703125
 40
0.060546875
 40
0.0615234375
 40
0.0620117188
 40
0.0622558594
 40
0.0625
 40
0.0627441406
 40
0.0629882812
 40
0.0634765625
 40
0.064453125
 40
0.0654296875
 40
0.06640625
 40
0.068359375
 40
0.0703125
 40
0.07421875
 40
0.078125
 40
0.08203125
 40
0.0859375
 40
0.09375
 40
0.1015625
 40
0.10546875
 40
0.109375
 40
0.11328125
 40
0.1171875
 40
0.119140625
 40
0.12109375
 40
0.1220703125
 40
0.123046875
 40
0.1240234375
 40
0.1245117188
 40
0.1247558594
 40
0.125
 40
0.1252441406
 40
0.1254882812
 40
0.1259765625
 40
0.126953125
 40
0.1279296875
 40
0.12890625
 40
0.130859375
 40
0.1328125
 40
0.13671875
 40
0.140625
 40
0.14453125
 40
0.1484375
 40
0.15625
 40
0.1640625
 40
0.16796875
 40
0.171875
 40
0.17578125
 40
0.1796875
 40
0.181640625
 40
0.18359375
 40
0.1845703125
 40
0.185546875
 40
0.1865234375
 40
0.1870117188
 40
0.1872558594
 40
0.1875
 40
0.1877441406
 40
0.1879882812
 40
0.1884765625
 40
0.189453125
 40
0.1904296875
 40
0.19140625
 40
0.193359375
 40
0.1953125
 40
0.19921875
 40
0.203125
 40
0.20703125
 40
0.2109375
 40
0.21875
 40
0.2265625
 40
0.23046875
 40
0.234375
 40
0.23828125
 40
0.2421875
 40
0.244140625
 40
0.24609375
 40
0.2470703125
 40
0.248046875
 40
0.2490234375
 40
0.2495117188
 40
0.2497558594
 40
0.25
 40
0.2502441406
 40
0.2504882812
 40
0.2509765625
 40
0.251953125
 40
0.2529296875
 40
0.25390625
 40
0.255859375
 40
0.2578125
 40
0.26171875
 40
0.265625
 40
0.26953125
 40
0.2734375
 40
0.28125
 40
0.2890625
 40
0.29296875
 40
0.296875
 40
0.30078125
 40
0.3046875
 40
0.306640625
 40
0.30859375
 40
0.3095703125
 40
0.310546875
 40
0.3115234375
 40
0.3120117188
 40
0.3122558594
 40
0.3125
 40
0.3127441406
 40
0.3129882812
 40
0.3134765625
 40
0.314453125
 40
0.3154296875
 40
0.31640625
 40
0.318359375
 40
0.3203125
 40
0.32421875
 40
0.328125
 40
0.33203125
 40
0.3359375
 40
0.34375
 40
0.3515625
 40
0.35546875
 40
0.359375
 40
0.36328125
 40
0.3671875
 40
0.369140625
 40
0.37109375
 40
0.3720703125
 40
0.373046875
 40
0.3740234375
 40
0.3745117188
 40
0.3747558594
 40
0.375
 40
0.3752441406
 40
0.3754882812
 40
0.3759765625
 40
0.376953125
 40
0.3779296875
 40
0.37890625
 40
0.380859375
 40
0.3828125
 40
0.38671875
 40
0.390625
 40
0.39453125
 40
0.3984375
 40
0.40625
 40
0.4140625
 40
0.41796875
 40
0.421875
 40
0.42578125
 40
0.4296875
 40
0.431640625
 40
0.43359375
 40
0.4345703125
 40
0.435546875
 40
0.4365234375
 40
0.4370117188
 40
0.4372558594
 40
0.4375
 40
0.4377441406
 40
0.4379882812
 40
0.4384765625
 40
0.439453125
 40
0.4404296875
 40
0.44140625
 40
0.443359375
 40
0.4453125
 40
0.44921875
 40
0.453125
 40
0.45703125
 40
0.4609375
 40
0.46875
 40
0.4765625
 40
0.48046875
 40
0.484375
 40
0.48828125
 40
0.4921875
 40
0.494140625
 40
0.49609375
 40
0.4970703125
 40
0.498046875
 40
0.4990234375
 40
0.4995117188
 40
0.4997558594
 40
0.5
 40
0.5002441406
 40
0.5004882812
 40
0.5009765625
 40
0.501953125
 40
0.5029296875
 40
0.50390625
 40
0.505859375
 40
0.5078125
 40
0.51171875
 40
0.515625
 40
0.51953125
 40
0.5234375
 40
0.53125
 40
0.5390625
 40
0.54296875
 40
0.546875
 40
0.55078125
 40
0.5546875
 40
0.556640625
 40
0.55859375
 40
0.5595703125
 40
0.560546875
 40
0.5615234375
 40
0.5620117188
 40
0.5622558594
 40
0.5625
 40
0.5627441406
 40
0.5629882812
 40
0.5634765625
 40
0.564453125
 40
0.5654296875
 40
0.56640625
 40
0.568359375
 40
0.5703125
 40
0.57421875
 40
0.578125
 40
0.58203125
 40
0.5859375
 40
0.59375
 40
0.6015625
 40
0.60546875
 40
0.609375
 40
0.61328125
 40
0.6171875
 40
0.619140625
 40
0.62109375
 40
0.6220703125
 40
0.623046875
 40
0.6240234375
 40
0.6245117188
 40
0.6247558594
 40
0.625
 40
0.6252441406
 40
0.6254882812
 40
0.6259765625
 40
0.626953125
 40
0.6279296875
 40
0.62890625
 40
0.630859375
 40
0.6328125
 40
0.63671875
 40
0.640625
 40
0.64453125
 40
0.6484375
 40
0.65625
 40
0.6640625
 40
0.66796875
 40
0.671875
 40
0.67578125
 40
0.6796875
 40
0.681640625
 40
0.68359375
 40
0.6845703125
 40
0.685546875
 40
0.6865234375
 40
0.6870117188
 40
0.6872558594
 40
0.6875
 40
0.6877441406
 40
0.6879882812
 40
0.6884765625
 40
0.689453125
 40
0.6904296875
 40
0.69140625
 40
0.693359375
 40
0.6953125
 40
0.69921875
 40
0.703125
 40
0.70703125
 40
0.7109375
 40
0.71875
 40
0.7265625
 40
0.73046875
 40
0.734375
 40
0.73828125
 40
0.7421875
 40
0.744140625
 40
0.74609375
 40
0.7470703125
 40
0.748046875
 40
0.7490234375
 40
0.7495117188
 40
0.7497558594
 40
0.75
 40
0.7502441406
 40
0.7504882812
 40
0.7509765625
 40
0.751953125
 40
0.7529296875
 40
0.75390625
 40
0.755859375
 40
0.7578125
 40
0.76171875
 40
0.765625
 40
0.76953125
 40
0.7734375
 40
0.78125
 40
0.7890625
 40
0.79296875
 40
0.796875
 40
0.80078125
 40
0.8046875
 40
0.806640625
 40
0.80859375
 40
0.8095703125
 40
0.810546875
 40
0.8115234375
 40
0.8120117188
 40
0.8122558594
 40
0.8125
 40
0.8127441406
 40
0.8129882812
 40
0.8134765625
 40
0.814453125
 40
0.8154296875
 40
0.81640625
 40
0.818359375
 40
0.8203125
 40
0.82421875
 40
0.828125
 40
0.83203125
 40
0.8359375
 40
0.84375
 40
0.8515625
 40
0.85546875
 40
0.859375
 40
0.86328125
 40
0.8671875
 40
0.869140625
 40
0.87109375
 40
0.8720703125
 40
0.873046875
 40
0.8740234375
 40
0.8745117188
 40
0.8747558594
 40
0.875
 40
0.8752441406
 40
0.8754882812
 40
0.8759765625
 40
0.876953125
 40
0.8779296875
 40
0.87890625
 40
0.880859375
 40
0.8828125
 40
0.88671875
 40
0.890625
 40
0.89453125
 40
0.8984375
 40
0.90625
 40
0.9140625
 40
0.91796875
 40
0.921875
 40
0.92578125
 40
0.9296875
 40
0.931640625
 40
0.93359375
 40
0.9345703125
 40
0.935546875
 40
0.9365234375
 40
0.9370117188
 40
0.9372558594
 40
0.9375
 40
0.9377441406
 40
0.9379882812
 40
0.9384765625
 40
0.939453125
 40
0.9404296875
 40
0.94140625
 40
0.943359375
 40
0.9453125
 40
0.94921875
 40
0.953125
 40
0.95703125
 40
0.9609375
 40
0.96875
 40
0.9765625
 40
0.984375
 40
1.0
 40
1.0
 40
1.0
 40
1.0
 10
10.1545682301
 20
8.5474569708
 30
0.0
 10
10.1548754418
 20
8.5443024786
 30
0.0
 10
10.1553362593
 20
8.5395707405
 30
0.0
 10
10.1559506826
 20
8.5332617562
 30
0.0
 10
10.1564115001
 20
8.528530018
 30
0.0
 10
10.1567955145
 20
8.5245869029
 30
0.0
 10
10.1571027265
 20
8.5214324108
 30
0.0
 10
10.1573331343
 20
8.5190665416
 30
0.0
 10
10.1575635467
 20
8.516700673
 30
0.0
 10
10.1577555426
 20
8.5147291139
 30
0.0
 10
10.1579091718
 20
8.5131518709
 30
0.0
 10
10.1580051159
 20
8.5121660844
 30
0.0
 10
10.1580820409
 20
8.5113774771
 30
0.0
 10
10.1581392702
 20
8.5107859618
 30
0.0
 10
10.1581884388
 20
8.5102932226
 30
0.0
 10
10.1582199571
 20
8.509947932
 30
0.0
 10
10.1582424954
 20
8.5097512056
 30
0.0
 10
10.158246644
 20
8.5096020199
 30
0.0
 10
10.158299549
 20
8.5094591068
 30
0.0
 10
10.1583530823
 20
8.5092663681
 30
0.0
 10
10.1584546893
 20
8.5089300949
 30
0.0
 10
10.1585956996
 20
8.5084491715
 30
0.0
 10
10.158766685
 20
8.5078722915
 30
0.0
 10
10.1589940463
 20
8.5071030386
 30
0.0
 10
10.1592784599
 20
8.5061414997
 30
0.0
 10
10.1597334033
 20
8.5046030223
 30
0.0
 10
10.1603021231
 20
8.5026799307
 30
0.0
 10
10.1609845695
 20
8.5003722185
 30
0.0
 10
10.1616670205
 20
8.498064507
 30
0.0
 10
10.1625769536
 20
8.494987558
 30
0.0
 10
10.1637143705
 20
8.491141372
 30
0.0
 10
10.1648517871
 20
8.4872951858
 30
0.0
 10
10.1657617208
 20
8.484218237
 30
0.0
 10
10.1664441699
 20
8.481910525
 30
0.0
 10
10.1671266234
 20
8.4796028145
 30
0.0
 10
10.167695321
 20
8.4776797178
 30
0.0
 10
10.1681503097
 20
8.4761412509
 30
0.0
 10
10.1684346078
 20
8.4751796851
 30
0.0
 10
10.1686622062
 20
8.4744104873
 30
0.0
 10
10.1688324672
 20
8.4738334389
 30
0.0
 10
10.1689757441
 20
8.4733530427
 30
0.0
 10
10.1690733048
 20
8.4730158283
 30
0.0
 10
10.1691333213
 20
8.4728245974
 30
0.0
 10
10.169166312
 20
8.472677053
 30
0.0
 10
10.1692452555
 20
8.472545262
 30
0.0
 10
10.1693344846
 20
8.4723640458
 30
0.0
 10
10.1694981036
 20
8.4720494776
 30
0.0
 10
10.1697279408
 20
8.471598756
 30
0.0
 10
10.1700054165
 20
8.4710584629
 30
0.0
 10
10.1703748005
 20
8.470337872
 30
0.0
 10
10.1708367303
 20
8.469437202
 30
0.0
 10
10.1715757063
 20
8.4679960916
 30
0.0
 10
10.1724994646
 20
8.4661947168
 30
0.0
 10
10.1736079582
 20
8.4640330614
 30
0.0
 10
10.1747164561
 20
8.4618714074
 30
0.0
 10
10.1761944519
 20
8.4589892017
 30
0.0
 10
10.1780419471
 20
8.4553864447
 30
0.0
 10
10.179889442
 20
8.4517836876
 30
0.0
 10
10.1813674383
 20
8.4489014821
 30
0.0
 10
10.1824759345
 20
8.4467398274
 30
0.0
 10
10.1835844349
 20
8.4445781748
 30
0.0
 10
10.1845081719
 20
8.4427767912
 30
0.0
 10
10.1852471913
 20
8.4413356986
 30
0.0
 10
10.1857090107
 20
8.4404349835
 30
0.0
 10
10.1860786214
 20
8.4397144851
 30
0.0
 10
10.1863554044
 20
8.4391739095
 30
0.0
 10
10.186587409
 20
8.4387240719
 30
0.0
 10
10.1867471587
 20
8.4384079255
 30
0.0
 10
10.1868425875
 20
8.4382292379
 30
0.0
 10
10.1869024877
 20
8.43808968
 30
0.0
 10
10.1870070017
 20
8.4379713069
 30
0.0
 10
10.187130792
 20
8.4378060866
 30
0.0
 10
10.1873546755
 20
8.4375203941
 30
0.0
 10
10.1876707185
 20
8.4371104618
 30
0.0
 10
10.1880515925
 20
8.4366193136
 30
0.0
 10
10.1885588579
 20
8.4359641802
 30
0.0
 10
10.1891931336
 20
8.4351453556
 30
0.0
 10
10.1902078664
 20
8.4338351848
 30
0.0
 10
10.1914763195
 20
8.4321974888
 30
0.0
 10
10.1929984473
 20
8.4302322462
 30
0.0
 10
10.1945205794
 20
8.4282670055
 30
0.0
 10
10.1965500874
 20
8.425646684
 30
0.0
 10
10.1990869729
 20
8.4223712823
 30
0.0
 10
10.201623858
 20
8.4190958804
 30
0.0
 10
10.2036533665
 20
8.4164755592
 30
0.0
 10
10.2051754971
 20
8.4145103174
 30
0.0
 10
10.2066976307
 20
8.4125450791
 30
0.0
 10
10.2079660657
 20
8.4109073696
 30
0.0
 10
10.2089808355
 20
8.4095972264
 30
0.0
 10
10.209615017
 20
8.4087783313
 30
0.0
 10
10.2101224757
 20
8.4081233427
 30
0.0
 10
10.210502759
 20
8.4076317519
 30
0.0
 10
10.2108206503
 20
8.4072232044
 30
0.0
 10
10.2110412342
 20
8.4069350399
 30
0.0
 10
10.2111703113
 20
8.4067737802
 30
0.0
 10
10.211258586
 20
8.4066432416
 30
0.0
 10
10.2113794787
 20
8.4065493757
 30
0.0
 10
10.2115292914
 20
8.4064114292
 30
0.0
 10
10.2117967648
 20
8.4061759829
 30
0.0
 10
10.2121760981
 20
8.4058365152
 30
0.0
 10
10.2126324843
 20
8.4054304876
 30
0.0
 10
10.2132405849
 20
8.4048886516
 30
0.0
 10
10.2140008526
 20
8.4042115162
 30
0.0
 10
10.2152172015
 20
8.4031280103
 30
0.0
 10
10.2167376649
 20
8.4017736585
 30
0.0
 10
10.2185622093
 20
8.4001484233
 30
0.0
 10
10.2203867568
 20
8.3985231916
 30
0.0
 10
10.2228194858
 20
8.3963562147
 30
0.0
 10
10.2258603974
 20
8.3936474941
 30
0.0
 10
10.2289013087
 20
8.3909387732
 30
0.0
 10
10.2313340381
 20
8.3887717969
 30
0.0
 10
10.2331585844
 20
8.3871465636
 30
0.0
 10
10.2349831334
 20
8.3855213341
 30
0.0
 10
10.2365035826
 20
8.3841669645
 30
0.0
 10
10.2377199604
 20
8.3830834951
 30
0.0
 10
10.2384801546
 20
8.3824062668
 30
0.0
 10
10.2390884061
 20
8.3818646213
 30
0.0
 10
10.2395443313
 20
8.3814580119
 30
0.0
 10
10.239925107
 20
8.3811203644
 30
0.0
 10
10.2401900054
 20
8.3808816687
 30
0.0
 10
10.2403439437
 20
8.3807489287
 30
0.0
 10
10.2404521641
 20
8.3806390703
 30
0.0
 10
10.240588034
 20
8.3805685968
 30
0.0
 10
10.2407595494
 20
8.3804608942
 30
0.0
 10
10.2410641949
 20
8.3802788154
 30
0.0
 10
10.2414970536
 20
8.3800153566
 30
0.0
 10
10.2420174895
 20
8.3797006383
 30
0.0
 10
10.2427110528
 20
8.3792805136
 30
0.0
 10
10.2435781272
 20
8.378755529
 30
0.0
 10
10.244965379
 20
8.3779154579
 30
0.0
 10
10.2466994669
 20
8.376865402
 30
0.0
 10
10.2487803624
 20
8.3756053208
 30
0.0
 10
10.2508612606
 20
8.3743452433
 30
0.0
 10
10.2536357906
 20
8.3726651387
 30
0.0
 10
10.2571039534
 20
8.3705650084
 30
0.0
 10
10.260572116
 20
8.3684648778
 30
0.0
 10
10.2633466463
 20
8.3667847738
 30
0.0
 10
10.2654275436
 20
8.3655246946
 30
0.0
 10
10.2675084426
 20
8.3642646197
 30
0.0
 10
10.2692425195
 20
8.363214544
 30
0.0
 10
10.2706297937
 20
8.3623745132
 30
0.0
 10
10.2714968111
 20
8.3618494262
 30
0.0
 10
10.2721904915
 20
8.3614295117
 30
0.0
 10
10.2727105698
 20
8.3611141513
 30
0.0
 10
10.2731445472
 20
8.3608527015
 30
0.0
 10
10.2734471954
 20
8.3606670362
 30
0.0
 10
10.2736219111
 20
8.3605650801
 30
0.0
 10
10.2737479509
 20
8.3604769553
 30
0.0
 10
10.2738930914
 20
8.3604333922
 30
0.0
 10
10.2740799495
 20
8.3603597645
 30
0.0
 10
10.2744100554
 20
8.360238158
 30
0.0
 10
10.2748800124
 20
8.3600606481
 30
0.0
 10
10.2754446554
 20
8.359849257
 30
0.0
 10
10.2761972701
 20
8.3595668361
 30
0.0
 10
10.2771381216
 20
8.3592140037
 30
0.0
 10
10.2786434376
 20
8.3586493636
 30
0.0
 10
10.2805250984
 20
8.3579436007
 30
0.0
 10
10.2827830846
 20
8.3570966693
 30
0.0
 10
10.2850410726
 20
8.3562497421
 30
0.0
 10
10.2880517227
 20
8.3551205044
 30
0.0
 10
10.2918150355
 20
8.3537089578
 30
0.0
 10
10.2955783481
 20
8.3522974108
 30
0.0
 10
10.2985889984
 20
8.3511681737
 30
0.0
 10
10.3008469858
 20
8.3503212446
 30
0.0
 10
10.3031049745
 20
8.3494743202
 30
0.0
 10
10.3049866275
 20
8.3487685356
 30
0.0
 10
10.3064919594
 20
8.3482039397
 30
0.0
 10
10.3074327701
 20
8.3478509948
 30
0.0
 10
10.3081854686
 20
8.3475688049
 30
0.0
 10
10.3087498556
 20
8.3473567079
 30
0.0
 10
10.3092206138
 20
8.3471814066
 30
0.0
 10
10.3095492893
 20
8.3470558576
 30
0.0
 10
10.3097384393
 20
8.3469885467
 30
0.0
 10
10.30987654
 20
8.3469255802
 30
0.0
 10
10.3100290199
 20
8.3469103311
 30
0.0
 10
10.3102273108
 20
8.3468733546
 30
0.0
 10
10.3105766567
 20
8.3468164006
 30
0.0
 10
10.3110745005
 20
8.3467309833
 30
0.0
 10
10.3116724361
 20
8.3466302181
 30
0.0
 10
10.3124695008
 20
8.3464952582
 30
0.0
 10
10.3134658943
 20
8.346326766
 30
0.0
 10
10.3150600889
 20
8.3460570624
 30
0.0
 10
10.3170528442
 20
8.3457199727
 30
0.0
 10
10.3194441454
 20
8.3453154481
 30
0.0
 10
10.3218354479
 20
8.3449109279
 30
0.0
 10
10.3250238509
 20
8.3443715662
 30
0.0
 10
10.3290093547
 20
8.3436973646
 30
0.0
 10
10.3329948585
 20
8.3430231626
 30
0.0
 10
10.3361832615
 20
8.3424838015
 30
0.0
 10
10.3385745638
 20
8.3420792794
 30
0.0
 10
10.3409658658
 20
8.3416747622
 30
0.0
 10
10.3429586187
 20
8.3413376493
 30
0.0
 10
10.3445528181
 20
8.341067993
 30
0.0
 10
10.3455491995
 20
8.3408993805
 30
0.0
 10
10.346346289
 20
8.3407646676
 30
0.0
 10
10.3469441488
 20
8.3406631479
 30
0.0
 10
10.3474422299
 20
8.340580091
 30
0.0
 10
10.3477911523
 20
8.3405189235
 30
0.0
 10
10.3479901217
 20
8.340488698
 30
0.0
 10
10.3481405173
 20
8.3404527117
 30
0.0
 10
10.3482864462
 20
8.3404676307
 30
0.0
 10
10.3484825762
 20
8.3404697663
 30
0.0
 10
10.3488250777
 20
8.3404817766
 30
0.0
 10
10.349314745
 20
8.340494609
 30
0.0
 10
10.3499021834
 20
8.3405118592
 30
0.0
 10
10.3506854913
 20
8.3405342129
 30
0.0
 10
10.3516646068
 20
8.3405623764
 30
0.0
 10
10.3532312024
 20
8.3406073142
 30
0.0
 10
10.3551894431
 20
8.3406635289
 30
0.0
 10
10.3575393337
 20
8.3407309684
 30
0.0
 10
10.3598892238
 20
8.3407984127
 30
0.0
 10
10.3630224107
 20
8.3408883368
 30
0.0
 10
10.3669388943
 20
8.3410007425
 30
0.0
 10
10.370855378
 20
8.3411131478
 30
0.0
 10
10.3739885649
 20
8.3412030725
 30
0.0
 10
10.3763384553
 20
8.3412705149
 30
0.0
 10
10.3786883447
 20
8.3413379619
 30
0.0
 10
10.3806465888
 20
8.341394153
 30
0.0
 10
10.3822131776
 20
8.3414391389
 30
0.0
 10
10.3831923103
 20
8.34146718
 30
0.0
 10
10.3839755829
 20
8.3414897849
 30
0.0
 10
10.3845631293
 20
8.3415062676
 30
0.0
 10
10.3850524587
 20
8.3415215012
 30
0.0
 10
10.3853955635
 20
8.3415292251
 30
0.0
 10
10.3855907268
 20
8.3415382287
 30
0.0
 10
10.3857396249
 20
8.3415320512
 30
0.0
 10
10.3858788689
 20
8.3415752997
 30
0.0
 10
10.3860678951
 20
8.3416157239
 30
0.0
 10
10.3863971219
 20
8.341694499
 30
0.0
 10
10.3868682662
 20
8.3418028353
 30
0.0
 10
10.3874332882
 20
8.3419346363
 30
0.0
 10
10.3881867736
 20
8.3421097432
 30
0.0
 10
10.3891285883
 20
8.3423288418
 30
0.0
 10
10.3906355154
 20
8.3426792794
 30
0.0
 10
10.3925191661
 20
8.3431173676
 30
0.0
 10
10.3947795504
 20
8.3436430557
 30
0.0
 10
10.3970399338
 20
8.3441687486
 30
0.0
 10
10.4000537787
 20
8.3448696709
 30
0.0
 10
10.4038210846
 20
8.3457458242
 30
0.0
 10
10.4075883907
 20
8.3466219772
 30
0.0
 10
10.4106022354
 20
8.3473229001
 30
0.0
 10
10.4128626194
 20
8.3478485911
 30
0.0
 10
10.4151230015
 20
8.3483742865
 30
0.0
 10
10.417006659
 20
8.348812352
 30
0.0
 10
10.4185135723
 20
8.3491628359
 30
0.0
 10
10.4194554219
 20
8.3493818166
 30
0.0
 10
10.4202088357
 20
8.3495571656
 30
0.0
 10
10.4207740765
 20
8.349688227
 30
0.0
 10
10.4212445364
 20
8.3497988773
 30
0.0
 10
10.4215749849
 20
8.3498735214
 30
0.0
 10
10.4217620537
 20
8.3499205646
 30
0.0
 10
10.4219073102
 20
8.3499434817
 30
0.0
 10
10.4220336264
 20
8.3500136651
 30
0.0
 10
10.4222086546
 20
8.350090756
 30
0.0
 10
10.4225118757
 20
8.3502333466
 30
0.0
 10
10.4229466581
 20
8.3504330315
 30
0.0
 10
10.4234677082
 20
8.3506743723
 30
0.0
 10
10.4241626822
 20
8.3509955596
 30
0.0
 10
10.4250313173
 20
8.3513972494
 30
0.0
 10
10.4264211795
 20
8.3520398381
 30
0.0
 10
10.4281584915
 20
8.3528431135
 30
0.0
 10
10.4302432726
 20
8.353807027
 30
0.0
 10
10.4323280519
 20
8.354770945
 30
0.0
 10
10.4351077583
 20
8.3560561674
 30
0.0
 10
10.4385823911
 20
8.3576626961
 30
0.0
 10
10.442057024
 20
8.3592692243
 30
0.0
 10
10.4448367301
 20
8.3605544474
 30
0.0
 10
10.4469215103
 20
8.3615183635
 30
0.0
 10
10.4490062882
 20
8.3624822841
 30
0.0
 10
10.4507436103
 20
8.3632855374
 30
0.0
 10
10.4521334518
 20
8.363928171
 30
0.0
 10
10.4530021396
 20
8.3643297466
 30
0.0
 10
10.4536970054
 20
8.3646511683
 30
0.0
 10
10.4542183861
 20
8.3648917934
 30
0.0
 10
10.4546521341
 20
8.3650937175
 30
0.0
 10
10.4549572018
 20
8.3652323107
 30
0.0
 10
10.4551292714
 20
8.3653158064
 30
0.0
 10
10.4552646752
 20
8.3653663163
 30
0.0
 10
10.4553758002
 20
8.3654631238
 30
0.0
 10
10.4555324356
 20
8.3655760514
 30
0.0
 10
10.4558026018
 20
8.3657811988
 30
0.0
 10
10.4561906164
 20
8.3660703329
 30
0.0
 10
10.4566553509
 20
8.3664189775
 30
0.0
 10
10.4572753053
 20
8.3668832488
 30
0.0
 10
10.4580501427
 20
8.3674637894
 30
0.0
 10
10.4592899417
 20
8.3683925418
 30
0.0
 10
10.46083967
 20
8.3695535209
 30
0.0
 10
10.4626993528
 20
8.3709466793
 30
0.0
 10
10.4645590332
 20
8.3723398421
 30
0.0
 10
10.4670386079
 20
8.374197391
 30
0.0
 10
10.470138076
 20
8.3765193276
 30
0.0
 10
10.4732375443
 20
8.378841264
 30
0.0
 10
10.4757171186
 20
8.3806988134
 30
0.0
 10
10.4775768003
 20
8.3820919745
 30
0.0
 10
10.4794364783
 20
8.3834851391
 30
0.0
 10
10.4809862215
 20
8.384646099
 30
0.0
 10
10.4822259901
 20
8.3855748905
 30
0.0
 10
10.4830009047
 20
8.3861553316
 30
0.0
 10
10.4836207008
 20
8.3866198073
 30
0.0
 10
10.4840859189
 20
8.3869678276
 30
0.0
 10
10.4844724206
 20
8.3872589149
 30
0.0
 10
10.4847452875
 20
8.3874605754
 30
0.0
 10
10.4848975957
 20
8.3875790899
 30
0.0
 10
10.4850220125
 20
8.3876587363
 30
0.0
 10
10.4851074945
 20
8.3877737008
 30
0.0
 10
10.4852350513
 20
8.3879146674
 30
0.0
 10
10.4854519483
 20
8.3881670989
 30
0.0
 10
10.4857651092
 20
8.3885247144
 30
0.0
 10
10.4861394863
 20
8.3889551375
 30
0.0
 10
10.4866391503
 20
8.3895285863
 30
0.0
 10
10.4872635611
 20
8.3902455509
 30
0.0
 10
10.4882627129
 20
8.3913926084
 30
0.0
 10
10.4895116201
 20
8.3928264598
 30
0.0
 10
10.4910103228
 20
8.3945470688
 30
0.0
 10
10.4925090217
 20
8.3962676813
 30
0.0
 10
10.4945072882
 20
8.39856183
 30
0.0
 10
10.4970051209
 20
8.4014295163
 30
0.0
 10
10.4995029539
 20
8.4042972023
 30
0.0
 10
10.5015012199
 20
8.4065913514
 30
0.0
 10
10.5029999204
 20
8.4083119625
 30
0.0
 10
10.504498617
 20
8.4100325765
 30
0.0
 10
10.5057475431
 20
8.4114664124
 30
0.0
 10
10.5067466564
 20
8.4126135015
 30
0.0
 10
10.507371165
 20
8.4133303858
 30
0.0
 10
10.5078706282
 20
8.4139039995
 30
0.0
 10
10.508245619
 20
8.414333919
 30
0.0
 10
10.5085568597
 20
8.41469311
 30
0.0
 10
10.5087771846
 20
8.4149427289
 30
0.0
 10
10.508899249
 20
8.415088202
 30
0.0
 10
10.5090016023
 20
8.4151893241
 30
0.0
 10
10.5090626532
 20
8.4153209602
 30
0.0
 10
10.5091584611
 20
8.4154858313
 30
0.0
 10
10.5093194126
 20
8.4157793148
 30
0.0
 10
10.5095528526
 20
8.4161959843
 30
0.0
 10
10.5098314786
 20
8.4166970974
 30
0.0
 10
10.5102035045
 20
8.4173648606
 30
0.0
 10
10.5106683573
 20
8.4181996974
 30
0.0
 10
10.5114122221
 20
8.419535362
 30
0.0
 10
10.5123420186
 20
8.4212049683
 30
0.0
 10
10.5134577893
 20
8.4232084849
 30
0.0
 10
10.514573556
 20
8.4252120044
 30
0.0
 10
10.5160612463
 20
8.4278833627
 30
0.0
 10
10.5179208586
 20
8.4312225609
 30
0.0
 10
10.5197804713
 20
8.434561759
 30
0.0
 10
10.521268161
 20
8.4372331176
 30
0.0
 10
10.5223839295
 20
8.4392366361
 30
0.0
 10
10.5234996935
 20
8.4412401566
 30
0.0
 10
10.5244295106
 20
8.4429097505
 30
0.0
 10
10.5251733336
 20
8.4442454404
 30
0.0
 10
10.5256382927
 20
8.4450802128
 30
0.0
 10
10.5260101003
 20
8.4457481082
 30
0.0
 10
10.5262893932
 20
8.4462488175
 30
0.0
 10
10.5265207466
 20
8.4466667505
 30
0.0
 10
10.5266854231
 20
8.4469579784
 30
0.0
 10
10.5267752627
 20
8.4471264636
 30
0.0
 10
10.5268546465
 20
8.4472469982
 30
0.0
 10
10.5268881441
 20
8.4473898156
 30
0.0
 10
10.5269488132
 20
8.4475724663
 30
0.0
 10
10.5270475268
 20
8.4478957264
 30
0.0
 10
10.527192445
 20
8.4483556332
 30
0.0
 10
10.527364678
 20
8.4489083319
 30
0.0
 10
10.527594905
 20
8.4496449803
 30
0.0
 10
10.527882489
 20
8.4505658877
 30
0.0
 10
10.5283427351
 20
8.4520392855
 30
0.0
 10
10.5289180044
 20
8.4538810513
 30
0.0
 10
10.529608344
 20
8.4560911623
 30
0.0
 10
10.5302986791
 20
8.4583012754
 30
0.0
 10
10.5312191276
 20
8.4612480921
 30
0.0
 10
10.5323696875
 20
8.4649316133
 30
0.0
 10
10.5335202479
 20
8.4686151344
 30
0.0
 10
10.5344406957
 20
8.4715619514
 30
0.0
 10
10.5351310328
 20
8.4737720637
 30
0.0
 10
10.5358213652
 20
8.4759821777
 30
0.0
 10
10.5363966567
 20
8.4778239341
 30
0.0
 10
10.5368568575
 20
8.479297351
 30
0.0
 10
10.5371445569
 20
8.4802182096
 30
0.0
 10
10.537374547
 20
8.4809549583
 30
0.0
 10
10.5375475036
 20
8.4815073506
 30
0.0
 10
10.5376901578
 20
8.4819682158
 30
0.0
 10
10.5377929131
 20
8.4822897652
 30
0.0
 10
10.5378471064
 20
8.4824751568
 30
0.0
 10
10.5379004955
 20
8.482609555
 30
0.0
 10
10.5379051701
 20
8.4827617108
 30
0.0
 10
10.5379283951
 20
8.4829583911
 30
0.0
 10
10.5379611219
 20
8.4833054675
 30
0.0
 10
10.5380120135
 20
8.4837997822
 30
0.0
 10
10.5380713118
 20
8.4843936057
 30
0.0
 10
10.538150995
 20
8.4851851448
 30
0.0
 10
10.5382503871
 20
8.4861746458
 30
0.0
 10
10.538409533
 20
8.4877578044
 30
0.0
 10
10.5386084246
 20
8.4897367673
 30
0.0
 10
10.538847112
 20
8.4921115165
 30
0.0
 10
10.5390857947
 20
8.4944862675
 30
0.0
 10
10.5394040399
 20
8.4976526014
 30
0.0
 10
10.5398018459
 20
8.5016105191
 30
0.0
 10
10.5402792134
 20
8.5063600202
 30
0.0
 10
10.5409157032
 20
8.5126926883
 30
0.0
 10
10.5413930706
 20
8.5174421894
 30
0.0
 10
10.5417113156
 20
8.5206085235
 30
0.0
  0
SPLINE
  5
35F
100
AcDbEntity
  8
0
100
AcDbSpline
 62
4
  6
CONTINUOUS
 70
0
 71
3
 72
403
 73
399
 74
0
 42
0.0000001
 43
0.0000001
 44
0.0000000001
 40
0.0
 40
0.0
 40
0.0
 40
0.0
 40
0.015625
 40
0.0234375
 40
0.03125
 40
0.0390625
 40
0.04296875
 40
0.046875
 40
0.05078125
 40
0.0546875
 40
0.056640625
 40
0.05859375
 40
0.0595703125
 40
0.060546875
 40
0.0615234375
 40
0.0620117188
 40
0.0622558594
 40
0.0625
 40
0.0627441406
 40
0.0629882812
 40
0.0634765625
 40
0.064453125
 40
0.0654296875
 40
0.06640625
 40
0.068359375
 40
0.0703125
 40
0.07421875
 40
0.078125
 40
0.08203125
 40
0.0859375
 40
0.09375
 40
0.1015625
 40
0.10546875
 40
0.109375
 40
0.11328125
 40
0.1171875
 40
0.119140625
 40
0.12109375
 40
0.1220703125
 40
0.123046875
 40
0.1240234375
 40
0.1245117188
 40
0.1247558594
 40
0.125
 40
0.1252441406
 40
0.1254882812
 40
0.1259765625
 40
0.126953125
 40
0.1279296875
 40
0.12890625
 40
0.130859375
 40
0.1328125
 40
0.13671875
 40
0.140625
 40
0.14453125
 40
0.1484375
 40
0.15625
 40
0.1640625
 40
0.16796875
 40
0.171875
 40
0.17578125
 40
0.1796875
 40
0.181640625
 40
0.18359375
 40
0.1845703125
 40
0.185546875
 40
0.1865234375
 40
0.1870117188
 40
0.1872558594
 40
0.1875
 40
0.1877441406
 40
0.1879882812
 40
0.1884765625
 40
0.189453125
 40
0.1904296875
 40
0.19140625
 40
0.193359375
 40
0.1953125
 40
0.19921875
 40
0.203125
 40
0.20703125
 40
0.2109375
 40
0.21875
 40
0.2265625
 40
0.23046875
 40
0.234375
 40
0.23828125
 40
0.2421875
 40
0.244140625
 40
0.24609375
 40
0.2470703125
 40
0.248046875
 40
0.2490234375
 40
0.2495117188
 40
0.2497558594
 40
0.25
 40
0.2502441406
 40
0.2504882812
 40
0.2509765625
 40
0.251953125
 40
0.2529296875
 40
0.25390625
 40
0.255859375
 40
0.2578125
 40
0.26171875
 40
0.265625
 40
0.26953125
 40
0.2734375
 40
0.28125
 40
0.2890625
 40
0.29296875
 40
0.296875
 40
0.30078125
 40
0.3046875
 40
0.306640625
 40
0.30859375
 40
0.3095703125
 40
0.310546875
 40
0.3115234375
 40
0.3120117188
 40
0.3122558594
 40
0.3125
 40
0.3127441406
 40
0.3129882812
 40
0.3134765625
 40
0.314453125
 40
0.3154296875
 40
0.31640625
 40
0.318359375
 40
0.3203125
 40
0.32421875
 40
0.328125
 40
0.33203125
 40
0.3359375
 40
0.34375
 40
0.3515625
 40
0.35546875
 40
0.359375
 40
0.36328125
 40
0.3671875
 40
0.369140625
 40
0.37109375
 40
0.3720703125
 40
0.373046875
 40
0.3740234375
 40
0.3745117188
 40
0.3747558594
 40
0.375
 40
0.3752441406
 40
0.3754882812
 40
0.3759765625
 40
0.376953125
 40
0.3779296875
 40
0.37890625
 40
0.380859375
 40
0.3828125
 40
0.38671875
 40
0.390625
 40
0.39453125
 40
0.3984375
 40
0.40625
 40
0.4140625
 40
0.41796875
 40
0.421875
 40
0.42578125
 40
0.4296875
 40
0.431640625
 40
0.43359375
 40
0.4345703125
 40
0.435546875
 40
0.4365234375
 40
0.4370117188
 40
0.4372558594
 40
0.4375
 40
0.4377441406
 40
0.4379882812
 40
0.4384765625
 40
0.439453125
 40
0.4404296875
 40
0.44140625
 40
0.443359375
 40
0.4453125
 40
0.44921875
 40
0.453125
 40
0.45703125
 40
0.4609375
 40
0.46875
 40
0.4765625
 40
0.48046875
 40
0.484375
 40
0.48828125
 40
0.4921875
 40
0.494140625
 40
0.49609375
 40
0.4970703125
 40
0.498046875
 40
0.4990234375
 40
0.4995117188
 40
0.4997558594
 40
0.5
 40
0.5002441406
 40
0.5004882812
 40
0.5009765625
 40
0.501953125
 40
0.5029296875
 40
0.50390625
 40
0.505859375
 40
0.5078125
 40
0.51171875
 40
0.515625
 40
0.51953125
 40
0.5234375
 40
0.53125
 40
0.5390625
 40
0.54296875
 40
0.546875
 40
0.55078125
 40
0.5546875
 40
0.556640625
 40
0.55859375
 40
0.5595703125
 40
0.560546875
 40
0.5615234375
 40
0.5620117188
 40
0.5622558594
 40
0.5625
 40
0.5627441406
 40
0.5629882812
 40
0.5634765625
 40
0.564453125
 40
0.5654296875
 40
0.56640625
 40
0.568359375
 40
0.5703125
 40
0.57421875
 40
0.578125
 40
0.58203125
 40
0.5859375
 40
0.59375
 40
0.6015625
 40
0.60546875
 40
0.609375
 40
0.61328125
 40
0.6171875
 40
0.619140625
 40
0.62109375
 40
0.6220703125
 40
0.623046875
 40
0.6240234375
 40
0.6245117188
 40
0.6247558594
 40
0.625
 40
0.6252441406
 40
0.6254882812
 40
0.6259765625
 40
0.626953125
 40
0.6279296875
 40
0.62890625
 40
0.630859375
 40
0.6328125
 40
0.63671875
 40
0.640625
 40
0.64453125
 40
0.6484375
 40
0.65625
 40
0.6640625
 40
0.66796875
 40
0.671875
 40
0.67578125
 40
0.6796875
 40
0.681640625
 40
0.68359375
 40
0.6845703125
 40
0.685546875
 40
0.6865234375
 40
0.6870117188
 40
0.6872558594
 40
0.6875
 40
0.6877441406
 40
0.6879882812
 40
0.6884765625
 40
0.689453125
 40
0.6904296875
 40
0.69140625
 40
0.693359375
 40
0.6953125
 40
0.69921875
 40
0.703125
 40
0.70703125
 40
0.7109375
 40
0.71875
 40
0.7265625
 40
0.73046875
 40
0.734375
 40
0.73828125
 40
0.7421875
 40
0.744140625
 40
0.74609375
 40
0.7470703125
 40
0.748046875
 40
0.7490234375
 40
0.7495117188
 40
0.7497558594
 40
0.75
 40
0.7502441406
 40
0.7504882812
 40
0.7509765625
 40
0.751953125
 40
0.7529296875
 40
0.75390625
 40
0.755859375
 40
0.7578125
 40
0.76171875
 40
0.765625
 40
0.76953125
 40
0.7734375
 40
0.78125
 40
0.7890625
 40
0.79296875
 40
0.796875
 40
0.80078125
 40
0.8046875
 40
0.806640625
 40
0.80859375
 40
0.8095703125
 40
0.810546875
 40
0.8115234375
 40
0.8120117188
 40
0.8122558594
 40
0.8125
 40
0.8127441406
 40
0.8129882812
 40
0.8134765625
 40
0.814453125
 40
0.8154296875
 40
0.81640625
 40
0.818359375
 40
0.8203125
 40
0.82421875
 40
0.828125
 40
0.83203125
 40
0.8359375
 40
0.84375
 40
0.8515625
 40
0.85546875
 40
0.859375
 40
0.86328125
 40
0.8671875
 40
0.869140625
 40
0.87109375
 40
0.8720703125
 40
0.873046875
 40
0.8740234375
 40
0.8745117188
 40
0.8747558594
 40
0.875
 40
0.8752441406
 40
0.8754882812
 40
0.8759765625
 40
0.876953125
 40
0.8779296875
 40
0.87890625
 40
0.880859375
 40
0.8828125
 40
0.88671875
 40
0.890625
 40
0.89453125
 40
0.8984375
 40
0.90625
 40
0.9140625
 40
0.91796875
 40
0.921875
 40
0.92578125
 40
0.9296875
 40
0.931640625
 40
0.93359375
 40
0.9345703125
 40
0.935546875
 40
0.9365234375
 40
0.9370117188
 40
0.9372558594
 40
0.9375
 40
0.9377441406
 40
0.9379882812
 40
0.9384765625
 40
0.939453125
 40
0.9404296875
 40
0.94140625
 40
0.943359375
 40
0.9453125
 40
0.94921875
 40
0.953125
 40
0.95703125
 40
0.9609375
 40
0.96875
 40
0.9765625
 40
0.984375
 40
1.0
 40
1.0
 40
1.0
 40
1.0
 10
10.5417113156
 20
8.5206085066
 30
0.0
 10
10.5414041039
 20
8.5237629987
 30
0.0
 10
10.5409432864
 20
8.5284947369
 30
0.0
 10
10.5403288631
 20
8.5348037211
 30
0.0
 10
10.5398680455
 20
8.5395354593
 30
0.0
 10
10.5394840311
 20
8.5434785745
 30
0.0
 10
10.5391768191
 20
8.5466330665
 30
0.0
 10
10.5389464114
 20
8.5489989358
 30
0.0
 10
10.5387159989
 20
8.5513648044
 30
0.0
 10
10.5385240031
 20
8.5533363634
 30
0.0
 10
10.5383703739
 20
8.5549136065
 30
0.0
 10
10.5382744297
 20
8.5558993929
 30
0.0
 10
10.5381975048
 20
8.5566880002
 30
0.0
 10
10.5381402755
 20
8.5572795155
 30
0.0
 10
10.5380911068
 20
8.5577722548
 30
0.0
 10
10.5380595886
 20
8.5581175453
 30
0.0
 10
10.5380370503
 20
8.5583142717
 30
0.0
 10
10.5380329017
 20
8.5584634575
 30
0.0
 10
10.5379799966
 20
8.5586063705
 30
0.0
 10
10.5379264634
 20
8.5587991092
 30
0.0
 10
10.5378248563
 20
8.5591353825
 30
0.0
 10
10.5376838461
 20
8.5596163059
 30
0.0
 10
10.5375128607
 20
8.5601931858
 30
0.0
 10
10.5372854994
 20
8.5609624387
 30
0.0
 10
10.5370010857
 20
8.5619239776
 30
0.0
 10
10.5365461424
 20
8.5634624551
 30
0.0
 10
10.5359774226
 20
8.5653855467
 30
0.0
 10
10.5352949762
 20
8.5676932588
 30
0.0
 10
10.5346125252
 20
8.5700009704
 30
0.0
 10
10.5337025921
 20
8.5730779193
 30
0.0
 10
10.5325651752
 20
8.5769241054
 30
0.0
 10
10.5314277586
 20
8.5807702916
 30
0.0
 10
10.5305178249
 20
8.5838472404
 30
0.0
 10
10.5298353758
 20
8.5861549523
 30
0.0
 10
10.5291529223
 20
8.5884626628
 30
0.0
 10
10.5285842247
 20
8.5903857596
 30
0.0
 10
10.528129236
 20
8.5919242265
 30
0.0
 10
10.5278449379
 20
8.5928857922
 30
0.0
 10
10.5276173395
 20
8.59365499
 30
0.0
 10
10.5274470784
 20
8.5942320384
 30
0.0
 10
10.5273038016
 20
8.5947124347
 30
0.0
 10
10.5272062409
 20
8.595049649
 30
0.0
 10
10.5271462244
 20
8.5952408799
 30
0.0
 10
10.5271132337
 20
8.5953884244
 30
0.0
 10
10.5270342902
 20
8.5955202153
 30
0.0
 10
10.5269450611
 20
8.5957014315
 30
0.0
 10
10.526781442
 20
8.5960159997
 30
0.0
 10
10.5265516049
 20
8.5964667214
 30
0.0
 10
10.5262741292
 20
8.5970070144
 30
0.0
 10
10.5259047452
 20
8.5977276053
 30
0.0
 10
10.5254428154
 20
8.5986282753
 30
0.0
 10
10.5247038394
 20
8.6000693857
 30
0.0
 10
10.5237800811
 20
8.6018707605
 30
0.0
 10
10.5226715875
 20
8.604032416
 30
0.0
 10
10.5215630895
 20
8.6061940699
 30
0.0
 10
10.5200850938
 20
8.6090762756
 30
0.0
 10
10.5182375986
 20
8.6126790326
 30
0.0
 10
10.5163901037
 20
8.6162817898
 30
0.0
 10
10.5149121073
 20
8.6191639953
 30
0.0
 10
10.5138036112
 20
8.6213256499
 30
0.0
 10
10.5126951108
 20
8.6234873026
 30
0.0
 10
10.5117713738
 20
8.6252886861
 30
0.0
 10
10.5110323544
 20
8.6267297788
 30
0.0
 10
10.510570535
 20
8.6276304939
 30
0.0
 10
10.5102009243
 20
8.6283509922
 30
0.0
 10
10.5099241413
 20
8.6288915678
 30
0.0
 10
10.5096921367
 20
8.6293414055
 30
0.0
 10
10.509532387
 20
8.6296575518
 30
0.0
 10
10.5094369582
 20
8.6298362395
 30
0.0
 10
10.509377058
 20
8.6299757973
 30
0.0
 10
10.5092725439
 20
8.6300941704
 30
0.0
 10
10.5091487537
 20
8.6302593907
 30
0.0
 10
10.5089248701
 20
8.6305450833
 30
0.0
 10
10.5086088272
 20
8.6309550155
 30
0.0
 10
10.5082279531
 20
8.6314461637
 30
0.0
 10
10.5077206878
 20
8.6321012971
 30
0.0
 10
10.507086412
 20
8.6329201217
 30
0.0
 10
10.5060716793
 20
8.6342302926
 30
0.0
 10
10.5048032261
 20
8.6358679885
 30
0.0
 10
10.5032810983
 20
8.6378332312
 30
0.0
 10
10.5017589662
 20
8.6397984718
 30
0.0
 10
10.4997294583
 20
8.6424187934
 30
0.0
 10
10.4971925728
 20
8.645694195
 30
0.0
 10
10.4946556876
 20
8.648969597
 30
0.0
 10
10.4926261792
 20
8.6515899181
 30
0.0
 10
10.4911040486
 20
8.65355516
 30
0.0
 10
10.489581915
 20
8.6555203983
 30
0.0
 10
10.48831348
 20
8.6571581078
 30
0.0
 10
10.4872987102
 20
8.6584682509
 30
0.0
 10
10.4866645287
 20
8.6592871461
 30
0.0
 10
10.4861570699
 20
8.6599421346
 30
0.0
 10
10.4857767867
 20
8.6604337254
 30
0.0
 10
10.4854588954
 20
8.6608422729
 30
0.0
 10
10.4852383114
 20
8.6611304374
 30
0.0
 10
10.4851092344
 20
8.6612916971
 30
0.0
 10
10.4850209597
 20
8.6614222358
 30
0.0
 10
10.484900067
 20
8.6615161017
 30
0.0
 10
10.4847502542
 20
8.6616540481
 30
0.0
 10
10.4844827809
 20
8.6618894944
 30
0.0
 10
10.4841034476
 20
8.6622289622
 30
0.0
 10
10.4836470614
 20
8.6626349898
 30
0.0
 10
10.4830389608
 20
8.6631768257
 30
0.0
 10
10.4822786931
 20
8.6638539612
 30
0.0
 10
10.4810623442
 20
8.6649374671
 30
0.0
 10
10.4795418808
 20
8.6662918188
 30
0.0
 10
10.4777173364
 20
8.667917054
 30
0.0
 10
10.4758927888
 20
8.6695422858
 30
0.0
 10
10.4734600599
 20
8.6717092626
 30
0.0
 10
10.4704191483
 20
8.6744179832
 30
0.0
 10
10.467378237
 20
8.6771267041
 30
0.0
 10
10.4649455076
 20
8.6792936805
 30
0.0
 10
10.4631209613
 20
8.6809189137
 30
0.0
 10
10.4612964123
 20
8.6825441432
 30
0.0
 10
10.4597759631
 20
8.6838985128
 30
0.0
 10
10.4585595853
 20
8.6849819823
 30
0.0
 10
10.4577993911
 20
8.6856592105
 30
0.0
 10
10.4571911396
 20
8.686200856
 30
0.0
 10
10.4567352144
 20
8.6866074654
 30
0.0
 10
10.4563544387
 20
8.6869451129
 30
0.0
 10
10.4560895403
 20
8.6871838087
 30
0.0
 10
10.455935602
 20
8.6873165487
 30
0.0
 10
10.4558273816
 20
8.6874264071
 30
0.0
 10
10.4556915117
 20
8.6874968806
 30
0.0
 10
10.4555199963
 20
8.6876045831
 30
0.0
 10
10.4552153507
 20
8.6877866619
 30
0.0
 10
10.4547824921
 20
8.6880501208
 30
0.0
 10
10.4542620562
 20
8.6883648391
 30
0.0
 10
10.4535684929
 20
8.6887849638
 30
0.0
 10
10.4527014185
 20
8.6893099483
 30
0.0
 10
10.4513141667
 20
8.6901500194
 30
0.0
 10
10.4495800788
 20
8.6912000754
 30
0.0
 10
10.4474991833
 20
8.6924601566
 30
0.0
 10
10.4454182851
 20
8.6937202341
 30
0.0
 10
10.4426437551
 20
8.6954003387
 30
0.0
 10
10.4391755923
 20
8.6975004689
 30
0.0
 10
10.4357074297
 20
8.6996005995
 30
0.0
 10
10.4329328994
 20
8.7012807036
 30
0.0
 10
10.4308520021
 20
8.7025407827
 30
0.0
 10
10.4287711031
 20
8.7038008576
 30
0.0
 10
10.4270370262
 20
8.7048509333
 30
0.0
 10
10.4256497519
 20
8.7056909641
 30
0.0
 10
10.4247827346
 20
8.7062160511
 30
0.0
 10
10.4240890542
 20
8.7066359656
 30
0.0
 10
10.4235689759
 20
8.706951326
 30
0.0
 10
10.4231349984
 20
8.7072127759
 30
0.0
 10
10.4228323502
 20
8.7073984411
 30
0.0
 10
10.4226576346
 20
8.7075003972
 30
0.0
 10
10.4225315947
 20
8.707588522
 30
0.0
 10
10.4223864543
 20
8.7076320851
 30
0.0
 10
10.4221995961
 20
8.7077057129
 30
0.0
 10
10.4218694902
 20
8.7078273194
 30
0.0
 10
10.4213995333
 20
8.7080048292
 30
0.0
 10
10.4208348903
 20
8.7082162204
 30
0.0
 10
10.4200822755
 20
8.7084986413
 30
0.0
 10
10.4191414241
 20
8.7088514736
 30
0.0
 10
10.4176361081
 20
8.7094161137
 30
0.0
 10
10.4157544473
 20
8.7101218766
 30
0.0
 10
10.4134964611
 20
8.7109688081
 30
0.0
 10
10.4112384731
 20
8.7118157352
 30
0.0
 10
10.408227823
 20
8.712944973
 30
0.0
 10
10.4044645102
 20
8.7143565196
 30
0.0
 10
10.4007011975
 20
8.7157680666
 30
0.0
 10
10.3976905473
 20
8.7168973037
 30
0.0
 10
10.3954325599
 20
8.7177442327
 30
0.0
 10
10.3931745712
 20
8.7185911572
 30
0.0
 10
10.3912929182
 20
8.7192969418
 30
0.0
 10
10.3897875862
 20
8.7198615376
 30
0.0
 10
10.3888467756
 20
8.7202144825
 30
0.0
 10
10.388094077
 20
8.7204966724
 30
0.0
 10
10.3875296901
 20
8.7207087694
 30
0.0
 10
10.3870589319
 20
8.7208840708
 30
0.0
 10
10.3867302564
 20
8.7210096198
 30
0.0
 10
10.3865411064
 20
8.7210769307
 30
0.0
 10
10.3864030057
 20
8.7211398971
 30
0.0
 10
10.3862505258
 20
8.7211551463
 30
0.0
 10
10.3860522349
 20
8.7211921228
 30
0.0
 10
10.385702889
 20
8.7212490768
 30
0.0
 10
10.3852050452
 20
8.721334494
 30
0.0
 10
10.3846071096
 20
8.7214352593
 30
0.0
 10
10.3838100449
 20
8.7215702191
 30
0.0
 10
10.3828136514
 20
8.7217387113
 30
0.0
 10
10.3812194568
 20
8.7220084149
 30
0.0
 10
10.3792267015
 20
8.7223455046
 30
0.0
 10
10.3768354003
 20
8.7227500293
 30
0.0
 10
10.3744440977
 20
8.7231545494
 30
0.0
 10
10.3712556948
 20
8.7236939111
 30
0.0
 10
10.367270191
 20
8.7243681127
 30
0.0
 10
10.3632846872
 20
8.7250423147
 30
0.0
 10
10.3600962842
 20
8.7255816758
 30
0.0
 10
10.3577049818
 20
8.7259861979
 30
0.0
 10
10.3553136799
 20
8.7263907151
 30
0.0
 10
10.353320927
 20
8.726727828
 30
0.0
 10
10.3517267276
 20
8.7269974843
 30
0.0
 10
10.3507303462
 20
8.7271660969
 30
0.0
 10
10.3499332566
 20
8.7273008098
 30
0.0
 10
10.3493353969
 20
8.7274023294
 30
0.0
 10
10.3488373158
 20
8.7274853864
 30
0.0
 10
10.3484883934
 20
8.7275465539
 30
0.0
 10
10.348289424
 20
8.7275767793
 30
0.0
 10
10.3481390284
 20
8.7276127656
 30
0.0
 10
10.3479930995
 20
8.7275978467
 30
0.0
 10
10.3477969695
 20
8.727595711
 30
0.0
 10
10.347454468
 20
8.7275837007
 30
0.0
 10
10.3469648007
 20
8.7275708683
 30
0.0
 10
10.3463773623
 20
8.7275536181
 30
0.0
 10
10.3455940544
 20
8.7275312644
 30
0.0
 10
10.3446149389
 20
8.727503101
 30
0.0
 10
10.3430483433
 20
8.7274581632
 30
0.0
 10
10.3410901025
 20
8.7274019484
 30
0.0
 10
10.338740212
 20
8.727334509
 30
0.0
 10
10.3363903219
 20
8.7272670646
 30
0.0
 10
10.333257135
 20
8.7271771406
 30
0.0
 10
10.3293406513
 20
8.7270647348
 30
0.0
 10
10.3254241677
 20
8.7269523295
 30
0.0
 10
10.3222909808
 20
8.7268624048
 30
0.0
 10
10.3199410904
 20
8.7267949625
 30
0.0
 10
10.317591201
 20
8.7267275154
 30
0.0
 10
10.3156329569
 20
8.7266713243
 30
0.0
 10
10.314066368
 20
8.7266263384
 30
0.0
 10
10.3130872354
 20
8.7265982973
 30
0.0
 10
10.3123039628
 20
8.7265756925
 30
0.0
 10
10.3117164164
 20
8.7265592097
 30
0.0
 10
10.311227087
 20
8.7265439761
 30
0.0
 10
10.3108839822
 20
8.7265362523
 30
0.0
 10
10.3106888189
 20
8.7265272486
 30
0.0
 10
10.3105399208
 20
8.7265334261
 30
0.0
 10
10.3104006768
 20
8.7264901777
 30
0.0
 10
10.3102116506
 20
8.7264497534
 30
0.0
 10
10.3098824238
 20
8.7263709783
 30
0.0
 10
10.3094112795
 20
8.7262626421
 30
0.0
 10
10.3088462574
 20
8.726130841
 30
0.0
 10
10.3080927721
 20
8.7259557341
 30
0.0
 10
10.3071509574
 20
8.7257366356
 30
0.0
 10
10.3056440303
 20
8.725386198
 30
0.0
 10
10.3037603796
 20
8.7249481098
 30
0.0
 10
10.3014999953
 20
8.7244224216
 30
0.0
 10
10.2992396119
 20
8.7238967287
 30
0.0
 10
10.296225767
 20
8.7231958065
 30
0.0
 10
10.292458461
 20
8.7223196531
 30
0.0
 10
10.288691155
 20
8.7214435001
 30
0.0
 10
10.2856773103
 20
8.7207425772
 30
0.0
 10
10.2834169263
 20
8.7202168863
 30
0.0
 10
10.2811565441
 20
8.7196911908
 30
0.0
 10
10.2792728867
 20
8.7192531253
 30
0.0
 10
10.2777659734
 20
8.7189026414
 30
0.0
 10
10.2768241238
 20
8.7186836608
 30
0.0
 10
10.27607071
 20
8.7185083118
 30
0.0
 10
10.2755054692
 20
8.7183772503
 30
0.0
 10
10.2750350092
 20
8.7182666
 30
0.0
 10
10.2747045608
 20
8.718191956
 30
0.0
 10
10.274517492
 20
8.7181449128
 30
0.0
 10
10.2743722355
 20
8.7181219956
 30
0.0
 10
10.2742459193
 20
8.7180518122
 30
0.0
 10
10.2740708911
 20
8.7179747213
 30
0.0
 10
10.2737676699
 20
8.7178321307
 30
0.0
 10
10.2733328875
 20
8.7176324459
 30
0.0
 10
10.2728118375
 20
8.717391105
 30
0.0
 10
10.2721168635
 20
8.7170699177
 30
0.0
 10
10.2712482284
 20
8.7166682279
 30
0.0
 10
10.2698583662
 20
8.7160256392
 30
0.0
 10
10.2681210542
 20
8.7152223639
 30
0.0
 10
10.2660362731
 20
8.7142584504
 30
0.0
 10
10.2639514938
 20
8.7132945324
 30
0.0
 10
10.2611717874
 20
8.7120093099
 30
0.0
 10
10.2576971546
 20
8.7104027813
 30
0.0
 10
10.2542225217
 20
8.708796253
 30
0.0
 10
10.2514428155
 20
8.7075110299
 30
0.0
 10
10.2493580354
 20
8.7065471138
 30
0.0
 10
10.2472732575
 20
8.7055831932
 30
0.0
 10
10.2455359354
 20
8.7047799399
 30
0.0
 10
10.2441460939
 20
8.7041373063
 30
0.0
 10
10.243277406
 20
8.7037357307
 30
0.0
 10
10.2425825402
 20
8.7034143091
 30
0.0
 10
10.2420611596
 20
8.703173684
 30
0.0
 10
10.2416274116
 20
8.7029717599
 30
0.0
 10
10.2413223439
 20
8.7028331666
 30
0.0
 10
10.2411502742
 20
8.702749671
 30
0.0
 10
10.2410148705
 20
8.7026991611
 30
0.0
 10
10.2409037454
 20
8.7026023535
 30
0.0
 10
10.2407471101
 20
8.702489426
 30
0.0
 10
10.2404769439
 20
8.7022842785
 30
0.0
 10
10.2400889293
 20
8.7019951445
 30
0.0
 10
10.2396241948
 20
8.7016464999
 30
0.0
 10
10.2390042404
 20
8.7011822285
 30
0.0
 10
10.2382294029
 20
8.7006016879
 30
0.0
 10
10.236989604
 20
8.6996729355
 30
0.0
 10
10.2354398756
 20
8.6985119564
 30
0.0
 10
10.2335801929
 20
8.697118798
 30
0.0
 10
10.2317205125
 20
8.6957256352
 30
0.0
 10
10.2292409377
 20
8.6938680863
 30
0.0
 10
10.2261414697
 20
8.6915461497
 30
0.0
 10
10.2230420013
 20
8.6892242134
 30
0.0
 10
10.2205624271
 20
8.687366664
 30
0.0
 10
10.2187027454
 20
8.6859735028
 30
0.0
 10
10.2168430674
 20
8.6845803383
 30
0.0
 10
10.2152933241
 20
8.6834193783
 30
0.0
 10
10.2140535555
 20
8.6824905868
 30
0.0
 10
10.213278641
 20
8.6819101458
 30
0.0
 10
10.2126588448
 20
8.68144567
 30
0.0
 10
10.2121936268
 20
8.6810976497
 30
0.0
 10
10.2118071251
 20
8.6808065624
 30
0.0
 10
10.2115342582
 20
8.6806049019
 30
0.0
 10
10.21138195
 20
8.6804863874
 30
0.0
 10
10.2112575332
 20
8.6804067411
 30
0.0
 10
10.2111720512
 20
8.6802917766
 30
0.0
 10
10.2110444943
 20
8.6801508099
 30
0.0
 10
10.2108275974
 20
8.6798983785
 30
0.0
 10
10.2105144365
 20
8.6795407629
 30
0.0
 10
10.2101400594
 20
8.6791103399
 30
0.0
 10
10.2096403953
 20
8.6785368911
 30
0.0
 10
10.2090159846
 20
8.6778199264
 30
0.0
 10
10.2080168328
 20
8.6766728689
 30
0.0
 10
10.2067679255
 20
8.6752390175
 30
0.0
 10
10.2052692229
 20
8.6735184085
 30
0.0
 10
10.203770524
 20
8.6717977961
 30
0.0
 10
10.2017722575
 20
8.6695036474
 30
0.0
 10
10.1992744248
 20
8.6666359611
 30
0.0
 10
10.1967765918
 20
8.663768275
 30
0.0
 10
10.1947783258
 20
8.6614741259
 30
0.0
 10
10.1932796253
 20
8.6597535148
 30
0.0
 10
10.1917809287
 20
8.6580329008
 30
0.0
 10
10.1905320026
 20
8.6565990649
 30
0.0
 10
10.1895328892
 20
8.6554519758
 30
0.0
 10
10.1889083806
 20
8.6547350915
 30
0.0
 10
10.1884089175
 20
8.6541614779
 30
0.0
 10
10.1880339266
 20
8.6537315584
 30
0.0
 10
10.187722686
 20
8.6533723673
 30
0.0
 10
10.187502361
 20
8.6531227484
 30
0.0
 10
10.1873802967
 20
8.6529772753
 30
0.0
 10
10.1872779434
 20
8.6528761532
 30
0.0
 10
10.1872168925
 20
8.6527445172
 30
0.0
 10
10.1871210846
 20
8.6525796461
 30
0.0
 10
10.1869601331
 20
8.6522861626
 30
0.0
 10
10.186726693
 20
8.6518694931
 30
0.0
 10
10.1864480671
 20
8.6513683799
 30
0.0
 10
10.1860760412
 20
8.6507006167
 30
0.0
 10
10.1856111884
 20
8.6498657799
 30
0.0
 10
10.1848673236
 20
8.6485301153
 30
0.0
 10
10.183937527
 20
8.6468605091
 30
0.0
 10
10.1828217564
 20
8.6448569925
 30
0.0
 10
10.1817059897
 20
8.642853473
 30
0.0
 10
10.1802182994
 20
8.6401821147
 30
0.0
 10
10.1783586871
 20
8.6368429164
 30
0.0
 10
10.1764990743
 20
8.6335037184
 30
0.0
 10
10.1750113846
 20
8.6308323597
 30
0.0
 10
10.1738956162
 20
8.6288288413
 30
0.0
 10
10.1727798521
 20
8.6268253207
 30
0.0
 10
10.1718500351
 20
8.6251557269
 30
0.0
 10
10.1711062121
 20
8.6238200369
 30
0.0
 10
10.170641253
 20
8.6229852646
 30
0.0
 10
10.1702694453
 20
8.6223173691
 30
0.0
 10
10.1699901525
 20
8.6218166599
 30
0.0
 10
10.1697587991
 20
8.6213987268
 30
0.0
 10
10.1695941226
 20
8.621107499
 30
0.0
 10
10.169504283
 20
8.6209390137
 30
0.0
 10
10.1694248991
 20
8.6208184792
 30
0.0
 10
10.1693914015
 20
8.6206756618
 30
0.0
 10
10.1693307324
 20
8.620493011
 30
0.0
 10
10.1692320189
 20
8.6201697509
 30
0.0
 10
10.1690871007
 20
8.6197098441
 30
0.0
 10
10.1689148676
 20
8.6191571455
 30
0.0
 10
10.1686846407
 20
8.618420497
 30
0.0
 10
10.1683970566
 20
8.6174995896
 30
0.0
 10
10.1679368106
 20
8.6160261918
 30
0.0
 10
10.1673615413
 20
8.614184426
 30
0.0
 10
10.1666712017
 20
8.6119743151
 30
0.0
 10
10.1659808665
 20
8.6097642019
 30
0.0
 10
10.1650604181
 20
8.6068173852
 30
0.0
 10
10.1639098581
 20
8.603133864
 30
0.0
 10
10.1627592978
 20
8.599450343
 30
0.0
 10
10.16183885
 20
8.596503526
 30
0.0
 10
10.1611485129
 20
8.5942934137
 30
0.0
 10
10.1604581805
 20
8.5920832997
 30
0.0
 10
10.1598828889
 20
8.5902415433
 30
0.0
 10
10.1594226882
 20
8.5887681263
 30
0.0
 10
10.1591349888
 20
8.5878472677
 30
0.0
 10
10.1589049987
 20
8.587110519
 30
0.0
 10
10.158732042
 20
8.5865581267
 30
0.0
 10
10.1585893879
 20
8.5860972616
 30
0.0
 10
10.1584866326
 20
8.5857757121
 30
0.0
 10
10.1584324393
 20
8.5855903205
 30
0.0
 10
10.1583790502
 20
8.5854559223
 30
0.0
 10
10.1583743756
 20
8.5853037666
 30
0.0
 10
10.1583511506
 20
8.5851070863
 30
0.0
 10
10.1583184238
 20
8.5847600098
 30
0.0
 10
10.1582675321
 20
8.5842656951
 30
0.0
 10
10.1582082338
 20
8.5836718716
 30
0.0
 10
10.1581285506
 20
8.5828803326
 30
0.0
 10
10.1580291585
 20
8.5818908315
 30
0.0
 10
10.1578700127
 20
8.580307673
 30
0.0
 10
10.1576711211
 20
8.57832871
 30
0.0
 10
10.1574324337
 20
8.5759539608
 30
0.0
 10
10.157193751
 20
8.5735792099
 30
0.0
 10
10.1568755057
 20
8.5704128759
 30
0.0
 10
10.1564776997
 20
8.5664549583
 30
0.0
 10
10.1560003323
 20
8.5617054572
 30
0.0
 10
10.1553638424
 20
8.555372789
 30
0.0
 10
10.154886475
 20
8.5506232879
 30
0.0
 10
10.1545682301
 20
8.5474569538
 30
0.0
  0
ENDSEC
  0
SECTION
  2
OBJECTS
  0
DICTIONARY
  5
C
100
AcDbDictionary
280
0
281
1
  3
ACAD_GROUP
350
D
  3
ACAD_MLINESTYLE
350
17
  3
ACAD_LAYOUT
350
1A
  3
ACAD_PLOTSETTINGS
350
19
  3
ACAD_PLOTSTYLENAME
350
E
  3
ACAD_IMAGE_DICT
350
       361
  3
ACAD_IMAGE_VARS
350
       362
  3
ACAD_TABLESTYLE
350
       363
  0
IMAGEDEF_REACTOR
  5
360
100
AcDbRasterImageDefReactor
 90
2
330
287
  0
DICTIONARY
  5
D
102
{ACAD_REACTORS
330
C
102
}
100
AcDbDictionary
280
0
281
1
  0
ACDBDICTIONARYWDFLT
  5
E
102
{ACAD_REACTORS
330
C
102
}
100
AcDbDictionary
281
1
  3
Normal
350
F
100
AcDbDictionaryWithDefault
340
F
  0
DICTIONARY
  5
361
330
C
100
AcDbDictionary
281
1
  3
DNL_assy_2_img_1
350
       366
  0
RASTERVARIABLES
  5
362
330
C
100
AcDbRasterVariables
 90
0
 70
0
 71
1
 72
5
  0
DICTIONARY
  5
17
102
{ACAD_REACTORS
330
C
102
}
100
AcDbDictionary
280
0
281
1
  3
Standard
350
18
  0
DICTIONARY
  5
363
330
C
100
AcDbDictionary
281
1
  3
Standard
350
       367
  3
Standard1
350
       368
  0
DICTIONARY
  5
19
102
{ACAD_REACTORS
330
C
102
}
100
AcDbDictionary
281
1
  0
DICTIONARY
  5
1A
102
{ACAD_REACTORS
330
C
102
}
100
AcDbDictionary
281
1
  3
Model
350
364
  3
Layout1
350
365
  0
ACDBPLACEHOLDER
  5
F
102
{ACAD_REACTORS
330
E
102
}
  0
MLINESTYLE
  5
18
102
{ACAD_REACTORS
330
17
102
}
100
AcDbMlineStyle
  2
STANDARD
 70
0
  3

 62
256
 51
90.0
 52
90.0
 71
2
 49
0.5
 62
256
  6
BYLAYER
 49
-0.5
 62
256
  6
BYLAYER
  0
LAYOUT
  5
364
102
{ACAD_REACTORS
330
1A
102
}
100
AcDbPlotSettings
  1

  2
none_device
  4
ANSI_C_(22.00_x_17.00_Inches)
  6

 40
0.0
 41
0.0
 42
0.0
 43
0.0
 44
558.8
 45
431.8
 46
0.0
 47
0.0
 48
0.0
 49
0.0
140
0.0
141
0.0
142
1.0
143
1.0
 70
1024
 72
0
 73
0
 74
0
  7

 75
0
147
1.0
148
0.0
149
0.0
100
AcDbLayout
  1
Model
 70
0
 71
0
 10
0.0
 20
0.0
 11
22.0
 21
17.0
 12
0.0
 22
0.0
 32
0.0
 14
0.0
 24
0.0
 34
0.0
 15
0.0
 25
0.0
 35
0.0
146
0.0
 13
0.0
 23
0.0
 33
0.0
 16
1.0
 26
0.0
 36
0.0
 17
0.0
 27
1.0
 37
0.0
 76
0
330
20C
345
0
346
0
  0
LAYOUT
  5
365
102
{ACAD_REACTORS
330
1A
102
}
100
AcDbPlotSettings
  1

  2
none_device
  4
ANSI_C_(22.00_x_17.00_Inches)
  6

 40
0.0
 41
0.0
 42
0.0
 43
0.0
 44
558.8
 45
431.8
 46
0.0
 47
0.0
 48
0.0
 49
0.0
140
0.0
141
0.0
142
1.0
143
1.0
 70
0
 72
0
 73
0
 74
0
  7

 75
0
147
1.0
148
0.0
149
0.0
100
AcDbLayout
  1
Layout1
 70
0
 71
1
 10
0.0
 20
0.0
 11
22.0
 21
17.0
 12
0.0
 22
0.0
 32
0.0
 14
0.0
 24
0.0
 34
0.0
 15
0.0
 25
0.0
 35
0.0
146
0.0
 13
0.0
 23
0.0
 33
0.0
 16
1.0
 26
0.0
 36
0.0
 17
0.0
 27
1.0
 37
0.0
 76
0
330
20D
345
0
346
0
  0
IMAGEDEF
  5
366
102
{ACAD_REACTORS
330
361
330
360
102
}
100
AcDbRasterImageDef
 90
0
  1
DNL_assy_2_img_1.png
 10
369.0
 20
92.0
 11
0.0066666667
 21
0.0066666667
280
1
281
0
  0
TABLESTYLE
  5
367
102
{ACAD_REACTORS
330
363
330
28A
330
28B
102
}
330
363
100
AcDbTableStyle
  3
Standard
 70
0
 71
0
 40
0.06
 41
0.06
280
1
281
1
  7
Standard
140
0.18
170
1
 62
0
 63
7
283
0
  7
Standard
140
0.18
170
1
 62
0
 63
7
283
0
  7
Standard
140
0.18
170
1
 62
0
 63
7
283
0
  0
TABLESTYLE
  5
368
102
{ACAD_REACTORS
330
363
330
289
102
}
330
363
100
AcDbTableStyle
  3
Standard1
 70
1
 71
0
 40
0.06
 41
0.06
280
1
281
1
  7
Standard
140
0.18
170
1
 62
0
 63
7
283
0
  7
Standard
140
0.18
170
1
 62
0
 63
7
283
0
  7
Standard
140
0.18
170
1
 62
0
 63
7
283
0
  0
ENDSEC
  0
EOF
