999
DXF file: DNJ_assy_2.dxf
999
Pro/ENGINEER 2014200 by Parametric Technology Corporation
  0
SECTION
  2
HEADER
  9
$ACADVER
  1
AC1021
  9
$DWGCODEPAGE
  3
ANSI_1252
  9
$EXTMAX
 10
22.0
 20
17.0
 30
0.0
  9
$EXTMIN
 10
0.0
 20
0.0
 30
0.0
  9
$LIMMIN
 10
0.0
 20
0.0
  9
$LIMMAX
 10
22.0
 20
17.0
  9
$VIEWCTR
 10
11.0
 20
8.5
  9
$VIEWSIZE
 40
17.0
  9
$CLAYER
  8
0
  9
$LTSCALE
 40
1.21
  9
$CELTYPE
  6
BYLAYER
  9
$DIMSCALE
 40
1.0
  9
$DIMASZ
 40
0.1875
  9
$DIMEXO
 40
0.0625
  9
$DIMDLI
 40
0.836
  9
$DIMEXE
 40
0.125
  9
$DIMCEN
 40
0.198
  9
$DIMLFAC
 40
1.0
  9
$DIMBLK
  1
_FILLED
  9
$DIMTXT
 40
0.1
  9
$DIMTOL
 70
0
  9
$DIMLIM
 70
0
  9
$DIMTFAC
 40
1.0
  9
$DIMGAP
 40
0.09
  9
$DIMDSEP
 70
46
  9
$AUNITS
 70
0
  9
$PDMODE
 70
3
  9
$PDSIZE
 40
0.3125
  9
$HANDSEED
  5
36A
  9
$TILEMODE
 70
1
  9
$MEASUREMENT
 70
0
  9
$INSUNITS
 70
1
  0
ENDSEC
  0
SECTION
  2
CLASSES
  0
CLASS
  1
ACDBDICTIONARYWDFLT
  2
AcDbDictionaryWithDefault
  3
AutoCAD 2000
 90
0
 91
1
280
0
281
0
  0
CLASS
  1
ACDBPLACEHOLDER
  2
AcDbPlaceHolder
  3
AutoCAD 2000
 90
0
 91
1
280
0
281
0
  0
CLASS
  1
LAYOUT
  2
AcDbLayout
  3
AutoCAD 2000
 90
0
 91
0
280
0
281
0
  0
CLASS
  1
RASTERVARIABLES
  2
AcDbRasterVariables
  3
ISM
 90
0
 91
1
280
0
281
0
  0
CLASS
  1
IMAGEDEF
  2
AcDbRasterImageDef
  3
ISM
 90
0
 91
1
280
0
281
0
  0
CLASS
  1
IMAGEDEF_REACTOR
  2
AcDbRasterImageDefReactor
  3
ISM
 90
0
 91
1
280
0
281
0
  0
CLASS
  1
IMAGE
  2
AcDbRasterImage
  3
ISM
 90
127
 91
1
280
0
281
1
  0
CLASS
  1
TABLESTYLE
  2
AcDbTableStyle
  3
ObjectDBX Classes
 90
2047
 91
1
280
0
281
0
  0
CLASS
  1
ACAD_TABLE
  2
AcDbTable
  3
ObjectDBX Classes
 90
1025
 91
3
280
0
281
1
  0
ENDSEC
  0
SECTION
  2
TABLES
  0
TABLE
  2
VPORT
  5
8
100
AcDbSymbolTable
 70
2
  0
VPORT
  5
1F4
100
AcDbSymbolTableRecord
100
AcDbViewportTableRecord
  2
*ACTIVE
 70
0
 10
0.0
 20
0.0
 11
1.0
 21
1.0
 12
11.0
 22
8.5
 13
0.0
 23
0.0
 14
1.0
 24
1.0
 15
0.0
 25
0.0
 16
0.0
 26
0.0
 36
1.0
 17
0.0
 27
0.0
 37
0.0
 40
17.0
 41
1.2941176471
 42
50.0
 43
0.0
 44
0.0
 50
0.0
 51
0.0
 71
0
 72
100
 73
1
 74
1
 75
0
 76
0
 77
0
 78
0
  0
ENDTAB
  0
TABLE
  2
LTYPE
  5
5
100
AcDbSymbolTable
 70
6
  0
LTYPE
  5
14
100
AcDbSymbolTableRecord
100
AcDbLinetypeTableRecord
  2
BYBLOCK
 70
0
  3

 72
65
 73
0
 40
0.0
  0
LTYPE
  5
15
100
AcDbSymbolTableRecord
100
AcDbLinetypeTableRecord
  2
BYLAYER
 70
0
  3

 72
65
 73
0
 40
0.0
  0
LTYPE
  5
16
100
AcDbSymbolTableRecord
100
AcDbLinetypeTableRecord
  2
CONTINUOUS
 70
64
  3
Solid line
 72
65
 73
0
 40
0.0
  0
LTYPE
  5
1F5
100
AcDbSymbolTableRecord
100
AcDbLinetypeTableRecord
  2
CENTER
 70
64
  3
____ _ ____ _ ____ _ ____ _ ____ _ ____ _ ____
 72
65
 73
4
 40
0.6
 49
0.375
 74
0
 49
-0.075
 74
0
 49
0.075
 74
0
 49
-0.075
 74
0
  0
LTYPE
  5
1F6
100
AcDbSymbolTableRecord
100
AcDbLinetypeTableRecord
  2
HIDDEN
 70
64
  3
- - - - - - - - - - - - - - - - - - - -
 72
65
 73
2
 40
0.2
 49
0.1
 74
0
 49
-0.1
 74
0
  0
LTYPE
  5
1F7
100
AcDbSymbolTableRecord
100
AcDbLinetypeTableRecord
  2
PHANTOM
 70
64
  3
_____ _ _ _____ _ _ _____ _ _ _____
 72
65
 73
6
 40
0.8
 49
0.45
 74
0
 49
-0.05
 74
0
 49
0.1
 74
0
 49
-0.05
 74
0
 49
0.1
 74
0
 49
-0.05
 74
0
  0
LTYPE
  5
1F8
100
AcDbSymbolTableRecord
100
AcDbLinetypeTableRecord
  2
DOT
 70
64
  3
. . . . . . . . . . . . . . . . . . . .
 72
65
 73
2
 40
0.2
 49
0.1
 74
0
 49
-0.1
 74
0
  0
LTYPE
  5
1F9
100
AcDbSymbolTableRecord
100
AcDbLinetypeTableRecord
  2
DASHED
 70
64
  3
- - - - - - - - - - - - - - - - - - - -
 72
65
 73
2
 40
0.2
 49
0.1
 74
0
 49
-0.1
 74
0
  0
ENDTAB
  0
TABLE
  2
LAYER
  5
2
100
AcDbSymbolTable
 70
36
  0
LAYER
  5
10
100
AcDbSymbolTableRecord
100
AcDbLayerTableRecord
  2
0
 70
0
 62
7
  6
CONTINUOUS
370
-3
390
F
  0
LAYER
  5
1FA
100
AcDbSymbolTableRecord
100
AcDbLayerTableRecord
  2
DEFAULT_1
 70
0
 62
7
  6
CENTER
370
-3
390
F
  0
LAYER
  5
1FB
100
AcDbSymbolTableRecord
100
AcDbLayerTableRecord
  2
DEFAULT_2
 70
0
 62
8
  6
HIDDEN
370
-3
390
F
  0
LAYER
  5
1FC
100
AcDbSymbolTableRecord
100
AcDbLayerTableRecord
  2
DEFAULT_3
 70
0
 62
7
  6
PHANTOM
370
-3
390
F
  0
LAYER
  5
1FD
100
AcDbSymbolTableRecord
100
AcDbLayerTableRecord
  2
01___PRT_ALL_DTM_PLN
 70
0
 62
7
  6
CONTINUOUS
370
-3
390
F
  0
LAYER
  5
1FE
100
AcDbSymbolTableRecord
100
AcDbLayerTableRecord
  2
01___PRT_DEF_DTM_PLN
 70
0
 62
7
  6
CONTINUOUS
370
-3
390
F
  0
LAYER
  5
1FF
100
AcDbSymbolTableRecord
100
AcDbLayerTableRecord
  2
02___PRT_ALL_AXES
 70
0
 62
7
  6
CONTINUOUS
370
-3
390
F
  0
LAYER
  5
200
100
AcDbSymbolTableRecord
100
AcDbLayerTableRecord
  2
03___PRT_ALL_CURVES
 70
0
 62
7
  6
CONTINUOUS
370
-3
390
F
  0
LAYER
  5
201
100
AcDbSymbolTableRecord
100
AcDbLayerTableRecord
  2
04___PRT_ALL_DTM_PNT
 70
0
 62
7
  6
CONTINUOUS
370
-3
390
F
  0
LAYER
  5
202
100
AcDbSymbolTableRecord
100
AcDbLayerTableRecord
  2
05___PRT_ALL_DTM_CSYS
 70
0
 62
7
  6
CONTINUOUS
370
-3
390
F
  0
LAYER
  5
203
100
AcDbSymbolTableRecord
100
AcDbLayerTableRecord
  2
05___PRT_DEF_DTM_CSYS
 70
0
 62
7
  6
CONTINUOUS
370
-3
390
F
  0
LAYER
  5
204
100
AcDbSymbolTableRecord
100
AcDbLayerTableRecord
  2
06___PRT_ALL_SURFS
 70
0
 62
7
  6
CONTINUOUS
370
-3
390
F
  0
LAYER
  5
205
100
AcDbSymbolTableRecord
100
AcDbLayerTableRecord
  2
DATUM_PLANES
 70
0
 62
7
  6
CONTINUOUS
370
-3
390
F
  0
LAYER
  5
206
100
AcDbSymbolTableRecord
100
AcDbLayerTableRecord
  2
PORT_AREAS
 70
0
 62
7
  6
CONTINUOUS
370
-3
390
F
  0
LAYER
  5
207
100
AcDbSymbolTableRecord
100
AcDbLayerTableRecord
  2
SUNNBOMCOSMETIC
 70
0
 62
7
  6
CONTINUOUS
370
-3
390
F
  0
LAYER
  5
208
100
AcDbSymbolTableRecord
100
AcDbLayerTableRecord
  2
SUNNBOMSTAMPING
 70
0
 62
7
  6
CONTINUOUS
370
-3
390
F
  0
LAYER
  5
209
100
AcDbSymbolTableRecord
100
AcDbLayerTableRecord
  2
THREADS
 70
0
 62
7
  6
CONTINUOUS
370
-3
390
F
  0
ENDTAB
  0
TABLE
  2
STYLE
  5
3
100
AcDbSymbolTable
 70
1
  0
STYLE
  5
11
100
AcDbSymbolTableRecord
100
AcDbTextStyleTableRecord
  2
STANDARD
 70
0
 40
0.0
 41
0.8
 50
0.0
 71
0
 42
0.2
  3
txt
  4

  0
STYLE
  5
20A
100
AcDbSymbolTableRecord
100
AcDbTextStyleTableRecord
  2
TEXTSTYLE_1
 70
0
 40
0.0
 41
0.8
 50
0.0
 71
0
 42
0.2
  3
gdt
  4

  0
ENDTAB
  0
TABLE
  2
VIEW
  5
6
100
AcDbSymbolTable
 70
0
  0
ENDTAB
  0
TABLE
  2
UCS
  5
7
100
AcDbSymbolTable
 70
0
  0
ENDTAB
  0
TABLE
  2
APPID
  5
9
100
AcDbSymbolTable
 70
1
  0
APPID
  5
20B
100
AcDbSymbolTableRecord
100
AcDbRegAppTableRecord
  2
ACAD
 70
0
  0
ENDTAB
  0
TABLE
  2
BLOCK_RECORD
  5
1
100
AcDbSymbolTable
 70
0
  0
BLOCK_RECORD
  5
20C
100
AcDbSymbolTableRecord
100
AcDbBlockTableRecord
  2
*Model_Space
  0
BLOCK_RECORD
  5
20D
100
AcDbSymbolTableRecord
100
AcDbBlockTableRecord
  2
*Paper_Space
  0
BLOCK_RECORD
  5
20E
100
AcDbSymbolTableRecord
100
AcDbBlockTableRecord
  2
SUN_FIRST_THIRD_ANGLE_BL0
  0
BLOCK_RECORD
  5
20F
100
AcDbSymbolTableRecord
100
AcDbBlockTableRecord
  2
*T1
  0
BLOCK_RECORD
  5
210
100
AcDbSymbolTableRecord
100
AcDbBlockTableRecord
  2
*T2
  0
BLOCK_RECORD
  5
211
100
AcDbSymbolTableRecord
100
AcDbBlockTableRecord
  2
*T3
  0
ENDTAB
  0
TABLE
  2
DIMSTYLE
  5
A
100
AcDbSymbolTable
 70
1
100
AcDbDimStyleTable
 71
0
  0
DIMSTYLE
105
212
100
AcDbSymbolTableRecord
100
AcDbDimStyleTableRecord
  2
STANDARD
 70
0
  3

  4

 40
1.0
 41
0.1875
 42
0.0625
 43
0.38
 44
0.125
 45
0.0
 46
0.0
 47
0.001
 48
0.001
140
0.1
141
0.09
142
0.0
143
25.4
144
1.0
145
0.0
146
1.0
147
0.09
 71
0.0
 72
0.0
 73
1
 74
1
 75
0
 76
0
 77
0
 78
4
170
0
171
2
172
0
173
0
174
0
175
0
176
0
177
0
178
0
270
2
271
3
272
3
273
2
274
2
275
0
280
0
281
0
282
0
283
1
284
4
285
0
286
0
287
3
288
0
340
11
278
46
  0
ENDTAB
  0
ENDSEC
  0
SECTION
  2
BLOCKS
  0
BLOCK
  5
20
100
AcDbEntity
  8
0
100
AcDbBlockBegin
  2
*Model_Space
 70
0
 10
0.0
 20
0.0
 30
0.0
  3
*Model_Space
  1

  0
ENDBLK
  5
21
100
AcDbEntity
  8
0
100
AcDbBlockEnd
  0
BLOCK
  5
1C
100
AcDbEntity
  8
0
100
AcDbBlockBegin
  2
*Paper_Space
 70
0
 10
0.0
 20
0.0
 30
0.0
  3
*Paper_Space
  1

  0
ENDBLK
  5
1D
100
AcDbEntity
  8
0
100
AcDbBlockEnd
  0
BLOCK
  5
213
100
AcDbEntity
  8
0
100
AcDbBlockBegin
 62
2
  6
CONTINUOUS
  2
SUN_FIRST_THIRD_ANGLE_BL0
 70
64
 10
20.4816717061
 20
1.2289683772
  3
SUN_FIRST_THIRD_ANGLE_BL0
  1

  0
TEXT
  5
214
100
AcDbEntity
  8
0
100
AcDbText
 62
2
  6
CONTINUOUS
 10
19.4750896608
 20
1.4136269581
  7
STANDARD
 40
0.08
  1
FIRST ANGLE
 41
0.8
 72
0
100
AcDbText
  0
TEXT
  5
215
100
AcDbEntity
  8
0
100
AcDbText
 62
2
  6
CONTINUOUS
 10
20.7842537513
 20
1.4047600029
  7
STANDARD
 40
0.08
  1
THIRD ANGLE
 41
0.8
 72
0
100
AcDbText
  0
LINE
  5
216
100
AcDbEntity
  8
0
100
AcDbLine
 62
7
  6
CONTINUOUS
 10
19.4767170086
 20
1.1727031207
 11
19.6334271527
 21
1.1717972817
  0
LINE
  5
217
100
AcDbEntity
  8
0
100
AcDbLine
 62
7
  6
CONTINUOUS
 10
19.6596964832
 20
1.1717972817
 11
19.6950230232
 21
1.171593082
  0
LINE
  5
218
100
AcDbEntity
  8
0
100
AcDbLine
 62
7
  6
CONTINUOUS
 10
19.7194818561
 20
1.1708914427
 11
19.8852396156
 21
1.1699333054
  0
LINE
  5
219
100
AcDbEntity
  8
0
100
AcDbLine
 62
7
  6
CONTINUOUS
 10
19.4758111696
 20
1.2723454088
 11
19.88525039
 21
1.3511534004
  0
LINE
  5
21A
100
AcDbEntity
  8
0
100
AcDbLine
 62
7
  6
CONTINUOUS
 10
19.88525039
 20
1.3511534004
 11
19.8831348489
 21
0.9851647912
  0
LINE
  5
21B
100
AcDbEntity
  8
0
100
AcDbLine
 62
7
  6
CONTINUOUS
 10
19.8831348489
 20
0.9851647912
 11
19.4767170086
 21
1.0658141206
  0
LINE
  5
21C
100
AcDbEntity
  8
0
100
AcDbLine
 62
7
  6
CONTINUOUS
 10
19.4767170086
 20
1.0658141206
 11
19.4779056764
 21
1.2714536432
  0
CIRCLE
  5
21D
100
AcDbEntity
  8
0
100
AcDbCircle
 62
7
  6
CONTINUOUS
 10
20.2068232291
 20
1.1717972817
 40
0.175742101
  0
CIRCLE
  5
21E
100
AcDbEntity
  8
0
100
AcDbCircle
 62
7
  6
CONTINUOUS
 10
20.2068232291
 20
1.1717972817
 40
0.1005522074
  0
LINE
  5
21F
100
AcDbEntity
  8
0
100
AcDbLine
 62
7
  6
CONTINUOUS
 10
20.2077290681
 20
1.3756110529
 11
20.2071171714
 21
1.2379342989
  0
LINE
  5
220
100
AcDbEntity
  8
0
100
AcDbLine
 62
7
  6
CONTINUOUS
 10
20.2077290681
 20
1.2016899681
 11
20.2074674401
 21
1.1428236749
  0
LINE
  5
221
100
AcDbEntity
  8
0
100
AcDbLine
 62
7
  6
CONTINUOUS
 10
20.208634907
 20
1.101141841
 11
20.2080230104
 21
0.963465087
  0
LINE
  5
222
100
AcDbEntity
  8
0
100
AcDbLine
 62
7
  6
CONTINUOUS
 10
20.0066328138
 20
1.1745147986
 11
20.1443095678
 21
1.1739029019
  0
LINE
  5
223
100
AcDbEntity
  8
0
100
AcDbLine
 62
7
  6
CONTINUOUS
 10
20.1832714155
 20
1.1727031207
 11
20.238153505
 21
1.172335442
  0
LINE
  5
224
100
AcDbEntity
  8
0
100
AcDbLine
 62
7
  6
CONTINUOUS
 10
20.2756669918
 20
1.1717972817
 11
20.407916871
 21
1.1712095044
  0
CIRCLE
  5
225
100
AcDbEntity
  8
0
100
AcDbCircle
 62
7
  6
CONTINUOUS
 10
20.7509457401
 20
1.1693297793
 40
0.1722024983
  0
CIRCLE
  5
226
100
AcDbEntity
  8
0
100
AcDbCircle
 62
7
  6
CONTINUOUS
 10
20.7509457401
 20
1.1693297793
 40
0.0985164967
  0
LINE
  5
227
100
AcDbEntity
  8
0
100
AcDbLine
 62
7
  6
CONTINUOUS
 10
20.7169767782
 20
1.170462078
 11
20.7825395137
 21
1.1682766535
  0
LINE
  5
228
100
AcDbEntity
  8
0
100
AcDbLine
 62
7
  6
CONTINUOUS
 10
20.8177513651
 20
1.1693297793
 11
20.947965719
 21
1.1693297793
  0
LINE
  5
229
100
AcDbEntity
  8
0
100
AcDbLine
 62
7
  6
CONTINUOUS
 10
20.6875370113
 20
1.170462078
 11
20.5573226574
 21
1.170462078
  0
LINE
  5
22A
100
AcDbEntity
  8
0
100
AcDbLine
 62
7
  6
CONTINUOUS
 10
20.7486811426
 20
1.1987695462
 11
20.7486811426
 21
1.1432869085
  0
LINE
  5
22B
100
AcDbEntity
  8
0
100
AcDbLine
 62
7
  6
CONTINUOUS
 10
20.7498134414
 20
1.1059210505
 11
20.7498134414
 21
0.9757066966
  0
LINE
  5
22C
100
AcDbEntity
  8
0
100
AcDbLine
 62
7
  6
CONTINUOUS
 10
20.7486811426
 20
1.2338708068
 11
20.7486811426
 21
1.3640851607
  0
LINE
  5
22D
100
AcDbEntity
  8
0
100
AcDbLine
 62
7
  6
CONTINUOUS
 10
21.0702539817
 20
1.2701043662
 11
21.4790138229
 21
1.3448360823
  0
LINE
  5
22E
100
AcDbEntity
  8
0
100
AcDbLine
 62
7
  6
CONTINUOUS
 10
21.4790138229
 20
1.3448360823
 11
21.4790138229
 21
0.9779712941
  0
LINE
  5
22F
100
AcDbEntity
  8
0
100
AcDbLine
 62
7
  6
CONTINUOUS
 10
21.4790138229
 20
0.9779712941
 11
21.069121683
 21
1.0617614
  0
LINE
  5
230
100
AcDbEntity
  8
0
100
AcDbLine
 62
7
  6
CONTINUOUS
 10
21.0702539817
 20
1.2701043662
 11
21.069121683
 21
1.0617614
  0
LINE
  5
231
100
AcDbEntity
  8
0
100
AcDbLine
 62
7
  6
CONTINUOUS
 10
21.4790138229
 20
1.1693297793
 11
21.3159628059
 21
1.1693297793
  0
LINE
  5
232
100
AcDbEntity
  8
0
100
AcDbLine
 62
7
  6
CONTINUOUS
 10
21.2876553377
 20
1.1693297793
 11
21.2502894796
 21
1.1693297793
  0
LINE
  5
233
100
AcDbEntity
  8
0
100
AcDbLine
 62
7
  6
CONTINUOUS
 10
21.2208497126
 20
1.1659328831
 11
21.0713862804
 21
1.1659328831
  0
LINE
  5
234
100
AcDbEntity
  8
0
100
AcDbLine
 62
7
  6
CONTINUOUS
 10
20.4796138713
 20
1.5284908897
 11
20.4766766948
 21
0.9294458646
  0
ENDBLK
  5
235
100
AcDbEntity
  8
0
  6
BYBLOCK
 62
0
100
AcDbBlockEnd
  0
BLOCK
  5
236
100
AcDbEntity
  8
0
100
AcDbBlockBegin
  2
*T1
 70
1
 10
0.0
 20
0.0
  3
*T1
  1

  0
LINE
  5
237
100
AcDbEntity
  8
0
100
AcDbLine
 62
2
  6
CONTINUOUS
 10
9.275
 20
0.0
 11
-0.0
 21
0.0
  0
LINE
  5
238
100
AcDbEntity
  8
0
100
AcDbLine
 62
2
  6
CONTINUOUS
 10
9.275
 20
0.0
 11
9.275
 21
1.25
  0
LINE
  5
239
100
AcDbEntity
  8
0
100
AcDbLine
 62
2
  6
CONTINUOUS
 10
9.275
 20
0.625
 11
-0.0
 21
0.625
  0
LINE
  5
23A
100
AcDbEntity
  8
0
100
AcDbLine
 62
2
  6
CONTINUOUS
 10
9.275
 20
1.25
 11
-0.0
 21
1.25
  0
LINE
  5
23B
100
AcDbEntity
  8
0
100
AcDbLine
 62
2
  6
CONTINUOUS
 10
6.8
 20
0.0
 11
6.8
 21
1.25
  0
LINE
  5
23C
100
AcDbEntity
  8
0
100
AcDbLine
 62
2
  6
CONTINUOUS
 10
6.4
 20
0.0
 11
6.4
 21
0.625
  0
LINE
  5
23D
100
AcDbEntity
  8
0
100
AcDbLine
 62
2
  6
CONTINUOUS
 10
5.9
 20
0.0
 11
5.9
 21
0.625
  0
LINE
  5
23E
100
AcDbEntity
  8
0
100
AcDbLine
 62
2
  6
CONTINUOUS
 10
5.2
 20
0.0
 11
5.2
 21
0.625
  0
LINE
  5
23F
100
AcDbEntity
  8
0
100
AcDbLine
 62
2
  6
CONTINUOUS
 10
4.1
 20
0.0
 11
4.1
 21
1.25
  0
LINE
  5
240
100
AcDbEntity
  8
0
100
AcDbLine
 62
2
  6
CONTINUOUS
 10
-0.0
 20
0.0
 11
-0.0
 21
1.25
  0
MTEXT
  5
241
100
AcDbEntity
  8
0
100
AcDbMText
 62
2
  6
CONTINUOUS
  7
STANDARD
 71
2
 72
1
 10
6.6
 20
0.325
 30
0.0
 11
1.0
 21
0.0
 31
0.0
 44
0.9
  1
2
 40
0.125
 41
0.2
  0
MTEXT
  5
242
100
AcDbEntity
  8
0
100
AcDbMText
 62
2
  6
CONTINUOUS
  7
STANDARD
 71
2
 72
1
 10
6.15
 20
0.325
 30
0.0
 11
1.0
 21
0.0
 31
0.0
 44
0.9
  1
C
 40
0.125
 41
0.2
  0
MTEXT
  5
243
100
AcDbEntity
  8
0
100
AcDbMText
 62
2
  6
CONTINUOUS
  7
STANDARD
 71
2
 72
1
 10
5.55
 20
0.325
 30
0.0
 11
1.0
 21
0.0
 31
0.0
 44
0.9
  1
1.000
 40
0.125
 41
1.0
  0
MTEXT
  5
244
100
AcDbEntity
  8
0
100
AcDbMText
 62
2
  6
CONTINUOUS
  7
STANDARD
 71
2
 72
1
 10
4.65
 20
0.325
 30
0.0
 11
1.0
 21
0.0
 31
0.0
 44
0.9
  1
Mar-16-23
 40
0.125
 41
1.8
  0
MTEXT
  5
245
100
AcDbEntity
  8
0
100
AcDbMText
 62
2
  6
CONTINUOUS
  7
STANDARD
 71
2
 72
1
 10
2.05
 20
0.4625
 30
0.0
 11
1.0
 21
0.0
 31
0.0
 44
0.9
  1
T-5A Line mount\PNinety degree with reverse flow check
 40
0.125
 41
7.4
  0
MTEXT
  5
246
100
AcDbEntity
  8
0
100
AcDbMText
 62
2
  6
CONTINUOUS
  7
STANDARD
 71
1
 72
1
 10
6.45
 20
0.5625
 30
0.0
 11
1.0
 21
0.0
 31
0.0
 44
0.9
  1
SHEET
 40
0.06
 41
0.48
  0
MTEXT
  5
247
100
AcDbEntity
  8
0
100
AcDbMText
 62
2
  6
CONTINUOUS
  7
STANDARD
 71
1
 72
1
 10
5.95
 20
0.5625
 30
0.0
 11
1.0
 21
0.0
 31
0.0
 44
0.9
  1
DWG SIZE
 40
0.06
 41
0.768
  0
MTEXT
  5
248
100
AcDbEntity
  8
0
100
AcDbMText
 62
2
  6
CONTINUOUS
  7
STANDARD
 71
1
 72
1
 10
5.25
 20
0.5625
 30
0.0
 11
1.0
 21
0.0
 31
0.0
 44
0.9
  1
SCALE
 40
0.06
 41
0.48
  0
MTEXT
  5
249
100
AcDbEntity
  8
0
100
AcDbMText
 62
2
  6
CONTINUOUS
  7
STANDARD
 71
1
 72
1
 10
4.15
 20
0.5625
 30
0.0
 11
1.0
 21
0.0
 31
0.0
 44
0.9
  1
DATE
 40
0.06
 41
0.384
  0
MTEXT
  5
24A
100
AcDbEntity
  8
0
100
AcDbMText
 62
2
  6
CONTINUOUS
  7
STANDARD
 71
1
 72
1
 10
0.05
 20
0.5625
 30
0.0
 11
1.0
 21
0.0
 31
0.0
 44
0.9
  1
DESCRIPTION
 40
0.06
 41
1.056
  0
MTEXT
  5
24B
100
AcDbEntity
  8
0
100
AcDbMText
 62
2
  6
CONTINUOUS
  7
STANDARD
 71
2
 72
1
 10
5.45
 20
1.0375
 30
0.0
 11
1.0
 21
0.0
 31
0.0
 44
0.9
  1
ALL DIMENSIONS IN INCH\PVIEWS ARE THIRD ANGLE
 40
0.12
 41
4.224
  0
MTEXT
  5
24C
100
AcDbEntity
  8
0
100
AcDbMText
 62
2
  6
CONTINUOUS
  7
STANDARD
 71
2
 72
1
 10
2.05
 20
0.95
 30
0.0
 11
1.0
 21
0.0
 31
0.0
 44
0.9
  1
DNJ
 40
0.125
 41
0.6
  0
MTEXT
  5
24D
100
AcDbEntity
  8
0
100
AcDbMText
 62
2
  6
CONTINUOUS
  7
STANDARD
 71
1
 72
1
 10
0.05
 20
1.1875
 30
0.0
 11
1.0
 21
0.0
 31
0.0
 44
0.9
  1
MODEL
 40
0.06
 41
0.48
  0
ENDBLK
  5
24E
100
AcDbEntity
  8
0
  6
BYBLOCK
 62
0
100
AcDbBlockEnd
  0
BLOCK
  5
24F
100
AcDbEntity
  8
0
100
AcDbBlockBegin
  2
*T2
 70
1
 10
0.0
 20
0.0
  3
*T2
  1

  0
LINE
  5
250
100
AcDbEntity
  8
0
100
AcDbLine
 62
2
  6
CONTINUOUS
 10
0.0
 20
0.0
 11
9.055
 21
0.0
  0
LINE
  5
251
100
AcDbEntity
  8
0
100
AcDbLine
 62
2
  6
CONTINUOUS
 10
0.0
 20
0.0
 11
0.0
 21
-2.594
  0
LINE
  5
252
100
AcDbEntity
  8
0
100
AcDbLine
 62
2
  6
CONTINUOUS
 10
0.0
 20
-0.344
 11
9.055
 21
-0.344
  0
LINE
  5
253
100
AcDbEntity
  8
0
100
AcDbLine
 62
2
  6
CONTINUOUS
 10
0.0
 20
-0.594
 11
9.055
 21
-0.594
  0
LINE
  5
254
100
AcDbEntity
  8
0
100
AcDbLine
 62
2
  6
CONTINUOUS
 10
0.0
 20
-0.844
 11
9.055
 21
-0.844
  0
LINE
  5
255
100
AcDbEntity
  8
0
100
AcDbLine
 62
2
  6
CONTINUOUS
 10
0.0
 20
-1.094
 11
9.055
 21
-1.094
  0
LINE
  5
256
100
AcDbEntity
  8
0
100
AcDbLine
 62
2
  6
CONTINUOUS
 10
0.0
 20
-1.344
 11
9.055
 21
-1.344
  0
LINE
  5
257
100
AcDbEntity
  8
0
100
AcDbLine
 62
2
  6
CONTINUOUS
 10
0.0
 20
-1.594
 11
9.055
 21
-1.594
  0
LINE
  5
258
100
AcDbEntity
  8
0
100
AcDbLine
 62
2
  6
CONTINUOUS
 10
0.0
 20
-1.844
 11
9.055
 21
-1.844
  0
LINE
  5
259
100
AcDbEntity
  8
0
100
AcDbLine
 62
2
  6
CONTINUOUS
 10
0.0
 20
-2.094
 11
9.055
 21
-2.094
  0
LINE
  5
25A
100
AcDbEntity
  8
0
100
AcDbLine
 62
2
  6
CONTINUOUS
 10
0.0
 20
-2.344
 11
9.055
 21
-2.344
  0
LINE
  5
25B
100
AcDbEntity
  8
0
100
AcDbLine
 62
2
  6
CONTINUOUS
 10
0.0
 20
-2.594
 11
9.055
 21
-2.594
  0
LINE
  5
25C
100
AcDbEntity
  8
0
100
AcDbLine
 62
2
  6
CONTINUOUS
 10
3.055
 20
0.0
 11
3.055
 21
-2.594
  0
LINE
  5
25D
100
AcDbEntity
  8
0
100
AcDbLine
 62
2
  6
CONTINUOUS
 10
9.055
 20
0.0
 11
9.055
 21
-2.594
  0
MTEXT
  5
25E
100
AcDbEntity
  8
0
100
AcDbMText
 62
2
  6
CONTINUOUS
  7
STANDARD
 71
2
 72
1
 10
1.5275
 20
-0.0995
 30
0.0
 11
1.0
 21
0.0
 31
0.0
 44
0.9
  1
Technical Data
 40
0.145
 41
3.248
  0
MTEXT
  5
25F
100
AcDbEntity
  8
0
100
AcDbMText
 62
2
  6
CONTINUOUS
  7
STANDARD
 71
2
 72
1
 10
4.555
 20
-0.0995
 30
0.0
 11
1.0
 21
0.0
 31
0.0
 44
0.9
  1
U.S. Units
 40
0.145
 41
2.32
  0
MTEXT
  5
260
100
AcDbEntity
  8
0
100
AcDbMText
 62
2
  6
CONTINUOUS
  7
STANDARD
 71
2
 72
1
 10
7.555
 20
-0.0995
 30
0.0
 11
1.0
 21
0.0
 31
0.0
 44
0.9
  1
Metric Units
 40
0.145
 41
2.784
  0
MTEXT
  5
261
100
AcDbEntity
  8
0
100
AcDbMText
 62
2
  6
CONTINUOUS
  7
STANDARD
 71
2
 72
1
 10
1.5275
 20
-0.4065
 30
0.0
 11
1.0
 21
0.0
 31
0.0
 44
0.9
  1
Cavity
 40
0.125
 41
1.2
  0
MTEXT
  5
262
100
AcDbEntity
  8
0
100
AcDbMText
 62
2
  6
CONTINUOUS
  7
STANDARD
 71
2
 72
1
 10
6.055
 20
-0.4065
 30
0.0
 11
1.0
 21
0.0
 31
0.0
 44
0.9
  1
T-5A
 40
0.125
 41
0.8
  0
MTEXT
  5
263
100
AcDbEntity
  8
0
100
AcDbMText
 62
2
  6
CONTINUOUS
  7
STANDARD
 71
2
 72
1
 10
1.5275
 20
-0.6565
 30
0.0
 11
1.0
 21
0.0
 31
0.0
 44
0.9
  1
Body Features
 40
0.125
 41
2.6
  0
MTEXT
  5
264
100
AcDbEntity
  8
0
100
AcDbMText
 62
2
  6
CONTINUOUS
  7
STANDARD
 71
2
 72
1
 10
6.055
 20
-0.6565
 30
0.0
 11
1.0
 21
0.0
 31
0.0
 44
0.9
  1
Ninety degree with reverse flow check
 40
0.125
 41
7.4
  0
MTEXT
  5
265
100
AcDbEntity
  8
0
100
AcDbMText
 62
2
  6
CONTINUOUS
  7
STANDARD
 71
2
 72
1
 10
1.5275
 20
-0.9065
 30
0.0
 11
1.0
 21
0.0
 31
0.0
 44
0.9
  1
Body Type
 40
0.125
 41
1.8
  0
MTEXT
  5
266
100
AcDbEntity
  8
0
100
AcDbMText
 62
2
  6
CONTINUOUS
  7
STANDARD
 71
2
 72
1
 10
6.055
 20
-0.9065
 30
0.0
 11
1.0
 21
0.0
 31
0.0
 44
0.9
  1
Line mount
 40
0.125
 41
2.0
  0
MTEXT
  5
267
100
AcDbEntity
  8
0
100
AcDbMText
 62
2
  6
CONTINUOUS
  7
STANDARD
 71
2
 72
1
 10
1.5275
 20
-1.1565
 30
0.0
 11
1.0
 21
0.0
 31
0.0
 44
0.9
  1
Interface
 40
0.125
 41
1.8
  0
MTEXT
  5
268
100
AcDbEntity
  8
0
100
AcDbMText
 62
2
  6
CONTINUOUS
  7
STANDARD
 71
2
 72
1
 10
6.055
 20
-1.1565
 30
0.0
 11
1.0
 21
0.0
 31
0.0
 44
0.9
  1
None
 40
0.125
 41
0.8
  0
MTEXT
  5
269
100
AcDbEntity
  8
0
100
AcDbMText
 62
2
  6
CONTINUOUS
  7
STANDARD
 71
2
 72
1
 10
1.5275
 20
-1.4065
 30
0.0
 11
1.0
 21
0.0
 31
0.0
 44
0.9
  1
Open Cavity Quantity
 40
0.125
 41
4.0
  0
MTEXT
  5
26A
100
AcDbEntity
  8
0
100
AcDbMText
 62
2
  6
CONTINUOUS
  7
STANDARD
 71
2
 72
1
 10
6.055
 20
-1.4065
 30
0.0
 11
1.0
 21
0.0
 31
0.0
 44
0.9
  1
1
 40
0.125
 41
0.2
  0
MTEXT
  5
26B
100
AcDbEntity
  8
0
100
AcDbMText
 62
2
  6
CONTINUOUS
  7
STANDARD
 71
2
 72
1
 10
1.5275
 20
-1.6565
 30
0.0
 11
1.0
 21
0.0
 31
0.0
 44
0.9
  1
Weight
 40
0.125
 41
1.2
  0
MTEXT
  5
26C
100
AcDbEntity
  8
0
100
AcDbMText
 62
2
  6
CONTINUOUS
  7
STANDARD
 71
2
 72
1
 10
4.555
 20
-1.6565
 30
0.0
 11
1.0
 21
0.0
 31
0.0
 44
0.9
  1
2.035 lb.
 40
0.125
 41
1.8
  0
MTEXT
  5
26D
100
AcDbEntity
  8
0
100
AcDbMText
 62
2
  6
CONTINUOUS
  7
STANDARD
 71
2
 72
1
 10
7.555
 20
-1.6565
 30
0.0
 11
1.0
 21
0.0
 31
0.0
 44
0.9
  1
0,923 kg.
 40
0.125
 41
1.8
  0
MTEXT
  5
26E
100
AcDbEntity
  8
0
100
AcDbMText
 62
2
  6
CONTINUOUS
  7
STANDARD
 71
2
 72
1
 10
1.5275
 20
-1.9065
 30
0.0
 11
1.0
 21
0.0
 31
0.0
 44
0.9
  1
Mounting Hole Diameter
 40
0.125
 41
4.4
  0
MTEXT
  5
26F
100
AcDbEntity
  8
0
100
AcDbMText
 62
2
  6
CONTINUOUS
  7
STANDARD
 71
2
 72
1
 10
4.555
 20
-1.9065
 30
0.0
 11
1.0
 21
0.0
 31
0.0
 44
0.9
  1
.34 in.
 40
0.125
 41
1.4
  0
MTEXT
  5
270
100
AcDbEntity
  8
0
100
AcDbMText
 62
2
  6
CONTINUOUS
  7
STANDARD
 71
2
 72
1
 10
7.555
 20
-1.9065
 30
0.0
 11
1.0
 21
0.0
 31
0.0
 44
0.9
  1
8.6 mm
 40
0.125
 41
1.2
  0
MTEXT
  5
271
100
AcDbEntity
  8
0
100
AcDbMText
 62
2
  6
CONTINUOUS
  7
STANDARD
 71
2
 72
1
 10
1.5275
 20
-2.1565
 30
0.0
 11
1.0
 21
0.0
 31
0.0
 44
0.9
  1
Mounting Hole Depth
 40
0.125
 41
3.8
  0
MTEXT
  5
272
100
AcDbEntity
  8
0
100
AcDbMText
 62
2
  6
CONTINUOUS
  7
STANDARD
 71
2
 72
1
 10
6.055
 20
-2.1565
 30
0.0
 11
1.0
 21
0.0
 31
0.0
 44
0.9
  1
Through
 40
0.125
 41
1.4
  0
MTEXT
  5
273
100
AcDbEntity
  8
0
100
AcDbMText
 62
2
  6
CONTINUOUS
  7
STANDARD
 71
2
 72
1
 10
1.5275
 20
-2.4065
 30
0.0
 11
1.0
 21
0.0
 31
0.0
 44
0.9
  1
Mounting Hole Quantity
 40
0.125
 41
4.4
  0
MTEXT
  5
274
100
AcDbEntity
  8
0
100
AcDbMText
 62
2
  6
CONTINUOUS
  7
STANDARD
 71
2
 72
1
 10
6.055
 20
-2.4065
 30
0.0
 11
1.0
 21
0.0
 31
0.0
 44
0.9
  1
2
 40
0.125
 41
0.2
  0
ENDBLK
  5
275
100
AcDbEntity
  8
0
  6
BYBLOCK
 62
0
100
AcDbBlockEnd
  0
BLOCK
  5
276
100
AcDbEntity
  8
0
100
AcDbBlockBegin
  2
*T3
 70
1
 10
0.0
 20
0.0
  3
*T3
  1

  0
LINE
  5
277
100
AcDbEntity
  8
0
100
AcDbLine
 62
2
  6
CONTINUOUS
 10
0.0
 20
0.0
 11
4.6
 21
0.0
  0
LINE
  5
278
100
AcDbEntity
  8
0
100
AcDbLine
 62
2
  6
CONTINUOUS
 10
0.0
 20
0.0
 11
0.0
 21
-0.93775
  0
LINE
  5
279
100
AcDbEntity
  8
0
100
AcDbLine
 62
2
  6
CONTINUOUS
 10
0.0
 20
-0.34375
 11
4.6
 21
-0.34375
  0
LINE
  5
27A
100
AcDbEntity
  8
0
100
AcDbLine
 62
2
  6
CONTINUOUS
 10
0.0
 20
-0.68775
 11
4.6
 21
-0.68775
  0
LINE
  5
27B
100
AcDbEntity
  8
0
100
AcDbLine
 62
2
  6
CONTINUOUS
 10
0.0
 20
-0.93775
 11
4.6
 21
-0.93775
  0
LINE
  5
27C
100
AcDbEntity
  8
0
100
AcDbLine
 62
2
  6
CONTINUOUS
 10
1.3
 20
-0.34375
 11
1.3
 21
-0.93775
  0
LINE
  5
27D
100
AcDbEntity
  8
0
100
AcDbLine
 62
2
  6
CONTINUOUS
 10
3.3
 20
-0.34375
 11
3.3
 21
-0.93775
  0
LINE
  5
27E
100
AcDbEntity
  8
0
100
AcDbLine
 62
2
  6
CONTINUOUS
 10
4.6
 20
0.0
 11
4.6
 21
-0.93775
  0
MTEXT
  5
27F
100
AcDbEntity
  8
0
100
AcDbMText
 62
2
  6
CONTINUOUS
  7
STANDARD
 71
2
 72
1
 10
2.3
 20
-0.099375
 30
0.0
 11
1.0
 21
0.0
 31
0.0
 44
0.9
  1
Port Headings
 40
0.145
 41
3.016
  0
MTEXT
  5
280
100
AcDbEntity
  8
0
100
AcDbMText
 62
2
  6
CONTINUOUS
  7
STANDARD
 71
2
 72
1
 10
0.65
 20
-0.44325
 30
0.0
 11
1.0
 21
0.0
 31
0.0
 44
0.9
  1
Product
 40
0.145
 41
1.624
  0
MTEXT
  5
281
100
AcDbEntity
  8
0
100
AcDbMText
 62
2
  6
CONTINUOUS
  7
STANDARD
 71
2
 72
1
 10
2.3
 20
-0.44325
 30
0.0
 11
1.0
 21
0.0
 31
0.0
 44
0.9
  1
Port
 40
0.145
 41
0.928
  0
MTEXT
  5
282
100
AcDbEntity
  8
0
100
AcDbMText
 62
2
  6
CONTINUOUS
  7
STANDARD
 71
2
 72
1
 10
3.95
 20
-0.44325
 30
0.0
 11
1.0
 21
0.0
 31
0.0
 44
0.9
  1
Size
 40
0.145
 41
0.928
  0
MTEXT
  5
283
100
AcDbEntity
  8
0
100
AcDbMText
 62
2
  6
CONTINUOUS
  7
STANDARD
 71
2
 72
1
 10
0.65
 20
-0.75025
 30
0.0
 11
1.0
 21
0.0
 31
0.0
 44
0.9
  1
DNJ
 40
0.125
 41
0.6
  0
MTEXT
  5
284
100
AcDbEntity
  8
0
100
AcDbMText
 62
2
  6
CONTINUOUS
  7
STANDARD
 71
2
 72
1
 10
2.3
 20
-0.75025
 30
0.0
 11
1.0
 21
0.0
 31
0.0
 44
0.9
  1
All Ports
 40
0.125
 41
1.8
  0
MTEXT
  5
285
100
AcDbEntity
  8
0
100
AcDbMText
 62
2
  6
CONTINUOUS
  7
STANDARD
 71
2
 72
1
 10
3.95
 20
-0.75025
 30
0.0
 11
1.0
 21
0.0
 31
0.0
 44
0.9
  1
SAE 8
 40
0.125
 41
1.0
  0
ENDBLK
  5
286
100
AcDbEntity
  8
0
  6
BYBLOCK
 62
0
100
AcDbBlockEnd
  0
ENDSEC
  0
SECTION
  2
ENTITIES
  0
IMAGE
  5
287
100
AcDbEntity
  8
0
100
AcDbRasterImage
 62
7
  6
CONTINUOUS
 10
19.2297077316
 20
0.3094318264
 30
0.0
 11
0.0066666667
 21
0.0
 31
0.0
 12
0.0
 22
0.0066666667
 32
0.0
 13
369.0
 23
92.0
340
       367
 70
9
280
0
281
50
282
50
283
0
360
       361
 71
1
 91
2
 14
-0.5
 24
-0.5
 14
368.5
 24
91.5
  0
INSERT
  5
288
100
AcDbEntity
  8
0
100
AcDbBlockReference
 62
2
  6
CONTINUOUS
  2
SUN_FIRST_THIRD_ANGLE_BL0
 10
20.4816717061
 20
1.2289683772
  0
ACAD_TABLE
  5
289
100
AcDbEntity
  8
0
 62
2
  6
CONTINUOUS
100
AcDbBlockReference
  2
*T1
 10
12.42375
 20
0.30125
 30
0.0
100
AcDbTable
342
       369
343
20F
 11
1.0
 21
0.0
 31
0.0
 90
6
 91
4
 92
6
 93
20
 94
0
 95
0
 96
0
 70
1
 41
0.0
141
0.525
141
0.1
141
0.525
141
0.1
142
4.1
142
1.1
142
0.7
142
0.5
142
0.4
142
2.475
171
1
172
0
173
0
174
0
175
1
176
1
 91
33
178
0
145
0.0
301
CELL_VALUE
 90
4
  1
T-5A Line mount\PNinety degree with reverse flow check
304
ACVALUE_END
170
2
140
0.125
171
1
172
0
173
0
174
0
175
1
176
1
 91
33
178
0
145
0.0
301
CELL_VALUE
 90
4
  1
Mar-16-23
304
ACVALUE_END
170
5
140
0.125
171
1
172
0
173
0
174
0
175
1
176
1
 91
33
178
0
145
0.0
301
CELL_VALUE
 90
4
  1
1.000
304
ACVALUE_END
170
5
140
0.125
171
1
172
0
173
0
174
0
175
1
176
1
 91
33
178
0
145
0.0
301
CELL_VALUE
 90
4
  1
C
304
ACVALUE_END
170
5
140
0.125
171
1
172
0
173
0
174
0
175
1
176
1
 91
33
178
0
145
0.0
301
CELL_VALUE
 90
4
  1
2
304
ACVALUE_END
170
5
140
0.125
171
1
172
0
173
0
174
0
175
1
176
1
 91
33
178
0
145
0.0
301
CELL_VALUE
 90
4
  1
 
304
ACVALUE_END
170
1
140
0.125
171
1
172
0
173
0
174
0
175
1
176
1
 91
33
178
0
145
0.0
301
CELL_VALUE
 90
4
  1
DESCRIPTION
304
ACVALUE_END
170
1
140
0.06
171
1
172
0
173
0
174
0
175
1
176
1
 91
33
178
0
145
0.0
301
CELL_VALUE
 90
4
  1
DATE
304
ACVALUE_END
170
1
140
0.06
171
1
172
0
173
0
174
0
175
1
176
1
 91
33
178
0
145
0.0
301
CELL_VALUE
 90
4
  1
SCALE
304
ACVALUE_END
170
1
140
0.06
171
1
172
0
173
0
174
0
175
1
176
1
 91
33
178
0
145
0.0
301
CELL_VALUE
 90
4
  1
DWG SIZE
304
ACVALUE_END
170
1
140
0.06
171
1
172
0
173
0
174
0
175
1
176
1
 91
33
178
0
145
0.0
301
CELL_VALUE
 90
4
  1
SHEET
304
ACVALUE_END
170
1
140
0.06
171
1
172
0
173
0
174
0
175
1
176
1
 91
33
178
0
145
0.0
301
CELL_VALUE
 90
4
  1
 
304
ACVALUE_END
170
1
140
0.125
171
1
172
0
173
0
174
0
175
1
176
1
 91
33
178
0
145
0.0
301
CELL_VALUE
 90
4
  1
DNJ
304
ACVALUE_END
170
5
140
0.125
171
1
172
0
173
0
174
0
175
4
176
1
 91
33
178
0
145
0.0
301
CELL_VALUE
 90
4
  1
ALL DIMENSIONS IN INCH\PVIEWS ARE THIRD ANGLE
304
ACVALUE_END
170
5
140
0.12
171
1
172
0
173
1
174
0
175
1
176
1
 91
1
178
0
145
0.0
170
1
171
1
172
0
173
1
174
0
175
1
176
1
 91
1
178
0
145
0.0
170
1
171
1
172
0
173
1
174
0
175
1
176
1
 91
1
178
0
145
0.0
170
5
171
1
172
0
173
0
174
0
175
1
176
1
 91
33
178
0
145
0.0
301
CELL_VALUE
 90
4
  1
 
304
ACVALUE_END
170
1
140
0.125
171
1
172
0
173
0
174
0
175
1
176
1
 91
33
178
0
145
0.0
301
CELL_VALUE
 90
4
  1
MODEL
304
ACVALUE_END
170
1
140
0.06
171
1
172
0
173
0
174
0
175
1
176
1
 91
33
178
0
145
0.0
301
CELL_VALUE
 90
4
  1
 
304
ACVALUE_END
170
1
140
0.125
171
1
172
0
173
0
174
0
175
1
176
1
 91
33
178
0
145
0.0
301
CELL_VALUE
 90
4
  1
 
304
ACVALUE_END
170
1
140
0.125
171
1
172
0
173
0
174
0
175
1
176
1
 91
33
178
0
145
0.0
301
CELL_VALUE
 90
4
  1
 
304
ACVALUE_END
170
1
140
0.125
171
1
172
0
173
0
174
0
175
1
176
1
 91
33
178
0
145
0.0
301
CELL_VALUE
 90
4
  1
 
304
ACVALUE_END
170
1
140
0.125
171
1
172
0
173
0
174
0
175
1
176
1
 91
33
178
0
145
0.0
301
CELL_VALUE
 90
4
  1
 
304
ACVALUE_END
170
1
140
0.125
  0
ACAD_TABLE
  5
28A
100
AcDbEntity
  8
0
 62
2
  6
CONTINUOUS
100
AcDbBlockReference
  2
*T2
 10
12.4237499994
 20
16.47875
 30
0.0
100
AcDbTable
342
       368
343
210
 11
1.0
 21
0.0
 31
0.0
 90
22
 91
10
 92
3
 93
16
 94
0
 95
0
 96
0
 41
0.028
141
0.344
141
0.25
141
0.25
141
0.25
141
0.25
141
0.25
141
0.25
141
0.25
141
0.25
141
0.25
142
3.055
142
3.0
142
3.0
171
1
172
0
173
0
174
0
175
1
176
1
 91
33
178
0
145
0.0
301
CELL_VALUE
 90
4
  1
Technical Data
304
ACVALUE_END
170
5
140
0.145
171
1
172
0
173
0
174
0
175
1
176
1
 91
33
178
0
145
0.0
301
CELL_VALUE
 90
4
  1
U.S. Units
304
ACVALUE_END
170
5
140
0.145
171
1
172
0
173
0
174
0
175
1
176
1
 91
33
178
0
145
0.0
301
CELL_VALUE
 90
4
  1
Metric Units
304
ACVALUE_END
170
5
140
0.145
171
1
172
0
173
0
174
0
175
1
176
1
 91
33
178
0
145
0.0
301
CELL_VALUE
 90
4
  1
Cavity
304
ACVALUE_END
170
5
140
0.125
171
1
172
0
173
0
174
0
175
2
176
1
 91
33
178
0
145
0.0
301
CELL_VALUE
 90
4
  1
T-5A
304
ACVALUE_END
170
5
140
0.125
171
1
172
0
173
1
174
0
175
1
176
1
 91
1
178
0
145
0.0
170
1
171
1
172
0
173
0
174
0
175
1
176
1
 91
33
178
0
145
0.0
301
CELL_VALUE
 90
4
  1
Body Features
304
ACVALUE_END
170
5
140
0.125
171
1
172
0
173
0
174
0
175
2
176
1
 91
33
178
0
145
0.0
301
CELL_VALUE
 90
4
  1
Ninety degree with reverse flow check
304
ACVALUE_END
170
5
140
0.125
171
1
172
0
173
1
174
0
175
1
176
1
 91
1
178
0
145
0.0
170
1
171
1
172
0
173
0
174
0
175
1
176
1
 91
33
178
0
145
0.0
301
CELL_VALUE
 90
4
  1
Body Type
304
ACVALUE_END
170
5
140
0.125
171
1
172
0
173
0
174
0
175
2
176
1
 91
33
178
0
145
0.0
301
CELL_VALUE
 90
4
  1
Line mount
304
ACVALUE_END
170
5
140
0.125
171
1
172
0
173
1
174
0
175
1
176
1
 91
1
178
0
145
0.0
170
1
171
1
172
0
173
0
174
0
175
1
176
1
 91
33
178
0
145
0.0
301
CELL_VALUE
 90
4
  1
Interface
304
ACVALUE_END
170
5
140
0.125
171
1
172
0
173
0
174
0
175
2
176
1
 91
33
178
0
145
0.0
301
CELL_VALUE
 90
4
  1
None
304
ACVALUE_END
170
5
140
0.125
171
1
172
0
173
1
174
0
175
1
176
1
 91
1
178
0
145
0.0
170
1
171
1
172
0
173
0
174
0
175
1
176
1
 91
33
178
0
145
0.0
301
CELL_VALUE
 90
4
  1
Open Cavity Quantity
304
ACVALUE_END
170
5
140
0.125
171
1
172
0
173
0
174
0
175
2
176
1
 91
33
178
0
145
0.0
301
CELL_VALUE
 90
4
  1
1
304
ACVALUE_END
170
5
140
0.125
171
1
172
0
173
1
174
0
175
1
176
1
 91
1
178
0
145
0.0
170
1
171
1
172
0
173
0
174
0
175
1
176
1
 91
33
178
0
145
0.0
301
CELL_VALUE
 90
4
  1
Weight
304
ACVALUE_END
170
5
140
0.125
171
1
172
0
173
0
174
0
175
1
176
1
 91
33
178
0
145
0.0
301
CELL_VALUE
 90
4
  1
2.035 lb.
304
ACVALUE_END
170
5
140
0.125
171
1
172
0
173
0
174
0
175
1
176
1
 91
33
178
0
145
0.0
301
CELL_VALUE
 90
4
  1
0,923 kg.
304
ACVALUE_END
170
5
140
0.125
171
1
172
0
173
0
174
0
175
1
176
1
 91
33
178
0
145
0.0
301
CELL_VALUE
 90
4
  1
Mounting Hole Diameter
304
ACVALUE_END
170
5
140
0.125
171
1
172
0
173
0
174
0
175
1
176
1
 91
33
178
0
145
0.0
301
CELL_VALUE
 90
4
  1
.34 in.
304
ACVALUE_END
170
5
140
0.125
171
1
172
0
173
0
174
0
175
1
176
1
 91
33
178
0
145
0.0
301
CELL_VALUE
 90
4
  1
8.6 mm
304
ACVALUE_END
170
5
140
0.125
171
1
172
0
173
0
174
0
175
1
176
1
 91
33
178
0
145
0.0
301
CELL_VALUE
 90
4
  1
Mounting Hole Depth
304
ACVALUE_END
170
5
140
0.125
171
1
172
0
173
0
174
0
175
2
176
1
 91
33
178
0
145
0.0
301
CELL_VALUE
 90
4
  1
Through
304
ACVALUE_END
170
5
140
0.125
171
1
172
0
173
1
174
0
175
1
176
1
 91
1
178
0
145
0.0
170
1
171
1
172
0
173
0
174
0
175
1
176
1
 91
33
178
0
145
0.0
301
CELL_VALUE
 90
4
  1
Mounting Hole Quantity
304
ACVALUE_END
170
5
140
0.125
171
1
172
0
173
0
174
0
175
2
176
1
 91
33
178
0
145
0.0
301
CELL_VALUE
 90
4
  1
2
304
ACVALUE_END
170
5
140
0.125
171
1
172
0
173
1
174
0
175
1
176
1
 91
1
178
0
145
0.0
170
1
  0
ACAD_TABLE
  5
28B
100
AcDbEntity
  8
0
 62
2
  6
CONTINUOUS
100
AcDbBlockReference
  2
*T3
 10
0.52125
 20
1.459
 30
0.0
100
AcDbTable
342
       368
343
211
 11
1.0
 21
0.0
 31
0.0
 90
22
 91
3
 92
3
 93
16
 94
0
 95
0
 96
0
 41
0.05
141
0.34375
141
0.344
141
0.25
142
1.3
142
2.0
142
1.3
171
1
172
0
173
0
174
0
175
3
176
1
 91
33
178
0
145
0.0
301
CELL_VALUE
 90
4
  1
Port Headings
304
ACVALUE_END
170
5
140
0.145
171
1
172
0
173
1
174
0
175
1
176
1
 91
1
178
0
145
0.0
170
1
171
1
172
0
173
1
174
0
175
1
176
1
 91
1
178
0
145
0.0
170
1
171
1
172
0
173
0
174
0
175
1
176
1
 91
33
178
0
145
0.0
301
CELL_VALUE
 90
4
  1
Product
304
ACVALUE_END
170
5
140
0.145
171
1
172
0
173
0
174
0
175
1
176
1
 91
33
178
0
145
0.0
301
CELL_VALUE
 90
4
  1
Port
304
ACVALUE_END
170
5
140
0.145
171
1
172
0
173
0
174
0
175
1
176
1
 91
33
178
0
145
0.0
301
CELL_VALUE
 90
4
  1
Size
304
ACVALUE_END
170
5
140
0.145
171
1
172
0
173
0
174
0
175
1
176
1
 91
33
178
0
145
0.0
301
CELL_VALUE
 90
4
  1
DNJ
304
ACVALUE_END
170
5
140
0.125
171
1
172
0
173
0
174
0
175
1
176
1
 91
33
178
0
145
0.0
301
CELL_VALUE
 90
4
  1
All Ports
304
ACVALUE_END
170
5
140
0.125
171
1
172
0
173
0
174
0
175
1
176
1
 91
33
178
0
145
0.0
301
CELL_VALUE
 90
4
  1
SAE 8
304
ACVALUE_END
170
5
140
0.125
  0
MTEXT
  5
28C
100
AcDbEntity
  8
0
100
AcDbMText
 62
2
  6
CONTINUOUS
  7
STANDARD
 71
1
 72
1
 10
0.52125
 20
5.75995
 30
0.0
 11
1.0
 21
0.0
 31
0.0
 44
0.6
  3
Notes\P \P1. Important: Carefully consider\P   the maximum system pressure. The\P   pressure rating of the manifold is\P   dependent on the manifold material,\P   with the port type/size a secondary\P   consideration. Manifolds\P   constructed of alu
  1
minum are not\P   rated for pressures higher than\P   3000 psi (210 bar), regardless of\P   the port type/size specified.
 40
0.1
 41
3.04
  0
LINE
  5
28D
100
AcDbEntity
  8
0
100
AcDbLine
 62
7
  6
CONTINUOUS
 10
0.30125
 20
0.30125
 11
0.30125
 21
16.69875
  0
LINE
  5
28E
100
AcDbEntity
  8
0
100
AcDbLine
 62
7
  6
CONTINUOUS
 10
0.30125
 20
0.30125
 11
21.69875
 21
0.30125
  0
LINE
  5
28F
100
AcDbEntity
  8
0
100
AcDbLine
 62
7
  6
CONTINUOUS
 10
0.30125
 20
16.69875
 11
21.69875
 21
16.69875
  0
LINE
  5
290
100
AcDbEntity
  8
0
100
AcDbLine
 62
7
  6
CONTINUOUS
 10
21.69875
 20
0.30125
 11
21.69875
 21
16.69875
  0
LINE
  5
291
100
AcDbEntity
  8
0
100
AcDbLine
 62
7
  6
CONTINUOUS
 10
9.2946147105
 20
10.5248944472
 11
8.8416817554
 21
10.0873947823
  0
LINE
  5
292
100
AcDbEntity
  8
0
100
AcDbLine
 62
7
  6
CONTINUOUS
 10
8.8416817554
 20
10.0873947823
 11
8.8416817554
 21
7.1896171317
  0
LINE
  5
293
100
AcDbEntity
  8
0
100
AcDbLine
 62
4
  6
CONTINUOUS
 10
9.081231367
 20
8.073247208
 11
9.081231367
 21
7.9573361046
  0
LINE
  5
294
100
AcDbEntity
  8
0
100
AcDbLine
 62
7
  6
CONTINUOUS
 10
11.0320233818
 20
6.5613809282
 11
11.0512412712
 21
6.5518876588
  0
LINE
  5
295
100
AcDbEntity
  8
0
100
AcDbLine
 62
7
  6
CONTINUOUS
 10
8.8416817554
 20
7.1896171317
 11
12.7053852895
 21
6.9216683816
  0
LINE
  5
296
100
AcDbEntity
  8
0
100
AcDbLine
 62
4
  6
CONTINUOUS
 10
10.2312351572
 20
9.0499411386
 11
10.2312351572
 21
9.0664998667
  0
LINE
  5
297
100
AcDbEntity
  8
0
100
AcDbLine
 62
4
  6
CONTINUOUS
 10
10.2312351572
 20
9.0664998667
 11
10.247793887
 21
9.081910243
  0
LINE
  5
298
100
AcDbEntity
  8
0
100
AcDbLine
 62
4
  6
CONTINUOUS
 10
10.2726319809
 20
8.9642766119
 11
10.2891907089
 21
8.97968699
  0
LINE
  5
299
100
AcDbEntity
  8
0
100
AcDbLine
 62
4
  6
CONTINUOUS
 10
10.3637049956
 20
8.9579606768
 11
10.3802637168
 21
8.9733710554
  0
LINE
  5
29A
100
AcDbEntity
  8
0
100
AcDbLine
 62
4
  6
CONTINUOUS
 10
10.2891907089
 20
8.97968699
 11
10.2891907089
 21
8.9962457198
  0
LINE
  5
29B
100
AcDbEntity
  8
0
100
AcDbLine
 62
4
  6
CONTINUOUS
 10
10.3223081651
 20
9.0767426602
 11
10.3223081651
 21
8.9773902866
  0
LINE
  5
29C
100
AcDbEntity
  8
0
100
AcDbLine
 62
4
  6
CONTINUOUS
 10
10.3581854256
 20
8.3671968328
 11
10.3581854256
 21
8.4831079363
  0
LINE
  5
29D
100
AcDbEntity
  8
0
100
AcDbLine
 62
4
  6
CONTINUOUS
 10
10.3802637168
 20
8.9733710554
 11
10.3802637168
 21
9.0727234291
  0
LINE
  5
29E
100
AcDbEntity
  8
0
100
AcDbLine
 62
4
  6
CONTINUOUS
 10
10.413381173
 20
8.9545156222
 11
10.413381173
 21
9.0704267257
  0
LINE
  5
29F
100
AcDbEntity
  8
0
100
AcDbLine
 62
4
  6
CONTINUOUS
 10
10.4161409704
 20
8.4625299775
 11
10.4161409704
 21
8.3797363319
  0
LINE
  5
2A0
100
AcDbEntity
  8
0
100
AcDbLine
 62
4
  6
CONTINUOUS
 10
10.4713367247
 20
8.9504963911
 11
10.4713367247
 21
9.0664074945
  0
LINE
  5
2A1
100
AcDbEntity
  8
0
100
AcDbLine
 62
4
  6
CONTINUOUS
 10
10.5955271887
 20
8.9418837532
 11
10.5955271887
 21
9.0577948566
  0
LINE
  5
2A2
100
AcDbEntity
  8
0
100
AcDbLine
 62
4
  6
CONTINUOUS
 10
10.5955272085
 20
8.3507371243
 11
10.5955272085
 21
8.4666482277
  0
LINE
  5
2A3
100
AcDbEntity
  8
0
100
AcDbLine
 62
4
  6
CONTINUOUS
 10
10.4630573701
 20
8.3599239388
 11
10.4961748262
 21
8.4735383388
  0
LINE
  5
2A4
100
AcDbEntity
  8
0
100
AcDbLine
 62
4
  6
CONTINUOUS
 10
10.694879571
 20
8.9073957602
 11
10.7279970133
 21
9.0154905869
  0
LINE
  5
2A5
100
AcDbEntity
  8
0
100
AcDbLine
 62
4
  6
CONTINUOUS
 10
10.750075345
 20
9.0056800819
 11
10.7666340662
 21
9.0128110982
  0
LINE
  5
2A6
100
AcDbEntity
  8
0
100
AcDbLine
 62
4
  6
CONTINUOUS
 10
10.907383279
 20
8.9533739194
 11
10.9239420002
 21
8.9605049323
  0
LINE
  5
2A7
100
AcDbEntity
  8
0
100
AcDbLine
 62
4
  6
CONTINUOUS
 10
10.2919505064
 20
8.4214664278
 11
10.336107118
 21
8.3963258505
  0
LINE
  5
2A8
100
AcDbEntity
  8
0
100
AcDbLine
 62
4
  6
CONTINUOUS
 10
10.3995822423
 20
8.4802370573
 11
10.4161409704
 21
8.4625299775
  0
LINE
  5
2A9
100
AcDbEntity
  8
0
100
AcDbLine
 62
4
  6
CONTINUOUS
 10
10.4961748262
 20
8.4735383388
 11
10.5292922962
 21
8.355330531
  0
LINE
  5
2AA
100
AcDbEntity
  8
0
100
AcDbLine
 62
4
  6
CONTINUOUS
 10
10.6452033798
 20
9.0129529774
 11
10.6452033798
 21
8.9384386976
  0
LINE
  5
2AB
100
AcDbEntity
  8
0
100
AcDbLine
 62
4
  6
CONTINUOUS
 10
10.6548626755
 20
8.6016266232
 11
10.6548626755
 21
8.7175377266
  0
LINE
  5
2AC
100
AcDbEntity
  8
0
100
AcDbLine
 62
4
  6
CONTINUOUS
 10
10.6617621208
 20
8.3461437175
 11
10.6617621208
 21
8.4620548209
  0
LINE
  5
2AD
100
AcDbEntity
  8
0
100
AcDbLine
 62
4
  6
CONTINUOUS
 10
10.7128182273
 20
8.6969597674
 11
10.7128182273
 21
8.6141661219
  0
LINE
  5
2AE
100
AcDbEntity
  8
0
100
AcDbLine
 62
4
  6
CONTINUOUS
 10
10.750075345
 20
8.939445167
 11
10.750075345
 21
9.0056800819
  0
LINE
  5
2AF
100
AcDbEntity
  8
0
100
AcDbLine
 62
4
  6
CONTINUOUS
 10
10.7597346269
 20
8.5943537287
 11
10.7597346269
 21
8.7102648321
  0
LINE
  5
2B0
100
AcDbEntity
  8
0
100
AcDbLine
 62
4
  6
CONTINUOUS
 10
10.7997515085
 20
9.0436318519
 11
10.7997515085
 21
8.9277207485
  0
LINE
  5
2B1
100
AcDbEntity
  8
0
100
AcDbLine
 62
4
  6
CONTINUOUS
 10
10.8176901786
 20
8.5903344975
 11
10.8176901786
 21
8.706245601
  0
LINE
  5
2B2
100
AcDbEntity
  8
0
100
AcDbLine
 62
4
  6
CONTINUOUS
 10
10.4161409704
 20
8.3797363319
 11
10.3995822423
 21
8.3643259538
  0
LINE
  5
2B3
100
AcDbEntity
  8
0
100
AcDbLine
 62
4
  6
CONTINUOUS
 10
10.7128182273
 20
8.6141661219
 11
10.6962594992
 21
8.5987557437
  0
LINE
  5
2B4
100
AcDbEntity
  8
0
100
AcDbLine
 62
4
  6
CONTINUOUS
 10
11.191641427
 20
8.9750573701
 11
11.19992076
 21
8.9827625639
  0
LINE
  5
2B5
100
AcDbEntity
  8
0
100
AcDbLine
 62
4
  6
CONTINUOUS
 10
10.336107118
 20
8.4404824639
 11
10.2919505064
 21
8.4214664278
  0
LINE
  5
2B6
100
AcDbEntity
  8
0
100
AcDbLine
 62
4
  6
CONTINUOUS
 10
11.0646911775
 20
8.3182004925
 11
11.0232943469
 21
8.3210713725
  0
LINE
  5
2B7
100
AcDbEntity
  8
0
100
AcDbLine
 62
4
  6
CONTINUOUS
 10
10.9736181834
 20
8.3245164261
 11
10.9487800741
 21
8.3262389548
  0
LINE
  5
2B8
100
AcDbEntity
  8
0
100
AcDbLine
 62
4
  6
CONTINUOUS
 10
10.8853049671
 20
8.3306409685
 11
10.8521875247
 21
8.3329376709
  0
LINE
  5
2B9
100
AcDbEntity
  8
0
100
AcDbLine
 62
4
  6
CONTINUOUS
 10
10.3995822423
 20
8.3643259538
 11
10.3581854256
 21
8.3671968328
  0
LINE
  5
2BA
100
AcDbEntity
  8
0
100
AcDbLine
 62
4
  6
CONTINUOUS
 10
10.6617621208
 20
8.3461437175
 11
10.7114383119
 21
8.342698662
  0
LINE
  5
2BB
100
AcDbEntity
  8
0
100
AcDbLine
 62
4
  6
CONTINUOUS
 10
11.1281663398
 20
8.3137984751
 11
11.1778425033
 21
8.3103534214
  0
LINE
  5
2BC
100
AcDbEntity
  8
0
100
AcDbLine
 62
4
  6
CONTINUOUS
 10
10.2312351572
 20
8.9754268562
 11
10.2395145221
 21
8.9665733154
  0
LINE
  5
2BD
100
AcDbEntity
  8
0
100
AcDbLine
 62
4
  6
CONTINUOUS
 10
10.8521875247
 20
8.3329376709
 11
10.8356288036
 21
8.3506447519
  0
LINE
  5
2BE
100
AcDbEntity
  8
0
100
AcDbLine
 62
4
  6
CONTINUOUS
 10
10.413381173
 20
9.0704267257
 11
10.4713367247
 21
8.9504963911
  0
LINE
  5
2BF
100
AcDbEntity
  8
0
100
AcDbLine
 62
4
  6
CONTINUOUS
 10
10.8328690061
 20
8.9254240422
 11
10.8328690061
 21
9.0082176895
  0
LINE
  5
2C0
100
AcDbEntity
  8
0
100
AcDbLine
 62
4
  6
CONTINUOUS
 10
10.8356288036
 20
8.3506447519
 11
10.8356288036
 21
8.4334383975
  0
LINE
  5
2C1
100
AcDbEntity
  8
0
100
AcDbLine
 62
4
  6
CONTINUOUS
 10
10.8715060038
 20
8.9972588371
 11
10.8715060038
 21
8.980700109
  0
LINE
  5
2C2
100
AcDbEntity
  8
0
100
AcDbLine
 62
4
  6
CONTINUOUS
 10
10.8922044653
 20
8.601725644
 11
10.8922044653
 21
8.7010780176
  0
LINE
  5
2C3
100
AcDbEntity
  8
0
100
AcDbLine
 62
4
  6
CONTINUOUS
 10
10.907383279
 20
8.9285358247
 11
10.907383279
 21
8.9533739194
  0
LINE
  5
2C4
100
AcDbEntity
  8
0
100
AcDbLine
 62
7
  6
CONTINUOUS
 10
10.9238231047
 20
7.0452201387
 11
10.9238231047
 21
6.6980605899
  0
LINE
  5
2C5
100
AcDbEntity
  8
0
100
AcDbLine
 62
4
  6
CONTINUOUS
 10
10.9322213529
 20
8.3439460359
 11
10.9322213529
 21
8.4267396814
  0
LINE
  5
2C6
100
AcDbEntity
  8
0
100
AcDbLine
 62
4
  6
CONTINUOUS
 10
10.9570594425
 20
8.9168114062
 11
10.9570594425
 21
8.9830463254
  0
LINE
  5
2C7
100
AcDbEntity
  8
0
100
AcDbLine
 62
4
  6
CONTINUOUS
 10
10.9901768848
 20
8.9973083511
 11
10.9901768848
 21
8.9227940687
  0
LINE
  5
2C8
100
AcDbEntity
  8
0
100
AcDbLine
 62
4
  6
CONTINUOUS
 10
10.9901769046
 20
8.4227204503
 11
10.9901769046
 21
8.3399268047
  0
LINE
  5
2C9
100
AcDbEntity
  8
0
100
AcDbLine
 62
4
  6
CONTINUOUS
 10
11.0232943469
 20
8.3210713725
 11
11.0232943469
 21
8.4369824759
  0
LINE
  5
2CA
100
AcDbEntity
  8
0
100
AcDbLine
 62
4
  6
CONTINUOUS
 10
11.1502445965
 20
9.0193250737
 11
11.1474848188
 21
9.0112370974
  0
LINE
  5
2CB
100
AcDbEntity
  8
0
100
AcDbLine
 62
4
  6
CONTINUOUS
 10
11.2661557552
 20
8.9698897839
 11
11.2744350881
 21
8.9775949777
  0
LINE
  5
2CC
100
AcDbEntity
  8
0
100
AcDbLine
 62
4
  6
CONTINUOUS
 10
10.8756457304
 20
8.5863152664
 11
10.8922044653
 21
8.601725644
  0
LINE
  5
2CD
100
AcDbEntity
  8
0
100
AcDbLine
 62
4
  6
CONTINUOUS
 10
11.3075525304
 20
8.892504628
 11
11.3158318634
 21
8.9002098192
  0
LINE
  5
2CE
100
AcDbEntity
  8
0
100
AcDbLine
 62
4
  6
CONTINUOUS
 10
10.8356288036
 20
8.4334383975
 11
10.8521875247
 21
8.4488487743
  0
LINE
  5
2CF
100
AcDbEntity
  8
0
100
AcDbLine
 62
4
  6
CONTINUOUS
 10
10.9322213529
 20
8.4267396814
 11
10.9487800741
 21
8.4421500583
  0
LINE
  5
2D0
100
AcDbEntity
  8
0
100
AcDbLine
 62
4
  6
CONTINUOUS
 10
10.4740965221
 20
8.3922758306
 11
10.5182531303
 21
8.3892135594
  0
LINE
  5
2D1
100
AcDbEntity
  8
0
100
AcDbLine
 62
4
  6
CONTINUOUS
 10
11.1612837821
 20
8.3777366918
 11
11.1281663398
 21
8.3800333943
  0
LINE
  5
2D2
100
AcDbEntity
  8
0
100
AcDbLine
 62
4
  6
CONTINUOUS
 10
10.6948795907
 20
8.4100819324
 11
10.6617621208
 21
8.4123786367
  0
LINE
  5
2D3
100
AcDbEntity
  8
0
100
AcDbLine
 62
4
  6
CONTINUOUS
 10
10.3581854256
 20
8.4831079363
 11
10.3995822423
 21
8.4802370573
  0
LINE
  5
2D4
100
AcDbEntity
  8
0
100
AcDbLine
 62
4
  6
CONTINUOUS
 10
10.5624097385
 20
8.4689449321
 11
10.6286446508
 21
8.4643515253
  0
LINE
  5
2D5
100
AcDbEntity
  8
0
100
AcDbLine
 62
4
  6
CONTINUOUS
 10
10.6617621208
 20
8.4620548209
 11
10.7114383119
 21
8.4586097654
  0
LINE
  5
2D6
100
AcDbEntity
  8
0
100
AcDbLine
 62
4
  6
CONTINUOUS
 10
10.8521875247
 20
8.4488487743
 11
10.8853049671
 21
8.4465520719
  0
LINE
  5
2D7
100
AcDbEntity
  8
0
100
AcDbLine
 62
4
  6
CONTINUOUS
 10
10.9487800741
 20
8.4421500583
 11
10.9736181834
 21
8.4404275295
  0
LINE
  5
2D8
100
AcDbEntity
  8
0
100
AcDbLine
 62
4
  6
CONTINUOUS
 10
11.0232943469
 20
8.4369824759
 11
11.0646911775
 21
8.4341115959
  0
LINE
  5
2D9
100
AcDbEntity
  8
0
100
AcDbLine
 62
4
  6
CONTINUOUS
 10
11.1281663398
 20
8.4297095785
 11
11.1778425033
 21
8.4262645249
  0
LINE
  5
2DA
100
AcDbEntity
  8
0
100
AcDbLine
 62
4
  6
CONTINUOUS
 10
11.2109599456
 20
8.3798112142
 11
11.2551165538
 21
8.3546706355
  0
LINE
  5
2DB
100
AcDbEntity
  8
0
100
AcDbLine
 62
4
  6
CONTINUOUS
 10
10.2891907089
 20
8.9962457198
 11
10.2312351572
 21
9.0499411386
  0
LINE
  5
2DC
100
AcDbEntity
  8
0
100
AcDbLine
 62
4
  6
CONTINUOUS
 10
10.3223081651
 20
8.9773902866
 11
10.3388668932
 21
8.9596832051
  0
LINE
  5
2DD
100
AcDbEntity
  8
0
100
AcDbLine
 62
4
  6
CONTINUOUS
 10
10.9487800741
 20
8.3262389548
 11
10.9322213529
 21
8.3439460359
  0
LINE
  5
2DE
100
AcDbEntity
  8
0
100
AcDbLine
 62
4
  6
CONTINUOUS
 10
10.2809113449
 20
9.0796135395
 11
10.2891907089
 21
9.0707599961
  0
LINE
  5
2DF
100
AcDbEntity
  8
0
100
AcDbLine
 62
4
  6
CONTINUOUS
 10
10.6962594992
 20
8.7146668472
 11
10.7128182273
 21
8.6969597674
  0
LINE
  5
2E0
100
AcDbEntity
  8
0
100
AcDbLine
 62
4
  6
CONTINUOUS
 10
10.9736181834
 20
8.4404275295
 11
10.9901769046
 21
8.4227204503
  0
LINE
  5
2E1
100
AcDbEntity
  8
0
100
AcDbLine
 62
4
  6
CONTINUOUS
 10
11.0646911775
 20
8.4341115959
 11
11.0812498987
 21
8.4164045167
  0
LINE
  5
2E2
100
AcDbEntity
  8
0
100
AcDbLine
 62
4
  6
CONTINUOUS
 10
10.7597346269
 20
8.7102648321
 11
10.8176901786
 21
8.5903344975
  0
LINE
  5
2E3
100
AcDbEntity
  8
0
100
AcDbLine
 62
4
  6
CONTINUOUS
 10
10.6783208498
 20
9.0189356405
 11
10.7031589592
 21
8.9344194645
  0
LINE
  5
2E4
100
AcDbEntity
  8
0
100
AcDbLine
 62
4
  6
CONTINUOUS
 10
11.0398531036
 20
8.9110696463
 11
11.0398531036
 21
8.9938632936
  0
LINE
  5
2E5
100
AcDbEntity
  8
0
100
AcDbLine
 62
4
  6
CONTINUOUS
 10
11.0729705459
 20
8.9170523088
 11
11.0729705459
 21
9.0246840473
  0
LINE
  5
2E6
100
AcDbEntity
  8
0
100
AcDbLine
 62
7
  6
CONTINUOUS
 10
11.0752430442
 20
6.9362038511
 11
11.0752430442
 21
6.5518004098
  0
LINE
  5
2E7
100
AcDbEntity
  8
0
100
AcDbLine
 62
4
  6
CONTINUOUS
 10
11.0812498987
 20
8.4164045167
 11
11.0812498987
 21
8.3336108711
  0
LINE
  5
2E8
100
AcDbEntity
  8
0
100
AcDbLine
 62
7
  6
CONTINUOUS
 10
11.1147158221
 20
6.9259875574
 11
11.1147158221
 21
6.5415841161
  0
LINE
  5
2E9
100
AcDbEntity
  8
0
100
AcDbLine
 62
4
  6
CONTINUOUS
 10
11.1281663398
 20
8.3137984751
 11
11.1281663398
 21
8.4297095785
  0
LINE
  5
2EA
100
AcDbEntity
  8
0
100
AcDbLine
 62
4
  6
CONTINUOUS
 10
11.1474848188
 20
8.9036053615
 11
11.1474848188
 21
8.9863990088
  0
LINE
  5
2EB
100
AcDbEntity
  8
0
100
AcDbLine
 62
4
  6
CONTINUOUS
 10
11.1474848188
 20
9.0112370974
 11
11.1474848188
 21
9.0195164649
  0
LINE
  5
2EC
100
AcDbEntity
  8
0
100
AcDbLine
 62
4
  6
CONTINUOUS
 10
11.191641427
 20
8.9088224552
 11
11.191641427
 21
8.9750573701
  0
LINE
  5
2ED
100
AcDbEntity
  8
0
100
AcDbLine
 62
4
  6
CONTINUOUS
 10
10.9901769046
 20
8.3399268047
 11
10.9736181834
 21
8.3245164261
  0
LINE
  5
2EE
100
AcDbEntity
  8
0
100
AcDbLine
 62
4
  6
CONTINUOUS
 10
11.0812498987
 20
8.3336108711
 11
11.0646911775
 21
8.3182004925
  0
LINE
  5
2EF
100
AcDbEntity
  8
0
100
AcDbLine
 62
4
  6
CONTINUOUS
 10
10.6962594992
 20
8.5987557437
 11
10.6548626755
 21
8.6016266232
  0
LINE
  5
2F0
100
AcDbEntity
  8
0
100
AcDbLine
 62
4
  6
CONTINUOUS
 10
10.8508076348
 20
8.5880377941
 11
10.8756457304
 21
8.5863152664
  0
LINE
  5
2F1
100
AcDbEntity
  8
0
100
AcDbLine
 62
4
  6
CONTINUOUS
 10
10.6548626755
 20
8.7175377266
 11
10.6962594992
 21
8.7146668472
  0
LINE
  5
2F2
100
AcDbEntity
  8
0
100
AcDbLine
 62
4
  6
CONTINUOUS
 10
10.6369240192
 20
9.0218065205
 11
10.6452033798
 21
9.0129529774
  0
LINE
  5
2F3
100
AcDbEntity
  8
0
100
AcDbLine
 62
4
  6
CONTINUOUS
 10
10.8659864485
 20
9.0059209871
 11
10.8715060038
 21
8.9972588371
  0
LINE
  5
2F4
100
AcDbEntity
  8
0
100
AcDbLine
 62
4
  6
CONTINUOUS
 10
10.9570594425
 20
8.9830463254
 11
10.9487801096
 21
9.0001792272
  0
LINE
  5
2F5
100
AcDbEntity
  8
0
100
AcDbLine
 62
4
  6
CONTINUOUS
 10
11.2661557552
 20
8.9450516918
 11
11.2661557552
 21
8.9698897839
  0
LINE
  5
2F6
100
AcDbEntity
  8
0
100
AcDbLine
 62
4
  6
CONTINUOUS
 10
11.3158318634
 20
8.9002098192
 11
11.3158318634
 21
8.9250479139
  0
LINE
  5
2F7
100
AcDbEntity
  8
0
100
AcDbLine
 62
7
  6
CONTINUOUS
 10
13.1583182446
 20
10.256945697
 11
12.7053852895
 21
9.8194460321
  0
LINE
  5
2F8
100
AcDbEntity
  8
0
100
AcDbLine
 62
4
  6
CONTINUOUS
 10
12.4711482626
 20
9.0368696844
 11
12.4856371505
 21
9.0455241329
  0
LINE
  5
2F9
100
AcDbEntity
  8
0
100
AcDbLine
 62
4
  6
CONTINUOUS
 10
12.5146149263
 20
8.9952182219
 11
12.4856371505
 21
8.9779093214
  0
LINE
  5
2FA
100
AcDbEntity
  8
0
100
AcDbLine
 62
4
  6
CONTINUOUS
 10
11.2551165538
 20
8.3546706355
 11
11.2109599456
 21
8.3356546008
  0
LINE
  5
2FB
100
AcDbEntity
  8
0
100
AcDbLine
 62
4
  6
CONTINUOUS
 10
10.6783208498
 20
8.9085441114
 11
10.694879571
 21
8.9073957602
  0
LINE
  5
2FC
100
AcDbEntity
  8
0
100
AcDbLine
 62
4
  6
CONTINUOUS
 10
11.2330383128
 20
8.8976722065
 11
11.19992076
 21
8.8999689166
  0
LINE
  5
2FD
100
AcDbEntity
  8
0
100
AcDbLine
 62
4
  6
CONTINUOUS
 10
11.0978086553
 20
8.9070504151
 11
11.0812499342
 21
8.9081987663
  0
LINE
  5
2FE
100
AcDbEntity
  8
0
100
AcDbLine
 62
4
  6
CONTINUOUS
 10
10.9570594425
 20
8.9168114062
 11
10.9239420002
 21
8.9191081086
  0
LINE
  5
2FF
100
AcDbEntity
  8
0
100
AcDbLine
 62
4
  6
CONTINUOUS
 10
10.7997515085
 20
8.9277207485
 11
10.7666340662
 21
8.9300174509
  0
LINE
  5
300
100
AcDbEntity
  8
0
100
AcDbLine
 62
4
  6
CONTINUOUS
 10
10.2395145221
 20
8.9665733154
 11
10.2726319809
 21
8.9642766119
  0
LINE
  5
301
100
AcDbEntity
  8
0
100
AcDbLine
 62
4
  6
CONTINUOUS
 10
10.3388668932
 20
8.9596832051
 11
10.3637049956
 21
8.9579606768
  0
LINE
  5
302
100
AcDbEntity
  8
0
100
AcDbLine
 62
4
  6
CONTINUOUS
 10
10.9984562731
 20
8.9139405262
 11
11.0398531036
 21
8.9110696463
  0
LINE
  5
303
100
AcDbEntity
  8
0
100
AcDbLine
 62
4
  6
CONTINUOUS
 10
11.2744350881
 20
8.8948013304
 11
11.3075525304
 21
8.892504628
  0
LINE
  5
304
100
AcDbEntity
  8
0
100
AcDbLine
 62
4
  6
CONTINUOUS
 10
10.7666340662
 20
8.9300174509
 11
10.750075345
 21
8.939445167
  0
LINE
  5
305
100
AcDbEntity
  8
0
100
AcDbLine
 62
4
  6
CONTINUOUS
 10
10.9239420002
 20
8.9191081086
 11
10.907383279
 21
8.9285358247
  0
LINE
  5
306
100
AcDbEntity
  8
0
100
AcDbLine
 62
4
  6
CONTINUOUS
 10
10.9901768848
 20
8.9227940687
 11
10.9984562731
 21
8.9139405262
  0
LINE
  5
307
100
AcDbEntity
  8
0
100
AcDbLine
 62
4
  6
CONTINUOUS
 10
11.0812499342
 20
8.9081987663
 11
11.0729705459
 21
8.9170523088
  0
LINE
  5
308
100
AcDbEntity
  8
0
100
AcDbLine
 62
4
  6
CONTINUOUS
 10
11.19992076
 20
8.8999689166
 11
11.191641427
 21
8.9088224552
  0
LINE
  5
309
100
AcDbEntity
  8
0
100
AcDbLine
 62
4
  6
CONTINUOUS
 10
10.9239420002
 20
8.9605049323
 11
10.9570594425
 21
8.9582082298
  0
LINE
  5
30A
100
AcDbEntity
  8
0
100
AcDbLine
 62
4
  6
CONTINUOUS
 10
10.9487801096
 20
9.0001792272
 11
10.907383279
 21
9.0030501071
  0
LINE
  5
30B
100
AcDbEntity
  8
0
100
AcDbLine
 62
4
  6
CONTINUOUS
 10
10.5955271887
 20
9.0246774004
 11
10.6369240192
 21
9.0218065205
  0
LINE
  5
30C
100
AcDbEntity
  8
0
100
AcDbLine
 62
4
  6
CONTINUOUS
 10
10.7666340662
 20
9.0128110982
 11
10.7997515085
 21
9.0105143958
  0
LINE
  5
30D
100
AcDbEntity
  8
0
100
AcDbLine
 62
4
  6
CONTINUOUS
 10
10.8328690061
 20
9.0082176895
 11
10.8659864485
 21
9.0059209871
  0
LINE
  5
30E
100
AcDbEntity
  8
0
100
AcDbLine
 62
4
  6
CONTINUOUS
 10
11.19992076
 20
8.9827625639
 11
11.2330383128
 21
8.9804658538
  0
LINE
  5
30F
100
AcDbEntity
  8
0
100
AcDbLine
 62
4
  6
CONTINUOUS
 10
11.2744350881
 20
8.9775949777
 11
11.3075525304
 21
8.9752982753
  0
LINE
  5
310
100
AcDbEntity
  8
0
100
AcDbLine
 62
4
  6
CONTINUOUS
 10
10.247793887
 20
9.081910243
 11
10.2809113449
 21
9.0796135395
  0
LINE
  5
311
100
AcDbEntity
  8
0
100
AcDbLine
 62
4
  6
CONTINUOUS
 10
11.1474848188
 20
9.0195164649
 11
11.1502445965
 21
9.0193250737
  0
LINE
  5
312
100
AcDbEntity
  8
0
100
AcDbLine
 62
4
  6
CONTINUOUS
 10
12.4639038186
 20
8.9311202412
 11
12.5218593703
 21
8.92710101
  0
LINE
  5
313
100
AcDbEntity
  8
0
100
AcDbLine
 62
4
  6
CONTINUOUS
 10
11.3075525304
 20
8.9311416636
 11
11.2744350881
 21
8.9389579421
  0
LINE
  5
314
100
AcDbEntity
  8
0
100
AcDbLine
 62
4
  6
CONTINUOUS
 10
11.2744350881
 20
8.9389579421
 11
11.2661557552
 21
8.9450516918
  0
LINE
  5
315
100
AcDbEntity
  8
0
100
AcDbLine
 62
4
  6
CONTINUOUS
 10
11.3158318634
 20
8.9250479139
 11
11.3075525304
 21
8.9311416636
  0
LINE
  5
316
100
AcDbEntity
  8
0
100
AcDbLine
 62
4
  6
CONTINUOUS
 10
11.2661557552
 20
8.903654869
 11
11.2744350881
 21
8.8948013304
  0
LINE
  5
317
100
AcDbEntity
  8
0
100
AcDbLine
 62
4
  6
CONTINUOUS
 10
11.3075525304
 20
8.9752982753
 11
11.3158318634
 21
8.9664447341
  0
LINE
  5
318
100
AcDbEntity
  8
0
100
AcDbLine
 62
7
  6
CONTINUOUS
 10
11.6798222967
 20
6.8867972903
 11
11.6798222967
 21
6.502393849
  0
LINE
  5
319
100
AcDbEntity
  8
0
100
AcDbLine
 62
7
  6
CONTINUOUS
 10
11.7337430989
 20
6.8905367172
 11
11.7337430989
 21
6.5061332759
  0
LINE
  5
31A
100
AcDbEntity
  8
0
100
AcDbLine
 62
4
  6
CONTINUOUS
 10
12.4856371505
 20
9.0455241329
 11
12.5001260384
 21
9.0445193251
  0
LINE
  5
31B
100
AcDbEntity
  8
0
100
AcDbLine
 62
4
  6
CONTINUOUS
 10
12.4639038186
 20
9.027712825
 11
12.4711482626
 21
9.0368696844
  0
LINE
  5
31C
100
AcDbEntity
  8
0
100
AcDbLine
 62
4
  6
CONTINUOUS
 10
12.4856371505
 20
8.9779093214
 11
12.4711482626
 21
8.9595956131
  0
LINE
  5
31D
100
AcDbEntity
  8
0
100
AcDbLine
 62
4
  6
CONTINUOUS
 10
12.5218593703
 20
9.0043750813
 11
12.5146149263
 21
8.9952182219
  0
LINE
  5
31E
100
AcDbEntity
  8
0
100
AcDbLine
 62
7
  6
CONTINUOUS
 10
12.147429634
 20
6.9603627377
 11
12.147429634
 21
6.6132031889
  0
LINE
  5
31F
100
AcDbEntity
  8
0
100
AcDbLine
 62
7
  6
CONTINUOUS
 10
12.1618776584
 20
6.9593607638
 11
12.1618776584
 21
6.6271589096
  0
LINE
  5
320
100
AcDbEntity
  8
0
100
AcDbLine
 62
4
  6
CONTINUOUS
 10
12.4711482626
 20
8.9595956131
 11
12.4639038186
 21
8.9311202412
  0
LINE
  5
321
100
AcDbEntity
  8
0
100
AcDbLine
 62
4
  6
CONTINUOUS
 10
12.5001260384
 20
9.0445193251
 11
12.5146149263
 21
9.033855261
  0
LINE
  5
322
100
AcDbEntity
  8
0
100
AcDbLine
 62
4
  6
CONTINUOUS
 10
12.5218593703
 20
9.0236935939
 11
12.5218593703
 21
9.0043750813
  0
LINE
  5
323
100
AcDbEntity
  8
0
100
AcDbLine
 62
7
  6
CONTINUOUS
 10
12.7053852895
 20
9.8194460321
 11
8.8416817554
 21
10.0873947823
  0
LINE
  5
324
100
AcDbEntity
  8
0
100
AcDbLine
 62
4
  6
CONTINUOUS
 10
12.5146149263
 20
9.033855261
 11
12.5218593703
 21
9.0236935939
  0
LINE
  5
325
100
AcDbEntity
  8
0
100
AcDbLine
 62
7
  6
CONTINUOUS
 10
12.7053852895
 20
6.9216683816
 11
12.7053852895
 21
9.8194460321
  0
LINE
  5
326
100
AcDbEntity
  8
0
100
AcDbLine
 62
7
  6
CONTINUOUS
 10
13.1583182446
 20
10.256945697
 11
9.2946147105
 21
10.5248944472
  0
LINE
  5
327
100
AcDbEntity
  8
0
100
AcDbLine
 62
7
  6
CONTINUOUS
 10
13.1583182446
 20
7.3591680464
 11
13.1583182446
 21
10.256945697
  0
LINE
  5
328
100
AcDbEntity
  8
0
100
AcDbLine
 62
7
  6
CONTINUOUS
 10
13.1583182446
 20
7.3591680464
 11
12.7053852895
 21
6.9216683816
  0
LINE
  5
329
100
AcDbEntity
  8
0
100
AcDbLine
 62
7
  6
CONTINUOUS
 10
12.0651335024
 20
6.5670400327
 11
12.0344594919
 21
6.5518876588
  0
ARC
  5
32A
100
AcDbEntity
  8
0
100
AcDbCircle
 62
7
  6
CONTINUOUS
 10
11.5522044615
 20
9.1176134765
 40
2.234463508
100
AcDbArc
 50
273.2741391254
 51
274.6601229449
  0
ARC
  5
32B
100
AcDbEntity
  8
0
100
AcDbCircle
 62
7
  6
CONTINUOUS
 10
11.5538899041
 20
8.7089067336
 40
2.210103635
100
AcDbArc
 50
273.2665005552
 51
274.6677615151
  0
ARC
  5
32C
100
AcDbEntity
  8
0
100
AcDbCircle
 62
7
  6
CONTINUOUS
 10
11.3339153306
 20
7.854274291
 40
0.9538158545
100
AcDbArc
 50
254.2644742826
 51
256.7139235525
  0
ARC
  5
32D
100
AcDbEntity
  8
0
100
AcDbCircle
 62
7
  6
CONTINUOUS
 10
11.3339153306
 20
7.4698708497
 40
0.9538158545
100
AcDbArc
 50
254.2644742826
 51
256.7139235525
  0
ARC
  5
32E
100
AcDbEntity
  8
0
100
AcDbCircle
 62
7
  6
CONTINUOUS
 10
11.7262525007
 20
7.2519352338
 40
0.7641475746
100
AcDbArc
 50
293.7608747297
 51
296.3085175792
  0
SPLINE
  5
32F
100
AcDbEntity
  8
0
100
AcDbSpline
 62
7
  6
CONTINUOUS
 70
0
 71
3
 72
9
 73
5
 74
0
 42
0.0000001
 43
0.0000001
 44
0.0000000001
 40
0.0
 40
0.0
 40
0.0
 40
0.0
 40
0.2426666479
 40
1.0
 40
1.0
 40
1.0
 40
1.0
 10
12.1618776584
 20
6.6271589096
 30
0.0
 10
12.1613700306
 20
6.6265651366
 30
0.0
 10
12.1592463347
 20
6.6241455522
 30
0.0
 10
12.1570009263
 20
6.6218336573
 30
0.0
 10
12.1552473917
 20
6.6201398728
 30
0.0
  0
SPLINE
  5
330
100
AcDbEntity
  8
0
100
AcDbSpline
 62
7
  6
CONTINUOUS
 70
0
 71
3
 72
9
 73
5
 74
0
 42
0.0000001
 43
0.0000001
 44
0.0000000001
 40
0.0
 40
0.0
 40
0.0
 40
0.0
 40
0.2426770998
 40
1.0
 40
1.0
 40
1.0
 40
1.0
 10
12.1552473917
 20
6.6201398728
 30
0.0
 10
12.1546392012
 20
6.6195524059
 30
0.0
 10
12.1521061498
 20
6.6171595248
 30
0.0
 10
12.1494704361
 20
6.6148760553
 30
0.0
 10
12.147429634
 20
6.6132031889
 30
0.0
  0
SPLINE
  5
331
100
AcDbEntity
  8
0
100
AcDbSpline
 62
7
  6
CONTINUOUS
 70
0
 71
3
 72
9
 73
5
 74
0
 42
0.0000001
 43
0.0000001
 44
0.0000000001
 40
0.0
 40
0.0
 40
0.0
 40
0.0
 40
0.504378312
 40
1.0
 40
1.0
 40
1.0
 40
1.0
 10
12.147429634
 20
6.6132031889
 30
0.0
 10
12.1339258838
 20
6.6047943351
 30
0.0
 10
12.1068130463
 20
6.5886596791
 30
0.0
 10
12.0789402498
 20
6.5738624844
 30
0.0
 10
12.0649261119
 20
6.566937642
 30
0.0
  0
SPLINE
  5
332
100
AcDbEntity
  8
0
100
AcDbSpline
 62
7
  6
CONTINUOUS
 70
0
 71
3
 72
47
 73
43
 74
0
 42
0.0000001
 43
0.0000001
 44
0.0000000001
 40
0.0
 40
0.0
 40
0.0
 40
0.0
 40
0.0099874638
 40
0.0204476834
 40
0.0313771515
 40
0.0427708334
 40
0.0546218702
 40
0.0669225517
 40
0.0796641282
 40
0.0928362942
 40
0.1204271347
 40
0.1495984091
 40
0.1802407165
 40
0.2122338314
 40
0.2454489836
 40
0.2797497839
 40
0.3149929168
 40
0.3510298084
 40
0.3877071885
 40
0.4248680172
 40
0.4623527228
 40
0.4999997959
 40
0.5376468789
 40
0.575131606
 40
0.6122924455
 40
0.6489698269
 40
0.6850067267
 40
0.7202498875
 40
0.7545507276
 40
0.7877659112
 40
0.8197590481
 40
0.8504013805
 40
0.8795726993
 40
0.9071635849
 40
0.9203357726
 40
0.933077377
 40
0.9453780958
 40
0.9572291635
 40
0.968622847
 40
0.9795522717
 40
0.9900124597
 40
1.0
 40
1.0
 40
1.0
 40
1.0
 10
12.0344633773
 20
6.5518896135
 30
0.0
 10
12.031472843
 20
6.5504123357
 30
0.0
 10
12.0252991366
 20
6.5474904199
 30
0.0
 10
12.0156969381
 20
6.5432909762
 30
0.0
 10
12.0055487601
 20
6.5391781415
 30
0.0
 10
11.9948663121
 20
6.5351569317
 30
0.0
 10
11.9836619364
 20
6.5312316265
 30
0.0
 10
11.9719484357
 20
6.5274069074
 30
0.0
 10
11.9597391798
 20
6.5236873366
 30
0.0
 10
11.942551351
 20
6.5187978048
 30
0.0
 10
11.9199210387
 20
6.5130023233
 30
0.0
 10
11.8914297604
 20
6.506633651
 30
0.0
 10
11.8613297114
 20
6.5007781271
 30
0.0
 10
11.8297597052
 20
6.4954627854
 30
0.0
 10
11.7968650472
 20
6.4907126291
 30
0.0
 10
11.7627973961
 20
6.4865500969
 30
0.0
 10
11.7277139375
 20
6.4829943689
 30
0.0
 10
11.6917766167
 20
6.4800621986
 30
0.0
 10
11.6551513558
 20
6.4777674139
 30
0.0
 10
11.6180073233
 20
6.4761204665
 30
0.0
 10
11.5805160994
 20
6.4751292305
 30
0.0
 10
11.5428508591
 20
6.4747983739
 30
0.0
 10
11.5051856115
 20
6.4751292138
 30
0.0
 10
11.4676943731
 20
6.4761204337
 30
0.0
 10
11.4305503286
 20
6.4777673644
 30
0.0
 10
11.3939250599
 20
6.480062133
 30
0.0
 10
11.3579877251
 20
6.4829942864
 30
0.0
 10
11.3229042396
 20
6.4865499999
 30
0.0
 10
11.2888365534
 20
6.4907125173
 30
0.0
 10
11.2559418621
 20
6.4954626603
 30
0.0
 10
11.2243718266
 20
6.5007779862
 30
0.0
 10
11.1942717438
 20
6.5066334958
 30
0.0
 10
11.1657804241
 20
6.5130021585
 30
0.0
 10
11.1431500702
 20
6.5187976265
 30
0.0
 10
11.1259622057
 20
6.5236871488
 30
0.0
 10
11.113752919
 20
6.5274067181
 30
0.0
 10
11.1020393869
 20
6.5312314445
 30
0.0
 10
11.0908349875
 20
6.5351567523
 30
0.0
 10
11.0801525367
 20
6.5391779437
 30
0.0
 10
11.0700043646
 20
6.5432907276
 30
0.0
 10
11.0604021487
 20
6.5474901329
 30
0.0
 10
11.0542284275
 20
6.5504120535
 30
0.0
 10
11.0512378744
 20
6.5518893512
 30
0.0
  0
SPLINE
  5
333
100
AcDbEntity
  8
0
100
AcDbSpline
 62
7
  6
CONTINUOUS
 70
0
 71
3
 72
23
 73
19
 74
0
 42
0.0000001
 43
0.0000001
 44
0.0000000001
 40
0.0
 40
0.0
 40
0.0
 40
0.0
 40
0.0436203086
 40
0.0892268542
 40
0.137068591
 40
0.187353676
 40
0.2402538462
 40
0.2958872461
 40
0.3543311569
 40
0.4156094827
 40
0.4797102731
 40
0.5465788188
 40
0.6161346312
 40
0.6882694307
 40
0.7628606873
 40
0.8397744221
 40
0.9188692703
 40
1.0
 40
1.0
 40
1.0
 40
1.0
 10
11.032231615
 20
6.5612781013
 30
0.0
 10
11.0299216793
 20
6.5624186699
 30
0.0
 10
11.0252845556
 20
6.5649337664
 30
0.0
 10
11.0184572662
 20
6.5692948184
 30
0.0
 10
11.0116208773
 20
6.5743371049
 30
0.0
 10
11.0047793276
 20
6.5800680372
 30
0.0
 10
10.9979382293
 20
6.5864916881
 30
0.0
 10
10.9911006889
 20
6.5936032605
 30
0.0
 10
10.9842724297
 20
6.6013940725
 30
0.0
 10
10.9774561856
 20
6.6098474749
 30
0.0
 10
10.9706570171
 20
6.6189433808
 30
0.0
 10
10.9638771669
 20
6.6286557628
 30
0.0
 10
10.9571205
 20
6.6389563109
 30
0.0
 10
10.9503886129
 20
6.6498132649
 30
0.0
 10
10.943683896
 20
6.6611941185
 30
0.0
 10
10.9370072468
 20
6.6730652009
 30
0.0
 10
10.9303597543
 20
6.68539304
 30
0.0
 10
10.9260006363
 20
6.6937924571
 30
0.0
 10
10.9238231047
 20
6.6980605899
 30
0.0
  0
SPLINE
  5
334
100
AcDbEntity
  8
0
100
AcDbSpline
 62
7
  6
CONTINUOUS
 70
0
 71
3
 72
21
 73
17
 74
0
 42
0.0000001
 43
0.0000001
 44
0.0000000001
 40
0.0
 40
0.0
 40
0.0
 40
0.0
 40
0.1230212981
 40
0.1847065752
 40
0.2465215318
 40
0.3084771567
 40
0.3705832678
 40
0.432847904
 40
0.4952752623
 40
0.5578663069
 40
0.6206183946
 40
0.6835249868
 40
0.7465773451
 40
0.8097643485
 40
0.8730733734
 40
1.0
 40
1.0
 40
1.0
 40
1.0
 10
11.6798222967
 20
6.502393849
 30
0.0
 10
11.6567431157
 20
6.4978464928
 30
0.0
 10
11.6219106741
 20
6.4918740865
 30
0.0
 10
11.5751394592
 20
6.4859639391
 30
0.0
 10
11.5398281505
 20
6.4826367251
 30
0.0
 10
11.5043437077
 20
6.4805023175
 30
0.0
 10
11.4687189867
 20
6.4796315811
 30
0.0
 10
11.4329957752
 20
6.4800804763
 30
0.0
 10
11.3972221535
 20
6.4818824751
 30
0.0
 10
11.3614496273
 20
6.485045761
 30
0.0
 10
11.3257296874
 20
6.4895547116
 30
0.0
 10
11.290110074
 20
6.4953689534
 30
0.0
 10
11.2546319345
 20
6.5024266674
 30
0.0
 10
11.2193277437
 20
6.5106523572
 30
0.0
 10
11.1724838176
 20
6.5230719092
 30
0.0
 10
11.1377234079
 20
6.5338597036
 30
0.0
 10
11.1147158221
 20
6.5415841161
 30
0.0
  0
SPLINE
  5
335
100
AcDbEntity
  8
0
100
AcDbSpline
 62
7
  6
CONTINUOUS
 70
0
 71
3
 72
21
 73
17
 74
0
 42
0.0000001
 43
0.0000001
 44
0.0000000001
 40
0.0
 40
0.0
 40
0.0
 40
0.0
 40
0.1269266266
 40
0.1902356515
 40
0.253422655
 40
0.3164750132
 40
0.3793816055
 40
0.4421336932
 40
0.5047247377
 40
0.567152096
 40
0.6294167323
 40
0.6915228434
 40
0.7534784683
 40
0.8152934248
 40
0.8769787019
 40
1.0
 40
1.0
 40
1.0
 40
1.0
 10
11.6798222967
 20
6.8867972903
 30
0.0
 10
11.6568147109
 20
6.8945217028
 30
0.0
 10
11.6220543012
 20
6.9053094972
 30
0.0
 10
11.575210375
 20
6.9177290492
 30
0.0
 10
11.5399061843
 20
6.9259547389
 30
0.0
 10
11.5044280447
 20
6.933012453
 30
0.0
 10
11.4688084314
 20
6.9388266948
 30
0.0
 10
11.4330884915
 20
6.9433356454
 30
0.0
 10
11.3973159652
 20
6.9464989313
 30
0.0
 10
11.3615423435
 20
6.94830093
 30
0.0
 10
11.325819132
 20
6.9487498252
 30
0.0
 10
11.290194411
 20
6.9478790889
 30
0.0
 10
11.2547099682
 20
6.9457446813
 30
0.0
 10
11.2193986596
 20
6.9424174673
 30
0.0
 10
11.1726274446
 20
6.9365073199
 30
0.0
 10
11.1377950031
 20
6.9305349136
 30
0.0
 10
11.1147158221
 20
6.9259875574
 30
0.0
  0
SPLINE
  5
336
100
AcDbEntity
  8
0
100
AcDbSpline
 62
7
  6
CONTINUOUS
 70
0
 71
3
 72
11
 73
7
 74
0
 42
0.0000001
 43
0.0000001
 44
0.0000000001
 40
0.0
 40
0.0
 40
0.0
 40
0.0
 40
0.2465919593
 40
0.494712682
 40
0.7454424776
 40
1.0
 40
1.0
 40
1.0
 40
1.0
 10
11.0752430442
 20
6.5518004098
 30
0.0
 10
11.0733006313
 20
6.5517455752
 30
0.0
 10
11.0693993216
 20
6.5517529216
 30
0.0
 10
11.0635336304
 20
6.5521364435
 30
0.0
 10
11.0576435584
 20
6.5529147258
 30
0.0
 10
11.0537371013
 20
6.5537042737
 30
0.0
 10
11.0517856562
 20
6.5541687351
 30
0.0
  0
SPLINE
  5
337
100
AcDbEntity
  8
0
100
AcDbSpline
 62
7
  6
CONTINUOUS
 70
0
 71
3
 72
10
 73
6
 74
0
 42
0.0000001
 43
0.0000001
 44
0.0000000001
 40
0.0
 40
0.0
 40
0.0
 40
0.0
 40
0.2418255986
 40
0.4885199497
 40
1.0
 40
1.0
 40
1.0
 40
1.0
 10
11.0517856562
 20
6.5541687351
 30
0.0
 10
11.0501511387
 20
6.5545577648
 30
0.0
 10
11.0468708283
 20
6.5554386254
 30
0.0
 10
11.040271928
 20
6.5576209307
 30
0.0
 10
11.0354180496
 20
6.559704747
 30
0.0
 10
11.032231615
 20
6.5612781013
 30
0.0
  0
SPLINE
  5
338
100
AcDbEntity
  8
0
100
AcDbSpline
 62
7
  6
CONTINUOUS
 70
0
 71
3
 72
15
 73
11
 74
0
 42
0.0000001
 43
0.0000001
 44
0.0000000001
 40
0.0
 40
0.0
 40
0.0
 40
0.0
 40
0.1431866196
 40
0.2818682435
 40
0.415659448
 40
0.544192247
 40
0.6671322828
 40
0.7841946535
 40
0.895181422
 40
1.0
 40
1.0
 40
1.0
 40
1.0
 10
11.0752430442
 20
6.9362038511
 30
0.0
 10
11.072572511
 20
6.9414383059
 30
0.0
 10
11.0672275378
 20
6.9516980625
 30
0.0
 10
11.0590449908
 20
6.9666674374
 30
0.0
 10
11.0508194824
 20
6.9809234602
 30
0.0
 10
11.042552655
 20
6.9944038065
 30
0.0
 10
11.0342480136
 20
7.0070477578
 30
0.0
 10
11.0259088459
 20
7.0187973978
 30
0.0
 10
11.0175415169
 20
7.0296011057
 30
0.0
 10
11.0117833405
 20
7.0363366425
 30
0.0
 10
11.0088958339
 20
7.0395252306
 30
0.0
  0
SPLINE
  5
339
100
AcDbEntity
  8
0
100
AcDbSpline
 62
7
  6
CONTINUOUS
 70
0
 71
3
 72
34
 73
30
 74
0
 42
0.0000001
 43
0.0000001
 44
0.0000000001
 40
0.0
 40
0.0
 40
0.0
 40
0.0
 40
0.0193832927
 40
0.0401145361
 40
0.062172281
 40
0.0855252469
 40
0.1101353208
 40
0.1359569061
 40
0.1629394878
 40
0.1910265001
 40
0.2201576991
 40
0.2502678515
 40
0.2812889112
 40
0.3131487144
 40
0.3457729209
 40
0.3790838221
 40
0.4130020595
 40
0.4474456949
 40
0.5175730577
 40
0.5887851871
 40
0.6603856241
 40
0.7316731185
 40
0.8019503242
 40
0.8364962237
 40
0.8705345047
 40
0.9039828996
 40
0.936761524
 40
0.9687922481
 40
1.0
 40
1.0
 40
1.0
 40
1.0
 10
11.067874684
 20
7.0351545343
 30
0.0
 10
11.0723479389
 20
7.0329781868
 30
0.0
 10
11.0817192135
 20
7.0287055427
 30
0.0
 10
11.0965062699
 20
7.0227005516
 30
0.0
 10
11.1124624068
 20
7.0168982291
 30
0.0
 10
11.1295459337
 20
7.0113135376
 30
0.0
 10
11.1477127927
 20
7.0059616662
 30
0.0
 10
11.1669156473
 20
7.0008562368
 30
0.0
 10
11.1871044669
 20
6.9960113112
 30
0.0
 10
11.2082264816
 20
6.9914391581
 30
0.0
 10
11.23022644
 20
6.9871524536
 30
0.0
 10
11.2530467324
 20
6.9831619769
 30
0.0
 10
11.2766275563
 20
6.9794788597
 30
0.0
 10
11.3009071083
 20
6.9761122787
 30
0.0
 10
11.3258216996
 20
6.9730717013
 30
0.0
 10
11.3513059696
 20
6.97036462
 30
0.0
 10
11.3772930772
 20
6.9679986861
 30
0.0
 10
11.4127330861
 20
6.9652907649
 30
0.0
 10
11.4577847562
 20
6.9628118096
 30
0.0
 10
11.5124192609
 20
6.9612857271
 30
0.0
 10
11.567372986
 20
6.9612076606
 30
0.0
 10
11.6220694068
 20
6.9625784349
 30
0.0
 10
11.6672120863
 20
6.9649286939
 30
0.0
 10
11.7027554942
 20
6.9675346516
 30
0.0
 10
11.7288419376
 20
6.9698264013
 30
0.0
 10
11.7544401097
 20
6.972460634
 30
0.0
 10
11.7794829
 20
6.9754300866
 30
0.0
 10
11.8039045058
 20
6.9787272045
 30
0.0
 10
11.8199500935
 20
6.9811714706
 30
0.0
 10
11.8278567017
 20
6.9824496024
 30
0.0
  0
LINE
  5
33A
100
AcDbEntity
  8
0
100
AcDbLine
 62
7
  6
CONTINUOUS
 10
12.0341431537
 20
6.5525606121
 11
12.0334140397
 21
6.5522407244
  0
SPLINE
  5
33B
100
AcDbEntity
  8
0
100
AcDbSpline
 62
7
  6
CONTINUOUS
 70
0
 71
3
 72
15
 73
11
 74
0
 42
0.0000001
 43
0.0000001
 44
0.0000000001
 40
0.0
 40
0.0
 40
0.0
 40
0.0
 40
0.1321602046
 40
0.2618009952
 40
0.3890353631
 40
0.5141096583
 40
0.6373677171
 40
0.75919507
 40
0.8799649792
 40
1.0
 40
1.0
 40
1.0
 40
1.0
 10
12.0334140397
 20
6.5522407244
 30
0.0
 10
12.0210329363
 20
6.5468169823
 30
0.0
 10
11.9961921724
 20
6.5367699931
 30
0.0
 10
11.9583981093
 20
6.5242365558
 30
0.0
 10
11.9205273398
 20
6.5145192662
 30
0.0
 10
11.8827009642
 20
6.507650762
 30
0.0
 10
11.8450335783
 20
6.5035509336
 30
0.0
 10
11.8076179963
 20
6.5020442457
 30
0.0
 10
11.7705171597
 20
6.5028910934
 30
0.0
 10
11.7459527402
 20
6.5048504433
 30
0.0
 10
11.7337430989
 20
6.5061332759
 30
0.0
  0
SPLINE
  5
33C
100
AcDbEntity
  8
0
100
AcDbSpline
 62
7
  6
CONTINUOUS
 70
0
 71
3
 72
13
 73
9
 74
0
 42
0.0000001
 43
0.0000001
 44
0.0000000001
 40
0.0
 40
0.0
 40
0.0
 40
0.0
 40
0.1201975627
 40
0.2418114272
 40
0.3648502554
 40
0.4892946852
 40
0.7421855128
 40
1.0
 40
1.0
 40
1.0
 40
1.0
 10
11.9150068517
 20
6.9766862155
 30
0.0
 10
11.9073046808
 20
6.9743027227
 30
0.0
 10
11.8919074613
 20
6.9691853282
 30
0.0
 10
11.8690016167
 20
6.9605518351
 30
0.0
 10
11.8461711741
 20
6.9509597126
 30
0.0
 10
11.8156947405
 20
6.9368849562
 30
0.0
 10
11.7779046727
 20
6.9171529505
 30
0.0
 10
11.748423092
 20
6.8996780234
 30
0.0
 10
11.7337430989
 20
6.8905367172
 30
0.0
  0
SPLINE
  5
33D
100
AcDbEntity
  8
0
100
AcDbSpline
 62
7
  6
CONTINUOUS
 70
0
 71
3
 72
42
 73
38
 74
0
 42
0.0000001
 43
0.0000001
 44
0.0000000001
 40
0.0
 40
0.0
 40
0.0
 40
0.0
 40
0.0311444347
 40
0.0467772112
 40
0.0624471461
 40
0.093891844
 40
0.1254739796
 40
0.1571813629
 40
0.1889992234
 40
0.2209106216
 40
0.2528967716
 40
0.2849374315
 40
0.3170113014
 40
0.34909644
 40
0.3811706886
 40
0.4132120984
 40
0.4451993552
 40
0.4771121951
 40
0.5089318057
 40
0.5406412074
 40
0.572225607
 40
0.6036727182
 40
0.6349730419
 40
0.6661200987
 40
0.6971106068
 40
0.7279445994
 40
0.7586254742
 40
0.7891599701
 40
0.8195580671
 40
0.8498328085
 40
0.864931571
 40
0.8800056544
 40
0.910083706
 40
0.9400929707
 40
0.9550814956
 40
0.9700611828
 40
1.0
 40
1.0
 40
1.0
 40
1.0
 10
9.2039039617
 20
9.8661916326
 30
0.0
 10
9.2079609262
 20
9.8659102812
 30
0.0
 10
9.214041788
 20
9.8652651382
 30
0.0
 10
9.2220933897
 20
9.8639686644
 30
0.0
 10
9.2301322089
 20
9.8623769925
 30
0.0
 10
9.2401002058
 20
9.8598421093
 30
0.0
 10
9.2518528657
 20
9.8559512643
 30
0.0
 10
9.2633494683
 20
9.8512284416
 30
0.0
 10
9.2745283697
 20
9.8456989701
 30
0.0
 10
9.2853301031
 20
9.8393923833
 30
0.0
 10
9.2956970871
 20
9.832342358
 30
0.0
 10
9.3055740925
 20
9.8245865123
 30
0.0
 10
9.3149084885
 20
9.8161662117
 30
0.0
 10
9.3236505322
 20
9.8071263492
 30
0.0
 10
9.3317536277
 20
9.7975151082
 30
0.0
 10
9.3391745725
 20
9.7873837084
 30
0.0
 10
9.3458737863
 20
9.7767861356
 30
0.0
 10
9.3518155195
 20
9.7657788568
 30
0.0
 10
9.3569680434
 20
9.7544205237
 30
0.0
 10
9.3613038182
 20
9.742771663
 30
0.0
 10
9.3647996404
 20
9.7308943589
 30
0.0
 10
9.3674367672
 20
9.718851926
 30
0.0
 10
9.3692010185
 20
9.706708577
 30
0.0
 10
9.3700828554
 20
9.6945290835
 30
0.0
 10
9.3700774366
 20
9.6823784386
 30
0.0
 10
9.3691846436
 20
9.6703215008
 30
0.0
 10
9.3674091115
 20
9.6584226978
 30
0.0
 10
9.3647601239
 20
9.6467455091
 30
0.0
 10
9.3612518976
 20
9.6353527718
 30
0.0
 10
9.3576238116
 20
9.6261367206
 30
0.0
 10
9.3543130076
 20
9.6189698147
 30
0.0
 10
9.3507400057
 20
9.6119587469
 30
0.0
 10
9.3457791076
 20
9.603478495
 30
0.0
 10
9.3401801616
 20
9.5954187837
 30
0.0
 10
9.335341852
 20
9.5892581459
 30
0.0
 10
9.3302727436
 20
9.5832985905
 30
0.0
 10
9.326211491
 20
9.5790559115
 30
0.0
 10
9.3233997121
 20
9.5763399582
 30
0.0
  0
SPLINE
  5
33E
100
AcDbEntity
  8
0
100
AcDbSpline
 62
7
  6
CONTINUOUS
 70
0
 71
3
 72
42
 73
38
 74
0
 42
0.0000001
 43
0.0000001
 44
0.0000000001
 40
0.0
 40
0.0
 40
0.0
 40
0.0
 40
0.0311444347
 40
0.0467772112
 40
0.0624471461
 40
0.093891844
 40
0.1254739796
 40
0.1571813629
 40
0.1889992234
 40
0.2209106216
 40
0.2528967716
 40
0.2849374315
 40
0.3170113014
 40
0.34909644
 40
0.3811706886
 40
0.4132120984
 40
0.4451993552
 40
0.4771121951
 40
0.5089318057
 40
0.5406412074
 40
0.572225607
 40
0.6036727182
 40
0.6349730419
 40
0.6661200987
 40
0.6971106068
 40
0.7279445994
 40
0.7586254742
 40
0.7891599701
 40
0.8195580671
 40
0.8498328085
 40
0.864931571
 40
0.8800056544
 40
0.910083706
 40
0.9400929707
 40
0.9550814956
 40
0.9700611828
 40
1.0
 40
1.0
 40
1.0
 40
1.0
 10
12.3431630832
 20
7.4751500352
 30
0.0
 10
12.3472200476
 20
7.4748686837
 30
0.0
 10
12.3533009095
 20
7.4742235408
 30
0.0
 10
12.3613525112
 20
7.472927067
 30
0.0
 10
12.3693913304
 20
7.4713353951
 30
0.0
 10
12.3793593273
 20
7.4688005119
 30
0.0
 10
12.3911119872
 20
7.4649096669
 30
0.0
 10
12.4026085898
 20
7.4601868441
 30
0.0
 10
12.4137874912
 20
7.4546573726
 30
0.0
 10
12.4245892245
 20
7.4483507858
 30
0.0
 10
12.4349562085
 20
7.4413007605
 30
0.0
 10
12.4448332139
 20
7.4335449148
 30
0.0
 10
12.4541676099
 20
7.4251246143
 30
0.0
 10
12.4629096537
 20
7.4160847518
 30
0.0
 10
12.4710127491
 20
7.4064735108
 30
0.0
 10
12.478433694
 20
7.396342111
 30
0.0
 10
12.4851329078
 20
7.3857445381
 30
0.0
 10
12.491074641
 20
7.3747372594
 30
0.0
 10
12.4962271649
 20
7.3633789262
 30
0.0
 10
12.5005629397
 20
7.3517300656
 30
0.0
 10
12.5040587618
 20
7.3398527615
 30
0.0
 10
12.5066958886
 20
7.3278103286
 30
0.0
 10
12.5084601399
 20
7.3156669796
 30
0.0
 10
12.5093419768
 20
7.303487486
 30
0.0
 10
12.509336558
 20
7.2913368411
 30
0.0
 10
12.508443765
 20
7.2792799034
 30
0.0
 10
12.5066682329
 20
7.2673811003
 30
0.0
 10
12.5040192453
 20
7.2557039117
 30
0.0
 10
12.5005110191
 20
7.2443111743
 30
0.0
 10
12.4968829331
 20
7.2350951231
 30
0.0
 10
12.4935721291
 20
7.2279282173
 30
0.0
 10
12.4899991272
 20
7.2209171494
 30
0.0
 10
12.4850382291
 20
7.2124368975
 30
0.0
 10
12.4794392831
 20
7.2043771863
 30
0.0
 10
12.4746009734
 20
7.1982165485
 30
0.0
 10
12.4695318651
 20
7.192256993
 30
0.0
 10
12.4654706125
 20
7.1880143141
 30
0.0
 10
12.4626588336
 20
7.1852983608
 30
0.0
  0
SPLINE
  5
33F
100
AcDbEntity
  8
0
100
AcDbSpline
 62
7
  6
CONTINUOUS
 70
0
 71
3
 72
53
 73
49
 74
0
 42
0.0000001
 43
0.0000001
 44
0.0000000001
 40
0.0
 40
0.0
 40
0.0
 40
0.0
 40
0.0417740371
 40
0.0840369047
 40
0.1266584536
 40
0.1695064221
 40
0.212448016
 40
0.2553499502
 40
0.2980791306
 40
0.3405031348
 40
0.382490749
 40
0.4239124945
 40
0.4646411616
 40
0.5045523515
 40
0.5435250275
 40
0.5814420819
 40
0.6181909261
 40
0.6536641145
 40
0.6877600167
 40
0.72038356
 40
0.7361158328
 40
0.7514478069
 40
0.7663698229
 40
0.7808728747
 40
0.7949485304
 40
0.808589127
 40
0.8217876764
 40
0.8345380756
 40
0.8468350633
 40
0.8586743964
 40
0.8700529164
 40
0.8809686715
 40
0.8914211252
 40
0.901411244
 40
0.9109418555
 40
0.9200177659
 40
0.9286462506
 40
0.9368373022
 40
0.9446042293
 40
0.951964127
 40
0.9589385596
 40
0.9655542544
 40
0.9718437693
 40
0.9778461758
 40
0.9836073577
 40
0.9891800489
 40
0.9946230796
 40
1.0
 40
1.0
 40
1.0
 40
1.0
 10
12.7791486565
 20
9.0455108295
 30
0.0
 10
12.7791486565
 20
9.0565177956
 30
0.0
 10
12.7793203758
 20
9.078660875
 30
0.0
 10
12.7800795219
 20
9.1120264071
 30
0.0
 10
12.781339512
 20
9.1456600028
 30
0.0
 10
12.7830962223
 20
9.1794503527
 30
0.0
 10
12.7853438435
 20
9.2132856422
 30
0.0
 10
12.7880749479
 20
9.247053942
 30
0.0
 10
12.7912804879
 20
9.2806435305
 30
0.0
 10
12.7949498375
 20
9.3139432862
 30
0.0
 10
12.7990708227
 20
9.3468430513
 30
0.0
 10
12.8036297629
 20
9.3792340009
 30
0.0
 10
12.8086115151
 20
9.411009006
 30
0.0
 10
12.813999522
 20
9.4420629936
 30
0.0
 10
12.8197758667
 20
9.4722932973
 30
0.0
 10
12.8259213302
 20
9.5016000102
 30
0.0
 10
12.8324154565
 20
9.5298863024
 30
0.0
 10
12.8392366096
 20
9.5570588299
 30
0.0
 10
12.8463620798
 20
9.583027789
 30
0.0
 10
12.8526068681
 20
9.6038385853
 30
0.0
 10
12.857747236
 20
9.6198133377
 30
0.0
 10
12.8616170055
 20
9.6312960488
 30
0.0
 10
12.8655447308
 20
9.6424161607
 30
0.0
 10
12.8695271442
 20
9.6531645114
 30
0.0
 10
12.8735609836
 20
9.6635322235
 30
0.0
 10
12.8776428598
 20
9.6735107601
 30
0.0
 10
12.8817694386
 20
9.6830918924
 30
0.0
 10
12.8859372661
 20
9.6922677459
 30
0.0
 10
12.8901429261
 20
9.7010307736
 30
0.0
 10
12.8943829344
 20
9.7093737896
 30
0.0
 10
12.8986537982
 20
9.717289964
 30
0.0
 10
12.9029520326
 20
9.7247728229
 30
0.0
 10
12.9072740905
 20
9.7318162866
 30
0.0
 10
12.9116165131
 20
9.7384146156
 30
0.0
 10
12.9159757452
 20
9.7445625036
 30
0.0
 10
12.9203483825
 20
9.7502549649
 30
0.0
 10
12.9247309387
 20
9.7554874656
 30
0.0
 10
12.9291201039
 20
9.7602557757
 30
0.0
 10
12.933512561
 20
9.7645560799
 30
0.0
 10
12.9379051524
 20
9.7683848461
 30
0.0
 10
12.9422948101
 20
9.7717388228
 30
0.0
 10
12.9466785462
 20
9.7746149888
 30
0.0
 10
12.9510534574
 20
9.7770103603
 30
0.0
 10
12.9554165036
 20
9.7789221191
 30
0.0
 10
12.9597643789
 20
9.7803473017
 30
0.0
 10
12.9640934481
 20
9.7812832707
 30
0.0
 10
12.9683984931
 20
9.781727641
 30
0.0
 10
12.9712566782
 20
9.7816950542
 30
0.0
 10
12.9726700391
 20
9.7815970435
 30
0.0
  0
SPLINE
  5
340
100
AcDbEntity
  8
0
100
AcDbSpline
 62
7
  6
CONTINUOUS
 70
0
 71
3
 72
86
 73
82
 74
0
 42
0.0000001
 43
0.0000001
 44
0.0000000001
 40
0.0
 40
0.0
 40
0.0
 40
0.0
 40
0.0039801735
 40
0.0081241171
 40
0.0124359931
 40
0.016919361
 40
0.0215772361
 40
0.0264119817
 40
0.0314252561
 40
0.0366182449
 40
0.0419916453
 40
0.0475457694
 40
0.0532805541
 40
0.0591955582
 40
0.0652900785
 40
0.0715630739
 40
0.0846387684
 40
0.0984101018
 40
0.112860694
 40
0.1279712428
 40
0.1437198619
 40
0.1600823544
 40
0.1770324406
 40
0.1945419645
 40
0.2125810668
 40
0.2311183398
 40
0.2501209668
 40
0.2695548486
 40
0.289384725
 40
0.3095742955
 40
0.3300863312
 40
0.3508827821
 40
0.3719248818
 40
0.3931732491
 40
0.4145879914
 40
0.4577543474
 40
0.501099203
 40
0.5442952951
 40
0.5657359749
 40
0.587017582
 40
0.6081001434
 40
0.6289441761
 40
0.6495107926
 40
0.6697618048
 40
0.6896598276
 40
0.709168385
 40
0.7282520204
 40
0.7468764117
 40
0.7650084972
 40
0.7826166038
 40
0.7996705814
 40
0.8161419537
 40
0.8320040874
 40
0.8472323859
 40
0.8618045214
 40
0.8757007003
 40
0.8889039845
 40
0.9014006969
 40
0.9073810972
 40
0.9131815075
 40
0.9188013673
 40
0.9242405009
 40
0.9294990443
 40
0.9345775709
 40
0.9394770909
 40
0.9441990928
 40
0.9487456636
 40
0.9531194621
 40
0.9573238984
 40
0.9613631411
 40
0.9652422549
 40
0.9689673208
 40
0.9725454977
 40
0.9759852252
 40
0.9824864215
 40
0.9855752926
 40
0.9885737717
 40
0.9914977072
 40
0.9943643167
 40
0.9971920017
 40
1.0
 40
1.0
 40
1.0
 40
1.0
 10
10.9787495956
 20
10.1736439602
 30
0.0
 10
10.977680096
 20
10.1726109029
 30
0.0
 10
10.9754485208
 20
10.1705520902
 30
0.0
 10
10.9719054601
 20
10.1675450316
 30
0.0
 10
10.9681022154
 20
10.164559531
 30
0.0
 10
10.9640408744
 20
10.1615971968
 30
0.0
 10
10.9597234315
 20
10.158659398
 30
0.0
 10
10.955151987
 20
10.155747579
 30
0.0
 10
10.9503288323
 20
10.1528631151
 30
0.0
 10
10.945256358
 20
10.1500075076
 30
0.0
 10
10.9399371228
 20
10.1471821443
 30
0.0
 10
10.9343737824
 20
10.144388448
 30
0.0
 10
10.9285691189
 20
10.1416278327
 30
0.0
 10
10.9225260594
 20
10.1389016544
 30
0.0
 10
10.9162476186
 20
10.1362113158
 30
0.0
 10
10.9074446948
 20
10.1326240948
 30
0.0
 10
10.895868112
 20
10.1282491326
 30
0.0
 10
10.8812757009
 20
10.1232331748
 30
0.0
 10
10.8658261587
 20
10.1183913778
 30
0.0
 10
10.8495506337
 20
10.113733583
 30
0.0
 10
10.8324817969
 20
10.1092692721
 30
0.0
 10
10.8146540323
 20
10.1050075388
 30
0.0
 10
10.7961032818
 20
10.1009570615
 30
0.0
 10
10.7768669833
 20
10.0971260907
 30
0.0
 10
10.75698398
 20
10.0935224294
 30
0.0
 10
10.7364944398
 20
10.090153417
 30
0.0
 10
10.7154397713
 20
10.087025915
 30
0.0
 10
10.69386254
 20
10.0841462911
 30
0.0
 10
10.6718063799
 20
10.0815204028
 30
0.0
 10
10.6493159008
 20
10.079153592
 30
0.0
 10
10.6264365965
 20
10.0770506737
 30
0.0
 10
10.6032147474
 20
10.0752159242
 30
0.0
 10
10.5796973452
 20
10.0736530837
 30
0.0
 10
10.5559319319
 20
10.0723653051
 30
0.0
 10
10.5238946594
 20
10.0710151057
 30
0.0
 10
10.4835823815
 20
10.0700343789
 30
0.0
 10
10.4351208555
 20
10.0699832447
 30
0.0
 10
10.3947857998
 20
10.0708787319
 30
0.0
 10
10.3627124908
 20
10.072160875
 30
0.0
 10
10.338907132
 20
10.0733983264
 30
0.0
 10
10.3153410722
 20
10.0749113551
 30
0.0
 10
10.2920619532
 20
10.0766969126
 30
0.0
 10
10.2691168845
 20
10.0787513609
 30
0.0
 10
10.2465522806
 20
10.0810705206
 30
0.0
 10
10.224413785
 20
10.083649673
 30
0.0
 10
10.2027461733
 20
10.0864835706
 30
0.0
 10
10.1815932637
 20
10.089566447
 30
0.0
 10
10.1609978243
 20
10.09289203
 30
0.0
 10
10.1410014827
 20
10.0964535478
 30
0.0
 10
10.1216446381
 20
10.1002437455
 30
0.0
 10
10.1029663796
 20
10.1042549025
 30
0.0
 10
10.0850044033
 20
10.1084788479
 30
0.0
 10
10.0677949333
 20
10.1129069776
 30
0.0
 10
10.0513726315
 20
10.1175302763
 30
0.0
 10
10.0357705395
 20
10.1223393307
 30
0.0
 10
10.0210199106
 20
10.1273243631
 30
0.0
 10
10.0071504451
 20
10.1324752529
 30
0.0
 10
9.9961948212
 20
10.1369604856
 30
0.0
 10
9.9879008339
 20
10.1406321254
 30
0.0
 10
9.9820091012
 20
10.1433803804
 30
0.0
 10
9.9763576567
 20
10.1461622174
 30
0.0
 10
9.970949309
 20
10.1489762116
 30
0.0
 10
9.9657867838
 20
10.1518209907
 30
0.0
 10
9.9608726556
 20
10.1546951151
 30
0.0
 10
9.956209372
 20
10.1575971479
 30
0.0
 10
9.9517992769
 20
10.1605256918
 30
0.0
 10
9.9476445349
 20
10.1634792539
 30
0.0
 10
9.943747246
 20
10.1664564566
 30
0.0
 10
9.9401093188
 20
10.1694558207
 30
0.0
 10
9.9367325829
 20
10.1724759318
 30
0.0
 10
9.9336187246
 20
10.1755154137
 30
0.0
 10
9.9307693535
 20
10.1785727156
 30
0.0
 10
9.9281857633
 20
10.1816468697
 30
0.0
 10
9.9251549066
 20
10.1856889742
 30
0.0
 10
9.9225812534
 20
10.1898400702
 30
0.0
 10
9.9205378506
 20
10.194079782
 30
0.0
 10
9.9193032536
 20
10.197215376
 30
0.0
 10
9.9183417794
 20
10.2003585843
 30
0.0
 10
9.9176543227
 20
10.2035079118
 30
0.0
 10
9.9172415234
 20
10.2066610845
 30
0.0
 10
9.9171496272
 20
10.2087676568
 30
0.0
 10
9.9171496225
 20
10.2098166987
 30
0.0
  0
SPLINE
  5
341
100
AcDbEntity
  8
0
100
AcDbSpline
 62
7
  6
CONTINUOUS
 70
0
 71
3
 72
21
 73
17
 74
0
 42
0.0000001
 43
0.0000001
 44
0.0000000001
 40
0.0
 40
0.0
 40
0.0
 40
0.0
 40
0.06165322
 40
0.1233294719
 40
0.1850515326
 40
0.2468416528
 40
0.308721334
 40
0.3707110997
 40
0.4328302469
 40
0.4950966389
 40
0.5575265783
 40
0.620134583
 40
0.6829331586
 40
0.745933179
 40
0.8725262751
 40
1.0
 40
1.0
 40
1.0
 40
1.0
 10
9.0844082113
 20
9.8237648031
 30
0.0
 10
9.0863383975
 20
9.8256292085
 30
0.0
 10
9.0903006464
 20
9.829255601
 30
0.0
 10
9.096528944
 20
9.8343689911
 30
0.0
 10
9.1030277103
 20
9.8391443775
 30
0.0
 10
9.1097803396
 20
9.8435695236
 30
0.0
 10
9.1167698538
 20
9.8476333762
 30
0.0
 10
9.1239786315
 20
9.8513256818
 30
0.0
 10
9.1313885261
 20
9.8546371238
 30
0.0
 10
9.1389808422
 20
9.8575594146
 30
0.0
 10
9.1467364699
 20
9.8600852172
 30
0.0
 10
9.1546358226
 20
9.8622081448
 30
0.0
 10
9.1626592252
 20
9.8639229119
 30
0.0
 10
9.1735108076
 20
9.8656619201
 30
0.0
 10
9.1872905865
 20
9.8667917068
 30
0.0
 10
9.1983686976
 20
9.8665755045
 30
0.0
 10
9.2039039617
 20
9.8661916326
 30
0.0
  0
SPLINE
  5
342
100
AcDbEntity
  8
0
100
AcDbSpline
 62
7
  6
CONTINUOUS
 70
0
 71
3
 72
21
 73
17
 74
0
 42
0.0000001
 43
0.0000001
 44
0.0000000001
 40
0.0
 40
0.0
 40
0.0
 40
0.0
 40
0.06165322
 40
0.1233294719
 40
0.1850515326
 40
0.2468416528
 40
0.308721334
 40
0.3707110997
 40
0.4328302469
 40
0.4950966389
 40
0.5575265783
 40
0.620134583
 40
0.6829331586
 40
0.745933179
 40
0.8725262751
 40
1.0
 40
1.0
 40
1.0
 40
1.0
 10
12.2236673328
 20
7.4327232057
 30
0.0
 10
12.225597519
 20
7.434587611
 30
0.0
 10
12.2295597679
 20
7.4382140036
 30
0.0
 10
12.2357880654
 20
7.4433273937
 30
0.0
 10
12.2422868317
 20
7.44810278
 30
0.0
 10
12.249039461
 20
7.4525279262
 30
0.0
 10
12.2560289752
 20
7.4565917787
 30
0.0
 10
12.2632377529
 20
7.4602840844
 30
0.0
 10
12.2706476475
 20
7.4635955263
 30
0.0
 10
12.2782399637
 20
7.4665178172
 30
0.0
 10
12.2859955914
 20
7.4690436198
 30
0.0
 10
12.293894944
 20
7.4711665474
 30
0.0
 10
12.3019183466
 20
7.4728813145
 30
0.0
 10
12.312769929
 20
7.4746203226
 30
0.0
 10
12.326549708
 20
7.4757501094
 30
0.0
 10
12.3376278191
 20
7.4755339071
 30
0.0
 10
12.3431630832
 20
7.4751500352
 30
0.0
  0
SPLINE
  5
343
100
AcDbEntity
  8
0
100
AcDbSpline
 62
7
  6
CONTINUOUS
 70
0
 71
3
 72
48
 73
44
 74
0
 42
0.0000001
 43
0.0000001
 44
0.0000000001
 40
0.0
 40
0.0
 40
0.0
 40
0.0
 40
0.0063158899
 40
0.0126706797
 40
0.0191025165
 40
0.025648058
 40
0.0323419221
 40
0.0392162652
 40
0.0536140552
 40
0.0611947659
 40
0.0690564915
 40
0.0772175997
 40
0.0856939645
 40
0.0944993396
 40
0.103645447
 40
0.1131421893
 40
0.122997946
 40
0.1332195527
 40
0.1438126331
 40
0.1547816545
 40
0.1661299881
 40
0.1778601838
 40
0.1899738557
 40
0.215353302
 40
0.2422691224
 40
0.2707113841
 40
0.3006623731
 40
0.332097648
 40
0.3649869327
 40
0.3992948208
 40
0.434981328
 40
0.4720023222
 40
0.5103099054
 40
0.5498527799
 40
0.590576537
 40
0.632423903
 40
0.6753349407
 40
0.7192473098
 40
0.7640964278
 40
0.8098157282
 40
0.8563368617
 40
0.9035891153
 40
1.0
 40
1.0
 40
1.0
 40
1.0
 10
12.891033495
 20
8.6044243894
 30
0.0
 10
12.8900362827
 20
8.6044935419
 30
0.0
 10
12.8880404298
 20
8.6047139026
 30
0.0
 10
12.8850690069
 20
8.6052882348
 30
0.0
 10
12.8821174538
 20
8.6061064281
 30
0.0
 10
12.8791874887
 20
8.6071677797
 30
0.0
 10
12.8762802505
 20
8.6084716702
 30
0.0
 10
12.8723766342
 20
8.6105642102
 30
0.0
 10
12.8685789995
 20
8.6131257602
 30
0.0
 10
12.8649038793
 20
8.6160942351
 30
0.0
 10
12.8621279072
 20
8.6185969958
 30
0.0
 10
12.8593815987
 20
8.6213362942
 30
0.0
 10
12.8566656035
 20
8.6243111199
 30
0.0
 10
12.8539810593
 20
8.6275202125
 30
0.0
 10
12.8513289483
 20
8.6309622616
 30
0.0
 10
12.8487102662
 20
8.6346358458
 30
0.0
 10
12.846126078
 20
8.6385395051
 30
0.0
 10
12.8435773512
 20
8.6426716288
 30
0.0
 10
12.8410651205
 20
8.6470305553
 30
0.0
 10
12.8385903999
 20
8.6516145189
 30
0.0
 10
12.8361541546
 20
8.6564216388
 30
0.0
 10
12.8337573912
 20
8.6614499858
 30
0.0
 10
12.8305659906
 20
8.6685574247
 30
0.0
 10
12.8266930611
 20
8.6779902804
 30
0.0
 10
12.8222876672
 20
8.6899878158
 30
0.0
 10
12.8180621759
 20
8.702813766
 30
0.0
 10
12.8140235594
 20
8.7164471431
 30
0.0
 10
12.8101784845
 20
8.7308658136
 30
0.0
 10
12.8065333302
 20
8.7460462027
 30
0.0
 10
12.8030941574
 20
8.761963458
 30
0.0
 10
12.7998666968
 20
8.7785914682
 30
0.0
 10
12.7968563257
 20
8.7959029154
 30
0.0
 10
12.794068054
 20
8.8138693246
 30
0.0
 10
12.791506528
 20
8.8324611234
 30
0.0
 10
12.7891760184
 20
8.8516476972
 30
0.0
 10
12.7870804155
 20
8.8713974356
 30
0.0
 10
12.7852232056
 20
8.891677787
 30
0.0
 10
12.7836074838
 20
8.9124553104
 30
0.0
 10
12.7822359415
 20
8.9336957499
 30
0.0
 10
12.7811108761
 20
8.9553640772
 30
0.0
 10
12.7802341534
 20
8.9774245389
 30
0.0
 10
12.7793927322
 20
9.0075134555
 30
0.0
 10
12.7791486565
 20
9.0302520134
 30
0.0
 10
12.7791486565
 20
9.0455108295
 30
0.0
  0
SPLINE
  5
344
100
AcDbEntity
  8
0
100
AcDbSpline
 62
7
  6
CONTINUOUS
 70
0
 71
3
 72
37
 73
33
 74
0
 42
0.0000001
 43
0.0000001
 44
0.0000000001
 40
0.0
 40
0.0
 40
0.0
 40
0.0
 40
0.0063859077
 40
0.0129184454
 40
0.0265231486
 40
0.0410108906
 40
0.0565339191
 40
0.0732106207
 40
0.0911303487
 40
0.110358643
 40
0.1309414823
 40
0.1529090617
 40
0.1762788756
 40
0.2010577345
 40
0.2272437141
 40
0.2548275947
 40
0.2837936699
 40
0.3141208296
 40
0.3457832068
 40
0.378750512
 40
0.4129887357
 40
0.4484604134
 40
0.4851248161
 40
0.522938452
 40
0.5618551455
 40
0.6018262103
 40
0.6428008249
 40
0.6847260316
 40
0.7275468864
 40
0.8156461649
 40
0.9066277667
 40
1.0
 40
1.0
 40
1.0
 40
1.0
 10
12.8660019534
 20
8.7925773319
 30
0.0
 10
12.8653620983
 20
8.7928035503
 30
0.0
 10
12.8640838584
 20
8.7933083373
 30
0.0
 10
12.8615380365
 20
8.7945225527
 30
0.0
 10
12.8583819994
 20
8.7964352848
 30
0.0
 10
12.8547179751
 20
8.7992887279
 30
0.0
 10
12.8511283781
 20
8.8027250919
 30
0.0
 10
12.8476170361
 20
8.8067382171
 30
0.0
 10
12.8441872095
 20
8.8113221875
 30
0.0
 10
12.8408428502
 20
8.816470582
 30
0.0
 10
12.8375880554
 20
8.822176262
 30
0.0
 10
12.8344271066
 20
8.8284312694
 30
0.0
 10
12.8313644008
 20
8.8352268106
 30
0.0
 10
12.8284042596
 20
8.8425531945
 30
0.0
 10
12.8255509574
 20
8.8503998914
 30
0.0
 10
12.8228087024
 20
8.858755553
 30
0.0
 10
12.8201815085
 20
8.8676080107
 30
0.0
 10
12.817673273
 20
8.876944332
 30
0.0
 10
12.8152877472
 20
8.8867508398
 30
0.0
 10
12.8130284534
 20
8.8970131253
 30
0.0
 10
12.8108987715
 20
8.9077160936
 30
0.0
 10
12.8089018917
 20
8.9188439812
 30
0.0
 10
12.8070407672
 20
8.9303803786
 30
0.0
 10
12.8053181923
 20
8.9423082664
 30
0.0
 10
12.8037367427
 20
8.9546100363
 30
0.0
 10
12.8022987557
 20
8.96726752
 30
0.0
 10
12.801006403
 20
8.9802620149
 30
0.0
 10
12.799861589
 20
8.9935743355
 30
0.0
 10
12.7985215631
 20
9.0118950787
 30
0.0
 10
12.797237418
 20
9.0354453296
 30
0.0
 10
12.7963198733
 20
9.064388126
 30
0.0
 10
12.7961205113
 20
9.0839811773
 30
0.0
 10
12.7961205113
 20
9.0939043841
 30
0.0
  0
SPLINE
  5
345
100
AcDbEntity
  8
0
100
AcDbSpline
 62
7
  6
CONTINUOUS
 70
0
 71
3
 72
50
 73
46
 74
0
 42
0.0000001
 43
0.0000001
 44
0.0000000001
 40
0.0
 40
0.0
 40
0.0
 40
0.0
 40
0.0054989074
 40
0.0111936818
 40
0.0171298563
 40
0.0233468981
 40
0.0298784698
 40
0.0367526283
 40
0.0439925708
 40
0.0516170305
 40
0.0596410331
 40
0.0680762737
 40
0.0769316856
 40
0.0862137742
 40
0.095926956
 40
0.1060738838
 40
0.1166555751
 40
0.1276717569
 40
0.1391208271
 40
0.1510002228
 40
0.1633062705
 40
0.1760345556
 40
0.1891797267
 40
0.2027358266
 40
0.2310525025
 40
0.2609247819
 40
0.2922832523
 40
0.3250509299
 40
0.3591441357
 40
0.3944732385
 40
0.4309433035
 40
0.4684546765
 40
0.5069035228
 40
0.5461823337
 40
0.5861804105
 40
0.6267843323
 40
0.6678784133
 40
0.7093451536
 40
0.75106568
 40
0.7929202014
 40
0.8347884042
 40
0.8765500249
 40
0.9180849183
 40
0.9592743974
 40
1.0
 40
1.0
 40
1.0
 40
1.0
 10
12.9219067057
 20
9.5987004769
 30
0.0
 10
12.920944949
 20
9.5985041637
 30
0.0
 10
12.919006968
 20
9.5980013467
 30
0.0
 10
12.9161318748
 20
9.5969479571
 30
0.0
 10
12.913247358
 20
9.5955857717
 30
0.0
 10
12.9103557559
 20
9.5939166892
 30
0.0
 10
12.9074588618
 20
9.5919423189
 30
0.0
 10
12.9045584666
 20
9.5896645442
 30
0.0
 10
12.9016564845
 20
9.5870851607
 30
0.0
 10
12.8987547709
 20
9.5842062373
 30
0.0
 10
12.8958553465
 20
9.5810299082
 30
0.0
 10
12.8929602032
 20
9.5775585756
 30
0.0
 10
12.8900714328
 20
9.5737948082
 30
0.0
 10
12.8871911351
 20
9.5697414162
 30
0.0
 10
12.8843214283
 20
9.5654014328
 30
0.0
 10
12.8814644794
 20
9.5607781033
 30
0.0
 10
12.8786224013
 20
9.5558749219
 30
0.0
 10
12.8757973925
 20
9.550695573
 30
0.0
 10
12.8729915443
 20
9.5452439959
 30
0.0
 10
12.8702070573
 20
9.5395243079
 30
0.0
 10
12.8674459939
 20
9.5335408738
 30
0.0
 10
12.8647105363
 20
9.5272982336
 30
0.0
 10
12.8620026965
 20
9.5208011531
 30
0.0
 10
12.8583791776
 20
9.5116725957
 30
0.0
 10
12.8539442147
 20
9.4996557654
 30
0.0
 10
12.8488391368
 20
9.4845061752
 30
0.0
 10
12.8438922381
 20
9.4684709007
 30
0.0
 10
12.8391187816
 20
9.4515989447
 30
0.0
 10
12.8345335036
 20
9.4339417487
 30
0.0
 10
12.8301505519
 20
9.4155532716
 30
0.0
 10
12.8259834452
 20
9.3964897382
 30
0.0
 10
12.8220450297
 20
9.3768094777
 30
0.0
 10
12.8183474406
 20
9.356572732
 30
0.0
 10
12.8149020655
 20
9.3358414667
 30
0.0
 10
12.8117195102
 20
9.3146791769
 30
0.0
 10
12.8088095672
 20
9.2931506894
 30
0.0
 10
12.8061811851
 20
9.2713219615
 30
0.0
 10
12.8038424434
 20
9.2492598771
 30
0.0
 10
12.8018005256
 20
9.2270320387
 30
0.0
 10
12.8000617018
 20
9.2047065644
 30
0.0
 10
12.7986313003
 20
9.1823518589
 30
0.0
 10
12.7975137111
 20
9.1600364584
 30
0.0
 10
12.796712334
 20
9.1378286751
 30
0.0
 10
12.7962296305
 20
9.1157966925
 30
0.0
 10
12.7961205113
 20
9.1011741479
 30
0.0
 10
12.7961205113
 20
9.0939043841
 30
0.0
  0
SPLINE
  5
346
100
AcDbEntity
  8
0
100
AcDbSpline
 62
7
  6
CONTINUOUS
 70
0
 71
3
 72
18
 73
14
 74
0
 42
0.0000001
 43
0.0000001
 44
0.0000000001
 40
0.0
 40
0.0
 40
0.0
 40
0.0
 40
0.0548621106
 40
0.1099281304
 40
0.165399556
 40
0.2214731722
 40
0.2783387379
 40
0.3361775111
 40
0.4554063056
 40
0.5804414047
 40
0.7123341351
 40
0.8519581983
 40
1.0
 40
1.0
 40
1.0
 40
1.0
 10
10.9971496145
 20
10.2098173843
 30
0.0
 10
10.9971496179
 20
10.2090547466
 30
0.0
 10
10.9971012204
 20
10.2075261987
 30
0.0
 10
10.9968836045
 20
10.2052358611
 30
0.0
 10
10.996520994
 20
10.2029468451
 30
0.0
 10
10.9960135262
 20
10.2006599859
 30
0.0
 10
10.9953614145
 20
10.1983758548
 30
0.0
 10
10.9942888119
 20
10.195304315
 30
0.0
 10
10.9925705135
 20
10.1914626443
 30
0.0
 10
10.9899551495
 20
10.1869256116
 30
0.0
 10
10.9867697623
 20
10.1824179394
 30
0.0
 10
10.9830191978
 20
10.1779441704
 30
0.0
 10
10.9802297694
 20
10.1750736984
 30
0.0
 10
10.9787495956
 20
10.1736439602
 30
0.0
  0
SPLINE
  5
347
100
AcDbEntity
  8
0
100
AcDbSpline
 62
7
  6
CONTINUOUS
 70
0
 71
3
 72
42
 73
38
 74
0
 42
0.0000001
 43
0.0000001
 44
0.0000000001
 40
0.0
 40
0.0
 40
0.0
 40
0.0
 40
0.0311444347
 40
0.0467772112
 40
0.0624471461
 40
0.093891844
 40
0.1254739796
 40
0.1571813629
 40
0.1889992234
 40
0.2209106216
 40
0.2528967716
 40
0.2849374315
 40
0.3170113014
 40
0.34909644
 40
0.3811706886
 40
0.4132120984
 40
0.4451993552
 40
0.4771121951
 40
0.5089318057
 40
0.5406412074
 40
0.572225607
 40
0.6036727182
 40
0.6349730419
 40
0.6661200987
 40
0.6971106068
 40
0.7279445994
 40
0.7586254742
 40
0.7891599701
 40
0.8195580671
 40
0.8498328085
 40
0.864931571
 40
0.8800056544
 40
0.910083706
 40
0.9400929707
 40
0.9550814956
 40
0.9700611828
 40
1.0
 40
1.0
 40
1.0
 40
1.0
 10
12.3431630832
 20
7.1428715313
 30
0.0
 10
12.3391061187
 20
7.1431528827
 30
0.0
 10
12.3330252568
 20
7.1437980257
 30
0.0
 10
12.3249736552
 20
7.1450944995
 30
0.0
 10
12.3169348359
 20
7.1466861714
 30
0.0
 10
12.3069668391
 20
7.1492210545
 30
0.0
 10
12.2952141791
 20
7.1531118995
 30
0.0
 10
12.2837175765
 20
7.1578347223
 30
0.0
 10
12.2725386751
 20
7.1633641938
 30
0.0
 10
12.2617369418
 20
7.1696707806
 30
0.0
 10
12.2513699578
 20
7.1767208059
 30
0.0
 10
12.2414929524
 20
7.1844766516
 30
0.0
 10
12.2321585564
 20
7.1928969522
 30
0.0
 10
12.2234165127
 20
7.2019368147
 30
0.0
 10
12.2153134172
 20
7.2115480556
 30
0.0
 10
12.2078924723
 20
7.2216794554
 30
0.0
 10
12.2011932586
 20
7.2322770283
 30
0.0
 10
12.1952515253
 20
7.2432843071
 30
0.0
 10
12.1900990015
 20
7.2546426402
 30
0.0
 10
12.1857632267
 20
7.2662915009
 30
0.0
 10
12.1822674045
 20
7.278168805
 30
0.0
 10
12.1796302777
 20
7.2902112378
 30
0.0
 10
12.1778660264
 20
7.3023545869
 30
0.0
 10
12.1769841895
 20
7.3145340804
 30
0.0
 10
12.1769896083
 20
7.3266847253
 30
0.0
 10
12.1778824013
 20
7.338741663
 30
0.0
 10
12.1796579334
 20
7.3506404661
 30
0.0
 10
12.182306921
 20
7.3623176548
 30
0.0
 10
12.1858151472
 20
7.3737103921
 30
0.0
 10
12.1894432333
 20
7.3829264433
 30
0.0
 10
12.1927540372
 20
7.3900933492
 30
0.0
 10
12.1963270391
 20
7.397104417
 30
0.0
 10
12.2012879373
 20
7.4055846689
 30
0.0
 10
12.2068868832
 20
7.4136443801
 30
0.0
 10
12.2117251929
 20
7.419805018
 30
0.0
 10
12.2167943012
 20
7.4257645734
 30
0.0
 10
12.2208555539
 20
7.4300072524
 30
0.0
 10
12.2236673328
 20
7.4327232057
 30
0.0
  0
SPLINE
  5
348
100
AcDbEntity
  8
0
100
AcDbSpline
 62
7
  6
CONTINUOUS
 70
0
 71
3
 72
48
 73
44
 74
0
 42
0.0000001
 43
0.0000001
 44
0.0000000001
 40
0.0
 40
0.0
 40
0.0
 40
0.0
 40
0.0063158899
 40
0.0126706797
 40
0.0191025165
 40
0.025648058
 40
0.0323419221
 40
0.0392162652
 40
0.0536140552
 40
0.0611947659
 40
0.0690564915
 40
0.0772175997
 40
0.0856939645
 40
0.0944993396
 40
0.103645447
 40
0.1131421893
 40
0.122997946
 40
0.1332195527
 40
0.1438126331
 40
0.1547816545
 40
0.1661299881
 40
0.1778601838
 40
0.1899738557
 40
0.215353302
 40
0.2422691224
 40
0.2707113841
 40
0.3006623731
 40
0.332097648
 40
0.3649869327
 40
0.3992948208
 40
0.434981328
 40
0.4720023222
 40
0.5103099054
 40
0.5498527799
 40
0.590576537
 40
0.632423903
 40
0.6753349407
 40
0.7192473098
 40
0.7640964278
 40
0.8098157282
 40
0.8563368617
 40
0.9035891153
 40
1.0
 40
1.0
 40
1.0
 40
1.0
 10
12.9726700391
 20
9.7815970435
 30
0.0
 10
12.9736672514
 20
9.7815278911
 30
0.0
 10
12.9756631043
 20
9.7813075303
 30
0.0
 10
12.9786345272
 20
9.7807331982
 30
0.0
 10
12.9815860803
 20
9.7799150049
 30
0.0
 10
12.9845160454
 20
9.7788536533
 30
0.0
 10
12.9874232836
 20
9.7775497627
 30
0.0
 10
12.9913268999
 20
9.7754572227
 30
0.0
 10
12.9951245346
 20
9.7728956727
 30
0.0
 10
12.9987996548
 20
9.7699271979
 30
0.0
 10
13.0015756269
 20
9.7674244372
 30
0.0
 10
13.0043219354
 20
9.7646851388
 30
0.0
 10
13.0070379306
 20
9.761710313
 30
0.0
 10
13.0097224747
 20
9.7585012205
 30
0.0
 10
13.0123745858
 20
9.7550591713
 30
0.0
 10
13.0149932679
 20
9.7513855872
 30
0.0
 10
13.0175774561
 20
9.7474819279
 30
0.0
 10
13.0201261828
 20
9.7433498041
 30
0.0
 10
13.0226384135
 20
9.7389908776
 30
0.0
 10
13.0251131342
 20
9.734406914
 30
0.0
 10
13.0275493794
 20
9.7295997942
 30
0.0
 10
13.0299461429
 20
9.7245714471
 30
0.0
 10
13.0331375435
 20
9.7174640082
 30
0.0
 10
13.037010473
 20
9.7080311525
 30
0.0
 10
13.0414158668
 20
9.6960336172
 30
0.0
 10
13.0456413582
 20
9.683207667
 30
0.0
 10
13.0496799747
 20
9.6695742898
 30
0.0
 10
13.0535250496
 20
9.6551556194
 30
0.0
 10
13.0571702039
 20
9.6399752302
 30
0.0
 10
13.0606093766
 20
9.6240579749
 30
0.0
 10
13.0638368373
 20
9.6074299648
 30
0.0
 10
13.0668472084
 20
9.5901185176
 30
0.0
 10
13.0696354801
 20
9.5721521083
 30
0.0
 10
13.0721970061
 20
9.5535603095
 30
0.0
 10
13.0745275156
 20
9.5343737358
 30
0.0
 10
13.0766231186
 20
9.5146239973
 30
0.0
 10
13.0784803285
 20
9.4943436459
 30
0.0
 10
13.0800960503
 20
9.4735661226
 30
0.0
 10
13.0814675926
 20
9.4523256831
 30
0.0
 10
13.082592658
 20
9.4306573558
 30
0.0
 10
13.0834693807
 20
9.4085968941
 30
0.0
 10
13.0843108019
 20
9.3785079775
 30
0.0
 10
13.0845548776
 20
9.3557694196
 30
0.0
 10
13.0845548776
 20
9.3405106035
 30
0.0
  0
SPLINE
  5
349
100
AcDbEntity
  8
0
100
AcDbSpline
 62
7
  6
CONTINUOUS
 70
0
 71
3
 72
23
 73
19
 74
0
 42
0.0000001
 43
0.0000001
 44
0.0000000001
 40
0.0
 40
0.0
 40
0.0
 40
0.0
 40
0.0762055726
 40
0.151275383
 40
0.2250399927
 40
0.2973412101
 40
0.3680211159
 40
0.4369282033
 40
0.5039162165
 40
0.5688451221
 40
0.6315817599
 40
0.6920005237
 40
0.7499842069
 40
0.8054249855
 40
0.8582255336
 40
0.908300325
 40
0.9555773002
 40
1.0
 40
1.0
 40
1.0
 40
1.0
 10
12.891883385
 20
9.2964042225
 30
0.0
 10
12.891883385
 20
9.3022705782
 30
0.0
 10
12.8918077362
 20
9.3139160141
 30
0.0
 10
12.8914624167
 20
9.3312368145
 30
0.0
 10
12.8908868149
 20
9.3482508226
 30
0.0
 10
12.8900823871
 20
9.3649172514
 30
0.0
 10
12.8890510463
 20
9.3811965549
 30
0.0
 10
12.887795303
 20
9.3970498749
 30
0.0
 10
12.8863181932
 20
9.4124394715
 30
0.0
 10
12.8846232937
 20
9.4273287032
 30
0.0
 10
12.8827147047
 20
9.4416821396
 30
0.0
 10
12.8805970411
 20
9.4554656475
 30
0.0
 10
12.8782754208
 20
9.4686464762
 30
0.0
 10
12.8757554551
 20
9.4811933613
 30
0.0
 10
12.8730432441
 20
9.4930765756
 30
0.0
 10
12.8701453088
 20
9.5042681373
 30
0.0
 10
12.867068701
 20
9.5147414599
 30
0.0
 10
12.8648330289
 20
9.5214394478
 30
0.0
 10
12.8636810646
 20
9.5246592694
 30
0.0
  0
SPLINE
  5
34A
100
AcDbEntity
  8
0
100
AcDbSpline
 62
7
  6
CONTINUOUS
 70
0
 71
3
 72
18
 73
14
 74
0
 42
0.0000001
 43
0.0000001
 44
0.0000000001
 40
0.0
 40
0.0
 40
0.0
 40
0.0
 40
0.1405846412
 40
0.2779100212
 40
0.411345431
 40
0.5402808128
 40
0.6641373764
 40
0.7239905922
 40
0.7823728621
 40
0.8392222378
 40
0.8944799397
 40
0.9480899669
 40
1.0
 40
1.0
 40
1.0
 40
1.0
 10
12.8544973314
 20
9.2908176544
 30
0.0
 10
12.8544973314
 20
9.2986144337
 30
0.0
 10
12.8543526295
 20
9.3140276881
 30
0.0
 10
12.853687816
 20
9.3368325705
 30
0.0
 10
12.8525809972
 20
9.35897368
 30
0.0
 10
12.851037852
 20
9.380339873
 30
0.0
 10
12.8493767281
 20
9.3976013279
 30
0.0
 10
12.8478269994
 20
9.4109382876
 30
0.0
 10
12.8465743331
 20
9.4205676298
 30
0.0
 10
12.8452196564
 20
9.4299257113
 30
0.0
 10
12.8437647022
 20
9.4390008201
 30
0.0
 10
12.8422112783
 20
9.4477815369
 30
0.0
 10
12.8410929787
 20
9.4535261761
 30
0.0
 10
12.8405165267
 20
9.4563467874
 30
0.0
  0
SPLINE
  5
34B
100
AcDbEntity
  8
0
100
AcDbSpline
 62
7
  6
CONTINUOUS
 70
0
 71
3
 72
86
 73
82
 74
0
 42
0.0000001
 43
0.0000001
 44
0.0000000001
 40
0.0
 40
0.0
 40
0.0
 40
0.0
 40
0.0039801735
 40
0.0081241171
 40
0.0124359931
 40
0.016919361
 40
0.0215772361
 40
0.0264119817
 40
0.0314252561
 40
0.0366182449
 40
0.0419916453
 40
0.0475457694
 40
0.0532805541
 40
0.0591955582
 40
0.0652900785
 40
0.0715630739
 40
0.0846387684
 40
0.0984101018
 40
0.112860694
 40
0.1279712428
 40
0.1437198619
 40
0.1600823544
 40
0.1770324406
 40
0.1945419645
 40
0.2125810668
 40
0.2311183398
 40
0.2501209668
 40
0.2695548486
 40
0.289384725
 40
0.3095742955
 40
0.3300863312
 40
0.3508827821
 40
0.3719248818
 40
0.3931732491
 40
0.4145879914
 40
0.4577543474
 40
0.501099203
 40
0.5442952951
 40
0.5657359749
 40
0.587017582
 40
0.6081001434
 40
0.6289441761
 40
0.6495107926
 40
0.6697618048
 40
0.6896598276
 40
0.709168385
 40
0.7282520204
 40
0.7468764117
 40
0.7650084972
 40
0.7826166038
 40
0.7996705814
 40
0.8161419537
 40
0.8320040874
 40
0.8472323859
 40
0.8618045214
 40
0.8757007003
 40
0.8889039845
 40
0.9014006969
 40
0.9073810972
 40
0.9131815075
 40
0.9188013673
 40
0.9242405009
 40
0.9294990443
 40
0.9345775709
 40
0.9394770909
 40
0.9441990928
 40
0.9487456636
 40
0.9531194621
 40
0.9573238984
 40
0.9613631411
 40
0.9652422549
 40
0.9689673208
 40
0.9725454977
 40
0.9759852252
 40
0.9824864215
 40
0.9855752926
 40
0.9885737717
 40
0.9914977072
 40
0.9943643167
 40
0.9971920017
 40
1.0
 40
1.0
 40
1.0
 40
1.0
 10
9.9355496414
 20
10.2459901227
 30
0.0
 10
9.9366191409
 20
10.2470231801
 30
0.0
 10
9.9388507162
 20
10.2490819928
 30
0.0
 10
9.9423937768
 20
10.2520890514
 30
0.0
 10
9.9461970215
 20
10.2550745519
 30
0.0
 10
9.9502583625
 20
10.2580368861
 30
0.0
 10
9.9545758054
 20
10.2609746849
 30
0.0
 10
9.9591472499
 20
10.263886504
 30
0.0
 10
9.9639704046
 20
10.2667709679
 30
0.0
 10
9.9690428789
 20
10.2696265753
 30
0.0
 10
9.9743621141
 20
10.2724519387
 30
0.0
 10
9.9799254545
 20
10.2752456349
 30
0.0
 10
9.985730118
 20
10.2780062502
 30
0.0
 10
9.9917731775
 20
10.2807324286
 30
0.0
 10
9.9980516183
 20
10.2834227671
 30
0.0
 10
10.0068545421
 20
10.2870099882
 30
0.0
 10
10.0184311249
 20
10.2913849503
 30
0.0
 10
10.033023536
 20
10.2964009081
 30
0.0
 10
10.0484730782
 20
10.3012427051
 30
0.0
 10
10.0647486032
 20
10.3059004999
 30
0.0
 10
10.08181744
 20
10.3103648109
 30
0.0
 10
10.0996452046
 20
10.3146265442
 30
0.0
 10
10.1181959551
 20
10.3186770215
 30
0.0
 10
10.1374322536
 20
10.3225079923
 30
0.0
 10
10.1573152569
 20
10.3261116536
 30
0.0
 10
10.1778047971
 20
10.329480666
 30
0.0
 10
10.1988594656
 20
10.3326081679
 30
0.0
 10
10.2204366969
 20
10.3354877918
 30
0.0
 10
10.242492857
 20
10.3381136802
 30
0.0
 10
10.2649833361
 20
10.340480491
 30
0.0
 10
10.2878626404
 20
10.3425834092
 30
0.0
 10
10.3110844895
 20
10.3444181588
 30
0.0
 10
10.3346018917
 20
10.3459809993
 30
0.0
 10
10.358367305
 20
10.3472687778
 30
0.0
 10
10.3904045776
 20
10.3486189772
 30
0.0
 10
10.4307168554
 20
10.3495997041
 30
0.0
 10
10.4791783814
 20
10.3496508382
 30
0.0
 10
10.5195134371
 20
10.3487553511
 30
0.0
 10
10.5515867461
 20
10.3474732079
 30
0.0
 10
10.575392105
 20
10.3462357566
 30
0.0
 10
10.5989581647
 20
10.3447227279
 30
0.0
 10
10.6222372837
 20
10.3429371703
 30
0.0
 10
10.6451823524
 20
10.3408827221
 30
0.0
 10
10.6677469563
 20
10.3385635623
 30
0.0
 10
10.6898854519
 20
10.33598441
 30
0.0
 10
10.7115530636
 20
10.3331505124
 30
0.0
 10
10.7327059732
 20
10.3300676359
 30
0.0
 10
10.7533014126
 20
10.326742053
 30
0.0
 10
10.7732977543
 20
10.3231805351
 30
0.0
 10
10.7926545988
 20
10.3193903375
 30
0.0
 10
10.8113328573
 20
10.3153791805
 30
0.0
 10
10.8292948336
 20
10.3111552351
 30
0.0
 10
10.8465043036
 20
10.3067271053
 30
0.0
 10
10.8629266054
 20
10.3021038067
 30
0.0
 10
10.8785286974
 20
10.2972947522
 30
0.0
 10
10.8932793263
 20
10.2923097199
 30
0.0
 10
10.9071487918
 20
10.28715883
 30
0.0
 10
10.9181044157
 20
10.2826735974
 30
0.0
 10
10.926398403
 20
10.2790019576
 30
0.0
 10
10.9322901357
 20
10.2762537025
 30
0.0
 10
10.9379415802
 20
10.2734718656
 30
0.0
 10
10.9433499279
 20
10.2706578713
 30
0.0
 10
10.9485124531
 20
10.2678130923
 30
0.0
 10
10.9534265814
 20
10.2649389678
 30
0.0
 10
10.9580898649
 20
10.2620369351
 30
0.0
 10
10.96249996
 20
10.2591083911
 30
0.0
 10
10.966654702
 20
10.256154829
 30
0.0
 10
10.9705519909
 20
10.2531776264
 30
0.0
 10
10.9741899181
 20
10.2501782622
 30
0.0
 10
10.977566654
 20
10.2471581511
 30
0.0
 10
10.9806805123
 20
10.2441186692
 30
0.0
 10
10.9835298834
 20
10.2410613673
 30
0.0
 10
10.9861134736
 20
10.2379872133
 30
0.0
 10
10.9891443303
 20
10.2339451087
 30
0.0
 10
10.9917179835
 20
10.2297940128
 30
0.0
 10
10.9937613863
 20
10.225554301
 30
0.0
 10
10.9949959833
 20
10.2224187069
 30
0.0
 10
10.9959574575
 20
10.2192754987
 30
0.0
 10
10.9966449142
 20
10.2161261711
 30
0.0
 10
10.9970577135
 20
10.2129729984
 30
0.0
 10
10.9971496097
 20
10.2108664261
 30
0.0
 10
10.9971496145
 20
10.2098173843
 30
0.0
  0
SPLINE
  5
34C
100
AcDbEntity
  8
0
100
AcDbSpline
 62
7
  6
CONTINUOUS
 70
0
 71
3
 72
18
 73
14
 74
0
 42
0.0000001
 43
0.0000001
 44
0.0000000001
 40
0.0
 40
0.0
 40
0.0
 40
0.0
 40
0.0548621106
 40
0.1099281304
 40
0.165399556
 40
0.2214731722
 40
0.2783387379
 40
0.3361775111
 40
0.4554063056
 40
0.5804414047
 40
0.7123341351
 40
0.8519581983
 40
1.0
 40
1.0
 40
1.0
 40
1.0
 10
9.9171496225
 20
10.2098166987
 30
0.0
 10
9.917149619
 20
10.2105793363
 30
0.0
 10
9.9171980165
 20
10.2121078842
 30
0.0
 10
9.9174156325
 20
10.2143982218
 30
0.0
 10
9.9177782429
 20
10.2166872379
 30
0.0
 10
9.9182857108
 20
10.218974097
 30
0.0
 10
9.9189378224
 20
10.2212582281
 30
0.0
 10
9.920010425
 20
10.224329768
 30
0.0
 10
9.9217287234
 20
10.2281714386
 30
0.0
 10
9.9243440874
 20
10.2327084713
 30
0.0
 10
9.9275294746
 20
10.2372161436
 30
0.0
 10
9.9312800391
 20
10.2416899126
 30
0.0
 10
9.9340694675
 20
10.2445603845
 30
0.0
 10
9.9355496414
 20
10.2459901227
 30
0.0
  0
SPLINE
  5
34D
100
AcDbEntity
  8
0
100
AcDbSpline
 62
7
  6
CONTINUOUS
 70
0
 71
3
 72
42
 73
38
 74
0
 42
0.0000001
 43
0.0000001
 44
0.0000000001
 40
0.0
 40
0.0
 40
0.0
 40
0.0
 40
0.0311444347
 40
0.0467772112
 40
0.0624471461
 40
0.093891844
 40
0.1254739796
 40
0.1571813629
 40
0.1889992234
 40
0.2209106216
 40
0.2528967716
 40
0.2849374315
 40
0.3170113014
 40
0.34909644
 40
0.3811706886
 40
0.4132120984
 40
0.4451993552
 40
0.4771121951
 40
0.5089318057
 40
0.5406412074
 40
0.572225607
 40
0.6036727182
 40
0.6349730419
 40
0.6661200987
 40
0.6971106068
 40
0.7279445994
 40
0.7586254742
 40
0.7891599701
 40
0.8195580671
 40
0.8498328085
 40
0.864931571
 40
0.8800056544
 40
0.910083706
 40
0.9400929707
 40
0.9550814956
 40
0.9700611828
 40
1.0
 40
1.0
 40
1.0
 40
1.0
 10
9.2039039617
 20
9.5339131287
 30
0.0
 10
9.1998469973
 20
9.5341944801
 30
0.0
 10
9.1937661354
 20
9.5348396231
 30
0.0
 10
9.1857145337
 20
9.5361360969
 30
0.0
 10
9.1776757145
 20
9.5377277688
 30
0.0
 10
9.1677077176
 20
9.540262652
 30
0.0
 10
9.1559550577
 20
9.544153497
 30
0.0
 10
9.1444584551
 20
9.5488763197
 30
0.0
 10
9.1332795537
 20
9.5544057912
 30
0.0
 10
9.1224778204
 20
9.560712378
 30
0.0
 10
9.1121108364
 20
9.5677624033
 30
0.0
 10
9.102233831
 20
9.575518249
 30
0.0
 10
9.0928994349
 20
9.5839385496
 30
0.0
 10
9.0841573912
 20
9.5929784121
 30
0.0
 10
9.0760542958
 20
9.6025896531
 30
0.0
 10
9.0686333509
 20
9.6127210529
 30
0.0
 10
9.0619341371
 20
9.6233186258
 30
0.0
 10
9.0559924039
 20
9.6343259045
 30
0.0
 10
9.05083988
 20
9.6456842377
 30
0.0
 10
9.0465041052
 20
9.6573330983
 30
0.0
 10
9.043008283
 20
9.6692104024
 30
0.0
 10
9.0403711563
 20
9.6812528353
 30
0.0
 10
9.0386069049
 20
9.6933961843
 30
0.0
 10
9.0377250681
 20
9.7055756778
 30
0.0
 10
9.0377304869
 20
9.7177263227
 30
0.0
 10
9.0386232799
 20
9.7297832605
 30
0.0
 10
9.0403988119
 20
9.7416820635
 30
0.0
 10
9.0430477996
 20
9.7533592522
 30
0.0
 10
9.0465560258
 20
9.7647519895
 30
0.0
 10
9.0501841118
 20
9.7739680408
 30
0.0
 10
9.0534949158
 20
9.7811349466
 30
0.0
 10
9.0570679177
 20
9.7881460144
 30
0.0
 10
9.0620288158
 20
9.7966262663
 30
0.0
 10
9.0676277618
 20
9.8046859776
 30
0.0
 10
9.0724660714
 20
9.8108466154
 30
0.0
 10
9.0775351798
 20
9.8168061708
 30
0.0
 10
9.0815964324
 20
9.8210488498
 30
0.0
 10
9.0844082113
 20
9.8237648031
 30
0.0
  0
SPLINE
  5
34E
100
AcDbEntity
  8
0
100
AcDbSpline
 62
7
  6
CONTINUOUS
 70
0
 71
3
 72
49
 73
45
 74
0
 42
0.0000001
 43
0.0000001
 44
0.0000000001
 40
0.0
 40
0.0
 40
0.0
 40
0.0
 40
0.0993148791
 40
0.1479268031
 40
0.1957327664
 40
0.242652289
 40
0.2886075442
 40
0.33352317
 40
0.3773261039
 40
0.4199461616
 40
0.4613161879
 40
0.5013722748
 40
0.5400541271
 40
0.5773054847
 40
0.6130744144
 40
0.6473137535
 40
0.6799817758
 40
0.7110428467
 40
0.7404681662
 40
0.7682368622
 40
0.7943374814
 40
0.8187696549
 40
0.8303645657
 40
0.8415486374
 40
0.8523260611
 40
0.8627024332
 40
0.8726847955
 40
0.882281706
 40
0.8915037012
 40
0.9003633035
 40
0.9088752917
 40
0.9170571366
 40
0.9249290332
 40
0.9325142776
 40
0.9398395225
 40
0.9469347526
 40
0.9538334561
 40
0.9605724276
 40
0.9671913806
 40
0.9737324874
 40
0.9802395557
 40
0.9867571466
 40
0.9933295827
 40
1.0
 40
1.0
 40
1.0
 40
1.0
 10
13.0057637648
 20
9.296404229
 30
0.0
 10
13.0057637648
 20
9.3074287575
 30
0.0
 10
13.0055782877
 20
9.3238504565
 30
0.0
 10
13.0049375776
 20
9.345568871
 30
0.0
 10
13.0042703723
 20
9.3614666169
 30
0.0
 10
13.0034143711
 20
9.3770599608
 30
0.0
 10
13.0023711527
 20
9.3923203603
 30
0.0
 10
13.0011426595
 20
9.407219888
 30
0.0
 10
12.9997311484
 20
9.4217313033
 30
0.0
 10
12.9981392411
 20
9.4358280698
 30
0.0
 10
12.99636989
 20
9.4494844265
 30
0.0
 10
12.9944263636
 20
9.4626754211
 30
0.0
 10
12.99231225
 20
9.4753769668
 30
0.0
 10
12.9900314738
 20
9.4875658965
 30
0.0
 10
12.9875882565
 20
9.499219999
 30
0.0
 10
12.9849871023
 20
9.5103180623
 30
0.0
 10
12.9822328174
 20
9.5208399316
 30
0.0
 10
12.979330487
 20
9.5307665651
 30
0.0
 10
12.9762854388
 20
9.5400800345
 30
0.0
 10
12.9731032027
 20
9.5487636867
 30
0.0
 10
12.9697895647
 20
9.5568018426
 30
0.0
 10
12.9668748976
 20
9.5630555411
 30
0.0
 10
12.9644747247
 20
9.5677149615
 30
0.0
 10
12.9626769785
 20
9.5709779905
 30
0.0
 10
12.9608509398
 20
9.5740692043
 30
0.0
 10
12.9589974017
 20
9.5769872274
 30
0.0
 10
12.9571172024
 20
9.5797307634
 30
0.0
 10
12.955211103
 20
9.5822985512
 30
0.0
 10
12.9532799513
 20
9.5846894585
 30
0.0
 10
12.9513245533
 20
9.5869024062
 30
0.0
 10
12.9493456747
 20
9.5889363442
 30
0.0
 10
12.9473441629
 20
9.5907903609
 30
0.0
 10
12.9453207928
 20
9.5924635369
 30
0.0
 10
12.9432763566
 20
9.5939549939
 30
0.0
 10
12.9412117177
 20
9.5952639695
 30
0.0
 10
12.9391276982
 20
9.5963896318
 30
0.0
 10
12.9370252263
 20
9.5973312474
 30
0.0
 10
12.9349053111
 20
9.5980881775
 30
0.0
 10
12.9327690135
 20
9.5986597408
 30
0.0
 10
12.9306175358
 20
9.5990455049
 30
0.0
 10
12.9284521493
 20
9.5992451578
 30
0.0
 10
12.9262741176
 20
9.5992584736
 30
0.0
 10
12.9240849368
 20
9.5990856187
 30
0.0
 10
12.9226322012
 20
9.5988485645
 30
0.0
 10
12.9219067057
 20
9.5987004769
 30
0.0
  0
SPLINE
  5
34F
100
AcDbEntity
  8
0
100
AcDbSpline
 62
7
  6
CONTINUOUS
 70
0
 71
3
 72
21
 73
17
 74
0
 42
0.0000001
 43
0.0000001
 44
0.0000000001
 40
0.0
 40
0.0
 40
0.0
 40
0.0
 40
0.06165322
 40
0.1233294719
 40
0.1850515326
 40
0.2468416528
 40
0.308721334
 40
0.3707110997
 40
0.4328302469
 40
0.4950966389
 40
0.5575265783
 40
0.620134583
 40
0.6829331586
 40
0.745933179
 40
0.8725262751
 40
1.0
 40
1.0
 40
1.0
 40
1.0
 10
9.3233997121
 20
9.5763399582
 30
0.0
 10
9.3214695259
 20
9.5744755528
 30
0.0
 10
9.317507277
 20
9.5708491603
 30
0.0
 10
9.3112789795
 20
9.5657357702
 30
0.0
 10
9.3047802132
 20
9.5609603839
 30
0.0
 10
9.2980275838
 20
9.5565352377
 30
0.0
 10
9.2910380696
 20
9.5524713851
 30
0.0
 10
9.2838292919
 20
9.5487790795
 30
0.0
 10
9.2764193973
 20
9.5454676375
 30
0.0
 10
9.2688270812
 20
9.5425453467
 30
0.0
 10
9.2610714535
 20
9.5400195441
 30
0.0
 10
9.2531721009
 20
9.5378966165
 30
0.0
 10
9.2451486983
 20
9.5361818494
 30
0.0
 10
9.2342971159
 20
9.5344428412
 30
0.0
 10
9.2205173369
 20
9.5333130545
 30
0.0
 10
9.2094392258
 20
9.5335292568
 30
0.0
 10
9.2039039617
 20
9.5339131287
 30
0.0
  0
SPLINE
  5
350
100
AcDbEntity
  8
0
100
AcDbSpline
 62
7
  6
CONTINUOUS
 70
0
 71
3
 72
10
 73
6
 74
0
 42
0.0000001
 43
0.0000001
 44
0.0000000001
 40
0.0
 40
0.0
 40
0.0
 40
0.0
 40
0.2667371766
 40
0.5219138543
 40
1.0
 40
1.0
 40
1.0
 40
1.0
 10
9.9355496414
 20
10.2005916078
 30
0.0
 10
9.9344241869
 20
10.1995045021
 30
0.0
 10
9.9322726478
 20
10.1973235747
 30
0.0
 10
9.9283827957
 20
10.1929308168
 30
0.0
 10
9.9258100685
 20
10.189464107
 30
0.0
 10
9.9243060455
 20
10.1870969174
 30
0.0
  0
SPLINE
  5
351
100
AcDbEntity
  8
0
100
AcDbSpline
 62
7
  6
CONTINUOUS
 70
0
 71
3
 72
78
 73
74
 74
0
 42
0.0000001
 43
0.0000001
 44
0.0000000001
 40
0.0
 40
0.0
 40
0.0
 40
0.0
 40
0.0038331136
 40
0.0078149747
 40
0.0119492051
 40
0.0162389104
 40
0.0206867722
 40
0.0252949834
 40
0.0300651393
 40
0.0349983899
 40
0.0400955205
 40
0.0453569321
 40
0.0563722628
 40
0.0680424742
 40
0.080361075
 40
0.0933182388
 40
0.1069012388
 40
0.1210948041
 40
0.1358814302
 40
0.1512416182
 40
0.1671540658
 40
0.1835958193
 40
0.2005424378
 40
0.2179681276
 40
0.2358458555
 40
0.2541474412
 40
0.272843663
 40
0.2919043612
 40
0.3112985249
 40
0.3309943697
 40
0.350959418
 40
0.3711605912
 40
0.3915642881
 40
0.4328420256
 40
0.4745169097
 40
0.5163090858
 40
0.5579376769
 40
0.5991232263
 40
0.6194638595
 40
0.6395908332
 40
0.6594707077
 40
0.6790705909
 40
0.6983582296
 40
0.7173020872
 40
0.7358714208
 40
0.7540363656
 40
0.7717680362
 40
0.7890386255
 40
0.8058214936
 40
0.8220912739
 40
0.8378240003
 40
0.8529972571
 40
0.8675903151
 40
0.8815843036
 40
0.8949624214
 40
0.9077102121
 40
0.9198158646
 40
0.9312705902
 40
0.9367523187
 40
0.9420696899
 40
0.9472226784
 40
0.9522116136
 40
0.9570371533
 40
0.9617003101
 40
0.966202566
 40
0.9705458219
 40
0.9747325254
 40
0.978765716
 40
0.9826490461
 40
0.9863869453
 40
0.9899846219
 40
0.993448188
 40
1.0
 40
1.0
 40
1.0
 40
1.0
 10
9.9355496414
 20
10.2005916078
 30
0.0
 10
9.93655749
 20
10.2015651149
 30
0.0
 10
9.9386553794
 20
10.2035057106
 30
0.0
 10
9.941976673
 20
10.2063444524
 30
0.0
 10
9.9455297857
 20
10.2091642032
 30
0.0
 10
9.9493129775
 20
10.2119635581
 30
0.0
 10
9.9533245607
 20
10.2147413779
 30
0.0
 10
9.9575628154
 20
10.2174964368
 30
0.0
 10
9.9620258576
 20
10.2202275784
 30
0.0
 10
9.9667116993
 20
10.2229335749
 30
0.0
 10
9.9716182675
 20
10.2256132127
 30
0.0
 10
9.9785581895
 20
10.2292043636
 30
0.0
 10
9.9877795246
 20
10.2336090676
 30
0.0
 10
9.9995251415
 20
10.2386930373
 30
0.0
 10
10.0120934293
 20
10.2436440493
 30
0.0
 10
10.0254619174
 20
10.2484531937
 30
0.0
 10
10.0396068814
 20
10.2531118088
 30
0.0
 10
10.0545030516
 20
10.2576114852
 30
0.0
 10
10.0701237838
 20
10.2619440818
 30
0.0
 10
10.0864410919
 20
10.2661017502
 30
0.0
 10
10.1034257061
 20
10.2700769505
 30
0.0
 10
10.1210471229
 20
10.2738624867
 30
0.0
 10
10.139273673
 20
10.277451502
 30
0.0
 10
10.1580725883
 20
10.2808374933
 30
0.0
 10
10.1774100593
 20
10.2840143203
 30
0.0
 10
10.1972512917
 20
10.2869762311
 30
0.0
 10
10.2175605734
 20
10.2897178677
 30
0.0
 10
10.2383013464
 20
10.2922342668
 30
0.0
 10
10.2594362727
 20
10.2945208687
 30
0.0
 10
10.2809273005
 20
10.296573533
 30
0.0
 10
10.302735719
 20
10.2983885463
 30
0.0
 10
10.3248222858
 20
10.2999626483
 30
0.0
 10
10.3547030056
 20
10.3017431334
 30
0.0
 10
10.392455782
 20
10.3033425142
 30
0.0
 10
10.4380520698
 20
10.3042606384
 30
0.0
 10
10.4837859253
 20
10.3041780294
 30
0.0
 10
10.5293279747
 20
10.3030953158
 30
0.0
 10
10.5670009842
 20
10.3013592592
 30
0.0
 10
10.5967909969
 20
10.2994702131
 30
0.0
 10
10.6187901932
 20
10.297816301
 30
0.0
 10
10.6404982254
 20
10.2959225118
 30
0.0
 10
10.6618760316
 20
10.2937922424
 30
0.0
 10
10.6828851094
 20
10.2914293583
 30
0.0
 10
10.703487637
 20
10.2888381381
 30
0.0
 10
10.7236465237
 20
10.2860232728
 30
0.0
 10
10.743325481
 20
10.2829898528
 30
0.0
 10
10.7624890944
 20
10.2797433707
 30
0.0
 10
10.7811028909
 20
10.2762897131
 30
0.0
 10
10.7991333957
 20
10.2726351368
 30
0.0
 10
10.8165481923
 20
10.2687862606
 30
0.0
 10
10.8333159898
 20
10.2647500521
 30
0.0
 10
10.8494066907
 20
10.2605338325
 30
0.0
 10
10.8647914414
 20
10.2561452411
 30
0.0
 10
10.8794426904
 20
10.2515922232
 30
0.0
 10
10.8933342253
 20
10.246883006
 30
0.0
 10
10.9064413301
 20
10.2420260912
 30
0.0
 10
10.9187405374
 20
10.2370302387
 30
0.0
 10
10.9284357866
 20
10.2326975365
 30
0.0
 10
10.9357626361
 20
10.2291611873
 30
0.0
 10
10.9409615617
 20
10.2265187426
 30
0.0
 10
10.9459427164
 20
10.2238483469
 30
0.0
 10
10.950703896
 20
10.2211511908
 30
0.0
 10
10.9552429833
 20
10.2184284872
 30
0.0
 10
10.9595579389
 20
10.2156813988
 30
0.0
 10
10.9636468735
 20
10.212911187
 30
0.0
 10
10.9675079533
 20
10.210119026
 30
0.0
 10
10.9711394683
 20
10.207306131
 30
0.0
 10
10.9745398255
 20
10.2044737509
 30
0.0
 10
10.9777074922
 20
10.2016230134
 30
0.0
 10
10.9806410213
 20
10.1987552536
 30
0.0
 10
10.9833393183
 20
10.1958713423
 30
0.0
 10
10.9865612458
 20
10.19207744
 30
0.0
 10
10.9887173852
 20
10.1891060802
 30
0.0
 10
10.9900012745
 20
10.1870841754
 30
0.0
  0
SPLINE
  5
352
100
AcDbEntity
  8
0
100
AcDbSpline
 62
7
  6
CONTINUOUS
 70
0
 71
3
 72
21
 73
17
 74
0
 42
0.0000001
 43
0.0000001
 44
0.0000000001
 40
0.0
 40
0.0
 40
0.0
 40
0.0
 40
0.06165322
 40
0.1233294719
 40
0.1850515326
 40
0.2468416528
 40
0.308721334
 40
0.3707110997
 40
0.4328302469
 40
0.4950966389
 40
0.5575265783
 40
0.620134583
 40
0.6829331586
 40
0.745933179
 40
0.8725262751
 40
1.0
 40
1.0
 40
1.0
 40
1.0
 10
12.4626588336
 20
7.1852983608
 30
0.0
 10
12.4607286473
 20
7.1834339554
 30
0.0
 10
12.4567663984
 20
7.1798075629
 30
0.0
 10
12.4505381009
 20
7.1746941727
 30
0.0
 10
12.4440393346
 20
7.1699187864
 30
0.0
 10
12.4372867053
 20
7.1654936403
 30
0.0
 10
12.4302971911
 20
7.1614297877
 30
0.0
 10
12.4230884134
 20
7.157737482
 30
0.0
 10
12.4156785188
 20
7.1544260401
 30
0.0
 10
12.4080862026
 20
7.1515037492
 30
0.0
 10
12.400330575
 20
7.1489779467
 30
0.0
 10
12.3924312223
 20
7.146855019
 30
0.0
 10
12.3844078197
 20
7.145140252
 30
0.0
 10
12.3735562373
 20
7.1434012438
 30
0.0
 10
12.3597764583
 20
7.1422714571
 30
0.0
 10
12.3486983472
 20
7.1424876594
 30
0.0
 10
12.3431630832
 20
7.1428715313
 30
0.0
  0
SPLINE
  5
353
100
AcDbEntity
  8
0
100
AcDbSpline
 62
7
  6
CONTINUOUS
 70
0
 71
3
 72
82
 73
78
 74
0
 42
0.0000001
 43
0.0000001
 44
0.0000000001
 40
0.0
 40
0.0
 40
0.0
 40
0.0
 40
0.0038964297
 40
0.0079480606
 40
0.012158743
 40
0.0165317718
 40
0.0210699698
 40
0.0257756129
 40
0.0306503235
 40
0.0356952693
 40
0.0409112039
 40
0.0462984858
 40
0.0518571803
 40
0.0575869814
 40
0.0695569228
 40
0.0822012747
 40
0.095508873
 40
0.1094654708
 40
0.1240541154
 40
0.1392554588
 40
0.1550480254
 40
0.1714084247
 40
0.1883115291
 40
0.2057306189
 40
0.2236375304
 40
0.2420027892
 40
0.2607957257
 40
0.2799845794
 40
0.2995365937
 40
0.3194181239
 40
0.3395947342
 40
0.3600312884
 40
0.3806920361
 40
0.4015406996
 40
0.4436538948
 40
0.4860742486
 40
0.5285015934
 40
0.5706357039
 40
0.5914999864
 40
0.6121797505
 40
0.6326386792
 40
0.6528409678
 40
0.6727514123
 40
0.6923355081
 40
0.7115595388
 40
0.7303906667
 40
0.7487970279
 40
0.766747838
 40
0.7842135107
 40
0.8011657644
 40
0.8175777431
 40
0.8334241532
 40
0.8486814274
 40
0.8633279122
 40
0.8773440627
 40
0.8907126903
 40
0.9034192667
 40
0.9154523171
 40
0.9268039021
 40
0.9322230984
 40
0.9374708882
 40
0.9425475929
 40
0.9474539016
 40
0.9521908889
 40
0.956760142
 40
0.9611637111
 40
0.9654042531
 40
0.9694850709
 40
0.9734101586
 40
0.9771843701
 40
0.9808134215
 40
0.9843040581
 40
0.9876641434
 40
0.9909027229
 40
0.994030181
 40
0.9970582349
 40
1.0
 40
1.0
 40
1.0
 40
1.0
 10
9.9481066778
 20
10.1997207743
 30
0.0
 10
9.9491165828
 20
10.2006962677
 30
0.0
 10
9.9512209668
 20
10.2026406222
 30
0.0
 10
9.9545567343
 20
10.2054829571
 30
0.0
 10
9.9581306657
 20
10.2083056864
 30
0.0
 10
9.9619409194
 20
10.2111073484
 30
0.0
 10
9.9659857182
 20
10.2138867413
 30
0.0
 10
9.9702632323
 20
10.2166425729
 30
0.0
 10
9.9747714528
 20
10.2193736296
 30
0.0
 10
9.9795082756
 20
10.2220786035
 30
0.0
 10
9.9844714767
 20
10.2247562147
 30
0.0
 10
9.9896587088
 20
10.2274052416
 30
0.0
 10
9.9950675632
 20
10.2300244158
 30
0.0
 10
10.0026827263
 20
10.2335263178
 30
0.0
 10
10.0127458782
 20
10.2378106744
 30
0.0
 10
10.0254930043
 20
10.2427414312
 30
0.0
 10
10.0390576545
 20
10.2475245379
 30
0.0
 10
10.0534142368
 20
10.2521508946
 30
0.0
 10
10.0685358114
 20
10.2566116969
 30
0.0
 10
10.0843938662
 20
10.2608984442
 30
0.0
 10
10.1009584735
 20
10.2650029573
 30
0.0
 10
10.1181983343
 20
10.2689174009
 30
0.0
 10
10.1360808451
 20
10.2726342972
 30
0.0
 10
10.1545721583
 20
10.2761465539
 30
0.0
 10
10.1736372532
 20
10.2794474715
 30
0.0
 10
10.1932400116
 20
10.2825307516
 30
0.0
 10
10.2133432889
 20
10.2853905101
 30
0.0
 10
10.2339089815
 20
10.2880212874
 30
0.0
 10
10.2548980984
 20
10.2904180711
 30
0.0
 10
10.2762708388
 20
10.2925762935
 30
0.0
 10
10.2979866756
 20
10.2944918418
 30
0.0
 10
10.3200044173
 20
10.2961610561
 30
0.0
 10
10.3422823392
 20
10.2975807746
 30
0.0
 10
10.3723762741
 20
10.2991425261
 30
0.0
 10
10.4103324704
 20
10.3004492919
 30
0.0
 10
10.4560841415
 20
10.3009876627
 30
0.0
 10
10.5018438862
 20
10.3004971127
 30
0.0
 10
10.5398171187
 20
10.2992301394
 30
0.0
 10
10.5699327229
 20
10.2977000592
 30
0.0
 10
10.5922327033
 20
10.2963036937
 30
0.0
 10
10.6142764175
 20
10.2946575669
 30
0.0
 10
10.6360220894
 20
10.2927647919
 30
0.0
 10
10.6574284669
 20
10.2906289771
 30
0.0
 10
10.6784549586
 20
10.2882541958
 30
0.0
 10
10.6990616975
 20
10.2856449791
 30
0.0
 10
10.7192096167
 20
10.2828063026
 30
0.0
 10
10.7388605225
 20
10.2797435787
 30
0.0
 10
10.7579771727
 20
10.2764626451
 30
0.0
 10
10.7765233529
 20
10.2729697675
 30
0.0
 10
10.7944639446
 20
10.2692716139
 30
0.0
 10
10.8117649895
 20
10.2653752431
 30
0.0
 10
10.8283937576
 20
10.2612880895
 30
0.0
 10
10.8443188217
 20
10.2570179512
 30
0.0
 10
10.8595101244
 20
10.2525729826
 30
0.0
 10
10.8739390458
 20
10.2479616593
 30
0.0
 10
10.8875784341
 20
10.2431927649
 30
0.0
 10
10.9004027725
 20
10.2382753438
 30
0.0
 10
10.9123879091
 20
10.2332187272
 30
0.0
 10
10.921798081
 20
10.2288315261
 30
0.0
 10
10.9288795496
 20
10.2252513002
 30
0.0
 10
10.9338846114
 20
10.2225788842
 30
0.0
 10
10.9386637173
 20
10.2198789116
 30
0.0
 10
10.9432146429
 20
10.2171526321
 30
0.0
 10
10.9475352338
 20
10.2144012779
 30
0.0
 10
10.9516234987
 20
10.2116261757
 30
0.0
 10
10.9554775075
 20
10.2088285592
 30
0.0
 10
10.959095467
 20
10.2060097172
 30
0.0
 10
10.9624757066
 20
10.2031709463
 30
0.0
 10
10.9656166049
 20
10.2003134626
 30
0.0
 10
10.9685167271
 20
10.1974385836
 30
0.0
 10
10.9711746608
 20
10.1945475201
 30
0.0
 10
10.9735891138
 20
10.1916415216
 30
0.0
 10
10.9757589138
 20
10.188721848
 30
0.0
 10
10.9776828497
 20
10.1857897057
 30
0.0
 10
10.9793599367
 20
10.1828463325
 30
0.0
 10
10.9807890384
 20
10.1798932238
 30
0.0
 10
10.9815862329
 20
10.177892645
 30
0.0
 10
10.9819407611
 20
10.1768936047
 30
0.0
  0
SPLINE
  5
354
100
AcDbEntity
  8
0
100
AcDbSpline
 62
7
  6
CONTINUOUS
 70
0
 71
3
 72
77
 73
73
 74
0
 42
0.0000001
 43
0.0000001
 44
0.0000000001
 40
0.0
 40
0.0
 40
0.0
 40
0.0
 40
0.0038557029
 40
0.0078624606
 40
0.0120239763
 40
0.0163434232
 40
0.0208235337
 40
0.0254665308
 40
0.0302740199
 40
0.0352471576
 40
0.0403867187
 40
0.0456930891
 40
0.0568058066
 40
0.068583121
 40
0.0810181513
 40
0.094100599
 40
0.107817203
 40
0.122152096
 40
0.1370871212
 40
0.1526020796
 40
0.1686749317
 40
0.1852819555
 40
0.2023978997
 40
0.2199961303
 40
0.2380487491
 40
0.2565266977
 40
0.2753998502
 40
0.2946371236
 40
0.3142065719
 40
0.3340754717
 40
0.3542104014
 40
0.395140999
 40
0.4367210554
 40
0.4786666955
 40
0.5206908078
 40
0.5625055833
 40
0.6038250715
 40
0.6242112068
 40
0.6443684344
 40
0.6642626776
 40
0.6838604579
 40
0.7031289772
 40
0.7220362124
 40
0.7405510068
 40
0.758643152
 40
0.7762834822
 40
0.793443979
 40
0.8100978956
 40
0.8262198628
 40
0.8417860155
 40
0.8567741404
 40
0.8711638617
 40
0.8849368422
 40
0.8980770074
 40
0.9105708358
 40
0.9224077287
 40
0.9335804872
 40
0.9389169493
 40
0.9440865313
 40
0.9490896007
 40
0.9539268582
 40
0.9585993871
 40
0.9631087526
 40
0.9674569583
 40
0.9716465918
 40
0.9756808461
 40
0.9795635718
 40
0.9832994322
 40
0.9868939024
 40
0.9903534263
 40
0.9936855015
 40
1.0
 40
1.0
 40
1.0
 40
1.0
 10
9.9582488996
 20
10.1814505655
 30
0.0
 10
9.9592222176
 20
10.1823907185
 30
0.0
 10
9.9612490014
 20
10.1842647562
 30
0.0
 10
9.9644591865
 20
10.1870054714
 30
0.0
 10
9.9678952968
 20
10.1897276458
 30
0.0
 10
9.9715556181
 20
10.1924299038
 30
0.0
 10
9.9754384908
 20
10.1951111249
 30
0.0
 10
9.9795422175
 20
10.1977701024
 30
0.0
 10
9.9838649368
 20
10.2004057019
 30
0.0
 10
9.9884046897
 20
10.2030167079
 30
0.0
 10
9.993159426
 20
10.2056019357
 30
0.0
 10
9.9998866931
 20
10.2090664026
 30
0.0
 10
10.00882777
 20
10.2133145224
 30
0.0
 10
10.020218591
 20
10.2182155271
 30
0.0
 10
10.0324098524
 20
10.2229863627
 30
0.0
 10
10.0453793425
 20
10.2276182809
 30
0.0
 10
10.0591036064
 20
10.2321027741
 30
0.0
 10
10.0735576585
 20
10.2364315902
 30
0.0
 10
10.0887151491
 20
10.2405967474
 30
0.0
 10
10.1045484
 20
10.2445905572
 30
0.0
 10
10.1210284679
 20
10.2484056391
 30
0.0
 10
10.1381251927
 20
10.252034948
 30
0.0
 10
10.1558072604
 20
10.2554717873
 30
0.0
 10
10.1740422711
 20
10.258709811
 30
0.0
 10
10.1927968029
 20
10.2617430388
 30
0.0
 10
10.2120364691
 20
10.2645658666
 30
0.0
 10
10.2317259796
 20
10.2671730906
 30
0.0
 10
10.2518292151
 20
10.269559904
 30
0.0
 10
10.2723092851
 20
10.2717218964
 30
0.0
 10
10.2931286441
 20
10.2736551007
 30
0.0
 10
10.3214430344
 20
10.2759351689
 30
0.0
 10
10.3574019712
 20
10.2781811387
 30
0.0
 10
10.4010518418
 20
10.2799047891
 30
0.0
 10
10.4451131164
 20
10.2806583672
 30
0.0
 10
10.4892626332
 20
10.280436326
 30
0.0
 10
10.5331765903
 20
10.2792402434
 30
0.0
 10
10.5694674727
 20
10.2774314214
 30
0.0
 10
10.5981341887
 20
10.2754976075
 30
0.0
 10
10.6192798279
 20
10.2738178657
 30
0.0
 10
10.6401278564
 20
10.2719054745
 30
0.0
 10
10.660640047
 20
10.2697639367
 30
0.0
 10
10.6807787502
 20
10.2673972028
 30
0.0
 10
10.7005070187
 20
10.2648096376
 30
0.0
 10
10.7197886642
 20
10.2620060208
 30
0.0
 10
10.7385883238
 20
10.2589915264
 30
0.0
 10
10.7568715217
 20
10.2557717163
 30
0.0
 10
10.7746047404
 20
10.2523525288
 30
0.0
 10
10.7917554886
 20
10.2487402834
 30
0.0
 10
10.8082923598
 20
10.2449416526
 30
0.0
 10
10.8241850873
 20
10.2409636516
 30
0.0
 10
10.8394046061
 20
10.2368136199
 30
0.0
 10
10.8539231189
 20
10.2324992185
 30
0.0
 10
10.8677141635
 20
10.2280284103
 30
0.0
 10
10.8807526348
 20
10.2234094323
 30
0.0
 10
10.8930149335
 20
10.2186507597
 30
0.0
 10
10.9044787082
 20
10.2137611211
 30
0.0
 10
10.9134822363
 20
10.2095222614
 30
0.0
 10
10.9202605077
 20
10.2060648739
 30
0.0
 10
10.9250537358
 20
10.2034843958
 30
0.0
 10
10.9296323722
 20
10.20087796
 30
0.0
 10
10.9339943483
 20
10.1982467176
 30
0.0
 10
10.938137669
 20
10.1955918297
 30
0.0
 10
10.9420604864
 20
10.1929145336
 30
0.0
 10
10.9457610034
 20
10.1902159757
 30
0.0
 10
10.949237558
 20
10.1874973688
 30
0.0
 10
10.9524885941
 20
10.1847599157
 30
0.0
 10
10.9555125971
 20
10.1820047634
 30
0.0
 10
10.9583082492
 20
10.1792331153
 30
0.0
 10
10.960874168
 20
10.1764462063
 30
0.0
 10
10.9632093755
 20
10.1736448437
 30
0.0
 10
10.9659637258
 20
10.1699594048
 30
0.0
 10
10.9677608721
 20
10.1670769531
 30
0.0
 10
10.9688033487
 20
10.1651212562
 30
0.0
  0
SPLINE
  5
355
100
AcDbEntity
  8
0
100
AcDbSpline
 62
7
  6
CONTINUOUS
 70
0
 71
3
 72
39
 73
35
 74
0
 42
0.0000001
 43
0.0000001
 44
0.0000000001
 40
0.0
 40
0.0
 40
0.0
 40
0.0
 40
0.025566145
 40
0.0521821005
 40
0.0797948893
 40
0.1083477924
 40
0.1377807214
 40
0.168030553
 40
0.1990314368
 40
0.2307150814
 40
0.2630110238
 40
0.2958468889
 40
0.3291486401
 40
0.3628408242
 40
0.3968468126
 40
0.4310890383
 40
0.465489232
 40
0.4999686571
 40
0.5344483431
 40
0.5688493196
 40
0.6030928485
 40
0.6371006576
 40
0.6707951749
 40
0.7040997641
 40
0.7369389625
 40
0.7692387216
 40
0.8009266535
 40
0.8319322824
 40
0.8621873028
 40
0.8916258489
 40
0.9201847808
 40
0.9478039893
 40
0.9744267309
 40
1.0
 40
1.0
 40
1.0
 40
1.0
 10
10.0891528047
 20
10.1075360407
 30
0.0
 10
10.0952687162
 20
10.1091432941
 30
0.0
 10
10.1077927862
 20
10.1122689533
 30
0.0
 10
10.1270453887
 20
10.1166194994
 30
0.0
 10
10.1471076371
 20
10.1207187198
 30
0.0
 10
10.1679302791
 20
10.1245564364
 30
0.0
 10
10.189462367
 20
10.128123169
 30
0.0
 10
10.2116511298
 20
10.1314100971
 30
0.0
 10
10.2344421821
 20
10.1344090978
 30
0.0
 10
10.2577796413
 20
10.1371127613
 30
0.0
 10
10.2816062737
 20
10.1395144091
 30
0.0
 10
10.3058636357
 20
10.1416081104
 30
0.0
 10
10.3304922194
 20
10.1433886958
 30
0.0
 10
10.3554316001
 20
10.1448517694
 30
0.0
 10
10.380620586
 20
10.1459937199
 30
0.0
 10
10.4059973688
 20
10.1468117283
 30
0.0
 10
10.4314996767
 20
10.1473037762
 30
0.0
 10
10.4570649285
 20
10.14746865
 30
0.0
 10
10.4826303878
 20
10.1473059433
 30
0.0
 10
10.5081333179
 20
10.1468160577
 30
0.0
 10
10.5335111367
 20
10.1460002023
 30
0.0
 10
10.5587015704
 20
10.1448603901
 30
0.0
 10
10.5836428075
 20
10.1433994341
 30
0.0
 10
10.6082736511
 20
10.1416209399
 30
0.0
 10
10.6325336701
 20
10.1395292973
 30
0.0
 10
10.6563633491
 20
10.13712967
 30
0.0
 10
10.6797042363
 20
10.1344279842
 30
0.0
 10
10.7024990898
 20
10.131430914
 30
0.0
 10
10.7246920187
 20
10.1281458651
 30
0.0
 10
10.7462286286
 20
10.1245809563
 30
0.0
 10
10.7670561383
 20
10.1207450036
 30
0.0
 10
10.7871235891
 20
10.1166474849
 30
0.0
 10
10.8063817131
 20
10.1122985661
 30
0.0
 10
10.8189096045
 20
10.1091740151
 30
0.0
 10
10.8250274779
 20
10.1075672945
 30
0.0
  0
SPLINE
  5
356
100
AcDbEntity
  8
0
100
AcDbSpline
 62
7
  6
CONTINUOUS
 70
0
 71
3
 72
23
 73
19
 74
0
 42
0.0000001
 43
0.0000001
 44
0.0000000001
 40
0.0
 40
0.0
 40
0.0
 40
0.0
 40
0.0598250396
 40
0.1207117892
 40
0.1825149106
 40
0.2450861081
 40
0.3082746322
 40
0.3719277767
 40
0.4358913712
 40
0.5000102705
 40
0.5641288426
 40
0.6280914575
 40
0.6917429742
 40
0.7549292282
 40
0.8174975205
 40
0.8792971104
 40
0.9401797123
 40
1.0
 40
1.0
 40
1.0
 40
1.0
 10
10.2712601119
 20
10.0786729794
 30
0.0
 10
10.2786441221
 20
10.0794990792
 30
0.0
 10
10.2935564239
 20
10.0810496532
 30
0.0
 10
10.3161357809
 20
10.0830583302
 30
0.0
 10
10.3390818756
 20
10.0847668562
 30
0.0
 10
10.3623349771
 20
10.0861707568
 30
0.0
 10
10.3858346441
 20
10.0872663594
 30
0.0
 10
10.4095197647
 20
10.0880507971
 30
0.0
 10
10.4333287488
 20
10.0885220175
 30
0.0
 10
10.4571996804
 20
10.0886787871
 30
0.0
 10
10.4810704816
 20
10.0885206963
 30
0.0
 10
10.5048790751
 20
10.0880481592
 30
0.0
 10
10.5285635463
 20
10.0872624124
 30
0.0
 10
10.5520623069
 20
10.0861655115
 30
0.0
 10
10.5753142476
 20
10.0847603265
 30
0.0
 10
10.5982589298
 20
10.0830505327
 30
0.0
 10
10.6208366261
 20
10.0810406093
 30
0.0
 10
10.6357477299
 20
10.0794891999
 30
0.0
 10
10.6431311001
 20
10.0786626881
 30
0.0
  0
SPLINE
  5
357
100
AcDbEntity
  8
0
100
AcDbSpline
 62
7
  6
CONTINUOUS
 70
0
 71
3
 72
53
 73
49
 74
0
 42
0.0000001
 43
0.0000001
 44
0.0000000001
 40
0.0
 40
0.0
 40
0.0
 40
0.0
 40
0.0417740371
 40
0.0840369047
 40
0.1266584536
 40
0.1695064221
 40
0.212448016
 40
0.2553499502
 40
0.2980791306
 40
0.3405031348
 40
0.382490749
 40
0.4239124945
 40
0.4646411616
 40
0.5045523515
 40
0.5435250275
 40
0.5814420819
 40
0.6181909261
 40
0.6536641145
 40
0.6877600167
 40
0.72038356
 40
0.7361158328
 40
0.7514478069
 40
0.7663698229
 40
0.7808728747
 40
0.7949485304
 40
0.808589127
 40
0.8217876764
 40
0.8345380756
 40
0.8468350633
 40
0.8586743964
 40
0.8700529164
 40
0.8809686715
 40
0.8914211252
 40
0.901411244
 40
0.9109418555
 40
0.9200177659
 40
0.9286462506
 40
0.9368373022
 40
0.9446042293
 40
0.951964127
 40
0.9589385596
 40
0.9655542544
 40
0.9718437693
 40
0.9778461758
 40
0.9836073577
 40
0.9891800489
 40
0.9946230796
 40
1.0
 40
1.0
 40
1.0
 40
1.0
 10
13.0845548776
 20
9.3405106035
 30
0.0
 10
13.0845548776
 20
9.3295036374
 30
0.0
 10
13.0843831583
 20
9.307360558
 30
0.0
 10
13.0836240122
 20
9.2739950258
 30
0.0
 10
13.0823640221
 20
9.2403614302
 30
0.0
 10
13.0806073118
 20
9.2065710802
 30
0.0
 10
13.0783596906
 20
9.1727357907
 30
0.0
 10
13.0756285862
 20
9.138967491
 30
0.0
 10
13.0724230462
 20
9.1053779024
 30
0.0
 10
13.0687536966
 20
9.0720781467
 30
0.0
 10
13.0646327114
 20
9.0391783816
 30
0.0
 10
13.0600737712
 20
9.0067874321
 30
0.0
 10
13.0550920189
 20
8.9750124269
 30
0.0
 10
13.0497040121
 20
8.9439584394
 30
0.0
 10
13.0439276674
 20
8.9137281357
 30
0.0
 10
13.0377822039
 20
8.8844214228
 30
0.0
 10
13.0312880776
 20
8.8561351306
 30
0.0
 10
13.0244669245
 20
8.828962603
 30
0.0
 10
13.0173414543
 20
8.802993644
 30
0.0
 10
13.011096666
 20
8.7821828476
 30
0.0
 10
13.0059562981
 20
8.7662080952
 30
0.0
 10
13.0020865286
 20
8.7547253842
 30
0.0
 10
12.9981588033
 20
8.7436052723
 30
0.0
 10
12.9941763898
 20
8.7328569216
 30
0.0
 10
12.9901425505
 20
8.7224892094
 30
0.0
 10
12.9860606743
 20
8.7125106729
 30
0.0
 10
12.9819340955
 20
8.7029295406
 30
0.0
 10
12.977766268
 20
8.6937536871
 30
0.0
 10
12.973560608
 20
8.6849906594
 30
0.0
 10
12.9693205996
 20
8.6766476434
 30
0.0
 10
12.9650497359
 20
8.668731469
 30
0.0
 10
12.9607515014
 20
8.66124861
 30
0.0
 10
12.9564294436
 20
8.6542051464
 30
0.0
 10
12.952087021
 20
8.6476068174
 30
0.0
 10
12.9477277889
 20
8.6414589294
 30
0.0
 10
12.9433551516
 20
8.635766468
 30
0.0
 10
12.9389725954
 20
8.6305339674
 30
0.0
 10
12.9345834301
 20
8.6257656573
 30
0.0
 10
12.9301909731
 20
8.621465353
 30
0.0
 10
12.9257983817
 20
8.6176365868
 30
0.0
 10
12.921408724
 20
8.6142826102
 30
0.0
 10
12.9170249879
 20
8.6114064441
 30
0.0
 10
12.9126500767
 20
8.6090110727
 30
0.0
 10
12.9082870305
 20
8.6070993139
 30
0.0
 10
12.9039391552
 20
8.6056741313
 30
0.0
 10
12.899610086
 20
8.6047381623
 30
0.0
 10
12.895305041
 20
8.604293792
 30
0.0
 10
12.8924468559
 20
8.6043263788
 30
0.0
 10
12.891033495
 20
8.6044243894
 30
0.0
  0
SPLINE
  5
358
100
AcDbEntity
  8
0
100
AcDbSpline
 62
7
  6
CONTINUOUS
 70
0
 71
3
 72
14
 73
10
 74
0
 42
0.0000001
 43
0.0000001
 44
0.0000000001
 40
0.0
 40
0.0
 40
0.0
 40
0.0
 40
0.1414608153
 40
0.2776332769
 40
0.5350080301
 40
0.656915203
 40
0.7747595705
 40
0.8889644529
 40
1.0
 40
1.0
 40
1.0
 40
1.0
 10
9.9481066778
 20
10.1997207743
 30
0.0
 10
9.9471599152
 20
10.1988062718
 30
0.0
 10
9.9453387043
 20
10.1969724148
 30
0.0
 10
9.9419952558
 20
10.1932826187
 30
0.0
 10
9.9390339706
 20
10.18949562
 30
0.0
 10
9.9365118817
 20
10.1856150453
 30
0.0
 10
9.9348889356
 20
10.1827463841
 30
0.0
 10
9.9335015099
 20
10.1798686578
 30
0.0
 10
9.9327241964
 20
10.1779199391
 30
0.0
 10
9.9323773458
 20
10.1769466988
 30
0.0
  0
SPLINE
  5
359
100
AcDbEntity
  8
0
100
AcDbSpline
 62
7
  6
CONTINUOUS
 70
0
 71
3
 72
10
 73
6
 74
0
 42
0.0000001
 43
0.0000001
 44
0.0000000001
 40
0.0
 40
0.0
 40
0.0
 40
0.0
 40
0.2709977968
 40
0.5272764979
 40
1.0
 40
1.0
 40
1.0
 40
1.0
 10
9.9582488996
 20
10.1814505655
 30
0.0
 10
9.9568972452
 20
10.1801449675
 30
0.0
 10
9.9543427544
 20
10.1775235665
 30
0.0
 10
9.9498584724
 20
10.1722313718
 30
0.0
 10
9.947030021
 20
10.1680014621
 30
0.0
 10
9.9454889268
 20
10.1651081801
 30
0.0
  0
SPLINE
  5
35A
100
AcDbEntity
  8
0
100
AcDbSpline
 62
7
  6
CONTINUOUS
 70
0
 71
3
 72
37
 73
33
 74
0
 42
0.0000001
 43
0.0000001
 44
0.0000000001
 40
0.0
 40
0.0
 40
0.0
 40
0.0
 40
0.0918186044
 40
0.1813681253
 40
0.2251491846
 40
0.2681925807
 40
0.3104441479
 40
0.3518510017
 40
0.3923618974
 40
0.4319272666
 40
0.4704993368
 40
0.5080323757
 40
0.5444827848
 40
0.5798092382
 40
0.6139729634
 40
0.6469379543
 40
0.6786711489
 40
0.7091427758
 40
0.7383267769
 40
0.7662011296
 40
0.7927483706
 40
0.8179563554
 40
0.8418189887
 40
0.8643372079
 40
0.885520394
 40
0.9053880542
 40
0.9239718912
 40
0.9413185959
 40
0.9574933252
 40
0.9725836539
 40
0.9867040319
 40
1.0
 40
1.0
 40
1.0
 40
1.0
 10
13.0536452486
 20
9.3426541935
 30
0.0
 10
13.0536452486
 20
9.3567023563
 30
0.0
 10
13.0533707824
 20
9.3844523456
 30
0.0
 10
13.052311268
 20
9.4188864771
 30
0.0
 10
13.0510312875
 20
9.4458416619
 30
0.0
 10
13.0498692178
 20
9.4655564146
 30
0.0
 10
13.0484995812
 20
9.4848936995
 30
0.0
 10
13.0469242738
 20
9.5038265683
 30
0.0
 10
13.0451455332
 20
9.5223286021
 30
0.0
 10
13.0431658613
 20
9.5403739959
 30
0.0
 10
13.0409880312
 20
9.5579375837
 30
0.0
 10
13.0386151202
 20
9.574994883
 30
0.0
 10
13.0360504738
 20
9.5915221257
 30
0.0
 10
13.0332976887
 20
9.6074962865
 30
0.0
 10
13.0303606417
 20
9.6228951288
 30
0.0
 10
13.0272434777
 20
9.6376972372
 30
0.0
 10
13.0239505741
 20
9.6518820397
 30
0.0
 10
13.0204865483
 20
9.6654298478
 30
0.0
 10
13.0168562793
 20
9.6783218999
 30
0.0
 10
13.0130648528
 20
9.690540379
 30
0.0
 10
13.0091175422
 20
9.7020684429
 30
0.0
 10
13.0050198417
 20
9.7128902801
 30
0.0
 10
13.0007774023
 20
9.7229911306
 30
0.0
 10
12.9963959734
 20
9.7323573008
 30
0.0
 10
12.991881394
 20
9.7409762131
 30
0.0
 10
12.9872395171
 20
9.7488364277
 30
0.0
 10
12.9824760826
 20
9.755927589
 30
0.0
 10
12.9775965462
 20
9.7622403878
 30
0.0
 10
12.9726061993
 20
9.7677663485
 30
0.0
 10
12.9675093387
 20
9.7724977667
 30
0.0
 10
12.9623116701
 20
9.7764261466
 30
0.0
 10
12.9586860571
 20
9.7785603973
 30
0.0
 10
12.9568687183
 20
9.7794744751
 30
0.0
  0
SPLINE
  5
35B
100
AcDbEntity
  8
0
100
AcDbSpline
 62
7
  6
CONTINUOUS
 70
0
 71
3
 72
51
 73
47
 74
0
 42
0.0000001
 43
0.0000001
 44
0.0000000001
 40
0.0
 40
0.0
 40
0.0
 40
0.0
 40
0.0401907047
 40
0.0808319997
 40
0.1218123217
 40
0.1630187272
 40
0.2043375848
 40
0.2456548267
 40
0.2868564057
 40
0.3278286748
 40
0.3684587939
 40
0.4086351294
 40
0.4482476593
 40
0.4871883815
 40
0.5253517289
 40
0.5626349925
 40
0.5989387579
 40
0.63416736
 40
0.6682293635
 40
0.70103808
 40
0.7325121372
 40
0.7625761209
 40
0.7770579327
 40
0.7911620425
 40
0.8048810957
 40
0.8182082085
 40
0.831137158
 40
0.843662273
 40
0.8557786521
 40
0.8674820562
 40
0.8787691588
 40
0.8896374505
 40
0.9000855271
 40
0.9101130227
 40
0.9197209445
 40
0.928911656
 40
0.9376892744
 40
0.9460597331
 40
0.9540312616
 40
0.9616145606
 40
0.9688233832
 40
0.9756748448
 40
0.9821900917
 40
0.9883947051
 40
0.9943193369
 40
1.0
 40
1.0
 40
1.0
 40
1.0
 10
13.0536452486
 20
9.3426541935
 30
0.0
 10
13.0536452486
 20
9.3322766218
 30
0.0
 10
13.0534926258
 20
9.3114048407
 30
0.0
 10
13.0528172173
 20
9.279958171
 30
0.0
 10
13.0516958072
 20
9.2482617735
 30
0.0
 10
13.0501316704
 20
9.2164090081
 30
0.0
 10
13.048129401
 20
9.1844936158
 30
0.0
 10
13.0456948861
 20
9.1526095336
 30
0.0
 10
13.0428352965
 20
9.1208506055
 30
0.0
 10
13.0395590614
 20
9.0893103044
 30
0.0
 10
13.0358758454
 20
9.0580814561
 30
0.0
 10
13.0317965197
 20
9.0272559639
 30
0.0
 10
13.0273331307
 20
8.9969245364
 30
0.0
 10
13.022498865
 20
8.9671764175
 30
0.0
 10
13.0173080115
 20
8.9380991211
 30
0.0
 10
13.0117759198
 20
8.909778169
 30
0.0
 10
13.005918956
 20
8.8822968362
 30
0.0
 10
12.9997544555
 20
8.8557358932
 30
0.0
 10
12.9933006714
 20
8.8301733812
 30
0.0
 10
12.9865767256
 20
8.8056842965
 30
0.0
 10
12.9796025329
 20
8.7823406156
 30
0.0
 10
12.9735261166
 20
8.7636733487
 30
0.0
 10
12.9685458022
 20
8.7493713676
 30
0.0
 10
12.9648075284
 20
8.7391070271
 30
0.0
 10
12.9610224168
 20
8.7291782995
 30
0.0
 10
12.9571931856
 20
8.7195924691
 30
0.0
 10
12.9533227124
 20
8.7103565593
 30
0.0
 10
12.9494137929
 20
8.7014773484
 30
0.0
 10
12.9454693596
 20
8.6929613242
 30
0.0
 10
12.9414922527
 20
8.684814729
 30
0.0
 10
12.9374854524
 20
8.6770434937
 30
0.0
 10
12.9334518286
 20
8.669653303
 30
0.0
 10
12.9293943935
 20
8.6626495092
 30
0.0
 10
12.9253160285
 20
8.6560372203
 30
0.0
 10
12.9212197556
 20
8.64982119
 30
0.0
 10
12.9171084433
 20
8.644005935
 30
0.0
 10
12.9129850904
 20
8.6385955963
 30
0.0
 10
12.9088525169
 20
8.6335940953
 30
0.0
 10
12.9047136526
 20
8.629004964
 30
0.0
 10
12.9005712198
 20
8.6248315502
 30
0.0
 10
12.8964280256
 20
8.6210768213
 30
0.0
 10
12.892286639
 20
8.617743628
 30
0.0
 10
12.8881497494
 20
8.614834506
 30
0.0
 10
12.8840196722
 20
8.6123519408
 30
0.0
 10
12.879899527
 20
8.6102983798
 30
0.0
 10
12.8771078906
 20
8.6091960339
 30
0.0
 10
12.8757195533
 20
8.6087227426
 30
0.0
  0
SPLINE
  5
35C
100
AcDbEntity
  8
0
100
AcDbSpline
 62
7
  6
CONTINUOUS
 70
0
 71
3
 72
53
 73
49
 74
0
 42
0.0000001
 43
0.0000001
 44
0.0000000001
 40
0.0
 40
0.0
 40
0.0
 40
0.0
 40
0.0427960071
 40
0.086106533
 40
0.1297875516
 40
0.1736933611
 40
0.2176773605
 40
0.2615925952
 40
0.3052924099
 40
0.3486310609
 40
0.3914643454
 40
0.4336502292
 40
0.475049483
 40
0.5155263284
 40
0.5549490991
 40
0.5931909251
 40
0.6301304508
 40
0.6656526024
 40
0.699649428
 40
0.7320210446
 40
0.7475690828
 40
0.7626776462
 40
0.7773370149
 40
0.7915383058
 40
0.8052733813
 40
0.8185350759
 40
0.8313171305
 40
0.8436144414
 40
0.8554230351
 40
0.8667403522
 40
0.8775652837
 40
0.8878985114
 40
0.8977426359
 40
0.9071026086
 40
0.9159859954
 40
0.924403545
 40
0.9323696431
 40
0.9399030603
 40
0.9470276233
 40
0.9537731148
 40
0.9601760415
 40
0.9662804026
 40
0.9721380451
 40
0.9778085318
 40
0.9833581384
 40
0.9888579572
 40
0.99438118
 40
1.0
 40
1.0
 40
1.0
 40
1.0
 10
13.0057637648
 20
9.296404229
 30
0.0
 10
13.0057637648
 20
9.2885626489
 30
0.0
 10
13.0056367861
 20
9.272784948
 30
0.0
 10
13.0050758249
 20
9.2490094999
 30
0.0
 10
13.004144985
 20
9.2250421128
 30
0.0
 10
13.0028475593
 20
9.2009682222
 30
0.0
 10
13.0011881589
 20
9.1768735537
 30
0.0
 10
12.9991726931
 20
9.1528439278
 30
0.0
 10
12.9968083505
 20
9.1289649273
 30
0.0
 10
12.9941035726
 20
9.1053215954
 30
0.0
 10
12.9910680239
 20
9.0819981297
 30
0.0
 10
12.9877125585
 20
9.0590775796
 30
0.0
 10
12.9840491814
 20
9.0366415474
 30
0.0
 10
12.9800910077
 20
9.0147698931
 30
0.0
 10
12.9758522155
 20
8.9935404462
 30
0.0
 10
12.9713479982
 20
8.9730287165
 30
0.0
 10
12.9665945084
 20
8.953307635
 30
0.0
 10
12.9616088103
 20
8.9344472134
 30
0.0
 10
12.9564087843
 20
8.9165145186
 30
0.0
 10
12.9518533315
 20
8.9022106033
 30
0.0
 10
12.9481072606
 20
8.8912858817
 30
0.0
 10
12.9452936409
 20
8.8834734232
 30
0.0
 10
12.9424406447
 20
8.8759385404
 30
0.0
 10
12.939550829
 20
8.8686879079
 30
0.0
 10
12.9366267412
 20
8.8617279652
 30
0.0
 10
12.9336710219
 20
8.8550648699
 30
0.0
 10
12.9306862666
 20
8.8487045263
 30
0.0
 10
12.927675164
 20
8.8426525429
 30
0.0
 10
12.9246403486
 20
8.8369142654
 30
0.0
 10
12.9215845385
 20
8.8314947276
 30
0.0
 10
12.9185103875
 20
8.8263986935
 30
0.0
 10
12.9154206181
 20
8.8216305996
 30
0.0
 10
12.9123178738
 20
8.8171946086
 30
0.0
 10
12.9092048443
 20
8.8130945445
 30
0.0
 10
12.9060841175
 20
8.8093339629
 30
0.0
 10
12.9029582935
 20
8.8059160819
 30
0.0
 10
12.8998298406
 20
8.8028438805
 30
0.0
 10
12.8967011994
 20
8.8001200368
 30
0.0
 10
12.8935746611
 20
8.79774707
 30
0.0
 10
12.8904524863
 20
8.7957273008
 30
0.0
 10
12.8873368631
 20
8.7940630373
 30
0.0
 10
12.8842301038
 20
8.7927565243
 30
0.0
 10
12.8811347586
 20
8.7918100632
 30
0.0
 10
12.8780538648
 20
8.7912257758
 30
0.0
 10
12.8749910982
 20
8.7910054248
 30
0.0
 10
12.8719505306
 20
8.7911499892
 30
0.0
 10
12.8689370498
 20
8.7916592472
 30
0.0
 10
12.8669726201
 20
8.7922341563
 30
0.0
 10
12.8660019534
 20
8.7925773319
 30
0.0
  0
SPLINE
  5
35D
100
AcDbEntity
  8
0
100
AcDbSpline
 62
7
  6
CONTINUOUS
 70
0
 71
3
 72
31
 73
27
 74
0
 42
0.0000001
 43
0.0000001
 44
0.0000000001
 40
0.0
 40
0.0
 40
0.0
 40
0.0
 40
0.0701085295
 40
0.1412554639
 40
0.2129876175
 40
0.2848453495
 40
0.3563685184
 40
0.4270996715
 40
0.4965878281
 40
0.5643922838
 40
0.5975297448
 40
0.6300876603
 40
0.662015567
 40
0.6932643587
 40
0.7237865137
 40
0.753536162
 40
0.7824692075
 40
0.810543603
 40
0.8377194632
 40
0.8639592042
 40
0.8892278837
 40
0.9134934249
 40
0.9367268253
 40
0.9589026265
 40
0.9799993659
 40
1.0
 40
1.0
 40
1.0
 40
1.0
 10
12.891883385
 20
9.2964042225
 30
0.0
 10
12.891883385
 20
9.2863113088
 30
0.0
 10
12.8916564149
 20
9.2659753606
 30
0.0
 10
12.8906610134
 20
9.2353274147
 30
0.0
 10
12.8890141183
 20
9.2044552824
 30
0.0
 10
12.886726885
 20
9.173569718
 30
0.0
 10
12.883814963
 20
9.1428814925
 30
0.0
 10
12.8802982948
 20
9.1125999671
 30
0.0
 10
12.8762010019
 20
9.0829318459
 30
0.0
 10
12.8722971356
 20
9.0587066191
 30
0.0
 10
12.8688977277
 20
9.0397904329
 30
0.0
 10
12.8662410771
 20
9.0259894492
 30
0.0
 10
12.8634625081
 20
9.0124899695
 30
0.0
 10
12.860566745
 20
8.9993150238
 30
0.0
 10
12.8575587709
 20
8.9864870982
 30
0.0
 10
12.8544437438
 20
8.9740280784
 30
0.0
 10
12.8512269885
 20
8.9619592215
 30
0.0
 10
12.8479140321
 20
8.9503011018
 30
0.0
 10
12.8445105646
 20
8.9390735833
 30
0.0
 10
12.8410224068
 20
8.9282957923
 30
0.0
 10
12.8374555469
 20
8.9179860657
 30
0.0
 10
12.8338161118
 20
8.9081619147
 30
0.0
 10
12.8301103278
 20
8.8988400268
 30
0.0
 10
12.8263445141
 20
8.890036144
 30
0.0
 10
12.8225251914
 20
8.8817652625
 30
0.0
 10
12.8198763034
 20
8.8764734664
 30
0.0
 10
12.8185411366
 20
8.8739224283
 30
0.0
  0
SPLINE
  5
35E
100
AcDbEntity
  8
0
100
AcDbSpline
 62
7
  6
CONTINUOUS
 70
0
 71
3
 72
25
 73
21
 74
0
 42
0.0000001
 43
0.0000001
 44
0.0000000001
 40
0.0
 40
0.0
 40
0.0
 40
0.0
 40
0.066319025
 40
0.133520418
 40
0.2013040225
 40
0.2693646278
 40
0.3373963056
 40
0.405093019
 40
0.4721507151
 40
0.5382689918
 40
0.6031528844
 40
0.6665146586
 40
0.7280756367
 40
0.7875680842
 40
0.8447371926
 40
0.8993432117
 40
0.9256155184
 40
0.951165262
 40
0.9759677812
 40
1.0
 40
1.0
 40
1.0
 40
1.0
 10
12.8544973314
 20
9.2908176544
 30
0.0
 10
12.8544973314
 20
9.2830579092
 30
0.0
 10
12.8543513256
 20
9.2674348286
 30
0.0
 10
12.8537082442
 20
9.2438885961
 30
0.0
 10
12.8526423652
 20
9.2201536743
 30
0.0
 10
12.8511587466
 20
9.1963438989
 30
0.0
 10
12.8492645082
 20
9.1725734597
 30
0.0
 10
12.8469687381
 20
9.1489563168
 30
0.0
 10
12.8442824806
 20
9.1256057039
 30
0.0
 10
12.8412186709
 20
9.1026335602
 30
0.0
 10
12.8377920783
 20
9.0801499931
 30
0.0
 10
12.8340192393
 20
9.0582627345
 30
0.0
 10
12.8299183748
 20
9.0370766333
 30
0.0
 10
12.8255093189
 20
9.0166930697
 30
0.0
 10
12.8208133771
 20
8.997209693
 30
0.0
 10
12.8166279849
 20
8.9816067002
 30
0.0
 10
12.813144377
 20
8.9696507321
 30
0.0
 10
12.8105079812
 20
8.9610811765
 30
0.0
 10
12.8078174352
 20
8.9528036569
 30
0.0
 10
12.8059599274
 20
8.9473996694
 30
0.0
 10
12.8050216644
 20
8.9447489025
 30
0.0
  0
SPLINE
  5
35F
100
AcDbEntity
  8
0
100
AcDbSpline
 62
4
  6
CONTINUOUS
 70
0
 71
3
 72
403
 73
399
 74
0
 42
0.0000001
 43
0.0000001
 44
0.0000000001
 40
0.0
 40
0.0
 40
0.0
 40
0.0
 40
0.015625
 40
0.0234375
 40
0.03125
 40
0.0390625
 40
0.04296875
 40
0.046875
 40
0.05078125
 40
0.0546875
 40
0.056640625
 40
0.05859375
 40
0.0595703125
 40
0.060546875
 40
0.0615234375
 40
0.0620117188
 40
0.0622558594
 40
0.0625
 40
0.0627441406
 40
0.0629882812
 40
0.0634765625
 40
0.064453125
 40
0.0654296875
 40
0.06640625
 40
0.068359375
 40
0.0703125
 40
0.07421875
 40
0.078125
 40
0.08203125
 40
0.0859375
 40
0.09375
 40
0.1015625
 40
0.10546875
 40
0.109375
 40
0.11328125
 40
0.1171875
 40
0.119140625
 40
0.12109375
 40
0.1220703125
 40
0.123046875
 40
0.1240234375
 40
0.1245117188
 40
0.1247558594
 40
0.125
 40
0.1252441406
 40
0.1254882812
 40
0.1259765625
 40
0.126953125
 40
0.1279296875
 40
0.12890625
 40
0.130859375
 40
0.1328125
 40
0.13671875
 40
0.140625
 40
0.14453125
 40
0.1484375
 40
0.15625
 40
0.1640625
 40
0.16796875
 40
0.171875
 40
0.17578125
 40
0.1796875
 40
0.181640625
 40
0.18359375
 40
0.1845703125
 40
0.185546875
 40
0.1865234375
 40
0.1870117188
 40
0.1872558594
 40
0.1875
 40
0.1877441406
 40
0.1879882812
 40
0.1884765625
 40
0.189453125
 40
0.1904296875
 40
0.19140625
 40
0.193359375
 40
0.1953125
 40
0.19921875
 40
0.203125
 40
0.20703125
 40
0.2109375
 40
0.21875
 40
0.2265625
 40
0.23046875
 40
0.234375
 40
0.23828125
 40
0.2421875
 40
0.244140625
 40
0.24609375
 40
0.2470703125
 40
0.248046875
 40
0.2490234375
 40
0.2495117188
 40
0.2497558594
 40
0.25
 40
0.2502441406
 40
0.2504882812
 40
0.2509765625
 40
0.251953125
 40
0.2529296875
 40
0.25390625
 40
0.255859375
 40
0.2578125
 40
0.26171875
 40
0.265625
 40
0.26953125
 40
0.2734375
 40
0.28125
 40
0.2890625
 40
0.29296875
 40
0.296875
 40
0.30078125
 40
0.3046875
 40
0.306640625
 40
0.30859375
 40
0.3095703125
 40
0.310546875
 40
0.3115234375
 40
0.3120117188
 40
0.3122558594
 40
0.3125
 40
0.3127441406
 40
0.3129882812
 40
0.3134765625
 40
0.314453125
 40
0.3154296875
 40
0.31640625
 40
0.318359375
 40
0.3203125
 40
0.32421875
 40
0.328125
 40
0.33203125
 40
0.3359375
 40
0.34375
 40
0.3515625
 40
0.35546875
 40
0.359375
 40
0.36328125
 40
0.3671875
 40
0.369140625
 40
0.37109375
 40
0.3720703125
 40
0.373046875
 40
0.3740234375
 40
0.3745117188
 40
0.3747558594
 40
0.375
 40
0.3752441406
 40
0.3754882812
 40
0.3759765625
 40
0.376953125
 40
0.3779296875
 40
0.37890625
 40
0.380859375
 40
0.3828125
 40
0.38671875
 40
0.390625
 40
0.39453125
 40
0.3984375
 40
0.40625
 40
0.4140625
 40
0.41796875
 40
0.421875
 40
0.42578125
 40
0.4296875
 40
0.431640625
 40
0.43359375
 40
0.4345703125
 40
0.435546875
 40
0.4365234375
 40
0.4370117188
 40
0.4372558594
 40
0.4375
 40
0.4377441406
 40
0.4379882812
 40
0.4384765625
 40
0.439453125
 40
0.4404296875
 40
0.44140625
 40
0.443359375
 40
0.4453125
 40
0.44921875
 40
0.453125
 40
0.45703125
 40
0.4609375
 40
0.46875
 40
0.4765625
 40
0.48046875
 40
0.484375
 40
0.48828125
 40
0.4921875
 40
0.494140625
 40
0.49609375
 40
0.4970703125
 40
0.498046875
 40
0.4990234375
 40
0.4995117188
 40
0.4997558594
 40
0.5
 40
0.5002441406
 40
0.5004882812
 40
0.5009765625
 40
0.501953125
 40
0.5029296875
 40
0.50390625
 40
0.505859375
 40
0.5078125
 40
0.51171875
 40
0.515625
 40
0.51953125
 40
0.5234375
 40
0.53125
 40
0.5390625
 40
0.54296875
 40
0.546875
 40
0.55078125
 40
0.5546875
 40
0.556640625
 40
0.55859375
 40
0.5595703125
 40
0.560546875
 40
0.5615234375
 40
0.5620117188
 40
0.5622558594
 40
0.5625
 40
0.5627441406
 40
0.5629882812
 40
0.5634765625
 40
0.564453125
 40
0.5654296875
 40
0.56640625
 40
0.568359375
 40
0.5703125
 40
0.57421875
 40
0.578125
 40
0.58203125
 40
0.5859375
 40
0.59375
 40
0.6015625
 40
0.60546875
 40
0.609375
 40
0.61328125
 40
0.6171875
 40
0.619140625
 40
0.62109375
 40
0.6220703125
 40
0.623046875
 40
0.6240234375
 40
0.6245117188
 40
0.6247558594
 40
0.625
 40
0.6252441406
 40
0.6254882812
 40
0.6259765625
 40
0.626953125
 40
0.6279296875
 40
0.62890625
 40
0.630859375
 40
0.6328125
 40
0.63671875
 40
0.640625
 40
0.64453125
 40
0.6484375
 40
0.65625
 40
0.6640625
 40
0.66796875
 40
0.671875
 40
0.67578125
 40
0.6796875
 40
0.681640625
 40
0.68359375
 40
0.6845703125
 40
0.685546875
 40
0.6865234375
 40
0.6870117188
 40
0.6872558594
 40
0.6875
 40
0.6877441406
 40
0.6879882812
 40
0.6884765625
 40
0.689453125
 40
0.6904296875
 40
0.69140625
 40
0.693359375
 40
0.6953125
 40
0.69921875
 40
0.703125
 40
0.70703125
 40
0.7109375
 40
0.71875
 40
0.7265625
 40
0.73046875
 40
0.734375
 40
0.73828125
 40
0.7421875
 40
0.744140625
 40
0.74609375
 40
0.7470703125
 40
0.748046875
 40
0.7490234375
 40
0.7495117188
 40
0.7497558594
 40
0.75
 40
0.7502441406
 40
0.7504882812
 40
0.7509765625
 40
0.751953125
 40
0.7529296875
 40
0.75390625
 40
0.755859375
 40
0.7578125
 40
0.76171875
 40
0.765625
 40
0.76953125
 40
0.7734375
 40
0.78125
 40
0.7890625
 40
0.79296875
 40
0.796875
 40
0.80078125
 40
0.8046875
 40
0.806640625
 40
0.80859375
 40
0.8095703125
 40
0.810546875
 40
0.8115234375
 40
0.8120117188
 40
0.8122558594
 40
0.8125
 40
0.8127441406
 40
0.8129882812
 40
0.8134765625
 40
0.814453125
 40
0.8154296875
 40
0.81640625
 40
0.818359375
 40
0.8203125
 40
0.82421875
 40
0.828125
 40
0.83203125
 40
0.8359375
 40
0.84375
 40
0.8515625
 40
0.85546875
 40
0.859375
 40
0.86328125
 40
0.8671875
 40
0.869140625
 40
0.87109375
 40
0.8720703125
 40
0.873046875
 40
0.8740234375
 40
0.8745117188
 40
0.8747558594
 40
0.875
 40
0.8752441406
 40
0.8754882812
 40
0.8759765625
 40
0.876953125
 40
0.8779296875
 40
0.87890625
 40
0.880859375
 40
0.8828125
 40
0.88671875
 40
0.890625
 40
0.89453125
 40
0.8984375
 40
0.90625
 40
0.9140625
 40
0.91796875
 40
0.921875
 40
0.92578125
 40
0.9296875
 40
0.931640625
 40
0.93359375
 40
0.9345703125
 40
0.935546875
 40
0.9365234375
 40
0.9370117188
 40
0.9372558594
 40
0.9375
 40
0.9377441406
 40
0.9379882812
 40
0.9384765625
 40
0.939453125
 40
0.9404296875
 40
0.94140625
 40
0.943359375
 40
0.9453125
 40
0.94921875
 40
0.953125
 40
0.95703125
 40
0.9609375
 40
0.96875
 40
0.9765625
 40
0.984375
 40
1.0
 40
1.0
 40
1.0
 40
1.0
 10
10.1545682301
 20
9.0304199125
 30
0.0
 10
10.1548754418
 20
9.0272654204
 30
0.0
 10
10.1553362593
 20
9.0225336822
 30
0.0
 10
10.1559506826
 20
9.016224698
 30
0.0
 10
10.1564115001
 20
9.0114929598
 30
0.0
 10
10.1567955145
 20
9.0075498446
 30
0.0
 10
10.1571027265
 20
9.0043953526
 30
0.0
 10
10.1573331343
 20
9.0020294833
 30
0.0
 10
10.1575635467
 20
8.9996636147
 30
0.0
 10
10.1577555426
 20
8.9976920557
 30
0.0
 10
10.1579091718
 20
8.9961148126
 30
0.0
 10
10.1580051159
 20
8.9951290262
 30
0.0
 10
10.1580820409
 20
8.9943404189
 30
0.0
 10
10.1581392702
 20
8.9937489036
 30
0.0
 10
10.1581884388
 20
8.9932561643
 30
0.0
 10
10.1582199571
 20
8.9929108738
 30
0.0
 10
10.1582424954
 20
8.9927141474
 30
0.0
 10
10.158246644
 20
8.9925649616
 30
0.0
 10
10.158299549
 20
8.9924220486
 30
0.0
 10
10.1583530823
 20
8.9922293099
 30
0.0
 10
10.1584546893
 20
8.9918930366
 30
0.0
 10
10.1585956996
 20
8.9914121132
 30
0.0
 10
10.158766685
 20
8.9908352333
 30
0.0
 10
10.1589940463
 20
8.9900659804
 30
0.0
 10
10.1592784599
 20
8.9891044415
 30
0.0
 10
10.1597334033
 20
8.987565964
 30
0.0
 10
10.1603021231
 20
8.9856428724
 30
0.0
 10
10.1609845695
 20
8.9833351603
 30
0.0
 10
10.1616670205
 20
8.9810274487
 30
0.0
 10
10.1625769536
 20
8.9779504998
 30
0.0
 10
10.1637143705
 20
8.9741043137
 30
0.0
 10
10.1648517871
 20
8.9702581275
 30
0.0
 10
10.1657617208
 20
8.9671811787
 30
0.0
 10
10.1664441699
 20
8.9648734668
 30
0.0
 10
10.1671266234
 20
8.9625657563
 30
0.0
 10
10.167695321
 20
8.9606426595
 30
0.0
 10
10.1681503097
 20
8.9591041926
 30
0.0
 10
10.1684346078
 20
8.9581426269
 30
0.0
 10
10.1686622062
 20
8.9573734291
 30
0.0
 10
10.1688324672
 20
8.9567963807
 30
0.0
 10
10.1689757441
 20
8.9563159844
 30
0.0
 10
10.1690733048
 20
8.9559787701
 30
0.0
 10
10.1691333213
 20
8.9557875392
 30
0.0
 10
10.169166312
 20
8.9556399947
 30
0.0
 10
10.1692452555
 20
8.9555082038
 30
0.0
 10
10.1693344846
 20
8.9553269876
 30
0.0
 10
10.1694981036
 20
8.9550124194
 30
0.0
 10
10.1697279408
 20
8.9545616977
 30
0.0
 10
10.1700054165
 20
8.9540214047
 30
0.0
 10
10.1703748005
 20
8.9533008138
 30
0.0
 10
10.1708367303
 20
8.9524001438
 30
0.0
 10
10.1715757063
 20
8.9509590334
 30
0.0
 10
10.1724994646
 20
8.9491576586
 30
0.0
 10
10.1736079582
 20
8.9469960031
 30
0.0
 10
10.1747164561
 20
8.9448343492
 30
0.0
 10
10.1761944519
 20
8.9419521435
 30
0.0
 10
10.1780419471
 20
8.9383493865
 30
0.0
 10
10.179889442
 20
8.9347466293
 30
0.0
 10
10.1813674383
 20
8.9318644238
 30
0.0
 10
10.1824759345
 20
8.9297027692
 30
0.0
 10
10.1835844349
 20
8.9275411165
 30
0.0
 10
10.1845081719
 20
8.925739733
 30
0.0
 10
10.1852471913
 20
8.9242986403
 30
0.0
 10
10.1857090107
 20
8.9233979252
 30
0.0
 10
10.1860786214
 20
8.9226774269
 30
0.0
 10
10.1863554044
 20
8.9221368513
 30
0.0
 10
10.186587409
 20
8.9216870136
 30
0.0
 10
10.1867471587
 20
8.9213708673
 30
0.0
 10
10.1868425875
 20
8.9211921796
 30
0.0
 10
10.1869024877
 20
8.9210526218
 30
0.0
 10
10.1870070017
 20
8.9209342487
 30
0.0
 10
10.187130792
 20
8.9207690284
 30
0.0
 10
10.1873546755
 20
8.9204833358
 30
0.0
 10
10.1876707185
 20
8.9200734036
 30
0.0
 10
10.1880515925
 20
8.9195822554
 30
0.0
 10
10.1885588579
 20
8.918927122
 30
0.0
 10
10.1891931336
 20
8.9181082974
 30
0.0
 10
10.1902078664
 20
8.9167981265
 30
0.0
 10
10.1914763195
 20
8.9151604306
 30
0.0
 10
10.1929984473
 20
8.9131951879
 30
0.0
 10
10.1945205794
 20
8.9112299473
 30
0.0
 10
10.1965500874
 20
8.9086096257
 30
0.0
 10
10.1990869729
 20
8.9053342241
 30
0.0
 10
10.201623858
 20
8.9020588221
 30
0.0
 10
10.2036533665
 20
8.899438501
 30
0.0
 10
10.2051754971
 20
8.8974732591
 30
0.0
 10
10.2066976307
 20
8.8955080208
 30
0.0
 10
10.2079660657
 20
8.8938703113
 30
0.0
 10
10.2089808355
 20
8.8925601682
 30
0.0
 10
10.209615017
 20
8.891741273
 30
0.0
 10
10.2101224757
 20
8.8910862845
 30
0.0
 10
10.210502759
 20
8.8905946937
 30
0.0
 10
10.2108206503
 20
8.8901861462
 30
0.0
 10
10.2110412342
 20
8.8898979817
 30
0.0
 10
10.2111703113
 20
8.889736722
 30
0.0
 10
10.211258586
 20
8.8896061833
 30
0.0
 10
10.2113794787
 20
8.8895123174
 30
0.0
 10
10.2115292914
 20
8.889374371
 30
0.0
 10
10.2117967648
 20
8.8891389247
 30
0.0
 10
10.2121760981
 20
8.8887994569
 30
0.0
 10
10.2126324843
 20
8.8883934293
 30
0.0
 10
10.2132405849
 20
8.8878515934
 30
0.0
 10
10.2140008526
 20
8.8871744579
 30
0.0
 10
10.2152172015
 20
8.886090952
 30
0.0
 10
10.2167376649
 20
8.8847366003
 30
0.0
 10
10.2185622093
 20
8.8831113651
 30
0.0
 10
10.2203867568
 20
8.8814861333
 30
0.0
 10
10.2228194858
 20
8.8793191565
 30
0.0
 10
10.2258603974
 20
8.8766104359
 30
0.0
 10
10.2289013087
 20
8.873901715
 30
0.0
 10
10.2313340381
 20
8.8717347386
 30
0.0
 10
10.2331585844
 20
8.8701095054
 30
0.0
 10
10.2349831334
 20
8.8684842759
 30
0.0
 10
10.2365035826
 20
8.8671299063
 30
0.0
 10
10.2377199604
 20
8.8660464368
 30
0.0
 10
10.2384801546
 20
8.8653692086
 30
0.0
 10
10.2390884061
 20
8.8648275631
 30
0.0
 10
10.2395443313
 20
8.8644209537
 30
0.0
 10
10.239925107
 20
8.8640833062
 30
0.0
 10
10.2401900054
 20
8.8638446104
 30
0.0
 10
10.2403439437
 20
8.8637118704
 30
0.0
 10
10.2404521641
 20
8.863602012
 30
0.0
 10
10.240588034
 20
8.8635315385
 30
0.0
 10
10.2407595494
 20
8.863423836
 30
0.0
 10
10.2410641949
 20
8.8632417572
 30
0.0
 10
10.2414970536
 20
8.8629782983
 30
0.0
 10
10.2420174895
 20
8.86266358
 30
0.0
 10
10.2427110528
 20
8.8622434553
 30
0.0
 10
10.2435781272
 20
8.8617184708
 30
0.0
 10
10.244965379
 20
8.8608783997
 30
0.0
 10
10.2466994669
 20
8.8598283437
 30
0.0
 10
10.2487803624
 20
8.8585682625
 30
0.0
 10
10.2508612606
 20
8.857308185
 30
0.0
 10
10.2536357906
 20
8.8556280804
 30
0.0
 10
10.2571039534
 20
8.8535279502
 30
0.0
 10
10.260572116
 20
8.8514278196
 30
0.0
 10
10.2633466463
 20
8.8497477155
 30
0.0
 10
10.2654275436
 20
8.8484876364
 30
0.0
 10
10.2675084426
 20
8.8472275615
 30
0.0
 10
10.2692425195
 20
8.8461774858
 30
0.0
 10
10.2706297937
 20
8.845337455
 30
0.0
 10
10.2714968111
 20
8.844812368
 30
0.0
 10
10.2721904915
 20
8.8443924535
 30
0.0
 10
10.2727105698
 20
8.8440770931
 30
0.0
 10
10.2731445472
 20
8.8438156432
 30
0.0
 10
10.2734471954
 20
8.843629978
 30
0.0
 10
10.2736219111
 20
8.8435280219
 30
0.0
 10
10.2737479509
 20
8.8434398971
 30
0.0
 10
10.2738930914
 20
8.843396334
 30
0.0
 10
10.2740799495
 20
8.8433227062
 30
0.0
 10
10.2744100554
 20
8.8432010997
 30
0.0
 10
10.2748800124
 20
8.8430235899
 30
0.0
 10
10.2754446554
 20
8.8428121987
 30
0.0
 10
10.2761972701
 20
8.8425297778
 30
0.0
 10
10.2771381216
 20
8.8421769455
 30
0.0
 10
10.2786434376
 20
8.8416123054
 30
0.0
 10
10.2805250984
 20
8.8409065425
 30
0.0
 10
10.2827830846
 20
8.840059611
 30
0.0
 10
10.2850410726
 20
8.8392126839
 30
0.0
 10
10.2880517227
 20
8.8380834461
 30
0.0
 10
10.2918150355
 20
8.8366718995
 30
0.0
 10
10.2955783481
 20
8.8352603525
 30
0.0
 10
10.2985889984
 20
8.8341311154
 30
0.0
 10
10.3008469858
 20
8.8332841864
 30
0.0
 10
10.3031049745
 20
8.8324372619
 30
0.0
 10
10.3049866275
 20
8.8317314773
 30
0.0
 10
10.3064919594
 20
8.8311668815
 30
0.0
 10
10.3074327701
 20
8.8308139366
 30
0.0
 10
10.3081854686
 20
8.8305317467
 30
0.0
 10
10.3087498556
 20
8.8303196497
 30
0.0
 10
10.3092206138
 20
8.8301443483
 30
0.0
 10
10.3095492893
 20
8.8300187993
 30
0.0
 10
10.3097384393
 20
8.8299514884
 30
0.0
 10
10.30987654
 20
8.829888522
 30
0.0
 10
10.3100290199
 20
8.8298732728
 30
0.0
 10
10.3102273108
 20
8.8298362963
 30
0.0
 10
10.3105766567
 20
8.8297793423
 30
0.0
 10
10.3110745005
 20
8.8296939251
 30
0.0
 10
10.3116724361
 20
8.8295931598
 30
0.0
 10
10.3124695008
 20
8.8294582
 30
0.0
 10
10.3134658943
 20
8.8292897078
 30
0.0
 10
10.3150600889
 20
8.8290200042
 30
0.0
 10
10.3170528442
 20
8.8286829145
 30
0.0
 10
10.3194441454
 20
8.8282783898
 30
0.0
 10
10.3218354479
 20
8.8278738697
 30
0.0
 10
10.3250238509
 20
8.827334508
 30
0.0
 10
10.3290093547
 20
8.8266603064
 30
0.0
 10
10.3329948585
 20
8.8259861044
 30
0.0
 10
10.3361832615
 20
8.8254467433
 30
0.0
 10
10.3385745638
 20
8.8250422212
 30
0.0
 10
10.3409658658
 20
8.824637704
 30
0.0
 10
10.3429586187
 20
8.8243005911
 30
0.0
 10
10.3445528181
 20
8.8240309348
 30
0.0
 10
10.3455491995
 20
8.8238623222
 30
0.0
 10
10.346346289
 20
8.8237276093
 30
0.0
 10
10.3469441488
 20
8.8236260897
 30
0.0
 10
10.3474422299
 20
8.8235430327
 30
0.0
 10
10.3477911523
 20
8.8234818652
 30
0.0
 10
10.3479901217
 20
8.8234516398
 30
0.0
 10
10.3481405173
 20
8.8234156535
 30
0.0
 10
10.3482864462
 20
8.8234305724
 30
0.0
 10
10.3484825762
 20
8.8234327081
 30
0.0
 10
10.3488250777
 20
8.8234447184
 30
0.0
 10
10.349314745
 20
8.8234575508
 30
0.0
 10
10.3499021834
 20
8.823474801
 30
0.0
 10
10.3506854913
 20
8.8234971547
 30
0.0
 10
10.3516646068
 20
8.8235253181
 30
0.0
 10
10.3532312024
 20
8.8235702559
 30
0.0
 10
10.3551894431
 20
8.8236264707
 30
0.0
 10
10.3575393337
 20
8.8236939101
 30
0.0
 10
10.3598892238
 20
8.8237613545
 30
0.0
 10
10.3630224107
 20
8.8238512785
 30
0.0
 10
10.3669388943
 20
8.8239636843
 30
0.0
 10
10.370855378
 20
8.8240760896
 30
0.0
 10
10.3739885649
 20
8.8241660143
 30
0.0
 10
10.3763384553
 20
8.8242334566
 30
0.0
 10
10.3786883447
 20
8.8243009037
 30
0.0
 10
10.3806465888
 20
8.8243570948
 30
0.0
 10
10.3822131776
 20
8.8244020807
 30
0.0
 10
10.3831923103
 20
8.8244301218
 30
0.0
 10
10.3839755829
 20
8.8244527266
 30
0.0
 10
10.3845631293
 20
8.8244692094
 30
0.0
 10
10.3850524587
 20
8.824484443
 30
0.0
 10
10.3853955635
 20
8.8244921668
 30
0.0
 10
10.3855907268
 20
8.8245011705
 30
0.0
 10
10.3857396249
 20
8.824494993
 30
0.0
 10
10.3858788689
 20
8.8245382414
 30
0.0
 10
10.3860678951
 20
8.8245786657
 30
0.0
 10
10.3863971219
 20
8.8246574408
 30
0.0
 10
10.3868682662
 20
8.824765777
 30
0.0
 10
10.3874332882
 20
8.8248975781
 30
0.0
 10
10.3881867736
 20
8.8250726849
 30
0.0
 10
10.3891285883
 20
8.8252917835
 30
0.0
 10
10.3906355154
 20
8.8256422211
 30
0.0
 10
10.3925191661
 20
8.8260803093
 30
0.0
 10
10.3947795504
 20
8.8266059975
 30
0.0
 10
10.3970399338
 20
8.8271316904
 30
0.0
 10
10.4000537787
 20
8.8278326126
 30
0.0
 10
10.4038210846
 20
8.828708766
 30
0.0
 10
10.4075883907
 20
8.829584919
 30
0.0
 10
10.4106022354
 20
8.8302858419
 30
0.0
 10
10.4128626194
 20
8.8308115328
 30
0.0
 10
10.4151230015
 20
8.8313372283
 30
0.0
 10
10.417006659
 20
8.8317752938
 30
0.0
 10
10.4185135723
 20
8.8321257777
 30
0.0
 10
10.4194554219
 20
8.8323447583
 30
0.0
 10
10.4202088357
 20
8.8325201073
 30
0.0
 10
10.4207740765
 20
8.8326511688
 30
0.0
 10
10.4212445364
 20
8.8327618191
 30
0.0
 10
10.4215749849
 20
8.8328364631
 30
0.0
 10
10.4217620537
 20
8.8328835063
 30
0.0
 10
10.4219073102
 20
8.8329064235
 30
0.0
 10
10.4220336264
 20
8.8329766069
 30
0.0
 10
10.4222086546
 20
8.8330536978
 30
0.0
 10
10.4225118757
 20
8.8331962884
 30
0.0
 10
10.4229466581
 20
8.8333959732
 30
0.0
 10
10.4234677082
 20
8.8336373141
 30
0.0
 10
10.4241626822
 20
8.8339585014
 30
0.0
 10
10.4250313173
 20
8.8343601912
 30
0.0
 10
10.4264211795
 20
8.8350027799
 30
0.0
 10
10.4281584915
 20
8.8358060552
 30
0.0
 10
10.4302432726
 20
8.8367699687
 30
0.0
 10
10.4323280519
 20
8.8377338867
 30
0.0
 10
10.4351077583
 20
8.8390191092
 30
0.0
 10
10.4385823911
 20
8.8406256378
 30
0.0
 10
10.442057024
 20
8.8422321661
 30
0.0
 10
10.4448367301
 20
8.8435173892
 30
0.0
 10
10.4469215103
 20
8.8444813053
 30
0.0
 10
10.4490062882
 20
8.8454452259
 30
0.0
 10
10.4507436103
 20
8.8462484792
 30
0.0
 10
10.4521334518
 20
8.8468911128
 30
0.0
 10
10.4530021396
 20
8.8472926884
 30
0.0
 10
10.4536970054
 20
8.84761411
 30
0.0
 10
10.4542183861
 20
8.8478547351
 30
0.0
 10
10.4546521341
 20
8.8480566592
 30
0.0
 10
10.4549572018
 20
8.8481952525
 30
0.0
 10
10.4551292714
 20
8.8482787481
 30
0.0
 10
10.4552646752
 20
8.848329258
 30
0.0
 10
10.4553758002
 20
8.8484260656
 30
0.0
 10
10.4555324356
 20
8.8485389931
 30
0.0
 10
10.4558026018
 20
8.8487441406
 30
0.0
 10
10.4561906164
 20
8.8490332746
 30
0.0
 10
10.4566553509
 20
8.8493819192
 30
0.0
 10
10.4572753053
 20
8.8498461906
 30
0.0
 10
10.4580501427
 20
8.8504267312
 30
0.0
 10
10.4592899417
 20
8.8513554836
 30
0.0
 10
10.46083967
 20
8.8525164627
 30
0.0
 10
10.4626993528
 20
8.8539096211
 30
0.0
 10
10.4645590332
 20
8.8553027839
 30
0.0
 10
10.4670386079
 20
8.8571603328
 30
0.0
 10
10.470138076
 20
8.8594822694
 30
0.0
 10
10.4732375443
 20
8.8618042057
 30
0.0
 10
10.4757171186
 20
8.8636617551
 30
0.0
 10
10.4775768003
 20
8.8650549163
 30
0.0
 10
10.4794364783
 20
8.8664480808
 30
0.0
 10
10.4809862215
 20
8.8676090408
 30
0.0
 10
10.4822259901
 20
8.8685378323
 30
0.0
 10
10.4830009047
 20
8.8691182733
 30
0.0
 10
10.4836207008
 20
8.8695827491
 30
0.0
 10
10.4840859189
 20
8.8699307694
 30
0.0
 10
10.4844724206
 20
8.8702218567
 30
0.0
 10
10.4847452875
 20
8.8704235172
 30
0.0
 10
10.4848975957
 20
8.8705420317
 30
0.0
 10
10.4850220125
 20
8.870621678
 30
0.0
 10
10.4851074945
 20
8.8707366425
 30
0.0
 10
10.4852350513
 20
8.8708776092
 30
0.0
 10
10.4854519483
 20
8.8711300406
 30
0.0
 10
10.4857651092
 20
8.8714876562
 30
0.0
 10
10.4861394863
 20
8.8719180792
 30
0.0
 10
10.4866391503
 20
8.872491528
 30
0.0
 10
10.4872635611
 20
8.8732084927
 30
0.0
 10
10.4882627129
 20
8.8743555502
 30
0.0
 10
10.4895116201
 20
8.8757894016
 30
0.0
 10
10.4910103228
 20
8.8775100106
 30
0.0
 10
10.4925090217
 20
8.879230623
 30
0.0
 10
10.4945072882
 20
8.8815247717
 30
0.0
 10
10.4970051209
 20
8.884392458
 30
0.0
 10
10.4995029539
 20
8.8872601441
 30
0.0
 10
10.5015012199
 20
8.8895542932
 30
0.0
 10
10.5029999204
 20
8.8912749043
 30
0.0
 10
10.504498617
 20
8.8929955183
 30
0.0
 10
10.5057475431
 20
8.8944293542
 30
0.0
 10
10.5067466564
 20
8.8955764433
 30
0.0
 10
10.507371165
 20
8.8962933276
 30
0.0
 10
10.5078706282
 20
8.8968669412
 30
0.0
 10
10.508245619
 20
8.8972968607
 30
0.0
 10
10.5085568597
 20
8.8976560518
 30
0.0
 10
10.5087771846
 20
8.8979056707
 30
0.0
 10
10.508899249
 20
8.8980511438
 30
0.0
 10
10.5090016023
 20
8.8981522659
 30
0.0
 10
10.5090626532
 20
8.8982839019
 30
0.0
 10
10.5091584611
 20
8.898448773
 30
0.0
 10
10.5093194126
 20
8.8987422565
 30
0.0
 10
10.5095528526
 20
8.899158926
 30
0.0
 10
10.5098314786
 20
8.8996600392
 30
0.0
 10
10.5102035045
 20
8.9003278024
 30
0.0
 10
10.5106683573
 20
8.9011626392
 30
0.0
 10
10.5114122221
 20
8.9024983038
 30
0.0
 10
10.5123420186
 20
8.90416791
 30
0.0
 10
10.5134577893
 20
8.9061714266
 30
0.0
 10
10.514573556
 20
8.9081749461
 30
0.0
 10
10.5160612463
 20
8.9108463044
 30
0.0
 10
10.5179208586
 20
8.9141855027
 30
0.0
 10
10.5197804713
 20
8.9175247007
 30
0.0
 10
10.521268161
 20
8.9201960594
 30
0.0
 10
10.5223839295
 20
8.9221995778
 30
0.0
 10
10.5234996935
 20
8.9242030984
 30
0.0
 10
10.5244295106
 20
8.9258726922
 30
0.0
 10
10.5251733336
 20
8.9272083822
 30
0.0
 10
10.5256382927
 20
8.9280431545
 30
0.0
 10
10.5260101003
 20
8.92871105
 30
0.0
 10
10.5262893932
 20
8.9292117592
 30
0.0
 10
10.5265207466
 20
8.9296296923
 30
0.0
 10
10.5266854231
 20
8.9299209201
 30
0.0
 10
10.5267752627
 20
8.9300894054
 30
0.0
 10
10.5268546465
 20
8.9302099399
 30
0.0
 10
10.5268881441
 20
8.9303527573
 30
0.0
 10
10.5269488132
 20
8.9305354081
 30
0.0
 10
10.5270475268
 20
8.9308586682
 30
0.0
 10
10.527192445
 20
8.931318575
 30
0.0
 10
10.527364678
 20
8.9318712736
 30
0.0
 10
10.527594905
 20
8.9326079221
 30
0.0
 10
10.527882489
 20
8.9335288295
 30
0.0
 10
10.5283427351
 20
8.9350022273
 30
0.0
 10
10.5289180044
 20
8.9368439931
 30
0.0
 10
10.529608344
 20
8.939054104
 30
0.0
 10
10.5302986791
 20
8.9412642172
 30
0.0
 10
10.5312191276
 20
8.9442110339
 30
0.0
 10
10.5323696875
 20
8.9478945551
 30
0.0
 10
10.5335202479
 20
8.9515780761
 30
0.0
 10
10.5344406957
 20
8.9545248931
 30
0.0
 10
10.5351310328
 20
8.9567350054
 30
0.0
 10
10.5358213652
 20
8.9589451194
 30
0.0
 10
10.5363966567
 20
8.9607868758
 30
0.0
 10
10.5368568575
 20
8.9622602928
 30
0.0
 10
10.5371445569
 20
8.9631811514
 30
0.0
 10
10.537374547
 20
8.9639179001
 30
0.0
 10
10.5375475036
 20
8.9644702924
 30
0.0
 10
10.5376901578
 20
8.9649311575
 30
0.0
 10
10.5377929131
 20
8.965252707
 30
0.0
 10
10.5378471064
 20
8.9654380986
 30
0.0
 10
10.5379004955
 20
8.9655724968
 30
0.0
 10
10.5379051701
 20
8.9657246525
 30
0.0
 10
10.5379283951
 20
8.9659213328
 30
0.0
 10
10.5379611219
 20
8.9662684093
 30
0.0
 10
10.5380120135
 20
8.966762724
 30
0.0
 10
10.5380713118
 20
8.9673565475
 30
0.0
 10
10.538150995
 20
8.9681480865
 30
0.0
 10
10.5382503871
 20
8.9691375876
 30
0.0
 10
10.538409533
 20
8.9707207461
 30
0.0
 10
10.5386084246
 20
8.9726997091
 30
0.0
 10
10.538847112
 20
8.9750744583
 30
0.0
 10
10.5390857947
 20
8.9774492092
 30
0.0
 10
10.5394040399
 20
8.9806155432
 30
0.0
 10
10.5398018459
 20
8.9845734608
 30
0.0
 10
10.5402792134
 20
8.9893229619
 30
0.0
 10
10.5409157032
 20
8.9956556301
 30
0.0
 10
10.5413930706
 20
9.0004051312
 30
0.0
 10
10.5417113156
 20
9.0035714653
 30
0.0
  0
SPLINE
  5
360
100
AcDbEntity
  8
0
100
AcDbSpline
 62
4
  6
CONTINUOUS
 70
0
 71
3
 72
403
 73
399
 74
0
 42
0.0000001
 43
0.0000001
 44
0.0000000001
 40
0.0
 40
0.0
 40
0.0
 40
0.0
 40
0.015625
 40
0.0234375
 40
0.03125
 40
0.0390625
 40
0.04296875
 40
0.046875
 40
0.05078125
 40
0.0546875
 40
0.056640625
 40
0.05859375
 40
0.0595703125
 40
0.060546875
 40
0.0615234375
 40
0.0620117188
 40
0.0622558594
 40
0.0625
 40
0.0627441406
 40
0.0629882812
 40
0.0634765625
 40
0.064453125
 40
0.0654296875
 40
0.06640625
 40
0.068359375
 40
0.0703125
 40
0.07421875
 40
0.078125
 40
0.08203125
 40
0.0859375
 40
0.09375
 40
0.1015625
 40
0.10546875
 40
0.109375
 40
0.11328125
 40
0.1171875
 40
0.119140625
 40
0.12109375
 40
0.1220703125
 40
0.123046875
 40
0.1240234375
 40
0.1245117188
 40
0.1247558594
 40
0.125
 40
0.1252441406
 40
0.1254882812
 40
0.1259765625
 40
0.126953125
 40
0.1279296875
 40
0.12890625
 40
0.130859375
 40
0.1328125
 40
0.13671875
 40
0.140625
 40
0.14453125
 40
0.1484375
 40
0.15625
 40
0.1640625
 40
0.16796875
 40
0.171875
 40
0.17578125
 40
0.1796875
 40
0.181640625
 40
0.18359375
 40
0.1845703125
 40
0.185546875
 40
0.1865234375
 40
0.1870117188
 40
0.1872558594
 40
0.1875
 40
0.1877441406
 40
0.1879882812
 40
0.1884765625
 40
0.189453125
 40
0.1904296875
 40
0.19140625
 40
0.193359375
 40
0.1953125
 40
0.19921875
 40
0.203125
 40
0.20703125
 40
0.2109375
 40
0.21875
 40
0.2265625
 40
0.23046875
 40
0.234375
 40
0.23828125
 40
0.2421875
 40
0.244140625
 40
0.24609375
 40
0.2470703125
 40
0.248046875
 40
0.2490234375
 40
0.2495117188
 40
0.2497558594
 40
0.25
 40
0.2502441406
 40
0.2504882812
 40
0.2509765625
 40
0.251953125
 40
0.2529296875
 40
0.25390625
 40
0.255859375
 40
0.2578125
 40
0.26171875
 40
0.265625
 40
0.26953125
 40
0.2734375
 40
0.28125
 40
0.2890625
 40
0.29296875
 40
0.296875
 40
0.30078125
 40
0.3046875
 40
0.306640625
 40
0.30859375
 40
0.3095703125
 40
0.310546875
 40
0.3115234375
 40
0.3120117188
 40
0.3122558594
 40
0.3125
 40
0.3127441406
 40
0.3129882812
 40
0.3134765625
 40
0.314453125
 40
0.3154296875
 40
0.31640625
 40
0.318359375
 40
0.3203125
 40
0.32421875
 40
0.328125
 40
0.33203125
 40
0.3359375
 40
0.34375
 40
0.3515625
 40
0.35546875
 40
0.359375
 40
0.36328125
 40
0.3671875
 40
0.369140625
 40
0.37109375
 40
0.3720703125
 40
0.373046875
 40
0.3740234375
 40
0.3745117188
 40
0.3747558594
 40
0.375
 40
0.3752441406
 40
0.3754882812
 40
0.3759765625
 40
0.376953125
 40
0.3779296875
 40
0.37890625
 40
0.380859375
 40
0.3828125
 40
0.38671875
 40
0.390625
 40
0.39453125
 40
0.3984375
 40
0.40625
 40
0.4140625
 40
0.41796875
 40
0.421875
 40
0.42578125
 40
0.4296875
 40
0.431640625
 40
0.43359375
 40
0.4345703125
 40
0.435546875
 40
0.4365234375
 40
0.4370117188
 40
0.4372558594
 40
0.4375
 40
0.4377441406
 40
0.4379882812
 40
0.4384765625
 40
0.439453125
 40
0.4404296875
 40
0.44140625
 40
0.443359375
 40
0.4453125
 40
0.44921875
 40
0.453125
 40
0.45703125
 40
0.4609375
 40
0.46875
 40
0.4765625
 40
0.48046875
 40
0.484375
 40
0.48828125
 40
0.4921875
 40
0.494140625
 40
0.49609375
 40
0.4970703125
 40
0.498046875
 40
0.4990234375
 40
0.4995117188
 40
0.4997558594
 40
0.5
 40
0.5002441406
 40
0.5004882812
 40
0.5009765625
 40
0.501953125
 40
0.5029296875
 40
0.50390625
 40
0.505859375
 40
0.5078125
 40
0.51171875
 40
0.515625
 40
0.51953125
 40
0.5234375
 40
0.53125
 40
0.5390625
 40
0.54296875
 40
0.546875
 40
0.55078125
 40
0.5546875
 40
0.556640625
 40
0.55859375
 40
0.5595703125
 40
0.560546875
 40
0.5615234375
 40
0.5620117188
 40
0.5622558594
 40
0.5625
 40
0.5627441406
 40
0.5629882812
 40
0.5634765625
 40
0.564453125
 40
0.5654296875
 40
0.56640625
 40
0.568359375
 40
0.5703125
 40
0.57421875
 40
0.578125
 40
0.58203125
 40
0.5859375
 40
0.59375
 40
0.6015625
 40
0.60546875
 40
0.609375
 40
0.61328125
 40
0.6171875
 40
0.619140625
 40
0.62109375
 40
0.6220703125
 40
0.623046875
 40
0.6240234375
 40
0.6245117188
 40
0.6247558594
 40
0.625
 40
0.6252441406
 40
0.6254882812
 40
0.6259765625
 40
0.626953125
 40
0.6279296875
 40
0.62890625
 40
0.630859375
 40
0.6328125
 40
0.63671875
 40
0.640625
 40
0.64453125
 40
0.6484375
 40
0.65625
 40
0.6640625
 40
0.66796875
 40
0.671875
 40
0.67578125
 40
0.6796875
 40
0.681640625
 40
0.68359375
 40
0.6845703125
 40
0.685546875
 40
0.6865234375
 40
0.6870117188
 40
0.6872558594
 40
0.6875
 40
0.6877441406
 40
0.6879882812
 40
0.6884765625
 40
0.689453125
 40
0.6904296875
 40
0.69140625
 40
0.693359375
 40
0.6953125
 40
0.69921875
 40
0.703125
 40
0.70703125
 40
0.7109375
 40
0.71875
 40
0.7265625
 40
0.73046875
 40
0.734375
 40
0.73828125
 40
0.7421875
 40
0.744140625
 40
0.74609375
 40
0.7470703125
 40
0.748046875
 40
0.7490234375
 40
0.7495117188
 40
0.7497558594
 40
0.75
 40
0.7502441406
 40
0.7504882812
 40
0.7509765625
 40
0.751953125
 40
0.7529296875
 40
0.75390625
 40
0.755859375
 40
0.7578125
 40
0.76171875
 40
0.765625
 40
0.76953125
 40
0.7734375
 40
0.78125
 40
0.7890625
 40
0.79296875
 40
0.796875
 40
0.80078125
 40
0.8046875
 40
0.806640625
 40
0.80859375
 40
0.8095703125
 40
0.810546875
 40
0.8115234375
 40
0.8120117188
 40
0.8122558594
 40
0.8125
 40
0.8127441406
 40
0.8129882812
 40
0.8134765625
 40
0.814453125
 40
0.8154296875
 40
0.81640625
 40
0.818359375
 40
0.8203125
 40
0.82421875
 40
0.828125
 40
0.83203125
 40
0.8359375
 40
0.84375
 40
0.8515625
 40
0.85546875
 40
0.859375
 40
0.86328125
 40
0.8671875
 40
0.869140625
 40
0.87109375
 40
0.8720703125
 40
0.873046875
 40
0.8740234375
 40
0.8745117188
 40
0.8747558594
 40
0.875
 40
0.8752441406
 40
0.8754882812
 40
0.8759765625
 40
0.876953125
 40
0.8779296875
 40
0.87890625
 40
0.880859375
 40
0.8828125
 40
0.88671875
 40
0.890625
 40
0.89453125
 40
0.8984375
 40
0.90625
 40
0.9140625
 40
0.91796875
 40
0.921875
 40
0.92578125
 40
0.9296875
 40
0.931640625
 40
0.93359375
 40
0.9345703125
 40
0.935546875
 40
0.9365234375
 40
0.9370117188
 40
0.9372558594
 40
0.9375
 40
0.9377441406
 40
0.9379882812
 40
0.9384765625
 40
0.939453125
 40
0.9404296875
 40
0.94140625
 40
0.943359375
 40
0.9453125
 40
0.94921875
 40
0.953125
 40
0.95703125
 40
0.9609375
 40
0.96875
 40
0.9765625
 40
0.984375
 40
1.0
 40
1.0
 40
1.0
 40
1.0
 10
10.5417113156
 20
9.0035714483
 30
0.0
 10
10.5414041039
 20
9.0067259405
 30
0.0
 10
10.5409432864
 20
9.0114576786
 30
0.0
 10
10.5403288631
 20
9.0177666629
 30
0.0
 10
10.5398680455
 20
9.0224984011
 30
0.0
 10
10.5394840311
 20
9.0264415162
 30
0.0
 10
10.5391768191
 20
9.0295960083
 30
0.0
 10
10.5389464114
 20
9.0319618775
 30
0.0
 10
10.5387159989
 20
9.0343277461
 30
0.0
 10
10.5385240031
 20
9.0362993052
 30
0.0
 10
10.5383703739
 20
9.0378765482
 30
0.0
 10
10.5382744297
 20
9.0388623347
 30
0.0
 10
10.5381975048
 20
9.039650942
 30
0.0
 10
10.5381402755
 20
9.0402424573
 30
0.0
 10
10.5380911068
 20
9.0407351965
 30
0.0
 10
10.5380595886
 20
9.0410804871
 30
0.0
 10
10.5380370503
 20
9.0412772135
 30
0.0
 10
10.5380329017
 20
9.0414263992
 30
0.0
 10
10.5379799966
 20
9.0415693123
 30
0.0
 10
10.5379264634
 20
9.041762051
 30
0.0
 10
10.5378248563
 20
9.0420983242
 30
0.0
 10
10.5376838461
 20
9.0425792476
 30
0.0
 10
10.5375128607
 20
9.0431561276
 30
0.0
 10
10.5372854994
 20
9.0439253805
 30
0.0
 10
10.5370010857
 20
9.0448869194
 30
0.0
 10
10.5365461424
 20
9.0464253968
 30
0.0
 10
10.5359774226
 20
9.0483484884
 30
0.0
 10
10.5352949762
 20
9.0506562006
 30
0.0
 10
10.5346125252
 20
9.0529639121
 30
0.0
 10
10.5337025921
 20
9.0560408611
 30
0.0
 10
10.5325651752
 20
9.0598870471
 30
0.0
 10
10.5314277586
 20
9.0637332333
 30
0.0
 10
10.5305178249
 20
9.0668101821
 30
0.0
 10
10.5298353758
 20
9.0691178941
 30
0.0
 10
10.5291529223
 20
9.0714256046
 30
0.0
 10
10.5285842247
 20
9.0733487013
 30
0.0
 10
10.528129236
 20
9.0748871682
 30
0.0
 10
10.5278449379
 20
9.075848734
 30
0.0
 10
10.5276173395
 20
9.0766179318
 30
0.0
 10
10.5274470784
 20
9.0771949802
 30
0.0
 10
10.5273038016
 20
9.0776753764
 30
0.0
 10
10.5272062409
 20
9.0780125908
 30
0.0
 10
10.5271462244
 20
9.0782038217
 30
0.0
 10
10.5271132337
 20
9.0783513661
 30
0.0
 10
10.5270342902
 20
9.0784831571
 30
0.0
 10
10.5269450611
 20
9.0786643733
 30
0.0
 10
10.526781442
 20
9.0789789415
 30
0.0
 10
10.5265516049
 20
9.0794296631
 30
0.0
 10
10.5262741292
 20
9.0799699562
 30
0.0
 10
10.5259047452
 20
9.0806905471
 30
0.0
 10
10.5254428154
 20
9.0815912171
 30
0.0
 10
10.5247038394
 20
9.0830323275
 30
0.0
 10
10.5237800811
 20
9.0848337023
 30
0.0
 10
10.5226715875
 20
9.0869953577
 30
0.0
 10
10.5215630895
 20
9.0891570117
 30
0.0
 10
10.5200850938
 20
9.0920392174
 30
0.0
 10
10.5182375986
 20
9.0956419744
 30
0.0
 10
10.5163901037
 20
9.0992447315
 30
0.0
 10
10.5149121073
 20
9.102126937
 30
0.0
 10
10.5138036112
 20
9.1042885917
 30
0.0
 10
10.5126951108
 20
9.1064502443
 30
0.0
 10
10.5117713738
 20
9.1082516278
 30
0.0
 10
10.5110323544
 20
9.1096927205
 30
0.0
 10
10.510570535
 20
9.1105934356
 30
0.0
 10
10.5102009243
 20
9.111313934
 30
0.0
 10
10.5099241413
 20
9.1118545096
 30
0.0
 10
10.5096921367
 20
9.1123043472
 30
0.0
 10
10.509532387
 20
9.1126204936
 30
0.0
 10
10.5094369582
 20
9.1127991812
 30
0.0
 10
10.509377058
 20
9.1129387391
 30
0.0
 10
10.5092725439
 20
9.1130571122
 30
0.0
 10
10.5091487537
 20
9.1132223325
 30
0.0
 10
10.5089248701
 20
9.113508025
 30
0.0
 10
10.5086088272
 20
9.1139179573
 30
0.0
 10
10.5082279531
 20
9.1144091055
 30
0.0
 10
10.5077206878
 20
9.1150642389
 30
0.0
 10
10.507086412
 20
9.1158830635
 30
0.0
 10
10.5060716793
 20
9.1171932343
 30
0.0
 10
10.5048032261
 20
9.1188309303
 30
0.0
 10
10.5032810983
 20
9.1207961729
 30
0.0
 10
10.5017589662
 20
9.1227614136
 30
0.0
 10
10.4997294583
 20
9.1253817351
 30
0.0
 10
10.4971925728
 20
9.1286571368
 30
0.0
 10
10.4946556876
 20
9.1319325387
 30
0.0
 10
10.4926261792
 20
9.1345528599
 30
0.0
 10
10.4911040486
 20
9.1365181017
 30
0.0
 10
10.489581915
 20
9.13848334
 30
0.0
 10
10.48831348
 20
9.1401210495
 30
0.0
 10
10.4872987102
 20
9.1414311927
 30
0.0
 10
10.4866645287
 20
9.1422500878
 30
0.0
 10
10.4861570699
 20
9.1429050764
 30
0.0
 10
10.4857767867
 20
9.1433966672
 30
0.0
 10
10.4854588954
 20
9.1438052147
 30
0.0
 10
10.4852383114
 20
9.1440933792
 30
0.0
 10
10.4851092344
 20
9.1442546389
 30
0.0
 10
10.4850209597
 20
9.1443851775
 30
0.0
 10
10.484900067
 20
9.1444790434
 30
0.0
 10
10.4847502542
 20
9.1446169899
 30
0.0
 10
10.4844827809
 20
9.1448524362
 30
0.0
 10
10.4841034476
 20
9.1451919039
 30
0.0
 10
10.4836470614
 20
9.1455979315
 30
0.0
 10
10.4830389608
 20
9.1461397675
 30
0.0
 10
10.4822786931
 20
9.1468169029
 30
0.0
 10
10.4810623442
 20
9.1479004088
 30
0.0
 10
10.4795418808
 20
9.1492547606
 30
0.0
 10
10.4777173364
 20
9.1508799958
 30
0.0
 10
10.4758927888
 20
9.1525052275
 30
0.0
 10
10.4734600599
 20
9.1546722044
 30
0.0
 10
10.4704191483
 20
9.157380925
 30
0.0
 10
10.467378237
 20
9.1600896459
 30
0.0
 10
10.4649455076
 20
9.1622566222
 30
0.0
 10
10.4631209613
 20
9.1638818555
 30
0.0
 10
10.4612964123
 20
9.165507085
 30
0.0
 10
10.4597759631
 20
9.1668614546
 30
0.0
 10
10.4585595853
 20
9.167944924
 30
0.0
 10
10.4577993911
 20
9.1686221523
 30
0.0
 10
10.4571911396
 20
9.1691637978
 30
0.0
 10
10.4567352144
 20
9.1695704072
 30
0.0
 10
10.4563544387
 20
9.1699080547
 30
0.0
 10
10.4560895403
 20
9.1701467504
 30
0.0
 10
10.455935602
 20
9.1702794904
 30
0.0
 10
10.4558273816
 20
9.1703893488
 30
0.0
 10
10.4556915117
 20
9.1704598223
 30
0.0
 10
10.4555199963
 20
9.1705675249
 30
0.0
 10
10.4552153507
 20
9.1707496037
 30
0.0
 10
10.4547824921
 20
9.1710130625
 30
0.0
 10
10.4542620562
 20
9.1713277808
 30
0.0
 10
10.4535684929
 20
9.1717479055
 30
0.0
 10
10.4527014185
 20
9.1722728901
 30
0.0
 10
10.4513141667
 20
9.1731129612
 30
0.0
 10
10.4495800788
 20
9.1741630171
 30
0.0
 10
10.4474991833
 20
9.1754230983
 30
0.0
 10
10.4454182851
 20
9.1766831758
 30
0.0
 10
10.4426437551
 20
9.1783632804
 30
0.0
 10
10.4391755923
 20
9.1804634107
 30
0.0
 10
10.4357074297
 20
9.1825635413
 30
0.0
 10
10.4329328994
 20
9.1842436453
 30
0.0
 10
10.4308520021
 20
9.1855037245
 30
0.0
 10
10.4287711031
 20
9.1867637994
 30
0.0
 10
10.4270370262
 20
9.1878138751
 30
0.0
 10
10.4256497519
 20
9.1886539059
 30
0.0
 10
10.4247827346
 20
9.1891789929
 30
0.0
 10
10.4240890542
 20
9.1895989074
 30
0.0
 10
10.4235689759
 20
9.1899142678
 30
0.0
 10
10.4231349984
 20
9.1901757176
 30
0.0
 10
10.4228323502
 20
9.1903613829
 30
0.0
 10
10.4226576346
 20
9.190463339
 30
0.0
 10
10.4225315947
 20
9.1905514638
 30
0.0
 10
10.4223864543
 20
9.1905950269
 30
0.0
 10
10.4221995961
 20
9.1906686546
 30
0.0
 10
10.4218694902
 20
9.1907902611
 30
0.0
 10
10.4213995333
 20
9.190967771
 30
0.0
 10
10.4208348903
 20
9.1911791621
 30
0.0
 10
10.4200822755
 20
9.191461583
 30
0.0
 10
10.4191414241
 20
9.1918144154
 30
0.0
 10
10.4176361081
 20
9.1923790555
 30
0.0
 10
10.4157544473
 20
9.1930848184
 30
0.0
 10
10.4134964611
 20
9.1939317498
 30
0.0
 10
10.4112384731
 20
9.194778677
 30
0.0
 10
10.408227823
 20
9.1959079147
 30
0.0
 10
10.4044645102
 20
9.1973194613
 30
0.0
 10
10.4007011975
 20
9.1987310083
 30
0.0
 10
10.3976905473
 20
9.1998602454
 30
0.0
 10
10.3954325599
 20
9.2007071745
 30
0.0
 10
10.3931745712
 20
9.2015540989
 30
0.0
 10
10.3912929182
 20
9.2022598835
 30
0.0
 10
10.3897875862
 20
9.2028244794
 30
0.0
 10
10.3888467756
 20
9.2031774243
 30
0.0
 10
10.388094077
 20
9.2034596142
 30
0.0
 10
10.3875296901
 20
9.2036717112
 30
0.0
 10
10.3870589319
 20
9.2038470125
 30
0.0
 10
10.3867302564
 20
9.2039725615
 30
0.0
 10
10.3865411064
 20
9.2040398724
 30
0.0
 10
10.3864030057
 20
9.2041028389
 30
0.0
 10
10.3862505258
 20
9.204118088
 30
0.0
 10
10.3860522349
 20
9.2041550645
 30
0.0
 10
10.385702889
 20
9.2042120185
 30
0.0
 10
10.3852050452
 20
9.2042974358
 30
0.0
 10
10.3846071096
 20
9.204398201
 30
0.0
 10
10.3838100449
 20
9.2045331609
 30
0.0
 10
10.3828136514
 20
9.2047016531
 30
0.0
 10
10.3812194568
 20
9.2049713567
 30
0.0
 10
10.3792267015
 20
9.2053084464
 30
0.0
 10
10.3768354003
 20
9.205712971
 30
0.0
 10
10.3744440977
 20
9.2061174912
 30
0.0
 10
10.3712556948
 20
9.2066568529
 30
0.0
 10
10.367270191
 20
9.2073310545
 30
0.0
 10
10.3632846872
 20
9.2080052565
 30
0.0
 10
10.3600962842
 20
9.2085446176
 30
0.0
 10
10.3577049818
 20
9.2089491397
 30
0.0
 10
10.3553136799
 20
9.2093536569
 30
0.0
 10
10.353320927
 20
9.2096907698
 30
0.0
 10
10.3517267276
 20
9.2099604261
 30
0.0
 10
10.3507303462
 20
9.2101290386
 30
0.0
 10
10.3499332566
 20
9.2102637515
 30
0.0
 10
10.3493353969
 20
9.2103652712
 30
0.0
 10
10.3488373158
 20
9.2104483281
 30
0.0
 10
10.3484883934
 20
9.2105094956
 30
0.0
 10
10.348289424
 20
9.2105397211
 30
0.0
 10
10.3481390284
 20
9.2105757074
 30
0.0
 10
10.3479930995
 20
9.2105607884
 30
0.0
 10
10.3477969695
 20
9.2105586528
 30
0.0
 10
10.347454468
 20
9.2105466425
 30
0.0
 10
10.3469648007
 20
9.2105338101
 30
0.0
 10
10.3463773623
 20
9.2105165599
 30
0.0
 10
10.3455940544
 20
9.2104942062
 30
0.0
 10
10.3446149389
 20
9.2104660427
 30
0.0
 10
10.3430483433
 20
9.2104211049
 30
0.0
 10
10.3410901025
 20
9.2103648902
 30
0.0
 10
10.338740212
 20
9.2102974507
 30
0.0
 10
10.3363903219
 20
9.2102300064
 30
0.0
 10
10.333257135
 20
9.2101400823
 30
0.0
 10
10.3293406513
 20
9.2100276766
 30
0.0
 10
10.3254241677
 20
9.2099152713
 30
0.0
 10
10.3222909808
 20
9.2098253466
 30
0.0
 10
10.3199410904
 20
9.2097579042
 30
0.0
 10
10.317591201
 20
9.2096904572
 30
0.0
 10
10.3156329569
 20
9.2096342661
 30
0.0
 10
10.314066368
 20
9.2095892802
 30
0.0
 10
10.3130872354
 20
9.2095612391
 30
0.0
 10
10.3123039628
 20
9.2095386342
 30
0.0
 10
10.3117164164
 20
9.2095221515
 30
0.0
 10
10.311227087
 20
9.2095069179
 30
0.0
 10
10.3108839822
 20
9.209499194
 30
0.0
 10
10.3106888189
 20
9.2094901904
 30
0.0
 10
10.3105399208
 20
9.2094963679
 30
0.0
 10
10.3104006768
 20
9.2094531194
 30
0.0
 10
10.3102116506
 20
9.2094126952
 30
0.0
 10
10.3098824238
 20
9.2093339201
 30
0.0
 10
10.3094112795
 20
9.2092255838
 30
0.0
 10
10.3088462574
 20
9.2090937828
 30
0.0
 10
10.3080927721
 20
9.2089186759
 30
0.0
 10
10.3071509574
 20
9.2086995773
 30
0.0
 10
10.3056440303
 20
9.2083491397
 30
0.0
 10
10.3037603796
 20
9.2079110515
 30
0.0
 10
10.3014999953
 20
9.2073853634
 30
0.0
 10
10.2992396119
 20
9.2068596705
 30
0.0
 10
10.296225767
 20
9.2061587482
 30
0.0
 10
10.292458461
 20
9.2052825949
 30
0.0
 10
10.288691155
 20
9.2044064419
 30
0.0
 10
10.2856773103
 20
9.203705519
 30
0.0
 10
10.2834169263
 20
9.203179828
 30
0.0
 10
10.2811565441
 20
9.2026541326
 30
0.0
 10
10.2792728867
 20
9.2022160671
 30
0.0
 10
10.2777659734
 20
9.2018655832
 30
0.0
 10
10.2768241238
 20
9.2016466025
 30
0.0
 10
10.27607071
 20
9.2014712535
 30
0.0
 10
10.2755054692
 20
9.2013401921
 30
0.0
 10
10.2750350092
 20
9.2012295418
 30
0.0
 10
10.2747045608
 20
9.2011548977
 30
0.0
 10
10.274517492
 20
9.2011078545
 30
0.0
 10
10.2743722355
 20
9.2010849374
 30
0.0
 10
10.2742459193
 20
9.201014754
 30
0.0
 10
10.2740708911
 20
9.2009376631
 30
0.0
 10
10.2737676699
 20
9.2007950725
 30
0.0
 10
10.2733328875
 20
9.2005953876
 30
0.0
 10
10.2728118375
 20
9.2003540468
 30
0.0
 10
10.2721168635
 20
9.2000328595
 30
0.0
 10
10.2712482284
 20
9.1996311697
 30
0.0
 10
10.2698583662
 20
9.198988581
 30
0.0
 10
10.2681210542
 20
9.1981853056
 30
0.0
 10
10.2660362731
 20
9.1972213921
 30
0.0
 10
10.2639514938
 20
9.1962574741
 30
0.0
 10
10.2611717874
 20
9.1949722517
 30
0.0
 10
10.2576971546
 20
9.193365723
 30
0.0
 10
10.2542225217
 20
9.1917591948
 30
0.0
 10
10.2514428155
 20
9.1904739717
 30
0.0
 10
10.2493580354
 20
9.1895100556
 30
0.0
 10
10.2472732575
 20
9.188546135
 30
0.0
 10
10.2455359354
 20
9.1877428817
 30
0.0
 10
10.2441460939
 20
9.1871002481
 30
0.0
 10
10.243277406
 20
9.1866986725
 30
0.0
 10
10.2425825402
 20
9.1863772508
 30
0.0
 10
10.2420611596
 20
9.1861366257
 30
0.0
 10
10.2416274116
 20
9.1859347016
 30
0.0
 10
10.2413223439
 20
9.1857961084
 30
0.0
 10
10.2411502742
 20
9.1857126127
 30
0.0
 10
10.2410148705
 20
9.1856621028
 30
0.0
 10
10.2409037454
 20
9.1855652953
 30
0.0
 10
10.2407471101
 20
9.1854523677
 30
0.0
 10
10.2404769439
 20
9.1852472203
 30
0.0
 10
10.2400889293
 20
9.1849580862
 30
0.0
 10
10.2396241948
 20
9.1846094416
 30
0.0
 10
10.2390042404
 20
9.1841451703
 30
0.0
 10
10.2382294029
 20
9.1835646297
 30
0.0
 10
10.236989604
 20
9.1826358773
 30
0.0
 10
10.2354398756
 20
9.1814748982
 30
0.0
 10
10.2335801929
 20
9.1800817398
 30
0.0
 10
10.2317205125
 20
9.178688577
 30
0.0
 10
10.2292409377
 20
9.1768310281
 30
0.0
 10
10.2261414697
 20
9.1745090914
 30
0.0
 10
10.2230420013
 20
9.1721871551
 30
0.0
 10
10.2205624271
 20
9.1703296057
 30
0.0
 10
10.2187027454
 20
9.1689364446
 30
0.0
 10
10.2168430674
 20
9.16754328
 30
0.0
 10
10.2152933241
 20
9.1663823201
 30
0.0
 10
10.2140535555
 20
9.1654535286
 30
0.0
 10
10.213278641
 20
9.1648730875
 30
0.0
 10
10.2126588448
 20
9.1644086118
 30
0.0
 10
10.2121936268
 20
9.1640605915
 30
0.0
 10
10.2118071251
 20
9.1637695042
 30
0.0
 10
10.2115342582
 20
9.1635678437
 30
0.0
 10
10.21138195
 20
9.1634493292
 30
0.0
 10
10.2112575332
 20
9.1633696828
 30
0.0
 10
10.2111720512
 20
9.1632547183
 30
0.0
 10
10.2110444943
 20
9.1631137517
 30
0.0
 10
10.2108275974
 20
9.1628613202
 30
0.0
 10
10.2105144365
 20
9.1625037047
 30
0.0
 10
10.2101400594
 20
9.1620732816
 30
0.0
 10
10.2096403953
 20
9.1614998328
 30
0.0
 10
10.2090159846
 20
9.1607828682
 30
0.0
 10
10.2080168328
 20
9.1596358107
 30
0.0
 10
10.2067679255
 20
9.1582019593
 30
0.0
 10
10.2052692229
 20
9.1564813502
 30
0.0
 10
10.203770524
 20
9.1547607378
 30
0.0
 10
10.2017722575
 20
9.1524665891
 30
0.0
 10
10.1992744248
 20
9.1495989028
 30
0.0
 10
10.1967765918
 20
9.1467312168
 30
0.0
 10
10.1947783258
 20
9.1444370677
 30
0.0
 10
10.1932796253
 20
9.1427164566
 30
0.0
 10
10.1917809287
 20
9.1409958426
 30
0.0
 10
10.1905320026
 20
9.1395620067
 30
0.0
 10
10.1895328892
 20
9.1384149176
 30
0.0
 10
10.1889083806
 20
9.1376980333
 30
0.0
 10
10.1884089175
 20
9.1371244196
 30
0.0
 10
10.1880339266
 20
9.1366945001
 30
0.0
 10
10.187722686
 20
9.1363353091
 30
0.0
 10
10.187502361
 20
9.1360856902
 30
0.0
 10
10.1873802967
 20
9.1359402171
 30
0.0
 10
10.1872779434
 20
9.135839095
 30
0.0
 10
10.1872168925
 20
9.1357074589
 30
0.0
 10
10.1871210846
 20
9.1355425878
 30
0.0
 10
10.1869601331
 20
9.1352491043
 30
0.0
 10
10.186726693
 20
9.1348324348
 30
0.0
 10
10.1864480671
 20
9.1343313217
 30
0.0
 10
10.1860760412
 20
9.1336635585
 30
0.0
 10
10.1856111884
 20
9.1328287217
 30
0.0
 10
10.1848673236
 20
9.1314930571
 30
0.0
 10
10.183937527
 20
9.1298234508
 30
0.0
 10
10.1828217564
 20
9.1278199342
 30
0.0
 10
10.1817059897
 20
9.1258164147
 30
0.0
 10
10.1802182994
 20
9.1231450564
 30
0.0
 10
10.1783586871
 20
9.1198058582
 30
0.0
 10
10.1764990743
 20
9.1164666601
 30
0.0
 10
10.1750113846
 20
9.1137953015
 30
0.0
 10
10.1738956162
 20
9.111791783
 30
0.0
 10
10.1727798521
 20
9.1097882625
 30
0.0
 10
10.1718500351
 20
9.1081186686
 30
0.0
 10
10.1711062121
 20
9.1067829787
 30
0.0
 10
10.170641253
 20
9.1059482063
 30
0.0
 10
10.1702694453
 20
9.1052803109
 30
0.0
 10
10.1699901525
 20
9.1047796016
 30
0.0
 10
10.1697587991
 20
9.1043616686
 30
0.0
 10
10.1695941226
 20
9.1040704407
 30
0.0
 10
10.169504283
 20
9.1039019555
 30
0.0
 10
10.1694248991
 20
9.1037814209
 30
0.0
 10
10.1693914015
 20
9.1036386035
 30
0.0
 10
10.1693307324
 20
9.1034559528
 30
0.0
 10
10.1692320189
 20
9.1031326927
 30
0.0
 10
10.1690871007
 20
9.1026727859
 30
0.0
 10
10.1689148676
 20
9.1021200872
 30
0.0
 10
10.1686846407
 20
9.1013834388
 30
0.0
 10
10.1683970566
 20
9.1004625314
 30
0.0
 10
10.1679368106
 20
9.0989891336
 30
0.0
 10
10.1673615413
 20
9.0971473678
 30
0.0
 10
10.1666712017
 20
9.0949372568
 30
0.0
 10
10.1659808665
 20
9.0927271437
 30
0.0
 10
10.1650604181
 20
9.089780327
 30
0.0
 10
10.1639098581
 20
9.0860968058
 30
0.0
 10
10.1627592978
 20
9.0824132847
 30
0.0
 10
10.16183885
 20
9.0794664677
 30
0.0
 10
10.1611485129
 20
9.0772563554
 30
0.0
 10
10.1604581805
 20
9.0750462414
 30
0.0
 10
10.1598828889
 20
9.073204485
 30
0.0
 10
10.1594226882
 20
9.0717310681
 30
0.0
 10
10.1591349888
 20
9.0708102095
 30
0.0
 10
10.1589049987
 20
9.0700734608
 30
0.0
 10
10.158732042
 20
9.0695210685
 30
0.0
 10
10.1585893879
 20
9.0690602033
 30
0.0
 10
10.1584866326
 20
9.0687386539
 30
0.0
 10
10.1584324393
 20
9.0685532623
 30
0.0
 10
10.1583790502
 20
9.0684188641
 30
0.0
 10
10.1583743756
 20
9.0682667083
 30
0.0
 10
10.1583511506
 20
9.068070028
 30
0.0
 10
10.1583184238
 20
9.0677229516
 30
0.0
 10
10.1582675321
 20
9.0672286368
 30
0.0
 10
10.1582082338
 20
9.0666348134
 30
0.0
 10
10.1581285506
 20
9.0658432743
 30
0.0
 10
10.1580291585
 20
9.0648537733
 30
0.0
 10
10.1578700127
 20
9.0632706147
 30
0.0
 10
10.1576711211
 20
9.0612916518
 30
0.0
 10
10.1574324337
 20
9.0589169025
 30
0.0
 10
10.157193751
 20
9.0565421516
 30
0.0
 10
10.1568755057
 20
9.0533758177
 30
0.0
 10
10.1564776997
 20
9.0494179
 30
0.0
 10
10.1560003323
 20
9.0446683989
 30
0.0
 10
10.1553638424
 20
9.0383357308
 30
0.0
 10
10.154886475
 20
9.0335862297
 30
0.0
 10
10.1545682301
 20
9.0304198956
 30
0.0
  0
ENDSEC
  0
SECTION
  2
OBJECTS
  0
DICTIONARY
  5
C
100
AcDbDictionary
280
0
281
1
  3
ACAD_GROUP
350
D
  3
ACAD_MLINESTYLE
350
17
  3
ACAD_LAYOUT
350
1A
  3
ACAD_PLOTSETTINGS
350
19
  3
ACAD_PLOTSTYLENAME
350
E
  3
ACAD_IMAGE_DICT
350
       362
  3
ACAD_IMAGE_VARS
350
       363
  3
ACAD_TABLESTYLE
350
       364
  0
IMAGEDEF_REACTOR
  5
361
100
AcDbRasterImageDefReactor
 90
2
330
287
  0
DICTIONARY
  5
D
102
{ACAD_REACTORS
330
C
102
}
100
AcDbDictionary
280
0
281
1
  0
ACDBDICTIONARYWDFLT
  5
E
102
{ACAD_REACTORS
330
C
102
}
100
AcDbDictionary
281
1
  3
Normal
350
F
100
AcDbDictionaryWithDefault
340
F
  0
DICTIONARY
  5
362
330
C
100
AcDbDictionary
281
1
  3
DNJ_assy_2_img_1
350
       367
  0
RASTERVARIABLES
  5
363
330
C
100
AcDbRasterVariables
 90
0
 70
0
 71
1
 72
5
  0
DICTIONARY
  5
17
102
{ACAD_REACTORS
330
C
102
}
100
AcDbDictionary
280
0
281
1
  3
Standard
350
18
  0
DICTIONARY
  5
364
330
C
100
AcDbDictionary
281
1
  3
Standard
350
       368
  3
Standard1
350
       369
  0
DICTIONARY
  5
19
102
{ACAD_REACTORS
330
C
102
}
100
AcDbDictionary
281
1
  0
DICTIONARY
  5
1A
102
{ACAD_REACTORS
330
C
102
}
100
AcDbDictionary
281
1
  3
Model
350
365
  3
Layout1
350
366
  0
ACDBPLACEHOLDER
  5
F
102
{ACAD_REACTORS
330
E
102
}
  0
MLINESTYLE
  5
18
102
{ACAD_REACTORS
330
17
102
}
100
AcDbMlineStyle
  2
STANDARD
 70
0
  3

 62
256
 51
90.0
 52
90.0
 71
2
 49
0.5
 62
256
  6
BYLAYER
 49
-0.5
 62
256
  6
BYLAYER
  0
LAYOUT
  5
365
102
{ACAD_REACTORS
330
1A
102
}
100
AcDbPlotSettings
  1

  2
none_device
  4
ANSI_C_(22.00_x_17.00_Inches)
  6

 40
0.0
 41
0.0
 42
0.0
 43
0.0
 44
558.8
 45
431.8
 46
0.0
 47
0.0
 48
0.0
 49
0.0
140
0.0
141
0.0
142
1.0
143
1.0
 70
1024
 72
0
 73
0
 74
0
  7

 75
0
147
1.0
148
0.0
149
0.0
100
AcDbLayout
  1
Model
 70
0
 71
0
 10
0.0
 20
0.0
 11
22.0
 21
17.0
 12
0.0
 22
0.0
 32
0.0
 14
0.0
 24
0.0
 34
0.0
 15
0.0
 25
0.0
 35
0.0
146
0.0
 13
0.0
 23
0.0
 33
0.0
 16
1.0
 26
0.0
 36
0.0
 17
0.0
 27
1.0
 37
0.0
 76
0
330
20C
345
0
346
0
  0
LAYOUT
  5
366
102
{ACAD_REACTORS
330
1A
102
}
100
AcDbPlotSettings
  1

  2
none_device
  4
ANSI_C_(22.00_x_17.00_Inches)
  6

 40
0.0
 41
0.0
 42
0.0
 43
0.0
 44
558.8
 45
431.8
 46
0.0
 47
0.0
 48
0.0
 49
0.0
140
0.0
141
0.0
142
1.0
143
1.0
 70
0
 72
0
 73
0
 74
0
  7

 75
0
147
1.0
148
0.0
149
0.0
100
AcDbLayout
  1
Layout1
 70
0
 71
1
 10
0.0
 20
0.0
 11
22.0
 21
17.0
 12
0.0
 22
0.0
 32
0.0
 14
0.0
 24
0.0
 34
0.0
 15
0.0
 25
0.0
 35
0.0
146
0.0
 13
0.0
 23
0.0
 33
0.0
 16
1.0
 26
0.0
 36
0.0
 17
0.0
 27
1.0
 37
0.0
 76
0
330
20D
345
0
346
0
  0
IMAGEDEF
  5
367
102
{ACAD_REACTORS
330
362
330
361
102
}
100
AcDbRasterImageDef
 90
0
  1
DNJ_assy_2_img_1.png
 10
369.0
 20
92.0
 11
0.0066666667
 21
0.0066666667
280
1
281
0
  0
TABLESTYLE
  5
368
102
{ACAD_REACTORS
330
364
330
28A
330
28B
102
}
330
364
100
AcDbTableStyle
  3
Standard
 70
0
 71
0
 40
0.06
 41
0.06
280
1
281
1
  7
Standard
140
0.18
170
1
 62
0
 63
7
283
0
  7
Standard
140
0.18
170
1
 62
0
 63
7
283
0
  7
Standard
140
0.18
170
1
 62
0
 63
7
283
0
  0
TABLESTYLE
  5
369
102
{ACAD_REACTORS
330
364
330
289
102
}
330
364
100
AcDbTableStyle
  3
Standard1
 70
1
 71
0
 40
0.06
 41
0.06
280
1
281
1
  7
Standard
140
0.18
170
1
 62
0
 63
7
283
0
  7
Standard
140
0.18
170
1
 62
0
 63
7
283
0
  7
Standard
140
0.18
170
1
 62
0
 63
7
283
0
  0
ENDSEC
  0
EOF
