999
DXF file: DNB_assy_2.dxf
999
Pro/ENGINEER 2014200 by Parametric Technology Corporation
  0
SECTION
  2
HEADER
  9
$ACADVER
  1
AC1021
  9
$DWGCODEPAGE
  3
ANSI_1252
  9
$EXTMAX
 10
22.0
 20
17.0
 30
0.0
  9
$EXTMIN
 10
0.0
 20
0.0
 30
0.0
  9
$LIMMIN
 10
0.0
 20
0.0
  9
$LIMMAX
 10
22.0
 20
17.0
  9
$VIEWCTR
 10
11.0
 20
8.5
  9
$VIEWSIZE
 40
17.0
  9
$CLAYER
  8
0
  9
$LTSCALE
 40
1.21
  9
$CELTYPE
  6
BYLAYER
  9
$DIMSCALE
 40
1.0
  9
$DIMASZ
 40
0.1875
  9
$DIMEXO
 40
0.0625
  9
$DIMDLI
 40
0.836
  9
$DIMEXE
 40
0.125
  9
$DIMCEN
 40
0.198
  9
$DIMLFAC
 40
1.0
  9
$DIMBLK
  1
_FILLED
  9
$DIMTXT
 40
0.1
  9
$DIMTOL
 70
0
  9
$DIMLIM
 70
0
  9
$DIMTFAC
 40
1.0
  9
$DIMGAP
 40
0.09
  9
$DIMDSEP
 70
46
  9
$AUNITS
 70
0
  9
$PDMODE
 70
3
  9
$PDSIZE
 40
0.3125
  9
$HANDSEED
  5
2D3
  9
$TILEMODE
 70
1
  9
$MEASUREMENT
 70
0
  9
$INSUNITS
 70
1
  0
ENDSEC
  0
SECTION
  2
CLASSES
  0
CLASS
  1
ACDBDICTIONARYWDFLT
  2
AcDbDictionaryWithDefault
  3
AutoCAD 2000
 90
0
 91
1
280
0
281
0
  0
CLASS
  1
ACDBPLACEHOLDER
  2
AcDbPlaceHolder
  3
AutoCAD 2000
 90
0
 91
1
280
0
281
0
  0
CLASS
  1
LAYOUT
  2
AcDbLayout
  3
AutoCAD 2000
 90
0
 91
0
280
0
281
0
  0
CLASS
  1
RASTERVARIABLES
  2
AcDbRasterVariables
  3
ISM
 90
0
 91
1
280
0
281
0
  0
CLASS
  1
IMAGEDEF
  2
AcDbRasterImageDef
  3
ISM
 90
0
 91
1
280
0
281
0
  0
CLASS
  1
IMAGEDEF_REACTOR
  2
AcDbRasterImageDefReactor
  3
ISM
 90
0
 91
1
280
0
281
0
  0
CLASS
  1
IMAGE
  2
AcDbRasterImage
  3
ISM
 90
127
 91
1
280
0
281
1
  0
CLASS
  1
TABLESTYLE
  2
AcDbTableStyle
  3
ObjectDBX Classes
 90
2047
 91
1
280
0
281
0
  0
CLASS
  1
ACAD_TABLE
  2
AcDbTable
  3
ObjectDBX Classes
 90
1025
 91
3
280
0
281
1
  0
ENDSEC
  0
SECTION
  2
TABLES
  0
TABLE
  2
VPORT
  5
8
100
AcDbSymbolTable
 70
2
  0
VPORT
  5
1F4
100
AcDbSymbolTableRecord
100
AcDbViewportTableRecord
  2
*ACTIVE
 70
0
 10
0.0
 20
0.0
 11
1.0
 21
1.0
 12
11.0
 22
8.5
 13
0.0
 23
0.0
 14
1.0
 24
1.0
 15
0.0
 25
0.0
 16
0.0
 26
0.0
 36
1.0
 17
0.0
 27
0.0
 37
0.0
 40
17.0
 41
1.2941176471
 42
50.0
 43
0.0
 44
0.0
 50
0.0
 51
0.0
 71
0
 72
100
 73
1
 74
1
 75
0
 76
0
 77
0
 78
0
  0
ENDTAB
  0
TABLE
  2
LTYPE
  5
5
100
AcDbSymbolTable
 70
6
  0
LTYPE
  5
14
100
AcDbSymbolTableRecord
100
AcDbLinetypeTableRecord
  2
BYBLOCK
 70
0
  3

 72
65
 73
0
 40
0.0
  0
LTYPE
  5
15
100
AcDbSymbolTableRecord
100
AcDbLinetypeTableRecord
  2
BYLAYER
 70
0
  3

 72
65
 73
0
 40
0.0
  0
LTYPE
  5
16
100
AcDbSymbolTableRecord
100
AcDbLinetypeTableRecord
  2
CONTINUOUS
 70
64
  3
Solid line
 72
65
 73
0
 40
0.0
  0
LTYPE
  5
1F5
100
AcDbSymbolTableRecord
100
AcDbLinetypeTableRecord
  2
CENTER
 70
64
  3
____ _ ____ _ ____ _ ____ _ ____ _ ____ _ ____
 72
65
 73
4
 40
0.6
 49
0.375
 74
0
 49
-0.075
 74
0
 49
0.075
 74
0
 49
-0.075
 74
0
  0
LTYPE
  5
1F6
100
AcDbSymbolTableRecord
100
AcDbLinetypeTableRecord
  2
HIDDEN
 70
64
  3
- - - - - - - - - - - - - - - - - - - -
 72
65
 73
2
 40
0.2
 49
0.1
 74
0
 49
-0.1
 74
0
  0
LTYPE
  5
1F7
100
AcDbSymbolTableRecord
100
AcDbLinetypeTableRecord
  2
PHANTOM
 70
64
  3
_____ _ _ _____ _ _ _____ _ _ _____
 72
65
 73
6
 40
0.8
 49
0.45
 74
0
 49
-0.05
 74
0
 49
0.1
 74
0
 49
-0.05
 74
0
 49
0.1
 74
0
 49
-0.05
 74
0
  0
LTYPE
  5
1F8
100
AcDbSymbolTableRecord
100
AcDbLinetypeTableRecord
  2
DOT
 70
64
  3
. . . . . . . . . . . . . . . . . . . .
 72
65
 73
2
 40
0.2
 49
0.1
 74
0
 49
-0.1
 74
0
  0
LTYPE
  5
1F9
100
AcDbSymbolTableRecord
100
AcDbLinetypeTableRecord
  2
DASHED
 70
64
  3
- - - - - - - - - - - - - - - - - - - -
 72
65
 73
2
 40
0.2
 49
0.1
 74
0
 49
-0.1
 74
0
  0
ENDTAB
  0
TABLE
  2
LAYER
  5
2
100
AcDbSymbolTable
 70
36
  0
LAYER
  5
10
100
AcDbSymbolTableRecord
100
AcDbLayerTableRecord
  2
0
 70
0
 62
7
  6
CONTINUOUS
370
-3
390
F
  0
LAYER
  5
1FA
100
AcDbSymbolTableRecord
100
AcDbLayerTableRecord
  2
DEFAULT_1
 70
0
 62
7
  6
CENTER
370
-3
390
F
  0
LAYER
  5
1FB
100
AcDbSymbolTableRecord
100
AcDbLayerTableRecord
  2
DEFAULT_2
 70
0
 62
8
  6
HIDDEN
370
-3
390
F
  0
LAYER
  5
1FC
100
AcDbSymbolTableRecord
100
AcDbLayerTableRecord
  2
DEFAULT_3
 70
0
 62
7
  6
PHANTOM
370
-3
390
F
  0
LAYER
  5
1FD
100
AcDbSymbolTableRecord
100
AcDbLayerTableRecord
  2
DATUM_PLANES
 70
0
 62
7
  6
CONTINUOUS
370
-3
390
F
  0
LAYER
  5
1FE
100
AcDbSymbolTableRecord
100
AcDbLayerTableRecord
  2
PORT_AREAS
 70
0
 62
7
  6
CONTINUOUS
370
-3
390
F
  0
LAYER
  5
1FF
100
AcDbSymbolTableRecord
100
AcDbLayerTableRecord
  2
SUNNBOMCOSMETIC
 70
0
 62
7
  6
CONTINUOUS
370
-3
390
F
  0
LAYER
  5
200
100
AcDbSymbolTableRecord
100
AcDbLayerTableRecord
  2
SUNNBOMSTAMPING
 70
0
 62
7
  6
CONTINUOUS
370
-3
390
F
  0
LAYER
  5
201
100
AcDbSymbolTableRecord
100
AcDbLayerTableRecord
  2
THREADS
 70
0
 62
7
  6
CONTINUOUS
370
-3
390
F
  0
ENDTAB
  0
TABLE
  2
STYLE
  5
3
100
AcDbSymbolTable
 70
1
  0
STYLE
  5
11
100
AcDbSymbolTableRecord
100
AcDbTextStyleTableRecord
  2
STANDARD
 70
0
 40
0.0
 41
0.8
 50
0.0
 71
0
 42
0.2
  3
txt
  4

  0
STYLE
  5
202
100
AcDbSymbolTableRecord
100
AcDbTextStyleTableRecord
  2
TEXTSTYLE_1
 70
0
 40
0.0
 41
0.8
 50
0.0
 71
0
 42
0.2
  3
gdt
  4

  0
ENDTAB
  0
TABLE
  2
VIEW
  5
6
100
AcDbSymbolTable
 70
0
  0
ENDTAB
  0
TABLE
  2
UCS
  5
7
100
AcDbSymbolTable
 70
0
  0
ENDTAB
  0
TABLE
  2
APPID
  5
9
100
AcDbSymbolTable
 70
1
  0
APPID
  5
203
100
AcDbSymbolTableRecord
100
AcDbRegAppTableRecord
  2
ACAD
 70
0
  0
ENDTAB
  0
TABLE
  2
BLOCK_RECORD
  5
1
100
AcDbSymbolTable
 70
0
  0
BLOCK_RECORD
  5
204
100
AcDbSymbolTableRecord
100
AcDbBlockTableRecord
  2
*Model_Space
  0
BLOCK_RECORD
  5
205
100
AcDbSymbolTableRecord
100
AcDbBlockTableRecord
  2
*Paper_Space
  0
BLOCK_RECORD
  5
206
100
AcDbSymbolTableRecord
100
AcDbBlockTableRecord
  2
SUN_FIRST_THIRD_ANGLE_BL0
  0
BLOCK_RECORD
  5
207
100
AcDbSymbolTableRecord
100
AcDbBlockTableRecord
  2
*T1
  0
BLOCK_RECORD
  5
208
100
AcDbSymbolTableRecord
100
AcDbBlockTableRecord
  2
*T2
  0
BLOCK_RECORD
  5
209
100
AcDbSymbolTableRecord
100
AcDbBlockTableRecord
  2
*T3
  0
ENDTAB
  0
TABLE
  2
DIMSTYLE
  5
A
100
AcDbSymbolTable
 70
1
100
AcDbDimStyleTable
 71
0
  0
DIMSTYLE
105
20A
100
AcDbSymbolTableRecord
100
AcDbDimStyleTableRecord
  2
STANDARD
 70
0
  3

  4

 40
1.0
 41
0.1875
 42
0.0625
 43
0.38
 44
0.125
 45
0.0
 46
0.0
 47
0.001
 48
0.001
140
0.1
141
0.09
142
0.0
143
25.4
144
1.0
145
0.0
146
1.0
147
0.09
 71
0.0
 72
0.0
 73
1
 74
1
 75
0
 76
0
 77
0
 78
4
170
0
171
2
172
0
173
0
174
0
175
0
176
0
177
0
178
0
270
2
271
3
272
3
273
2
274
2
275
0
280
0
281
0
282
0
283
1
284
4
285
0
286
0
287
3
288
0
340
11
278
46
  0
ENDTAB
  0
ENDSEC
  0
SECTION
  2
BLOCKS
  0
BLOCK
  5
20
100
AcDbEntity
  8
0
100
AcDbBlockBegin
  2
*Model_Space
 70
0
 10
0.0
 20
0.0
 30
0.0
  3
*Model_Space
  1

  0
ENDBLK
  5
21
100
AcDbEntity
  8
0
100
AcDbBlockEnd
  0
BLOCK
  5
1C
100
AcDbEntity
  8
0
100
AcDbBlockBegin
  2
*Paper_Space
 70
0
 10
0.0
 20
0.0
 30
0.0
  3
*Paper_Space
  1

  0
ENDBLK
  5
1D
100
AcDbEntity
  8
0
100
AcDbBlockEnd
  0
BLOCK
  5
20B
100
AcDbEntity
  8
0
100
AcDbBlockBegin
 62
2
  6
CONTINUOUS
  2
SUN_FIRST_THIRD_ANGLE_BL0
 70
64
 10
20.4816717061
 20
1.2289683772
  3
SUN_FIRST_THIRD_ANGLE_BL0
  1

  0
TEXT
  5
20C
100
AcDbEntity
  8
0
100
AcDbText
 62
2
  6
CONTINUOUS
 10
19.4750896608
 20
1.4136269581
  7
STANDARD
 40
0.08
  1
FIRST ANGLE
 41
0.8
 72
0
100
AcDbText
  0
TEXT
  5
20D
100
AcDbEntity
  8
0
100
AcDbText
 62
2
  6
CONTINUOUS
 10
20.7842537513
 20
1.4047600029
  7
STANDARD
 40
0.08
  1
THIRD ANGLE
 41
0.8
 72
0
100
AcDbText
  0
LINE
  5
20E
100
AcDbEntity
  8
0
100
AcDbLine
 62
7
  6
CONTINUOUS
 10
19.4767170086
 20
1.1727031207
 11
19.6334271527
 21
1.1717972817
  0
LINE
  5
20F
100
AcDbEntity
  8
0
100
AcDbLine
 62
7
  6
CONTINUOUS
 10
19.6596964832
 20
1.1717972817
 11
19.6950230232
 21
1.171593082
  0
LINE
  5
210
100
AcDbEntity
  8
0
100
AcDbLine
 62
7
  6
CONTINUOUS
 10
19.7194818561
 20
1.1708914427
 11
19.8852396156
 21
1.1699333054
  0
LINE
  5
211
100
AcDbEntity
  8
0
100
AcDbLine
 62
7
  6
CONTINUOUS
 10
19.4758111696
 20
1.2723454088
 11
19.88525039
 21
1.3511534004
  0
LINE
  5
212
100
AcDbEntity
  8
0
100
AcDbLine
 62
7
  6
CONTINUOUS
 10
19.88525039
 20
1.3511534004
 11
19.8831348489
 21
0.9851647912
  0
LINE
  5
213
100
AcDbEntity
  8
0
100
AcDbLine
 62
7
  6
CONTINUOUS
 10
19.8831348489
 20
0.9851647912
 11
19.4767170086
 21
1.0658141206
  0
LINE
  5
214
100
AcDbEntity
  8
0
100
AcDbLine
 62
7
  6
CONTINUOUS
 10
19.4767170086
 20
1.0658141206
 11
19.4779056764
 21
1.2714536432
  0
CIRCLE
  5
215
100
AcDbEntity
  8
0
100
AcDbCircle
 62
7
  6
CONTINUOUS
 10
20.2068232291
 20
1.1717972817
 40
0.175742101
  0
CIRCLE
  5
216
100
AcDbEntity
  8
0
100
AcDbCircle
 62
7
  6
CONTINUOUS
 10
20.2068232291
 20
1.1717972817
 40
0.1005522074
  0
LINE
  5
217
100
AcDbEntity
  8
0
100
AcDbLine
 62
7
  6
CONTINUOUS
 10
20.2077290681
 20
1.3756110529
 11
20.2071171714
 21
1.2379342989
  0
LINE
  5
218
100
AcDbEntity
  8
0
100
AcDbLine
 62
7
  6
CONTINUOUS
 10
20.2077290681
 20
1.2016899681
 11
20.2074674401
 21
1.1428236749
  0
LINE
  5
219
100
AcDbEntity
  8
0
100
AcDbLine
 62
7
  6
CONTINUOUS
 10
20.208634907
 20
1.101141841
 11
20.2080230104
 21
0.963465087
  0
LINE
  5
21A
100
AcDbEntity
  8
0
100
AcDbLine
 62
7
  6
CONTINUOUS
 10
20.0066328138
 20
1.1745147986
 11
20.1443095678
 21
1.1739029019
  0
LINE
  5
21B
100
AcDbEntity
  8
0
100
AcDbLine
 62
7
  6
CONTINUOUS
 10
20.1832714155
 20
1.1727031207
 11
20.238153505
 21
1.172335442
  0
LINE
  5
21C
100
AcDbEntity
  8
0
100
AcDbLine
 62
7
  6
CONTINUOUS
 10
20.2756669918
 20
1.1717972817
 11
20.407916871
 21
1.1712095044
  0
CIRCLE
  5
21D
100
AcDbEntity
  8
0
100
AcDbCircle
 62
7
  6
CONTINUOUS
 10
20.7509457401
 20
1.1693297793
 40
0.1722024983
  0
CIRCLE
  5
21E
100
AcDbEntity
  8
0
100
AcDbCircle
 62
7
  6
CONTINUOUS
 10
20.7509457401
 20
1.1693297793
 40
0.0985164967
  0
LINE
  5
21F
100
AcDbEntity
  8
0
100
AcDbLine
 62
7
  6
CONTINUOUS
 10
20.7169767782
 20
1.170462078
 11
20.7825395137
 21
1.1682766535
  0
LINE
  5
220
100
AcDbEntity
  8
0
100
AcDbLine
 62
7
  6
CONTINUOUS
 10
20.8177513651
 20
1.1693297793
 11
20.947965719
 21
1.1693297793
  0
LINE
  5
221
100
AcDbEntity
  8
0
100
AcDbLine
 62
7
  6
CONTINUOUS
 10
20.6875370113
 20
1.170462078
 11
20.5573226574
 21
1.170462078
  0
LINE
  5
222
100
AcDbEntity
  8
0
100
AcDbLine
 62
7
  6
CONTINUOUS
 10
20.7486811426
 20
1.1987695462
 11
20.7486811426
 21
1.1432869085
  0
LINE
  5
223
100
AcDbEntity
  8
0
100
AcDbLine
 62
7
  6
CONTINUOUS
 10
20.7498134414
 20
1.1059210505
 11
20.7498134414
 21
0.9757066966
  0
LINE
  5
224
100
AcDbEntity
  8
0
100
AcDbLine
 62
7
  6
CONTINUOUS
 10
20.7486811426
 20
1.2338708068
 11
20.7486811426
 21
1.3640851607
  0
LINE
  5
225
100
AcDbEntity
  8
0
100
AcDbLine
 62
7
  6
CONTINUOUS
 10
21.0702539817
 20
1.2701043662
 11
21.4790138229
 21
1.3448360823
  0
LINE
  5
226
100
AcDbEntity
  8
0
100
AcDbLine
 62
7
  6
CONTINUOUS
 10
21.4790138229
 20
1.3448360823
 11
21.4790138229
 21
0.9779712941
  0
LINE
  5
227
100
AcDbEntity
  8
0
100
AcDbLine
 62
7
  6
CONTINUOUS
 10
21.4790138229
 20
0.9779712941
 11
21.069121683
 21
1.0617614
  0
LINE
  5
228
100
AcDbEntity
  8
0
100
AcDbLine
 62
7
  6
CONTINUOUS
 10
21.0702539817
 20
1.2701043662
 11
21.069121683
 21
1.0617614
  0
LINE
  5
229
100
AcDbEntity
  8
0
100
AcDbLine
 62
7
  6
CONTINUOUS
 10
21.4790138229
 20
1.1693297793
 11
21.3159628059
 21
1.1693297793
  0
LINE
  5
22A
100
AcDbEntity
  8
0
100
AcDbLine
 62
7
  6
CONTINUOUS
 10
21.2876553377
 20
1.1693297793
 11
21.2502894796
 21
1.1693297793
  0
LINE
  5
22B
100
AcDbEntity
  8
0
100
AcDbLine
 62
7
  6
CONTINUOUS
 10
21.2208497126
 20
1.1659328831
 11
21.0713862804
 21
1.1659328831
  0
LINE
  5
22C
100
AcDbEntity
  8
0
100
AcDbLine
 62
7
  6
CONTINUOUS
 10
20.4796138713
 20
1.5284908897
 11
20.4766766948
 21
0.9294458646
  0
ENDBLK
  5
22D
100
AcDbEntity
  8
0
  6
BYBLOCK
 62
0
100
AcDbBlockEnd
  0
BLOCK
  5
22E
100
AcDbEntity
  8
0
100
AcDbBlockBegin
  2
*T1
 70
1
 10
0.0
 20
0.0
  3
*T1
  1

  0
LINE
  5
22F
100
AcDbEntity
  8
0
100
AcDbLine
 62
2
  6
CONTINUOUS
 10
9.275
 20
0.0
 11
-0.0
 21
0.0
  0
LINE
  5
230
100
AcDbEntity
  8
0
100
AcDbLine
 62
2
  6
CONTINUOUS
 10
9.275
 20
0.0
 11
9.275
 21
1.25
  0
LINE
  5
231
100
AcDbEntity
  8
0
100
AcDbLine
 62
2
  6
CONTINUOUS
 10
9.275
 20
0.625
 11
-0.0
 21
0.625
  0
LINE
  5
232
100
AcDbEntity
  8
0
100
AcDbLine
 62
2
  6
CONTINUOUS
 10
9.275
 20
1.25
 11
-0.0
 21
1.25
  0
LINE
  5
233
100
AcDbEntity
  8
0
100
AcDbLine
 62
2
  6
CONTINUOUS
 10
6.8
 20
0.0
 11
6.8
 21
1.25
  0
LINE
  5
234
100
AcDbEntity
  8
0
100
AcDbLine
 62
2
  6
CONTINUOUS
 10
6.4
 20
0.0
 11
6.4
 21
0.625
  0
LINE
  5
235
100
AcDbEntity
  8
0
100
AcDbLine
 62
2
  6
CONTINUOUS
 10
5.9
 20
0.0
 11
5.9
 21
0.625
  0
LINE
  5
236
100
AcDbEntity
  8
0
100
AcDbLine
 62
2
  6
CONTINUOUS
 10
5.2
 20
0.0
 11
5.2
 21
0.625
  0
LINE
  5
237
100
AcDbEntity
  8
0
100
AcDbLine
 62
2
  6
CONTINUOUS
 10
4.1
 20
0.0
 11
4.1
 21
1.25
  0
LINE
  5
238
100
AcDbEntity
  8
0
100
AcDbLine
 62
2
  6
CONTINUOUS
 10
-0.0
 20
0.0
 11
-0.0
 21
1.25
  0
MTEXT
  5
239
100
AcDbEntity
  8
0
100
AcDbMText
 62
2
  6
CONTINUOUS
  7
STANDARD
 71
2
 72
1
 10
6.6
 20
0.325
 30
0.0
 11
1.0
 21
0.0
 31
0.0
 44
0.9
  1
2
 40
0.125
 41
0.2
  0
MTEXT
  5
23A
100
AcDbEntity
  8
0
100
AcDbMText
 62
2
  6
CONTINUOUS
  7
STANDARD
 71
2
 72
1
 10
6.15
 20
0.325
 30
0.0
 11
1.0
 21
0.0
 31
0.0
 44
0.9
  1
C
 40
0.125
 41
0.2
  0
MTEXT
  5
23B
100
AcDbEntity
  8
0
100
AcDbMText
 62
2
  6
CONTINUOUS
  7
STANDARD
 71
2
 72
1
 10
5.55
 20
0.325
 30
0.0
 11
1.0
 21
0.0
 31
0.0
 44
0.9
  1
2.000
 40
0.125
 41
1.0
  0
MTEXT
  5
23C
100
AcDbEntity
  8
0
100
AcDbMText
 62
2
  6
CONTINUOUS
  7
STANDARD
 71
2
 72
1
 10
4.65
 20
0.325
 30
0.0
 11
1.0
 21
0.0
 31
0.0
 44
0.9
  1
Aug-18-22
 40
0.125
 41
1.8
  0
MTEXT
  5
23D
100
AcDbEntity
  8
0
100
AcDbMText
 62
2
  6
CONTINUOUS
  7
STANDARD
 71
2
 72
1
 10
2.05
 20
0.4625
 30
0.0
 11
1.0
 21
0.0
 31
0.0
 44
0.9
  1
T-5A Line mount\PNinety degree with reverse flow check
 40
0.125
 41
7.4
  0
MTEXT
  5
23E
100
AcDbEntity
  8
0
100
AcDbMText
 62
2
  6
CONTINUOUS
  7
STANDARD
 71
1
 72
1
 10
6.45
 20
0.5625
 30
0.0
 11
1.0
 21
0.0
 31
0.0
 44
0.9
  1
SHEET
 40
0.06
 41
0.48
  0
MTEXT
  5
23F
100
AcDbEntity
  8
0
100
AcDbMText
 62
2
  6
CONTINUOUS
  7
STANDARD
 71
1
 72
1
 10
5.95
 20
0.5625
 30
0.0
 11
1.0
 21
0.0
 31
0.0
 44
0.9
  1
DWG SIZE
 40
0.06
 41
0.768
  0
MTEXT
  5
240
100
AcDbEntity
  8
0
100
AcDbMText
 62
2
  6
CONTINUOUS
  7
STANDARD
 71
1
 72
1
 10
5.25
 20
0.5625
 30
0.0
 11
1.0
 21
0.0
 31
0.0
 44
0.9
  1
SCALE
 40
0.06
 41
0.48
  0
MTEXT
  5
241
100
AcDbEntity
  8
0
100
AcDbMText
 62
2
  6
CONTINUOUS
  7
STANDARD
 71
1
 72
1
 10
4.15
 20
0.5625
 30
0.0
 11
1.0
 21
0.0
 31
0.0
 44
0.9
  1
DATE
 40
0.06
 41
0.384
  0
MTEXT
  5
242
100
AcDbEntity
  8
0
100
AcDbMText
 62
2
  6
CONTINUOUS
  7
STANDARD
 71
1
 72
1
 10
0.05
 20
0.5625
 30
0.0
 11
1.0
 21
0.0
 31
0.0
 44
0.9
  1
DESCRIPTION
 40
0.06
 41
1.056
  0
MTEXT
  5
243
100
AcDbEntity
  8
0
100
AcDbMText
 62
2
  6
CONTINUOUS
  7
STANDARD
 71
2
 72
1
 10
5.45
 20
1.0375
 30
0.0
 11
1.0
 21
0.0
 31
0.0
 44
0.9
  1
ALL DIMENSIONS IN INCH\PVIEWS ARE THIRD ANGLE
 40
0.12
 41
4.224
  0
MTEXT
  5
244
100
AcDbEntity
  8
0
100
AcDbMText
 62
2
  6
CONTINUOUS
  7
STANDARD
 71
2
 72
1
 10
2.05
 20
0.95
 30
0.0
 11
1.0
 21
0.0
 31
0.0
 44
0.9
  1
DNB
 40
0.125
 41
0.6
  0
MTEXT
  5
245
100
AcDbEntity
  8
0
100
AcDbMText
 62
2
  6
CONTINUOUS
  7
STANDARD
 71
1
 72
1
 10
0.05
 20
1.1875
 30
0.0
 11
1.0
 21
0.0
 31
0.0
 44
0.9
  1
MODEL
 40
0.06
 41
0.48
  0
ENDBLK
  5
246
100
AcDbEntity
  8
0
  6
BYBLOCK
 62
0
100
AcDbBlockEnd
  0
BLOCK
  5
247
100
AcDbEntity
  8
0
100
AcDbBlockBegin
  2
*T2
 70
1
 10
0.0
 20
0.0
  3
*T2
  1

  0
LINE
  5
248
100
AcDbEntity
  8
0
100
AcDbLine
 62
2
  6
CONTINUOUS
 10
0.0
 20
0.0
 11
9.055
 21
0.0
  0
LINE
  5
249
100
AcDbEntity
  8
0
100
AcDbLine
 62
2
  6
CONTINUOUS
 10
0.0
 20
0.0
 11
0.0
 21
-2.594
  0
LINE
  5
24A
100
AcDbEntity
  8
0
100
AcDbLine
 62
2
  6
CONTINUOUS
 10
0.0
 20
-0.344
 11
9.055
 21
-0.344
  0
LINE
  5
24B
100
AcDbEntity
  8
0
100
AcDbLine
 62
2
  6
CONTINUOUS
 10
0.0
 20
-0.594
 11
9.055
 21
-0.594
  0
LINE
  5
24C
100
AcDbEntity
  8
0
100
AcDbLine
 62
2
  6
CONTINUOUS
 10
0.0
 20
-0.844
 11
9.055
 21
-0.844
  0
LINE
  5
24D
100
AcDbEntity
  8
0
100
AcDbLine
 62
2
  6
CONTINUOUS
 10
0.0
 20
-1.094
 11
9.055
 21
-1.094
  0
LINE
  5
24E
100
AcDbEntity
  8
0
100
AcDbLine
 62
2
  6
CONTINUOUS
 10
0.0
 20
-1.344
 11
9.055
 21
-1.344
  0
LINE
  5
24F
100
AcDbEntity
  8
0
100
AcDbLine
 62
2
  6
CONTINUOUS
 10
0.0
 20
-1.594
 11
9.055
 21
-1.594
  0
LINE
  5
250
100
AcDbEntity
  8
0
100
AcDbLine
 62
2
  6
CONTINUOUS
 10
0.0
 20
-1.844
 11
9.055
 21
-1.844
  0
LINE
  5
251
100
AcDbEntity
  8
0
100
AcDbLine
 62
2
  6
CONTINUOUS
 10
0.0
 20
-2.094
 11
9.055
 21
-2.094
  0
LINE
  5
252
100
AcDbEntity
  8
0
100
AcDbLine
 62
2
  6
CONTINUOUS
 10
0.0
 20
-2.344
 11
9.055
 21
-2.344
  0
LINE
  5
253
100
AcDbEntity
  8
0
100
AcDbLine
 62
2
  6
CONTINUOUS
 10
0.0
 20
-2.594
 11
9.055
 21
-2.594
  0
LINE
  5
254
100
AcDbEntity
  8
0
100
AcDbLine
 62
2
  6
CONTINUOUS
 10
3.055
 20
0.0
 11
3.055
 21
-2.594
  0
LINE
  5
255
100
AcDbEntity
  8
0
100
AcDbLine
 62
2
  6
CONTINUOUS
 10
9.055
 20
0.0
 11
9.055
 21
-2.594
  0
MTEXT
  5
256
100
AcDbEntity
  8
0
100
AcDbMText
 62
2
  6
CONTINUOUS
  7
STANDARD
 71
2
 72
1
 10
1.5275
 20
-0.0995
 30
0.0
 11
1.0
 21
0.0
 31
0.0
 44
0.9
  1
Technical Data
 40
0.145
 41
3.248
  0
MTEXT
  5
257
100
AcDbEntity
  8
0
100
AcDbMText
 62
2
  6
CONTINUOUS
  7
STANDARD
 71
2
 72
1
 10
4.555
 20
-0.0995
 30
0.0
 11
1.0
 21
0.0
 31
0.0
 44
0.9
  1
U.S. Units
 40
0.145
 41
2.32
  0
MTEXT
  5
258
100
AcDbEntity
  8
0
100
AcDbMText
 62
2
  6
CONTINUOUS
  7
STANDARD
 71
2
 72
1
 10
7.555
 20
-0.0995
 30
0.0
 11
1.0
 21
0.0
 31
0.0
 44
0.9
  1
Metric Units
 40
0.145
 41
2.784
  0
MTEXT
  5
259
100
AcDbEntity
  8
0
100
AcDbMText
 62
2
  6
CONTINUOUS
  7
STANDARD
 71
2
 72
1
 10
1.5275
 20
-0.4065
 30
0.0
 11
1.0
 21
0.0
 31
0.0
 44
0.9
  1
Cavity
 40
0.125
 41
1.2
  0
MTEXT
  5
25A
100
AcDbEntity
  8
0
100
AcDbMText
 62
2
  6
CONTINUOUS
  7
STANDARD
 71
2
 72
1
 10
6.055
 20
-0.4065
 30
0.0
 11
1.0
 21
0.0
 31
0.0
 44
0.9
  1
T-5A
 40
0.125
 41
0.8
  0
MTEXT
  5
25B
100
AcDbEntity
  8
0
100
AcDbMText
 62
2
  6
CONTINUOUS
  7
STANDARD
 71
2
 72
1
 10
1.5275
 20
-0.6565
 30
0.0
 11
1.0
 21
0.0
 31
0.0
 44
0.9
  1
Body Features
 40
0.125
 41
2.6
  0
MTEXT
  5
25C
100
AcDbEntity
  8
0
100
AcDbMText
 62
2
  6
CONTINUOUS
  7
STANDARD
 71
2
 72
1
 10
6.055
 20
-0.6565
 30
0.0
 11
1.0
 21
0.0
 31
0.0
 44
0.9
  1
Ninety degree with reverse flow check
 40
0.125
 41
7.4
  0
MTEXT
  5
25D
100
AcDbEntity
  8
0
100
AcDbMText
 62
2
  6
CONTINUOUS
  7
STANDARD
 71
2
 72
1
 10
1.5275
 20
-0.9065
 30
0.0
 11
1.0
 21
0.0
 31
0.0
 44
0.9
  1
Body Type
 40
0.125
 41
1.8
  0
MTEXT
  5
25E
100
AcDbEntity
  8
0
100
AcDbMText
 62
2
  6
CONTINUOUS
  7
STANDARD
 71
2
 72
1
 10
6.055
 20
-0.9065
 30
0.0
 11
1.0
 21
0.0
 31
0.0
 44
0.9
  1
Line mount
 40
0.125
 41
2.0
  0
MTEXT
  5
25F
100
AcDbEntity
  8
0
100
AcDbMText
 62
2
  6
CONTINUOUS
  7
STANDARD
 71
2
 72
1
 10
1.5275
 20
-1.1565
 30
0.0
 11
1.0
 21
0.0
 31
0.0
 44
0.9
  1
Interface
 40
0.125
 41
1.8
  0
MTEXT
  5
260
100
AcDbEntity
  8
0
100
AcDbMText
 62
2
  6
CONTINUOUS
  7
STANDARD
 71
2
 72
1
 10
6.055
 20
-1.1565
 30
0.0
 11
1.0
 21
0.0
 31
0.0
 44
0.9
  1
None
 40
0.125
 41
0.8
  0
MTEXT
  5
261
100
AcDbEntity
  8
0
100
AcDbMText
 62
2
  6
CONTINUOUS
  7
STANDARD
 71
2
 72
1
 10
1.5275
 20
-1.4065
 30
0.0
 11
1.0
 21
0.0
 31
0.0
 44
0.9
  1
Open Cavity Quantity
 40
0.125
 41
4.0
  0
MTEXT
  5
262
100
AcDbEntity
  8
0
100
AcDbMText
 62
2
  6
CONTINUOUS
  7
STANDARD
 71
2
 72
1
 10
6.055
 20
-1.4065
 30
0.0
 11
1.0
 21
0.0
 31
0.0
 44
0.9
  1
1
 40
0.125
 41
0.2
  0
MTEXT
  5
263
100
AcDbEntity
  8
0
100
AcDbMText
 62
2
  6
CONTINUOUS
  7
STANDARD
 71
2
 72
1
 10
1.5275
 20
-1.6565
 30
0.0
 11
1.0
 21
0.0
 31
0.0
 44
0.9
  1
Weight
 40
0.125
 41
1.2
  0
MTEXT
  5
264
100
AcDbEntity
  8
0
100
AcDbMText
 62
2
  6
CONTINUOUS
  7
STANDARD
 71
2
 72
1
 10
4.555
 20
-1.6565
 30
0.0
 11
1.0
 21
0.0
 31
0.0
 44
0.9
  1
2.080 lb.
 40
0.125
 41
1.8
  0
MTEXT
  5
265
100
AcDbEntity
  8
0
100
AcDbMText
 62
2
  6
CONTINUOUS
  7
STANDARD
 71
2
 72
1
 10
7.555
 20
-1.6565
 30
0.0
 11
1.0
 21
0.0
 31
0.0
 44
0.9
  1
0,943 kg.
 40
0.125
 41
1.8
  0
MTEXT
  5
266
100
AcDbEntity
  8
0
100
AcDbMText
 62
2
  6
CONTINUOUS
  7
STANDARD
 71
2
 72
1
 10
1.5275
 20
-1.9065
 30
0.0
 11
1.0
 21
0.0
 31
0.0
 44
0.9
  1
Mounting Hole Diameter
 40
0.125
 41
4.4
  0
MTEXT
  5
267
100
AcDbEntity
  8
0
100
AcDbMText
 62
2
  6
CONTINUOUS
  7
STANDARD
 71
2
 72
1
 10
4.555
 20
-1.9065
 30
0.0
 11
1.0
 21
0.0
 31
0.0
 44
0.9
  1
.34 in.
 40
0.125
 41
1.4
  0
MTEXT
  5
268
100
AcDbEntity
  8
0
100
AcDbMText
 62
2
  6
CONTINUOUS
  7
STANDARD
 71
2
 72
1
 10
7.555
 20
-1.9065
 30
0.0
 11
1.0
 21
0.0
 31
0.0
 44
0.9
  1
8.6 mm
 40
0.125
 41
1.2
  0
MTEXT
  5
269
100
AcDbEntity
  8
0
100
AcDbMText
 62
2
  6
CONTINUOUS
  7
STANDARD
 71
2
 72
1
 10
1.5275
 20
-2.1565
 30
0.0
 11
1.0
 21
0.0
 31
0.0
 44
0.9
  1
Mounting Hole Depth
 40
0.125
 41
3.8
  0
MTEXT
  5
26A
100
AcDbEntity
  8
0
100
AcDbMText
 62
2
  6
CONTINUOUS
  7
STANDARD
 71
2
 72
1
 10
6.055
 20
-2.1565
 30
0.0
 11
1.0
 21
0.0
 31
0.0
 44
0.9
  1
Through
 40
0.125
 41
1.4
  0
MTEXT
  5
26B
100
AcDbEntity
  8
0
100
AcDbMText
 62
2
  6
CONTINUOUS
  7
STANDARD
 71
2
 72
1
 10
1.5275
 20
-2.4065
 30
0.0
 11
1.0
 21
0.0
 31
0.0
 44
0.9
  1
Mounting Hole Quantity
 40
0.125
 41
4.4
  0
MTEXT
  5
26C
100
AcDbEntity
  8
0
100
AcDbMText
 62
2
  6
CONTINUOUS
  7
STANDARD
 71
2
 72
1
 10
6.055
 20
-2.4065
 30
0.0
 11
1.0
 21
0.0
 31
0.0
 44
0.9
  1
2
 40
0.125
 41
0.2
  0
ENDBLK
  5
26D
100
AcDbEntity
  8
0
  6
BYBLOCK
 62
0
100
AcDbBlockEnd
  0
BLOCK
  5
26E
100
AcDbEntity
  8
0
100
AcDbBlockBegin
  2
*T3
 70
1
 10
0.0
 20
0.0
  3
*T3
  1

  0
LINE
  5
26F
100
AcDbEntity
  8
0
100
AcDbLine
 62
2
  6
CONTINUOUS
 10
0.0
 20
0.0
 11
4.6
 21
0.0
  0
LINE
  5
270
100
AcDbEntity
  8
0
100
AcDbLine
 62
2
  6
CONTINUOUS
 10
0.0
 20
0.0
 11
0.0
 21
-0.93775
  0
LINE
  5
271
100
AcDbEntity
  8
0
100
AcDbLine
 62
2
  6
CONTINUOUS
 10
0.0
 20
-0.34375
 11
4.6
 21
-0.34375
  0
LINE
  5
272
100
AcDbEntity
  8
0
100
AcDbLine
 62
2
  6
CONTINUOUS
 10
0.0
 20
-0.68775
 11
4.6
 21
-0.68775
  0
LINE
  5
273
100
AcDbEntity
  8
0
100
AcDbLine
 62
2
  6
CONTINUOUS
 10
0.0
 20
-0.93775
 11
4.6
 21
-0.93775
  0
LINE
  5
274
100
AcDbEntity
  8
0
100
AcDbLine
 62
2
  6
CONTINUOUS
 10
1.3
 20
-0.34375
 11
1.3
 21
-0.93775
  0
LINE
  5
275
100
AcDbEntity
  8
0
100
AcDbLine
 62
2
  6
CONTINUOUS
 10
3.3
 20
-0.34375
 11
3.3
 21
-0.93775
  0
LINE
  5
276
100
AcDbEntity
  8
0
100
AcDbLine
 62
2
  6
CONTINUOUS
 10
4.6
 20
0.0
 11
4.6
 21
-0.93775
  0
MTEXT
  5
277
100
AcDbEntity
  8
0
100
AcDbMText
 62
2
  6
CONTINUOUS
  7
STANDARD
 71
2
 72
1
 10
2.3
 20
-0.099375
 30
0.0
 11
1.0
 21
0.0
 31
0.0
 44
0.9
  1
Port Headings
 40
0.145
 41
3.016
  0
MTEXT
  5
278
100
AcDbEntity
  8
0
100
AcDbMText
 62
2
  6
CONTINUOUS
  7
STANDARD
 71
2
 72
1
 10
0.65
 20
-0.44325
 30
0.0
 11
1.0
 21
0.0
 31
0.0
 44
0.9
  1
Product
 40
0.145
 41
1.624
  0
MTEXT
  5
279
100
AcDbEntity
  8
0
100
AcDbMText
 62
2
  6
CONTINUOUS
  7
STANDARD
 71
2
 72
1
 10
2.3
 20
-0.44325
 30
0.0
 11
1.0
 21
0.0
 31
0.0
 44
0.9
  1
Port
 40
0.145
 41
0.928
  0
MTEXT
  5
27A
100
AcDbEntity
  8
0
100
AcDbMText
 62
2
  6
CONTINUOUS
  7
STANDARD
 71
2
 72
1
 10
3.95
 20
-0.44325
 30
0.0
 11
1.0
 21
0.0
 31
0.0
 44
0.9
  1
Size
 40
0.145
 41
0.928
  0
MTEXT
  5
27B
100
AcDbEntity
  8
0
100
AcDbMText
 62
2
  6
CONTINUOUS
  7
STANDARD
 71
2
 72
1
 10
0.65
 20
-0.75025
 30
0.0
 11
1.0
 21
0.0
 31
0.0
 44
0.9
  1
DNB
 40
0.125
 41
0.6
  0
MTEXT
  5
27C
100
AcDbEntity
  8
0
100
AcDbMText
 62
2
  6
CONTINUOUS
  7
STANDARD
 71
2
 72
1
 10
2.3
 20
-0.75025
 30
0.0
 11
1.0
 21
0.0
 31
0.0
 44
0.9
  1
All Ports
 40
0.125
 41
1.8
  0
MTEXT
  5
27D
100
AcDbEntity
  8
0
100
AcDbMText
 62
2
  6
CONTINUOUS
  7
STANDARD
 71
2
 72
1
 10
3.95
 20
-0.75025
 30
0.0
 11
1.0
 21
0.0
 31
0.0
 44
0.9
  1
3/8" NPTF
 40
0.125
 41
1.8
  0
ENDBLK
  5
27E
100
AcDbEntity
  8
0
  6
BYBLOCK
 62
0
100
AcDbBlockEnd
  0
ENDSEC
  0
SECTION
  2
ENTITIES
  0
IMAGE
  5
27F
100
AcDbEntity
  8
0
100
AcDbRasterImage
 62
7
  6
CONTINUOUS
 10
19.2297077316
 20
0.3094318264
 30
0.0
 11
0.0066666667
 21
0.0
 31
0.0
 12
0.0
 22
0.0066666667
 32
0.0
 13
369.0
 23
92.0
340
       2D0
 70
9
280
0
281
50
282
50
283
0
360
       2CA
 71
1
 91
2
 14
-0.5
 24
-0.5
 14
368.5
 24
91.5
  0
INSERT
  5
280
100
AcDbEntity
  8
0
100
AcDbBlockReference
 62
2
  6
CONTINUOUS
  2
SUN_FIRST_THIRD_ANGLE_BL0
 10
20.4816717061
 20
1.2289683772
  0
ACAD_TABLE
  5
281
100
AcDbEntity
  8
0
 62
2
  6
CONTINUOUS
100
AcDbBlockReference
  2
*T1
 10
12.42375
 20
0.30125
 30
0.0
100
AcDbTable
342
       2D2
343
207
 11
1.0
 21
0.0
 31
0.0
 90
6
 91
4
 92
6
 93
20
 94
0
 95
0
 96
0
 70
1
 41
0.0
141
0.525
141
0.1
141
0.525
141
0.1
142
4.1
142
1.1
142
0.7
142
0.5
142
0.4
142
2.475
171
1
172
0
173
0
174
0
175
1
176
1
 91
33
178
0
145
0.0
301
CELL_VALUE
 90
4
  1
T-5A Line mount\PNinety degree with reverse flow check
304
ACVALUE_END
170
2
140
0.125
171
1
172
0
173
0
174
0
175
1
176
1
 91
33
178
0
145
0.0
301
CELL_VALUE
 90
4
  1
Aug-18-22
304
ACVALUE_END
170
5
140
0.125
171
1
172
0
173
0
174
0
175
1
176
1
 91
33
178
0
145
0.0
301
CELL_VALUE
 90
4
  1
2.000
304
ACVALUE_END
170
5
140
0.125
171
1
172
0
173
0
174
0
175
1
176
1
 91
33
178
0
145
0.0
301
CELL_VALUE
 90
4
  1
C
304
ACVALUE_END
170
5
140
0.125
171
1
172
0
173
0
174
0
175
1
176
1
 91
33
178
0
145
0.0
301
CELL_VALUE
 90
4
  1
2
304
ACVALUE_END
170
5
140
0.125
171
1
172
0
173
0
174
0
175
1
176
1
 91
33
178
0
145
0.0
301
CELL_VALUE
 90
4
  1
 
304
ACVALUE_END
170
1
140
0.125
171
1
172
0
173
0
174
0
175
1
176
1
 91
33
178
0
145
0.0
301
CELL_VALUE
 90
4
  1
DESCRIPTION
304
ACVALUE_END
170
1
140
0.06
171
1
172
0
173
0
174
0
175
1
176
1
 91
33
178
0
145
0.0
301
CELL_VALUE
 90
4
  1
DATE
304
ACVALUE_END
170
1
140
0.06
171
1
172
0
173
0
174
0
175
1
176
1
 91
33
178
0
145
0.0
301
CELL_VALUE
 90
4
  1
SCALE
304
ACVALUE_END
170
1
140
0.06
171
1
172
0
173
0
174
0
175
1
176
1
 91
33
178
0
145
0.0
301
CELL_VALUE
 90
4
  1
DWG SIZE
304
ACVALUE_END
170
1
140
0.06
171
1
172
0
173
0
174
0
175
1
176
1
 91
33
178
0
145
0.0
301
CELL_VALUE
 90
4
  1
SHEET
304
ACVALUE_END
170
1
140
0.06
171
1
172
0
173
0
174
0
175
1
176
1
 91
33
178
0
145
0.0
301
CELL_VALUE
 90
4
  1
 
304
ACVALUE_END
170
1
140
0.125
171
1
172
0
173
0
174
0
175
1
176
1
 91
33
178
0
145
0.0
301
CELL_VALUE
 90
4
  1
DNB
304
ACVALUE_END
170
5
140
0.125
171
1
172
0
173
0
174
0
175
4
176
1
 91
33
178
0
145
0.0
301
CELL_VALUE
 90
4
  1
ALL DIMENSIONS IN INCH\PVIEWS ARE THIRD ANGLE
304
ACVALUE_END
170
5
140
0.12
171
1
172
0
173
1
174
0
175
1
176
1
 91
1
178
0
145
0.0
170
1
171
1
172
0
173
1
174
0
175
1
176
1
 91
1
178
0
145
0.0
170
1
171
1
172
0
173
1
174
0
175
1
176
1
 91
1
178
0
145
0.0
170
5
171
1
172
0
173
0
174
0
175
1
176
1
 91
33
178
0
145
0.0
301
CELL_VALUE
 90
4
  1
 
304
ACVALUE_END
170
1
140
0.125
171
1
172
0
173
0
174
0
175
1
176
1
 91
33
178
0
145
0.0
301
CELL_VALUE
 90
4
  1
MODEL
304
ACVALUE_END
170
1
140
0.06
171
1
172
0
173
0
174
0
175
1
176
1
 91
33
178
0
145
0.0
301
CELL_VALUE
 90
4
  1
 
304
ACVALUE_END
170
1
140
0.125
171
1
172
0
173
0
174
0
175
1
176
1
 91
33
178
0
145
0.0
301
CELL_VALUE
 90
4
  1
 
304
ACVALUE_END
170
1
140
0.125
171
1
172
0
173
0
174
0
175
1
176
1
 91
33
178
0
145
0.0
301
CELL_VALUE
 90
4
  1
 
304
ACVALUE_END
170
1
140
0.125
171
1
172
0
173
0
174
0
175
1
176
1
 91
33
178
0
145
0.0
301
CELL_VALUE
 90
4
  1
 
304
ACVALUE_END
170
1
140
0.125
171
1
172
0
173
0
174
0
175
1
176
1
 91
33
178
0
145
0.0
301
CELL_VALUE
 90
4
  1
 
304
ACVALUE_END
170
1
140
0.125
  0
ACAD_TABLE
  5
282
100
AcDbEntity
  8
0
 62
2
  6
CONTINUOUS
100
AcDbBlockReference
  2
*T2
 10
12.4237499994
 20
16.47875
 30
0.0
100
AcDbTable
342
       2D1
343
208
 11
1.0
 21
0.0
 31
0.0
 90
22
 91
10
 92
3
 93
16
 94
0
 95
0
 96
0
 41
0.028
141
0.344
141
0.25
141
0.25
141
0.25
141
0.25
141
0.25
141
0.25
141
0.25
141
0.25
141
0.25
142
3.055
142
3.0
142
3.0
171
1
172
0
173
0
174
0
175
1
176
1
 91
33
178
0
145
0.0
301
CELL_VALUE
 90
4
  1
Technical Data
304
ACVALUE_END
170
5
140
0.145
171
1
172
0
173
0
174
0
175
1
176
1
 91
33
178
0
145
0.0
301
CELL_VALUE
 90
4
  1
U.S. Units
304
ACVALUE_END
170
5
140
0.145
171
1
172
0
173
0
174
0
175
1
176
1
 91
33
178
0
145
0.0
301
CELL_VALUE
 90
4
  1
Metric Units
304
ACVALUE_END
170
5
140
0.145
171
1
172
0
173
0
174
0
175
1
176
1
 91
33
178
0
145
0.0
301
CELL_VALUE
 90
4
  1
Cavity
304
ACVALUE_END
170
5
140
0.125
171
1
172
0
173
0
174
0
175
2
176
1
 91
33
178
0
145
0.0
301
CELL_VALUE
 90
4
  1
T-5A
304
ACVALUE_END
170
5
140
0.125
171
1
172
0
173
1
174
0
175
1
176
1
 91
1
178
0
145
0.0
170
1
171
1
172
0
173
0
174
0
175
1
176
1
 91
33
178
0
145
0.0
301
CELL_VALUE
 90
4
  1
Body Features
304
ACVALUE_END
170
5
140
0.125
171
1
172
0
173
0
174
0
175
2
176
1
 91
33
178
0
145
0.0
301
CELL_VALUE
 90
4
  1
Ninety degree with reverse flow check
304
ACVALUE_END
170
5
140
0.125
171
1
172
0
173
1
174
0
175
1
176
1
 91
1
178
0
145
0.0
170
1
171
1
172
0
173
0
174
0
175
1
176
1
 91
33
178
0
145
0.0
301
CELL_VALUE
 90
4
  1
Body Type
304
ACVALUE_END
170
5
140
0.125
171
1
172
0
173
0
174
0
175
2
176
1
 91
33
178
0
145
0.0
301
CELL_VALUE
 90
4
  1
Line mount
304
ACVALUE_END
170
5
140
0.125
171
1
172
0
173
1
174
0
175
1
176
1
 91
1
178
0
145
0.0
170
1
171
1
172
0
173
0
174
0
175
1
176
1
 91
33
178
0
145
0.0
301
CELL_VALUE
 90
4
  1
Interface
304
ACVALUE_END
170
5
140
0.125
171
1
172
0
173
0
174
0
175
2
176
1
 91
33
178
0
145
0.0
301
CELL_VALUE
 90
4
  1
None
304
ACVALUE_END
170
5
140
0.125
171
1
172
0
173
1
174
0
175
1
176
1
 91
1
178
0
145
0.0
170
1
171
1
172
0
173
0
174
0
175
1
176
1
 91
33
178
0
145
0.0
301
CELL_VALUE
 90
4
  1
Open Cavity Quantity
304
ACVALUE_END
170
5
140
0.125
171
1
172
0
173
0
174
0
175
2
176
1
 91
33
178
0
145
0.0
301
CELL_VALUE
 90
4
  1
1
304
ACVALUE_END
170
5
140
0.125
171
1
172
0
173
1
174
0
175
1
176
1
 91
1
178
0
145
0.0
170
1
171
1
172
0
173
0
174
0
175
1
176
1
 91
33
178
0
145
0.0
301
CELL_VALUE
 90
4
  1
Weight
304
ACVALUE_END
170
5
140
0.125
171
1
172
0
173
0
174
0
175
1
176
1
 91
33
178
0
145
0.0
301
CELL_VALUE
 90
4
  1
2.080 lb.
304
ACVALUE_END
170
5
140
0.125
171
1
172
0
173
0
174
0
175
1
176
1
 91
33
178
0
145
0.0
301
CELL_VALUE
 90
4
  1
0,943 kg.
304
ACVALUE_END
170
5
140
0.125
171
1
172
0
173
0
174
0
175
1
176
1
 91
33
178
0
145
0.0
301
CELL_VALUE
 90
4
  1
Mounting Hole Diameter
304
ACVALUE_END
170
5
140
0.125
171
1
172
0
173
0
174
0
175
1
176
1
 91
33
178
0
145
0.0
301
CELL_VALUE
 90
4
  1
.34 in.
304
ACVALUE_END
170
5
140
0.125
171
1
172
0
173
0
174
0
175
1
176
1
 91
33
178
0
145
0.0
301
CELL_VALUE
 90
4
  1
8.6 mm
304
ACVALUE_END
170
5
140
0.125
171
1
172
0
173
0
174
0
175
1
176
1
 91
33
178
0
145
0.0
301
CELL_VALUE
 90
4
  1
Mounting Hole Depth
304
ACVALUE_END
170
5
140
0.125
171
1
172
0
173
0
174
0
175
2
176
1
 91
33
178
0
145
0.0
301
CELL_VALUE
 90
4
  1
Through
304
ACVALUE_END
170
5
140
0.125
171
1
172
0
173
1
174
0
175
1
176
1
 91
1
178
0
145
0.0
170
1
171
1
172
0
173
0
174
0
175
1
176
1
 91
33
178
0
145
0.0
301
CELL_VALUE
 90
4
  1
Mounting Hole Quantity
304
ACVALUE_END
170
5
140
0.125
171
1
172
0
173
0
174
0
175
2
176
1
 91
33
178
0
145
0.0
301
CELL_VALUE
 90
4
  1
2
304
ACVALUE_END
170
5
140
0.125
171
1
172
0
173
1
174
0
175
1
176
1
 91
1
178
0
145
0.0
170
1
  0
ACAD_TABLE
  5
283
100
AcDbEntity
  8
0
 62
2
  6
CONTINUOUS
100
AcDbBlockReference
  2
*T3
 10
0.52125
 20
1.459
 30
0.0
100
AcDbTable
342
       2D1
343
209
 11
1.0
 21
0.0
 31
0.0
 90
22
 91
3
 92
3
 93
16
 94
0
 95
0
 96
0
 41
0.05
141
0.34375
141
0.344
141
0.25
142
1.3
142
2.0
142
1.3
171
1
172
0
173
0
174
0
175
3
176
1
 91
33
178
0
145
0.0
301
CELL_VALUE
 90
4
  1
Port Headings
304
ACVALUE_END
170
5
140
0.145
171
1
172
0
173
1
174
0
175
1
176
1
 91
1
178
0
145
0.0
170
1
171
1
172
0
173
1
174
0
175
1
176
1
 91
1
178
0
145
0.0
170
1
171
1
172
0
173
0
174
0
175
1
176
1
 91
33
178
0
145
0.0
301
CELL_VALUE
 90
4
  1
Product
304
ACVALUE_END
170
5
140
0.145
171
1
172
0
173
0
174
0
175
1
176
1
 91
33
178
0
145
0.0
301
CELL_VALUE
 90
4
  1
Port
304
ACVALUE_END
170
5
140
0.145
171
1
172
0
173
0
174
0
175
1
176
1
 91
33
178
0
145
0.0
301
CELL_VALUE
 90
4
  1
Size
304
ACVALUE_END
170
5
140
0.145
171
1
172
0
173
0
174
0
175
1
176
1
 91
33
178
0
145
0.0
301
CELL_VALUE
 90
4
  1
DNB
304
ACVALUE_END
170
5
140
0.125
171
1
172
0
173
0
174
0
175
1
176
1
 91
33
178
0
145
0.0
301
CELL_VALUE
 90
4
  1
All Ports
304
ACVALUE_END
170
5
140
0.125
171
1
172
0
173
0
174
0
175
1
176
1
 91
33
178
0
145
0.0
301
CELL_VALUE
 90
4
  1
3/8" NPTF
304
ACVALUE_END
170
5
140
0.125
  0
MTEXT
  5
284
100
AcDbEntity
  8
0
100
AcDbMText
 62
2
  6
CONTINUOUS
  7
STANDARD
 71
1
 72
1
 10
0.52125
 20
5.75995
 30
0.0
 11
1.0
 21
0.0
 31
0.0
 44
0.6
  3
Notes\P \P1. Important: Carefully consider\P   the maximum system pressure. The\P   pressure rating of the manifold is\P   dependent on the manifold material,\P   with the port type/size a secondary\P   consideration. Manifolds\P   constructed of alu
  1
minum are not\P   rated for pressures higher than\P   3000 psi (210 bar), regardless of\P   the port type/size specified.\P2. Items without balloons are\P   shipped loose.
 40
0.1
 41
3.04
  0
LINE
  5
285
100
AcDbEntity
  8
0
100
AcDbLine
 62
7
  6
CONTINUOUS
 10
0.30125
 20
0.30125
 11
0.30125
 21
16.69875
  0
LINE
  5
286
100
AcDbEntity
  8
0
100
AcDbLine
 62
7
  6
CONTINUOUS
 10
0.30125
 20
0.30125
 11
21.69875
 21
0.30125
  0
LINE
  5
287
100
AcDbEntity
  8
0
100
AcDbLine
 62
7
  6
CONTINUOUS
 10
0.30125
 20
16.69875
 11
21.69875
 21
16.69875
  0
LINE
  5
288
100
AcDbEntity
  8
0
100
AcDbLine
 62
7
  6
CONTINUOUS
 10
21.69875
 20
0.30125
 11
21.69875
 21
16.69875
  0
LINE
  5
289
100
AcDbEntity
  8
0
100
AcDbLine
 62
7
  6
CONTINUOUS
 10
6.3598399714
 20
9.7083196208
 11
6.3598399714
 21
6.3275790285
  0
LINE
  5
28A
100
AcDbEntity
  8
0
100
AcDbLine
 62
7
  6
CONTINUOUS
 10
6.3598399714
 20
9.7083196208
 11
7.9127529604
 21
11.2083184718
  0
LINE
  5
28B
100
AcDbEntity
  8
0
100
AcDbLine
 62
7
  6
CONTINUOUS
 10
14.0872470396
 20
5.7916815282
 11
6.3598399714
 21
6.3275790285
  0
LINE
  5
28C
100
AcDbEntity
  8
0
100
AcDbLine
 62
7
  6
CONTINUOUS
 10
9.8517728963
 20
8.3691220642
 11
9.9956069906
 21
8.3591471358
  0
LINE
  5
28D
100
AcDbEntity
  8
0
100
AcDbLine
 62
7
  6
CONTINUOUS
 10
14.0872470396
 20
9.1724221205
 11
6.3598399714
 21
9.7083196208
  0
LINE
  5
28E
100
AcDbEntity
  8
0
100
AcDbLine
 62
7
  6
CONTINUOUS
 10
15.6401600286
 20
10.6724209715
 11
14.0872470396
 21
9.1724221205
  0
LINE
  5
28F
100
AcDbEntity
  8
0
100
AcDbLine
 62
7
  6
CONTINUOUS
 10
14.5401799947
 20
8.5956996077
 11
14.5418918568
 21
8.5973227251
  0
LINE
  5
290
100
AcDbEntity
  8
0
100
AcDbLine
 62
7
  6
CONTINUOUS
 10
7.9127529604
 20
11.2083184718
 11
15.6401600286
 21
10.6724209715
  0
LINE
  5
291
100
AcDbEntity
  8
0
100
AcDbLine
 62
7
  6
CONTINUOUS
 10
14.0872470396
 20
9.1724221205
 11
14.0872470396
 21
5.7916815282
  0
LINE
  5
292
100
AcDbEntity
  8
0
100
AcDbLine
 62
7
  6
CONTINUOUS
 10
15.6401600286
 20
7.2916803792
 11
14.0872470396
 21
5.7916815282
  0
LINE
  5
293
100
AcDbEntity
  8
0
100
AcDbLine
 62
7
  6
CONTINUOUS
 10
15.6401600286
 20
10.6724209715
 11
15.6401600286
 21
7.2916803792
  0
ARC
  5
294
100
AcDbEntity
  8
0
100
AcDbCircle
 62
7
  6
CONTINUOUS
 10
9.1347509007
 20
7.7529297051
 40
1.0462917961
100
AcDbArc
 50
0.001002697
 51
1.3826065328
  0
ARC
  5
295
100
AcDbEntity
  8
0
100
AcDbCircle
 62
7
  6
CONTINUOUS
 10
9.1579809748
 20
7.7781573321
 40
1.0222766187
100
AcDbArc
 50
0.0018120993
 51
1.88117465
  0
ARC
  5
296
100
AcDbEntity
  8
0
100
AcDbCircle
 62
7
  6
CONTINUOUS
 10
9.1652013746
 20
7.7781759297
 40
1.0150562185
100
AcDbArc
 50
358.5761161147
 51
0.0007752302
  0
ARC
  5
297
100
AcDbEntity
  8
0
100
AcDbCircle
 62
7
  6
CONTINUOUS
 10
9.065195615
 20
7.9491989789
 40
0.9404095939
100
AcDbArc
 50
134.9613460366
 51
136.0678567686
  0
ARC
  5
298
100
AcDbEntity
  8
0
100
AcDbCircle
 62
7
  6
CONTINUOUS
 10
9.2591703646
 20
7.7483817599
 40
0.9403884846
100
AcDbArc
 50
311.946671099
 51
313.1482329447
  0
ARC
  5
299
100
AcDbEntity
  8
0
100
AcDbCircle
 62
7
  6
CONTINUOUS
 10
9.2866156404
 20
7.8870729407
 40
0.8861945339
100
AcDbArc
 50
353.6368763573
 51
354.847879499
  0
ARC
  5
29A
100
AcDbEntity
  8
0
100
AcDbCircle
 62
7
  6
CONTINUOUS
 10
9.9881048642
 20
8.7194553278
 40
0.832921914
100
AcDbArc
 50
170.5851055572
 51
180.028480352
  0
ARC
  5
29B
100
AcDbEntity
  8
0
100
AcDbCircle
 62
7
  6
CONTINUOUS
 10
9.9949760561
 20
8.7238205379
 40
0.8103994235
100
AcDbArc
 50
170.7758984139
 51
180.0273564058
  0
ARC
  5
29C
100
AcDbEntity
  8
0
100
AcDbCircle
 62
7
  6
CONTINUOUS
 10
9.9967093635
 20
8.7127458497
 40
0.6527549258
100
AcDbArc
 50
170.0044962961
 51
180.0320494286
  0
ARC
  5
29D
100
AcDbEntity
  8
0
100
AcDbCircle
 62
7
  6
CONTINUOUS
 10
9.9317349741
 20
8.7933617505
 40
0.5039253893
100
AcDbArc
 50
178.783070658
 51
179.9978503641
  0
SPLINE
  5
29E
100
AcDbEntity
  8
0
100
AcDbSpline
 62
7
  6
CONTINUOUS
 70
0
 71
3
 72
51
 73
47
 74
0
 42
0.0000001
 43
0.0000001
 44
0.0000000001
 40
0.0
 40
0.0
 40
0.0
 40
0.0
 40
0.0417976334
 40
0.0840617059
 40
0.1266600162
 40
0.1694648373
 40
0.2123444183
 40
0.2551678056
 40
0.2978040295
 40
0.3401228707
 40
0.3819953972
 40
0.4232944331
 40
0.4638951049
 40
0.5036754014
 40
0.5425167144
 40
0.5803043868
 40
0.6169282946
 40
0.6522834744
 40
0.6862708502
 40
0.7187979642
 40
0.7497798109
 40
0.7791398433
 40
0.7931908577
 40
0.8068123106
 40
0.8199975373
 40
0.8327408364
 40
0.8450374148
 40
0.8568833404
 40
0.8682760229
 40
0.8792138834
 40
0.8896968843
 40
0.8997265616
 40
0.9093061201
 40
0.9184410646
 40
0.927139066
 40
0.9354107182
 40
0.9432698249
 40
0.9507338213
 40
0.9578246679
 40
0.9645690813
 40
0.970999459
 40
0.9771542315
 40
0.98307809
 40
0.9888220284
 40
0.9944424517
 40
1.0
 40
1.0
 40
1.0
 40
1.0
 10
7.1893648296
 20
9.7595791524
 30
0.0
 10
7.1957496863
 20
9.7591363611
 30
0.0
 10
7.2085979434
 20
9.7583479213
 30
0.0
 10
7.2279728303
 20
9.7574580423
 30
0.0
 10
7.247513134
 20
9.7568562222
 30
0.0
 10
7.267154452
 20
9.756544374
 30
0.0
 10
7.2868326993
 20
9.7565235767
 30
0.0
 10
7.306483284
 20
9.756793885
 30
0.0
 10
7.326041845
 20
9.7573544061
 30
0.0
 10
7.3454442927
 20
9.7582032856
 30
0.0
 10
7.3646270558
 20
9.7593377197
 30
0.0
 10
7.383527287
 20
9.7607539658
 30
0.0
 10
7.4020830698
 20
9.7624473539
 30
0.0
 10
7.4202336303
 20
9.7644122831
 30
0.0
 10
7.4379195389
 20
9.7666422548
 30
0.0
 10
7.4550829036
 20
9.7691298954
 30
0.0
 10
7.4716675599
 20
9.7718669785
 30
0.0
 10
7.4876192725
 20
9.7748444539
 30
0.0
 10
7.5028859108
 20
9.7780524601
 30
0.0
 10
7.5174177028
 20
9.7814803601
 30
0.0
 10
7.5311671564
 20
9.7851168256
 30
0.0
 10
7.5420902335
 20
9.7883565772
 30
0.0
 10
7.550397324
 20
9.7910518193
 30
0.0
 10
7.5563132865
 20
9.7930881748
 30
0.0
 10
7.5620015806
 20
9.7951674496
 30
0.0
 10
7.5674575797
 20
9.7972879455
 30
0.0
 10
7.5726768508
 20
9.7994478876
 30
0.0
 10
7.5776551306
 20
9.8016455885
 30
0.0
 10
7.5823884081
 20
9.803879166
 30
0.0
 10
7.586872832
 20
9.8061468782
 30
0.0
 10
7.5911047888
 20
9.8084468685
 30
0.0
 10
7.5950808922
 20
9.8107772555
 30
0.0
 10
7.5987979128
 20
9.8131362714
 30
0.0
 10
7.6022529337
 20
9.8155219581
 30
0.0
 10
7.6054431594
 20
9.8179325549
 30
0.0
 10
7.608366062
 20
9.8203662043
 30
0.0
 10
7.6110193351
 20
9.8228210757
 30
0.0
 10
7.6134007437
 20
9.8252955012
 30
0.0
 10
7.6155083901
 20
9.8277876547
 30
0.0
 10
7.6173403085
 20
9.8302959438
 30
0.0
 10
7.6188947271
 20
9.8328186432
 30
0.0
 10
7.6201699362
 20
9.8353539986
 30
0.0
 10
7.6211640786
 20
9.8379001311
 30
0.0
 10
7.6218756992
 20
9.8404549025
 30
0.0
 10
7.6223032559
 20
9.8430154066
 30
0.0
 10
7.6223984966
 20
9.8447284966
 30
0.0
 10
7.6223984892
 20
9.8455794868
 30
0.0
  0
SPLINE
  5
29F
100
AcDbEntity
  8
0
100
AcDbSpline
 62
7
  6
CONTINUOUS
 70
0
 71
3
 72
51
 73
47
 74
0
 42
0.0000001
 43
0.0000001
 44
0.0000000001
 40
0.0
 40
0.0
 40
0.0
 40
0.0
 40
0.0417976334
 40
0.0840617059
 40
0.1266600162
 40
0.1694648373
 40
0.2123444183
 40
0.2551678056
 40
0.2978040295
 40
0.3401228707
 40
0.3819953972
 40
0.4232944331
 40
0.4638951049
 40
0.5036754014
 40
0.5425167144
 40
0.5803043868
 40
0.6169282946
 40
0.6522834744
 40
0.6862708502
 40
0.7187979642
 40
0.7497798109
 40
0.7791398433
 40
0.7931908577
 40
0.8068123106
 40
0.8199975373
 40
0.8327408364
 40
0.8450374148
 40
0.8568833404
 40
0.8682760229
 40
0.8792138834
 40
0.8896968843
 40
0.8997265616
 40
0.9093061201
 40
0.9184410646
 40
0.927139066
 40
0.9354107182
 40
0.9432698249
 40
0.9507338213
 40
0.9578246679
 40
0.9645690813
 40
0.970999459
 40
0.9771542315
 40
0.98307809
 40
0.9888220284
 40
0.9944424517
 40
1.0
 40
1.0
 40
1.0
 40
1.0
 10
14.6325678143
 20
10.4491615716
 30
0.0
 10
14.638952671
 20
10.4487187803
 30
0.0
 10
14.6518009281
 20
10.4479303405
 30
0.0
 10
14.671175815
 20
10.4470404615
 30
0.0
 10
14.6907161187
 20
10.4464386414
 30
0.0
 10
14.7103574367
 20
10.4461267932
 30
0.0
 10
14.7300356839
 20
10.4461059959
 30
0.0
 10
14.7496862687
 20
10.4463763042
 30
0.0
 10
14.7692448296
 20
10.4469368253
 30
0.0
 10
14.7886472774
 20
10.4477857048
 30
0.0
 10
14.8078300404
 20
10.4489201389
 30
0.0
 10
14.8267302717
 20
10.450336385
 30
0.0
 10
14.8452860544
 20
10.4520297731
 30
0.0
 10
14.863436615
 20
10.4539947023
 30
0.0
 10
14.8811225235
 20
10.456224674
 30
0.0
 10
14.8982858882
 20
10.4587123146
 30
0.0
 10
14.9148705445
 20
10.4614493977
 30
0.0
 10
14.9308222572
 20
10.4644268731
 30
0.0
 10
14.9460888955
 20
10.4676348793
 30
0.0
 10
14.9606206875
 20
10.4710627793
 30
0.0
 10
14.9743701411
 20
10.4746992448
 30
0.0
 10
14.9852932181
 20
10.4779389964
 30
0.0
 10
14.9936003087
 20
10.4806342385
 30
0.0
 10
14.9995162712
 20
10.482670594
 30
0.0
 10
15.0052045653
 20
10.4847498688
 30
0.0
 10
15.0106605643
 20
10.4868703647
 30
0.0
 10
15.0158798354
 20
10.4890303068
 30
0.0
 10
15.0208581153
 20
10.4912280077
 30
0.0
 10
15.0255913928
 20
10.4934615852
 30
0.0
 10
15.0300758167
 20
10.4957292974
 30
0.0
 10
15.0343077734
 20
10.4980292877
 30
0.0
 10
15.0382838769
 20
10.5003596747
 30
0.0
 10
15.0420008975
 20
10.5027186906
 30
0.0
 10
15.0454559183
 20
10.5051043773
 30
0.0
 10
15.0486461441
 20
10.5075149741
 30
0.0
 10
15.0515690466
 20
10.5099486235
 30
0.0
 10
15.0542223197
 20
10.5124034949
 30
0.0
 10
15.0566037284
 20
10.5148779204
 30
0.0
 10
15.0587113748
 20
10.5173700739
 30
0.0
 10
15.0605432932
 20
10.519878363
 30
0.0
 10
15.0620977117
 20
10.5224010624
 30
0.0
 10
15.0633729208
 20
10.5249364178
 30
0.0
 10
15.0643670633
 20
10.5274825503
 30
0.0
 10
15.0650786838
 20
10.5300373217
 30
0.0
 10
15.0655062406
 20
10.5325978258
 30
0.0
 10
15.0656014813
 20
10.5343109158
 30
0.0
 10
15.0656014739
 20
10.535161906
 30
0.0
  0
SPLINE
  5
2A0
100
AcDbEntity
  8
0
100
AcDbSpline
 62
7
  6
CONTINUOUS
 70
0
 71
3
 72
25
 73
21
 74
0
 42
0.0000001
 43
0.0000001
 44
0.0000000001
 40
0.0
 40
0.0
 40
0.0
 40
0.0
 40
0.0637770869
 40
0.0955893273
 40
0.1273480361
 40
0.190704913
 40
0.2538583931
 40
0.2853631206
 40
0.3168196509
 40
0.3795879741
 40
0.4421786688
 40
0.504604033
 40
0.5668779732
 40
0.6290159006
 40
0.6910345844
 40
0.7529519921
 40
0.8147871143
 40
0.8765597769
 40
0.9382904419
 40
1.0
 40
1.0
 40
1.0
 40
1.0
 10
10.1810426966
 20
7.7529480156
 30
0.0
 10
10.1810426966
 20
7.7362848592
 30
0.0
 10
10.1804439685
 20
7.7113045055
 30
0.0
 10
10.1784408287
 20
7.6780900701
 30
0.0
 10
10.175642426
 20
7.6450427108
 30
0.0
 10
10.170651858
 20
7.6039762392
 30
0.0
 10
10.1636682358
 20
7.5632683505
 30
0.0
 10
10.1568992567
 20
7.5310178743
 30
0.0
 10
10.1493584875
 20
7.499042555
 30
0.0
 10
10.1384744494
 20
7.45952416
 30
0.0
 10
10.1230985213
 20
7.412911946
 30
0.0
 10
10.1054518146
 20
7.3672488152
 30
0.0
 10
10.085575058
 20
7.3226408135
 30
0.0
 10
10.0635139563
 20
7.2791906372
 30
0.0
 10
10.0393193299
 20
7.2369985729
 30
0.0
 10
10.0130468897
 20
7.196161918
 30
0.0
 10
9.9847572651
 20
7.1567749739
 30
0.0
 10
9.9545153449
 20
7.1189282925
 30
0.0
 10
9.9223920489
 20
7.0827103761
 30
0.0
 10
9.8997673955
 20
7.0597023878
 30
0.0
 10
9.888170891
 20
7.0485009939
 30
0.0
  0
SPLINE
  5
2A1
100
AcDbEntity
  8
0
100
AcDbSpline
 62
7
  6
CONTINUOUS
 70
0
 71
3
 72
40
 73
36
 74
0
 42
0.0000001
 43
0.0000001
 44
0.0000000001
 40
0.0
 40
0.0
 40
0.0
 40
0.0
 40
0.0380574506
 40
0.0757459114
 40
0.1130351743
 40
0.1499042152
 40
0.1863357227
 40
0.2223187912
 40
0.2578475495
 40
0.2929209937
 40
0.3275420497
 40
0.361716621
 40
0.3954527176
 40
0.428759871
 40
0.4616480508
 40
0.4941266935
 40
0.5262043403
 40
0.5578878712
 40
0.6200726184
 40
0.6806932039
 40
0.7104046604
 40
0.7396925229
 40
0.7685344758
 40
0.7969005824
 40
0.8247537587
 40
0.8520465926
 40
0.8787221359
 40
0.904711679
 40
0.9299332199
 40
0.9422284722
 40
0.9542951856
 40
0.9661202219
 40
0.9776892455
 40
0.9889872638
 40
1.0
 40
1.0
 40
1.0
 40
1.0
 10
9.4278095851
 20
8.7933806569
 30
0.0
 10
9.4278095851
 20
8.7855261844
 30
0.0
 10
9.4281778696
 20
8.7698907289
 30
0.0
 10
9.4298478765
 20
8.746613146
 30
0.0
 10
9.4326194945
 20
8.7236872933
 30
0.0
 10
9.436470111
 20
8.7011810591
 30
0.0
 10
9.4413697032
 20
8.679155753
 30
0.0
 10
9.4472811524
 20
8.6576670615
 30
0.0
 10
9.4541617884
 20
8.6367638433
 30
0.0
 10
9.4619643571
 20
8.6164881024
 30
0.0
 10
9.47063839
 20
8.5968750759
 30
0.0
 10
9.4801312661
 20
8.5779536297
 30
0.0
 10
9.4903891694
 20
8.5597467256
 30
0.0
 10
9.501357723
 20
8.5422719569
 30
0.0
 10
9.5129828313
 20
8.5255423385
 30
0.0
 10
9.5252109544
 20
8.5095672012
 30
0.0
 10
9.537989781
 20
8.4943522912
 30
0.0
 10
9.5555811965
 20
8.4752064686
 30
0.0
 10
9.5786691996
 20
8.4531556738
 30
0.0
 10
9.6032240673
 20
8.433398897
 30
0.0
 10
9.6233934035
 20
8.419152138
 30
0.0
 10
9.6386231836
 20
8.4093078262
 30
0.0
 10
9.6540042943
 20
8.4002374558
 30
0.0
 10
9.6694840623
 20
8.3919464068
 30
0.0
 10
9.6850060996
 20
8.3844427248
 30
0.0
 10
9.7005101717
 20
8.3777377405
 30
0.0
 10
9.7159304505
 20
8.3718461253
 30
0.0
 10
9.731193916
 20
8.3667869666
 30
0.0
 10
9.7438216644
 20
8.3632544828
 30
0.0
 10
9.7537760459
 20
8.3608774227
 30
0.0
 10
9.7610846104
 20
8.3593357868
 30
0.0
 10
9.7682857373
 20
8.3580245482
 30
0.0
 10
9.7753654431
 20
8.3569484795
 30
0.0
 10
9.782308716
 20
8.3561127725
 30
0.0
 10
9.7868971011
 20
8.3557140555
 30
0.0
 10
9.7891646042
 20
8.3555581081
 30
0.0
  0
SPLINE
  5
2A2
100
AcDbEntity
  8
0
100
AcDbSpline
 62
7
  6
CONTINUOUS
 70
0
 71
3
 72
24
 73
20
 74
0
 42
0.0000001
 43
0.0000001
 44
0.0000000001
 40
0.0
 40
0.0
 40
0.0
 40
0.0
 40
0.0618983753
 40
0.0928543014
 40
0.1238160457
 40
0.1857609274
 40
0.2477519613
 40
0.3098039957
 40
0.3719314242
 40
0.4341480731
 40
0.4964671088
 40
0.5589009499
 40
0.6214611705
 40
0.6841584111
 40
0.7470023435
 40
0.8100015615
 40
0.8731635184
 40
0.9364947779
 40
1.0
 40
1.0
 40
1.0
 40
1.0
 10
9.9187473527
 20
7.2768525617
 30
0.0
 10
9.9273648268
 20
7.2851763957
 30
0.0
 10
9.9400190938
 20
7.2979503056
 30
0.0
 10
9.9563148457
 20
7.3155253423
 30
0.0
 10
9.972225979
 20
7.3334618505
 30
0.0
 10
9.9913775538
 20
7.3565437789
 30
0.0
 10
10.0131318159
 20
7.3852416692
 30
0.0
 10
10.0336260853
 20
7.4148958281
 30
0.0
 10
10.0528253845
 20
7.4454558032
 30
0.0
 10
10.0706973229
 20
7.4768699735
 30
0.0
 10
10.0872117404
 20
7.5090851309
 30
0.0
 10
10.1023407301
 20
7.5420467905
 30
0.0
 10
10.1160586599
 20
7.5756992223
 30
0.0
 10
10.1283424285
 20
7.609985469
 30
0.0
 10
10.1391713315
 20
7.6448475464
 30
0.0
 10
10.1485270392
 20
7.6802264435
 30
0.0
 10
10.1563937991
 20
7.7160625859
 30
0.0
 10
10.1627582548
 20
7.7522944784
 30
0.0
 10
10.1659883564
 20
7.7766402109
 30
0.0
 10
10.1673507342
 20
7.7888566152
 30
0.0
  0
SPLINE
  5
2A3
100
AcDbEntity
  8
0
100
AcDbSpline
 62
7
  6
CONTINUOUS
 70
0
 71
3
 72
28
 73
24
 74
0
 42
0.0000001
 43
0.0000001
 44
0.0000000001
 40
0.0
 40
0.0
 40
0.0
 40
0.0
 40
0.0617086243
 40
0.0925720876
 40
0.1234434529
 40
0.1852151788
 40
0.2470493621
 40
0.2779986299
 40
0.3089708821
 40
0.3399684617
 40
0.3709936509
 40
0.4331306325
 40
0.4954036252
 40
0.5578280403
 40
0.6204177847
 40
0.6831851553
 40
0.7146412035
 40
0.7461454533
 40
0.8092979915
 40
0.8726538567
 40
0.9044121067
 40
0.9362239452
 40
1.0
 40
1.0
 40
1.0
 40
1.0
 10
9.8892589955
 20
7.1148974431
 30
0.0
 10
9.9003508795
 20
7.1256113977
 30
0.0
 10
9.9165808131
 20
7.1421162304
 30
0.0
 10
9.9373477023
 20
7.1649320954
 30
0.0
 10
9.9575322455
 20
7.1882865099
 30
0.0
 10
9.9816426199
 20
7.2184595104
 30
0.0
 10
10.0041852429
 20
7.2498451834
 30
0.0
 10
10.021251967
 20
7.2756405387
 30
0.0
 10
10.033567324
 20
7.2953298979
 30
0.0
 10
10.0453861321
 20
7.3153433021
 30
0.0
 10
10.0604797498
 20
7.3424561974
 30
0.0
 10
10.078073764
 20
7.3771078859
 30
0.0
 10
10.0970853885
 20
7.4197742943
 30
0.0
 10
10.1139643178
 20
7.4634504648
 30
0.0
 10
10.1286711813
 20
7.508034282
 30
0.0
 10
10.1390816317
 20
7.5458330145
 30
0.0
 10
10.1462942782
 20
7.5764169074
 30
0.0
 10
10.1527687264
 20
7.6072639884
 30
0.0
 10
10.1594484658
 20
7.646200445
 30
0.0
 10
10.1642218893
 20
7.6854798857
 30
0.0
 10
10.1668985328
 20
7.7170891871
 30
0.0
 10
10.1688145004
 20
7.748858292
 30
0.0
 10
10.1693871841
 20
7.7727516186
 30
0.0
 10
10.1693871841
 20
7.7886896544
 30
0.0
  0
SPLINE
  5
2A4
100
AcDbEntity
  8
0
100
AcDbSpline
 62
7
  6
CONTINUOUS
 70
0
 71
3
 72
24
 73
20
 74
0
 42
0.0000001
 43
0.0000001
 44
0.0000000001
 40
0.0
 40
0.0
 40
0.0
 40
0.0
 40
0.0618630749
 40
0.0928017896
 40
0.1237467017
 40
0.1856593034
 40
0.2476210319
 40
0.3096476547
 40
0.3717544228
 40
0.4339559477
 40
0.4962660929
 40
0.5586978748
 40
0.6212633613
 40
0.6839735765
 40
0.74683843
 40
0.8098666547
 40
0.8730657449
 40
0.9364419003
 40
1.0
 40
1.0
 40
1.0
 40
1.0
 10
8.6167922373
 20
8.6247356008
 30
0.0
 10
8.6256889751
 20
8.6333291825
 30
0.0
 10
8.6393310853
 20
8.6459193612
 30
0.0
 10
8.6580769283
 20
8.6620710865
 30
0.0
 10
8.6771929258
 20
8.6777991985
 30
0.0
 10
8.7017632479
 20
8.6966478729
 30
0.0
 10
8.7322618011
 20
8.7179177715
 30
0.0
 10
8.7637254862
 20
8.7378054439
 30
0.0
 10
8.7960972234
 20
8.7562747275
 30
0.0
 10
8.829318735
 20
8.7732924061
 30
0.0
 10
8.8633300541
 20
8.7888278656
 30
0.0
 10
8.8980698589
 20
8.8028531445
 30
0.0
 10
8.9334755298
 20
8.8153429477
 30
0.0
 10
8.9694832241
 20
8.8262748003
 30
0.0
 10
9.0060280268
 20
8.8356291013
 30
0.0
 10
9.0430440009
 20
8.8433890357
 30
0.0
 10
9.0804646845
 20
8.8495406292
 30
0.0
 10
9.118221713
 20
8.8540727913
 30
0.0
 10
9.1435374651
 20
8.8560066023
 30
0.0
 10
9.1562266978
 20
8.8567024483
 30
0.0
  0
SPLINE
  5
2A5
100
AcDbEntity
  8
0
100
AcDbSpline
 62
7
  6
CONTINUOUS
 70
0
 71
3
 72
39
 73
35
 74
0
 42
0.0000001
 43
0.0000001
 44
0.0000000001
 40
0.0
 40
0.0
 40
0.0
 40
0.0
 40
0.0304562807
 40
0.0609188945
 40
0.0913941379
 40
0.1218882261
 40
0.1524072568
 40
0.1829571769
 40
0.213543741
 40
0.2441724754
 40
0.2748486525
 40
0.305577255
 40
0.336362943
 40
0.3672100362
 40
0.3981224876
 40
0.4291038545
 40
0.4601572898
 40
0.4912855255
 40
0.5224908506
 40
0.5537751095
 40
0.585139697
 40
0.6165855434
 40
0.6481131192
 40
0.6797224413
 40
0.7114130652
 40
0.7431840956
 40
0.7750342016
 40
0.8069616171
 40
0.838964155
 40
0.8710392311
 40
0.9031838707
 40
0.9353947269
 40
0.9676681098
 40
1.0
 40
1.0
 40
1.0
 40
1.0
 10
8.4539124973
 20
8.6008773952
 30
0.0
 10
8.4625580973
 20
8.6092284171
 30
0.0
 10
8.4801881732
 20
8.6255872423
 30
0.0
 10
8.5075987093
 20
8.649048257
 30
0.0
 10
8.5359392798
 20
8.6714019655
 30
0.0
 10
8.5651696801
 20
8.6926164636
 30
0.0
 10
8.59524904
 20
8.7126622725
 30
0.0
 10
8.6261351874
 20
8.7315112858
 30
0.0
 10
8.6577849163
 20
8.7491370319
 30
0.0
 10
8.6901538319
 20
8.7655149247
 30
0.0
 10
8.7231965883
 20
8.7806220612
 30
0.0
 10
8.7568669437
 20
8.7944372001
 30
0.0
 10
8.7911176983
 20
8.8069410932
 30
0.0
 10
8.8259008705
 20
8.818116291
 30
0.0
 10
8.8611677773
 20
8.8279470637
 30
0.0
 10
8.8968690068
 20
8.8364197313
 30
0.0
 10
8.9329545545
 20
8.8435225153
 30
0.0
 10
8.9693739112
 20
8.8492453976
 30
0.0
 10
9.0060760727
 20
8.8535804292
 30
0.0
 10
9.0430096473
 20
8.8565216467
 30
0.0
 10
9.0801229379
 20
8.85806487
 30
0.0
 10
9.117363985
 20
8.8582079748
 30
0.0
 10
9.1546806606
 20
8.8569508811
 30
0.0
 10
9.1920207327
 20
8.8542952996
 30
0.0
 10
9.2293319334
 20
8.8502449533
 30
0.0
 10
9.2665620562
 20
8.8448056398
 30
0.0
 10
9.3036589941
 20
8.8379849381
 30
0.0
 10
9.3405708214
 20
8.8297923707
 30
0.0
 10
9.377245907
 20
8.8202395342
 30
0.0
 10
9.4136329372
 20
8.8093397737
 30
0.0
 10
9.4496809343
 20
8.7971083149
 30
0.0
 10
9.4853396448
 20
8.7835623202
 30
0.0
 10
9.5205586134
 20
8.7687210335
 30
0.0
 10
9.543693372
 20
8.7579856301
 30
0.0
 10
9.5551712285
 20
8.7524099063
 30
0.0
  0
SPLINE
  5
2A6
100
AcDbEntity
  8
0
100
AcDbSpline
 62
7
  6
CONTINUOUS
 70
0
 71
3
 72
17
 73
13
 74
0
 42
0.0000001
 43
0.0000001
 44
0.0000000001
 40
0.0
 40
0.0
 40
0.0
 40
0.0
 40
0.1263574632
 40
0.1894166472
 40
0.2523873549
 40
0.3780382949
 40
0.5032940114
 40
0.6281322575
 40
0.7525351457
 40
0.8145740093
 40
0.8765011312
 40
1.0
 40
1.0
 40
1.0
 40
1.0
 10
10.0788434477
 20
8.2102894242
 30
0.0
 10
10.0862624253
 20
8.1935682815
 30
0.0
 10
10.0967487581
 20
8.1682131199
 30
0.0
 10
10.1094065923
 20
8.1339337791
 30
0.0
 10
10.121147809
 20
8.0994370438
 30
0.0
 10
10.1341248016
 20
8.0558657869
 30
0.0
 10
10.1469373711
 20
8.0029738129
 30
0.0
 10
10.1569427317
 20
7.9496633687
 30
0.0
 10
10.1629225595
 20
7.9049742445
 30
0.0
 10
10.1662737597
 20
7.8691698872
 30
0.0
 10
10.168665208
 20
7.833420667
 30
0.0
 10
10.1693871841
 20
7.8065689172
 30
0.0
 10
10.1693871841
 20
7.7886896544
 30
0.0
  0
SPLINE
  5
2A7
100
AcDbEntity
  8
0
100
AcDbSpline
 62
7
  6
CONTINUOUS
 70
0
 71
3
 72
71
 73
67
 74
0
 42
0.0000001
 43
0.0000001
 44
0.0000000001
 40
0.0
 40
0.0
 40
0.0
 40
0.0
 40
0.0149690242
 40
0.0299410444
 40
0.0449190395
 40
0.0599059532
 40
0.0749046745
 40
0.0899180224
 40
0.1049487305
 40
0.119999428
 40
0.1350726257
 40
0.1501707043
 40
0.1652958981
 40
0.1804502821
 40
0.195635765
 40
0.2108540765
 40
0.2261067562
 40
0.2413951518
 40
0.2567204098
 40
0.2720834674
 40
0.2874850549
 40
0.302925691
 40
0.3184056774
 40
0.3339251048
 40
0.3494838526
 40
0.3650815869
 40
0.3807177685
 40
0.3963916577
 40
0.4121023146
 40
0.4278486092
 40
0.4436292303
 40
0.4594426878
 40
0.475287325
 40
0.4911613297
 40
0.5070627394
 40
0.5229894549
 40
0.5389392528
 40
0.5549097931
 40
0.5708986336
 40
0.5869032437
 40
0.6029210137
 40
0.6189492696
 40
0.6349852877
 40
0.6510263049
 40
0.6670695339
 40
0.683112178
 40
0.6991514418
 40
0.7151845465
 40
0.7312087449
 40
0.7472213312
 40
0.763219657
 40
0.7792011451
 40
0.7951632991
 40
0.8111037183
 40
0.8270201113
 40
0.8429103037
 40
0.8587722526
 40
0.8746040577
 40
0.8904039697
 40
0.9061704036
 40
0.921901934
 40
0.9375973324
 40
0.9532555872
 40
0.9688756823
 40
0.9844571359
 40
1.0
 40
1.0
 40
1.0
 40
1.0
 10
8.3875145938
 20
8.6020873625
 30
0.0
 10
8.3963826533
 20
8.6106532736
 30
0.0
 10
8.4144596277
 20
8.6274397347
 30
0.0
 10
8.4425475124
 20
8.6515359434
 30
0.0
 10
8.4715727504
 20
8.6745191067
 30
0.0
 10
8.5014957235
 20
8.6963576515
 30
0.0
 10
8.5322762429
 20
8.71702225
 30
0.0
 10
8.5638727043
 20
8.7364851031
 30
0.0
 10
8.5962425435
 20
8.7547199511
 30
0.0
 10
8.6293421372
 20
8.7717021648
 30
0.0
 10
8.6631268031
 20
8.7874089679
 30
0.0
 10
8.6975510075
 20
8.8018191768
 30
0.0
 10
8.7325683664
 20
8.8149133091
 30
0.0
 10
8.7681316284
 20
8.8266738417
 30
0.0
 10
8.8041928603
 20
8.8370849347
 30
0.0
 10
8.8407034747
 20
8.8461324864
 30
0.0
 10
8.8776142292
 20
8.8538044321
 30
0.0
 10
8.9148753782
 20
8.8600904651
 30
0.0
 10
8.9524367183
 20
8.864982037
 30
0.0
 10
8.9902476137
 20
8.8684726776
 30
0.0
 10
9.0282571144
 20
8.8705577355
 30
0.0
 10
9.066414008
 20
8.8712343211
 30
0.0
 10
9.1046668767
 20
8.8705016275
 30
0.0
 10
9.1429641873
 20
8.8683607112
 30
0.0
 10
9.1812543381
 20
8.8648143778
 30
0.0
 10
9.2194857472
 20
8.8598674864
 30
0.0
 10
9.2576069248
 20
8.8535267846
 30
0.0
 10
9.2955665052
 20
8.8458007403
 30
0.0
 10
9.3333133603
 20
8.8366998152
 30
0.0
 10
9.3707966687
 20
8.8262363623
 30
0.0
 10
9.4079659235
 20
8.8144244097
 30
0.0
 10
9.4447710621
 20
8.8012798938
 30
0.0
 10
9.4811625474
 20
8.7868206186
 30
0.0
 10
9.5170913437
 20
8.7710660039
 30
0.0
 10
9.5525090536
 20
8.7540372678
 30
0.0
 10
9.5873680231
 20
8.7357574463
 30
0.0
 10
9.6216212832
 20
8.7162511157
 30
0.0
 10
9.6552226812
 20
8.6955445219
 30
0.0
 10
9.6881270221
 20
8.6736656502
 30
0.0
 10
9.7202899736
 20
8.6506439354
 30
0.0
 10
9.7516681823
 20
8.6265103381
 30
0.0
 10
9.7822194564
 20
8.6012974506
 30
0.0
 10
9.8119026391
 20
8.5750392092
 30
0.0
 10
9.8406776984
 20
8.5477709197
 30
0.0
 10
9.8685059527
 20
8.5195293843
 30
0.0
 10
9.8953499207
 20
8.4903526284
 30
0.0
 10
9.9211733758
 20
8.4602798819
 30
0.0
 10
9.9459416101
 20
8.4293517094
 30
0.0
 10
9.9696212727
 20
8.3976097633
 30
0.0
 10
9.9921803832
 20
8.3650967291
 30
0.0
 10
10.0135886208
 20
8.3318564412
 30
0.0
 10
10.0338171708
 20
8.2979336739
 30
0.0
 10
10.0528386885
 20
8.2633740559
 30
0.0
 10
10.0706276017
 20
8.2282241626
 30
0.0
 10
10.0871599817
 20
8.192531346
 30
0.0
 10
10.1024134543
 20
8.1563436296
 30
0.0
 10
10.1163674996
 20
8.1197097689
 30
0.0
 10
10.1290033662
 20
8.0826791191
 30
0.0
 10
10.1403039263
 20
8.0453015177
 30
0.0
 10
10.150253951
 20
8.0076273183
 30
0.0
 10
10.1588401035
 20
7.9697072847
 30
0.0
 10
10.1660507179
 20
7.9315924242
 30
0.0
 10
10.171875988
 20
7.8933342122
 30
0.0
 10
10.1763082557
 20
7.8549839839
 30
0.0
 10
10.1793413889
 20
7.8165936239
 30
0.0
 10
10.1804292514
 20
7.7909738192
 30
0.0
 10
10.1807380801
 20
7.7781753601
 30
0.0
  0
SPLINE
  5
2A8
100
AcDbEntity
  8
0
100
AcDbSpline
 62
7
  6
CONTINUOUS
 70
0
 71
3
 72
77
 73
73
 74
0
 42
0.0000001
 43
0.0000001
 44
0.0000000001
 40
0.0
 40
0.0
 40
0.0
 40
0.0
 40
0.0036899176
 40
0.007522071
 40
0.0114999204
 40
0.0156263788
 40
0.0199038058
 40
0.0243340484
 40
0.0289185796
 40
0.033658463
 40
0.0385543853
 40
0.0436067755
 40
0.0488157492
 40
0.054181137
 40
0.0653790963
 40
0.0771955482
 40
0.0896219771
 40
0.1026472777
 40
0.1162580548
 40
0.1304389597
 40
0.1451728456
 40
0.1604409111
 40
0.176222927
 40
0.192497322
 40
0.2092412571
 40
0.2264308003
 40
0.2440409869
 40
0.2620458647
 40
0.280418638
 40
0.2991317211
 40
0.3181567738
 40
0.3374648233
 40
0.3570263183
 40
0.3768111644
 40
0.4169278318
 40
0.4575668629
 40
0.4984755306
 40
0.5393989655
 40
0.5800821843
 40
0.6202721022
 40
0.6401043026
 40
0.6597201717
 40
0.6790895176
 40
0.6981826628
 40
0.7169704774
 40
0.7354244796
 40
0.7535169122
 40
0.7712207681
 40
0.7885099037
 40
0.8053591326
 40
0.8217442508
 40
0.8376421658
 40
0.8530310236
 40
0.867890246
 40
0.8822006929
 40
0.8959448464
 40
0.909106896
 40
0.9216729716
 40
0.9336314461
 40
0.9449731416
 40
0.9504108113
 40
0.9556922031
 40
0.960817075
 40
0.9657853893
 40
0.9705974259
 40
0.9752537359
 40
0.9797551755
 40
0.9841030919
 40
0.9882992342
 40
0.9923457204
 40
0.9962450014
 40
1.0
 40
1.0
 40
1.0
 40
1.0
 10
14.4483162645
 20
7.2480343405
 30
0.0
 10
14.4472345691
 20
7.2493643511
 30
0.0
 10
14.4450855629
 20
7.2521216621
 30
0.0
 10
14.441961855
 20
7.2564576555
 30
0.0
 10
14.4388790743
 20
7.2610688795
 30
0.0
 10
14.4358385675
 20
7.2659533932
 30
0.0
 10
14.4328415309
 20
7.2711092284
 30
0.0
 10
14.4298891204
 20
7.2765342398
 30
0.0
 10
14.4269825842
 20
7.2822262385
 30
0.0
 10
14.4241231066
 20
7.2881828868
 30
0.0
 10
14.4213118065
 20
7.2944017171
 30
0.0
 10
14.418549899
 20
7.3008801926
 30
0.0
 10
14.4158384893
 20
7.307615651
 30
0.0
 10
14.4122407517
 20
7.31707028
 30
0.0
 10
14.4078893891
 20
7.3295199547
 30
0.0
 10
14.4029581959
 20
7.3452327145
 30
0.0
 10
14.3982540099
 20
7.3618986855
 30
0.0
 10
14.3937846849
 20
7.3794903028
 30
0.0
 10
14.3895576608
 20
7.3979786334
 30
0.0
 10
14.3855800481
 20
7.4173331453
 30
0.0
 10
14.3818585344
 20
7.4375218402
 30
0.0
 10
14.3783993269
 20
7.4585112826
 30
0.0
 10
14.3752082519
 20
7.4802666936
 30
0.0
 10
14.3722906861
 20
7.5027519987
 30
0.0
 10
14.3696514911
 20
7.5259298849
 30
0.0
 10
14.367295111
 20
7.5497618818
 30
0.0
 10
14.3652255254
 20
7.5742084223
 30
0.0
 10
14.3634461758
 20
7.5992289025
 30
0.0
 10
14.361960059
 20
7.6247817616
 30
0.0
 10
14.3607696994
 20
7.6508245493
 30
0.0
 10
14.3598770672
 20
7.6773139951
 30
0.0
 10
14.3592836766
 20
7.7042060715
 30
0.0
 10
14.3589905375
 20
7.7314561267
 30
0.0
 10
14.3590008161
 20
7.7683755434
 30
0.0
 10
14.359773408
 20
7.8150845102
 30
0.0
 10
14.3618879398
 20
7.8715745556
 30
0.0
 10
14.3651805059
 20
7.9283837159
 30
0.0
 10
14.3696292006
 20
7.9851346378
 30
0.0
 10
14.3752044967
 20
8.0414503503
 30
0.0
 10
14.3807826053
 20
8.0879085707
 30
0.0
 10
14.3857875092
 20
8.1245692225
 30
0.0
 10
14.3897810009
 20
8.151603222
 30
0.0
 10
14.3940240407
 20
8.178251534
 30
0.0
 10
14.3985095659
 20
8.2044699121
 30
0.0
 10
14.4032301204
 20
8.2302147775
 30
0.0
 10
14.408177837
 20
8.2554433597
 30
0.0
 10
14.413344442
 20
8.2801137527
 30
0.0
 10
14.418721345
 20
8.3041849737
 30
0.0
 10
14.4242995835
 20
8.3276170482
 30
0.0
 10
14.4300698238
 20
8.3503710814
 30
0.0
 10
14.4360224608
 20
8.372409302
 30
0.0
 10
14.4421475733
 20
8.3936951451
 30
0.0
 10
14.4484349066
 20
8.4141933264
 30
0.0
 10
14.4548739868
 20
8.4338698744
 30
0.0
 10
14.461454088
 20
8.4526922069
 30
0.0
 10
14.4681641972
 20
8.4706292196
 30
0.0
 10
14.474993142
 20
8.48765128
 30
0.0
 10
14.4819295877
 20
8.5037303891
 30
0.0
 10
14.4889619468
 20
8.5188399708
 30
0.0
 10
14.4949739043
 20
8.5307646315
 30
0.0
 10
14.499830504
 20
8.5397910352
 30
0.0
 10
14.5034384748
 20
8.5462078763
 30
0.0
 10
14.5070616483
 20
8.5523644378
 30
0.0
 10
14.5106986153
 20
8.5582581519
 30
0.0
 10
14.514347815
 20
8.5638866067
 30
0.0
 10
14.5180077229
 20
8.5692474876
 30
0.0
 10
14.5216769038
 20
8.5743385667
 30
0.0
 10
14.5253538668
 20
8.5791578257
 30
0.0
 10
14.5290371627
 20
8.5837033411
 30
0.0
 10
14.5327253621
 20
8.5879731805
 30
0.0
 10
14.536416678
 20
8.5919654237
 30
0.0
 10
14.5389251933
 20
8.5944875625
 30
0.0
 10
14.5401799947
 20
8.5956996077
 30
0.0
  0
SPLINE
  5
2A9
100
AcDbEntity
  8
0
100
AcDbSpline
 62
7
  6
CONTINUOUS
 70
0
 71
3
 72
39
 73
35
 74
0
 42
0.0000001
 43
0.0000001
 44
0.0000000001
 40
0.0
 40
0.0
 40
0.0
 40
0.0
 40
0.0064813485
 40
0.0130002985
 40
0.0195937285
 40
0.026297146
 40
0.0331442162
 40
0.0401663079
 40
0.05484089
 40
0.0705272863
 40
0.0873816519
 40
0.1055233038
 40
0.1250399977
 40
0.1459941136
 40
0.1684273795
 40
0.192364659
 40
0.2178175573
 40
0.2447860489
 40
0.2732611697
 40
0.3032256797
 40
0.334655689
 40
0.3675213604
 40
0.4017874193
 40
0.4374142301
 40
0.4743575615
 40
0.5125697352
 40
0.5519993246
 40
0.5925918809
 40
0.6342900708
 40
0.6770336885
 40
0.7207603521
 40
0.8109000934
 40
0.9041686777
 40
1.0
 40
1.0
 40
1.0
 40
1.0
 10
14.3776015108
 20
10.5351611055
 30
0.0
 10
14.377601516
 20
10.5345536718
 30
0.0
 10
14.3776498125
 20
10.5333347363
 30
0.0
 10
14.3778669288
 20
10.5315094961
 30
0.0
 10
14.3782285522
 20
10.5296860335
 30
0.0
 10
14.378734362
 20
10.5278653964
 30
0.0
 10
14.3793840829
 20
10.5260483438
 30
0.0
 10
14.3804572227
 20
10.5235959281
 30
0.0
 10
14.3821786433
 20
10.520533065
 30
0.0
 10
14.3847812387
 20
10.5169442788
 30
0.0
 10
14.3879444154
 20
10.5133914994
 30
0.0
 10
14.3916621471
 20
10.5098793529
 30
0.0
 10
14.3959282413
 20
10.5064118602
 30
0.0
 10
14.4007359456
 20
10.5029937952
 30
0.0
 10
14.4060776953
 20
10.4996301426
 30
0.0
 10
14.4119449854
 20
10.4963259957
 30
0.0
 10
14.418328451
 20
10.4930867001
 30
0.0
 10
14.425217718
 20
10.4899173965
 30
0.0
 10
14.4326015753
 20
10.4868233956
 30
0.0
 10
14.4404678814
 20
10.4838097661
 30
0.0
 10
14.4488036684
 20
10.4808815582
 30
0.0
 10
14.4575951427
 20
10.478043697
 30
0.0
 10
14.4668277096
 20
10.4753008852
 30
0.0
 10
14.4764860309
 20
10.4726578118
 30
0.0
 10
14.4865540193
 20
10.4701188347
 30
0.0
 10
14.4970149012
 20
10.467688295
 30
0.0
 10
14.5078512263
 20
10.4653702357
 30
0.0
 10
14.5190449128
 20
10.4631685643
 30
0.0
 10
14.5305772648
 20
10.4610870141
 30
0.0
 10
14.5424290325
 20
10.4591290087
 30
0.0
 10
14.5587966505
 20
10.4566626686
 30
0.0
 10
14.5799094606
 20
10.4539227807
 30
0.0
 10
14.6059408648
 20
10.4512061041
 30
0.0
 10
14.6236079974
 20
10.4497829371
 30
0.0
 10
14.6325678143
 20
10.4491615716
 30
0.0
  0
SPLINE
  5
2AA
100
AcDbEntity
  8
0
100
AcDbSpline
 62
7
  6
CONTINUOUS
 70
0
 71
3
 72
39
 73
35
 74
0
 42
0.0000001
 43
0.0000001
 44
0.0000000001
 40
0.0
 40
0.0
 40
0.0
 40
0.0
 40
0.0064813485
 40
0.0130002985
 40
0.0195937285
 40
0.026297146
 40
0.0331442162
 40
0.0401663079
 40
0.05484089
 40
0.0705272863
 40
0.0873816519
 40
0.1055233038
 40
0.1250399977
 40
0.1459941136
 40
0.1684273795
 40
0.192364659
 40
0.2178175573
 40
0.2447860489
 40
0.2732611697
 40
0.3032256797
 40
0.334655689
 40
0.3675213604
 40
0.4017874193
 40
0.4374142301
 40
0.4743575615
 40
0.5125697352
 40
0.5519993246
 40
0.5925918809
 40
0.6342900708
 40
0.6770336885
 40
0.7207603521
 40
0.8109000934
 40
0.9041686777
 40
1.0
 40
1.0
 40
1.0
 40
1.0
 10
6.9343985261
 20
9.8455786863
 30
0.0
 10
6.9343985314
 20
9.8449712526
 30
0.0
 10
6.9344468279
 20
9.8437523171
 30
0.0
 10
6.9346639442
 20
9.8419270769
 30
0.0
 10
6.9350255675
 20
9.8401036143
 30
0.0
 10
6.9355313774
 20
9.8382829772
 30
0.0
 10
6.9361810982
 20
9.8364659246
 30
0.0
 10
6.9372542381
 20
9.8340135089
 30
0.0
 10
6.9389756586
 20
9.8309506458
 30
0.0
 10
6.941578254
 20
9.8273618596
 30
0.0
 10
6.9447414307
 20
9.8238090802
 30
0.0
 10
6.9484591625
 20
9.8202969337
 30
0.0
 10
6.9527252567
 20
9.816829441
 30
0.0
 10
6.9575329609
 20
9.813411376
 30
0.0
 10
6.9628747106
 20
9.8100477234
 30
0.0
 10
6.9687420007
 20
9.8067435765
 30
0.0
 10
6.9751254664
 20
9.8035042809
 30
0.0
 10
6.9820147333
 20
9.8003349773
 30
0.0
 10
6.9893985907
 20
9.7972409764
 30
0.0
 10
6.9972648968
 20
9.7942273469
 30
0.0
 10
7.0056006837
 20
9.791299139
 30
0.0
 10
7.014392158
 20
9.7884612778
 30
0.0
 10
7.023624725
 20
9.785718466
 30
0.0
 10
7.0332830462
 20
9.7830753926
 30
0.0
 10
7.0433510346
 20
9.7805364155
 30
0.0
 10
7.0538119165
 20
9.7781058758
 30
0.0
 10
7.0646482417
 20
9.7757878165
 30
0.0
 10
7.0758419281
 20
9.7735861451
 30
0.0
 10
7.0873742801
 20
9.7715045949
 30
0.0
 10
7.0992260478
 20
9.7695465895
 30
0.0
 10
7.1155936658
 20
9.7670802494
 30
0.0
 10
7.1367064759
 20
9.7643403615
 30
0.0
 10
7.1627378802
 20
9.7616236849
 30
0.0
 10
7.1804050127
 20
9.7602005179
 30
0.0
 10
7.1893648296
 20
9.7595791524
 30
0.0
  0
SPLINE
  5
2AB
100
AcDbEntity
  8
0
100
AcDbSpline
 62
7
  6
CONTINUOUS
 70
0
 71
3
 72
44
 73
40
 74
0
 42
0.0000001
 43
0.0000001
 44
0.0000000001
 40
0.0
 40
0.0
 40
0.0
 40
0.0
 40
0.0151575381
 40
0.0303433571
 40
0.0455578844
 40
0.0608014658
 40
0.0913737124
 40
0.1220640135
 40
0.1374547779
 40
0.1528747234
 40
0.1837980247
 40
0.2148334398
 40
0.2459762391
 40
0.2772204224
 40
0.3085588023
 40
0.339983098
 40
0.3714840402
 40
0.4030514841
 40
0.4346745301
 40
0.4663416517
 40
0.4980408267
 40
0.5297596745
 40
0.5614855946
 40
0.5932059075
 40
0.624907996
 40
0.6565794465
 40
0.6882081883
 40
0.7197826301
 40
0.7512917934
 40
0.7827254403
 40
0.8140741923
 40
0.8453296565
 40
0.8609214745
 40
0.8764873066
 40
0.9075354402
 40
0.9384718021
 40
0.9538982971
 40
0.9692961812
 40
1.0
 40
1.0
 40
1.0
 40
1.0
 10
10.1456338162
 20
8.0065279259
 30
0.0
 10
10.1396046908
 20
8.0056746352
 30
0.0
 10
10.1275101616
 20
8.0041382378
 30
0.0
 10
10.1092938076
 20
8.002347365
 30
0.0
 10
10.0909993967
 20
8.0010691279
 30
0.0
 10
10.0665003282
 20
8.0000490222
 30
0.0
 10
10.0357485795
 20
8.0000633578
 30
0.0
 10
10.0049865907
 20
8.0017911101
 30
0.0
 10
9.9803944573
 20
8.0041956858
 30
0.0
 10
9.955784878
 20
8.0072870236
 30
0.0
 10
9.9251108892
 20
8.0124290382
 30
0.0
 10
9.8885973274
 20
8.0206124428
 30
0.0
 10
9.8524542049
 20
8.0307896092
 30
0.0
 10
9.8167937615
 20
8.0429289283
 30
0.0
 10
9.781725833
 20
8.0569928567
 30
0.0
 10
9.7473586603
 20
8.0729378974
 30
0.0
 10
9.7137982495
 20
8.0907147711
 30
0.0
 10
9.6811481305
 20
8.1102685587
 30
0.0
 10
9.6495090182
 20
8.1315388734
 30
0.0
 10
9.6189785097
 20
8.1544600451
 30
0.0
 10
9.5896507839
 20
8.1789613232
 30
0.0
 10
9.5616163134
 20
8.2049670934
 30
0.0
 10
9.5349615873
 20
8.2323971102
 30
0.0
 10
9.5097688456
 20
8.2611667424
 30
0.0
 10
9.4861158277
 20
8.2911872334
 30
0.0
 10
9.4640755309
 20
8.3223659725
 30
0.0
 10
9.4437159871
 20
8.354606774
 30
0.0
 10
9.4251000516
 20
8.3878101949
 30
0.0
 10
9.4082852269
 20
8.4218737608
 30
0.0
 10
9.3933234195
 20
8.4566925708
 30
0.0
 10
9.3802610311
 20
8.4921585389
 30
0.0
 10
9.3709841972
 20
8.5221880837
 30
0.0
 10
9.3645523764
 20
8.5464248862
 30
0.0
 10
9.3587936394
 20
8.5707448216
 30
0.0
 10
9.3528432452
 20
8.6013418825
 30
0.0
 10
9.3485712136
 20
8.6321617369
 30
0.0
 10
9.3461768581
 20
8.6568598401
 30
0.0
 10
9.3444682668
 20
8.6815205085
 30
0.0
 10
9.3439522829
 20
8.7000461327
 30
0.0
 10
9.3439522829
 20
8.7123807182
 30
0.0
  0
SPLINE
  5
2AC
100
AcDbEntity
  8
0
100
AcDbSpline
 62
7
  6
CONTINUOUS
 70
0
 71
3
 72
71
 73
67
 74
0
 42
0.0000001
 43
0.0000001
 44
0.0000000001
 40
0.0
 40
0.0
 40
0.0
 40
0.0
 40
0.0155078405
 40
0.0310556494
 40
0.0466417044
 40
0.0622661933
 40
0.0779283549
 40
0.0936271743
 40
0.1093616006
 40
0.1251303458
 40
0.1409319456
 40
0.15676478
 40
0.172627066
 40
0.1885168765
 40
0.2044321471
 40
0.2203706857
 40
0.2363301885
 40
0.2523082473
 40
0.2683023624
 40
0.2843099585
 40
0.3003283927
 40
0.3163549695
 40
0.3323869563
 40
0.3484215917
 40
0.3644561024
 40
0.3804877172
 40
0.3965136763
 40
0.4125312489
 40
0.4285377452
 40
0.4445305269
 40
0.4605070246
 40
0.4764647477
 40
0.4924012956
 40
0.5083143739
 40
0.5242018031
 40
0.5400615287
 40
0.5558916368
 40
0.5716903602
 40
0.5874560876
 40
0.603187378
 40
0.6188829637
 40
0.6345417581
 40
0.6501628683
 40
0.6657455942
 40
0.6812894357
 40
0.696794101
 40
0.7122595035
 40
0.7276857661
 40
0.7430732258
 40
0.7584224276
 40
0.7737341254
 40
0.7890092829
 40
0.8042490642
 40
0.8194548307
 40
0.8346281384
 40
0.8497707247
 40
0.864884502
 40
0.8799715508
 40
0.8950341036
 40
0.9100745346
 40
0.9250953494
 40
0.9400991667
 40
0.9550887045
 40
0.970066767
 40
0.9850362252
 40
1.0
 40
1.0
 40
1.0
 40
1.0
 10
8.1189717575
 20
7.9211403219
 30
0.0
 10
8.1189717575
 20
7.9084113466
 30
0.0
 10
8.1194385035
 20
7.8829181734
 30
0.0
 10
8.1215311934
 20
7.8446834852
 30
0.0
 10
8.1250149645
 20
7.8064537597
 30
0.0
 10
8.1298849227
 20
7.7682813694
 30
0.0
 10
8.1361344996
 20
7.7302166721
 30
0.0
 10
8.1437553862
 20
7.6923106675
 30
0.0
 10
8.1527374268
 20
7.6546140538
 30
0.0
 10
8.1630684913
 20
7.6171771445
 30
0.0
 10
8.174734779
 20
7.5800499646
 30
0.0
 10
8.1877207768
 20
7.5432821551
 30
0.0
 10
8.2020089967
 20
7.5069227956
 30
0.0
 10
8.2175803576
 20
7.4710204668
 30
0.0
 10
8.2344141302
 20
7.4356231762
 30
0.0
 10
8.2524876933
 20
7.4007781585
 30
0.0
 10
8.2717769187
 20
7.366531975
 30
0.0
 10
8.292256105
 20
7.3329304251
 30
0.0
 10
8.3138977716
 20
7.3000183318
 30
0.0
 10
8.3366730324
 20
7.2678396806
 30
0.0
 10
8.3605515224
 20
7.2364375135
 30
0.0
 10
8.3855012318
 20
7.2058537048
 30
0.0
 10
8.4114888621
 20
7.1761291383
 30
0.0
 10
8.4384797498
 20
7.147303582
 30
0.0
 10
8.4664377395
 20
7.1194154597
 30
0.0
 10
8.4953255187
 20
7.0925020652
 30
0.0
 10
8.5251045417
 20
7.0665994142
 30
0.0
 10
8.5557349409
 20
7.0417420202
 30
0.0
 10
8.5871758361
 20
7.0179631405
 30
0.0
 10
8.619385262
 20
6.9952946062
 30
0.0
 10
8.6523201165
 20
6.9737666068
 30
0.0
 10
8.6859364405
 20
6.9534079651
 30
0.0
 10
8.7201893529
 20
6.934245945
 30
0.0
 10
8.7550330334
 20
6.9163060497
 30
0.0
 10
8.7904209692
 20
6.8996123232
 30
0.0
 10
8.8263059021
 20
6.8841871334
 30
0.0
 10
8.8626398422
 20
6.8700509919
 30
0.0
 10
8.8993742789
 20
6.857222875
 30
0.0
 10
8.936460144
 20
6.8457199855
 30
0.0
 10
8.9738478523
 20
6.8355575966
 30
0.0
 10
9.011487475
 20
6.8267493892
 30
0.0
 10
9.0493287227
 20
6.8193071927
 30
0.0
 10
9.0873210088
 20
6.8132408579
 30
0.0
 10
9.1254135823
 20
6.808558605
 30
0.0
 10
9.1635555367
 20
6.8052667458
 30
0.0
 10
9.2016958893
 20
6.803369589
 30
0.0
 10
9.2397836738
 20
6.8028697937
 30
0.0
 10
9.2777679779
 20
6.8037680753
 30
0.0
 10
9.3155980341
 20
6.8060631466
 30
0.0
 10
9.3532232699
 20
6.8097520707
 30
0.0
 10
9.3905933802
 20
6.8148299549
 30
0.0
 10
9.4276584212
 20
6.8212899289
 30
0.0
 10
9.4643688206
 20
6.8291234912
 30
0.0
 10
9.5006754869
 20
6.8383201961
 30
0.0
 10
9.5365299001
 20
6.8488676697
 30
0.0
 10
9.5718840833
 20
6.8607519437
 30
0.0
 10
9.6066907522
 20
6.8739571418
 30
0.0
 10
9.6409033949
 20
6.8884655322
 30
0.0
 10
9.6744762075
 20
6.9042578434
 30
0.0
 10
9.7073642869
 20
6.9213129572
 30
0.0
 10
9.7395236876
 20
6.9396079923
 30
0.0
 10
9.7709113431
 20
6.959118612
 30
0.0
 10
9.8014852358
 20
6.9798186726
 30
0.0
 10
9.8312046729
 20
7.0016805543
 30
0.0
 10
9.8600292684
 20
7.0246746342
 30
0.0
 10
9.8786271025
 20
7.0407415155
 30
0.0
 10
9.8877623488
 20
7.0489515494
 30
0.0
  0
SPLINE
  5
2AD
100
AcDbEntity
  8
0
100
AcDbSpline
 62
7
  6
CONTINUOUS
 70
0
 71
3
 72
27
 73
23
 74
0
 42
0.0000001
 43
0.0000001
 44
0.0000000001
 40
0.0
 40
0.0
 40
0.0
 40
0.0
 40
0.0637440371
 40
0.0955433722
 40
0.1272913545
 40
0.1906334276
 40
0.2537805887
 40
0.2852847835
 40
0.316742492
 40
0.3795182311
 40
0.4421213931
 40
0.5045627684
 40
0.5668546005
 40
0.6290104798
 40
0.6910452375
 40
0.7220244374
 40
0.7529794194
 40
0.8148207193
 40
0.8765914704
 40
0.9074584402
 40
0.9383147111
 40
1.0
 40
1.0
 40
1.0
 40
1.0
 10
8.1189717575
 20
7.9211403219
 30
0.0
 10
8.1189717575
 20
7.93707665
 30
0.0
 10
8.1195194159
 20
7.9609678243
 30
0.0
 10
8.1213513429
 20
7.9927405665
 30
0.0
 10
8.1239109326
 20
8.0243627193
 30
0.0
 10
8.1284760214
 20
8.063673793
 30
0.0
 10
8.1348649182
 20
8.1026684746
 30
0.0
 10
8.1410588392
 20
8.1335845905
 30
0.0
 10
8.1479602797
 20
8.1642552445
 30
0.0
 10
8.1579238709
 20
8.2021946885
 30
0.0
 10
8.172004722
 20
8.2470080295
 30
0.0
 10
8.1881725464
 20
8.2909831786
 30
0.0
 10
8.2063932839
 20
8.3340269262
 30
0.0
 10
8.2266282676
 20
8.3760480575
 30
0.0
 10
8.2451431893
 20
8.4101567658
 30
0.0
 10
8.2609158305
 20
8.4368390613
 30
0.0
 10
8.2773088928
 20
8.4630877859
 30
0.0
 10
8.2989743625
 20
8.4951052769
 30
0.0
 10
8.3221689313
 20
8.5260055108
 30
0.0
 10
8.341601593
 20
8.5500004768
 30
0.0
 10
8.3616034546
 20
8.5734941629
 30
0.0
 10
8.377248744
 20
8.5905546815
 30
0.0
 10
8.3879483645
 20
8.6016607525
 30
0.0
  0
SPLINE
  5
2AE
100
AcDbEntity
  8
0
100
AcDbSpline
 62
7
  6
CONTINUOUS
 70
0
 71
3
 72
43
 73
39
 74
0
 42
0.0000001
 43
0.0000001
 44
0.0000000001
 40
0.0
 40
0.0
 40
0.0
 40
0.0
 40
0.0318773894
 40
0.047777433
 40
0.0636503302
 40
0.0953147336
 40
0.1268761467
 40
0.1426204364
 40
0.1583403602
 40
0.1897070687
 40
0.2209842182
 40
0.2521782146
 40
0.2832962973
 40
0.3143464822
 40
0.3453374838
 40
0.3762786288
 40
0.4071797628
 40
0.4380511494
 40
0.4689033643
 40
0.4997471843
 40
0.5305934749
 40
0.561453075
 40
0.5923366837
 40
0.6232547479
 40
0.654217354
 40
0.6852341239
 40
0.7163141175
 40
0.7474657422
 40
0.7786966712
 40
0.8100137708
 40
0.8414230373
 40
0.8571650903
 40
0.8729320079
 40
0.9045398661
 40
0.9362521902
 40
0.9521494212
 40
0.9680734716
 40
1.0
 40
1.0
 40
1.0
 40
1.0
 10
8.1440858305
 20
7.919398655
 30
0.0
 10
8.1440858305
 20
7.9358944916
 30
0.0
 10
8.1446870742
 20
7.9606239054
 30
0.0
 10
8.146698702
 20
7.993502421
 30
0.0
 10
8.1495088572
 20
8.0262123586
 30
0.0
 10
8.154520227
 20
8.0668540532
 30
0.0
 10
8.1615326672
 20
8.1071314602
 30
0.0
 10
8.1683290947
 20
8.1390328876
 30
0.0
 10
8.1758999275
 20
8.1706557646
 30
0.0
 10
8.1868265258
 20
8.2097268627
 30
0.0
 10
8.2022606152
 20
8.2557892626
 30
0.0
 10
8.2199712936
 20
8.300887799
 30
0.0
 10
8.2399164991
 20
8.3449146914
 30
0.0
 10
8.2620490335
 20
8.3877656356
 30
0.0
 10
8.2863164359
 20
8.42933886
 30
0.0
 10
8.3126611802
 20
8.4695356848
 30
0.0
 10
8.3410207912
 20
8.5082606748
 30
0.0
 10
8.3713279979
 20
8.5454218915
 30
0.0
 10
8.403510892
 20
8.5809311081
 30
0.0
 10
8.4374930998
 20
8.6147040239
 30
0.0
 10
8.4731939649
 20
8.646660467
 30
0.0
 10
8.5105287423
 20
8.6767245853
 30
0.0
 10
8.5494087931
 20
8.7048250418
 30
0.0
 10
8.5897418069
 20
8.7308951771
 30
0.0
 10
8.6314320272
 20
8.7548731655
 30
0.0
 10
8.6743804754
 20
8.7767021616
 30
0.0
 10
8.7184852124
 20
8.7963304375
 30
0.0
 10
8.7636414971
 20
8.8137114902
 30
0.0
 10
8.8097423577
 20
8.8288042044
 30
0.0
 10
8.8566776489
 20
8.8415727422
 30
0.0
 10
8.8963654529
 20
8.8502451031
 30
0.0
 10
8.9284153705
 20
8.8559954298
 30
0.0
 10
8.9607007055
 20
8.8609582676
 30
0.0
 10
9.0013735554
 20
8.8656604808
 30
0.0
 10
9.0422962964
 20
8.8683471287
 30
0.0
 10
9.0751629947
 20
8.8692902475
 30
0.0
 10
9.1081531382
 20
8.8694277249
 30
0.0
 10
9.1329145548
 20
8.8686222501
 30
0.0
 10
9.1494092195
 20
8.8676851101
 30
0.0
  0
SPLINE
  5
2AF
100
AcDbEntity
  8
0
100
AcDbSpline
 62
7
  6
CONTINUOUS
 70
0
 71
3
 72
28
 73
24
 74
0
 42
0.0000001
 43
0.0000001
 44
0.0000000001
 40
0.0
 40
0.0
 40
0.0
 40
0.0
 40
0.0637760548
 40
0.0955878933
 40
0.1273461433
 40
0.1907020085
 40
0.2538545467
 40
0.2853587965
 40
0.3168148447
 40
0.3795822153
 40
0.4421719597
 40
0.5045963748
 40
0.5668693675
 40
0.6290063491
 40
0.6600315383
 40
0.6910291179
 40
0.7220013701
 40
0.7529506379
 40
0.8147848212
 40
0.8765565471
 40
0.9074279124
 40
0.9382913757
 40
1.0
 40
1.0
 40
1.0
 40
1.0
 10
8.1737843087
 20
7.9270851839
 30
0.0
 10
8.1737843087
 20
7.9430232197
 30
0.0
 10
8.1743569924
 20
7.9669165463
 30
0.0
 10
8.17627296
 20
7.9986856512
 30
0.0
 10
8.1789496035
 20
8.0302949526
 30
0.0
 10
8.1837230271
 20
8.0695743933
 30
0.0
 10
8.1904027664
 20
8.1085108498
 30
0.0
 10
8.1968772146
 20
8.1393579309
 30
0.0
 10
8.2040898612
 20
8.1699418238
 30
0.0
 10
8.2145003115
 20
8.2077405563
 30
0.0
 10
8.2292071751
 20
8.2523243735
 30
0.0
 10
8.2460861043
 20
8.296000544
 30
0.0
 10
8.2650977288
 20
8.3386669524
 30
0.0
 10
8.282691743
 20
8.3733186409
 30
0.0
 10
8.2977853607
 20
8.4004315362
 30
0.0
 10
8.3096041688
 20
8.4204449404
 30
0.0
 10
8.3219195258
 20
8.4401342996
 30
0.0
 10
8.33898625
 20
8.4659296549
 30
0.0
 10
8.3615288729
 20
8.4973153279
 30
0.0
 10
8.3856392474
 20
8.5274883283
 30
0.0
 10
8.4058237905
 20
8.5508427428
 30
0.0
 10
8.4265906797
 20
8.5736586079
 30
0.0
 10
8.4428206134
 20
8.5901634405
 30
0.0
 10
8.4539124973
 20
8.6008773952
 30
0.0
  0
SPLINE
  5
2B0
100
AcDbEntity
  8
0
100
AcDbSpline
 62
7
  6
CONTINUOUS
 70
0
 71
3
 72
26
 73
22
 74
0
 42
0.0000001
 43
0.0000001
 44
0.0000000001
 40
0.0
 40
0.0
 40
0.0
 40
0.0
 40
0.0637239659
 40
0.1272526155
 40
0.1905853233
 40
0.2537280776
 40
0.2852316499
 40
0.3166897639
 40
0.3794693469
 40
0.4420794859
 40
0.5045301402
 40
0.5668326407
 40
0.6289995722
 40
0.6910446899
 40
0.7220283323
 40
0.7529871592
 40
0.8148340128
 40
0.8766061513
 40
0.9074717581
 40
0.9383251802
 40
1.0
 40
1.0
 40
1.0
 40
1.0
 10
8.2451217495
 20
7.9959918643
 30
0.0
 10
8.2451217495
 20
8.0108276395
 30
0.0
 10
8.2457827581
 20
8.040458046
 30
0.0
 10
8.2487658661
 20
8.0847428687
 30
0.0
 10
8.2537334162
 20
8.1287136167
 30
0.0
 10
8.2595228935
 20
8.1650487196
 30
0.0
 10
8.2651363891
 20
8.1938681124
 30
0.0
 10
8.2713917696
 20
8.2224684515
 30
0.0
 10
8.2804238695
 20
8.2578645804
 30
0.0
 10
8.2931909403
 20
8.2997072382
 30
0.0
 10
8.3078540806
 20
8.3408063813
 30
0.0
 10
8.3243840258
 20
8.3810795025
 30
0.0
 10
8.3427475568
 20
8.4204457651
 30
0.0
 10
8.3595565755
 20
8.4524458843
 30
0.0
 10
8.3738807678
 20
8.47750969
 30
0.0
 10
8.3887714537
 20
8.5021872853
 30
0.0
 10
8.4084577337
 20
8.5323303943
 30
0.0
 10
8.4295447544
 20
8.5614840094
 30
0.0
 10
8.4472193747
 20
8.5841629727
 30
0.0
 10
8.4654159555
 20
8.606395309
 30
0.0
 10
8.4796560491
 20
8.6225735363
 30
0.0
 10
8.4893983227
 20
8.6331215491
 30
0.0
  0
SPLINE
  5
2B1
100
AcDbEntity
  8
0
100
AcDbSpline
 62
7
  6
CONTINUOUS
 70
0
 71
3
 72
28
 73
24
 74
0
 42
0.0000001
 43
0.0000001
 44
0.0000000001
 40
0.0
 40
0.0
 40
0.0
 40
0.0
 40
0.0637758949
 40
0.0955879076
 40
0.127346217
 40
0.1907019662
 40
0.2538545319
 40
0.2853587842
 40
0.316814822
 40
0.3795821874
 40
0.442171929
 40
0.5045963366
 40
0.5668693232
 40
0.6290062991
 40
0.6910240354
 40
0.7219962854
 40
0.7529455518
 40
0.8147797326
 40
0.8765514543
 40
0.9074228156
 40
0.9382862776
 40
0.9691444601
 40
1.0
 40
1.0
 40
1.0
 40
1.0
 10
8.3626972421
 20
8.013561076
 30
0.0
 10
8.3626972421
 20
8.0280179039
 30
0.0
 10
8.3632167211
 20
8.0496907511
 30
0.0
 10
8.3649546077
 20
8.0785074715
 30
0.0
 10
8.3673825142
 20
8.1071792475
 30
0.0
 10
8.3717123427
 20
8.1428083171
 30
0.0
 10
8.3777712799
 20
8.1781262732
 30
0.0
 10
8.3836440676
 20
8.206106636
 30
0.0
 10
8.3901863824
 20
8.2338482787
 30
0.0
 10
8.3996293637
 20
8.2681342411
 30
0.0
 10
8.4129695003
 20
8.3085747733
 30
0.0
 10
8.4282797557
 20
8.3481918398
 30
0.0
 10
8.4455248634
 20
8.3868936031
 30
0.0
 10
8.4646647939
 20
8.4245903807
 30
0.0
 10
8.4821658067
 20
8.4551095003
 30
0.0
 10
8.4970657786
 20
8.4789307968
 30
0.0
 10
8.5125464162
 20
8.5023290795
 30
0.0
 10
8.5329940595
 20
8.5307978789
 30
0.0
 10
8.5548639133
 20
8.5581668845
 30
0.0
 10
8.5731724079
 20
8.5793507499
 30
0.0
 10
8.587302356
 20
8.5948746409
 30
0.0
 10
8.6018240852
 20
8.6100273313
 30
0.0
 10
8.611761491
 20
8.619876277
 30
0.0
 10
8.6167922373
 20
8.6247356008
 30
0.0
  0
SPLINE
  5
2B2
100
AcDbEntity
  8
0
100
AcDbSpline
 62
7
  6
CONTINUOUS
 70
0
 71
3
 72
15
 73
11
 74
0
 42
0.0000001
 43
0.0000001
 44
0.0000000001
 40
0.0
 40
0.0
 40
0.0
 40
0.0
 40
0.1261113976
 40
0.2519013138
 40
0.3773600718
 40
0.5024984732
 40
0.6273228251
 40
0.7518405657
 40
0.8760623035
 40
1.0
 40
1.0
 40
1.0
 40
1.0
 10
8.9284752078
 20
8.5600606573
 30
0.0
 10
8.9284752078
 20
8.5714030261
 30
0.0
 10
8.9289012858
 20
8.594061203
 30
0.0
 10
8.9308230779
 20
8.6279540092
 30
0.0
 10
8.9340244701
 20
8.6616626254
 30
0.0
 10
8.9385007519
 20
8.6951380643
 30
0.0
 10
8.9442455408
 20
8.7283334544
 30
0.0
 10
8.9512508601
 20
8.7612017856
 30
0.0
 10
8.959506668
 20
8.7936957565
 30
0.0
 10
8.9658438126
 20
8.815103495
 30
0.0
 10
8.9692167848
 20
8.8257277934
 30
0.0
  0
SPLINE
  5
2B3
100
AcDbEntity
  8
0
100
AcDbSpline
 62
7
  6
CONTINUOUS
 70
0
 71
3
 72
15
 73
11
 74
0
 42
0.0000001
 43
0.0000001
 44
0.0000000001
 40
0.0
 40
0.0
 40
0.0
 40
0.0
 40
0.1261883101
 40
0.252029628
 40
0.3775167388
 40
0.5026615505
 40
0.6274709156
 40
0.7519548762
 40
0.8761263716
 40
1.0
 40
1.0
 40
1.0
 40
1.0
 10
8.9797192865
 20
8.5677180189
 30
0.0
 10
8.9797192865
 20
8.579348981
 30
0.0
 10
8.9801882107
 20
8.6025817068
 30
0.0
 10
8.9823037071
 20
8.6373228013
 30
0.0
 10
8.9858273411
 20
8.6718534136
 30
0.0
 10
8.9907531016
 20
8.7061158946
 30
0.0
 10
8.9970731153
 20
8.740054824
 30
0.0
 10
9.0047771031
 20
8.773614802
 30
0.0
 10
9.0138522372
 20
8.8067402538
 30
0.0
 10
9.0208153595
 20
8.8285251607
 30
0.0
 10
9.0245201929
 20
8.8393249815
 30
0.0
  0
SPLINE
  5
2B4
100
AcDbEntity
  8
0
100
AcDbSpline
 62
7
  6
CONTINUOUS
 70
0
 71
3
 72
15
 73
11
 74
0
 42
0.0000001
 43
0.0000001
 44
0.0000000001
 40
0.0
 40
0.0
 40
0.0
 40
0.0
 40
0.1261933422
 40
0.2520384958
 40
0.3775275052
 40
0.5026726485
 40
0.6274810089
 40
0.7519626397
 40
0.8761306994
 40
1.0
 40
1.0
 40
1.0
 40
1.0
 10
9.0086066794
 20
8.5774617199
 30
0.0
 10
9.0086066794
 20
8.5889106878
 30
0.0
 10
9.0090704581
 20
8.6117798011
 30
0.0
 10
9.0111627234
 20
8.6459763826
 30
0.0
 10
9.0146476484
 20
8.6799642788
 30
0.0
 10
9.0195192398
 20
8.7136861744
 30
0.0
 10
9.0257696036
 20
8.7470870296
 30
0.0
 10
9.0333884932
 20
8.7801118065
 30
0.0
 10
9.0423631316
 20
8.8127052791
 30
0.0
 10
9.0492489003
 20
8.8341375811
 30
0.0
 10
9.0529124981
 20
8.8447617679
 30
0.0
  0
SPLINE
  5
2B5
100
AcDbEntity
  8
0
100
AcDbSpline
 62
7
  6
CONTINUOUS
 70
0
 71
3
 72
43
 73
39
 74
0
 42
0.0000001
 43
0.0000001
 44
0.0000000001
 40
0.0
 40
0.0
 40
0.0
 40
0.0
 40
0.0306963933
 40
0.0615093982
 40
0.0924365683
 40
0.1234746748
 40
0.1546188391
 40
0.1858630949
 40
0.2172002678
 40
0.2486221406
 40
0.2801195302
 40
0.3116824063
 40
0.3433000061
 40
0.3749609591
 40
0.4066534153
 40
0.4383651769
 40
0.4700838343
 40
0.5017969019
 40
0.5334919553
 40
0.5651567685
 40
0.5967794486
 40
0.6283485686
 40
0.6598532961
 40
0.6912835182
 40
0.7226299589
 40
0.7538842911
 40
0.7850392387
 40
0.8160886703
 40
0.8315736463
 40
0.8470305112
 40
0.862458857
 40
0.8778583563
 40
0.90856706
 40
0.9391586267
 40
0.954412082
 40
0.9696365832
 40
0.9848324295
 40
1.0
 40
1.0
 40
1.0
 40
1.0
 10
9.1845745121
 20
8.7234336041
 30
0.0
 10
9.1845745121
 20
8.7082567617
 30
0.0
 10
9.1854151958
 20
8.6778389109
 30
0.0
 10
9.1891774442
 20
8.6322701494
 30
0.0
 10
9.1954318169
 20
8.5868043741
 30
0.0
 10
9.2041590229
 20
8.5415817304
 30
0.0
 10
9.2153324737
 20
8.4967391192
 30
0.0
 10
9.2289180186
 20
8.4524129967
 30
0.0
 10
9.2448742672
 20
8.408738026
 30
0.0
 10
9.2631526034
 20
8.3658469374
 30
0.0
 10
9.2836973859
 20
8.3238700548
 30
0.0
 10
9.3064460958
 20
8.2829349223
 30
0.0
 10
9.3313295351
 20
8.2431659144
 30
0.0
 10
9.3582720331
 20
8.204683862
 30
0.0
 10
9.3871916769
 20
8.1676056872
 30
0.0
 10
9.4180005591
 20
8.1320440509
 30
0.0
 10
9.4506050432
 20
8.0981070122
 30
0.0
 10
9.4849060474
 20
8.0658977019
 30
0.0
 10
9.5207993433
 20
8.0355140112
 30
0.0
 10
9.5581758715
 20
8.0070482955
 30
0.0
 10
9.5969220698
 20
7.9805870951
 30
0.0
 10
9.6369202185
 20
7.9562108736
 30
0.0
 10
9.6780487876
 20
7.9339937737
 30
0.0
 10
9.7201828315
 20
7.9140033888
 30
0.0
 10
9.7631942632
 20
7.8963005753
 30
0.0
 10
9.8069526231
 20
7.8809392045
 30
0.0
 10
9.8513240525
 20
7.8679662305
 30
0.0
 10
9.8887351246
 20
7.8591703659
 30
0.0
 10
9.9188334698
 20
7.8533673337
 30
0.0
 10
9.9414571319
 20
7.8496369572
 30
0.0
 10
9.9641318429
 20
7.846527678
 30
0.0
 10
9.994379087
 20
7.8432167977
 30
0.0
 10
10.0322332483
 20
7.8406369249
 30
0.0
 10
10.0701002509
 20
7.8401476192
 30
0.0
 10
10.1002848684
 20
7.8410162209
 30
0.0
 10
10.1228336818
 20
7.8422949208
 30
0.0
 10
10.1452952606
 20
7.844200296
 30
0.0
 10
10.1602145472
 20
7.8458891054
 30
0.0
 10
10.1676534343
 20
7.8468376336
 30
0.0
  0
SPLINE
  5
2B6
100
AcDbEntity
  8
0
100
AcDbSpline
 62
7
  6
CONTINUOUS
 70
0
 71
3
 72
76
 73
72
 74
0
 42
0.0000001
 43
0.0000001
 44
0.0000000001
 40
0.0
 40
0.0
 40
0.0
 40
0.0
 40
0.0156368823
 40
0.023475821
 40
0.0313275661
 40
0.0470686282
 40
0.062860271
 40
0.0707750528
 40
0.0787017918
 40
0.0945888884
 40
0.1105201019
 40
0.1264924878
 40
0.1425027307
 40
0.1585471818
 40
0.1746218922
 40
0.1907226494
 40
0.2068450149
 40
0.2229843636
 40
0.2391359245
 40
0.2552948214
 40
0.2714561152
 40
0.2876148463
 40
0.3037660767
 40
0.3199049332
 40
0.3360266486
 40
0.3521266036
 40
0.3682003667
 40
0.3842437338
 40
0.4002527656
 40
0.4162238239
 40
0.4321536057
 40
0.4480391754
 40
0.4638779937
 40
0.4796679442
 40
0.4954073561
 40
0.5110950238
 40
0.5267302227
 40
0.5423127206
 40
0.5578427849
 40
0.5733211854
 40
0.5887491919
 40
0.6041285668
 40
0.6194615524
 40
0.634750853
 40
0.6499996118
 40
0.6652113831
 40
0.6803900987
 40
0.6955400303
 40
0.7106657478
 40
0.725772073
 40
0.7408640306
 40
0.755946796
 40
0.7710256411
 40
0.7861058793
 40
0.801192809
 40
0.8162916583
 40
0.8314075301
 40
0.8465453489
 40
0.8617098105
 40
0.8769053341
 40
0.8921360187
 40
0.9074056023
 40
0.9227174292
 40
0.9303907228
 40
0.9380756285
 40
0.9534802332
 40
0.9689344833
 40
0.9766812147
 40
0.9844408858
 40
0.9922138237
 40
1.0
 40
1.0
 40
1.0
 40
1.0
 10
8.1440858305
 20
7.919398655
 30
0.0
 10
8.1440858305
 20
7.9028456625
 30
0.0
 10
8.1446922544
 20
7.8779890225
 30
0.0
 10
8.1467021587
 20
7.8448847855
 30
0.0
 10
8.1495187345
 20
7.8117280172
 30
0.0
 10
8.1545453768
 20
7.7703232692
 30
0.0
 10
8.1615534629
 20
7.7291399864
 30
0.0
 10
8.1683413458
 20
7.6963459412
 30
0.0
 10
8.1759256087
 20
7.6636231752
 30
0.0
 10
8.1868739189
 20
7.6229815666
 30
0.0
 10
8.2023137863
 20
7.5747857274
 30
0.0
 10
8.2200291259
 20
7.527239443
 30
0.0
 10
8.2399777614
 20
7.4804560614
 30
0.0
 10
8.2621123992
 20
7.4345462302
 30
0.0
 10
8.2863805226
 20
7.3896187584
 30
0.0
 10
8.3127245856
 20
7.345780062
 30
0.0
 10
8.3410821305
 20
7.3031339943
 30
0.0
 10
8.371385941
 20
7.2617815794
 30
0.0
 10
8.4035641987
 20
7.2218207807
 30
0.0
 10
8.4375406532
 20
7.1833462689
 30
0.0
 10
8.4732348012
 20
7.1464491989
 30
0.0
 10
8.5105620776
 20
7.1112169964
 30
0.0
 10
8.5494340447
 20
7.0777331404
 30
0.0
 10
8.5897586097
 20
7.0460769733
 30
0.0
 10
8.6314402436
 20
7.0163235156
 30
0.0
 10
8.6743802061
 20
6.9885432895
 30
0.0
 10
8.7184767772
 20
6.9628021516
 30
0.0
 10
8.7636254976
 20
6.9391611387
 30
0.0
 10
8.8097194131
 20
6.9176763224
 30
0.0
 10
8.8566493275
 20
6.8983986781
 30
0.0
 10
8.9043040574
 20
6.8813739596
 30
0.0
 10
8.9525706924
 20
6.8666425812
 30
0.0
 10
9.0013348664
 20
6.8542395347
 30
0.0
 10
9.0504810259
 20
6.8441943044
 30
0.0
 10
9.0998927019
 20
6.8365307967
 30
0.0
 10
9.1494527839
 20
6.8312672819
 30
0.0
 10
9.1990437951
 20
6.8284163498
 30
0.0
 10
9.2485481694
 20
6.8279848773
 30
0.0
 10
9.2978485288
 20
6.8299740121
 30
0.0
 10
9.3468279609
 20
6.8343791543
 30
0.0
 10
9.395370298
 20
6.8411899695
 30
0.0
 10
9.4433603912
 20
6.8503904187
 30
0.0
 10
9.4906843834
 20
6.8619587911
 30
0.0
 10
9.53722998
 20
6.8758677533
 30
0.0
 10
9.5828867158
 20
6.8920844111
 30
0.0
 10
9.6275462187
 20
6.9105703845
 30
0.0
 10
9.6711024686
 20
6.9312818962
 30
0.0
 10
9.7134520518
 20
6.9541698726
 30
0.0
 10
9.7544944177
 20
6.9791800467
 30
0.0
 10
9.7941321141
 20
7.0062530996
 30
0.0
 10
9.8322710218
 20
7.0353248013
 30
0.0
 10
9.8688205816
 20
7.0663261627
 30
0.0
 10
9.9036940116
 20
7.0991836008
 30
0.0
 10
9.9368085163
 20
7.1338191148
 30
0.0
 10
9.9680854859
 20
7.1701504726
 30
0.0
 10
9.997450683
 20
7.2080914101
 30
0.0
 10
10.0248344288
 20
7.2475518339
 30
0.0
 10
10.0501717704
 20
7.2884380331
 30
0.0
 10
10.0734026311
 20
7.3306529359
 30
0.0
 10
10.0944719327
 20
7.3740962561
 30
0.0
 10
10.1133298073
 20
7.4186650521
 30
0.0
 10
10.129931398
 20
7.4642527869
 30
0.0
 10
10.1418451988
 20
7.5029761958
 30
0.0
 10
10.1502127193
 20
7.5343493213
 30
0.0
 10
10.1578114529
 20
7.5660185755
 30
0.0
 10
10.1658343585
 20
7.6060423774
 30
0.0
 10
10.1718621513
 20
7.6464808518
 30
0.0
 10
10.1754884213
 20
7.6790569276
 30
0.0
 10
10.1776097419
 20
7.7036113007
 30
0.0
 10
10.1791290038
 20
7.7282517902
 30
0.0
 10
10.1797393097
 20
7.7447131
 30
0.0
 10
10.1799441623
 20
7.7529528951
 30
0.0
  0
SPLINE
  5
2B7
100
AcDbEntity
  8
0
100
AcDbSpline
 62
7
  6
CONTINUOUS
 70
0
 71
3
 72
71
 73
67
 74
0
 42
0.0000001
 43
0.0000001
 44
0.0000000001
 40
0.0
 40
0.0
 40
0.0
 40
0.0
 40
0.015517456
 40
0.0310754342
 40
0.0466722358
 40
0.0623080312
 40
0.0779820019
 40
0.0936931066
 40
0.1094402474
 40
0.1252220779
 40
0.1410370731
 40
0.1568835455
 40
0.1727596381
 40
0.1886633443
 40
0.2045925177
 40
0.2205448792
 40
0.2365180349
 40
0.2525094863
 40
0.2685166406
 40
0.2845368285
 40
0.3005673158
 40
0.3166053148
 40
0.3326480026
 40
0.3486925326
 40
0.3647360474
 40
0.3807756969
 40
0.3968086494
 40
0.4128321051
 40
0.4288433138
 40
0.4448395854
 40
0.4608183033
 40
0.4767769412
 40
0.4927130729
 40
0.5086243846
 40
0.5245086911
 40
0.5403639435
 40
0.5561882405
 40
0.5719798433
 40
0.5877371812
 40
0.6034588605
 40
0.6191436782
 40
0.6347906247
 40
0.6503988899
 40
0.6659678749
 40
0.6814971918
 40
0.6969866661
 40
0.7124363456
 40
0.7278464973
 40
0.7432176056
 40
0.7585503777
 40
0.7738457371
 40
0.7891048176
 40
0.8043289646
 40
0.8195197254
 40
0.8346788389
 40
0.8498082318
 40
0.8649100067
 40
0.8799864273
 40
0.8950399105
 40
0.9100730111
 40
0.9250884047
 40
0.9400888748
 40
0.9550772966
 40
0.9700566167
 40
0.9850298375
 40
1.0
 40
1.0
 40
1.0
 40
1.0
 10
8.1737843087
 20
7.9270851839
 30
0.0
 10
8.1737843087
 20
7.9147353604
 30
0.0
 10
8.1742436597
 20
7.8900010516
 30
0.0
 10
8.1763031021
 20
7.8529053376
 30
0.0
 10
8.1797314113
 20
7.815815959
 30
0.0
 10
8.1845236271
 20
7.7787851603
 30
0.0
 10
8.1906731392
 20
7.741863228
 30
0.0
 10
8.1981714928
 20
7.7051010605
 30
0.0
 10
8.207008412
 20
7.6685492353
 30
0.0
 10
8.2171716571
 20
7.6322579586
 30
0.0
 10
8.2286472113
 20
7.5962771131
 30
0.0
 10
8.2414193826
 20
7.5606561956
 30
0.0
 10
8.2554705213
 20
7.5254441447
 30
0.0
 10
8.2707812605
 20
7.4906893433
 30
0.0
 10
8.2873306417
 20
7.4564396089
 30
0.0
 10
8.3050958397
 20
7.422741992
 30
0.0
 10
8.3240523805
 20
7.3896427831
 30
0.0
 10
8.3441742924
 20
7.3571875319
 30
0.0
 10
8.3654338589
 20
7.3254208222
 30
0.0
 10
8.3878018018
 20
7.2943862808
 30
0.0
 10
8.4112474563
 20
7.2641266271
 30
0.0
 10
8.4357385556
 20
7.2346834317
 30
0.0
 10
8.4612413804
 20
7.2060971185
 30
0.0
 10
8.4877209509
 20
7.1784070489
 30
0.0
 10
8.5151408463
 20
7.1516512705
 30
0.0
 10
8.5434633237
 20
7.1258665047
 30
0.0
 10
8.5726495194
 20
7.1010882686
 30
0.0
 10
8.6026593064
 20
7.0773506199
 30
0.0
 10
8.6334513846
 20
7.054686124
 30
0.0
 10
8.6649834865
 20
7.0331260141
 30
0.0
 10
8.6972122706
 20
7.0126999402
 30
0.0
 10
8.7300933907
 20
6.9934359094
 30
0.0
 10
8.7635816967
 20
6.9753604842
 30
0.0
 10
8.7976311646
 20
6.9584985428
 30
0.0
 10
8.8321949498
 20
6.9428731878
 30
0.0
 10
8.8672255771
 20
6.9285059819
 30
0.0
 10
8.902674904
 20
6.9154167255
 30
0.0
 10
8.9384941662
 20
6.9036233312
 30
0.0
 10
8.9746341495
 20
6.8931420938
 30
0.0
 10
9.0110451828
 20
6.8839874919
 30
0.0
 10
9.047677184
 20
6.8761720263
 30
0.0
 10
9.0844798081
 20
6.8697065205
 30
0.0
 10
9.1214024639
 20
6.8645999514
 30
0.0
 10
9.15839437
 20
6.8608592532
 30
0.0
 10
9.1954046723
 20
6.8584896418
 30
0.0
 10
9.23238248
 20
6.8574944791
 30
0.0
 10
9.269276939
 20
6.8578750457
 30
0.0
 10
9.3060373157
 20
6.8596308824
 30
0.0
 10
9.3426130442
 20
6.8627596909
 30
0.0
 10
9.3789538261
 20
6.8672570808
 30
0.0
 10
9.4150096765
 20
6.8731169199
 30
0.0
 10
9.4507309769
 20
6.880331273
 30
0.0
 10
9.486068606
 20
6.8888901309
 30
0.0
 10
9.5209739487
 20
6.8987817605
 30
0.0
 10
9.5553989463
 20
6.9099926822
 30
0.0
 10
9.5892962626
 20
6.9225073896
 30
0.0
 10
9.6226192577
 20
6.9363086907
 30
0.0
 10
9.6553220281
 20
6.9513777218
 30
0.0
 10
9.6873596093
 20
6.9676936699
 30
0.0
 10
9.7186879202
 20
6.9852340949
 30
0.0
 10
9.7492637804
 20
7.003974975
 30
0.0
 10
9.779045166
 20
7.0238904571
 30
0.0
 10
9.8079910661
 20
7.0449530926
 30
0.0
 10
9.8360617135
 20
7.0671341369
 30
0.0
 10
9.863217984
 20
7.0904024901
 30
0.0
 10
9.8806896225
 20
7.1066200509
 30
0.0
 10
9.8892589955
 20
7.1148974431
 30
0.0
  0
SPLINE
  5
2B8
100
AcDbEntity
  8
0
100
AcDbSpline
 62
7
  6
CONTINUOUS
 70
0
 71
3
 72
67
 73
63
 74
0
 42
0.0000001
 43
0.0000001
 44
0.0000000001
 40
0.0
 40
0.0
 40
0.0
 40
0.0
 40
0.0155034003
 40
0.0310465023
 40
0.0466275727
 40
0.0622468062
 40
0.0779034698
 40
0.093596561
 40
0.1093250506
 40
0.1250876786
 40
0.1408830096
 40
0.1567094551
 40
0.1725652675
 40
0.1884485574
 40
0.2043572991
 40
0.2202893419
 40
0.2362424249
 40
0.2522141826
 40
0.2682021602
 40
0.2842038268
 40
0.3162331681
 40
0.3482854845
 40
0.3803389856
 40
0.412371859
 40
0.4283761513
 40
0.4443673125
 40
0.4603427965
 40
0.4763001302
 40
0.492236928
 40
0.5081509057
 40
0.5240398873
 40
0.5399018191
 40
0.5557347821
 40
0.5715369965
 40
0.5873068363
 40
0.6030428383
 40
0.6187437051
 40
0.634408319
 40
0.6500357472
 40
0.6656252431
 40
0.6811762589
 40
0.696688446
 40
0.7121616556
 40
0.7275959473
 40
0.7429915869
 40
0.7583490432
 40
0.7736689947
 40
0.7889523221
 40
0.8042001036
 40
0.8194136167
 40
0.8345943273
 40
0.8497438823
 40
0.8648641068
 40
0.8799569902
 40
0.8950246755
 40
0.9100694525
 40
0.9250937413
 40
0.9401000786
 40
0.9550911074
 40
0.9700695588
 40
0.9850382356
 40
1.0
 40
1.0
 40
1.0
 40
1.0
 10
8.2451217495
 20
7.9959918643
 30
0.0
 10
8.2451217495
 20
7.983901256
 30
0.0
 10
8.2455620109
 20
7.9596868137
 30
0.0
 10
8.247535997
 20
7.9233695827
 30
0.0
 10
8.2508222108
 20
7.887056361
 30
0.0
 10
8.2554161005
 20
7.8507962246
 30
0.0
 10
8.2613115375
 20
7.8146363372
 30
0.0
 10
8.2685008143
 20
7.7786244774
 30
0.0
 10
8.276974474
 20
7.7428081492
 30
0.0
 10
8.2867212176
 20
7.7072344923
 30
0.0
 10
8.2977282314
 20
7.6719503929
 30
0.0
 10
8.3099810631
 20
7.6370023726
 30
0.0
 10
8.32346343
 20
7.6024364336
 30
0.0
 10
8.3381576084
 20
7.5682981375
 30
0.0
 10
8.3540442799
 20
7.5346324892
 30
0.0
 10
8.3711023787
 20
7.501483798
 30
0.0
 10
8.38930951
 20
7.4688957368
 30
0.0
 10
8.4086416163
 20
7.4369113817
 30
0.0
 10
8.4290734663
 20
7.4055723744
 30
0.0
 10
8.4577517716
 20
7.3646946915
 30
0.0
 10
8.4962108405
 20
7.3154200851
 30
0.0
 10
8.5462753425
 20
7.2595370811
 30
0.0
 10
8.6000088895
 20
7.2071683595
 30
0.0
 10
8.6476291303
 20
7.1666700524
 30
0.0
 10
8.687271593
 20
7.1362951877
 30
0.0
 10
8.717730272
 20
7.1145599883
 30
0.0
 10
8.7488808425
 20
7.093895489
 30
0.0
 10
8.7806827523
 20
7.0743286585
 30
0.0
 10
8.8130939584
 20
7.0558853416
 30
0.0
 10
8.8460717606
 20
7.0385897652
 30
0.0
 10
8.879572762
 20
7.0224648512
 30
0.0
 10
8.9135527911
 20
7.0075317936
 30
0.0
 10
8.9479670614
 20
6.993810237
 30
0.0
 10
8.9827702774
 20
6.9813183991
 30
0.0
 10
9.0179165484
 20
6.9700726744
 30
0.0
 10
9.0533595591
 20
6.960087867
 30
0.0
 10
9.0890526404
 20
6.9513772789
 30
0.0
 10
9.1249487307
 20
6.9439523091
 30
0.0
 10
9.1610005287
 20
6.9378227473
 30
0.0
 10
9.197160543
 20
6.9329968181
 30
0.0
 10
9.2333810999
 20
6.9294807902
 30
0.0
 10
9.2696144678
 20
6.9272793231
 30
0.0
 10
9.3058128941
 20
6.9263954609
 30
0.0
 10
9.3419286596
 20
6.9268302687
 30
0.0
 10
9.3779141624
 20
6.928583219
 30
0.0
 10
9.4137219551
 20
6.9316521331
 30
0.0
 10
9.4493048396
 20
6.9360328609
 30
0.0
 10
9.4846159028
 20
6.9417196907
 30
0.0
 10
9.5196085674
 20
6.9487052411
 30
0.0
 10
9.5542367164
 20
6.9569801959
 30
0.0
 10
9.5884546782
 20
6.966533723
 30
0.0
 10
9.6222173016
 20
6.9773533202
 30
0.0
 10
9.6554800987
 20
6.9894246154
 30
0.0
 10
9.6881991782
 20
7.0027317799
 30
0.0
 10
9.7203313569
 20
7.0172573341
 30
0.0
 10
9.751834305
 20
7.0329820219
 30
0.0
 10
9.7826664286
 20
7.0498851973
 30
0.0
 10
9.8127870433
 20
7.0679446178
 30
0.0
 10
9.8421564402
 20
7.0871363386
 30
0.0
 10
9.8707359676
 20
7.1074352603
 30
0.0
 10
9.8984873709
 20
7.128814183
 30
0.0
 10
9.9164161876
 20
7.143771527
 30
0.0
 10
9.9252287253
 20
7.1514191513
 30
0.0
  0
SPLINE
  5
2B9
100
AcDbEntity
  8
0
100
AcDbSpline
 62
7
  6
CONTINUOUS
 70
0
 71
3
 72
67
 73
63
 74
0
 42
0.0000001
 43
0.0000001
 44
0.0000000001
 40
0.0
 40
0.0
 40
0.0
 40
0.0
 40
0.015517693
 40
0.031076043
 40
0.0466731519
 40
0.0623092222
 40
0.0779835038
 40
0.0936949142
 40
0.1094423548
 40
0.1252244897
 40
0.1410397907
 40
0.1568865676
 40
0.1727629656
 40
0.1886669792
 40
0.2045964587
 40
0.2205491273
 40
0.2365225916
 40
0.2525143503
 40
0.268521813
 40
0.2845423102
 40
0.3005731055
 40
0.3166114138
 40
0.3486944463
 40
0.3807734242
 40
0.4128256331
 40
0.4448288904
 40
0.460807917
 40
0.4767668617
 40
0.4927033003
 40
0.5086149192
 40
0.524499531
 40
0.5403550889
 40
0.5561796913
 40
0.5719715977
 40
0.5877292393
 40
0.6034512218
 40
0.6191363412
 40
0.6347835893
 40
0.6503921552
 40
0.6659614401
 40
0.6814910562
 40
0.6969808287
 40
0.7124308061
 40
0.7278412546
 40
0.7432126587
 40
0.7585457267
 40
0.7738413804
 40
0.7891007544
 40
0.8043251955
 40
0.8195162485
 40
0.8346756536
 40
0.8498053389
 40
0.8649074042
 40
0.8799841148
 40
0.8950378889
 40
0.9100712786
 40
0.925086961
 40
0.9400877209
 40
0.9550764311
 40
0.9700560392
 40
0.9850295493
 40
1.0
 40
1.0
 40
1.0
 40
1.0
 10
8.3626972421
 20
8.013561076
 30
0.0
 10
8.3626972421
 20
8.0023590059
 30
0.0
 10
8.3631139192
 20
7.9799233288
 30
0.0
 10
8.3649819483
 20
7.9462750252
 30
0.0
 10
8.3680916544
 20
7.9126324427
 30
0.0
 10
8.3724385428
 20
7.8790430466
 30
0.0
 10
8.378016526
 20
7.8455523926
 30
0.0
 10
8.3848180481
 20
7.8122066473
 30
0.0
 10
8.3928337433
 20
7.7790517058
 30
0.0
 10
8.4020524446
 20
7.7461330839
 30
0.0
 10
8.4124615674
 20
7.7134960615
 30
0.0
 10
8.4240467928
 20
7.6811855157
 30
0.0
 10
8.4367920654
 20
7.6492458139
 30
0.0
 10
8.4506799704
 20
7.6177209053
 30
0.0
 10
8.465691371
 20
7.5866541129
 30
0.0
 10
8.4818055387
 20
7.5560880952
 30
0.0
 10
8.4990004406
 20
7.5260649297
 30
0.0
 10
8.5172523532
 20
7.4966258547
 30
0.0
 10
8.5365361639
 20
7.4678112734
 30
0.0
 10
8.556825377
 20
7.4396609773
 30
0.0
 10
8.5780923765
 20
7.412213202
 30
0.0
 10
8.607712469
 20
7.37660362
 30
0.0
 10
8.6470305655
 20
7.3340378145
 30
0.0
 10
8.6976128129
 20
7.2863601778
 30
0.0
 10
8.7513281316
 20
7.2423329373
 30
0.0
 10
8.7984869167
 20
7.2088665193
 30
0.0
 10
8.837481138
 20
7.1841527163
 30
0.0
 10
8.8673068116
 20
7.1666788066
 30
0.0
 10
8.8976828517
 20
7.1502832108
 30
0.0
 10
8.9285680061
 20
7.1349882738
 30
0.0
 10
8.9599196826
 20
7.1208150814
 30
0.0
 10
8.9916947887
 20
7.1077830321
 30
0.0
 10
9.0238496949
 20
7.0959101982
 30
0.0
 10
9.0563401685
 20
7.0852128338
 30
0.0
 10
9.0891215383
 20
7.075705622
 30
0.0
 10
9.1221487794
 20
7.0674017916
 30
0.0
 10
9.1553764546
 20
7.0603126588
 30
0.0
 10
9.1887588892
 20
7.0544479931
 30
0.0
 10
9.222250206
 20
7.0498160043
 30
0.0
 10
9.2558043354
 20
7.0464229409
 30
0.0
 10
9.2893751513
 20
7.04427354
 30
0.0
 10
9.322916493
 20
7.0433708715
 30
0.0
 10
9.3563822319
 20
7.0437160544
 30
0.0
 10
9.3897263484
 20
7.0453087289
 30
0.0
 10
9.4229029763
 20
7.0481467735
 30
0.0
 10
9.4558664968
 20
7.0522261763
 30
0.0
 10
9.4885715564
 20
7.0575414744
 30
0.0
 10
9.5209731613
 20
7.064085373
 30
0.0
 10
9.5530267616
 20
7.0718487886
 30
0.0
 10
9.584688225
 20
7.0808212077
 30
0.0
 10
9.6159139996
 20
7.090990251
 30
0.0
 10
9.6466611473
 20
7.1023418815
 30
0.0
 10
9.6768873037
 20
7.114860647
 30
0.0
 10
9.7065509091
 20
7.128529243
 30
0.0
 10
9.7356111591
 20
7.1433288537
 30
0.0
 10
9.7640279904
 20
7.1592392612
 30
0.0
 10
9.791762355
 20
7.17623846
 30
0.0
 10
9.8187760875
 20
7.1943030958
 30
0.0
 10
9.8450319023
 20
7.2134083821
 30
0.0
 10
9.8704938799
 20
7.2335280352
 30
0.0
 10
9.8951264634
 20
7.2546339518
 30
0.0
 10
9.9109743499
 20
7.2693444237
 30
0.0
 10
9.9187473527
 20
7.2768525617
 30
0.0
  0
SPLINE
  5
2BA
100
AcDbEntity
  8
0
100
AcDbSpline
 62
7
  6
CONTINUOUS
 70
0
 71
3
 72
43
 73
39
 74
0
 42
0.0000001
 43
0.0000001
 44
0.0000000001
 40
0.0
 40
0.0
 40
0.0
 40
0.0
 40
0.030780283
 40
0.0616864211
 40
0.0927159533
 40
0.1238643804
 40
0.1551257593
 40
0.1864925478
 40
0.2179558142
 40
0.2495053392
 40
0.2811297699
 40
0.3128167744
 40
0.3445532084
 40
0.3763252891
 40
0.408118775
 40
0.4399191499
 40
0.4717118093
 40
0.5034822478
 40
0.5352162448
 40
0.566900049
 40
0.5985205575
 40
0.6300654894
 40
0.6615235518
 40
0.6928845956
 40
0.7241397603
 40
0.755281605
 40
0.7863042239
 40
0.8172033442
 40
0.8326074127
 40
0.8479797939
 40
0.8633204439
 40
0.8786294318
 40
0.9091497905
 40
0.9395471175
 40
0.9547027897
 40
0.9698295772
 40
0.9849283312
 40
1.0
 40
1.0
 40
1.0
 40
1.0
 10
8.9284752078
 20
8.5600606573
 30
0.0
 10
8.9284752078
 20
8.5420494988
 30
0.0
 10
8.9295532812
 20
8.5059445361
 30
0.0
 10
8.934375509
 20
8.4518764236
 30
0.0
 10
8.9423887069
 20
8.3979689742
 30
0.0
 10
8.9535642869
 20
8.3444158718
 30
0.0
 10
8.9678623236
 20
8.2914063927
 30
0.0
 10
8.9852319324
 20
8.2391286597
 30
0.0
 10
9.0056113201
 20
8.1877679657
 30
0.0
 10
9.028928069
 20
8.1375063919
 30
0.0
 10
9.0550993681
 20
8.0885220945
 30
0.0
 10
9.0840323171
 20
8.0409886993
 30
0.0
 10
9.1156242512
 20
7.9950746855
 30
0.0
 10
9.1497631052
 20
7.9509427947
 30
0.0
 10
9.1863278085
 20
7.9087494582
 30
0.0
 10
9.2251887124
 20
7.8686442464
 30
0.0
 10
9.2662080462
 20
7.830769342
 30
0.0
 10
9.3092404033
 20
7.7952590398
 30
0.0
 10
9.3541332526
 20
7.7622392729
 30
0.0
 10
9.4007274754
 20
7.7318271688
 30
0.0
 10
9.4488579245
 20
7.7041306363
 30
0.0
 10
9.498354008
 20
7.6792479843
 30
0.0
 10
9.5490402777
 20
7.6572675741
 30
0.0
 10
9.6007370857
 20
7.6382675044
 30
0.0
 10
9.6532610675
 20
7.6223153428
 30
0.0
 10
9.7064263356
 20
7.6094678484
 30
0.0
 10
9.7600430927
 20
7.5997709025
 30
0.0
 10
9.8049919909
 20
7.5943385511
 30
0.0
 10
9.8409820906
 20
7.5916022097
 30
0.0
 10
9.867942936
 20
7.5903555719
 30
0.0
 10
9.8948733543
 20
7.5899140214
 30
0.0
 10
9.9306683172
 20
7.5903984063
 30
0.0
 10
9.9752247961
 20
7.5930108009
 30
0.0
 10
10.0194527043
 20
7.5983069517
 30
0.0
 10
10.0544817501
 20
7.6041410521
 30
0.0
 10
10.0805341373
 20
7.6093055135
 30
0.0
 10
10.1063669203
 20
7.6152580328
 30
0.0
 10
10.1234429912
 20
7.6197524934
 30
0.0
 10
10.1319358982
 20
7.6221293077
 30
0.0
  0
SPLINE
  5
2BB
100
AcDbEntity
  8
0
100
AcDbSpline
 62
7
  6
CONTINUOUS
 70
0
 71
3
 72
43
 73
39
 74
0
 42
0.0000001
 43
0.0000001
 44
0.0000000001
 40
0.0
 40
0.0
 40
0.0
 40
0.0
 40
0.0307940457
 40
0.0617154118
 40
0.0927615887
 40
0.1239278962
 40
0.1552081932
 40
0.186594678
 40
0.21807812
 40
0.2496479647
 40
0.2812924965
 40
0.3129990016
 40
0.3447539433
 40
0.3765431449
 40
0.4083519791
 40
0.4401655603
 40
0.4719689412
 40
0.5037473079
 40
0.5354861753
 40
0.5671715788
 40
0.5987902612
 40
0.6303298532
 40
0.661779045
 40
0.6931277474
 40
0.7243672397
 40
0.7554903038
 40
0.7864913398
 40
0.8173664637
 40
0.8327578207
 40
0.8481170667
 40
0.863444233
 40
0.8787394597
 40
0.9092316919
 40
0.939600782
 40
0.9547425678
 40
0.9698557192
 40
0.9849411793
 40
1.0
 40
1.0
 40
1.0
 40
1.0
 10
8.9797192865
 20
8.5677180189
 30
0.0
 10
8.9797192865
 20
8.550311444
 30
0.0
 10
8.9807732986
 20
8.515417426
 30
0.0
 10
8.985487516
 20
8.4631660206
 30
0.0
 10
8.9933207228
 20
8.4110760454
 30
0.0
 10
9.0042443348
 20
8.3593389987
 30
0.0
 10
9.0182184072
 20
8.3081420011
 30
0.0
 10
9.0351920541
 20
8.2576709668
 30
0.0
 10
9.0551034835
 20
8.2081089464
 30
0.0
 10
9.0778802949
 20
8.1596357306
 30
0.0
 10
9.1034397135
 20
8.1124271327
 30
0.0
 10
9.1316889014
 20
8.0666543764
 30
0.0
 10
9.1625252898
 20
8.0224834741
 30
0.0
 10
9.1958369511
 20
7.9800746315
 30
0.0
 10
9.2315030024
 20
7.9395816704
 30
0.0
 10
9.2693940418
 20
7.9011514752
 30
0.0
 10
9.3093726147
 20
7.8649234631
 30
0.0
 10
9.3512937092
 20
7.8310290826
 30
0.0
 10
9.3950052783
 20
7.7995913388
 30
0.0
 10
9.4403487874
 20
7.7707243499
 30
0.0
 10
9.4871597839
 20
7.7445329354
 30
0.0
 10
9.5352684912
 20
7.7211122351
 30
0.0
 10
9.5845004094
 20
7.7005473668
 30
0.0
 10
9.6346769818
 20
7.6829131158
 30
0.0
 10
9.6856160899
 20
7.6682736666
 30
0.0
 10
9.7371332543
 20
7.6566823538
 30
0.0
 10
9.7890402679
 20
7.6481815186
 30
0.0
 10
9.8325137088
 20
7.643693983
 30
0.0
 10
9.8672941824
 20
7.6416796791
 30
0.0
 10
9.8933340625
 20
7.6409570193
 30
0.0
 10
9.919329573
 20
7.6410215569
 30
0.0
 10
9.9538608971
 20
7.6421560133
 30
0.0
 10
9.9968048459
 20
7.6455346194
 30
0.0
 10
10.0393747451
 20
7.6515335963
 30
0.0
 10
10.073053161
 20
7.6578888585
 30
0.0
 10
10.0980820224
 20
7.6634230217
 30
0.0
 10
10.1228800668
 20
7.6697239809
 30
0.0
 10
10.1392582229
 20
7.674436369
 30
0.0
 10
10.1474004385
 20
7.6769183936
 30
0.0
  0
SPLINE
  5
2BC
100
AcDbEntity
  8
0
100
AcDbSpline
 62
7
  6
CONTINUOUS
 70
0
 71
3
 72
43
 73
39
 74
0
 42
0.0000001
 43
0.0000001
 44
0.0000000001
 40
0.0
 40
0.0
 40
0.0
 40
0.0
 40
0.03079484
 40
0.061717123
 40
0.0927642695
 40
0.1239316298
 40
0.155213037
 40
0.1866006778
 40
0.2180853031
 40
0.2496563386
 40
0.2813020475
 40
0.3130096931
 40
0.3447657158
 40
0.3765559156
 40
0.4083656424
 40
0.4401799893
 40
0.4719839885
 40
0.5037628086
 40
0.535501949
 40
0.5671874329
 40
0.5988059947
 40
0.6303452603
 40
0.6617939196
 40
0.6931418872
 40
0.7243804516
 40
0.7555024082
 40
0.7865021759
 40
0.8173758941
 40
0.8327665055
 40
0.848124987
 40
0.8634513655
 40
0.8787457936
 40
0.9092363949
 40
0.9396038547
 40
0.9547448416
 40
0.9698572109
 40
0.9849419116
 40
1.0
 40
1.0
 40
1.0
 40
1.0
 10
9.0086066794
 20
8.5774617199
 30
0.0
 10
9.0086066794
 20
8.5603968214
 30
0.0
 10
9.0096407009
 20
8.5261876662
 30
0.0
 10
9.0142654646
 20
8.4749619914
 30
0.0
 10
9.0219500242
 20
8.4238949262
 30
0.0
 10
9.0326662769
 20
8.3731744779
 30
0.0
 10
9.0463749992
 20
8.3229843218
 30
0.0
 10
9.0630261973
 20
8.2735069645
 30
0.0
 10
9.0825591751
 20
8.2249220918
 30
0.0
 10
9.1049028122
 20
8.1774061859
 30
0.0
 10
9.1299757995
 20
8.1311318184
 30
0.0
 10
9.157686944
 20
8.0862670493
 30
0.0
 10
9.1879354957
 20
8.0429748156
 30
0.0
 10
9.2206115139
 20
8.0014123462
 30
0.0
 10
9.2555962633
 20
7.9617305947
 30
0.0
 10
9.2927626441
 20
7.9240736954
 30
0.0
 10
9.3319756499
 20
7.8885784429
 30
0.0
 10
9.3730928554
 20
7.8553737991
 30
0.0
 10
9.4159649295
 20
7.824580427
 30
0.0
 10
9.4604361742
 20
7.7963102554
 30
0.0
 10
9.5063450849
 20
7.7706660736
 30
0.0
 10
9.5535249344
 20
7.7477411594
 30
0.0
 10
9.6018043633
 20
7.7276189418
 30
0.0
 10
9.6510080355
 20
7.7103726951
 30
0.0
 10
9.7009571244
 20
7.69606528
 30
0.0
 10
9.7514704932
 20
7.684748884
 30
0.0
 10
9.802363356
 20
7.6764649353
 30
0.0
 10
9.8449849703
 20
7.672109187
 30
0.0
 10
9.8790823203
 20
7.6701707282
 30
0.0
 10
9.9046098824
 20
7.6694897778
 30
0.0
 10
9.9300930834
 20
7.6695813624
 30
0.0
 10
9.9639426625
 20
7.670731612
 30
0.0
 10
10.0060364698
 20
7.6740929232
 30
0.0
 10
10.0477603022
 20
7.6800245286
 30
0.0
 10
10.0807671655
 20
7.6862961672
 30
0.0
 10
10.1052958689
 20
7.6917527082
 30
0.0
 10
10.1295971795
 20
7.6979614108
 30
0.0
 10
10.1456464789
 20
7.7026023216
 30
0.0
 10
10.1536249809
 20
7.7050462271
 30
0.0
  0
SPLINE
  5
2BD
100
AcDbEntity
  8
0
100
AcDbSpline
 62
7
  6
CONTINUOUS
 70
0
 71
3
 72
43
 73
39
 74
0
 42
0.0000001
 43
0.0000001
 44
0.0000000001
 40
0.0
 40
0.0
 40
0.0
 40
0.0
 40
0.0306982242
 40
0.0615132725
 40
0.0924426998
 40
0.1234832488
 40
0.1546300188
 40
0.1858770094
 40
0.2172170086
 40
0.2486417557
 40
0.2801420206
 40
0.3117077228
 40
0.3433280472
 40
0.37499157
 40
0.4066863876
 40
0.4384002502
 40
0.4701206977
 40
0.5018351976
 40
0.5335312825
 40
0.5651966888
 40
0.5968194919
 40
0.6283882401
 40
0.6598920844
 40
0.6913209035
 40
0.7226654225
 40
0.7539173247
 40
0.7850693548
 40
0.8161154128
 40
0.8315985491
 40
0.8470534773
 40
0.8624797949
 40
0.8778771835
 40
0.908581435
 40
0.9391683203
 40
0.9544193804
 40
0.9696414599
 40
0.9848348696
 40
1.0
 40
1.0
 40
1.0
 40
1.0
 10
9.1551806389
 20
8.7190413012
 30
0.0
 10
9.1551806389
 20
8.703408502
 30
0.0
 10
9.1560481892
 20
8.6720766805
 30
0.0
 10
9.1599306278
 20
8.6251390943
 30
0.0
 10
9.1663847457
 20
8.5783083169
 30
0.0
 10
9.1753905674
 20
8.5317292323
 30
0.0
 10
9.1869205495
 20
8.4855433726
 30
0.0
 10
9.2009393236
 20
8.4398918007
 30
0.0
 10
9.2174040198
 20
8.39491372
 30
0.0
 10
9.2362642878
 20
8.3507463267
 30
0.0
 10
9.257462502
 20
8.3075243196
 30
0.0
 10
9.2809339165
 20
8.2653795119
 30
0.0
 10
9.3066068707
 20
8.2244404275
 30
0.0
 10
9.3344030042
 20
8.1848319125
 30
0.0
 10
9.3642374961
 20
8.1466747575
 30
0.0
 10
9.3960193225
 20
8.1100853307
 30
0.0
 10
9.4296515328
 20
8.075175226
 30
0.0
 10
9.4650315437
 20
8.0420509244
 30
0.0
 10
9.5020514506
 20
8.0108134707
 30
0.0
 10
9.5405983545
 20
7.9815581675
 30
0.0
 10
9.5805547041
 20
7.9543742855
 30
0.0
 10
9.6217986537
 20
7.9293447922
 30
0.0
 10
9.6642044244
 20
7.9065461011
 30
0.0
 10
9.7076427138
 20
7.8860478332
 30
0.0
 10
9.7519809809
 20
7.8679126235
 30
0.0
 10
9.7970842432
 20
7.8521958645
 30
0.0
 10
9.8428140169
 20
7.8389457796
 30
0.0
 10
9.88136563
 20
7.82998485
 30
0.0
 10
9.9123783894
 20
7.8240899177
 30
0.0
 10
9.9356876657
 20
7.8203107228
 30
0.0
 10
9.9590478491
 20
7.8171727622
 30
0.0
 10
9.9902070582
 20
7.8138504879
 30
0.0
 10
10.0291980574
 20
7.8113066239
 30
0.0
 10
10.068195937
 20
7.8109205924
 30
0.0
 10
10.0992777753
 20
7.8119119885
 30
0.0
 10
10.1224946549
 20
7.8133026886
 30
0.0
 10
10.1456194873
 20
7.8153399104
 30
0.0
 10
10.1609777784
 20
7.8171299235
 30
0.0
 10
10.1686351554
 20
7.8181323224
 30
0.0
  0
SPLINE
  5
2BE
100
AcDbEntity
  8
0
100
AcDbSpline
 62
7
  6
CONTINUOUS
 70
0
 71
3
 72
15
 73
11
 74
0
 42
0.0000001
 43
0.0000001
 44
0.0000000001
 40
0.0
 40
0.0
 40
0.0
 40
0.0
 40
0.1256387023
 40
0.2511523691
 40
0.3765009511
 40
0.5016656631
 40
0.6266206753
 40
0.7513420674
 40
0.875808559
 40
1.0
 40
1.0
 40
1.0
 40
1.0
 10
9.8517728963
 20
8.3691220642
 30
0.0
 10
9.8594612024
 20
8.3631571102
 30
0.0
 10
9.875069126
 20
8.3515374996
 30
0.0
 10
9.8991408868
 20
8.3350657028
 30
0.0
 10
9.9238207778
 20
8.3195879131
 30
0.0
 10
9.9490631749
 20
8.3051325919
 30
0.0
 10
9.9748229478
 20
8.291725595
 30
0.0
 10
10.0010536001
 20
8.2793911635
 30
0.0
 10
10.0277071586
 20
8.2681518445
 30
0.0
 10
10.0457483793
 20
8.2613942789
 30
0.0
 10
10.0548231615
 20
8.2582052213
 30
0.0
  0
SPLINE
  5
2BF
100
AcDbEntity
  8
0
100
AcDbSpline
 62
7
  6
CONTINUOUS
 70
0
 71
3
 72
69
 73
65
 74
0
 42
0.0000001
 43
0.0000001
 44
0.0000000001
 40
0.0
 40
0.0
 40
0.0
 40
0.0
 40
0.0149703072
 40
0.0299436725
 40
0.0449231362
 40
0.059911702
 40
0.0749123166
 40
0.0899278537
 40
0.1049610979
 40
0.1200147258
 40
0.1350912903
 40
0.1501932087
 40
0.165322747
 40
0.180482005
 40
0.1956729096
 40
0.2108972027
 40
0.2261564289
 40
0.2414519328
 40
0.2567848517
 40
0.2721561071
 40
0.2875664043
 40
0.3030162316
 40
0.3185058545
 40
0.3340353182
 40
0.3496044519
 40
0.3652128672
 40
0.380859962
 40
0.3965449294
 40
0.4122667602
 40
0.428024248
 40
0.4438160016
 40
0.4596404513
 40
0.475495855
 40
0.4913803134
 40
0.5072917788
 40
0.5232280631
 40
0.539186854
 40
0.5551657263
 40
0.5711621514
 40
0.5871735139
 40
0.6031971247
 40
0.6192302314
 40
0.6513089007
 40
0.6833916248
 40
0.6994297792
 40
0.715460421
 40
0.7314807637
 40
0.7474880732
 40
0.7634796789
 40
0.7794529889
 40
0.7954055052
 40
0.8113348323
 40
0.8272386922
 40
0.8431149387
 40
0.8589615642
 40
0.8747767122
 40
0.890558695
 40
0.9063059891
 40
0.9220172454
 40
0.9376913628
 40
0.9533273195
 40
0.9689242716
 40
0.9844823667
 40
1.0
 40
1.0
 40
1.0
 40
1.0
 10
9.888170891
 20
7.0485009939
 30
0.0
 10
9.8792116192
 20
7.0398469782
 30
0.0
 10
9.8609451298
 20
7.0228914141
 30
0.0
 10
9.8325532771
 20
6.9985643352
 30
0.0
 10
9.8032054838
 20
6.9753739921
 30
0.0
 10
9.7729426478
 20
6.9533528886
 30
0.0
 10
9.7418062466
 20
6.9325312203
 30
0.0
 10
9.7098392338
 20
6.9129375821
 30
0.0
 10
9.6770855772
 20
6.8945989337
 30
0.0
 10
9.6435903201
 20
6.8775405744
 30
0.0
 10
9.6093996099
 20
6.8617858658
 30
0.0
 10
9.5745604954
 20
6.847356463
 30
0.0
 10
9.5391208835
 20
6.8342722922
 30
0.0
 10
9.5031295753
 20
6.82255125
 30
0.0
 10
9.4666360985
 20
6.8122094076
 30
0.0
 10
9.429690637
 20
6.8032610645
 30
0.0
 10
9.3923440382
 20
6.7957184476
 30
0.0
 10
9.3546476877
 20
6.7895918481
 30
0.0
 10
9.3166534251
 20
6.7848897544
 30
0.0
 10
9.278413519
 20
6.7816185858
 30
0.0
 10
9.23998057
 20
6.7797827325
 30
0.0
 10
9.2014074299
 20
6.7793847622
 30
0.0
 10
9.1627471498
 20
6.7804252142
 30
0.0
 10
9.1240528906
 20
6.7829025329
 30
0.0
 10
9.0853778586
 20
6.7868133321
 30
0.0
 10
9.046775241
 20
6.7921522641
 30
0.0
 10
9.0082981003
 20
6.7989118589
 30
0.0
 10
8.9699993357
 20
6.8070828192
 30
0.0
 10
8.9319316206
 20
6.8166539694
 30
0.0
 10
8.8941472659
 20
6.8276120312
 30
0.0
 10
8.8566982071
 20
6.8399419141
 30
0.0
 10
8.8196359553
 20
6.8536267401
 30
0.0
 10
8.7830114315
 20
6.8686476013
 30
0.0
 10
8.7468749626
 20
6.8849838034
 30
0.0
 10
8.7112762596
 20
6.9026129626
 30
0.0
 10
8.6762642359
 20
6.9215107846
 30
0.0
 10
8.6418869834
 20
6.9416512323
 30
0.0
 10
8.6081918037
 20
6.9630066766
 30
0.0
 10
8.5752249783
 20
6.9855477696
 30
0.0
 10
8.5430318832
 20
7.0092433479
 30
0.0
 10
8.511656397
 20
7.0340612861
 30
0.0
 10
8.4709678761
 20
7.0686045084
 30
0.0
 10
8.422369297
 20
7.1144118643
 30
0.0
 10
8.3770516658
 20
7.1634730948
 30
0.0
 10
8.3429108425
 20
7.2045172912
 30
0.0
 10
8.3183981908
 20
7.2361540188
 30
0.0
 10
8.2950125304
 20
7.2686005164
 30
0.0
 10
8.2727856113
 20
7.3018125989
 30
0.0
 10
8.2517481826
 20
7.3357445599
 30
0.0
 10
8.231929083
 20
7.3703497488
 30
0.0
 10
8.2133555418
 20
7.4055805794
 30
0.0
 10
8.196053187
 20
7.4413886742
 30
0.0
 10
8.1800457823
 20
7.4777247928
 30
0.0
 10
8.1653552913
 20
7.5145389691
 30
0.0
 10
8.1520020047
 20
7.5517806319
 30
0.0
 10
8.1400042945
 20
7.589398586
 30
0.0
 10
8.1293786002
 20
7.6273410978
 30
0.0
 10
8.1201396145
 20
7.6655560219
 30
0.0
 10
8.112300076
 20
7.7039908495
 30
0.0
 10
8.1058707424
 20
7.7425927185
 30
0.0
 10
8.1008604935
 20
7.781308412
 30
0.0
 10
8.0972761919
 20
7.8200853244
 30
0.0
 10
8.0951230324
 20
7.8588688751
 30
0.0
 10
8.0946427882
 20
7.8847285816
 30
0.0
 10
8.0946427882
 20
7.8976403407
 30
0.0
  0
SPLINE
  5
2C0
100
AcDbEntity
  8
0
100
AcDbSpline
 62
7
  6
CONTINUOUS
 70
0
 71
3
 72
10
 73
6
 74
0
 42
0.0000001
 43
0.0000001
 44
0.0000000001
 40
0.0
 40
0.0
 40
0.0
 40
0.0
 40
0.4804703843
 40
0.7351676745
 40
1.0
 40
1.0
 40
1.0
 40
1.0
 10
14.3947444961
 20
7.3761145211
 30
0.0
 10
14.396841248
 20
7.3774845562
 30
0.0
 10
14.3999321557
 20
7.3797650014
 30
0.0
 10
14.4039037171
 20
7.3831427587
 30
0.0
 10
14.4058892501
 20
7.3849862366
 30
0.0
 10
14.4068822228
 20
7.3859453746
 30
0.0
  0
SPLINE
  5
2C1
100
AcDbEntity
  8
0
100
AcDbSpline
 62
7
  6
CONTINUOUS
 70
0
 71
3
 72
51
 73
47
 74
0
 42
0.0000001
 43
0.0000001
 44
0.0000000001
 40
0.0
 40
0.0
 40
0.0
 40
0.0
 40
0.0417976334
 40
0.0840617059
 40
0.1266600162
 40
0.1694648373
 40
0.2123444183
 40
0.2551678056
 40
0.2978040295
 40
0.3401228707
 40
0.3819953972
 40
0.4232944331
 40
0.4638951049
 40
0.5036754014
 40
0.5425167144
 40
0.5803043868
 40
0.6169282946
 40
0.6522834744
 40
0.6862708502
 40
0.7187979642
 40
0.7497798109
 40
0.7791398433
 40
0.7931908577
 40
0.8068123106
 40
0.8199975373
 40
0.8327408364
 40
0.8450374148
 40
0.8568833404
 40
0.8682760229
 40
0.8792138834
 40
0.8896968843
 40
0.8997265616
 40
0.9093061201
 40
0.9184410646
 40
0.927139066
 40
0.9354107182
 40
0.9432698249
 40
0.9507338213
 40
0.9578246679
 40
0.9645690813
 40
0.970999459
 40
0.9771542315
 40
0.98307809
 40
0.9888220284
 40
0.9944424517
 40
1.0
 40
1.0
 40
1.0
 40
1.0
 10
7.3674321857
 20
9.9315790207
 30
0.0
 10
7.361047329
 20
9.932021812
 30
0.0
 10
7.3481990719
 20
9.9328102518
 30
0.0
 10
7.328824185
 20
9.9337001308
 30
0.0
 10
7.3092838813
 20
9.9343019509
 30
0.0
 10
7.2896425633
 20
9.9346137991
 30
0.0
 10
7.2699643161
 20
9.9346345964
 30
0.0
 10
7.2503137313
 20
9.9343642882
 30
0.0
 10
7.2307551704
 20
9.933803767
 30
0.0
 10
7.2113527226
 20
9.9329548875
 30
0.0
 10
7.1921699596
 20
9.9318204534
 30
0.0
 10
7.1732697283
 20
9.9304042073
 30
0.0
 10
7.1547139456
 20
9.9287108192
 30
0.0
 10
7.136563385
 20
9.92674589
 30
0.0
 10
7.1188774765
 20
9.9245159183
 30
0.0
 10
7.1017141118
 20
9.9220282777
 30
0.0
 10
7.0851294555
 20
9.9192911947
 30
0.0
 10
7.0691777428
 20
9.9163137192
 30
0.0
 10
7.0539111045
 20
9.913105713
 30
0.0
 10
7.0393793125
 20
9.909677813
 30
0.0
 10
7.0256298589
 20
9.9060413475
 30
0.0
 10
7.0147067819
 20
9.9028015959
 30
0.0
 10
7.0063996913
 20
9.9001063538
 30
0.0
 10
7.0004837288
 20
9.8980699983
 30
0.0
 10
6.9947954347
 20
9.8959907235
 30
0.0
 10
6.9893394357
 20
9.8938702276
 30
0.0
 10
6.9841201646
 20
9.8917102855
 30
0.0
 10
6.9791418847
 20
9.8895125847
 30
0.0
 10
6.9744086072
 20
9.8872790072
 30
0.0
 10
6.9699241833
 20
9.8850112949
 30
0.0
 10
6.9656922266
 20
9.8827113047
 30
0.0
 10
6.9617161231
 20
9.8803809176
 30
0.0
 10
6.9579991025
 20
9.8780219017
 30
0.0
 10
6.9545440817
 20
9.8756362151
 30
0.0
 10
6.9513538559
 20
9.8732256182
 30
0.0
 10
6.9484309534
 20
9.8707919688
 30
0.0
 10
6.9457776803
 20
9.8683370974
 30
0.0
 10
6.9433962716
 20
9.8658626719
 30
0.0
 10
6.9412886252
 20
9.8633705184
 30
0.0
 10
6.9394567068
 20
9.8608622293
 30
0.0
 10
6.9379022883
 20
9.8583395299
 30
0.0
 10
6.9366270792
 20
9.8558041745
 30
0.0
 10
6.9356329367
 20
9.853258042
 30
0.0
 10
6.9349213162
 20
9.8507032707
 30
0.0
 10
6.9344937594
 20
9.8481427666
 30
0.0
 10
6.9343985187
 20
9.8464296765
 30
0.0
 10
6.9343985261
 20
9.8455786863
 30
0.0
  0
SPLINE
  5
2C2
100
AcDbEntity
  8
0
100
AcDbSpline
 62
7
  6
CONTINUOUS
 70
0
 71
3
 72
75
 73
71
 74
0
 42
0.0000001
 43
0.0000001
 44
0.0000000001
 40
0.0
 40
0.0
 40
0.0
 40
0.0
 40
0.0032675921
 40
0.0066642481
 40
0.010196713
 40
0.0138707519
 40
0.0176912104
 40
0.0216622057
 40
0.0257871529
 40
0.0300687903
 40
0.0345093575
 40
0.0391106028
 40
0.0438737699
 40
0.0487997603
 40
0.0538891295
 40
0.0591420424
 40
0.0701374624
 40
0.081782799
 40
0.0940706955
 40
0.1069906349
 40
0.1205294702
 40
0.134671747
 40
0.1493998521
 40
0.1646943548
 40
0.1805341535
 40
0.1968965482
 40
0.2137574916
 40
0.2310916537
 40
0.2488724826
 40
0.2670724008
 40
0.2856628322
 40
0.3046142744
 40
0.3238964532
 40
0.3434783373
 40
0.3633282271
 40
0.4037018678
 40
0.444754254
 40
0.4862158555
 40
0.5278136996
 40
0.5692736729
 40
0.6103228174
 40
0.6506916164
 40
0.6705385159
 40
0.6901170085
 40
0.7093954343
 40
0.7283427688
 40
0.7469287098
 40
0.7651238138
 40
0.7828994983
 40
0.8002281641
 40
0.8170833344
 40
0.8334396564
 40
0.8492730756
 40
0.8645609787
 40
0.8792822256
 40
0.8934174
 40
0.9069489821
 40
0.9198614682
 40
0.9321417574
 40
0.9437794236
 40
0.9547670633
 40
0.9651009874
 40
0.9700231129
 40
0.9747824024
 40
0.9793797224
 40
0.983816474
 40
0.9880944682
 40
0.9922159119
 40
0.9961833861
 40
1.0
 40
1.0
 40
1.0
 40
1.0
 10
14.4711736595
 20
8.4778417695
 30
0.0
 10
14.4721030852
 20
8.4770303545
 30
0.0
 10
14.4739524519
 20
8.4753219232
 30
0.0
 10
14.4766445069
 20
8.4725674262
 30
0.0
 10
14.4793054786
 20
8.4695742675
 30
0.0
 10
14.4819341731
 20
8.4663438622
 30
0.0
 10
14.4845296293
 20
8.4628776371
 30
0.0
 10
14.487090738
 20
8.4591770659
 30
0.0
 10
14.4896164178
 20
8.4552437302
 30
0.0
 10
14.4921056709
 20
8.4510793669
 30
0.0
 10
14.494557411
 20
8.4466857495
 30
0.0
 10
14.4969705619
 20
8.442064763
 30
0.0
 10
14.499344148
 20
8.4372184399
 30
0.0
 10
14.5016771116
 20
8.4321488691
 30
0.0
 10
14.5039684313
 20
8.4268582291
 30
0.0
 10
14.5070131551
 20
8.4193984129
 30
0.0
 10
14.5106973049
 20
8.4095286843
 30
0.0
 10
14.5148720719
 20
8.3970159841
 30
0.0
 10
14.518857979
 20
8.383681763
 30
0.0
 10
14.5226480599
 20
8.3695493195
 30
0.0
 10
14.5262356117
 20
8.3546431616
 30
0.0
 10
14.5296142332
 20
8.3389892822
 30
0.0
 10
14.5327779809
 20
8.3226150306
 30
0.0
 10
14.5357212253
 20
8.3055490525
 30
0.0
 10
14.5384387067
 20
8.2878212331
 30
0.0
 10
14.5409256451
 20
8.2694626527
 30
0.0
 10
14.5431776035
 20
8.2505055108
 30
0.0
 10
14.5451905601
 20
8.2309830719
 30
0.0
 10
14.5469609811
 20
8.2109296098
 30
0.0
 10
14.5484856957
 20
8.1903803371
 30
0.0
 10
14.5497619827
 20
8.1693713448
 30
0.0
 10
14.5507876101
 20
8.1479395376
 30
0.0
 10
14.5515607164
 20
8.1261225772
 30
0.0
 10
14.5520799449
 20
8.1039587652
 30
0.0
 10
14.5524344189
 20
8.0738271661
 30
0.0
 10
14.5522295366
 20
8.0355842392
 30
0.0
 10
14.55097037
 20
7.9891976635
 30
0.0
 10
14.5487048946
 20
7.9423865115
 30
0.0
 10
14.5454489519
 20
7.8954796221
 30
0.0
 10
14.5412254182
 20
7.8488062276
 30
0.0
 10
14.5360640271
 20
7.8026941929
 30
0.0
 10
14.5309835505
 20
7.7647938963
 30
0.0
 10
14.5264697905
 20
7.7350044766
 30
0.0
 10
14.5228936339
 20
7.7131287911
 30
0.0
 10
14.5191140111
 20
7.6916321302
 30
0.0
 10
14.5151375434
 20
7.6705522371
 30
0.0
 10
14.5109712246
 20
7.6499261537
 30
0.0
 10
14.5066224376
 20
7.6297901009
 30
0.0
 10
14.5020988324
 20
7.6101794446
 30
0.0
 10
14.4974083719
 20
7.591128618
 30
0.0
 10
14.4925593714
 20
7.5726710506
 30
0.0
 10
14.4875603589
 20
7.5548391318
 30
0.0
 10
14.48242015
 20
7.5376641327
 30
0.0
 10
14.4771478565
 20
7.5211761405
 30
0.0
 10
14.4717527459
 20
7.5054040328
 30
0.0
 10
14.4662443407
 20
7.49037539
 30
0.0
 10
14.4606323924
 20
7.476116441
 30
0.0
 10
14.4549267364
 20
7.4626520375
 30
0.0
 10
14.4491374197
 20
7.4500055853
 30
0.0
 10
14.4432746036
 20
7.4381988821
 30
0.0
 10
14.4373484881
 20
7.4272524921
 30
0.0
 10
14.4322869142
 20
7.4187297068
 30
0.0
 10
14.428206324
 20
7.412367868
 30
0.0
 10
14.4251863094
 20
7.4079010008
 30
0.0
 10
14.4221582211
 20
7.40366287
 30
0.0
 10
14.4191233348
 20
7.3996552315
 30
0.0
 10
14.4160829104
 20
7.3958797904
 30
0.0
 10
14.4130382058
 20
7.3923382501
 30
0.0
 10
14.409990797
 20
7.3890322941
 30
0.0
 10
14.4079187307
 20
7.3869465644
 30
0.0
 10
14.4068822228
 20
7.3859453746
 30
0.0
  0
SPLINE
  5
2C3
100
AcDbEntity
  8
0
100
AcDbSpline
 62
7
  6
CONTINUOUS
 70
0
 71
3
 72
98
 73
94
 74
0
 42
0.0000001
 43
0.0000001
 44
0.0000000001
 40
0.0
 40
0.0
 40
0.0
 40
0.0
 40
0.0039487332
 40
0.0077208505
 40
0.0113255942
 40
0.0147744809
 40
0.0180811205
 40
0.0212612398
 40
0.0243327659
 40
0.0273158305
 40
0.0302326807
 40
0.0331072449
 40
0.0359646216
 40
0.0388303947
 40
0.0417299128
 40
0.0446875663
 40
0.0477262283
 40
0.0508668078
 40
0.0541280142
 40
0.0575263255
 40
0.0610759539
 40
0.0647890849
 40
0.0686759698
 40
0.0727451576
 40
0.0770037293
 40
0.0814573755
 40
0.0861107012
 40
0.0909672469
 40
0.0960296812
 40
0.1012999277
 40
0.1067791578
 40
0.1124680155
 40
0.118366541
 40
0.1244743182
 40
0.130790517
 40
0.1373138541
 40
0.1440427657
 40
0.1509752904
 40
0.1581092025
 40
0.165442006
 40
0.180692546
 40
0.1967023608
 40
0.2134430963
 40
0.2308833918
 40
0.2489891894
 40
0.2677240196
 40
0.2870492398
 40
0.3069242434
 40
0.3273066492
 40
0.3481524713
 40
0.3694163002
 40
0.3910514681
 40
0.4130102049
 40
0.4352437897
 40
0.4577026969
 40
0.48033675
 40
0.5030952732
 40
0.525927236
 40
0.5487813972
 40
0.5716064506
 40
0.5943511742
 40
0.6169645767
 40
0.6393960419
 40
0.6615954736
 40
0.6835134436
 40
0.7051013492
 40
0.7263115606
 40
0.7470975721
 40
0.7674141577
 40
0.7872175351
 40
0.8064655487
 40
0.8251178463
 40
0.8431360674
 40
0.8604840555
 40
0.8771280975
 40
0.8930372126
 40
0.9081834801
 40
0.915462966
 40
0.9225428516
 40
0.9294207281
 40
0.9360944326
 40
0.9425621035
 40
0.9488222613
 40
0.9548737197
 40
0.9607157801
 40
0.9663481425
 40
0.9717709942
 40
0.9769850958
 40
0.9819917823
 40
0.9867932761
 40
0.9913925681
 40
0.9957933246
 40
1.0
 40
1.0
 40
1.0
 40
1.0
 10
14.5418918573
 20
8.597322943
 30
0.0
 10
14.5433360235
 20
8.5986669535
 30
0.0
 10
14.5462231398
 20
8.6012280313
 30
0.0
 10
14.550653127
 20
8.6047528272
 30
0.0
 10
14.5550785557
 20
8.6078682142
 30
0.0
 10
14.5594968285
 20
8.6105720019
 30
0.0
 10
14.5639057813
 20
8.6128622694
 30
0.0
 10
14.5683031127
 20
8.6147371339
 30
0.0
 10
14.5726863014
 20
8.6161948874
 30
0.0
 10
14.5770526777
 20
8.6172336222
 30
0.0
 10
14.5813991585
 20
8.6178520673
 30
0.0
 10
14.5857224415
 20
8.6180490537
 30
0.0
 10
14.5900189276
 20
8.6178240694
 30
0.0
 10
14.594284968
 20
8.617177362
 30
0.0
 10
14.5985169632
 20
8.6161095349
 30
0.0
 10
14.6027116823
 20
8.6146221514
 30
0.0
 10
14.6068661682
 20
8.6127168281
 30
0.0
 10
14.6109778631
 20
8.6103956095
 30
0.0
 10
14.6150445303
 20
8.6076606657
 30
0.0
 10
14.6190639711
 20
8.6045140638
 30
0.0
 10
14.6230342965
 20
8.6009581938
 30
0.0
 10
14.6269534337
 20
8.5969952894
 30
0.0
 10
14.6308194457
 20
8.5926278663
 30
0.0
 10
14.634630359
 20
8.5878585599
 30
0.0
 10
14.638384056
 20
8.5826901267
 30
0.0
 10
14.6420786135
 20
8.577125662
 30
0.0
 10
14.6457118658
 20
8.571168349
 30
0.0
 10
14.6492818176
 20
8.5648217001
 30
0.0
 10
14.6527864247
 20
8.5580894242
 30
0.0
 10
14.6562235847
 20
8.5509754465
 30
0.0
 10
14.6595913896
 20
8.5434839864
 30
0.0
 10
14.662887752
 20
8.5356194289
 30
0.0
 10
14.666110788
 20
8.5273864454
 30
0.0
 10
14.669258571
 20
8.5187899071
 30
0.0
 10
14.6723291784
 20
8.5098349071
 30
0.0
 10
14.6753208601
 20
8.5005267823
 30
0.0
 10
14.6782317351
 20
8.4908710539
 30
0.0
 10
14.6810601228
 20
8.4808734887
 30
0.0
 10
14.6838043295
 20
8.470540028
 30
0.0
 10
14.6873957736
 20
8.4561335479
 30
0.0
 10
14.691649155
 20
8.4373244021
 30
0.0
 10
14.6963281883
 20
8.4138012601
 30
0.0
 10
14.7006352425
 20
8.3890960654
 30
0.0
 10
14.7045598821
 20
8.3632678357
 30
0.0
 10
14.7080925803
 20
8.3363781246
 30
0.0
 10
14.7112247643
 20
8.3084911446
 30
0.0
 10
14.7139488283
 20
8.27967351
 30
0.0
 10
14.716258154
 20
8.2499940942
 30
0.0
 10
14.7181471231
 20
8.2195238589
 30
0.0
 10
14.7196111481
 20
8.1883356831
 30
0.0
 10
14.7206466676
 20
8.1565041805
 30
0.0
 10
14.721251151
 20
8.1241055121
 30
0.0
 10
14.7214231054
 20
8.0912172024
 30
0.0
 10
14.7211620757
 20
8.0579179562
 30
0.0
 10
14.7204686589
 20
8.0242874704
 30
0.0
 10
14.7193444984
 20
7.9904062393
 30
0.0
 10
14.7177922693
 20
7.9563553586
 30
0.0
 10
14.7158156754
 20
7.9222163305
 30
0.0
 10
14.7134194371
 20
7.8880708706
 30
0.0
 10
14.7106092877
 20
7.8540007111
 30
0.0
 10
14.7073919668
 20
7.8200874012
 30
0.0
 10
14.7037751884
 20
7.7864121119
 30
0.0
 10
14.699767626
 20
7.7530554426
 30
0.0
 10
14.6953788912
 20
7.720097229
 30
0.0
 10
14.6906195115
 20
7.6876163483
 30
0.0
 10
14.6855009205
 20
7.6556905244
 30
0.0
 10
14.6800354145
 20
7.624396142
 30
0.0
 10
14.6742361245
 20
7.5938080664
 30
0.0
 10
14.6681169862
 20
7.5639994645
 30
0.0
 10
14.6616927031
 20
7.5350416222
 30
0.0
 10
14.6549787299
 20
7.5070037614
 30
0.0
 10
14.6479912229
 20
7.4799528723
 30
0.0
 10
14.6407469979
 20
7.4539535468
 30
0.0
 10
14.6332634919
 20
7.4290678433
 30
0.0
 10
14.6255587126
 20
7.4053550354
 30
0.0
 10
14.6176512078
 20
7.3828717458
 30
0.0
 10
14.6108213041
 20
7.3649756704
 30
0.0
 10
14.6052600861
 20
7.3513231972
 30
0.0
 10
14.6011055226
 20
7.3415596501
 30
0.0
 10
14.5969146406
 20
7.332141946
 30
0.0
 10
14.5926899053
 20
7.3230756879
 30
0.0
 10
14.5884338128
 20
7.3143662898
 30
0.0
 10
14.5841489819
 20
7.3060189051
 30
0.0
 10
14.5798378749
 20
7.2980385227
 30
0.0
 10
14.5755031268
 20
7.2904298431
 30
0.0
 10
14.5711472737
 20
7.2831973799
 30
0.0
 10
14.5667728748
 20
7.2763454329
 30
0.0
 10
14.5623826085
 20
7.2698780156
 30
0.0
 10
14.5579789262
 20
7.2637989597
 30
0.0
 10
14.5535644084
 20
7.2581117336
 30
0.0
 10
14.5491414617
 20
7.2528196532
 30
0.0
 10
14.5447129233
 20
7.2479261242
 30
0.0
 10
14.5416916374
 20
7.2448635056
 30
0.0
 10
14.5401799947
 20
7.2434033708
 30
0.0
  0
SPLINE
  5
2C4
100
AcDbEntity
  8
0
100
AcDbSpline
 62
7
  6
CONTINUOUS
 70
0
 71
3
 72
21
 73
17
 74
0
 42
0.0000001
 43
0.0000001
 44
0.0000000001
 40
0.0
 40
0.0
 40
0.0
 40
0.0
 40
0.1487615722
 40
0.220689885
 40
0.2909148222
 40
0.3593961798
 40
0.4261035104
 40
0.491016641
 40
0.5541281703
 40
0.6154470396
 40
0.6750029025
 40
0.7890056419
 40
0.8436809616
 40
0.8969594935
 40
0.9490033313
 40
1.0
 40
1.0
 40
1.0
 40
1.0
 10
9.7891646042
 20
8.3555581081
 30
0.0
 10
9.7924051162
 20
8.3553352419
 30
0.0
 10
9.7972227053
 20
8.3551279487
 30
0.0
 10
9.8035754893
 20
8.3551389219
 30
0.0
 10
9.8081729559
 20
8.3552915518
 30
0.0
 10
9.8126489992
 20
8.3555908746
 30
0.0
 10
9.8169961189
 20
8.3560391922
 30
0.0
 10
9.8212067512
 20
8.3566384763
 30
0.0
 10
9.8252732591
 20
8.357390668
 30
0.0
 10
9.8291884459
 20
8.3582978862
 30
0.0
 10
9.8341242094
 20
8.3596951183
 30
0.0
 10
9.8388127556
 20
8.3614204709
 30
0.0
 10
9.8431924345
 20
8.3635016292
 30
0.0
 10
9.8462476952
 20
8.3652012117
 30
0.0
 10
9.8491131478
 20
8.3670604149
 30
0.0
 10
9.8509102808
 20
8.3684179535
 30
0.0
 10
9.8517728963
 20
8.3691220642
 30
0.0
  0
SPLINE
  5
2C5
100
AcDbEntity
  8
0
100
AcDbSpline
 62
7
  6
CONTINUOUS
 70
0
 71
3
 72
29
 73
25
 74
0
 42
0.0000001
 43
0.0000001
 44
0.0000000001
 40
0.0
 40
0.0
 40
0.0
 40
0.0
 40
0.0755836755
 40
0.1466143562
 40
0.2134286572
 40
0.2764666867
 40
0.3362686904
 40
0.3651658039
 40
0.3935045519
 40
0.4213816903
 40
0.4488992609
 40
0.4761636692
 40
0.503284649
 40
0.5303738152
 40
0.5575431712
 40
0.5849037119
 40
0.6125638739
 40
0.6406282505
 40
0.6691966684
 40
0.7281925824
 40
0.7902529585
 40
0.8559465767
 40
0.925738346
 40
1.0
 40
1.0
 40
1.0
 40
1.0
 10
14.5401799947
 20
7.2434033708
 30
0.0
 10
14.5382344891
 20
7.2415241565
 30
0.0
 10
14.5343460557
 20
7.2379944154
 30
0.0
 10
14.5283283658
 20
7.2332789199
 30
0.0
 10
14.5223175741
 20
7.2293185408
 30
0.0
 10
14.5163199011
 20
7.2261194071
 30
0.0
 10
14.5112786371
 20
7.2240692945
 30
0.0
 10
14.5072746087
 20
7.2228331539
 30
0.0
 10
14.5043139703
 20
7.2221092894
 30
0.0
 10
14.5013628131
 20
7.2215785497
 30
0.0
 10
14.4984219541
 20
7.2212411312
 30
0.0
 10
14.4954923362
 20
7.2210972839
 30
0.0
 10
14.4925749114
 20
7.2211471119
 30
0.0
 10
14.4896706414
 20
7.2213905589
 30
0.0
 10
14.4867804811
 20
7.221827547
 30
0.0
 10
14.4839053834
 20
7.2224579747
 30
0.0
 10
14.4810462801
 20
7.2232815089
 30
0.0
 10
14.4782039617
 20
7.224297831
 30
0.0
 10
14.4743976367
 20
7.2259265175
 30
0.0
 10
14.4696703558
 20
7.2284678238
 30
0.0
 10
14.4641461051
 20
7.2322485648
 30
0.0
 10
14.4587128882
 20
7.2367868645
 30
0.0
 10
14.4533757217
 20
7.2420757153
 30
0.0
 10
14.4499931066
 20
7.2459725607
 30
0.0
 10
14.4483162645
 20
7.2480343405
 30
0.0
  0
SPLINE
  5
2C6
100
AcDbEntity
  8
0
100
AcDbSpline
 62
7
  6
CONTINUOUS
 70
0
 71
3
 72
25
 73
21
 74
0
 42
0.0000001
 43
0.0000001
 44
0.0000000001
 40
0.0
 40
0.0
 40
0.0
 40
0.0
 40
0.0637770869
 40
0.0955893273
 40
0.1273480361
 40
0.190704913
 40
0.2538583931
 40
0.2853631206
 40
0.3168196509
 40
0.3795879741
 40
0.4421786688
 40
0.504604033
 40
0.5668779732
 40
0.6290159006
 40
0.6910345844
 40
0.7529519921
 40
0.8147871143
 40
0.8765597769
 40
0.9382904419
 40
1.0
 40
1.0
 40
1.0
 40
1.0
 10
8.0946427882
 20
7.8976403407
 30
0.0
 10
8.0946427882
 20
7.9143034972
 30
0.0
 10
8.0952415163
 20
7.9392838509
 30
0.0
 10
8.0972446561
 20
7.9724982862
 30
0.0
 10
8.1000430588
 20
8.0055456455
 30
0.0
 10
8.1050336268
 20
8.0466121171
 30
0.0
 10
8.112017249
 20
8.0873200058
 30
0.0
 10
8.1187862281
 20
8.119570482
 30
0.0
 10
8.1263269973
 20
8.1515458013
 30
0.0
 10
8.1372110354
 20
8.1910641963
 30
0.0
 10
8.1525869635
 20
8.2376764103
 30
0.0
 10
8.1702336702
 20
8.2833395412
 30
0.0
 10
8.1901104268
 20
8.3279475429
 30
0.0
 10
8.2121715285
 20
8.3713977191
 30
0.0
 10
8.2363661549
 20
8.4135897834
 30
0.0
 10
8.2626385951
 20
8.4544264384
 30
0.0
 10
8.2909282197
 20
8.4938133824
 30
0.0
 10
8.3211701399
 20
8.5316600638
 30
0.0
 10
8.3532934359
 20
8.5678779802
 30
0.0
 10
8.3759180893
 20
8.5908859686
 30
0.0
 10
8.3875145938
 20
8.6020873625
 30
0.0
  0
SPLINE
  5
2C7
100
AcDbEntity
  8
0
100
AcDbSpline
 62
7
  6
CONTINUOUS
 70
0
 71
3
 72
39
 73
35
 74
0
 42
0.0000001
 43
0.0000001
 44
0.0000000001
 40
0.0
 40
0.0
 40
0.0
 40
0.0
 40
0.0064813485
 40
0.0130002985
 40
0.0195937285
 40
0.026297146
 40
0.0331442162
 40
0.0401663079
 40
0.05484089
 40
0.0705272863
 40
0.0873816519
 40
0.1055233038
 40
0.1250399977
 40
0.1459941136
 40
0.1684273795
 40
0.192364659
 40
0.2178175573
 40
0.2447860489
 40
0.2732611697
 40
0.3032256797
 40
0.334655689
 40
0.3675213604
 40
0.4017874193
 40
0.4374142301
 40
0.4743575615
 40
0.5125697352
 40
0.5519993246
 40
0.5925918809
 40
0.6342900708
 40
0.6770336885
 40
0.7207603521
 40
0.8109000934
 40
0.9041686777
 40
1.0
 40
1.0
 40
1.0
 40
1.0
 10
15.0656014739
 20
10.535161906
 30
0.0
 10
15.0656014686
 20
10.5357693397
 30
0.0
 10
15.0655531721
 20
10.5369882753
 30
0.0
 10
15.0653360558
 20
10.5388135155
 30
0.0
 10
15.0649744325
 20
10.540636978
 30
0.0
 10
15.0644686226
 20
10.5424576151
 30
0.0
 10
15.0638189018
 20
10.5442746678
 30
0.0
 10
15.0627457619
 20
10.5467270834
 30
0.0
 10
15.0610243414
 20
10.5497899465
 30
0.0
 10
15.058421746
 20
10.5533787327
 30
0.0
 10
15.0552585693
 20
10.5569315121
 30
0.0
 10
15.0515408375
 20
10.5604436586
 30
0.0
 10
15.0472747433
 20
10.5639111513
 30
0.0
 10
15.0424670391
 20
10.5673292164
 30
0.0
 10
15.0371252894
 20
10.5706928689
 30
0.0
 10
15.0312579993
 20
10.5739970159
 30
0.0
 10
15.0248745336
 20
10.5772363115
 30
0.0
 10
15.0179852667
 20
10.5804056151
 30
0.0
 10
15.0106014093
 20
10.5834996159
 30
0.0
 10
15.0027351032
 20
10.5865132454
 30
0.0
 10
14.9943993163
 20
10.5894414533
 30
0.0
 10
14.985607842
 20
10.5922793145
 30
0.0
 10
14.976375275
 20
10.5950221263
 30
0.0
 10
14.9667169538
 20
10.5976651997
 30
0.0
 10
14.9566489654
 20
10.6002041768
 30
0.0
 10
14.9461880835
 20
10.6026347166
 30
0.0
 10
14.9353517583
 20
10.6049527758
 30
0.0
 10
14.9241580719
 20
10.6071544473
 30
0.0
 10
14.9126257199
 20
10.6092359974
 30
0.0
 10
14.9007739522
 20
10.6111940029
 30
0.0
 10
14.8844063342
 20
10.6136603429
 30
0.0
 10
14.8632935241
 20
10.6164002308
 30
0.0
 10
14.8372621198
 20
10.6191169075
 30
0.0
 10
14.8195949873
 20
10.6205400745
 30
0.0
 10
14.8106351704
 20
10.6211614399
 30
0.0
  0
SPLINE
  5
2C8
100
AcDbEntity
  8
0
100
AcDbSpline
 62
7
  6
CONTINUOUS
 70
0
 71
3
 72
39
 73
35
 74
0
 42
0.0000001
 43
0.0000001
 44
0.0000000001
 40
0.0
 40
0.0
 40
0.0
 40
0.0
 40
0.0064813485
 40
0.0130002985
 40
0.0195937285
 40
0.026297146
 40
0.0331442162
 40
0.0401663079
 40
0.05484089
 40
0.0705272863
 40
0.0873816519
 40
0.1055233038
 40
0.1250399977
 40
0.1459941136
 40
0.1684273795
 40
0.192364659
 40
0.2178175573
 40
0.2447860489
 40
0.2732611697
 40
0.3032256797
 40
0.334655689
 40
0.3675213604
 40
0.4017874193
 40
0.4374142301
 40
0.4743575615
 40
0.5125697352
 40
0.5519993246
 40
0.5925918809
 40
0.6342900708
 40
0.6770336885
 40
0.7207603521
 40
0.8109000934
 40
0.9041686777
 40
1.0
 40
1.0
 40
1.0
 40
1.0
 10
7.6223984892
 20
9.8455794868
 30
0.0
 10
7.622398484
 20
9.8461869205
 30
0.0
 10
7.6223501875
 20
9.8474058561
 30
0.0
 10
7.6221330712
 20
9.8492310963
 30
0.0
 10
7.6217714478
 20
9.8510545588
 30
0.0
 10
7.621265638
 20
9.8528751959
 30
0.0
 10
7.6206159171
 20
9.8546922486
 30
0.0
 10
7.6195427773
 20
9.8571446642
 30
0.0
 10
7.6178213567
 20
9.8602075273
 30
0.0
 10
7.6152187613
 20
9.8637963135
 30
0.0
 10
7.6120555846
 20
9.8673490929
 30
0.0
 10
7.6083378529
 20
9.8708612394
 30
0.0
 10
7.6040717587
 20
9.8743287321
 30
0.0
 10
7.5992640544
 20
9.8777467972
 30
0.0
 10
7.5939223047
 20
9.8811104497
 30
0.0
 10
7.5880550146
 20
9.8844145967
 30
0.0
 10
7.581671549
 20
9.8876538923
 30
0.0
 10
7.574782282
 20
9.8908231959
 30
0.0
 10
7.5673984247
 20
9.8939171967
 30
0.0
 10
7.5595321186
 20
9.8969308262
 30
0.0
 10
7.5511963316
 20
9.8998590341
 30
0.0
 10
7.5424048573
 20
9.9026968953
 30
0.0
 10
7.5331722904
 20
9.9054397071
 30
0.0
 10
7.5235139691
 20
9.9080827805
 30
0.0
 10
7.5134459807
 20
9.9106217576
 30
0.0
 10
7.5029850988
 20
9.9130522974
 30
0.0
 10
7.4921487737
 20
9.9153703566
 30
0.0
 10
7.4809550872
 20
9.9175720281
 30
0.0
 10
7.4694227352
 20
9.9196535782
 30
0.0
 10
7.4575709675
 20
9.9216115837
 30
0.0
 10
7.4412033495
 20
9.9240779237
 30
0.0
 10
7.4200905394
 20
9.9268178116
 30
0.0
 10
7.3940591352
 20
9.9295344883
 30
0.0
 10
7.3763920026
 20
9.9309576553
 30
0.0
 10
7.3674321857
 20
9.9315790207
 30
0.0
  0
SPLINE
  5
2C9
100
AcDbEntity
  8
0
100
AcDbSpline
 62
7
  6
CONTINUOUS
 70
0
 71
3
 72
51
 73
47
 74
0
 42
0.0000001
 43
0.0000001
 44
0.0000000001
 40
0.0
 40
0.0
 40
0.0
 40
0.0
 40
0.0417976334
 40
0.0840617059
 40
0.1266600162
 40
0.1694648373
 40
0.2123444183
 40
0.2551678056
 40
0.2978040295
 40
0.3401228707
 40
0.3819953972
 40
0.4232944331
 40
0.4638951049
 40
0.5036754014
 40
0.5425167144
 40
0.5803043868
 40
0.6169282946
 40
0.6522834744
 40
0.6862708502
 40
0.7187979642
 40
0.7497798109
 40
0.7791398433
 40
0.7931908577
 40
0.8068123106
 40
0.8199975373
 40
0.8327408364
 40
0.8450374148
 40
0.8568833404
 40
0.8682760229
 40
0.8792138834
 40
0.8896968843
 40
0.8997265616
 40
0.9093061201
 40
0.9184410646
 40
0.927139066
 40
0.9354107182
 40
0.9432698249
 40
0.9507338213
 40
0.9578246679
 40
0.9645690813
 40
0.970999459
 40
0.9771542315
 40
0.98307809
 40
0.9888220284
 40
0.9944424517
 40
1.0
 40
1.0
 40
1.0
 40
1.0
 10
14.8106351704
 20
10.6211614399
 30
0.0
 10
14.8042503137
 20
10.6216042312
 30
0.0
 10
14.7914020566
 20
10.622392671
 30
0.0
 10
14.7720271697
 20
10.62328255
 30
0.0
 10
14.752486866
 20
10.6238843701
 30
0.0
 10
14.732845548
 20
10.6241962183
 30
0.0
 10
14.7131673007
 20
10.6242170156
 30
0.0
 10
14.693516716
 20
10.6239467074
 30
0.0
 10
14.673958155
 20
10.6233861862
 30
0.0
 10
14.6545557073
 20
10.6225373067
 30
0.0
 10
14.6353729442
 20
10.6214028726
 30
0.0
 10
14.616472713
 20
10.6199866265
 30
0.0
 10
14.5979169302
 20
10.6182932384
 30
0.0
 10
14.5797663697
 20
10.6163283092
 30
0.0
 10
14.5620804611
 20
10.6140983375
 30
0.0
 10
14.5449170964
 20
10.6116106969
 30
0.0
 10
14.5283324401
 20
10.6088736139
 30
0.0
 10
14.5123807275
 20
10.6058961384
 30
0.0
 10
14.4971140892
 20
10.6026881322
 30
0.0
 10
14.4825822972
 20
10.5992602322
 30
0.0
 10
14.4688328436
 20
10.5956237667
 30
0.0
 10
14.4579097665
 20
10.5923840151
 30
0.0
 10
14.449602676
 20
10.589688773
 30
0.0
 10
14.4436867135
 20
10.5876524175
 30
0.0
 10
14.4379984194
 20
10.5855731427
 30
0.0
 10
14.4325424203
 20
10.5834526468
 30
0.0
 10
14.4273231492
 20
10.5812927047
 30
0.0
 10
14.4223448694
 20
10.5790950039
 30
0.0
 10
14.4176115919
 20
10.5768614264
 30
0.0
 10
14.413127168
 20
10.5745937141
 30
0.0
 10
14.4088952112
 20
10.5722937239
 30
0.0
 10
14.4049191078
 20
10.5699633368
 30
0.0
 10
14.4012020872
 20
10.5676043209
 30
0.0
 10
14.3977470663
 20
10.5652186343
 30
0.0
 10
14.3945568406
 20
10.5628080374
 30
0.0
 10
14.391633938
 20
10.560374388
 30
0.0
 10
14.3889806649
 20
10.5579195166
 30
0.0
 10
14.3865992563
 20
10.5554450911
 30
0.0
 10
14.3844916099
 20
10.5529529376
 30
0.0
 10
14.3826596915
 20
10.5504446485
 30
0.0
 10
14.3811052729
 20
10.5479219491
 30
0.0
 10
14.3798300638
 20
10.5453865937
 30
0.0
 10
14.3788359214
 20
10.5428404612
 30
0.0
 10
14.3781243008
 20
10.5402856899
 30
0.0
 10
14.3776967441
 20
10.5377251858
 30
0.0
 10
14.3776015034
 20
10.5360120957
 30
0.0
 10
14.3776015108
 20
10.5351611055
 30
0.0
  0
ENDSEC
  0
SECTION
  2
OBJECTS
  0
DICTIONARY
  5
C
100
AcDbDictionary
280
0
281
1
  3
ACAD_GROUP
350
D
  3
ACAD_MLINESTYLE
350
17
  3
ACAD_LAYOUT
350
1A
  3
ACAD_PLOTSETTINGS
350
19
  3
ACAD_PLOTSTYLENAME
350
E
  3
ACAD_IMAGE_DICT
350
       2CB
  3
ACAD_IMAGE_VARS
350
       2CC
  3
ACAD_TABLESTYLE
350
       2CD
  0
IMAGEDEF_REACTOR
  5
2CA
100
AcDbRasterImageDefReactor
 90
2
330
27F
  0
DICTIONARY
  5
D
102
{ACAD_REACTORS
330
C
102
}
100
AcDbDictionary
280
0
281
1
  0
ACDBDICTIONARYWDFLT
  5
E
102
{ACAD_REACTORS
330
C
102
}
100
AcDbDictionary
281
1
  3
Normal
350
F
100
AcDbDictionaryWithDefault
340
F
  0
DICTIONARY
  5
2CB
330
C
100
AcDbDictionary
281
1
  3
DNB_assy_2_img_1
350
       2D0
  0
RASTERVARIABLES
  5
2CC
330
C
100
AcDbRasterVariables
 90
0
 70
0
 71
1
 72
5
  0
DICTIONARY
  5
17
102
{ACAD_REACTORS
330
C
102
}
100
AcDbDictionary
280
0
281
1
  3
Standard
350
18
  0
DICTIONARY
  5
2CD
330
C
100
AcDbDictionary
281
1
  3
Standard
350
       2D1
  3
Standard1
350
       2D2
  0
DICTIONARY
  5
19
102
{ACAD_REACTORS
330
C
102
}
100
AcDbDictionary
281
1
  0
DICTIONARY
  5
1A
102
{ACAD_REACTORS
330
C
102
}
100
AcDbDictionary
281
1
  3
Model
350
2CE
  3
Layout1
350
2CF
  0
ACDBPLACEHOLDER
  5
F
102
{ACAD_REACTORS
330
E
102
}
  0
MLINESTYLE
  5
18
102
{ACAD_REACTORS
330
17
102
}
100
AcDbMlineStyle
  2
STANDARD
 70
0
  3

 62
256
 51
90.0
 52
90.0
 71
2
 49
0.5
 62
256
  6
BYLAYER
 49
-0.5
 62
256
  6
BYLAYER
  0
LAYOUT
  5
2CE
102
{ACAD_REACTORS
330
1A
102
}
100
AcDbPlotSettings
  1

  2
none_device
  4
ANSI_C_(22.00_x_17.00_Inches)
  6

 40
0.0
 41
0.0
 42
0.0
 43
0.0
 44
558.8
 45
431.8
 46
0.0
 47
0.0
 48
0.0
 49
0.0
140
0.0
141
0.0
142
1.0
143
1.0
 70
1024
 72
0
 73
0
 74
0
  7

 75
0
147
1.0
148
0.0
149
0.0
100
AcDbLayout
  1
Model
 70
0
 71
0
 10
0.0
 20
0.0
 11
22.0
 21
17.0
 12
0.0
 22
0.0
 32
0.0
 14
0.0
 24
0.0
 34
0.0
 15
0.0
 25
0.0
 35
0.0
146
0.0
 13
0.0
 23
0.0
 33
0.0
 16
1.0
 26
0.0
 36
0.0
 17
0.0
 27
1.0
 37
0.0
 76
0
330
204
345
0
346
0
  0
LAYOUT
  5
2CF
102
{ACAD_REACTORS
330
1A
102
}
100
AcDbPlotSettings
  1

  2
none_device
  4
ANSI_C_(22.00_x_17.00_Inches)
  6

 40
0.0
 41
0.0
 42
0.0
 43
0.0
 44
558.8
 45
431.8
 46
0.0
 47
0.0
 48
0.0
 49
0.0
140
0.0
141
0.0
142
1.0
143
1.0
 70
0
 72
0
 73
0
 74
0
  7

 75
0
147
1.0
148
0.0
149
0.0
100
AcDbLayout
  1
Layout1
 70
0
 71
1
 10
0.0
 20
0.0
 11
22.0
 21
17.0
 12
0.0
 22
0.0
 32
0.0
 14
0.0
 24
0.0
 34
0.0
 15
0.0
 25
0.0
 35
0.0
146
0.0
 13
0.0
 23
0.0
 33
0.0
 16
1.0
 26
0.0
 36
0.0
 17
0.0
 27
1.0
 37
0.0
 76
0
330
205
345
0
346
0
  0
IMAGEDEF
  5
2D0
102
{ACAD_REACTORS
330
2CB
330
2CA
102
}
100
AcDbRasterImageDef
 90
0
  1
DNB_assy_2_img_1.png
 10
369.0
 20
92.0
 11
0.0066666667
 21
0.0066666667
280
1
281
0
  0
TABLESTYLE
  5
2D1
102
{ACAD_REACTORS
330
2CD
330
282
330
283
102
}
330
2CD
100
AcDbTableStyle
  3
Standard
 70
0
 71
0
 40
0.06
 41
0.06
280
1
281
1
  7
Standard
140
0.18
170
1
 62
0
 63
7
283
0
  7
Standard
140
0.18
170
1
 62
0
 63
7
283
0
  7
Standard
140
0.18
170
1
 62
0
 63
7
283
0
  0
TABLESTYLE
  5
2D2
102
{ACAD_REACTORS
330
2CD
330
281
102
}
330
2CD
100
AcDbTableStyle
  3
Standard1
 70
1
 71
0
 40
0.06
 41
0.06
280
1
281
1
  7
Standard
140
0.18
170
1
 62
0
 63
7
283
0
  7
Standard
140
0.18
170
1
 62
0
 63
7
283
0
  7
Standard
140
0.18
170
1
 62
0
 63
7
283
0
  0
ENDSEC
  0
EOF
