999
DXF file: DBQ_assy_2.dxf
999
Pro/ENGINEER 2014200 by Parametric Technology Corporation
  0
SECTION
  2
HEADER
  9
$ACADVER
  1
AC1021
  9
$DWGCODEPAGE
  3
ANSI_1252
  9
$EXTMAX
 10
22.0
 20
17.0
 30
0.0
  9
$EXTMIN
 10
0.0
 20
0.0
 30
0.0
  9
$LIMMIN
 10
0.0
 20
0.0
  9
$LIMMAX
 10
22.0
 20
17.0
  9
$VIEWCTR
 10
11.0
 20
8.5
  9
$VIEWSIZE
 40
17.0
  9
$CLAYER
  8
0
  9
$LTSCALE
 40
1.21
  9
$CELTYPE
  6
BYLAYER
  9
$DIMSCALE
 40
1.0
  9
$DIMASZ
 40
0.1875
  9
$DIMEXO
 40
0.0625
  9
$DIMDLI
 40
0.836
  9
$DIMEXE
 40
0.125
  9
$DIMCEN
 40
0.198
  9
$DIMLFAC
 40
1.0
  9
$DIMBLK
  1
_FILLED
  9
$DIMTXT
 40
0.1
  9
$DIMTOL
 70
0
  9
$DIMLIM
 70
0
  9
$DIMTFAC
 40
1.0
  9
$DIMGAP
 40
0.09
  9
$DIMDSEP
 70
46
  9
$AUNITS
 70
0
  9
$PDMODE
 70
3
  9
$PDSIZE
 40
0.3125
  9
$HANDSEED
  5
2DE
  9
$TILEMODE
 70
1
  9
$MEASUREMENT
 70
0
  9
$INSUNITS
 70
1
  0
ENDSEC
  0
SECTION
  2
CLASSES
  0
CLASS
  1
ACDBDICTIONARYWDFLT
  2
AcDbDictionaryWithDefault
  3
AutoCAD 2000
 90
0
 91
1
280
0
281
0
  0
CLASS
  1
ACDBPLACEHOLDER
  2
AcDbPlaceHolder
  3
AutoCAD 2000
 90
0
 91
1
280
0
281
0
  0
CLASS
  1
LAYOUT
  2
AcDbLayout
  3
AutoCAD 2000
 90
0
 91
0
280
0
281
0
  0
CLASS
  1
RASTERVARIABLES
  2
AcDbRasterVariables
  3
ISM
 90
0
 91
1
280
0
281
0
  0
CLASS
  1
IMAGEDEF
  2
AcDbRasterImageDef
  3
ISM
 90
0
 91
1
280
0
281
0
  0
CLASS
  1
IMAGEDEF_REACTOR
  2
AcDbRasterImageDefReactor
  3
ISM
 90
0
 91
1
280
0
281
0
  0
CLASS
  1
IMAGE
  2
AcDbRasterImage
  3
ISM
 90
127
 91
1
280
0
281
1
  0
CLASS
  1
TABLESTYLE
  2
AcDbTableStyle
  3
ObjectDBX Classes
 90
2047
 91
1
280
0
281
0
  0
CLASS
  1
ACAD_TABLE
  2
AcDbTable
  3
ObjectDBX Classes
 90
1025
 91
2
280
0
281
1
  0
ENDSEC
  0
SECTION
  2
TABLES
  0
TABLE
  2
VPORT
  5
8
100
AcDbSymbolTable
 70
2
  0
VPORT
  5
1F4
100
AcDbSymbolTableRecord
100
AcDbViewportTableRecord
  2
*ACTIVE
 70
0
 10
0.0
 20
0.0
 11
1.0
 21
1.0
 12
11.0
 22
8.5
 13
0.0
 23
0.0
 14
1.0
 24
1.0
 15
0.0
 25
0.0
 16
0.0
 26
0.0
 36
1.0
 17
0.0
 27
0.0
 37
0.0
 40
17.0
 41
1.2941176471
 42
50.0
 43
0.0
 44
0.0
 50
0.0
 51
0.0
 71
0
 72
100
 73
1
 74
1
 75
0
 76
0
 77
0
 78
0
  0
ENDTAB
  0
TABLE
  2
LTYPE
  5
5
100
AcDbSymbolTable
 70
6
  0
LTYPE
  5
14
100
AcDbSymbolTableRecord
100
AcDbLinetypeTableRecord
  2
BYBLOCK
 70
0
  3

 72
65
 73
0
 40
0.0
  0
LTYPE
  5
15
100
AcDbSymbolTableRecord
100
AcDbLinetypeTableRecord
  2
BYLAYER
 70
0
  3

 72
65
 73
0
 40
0.0
  0
LTYPE
  5
16
100
AcDbSymbolTableRecord
100
AcDbLinetypeTableRecord
  2
CONTINUOUS
 70
64
  3
Solid line
 72
65
 73
0
 40
0.0
  0
LTYPE
  5
1F5
100
AcDbSymbolTableRecord
100
AcDbLinetypeTableRecord
  2
CENTER
 70
64
  3
____ _ ____ _ ____ _ ____ _ ____ _ ____ _ ____
 72
65
 73
4
 40
0.6
 49
0.375
 74
0
 49
-0.075
 74
0
 49
0.075
 74
0
 49
-0.075
 74
0
  0
LTYPE
  5
1F6
100
AcDbSymbolTableRecord
100
AcDbLinetypeTableRecord
  2
HIDDEN
 70
64
  3
- - - - - - - - - - - - - - - - - - - -
 72
65
 73
2
 40
0.2
 49
0.1
 74
0
 49
-0.1
 74
0
  0
LTYPE
  5
1F7
100
AcDbSymbolTableRecord
100
AcDbLinetypeTableRecord
  2
PHANTOM
 70
64
  3
_____ _ _ _____ _ _ _____ _ _ _____
 72
65
 73
6
 40
0.8
 49
0.45
 74
0
 49
-0.05
 74
0
 49
0.1
 74
0
 49
-0.05
 74
0
 49
0.1
 74
0
 49
-0.05
 74
0
  0
LTYPE
  5
1F8
100
AcDbSymbolTableRecord
100
AcDbLinetypeTableRecord
  2
DOT
 70
64
  3
. . . . . . . . . . . . . . . . . . . .
 72
65
 73
2
 40
0.2
 49
0.1
 74
0
 49
-0.1
 74
0
  0
LTYPE
  5
1F9
100
AcDbSymbolTableRecord
100
AcDbLinetypeTableRecord
  2
DASHED
 70
64
  3
- - - - - - - - - - - - - - - - - - - -
 72
65
 73
2
 40
0.2
 49
0.1
 74
0
 49
-0.1
 74
0
  0
ENDTAB
  0
TABLE
  2
LAYER
  5
2
100
AcDbSymbolTable
 70
36
  0
LAYER
  5
10
100
AcDbSymbolTableRecord
100
AcDbLayerTableRecord
  2
0
 70
0
 62
7
  6
CONTINUOUS
370
-3
390
F
  0
LAYER
  5
1FA
100
AcDbSymbolTableRecord
100
AcDbLayerTableRecord
  2
DEFAULT_1
 70
0
 62
7
  6
CENTER
370
-3
390
F
  0
LAYER
  5
1FB
100
AcDbSymbolTableRecord
100
AcDbLayerTableRecord
  2
DEFAULT_2
 70
0
 62
8
  6
HIDDEN
370
-3
390
F
  0
LAYER
  5
1FC
100
AcDbSymbolTableRecord
100
AcDbLayerTableRecord
  2
DEFAULT_3
 70
0
 62
7
  6
PHANTOM
370
-3
390
F
  0
LAYER
  5
1FD
100
AcDbSymbolTableRecord
100
AcDbLayerTableRecord
  2
DATUM_PLANES
 70
0
 62
7
  6
CONTINUOUS
370
-3
390
F
  0
LAYER
  5
1FE
100
AcDbSymbolTableRecord
100
AcDbLayerTableRecord
  2
DIMENSIONS
 70
0
 62
7
  6
CONTINUOUS
370
-3
390
F
  0
LAYER
  5
1FF
100
AcDbSymbolTableRecord
100
AcDbLayerTableRecord
  2
DTM_500001
 70
0
 62
7
  6
CONTINUOUS
370
-3
390
F
  0
LAYER
  5
200
100
AcDbSymbolTableRecord
100
AcDbLayerTableRecord
  2
PARAMETERDIMENSIONS
 70
0
 62
7
  6
CONTINUOUS
370
-3
390
F
  0
LAYER
  5
201
100
AcDbSymbolTableRecord
100
AcDbLayerTableRecord
  2
PORT_AREAS
 70
0
 62
7
  6
CONTINUOUS
370
-3
390
F
  0
LAYER
  5
202
100
AcDbSymbolTableRecord
100
AcDbLayerTableRecord
  2
SUNNBOMCOSMETIC
 70
0
 62
7
  6
CONTINUOUS
370
-3
390
F
  0
LAYER
  5
203
100
AcDbSymbolTableRecord
100
AcDbLayerTableRecord
  2
SUNNBOMSTAMPING
 70
0
 62
7
  6
CONTINUOUS
370
-3
390
F
  0
LAYER
  5
204
100
AcDbSymbolTableRecord
100
AcDbLayerTableRecord
  2
THREADS
 70
0
 62
7
  6
CONTINUOUS
370
-3
390
F
  0
ENDTAB
  0
TABLE
  2
STYLE
  5
3
100
AcDbSymbolTable
 70
1
  0
STYLE
  5
11
100
AcDbSymbolTableRecord
100
AcDbTextStyleTableRecord
  2
STANDARD
 70
0
 40
0.0
 41
0.8
 50
0.0
 71
0
 42
0.2
  3
txt
  4

  0
STYLE
  5
205
100
AcDbSymbolTableRecord
100
AcDbTextStyleTableRecord
  2
TEXTSTYLE_1
 70
0
 40
0.0
 41
0.8
 50
0.0
 71
0
 42
0.2
  3
gdt
  4

  0
ENDTAB
  0
TABLE
  2
VIEW
  5
6
100
AcDbSymbolTable
 70
0
  0
ENDTAB
  0
TABLE
  2
UCS
  5
7
100
AcDbSymbolTable
 70
0
  0
ENDTAB
  0
TABLE
  2
APPID
  5
9
100
AcDbSymbolTable
 70
1
  0
APPID
  5
206
100
AcDbSymbolTableRecord
100
AcDbRegAppTableRecord
  2
ACAD
 70
0
  0
ENDTAB
  0
TABLE
  2
BLOCK_RECORD
  5
1
100
AcDbSymbolTable
 70
0
  0
BLOCK_RECORD
  5
207
100
AcDbSymbolTableRecord
100
AcDbBlockTableRecord
  2
*Model_Space
  0
BLOCK_RECORD
  5
208
100
AcDbSymbolTableRecord
100
AcDbBlockTableRecord
  2
*Paper_Space
  0
BLOCK_RECORD
  5
209
100
AcDbSymbolTableRecord
100
AcDbBlockTableRecord
  2
SUN_FIRST_THIRD_ANGLE_BL0
  0
BLOCK_RECORD
  5
20A
100
AcDbSymbolTableRecord
100
AcDbBlockTableRecord
  2
*T1
  0
BLOCK_RECORD
  5
20B
100
AcDbSymbolTableRecord
100
AcDbBlockTableRecord
  2
*T2
  0
ENDTAB
  0
TABLE
  2
DIMSTYLE
  5
A
100
AcDbSymbolTable
 70
1
100
AcDbDimStyleTable
 71
0
  0
DIMSTYLE
105
20C
100
AcDbSymbolTableRecord
100
AcDbDimStyleTableRecord
  2
STANDARD
 70
0
  3

  4

 40
1.0
 41
0.1875
 42
0.0625
 43
0.38
 44
0.125
 45
0.0
 46
0.0
 47
0.001
 48
0.001
140
0.1
141
0.09
142
0.0
143
25.4
144
1.0
145
0.0
146
1.0
147
0.09
 71
0.0
 72
0.0
 73
1
 74
1
 75
0
 76
0
 77
0
 78
4
170
0
171
2
172
0
173
0
174
0
175
0
176
0
177
0
178
0
270
2
271
3
272
3
273
2
274
2
275
0
280
0
281
0
282
0
283
1
284
4
285
0
286
0
287
3
288
0
340
11
278
46
  0
ENDTAB
  0
ENDSEC
  0
SECTION
  2
BLOCKS
  0
BLOCK
  5
20
100
AcDbEntity
  8
0
100
AcDbBlockBegin
  2
*Model_Space
 70
0
 10
0.0
 20
0.0
 30
0.0
  3
*Model_Space
  1

  0
ENDBLK
  5
21
100
AcDbEntity
  8
0
100
AcDbBlockEnd
  0
BLOCK
  5
1C
100
AcDbEntity
  8
0
100
AcDbBlockBegin
  2
*Paper_Space
 70
0
 10
0.0
 20
0.0
 30
0.0
  3
*Paper_Space
  1

  0
ENDBLK
  5
1D
100
AcDbEntity
  8
0
100
AcDbBlockEnd
  0
BLOCK
  5
20D
100
AcDbEntity
  8
0
100
AcDbBlockBegin
 62
2
  6
CONTINUOUS
  2
SUN_FIRST_THIRD_ANGLE_BL0
 70
64
 10
20.4816717061
 20
1.2289683772
  3
SUN_FIRST_THIRD_ANGLE_BL0
  1

  0
TEXT
  5
20E
100
AcDbEntity
  8
0
100
AcDbText
 62
2
  6
CONTINUOUS
 10
19.4750896608
 20
1.4136269581
  7
STANDARD
 40
0.08
  1
FIRST ANGLE
 41
0.8
 72
0
100
AcDbText
  0
TEXT
  5
20F
100
AcDbEntity
  8
0
100
AcDbText
 62
2
  6
CONTINUOUS
 10
20.7842537513
 20
1.4047600029
  7
STANDARD
 40
0.08
  1
THIRD ANGLE
 41
0.8
 72
0
100
AcDbText
  0
LINE
  5
210
100
AcDbEntity
  8
0
100
AcDbLine
 62
7
  6
CONTINUOUS
 10
19.4767170086
 20
1.1727031207
 11
19.6334271527
 21
1.1717972817
  0
LINE
  5
211
100
AcDbEntity
  8
0
100
AcDbLine
 62
7
  6
CONTINUOUS
 10
19.6596964832
 20
1.1717972817
 11
19.6950230232
 21
1.171593082
  0
LINE
  5
212
100
AcDbEntity
  8
0
100
AcDbLine
 62
7
  6
CONTINUOUS
 10
19.7194818561
 20
1.1708914427
 11
19.8852396156
 21
1.1699333054
  0
LINE
  5
213
100
AcDbEntity
  8
0
100
AcDbLine
 62
7
  6
CONTINUOUS
 10
19.4758111696
 20
1.2723454088
 11
19.88525039
 21
1.3511534004
  0
LINE
  5
214
100
AcDbEntity
  8
0
100
AcDbLine
 62
7
  6
CONTINUOUS
 10
19.88525039
 20
1.3511534004
 11
19.8831348489
 21
0.9851647912
  0
LINE
  5
215
100
AcDbEntity
  8
0
100
AcDbLine
 62
7
  6
CONTINUOUS
 10
19.8831348489
 20
0.9851647912
 11
19.4767170086
 21
1.0658141206
  0
LINE
  5
216
100
AcDbEntity
  8
0
100
AcDbLine
 62
7
  6
CONTINUOUS
 10
19.4767170086
 20
1.0658141206
 11
19.4779056764
 21
1.2714536432
  0
CIRCLE
  5
217
100
AcDbEntity
  8
0
100
AcDbCircle
 62
7
  6
CONTINUOUS
 10
20.2068232291
 20
1.1717972817
 40
0.175742101
  0
CIRCLE
  5
218
100
AcDbEntity
  8
0
100
AcDbCircle
 62
7
  6
CONTINUOUS
 10
20.2068232291
 20
1.1717972817
 40
0.1005522074
  0
LINE
  5
219
100
AcDbEntity
  8
0
100
AcDbLine
 62
7
  6
CONTINUOUS
 10
20.2077290681
 20
1.3756110529
 11
20.2071171714
 21
1.2379342989
  0
LINE
  5
21A
100
AcDbEntity
  8
0
100
AcDbLine
 62
7
  6
CONTINUOUS
 10
20.2077290681
 20
1.2016899681
 11
20.2074674401
 21
1.1428236749
  0
LINE
  5
21B
100
AcDbEntity
  8
0
100
AcDbLine
 62
7
  6
CONTINUOUS
 10
20.208634907
 20
1.101141841
 11
20.2080230104
 21
0.963465087
  0
LINE
  5
21C
100
AcDbEntity
  8
0
100
AcDbLine
 62
7
  6
CONTINUOUS
 10
20.0066328138
 20
1.1745147986
 11
20.1443095678
 21
1.1739029019
  0
LINE
  5
21D
100
AcDbEntity
  8
0
100
AcDbLine
 62
7
  6
CONTINUOUS
 10
20.1832714155
 20
1.1727031207
 11
20.238153505
 21
1.172335442
  0
LINE
  5
21E
100
AcDbEntity
  8
0
100
AcDbLine
 62
7
  6
CONTINUOUS
 10
20.2756669918
 20
1.1717972817
 11
20.407916871
 21
1.1712095044
  0
CIRCLE
  5
21F
100
AcDbEntity
  8
0
100
AcDbCircle
 62
7
  6
CONTINUOUS
 10
20.7509457401
 20
1.1693297793
 40
0.1722024983
  0
CIRCLE
  5
220
100
AcDbEntity
  8
0
100
AcDbCircle
 62
7
  6
CONTINUOUS
 10
20.7509457401
 20
1.1693297793
 40
0.0985164967
  0
LINE
  5
221
100
AcDbEntity
  8
0
100
AcDbLine
 62
7
  6
CONTINUOUS
 10
20.7169767782
 20
1.170462078
 11
20.7825395137
 21
1.1682766535
  0
LINE
  5
222
100
AcDbEntity
  8
0
100
AcDbLine
 62
7
  6
CONTINUOUS
 10
20.8177513651
 20
1.1693297793
 11
20.947965719
 21
1.1693297793
  0
LINE
  5
223
100
AcDbEntity
  8
0
100
AcDbLine
 62
7
  6
CONTINUOUS
 10
20.6875370113
 20
1.170462078
 11
20.5573226574
 21
1.170462078
  0
LINE
  5
224
100
AcDbEntity
  8
0
100
AcDbLine
 62
7
  6
CONTINUOUS
 10
20.7486811426
 20
1.1987695462
 11
20.7486811426
 21
1.1432869085
  0
LINE
  5
225
100
AcDbEntity
  8
0
100
AcDbLine
 62
7
  6
CONTINUOUS
 10
20.7498134414
 20
1.1059210505
 11
20.7498134414
 21
0.9757066966
  0
LINE
  5
226
100
AcDbEntity
  8
0
100
AcDbLine
 62
7
  6
CONTINUOUS
 10
20.7486811426
 20
1.2338708068
 11
20.7486811426
 21
1.3640851607
  0
LINE
  5
227
100
AcDbEntity
  8
0
100
AcDbLine
 62
7
  6
CONTINUOUS
 10
21.0702539817
 20
1.2701043662
 11
21.4790138229
 21
1.3448360823
  0
LINE
  5
228
100
AcDbEntity
  8
0
100
AcDbLine
 62
7
  6
CONTINUOUS
 10
21.4790138229
 20
1.3448360823
 11
21.4790138229
 21
0.9779712941
  0
LINE
  5
229
100
AcDbEntity
  8
0
100
AcDbLine
 62
7
  6
CONTINUOUS
 10
21.4790138229
 20
0.9779712941
 11
21.069121683
 21
1.0617614
  0
LINE
  5
22A
100
AcDbEntity
  8
0
100
AcDbLine
 62
7
  6
CONTINUOUS
 10
21.0702539817
 20
1.2701043662
 11
21.069121683
 21
1.0617614
  0
LINE
  5
22B
100
AcDbEntity
  8
0
100
AcDbLine
 62
7
  6
CONTINUOUS
 10
21.4790138229
 20
1.1693297793
 11
21.3159628059
 21
1.1693297793
  0
LINE
  5
22C
100
AcDbEntity
  8
0
100
AcDbLine
 62
7
  6
CONTINUOUS
 10
21.2876553377
 20
1.1693297793
 11
21.2502894796
 21
1.1693297793
  0
LINE
  5
22D
100
AcDbEntity
  8
0
100
AcDbLine
 62
7
  6
CONTINUOUS
 10
21.2208497126
 20
1.1659328831
 11
21.0713862804
 21
1.1659328831
  0
LINE
  5
22E
100
AcDbEntity
  8
0
100
AcDbLine
 62
7
  6
CONTINUOUS
 10
20.4796138713
 20
1.5284908897
 11
20.4766766948
 21
0.9294458646
  0
ENDBLK
  5
22F
100
AcDbEntity
  8
0
  6
BYBLOCK
 62
0
100
AcDbBlockEnd
  0
BLOCK
  5
230
100
AcDbEntity
  8
0
100
AcDbBlockBegin
  2
*T1
 70
1
 10
0.0
 20
0.0
  3
*T1
  1

  0
LINE
  5
231
100
AcDbEntity
  8
0
100
AcDbLine
 62
2
  6
CONTINUOUS
 10
9.275
 20
0.0
 11
-0.0
 21
0.0
  0
LINE
  5
232
100
AcDbEntity
  8
0
100
AcDbLine
 62
2
  6
CONTINUOUS
 10
9.275
 20
0.0
 11
9.275
 21
1.25
  0
LINE
  5
233
100
AcDbEntity
  8
0
100
AcDbLine
 62
2
  6
CONTINUOUS
 10
9.275
 20
0.625
 11
-0.0
 21
0.625
  0
LINE
  5
234
100
AcDbEntity
  8
0
100
AcDbLine
 62
2
  6
CONTINUOUS
 10
9.275
 20
1.25
 11
-0.0
 21
1.25
  0
LINE
  5
235
100
AcDbEntity
  8
0
100
AcDbLine
 62
2
  6
CONTINUOUS
 10
6.8
 20
0.0
 11
6.8
 21
1.25
  0
LINE
  5
236
100
AcDbEntity
  8
0
100
AcDbLine
 62
2
  6
CONTINUOUS
 10
6.4
 20
0.0
 11
6.4
 21
0.625
  0
LINE
  5
237
100
AcDbEntity
  8
0
100
AcDbLine
 62
2
  6
CONTINUOUS
 10
5.9
 20
0.0
 11
5.9
 21
0.625
  0
LINE
  5
238
100
AcDbEntity
  8
0
100
AcDbLine
 62
2
  6
CONTINUOUS
 10
5.2
 20
0.0
 11
5.2
 21
0.625
  0
LINE
  5
239
100
AcDbEntity
  8
0
100
AcDbLine
 62
2
  6
CONTINUOUS
 10
4.1
 20
0.0
 11
4.1
 21
1.25
  0
LINE
  5
23A
100
AcDbEntity
  8
0
100
AcDbLine
 62
2
  6
CONTINUOUS
 10
-0.0
 20
0.0
 11
-0.0
 21
1.25
  0
MTEXT
  5
23B
100
AcDbEntity
  8
0
100
AcDbMText
 62
2
  6
CONTINUOUS
  7
STANDARD
 71
2
 72
1
 10
6.6
 20
0.325
 30
0.0
 11
1.0
 21
0.0
 31
0.0
 44
0.9
  1
2
 40
0.125
 41
0.2
  0
MTEXT
  5
23C
100
AcDbEntity
  8
0
100
AcDbMText
 62
2
  6
CONTINUOUS
  7
STANDARD
 71
2
 72
1
 10
6.15
 20
0.325
 30
0.0
 11
1.0
 21
0.0
 31
0.0
 44
0.9
  1
C
 40
0.125
 41
0.2
  0
MTEXT
  5
23D
100
AcDbEntity
  8
0
100
AcDbMText
 62
2
  6
CONTINUOUS
  7
STANDARD
 71
2
 72
1
 10
5.55
 20
0.325
 30
0.0
 11
1.0
 21
0.0
 31
0.0
 44
0.9
  1
1.000
 40
0.125
 41
1.0
  0
MTEXT
  5
23E
100
AcDbEntity
  8
0
100
AcDbMText
 62
2
  6
CONTINUOUS
  7
STANDARD
 71
2
 72
1
 10
4.65
 20
0.325
 30
0.0
 11
1.0
 21
0.0
 31
0.0
 44
0.9
  1
Oct-30-23
 40
0.125
 41
1.8
  0
MTEXT
  5
23F
100
AcDbEntity
  8
0
100
AcDbMText
 62
2
  6
CONTINUOUS
  7
STANDARD
 71
2
 72
1
 10
2.05
 20
0.4625
 30
0.0
 11
1.0
 21
0.0
 31
0.0
 44
0.9
  1
T-5A Sandwich ISO 05\PP to T
 40
0.125
 41
4.0
  0
MTEXT
  5
240
100
AcDbEntity
  8
0
100
AcDbMText
 62
2
  6
CONTINUOUS
  7
STANDARD
 71
1
 72
1
 10
6.45
 20
0.5625
 30
0.0
 11
1.0
 21
0.0
 31
0.0
 44
0.9
  1
SHEET
 40
0.06
 41
0.48
  0
MTEXT
  5
241
100
AcDbEntity
  8
0
100
AcDbMText
 62
2
  6
CONTINUOUS
  7
STANDARD
 71
1
 72
1
 10
5.95
 20
0.5625
 30
0.0
 11
1.0
 21
0.0
 31
0.0
 44
0.9
  1
DWG SIZE
 40
0.06
 41
0.768
  0
MTEXT
  5
242
100
AcDbEntity
  8
0
100
AcDbMText
 62
2
  6
CONTINUOUS
  7
STANDARD
 71
1
 72
1
 10
5.25
 20
0.5625
 30
0.0
 11
1.0
 21
0.0
 31
0.0
 44
0.9
  1
SCALE
 40
0.06
 41
0.48
  0
MTEXT
  5
243
100
AcDbEntity
  8
0
100
AcDbMText
 62
2
  6
CONTINUOUS
  7
STANDARD
 71
1
 72
1
 10
4.15
 20
0.5625
 30
0.0
 11
1.0
 21
0.0
 31
0.0
 44
0.9
  1
DATE
 40
0.06
 41
0.384
  0
MTEXT
  5
244
100
AcDbEntity
  8
0
100
AcDbMText
 62
2
  6
CONTINUOUS
  7
STANDARD
 71
1
 72
1
 10
0.05
 20
0.5625
 30
0.0
 11
1.0
 21
0.0
 31
0.0
 44
0.9
  1
DESCRIPTION
 40
0.06
 41
1.056
  0
MTEXT
  5
245
100
AcDbEntity
  8
0
100
AcDbMText
 62
2
  6
CONTINUOUS
  7
STANDARD
 71
2
 72
1
 10
5.45
 20
1.0375
 30
0.0
 11
1.0
 21
0.0
 31
0.0
 44
0.9
  1
ALL DIMENSIONS IN INCH\PVIEWS ARE THIRD ANGLE
 40
0.12
 41
4.224
  0
MTEXT
  5
246
100
AcDbEntity
  8
0
100
AcDbMText
 62
2
  6
CONTINUOUS
  7
STANDARD
 71
2
 72
1
 10
2.05
 20
0.95
 30
0.0
 11
1.0
 21
0.0
 31
0.0
 44
0.9
  1
DBQ
 40
0.125
 41
0.6
  0
MTEXT
  5
247
100
AcDbEntity
  8
0
100
AcDbMText
 62
2
  6
CONTINUOUS
  7
STANDARD
 71
1
 72
1
 10
0.05
 20
1.1875
 30
0.0
 11
1.0
 21
0.0
 31
0.0
 44
0.9
  1
MODEL
 40
0.06
 41
0.48
  0
ENDBLK
  5
248
100
AcDbEntity
  8
0
  6
BYBLOCK
 62
0
100
AcDbBlockEnd
  0
BLOCK
  5
249
100
AcDbEntity
  8
0
100
AcDbBlockBegin
  2
*T2
 70
1
 10
0.0
 20
0.0
  3
*T2
  1

  0
LINE
  5
24A
100
AcDbEntity
  8
0
100
AcDbLine
 62
2
  6
CONTINUOUS
 10
0.0
 20
0.0
 11
9.055
 21
0.0
  0
LINE
  5
24B
100
AcDbEntity
  8
0
100
AcDbLine
 62
2
  6
CONTINUOUS
 10
0.0
 20
0.0
 11
0.0
 21
-2.344
  0
LINE
  5
24C
100
AcDbEntity
  8
0
100
AcDbLine
 62
2
  6
CONTINUOUS
 10
0.0
 20
-0.344
 11
9.055
 21
-0.344
  0
LINE
  5
24D
100
AcDbEntity
  8
0
100
AcDbLine
 62
2
  6
CONTINUOUS
 10
0.0
 20
-0.594
 11
9.055
 21
-0.594
  0
LINE
  5
24E
100
AcDbEntity
  8
0
100
AcDbLine
 62
2
  6
CONTINUOUS
 10
0.0
 20
-0.844
 11
9.055
 21
-0.844
  0
LINE
  5
24F
100
AcDbEntity
  8
0
100
AcDbLine
 62
2
  6
CONTINUOUS
 10
0.0
 20
-1.094
 11
9.055
 21
-1.094
  0
LINE
  5
250
100
AcDbEntity
  8
0
100
AcDbLine
 62
2
  6
CONTINUOUS
 10
0.0
 20
-1.344
 11
9.055
 21
-1.344
  0
LINE
  5
251
100
AcDbEntity
  8
0
100
AcDbLine
 62
2
  6
CONTINUOUS
 10
0.0
 20
-1.594
 11
9.055
 21
-1.594
  0
LINE
  5
252
100
AcDbEntity
  8
0
100
AcDbLine
 62
2
  6
CONTINUOUS
 10
0.0
 20
-1.844
 11
9.055
 21
-1.844
  0
LINE
  5
253
100
AcDbEntity
  8
0
100
AcDbLine
 62
2
  6
CONTINUOUS
 10
0.0
 20
-2.094
 11
9.055
 21
-2.094
  0
LINE
  5
254
100
AcDbEntity
  8
0
100
AcDbLine
 62
2
  6
CONTINUOUS
 10
0.0
 20
-2.344
 11
9.055
 21
-2.344
  0
LINE
  5
255
100
AcDbEntity
  8
0
100
AcDbLine
 62
2
  6
CONTINUOUS
 10
3.055
 20
0.0
 11
3.055
 21
-2.344
  0
LINE
  5
256
100
AcDbEntity
  8
0
100
AcDbLine
 62
2
  6
CONTINUOUS
 10
9.055
 20
0.0
 11
9.055
 21
-2.344
  0
MTEXT
  5
257
100
AcDbEntity
  8
0
100
AcDbMText
 62
2
  6
CONTINUOUS
  7
STANDARD
 71
2
 72
1
 10
1.5275
 20
-0.0995
 30
0.0
 11
1.0
 21
0.0
 31
0.0
 44
0.9
  1
Technical Data
 40
0.145
 41
3.248
  0
MTEXT
  5
258
100
AcDbEntity
  8
0
100
AcDbMText
 62
2
  6
CONTINUOUS
  7
STANDARD
 71
2
 72
1
 10
4.555
 20
-0.0995
 30
0.0
 11
1.0
 21
0.0
 31
0.0
 44
0.9
  1
U.S. Units
 40
0.145
 41
2.32
  0
MTEXT
  5
259
100
AcDbEntity
  8
0
100
AcDbMText
 62
2
  6
CONTINUOUS
  7
STANDARD
 71
2
 72
1
 10
7.555
 20
-0.0995
 30
0.0
 11
1.0
 21
0.0
 31
0.0
 44
0.9
  1
Metric Units
 40
0.145
 41
2.784
  0
MTEXT
  5
25A
100
AcDbEntity
  8
0
100
AcDbMText
 62
2
  6
CONTINUOUS
  7
STANDARD
 71
2
 72
1
 10
1.5275
 20
-0.4065
 30
0.0
 11
1.0
 21
0.0
 31
0.0
 44
0.9
  1
Cavity
 40
0.125
 41
1.2
  0
MTEXT
  5
25B
100
AcDbEntity
  8
0
100
AcDbMText
 62
2
  6
CONTINUOUS
  7
STANDARD
 71
2
 72
1
 10
6.055
 20
-0.4065
 30
0.0
 11
1.0
 21
0.0
 31
0.0
 44
0.9
  1
T-5A
 40
0.125
 41
0.8
  0
MTEXT
  5
25C
100
AcDbEntity
  8
0
100
AcDbMText
 62
2
  6
CONTINUOUS
  7
STANDARD
 71
2
 72
1
 10
1.5275
 20
-0.6565
 30
0.0
 11
1.0
 21
0.0
 31
0.0
 44
0.9
  1
Body Features
 40
0.125
 41
2.6
  0
MTEXT
  5
25D
100
AcDbEntity
  8
0
100
AcDbMText
 62
2
  6
CONTINUOUS
  7
STANDARD
 71
2
 72
1
 10
6.055
 20
-0.6565
 30
0.0
 11
1.0
 21
0.0
 31
0.0
 44
0.9
  1
P to T
 40
0.125
 41
1.2
  0
MTEXT
  5
25E
100
AcDbEntity
  8
0
100
AcDbMText
 62
2
  6
CONTINUOUS
  7
STANDARD
 71
2
 72
1
 10
1.5275
 20
-0.9065
 30
0.0
 11
1.0
 21
0.0
 31
0.0
 44
0.9
  1
Body Type
 40
0.125
 41
1.8
  0
MTEXT
  5
25F
100
AcDbEntity
  8
0
100
AcDbMText
 62
2
  6
CONTINUOUS
  7
STANDARD
 71
2
 72
1
 10
6.055
 20
-0.9065
 30
0.0
 11
1.0
 21
0.0
 31
0.0
 44
0.9
  1
Sandwich
 40
0.125
 41
1.6
  0
MTEXT
  5
260
100
AcDbEntity
  8
0
100
AcDbMText
 62
2
  6
CONTINUOUS
  7
STANDARD
 71
2
 72
1
 10
1.5275
 20
-1.1565
 30
0.0
 11
1.0
 21
0.0
 31
0.0
 44
0.9
  1
Interface
 40
0.125
 41
1.8
  0
MTEXT
  5
261
100
AcDbEntity
  8
0
100
AcDbMText
 62
2
  6
CONTINUOUS
  7
STANDARD
 71
2
 72
1
 10
6.055
 20
-1.1565
 30
0.0
 11
1.0
 21
0.0
 31
0.0
 44
0.9
  1
ISO 05
 40
0.125
 41
1.2
  0
MTEXT
  5
262
100
AcDbEntity
  8
0
100
AcDbMText
 62
2
  6
CONTINUOUS
  7
STANDARD
 71
2
 72
1
 10
1.5275
 20
-1.4065
 30
0.0
 11
1.0
 21
0.0
 31
0.0
 44
0.9
  1
Open Cavity Quantity
 40
0.125
 41
4.0
  0
MTEXT
  5
263
100
AcDbEntity
  8
0
100
AcDbMText
 62
2
  6
CONTINUOUS
  7
STANDARD
 71
2
 72
1
 10
6.055
 20
-1.4065
 30
0.0
 11
1.0
 21
0.0
 31
0.0
 44
0.9
  1
1
 40
0.125
 41
0.2
  0
MTEXT
  5
264
100
AcDbEntity
  8
0
100
AcDbMText
 62
2
  6
CONTINUOUS
  7
STANDARD
 71
2
 72
1
 10
1.5275
 20
-1.6565
 30
0.0
 11
1.0
 21
0.0
 31
0.0
 44
0.9
  1
Stack Height
 40
0.125
 41
2.4
  0
MTEXT
  5
265
100
AcDbEntity
  8
0
100
AcDbMText
 62
2
  6
CONTINUOUS
  7
STANDARD
 71
2
 72
1
 10
4.555
 20
-1.6565
 30
0.0
 11
1.0
 21
0.0
 31
0.0
 44
0.9
  1
1.94 in.
 40
0.125
 41
1.6
  0
MTEXT
  5
266
100
AcDbEntity
  8
0
100
AcDbMText
 62
2
  6
CONTINUOUS
  7
STANDARD
 71
2
 72
1
 10
7.555
 20
-1.6565
 30
0.0
 11
1.0
 21
0.0
 31
0.0
 44
0.9
  1
49 mm
 40
0.125
 41
1.0
  0
MTEXT
  5
267
100
AcDbEntity
  8
0
100
AcDbMText
 62
2
  6
CONTINUOUS
  7
STANDARD
 71
2
 72
1
 10
1.5275
 20
-1.9065
 30
0.0
 11
1.0
 21
0.0
 31
0.0
 44
0.9
  1
Weight
 40
0.125
 41
1.2
  0
MTEXT
  5
268
100
AcDbEntity
  8
0
100
AcDbMText
 62
2
  6
CONTINUOUS
  7
STANDARD
 71
2
 72
1
 10
4.555
 20
-1.9065
 30
0.0
 11
1.0
 21
0.0
 31
0.0
 44
0.9
  1
1.465 lb.
 40
0.125
 41
1.8
  0
MTEXT
  5
269
100
AcDbEntity
  8
0
100
AcDbMText
 62
2
  6
CONTINUOUS
  7
STANDARD
 71
2
 72
1
 10
7.555
 20
-1.9065
 30
0.0
 11
1.0
 21
0.0
 31
0.0
 44
0.9
  1
0,664 kg.
 40
0.125
 41
1.8
  0
MTEXT
  5
26A
100
AcDbEntity
  8
0
100
AcDbMText
 62
2
  6
CONTINUOUS
  7
STANDARD
 71
2
 72
1
 10
1.5275
 20
-2.1565
 30
0.0
 11
1.0
 21
0.0
 31
0.0
 44
0.9
  1
Seal Plate Included (see notes)
 40
0.125
 41
6.2
  0
MTEXT
  5
26B
100
AcDbEntity
  8
0
100
AcDbMText
 62
2
  6
CONTINUOUS
  7
STANDARD
 71
2
 72
1
 10
6.055
 20
-2.1565
 30
0.0
 11
1.0
 21
0.0
 31
0.0
 44
0.9
  1
No
 40
0.125
 41
0.4
  0
ENDBLK
  5
26C
100
AcDbEntity
  8
0
  6
BYBLOCK
 62
0
100
AcDbBlockEnd
  0
ENDSEC
  0
SECTION
  2
ENTITIES
  0
IMAGE
  5
26D
100
AcDbEntity
  8
0
100
AcDbRasterImage
 62
7
  6
CONTINUOUS
 10
19.2297077316
 20
0.3094318264
 30
0.0
 11
0.0066666667
 21
0.0
 31
0.0
 12
0.0
 22
0.0066666667
 32
0.0
 13
369.0
 23
92.0
340
       2DB
 70
9
280
0
281
50
282
50
283
0
360
       2D5
 71
1
 91
2
 14
-0.5
 24
-0.5
 14
368.5
 24
91.5
  0
INSERT
  5
26E
100
AcDbEntity
  8
0
100
AcDbBlockReference
 62
2
  6
CONTINUOUS
  2
SUN_FIRST_THIRD_ANGLE_BL0
 10
20.4816717061
 20
1.2289683772
  0
ACAD_TABLE
  5
26F
100
AcDbEntity
  8
0
 62
2
  6
CONTINUOUS
100
AcDbBlockReference
  2
*T1
 10
12.42375
 20
0.30125
 30
0.0
100
AcDbTable
342
       2DD
343
20A
 11
1.0
 21
0.0
 31
0.0
 90
6
 91
4
 92
6
 93
20
 94
0
 95
0
 96
0
 70
1
 41
0.0
141
0.525
141
0.1
141
0.525
141
0.1
142
4.1
142
1.1
142
0.7
142
0.5
142
0.4
142
2.475
171
1
172
0
173
0
174
0
175
1
176
1
 91
33
178
0
145
0.0
301
CELL_VALUE
 90
4
  1
T-5A Sandwich ISO 05\PP to T
304
ACVALUE_END
170
2
140
0.125
171
1
172
0
173
0
174
0
175
1
176
1
 91
33
178
0
145
0.0
301
CELL_VALUE
 90
4
  1
Oct-30-23
304
ACVALUE_END
170
5
140
0.125
171
1
172
0
173
0
174
0
175
1
176
1
 91
33
178
0
145
0.0
301
CELL_VALUE
 90
4
  1
1.000
304
ACVALUE_END
170
5
140
0.125
171
1
172
0
173
0
174
0
175
1
176
1
 91
33
178
0
145
0.0
301
CELL_VALUE
 90
4
  1
C
304
ACVALUE_END
170
5
140
0.125
171
1
172
0
173
0
174
0
175
1
176
1
 91
33
178
0
145
0.0
301
CELL_VALUE
 90
4
  1
2
304
ACVALUE_END
170
5
140
0.125
171
1
172
0
173
0
174
0
175
1
176
1
 91
33
178
0
145
0.0
301
CELL_VALUE
 90
4
  1
 
304
ACVALUE_END
170
1
140
0.125
171
1
172
0
173
0
174
0
175
1
176
1
 91
33
178
0
145
0.0
301
CELL_VALUE
 90
4
  1
DESCRIPTION
304
ACVALUE_END
170
1
140
0.06
171
1
172
0
173
0
174
0
175
1
176
1
 91
33
178
0
145
0.0
301
CELL_VALUE
 90
4
  1
DATE
304
ACVALUE_END
170
1
140
0.06
171
1
172
0
173
0
174
0
175
1
176
1
 91
33
178
0
145
0.0
301
CELL_VALUE
 90
4
  1
SCALE
304
ACVALUE_END
170
1
140
0.06
171
1
172
0
173
0
174
0
175
1
176
1
 91
33
178
0
145
0.0
301
CELL_VALUE
 90
4
  1
DWG SIZE
304
ACVALUE_END
170
1
140
0.06
171
1
172
0
173
0
174
0
175
1
176
1
 91
33
178
0
145
0.0
301
CELL_VALUE
 90
4
  1
SHEET
304
ACVALUE_END
170
1
140
0.06
171
1
172
0
173
0
174
0
175
1
176
1
 91
33
178
0
145
0.0
301
CELL_VALUE
 90
4
  1
 
304
ACVALUE_END
170
1
140
0.125
171
1
172
0
173
0
174
0
175
1
176
1
 91
33
178
0
145
0.0
301
CELL_VALUE
 90
4
  1
DBQ
304
ACVALUE_END
170
5
140
0.125
171
1
172
0
173
0
174
0
175
4
176
1
 91
33
178
0
145
0.0
301
CELL_VALUE
 90
4
  1
ALL DIMENSIONS IN INCH\PVIEWS ARE THIRD ANGLE
304
ACVALUE_END
170
5
140
0.12
171
1
172
0
173
1
174
0
175
1
176
1
 91
1
178
0
145
0.0
170
1
171
1
172
0
173
1
174
0
175
1
176
1
 91
1
178
0
145
0.0
170
1
171
1
172
0
173
1
174
0
175
1
176
1
 91
1
178
0
145
0.0
170
5
171
1
172
0
173
0
174
0
175
1
176
1
 91
33
178
0
145
0.0
301
CELL_VALUE
 90
4
  1
 
304
ACVALUE_END
170
1
140
0.125
171
1
172
0
173
0
174
0
175
1
176
1
 91
33
178
0
145
0.0
301
CELL_VALUE
 90
4
  1
MODEL
304
ACVALUE_END
170
1
140
0.06
171
1
172
0
173
0
174
0
175
1
176
1
 91
33
178
0
145
0.0
301
CELL_VALUE
 90
4
  1
 
304
ACVALUE_END
170
1
140
0.125
171
1
172
0
173
0
174
0
175
1
176
1
 91
33
178
0
145
0.0
301
CELL_VALUE
 90
4
  1
 
304
ACVALUE_END
170
1
140
0.125
171
1
172
0
173
0
174
0
175
1
176
1
 91
33
178
0
145
0.0
301
CELL_VALUE
 90
4
  1
 
304
ACVALUE_END
170
1
140
0.125
171
1
172
0
173
0
174
0
175
1
176
1
 91
33
178
0
145
0.0
301
CELL_VALUE
 90
4
  1
 
304
ACVALUE_END
170
1
140
0.125
171
1
172
0
173
0
174
0
175
1
176
1
 91
33
178
0
145
0.0
301
CELL_VALUE
 90
4
  1
 
304
ACVALUE_END
170
1
140
0.125
  0
ACAD_TABLE
  5
270
100
AcDbEntity
  8
0
 62
2
  6
CONTINUOUS
100
AcDbBlockReference
  2
*T2
 10
12.4237499994
 20
16.47875
 30
0.0
100
AcDbTable
342
       2DC
343
20B
 11
1.0
 21
0.0
 31
0.0
 90
22
 91
9
 92
3
 93
16
 94
0
 95
0
 96
0
 41
0.028
141
0.344
141
0.25
141
0.25
141
0.25
141
0.25
141
0.25
141
0.25
141
0.25
141
0.25
142
3.055
142
3.0
142
3.0
171
1
172
0
173
0
174
0
175
1
176
1
 91
33
178
0
145
0.0
301
CELL_VALUE
 90
4
  1
Technical Data
304
ACVALUE_END
170
5
140
0.145
171
1
172
0
173
0
174
0
175
1
176
1
 91
33
178
0
145
0.0
301
CELL_VALUE
 90
4
  1
U.S. Units
304
ACVALUE_END
170
5
140
0.145
171
1
172
0
173
0
174
0
175
1
176
1
 91
33
178
0
145
0.0
301
CELL_VALUE
 90
4
  1
Metric Units
304
ACVALUE_END
170
5
140
0.145
171
1
172
0
173
0
174
0
175
1
176
1
 91
33
178
0
145
0.0
301
CELL_VALUE
 90
4
  1
Cavity
304
ACVALUE_END
170
5
140
0.125
171
1
172
0
173
0
174
0
175
2
176
1
 91
33
178
0
145
0.0
301
CELL_VALUE
 90
4
  1
T-5A
304
ACVALUE_END
170
5
140
0.125
171
1
172
0
173
1
174
0
175
1
176
1
 91
1
178
0
145
0.0
170
1
171
1
172
0
173
0
174
0
175
1
176
1
 91
33
178
0
145
0.0
301
CELL_VALUE
 90
4
  1
Body Features
304
ACVALUE_END
170
5
140
0.125
171
1
172
0
173
0
174
0
175
2
176
1
 91
33
178
0
145
0.0
301
CELL_VALUE
 90
4
  1
P to T
304
ACVALUE_END
170
5
140
0.125
171
1
172
0
173
1
174
0
175
1
176
1
 91
1
178
0
145
0.0
170
1
171
1
172
0
173
0
174
0
175
1
176
1
 91
33
178
0
145
0.0
301
CELL_VALUE
 90
4
  1
Body Type
304
ACVALUE_END
170
5
140
0.125
171
1
172
0
173
0
174
0
175
2
176
1
 91
33
178
0
145
0.0
301
CELL_VALUE
 90
4
  1
Sandwich
304
ACVALUE_END
170
5
140
0.125
171
1
172
0
173
1
174
0
175
1
176
1
 91
1
178
0
145
0.0
170
1
171
1
172
0
173
0
174
0
175
1
176
1
 91
33
178
0
145
0.0
301
CELL_VALUE
 90
4
  1
Interface
304
ACVALUE_END
170
5
140
0.125
171
1
172
0
173
0
174
0
175
2
176
1
 91
33
178
0
145
0.0
301
CELL_VALUE
 90
4
  1
ISO 05
304
ACVALUE_END
170
5
140
0.125
171
1
172
0
173
1
174
0
175
1
176
1
 91
1
178
0
145
0.0
170
1
171
1
172
0
173
0
174
0
175
1
176
1
 91
33
178
0
145
0.0
301
CELL_VALUE
 90
4
  1
Open Cavity Quantity
304
ACVALUE_END
170
5
140
0.125
171
1
172
0
173
0
174
0
175
2
176
1
 91
33
178
0
145
0.0
301
CELL_VALUE
 90
4
  1
1
304
ACVALUE_END
170
5
140
0.125
171
1
172
0
173
1
174
0
175
1
176
1
 91
1
178
0
145
0.0
170
1
171
1
172
0
173
0
174
0
175
1
176
1
 91
33
178
0
145
0.0
301
CELL_VALUE
 90
4
  1
Stack Height
304
ACVALUE_END
170
5
140
0.125
171
1
172
0
173
0
174
0
175
1
176
1
 91
33
178
0
145
0.0
301
CELL_VALUE
 90
4
  1
1.94 in.
304
ACVALUE_END
170
5
140
0.125
171
1
172
0
173
0
174
0
175
1
176
1
 91
33
178
0
145
0.0
301
CELL_VALUE
 90
4
  1
49 mm
304
ACVALUE_END
170
5
140
0.125
171
1
172
0
173
0
174
0
175
1
176
1
 91
33
178
0
145
0.0
301
CELL_VALUE
 90
4
  1
Weight
304
ACVALUE_END
170
5
140
0.125
171
1
172
0
173
0
174
0
175
1
176
1
 91
33
178
0
145
0.0
301
CELL_VALUE
 90
4
  1
1.465 lb.
304
ACVALUE_END
170
5
140
0.125
171
1
172
0
173
0
174
0
175
1
176
1
 91
33
178
0
145
0.0
301
CELL_VALUE
 90
4
  1
0,664 kg.
304
ACVALUE_END
170
5
140
0.125
171
1
172
0
173
0
174
0
175
1
176
1
 91
33
178
0
145
0.0
301
CELL_VALUE
 90
4
  1
Seal Plate Included (see notes)
304
ACVALUE_END
170
5
140
0.125
171
1
172
0
173
0
174
0
175
2
176
1
 91
33
178
0
145
0.0
301
CELL_VALUE
 90
4
  1
No
304
ACVALUE_END
170
5
140
0.125
171
1
172
0
173
1
174
0
175
1
176
1
 91
1
178
0
145
0.0
170
1
  0
MTEXT
  5
271
100
AcDbEntity
  8
0
100
AcDbMText
 62
2
  6
CONTINUOUS
  7
STANDARD
 71
1
 72
1
 10
0.52125
 20
5.75995
 30
0.0
 11
1.0
 21
0.0
 31
0.0
 44
0.6
  3
Notes\P \P1. Important: Carefully consider\P   the maximum system pressure. The\P   pressure rating of the manifold is\P   dependent on the manifold material,\P   with the port type/size a secondary\P   consideration. Manifolds\P   constructed of alu
  3
minum are not\P   rated for pressures higher than\P   3000 psi (210 bar), regardless of\P   the port type/size specified.\P2. Seal retainer plate is not\P   required for this model.\P3. This drawing is for reference\P   only. It is generated by an\P 
  1
  automated process and does not fall\P   under Sun's document control\P   process.
 40
0.1
 41
3.04
  0
LINE
  5
272
100
AcDbEntity
  8
0
100
AcDbLine
 62
7
  6
CONTINUOUS
 10
0.30125
 20
0.30125
 11
0.30125
 21
16.69875
  0
LINE
  5
273
100
AcDbEntity
  8
0
100
AcDbLine
 62
7
  6
CONTINUOUS
 10
0.30125
 20
0.30125
 11
21.69875
 21
0.30125
  0
LINE
  5
274
100
AcDbEntity
  8
0
100
AcDbLine
 62
7
  6
CONTINUOUS
 10
0.30125
 20
16.69875
 11
21.69875
 21
16.69875
  0
LINE
  5
275
100
AcDbEntity
  8
0
100
AcDbLine
 62
7
  6
CONTINUOUS
 10
21.69875
 20
0.30125
 11
21.69875
 21
16.69875
  0
LINE
  5
276
100
AcDbEntity
  8
0
100
AcDbLine
 62
7
  6
CONTINUOUS
 10
9.7028827658
 20
10.2352454812
 11
10.002077335
 21
10.5242452599
  0
LINE
  5
277
100
AcDbEntity
  8
0
100
AcDbLine
 62
7
  6
CONTINUOUS
 10
9.7328264682
 20
10.2631125808
 11
10.0320210374
 21
10.5521123594
  0
LINE
  5
278
100
AcDbEntity
  8
0
100
AcDbLine
 62
7
  6
CONTINUOUS
 10
10.002077335
 20
10.5242452599
 11
10.0030121251
 21
10.5251314029
  0
LINE
  5
279
100
AcDbEntity
  8
0
100
AcDbLine
 62
7
  6
CONTINUOUS
 10
10.0320210374
 20
10.5521123594
 11
10.0328795819
 21
10.5529260768
  0
LINE
  5
27A
100
AcDbEntity
  8
0
100
AcDbLine
 62
7
  6
CONTINUOUS
 10
10.0320136158
 20
10.5521203345
 11
10.002077335
 21
10.5242452599
  0
LINE
  5
27B
100
AcDbEntity
  8
0
100
AcDbLine
 62
7
  6
CONTINUOUS
 10
9.7328264682
 20
10.2631125808
 11
9.7028827658
 21
10.2352454812
  0
LINE
  5
27C
100
AcDbEntity
  8
0
100
AcDbLine
 62
7
  6
CONTINUOUS
 10
11.9566119114
 20
6.3819024366
 11
9.5417972026
 21
6.5493704055
  0
LINE
  5
27D
100
AcDbEntity
  8
0
100
AcDbLine
 62
7
  6
CONTINUOUS
 10
9.5417972026
 20
9.447148056
 11
9.6901049721
 21
9.5904023693
  0
LINE
  5
27E
100
AcDbEntity
  8
0
100
AcDbLine
 62
7
  6
CONTINUOUS
 10
9.5417972026
 20
9.447148056
 11
9.5417972026
 21
6.5493704055
  0
LINE
  5
27F
100
AcDbEntity
  8
0
100
AcDbLine
 62
7
  6
CONTINUOUS
 10
9.6901049721
 20
9.5156245757
 11
9.6901049721
 21
10.2101252859
  0
LINE
  5
280
100
AcDbEntity
  8
0
100
AcDbLine
 62
7
  6
CONTINUOUS
 10
9.976071294
 20
10.1540690542
 11
9.9680479103
 21
10.1163753577
  0
LINE
  5
281
100
AcDbEntity
  8
0
100
AcDbLine
 62
7
  6
CONTINUOUS
 10
9.9680479103
 20
10.1163753577
 11
9.9680479103
 21
9.4218746475
  0
LINE
  5
282
100
AcDbEntity
  8
0
100
AcDbLine
 62
7
  6
CONTINUOUS
 10
12.266207606
 20
10.3971709947
 11
11.9670130367
 21
10.108171216
  0
LINE
  5
283
100
AcDbEntity
  8
0
100
AcDbLine
 62
7
  6
CONTINUOUS
 10
12.2961513084
 20
10.3651506895
 11
11.9969567391
 21
10.0761509108
  0
LINE
  5
284
100
AcDbEntity
  8
0
100
AcDbLine
 62
7
  6
CONTINUOUS
 10
12.2961513084
 20
9.6706499792
 11
11.9969567391
 21
9.3816502006
  0
LINE
  5
285
100
AcDbEntity
  8
0
100
AcDbLine
 62
7
  6
CONTINUOUS
 10
12.4582027974
 20
9.764179707
 11
11.9566119114
 21
9.2796800872
  0
LINE
  5
286
100
AcDbEntity
  8
0
100
AcDbLine
 62
7
  6
CONTINUOUS
 10
11.5457008548
 20
10.0452148744
 11
11.537677471
 21
10.007521178
  0
LINE
  5
287
100
AcDbEntity
  8
0
100
AcDbLine
 62
7
  6
CONTINUOUS
 10
11.537677471
 20
10.007521178
 11
11.537677471
 21
9.3130204677
  0
LINE
  5
288
100
AcDbEntity
  8
0
100
AcDbLine
 62
7
  6
CONTINUOUS
 10
11.9566119114
 20
9.2796800872
 11
9.5417972026
 21
9.447148056
  0
LINE
  5
289
100
AcDbEntity
  8
0
100
AcDbLine
 62
7
  6
CONTINUOUS
 10
11.537677471
 20
9.3130204677
 11
9.9680479103
 21
9.4218746475
  0
LINE
  5
28A
100
AcDbEntity
  8
0
100
AcDbLine
 62
7
  6
CONTINUOUS
 10
11.9566119114
 20
9.2796800872
 11
11.9566119114
 21
6.3819024366
  0
LINE
  5
28B
100
AcDbEntity
  8
0
100
AcDbLine
 62
7
  6
CONTINUOUS
 10
11.9969567391
 20
10.0761509108
 11
11.9969567391
 21
9.3816502006
  0
LINE
  5
28C
100
AcDbEntity
  8
0
100
AcDbLine
 62
7
  6
CONTINUOUS
 10
12.2961513084
 20
10.3651506895
 11
12.2961513084
 21
9.6706499792
  0
LINE
  5
28D
100
AcDbEntity
  8
0
100
AcDbLine
 62
7
  6
CONTINUOUS
 10
12.308929102
 20
9.6957701745
 11
12.308929102
 21
10.3902708848
  0
LINE
  5
28E
100
AcDbEntity
  8
0
100
AcDbLine
 62
7
  6
CONTINUOUS
 10
12.308929102
 20
9.7745318729
 11
12.4582027974
 21
9.764179707
  0
LINE
  5
28F
100
AcDbEntity
  8
0
100
AcDbLine
 62
7
  6
CONTINUOUS
 10
12.4582027974
 20
9.764179707
 11
12.4582027974
 21
6.8664020564
  0
LINE
  5
290
100
AcDbEntity
  8
0
100
AcDbLine
 62
7
  6
CONTINUOUS
 10
11.537677471
 20
10.007521178
 11
9.9680479103
 21
10.1163753577
  0
LINE
  5
291
100
AcDbEntity
  8
0
100
AcDbLine
 62
7
  6
CONTINUOUS
 10
11.5457008548
 20
10.0452148744
 11
9.976071294
 21
10.1540690542
  0
LINE
  5
292
100
AcDbEntity
  8
0
100
AcDbLine
 62
7
  6
CONTINUOUS
 10
11.9670130367
 20
10.108171216
 11
11.9969567391
 21
10.0761509108
  0
LINE
  5
293
100
AcDbEntity
  8
0
100
AcDbLine
 62
7
  6
CONTINUOUS
 10
10.4533332193
 20
10.615068701
 11
12.0229627801
 21
10.5062145213
  0
LINE
  5
294
100
AcDbEntity
  8
0
100
AcDbLine
 62
7
  6
CONTINUOUS
 10
12.4582027974
 20
6.8664020564
 11
11.9566119114
 21
6.3819024366
  0
LINE
  5
295
100
AcDbEntity
  8
0
100
AcDbLine
 62
7
  6
CONTINUOUS
 10
12.266207606
 20
10.3971709947
 11
12.2961513084
 21
10.3651506895
  0
LINE
  5
296
100
AcDbEntity
  8
0
100
AcDbLine
 62
7
  6
CONTINUOUS
 10
12.2952165182
 20
10.4162772231
 11
12.2653500918
 21
10.4440710682
  0
SPLINE
  5
297
100
AcDbEntity
  8
0
100
AcDbSpline
 62
7
  6
CONTINUOUS
 70
0
 71
3
 72
56
 73
52
 74
0
 42
0.0000001
 43
0.0000001
 44
0.0000000001
 40
0.0
 40
0.0
 40
0.0
 40
0.0
 40
0.031072346
 40
0.0465152317
 40
0.0618873124
 40
0.0924244558
 40
0.1227285839
 40
0.1378086476
 40
0.152843805
 40
0.1678401144
 40
0.1828038429
 40
0.2126503375
 40
0.2275575076
 40
0.2424602021
 40
0.2573657768
 40
0.2722815596
 40
0.2872148075
 40
0.3021724288
 40
0.3171611944
 40
0.3321875086
 40
0.3472571497
 40
0.3623756664
 40
0.3927682644
 40
0.4234071833
 40
0.4388308412
 40
0.4543232404
 40
0.485507794
 40
0.5169699549
 40
0.5328065592
 40
0.5487076996
 40
0.5806824155
 40
0.6128739827
 40
0.6290441713
 40
0.6452543848
 40
0.6777639099
 40
0.7103643313
 40
0.7266873147
 40
0.7430142246
 40
0.7756456102
 40
0.791945892
 40
0.80822475
 40
0.8244760382
 40
0.8406940716
 40
0.8568734333
 40
0.8730088969
 40
0.8890954876
 40
0.905128265
 40
0.9370074718
 40
0.9528594107
 40
0.9686481654
 40
1.0
 40
1.0
 40
1.0
 40
1.0
 10
10.365265044
 20
7.9424756317
 30
0.0
 10
10.3652649093
 20
7.9344620012
 30
0.0
 10
10.3646767932
 20
7.922454261
 30
0.0
 10
10.3627073181
 20
7.9066104781
 30
0.0
 10
10.3599685204
 20
7.8910203274
 30
0.0
 10
10.3551071962
 20
7.8719385311
 30
0.0
 10
10.3483460762
 20
7.8535231243
 30
0.0
 10
10.3418543225
 20
7.8393510034
 30
0.0
 10
10.3364629267
 20
7.8290351446
 30
0.0
 10
10.3305561063
 20
7.8190401177
 30
0.0
 10
10.3220210101
 20
7.8061862142
 30
0.0
 10
10.3124963325
 20
7.7940398837
 30
0.0
 10
10.3020705086
 20
7.7827181386
 30
0.0
 10
10.2938172816
 20
7.7746553763
 30
0.0
 10
10.2851489367
 20
7.7670379994
 30
0.0
 10
10.276084284
 20
7.7598838631
 30
0.0
 10
10.2666441243
 20
7.7532099031
 30
0.0
 10
10.2568506262
 20
7.7470308294
 30
0.0
 10
10.2467255244
 20
7.7413622632
 30
0.0
 10
10.2362921902
 20
7.7362179137
 30
0.0
 10
10.2255746974
 20
7.731609262
 30
0.0
 10
10.210915579
 20
7.7261870989
 30
0.0
 10
10.1919889814
 20
7.7208081398
 30
0.0
 10
10.1725370546
 20
7.7173695405
 30
0.0
 10
10.1567352897
 20
7.7157861581
 30
0.0
 10
10.1407335323
 20
7.7149861645
 30
0.0
 10
10.1205525973
 20
7.7154792716
 30
0.0
 10
10.1004291079
 20
7.7179497537
 30
0.0
 10
10.0844304807
 20
7.7210946569
 30
0.0
 10
10.0684722123
 20
7.725033186
 30
0.0
 10
10.0487964084
 20
7.7314066193
 30
0.0
 10
10.0297423489
 20
7.7396249338
 30
0.0
 10
10.0149410659
 20
7.7472685913
 30
0.0
 10
10.0004385044
 20
7.7556304163
 30
0.0
 10
9.9830100345
 20
7.7673530261
 30
0.0
 10
9.9667057735
 20
7.7806401594
 30
0.0
 10
9.954413879
 20
7.7921412003
 30
0.0
 10
9.942654734
 20
7.8041966853
 30
0.0
 10
9.9317348606
 20
7.8170403341
 30
0.0
 10
9.9217432313
 20
7.8305739656
 30
0.0
 10
9.9147314602
 20
7.8410405329
 30
0.0
 10
9.9082188762
 20
7.8517996234
 30
0.0
 10
9.9022209966
 20
7.862824809
 30
0.0
 10
9.8967512266
 20
7.8740881448
 30
0.0
 10
9.891823909
 20
7.8855621811
 30
0.0
 10
9.8874502554
 20
7.8972185322
 30
0.0
 10
9.8823796118
 20
7.9129304618
 30
0.0
 10
9.8784392792
 20
7.9289265548
 30
0.0
 10
9.8756699304
 20
7.9450781083
 30
0.0
 10
9.8736975231
 20
7.9612083651
 30
0.0
 10
9.8730963525
 20
7.9733764375
 30
0.0
 10
9.8730962051
 20
7.9814621488
 30
0.0
  0
SPLINE
  5
298
100
AcDbEntity
  8
0
100
AcDbSpline
 62
7
  6
CONTINUOUS
 70
0
 71
3
 72
56
 73
52
 74
0
 42
0.0000001
 43
0.0000001
 44
0.0000000001
 40
0.0
 40
0.0
 40
0.0
 40
0.0
 40
0.0310723444
 40
0.0465152282
 40
0.0618873079
 40
0.0924244521
 40
0.1227285817
 40
0.1378086463
 40
0.1528438045
 40
0.1678401149
 40
0.1828038444
 40
0.2126503405
 40
0.227557511
 40
0.2424602055
 40
0.2573657799
 40
0.272281562
 40
0.2872148089
 40
0.3021724291
 40
0.3171611937
 40
0.3321875071
 40
0.3472571476
 40
0.362375664
 40
0.3927682619
 40
0.4234071812
 40
0.4388308394
 40
0.454323239
 40
0.4855077933
 40
0.5169699546
 40
0.532806559
 40
0.5487076994
 40
0.5806824153
 40
0.6128739824
 40
0.6290441709
 40
0.6452543843
 40
0.6777639093
 40
0.7103643307
 40
0.7266873141
 40
0.7430142241
 40
0.7756456098
 40
0.7919458916
 40
0.8082247496
 40
0.8244760379
 40
0.8406940714
 40
0.8568734332
 40
0.8730088968
 40
0.8890954876
 40
0.905128265
 40
0.9370074719
 40
0.9528594107
 40
0.9686481654
 40
1.0
 40
1.0
 40
1.0
 40
1.0
 10
9.873096203
 20
7.9814620481
 30
0.0
 10
9.8730963377
 20
7.9894756782
 30
0.0
 10
9.8736844534
 20
8.0014834176
 30
0.0
 10
9.8756539286
 20
8.0173271992
 30
0.0
 10
9.8783927261
 20
8.0329173495
 30
0.0
 10
9.8832540501
 20
8.0519991462
 30
0.0
 10
9.89001517
 20
8.0704145539
 30
0.0
 10
9.8965069241
 20
8.0845866755
 30
0.0
 10
9.9018983203
 20
8.0949025349
 30
0.0
 10
9.907805141
 20
8.1048975625
 30
0.0
 10
9.9163402377
 20
8.1177514667
 30
0.0
 10
9.9258649159
 20
8.1298977976
 30
0.0
 10
9.9362907402
 20
8.141219543
 30
0.0
 10
9.9445439674
 20
8.1492823053
 30
0.0
 10
9.9532123122
 20
8.1568996818
 30
0.0
 10
9.9622769645
 20
8.1640538179
 30
0.0
 10
9.9717171236
 20
8.1707277773
 30
0.0
 10
9.9815106211
 20
8.1769068505
 30
0.0
 10
9.9916357222
 20
8.1825754164
 30
0.0
 10
10.0020690559
 20
8.1877197656
 30
0.0
 10
10.0127865482
 20
8.1923284172
 30
0.0
 10
10.0274456663
 20
8.1977505803
 30
0.0
 10
10.0463722639
 20
8.2031295396
 30
0.0
 10
10.0658241909
 20
8.206568139
 30
0.0
 10
10.0816259561
 20
8.2081515216
 30
0.0
 10
10.0976277138
 20
8.2089515152
 30
0.0
 10
10.1178086491
 20
8.2084584082
 30
0.0
 10
10.1379321388
 20
8.2059879261
 30
0.0
 10
10.1539307662
 20
8.2028430229
 30
0.0
 10
10.1698890346
 20
8.1989044938
 30
0.0
 10
10.1895648384
 20
8.1925310605
 30
0.0
 10
10.208618898
 20
8.184312746
 30
0.0
 10
10.2234201809
 20
8.1766690886
 30
0.0
 10
10.2379227423
 20
8.1683072636
 30
0.0
 10
10.2553512122
 20
8.1565846539
 30
0.0
 10
10.2716554732
 20
8.1432975206
 30
0.0
 10
10.2839473677
 20
8.1317964797
 30
0.0
 10
10.2957065127
 20
8.1197409947
 30
0.0
 10
10.3066263862
 20
8.1068973459
 30
0.0
 10
10.3166180155
 20
8.0933637144
 30
0.0
 10
10.3236297867
 20
8.082897147
 30
0.0
 10
10.3301423707
 20
8.0721380565
 30
0.0
 10
10.3361402503
 20
8.0611128709
 30
0.0
 10
10.3416100204
 20
8.0498495351
 30
0.0
 10
10.3465373379
 20
8.0383754987
 30
0.0
 10
10.3509109916
 20
8.0267191476
 30
0.0
 10
10.3559816352
 20
8.011007218
 30
0.0
 10
10.3599219678
 20
7.9950111249
 30
0.0
 10
10.3626913166
 20
7.9788595714
 30
0.0
 10
10.364663724
 20
7.9627293146
 30
0.0
 10
10.3652648945
 20
7.9505612422
 30
0.0
 10
10.3652650419
 20
7.942475531
 30
0.0
  0
SPLINE
  5
299
100
AcDbEntity
  8
0
100
AcDbSpline
 62
7
  6
CONTINUOUS
 70
0
 71
3
 72
56
 73
52
 74
0
 42
0.0000001
 43
0.0000001
 44
0.0000000001
 40
0.0
 40
0.0
 40
0.0
 40
0.0
 40
0.031072346
 40
0.0465152317
 40
0.0618873124
 40
0.0924244558
 40
0.1227285839
 40
0.1378086476
 40
0.152843805
 40
0.1678401144
 40
0.1828038429
 40
0.2126503375
 40
0.2275575076
 40
0.2424602021
 40
0.2573657768
 40
0.2722815596
 40
0.2872148075
 40
0.3021724288
 40
0.3171611944
 40
0.3321875086
 40
0.3472571497
 40
0.3623756664
 40
0.3927682644
 40
0.4234071833
 40
0.4388308412
 40
0.4543232404
 40
0.485507794
 40
0.5169699549
 40
0.5328065592
 40
0.5487076996
 40
0.5806824155
 40
0.6128739827
 40
0.6290441713
 40
0.6452543848
 40
0.6777639099
 40
0.7103643313
 40
0.7266873147
 40
0.7430142246
 40
0.7756456102
 40
0.791945892
 40
0.80822475
 40
0.8244760382
 40
0.8406940716
 40
0.8568734333
 40
0.8730088969
 40
0.8890954876
 40
0.905128265
 40
0.9370074718
 40
0.9528594107
 40
0.9686481654
 40
1.0
 40
1.0
 40
1.0
 40
1.0
 10
11.3611346474
 20
6.9673733964
 30
0.0
 10
11.3611345127
 20
6.9593597659
 30
0.0
 10
11.3605463966
 20
6.9473520257
 30
0.0
 10
11.3585769215
 20
6.9315082428
 30
0.0
 10
11.3558381238
 20
6.915918092
 30
0.0
 10
11.3509767996
 20
6.8968362958
 30
0.0
 10
11.3442156797
 20
6.8784208889
 30
0.0
 10
11.3377239259
 20
6.8642487681
 30
0.0
 10
11.3323325301
 20
6.8539329093
 30
0.0
 10
11.3264257097
 20
6.8439378824
 30
0.0
 10
11.3178906135
 20
6.8310839788
 30
0.0
 10
11.3083659359
 20
6.8189376484
 30
0.0
 10
11.297940112
 20
6.8076159033
 30
0.0
 10
11.289686885
 20
6.799553141
 30
0.0
 10
11.2810185401
 20
6.7919357641
 30
0.0
 10
11.2719538874
 20
6.7847816278
 30
0.0
 10
11.2625137277
 20
6.7781076678
 30
0.0
 10
11.2527202296
 20
6.7719285941
 30
0.0
 10
11.2425951279
 20
6.7662600278
 30
0.0
 10
11.2321617936
 20
6.7611156784
 30
0.0
 10
11.2214443008
 20
6.7565070267
 30
0.0
 10
11.2067851824
 20
6.7510848636
 30
0.0
 10
11.1878585848
 20
6.7457059045
 30
0.0
 10
11.168406658
 20
6.7422673052
 30
0.0
 10
11.1526048931
 20
6.7406839228
 30
0.0
 10
11.1366031357
 20
6.7398839292
 30
0.0
 10
11.1164222007
 20
6.7403770363
 30
0.0
 10
11.0962987114
 20
6.7428475184
 30
0.0
 10
11.0803000841
 20
6.7459924216
 30
0.0
 10
11.0643418157
 20
6.7499309507
 30
0.0
 10
11.0446660119
 20
6.756304384
 30
0.0
 10
11.0256119523
 20
6.7645226985
 30
0.0
 10
11.0108106693
 20
6.7721663559
 30
0.0
 10
10.9963081078
 20
6.780528181
 30
0.0
 10
10.9788796379
 20
6.7922507908
 30
0.0
 10
10.9625753769
 20
6.8055379241
 30
0.0
 10
10.9502834825
 20
6.817038965
 30
0.0
 10
10.9385243374
 20
6.82909445
 30
0.0
 10
10.927604464
 20
6.8419380988
 30
0.0
 10
10.9176128347
 20
6.8554717303
 30
0.0
 10
10.9106010636
 20
6.8659382976
 30
0.0
 10
10.9040884796
 20
6.8766973881
 30
0.0
 10
10.8980906
 20
6.8877225737
 30
0.0
 10
10.89262083
 20
6.8989859095
 30
0.0
 10
10.8876935125
 20
6.9104599458
 30
0.0
 10
10.8833198589
 20
6.9221162969
 30
0.0
 10
10.8782492152
 20
6.9378282265
 30
0.0
 10
10.8743088826
 20
6.9538243195
 30
0.0
 10
10.8715395338
 20
6.969975873
 30
0.0
 10
10.8695671265
 20
6.9861061298
 30
0.0
 10
10.8689659559
 20
6.9982742022
 30
0.0
 10
10.8689658085
 20
7.0063599135
 30
0.0
  0
SPLINE
  5
29A
100
AcDbEntity
  8
0
100
AcDbSpline
 62
7
  6
CONTINUOUS
 70
0
 71
3
 72
56
 73
52
 74
0
 42
0.0000001
 43
0.0000001
 44
0.0000000001
 40
0.0
 40
0.0
 40
0.0
 40
0.0
 40
0.0310723444
 40
0.0465152282
 40
0.0618873079
 40
0.0924244521
 40
0.1227285817
 40
0.1378086463
 40
0.1528438045
 40
0.1678401149
 40
0.1828038444
 40
0.2126503405
 40
0.227557511
 40
0.2424602055
 40
0.2573657799
 40
0.272281562
 40
0.2872148089
 40
0.3021724291
 40
0.3171611937
 40
0.3321875071
 40
0.3472571476
 40
0.362375664
 40
0.3927682619
 40
0.4234071812
 40
0.4388308394
 40
0.454323239
 40
0.4855077933
 40
0.5169699546
 40
0.532806559
 40
0.5487076994
 40
0.5806824153
 40
0.6128739824
 40
0.6290441709
 40
0.6452543843
 40
0.6777639093
 40
0.7103643307
 40
0.7266873141
 40
0.7430142241
 40
0.7756456098
 40
0.7919458916
 40
0.8082247496
 40
0.8244760379
 40
0.8406940714
 40
0.8568734332
 40
0.8730088968
 40
0.8890954876
 40
0.905128265
 40
0.9370074719
 40
0.9528594107
 40
0.9686481654
 40
1.0
 40
1.0
 40
1.0
 40
1.0
 10
10.8689658065
 20
7.0063598128
 30
0.0
 10
10.8689659411
 20
7.0143734429
 30
0.0
 10
10.8695540568
 20
7.0263811822
 30
0.0
 10
10.871523532
 20
7.0422249639
 30
0.0
 10
10.8742623295
 20
7.0578151142
 30
0.0
 10
10.8791236535
 20
7.0768969109
 30
0.0
 10
10.8858847734
 20
7.0953123186
 30
0.0
 10
10.8923765275
 20
7.1094844402
 30
0.0
 10
10.8977679237
 20
7.1198002996
 30
0.0
 10
10.9036747445
 20
7.1297953272
 30
0.0
 10
10.9122098411
 20
7.1426492314
 30
0.0
 10
10.9217345194
 20
7.1547955623
 30
0.0
 10
10.9321603436
 20
7.1661173077
 30
0.0
 10
10.9404135708
 20
7.17418007
 30
0.0
 10
10.9490819156
 20
7.1817974465
 30
0.0
 10
10.9581465679
 20
7.1889515825
 30
0.0
 10
10.967586727
 20
7.195625542
 30
0.0
 10
10.9773802245
 20
7.2018046152
 30
0.0
 10
10.9875053256
 20
7.2074731811
 30
0.0
 10
10.9979386593
 20
7.2126175303
 30
0.0
 10
11.0086561516
 20
7.2172261819
 30
0.0
 10
11.0233152697
 20
7.2226483449
 30
0.0
 10
11.0422418673
 20
7.2280273043
 30
0.0
 10
11.0616937943
 20
7.2314659037
 30
0.0
 10
11.0774955595
 20
7.2330492863
 30
0.0
 10
11.0934973172
 20
7.2338492799
 30
0.0
 10
11.1136782526
 20
7.2333561729
 30
0.0
 10
11.1338017422
 20
7.2308856908
 30
0.0
 10
11.1498003696
 20
7.2277407876
 30
0.0
 10
11.165758638
 20
7.2238022584
 30
0.0
 10
11.1854344419
 20
7.2174288252
 30
0.0
 10
11.2044885014
 20
7.2092105107
 30
0.0
 10
11.2192897843
 20
7.2015668533
 30
0.0
 10
11.2337923457
 20
7.1932050283
 30
0.0
 10
11.2512208156
 20
7.1814824186
 30
0.0
 10
11.2675250766
 20
7.1681952853
 30
0.0
 10
11.2798169711
 20
7.1566942444
 30
0.0
 10
11.2915761162
 20
7.1446387594
 30
0.0
 10
11.3024959896
 20
7.1317951106
 30
0.0
 10
11.3124876189
 20
7.1182614791
 30
0.0
 10
11.3194993901
 20
7.1077949117
 30
0.0
 10
11.3260119741
 20
7.0970358212
 30
0.0
 10
11.3320098538
 20
7.0860106356
 30
0.0
 10
11.3374796238
 20
7.0747472998
 30
0.0
 10
11.3424069414
 20
7.0632732634
 30
0.0
 10
11.346780595
 20
7.0516169123
 30
0.0
 10
11.3518512387
 20
7.0359049827
 30
0.0
 10
11.3557915712
 20
7.0199088896
 30
0.0
 10
11.3585609201
 20
7.0037573361
 30
0.0
 10
11.3605333274
 20
6.9876270793
 30
0.0
 10
11.3611344979
 20
6.9754590069
 30
0.0
 10
11.3611346453
 20
6.9673732957
 30
0.0
  0
SPLINE
  5
29B
100
AcDbEntity
  8
0
100
AcDbSpline
 62
7
  6
CONTINUOUS
 70
0
 71
3
 72
56
 73
52
 74
0
 42
0.0000001
 43
0.0000001
 44
0.0000000001
 40
0.0
 40
0.0
 40
0.0
 40
0.0
 40
0.031072346
 40
0.0465152317
 40
0.0618873124
 40
0.0924244558
 40
0.1227285839
 40
0.1378086476
 40
0.152843805
 40
0.1678401144
 40
0.1828038429
 40
0.2126503375
 40
0.2275575076
 40
0.2424602021
 40
0.2573657768
 40
0.2722815596
 40
0.2872148075
 40
0.3021724288
 40
0.3171611944
 40
0.3321875086
 40
0.3472571497
 40
0.3623756664
 40
0.3927682644
 40
0.4234071833
 40
0.4388308412
 40
0.4543232404
 40
0.485507794
 40
0.5169699549
 40
0.5328065592
 40
0.5487076996
 40
0.5806824155
 40
0.6128739827
 40
0.6290441713
 40
0.6452543848
 40
0.6777639099
 40
0.7103643313
 40
0.7266873147
 40
0.7430142246
 40
0.7756456102
 40
0.791945892
 40
0.80822475
 40
0.8244760382
 40
0.8406940716
 40
0.8568734333
 40
0.8730088969
 40
0.8890954876
 40
0.905128265
 40
0.9370074718
 40
0.9528594107
 40
0.9686481654
 40
1.0
 40
1.0
 40
1.0
 40
1.0
 10
10.9390250013
 20
7.5105194325
 30
0.0
 10
10.9390248666
 20
7.502505802
 30
0.0
 10
10.9384367505
 20
7.4904980617
 30
0.0
 10
10.9364672754
 20
7.4746542789
 30
0.0
 10
10.9337284777
 20
7.4590641281
 30
0.0
 10
10.9288671535
 20
7.4399823318
 30
0.0
 10
10.9221060335
 20
7.421566925
 30
0.0
 10
10.9156142798
 20
7.4073948042
 30
0.0
 10
10.910222884
 20
7.3970789454
 30
0.0
 10
10.9043160636
 20
7.3870839184
 30
0.0
 10
10.8957809674
 20
7.3742300149
 30
0.0
 10
10.8862562898
 20
7.3620836844
 30
0.0
 10
10.8758304659
 20
7.3507619394
 30
0.0
 10
10.8675772389
 20
7.342699177
 30
0.0
 10
10.858908894
 20
7.3350818002
 30
0.0
 10
10.8498442413
 20
7.3279276638
 30
0.0
 10
10.8404040816
 20
7.3212537039
 30
0.0
 10
10.8306105835
 20
7.3150746301
 30
0.0
 10
10.8204854818
 20
7.3094060639
 30
0.0
 10
10.8100521475
 20
7.3042617145
 30
0.0
 10
10.7993346547
 20
7.2996530627
 30
0.0
 10
10.7846755363
 20
7.2942308996
 30
0.0
 10
10.7657489387
 20
7.2888519406
 30
0.0
 10
10.7462970119
 20
7.2854133412
 30
0.0
 10
10.730495247
 20
7.2838299588
 30
0.0
 10
10.7144934896
 20
7.2830299652
 30
0.0
 10
10.6943125546
 20
7.2835230724
 30
0.0
 10
10.6741890653
 20
7.2859935544
 30
0.0
 10
10.658190438
 20
7.2891384577
 30
0.0
 10
10.6422321696
 20
7.2930769868
 30
0.0
 10
10.6225563658
 20
7.2994504201
 30
0.0
 10
10.6035023062
 20
7.3076687346
 30
0.0
 10
10.5887010232
 20
7.315312392
 30
0.0
 10
10.5741984617
 20
7.3236742171
 30
0.0
 10
10.5567699918
 20
7.3353968268
 30
0.0
 10
10.5404657308
 20
7.3486839602
 30
0.0
 10
10.5281738363
 20
7.3601850011
 30
0.0
 10
10.5164146913
 20
7.3722404861
 30
0.0
 10
10.5054948179
 20
7.3850841349
 30
0.0
 10
10.4955031886
 20
7.3986177663
 30
0.0
 10
10.4884914175
 20
7.4090843337
 30
0.0
 10
10.4819788335
 20
7.4198434241
 30
0.0
 10
10.4759809539
 20
7.4308686098
 30
0.0
 10
10.4705111839
 20
7.4421319455
 30
0.0
 10
10.4655838664
 20
7.4536059818
 30
0.0
 10
10.4612102128
 20
7.4652623329
 30
0.0
 10
10.4561395691
 20
7.4809742625
 30
0.0
 10
10.4521992365
 20
7.4969703556
 30
0.0
 10
10.4494298877
 20
7.513121909
 30
0.0
 10
10.4474574804
 20
7.5292521659
 30
0.0
 10
10.4468563098
 20
7.5414202383
 30
0.0
 10
10.4468561624
 20
7.5495059495
 30
0.0
  0
SPLINE
  5
29C
100
AcDbEntity
  8
0
100
AcDbSpline
 62
7
  6
CONTINUOUS
 70
0
 71
3
 72
56
 73
52
 74
0
 42
0.0000001
 43
0.0000001
 44
0.0000000001
 40
0.0
 40
0.0
 40
0.0
 40
0.0
 40
0.0310723444
 40
0.0465152282
 40
0.0618873079
 40
0.0924244521
 40
0.1227285817
 40
0.1378086463
 40
0.1528438045
 40
0.1678401149
 40
0.1828038444
 40
0.2126503405
 40
0.227557511
 40
0.2424602055
 40
0.2573657799
 40
0.272281562
 40
0.2872148089
 40
0.3021724291
 40
0.3171611937
 40
0.3321875071
 40
0.3472571476
 40
0.362375664
 40
0.3927682619
 40
0.4234071812
 40
0.4388308394
 40
0.454323239
 40
0.4855077933
 40
0.5169699546
 40
0.532806559
 40
0.5487076994
 40
0.5806824153
 40
0.6128739824
 40
0.6290441709
 40
0.6452543843
 40
0.6777639093
 40
0.7103643307
 40
0.7266873141
 40
0.7430142241
 40
0.7756456098
 40
0.7919458916
 40
0.8082247496
 40
0.8244760379
 40
0.8406940714
 40
0.8568734332
 40
0.8730088968
 40
0.8890954876
 40
0.905128265
 40
0.9370074719
 40
0.9528594107
 40
0.9686481654
 40
1.0
 40
1.0
 40
1.0
 40
1.0
 10
10.4468561604
 20
7.5495058489
 30
0.0
 10
10.446856295
 20
7.557519479
 30
0.0
 10
10.4474444107
 20
7.5695272183
 30
0.0
 10
10.4494138859
 20
7.585371
 30
0.0
 10
10.4521526834
 20
7.6009611502
 30
0.0
 10
10.4570140074
 20
7.6200429469
 30
0.0
 10
10.4637751273
 20
7.6384583546
 30
0.0
 10
10.4702668814
 20
7.6526304762
 30
0.0
 10
10.4756582776
 20
7.6629463356
 30
0.0
 10
10.4815650983
 20
7.6729413632
 30
0.0
 10
10.490100195
 20
7.6857952675
 30
0.0
 10
10.4996248733
 20
7.6979415983
 30
0.0
 10
10.5100506975
 20
7.7092633438
 30
0.0
 10
10.5183039247
 20
7.717326106
 30
0.0
 10
10.5269722695
 20
7.7249434826
 30
0.0
 10
10.5360369218
 20
7.7320976186
 30
0.0
 10
10.5454770809
 20
7.7387715781
 30
0.0
 10
10.5552705784
 20
7.7449506513
 30
0.0
 10
10.5653956795
 20
7.7506192171
 30
0.0
 10
10.5758290132
 20
7.7557635663
 30
0.0
 10
10.5865465055
 20
7.760372218
 30
0.0
 10
10.6012056236
 20
7.765794381
 30
0.0
 10
10.6201322212
 20
7.7711733404
 30
0.0
 10
10.6395841482
 20
7.7746119398
 30
0.0
 10
10.6553859134
 20
7.7761953224
 30
0.0
 10
10.6713876711
 20
7.776995316
 30
0.0
 10
10.6915686065
 20
7.776502209
 30
0.0
 10
10.7116920961
 20
7.7740317268
 30
0.0
 10
10.7276907235
 20
7.7708868236
 30
0.0
 10
10.7436489919
 20
7.7669482945
 30
0.0
 10
10.7633247958
 20
7.7605748612
 30
0.0
 10
10.7823788553
 20
7.7523565467
 30
0.0
 10
10.7971801382
 20
7.7447128894
 30
0.0
 10
10.8116826996
 20
7.7363510644
 30
0.0
 10
10.8291111695
 20
7.7246284546
 30
0.0
 10
10.8454154305
 20
7.7113413214
 30
0.0
 10
10.857707325
 20
7.6998402805
 30
0.0
 10
10.8694664701
 20
7.6877847955
 30
0.0
 10
10.8803863435
 20
7.6749411466
 30
0.0
 10
10.8903779728
 20
7.6614075151
 30
0.0
 10
10.897389744
 20
7.6509409478
 30
0.0
 10
10.903902328
 20
7.6401818573
 30
0.0
 10
10.9099002077
 20
7.6291566716
 30
0.0
 10
10.9153699777
 20
7.6178933358
 30
0.0
 10
10.9202972953
 20
7.6064192995
 30
0.0
 10
10.9246709489
 20
7.5947629484
 30
0.0
 10
10.9297415925
 20
7.5790510187
 30
0.0
 10
10.9336819251
 20
7.5630549256
 30
0.0
 10
10.9364512739
 20
7.5469033722
 30
0.0
 10
10.9384236813
 20
7.5307731153
 30
0.0
 10
10.9390248518
 20
7.518605043
 30
0.0
 10
10.9390249992
 20
7.5105193317
 30
0.0
  0
SPLINE
  5
29D
100
AcDbEntity
  8
0
100
AcDbSpline
 62
7
  6
CONTINUOUS
 70
0
 71
3
 72
56
 73
52
 74
0
 42
0.0000001
 43
0.0000001
 44
0.0000000001
 40
0.0
 40
0.0
 40
0.0
 40
0.0
 40
0.031072346
 40
0.0465152317
 40
0.0618873124
 40
0.0924244558
 40
0.1227285839
 40
0.1378086476
 40
0.152843805
 40
0.1678401144
 40
0.1828038429
 40
0.2126503375
 40
0.2275575076
 40
0.2424602021
 40
0.2573657768
 40
0.2722815596
 40
0.2872148075
 40
0.3021724288
 40
0.3171611944
 40
0.3321875086
 40
0.3472571497
 40
0.3623756664
 40
0.3927682644
 40
0.4234071833
 40
0.4388308412
 40
0.4543232404
 40
0.485507794
 40
0.5169699549
 40
0.5328065592
 40
0.5487076996
 40
0.5806824155
 40
0.6128739827
 40
0.6290441713
 40
0.6452543848
 40
0.6777639099
 40
0.7103643313
 40
0.7266873147
 40
0.7430142246
 40
0.7756456102
 40
0.791945892
 40
0.80822475
 40
0.8244760382
 40
0.8406940716
 40
0.8568734333
 40
0.8730088969
 40
0.8890954876
 40
0.905128265
 40
0.9370074718
 40
0.9528594107
 40
0.9686481654
 40
1.0
 40
1.0
 40
1.0
 40
1.0
 10
10.9390250013
 20
8.2948511697
 30
0.0
 10
10.9390248666
 20
8.2868375392
 30
0.0
 10
10.9384367505
 20
8.274829799
 30
0.0
 10
10.9364672754
 20
8.2589860162
 30
0.0
 10
10.9337284777
 20
8.2433958654
 30
0.0
 10
10.9288671535
 20
8.2243140691
 30
0.0
 10
10.9221060335
 20
8.2058986623
 30
0.0
 10
10.9156142798
 20
8.1917265414
 30
0.0
 10
10.910222884
 20
8.1814106826
 30
0.0
 10
10.9043160636
 20
8.1714156557
 30
0.0
 10
10.8957809674
 20
8.1585617522
 30
0.0
 10
10.8862562898
 20
8.1464154217
 30
0.0
 10
10.8758304659
 20
8.1350936766
 30
0.0
 10
10.8675772389
 20
8.1270309143
 30
0.0
 10
10.858908894
 20
8.1194135374
 30
0.0
 10
10.8498442413
 20
8.1122594011
 30
0.0
 10
10.8404040816
 20
8.1055854411
 30
0.0
 10
10.8306105835
 20
8.0994063674
 30
0.0
 10
10.8204854818
 20
8.0937378012
 30
0.0
 10
10.8100521475
 20
8.0885934518
 30
0.0
 10
10.7993346547
 20
8.0839848
 30
0.0
 10
10.7846755363
 20
8.0785626369
 30
0.0
 10
10.7657489387
 20
8.0731836778
 30
0.0
 10
10.7462970119
 20
8.0697450785
 30
0.0
 10
10.730495247
 20
8.0681616961
 30
0.0
 10
10.7144934896
 20
8.0673617025
 30
0.0
 10
10.6943125546
 20
8.0678548096
 30
0.0
 10
10.6741890653
 20
8.0703252917
 30
0.0
 10
10.658190438
 20
8.0734701949
 30
0.0
 10
10.6422321696
 20
8.0774087241
 30
0.0
 10
10.6225563658
 20
8.0837821574
 30
0.0
 10
10.6035023062
 20
8.0920004719
 30
0.0
 10
10.5887010232
 20
8.0996441293
 30
0.0
 10
10.5741984617
 20
8.1080059544
 30
0.0
 10
10.5567699918
 20
8.1197285641
 30
0.0
 10
10.5404657308
 20
8.1330156975
 30
0.0
 10
10.5281738363
 20
8.1445167383
 30
0.0
 10
10.5164146913
 20
8.1565722233
 30
0.0
 10
10.5054948179
 20
8.1694158722
 30
0.0
 10
10.4955031886
 20
8.1829495036
 30
0.0
 10
10.4884914175
 20
8.193416071
 30
0.0
 10
10.4819788335
 20
8.2041751614
 30
0.0
 10
10.4759809539
 20
8.215200347
 30
0.0
 10
10.4705111839
 20
8.2264636828
 30
0.0
 10
10.4655838664
 20
8.2379377191
 30
0.0
 10
10.4612102128
 20
8.2495940702
 30
0.0
 10
10.4561395691
 20
8.2653059998
 30
0.0
 10
10.4521992365
 20
8.2813020928
 30
0.0
 10
10.4494298877
 20
8.2974536463
 30
0.0
 10
10.4474574804
 20
8.3135839032
 30
0.0
 10
10.4468563098
 20
8.3257519755
 30
0.0
 10
10.4468561624
 20
8.3338376868
 30
0.0
  0
SPLINE
  5
29E
100
AcDbEntity
  8
0
100
AcDbSpline
 62
7
  6
CONTINUOUS
 70
0
 71
3
 72
56
 73
52
 74
0
 42
0.0000001
 43
0.0000001
 44
0.0000000001
 40
0.0
 40
0.0
 40
0.0
 40
0.0
 40
0.0310723444
 40
0.0465152282
 40
0.0618873079
 40
0.0924244521
 40
0.1227285817
 40
0.1378086463
 40
0.1528438045
 40
0.1678401149
 40
0.1828038444
 40
0.2126503405
 40
0.227557511
 40
0.2424602055
 40
0.2573657799
 40
0.272281562
 40
0.2872148089
 40
0.3021724291
 40
0.3171611937
 40
0.3321875071
 40
0.3472571476
 40
0.362375664
 40
0.3927682619
 40
0.4234071812
 40
0.4388308394
 40
0.454323239
 40
0.4855077933
 40
0.5169699546
 40
0.532806559
 40
0.5487076994
 40
0.5806824153
 40
0.6128739824
 40
0.6290441709
 40
0.6452543843
 40
0.6777639093
 40
0.7103643307
 40
0.7266873141
 40
0.7430142241
 40
0.7756456098
 40
0.7919458916
 40
0.8082247496
 40
0.8244760379
 40
0.8406940714
 40
0.8568734332
 40
0.8730088968
 40
0.8890954876
 40
0.905128265
 40
0.9370074719
 40
0.9528594107
 40
0.9686481654
 40
1.0
 40
1.0
 40
1.0
 40
1.0
 10
10.4468561604
 20
8.3338375862
 30
0.0
 10
10.446856295
 20
8.3418512162
 30
0.0
 10
10.4474444107
 20
8.3538589556
 30
0.0
 10
10.4494138859
 20
8.3697027372
 30
0.0
 10
10.4521526834
 20
8.3852928875
 30
0.0
 10
10.4570140074
 20
8.4043746842
 30
0.0
 10
10.4637751273
 20
8.4227900919
 30
0.0
 10
10.4702668814
 20
8.4369622135
 30
0.0
 10
10.4756582776
 20
8.4472780729
 30
0.0
 10
10.4815650983
 20
8.4572731005
 30
0.0
 10
10.490100195
 20
8.4701270048
 30
0.0
 10
10.4996248733
 20
8.4822733356
 30
0.0
 10
10.5100506975
 20
8.4935950811
 30
0.0
 10
10.5183039247
 20
8.5016578433
 30
0.0
 10
10.5269722695
 20
8.5092752199
 30
0.0
 10
10.5360369218
 20
8.5164293559
 30
0.0
 10
10.5454770809
 20
8.5231033154
 30
0.0
 10
10.5552705784
 20
8.5292823886
 30
0.0
 10
10.5653956795
 20
8.5349509544
 30
0.0
 10
10.5758290132
 20
8.5400953036
 30
0.0
 10
10.5865465055
 20
8.5447039553
 30
0.0
 10
10.6012056236
 20
8.5501261183
 30
0.0
 10
10.6201322212
 20
8.5555050777
 30
0.0
 10
10.6395841482
 20
8.558943677
 30
0.0
 10
10.6553859134
 20
8.5605270596
 30
0.0
 10
10.6713876711
 20
8.5613270533
 30
0.0
 10
10.6915686065
 20
8.5608339462
 30
0.0
 10
10.7116920961
 20
8.5583634641
 30
0.0
 10
10.7276907235
 20
8.5552185609
 30
0.0
 10
10.7436489919
 20
8.5512800318
 30
0.0
 10
10.7633247958
 20
8.5449065985
 30
0.0
 10
10.7823788553
 20
8.536688284
 30
0.0
 10
10.7971801382
 20
8.5290446267
 30
0.0
 10
10.8116826996
 20
8.5206828016
 30
0.0
 10
10.8291111695
 20
8.5089601919
 30
0.0
 10
10.8454154305
 20
8.4956730586
 30
0.0
 10
10.857707325
 20
8.4841720178
 30
0.0
 10
10.8694664701
 20
8.4721165328
 30
0.0
 10
10.8803863435
 20
8.4592728839
 30
0.0
 10
10.8903779728
 20
8.4457392524
 30
0.0
 10
10.897389744
 20
8.4352726851
 30
0.0
 10
10.903902328
 20
8.4245135946
 30
0.0
 10
10.9099002077
 20
8.4134884089
 30
0.0
 10
10.9153699777
 20
8.4022250731
 30
0.0
 10
10.9202972953
 20
8.3907510367
 30
0.0
 10
10.9246709489
 20
8.3790946856
 30
0.0
 10
10.9297415925
 20
8.363382756
 30
0.0
 10
10.9336819251
 20
8.3473866629
 30
0.0
 10
10.9364512739
 20
8.3312351094
 30
0.0
 10
10.9384236813
 20
8.3151048526
 30
0.0
 10
10.9390248518
 20
8.3029367803
 30
0.0
 10
10.9390249992
 20
8.294851069
 30
0.0
  0
SPLINE
  5
29F
100
AcDbEntity
  8
0
100
AcDbSpline
 62
7
  6
CONTINUOUS
 70
0
 71
3
 72
56
 73
52
 74
0
 42
0.0000001
 43
0.0000001
 44
0.0000000001
 40
0.0
 40
0.0
 40
0.0
 40
0.0
 40
0.031072346
 40
0.0465152317
 40
0.0618873124
 40
0.0924244558
 40
0.1227285839
 40
0.1378086476
 40
0.152843805
 40
0.1678401144
 40
0.1828038429
 40
0.2126503375
 40
0.2275575076
 40
0.2424602021
 40
0.2573657768
 40
0.2722815596
 40
0.2872148075
 40
0.3021724288
 40
0.3171611944
 40
0.3321875086
 40
0.3472571497
 40
0.3623756664
 40
0.3927682644
 40
0.4234071833
 40
0.4388308412
 40
0.4543232404
 40
0.485507794
 40
0.5169699549
 40
0.5328065592
 40
0.5487076996
 40
0.5806824155
 40
0.6128739827
 40
0.6290441713
 40
0.6452543848
 40
0.6777639099
 40
0.7103643313
 40
0.7266873147
 40
0.7430142246
 40
0.7756456102
 40
0.791945892
 40
0.80822475
 40
0.8244760382
 40
0.8406940716
 40
0.8568734333
 40
0.8730088969
 40
0.8890954876
 40
0.905128265
 40
0.9370074718
 40
0.9528594107
 40
0.9686481654
 40
1.0
 40
1.0
 40
1.0
 40
1.0
 10
11.3611346474
 20
8.7794502839
 30
0.0
 10
11.3611345127
 20
8.7714366534
 30
0.0
 10
11.3605463966
 20
8.7594289131
 30
0.0
 10
11.3585769215
 20
8.7435851303
 30
0.0
 10
11.3558381238
 20
8.7279949795
 30
0.0
 10
11.3509767996
 20
8.7089131832
 30
0.0
 10
11.3442156797
 20
8.6904977764
 30
0.0
 10
11.3377239259
 20
8.6763256556
 30
0.0
 10
11.3323325301
 20
8.6660097968
 30
0.0
 10
11.3264257097
 20
8.6560147698
 30
0.0
 10
11.3178906135
 20
8.6431608663
 30
0.0
 10
11.3083659359
 20
8.6310145359
 30
0.0
 10
11.297940112
 20
8.6196927908
 30
0.0
 10
11.289686885
 20
8.6116300284
 30
0.0
 10
11.2810185401
 20
8.6040126516
 30
0.0
 10
11.2719538874
 20
8.5968585153
 30
0.0
 10
11.2625137277
 20
8.5901845553
 30
0.0
 10
11.2527202296
 20
8.5840054816
 30
0.0
 10
11.2425951279
 20
8.5783369153
 30
0.0
 10
11.2321617936
 20
8.5731925659
 30
0.0
 10
11.2214443008
 20
8.5685839142
 30
0.0
 10
11.2067851824
 20
8.563161751
 30
0.0
 10
11.1878585848
 20
8.557782792
 30
0.0
 10
11.168406658
 20
8.5543441927
 30
0.0
 10
11.1526048931
 20
8.5527608102
 30
0.0
 10
11.1366031357
 20
8.5519608166
 30
0.0
 10
11.1164222007
 20
8.5524539238
 30
0.0
 10
11.0962987114
 20
8.5549244059
 30
0.0
 10
11.0803000841
 20
8.5580693091
 30
0.0
 10
11.0643418157
 20
8.5620078382
 30
0.0
 10
11.0446660119
 20
8.5683812715
 30
0.0
 10
11.0256119523
 20
8.576599586
 30
0.0
 10
11.0108106693
 20
8.5842432434
 30
0.0
 10
10.9963081078
 20
8.5926050685
 30
0.0
 10
10.9788796379
 20
8.6043276783
 30
0.0
 10
10.9625753769
 20
8.6176148116
 30
0.0
 10
10.9502834825
 20
8.6291158525
 30
0.0
 10
10.9385243374
 20
8.6411713375
 30
0.0
 10
10.927604464
 20
8.6540149863
 30
0.0
 10
10.9176128347
 20
8.6675486178
 30
0.0
 10
10.9106010636
 20
8.6780151851
 30
0.0
 10
10.9040884796
 20
8.6887742755
 30
0.0
 10
10.8980906
 20
8.6997994612
 30
0.0
 10
10.89262083
 20
8.7110627969
 30
0.0
 10
10.8876935125
 20
8.7225368333
 30
0.0
 10
10.8833198589
 20
8.7341931843
 30
0.0
 10
10.8782492152
 20
8.7499051139
 30
0.0
 10
10.8743088826
 20
8.765901207
 30
0.0
 10
10.8715395338
 20
8.7820527605
 30
0.0
 10
10.8695671265
 20
8.7981830173
 30
0.0
 10
10.8689659559
 20
8.8103510897
 30
0.0
 10
10.8689658085
 20
8.8184368009
 30
0.0
  0
SPLINE
  5
2A0
100
AcDbEntity
  8
0
100
AcDbSpline
 62
7
  6
CONTINUOUS
 70
0
 71
3
 72
56
 73
52
 74
0
 42
0.0000001
 43
0.0000001
 44
0.0000000001
 40
0.0
 40
0.0
 40
0.0
 40
0.0
 40
0.0310723444
 40
0.0465152282
 40
0.0618873079
 40
0.0924244521
 40
0.1227285817
 40
0.1378086463
 40
0.1528438045
 40
0.1678401149
 40
0.1828038444
 40
0.2126503405
 40
0.227557511
 40
0.2424602055
 40
0.2573657799
 40
0.272281562
 40
0.2872148089
 40
0.3021724291
 40
0.3171611937
 40
0.3321875071
 40
0.3472571476
 40
0.362375664
 40
0.3927682619
 40
0.4234071812
 40
0.4388308394
 40
0.454323239
 40
0.4855077933
 40
0.5169699546
 40
0.532806559
 40
0.5487076994
 40
0.5806824153
 40
0.6128739824
 40
0.6290441709
 40
0.6452543843
 40
0.6777639093
 40
0.7103643307
 40
0.7266873141
 40
0.7430142241
 40
0.7756456098
 40
0.7919458916
 40
0.8082247496
 40
0.8244760379
 40
0.8406940714
 40
0.8568734332
 40
0.8730088968
 40
0.8890954876
 40
0.905128265
 40
0.9370074719
 40
0.9528594107
 40
0.9686481654
 40
1.0
 40
1.0
 40
1.0
 40
1.0
 10
10.8689658065
 20
8.8184367003
 30
0.0
 10
10.8689659411
 20
8.8264503304
 30
0.0
 10
10.8695540568
 20
8.8384580697
 30
0.0
 10
10.871523532
 20
8.8543018514
 30
0.0
 10
10.8742623295
 20
8.8698920016
 30
0.0
 10
10.8791236535
 20
8.8889737984
 30
0.0
 10
10.8858847734
 20
8.907389206
 30
0.0
 10
10.8923765275
 20
8.9215613277
 30
0.0
 10
10.8977679237
 20
8.9318771871
 30
0.0
 10
10.9036747445
 20
8.9418722146
 30
0.0
 10
10.9122098411
 20
8.9547261189
 30
0.0
 10
10.9217345194
 20
8.9668724498
 30
0.0
 10
10.9321603436
 20
8.9781941952
 30
0.0
 10
10.9404135708
 20
8.9862569574
 30
0.0
 10
10.9490819156
 20
8.993874334
 30
0.0
 10
10.9581465679
 20
9.00102847
 30
0.0
 10
10.967586727
 20
9.0077024295
 30
0.0
 10
10.9773802245
 20
9.0138815027
 30
0.0
 10
10.9875053256
 20
9.0195500685
 30
0.0
 10
10.9979386593
 20
9.0246944178
 30
0.0
 10
11.0086561516
 20
9.0293030694
 30
0.0
 10
11.0233152697
 20
9.0347252324
 30
0.0
 10
11.0422418673
 20
9.0401041918
 30
0.0
 10
11.0616937943
 20
9.0435427912
 30
0.0
 10
11.0774955595
 20
9.0451261738
 30
0.0
 10
11.0934973172
 20
9.0459261674
 30
0.0
 10
11.1136782526
 20
9.0454330604
 30
0.0
 10
11.1338017422
 20
9.0429625783
 30
0.0
 10
11.1498003696
 20
9.039817675
 30
0.0
 10
11.165758638
 20
9.0358791459
 30
0.0
 10
11.1854344419
 20
9.0295057126
 30
0.0
 10
11.2044885014
 20
9.0212873982
 30
0.0
 10
11.2192897843
 20
9.0136437408
 30
0.0
 10
11.2337923457
 20
9.0052819158
 30
0.0
 10
11.2512208156
 20
8.9935593061
 30
0.0
 10
11.2675250766
 20
8.9802721728
 30
0.0
 10
11.2798169711
 20
8.9687711319
 30
0.0
 10
11.2915761162
 20
8.9567156469
 30
0.0
 10
11.3024959896
 20
8.9438719981
 30
0.0
 10
11.3124876189
 20
8.9303383666
 30
0.0
 10
11.3194993901
 20
8.9198717992
 30
0.0
 10
11.3260119741
 20
8.9091127087
 30
0.0
 10
11.3320098538
 20
8.898087523
 30
0.0
 10
11.3374796238
 20
8.8868241872
 30
0.0
 10
11.3424069414
 20
8.8753501509
 30
0.0
 10
11.346780595
 20
8.8636937998
 30
0.0
 10
11.3518512387
 20
8.8479818701
 30
0.0
 10
11.3557915712
 20
8.8319857771
 30
0.0
 10
11.3585609201
 20
8.8158342236
 30
0.0
 10
11.3605333274
 20
8.7997039668
 30
0.0
 10
11.3611344979
 20
8.7875358944
 30
0.0
 10
11.3611346453
 20
8.7794501832
 30
0.0
  0
SPLINE
  5
2A1
100
AcDbEntity
  8
0
100
AcDbSpline
 62
7
  6
CONTINUOUS
 70
0
 71
3
 72
90
 73
86
 74
0
 42
0.0000001
 43
0.0000001
 44
0.0000000001
 40
0.0
 40
0.0
 40
0.0
 40
0.0
 40
0.0039801734
 40
0.0081241052
 40
0.0124359616
 40
0.0169193135
 40
0.0215771815
 40
0.0264119171
 40
0.0314251791
 40
0.0366181551
 40
0.0419915397
 40
0.047545654
 40
0.0532804223
 40
0.0591954139
 40
0.0652899192
 40
0.0715628971
 40
0.08463856
 40
0.0984098622
 40
0.1128604225
 40
0.1279709368
 40
0.1437195167
 40
0.1600819662
 40
0.1770320115
 40
0.1945414958
 40
0.2125805581
 40
0.2311177886
 40
0.2501203685
 40
0.2695542002
 40
0.2893840278
 40
0.3095735514
 40
0.3300855399
 40
0.3508819414
 40
0.3719239887
 40
0.3931723021
 40
0.4145869913
 40
0.4361277558
 40
0.4577539862
 40
0.4794248651
 40
0.5010994671
 40
0.5227368581
 40
0.5442961936
 40
0.5657368187
 40
0.5870183693
 40
0.6081008732
 40
0.6289448503
 40
0.6495114141
 40
0.6697623751
 40
0.6896603446
 40
0.7091688452
 40
0.7282524229
 40
0.7468767607
 40
0.7650087978
 40
0.7826168578
 40
0.7996707871
 40
0.8161421063
 40
0.8320041856
 40
0.8472324355
 40
0.8618045284
 40
0.8757006673
 40
0.8889039105
 40
0.8952415029
 40
0.9014010575
 40
0.9073814349
 40
0.9131818212
 40
0.9188016688
 40
0.9242407739
 40
0.9294993077
 40
0.9345778094
 40
0.9394773131
 40
0.9441992992
 40
0.948745847
 40
0.9531196365
 40
0.9573240498
 40
0.9613632821
 40
0.9652423783
 40
0.968967428
 40
0.9725455945
 40
0.9759853044
 40
0.9824864771
 40
0.9855753379
 40
0.9885738066
 40
0.9914977312
 40
0.994364333
 40
0.997192009
 40
1.0
 40
1.0
 40
1.0
 40
1.0
 10
11.3684338923
 20
10.3109880889
 30
0.0
 10
11.3673643897
 20
10.3099550287
 30
0.0
 10
11.3651328122
 20
10.3078962126
 30
0.0
 10
11.3615897507
 20
10.3048891529
 30
0.0
 10
11.3577865072
 20
10.3019036575
 30
0.0
 10
11.3537251688
 20
10.2989413228
 30
0.0
 10
11.3494077225
 20
10.296003525
 30
0.0
 10
11.344836276
 20
10.2930917013
 30
0.0
 10
11.3400131189
 20
10.2902072362
 30
0.0
 10
11.334940642
 20
10.2873516314
 30
0.0
 10
11.3296214066
 20
10.2845262629
 30
0.0
 10
11.3240580616
 20
10.2817325717
 30
0.0
 10
11.3182533973
 20
10.2789719498
 30
0.0
 10
11.3122103339
 20
10.2762457746
 30
0.0
 10
11.3059318912
 20
10.2735554347
 30
0.0
 10
11.2971289656
 20
10.2699682108
 30
0.0
 10
11.2855523777
 20
10.2655932483
 30
0.0
 10
11.2709599585
 20
10.2605772898
 30
0.0
 10
11.2555104069
 20
10.255735493
 30
0.0
 10
11.2392348734
 20
10.2510776984
 30
0.0
 10
11.2221660307
 20
10.2466133863
 30
0.0
 10
11.2043382613
 20
10.2423516497
 30
0.0
 10
11.1857875035
 20
10.2383011719
 30
0.0
 10
11.1665511946
 20
10.234470202
 30
0.0
 10
11.1466681797
 20
10.2308665424
 30
0.0
 10
11.1261786292
 20
10.2274975316
 30
0.0
 10
11.1051239531
 20
10.2243700294
 30
0.0
 10
11.0835467156
 20
10.2214904026
 30
0.0
 10
11.0614905475
 20
10.2188645139
 30
0.0
 10
11.0390000581
 20
10.2164977053
 30
0.0
 10
11.016120742
 20
10.2143947901
 30
0.0
 10
10.9928988847
 20
10.212560045
 30
0.0
 10
10.9693814677
 20
10.2109972011
 30
0.0
 10
10.9456160729
 20
10.2097094368
 30
0.0
 10
10.9216507869
 20
10.2086993718
 30
0.0
 10
10.8975341032
 20
10.2079690608
 30
0.0
 10
10.8733148235
 20
10.2075199865
 30
0.0
 10
10.8490419575
 20
10.2073530608
 30
0.0
 10
10.8247646234
 20
10.2074686227
 30
0.0
 10
10.8005319483
 20
10.2078664376
 30
0.0
 10
10.776392969
 20
10.2085456977
 30
0.0
 10
10.7523965326
 20
10.2095050242
 30
0.0
 10
10.7285911959
 20
10.2107424656
 30
0.0
 10
10.7050251268
 20
10.2122555048
 30
0.0
 10
10.6817460062
 20
10.2140410644
 30
0.0
 10
10.658800932
 20
10.2160955135
 30
0.0
 10
10.6362363233
 20
10.2184146739
 30
0.0
 10
10.6140978257
 20
10.2209938296
 30
0.0
 10
10.5924302162
 20
10.2238277338
 30
0.0
 10
10.5712773104
 20
10.2269106173
 30
0.0
 10
10.5506818727
 20
10.2302362043
 30
0.0
 10
10.5306855297
 20
10.2337977236
 30
0.0
 10
10.5113286837
 20
10.2375879228
 30
0.0
 10
10.4926504272
 20
10.2415990827
 30
0.0
 10
10.4746884597
 20
10.2458230343
 30
0.0
 10
10.4574789974
 20
10.2502511716
 30
0.0
 10
10.441056714
 20
10.2548744744
 30
0.0
 10
10.4254545897
 20
10.259683531
 30
0.0
 10
10.4107040901
 20
10.2646685652
 30
0.0
 10
10.3989916261
 20
10.2690182486
 30
0.0
 10
10.3900772372
 20
10.2725860796
 30
0.0
 10
10.383713966
 20
10.2752630489
 30
0.0
 10
10.3775849393
 20
10.2779763504
 30
0.0
 10
10.3716932201
 20
10.2807245987
 30
0.0
 10
10.366041775
 20
10.2835064265
 30
0.0
 10
10.3606334402
 20
10.2863204403
 30
0.0
 10
10.355470914
 20
10.2891652031
 30
0.0
 10
10.3505567975
 20
10.292039342
 30
0.0
 10
10.3458935199
 20
10.2949413726
 30
0.0
 10
10.3414834289
 20
10.297869913
 30
0.0
 10
10.3373287022
 20
10.3008234901
 30
0.0
 10
10.3334314095
 20
10.3038006768
 30
0.0
 10
10.3297935009
 20
10.3068000595
 30
0.0
 10
10.3264167638
 20
10.3098201596
 30
0.0
 10
10.3233029177
 20
10.3128596483
 30
0.0
 10
10.3204535592
 20
10.3159169549
 30
0.0
 10
10.3178699679
 20
10.3189911015
 30
0.0
 10
10.314839137
 20
10.3230332191
 30
0.0
 10
10.3122654895
 20
10.3271843113
 30
0.0
 10
10.3102220968
 20
10.3314240243
 30
0.0
 10
10.3089875058
 20
10.3345596186
 30
0.0
 10
10.3080260532
 20
10.3377028314
 30
0.0
 10
10.3073385901
 20
10.3408521563
 30
0.0
 10
10.3069258167
 20
10.3440053326
 30
0.0
 10
10.3068339194
 20
10.3461119042
 30
0.0
 10
10.3068339164
 20
10.3471609463
 30
0.0
  0
SPLINE
  5
2A2
100
AcDbEntity
  8
0
100
AcDbSpline
 62
7
  6
CONTINUOUS
 70
0
 71
3
 72
15
 73
11
 74
0
 42
0.0000001
 43
0.0000001
 44
0.0000000001
 40
0.0
 40
0.0
 40
0.0
 40
0.0
 40
0.1273482789
 40
0.2538606571
 40
0.3795878378
 40
0.5046051156
 40
0.629017439
 40
0.7529533823
 40
0.8765605864
 40
1.0
 40
1.0
 40
1.0
 40
1.0
 10
10.0097883044
 20
8.9916172609
 30
0.0
 10
10.0097883044
 20
8.9872901772
 30
0.0
 10
10.0093751541
 20
8.9786584304
 30
0.0
 10
10.0075067495
 20
8.9658768284
 30
0.0
 10
10.0044086102
 20
8.9534163737
 30
0.0
 10
10.0001087224
 20
8.9413936014
 30
0.0
 10
9.9946465221
 20
8.9299193848
 30
0.0
 10
9.9880718378
 20
8.9190996632
 30
0.0
 10
9.9804464685
 20
8.9090358184
 30
0.0
 10
9.9747049461
 20
8.902888239
 30
0.0
 10
9.9716882103
 20
8.899974276
 30
0.0
  0
SPLINE
  5
2A3
100
AcDbEntity
  8
0
100
AcDbSpline
 62
7
  6
CONTINUOUS
 70
0
 71
3
 72
15
 73
11
 74
0
 42
0.0000001
 43
0.0000001
 44
0.0000000001
 40
0.0
 40
0.0
 40
0.0
 40
0.0
 40
0.1273482789
 40
0.2538606571
 40
0.3795878378
 40
0.5046051156
 40
0.629017439
 40
0.7529533823
 40
0.8765605864
 40
1.0
 40
1.0
 40
1.0
 40
1.0
 10
10.0097883044
 20
6.9399906143
 30
0.0
 10
10.0097883044
 20
6.9356635306
 30
0.0
 10
10.0093751541
 20
6.9270317838
 30
0.0
 10
10.0075067495
 20
6.9142501818
 30
0.0
 10
10.0044086102
 20
6.9017897271
 30
0.0
 10
10.0001087224
 20
6.8897669547
 30
0.0
 10
9.9946465221
 20
6.8782927382
 30
0.0
 10
9.9880718378
 20
6.8674730166
 30
0.0
 10
9.9804464685
 20
6.8574091717
 30
0.0
 10
9.9747049461
 20
6.8512615924
 30
0.0
 10
9.9716882103
 20
6.8483476294
 30
0.0
  0
SPLINE
  5
2A4
100
AcDbEntity
  8
0
100
AcDbSpline
 62
7
  6
CONTINUOUS
 70
0
 71
3
 72
15
 73
11
 74
0
 42
0.0000001
 43
0.0000001
 44
0.0000000001
 40
0.0
 40
0.0
 40
0.0
 40
0.0
 40
0.1273482789
 40
0.2538606571
 40
0.3795878378
 40
0.5046051156
 40
0.629017439
 40
0.7529533823
 40
0.8765605864
 40
1.0
 40
1.0
 40
1.0
 40
1.0
 10
11.7600458964
 20
6.818609838
 30
0.0
 10
11.7600458964
 20
6.8142827543
 30
0.0
 10
11.7596327461
 20
6.8056510075
 30
0.0
 10
11.7577643415
 20
6.7928694055
 30
0.0
 10
11.7546662023
 20
6.7804089508
 30
0.0
 10
11.7503663144
 20
6.7683861785
 30
0.0
 10
11.7449041141
 20
6.7569119619
 30
0.0
 10
11.7383294299
 20
6.7460922403
 30
0.0
 10
11.7307040605
 20
6.7360283955
 30
0.0
 10
11.7249625381
 20
6.7298808161
 30
0.0
 10
11.7219458023
 20
6.7269668531
 30
0.0
  0
SPLINE
  5
2A5
100
AcDbEntity
  8
0
100
AcDbSpline
 62
7
  6
CONTINUOUS
 70
0
 71
3
 72
15
 73
11
 74
0
 42
0.0000001
 43
0.0000001
 44
0.0000000001
 40
0.0
 40
0.0
 40
0.0
 40
0.0
 40
0.1273482789
 40
0.2538606571
 40
0.3795878378
 40
0.5046051156
 40
0.629017439
 40
0.7529533823
 40
0.8765605864
 40
1.0
 40
1.0
 40
1.0
 40
1.0
 10
11.7600458964
 20
8.8702364846
 30
0.0
 10
11.7600458964
 20
8.8659094009
 30
0.0
 10
11.7596327461
 20
8.8572776541
 30
0.0
 10
11.7577643415
 20
8.8444960521
 30
0.0
 10
11.7546662023
 20
8.8320355974
 30
0.0
 10
11.7503663144
 20
8.8200128251
 30
0.0
 10
11.7449041141
 20
8.8085386085
 30
0.0
 10
11.7383294299
 20
8.797718887
 30
0.0
 10
11.7307040605
 20
8.7876550421
 30
0.0
 10
11.7249625381
 20
8.7815074627
 30
0.0
 10
11.7219458023
 20
8.7785934997
 30
0.0
  0
SPLINE
  5
2A6
100
AcDbEntity
  8
0
100
AcDbSpline
 62
7
  6
CONTINUOUS
 70
0
 71
3
 72
32
 73
28
 74
0
 42
0.0000001
 43
0.0000001
 44
0.0000000001
 40
0.0
 40
0.0
 40
0.0
 40
0.0
 40
0.0845017374
 40
0.167300855
 40
0.2480795303
 40
0.3265298693
 40
0.4023572177
 40
0.4752815404
 40
0.545039923
 40
0.5786558619
 40
0.6113908052
 40
0.6432178835
 40
0.6741118203
 40
0.704049142
 40
0.7330081882
 40
0.760969474
 40
0.7879156344
 40
0.8138319636
 40
0.8387063238
 40
0.8625298908
 40
0.8852970833
 40
0.9070065571
 40
0.9276612459
 40
0.94726967
 40
0.9658462264
 40
0.9834129037
 40
1.0
 40
1.0
 40
1.0
 40
1.0
 10
12.0229627801
 20
10.5062145213
 30
0.0
 10
12.0300837842
 20
10.505720678
 30
0.0
 10
12.0441740084
 20
10.5046179586
 30
0.0
 10
12.0650334301
 20
10.5025959333
 30
0.0
 10
12.0853421738
 20
10.500229218
 30
0.0
 10
12.1050149261
 20
10.4975278599
 30
0.0
 10
12.1239691979
 20
10.4945033602
 30
0.0
 10
12.1421254122
 20
10.4911685556
 30
0.0
 10
12.1567016482
 20
10.4881063063
 30
0.0
 10
12.1679011654
 20
10.4855039298
 30
0.0
 10
12.1759510549
 20
10.4835077292
 30
0.0
 10
12.1837465949
 20
10.4814451601
 30
0.0
 10
12.1912796209
 20
10.4793183707
 30
0.0
 10
12.1985422368
 20
10.477129622
 30
0.0
 10
12.2055268365
 20
10.4748812007
 30
0.0
 10
12.2122261157
 20
10.4725755019
 30
0.0
 10
12.2186330697
 20
10.4702149194
 30
0.0
 10
12.2247410211
 20
10.467801974
 30
0.0
 10
12.2305436001
 20
10.4653391494
 30
0.0
 10
12.2360347922
 20
10.4628290748
 30
0.0
 10
12.2412088942
 20
10.4602743014
 30
0.0
 10
12.2460605884
 20
10.4576775414
 30
0.0
 10
12.2505848689
 20
10.4550413777
 30
0.0
 10
12.2547771304
 20
10.4523685733
 30
0.0
 10
12.2586331226
 20
10.4496616509
 30
0.0
 10
12.2621488056
 20
10.4469234951
 30
0.0
 10
12.2643243888
 20
10.4450255797
 30
0.0
 10
12.2653501089
 20
10.4440710388
 30
0.0
  0
SPLINE
  5
2A7
100
AcDbEntity
  8
0
100
AcDbSpline
 62
7
  6
CONTINUOUS
 70
0
 71
3
 72
21
 73
17
 74
0
 42
0.0000001
 43
0.0000001
 44
0.0000000001
 40
0.0
 40
0.0
 40
0.0
 40
0.0
 40
0.1273176366
 40
0.2537999756
 40
0.3167619475
 40
0.3795355041
 40
0.4421314991
 40
0.5045621439
 40
0.5668413432
 40
0.6289845283
 40
0.6910084528
 40
0.7529310935
 40
0.8147714495
 40
0.8765493365
 40
0.9382852194
 40
1.0
 40
1.0
 40
1.0
 40
1.0
 10
10.8831103428
 20
7.5262025359
 30
0.0
 10
10.8831103428
 20
7.5204279176
 30
0.0
 10
10.8825591173
 20
7.5089091339
 30
0.0
 10
10.8804773178
 20
7.4946694285
 30
0.0
 10
10.8779891045
 20
7.4834996244
 30
0.0
 10
10.8757199877
 20
7.4752607729
 30
0.0
 10
10.8730505245
 20
7.4671683121
 30
0.0
 10
10.8699868314
 20
7.4592406815
 30
0.0
 10
10.8665359948
 20
7.45149621
 30
0.0
 10
10.8627059243
 20
7.4439527575
 30
0.0
 10
10.8585054302
 20
7.4366277383
 30
0.0
 10
10.8539442239
 20
7.4295380233
 30
0.0
 10
10.8490328115
 20
7.4226999934
 30
0.0
 10
10.8437824329
 20
7.4161293918
 30
0.0
 10
10.8382054432
 20
7.4098415503
 30
0.0
 10
10.8342775326
 20
7.4058471026
 30
0.0
 10
10.8322642418
 20
7.4039024126
 30
0.0
  0
SPLINE
  5
2A8
100
AcDbEntity
  8
0
100
AcDbSpline
 62
7
  6
CONTINUOUS
 70
0
 71
3
 72
21
 73
17
 74
0
 42
0.0000001
 43
0.0000001
 44
0.0000000001
 40
0.0
 40
0.0
 40
0.0
 40
0.0
 40
0.1273176366
 40
0.2537999756
 40
0.3167619475
 40
0.3795355041
 40
0.4421314991
 40
0.5045621439
 40
0.5668413432
 40
0.6289845283
 40
0.6910084528
 40
0.7529310935
 40
0.8147714495
 40
0.8765493365
 40
0.9382852194
 40
1.0
 40
1.0
 40
1.0
 40
1.0
 10
11.3052199889
 20
6.9830564999
 30
0.0
 10
11.3052199889
 20
6.9772818815
 30
0.0
 10
11.3046687634
 20
6.9657630978
 30
0.0
 10
11.3025869639
 20
6.9515233924
 30
0.0
 10
11.3000987506
 20
6.9403535883
 30
0.0
 10
11.2978296338
 20
6.9321147368
 30
0.0
 10
11.2951601706
 20
6.9240222761
 30
0.0
 10
11.2920964775
 20
6.9160946454
 30
0.0
 10
11.2886456409
 20
6.9083501739
 30
0.0
 10
11.2848155704
 20
6.9008067214
 30
0.0
 10
11.2806150763
 20
6.8934817023
 30
0.0
 10
11.27605387
 20
6.8863919872
 30
0.0
 10
11.2711424576
 20
6.8795539574
 30
0.0
 10
11.265892079
 20
6.8729833557
 30
0.0
 10
11.2603150893
 20
6.8666955142
 30
0.0
 10
11.2563871787
 20
6.8627010665
 30
0.0
 10
11.2543738879
 20
6.8607563766
 30
0.0
  0
SPLINE
  5
2A9
100
AcDbEntity
  8
0
100
AcDbSpline
 62
7
  6
CONTINUOUS
 70
0
 71
3
 72
18
 73
14
 74
0
 42
0.0000001
 43
0.0000001
 44
0.0000000001
 40
0.0
 40
0.0
 40
0.0
 40
0.0
 40
0.0548620934
 40
0.1099281175
 40
0.1653995415
 40
0.2214731583
 40
0.2783387419
 40
0.3361775034
 40
0.4554063124
 40
0.5804415574
 40
0.7123342032
 40
0.8519579354
 40
1.0
 40
1.0
 40
1.0
 40
1.0
 10
11.386833914
 20
10.3471613941
 30
0.0
 10
11.3868339162
 20
10.3463987588
 30
0.0
 10
11.3867855124
 20
10.3448702155
 30
0.0
 10
11.3865678839
 20
10.342579886
 30
0.0
 10
11.3862052733
 20
10.3402908768
 30
0.0
 10
11.385697803
 20
10.3380040245
 30
0.0
 10
11.3850456834
 20
10.3357199027
 30
0.0
 10
11.3839730802
 20
10.3326483726
 30
0.0
 10
11.3822547801
 20
10.3288067135
 30
0.0
 10
11.3796394174
 20
10.3242696961
 30
0.0
 10
11.3764540371
 20
10.3197620429
 30
0.0
 10
11.3727034867
 20
10.3152882866
 30
0.0
 10
11.3699140645
 20
10.3124178256
 30
0.0
 10
11.3684338923
 20
10.3109880889
 30
0.0
  0
SPLINE
  5
2AA
100
AcDbEntity
  8
0
100
AcDbSpline
 62
7
  6
CONTINUOUS
 70
0
 71
3
 72
18
 73
14
 74
0
 42
0.0000001
 43
0.0000001
 44
0.0000000001
 40
0.0
 40
0.0
 40
0.0
 40
0.0
 40
0.0548626221
 40
0.1099291996
 40
0.1654012684
 40
0.2214754896
 40
0.3361336267
 40
0.4553633642
 40
0.5171046005
 40
0.5804361693
 40
0.7123314363
 40
0.8519591016
 40
1.0
 40
1.0
 40
1.0
 40
1.0
 10
9.6901049831
 20
10.2101252859
 30
0.0
 10
9.6901049803
 20
10.2106548901
 30
0.0
 10
9.6901385828
 20
10.2117163738
 30
0.0
 10
9.6902897264
 20
10.2133068623
 30
0.0
 10
9.6905415839
 20
10.2148964666
 30
0.0
 10
9.6910148163
 20
10.2170293703
 30
0.0
 10
9.6918674205
 20
10.2197026155
 30
0.0
 10
9.6930350778
 20
10.2223127674
 30
0.0
 10
9.6941586618
 20
10.2243871137
 30
0.0
 10
9.6954452149
 20
10.2265090089
 30
0.0
 10
9.6973133183
 20
10.2291526104
 30
0.0
 10
9.6999178006
 20
10.2322592299
 30
0.0
 10
9.7018548933
 20
10.2342526326
 30
0.0
 10
9.7028827658
 20
10.2352454812
 30
0.0
  0
SPLINE
  5
2AB
100
AcDbEntity
  8
0
100
AcDbSpline
 62
7
  6
CONTINUOUS
 70
0
 71
3
 72
40
 73
36
 74
0
 42
0.0000001
 43
0.0000001
 44
0.0000000001
 40
0.0
 40
0.0
 40
0.0
 40
0.0
 40
0.0072740528
 40
0.0148710823
 40
0.0227989803
 40
0.0310643696
 40
0.0396726394
 40
0.0486277804
 40
0.0579322968
 40
0.06758775
 40
0.0775946908
 40
0.087952845
 40
0.0986612591
 40
0.1097181257
 40
0.1328664065
 40
0.1573731659
 40
0.183204926
 40
0.2103214309
 40
0.2386764685
 40
0.2682185483
 40
0.2988915156
 40
0.3306350296
 40
0.3633849648
 40
0.3970737454
 40
0.4316307205
 40
0.466982487
 40
0.5030531739
 40
0.5397646988
 40
0.5770370433
 40
0.6147885387
 40
0.6913939367
 40
0.768905648
 40
0.8466362492
 40
0.9238955648
 40
1.0
 40
1.0
 40
1.0
 40
1.0
 10
10.0328794594
 20
10.5529260856
 30
0.0
 10
10.0336456005
 20
10.5536390227
 30
0.0
 10
10.0352471304
 20
10.5550590574
 30
0.0
 10
10.0377935991
 20
10.5571280402
 30
0.0
 10
10.0405340446
 20
10.5591801605
 30
0.0
 10
10.04346671
 20
10.5612141813
 30
0.0
 10
10.046589934
 20
10.5632289919
 30
0.0
 10
10.0499019295
 20
10.5652234287
 30
0.0
 10
10.0534007433
 20
10.5671963872
 30
0.0
 10
10.0570843373
 20
10.5691466518
 30
0.0
 10
10.060950531
 20
10.5710730973
 30
0.0
 10
10.0649970447
 20
10.5729745994
 30
0.0
 10
10.0692215146
 20
10.5748500153
 30
0.0
 10
10.0751794631
 20
10.5773526686
 30
0.0
 10
10.0830599687
 20
10.5803997169
 30
0.0
 10
10.0930448654
 20
10.5838812893
 30
0.0
 10
10.1036740674
 20
10.5872333866
 30
0.0
 10
10.1149224171
 20
10.5904479906
 30
0.0
 10
10.1267633999
 20
10.5935173994
 30
0.0
 10
10.1391689854
 20
10.5964342635
 30
0.0
 10
10.1521097832
 20
10.5991915889
 30
0.0
 10
10.165555104
 20
10.6017827627
 30
0.0
 10
10.1794730373
 20
10.6042015661
 30
0.0
 10
10.1938305251
 20
10.6064422082
 30
0.0
 10
10.2085934502
 20
10.6084993237
 30
0.0
 10
10.2237267251
 20
10.6103679845
 30
0.0
 10
10.2391943773
 20
10.612043712
 30
0.0
 10
10.254959619
 20
10.6135224871
 30
0.0
 10
10.2709849858
 20
10.6148008019
 30
0.0
 10
10.2927533742
 20
10.6162407063
 30
0.0
 10
10.3203322017
 20
10.6175139262
 30
0.0
 10
10.3536852895
 20
10.6182007008
 30
0.0
 10
10.3871393503
 20
10.6180468708
 30
0.0
 10
10.4203762381
 20
10.6170539733
 30
0.0
 10
10.4424100525
 20
10.6158262252
 30
0.0
 10
10.4533332193
 20
10.615068701
 30
0.0
  0
SPLINE
  5
2AC
100
AcDbEntity
  8
0
100
AcDbSpline
 62
7
  6
CONTINUOUS
 70
0
 71
3
 72
18
 73
14
 74
0
 42
0.0000001
 43
0.0000001
 44
0.0000000001
 40
0.0
 40
0.0
 40
0.0
 40
0.0
 40
0.1492375281
 40
0.289655037
 40
0.421961834
 40
0.4853619434
 40
0.5470838486
 40
0.6660306073
 40
0.780131264
 40
0.8358489547
 40
0.8909261061
 40
0.94557164
 40
1.0
 40
1.0
 40
1.0
 40
1.0
 10
12.295216514
 20
10.4162772228
 30
0.0
 10
12.2963180076
 20
10.4152521605
 30
0.0
 10
12.298393861
 20
10.413194031
 30
0.0
 10
12.3011885788
 20
10.4099809951
 30
0.0
 10
12.3031949974
 20
10.4072436979
 30
0.0
 10
12.304576909
 20
10.4050455363
 30
0.0
 10
12.3057822097
 20
10.4028991615
 30
0.0
 10
12.3070354192
 20
10.4001975405
 30
0.0
 10
12.3079517993
 20
10.3974261232
 30
0.0
 10
12.3084602463
 20
10.3952150579
 30
0.0
 10
12.3087307001
 20
10.3935678865
 30
0.0
 10
12.3088929867
 20
10.3919197203
 30
0.0
 10
12.308929088
 20
10.3908196535
 30
0.0
 10
12.308929091
 20
10.3902708848
 30
0.0
  0
SPLINE
  5
2AD
100
AcDbEntity
  8
0
100
AcDbSpline
 62
7
  6
CONTINUOUS
 70
0
 71
3
 72
41
 73
37
 74
0
 42
0.0000001
 43
0.0000001
 44
0.0000000001
 40
0.0
 40
0.0
 40
0.0
 40
0.0
 40
0.029942123
 40
0.0449237706
 40
0.0599145177
 40
0.0899291716
 40
0.1200145961
 40
0.1350933574
 40
0.1501974726
 40
0.1804849654
 40
0.2108989488
 40
0.2414525624
 40
0.2721557217
 40
0.3030149378
 40
0.3340332219
 40
0.3652100719
 40
0.3965415365
 40
0.4280203507
 40
0.4596361361
 40
0.4913756582
 40
0.5232231336
 40
0.5551605782
 40
0.5871681905
 40
0.6192247616
 40
0.6513081064
 40
0.6833955071
 40
0.7154641657
 40
0.7474916563
 40
0.7794563734
 40
0.811337967
 40
0.843117763
 40
0.8747791516
 40
0.9063079641
 40
0.9376927517
 40
0.9689251728
 40
1.0
 40
1.0
 40
1.0
 40
1.0
 10
9.7764632252
 20
9.1020836455
 30
0.0
 10
9.7787940719
 20
9.1043350859
 30
0.0
 10
9.7824277024
 20
9.1075758588
 30
0.0
 10
9.7875165459
 20
9.1115969435
 30
0.0
 10
9.7927674562
 20
9.1154179241
 30
0.0
 10
9.7996190276
 20
9.1198056703
 30
0.0
 10
9.8068037459
 20
9.1236436744
 30
0.0
 10
9.8127292702
 20
9.1263740652
 30
0.0
 10
9.818777217
 20
9.1288790304
 30
0.0
 10
9.8265364517
 20
9.1315726138
 30
0.0
 10
9.8360985472
 20
9.1340829755
 30
0.0
 10
9.8458692962
 20
9.135861402
 30
0.0
 10
9.8557945518
 20
9.1368980772
 30
0.0
 10
9.8658197917
 20
9.1371874697
 30
0.0
 10
9.8758898536
 20
9.1367281064
 30
0.0
 10
9.8859493897
 20
9.1355226408
 30
0.0
 10
9.8959431267
 20
9.1335778149
 30
0.0
 10
9.9058161772
 20
9.1309044222
 30
0.0
 10
9.915514334
 20
9.1275172439
 30
0.0
 10
9.9249843646
 20
9.1234349654
 30
0.0
 10
9.9341742987
 20
9.1186800723
 30
0.0
 10
9.9430337097
 20
9.1132787265
 30
0.0
 10
9.9515139875
 20
9.1072606224
 30
0.0
 10
9.9595686022
 20
9.1006588252
 30
0.0
 10
9.9671533559
 20
9.0935095903
 30
0.0
 10
9.9742266229
 20
9.0858521657
 30
0.0
 10
9.9807495755
 20
9.0777285795
 30
0.0
 10
9.9866863954
 20
9.0691834104
 30
0.0
 10
9.992004468
 20
9.0602635472
 30
0.0
 10
9.9966745607
 20
9.051017932
 30
0.0
 10
10.0006709815
 20
9.0414973018
 30
0.0
 10
10.0039717229
 20
9.0317538896
 30
0.0
 10
10.0065585757
 20
9.0218412303
 30
0.0
 10
10.0084172445
 20
9.0118135444
 30
0.0
 10
10.0095374064
 20
9.0017266427
 30
0.0
 10
10.0097883044
 20
8.9949805068
 30
0.0
 10
10.0097883044
 20
8.9916172609
 30
0.0
  0
SPLINE
  5
2AE
100
AcDbEntity
  8
0
100
AcDbSpline
 62
7
  6
CONTINUOUS
 70
0
 71
3
 72
41
 73
37
 74
0
 42
0.0000001
 43
0.0000001
 44
0.0000000001
 40
0.0
 40
0.0
 40
0.0
 40
0.0
 40
0.029942123
 40
0.0449237706
 40
0.0599145177
 40
0.0899291716
 40
0.1200145961
 40
0.1350933574
 40
0.1501974726
 40
0.1804849654
 40
0.2108989488
 40
0.2414525624
 40
0.2721557217
 40
0.3030149378
 40
0.3340332219
 40
0.3652100719
 40
0.3965415365
 40
0.4280203507
 40
0.4596361361
 40
0.4913756582
 40
0.5232231336
 40
0.5551605782
 40
0.5871681905
 40
0.6192247616
 40
0.6513081064
 40
0.6833955071
 40
0.7154641657
 40
0.7474916563
 40
0.7794563734
 40
0.811337967
 40
0.843117763
 40
0.8747791516
 40
0.9063079641
 40
0.9376927517
 40
0.9689251728
 40
1.0
 40
1.0
 40
1.0
 40
1.0
 10
9.7764632252
 20
7.0504569989
 30
0.0
 10
9.7787940719
 20
7.0527084393
 30
0.0
 10
9.7824277024
 20
7.0559492122
 30
0.0
 10
9.7875165459
 20
7.0599702969
 30
0.0
 10
9.7927674562
 20
7.0637912775
 30
0.0
 10
9.7996190276
 20
7.0681790237
 30
0.0
 10
9.8068037459
 20
7.0720170278
 30
0.0
 10
9.8127292702
 20
7.0747474186
 30
0.0
 10
9.818777217
 20
7.0772523838
 30
0.0
 10
9.8265364517
 20
7.0799459672
 30
0.0
 10
9.8360985472
 20
7.0824563289
 30
0.0
 10
9.8458692962
 20
7.0842347554
 30
0.0
 10
9.8557945518
 20
7.0852714305
 30
0.0
 10
9.8658197917
 20
7.0855608231
 30
0.0
 10
9.8758898536
 20
7.0851014598
 30
0.0
 10
9.8859493897
 20
7.0838959942
 30
0.0
 10
9.8959431267
 20
7.0819511683
 30
0.0
 10
9.9058161772
 20
7.0792777756
 30
0.0
 10
9.915514334
 20
7.0758905973
 30
0.0
 10
9.9249843646
 20
7.0718083188
 30
0.0
 10
9.9341742987
 20
7.0670534257
 30
0.0
 10
9.9430337097
 20
7.0616520799
 30
0.0
 10
9.9515139875
 20
7.0556339758
 30
0.0
 10
9.9595686022
 20
7.0490321786
 30
0.0
 10
9.9671533559
 20
7.0418829437
 30
0.0
 10
9.9742266229
 20
7.0342255191
 30
0.0
 10
9.9807495755
 20
7.0261019329
 30
0.0
 10
9.9866863954
 20
7.0175567638
 30
0.0
 10
9.992004468
 20
7.0086369006
 30
0.0
 10
9.9966745607
 20
6.9993912854
 30
0.0
 10
10.0006709815
 20
6.9898706552
 30
0.0
 10
10.0039717229
 20
6.980127243
 30
0.0
 10
10.0065585757
 20
6.9702145837
 30
0.0
 10
10.0084172445
 20
6.9601868978
 30
0.0
 10
10.0095374064
 20
6.9500999961
 30
0.0
 10
10.0097883044
 20
6.9433538602
 30
0.0
 10
10.0097883044
 20
6.9399906143
 30
0.0
  0
SPLINE
  5
2AF
100
AcDbEntity
  8
0
100
AcDbSpline
 62
7
  6
CONTINUOUS
 70
0
 71
3
 72
41
 73
37
 74
0
 42
0.0000001
 43
0.0000001
 44
0.0000000001
 40
0.0
 40
0.0
 40
0.0
 40
0.0
 40
0.029942123
 40
0.0449237706
 40
0.0599145177
 40
0.0899291716
 40
0.1200145961
 40
0.1350933574
 40
0.1501974726
 40
0.1804849654
 40
0.2108989488
 40
0.2414525624
 40
0.2721557217
 40
0.3030149378
 40
0.3340332219
 40
0.3652100719
 40
0.3965415365
 40
0.4280203507
 40
0.4596361361
 40
0.4913756582
 40
0.5232231336
 40
0.5551605782
 40
0.5871681905
 40
0.6192247616
 40
0.6513081064
 40
0.6833955071
 40
0.7154641657
 40
0.7474916563
 40
0.7794563734
 40
0.811337967
 40
0.843117763
 40
0.8747791516
 40
0.9063079641
 40
0.9376927517
 40
0.9689251728
 40
1.0
 40
1.0
 40
1.0
 40
1.0
 10
11.5267208172
 20
6.9290762226
 30
0.0
 10
11.5290516639
 20
6.931327663
 30
0.0
 10
11.5326852944
 20
6.934568436
 30
0.0
 10
11.5377741379
 20
6.9385895206
 30
0.0
 10
11.5430250482
 20
6.9424105012
 30
0.0
 10
11.5498766197
 20
6.9467982474
 30
0.0
 10
11.5570613379
 20
6.9506362515
 30
0.0
 10
11.5629868623
 20
6.9533666424
 30
0.0
 10
11.5690348091
 20
6.9558716075
 30
0.0
 10
11.5767940437
 20
6.9585651909
 30
0.0
 10
11.5863561392
 20
6.9610755526
 30
0.0
 10
11.5961268882
 20
6.9628539791
 30
0.0
 10
11.6060521438
 20
6.9638906543
 30
0.0
 10
11.6160773837
 20
6.9641800469
 30
0.0
 10
11.6261474456
 20
6.9637206835
 30
0.0
 10
11.6362069817
 20
6.9625152179
 30
0.0
 10
11.6462007187
 20
6.960570392
 30
0.0
 10
11.6560737692
 20
6.9578969993
 30
0.0
 10
11.665771926
 20
6.954509821
 30
0.0
 10
11.6752419566
 20
6.9504275425
 30
0.0
 10
11.6844318907
 20
6.9456726494
 30
0.0
 10
11.6932913017
 20
6.9402713036
 30
0.0
 10
11.7017715795
 20
6.9342531995
 30
0.0
 10
11.7098261942
 20
6.9276514024
 30
0.0
 10
11.7174109479
 20
6.9205021674
 30
0.0
 10
11.7244842149
 20
6.9128447429
 30
0.0
 10
11.7310071676
 20
6.9047211566
 30
0.0
 10
11.7369439874
 20
6.8961759876
 30
0.0
 10
11.74226206
 20
6.8872561243
 30
0.0
 10
11.7469321527
 20
6.8780105091
 30
0.0
 10
11.7509285735
 20
6.8684898789
 30
0.0
 10
11.7542293149
 20
6.8587464667
 30
0.0
 10
11.7568161678
 20
6.8488338074
 30
0.0
 10
11.7586748366
 20
6.8388061215
 30
0.0
 10
11.7597949984
 20
6.8287192198
 30
0.0
 10
11.7600458964
 20
6.821973084
 30
0.0
 10
11.7600458964
 20
6.818609838
 30
0.0
  0
SPLINE
  5
2B0
100
AcDbEntity
  8
0
100
AcDbSpline
 62
7
  6
CONTINUOUS
 70
0
 71
3
 72
41
 73
37
 74
0
 42
0.0000001
 43
0.0000001
 44
0.0000000001
 40
0.0
 40
0.0
 40
0.0
 40
0.0
 40
0.029942123
 40
0.0449237706
 40
0.0599145177
 40
0.0899291716
 40
0.1200145961
 40
0.1350933574
 40
0.1501974726
 40
0.1804849654
 40
0.2108989488
 40
0.2414525624
 40
0.2721557217
 40
0.3030149378
 40
0.3340332219
 40
0.3652100719
 40
0.3965415365
 40
0.4280203507
 40
0.4596361361
 40
0.4913756582
 40
0.5232231336
 40
0.5551605782
 40
0.5871681905
 40
0.6192247616
 40
0.6513081064
 40
0.6833955071
 40
0.7154641657
 40
0.7474916563
 40
0.7794563734
 40
0.811337967
 40
0.843117763
 40
0.8747791516
 40
0.9063079641
 40
0.9376927517
 40
0.9689251728
 40
1.0
 40
1.0
 40
1.0
 40
1.0
 10
11.5267208172
 20
8.9807028692
 30
0.0
 10
11.5290516639
 20
8.9829543097
 30
0.0
 10
11.5326852944
 20
8.9861950826
 30
0.0
 10
11.5377741379
 20
8.9902161672
 30
0.0
 10
11.5430250482
 20
8.9940371479
 30
0.0
 10
11.5498766197
 20
8.998424894
 30
0.0
 10
11.5570613379
 20
9.0022628981
 30
0.0
 10
11.5629868623
 20
9.004993289
 30
0.0
 10
11.5690348091
 20
9.0074982541
 30
0.0
 10
11.5767940437
 20
9.0101918375
 30
0.0
 10
11.5863561392
 20
9.0127021992
 30
0.0
 10
11.5961268882
 20
9.0144806257
 30
0.0
 10
11.6060521438
 20
9.0155173009
 30
0.0
 10
11.6160773837
 20
9.0158066935
 30
0.0
 10
11.6261474456
 20
9.0153473301
 30
0.0
 10
11.6362069817
 20
9.0141418645
 30
0.0
 10
11.6462007187
 20
9.0121970386
 30
0.0
 10
11.6560737692
 20
9.0095236459
 30
0.0
 10
11.665771926
 20
9.0061364676
 30
0.0
 10
11.6752419566
 20
9.0020541891
 30
0.0
 10
11.6844318907
 20
8.9972992961
 30
0.0
 10
11.6932913017
 20
8.9918979502
 30
0.0
 10
11.7017715795
 20
8.9858798462
 30
0.0
 10
11.7098261942
 20
8.979278049
 30
0.0
 10
11.7174109479
 20
8.972128814
 30
0.0
 10
11.7244842149
 20
8.9644713895
 30
0.0
 10
11.7310071676
 20
8.9563478032
 30
0.0
 10
11.7369439874
 20
8.9478026342
 30
0.0
 10
11.74226206
 20
8.9388827709
 30
0.0
 10
11.7469321527
 20
8.9296371558
 30
0.0
 10
11.7509285735
 20
8.9201165255
 30
0.0
 10
11.7542293149
 20
8.9103731133
 30
0.0
 10
11.7568161678
 20
8.900460454
 30
0.0
 10
11.7586748366
 20
8.8904327681
 30
0.0
 10
11.7597949984
 20
8.8803458664
 30
0.0
 10
11.7600458964
 20
8.8735997306
 30
0.0
 10
11.7600458964
 20
8.8702364846
 30
0.0
  0
SPLINE
  5
2B1
100
AcDbEntity
  8
0
100
AcDbSpline
 62
7
  6
CONTINUOUS
 70
0
 71
3
 72
40
 73
36
 74
0
 42
0.0000001
 43
0.0000001
 44
0.0000000001
 40
0.0
 40
0.0
 40
0.0
 40
0.0
 40
0.0299423158
 40
0.0599090077
 40
0.0899238582
 40
0.1200094808
 40
0.1501867824
 40
0.1804744762
 40
0.2108886619
 40
0.2414424788
 40
0.2721458424
 40
0.3030052635
 40
0.3340237533
 40
0.3652008096
 40
0.3965324809
 40
0.4280115022
 40
0.4596274949
 40
0.4913672243
 40
0.5232149068
 40
0.5551525579
 40
0.5871603758
 40
0.6192171517
 40
0.6513007002
 40
0.6833883037
 40
0.7154571642
 40
0.7474848559
 40
0.7794497732
 40
0.8113315672
 40
0.8431115605
 40
0.8747731555
 40
0.9063021429
 40
0.9376871976
 40
0.953325281
 40
0.9689248703
 40
1.0
 40
1.0
 40
1.0
 40
1.0
 10
10.5717342374
 20
7.6736228546
 30
0.0
 10
10.5748448
 20
7.6766274278
 30
0.0
 10
10.5813105157
 20
7.6823940927
 30
0.0
 10
10.5916696001
 20
7.6902501524
 30
0.0
 10
10.6026362459
 20
7.697272958
 30
0.0
 10
10.6141491761
 20
7.7034231136
 30
0.0
 10
10.6261450933
 20
7.7086670197
 30
0.0
 10
10.6385577934
 20
7.7129758506
 30
0.0
 10
10.651318875
 20
7.7163260311
 30
0.0
 10
10.6643580335
 20
7.7186992708
 30
0.0
 10
10.6776034779
 20
7.7200826783
 30
0.0
 10
10.6909823212
 20
7.7204688163
 30
0.0
 10
10.704420983
 20
7.719855734
 30
0.0
 10
10.7178455922
 20
7.7182469687
 30
0.0
 10
10.7311823886
 20
7.7156515188
 30
0.0
 10
10.7443581237
 20
7.712083788
 30
0.0
 10
10.7573004577
 20
7.707563502
 30
0.0
 10
10.7699383511
 20
7.7021155964
 30
0.0
 10
10.7822024488
 20
7.6957700783
 30
0.0
 10
10.794025456
 20
7.6885618617
 30
0.0
 10
10.8053425024
 20
7.6805305748
 30
0.0
 10
10.8160914936
 20
7.6717203439
 30
0.0
 10
10.8262134476
 20
7.6621795524
 30
0.0
 10
10.8356528147
 20
7.6519605776
 30
0.0
 10
10.8443577795
 20
7.6411195063
 30
0.0
 10
10.852280542
 20
7.629715829
 30
0.0
 10
10.8593775784
 20
7.6178121209
 30
0.0
 10
10.8656098773
 20
7.6054736886
 30
0.0
 10
10.8709431526
 20
7.5927682671
 30
0.0
 10
10.8753480391
 20
7.5797654653
 30
0.0
 10
10.878800207
 20
7.5665370829
 30
0.0
 10
10.8808698549
 20
7.5553708893
 30
0.0
 10
10.8820308697
 20
7.5463989954
 30
0.0
 10
10.8828594556
 20
7.5374356847
 30
0.0
 10
10.8831103428
 20
7.5306908568
 30
0.0
 10
10.8831103428
 20
7.5262025359
 30
0.0
  0
SPLINE
  5
2B2
100
AcDbEntity
  8
0
100
AcDbSpline
 62
7
  6
CONTINUOUS
 70
0
 71
3
 72
40
 73
36
 74
0
 42
0.0000001
 43
0.0000001
 44
0.0000000001
 40
0.0
 40
0.0
 40
0.0
 40
0.0
 40
0.0299423158
 40
0.0599090077
 40
0.0899238582
 40
0.1200094808
 40
0.1501867824
 40
0.1804744762
 40
0.2108886619
 40
0.2414424788
 40
0.2721458424
 40
0.3030052635
 40
0.3340237533
 40
0.3652008096
 40
0.3965324809
 40
0.4280115022
 40
0.4596274949
 40
0.4913672243
 40
0.5232149068
 40
0.5551525579
 40
0.5871603758
 40
0.6192171517
 40
0.6513007002
 40
0.6833883037
 40
0.7154571642
 40
0.7474848559
 40
0.7794497732
 40
0.8113315672
 40
0.8431115605
 40
0.8747731555
 40
0.9063021429
 40
0.9376871976
 40
0.953325281
 40
0.9689248703
 40
1.0
 40
1.0
 40
1.0
 40
1.0
 10
10.9938438835
 20
7.1304768185
 30
0.0
 10
10.9969544461
 20
7.1334813917
 30
0.0
 10
11.0034201618
 20
7.1392480566
 30
0.0
 10
11.0137792462
 20
7.1471041163
 30
0.0
 10
11.024745892
 20
7.1541269219
 30
0.0
 10
11.0362588222
 20
7.1602770775
 30
0.0
 10
11.0482547394
 20
7.1655209836
 30
0.0
 10
11.0606674395
 20
7.1698298145
 30
0.0
 10
11.0734285211
 20
7.1731799951
 30
0.0
 10
11.0864676796
 20
7.1755532347
 30
0.0
 10
11.099713124
 20
7.1769366422
 30
0.0
 10
11.1130919673
 20
7.1773227802
 30
0.0
 10
11.1265306292
 20
7.1767096979
 30
0.0
 10
11.1399552383
 20
7.1751009326
 30
0.0
 10
11.1532920347
 20
7.1725054827
 30
0.0
 10
11.1664677698
 20
7.168937752
 30
0.0
 10
11.1794101038
 20
7.1644174659
 30
0.0
 10
11.1920479972
 20
7.1589695603
 30
0.0
 10
11.2043120949
 20
7.1526240422
 30
0.0
 10
11.2161351021
 20
7.1454158256
 30
0.0
 10
11.2274521485
 20
7.1373845388
 30
0.0
 10
11.2382011397
 20
7.1285743079
 30
0.0
 10
11.2483230937
 20
7.1190335163
 30
0.0
 10
11.2577624608
 20
7.1088145415
 30
0.0
 10
11.2664674256
 20
7.0979734702
 30
0.0
 10
11.2743901882
 20
7.0865697929
 30
0.0
 10
11.2814872245
 20
7.0746660849
 30
0.0
 10
11.2877195234
 20
7.0623276525
 30
0.0
 10
11.2930527987
 20
7.0496222311
 30
0.0
 10
11.2974576852
 20
7.0366194292
 30
0.0
 10
11.3009098531
 20
7.0233910468
 30
0.0
 10
11.302979501
 20
7.0122248533
 30
0.0
 10
11.3041405158
 20
7.0032529594
 30
0.0
 10
11.3049691017
 20
6.9942896486
 30
0.0
 10
11.3052199889
 20
6.9875448207
 30
0.0
 10
11.3052199889
 20
6.9830564999
 30
0.0
  0
SPLINE
  5
2B3
100
AcDbEntity
  8
0
100
AcDbSpline
 62
7
  6
CONTINUOUS
 70
0
 71
3
 72
15
 73
11
 74
0
 42
0.0000001
 43
0.0000001
 44
0.0000000001
 40
0.0
 40
0.0
 40
0.0
 40
0.0
 40
0.1273482789
 40
0.2538606571
 40
0.3795878378
 40
0.5046051156
 40
0.629017439
 40
0.7529533823
 40
0.8765605864
 40
1.0
 40
1.0
 40
1.0
 40
1.0
 10
11.4886207232
 20
8.8890598843
 30
0.0
 10
11.4886207232
 20
8.8933869681
 30
0.0
 10
11.4890338735
 20
8.9020187148
 30
0.0
 10
11.4909022781
 20
8.9148003169
 30
0.0
 10
11.4940004173
 20
8.9272607716
 30
0.0
 10
11.4983003052
 20
8.9392835439
 30
0.0
 10
11.5037625054
 20
8.9507577605
 30
0.0
 10
11.5103371897
 20
8.961577482
 30
0.0
 10
11.5179625591
 20
8.9716413269
 30
0.0
 10
11.5237040814
 20
8.9777889062
 30
0.0
 10
11.5267208172
 20
8.9807028692
 30
0.0
  0
SPLINE
  5
2B4
100
AcDbEntity
  8
0
100
AcDbSpline
 62
7
  6
CONTINUOUS
 70
0
 71
3
 72
15
 73
11
 74
0
 42
0.0000001
 43
0.0000001
 44
0.0000000001
 40
0.0
 40
0.0
 40
0.0
 40
0.0
 40
0.1273482789
 40
0.2538606571
 40
0.3795878378
 40
0.5046051156
 40
0.629017439
 40
0.7529533823
 40
0.8765605864
 40
1.0
 40
1.0
 40
1.0
 40
1.0
 10
9.7383631311
 20
9.0104406606
 30
0.0
 10
9.7383631311
 20
9.0147677443
 30
0.0
 10
9.7387762815
 20
9.0233994911
 30
0.0
 10
9.7406446861
 20
9.0361810931
 30
0.0
 10
9.7437428253
 20
9.0486415478
 30
0.0
 10
9.7480427131
 20
9.0606643202
 30
0.0
 10
9.7535049134
 20
9.0721385367
 30
0.0
 10
9.7600795977
 20
9.0829582583
 30
0.0
 10
9.7677049671
 20
9.0930221031
 30
0.0
 10
9.7734464894
 20
9.0991696825
 30
0.0
 10
9.7764632252
 20
9.1020836455
 30
0.0
  0
SPLINE
  5
2B5
100
AcDbEntity
  8
0
100
AcDbSpline
 62
7
  6
CONTINUOUS
 70
0
 71
3
 72
21
 73
17
 74
0
 42
0.0000001
 43
0.0000001
 44
0.0000000001
 40
0.0
 40
0.0
 40
0.0
 40
0.0
 40
0.1273176366
 40
0.2537999756
 40
0.3167619475
 40
0.3795355041
 40
0.4421314991
 40
0.5045621439
 40
0.5668413432
 40
0.6289845283
 40
0.6910084528
 40
0.7529310935
 40
0.8147714495
 40
0.8765493365
 40
0.9382852194
 40
1.0
 40
1.0
 40
1.0
 40
1.0
 10
10.5208881364
 20
7.5513227313
 30
0.0
 10
10.5208881364
 20
7.5570973496
 30
0.0
 10
10.5214393619
 20
7.5686161333
 30
0.0
 10
10.5235211613
 20
7.5828558387
 30
0.0
 10
10.5260093747
 20
7.5940256428
 30
0.0
 10
10.5282784915
 20
7.6022644943
 30
0.0
 10
10.5309479547
 20
7.6103569551
 30
0.0
 10
10.5340116478
 20
7.6182845857
 30
0.0
 10
10.5374624844
 20
7.6260290572
 30
0.0
 10
10.5412925549
 20
7.6335725097
 30
0.0
 10
10.545493049
 20
7.6408975289
 30
0.0
 10
10.5500542553
 20
7.6479872439
 30
0.0
 10
10.5549656677
 20
7.6548252738
 30
0.0
 10
10.5602160462
 20
7.6613958754
 30
0.0
 10
10.565793036
 20
7.6676837169
 30
0.0
 10
10.5697209465
 20
7.6716781646
 30
0.0
 10
10.5717342374
 20
7.6736228546
 30
0.0
  0
SPLINE
  5
2B6
100
AcDbEntity
  8
0
100
AcDbSpline
 62
7
  6
CONTINUOUS
 70
0
 71
3
 72
21
 73
17
 74
0
 42
0.0000001
 43
0.0000001
 44
0.0000000001
 40
0.0
 40
0.0
 40
0.0
 40
0.0
 40
0.1273176366
 40
0.2537999756
 40
0.3167619475
 40
0.3795355041
 40
0.4421314991
 40
0.5045621439
 40
0.5668413432
 40
0.6289845283
 40
0.6910084528
 40
0.7529310935
 40
0.8147714495
 40
0.8765493365
 40
0.9382852194
 40
1.0
 40
1.0
 40
1.0
 40
1.0
 10
10.9429977825
 20
7.0081766952
 30
0.0
 10
10.9429977825
 20
7.0139513136
 30
0.0
 10
10.943549008
 20
7.0254700973
 30
0.0
 10
10.9456308074
 20
7.0397098027
 30
0.0
 10
10.9481190208
 20
7.0508796068
 30
0.0
 10
10.9503881376
 20
7.0591184583
 30
0.0
 10
10.9530576008
 20
7.067210919
 30
0.0
 10
10.9561212939
 20
7.0751385497
 30
0.0
 10
10.9595721305
 20
7.0828830212
 30
0.0
 10
10.963402201
 20
7.0904264736
 30
0.0
 10
10.9676026951
 20
7.0977514928
 30
0.0
 10
10.9721639014
 20
7.1048412079
 30
0.0
 10
10.9770753138
 20
7.1116792377
 30
0.0
 10
10.9823256924
 20
7.1182498394
 30
0.0
 10
10.9879026821
 20
7.1245376809
 30
0.0
 10
10.9918305926
 20
7.1285321286
 30
0.0
 10
10.9938438835
 20
7.1304768185
 30
0.0
  0
SPLINE
  5
2B7
100
AcDbEntity
  8
0
100
AcDbSpline
 62
7
  6
CONTINUOUS
 70
0
 71
3
 72
90
 73
86
 74
0
 42
0.0000001
 43
0.0000001
 44
0.0000000001
 40
0.0
 40
0.0
 40
0.0
 40
0.0
 40
0.0039801734
 40
0.0081241052
 40
0.0124359616
 40
0.0169193135
 40
0.0215771815
 40
0.0264119171
 40
0.0314251791
 40
0.0366181551
 40
0.0419915397
 40
0.047545654
 40
0.0532804223
 40
0.0591954139
 40
0.0652899192
 40
0.0715628971
 40
0.08463856
 40
0.0984098622
 40
0.1128604225
 40
0.1279709368
 40
0.1437195167
 40
0.1600819662
 40
0.1770320115
 40
0.1945414958
 40
0.2125805581
 40
0.2311177886
 40
0.2501203685
 40
0.2695542002
 40
0.2893840278
 40
0.3095735514
 40
0.3300855399
 40
0.3508819414
 40
0.3719239887
 40
0.3931723021
 40
0.4145869913
 40
0.4361277558
 40
0.4577539862
 40
0.4794248651
 40
0.5010994671
 40
0.5227368581
 40
0.5442961936
 40
0.5657368187
 40
0.5870183693
 40
0.6081008732
 40
0.6289448503
 40
0.6495114141
 40
0.6697623751
 40
0.6896603446
 40
0.7091688452
 40
0.7282524229
 40
0.7468767607
 40
0.7650087978
 40
0.7826168578
 40
0.7996707871
 40
0.8161421063
 40
0.8320041856
 40
0.8472324355
 40
0.8618045284
 40
0.8757006673
 40
0.8889039105
 40
0.8952415029
 40
0.9014010575
 40
0.9073814349
 40
0.9131818212
 40
0.9188016688
 40
0.9242407739
 40
0.9294993077
 40
0.9345778094
 40
0.9394773131
 40
0.9441992992
 40
0.948745847
 40
0.9531196365
 40
0.9573240498
 40
0.9613632821
 40
0.9652423783
 40
0.968967428
 40
0.9725455945
 40
0.9759853044
 40
0.9824864771
 40
0.9855753379
 40
0.9885738066
 40
0.9914977312
 40
0.994364333
 40
0.997192009
 40
1.0
 40
1.0
 40
1.0
 40
1.0
 10
10.3252339381
 20
10.3833342515
 30
0.0
 10
10.3263034406
 20
10.3843673117
 30
0.0
 10
10.3285350182
 20
10.3864261278
 30
0.0
 10
10.3320780797
 20
10.3894331875
 30
0.0
 10
10.3358813232
 20
10.3924186828
 30
0.0
 10
10.3399426615
 20
10.3953810176
 30
0.0
 10
10.3442601079
 20
10.3983188153
 30
0.0
 10
10.3488315543
 20
10.4012306391
 30
0.0
 10
10.3536547114
 20
10.4041151042
 30
0.0
 10
10.3587271884
 20
10.406970709
 30
0.0
 10
10.3640464238
 20
10.4097960775
 30
0.0
 10
10.3696097687
 20
10.4125897686
 30
0.0
 10
10.375414433
 20
10.4153503905
 30
0.0
 10
10.3814574964
 20
10.4180765658
 30
0.0
 10
10.3877359392
 20
10.4207669057
 30
0.0
 10
10.3965388648
 20
10.4243541296
 30
0.0
 10
10.4081154526
 20
10.4287290921
 30
0.0
 10
10.4227078719
 20
10.4337450506
 30
0.0
 10
10.4381574235
 20
10.4385868474
 30
0.0
 10
10.454432957
 20
10.443244642
 30
0.0
 10
10.4715017996
 20
10.4477089541
 30
0.0
 10
10.4893295691
 20
10.4519706906
 30
0.0
 10
10.5078803268
 20
10.4560211685
 30
0.0
 10
10.5271166358
 20
10.4598521384
 30
0.0
 10
10.5469996507
 20
10.463455798
 30
0.0
 10
10.5674892012
 20
10.4668248088
 30
0.0
 10
10.5885438772
 20
10.469952311
 30
0.0
 10
10.6101211148
 20
10.4728319377
 30
0.0
 10
10.6321772829
 20
10.4754578265
 30
0.0
 10
10.6546677723
 20
10.4778246351
 30
0.0
 10
10.6775470884
 20
10.4799275503
 30
0.0
 10
10.7007689456
 20
10.4817622954
 30
0.0
 10
10.7242863627
 20
10.4833251393
 30
0.0
 10
10.7480517575
 20
10.4846129036
 30
0.0
 10
10.7720170435
 20
10.4856229686
 30
0.0
 10
10.7961337272
 20
10.4863532796
 30
0.0
 10
10.8203530069
 20
10.4868023539
 30
0.0
 10
10.8446258728
 20
10.4869692796
 30
0.0
 10
10.8689032069
 20
10.4868537177
 30
0.0
 10
10.8931358821
 20
10.4864559027
 30
0.0
 10
10.9172748614
 20
10.4857766426
 30
0.0
 10
10.9412712978
 20
10.4848173162
 30
0.0
 10
10.9650766344
 20
10.4835798747
 30
0.0
 10
10.9886427036
 20
10.4820668356
 30
0.0
 10
11.0119218241
 20
10.480281276
 30
0.0
 10
11.0348668984
 20
10.4782268269
 30
0.0
 10
11.0574315071
 20
10.4759076665
 30
0.0
 10
11.0795700047
 20
10.4733285108
 30
0.0
 10
11.1012376142
 20
10.4704946066
 30
0.0
 10
11.12239052
 20
10.4674117231
 30
0.0
 10
11.1429859576
 20
10.4640861361
 30
0.0
 10
11.1629823006
 20
10.4605246168
 30
0.0
 10
11.1823391467
 20
10.4567344176
 30
0.0
 10
11.2010174032
 20
10.4527232577
 30
0.0
 10
11.2189793706
 20
10.448499306
 30
0.0
 10
11.2361888329
 20
10.4440711688
 30
0.0
 10
11.2526111164
 20
10.439447866
 30
0.0
 10
11.2682132407
 20
10.4346388094
 30
0.0
 10
11.2829637403
 20
10.4296537752
 30
0.0
 10
11.2946762042
 20
10.4253040918
 30
0.0
 10
11.3035905931
 20
10.4217362608
 30
0.0
 10
11.3099538644
 20
10.4190592915
 30
0.0
 10
11.3160828911
 20
10.41634599
 30
0.0
 10
11.3219746102
 20
10.4135977417
 30
0.0
 10
11.3276260554
 20
10.4108159139
 30
0.0
 10
11.3330343901
 20
10.4080019001
 30
0.0
 10
11.3381969164
 20
10.4051571372
 30
0.0
 10
11.3431110328
 20
10.4022829983
 30
0.0
 10
11.3477743105
 20
10.3993809678
 30
0.0
 10
11.3521844015
 20
10.3964524274
 30
0.0
 10
11.3563391281
 20
10.3934988503
 30
0.0
 10
11.3602364209
 20
10.3905216635
 30
0.0
 10
11.3638743295
 20
10.3875222809
 30
0.0
 10
11.3672510665
 20
10.3845021808
 30
0.0
 10
11.3703649127
 20
10.3814626921
 30
0.0
 10
11.3732142712
 20
10.3784053855
 30
0.0
 10
11.3757978624
 20
10.3753312389
 30
0.0
 10
11.3788286934
 20
10.3712891213
 30
0.0
 10
11.3814023409
 20
10.3671380291
 30
0.0
 10
11.3834457336
 20
10.3628983161
 30
0.0
 10
11.3846803245
 20
10.3597627218
 30
0.0
 10
11.3856417771
 20
10.356619509
 30
0.0
 10
11.3863292403
 20
10.353470184
 30
0.0
 10
11.3867420137
 20
10.3503170078
 30
0.0
 10
11.386833911
 20
10.3482104361
 30
0.0
 10
11.386833914
 20
10.3471613941
 30
0.0
  0
SPLINE
  5
2B8
100
AcDbEntity
  8
0
100
AcDbSpline
 62
7
  6
CONTINUOUS
 70
0
 71
3
 72
40
 73
36
 74
0
 42
0.0000001
 43
0.0000001
 44
0.0000000001
 40
0.0
 40
0.0
 40
0.0
 40
0.0
 40
0.0958313936
 40
0.1891002636
 40
0.2345968559
 40
0.2792418231
 40
0.3229685191
 40
0.3657121987
 40
0.4074103657
 40
0.4480029213
 40
0.4874324913
 40
0.5256446262
 40
0.5625879545
 40
0.5982146421
 40
0.632480706
 40
0.6653462654
 40
0.6967761768
 40
0.726740613
 40
0.7552155871
 40
0.7821839784
 40
0.8076366943
 40
0.8315738914
 40
0.8540069425
 40
0.8749609194
 40
0.8944774765
 40
0.9126189061
 40
0.9294731629
 40
0.9451593854
 40
0.9598338584
 40
0.9668558876
 40
0.9737029112
 40
0.9804063068
 40
0.9869997133
 40
0.9935186461
 40
1.0
 40
1.0
 40
1.0
 40
1.0
 10
9.9680479103
 20
9.4218746475
 30
0.0
 10
9.9582806194
 20
9.4225520114
 30
0.0
 10
9.9390213725
 20
9.4241034714
 30
0.0
 10
9.9151804001
 20
9.4265914093
 30
0.0
 10
9.8965830554
 20
9.4288898552
 30
0.0
 10
9.8830321027
 20
9.4307443009
 30
0.0
 10
9.8697856456
 20
9.432740413
 30
0.0
 10
9.8568657898
 20
9.4348748519
 30
0.0
 10
9.8442941281
 20
9.4371440158
 30
0.0
 10
9.8320916632
 20
9.4395441079
 30
0.0
 10
9.8202787671
 20
9.4420710844
 30
0.0
 10
9.808875152
 20
9.4447206841
 30
0.0
 10
9.797899843
 20
9.4474884687
 30
0.0
 10
9.7873711297
 20
9.4503697801
 30
0.0
 10
9.777306535
 20
9.4533597591
 30
0.0
 10
9.7677227964
 20
9.4564534001
 30
0.0
 10
9.7586358166
 20
9.4596455136
 30
0.0
 10
9.750060627
 20
9.4629307352
 30
0.0
 10
9.742011378
 20
9.4663035994
 30
0.0
 10
9.7345012889
 20
9.4697585167
 30
0.0
 10
9.7275426024
 20
9.4732897809
 30
0.0
 10
9.7211465904
 20
9.4768916783
 30
0.0
 10
9.7153235163
 20
9.4805585089
 30
0.0
 10
9.7100826018
 20
9.4842846147
 30
0.0
 10
9.7054321022
 20
9.4880645959
 30
0.0
 10
9.7013794369
 20
9.4918933069
 30
0.0
 10
9.6979312397
 20
9.4957662408
 30
0.0
 10
9.6950942164
 20
9.4996784897
 30
0.0
 10
9.6932177158
 20
9.5030173717
 30
0.0
 10
9.6920479444
 20
9.5056908131
 30
0.0
 10
9.6913397278
 20
9.5076716259
 30
0.0
 10
9.6907883639
 20
9.5096563387
 30
0.0
 10
9.6903941992
 20
9.5116441379
 30
0.0
 10
9.6901576144
 20
9.5136338779
 30
0.0
 10
9.6901049797
 20
9.5149626633
 30
0.0
 10
9.6901049831
 20
9.51562484
 30
0.0
  0
SPLINE
  5
2B9
100
AcDbEntity
  8
0
100
AcDbSpline
 62
7
  6
CONTINUOUS
 70
0
 71
3
 72
41
 73
37
 74
0
 42
0.0000001
 43
0.0000001
 44
0.0000000001
 40
0.0
 40
0.0
 40
0.0
 40
0.0
 40
0.0071758425
 40
0.0146741453
 40
0.0225035656
 40
0.0306713257
 40
0.0391834036
 40
0.0480443729
 40
0.0572572157
 40
0.0668238661
 40
0.0767452117
 40
0.087021259
 40
0.0976512753
 40
0.1086336553
 40
0.1316452786
 40
0.1560326285
 40
0.1817628121
 40
0.2087958578
 40
0.2370856249
 40
0.2665805114
 40
0.2972240455
 40
0.3289554128
 40
0.3617098907
 40
0.3954192316
 40
0.4300120033
 40
0.4654138991
 40
0.5015480605
 40
0.5383353682
 40
0.5756947176
 40
0.6135432851
 40
0.6517967846
 40
0.6903697386
 40
0.7681261117
 40
0.8461161118
 40
0.923638923
 40
1.0
 40
1.0
 40
1.0
 40
1.0
 10
11.9969567391
 20
9.3816502006
 30
0.0
 10
11.9961450351
 20
9.3808661546
 30
0.0
 10
11.9944447851
 20
9.379304204
 30
0.0
 10
11.9917330686
 20
9.3770284558
 30
0.0
 10
11.9888066672
 20
9.3747707674
 30
0.0
 10
11.9856674854
 20
9.3725325928
 30
0.0
 10
11.9823173621
 20
9.3703151456
 30
0.0
 10
11.9787582234
 20
9.3681197302
 30
0.0
 10
11.9749921887
 20
9.3659475677
 30
0.0
 10
11.9710214781
 20
9.3638000005
 30
0.0
 10
11.9668484659
 20
9.3616782878
 30
0.0
 10
11.9624756411
 20
9.3595836829
 30
0.0
 10
11.9579055906
 20
9.3575174512
 30
0.0
 10
11.9514520608
 20
9.354758905
 30
0.0
 10
11.9429046488
 20
9.3513996533
 30
0.0
 10
11.932061187
 20
9.3475610951
 30
0.0
 10
11.9205029538
 20
9.3438640741
 30
0.0
 10
11.9082576328
 20
9.340317533
 30
0.0
 10
11.895354421
 20
9.3369300726
 30
0.0
 10
11.8818242195
 20
9.3337099131
 30
0.0
 10
11.8676994676
 20
9.3306648656
 30
0.0
 10
11.8530140722
 20
9.3278023201
 30
0.0
 10
11.8378033098
 20
9.3251292234
 30
0.0
 10
11.8221037395
 20
9.3226520622
 30
0.0
 10
11.8059531144
 20
9.3203768483
 30
0.0
 10
11.7893902888
 20
9.3183090944
 30
0.0
 10
11.7724551191
 20
9.316453811
 30
0.0
 10
11.755188364
 20
9.3148154941
 30
0.0
 10
11.7376315817
 20
9.3133981125
 30
0.0
 10
11.719827046
 20
9.3122051097
 30
0.0
 10
11.7018175882
 20
9.3112393492
 30
0.0
 10
11.6775259084
 20
9.3102553101
 30
0.0
 10
11.6469687619
 20
9.3096098371
 30
0.0
 10
11.6102792782
 20
9.3097645062
 30
0.0
 10
11.5738249935
 20
9.3108450106
 30
0.0
 10
11.5496579004
 20
9.3121896221
 30
0.0
 10
11.537677471
 20
9.3130204677
 30
0.0
  0
SPLINE
  5
2BA
100
AcDbEntity
  8
0
100
AcDbSpline
 62
7
  6
CONTINUOUS
 70
0
 71
3
 72
18
 73
14
 74
0
 42
0.0000001
 43
0.0000001
 44
0.0000000001
 40
0.0
 40
0.0
 40
0.0
 40
0.0
 40
0.0548620934
 40
0.1099281175
 40
0.1653995415
 40
0.2214731583
 40
0.2783387419
 40
0.3361775034
 40
0.4554063124
 40
0.5804415574
 40
0.7123342032
 40
0.8519579354
 40
1.0
 40
1.0
 40
1.0
 40
1.0
 10
10.3068339164
 20
10.3471609463
 30
0.0
 10
10.3068339141
 20
10.3479235816
 30
0.0
 10
10.3068823179
 20
10.3494521249
 30
0.0
 10
10.3070999465
 20
10.3517424544
 30
0.0
 10
10.3074625571
 20
10.3540314636
 30
0.0
 10
10.3079700274
 20
10.3563183159
 30
0.0
 10
10.308622147
 20
10.3586024377
 30
0.0
 10
10.3096947501
 20
10.3616739677
 30
0.0
 10
10.3114130503
 20
10.3655156269
 30
0.0
 10
10.314028413
 20
10.3700526443
 30
0.0
 10
10.3172137933
 20
10.3745602975
 30
0.0
 10
10.3209643437
 20
10.3790340538
 30
0.0
 10
10.3237537658
 20
10.3819045148
 30
0.0
 10
10.3252339381
 20
10.3833342515
 30
0.0
  0
SPLINE
  5
2BB
100
AcDbEntity
  8
0
100
AcDbSpline
 62
7
  6
CONTINUOUS
 70
0
 71
3
 72
54
 73
50
 74
0
 42
0.0000001
 43
0.0000001
 44
0.0000000001
 40
0.0
 40
0.0
 40
0.0
 40
0.0
 40
0.052784991
 40
0.1048060923
 40
0.1559445044
 40
0.2060905216
 40
0.2551340321
 40
0.3029694639
 40
0.3494949945
 40
0.3946130603
 40
0.438230921
 40
0.4802611185
 40
0.5206221511
 40
0.559239105
 40
0.5960444107
 40
0.6309787921
 40
0.663992489
 40
0.6950468015
 40
0.709831479
 40
0.7241178387
 40
0.7379051855
 40
0.751193962
 40
0.7639858374
 40
0.7762841535
 40
0.7880937245
 40
0.7994213683
 40
0.8102760565
 40
0.8206690605
 40
0.830614617
 40
0.8401299511
 40
0.8492359035
 40
0.8579573592
 40
0.8663234793
 40
0.8743683592
 40
0.8821310443
 40
0.8896557027
 40
0.8969914552
 40
0.9041916844
 40
0.9113132101
 40
0.9184149027
 40
0.9255561887
 40
0.9327954181
 40
0.9401884307
 40
0.9477872381
 40
0.9637758035
 40
0.972256837
 40
0.9811038595
 40
0.9903441354
 40
1.0
 40
1.0
 40
1.0
 40
1.0
 10
9.976071294
 20
10.1540690542
 30
0.0
 10
9.9706697356
 20
10.1544436535
 30
0.0
 10
9.9599496387
 20
10.1552595977
 30
0.0
 10
9.9440173489
 20
10.1566952813
 30
0.0
 10
9.9283764752
 20
10.1583313074
 30
0.0
 10
9.9130649242
 20
10.1601636295
 30
0.0
 10
9.8981193528
 20
10.1621878655
 30
0.0
 10
9.8835757917
 20
10.1643990884
 30
0.0
 10
9.8694691992
 20
10.1667919331
 30
0.0
 10
9.855833487
 20
10.169360596
 30
0.0
 10
9.8427014239
 20
10.1720988436
 30
0.0
 10
9.8301045428
 20
10.1750000385
 30
0.0
 10
9.8180730574
 20
10.1780571337
 30
0.0
 10
9.806635776
 20
10.1812627074
 30
0.0
 10
9.7958200538
 20
10.1846089849
 30
0.0
 10
9.7856516311
 20
10.1880878716
 30
0.0
 10
9.7761548276
 20
10.1916909626
 30
0.0
 10
9.7687016529
 20
10.1948393025
 30
0.0
 10
9.7630998701
 20
10.1974206421
 30
0.0
 10
9.759149363
 20
10.1993505291
 30
0.0
 10
9.7553829341
 20
10.2013048824
 30
0.0
 10
9.7518028123
 20
10.2032825517
 30
0.0
 10
9.748411145
 20
10.2052824032
 30
0.0
 10
9.7452099146
 20
10.2073032039
 30
0.0
 10
9.742201034
 20
10.2093438172
 30
0.0
 10
9.739386275
 20
10.2114030501
 30
0.0
 10
9.7367672769
 20
10.2134796969
 30
0.0
 10
9.7343456265
 20
10.2155726443
 30
0.0
 10
9.7321227176
 20
10.2176806726
 30
0.0
 10
9.7300999093
 20
10.2198026715
 30
0.0
 10
9.7282784553
 20
10.2219375134
 30
0.0
 10
9.7266594705
 20
10.2240840378
 30
0.0
 10
9.7252441248
 20
10.2262411837
 30
0.0
 10
9.7240334012
 20
10.2284077649
 30
0.0
 10
9.7230283189
 20
10.2305826185
 30
0.0
 10
9.722229864
 20
10.2327644868
 30
0.0
 10
9.721638813
 20
10.2349519502
 30
0.0
 10
9.7212559961
 20
10.2371435002
 30
0.0
 10
9.7210818648
 20
10.2393374327
 30
0.0
 10
9.7211166729
 20
10.2415319719
 30
0.0
 10
9.7213604423
 20
10.2437253051
 30
0.0
 10
9.7218127019
 20
10.2459156601
 30
0.0
 10
9.7224730337
 20
10.2481015035
 30
0.0
 10
9.7236491871
 20
10.2510571174
 30
0.0
 10
9.7252370497
 20
10.2539548358
 30
0.0
 10
9.7271764383
 20
10.2567704782
 30
0.0
 10
9.7288632233
 20
10.2589135177
 30
0.0
 10
9.7307518835
 20
10.2610440896
 30
0.0
 10
9.7321140675
 20
10.2624244546
 30
0.0
 10
9.7328264682
 20
10.2631125808
 30
0.0
  0
SPLINE
  5
2BC
100
AcDbEntity
  8
0
100
AcDbSpline
 62
7
  6
CONTINUOUS
 70
0
 71
3
 72
40
 73
36
 74
0
 42
0.0000001
 43
0.0000001
 44
0.0000000001
 40
0.0
 40
0.0
 40
0.0
 40
0.0
 40
0.0958312793
 40
0.1891000446
 40
0.2345965891
 40
0.279241512
 40
0.3229681675
 40
0.3657118109
 40
0.4074099461
 40
0.4480024746
 40
0.4874320226
 40
0.5256441407
 40
0.5625874576
 40
0.5982141394
 40
0.6324802032
 40
0.6653457683
 40
0.6967756912
 40
0.7267401448
 40
0.7552151418
 40
0.7821835616
 40
0.8076363113
 40
0.8315735468
 40
0.8540066404
 40
0.8749606632
 40
0.8944772684
 40
0.9126187468
 40
0.9294730511
 40
0.9451593172
 40
0.9598338268
 40
0.9668558706
 40
0.9737029056
 40
0.980406309
 40
0.9869997194
 40
0.9935186515
 40
1.0
 40
1.0
 40
1.0
 40
1.0
 10
9.9680479103
 20
10.1163753577
 30
0.0
 10
9.9582806395
 20
10.1170527203
 30
0.0
 10
9.9390214315
 20
10.1186041767
 30
0.0
 10
9.9151805065
 20
10.1210921078
 30
0.0
 10
9.8965831975
 20
10.1233905471
 30
0.0
 10
9.8830322696
 20
10.1252449873
 30
0.0
 10
9.8697858358
 20
10.1272410933
 30
0.0
 10
9.8568660016
 20
10.1293755257
 30
0.0
 10
9.8442943597
 20
10.1316446825
 30
0.0
 10
9.8320919126
 20
10.1340447671
 30
0.0
 10
9.8202790324
 20
10.1365717357
 30
0.0
 10
9.808875431
 20
10.139221327
 30
0.0
 10
9.7979001333
 20
10.1419891029
 30
0.0
 10
9.7873714292
 20
10.1448704052
 30
0.0
 10
9.7773068412
 20
10.1478603747
 30
0.0
 10
9.7677231068
 20
10.1509540061
 30
0.0
 10
9.7586361285
 20
10.1541461097
 30
0.0
 10
9.7500609378
 20
10.1574313211
 30
0.0
 10
9.7420116851
 20
10.1608041752
 30
0.0
 10
9.7345015895
 20
10.1642590821
 30
0.0
 10
9.7275428938
 20
10.1677903358
 30
0.0
 10
9.7211468697
 20
10.1713922227
 30
0.0
 10
9.7153237807
 20
10.1750590428
 30
0.0
 10
9.7100828485
 20
10.1787851381
 30
0.0
 10
9.7054323283
 20
10.1825651089
 30
0.0
 10
9.7013796397
 20
10.1863938094
 30
0.0
 10
9.6979314162
 20
10.1902667329
 30
0.0
 10
9.6950943638
 20
10.1941789716
 30
0.0
 10
9.6932178358
 20
10.1975178452
 30
0.0
 10
9.692048041
 20
10.2001912806
 30
0.0
 10
9.6913398065
 20
10.2021720887
 30
0.0
 10
9.690788424
 20
10.2041567969
 30
0.0
 10
9.69039424
 20
10.2061445917
 30
0.0
 10
9.6901576351
 20
10.2081343273
 30
0.0
 10
9.6901049867
 20
10.2094631103
 30
0.0
 10
9.6901049831
 20
10.2101252859
 30
0.0
  0
SPLINE
  5
2BD
100
AcDbEntity
  8
0
100
AcDbSpline
 62
7
  6
CONTINUOUS
 70
0
 71
3
 72
15
 73
11
 74
0
 42
0.0000001
 43
0.0000001
 44
0.0000000001
 40
0.0
 40
0.0
 40
0.0
 40
0.0
 40
0.1273482789
 40
0.2538606571
 40
0.3795878378
 40
0.5046051156
 40
0.629017439
 40
0.7529533823
 40
0.8765605864
 40
1.0
 40
1.0
 40
1.0
 40
1.0
 10
9.7383631311
 20
6.958814014
 30
0.0
 10
9.7383631311
 20
6.9631410977
 30
0.0
 10
9.7387762815
 20
6.9717728445
 30
0.0
 10
9.7406446861
 20
6.9845544465
 30
0.0
 10
9.7437428253
 20
6.9970149012
 30
0.0
 10
9.7480427131
 20
7.0090376735
 30
0.0
 10
9.7535049134
 20
7.0205118901
 30
0.0
 10
9.7600795977
 20
7.0313316117
 30
0.0
 10
9.7677049671
 20
7.0413954565
 30
0.0
 10
9.7734464894
 20
7.0475430359
 30
0.0
 10
9.7764632252
 20
7.0504569989
 30
0.0
  0
SPLINE
  5
2BE
100
AcDbEntity
  8
0
100
AcDbSpline
 62
7
  6
CONTINUOUS
 70
0
 71
3
 72
11
 73
7
 74
0
 42
0.0000001
 43
0.0000001
 44
0.0000000001
 40
0.0
 40
0.0
 40
0.0
 40
0.0
 40
0.2754979081
 40
0.5326127456
 40
0.7732794988
 40
1.0
 40
1.0
 40
1.0
 40
1.0
 10
10.3252339381
 20
10.3533905496
 30
0.0
 10
10.3234917194
 20
10.3517076954
 30
0.0
 10
10.3202425538
 20
10.3483268801
 30
0.0
 10
10.3159778228
 20
10.3430189068
 30
0.0
 10
10.3125064201
 20
10.3376639092
 30
0.0
 10
10.3106791429
 20
10.3339693554
 30
0.0
 10
10.3099157449
 20
10.3321279343
 30
0.0
  0
SPLINE
  5
2BF
100
AcDbEntity
  8
0
100
AcDbSpline
 62
7
  6
CONTINUOUS
 70
0
 71
3
 72
15
 73
11
 74
0
 42
0.0000001
 43
0.0000001
 44
0.0000000001
 40
0.0
 40
0.0
 40
0.0
 40
0.0
 40
0.1273482789
 40
0.2538606571
 40
0.3795878378
 40
0.5046051156
 40
0.629017439
 40
0.7529533823
 40
0.8765605864
 40
1.0
 40
1.0
 40
1.0
 40
1.0
 10
11.4886207232
 20
6.8374332377
 30
0.0
 10
11.4886207232
 20
6.8417603214
 30
0.0
 10
11.4890338735
 20
6.8503920682
 30
0.0
 10
11.4909022781
 20
6.8631736702
 30
0.0
 10
11.4940004173
 20
6.875634125
 30
0.0
 10
11.4983003052
 20
6.8876568973
 30
0.0
 10
11.5037625054
 20
6.8991311138
 30
0.0
 10
11.5103371897
 20
6.9099508354
 30
0.0
 10
11.5179625591
 20
6.9200146803
 30
0.0
 10
11.5237040814
 20
6.9261622596
 30
0.0
 10
11.5267208172
 20
6.9290762226
 30
0.0
  0
SPLINE
  5
2C0
100
AcDbEntity
  8
0
100
AcDbSpline
 62
7
  6
CONTINUOUS
 70
0
 71
3
 72
83
 73
79
 74
0
 42
0.0000001
 43
0.0000001
 44
0.0000000001
 40
0.0
 40
0.0
 40
0.0
 40
0.0
 40
0.0038825998
 40
0.0079189821
 40
0.0121129499
 40
0.0164677675
 40
0.0209862331
 40
0.0256705984
 40
0.0305224733
 40
0.0355430286
 40
0.0407330189
 40
0.0460928204
 40
0.051622512
 40
0.0573218054
 40
0.0692263395
 40
0.0817996275
 40
0.095030798
 40
0.1089059389
 40
0.1234084767
 40
0.1385194715
 40
0.1542178806
 40
0.1704807704
 40
0.187283494
 40
0.204599842
 40
0.2224021716
 40
0.2406615418
 40
0.2593478298
 40
0.2784298357
 40
0.2978753801
 40
0.3176513947
 40
0.3377240237
 40
0.3580587144
 40
0.3786203046
 40
0.3993731065
 40
0.4413067912
 40
0.4835677142
 40
0.5258601445
 40
0.5678880662
 40
0.5887112618
 40
0.6093585621
 40
0.6297940823
 40
0.6499824265
 40
0.6698887716
 40
0.6894789531
 40
0.708719556
 40
0.7275780142
 40
0.7460226993
 40
0.7640230166
 40
0.7815495073
 40
0.7985739614
 40
0.8150695478
 40
0.8310109373
 40
0.8463744456
 40
0.8611382001
 40
0.8752823382
 40
0.8887892507
 40
0.9016438522
 40
0.9138339228
 40
0.9196770691
 40
0.9253510608
 40
0.9308553682
 40
0.9361898007
 40
0.9413544388
 40
0.9463497227
 40
0.9511764901
 40
0.9558359588
 40
0.9603298692
 40
0.9646604459
 40
0.9688305156
 40
0.9728435789
 40
0.9767038346
 40
0.980416355
 40
0.9839870964
 40
0.9874230496
 40
0.9907323397
 40
0.9939242781
 40
0.9970095095
 40
1.0
 40
1.0
 40
1.0
 40
1.0
 10
10.3252339381
 20
10.3533905496
 30
0.0
 10
10.3262629569
 20
10.3543845055
 30
0.0
 10
10.3284066802
 20
10.3563657014
 30
0.0
 10
10.3318038866
 20
10.3592623066
 30
0.0
 10
10.3354424761
 20
10.3621390543
 30
0.0
 10
10.3393205938
 20
10.3649944791
 30
0.0
 10
10.3434364558
 20
10.3678273659
 30
0.0
 10
10.3477882171
 20
10.3706364135
 30
0.0
 10
10.3523738543
 20
10.3734203981
 30
0.0
 10
10.3571912533
 20
10.3761779929
 30
0.0
 10
10.3622381722
 20
10.3789079202
 30
0.0
 10
10.3675122553
 20
10.3816089384
 30
0.0
 10
10.3730110783
 20
10.3842797721
 30
0.0
 10
10.3807518014
 20
10.3878509426
 30
0.0
 10
10.3909797383
 20
10.3922208742
 30
0.0
 10
10.4039345861
 20
10.3972516135
 30
0.0
 10
10.417719057
 20
10.4021331223
 30
0.0
 10
10.4323074278
 20
10.4068562206
 30
0.0
 10
10.4476726285
 20
10.4114120148
 30
0.0
 10
10.4637860077
 20
10.4157919192
 30
0.0
 10
10.4806174887
 20
10.4199876706
 30
0.0
 10
10.4981356145
 20
10.4239913488
 30
0.0
 10
10.5163076197
 20
10.4277953936
 30
0.0
 10
10.53509949
 20
10.4313926195
 30
0.0
 10
10.5544760275
 20
10.4347762414
 30
0.0
 10
10.5744009248
 20
10.4379398754
 30
0.0
 10
10.5948368383
 20
10.4408775526
 30
0.0
 10
10.6157454602
 20
10.4435837293
 30
0.0
 10
10.6370875873
 20
10.4460532978
 30
0.0
 10
10.658823194
 20
10.4482816052
 30
0.0
 10
10.6809115148
 20
10.4502644536
 30
0.0
 10
10.7033111099
 20
10.4519980991
 30
0.0
 10
10.7259799973
 20
10.4534792954
 30
0.0
 10
10.7566122462
 20
10.4551193959
 30
0.0
 10
10.7952620934
 20
10.45651576
 30
0.0
 10
10.8418700208
 20
10.4571479511
 30
0.0
 10
10.8885151471
 20
10.4567373561
 30
0.0
 10
10.9272434945
 20
10.4555253281
 30
0.0
 10
10.9579755983
 20
10.4540320173
 30
0.0
 10
10.9807461411
 20
10.4526590692
 30
0.0
 10
11.0032654201
 20
10.4510324259
 30
0.0
 10
11.0254912281
 20
10.4491551322
 30
0.0
 10
11.0473818657
 20
10.4470307328
 30
0.0
 10
11.068896275
 20
10.4446632292
 30
0.0
 10
11.0899941053
 20
10.4420570818
 30
0.0
 10
11.1106357961
 20
10.4392172094
 30
0.0
 10
11.1307826501
 20
10.4361489703
 30
0.0
 10
11.1503969038
 20
10.4328581533
 30
0.0
 10
11.1694417988
 20
10.4293509662
 30
0.0
 10
11.1878816573
 20
10.4256340241
 30
0.0
 10
11.205681955
 20
10.4217143476
 30
0.0
 10
11.2228093882
 20
10.4175993381
 30
0.0
 10
11.239231933
 20
10.4132967641
 30
0.0
 10
11.254918918
 20
10.4088147442
 30
0.0
 10
11.2698410709
 20
10.4041617284
 30
0.0
 10
11.2839706685
 20
10.3993464861
 30
0.0
 10
11.2972813232
 20
10.3943780797
 30
0.0
 10
11.3078142916
 20
10.3900591043
 30
0.0
 10
11.3158045216
 20
10.3865268878
 30
0.0
 10
11.3214924842
 20
10.3838827047
 30
0.0
 10
11.326957878
 20
10.3812072756
 30
0.0
 10
11.3321981829
 20
10.3785018698
 30
0.0
 10
11.3372109527
 20
10.375767725
 30
0.0
 10
11.3419938579
 20
10.373006103
 30
0.0
 10
11.3465446975
 20
10.3702183133
 30
0.0
 10
11.3508613399
 20
10.3674055848
 30
0.0
 10
11.3549418156
 20
10.3645692535
 30
0.0
 10
11.3587842274
 20
10.3617105774
 30
0.0
 10
11.3623867963
 20
10.3588308381
 30
0.0
 10
11.3657478843
 20
10.3559313543
 30
0.0
 10
11.3688658901
 20
10.3530133461
 30
0.0
 10
11.3717393986
 20
10.3500781348
 30
0.0
 10
11.3743670246
 20
10.3471269498
 30
0.0
 10
11.3767474874
 20
10.3441610341
 30
0.0
 10
11.3788796277
 20
10.3411816867
 30
0.0
 10
11.3807622781
 20
10.3381900462
 30
0.0
 10
11.3823943507
 20
10.3351876578
 30
0.0
 10
11.3833280637
 20
10.3331504413
 30
0.0
 10
11.383750173
 20
10.3321325465
 30
0.0
  0
SPLINE
  5
2C1
100
AcDbEntity
  8
0
100
AcDbSpline
 62
7
  6
CONTINUOUS
 70
0
 71
3
 72
41
 73
37
 74
0
 42
0.0000001
 43
0.0000001
 44
0.0000000001
 40
0.0
 40
0.0
 40
0.0
 40
0.0
 40
0.0071757878
 40
0.0146740945
 40
0.0225035609
 40
0.0306713549
 40
0.0391834197
 40
0.0480443679
 40
0.0572572149
 40
0.0668238567
 40
0.076745221
 40
0.0870212626
 40
0.0976512706
 40
0.1086336674
 40
0.131645286
 40
0.1560326206
 40
0.1817627982
 40
0.2087958624
 40
0.2370856423
 40
0.2665805176
 40
0.2972240341
 40
0.3289554007
 40
0.3617098966
 40
0.3954192459
 40
0.4300120062
 40
0.4654138894
 40
0.5015480547
 40
0.5383353725
 40
0.5756947244
 40
0.6135432851
 40
0.6517967806
 40
0.6903697378
 40
0.7681261148
 40
0.8461161177
 40
0.9236388544
 40
1.0
 40
1.0
 40
1.0
 40
1.0
 10
11.9670130367
 20
10.108171216
 30
0.0
 10
11.9662684392
 20
10.10745199
 30
0.0
 10
11.9647087472
 20
10.1060191671
 30
0.0
 10
11.9622211988
 20
10.1039315493
 30
0.0
 10
11.9595367085
 20
10.1018604827
 30
0.0
 10
11.9566570223
 20
10.099807328
 30
0.0
 10
11.9535838442
 20
10.0977731874
 30
0.0
 10
11.9503189305
 20
10.0957592631
 30
0.0
 10
11.9468642207
 20
10.0937666749
 30
0.0
 10
11.9432217599
 20
10.0917966274
 30
0.0
 10
11.9393937116
 20
10.0898503181
 30
0.0
 10
11.935382375
 20
10.087928863
 30
0.0
 10
11.9311901158
 20
10.0860334375
 30
0.0
 10
11.9252700732
 20
10.0835029406
 30
0.0
 10
11.9174292503
 20
10.080421381
 30
0.0
 10
11.9074821857
 20
10.0769001423
 30
0.0
 10
11.8968794345
 20
10.0735087387
 30
0.0
 10
11.8856463881
 20
10.0702553834
 30
0.0
 10
11.873809838
 20
10.0671479564
 30
0.0
 10
11.8613981362
 20
10.0641939939
 30
0.0
 10
11.8484410358
 20
10.061400666
 30
0.0
 10
11.8349696333
 20
10.0587747567
 30
0.0
 10
11.8210162892
 20
10.0563226413
 30
0.0
 10
11.8066145474
 20
10.0540502618
 30
0.0
 10
11.7917990434
 20
10.051963129
 30
0.0
 10
11.776605415
 20
10.0500663043
 30
0.0
 10
11.761070219
 20
10.0483643921
 30
0.0
 10
11.7452308462
 20
10.0468615138
 30
0.0
 10
11.7291254236
 20
10.0455613047
 30
0.0
 10
11.712792731
 20
10.0444669202
 30
0.0
 10
11.6962720563
 20
10.0435809917
 30
0.0
 10
11.6739884882
 20
10.0426783028
 30
0.0
 10
11.6459573976
 20
10.0420861935
 30
0.0
 10
11.612300921
 20
10.0422280697
 30
0.0
 10
11.5788601911
 20
10.0432192555
 30
0.0
 10
11.5566909118
 20
10.0444527114
 30
0.0
 10
11.5457008548
 20
10.0452148744
 30
0.0
  0
SPLINE
  5
2C2
100
AcDbEntity
  8
0
100
AcDbSpline
 62
7
  6
CONTINUOUS
 70
0
 71
3
 72
86
 73
82
 74
0
 42
0.0000001
 43
0.0000001
 44
0.0000000001
 40
0.0
 40
0.0
 40
0.0
 40
0.0
 40
0.0039838888
 40
0.0081319338
 40
0.0124483112
 40
0.0169365921
 40
0.0215998
 40
0.0264403023
 40
0.031459759
 40
0.0366593562
 40
0.0420397885
 40
0.0476013652
 40
0.0533440173
 40
0.0592672976
 40
0.0653704955
 40
0.0716525605
 40
0.0847475325
 40
0.0985395882
 40
0.1130122485
 40
0.1281461022
 40
0.1439191449
 40
0.1603070543
 40
0.177283418
 40
0.1948199404
 40
0.2128866174
 40
0.2314518913
 40
0.2504827913
 40
0.2699450616
 40
0.2898032815
 40
0.3100209877
 40
0.3305607867
 40
0.351384463
 40
0.3724530843
 40
0.3937271043
 40
0.4151664654
 40
0.4583783031
 40
0.5017625753
 40
0.544990796
 40
0.5664444464
 40
0.5877367789
 40
0.6088276924
 40
0.6296775837
 40
0.6502474518
 40
0.6704990051
 40
0.6903947644
 40
0.7098981709
 40
0.7289736967
 40
0.7475869607
 40
0.7657048542
 40
0.7832956734
 40
0.8003292548
 40
0.8167771278
 40
0.8326126858
 40
0.8478113824
 40
0.8623509656
 40
0.8762117532
 40
0.8893769594
 40
0.9018331087
 40
0.9077923822
 40
0.9135711449
 40
0.9191688888
 40
0.9245854879
 40
0.9298211331
 40
0.9348764748
 40
0.9397525893
 40
0.9444510647
 40
0.9489740825
 40
0.953324419
 40
0.9575056227
 40
0.9615220061
 40
0.9653788194
 40
0.9690823326
 40
0.9726399351
 40
0.9760603159
 40
0.9825275499
 40
0.9856024961
 40
0.9885894937
 40
0.991504702
 40
0.994365629
 40
0.9971909218
 40
1.0
 40
1.0
 40
1.0
 40
1.0
 10
10.3377909746
 20
10.3525197161
 30
0.0
 10
10.3388362307
 20
10.3535293561
 30
0.0
 10
10.3410173514
 20
10.3555414875
 30
0.0
 10
10.3444805514
 20
10.3584802518
 30
0.0
 10
10.348198383
 20
10.3613979125
 30
0.0
 10
10.3521687995
 20
10.3642928945
 30
0.0
 10
10.3563898466
 20
10.3671638556
 30
0.0
 10
10.3608594645
 20
10.3700093809
 30
0.0
 10
10.3655754066
 20
10.372828122
 30
0.0
 10
10.3705353291
 20
10.3756186074
 30
0.0
 10
10.3757367226
 20
10.3783794784
 30
0.0
 10
10.3811769837
 20
10.381109339
 30
0.0
 10
10.3868533833
 20
10.3838068054
 30
0.0
 10
10.3927630517
 20
10.3864705475
 30
0.0
 10
10.3989030318
 20
10.3890991912
 30
0.0
 10
10.4075120577
 20
10.3926040707
 30
0.0
 10
10.4188338712
 20
10.3968783578
 30
0.0
 10
10.4331053155
 20
10.4017784555
 30
0.0
 10
10.4482152401
 20
10.4065079823
 30
0.0
 10
10.4641330949
 20
10.411057298
 30
0.0
 10
10.4808268362
 20
10.4154171153
 30
0.0
 10
10.4982627408
 20
10.4195785278
 30
0.0
 10
10.5164055573
 20
10.4235330371
 30
0.0
 10
10.5352185674
 20
10.4272725655
 30
0.0
 10
10.5546636749
 20
10.4307894746
 30
0.0
 10
10.5747014851
 20
10.4340765815
 30
0.0
 10
10.5952913878
 20
10.4371271727
 30
0.0
 10
10.6163916397
 20
10.4399350191
 30
0.0
 10
10.6379594509
 20
10.4424943929
 30
0.0
 10
10.6599510758
 20
10.4448000729
 30
0.0
 10
10.6823219038
 20
10.4468473551
 30
0.0
 10
10.7050265548
 20
10.4486320649
 30
0.0
 10
10.7280189541
 20
10.450150554
 30
0.0
 10
10.75125249
 20
10.4513997496
 30
0.0
 10
10.7825698034
 20
10.4527061377
 30
0.0
 10
10.821971913
 20
10.4536471302
 30
0.0
 10
10.8693334635
 20
10.4536746011
 30
0.0
 10
10.9087478261
 20
10.4527793963
 30
0.0
 10
10.9400845249
 20
10.4515095654
 30
0.0
 10
10.963339549
 20
10.4502874034
 30
0.0
 10
10.9863581238
 20
10.4487956719
 30
0.0
 10
11.009093583
 20
10.4470373859
 30
0.0
 10
11.0314997873
 20
10.4450161367
 30
0.0
 10
11.053531284
 20
10.4427360479
 30
0.0
 10
11.0751433827
 20
10.4402017723
 30
0.0
 10
11.0962922497
 20
10.437418481
 30
0.0
 10
11.1169349962
 20
10.4343918537
 30
0.0
 10
11.1370297681
 20
10.4311280665
 30
0.0
 10
11.1565358352
 20
10.4276337825
 30
0.0
 10
11.1754136782
 20
10.4239161405
 30
0.0
 10
11.1936250695
 20
10.4199827351
 30
0.0
 10
11.2111331542
 20
10.4158416018
 30
0.0
 10
11.227902527
 20
10.4115012003
 30
0.0
 10
11.2438993203
 20
10.4069703931
 30
0.0
 10
11.2590912605
 20
10.4022584283
 30
0.0
 10
11.2734478363
 20
10.3973749131
 30
0.0
 10
11.2869400648
 20
10.3923297898
 30
0.0
 10
11.2975925844
 20
10.3879369854
 30
0.0
 10
11.3056530703
 20
10.3843413976
 30
0.0
 10
11.311376284
 20
10.3816505443
 30
0.0
 10
11.31686391
 20
10.3789270324
 30
0.0
 10
11.3221132144
 20
10.3761722585
 30
0.0
 10
11.3271215402
 20
10.3733875597
 30
0.0
 10
11.3318863917
 20
10.3705743666
 30
0.0
 10
11.3364053797
 20
10.367734066
 30
0.0
 10
11.3406762367
 20
10.3648680485
 30
0.0
 10
11.3446968556
 20
10.3619777648
 30
0.0
 10
11.3484651969
 20
10.359064565
 30
0.0
 10
11.351979419
 20
10.3561299097
 30
0.0
 10
11.3552377323
 20
10.353175162
 30
0.0
 10
11.3582385225
 20
10.3502016938
 30
0.0
 10
11.3609802123
 20
10.347211002
 30
0.0
 10
11.3634615576
 20
10.3442040379
 30
0.0
 10
11.3663661691
 20
10.3402500963
 30
0.0
 10
11.3688214248
 20
10.3361898816
 30
0.0
 10
11.370755675
 20
10.3320451179
 30
0.0
 10
11.3719157957
 20
10.328979228
 30
0.0
 10
11.3728084464
 20
10.3259061726
 30
0.0
 10
11.3734327736
 20
10.322827443
 30
0.0
 10
11.3737882191
 20
10.3197452935
 30
0.0
 10
11.37384565
 20
10.3176877033
 30
0.0
 10
11.3738295561
 20
10.3166631297
 30
0.0
  0
SPLINE
  5
2C3
100
AcDbEntity
  8
0
100
AcDbSpline
 62
7
  6
CONTINUOUS
 70
0
 71
3
 72
41
 73
37
 74
0
 42
0.0000001
 43
0.0000001
 44
0.0000000001
 40
0.0
 40
0.0
 40
0.0
 40
0.0
 40
0.0071758425
 40
0.0146741453
 40
0.0225035656
 40
0.0306713257
 40
0.0391834036
 40
0.0480443729
 40
0.0572572157
 40
0.0668238661
 40
0.0767452117
 40
0.087021259
 40
0.0976512753
 40
0.1086336553
 40
0.1316452786
 40
0.1560326285
 40
0.1817628121
 40
0.2087958578
 40
0.2370856249
 40
0.2665805114
 40
0.2972240455
 40
0.3289554128
 40
0.3617098907
 40
0.3954192316
 40
0.4300120033
 40
0.4654138991
 40
0.5015480605
 40
0.5383353682
 40
0.5756947176
 40
0.6135432851
 40
0.6517967846
 40
0.6903697386
 40
0.7681261117
 40
0.8461161118
 40
0.923638923
 40
1.0
 40
1.0
 40
1.0
 40
1.0
 10
11.9969567391
 20
10.0761509108
 30
0.0
 10
11.9961450351
 20
10.0753668649
 30
0.0
 10
11.9944447851
 20
10.0738049142
 30
0.0
 10
11.9917330686
 20
10.0715291661
 30
0.0
 10
11.9888066672
 20
10.0692714777
 30
0.0
 10
11.9856674854
 20
10.0670333031
 30
0.0
 10
11.9823173621
 20
10.0648158558
 30
0.0
 10
11.9787582234
 20
10.0626204405
 30
0.0
 10
11.9749921887
 20
10.060448278
 30
0.0
 10
11.9710214781
 20
10.0583007107
 30
0.0
 10
11.9668484659
 20
10.056178998
 30
0.0
 10
11.9624756411
 20
10.0540843931
 30
0.0
 10
11.9579055906
 20
10.0520181615
 30
0.0
 10
11.9514520608
 20
10.0492596153
 30
0.0
 10
11.9429046488
 20
10.0459003636
 30
0.0
 10
11.932061187
 20
10.0420618053
 30
0.0
 10
11.9205029538
 20
10.0383647844
 30
0.0
 10
11.9082576328
 20
10.0348182433
 30
0.0
 10
11.895354421
 20
10.0314307829
 30
0.0
 10
11.8818242195
 20
10.0282106233
 30
0.0
 10
11.8676994676
 20
10.0251655758
 30
0.0
 10
11.8530140722
 20
10.0223030304
 30
0.0
 10
11.8378033098
 20
10.0196299336
 30
0.0
 10
11.8221037395
 20
10.0171527725
 30
0.0
 10
11.8059531144
 20
10.0148775586
 30
0.0
 10
11.7893902888
 20
10.0128098047
 30
0.0
 10
11.7724551191
 20
10.0109545212
 30
0.0
 10
11.755188364
 20
10.0093162043
 30
0.0
 10
11.7376315817
 20
10.0078988227
 30
0.0
 10
11.719827046
 20
10.00670582
 30
0.0
 10
11.7018175882
 20
10.0057400595
 30
0.0
 10
11.6775259084
 20
10.0047560203
 30
0.0
 10
11.6469687619
 20
10.0041105473
 30
0.0
 10
11.6102792782
 20
10.0042652164
 30
0.0
 10
11.5738249935
 20
10.0053457208
 30
0.0
 10
11.5496579004
 20
10.0066903324
 30
0.0
 10
11.537677471
 20
10.007521178
 30
0.0
  0
SPLINE
  5
2C4
100
AcDbEntity
  8
0
100
AcDbSpline
 62
7
  6
CONTINUOUS
 70
0
 71
3
 72
84
 73
80
 74
0
 42
0.0000001
 43
0.0000001
 44
0.0000000001
 40
0.0
 40
0.0
 40
0.0
 40
0.0
 40
0.0039372585
 40
0.0080338685
 40
0.0122938325
 40
0.0167205789
 40
0.0213170274
 40
0.0260854939
 40
0.0310276152
 40
0.0361445727
 40
0.0414370898
 40
0.0469055086
 40
0.0525498329
 40
0.0583696877
 40
0.0705327087
 40
0.0833868106
 40
0.0969199344
 40
0.1111168114
 40
0.1259593687
 40
0.1414270488
 40
0.1574970684
 40
0.1741446497
 40
0.1913432111
 40
0.209064532
 40
0.2272788982
 40
0.2459552285
 40
0.265061201
 40
0.2845633726
 40
0.3044272881
 40
0.324617583
 40
0.3450980822
 40
0.365831897
 40
0.3867815267
 40
0.4079089539
 40
0.450542389
 40
0.4934219823
 40
0.5362344463
 40
0.578667126
 40
0.5996446177
 40
0.6204117201
 40
0.6409308541
 40
0.6611650389
 40
0.6810779878
 40
0.7006342118
 40
0.7197991199
 40
0.7385391195
 40
0.7568217237
 40
0.7746156642
 40
0.791891017
 40
0.8086193394
 40
0.8247738077
 40
0.8403293775
 40
0.8552629682
 40
0.8695536805
 40
0.8831830643
 40
0.8961354289
 40
0.9083982292
 40
0.9142683684
 40
0.9199631223
 40
0.9254820436
 40
0.9308250389
 40
0.9359923138
 40
0.9409845125
 40
0.9458026743
 40
0.9504483224
 40
0.9549235372
 40
0.9592309526
 40
0.9633739261
 40
0.9673565289
 40
0.9711836975
 40
0.9748613258
 40
0.9783963344
 40
0.9817968564
 40
0.9850722641
 40
0.9882333278
 40
0.9912922565
 40
0.9942627147
 40
0.9971598233
 40
1.0
 40
1.0
 40
1.0
 40
1.0
 10
10.3479331963
 20
10.3342495072
 30
0.0
 10
10.3489391894
 20
10.3352212219
 30
0.0
 10
10.3510368038
 20
10.337157916
 30
0.0
 10
10.3543644504
 20
10.3399878574
 30
0.0
 10
10.3579330017
 20
10.3427979005
 30
0.0
 10
10.3617405603
 20
10.3455865678
 30
0.0
 10
10.3657853089
 20
10.3483526162
 30
0.0
 10
10.3700653488
 20
10.3510947242
 30
0.0
 10
10.3745786023
 20
10.3538116432
 30
0.0
 10
10.3793229026
 20
10.3565020093
 30
0.0
 10
10.3842959378
 20
10.3591645441
 30
0.0
 10
10.3894952959
 20
10.3617979616
 30
0.0
 10
10.3949184742
 20
10.3644009795
 30
0.0
 10
10.4025569373
 20
10.3678807165
 30
0.0
 10
10.412654106
 20
10.3721355506
 30
0.0
 10
10.425447164
 20
10.3770280581
 30
0.0
 10
10.4390641056
 20
10.3817699991
 30
0.0
 10
10.4534784047
 20
10.3863520641
 30
0.0
 10
10.4686621384
 20
10.3907652445
 30
0.0
 10
10.4845857556
 20
10.3950008472
 30
0.0
 10
10.5012182291
 20
10.3990505306
 30
0.0
 10
10.5185271052
 20
10.4029063139
 30
0.0
 10
10.5364785846
 20
10.4065605974
 30
0.0
 10
10.5550375918
 20
10.4100061783
 30
0.0
 10
10.5741678452
 20
10.4132362634
 30
0.0
 10
10.5938319287
 20
10.41624449
 30
0.0
 10
10.6139913686
 20
10.4190249354
 30
0.0
 10
10.6346067143
 20
10.4215721246
 30
0.0
 10
10.6556376183
 20
10.4238810423
 30
0.0
 10
10.6770429133
 20
10.4259471411
 30
0.0
 10
10.6987806964
 20
10.4277663536
 30
0.0
 10
10.7208083964
 20
10.429335097
 30
0.0
 10
10.7430829167
 20
10.4306503091
 30
0.0
 10
10.773142471
 20
10.4320665301
 30
0.0
 10
10.8110123792
 20
10.4331829397
 30
0.0
 10
10.8566012855
 20
10.433480571
 30
0.0
 10
10.9021137958
 20
10.4327375515
 30
0.0
 10
10.9398224898
 20
10.4312506755
 30
0.0
 10
10.9696769849
 20
10.4295395027
 30
0.0
 10
10.9917427915
 20
10.4280069469
 30
0.0
 10
11.0135248039
 20
10.4262234742
 30
0.0
 10
11.0349804086
 20
10.4241925688
 30
0.0
 10
11.0560675897
 20
10.4219182308
 30
0.0
 10
11.0767450707
 20
10.419404937
 30
0.0
 10
11.0969723812
 20
10.4166576383
 30
0.0
 10
11.1167099396
 20
10.4136817453
 30
0.0
 10
11.1359191287
 20
10.4104831191
 30
0.0
 10
11.1545623743
 20
10.4070680591
 30
0.0
 10
11.1726032241
 20
10.4034432924
 30
0.0
 10
11.1900064246
 20
10.3996159666
 30
0.0
 10
11.2067379916
 20
10.3955936262
 30
0.0
 10
11.222765277
 20
10.3913841994
 30
0.0
 10
11.2380570452
 20
10.3869959799
 30
0.0
 10
11.2525835221
 20
10.3824376058
 30
0.0
 10
11.2663165523
 20
10.3777180414
 30
0.0
 10
11.2792293798
 20
10.37284656
 30
0.0
 10
11.289429291
 20
10.3686089006
 30
0.0
 10
11.2971518474
 20
10.3651422996
 30
0.0
 10
11.30263878
 20
10.3625482361
 30
0.0
 10
11.3079026374
 20
10.3599234086
 30
0.0
 10
11.3129408883
 20
10.3572691127
 30
0.0
 10
11.3177510691
 20
10.3545865895
 30
0.0
 10
11.3223308685
 20
10.3518771745
 30
0.0
 10
11.3266780676
 20
10.3491421529
 30
0.0
 10
11.3307905609
 20
10.3463828197
 30
0.0
 10
11.3346663897
 20
10.343600525
 30
0.0
 10
11.338303655
 20
10.3407965235
 30
0.0
 10
11.3417006382
 20
10.3379721757
 30
0.0
 10
11.3448556792
 20
10.3351287497
 30
0.0
 10
11.3477672438
 20
10.3322675415
 30
0.0
 10
11.3504339294
 20
10.3293898625
 30
0.0
 10
11.3528543486
 20
10.326496935
 30
0.0
 10
11.3550273083
 20
10.3235900815
 30
0.0
 10
11.356951583
 20
10.320670528
 30
0.0
 10
11.358626078
 20
10.317739571
 30
0.0
 10
11.3600497601
 20
10.3147985609
 30
0.0
 10
11.3612215882
 20
10.3118487737
 30
0.0
 10
11.3621406929
 20
10.3088920006
 30
0.0
 10
11.3625880067
 20
10.3069008295
 30
0.0
 10
11.3627677525
 20
10.3059080334
 30
0.0
  0
SPLINE
  5
2C5
100
AcDbEntity
  8
0
100
AcDbSpline
 62
7
  6
CONTINUOUS
 70
0
 71
3
 72
39
 73
35
 74
0
 42
0.0000001
 43
0.0000001
 44
0.0000000001
 40
0.0
 40
0.0
 40
0.0
 40
0.0
 40
0.0243105908
 40
0.0498874306
 40
0.0766726076
 40
0.1046021998
 40
0.1336069613
 40
0.1636129081
 40
0.1945418348
 40
0.2263117817
 40
0.2588374661
 40
0.2920306892
 40
0.3258007258
 40
0.3600547004
 40
0.3946979558
 40
0.4296344147
 40
0.4647669379
 40
0.4999976796
 40
0.5352284411
 40
0.5703610232
 40
0.6052975801
 40
0.6399409721
 40
0.6741951217
 40
0.7079653707
 40
0.7411588432
 40
0.7736848126
 40
0.8054550794
 40
0.8363843596
 40
0.866390692
 40
0.8953958695
 40
0.9233259067
 40
0.9501115553
 40
0.9756888912
 40
1.0
 40
1.0
 40
1.0
 40
1.0
 10
10.4504959877
 20
10.2522518961
 30
0.0
 10
10.4566969737
 20
10.2541725164
 30
0.0
 10
10.4694858604
 20
10.2579095233
 30
0.0
 10
10.4892936351
 20
10.2630978663
 30
0.0
 10
10.5101681026
 20
10.2679997489
 30
0.0
 10
10.5320469727
 20
10.2726003201
 30
0.0
 10
10.5548652319
 20
10.2768857272
 30
0.0
 10
10.5785548996
 20
10.2808430458
 30
0.0
 10
10.6030453761
 20
10.2844603523
 30
0.0
 10
10.6282636274
 20
10.2877267503
 30
0.0
 10
10.654134422
 20
10.2906324046
 30
0.0
 10
10.6805805584
 20
10.2931685693
 30
0.0
 10
10.7075231013
 20
10.2953276132
 30
0.0
 10
10.7348816209
 20
10.2971030416
 30
0.0
 10
10.7625744357
 20
10.298489515
 30
0.0
 10
10.7905188592
 20
10.2994828642
 30
0.0
 10
10.8186314488
 20
10.3000801028
 30
0.0
 10
10.8468282563
 20
10.3002794353
 30
0.0
 10
10.8750250806
 20
10.3000802625
 30
0.0
 10
10.9031377207
 20
10.2994831831
 30
0.0
 10
10.9310822284
 20
10.2984899921
 30
0.0
 10
10.9587751606
 20
10.2971036756
 30
0.0
 10
10.9861338304
 20
10.295328402
 30
0.0
 10
11.013076556
 20
10.2931695106
 30
0.0
 10
11.0395229071
 20
10.2906334956
 30
0.0
 10
11.0653939477
 20
10.2877279878
 30
0.0
 10
11.0906124756
 20
10.2844617325
 30
0.0
 10
11.1151032583
 20
10.2808445646
 30
0.0
 10
11.138793261
 20
10.27688738
 30
0.0
 10
11.1616118831
 20
10.272602102
 30
0.0
 10
11.1834911426
 20
10.2680016543
 30
0.0
 10
11.2043660254
 20
10.2630998904
 30
0.0
 10
11.2241742385
 20
10.2579116565
 30
0.0
 10
11.2369634314
 20
10.2541747321
 30
0.0
 10
11.2431645724
 20
10.2522541444
 30
0.0
  0
SPLINE
  5
2C6
100
AcDbEntity
  8
0
100
AcDbSpline
 62
7
  6
CONTINUOUS
 70
0
 71
3
 72
23
 73
19
 74
0
 42
0.0000001
 43
0.0000001
 44
0.0000000001
 40
0.0
 40
0.0
 40
0.0
 40
0.0
 40
0.0574718575
 40
0.1169232227
 40
0.1780942685
 40
0.2407144455
 40
0.3045043707
 40
0.3691776643
 40
0.4344427206
 40
0.5000044531
 40
0.5655660413
 40
0.6308306693
 40
0.6955032525
 40
0.75929218
 40
0.8219110827
 40
0.8830805991
 40
0.9425301846
 40
1.0
 40
1.0
 40
1.0
 40
1.0
 10
10.5989986277
 20
10.2230697965
 30
0.0
 10
10.6084088016
 20
10.2245880048
 30
0.0
 10
10.6275921972
 20
10.227439395
 30
0.0
 10
10.6569015176
 20
10.231120757
 30
0.0
 10
10.687131724
 20
10.2342668379
 30
0.0
 10
10.7181361249
 20
10.2368621618
 30
0.0
 10
10.7497645279
 20
10.2388940063
 30
0.0
 10
10.7818635939
 20
10.2403524026
 30
0.0
 10
10.8142777011
 20
10.2412301951
 30
0.0
 10
10.8468496766
 20
10.2415230787
 30
0.0
 10
10.8794215759
 20
10.2412296245
 30
0.0
 10
10.911835455
 20
10.2403512712
 30
0.0
 10
10.9439341412
 20
10.238892321
 30
0.0
 10
10.9755620132
 20
10.2368599232
 30
0.0
 10
11.006565736
 20
10.2342640556
 30
0.0
 10
11.0367951239
 20
10.231117452
 30
0.0
 10
11.0661034862
 20
10.2274355832
 30
0.0
 10
11.0852861916
 20
10.224583858
 30
0.0
 10
11.0946959942
 20
10.2230654748
 30
0.0
  0
SPLINE
  5
2C7
100
AcDbEntity
  8
0
100
AcDbSpline
 62
7
  6
CONTINUOUS
 70
0
 71
3
 72
18
 73
14
 74
0
 42
0.0000001
 43
0.0000001
 44
0.0000000001
 40
0.0
 40
0.0
 40
0.0
 40
0.0
 40
0.054862568
 40
0.1099291209
 40
0.1654011893
 40
0.2214754292
 40
0.336133642
 40
0.4553634706
 40
0.5171047465
 40
0.5804363458
 40
0.712331634
 40
0.8519592464
 40
1.0
 40
1.0
 40
1.0
 40
1.0
 10
12.308929091
 20
9.6957699102
 30
0.0
 10
12.3089290882
 20
9.6952403113
 30
0.0
 10
12.3088954752
 20
9.6941788385
 30
0.0
 10
12.308744318
 20
9.6925883667
 30
0.0
 10
12.308492449
 20
9.6909987792
 30
0.0
 10
12.308019204
 20
9.6888658977
 30
0.0
 10
12.3071665894
 20
9.6861926811
 30
0.0
 10
12.3059989291
 20
9.6835825571
 30
0.0
 10
12.3048753465
 20
9.6815082327
 30
0.0
 10
12.3035887979
 20
9.6793863602
 30
0.0
 10
12.3017207058
 20
9.676742787
 30
0.0
 10
12.2991162447
 20
9.6736362003
 30
0.0
 10
12.2971791704
 20
9.6716428178
 30
0.0
 10
12.2961513084
 20
9.6706499792
 30
0.0
  0
SPLINE
  5
2C8
100
AcDbEntity
  8
0
100
AcDbSpline
 62
7
  6
CONTINUOUS
 70
0
 71
3
 72
18
 73
14
 74
0
 42
0.0000001
 43
0.0000001
 44
0.0000000001
 40
0.0
 40
0.0
 40
0.0
 40
0.0
 40
0.0548626221
 40
0.1099291996
 40
0.1654012684
 40
0.2214754896
 40
0.3361336267
 40
0.4553633642
 40
0.5171046005
 40
0.5804361693
 40
0.7123314363
 40
0.8519591016
 40
1.0
 40
1.0
 40
1.0
 40
1.0
 10
12.308929091
 20
10.3902708848
 30
0.0
 10
12.3089290938
 20
10.3897412806
 30
0.0
 10
12.3088954913
 20
10.3886797969
 30
0.0
 10
12.3087443477
 20
10.3870893084
 30
0.0
 10
12.3084924902
 20
10.3854997041
 30
0.0
 10
12.3080192579
 20
10.3833668003
 30
0.0
 10
12.3071666537
 20
10.3806935552
 30
0.0
 10
12.3059989963
 20
10.3780834033
 30
0.0
 10
12.3048754123
 20
10.376009057
 30
0.0
 10
12.3035888592
 20
10.3738871618
 30
0.0
 10
12.3017207558
 20
10.3712435603
 30
0.0
 10
12.2991162735
 20
10.3681369408
 30
0.0
 10
12.2971791808
 20
10.366143538
 30
0.0
 10
12.2961513084
 20
10.3651506895
 30
0.0
  0
SPLINE
  5
2C9
100
AcDbEntity
  8
0
100
AcDbSpline
 62
7
  6
CONTINUOUS
 70
0
 71
3
 72
23
 73
19
 74
0
 42
0.0000001
 43
0.0000001
 44
0.0000000001
 40
0.0
 40
0.0
 40
0.0
 40
0.0
 40
0.0749625009
 40
0.1455684839
 40
0.2121600745
 40
0.2751631548
 40
0.3350982506
 40
0.3925832742
 40
0.4483295117
 40
0.5031237972
 40
0.5577983643
 40
0.613191491
 40
0.670106811
 40
0.729278715
 40
0.7913522906
 40
0.8568775564
 40
0.9263090861
 40
1.0
 40
1.0
 40
1.0
 40
1.0
 10
12.2653501089
 20
10.4440710388
 30
0.0
 10
12.266343454
 20
10.4431466264
 30
0.0
 10
12.2682173477
 20
10.4412907343
 30
0.0
 10
12.2707457955
 20
10.4383952691
 30
0.0
 10
12.2729019065
 20
10.4354768829
 30
0.0
 10
12.2746824375
 20
10.4325380856
 30
0.0
 10
12.2760844479
 20
10.4295814958
 30
0.0
 10
12.2771047642
 20
10.4266101247
 30
0.0
 10
12.2777405327
 20
10.4236278031
 30
0.0
 10
12.2779894882
 20
10.4206392528
 30
0.0
 10
12.2778506512
 20
10.4176499092
 30
0.0
 10
12.2773245976
 20
10.4146652902
 30
0.0
 10
12.2764132049
 20
10.411690391
 30
0.0
 10
12.2751193415
 20
10.4087292633
 30
0.0
 10
12.2734460181
 20
10.4057851538
 30
0.0
 10
12.2713962685
 20
10.4028606354
 30
0.0
 10
12.2689732479
 20
10.3999584944
 30
0.0
 10
12.2671670322
 20
10.3980977293
 30
0.0
 10
12.266207606
 20
10.3971709947
 30
0.0
  0
SPLINE
  5
2CA
100
AcDbEntity
  8
0
100
AcDbSpline
 62
7
  6
CONTINUOUS
 70
0
 71
3
 72
41
 73
37
 74
0
 42
0.0000001
 43
0.0000001
 44
0.0000000001
 40
0.0
 40
0.0
 40
0.0
 40
0.0
 40
0.029942123
 40
0.0449237706
 40
0.0599145177
 40
0.0899291716
 40
0.1200145961
 40
0.1350933574
 40
0.1501974726
 40
0.1804849654
 40
0.2108989488
 40
0.2414525624
 40
0.2721557217
 40
0.3030149378
 40
0.3340332219
 40
0.3652100719
 40
0.3965415365
 40
0.4280203507
 40
0.4596361361
 40
0.4913756582
 40
0.5232231336
 40
0.5551605782
 40
0.5871681905
 40
0.6192247616
 40
0.6513081064
 40
0.6833955071
 40
0.7154641657
 40
0.7474916563
 40
0.7794563734
 40
0.811337967
 40
0.843117763
 40
0.8747791516
 40
0.9063079641
 40
0.9376927517
 40
0.9689251728
 40
1.0
 40
1.0
 40
1.0
 40
1.0
 10
9.9716882103
 20
8.899974276
 30
0.0
 10
9.9693573637
 20
8.8977228356
 30
0.0
 10
9.9657237331
 20
8.8944820627
 30
0.0
 10
9.9606348896
 20
8.890460978
 30
0.0
 10
9.9553839794
 20
8.8866399974
 30
0.0
 10
9.9485324079
 20
8.8822522512
 30
0.0
 10
9.9413476897
 20
8.8784142471
 30
0.0
 10
9.9354221653
 20
8.8756838563
 30
0.0
 10
9.9293742185
 20
8.8731788911
 30
0.0
 10
9.9216149839
 20
8.8704853077
 30
0.0
 10
9.9120528883
 20
8.867974946
 30
0.0
 10
9.9022821394
 20
8.8661965195
 30
0.0
 10
9.8923568837
 20
8.8651598443
 30
0.0
 10
9.8823316438
 20
8.8648704518
 30
0.0
 10
9.8722615819
 20
8.8653298151
 30
0.0
 10
9.8622020458
 20
8.8665352807
 30
0.0
 10
9.8522083089
 20
8.8684801066
 30
0.0
 10
9.8423352584
 20
8.8711534993
 30
0.0
 10
9.8326371016
 20
8.8745406776
 30
0.0
 10
9.823167071
 20
8.8786229561
 30
0.0
 10
9.8139771368
 20
8.8833778492
 30
0.0
 10
9.8051177259
 20
8.888779195
 30
0.0
 10
9.796637448
 20
8.8947972991
 30
0.0
 10
9.7885828334
 20
8.9013990963
 30
0.0
 10
9.7809980797
 20
8.9085483312
 30
0.0
 10
9.7739248127
 20
8.9162057558
 30
0.0
 10
9.76740186
 20
8.924329342
 30
0.0
 10
9.7614650401
 20
8.9328745111
 30
0.0
 10
9.7561469676
 20
8.9417943743
 30
0.0
 10
9.7514768749
 20
8.9510399895
 30
0.0
 10
9.747480454
 20
8.9605606197
 30
0.0
 10
9.7441797127
 20
8.9703040319
 30
0.0
 10
9.7415928598
 20
8.9802166912
 30
0.0
 10
9.739734191
 20
8.9902443771
 30
0.0
 10
9.7386140292
 20
9.0003312788
 30
0.0
 10
9.7383631311
 20
9.0070774147
 30
0.0
 10
9.7383631311
 20
9.0104406606
 30
0.0
  0
SPLINE
  5
2CB
100
AcDbEntity
  8
0
100
AcDbSpline
 62
7
  6
CONTINUOUS
 70
0
 71
3
 72
41
 73
37
 74
0
 42
0.0000001
 43
0.0000001
 44
0.0000000001
 40
0.0
 40
0.0
 40
0.0
 40
0.0
 40
0.029942123
 40
0.0449237706
 40
0.0599145177
 40
0.0899291716
 40
0.1200145961
 40
0.1350933574
 40
0.1501974726
 40
0.1804849654
 40
0.2108989488
 40
0.2414525624
 40
0.2721557217
 40
0.3030149378
 40
0.3340332219
 40
0.3652100719
 40
0.3965415365
 40
0.4280203507
 40
0.4596361361
 40
0.4913756582
 40
0.5232231336
 40
0.5551605782
 40
0.5871681905
 40
0.6192247616
 40
0.6513081064
 40
0.6833955071
 40
0.7154641657
 40
0.7474916563
 40
0.7794563734
 40
0.811337967
 40
0.843117763
 40
0.8747791516
 40
0.9063079641
 40
0.9376927517
 40
0.9689251728
 40
1.0
 40
1.0
 40
1.0
 40
1.0
 10
9.9716882103
 20
6.8483476294
 30
0.0
 10
9.9693573637
 20
6.846096189
 30
0.0
 10
9.9657237331
 20
6.8428554161
 30
0.0
 10
9.9606348896
 20
6.8388343314
 30
0.0
 10
9.9553839794
 20
6.8350133508
 30
0.0
 10
9.9485324079
 20
6.8306256046
 30
0.0
 10
9.9413476897
 20
6.8267876005
 30
0.0
 10
9.9354221653
 20
6.8240572096
 30
0.0
 10
9.9293742185
 20
6.8215522445
 30
0.0
 10
9.9216149839
 20
6.8188586611
 30
0.0
 10
9.9120528883
 20
6.8163482994
 30
0.0
 10
9.9022821394
 20
6.8145698729
 30
0.0
 10
9.8923568837
 20
6.8135331977
 30
0.0
 10
9.8823316438
 20
6.8132438052
 30
0.0
 10
9.8722615819
 20
6.8137031685
 30
0.0
 10
9.8622020458
 20
6.8149086341
 30
0.0
 10
9.8522083089
 20
6.81685346
 30
0.0
 10
9.8423352584
 20
6.8195268527
 30
0.0
 10
9.8326371016
 20
6.822914031
 30
0.0
 10
9.823167071
 20
6.8269963095
 30
0.0
 10
9.8139771368
 20
6.8317512026
 30
0.0
 10
9.8051177259
 20
6.8371525484
 30
0.0
 10
9.796637448
 20
6.8431706525
 30
0.0
 10
9.7885828334
 20
6.8497724497
 30
0.0
 10
9.7809980797
 20
6.8569216846
 30
0.0
 10
9.7739248127
 20
6.8645791092
 30
0.0
 10
9.76740186
 20
6.8727026954
 30
0.0
 10
9.7614650401
 20
6.8812478644
 30
0.0
 10
9.7561469676
 20
6.8901677277
 30
0.0
 10
9.7514768749
 20
6.8994133429
 30
0.0
 10
9.747480454
 20
6.9089339731
 30
0.0
 10
9.7441797127
 20
6.9186773853
 30
0.0
 10
9.7415928598
 20
6.9285900446
 30
0.0
 10
9.739734191
 20
6.9386177305
 30
0.0
 10
9.7386140292
 20
6.9487046322
 30
0.0
 10
9.7383631311
 20
6.955450768
 30
0.0
 10
9.7383631311
 20
6.958814014
 30
0.0
  0
SPLINE
  5
2CC
100
AcDbEntity
  8
0
100
AcDbSpline
 62
7
  6
CONTINUOUS
 70
0
 71
3
 72
41
 73
37
 74
0
 42
0.0000001
 43
0.0000001
 44
0.0000000001
 40
0.0
 40
0.0
 40
0.0
 40
0.0
 40
0.029942123
 40
0.0449237706
 40
0.0599145177
 40
0.0899291716
 40
0.1200145961
 40
0.1350933574
 40
0.1501974726
 40
0.1804849654
 40
0.2108989488
 40
0.2414525624
 40
0.2721557217
 40
0.3030149378
 40
0.3340332219
 40
0.3652100719
 40
0.3965415365
 40
0.4280203507
 40
0.4596361361
 40
0.4913756582
 40
0.5232231336
 40
0.5551605782
 40
0.5871681905
 40
0.6192247616
 40
0.6513081064
 40
0.6833955071
 40
0.7154641657
 40
0.7474916563
 40
0.7794563734
 40
0.811337967
 40
0.843117763
 40
0.8747791516
 40
0.9063079641
 40
0.9376927517
 40
0.9689251728
 40
1.0
 40
1.0
 40
1.0
 40
1.0
 10
11.7219458023
 20
6.7269668531
 30
0.0
 10
11.7196149557
 20
6.7247154127
 30
0.0
 10
11.7159813252
 20
6.7214746398
 30
0.0
 10
11.7108924816
 20
6.7174535552
 30
0.0
 10
11.7056415714
 20
6.7136325745
 30
0.0
 10
11.6987899999
 20
6.7092448283
 30
0.0
 10
11.6916052817
 20
6.7054068242
 30
0.0
 10
11.6856797573
 20
6.7026764334
 30
0.0
 10
11.6796318105
 20
6.7001714682
 30
0.0
 10
11.6718725759
 20
6.6974778848
 30
0.0
 10
11.6623104803
 20
6.6949675231
 30
0.0
 10
11.6525397314
 20
6.6931890967
 30
0.0
 10
11.6426144757
 20
6.6921524215
 30
0.0
 10
11.6325892359
 20
6.6918630289
 30
0.0
 10
11.6225191739
 20
6.6923223922
 30
0.0
 10
11.6124596379
 20
6.6935278578
 30
0.0
 10
11.6024659009
 20
6.6954726838
 30
0.0
 10
11.5925928504
 20
6.6981460764
 30
0.0
 10
11.5828946936
 20
6.7015332547
 30
0.0
 10
11.573424663
 20
6.7056155332
 30
0.0
 10
11.5642347289
 20
6.7103704263
 30
0.0
 10
11.5553753179
 20
6.7157717721
 30
0.0
 10
11.5468950401
 20
6.7217898762
 30
0.0
 10
11.5388404254
 20
6.7283916734
 30
0.0
 10
11.5312556717
 20
6.7355409084
 30
0.0
 10
11.5241824047
 20
6.7431983329
 30
0.0
 10
11.517659452
 20
6.7513219191
 30
0.0
 10
11.5117226321
 20
6.7598670882
 30
0.0
 10
11.5064045596
 20
6.7687869514
 30
0.0
 10
11.5017344669
 20
6.7780325666
 30
0.0
 10
11.497738046
 20
6.7875531969
 30
0.0
 10
11.4944373047
 20
6.797296609
 30
0.0
 10
11.4918504518
 20
6.8072092684
 30
0.0
 10
11.489991783
 20
6.8172369542
 30
0.0
 10
11.4888716212
 20
6.8273238559
 30
0.0
 10
11.4886207232
 20
6.8340699918
 30
0.0
 10
11.4886207232
 20
6.8374332377
 30
0.0
  0
SPLINE
  5
2CD
100
AcDbEntity
  8
0
100
AcDbSpline
 62
7
  6
CONTINUOUS
 70
0
 71
3
 72
18
 73
14
 74
0
 42
0.0000001
 43
0.0000001
 44
0.0000000001
 40
0.0
 40
0.0
 40
0.0
 40
0.0
 40
0.1482607562
 40
0.2879620794
 40
0.4198187199
 40
0.5447416951
 40
0.6638289325
 40
0.7216041302
 40
0.7784204626
 40
0.8344671277
 40
0.8899420007
 40
0.945049892
 40
1.0
 40
1.0
 40
1.0
 40
1.0
 10
10.3377909746
 20
10.3525197161
 30
0.0
 10
10.3363239631
 20
10.3511026918
 30
0.0
 10
10.333561881
 20
10.3482575834
 30
0.0
 10
10.3298557054
 20
10.3438205547
 30
0.0
 10
10.3267190143
 20
10.3393493434
 30
0.0
 10
10.324156799
 20
10.3348485661
 30
0.0
 10
10.3224871715
 20
10.3310373568
 30
0.0
 10
10.3214559891
 20
10.3279908335
 30
0.0
 10
10.3208357304
 20
10.3257252722
 30
0.0
 10
10.32036126
 20
10.3234570796
 30
0.0
 10
10.3200327862
 20
10.3211868488
 30
0.0
 10
10.3198504217
 20
10.3189154423
 30
0.0
 10
10.3198263011
 20
10.3174003299
 30
0.0
 10
10.3198385667
 20
10.3166444792
 30
0.0
  0
SPLINE
  5
2CE
100
AcDbEntity
  8
0
100
AcDbSpline
 62
7
  6
CONTINUOUS
 70
0
 71
3
 72
41
 73
37
 74
0
 42
0.0000001
 43
0.0000001
 44
0.0000000001
 40
0.0
 40
0.0
 40
0.0
 40
0.0
 40
0.029942123
 40
0.0449237706
 40
0.0599145177
 40
0.0899291716
 40
0.1200145961
 40
0.1350933574
 40
0.1501974726
 40
0.1804849654
 40
0.2108989488
 40
0.2414525624
 40
0.2721557217
 40
0.3030149378
 40
0.3340332219
 40
0.3652100719
 40
0.3965415365
 40
0.4280203507
 40
0.4596361361
 40
0.4913756582
 40
0.5232231336
 40
0.5551605782
 40
0.5871681905
 40
0.6192247616
 40
0.6513081064
 40
0.6833955071
 40
0.7154641657
 40
0.7474916563
 40
0.7794563734
 40
0.811337967
 40
0.843117763
 40
0.8747791516
 40
0.9063079641
 40
0.9376927517
 40
0.9689251728
 40
1.0
 40
1.0
 40
1.0
 40
1.0
 10
11.7219458023
 20
8.7785934997
 30
0.0
 10
11.7196149557
 20
8.7763420593
 30
0.0
 10
11.7159813252
 20
8.7731012864
 30
0.0
 10
11.7108924816
 20
8.7690802018
 30
0.0
 10
11.7056415714
 20
8.7652592211
 30
0.0
 10
11.6987899999
 20
8.760871475
 30
0.0
 10
11.6916052817
 20
8.7570334708
 30
0.0
 10
11.6856797573
 20
8.75430308
 30
0.0
 10
11.6796318105
 20
8.7517981148
 30
0.0
 10
11.6718725759
 20
8.7491045315
 30
0.0
 10
11.6623104803
 20
8.7465941697
 30
0.0
 10
11.6525397314
 20
8.7448157433
 30
0.0
 10
11.6426144757
 20
8.7437790681
 30
0.0
 10
11.6325892359
 20
8.7434896755
 30
0.0
 10
11.6225191739
 20
8.7439490388
 30
0.0
 10
11.6124596379
 20
8.7451545044
 30
0.0
 10
11.6024659009
 20
8.7470993304
 30
0.0
 10
11.5925928504
 20
8.749772723
 30
0.0
 10
11.5828946936
 20
8.7531599013
 30
0.0
 10
11.573424663
 20
8.7572421798
 30
0.0
 10
11.5642347289
 20
8.7619970729
 30
0.0
 10
11.5553753179
 20
8.7673984188
 30
0.0
 10
11.5468950401
 20
8.7734165228
 30
0.0
 10
11.5388404254
 20
8.78001832
 30
0.0
 10
11.5312556717
 20
8.787167555
 30
0.0
 10
11.5241824047
 20
8.7948249795
 30
0.0
 10
11.517659452
 20
8.8029485658
 30
0.0
 10
11.5117226321
 20
8.8114937348
 30
0.0
 10
11.5064045596
 20
8.820413598
 30
0.0
 10
11.5017344669
 20
8.8296592132
 30
0.0
 10
11.497738046
 20
8.8391798435
 30
0.0
 10
11.4944373047
 20
8.8489232556
 30
0.0
 10
11.4918504518
 20
8.858835915
 30
0.0
 10
11.489991783
 20
8.8688636008
 30
0.0
 10
11.4888716212
 20
8.8789505025
 30
0.0
 10
11.4886207232
 20
8.8856966384
 30
0.0
 10
11.4886207232
 20
8.8890598843
 30
0.0
  0
SPLINE
  5
2CF
100
AcDbEntity
  8
0
100
AcDbSpline
 62
7
  6
CONTINUOUS
 70
0
 71
3
 72
15
 73
11
 74
0
 42
0.0000001
 43
0.0000001
 44
0.0000000001
 40
0.0
 40
0.0
 40
0.0
 40
0.0
 40
0.1450177978
 40
0.2832419962
 40
0.4150858466
 40
0.541065502
 40
0.6617919046
 40
0.7779713651
 40
0.8904075771
 40
1.0
 40
1.0
 40
1.0
 40
1.0
 10
10.3479331963
 20
10.3342495072
 30
0.0
 10
10.3467691255
 20
10.3331251011
 30
0.0
 10
10.3445521525
 20
10.3308690945
 30
0.0
 10
10.3415030845
 20
10.3273777873
 30
0.0
 10
10.3388150155
 20
10.3238648256
 30
0.0
 10
10.336490264
 20
10.3203325888
 30
0.0
 10
10.334530939
 20
10.3167831552
 30
0.0
 10
10.3329389463
 20
10.313218695
 30
0.0
 10
10.3317164534
 20
10.3096421497
 30
0.0
 10
10.3311430395
 20
10.3072266153
 30
0.0
 10
10.3309212269
 20
10.3060238137
 30
0.0
  0
SPLINE
  5
2D0
100
AcDbEntity
  8
0
100
AcDbSpline
 62
7
  6
CONTINUOUS
 70
0
 71
3
 72
40
 73
36
 74
0
 42
0.0000001
 43
0.0000001
 44
0.0000000001
 40
0.0
 40
0.0
 40
0.0
 40
0.0
 40
0.0299423158
 40
0.0599090077
 40
0.0899238582
 40
0.1200094808
 40
0.1501867824
 40
0.1804744762
 40
0.2108886619
 40
0.2414424788
 40
0.2721458424
 40
0.3030052635
 40
0.3340237533
 40
0.3652008096
 40
0.3965324809
 40
0.4280115022
 40
0.4596274949
 40
0.4913672243
 40
0.5232149068
 40
0.5551525579
 40
0.5871603758
 40
0.6192171517
 40
0.6513007002
 40
0.6833883037
 40
0.7154571642
 40
0.7474848559
 40
0.7794497732
 40
0.8113315672
 40
0.8431115605
 40
0.8747731555
 40
0.9063021429
 40
0.9376871976
 40
0.953325281
 40
0.9689248703
 40
1.0
 40
1.0
 40
1.0
 40
1.0
 10
10.8322642418
 20
7.4039024126
 30
0.0
 10
10.8291536792
 20
7.4008978394
 30
0.0
 10
10.8226879635
 20
7.3951311745
 30
0.0
 10
10.8123288791
 20
7.3872751148
 30
0.0
 10
10.8013622333
 20
7.3802523092
 30
0.0
 10
10.7898493031
 20
7.3741021536
 30
0.0
 10
10.7778533859
 20
7.3688582475
 30
0.0
 10
10.7654406858
 20
7.3645494166
 30
0.0
 10
10.7526796042
 20
7.3611992361
 30
0.0
 10
10.7396404457
 20
7.3588259964
 30
0.0
 10
10.7263950013
 20
7.3574425889
 30
0.0
 10
10.713016158
 20
7.3570564509
 30
0.0
 10
10.6995774961
 20
7.3576695332
 30
0.0
 10
10.686152887
 20
7.3592782985
 30
0.0
 10
10.6728160906
 20
7.3618737485
 30
0.0
 10
10.6596403555
 20
7.3654414792
 30
0.0
 10
10.6466980215
 20
7.3699617652
 30
0.0
 10
10.6340601281
 20
7.3754096709
 30
0.0
 10
10.6217960304
 20
7.3817551889
 30
0.0
 10
10.6099730232
 20
7.3889634055
 30
0.0
 10
10.5986559768
 20
7.3969946924
 30
0.0
 10
10.5879069856
 20
7.4058049233
 30
0.0
 10
10.5777850316
 20
7.4153457148
 30
0.0
 10
10.5683456645
 20
7.4255646896
 30
0.0
 10
10.5596406997
 20
7.4364057609
 30
0.0
 10
10.5517179371
 20
7.4478094382
 30
0.0
 10
10.5446209008
 20
7.4597131463
 30
0.0
 10
10.5383886019
 20
7.4720515786
 30
0.0
 10
10.5330553266
 20
7.4847570001
 30
0.0
 10
10.5286504401
 20
7.4977598019
 30
0.0
 10
10.5251982721
 20
7.5109881843
 30
0.0
 10
10.5231286243
 20
7.5221543779
 30
0.0
 10
10.5219676095
 20
7.5311262718
 30
0.0
 10
10.5211390236
 20
7.5400895825
 30
0.0
 10
10.5208881364
 20
7.5468344104
 30
0.0
 10
10.5208881364
 20
7.5513227313
 30
0.0
  0
SPLINE
  5
2D1
100
AcDbEntity
  8
0
100
AcDbSpline
 62
7
  6
CONTINUOUS
 70
0
 71
3
 72
40
 73
36
 74
0
 42
0.0000001
 43
0.0000001
 44
0.0000000001
 40
0.0
 40
0.0
 40
0.0
 40
0.0
 40
0.0299423158
 40
0.0599090077
 40
0.0899238582
 40
0.1200094808
 40
0.1501867824
 40
0.1804744762
 40
0.2108886619
 40
0.2414424788
 40
0.2721458424
 40
0.3030052635
 40
0.3340237533
 40
0.3652008096
 40
0.3965324809
 40
0.4280115022
 40
0.4596274949
 40
0.4913672243
 40
0.5232149068
 40
0.5551525579
 40
0.5871603758
 40
0.6192171517
 40
0.6513007002
 40
0.6833883037
 40
0.7154571642
 40
0.7474848559
 40
0.7794497732
 40
0.8113315672
 40
0.8431115605
 40
0.8747731555
 40
0.9063021429
 40
0.9376871976
 40
0.953325281
 40
0.9689248703
 40
1.0
 40
1.0
 40
1.0
 40
1.0
 10
11.2543738879
 20
6.8607563766
 30
0.0
 10
11.2512633253
 20
6.8577518033
 30
0.0
 10
11.2447976096
 20
6.8519851385
 30
0.0
 10
11.2344385252
 20
6.8441290788
 30
0.0
 10
11.2234718794
 20
6.8371062732
 30
0.0
 10
11.2119589492
 20
6.8309561176
 30
0.0
 10
11.199963032
 20
6.8257122115
 30
0.0
 10
11.1875503319
 20
6.8214033805
 30
0.0
 10
11.1747892503
 20
6.8180532
 30
0.0
 10
11.1617500918
 20
6.8156799604
 30
0.0
 10
11.1485046474
 20
6.8142965528
 30
0.0
 10
11.1351258041
 20
6.8139104149
 30
0.0
 10
11.1216871422
 20
6.8145234972
 30
0.0
 10
11.1082625331
 20
6.8161322625
 30
0.0
 10
11.0949257367
 20
6.8187277124
 30
0.0
 10
11.0817500016
 20
6.8222954431
 30
0.0
 10
11.0688076676
 20
6.8268157292
 30
0.0
 10
11.0561697742
 20
6.8322636348
 30
0.0
 10
11.0439056765
 20
6.8386091529
 30
0.0
 10
11.0320826693
 20
6.8458173695
 30
0.0
 10
11.0207656229
 20
6.8538486563
 30
0.0
 10
11.0100166317
 20
6.8626588872
 30
0.0
 10
10.9998946777
 20
6.8721996788
 30
0.0
 10
10.9904553106
 20
6.8824186536
 30
0.0
 10
10.9817503458
 20
6.8932597249
 30
0.0
 10
10.9738275832
 20
6.9046634022
 30
0.0
 10
10.9667305469
 20
6.9165671102
 30
0.0
 10
10.960498248
 20
6.9289055426
 30
0.0
 10
10.9551649727
 20
6.941610964
 30
0.0
 10
10.9507600862
 20
6.9546137659
 30
0.0
 10
10.9473079182
 20
6.9678421482
 30
0.0
 10
10.9452382704
 20
6.9790083418
 30
0.0
 10
10.9440772556
 20
6.9879802357
 30
0.0
 10
10.9432486697
 20
6.9969435465
 30
0.0
 10
10.9429977825
 20
7.0036883744
 30
0.0
 10
10.9429977825
 20
7.0081766952
 30
0.0
  0
ELLIPSE
  5
2D2
100
AcDbEntity
  8
0
100
AcDbEllipse
 62
7
  6
CONTINUOUS
 10
11.1248227275
 20
8.8078961092
 30
0.0
 11
-0.1569028638
 21
0.1666520575
 31
0.0
 40
0.7643028659
 41
0.0
 42
6.2831853072
  0
ELLIPSE
  5
2D3
100
AcDbEntity
  8
0
100
AcDbEllipse
 62
7
  6
CONTINUOUS
 10
10.1279089192
 20
7.9702820341
 30
0.0
 11
0.2027294607
 21
-0.0298127838
 31
0.0
 40
0.8847685175
 41
0.0
 42
6.2831853072
  0
ELLIPSE
  5
2D4
100
AcDbEntity
  8
0
100
AcDbEllipse
 62
7
  6
CONTINUOUS
 10
10.7022513688
 20
8.3228247564
 30
0.0
 11
-0.1569028638
 21
0.1666520575
 31
0.0
 40
0.7643028659
 41
0.0
 42
6.2831853072
  0
ENDSEC
  0
SECTION
  2
OBJECTS
  0
DICTIONARY
  5
C
100
AcDbDictionary
280
0
281
1
  3
ACAD_GROUP
350
D
  3
ACAD_MLINESTYLE
350
17
  3
ACAD_LAYOUT
350
1A
  3
ACAD_PLOTSETTINGS
350
19
  3
ACAD_PLOTSTYLENAME
350
E
  3
ACAD_IMAGE_DICT
350
       2D6
  3
ACAD_IMAGE_VARS
350
       2D7
  3
ACAD_TABLESTYLE
350
       2D8
  0
IMAGEDEF_REACTOR
  5
2D5
100
AcDbRasterImageDefReactor
 90
2
330
26D
  0
DICTIONARY
  5
D
102
{ACAD_REACTORS
330
C
102
}
100
AcDbDictionary
280
0
281
1
  0
ACDBDICTIONARYWDFLT
  5
E
102
{ACAD_REACTORS
330
C
102
}
100
AcDbDictionary
281
1
  3
Normal
350
F
100
AcDbDictionaryWithDefault
340
F
  0
DICTIONARY
  5
2D6
330
C
100
AcDbDictionary
281
1
  3
DBQ_assy_2_img_1
350
       2DB
  0
RASTERVARIABLES
  5
2D7
330
C
100
AcDbRasterVariables
 90
0
 70
0
 71
1
 72
5
  0
DICTIONARY
  5
17
102
{ACAD_REACTORS
330
C
102
}
100
AcDbDictionary
280
0
281
1
  3
Standard
350
18
  0
DICTIONARY
  5
2D8
330
C
100
AcDbDictionary
281
1
  3
Standard
350
       2DC
  3
Standard1
350
       2DD
  0
DICTIONARY
  5
19
102
{ACAD_REACTORS
330
C
102
}
100
AcDbDictionary
281
1
  0
DICTIONARY
  5
1A
102
{ACAD_REACTORS
330
C
102
}
100
AcDbDictionary
281
1
  3
Model
350
2D9
  3
Layout1
350
2DA
  0
ACDBPLACEHOLDER
  5
F
102
{ACAD_REACTORS
330
E
102
}
  0
MLINESTYLE
  5
18
102
{ACAD_REACTORS
330
17
102
}
100
AcDbMlineStyle
  2
STANDARD
 70
0
  3

 62
256
 51
90.0
 52
90.0
 71
2
 49
0.5
 62
256
  6
BYLAYER
 49
-0.5
 62
256
  6
BYLAYER
  0
LAYOUT
  5
2D9
102
{ACAD_REACTORS
330
1A
102
}
100
AcDbPlotSettings
  1

  2
none_device
  4
ANSI_C_(22.00_x_17.00_Inches)
  6

 40
0.0
 41
0.0
 42
0.0
 43
0.0
 44
558.8
 45
431.8
 46
0.0
 47
0.0
 48
0.0
 49
0.0
140
0.0
141
0.0
142
1.0
143
1.0
 70
1024
 72
0
 73
0
 74
0
  7

 75
0
147
1.0
148
0.0
149
0.0
100
AcDbLayout
  1
Model
 70
0
 71
0
 10
0.0
 20
0.0
 11
22.0
 21
17.0
 12
0.0
 22
0.0
 32
0.0
 14
0.0
 24
0.0
 34
0.0
 15
0.0
 25
0.0
 35
0.0
146
0.0
 13
0.0
 23
0.0
 33
0.0
 16
1.0
 26
0.0
 36
0.0
 17
0.0
 27
1.0
 37
0.0
 76
0
330
207
345
0
346
0
  0
LAYOUT
  5
2DA
102
{ACAD_REACTORS
330
1A
102
}
100
AcDbPlotSettings
  1

  2
none_device
  4
ANSI_C_(22.00_x_17.00_Inches)
  6

 40
0.0
 41
0.0
 42
0.0
 43
0.0
 44
558.8
 45
431.8
 46
0.0
 47
0.0
 48
0.0
 49
0.0
140
0.0
141
0.0
142
1.0
143
1.0
 70
0
 72
0
 73
0
 74
0
  7

 75
0
147
1.0
148
0.0
149
0.0
100
AcDbLayout
  1
Layout1
 70
0
 71
1
 10
0.0
 20
0.0
 11
22.0
 21
17.0
 12
0.0
 22
0.0
 32
0.0
 14
0.0
 24
0.0
 34
0.0
 15
0.0
 25
0.0
 35
0.0
146
0.0
 13
0.0
 23
0.0
 33
0.0
 16
1.0
 26
0.0
 36
0.0
 17
0.0
 27
1.0
 37
0.0
 76
0
330
208
345
0
346
0
  0
IMAGEDEF
  5
2DB
102
{ACAD_REACTORS
330
2D6
330
2D5
102
}
100
AcDbRasterImageDef
 90
0
  1
DBQ_assy_2_img_1.png
 10
369.0
 20
92.0
 11
0.0066666667
 21
0.0066666667
280
1
281
0
  0
TABLESTYLE
  5
2DC
102
{ACAD_REACTORS
330
2D8
330
270
102
}
330
2D8
100
AcDbTableStyle
  3
Standard
 70
0
 71
0
 40
0.06
 41
0.06
280
1
281
1
  7
Standard
140
0.18
170
1
 62
0
 63
7
283
0
  7
Standard
140
0.18
170
1
 62
0
 63
7
283
0
  7
Standard
140
0.18
170
1
 62
0
 63
7
283
0
  0
TABLESTYLE
  5
2DD
102
{ACAD_REACTORS
330
2D8
330
26F
102
}
330
2D8
100
AcDbTableStyle
  3
Standard1
 70
1
 71
0
 40
0.06
 41
0.06
280
1
281
1
  7
Standard
140
0.18
170
1
 62
0
 63
7
283
0
  7
Standard
140
0.18
170
1
 62
0
 63
7
283
0
  7
Standard
140
0.18
170
1
 62
0
 63
7
283
0
  0
ENDSEC
  0
EOF
