999
DXF file: CSL_assy_2.dxf
999
Pro/ENGINEER 2014200 by Parametric Technology Corporation
  0
SECTION
  2
HEADER
  9
$ACADVER
  1
AC1021
  9
$DWGCODEPAGE
  3
ANSI_1252
  9
$EXTMAX
 10
22.0
 20
17.0
 30
0.0
  9
$EXTMIN
 10
0.0
 20
0.0
 30
0.0
  9
$LIMMIN
 10
0.0
 20
0.0
  9
$LIMMAX
 10
22.0
 20
17.0
  9
$VIEWCTR
 10
11.0
 20
8.5
  9
$VIEWSIZE
 40
17.0
  9
$CLAYER
  8
0
  9
$LTSCALE
 40
1.21
  9
$CELTYPE
  6
BYLAYER
  9
$DIMSCALE
 40
1.0
  9
$DIMASZ
 40
0.1875
  9
$DIMEXO
 40
0.0625
  9
$DIMDLI
 40
0.836
  9
$DIMEXE
 40
0.125
  9
$DIMCEN
 40
0.198
  9
$DIMLFAC
 40
1.0
  9
$DIMBLK
  1
_FILLED
  9
$DIMTXT
 40
0.1
  9
$DIMTOL
 70
0
  9
$DIMLIM
 70
0
  9
$DIMTFAC
 40
1.0
  9
$DIMGAP
 40
0.09
  9
$DIMDSEP
 70
46
  9
$AUNITS
 70
0
  9
$PDMODE
 70
3
  9
$PDSIZE
 40
0.3125
  9
$HANDSEED
  5
3D3
  9
$TILEMODE
 70
1
  9
$MEASUREMENT
 70
0
  9
$INSUNITS
 70
1
  0
ENDSEC
  0
SECTION
  2
CLASSES
  0
CLASS
  1
ACDBDICTIONARYWDFLT
  2
AcDbDictionaryWithDefault
  3
AutoCAD 2000
 90
0
 91
1
280
0
281
0
  0
CLASS
  1
ACDBPLACEHOLDER
  2
AcDbPlaceHolder
  3
AutoCAD 2000
 90
0
 91
1
280
0
281
0
  0
CLASS
  1
LAYOUT
  2
AcDbLayout
  3
AutoCAD 2000
 90
0
 91
0
280
0
281
0
  0
CLASS
  1
RASTERVARIABLES
  2
AcDbRasterVariables
  3
ISM
 90
0
 91
1
280
0
281
0
  0
CLASS
  1
IMAGEDEF
  2
AcDbRasterImageDef
  3
ISM
 90
0
 91
1
280
0
281
0
  0
CLASS
  1
IMAGEDEF_REACTOR
  2
AcDbRasterImageDefReactor
  3
ISM
 90
0
 91
1
280
0
281
0
  0
CLASS
  1
IMAGE
  2
AcDbRasterImage
  3
ISM
 90
127
 91
1
280
0
281
1
  0
CLASS
  1
TABLESTYLE
  2
AcDbTableStyle
  3
ObjectDBX Classes
 90
2047
 91
1
280
0
281
0
  0
CLASS
  1
ACAD_TABLE
  2
AcDbTable
  3
ObjectDBX Classes
 90
1025
 91
3
280
0
281
1
  0
ENDSEC
  0
SECTION
  2
TABLES
  0
TABLE
  2
VPORT
  5
8
100
AcDbSymbolTable
 70
2
  0
VPORT
  5
1F4
100
AcDbSymbolTableRecord
100
AcDbViewportTableRecord
  2
*ACTIVE
 70
0
 10
0.0
 20
0.0
 11
1.0
 21
1.0
 12
11.0
 22
8.5
 13
0.0
 23
0.0
 14
1.0
 24
1.0
 15
0.0
 25
0.0
 16
0.0
 26
0.0
 36
1.0
 17
0.0
 27
0.0
 37
0.0
 40
17.0
 41
1.2941176471
 42
50.0
 43
0.0
 44
0.0
 50
0.0
 51
0.0
 71
0
 72
100
 73
1
 74
1
 75
0
 76
0
 77
0
 78
0
  0
ENDTAB
  0
TABLE
  2
LTYPE
  5
5
100
AcDbSymbolTable
 70
6
  0
LTYPE
  5
14
100
AcDbSymbolTableRecord
100
AcDbLinetypeTableRecord
  2
BYBLOCK
 70
0
  3

 72
65
 73
0
 40
0.0
  0
LTYPE
  5
15
100
AcDbSymbolTableRecord
100
AcDbLinetypeTableRecord
  2
BYLAYER
 70
0
  3

 72
65
 73
0
 40
0.0
  0
LTYPE
  5
16
100
AcDbSymbolTableRecord
100
AcDbLinetypeTableRecord
  2
CONTINUOUS
 70
64
  3
Solid line
 72
65
 73
0
 40
0.0
  0
LTYPE
  5
1F5
100
AcDbSymbolTableRecord
100
AcDbLinetypeTableRecord
  2
CENTER
 70
64
  3
____ _ ____ _ ____ _ ____ _ ____ _ ____ _ ____
 72
65
 73
4
 40
0.6
 49
0.375
 74
0
 49
-0.075
 74
0
 49
0.075
 74
0
 49
-0.075
 74
0
  0
LTYPE
  5
1F6
100
AcDbSymbolTableRecord
100
AcDbLinetypeTableRecord
  2
HIDDEN
 70
64
  3
- - - - - - - - - - - - - - - - - - - -
 72
65
 73
2
 40
0.2
 49
0.1
 74
0
 49
-0.1
 74
0
  0
LTYPE
  5
1F7
100
AcDbSymbolTableRecord
100
AcDbLinetypeTableRecord
  2
PHANTOM
 70
64
  3
_____ _ _ _____ _ _ _____ _ _ _____
 72
65
 73
6
 40
0.8
 49
0.45
 74
0
 49
-0.05
 74
0
 49
0.1
 74
0
 49
-0.05
 74
0
 49
0.1
 74
0
 49
-0.05
 74
0
  0
LTYPE
  5
1F8
100
AcDbSymbolTableRecord
100
AcDbLinetypeTableRecord
  2
DOT
 70
64
  3
. . . . . . . . . . . . . . . . . . . .
 72
65
 73
2
 40
0.2
 49
0.1
 74
0
 49
-0.1
 74
0
  0
LTYPE
  5
1F9
100
AcDbSymbolTableRecord
100
AcDbLinetypeTableRecord
  2
DASHED
 70
64
  3
- - - - - - - - - - - - - - - - - - - -
 72
65
 73
2
 40
0.2
 49
0.1
 74
0
 49
-0.1
 74
0
  0
ENDTAB
  0
TABLE
  2
LAYER
  5
2
100
AcDbSymbolTable
 70
36
  0
LAYER
  5
10
100
AcDbSymbolTableRecord
100
AcDbLayerTableRecord
  2
0
 70
0
 62
7
  6
CONTINUOUS
370
-3
390
F
  0
LAYER
  5
1FA
100
AcDbSymbolTableRecord
100
AcDbLayerTableRecord
  2
DEFAULT_1
 70
0
 62
7
  6
CENTER
370
-3
390
F
  0
LAYER
  5
1FB
100
AcDbSymbolTableRecord
100
AcDbLayerTableRecord
  2
DEFAULT_2
 70
0
 62
8
  6
HIDDEN
370
-3
390
F
  0
LAYER
  5
1FC
100
AcDbSymbolTableRecord
100
AcDbLayerTableRecord
  2
DEFAULT_3
 70
0
 62
7
  6
PHANTOM
370
-3
390
F
  0
LAYER
  5
1FD
100
AcDbSymbolTableRecord
100
AcDbLayerTableRecord
  2
01___PRT_ALL_DTM_PLN
 70
0
 62
7
  6
CONTINUOUS
370
-3
390
F
  0
LAYER
  5
1FE
100
AcDbSymbolTableRecord
100
AcDbLayerTableRecord
  2
01___PRT_DEF_DTM_PLN
 70
0
 62
7
  6
CONTINUOUS
370
-3
390
F
  0
LAYER
  5
1FF
100
AcDbSymbolTableRecord
100
AcDbLayerTableRecord
  2
02___PRT_ALL_AXES
 70
0
 62
7
  6
CONTINUOUS
370
-3
390
F
  0
LAYER
  5
200
100
AcDbSymbolTableRecord
100
AcDbLayerTableRecord
  2
03___PRT_ALL_CURVES
 70
0
 62
7
  6
CONTINUOUS
370
-3
390
F
  0
LAYER
  5
201
100
AcDbSymbolTableRecord
100
AcDbLayerTableRecord
  2
04___PRT_ALL_DTM_PNT
 70
0
 62
7
  6
CONTINUOUS
370
-3
390
F
  0
LAYER
  5
202
100
AcDbSymbolTableRecord
100
AcDbLayerTableRecord
  2
05___PRT_ALL_DTM_CSYS
 70
0
 62
7
  6
CONTINUOUS
370
-3
390
F
  0
LAYER
  5
203
100
AcDbSymbolTableRecord
100
AcDbLayerTableRecord
  2
05___PRT_DEF_DTM_CSYS
 70
0
 62
7
  6
CONTINUOUS
370
-3
390
F
  0
LAYER
  5
204
100
AcDbSymbolTableRecord
100
AcDbLayerTableRecord
  2
06___PRT_ALL_SURFS
 70
0
 62
7
  6
CONTINUOUS
370
-3
390
F
  0
LAYER
  5
205
100
AcDbSymbolTableRecord
100
AcDbLayerTableRecord
  2
DATUM_PLANES
 70
0
 62
7
  6
CONTINUOUS
370
-3
390
F
  0
LAYER
  5
206
100
AcDbSymbolTableRecord
100
AcDbLayerTableRecord
  2
PORT_AREAS
 70
0
 62
7
  6
CONTINUOUS
370
-3
390
F
  0
LAYER
  5
207
100
AcDbSymbolTableRecord
100
AcDbLayerTableRecord
  2
SUNNBOMCOSMETIC
 70
0
 62
7
  6
CONTINUOUS
370
-3
390
F
  0
LAYER
  5
208
100
AcDbSymbolTableRecord
100
AcDbLayerTableRecord
  2
SUNNBOMSTAMPING
 70
0
 62
7
  6
CONTINUOUS
370
-3
390
F
  0
LAYER
  5
209
100
AcDbSymbolTableRecord
100
AcDbLayerTableRecord
  2
THREADS
 70
0
 62
7
  6
CONTINUOUS
370
-3
390
F
  0
ENDTAB
  0
TABLE
  2
STYLE
  5
3
100
AcDbSymbolTable
 70
1
  0
STYLE
  5
11
100
AcDbSymbolTableRecord
100
AcDbTextStyleTableRecord
  2
STANDARD
 70
0
 40
0.0
 41
0.8
 50
0.0
 71
0
 42
0.2
  3
txt
  4

  0
STYLE
  5
20A
100
AcDbSymbolTableRecord
100
AcDbTextStyleTableRecord
  2
TEXTSTYLE_1
 70
0
 40
0.0
 41
0.8
 50
0.0
 71
0
 42
0.2
  3
gdt
  4

  0
ENDTAB
  0
TABLE
  2
VIEW
  5
6
100
AcDbSymbolTable
 70
0
  0
ENDTAB
  0
TABLE
  2
UCS
  5
7
100
AcDbSymbolTable
 70
0
  0
ENDTAB
  0
TABLE
  2
APPID
  5
9
100
AcDbSymbolTable
 70
1
  0
APPID
  5
20B
100
AcDbSymbolTableRecord
100
AcDbRegAppTableRecord
  2
ACAD
 70
0
  0
ENDTAB
  0
TABLE
  2
BLOCK_RECORD
  5
1
100
AcDbSymbolTable
 70
0
  0
BLOCK_RECORD
  5
20C
100
AcDbSymbolTableRecord
100
AcDbBlockTableRecord
  2
*Model_Space
  0
BLOCK_RECORD
  5
20D
100
AcDbSymbolTableRecord
100
AcDbBlockTableRecord
  2
*Paper_Space
  0
BLOCK_RECORD
  5
20E
100
AcDbSymbolTableRecord
100
AcDbBlockTableRecord
  2
SUN_FIRST_THIRD_ANGLE_BL0
  0
BLOCK_RECORD
  5
20F
100
AcDbSymbolTableRecord
100
AcDbBlockTableRecord
  2
*T1
  0
BLOCK_RECORD
  5
210
100
AcDbSymbolTableRecord
100
AcDbBlockTableRecord
  2
*T2
  0
BLOCK_RECORD
  5
211
100
AcDbSymbolTableRecord
100
AcDbBlockTableRecord
  2
*T3
  0
ENDTAB
  0
TABLE
  2
DIMSTYLE
  5
A
100
AcDbSymbolTable
 70
1
100
AcDbDimStyleTable
 71
0
  0
DIMSTYLE
105
212
100
AcDbSymbolTableRecord
100
AcDbDimStyleTableRecord
  2
STANDARD
 70
0
  3

  4

 40
1.0
 41
0.1875
 42
0.0625
 43
0.38
 44
0.125
 45
0.0
 46
0.0
 47
0.001
 48
0.001
140
0.1
141
0.09
142
0.0
143
25.4
144
1.0
145
0.0
146
1.0
147
0.09
 71
0.0
 72
0.0
 73
1
 74
1
 75
0
 76
0
 77
0
 78
4
170
0
171
2
172
0
173
0
174
0
175
0
176
0
177
0
178
0
270
2
271
3
272
3
273
2
274
2
275
0
280
0
281
0
282
0
283
1
284
4
285
0
286
0
287
3
288
0
340
11
278
46
  0
ENDTAB
  0
ENDSEC
  0
SECTION
  2
BLOCKS
  0
BLOCK
  5
20
100
AcDbEntity
  8
0
100
AcDbBlockBegin
  2
*Model_Space
 70
0
 10
0.0
 20
0.0
 30
0.0
  3
*Model_Space
  1

  0
ENDBLK
  5
21
100
AcDbEntity
  8
0
100
AcDbBlockEnd
  0
BLOCK
  5
1C
100
AcDbEntity
  8
0
100
AcDbBlockBegin
  2
*Paper_Space
 70
0
 10
0.0
 20
0.0
 30
0.0
  3
*Paper_Space
  1

  0
ENDBLK
  5
1D
100
AcDbEntity
  8
0
100
AcDbBlockEnd
  0
BLOCK
  5
213
100
AcDbEntity
  8
0
100
AcDbBlockBegin
 62
2
  6
CONTINUOUS
  2
SUN_FIRST_THIRD_ANGLE_BL0
 70
64
 10
20.4816717061
 20
1.2289683772
  3
SUN_FIRST_THIRD_ANGLE_BL0
  1

  0
TEXT
  5
214
100
AcDbEntity
  8
0
100
AcDbText
 62
2
  6
CONTINUOUS
 10
19.4750896608
 20
1.4136269581
  7
STANDARD
 40
0.08
  1
FIRST ANGLE
 41
0.8
 72
0
100
AcDbText
  0
TEXT
  5
215
100
AcDbEntity
  8
0
100
AcDbText
 62
2
  6
CONTINUOUS
 10
20.7842537513
 20
1.4047600029
  7
STANDARD
 40
0.08
  1
THIRD ANGLE
 41
0.8
 72
0
100
AcDbText
  0
LINE
  5
216
100
AcDbEntity
  8
0
100
AcDbLine
 62
7
  6
CONTINUOUS
 10
19.4767170086
 20
1.1727031207
 11
19.6334271527
 21
1.1717972817
  0
LINE
  5
217
100
AcDbEntity
  8
0
100
AcDbLine
 62
7
  6
CONTINUOUS
 10
19.6596964832
 20
1.1717972817
 11
19.6950230232
 21
1.171593082
  0
LINE
  5
218
100
AcDbEntity
  8
0
100
AcDbLine
 62
7
  6
CONTINUOUS
 10
19.7194818561
 20
1.1708914427
 11
19.8852396156
 21
1.1699333054
  0
LINE
  5
219
100
AcDbEntity
  8
0
100
AcDbLine
 62
7
  6
CONTINUOUS
 10
19.4758111696
 20
1.2723454088
 11
19.88525039
 21
1.3511534004
  0
LINE
  5
21A
100
AcDbEntity
  8
0
100
AcDbLine
 62
7
  6
CONTINUOUS
 10
19.88525039
 20
1.3511534004
 11
19.8831348489
 21
0.9851647912
  0
LINE
  5
21B
100
AcDbEntity
  8
0
100
AcDbLine
 62
7
  6
CONTINUOUS
 10
19.8831348489
 20
0.9851647912
 11
19.4767170086
 21
1.0658141206
  0
LINE
  5
21C
100
AcDbEntity
  8
0
100
AcDbLine
 62
7
  6
CONTINUOUS
 10
19.4767170086
 20
1.0658141206
 11
19.4779056764
 21
1.2714536432
  0
CIRCLE
  5
21D
100
AcDbEntity
  8
0
100
AcDbCircle
 62
7
  6
CONTINUOUS
 10
20.2068232291
 20
1.1717972817
 40
0.175742101
  0
CIRCLE
  5
21E
100
AcDbEntity
  8
0
100
AcDbCircle
 62
7
  6
CONTINUOUS
 10
20.2068232291
 20
1.1717972817
 40
0.1005522074
  0
LINE
  5
21F
100
AcDbEntity
  8
0
100
AcDbLine
 62
7
  6
CONTINUOUS
 10
20.2077290681
 20
1.3756110529
 11
20.2071171714
 21
1.2379342989
  0
LINE
  5
220
100
AcDbEntity
  8
0
100
AcDbLine
 62
7
  6
CONTINUOUS
 10
20.2077290681
 20
1.2016899681
 11
20.2074674401
 21
1.1428236749
  0
LINE
  5
221
100
AcDbEntity
  8
0
100
AcDbLine
 62
7
  6
CONTINUOUS
 10
20.208634907
 20
1.101141841
 11
20.2080230104
 21
0.963465087
  0
LINE
  5
222
100
AcDbEntity
  8
0
100
AcDbLine
 62
7
  6
CONTINUOUS
 10
20.0066328138
 20
1.1745147986
 11
20.1443095678
 21
1.1739029019
  0
LINE
  5
223
100
AcDbEntity
  8
0
100
AcDbLine
 62
7
  6
CONTINUOUS
 10
20.1832714155
 20
1.1727031207
 11
20.238153505
 21
1.172335442
  0
LINE
  5
224
100
AcDbEntity
  8
0
100
AcDbLine
 62
7
  6
CONTINUOUS
 10
20.2756669918
 20
1.1717972817
 11
20.407916871
 21
1.1712095044
  0
CIRCLE
  5
225
100
AcDbEntity
  8
0
100
AcDbCircle
 62
7
  6
CONTINUOUS
 10
20.7509457401
 20
1.1693297793
 40
0.1722024983
  0
CIRCLE
  5
226
100
AcDbEntity
  8
0
100
AcDbCircle
 62
7
  6
CONTINUOUS
 10
20.7509457401
 20
1.1693297793
 40
0.0985164967
  0
LINE
  5
227
100
AcDbEntity
  8
0
100
AcDbLine
 62
7
  6
CONTINUOUS
 10
20.7169767782
 20
1.170462078
 11
20.7825395137
 21
1.1682766535
  0
LINE
  5
228
100
AcDbEntity
  8
0
100
AcDbLine
 62
7
  6
CONTINUOUS
 10
20.8177513651
 20
1.1693297793
 11
20.947965719
 21
1.1693297793
  0
LINE
  5
229
100
AcDbEntity
  8
0
100
AcDbLine
 62
7
  6
CONTINUOUS
 10
20.6875370113
 20
1.170462078
 11
20.5573226574
 21
1.170462078
  0
LINE
  5
22A
100
AcDbEntity
  8
0
100
AcDbLine
 62
7
  6
CONTINUOUS
 10
20.7486811426
 20
1.1987695462
 11
20.7486811426
 21
1.1432869085
  0
LINE
  5
22B
100
AcDbEntity
  8
0
100
AcDbLine
 62
7
  6
CONTINUOUS
 10
20.7498134414
 20
1.1059210505
 11
20.7498134414
 21
0.9757066966
  0
LINE
  5
22C
100
AcDbEntity
  8
0
100
AcDbLine
 62
7
  6
CONTINUOUS
 10
20.7486811426
 20
1.2338708068
 11
20.7486811426
 21
1.3640851607
  0
LINE
  5
22D
100
AcDbEntity
  8
0
100
AcDbLine
 62
7
  6
CONTINUOUS
 10
21.0702539817
 20
1.2701043662
 11
21.4790138229
 21
1.3448360823
  0
LINE
  5
22E
100
AcDbEntity
  8
0
100
AcDbLine
 62
7
  6
CONTINUOUS
 10
21.4790138229
 20
1.3448360823
 11
21.4790138229
 21
0.9779712941
  0
LINE
  5
22F
100
AcDbEntity
  8
0
100
AcDbLine
 62
7
  6
CONTINUOUS
 10
21.4790138229
 20
0.9779712941
 11
21.069121683
 21
1.0617614
  0
LINE
  5
230
100
AcDbEntity
  8
0
100
AcDbLine
 62
7
  6
CONTINUOUS
 10
21.0702539817
 20
1.2701043662
 11
21.069121683
 21
1.0617614
  0
LINE
  5
231
100
AcDbEntity
  8
0
100
AcDbLine
 62
7
  6
CONTINUOUS
 10
21.4790138229
 20
1.1693297793
 11
21.3159628059
 21
1.1693297793
  0
LINE
  5
232
100
AcDbEntity
  8
0
100
AcDbLine
 62
7
  6
CONTINUOUS
 10
21.2876553377
 20
1.1693297793
 11
21.2502894796
 21
1.1693297793
  0
LINE
  5
233
100
AcDbEntity
  8
0
100
AcDbLine
 62
7
  6
CONTINUOUS
 10
21.2208497126
 20
1.1659328831
 11
21.0713862804
 21
1.1659328831
  0
LINE
  5
234
100
AcDbEntity
  8
0
100
AcDbLine
 62
7
  6
CONTINUOUS
 10
20.4796138713
 20
1.5284908897
 11
20.4766766948
 21
0.9294458646
  0
ENDBLK
  5
235
100
AcDbEntity
  8
0
  6
BYBLOCK
 62
0
100
AcDbBlockEnd
  0
BLOCK
  5
236
100
AcDbEntity
  8
0
100
AcDbBlockBegin
  2
*T1
 70
1
 10
0.0
 20
0.0
  3
*T1
  1

  0
LINE
  5
237
100
AcDbEntity
  8
0
100
AcDbLine
 62
2
  6
CONTINUOUS
 10
9.275
 20
0.0
 11
-0.0
 21
0.0
  0
LINE
  5
238
100
AcDbEntity
  8
0
100
AcDbLine
 62
2
  6
CONTINUOUS
 10
9.275
 20
0.0
 11
9.275
 21
1.25
  0
LINE
  5
239
100
AcDbEntity
  8
0
100
AcDbLine
 62
2
  6
CONTINUOUS
 10
9.275
 20
0.625
 11
-0.0
 21
0.625
  0
LINE
  5
23A
100
AcDbEntity
  8
0
100
AcDbLine
 62
2
  6
CONTINUOUS
 10
9.275
 20
1.25
 11
-0.0
 21
1.25
  0
LINE
  5
23B
100
AcDbEntity
  8
0
100
AcDbLine
 62
2
  6
CONTINUOUS
 10
6.8
 20
0.0
 11
6.8
 21
1.25
  0
LINE
  5
23C
100
AcDbEntity
  8
0
100
AcDbLine
 62
2
  6
CONTINUOUS
 10
6.4
 20
0.0
 11
6.4
 21
0.625
  0
LINE
  5
23D
100
AcDbEntity
  8
0
100
AcDbLine
 62
2
  6
CONTINUOUS
 10
5.9
 20
0.0
 11
5.9
 21
0.625
  0
LINE
  5
23E
100
AcDbEntity
  8
0
100
AcDbLine
 62
2
  6
CONTINUOUS
 10
5.2
 20
0.0
 11
5.2
 21
0.625
  0
LINE
  5
23F
100
AcDbEntity
  8
0
100
AcDbLine
 62
2
  6
CONTINUOUS
 10
4.1
 20
0.0
 11
4.1
 21
1.25
  0
LINE
  5
240
100
AcDbEntity
  8
0
100
AcDbLine
 62
2
  6
CONTINUOUS
 10
-0.0
 20
0.0
 11
-0.0
 21
1.25
  0
MTEXT
  5
241
100
AcDbEntity
  8
0
100
AcDbMText
 62
2
  6
CONTINUOUS
  7
STANDARD
 71
2
 72
1
 10
6.6
 20
0.325
 30
0.0
 11
1.0
 21
0.0
 31
0.0
 44
0.9
  1
2
 40
0.125
 41
0.2
  0
MTEXT
  5
242
100
AcDbEntity
  8
0
100
AcDbMText
 62
2
  6
CONTINUOUS
  7
STANDARD
 71
2
 72
1
 10
6.15
 20
0.325
 30
0.0
 11
1.0
 21
0.0
 31
0.0
 44
0.9
  1
C
 40
0.125
 41
0.2
  0
MTEXT
  5
243
100
AcDbEntity
  8
0
100
AcDbMText
 62
2
  6
CONTINUOUS
  7
STANDARD
 71
2
 72
1
 10
5.55
 20
0.325
 30
0.0
 11
1.0
 21
0.0
 31
0.0
 44
0.9
  1
1.000
 40
0.125
 41
1.0
  0
MTEXT
  5
244
100
AcDbEntity
  8
0
100
AcDbMText
 62
2
  6
CONTINUOUS
  7
STANDARD
 71
2
 72
1
 10
4.65
 20
0.325
 30
0.0
 11
1.0
 21
0.0
 31
0.0
 44
0.9
  1
Dec-09-21
 40
0.125
 41
1.8
  0
MTEXT
  5
245
100
AcDbEntity
  8
0
100
AcDbMText
 62
2
  6
CONTINUOUS
  7
STANDARD
 71
2
 72
1
 10
2.05
 20
0.4625
 30
0.0
 11
1.0
 21
0.0
 31
0.0
 44
0.9
  1
T-3A Subplate ISO 05\PP to T, side ports
 40
0.125
 41
4.0
  0
MTEXT
  5
246
100
AcDbEntity
  8
0
100
AcDbMText
 62
2
  6
CONTINUOUS
  7
STANDARD
 71
1
 72
1
 10
6.45
 20
0.5625
 30
0.0
 11
1.0
 21
0.0
 31
0.0
 44
0.9
  1
SHEET
 40
0.06
 41
0.48
  0
MTEXT
  5
247
100
AcDbEntity
  8
0
100
AcDbMText
 62
2
  6
CONTINUOUS
  7
STANDARD
 71
1
 72
1
 10
5.95
 20
0.5625
 30
0.0
 11
1.0
 21
0.0
 31
0.0
 44
0.9
  1
DWG SIZE
 40
0.06
 41
0.768
  0
MTEXT
  5
248
100
AcDbEntity
  8
0
100
AcDbMText
 62
2
  6
CONTINUOUS
  7
STANDARD
 71
1
 72
1
 10
5.25
 20
0.5625
 30
0.0
 11
1.0
 21
0.0
 31
0.0
 44
0.9
  1
SCALE
 40
0.06
 41
0.48
  0
MTEXT
  5
249
100
AcDbEntity
  8
0
100
AcDbMText
 62
2
  6
CONTINUOUS
  7
STANDARD
 71
1
 72
1
 10
4.15
 20
0.5625
 30
0.0
 11
1.0
 21
0.0
 31
0.0
 44
0.9
  1
DATE
 40
0.06
 41
0.384
  0
MTEXT
  5
24A
100
AcDbEntity
  8
0
100
AcDbMText
 62
2
  6
CONTINUOUS
  7
STANDARD
 71
1
 72
1
 10
0.05
 20
0.5625
 30
0.0
 11
1.0
 21
0.0
 31
0.0
 44
0.9
  1
DESCRIPTION
 40
0.06
 41
1.056
  0
MTEXT
  5
24B
100
AcDbEntity
  8
0
100
AcDbMText
 62
2
  6
CONTINUOUS
  7
STANDARD
 71
2
 72
1
 10
5.45
 20
1.0375
 30
0.0
 11
1.0
 21
0.0
 31
0.0
 44
0.9
  1
ALL DIMENSIONS IN INCH\PVIEWS ARE THIRD ANGLE
 40
0.12
 41
4.224
  0
MTEXT
  5
24C
100
AcDbEntity
  8
0
100
AcDbMText
 62
2
  6
CONTINUOUS
  7
STANDARD
 71
2
 72
1
 10
2.05
 20
0.95
 30
0.0
 11
1.0
 21
0.0
 31
0.0
 44
0.9
  1
CSL
 40
0.125
 41
0.6
  0
MTEXT
  5
24D
100
AcDbEntity
  8
0
100
AcDbMText
 62
2
  6
CONTINUOUS
  7
STANDARD
 71
1
 72
1
 10
0.05
 20
1.1875
 30
0.0
 11
1.0
 21
0.0
 31
0.0
 44
0.9
  1
MODEL
 40
0.06
 41
0.48
  0
ENDBLK
  5
24E
100
AcDbEntity
  8
0
  6
BYBLOCK
 62
0
100
AcDbBlockEnd
  0
BLOCK
  5
24F
100
AcDbEntity
  8
0
100
AcDbBlockBegin
  2
*T2
 70
1
 10
0.0
 20
0.0
  3
*T2
  1

  0
LINE
  5
250
100
AcDbEntity
  8
0
100
AcDbLine
 62
2
  6
CONTINUOUS
 10
0.0
 20
0.0
 11
9.055
 21
0.0
  0
LINE
  5
251
100
AcDbEntity
  8
0
100
AcDbLine
 62
2
  6
CONTINUOUS
 10
0.0
 20
0.0
 11
0.0
 21
-2.594
  0
LINE
  5
252
100
AcDbEntity
  8
0
100
AcDbLine
 62
2
  6
CONTINUOUS
 10
0.0
 20
-0.344
 11
9.055
 21
-0.344
  0
LINE
  5
253
100
AcDbEntity
  8
0
100
AcDbLine
 62
2
  6
CONTINUOUS
 10
0.0
 20
-0.594
 11
9.055
 21
-0.594
  0
LINE
  5
254
100
AcDbEntity
  8
0
100
AcDbLine
 62
2
  6
CONTINUOUS
 10
0.0
 20
-0.844
 11
9.055
 21
-0.844
  0
LINE
  5
255
100
AcDbEntity
  8
0
100
AcDbLine
 62
2
  6
CONTINUOUS
 10
0.0
 20
-1.094
 11
9.055
 21
-1.094
  0
LINE
  5
256
100
AcDbEntity
  8
0
100
AcDbLine
 62
2
  6
CONTINUOUS
 10
0.0
 20
-1.344
 11
9.055
 21
-1.344
  0
LINE
  5
257
100
AcDbEntity
  8
0
100
AcDbLine
 62
2
  6
CONTINUOUS
 10
0.0
 20
-1.594
 11
9.055
 21
-1.594
  0
LINE
  5
258
100
AcDbEntity
  8
0
100
AcDbLine
 62
2
  6
CONTINUOUS
 10
0.0
 20
-1.844
 11
9.055
 21
-1.844
  0
LINE
  5
259
100
AcDbEntity
  8
0
100
AcDbLine
 62
2
  6
CONTINUOUS
 10
0.0
 20
-2.094
 11
9.055
 21
-2.094
  0
LINE
  5
25A
100
AcDbEntity
  8
0
100
AcDbLine
 62
2
  6
CONTINUOUS
 10
0.0
 20
-2.344
 11
9.055
 21
-2.344
  0
LINE
  5
25B
100
AcDbEntity
  8
0
100
AcDbLine
 62
2
  6
CONTINUOUS
 10
0.0
 20
-2.594
 11
9.055
 21
-2.594
  0
LINE
  5
25C
100
AcDbEntity
  8
0
100
AcDbLine
 62
2
  6
CONTINUOUS
 10
3.055
 20
0.0
 11
3.055
 21
-2.594
  0
LINE
  5
25D
100
AcDbEntity
  8
0
100
AcDbLine
 62
2
  6
CONTINUOUS
 10
9.055
 20
0.0
 11
9.055
 21
-2.594
  0
MTEXT
  5
25E
100
AcDbEntity
  8
0
100
AcDbMText
 62
2
  6
CONTINUOUS
  7
STANDARD
 71
2
 72
1
 10
1.5275
 20
-0.0995
 30
0.0
 11
1.0
 21
0.0
 31
0.0
 44
0.9
  1
Technical Data
 40
0.145
 41
3.248
  0
MTEXT
  5
25F
100
AcDbEntity
  8
0
100
AcDbMText
 62
2
  6
CONTINUOUS
  7
STANDARD
 71
2
 72
1
 10
4.555
 20
-0.0995
 30
0.0
 11
1.0
 21
0.0
 31
0.0
 44
0.9
  1
U.S. Units
 40
0.145
 41
2.32
  0
MTEXT
  5
260
100
AcDbEntity
  8
0
100
AcDbMText
 62
2
  6
CONTINUOUS
  7
STANDARD
 71
2
 72
1
 10
7.555
 20
-0.0995
 30
0.0
 11
1.0
 21
0.0
 31
0.0
 44
0.9
  1
Metric Units
 40
0.145
 41
2.784
  0
MTEXT
  5
261
100
AcDbEntity
  8
0
100
AcDbMText
 62
2
  6
CONTINUOUS
  7
STANDARD
 71
2
 72
1
 10
1.5275
 20
-0.4065
 30
0.0
 11
1.0
 21
0.0
 31
0.0
 44
0.9
  1
Cavity
 40
0.125
 41
1.2
  0
MTEXT
  5
262
100
AcDbEntity
  8
0
100
AcDbMText
 62
2
  6
CONTINUOUS
  7
STANDARD
 71
2
 72
1
 10
6.055
 20
-0.4065
 30
0.0
 11
1.0
 21
0.0
 31
0.0
 44
0.9
  1
T-3A
 40
0.125
 41
0.8
  0
MTEXT
  5
263
100
AcDbEntity
  8
0
100
AcDbMText
 62
2
  6
CONTINUOUS
  7
STANDARD
 71
2
 72
1
 10
1.5275
 20
-0.6565
 30
0.0
 11
1.0
 21
0.0
 31
0.0
 44
0.9
  1
Body Features
 40
0.125
 41
2.6
  0
MTEXT
  5
264
100
AcDbEntity
  8
0
100
AcDbMText
 62
2
  6
CONTINUOUS
  7
STANDARD
 71
2
 72
1
 10
6.055
 20
-0.6565
 30
0.0
 11
1.0
 21
0.0
 31
0.0
 44
0.9
  1
P to T, side ports
 40
0.125
 41
3.6
  0
MTEXT
  5
265
100
AcDbEntity
  8
0
100
AcDbMText
 62
2
  6
CONTINUOUS
  7
STANDARD
 71
2
 72
1
 10
1.5275
 20
-0.9065
 30
0.0
 11
1.0
 21
0.0
 31
0.0
 44
0.9
  1
Body Type
 40
0.125
 41
1.8
  0
MTEXT
  5
266
100
AcDbEntity
  8
0
100
AcDbMText
 62
2
  6
CONTINUOUS
  7
STANDARD
 71
2
 72
1
 10
6.055
 20
-0.9065
 30
0.0
 11
1.0
 21
0.0
 31
0.0
 44
0.9
  1
Subplate
 40
0.125
 41
1.6
  0
MTEXT
  5
267
100
AcDbEntity
  8
0
100
AcDbMText
 62
2
  6
CONTINUOUS
  7
STANDARD
 71
2
 72
1
 10
1.5275
 20
-1.1565
 30
0.0
 11
1.0
 21
0.0
 31
0.0
 44
0.9
  1
Interface
 40
0.125
 41
1.8
  0
MTEXT
  5
268
100
AcDbEntity
  8
0
100
AcDbMText
 62
2
  6
CONTINUOUS
  7
STANDARD
 71
2
 72
1
 10
6.055
 20
-1.1565
 30
0.0
 11
1.0
 21
0.0
 31
0.0
 44
0.9
  1
ISO 05
 40
0.125
 41
1.2
  0
MTEXT
  5
269
100
AcDbEntity
  8
0
100
AcDbMText
 62
2
  6
CONTINUOUS
  7
STANDARD
 71
2
 72
1
 10
1.5275
 20
-1.4065
 30
0.0
 11
1.0
 21
0.0
 31
0.0
 44
0.9
  1
Open Cavity Quantity
 40
0.125
 41
4.0
  0
MTEXT
  5
26A
100
AcDbEntity
  8
0
100
AcDbMText
 62
2
  6
CONTINUOUS
  7
STANDARD
 71
2
 72
1
 10
6.055
 20
-1.4065
 30
0.0
 11
1.0
 21
0.0
 31
0.0
 44
0.9
  1
1
 40
0.125
 41
0.2
  0
MTEXT
  5
26B
100
AcDbEntity
  8
0
100
AcDbMText
 62
2
  6
CONTINUOUS
  7
STANDARD
 71
2
 72
1
 10
1.5275
 20
-1.6565
 30
0.0
 11
1.0
 21
0.0
 31
0.0
 44
0.9
  1
Weight
 40
0.125
 41
1.2
  0
MTEXT
  5
26C
100
AcDbEntity
  8
0
100
AcDbMText
 62
2
  6
CONTINUOUS
  7
STANDARD
 71
2
 72
1
 10
4.555
 20
-1.6565
 30
0.0
 11
1.0
 21
0.0
 31
0.0
 44
0.9
  1
3.039 lb.
 40
0.125
 41
1.8
  0
MTEXT
  5
26D
100
AcDbEntity
  8
0
100
AcDbMText
 62
2
  6
CONTINUOUS
  7
STANDARD
 71
2
 72
1
 10
7.555
 20
-1.6565
 30
0.0
 11
1.0
 21
0.0
 31
0.0
 44
0.9
  1
1,378 kg.
 40
0.125
 41
1.8
  0
MTEXT
  5
26E
100
AcDbEntity
  8
0
100
AcDbMText
 62
2
  6
CONTINUOUS
  7
STANDARD
 71
2
 72
1
 10
1.5275
 20
-1.9065
 30
0.0
 11
1.0
 21
0.0
 31
0.0
 44
0.9
  1
Mounting Hole Diameter
 40
0.125
 41
4.4
  0
MTEXT
  5
26F
100
AcDbEntity
  8
0
100
AcDbMText
 62
2
  6
CONTINUOUS
  7
STANDARD
 71
2
 72
1
 10
4.555
 20
-1.9065
 30
0.0
 11
1.0
 21
0.0
 31
0.0
 44
0.9
  1
.44 in.
 40
0.125
 41
1.4
  0
MTEXT
  5
270
100
AcDbEntity
  8
0
100
AcDbMText
 62
2
  6
CONTINUOUS
  7
STANDARD
 71
2
 72
1
 10
7.555
 20
-1.9065
 30
0.0
 11
1.0
 21
0.0
 31
0.0
 44
0.9
  1
11,1 mm
 40
0.125
 41
1.4
  0
MTEXT
  5
271
100
AcDbEntity
  8
0
100
AcDbMText
 62
2
  6
CONTINUOUS
  7
STANDARD
 71
2
 72
1
 10
1.5275
 20
-2.1565
 30
0.0
 11
1.0
 21
0.0
 31
0.0
 44
0.9
  1
Mounting Hole Depth
 40
0.125
 41
3.8
  0
MTEXT
  5
272
100
AcDbEntity
  8
0
100
AcDbMText
 62
2
  6
CONTINUOUS
  7
STANDARD
 71
2
 72
1
 10
6.055
 20
-2.1565
 30
0.0
 11
1.0
 21
0.0
 31
0.0
 44
0.9
  1
Through
 40
0.125
 41
1.4
  0
MTEXT
  5
273
100
AcDbEntity
  8
0
100
AcDbMText
 62
2
  6
CONTINUOUS
  7
STANDARD
 71
2
 72
1
 10
1.5275
 20
-2.4065
 30
0.0
 11
1.0
 21
0.0
 31
0.0
 44
0.9
  1
Mounting Hole Quantity
 40
0.125
 41
4.4
  0
MTEXT
  5
274
100
AcDbEntity
  8
0
100
AcDbMText
 62
2
  6
CONTINUOUS
  7
STANDARD
 71
2
 72
1
 10
6.055
 20
-2.4065
 30
0.0
 11
1.0
 21
0.0
 31
0.0
 44
0.9
  1
4
 40
0.125
 41
0.2
  0
ENDBLK
  5
275
100
AcDbEntity
  8
0
  6
BYBLOCK
 62
0
100
AcDbBlockEnd
  0
BLOCK
  5
276
100
AcDbEntity
  8
0
100
AcDbBlockBegin
  2
*T3
 70
1
 10
0.0
 20
0.0
  3
*T3
  1

  0
LINE
  5
277
100
AcDbEntity
  8
0
100
AcDbLine
 62
2
  6
CONTINUOUS
 10
0.0
 20
0.0
 11
4.6
 21
0.0
  0
LINE
  5
278
100
AcDbEntity
  8
0
100
AcDbLine
 62
2
  6
CONTINUOUS
 10
0.0
 20
0.0
 11
0.0
 21
-0.93775
  0
LINE
  5
279
100
AcDbEntity
  8
0
100
AcDbLine
 62
2
  6
CONTINUOUS
 10
0.0
 20
-0.34375
 11
4.6
 21
-0.34375
  0
LINE
  5
27A
100
AcDbEntity
  8
0
100
AcDbLine
 62
2
  6
CONTINUOUS
 10
0.0
 20
-0.68775
 11
4.6
 21
-0.68775
  0
LINE
  5
27B
100
AcDbEntity
  8
0
100
AcDbLine
 62
2
  6
CONTINUOUS
 10
0.0
 20
-0.93775
 11
4.6
 21
-0.93775
  0
LINE
  5
27C
100
AcDbEntity
  8
0
100
AcDbLine
 62
2
  6
CONTINUOUS
 10
1.3
 20
-0.34375
 11
1.3
 21
-0.93775
  0
LINE
  5
27D
100
AcDbEntity
  8
0
100
AcDbLine
 62
2
  6
CONTINUOUS
 10
3.3
 20
-0.34375
 11
3.3
 21
-0.93775
  0
LINE
  5
27E
100
AcDbEntity
  8
0
100
AcDbLine
 62
2
  6
CONTINUOUS
 10
4.6
 20
0.0
 11
4.6
 21
-0.93775
  0
MTEXT
  5
27F
100
AcDbEntity
  8
0
100
AcDbMText
 62
2
  6
CONTINUOUS
  7
STANDARD
 71
2
 72
1
 10
2.3
 20
-0.099375
 30
0.0
 11
1.0
 21
0.0
 31
0.0
 44
0.9
  1
Port Headings
 40
0.145
 41
3.016
  0
MTEXT
  5
280
100
AcDbEntity
  8
0
100
AcDbMText
 62
2
  6
CONTINUOUS
  7
STANDARD
 71
2
 72
1
 10
0.65
 20
-0.44325
 30
0.0
 11
1.0
 21
0.0
 31
0.0
 44
0.9
  1
Product
 40
0.145
 41
1.624
  0
MTEXT
  5
281
100
AcDbEntity
  8
0
100
AcDbMText
 62
2
  6
CONTINUOUS
  7
STANDARD
 71
2
 72
1
 10
2.3
 20
-0.44325
 30
0.0
 11
1.0
 21
0.0
 31
0.0
 44
0.9
  1
Port
 40
0.145
 41
0.928
  0
MTEXT
  5
282
100
AcDbEntity
  8
0
100
AcDbMText
 62
2
  6
CONTINUOUS
  7
STANDARD
 71
2
 72
1
 10
3.95
 20
-0.44325
 30
0.0
 11
1.0
 21
0.0
 31
0.0
 44
0.9
  1
Size
 40
0.145
 41
0.928
  0
MTEXT
  5
283
100
AcDbEntity
  8
0
100
AcDbMText
 62
2
  6
CONTINUOUS
  7
STANDARD
 71
2
 72
1
 10
0.65
 20
-0.75025
 30
0.0
 11
1.0
 21
0.0
 31
0.0
 44
0.9
  1
CSL
 40
0.125
 41
0.6
  0
MTEXT
  5
284
100
AcDbEntity
  8
0
100
AcDbMText
 62
2
  6
CONTINUOUS
  7
STANDARD
 71
2
 72
1
 10
2.3
 20
-0.75025
 30
0.0
 11
1.0
 21
0.0
 31
0.0
 44
0.9
  1
Ports A, B, P, T
 40
0.125
 41
3.2
  0
MTEXT
  5
285
100
AcDbEntity
  8
0
100
AcDbMText
 62
2
  6
CONTINUOUS
  7
STANDARD
 71
2
 72
1
 10
3.95
 20
-0.75025
 30
0.0
 11
1.0
 21
0.0
 31
0.0
 44
0.9
  1
SAE 12
 40
0.125
 41
1.2
  0
ENDBLK
  5
286
100
AcDbEntity
  8
0
  6
BYBLOCK
 62
0
100
AcDbBlockEnd
  0
ENDSEC
  0
SECTION
  2
ENTITIES
  0
IMAGE
  5
287
100
AcDbEntity
  8
0
100
AcDbRasterImage
 62
7
  6
CONTINUOUS
 10
19.2297077316
 20
0.3094318264
 30
0.0
 11
0.0066666667
 21
0.0
 31
0.0
 12
0.0
 22
0.0066666667
 32
0.0
 13
369.0
 23
92.0
340
       3D0
 70
9
280
0
281
50
282
50
283
0
360
       3CA
 71
1
 91
2
 14
-0.5
 24
-0.5
 14
368.5
 24
91.5
  0
INSERT
  5
288
100
AcDbEntity
  8
0
100
AcDbBlockReference
 62
2
  6
CONTINUOUS
  2
SUN_FIRST_THIRD_ANGLE_BL0
 10
20.4816717061
 20
1.2289683772
  0
ACAD_TABLE
  5
289
100
AcDbEntity
  8
0
 62
2
  6
CONTINUOUS
100
AcDbBlockReference
  2
*T1
 10
12.42375
 20
0.30125
 30
0.0
100
AcDbTable
342
       3D2
343
20F
 11
1.0
 21
0.0
 31
0.0
 90
6
 91
4
 92
6
 93
20
 94
0
 95
0
 96
0
 70
1
 41
0.0
141
0.525
141
0.1
141
0.525
141
0.1
142
4.1
142
1.1
142
0.7
142
0.5
142
0.4
142
2.475
171
1
172
0
173
0
174
0
175
1
176
1
 91
33
178
0
145
0.0
301
CELL_VALUE
 90
4
  1
T-3A Subplate ISO 05\PP to T, side ports
304
ACVALUE_END
170
2
140
0.125
171
1
172
0
173
0
174
0
175
1
176
1
 91
33
178
0
145
0.0
301
CELL_VALUE
 90
4
  1
Dec-09-21
304
ACVALUE_END
170
5
140
0.125
171
1
172
0
173
0
174
0
175
1
176
1
 91
33
178
0
145
0.0
301
CELL_VALUE
 90
4
  1
1.000
304
ACVALUE_END
170
5
140
0.125
171
1
172
0
173
0
174
0
175
1
176
1
 91
33
178
0
145
0.0
301
CELL_VALUE
 90
4
  1
C
304
ACVALUE_END
170
5
140
0.125
171
1
172
0
173
0
174
0
175
1
176
1
 91
33
178
0
145
0.0
301
CELL_VALUE
 90
4
  1
2
304
ACVALUE_END
170
5
140
0.125
171
1
172
0
173
0
174
0
175
1
176
1
 91
33
178
0
145
0.0
301
CELL_VALUE
 90
4
  1
 
304
ACVALUE_END
170
1
140
0.125
171
1
172
0
173
0
174
0
175
1
176
1
 91
33
178
0
145
0.0
301
CELL_VALUE
 90
4
  1
DESCRIPTION
304
ACVALUE_END
170
1
140
0.06
171
1
172
0
173
0
174
0
175
1
176
1
 91
33
178
0
145
0.0
301
CELL_VALUE
 90
4
  1
DATE
304
ACVALUE_END
170
1
140
0.06
171
1
172
0
173
0
174
0
175
1
176
1
 91
33
178
0
145
0.0
301
CELL_VALUE
 90
4
  1
SCALE
304
ACVALUE_END
170
1
140
0.06
171
1
172
0
173
0
174
0
175
1
176
1
 91
33
178
0
145
0.0
301
CELL_VALUE
 90
4
  1
DWG SIZE
304
ACVALUE_END
170
1
140
0.06
171
1
172
0
173
0
174
0
175
1
176
1
 91
33
178
0
145
0.0
301
CELL_VALUE
 90
4
  1
SHEET
304
ACVALUE_END
170
1
140
0.06
171
1
172
0
173
0
174
0
175
1
176
1
 91
33
178
0
145
0.0
301
CELL_VALUE
 90
4
  1
 
304
ACVALUE_END
170
1
140
0.125
171
1
172
0
173
0
174
0
175
1
176
1
 91
33
178
0
145
0.0
301
CELL_VALUE
 90
4
  1
CSL
304
ACVALUE_END
170
5
140
0.125
171
1
172
0
173
0
174
0
175
4
176
1
 91
33
178
0
145
0.0
301
CELL_VALUE
 90
4
  1
ALL DIMENSIONS IN INCH\PVIEWS ARE THIRD ANGLE
304
ACVALUE_END
170
5
140
0.12
171
1
172
0
173
1
174
0
175
1
176
1
 91
1
178
0
145
0.0
170
1
171
1
172
0
173
1
174
0
175
1
176
1
 91
1
178
0
145
0.0
170
1
171
1
172
0
173
1
174
0
175
1
176
1
 91
1
178
0
145
0.0
170
5
171
1
172
0
173
0
174
0
175
1
176
1
 91
33
178
0
145
0.0
301
CELL_VALUE
 90
4
  1
 
304
ACVALUE_END
170
1
140
0.125
171
1
172
0
173
0
174
0
175
1
176
1
 91
33
178
0
145
0.0
301
CELL_VALUE
 90
4
  1
MODEL
304
ACVALUE_END
170
1
140
0.06
171
1
172
0
173
0
174
0
175
1
176
1
 91
33
178
0
145
0.0
301
CELL_VALUE
 90
4
  1
 
304
ACVALUE_END
170
1
140
0.125
171
1
172
0
173
0
174
0
175
1
176
1
 91
33
178
0
145
0.0
301
CELL_VALUE
 90
4
  1
 
304
ACVALUE_END
170
1
140
0.125
171
1
172
0
173
0
174
0
175
1
176
1
 91
33
178
0
145
0.0
301
CELL_VALUE
 90
4
  1
 
304
ACVALUE_END
170
1
140
0.125
171
1
172
0
173
0
174
0
175
1
176
1
 91
33
178
0
145
0.0
301
CELL_VALUE
 90
4
  1
 
304
ACVALUE_END
170
1
140
0.125
171
1
172
0
173
0
174
0
175
1
176
1
 91
33
178
0
145
0.0
301
CELL_VALUE
 90
4
  1
 
304
ACVALUE_END
170
1
140
0.125
  0
ACAD_TABLE
  5
28A
100
AcDbEntity
  8
0
 62
2
  6
CONTINUOUS
100
AcDbBlockReference
  2
*T2
 10
12.4237499994
 20
16.47875
 30
0.0
100
AcDbTable
342
       3D1
343
210
 11
1.0
 21
0.0
 31
0.0
 90
22
 91
10
 92
3
 93
16
 94
0
 95
0
 96
0
 41
0.028
141
0.344
141
0.25
141
0.25
141
0.25
141
0.25
141
0.25
141
0.25
141
0.25
141
0.25
141
0.25
142
3.055
142
3.0
142
3.0
171
1
172
0
173
0
174
0
175
1
176
1
 91
33
178
0
145
0.0
301
CELL_VALUE
 90
4
  1
Technical Data
304
ACVALUE_END
170
5
140
0.145
171
1
172
0
173
0
174
0
175
1
176
1
 91
33
178
0
145
0.0
301
CELL_VALUE
 90
4
  1
U.S. Units
304
ACVALUE_END
170
5
140
0.145
171
1
172
0
173
0
174
0
175
1
176
1
 91
33
178
0
145
0.0
301
CELL_VALUE
 90
4
  1
Metric Units
304
ACVALUE_END
170
5
140
0.145
171
1
172
0
173
0
174
0
175
1
176
1
 91
33
178
0
145
0.0
301
CELL_VALUE
 90
4
  1
Cavity
304
ACVALUE_END
170
5
140
0.125
171
1
172
0
173
0
174
0
175
2
176
1
 91
33
178
0
145
0.0
301
CELL_VALUE
 90
4
  1
T-3A
304
ACVALUE_END
170
5
140
0.125
171
1
172
0
173
1
174
0
175
1
176
1
 91
1
178
0
145
0.0
170
1
171
1
172
0
173
0
174
0
175
1
176
1
 91
33
178
0
145
0.0
301
CELL_VALUE
 90
4
  1
Body Features
304
ACVALUE_END
170
5
140
0.125
171
1
172
0
173
0
174
0
175
2
176
1
 91
33
178
0
145
0.0
301
CELL_VALUE
 90
4
  1
P to T, side ports
304
ACVALUE_END
170
5
140
0.125
171
1
172
0
173
1
174
0
175
1
176
1
 91
1
178
0
145
0.0
170
1
171
1
172
0
173
0
174
0
175
1
176
1
 91
33
178
0
145
0.0
301
CELL_VALUE
 90
4
  1
Body Type
304
ACVALUE_END
170
5
140
0.125
171
1
172
0
173
0
174
0
175
2
176
1
 91
33
178
0
145
0.0
301
CELL_VALUE
 90
4
  1
Subplate
304
ACVALUE_END
170
5
140
0.125
171
1
172
0
173
1
174
0
175
1
176
1
 91
1
178
0
145
0.0
170
1
171
1
172
0
173
0
174
0
175
1
176
1
 91
33
178
0
145
0.0
301
CELL_VALUE
 90
4
  1
Interface
304
ACVALUE_END
170
5
140
0.125
171
1
172
0
173
0
174
0
175
2
176
1
 91
33
178
0
145
0.0
301
CELL_VALUE
 90
4
  1
ISO 05
304
ACVALUE_END
170
5
140
0.125
171
1
172
0
173
1
174
0
175
1
176
1
 91
1
178
0
145
0.0
170
1
171
1
172
0
173
0
174
0
175
1
176
1
 91
33
178
0
145
0.0
301
CELL_VALUE
 90
4
  1
Open Cavity Quantity
304
ACVALUE_END
170
5
140
0.125
171
1
172
0
173
0
174
0
175
2
176
1
 91
33
178
0
145
0.0
301
CELL_VALUE
 90
4
  1
1
304
ACVALUE_END
170
5
140
0.125
171
1
172
0
173
1
174
0
175
1
176
1
 91
1
178
0
145
0.0
170
1
171
1
172
0
173
0
174
0
175
1
176
1
 91
33
178
0
145
0.0
301
CELL_VALUE
 90
4
  1
Weight
304
ACVALUE_END
170
5
140
0.125
171
1
172
0
173
0
174
0
175
1
176
1
 91
33
178
0
145
0.0
301
CELL_VALUE
 90
4
  1
3.039 lb.
304
ACVALUE_END
170
5
140
0.125
171
1
172
0
173
0
174
0
175
1
176
1
 91
33
178
0
145
0.0
301
CELL_VALUE
 90
4
  1
1,378 kg.
304
ACVALUE_END
170
5
140
0.125
171
1
172
0
173
0
174
0
175
1
176
1
 91
33
178
0
145
0.0
301
CELL_VALUE
 90
4
  1
Mounting Hole Diameter
304
ACVALUE_END
170
5
140
0.125
171
1
172
0
173
0
174
0
175
1
176
1
 91
33
178
0
145
0.0
301
CELL_VALUE
 90
4
  1
.44 in.
304
ACVALUE_END
170
5
140
0.125
171
1
172
0
173
0
174
0
175
1
176
1
 91
33
178
0
145
0.0
301
CELL_VALUE
 90
4
  1
11,1 mm
304
ACVALUE_END
170
5
140
0.125
171
1
172
0
173
0
174
0
175
1
176
1
 91
33
178
0
145
0.0
301
CELL_VALUE
 90
4
  1
Mounting Hole Depth
304
ACVALUE_END
170
5
140
0.125
171
1
172
0
173
0
174
0
175
2
176
1
 91
33
178
0
145
0.0
301
CELL_VALUE
 90
4
  1
Through
304
ACVALUE_END
170
5
140
0.125
171
1
172
0
173
1
174
0
175
1
176
1
 91
1
178
0
145
0.0
170
1
171
1
172
0
173
0
174
0
175
1
176
1
 91
33
178
0
145
0.0
301
CELL_VALUE
 90
4
  1
Mounting Hole Quantity
304
ACVALUE_END
170
5
140
0.125
171
1
172
0
173
0
174
0
175
2
176
1
 91
33
178
0
145
0.0
301
CELL_VALUE
 90
4
  1
4
304
ACVALUE_END
170
5
140
0.125
171
1
172
0
173
1
174
0
175
1
176
1
 91
1
178
0
145
0.0
170
1
  0
ACAD_TABLE
  5
28B
100
AcDbEntity
  8
0
 62
2
  6
CONTINUOUS
100
AcDbBlockReference
  2
*T3
 10
0.52125
 20
1.459
 30
0.0
100
AcDbTable
342
       3D1
343
211
 11
1.0
 21
0.0
 31
0.0
 90
22
 91
3
 92
3
 93
16
 94
0
 95
0
 96
0
 41
0.05
141
0.34375
141
0.344
141
0.25
142
1.3
142
2.0
142
1.3
171
1
172
0
173
0
174
0
175
3
176
1
 91
33
178
0
145
0.0
301
CELL_VALUE
 90
4
  1
Port Headings
304
ACVALUE_END
170
5
140
0.145
171
1
172
0
173
1
174
0
175
1
176
1
 91
1
178
0
145
0.0
170
1
171
1
172
0
173
1
174
0
175
1
176
1
 91
1
178
0
145
0.0
170
1
171
1
172
0
173
0
174
0
175
1
176
1
 91
33
178
0
145
0.0
301
CELL_VALUE
 90
4
  1
Product
304
ACVALUE_END
170
5
140
0.145
171
1
172
0
173
0
174
0
175
1
176
1
 91
33
178
0
145
0.0
301
CELL_VALUE
 90
4
  1
Port
304
ACVALUE_END
170
5
140
0.145
171
1
172
0
173
0
174
0
175
1
176
1
 91
33
178
0
145
0.0
301
CELL_VALUE
 90
4
  1
Size
304
ACVALUE_END
170
5
140
0.145
171
1
172
0
173
0
174
0
175
1
176
1
 91
33
178
0
145
0.0
301
CELL_VALUE
 90
4
  1
CSL
304
ACVALUE_END
170
5
140
0.125
171
1
172
0
173
0
174
0
175
1
176
1
 91
33
178
0
145
0.0
301
CELL_VALUE
 90
4
  1
Ports A, B, P, T
304
ACVALUE_END
170
5
140
0.125
171
1
172
0
173
0
174
0
175
1
176
1
 91
33
178
0
145
0.0
301
CELL_VALUE
 90
4
  1
SAE 12
304
ACVALUE_END
170
5
140
0.125
  0
MTEXT
  5
28C
100
AcDbEntity
  8
0
100
AcDbMText
 62
2
  6
CONTINUOUS
  7
STANDARD
 71
1
 72
1
 10
0.52125
 20
5.75995
 30
0.0
 11
1.0
 21
0.0
 31
0.0
 44
0.6
  3
Notes\P \P1. Important: Carefully consider\P   the maximum system pressure. The\P   pressure rating of the manifold is\P   dependent on the manifold material,\P   with the port type/size a secondary\P   consideration. Manifolds\P   constructed of alu
  1
minum are not\P   rated for pressures higher than\P   3000 psi (210 bar), regardless of\P   the port type/size specified.
 40
0.1
 41
3.04
  0
LINE
  5
28D
100
AcDbEntity
  8
0
100
AcDbLine
 62
7
  6
CONTINUOUS
 10
0.30125
 20
0.30125
 11
0.30125
 21
16.69875
  0
LINE
  5
28E
100
AcDbEntity
  8
0
100
AcDbLine
 62
7
  6
CONTINUOUS
 10
0.30125
 20
0.30125
 11
21.69875
 21
0.30125
  0
LINE
  5
28F
100
AcDbEntity
  8
0
100
AcDbLine
 62
7
  6
CONTINUOUS
 10
0.30125
 20
16.69875
 11
21.69875
 21
16.69875
  0
LINE
  5
290
100
AcDbEntity
  8
0
100
AcDbLine
 62
7
  6
CONTINUOUS
 10
21.69875
 20
0.30125
 11
21.69875
 21
16.69875
  0
LINE
  5
291
100
AcDbEntity
  8
0
100
AcDbLine
 62
7
  6
CONTINUOUS
 10
8.785000436
 20
10.533807827
 11
9.3512960299
 21
11.080807399
  0
LINE
  5
292
100
AcDbEntity
  8
02___PRT_ALL_AXES
100
AcDbLine
 62
7
  6
CONTINUOUS
 10
10.0211369049
 20
10.7913240885
 11
10.021805369
 21
10.7919567013
  0
LINE
  5
293
100
AcDbEntity
  8
02___PRT_ALL_AXES
100
AcDbLine
 62
7
  6
CONTINUOUS
 10
9.9765198729
 20
10.7498147853
 11
10.0218012291
 21
10.7919538408
  0
LINE
  5
294
100
AcDbEntity
  8
0
100
AcDbLine
 62
7
  6
CONTINUOUS
 10
12.6487039701
 20
5.919192601
 11
8.785000436
 21
6.1871413512
  0
LINE
  5
295
100
AcDbEntity
  8
0
100
AcDbLine
 62
4
  6
CONTINUOUS
 10
10.4415633724
 20
6.2316360924
 11
10.4850300362
 21
6.2286216691
  0
LINE
  5
296
100
AcDbEntity
  8
0
100
AcDbLine
 62
4
  6
CONTINUOUS
 10
11.539269048
 20
6.1680669039
 11
11.4978722174
 21
6.1709377838
  0
LINE
  5
297
100
AcDbEntity
  8
0
100
AcDbLine
 62
4
  6
CONTINUOUS
 10
11.4481960539
 20
6.1743828374
 11
11.4233579445
 21
6.1761053662
  0
LINE
  5
298
100
AcDbEntity
  8
0
100
AcDbLine
 62
4
  6
CONTINUOUS
 10
11.3598828375
 20
6.1805073798
 11
11.3267653952
 21
6.1828040822
  0
LINE
  5
299
100
AcDbEntity
  8
0
100
AcDbLine
 62
4
  6
CONTINUOUS
 10
10.8741601128
 20
6.2141923652
 11
10.8327632961
 21
6.2170632442
  0
LINE
  5
29A
100
AcDbEntity
  8
0
100
AcDbLine
 62
4
  6
CONTINUOUS
 10
11.1363399912
 20
6.1960101288
 11
11.1860161824
 21
6.1925650733
  0
LINE
  5
29B
100
AcDbEntity
  8
0
100
AcDbLine
 62
4
  6
CONTINUOUS
 10
11.6027442103
 20
6.1636648864
 11
11.6524203737
 21
6.1602198328
  0
LINE
  5
29C
100
AcDbEntity
  8
0
100
AcDbLine
 62
4
  6
CONTINUOUS
 10
10.9486743926
 20
6.2421422419
 11
10.9928310008
 21
6.2390799707
  0
LINE
  5
29D
100
AcDbEntity
  8
0
100
AcDbLine
 62
7
  6
CONTINUOUS
 10
8.785000436
 20
10.533807827
 11
8.785000436
 21
6.1871413512
  0
LINE
  5
29E
100
AcDbEntity
  8
0
100
AcDbLine
 62
4
  6
CONTINUOUS
 10
11.6358616526
 20
6.2276031032
 11
11.6027442103
 21
6.2298998056
  0
LINE
  5
29F
100
AcDbEntity
  8
0
100
AcDbLine
 62
4
  6
CONTINUOUS
 10
11.1694574612
 20
6.2599483437
 11
11.1363399912
 21
6.2622450481
  0
LINE
  5
2A0
100
AcDbEntity
  8
0
100
AcDbLine
 62
4
  6
CONTINUOUS
 10
10.8327632961
 20
6.3329743476
 11
10.8741601128
 21
6.3301034686
  0
LINE
  5
2A1
100
AcDbEntity
  8
0
100
AcDbLine
 62
4
  6
CONTINUOUS
 10
11.036987609
 20
6.3188113434
 11
11.1032225213
 21
6.3142179366
  0
LINE
  5
2A2
100
AcDbEntity
  8
0
100
AcDbLine
 62
4
  6
CONTINUOUS
 10
11.1363399912
 20
6.3119212323
 11
11.1860161824
 21
6.3084761767
  0
LINE
  5
2A3
100
AcDbEntity
  8
0
100
AcDbLine
 62
4
  6
CONTINUOUS
 10
11.3267653952
 20
6.2987151857
 11
11.3598828375
 21
6.2964184832
  0
LINE
  5
2A4
100
AcDbEntity
  8
0
100
AcDbLine
 62
4
  6
CONTINUOUS
 10
11.4233579445
 20
6.2920164696
 11
11.4481960539
 21
6.2902939409
  0
LINE
  5
2A5
100
AcDbEntity
  8
0
100
AcDbLine
 62
4
  6
CONTINUOUS
 10
11.4978722174
 20
6.2868488872
 11
11.539269048
 21
6.2839780073
  0
LINE
  5
2A6
100
AcDbEntity
  8
0
100
AcDbLine
 62
4
  6
CONTINUOUS
 10
11.6027442103
 20
6.2795759898
 11
11.6524203737
 21
6.2761309362
  0
LINE
  5
2A7
100
AcDbEntity
  8
0
100
AcDbLine
 62
4
  6
CONTINUOUS
 10
11.1832562805
 20
6.4477609007
 11
11.1501388226
 21
6.4500576042
  0
LINE
  5
2A8
100
AcDbEntity
  8
0
100
AcDbLine
 62
4
  6
CONTINUOUS
 10
11.2384520442
 20
6.4439330615
 11
11.2715695004
 21
6.4416363581
  0
LINE
  5
2A9
100
AcDbEntity
  8
0
100
AcDbLine
 62
4
  6
CONTINUOUS
 10
11.3212456915
 20
6.4381913025
 11
11.3626425082
 21
6.4353204235
  0
LINE
  5
2AA
100
AcDbEntity
  8
0
100
AcDbLine
 62
4
  6
CONTINUOUS
 10
10.7665283768
 20
6.2713328391
 11
10.8106849885
 21
6.2461922618
  0
LINE
  5
2AB
100
AcDbEntity
  8
0
100
AcDbLine
 62
4
  6
CONTINUOUS
 10
8.9950893222
 20
7.7373715662
 11
8.9950893222
 21
7.6214604627
  0
LINE
  5
2AC
100
AcDbEntity
  8
0
100
AcDbLine
 62
4
  6
CONTINUOUS
 10
11.1501388226
 20
6.5659687076
 11
11.1832562805
 21
6.5636720041
  0
LINE
  5
2AD
100
AcDbEntity
  8
0
100
AcDbLine
 62
4
  6
CONTINUOUS
 10
11.2467314048
 20
6.5592699893
 11
11.2798488609
 21
6.5569732859
  0
LINE
  5
2AE
100
AcDbEntity
  8
0
100
AcDbLine
 62
4
  6
CONTINUOUS
 10
11.1528987203
 20
6.7584105227
 11
11.1694574414
 21
6.7572621715
  0
LINE
  5
2AF
100
AcDbEntity
  8
0
100
AcDbLine
 62
4
  6
CONTINUOUS
 10
11.7076161833
 20
6.7475386179
 11
11.6744986304
 21
6.749835328
  0
LINE
  5
2B0
100
AcDbEntity
  8
0
100
AcDbLine
 62
4
  6
CONTINUOUS
 10
11.5723865258
 20
6.7569168265
 11
11.5558278046
 21
6.7580651777
  0
LINE
  5
2B1
100
AcDbEntity
  8
0
100
AcDbLine
 62
4
  6
CONTINUOUS
 10
11.431637313
 20
6.7666778175
 11
11.3985198706
 21
6.76897452
  0
LINE
  5
2B2
100
AcDbEntity
  8
0
100
AcDbLine
 62
4
  6
CONTINUOUS
 10
11.274329379
 20
6.7775871598
 11
11.2412119367
 21
6.7798838622
  0
LINE
  5
2B3
100
AcDbEntity
  8
0
100
AcDbLine
 62
4
  6
CONTINUOUS
 10
10.7140923926
 20
6.8164397268
 11
10.7472098513
 21
6.8141430232
  0
LINE
  5
2B4
100
AcDbEntity
  8
0
100
AcDbLine
 62
4
  6
CONTINUOUS
 10
10.8134447636
 20
6.8095496164
 11
10.8382828661
 21
6.8078270882
  0
LINE
  5
2B5
100
AcDbEntity
  8
0
100
AcDbLine
 62
4
  6
CONTINUOUS
 10
11.4730341435
 20
6.7638069376
 11
11.5144309741
 21
6.7609360576
  0
LINE
  5
2B6
100
AcDbEntity
  8
0
100
AcDbLine
 62
4
  6
CONTINUOUS
 10
11.7490129586
 20
6.7446677418
 11
11.7821304009
 21
6.7423710393
  0
LINE
  5
2B7
100
AcDbEntity
  8
0
100
AcDbLine
 62
4
  6
CONTINUOUS
 10
11.3985198706
 20
6.8103713436
 11
11.431637313
 21
6.8080746412
  0
LINE
  5
2B8
100
AcDbEntity
  8
0
100
AcDbLine
 62
4
  6
CONTINUOUS
 10
11.42335798
 20
6.8500456385
 11
11.3819611495
 21
6.8529165185
  0
LINE
  5
2B9
100
AcDbEntity
  8
0
100
AcDbLine
 62
4
  6
CONTINUOUS
 10
11.0701050592
 20
6.8745438118
 11
11.1115018897
 21
6.8716729318
  0
LINE
  5
2BA
100
AcDbEntity
  8
0
100
AcDbLine
 62
4
  6
CONTINUOUS
 10
11.2412119367
 20
6.8626775095
 11
11.274329379
 21
6.8603808071
  0
LINE
  5
2BB
100
AcDbEntity
  8
0
100
AcDbLine
 62
4
  6
CONTINUOUS
 10
11.3074468766
 20
6.8580841008
 11
11.3405643189
 21
6.8557873984
  0
LINE
  5
2BC
100
AcDbEntity
  8
0
100
AcDbLine
 62
4
  6
CONTINUOUS
 10
11.6744986304
 20
6.8326289752
 11
11.7076161833
 21
6.8303322652
  0
LINE
  5
2BD
100
AcDbEntity
  8
0
100
AcDbLine
 62
4
  6
CONTINUOUS
 10
11.7490129586
 20
6.827461389
 11
11.7821304009
 21
6.8251646866
  0
LINE
  5
2BE
100
AcDbEntity
  8
0
100
AcDbLine
 62
4
  6
CONTINUOUS
 10
10.7223717575
 20
6.9317766543
 11
10.7554892154
 21
6.9294799508
  0
LINE
  5
2BF
100
AcDbEntity
  8
0
100
AcDbLine
 62
4
  6
CONTINUOUS
 10
11.6220626893
 20
6.8693828763
 11
11.6248224669
 21
6.869191485
  0
LINE
  5
2C0
100
AcDbEntity
  8
0
100
AcDbLine
 62
4
  6
CONTINUOUS
 10
11.6855378161
 20
6.2296776256
 11
11.7296944243
 21
6.2045370468
  0
LINE
  5
2C1
100
AcDbEntity
  8
0
100
AcDbLine
 62
4
  6
CONTINUOUS
 10
10.8741601128
 20
6.3301034686
 11
10.8907188409
 21
6.3123963888
  0
LINE
  5
2C2
100
AcDbEntity
  8
0
100
AcDbLine
 62
4
  6
CONTINUOUS
 10
11.7821304009
 20
6.781008075
 11
11.7490129586
 21
6.7888243534
  0
LINE
  5
2C3
100
AcDbEntity
  8
0
100
AcDbLine
 62
4
  6
CONTINUOUS
 10
11.2412119367
 20
6.7798838622
 11
11.2246532155
 21
6.7893115783
  0
LINE
  5
2C4
100
AcDbEntity
  8
0
100
AcDbLine
 62
4
  6
CONTINUOUS
 10
10.7637685794
 20
6.8461121311
 11
10.7058130277
 21
6.89980755
  0
LINE
  5
2C5
100
AcDbEntity
  8
0
100
AcDbLine
 62
4
  6
CONTINUOUS
 10
10.7058130277
 20
6.8252932676
 11
10.7140923926
 21
6.8164397268
  0
LINE
  5
2C6
100
AcDbEntity
  8
0
100
AcDbLine
 62
4
  6
CONTINUOUS
 10
11.3267653952
 20
6.1828040822
 11
11.310206674
 21
6.2005111632
  0
LINE
  5
2C7
100
AcDbEntity
  8
0
100
AcDbLine
 62
4
  6
CONTINUOUS
 10
11.2505262525
 20
10.1889563681
 11
11.2360373646
 21
10.1803019196
  0
LINE
  5
2C8
100
AcDbEntity
  8
0
100
AcDbLine
 62
4
  6
CONTINUOUS
 10
11.3985198706
 20
6.76897452
 11
11.3819611495
 21
6.7784022361
  0
LINE
  5
2C9
100
AcDbEntity
  8
0
100
AcDbLine
 62
4
  6
CONTINUOUS
 10
11.2881282353
 20
6.4736054655
 11
11.2301726767
 21
6.5273008848
  0
LINE
  5
2CA
100
AcDbEntity
  8
0
100
AcDbLine
 62
4
  6
CONTINUOUS
 10
10.7968860356
 20
6.8272566979
 11
10.8134447636
 21
6.8095496164
  0
LINE
  5
2CB
100
AcDbEntity
  8
0
100
AcDbLine
 62
4
  6
CONTINUOUS
 10
11.1501388226
 20
6.4500576042
 11
11.1335800928
 21
6.4677646858
  0
LINE
  5
2CC
100
AcDbEntity
  8
0
100
AcDbLine
 62
4
  6
CONTINUOUS
 10
11.4233579445
 20
6.1761053662
 11
11.4067992234
 21
6.1938124472
  0
LINE
  5
2CD
100
AcDbEntity
  8
0
100
AcDbLine
 62
4
  6
CONTINUOUS
 10
10.7554892154
 20
6.9294799508
 11
10.7637685794
 21
6.9206264075
  0
LINE
  5
2CE
100
AcDbEntity
  8
0
100
AcDbLine
 62
4
  6
CONTINUOUS
 10
11.2301726767
 20
6.4527866025
 11
11.2384520442
 21
6.4439330615
  0
LINE
  5
2CF
100
AcDbEntity
  8
0
100
AcDbLine
 62
4
  6
CONTINUOUS
 10
11.4481960539
 20
6.2902939409
 11
11.4647547751
 21
6.2725868616
  0
LINE
  5
2D0
100
AcDbEntity
  8
0
100
AcDbLine
 62
4
  6
CONTINUOUS
 10
11.2798488609
 20
6.5569732859
 11
11.2881282353
 21
6.5481197419
  0
LINE
  5
2D1
100
AcDbEntity
  8
0
100
AcDbLine
 62
4
  6
CONTINUOUS
 10
11.539269048
 20
6.2839780073
 11
11.5558277691
 21
6.266270928
  0
LINE
  5
2D2
100
AcDbEntity
  8
0
100
AcDbLine
 62
4
  6
CONTINUOUS
 10
10.4632967043
 20
6.3074029485
 11
10.4995189241
 21
6.1889798256
  0
LINE
  5
2D3
100
AcDbEntity
  8
0
100
AcDbLine
 62
4
  6
CONTINUOUS
 10
10.0374843291
 20
7.9780413139
 11
10.0374843291
 21
7.9490635381
  0
LINE
  5
2D4
100
AcDbEntity
  8
0
100
AcDbLine
 62
4
  6
CONTINUOUS
 10
8.9588671024
 20
7.7398835856
 11
9.031311542
 21
7.7348595467
  0
LINE
  5
2D5
100
AcDbEntity
  8
0
100
AcDbLine
 62
4
  6
CONTINUOUS
 10
11.7490129586
 20
6.7888243534
 11
11.7407336256
 21
6.7949181031
  0
LINE
  5
2D6
100
AcDbEntity
  8
0
100
AcDbLine
 62
4
  6
CONTINUOUS
 10
11.7904097339
 20
6.7749143252
 11
11.7821304009
 21
6.781008075
  0
LINE
  5
2D7
100
AcDbEntity
  8
0
100
AcDbLine
 62
4
  6
CONTINUOUS
 10
11.1115018897
 20
6.8716729318
 11
11.1197812503
 21
6.8628193887
  0
LINE
  5
2D8
100
AcDbEntity
  8
0
100
AcDbLine
 62
7
  6
CONTINUOUS
 10
10.2317847605
 20
10.8186496216
 11
10.2317847605
 21
10.7347815986
  0
LINE
  5
2D9
100
AcDbEntity
  8
0
100
AcDbLine
 62
4
  6
CONTINUOUS
 10
11.2577706965
 20
10.1981132274
 11
11.2505262525
 21
10.1889563681
  0
LINE
  5
2DA
100
AcDbEntity
  8
0
100
AcDbLine
 62
4
  6
CONTINUOUS
 10
11.4647547553
 20
6.77266048
 11
11.4730341435
 21
6.7638069376
  0
LINE
  5
2DB
100
AcDbEntity
  8
0
100
AcDbLine
 62
4
  6
CONTINUOUS
 10
11.5558278046
 20
6.7580651777
 11
11.5475484164
 21
6.7669187201
  0
LINE
  5
2DC
100
AcDbEntity
  8
0
100
AcDbLine
 62
4
  6
CONTINUOUS
 10
11.6744986304
 20
6.749835328
 11
11.6662192975
 21
6.7586888666
  0
LINE
  5
2DD
100
AcDbEntity
  8
0
100
AcDbLine
 62
4
  6
CONTINUOUS
 10
11.7407336256
 20
6.7535212803
 11
11.7490129586
 21
6.7446677418
  0
LINE
  5
2DE
100
AcDbEntity
  8
0
100
AcDbLine
 62
4
  6
CONTINUOUS
 10
10.8879590434
 20
6.920293137
 11
10.9459145951
 21
6.8003628024
  0
LINE
  5
2DF
100
AcDbEntity
  8
0
100
AcDbLine
 62
7
  6
CONTINUOUS
 10
10.4063378395
 20
10.8065443245
 11
10.4063378395
 21
10.7492613834
  0
LINE
  5
2E0
100
AcDbEntity
  8
0
100
AcDbLine
 62
4
  6
CONTINUOUS
 10
9.9924077904
 20
7.9666784946
 11
10.0696818593
 21
7.9613195197
  0
LINE
  5
2E1
100
AcDbEntity
  8
0
100
AcDbLine
 62
4
  6
CONTINUOUS
 10
10.5246329693
 20
8.3325594516
 11
10.511753958
 21
8.3431118727
  0
LINE
  5
2E2
100
AcDbEntity
  8
0
100
AcDbLine
 62
4
  6
CONTINUOUS
 10
11.7821304009
 20
6.8251646866
 11
11.7904097339
 21
6.8163111454
  0
LINE
  5
2E3
100
AcDbEntity
  8
0
100
AcDbLine
 62
4
  6
CONTINUOUS
 10
11.3405643189
 20
6.8557873984
 11
11.3460838742
 21
6.8471252485
  0
LINE
  5
2E4
100
AcDbEntity
  8
0
100
AcDbLine
 62
4
  6
CONTINUOUS
 10
10.511753958
 20
8.3431118727
 11
10.505314452
 21
8.3532177126
  0
LINE
  5
2E5
100
AcDbEntity
  8
0
100
AcDbLine
 62
4
  6
CONTINUOUS
 10
10.5503909907
 20
8.3597509026
 11
10.5568304995
 21
8.3496450626
  0
LINE
  5
2E6
100
AcDbEntity
  8
0
100
AcDbLine
 62
4
  6
CONTINUOUS
 10
10.9707526967
 20
6.3234047502
 11
11.0038701666
 21
6.2051969424
  0
LINE
  5
2E7
100
AcDbEntity
  8
0
100
AcDbLine
 62
4
  6
CONTINUOUS
 10
10.7058130277
 20
6.89980755
 11
10.7058130277
 21
6.916366278
  0
LINE
  5
2E8
100
AcDbEntity
  8
0
100
AcDbLine
 62
4
  6
CONTINUOUS
 10
10.7637685794
 20
6.8295534013
 11
10.7637685794
 21
6.8461121311
  0
LINE
  5
2E9
100
AcDbEntity
  8
0
100
AcDbLine
 62
4
  6
CONTINUOUS
 10
10.7968860356
 20
6.9266090716
 11
10.7968860356
 21
6.8272566979
  0
LINE
  5
2EA
100
AcDbEntity
  8
0
100
AcDbLine
 62
4
  6
CONTINUOUS
 10
10.505314452
 20
8.3532177126
 11
10.511753958
 21
8.36243039
  0
LINE
  5
2EB
100
AcDbEntity
  8
0
100
AcDbLine
 62
4
  6
CONTINUOUS
 10
10.5568304995
 20
8.3496450626
 11
10.5503909907
 21
8.3404323854
  0
LINE
  5
2EC
100
AcDbEntity
  8
0
100
AcDbLine
 62
4
  6
CONTINUOUS
 10
10.9499622816
 20
8.8961413533
 11
10.9435227728
 21
8.8869286762
  0
LINE
  5
2ED
100
AcDbEntity
  8
0
100
AcDbLine
 62
4
  6
CONTINUOUS
 10
10.9435227728
 20
8.8869286762
 11
10.9306437621
 21
8.87816258
  0
LINE
  5
2EE
100
AcDbEntity
  8
0
100
AcDbLine
 62
4
  6
CONTINUOUS
 10
10.8984462341
 20
8.909373262
 11
10.9177647514
 21
8.9176927769
  0
LINE
  5
2EF
100
AcDbEntity
  8
0
100
AcDbLine
 62
4
  6
CONTINUOUS
 10
12.4265409989
 20
8.198730024
 11
12.4772521066
 21
8.1952131968
  0
LINE
  5
2F0
100
AcDbEntity
  8
0
100
AcDbLine
 62
4
  6
CONTINUOUS
 10
11.3228098034
 20
8.2772057002
 11
11.3099307927
 21
8.2780988626
  0
LINE
  5
2F1
100
AcDbEntity
  8
0
100
AcDbLine
 62
4
  6
CONTINUOUS
 10
10.5568304995
 20
8.3303265453
 11
10.505314452
 21
8.3338991954
  0
LINE
  5
2F2
100
AcDbEntity
  8
0
100
AcDbLine
 62
4
  6
CONTINUOUS
 10
10.53751198
 20
8.3703033237
 11
10.5503909907
 21
8.3597509026
  0
LINE
  5
2F3
100
AcDbEntity
  8
0
100
AcDbLine
 62
4
  6
CONTINUOUS
 10
11.431637313
 20
6.8329127367
 11
11.42335798
 21
6.8500456385
  0
LINE
  5
2F4
100
AcDbEntity
  8
0
100
AcDbLine
 62
4
  6
CONTINUOUS
 10
11.1528987203
 20
6.8688020519
 11
11.1777368296
 21
6.7842858759
  0
LINE
  5
2F5
100
AcDbEntity
  8
0
100
AcDbLine
 62
4
  6
CONTINUOUS
 10
10.8327632961
 20
6.2170632442
 11
10.8327632961
 21
6.3329743476
  0
LINE
  5
2F6
100
AcDbEntity
  8
0
100
AcDbLine
 62
4
  6
CONTINUOUS
 10
10.8548415873
 20
6.8232374668
 11
10.8548415873
 21
6.9225898404
  0
LINE
  5
2F7
100
AcDbEntity
  8
0
100
AcDbLine
 62
4
  6
CONTINUOUS
 10
10.8879590434
 20
6.8043820336
 11
10.8879590434
 21
6.920293137
  0
LINE
  5
2F8
100
AcDbEntity
  8
0
100
AcDbLine
 62
4
  6
CONTINUOUS
 10
10.8907188409
 20
6.3123963888
 11
10.8907188409
 21
6.2296027433
  0
LINE
  5
2F9
100
AcDbEntity
  8
0
100
AcDbLine
 62
4
  6
CONTINUOUS
 10
10.8984462341
 20
8.8997140034
 11
10.8984462341
 21
8.909373262
  0
LINE
  5
2FA
100
AcDbEntity
  8
0
100
AcDbLine
 62
4
  6
CONTINUOUS
 10
10.9459145951
 20
6.8003628024
 11
10.9459145951
 21
6.9162739059
  0
LINE
  5
2FB
100
AcDbEntity
  8
0
100
AcDbLine
 62
7
  6
CONTINUOUS
 10
13.214999564
 20
10.8128586488
 11
12.6487039701
 21
10.2658590769
  0
LINE
  5
2FC
100
AcDbEntity
  8
0
100
AcDbLine
 62
4
  6
CONTINUOUS
 10
10.511753958
 20
8.36243039
 11
10.5246329693
 21
8.3711964861
  0
LINE
  5
2FD
100
AcDbEntity
  8
0
100
AcDbLine
 62
4
  6
CONTINUOUS
 10
10.5503909907
 20
8.3404323854
 11
10.53751198
 21
8.3316662892
  0
LINE
  5
2FE
100
AcDbEntity
  8
0
100
AcDbLine
 62
4
  6
CONTINUOUS
 10
11.3678863444
 20
8.3127166659
 11
11.2906122755
 21
8.3180756408
  0
LINE
  5
2FF
100
AcDbEntity
  8
0
100
AcDbLine
 62
4
  6
CONTINUOUS
 10
10.5246329693
 20
8.3711964861
 11
10.53751198
 21
8.3703033237
  0
LINE
  5
300
100
AcDbEntity
  8
0
100
AcDbLine
 62
4
  6
CONTINUOUS
 10
12.4265409989
 20
8.2663448321
 11
12.4772521066
 21
8.2628280048
  0
LINE
  5
301
100
AcDbEntity
  8
0
100
AcDbLine
 62
4
  6
CONTINUOUS
 10
12.4772521066
 20
8.3111243002
 11
12.4265409989
 21
8.3146411275
  0
LINE
  5
302
100
AcDbEntity
  8
0
100
AcDbLine
 62
4
  6
CONTINUOUS
 10
11.3099307927
 20
8.2780988626
 11
11.2970517814
 21
8.2886512837
  0
LINE
  5
303
100
AcDbEntity
  8
0
100
AcDbLine
 62
4
  6
CONTINUOUS
 10
11.0701050592
 20
6.7917501645
 11
11.0701050592
 21
6.9076612679
  0
LINE
  5
304
100
AcDbEntity
  8
0
100
AcDbLine
 62
4
  6
CONTINUOUS
 10
11.0701050789
 20
6.2006035356
 11
11.0701050789
 21
6.3165146391
  0
LINE
  5
305
100
AcDbEntity
  8
0
100
AcDbLine
 62
4
  6
CONTINUOUS
 10
11.1197812503
 20
6.8628193887
 11
11.1197812503
 21
6.7883051089
  0
LINE
  5
306
100
AcDbEntity
  8
0
100
AcDbLine
 62
4
  6
CONTINUOUS
 10
11.1335800928
 20
6.4677646858
 11
11.1335800928
 21
6.5505583314
  0
LINE
  5
307
100
AcDbEntity
  8
0
100
AcDbLine
 62
4
  6
CONTINUOUS
 10
11.1363399912
 20
6.1960101288
 11
11.1363399912
 21
6.3119212323
  0
LINE
  5
308
100
AcDbEntity
  8
0
100
AcDbLine
 62
4
  6
CONTINUOUS
 10
11.1998151448
 20
10.1248583873
 11
11.1998151448
 21
10.2407694907
  0
LINE
  5
309
100
AcDbEntity
  8
0
100
AcDbLine
 62
4
  6
CONTINUOUS
 10
11.2246532155
 20
6.7893115783
 11
11.2246532155
 21
6.8555464932
  0
LINE
  5
30A
100
AcDbEntity
  8
0
100
AcDbLine
 62
4
  6
CONTINUOUS
 10
11.2301726767
 20
6.5273008848
 11
11.2301726767
 21
6.5438596129
  0
LINE
  5
30B
100
AcDbEntity
  8
0
100
AcDbLine
 62
4
  6
CONTINUOUS
 10
10.4270744845
 20
6.1940038646
 11
10.4632967043
 21
6.3074029485
  0
LINE
  5
30C
100
AcDbEntity
  8
0
100
AcDbLine
 62
4
  6
CONTINUOUS
 10
11.3228098034
 20
8.3158427347
 11
11.3356888142
 21
8.3052903136
  0
LINE
  5
30D
100
AcDbEntity
  8
0
100
AcDbLine
 62
4
  6
CONTINUOUS
 10
10.9177647514
 20
8.8790557424
 11
10.9048857401
 21
8.8896081635
  0
LINE
  5
30E
100
AcDbEntity
  8
0
100
AcDbLine
 62
4
  6
CONTINUOUS
 10
10.9048857401
 20
8.8896081635
 11
10.8984462341
 21
8.8997140034
  0
LINE
  5
30F
100
AcDbEntity
  8
0
100
AcDbLine
 62
4
  6
CONTINUOUS
 10
11.2970517814
 20
8.2886512837
 11
11.2906122755
 21
8.2987571236
  0
LINE
  5
310
100
AcDbEntity
  8
0
100
AcDbLine
 62
4
  6
CONTINUOUS
 10
10.9435227728
 20
8.9062471934
 11
10.9499622816
 21
8.8961413533
  0
LINE
  5
311
100
AcDbEntity
  8
0
100
AcDbLine
 62
4
  6
CONTINUOUS
 10
11.3356888142
 20
8.3052903136
 11
11.342128323
 21
8.2951844735
  0
LINE
  5
312
100
AcDbEntity
  8
0
100
AcDbLine
 62
4
  6
CONTINUOUS
 10
11.2577706965
 20
10.21743174
 11
11.2577706965
 21
10.1981132274
  0
LINE
  5
313
100
AcDbEntity
  8
0
100
AcDbLine
 62
4
  6
CONTINUOUS
 10
11.274329379
 20
6.8934982632
 11
11.274329379
 21
6.7775871598
  0
LINE
  5
314
100
AcDbEntity
  8
0
100
AcDbLine
 62
4
  6
CONTINUOUS
 10
11.2881282353
 20
6.4570467357
 11
11.2881282353
 21
6.4736054655
  0
LINE
  5
315
100
AcDbEntity
  8
0
100
AcDbLine
 62
4
  6
CONTINUOUS
 10
11.3074468766
 20
6.7752904535
 11
11.3074468766
 21
6.8580841008
  0
LINE
  5
316
100
AcDbEntity
  8
0
100
AcDbLine
 62
4
  6
CONTINUOUS
 10
11.310206674
 20
6.2005111632
 11
11.310206674
 21
6.2833048088
  0
LINE
  5
317
100
AcDbEntity
  8
0
100
AcDbLine
 62
4
  6
CONTINUOUS
 10
11.3212456915
 20
6.554102406
 11
11.3212456915
 21
6.4381913025
  0
LINE
  5
318
100
AcDbEntity
  8
0
100
AcDbLine
 62
4
  6
CONTINUOUS
 10
11.3460838742
 20
6.8471252485
 11
11.3460838742
 21
6.8305665204
  0
LINE
  5
319
100
AcDbEntity
  8
0
100
AcDbLine
 62
4
  6
CONTINUOUS
 10
11.3819611495
 20
6.7784022361
 11
11.3819611495
 21
6.8032403308
  0
LINE
  5
31A
100
AcDbEntity
  8
0
100
AcDbLine
 62
4
  6
CONTINUOUS
 10
11.4067992234
 20
6.1938124472
 11
11.4067992234
 21
6.2766060928
  0
LINE
  5
31B
100
AcDbEntity
  8
0
100
AcDbLine
 62
4
  6
CONTINUOUS
 10
11.431637313
 20
6.7666778175
 11
11.431637313
 21
6.8329127367
  0
LINE
  5
31C
100
AcDbEntity
  8
0
100
AcDbLine
 62
4
  6
CONTINUOUS
 10
11.4647547553
 20
6.8471747624
 11
11.4647547553
 21
6.77266048
  0
LINE
  5
31D
100
AcDbEntity
  8
0
100
AcDbLine
 62
4
  6
CONTINUOUS
 10
11.4647547751
 20
6.2725868616
 11
11.4647547751
 21
6.189793216
  0
LINE
  5
31E
100
AcDbEntity
  8
0
100
AcDbLine
 62
4
  6
CONTINUOUS
 10
11.2906122755
 20
8.2987571236
 11
11.2970517814
 21
8.3079698009
  0
LINE
  5
31F
100
AcDbEntity
  8
0
100
AcDbLine
 62
4
  6
CONTINUOUS
 10
11.342128323
 20
8.2951844735
 11
11.3356888142
 21
8.2859717964
  0
LINE
  5
320
100
AcDbEntity
  8
0
100
AcDbLine
 62
4
  6
CONTINUOUS
 10
11.2970517814
 20
8.3079698009
 11
11.3099307927
 21
8.3167358971
  0
LINE
  5
321
100
AcDbEntity
  8
0
100
AcDbLine
 62
4
  6
CONTINUOUS
 10
11.3356888142
 20
8.2859717964
 11
11.3228098034
 21
8.2772057002
  0
LINE
  5
322
100
AcDbEntity
  8
0
100
AcDbLine
 62
4
  6
CONTINUOUS
 10
10.9306437621
 20
8.87816258
 11
10.9177647514
 21
8.8790557424
  0
LINE
  5
323
100
AcDbEntity
  8
0
100
AcDbLine
 62
4
  6
CONTINUOUS
 10
10.9499622816
 20
8.9154598706
 11
10.8726882104
 21
8.9208188456
  0
LINE
  5
324
100
AcDbEntity
  8
0
100
AcDbLine
 62
4
  6
CONTINUOUS
 10
10.9306437621
 20
8.9167996145
 11
10.9435227728
 21
8.9062471934
  0
LINE
  5
325
100
AcDbEntity
  8
0
100
AcDbLine
 62
4
  6
CONTINUOUS
 10
11.4978722174
 20
6.1709377838
 11
11.4978722174
 21
6.2868488872
  0
LINE
  5
326
100
AcDbEntity
  8
0
100
AcDbLine
 62
4
  6
CONTINUOUS
 10
11.5144309741
 20
6.7609360576
 11
11.5144309741
 21
6.8437297049
  0
LINE
  5
327
100
AcDbEntity
  8
0
100
AcDbLine
 62
4
  6
CONTINUOUS
 10
11.5475484164
 20
6.7669187201
 11
11.5475484164
 21
6.8745504586
  0
LINE
  5
328
100
AcDbEntity
  8
0
100
AcDbLine
 62
4
  6
CONTINUOUS
 10
11.5558277691
 20
6.266270928
 11
11.5558277691
 21
6.1834772824
  0
LINE
  5
329
100
AcDbEntity
  8
0
100
AcDbLine
 62
4
  6
CONTINUOUS
 10
11.6027442103
 20
6.1636648864
 11
11.6027442103
 21
6.2795759898
  0
LINE
  5
32A
100
AcDbEntity
  8
0
100
AcDbLine
 62
4
  6
CONTINUOUS
 10
11.6220626893
 20
6.7534717728
 11
11.6220626893
 21
6.8362654201
  0
LINE
  5
32B
100
AcDbEntity
  8
0
100
AcDbLine
 62
4
  6
CONTINUOUS
 10
11.6220626893
 20
6.8611035088
 11
11.6220626893
 21
6.8693828763
  0
LINE
  5
32C
100
AcDbEntity
  8
0
100
AcDbLine
 62
4
  6
CONTINUOUS
 10
11.6662192975
 20
6.7586888666
 11
11.6662192975
 21
6.8249237814
  0
LINE
  5
32D
100
AcDbEntity
  8
0
100
AcDbLine
 62
4
  6
CONTINUOUS
 10
10.9376352405
 20
6.2097903501
 11
10.9707526967
 21
6.3234047502
  0
LINE
  5
32E
100
AcDbEntity
  8
0
100
AcDbLine
 62
4
  6
CONTINUOUS
 10
11.1694574414
 20
6.7572621715
 11
11.2025748838
 21
6.8653569982
  0
LINE
  5
32F
100
AcDbEntity
  8
0
100
AcDbLine
 62
4
  6
CONTINUOUS
 10
11.7407336256
 20
6.7949181031
 11
11.7407336256
 21
6.8197561952
  0
LINE
  5
330
100
AcDbEntity
  8
0
100
AcDbLine
 62
4
  6
CONTINUOUS
 10
11.7904097339
 20
6.7500762305
 11
11.7904097339
 21
6.7749143252
  0
LINE
  5
331
100
AcDbEntity
  8
0
100
AcDbLine
 62
4
  6
CONTINUOUS
 10
11.6248224669
 20
6.869191485
 11
11.6220626893
 21
6.8611035088
  0
LINE
  5
332
100
AcDbEntity
  8
0
100
AcDbLine
 62
4
  6
CONTINUOUS
 10
10.7058130277
 20
6.916366278
 11
10.7223717575
 21
6.9317766543
  0
LINE
  5
333
100
AcDbEntity
  8
0
100
AcDbLine
 62
4
  6
CONTINUOUS
 10
10.7472098513
 20
6.8141430232
 11
10.7637685794
 21
6.8295534013
  0
LINE
  5
334
100
AcDbEntity
  8
0
100
AcDbLine
 62
4
  6
CONTINUOUS
 10
10.8382828661
 20
6.8078270882
 11
10.8548415873
 21
6.8232374668
  0
LINE
  5
335
100
AcDbEntity
  8
0
100
AcDbLine
 62
7
  6
CONTINUOUS
 10
10.1040030738
 20
10.7855773002
 11
10.1507744662
 21
10.7403996816
  0
LINE
  5
336
100
AcDbEntity
  8
0
100
AcDbLine
 62
4
  6
CONTINUOUS
 10
12.4917409946
 20
8.2425046809
 11
12.4772521066
 21
8.2628280048
  0
LINE
  5
337
100
AcDbEntity
  8
0
100
AcDbLine
 62
4
  6
CONTINUOUS
 10
12.4844965506
 20
8.30096264
 11
12.4772521066
 21
8.3111243002
  0
LINE
  5
338
100
AcDbEntity
  8
0
100
AcDbLine
 62
4
  6
CONTINUOUS
 10
12.4772521066
 20
8.2628280048
 11
12.4844965506
 21
8.2719848641
  0
LINE
  5
339
100
AcDbEntity
  8
0
100
AcDbLine
 62
4
  6
CONTINUOUS
 10
12.4772521066
 20
8.1952131968
 11
12.4917409946
 21
8.2135269068
  0
LINE
  5
33A
100
AcDbEntity
  8
02___PRT_ALL_AXES
100
AcDbLine
 62
7
  6
CONTINUOUS
 10
10.5805924328
 20
10.7498147853
 11
10.5353110767
 21
10.7919538408
  0
LINE
  5
33B
100
AcDbEntity
  8
0
100
AcDbLine
 62
7
  6
CONTINUOUS
 10
10.4531092319
 20
10.7613667059
 11
10.4063378395
 21
10.8065443245
  0
LINE
  5
33C
100
AcDbEntity
  8
0
100
AcDbLine
 62
4
  6
CONTINUOUS
 10
11.2505262525
 20
10.2275934072
 11
11.2577706965
 21
10.21743174
  0
LINE
  5
33D
100
AcDbEntity
  8
0
100
AcDbLine
 62
4
  6
CONTINUOUS
 10
12.4265409989
 20
8.3146411275
 11
12.4265409989
 21
8.198730024
  0
LINE
  5
33E
100
AcDbEntity
  8
0
100
AcDbLine
 62
4
  6
CONTINUOUS
 10
12.4844965506
 20
8.2719848641
 11
12.4844965506
 21
8.30096264
  0
LINE
  5
33F
100
AcDbEntity
  8
0
100
AcDbLine
 62
4
  6
CONTINUOUS
 10
12.4917409946
 20
8.2135269068
 11
12.4917409946
 21
8.2425046809
  0
LINE
  5
340
100
AcDbEntity
  8
0
100
AcDbLine
 62
4
  6
CONTINUOUS
 10
11.1335800928
 20
6.5505583314
 11
11.1501388226
 21
6.5659687076
  0
LINE
  5
341
100
AcDbEntity
  8
0
100
AcDbLine
 62
4
  6
CONTINUOUS
 10
10.8907188409
 20
6.2296027433
 11
10.8741601128
 21
6.2141923652
  0
LINE
  5
342
100
AcDbEntity
  8
0
100
AcDbLine
 62
4
  6
CONTINUOUS
 10
11.2301726767
 20
6.5438596129
 11
11.2467314048
 21
6.5592699893
  0
LINE
  5
343
100
AcDbEntity
  8
0
100
AcDbLine
 62
4
  6
CONTINUOUS
 10
11.2246532155
 20
6.8555464932
 11
11.2412119367
 21
6.8626775095
  0
LINE
  5
344
100
AcDbEntity
  8
0
100
AcDbLine
 62
4
  6
CONTINUOUS
 10
11.2360373646
 20
10.2382574713
 11
11.2505262525
 21
10.2275934072
  0
LINE
  5
345
100
AcDbEntity
  8
0
100
AcDbLine
 62
7
  6
CONTINUOUS
 10
12.6487039701
 20
10.2658590769
 11
12.6487039701
 21
5.919192601
  0
LINE
  5
346
100
AcDbEntity
  8
0
100
AcDbLine
 62
4
  6
CONTINUOUS
 10
11.6662192975
 20
6.8249237814
 11
11.6744986304
 21
6.8326289752
  0
LINE
  5
347
100
AcDbEntity
  8
0
100
AcDbLine
 62
4
  6
CONTINUOUS
 10
11.2715695004
 20
6.4416363581
 11
11.2881282353
 21
6.4570467357
  0
LINE
  5
348
100
AcDbEntity
  8
0
100
AcDbLine
 62
4
  6
CONTINUOUS
 10
11.7407336256
 20
6.8197561952
 11
11.7490129586
 21
6.827461389
  0
LINE
  5
349
100
AcDbEntity
  8
0
100
AcDbLine
 62
4
  6
CONTINUOUS
 10
11.7821304009
 20
6.7423710393
 11
11.7904097339
 21
6.7500762305
  0
LINE
  5
34A
100
AcDbEntity
  8
0
100
AcDbLine
 62
4
  6
CONTINUOUS
 10
11.310206674
 20
6.2833048088
 11
11.3267653952
 21
6.2987151857
  0
LINE
  5
34B
100
AcDbEntity
  8
0
100
AcDbLine
 62
4
  6
CONTINUOUS
 10
11.3819611495
 20
6.8032403308
 11
11.3985198706
 21
6.8103713436
  0
LINE
  5
34C
100
AcDbEntity
  8
0
100
AcDbLine
 62
4
  6
CONTINUOUS
 10
11.2360373646
 20
10.1803019196
 11
11.1998151448
 21
10.182813939
  0
LINE
  5
34D
100
AcDbEntity
  8
0
100
AcDbLine
 62
4
  6
CONTINUOUS
 10
11.1998151448
 20
10.2407694907
 11
11.2360373646
 21
10.2382574713
  0
LINE
  5
34E
100
AcDbEntity
  8
0
100
AcDbLine
 62
4
  6
CONTINUOUS
 10
11.4067992234
 20
6.2766060928
 11
11.4233579445
 21
6.2920164696
  0
LINE
  5
34F
100
AcDbEntity
  8
0
100
AcDbLine
 62
4
  6
CONTINUOUS
 10
11.4647547751
 20
6.189793216
 11
11.4481960539
 21
6.1743828374
  0
LINE
  5
350
100
AcDbEntity
  8
0
100
AcDbLine
 62
4
  6
CONTINUOUS
 10
10.8106849885
 20
6.2903488752
 11
10.7665283768
 21
6.2713328391
  0
LINE
  5
351
100
AcDbEntity
  8
0
100
AcDbLine
 62
7
  6
CONTINUOUS
 10
12.6487039701
 20
10.2658590769
 11
8.785000436
 21
10.533807827
  0
LINE
  5
352
100
AcDbEntity
  8
0
100
AcDbLine
 62
7
  6
CONTINUOUS
 10
13.214999564
 20
10.8128586488
 11
13.214999564
 21
6.466192173
  0
LINE
  5
353
100
AcDbEntity
  8
0
100
AcDbLine
 62
4
  6
CONTINUOUS
 10
11.5558277691
 20
6.1834772824
 11
11.539269048
 21
6.1680669039
  0
LINE
  5
354
100
AcDbEntity
  8
0
100
AcDbLine
 62
7
  6
CONTINUOUS
 10
10.1507744662
 20
10.7403996816
 11
10.3253275453
 21
10.7282943844
  0
LINE
  5
355
100
AcDbEntity
  8
0
100
AcDbLine
 62
7
  6
CONTINUOUS
 10
10.4063378395
 20
10.8065443245
 11
10.2317847605
 21
10.8186496216
  0
LINE
  5
356
100
AcDbEntity
  8
0
100
AcDbLine
 62
4
  6
CONTINUOUS
 10
11.7296944243
 20
6.2045370468
 11
11.6855378161
 21
6.1855210122
  0
LINE
  5
357
100
AcDbEntity
  8
0
100
AcDbLine
 62
7
  6
CONTINUOUS
 10
10.3253275453
 20
10.7282943844
 11
10.4531092319
 21
10.7613667059
  0
LINE
  5
358
100
AcDbEntity
  8
0
100
AcDbLine
 62
7
  6
CONTINUOUS
 10
10.2317847605
 20
10.8186496216
 11
10.1040030738
 21
10.7855773002
  0
LINE
  5
359
100
AcDbEntity
  8
0
100
AcDbLine
 62
7
  6
CONTINUOUS
 10
9.3512960299
 20
11.080807399
 11
13.214999564
 21
10.8128586488
  0
LINE
  5
35A
100
AcDbEntity
  8
0
100
AcDbLine
 62
7
  6
CONTINUOUS
 10
13.214999564
 20
6.466192173
 11
12.6487039701
 21
5.919192601
  0
ARC
  5
35B
100
AcDbEntity
  8
0
100
AcDbCircle
 62
7
  6
CONTINUOUS
 10
10.3070868307
 20
8.1713315841
 40
0.1869852765
100
AcDbArc
 50
237.5163085438
 51
253.2238331353
  0
ARC
  5
35C
100
AcDbEntity
  8
0
100
AcDbCircle
 62
7
  6
CONTINUOUS
 10
10.3015695746
 20
8.1143780551
 40
0.1533770576
100
AcDbArc
 50
202.9103220616
 51
219.6098990595
  0
ARC
  5
35D
100
AcDbEntity
  8
0
100
AcDbCircle
 62
7
  6
CONTINUOUS
 10
10.0989780287
 20
9.3477181255
 40
0.1204890005
100
AcDbArc
 50
216.0335857956
 51
232.0498253939
  0
ARC
  5
35E
100
AcDbEntity
  8
0
100
AcDbCircle
 62
7
  6
CONTINUOUS
 10
10.0989780287
 20
7.5964945336
 40
0.1204890005
100
AcDbArc
 50
216.0335857956
 51
232.0498253939
  0
ARC
  5
35F
100
AcDbEntity
  8
0
100
AcDbCircle
 62
7
  6
CONTINUOUS
 10
12.1506046753
 20
7.4542137424
 40
0.1204890005
100
AcDbArc
 50
216.0335857956
 51
232.0498253938
  0
ARC
  5
360
100
AcDbEntity
  8
0
100
AcDbCircle
 62
7
  6
CONTINUOUS
 10
12.1506046753
 20
9.2054373343
 40
0.1204890005
100
AcDbArc
 50
216.0335857956
 51
232.0498253939
  0
SPLINE
  5
361
100
AcDbEntity
  8
02___PRT_ALL_AXES
100
AcDbSpline
 62
7
  6
CONTINUOUS
 70
0
 71
3
 72
53
 73
49
 74
0
 42
0.0000001
 43
0.0000001
 44
0.0000000001
 40
0.0
 40
0.0
 40
0.0
 40
0.0
 40
0.0077396382
 40
0.0160547853
 40
0.0249630424
 40
0.0344758194
 40
0.044599442
 40
0.0553363376
 40
0.0666852297
 40
0.0786399126
 40
0.091191707
 40
0.1043300308
 40
0.118041201
 40
0.132309958
 40
0.147119922
 40
0.1624522112
 40
0.1946012752
 40
0.228583789
 40
0.2642070794
 40
0.3012629851
 40
0.3395315901
 40
0.378782322
 40
0.4187765043
 40
0.4592697673
 40
0.5000133975
 40
0.5407569338
 40
0.5812497834
 40
0.6212433678
 40
0.6604932812
 40
0.6987606932
 40
0.7358153711
 40
0.771437125
 40
0.8054178058
 40
0.8375650955
 40
0.8528962112
 40
0.8677051828
 40
0.8819729929
 40
0.8956828834
 40
0.9088200205
 40
0.9213706912
 40
0.9333239582
 40
0.9446717668
 40
0.9554080545
 40
0.9655305507
 40
0.9750415548
 40
0.983947277
 40
0.9922600201
 40
1.0
 40
1.0
 40
1.0
 40
1.0
 10
10.0218044061
 20
10.7919567706
 30
0.0
 10
10.0228068016
 20
10.7928893732
 30
0.0
 10
10.0249650314
 20
10.7947401352
 30
0.0
 10
10.0285054313
 20
10.7973839355
 30
0.0
 10
10.0324563784
 20
10.7999882324
 30
0.0
 10
10.036811211
 20
10.8025480585
 30
0.0
 10
10.0415627685
 20
10.8050599193
 30
0.0
 10
10.0467037086
 20
10.8075198886
 30
0.0
 10
10.0522260316
 20
10.8099238874
 30
0.0
 10
10.0581207033
 20
10.8122683314
 30
0.0
 10
10.0643781422
 20
10.8145492893
 30
0.0
 10
10.0709882317
 20
10.8167626614
 30
0.0
 10
10.0779400507
 20
10.8189050784
 30
0.0
 10
10.0852222179
 20
10.8209730206
 30
0.0
 10
10.0928229013
 20
10.8229628297
 30
0.0
 10
10.1035351337
 20
10.825548529
 30
0.0
 10
10.1176337565
 20
10.8285472275
 30
0.0
 10
10.1353527363
 20
10.8317324431
 30
0.0
 10
10.1540139503
 20
10.8345372819
 30
0.0
 10
10.1734946583
 20
10.8369432907
 30
0.0
 10
10.1936669053
 20
10.8389340839
 30
0.0
 10
10.2143980053
 20
10.8404963405
 30
0.0
 10
10.23555152
 20
10.841619822
 30
0.0
 10
10.2569881965
 20
10.8422967583
 30
0.0
 10
10.2785669051
 20
10.8425227237
 30
0.0
 10
10.3001455373
 20
10.8422963503
 30
0.0
 10
10.3215820011
 20
10.8416188774
 30
0.0
 10
10.3427351708
 20
10.8404950163
 30
0.0
 10
10.3634657779
 20
10.8389323452
 30
0.0
 10
10.3836373991
 20
10.8369410503
 30
0.0
 10
10.4031173611
 20
10.8345347155
 30
0.0
 10
10.4217776946
 20
10.8317294759
 30
0.0
 10
10.4394956673
 20
10.8285438121
 30
0.0
 10
10.4535933923
 20
10.8255449493
 30
0.0
 10
10.4643048287
 20
10.8229589202
 30
0.0
 10
10.4719049024
 20
10.8209689601
 30
0.0
 10
10.479186453
 20
10.818900928
 30
0.0
 10
10.4861375697
 20
10.8167582796
 30
0.0
 10
10.4927469452
 20
10.8145447807
 30
0.0
 10
10.4990036877
 20
10.8122638343
 30
0.0
 10
10.5048975952
 20
10.8099191979
 30
0.0
 10
10.5104192264
 20
10.8075149907
 30
0.0
 10
10.5155595562
 20
10.8050548974
 30
0.0
 10
10.5203102884
 20
10.8025427971
 30
0.0
 10
10.5246640353
 20
10.7999830338
 30
0.0
 10
10.5286139148
 20
10.7973792739
 30
0.0
 10
10.5321533264
 20
10.7947354916
 30
0.0
 10
10.5343109188
 20
10.7928845484
 30
0.0
 10
10.5353132158
 20
10.7919517514
 30
0.0
  0
SPLINE
  5
362
100
AcDbEntity
  8
02___PRT_ALL_AXES
100
AcDbSpline
 62
7
  6
CONTINUOUS
 70
0
 71
3
 72
65
 73
61
 74
0
 42
0.0000001
 43
0.0000001
 44
0.0000000001
 40
0.0
 40
0.0
 40
0.0
 40
0.0
 40
0.0078474524
 40
0.0150460061
 40
0.0216918557
 40
0.0248497726
 40
0.0279219787
 40
0.0309302137
 40
0.0338977331
 40
0.0368488614
 40
0.0398083241
 40
0.0428005394
 40
0.0458490502
 40
0.0489760449
 40
0.0522020016
 40
0.0590177272
 40
0.0664227313
 40
0.0745075953
 40
0.0833355131
 40
0.0929489478
 40
0.1033746584
 40
0.1146255286
 40
0.126705839
 40
0.1396111305
 40
0.1533304228
 40
0.1678482671
 40
0.183143297
 40
0.1991913048
 40
0.2159642196
 40
0.2334305017
 40
0.2515568758
 40
0.2703065022
 40
0.2896410213
 40
0.3095200694
 40
0.3299009232
 40
0.3719906776
 40
0.4155436314
 40
0.460174196
 40
0.5054840659
 40
0.5510669107
 40
0.5965131515
 40
0.6414149062
 40
0.6853706773
 40
0.7279900145
 40
0.7688984543
 40
0.8077429903
 40
0.826289176
 40
0.844199275
 40
0.8614381679
 40
0.87797277
 40
0.8937725721
 40
0.9088112805
 40
0.9230649534
 40
0.9365145848
 40
0.9491456647
 40
0.9609489417
 40
0.971924164
 40
0.9820783508
 40
0.9914276357
 40
1.0
 40
1.0
 40
1.0
 40
1.0
 10
10.0211369049
 20
10.7913240885
 30
0.0
 10
10.0200575676
 20
10.7902815287
 30
0.0
 10
10.0180792583
 20
10.788183557
 30
0.0
 10
10.015596563
 20
10.7848478283
 30
0.0
 10
10.0140271059
 20
10.7819847791
 30
0.0
 10
10.0131158906
 20
10.7796946265
 30
0.0
 10
10.0126044034
 20
10.7780012707
 30
0.0
 10
10.0122540264
 20
10.7763044674
 30
0.0
 10
10.0120651832
 20
10.7746053587
 30
0.0
 10
10.0120383295
 20
10.7729052847
 30
0.0
 10
10.0121733738
 20
10.7712056611
 30
0.0
 10
10.0124699833
 20
10.7695078569
 30
0.0
 10
10.0129277433
 20
10.767813188
 30
0.0
 10
10.013546202
 20
10.7661227852
 30
0.0
 10
10.0146036021
 20
10.7638346907
 30
0.0
 10
10.0163541761
 20
10.7609797747
 30
0.0
 10
10.0190450536
 20
10.7576578634
 30
0.0
 10
10.0223560219
 20
10.754381384
 30
0.0
 10
10.0262780267
 20
10.7511552819
 30
0.0
 10
10.0308025261
 20
10.7479848542
 30
0.0
 10
10.0359197086
 20
10.7448769194
 30
0.0
 10
10.0416177892
 20
10.7418374603
 30
0.0
 10
10.0478840411
 20
10.7388739932
 30
0.0
 10
10.0547038115
 20
10.7359931655
 30
0.0
 10
10.0620611194
 20
10.7332016765
 30
0.0
 10
10.0699386994
 20
10.7305067115
 30
0.0
 10
10.0783177228
 20
10.7279142112
 30
0.0
 10
10.0871782916
 20
10.7254308401
 30
0.0
 10
10.0964991993
 20
10.723062557
 30
0.0
 10
10.1062581047
 20
10.7208148466
 30
0.0
 10
10.116431643
 20
10.7186936212
 30
0.0
 10
10.1269953487
 20
10.7167035954
 30
0.0
 10
10.1379238508
 20
10.7148498189
 30
0.0
 10
10.1491908966
 20
10.7131368292
 30
0.0
 10
10.1647963412
 20
10.7110231984
 30
0.0
 10
10.1849489666
 20
10.7087741458
 30
0.0
 10
10.2097787299
 20
10.7067193527
 30
0.0
 10
10.2352696489
 20
10.7053010696
 30
0.0
 10
10.261176609
 20
10.7045331446
 30
0.0
 10
10.2872506575
 20
10.7044232261
 30
0.0
 10
10.3132411147
 20
10.7049723499
 30
0.0
 10
10.338898167
 20
10.706175072
 30
0.0
 10
10.3639752438
 20
10.7080195779
 30
0.0
 10
10.3882315517
 20
10.7104877381
 30
0.0
 10
10.4114340067
 20
10.7135553836
 30
0.0
 10
10.4299822448
 20
10.7166314621
 30
0.0
 10
10.4441165093
 20
10.7193862729
 30
0.0
 10
10.4541545015
 20
10.7215504039
 30
0.0
 10
10.4637699524
 20
10.7238388608
 30
0.0
 10
10.4729398404
 20
10.726246117
 30
0.0
 10
10.4816421625
 20
10.7287666519
 30
0.0
 10
10.4898562296
 20
10.7313938734
 30
0.0
 10
10.4975623954
 20
10.7341219112
 30
0.0
 10
10.5047423708
 20
10.7369439329
 30
0.0
 10
10.511379283
 20
10.739852889
 30
0.0
 10
10.517457566
 20
10.7428424963
 30
0.0
 10
10.5229635952
 20
10.7459054248
 30
0.0
 10
10.527884816
 20
10.7490355961
 30
0.0
 10
10.5322091484
 20
10.752225111
 30
0.0
 10
10.5347963593
 20
10.7544810508
 30
0.0
 10
10.5359754008
 20
10.7556199176
 30
0.0
  0
SPLINE
  5
363
100
AcDbEntity
  8
02___PRT_ALL_AXES
100
AcDbSpline
 62
7
  6
CONTINUOUS
 70
0
 71
3
 72
23
 73
19
 74
0
 42
0.0000001
 43
0.0000001
 44
0.0000000001
 40
0.0
 40
0.0
 40
0.0
 40
0.0
 40
0.0749607763
 40
0.1455627455
 40
0.2121515851
 40
0.2751545593
 40
0.3350892838
 40
0.3925735481
 40
0.4483202238
 40
0.5031146707
 40
0.5577875613
 40
0.6131787318
 40
0.6700938079
 40
0.729271524
 40
0.7913631149
 40
0.8569063513
 40
0.9263352261
 40
1.0
 40
1.0
 40
1.0
 40
1.0
 10
10.5353132158
 20
10.7919517514
 30
0.0
 10
10.5360826746
 20
10.7912356474
 30
0.0
 10
10.5375341964
 20
10.7897979917
 30
0.0
 10
10.5394925648
 20
10.7875549035
 30
0.0
 10
10.5411625236
 20
10.7852940903
 30
0.0
 10
10.5425417601
 20
10.7830175671
 30
0.0
 10
10.5436276948
 20
10.7807271807
 30
0.0
 10
10.544417691
 20
10.7784252724
 30
0.0
 10
10.5449099702
 20
10.7761149801
 30
0.0
 10
10.5451029028
 20
10.7737999189
 30
0.0
 10
10.5449953255
 20
10.7714842573
 30
0.0
 10
10.544587655
 20
10.7691723006
 30
0.0
 10
10.5438816376
 20
10.766867744
 30
0.0
 10
10.542879203
 20
10.7645735882
 30
0.0
 10
10.5415823262
 20
10.7622926022
 30
0.0
 10
10.5399939796
 20
10.7600269125
 30
0.0
 10
10.538117193
 20
10.7577787933
 30
0.0
 10
10.536718359
 20
10.7563375601
 30
0.0
 10
10.5359754008
 20
10.7556199176
 30
0.0
  0
SPLINE
  5
364
100
AcDbEntity
  8
0
100
AcDbSpline
 62
7
  6
CONTINUOUS
 70
0
 71
3
 72
31
 73
27
 74
0
 42
0.0000001
 43
0.0000001
 44
0.0000000001
 40
0.0
 40
0.0
 40
0.0
 40
0.0
 40
0.0845018904
 40
0.167301158
 40
0.2480799795
 40
0.3265304606
 40
0.4023579462
 40
0.475282401
 40
0.5450409099
 40
0.6113901015
 40
0.6432172375
 40
0.6741112302
 40
0.7040486061
 40
0.7330077048
 40
0.7609690412
 40
0.7879152504
 40
0.8138316265
 40
0.8387060317
 40
0.8625296419
 40
0.8852968756
 40
0.9070063887
 40
0.927661115
 40
0.9472695745
 40
0.9658461645
 40
0.9834128737
 40
1.0
 40
1.0
 40
1.0
 40
1.0
 10
10.1879695619
 20
10.6859720701
 30
0.0
 10
10.1807243541
 20
10.6864745269
 30
0.0
 10
10.1663883704
 20
10.6875964798
 30
0.0
 10
10.1451651209
 20
10.6896537729
 30
0.0
 10
10.1245021573
 20
10.6920617686
 30
0.0
 10
10.104486267
 20
10.6948102416
 30
0.0
 10
10.0852014279
 20
10.6978875006
 30
0.0
 10
10.0667284282
 20
10.7012804477
 30
0.0
 10
10.049144776
 20
10.704974668
 30
0.0
 10
10.035105884
 20
10.708335994
 30
0.0
 10
10.0243813829
 20
10.7111734424
 30
0.0
 10
10.0167169609
 20
10.7133373427
 30
0.0
 10
10.009327673
 20
10.7155642633
 30
0.0
 10
10.0022212486
 20
10.7178519022
 30
0.0
 10
9.9954051216
 20
10.7201978164
 30
0.0
 10
9.9888864183
 20
10.722599572
 30
0.0
 10
9.9826719329
 20
10.7250546036
 30
0.0
 10
9.9767681461
 20
10.7275603845
 30
0.0
 10
9.9711811774
 20
10.7301142395
 30
0.0
 10
9.9659168294
 20
10.7327135728
 30
0.0
 10
9.9609805126
 20
10.7353556252
 30
0.0
 10
9.9563773203
 20
10.7380377685
 30
0.0
 10
9.952111938
 20
10.7407571915
 30
0.0
 10
9.9481886901
 20
10.7435113277
 30
0.0
 10
9.944611687
 20
10.746297242
 30
0.0
 10
9.9423981576
 20
10.7482282606
 30
0.0
 10
9.941354547
 20
10.7491994505
 30
0.0
  0
SPLINE
  5
365
100
AcDbEntity
  8
0
100
AcDbSpline
 62
7
  6
CONTINUOUS
 70
0
 71
3
 72
51
 73
47
 74
0
 42
0.0000001
 43
0.0000001
 44
0.0000000001
 40
0.0
 40
0.0
 40
0.0
 40
0.0
 40
0.0481980747
 40
0.0958298526
 40
0.1428199449
 40
0.1890979835
 40
0.2345930892
 40
0.2792367333
 40
0.3229621329
 40
0.3657045403
 40
0.4074014622
 40
0.4479928299
 40
0.4874212467
 40
0.5256322393
 40
0.5625745011
 40
0.5982001867
 40
0.6324652508
 40
0.6653298673
 40
0.6967589097
 40
0.7267224968
 40
0.7551966901
 40
0.7688701393
 40
0.7821654912
 40
0.7950818118
 40
0.8076188304
 40
0.8197768884
 40
0.8315569804
 40
0.8429609602
 40
0.8539914242
 40
0.8646519776
 40
0.8749472487
 40
0.8848829696
 40
0.8944662496
 40
0.9037055338
 40
0.9126109204
 40
0.9211942686
 40
0.9294693404
 40
0.937452123
 40
0.9451608562
 40
0.9598349789
 40
0.9668568053
 40
0.9737036628
 40
0.9804068766
 40
0.9870000912
 40
0.9935188408
 40
1.0
 40
1.0
 40
1.0
 40
1.0
 10
11.3224952756
 20
10.4848397719
 30
0.0
 10
11.3119234445
 20
10.4855729309
 30
0.0
 10
11.2909119715
 20
10.4871486507
 30
0.0
 10
11.2596268303
 20
10.4898580343
 30
0.0
 10
11.228795985
 20
10.4928959914
 30
0.0
 10
11.1984713143
 20
10.4962573297
 30
0.0
 10
11.1687032811
 20
10.4999364651
 30
0.0
 10
11.1395417456
 20
10.5039271954
 30
0.0
 10
11.1110354247
 20
10.5082228144
 30
0.0
 10
11.0832319568
 20
10.5128161007
 30
0.0
 10
11.0561777983
 20
10.5176993314
 30
0.0
 10
11.0299181418
 20
10.5228643006
 30
0.0
 10
11.0044968355
 20
10.5283023261
 30
0.0
 10
10.9799563016
 20
10.5340042559
 30
0.0
 10
10.9563374663
 20
10.5399604995
 30
0.0
 10
10.9336796946
 20
10.5461610406
 30
0.0
 10
10.9120207069
 20
10.5525954611
 30
0.0
 10
10.8913965278
 20
10.5592529523
 30
0.0
 10
10.8718413123
 20
10.5661223412
 30
0.0
 10
10.8533876302
 20
10.5731921124
 30
0.0
 10
10.8387616097
 20
10.5793206713
 30
0.0
 10
10.8276451022
 20
10.5843243449
 30
0.0
 10
10.8197147803
 20
10.5880690508
 30
0.0
 10
10.8120819341
 20
10.591854916
 30
0.0
 10
10.8047497128
 20
10.5956803701
 30
0.0
 10
10.7977211545
 20
10.5995438094
 30
0.0
 10
10.7909991897
 20
10.6034436825
 30
0.0
 10
10.7845865715
 20
10.6073783194
 30
0.0
 10
10.7784859741
 20
10.6113461594
 30
0.0
 10
10.7726999038
 20
10.6153455558
 30
0.0
 10
10.7672307345
 20
10.6193748681
 30
0.0
 10
10.7620807547
 20
10.6234325239
 30
0.0
 10
10.757252044
 20
10.6275168317
 30
0.0
 10
10.752746635
 20
10.6316262317
 30
0.0
 10
10.7485663934
 20
10.6357590812
 30
0.0
 10
10.7447130312
 20
10.6399137908
 30
0.0
 10
10.7411883172
 20
10.6440886989
 30
0.0
 10
10.7379934814
 20
10.6482825861
 30
0.0
 10
10.7342381394
 20
10.6538052362
 30
0.0
 10
10.7310609065
 20
10.6594583679
 30
0.0
 10
10.7285436718
 20
10.66521145
 30
0.0
 10
10.7270194665
 20
10.6694741588
 30
0.0
 10
10.7258328798
 20
10.6737452421
 30
0.0
 10
10.7249846419
 20
10.6780229849
 30
0.0
 10
10.7244753782
 20
10.6823048811
 30
0.0
 10
10.7243620892
 20
10.6851644241
 30
0.0
 10
10.7243620866
 20
10.6865894247
 30
0.0
  0
SPLINE
  5
366
100
AcDbEntity
  8
0
100
AcDbSpline
 62
7
  6
CONTINUOUS
 70
0
 71
3
 72
54
 73
50
 74
0
 42
0.0000001
 43
0.0000001
 44
0.0000000001
 40
0.0
 40
0.0
 40
0.0
 40
0.0
 40
0.0417740848
 40
0.0840369828
 40
0.1266585743
 40
0.1695065841
 40
0.2124482174
 40
0.2553501902
 40
0.2980794065
 40
0.3405034434
 40
0.3824910856
 40
0.4239128535
 40
0.4646415381
 40
0.5045527407
 40
0.5435254244
 40
0.5814424805
 40
0.6181913195
 40
0.6536644943
 40
0.6877603722
 40
0.7042621337
 40
0.7203845126
 40
0.7361167638
 40
0.7514487122
 40
0.7663707127
 40
0.7808737249
 40
0.7949493691
 40
0.8085899172
 40
0.8217884518
 40
0.8345388015
 40
0.8468357624
 40
0.8586750526
 40
0.8700535295
 40
0.8809692513
 40
0.8914216469
 40
0.9014117394
 40
0.9109422847
 40
0.9200181679
 40
0.9286465891
 40
0.9368376049
 40
0.9446044798
 40
0.9519643317
 40
0.9589387265
 40
0.9655543709
 40
0.9718438607
 40
0.9778462236
 40
0.9836073893
 40
0.9891800561
 40
0.99462308
 40
1.0
 40
1.0
 40
1.0
 40
1.0
 10
12.7713841009
 20
8.3018228834
 30
0.0
 10
12.7713841009
 20
8.3168782134
 30
0.0
 10
12.7716189791
 20
8.3471655143
 30
0.0
 10
12.7726573421
 20
8.3928028856
 30
0.0
 10
12.7743807602
 20
8.4388069113
 30
0.0
 10
12.7767835936
 20
8.4850253485
 30
0.0
 10
12.7798578962
 20
8.5313052523
 30
0.0
 10
12.7835935082
 20
8.5774935255
 30
0.0
 10
12.7879780547
 20
8.623437355
 30
0.0
 10
12.7929970015
 20
8.6689847472
 30
0.0
 10
12.7986336978
 20
8.7139850275
 30
0.0
 10
12.8048694306
 20
8.7582893443
 30
0.0
 10
12.8116834854
 20
8.8017511678
 30
0.0
 10
12.8190532151
 20
8.8442267774
 30
0.0
 10
12.8269541125
 20
8.8855757517
 30
0.0
 10
12.8353598927
 20
8.925661417
 30
0.0
 10
12.8442425663
 20
8.9643513995
 30
0.0
 10
12.8535725749
 20
9.0015177688
 30
0.0
 10
12.8617811922
 20
9.0314348704
 30
0.0
 10
12.868560631
 20
9.0545057455
 30
0.0
 10
12.8736820492
 20
9.07116434
 30
0.0
 10
12.8788914489
 20
9.0873533134
 30
0.0
 10
12.8841845099
 20
9.1030593107
 30
0.0
 10
12.8895568502
 20
9.1182693565
 30
0.0
 10
12.8950040224
 20
9.1329708965
 30
0.0
 10
12.9005214859
 20
9.1471518068
 30
0.0
 10
12.9061047127
 20
9.1608003885
 30
0.0
 10
12.9117490221
 20
9.1739054118
 30
0.0
 10
12.9174498074
 20
9.1864560787
 30
0.0
 10
12.9232022959
 20
9.1984420913
 30
0.0
 10
12.9290017908
 20
9.2098536027
 30
0.0
 10
12.9348434869
 20
9.2206812778
 30
0.0
 10
12.9407225979
 20
9.2309162709
 30
0.0
 10
12.9466343402
 20
9.2405502372
 30
0.0
 10
12.9525738704
 20
9.2495753772
 30
0.0
 10
12.9585364724
 20
9.2579843608
 30
0.0
 10
12.9645173247
 20
9.2657704571
 30
0.0
 10
12.9705118225
 20
9.2729273684
 30
0.0
 10
12.9765152964
 20
9.2794494
 30
0.0
 10
12.9825233123
 20
9.285331263
 30
0.0
 10
12.9885314989
 20
9.2905681605
 30
0.0
 10
12.9945356566
 20
9.2951556615
 30
0.0
 10
13.0005317543
 20
9.2990895547
 30
0.0
 10
13.0065157238
 20
9.302365906
 30
0.0
 10
13.0124835268
 20
9.3049806488
 30
0.0
 10
13.0184305207
 20
9.3069299903
 30
0.0
 10
13.0243518341
 20
9.3082100397
 30
0.0
 10
13.0302402611
 20
9.3088178158
 30
0.0
 10
13.034149679
 20
9.3087731233
 30
0.0
 10
13.0360828708
 20
9.3086390477
 30
0.0
  0
SPLINE
  5
367
100
AcDbEntity
  8
0
100
AcDbSpline
 62
7
  6
CONTINUOUS
 70
0
 71
3
 72
21
 73
17
 74
0
 42
0.0000001
 43
0.0000001
 44
0.0000000001
 40
0.0
 40
0.0
 40
0.0
 40
0.0
 40
0.1273176984
 40
0.2537999461
 40
0.3167619614
 40
0.3795355204
 40
0.4421314992
 40
0.5045621453
 40
0.5668413456
 40
0.6289845231
 40
0.6910084433
 40
0.7529310869
 40
0.8147714401
 40
0.8765493236
 40
0.9382852134
 40
1.0
 40
1.0
 40
1.0
 40
1.0
 10
9.4196137352
 20
10.0667217145
 30
0.0
 10
9.4196137352
 20
10.0599769064
 30
0.0
 10
9.4189698982
 20
10.046522867
 30
0.0
 10
9.416538307
 20
10.0298907699
 30
0.0
 10
9.4136320399
 20
10.0168443463
 30
0.0
 10
9.410981676
 20
10.0072212978
 30
0.0
 10
9.4078636813
 20
9.9977692461
 30
0.0
 10
9.4042852445
 20
9.9885097115
 30
0.0
 10
9.4002546159
 20
9.9794641101
 30
0.0
 10
9.395781008
 20
9.9706533186
 30
0.0
 10
9.3908747699
 20
9.962097647
 30
0.0
 10
9.3855472162
 20
9.9538168131
 30
0.0
 10
9.3798105818
 20
9.9458299785
 30
0.0
 10
9.3736780606
 20
9.938155486
 30
0.0
 10
9.3671640671
 20
9.9308112478
 30
0.0
 10
9.3625761744
 20
9.9261457552
 30
0.0
 10
9.3602246257
 20
9.9238743474
 30
0.0
  0
SPLINE
  5
368
100
AcDbEntity
  8
0
100
AcDbSpline
 62
7
  6
CONTINUOUS
 70
0
 71
3
 72
21
 73
17
 74
0
 42
0.0000001
 43
0.0000001
 44
0.0000000001
 40
0.0
 40
0.0
 40
0.0
 40
0.0
 40
0.1273176984
 40
0.2537999461
 40
0.3167619614
 40
0.3795355204
 40
0.4421314992
 40
0.5045621453
 40
0.5668413456
 40
0.6289845231
 40
0.6910084433
 40
0.7529310869
 40
0.8147714401
 40
0.8765493236
 40
0.9382852134
 40
1.0
 40
1.0
 40
1.0
 40
1.0
 10
12.4371662366
 20
9.8574537378
 30
0.0
 10
12.4371662366
 20
9.8507089297
 30
0.0
 10
12.4365223996
 20
9.8372548902
 30
0.0
 10
12.4340908083
 20
9.8206227932
 30
0.0
 10
12.4311845412
 20
9.8075763695
 30
0.0
 10
12.4285341773
 20
9.7979533211
 30
0.0
 10
12.4254161826
 20
9.7885012693
 30
0.0
 10
12.4218377459
 20
9.7792417348
 30
0.0
 10
12.4178071172
 20
9.7701961334
 30
0.0
 10
12.4133335093
 20
9.7613853418
 30
0.0
 10
12.4084272712
 20
9.7528296703
 30
0.0
 10
12.4030997176
 20
9.7445488364
 30
0.0
 10
12.3973630832
 20
9.7365620018
 30
0.0
 10
12.3912305619
 20
9.7288875093
 30
0.0
 10
12.3847165685
 20
9.721543271
 30
0.0
 10
12.3801286757
 20
9.7168777784
 30
0.0
 10
12.377777127
 20
9.7146063707
 30
0.0
  0
SPLINE
  5
369
100
AcDbEntity
  8
0
100
AcDbSpline
 62
7
  6
CONTINUOUS
 70
0
 71
3
 72
21
 73
17
 74
0
 42
0.0000001
 43
0.0000001
 44
0.0000000001
 40
0.0
 40
0.0
 40
0.0
 40
0.0
 40
0.1273176984
 40
0.2537999461
 40
0.3167619614
 40
0.3795355204
 40
0.4421314992
 40
0.5045621453
 40
0.5668413456
 40
0.6289845231
 40
0.6910084433
 40
0.7529310869
 40
0.8147714401
 40
0.8765493236
 40
0.9382852134
 40
1.0
 40
1.0
 40
1.0
 40
1.0
 10
9.4196137352
 20
6.5662065017
 30
0.0
 10
9.4196137352
 20
6.5594616936
 30
0.0
 10
9.4189698982
 20
6.5460076542
 30
0.0
 10
9.416538307
 20
6.5293755571
 30
0.0
 10
9.4136320399
 20
6.5163291335
 30
0.0
 10
9.410981676
 20
6.506706085
 30
0.0
 10
9.4078636813
 20
6.4972540333
 30
0.0
 10
9.4042852445
 20
6.4879944987
 30
0.0
 10
9.4002546159
 20
6.4789488973
 30
0.0
 10
9.395781008
 20
6.4701381057
 30
0.0
 10
9.3908747699
 20
6.4615824342
 30
0.0
 10
9.3855472162
 20
6.4533016003
 30
0.0
 10
9.3798105818
 20
6.4453147657
 30
0.0
 10
9.3736780606
 20
6.4376402732
 30
0.0
 10
9.3671640671
 20
6.430296035
 30
0.0
 10
9.3625761744
 20
6.4256305424
 30
0.0
 10
9.3602246257
 20
6.4233591346
 30
0.0
  0
SPLINE
  5
36A
100
AcDbEntity
  8
0
100
AcDbSpline
 62
7
  6
CONTINUOUS
 70
0
 71
3
 72
21
 73
17
 74
0
 42
0.0000001
 43
0.0000001
 44
0.0000000001
 40
0.0
 40
0.0
 40
0.0
 40
0.0
 40
0.1273176984
 40
0.2537999461
 40
0.3167619614
 40
0.3795355204
 40
0.4421314992
 40
0.5045621453
 40
0.5668413456
 40
0.6289845231
 40
0.6910084433
 40
0.7529310869
 40
0.8147714401
 40
0.8765493236
 40
0.9382852134
 40
1.0
 40
1.0
 40
1.0
 40
1.0
 10
12.4371662366
 20
6.3569385249
 30
0.0
 10
12.4371662366
 20
6.3501937168
 30
0.0
 10
12.4365223996
 20
6.3367396774
 30
0.0
 10
12.4340908083
 20
6.3201075804
 30
0.0
 10
12.4311845412
 20
6.3070611567
 30
0.0
 10
12.4285341773
 20
6.2974381083
 30
0.0
 10
12.4254161826
 20
6.2879860565
 30
0.0
 10
12.4218377459
 20
6.278726522
 30
0.0
 10
12.4178071172
 20
6.2696809206
 30
0.0
 10
12.4133335093
 20
6.260870129
 30
0.0
 10
12.4084272712
 20
6.2523144575
 30
0.0
 10
12.4030997176
 20
6.2440336236
 30
0.0
 10
12.3973630832
 20
6.236046789
 30
0.0
 10
12.3912305619
 20
6.2283722965
 30
0.0
 10
12.3847165685
 20
6.2210280582
 30
0.0
 10
12.3801286757
 20
6.2163625656
 30
0.0
 10
12.377777127
 20
6.2140911579
 30
0.0
  0
SPLINE
  5
36B
100
AcDbEntity
  8
0
100
AcDbSpline
 62
7
  6
CONTINUOUS
 70
0
 71
3
 72
21
 73
17
 74
0
 42
0.0000001
 43
0.0000001
 44
0.0000000001
 40
0.0
 40
0.0
 40
0.0
 40
0.0
 40
0.1273176984
 40
0.2537999461
 40
0.3167619614
 40
0.3795355204
 40
0.4421314992
 40
0.5045621453
 40
0.5668413456
 40
0.6289845231
 40
0.6910084433
 40
0.7529310869
 40
0.8147714401
 40
0.8765493236
 40
0.9382852134
 40
1.0
 40
1.0
 40
1.0
 40
1.0
 10
10.2638329987
 20
7.925638601
 30
0.0
 10
10.2638329987
 20
7.9188937929
 30
0.0
 10
10.2631891616
 20
7.9054397535
 30
0.0
 10
10.2607575704
 20
7.8888076564
 30
0.0
 10
10.2578513033
 20
7.8757612328
 30
0.0
 10
10.2552009394
 20
7.8661381843
 30
0.0
 10
10.2520829447
 20
7.8566861326
 30
0.0
 10
10.248504508
 20
7.847426598
 30
0.0
 10
10.2444738793
 20
7.8383809966
 30
0.0
 10
10.2400002714
 20
7.829570205
 30
0.0
 10
10.2350940333
 20
7.8210145335
 30
0.0
 10
10.2297664797
 20
7.8127336996
 30
0.0
 10
10.2240298452
 20
7.804746865
 30
0.0
 10
10.217897324
 20
7.7970723725
 30
0.0
 10
10.2113833305
 20
7.7897281343
 30
0.0
 10
10.2067954378
 20
7.7850626417
 30
0.0
 10
10.2044438891
 20
7.7827912339
 30
0.0
  0
SPLINE
  5
36C
100
AcDbEntity
  8
0
100
AcDbSpline
 62
7
  6
CONTINUOUS
 70
0
 71
3
 72
21
 73
17
 74
0
 42
0.0000001
 43
0.0000001
 44
0.0000000001
 40
0.0
 40
0.0
 40
0.0
 40
0.0
 40
0.1273176984
 40
0.2537999461
 40
0.3167619614
 40
0.3795355204
 40
0.4421314992
 40
0.5045621453
 40
0.5668413456
 40
0.6289845231
 40
0.6910084433
 40
0.7529310869
 40
0.8147714401
 40
0.8765493236
 40
0.9382852134
 40
1.0
 40
1.0
 40
1.0
 40
1.0
 10
10.7777055162
 20
8.3130771531
 30
0.0
 10
10.7777055162
 20
8.306332345
 30
0.0
 10
10.7770616792
 20
8.2928783056
 30
0.0
 10
10.7746300879
 20
8.2762462086
 30
0.0
 10
10.7717238208
 20
8.2631997849
 30
0.0
 10
10.7690734569
 20
8.2535767364
 30
0.0
 10
10.7659554622
 20
8.2441246847
 30
0.0
 10
10.7623770255
 20
8.2348651502
 30
0.0
 10
10.7583463968
 20
8.2258195488
 30
0.0
 10
10.7538727889
 20
8.2170087572
 30
0.0
 10
10.7489665508
 20
8.2084530857
 30
0.0
 10
10.7436389972
 20
8.2001722518
 30
0.0
 10
10.7379023628
 20
8.1921854172
 30
0.0
 10
10.7317698415
 20
8.1845109247
 30
0.0
 10
10.7252558481
 20
8.1771666864
 30
0.0
 10
10.7206679553
 20
8.1725011938
 30
0.0
 10
10.7183164066
 20
8.1702297861
 30
0.0
  0
SPLINE
  5
36D
100
AcDbEntity
  8
0
100
AcDbSpline
 62
7
  6
CONTINUOUS
 70
0
 71
3
 72
21
 73
17
 74
0
 42
0.0000001
 43
0.0000001
 44
0.0000000001
 40
0.0
 40
0.0
 40
0.0
 40
0.0
 40
0.1273176984
 40
0.2537999461
 40
0.3167619614
 40
0.3795355204
 40
0.4421314992
 40
0.5045621453
 40
0.5668413456
 40
0.6289845231
 40
0.6910084433
 40
0.7529310869
 40
0.8147714401
 40
0.8765493236
 40
0.9382852134
 40
1.0
 40
1.0
 40
1.0
 40
1.0
 10
11.5620372535
 20
8.2586835624
 30
0.0
 10
11.5620372535
 20
8.2519387543
 30
0.0
 10
11.5613934164
 20
8.2384847149
 30
0.0
 10
11.5589618252
 20
8.2218526178
 30
0.0
 10
11.5560555581
 20
8.2088061942
 30
0.0
 10
11.5534051942
 20
8.1991831457
 30
0.0
 10
11.5502871995
 20
8.189731094
 30
0.0
 10
11.5467087628
 20
8.1804715594
 30
0.0
 10
11.5426781341
 20
8.171425958
 30
0.0
 10
11.5382045262
 20
8.1626151665
 30
0.0
 10
11.5332982881
 20
8.1540594949
 30
0.0
 10
11.5279707345
 20
8.145778661
 30
0.0
 10
11.5222341
 20
8.1377918265
 30
0.0
 10
11.5161015788
 20
8.1301173339
 30
0.0
 10
11.5095875853
 20
8.1227730957
 30
0.0
 10
11.5049996926
 20
8.1181076031
 30
0.0
 10
11.5026481439
 20
8.1158361953
 30
0.0
  0
SPLINE
  5
36E
100
AcDbEntity
  8
0
100
AcDbSpline
 62
7
  6
CONTINUOUS
 70
0
 71
3
 72
21
 73
17
 74
0
 42
0.0000001
 43
0.0000001
 44
0.0000000001
 40
0.0
 40
0.0
 40
0.0
 40
0.0
 40
0.1273176984
 40
0.2537999461
 40
0.3167619614
 40
0.3795355204
 40
0.4421314992
 40
0.5045621453
 40
0.5668413456
 40
0.6289845231
 40
0.6910084433
 40
0.7529310869
 40
0.8147714401
 40
0.8765493236
 40
0.9382852134
 40
1.0
 40
1.0
 40
1.0
 40
1.0
 10
11.1698714424
 20
8.8596401959
 30
0.0
 10
11.1698714424
 20
8.8528953878
 30
0.0
 10
11.1692276054
 20
8.8394413484
 30
0.0
 10
11.1667960141
 20
8.8228092514
 30
0.0
 10
11.1638897471
 20
8.8097628277
 30
0.0
 10
11.1612393831
 20
8.8001397792
 30
0.0
 10
11.1581213884
 20
8.7906877275
 30
0.0
 10
11.1545429517
 20
8.781428193
 30
0.0
 10
11.150512323
 20
8.7723825916
 30
0.0
 10
11.1460387152
 20
8.7635718
 30
0.0
 10
11.141132477
 20
8.7550161285
 30
0.0
 10
11.1358049234
 20
8.7467352946
 30
0.0
 10
11.130068289
 20
8.73874846
 30
0.0
 10
11.1239357677
 20
8.7310739675
 30
0.0
 10
11.1174217743
 20
8.7237297292
 30
0.0
 10
11.1128338815
 20
8.7190642366
 30
0.0
 10
11.1104823328
 20
8.7167928289
 30
0.0
  0
SPLINE
  5
36F
100
AcDbEntity
  8
0
100
AcDbSpline
 62
7
  6
CONTINUOUS
 70
0
 71
3
 72
13
 73
9
 74
0
 42
0.0000001
 43
0.0000001
 44
0.0000000001
 40
0.0
 40
0.0
 40
0.0
 40
0.0
 40
0.2503808931
 40
0.375604513
 40
0.5007437085
 40
0.7505748961
 40
0.8753423442
 40
1.0
 40
1.0
 40
1.0
 40
1.0
 10
10.1164097534
 20
8.1372637444
 30
0.0
 10
10.1186958695
 20
8.1297483654
 30
0.0
 10
10.1226486587
 20
8.1186230375
 30
0.0
 10
10.1289482737
 20
8.1042261348
 30
0.0
 10
10.1359283122
 20
8.0901655245
 30
0.0
 10
10.1439366914
 20
8.0766489734
 30
0.0
 10
10.1529497688
 20
8.0638318539
 30
0.0
 10
10.1577892662
 20
8.0576762588
 30
0.0
 10
10.160289957
 20
8.0546692123
 30
0.0
  0
SPLINE
  5
370
100
AcDbEntity
  8
0
100
AcDbSpline
 62
7
  6
CONTINUOUS
 70
0
 71
3
 72
38
 73
34
 74
0
 42
0.0000001
 43
0.0000001
 44
0.0000000001
 40
0.0
 40
0.0
 40
0.0
 40
0.0
 40
0.0927667475
 40
0.1832197834
 40
0.2274252535
 40
0.2708691927
 40
0.3134935099
 40
0.3552415785
 40
0.3960585926
 40
0.4358916334
 40
0.4746898617
 40
0.5124047615
 40
0.5489902201
 40
0.5844027701
 40
0.6186019349
 40
0.651550377
 40
0.6832142079
 40
0.7135635022
 40
0.7425726367
 40
0.7702207857
 40
0.7964927383
 40
0.8213796803
 40
0.8448801625
 40
0.8670015755
 40
0.8877618916
 40
0.9071917528
 40
0.9253373623
 40
0.9422640493
 40
0.9580602968
 40
0.9728423718
 40
0.9867587331
 40
0.9934517413
 40
1.0
 40
1.0
 40
1.0
 40
1.0
 10
11.3825412445
 20
10.5119300985
 30
0.0
 10
11.3683773446
 20
10.5129123683
 30
0.0
 10
11.3404223096
 20
10.5151473855
 30
0.0
 10
11.3057927407
 20
10.5186927729
 30
0.0
 10
11.2787291282
 20
10.5219514751
 30
0.0
 10
11.258963787
 20
10.524576375
 30
0.0
 10
11.239605383
 20
10.5273967802
 30
0.0
 10
11.2206827819
 20
10.5304084892
 30
0.0
 10
11.2022242377
 20
10.5336069602
 30
0.0
 10
11.1842573012
 20
10.5369874051
 30
0.0
 10
11.1668087807
 20
10.5405447568
 30
0.0
 10
11.1499046959
 20
10.544273656
 30
0.0
 10
11.1335702505
 20
10.5481685097
 30
0.0
 10
11.1178297876
 20
10.5522234868
 30
0.0
 10
11.1027067367
 20
10.5564324797
 30
0.0
 10
11.0882235923
 20
10.5607891708
 30
0.0
 10
11.0744018792
 20
10.5652870489
 30
0.0
 10
11.0612620907
 20
10.5699193582
 30
0.0
 10
11.0488236676
 20
10.5746791632
 30
0.0
 10
11.0371049758
 20
10.5795593913
 30
0.0
 10
11.026123238
 20
10.5845527903
 30
0.0
 10
11.0158945059
 20
10.5896519849
 30
0.0
 10
11.006433656
 20
10.594849564
 30
0.0
 10
10.9977543329
 20
10.6001380808
 30
0.0
 10
10.9898689214
 20
10.6055101219
 30
0.0
 10
10.9827886173
 20
10.6109584651
 30
0.0
 10
10.976523473
 20
10.6164762115
 30
0.0
 10
10.9710825573
 20
10.6220567249
 30
0.0
 10
10.9664742189
 20
10.6276942509
 30
0.0
 10
10.9627070638
 20
10.6333822116
 30
0.0
 10
10.9602440479
 20
10.6382231778
 30
0.0
 10
10.958726594
 20
10.6420954134
 30
0.0
 10
10.9581145808
 20
10.6440293885
 30
0.0
 10
10.9578460375
 20
10.6449949489
 30
0.0
  0
SPLINE
  5
371
100
AcDbEntity
  8
0
100
AcDbSpline
 62
7
  6
CONTINUOUS
 70
0
 71
3
 72
51
 73
47
 74
0
 42
0.0000001
 43
0.0000001
 44
0.0000000001
 40
0.0
 40
0.0
 40
0.0
 40
0.0
 40
0.0407231965
 40
0.0818861823
 40
0.1233730977
 40
0.1650671341
 40
0.2068505859
 40
0.2486054817
 40
0.2902139319
 40
0.3315585882
 40
0.3725230636
 40
0.4129923695
 40
0.4528533506
 40
0.491995128
 40
0.5303095493
 40
0.5676916506
 40
0.6040401363
 40
0.6392578815
 40
0.6732524692
 40
0.7059367748
 40
0.7372296185
 40
0.7670565138
 40
0.781399417
 40
0.7953514059
 40
0.8089055244
 40
0.8220553556
 40
0.8347952492
 40
0.8471201939
 40
0.8590260817
 40
0.8705095835
 40
0.8815684543
 40
0.8922014258
 40
0.9024085601
 40
0.9121911791
 40
0.9215522792
 40
0.9304965231
 40
0.9390307319
 40
0.947163973
 40
0.9549081444
 40
0.9622781866
 40
0.9692927565
 40
0.9759745507
 40
0.9823509914
 40
0.9884545285
 40
0.9943230875
 40
1.0
 40
1.0
 40
1.0
 40
1.0
 10
11.3825412445
 20
10.5119300985
 30
0.0
 10
11.3927928229
 20
10.5112191491
 30
0.0
 10
11.4134179242
 20
10.5099469783
 30
0.0
 10
11.4445171937
 20
10.5084905231
 30
0.0
 10
11.4758792515
 20
10.5074782718
 30
0.0
 10
11.5074091134
 20
10.5069133074
 30
0.0
 10
11.5390114453
 20
10.5067973529
 30
0.0
 10
11.5705906337
 20
10.5071307596
 30
0.0
 10
11.6020511555
 20
10.5079125132
 30
0.0
 10
11.6332978424
 20
10.5091402321
 30
0.0
 10
11.6642361791
 20
10.510810177
 30
0.0
 10
11.6947725886
 20
10.5129172602
 30
0.0
 10
11.7248147187
 20
10.5154550616
 30
0.0
 10
11.754271724
 20
10.5184158463
 30
0.0
 10
11.7830545442
 20
10.5217905878
 30
0.0
 10
11.8110761787
 20
10.5255689942
 30
0.0
 10
11.8382519537
 20
10.5297395381
 30
0.0
 10
11.8644997932
 20
10.53428949
 30
0.0
 10
11.8897404525
 20
10.5392049588
 30
0.0
 10
11.9138978589
 20
10.5444709245
 30
0.0
 10
11.9368990571
 20
10.550071319
 30
0.0
 10
11.9552777559
 20
10.5550656393
 30
0.0
 10
11.9693423165
 20
10.5592264011
 30
0.0
 10
11.9794215019
 20
10.5623791003
 30
0.0
 10
11.9891617984
 20
10.5656021967
 30
0.0
 10
11.9985558682
 20
10.5688933353
 30
0.0
 10
12.0075966427
 20
10.5722499538
 30
0.0
 10
12.0162773077
 20
10.5756695821
 30
0.0
 10
12.0245913536
 20
10.5791495652
 30
0.0
 10
12.0325325233
 20
10.5826873541
 30
0.0
 10
12.0400948884
 20
10.5862802081
 30
0.0
 10
12.0472727709
 20
10.5899255162
 30
0.0
 10
12.0540608461
 20
10.593620471
 30
0.0
 10
12.0604540333
 20
10.5973624203
 30
0.0
 10
12.0664476309
 20
10.6011485175
 30
0.0
 10
12.0720371655
 20
10.6049760998
 30
0.0
 10
12.0772185664
 20
10.6088423215
 30
0.0
 10
12.0819879591
 20
10.612744552
 30
0.0
 10
12.0863418821
 20
10.6166800003
 30
0.0
 10
12.0902770095
 20
10.6206461174
 30
0.0
 10
12.0937904055
 20
10.6246402129
 30
0.0
 10
12.096879167
 20
10.6286598443
 30
0.0
 10
12.0995407027
 20
10.6327023517
 30
0.0
 10
12.1017723697
 20
10.6367653967
 30
0.0
 10
12.1035716142
 20
10.6408456053
 30
0.0
 10
12.1044942348
 20
10.6436147637
 30
0.0
 10
12.1048780833
 20
10.6449949068
 30
0.0
  0
SPLINE
  5
372
100
AcDbEntity
  8
0
100
AcDbSpline
 62
7
  6
CONTINUOUS
 70
0
 71
3
 72
9
 73
5
 74
0
 42
0.0000001
 43
0.0000001
 44
0.0000000001
 40
0.0
 40
0.0
 40
0.0
 40
0.0
 40
0.2538605144
 40
1.0
 40
1.0
 40
1.0
 40
1.0
 10
10.1834087621
 20
8.0165925387
 30
0.0
 10
10.1853590343
 20
8.0162243198
 30
0.0
 10
10.193063757
 20
8.0148932508
 30
0.0
 10
10.2008456714
 20
8.0140181926
 30
0.0
 10
10.2066641547
 20
8.0136005009
 30
0.0
  0
SPLINE
  5
373
100
AcDbEntity
  8
0
100
AcDbSpline
 62
7
  6
CONTINUOUS
 70
0
 71
3
 72
15
 73
11
 74
0
 42
0.0000001
 43
0.0000001
 44
0.0000000001
 40
0.0
 40
0.0
 40
0.0
 40
0.0
 40
0.1273482936
 40
0.2538605366
 40
0.3795879111
 40
0.5046050899
 40
0.6290174366
 40
0.7529533732
 40
0.8765605776
 40
1.0
 40
1.0
 40
1.0
 40
1.0
 10
10.047269255
 20
9.1852711934
 30
0.0
 10
10.047269255
 20
9.1818064181
 30
0.0
 10
10.0469384401
 20
9.1748948236
 30
0.0
 10
10.0454423533
 20
9.1646603622
 30
0.0
 10
10.042961592
 20
9.1546830555
 30
0.0
 10
10.0395185593
 20
9.1450562113
 30
0.0
 10
10.0351448612
 20
9.1358686061
 30
0.0
 10
10.0298803529
 20
9.1272050788
 30
0.0
 10
10.0237745227
 20
9.1191468183
 30
0.0
 10
10.0191771542
 20
9.1142243637
 30
0.0
 10
10.0167615805
 20
9.1118911189
 30
0.0
  0
SPLINE
  5
374
100
AcDbEntity
  8
0
100
AcDbSpline
 62
7
  6
CONTINUOUS
 70
0
 71
3
 72
23
 73
19
 74
0
 42
0.0000001
 43
0.0000001
 44
0.0000000001
 40
0.0
 40
0.0
 40
0.0
 40
0.0
 40
0.0614488807
 40
0.1232974294
 40
0.1855193177
 40
0.2480712672
 40
0.3108995318
 40
0.3739401513
 40
0.4371217414
 40
0.5003679843
 40
0.5636003151
 40
0.6267406524
 40
0.6897141172
 40
0.7524516838
 40
0.8148926113
 40
0.8769871451
 40
0.9386966623
 40
1.0
 40
1.0
 40
1.0
 40
1.0
 10
9.9386025931
 20
9.3014739139
 30
0.0
 10
9.9421692863
 20
9.3012265629
 30
0.0
 10
9.9493062312
 20
9.3003787645
 30
0.0
 10
9.9598678231
 20
9.2980761318
 30
0.0
 10
9.9702246963
 20
9.2947606198
 30
0.0
 10
9.9802761035
 20
9.2904643501
 30
0.0
 10
9.9899259204
 20
9.2852288569
 30
0.0
 10
9.9990814707
 20
9.2791045573
 30
0.0
 10
10.0076549536
 20
9.2721503748
 30
0.0
 10
10.0155641131
 20
9.2644331367
 30
0.0
 10
10.0227330446
 20
9.2560269379
 30
0.0
 10
10.0290928985
 20
9.2470124431
 30
0.0
 10
10.0345825311
 20
9.2374761378
 30
0.0
 10
10.0391490845
 20
9.2275094828
 30
0.0
 10
10.0427485446
 20
9.2172082079
 30
0.0
 10
10.0453460192
 20
9.20667086
 30
0.0
 10
10.0469163515
 20
9.1959999588
 30
0.0
 10
10.047269255
 20
9.1888379851
 30
0.0
 10
10.047269255
 20
9.1852711934
 30
0.0
  0
SPLINE
  5
375
100
AcDbEntity
  8
0
100
AcDbSpline
 62
7
  6
CONTINUOUS
 70
0
 71
3
 72
15
 73
11
 74
0
 42
0.0000001
 43
0.0000001
 44
0.0000000001
 40
0.0
 40
0.0
 40
0.0
 40
0.0
 40
0.1273482936
 40
0.2538605366
 40
0.3795879111
 40
0.5046050899
 40
0.6290174366
 40
0.7529533732
 40
0.8765605776
 40
1.0
 40
1.0
 40
1.0
 40
1.0
 10
10.047269255
 20
7.4340476016
 30
0.0
 10
10.047269255
 20
7.4305828262
 30
0.0
 10
10.0469384401
 20
7.4236712318
 30
0.0
 10
10.0454423533
 20
7.4134367704
 30
0.0
 10
10.042961592
 20
7.4034594637
 30
0.0
 10
10.0395185593
 20
7.3938326195
 30
0.0
 10
10.0351448612
 20
7.3846450143
 30
0.0
 10
10.0298803529
 20
7.3759814869
 30
0.0
 10
10.0237745227
 20
7.3679232265
 30
0.0
 10
10.0191771542
 20
7.3630007718
 30
0.0
 10
10.0167615805
 20
7.3606675271
 30
0.0
  0
SPLINE
  5
376
100
AcDbEntity
  8
0
100
AcDbSpline
 62
7
  6
CONTINUOUS
 70
0
 71
3
 72
23
 73
19
 74
0
 42
0.0000001
 43
0.0000001
 44
0.0000000001
 40
0.0
 40
0.0
 40
0.0
 40
0.0
 40
0.0614488807
 40
0.1232974294
 40
0.1855193177
 40
0.2480712672
 40
0.3108995318
 40
0.3739401513
 40
0.4371217414
 40
0.5003679843
 40
0.5636003151
 40
0.6267406524
 40
0.6897141172
 40
0.7524516838
 40
0.8148926113
 40
0.8769871451
 40
0.9386966623
 40
1.0
 40
1.0
 40
1.0
 40
1.0
 10
9.9386025931
 20
7.5502503221
 30
0.0
 10
9.9421692863
 20
7.5500029711
 30
0.0
 10
9.9493062312
 20
7.5491551727
 30
0.0
 10
9.9598678231
 20
7.54685254
 30
0.0
 10
9.9702246963
 20
7.543537028
 30
0.0
 10
9.9802761035
 20
7.5392407582
 30
0.0
 10
9.9899259204
 20
7.5340052651
 30
0.0
 10
9.9990814707
 20
7.5278809655
 30
0.0
 10
10.0076549536
 20
7.520926783
 30
0.0
 10
10.0155641131
 20
7.5132095448
 30
0.0
 10
10.0227330446
 20
7.5048033461
 30
0.0
 10
10.0290928985
 20
7.4957888513
 30
0.0
 10
10.0345825311
 20
7.486252546
 30
0.0
 10
10.0391490845
 20
7.476285891
 30
0.0
 10
10.0427485446
 20
7.465984616
 30
0.0
 10
10.0453460192
 20
7.4554472682
 30
0.0
 10
10.0469163515
 20
7.4447763669
 30
0.0
 10
10.047269255
 20
7.4376143933
 30
0.0
 10
10.047269255
 20
7.4340476016
 30
0.0
  0
SPLINE
  5
377
100
AcDbEntity
  8
0
100
AcDbSpline
 62
7
  6
CONTINUOUS
 70
0
 71
3
 72
15
 73
11
 74
0
 42
0.0000001
 43
0.0000001
 44
0.0000000001
 40
0.0
 40
0.0
 40
0.0
 40
0.0
 40
0.1273482936
 40
0.2538605366
 40
0.3795879111
 40
0.5046050899
 40
0.6290174366
 40
0.7529533732
 40
0.8765605776
 40
1.0
 40
1.0
 40
1.0
 40
1.0
 10
12.0988959016
 20
7.2917668104
 30
0.0
 10
12.0988959016
 20
7.288302035
 30
0.0
 10
12.0985650867
 20
7.2813904406
 30
0.0
 10
12.0970689999
 20
7.2711559792
 30
0.0
 10
12.0945882386
 20
7.2611786725
 30
0.0
 10
12.0911452059
 20
7.2515518283
 30
0.0
 10
12.0867715078
 20
7.2423642231
 30
0.0
 10
12.0815069995
 20
7.2337006958
 30
0.0
 10
12.0754011693
 20
7.2256424353
 30
0.0
 10
12.0708038008
 20
7.2207199806
 30
0.0
 10
12.0683882271
 20
7.2183867359
 30
0.0
  0
SPLINE
  5
378
100
AcDbEntity
  8
0
100
AcDbSpline
 62
7
  6
CONTINUOUS
 70
0
 71
3
 72
23
 73
19
 74
0
 42
0.0000001
 43
0.0000001
 44
0.0000000001
 40
0.0
 40
0.0
 40
0.0
 40
0.0
 40
0.0614488807
 40
0.1232974294
 40
0.1855193177
 40
0.2480712672
 40
0.3108995318
 40
0.3739401513
 40
0.4371217414
 40
0.5003679843
 40
0.5636003151
 40
0.6267406524
 40
0.6897141172
 40
0.7524516838
 40
0.8148926113
 40
0.8769871451
 40
0.9386966623
 40
1.0
 40
1.0
 40
1.0
 40
1.0
 10
11.9902292397
 20
7.4079695309
 30
0.0
 10
11.9937959329
 20
7.4077221799
 30
0.0
 10
12.0009328778
 20
7.4068743815
 30
0.0
 10
12.0114944697
 20
7.4045717488
 30
0.0
 10
12.0218513429
 20
7.4012562368
 30
0.0
 10
12.0319027502
 20
7.3969599671
 30
0.0
 10
12.041552567
 20
7.3917244739
 30
0.0
 10
12.0507081173
 20
7.3856001743
 30
0.0
 10
12.0592816002
 20
7.3786459918
 30
0.0
 10
12.0671907597
 20
7.3709287536
 30
0.0
 10
12.0743596912
 20
7.3625225549
 30
0.0
 10
12.0807195451
 20
7.3535080601
 30
0.0
 10
12.0862091777
 20
7.3439717548
 30
0.0
 10
12.0907757311
 20
7.3340050998
 30
0.0
 10
12.0943751912
 20
7.3237038248
 30
0.0
 10
12.0969726658
 20
7.313166477
 30
0.0
 10
12.0985429981
 20
7.3024955757
 30
0.0
 10
12.0988959016
 20
7.2953336021
 30
0.0
 10
12.0988959016
 20
7.2917668104
 30
0.0
  0
SPLINE
  5
379
100
AcDbEntity
  8
0
100
AcDbSpline
 62
7
  6
CONTINUOUS
 70
0
 71
3
 72
15
 73
11
 74
0
 42
0.0000001
 43
0.0000001
 44
0.0000000001
 40
0.0
 40
0.0
 40
0.0
 40
0.0
 40
0.1273482936
 40
0.2538605366
 40
0.3795879111
 40
0.5046050899
 40
0.6290174366
 40
0.7529533732
 40
0.8765605776
 40
1.0
 40
1.0
 40
1.0
 40
1.0
 10
12.0988959016
 20
9.0429904022
 30
0.0
 10
12.0988959016
 20
9.0395256269
 30
0.0
 10
12.0985650867
 20
9.0326140325
 30
0.0
 10
12.0970689999
 20
9.022379571
 30
0.0
 10
12.0945882386
 20
9.0124022643
 30
0.0
 10
12.0911452059
 20
9.0027754201
 30
0.0
 10
12.0867715078
 20
8.9935878149
 30
0.0
 10
12.0815069995
 20
8.9849242876
 30
0.0
 10
12.0754011693
 20
8.9768660271
 30
0.0
 10
12.0708038008
 20
8.9719435725
 30
0.0
 10
12.0683882271
 20
8.9696103277
 30
0.0
  0
SPLINE
  5
37A
100
AcDbEntity
  8
0
100
AcDbSpline
 62
7
  6
CONTINUOUS
 70
0
 71
3
 72
23
 73
19
 74
0
 42
0.0000001
 43
0.0000001
 44
0.0000000001
 40
0.0
 40
0.0
 40
0.0
 40
0.0
 40
0.0614488807
 40
0.1232974294
 40
0.1855193177
 40
0.2480712672
 40
0.3108995318
 40
0.3739401513
 40
0.4371217414
 40
0.5003679843
 40
0.5636003151
 40
0.6267406524
 40
0.6897141172
 40
0.7524516838
 40
0.8148926113
 40
0.8769871451
 40
0.9386966623
 40
1.0
 40
1.0
 40
1.0
 40
1.0
 10
11.9902292397
 20
9.1591931227
 30
0.0
 10
11.9937959329
 20
9.1589457717
 30
0.0
 10
12.0009328778
 20
9.1580979733
 30
0.0
 10
12.0114944697
 20
9.1557953406
 30
0.0
 10
12.0218513429
 20
9.1524798286
 30
0.0
 10
12.0319027502
 20
9.1481835589
 30
0.0
 10
12.041552567
 20
9.1429480657
 30
0.0
 10
12.0507081173
 20
9.1368237661
 30
0.0
 10
12.0592816002
 20
9.1298695836
 30
0.0
 10
12.0671907597
 20
9.1221523455
 30
0.0
 10
12.0743596912
 20
9.1137461467
 30
0.0
 10
12.0807195451
 20
9.1047316519
 30
0.0
 10
12.0862091777
 20
9.0951953466
 30
0.0
 10
12.0907757311
 20
9.0852286916
 30
0.0
 10
12.0943751912
 20
9.0749274167
 30
0.0
 10
12.0969726658
 20
9.0643900688
 30
0.0
 10
12.0985429981
 20
9.0537191676
 30
0.0
 10
12.0988959016
 20
9.0465571939
 30
0.0
 10
12.0988959016
 20
9.0429904022
 30
0.0
  0
SPLINE
  5
37B
100
AcDbEntity
  8
0
100
AcDbSpline
 62
7
  6
CONTINUOUS
 70
0
 71
3
 72
51
 73
47
 74
0
 42
0.0000001
 43
0.0000001
 44
0.0000000001
 40
0.0
 40
0.0
 40
0.0
 40
0.0
 40
0.040725654
 40
0.0819149151
 40
0.1234498402
 40
0.1652113726
 40
0.2070795351
 40
0.2489340004
 40
0.290654477
 40
0.3321211668
 40
0.3732151989
 40
0.4138190727
 40
0.4538171028
 40
0.4930958684
 40
0.5315446714
 40
0.5690560038
 40
0.6055260318
 40
0.6408551021
 40
0.6749482804
 40
0.7077159353
 40
0.7390743875
 40
0.7689466527
 40
0.7833038396
 40
0.7972641296
 40
0.810820213
 40
0.8239653932
 40
0.8366936611
 40
0.8489997214
 40
0.8608791025
 40
0.8723281855
 40
0.8833443585
 40
0.8939260592
 40
0.9040729863
 40
0.9137861719
 40
0.9230682688
 40
0.9319236778
 40
0.9403589356
 40
0.9483829291
 40
0.9560074126
 40
0.9632473414
 40
0.9701215268
 40
0.9766530833
 40
0.9828701499
 40
0.9888063109
 40
0.9945011024
 40
1.0
 40
1.0
 40
1.0
 40
1.0
 10
12.8005204408
 20
8.361966429
 30
0.0
 10
12.8005204408
 20
8.3722877174
 30
0.0
 10
12.80067536
 20
8.3930480898
 30
0.0
 10
12.8013606848
 20
8.4243280482
 30
0.0
 10
12.8024984329
 20
8.4558575655
 30
0.0
 10
12.8040851352
 20
8.4875399174
 30
0.0
 10
12.806115946
 20
8.5192780509
 30
0.0
 10
12.8085846436
 20
8.5509746928
 30
0.0
 10
12.811483658
 20
8.5825327136
 30
0.0
 10
12.8148040895
 20
8.6138554061
 30
0.0
 10
12.8185357383
 20
8.6448467906
 30
0.0
 10
12.8226671341
 20
8.6754119085
 30
0.0
 10
12.8271855714
 20
8.7054571169
 30
0.0
 10
12.8320771478
 20
8.7348903779
 30
0.0
 10
12.8373268054
 20
8.7636215445
 30
0.0
 10
12.8429183765
 20
8.7915626416
 30
0.0
 10
12.848834632
 20
8.81862814
 30
0.0
 10
12.855057333
 20
8.8447352325
 30
0.0
 10
12.8615672883
 20
8.8698040747
 30
0.0
 10
12.868344406
 20
8.8937581271
 30
0.0
 10
12.8753677835
 20
8.9165241134
 30
0.0
 10
12.8814858148
 20
8.9346802499
 30
0.0
 10
12.8864975277
 20
8.9485503323
 30
0.0
 10
12.8902545969
 20
8.9584756894
 30
0.0
 10
12.8940567823
 20
8.9680541476
 30
0.0
 10
12.8979012055
 20
8.9772784001
 30
0.0
 10
12.9017848987
 20
8.9861414103
 30
0.0
 10
12.9057049038
 20
8.9946364196
 30
0.0
 10
12.9096582015
 20
9.0027569666
 30
0.0
 10
12.9136417937
 20
9.0104968723
 30
0.0
 10
12.9176526175
 20
9.0178502733
 30
0.0
 10
12.9216876542
 20
9.0248115925
 30
0.0
 10
12.9257438166
 20
9.0313755876
 30
0.0
 10
12.9298180897
 20
9.0375373019
 30
0.0
 10
12.9339073901
 20
9.0432921337
 30
0.0
 10
12.9380087416
 20
9.0486357572
 30
0.0
 10
12.9421191064
 20
9.0535642195
 30
0.0
 10
12.9462355969
 20
9.0580738153
 30
0.0
 10
12.9503552782
 20
9.0621612178
 30
0.0
 10
12.9544754105
 20
9.0658232841
 30
0.0
 10
12.9585932124
 20
9.0690572223
 30
0.0
 10
12.9627061253
 20
9.0718603033
 30
0.0
 10
12.966811444
 20
9.0742300671
 30
0.0
 10
12.9709067791
 20
9.0761639843
 30
0.0
 10
12.9749886694
 20
9.0776596265
 30
0.0
 10
12.9777401374
 20
9.0783734714
 30
0.0
 10
12.9791055921
 20
9.0786521905
 30
0.0
  0
SPLINE
  5
37C
100
AcDbEntity
  8
0
100
AcDbSpline
 62
7
  6
CONTINUOUS
 70
0
 71
3
 72
38
 73
34
 74
0
 42
0.0000001
 43
0.0000001
 44
0.0000000001
 40
0.0
 40
0.0
 40
0.0
 40
0.0
 40
0.0933719495
 40
0.1843534427
 40
0.2287941667
 40
0.2724539911
 40
0.3152747787
 40
0.3571998665
 40
0.3981743992
 40
0.4381454015
 40
0.4770619842
 40
0.5148755597
 40
0.551539918
 40
0.5870114933
 40
0.6212496782
 40
0.6542169574
 40
0.6858792465
 40
0.7162063881
 40
0.7451724524
 40
0.7727562674
 40
0.7989422461
 40
0.8237211047
 40
0.8470908825
 40
0.8690584727
 40
0.8896413174
 40
0.9088696062
 40
0.9267893495
 40
0.9434660558
 40
0.9589890995
 40
0.97347685
 40
0.987081548
 40
0.9936140925
 40
1.0
 40
1.0
 40
1.0
 40
1.0
 10
12.8005204408
 20
8.361966429
 30
0.0
 10
12.8005204408
 20
8.3478779553
 30
0.0
 10
12.8008035287
 20
8.3200608075
 30
0.0
 10
12.8018973087
 20
8.2855534164
 30
0.0
 10
12.8032190041
 20
8.2585643393
 30
0.0
 10
12.8044184178
 20
8.2388461619
 30
0.0
 10
12.8058318387
 20
8.2195227254
 30
0.0
 10
12.8074571806
 20
8.200622557
 30
0.0
 10
12.8092919977
 20
8.1821736003
 30
0.0
 10
12.8113335669
 20
8.1642031199
 30
0.0
 10
12.8135788444
 20
8.1467376641
 30
0.0
 10
12.816024462
 20
8.1298030237
 30
0.0
 10
12.81866678
 20
8.1134242008
 30
0.0
 10
12.8215018672
 20
8.0976253632
 30
0.0
 10
12.8245254727
 20
8.0824297989
 30
0.0
 10
12.8277330907
 20
8.0678598919
 30
0.0
 10
12.83111996
 20
8.0539370819
 30
0.0
 10
12.834681015
 20
8.040681811
 30
0.0
 10
12.8384109605
 20
8.0281135025
 30
0.0
 10
12.8423042953
 20
8.0162505296
 30
0.0
 10
12.8463552578
 20
8.0051101488
 30
0.0
 10
12.8505579089
 20
7.9947084796
 30
0.0
 10
12.8549061996
 20
7.9850604847
 30
0.0
 10
12.8593939442
 20
7.9761799008
 30
0.0
 10
12.8640149359
 20
7.9680792243
 30
0.0
 10
12.868763096
 20
7.9607697605
 30
0.0
 10
12.8736325826
 20
7.9542616272
 30
0.0
 10
12.8786178153
 20
7.9485639586
 30
0.0
 10
12.8837141402
 20
7.9436851385
 30
0.0
 10
12.8889161342
 20
7.9396339174
 30
0.0
 10
12.8933969273
 20
7.9369182987
 30
0.0
 10
12.8970113509
 20
7.9351943736
 30
0.0
 10
12.898826131
 20
7.9344776799
 30
0.0
 10
12.8997345669
 20
7.9341565021
 30
0.0
  0
SPLINE
  5
37D
100
AcDbEntity
  8
0
100
AcDbSpline
 62
7
  6
CONTINUOUS
 70
0
 71
3
 72
38
 73
34
 74
0
 42
0.0000001
 43
0.0000001
 44
0.0000000001
 40
0.0
 40
0.0
 40
0.0
 40
0.0
 40
0.0072740291
 40
0.0148705467
 40
0.0227981199
 40
0.0310634322
 40
0.0396716723
 40
0.0486267104
 40
0.0579310866
 40
0.0675864128
 40
0.087949966
 40
0.1097139675
 40
0.1328621013
 40
0.1573687464
 40
0.1832004224
 40
0.2103168751
 40
0.2386718919
 40
0.2682139819
 40
0.29888699
 40
0.3306305745
 40
0.3633806086
 40
0.3970695153
 40
0.4316266425
 40
0.4669785851
 40
0.5030494707
 40
0.5397612151
 40
0.5770337978
 40
0.6147855483
 40
0.6913914982
 40
0.7689038028
 40
0.8466350203
 40
0.9238949572
 40
1.0
 40
1.0
 40
1.0
 40
1.0
 10
10.6157580844
 20
10.7491997434
 30
0.0
 10
10.6149786035
 20
10.7484743494
 30
0.0
 10
10.6133492383
 20
10.7470295485
 30
0.0
 10
10.6107584866
 20
10.7449245076
 30
0.0
 10
10.6079703835
 20
10.7428366212
 30
0.0
 10
10.6049866588
 20
10.7407670928
 30
0.0
 10
10.6018090233
 20
10.7387170866
 30
0.0
 10
10.5984393238
 20
10.7366878298
 30
0.0
 10
10.5948795511
 20
10.7346804142
 30
0.0
 10
10.5897918099
 20
10.7319867397
 30
0.0
 10
10.5829616034
 20
10.7286924766
 30
0.0
 10
10.5741832824
 20
10.7249122389
 30
0.0
 10
10.5647034261
 20
10.7212465863
 30
0.0
 10
10.5545443564
 20
10.7177042297
 30
0.0
 10
10.5437298236
 20
10.714293603
 30
0.0
 10
10.5322852984
 20
10.7110228697
 30
0.0
 10
10.5202377945
 20
10.7078998649
 30
0.0
 10
10.5076158214
 20
10.7049320671
 30
0.0
 10
10.4944492856
 20
10.7021265923
 30
0.0
 10
10.4807694114
 20
10.6994901691
 30
0.0
 10
10.466608667
 20
10.697029125
 30
0.0
 10
10.4520006877
 20
10.6947493521
 30
0.0
 10
10.4369801864
 20
10.6926563096
 30
0.0
 10
10.4215828637
 20
10.6907550118
 30
0.0
 10
10.4058453202
 20
10.6890500154
 30
0.0
 10
10.3898049864
 20
10.6875454099
 30
0.0
 10
10.3734999811
 20
10.6862447647
 30
0.0
 10
10.351351728
 20
10.6847797042
 30
0.0
 10
10.3232916295
 20
10.683484235
 30
0.0
 10
10.2893564942
 20
10.6827854474
 30
0.0
 10
10.2553186138
 20
10.6829419418
 30
0.0
 10
10.2215016924
 20
10.6839521546
 30
0.0
 10
10.1990833542
 20
10.6852013259
 30
0.0
 10
10.1879695619
 20
10.6859720701
 30
0.0
  0
SPLINE
  5
37E
100
AcDbEntity
  8
0
100
AcDbSpline
 62
7
  6
CONTINUOUS
 70
0
 71
3
 72
54
 73
50
 74
0
 42
0.0000001
 43
0.0000001
 44
0.0000000001
 40
0.0
 40
0.0
 40
0.0
 40
0.0
 40
0.0055575314
 40
0.0111779514
 40
0.0169218741
 40
0.0228457549
 40
0.0290005166
 40
0.0354309104
 40
0.0421753481
 40
0.0492661819
 40
0.0567302289
 40
0.0645893164
 40
0.0728609992
 40
0.0815590171
 40
0.0906939529
 40
0.1002735511
 40
0.1103032084
 40
0.120786225
 40
0.131724095
 40
0.1431167574
 40
0.1549627059
 40
0.1672592594
 40
0.1800025507
 40
0.1931877841
 40
0.2068091928
 40
0.2208602246
 40
0.2353335436
 40
0.2502211095
 40
0.265514256
 40
0.2812036668
 40
0.2972795185
 40
0.3137313951
 40
0.3477187121
 40
0.383073812
 40
0.4196976091
 40
0.4574851642
 40
0.4963263633
 40
0.5361065441
 40
0.5767070861
 40
0.6180059759
 40
0.6598783548
 40
0.7021970543
 40
0.7448331254
 40
0.7876563595
 40
0.8305358172
 40
0.8733403047
 40
0.9159390443
 40
0.9582017033
 40
1.0
 40
1.0
 40
1.0
 40
1.0
 10
12.3383620586
 20
10.6865898101
 30
0.0
 10
12.3383620622
 20
10.6845934491
 30
0.0
 10
12.3381385846
 20
10.6805746583
 30
0.0
 10
12.3371354008
 20
10.6745679301
 30
0.0
 10
12.3354660444
 20
10.6685745853
 30
0.0
 10
12.3331336427
 20
10.6626016071
 30
0.0
 10
12.3301421231
 20
10.6566538061
 30
0.0
 10
12.3264954621
 20
10.6507357603
 30
0.0
 10
12.3221978182
 20
10.6448515334
 30
0.0
 10
12.3172534319
 20
10.6390050622
 30
0.0
 10
12.3116666748
 20
10.6332003373
 30
0.0
 10
12.3054422933
 20
10.6274413163
 30
0.0
 10
12.2985852809
 20
10.6217322057
 30
0.0
 10
12.2911011866
 20
10.6160771304
 30
0.0
 10
12.2829959205
 20
10.6104804553
 30
0.0
 10
12.2742759771
 20
10.6049464429
 30
0.0
 10
12.264948301
 20
10.5994794826
 30
0.0
 10
12.2550203773
 20
10.5940839088
 30
0.0
 10
12.244500196
 20
10.5887640381
 30
0.0
 10
12.2333962354
 20
10.5835242072
 30
0.0
 10
12.2217174973
 20
10.5783686131
 30
0.0
 10
12.2094734364
 20
10.5733015258
 30
0.0
 10
12.19667402
 20
10.5683270144
 30
0.0
 10
12.1833296525
 20
10.5634492145
 30
0.0
 10
12.1694512186
 20
10.5586720747
 30
0.0
 10
12.1550500355
 20
10.5539995446
 30
0.0
 10
12.1401378634
 20
10.5494354517
 30
0.0
 10
12.124726888
 20
10.5449835327
 30
0.0
 10
12.1088297038
 20
10.5406474749
 30
0.0
 10
12.0924593214
 20
10.536430804
 30
0.0
 10
12.0756291133
 20
10.5323370084
 30
0.0
 10
12.0523414149
 20
10.5269889722
 30
0.0
 10
12.0221781609
 20
10.5206508966
 30
0.0
 10
11.9847566994
 20
10.5136659609
 30
0.0
 10
11.9458502586
 20
10.5072449801
 30
0.0
 10
11.9055862635
 20
10.5014091665
 30
0.0
 10
11.8640964037
 20
10.4961778348
 30
0.0
 10
11.8215165089
 20
10.4915682789
 30
0.0
 10
11.7779860011
 20
10.4875957351
 30
0.0
 10
11.7336474534
 20
10.4842733286
 30
0.0
 10
11.6886461088
 20
10.481612034
 30
0.0
 10
11.6431294005
 20
10.4796206384
 30
0.0
 10
11.5972464631
 20
10.478305716
 30
0.0
 10
11.5511476378
 20
10.477671606
 30
0.0
 10
11.5049839835
 20
10.4777204041
 30
0.0
 10
11.4589067523
 20
10.4784519423
 30
0.0
 10
11.4130669602
 20
10.4798638207
 30
0.0
 10
11.3676148624
 20
10.4819513499
 30
0.0
 10
11.3374739671
 20
10.4838009962
 30
0.0
 10
11.3224952756
 20
10.4848397719
 30
0.0
  0
SPLINE
  5
37F
100
AcDbEntity
  8
0
100
AcDbSpline
 62
7
  6
CONTINUOUS
 70
0
 71
3
 72
9
 73
5
 74
0
 42
0.0000001
 43
0.0000001
 44
0.0000000001
 40
0.0
 40
0.0
 40
0.0
 40
0.0
 40
0.5142882367
 40
1.0
 40
1.0
 40
1.0
 40
1.0
 10
10.1330184874
 20
8.0964670663
 30
0.0
 10
10.1318844199
 20
8.1029068601
 30
0.0
 10
10.1295121157
 20
8.1153999626
 30
0.0
 10
10.1267596067
 20
8.1278155486
 30
0.0
 10
10.1253162131
 20
8.1338200537
 30
0.0
  0
SPLINE
  5
380
100
AcDbEntity
  8
0
100
AcDbSpline
 62
7
  6
CONTINUOUS
 70
0
 71
3
 72
42
 73
38
 74
0
 42
0.0000001
 43
0.0000001
 44
0.0000000001
 40
0.0
 40
0.0
 40
0.0
 40
0.0
 40
0.0299419634
 40
0.0449235299
 40
0.0599142017
 40
0.0899287029
 40
0.1200139772
 40
0.1350926626
 40
0.1501967046
 40
0.1804840506
 40
0.2108978877
 40
0.2414513551
 40
0.2721543675
 40
0.3030134354
 40
0.3340315696
 40
0.3652082675
 40
0.3965395775
 40
0.4280182343
 40
0.4596338596
 40
0.4913732188
 40
0.5232205284
 40
0.5551578047
 40
0.5871652463
 40
0.6192216448
 40
0.6513048151
 40
0.6833920402
 40
0.7154605222
 40
0.747487836
 40
0.7794523759
 40
0.8113337934
 40
0.8431134117
 40
0.8747746318
 40
0.9063032512
 40
0.9376879208
 40
0.9533258
 40
0.9689252634
 40
1.0
 40
1.0
 40
1.0
 40
1.0
 10
9.0559273078
 20
10.2389094697
 30
0.0
 10
9.059560447
 20
10.2424187913
 30
0.0
 10
9.0652243144
 20
10.2474701244
 30
0.0
 10
9.0731564332
 20
10.2537377288
 30
0.0
 10
9.0813411502
 20
10.2596934476
 30
0.0
 10
9.0920208599
 20
10.2665325422
 30
0.0
 10
9.1032198237
 20
10.2725147708
 30
0.0
 10
9.1124560665
 20
10.2767705341
 30
0.0
 10
9.1218831029
 20
10.2806749777
 30
0.0
 10
9.1339775632
 20
10.2848733579
 30
0.0
 10
9.1488821523
 20
10.288786143
 30
0.0
 10
9.1641119617
 20
10.2915580501
 30
0.0
 10
9.1795825903
 20
10.2931737868
 30
0.0
 10
9.1952090545
 20
10.2936247305
 30
0.0
 10
9.2109053729
 20
10.2929085862
 30
0.0
 10
9.2265852752
 20
10.2910294907
 30
0.0
 10
9.2421626073
 20
10.2879979536
 30
0.0
 10
9.2575518164
 20
10.2838307995
 30
0.0
 10
9.2726684104
 20
10.2785510683
 30
0.0
 10
9.2874294161
 20
10.2721878854
 30
0.0
 10
9.3017538281
 20
10.2647762996
 30
0.0
 10
9.3155630467
 20
10.2563570897
 30
0.0
 10
9.3287813043
 20
10.2469765409
 30
0.0
 10
9.3413360748
 20
10.2366861917
 30
0.0
 10
9.3531584679
 20
10.2255425536
 30
0.0
 10
9.3641836019
 20
10.2136068026
 30
0.0
 10
9.3743509567
 20
10.2009444477
 30
0.0
 10
9.3836047024
 20
10.1876249733
 30
0.0
 10
9.3918940032
 20
10.1737214668
 30
0.0
 10
9.3991732945
 20
10.1593102058
 30
0.0
 10
9.4054025299
 20
10.1444703046
 30
0.0
 10
9.410547413
 20
10.1292830653
 30
0.0
 10
9.4145795219
 20
10.1138323518
 30
0.0
 10
9.4169968609
 20
10.1007902746
 30
0.0
 10
9.4183529163
 20
10.0903111237
 30
0.0
 10
9.4193206997
 20
10.0798420005
 30
0.0
 10
9.4196137352
 20
10.0719640558
 30
0.0
 10
9.4196137352
 20
10.0667217145
 30
0.0
  0
SPLINE
  5
381
100
AcDbEntity
  8
0
100
AcDbSpline
 62
7
  6
CONTINUOUS
 70
0
 71
3
 72
50
 73
46
 74
0
 42
0.0000001
 43
0.0000001
 44
0.0000000001
 40
0.0
 40
0.0
 40
0.0
 40
0.0
 40
0.0063158628
 40
0.0126706388
 40
0.0191024575
 40
0.0256479993
 40
0.0323418674
 40
0.039216204
 40
0.0536140195
 40
0.0611947492
 40
0.0690565012
 40
0.0772176038
 40
0.0856940071
 40
0.0944993844
 40
0.1036455057
 40
0.1131422796
 40
0.1229980214
 40
0.1332196594
 40
0.1438127402
 40
0.1547817587
 40
0.1661301165
 40
0.1778602858
 40
0.1899739713
 40
0.2024720154
 40
0.2153546703
 40
0.2422704625
 40
0.2707126998
 40
0.3006636352
 40
0.3320988302
 40
0.3649880253
 40
0.3992958242
 40
0.4349822322
 40
0.4720031
 40
0.5103105418
 40
0.5498532687
 40
0.5905768749
 40
0.6324240735
 40
0.6753349284
 40
0.7192471051
 40
0.764096031
 40
0.8098151214
 40
0.8563360409
 40
0.9035881022
 40
0.9515011825
 40
1.0
 40
1.0
 40
1.0
 40
1.0
 10
12.9244189251
 20
7.6985064101
 30
0.0
 10
12.9230549463
 20
7.6986010082
 30
0.0
 10
12.9203250318
 20
7.6989024473
 30
0.0
 10
12.9162607622
 20
7.6996881419
 30
0.0
 10
12.9122236414
 20
7.7008072705
 30
0.0
 10
12.908216074
 20
7.7022590777
 30
0.0
 10
12.9042395883
 20
7.7040425998
 30
0.0
 10
12.8989002424
 20
7.7069048122
 30
0.0
 10
12.8937058899
 20
7.7104085823
 30
0.0
 10
12.8886790957
 20
7.7144689191
 30
0.0
 10
12.8848821686
 20
7.717892252
 30
0.0
 10
12.881125764
 20
7.7216390708
 30
0.0
 10
12.8774108891
 20
7.7257080982
 30
0.0
 10
12.8737389774
 20
7.7300975079
 30
0.0
 10
12.8701114482
 20
7.7348055707
 30
0.0
 10
12.8665296655
 20
7.7398303347
 30
0.0
 10
12.8629950085
 20
7.7451697614
 30
0.0
 10
12.8595089159
 20
7.750821711
 30
0.0
 10
12.8560727032
 20
7.7567838587
 30
0.0
 10
12.8526878011
 20
7.7630538114
 30
0.0
 10
12.8493555501
 20
7.7696290075
 30
0.0
 10
12.8460772787
 20
7.7765067661
 30
0.0
 10
12.8428543805
 20
7.7836842963
 30
0.0
 10
12.8396880764
 20
7.7911586584
 30
0.0
 10
12.835482119
 20
7.8016701817
 30
0.0
 10
12.830389105
 20
7.8155409381
 30
0.0
 10
12.8246095469
 20
7.8330840525
 30
0.0
 10
12.8190855705
 20
7.8517317987
 30
0.0
 10
12.8138263196
 20
7.8714535787
 30
0.0
 10
12.8088405181
 20
7.8922172488
 30
0.0
 10
12.8041364614
 20
7.9139887931
 30
0.0
 10
12.7997219843
 20
7.9367324998
 30
0.0
 10
12.7956044326
 20
7.9604109967
 30
0.0
 10
12.7917906663
 20
7.9849853387
 30
0.0
 10
12.7882870415
 20
8.0104150819
 30
0.0
 10
12.7850994029
 20
8.0366583517
 30
0.0
 10
12.7822330633
 20
8.0636719089
 30
0.0
 10
12.7796927931
 20
8.0914112278
 30
0.0
 10
12.7774828274
 20
8.1198305733
 30
0.0
 10
12.7756068513
 20
8.1488830844
 30
0.0
 10
12.7740679968
 20
8.1785208722
 30
0.0
 10
12.7728688465
 20
8.2086949537
 30
0.0
 10
12.7720113595
 20
8.2393557966
 30
0.0
 10
12.7714970383
 20
8.2704524834
 30
0.0
 10
12.7713841009
 20
8.2913238804
 30
0.0
 10
12.7713841009
 20
8.3018228834
 30
0.0
  0
SPLINE
  5
382
100
AcDbEntity
  8
0
100
AcDbSpline
 62
7
  6
CONTINUOUS
 70
0
 71
3
 72
42
 73
38
 74
0
 42
0.0000001
 43
0.0000001
 44
0.0000000001
 40
0.0
 40
0.0
 40
0.0
 40
0.0
 40
0.0299419634
 40
0.0449235299
 40
0.0599142017
 40
0.0899287029
 40
0.1200139772
 40
0.1350926626
 40
0.1501967046
 40
0.1804840506
 40
0.2108978877
 40
0.2414513551
 40
0.2721543675
 40
0.3030134354
 40
0.3340315696
 40
0.3652082675
 40
0.3965395775
 40
0.4280182343
 40
0.4596338596
 40
0.4913732188
 40
0.5232205284
 40
0.5551578047
 40
0.5871652463
 40
0.6192216448
 40
0.6513048151
 40
0.6833920402
 40
0.7154605222
 40
0.747487836
 40
0.7794523759
 40
0.8113337934
 40
0.8431134117
 40
0.8747746318
 40
0.9063032512
 40
0.9376879208
 40
0.9533258
 40
0.9689252634
 40
1.0
 40
1.0
 40
1.0
 40
1.0
 10
12.0734798092
 20
10.029641493
 30
0.0
 10
12.0771129483
 20
10.0331508146
 30
0.0
 10
12.0827768158
 20
10.0382021477
 30
0.0
 10
12.0907089346
 20
10.044469752
 30
0.0
 10
12.0988936515
 20
10.0504254708
 30
0.0
 10
12.1095733613
 20
10.0572645655
 30
0.0
 10
12.120772325
 20
10.0632467941
 30
0.0
 10
12.1300085678
 20
10.0675025574
 30
0.0
 10
12.1394356043
 20
10.0714070009
 30
0.0
 10
12.1515300645
 20
10.0756053812
 30
0.0
 10
12.1664346536
 20
10.0795181663
 30
0.0
 10
12.1816644631
 20
10.0822900734
 30
0.0
 10
12.1971350916
 20
10.0839058101
 30
0.0
 10
12.2127615558
 20
10.0843567538
 30
0.0
 10
12.2284578743
 20
10.0836406095
 30
0.0
 10
12.2441377766
 20
10.081761514
 30
0.0
 10
12.2597151086
 20
10.0787299769
 30
0.0
 10
12.2751043177
 20
10.0745628227
 30
0.0
 10
12.2902209117
 20
10.0692830915
 30
0.0
 10
12.3049819175
 20
10.0629199087
 30
0.0
 10
12.3193063294
 20
10.0555083229
 30
0.0
 10
12.3331155481
 20
10.047089113
 30
0.0
 10
12.3463338056
 20
10.0377085641
 30
0.0
 10
12.3588885762
 20
10.027418215
 30
0.0
 10
12.3707109692
 20
10.0162745768
 30
0.0
 10
12.3817361032
 20
10.0043388259
 30
0.0
 10
12.391903458
 20
9.9916764709
 30
0.0
 10
12.4011572037
 20
9.9783569965
 30
0.0
 10
12.4094465046
 20
9.9644534901
 30
0.0
 10
12.4167257959
 20
9.9500422291
 30
0.0
 10
12.4229550312
 20
9.9352023279
 30
0.0
 10
12.4280999143
 20
9.9200150885
 30
0.0
 10
12.4321320233
 20
9.9045643751
 30
0.0
 10
12.4345493622
 20
9.8915222979
 30
0.0
 10
12.4359054176
 20
9.881043147
 30
0.0
 10
12.4368732011
 20
9.8705740238
 30
0.0
 10
12.4371662366
 20
9.862696079
 30
0.0
 10
12.4371662366
 20
9.8574537378
 30
0.0
  0
SPLINE
  5
383
100
AcDbEntity
  8
0
100
AcDbSpline
 62
7
  6
CONTINUOUS
 70
0
 71
3
 72
42
 73
38
 74
0
 42
0.0000001
 43
0.0000001
 44
0.0000000001
 40
0.0
 40
0.0
 40
0.0
 40
0.0
 40
0.0299419634
 40
0.0449235299
 40
0.0599142017
 40
0.0899287029
 40
0.1200139772
 40
0.1350926626
 40
0.1501967046
 40
0.1804840506
 40
0.2108978877
 40
0.2414513551
 40
0.2721543675
 40
0.3030134354
 40
0.3340315696
 40
0.3652082675
 40
0.3965395775
 40
0.4280182343
 40
0.4596338596
 40
0.4913732188
 40
0.5232205284
 40
0.5551578047
 40
0.5871652463
 40
0.6192216448
 40
0.6513048151
 40
0.6833920402
 40
0.7154605222
 40
0.747487836
 40
0.7794523759
 40
0.8113337934
 40
0.8431134117
 40
0.8747746318
 40
0.9063032512
 40
0.9376879208
 40
0.9533258
 40
0.9689252634
 40
1.0
 40
1.0
 40
1.0
 40
1.0
 10
9.0559273078
 20
6.7383942569
 30
0.0
 10
9.059560447
 20
6.7419035785
 30
0.0
 10
9.0652243144
 20
6.7469549116
 30
0.0
 10
9.0731564332
 20
6.753222516
 30
0.0
 10
9.0813411502
 20
6.7591782348
 30
0.0
 10
9.0920208599
 20
6.7660173294
 30
0.0
 10
9.1032198237
 20
6.771999558
 30
0.0
 10
9.1124560665
 20
6.7762553213
 30
0.0
 10
9.1218831029
 20
6.7801597649
 30
0.0
 10
9.1339775632
 20
6.7843581451
 30
0.0
 10
9.1488821523
 20
6.7882709302
 30
0.0
 10
9.1641119617
 20
6.7910428373
 30
0.0
 10
9.1795825903
 20
6.792658574
 30
0.0
 10
9.1952090545
 20
6.7931095177
 30
0.0
 10
9.2109053729
 20
6.7923933734
 30
0.0
 10
9.2265852752
 20
6.7905142779
 30
0.0
 10
9.2421626073
 20
6.7874827408
 30
0.0
 10
9.2575518164
 20
6.7833155867
 30
0.0
 10
9.2726684104
 20
6.7780358554
 30
0.0
 10
9.2874294161
 20
6.7716726726
 30
0.0
 10
9.3017538281
 20
6.7642610868
 30
0.0
 10
9.3155630467
 20
6.7558418769
 30
0.0
 10
9.3287813043
 20
6.7464613281
 30
0.0
 10
9.3413360748
 20
6.7361709789
 30
0.0
 10
9.3531584679
 20
6.7250273408
 30
0.0
 10
9.3641836019
 20
6.7130915898
 30
0.0
 10
9.3743509567
 20
6.7004292349
 30
0.0
 10
9.3836047024
 20
6.6871097605
 30
0.0
 10
9.3918940032
 20
6.673206254
 30
0.0
 10
9.3991732945
 20
6.658794993
 30
0.0
 10
9.4054025299
 20
6.6439550918
 30
0.0
 10
9.410547413
 20
6.6287678525
 30
0.0
 10
9.4145795219
 20
6.613317139
 30
0.0
 10
9.4169968609
 20
6.6002750618
 30
0.0
 10
9.4183529163
 20
6.5897959109
 30
0.0
 10
9.4193206997
 20
6.5793267877
 30
0.0
 10
9.4196137352
 20
6.571448843
 30
0.0
 10
9.4196137352
 20
6.5662065017
 30
0.0
  0
SPLINE
  5
384
100
AcDbEntity
  8
0
100
AcDbSpline
 62
7
  6
CONTINUOUS
 70
0
 71
3
 72
42
 73
38
 74
0
 42
0.0000001
 43
0.0000001
 44
0.0000000001
 40
0.0
 40
0.0
 40
0.0
 40
0.0
 40
0.0299419634
 40
0.0449235299
 40
0.0599142017
 40
0.0899287029
 40
0.1200139772
 40
0.1350926626
 40
0.1501967046
 40
0.1804840506
 40
0.2108978877
 40
0.2414513551
 40
0.2721543675
 40
0.3030134354
 40
0.3340315696
 40
0.3652082675
 40
0.3965395775
 40
0.4280182343
 40
0.4596338596
 40
0.4913732188
 40
0.5232205284
 40
0.5551578047
 40
0.5871652463
 40
0.6192216448
 40
0.6513048151
 40
0.6833920402
 40
0.7154605222
 40
0.747487836
 40
0.7794523759
 40
0.8113337934
 40
0.8431134117
 40
0.8747746318
 40
0.9063032512
 40
0.9376879208
 40
0.9533258
 40
0.9689252634
 40
1.0
 40
1.0
 40
1.0
 40
1.0
 10
12.0734798092
 20
6.5291262802
 30
0.0
 10
12.0771129483
 20
6.5326356017
 30
0.0
 10
12.0827768158
 20
6.5376869349
 30
0.0
 10
12.0907089346
 20
6.5439545392
 30
0.0
 10
12.0988936515
 20
6.549910258
 30
0.0
 10
12.1095733613
 20
6.5567493527
 30
0.0
 10
12.120772325
 20
6.5627315813
 30
0.0
 10
12.1300085678
 20
6.5669873446
 30
0.0
 10
12.1394356043
 20
6.5708917881
 30
0.0
 10
12.1515300645
 20
6.5750901684
 30
0.0
 10
12.1664346536
 20
6.5790029535
 30
0.0
 10
12.1816644631
 20
6.5817748606
 30
0.0
 10
12.1971350916
 20
6.5833905973
 30
0.0
 10
12.2127615558
 20
6.583841541
 30
0.0
 10
12.2284578743
 20
6.5831253966
 30
0.0
 10
12.2441377766
 20
6.5812463012
 30
0.0
 10
12.2597151086
 20
6.5782147641
 30
0.0
 10
12.2751043177
 20
6.5740476099
 30
0.0
 10
12.2902209117
 20
6.5687678787
 30
0.0
 10
12.3049819175
 20
6.5624046958
 30
0.0
 10
12.3193063294
 20
6.5549931101
 30
0.0
 10
12.3331155481
 20
6.5465739002
 30
0.0
 10
12.3463338056
 20
6.5371933513
 30
0.0
 10
12.3588885762
 20
6.5269030022
 30
0.0
 10
12.3707109692
 20
6.515759364
 30
0.0
 10
12.3817361032
 20
6.503823613
 30
0.0
 10
12.391903458
 20
6.4911612581
 30
0.0
 10
12.4011572037
 20
6.4778417837
 30
0.0
 10
12.4094465046
 20
6.4639382772
 30
0.0
 10
12.4167257959
 20
6.4495270162
 30
0.0
 10
12.4229550312
 20
6.434687115
 30
0.0
 10
12.4280999143
 20
6.4194998757
 30
0.0
 10
12.4321320233
 20
6.4040491623
 30
0.0
 10
12.4345493622
 20
6.3910070851
 30
0.0
 10
12.4359054176
 20
6.3805279341
 30
0.0
 10
12.4368732011
 20
6.3700588109
 30
0.0
 10
12.4371662366
 20
6.3621808662
 30
0.0
 10
12.4371662366
 20
6.3569385249
 30
0.0
  0
SPLINE
  5
385
100
AcDbEntity
  8
0
100
AcDbSpline
 62
7
  6
CONTINUOUS
 70
0
 71
3
 72
42
 73
38
 74
0
 42
0.0000001
 43
0.0000001
 44
0.0000000001
 40
0.0
 40
0.0
 40
0.0
 40
0.0
 40
0.0299419634
 40
0.0449235299
 40
0.0599142017
 40
0.0899287029
 40
0.1200139772
 40
0.1350926626
 40
0.1501967046
 40
0.1804840506
 40
0.2108978877
 40
0.2414513551
 40
0.2721543675
 40
0.3030134354
 40
0.3340315696
 40
0.3652082675
 40
0.3965395775
 40
0.4280182343
 40
0.4596338596
 40
0.4913732188
 40
0.5232205284
 40
0.5551578047
 40
0.5871652463
 40
0.6192216448
 40
0.6513048151
 40
0.6833920402
 40
0.7154605222
 40
0.747487836
 40
0.7794523759
 40
0.8113337934
 40
0.8431134117
 40
0.8747746318
 40
0.9063032512
 40
0.9376879208
 40
0.9533258
 40
0.9689252634
 40
1.0
 40
1.0
 40
1.0
 40
1.0
 10
10.806185015
 20
9.0318279512
 30
0.0
 10
10.8098181541
 20
9.0353372727
 30
0.0
 10
10.8154820216
 20
9.0403886059
 30
0.0
 10
10.8234141404
 20
9.0466562102
 30
0.0
 10
10.8315988573
 20
9.052611929
 30
0.0
 10
10.8422785671
 20
9.0594510237
 30
0.0
 10
10.8534775309
 20
9.0654332522
 30
0.0
 10
10.8627137736
 20
9.0696890156
 30
0.0
 10
10.8721408101
 20
9.0735934591
 30
0.0
 10
10.8842352704
 20
9.0777918394
 30
0.0
 10
10.8991398594
 20
9.0817046245
 30
0.0
 10
10.9143696689
 20
9.0844765315
 30
0.0
 10
10.9298402975
 20
9.0860922682
 30
0.0
 10
10.9454667616
 20
9.0865432119
 30
0.0
 10
10.9611630801
 20
9.0858270676
 30
0.0
 10
10.9768429824
 20
9.0839479722
 30
0.0
 10
10.9924203144
 20
9.0809164351
 30
0.0
 10
11.0078095235
 20
9.0767492809
 30
0.0
 10
11.0229261176
 20
9.0714695497
 30
0.0
 10
11.0376871233
 20
9.0651063668
 30
0.0
 10
11.0520115352
 20
9.0576947811
 30
0.0
 10
11.0658207539
 20
9.0492755712
 30
0.0
 10
11.0790390114
 20
9.0398950223
 30
0.0
 10
11.091593782
 20
9.0296046732
 30
0.0
 10
11.1034161751
 20
9.018461035
 30
0.0
 10
11.1144413091
 20
9.006525284
 30
0.0
 10
11.1246086639
 20
8.9938629291
 30
0.0
 10
11.1338624096
 20
8.9805434547
 30
0.0
 10
11.1421517104
 20
8.9666399482
 30
0.0
 10
11.1494310017
 20
8.9522286872
 30
0.0
 10
11.155660237
 20
8.937388786
 30
0.0
 10
11.1608051201
 20
8.9222015467
 30
0.0
 10
11.1648372291
 20
8.9067508333
 30
0.0
 10
11.167254568
 20
8.8937087561
 30
0.0
 10
11.1686106234
 20
8.8832296051
 30
0.0
 10
11.1695784069
 20
8.8727604819
 30
0.0
 10
11.1698714424
 20
8.8648825372
 30
0.0
 10
11.1698714424
 20
8.8596401959
 30
0.0
  0
SPLINE
  5
386
100
AcDbEntity
  8
0
100
AcDbSpline
 62
7
  6
CONTINUOUS
 70
0
 71
3
 72
15
 73
11
 74
0
 42
0.0000001
 43
0.0000001
 44
0.0000000001
 40
0.0
 40
0.0
 40
0.0
 40
0.0
 40
0.1233171261
 40
0.2468171865
 40
0.3706749939
 40
0.4950495802
 40
0.6200773232
 40
0.7458671315
 40
0.872492731
 40
1.0
 40
1.0
 40
1.0
 40
1.0
 10
9.8604436058
 20
9.2737233851
 30
0.0
 10
9.8629681394
 20
9.2761618762
 30
0.0
 10
9.8682881101
 20
9.280774302
 30
0.0
 10
9.8769708264
 20
9.2868014922
 30
0.0
 10
9.8862746513
 20
9.2918823334
 30
0.0
 10
9.8961043519
 20
9.2959646039
 30
0.0
 10
9.9063607737
 20
9.2990077745
 30
0.0
 10
9.916940598
 20
9.3009814175
 30
0.0
 10
9.9277358289
 20
9.3018663367
 30
0.0
 10
9.9349821111
 20
9.3017249952
 30
0.0
 10
9.9386025931
 20
9.3014739139
 30
0.0
  0
SPLINE
  5
387
100
AcDbEntity
  8
0
100
AcDbSpline
 62
7
  6
CONTINUOUS
 70
0
 71
3
 72
15
 73
11
 74
0
 42
0.0000001
 43
0.0000001
 44
0.0000000001
 40
0.0
 40
0.0
 40
0.0
 40
0.0
 40
0.1233171261
 40
0.2468171865
 40
0.3706749939
 40
0.4950495802
 40
0.6200773232
 40
0.7458671315
 40
0.872492731
 40
1.0
 40
1.0
 40
1.0
 40
1.0
 10
9.8604436058
 20
7.5224997933
 30
0.0
 10
9.8629681394
 20
7.5249382844
 30
0.0
 10
9.8682881101
 20
7.5295507102
 30
0.0
 10
9.8769708264
 20
7.5355779004
 30
0.0
 10
9.8862746513
 20
7.5406587416
 30
0.0
 10
9.8961043519
 20
7.5447410121
 30
0.0
 10
9.9063607737
 20
7.5477841826
 30
0.0
 10
9.916940598
 20
7.5497578257
 30
0.0
 10
9.9277358289
 20
7.5506427449
 30
0.0
 10
9.9349821111
 20
7.5505014033
 30
0.0
 10
9.9386025931
 20
7.5502503221
 30
0.0
  0
SPLINE
  5
388
100
AcDbEntity
  8
0
100
AcDbSpline
 62
7
  6
CONTINUOUS
 70
0
 71
3
 72
42
 73
38
 74
0
 42
0.0000001
 43
0.0000001
 44
0.0000000001
 40
0.0
 40
0.0
 40
0.0
 40
0.0
 40
0.0299419634
 40
0.0449235299
 40
0.0599142017
 40
0.0899287029
 40
0.1200139772
 40
0.1350926626
 40
0.1501967046
 40
0.1804840506
 40
0.2108978877
 40
0.2414513551
 40
0.2721543675
 40
0.3030134354
 40
0.3340315696
 40
0.3652082675
 40
0.3965395775
 40
0.4280182343
 40
0.4596338596
 40
0.4913732188
 40
0.5232205284
 40
0.5551578047
 40
0.5871652463
 40
0.6192216448
 40
0.6513048151
 40
0.6833920402
 40
0.7154605222
 40
0.747487836
 40
0.7794523759
 40
0.8113337934
 40
0.8431134117
 40
0.8747746318
 40
0.9063032512
 40
0.9376879208
 40
0.9533258
 40
0.9689252634
 40
1.0
 40
1.0
 40
1.0
 40
1.0
 10
11.198350826
 20
8.4308713176
 30
0.0
 10
11.2019839652
 20
8.4343806392
 30
0.0
 10
11.2076478326
 20
8.4394319723
 30
0.0
 10
11.2155799514
 20
8.4456995767
 30
0.0
 10
11.2237646684
 20
8.4516552955
 30
0.0
 10
11.2344443782
 20
8.4584943901
 30
0.0
 10
11.2456433419
 20
8.4644766187
 30
0.0
 10
11.2548795847
 20
8.468732382
 30
0.0
 10
11.2643066211
 20
8.4726368256
 30
0.0
 10
11.2764010814
 20
8.4768352058
 30
0.0
 10
11.2913056705
 20
8.480747991
 30
0.0
 10
11.30653548
 20
8.483519898
 30
0.0
 10
11.3220061085
 20
8.4851356347
 30
0.0
 10
11.3376325727
 20
8.4855865784
 30
0.0
 10
11.3533288912
 20
8.4848704341
 30
0.0
 10
11.3690087935
 20
8.4829913386
 30
0.0
 10
11.3845861255
 20
8.4799598015
 30
0.0
 10
11.3999753346
 20
8.4757926474
 30
0.0
 10
11.4150919286
 20
8.4705129162
 30
0.0
 10
11.4298529344
 20
8.4641497333
 30
0.0
 10
11.4441773463
 20
8.4567381475
 30
0.0
 10
11.457986565
 20
8.4483189376
 30
0.0
 10
11.4712048225
 20
8.4389383888
 30
0.0
 10
11.4837595931
 20
8.4286480396
 30
0.0
 10
11.4955819861
 20
8.4175044015
 30
0.0
 10
11.5066071201
 20
8.4055686505
 30
0.0
 10
11.5167744749
 20
8.3929062956
 30
0.0
 10
11.5260282206
 20
8.3795868212
 30
0.0
 10
11.5343175214
 20
8.3656833147
 30
0.0
 10
11.5415968127
 20
8.3512720537
 30
0.0
 10
11.5478260481
 20
8.3364321525
 30
0.0
 10
11.5529709312
 20
8.3212449132
 30
0.0
 10
11.5570030402
 20
8.3057941997
 30
0.0
 10
11.5594203791
 20
8.2927521225
 30
0.0
 10
11.5607764345
 20
8.2822729716
 30
0.0
 10
11.561744218
 20
8.2718038484
 30
0.0
 10
11.5620372535
 20
8.2639259037
 30
0.0
 10
11.5620372535
 20
8.2586835624
 30
0.0
  0
SPLINE
  5
389
100
AcDbEntity
  8
0
100
AcDbSpline
 62
7
  6
CONTINUOUS
 70
0
 71
3
 72
18
 73
14
 74
0
 42
0.0000001
 43
0.0000001
 44
0.0000000001
 40
0.0
 40
0.0
 40
0.0
 40
0.0
 40
0.0649327844
 40
0.1294244266
 40
0.1935216806
 40
0.257267305
 40
0.3837984963
 40
0.5092542886
 40
0.633715165
 40
0.7571379916
 40
0.8184212651
 40
0.8793637378
 40
1.0
 40
1.0
 40
1.0
 40
1.0
 10
10.7668528149
 20
8.3800529855
 30
0.0
 10
10.7647146549
 20
8.3815861645
 30
0.0
 10
10.7605361202
 20
8.3847601103
 30
0.0
 10
10.7545527638
 20
8.3898336225
 30
0.0
 10
10.7488766011
 20
8.3951789554
 30
0.0
 10
10.7417367477
 20
8.4026175246
 30
0.0
 10
10.733563308
 20
8.4124869085
 30
0.0
 10
10.7249427676
 20
8.4250945902
 30
0.0
 10
10.7175061346
 20
8.4382882006
 30
0.0
 10
10.7122615248
 20
8.4496805161
 30
0.0
 10
10.7086361193
 20
8.4589526687
 30
0.0
 10
10.705406279
 20
8.4682499818
 30
0.0
 10
10.7033852274
 20
8.4753338401
 30
0.0
 10
10.7022213459
 20
8.4800813675
 30
0.0
  0
SPLINE
  5
38A
100
AcDbEntity
  8
0
100
AcDbSpline
 62
7
  6
CONTINUOUS
 70
0
 71
3
 72
15
 73
11
 74
0
 42
0.0000001
 43
0.0000001
 44
0.0000000001
 40
0.0
 40
0.0
 40
0.0
 40
0.0
 40
0.1233171261
 40
0.2468171865
 40
0.3706749939
 40
0.4950495802
 40
0.6200773232
 40
0.7458671315
 40
0.872492731
 40
1.0
 40
1.0
 40
1.0
 40
1.0
 10
11.9120702524
 20
7.3802190021
 30
0.0
 10
11.914594786
 20
7.3826574932
 30
0.0
 10
11.9199147567
 20
7.387269919
 30
0.0
 10
11.928597473
 20
7.3932971092
 30
0.0
 10
11.9379012979
 20
7.3983779504
 30
0.0
 10
11.9477309985
 20
7.4024602209
 30
0.0
 10
11.9579874203
 20
7.4055033914
 30
0.0
 10
11.9685672446
 20
7.4074770345
 30
0.0
 10
11.9793624755
 20
7.4083619537
 30
0.0
 10
11.9866087577
 20
7.4082206121
 30
0.0
 10
11.9902292397
 20
7.4079695309
 30
0.0
  0
SPLINE
  5
38B
100
AcDbEntity
  8
0
100
AcDbSpline
 62
7
  6
CONTINUOUS
 70
0
 71
3
 72
42
 73
38
 74
0
 42
0.0000001
 43
0.0000001
 44
0.0000000001
 40
0.0
 40
0.0
 40
0.0
 40
0.0
 40
0.0299419634
 40
0.0449235299
 40
0.0599142017
 40
0.0899287029
 40
0.1200139772
 40
0.1350926626
 40
0.1501967046
 40
0.1804840506
 40
0.2108978877
 40
0.2414513551
 40
0.2721543675
 40
0.3030134354
 40
0.3340315696
 40
0.3652082675
 40
0.3965395775
 40
0.4280182343
 40
0.4596338596
 40
0.4913732188
 40
0.5232205284
 40
0.5551578047
 40
0.5871652463
 40
0.6192216448
 40
0.6513048151
 40
0.6833920402
 40
0.7154605222
 40
0.747487836
 40
0.7794523759
 40
0.8113337934
 40
0.8431134117
 40
0.8747746318
 40
0.9063032512
 40
0.9376879208
 40
0.9533258
 40
0.9689252634
 40
1.0
 40
1.0
 40
1.0
 40
1.0
 10
10.4140190888
 20
8.4852649084
 30
0.0
 10
10.4176522279
 20
8.4887742299
 30
0.0
 10
10.4233160954
 20
8.4938255631
 30
0.0
 10
10.4312482142
 20
8.5000931674
 30
0.0
 10
10.4394329311
 20
8.5060488862
 30
0.0
 10
10.4501126409
 20
8.5128879809
 30
0.0
 10
10.4613116046
 20
8.5188702094
 30
0.0
 10
10.4705478474
 20
8.5231259728
 30
0.0
 10
10.4799748839
 20
8.5270304163
 30
0.0
 10
10.4920693441
 20
8.5312287966
 30
0.0
 10
10.5069739332
 20
8.5351415817
 30
0.0
 10
10.5222037427
 20
8.5379134887
 30
0.0
 10
10.5376743712
 20
8.5395292254
 30
0.0
 10
10.5533008354
 20
8.5399801691
 30
0.0
 10
10.5689971539
 20
8.5392640248
 30
0.0
 10
10.5846770562
 20
8.5373849294
 30
0.0
 10
10.6002543882
 20
8.5343533922
 30
0.0
 10
10.6156435973
 20
8.5301862381
 30
0.0
 10
10.6307601913
 20
8.5249065069
 30
0.0
 10
10.6455211971
 20
8.518543324
 30
0.0
 10
10.659845609
 20
8.5111317383
 30
0.0
 10
10.6736548277
 20
8.5027125284
 30
0.0
 10
10.6868730852
 20
8.4933319795
 30
0.0
 10
10.6994278558
 20
8.4830416304
 30
0.0
 10
10.7112502488
 20
8.4718979922
 30
0.0
 10
10.7222753828
 20
8.4599622412
 30
0.0
 10
10.7324427376
 20
8.4472998863
 30
0.0
 10
10.7416964833
 20
8.4339804119
 30
0.0
 10
10.7499857842
 20
8.4200769054
 30
0.0
 10
10.7572650755
 20
8.4056656444
 30
0.0
 10
10.7634943108
 20
8.3908257432
 30
0.0
 10
10.7686391939
 20
8.3756385039
 30
0.0
 10
10.7726713029
 20
8.3601877905
 30
0.0
 10
10.7750886418
 20
8.3471457133
 30
0.0
 10
10.7764446972
 20
8.3366665623
 30
0.0
 10
10.7774124807
 20
8.3261974391
 30
0.0
 10
10.7777055162
 20
8.3183194944
 30
0.0
 10
10.7777055162
 20
8.3130771531
 30
0.0
  0
SPLINE
  5
38C
100
AcDbEntity
  8
0
100
AcDbSpline
 62
7
  6
CONTINUOUS
 70
0
 71
3
 72
15
 73
11
 74
0
 42
0.0000001
 43
0.0000001
 44
0.0000000001
 40
0.0
 40
0.0
 40
0.0
 40
0.0
 40
0.1233171261
 40
0.2468171865
 40
0.3706749939
 40
0.4950495802
 40
0.6200773232
 40
0.7458671315
 40
0.872492731
 40
1.0
 40
1.0
 40
1.0
 40
1.0
 10
11.9120702524
 20
9.1314425939
 30
0.0
 10
11.914594786
 20
9.133881085
 30
0.0
 10
11.9199147567
 20
9.1384935108
 30
0.0
 10
11.928597473
 20
9.144520701
 30
0.0
 10
11.9379012979
 20
9.1496015422
 30
0.0
 10
11.9477309985
 20
9.1536838128
 30
0.0
 10
11.9579874203
 20
9.1567269833
 30
0.0
 10
11.9685672446
 20
9.1587006263
 30
0.0
 10
11.9793624755
 20
9.1595855455
 30
0.0
 10
11.9866087577
 20
9.159444204
 30
0.0
 10
11.9902292397
 20
9.1591931227
 30
0.0
  0
SPLINE
  5
38D
100
AcDbEntity
  8
0
100
AcDbSpline
 62
7
  6
CONTINUOUS
 70
0
 71
3
 72
42
 73
38
 74
0
 42
0.0000001
 43
0.0000001
 44
0.0000000001
 40
0.0
 40
0.0
 40
0.0
 40
0.0
 40
0.0299419634
 40
0.0449235299
 40
0.0599142017
 40
0.0899287029
 40
0.1200139772
 40
0.1350926626
 40
0.1501967046
 40
0.1804840506
 40
0.2108978877
 40
0.2414513551
 40
0.2721543675
 40
0.3030134354
 40
0.3340315696
 40
0.3652082675
 40
0.3965395775
 40
0.4280182343
 40
0.4596338596
 40
0.4913732188
 40
0.5232205284
 40
0.5551578047
 40
0.5871652463
 40
0.6192216448
 40
0.6513048151
 40
0.6833920402
 40
0.7154605222
 40
0.747487836
 40
0.7794523759
 40
0.8113337934
 40
0.8431134117
 40
0.8747746318
 40
0.9063032512
 40
0.9376879208
 40
0.9533258
 40
0.9689252634
 40
1.0
 40
1.0
 40
1.0
 40
1.0
 10
9.9001465712
 20
8.0978263562
 30
0.0
 10
9.9037797104
 20
8.1013356778
 30
0.0
 10
9.9094435778
 20
8.1063870109
 30
0.0
 10
9.9173756966
 20
8.1126546153
 30
0.0
 10
9.9255604136
 20
8.1186103341
 30
0.0
 10
9.9362401234
 20
8.1254494287
 30
0.0
 10
9.9474390871
 20
8.1314316573
 30
0.0
 10
9.9566753299
 20
8.1356874206
 30
0.0
 10
9.9661023663
 20
8.1395918642
 30
0.0
 10
9.9781968266
 20
8.1437902444
 30
0.0
 10
9.9931014157
 20
8.1477030295
 30
0.0
 10
10.0083312252
 20
8.1504749366
 30
0.0
 10
10.0238018537
 20
8.1520906733
 30
0.0
 10
10.0394283179
 20
8.152541617
 30
0.0
 10
10.0551246364
 20
8.1518254727
 30
0.0
 10
10.0708045387
 20
8.1499463772
 30
0.0
 10
10.0863818707
 20
8.1469148401
 30
0.0
 10
10.1017710798
 20
8.142747686
 30
0.0
 10
10.1168876738
 20
8.1374679547
 30
0.0
 10
10.1316486796
 20
8.1311047719
 30
0.0
 10
10.1459730915
 20
8.1236931861
 30
0.0
 10
10.1597823102
 20
8.1152739762
 30
0.0
 10
10.1730005677
 20
8.1058934274
 30
0.0
 10
10.1855553383
 20
8.0956030782
 30
0.0
 10
10.1973777313
 20
8.0844594401
 30
0.0
 10
10.2084028653
 20
8.0725236891
 30
0.0
 10
10.2185702201
 20
8.0598613342
 30
0.0
 10
10.2278239658
 20
8.0465418598
 30
0.0
 10
10.2361132666
 20
8.0326383533
 30
0.0
 10
10.2433925579
 20
8.0182270923
 30
0.0
 10
10.2496217933
 20
8.0033871911
 30
0.0
 10
10.2547666764
 20
7.9881999518
 30
0.0
 10
10.2587987854
 20
7.9727492383
 30
0.0
 10
10.2612161243
 20
7.9597071611
 30
0.0
 10
10.2625721797
 20
7.9492280102
 30
0.0
 10
10.2635399632
 20
7.938758887
 30
0.0
 10
10.2638329987
 20
7.9308809423
 30
0.0
 10
10.2638329987
 20
7.925638601
 30
0.0
  0
SPLINE
  5
38E
100
AcDbEntity
  8
0
100
AcDbSpline
 62
7
  6
CONTINUOUS
 70
0
 71
3
 72
39
 73
35
 74
0
 42
0.0000001
 43
0.0000001
 44
0.0000000001
 40
0.0
 40
0.0
 40
0.0
 40
0.0
 40
0.0314026134
 40
0.06300949
 40
0.0948071102
 40
0.1267734453
 40
0.1588809722
 40
0.1910970226
 40
0.2233851132
 40
0.2557062446
 40
0.2880202663
 40
0.3202872751
 40
0.3524690067
 40
0.384530184
 40
0.4164397927
 40
0.448172249
 40
0.4797084083
 40
0.5110363809
 40
0.5421521201
 40
0.5730597413
 40
0.6037715194
 40
0.6343075569
 40
0.6646951118
 40
0.6949675896
 40
0.7251632184
 40
0.755323478
 40
0.7854913548
 40
0.8157095105
 40
0.8460184691
 40
0.8764549222
 40
0.9070502335
 40
0.9378293335
 40
0.9688091139
 40
1.0
 40
1.0
 40
1.0
 40
1.0
 10
9.9325203506
 20
9.3182981766
 30
0.0
 10
9.9368320863
 20
9.3179991568
 30
0.0
 10
9.9454598617
 20
9.3169742592
 30
0.0
 10
9.9582276528
 20
9.3141906383
 30
0.0
 10
9.9707479628
 20
9.3101825549
 30
0.0
 10
9.9828989995
 20
9.3049888515
 30
0.0
 10
9.9945645457
 20
9.298659699
 30
0.0
 10
10.0056325861
 20
9.2912560994
 30
0.0
 10
10.0159969852
 20
9.2828492793
 30
0.0
 10
10.0255582922
 20
9.273520007
 30
0.0
 10
10.0342247219
 20
9.2633578351
 30
0.0
 10
10.0419130642
 20
9.252460304
 30
0.0
 10
10.0485494217
 20
9.2409319676
 30
0.0
 10
10.0540699036
 20
9.2288834171
 30
0.0
 10
10.0584212301
 20
9.2164302509
 30
0.0
 10
10.0615613182
 20
9.2036920149
 30
0.0
 10
10.0634596248
 20
9.1907910494
 30
0.0
 10
10.0640974532
 20
9.1778513512
 30
0.0
 10
10.0634681574
 20
9.1649974175
 30
0.0
 10
10.0615773216
 20
9.1523530628
 30
0.0
 10
10.0584426734
 20
9.1400402322
 30
0.0
 10
10.0540939628
 20
9.1281778334
 30
0.0
 10
10.0485727286
 20
9.1168805788
 30
0.0
 10
10.0419320128
 20
9.1062578026
 30
0.0
 10
10.0342357998
 20
9.0964123782
 30
0.0
 10
10.0255584086
 20
9.0874396732
 30
0.0
 10
10.0159837663
 20
9.0794265753
 30
0.0
 10
10.0056046051
 20
9.0724505394
 30
0.0
 10
9.9945214635
 20
9.0665788632
 30
0.0
 10
9.9828416137
 20
9.0618680444
 30
0.0
 10
9.9706781453
 20
9.0583632206
 30
0.0
 10
9.9581482413
 20
9.0560978251
 30
0.0
 10
9.9453743494
 20
9.0550929789
 30
0.0
 10
9.9368030151
 20
9.0552693325
 30
0.0
 10
9.9325203506
 20
9.0555663363
 30
0.0
  0
SPLINE
  5
38F
100
AcDbEntity
  8
0
100
AcDbSpline
 62
7
  6
CONTINUOUS
 70
0
 71
3
 72
39
 73
35
 74
0
 42
0.0000001
 43
0.0000001
 44
0.0000000001
 40
0.0
 40
0.0
 40
0.0
 40
0.0
 40
0.0314026134
 40
0.06300949
 40
0.0948071102
 40
0.1267734453
 40
0.1588809722
 40
0.1910970226
 40
0.2233851132
 40
0.2557062446
 40
0.2880202663
 40
0.3202872751
 40
0.3524690067
 40
0.384530184
 40
0.4164397927
 40
0.448172249
 40
0.4797084083
 40
0.5110363809
 40
0.5421521201
 40
0.5730597413
 40
0.6037715194
 40
0.6343075569
 40
0.6646951118
 40
0.6949675896
 40
0.7251632184
 40
0.755323478
 40
0.7854913548
 40
0.8157095105
 40
0.8460184691
 40
0.8764549222
 40
0.9070502335
 40
0.9378293335
 40
0.9688091139
 40
1.0
 40
1.0
 40
1.0
 40
1.0
 10
9.9325203506
 20
9.0555663363
 30
0.0
 10
9.9282086149
 20
9.0558653562
 30
0.0
 10
9.9195808395
 20
9.0568902538
 30
0.0
 10
9.9068130484
 20
9.0596738747
 30
0.0
 10
9.8942927384
 20
9.0636819581
 30
0.0
 10
9.8821417017
 20
9.0688756615
 30
0.0
 10
9.8704761555
 20
9.075204814
 30
0.0
 10
9.8594081151
 20
9.0826084136
 30
0.0
 10
9.849043716
 20
9.0910152337
 30
0.0
 10
9.839482409
 20
9.100344506
 30
0.0
 10
9.8308159793
 20
9.1105066778
 30
0.0
 10
9.823127637
 20
9.1214042089
 30
0.0
 10
9.8164912795
 20
9.1329325454
 30
0.0
 10
9.8109707976
 20
9.1449810959
 30
0.0
 10
9.8066194711
 20
9.157434262
 30
0.0
 10
9.803479383
 20
9.170172498
 30
0.0
 10
9.8015810764
 20
9.1830734636
 30
0.0
 10
9.800943248
 20
9.1960131618
 30
0.0
 10
9.8015725438
 20
9.2088670955
 30
0.0
 10
9.8034633796
 20
9.2215114502
 30
0.0
 10
9.8065980278
 20
9.2338242808
 30
0.0
 10
9.8109467384
 20
9.2456866795
 30
0.0
 10
9.8164679726
 20
9.2569839342
 30
0.0
 10
9.8231086884
 20
9.2676067103
 30
0.0
 10
9.8308049014
 20
9.2774521348
 30
0.0
 10
9.8394822926
 20
9.2864248398
 30
0.0
 10
9.8490569349
 20
9.2944379377
 30
0.0
 10
9.8594360961
 20
9.3014139736
 30
0.0
 10
9.8705192377
 20
9.3072856498
 30
0.0
 10
9.8821990875
 20
9.3119964685
 30
0.0
 10
9.8943625559
 20
9.3155012923
 30
0.0
 10
9.9068924599
 20
9.3177666879
 30
0.0
 10
9.9196663518
 20
9.3187715341
 30
0.0
 10
9.9282376861
 20
9.3185951804
 30
0.0
 10
9.9325203506
 20
9.3182981766
 30
0.0
  0
SPLINE
  5
390
100
AcDbEntity
  8
0
100
AcDbSpline
 62
7
  6
CONTINUOUS
 70
0
 71
3
 72
55
 73
51
 74
0
 42
0.0000001
 43
0.0000001
 44
0.0000000001
 40
0.0
 40
0.0
 40
0.0
 40
0.0
 40
0.0082491178
 40
0.0160249553
 40
0.0233639829
 40
0.0303114802
 40
0.0369227124
 40
0.0432632191
 40
0.0494084978
 40
0.0554422202
 40
0.0614532215
 40
0.0675314279
 40
0.0737635734
 40
0.0802295678
 40
0.0870001076
 40
0.0941356026
 40
0.1016862967
 40
0.1096929194
 40
0.1181879204
 40
0.1271964447
 40
0.1367376591
 40
0.1468254487
 40
0.1574695253
 40
0.1686757809
 40
0.1804471637
 40
0.1927837889
 40
0.2056836241
 40
0.2191424695
 40
0.2331544853
 40
0.247712128
 40
0.2628065382
 40
0.2784274902
 40
0.2945636526
 40
0.3112025835
 40
0.3459332145
 40
0.3825027187
 40
0.4207806566
 40
0.4606256652
 40
0.5018868761
 40
0.5444051764
 40
0.588014366
 40
0.6325422452
 40
0.6778116579
 40
0.723641506
 40
0.7698477386
 40
0.8162443522
 40
0.8626443093
 40
0.9088606872
 40
0.9547071706
 40
1.0
 40
1.0
 40
1.0
 40
1.0
 10
9.941354547
 20
10.7491994505
 30
0.0
 10
9.9403569331
 20
10.7501278355
 30
0.0
 10
9.9384735702
 20
10.7519916181
 30
0.0
 10
9.9359281821
 20
10.7548978407
 30
0.0
 10
9.9337515584
 20
10.7578267551
 30
0.0
 10
9.9319468641
 20
10.7607758979
 30
0.0
 10
9.9305169254
 20
10.7637426948
 30
0.0
 10
9.9294648304
 20
10.7667242434
 30
0.0
 10
9.9287933142
 20
10.7697168632
 30
0.0
 10
9.9285046727
 20
10.7727160607
 30
0.0
 10
9.9285999385
 20
10.775716619
 30
0.0
 10
9.9290787782
 20
10.7787131708
 30
0.0
 10
9.9299394644
 20
10.7817008039
 30
0.0
 10
9.9311794044
 20
10.7846754432
 30
0.0
 10
9.9327956777
 20
10.7876338099
 30
0.0
 10
9.9347852648
 20
10.790573223
 30
0.0
 10
9.9371452807
 20
10.7934911959
 30
0.0
 10
9.9398727233
 20
10.7963853763
 30
0.0
 10
9.9429645753
 20
10.7992532271
 30
0.0
 10
9.9464174761
 20
10.802092244
 30
0.0
 10
9.95022787
 20
10.80489967
 30
0.0
 10
9.9543917464
 20
10.8076728398
 30
0.0
 10
9.9589048124
 20
10.810408867
 30
0.0
 10
9.9637623054
 20
10.813105018
 30
0.0
 10
9.9689591464
 20
10.8157583844
 30
0.0
 10
9.9744898121
 20
10.8183662378
 30
0.0
 10
9.9803484504
 20
10.820925722
 30
0.0
 10
9.9865288003
 20
10.8234341586
 30
0.0
 10
9.9930242695
 20
10.8258887894
 30
0.0
 10
9.9998278914
 20
10.8282870141
 30
0.0
 10
10.0069323733
 20
10.8306262023
 30
0.0
 10
10.0143300754
 20
10.8329038453
 30
0.0
 10
10.0220130535
 20
10.8351174838
 30
0.0
 10
10.0327806934
 20
10.8380219759
 30
0.0
 10
10.046897494
 20
10.8414631009
 30
0.0
 10
10.064602772
 20
10.8452446115
 30
0.0
 10
10.0832309846
 20
10.8487184495
 30
0.0
 10
10.1027018367
 20
10.8518694487
 30
0.0
 10
10.1229315298
 20
10.8546838175
 30
0.0
 10
10.1438328599
 20
10.8571492585
 30
0.0
 10
10.1653156943
 20
10.8592550026
 30
0.0
 10
10.1872873499
 20
10.8609918578
 30
0.0
 10
10.2096530092
 20
10.8623522462
 30
0.0
 10
10.2323161349
 20
10.8633302339
 30
0.0
 10
10.2551788941
 20
10.8639215575
 30
0.0
 10
10.2781425805
 20
10.864123637
 30
0.0
 10
10.3011080564
 20
10.8639355958
 30
0.0
 10
10.3239761671
 20
10.8633582453
 30
0.0
 10
10.3466481237
 20
10.8623941178
 30
0.0
 10
10.3616782306
 20
10.8614896018
 30
0.0
 10
10.3691427439
 20
10.860971936
 30
0.0
  0
SPLINE
  5
391
100
AcDbEntity
  8
0
100
AcDbSpline
 62
7
  6
CONTINUOUS
 70
0
 71
3
 72
51
 73
47
 74
0
 42
0.0000001
 43
0.0000001
 44
0.0000000001
 40
0.0
 40
0.0
 40
0.0
 40
0.0
 40
0.0481980747
 40
0.0958298526
 40
0.1428199449
 40
0.1890979835
 40
0.2345930892
 40
0.2792367333
 40
0.3229621329
 40
0.3657045403
 40
0.4074014622
 40
0.4479928299
 40
0.4874212467
 40
0.5256322393
 40
0.5625745011
 40
0.5982001867
 40
0.6324652508
 40
0.6653298673
 40
0.6967589097
 40
0.7267224968
 40
0.7551966901
 40
0.7688701393
 40
0.7821654912
 40
0.7950818118
 40
0.8076188304
 40
0.8197768884
 40
0.8315569804
 40
0.8429609602
 40
0.8539914242
 40
0.8646519776
 40
0.8749472487
 40
0.8848829696
 40
0.8944662496
 40
0.9037055338
 40
0.9126109204
 40
0.9211942686
 40
0.9294693404
 40
0.937452123
 40
0.9451608562
 40
0.9598349789
 40
0.9668568053
 40
0.9737036628
 40
0.9804068766
 40
0.9870000912
 40
0.9935188408
 40
1.0
 40
1.0
 40
1.0
 40
1.0
 10
11.7402288697
 20
10.8883394629
 30
0.0
 10
11.7508007007
 20
10.8876063039
 30
0.0
 10
11.7718121737
 20
10.8860305841
 30
0.0
 10
11.803097315
 20
10.8833212005
 30
0.0
 10
11.8339281602
 20
10.8802832434
 30
0.0
 10
11.864252831
 20
10.8769219051
 30
0.0
 10
11.8940208642
 20
10.8732427697
 30
0.0
 10
11.9231823996
 20
10.8692520394
 30
0.0
 10
11.9516887205
 20
10.8649564204
 30
0.0
 10
11.9794921885
 20
10.8603631341
 30
0.0
 10
12.0065463469
 20
10.8554799034
 30
0.0
 10
12.0328060035
 20
10.8503149342
 30
0.0
 10
12.0582273098
 20
10.8448769087
 30
0.0
 10
12.0827678437
 20
10.8391749789
 30
0.0
 10
12.1063866789
 20
10.8332187353
 30
0.0
 10
12.1290444507
 20
10.8270181942
 30
0.0
 10
12.1507034384
 20
10.8205837737
 30
0.0
 10
12.1713276174
 20
10.8139262825
 30
0.0
 10
12.190882833
 20
10.8070568936
 30
0.0
 10
12.2093365151
 20
10.7999871224
 30
0.0
 10
12.2239625355
 20
10.7938585635
 30
0.0
 10
12.2350790431
 20
10.7888548899
 30
0.0
 10
12.2430093649
 20
10.785110184
 30
0.0
 10
12.2506422111
 20
10.7813243188
 30
0.0
 10
12.2579744324
 20
10.7774988647
 30
0.0
 10
12.2650029908
 20
10.7736354254
 30
0.0
 10
12.2717249555
 20
10.7697355523
 30
0.0
 10
12.2781375737
 20
10.7658009154
 30
0.0
 10
12.2842381712
 20
10.7618330754
 30
0.0
 10
12.2900242414
 20
10.757833679
 30
0.0
 10
12.2954934107
 20
10.7538043667
 30
0.0
 10
12.3006433906
 20
10.7497467109
 30
0.0
 10
12.3054721012
 20
10.7456624031
 30
0.0
 10
12.3099775103
 20
10.7415530031
 30
0.0
 10
12.3141577519
 20
10.7374201536
 30
0.0
 10
12.3180111141
 20
10.733265444
 30
0.0
 10
12.3215358281
 20
10.7290905359
 30
0.0
 10
12.3247306639
 20
10.7248966487
 30
0.0
 10
12.3284860059
 20
10.7193739986
 30
0.0
 10
12.3316632388
 20
10.7137208669
 30
0.0
 10
12.3341804734
 20
10.7079677848
 30
0.0
 10
12.3357046788
 20
10.703705076
 30
0.0
 10
12.3368912654
 20
10.6994339927
 30
0.0
 10
12.3377395034
 20
10.6951562499
 30
0.0
 10
12.3382487671
 20
10.6908743537
 30
0.0
 10
12.3383620561
 20
10.6880148108
 30
0.0
 10
12.3383620586
 20
10.6865898101
 30
0.0
  0
SPLINE
  5
392
100
AcDbEntity
  8
0
100
AcDbSpline
 62
7
  6
CONTINUOUS
 70
0
 71
3
 72
39
 73
35
 74
0
 42
0.0000001
 43
0.0000001
 44
0.0000000001
 40
0.0
 40
0.0
 40
0.0
 40
0.0
 40
0.0314026134
 40
0.06300949
 40
0.0948071102
 40
0.1267734453
 40
0.1588809722
 40
0.1910970226
 40
0.2233851132
 40
0.2557062446
 40
0.2880202663
 40
0.3202872751
 40
0.3524690067
 40
0.384530184
 40
0.4164397927
 40
0.448172249
 40
0.4797084083
 40
0.5110363809
 40
0.5421521201
 40
0.5730597413
 40
0.6037715194
 40
0.6343075569
 40
0.6646951118
 40
0.6949675896
 40
0.7251632184
 40
0.755323478
 40
0.7854913548
 40
0.8157095105
 40
0.8460184691
 40
0.8764549222
 40
0.9070502335
 40
0.9378293335
 40
0.9688091139
 40
1.0
 40
1.0
 40
1.0
 40
1.0
 10
9.9325203506
 20
7.5670745848
 30
0.0
 10
9.9368320863
 20
7.5667755649
 30
0.0
 10
9.9454598617
 20
7.5657506674
 30
0.0
 10
9.9582276528
 20
7.5629670465
 30
0.0
 10
9.9707479628
 20
7.5589589631
 30
0.0
 10
9.9828989995
 20
7.5537652597
 30
0.0
 10
9.9945645457
 20
7.5474361072
 30
0.0
 10
10.0056325861
 20
7.5400325075
 30
0.0
 10
10.0159969852
 20
7.5316256874
 30
0.0
 10
10.0255582922
 20
7.5222964151
 30
0.0
 10
10.0342247219
 20
7.5121342433
 30
0.0
 10
10.0419130642
 20
7.5012367122
 30
0.0
 10
10.0485494217
 20
7.4897083758
 30
0.0
 10
10.0540699036
 20
7.4776598253
 30
0.0
 10
10.0584212301
 20
7.4652066591
 30
0.0
 10
10.0615613182
 20
7.4524684231
 30
0.0
 10
10.0634596248
 20
7.4395674576
 30
0.0
 10
10.0640974532
 20
7.4266277594
 30
0.0
 10
10.0634681574
 20
7.4137738257
 30
0.0
 10
10.0615773216
 20
7.401129471
 30
0.0
 10
10.0584426734
 20
7.3888166404
 30
0.0
 10
10.0540939628
 20
7.3769542416
 30
0.0
 10
10.0485727286
 20
7.365656987
 30
0.0
 10
10.0419320128
 20
7.3550342108
 30
0.0
 10
10.0342357998
 20
7.3451887864
 30
0.0
 10
10.0255584086
 20
7.3362160814
 30
0.0
 10
10.0159837663
 20
7.3282029835
 30
0.0
 10
10.0056046051
 20
7.3212269476
 30
0.0
 10
9.9945214635
 20
7.3153552714
 30
0.0
 10
9.9828416137
 20
7.3106444526
 30
0.0
 10
9.9706781453
 20
7.3071396288
 30
0.0
 10
9.9581482413
 20
7.3048742332
 30
0.0
 10
9.9453743494
 20
7.3038693871
 30
0.0
 10
9.9368030151
 20
7.3040457407
 30
0.0
 10
9.9325203506
 20
7.3043427445
 30
0.0
  0
SPLINE
  5
393
100
AcDbEntity
  8
0
100
AcDbSpline
 62
7
  6
CONTINUOUS
 70
0
 71
3
 72
39
 73
35
 74
0
 42
0.0000001
 43
0.0000001
 44
0.0000000001
 40
0.0
 40
0.0
 40
0.0
 40
0.0
 40
0.0314026134
 40
0.06300949
 40
0.0948071102
 40
0.1267734453
 40
0.1588809722
 40
0.1910970226
 40
0.2233851132
 40
0.2557062446
 40
0.2880202663
 40
0.3202872751
 40
0.3524690067
 40
0.384530184
 40
0.4164397927
 40
0.448172249
 40
0.4797084083
 40
0.5110363809
 40
0.5421521201
 40
0.5730597413
 40
0.6037715194
 40
0.6343075569
 40
0.6646951118
 40
0.6949675896
 40
0.7251632184
 40
0.755323478
 40
0.7854913548
 40
0.8157095105
 40
0.8460184691
 40
0.8764549222
 40
0.9070502335
 40
0.9378293335
 40
0.9688091139
 40
1.0
 40
1.0
 40
1.0
 40
1.0
 10
9.9325203506
 20
7.3043427445
 30
0.0
 10
9.9282086149
 20
7.3046417644
 30
0.0
 10
9.9195808395
 20
7.3056666619
 30
0.0
 10
9.9068130484
 20
7.3084502829
 30
0.0
 10
9.8942927384
 20
7.3124583662
 30
0.0
 10
9.8821417017
 20
7.3176520697
 30
0.0
 10
9.8704761555
 20
7.3239812221
 30
0.0
 10
9.8594081151
 20
7.3313848218
 30
0.0
 10
9.849043716
 20
7.3397916419
 30
0.0
 10
9.839482409
 20
7.3491209142
 30
0.0
 10
9.8308159793
 20
7.359283086
 30
0.0
 10
9.823127637
 20
7.3701806171
 30
0.0
 10
9.8164912795
 20
7.3817089536
 30
0.0
 10
9.8109707976
 20
7.3937575041
 30
0.0
 10
9.8066194711
 20
7.4062106702
 30
0.0
 10
9.803479383
 20
7.4189489062
 30
0.0
 10
9.8015810764
 20
7.4318498718
 30
0.0
 10
9.800943248
 20
7.4447895699
 30
0.0
 10
9.8015725438
 20
7.4576435037
 30
0.0
 10
9.8034633796
 20
7.4702878584
 30
0.0
 10
9.8065980278
 20
7.482600689
 30
0.0
 10
9.8109467384
 20
7.4944630877
 30
0.0
 10
9.8164679726
 20
7.5057603423
 30
0.0
 10
9.8231086884
 20
7.5163831185
 30
0.0
 10
9.8308049014
 20
7.526228543
 30
0.0
 10
9.8394822926
 20
7.535201248
 30
0.0
 10
9.8490569349
 20
7.5432143459
 30
0.0
 10
9.8594360961
 20
7.5501903818
 30
0.0
 10
9.8705192377
 20
7.556062058
 30
0.0
 10
9.8821990875
 20
7.5607728767
 30
0.0
 10
9.8943625559
 20
7.5642777005
 30
0.0
 10
9.9068924599
 20
7.5665430961
 30
0.0
 10
9.9196663518
 20
7.5675479423
 30
0.0
 10
9.9282376861
 20
7.5673715886
 30
0.0
 10
9.9325203506
 20
7.5670745848
 30
0.0
  0
SPLINE
  5
394
100
AcDbEntity
  8
0
100
AcDbSpline
 62
7
  6
CONTINUOUS
 70
0
 71
3
 72
54
 73
50
 74
0
 42
0.0000001
 43
0.0000001
 44
0.0000000001
 40
0.0
 40
0.0
 40
0.0
 40
0.0
 40
0.0055575314
 40
0.0111779514
 40
0.0169218741
 40
0.0228457549
 40
0.0290005166
 40
0.0354309104
 40
0.0421753481
 40
0.0492661819
 40
0.0567302289
 40
0.0645893164
 40
0.0728609992
 40
0.0815590171
 40
0.0906939529
 40
0.1002735511
 40
0.1103032084
 40
0.120786225
 40
0.131724095
 40
0.1431167574
 40
0.1549627059
 40
0.1672592594
 40
0.1800025507
 40
0.1931877841
 40
0.2068091928
 40
0.2208602246
 40
0.2353335436
 40
0.2502211095
 40
0.265514256
 40
0.2812036668
 40
0.2972795185
 40
0.3137313951
 40
0.3477187121
 40
0.383073812
 40
0.4196976091
 40
0.4574851642
 40
0.4963263633
 40
0.5361065441
 40
0.5767070861
 40
0.6180059759
 40
0.6598783548
 40
0.7021970543
 40
0.7448331254
 40
0.7876563595
 40
0.8305358172
 40
0.8733403047
 40
0.9159390443
 40
0.9582017033
 40
1.0
 40
1.0
 40
1.0
 40
1.0
 10
10.7243620866
 20
10.6865894247
 30
0.0
 10
10.7243620831
 20
10.6885857857
 30
0.0
 10
10.7245855607
 20
10.6926045765
 30
0.0
 10
10.7255887445
 20
10.6986113047
 30
0.0
 10
10.7272581009
 20
10.7046046496
 30
0.0
 10
10.7295905025
 20
10.7105776277
 30
0.0
 10
10.7325820221
 20
10.7165254287
 30
0.0
 10
10.7362286831
 20
10.7224434745
 30
0.0
 10
10.7405263271
 20
10.7283277014
 30
0.0
 10
10.7454707133
 20
10.7341741726
 30
0.0
 10
10.7510574704
 20
10.7399788975
 30
0.0
 10
10.757281852
 20
10.7457379185
 30
0.0
 10
10.7641388643
 20
10.7514470291
 30
0.0
 10
10.7716229587
 20
10.7571021044
 30
0.0
 10
10.7797282248
 20
10.7626987795
 30
0.0
 10
10.7884481681
 20
10.768232792
 30
0.0
 10
10.7977758443
 20
10.7736997522
 30
0.0
 10
10.807703768
 20
10.779095326
 30
0.0
 10
10.8182239492
 20
10.7844151968
 30
0.0
 10
10.8293279099
 20
10.7896550276
 30
0.0
 10
10.841006648
 20
10.7948106217
 30
0.0
 10
10.8532507088
 20
10.799877709
 30
0.0
 10
10.8660501252
 20
10.8048522204
 30
0.0
 10
10.8793944928
 20
10.8097300203
 30
0.0
 10
10.8932729267
 20
10.8145071602
 30
0.0
 10
10.9076741098
 20
10.8191796902
 30
0.0
 10
10.9225862818
 20
10.8237437831
 30
0.0
 10
10.9379972573
 20
10.8281957021
 30
0.0
 10
10.9538944415
 20
10.8325317599
 30
0.0
 10
10.9702648239
 20
10.8367484308
 30
0.0
 10
10.987095032
 20
10.8408422264
 30
0.0
 10
11.0103827304
 20
10.8461902626
 30
0.0
 10
11.0405459844
 20
10.8525283382
 30
0.0
 10
11.0779674459
 20
10.8595132739
 30
0.0
 10
11.1168738867
 20
10.8659342547
 30
0.0
 10
11.1571378818
 20
10.8717700683
 30
0.0
 10
11.1986277416
 20
10.8770014
 30
0.0
 10
11.2412076364
 20
10.8816109559
 30
0.0
 10
11.2847381442
 20
10.8855834997
 30
0.0
 10
11.3290766919
 20
10.8889059062
 30
0.0
 10
11.3740780365
 20
10.8915672008
 30
0.0
 10
11.4195947448
 20
10.8935585964
 30
0.0
 10
11.4654776821
 20
10.8948735188
 30
0.0
 10
11.5115765074
 20
10.8955076288
 30
0.0
 10
11.5577401617
 20
10.8954588307
 30
0.0
 10
11.603817393
 20
10.8947272925
 30
0.0
 10
11.6496571851
 20
10.8933154141
 30
0.0
 10
11.6951092828
 20
10.8912278849
 30
0.0
 10
11.7252501782
 20
10.8893782386
 30
0.0
 10
11.7402288697
 20
10.8883394629
 30
0.0
  0
SPLINE
  5
395
100
AcDbEntity
  8
0
100
AcDbSpline
 62
7
  6
CONTINUOUS
 70
0
 71
3
 72
53
 73
49
 74
0
 42
0.0000001
 43
0.0000001
 44
0.0000000001
 40
0.0
 40
0.0
 40
0.0
 40
0.0
 40
0.0056789095
 40
0.0115501948
 40
0.0176570646
 40
0.0240373154
 40
0.0307232875
 40
0.0377422937
 40
0.045116949
 40
0.0528658221
 40
0.0610038033
 40
0.0695427162
 40
0.078491607
 40
0.0878572277
 40
0.0976442463
 40
0.1078555894
 40
0.1184926061
 40
0.1295552854
 40
0.1410424049
 40
0.1529516414
 40
0.1652797267
 40
0.1780224707
 40
0.1911749334
 40
0.204731381
 40
0.2186854733
 40
0.2330301735
 40
0.247757943
 40
0.262860627
 40
0.2783296435
 40
0.2941558659
 40
0.3268408896
 40
0.3608351774
 40
0.3960516437
 40
0.4323979189
 40
0.4697769326
 40
0.50808745
 40
0.5472245741
 40
0.5870802239
 40
0.6275435964
 40
0.6685016158
 40
0.7098393755
 40
0.7514405749
 40
0.7931879484
 40
0.8349637068
 40
0.8766499291
 40
0.9181291077
 40
0.9592842578
 40
1.0
 40
1.0
 40
1.0
 40
1.0
 10
10.7264738542
 20
10.6707803164
 30
0.0
 10
10.7270162088
 20
10.6727168287
 30
0.0
 10
10.7283182378
 20
10.6766022042
 30
0.0
 10
10.7308534944
 20
10.6823266537
 30
0.0
 10
10.7339952471
 20
10.6880269541
 30
0.0
 10
10.7377398979
 20
10.6936983928
 30
0.0
 10
10.7420837589
 20
10.6993376762
 30
0.0
 10
10.7470231729
 20
10.7049410941
 30
0.0
 10
10.752554088
 20
10.7105051952
 30
0.0
 10
10.7586723566
 20
10.7160262374
 30
0.0
 10
10.7653733382
 20
10.7215006035
 30
0.0
 10
10.7726521397
 20
10.7269244305
 30
0.0
 10
10.7805033571
 20
10.7322939655
 30
0.0
 10
10.7889212378
 20
10.7376052927
 30
0.0
 10
10.7978995411
 20
10.7428545912
 30
0.0
 10
10.8074316283
 20
10.7480379675
 30
0.0
 10
10.8175104076
 20
10.7531515938
 30
0.0
 10
10.8281283681
 20
10.7581916526
 30
0.0
 10
10.8392775787
 20
10.7631543555
 30
0.0
 10
10.8509496854
 20
10.7680359949
 30
0.0
 10
10.8631359412
 20
10.7728328562
 30
0.0
 10
10.8758271833
 20
10.7775413628
 30
0.0
 10
10.8890138768
 20
10.7821579012
 30
0.0
 10
10.9026860859
 20
10.7866790384
 30
0.0
 10
10.9168335193
 20
10.7911012854
 30
0.0
 10
10.9314455035
 20
10.7954213601
 30
0.0
 10
10.9465110252
 20
10.7996359206
 30
0.0
 10
10.9620187063
 20
10.8037418338
 30
0.0
 10
10.9779568613
 20
10.8077359498
 30
0.0
 10
11.0000026444
 20
10.8129644969
 30
0.0
 10
11.0285528962
 20
10.8191844884
 30
0.0
 10
11.0639743521
 20
10.8260789615
 30
0.0
 10
11.1008081935
 20
10.8324606141
 30
0.0
 10
11.1389431179
 20
10.8383100037
 30
0.0
 10
11.1782640604
 20
10.8436092786
 30
0.0
 10
11.2186522582
 20
10.848342283
 30
0.0
 10
11.2599857042
 20
10.8524945904
 30
0.0
 10
11.3021395007
 20
10.856053549
 30
0.0
 10
11.3449862499
 20
10.8590083181
 30
0.0
 10
11.3883964423
 20
10.8613498995
 30
0.0
 10
11.4322388531
 20
10.8630711639
 30
0.0
 10
11.4763809415
 20
10.8641668708
 30
0.0
 10
11.5206892563
 20
10.8646336859
 30
0.0
 10
11.5650298363
 20
10.864470186
 30
0.0
 10
11.6092686335
 20
10.8636768737
 30
0.0
 10
11.6532718939
 20
10.8622561537
 30
0.0
 10
11.696906508
 20
10.8602123705
 30
0.0
 10
11.725845078
 20
10.8584273532
 30
0.0
 10
11.7402288697
 20
10.8574298339
 30
0.0
  0
SPLINE
  5
396
100
AcDbEntity
  8
0
100
AcDbSpline
 62
7
  6
CONTINUOUS
 70
0
 71
3
 72
54
 73
50
 74
0
 42
0.0000001
 43
0.0000001
 44
0.0000000001
 40
0.0
 40
0.0
 40
0.0
 40
0.0
 40
0.0058141585
 40
0.0115305564
 40
0.0172179358
 40
0.0229461915
 40
0.0287836131
 40
0.0347943895
 40
0.0410367914
 40
0.047562114
 40
0.0544143636
 40
0.0616305148
 40
0.0692410159
 40
0.0772705919
 40
0.0857388631
 40
0.0946611994
 40
0.1040491624
 40
0.1139112431
 40
0.1242531025
 40
0.1350781623
 40
0.146387712
 40
0.1581813555
 40
0.1704570603
 40
0.1832114692
 40
0.1964399473
 40
0.2101367693
 40
0.2242951995
 40
0.2389075659
 40
0.253965389
 40
0.2694593607
 40
0.2853795192
 40
0.3017151573
 40
0.3355865076
 40
0.3709771231
 40
0.4077816886
 40
0.4458876589
 40
0.4851761161
 40
0.5255225495
 40
0.5667975804
 40
0.6088676503
 40
0.6515956836
 40
0.6948417327
 40
0.7384636128
 40
0.7823175242
 40
0.8262586879
 40
0.8701419156
 40
0.913822384
 40
0.9571558148
 40
1.0
 40
1.0
 40
1.0
 40
1.0
 10
10.9578460375
 20
10.6449949489
 30
0.0
 10
10.9574416782
 20
10.6464488424
 30
0.0
 10
10.9567923161
 20
10.6493776209
 30
0.0
 10
10.9563208914
 20
10.6538310203
 30
0.0
 10
10.9563647781
 20
10.6582874615
 30
0.0
 10
10.9569239052
 20
10.6627402086
 30
0.0
 10
10.9579968385
 20
10.6671836385
 30
0.0
 10
10.9595810269
 20
10.6716126157
 30
0.0
 10
10.9616734145
 20
10.676022833
 30
0.0
 10
10.9642706845
 20
10.6804106118
 30
0.0
 10
10.9673694462
 20
10.6847726912
 30
0.0
 10
10.9709663195
 20
10.6891059266
 30
0.0
 10
10.9750577275
 20
10.6934072688
 30
0.0
 10
10.9796399912
 20
10.6976734897
 30
0.0
 10
10.9847090284
 20
10.701901413
 30
0.0
 10
10.9902605235
 20
10.706087614
 30
0.0
 10
10.9962896581
 20
10.7102287816
 30
0.0
 10
11.002791305
 20
10.7143213771
 30
0.0
 10
11.0097598226
 20
10.7183620252
 30
0.0
 10
11.0171892205
 20
10.7223471744
 30
0.0
 10
11.0250730226
 20
10.7262734462
 30
0.0
 10
11.0334043826
 20
10.7301373515
 30
0.0
 10
11.0421760074
 20
10.7339355506
 30
0.0
 10
11.0513802245
 20
10.737664664
 30
0.0
 10
11.0610089516
 20
10.7413214211
 30
0.0
 10
11.0710537269
 20
10.7449025806
 30
0.0
 10
11.0815057105
 20
10.7484049649
 30
0.0
 10
11.0923556905
 20
10.7518254877
 30
0.0
 10
11.1035941036
 20
10.755161087
 30
0.0
 10
11.1152110249
 20
10.758408835
 30
0.0
 10
11.1271962151
 20
10.7615658312
 30
0.0
 10
11.1438547314
 20
10.7657003291
 30
0.0
 10
11.165525825
 20
10.7706077844
 30
0.0
 10
11.1925200872
 20
10.7760239237
 30
0.0
 10
11.2207126302
 20
10.7810165547
 30
0.0
 10
11.2500037807
 20
10.7855678516
 30
0.0
 10
11.280290136
 20
10.7896615302
 30
0.0
 10
11.3114646523
 20
10.793282963
 30
0.0
 10
11.3434171204
 20
10.7964192127
 30
0.0
 10
11.3760345423
 20
10.7990590811
 30
0.0
 10
11.4092015453
 20
10.8011931454
 30
0.0
 10
11.4428007944
 20
10.8028137905
 30
0.0
 10
11.4767134123
 20
10.8039152344
 30
0.0
 10
11.510819406
 20
10.8044935491
 30
0.0
 10
11.5449980883
 20
10.8045466695
 30
0.0
 10
11.5791285256
 20
10.8040744115
 30
0.0
 10
11.6130899356
 20
10.8030784486
 30
0.0
 10
11.6467620842
 20
10.8015623536
 30
0.0
 10
11.6690892497
 20
10.8001992256
 30
0.0
 10
11.6801829007
 20
10.7994298783
 30
0.0
  0
SPLINE
  5
397
100
AcDbEntity
  8
0
100
AcDbSpline
 62
7
  6
CONTINUOUS
 70
0
 71
3
 72
33
 73
29
 74
0
 42
0.0000001
 43
0.0000001
 44
0.0000000001
 40
0.0
 40
0.0
 40
0.0
 40
0.0
 40
0.0179736365
 40
0.0371618607
 40
0.057562215
 40
0.079163968
 40
0.1019494349
 40
0.1258949799
 40
0.1509717643
 40
0.1771463862
 40
0.2043814126
 40
0.2326357938
 40
0.2618651965
 40
0.2920222905
 40
0.3230570525
 40
0.3549170079
 40
0.3875474436
 40
0.4208915874
 40
0.4548908218
 40
0.4894848789
 40
0.5246120124
 40
0.5602091562
 40
0.6325543268
 40
0.7059973231
 40
0.7800032238
 40
0.8540317748
 40
0.9275423123
 40
1.0
 40
1.0
 40
1.0
 40
1.0
 10
11.0393485143
 20
10.5787259599
 30
0.0
 10
11.0426712068
 20
10.5806695805
 30
0.0
 10
11.0496497079
 20
10.5845043369
 30
0.0
 10
11.0607148596
 20
10.5899474999
 30
0.0
 10
11.072698632
 20
10.5952593899
 30
0.0
 10
11.0855777433
 20
10.6004295315
 30
0.0
 10
11.0993275903
 20
10.6054479345
 30
0.0
 10
11.1139216083
 20
10.6103047517
 30
0.0
 10
11.1293315368
 20
10.6149904594
 30
0.0
 10
11.1455274381
 20
10.6194958475
 30
0.0
 10
11.1624777984
 20
10.6238120472
 30
0.0
 10
11.1801495938
 20
10.6279305534
 30
0.0
 10
11.1985083548
 20
10.6318432486
 30
0.0
 10
11.2175182369
 20
10.6355424343
 30
0.0
 10
11.2371421044
 20
10.639020826
 30
0.0
 10
11.2573416115
 20
10.6422715733
 30
0.0
 10
11.2780772743
 20
10.6452882689
 30
0.0
 10
11.2993085436
 20
10.6480649793
 30
0.0
 10
11.320993894
 20
10.6505962468
 30
0.0
 10
11.3430908975
 20
10.6528770833
 30
0.0
 10
11.3655563629
 20
10.6549030271
 30
0.0
 10
11.396106483
 20
10.65727165
 30
0.0
 10
11.4348903842
 20
10.6595598107
 30
0.0
 10
11.4819382452
 20
10.6612257036
 30
0.0
 10
11.5293725347
 20
10.6618127633
 30
0.0
 10
11.5768223582
 20
10.6613163903
 30
0.0
 10
11.6239166393
 20
10.6597405125
 30
0.0
 10
11.6551315008
 20
10.6579614814
 30
0.0
 10
11.6706125598
 20
10.6568878663
 30
0.0
  0
SPLINE
  5
398
100
AcDbEntity
  8
0
100
AcDbSpline
 62
7
  6
CONTINUOUS
 70
0
 71
3
 72
15
 73
11
 74
0
 42
0.0000001
 43
0.0000001
 44
0.0000000001
 40
0.0
 40
0.0
 40
0.0
 40
0.0
 40
0.1273482936
 40
0.2538605366
 40
0.3795879111
 40
0.5046050899
 40
0.6290174366
 40
0.7529533732
 40
0.8765605776
 40
1.0
 40
1.0
 40
1.0
 40
1.0
 10
9.8299359312
 20
9.2003433106
 30
0.0
 10
9.8299359312
 20
9.2038080859
 30
0.0
 10
9.8302667462
 20
9.2107196803
 30
0.0
 10
9.831762833
 20
9.2209541418
 30
0.0
 10
9.8342435943
 20
9.2309314484
 30
0.0
 10
9.837686627
 20
9.2405582927
 30
0.0
 10
9.8420603251
 20
9.2497458979
 30
0.0
 10
9.8473248334
 20
9.2584094252
 30
0.0
 10
9.8534306636
 20
9.2664676857
 30
0.0
 10
9.858028032
 20
9.2713901403
 30
0.0
 10
9.8604436058
 20
9.2737233851
 30
0.0
  0
SPLINE
  5
399
100
AcDbEntity
  8
0
100
AcDbSpline
 62
7
  6
CONTINUOUS
 70
0
 71
3
 72
23
 73
19
 74
0
 42
0.0000001
 43
0.0000001
 44
0.0000000001
 40
0.0
 40
0.0
 40
0.0
 40
0.0
 40
0.0614488807
 40
0.1232974294
 40
0.1855193177
 40
0.2480712672
 40
0.3108995318
 40
0.3739401513
 40
0.4371217414
 40
0.5003679843
 40
0.5636003151
 40
0.6267406524
 40
0.6897141172
 40
0.7524516838
 40
0.8148926113
 40
0.8769871451
 40
0.9386966623
 40
1.0
 40
1.0
 40
1.0
 40
1.0
 10
9.9386025931
 20
9.0841405901
 30
0.0
 10
9.9350359
 20
9.0843879411
 30
0.0
 10
9.9278989551
 20
9.0852357395
 30
0.0
 10
9.9173373632
 20
9.0875383722
 30
0.0
 10
9.90698049
 20
9.0908538841
 30
0.0
 10
9.8969290827
 20
9.0951501539
 30
0.0
 10
9.8872792659
 20
9.1003856471
 30
0.0
 10
9.8781237155
 20
9.1065099467
 30
0.0
 10
9.8695502327
 20
9.1134641291
 30
0.0
 10
9.8616410732
 20
9.1211813673
 30
0.0
 10
9.8544721417
 20
9.1295875661
 30
0.0
 10
9.8481122878
 20
9.1386020609
 30
0.0
 10
9.8426226552
 20
9.1481383662
 30
0.0
 10
9.8380561018
 20
9.1581050212
 30
0.0
 10
9.8344566417
 20
9.1684062961
 30
0.0
 10
9.8318591671
 20
9.178943644
 30
0.0
 10
9.8302888348
 20
9.1896145452
 30
0.0
 10
9.8299359312
 20
9.1967765189
 30
0.0
 10
9.8299359312
 20
9.2003433106
 30
0.0
  0
SPLINE
  5
39A
100
AcDbEntity
  8
0
100
AcDbSpline
 62
7
  6
CONTINUOUS
 70
0
 71
3
 72
29
 73
25
 74
0
 42
0.0000001
 43
0.0000001
 44
0.0000000001
 40
0.0
 40
0.0
 40
0.0
 40
0.0
 40
0.0219057093
 40
0.0447531485
 40
0.0685213387
 40
0.0931866292
 40
0.1187229399
 40
0.1451018484
 40
0.1722929597
 40
0.2002639887
 40
0.2289808502
 40
0.2584079402
 40
0.2885081388
 40
0.3192429388
 40
0.3824551871
 40
0.4477148371
 40
0.5146753992
 40
0.5829779385
 40
0.6522538464
 40
0.7221276102
 40
0.7922195137
 40
0.8621483971
 40
0.9315335725
 40
1.0
 40
1.0
 40
1.0
 40
1.0
 10
11.129489244
 20
10.5492652797
 30
0.0
 10
11.1331486469
 20
10.5506187143
 30
0.0
 10
11.1406623256
 20
10.5532830699
 30
0.0
 10
11.1522612764
 20
10.5570828493
 30
0.0
 10
11.1644124111
 20
10.5607656594
 30
0.0
 10
11.1770980067
 20
10.5643260667
 30
0.0
 10
11.1902996895
 20
10.5677588439
 30
0.0
 10
11.2039982658
 20
10.571058995
 30
0.0
 10
11.218173826
 20
10.5742216712
 30
0.0
 10
11.2328057515
 20
10.5772422261
 30
0.0
 10
11.2478727469
 20
10.5801162674
 30
0.0
 10
11.2633528751
 20
10.5828395549
 30
0.0
 10
11.2792236163
 20
10.5854081297
 30
0.0
 10
11.3010790364
 20
10.5886518391
 30
0.0
 10
11.3292056274
 20
10.5922805302
 30
0.0
 10
11.3638260615
 20
10.5959251027
 30
0.0
 10
11.3994221089
 20
10.5988778019
 30
0.0
 10
11.4357864209
 20
10.6011212201
 30
0.0
 10
11.4727073349
 20
10.6026421101
 30
0.0
 10
11.5099698446
 20
10.6034315032
 30
0.0
 10
11.5473569455
 20
10.6034847332
 30
0.0
 10
11.5846508659
 20
10.6028014724
 30
0.0
 10
11.6216343265
 20
10.6013858014
 30
0.0
 10
11.6461472415
 20
10.5999470938
 30
0.0
 10
11.6583127095
 20
10.5991034157
 30
0.0
  0
SPLINE
  5
39B
100
AcDbEntity
  8
0
100
AcDbSpline
 62
7
  6
CONTINUOUS
 70
0
 71
3
 72
45
 73
41
 74
0
 42
0.0000001
 43
0.0000001
 44
0.0000000001
 40
0.0
 40
0.0
 40
0.0
 40
0.0
 40
0.0065516933
 40
0.013249293
 40
0.027177731
 40
0.0419746897
 40
0.057787491
 40
0.0661138832
 40
0.074735053
 40
0.0836611952
 40
0.0929009857
 40
0.102461881
 40
0.1123501249
 40
0.1225708588
 40
0.1331283523
 40
0.1440259178
 40
0.1552661059
 40
0.1668508073
 40
0.1787811596
 40
0.2036796467
 40
0.2299613312
 40
0.2576172882
 40
0.2866322482
 40
0.316985378
 40
0.3486510163
 40
0.3815992279
 40
0.4157962097
 40
0.4512046342
 40
0.4877840277
 40
0.5254910428
 40
0.5642796501
 40
0.6041013522
 40
0.6449054187
 40
0.6866390594
 40
0.7292475491
 40
0.7726743495
 40
0.8168614372
 40
0.861749251
 40
0.9072763645
 40
1.0
 40
1.0
 40
1.0
 40
1.0
 10
12.3362228948
 20
10.6708778201
 30
0.0
 10
12.3358411907
 20
10.6722319302
 30
0.0
 10
12.3349728073
 20
10.6749440886
 30
0.0
 10
12.3328248047
 20
10.6803741577
 30
0.0
 10
12.3293464445
 20
10.6871622136
 30
0.0
 10
12.3240362881
 20
10.6951370704
 30
0.0
 10
12.3187230392
 20
10.7016096354
 30
0.0
 10
12.3139185534
 20
10.7067502245
 30
0.0
 10
12.3099615116
 20
10.7106525844
 30
0.0
 10
12.3057145463
 20
10.7145339194
 30
0.0
 10
12.3011791089
 20
10.7183930733
 30
0.0
 10
12.2963568875
 20
10.7222285886
 30
0.0
 10
12.2912496507
 20
10.7260391065
 30
0.0
 10
12.285859306
 20
10.7298232887
 30
0.0
 10
12.2801878023
 20
10.7335797057
 30
0.0
 10
12.2742372532
 20
10.737307027
 30
0.0
 10
12.2680098564
 20
10.7410038843
 30
0.0
 10
12.2615078784
 20
10.7446689052
 30
0.0
 10
12.2523449234
 20
10.7495814018
 30
0.0
 10
12.2402093205
 20
10.7556215067
 30
0.0
 10
12.2247921433
 20
10.7626216792
 30
0.0
 10
12.2083424633
 20
10.7694631429
 30
0.0
 10
12.1908846565
 20
10.7761357056
 30
0.0
 10
12.1724443868
 20
10.7826294618
 30
0.0
 10
12.1530489262
 20
10.7889347145
 30
0.0
 10
12.1327269834
 20
10.7950420255
 30
0.0
 10
12.1115087009
 20
10.8009422422
 30
0.0
 10
12.0894255993
 20
10.8066265384
 30
0.0
 10
12.0665105085
 20
10.8120863946
 30
0.0
 10
12.0427975121
 20
10.8173136157
 30
0.0
 10
12.0183219072
 20
10.8223003649
 30
0.0
 10
11.9931201492
 20
10.8270391783
 30
0.0
 10
11.9672297809
 20
10.8315229526
 30
0.0
 10
11.9406893747
 20
10.8357449575
 30
0.0
 10
11.913538496
 20
10.8396988679
 30
0.0
 10
11.8858176094
 20
10.8433787758
 30
0.0
 10
11.8575680534
 20
10.8467791549
 30
0.0
 10
11.8288319651
 20
10.8498949192
 30
0.0
 10
11.7896882457
 20
10.8536864727
 30
0.0
 10
11.7600922057
 20
10.8560523068
 30
0.0
 10
11.7402288697
 20
10.8574298339
 30
0.0
  0
SPLINE
  5
39C
100
AcDbEntity
  8
0
100
AcDbSpline
 62
7
  6
CONTINUOUS
 70
0
 71
3
 72
50
 73
46
 74
0
 42
0.0000001
 43
0.0000001
 44
0.0000000001
 40
0.0
 40
0.0
 40
0.0
 40
0.0
 40
0.006849322
 40
0.0135997051
 40
0.0202928801
 40
0.0269717601
 40
0.0336795572
 40
0.0404588731
 40
0.0473508527
 40
0.0543944851
 40
0.061625988
 40
0.0690785605
 40
0.0767821193
 40
0.0847632994
 40
0.0930456396
 40
0.1016495806
 40
0.1105928644
 40
0.1198906894
 40
0.1295558914
 40
0.1395993644
 40
0.1500300481
 40
0.1608552804
 40
0.1720809808
 40
0.1837116356
 40
0.1957506835
 40
0.2082004339
 40
0.2343351034
 40
0.2621186092
 40
0.2915406309
 40
0.3225812324
 40
0.355212249
 40
0.3893984403
 40
0.425098361
 40
0.4622650416
 40
0.5008465197
 40
0.5407863761
 40
0.5820241614
 40
0.624495747
 40
0.6681336042
 40
0.7128671385
 40
0.7586229254
 40
0.8053250646
 40
0.8528954004
 40
0.9012529023
 40
1.0
 40
1.0
 40
1.0
 40
1.0
 10
12.1048780833
 20
10.6449949068
 30
0.0
 10
12.1051722165
 20
10.646052475
 30
0.0
 10
12.1056754729
 20
10.6481759053
 30
0.0
 10
12.1061683905
 20
10.6513940889
 30
0.0
 10
12.1063921359
 20
10.6546150184
 30
0.0
 10
12.1063465163
 20
10.657836535
 30
0.0
 10
12.1060314812
 20
10.6610567721
 30
0.0
 10
12.1054474102
 20
10.6642738197
 30
0.0
 10
12.1045948353
 20
10.667485884
 30
0.0
 10
12.1034744103
 20
10.670691242
 30
0.0
 10
12.1020870945
 20
10.6738883526
 30
0.0
 10
12.1004337648
 20
10.6770757043
 30
0.0
 10
12.0985154859
 20
10.6802519042
 30
0.0
 10
12.0963333861
 20
10.6834156288
 30
0.0
 10
12.0938885585
 20
10.686565499
 30
0.0
 10
12.0911823067
 20
10.6897002578
 30
0.0
 10
12.0882159072
 20
10.6928185609
 30
0.0
 10
12.084990756
 20
10.6959190723
 30
0.0
 10
12.0815083926
 20
10.6990005102
 30
0.0
 10
12.0777703739
 20
10.7020614717
 30
0.0
 10
12.0737784493
 20
10.7051006528
 30
0.0
 10
12.0695344418
 20
10.7081166982
 30
0.0
 10
12.0650402729
 20
10.711108217
 30
0.0
 10
12.0602980368
 20
10.7140739064
 30
0.0
 10
12.0553098745
 20
10.7170124004
 30
0.0
 10
12.0482189726
 20
10.7209562791
 30
0.0
 10
12.0387437275
 20
10.7257971772
 30
0.0
 10
12.0266093064
 20
10.73138611
 30
0.0
 10
12.0135553019
 20
10.7368350323
 30
0.0
 10
11.9996057782
 20
10.7421338384
 30
0.0
 10
11.9847862399
 20
10.7472727127
 30
0.0
 10
11.9691239844
 20
10.7522420715
 30
0.0
 10
11.9526479049
 20
10.757032629
 30
0.0
 10
11.9353884696
 20
10.7616354144
 30
0.0
 10
11.9173776521
 20
10.7660418208
 30
0.0
 10
11.8986488554
 20
10.7702435994
 30
0.0
 10
11.8792368359
 20
10.774232881
 30
0.0
 10
11.8591776398
 20
10.7780021871
 30
0.0
 10
11.8385085381
 20
10.7815444656
 30
0.0
 10
11.8172679585
 20
10.7848530887
 30
0.0
 10
11.7954953865
 20
10.7879218692
 30
0.0
 10
11.7732313107
 20
10.7907450524
 30
0.0
 10
11.7505171559
 20
10.7933173697
 30
0.0
 10
11.7194723347
 20
10.7964277247
 30
0.0
 10
11.6959707178
 20
10.7983349894
 30
0.0
 10
11.6801829007
 20
10.7994298783
 30
0.0
  0
SPLINE
  5
39D
100
AcDbEntity
  8
0
100
AcDbSpline
 62
7
  6
CONTINUOUS
 70
0
 71
3
 72
29
 73
25
 74
0
 42
0.0000001
 43
0.0000001
 44
0.0000000001
 40
0.0
 40
0.0
 40
0.0
 40
0.0
 40
0.0197469468
 40
0.040345695
 40
0.0617974489
 40
0.0841008898
 40
0.107252234
 40
0.131245688
 40
0.1560734841
 40
0.1817261994
 40
0.2081927994
 40
0.2354608432
 40
0.2635165549
 40
0.2923449305
 40
0.3522526842
 40
0.415044279
 40
0.4805633256
 40
0.5486402434
 40
0.6190937484
 40
0.6917321295
 40
0.7663545001
 40
0.8427516827
 40
0.9207077368
 40
1.0
 40
1.0
 40
1.0
 40
1.0
 10
12.0234810187
 20
10.5786642682
 30
0.0
 10
12.0214140353
 20
10.5798749438
 30
0.0
 10
12.017149159
 20
10.5822777936
 30
0.0
 10
12.0105091586
 20
10.5857594663
 30
0.0
 10
12.0034966311
 20
10.5891919602
 30
0.0
 10
11.9961170443
 20
10.5925725315
 30
0.0
 10
11.9883760622
 20
10.5958986226
 30
0.0
 10
11.9802796549
 20
10.5991676195
 30
0.0
 10
11.971834081
 20
10.6023770107
 30
0.0
 10
11.9630458703
 20
10.6055242792
 30
0.0
 10
11.9539218305
 20
10.6086069907
 30
0.0
 10
11.9444690352
 20
10.6116227269
 30
0.0
 10
11.9346948061
 20
10.6145691675
 30
0.0
 10
11.9210691163
 20
10.618452021
 30
0.0
 10
11.903283308
 20
10.6231032999
 30
0.0
 10
11.881049071
 20
10.6283044478
 30
0.0
 10
11.8577275262
 20
10.6331778854
 30
0.0
 10
11.8333911403
 20
10.6377083174
 30
0.0
 10
11.8081153918
 20
10.641881499
 30
0.0
 10
11.7819787903
 20
10.6456843252
 30
0.0
 10
11.7550625668
 20
10.6491048501
 30
0.0
 10
11.7274503553
 20
10.6521323473
 30
0.0
 10
11.6992281325
 20
10.654757303
 30
0.0
 10
11.6802082266
 20
10.6562224045
 30
0.0
 10
11.6706125598
 20
10.6568878663
 30
0.0
  0
SPLINE
  5
39E
100
AcDbEntity
  8
0
100
AcDbSpline
 62
7
  6
CONTINUOUS
 70
0
 71
3
 72
22
 73
18
 74
0
 42
0.0000001
 43
0.0000001
 44
0.0000000001
 40
0.0
 40
0.0
 40
0.0
 40
0.0
 40
0.0478998035
 40
0.0981369747
 40
0.1506501448
 40
0.2053693849
 40
0.2622171351
 40
0.3211088647
 40
0.3819537046
 40
0.4446551346
 40
0.5091114832
 40
0.5752162864
 40
0.6428586421
 40
0.7119239949
 40
0.78229409
 40
0.8538464131
 40
1.0
 40
1.0
 40
1.0
 40
1.0
 10
11.9331560854
 20
10.5492944241
 30
0.0
 10
11.9289603763
 20
10.5508452846
 30
0.0
 10
11.9203147984
 20
10.553890176
 30
0.0
 10
11.9069212391
 20
10.5582004983
 30
0.0
 10
11.8928137535
 20
10.5623561868
 30
0.0
 10
11.8780191768
 20
10.5663492322
 30
0.0
 10
11.8625654628
 20
10.5701719995
 30
0.0
 10
11.846481917
 20
10.5738171609
 30
0.0
 10
11.8297990576
 20
10.5772777506
 30
0.0
 10
11.8125485591
 20
10.5805471412
 30
0.0
 10
11.7947631823
 20
10.5836190631
 30
0.0
 10
11.7764767325
 20
10.5864876362
 30
0.0
 10
11.7577239632
 20
10.5891473874
 30
0.0
 10
11.7385405381
 20
10.5915932138
 30
0.0
 10
11.7189629525
 20
10.5938204438
 30
0.0
 10
11.6921951958
 20
10.5965118031
 30
0.0
 10
11.6719286652
 20
10.598159146
 30
0.0
 10
11.6583127095
 20
10.5991034157
 30
0.0
  0
SPLINE
  5
39F
100
AcDbEntity
  8
0
100
AcDbSpline
 62
7
  6
CONTINUOUS
 70
0
 71
3
 72
39
 73
35
 74
0
 42
0.0000001
 43
0.0000001
 44
0.0000000001
 40
0.0
 40
0.0
 40
0.0
 40
0.0
 40
0.0314026134
 40
0.06300949
 40
0.0948071102
 40
0.1267734453
 40
0.1588809722
 40
0.1910970226
 40
0.2233851132
 40
0.2557062446
 40
0.2880202663
 40
0.3202872751
 40
0.3524690067
 40
0.384530184
 40
0.4164397927
 40
0.448172249
 40
0.4797084083
 40
0.5110363809
 40
0.5421521201
 40
0.5730597413
 40
0.6037715194
 40
0.6343075569
 40
0.6646951118
 40
0.6949675896
 40
0.7251632184
 40
0.755323478
 40
0.7854913548
 40
0.8157095105
 40
0.8460184691
 40
0.8764549222
 40
0.9070502335
 40
0.9378293335
 40
0.9688091139
 40
1.0
 40
1.0
 40
1.0
 40
1.0
 10
11.9841469972
 20
7.4247937936
 30
0.0
 10
11.9884587329
 20
7.4244947737
 30
0.0
 10
11.9970865083
 20
7.4234698762
 30
0.0
 10
12.0098542994
 20
7.4206862553
 30
0.0
 10
12.0223746094
 20
7.4166781719
 30
0.0
 10
12.0345256461
 20
7.4114844685
 30
0.0
 10
12.0461911923
 20
7.405155316
 30
0.0
 10
12.0572592327
 20
7.3977517163
 30
0.0
 10
12.0676236318
 20
7.3893448962
 30
0.0
 10
12.0771849388
 20
7.380015624
 30
0.0
 10
12.0858513685
 20
7.3698534521
 30
0.0
 10
12.0935397108
 20
7.358955921
 30
0.0
 10
12.1001760683
 20
7.3474275846
 30
0.0
 10
12.1056965502
 20
7.3353790341
 30
0.0
 10
12.1100478767
 20
7.3229258679
 30
0.0
 10
12.1131879648
 20
7.3101876319
 30
0.0
 10
12.1150862715
 20
7.2972866664
 30
0.0
 10
12.1157240999
 20
7.2843469682
 30
0.0
 10
12.1150948041
 20
7.2714930345
 30
0.0
 10
12.1132039683
 20
7.2588486798
 30
0.0
 10
12.11006932
 20
7.2465358492
 30
0.0
 10
12.1057206094
 20
7.2346734504
 30
0.0
 10
12.1001993752
 20
7.2233761958
 30
0.0
 10
12.0935586594
 20
7.2127534196
 30
0.0
 10
12.0858624464
 20
7.2029079952
 30
0.0
 10
12.0771850552
 20
7.1939352902
 30
0.0
 10
12.0676104129
 20
7.1859221923
 30
0.0
 10
12.0572312517
 20
7.1789461564
 30
0.0
 10
12.0461481101
 20
7.1730744802
 30
0.0
 10
12.0344682603
 20
7.1683636614
 30
0.0
 10
12.0223047919
 20
7.1648588376
 30
0.0
 10
12.0097748879
 20
7.162593442
 30
0.0
 10
11.997000996
 20
7.1615885959
 30
0.0
 10
11.9884296617
 20
7.1617649495
 30
0.0
 10
11.9841469972
 20
7.1620619533
 30
0.0
  0
SPLINE
  5
3A0
100
AcDbEntity
  8
0
100
AcDbSpline
 62
7
  6
CONTINUOUS
 70
0
 71
3
 72
39
 73
35
 74
0
 42
0.0000001
 43
0.0000001
 44
0.0000000001
 40
0.0
 40
0.0
 40
0.0
 40
0.0
 40
0.0314026134
 40
0.06300949
 40
0.0948071102
 40
0.1267734453
 40
0.1588809722
 40
0.1910970226
 40
0.2233851132
 40
0.2557062446
 40
0.2880202663
 40
0.3202872751
 40
0.3524690067
 40
0.384530184
 40
0.4164397927
 40
0.448172249
 40
0.4797084083
 40
0.5110363809
 40
0.5421521201
 40
0.5730597413
 40
0.6037715194
 40
0.6343075569
 40
0.6646951118
 40
0.6949675896
 40
0.7251632184
 40
0.755323478
 40
0.7854913548
 40
0.8157095105
 40
0.8460184691
 40
0.8764549222
 40
0.9070502335
 40
0.9378293335
 40
0.9688091139
 40
1.0
 40
1.0
 40
1.0
 40
1.0
 10
11.9841469972
 20
7.1620619533
 30
0.0
 10
11.9798352615
 20
7.1623609732
 30
0.0
 10
11.9712074861
 20
7.1633858707
 30
0.0
 10
11.958439695
 20
7.1661694917
 30
0.0
 10
11.9459193851
 20
7.170177575
 30
0.0
 10
11.9337683483
 20
7.1753712785
 30
0.0
 10
11.9221028021
 20
7.181700431
 30
0.0
 10
11.9110347617
 20
7.1891040306
 30
0.0
 10
11.9006703626
 20
7.1975108507
 30
0.0
 10
11.8911090556
 20
7.206840123
 30
0.0
 10
11.8824426259
 20
7.2170022948
 30
0.0
 10
11.8747542836
 20
7.2278998259
 30
0.0
 10
11.8681179261
 20
7.2394281624
 30
0.0
 10
11.8625974442
 20
7.2514767129
 30
0.0
 10
11.8582461177
 20
7.263929879
 30
0.0
 10
11.8551060296
 20
7.276668115
 30
0.0
 10
11.853207723
 20
7.2895690806
 30
0.0
 10
11.8525698946
 20
7.3025087787
 30
0.0
 10
11.8531991904
 20
7.3153627125
 30
0.0
 10
11.8550900262
 20
7.3280070672
 30
0.0
 10
11.8582246744
 20
7.3403198978
 30
0.0
 10
11.862573385
 20
7.3521822965
 30
0.0
 10
11.8680946192
 20
7.3634795511
 30
0.0
 10
11.874735335
 20
7.3741023273
 30
0.0
 10
11.882431548
 20
7.3839477518
 30
0.0
 10
11.8911089392
 20
7.3929204568
 30
0.0
 10
11.9006835815
 20
7.4009335547
 30
0.0
 10
11.9110627427
 20
7.4079095906
 30
0.0
 10
11.9221458843
 20
7.4137812668
 30
0.0
 10
11.9338257341
 20
7.4184920855
 30
0.0
 10
11.9459892025
 20
7.4219969093
 30
0.0
 10
11.9585191065
 20
7.4242623049
 30
0.0
 10
11.9712929984
 20
7.4252671511
 30
0.0
 10
11.9798643327
 20
7.4250907974
 30
0.0
 10
11.9841469972
 20
7.4247937936
 30
0.0
  0
SPLINE
  5
3A1
100
AcDbEntity
  8
0
100
AcDbSpline
 62
7
  6
CONTINUOUS
 70
0
 71
3
 72
15
 73
11
 74
0
 42
0.0000001
 43
0.0000001
 44
0.0000000001
 40
0.0
 40
0.0
 40
0.0
 40
0.0
 40
0.1273482936
 40
0.2538605366
 40
0.3795879111
 40
0.5046050899
 40
0.6290174366
 40
0.7529533732
 40
0.8765605776
 40
1.0
 40
1.0
 40
1.0
 40
1.0
 10
9.8299359312
 20
7.4491197188
 30
0.0
 10
9.8299359312
 20
7.4525844941
 30
0.0
 10
9.8302667462
 20
7.4594960885
 30
0.0
 10
9.831762833
 20
7.46973055
 30
0.0
 10
9.8342435943
 20
7.4797078566
 30
0.0
 10
9.837686627
 20
7.4893347008
 30
0.0
 10
9.8420603251
 20
7.498522306
 30
0.0
 10
9.8473248334
 20
7.5071858334
 30
0.0
 10
9.8534306636
 20
7.5152440939
 30
0.0
 10
9.858028032
 20
7.5201665485
 30
0.0
 10
9.8604436058
 20
7.5224997933
 30
0.0
  0
SPLINE
  5
3A2
100
AcDbEntity
  8
0
100
AcDbSpline
 62
7
  6
CONTINUOUS
 70
0
 71
3
 72
23
 73
19
 74
0
 42
0.0000001
 43
0.0000001
 44
0.0000000001
 40
0.0
 40
0.0
 40
0.0
 40
0.0
 40
0.0614488807
 40
0.1232974294
 40
0.1855193177
 40
0.2480712672
 40
0.3108995318
 40
0.3739401513
 40
0.4371217414
 40
0.5003679843
 40
0.5636003151
 40
0.6267406524
 40
0.6897141172
 40
0.7524516838
 40
0.8148926113
 40
0.8769871451
 40
0.9386966623
 40
1.0
 40
1.0
 40
1.0
 40
1.0
 10
9.9386025931
 20
7.3329169983
 30
0.0
 10
9.9350359
 20
7.3331643493
 30
0.0
 10
9.9278989551
 20
7.3340121477
 30
0.0
 10
9.9173373632
 20
7.3363147803
 30
0.0
 10
9.90698049
 20
7.3396302923
 30
0.0
 10
9.8969290827
 20
7.3439265621
 30
0.0
 10
9.8872792659
 20
7.3491620552
 30
0.0
 10
9.8781237155
 20
7.3552863549
 30
0.0
 10
9.8695502327
 20
7.3622405373
 30
0.0
 10
9.8616410732
 20
7.3699577755
 30
0.0
 10
9.8544721417
 20
7.3783639743
 30
0.0
 10
9.8481122878
 20
7.3873784691
 30
0.0
 10
9.8426226552
 20
7.3969147744
 30
0.0
 10
9.8380561018
 20
7.4068814293
 30
0.0
 10
9.8344566417
 20
7.4171827043
 30
0.0
 10
9.8318591671
 20
7.4277200521
 30
0.0
 10
9.8302888348
 20
7.4383909534
 30
0.0
 10
9.8299359312
 20
7.4455529271
 30
0.0
 10
9.8299359312
 20
7.4491197188
 30
0.0
  0
SPLINE
  5
3A3
100
AcDbEntity
  8
0
100
AcDbSpline
 62
7
  6
CONTINUOUS
 70
0
 71
3
 72
39
 73
35
 74
0
 42
0.0000001
 43
0.0000001
 44
0.0000000001
 40
0.0
 40
0.0
 40
0.0
 40
0.0
 40
0.0314026134
 40
0.06300949
 40
0.0948071102
 40
0.1267734453
 40
0.1588809722
 40
0.1910970226
 40
0.2233851132
 40
0.2557062446
 40
0.2880202663
 40
0.3202872751
 40
0.3524690067
 40
0.384530184
 40
0.4164397927
 40
0.448172249
 40
0.4797084083
 40
0.5110363809
 40
0.5421521201
 40
0.5730597413
 40
0.6037715194
 40
0.6343075569
 40
0.6646951118
 40
0.6949675896
 40
0.7251632184
 40
0.755323478
 40
0.7854913548
 40
0.8157095105
 40
0.8460184691
 40
0.8764549222
 40
0.9070502335
 40
0.9378293335
 40
0.9688091139
 40
1.0
 40
1.0
 40
1.0
 40
1.0
 10
11.9841469972
 20
9.1760173855
 30
0.0
 10
11.9884587329
 20
9.1757183656
 30
0.0
 10
11.9970865083
 20
9.174693468
 30
0.0
 10
12.0098542994
 20
9.1719098471
 30
0.0
 10
12.0223746094
 20
9.1679017637
 30
0.0
 10
12.0345256461
 20
9.1627080603
 30
0.0
 10
12.0461911923
 20
9.1563789078
 30
0.0
 10
12.0572592327
 20
9.1489753082
 30
0.0
 10
12.0676236318
 20
9.1405684881
 30
0.0
 10
12.0771849388
 20
9.1312392158
 30
0.0
 10
12.0858513685
 20
9.1210770439
 30
0.0
 10
12.0935397108
 20
9.1101795129
 30
0.0
 10
12.1001760683
 20
9.0986511764
 30
0.0
 10
12.1056965502
 20
9.0866026259
 30
0.0
 10
12.1100478767
 20
9.0741494597
 30
0.0
 10
12.1131879648
 20
9.0614112237
 30
0.0
 10
12.1150862715
 20
9.0485102582
 30
0.0
 10
12.1157240999
 20
9.03557056
 30
0.0
 10
12.1150948041
 20
9.0227166263
 30
0.0
 10
12.1132039683
 20
9.0100722716
 30
0.0
 10
12.11006932
 20
8.997759441
 30
0.0
 10
12.1057206094
 20
8.9858970422
 30
0.0
 10
12.1001993752
 20
8.9745997876
 30
0.0
 10
12.0935586594
 20
8.9639770114
 30
0.0
 10
12.0858624464
 20
8.954131587
 30
0.0
 10
12.0771850552
 20
8.945158882
 30
0.0
 10
12.0676104129
 20
8.9371457841
 30
0.0
 10
12.0572312517
 20
8.9301697482
 30
0.0
 10
12.0461481101
 20
8.924298072
 30
0.0
 10
12.0344682603
 20
8.9195872532
 30
0.0
 10
12.0223047919
 20
8.9160824295
 30
0.0
 10
12.0097748879
 20
8.9138170339
 30
0.0
 10
11.997000996
 20
8.9128121877
 30
0.0
 10
11.9884296617
 20
8.9129885413
 30
0.0
 10
11.9841469972
 20
8.9132855451
 30
0.0
  0
SPLINE
  5
3A4
100
AcDbEntity
  8
0
100
AcDbSpline
 62
7
  6
CONTINUOUS
 70
0
 71
3
 72
39
 73
35
 74
0
 42
0.0000001
 43
0.0000001
 44
0.0000000001
 40
0.0
 40
0.0
 40
0.0
 40
0.0
 40
0.0314026134
 40
0.06300949
 40
0.0948071102
 40
0.1267734453
 40
0.1588809722
 40
0.1910970226
 40
0.2233851132
 40
0.2557062446
 40
0.2880202663
 40
0.3202872751
 40
0.3524690067
 40
0.384530184
 40
0.4164397927
 40
0.448172249
 40
0.4797084083
 40
0.5110363809
 40
0.5421521201
 40
0.5730597413
 40
0.6037715194
 40
0.6343075569
 40
0.6646951118
 40
0.6949675896
 40
0.7251632184
 40
0.755323478
 40
0.7854913548
 40
0.8157095105
 40
0.8460184691
 40
0.8764549222
 40
0.9070502335
 40
0.9378293335
 40
0.9688091139
 40
1.0
 40
1.0
 40
1.0
 40
1.0
 10
11.9841469972
 20
8.9132855451
 30
0.0
 10
11.9798352615
 20
8.913584565
 30
0.0
 10
11.9712074861
 20
8.9146094626
 30
0.0
 10
11.958439695
 20
8.9173930835
 30
0.0
 10
11.9459193851
 20
8.9214011669
 30
0.0
 10
11.9337683483
 20
8.9265948703
 30
0.0
 10
11.9221028021
 20
8.9329240228
 30
0.0
 10
11.9110347617
 20
8.9403276224
 30
0.0
 10
11.9006703626
 20
8.9487344425
 30
0.0
 10
11.8911090556
 20
8.9580637148
 30
0.0
 10
11.8824426259
 20
8.9682258866
 30
0.0
 10
11.8747542836
 20
8.9791234177
 30
0.0
 10
11.8681179261
 20
8.9906517542
 30
0.0
 10
11.8625974442
 20
9.0027003047
 30
0.0
 10
11.8582461177
 20
9.0151534708
 30
0.0
 10
11.8551060296
 20
9.0278917068
 30
0.0
 10
11.853207723
 20
9.0407926724
 30
0.0
 10
11.8525698946
 20
9.0537323706
 30
0.0
 10
11.8531991904
 20
9.0665863043
 30
0.0
 10
11.8550900262
 20
9.079230659
 30
0.0
 10
11.8582246744
 20
9.0915434896
 30
0.0
 10
11.862573385
 20
9.1034058883
 30
0.0
 10
11.8680946192
 20
9.114703143
 30
0.0
 10
11.874735335
 20
9.1253259192
 30
0.0
 10
11.882431548
 20
9.1351713436
 30
0.0
 10
11.8911089392
 20
9.1441440486
 30
0.0
 10
11.9006835815
 20
9.1521571465
 30
0.0
 10
11.9110627427
 20
9.1591331824
 30
0.0
 10
11.9221458843
 20
9.1650048586
 30
0.0
 10
11.9338257341
 20
9.1697156773
 30
0.0
 10
11.9459892025
 20
9.1732205011
 30
0.0
 10
11.9585191065
 20
9.1754858967
 30
0.0
 10
11.9712929984
 20
9.1764907429
 30
0.0
 10
11.9798643327
 20
9.1763143892
 30
0.0
 10
11.9841469972
 20
9.1760173855
 30
0.0
  0
SPLINE
  5
3A5
100
AcDbEntity
  8
0
100
AcDbSpline
 62
7
  6
CONTINUOUS
 70
0
 71
3
 72
15
 73
11
 74
0
 42
0.0000001
 43
0.0000001
 44
0.0000000001
 40
0.0
 40
0.0
 40
0.0
 40
0.0
 40
0.1273482936
 40
0.2538605366
 40
0.3795879111
 40
0.5046050899
 40
0.6290174366
 40
0.7529533732
 40
0.8765605776
 40
1.0
 40
1.0
 40
1.0
 40
1.0
 10
11.8815625779
 20
7.3068389276
 30
0.0
 10
11.8815625779
 20
7.3103037029
 30
0.0
 10
11.8818933928
 20
7.3172152973
 30
0.0
 10
11.8833894796
 20
7.3274497588
 30
0.0
 10
11.8858702409
 20
7.3374270654
 30
0.0
 10
11.8893132736
 20
7.3470539097
 30
0.0
 10
11.8936869717
 20
7.3562415148
 30
0.0
 10
11.89895148
 20
7.3649050422
 30
0.0
 10
11.9050573102
 20
7.3729633027
 30
0.0
 10
11.9096546787
 20
7.3778857573
 30
0.0
 10
11.9120702524
 20
7.3802190021
 30
0.0
  0
SPLINE
  5
3A6
100
AcDbEntity
  8
0
100
AcDbSpline
 62
7
  6
CONTINUOUS
 70
0
 71
3
 72
23
 73
19
 74
0
 42
0.0000001
 43
0.0000001
 44
0.0000000001
 40
0.0
 40
0.0
 40
0.0
 40
0.0
 40
0.0614488807
 40
0.1232974294
 40
0.1855193177
 40
0.2480712672
 40
0.3108995318
 40
0.3739401513
 40
0.4371217414
 40
0.5003679843
 40
0.5636003151
 40
0.6267406524
 40
0.6897141172
 40
0.7524516838
 40
0.8148926113
 40
0.8769871451
 40
0.9386966623
 40
1.0
 40
1.0
 40
1.0
 40
1.0
 10
11.9902292397
 20
7.1906362071
 30
0.0
 10
11.9866625466
 20
7.1908835581
 30
0.0
 10
11.9795256017
 20
7.1917313565
 30
0.0
 10
11.9689640098
 20
7.1940339891
 30
0.0
 10
11.9586071366
 20
7.1973495011
 30
0.0
 10
11.9485557293
 20
7.2016457709
 30
0.0
 10
11.9389059125
 20
7.206881264
 30
0.0
 10
11.9297503622
 20
7.2130055637
 30
0.0
 10
11.9211768793
 20
7.2199597461
 30
0.0
 10
11.9132677198
 20
7.2276769843
 30
0.0
 10
11.9060987883
 20
7.2360831831
 30
0.0
 10
11.8997389344
 20
7.2450976779
 30
0.0
 10
11.8942493018
 20
7.2546339832
 30
0.0
 10
11.8896827484
 20
7.2646006382
 30
0.0
 10
11.8860832883
 20
7.2749019131
 30
0.0
 10
11.8834858137
 20
7.2854392609
 30
0.0
 10
11.8819154814
 20
7.2961101622
 30
0.0
 10
11.8815625779
 20
7.3032721359
 30
0.0
 10
11.8815625779
 20
7.3068389276
 30
0.0
  0
SPLINE
  5
3A7
100
AcDbEntity
  8
0
100
AcDbSpline
 62
7
  6
CONTINUOUS
 70
0
 71
3
 72
54
 73
50
 74
0
 42
0.0000001
 43
0.0000001
 44
0.0000000001
 40
0.0
 40
0.0
 40
0.0
 40
0.0
 40
0.0417740848
 40
0.0840369828
 40
0.1266585743
 40
0.1695065841
 40
0.2124482174
 40
0.2553501902
 40
0.2980794065
 40
0.3405034434
 40
0.3824910856
 40
0.4239128535
 40
0.4646415381
 40
0.5045527407
 40
0.5435254244
 40
0.5814424805
 40
0.6181913195
 40
0.6536644943
 40
0.6877603722
 40
0.7042621337
 40
0.7203845126
 40
0.7361167638
 40
0.7514487122
 40
0.7663707127
 40
0.7808737249
 40
0.7949493691
 40
0.8085899172
 40
0.8217884518
 40
0.8345388015
 40
0.8468357624
 40
0.8586750526
 40
0.8700535295
 40
0.8809692513
 40
0.8914216469
 40
0.9014117394
 40
0.9109422847
 40
0.9200181679
 40
0.9286465891
 40
0.9368376049
 40
0.9446044798
 40
0.9519643317
 40
0.9589387265
 40
0.9655543709
 40
0.9718438607
 40
0.9778462236
 40
0.9836073893
 40
0.9891800561
 40
0.99462308
 40
1.0
 40
1.0
 40
1.0
 40
1.0
 10
13.1891176949
 20
8.7053225743
 30
0.0
 10
13.1891176949
 20
8.6902672443
 30
0.0
 10
13.1888828168
 20
8.6599799434
 30
0.0
 10
13.1878444537
 20
8.6143425721
 30
0.0
 10
13.1861210356
 20
8.5683385464
 30
0.0
 10
13.1837182022
 20
8.5221201092
 30
0.0
 10
13.1806438996
 20
8.4758402054
 30
0.0
 10
13.1769082876
 20
8.4296519323
 30
0.0
 10
13.1725237411
 20
8.3837081027
 30
0.0
 10
13.1675047943
 20
8.3381607105
 30
0.0
 10
13.161868098
 20
8.2931604303
 30
0.0
 10
13.1556323652
 20
8.2488561134
 30
0.0
 10
13.1488183104
 20
8.2053942899
 30
0.0
 10
13.1414485807
 20
8.1629186803
 30
0.0
 10
13.1335476833
 20
8.1215697061
 30
0.0
 10
13.1251419031
 20
8.0814840407
 30
0.0
 10
13.1162592296
 20
8.0427940582
 30
0.0
 10
13.1069292209
 20
8.0056276889
 30
0.0
 10
13.0987206036
 20
7.9757105874
 30
0.0
 10
13.0919411648
 20
7.9526397122
 30
0.0
 10
13.0868197466
 20
7.9359811177
 30
0.0
 10
13.0816103469
 20
7.9197921443
 30
0.0
 10
13.0763172859
 20
7.904086147
 30
0.0
 10
13.0709449456
 20
7.8888761012
 30
0.0
 10
13.0654977734
 20
7.8741745613
 30
0.0
 10
13.0599803099
 20
7.859993651
 30
0.0
 10
13.0543970832
 20
7.8463450692
 30
0.0
 10
13.0487527737
 20
7.8332400459
 30
0.0
 10
13.0430519885
 20
7.8206893791
 30
0.0
 10
13.0372994999
 20
7.8087033664
 30
0.0
 10
13.0315000051
 20
7.797291855
 30
0.0
 10
13.025658309
 20
7.7864641799
 30
0.0
 10
13.0197791979
 20
7.7762291868
 30
0.0
 10
13.0138674557
 20
7.7665952205
 30
0.0
 10
13.0079279254
 20
7.7575700805
 30
0.0
 10
13.0019653235
 20
7.7491610969
 30
0.0
 10
12.9959844711
 20
7.7413750007
 30
0.0
 10
12.9899899733
 20
7.7342180894
 30
0.0
 10
12.9839864994
 20
7.7276960577
 30
0.0
 10
12.9779784836
 20
7.7218141948
 30
0.0
 10
12.9719702969
 20
7.7165772973
 30
0.0
 10
12.9659661392
 20
7.7119897962
 30
0.0
 10
12.9599700416
 20
7.7080559031
 30
0.0
 10
12.953986072
 20
7.7047795517
 30
0.0
 10
12.948018269
 20
7.702164809
 30
0.0
 10
12.9420712752
 20
7.7002154674
 30
0.0
 10
12.9361499617
 20
7.698935418
 30
0.0
 10
12.9302615348
 20
7.698327642
 30
0.0
 10
12.9263521168
 20
7.6983723344
 30
0.0
 10
12.9244189251
 20
7.6985064101
 30
0.0
  0
SPLINE
  5
3A8
100
AcDbEntity
  8
0
100
AcDbSpline
 62
7
  6
CONTINUOUS
 70
0
 71
3
 72
21
 73
17
 74
0
 42
0.0000001
 43
0.0000001
 44
0.0000000001
 40
0.0
 40
0.0
 40
0.0
 40
0.0
 40
0.1273176984
 40
0.2537999461
 40
0.3167619614
 40
0.3795355204
 40
0.4421314992
 40
0.5045621453
 40
0.5668413456
 40
0.6289845231
 40
0.6910084433
 40
0.7529310869
 40
0.8147714401
 40
0.8765493236
 40
0.9382852134
 40
1.0
 40
1.0
 40
1.0
 40
1.0
 10
9.8407574617
 20
7.9549789891
 30
0.0
 10
9.8407574617
 20
7.9617237972
 30
0.0
 10
9.8414012987
 20
7.9751778367
 30
0.0
 10
9.8438328899
 20
7.9918099337
 30
0.0
 10
9.846739157
 20
8.0048563574
 30
0.0
 10
9.8493895209
 20
8.0144794058
 30
0.0
 10
9.8525075156
 20
8.0239314576
 30
0.0
 10
9.8560859524
 20
8.0331909921
 30
0.0
 10
9.860116581
 20
8.0422365935
 30
0.0
 10
9.8645901889
 20
8.0510473851
 30
0.0
 10
9.869496427
 20
8.0596030566
 30
0.0
 10
9.8748239807
 20
8.0678838905
 30
0.0
 10
9.8805606151
 20
8.0758707251
 30
0.0
 10
9.8866931363
 20
8.0835452176
 30
0.0
 10
9.8932071298
 20
8.0908894559
 30
0.0
 10
9.8977950226
 20
8.0955549484
 30
0.0
 10
9.9001465712
 20
8.0978263562
 30
0.0
  0
SPLINE
  5
3A9
100
AcDbEntity
  8
0
100
AcDbSpline
 62
7
  6
CONTINUOUS
 70
0
 71
3
 72
54
 73
50
 74
0
 42
0.0000001
 43
0.0000001
 44
0.0000000001
 40
0.0
 40
0.0
 40
0.0
 40
0.0
 40
0.0528972703
 40
0.1050236102
 40
0.1562586956
 40
0.2064912169
 40
0.2556095761
 40
0.3035068022
 40
0.3500797459
 40
0.3952296382
 40
0.4388626511
 40
0.4808903716
 40
0.5212304867
 40
0.5598074629
 40
0.5965533244
 40
0.6314086405
 40
0.6643237754
 40
0.6952605309
 40
0.7241941465
 40
0.7379074947
 40
0.7511184105
 40
0.7638289449
 40
0.7760428194
 40
0.7877653084
 40
0.7990038589
 40
0.8097680706
 40
0.8200700738
 40
0.8299250591
 40
0.8393513485
 40
0.8483711549
 40
0.8570108247
 40
0.8653012609
 40
0.8732784613
 40
0.8809834857
 40
0.8884626614
 40
0.8957671673
 40
0.9029523224
 40
0.9100765681
 40
0.9171999641
 40
0.9243826074
 40
0.9316829711
 40
0.9391565341
 40
0.9468545557
 40
0.954823507
 40
0.9631046608
 40
0.9717340359
 40
0.9807428048
 40
0.9901573598
 40
1.0
 40
1.0
 40
1.0
 40
1.0
 10
10.3691427439
 20
10.860971936
 30
0.0
 10
10.3746713883
 20
10.8605885232
 30
0.0
 10
10.3856431093
 20
10.859752984
 30
0.0
 10
10.4019482411
 20
10.8582816288
 30
0.0
 10
10.4179528228
 20
10.8566040269
 30
0.0
 10
10.4336176067
 20
10.8547243761
 30
0.0
 10
10.4489046319
 20
10.8526472283
 30
0.0
 10
10.4637766012
 20
10.8503776997
 30
0.0
 10
10.4781973363
 20
10.847921363
 30
0.0
 10
10.4921317529
 20
10.8452842493
 30
0.0
 10
10.5055459634
 20
10.8424728365
 30
0.0
 10
10.5184073703
 20
10.8394940236
 30
0.0
 10
10.5306847564
 20
10.8363551306
 30
0.0
 10
10.5423483691
 20
10.8330638724
 30
0.0
 10
10.5533700045
 20
10.8296283261
 30
0.0
 10
10.5637230559
 20
10.8260569105
 30
0.0
 10
10.573382718
 20
10.8223583334
 30
0.0
 10
10.5823256995
 20
10.8185416075
 30
0.0
 10
10.5892827907
 20
10.815213271
 30
0.0
 10
10.5944635638
 20
10.8124905111
 30
0.0
 10
10.5980870263
 20
10.8104612733
 30
0.0
 10
10.6015159759
 20
10.8084094877
 30
0.0
 10
10.6047483883
 20
10.8063363957
 30
0.0
 10
10.6077822991
 20
10.8042431681
 30
0.0
 10
10.6106159203
 20
10.8021310687
 30
0.0
 10
10.6132475614
 20
10.8000013096
 30
0.0
 10
10.6156756213
 20
10.7978550653
 30
0.0
 10
10.6178986859
 20
10.7956935922
 30
0.0
 10
10.6199153484
 20
10.7935180119
 30
0.0
 10
10.6217243711
 20
10.7913295257
 30
0.0
 10
10.6233245819
 20
10.7891292954
 30
0.0
 10
10.6247147988
 20
10.7869184403
 30
0.0
 10
10.6258940313
 20
10.7846982015
 30
0.0
 10
10.626861182
 20
10.7824697785
 30
0.0
 10
10.6276153144
 20
10.7802345402
 30
0.0
 10
10.6281556018
 20
10.7779939768
 30
0.0
 10
10.6284812475
 20
10.7757497152
 30
0.0
 10
10.6285919001
 20
10.7735035613
 30
0.0
 10
10.6284873107
 20
10.7712573766
 30
0.0
 10
10.6281676553
 20
10.7690130457
 30
0.0
 10
10.6276334435
 20
10.7667723418
 30
0.0
 10
10.6268852702
 20
10.7645369442
 30
0.0
 10
10.6259240992
 20
10.7623083099
 30
0.0
 10
10.6247508308
 20
10.7600878103
 30
0.0
 10
10.6233664913
 20
10.7578767
 30
0.0
 10
10.6217722036
 20
10.75567613
 30
0.0
 10
10.6199690009
 20
10.7534873053
 30
0.0
 10
10.6179581941
 20
10.7513113874
 30
0.0
 10
10.6165129656
 20
10.7499022447
 30
0.0
 10
10.6157580844
 20
10.7491997434
 30
0.0
  0
SPLINE
  5
3AA
100
AcDbEntity
  8
0
100
AcDbSpline
 62
7
  6
CONTINUOUS
 70
0
 71
3
 72
15
 73
11
 74
0
 42
0.0000001
 43
0.0000001
 44
0.0000000001
 40
0.0
 40
0.0
 40
0.0
 40
0.0
 40
0.1273482936
 40
0.2538605366
 40
0.3795879111
 40
0.5046050899
 40
0.6290174366
 40
0.7529533732
 40
0.8765605776
 40
1.0
 40
1.0
 40
1.0
 40
1.0
 10
11.8815625779
 20
9.0580625194
 30
0.0
 10
11.8815625779
 20
9.0615272947
 30
0.0
 10
11.8818933928
 20
9.0684388891
 30
0.0
 10
11.8833894796
 20
9.0786733506
 30
0.0
 10
11.8858702409
 20
9.0886506573
 30
0.0
 10
11.8893132736
 20
9.0982775015
 30
0.0
 10
11.8936869717
 20
9.1074651067
 30
0.0
 10
11.89895148
 20
9.116128634
 30
0.0
 10
11.9050573102
 20
9.1241868945
 30
0.0
 10
11.9096546787
 20
9.1291093491
 30
0.0
 10
11.9120702524
 20
9.1314425939
 30
0.0
  0
SPLINE
  5
3AB
100
AcDbEntity
  8
0
100
AcDbSpline
 62
7
  6
CONTINUOUS
 70
0
 71
3
 72
23
 73
19
 74
0
 42
0.0000001
 43
0.0000001
 44
0.0000000001
 40
0.0
 40
0.0
 40
0.0
 40
0.0
 40
0.0614488807
 40
0.1232974294
 40
0.1855193177
 40
0.2480712672
 40
0.3108995318
 40
0.3739401513
 40
0.4371217414
 40
0.5003679843
 40
0.5636003151
 40
0.6267406524
 40
0.6897141172
 40
0.7524516838
 40
0.8148926113
 40
0.8769871451
 40
0.9386966623
 40
1.0
 40
1.0
 40
1.0
 40
1.0
 10
11.9902292397
 20
8.9418597989
 30
0.0
 10
11.9866625466
 20
8.9421071499
 30
0.0
 10
11.9795256017
 20
8.9429549483
 30
0.0
 10
11.9689640098
 20
8.945257581
 30
0.0
 10
11.9586071366
 20
8.9485730929
 30
0.0
 10
11.9485557293
 20
8.9528693627
 30
0.0
 10
11.9389059125
 20
8.9581048559
 30
0.0
 10
11.9297503622
 20
8.9642291555
 30
0.0
 10
11.9211768793
 20
8.9711833379
 30
0.0
 10
11.9132677198
 20
8.9789005761
 30
0.0
 10
11.9060987883
 20
8.9873067749
 30
0.0
 10
11.8997389344
 20
8.9963212697
 30
0.0
 10
11.8942493018
 20
9.005857575
 30
0.0
 10
11.8896827484
 20
9.01582423
 30
0.0
 10
11.8860832883
 20
9.0261255049
 30
0.0
 10
11.8834858137
 20
9.0366628528
 30
0.0
 10
11.8819154814
 20
9.047333754
 30
0.0
 10
11.8815625779
 20
9.0544957277
 30
0.0
 10
11.8815625779
 20
9.0580625194
 30
0.0
  0
SPLINE
  5
3AC
100
AcDbEntity
  8
0
100
AcDbSpline
 62
7
  6
CONTINUOUS
 70
0
 71
3
 72
21
 73
17
 74
0
 42
0.0000001
 43
0.0000001
 44
0.0000000001
 40
0.0
 40
0.0
 40
0.0
 40
0.0
 40
0.1273176984
 40
0.2537999461
 40
0.3167619614
 40
0.3795355204
 40
0.4421314992
 40
0.5045621453
 40
0.5668413456
 40
0.6289845231
 40
0.6910084433
 40
0.7529310869
 40
0.8147714401
 40
0.8765493236
 40
0.9382852134
 40
1.0
 40
1.0
 40
1.0
 40
1.0
 10
12.0140906996
 20
6.3862789131
 30
0.0
 10
12.0140906996
 20
6.3930237212
 30
0.0
 10
12.0147345366
 20
6.4064777606
 30
0.0
 10
12.0171661279
 20
6.4231098577
 30
0.0
 10
12.0200723949
 20
6.4361562813
 30
0.0
 10
12.0227227589
 20
6.4457793298
 30
0.0
 10
12.0258407535
 20
6.4552313815
 30
0.0
 10
12.0294191903
 20
6.4644909161
 30
0.0
 10
12.033449819
 20
6.4735365175
 30
0.0
 10
12.0379234268
 20
6.482347309
 30
0.0
 10
12.0428296649
 20
6.4909029806
 30
0.0
 10
12.0481572186
 20
6.4991838145
 30
0.0
 10
12.053893853
 20
6.507170649
 30
0.0
 10
12.0600263743
 20
6.5148451416
 30
0.0
 10
12.0665403677
 20
6.5221893798
 30
0.0
 10
12.0711282605
 20
6.5268548724
 30
0.0
 10
12.0734798092
 20
6.5291262802
 30
0.0
  0
SPLINE
  5
3AD
100
AcDbEntity
  8
0
100
AcDbSpline
 62
7
  6
CONTINUOUS
 70
0
 71
3
 72
21
 73
17
 74
0
 42
0.0000001
 43
0.0000001
 44
0.0000000001
 40
0.0
 40
0.0
 40
0.0
 40
0.0
 40
0.1273176984
 40
0.2537999461
 40
0.3167619614
 40
0.3795355204
 40
0.4421314992
 40
0.5045621453
 40
0.5668413456
 40
0.6289845231
 40
0.6910084433
 40
0.7529310869
 40
0.8147714401
 40
0.8765493236
 40
0.9382852134
 40
1.0
 40
1.0
 40
1.0
 40
1.0
 10
10.3546299792
 20
8.3424175413
 30
0.0
 10
10.3546299792
 20
8.3491623494
 30
0.0
 10
10.3552738162
 20
8.3626163888
 30
0.0
 10
10.3577054075
 20
8.3792484859
 30
0.0
 10
10.3606116745
 20
8.3922949095
 30
0.0
 10
10.3632620385
 20
8.401917958
 30
0.0
 10
10.3663800331
 20
8.4113700097
 30
0.0
 10
10.3699584699
 20
8.4206295442
 30
0.0
 10
10.3739890986
 20
8.4296751457
 30
0.0
 10
10.3784627064
 20
8.4384859372
 30
0.0
 10
10.3833689446
 20
8.4470416087
 30
0.0
 10
10.3886964982
 20
8.4553224427
 30
0.0
 10
10.3944331326
 20
8.4633092772
 30
0.0
 10
10.4005656539
 20
8.4709837697
 30
0.0
 10
10.4070796473
 20
8.478328008
 30
0.0
 10
10.4116675401
 20
8.4829935006
 30
0.0
 10
10.4140190888
 20
8.4852649084
 30
0.0
  0
SPLINE
  5
3AE
100
AcDbEntity
  8
0
100
AcDbSpline
 62
7
  6
CONTINUOUS
 70
0
 71
3
 72
21
 73
17
 74
0
 42
0.0000001
 43
0.0000001
 44
0.0000000001
 40
0.0
 40
0.0
 40
0.0
 40
0.0
 40
0.1273176984
 40
0.2537999461
 40
0.3167619614
 40
0.3795355204
 40
0.4421314992
 40
0.5045621453
 40
0.5668413456
 40
0.6289845231
 40
0.6910084433
 40
0.7529310869
 40
0.8147714401
 40
0.8765493236
 40
0.9382852134
 40
1.0
 40
1.0
 40
1.0
 40
1.0
 10
8.9965381983
 20
10.0960621026
 30
0.0
 10
8.9965381983
 20
10.1028069107
 30
0.0
 10
8.9971820353
 20
10.1162609502
 30
0.0
 10
8.9996136265
 20
10.1328930472
 30
0.0
 10
9.0025198936
 20
10.1459394709
 30
0.0
 10
9.0051702575
 20
10.1555625193
 30
0.0
 10
9.0082882522
 20
10.1650145711
 30
0.0
 10
9.0118666889
 20
10.1742741056
 30
0.0
 10
9.0158973176
 20
10.183319707
 30
0.0
 10
9.0203709255
 20
10.1921304986
 30
0.0
 10
9.0252771636
 20
10.2006861701
 30
0.0
 10
9.0306047172
 20
10.208967004
 30
0.0
 10
9.0363413517
 20
10.2169538386
 30
0.0
 10
9.0424738729
 20
10.2246283311
 30
0.0
 10
9.0489878664
 20
10.2319725694
 30
0.0
 10
9.0535757591
 20
10.236638062
 30
0.0
 10
9.0559273078
 20
10.2389094697
 30
0.0
  0
SPLINE
  5
3AF
100
AcDbEntity
  8
0
100
AcDbSpline
 62
7
  6
CONTINUOUS
 70
0
 71
3
 72
21
 73
17
 74
0
 42
0.0000001
 43
0.0000001
 44
0.0000000001
 40
0.0
 40
0.0
 40
0.0
 40
0.0
 40
0.1273176984
 40
0.2537999461
 40
0.3167619614
 40
0.3795355204
 40
0.4421314992
 40
0.5045621453
 40
0.5668413456
 40
0.6289845231
 40
0.6910084433
 40
0.7529310869
 40
0.8147714401
 40
0.8765493236
 40
0.9382852134
 40
1.0
 40
1.0
 40
1.0
 40
1.0
 10
11.1389617165
 20
8.2880239505
 30
0.0
 10
11.1389617165
 20
8.2947687586
 30
0.0
 10
11.1396055535
 20
8.3082227981
 30
0.0
 10
11.1420371447
 20
8.3248548951
 30
0.0
 10
11.1449434118
 20
8.3379013188
 30
0.0
 10
11.1475937757
 20
8.3475243672
 30
0.0
 10
11.1507117704
 20
8.356976419
 30
0.0
 10
11.1542902072
 20
8.3662359535
 30
0.0
 10
11.1583208358
 20
8.3752815549
 30
0.0
 10
11.1627944437
 20
8.3840923465
 30
0.0
 10
11.1677006818
 20
8.392648018
 30
0.0
 10
11.1730282355
 20
8.4009288519
 30
0.0
 10
11.1787648699
 20
8.4089156865
 30
0.0
 10
11.1848973911
 20
8.416590179
 30
0.0
 10
11.1914113846
 20
8.4239344173
 30
0.0
 10
11.1959992774
 20
8.4285999099
 30
0.0
 10
11.198350826
 20
8.4308713176
 30
0.0
  0
SPLINE
  5
3B0
100
AcDbEntity
  8
0
100
AcDbSpline
 62
7
  6
CONTINUOUS
 70
0
 71
3
 72
21
 73
17
 74
0
 42
0.0000001
 43
0.0000001
 44
0.0000000001
 40
0.0
 40
0.0
 40
0.0
 40
0.0
 40
0.1273176984
 40
0.2537999461
 40
0.3167619614
 40
0.3795355204
 40
0.4421314992
 40
0.5045621453
 40
0.5668413456
 40
0.6289845231
 40
0.6910084433
 40
0.7529310869
 40
0.8147714401
 40
0.8765493236
 40
0.9382852134
 40
1.0
 40
1.0
 40
1.0
 40
1.0
 10
12.0140906996
 20
9.8867941259
 30
0.0
 10
12.0140906996
 20
9.893538934
 30
0.0
 10
12.0147345366
 20
9.9069929734
 30
0.0
 10
12.0171661279
 20
9.9236250705
 30
0.0
 10
12.0200723949
 20
9.9366714941
 30
0.0
 10
12.0227227589
 20
9.9462945426
 30
0.0
 10
12.0258407535
 20
9.9557465943
 30
0.0
 10
12.0294191903
 20
9.9650061289
 30
0.0
 10
12.033449819
 20
9.9740517303
 30
0.0
 10
12.0379234268
 20
9.9828625218
 30
0.0
 10
12.0428296649
 20
9.9914181934
 30
0.0
 10
12.0481572186
 20
9.9996990273
 30
0.0
 10
12.053893853
 20
10.0076858619
 30
0.0
 10
12.0600263743
 20
10.0153603544
 30
0.0
 10
12.0665403677
 20
10.0227045926
 30
0.0
 10
12.0711282605
 20
10.0273700852
 30
0.0
 10
12.0734798092
 20
10.029641493
 30
0.0
  0
SPLINE
  5
3B1
100
AcDbEntity
  8
0
100
AcDbSpline
 62
7
  6
CONTINUOUS
 70
0
 71
3
 72
21
 73
17
 74
0
 42
0.0000001
 43
0.0000001
 44
0.0000000001
 40
0.0
 40
0.0
 40
0.0
 40
0.0
 40
0.1273176984
 40
0.2537999461
 40
0.3167619614
 40
0.3795355204
 40
0.4421314992
 40
0.5045621453
 40
0.5668413456
 40
0.6289845231
 40
0.6910084433
 40
0.7529310869
 40
0.8147714401
 40
0.8765493236
 40
0.9382852134
 40
1.0
 40
1.0
 40
1.0
 40
1.0
 10
10.7467959054
 20
8.8889805841
 30
0.0
 10
10.7467959054
 20
8.8957253922
 30
0.0
 10
10.7474397424
 20
8.9091794316
 30
0.0
 10
10.7498713337
 20
8.9258115287
 30
0.0
 10
10.7527776008
 20
8.9388579523
 30
0.0
 10
10.7554279647
 20
8.9484810008
 30
0.0
 10
10.7585459594
 20
8.9579330525
 30
0.0
 10
10.7621243961
 20
8.967192587
 30
0.0
 10
10.7661550248
 20
8.9762381885
 30
0.0
 10
10.7706286327
 20
8.98504898
 30
0.0
 10
10.7755348708
 20
8.9936046515
 30
0.0
 10
10.7808624244
 20
9.0018854855
 30
0.0
 10
10.7865990588
 20
9.00987232
 30
0.0
 10
10.7927315801
 20
9.0175468125
 30
0.0
 10
10.7992455735
 20
9.0248910508
 30
0.0
 10
10.8038334663
 20
9.0295565434
 30
0.0
 10
10.806185015
 20
9.0318279512
 30
0.0
  0
SPLINE
  5
3B2
100
AcDbEntity
  8
0
100
AcDbSpline
 62
7
  6
CONTINUOUS
 70
0
 71
3
 72
28
 73
24
 74
0
 42
0.0000001
 43
0.0000001
 44
0.0000000001
 40
0.0
 40
0.0
 40
0.0
 40
0.0
 40
0.0225655013
 40
0.046026953
 40
0.0703616385
 40
0.0955445476
 40
0.1215486256
 40
0.1483450408
 40
0.1759031406
 40
0.2041907466
 40
0.2331742348
 40
0.2628185474
 40
0.3239424268
 40
0.3872600919
 40
0.4524523061
 40
0.5191867768
 40
0.587120662
 40
0.6559030611
 40
0.7251774343
 40
0.7945839784
 40
0.8637621463
 40
0.9323521615
 40
1.0
 40
1.0
 40
1.0
 40
1.0
 10
12.8171406639
 20
8.1234238325
 30
0.0
 10
12.8186344825
 20
8.1270886654
 30
0.0
 10
12.8215941709
 20
8.1345996559
 30
0.0
 10
12.8258750222
 20
8.1461743658
 30
0.0
 10
12.8300790363
 20
8.1582642916
 30
0.0
 10
12.8342003516
 20
8.1708526595
 30
0.0
 10
12.8382332643
 20
8.1839221015
 30
0.0
 10
12.8421721275
 20
8.1974545518
 30
0.0
 10
12.8460114967
 20
8.2114312914
 30
0.0
 10
12.8497460196
 20
8.2258329774
 30
0.0
 10
12.853370513
 20
8.2406396966
 30
0.0
 10
12.8580979068
 20
8.2611035567
 30
0.0
 10
12.8636829726
 20
8.287546974
 30
0.0
 10
12.8698044934
 20
8.3202398394
 30
0.0
 10
12.8753776073
 20
8.3540282405
 30
0.0
 10
12.8803712318
 20
8.3887250698
 30
0.0
 10
12.8847575169
 20
8.4241383377
 30
0.0
 10
12.8885120413
 20
8.4600719702
 30
0.0
 10
12.8916139201
 20
8.4963270007
 30
0.0
 10
12.8940459295
 20
8.5327026618
 30
0.0
 10
12.8957945991
 20
8.5689974688
 30
0.0
 10
12.8968503349
 20
8.6050103623
 30
0.0
 10
12.897090427
 20
8.628904664
 30
0.0
 10
12.897090427
 20
8.6407688897
 30
0.0
  0
SPLINE
  5
3B3
100
AcDbEntity
  8
0
100
AcDbSpline
 62
7
  6
CONTINUOUS
 70
0
 71
3
 72
33
 73
29
 74
0
 42
0.0000001
 43
0.0000001
 44
0.0000000001
 40
0.0
 40
0.0
 40
0.0
 40
0.0
 40
0.0183285557
 40
0.0378653201
 40
0.0586024281
 40
0.0805248108
 40
0.103611322
 40
0.1278355814
 40
0.1531666195
 40
0.1795693605
 40
0.2070050794
 40
0.235431781
 40
0.2648045007
 40
0.2950755405
 40
0.3261947108
 40
0.3581095766
 40
0.3907656524
 40
0.4241065722
 40
0.4580742543
 40
0.4926091011
 40
0.5276501621
 40
0.5631352864
 40
0.6351828357
 40
0.7082376549
 40
0.7817751268
 40
0.855266195
 40
0.9281820185
 40
1.0
 40
1.0
 40
1.0
 40
1.0
 10
12.8394032652
 20
8.0251985708
 30
0.0
 10
12.8414766488
 20
8.0285180421
 30
0.0
 10
12.8455939091
 20
8.035480508
 30
0.0
 10
12.8515161163
 20
8.0465073794
 30
0.0
 10
12.8573711516
 20
8.0584311972
 30
0.0
 10
12.863147693
 20
8.0712292213
 30
0.0
 10
12.8688347472
 20
8.0848773845
 30
0.0
 10
12.874421375
 20
8.0993497812
 30
0.0
 10
12.8798968211
 20
8.1146188982
 30
0.0
 10
12.8852505414
 20
8.1306556191
 30
0.0
 10
12.8904722199
 20
8.1474293147
 30
0.0
 10
12.8955517886
 20
8.1649079166
 30
0.0
 10
12.9004794468
 20
8.1830579832
 30
0.0
 10
12.9052456949
 20
8.2018447579
 30
0.0
 10
12.9098413534
 20
8.2212322408
 30
0.0
 10
12.9142575663
 20
8.2411832716
 30
0.0
 10
12.918485822
 20
8.2616596032
 30
0.0
 10
12.9225179709
 20
8.2826219691
 30
0.0
 10
12.9263462587
 20
8.3040301599
 30
0.0
 10
12.9299633091
 20
8.3258430971
 30
0.0
 10
12.9333621878
 20
8.3480189641
 30
0.0
 10
12.937615658
 20
8.3781655218
 30
0.0
 10
12.9423336037
 20
8.4164413707
 30
0.0
 10
12.9470052643
 20
8.4628981521
 30
0.0
 10
12.9506790408
 20
8.5097537242
 30
0.0
 10
12.9533267819
 20
8.5566487723
 30
0.0
 10
12.954928233
 20
8.6032236376
 30
0.0
 10
12.9552939841
 20
8.6341305119
 30
0.0
 10
12.9552939841
 20
8.6494662006
 30
0.0
  0
SPLINE
  5
3B4
100
AcDbEntity
  8
0
100
AcDbSpline
 62
7
  6
CONTINUOUS
 70
0
 71
3
 72
54
 73
50
 74
0
 42
0.0000001
 43
0.0000001
 44
0.0000000001
 40
0.0
 40
0.0
 40
0.0
 40
0.0
 40
0.0056188246
 40
0.0111420516
 40
0.0166418694
 40
0.0221914681
 40
0.0278619479
 40
0.0337195739
 40
0.0398239211
 40
0.0462268279
 40
0.0529722976
 40
0.0600968419
 40
0.0676302291
 40
0.0755963126
 40
0.0840138248
 40
0.0928972021
 40
0.1022571318
 40
0.1121012514
 40
0.1224344331
 40
0.1332593625
 40
0.144576634
 40
0.156385226
 40
0.1686824944
 40
0.1814645454
 40
0.1947262024
 40
0.2084612713
 40
0.2226625306
 40
0.2373218891
 40
0.2524304271
 40
0.267978452
 40
0.2839555994
 40
0.3003508017
 40
0.3343475959
 40
0.3698697203
 40
0.4068092226
 40
0.4450510283
 40
0.4844737811
 40
0.5249506107
 40
0.5663498503
 40
0.6085357213
 40
0.6513689944
 40
0.6947076352
 40
0.7384074413
 40
0.7823226671
 40
0.826306664
 40
0.8702124533
 40
0.9138935095
 40
0.9572039299
 40
1.0
 40
1.0
 40
1.0
 40
1.0
 10
12.8997345669
 20
7.9341565021
 30
0.0
 10
12.901112675
 20
7.9336692716
 30
0.0
 10
12.9039016826
 20
7.9328530367
 30
0.0
 10
12.9081800782
 20
7.9321299511
 30
0.0
 10
12.9124969372
 20
7.9319247064
 30
0.0
 10
12.9168453143
 20
7.9322374901
 30
0.0
 10
12.9212194213
 20
7.9330670287
 30
0.0
 10
12.9256140556
 20
7.9344107242
 30
0.0
 10
12.9300248866
 20
7.9362656331
 30
0.0
 10
12.9344483069
 20
7.9386284475
 30
0.0
 10
12.9388810315
 20
7.9414959929
 30
0.0
 10
12.9433199399
 20
7.9448650046
 30
0.0
 10
12.9477618556
 20
7.9487321553
 30
0.0
 10
12.9522034725
 20
7.9530939163
 30
0.0
 10
12.9566413984
 20
7.9579464265
 30
0.0
 10
12.9610720379
 20
7.9632855221
 30
0.0
 10
12.9654918061
 20
7.9691065657
 30
0.0
 10
12.96989691
 20
7.9754045773
 30
0.0
 10
12.9742836581
 20
7.9821740628
 30
0.0
 10
12.9786481659
 20
7.9894091725
 30
0.0
 10
12.9829866994
 20
7.9971035532
 30
0.0
 10
12.9872953632
 20
8.005250489
 30
0.0
 10
12.9915704191
 20
8.0138427924
 30
0.0
 10
12.9958080155
 20
8.0228729075
 30
0.0
 10
13.0000044348
 20
8.0323328443
 30
0.0
 10
13.0041559053
 20
8.0422142418
 30
0.0
 10
13.00825875
 20
8.0525083405
 30
0.0
 10
13.0123092997
 20
8.0632060126
 30
0.0
 10
13.0163039385
 20
8.0742977638
 30
0.0
 10
13.0202391087
 20
8.0857737368
 30
0.0
 10
13.0241113001
 20
8.0976237472
 30
0.0
 10
13.029247744
 20
8.1141080148
 30
0.0
 10
13.035472834
 20
8.135576311
 30
0.0
 10
13.0425513268
 20
8.1623533207
 30
0.0
 10
13.0493001139
 20
8.1903524384
 30
0.0
 10
13.0556950025
 20
8.2194740346
 30
0.0
 10
13.0617130505
 20
8.2496146295
 30
0.0
 10
13.0673326896
 20
8.2806669993
 30
0.0
 10
13.0725337893
 20
8.3125206497
 30
0.0
 10
13.0772977302
 20
8.3450621976
 30
0.0
 10
13.0816074677
 20
8.3781757881
 30
0.0
 10
13.0854475919
 20
8.4117435112
 30
0.0
 10
13.088804381
 20
8.4456458267
 30
0.0
 10
13.0916658512
 20
8.4797619953
 30
0.0
 10
13.0940217942
 20
8.5139705056
 30
0.0
 10
13.0958638251
 20
8.5481495284
 30
0.0
 10
13.0971853871
 20
8.5821773159
 30
0.0
 10
13.0979818198
 20
8.6159326185
 30
0.0
 10
13.098162097
 20
8.6383330722
 30
0.0
 10
13.098162097
 20
8.6494662088
 30
0.0
  0
SPLINE
  5
3B5
100
AcDbEntity
  8
0
100
AcDbSpline
 62
7
  6
CONTINUOUS
 70
0
 71
3
 72
53
 73
49
 74
0
 42
0.0000001
 43
0.0000001
 44
0.0000000001
 40
0.0
 40
0.0
 40
0.0
 40
0.0
 40
0.0055310092
 40
0.0112690295
 40
0.0172575102
 40
0.0235340177
 40
0.0301303479
 40
0.0370730515
 40
0.0443838738
 40
0.0520804704
 40
0.0601768154
 40
0.0686838599
 40
0.0776098075
 40
0.0869606445
 40
0.0967403027
 40
0.1069510574
 40
0.1175936254
 40
0.1286674438
 40
0.1401707472
 40
0.1521007405
 40
0.1644536856
 40
0.1772249824
 40
0.19040928
 40
0.2040004815
 40
0.2179918832
 40
0.2323761202
 40
0.2471453293
 40
0.2622910534
 40
0.2778044178
 40
0.2936760133
 40
0.3264538307
 40
0.3605418808
 40
0.395851141
 40
0.4322874065
 40
0.4697518598
 40
0.5081415967
 40
0.547350121
 40
0.587267818
 40
0.6277824133
 40
0.6687794206
 40
0.7101425825
 40
0.7517543076
 40
0.7934961004
 40
0.8352490035
 40
0.8768939901
 40
0.918312514
 40
0.9593866094
 40
1.0
 40
1.0
 40
1.0
 40
1.0
 10
12.9090858337
 20
7.7019450111
 30
0.0
 10
12.9109990931
 20
7.7023906055
 30
0.0
 10
12.9148526745
 20
7.7035002047
 30
0.0
 10
12.9205625535
 20
7.7057507823
 30
0.0
 10
12.9262901132
 20
7.7086105077
 30
0.0
 10
12.9320306749
 20
7.712075932
 30
0.0
 10
12.9377809246
 20
7.7161435821
 30
0.0
 10
12.9435371082
 20
7.7208099966
 30
0.0
 10
12.9492956505
 20
7.7260713433
 30
0.0
 10
12.9550526536
 20
7.7319236827
 30
0.0
 10
12.9608043053
 20
7.738362562
 30
0.0
 10
12.9665464941
 20
7.745383286
 30
0.0
 10
12.9722752174
 20
7.7529806102
 30
0.0
 10
12.9779862352
 20
7.7611489646
 30
0.0
 10
12.9836754254
 20
7.7698822498
 30
0.0
 10
12.9893385041
 20
7.7791739936
 30
0.0
 10
12.9949712887
 20
7.7890172339
 30
0.0
 10
13.0005695111
 20
7.7994046102
 30
0.0
 10
13.0061289711
 20
7.8103283124
 30
0.0
 10
13.0116454546
 20
7.8217801215
 30
0.0
 10
13.017114776
 20
7.8337514034
 30
0.0
 10
13.0225328003
 20
7.8462331146
 30
0.0
 10
13.0278953822
 20
7.8592158253
 30
0.0
 10
13.0331984815
 20
7.8726897037
 30
0.0
 10
13.0384380169
 20
7.8866445545
 30
0.0
 10
13.0436100529
 20
7.9010697939
 30
0.0
 10
13.0487105952
 20
7.9159544945
 30
0.0
 10
13.0537358143
 20
7.9312873545
 30
0.0
 10
13.058681849
 20
7.9470567605
 30
0.0
 10
13.0652363204
 20
7.9688831827
 30
0.0
 10
13.0731905089
 20
7.9971751041
 30
0.0
 10
13.0822622474
 20
8.0323153056
 30
0.0
 10
13.090932336
 20
8.0688933501
 30
0.0
 10
13.099174282
 20
8.106798144
 30
0.0
 10
13.1069628848
 20
8.1459147222
 30
0.0
 10
13.1142743495
 20
8.1861243297
 30
0.0
 10
13.1210863471
 20
8.2273048722
 30
0.0
 10
13.1273780846
 20
8.2693312731
 30
0.0
 10
13.1331303659
 20
8.3120758654
 30
0.0
 10
13.138325649
 20
8.355408783
 30
0.0
 10
13.1429480991
 20
8.39919836
 30
0.0
 10
13.146983635
 20
8.4433115336
 30
0.0
 10
13.1504199734
 20
8.4876142527
 30
0.0
 10
13.1532466615
 20
8.5319718821
 30
0.0
 10
13.1554551199
 20
8.576249631
 30
0.0
 10
13.1570386451
 20
8.6203129333
 30
0.0
 10
13.157992471
 20
8.6640278172
 30
0.0
 10
13.1582080659
 20
8.6930413979
 30
0.0
 10
13.1582080659
 20
8.7074661644
 30
0.0
  0
SPLINE
  5
3B6
100
AcDbEntity
  8
0
100
AcDbSpline
 62
7
  6
CONTINUOUS
 70
0
 71
3
 72
42
 73
38
 74
0
 42
0.0000001
 43
0.0000001
 44
0.0000000001
 40
0.0
 40
0.0
 40
0.0
 40
0.0
 40
0.0299419634
 40
0.0449235299
 40
0.0599142017
 40
0.0899287029
 40
0.1200139772
 40
0.1350926626
 40
0.1501967046
 40
0.1804840506
 40
0.2108978877
 40
0.2414513551
 40
0.2721543675
 40
0.3030134354
 40
0.3340315696
 40
0.3652082675
 40
0.3965395775
 40
0.4280182343
 40
0.4596338596
 40
0.4913732188
 40
0.5232205284
 40
0.5551578047
 40
0.5871652463
 40
0.6192216448
 40
0.6513048151
 40
0.6833920402
 40
0.7154605222
 40
0.747487836
 40
0.7794523759
 40
0.8113337934
 40
0.8431134117
 40
0.8747746318
 40
0.9063032512
 40
0.9376879208
 40
0.9533258
 40
0.9689252634
 40
1.0
 40
1.0
 40
1.0
 40
1.0
 10
9.3602246257
 20
9.9238743474
 30
0.0
 10
9.3565914865
 20
9.9203650258
 30
0.0
 10
9.3509276191
 20
9.9153136927
 30
0.0
 10
9.3429955003
 20
9.9090460884
 30
0.0
 10
9.3348107833
 20
9.9030903696
 30
0.0
 10
9.3241310735
 20
9.8962512749
 30
0.0
 10
9.3129321098
 20
9.8902690463
 30
0.0
 10
9.303695867
 20
9.886013283
 30
0.0
 10
9.2942688306
 20
9.8821088395
 30
0.0
 10
9.2821743703
 20
9.8779104592
 30
0.0
 10
9.2672697812
 20
9.8739976741
 30
0.0
 10
9.2520399717
 20
9.871225767
 30
0.0
 10
9.2365693432
 20
9.8696100303
 30
0.0
 10
9.220942879
 20
9.8691590866
 30
0.0
 10
9.2052465606
 20
9.8698752309
 30
0.0
 10
9.1895666582
 20
9.8717543264
 30
0.0
 10
9.1739893262
 20
9.8747858635
 30
0.0
 10
9.1586001171
 20
9.8789530177
 30
0.0
 10
9.1434835231
 20
9.8842327489
 30
0.0
 10
9.1287225174
 20
9.8905959317
 30
0.0
 10
9.1143981054
 20
9.8980075175
 30
0.0
 10
9.1005888867
 20
9.9064267274
 30
0.0
 10
9.0873706292
 20
9.9158072763
 30
0.0
 10
9.0748158586
 20
9.9260976254
 30
0.0
 10
9.0629934656
 20
9.9372412636
 30
0.0
 10
9.0519683316
 20
9.9491770145
 30
0.0
 10
9.0418009768
 20
9.9618393695
 30
0.0
 10
9.0325472311
 20
9.9751588439
 30
0.0
 10
9.0242579303
 20
9.9890623503
 30
0.0
 10
9.016978639
 20
10.0034736113
 30
0.0
 10
9.0107494036
 20
10.0183135125
 30
0.0
 10
9.0056045205
 20
10.0335007519
 30
0.0
 10
9.0015724115
 20
10.0489514653
 30
0.0
 10
8.9991550726
 20
10.0619935425
 30
0.0
 10
8.9977990172
 20
10.0724726934
 30
0.0
 10
8.9968312337
 20
10.0829418167
 30
0.0
 10
8.9965381983
 20
10.0908197614
 30
0.0
 10
8.9965381983
 20
10.0960621026
 30
0.0
  0
SPLINE
  5
3B7
100
AcDbEntity
  8
0
100
AcDbSpline
 62
7
  6
CONTINUOUS
 70
0
 71
3
 72
21
 73
17
 74
0
 42
0.0000001
 43
0.0000001
 44
0.0000000001
 40
0.0
 40
0.0
 40
0.0
 40
0.0
 40
0.0492266269
 40
0.1005797552
 40
0.1539994448
 40
0.209419658
 40
0.2667685877
 40
0.3259693097
 40
0.3869403221
 40
0.4495957201
 40
0.5138456276
 40
0.5795966055
 40
0.646751802
 40
0.7152115638
 40
0.8556276588
 40
1.0
 40
1.0
 40
1.0
 40
1.0
 10
12.8711587647
 20
8.9026677606
 30
0.0
 10
12.8722242513
 20
8.8984724315
 30
0.0
 10
12.8742917563
 20
8.8898724352
 30
0.0
 10
12.8771548459
 20
8.8766363062
 30
0.0
 10
12.8798417502
 20
8.8628081081
 30
0.0
 10
12.8823479377
 20
8.848410702
 30
0.0
 10
12.884669247
 20
8.8334677705
 30
0.0
 10
12.8868018123
 20
8.8180039561
 30
0.0
 10
12.8887420558
 20
8.8020447563
 30
0.0
 10
12.8904867428
 20
8.7856165045
 30
0.0
 10
12.8920329772
 20
8.7687463191
 30
0.0
 10
12.8933781568
 20
8.7514620612
 30
0.0
 10
12.8945200616
 20
8.733792236
 30
0.0
 10
12.8957795266
 20
8.7095528724
 30
0.0
 10
12.8968212852
 20
8.6785060519
 30
0.0
 10
12.897090427
 20
8.6534636034
 30
0.0
 10
12.897090427
 20
8.6407688897
 30
0.0
  0
SPLINE
  5
3B8
100
AcDbEntity
  8
0
100
AcDbSpline
 62
7
  6
CONTINUOUS
 70
0
 71
3
 72
42
 73
38
 74
0
 42
0.0000001
 43
0.0000001
 44
0.0000000001
 40
0.0
 40
0.0
 40
0.0
 40
0.0
 40
0.0299419634
 40
0.0449235299
 40
0.0599142017
 40
0.0899287029
 40
0.1200139772
 40
0.1350926626
 40
0.1501967046
 40
0.1804840506
 40
0.2108978877
 40
0.2414513551
 40
0.2721543675
 40
0.3030134354
 40
0.3340315696
 40
0.3652082675
 40
0.3965395775
 40
0.4280182343
 40
0.4596338596
 40
0.4913732188
 40
0.5232205284
 40
0.5551578047
 40
0.5871652463
 40
0.6192216448
 40
0.6513048151
 40
0.6833920402
 40
0.7154605222
 40
0.747487836
 40
0.7794523759
 40
0.8113337934
 40
0.8431134117
 40
0.8747746318
 40
0.9063032512
 40
0.9376879208
 40
0.9533258
 40
0.9689252634
 40
1.0
 40
1.0
 40
1.0
 40
1.0
 10
12.377777127
 20
9.7146063707
 30
0.0
 10
12.3741439879
 20
9.7110970491
 30
0.0
 10
12.3684801204
 20
9.706045716
 30
0.0
 10
12.3605480016
 20
9.6997781116
 30
0.0
 10
12.3523632847
 20
9.6938223928
 30
0.0
 10
12.3416835749
 20
9.6869832982
 30
0.0
 10
12.3304846111
 20
9.6810010696
 30
0.0
 10
12.3212483684
 20
9.6767453063
 30
0.0
 10
12.3118213319
 20
9.6728408627
 30
0.0
 10
12.2997268716
 20
9.6686424825
 30
0.0
 10
12.2848222826
 20
9.6647296974
 30
0.0
 10
12.2695924731
 20
9.6619577903
 30
0.0
 10
12.2541218445
 20
9.6603420536
 30
0.0
 10
12.2384953804
 20
9.6598911099
 30
0.0
 10
12.2227990619
 20
9.6606072542
 30
0.0
 10
12.2071191596
 20
9.6624863497
 30
0.0
 10
12.1915418276
 20
9.6655178868
 30
0.0
 10
12.1761526185
 20
9.6696850409
 30
0.0
 10
12.1610360244
 20
9.6749647721
 30
0.0
 10
12.1462750187
 20
9.681327955
 30
0.0
 10
12.1319506068
 20
9.6887395408
 30
0.0
 10
12.1181413881
 20
9.6971587507
 30
0.0
 10
12.1049231306
 20
9.7065392995
 30
0.0
 10
12.09236836
 20
9.7168296487
 30
0.0
 10
12.0805459669
 20
9.7279732868
 30
0.0
 10
12.0695208329
 20
9.7399090378
 30
0.0
 10
12.0593534781
 20
9.7525713927
 30
0.0
 10
12.0500997324
 20
9.7658908671
 30
0.0
 10
12.0418104316
 20
9.7797943736
 30
0.0
 10
12.0345311403
 20
9.7942056346
 30
0.0
 10
12.028301905
 20
9.8090455358
 30
0.0
 10
12.0231570218
 20
9.8242327751
 30
0.0
 10
12.0191249129
 20
9.8396834886
 30
0.0
 10
12.016707574
 20
9.8527255658
 30
0.0
 10
12.0153515186
 20
9.8632047167
 30
0.0
 10
12.0143837351
 20
9.8736738399
 30
0.0
 10
12.0140906996
 20
9.8815517846
 30
0.0
 10
12.0140906996
 20
9.8867941259
 30
0.0
  0
SPLINE
  5
3B9
100
AcDbEntity
  8
0
100
AcDbSpline
 62
7
  6
CONTINUOUS
 70
0
 71
3
 72
21
 73
17
 74
0
 42
0.0000001
 43
0.0000001
 44
0.0000000001
 40
0.0
 40
0.0
 40
0.0
 40
0.0
 40
0.1273176984
 40
0.2537999461
 40
0.3167619614
 40
0.3795355204
 40
0.4421314992
 40
0.5045621453
 40
0.5668413456
 40
0.6289845231
 40
0.6910084433
 40
0.7529310869
 40
0.8147714401
 40
0.8765493236
 40
0.9382852134
 40
1.0
 40
1.0
 40
1.0
 40
1.0
 10
8.9965381983
 20
6.5955468898
 30
0.0
 10
8.9965381983
 20
6.6022916979
 30
0.0
 10
8.9971820353
 20
6.6157457373
 30
0.0
 10
8.9996136265
 20
6.6323778344
 30
0.0
 10
9.0025198936
 20
6.6454242581
 30
0.0
 10
9.0051702575
 20
6.6550473065
 30
0.0
 10
9.0082882522
 20
6.6644993583
 30
0.0
 10
9.0118666889
 20
6.6737588928
 30
0.0
 10
9.0158973176
 20
6.6828044942
 30
0.0
 10
9.0203709255
 20
6.6916152858
 30
0.0
 10
9.0252771636
 20
6.7001709573
 30
0.0
 10
9.0306047172
 20
6.7084517912
 30
0.0
 10
9.0363413517
 20
6.7164386258
 30
0.0
 10
9.0424738729
 20
6.7241131183
 30
0.0
 10
9.0489878664
 20
6.7314573566
 30
0.0
 10
9.0535757591
 20
6.7361228491
 30
0.0
 10
9.0559273078
 20
6.7383942569
 30
0.0
  0
SPLINE
  5
3BA
100
AcDbEntity
  8
0
100
AcDbSpline
 62
7
  6
CONTINUOUS
 70
0
 71
3
 72
27
 73
23
 74
0
 42
0.0000001
 43
0.0000001
 44
0.0000000001
 40
0.0
 40
0.0
 40
0.0
 40
0.0
 40
0.0201833248
 40
0.0411944541
 40
0.0630321207
 40
0.0856927821
 40
0.1091711292
 40
0.1334600614
 40
0.1585509729
 40
0.184433845
 40
0.2385273026
 40
0.2956378357
 40
0.3556443378
 40
0.4184112109
 40
0.483790052
 40
0.5516210549
 40
0.6217342502
 40
0.6939505152
 40
0.7680827709
 40
0.843936317
 40
0.9213111177
 40
1.0
 40
1.0
 40
1.0
 40
1.0
 10
12.9068036488
 20
8.9967671993
 30
0.0
 10
12.9077704826
 20
8.9946001542
 30
0.0
 10
12.9096785803
 20
8.9901478467
 30
0.0
 10
12.9124155699
 20
8.983260335
 30
0.0
 10
12.9150829645
 20
8.9760342901
 30
0.0
 10
12.9176788625
 20
8.9684749743
 30
0.0
 10
12.9202013651
 20
8.9605877783
 30
0.0
 10
12.922648661
 20
8.9523783809
 30
0.0
 10
12.9250189994
 20
8.9438526706
 30
0.0
 10
12.9281201616
 20
8.9318950494
 30
0.0
 10
12.9317775239
 20
8.9161953345
 30
0.0
 10
12.9357717695
 20
8.8964639939
 30
0.0
 10
12.9394216755
 20
8.8756302059
 30
0.0
 10
12.9427165424
 20
8.8537540732
 30
0.0
 10
12.9456466632
 20
8.8308985487
 30
0.0
 10
12.9482034187
 20
8.8071295602
 30
0.0
 10
12.9503792809
 20
8.7825157134
 30
0.0
 10
12.9521678489
 20
8.7571280871
 30
0.0
 10
12.953563843
 20
8.7310400698
 30
0.0
 10
12.9545631601
 20
8.7043269907
 30
0.0
 10
12.9551628193
 20
8.6770662225
 30
0.0
 10
12.9552939841
 20
8.6587176061
 30
0.0
 10
12.9552939841
 20
8.6494662006
 30
0.0
  0
SPLINE
  5
3BB
100
AcDbEntity
  8
0
100
AcDbSpline
 62
7
  6
CONTINUOUS
 70
0
 71
3
 72
50
 73
46
 74
0
 42
0.0000001
 43
0.0000001
 44
0.0000000001
 40
0.0
 40
0.0
 40
0.0
 40
0.0
 40
0.006670426
 40
0.0132428558
 40
0.0197604389
 40
0.0262674972
 40
0.0328085955
 40
0.0394275349
 40
0.0461664844
 40
0.0530651785
 40
0.0601603817
 40
0.0674856043
 40
0.0750708334
 40
0.0829426969
 40
0.0911245181
 40
0.0996364836
 40
0.108496054
 40
0.1177180196
 40
0.1273149072
 40
0.1372972355
 40
0.1476735723
 40
0.1584509799
 40
0.1696350077
 40
0.1812298862
 40
0.193238807
 40
0.2056637902
 40
0.2317643651
 40
0.2595330063
 40
0.2889582287
 40
0.320019236
 40
0.3526872244
 40
0.3869264969
 40
0.4226953282
 40
0.4599466295
 40
0.498628448
 40
0.5386844578
 40
0.5800543964
 40
0.6226744033
 40
0.6664772894
 40
0.7113928366
 40
0.7573480367
 40
0.8042674556
 40
0.8520734042
 40
0.9006853467
 40
1.0
 40
1.0
 40
1.0
 40
1.0
 10
12.9791055921
 20
9.0786521905
 30
0.0
 10
12.9801356197
 20
9.0788624415
 30
0.0
 10
12.9821981429
 20
9.0791990457
 30
0.0
 10
12.9853062473
 20
9.079444457
 30
0.0
 10
12.9883985156
 20
9.0794255394
 30
0.0
 10
12.9914728384
 20
9.0791421435
 30
0.0
 10
12.9945274051
 20
9.0785944338
 30
0.0
 10
12.9975604232
 20
9.0777829729
 30
0.0
 10
13.0005701921
 20
9.0767083516
 30
0.0
 10
13.0035551749
 20
9.0753714764
 30
0.0
 10
13.0065139812
 20
9.0737733436
 30
0.0
 10
13.0094452626
 20
9.0719149308
 30
0.0
 10
13.0123478535
 20
9.0697974312
 30
0.0
 10
13.0152205527
 20
9.0674219554
 30
0.0
 10
13.0180622058
 20
9.0647897154
 30
0.0
 10
13.0208717268
 20
9.0619020325
 30
0.0
 10
13.0236479161
 20
9.0587602048
 30
0.0
 10
13.0263896799
 20
9.0553657154
 30
0.0
 10
13.02909587
 20
9.0517200951
 30
0.0
 10
13.0317652957
 20
9.0478249609
 30
0.0
 10
13.0343968695
 20
9.0436820975
 30
0.0
 10
13.0369893927
 20
9.039293336
 30
0.0
 10
13.039541738
 20
9.0346606568
 30
0.0
 10
13.0420527922
 20
9.0297861573
 30
0.0
 10
13.0445214073
 20
9.0246720029
 30
0.0
 10
13.0478089158
 20
9.017417166
 30
0.0
 10
13.0517920933
 20
9.0077543754
 30
0.0
 10
13.056310068
 20
8.9954259438
 30
0.0
 10
13.0606333105
 20
8.9822030666
 30
0.0
 10
13.0647539073
 20
8.9681097152
 30
0.0
 10
13.0686643086
 20
8.9531712441
 30
0.0
 10
13.0723573115
 20
8.937414733
 30
0.0
 10
13.0758260954
 20
8.9208687859
 30
0.0
 10
13.0790642371
 20
8.9035635065
 30
0.0
 10
13.0820657506
 20
8.8855304326
 30
0.0
 10
13.0848250881
 20
8.8668024681
 30
0.0
 10
13.0873371427
 20
8.8474138058
 30
0.0
 10
13.0895972579
 20
8.8273998627
 30
0.0
 10
13.0916012507
 20
8.8067972177
 30
0.0
 10
13.0933454177
 20
8.7856435497
 30
0.0
 10
13.0948265348
 20
8.76397754
 30
0.0
 10
13.0960418463
 20
8.7418388203
 30
0.0
 10
13.096989111
 20
8.7192679121
 30
0.0
 10
13.0978987662
 20
8.688433093
 30
0.0
 10
13.098162097
 20
8.6651183162
 30
0.0
 10
13.098162097
 20
8.6494662088
 30
0.0
  0
SPLINE
  5
3BC
100
AcDbEntity
  8
0
100
AcDbSpline
 62
7
  6
CONTINUOUS
 70
0
 71
3
 72
42
 73
38
 74
0
 42
0.0000001
 43
0.0000001
 44
0.0000000001
 40
0.0
 40
0.0
 40
0.0
 40
0.0
 40
0.0299419634
 40
0.0449235299
 40
0.0599142017
 40
0.0899287029
 40
0.1200139772
 40
0.1350926626
 40
0.1501967046
 40
0.1804840506
 40
0.2108978877
 40
0.2414513551
 40
0.2721543675
 40
0.3030134354
 40
0.3340315696
 40
0.3652082675
 40
0.3965395775
 40
0.4280182343
 40
0.4596338596
 40
0.4913732188
 40
0.5232205284
 40
0.5551578047
 40
0.5871652463
 40
0.6192216448
 40
0.6513048151
 40
0.6833920402
 40
0.7154605222
 40
0.747487836
 40
0.7794523759
 40
0.8113337934
 40
0.8431134117
 40
0.8747746318
 40
0.9063032512
 40
0.9376879208
 40
0.9533258
 40
0.9689252634
 40
1.0
 40
1.0
 40
1.0
 40
1.0
 10
9.3602246257
 20
6.4233591346
 30
0.0
 10
9.3565914865
 20
6.419849813
 30
0.0
 10
9.3509276191
 20
6.4147984799
 30
0.0
 10
9.3429955003
 20
6.4085308756
 30
0.0
 10
9.3348107833
 20
6.4025751567
 30
0.0
 10
9.3241310735
 20
6.3957360621
 30
0.0
 10
9.3129321098
 20
6.3897538335
 30
0.0
 10
9.303695867
 20
6.3854980702
 30
0.0
 10
9.2942688306
 20
6.3815936267
 30
0.0
 10
9.2821743703
 20
6.3773952464
 30
0.0
 10
9.2672697812
 20
6.3734824613
 30
0.0
 10
9.2520399717
 20
6.3707105542
 30
0.0
 10
9.2365693432
 20
6.3690948175
 30
0.0
 10
9.220942879
 20
6.3686438738
 30
0.0
 10
9.2052465606
 20
6.3693600181
 30
0.0
 10
9.1895666582
 20
6.3712391136
 30
0.0
 10
9.1739893262
 20
6.3742706507
 30
0.0
 10
9.1586001171
 20
6.3784378048
 30
0.0
 10
9.1434835231
 20
6.3837175361
 30
0.0
 10
9.1287225174
 20
6.3900807189
 30
0.0
 10
9.1143981054
 20
6.3974923047
 30
0.0
 10
9.1005888867
 20
6.4059115146
 30
0.0
 10
9.0873706292
 20
6.4152920635
 30
0.0
 10
9.0748158586
 20
6.4255824126
 30
0.0
 10
9.0629934656
 20
6.4367260508
 30
0.0
 10
9.0519683316
 20
6.4486618017
 30
0.0
 10
9.0418009768
 20
6.4613241566
 30
0.0
 10
9.0325472311
 20
6.474643631
 30
0.0
 10
9.0242579303
 20
6.4885471375
 30
0.0
 10
9.016978639
 20
6.5029583985
 30
0.0
 10
9.0107494036
 20
6.5177982997
 30
0.0
 10
9.0056045205
 20
6.5329855391
 30
0.0
 10
9.0015724115
 20
6.5484362525
 30
0.0
 10
8.9991550726
 20
6.5614783297
 30
0.0
 10
8.9977990172
 20
6.5719574806
 30
0.0
 10
8.9968312337
 20
6.5824266038
 30
0.0
 10
8.9965381983
 20
6.5903045485
 30
0.0
 10
8.9965381983
 20
6.5955468898
 30
0.0
  0
SPLINE
  5
3BD
100
AcDbEntity
  8
0
100
AcDbSpline
 62
7
  6
CONTINUOUS
 70
0
 71
3
 72
47
 73
43
 74
0
 42
0.0000001
 43
0.0000001
 44
0.0000000001
 40
0.0
 40
0.0
 40
0.0
 40
0.0
 40
0.0064144467
 40
0.012984337
 40
0.0266854612
 40
0.0338678987
 40
0.0412956316
 40
0.0489855751
 40
0.0569525871
 40
0.0652096113
 40
0.0737679502
 40
0.0826372667
 40
0.0918258244
 40
0.1013406715
 40
0.1111876088
 40
0.1213714704
 40
0.1318961697
 40
0.1427646997
 40
0.1539793887
 40
0.1655418283
 40
0.1774529534
 40
0.2023214229
 40
0.2285831471
 40
0.2562281637
 40
0.2852404538
 40
0.3155986726
 40
0.3472767986
 40
0.3802447069
 40
0.4144685763
 40
0.4499111747
 40
0.4865322121
 40
0.5242886262
 40
0.5631347755
 40
0.6030226023
 40
0.6439018735
 40
0.685720358
 40
0.728423941
 40
0.7719567197
 40
0.8162613526
 40
0.8612789546
 40
0.9069488385
 40
1.0
 40
1.0
 40
1.0
 40
1.0
 10
13.0203778043
 20
9.3073665653
 30
0.0
 10
13.0216429768
 20
9.3068809652
 30
0.0
 10
13.0241698747
 20
9.3058065071
 30
0.0
 10
13.0292006961
 20
9.3032547269
 30
0.0
 10
13.0341083769
 20
9.3001317665
 30
0.0
 10
13.0388694432
 20
9.2965083532
 30
0.0
 10
13.0424636457
 20
9.2934587888
 30
0.0
 10
13.04602275
 20
9.2901217558
 30
0.0
 10
13.0495459556
 20
9.2864983165
 30
0.0
 10
13.0530320339
 20
9.2825899177
 30
0.0
 10
13.0564797863
 20
9.2783979261
 30
0.0
 10
13.0598880724
 20
9.2739239011
 30
0.0
 10
13.0632557367
 20
9.2691694605
 30
0.0
 10
13.0665815581
 20
9.2641362852
 30
0.0
 10
13.0698644291
 20
9.2588262207
 30
0.0
 10
13.0731031686
 20
9.2532411638
 30
0.0
 10
13.0762966005
 20
9.2473831159
 30
0.0
 10
13.0794436375
 20
9.2412542131
 30
0.0
 10
13.0825430966
 20
9.2348566518
 30
0.0
 10
13.0855938998
 20
9.2281927396
 30
0.0
 10
13.0896537021
 20
9.2188205649
 30
0.0
 10
13.0945869329
 20
9.2064457384
 30
0.0
 10
13.1002133807
 20
9.1907800161
 30
0.0
 10
13.105620239
 20
9.1741144845
 30
0.0
 10
13.1107995911
 20
9.1564733458
 30
0.0
 10
13.115743856
 20
9.1378820248
 30
0.0
 10
13.1204457808
 20
9.1183674853
 30
0.0
 10
13.1248984423
 20
9.0979580534
 30
0.0
 10
13.1290952651
 20
9.0766834049
 30
0.0
 10
13.1330300747
 20
9.0545745199
 30
0.0
 10
13.136697075
 20
9.0316636234
 30
0.0
 10
13.1400908517
 20
9.0079841223
 30
0.0
 10
13.1432063895
 20
8.9835705647
 30
0.0
 10
13.1460391076
 20
8.9584585924
 30
0.0
 10
13.14858483
 20
8.9326848756
 30
0.0
 10
13.1508397923
 20
8.9062870517
 30
0.0
 10
13.1528006638
 20
8.8793036911
 30
0.0
 10
13.154464569
 20
8.8517742075
 30
0.0
 10
13.1558290389
 20
8.8237388411
 30
0.0
 10
13.1568920661
 20
8.7952385818
 30
0.0
 10
13.15791165
 20
8.7564334372
 30
0.0
 10
13.1582080659
 20
8.7271248457
 30
0.0
 10
13.1582080659
 20
8.7074661644
 30
0.0
  0
SPLINE
  5
3BE
100
AcDbEntity
  8
0
100
AcDbSpline
 62
7
  6
CONTINUOUS
 70
0
 71
3
 72
50
 73
46
 74
0
 42
0.0000001
 43
0.0000001
 44
0.0000000001
 40
0.0
 40
0.0
 40
0.0
 40
0.0
 40
0.0063158628
 40
0.0126706388
 40
0.0191024575
 40
0.0256479993
 40
0.0323418674
 40
0.039216204
 40
0.0536140195
 40
0.0611947492
 40
0.0690565012
 40
0.0772176038
 40
0.0856940071
 40
0.0944993844
 40
0.1036455057
 40
0.1131422796
 40
0.1229980214
 40
0.1332196594
 40
0.1438127402
 40
0.1547817587
 40
0.1661301165
 40
0.1778602858
 40
0.1899739713
 40
0.2024720154
 40
0.2153546703
 40
0.2422704625
 40
0.2707126998
 40
0.3006636352
 40
0.3320988302
 40
0.3649880253
 40
0.3992958242
 40
0.4349822322
 40
0.4720031
 40
0.5103105418
 40
0.5498532687
 40
0.5905768749
 40
0.6324240735
 40
0.6753349284
 40
0.7192471051
 40
0.764096031
 40
0.8098151214
 40
0.8563360409
 40
0.9035881022
 40
0.9515011825
 40
1.0
 40
1.0
 40
1.0
 40
1.0
 10
13.0360828708
 20
9.3086390477
 30
0.0
 10
13.0374468495
 20
9.3085444495
 30
0.0
 10
13.040176764
 20
9.3082430105
 30
0.0
 10
13.0442410337
 20
9.3074573158
 30
0.0
 10
13.0482781545
 20
9.3063381872
 30
0.0
 10
13.0522857218
 20
9.30488638
 30
0.0
 10
13.0562622076
 20
9.3031028579
 30
0.0
 10
13.0616015535
 20
9.3002406455
 30
0.0
 10
13.0667959059
 20
9.2967368754
 30
0.0
 10
13.0718227002
 20
9.2926765386
 30
0.0
 10
13.0756196272
 20
9.2892532057
 30
0.0
 10
13.0793760318
 20
9.2855063869
 30
0.0
 10
13.0830909068
 20
9.2814373596
 30
0.0
 10
13.0867628185
 20
9.2770479498
 30
0.0
 10
13.0903903476
 20
9.272339887
 30
0.0
 10
13.0939721303
 20
9.267315123
 30
0.0
 10
13.0975067873
 20
9.2619756963
 30
0.0
 10
13.1009928799
 20
9.2563237467
 30
0.0
 10
13.1044290927
 20
9.250361599
 30
0.0
 10
13.1078139947
 20
9.2440916464
 30
0.0
 10
13.1111462458
 20
9.2375164502
 30
0.0
 10
13.1144245172
 20
9.2306386916
 30
0.0
 10
13.1176474153
 20
9.2234611615
 30
0.0
 10
13.1208137194
 20
9.2159867993
 30
0.0
 10
13.1250196768
 20
9.2054752761
 30
0.0
 10
13.1301126908
 20
9.1916045197
 30
0.0
 10
13.135892249
 20
9.1740614052
 30
0.0
 10
13.1414162254
 20
9.155413659
 30
0.0
 10
13.1466754762
 20
9.135691879
 30
0.0
 10
13.1516612778
 20
9.114928209
 30
0.0
 10
13.1563653345
 20
9.0931566647
 30
0.0
 10
13.1607798116
 20
9.0704129579
 30
0.0
 10
13.1648973632
 20
9.046734461
 30
0.0
 10
13.1687111295
 20
9.022160119
 30
0.0
 10
13.1722147544
 20
8.9967303758
 30
0.0
 10
13.1754023929
 20
8.970487106
 30
0.0
 10
13.1782687325
 20
8.9434735488
 30
0.0
 10
13.1808090027
 20
8.9157342299
 30
0.0
 10
13.1830189684
 20
8.8873148844
 30
0.0
 10
13.1848949445
 20
8.8582623734
 30
0.0
 10
13.1864337991
 20
8.8286245855
 30
0.0
 10
13.1876329493
 20
8.798450504
 30
0.0
 10
13.1884904363
 20
8.7677896611
 30
0.0
 10
13.1890047575
 20
8.7366929743
 30
0.0
 10
13.1891176949
 20
8.7158215774
 30
0.0
 10
13.1891176949
 20
8.7053225743
 30
0.0
  0
SPLINE
  5
3BF
100
AcDbEntity
  8
0
100
AcDbSpline
 62
7
  6
CONTINUOUS
 70
0
 71
3
 72
42
 73
38
 74
0
 42
0.0000001
 43
0.0000001
 44
0.0000000001
 40
0.0
 40
0.0
 40
0.0
 40
0.0
 40
0.0299419634
 40
0.0449235299
 40
0.0599142017
 40
0.0899287029
 40
0.1200139772
 40
0.1350926626
 40
0.1501967046
 40
0.1804840506
 40
0.2108978877
 40
0.2414513551
 40
0.2721543675
 40
0.3030134354
 40
0.3340315696
 40
0.3652082675
 40
0.3965395775
 40
0.4280182343
 40
0.4596338596
 40
0.4913732188
 40
0.5232205284
 40
0.5551578047
 40
0.5871652463
 40
0.6192216448
 40
0.6513048151
 40
0.6833920402
 40
0.7154605222
 40
0.747487836
 40
0.7794523759
 40
0.8113337934
 40
0.8431134117
 40
0.8747746318
 40
0.9063032512
 40
0.9376879208
 40
0.9533258
 40
0.9689252634
 40
1.0
 40
1.0
 40
1.0
 40
1.0
 10
11.1104823328
 20
8.7167928289
 30
0.0
 10
11.1068491937
 20
8.7132835073
 30
0.0
 10
11.1011853262
 20
8.7082321741
 30
0.0
 10
11.0932532074
 20
8.7019645698
 30
0.0
 10
11.0850684905
 20
8.696008851
 30
0.0
 10
11.0743887807
 20
8.6891697563
 30
0.0
 10
11.063189817
 20
8.6831875278
 30
0.0
 10
11.0539535742
 20
8.6789317645
 30
0.0
 10
11.0445265377
 20
8.6750273209
 30
0.0
 10
11.0324320774
 20
8.6708289407
 30
0.0
 10
11.0175274884
 20
8.6669161555
 30
0.0
 10
11.0022976789
 20
8.6641442485
 30
0.0
 10
10.9868270504
 20
8.6625285118
 30
0.0
 10
10.9712005862
 20
8.6620775681
 30
0.0
 10
10.9555042677
 20
8.6627937124
 30
0.0
 10
10.9398243654
 20
8.6646728078
 30
0.0
 10
10.9242470334
 20
8.667704345
 30
0.0
 10
10.9088578243
 20
8.6718714991
 30
0.0
 10
10.8937412303
 20
8.6771512303
 30
0.0
 10
10.8789802245
 20
8.6835144132
 30
0.0
 10
10.8646558126
 20
8.690925999
 30
0.0
 10
10.8508465939
 20
8.6993452088
 30
0.0
 10
10.8376283364
 20
8.7087257577
 30
0.0
 10
10.8250735658
 20
8.7190161069
 30
0.0
 10
10.8132511728
 20
8.730159745
 30
0.0
 10
10.8022260388
 20
8.742095496
 30
0.0
 10
10.7920586839
 20
8.7547578509
 30
0.0
 10
10.7828049383
 20
8.7680773253
 30
0.0
 10
10.7745156374
 20
8.7819808318
 30
0.0
 10
10.7672363461
 20
8.7963920928
 30
0.0
 10
10.7610071108
 20
8.811231994
 30
0.0
 10
10.7558622277
 20
8.8264192333
 30
0.0
 10
10.7518301187
 20
8.8418699467
 30
0.0
 10
10.7494127798
 20
8.854912024
 30
0.0
 10
10.7480567244
 20
8.8653911749
 30
0.0
 10
10.7470889409
 20
8.8758602981
 30
0.0
 10
10.7467959054
 20
8.8837382428
 30
0.0
 10
10.7467959054
 20
8.8889805841
 30
0.0
  0
SPLINE
  5
3C0
100
AcDbEntity
  8
0
100
AcDbSpline
 62
7
  6
CONTINUOUS
 70
0
 71
3
 72
42
 73
38
 74
0
 42
0.0000001
 43
0.0000001
 44
0.0000000001
 40
0.0
 40
0.0
 40
0.0
 40
0.0
 40
0.0299419634
 40
0.0449235299
 40
0.0599142017
 40
0.0899287029
 40
0.1200139772
 40
0.1350926626
 40
0.1501967046
 40
0.1804840506
 40
0.2108978877
 40
0.2414513551
 40
0.2721543675
 40
0.3030134354
 40
0.3340315696
 40
0.3652082675
 40
0.3965395775
 40
0.4280182343
 40
0.4596338596
 40
0.4913732188
 40
0.5232205284
 40
0.5551578047
 40
0.5871652463
 40
0.6192216448
 40
0.6513048151
 40
0.6833920402
 40
0.7154605222
 40
0.747487836
 40
0.7794523759
 40
0.8113337934
 40
0.8431134117
 40
0.8747746318
 40
0.9063032512
 40
0.9376879208
 40
0.9533258
 40
0.9689252634
 40
1.0
 40
1.0
 40
1.0
 40
1.0
 10
12.377777127
 20
6.2140911579
 30
0.0
 10
12.3741439879
 20
6.2105818363
 30
0.0
 10
12.3684801204
 20
6.2055305032
 30
0.0
 10
12.3605480016
 20
6.1992628988
 30
0.0
 10
12.3523632847
 20
6.19330718
 30
0.0
 10
12.3416835749
 20
6.1864680854
 30
0.0
 10
12.3304846111
 20
6.1804858568
 30
0.0
 10
12.3212483684
 20
6.1762300935
 30
0.0
 10
12.3118213319
 20
6.1723256499
 30
0.0
 10
12.2997268716
 20
6.1681272697
 30
0.0
 10
12.2848222826
 20
6.1642144845
 30
0.0
 10
12.2695924731
 20
6.1614425775
 30
0.0
 10
12.2541218445
 20
6.1598268408
 30
0.0
 10
12.2384953804
 20
6.1593758971
 30
0.0
 10
12.2227990619
 20
6.1600920414
 30
0.0
 10
12.2071191596
 20
6.1619711369
 30
0.0
 10
12.1915418276
 20
6.165002674
 30
0.0
 10
12.1761526185
 20
6.1691698281
 30
0.0
 10
12.1610360244
 20
6.1744495593
 30
0.0
 10
12.1462750187
 20
6.1808127422
 30
0.0
 10
12.1319506068
 20
6.188224328
 30
0.0
 10
12.1181413881
 20
6.1966435379
 30
0.0
 10
12.1049231306
 20
6.2060240867
 30
0.0
 10
12.09236836
 20
6.2163144359
 30
0.0
 10
12.0805459669
 20
6.227458074
 30
0.0
 10
12.0695208329
 20
6.239393825
 30
0.0
 10
12.0593534781
 20
6.2520561799
 30
0.0
 10
12.0500997324
 20
6.2653756543
 30
0.0
 10
12.0418104316
 20
6.2792791608
 30
0.0
 10
12.0345311403
 20
6.2936904218
 30
0.0
 10
12.028301905
 20
6.308530323
 30
0.0
 10
12.0231570218
 20
6.3237175623
 30
0.0
 10
12.0191249129
 20
6.3391682758
 30
0.0
 10
12.016707574
 20
6.352210353
 30
0.0
 10
12.0153515186
 20
6.3626895039
 30
0.0
 10
12.0143837351
 20
6.3731586271
 30
0.0
 10
12.0140906996
 20
6.3810365718
 30
0.0
 10
12.0140906996
 20
6.3862789131
 30
0.0
  0
SPLINE
  5
3C1
100
AcDbEntity
  8
0
100
AcDbSpline
 62
7
  6
CONTINUOUS
 70
0
 71
3
 72
15
 73
11
 74
0
 42
0.0000001
 43
0.0000001
 44
0.0000000001
 40
0.0
 40
0.0
 40
0.0
 40
0.0
 40
0.1233171261
 40
0.2468171865
 40
0.3706749939
 40
0.4950495802
 40
0.6200773232
 40
0.7458671315
 40
0.872492731
 40
1.0
 40
1.0
 40
1.0
 40
1.0
 10
10.0167615805
 20
9.1118911189
 30
0.0
 10
10.0142370468
 20
9.1094526278
 30
0.0
 10
10.0089170762
 20
9.104840202
 30
0.0
 10
10.0002343599
 20
9.0988130118
 30
0.0
 10
9.990930535
 20
9.0937321706
 30
0.0
 10
9.9811008344
 20
9.0896499
 30
0.0
 10
9.9708444125
 20
9.0866067295
 30
0.0
 10
9.9602645883
 20
9.0846330865
 30
0.0
 10
9.9494693574
 20
9.0837481673
 30
0.0
 10
9.9422230751
 20
9.0838895088
 30
0.0
 10
9.9386025931
 20
9.0841405901
 30
0.0
  0
SPLINE
  5
3C2
100
AcDbEntity
  8
0
100
AcDbSpline
 62
7
  6
CONTINUOUS
 70
0
 71
3
 72
15
 73
11
 74
0
 42
0.0000001
 43
0.0000001
 44
0.0000000001
 40
0.0
 40
0.0
 40
0.0
 40
0.0
 40
0.1233171261
 40
0.2468171865
 40
0.3706749939
 40
0.4950495802
 40
0.6200773232
 40
0.7458671315
 40
0.872492731
 40
1.0
 40
1.0
 40
1.0
 40
1.0
 10
10.0167615805
 20
7.3606675271
 30
0.0
 10
10.0142370468
 20
7.3582290359
 30
0.0
 10
10.0089170762
 20
7.3536166102
 30
0.0
 10
10.0002343599
 20
7.34758942
 30
0.0
 10
9.990930535
 20
7.3425085787
 30
0.0
 10
9.9811008344
 20
7.3384263082
 30
0.0
 10
9.9708444125
 20
7.3353831377
 30
0.0
 10
9.9602645883
 20
7.3334094946
 30
0.0
 10
9.9494693574
 20
7.3325245755
 30
0.0
 10
9.9422230751
 20
7.332665917
 30
0.0
 10
9.9386025931
 20
7.3329169983
 30
0.0
  0
SPLINE
  5
3C3
100
AcDbEntity
  8
0
100
AcDbSpline
 62
7
  6
CONTINUOUS
 70
0
 71
3
 72
42
 73
38
 74
0
 42
0.0000001
 43
0.0000001
 44
0.0000000001
 40
0.0
 40
0.0
 40
0.0
 40
0.0
 40
0.0299419634
 40
0.0449235299
 40
0.0599142017
 40
0.0899287029
 40
0.1200139772
 40
0.1350926626
 40
0.1501967046
 40
0.1804840506
 40
0.2108978877
 40
0.2414513551
 40
0.2721543675
 40
0.3030134354
 40
0.3340315696
 40
0.3652082675
 40
0.3965395775
 40
0.4280182343
 40
0.4596338596
 40
0.4913732188
 40
0.5232205284
 40
0.5551578047
 40
0.5871652463
 40
0.6192216448
 40
0.6513048151
 40
0.6833920402
 40
0.7154605222
 40
0.747487836
 40
0.7794523759
 40
0.8113337934
 40
0.8431134117
 40
0.8747746318
 40
0.9063032512
 40
0.9376879208
 40
0.9533258
 40
0.9689252634
 40
1.0
 40
1.0
 40
1.0
 40
1.0
 10
11.5026481439
 20
8.1158361953
 30
0.0
 10
11.4990150047
 20
8.1123268738
 30
0.0
 10
11.4933511373
 20
8.1072755406
 30
0.0
 10
11.4854190185
 20
8.1010079363
 30
0.0
 10
11.4772343015
 20
8.0950522175
 30
0.0
 10
11.4665545918
 20
8.0882131228
 30
0.0
 10
11.455355628
 20
8.0822308942
 30
0.0
 10
11.4461193852
 20
8.0779751309
 30
0.0
 10
11.4366923488
 20
8.0740706874
 30
0.0
 10
11.4245978885
 20
8.0698723071
 30
0.0
 10
11.4096932995
 20
8.065959522
 30
0.0
 10
11.39446349
 20
8.0631876149
 30
0.0
 10
11.3789928614
 20
8.0615718782
 30
0.0
 10
11.3633663973
 20
8.0611209345
 30
0.0
 10
11.3476700788
 20
8.0618370788
 30
0.0
 10
11.3319901765
 20
8.0637161743
 30
0.0
 10
11.3164128445
 20
8.0667477114
 30
0.0
 10
11.3010236353
 20
8.0709148656
 30
0.0
 10
11.2859070413
 20
8.0761945968
 30
0.0
 10
11.2711460356
 20
8.0825577797
 30
0.0
 10
11.2568216236
 20
8.0899693654
 30
0.0
 10
11.243012405
 20
8.0983885753
 30
0.0
 10
11.2297941474
 20
8.1077691242
 30
0.0
 10
11.2172393769
 20
8.1180594733
 30
0.0
 10
11.2054169838
 20
8.1292031115
 30
0.0
 10
11.1943918498
 20
8.1411388624
 30
0.0
 10
11.184224495
 20
8.1538012174
 30
0.0
 10
11.1749707493
 20
8.1671206918
 30
0.0
 10
11.1666814485
 20
8.1810241983
 30
0.0
 10
11.1594021572
 20
8.1954354592
 30
0.0
 10
11.1531729218
 20
8.2102753605
 30
0.0
 10
11.1480280387
 20
8.2254625998
 30
0.0
 10
11.1439959298
 20
8.2409133132
 30
0.0
 10
11.1415785909
 20
8.2539553904
 30
0.0
 10
11.1402225355
 20
8.2644345414
 30
0.0
 10
11.139254752
 20
8.2749036646
 30
0.0
 10
11.1389617165
 20
8.2827816093
 30
0.0
 10
11.1389617165
 20
8.2880239505
 30
0.0
  0
SPLINE
  5
3C4
100
AcDbEntity
  8
0
100
AcDbSpline
 62
7
  6
CONTINUOUS
 70
0
 71
3
 72
15
 73
11
 74
0
 42
0.0000001
 43
0.0000001
 44
0.0000000001
 40
0.0
 40
0.0
 40
0.0
 40
0.0
 40
0.1233171261
 40
0.2468171865
 40
0.3706749939
 40
0.4950495802
 40
0.6200773232
 40
0.7458671315
 40
0.872492731
 40
1.0
 40
1.0
 40
1.0
 40
1.0
 10
12.0683882271
 20
7.2183867359
 30
0.0
 10
12.0658636935
 20
7.2159482448
 30
0.0
 10
12.0605437228
 20
7.211335819
 30
0.0
 10
12.0518610065
 20
7.2053086288
 30
0.0
 10
12.0425571816
 20
7.2002277876
 30
0.0
 10
12.032727481
 20
7.196145517
 30
0.0
 10
12.0224710591
 20
7.1931023465
 30
0.0
 10
12.0118912349
 20
7.1911287034
 30
0.0
 10
12.001096004
 20
7.1902437843
 30
0.0
 10
11.9938497218
 20
7.1903851258
 30
0.0
 10
11.9902292397
 20
7.1906362071
 30
0.0
  0
SPLINE
  5
3C5
100
AcDbEntity
  8
0
100
AcDbSpline
 62
7
  6
CONTINUOUS
 70
0
 71
3
 72
42
 73
38
 74
0
 42
0.0000001
 43
0.0000001
 44
0.0000000001
 40
0.0
 40
0.0
 40
0.0
 40
0.0
 40
0.0299419634
 40
0.0449235299
 40
0.0599142017
 40
0.0899287029
 40
0.1200139772
 40
0.1350926626
 40
0.1501967046
 40
0.1804840506
 40
0.2108978877
 40
0.2414513551
 40
0.2721543675
 40
0.3030134354
 40
0.3340315696
 40
0.3652082675
 40
0.3965395775
 40
0.4280182343
 40
0.4596338596
 40
0.4913732188
 40
0.5232205284
 40
0.5551578047
 40
0.5871652463
 40
0.6192216448
 40
0.6513048151
 40
0.6833920402
 40
0.7154605222
 40
0.747487836
 40
0.7794523759
 40
0.8113337934
 40
0.8431134117
 40
0.8747746318
 40
0.9063032512
 40
0.9376879208
 40
0.9533258
 40
0.9689252634
 40
1.0
 40
1.0
 40
1.0
 40
1.0
 10
10.7183164066
 20
8.1702297861
 30
0.0
 10
10.7146832675
 20
8.1667204645
 30
0.0
 10
10.7090194
 20
8.1616691313
 30
0.0
 10
10.7010872812
 20
8.155401527
 30
0.0
 10
10.6929025643
 20
8.1494458082
 30
0.0
 10
10.6822228545
 20
8.1426067135
 30
0.0
 10
10.6710238907
 20
8.136624485
 30
0.0
 10
10.661787648
 20
8.1323687216
 30
0.0
 10
10.6523606115
 20
8.1284642781
 30
0.0
 10
10.6402661512
 20
8.1242658978
 30
0.0
 10
10.6253615622
 20
8.1203531127
 30
0.0
 10
10.6101317527
 20
8.1175812057
 30
0.0
 10
10.5946611241
 20
8.115965469
 30
0.0
 10
10.57903466
 20
8.1155145253
 30
0.0
 10
10.5633383415
 20
8.1162306696
 30
0.0
 10
10.5476584392
 20
8.118109765
 30
0.0
 10
10.5320811072
 20
8.1211413022
 30
0.0
 10
10.5166918981
 20
8.1253084563
 30
0.0
 10
10.501575304
 20
8.1305881875
 30
0.0
 10
10.4868142983
 20
8.1369513704
 30
0.0
 10
10.4724898864
 20
8.1443629561
 30
0.0
 10
10.4586806677
 20
8.152782166
 30
0.0
 10
10.4454624102
 20
8.1621627149
 30
0.0
 10
10.4329076396
 20
8.172453064
 30
0.0
 10
10.4210852465
 20
8.1835967022
 30
0.0
 10
10.4100601125
 20
8.1955324532
 30
0.0
 10
10.3998927577
 20
8.2081948081
 30
0.0
 10
10.390639012
 20
8.2215142825
 30
0.0
 10
10.3823497112
 20
8.235417789
 30
0.0
 10
10.3750704199
 20
8.24982905
 30
0.0
 10
10.3688411846
 20
8.2646689512
 30
0.0
 10
10.3636963014
 20
8.2798561905
 30
0.0
 10
10.3596641925
 20
8.2953069039
 30
0.0
 10
10.3572468536
 20
8.3083489811
 30
0.0
 10
10.3558907982
 20
8.3188281321
 30
0.0
 10
10.3549230147
 20
8.3292972553
 30
0.0
 10
10.3546299792
 20
8.3371752
 30
0.0
 10
10.3546299792
 20
8.3424175413
 30
0.0
  0
SPLINE
  5
3C6
100
AcDbEntity
  8
0
100
AcDbSpline
 62
7
  6
CONTINUOUS
 70
0
 71
3
 72
15
 73
11
 74
0
 42
0.0000001
 43
0.0000001
 44
0.0000000001
 40
0.0
 40
0.0
 40
0.0
 40
0.0
 40
0.1233171261
 40
0.2468171865
 40
0.3706749939
 40
0.4950495802
 40
0.6200773232
 40
0.7458671315
 40
0.872492731
 40
1.0
 40
1.0
 40
1.0
 40
1.0
 10
12.0683882271
 20
8.9696103277
 30
0.0
 10
12.0658636935
 20
8.9671718366
 30
0.0
 10
12.0605437228
 20
8.9625594108
 30
0.0
 10
12.0518610065
 20
8.9565322206
 30
0.0
 10
12.0425571816
 20
8.9514513794
 30
0.0
 10
12.032727481
 20
8.9473691088
 30
0.0
 10
12.0224710591
 20
8.9443259383
 30
0.0
 10
12.0118912349
 20
8.9423522953
 30
0.0
 10
12.001096004
 20
8.9414673761
 30
0.0
 10
11.9938497218
 20
8.9416087176
 30
0.0
 10
11.9902292397
 20
8.9418597989
 30
0.0
  0
SPLINE
  5
3C7
100
AcDbEntity
  8
0
100
AcDbSpline
 62
7
  6
CONTINUOUS
 70
0
 71
3
 72
42
 73
38
 74
0
 42
0.0000001
 43
0.0000001
 44
0.0000000001
 40
0.0
 40
0.0
 40
0.0
 40
0.0
 40
0.0299419634
 40
0.0449235299
 40
0.0599142017
 40
0.0899287029
 40
0.1200139772
 40
0.1350926626
 40
0.1501967046
 40
0.1804840506
 40
0.2108978877
 40
0.2414513551
 40
0.2721543675
 40
0.3030134354
 40
0.3340315696
 40
0.3652082675
 40
0.3965395775
 40
0.4280182343
 40
0.4596338596
 40
0.4913732188
 40
0.5232205284
 40
0.5551578047
 40
0.5871652463
 40
0.6192216448
 40
0.6513048151
 40
0.6833920402
 40
0.7154605222
 40
0.747487836
 40
0.7794523759
 40
0.8113337934
 40
0.8431134117
 40
0.8747746318
 40
0.9063032512
 40
0.9376879208
 40
0.9533258
 40
0.9689252634
 40
1.0
 40
1.0
 40
1.0
 40
1.0
 10
10.2044438891
 20
7.7827912339
 30
0.0
 10
10.2008107499
 20
7.7792819123
 30
0.0
 10
10.1951468825
 20
7.7742305792
 30
0.0
 10
10.1872147637
 20
7.7679629749
 30
0.0
 10
10.1790300467
 20
7.7620072561
 30
0.0
 10
10.168350337
 20
7.7551681614
 30
0.0
 10
10.1571513732
 20
7.7491859328
 30
0.0
 10
10.1479151304
 20
7.7449301695
 30
0.0
 10
10.138488094
 20
7.741025726
 30
0.0
 10
10.1263936337
 20
7.7368273457
 30
0.0
 10
10.1114890447
 20
7.7329145606
 30
0.0
 10
10.0962592352
 20
7.7301426535
 30
0.0
 10
10.0807886066
 20
7.7285269168
 30
0.0
 10
10.0651621425
 20
7.7280759731
 30
0.0
 10
10.049465824
 20
7.7287921174
 30
0.0
 10
10.0337859217
 20
7.7306712129
 30
0.0
 10
10.0182085896
 20
7.73370275
 30
0.0
 10
10.0028193805
 20
7.7378699041
 30
0.0
 10
9.9877027865
 20
7.7431496354
 30
0.0
 10
9.9729417808
 20
7.7495128182
 30
0.0
 10
9.9586173688
 20
7.756924404
 30
0.0
 10
9.9448081502
 20
7.7653436139
 30
0.0
 10
9.9315898926
 20
7.7747241628
 30
0.0
 10
9.9190351221
 20
7.7850145119
 30
0.0
 10
9.907212729
 20
7.7961581501
 30
0.0
 10
9.896187595
 20
7.808093901
 30
0.0
 10
9.8860202402
 20
7.8207562559
 30
0.0
 10
9.8767664945
 20
7.8340757304
 30
0.0
 10
9.8684771937
 20
7.8479792368
 30
0.0
 10
9.8611979024
 20
7.8623904978
 30
0.0
 10
9.854968667
 20
7.877230399
 30
0.0
 10
9.8498237839
 20
7.8924176384
 30
0.0
 10
9.845791675
 20
7.9078683518
 30
0.0
 10
9.8433743361
 20
7.920910429
 30
0.0
 10
9.8420182807
 20
7.9313895799
 30
0.0
 10
9.8410504972
 20
7.9418587031
 30
0.0
 10
9.8407574617
 20
7.9497366479
 30
0.0
 10
9.8407574617
 20
7.9549789891
 30
0.0
  0
SPLINE
  5
3C8
100
AcDbEntity
  8
0
100
AcDbSpline
 62
4
  6
CONTINUOUS
 70
0
 71
3
 72
319
 73
315
 74
0
 42
0.0000001
 43
0.0000001
 44
0.0000000001
 40
0.0
 40
0.0
 40
0.0
 40
0.0
 40
0.015625
 40
0.0234375
 40
0.03125
 40
0.0390625
 40
0.046875
 40
0.05078125
 40
0.0546875
 40
0.056640625
 40
0.05859375
 40
0.060546875
 40
0.0615234375
 40
0.0620117188
 40
0.0625
 40
0.0629882812
 40
0.0634765625
 40
0.064453125
 40
0.06640625
 40
0.068359375
 40
0.0703125
 40
0.07421875
 40
0.078125
 40
0.0859375
 40
0.09375
 40
0.1015625
 40
0.109375
 40
0.11328125
 40
0.1171875
 40
0.119140625
 40
0.12109375
 40
0.123046875
 40
0.1240234375
 40
0.1245117188
 40
0.125
 40
0.1254882812
 40
0.1259765625
 40
0.126953125
 40
0.12890625
 40
0.130859375
 40
0.1328125
 40
0.13671875
 40
0.140625
 40
0.1484375
 40
0.15625
 40
0.1640625
 40
0.16796875
 40
0.171875
 40
0.17578125
 40
0.1796875
 40
0.181640625
 40
0.18359375
 40
0.185546875
 40
0.1865234375
 40
0.1870117188
 40
0.1875
 40
0.1879882812
 40
0.1884765625
 40
0.189453125
 40
0.19140625
 40
0.193359375
 40
0.1953125
 40
0.19921875
 40
0.203125
 40
0.20703125
 40
0.2109375
 40
0.21875
 40
0.2265625
 40
0.23046875
 40
0.234375
 40
0.23828125
 40
0.2421875
 40
0.244140625
 40
0.24609375
 40
0.248046875
 40
0.2490234375
 40
0.2495117188
 40
0.25
 40
0.2504882812
 40
0.2509765625
 40
0.251953125
 40
0.25390625
 40
0.255859375
 40
0.2578125
 40
0.26171875
 40
0.265625
 40
0.26953125
 40
0.2734375
 40
0.28125
 40
0.2890625
 40
0.296875
 40
0.30078125
 40
0.3046875
 40
0.306640625
 40
0.30859375
 40
0.310546875
 40
0.3115234375
 40
0.3120117188
 40
0.3125
 40
0.3129882812
 40
0.3134765625
 40
0.314453125
 40
0.31640625
 40
0.318359375
 40
0.3203125
 40
0.32421875
 40
0.328125
 40
0.3359375
 40
0.34375
 40
0.3515625
 40
0.359375
 40
0.36328125
 40
0.3671875
 40
0.369140625
 40
0.37109375
 40
0.373046875
 40
0.3740234375
 40
0.3745117188
 40
0.375
 40
0.3754882812
 40
0.3759765625
 40
0.376953125
 40
0.37890625
 40
0.380859375
 40
0.3828125
 40
0.38671875
 40
0.390625
 40
0.3984375
 40
0.40625
 40
0.4140625
 40
0.41796875
 40
0.421875
 40
0.42578125
 40
0.4296875
 40
0.431640625
 40
0.43359375
 40
0.435546875
 40
0.4365234375
 40
0.4370117188
 40
0.4375
 40
0.4379882812
 40
0.4384765625
 40
0.439453125
 40
0.44140625
 40
0.443359375
 40
0.4453125
 40
0.44921875
 40
0.453125
 40
0.45703125
 40
0.4609375
 40
0.46875
 40
0.4765625
 40
0.484375
 40
0.48828125
 40
0.4921875
 40
0.494140625
 40
0.49609375
 40
0.498046875
 40
0.4990234375
 40
0.4995117188
 40
0.5
 40
0.5004882812
 40
0.5009765625
 40
0.501953125
 40
0.50390625
 40
0.505859375
 40
0.5078125
 40
0.51171875
 40
0.515625
 40
0.5234375
 40
0.53125
 40
0.5390625
 40
0.546875
 40
0.55078125
 40
0.5546875
 40
0.556640625
 40
0.55859375
 40
0.560546875
 40
0.5615234375
 40
0.5620117188
 40
0.5625
 40
0.5629882812
 40
0.5634765625
 40
0.564453125
 40
0.56640625
 40
0.568359375
 40
0.5703125
 40
0.57421875
 40
0.578125
 40
0.5859375
 40
0.59375
 40
0.6015625
 40
0.609375
 40
0.61328125
 40
0.6171875
 40
0.619140625
 40
0.62109375
 40
0.623046875
 40
0.6240234375
 40
0.6245117188
 40
0.625
 40
0.6254882812
 40
0.6259765625
 40
0.626953125
 40
0.62890625
 40
0.630859375
 40
0.6328125
 40
0.63671875
 40
0.640625
 40
0.6484375
 40
0.65625
 40
0.6640625
 40
0.671875
 40
0.67578125
 40
0.6796875
 40
0.681640625
 40
0.68359375
 40
0.685546875
 40
0.6865234375
 40
0.6870117188
 40
0.6875
 40
0.6879882812
 40
0.6884765625
 40
0.689453125
 40
0.69140625
 40
0.693359375
 40
0.6953125
 40
0.69921875
 40
0.703125
 40
0.7109375
 40
0.71875
 40
0.7265625
 40
0.734375
 40
0.73828125
 40
0.7421875
 40
0.744140625
 40
0.74609375
 40
0.748046875
 40
0.7490234375
 40
0.7495117188
 40
0.75
 40
0.7504882812
 40
0.7509765625
 40
0.751953125
 40
0.75390625
 40
0.755859375
 40
0.7578125
 40
0.76171875
 40
0.765625
 40
0.7734375
 40
0.78125
 40
0.7890625
 40
0.796875
 40
0.80078125
 40
0.8046875
 40
0.806640625
 40
0.80859375
 40
0.810546875
 40
0.8115234375
 40
0.8120117188
 40
0.8125
 40
0.8129882812
 40
0.8134765625
 40
0.814453125
 40
0.81640625
 40
0.818359375
 40
0.8203125
 40
0.82421875
 40
0.828125
 40
0.8359375
 40
0.84375
 40
0.8515625
 40
0.859375
 40
0.86328125
 40
0.8671875
 40
0.869140625
 40
0.87109375
 40
0.873046875
 40
0.8740234375
 40
0.8745117188
 40
0.875
 40
0.8754882812
 40
0.8759765625
 40
0.876953125
 40
0.87890625
 40
0.880859375
 40
0.8828125
 40
0.88671875
 40
0.890625
 40
0.8984375
 40
0.90625
 40
0.9140625
 40
0.921875
 40
0.92578125
 40
0.9296875
 40
0.931640625
 40
0.93359375
 40
0.935546875
 40
0.9365234375
 40
0.9370117188
 40
0.9375
 40
0.9379882812
 40
0.9384765625
 40
0.939453125
 40
0.94140625
 40
0.943359375
 40
0.9453125
 40
0.94921875
 40
0.953125
 40
0.9609375
 40
0.96875
 40
0.9765625
 40
0.984375
 40
1.0
 40
1.0
 40
1.0
 40
1.0
 10
10.8227176433
 20
7.0604336345
 30
0.0
 10
10.8195844564
 20
7.0603437101
 30
0.0
 10
10.814884676
 20
7.0602088237
 30
0.0
 10
10.8086183023
 20
7.0600289742
 30
0.0
 10
10.8039185215
 20
7.0598940896
 30
0.0
 10
10.7992187426
 20
7.0597591955
 30
0.0
 10
10.7953022544
 20
7.0596468132
 30
0.0
 10
10.7921690767
 20
7.0595568414
 30
0.0
 10
10.7902108113
 20
7.0595007593
 30
0.0
 10
10.7886442662
 20
7.0594555496
 30
0.0
 10
10.7874691734
 20
7.059422584
 30
0.0
 10
10.7864905146
 20
7.0593921169
 30
0.0
 10
10.7858043051
 20
7.0593766692
 30
0.0
 10
10.7854139784
 20
7.0593586619
 30
0.0
 10
10.7851161823
 20
7.0593710169
 30
0.0
 10
10.7848376942
 20
7.05928452
 30
0.0
 10
10.7844596419
 20
7.0592036714
 30
0.0
 10
10.7838011882
 20
7.0590461213
 30
0.0
 10
10.7828588997
 20
7.0588294488
 30
0.0
 10
10.7817288555
 20
7.0585658467
 30
0.0
 10
10.7802218848
 20
7.058215633
 30
0.0
 10
10.7783382554
 20
7.0577774358
 30
0.0
 10
10.7753244013
 20
7.0570765607
 30
0.0
 10
10.7715571
 20
7.0562003838
 30
0.0
 10
10.7670363306
 20
7.0551490094
 30
0.0
 10
10.7625155666
 20
7.0540976164
 30
0.0
 10
10.7587482516
 20
7.0532214859
 30
0.0
 10
10.755734425
 20
7.052520518
 30
0.0
 10
10.7538507258
 20
7.0520825567
 30
0.0
 10
10.7523438982
 20
7.0517318588
 30
0.0
 10
10.7512134167
 20
7.0514697359
 30
0.0
 10
10.7502724967
 20
7.0512484352
 30
0.0
 10
10.7496115998
 20
7.0510991472
 30
0.0
 10
10.7492374623
 20
7.0510050607
 30
0.0
 10
10.7489469492
 20
7.0509592264
 30
0.0
 10
10.7486943169
 20
7.0508188596
 30
0.0
 10
10.7483442605
 20
7.0506646779
 30
0.0
 10
10.7477378181
 20
7.0503794966
 30
0.0
 10
10.7468682534
 20
7.0499801269
 30
0.0
 10
10.7458261533
 20
7.0494974453
 30
0.0
 10
10.7444362053
 20
7.0488550706
 30
0.0
 10
10.7426989351
 20
7.0480516911
 30
0.0
 10
10.7399192106
 20
7.0467665136
 30
0.0
 10
10.7364445866
 20
7.045159963
 30
0.0
 10
10.7322750246
 20
7.0432321356
 30
0.0
 10
10.7288003916
 20
7.041625607
 30
0.0
 10
10.726020687
 20
7.0403403813
 30
0.0
 10
10.7239359022
 20
7.0393764739
 30
0.0
 10
10.7218511416
 20
7.0384125203
 30
0.0
 10
10.7201137656
 20
7.0376093698
 30
0.0
 10
10.7187240341
 20
7.0369665265
 30
0.0
 10
10.7176812728
 20
7.0364852762
 30
0.0
 10
10.7168137767
 20
7.0360814281
 30
0.0
 10
10.7162036414
 20
7.0358042416
 30
0.0
 10
10.715859502
 20
7.0356372502
 30
0.0
 10
10.7155886945
 20
7.0355362304
 30
0.0
 10
10.7153664444
 20
7.0353426154
 30
0.0
 10
10.7150531737
 20
7.0351167602
 30
0.0
 10
10.7145128413
 20
7.0347064654
 30
0.0
 10
10.7137368121
 20
7.0341281973
 30
0.0
 10
10.7128073431
 20
7.033430908
 30
0.0
 10
10.7115674342
 20
7.0325023654
 30
0.0
 10
10.7100177598
 20
7.0313412834
 30
0.0
 10
10.7081580597
 20
7.0299481581
 30
0.0
 10
10.7062983839
 20
7.0285549865
 30
0.0
 10
10.7038188076
 20
7.0266974405
 30
0.0
 10
10.7007193406
 20
7.0243755021
 30
0.0
 10
10.6976198709
 20
7.0220535673
 30
0.0
 10
10.6951402991
 20
7.0201960157
 30
0.0
 10
10.69328061
 20
7.0188028612
 30
0.0
 10
10.6914209598
 20
7.0174096715
 30
0.0
 10
10.68987113
 20
7.01624879
 30
0.0
 10
10.6886315378
 20
7.0153198385
 30
0.0
 10
10.6877011017
 20
7.0146237979
 30
0.0
 10
10.6869280983
 20
7.0140416232
 30
0.0
 10
10.6863823645
 20
7.0136383022
 30
0.0
 10
10.6860777481
 20
7.0134012732
 30
0.0
 10
10.6858289145
 20
7.0132419805
 30
0.0
 10
10.6856579506
 20
7.0130120515
 30
0.0
 10
10.6854028368
 20
7.0127301182
 30
0.0
 10
10.6849690429
 20
7.0122252553
 30
0.0
 10
10.6843427211
 20
7.0115100243
 30
0.0
 10
10.6835939669
 20
7.0106491781
 30
0.0
 10
10.6825946387
 20
7.0095022806
 30
0.0
 10
10.6813458179
 20
7.0080683507
 30
0.0
 10
10.6798470875
 20
7.0063477669
 30
0.0
 10
10.678348396
 20
7.0046271478
 30
0.0
 10
10.6763501272
 20
7.0023330012
 30
0.0
 10
10.6738522942
 20
6.9994653149
 30
0.0
 10
10.6708549006
 20
6.9960240873
 30
0.0
 10
10.6683570485
 20
6.9931564154
 30
0.0
 10
10.6663588218
 20
6.9908622372
 30
0.0
 10
10.6651098046
 20
6.9894284686
 30
0.0
 10
10.6641108783
 20
6.9882812413
 30
0.0
 10
10.6633608966
 20
6.9874214023
 30
0.0
 10
10.6627384153
 20
6.9867030202
 30
0.0
 10
10.6622977654
 20
6.9862037824
 30
0.0
 10
10.6620536368
 20
6.9859128362
 30
0.0
 10
10.6618489301
 20
6.9857105919
 30
0.0
 10
10.6617268284
 20
6.9854473199
 30
0.0
 10
10.6615352125
 20
6.9851175777
 30
0.0
 10
10.6612133095
 20
6.9845306107
 30
0.0
 10
10.6607464294
 20
6.9836972717
 30
0.0
 10
10.6601891775
 20
6.9826950454
 30
0.0
 10
10.6594451257
 20
6.981359519
 30
0.0
 10
10.6585154202
 20
6.9796898454
 30
0.0
 10
10.6570276905
 20
6.9770185162
 30
0.0
 10
10.6551680978
 20
6.9736793035
 30
0.0
 10
10.6529365547
 20
6.9696722712
 30
0.0
 10
10.6507050283
 20
6.9656652289
 30
0.0
 10
10.6488453937
 20
6.9623260415
 30
0.0
 10
10.6473577478
 20
6.9596546616
 30
0.0
 10
10.6464278295
 20
6.9579851169
 30
0.0
 10
10.6456842143
 20
6.956649326
 30
0.0
 10
10.6451256286
 20
6.9556479075
 30
0.0
 10
10.6446629218
 20
6.9548120414
 30
0.0
 10
10.6443335687
 20
6.9542295857
 30
0.0
 10
10.6441538897
 20
6.9538926152
 30
0.0
 10
10.6439951219
 20
6.9536515461
 30
0.0
 10
10.6439281267
 20
6.9533659112
 30
0.0
 10
10.6438067885
 20
6.9530006098
 30
0.0
 10
10.6436093613
 20
6.9523540896
 30
0.0
 10
10.6433195249
 20
6.9514342759
 30
0.0
 10
10.6429750589
 20
6.9503288787
 30
0.0
 10
10.642514605
 20
6.9488555818
 30
0.0
 10
10.6419394369
 20
6.9470137669
 30
0.0
 10
10.6410189448
 20
6.9440669714
 30
0.0
 10
10.6398684061
 20
6.9403834399
 30
0.0
 10
10.6384877274
 20
6.9359632177
 30
0.0
 10
10.6373371673
 20
6.9322796964
 30
0.0
 10
10.6364167223
 20
6.9293328784
 30
0.0
 10
10.635726376
 20
6.9271227694
 30
0.0
 10
10.6350360784
 20
6.9249126428
 30
0.0
 10
10.6344606786
 20
6.9230709258
 30
0.0
 10
10.6340006986
 20
6.9215974284
 30
0.0
 10
10.6336547853
 20
6.9204926438
 30
0.0
 10
10.633369477
 20
6.9195709135
 30
0.0
 10
10.6331639664
 20
6.9189278147
 30
0.0
 10
10.6330555798
 20
6.9185570314
 30
0.0
 10
10.6329488016
 20
6.918288235
 30
0.0
 10
10.6329394523
 20
6.9179839236
 30
0.0
 10
10.6328930023
 20
6.9175905632
 30
0.0
 10
10.6328275487
 20
6.9168964106
 30
0.0
 10
10.6327257655
 20
6.9159077816
 30
0.0
 10
10.6326071689
 20
6.9147201352
 30
0.0
 10
10.6324478024
 20
6.9131370578
 30
0.0
 10
10.632249019
 20
6.9111580563
 30
0.0
 10
10.6320102968
 20
6.9087833208
 30
0.0
 10
10.6317716233
 20
6.9064085676
 30
0.0
 10
10.6314533753
 20
6.9032422361
 30
0.0
 10
10.6310555689
 20
6.8992843197
 30
0.0
 10
10.6305782087
 20
6.894534821
 30
0.0
 10
10.6301803789
 20
6.8905769047
 30
0.0
 10
10.6298621824
 20
6.8874105729
 30
0.0
 10
10.6296631559
 20
6.8854316127
 30
0.0
 10
10.6295042868
 20
6.8838484511
 30
0.0
 10
10.6293841709
 20
6.8826610617
 30
0.0
 10
10.6292871411
 20
6.8816716286
 30
0.0
 10
10.6292132018
 20
6.8809789115
 30
0.0
 10
10.6291803481
 20
6.8805832511
 30
0.0
 10
10.6291292354
 20
6.8802860046
 30
0.0
 10
10.6291793137
 20
6.8799906737
 30
0.0
 10
10.6292107883
 20
6.8795962311
 30
0.0
 10
10.6292823141
 20
6.8789062678
 30
0.0
 10
10.629375896
 20
6.8779204432
 30
0.0
 10
10.6294918744
 20
6.8767375233
 30
0.0
 10
10.6296452268
 20
6.8751602724
 30
0.0
 10
10.6298373576
 20
6.8731887172
 30
0.0
 10
10.6301445207
 20
6.8700342241
 30
0.0
 10
10.6305285595
 20
6.8660911095
 30
0.0
 10
10.6309893674
 20
6.8613593709
 30
0.0
 10
10.6314501943
 20
6.8566276337
 30
0.0
 10
10.6318341855
 20
6.8526845156
 30
0.0
 10
10.6321414439
 20
6.8495300295
 30
0.0
 10
10.6323333323
 20
6.8475584566
 30
0.0
 10
10.6324871822
 20
6.845981242
 30
0.0
 10
10.6326016407
 20
6.8447982115
 30
0.0
 10
10.6326999781
 20
6.8438127329
 30
0.0
 10
10.6327630146
 20
6.8431221518
 30
0.0
 10
10.6328080911
 20
6.8427286991
 30
0.0
 10
10.6328163884
 20
6.8424303275
 30
0.0
 10
10.6329221985
 20
6.8421445015
 30
0.0
 10
10.633029265
 20
6.8417590241
 30
0.0
 10
10.6332324791
 20
6.8410864775
 30
0.0
 10
10.6335144995
 20
6.8401246307
 30
0.0
 10
10.6338564704
 20
6.8389708708
 30
0.0
 10
10.634311193
 20
6.837432365
 30
0.0
 10
10.6348800203
 20
6.8355092872
 30
0.0
 10
10.6357899069
 20
6.8324323323
 30
0.0
 10
10.636927347
 20
6.8285861493
 30
0.0
 10
10.6382922379
 20
6.8239707243
 30
0.0
 10
10.6396571469
 20
6.8193553036
 30
0.0
 10
10.6407945415
 20
6.81550911
 30
0.0
 10
10.6417045191
 20
6.8124321762
 30
0.0
 10
10.6422731153
 20
6.8105090448
 30
0.0
 10
10.6427283121
 20
6.8089706492
 30
0.0
 10
10.6430688341
 20
6.8078165524
 30
0.0
 10
10.6433553878
 20
6.8068557599
 30
0.0
 10
10.6435505093
 20
6.8061813312
 30
0.0
 10
10.6436705422
 20
6.8057988694
 30
0.0
 10
10.6437365237
 20
6.8055037805
 30
0.0
 10
10.6438944106
 20
6.8052401986
 30
0.0
 10
10.6440728688
 20
6.8048777661
 30
0.0
 10
10.644400107
 20
6.8042486298
 30
0.0
 10
10.6448597812
 20
6.8033471864
 30
0.0
 10
10.6454147327
 20
6.8022666003
 30
0.0
 10
10.6461535006
 20
6.8008254186
 30
0.0
 10
10.6470773603
 20
6.7990240785
 30
0.0
 10
10.6485553122
 20
6.7961418578
 30
0.0
 10
10.6504028293
 20
6.7925391083
 30
0.0
 10
10.6526198146
 20
6.7882157966
 30
0.0
 10
10.6548368173
 20
6.783892492
 30
0.0
 10
10.6566842909
 20
6.7802897248
 30
0.0
 10
10.6581623298
 20
6.7774075395
 30
0.0
 10
10.6590859685
 20
6.7756061093
 30
0.0
 10
10.6598251899
 20
6.7741651125
 30
0.0
 10
10.6603787559
 20
6.7730839613
 30
0.0
 10
10.6608427651
 20
6.7721842861
 30
0.0
 10
10.6611622646
 20
6.7715519934
 30
0.0
 10
10.6613531221
 20
6.771194618
 30
0.0
 10
10.6614729225
 20
6.7709155023
 30
0.0
 10
10.6616819506
 20
6.7706787561
 30
0.0
 10
10.6619295312
 20
6.7703483156
 30
0.0
 10
10.6623772982
 20
6.7697769305
 30
0.0
 10
10.6630093841
 20
6.768957066
 30
0.0
 10
10.6637711322
 20
6.7679747696
 30
0.0
 10
10.664785663
 20
6.7666645028
 30
0.0
 10
10.6660542145
 20
6.7650268536
 30
0.0
 10
10.6680836799
 20
6.7624065118
 30
0.0
 10
10.6706205865
 20
6.7591311203
 30
0.0
 10
10.6736648408
 20
6.7552006335
 30
0.0
 10
10.6767091099
 20
6.7512701578
 30
0.0
 10
10.6792459795
 20
6.7479947385
 30
0.0
 10
10.6812755191
 20
6.7453744523
 30
0.0
 10
10.6825438821
 20
6.7437366619
 30
0.0
 10
10.6835587996
 20
6.7424266849
 30
0.0
 10
10.6843193662
 20
6.7414435033
 30
0.0
 10
10.6849551488
 20
6.7406264082
 30
0.0
 10
10.6853963166
 20
6.7400500793
 30
0.0
 10
10.6856544708
 20
6.7397275599
 30
0.0
 10
10.6858310201
 20
6.7394664825
 30
0.0
 10
10.6860728055
 20
6.7392787507
 30
0.0
 10
10.686372431
 20
6.7390028579
 30
0.0
 10
10.6869073776
 20
6.7385319653
 30
0.0
 10
10.6876660443
 20
6.7378530298
 30
0.0
 10
10.6885788167
 20
6.7370409746
 30
0.0
 10
10.6897950179
 20
6.7359573026
 30
0.0
 10
10.6913155533
 20
6.7346030317
 30
0.0
 10
10.6937482511
 20
6.7324360199
 30
0.0
 10
10.6967891782
 20
6.7297273168
 30
0.0
 10
10.7004382659
 20
6.7264768447
 30
0.0
 10
10.7040873651
 20
6.7232263873
 30
0.0
 10
10.7071282633
 20
6.7205176476
 30
0.0
 10
10.709561019
 20
6.7183507088
 30
0.0
 10
10.7110814073
 20
6.7169962524
 30
0.0
 10
10.7122979103
 20
6.7159129613
 30
0.0
 10
10.7132097607
 20
6.7150997425
 30
0.0
 10
10.713971312
 20
6.7144244475
 30
0.0
 10
10.714501109
 20
6.713947056
 30
0.0
 10
10.7148089856
 20
6.713681576
 30
0.0
 10
10.7150254263
 20
6.7134618592
 30
0.0
 10
10.7152971661
 20
6.7133209122
 30
0.0
 10
10.715640197
 20
6.7131055071
 30
0.0
 10
10.716249488
 20
6.7127413496
 30
0.0
 10
10.7171152052
 20
6.7122144318
 30
0.0
 10
10.718156077
 20
6.7115849952
 30
0.0
 10
10.7195432037
 20
6.7107447458
 30
0.0
 10
10.7212773525
 20
6.7096947767
 30
0.0
 10
10.7240518561
 20
6.7080146345
 30
0.0
 10
10.727520032
 20
6.705914523
 30
0.0
 10
10.7316818223
 20
6.7033943588
 30
0.0
 10
10.7358436216
 20
6.7008742106
 30
0.0
 10
10.7393117751
 20
6.6987740588
 30
0.0
 10
10.7420863236
 20
6.6970939972
 30
0.0
 10
10.7438203583
 20
6.6960438233
 30
0.0
 10
10.7452077191
 20
6.6952039943
 30
0.0
 10
10.7462478757
 20
6.6945732734
 30
0.0
 10
10.7471158306
 20
6.6940503738
 30
0.0
 10
10.747721127
 20
6.6936790433
 30
0.0
 10
10.7480705583
 20
6.6934751311
 30
0.0
 10
10.748322638
 20
6.6932988815
 30
0.0
 10
10.7486129189
 20
6.6932117553
 30
0.0
 10
10.7489866352
 20
6.6930644998
 30
0.0
 10
10.749646847
 20
6.6928212867
 30
0.0
 10
10.7505867609
 20
6.6924662671
 30
0.0
 10
10.7517160469
 20
6.6920434848
 30
0.0
 10
10.7532212764
 20
6.6914786429
 30
0.0
 10
10.7551029794
 20
6.6907729783
 30
0.0
 10
10.7581136112
 20
6.689643698
 30
0.0
 10
10.761876933
 20
6.6882321727
 30
0.0
 10
10.7663929048
 20
6.6865383078
 30
0.0
 10
10.7709088831
 20
6.6848444607
 30
0.0
 10
10.7746721888
 20
6.6834328911
 30
0.0
 10
10.7776828528
 20
6.6823036994
 30
0.0
 10
10.7795644741
 20
6.6815978096
 30
0.0
 10
10.7810698712
 20
6.6810334299
 30
0.0
 10
10.782198645
 20
6.6806092358
 30
0.0
 10
10.7831401615
 20
6.6802586331
 30
0.0
 10
10.7837975126
 20
6.6800075351
 30
0.0
 10
10.7841758125
 20
6.6798729133
 30
0.0
 10
10.7844520139
 20
6.6797469805
 30
0.0
 10
10.7847569738
 20
6.6797164821
 30
0.0
 10
10.7851535558
 20
6.6796425291
 30
0.0
 10
10.7858522479
 20
6.6795286211
 30
0.0
 10
10.786847936
 20
6.6793577866
 30
0.0
 10
10.7880438077
 20
6.679156256
 30
0.0
 10
10.7896379379
 20
6.6788863363
 30
0.0
 10
10.7916307257
 20
6.6785493518
 30
0.0
 10
10.7948191164
 20
6.6780099445
 30
0.0
 10
10.7988046287
 20
6.677335765
 30
0.0
 10
10.8035872332
 20
6.6765267155
 30
0.0
 10
10.8083698404
 20
6.6757176751
 30
0.0
 10
10.8147466491
 20
6.6746389514
 30
0.0
 10
10.8195292558
 20
6.6738299094
 30
0.0
 10
10.8227176602
 20
6.6732905479
 30
0.0
  0
SPLINE
  5
3C9
100
AcDbEntity
  8
0
100
AcDbSpline
 62
4
  6
CONTINUOUS
 70
0
 71
3
 72
319
 73
315
 74
0
 42
0.0000001
 43
0.0000001
 44
0.0000000001
 40
0.0
 40
0.0
 40
0.0
 40
0.0
 40
0.015625
 40
0.0234375
 40
0.03125
 40
0.0390625
 40
0.046875
 40
0.05078125
 40
0.0546875
 40
0.056640625
 40
0.05859375
 40
0.060546875
 40
0.0615234375
 40
0.0620117188
 40
0.0625
 40
0.0629882812
 40
0.0634765625
 40
0.064453125
 40
0.06640625
 40
0.068359375
 40
0.0703125
 40
0.07421875
 40
0.078125
 40
0.0859375
 40
0.09375
 40
0.1015625
 40
0.109375
 40
0.11328125
 40
0.1171875
 40
0.119140625
 40
0.12109375
 40
0.123046875
 40
0.1240234375
 40
0.1245117188
 40
0.125
 40
0.1254882812
 40
0.1259765625
 40
0.126953125
 40
0.12890625
 40
0.130859375
 40
0.1328125
 40
0.13671875
 40
0.140625
 40
0.1484375
 40
0.15625
 40
0.1640625
 40
0.16796875
 40
0.171875
 40
0.17578125
 40
0.1796875
 40
0.181640625
 40
0.18359375
 40
0.185546875
 40
0.1865234375
 40
0.1870117188
 40
0.1875
 40
0.1879882812
 40
0.1884765625
 40
0.189453125
 40
0.19140625
 40
0.193359375
 40
0.1953125
 40
0.19921875
 40
0.203125
 40
0.20703125
 40
0.2109375
 40
0.21875
 40
0.2265625
 40
0.23046875
 40
0.234375
 40
0.23828125
 40
0.2421875
 40
0.244140625
 40
0.24609375
 40
0.248046875
 40
0.2490234375
 40
0.2495117188
 40
0.25
 40
0.2504882812
 40
0.2509765625
 40
0.251953125
 40
0.25390625
 40
0.255859375
 40
0.2578125
 40
0.26171875
 40
0.265625
 40
0.26953125
 40
0.2734375
 40
0.28125
 40
0.2890625
 40
0.296875
 40
0.30078125
 40
0.3046875
 40
0.306640625
 40
0.30859375
 40
0.310546875
 40
0.3115234375
 40
0.3120117188
 40
0.3125
 40
0.3129882812
 40
0.3134765625
 40
0.314453125
 40
0.31640625
 40
0.318359375
 40
0.3203125
 40
0.32421875
 40
0.328125
 40
0.3359375
 40
0.34375
 40
0.3515625
 40
0.359375
 40
0.36328125
 40
0.3671875
 40
0.369140625
 40
0.37109375
 40
0.373046875
 40
0.3740234375
 40
0.3745117188
 40
0.375
 40
0.3754882812
 40
0.3759765625
 40
0.376953125
 40
0.37890625
 40
0.380859375
 40
0.3828125
 40
0.38671875
 40
0.390625
 40
0.3984375
 40
0.40625
 40
0.4140625
 40
0.41796875
 40
0.421875
 40
0.42578125
 40
0.4296875
 40
0.431640625
 40
0.43359375
 40
0.435546875
 40
0.4365234375
 40
0.4370117188
 40
0.4375
 40
0.4379882812
 40
0.4384765625
 40
0.439453125
 40
0.44140625
 40
0.443359375
 40
0.4453125
 40
0.44921875
 40
0.453125
 40
0.45703125
 40
0.4609375
 40
0.46875
 40
0.4765625
 40
0.484375
 40
0.48828125
 40
0.4921875
 40
0.494140625
 40
0.49609375
 40
0.498046875
 40
0.4990234375
 40
0.4995117188
 40
0.5
 40
0.5004882812
 40
0.5009765625
 40
0.501953125
 40
0.50390625
 40
0.505859375
 40
0.5078125
 40
0.51171875
 40
0.515625
 40
0.5234375
 40
0.53125
 40
0.5390625
 40
0.546875
 40
0.55078125
 40
0.5546875
 40
0.556640625
 40
0.55859375
 40
0.560546875
 40
0.5615234375
 40
0.5620117188
 40
0.5625
 40
0.5629882812
 40
0.5634765625
 40
0.564453125
 40
0.56640625
 40
0.568359375
 40
0.5703125
 40
0.57421875
 40
0.578125
 40
0.5859375
 40
0.59375
 40
0.6015625
 40
0.609375
 40
0.61328125
 40
0.6171875
 40
0.619140625
 40
0.62109375
 40
0.623046875
 40
0.6240234375
 40
0.6245117188
 40
0.625
 40
0.6254882812
 40
0.6259765625
 40
0.626953125
 40
0.62890625
 40
0.630859375
 40
0.6328125
 40
0.63671875
 40
0.640625
 40
0.6484375
 40
0.65625
 40
0.6640625
 40
0.671875
 40
0.67578125
 40
0.6796875
 40
0.681640625
 40
0.68359375
 40
0.685546875
 40
0.6865234375
 40
0.6870117188
 40
0.6875
 40
0.6879882812
 40
0.6884765625
 40
0.689453125
 40
0.69140625
 40
0.693359375
 40
0.6953125
 40
0.69921875
 40
0.703125
 40
0.7109375
 40
0.71875
 40
0.7265625
 40
0.734375
 40
0.73828125
 40
0.7421875
 40
0.744140625
 40
0.74609375
 40
0.748046875
 40
0.7490234375
 40
0.7495117188
 40
0.75
 40
0.7504882812
 40
0.7509765625
 40
0.751953125
 40
0.75390625
 40
0.755859375
 40
0.7578125
 40
0.76171875
 40
0.765625
 40
0.7734375
 40
0.78125
 40
0.7890625
 40
0.796875
 40
0.80078125
 40
0.8046875
 40
0.806640625
 40
0.80859375
 40
0.810546875
 40
0.8115234375
 40
0.8120117188
 40
0.8125
 40
0.8129882812
 40
0.8134765625
 40
0.814453125
 40
0.81640625
 40
0.818359375
 40
0.8203125
 40
0.82421875
 40
0.828125
 40
0.8359375
 40
0.84375
 40
0.8515625
 40
0.859375
 40
0.86328125
 40
0.8671875
 40
0.869140625
 40
0.87109375
 40
0.873046875
 40
0.8740234375
 40
0.8745117188
 40
0.875
 40
0.8754882812
 40
0.8759765625
 40
0.876953125
 40
0.87890625
 40
0.880859375
 40
0.8828125
 40
0.88671875
 40
0.890625
 40
0.8984375
 40
0.90625
 40
0.9140625
 40
0.921875
 40
0.92578125
 40
0.9296875
 40
0.931640625
 40
0.93359375
 40
0.935546875
 40
0.9365234375
 40
0.9370117188
 40
0.9375
 40
0.9379882812
 40
0.9384765625
 40
0.939453125
 40
0.94140625
 40
0.943359375
 40
0.9453125
 40
0.94921875
 40
0.953125
 40
0.9609375
 40
0.96875
 40
0.9765625
 40
0.984375
 40
1.0
 40
1.0
 40
1.0
 40
1.0
 10
10.8227176433
 20
6.673290549
 30
0.0
 10
10.8258508302
 20
6.6733804735
 30
0.0
 10
10.8305506107
 20
6.6735153598
 30
0.0
 10
10.8368169844
 20
6.6736952093
 30
0.0
 10
10.8415167651
 20
6.6738300939
 30
0.0
 10
10.846216544
 20
6.673964988
 30
0.0
 10
10.8501330322
 20
6.6740773703
 30
0.0
 10
10.8532662099
 20
6.6741673421
 30
0.0
 10
10.8552244753
 20
6.6742234243
 30
0.0
 10
10.8567910204
 20
6.674268634
 30
0.0
 10
10.8579661132
 20
6.6743015995
 30
0.0
 10
10.858944772
 20
6.6743320667
 30
0.0
 10
10.8596309815
 20
6.6743475143
 30
0.0
 10
10.8600213082
 20
6.6743655217
 30
0.0
 10
10.8603191043
 20
6.6743531667
 30
0.0
 10
10.8605975924
 20
6.6744396636
 30
0.0
 10
10.8609756447
 20
6.6745205121
 30
0.0
 10
10.8616340984
 20
6.6746780622
 30
0.0
 10
10.862576387
 20
6.6748947347
 30
0.0
 10
10.8637064311
 20
6.6751583368
 30
0.0
 10
10.8652134018
 20
6.6755085506
 30
0.0
 10
10.8670970313
 20
6.6759467478
 30
0.0
 10
10.8701108853
 20
6.6766476229
 30
0.0
 10
10.8738781866
 20
6.6775237998
 30
0.0
 10
10.878398956
 20
6.6785751742
 30
0.0
 10
10.88291972
 20
6.6796265672
 30
0.0
 10
10.886687035
 20
6.6805026976
 30
0.0
 10
10.8897008616
 20
6.6812036656
 30
0.0
 10
10.8915845608
 20
6.6816416268
 30
0.0
 10
10.8930913884
 20
6.6819923248
 30
0.0
 10
10.89422187
 20
6.6822544476
 30
0.0
 10
10.8951627899
 20
6.6824757483
 30
0.0
 10
10.8958236868
 20
6.6826250364
 30
0.0
 10
10.8961978243
 20
6.6827191228
 30
0.0
 10
10.8964883374
 20
6.6827649571
 30
0.0
 10
10.8967409698
 20
6.6829053239
 30
0.0
 10
10.8970910261
 20
6.6830595057
 30
0.0
 10
10.8976974685
 20
6.6833446869
 30
0.0
 10
10.8985670333
 20
6.6837440566
 30
0.0
 10
10.8996091334
 20
6.6842267382
 30
0.0
 10
10.9009990813
 20
6.6848691129
 30
0.0
 10
10.9027363516
 20
6.6856724925
 30
0.0
 10
10.905516076
 20
6.6869576699
 30
0.0
 10
10.9089907
 20
6.6885642205
 30
0.0
 10
10.913160262
 20
6.6904920479
 30
0.0
 10
10.916634895
 20
6.6920985766
 30
0.0
 10
10.9194145997
 20
6.6933838023
 30
0.0
 10
10.9214993844
 20
6.6943477097
 30
0.0
 10
10.923584145
 20
6.6953116633
 30
0.0
 10
10.9253215211
 20
6.6961148138
 30
0.0
 10
10.9267112526
 20
6.6967576571
 30
0.0
 10
10.9277540139
 20
6.6972389073
 30
0.0
 10
10.92862151
 20
6.6976427555
 30
0.0
 10
10.9292316453
 20
6.697919942
 30
0.0
 10
10.9295757846
 20
6.6980869333
 30
0.0
 10
10.9298465922
 20
6.6981879531
 30
0.0
 10
10.9300688422
 20
6.6983815682
 30
0.0
 10
10.9303821129
 20
6.6986074233
 30
0.0
 10
10.9309224453
 20
6.6990177182
 30
0.0
 10
10.9316984745
 20
6.6995959863
 30
0.0
 10
10.9326279435
 20
6.7002932755
 30
0.0
 10
10.9338678524
 20
6.7012218182
 30
0.0
 10
10.9354175268
 20
6.7023829001
 30
0.0
 10
10.9372772269
 20
6.7037760254
 30
0.0
 10
10.9391369027
 20
6.7051691971
 30
0.0
 10
10.941616479
 20
6.707026743
 30
0.0
 10
10.944715946
 20
6.7093486814
 30
0.0
 10
10.9478154157
 20
6.7116706162
 30
0.0
 10
10.9502949876
 20
6.7135281679
 30
0.0
 10
10.9521546767
 20
6.7149213223
 30
0.0
 10
10.9540143268
 20
6.7163145121
 30
0.0
 10
10.9555641566
 20
6.7174753936
 30
0.0
 10
10.9568037488
 20
6.7184043451
 30
0.0
 10
10.9577341849
 20
6.7191003857
 30
0.0
 10
10.9585071883
 20
6.7196825603
 30
0.0
 10
10.9590529221
 20
6.7200858814
 30
0.0
 10
10.9593575385
 20
6.7203229103
 30
0.0
 10
10.9596063721
 20
6.720482203
 30
0.0
 10
10.9597773361
 20
6.720712132
 30
0.0
 10
10.9600324498
 20
6.7209940653
 30
0.0
 10
10.9604662437
 20
6.7214989282
 30
0.0
 10
10.9610925655
 20
6.7222141593
 30
0.0
 10
10.9618413197
 20
6.7230750054
 30
0.0
 10
10.9628406479
 20
6.724221903
 30
0.0
 10
10.9640894687
 20
6.7256558328
 30
0.0
 10
10.9655881991
 20
6.7273764166
 30
0.0
 10
10.9670868906
 20
6.7290970357
 30
0.0
 10
10.9690851594
 20
6.7313911824
 30
0.0
 10
10.9715829924
 20
6.7342588686
 30
0.0
 10
10.974580386
 20
6.7377000963
 30
0.0
 10
10.9770782381
 20
6.7405677682
 30
0.0
 10
10.9790764648
 20
6.7428619463
 30
0.0
 10
10.980325482
 20
6.744295715
 30
0.0
 10
10.9813244083
 20
6.7454429422
 30
0.0
 10
10.98207439
 20
6.7463027813
 30
0.0
 10
10.9826968713
 20
6.7470211634
 30
0.0
 10
10.9831375212
 20
6.7475204011
 30
0.0
 10
10.9833816499
 20
6.7478113473
 30
0.0
 10
10.9835863565
 20
6.7480135916
 30
0.0
 10
10.9837084583
 20
6.7482768636
 30
0.0
 10
10.9839000741
 20
6.7486066059
 30
0.0
 10
10.9842219772
 20
6.7491935729
 30
0.0
 10
10.9846888572
 20
6.7500269119
 30
0.0
 10
10.9852461091
 20
6.7510291381
 30
0.0
 10
10.985990161
 20
6.7523646646
 30
0.0
 10
10.9869198665
 20
6.7540343381
 30
0.0
 10
10.9884075961
 20
6.7567056673
 30
0.0
 10
10.9902671888
 20
6.76004488
 30
0.0
 10
10.9924987319
 20
6.7640519123
 30
0.0
 10
10.9947302584
 20
6.7680589547
 30
0.0
 10
10.9965898929
 20
6.7713981421
 30
0.0
 10
10.9980775388
 20
6.774069522
 30
0.0
 10
10.9990074571
 20
6.7757390667
 30
0.0
 10
10.9997510723
 20
6.7770748575
 30
0.0
 10
11.000309658
 20
6.7780762761
 30
0.0
 10
11.0007723648
 20
6.7789121422
 30
0.0
 10
11.0011017179
 20
6.7794945978
 30
0.0
 10
11.0012813969
 20
6.7798315683
 30
0.0
 10
11.0014401647
 20
6.7800726375
 30
0.0
 10
11.0015071599
 20
6.7803582723
 30
0.0
 10
11.0016284981
 20
6.7807235737
 30
0.0
 10
11.0018259253
 20
6.7813700939
 30
0.0
 10
11.0021157617
 20
6.7822899076
 30
0.0
 10
11.0024602277
 20
6.7833953048
 30
0.0
 10
11.0029206816
 20
6.7848686017
 30
0.0
 10
11.0034958497
 20
6.7867104166
 30
0.0
 10
11.0044163418
 20
6.7896572121
 30
0.0
 10
11.0055668805
 20
6.7933407437
 30
0.0
 10
11.0069475592
 20
6.7977609658
 30
0.0
 10
11.0080981193
 20
6.8014444871
 30
0.0
 10
11.0090185643
 20
6.8043913051
 30
0.0
 10
11.0097089106
 20
6.8066014141
 30
0.0
 10
11.0103992082
 20
6.8088115408
 30
0.0
 10
11.010974608
 20
6.8106532577
 30
0.0
 10
11.011434588
 20
6.8121267551
 30
0.0
 10
11.0117805013
 20
6.8132315398
 30
0.0
 10
11.0120658097
 20
6.81415327
 30
0.0
 10
11.0122713202
 20
6.8147963689
 30
0.0
 10
11.0123797068
 20
6.8151671521
 30
0.0
 10
11.012486485
 20
6.8154359486
 30
0.0
 10
11.0124958343
 20
6.8157402599
 30
0.0
 10
11.0125422843
 20
6.8161336203
 30
0.0
 10
11.0126077379
 20
6.8168277729
 30
0.0
 10
11.0127095211
 20
6.8178164019
 30
0.0
 10
11.0128281177
 20
6.8190040484
 30
0.0
 10
11.0129874842
 20
6.8205871257
 30
0.0
 10
11.0131862676
 20
6.8225661273
 30
0.0
 10
11.0134249898
 20
6.8249408627
 30
0.0
 10
11.0136636633
 20
6.827315616
 30
0.0
 10
11.0139819113
 20
6.8304819474
 30
0.0
 10
11.0143797177
 20
6.8344398639
 30
0.0
 10
11.0148570779
 20
6.8391893625
 30
0.0
 10
11.0152549078
 20
6.8431472789
 30
0.0
 10
11.0155731042
 20
6.8463136106
 30
0.0
 10
11.0157721307
 20
6.8482925709
 30
0.0
 10
11.0159309998
 20
6.8498757324
 30
0.0
 10
11.0160511157
 20
6.8510631218
 30
0.0
 10
11.0161481455
 20
6.8520525549
 30
0.0
 10
11.0162220848
 20
6.852745272
 30
0.0
 10
11.0162549385
 20
6.8531409325
 30
0.0
 10
11.0163060512
 20
6.853438179
 30
0.0
 10
11.0162559729
 20
6.8537335098
 30
0.0
 10
11.0162244983
 20
6.8541279524
 30
0.0
 10
11.0161529725
 20
6.8548179158
 30
0.0
 10
11.0160593906
 20
6.8558037404
 30
0.0
 10
11.0159434122
 20
6.8569866603
 30
0.0
 10
11.0157900598
 20
6.8585639111
 30
0.0
 10
11.015597929
 20
6.8605354664
 30
0.0
 10
11.0152907659
 20
6.8636899594
 30
0.0
 10
11.0149067271
 20
6.8676330741
 30
0.0
 10
11.0144459192
 20
6.8723648126
 30
0.0
 10
11.0139850923
 20
6.8770965498
 30
0.0
 10
11.0136011011
 20
6.8810396679
 30
0.0
 10
11.0132938427
 20
6.884194154
 30
0.0
 10
11.0131019543
 20
6.8861657269
 30
0.0
 10
11.0129481044
 20
6.8877429416
 30
0.0
 10
11.0128336459
 20
6.8889259721
 30
0.0
 10
11.0127353085
 20
6.8899114506
 30
0.0
 10
11.0126722721
 20
6.8906020318
 30
0.0
 10
11.0126271955
 20
6.8909954845
 30
0.0
 10
11.0126188982
 20
6.891293856
 30
0.0
 10
11.0125130881
 20
6.8915796821
 30
0.0
 10
11.0124060216
 20
6.8919651595
 30
0.0
 10
11.0122028076
 20
6.8926377061
 30
0.0
 10
11.0119207871
 20
6.8935995528
 30
0.0
 10
11.0115788162
 20
6.8947533127
 30
0.0
 10
11.0111240936
 20
6.8962918186
 30
0.0
 10
11.0105552663
 20
6.8982148963
 30
0.0
 10
11.0096453797
 20
6.9012918513
 30
0.0
 10
11.0085079396
 20
6.9051380343
 30
0.0
 10
11.0071430487
 20
6.9097534592
 30
0.0
 10
11.0057781397
 20
6.9143688799
 30
0.0
 10
11.0046407451
 20
6.9182150735
 30
0.0
 10
11.0037307676
 20
6.9212920073
 30
0.0
 10
11.0031621713
 20
6.9232151388
 30
0.0
 10
11.0027069745
 20
6.9247535343
 30
0.0
 10
11.0023664525
 20
6.9259076312
 30
0.0
 10
11.0020798988
 20
6.9268684237
 30
0.0
 10
11.0018847774
 20
6.9275428523
 30
0.0
 10
11.0017647444
 20
6.9279253142
 30
0.0
 10
11.0016987629
 20
6.9282204031
 30
0.0
 10
11.001540876
 20
6.9284839849
 30
0.0
 10
11.0013624178
 20
6.9288464174
 30
0.0
 10
11.0010351796
 20
6.9294755538
 30
0.0
 10
11.0005755054
 20
6.9303769971
 30
0.0
 10
11.0000205539
 20
6.9314575832
 30
0.0
 10
10.999281786
 20
6.9328987649
 30
0.0
 10
10.9983579263
 20
6.934700105
 30
0.0
 10
10.9968799744
 20
6.9375823258
 30
0.0
 10
10.9950324573
 20
6.9411850752
 30
0.0
 10
10.992815472
 20
6.9455083869
 30
0.0
 10
10.9905984693
 20
6.9498316916
 30
0.0
 10
10.9887509957
 20
6.9534344587
 30
0.0
 10
10.9872729568
 20
6.9563166441
 30
0.0
 10
10.9863493181
 20
6.9581180743
 30
0.0
 10
10.9856100967
 20
6.959559071
 30
0.0
 10
10.9850565307
 20
6.9606402222
 30
0.0
 10
10.9845925215
 20
6.9615398975
 30
0.0
 10
10.984273022
 20
6.9621721901
 30
0.0
 10
10.9840821645
 20
6.9625295655
 30
0.0
 10
10.9839623641
 20
6.9628086812
 30
0.0
 10
10.983753336
 20
6.9630454274
 30
0.0
 10
10.9835057554
 20
6.9633758679
 30
0.0
 10
10.9830579884
 20
6.9639472531
 30
0.0
 10
10.9824259025
 20
6.9647671175
 30
0.0
 10
10.9816641544
 20
6.965749414
 30
0.0
 10
10.9806496237
 20
6.9670596808
 30
0.0
 10
10.9793810722
 20
6.96869733
 30
0.0
 10
10.9773516067
 20
6.9713176718
 30
0.0
 10
10.9748147001
 20
6.9745930632
 30
0.0
 10
10.9717704458
 20
6.97852355
 30
0.0
 10
10.9687261767
 20
6.9824540258
 30
0.0
 10
10.9661893071
 20
6.985729445
 30
0.0
 10
10.9641597676
 20
6.9883497312
 30
0.0
 10
10.9628914045
 20
6.9899875216
 30
0.0
 10
10.961876487
 20
6.9912974987
 30
0.0
 10
10.9611159204
 20
6.9922806802
 30
0.0
 10
10.9604801378
 20
6.9930977754
 30
0.0
 10
10.96003897
 20
6.9936741042
 30
0.0
 10
10.9597808158
 20
6.9939966236
 30
0.0
 10
10.9596042665
 20
6.994257701
 30
0.0
 10
10.9593624811
 20
6.9944454328
 30
0.0
 10
10.9590628556
 20
6.9947213257
 30
0.0
 10
10.958527909
 20
6.9951922182
 30
0.0
 10
10.9577692424
 20
6.9958711538
 30
0.0
 10
10.9568564699
 20
6.996683209
 30
0.0
 10
10.9556402687
 20
6.9977668809
 30
0.0
 10
10.9541197334
 20
6.9991211518
 30
0.0
 10
10.9516870355
 20
7.0012881636
 30
0.0
 10
10.9486461084
 20
7.0039968668
 30
0.0
 10
10.9449970207
 20
7.0072473388
 30
0.0
 10
10.9413479215
 20
7.0104977963
 30
0.0
 10
10.9383070233
 20
7.0132065359
 30
0.0
 10
10.9358742676
 20
7.0153734747
 30
0.0
 10
10.9343538794
 20
7.0167279312
 30
0.0
 10
10.9331373763
 20
7.0178112223
 30
0.0
 10
10.9322255259
 20
7.018624441
 30
0.0
 10
10.9314639746
 20
7.0192997361
 30
0.0
 10
10.9309341776
 20
7.0197771275
 30
0.0
 10
10.9306263011
 20
7.0200426075
 30
0.0
 10
10.9304098603
 20
7.0202623243
 30
0.0
 10
10.9301381205
 20
7.0204032713
 30
0.0
 10
10.9297950897
 20
7.0206186765
 30
0.0
 10
10.9291857986
 20
7.020982834
 30
0.0
 10
10.9283200814
 20
7.0215097517
 30
0.0
 10
10.9272792096
 20
7.0221391883
 30
0.0
 10
10.9258920829
 20
7.0229794377
 30
0.0
 10
10.9241579341
 20
7.0240294069
 30
0.0
 10
10.9213834305
 20
7.025709549
 30
0.0
 10
10.9179152546
 20
7.0278096605
 30
0.0
 10
10.9137534643
 20
7.0303298248
 30
0.0
 10
10.909591665
 20
7.032849973
 30
0.0
 10
10.9061235116
 20
7.0349501247
 30
0.0
 10
10.903348963
 20
7.0366301863
 30
0.0
 10
10.9016149283
 20
7.0376803602
 30
0.0
 10
10.9002275676
 20
7.0385201893
 30
0.0
 10
10.899187411
 20
7.0391509101
 30
0.0
 10
10.898319456
 20
7.0396738098
 30
0.0
 10
10.8977141596
 20
7.0400451403
 30
0.0
 10
10.8973647284
 20
7.0402490525
 30
0.0
 10
10.8971126487
 20
7.0404253021
 30
0.0
 10
10.8968223677
 20
7.0405124283
 30
0.0
 10
10.8964486514
 20
7.0406596838
 30
0.0
 10
10.8957884396
 20
7.0409028968
 30
0.0
 10
10.8948485257
 20
7.0412579164
 30
0.0
 10
10.8937192397
 20
7.0416806988
 30
0.0
 10
10.8922140102
 20
7.0422455406
 30
0.0
 10
10.8903323073
 20
7.0429512053
 30
0.0
 10
10.8873216754
 20
7.0440804855
 30
0.0
 10
10.8835583536
 20
7.0454920109
 30
0.0
 10
10.8790423818
 20
7.0471858757
 30
0.0
 10
10.8745264035
 20
7.0488797228
 30
0.0
 10
10.8707630978
 20
7.0502912925
 30
0.0
 10
10.8677524338
 20
7.0514204841
 30
0.0
 10
10.8658708125
 20
7.0521263739
 30
0.0
 10
10.8643654154
 20
7.0526907537
 30
0.0
 10
10.8632366416
 20
7.0531149477
 30
0.0
 10
10.8622951251
 20
7.0534655504
 30
0.0
 10
10.8616377741
 20
7.0537166484
 30
0.0
 10
10.8612594742
 20
7.0538512702
 30
0.0
 10
10.8609832727
 20
7.0539772031
 30
0.0
 10
10.8606783128
 20
7.0540077014
 30
0.0
 10
10.8602817309
 20
7.0540816544
 30
0.0
 10
10.8595830387
 20
7.0541955625
 30
0.0
 10
10.8585873506
 20
7.0543663969
 30
0.0
 10
10.857391479
 20
7.0545679275
 30
0.0
 10
10.8557973487
 20
7.0548378472
 30
0.0
 10
10.8538045609
 20
7.0551748318
 30
0.0
 10
10.8506161702
 20
7.055714239
 30
0.0
 10
10.8466306579
 20
7.0563884185
 30
0.0
 10
10.8418480535
 20
7.057197468
 30
0.0
 10
10.8370654462
 20
7.0580065084
 30
0.0
 10
10.8306886375
 20
7.0590852321
 30
0.0
 10
10.8259060308
 20
7.0598942741
 30
0.0
 10
10.8227176264
 20
7.0604336357
 30
0.0
  0
ENDSEC
  0
SECTION
  2
OBJECTS
  0
DICTIONARY
  5
C
100
AcDbDictionary
280
0
281
1
  3
ACAD_GROUP
350
D
  3
ACAD_MLINESTYLE
350
17
  3
ACAD_LAYOUT
350
1A
  3
ACAD_PLOTSETTINGS
350
19
  3
ACAD_PLOTSTYLENAME
350
E
  3
ACAD_IMAGE_DICT
350
       3CB
  3
ACAD_IMAGE_VARS
350
       3CC
  3
ACAD_TABLESTYLE
350
       3CD
  0
IMAGEDEF_REACTOR
  5
3CA
100
AcDbRasterImageDefReactor
 90
2
330
287
  0
DICTIONARY
  5
D
102
{ACAD_REACTORS
330
C
102
}
100
AcDbDictionary
280
0
281
1
  0
ACDBDICTIONARYWDFLT
  5
E
102
{ACAD_REACTORS
330
C
102
}
100
AcDbDictionary
281
1
  3
Normal
350
F
100
AcDbDictionaryWithDefault
340
F
  0
DICTIONARY
  5
3CB
330
C
100
AcDbDictionary
281
1
  3
CSL_assy_2_img_1
350
       3D0
  0
RASTERVARIABLES
  5
3CC
330
C
100
AcDbRasterVariables
 90
0
 70
0
 71
1
 72
5
  0
DICTIONARY
  5
17
102
{ACAD_REACTORS
330
C
102
}
100
AcDbDictionary
280
0
281
1
  3
Standard
350
18
  0
DICTIONARY
  5
3CD
330
C
100
AcDbDictionary
281
1
  3
Standard
350
       3D1
  3
Standard1
350
       3D2
  0
DICTIONARY
  5
19
102
{ACAD_REACTORS
330
C
102
}
100
AcDbDictionary
281
1
  0
DICTIONARY
  5
1A
102
{ACAD_REACTORS
330
C
102
}
100
AcDbDictionary
281
1
  3
Model
350
3CE
  3
Layout1
350
3CF
  0
ACDBPLACEHOLDER
  5
F
102
{ACAD_REACTORS
330
E
102
}
  0
MLINESTYLE
  5
18
102
{ACAD_REACTORS
330
17
102
}
100
AcDbMlineStyle
  2
STANDARD
 70
0
  3

 62
256
 51
90.0
 52
90.0
 71
2
 49
0.5
 62
256
  6
BYLAYER
 49
-0.5
 62
256
  6
BYLAYER
  0
LAYOUT
  5
3CE
102
{ACAD_REACTORS
330
1A
102
}
100
AcDbPlotSettings
  1

  2
none_device
  4
ANSI_C_(22.00_x_17.00_Inches)
  6

 40
0.0
 41
0.0
 42
0.0
 43
0.0
 44
558.8
 45
431.8
 46
0.0
 47
0.0
 48
0.0
 49
0.0
140
0.0
141
0.0
142
1.0
143
1.0
 70
1024
 72
0
 73
0
 74
0
  7

 75
0
147
1.0
148
0.0
149
0.0
100
AcDbLayout
  1
Model
 70
0
 71
0
 10
0.0
 20
0.0
 11
22.0
 21
17.0
 12
0.0
 22
0.0
 32
0.0
 14
0.0
 24
0.0
 34
0.0
 15
0.0
 25
0.0
 35
0.0
146
0.0
 13
0.0
 23
0.0
 33
0.0
 16
1.0
 26
0.0
 36
0.0
 17
0.0
 27
1.0
 37
0.0
 76
0
330
20C
345
0
346
0
  0
LAYOUT
  5
3CF
102
{ACAD_REACTORS
330
1A
102
}
100
AcDbPlotSettings
  1

  2
none_device
  4
ANSI_C_(22.00_x_17.00_Inches)
  6

 40
0.0
 41
0.0
 42
0.0
 43
0.0
 44
558.8
 45
431.8
 46
0.0
 47
0.0
 48
0.0
 49
0.0
140
0.0
141
0.0
142
1.0
143
1.0
 70
0
 72
0
 73
0
 74
0
  7

 75
0
147
1.0
148
0.0
149
0.0
100
AcDbLayout
  1
Layout1
 70
0
 71
1
 10
0.0
 20
0.0
 11
22.0
 21
17.0
 12
0.0
 22
0.0
 32
0.0
 14
0.0
 24
0.0
 34
0.0
 15
0.0
 25
0.0
 35
0.0
146
0.0
 13
0.0
 23
0.0
 33
0.0
 16
1.0
 26
0.0
 36
0.0
 17
0.0
 27
1.0
 37
0.0
 76
0
330
20D
345
0
346
0
  0
IMAGEDEF
  5
3D0
102
{ACAD_REACTORS
330
3CB
330
3CA
102
}
100
AcDbRasterImageDef
 90
0
  1
CSL_assy_2_img_1.png
 10
369.0
 20
92.0
 11
0.0066666667
 21
0.0066666667
280
1
281
0
  0
TABLESTYLE
  5
3D1
102
{ACAD_REACTORS
330
3CD
330
28A
330
28B
102
}
330
3CD
100
AcDbTableStyle
  3
Standard
 70
0
 71
0
 40
0.06
 41
0.06
280
1
281
1
  7
Standard
140
0.18
170
1
 62
0
 63
7
283
0
  7
Standard
140
0.18
170
1
 62
0
 63
7
283
0
  7
Standard
140
0.18
170
1
 62
0
 63
7
283
0
  0
TABLESTYLE
  5
3D2
102
{ACAD_REACTORS
330
3CD
330
289
102
}
330
3CD
100
AcDbTableStyle
  3
Standard1
 70
1
 71
0
 40
0.06
 41
0.06
280
1
281
1
  7
Standard
140
0.18
170
1
 62
0
 63
7
283
0
  7
Standard
140
0.18
170
1
 62
0
 63
7
283
0
  7
Standard
140
0.18
170
1
 62
0
 63
7
283
0
  0
ENDSEC
  0
EOF
