999
DXF file: CSK_assy_2.dxf
999
Pro/ENGINEER 2014200 by Parametric Technology Corporation
  0
SECTION
  2
HEADER
  9
$ACADVER
  1
AC1021
  9
$DWGCODEPAGE
  3
ANSI_1252
  9
$EXTMAX
 10
22.0
 20
17.0
 30
0.0
  9
$EXTMIN
 10
0.0
 20
0.0
 30
0.0
  9
$LIMMIN
 10
0.0
 20
0.0
  9
$LIMMAX
 10
22.0
 20
17.0
  9
$VIEWCTR
 10
11.0
 20
8.5
  9
$VIEWSIZE
 40
17.0
  9
$CLAYER
  8
0
  9
$LTSCALE
 40
1.21
  9
$CELTYPE
  6
BYLAYER
  9
$DIMSCALE
 40
1.0
  9
$DIMASZ
 40
0.1875
  9
$DIMEXO
 40
0.0625
  9
$DIMDLI
 40
0.836
  9
$DIMEXE
 40
0.125
  9
$DIMCEN
 40
0.198
  9
$DIMLFAC
 40
1.0
  9
$DIMBLK
  1
_FILLED
  9
$DIMTXT
 40
0.1
  9
$DIMTOL
 70
0
  9
$DIMLIM
 70
0
  9
$DIMTFAC
 40
1.0
  9
$DIMGAP
 40
0.09
  9
$DIMDSEP
 70
46
  9
$AUNITS
 70
0
  9
$PDMODE
 70
3
  9
$PDSIZE
 40
0.3125
  9
$HANDSEED
  5
3A2
  9
$TILEMODE
 70
1
  9
$MEASUREMENT
 70
0
  9
$INSUNITS
 70
1
  0
ENDSEC
  0
SECTION
  2
CLASSES
  0
CLASS
  1
ACDBDICTIONARYWDFLT
  2
AcDbDictionaryWithDefault
  3
AutoCAD 2000
 90
0
 91
1
280
0
281
0
  0
CLASS
  1
ACDBPLACEHOLDER
  2
AcDbPlaceHolder
  3
AutoCAD 2000
 90
0
 91
1
280
0
281
0
  0
CLASS
  1
LAYOUT
  2
AcDbLayout
  3
AutoCAD 2000
 90
0
 91
0
280
0
281
0
  0
CLASS
  1
RASTERVARIABLES
  2
AcDbRasterVariables
  3
ISM
 90
0
 91
1
280
0
281
0
  0
CLASS
  1
IMAGEDEF
  2
AcDbRasterImageDef
  3
ISM
 90
0
 91
1
280
0
281
0
  0
CLASS
  1
IMAGEDEF_REACTOR
  2
AcDbRasterImageDefReactor
  3
ISM
 90
0
 91
1
280
0
281
0
  0
CLASS
  1
IMAGE
  2
AcDbRasterImage
  3
ISM
 90
127
 91
1
280
0
281
1
  0
CLASS
  1
TABLESTYLE
  2
AcDbTableStyle
  3
ObjectDBX Classes
 90
2047
 91
1
280
0
281
0
  0
CLASS
  1
ACAD_TABLE
  2
AcDbTable
  3
ObjectDBX Classes
 90
1025
 91
3
280
0
281
1
  0
ENDSEC
  0
SECTION
  2
TABLES
  0
TABLE
  2
VPORT
  5
8
100
AcDbSymbolTable
 70
2
  0
VPORT
  5
1F4
100
AcDbSymbolTableRecord
100
AcDbViewportTableRecord
  2
*ACTIVE
 70
0
 10
0.0
 20
0.0
 11
1.0
 21
1.0
 12
11.0
 22
8.5
 13
0.0
 23
0.0
 14
1.0
 24
1.0
 15
0.0
 25
0.0
 16
0.0
 26
0.0
 36
1.0
 17
0.0
 27
0.0
 37
0.0
 40
17.0
 41
1.2941176471
 42
50.0
 43
0.0
 44
0.0
 50
0.0
 51
0.0
 71
0
 72
100
 73
1
 74
1
 75
0
 76
0
 77
0
 78
0
  0
ENDTAB
  0
TABLE
  2
LTYPE
  5
5
100
AcDbSymbolTable
 70
6
  0
LTYPE
  5
14
100
AcDbSymbolTableRecord
100
AcDbLinetypeTableRecord
  2
BYBLOCK
 70
0
  3

 72
65
 73
0
 40
0.0
  0
LTYPE
  5
15
100
AcDbSymbolTableRecord
100
AcDbLinetypeTableRecord
  2
BYLAYER
 70
0
  3

 72
65
 73
0
 40
0.0
  0
LTYPE
  5
16
100
AcDbSymbolTableRecord
100
AcDbLinetypeTableRecord
  2
CONTINUOUS
 70
64
  3
Solid line
 72
65
 73
0
 40
0.0
  0
LTYPE
  5
1F5
100
AcDbSymbolTableRecord
100
AcDbLinetypeTableRecord
  2
CENTER
 70
64
  3
____ _ ____ _ ____ _ ____ _ ____ _ ____ _ ____
 72
65
 73
4
 40
0.6
 49
0.375
 74
0
 49
-0.075
 74
0
 49
0.075
 74
0
 49
-0.075
 74
0
  0
LTYPE
  5
1F6
100
AcDbSymbolTableRecord
100
AcDbLinetypeTableRecord
  2
HIDDEN
 70
64
  3
- - - - - - - - - - - - - - - - - - - -
 72
65
 73
2
 40
0.2
 49
0.1
 74
0
 49
-0.1
 74
0
  0
LTYPE
  5
1F7
100
AcDbSymbolTableRecord
100
AcDbLinetypeTableRecord
  2
PHANTOM
 70
64
  3
_____ _ _ _____ _ _ _____ _ _ _____
 72
65
 73
6
 40
0.8
 49
0.45
 74
0
 49
-0.05
 74
0
 49
0.1
 74
0
 49
-0.05
 74
0
 49
0.1
 74
0
 49
-0.05
 74
0
  0
LTYPE
  5
1F8
100
AcDbSymbolTableRecord
100
AcDbLinetypeTableRecord
  2
DOT
 70
64
  3
. . . . . . . . . . . . . . . . . . . .
 72
65
 73
2
 40
0.2
 49
0.1
 74
0
 49
-0.1
 74
0
  0
LTYPE
  5
1F9
100
AcDbSymbolTableRecord
100
AcDbLinetypeTableRecord
  2
DASHED
 70
64
  3
- - - - - - - - - - - - - - - - - - - -
 72
65
 73
2
 40
0.2
 49
0.1
 74
0
 49
-0.1
 74
0
  0
ENDTAB
  0
TABLE
  2
LAYER
  5
2
100
AcDbSymbolTable
 70
36
  0
LAYER
  5
10
100
AcDbSymbolTableRecord
100
AcDbLayerTableRecord
  2
0
 70
0
 62
7
  6
CONTINUOUS
370
-3
390
F
  0
LAYER
  5
1FA
100
AcDbSymbolTableRecord
100
AcDbLayerTableRecord
  2
DEFAULT_1
 70
0
 62
7
  6
CENTER
370
-3
390
F
  0
LAYER
  5
1FB
100
AcDbSymbolTableRecord
100
AcDbLayerTableRecord
  2
DEFAULT_2
 70
0
 62
8
  6
HIDDEN
370
-3
390
F
  0
LAYER
  5
1FC
100
AcDbSymbolTableRecord
100
AcDbLayerTableRecord
  2
DEFAULT_3
 70
0
 62
7
  6
PHANTOM
370
-3
390
F
  0
LAYER
  5
1FD
100
AcDbSymbolTableRecord
100
AcDbLayerTableRecord
  2
01___PRT_ALL_DTM_PLN
 70
0
 62
7
  6
CONTINUOUS
370
-3
390
F
  0
LAYER
  5
1FE
100
AcDbSymbolTableRecord
100
AcDbLayerTableRecord
  2
01___PRT_DEF_DTM_PLN
 70
0
 62
7
  6
CONTINUOUS
370
-3
390
F
  0
LAYER
  5
1FF
100
AcDbSymbolTableRecord
100
AcDbLayerTableRecord
  2
02___PRT_ALL_AXES
 70
0
 62
7
  6
CONTINUOUS
370
-3
390
F
  0
LAYER
  5
200
100
AcDbSymbolTableRecord
100
AcDbLayerTableRecord
  2
03___PRT_ALL_CURVES
 70
0
 62
7
  6
CONTINUOUS
370
-3
390
F
  0
LAYER
  5
201
100
AcDbSymbolTableRecord
100
AcDbLayerTableRecord
  2
04___PRT_ALL_DTM_PNT
 70
0
 62
7
  6
CONTINUOUS
370
-3
390
F
  0
LAYER
  5
202
100
AcDbSymbolTableRecord
100
AcDbLayerTableRecord
  2
05___PRT_ALL_DTM_CSYS
 70
0
 62
7
  6
CONTINUOUS
370
-3
390
F
  0
LAYER
  5
203
100
AcDbSymbolTableRecord
100
AcDbLayerTableRecord
  2
05___PRT_DEF_DTM_CSYS
 70
0
 62
7
  6
CONTINUOUS
370
-3
390
F
  0
LAYER
  5
204
100
AcDbSymbolTableRecord
100
AcDbLayerTableRecord
  2
06___PRT_ALL_SURFS
 70
0
 62
7
  6
CONTINUOUS
370
-3
390
F
  0
LAYER
  5
205
100
AcDbSymbolTableRecord
100
AcDbLayerTableRecord
  2
DATUM_PLANES
 70
0
 62
7
  6
CONTINUOUS
370
-3
390
F
  0
LAYER
  5
206
100
AcDbSymbolTableRecord
100
AcDbLayerTableRecord
  2
PORT_AREAS
 70
0
 62
7
  6
CONTINUOUS
370
-3
390
F
  0
LAYER
  5
207
100
AcDbSymbolTableRecord
100
AcDbLayerTableRecord
  2
SUNNBOMCOSMETIC
 70
0
 62
7
  6
CONTINUOUS
370
-3
390
F
  0
LAYER
  5
208
100
AcDbSymbolTableRecord
100
AcDbLayerTableRecord
  2
SUNNBOMSTAMPING
 70
0
 62
7
  6
CONTINUOUS
370
-3
390
F
  0
LAYER
  5
209
100
AcDbSymbolTableRecord
100
AcDbLayerTableRecord
  2
THREADS
 70
0
 62
7
  6
CONTINUOUS
370
-3
390
F
  0
ENDTAB
  0
TABLE
  2
STYLE
  5
3
100
AcDbSymbolTable
 70
1
  0
STYLE
  5
11
100
AcDbSymbolTableRecord
100
AcDbTextStyleTableRecord
  2
STANDARD
 70
0
 40
0.0
 41
0.8
 50
0.0
 71
0
 42
0.2
  3
txt
  4

  0
STYLE
  5
20A
100
AcDbSymbolTableRecord
100
AcDbTextStyleTableRecord
  2
TEXTSTYLE_1
 70
0
 40
0.0
 41
0.8
 50
0.0
 71
0
 42
0.2
  3
gdt
  4

  0
ENDTAB
  0
TABLE
  2
VIEW
  5
6
100
AcDbSymbolTable
 70
0
  0
ENDTAB
  0
TABLE
  2
UCS
  5
7
100
AcDbSymbolTable
 70
0
  0
ENDTAB
  0
TABLE
  2
APPID
  5
9
100
AcDbSymbolTable
 70
1
  0
APPID
  5
20B
100
AcDbSymbolTableRecord
100
AcDbRegAppTableRecord
  2
ACAD
 70
0
  0
ENDTAB
  0
TABLE
  2
BLOCK_RECORD
  5
1
100
AcDbSymbolTable
 70
0
  0
BLOCK_RECORD
  5
20C
100
AcDbSymbolTableRecord
100
AcDbBlockTableRecord
  2
*Model_Space
  0
BLOCK_RECORD
  5
20D
100
AcDbSymbolTableRecord
100
AcDbBlockTableRecord
  2
*Paper_Space
  0
BLOCK_RECORD
  5
20E
100
AcDbSymbolTableRecord
100
AcDbBlockTableRecord
  2
SUN_FIRST_THIRD_ANGLE_BL0
  0
BLOCK_RECORD
  5
20F
100
AcDbSymbolTableRecord
100
AcDbBlockTableRecord
  2
*T1
  0
BLOCK_RECORD
  5
210
100
AcDbSymbolTableRecord
100
AcDbBlockTableRecord
  2
*T2
  0
BLOCK_RECORD
  5
211
100
AcDbSymbolTableRecord
100
AcDbBlockTableRecord
  2
*T3
  0
ENDTAB
  0
TABLE
  2
DIMSTYLE
  5
A
100
AcDbSymbolTable
 70
1
100
AcDbDimStyleTable
 71
0
  0
DIMSTYLE
105
212
100
AcDbSymbolTableRecord
100
AcDbDimStyleTableRecord
  2
STANDARD
 70
0
  3

  4

 40
1.0
 41
0.1875
 42
0.0625
 43
0.38
 44
0.125
 45
0.0
 46
0.0
 47
0.001
 48
0.001
140
0.1
141
0.09
142
0.0
143
25.4
144
1.0
145
0.0
146
1.0
147
0.09
 71
0.0
 72
0.0
 73
1
 74
1
 75
0
 76
0
 77
0
 78
4
170
0
171
2
172
0
173
0
174
0
175
0
176
0
177
0
178
0
270
2
271
3
272
3
273
2
274
2
275
0
280
0
281
0
282
0
283
1
284
4
285
0
286
0
287
3
288
0
340
11
278
46
  0
ENDTAB
  0
ENDSEC
  0
SECTION
  2
BLOCKS
  0
BLOCK
  5
20
100
AcDbEntity
  8
0
100
AcDbBlockBegin
  2
*Model_Space
 70
0
 10
0.0
 20
0.0
 30
0.0
  3
*Model_Space
  1

  0
ENDBLK
  5
21
100
AcDbEntity
  8
0
100
AcDbBlockEnd
  0
BLOCK
  5
1C
100
AcDbEntity
  8
0
100
AcDbBlockBegin
  2
*Paper_Space
 70
0
 10
0.0
 20
0.0
 30
0.0
  3
*Paper_Space
  1

  0
ENDBLK
  5
1D
100
AcDbEntity
  8
0
100
AcDbBlockEnd
  0
BLOCK
  5
213
100
AcDbEntity
  8
0
100
AcDbBlockBegin
 62
2
  6
CONTINUOUS
  2
SUN_FIRST_THIRD_ANGLE_BL0
 70
64
 10
20.4816717061
 20
1.2289683772
  3
SUN_FIRST_THIRD_ANGLE_BL0
  1

  0
TEXT
  5
214
100
AcDbEntity
  8
0
100
AcDbText
 62
2
  6
CONTINUOUS
 10
19.4750896608
 20
1.4136269581
  7
STANDARD
 40
0.08
  1
FIRST ANGLE
 41
0.8
 72
0
100
AcDbText
  0
TEXT
  5
215
100
AcDbEntity
  8
0
100
AcDbText
 62
2
  6
CONTINUOUS
 10
20.7842537513
 20
1.4047600029
  7
STANDARD
 40
0.08
  1
THIRD ANGLE
 41
0.8
 72
0
100
AcDbText
  0
LINE
  5
216
100
AcDbEntity
  8
0
100
AcDbLine
 62
7
  6
CONTINUOUS
 10
19.4767170086
 20
1.1727031207
 11
19.6334271527
 21
1.1717972817
  0
LINE
  5
217
100
AcDbEntity
  8
0
100
AcDbLine
 62
7
  6
CONTINUOUS
 10
19.6596964832
 20
1.1717972817
 11
19.6950230232
 21
1.171593082
  0
LINE
  5
218
100
AcDbEntity
  8
0
100
AcDbLine
 62
7
  6
CONTINUOUS
 10
19.7194818561
 20
1.1708914427
 11
19.8852396156
 21
1.1699333054
  0
LINE
  5
219
100
AcDbEntity
  8
0
100
AcDbLine
 62
7
  6
CONTINUOUS
 10
19.4758111696
 20
1.2723454088
 11
19.88525039
 21
1.3511534004
  0
LINE
  5
21A
100
AcDbEntity
  8
0
100
AcDbLine
 62
7
  6
CONTINUOUS
 10
19.88525039
 20
1.3511534004
 11
19.8831348489
 21
0.9851647912
  0
LINE
  5
21B
100
AcDbEntity
  8
0
100
AcDbLine
 62
7
  6
CONTINUOUS
 10
19.8831348489
 20
0.9851647912
 11
19.4767170086
 21
1.0658141206
  0
LINE
  5
21C
100
AcDbEntity
  8
0
100
AcDbLine
 62
7
  6
CONTINUOUS
 10
19.4767170086
 20
1.0658141206
 11
19.4779056764
 21
1.2714536432
  0
CIRCLE
  5
21D
100
AcDbEntity
  8
0
100
AcDbCircle
 62
7
  6
CONTINUOUS
 10
20.2068232291
 20
1.1717972817
 40
0.175742101
  0
CIRCLE
  5
21E
100
AcDbEntity
  8
0
100
AcDbCircle
 62
7
  6
CONTINUOUS
 10
20.2068232291
 20
1.1717972817
 40
0.1005522074
  0
LINE
  5
21F
100
AcDbEntity
  8
0
100
AcDbLine
 62
7
  6
CONTINUOUS
 10
20.2077290681
 20
1.3756110529
 11
20.2071171714
 21
1.2379342989
  0
LINE
  5
220
100
AcDbEntity
  8
0
100
AcDbLine
 62
7
  6
CONTINUOUS
 10
20.2077290681
 20
1.2016899681
 11
20.2074674401
 21
1.1428236749
  0
LINE
  5
221
100
AcDbEntity
  8
0
100
AcDbLine
 62
7
  6
CONTINUOUS
 10
20.208634907
 20
1.101141841
 11
20.2080230104
 21
0.963465087
  0
LINE
  5
222
100
AcDbEntity
  8
0
100
AcDbLine
 62
7
  6
CONTINUOUS
 10
20.0066328138
 20
1.1745147986
 11
20.1443095678
 21
1.1739029019
  0
LINE
  5
223
100
AcDbEntity
  8
0
100
AcDbLine
 62
7
  6
CONTINUOUS
 10
20.1832714155
 20
1.1727031207
 11
20.238153505
 21
1.172335442
  0
LINE
  5
224
100
AcDbEntity
  8
0
100
AcDbLine
 62
7
  6
CONTINUOUS
 10
20.2756669918
 20
1.1717972817
 11
20.407916871
 21
1.1712095044
  0
CIRCLE
  5
225
100
AcDbEntity
  8
0
100
AcDbCircle
 62
7
  6
CONTINUOUS
 10
20.7509457401
 20
1.1693297793
 40
0.1722024983
  0
CIRCLE
  5
226
100
AcDbEntity
  8
0
100
AcDbCircle
 62
7
  6
CONTINUOUS
 10
20.7509457401
 20
1.1693297793
 40
0.0985164967
  0
LINE
  5
227
100
AcDbEntity
  8
0
100
AcDbLine
 62
7
  6
CONTINUOUS
 10
20.7169767782
 20
1.170462078
 11
20.7825395137
 21
1.1682766535
  0
LINE
  5
228
100
AcDbEntity
  8
0
100
AcDbLine
 62
7
  6
CONTINUOUS
 10
20.8177513651
 20
1.1693297793
 11
20.947965719
 21
1.1693297793
  0
LINE
  5
229
100
AcDbEntity
  8
0
100
AcDbLine
 62
7
  6
CONTINUOUS
 10
20.6875370113
 20
1.170462078
 11
20.5573226574
 21
1.170462078
  0
LINE
  5
22A
100
AcDbEntity
  8
0
100
AcDbLine
 62
7
  6
CONTINUOUS
 10
20.7486811426
 20
1.1987695462
 11
20.7486811426
 21
1.1432869085
  0
LINE
  5
22B
100
AcDbEntity
  8
0
100
AcDbLine
 62
7
  6
CONTINUOUS
 10
20.7498134414
 20
1.1059210505
 11
20.7498134414
 21
0.9757066966
  0
LINE
  5
22C
100
AcDbEntity
  8
0
100
AcDbLine
 62
7
  6
CONTINUOUS
 10
20.7486811426
 20
1.2338708068
 11
20.7486811426
 21
1.3640851607
  0
LINE
  5
22D
100
AcDbEntity
  8
0
100
AcDbLine
 62
7
  6
CONTINUOUS
 10
21.0702539817
 20
1.2701043662
 11
21.4790138229
 21
1.3448360823
  0
LINE
  5
22E
100
AcDbEntity
  8
0
100
AcDbLine
 62
7
  6
CONTINUOUS
 10
21.4790138229
 20
1.3448360823
 11
21.4790138229
 21
0.9779712941
  0
LINE
  5
22F
100
AcDbEntity
  8
0
100
AcDbLine
 62
7
  6
CONTINUOUS
 10
21.4790138229
 20
0.9779712941
 11
21.069121683
 21
1.0617614
  0
LINE
  5
230
100
AcDbEntity
  8
0
100
AcDbLine
 62
7
  6
CONTINUOUS
 10
21.0702539817
 20
1.2701043662
 11
21.069121683
 21
1.0617614
  0
LINE
  5
231
100
AcDbEntity
  8
0
100
AcDbLine
 62
7
  6
CONTINUOUS
 10
21.4790138229
 20
1.1693297793
 11
21.3159628059
 21
1.1693297793
  0
LINE
  5
232
100
AcDbEntity
  8
0
100
AcDbLine
 62
7
  6
CONTINUOUS
 10
21.2876553377
 20
1.1693297793
 11
21.2502894796
 21
1.1693297793
  0
LINE
  5
233
100
AcDbEntity
  8
0
100
AcDbLine
 62
7
  6
CONTINUOUS
 10
21.2208497126
 20
1.1659328831
 11
21.0713862804
 21
1.1659328831
  0
LINE
  5
234
100
AcDbEntity
  8
0
100
AcDbLine
 62
7
  6
CONTINUOUS
 10
20.4796138713
 20
1.5284908897
 11
20.4766766948
 21
0.9294458646
  0
ENDBLK
  5
235
100
AcDbEntity
  8
0
  6
BYBLOCK
 62
0
100
AcDbBlockEnd
  0
BLOCK
  5
236
100
AcDbEntity
  8
0
100
AcDbBlockBegin
  2
*T1
 70
1
 10
0.0
 20
0.0
  3
*T1
  1

  0
LINE
  5
237
100
AcDbEntity
  8
0
100
AcDbLine
 62
2
  6
CONTINUOUS
 10
9.275
 20
0.0
 11
-0.0
 21
0.0
  0
LINE
  5
238
100
AcDbEntity
  8
0
100
AcDbLine
 62
2
  6
CONTINUOUS
 10
9.275
 20
0.0
 11
9.275
 21
1.25
  0
LINE
  5
239
100
AcDbEntity
  8
0
100
AcDbLine
 62
2
  6
CONTINUOUS
 10
9.275
 20
0.625
 11
-0.0
 21
0.625
  0
LINE
  5
23A
100
AcDbEntity
  8
0
100
AcDbLine
 62
2
  6
CONTINUOUS
 10
9.275
 20
1.25
 11
-0.0
 21
1.25
  0
LINE
  5
23B
100
AcDbEntity
  8
0
100
AcDbLine
 62
2
  6
CONTINUOUS
 10
6.8
 20
0.0
 11
6.8
 21
1.25
  0
LINE
  5
23C
100
AcDbEntity
  8
0
100
AcDbLine
 62
2
  6
CONTINUOUS
 10
6.4
 20
0.0
 11
6.4
 21
0.625
  0
LINE
  5
23D
100
AcDbEntity
  8
0
100
AcDbLine
 62
2
  6
CONTINUOUS
 10
5.9
 20
0.0
 11
5.9
 21
0.625
  0
LINE
  5
23E
100
AcDbEntity
  8
0
100
AcDbLine
 62
2
  6
CONTINUOUS
 10
5.2
 20
0.0
 11
5.2
 21
0.625
  0
LINE
  5
23F
100
AcDbEntity
  8
0
100
AcDbLine
 62
2
  6
CONTINUOUS
 10
4.1
 20
0.0
 11
4.1
 21
1.25
  0
LINE
  5
240
100
AcDbEntity
  8
0
100
AcDbLine
 62
2
  6
CONTINUOUS
 10
-0.0
 20
0.0
 11
-0.0
 21
1.25
  0
MTEXT
  5
241
100
AcDbEntity
  8
0
100
AcDbMText
 62
2
  6
CONTINUOUS
  7
STANDARD
 71
2
 72
1
 10
6.6
 20
0.325
 30
0.0
 11
1.0
 21
0.0
 31
0.0
 44
0.9
  1
2
 40
0.125
 41
0.2
  0
MTEXT
  5
242
100
AcDbEntity
  8
0
100
AcDbMText
 62
2
  6
CONTINUOUS
  7
STANDARD
 71
2
 72
1
 10
6.15
 20
0.325
 30
0.0
 11
1.0
 21
0.0
 31
0.0
 44
0.9
  1
C
 40
0.125
 41
0.2
  0
MTEXT
  5
243
100
AcDbEntity
  8
0
100
AcDbMText
 62
2
  6
CONTINUOUS
  7
STANDARD
 71
2
 72
1
 10
5.55
 20
0.325
 30
0.0
 11
1.0
 21
0.0
 31
0.0
 44
0.9
  1
1.000
 40
0.125
 41
1.0
  0
MTEXT
  5
244
100
AcDbEntity
  8
0
100
AcDbMText
 62
2
  6
CONTINUOUS
  7
STANDARD
 71
2
 72
1
 10
4.65
 20
0.325
 30
0.0
 11
1.0
 21
0.0
 31
0.0
 44
0.9
  1
Aug-02-21
 40
0.125
 41
1.8
  0
MTEXT
  5
245
100
AcDbEntity
  8
0
100
AcDbMText
 62
2
  6
CONTINUOUS
  7
STANDARD
 71
2
 72
1
 10
2.05
 20
0.4625
 30
0.0
 11
1.0
 21
0.0
 31
0.0
 44
0.9
  1
T-3A Subplate ISO 05\PP to T, side ports
 40
0.125
 41
4.0
  0
MTEXT
  5
246
100
AcDbEntity
  8
0
100
AcDbMText
 62
2
  6
CONTINUOUS
  7
STANDARD
 71
1
 72
1
 10
6.45
 20
0.5625
 30
0.0
 11
1.0
 21
0.0
 31
0.0
 44
0.9
  1
SHEET
 40
0.06
 41
0.48
  0
MTEXT
  5
247
100
AcDbEntity
  8
0
100
AcDbMText
 62
2
  6
CONTINUOUS
  7
STANDARD
 71
1
 72
1
 10
5.95
 20
0.5625
 30
0.0
 11
1.0
 21
0.0
 31
0.0
 44
0.9
  1
DWG SIZE
 40
0.06
 41
0.768
  0
MTEXT
  5
248
100
AcDbEntity
  8
0
100
AcDbMText
 62
2
  6
CONTINUOUS
  7
STANDARD
 71
1
 72
1
 10
5.25
 20
0.5625
 30
0.0
 11
1.0
 21
0.0
 31
0.0
 44
0.9
  1
SCALE
 40
0.06
 41
0.48
  0
MTEXT
  5
249
100
AcDbEntity
  8
0
100
AcDbMText
 62
2
  6
CONTINUOUS
  7
STANDARD
 71
1
 72
1
 10
4.15
 20
0.5625
 30
0.0
 11
1.0
 21
0.0
 31
0.0
 44
0.9
  1
DATE
 40
0.06
 41
0.384
  0
MTEXT
  5
24A
100
AcDbEntity
  8
0
100
AcDbMText
 62
2
  6
CONTINUOUS
  7
STANDARD
 71
1
 72
1
 10
0.05
 20
0.5625
 30
0.0
 11
1.0
 21
0.0
 31
0.0
 44
0.9
  1
DESCRIPTION
 40
0.06
 41
1.056
  0
MTEXT
  5
24B
100
AcDbEntity
  8
0
100
AcDbMText
 62
2
  6
CONTINUOUS
  7
STANDARD
 71
2
 72
1
 10
5.45
 20
1.0375
 30
0.0
 11
1.0
 21
0.0
 31
0.0
 44
0.9
  1
ALL DIMENSIONS IN INCH\PVIEWS ARE THIRD ANGLE
 40
0.12
 41
4.224
  0
MTEXT
  5
24C
100
AcDbEntity
  8
0
100
AcDbMText
 62
2
  6
CONTINUOUS
  7
STANDARD
 71
2
 72
1
 10
2.05
 20
0.95
 30
0.0
 11
1.0
 21
0.0
 31
0.0
 44
0.9
  1
CSK
 40
0.125
 41
0.6
  0
MTEXT
  5
24D
100
AcDbEntity
  8
0
100
AcDbMText
 62
2
  6
CONTINUOUS
  7
STANDARD
 71
1
 72
1
 10
0.05
 20
1.1875
 30
0.0
 11
1.0
 21
0.0
 31
0.0
 44
0.9
  1
MODEL
 40
0.06
 41
0.48
  0
ENDBLK
  5
24E
100
AcDbEntity
  8
0
  6
BYBLOCK
 62
0
100
AcDbBlockEnd
  0
BLOCK
  5
24F
100
AcDbEntity
  8
0
100
AcDbBlockBegin
  2
*T2
 70
1
 10
0.0
 20
0.0
  3
*T2
  1

  0
LINE
  5
250
100
AcDbEntity
  8
0
100
AcDbLine
 62
2
  6
CONTINUOUS
 10
0.0
 20
0.0
 11
9.055
 21
0.0
  0
LINE
  5
251
100
AcDbEntity
  8
0
100
AcDbLine
 62
2
  6
CONTINUOUS
 10
0.0
 20
0.0
 11
0.0
 21
-1.844
  0
LINE
  5
252
100
AcDbEntity
  8
0
100
AcDbLine
 62
2
  6
CONTINUOUS
 10
0.0
 20
-0.344
 11
9.055
 21
-0.344
  0
LINE
  5
253
100
AcDbEntity
  8
0
100
AcDbLine
 62
2
  6
CONTINUOUS
 10
0.0
 20
-0.594
 11
9.055
 21
-0.594
  0
LINE
  5
254
100
AcDbEntity
  8
0
100
AcDbLine
 62
2
  6
CONTINUOUS
 10
0.0
 20
-0.844
 11
9.055
 21
-0.844
  0
LINE
  5
255
100
AcDbEntity
  8
0
100
AcDbLine
 62
2
  6
CONTINUOUS
 10
0.0
 20
-1.094
 11
9.055
 21
-1.094
  0
LINE
  5
256
100
AcDbEntity
  8
0
100
AcDbLine
 62
2
  6
CONTINUOUS
 10
0.0
 20
-1.344
 11
9.055
 21
-1.344
  0
LINE
  5
257
100
AcDbEntity
  8
0
100
AcDbLine
 62
2
  6
CONTINUOUS
 10
0.0
 20
-1.594
 11
9.055
 21
-1.594
  0
LINE
  5
258
100
AcDbEntity
  8
0
100
AcDbLine
 62
2
  6
CONTINUOUS
 10
0.0
 20
-1.844
 11
9.055
 21
-1.844
  0
LINE
  5
259
100
AcDbEntity
  8
0
100
AcDbLine
 62
2
  6
CONTINUOUS
 10
3.055
 20
0.0
 11
3.055
 21
-1.844
  0
LINE
  5
25A
100
AcDbEntity
  8
0
100
AcDbLine
 62
2
  6
CONTINUOUS
 10
9.055
 20
0.0
 11
9.055
 21
-1.844
  0
MTEXT
  5
25B
100
AcDbEntity
  8
0
100
AcDbMText
 62
2
  6
CONTINUOUS
  7
STANDARD
 71
2
 72
1
 10
1.5275
 20
-0.0995
 30
0.0
 11
1.0
 21
0.0
 31
0.0
 44
0.9
  1
Technical Data
 40
0.145
 41
3.248
  0
MTEXT
  5
25C
100
AcDbEntity
  8
0
100
AcDbMText
 62
2
  6
CONTINUOUS
  7
STANDARD
 71
2
 72
1
 10
4.555
 20
-0.0995
 30
0.0
 11
1.0
 21
0.0
 31
0.0
 44
0.9
  1
U.S. Units
 40
0.145
 41
2.32
  0
MTEXT
  5
25D
100
AcDbEntity
  8
0
100
AcDbMText
 62
2
  6
CONTINUOUS
  7
STANDARD
 71
2
 72
1
 10
7.555
 20
-0.0995
 30
0.0
 11
1.0
 21
0.0
 31
0.0
 44
0.9
  1
Metric Units
 40
0.145
 41
2.784
  0
MTEXT
  5
25E
100
AcDbEntity
  8
0
100
AcDbMText
 62
2
  6
CONTINUOUS
  7
STANDARD
 71
2
 72
1
 10
1.5275
 20
-0.4065
 30
0.0
 11
1.0
 21
0.0
 31
0.0
 44
0.9
  1
Cavity
 40
0.125
 41
1.2
  0
MTEXT
  5
25F
100
AcDbEntity
  8
0
100
AcDbMText
 62
2
  6
CONTINUOUS
  7
STANDARD
 71
2
 72
1
 10
6.055
 20
-0.4065
 30
0.0
 11
1.0
 21
0.0
 31
0.0
 44
0.9
  1
T-3A
 40
0.125
 41
0.8
  0
MTEXT
  5
260
100
AcDbEntity
  8
0
100
AcDbMText
 62
2
  6
CONTINUOUS
  7
STANDARD
 71
2
 72
1
 10
1.5275
 20
-0.6565
 30
0.0
 11
1.0
 21
0.0
 31
0.0
 44
0.9
  1
Body Features
 40
0.125
 41
2.6
  0
MTEXT
  5
261
100
AcDbEntity
  8
0
100
AcDbMText
 62
2
  6
CONTINUOUS
  7
STANDARD
 71
2
 72
1
 10
6.055
 20
-0.6565
 30
0.0
 11
1.0
 21
0.0
 31
0.0
 44
0.9
  1
P to T, side ports
 40
0.125
 41
3.6
  0
MTEXT
  5
262
100
AcDbEntity
  8
0
100
AcDbMText
 62
2
  6
CONTINUOUS
  7
STANDARD
 71
2
 72
1
 10
1.5275
 20
-0.9065
 30
0.0
 11
1.0
 21
0.0
 31
0.0
 44
0.9
  1
Body Type
 40
0.125
 41
1.8
  0
MTEXT
  5
263
100
AcDbEntity
  8
0
100
AcDbMText
 62
2
  6
CONTINUOUS
  7
STANDARD
 71
2
 72
1
 10
6.055
 20
-0.9065
 30
0.0
 11
1.0
 21
0.0
 31
0.0
 44
0.9
  1
Subplate
 40
0.125
 41
1.6
  0
MTEXT
  5
264
100
AcDbEntity
  8
0
100
AcDbMText
 62
2
  6
CONTINUOUS
  7
STANDARD
 71
2
 72
1
 10
1.5275
 20
-1.1565
 30
0.0
 11
1.0
 21
0.0
 31
0.0
 44
0.9
  1
Interface
 40
0.125
 41
1.8
  0
MTEXT
  5
265
100
AcDbEntity
  8
0
100
AcDbMText
 62
2
  6
CONTINUOUS
  7
STANDARD
 71
2
 72
1
 10
6.055
 20
-1.1565
 30
0.0
 11
1.0
 21
0.0
 31
0.0
 44
0.9
  1
ISO 05
 40
0.125
 41
1.2
  0
MTEXT
  5
266
100
AcDbEntity
  8
0
100
AcDbMText
 62
2
  6
CONTINUOUS
  7
STANDARD
 71
2
 72
1
 10
1.5275
 20
-1.4065
 30
0.0
 11
1.0
 21
0.0
 31
0.0
 44
0.9
  1
Open Cavity Quantity
 40
0.125
 41
4.0
  0
MTEXT
  5
267
100
AcDbEntity
  8
0
100
AcDbMText
 62
2
  6
CONTINUOUS
  7
STANDARD
 71
2
 72
1
 10
6.055
 20
-1.4065
 30
0.0
 11
1.0
 21
0.0
 31
0.0
 44
0.9
  1
1
 40
0.125
 41
0.2
  0
MTEXT
  5
268
100
AcDbEntity
  8
0
100
AcDbMText
 62
2
  6
CONTINUOUS
  7
STANDARD
 71
2
 72
1
 10
1.5275
 20
-1.6565
 30
0.0
 11
1.0
 21
0.0
 31
0.0
 44
0.9
  1
Weight
 40
0.125
 41
1.2
  0
MTEXT
  5
269
100
AcDbEntity
  8
0
100
AcDbMText
 62
2
  6
CONTINUOUS
  7
STANDARD
 71
2
 72
1
 10
4.555
 20
-1.6565
 30
0.0
 11
1.0
 21
0.0
 31
0.0
 44
0.9
  1
2.760 lb.
 40
0.125
 41
1.8
  0
MTEXT
  5
26A
100
AcDbEntity
  8
0
100
AcDbMText
 62
2
  6
CONTINUOUS
  7
STANDARD
 71
2
 72
1
 10
7.555
 20
-1.6565
 30
0.0
 11
1.0
 21
0.0
 31
0.0
 44
0.9
  1
1,252 kg.
 40
0.125
 41
1.8
  0
ENDBLK
  5
26B
100
AcDbEntity
  8
0
  6
BYBLOCK
 62
0
100
AcDbBlockEnd
  0
BLOCK
  5
26C
100
AcDbEntity
  8
0
100
AcDbBlockBegin
  2
*T3
 70
1
 10
0.0
 20
0.0
  3
*T3
  1

  0
LINE
  5
26D
100
AcDbEntity
  8
0
100
AcDbLine
 62
2
  6
CONTINUOUS
 10
0.0
 20
0.0
 11
4.6
 21
0.0
  0
LINE
  5
26E
100
AcDbEntity
  8
0
100
AcDbLine
 62
2
  6
CONTINUOUS
 10
0.0
 20
0.0
 11
0.0
 21
-0.93775
  0
LINE
  5
26F
100
AcDbEntity
  8
0
100
AcDbLine
 62
2
  6
CONTINUOUS
 10
0.0
 20
-0.34375
 11
4.6
 21
-0.34375
  0
LINE
  5
270
100
AcDbEntity
  8
0
100
AcDbLine
 62
2
  6
CONTINUOUS
 10
0.0
 20
-0.68775
 11
4.6
 21
-0.68775
  0
LINE
  5
271
100
AcDbEntity
  8
0
100
AcDbLine
 62
2
  6
CONTINUOUS
 10
0.0
 20
-0.93775
 11
4.6
 21
-0.93775
  0
LINE
  5
272
100
AcDbEntity
  8
0
100
AcDbLine
 62
2
  6
CONTINUOUS
 10
1.3
 20
-0.34375
 11
1.3
 21
-0.93775
  0
LINE
  5
273
100
AcDbEntity
  8
0
100
AcDbLine
 62
2
  6
CONTINUOUS
 10
3.3
 20
-0.34375
 11
3.3
 21
-0.93775
  0
LINE
  5
274
100
AcDbEntity
  8
0
100
AcDbLine
 62
2
  6
CONTINUOUS
 10
4.6
 20
0.0
 11
4.6
 21
-0.93775
  0
MTEXT
  5
275
100
AcDbEntity
  8
0
100
AcDbMText
 62
2
  6
CONTINUOUS
  7
STANDARD
 71
2
 72
1
 10
2.3
 20
-0.099375
 30
0.0
 11
1.0
 21
0.0
 31
0.0
 44
0.9
  1
Port Headings
 40
0.145
 41
3.016
  0
MTEXT
  5
276
100
AcDbEntity
  8
0
100
AcDbMText
 62
2
  6
CONTINUOUS
  7
STANDARD
 71
2
 72
1
 10
0.65
 20
-0.44325
 30
0.0
 11
1.0
 21
0.0
 31
0.0
 44
0.9
  1
Product
 40
0.145
 41
1.624
  0
MTEXT
  5
277
100
AcDbEntity
  8
0
100
AcDbMText
 62
2
  6
CONTINUOUS
  7
STANDARD
 71
2
 72
1
 10
2.3
 20
-0.44325
 30
0.0
 11
1.0
 21
0.0
 31
0.0
 44
0.9
  1
Port
 40
0.145
 41
0.928
  0
MTEXT
  5
278
100
AcDbEntity
  8
0
100
AcDbMText
 62
2
  6
CONTINUOUS
  7
STANDARD
 71
2
 72
1
 10
3.95
 20
-0.44325
 30
0.0
 11
1.0
 21
0.0
 31
0.0
 44
0.9
  1
Size
 40
0.145
 41
0.928
  0
MTEXT
  5
279
100
AcDbEntity
  8
0
100
AcDbMText
 62
2
  6
CONTINUOUS
  7
STANDARD
 71
2
 72
1
 10
0.65
 20
-0.75025
 30
0.0
 11
1.0
 21
0.0
 31
0.0
 44
0.9
  1
CSK
 40
0.125
 41
0.6
  0
MTEXT
  5
27A
100
AcDbEntity
  8
0
100
AcDbMText
 62
2
  6
CONTINUOUS
  7
STANDARD
 71
2
 72
1
 10
2.3
 20
-0.75025
 30
0.0
 11
1.0
 21
0.0
 31
0.0
 44
0.9
  1
Ports A, B, P, T
 40
0.125
 41
3.2
  0
MTEXT
  5
27B
100
AcDbEntity
  8
0
100
AcDbMText
 62
2
  6
CONTINUOUS
  7
STANDARD
 71
2
 72
1
 10
3.95
 20
-0.75025
 30
0.0
 11
1.0
 21
0.0
 31
0.0
 44
0.9
  1
SAE 10
 40
0.125
 41
1.2
  0
ENDBLK
  5
27C
100
AcDbEntity
  8
0
  6
BYBLOCK
 62
0
100
AcDbBlockEnd
  0
ENDSEC
  0
SECTION
  2
ENTITIES
  0
IMAGE
  5
27D
100
AcDbEntity
  8
0
100
AcDbRasterImage
 62
7
  6
CONTINUOUS
 10
19.2297077316
 20
0.3094318264
 30
0.0
 11
0.0066666667
 21
0.0
 31
0.0
 12
0.0
 22
0.0066666667
 32
0.0
 13
369.0
 23
92.0
340
       39F
 70
9
280
0
281
50
282
50
283
0
360
       399
 71
1
 91
2
 14
-0.5
 24
-0.5
 14
368.5
 24
91.5
  0
INSERT
  5
27E
100
AcDbEntity
  8
0
100
AcDbBlockReference
 62
2
  6
CONTINUOUS
  2
SUN_FIRST_THIRD_ANGLE_BL0
 10
20.4816717061
 20
1.2289683772
  0
ACAD_TABLE
  5
27F
100
AcDbEntity
  8
0
 62
2
  6
CONTINUOUS
100
AcDbBlockReference
  2
*T1
 10
12.42375
 20
0.30125
 30
0.0
100
AcDbTable
342
       3A1
343
20F
 11
1.0
 21
0.0
 31
0.0
 90
6
 91
4
 92
6
 93
20
 94
0
 95
0
 96
0
 70
1
 41
0.0
141
0.525
141
0.1
141
0.525
141
0.1
142
4.1
142
1.1
142
0.7
142
0.5
142
0.4
142
2.475
171
1
172
0
173
0
174
0
175
1
176
1
 91
33
178
0
145
0.0
301
CELL_VALUE
 90
4
  1
T-3A Subplate ISO 05\PP to T, side ports
304
ACVALUE_END
170
2
140
0.125
171
1
172
0
173
0
174
0
175
1
176
1
 91
33
178
0
145
0.0
301
CELL_VALUE
 90
4
  1
Aug-02-21
304
ACVALUE_END
170
5
140
0.125
171
1
172
0
173
0
174
0
175
1
176
1
 91
33
178
0
145
0.0
301
CELL_VALUE
 90
4
  1
1.000
304
ACVALUE_END
170
5
140
0.125
171
1
172
0
173
0
174
0
175
1
176
1
 91
33
178
0
145
0.0
301
CELL_VALUE
 90
4
  1
C
304
ACVALUE_END
170
5
140
0.125
171
1
172
0
173
0
174
0
175
1
176
1
 91
33
178
0
145
0.0
301
CELL_VALUE
 90
4
  1
2
304
ACVALUE_END
170
5
140
0.125
171
1
172
0
173
0
174
0
175
1
176
1
 91
33
178
0
145
0.0
301
CELL_VALUE
 90
4
  1
 
304
ACVALUE_END
170
1
140
0.125
171
1
172
0
173
0
174
0
175
1
176
1
 91
33
178
0
145
0.0
301
CELL_VALUE
 90
4
  1
DESCRIPTION
304
ACVALUE_END
170
1
140
0.06
171
1
172
0
173
0
174
0
175
1
176
1
 91
33
178
0
145
0.0
301
CELL_VALUE
 90
4
  1
DATE
304
ACVALUE_END
170
1
140
0.06
171
1
172
0
173
0
174
0
175
1
176
1
 91
33
178
0
145
0.0
301
CELL_VALUE
 90
4
  1
SCALE
304
ACVALUE_END
170
1
140
0.06
171
1
172
0
173
0
174
0
175
1
176
1
 91
33
178
0
145
0.0
301
CELL_VALUE
 90
4
  1
DWG SIZE
304
ACVALUE_END
170
1
140
0.06
171
1
172
0
173
0
174
0
175
1
176
1
 91
33
178
0
145
0.0
301
CELL_VALUE
 90
4
  1
SHEET
304
ACVALUE_END
170
1
140
0.06
171
1
172
0
173
0
174
0
175
1
176
1
 91
33
178
0
145
0.0
301
CELL_VALUE
 90
4
  1
 
304
ACVALUE_END
170
1
140
0.125
171
1
172
0
173
0
174
0
175
1
176
1
 91
33
178
0
145
0.0
301
CELL_VALUE
 90
4
  1
CSK
304
ACVALUE_END
170
5
140
0.125
171
1
172
0
173
0
174
0
175
4
176
1
 91
33
178
0
145
0.0
301
CELL_VALUE
 90
4
  1
ALL DIMENSIONS IN INCH\PVIEWS ARE THIRD ANGLE
304
ACVALUE_END
170
5
140
0.12
171
1
172
0
173
1
174
0
175
1
176
1
 91
1
178
0
145
0.0
170
1
171
1
172
0
173
1
174
0
175
1
176
1
 91
1
178
0
145
0.0
170
1
171
1
172
0
173
1
174
0
175
1
176
1
 91
1
178
0
145
0.0
170
5
171
1
172
0
173
0
174
0
175
1
176
1
 91
33
178
0
145
0.0
301
CELL_VALUE
 90
4
  1
 
304
ACVALUE_END
170
1
140
0.125
171
1
172
0
173
0
174
0
175
1
176
1
 91
33
178
0
145
0.0
301
CELL_VALUE
 90
4
  1
MODEL
304
ACVALUE_END
170
1
140
0.06
171
1
172
0
173
0
174
0
175
1
176
1
 91
33
178
0
145
0.0
301
CELL_VALUE
 90
4
  1
 
304
ACVALUE_END
170
1
140
0.125
171
1
172
0
173
0
174
0
175
1
176
1
 91
33
178
0
145
0.0
301
CELL_VALUE
 90
4
  1
 
304
ACVALUE_END
170
1
140
0.125
171
1
172
0
173
0
174
0
175
1
176
1
 91
33
178
0
145
0.0
301
CELL_VALUE
 90
4
  1
 
304
ACVALUE_END
170
1
140
0.125
171
1
172
0
173
0
174
0
175
1
176
1
 91
33
178
0
145
0.0
301
CELL_VALUE
 90
4
  1
 
304
ACVALUE_END
170
1
140
0.125
171
1
172
0
173
0
174
0
175
1
176
1
 91
33
178
0
145
0.0
301
CELL_VALUE
 90
4
  1
 
304
ACVALUE_END
170
1
140
0.125
  0
ACAD_TABLE
  5
280
100
AcDbEntity
  8
0
 62
2
  6
CONTINUOUS
100
AcDbBlockReference
  2
*T2
 10
12.4237499994
 20
16.47875
 30
0.0
100
AcDbTable
342
       3A0
343
210
 11
1.0
 21
0.0
 31
0.0
 90
22
 91
7
 92
3
 93
16
 94
0
 95
0
 96
0
 41
0.028
141
0.344
141
0.25
141
0.25
141
0.25
141
0.25
141
0.25
141
0.25
142
3.055
142
3.0
142
3.0
171
1
172
0
173
0
174
0
175
1
176
1
 91
33
178
0
145
0.0
301
CELL_VALUE
 90
4
  1
Technical Data
304
ACVALUE_END
170
5
140
0.145
171
1
172
0
173
0
174
0
175
1
176
1
 91
33
178
0
145
0.0
301
CELL_VALUE
 90
4
  1
U.S. Units
304
ACVALUE_END
170
5
140
0.145
171
1
172
0
173
0
174
0
175
1
176
1
 91
33
178
0
145
0.0
301
CELL_VALUE
 90
4
  1
Metric Units
304
ACVALUE_END
170
5
140
0.145
171
1
172
0
173
0
174
0
175
1
176
1
 91
33
178
0
145
0.0
301
CELL_VALUE
 90
4
  1
Cavity
304
ACVALUE_END
170
5
140
0.125
171
1
172
0
173
0
174
0
175
2
176
1
 91
33
178
0
145
0.0
301
CELL_VALUE
 90
4
  1
T-3A
304
ACVALUE_END
170
5
140
0.125
171
1
172
0
173
1
174
0
175
1
176
1
 91
1
178
0
145
0.0
170
1
171
1
172
0
173
0
174
0
175
1
176
1
 91
33
178
0
145
0.0
301
CELL_VALUE
 90
4
  1
Body Features
304
ACVALUE_END
170
5
140
0.125
171
1
172
0
173
0
174
0
175
2
176
1
 91
33
178
0
145
0.0
301
CELL_VALUE
 90
4
  1
P to T, side ports
304
ACVALUE_END
170
5
140
0.125
171
1
172
0
173
1
174
0
175
1
176
1
 91
1
178
0
145
0.0
170
1
171
1
172
0
173
0
174
0
175
1
176
1
 91
33
178
0
145
0.0
301
CELL_VALUE
 90
4
  1
Body Type
304
ACVALUE_END
170
5
140
0.125
171
1
172
0
173
0
174
0
175
2
176
1
 91
33
178
0
145
0.0
301
CELL_VALUE
 90
4
  1
Subplate
304
ACVALUE_END
170
5
140
0.125
171
1
172
0
173
1
174
0
175
1
176
1
 91
1
178
0
145
0.0
170
1
171
1
172
0
173
0
174
0
175
1
176
1
 91
33
178
0
145
0.0
301
CELL_VALUE
 90
4
  1
Interface
304
ACVALUE_END
170
5
140
0.125
171
1
172
0
173
0
174
0
175
2
176
1
 91
33
178
0
145
0.0
301
CELL_VALUE
 90
4
  1
ISO 05
304
ACVALUE_END
170
5
140
0.125
171
1
172
0
173
1
174
0
175
1
176
1
 91
1
178
0
145
0.0
170
1
171
1
172
0
173
0
174
0
175
1
176
1
 91
33
178
0
145
0.0
301
CELL_VALUE
 90
4
  1
Open Cavity Quantity
304
ACVALUE_END
170
5
140
0.125
171
1
172
0
173
0
174
0
175
2
176
1
 91
33
178
0
145
0.0
301
CELL_VALUE
 90
4
  1
1
304
ACVALUE_END
170
5
140
0.125
171
1
172
0
173
1
174
0
175
1
176
1
 91
1
178
0
145
0.0
170
1
171
1
172
0
173
0
174
0
175
1
176
1
 91
33
178
0
145
0.0
301
CELL_VALUE
 90
4
  1
Weight
304
ACVALUE_END
170
5
140
0.125
171
1
172
0
173
0
174
0
175
1
176
1
 91
33
178
0
145
0.0
301
CELL_VALUE
 90
4
  1
2.760 lb.
304
ACVALUE_END
170
5
140
0.125
171
1
172
0
173
0
174
0
175
1
176
1
 91
33
178
0
145
0.0
301
CELL_VALUE
 90
4
  1
1,252 kg.
304
ACVALUE_END
170
5
140
0.125
  0
ACAD_TABLE
  5
281
100
AcDbEntity
  8
0
 62
2
  6
CONTINUOUS
100
AcDbBlockReference
  2
*T3
 10
0.52125
 20
1.459
 30
0.0
100
AcDbTable
342
       3A0
343
211
 11
1.0
 21
0.0
 31
0.0
 90
22
 91
3
 92
3
 93
16
 94
0
 95
0
 96
0
 41
0.05
141
0.34375
141
0.344
141
0.25
142
1.3
142
2.0
142
1.3
171
1
172
0
173
0
174
0
175
3
176
1
 91
33
178
0
145
0.0
301
CELL_VALUE
 90
4
  1
Port Headings
304
ACVALUE_END
170
5
140
0.145
171
1
172
0
173
1
174
0
175
1
176
1
 91
1
178
0
145
0.0
170
1
171
1
172
0
173
1
174
0
175
1
176
1
 91
1
178
0
145
0.0
170
1
171
1
172
0
173
0
174
0
175
1
176
1
 91
33
178
0
145
0.0
301
CELL_VALUE
 90
4
  1
Product
304
ACVALUE_END
170
5
140
0.145
171
1
172
0
173
0
174
0
175
1
176
1
 91
33
178
0
145
0.0
301
CELL_VALUE
 90
4
  1
Port
304
ACVALUE_END
170
5
140
0.145
171
1
172
0
173
0
174
0
175
1
176
1
 91
33
178
0
145
0.0
301
CELL_VALUE
 90
4
  1
Size
304
ACVALUE_END
170
5
140
0.145
171
1
172
0
173
0
174
0
175
1
176
1
 91
33
178
0
145
0.0
301
CELL_VALUE
 90
4
  1
CSK
304
ACVALUE_END
170
5
140
0.125
171
1
172
0
173
0
174
0
175
1
176
1
 91
33
178
0
145
0.0
301
CELL_VALUE
 90
4
  1
Ports A, B, P, T
304
ACVALUE_END
170
5
140
0.125
171
1
172
0
173
0
174
0
175
1
176
1
 91
33
178
0
145
0.0
301
CELL_VALUE
 90
4
  1
SAE 10
304
ACVALUE_END
170
5
140
0.125
  0
MTEXT
  5
282
100
AcDbEntity
  8
0
100
AcDbMText
 62
2
  6
CONTINUOUS
  7
STANDARD
 71
1
 72
1
 10
0.52125
 20
5.75995
 30
0.0
 11
1.0
 21
0.0
 31
0.0
 44
0.6
  3
Notes\P \P1. Important: Carefully consider\P   the maximum system pressure. The\P   pressure rating of the manifold is\P   dependent on the manifold material,\P   with the port type/size a secondary\P   consideration. Manifolds\P   constructed of alu
  1
minum are not\P   rated for pressures higher than\P   3000 psi (210 bar), regardless of\P   the port type/size specified.
 40
0.1
 41
3.04
  0
LINE
  5
283
100
AcDbEntity
  8
0
100
AcDbLine
 62
7
  6
CONTINUOUS
 10
0.30125
 20
0.30125
 11
0.30125
 21
16.69875
  0
LINE
  5
284
100
AcDbEntity
  8
0
100
AcDbLine
 62
7
  6
CONTINUOUS
 10
0.30125
 20
0.30125
 11
21.69875
 21
0.30125
  0
LINE
  5
285
100
AcDbEntity
  8
0
100
AcDbLine
 62
7
  6
CONTINUOUS
 10
0.30125
 20
16.69875
 11
21.69875
 21
16.69875
  0
LINE
  5
286
100
AcDbEntity
  8
0
100
AcDbLine
 62
7
  6
CONTINUOUS
 10
21.69875
 20
0.30125
 11
21.69875
 21
16.69875
  0
LINE
  5
287
100
AcDbEntity
  8
0
100
AcDbLine
 62
7
  6
CONTINUOUS
 10
9.318943676
 20
11.0495574229
 11
8.8173527899
 21
10.5650578031
  0
LINE
  5
288
100
AcDbEntity
  8
02___PRT_ALL_AXES
100
AcDbLine
 62
7
  6
CONTINUOUS
 10
10.045465855
 20
10.8148240511
 11
10.0461343191
 21
10.8154566639
  0
LINE
  5
289
100
AcDbEntity
  8
02___PRT_ALL_AXES
100
AcDbLine
 62
7
  6
CONTINUOUS
 10
10.000848823
 20
10.7733147479
 11
10.0461301791
 21
10.8154538034
  0
LINE
  5
28A
100
AcDbEntity
  8
0
100
AcDbLine
 62
7
  6
CONTINUOUS
 10
8.8173527899
 20
6.2183913273
 11
12.681056324
 21
5.9504425771
  0
LINE
  5
28B
100
AcDbEntity
  8
0
100
AcDbLine
 62
7
  6
CONTINUOUS
 10
8.8173527899
 20
10.5650578031
 11
8.8173527899
 21
6.2183913273
  0
LINE
  5
28C
100
AcDbEntity
  8
0
100
AcDbLine
 62
4
  6
CONTINUOUS
 10
8.9743157456
 20
7.5008807624
 11
8.9743157456
 21
7.384969659
  0
LINE
  5
28D
100
AcDbEntity
  8
0
100
AcDbLine
 62
4
  6
CONTINUOUS
 10
10.5820994142
 20
6.3761242397
 11
10.625566078
 21
6.3731098163
  0
LINE
  5
28E
100
AcDbEntity
  8
0
100
AcDbLine
 62
4
  6
CONTINUOUS
 10
11.7049191849
 20
6.3349616219
 11
11.6635223543
 21
6.3378325019
  0
LINE
  5
28F
100
AcDbEntity
  8
0
100
AcDbLine
 62
4
  6
CONTINUOUS
 10
11.6138461908
 20
6.3412775555
 11
11.5890080815
 21
6.3430000842
  0
LINE
  5
290
100
AcDbEntity
  8
0
100
AcDbLine
 62
4
  6
CONTINUOUS
 10
11.5255329744
 20
6.3474020979
 11
11.4924155321
 21
6.3496988003
  0
LINE
  5
291
100
AcDbEntity
  8
0
100
AcDbLine
 62
4
  6
CONTINUOUS
 10
11.0398102497
 20
6.3810870832
 11
10.998413433
 21
6.3839579622
  0
LINE
  5
292
100
AcDbEntity
  8
0
100
AcDbLine
 62
4
  6
CONTINUOUS
 10
11.3019901282
 20
6.3629048469
 11
11.3516663193
 21
6.3594597914
  0
LINE
  5
293
100
AcDbEntity
  8
0
100
AcDbLine
 62
4
  6
CONTINUOUS
 10
11.7683943472
 20
6.3305596045
 11
11.8180705107
 21
6.3271145508
  0
LINE
  5
294
100
AcDbEntity
  8
0
100
AcDbLine
 62
4
  6
CONTINUOUS
 10
11.1143245295
 20
6.40903696
 11
11.1584811377
 21
6.4059746888
  0
LINE
  5
295
100
AcDbEntity
  8
0
100
AcDbLine
 62
4
  6
CONTINUOUS
 10
11.8015117895
 20
6.3944978212
 11
11.7683943472
 21
6.3967945237
  0
LINE
  5
296
100
AcDbEntity
  8
0
100
AcDbLine
 62
4
  6
CONTINUOUS
 10
11.3351075981
 20
6.4268430618
 11
11.3019901282
 21
6.4291397661
  0
LINE
  5
297
100
AcDbEntity
  8
0
100
AcDbLine
 62
4
  6
CONTINUOUS
 10
10.998413433
 20
6.4998690657
 11
11.0398102497
 21
6.4969981867
  0
LINE
  5
298
100
AcDbEntity
  8
0
100
AcDbLine
 62
4
  6
CONTINUOUS
 10
11.2026377459
 20
6.4857060615
 11
11.2688726582
 21
6.4811126547
  0
LINE
  5
299
100
AcDbEntity
  8
0
100
AcDbLine
 62
4
  6
CONTINUOUS
 10
11.3019901282
 20
6.4788159503
 11
11.3516663193
 21
6.4753708948
  0
LINE
  5
29A
100
AcDbEntity
  8
0
100
AcDbLine
 62
4
  6
CONTINUOUS
 10
11.4924155321
 20
6.4656099037
 11
11.5255329744
 21
6.4633132013
  0
LINE
  5
29B
100
AcDbEntity
  8
0
100
AcDbLine
 62
4
  6
CONTINUOUS
 10
11.5890080815
 20
6.4589111877
 11
11.6138461908
 21
6.4571886589
  0
LINE
  5
29C
100
AcDbEntity
  8
0
100
AcDbLine
 62
4
  6
CONTINUOUS
 10
11.6635223543
 20
6.4537436053
 11
11.7049191849
 21
6.4508727253
  0
LINE
  5
29D
100
AcDbEntity
  8
0
100
AcDbLine
 62
4
  6
CONTINUOUS
 10
11.7683943472
 20
6.4464707079
 11
11.8180705107
 21
6.4430256543
  0
LINE
  5
29E
100
AcDbEntity
  8
0
100
AcDbLine
 62
7
  6
CONTINUOUS
 10
10.6409591622
 20
10.77352645
 11
10.6400856431
 21
10.7726985399
  0
LINE
  5
29F
100
AcDbEntity
  8
0
100
AcDbLine
 62
4
  6
CONTINUOUS
 10
11.3406270935
 20
6.6152297918
 11
11.3075096356
 21
6.6175264953
  0
LINE
  5
2A0
100
AcDbEntity
  8
0
100
AcDbLine
 62
4
  6
CONTINUOUS
 10
11.3958228572
 20
6.6114019526
 11
11.4289403134
 21
6.6091052492
  0
LINE
  5
2A1
100
AcDbEntity
  8
0
100
AcDbLine
 62
4
  6
CONTINUOUS
 10
10.9321785138
 20
6.4382275572
 11
10.9763351254
 21
6.4130869799
  0
LINE
  5
2A2
100
AcDbEntity
  8
0
100
AcDbLine
 62
4
  6
CONTINUOUS
 10
11.3075096356
 20
6.7334375987
 11
11.3406270935
 21
6.7311408952
  0
LINE
  5
2A3
100
AcDbEntity
  8
0
100
AcDbLine
 62
4
  6
CONTINUOUS
 10
11.4041022178
 20
6.7267388804
 11
11.4372196739
 21
6.724442177
  0
LINE
  5
2A4
100
AcDbEntity
  8
0
100
AcDbLine
 62
4
  6
CONTINUOUS
 10
11.3185488572
 20
6.9253052408
 11
11.3351075783
 21
6.9241568896
  0
LINE
  5
2A5
100
AcDbEntity
  8
0
100
AcDbLine
 62
4
  6
CONTINUOUS
 10
11.162137871
 20
10.2285797426
 11
11.1476489831
 21
10.2199252941
  0
LINE
  5
2A6
100
AcDbEntity
  8
0
100
AcDbLine
 62
4
  6
CONTINUOUS
 10
11.8732663202
 20
6.9144333359
 11
11.8401487673
 21
6.916730046
  0
LINE
  5
2A7
100
AcDbEntity
  8
0
100
AcDbLine
 62
4
  6
CONTINUOUS
 10
11.7380366627
 20
6.9238115445
 11
11.7214779415
 21
6.9249598957
  0
LINE
  5
2A8
100
AcDbEntity
  8
0
100
AcDbLine
 62
4
  6
CONTINUOUS
 10
11.5972874499
 20
6.9335725356
 11
11.5641700076
 21
6.935869238
  0
LINE
  5
2A9
100
AcDbEntity
  8
0
100
AcDbLine
 62
4
  6
CONTINUOUS
 10
11.4399795159
 20
6.9444818779
 11
11.4068620736
 21
6.9467785803
  0
LINE
  5
2AA
100
AcDbEntity
  8
0
100
AcDbLine
 62
4
  6
CONTINUOUS
 10
10.8797425295
 20
6.9833344448
 11
10.9128599883
 21
6.9810377413
  0
LINE
  5
2AB
100
AcDbEntity
  8
0
100
AcDbLine
 62
4
  6
CONTINUOUS
 10
10.9790949006
 20
6.9764443345
 11
11.003933003
 21
6.9747218062
  0
LINE
  5
2AC
100
AcDbEntity
  8
0
100
AcDbLine
 62
4
  6
CONTINUOUS
 10
11.6386842804
 20
6.9307016556
 11
11.680081111
 21
6.9278307757
  0
LINE
  5
2AD
100
AcDbEntity
  8
0
100
AcDbLine
 62
4
  6
CONTINUOUS
 10
11.9146630955
 20
6.9115624598
 11
11.9477805378
 21
6.9092657574
  0
LINE
  5
2AE
100
AcDbEntity
  8
0
100
AcDbLine
 62
4
  6
CONTINUOUS
 10
11.5641700076
 20
6.9772660617
 11
11.5972874499
 21
6.9749693592
  0
LINE
  5
2AF
100
AcDbEntity
  8
0
100
AcDbLine
 62
4
  6
CONTINUOUS
 10
11.5890081169
 20
7.0169403566
 11
11.5476112864
 21
7.0198112365
  0
LINE
  5
2B0
100
AcDbEntity
  8
0
100
AcDbLine
 62
4
  6
CONTINUOUS
 10
11.2357551961
 20
7.0414385298
 11
11.2771520266
 21
7.0385676499
  0
LINE
  5
2B1
100
AcDbEntity
  8
0
100
AcDbLine
 62
4
  6
CONTINUOUS
 10
11.4068620736
 20
7.0295722276
 11
11.4399795159
 21
7.0272755252
  0
LINE
  5
2B2
100
AcDbEntity
  8
0
100
AcDbLine
 62
4
  6
CONTINUOUS
 10
11.4730970135
 20
7.0249788189
 11
11.5062144558
 21
7.0226821165
  0
LINE
  5
2B3
100
AcDbEntity
  8
0
100
AcDbLine
 62
4
  6
CONTINUOUS
 10
11.8401487673
 20
6.9995236933
 11
11.8732663202
 21
6.9972269832
  0
LINE
  5
2B4
100
AcDbEntity
  8
0
100
AcDbLine
 62
4
  6
CONTINUOUS
 10
11.9146630955
 20
6.9943561071
 11
11.9477805378
 21
6.9920594047
  0
LINE
  5
2B5
100
AcDbEntity
  8
0
100
AcDbLine
 62
4
  6
CONTINUOUS
 10
10.8880218944
 20
7.0986713724
 11
10.9211393523
 21
7.0963746689
  0
LINE
  5
2B6
100
AcDbEntity
  8
0
100
AcDbLine
 62
4
  6
CONTINUOUS
 10
11.7877128262
 20
7.0362775943
 11
11.7904726039
 21
7.0360862031
  0
LINE
  5
2B7
100
AcDbEntity
  8
0
100
AcDbLine
 62
4
  6
CONTINUOUS
 10
11.851187953
 20
6.3965723436
 11
11.8953445612
 21
6.3714317649
  0
LINE
  5
2B8
100
AcDbEntity
  8
0
100
AcDbLine
 62
4
  6
CONTINUOUS
 10
11.0398102497
 20
6.4969981867
 11
11.0563689778
 21
6.4792911069
  0
LINE
  5
2B9
100
AcDbEntity
  8
0
100
AcDbLine
 62
4
  6
CONTINUOUS
 10
8.9380935258
 20
7.5033927819
 11
9.0105379655
 21
7.4983687429
  0
LINE
  5
2BA
100
AcDbEntity
  8
0
100
AcDbLine
 62
4
  6
CONTINUOUS
 10
11.9477805378
 20
6.947902793
 11
11.9146630955
 21
6.9557190715
  0
LINE
  5
2BB
100
AcDbEntity
  8
0
100
AcDbLine
 62
4
  6
CONTINUOUS
 10
11.4068620736
 20
6.9467785803
 11
11.3903033524
 21
6.9562062964
  0
LINE
  5
2BC
100
AcDbEntity
  8
0
100
AcDbLine
 62
4
  6
CONTINUOUS
 10
10.9294187163
 20
7.0130068492
 11
10.8714631646
 21
7.066702268
  0
LINE
  5
2BD
100
AcDbEntity
  8
0
100
AcDbLine
 62
4
  6
CONTINUOUS
 10
10.8714631646
 20
6.9921879856
 11
10.8797425295
 21
6.9833344448
  0
LINE
  5
2BE
100
AcDbEntity
  8
0
100
AcDbLine
 62
4
  6
CONTINUOUS
 10
11.4924155321
 20
6.3496988003
 11
11.4758568109
 21
6.3674058813
  0
LINE
  5
2BF
100
AcDbEntity
  8
0
100
AcDbLine
 62
4
  6
CONTINUOUS
 10
11.169382315
 20
10.2377366019
 11
11.162137871
 21
10.2285797426
  0
LINE
  5
2C0
100
AcDbEntity
  8
0
100
AcDbLine
 62
4
  6
CONTINUOUS
 10
11.5641700076
 20
6.935869238
 11
11.5476112864
 21
6.9452969541
  0
LINE
  5
2C1
100
AcDbEntity
  8
0
100
AcDbLine
 62
4
  6
CONTINUOUS
 10
11.4454990483
 20
6.6410743566
 11
11.3875434897
 21
6.694769776
  0
LINE
  5
2C2
100
AcDbEntity
  8
0
100
AcDbLine
 62
4
  6
CONTINUOUS
 10
11.3075096356
 20
6.6175264953
 11
11.2909509058
 21
6.6352335769
  0
LINE
  5
2C3
100
AcDbEntity
  8
0
100
AcDbLine
 62
4
  6
CONTINUOUS
 10
10.9625361725
 20
6.994151416
 11
10.9790949006
 21
6.9764443345
  0
LINE
  5
2C4
100
AcDbEntity
  8
0
100
AcDbLine
 62
4
  6
CONTINUOUS
 10
11.5890080815
 20
6.3430000842
 11
11.5724493603
 21
6.3607071653
  0
LINE
  5
2C5
100
AcDbEntity
  8
0
100
AcDbLine
 62
4
  6
CONTINUOUS
 10
10.9211393523
 20
7.0963746689
 11
10.9294187163
 21
7.0875211255
  0
LINE
  5
2C6
100
AcDbEntity
  8
0
100
AcDbLine
 62
4
  6
CONTINUOUS
 10
11.3875434897
 20
6.6202554936
 11
11.3958228572
 21
6.6114019526
  0
LINE
  5
2C7
100
AcDbEntity
  8
0
100
AcDbLine
 62
4
  6
CONTINUOUS
 10
11.6138461908
 20
6.4571886589
 11
11.630404912
 21
6.4394815797
  0
LINE
  5
2C8
100
AcDbEntity
  8
0
100
AcDbLine
 62
4
  6
CONTINUOUS
 10
11.4372196739
 20
6.724442177
 11
11.4454990483
 21
6.715588633
  0
LINE
  5
2C9
100
AcDbEntity
  8
0
100
AcDbLine
 62
4
  6
CONTINUOUS
 10
11.7049191849
 20
6.4508727253
 11
11.721477906
 21
6.4331656461
  0
LINE
  5
2CA
100
AcDbEntity
  8
0
100
AcDbLine
 62
4
  6
CONTINUOUS
 10
10.6038327461
 20
6.4518910958
 11
10.640054966
 21
6.3334679729
  0
LINE
  5
2CB
100
AcDbEntity
  8
0
100
AcDbLine
 62
7
  6
CONTINUOUS
 10
10.2561137105
 20
10.8421495842
 11
10.2561137105
 21
10.7582815612
  0
LINE
  5
2CC
100
AcDbEntity
  8
0
100
AcDbLine
 62
4
  6
CONTINUOUS
 10
11.9146630955
 20
6.9557190715
 11
11.9063837626
 21
6.9618128212
  0
LINE
  5
2CD
100
AcDbEntity
  8
0
100
AcDbLine
 62
4
  6
CONTINUOUS
 10
11.9560598708
 20
6.9418090433
 11
11.9477805378
 21
6.947902793
  0
LINE
  5
2CE
100
AcDbEntity
  8
0
100
AcDbLine
 62
4
  6
CONTINUOUS
 10
11.2771520266
 20
7.0385676499
 11
11.2854313872
 21
7.0297141068
  0
LINE
  5
2CF
100
AcDbEntity
  8
0
100
AcDbLine
 62
7
  6
CONTINUOUS
 10
10.4306667896
 20
10.8300442871
 11
10.4306667896
 21
10.772761346
  0
LINE
  5
2D0
100
AcDbEntity
  8
0
100
AcDbLine
 62
4
  6
CONTINUOUS
 10
11.6304048922
 20
6.9395551981
 11
11.6386842804
 21
6.9307016556
  0
LINE
  5
2D1
100
AcDbEntity
  8
0
100
AcDbLine
 62
4
  6
CONTINUOUS
 10
11.7214779415
 20
6.9249598957
 11
11.7131985533
 21
6.9338134382
  0
LINE
  5
2D2
100
AcDbEntity
  8
0
100
AcDbLine
 62
4
  6
CONTINUOUS
 10
11.8401487673
 20
6.916730046
 11
11.8318694344
 21
6.9255835846
  0
LINE
  5
2D3
100
AcDbEntity
  8
0
100
AcDbLine
 62
4
  6
CONTINUOUS
 10
11.0536091803
 20
7.0871878551
 11
11.1115647321
 21
6.9672575205
  0
LINE
  5
2D4
100
AcDbEntity
  8
0
100
AcDbLine
 62
4
  6
CONTINUOUS
 10
12.4994622934
 20
8.1962568436
 11
12.5501734011
 21
8.1927400163
  0
LINE
  5
2D5
100
AcDbEntity
  8
0
100
AcDbLine
 62
4
  6
CONTINUOUS
 10
11.9063837626
 20
6.9204159984
 11
11.9146630955
 21
6.9115624598
  0
LINE
  5
2D6
100
AcDbEntity
  8
0
100
AcDbLine
 62
4
  6
CONTINUOUS
 10
11.9477805378
 20
6.9920594047
 11
11.9560598708
 21
6.9832058635
  0
LINE
  5
2D7
100
AcDbEntity
  8
0
100
AcDbLine
 62
4
  6
CONTINUOUS
 10
11.5062144558
 20
7.0226821165
 11
11.5117340111
 21
7.0140199665
  0
LINE
  5
2D8
100
AcDbEntity
  8
0
100
AcDbLine
 62
4
  6
CONTINUOUS
 10
11.5034546001
 20
6.6701725851
 11
11.5365720562
 21
6.6016409625
  0
LINE
  5
2D9
100
AcDbEntity
  8
0
100
AcDbLine
 62
4
  6
CONTINUOUS
 10
11.1364028336
 20
6.4902994682
 11
11.1695203036
 21
6.3720916604
  0
LINE
  5
2DA
100
AcDbEntity
  8
0
100
AcDbLine
 62
4
  6
CONTINUOUS
 10
10.8714631646
 20
7.066702268
 11
10.8714631646
 21
7.0832609961
  0
LINE
  5
2DB
100
AcDbEntity
  8
0
100
AcDbLine
 62
4
  6
CONTINUOUS
 10
10.9294187163
 20
6.9964481194
 11
10.9294187163
 21
7.0130068492
  0
LINE
  5
2DC
100
AcDbEntity
  8
0
100
AcDbLine
 62
4
  6
CONTINUOUS
 10
10.9625361725
 20
7.0935037896
 11
10.9625361725
 21
6.994151416
  0
LINE
  5
2DD
100
AcDbEntity
  8
0
100
AcDbLine
 62
4
  6
CONTINUOUS
 10
10.998413433
 20
6.3839579622
 11
10.998413433
 21
6.4998690657
  0
LINE
  5
2DE
100
AcDbEntity
  8
0
100
AcDbLine
 62
4
  6
CONTINUOUS
 10
11.0204917242
 20
6.9901321848
 11
11.0204917242
 21
7.0894845585
  0
LINE
  5
2DF
100
AcDbEntity
  8
0
100
AcDbLine
 62
7
  6
CONTINUOUS
 10
13.1826472101
 20
10.7816086727
 11
12.681056324
 21
10.2971090529
  0
LINE
  5
2E0
100
AcDbEntity
  8
0
100
AcDbLine
 62
4
  6
CONTINUOUS
 10
12.4994622934
 20
8.2638716516
 11
12.5501734011
 21
8.2603548244
  0
LINE
  5
2E1
100
AcDbEntity
  8
0
100
AcDbLine
 62
4
  6
CONTINUOUS
 10
12.5501734011
 20
8.3086511198
 11
12.4994622934
 21
8.312167947
  0
LINE
  5
2E2
100
AcDbEntity
  8
0
100
AcDbLine
 62
4
  6
CONTINUOUS
 10
11.5972874499
 20
6.9998074548
 11
11.5890081169
 21
7.0169403566
  0
LINE
  5
2E3
100
AcDbEntity
  8
0
100
AcDbLine
 62
4
  6
CONTINUOUS
 10
11.3185488572
 20
7.0356967699
 11
11.3433869666
 21
6.9511805939
  0
LINE
  5
2E4
100
AcDbEntity
  8
0
100
AcDbLine
 62
4
  6
CONTINUOUS
 10
11.0536091803
 20
6.9712767516
 11
11.0536091803
 21
7.0871878551
  0
LINE
  5
2E5
100
AcDbEntity
  8
0
100
AcDbLine
 62
4
  6
CONTINUOUS
 10
11.0563689778
 20
6.4792911069
 11
11.0563689778
 21
6.3964974613
  0
LINE
  5
2E6
100
AcDbEntity
  8
0
100
AcDbLine
 62
4
  6
CONTINUOUS
 10
11.1114267633
 20
10.1644817618
 11
11.1114267633
 21
10.2803928652
  0
LINE
  5
2E7
100
AcDbEntity
  8
0
100
AcDbLine
 62
4
  6
CONTINUOUS
 10
11.1115647321
 20
6.9672575205
 11
11.1115647321
 21
7.0831686239
  0
LINE
  5
2E8
100
AcDbEntity
  8
0
100
AcDbLine
 62
4
  6
CONTINUOUS
 10
11.169382315
 20
10.2570551145
 11
11.169382315
 21
10.2377366019
  0
LINE
  5
2E9
100
AcDbEntity
  8
0
100
AcDbLine
 62
4
  6
CONTINUOUS
 10
11.2357551961
 20
6.9586448826
 11
11.2357551961
 21
7.074555986
  0
LINE
  5
2EA
100
AcDbEntity
  8
0
100
AcDbLine
 62
4
  6
CONTINUOUS
 10
11.2357552159
 20
6.3674982537
 11
11.2357552159
 21
6.4834093571
  0
LINE
  5
2EB
100
AcDbEntity
  8
0
100
AcDbLine
 62
4
  6
CONTINUOUS
 10
10.5676105263
 20
6.3384920119
 11
10.6038327461
 21
6.4518910958
  0
LINE
  5
2EC
100
AcDbEntity
  8
0
100
AcDbLine
 62
4
  6
CONTINUOUS
 10
11.2854313872
 20
7.0297141068
 11
11.2854313872
 21
6.955199827
  0
LINE
  5
2ED
100
AcDbEntity
  8
0
100
AcDbLine
 62
4
  6
CONTINUOUS
 10
11.2909509058
 20
6.6352335769
 11
11.2909509058
 21
6.7180272225
  0
LINE
  5
2EE
100
AcDbEntity
  8
0
100
AcDbLine
 62
4
  6
CONTINUOUS
 10
11.3019901282
 20
6.3629048469
 11
11.3019901282
 21
6.4788159503
  0
LINE
  5
2EF
100
AcDbEntity
  8
0
100
AcDbLine
 62
4
  6
CONTINUOUS
 10
11.3875434897
 20
6.694769776
 11
11.3875434897
 21
6.711328504
  0
LINE
  5
2F0
100
AcDbEntity
  8
0
100
AcDbLine
 62
4
  6
CONTINUOUS
 10
11.3903033524
 20
6.9562062964
 11
11.3903033524
 21
7.0224412113
  0
LINE
  5
2F1
100
AcDbEntity
  8
0
100
AcDbLine
 62
4
  6
CONTINUOUS
 10
11.4399795159
 20
7.0603929813
 11
11.4399795159
 21
6.9444818779
  0
LINE
  5
2F2
100
AcDbEntity
  8
0
100
AcDbLine
 62
4
  6
CONTINUOUS
 10
11.4454990483
 20
6.6245156268
 11
11.4454990483
 21
6.6410743566
  0
LINE
  5
2F3
100
AcDbEntity
  8
0
100
AcDbLine
 62
4
  6
CONTINUOUS
 10
11.4730970135
 20
6.9421851716
 11
11.4730970135
 21
7.0249788189
  0
LINE
  5
2F4
100
AcDbEntity
  8
0
100
AcDbLine
 62
4
  6
CONTINUOUS
 10
11.4758568109
 20
6.3674058813
 11
11.4758568109
 21
6.4501995269
  0
LINE
  5
2F5
100
AcDbEntity
  8
0
100
AcDbLine
 62
4
  6
CONTINUOUS
 10
11.4786165045
 20
6.6056601937
 11
11.4786165045
 21
6.7215712971
  0
LINE
  5
2F6
100
AcDbEntity
  8
0
100
AcDbLine
 62
4
  6
CONTINUOUS
 10
11.5117340111
 20
7.0140199665
 11
11.5117340111
 21
6.9974612384
  0
LINE
  5
2F7
100
AcDbEntity
  8
0
100
AcDbLine
 62
4
  6
CONTINUOUS
 10
11.5476112864
 20
6.9452969541
 11
11.5476112864
 21
6.9701350488
  0
LINE
  5
2F8
100
AcDbEntity
  8
0
100
AcDbLine
 62
4
  6
CONTINUOUS
 10
11.5724493603
 20
6.3607071653
 11
11.5724493603
 21
6.4435008108
  0
LINE
  5
2F9
100
AcDbEntity
  8
0
100
AcDbLine
 62
4
  6
CONTINUOUS
 10
11.5972874499
 20
6.9335725356
 11
11.5972874499
 21
6.9998074548
  0
LINE
  5
2FA
100
AcDbEntity
  8
0
100
AcDbLine
 62
4
  6
CONTINUOUS
 10
11.6304048922
 20
7.0140694805
 11
11.6304048922
 21
6.9395551981
  0
LINE
  5
2FB
100
AcDbEntity
  8
0
100
AcDbLine
 62
4
  6
CONTINUOUS
 10
11.630404912
 20
6.4394815797
 11
11.630404912
 21
6.3566879341
  0
LINE
  5
2FC
100
AcDbEntity
  8
0
100
AcDbLine
 62
4
  6
CONTINUOUS
 10
11.6635223543
 20
6.3378325019
 11
11.6635223543
 21
6.4537436053
  0
LINE
  5
2FD
100
AcDbEntity
  8
0
100
AcDbLine
 62
4
  6
CONTINUOUS
 10
11.680081111
 20
6.9278307757
 11
11.680081111
 21
7.010624423
  0
LINE
  5
2FE
100
AcDbEntity
  8
0
100
AcDbLine
 62
4
  6
CONTINUOUS
 10
11.1032853774
 20
6.3766850682
 11
11.1364028336
 21
6.4902994682
  0
LINE
  5
2FF
100
AcDbEntity
  8
0
100
AcDbLine
 62
4
  6
CONTINUOUS
 10
11.7131985533
 20
6.9338134382
 11
11.7131985533
 21
7.0414451767
  0
LINE
  5
300
100
AcDbEntity
  8
0
100
AcDbLine
 62
4
  6
CONTINUOUS
 10
11.721477906
 20
6.4331656461
 11
11.721477906
 21
6.3503720005
  0
LINE
  5
301
100
AcDbEntity
  8
0
100
AcDbLine
 62
4
  6
CONTINUOUS
 10
11.7683943472
 20
6.3305596045
 11
11.7683943472
 21
6.4464707079
  0
LINE
  5
302
100
AcDbEntity
  8
0
100
AcDbLine
 62
4
  6
CONTINUOUS
 10
11.7877128262
 20
6.9203664909
 11
11.7877128262
 21
7.0031601382
  0
LINE
  5
303
100
AcDbEntity
  8
0
100
AcDbLine
 62
4
  6
CONTINUOUS
 10
11.7877128262
 20
7.0279982268
 11
11.7877128262
 21
7.0362775943
  0
LINE
  5
304
100
AcDbEntity
  8
0
100
AcDbLine
 62
4
  6
CONTINUOUS
 10
11.8318694344
 20
6.9255835846
 11
11.8318694344
 21
6.9918184995
  0
LINE
  5
305
100
AcDbEntity
  8
0
100
AcDbLine
 62
4
  6
CONTINUOUS
 10
11.9063837626
 20
6.9618128212
 11
11.9063837626
 21
6.9866509133
  0
LINE
  5
306
100
AcDbEntity
  8
0
100
AcDbLine
 62
4
  6
CONTINUOUS
 10
11.3351075783
 20
6.9241568896
 11
11.3682250207
 21
7.0322517163
  0
LINE
  5
307
100
AcDbEntity
  8
0
100
AcDbLine
 62
4
  6
CONTINUOUS
 10
11.9560598708
 20
6.9169709486
 11
11.9560598708
 21
6.9418090433
  0
LINE
  5
308
100
AcDbEntity
  8
0
100
AcDbLine
 62
4
  6
CONTINUOUS
 10
10.8714631646
 20
7.0832609961
 11
10.8880218944
 21
7.0986713724
  0
LINE
  5
309
100
AcDbEntity
  8
0
100
AcDbLine
 62
4
  6
CONTINUOUS
 10
10.9128599883
 20
6.9810377413
 11
10.9294187163
 21
6.9964481194
  0
LINE
  5
30A
100
AcDbEntity
  8
0
100
AcDbLine
 62
4
  6
CONTINUOUS
 10
11.003933003
 20
6.9747218062
 11
11.0204917242
 21
6.9901321848
  0
LINE
  5
30B
100
AcDbEntity
  8
0
100
AcDbLine
 62
7
  6
CONTINUOUS
 10
10.1283320239
 20
10.8090772627
 11
10.1751034163
 21
10.7638996441
  0
LINE
  5
30C
100
AcDbEntity
  8
0
100
AcDbLine
 62
4
  6
CONTINUOUS
 10
12.564662289
 20
8.2400315005
 11
12.5501734011
 21
8.2603548244
  0
LINE
  5
30D
100
AcDbEntity
  8
0
100
AcDbLine
 62
4
  6
CONTINUOUS
 10
11.7904726039
 20
7.0360862031
 11
11.7877128262
 21
7.0279982268
  0
LINE
  5
30E
100
AcDbEntity
  8
0
100
AcDbLine
 62
4
  6
CONTINUOUS
 10
12.5501734011
 20
8.2603548244
 11
12.5574178451
 21
8.2695116837
  0
LINE
  5
30F
100
AcDbEntity
  8
0
100
AcDbLine
 62
7
  6
CONTINUOUS
 10
10.477438182
 20
10.7848666684
 11
10.4306667896
 21
10.8300442871
  0
LINE
  5
310
100
AcDbEntity
  8
0
100
AcDbLine
 62
4
  6
CONTINUOUS
 10
12.5574178451
 20
8.2984894596
 11
12.5501734011
 21
8.3086511198
  0
LINE
  5
311
100
AcDbEntity
  8
0
100
AcDbLine
 62
4
  6
CONTINUOUS
 10
11.162137871
 20
10.2672167817
 11
11.169382315
 21
10.2570551145
  0
LINE
  5
312
100
AcDbEntity
  8
0
100
AcDbLine
 62
4
  6
CONTINUOUS
 10
12.4994622934
 20
8.312167947
 11
12.4994622934
 21
8.1962568436
  0
LINE
  5
313
100
AcDbEntity
  8
0
100
AcDbLine
 62
4
  6
CONTINUOUS
 10
12.5574178451
 20
8.2695116837
 11
12.5574178451
 21
8.2984894596
  0
LINE
  5
314
100
AcDbEntity
  8
0
100
AcDbLine
 62
4
  6
CONTINUOUS
 10
12.564662289
 20
8.2110537264
 11
12.564662289
 21
8.2400315005
  0
LINE
  5
315
100
AcDbEntity
  8
0
100
AcDbLine
 62
4
  6
CONTINUOUS
 10
12.5501734011
 20
8.1927400163
 11
12.564662289
 21
8.2110537264
  0
LINE
  5
316
100
AcDbEntity
  8
0
100
AcDbLine
 62
4
  6
CONTINUOUS
 10
11.4786165045
 20
6.6442972293
 11
11.5365720562
 21
6.7175520659
  0
LINE
  5
317
100
AcDbEntity
  8
0
100
AcDbLine
 62
4
  6
CONTINUOUS
 10
11.2909509058
 20
6.7180272225
 11
11.3075096356
 21
6.7334375987
  0
LINE
  5
318
100
AcDbEntity
  8
0
100
AcDbLine
 62
4
  6
CONTINUOUS
 10
11.3875434897
 20
6.711328504
 11
11.4041022178
 21
6.7267388804
  0
LINE
  5
319
100
AcDbEntity
  8
0
100
AcDbLine
 62
4
  6
CONTINUOUS
 10
11.0563689778
 20
6.3964974613
 11
11.0398102497
 21
6.3810870832
  0
LINE
  5
31A
100
AcDbEntity
  8
0
100
AcDbLine
 62
4
  6
CONTINUOUS
 10
11.3903033524
 20
7.0224412113
 11
11.4068620736
 21
7.0295722276
  0
LINE
  5
31B
100
AcDbEntity
  8
0
100
AcDbLine
 62
4
  6
CONTINUOUS
 10
11.1476489831
 20
10.2778808458
 11
11.162137871
 21
10.2672167817
  0
LINE
  5
31C
100
AcDbEntity
  8
02___PRT_ALL_AXES
100
AcDbLine
 62
7
  6
CONTINUOUS
 10
10.6049213829
 20
10.7733147479
 11
10.5596400267
 21
10.8154538034
  0
LINE
  5
31D
100
AcDbEntity
  8
0
100
AcDbLine
 62
7
  6
CONTINUOUS
 10
12.681056324
 20
5.9504425771
 11
12.681056324
 21
10.2971090529
  0
LINE
  5
31E
100
AcDbEntity
  8
0
100
AcDbLine
 62
4
  6
CONTINUOUS
 10
11.8318694344
 20
6.9918184995
 11
11.8401487673
 21
6.9995236933
  0
LINE
  5
31F
100
AcDbEntity
  8
0
100
AcDbLine
 62
4
  6
CONTINUOUS
 10
11.4289403134
 20
6.6091052492
 11
11.4454990483
 21
6.6245156268
  0
LINE
  5
320
100
AcDbEntity
  8
0
100
AcDbLine
 62
4
  6
CONTINUOUS
 10
11.9063837626
 20
6.9866509133
 11
11.9146630955
 21
6.9943561071
  0
LINE
  5
321
100
AcDbEntity
  8
0
100
AcDbLine
 62
4
  6
CONTINUOUS
 10
11.9477805378
 20
6.9092657574
 11
11.9560598708
 21
6.9169709486
  0
LINE
  5
322
100
AcDbEntity
  8
0
100
AcDbLine
 62
4
  6
CONTINUOUS
 10
11.5476112864
 20
6.9701350488
 11
11.5641700076
 21
6.9772660617
  0
LINE
  5
323
100
AcDbEntity
  8
0
100
AcDbLine
 62
4
  6
CONTINUOUS
 10
11.1476489831
 20
10.2199252941
 11
11.1114267633
 21
10.2224373135
  0
LINE
  5
324
100
AcDbEntity
  8
0
100
AcDbLine
 62
4
  6
CONTINUOUS
 10
11.1114267633
 20
10.2803928652
 11
11.1476489831
 21
10.2778808458
  0
LINE
  5
325
100
AcDbEntity
  8
0
100
AcDbLine
 62
4
  6
CONTINUOUS
 10
11.4758568109
 20
6.4501995269
 11
11.4924155321
 21
6.4656099037
  0
LINE
  5
326
100
AcDbEntity
  8
0
100
AcDbLine
 62
4
  6
CONTINUOUS
 10
11.5724493603
 20
6.4435008108
 11
11.5890080815
 21
6.4589111877
  0
LINE
  5
327
100
AcDbEntity
  8
0
100
AcDbLine
 62
4
  6
CONTINUOUS
 10
11.630404912
 20
6.3566879341
 11
11.6138461908
 21
6.3412775555
  0
LINE
  5
328
100
AcDbEntity
  8
0
100
AcDbLine
 62
4
  6
CONTINUOUS
 10
10.9763351254
 20
6.4572435933
 11
10.9321785138
 21
6.4382275572
  0
LINE
  5
329
100
AcDbEntity
  8
0
100
AcDbLine
 62
7
  6
CONTINUOUS
 10
12.681056324
 20
10.2971090529
 11
8.8173527899
 21
10.5650578031
  0
LINE
  5
32A
100
AcDbEntity
  8
0
100
AcDbLine
 62
7
  6
CONTINUOUS
 10
13.1826472101
 20
6.4349421969
 11
13.1826472101
 21
10.7816086727
  0
LINE
  5
32B
100
AcDbEntity
  8
0
100
AcDbLine
 62
4
  6
CONTINUOUS
 10
11.721477906
 20
6.3503720005
 11
11.7049191849
 21
6.3349616219
  0
LINE
  5
32C
100
AcDbEntity
  8
0
100
AcDbLine
 62
7
  6
CONTINUOUS
 10
10.1751034163
 20
10.7638996441
 11
10.3496564953
 21
10.751794347
  0
LINE
  5
32D
100
AcDbEntity
  8
0
100
AcDbLine
 62
4
  6
CONTINUOUS
 10
11.8953445612
 20
6.3714317649
 11
11.851187953
 21
6.3524157302
  0
LINE
  5
32E
100
AcDbEntity
  8
0
100
AcDbLine
 62
7
  6
CONTINUOUS
 10
10.3496564953
 20
10.751794347
 11
10.477438182
 21
10.7848666684
  0
LINE
  5
32F
100
AcDbEntity
  8
0
100
AcDbLine
 62
7
  6
CONTINUOUS
 10
10.2561137105
 20
10.8421495842
 11
10.1283320239
 21
10.8090772627
  0
LINE
  5
330
100
AcDbEntity
  8
0
100
AcDbLine
 62
7
  6
CONTINUOUS
 10
10.4306667896
 20
10.8300442871
 11
10.2561137105
 21
10.8421495842
  0
LINE
  5
331
100
AcDbEntity
  8
0
100
AcDbLine
 62
7
  6
CONTINUOUS
 10
13.1826472101
 20
10.7816086727
 11
9.318943676
 21
11.0495574229
  0
LINE
  5
332
100
AcDbEntity
  8
0
100
AcDbLine
 62
7
  6
CONTINUOUS
 10
13.1826472101
 20
6.4349421969
 11
12.681056324
 21
5.9504425771
  0
ARC
  5
333
100
AcDbEntity
  8
0
100
AcDbCircle
 62
7
  6
CONTINUOUS
 10
10.1313303827
 20
9.3789681015
 40
0.1204890005
100
AcDbArc
 50
216.0335857956
 51
232.0498253939
  0
ARC
  5
334
100
AcDbEntity
  8
0
100
AcDbCircle
 62
7
  6
CONTINUOUS
 10
12.1829570293
 20
9.2366873103
 40
0.1204890005
100
AcDbArc
 50
216.0335857956
 51
232.0498253939
  0
ARC
  5
335
100
AcDbEntity
  8
0
100
AcDbCircle
 62
7
  6
CONTINUOUS
 10
12.1829570293
 20
7.4854637185
 40
0.1204890005
100
AcDbArc
 50
216.0335857956
 51
232.0498253939
  0
ARC
  5
336
100
AcDbEntity
  8
0
100
AcDbCircle
 62
7
  6
CONTINUOUS
 10
10.1313303827
 20
7.6277445097
 40
0.1204890005
100
AcDbArc
 50
216.0335857956
 51
232.0498253939
  0
SPLINE
  5
337
100
AcDbEntity
  8
02___PRT_ALL_AXES
100
AcDbSpline
 62
7
  6
CONTINUOUS
 70
0
 71
3
 72
53
 73
49
 74
0
 42
0.0000001
 43
0.0000001
 44
0.0000000001
 40
0.0
 40
0.0
 40
0.0
 40
0.0
 40
0.0077396382
 40
0.0160547853
 40
0.0249630424
 40
0.0344758194
 40
0.044599442
 40
0.0553363376
 40
0.0666852297
 40
0.0786399126
 40
0.091191707
 40
0.1043300308
 40
0.118041201
 40
0.132309958
 40
0.147119922
 40
0.1624522112
 40
0.1946012752
 40
0.228583789
 40
0.2642070794
 40
0.3012629851
 40
0.3395315901
 40
0.378782322
 40
0.4187765043
 40
0.4592697673
 40
0.5000133975
 40
0.5407569338
 40
0.5812497834
 40
0.6212433678
 40
0.6604932812
 40
0.6987606932
 40
0.7358153711
 40
0.771437125
 40
0.8054178058
 40
0.8375650955
 40
0.8528962112
 40
0.8677051828
 40
0.8819729929
 40
0.8956828834
 40
0.9088200205
 40
0.9213706912
 40
0.9333239582
 40
0.9446717668
 40
0.9554080545
 40
0.9655305507
 40
0.9750415548
 40
0.983947277
 40
0.9922600201
 40
1.0
 40
1.0
 40
1.0
 40
1.0
 10
10.0461333562
 20
10.8154567332
 30
0.0
 10
10.0471357516
 20
10.8163893358
 30
0.0
 10
10.0492939814
 20
10.8182400978
 30
0.0
 10
10.0528343814
 20
10.8208838981
 30
0.0
 10
10.0567853284
 20
10.823488195
 30
0.0
 10
10.0611401611
 20
10.8260480211
 30
0.0
 10
10.0658917185
 20
10.8285598819
 30
0.0
 10
10.0710326587
 20
10.8310198512
 30
0.0
 10
10.0765549817
 20
10.83342385
 30
0.0
 10
10.0824496533
 20
10.835768294
 30
0.0
 10
10.0887070923
 20
10.8380492518
 30
0.0
 10
10.0953171817
 20
10.840262624
 30
0.0
 10
10.1022690008
 20
10.8424050409
 30
0.0
 10
10.109551168
 20
10.8444729832
 30
0.0
 10
10.1171518513
 20
10.8464627923
 30
0.0
 10
10.1278640837
 20
10.8490484916
 30
0.0
 10
10.1419627066
 20
10.8520471901
 30
0.0
 10
10.1596816864
 20
10.8552324056
 30
0.0
 10
10.1783429003
 20
10.8580372445
 30
0.0
 10
10.1978236084
 20
10.8604432532
 30
0.0
 10
10.2179958553
 20
10.8624340464
 30
0.0
 10
10.2387269553
 20
10.863996303
 30
0.0
 10
10.25988047
 20
10.8651197845
 30
0.0
 10
10.2813171466
 20
10.8657967209
 30
0.0
 10
10.3028958552
 20
10.8660226863
 30
0.0
 10
10.3244744873
 20
10.8657963128
 30
0.0
 10
10.3459109512
 20
10.8651188399
 30
0.0
 10
10.3670641208
 20
10.8639949789
 30
0.0
 10
10.387794728
 20
10.8624323078
 30
0.0
 10
10.4079663492
 20
10.8604410129
 30
0.0
 10
10.4274463111
 20
10.858034678
 30
0.0
 10
10.4461066446
 20
10.8552294385
 30
0.0
 10
10.4638246174
 20
10.8520437746
 30
0.0
 10
10.4779223423
 20
10.8490449119
 30
0.0
 10
10.4886337787
 20
10.8464588828
 30
0.0
 10
10.4962338525
 20
10.8444689226
 30
0.0
 10
10.5035154031
 20
10.8424008906
 30
0.0
 10
10.5104665197
 20
10.8402582421
 30
0.0
 10
10.5170758953
 20
10.8380447433
 30
0.0
 10
10.5233326378
 20
10.8357637969
 30
0.0
 10
10.5292265453
 20
10.8334191604
 30
0.0
 10
10.5347481765
 20
10.8310149533
 30
0.0
 10
10.5398885063
 20
10.82855486
 30
0.0
 10
10.5446392384
 20
10.8260427596
 30
0.0
 10
10.5489929853
 20
10.8234829964
 30
0.0
 10
10.5529428649
 20
10.8208792365
 30
0.0
 10
10.5564822764
 20
10.8182354542
 30
0.0
 10
10.5586398688
 20
10.816384511
 30
0.0
 10
10.5596421659
 20
10.815451714
 30
0.0
  0
SPLINE
  5
338
100
AcDbEntity
  8
02___PRT_ALL_AXES
100
AcDbSpline
 62
7
  6
CONTINUOUS
 70
0
 71
3
 72
65
 73
61
 74
0
 42
0.0000001
 43
0.0000001
 44
0.0000000001
 40
0.0
 40
0.0
 40
0.0
 40
0.0
 40
0.0078474524
 40
0.0150460061
 40
0.0216918557
 40
0.0248497726
 40
0.0279219787
 40
0.0309302137
 40
0.0338977331
 40
0.0368488614
 40
0.0398083241
 40
0.0428005394
 40
0.0458490502
 40
0.0489760449
 40
0.0522020016
 40
0.0590177272
 40
0.0664227313
 40
0.0745075953
 40
0.0833355131
 40
0.0929489478
 40
0.1033746584
 40
0.1146255286
 40
0.126705839
 40
0.1396111305
 40
0.1533304228
 40
0.1678482671
 40
0.183143297
 40
0.1991913048
 40
0.2159642196
 40
0.2334305017
 40
0.2515568758
 40
0.2703065022
 40
0.2896410213
 40
0.3095200694
 40
0.3299009232
 40
0.3719906776
 40
0.4155436314
 40
0.460174196
 40
0.5054840659
 40
0.5510669107
 40
0.5965131515
 40
0.6414149062
 40
0.6853706773
 40
0.7279900145
 40
0.7688984543
 40
0.8077429903
 40
0.826289176
 40
0.844199275
 40
0.8614381679
 40
0.87797277
 40
0.8937725721
 40
0.9088112805
 40
0.9230649534
 40
0.9365145848
 40
0.9491456647
 40
0.9609489417
 40
0.971924164
 40
0.9820783508
 40
0.9914276357
 40
1.0
 40
1.0
 40
1.0
 40
1.0
 10
10.045465855
 20
10.8148240511
 30
0.0
 10
10.0443865177
 20
10.8137814912
 30
0.0
 10
10.0424082084
 20
10.8116835195
 30
0.0
 10
10.0399255131
 20
10.8083477909
 30
0.0
 10
10.038356056
 20
10.8054847417
 30
0.0
 10
10.0374448407
 20
10.8031945891
 30
0.0
 10
10.0369333535
 20
10.8015012332
 30
0.0
 10
10.0365829764
 20
10.79980443
 30
0.0
 10
10.0363941332
 20
10.7981053212
 30
0.0
 10
10.0363672795
 20
10.7964052473
 30
0.0
 10
10.0365023239
 20
10.7947056236
 30
0.0
 10
10.0367989334
 20
10.7930078195
 30
0.0
 10
10.0372566934
 20
10.7913131506
 30
0.0
 10
10.037875152
 20
10.7896227478
 30
0.0
 10
10.0389325522
 20
10.7873346533
 30
0.0
 10
10.0406831261
 20
10.7844797372
 30
0.0
 10
10.0433740037
 20
10.781157826
 30
0.0
 10
10.0466849719
 20
10.7778813465
 30
0.0
 10
10.0506069767
 20
10.7746552445
 30
0.0
 10
10.0551314761
 20
10.7714848168
 30
0.0
 10
10.0602486586
 20
10.7683768819
 30
0.0
 10
10.0659467393
 20
10.7653374229
 30
0.0
 10
10.0722129911
 20
10.7623739558
 30
0.0
 10
10.0790327616
 20
10.7594931281
 30
0.0
 10
10.0863900694
 20
10.7567016391
 30
0.0
 10
10.0942676495
 20
10.7540066741
 30
0.0
 10
10.1026466729
 20
10.7514141737
 30
0.0
 10
10.1115072417
 20
10.7489308027
 30
0.0
 10
10.1208281494
 20
10.7465625196
 30
0.0
 10
10.1305870547
 20
10.7443148092
 30
0.0
 10
10.140760593
 20
10.7421935838
 30
0.0
 10
10.1513242987
 20
10.7402035579
 30
0.0
 10
10.1622528008
 20
10.7383497815
 30
0.0
 10
10.1735198466
 20
10.7366367917
 30
0.0
 10
10.1891252912
 20
10.7345231609
 30
0.0
 10
10.2092779167
 20
10.7322741083
 30
0.0
 10
10.2341076799
 20
10.7302193152
 30
0.0
 10
10.259598599
 20
10.7288010322
 30
0.0
 10
10.285505559
 20
10.7280331072
 30
0.0
 10
10.3115796075
 20
10.7279231887
 30
0.0
 10
10.3375700648
 20
10.7284723125
 30
0.0
 10
10.363227117
 20
10.7296750345
 30
0.0
 10
10.3883041939
 20
10.7315195404
 30
0.0
 10
10.4125605017
 20
10.7339877006
 30
0.0
 10
10.4357629568
 20
10.7370553462
 30
0.0
 10
10.4543111949
 20
10.7401314247
 30
0.0
 10
10.4684454593
 20
10.7428862354
 30
0.0
 10
10.4784834515
 20
10.7450503665
 30
0.0
 10
10.4880989024
 20
10.7473388234
 30
0.0
 10
10.4972687905
 20
10.7497460796
 30
0.0
 10
10.5059711126
 20
10.7522666145
 30
0.0
 10
10.5141851797
 20
10.754893836
 30
0.0
 10
10.5218913455
 20
10.7576218737
 30
0.0
 10
10.5290713209
 20
10.7604438954
 30
0.0
 10
10.535708233
 20
10.7633528516
 30
0.0
 10
10.5417865161
 20
10.7663424589
 30
0.0
 10
10.5472925452
 20
10.7694053873
 30
0.0
 10
10.552213766
 20
10.7725355586
 30
0.0
 10
10.5565380985
 20
10.7757250735
 30
0.0
 10
10.5591253093
 20
10.7779810133
 30
0.0
 10
10.5603043509
 20
10.7791198801
 30
0.0
  0
SPLINE
  5
339
100
AcDbEntity
  8
02___PRT_ALL_AXES
100
AcDbSpline
 62
7
  6
CONTINUOUS
 70
0
 71
3
 72
23
 73
19
 74
0
 42
0.0000001
 43
0.0000001
 44
0.0000000001
 40
0.0
 40
0.0
 40
0.0
 40
0.0
 40
0.0749607763
 40
0.1455627455
 40
0.2121515851
 40
0.2751545593
 40
0.3350892838
 40
0.3925735481
 40
0.4483202238
 40
0.5031146707
 40
0.5577875613
 40
0.6131787318
 40
0.6700938079
 40
0.729271524
 40
0.7913631149
 40
0.8569063513
 40
0.9263352261
 40
1.0
 40
1.0
 40
1.0
 40
1.0
 10
10.5596421659
 20
10.815451714
 30
0.0
 10
10.5604116247
 20
10.81473561
 30
0.0
 10
10.5618631465
 20
10.8132979542
 30
0.0
 10
10.5638215148
 20
10.811054866
 30
0.0
 10
10.5654914736
 20
10.8087940529
 30
0.0
 10
10.5668707101
 20
10.8065175297
 30
0.0
 10
10.5679566448
 20
10.8042271432
 30
0.0
 10
10.5687466411
 20
10.801925235
 30
0.0
 10
10.5692389202
 20
10.7996149426
 30
0.0
 10
10.5694318528
 20
10.7972998814
 30
0.0
 10
10.5693242756
 20
10.7949842198
 30
0.0
 10
10.5689166051
 20
10.7926722632
 30
0.0
 10
10.5682105877
 20
10.7903677066
 30
0.0
 10
10.5672081531
 20
10.7880735507
 30
0.0
 10
10.5659112762
 20
10.7857925648
 30
0.0
 10
10.5643229296
 20
10.783526875
 30
0.0
 10
10.562446143
 20
10.7812787558
 30
0.0
 10
10.561047309
 20
10.7798375226
 30
0.0
 10
10.5603043509
 20
10.7791198801
 30
0.0
  0
SPLINE
  5
33A
100
AcDbEntity
  8
0
100
AcDbSpline
 62
7
  6
CONTINUOUS
 70
0
 71
3
 72
21
 73
17
 74
0
 42
0.0000001
 43
0.0000001
 44
0.0000000001
 40
0.0
 40
0.0
 40
0.0
 40
0.0
 40
0.1273176366
 40
0.2537999756
 40
0.3167619475
 40
0.3795355041
 40
0.4421314991
 40
0.5045621439
 40
0.5668413432
 40
0.6289845283
 40
0.6910084528
 40
0.7529310935
 40
0.8147714495
 40
0.8765493365
 40
0.9382852194
 40
1.0
 40
1.0
 40
1.0
 40
1.0
 10
9.4519660892
 20
10.0979716906
 30
0.0
 10
9.4519660892
 20
10.0912269363
 30
0.0
 10
9.4513222579
 20
10.077772997
 30
0.0
 10
9.4488907161
 20
10.061141021
 30
0.0
 10
9.4459844829
 20
10.0480946898
 30
0.0
 10
9.4433341545
 20
10.0384717113
 30
0.0
 10
9.4402162214
 20
10.0290197172
 30
0.0
 10
9.4366378279
 20
10.0197602446
 30
0.0
 10
9.4326072508
 20
10.0107147018
 30
0.0
 10
9.4281337284
 20
10.0019039494
 30
0.0
 10
9.4232275513
 20
9.9933483269
 30
0.0
 10
9.4179000624
 20
9.9850675398
 30
0.0
 10
9.4121635326
 20
9.9770807209
 30
0.0
 10
9.4060310905
 20
9.9694062582
 30
0.0
 10
9.3995171664
 20
9.9620620593
 30
0.0
 10
9.394929367
 20
9.9573965444
 30
0.0
 10
9.3925778433
 20
9.9551251465
 30
0.0
  0
SPLINE
  5
33B
100
AcDbEntity
  8
0
100
AcDbSpline
 62
7
  6
CONTINUOUS
 70
0
 71
3
 72
21
 73
17
 74
0
 42
0.0000001
 43
0.0000001
 44
0.0000000001
 40
0.0
 40
0.0
 40
0.0
 40
0.0
 40
0.1273176366
 40
0.2537999756
 40
0.3167619475
 40
0.3795355041
 40
0.4421314991
 40
0.5045621439
 40
0.5668413432
 40
0.6289845283
 40
0.6910084528
 40
0.7529310935
 40
0.8147714495
 40
0.8765493365
 40
0.9382852194
 40
1.0
 40
1.0
 40
1.0
 40
1.0
 10
12.4695185905
 20
9.8887037138
 30
0.0
 10
12.4695185905
 20
9.8819589596
 30
0.0
 10
12.4688747592
 20
9.8685050202
 30
0.0
 10
12.4664432174
 20
9.8518730443
 30
0.0
 10
12.4635369843
 20
9.8388267131
 30
0.0
 10
12.4608866558
 20
9.8292037346
 30
0.0
 10
12.4577687228
 20
9.8197517404
 30
0.0
 10
12.4541903292
 20
9.8104922678
 30
0.0
 10
12.4501597521
 20
9.8014467251
 30
0.0
 10
12.4456862298
 20
9.7926359726
 30
0.0
 10
12.4407800527
 20
9.7840803502
 30
0.0
 10
12.4354525637
 20
9.775799563
 30
0.0
 10
12.429716034
 20
9.7678127442
 30
0.0
 10
12.4235835919
 20
9.7601382814
 30
0.0
 10
12.4170696678
 20
9.7527940826
 30
0.0
 10
12.4124818683
 20
9.7481285677
 30
0.0
 10
12.4101303446
 20
9.7458571698
 30
0.0
  0
SPLINE
  5
33C
100
AcDbEntity
  8
0
100
AcDbSpline
 62
7
  6
CONTINUOUS
 70
0
 71
3
 72
21
 73
17
 74
0
 42
0.0000001
 43
0.0000001
 44
0.0000000001
 40
0.0
 40
0.0
 40
0.0
 40
0.0
 40
0.1273176366
 40
0.2537999756
 40
0.3167619475
 40
0.3795355041
 40
0.4421314991
 40
0.5045621439
 40
0.5668413432
 40
0.6289845283
 40
0.6910084528
 40
0.7529310935
 40
0.8147714495
 40
0.8765493365
 40
0.9382852194
 40
1.0
 40
1.0
 40
1.0
 40
1.0
 10
11.2022237963
 20
8.890890172
 30
0.0
 10
11.2022237963
 20
8.8841454178
 30
0.0
 10
11.201579965
 20
8.8706914784
 30
0.0
 10
11.1991484232
 20
8.8540595025
 30
0.0
 10
11.1962421901
 20
8.8410131713
 30
0.0
 10
11.1935918616
 20
8.8313901927
 30
0.0
 10
11.1904739286
 20
8.8219381986
 30
0.0
 10
11.1868955351
 20
8.812678726
 30
0.0
 10
11.1828649579
 20
8.8036331833
 30
0.0
 10
11.1783914356
 20
8.7948224308
 30
0.0
 10
11.1734852585
 20
8.7862668084
 30
0.0
 10
11.1681577695
 20
8.7779860212
 30
0.0
 10
11.1624212398
 20
8.7699992023
 30
0.0
 10
11.1562887977
 20
8.7623247396
 30
0.0
 10
11.1497748736
 20
8.7549805407
 30
0.0
 10
11.1451870741
 20
8.7503150258
 30
0.0
 10
11.1428355504
 20
8.748043628
 30
0.0
  0
SPLINE
  5
33D
100
AcDbEntity
  8
0
100
AcDbSpline
 62
7
  6
CONTINUOUS
 70
0
 71
3
 72
21
 73
17
 74
0
 42
0.0000001
 43
0.0000001
 44
0.0000000001
 40
0.0
 40
0.0
 40
0.0
 40
0.0
 40
0.1273176366
 40
0.2537999756
 40
0.3167619475
 40
0.3795355041
 40
0.4421314991
 40
0.5045621439
 40
0.5668413432
 40
0.6289845283
 40
0.6910084528
 40
0.7529310935
 40
0.8147714495
 40
0.8765493365
 40
0.9382852194
 40
1.0
 40
1.0
 40
1.0
 40
1.0
 10
11.5943896074
 20
8.2899335385
 30
0.0
 10
11.5943896074
 20
8.2831887842
 30
0.0
 10
11.5937457761
 20
8.2697348449
 30
0.0
 10
11.5913142343
 20
8.2531028689
 30
0.0
 10
11.5884080011
 20
8.2400565378
 30
0.0
 10
11.5857576727
 20
8.2304335592
 30
0.0
 10
11.5826397397
 20
8.2209815651
 30
0.0
 10
11.5790613461
 20
8.2117220925
 30
0.0
 10
11.575030769
 20
8.2026765497
 30
0.0
 10
11.5705572467
 20
8.1938657973
 30
0.0
 10
11.5656510695
 20
8.1853101749
 30
0.0
 10
11.5603235806
 20
8.1770293877
 30
0.0
 10
11.5545870509
 20
8.1690425688
 30
0.0
 10
11.5484546087
 20
8.1613681061
 30
0.0
 10
11.5419406847
 20
8.1540239072
 30
0.0
 10
11.5373528852
 20
8.1493583923
 30
0.0
 10
11.5350013615
 20
8.1470869944
 30
0.0
  0
SPLINE
  5
33E
100
AcDbEntity
  8
0
100
AcDbSpline
 62
7
  6
CONTINUOUS
 70
0
 71
3
 72
21
 73
17
 74
0
 42
0.0000001
 43
0.0000001
 44
0.0000000001
 40
0.0
 40
0.0
 40
0.0
 40
0.0
 40
0.1273176366
 40
0.2537999756
 40
0.3167619475
 40
0.3795355041
 40
0.4421314991
 40
0.5045621439
 40
0.5668413432
 40
0.6289845283
 40
0.6910084528
 40
0.7529310935
 40
0.8147714495
 40
0.8765493365
 40
0.9382852194
 40
1.0
 40
1.0
 40
1.0
 40
1.0
 10
10.8100578701
 20
8.3443271292
 30
0.0
 10
10.8100578701
 20
8.337582375
 30
0.0
 10
10.8094140388
 20
8.3241284356
 30
0.0
 10
10.806982497
 20
8.3074964597
 30
0.0
 10
10.8040762639
 20
8.2944501285
 30
0.0
 10
10.8014259354
 20
8.2848271499
 30
0.0
 10
10.7983080024
 20
8.2753751558
 30
0.0
 10
10.7947296088
 20
8.2661156832
 30
0.0
 10
10.7906990317
 20
8.2570701405
 30
0.0
 10
10.7862255094
 20
8.248259388
 30
0.0
 10
10.7813193323
 20
8.2397037656
 30
0.0
 10
10.7759918433
 20
8.2314229784
 30
0.0
 10
10.7702553136
 20
8.2234361595
 30
0.0
 10
10.7641228715
 20
8.2157616968
 30
0.0
 10
10.7576089474
 20
8.2084174979
 30
0.0
 10
10.7530211479
 20
8.203751983
 30
0.0
 10
10.7506696242
 20
8.2014805852
 30
0.0
  0
SPLINE
  5
33F
100
AcDbEntity
  8
0
100
AcDbSpline
 62
7
  6
CONTINUOUS
 70
0
 71
3
 72
21
 73
17
 74
0
 42
0.0000001
 43
0.0000001
 44
0.0000000001
 40
0.0
 40
0.0
 40
0.0
 40
0.0
 40
0.1273176366
 40
0.2537999756
 40
0.3167619475
 40
0.3795355041
 40
0.4421314991
 40
0.5045621439
 40
0.5668413432
 40
0.6289845283
 40
0.6910084528
 40
0.7529310935
 40
0.8147714495
 40
0.8765493365
 40
0.9382852194
 40
1.0
 40
1.0
 40
1.0
 40
1.0
 10
10.2961853526
 20
7.9578546632
 30
0.0
 10
10.2961853526
 20
7.951109909
 30
0.0
 10
10.2955415213
 20
7.9376559696
 30
0.0
 10
10.2931099795
 20
7.9210239937
 30
0.0
 10
10.2902037463
 20
7.9079776625
 30
0.0
 10
10.2875534179
 20
7.898354684
 30
0.0
 10
10.2844354849
 20
7.8889026898
 30
0.0
 10
10.2808570913
 20
7.8796432172
 30
0.0
 10
10.2768265142
 20
7.8705976745
 30
0.0
 10
10.2723529919
 20
7.861786922
 30
0.0
 10
10.2674468147
 20
7.8532312996
 30
0.0
 10
10.2621193258
 20
7.8449505124
 30
0.0
 10
10.2563827961
 20
7.8369636936
 30
0.0
 10
10.2502503539
 20
7.8292892308
 30
0.0
 10
10.2437364299
 20
7.821945032
 30
0.0
 10
10.2391486304
 20
7.8172795171
 30
0.0
 10
10.2367971067
 20
7.8150081192
 30
0.0
  0
SPLINE
  5
340
100
AcDbEntity
  8
0
100
AcDbSpline
 62
7
  6
CONTINUOUS
 70
0
 71
3
 72
21
 73
17
 74
0
 42
0.0000001
 43
0.0000001
 44
0.0000000001
 40
0.0
 40
0.0
 40
0.0
 40
0.0
 40
0.1273176366
 40
0.2537999756
 40
0.3167619475
 40
0.3795355041
 40
0.4421314991
 40
0.5045621439
 40
0.5668413432
 40
0.6289845283
 40
0.6910084528
 40
0.7529310935
 40
0.8147714495
 40
0.8765493365
 40
0.9382852194
 40
1.0
 40
1.0
 40
1.0
 40
1.0
 10
9.4519660892
 20
6.5974564777
 30
0.0
 10
9.4519660892
 20
6.5907117235
 30
0.0
 10
9.4513222579
 20
6.5772577842
 30
0.0
 10
9.4488907161
 20
6.5606258082
 30
0.0
 10
9.4459844829
 20
6.547579477
 30
0.0
 10
9.4433341545
 20
6.5379564985
 30
0.0
 10
9.4402162214
 20
6.5285045044
 30
0.0
 10
9.4366378279
 20
6.5192450318
 30
0.0
 10
9.4326072508
 20
6.510199489
 30
0.0
 10
9.4281337284
 20
6.5013887365
 30
0.0
 10
9.4232275513
 20
6.4928331141
 30
0.0
 10
9.4179000624
 20
6.4845523269
 30
0.0
 10
9.4121635326
 20
6.4765655081
 30
0.0
 10
9.4060310905
 20
6.4688910453
 30
0.0
 10
9.3995171664
 20
6.4615468465
 30
0.0
 10
9.394929367
 20
6.4568813316
 30
0.0
 10
9.3925778433
 20
6.4546099337
 30
0.0
  0
SPLINE
  5
341
100
AcDbEntity
  8
0
100
AcDbSpline
 62
7
  6
CONTINUOUS
 70
0
 71
3
 72
21
 73
17
 74
0
 42
0.0000001
 43
0.0000001
 44
0.0000000001
 40
0.0
 40
0.0
 40
0.0
 40
0.0
 40
0.1273176366
 40
0.2537999756
 40
0.3167619475
 40
0.3795355041
 40
0.4421314991
 40
0.5045621439
 40
0.5668413432
 40
0.6289845283
 40
0.6910084528
 40
0.7529310935
 40
0.8147714495
 40
0.8765493365
 40
0.9382852194
 40
1.0
 40
1.0
 40
1.0
 40
1.0
 10
12.4695185905
 20
6.388188501
 30
0.0
 10
12.4695185905
 20
6.3814437468
 30
0.0
 10
12.4688747592
 20
6.3679898074
 30
0.0
 10
12.4664432174
 20
6.3513578315
 30
0.0
 10
12.4635369843
 20
6.3383115003
 30
0.0
 10
12.4608866558
 20
6.3286885218
 30
0.0
 10
12.4577687228
 20
6.3192365276
 30
0.0
 10
12.4541903292
 20
6.309977055
 30
0.0
 10
12.4501597521
 20
6.3009315123
 30
0.0
 10
12.4456862298
 20
6.2921207598
 30
0.0
 10
12.4407800527
 20
6.2835651374
 30
0.0
 10
12.4354525637
 20
6.2752843502
 30
0.0
 10
12.429716034
 20
6.2672975313
 30
0.0
 10
12.4235835919
 20
6.2596230686
 30
0.0
 10
12.4170696678
 20
6.2522788697
 30
0.0
 10
12.4124818683
 20
6.2476133548
 30
0.0
 10
12.4101303446
 20
6.245341957
 30
0.0
  0
SPLINE
  5
342
100
AcDbEntity
  8
0
100
AcDbSpline
 62
7
  6
CONTINUOUS
 70
0
 71
3
 72
19
 73
15
 74
0
 42
0.0000001
 43
0.0000001
 44
0.0000000001
 40
0.0
 40
0.0
 40
0.0
 40
0.0
 40
0.1504611406
 40
0.2916985742
 40
0.4244193292
 40
0.4878835935
 40
0.5495802133
 40
0.6682271463
 40
0.7255606136
 40
0.7817999183
 40
0.8371467056
 40
0.8918136429
 40
0.9460222308
 40
1.0
 40
1.0
 40
1.0
 40
1.0
 10
13.004579848
 20
9.1737600704
 30
0.0
 10
13.0064725819
 20
9.1755883112
 30
0.0
 10
13.0102554362
 20
9.1790186077
 30
0.0
 10
13.0161128267
 20
9.1835898656
 30
0.0
 10
13.0210603051
 20
9.1868229229
 30
0.0
 10
13.0250056115
 20
9.1890122567
 30
0.0
 10
13.0288345205
 20
9.1908918597
 30
0.0
 10
13.0327082649
 20
9.1924282576
 30
0.0
 10
13.0366037985
 20
9.1935844178
 30
0.0
 10
13.0394840497
 20
9.1942508439
 30
0.0
 10
13.0423547159
 20
9.1947258339
 30
0.0
 10
13.0452150337
 20
9.1950091805
 30
0.0
 10
13.0480638496
 20
9.1951007666
 30
0.0
 10
13.0499565224
 20
9.1950338381
 30
0.0
 10
13.0508983161
 20
9.1949685276
 30
0.0
  0
SPLINE
  5
343
100
AcDbEntity
  8
0
100
AcDbSpline
 62
7
  6
CONTINUOUS
 70
0
 71
3
 72
90
 73
86
 74
0
 42
0.0000001
 43
0.0000001
 44
0.0000000001
 40
0.0
 40
0.0
 40
0.0
 40
0.0
 40
0.0039801734
 40
0.0081241052
 40
0.0124359616
 40
0.0169193135
 40
0.0215771815
 40
0.0264119171
 40
0.0314251791
 40
0.0366181551
 40
0.0419915397
 40
0.047545654
 40
0.0532804223
 40
0.0591954139
 40
0.0652899192
 40
0.0715628971
 40
0.08463856
 40
0.0984098622
 40
0.1128604225
 40
0.1279709368
 40
0.1437195167
 40
0.1600819662
 40
0.1770320115
 40
0.1945414958
 40
0.2125805581
 40
0.2311177886
 40
0.2501203685
 40
0.2695542002
 40
0.2893840278
 40
0.3095735514
 40
0.3300855399
 40
0.3508819414
 40
0.3719239887
 40
0.3931723021
 40
0.4145869913
 40
0.4361277558
 40
0.4577539862
 40
0.4794248651
 40
0.5010994671
 40
0.5227368581
 40
0.5442961936
 40
0.5657368187
 40
0.5870183693
 40
0.6081008732
 40
0.6289448503
 40
0.6495114141
 40
0.6697623751
 40
0.6896603446
 40
0.7091688452
 40
0.7282524229
 40
0.7468767607
 40
0.7650087978
 40
0.7826168578
 40
0.7996707871
 40
0.8161421063
 40
0.8320041856
 40
0.8472324355
 40
0.8618045284
 40
0.8757006673
 40
0.8889039105
 40
0.8952415029
 40
0.9014010575
 40
0.9073814349
 40
0.9131818212
 40
0.9188016688
 40
0.9242407739
 40
0.9294993077
 40
0.9345778094
 40
0.9394773131
 40
0.9441992992
 40
0.948745847
 40
0.9531196365
 40
0.9573240498
 40
0.9613632821
 40
0.9652423783
 40
0.968967428
 40
0.9725455945
 40
0.9759853044
 40
0.9824864771
 40
0.9855753379
 40
0.9885738066
 40
0.9914977312
 40
0.994364333
 40
0.997192009
 40
1.0
 40
1.0
 40
1.0
 40
1.0
 10
12.0207843706
 20
10.6778352467
 30
0.0
 10
12.0194583855
 20
10.6765544434
 30
0.0
 10
12.0166916426
 20
10.6740018927
 30
0.0
 10
12.0122989025
 20
10.6702736955
 30
0.0
 10
12.0075835848
 20
10.6665722341
 30
0.0
 10
12.0025482774
 20
10.6628994877
 30
0.0
 10
11.9971954434
 20
10.6592571625
 30
0.0
 10
11.9915276964
 20
10.6556470403
 30
0.0
 10
11.9855478748
 20
10.6520708377
 30
0.0
 10
11.9792589427
 20
10.6485304165
 30
0.0
 10
11.9726640758
 20
10.6450274828
 30
0.0
 10
11.9657665583
 20
10.6415638231
 30
0.0
 10
11.9585698496
 20
10.6381411632
 30
0.0
 10
11.95107757
 20
10.6347612107
 30
0.0
 10
11.9432934636
 20
10.6314256875
 30
0.0
 10
11.9323794661
 20
10.6269781941
 30
0.0
 10
11.918026641
 20
10.6215540508
 30
0.0
 10
11.8999347434
 20
10.6153351911
 30
0.0
 10
11.8807801604
 20
10.6093322598
 30
0.0
 10
11.8606015129
 20
10.603557457
 30
0.0
 10
11.8394393089
 20
10.5980225368
 30
0.0
 10
11.8173361762
 20
10.5927387726
 30
0.0
 10
11.794336672
 20
10.5877169302
 30
0.0
 10
11.7704872111
 20
10.5829672369
 30
0.0
 10
11.7458359547
 20
10.5784993663
 30
0.0
 10
11.7204327065
 20
10.5743224169
 30
0.0
 10
11.6943288072
 20
10.5704448933
 30
0.0
 10
11.6675770283
 20
10.5668746894
 30
0.0
 10
11.6402314644
 20
10.5636190736
 30
0.0
 10
11.6123474224
 20
10.5606846693
 30
0.0
 10
11.5839813074
 20
10.5580774439
 30
0.0
 10
11.5551905048
 20
10.5558026997
 30
0.0
 10
11.5260332627
 20
10.5538650626
 30
0.0
 10
11.4965685742
 20
10.5522684734
 30
0.0
 10
11.4668560575
 20
10.5510161798
 30
0.0
 10
11.4369558357
 20
10.5501107294
 30
0.0
 10
11.406928414
 20
10.5495539604
 30
0.0
 10
11.3768345552
 20
10.5493470035
 30
0.0
 10
11.3467351567
 20
10.5494902789
 30
0.0
 10
11.3166911271
 20
10.5499834958
 30
0.0
 10
11.2867632629
 20
10.5508256525
 30
0.0
 10
11.2570121255
 20
10.5520150396
 30
0.0
 10
11.2274979165
 20
10.5535492379
 30
0.0
 10
11.1982803549
 20
10.5554251262
 30
0.0
 10
11.1694185563
 20
10.5576388895
 30
0.0
 10
11.1409709133
 20
10.5601860259
 30
0.0
 10
11.1129949772
 20
10.5630613554
 30
0.0
 10
11.0855473399
 20
10.5662590307
 30
0.0
 10
11.0586835167
 20
10.5697725472
 30
0.0
 10
11.0324578306
 20
10.5735947519
 30
0.0
 10
11.0069233019
 20
10.5777178638
 30
0.0
 10
10.9821315396
 20
10.5821334882
 30
0.0
 10
10.9581326351
 20
10.5868326334
 30
0.0
 10
10.934975056
 20
10.5918057288
 30
0.0
 10
10.9127055426
 20
10.5970426467
 30
0.0
 10
10.8913689963
 20
10.6025327169
 30
0.0
 10
10.871008406
 20
10.6082647562
 30
0.0
 10
10.8516646612
 20
10.6142270957
 30
0.0
 10
10.8333767733
 20
10.620407615
 30
0.0
 10
10.8188554869
 20
10.6258004169
 30
0.0
 10
10.8078032955
 20
10.6302238666
 30
0.0
 10
10.7999140175
 20
10.6335428129
 30
0.0
 10
10.7923151594
 20
10.6369068042
 30
0.0
 10
10.7850105187
 20
10.6403141232
 30
0.0
 10
10.7780037734
 20
10.6437630745
 30
0.0
 10
10.7712984398
 20
10.6472519305
 30
0.0
 10
10.7648978632
 20
10.6507789097
 30
0.0
 10
10.7588052689
 20
10.6543423096
 30
0.0
 10
10.7530236681
 20
10.6579402901
 30
0.0
 10
10.747555972
 20
10.6615711379
 30
0.0
 10
10.7424048803
 20
10.6652330266
 30
0.0
 10
10.737572959
 20
10.6689241868
 30
0.0
 10
10.7330626261
 20
10.6726428658
 30
0.0
 10
10.7288760975
 20
10.6763872306
 30
0.0
 10
10.7250155049
 20
10.6801556338
 30
0.0
 10
10.721482828
 20
10.6839461278
 30
0.0
 10
10.7182796533
 20
10.6877575003
 30
0.0
 10
10.7145219842
 20
10.6927689776
 30
0.0
 10
10.7113311379
 20
10.6979155631
 30
0.0
 10
10.7087977093
 20
10.7031720222
 30
0.0
 10
10.7072670452
 20
10.7070595785
 30
0.0
 10
10.706075022
 20
10.7109565802
 30
0.0
 10
10.705222695
 20
10.71486116
 30
0.0
 10
10.7047109324
 20
10.7187705146
 30
0.0
 10
10.7045969968
 20
10.7213822733
 30
0.0
 10
10.704596993
 20
10.7226828912
 30
0.0
  0
SPLINE
  5
344
100
AcDbEntity
  8
0
100
AcDbSpline
 62
7
  6
CONTINUOUS
 70
0
 71
3
 72
21
 73
17
 74
0
 42
0.0000001
 43
0.0000001
 44
0.0000000001
 40
0.0
 40
0.0
 40
0.0
 40
0.0
 40
0.0659546987
 40
0.1312345751
 40
0.1959307461
 40
0.2601223918
 40
0.3238755639
 40
0.3872433517
 40
0.4502639302
 40
0.5129604753
 40
0.6373569804
 40
0.7603487357
 40
0.8212116212
 40
0.8815270183
 40
0.9411756689
 40
1.0
 40
1.0
 40
1.0
 40
1.0
 10
10.8037024479
 20
8.3955347136
 30
0.0
 10
10.8007533274
 20
8.3972096487
 30
0.0
 10
10.7950055087
 20
8.4007591863
 30
0.0
 10
10.7868265642
 20
8.4066561328
 30
0.0
 10
10.7791429294
 20
8.4130443092
 30
0.0
 10
10.7719572558
 20
8.4198732887
 30
0.0
 10
10.7652682312
 20
8.4270958794
 30
0.0
 10
10.7590725516
 20
8.4346674465
 30
0.0
 10
10.7533651655
 20
8.4425462738
 30
0.0
 10
10.7464182104
 20
8.4533769985
 30
0.0
 10
10.7389158091
 20
8.467483214
 30
0.0
 10
10.7329231535
 20
8.4821872554
 30
0.0
 10
10.7290416717
 20
8.4941322646
 30
0.0
 10
10.7265921381
 20
8.5031062718
 30
0.0
 10
10.7245930315
 20
8.5120833634
 30
0.0
 10
10.7235526376
 20
8.5180888885
 30
0.0
 10
10.7231092406
 20
8.5210811184
 30
0.0
  0
SPLINE
  5
345
100
AcDbEntity
  8
0
100
AcDbSpline
 62
7
  6
CONTINUOUS
 70
0
 71
3
 72
15
 73
11
 74
0
 42
0.0000001
 43
0.0000001
 44
0.0000000001
 40
0.0
 40
0.0
 40
0.0
 40
0.0
 40
0.1273482936
 40
0.2538605366
 40
0.3795879111
 40
0.5046050899
 40
0.6290174366
 40
0.7529533732
 40
0.8765605776
 40
1.0
 40
1.0
 40
1.0
 40
1.0
 10
10.079621609
 20
9.2165211695
 30
0.0
 10
10.079621609
 20
9.2130563941
 30
0.0
 10
10.079290794
 20
9.2061447997
 30
0.0
 10
10.0777947072
 20
9.1959103383
 30
0.0
 10
10.0753139459
 20
9.1859330316
 30
0.0
 10
10.0718709133
 20
9.1763061874
 30
0.0
 10
10.0674972151
 20
9.1671185822
 30
0.0
 10
10.0622327068
 20
9.1584550548
 30
0.0
 10
10.0561268767
 20
9.1503967944
 30
0.0
 10
10.0515295082
 20
9.1454743397
 30
0.0
 10
10.0491139344
 20
9.1431410949
 30
0.0
  0
SPLINE
  5
346
100
AcDbEntity
  8
0
100
AcDbSpline
 62
7
  6
CONTINUOUS
 70
0
 71
3
 72
23
 73
19
 74
0
 42
0.0000001
 43
0.0000001
 44
0.0000000001
 40
0.0
 40
0.0
 40
0.0
 40
0.0
 40
0.0614488807
 40
0.1232974294
 40
0.1855193177
 40
0.2480712672
 40
0.3108995318
 40
0.3739401513
 40
0.4371217414
 40
0.5003679843
 40
0.5636003151
 40
0.6267406524
 40
0.6897141172
 40
0.7524516838
 40
0.8148926113
 40
0.8769871451
 40
0.9386966623
 40
1.0
 40
1.0
 40
1.0
 40
1.0
 10
9.9709549471
 20
9.3327238899
 30
0.0
 10
9.9745216402
 20
9.3324765389
 30
0.0
 10
9.9816585851
 20
9.3316287406
 30
0.0
 10
9.992220177
 20
9.3293261079
 30
0.0
 10
10.0025770503
 20
9.3260105959
 30
0.0
 10
10.0126284575
 20
9.3217143261
 30
0.0
 10
10.0222782743
 20
9.316478833
 30
0.0
 10
10.0314338247
 20
9.3103545334
 30
0.0
 10
10.0400073075
 20
9.3034003509
 30
0.0
 10
10.047916467
 20
9.2956831127
 30
0.0
 10
10.0550853985
 20
9.287276914
 30
0.0
 10
10.0614452525
 20
9.2782624192
 30
0.0
 10
10.0669348851
 20
9.2687261139
 30
0.0
 10
10.0715014384
 20
9.2587594589
 30
0.0
 10
10.0751008985
 20
9.2484581839
 30
0.0
 10
10.0776983731
 20
9.2379208361
 30
0.0
 10
10.0792687055
 20
9.2272499348
 30
0.0
 10
10.079621609
 20
9.2200879611
 30
0.0
 10
10.079621609
 20
9.2165211695
 30
0.0
  0
SPLINE
  5
347
100
AcDbEntity
  8
0
100
AcDbSpline
 62
7
  6
CONTINUOUS
 70
0
 71
3
 72
15
 73
11
 74
0
 42
0.0000001
 43
0.0000001
 44
0.0000000001
 40
0.0
 40
0.0
 40
0.0
 40
0.0
 40
0.1273482936
 40
0.2538605366
 40
0.3795879111
 40
0.5046050899
 40
0.6290174366
 40
0.7529533732
 40
0.8765605776
 40
1.0
 40
1.0
 40
1.0
 40
1.0
 10
12.1312482556
 20
9.0742403783
 30
0.0
 10
12.1312482556
 20
9.0707756029
 30
0.0
 10
12.1309174407
 20
9.0638640085
 30
0.0
 10
12.1294213538
 20
9.0536295471
 30
0.0
 10
12.1269405925
 20
9.0436522404
 30
0.0
 10
12.1234975599
 20
9.0340253962
 30
0.0
 10
12.1191238618
 20
9.024837791
 30
0.0
 10
12.1138593534
 20
9.0161742636
 30
0.0
 10
12.1077535233
 20
9.0081160032
 30
0.0
 10
12.1031561548
 20
9.0031935485
 30
0.0
 10
12.1007405811
 20
9.0008603037
 30
0.0
  0
SPLINE
  5
348
100
AcDbEntity
  8
0
100
AcDbSpline
 62
7
  6
CONTINUOUS
 70
0
 71
3
 72
23
 73
19
 74
0
 42
0.0000001
 43
0.0000001
 44
0.0000000001
 40
0.0
 40
0.0
 40
0.0
 40
0.0
 40
0.0614488807
 40
0.1232974294
 40
0.1855193177
 40
0.2480712672
 40
0.3108995318
 40
0.3739401513
 40
0.4371217414
 40
0.5003679843
 40
0.5636003151
 40
0.6267406524
 40
0.6897141172
 40
0.7524516838
 40
0.8148926113
 40
0.8769871451
 40
0.9386966623
 40
1.0
 40
1.0
 40
1.0
 40
1.0
 10
12.0225815937
 20
9.1904430988
 30
0.0
 10
12.0261482868
 20
9.1901957477
 30
0.0
 10
12.0332852317
 20
9.1893479494
 30
0.0
 10
12.0438468236
 20
9.1870453167
 30
0.0
 10
12.0542036969
 20
9.1837298047
 30
0.0
 10
12.0642551041
 20
9.1794335349
 30
0.0
 10
12.0739049209
 20
9.1741980418
 30
0.0
 10
12.0830604713
 20
9.1680737422
 30
0.0
 10
12.0916339541
 20
9.1611195597
 30
0.0
 10
12.0995431136
 20
9.1534023215
 30
0.0
 10
12.1067120451
 20
9.1449961228
 30
0.0
 10
12.1130718991
 20
9.135981628
 30
0.0
 10
12.1185615317
 20
9.1264453227
 30
0.0
 10
12.1231280851
 20
9.1164786677
 30
0.0
 10
12.1267275451
 20
9.1061773927
 30
0.0
 10
12.1293250197
 20
9.0956400449
 30
0.0
 10
12.1308953521
 20
9.0849691436
 30
0.0
 10
12.1312482556
 20
9.0778071699
 30
0.0
 10
12.1312482556
 20
9.0742403783
 30
0.0
  0
SPLINE
  5
349
100
AcDbEntity
  8
0
100
AcDbSpline
 62
7
  6
CONTINUOUS
 70
0
 71
3
 72
15
 73
11
 74
0
 42
0.0000001
 43
0.0000001
 44
0.0000000001
 40
0.0
 40
0.0
 40
0.0
 40
0.0
 40
0.1273482936
 40
0.2538605366
 40
0.3795879111
 40
0.5046050899
 40
0.6290174366
 40
0.7529533732
 40
0.8765605776
 40
1.0
 40
1.0
 40
1.0
 40
1.0
 10
12.1312482556
 20
7.3230167864
 30
0.0
 10
12.1312482556
 20
7.3195520111
 30
0.0
 10
12.1309174407
 20
7.3126404167
 30
0.0
 10
12.1294213538
 20
7.3024059552
 30
0.0
 10
12.1269405925
 20
7.2924286486
 30
0.0
 10
12.1234975599
 20
7.2828018044
 30
0.0
 10
12.1191238618
 20
7.2736141992
 30
0.0
 10
12.1138593534
 20
7.2649506718
 30
0.0
 10
12.1077535233
 20
7.2568924113
 30
0.0
 10
12.1031561548
 20
7.2519699567
 30
0.0
 10
12.1007405811
 20
7.2496367119
 30
0.0
  0
SPLINE
  5
34A
100
AcDbEntity
  8
0
100
AcDbSpline
 62
7
  6
CONTINUOUS
 70
0
 71
3
 72
23
 73
19
 74
0
 42
0.0000001
 43
0.0000001
 44
0.0000000001
 40
0.0
 40
0.0
 40
0.0
 40
0.0
 40
0.0614488807
 40
0.1232974294
 40
0.1855193177
 40
0.2480712672
 40
0.3108995318
 40
0.3739401513
 40
0.4371217414
 40
0.5003679843
 40
0.5636003151
 40
0.6267406524
 40
0.6897141172
 40
0.7524516838
 40
0.8148926113
 40
0.8769871451
 40
0.9386966623
 40
1.0
 40
1.0
 40
1.0
 40
1.0
 10
12.0225815937
 20
7.4392195069
 30
0.0
 10
12.0261482868
 20
7.4389721559
 30
0.0
 10
12.0332852317
 20
7.4381243575
 30
0.0
 10
12.0438468236
 20
7.4358217249
 30
0.0
 10
12.0542036969
 20
7.4325062129
 30
0.0
 10
12.0642551041
 20
7.4282099431
 30
0.0
 10
12.0739049209
 20
7.42297445
 30
0.0
 10
12.0830604713
 20
7.4168501503
 30
0.0
 10
12.0916339541
 20
7.4098959679
 30
0.0
 10
12.0995431136
 20
7.4021787297
 30
0.0
 10
12.1067120451
 20
7.393772531
 30
0.0
 10
12.1130718991
 20
7.3847580361
 30
0.0
 10
12.1185615317
 20
7.3752217308
 30
0.0
 10
12.1231280851
 20
7.3652550759
 30
0.0
 10
12.1267275451
 20
7.3549538009
 30
0.0
 10
12.1293250197
 20
7.3444164531
 30
0.0
 10
12.1308953521
 20
7.3337455518
 30
0.0
 10
12.1312482556
 20
7.3265835781
 30
0.0
 10
12.1312482556
 20
7.3230167864
 30
0.0
  0
SPLINE
  5
34B
100
AcDbEntity
  8
0
100
AcDbSpline
 62
7
  6
CONTINUOUS
 70
0
 71
3
 72
15
 73
11
 74
0
 42
0.0000001
 43
0.0000001
 44
0.0000000001
 40
0.0
 40
0.0
 40
0.0
 40
0.0
 40
0.1273482936
 40
0.2538605366
 40
0.3795879111
 40
0.5046050899
 40
0.6290174366
 40
0.7529533732
 40
0.8765605776
 40
1.0
 40
1.0
 40
1.0
 40
1.0
 10
10.079621609
 20
7.4652975776
 30
0.0
 10
10.079621609
 20
7.4618328023
 30
0.0
 10
10.079290794
 20
7.4549212079
 30
0.0
 10
10.0777947072
 20
7.4446867464
 30
0.0
 10
10.0753139459
 20
7.4347094398
 30
0.0
 10
10.0718709133
 20
7.4250825955
 30
0.0
 10
10.0674972151
 20
7.4158949904
 30
0.0
 10
10.0622327068
 20
7.407231463
 30
0.0
 10
10.0561268767
 20
7.3991732025
 30
0.0
 10
10.0515295082
 20
7.3942507479
 30
0.0
 10
10.0491139344
 20
7.3919175031
 30
0.0
  0
SPLINE
  5
34C
100
AcDbEntity
  8
0
100
AcDbSpline
 62
7
  6
CONTINUOUS
 70
0
 71
3
 72
23
 73
19
 74
0
 42
0.0000001
 43
0.0000001
 44
0.0000000001
 40
0.0
 40
0.0
 40
0.0
 40
0.0
 40
0.0614488807
 40
0.1232974294
 40
0.1855193177
 40
0.2480712672
 40
0.3108995318
 40
0.3739401513
 40
0.4371217414
 40
0.5003679843
 40
0.5636003151
 40
0.6267406524
 40
0.6897141172
 40
0.7524516838
 40
0.8148926113
 40
0.8769871451
 40
0.9386966623
 40
1.0
 40
1.0
 40
1.0
 40
1.0
 10
9.9709549471
 20
7.5815002981
 30
0.0
 10
9.9745216402
 20
7.5812529471
 30
0.0
 10
9.9816585851
 20
7.5804051487
 30
0.0
 10
9.992220177
 20
7.5781025161
 30
0.0
 10
10.0025770503
 20
7.5747870041
 30
0.0
 10
10.0126284575
 20
7.5704907343
 30
0.0
 10
10.0222782743
 20
7.5652552412
 30
0.0
 10
10.0314338247
 20
7.5591309415
 30
0.0
 10
10.0400073075
 20
7.5521767591
 30
0.0
 10
10.047916467
 20
7.5444595209
 30
0.0
 10
10.0550853985
 20
7.5360533221
 30
0.0
 10
10.0614452525
 20
7.5270388273
 30
0.0
 10
10.0669348851
 20
7.517502522
 30
0.0
 10
10.0715014384
 20
7.507535867
 30
0.0
 10
10.0751008985
 20
7.4972345921
 30
0.0
 10
10.0776983731
 20
7.4866972443
 30
0.0
 10
10.0792687055
 20
7.476026343
 30
0.0
 10
10.079621609
 20
7.4688643693
 30
0.0
 10
10.079621609
 20
7.4652975776
 30
0.0
  0
SPLINE
  5
34D
100
AcDbEntity
  8
0
100
AcDbSpline
 62
7
  6
CONTINUOUS
 70
0
 71
3
 72
15
 73
11
 74
0
 42
0.0000001
 43
0.0000001
 44
0.0000000001
 40
0.0
 40
0.0
 40
0.0
 40
0.0
 40
0.1453411268
 40
0.2840005595
 40
0.4163083594
 40
0.5426779773
 40
0.6636082024
 40
0.7796795766
 40
0.8915588721
 40
1.0
 40
1.0
 40
1.0
 40
1.0
 10
12.973670219
 20
8.9856162614
 30
0.0
 10
12.974672289
 20
8.9865841868
 30
0.0
 10
12.9766756179
 20
8.9884295592
 30
0.0
 10
12.979752115
 20
8.9909744091
 30
0.0
 10
12.982825982
 20
8.993227512
 30
0.0
 10
12.9858953478
 20
8.9951871178
 30
0.0
 10
12.9889585451
 20
8.9968518081
 30
0.0
 10
12.9920140501
 20
8.9982201559
 30
0.0
 10
12.995059664
 20
8.9992908104
 30
0.0
 10
12.9971098816
 20
8.9998121318
 30
0.0
 10
12.9981283704
 20
9.0000200335
 30
0.0
  0
SPLINE
  5
34E
100
AcDbEntity
  8
0
100
AcDbSpline
 62
7
  6
CONTINUOUS
 70
0
 71
3
 72
74
 73
70
 74
0
 42
0.0000001
 43
0.0000001
 44
0.0000000001
 40
0.0
 40
0.0
 40
0.0
 40
0.0
 40
0.0039235028
 40
0.008008867
 40
0.0122595404
 40
0.0166784043
 40
0.0212679027
 40
0.0260299921
 40
0.0309660274
 40
0.0360768492
 40
0.0468237871
 40
0.0582711629
 40
0.0704137574
 40
0.0832423033
 40
0.0967440861
 40
0.1109033864
 40
0.125701888
 40
0.1411189706
 40
0.1571319157
 40
0.1737161162
 40
0.1908452792
 40
0.2084915704
 40
0.2266257181
 40
0.2452171561
 40
0.2642341548
 40
0.2836439172
 40
0.303412659
 40
0.3235057297
 40
0.3645217857
 40
0.4064018245
 40
0.4488467743
 40
0.491552366
 40
0.5342119575
 40
0.5765193246
 40
0.6181714566
 40
0.6588713943
 40
0.6787742295
 40
0.698331858
 40
0.7175101521
 40
0.7362759031
 40
0.7545969221
 40
0.7724421751
 40
0.7897818743
 40
0.806587582
 40
0.8228323507
 40
0.8384908995
 40
0.8535397454
 40
0.8679573803
 40
0.8817245178
 40
0.8948243874
 40
0.9072430288
 40
0.9189697068
 40
0.9299974859
 40
0.940323944
 40
0.9452252806
 40
0.9499529418
 40
0.9545083415
 40
0.9588934637
 40
0.963110814
 40
0.9671635862
 40
0.971055728
 40
0.9747919692
 40
0.9783780351
 40
0.9818206783
 40
0.9851278019
 40
0.9883086455
 40
0.9943317817
 40
0.9972033454
 40
1.0
 40
1.0
 40
1.0
 40
1.0
 10
12.973670219
 20
8.9856162614
 30
0.0
 10
12.9727596723
 20
8.9847367409
 30
0.0
 10
12.9709395125
 20
8.982901204
 30
0.0
 10
12.9682649585
 20
8.9799855795
 30
0.0
 10
12.9655930585
 20
8.9768542606
 30
0.0
 10
12.9629252508
 20
8.9735088649
 30
0.0
 10
12.9602626974
 20
8.9699509967
 30
0.0
 10
12.9576066484
 20
8.9661822728
 30
0.0
 10
12.9549582819
 20
8.9622044566
 30
0.0
 10
12.9513789511
 20
8.9565289642
 30
0.0
 10
12.9469422179
 20
8.9489138032
 30
0.0
 10
12.9417543644
 20
8.93912147
 30
0.0
 10
12.9366269195
 20
8.9285458373
 30
0.0
 10
12.9315696795
 20
8.9172069428
 30
0.0
 10
12.9265922985
 20
8.9051261068
 30
0.0
 10
12.9217043106
 20
8.8923262335
 30
0.0
 10
12.9169151061
 20
8.8788316267
 30
0.0
 10
12.9122339052
 20
8.8646679635
 30
0.0
 10
12.9076697129
 20
8.8498622441
 30
0.0
 10
12.9032313029
 20
8.8344427323
 30
0.0
 10
12.8989272171
 20
8.8184388794
 30
0.0
 10
12.8947657476
 20
8.8018812685
 30
0.0
 10
12.8907548934
 20
8.7848015654
 30
0.0
 10
12.8869023623
 20
8.7672324497
 30
0.0
 10
12.8832155617
 20
8.7492075373
 30
0.0
 10
12.8797015969
 20
8.7307613312
 30
0.0
 10
12.8763671823
 20
8.7119291214
 30
0.0
 10
12.8721404951
 20
8.6861770321
 30
0.0
 10
12.8673611655
 20
8.6532885238
 30
0.0
 10
12.8624719497
 20
8.6131391738
 30
0.0
 10
12.8584280588
 20
8.5723480301
 30
0.0
 10
12.8552605328
 20
8.5312273101
 30
0.0
 10
12.8529936853
 20
8.4900915677
 30
0.0
 10
12.8516447309
 20
8.4492554775
 30
0.0
 10
12.8512238887
 20
8.4090316066
 30
0.0
 10
12.8516518846
 20
8.3760372552
 30
0.0
 10
12.8524711795
 20
8.3501850666
 30
0.0
 10
12.8533129089
 20
8.3312828406
 30
0.0
 10
12.8543847121
 20
8.3127597498
 30
0.0
 10
12.8556845397
 20
8.294651227
 30
0.0
 10
12.8572098756
 20
8.2769919431
 30
0.0
 10
12.858957756
 20
8.2598156866
 30
0.0
 10
12.8609247889
 20
8.2431553121
 30
0.0
 10
12.8631071672
 20
8.2270426812
 30
0.0
 10
12.8655006733
 20
8.2115085915
 30
0.0
 10
12.8681006575
 20
8.1965827054
 30
0.0
 10
12.8709020802
 20
8.1822934973
 30
0.0
 10
12.8738995239
 20
8.1686681999
 30
0.0
 10
12.8770871975
 20
8.1557327338
 30
0.0
 10
12.8804589311
 20
8.1435116276
 30
0.0
 10
12.8840082271
 20
8.1320280062
 30
0.0
 10
12.8877283061
 20
8.1213034096
 30
0.0
 10
12.8916120815
 20
8.1113581349
 30
0.0
 10
12.8950359656
 20
8.1036054342
 30
0.0
 10
12.8978602472
 20
8.0978183454
 30
0.0
 10
12.8999778347
 20
8.0937602726
 30
0.0
 10
12.9021307458
 20
8.0899105345
 30
0.0
 10
12.9043179586
 20
8.086270907
 30
0.0
 10
12.9065385042
 20
8.0828431214
 30
0.0
 10
12.9087913712
 20
8.0796287861
 30
0.0
 10
12.9110755142
 20
8.0766293826
 30
0.0
 10
12.9133899793
 20
8.0738463706
 30
0.0
 10
12.9157337497
 20
8.0712810286
 30
0.0
 10
12.9181057306
 20
8.0689346462
 30
0.0
 10
12.9205053165
 20
8.0668082365
 30
0.0
 10
12.9236811066
 20
8.0643138006
 30
0.0
 10
12.9269711371
 20
8.0621988011
 30
0.0
 10
12.9303553123
 20
8.0605255169
 30
0.0
 10
12.9320551627
 20
8.0598442048
 30
0.0
 10
12.9329059231
 20
8.0595434099
 30
0.0
  0
SPLINE
  5
34F
100
AcDbEntity
  8
0
100
AcDbSpline
 62
7
  6
CONTINUOUS
 70
0
 71
3
 72
42
 73
38
 74
0
 42
0.0000001
 43
0.0000001
 44
0.0000000001
 40
0.0
 40
0.0
 40
0.0
 40
0.0
 40
0.0299419663
 40
0.0449235352
 40
0.0599142051
 40
0.0899287052
 40
0.1200139767
 40
0.135092661
 40
0.150196701
 40
0.1804840414
 40
0.210897872
 40
0.2414513324
 40
0.2721543376
 40
0.3030133986
 40
0.3340315263
 40
0.3652082187
 40
0.3965395244
 40
0.4280181782
 40
0.4596338019
 40
0.4913731609
 40
0.5232204716
 40
0.55515775
 40
0.5871651943
 40
0.6192215961
 40
0.6513047701
 40
0.6833919991
 40
0.7154604852
 40
0.7474878032
 40
0.7794523473
 40
0.8113337692
 40
0.8431133916
 40
0.8747746171
 40
0.9063032365
 40
0.9376879249
 40
0.9533258257
 40
0.968925233
 40
1.0
 40
1.0
 40
1.0
 40
1.0
 10
9.0882787981
 20
10.2701586227
 30
0.0
 10
9.0919119352
 20
10.2736679643
 30
0.0
 10
9.0975757703
 20
10.2787193613
 30
0.0
 10
9.1055078834
 20
10.2849870128
 30
0.0
 10
9.1136925773
 20
10.2909428029
 30
0.0
 10
9.1243722761
 20
10.2977819711
 30
0.0
 10
9.1355712411
 20
10.3037642555
 30
0.0
 10
9.1448074662
 20
10.3080201131
 30
0.0
 10
9.1542345199
 20
10.3119245746
 30
0.0
 10
9.1663289779
 20
10.3161230421
 30
0.0
 10
9.1812335829
 20
10.3200359006
 30
0.0
 10
9.1964634114
 20
10.3228078856
 30
0.0
 10
9.2119340658
 20
10.3244236945
 30
0.0
 10
9.2275605614
 20
10.3248747066
 30
0.0
 10
9.2432569167
 20
10.3241586257
 30
0.0
 10
9.2589368607
 20
10.322279588
 30
0.0
 10
9.2745142386
 20
10.3192481025
 30
0.0
 10
9.2899034973
 20
10.315080993
 30
0.0
 10
9.3050201434
 20
10.3098012989
 30
0.0
 10
9.3197812029
 20
10.3034381451
 30
0.0
 10
9.334105669
 20
10.29602658
 30
0.0
 10
9.3479149414
 20
10.287607383
 30
0.0
 10
9.3611332516
 20
10.27822684
 30
0.0
 10
9.3736880734
 20
10.2679364903
 30
0.0
 10
9.3855105156
 20
10.2567928458
 30
0.0
 10
9.3965356964
 20
10.2448570832
 30
0.0
 10
9.4067030953
 20
10.2321947119
 30
0.0
 10
9.415956882
 20
10.2188752168
 30
0.0
 10
9.4242462204
 20
10.2049716858
 30
0.0
 10
9.4315255455
 20
10.1905603969
 30
0.0
 10
9.437754811
 20
10.1757204646
 30
0.0
 10
9.4428997185
 20
10.160533192
 30
0.0
 10
9.4469318507
 20
10.1450824414
 30
0.0
 10
9.4493491994
 20
10.1320403273
 30
0.0
 10
9.4507052647
 20
10.1215611553
 30
0.0
 10
9.451673053
 20
10.1110920083
 30
0.0
 10
9.4519660892
 20
10.1032140493
 30
0.0
 10
9.4519660892
 20
10.0979716906
 30
0.0
  0
SPLINE
  5
350
100
AcDbEntity
  8
0
100
AcDbSpline
 62
7
  6
CONTINUOUS
 70
0
 71
3
 72
42
 73
38
 74
0
 42
0.0000001
 43
0.0000001
 44
0.0000000001
 40
0.0
 40
0.0
 40
0.0
 40
0.0
 40
0.0299419663
 40
0.0449235352
 40
0.0599142051
 40
0.0899287052
 40
0.1200139767
 40
0.135092661
 40
0.150196701
 40
0.1804840414
 40
0.210897872
 40
0.2414513324
 40
0.2721543376
 40
0.3030133986
 40
0.3340315263
 40
0.3652082187
 40
0.3965395244
 40
0.4280181782
 40
0.4596338019
 40
0.4913731609
 40
0.5232204716
 40
0.55515775
 40
0.5871651943
 40
0.6192215961
 40
0.6513047701
 40
0.6833919991
 40
0.7154604852
 40
0.7474878032
 40
0.7794523473
 40
0.8113337692
 40
0.8431133916
 40
0.8747746171
 40
0.9063032365
 40
0.9376879249
 40
0.9533258257
 40
0.968925233
 40
1.0
 40
1.0
 40
1.0
 40
1.0
 10
12.1058312995
 20
10.060890646
 30
0.0
 10
12.1094644366
 20
10.0643999875
 30
0.0
 10
12.1151282717
 20
10.0694513846
 30
0.0
 10
12.1230603847
 20
10.0757190361
 30
0.0
 10
12.1312450787
 20
10.0816748262
 30
0.0
 10
12.1419247774
 20
10.0885139944
 30
0.0
 10
12.1531237425
 20
10.0944962787
 30
0.0
 10
12.1623599675
 20
10.0987521363
 30
0.0
 10
12.1717870212
 20
10.1026565979
 30
0.0
 10
12.1838814793
 20
10.1068550654
 30
0.0
 10
12.1987860843
 20
10.1107679239
 30
0.0
 10
12.2140159127
 20
10.1135399089
 30
0.0
 10
12.2294865672
 20
10.1151557177
 30
0.0
 10
12.2451130627
 20
10.1156067299
 30
0.0
 10
12.260809418
 20
10.114890649
 30
0.0
 10
12.276489362
 20
10.1130116113
 30
0.0
 10
12.29206674
 20
10.1099801257
 30
0.0
 10
12.3074559986
 20
10.1058130162
 30
0.0
 10
12.3225726448
 20
10.1005333222
 30
0.0
 10
12.3373337043
 20
10.0941701684
 30
0.0
 10
12.3516581703
 20
10.0867586033
 30
0.0
 10
12.3654674427
 20
10.0783394063
 30
0.0
 10
12.378685753
 20
10.0689588633
 30
0.0
 10
12.3912405747
 20
10.0586685136
 30
0.0
 10
12.403063017
 20
10.047524869
 30
0.0
 10
12.4140881978
 20
10.0355891064
 30
0.0
 10
12.4242555966
 20
10.0229267352
 30
0.0
 10
12.4335093833
 20
10.0096072401
 30
0.0
 10
12.4417987217
 20
9.9957037091
 30
0.0
 10
12.4490780469
 20
9.9812924201
 30
0.0
 10
12.4553073124
 20
9.9664524879
 30
0.0
 10
12.4604522199
 20
9.9512652153
 30
0.0
 10
12.464484352
 20
9.9358144647
 30
0.0
 10
12.4669017007
 20
9.9227723506
 30
0.0
 10
12.468257766
 20
9.9122931785
 30
0.0
 10
12.4692255543
 20
9.9018240315
 30
0.0
 10
12.4695185905
 20
9.8939460726
 30
0.0
 10
12.4695185905
 20
9.8887037138
 30
0.0
  0
SPLINE
  5
351
100
AcDbEntity
  8
0
100
AcDbSpline
 62
7
  6
CONTINUOUS
 70
0
 71
3
 72
42
 73
38
 74
0
 42
0.0000001
 43
0.0000001
 44
0.0000000001
 40
0.0
 40
0.0
 40
0.0
 40
0.0
 40
0.0299419663
 40
0.0449235352
 40
0.0599142051
 40
0.0899287052
 40
0.1200139767
 40
0.135092661
 40
0.150196701
 40
0.1804840414
 40
0.210897872
 40
0.2414513324
 40
0.2721543376
 40
0.3030133986
 40
0.3340315263
 40
0.3652082187
 40
0.3965395244
 40
0.4280181782
 40
0.4596338019
 40
0.4913731609
 40
0.5232204716
 40
0.55515775
 40
0.5871651943
 40
0.6192215961
 40
0.6513047701
 40
0.6833919991
 40
0.7154604852
 40
0.7474878032
 40
0.7794523473
 40
0.8113337692
 40
0.8431133916
 40
0.8747746171
 40
0.9063032365
 40
0.9376879249
 40
0.9533258257
 40
0.968925233
 40
1.0
 40
1.0
 40
1.0
 40
1.0
 10
10.8385365053
 20
9.0630771042
 30
0.0
 10
10.8421696424
 20
9.0665864457
 30
0.0
 10
10.8478334775
 20
9.0716378428
 30
0.0
 10
10.8557655905
 20
9.0779054943
 30
0.0
 10
10.8639502845
 20
9.0838612844
 30
0.0
 10
10.8746299832
 20
9.0907004526
 30
0.0
 10
10.8858289483
 20
9.0966827369
 30
0.0
 10
10.8950651733
 20
9.1009385945
 30
0.0
 10
10.9044922271
 20
9.1048430561
 30
0.0
 10
10.9165866851
 20
9.1090415235
 30
0.0
 10
10.9314912901
 20
9.112954382
 30
0.0
 10
10.9467211185
 20
9.115726367
 30
0.0
 10
10.962191773
 20
9.1173421759
 30
0.0
 10
10.9778182685
 20
9.1177931881
 30
0.0
 10
10.9935146238
 20
9.1170771071
 30
0.0
 10
11.0091945678
 20
9.1151980695
 30
0.0
 10
11.0247719458
 20
9.1121665839
 30
0.0
 10
11.0401612044
 20
9.1079994744
 30
0.0
 10
11.0552778506
 20
9.1027197803
 30
0.0
 10
11.0700389101
 20
9.0963566266
 30
0.0
 10
11.0843633761
 20
9.0889450614
 30
0.0
 10
11.0981726486
 20
9.0805258644
 30
0.0
 10
11.1113909588
 20
9.0711453214
 30
0.0
 10
11.1239457805
 20
9.0608549717
 30
0.0
 10
11.1357682228
 20
9.0497113272
 30
0.0
 10
11.1467934036
 20
9.0377755646
 30
0.0
 10
11.1569608024
 20
9.0251131933
 30
0.0
 10
11.1662145891
 20
9.0117936983
 30
0.0
 10
11.1745039276
 20
8.9978901673
 30
0.0
 10
11.1817832527
 20
8.9834788783
 30
0.0
 10
11.1880125182
 20
8.9686389461
 30
0.0
 10
11.1931574257
 20
8.9534516735
 30
0.0
 10
11.1971895578
 20
8.9380009229
 30
0.0
 10
11.1996069065
 20
8.9249588088
 30
0.0
 10
11.2009629718
 20
8.9144796367
 30
0.0
 10
11.2019307601
 20
8.9040104897
 30
0.0
 10
11.2022237963
 20
8.8961325308
 30
0.0
 10
11.2022237963
 20
8.890890172
 30
0.0
  0
SPLINE
  5
352
100
AcDbEntity
  8
0
100
AcDbSpline
 62
7
  6
CONTINUOUS
 70
0
 71
3
 72
42
 73
38
 74
0
 42
0.0000001
 43
0.0000001
 44
0.0000000001
 40
0.0
 40
0.0
 40
0.0
 40
0.0
 40
0.0299419663
 40
0.0449235352
 40
0.0599142051
 40
0.0899287052
 40
0.1200139767
 40
0.135092661
 40
0.150196701
 40
0.1804840414
 40
0.210897872
 40
0.2414513324
 40
0.2721543376
 40
0.3030133986
 40
0.3340315263
 40
0.3652082187
 40
0.3965395244
 40
0.4280181782
 40
0.4596338019
 40
0.4913731609
 40
0.5232204716
 40
0.55515775
 40
0.5871651943
 40
0.6192215961
 40
0.6513047701
 40
0.6833919991
 40
0.7154604852
 40
0.7474878032
 40
0.7794523473
 40
0.8113337692
 40
0.8431133916
 40
0.8747746171
 40
0.9063032365
 40
0.9376879249
 40
0.9533258257
 40
0.968925233
 40
1.0
 40
1.0
 40
1.0
 40
1.0
 10
11.2307023163
 20
8.4621204706
 30
0.0
 10
11.2343354534
 20
8.4656298122
 30
0.0
 10
11.2399992886
 20
8.4706812092
 30
0.0
 10
11.2479314016
 20
8.4769488607
 30
0.0
 10
11.2561160955
 20
8.4829046508
 30
0.0
 10
11.2667957943
 20
8.4897438191
 30
0.0
 10
11.2779947593
 20
8.4957261034
 30
0.0
 10
11.2872309844
 20
8.499981961
 30
0.0
 10
11.2966580381
 20
8.5038864225
 30
0.0
 10
11.3087524962
 20
8.50808489
 30
0.0
 10
11.3236571012
 20
8.5119977485
 30
0.0
 10
11.3388869296
 20
8.5147697335
 30
0.0
 10
11.354357584
 20
8.5163855424
 30
0.0
 10
11.3699840796
 20
8.5168365545
 30
0.0
 10
11.3856804349
 20
8.5161204736
 30
0.0
 10
11.4013603789
 20
8.514241436
 30
0.0
 10
11.4169377569
 20
8.5112099504
 30
0.0
 10
11.4323270155
 20
8.5070428409
 30
0.0
 10
11.4474436617
 20
8.5017631468
 30
0.0
 10
11.4622047212
 20
8.495399993
 30
0.0
 10
11.4765291872
 20
8.4879884279
 30
0.0
 10
11.4903384596
 20
8.4795692309
 30
0.0
 10
11.5035567699
 20
8.4701886879
 30
0.0
 10
11.5161115916
 20
8.4598983382
 30
0.0
 10
11.5279340338
 20
8.4487546937
 30
0.0
 10
11.5389592146
 20
8.4368189311
 30
0.0
 10
11.5491266135
 20
8.4241565598
 30
0.0
 10
11.5583804002
 20
8.4108370647
 30
0.0
 10
11.5666697386
 20
8.3969335337
 30
0.0
 10
11.5739490637
 20
8.3825222448
 30
0.0
 10
11.5801783293
 20
8.3676823125
 30
0.0
 10
11.5853232368
 20
8.3524950399
 30
0.0
 10
11.5893553689
 20
8.3370442893
 30
0.0
 10
11.5917727176
 20
8.3240021752
 30
0.0
 10
11.5931287829
 20
8.3135230032
 30
0.0
 10
11.5940965712
 20
8.3030538562
 30
0.0
 10
11.5943896074
 20
8.2951758972
 30
0.0
 10
11.5943896074
 20
8.2899335385
 30
0.0
  0
SPLINE
  5
353
100
AcDbEntity
  8
0
100
AcDbSpline
 62
7
  6
CONTINUOUS
 70
0
 71
3
 72
42
 73
38
 74
0
 42
0.0000001
 43
0.0000001
 44
0.0000000001
 40
0.0
 40
0.0
 40
0.0
 40
0.0
 40
0.0299419663
 40
0.0449235352
 40
0.0599142051
 40
0.0899287052
 40
0.1200139767
 40
0.135092661
 40
0.150196701
 40
0.1804840414
 40
0.210897872
 40
0.2414513324
 40
0.2721543376
 40
0.3030133986
 40
0.3340315263
 40
0.3652082187
 40
0.3965395244
 40
0.4280181782
 40
0.4596338019
 40
0.4913731609
 40
0.5232204716
 40
0.55515775
 40
0.5871651943
 40
0.6192215961
 40
0.6513047701
 40
0.6833919991
 40
0.7154604852
 40
0.7474878032
 40
0.7794523473
 40
0.8113337692
 40
0.8431133916
 40
0.8747746171
 40
0.9063032365
 40
0.9376879249
 40
0.9533258257
 40
0.968925233
 40
1.0
 40
1.0
 40
1.0
 40
1.0
 10
10.4463705791
 20
8.5165140614
 30
0.0
 10
10.4500037162
 20
8.5200234029
 30
0.0
 10
10.4556675513
 20
8.5250748
 30
0.0
 10
10.4635996643
 20
8.5313424515
 30
0.0
 10
10.4717843583
 20
8.5372982416
 30
0.0
 10
10.482464057
 20
8.5441374098
 30
0.0
 10
10.4936630221
 20
8.5501196941
 30
0.0
 10
10.5028992471
 20
8.5543755517
 30
0.0
 10
10.5123263008
 20
8.5582800133
 30
0.0
 10
10.5244207589
 20
8.5624784807
 30
0.0
 10
10.5393253639
 20
8.5663913392
 30
0.0
 10
10.5545551923
 20
8.5691633242
 30
0.0
 10
10.5700258468
 20
8.5707791331
 30
0.0
 10
10.5856523423
 20
8.5712301453
 30
0.0
 10
10.6013486976
 20
8.5705140643
 30
0.0
 10
10.6170286416
 20
8.5686350267
 30
0.0
 10
10.6326060196
 20
8.5656035411
 30
0.0
 10
10.6479952782
 20
8.5614364316
 30
0.0
 10
10.6631119244
 20
8.5561567375
 30
0.0
 10
10.6778729839
 20
8.5497935838
 30
0.0
 10
10.6921974499
 20
8.5423820186
 30
0.0
 10
10.7060067223
 20
8.5339628216
 30
0.0
 10
10.7192250326
 20
8.5245822786
 30
0.0
 10
10.7317798543
 20
8.5142919289
 30
0.0
 10
10.7436022966
 20
8.5031482844
 30
0.0
 10
10.7546274774
 20
8.4912125218
 30
0.0
 10
10.7647948762
 20
8.4785501505
 30
0.0
 10
10.7740486629
 20
8.4652306555
 30
0.0
 10
10.7823380013
 20
8.4513271245
 30
0.0
 10
10.7896173265
 20
8.4369158355
 30
0.0
 10
10.795846592
 20
8.4220759032
 30
0.0
 10
10.8009914995
 20
8.4068886307
 30
0.0
 10
10.8050236316
 20
8.39143788
 30
0.0
 10
10.8074409803
 20
8.3783957659
 30
0.0
 10
10.8087970456
 20
8.3679165939
 30
0.0
 10
10.8097648339
 20
8.3574474469
 30
0.0
 10
10.8100578701
 20
8.349569488
 30
0.0
 10
10.8100578701
 20
8.3443271292
 30
0.0
  0
SPLINE
  5
354
100
AcDbEntity
  8
0
100
AcDbSpline
 62
7
  6
CONTINUOUS
 70
0
 71
3
 72
42
 73
38
 74
0
 42
0.0000001
 43
0.0000001
 44
0.0000000001
 40
0.0
 40
0.0
 40
0.0
 40
0.0
 40
0.0299419663
 40
0.0449235352
 40
0.0599142051
 40
0.0899287052
 40
0.1200139767
 40
0.135092661
 40
0.150196701
 40
0.1804840414
 40
0.210897872
 40
0.2414513324
 40
0.2721543376
 40
0.3030133986
 40
0.3340315263
 40
0.3652082187
 40
0.3965395244
 40
0.4280181782
 40
0.4596338019
 40
0.4913731609
 40
0.5232204716
 40
0.55515775
 40
0.5871651943
 40
0.6192215961
 40
0.6513047701
 40
0.6833919991
 40
0.7154604852
 40
0.7474878032
 40
0.7794523473
 40
0.8113337692
 40
0.8431133916
 40
0.8747746171
 40
0.9063032365
 40
0.9376879249
 40
0.9533258257
 40
0.968925233
 40
1.0
 40
1.0
 40
1.0
 40
1.0
 10
9.9324980615
 20
8.1300415954
 30
0.0
 10
9.9361311986
 20
8.1335509369
 30
0.0
 10
9.9417950338
 20
8.138602334
 30
0.0
 10
9.9497271468
 20
8.1448699855
 30
0.0
 10
9.9579118407
 20
8.1508257756
 30
0.0
 10
9.9685915395
 20
8.1576649438
 30
0.0
 10
9.9797905045
 20
8.1636472281
 30
0.0
 10
9.9890267296
 20
8.1679030857
 30
0.0
 10
9.9984537833
 20
8.1718075473
 30
0.0
 10
10.0105482414
 20
8.1760060148
 30
0.0
 10
10.0254528464
 20
8.1799188733
 30
0.0
 10
10.0406826748
 20
8.1826908583
 30
0.0
 10
10.0561533292
 20
8.1843066671
 30
0.0
 10
10.0717798248
 20
8.1847576793
 30
0.0
 10
10.0874761801
 20
8.1840415984
 30
0.0
 10
10.1031561241
 20
8.1821625607
 30
0.0
 10
10.1187335021
 20
8.1791310751
 30
0.0
 10
10.1341227607
 20
8.1749639656
 30
0.0
 10
10.1492394069
 20
8.1696842716
 30
0.0
 10
10.1640004664
 20
8.1633211178
 30
0.0
 10
10.1783249324
 20
8.1559095527
 30
0.0
 10
10.1921342048
 20
8.1474903557
 30
0.0
 10
10.2053525151
 20
8.1381098127
 30
0.0
 10
10.2179073368
 20
8.127819463
 30
0.0
 10
10.229729779
 20
8.1166758184
 30
0.0
 10
10.2407549598
 20
8.1047400558
 30
0.0
 10
10.2509223587
 20
8.0920776846
 30
0.0
 10
10.2601761454
 20
8.0787581895
 30
0.0
 10
10.2684654838
 20
8.0648546585
 30
0.0
 10
10.2757448089
 20
8.0504433695
 30
0.0
 10
10.2819740745
 20
8.0356034373
 30
0.0
 10
10.287118982
 20
8.0204161647
 30
0.0
 10
10.2911511141
 20
8.0049654141
 30
0.0
 10
10.2935684628
 20
7.9919233
 30
0.0
 10
10.2949245281
 20
7.9814441279
 30
0.0
 10
10.2958923164
 20
7.9709749809
 30
0.0
 10
10.2961853526
 20
7.963097022
 30
0.0
 10
10.2961853526
 20
7.9578546632
 30
0.0
  0
SPLINE
  5
355
100
AcDbEntity
  8
0
100
AcDbSpline
 62
7
  6
CONTINUOUS
 70
0
 71
3
 72
22
 73
18
 74
0
 42
0.0000001
 43
0.0000001
 44
0.0000000001
 40
0.0
 40
0.0
 40
0.0
 40
0.0
 40
0.062662872
 40
0.1252959321
 40
0.1878663704
 40
0.250358953
 40
0.3127753331
 40
0.3751311151
 40
0.4374519183
 40
0.4997687052
 40
0.5621130332
 40
0.6245123733
 40
0.6869856872
 40
0.7495394322
 40
0.8121635945
 40
0.8748285277
 40
1.0
 40
1.0
 40
1.0
 40
1.0
 10
10.288666629
 20
8.0137630873
 30
0.0
 10
10.2839599522
 20
8.0148707581
 30
0.0
 10
10.2746295772
 20
8.0174470739
 30
0.0
 10
10.2609837307
 20
8.0223805332
 30
0.0
 10
10.247773738
 20
8.0283544407
 30
0.0
 10
10.2350807108
 20
8.0353243651
 30
0.0
 10
10.2229719062
 20
8.0432350363
 30
0.0
 10
10.2115018316
 20
8.0520235542
 30
0.0
 10
10.2007124117
 20
8.061622876
 30
0.0
 10
10.1906346174
 20
8.0719645188
 30
0.0
 10
10.1812904423
 20
8.082980489
 30
0.0
 10
10.172695103
 20
8.0946043185
 30
0.0
 10
10.1648590839
 20
8.1067715022
 30
0.0
 10
10.1577901374
 20
8.1194187356
 30
0.0
 10
10.1514941897
 20
8.1324848323
 30
0.0
 10
10.1441438693
 20
8.1503669781
 30
0.0
 10
10.1398002509
 20
8.1642383194
 30
0.0
 10
10.1374370383
 20
8.1736033657
 30
0.0
  0
SPLINE
  5
356
100
AcDbEntity
  8
0
100
AcDbSpline
 62
7
  6
CONTINUOUS
 70
0
 71
3
 72
42
 73
38
 74
0
 42
0.0000001
 43
0.0000001
 44
0.0000000001
 40
0.0
 40
0.0
 40
0.0
 40
0.0
 40
0.0299419663
 40
0.0449235352
 40
0.0599142051
 40
0.0899287052
 40
0.1200139767
 40
0.135092661
 40
0.150196701
 40
0.1804840414
 40
0.210897872
 40
0.2414513324
 40
0.2721543376
 40
0.3030133986
 40
0.3340315263
 40
0.3652082187
 40
0.3965395244
 40
0.4280181782
 40
0.4596338019
 40
0.4913731609
 40
0.5232204716
 40
0.55515775
 40
0.5871651943
 40
0.6192215961
 40
0.6513047701
 40
0.6833919991
 40
0.7154604852
 40
0.7474878032
 40
0.7794523473
 40
0.8113337692
 40
0.8431133916
 40
0.8747746171
 40
0.9063032365
 40
0.9376879249
 40
0.9533258257
 40
0.968925233
 40
1.0
 40
1.0
 40
1.0
 40
1.0
 10
9.0882787981
 20
6.7696434099
 30
0.0
 10
9.0919119352
 20
6.7731527514
 30
0.0
 10
9.0975757703
 20
6.7782041485
 30
0.0
 10
9.1055078834
 20
6.7844718
 30
0.0
 10
9.1136925773
 20
6.7904275901
 30
0.0
 10
9.1243722761
 20
6.7972667583
 30
0.0
 10
9.1355712411
 20
6.8032490427
 30
0.0
 10
9.1448074662
 20
6.8075049003
 30
0.0
 10
9.1542345199
 20
6.8114093618
 30
0.0
 10
9.1663289779
 20
6.8156078293
 30
0.0
 10
9.1812335829
 20
6.8195206878
 30
0.0
 10
9.1964634114
 20
6.8222926728
 30
0.0
 10
9.2119340658
 20
6.8239084817
 30
0.0
 10
9.2275605614
 20
6.8243594938
 30
0.0
 10
9.2432569167
 20
6.8236434129
 30
0.0
 10
9.2589368607
 20
6.8217643752
 30
0.0
 10
9.2745142386
 20
6.8187328897
 30
0.0
 10
9.2899034973
 20
6.8145657802
 30
0.0
 10
9.3050201434
 20
6.8092860861
 30
0.0
 10
9.3197812029
 20
6.8029229323
 30
0.0
 10
9.334105669
 20
6.7955113672
 30
0.0
 10
9.3479149414
 20
6.7870921702
 30
0.0
 10
9.3611332516
 20
6.7777116272
 30
0.0
 10
9.3736880734
 20
6.7674212775
 30
0.0
 10
9.3855105156
 20
6.756277633
 30
0.0
 10
9.3965356964
 20
6.7443418704
 30
0.0
 10
9.4067030953
 20
6.7316794991
 30
0.0
 10
9.415956882
 20
6.718360004
 30
0.0
 10
9.4242462204
 20
6.704456473
 30
0.0
 10
9.4315255455
 20
6.6900451841
 30
0.0
 10
9.437754811
 20
6.6752052518
 30
0.0
 10
9.4428997185
 20
6.6600179792
 30
0.0
 10
9.4469318507
 20
6.6445672286
 30
0.0
 10
9.4493491994
 20
6.6315251145
 30
0.0
 10
9.4507052647
 20
6.6210459424
 30
0.0
 10
9.451673053
 20
6.6105767955
 30
0.0
 10
9.4519660892
 20
6.6026988365
 30
0.0
 10
9.4519660892
 20
6.5974564777
 30
0.0
  0
SPLINE
  5
357
100
AcDbEntity
  8
0
100
AcDbSpline
 62
7
  6
CONTINUOUS
 70
0
 71
3
 72
42
 73
38
 74
0
 42
0.0000001
 43
0.0000001
 44
0.0000000001
 40
0.0
 40
0.0
 40
0.0
 40
0.0
 40
0.0299419663
 40
0.0449235352
 40
0.0599142051
 40
0.0899287052
 40
0.1200139767
 40
0.135092661
 40
0.150196701
 40
0.1804840414
 40
0.210897872
 40
0.2414513324
 40
0.2721543376
 40
0.3030133986
 40
0.3340315263
 40
0.3652082187
 40
0.3965395244
 40
0.4280181782
 40
0.4596338019
 40
0.4913731609
 40
0.5232204716
 40
0.55515775
 40
0.5871651943
 40
0.6192215961
 40
0.6513047701
 40
0.6833919991
 40
0.7154604852
 40
0.7474878032
 40
0.7794523473
 40
0.8113337692
 40
0.8431133916
 40
0.8747746171
 40
0.9063032365
 40
0.9376879249
 40
0.9533258257
 40
0.968925233
 40
1.0
 40
1.0
 40
1.0
 40
1.0
 10
12.1058312995
 20
6.5603754332
 30
0.0
 10
12.1094644366
 20
6.5638847747
 30
0.0
 10
12.1151282717
 20
6.5689361718
 30
0.0
 10
12.1230603847
 20
6.5752038233
 30
0.0
 10
12.1312450787
 20
6.5811596134
 30
0.0
 10
12.1419247774
 20
6.5879987816
 30
0.0
 10
12.1531237425
 20
6.5939810659
 30
0.0
 10
12.1623599675
 20
6.5982369235
 30
0.0
 10
12.1717870212
 20
6.6021413851
 30
0.0
 10
12.1838814793
 20
6.6063398525
 30
0.0
 10
12.1987860843
 20
6.610252711
 30
0.0
 10
12.2140159127
 20
6.6130246961
 30
0.0
 10
12.2294865672
 20
6.6146405049
 30
0.0
 10
12.2451130627
 20
6.6150915171
 30
0.0
 10
12.260809418
 20
6.6143754361
 30
0.0
 10
12.276489362
 20
6.6124963985
 30
0.0
 10
12.29206674
 20
6.6094649129
 30
0.0
 10
12.3074559986
 20
6.6052978034
 30
0.0
 10
12.3225726448
 20
6.6000181093
 30
0.0
 10
12.3373337043
 20
6.5936549556
 30
0.0
 10
12.3516581703
 20
6.5862433904
 30
0.0
 10
12.3654674427
 20
6.5778241935
 30
0.0
 10
12.378685753
 20
6.5684436504
 30
0.0
 10
12.3912405747
 20
6.5581533007
 30
0.0
 10
12.403063017
 20
6.5470096562
 30
0.0
 10
12.4140881978
 20
6.5350738936
 30
0.0
 10
12.4242555966
 20
6.5224115223
 30
0.0
 10
12.4335093833
 20
6.5090920273
 30
0.0
 10
12.4417987217
 20
6.4951884963
 30
0.0
 10
12.4490780469
 20
6.4807772073
 30
0.0
 10
12.4553073124
 20
6.4659372751
 30
0.0
 10
12.4604522199
 20
6.4507500025
 30
0.0
 10
12.464484352
 20
6.4352992519
 30
0.0
 10
12.4669017007
 20
6.4222571378
 30
0.0
 10
12.468257766
 20
6.4117779657
 30
0.0
 10
12.4692255543
 20
6.4013088187
 30
0.0
 10
12.4695185905
 20
6.3934308598
 30
0.0
 10
12.4695185905
 20
6.388188501
 30
0.0
  0
SPLINE
  5
358
100
AcDbEntity
  8
0
100
AcDbSpline
 62
7
  6
CONTINUOUS
 70
0
 71
3
 72
15
 73
11
 74
0
 42
0.0000001
 43
0.0000001
 44
0.0000000001
 40
0.0
 40
0.0
 40
0.0
 40
0.0
 40
0.1233171261
 40
0.2468171865
 40
0.3706749939
 40
0.4950495802
 40
0.6200773232
 40
0.7458671315
 40
0.872492731
 40
1.0
 40
1.0
 40
1.0
 40
1.0
 10
9.8927959597
 20
9.3049733612
 30
0.0
 10
9.8953204934
 20
9.3074118523
 30
0.0
 10
9.900640464
 20
9.312024278
 30
0.0
 10
9.9093231803
 20
9.3180514682
 30
0.0
 10
9.9186270052
 20
9.3231323095
 30
0.0
 10
9.9284567059
 20
9.32721458
 30
0.0
 10
9.9387131277
 20
9.3302577505
 30
0.0
 10
9.949292952
 20
9.3322313936
 30
0.0
 10
9.9600881829
 20
9.3331163128
 30
0.0
 10
9.9673344651
 20
9.3329749712
 30
0.0
 10
9.9709549471
 20
9.3327238899
 30
0.0
  0
SPLINE
  5
359
100
AcDbEntity
  8
0
100
AcDbSpline
 62
7
  6
CONTINUOUS
 70
0
 71
3
 72
15
 73
11
 74
0
 42
0.0000001
 43
0.0000001
 44
0.0000000001
 40
0.0
 40
0.0
 40
0.0
 40
0.0
 40
0.1233171261
 40
0.2468171865
 40
0.3706749939
 40
0.4950495802
 40
0.6200773232
 40
0.7458671315
 40
0.872492731
 40
1.0
 40
1.0
 40
1.0
 40
1.0
 10
11.9444226063
 20
9.16269257
 30
0.0
 10
11.94694714
 20
9.1651310611
 30
0.0
 10
11.9522671106
 20
9.1697434868
 30
0.0
 10
11.9609498269
 20
9.175770677
 30
0.0
 10
11.9702536518
 20
9.1808515183
 30
0.0
 10
11.9800833525
 20
9.1849337888
 30
0.0
 10
11.9903397743
 20
9.1879769593
 30
0.0
 10
12.0009195986
 20
9.1899506024
 30
0.0
 10
12.0117148295
 20
9.1908355216
 30
0.0
 10
12.0189611117
 20
9.19069418
 30
0.0
 10
12.0225815937
 20
9.1904430988
 30
0.0
  0
SPLINE
  5
35A
100
AcDbEntity
  8
0
100
AcDbSpline
 62
7
  6
CONTINUOUS
 70
0
 71
3
 72
15
 73
11
 74
0
 42
0.0000001
 43
0.0000001
 44
0.0000000001
 40
0.0
 40
0.0
 40
0.0
 40
0.0
 40
0.1233171261
 40
0.2468171865
 40
0.3706749939
 40
0.4950495802
 40
0.6200773232
 40
0.7458671315
 40
0.872492731
 40
1.0
 40
1.0
 40
1.0
 40
1.0
 10
11.9444226063
 20
7.4114689782
 30
0.0
 10
11.94694714
 20
7.4139074693
 30
0.0
 10
11.9522671106
 20
7.418519895
 30
0.0
 10
11.9609498269
 20
7.4245470852
 30
0.0
 10
11.9702536518
 20
7.4296279265
 30
0.0
 10
11.9800833525
 20
7.433710197
 30
0.0
 10
11.9903397743
 20
7.4367533675
 30
0.0
 10
12.0009195986
 20
7.4387270106
 30
0.0
 10
12.0117148295
 20
7.4396119297
 30
0.0
 10
12.0189611117
 20
7.4394705882
 30
0.0
 10
12.0225815937
 20
7.4392195069
 30
0.0
  0
SPLINE
  5
35B
100
AcDbEntity
  8
0
100
AcDbSpline
 62
7
  6
CONTINUOUS
 70
0
 71
3
 72
15
 73
11
 74
0
 42
0.0000001
 43
0.0000001
 44
0.0000000001
 40
0.0
 40
0.0
 40
0.0
 40
0.0
 40
0.1233171261
 40
0.2468171865
 40
0.3706749939
 40
0.4950495802
 40
0.6200773232
 40
0.7458671315
 40
0.872492731
 40
1.0
 40
1.0
 40
1.0
 40
1.0
 10
9.8927959597
 20
7.5537497693
 30
0.0
 10
9.8953204934
 20
7.5561882604
 30
0.0
 10
9.900640464
 20
7.5608006862
 30
0.0
 10
9.9093231803
 20
7.5668278764
 30
0.0
 10
9.9186270052
 20
7.5719087176
 30
0.0
 10
9.9284567059
 20
7.5759909882
 30
0.0
 10
9.9387131277
 20
7.5790341587
 30
0.0
 10
9.949292952
 20
7.5810078018
 30
0.0
 10
9.9600881829
 20
7.5818927209
 30
0.0
 10
9.9673344651
 20
7.5817513794
 30
0.0
 10
9.9709549471
 20
7.5815002981
 30
0.0
  0
SPLINE
  5
35C
100
AcDbEntity
  8
0
100
AcDbSpline
 62
7
  6
CONTINUOUS
 70
0
 71
3
 72
74
 73
70
 74
0
 42
0.0000001
 43
0.0000001
 44
0.0000000001
 40
0.0
 40
0.0
 40
0.0
 40
0.0
 40
0.0028891574
 40
0.0058525163
 40
0.0120553002
 40
0.0153232205
 40
0.0187152901
 40
0.0222405952
 40
0.0259069657
 40
0.0297210948
 40
0.0336887057
 40
0.0378145516
 40
0.0421025967
 40
0.0465560993
 40
0.0511776113
 40
0.0559691634
 40
0.0609322486
 40
0.0713759398
 40
0.0825130237
 40
0.0943414806
 40
0.1068547162
 40
0.1200423028
 40
0.1338905397
 40
0.1483828634
 40
0.1635001544
 40
0.1792210531
 40
0.1955221961
 40
0.2123783893
 40
0.229762757
 40
0.2476469258
 40
0.2660011581
 40
0.2847944523
 40
0.3039946521
 40
0.3235685793
 40
0.3434821325
 40
0.3841868012
 40
0.4258216567
 40
0.4680900193
 40
0.5106892735
 40
0.5533137326
 40
0.5956574801
 40
0.6374171983
 40
0.6782950299
 40
0.6983127725
 40
0.7180023149
 40
0.7373292561
 40
0.7562600921
 40
0.7747623364
 40
0.7928046015
 40
0.8103567024
 40
0.8273897951
 40
0.8438765199
 40
0.8597911134
 40
0.8751095645
 40
0.8898098309
 40
0.9038720557
 40
0.917278795
 40
0.9300153347
 40
0.9420701273
 40
0.953435268
 40
0.9641071426
 40
0.9691837389
 40
0.9740880877
 40
0.9788213275
 40
0.9833851367
 40
0.987781827
 40
0.9920142316
 40
0.9960856546
 40
1.0
 40
1.0
 40
1.0
 40
1.0
 10
10.9028164626
 20
10.6829931297
 30
0.0
 10
10.9030672331
 20
10.6820914773
 30
0.0
 10
10.9036485827
 20
10.6802845764
 30
0.0
 10
10.9051231522
 20
10.6766655909
 30
0.0
 10
10.9070464882
 20
10.6731100992
 30
0.0
 10
10.9093597513
 20
10.6696428803
 30
0.0
 10
10.911348566
 20
10.6670079543
 30
0.0
 10
10.9135596136
 20
10.6643859273
 30
0.0
 10
10.9159919233
 20
10.6617775759
 30
0.0
 10
10.9186442276
 20
10.6591841031
 30
0.0
 10
10.9215153106
 20
10.6566066834
 30
0.0
 10
10.924603757
 20
10.6540464308
 30
0.0
 10
10.9279081126
 20
10.6515045119
 30
0.0
 10
10.931426836
 20
10.6489821273
 30
0.0
 10
10.9351582262
 20
10.6464803972
 30
0.0
 10
10.9391005483
 20
10.6440004978
 30
0.0
 10
10.9447317741
 20
10.6406679253
 30
0.0
 10
10.9522975599
 20
10.6365751342
 30
0.0
 10
10.9620367357
 20
10.6318495826
 30
0.0
 10
10.9725665697
 20
10.6272386083
 30
0.0
 10
10.9838670319
 20
10.6227510058
 30
0.0
 10
10.9959168381
 20
10.6183953448
 30
0.0
 10
11.0086930972
 20
10.6141800154
 30
0.0
 10
11.0221714825
 20
10.6101131632
 30
0.0
 10
11.0363262441
 20
10.606202637
 30
0.0
 10
11.0511302966
 20
10.6024560015
 30
0.0
 10
11.0665552837
 20
10.5988805161
 30
0.0
 10
11.0825716264
 20
10.5954831114
 30
0.0
 10
11.0991485801
 20
10.5922703523
 30
0.0
 10
11.11625431
 20
10.5892484574
 30
0.0
 10
11.1338559582
 20
10.5864232837
 30
0.0
 10
11.151919701
 20
10.5838002998
 30
0.0
 10
11.1704108028
 20
10.5813845775
 30
0.0
 10
11.1892937408
 20
10.579180758
 30
0.0
 10
11.2151332233
 20
10.5765112655
 30
0.0
 10
11.2481437741
 20
10.5737445747
 30
0.0
 10
11.2884401333
 20
10.5713490286
 30
0.0
 10
11.3293947522
 20
10.5698731922
 30
0.0
 10
11.3706927982
 20
10.5693285253
 30
0.0
 10
11.4120170012
 20
10.5697193197
 30
0.0
 10
11.4530498849
 20
10.5710424917
 30
0.0
 10
11.4934760106
 20
10.5732877596
 30
0.0
 10
11.5266273683
 20
10.5759304946
 30
0.0
 10
11.552604653
 20
10.5785024039
 30
0.0
 10
11.5716086658
 20
10.5806354964
 30
0.0
 10
11.5902327122
 20
10.5829819472
 30
0.0
 10
11.6084410106
 20
10.5855372544
 30
0.0
 10
11.6261985531
 20
10.5882964556
 30
0.0
 10
11.6434712141
 20
10.5912542124
 30
0.0
 10
11.6602258011
 20
10.5944048082
 30
0.0
 10
11.6764301336
 20
10.5977421479
 30
0.0
 10
11.6920531113
 20
10.6012597593
 30
0.0
 10
11.7070647657
 20
10.6049508307
 30
0.0
 10
11.7214363189
 20
10.6088082271
 30
0.0
 10
11.7351402612
 20
10.6128244823
 30
0.0
 10
11.7481504094
 20
10.6169918185
 30
0.0
 10
11.7604419619
 20
10.6213021883
 30
0.0
 10
11.7719915251
 20
10.6257472989
 30
0.0
 10
11.7827773082
 20
10.6303186325
 30
0.0
 10
11.7927787893
 20
10.6350074299
 30
0.0
 10
11.800569212
 20
10.6390702501
 30
0.0
 10
11.8063836732
 20
10.6423803155
 30
0.0
 10
11.8104638408
 20
10.6448451874
 30
0.0
 10
11.8143342917
 20
10.6473326303
 30
0.0
 10
11.8179932094
 20
10.6498415476
 30
0.0
 10
11.8214389211
 20
10.6523707558
 30
0.0
 10
11.8246697696
 20
10.6549191633
 30
0.0
 10
11.8276840686
 20
10.6574853892
 30
0.0
 10
11.8295849846
 20
10.6592411819
 30
0.0
 10
11.8304969715
 20
10.6601220937
 30
0.0
  0
SPLINE
  5
35D
100
AcDbEntity
  8
0
100
AcDbSpline
 62
7
  6
CONTINUOUS
 70
0
 71
3
 72
14
 73
10
 74
0
 42
0.0000001
 43
0.0000001
 44
0.0000000001
 40
0.0
 40
0.0
 40
0.0
 40
0.0
 40
0.1102063069
 40
0.2235240717
 40
0.3405959171
 40
0.4619986165
 40
0.7196516389
 40
0.8568421097
 40
1.0
 40
1.0
 40
1.0
 40
1.0
 10
11.8453774868
 20
10.6829929773
 30
0.0
 10
11.8451058189
 20
10.6820161989
 30
0.0
 10
11.8444685779
 20
10.6800580876
 30
0.0
 10
11.8432582529
 20
10.6771646201
 30
0.0
 10
11.8417830151
 20
10.6742805829
 30
0.0
 10
11.8394177537
 20
10.6703734329
 30
0.0
 10
11.8365519223
 20
10.6665683263
 30
0.0
 10
11.833258199
 20
10.6628724476
 30
0.0
 10
11.8314442263
 20
10.6610370716
 30
0.0
 10
11.8304969715
 20
10.6601220937
 30
0.0
  0
SPLINE
  5
35E
100
AcDbEntity
  8
0
100
AcDbSpline
 62
7
  6
CONTINUOUS
 70
0
 71
3
 72
18
 73
14
 74
0
 42
0.0000001
 43
0.0000001
 44
0.0000000001
 40
0.0
 40
0.0
 40
0.0
 40
0.0
 40
0.0548620934
 40
0.1099281175
 40
0.1653995415
 40
0.2214731583
 40
0.2783387419
 40
0.3361775034
 40
0.4554063124
 40
0.5804415574
 40
0.7123342032
 40
0.8519579354
 40
1.0
 40
1.0
 40
1.0
 40
1.0
 10
12.0435969901
 20
10.7226834464
 30
0.0
 10
12.0435969929
 20
10.7217379199
 30
0.0
 10
12.0435369811
 20
10.7198428092
 30
0.0
 10
12.043267162
 20
10.7170032248
 30
0.0
 10
12.0428175921
 20
10.7141652772
 30
0.0
 10
12.0421884229
 20
10.7113300039
 30
0.0
 10
12.0413799153
 20
10.7084981159
 30
0.0
 10
12.040050086
 20
10.7046899874
 30
0.0
 10
12.037919712
 20
10.6999270415
 30
0.0
 10
12.0346771466
 20
10.6943019801
 30
0.0
 10
12.030727865
 20
10.6887133249
 30
0.0
 10
12.026077877
 20
10.6831666955
 30
0.0
 10
12.0226195101
 20
10.6796078555
 30
0.0
 10
12.0207843706
 20
10.6778352467
 30
0.0
  0
SPLINE
  5
35F
100
AcDbEntity
  8
0
100
AcDbSpline
 62
7
  6
CONTINUOUS
 70
0
 71
3
 72
59
 73
55
 74
0
 42
0.0000001
 43
0.0000001
 44
0.0000000001
 40
0.0
 40
0.0
 40
0.0
 40
0.0
 40
0.0077405245
 40
0.0160542497
 40
0.024960405
 40
0.0344718839
 40
0.0445951894
 40
0.0553320496
 40
0.0666803118
 40
0.0786343308
 40
0.0911856042
 40
0.1043231538
 40
0.1180337168
 40
0.1323021262
 40
0.1471114588
 40
0.1624431483
 40
0.1782772461
 40
0.1945924619
 40
0.2113662695
 40
0.2285750893
 40
0.2461942852
 40
0.264198285
 40
0.3012535754
 40
0.3395215383
 40
0.3787717061
 40
0.4187655369
 40
0.459258457
 40
0.5000019073
 40
0.5407453406
 40
0.5812382058
 40
0.6212319494
 40
0.6604820047
 40
0.6987498106
 40
0.7358049088
 40
0.7538088165
 40
0.7714279017
 40
0.7886365922
 40
0.8054102913
 40
0.821725369
 40
0.8375593228
 40
0.8528908879
 40
0.8677000574
 40
0.8819683141
 40
0.8956787371
 40
0.9088161038
 40
0.9213672215
 40
0.9333210849
 40
0.9446691544
 40
0.9554058659
 40
0.9655289891
 40
0.9750402793
 40
0.9839463795
 40
0.9922597315
 40
1.0
 40
1.0
 40
1.0
 40
1.0
 10
10.6400857676
 20
10.7726985309
 30
0.0
 10
10.6387692605
 20
10.7714734475
 30
0.0
 10
10.6359352199
 20
10.7690424757
 30
0.0
 10
10.6312860865
 20
10.7655705193
 30
0.0
 10
10.6260980796
 20
10.7621509155
 30
0.0
 10
10.6203797147
 20
10.7587890892
 30
0.0
 10
10.6141398268
 20
10.7554901027
 30
0.0
 10
10.6073883904
 20
10.7522592302
 30
0.0
 10
10.6001362191
 20
10.7491017039
 30
0.0
 10
10.5923950347
 20
10.7460226421
 30
0.0
 10
10.5841773991
 20
10.7430271031
 30
0.0
 10
10.5754966945
 20
10.7401200497
 30
0.0
 10
10.5663671133
 20
10.7373062515
 30
0.0
 10
10.5568036001
 20
10.7345903793
 30
0.0
 10
10.5468218353
 20
10.7319769459
 30
0.0
 10
10.5364382135
 20
10.7294702523
 30
0.0
 10
10.5256697951
 20
10.7270744743
 30
0.0
 10
10.5145342883
 20
10.7247935855
 30
0.0
 10
10.5030500168
 20
10.722631342
 30
0.0
 10
10.4912358856
 20
10.7205913578
 30
0.0
 10
10.4791113302
 20
10.7186769805
 30
0.0
 10
10.462397634
 20
10.7162732147
 30
0.0
 10
10.4408760689
 20
10.7136151069
 30
0.0
 10
10.4143838042
 20
10.7110002741
 30
0.0
 10
10.3871573931
 20
10.7089481877
 30
0.0
 10
10.3593761594
 20
10.707472545
 30
0.0
 10
10.3312229453
 20
10.7065832147
 30
0.0
 10
10.3028831325
 20
10.7062861317
 30
0.0
 10
10.2745433332
 20
10.7065832922
 30
0.0
 10
10.2463901588
 20
10.7074727116
 30
0.0
 10
10.2186089888
 20
10.7089484374
 30
0.0
 10
10.191382666
 20
10.7110005935
 30
0.0
 10
10.1648905167
 20
10.7136155059
 30
0.0
 10
10.1433690641
 20
10.7162736873
 30
0.0
 10
10.1266554662
 20
10.7186774913
 30
0.0
 10
10.1145309944
 20
10.7205919042
 30
0.0
 10
10.1027169532
 20
10.7226319332
 30
0.0
 10
10.0912327743
 20
10.7247941963
 30
0.0
 10
10.080097368
 20
10.7270751243
 30
0.0
 10
10.0693290548
 20
10.7294709397
 30
0.0
 10
10.0589455398
 20
10.7319776486
 30
0.0
 10
10.0489638915
 20
10.7345911237
 30
0.0
 10
10.0394004966
 20
10.7373070241
 30
0.0
 10
10.0302710345
 20
10.7401208344
 30
0.0
 10
10.0215904615
 20
10.7430279309
 30
0.0
 10
10.0133729548
 20
10.7460234877
 30
0.0
 10
10.0056319001
 20
10.7491025596
 30
0.0
 10
9.9983798732
 20
10.7522601284
 30
0.0
 10
9.9916285759
 20
10.755491009
 30
0.0
 10
9.9853888278
 20
10.7587900026
 30
0.0
 10
9.9796706026
 20
10.7621518719
 30
0.0
 10
9.9744827691
 20
10.7655714775
 30
0.0
 10
9.9698338083
 20
10.7690433995
 30
0.0
 10
9.966999928
 20
10.7714743351
 30
0.0
 10
9.9656834971
 20
10.7726994131
 30
0.0
  0
SPLINE
  5
360
100
AcDbEntity
  8
0
100
AcDbSpline
 62
7
  6
CONTINUOUS
 70
0
 71
3
 72
88
 73
84
 74
0
 42
0.0000001
 43
0.0000001
 44
0.0000000001
 40
0.0
 40
0.0
 40
0.0
 40
0.0
 40
0.0027164206
 40
0.0054532135
 40
0.00823027
 40
0.0110665466
 40
0.0139797362
 40
0.0169860264
 40
0.0200999638
 40
0.0233344621
 40
0.0267007864
 40
0.030208716
 40
0.033866602
 40
0.0376815365
 40
0.0416594862
 40
0.0458053757
 40
0.0501232805
 40
0.0546164357
 40
0.0592874172
 40
0.0641381604
 40
0.0691700473
 40
0.0743839976
 40
0.0797804461
 40
0.085359486
 40
0.0911208072
 40
0.097063806
 40
0.1031875785
 40
0.1094909314
 40
0.1226301057
 40
0.1364676988
 40
0.1509864378
 40
0.1661662591
 40
0.1819846247
 40
0.1984167804
 40
0.2154359739
 40
0.2330136371
 40
0.2511195505
 40
0.2697219952
 40
0.2887878869
 40
0.3082829001
 40
0.3281715858
 40
0.3484174815
 40
0.3689832185
 40
0.3898306305
 40
0.410920857
 40
0.4322144439
 40
0.4536714439
 40
0.4969133241
 40
0.5403214886
 40
0.5835686279
 40
0.6050302166
 40
0.6263296837
 40
0.6474270673
 40
0.6682828961
 40
0.6888582896
 40
0.7091150586
 40
0.7290158075
 40
0.7485240405
 40
0.7676042737
 40
0.7862221443
 40
0.8043445271
 40
0.8219396585
 40
0.8389772699
 40
0.8554287349
 40
0.8712672375
 40
0.8864679574
 40
0.9010082824
 40
0.9148680665
 40
0.9280299429
 40
0.9343448017
 40
0.9404801679
 40
0.9464348204
 40
0.9522078552
 40
0.9577986253
 40
0.9632068219
 40
0.9684325067
 40
0.9734760906
 40
0.9783384494
 40
0.9830208978
 40
0.9875254123
 40
0.9918545974
 40
0.9960115688
 40
1.0
 40
1.0
 40
1.0
 40
1.0
 10
12.9582613798
 20
7.8591768553
 30
0.0
 10
12.9570118399
 20
7.859263507
 30
0.0
 10
12.954509789
 20
7.8595505682
 30
0.0
 10
12.9507885529
 20
7.8603186716
 30
0.0
 10
12.9470954572
 20
7.8614242849
 30
0.0
 10
12.9434331013
 20
7.8628662274
 30
0.0
 10
12.939803399
 20
7.8646432826
 30
0.0
 10
12.9362082142
 20
7.8667540502
 30
0.0
 10
12.9326491694
 20
7.8691969858
 30
0.0
 10
12.9291279079
 20
7.8719706165
 30
0.0
 10
12.9256458772
 20
7.8750732383
 30
0.0
 10
12.9222046455
 20
7.8785032257
 30
0.0
 10
12.9188056734
 20
7.8822587473
 30
0.0
 10
12.9154504739
 20
7.8863379078
 30
0.0
 10
12.9121406001
 20
7.8907386928
 30
0.0
 10
12.9088775171
 20
7.8954588913
 30
0.0
 10
12.9056628347
 20
7.9004962219
 30
0.0
 10
12.9024980124
 20
7.9058481677
 30
0.0
 10
12.899384627
 20
7.9115121166
 30
0.0
 10
12.8963241778
 20
7.9174852632
 30
0.0
 10
12.8933181495
 20
7.9237646485
 30
0.0
 10
12.8903680746
 20
7.9303471739
 30
0.0
 10
12.8874753532
 20
7.9372295507
 30
0.0
 10
12.8846414926
 20
7.9444083712
 30
0.0
 10
12.8818678565
 20
7.9518800444
 30
0.0
 10
12.8791558665
 20
7.9596408444
 30
0.0
 10
12.8765068606
 20
7.9676869031
 30
0.0
 10
12.8730122175
 20
7.9789461309
 30
0.0
 10
12.8688232925
 20
7.993711559
 30
0.0
 10
12.8641351473
 20
8.0122642637
 30
0.0
 10
12.8597280843
 20
8.0318512157
 30
0.0
 10
12.8556110392
 20
8.0524331452
 30
0.0
 10
12.8517923918
 20
8.0739689486
 30
0.0
 10
12.8482799124
 20
8.0964154858
 30
0.0
 10
12.8450807537
 20
8.1197277626
 30
0.0
 10
12.8422014278
 20
8.143859004
 30
0.0
 10
12.8396477933
 20
8.168760762
 30
0.0
 10
12.8374250482
 20
8.1943830196
 30
0.0
 10
12.8355377182
 20
8.2206742974
 30
0.0
 10
12.8339896487
 20
8.2475817596
 30
0.0
 10
12.8327839975
 20
8.2750513215
 30
0.0
 10
12.8319232285
 20
8.3030277585
 30
0.0
 10
12.8314091027
 20
8.3314548179
 30
0.0
 10
12.8312426781
 20
8.3602753395
 30
0.0
 10
12.8314243187
 20
8.3894313529
 30
0.0
 10
12.8319536514
 20
8.4188642728
 30
0.0
 10
12.8331247278
 20
8.458498798
 30
0.0
 10
12.8354499908
 20
8.5082973433
 30
0.0
 10
12.8395834008
 20
8.5680548404
 30
0.0
 10
12.8441368603
 20
8.6177038135
 30
0.0
 10
12.8484342556
 20
8.6571293703
 30
0.0
 10
12.8519628414
 20
8.6863629911
 30
0.0
 10
12.8557978075
 20
8.7152762418
 30
0.0
 10
12.8599314557
 20
8.743811024
 30
0.0
 10
12.8643554419
 20
8.7719099469
 30
0.0
 10
12.8690608461
 20
8.7995165144
 30
0.0
 10
12.8740381761
 20
8.8265752211
 30
0.0
 10
12.8792773902
 20
8.8530316719
 30
0.0
 10
12.8847679108
 20
8.8788326935
 30
0.0
 10
12.8904986515
 20
8.9039264426
 30
0.0
 10
12.8964580385
 20
8.9282625111
 30
0.0
 10
12.9026340338
 20
8.9517920286
 30
0.0
 10
12.9090141594
 20
8.9744677659
 30
0.0
 10
12.9155855243
 20
8.996244234
 30
0.0
 10
12.9223348468
 20
9.0170777938
 30
0.0
 10
12.9292484856
 20
9.0369267269
 30
0.0
 10
12.9363124764
 20
9.0557514151
 30
0.0
 10
12.9435125588
 20
9.0735141304
 30
0.0
 10
12.9496962611
 20
9.0875898295
 30
0.0
 10
12.9547092211
 20
9.0982833464
 30
0.0
 10
12.9584419669
 20
9.1059053282
 30
0.0
 10
12.9621978578
 20
9.1132363211
 30
0.0
 10
12.9659749906
 20
9.1202726836
 30
0.0
 10
12.9697714925
 20
9.1270108947
 30
0.0
 10
12.9735854742
 20
9.1334475958
 30
0.0
 10
12.9774150074
 20
9.1395796
 30
0.0
 10
12.9812582423
 20
9.1454038274
 30
0.0
 10
12.9851131943
 20
9.150917411
 30
0.0
 10
12.9889780291
 20
9.1561176042
 30
0.0
 10
12.9928508603
 20
9.1610018873
 30
0.0
 10
12.9967298848
 20
9.1655678834
 30
0.0
 10
13.000613036
 20
9.1698131139
 30
0.0
 10
13.0032570923
 20
9.1724823865
 30
0.0
 10
13.004579848
 20
9.1737600704
 30
0.0
  0
SPLINE
  5
361
100
AcDbEntity
  8
0
100
AcDbSpline
 62
7
  6
CONTINUOUS
 70
0
 71
3
 72
23
 73
19
 74
0
 42
0.0000001
 43
0.0000001
 44
0.0000000001
 40
0.0
 40
0.0
 40
0.0
 40
0.0
 40
0.0614488807
 40
0.1232974294
 40
0.1855193177
 40
0.2480712672
 40
0.3108995318
 40
0.3739401513
 40
0.4371217414
 40
0.5003679843
 40
0.5636003151
 40
0.6267406524
 40
0.6897141172
 40
0.7524516838
 40
0.8148926113
 40
0.8769871451
 40
0.9386966623
 40
1.0
 40
1.0
 40
1.0
 40
1.0
 10
12.0225815937
 20
8.973109775
 30
0.0
 10
12.0190149006
 20
8.973357126
 30
0.0
 10
12.0118779557
 20
8.9742049243
 30
0.0
 10
12.0013163637
 20
8.976507557
 30
0.0
 10
11.9909594905
 20
8.979823069
 30
0.0
 10
11.9809080833
 20
8.9841193388
 30
0.0
 10
11.9712582665
 20
8.9893548319
 30
0.0
 10
11.9621027161
 20
8.9954791316
 30
0.0
 10
11.9535292333
 20
9.002433314
 30
0.0
 10
11.9456200737
 20
9.0101505522
 30
0.0
 10
11.9384511423
 20
9.0185567509
 30
0.0
 10
11.9320912883
 20
9.0275712458
 30
0.0
 10
11.9266016557
 20
9.037107551
 30
0.0
 10
11.9220351023
 20
9.047074206
 30
0.0
 10
11.9184356422
 20
9.057375481
 30
0.0
 10
11.9158381677
 20
9.0679128288
 30
0.0
 10
11.9142678353
 20
9.0785837301
 30
0.0
 10
11.9139149318
 20
9.0857457038
 30
0.0
 10
11.9139149318
 20
9.0893124955
 30
0.0
  0
SPLINE
  5
362
100
AcDbEntity
  8
0
100
AcDbSpline
 62
7
  6
CONTINUOUS
 70
0
 71
3
 72
21
 73
17
 74
0
 42
0.0000001
 43
0.0000001
 44
0.0000000001
 40
0.0
 40
0.0
 40
0.0
 40
0.0
 40
0.1273176366
 40
0.2537999756
 40
0.3167619475
 40
0.3795355041
 40
0.4421314991
 40
0.5045621439
 40
0.5668413432
 40
0.6289845283
 40
0.6910084528
 40
0.7529310935
 40
0.8147714495
 40
0.8765493365
 40
0.9382852194
 40
1.0
 40
1.0
 40
1.0
 40
1.0
 10
10.7791482594
 20
8.9202305601
 30
0.0
 10
10.7791482594
 20
8.9269753144
 30
0.0
 10
10.7797920907
 20
8.9404292537
 30
0.0
 10
10.7822236324
 20
8.9570612297
 30
0.0
 10
10.7851298656
 20
8.9701075609
 30
0.0
 10
10.787780194
 20
8.9797305394
 30
0.0
 10
10.7908981271
 20
8.9891825335
 30
0.0
 10
10.7944765206
 20
8.9984420061
 30
0.0
 10
10.7985070977
 20
9.0074875489
 30
0.0
 10
10.8029806201
 20
9.0162983014
 30
0.0
 10
10.8078867972
 20
9.0248539238
 30
0.0
 10
10.8132142862
 20
9.0331347109
 30
0.0
 10
10.8189508159
 20
9.0411215298
 30
0.0
 10
10.825083258
 20
9.0487959925
 30
0.0
 10
10.8315971821
 20
9.0561401914
 30
0.0
 10
10.8361849816
 20
9.0608057063
 30
0.0
 10
10.8385365053
 20
9.0630771042
 30
0.0
  0
SPLINE
  5
363
100
AcDbEntity
  8
0
100
AcDbSpline
 62
7
  6
CONTINUOUS
 70
0
 71
3
 72
39
 73
35
 74
0
 42
0.0000001
 43
0.0000001
 44
0.0000000001
 40
0.0
 40
0.0
 40
0.0
 40
0.0
 40
0.0314026134
 40
0.06300949
 40
0.0948071102
 40
0.1267734453
 40
0.1588809722
 40
0.1910970226
 40
0.2233851132
 40
0.2557062446
 40
0.2880202663
 40
0.3202872751
 40
0.3524690067
 40
0.384530184
 40
0.4164397927
 40
0.448172249
 40
0.4797084083
 40
0.5110363809
 40
0.5421521201
 40
0.5730597413
 40
0.6037715194
 40
0.6343075569
 40
0.6646951118
 40
0.6949675896
 40
0.7251632184
 40
0.755323478
 40
0.7854913548
 40
0.8157095105
 40
0.8460184691
 40
0.8764549222
 40
0.9070502335
 40
0.9378293335
 40
0.9688091139
 40
1.0
 40
1.0
 40
1.0
 40
1.0
 10
12.0164993511
 20
7.4560437697
 30
0.0
 10
12.0208110868
 20
7.4557447498
 30
0.0
 10
12.0294388623
 20
7.4547198523
 30
0.0
 10
12.0422066533
 20
7.4519362313
 30
0.0
 10
12.0547269633
 20
7.447928148
 30
0.0
 10
12.066878
 20
7.4427344445
 30
0.0
 10
12.0785435462
 20
7.4364052921
 30
0.0
 10
12.0896115867
 20
7.4290016924
 30
0.0
 10
12.0999759857
 20
7.4205948723
 30
0.0
 10
12.1095372928
 20
7.4112656
 30
0.0
 10
12.1182037225
 20
7.4011034282
 30
0.0
 10
12.1258920647
 20
7.3902058971
 30
0.0
 10
12.1325284223
 20
7.3786775606
 30
0.0
 10
12.1380489041
 20
7.3666290101
 30
0.0
 10
12.1424002307
 20
7.354175844
 30
0.0
 10
12.1455403187
 20
7.341437608
 30
0.0
 10
12.1474386254
 20
7.3285366424
 30
0.0
 10
12.1480764538
 20
7.3155969443
 30
0.0
 10
12.147447158
 20
7.3027430105
 30
0.0
 10
12.1455563222
 20
7.2900986558
 30
0.0
 10
12.142421674
 20
7.2777858252
 30
0.0
 10
12.1380729633
 20
7.2659234265
 30
0.0
 10
12.1325517292
 20
7.2546261719
 30
0.0
 10
12.1259110134
 20
7.2440033957
 30
0.0
 10
12.1182148003
 20
7.2341579712
 30
0.0
 10
12.1095374091
 20
7.2251852662
 30
0.0
 10
12.0999627668
 20
7.2171721683
 30
0.0
 10
12.0895836057
 20
7.2101961325
 30
0.0
 10
12.078500464
 20
7.2043244562
 30
0.0
 10
12.0668206142
 20
7.1996136375
 30
0.0
 10
12.0546571459
 20
7.1961088137
 30
0.0
 10
12.0421272418
 20
7.1938434181
 30
0.0
 10
12.0293533499
 20
7.1928385719
 30
0.0
 10
12.0207820156
 20
7.1930149256
 30
0.0
 10
12.0164993511
 20
7.1933119294
 30
0.0
  0
SPLINE
  5
364
100
AcDbEntity
  8
0
100
AcDbSpline
 62
7
  6
CONTINUOUS
 70
0
 71
3
 72
15
 73
11
 74
0
 42
0.0000001
 43
0.0000001
 44
0.0000000001
 40
0.0
 40
0.0
 40
0.0
 40
0.0
 40
0.1416105651
 40
0.2778697147
 40
0.4090187531
 40
0.5353474323
 40
0.6571978491
 40
0.7749579952
 40
0.8890638763
 40
1.0
 40
1.0
 40
1.0
 40
1.0
 10
10.7274096126
 20
10.7366214619
 30
0.0
 10
10.7261938358
 20
10.7354471116
 30
0.0
 10
10.7238562674
 20
10.7330922597
 30
0.0
 10
10.7205795182
 20
10.7294705482
 30
0.0
 10
10.7176031404
 20
10.725830556
 30
0.0
 10
10.7149288205
 20
10.7221739582
 30
0.0
 10
10.7125578389
 20
10.718502315
 30
0.0
 10
10.7104914913
 20
10.7148169849
 30
0.0
 10
10.7087310016
 20
10.711119866
 30
0.0
 10
10.7077495366
 20
10.7086163532
 30
0.0
 10
10.7073131055
 20
10.7073661561
 30
0.0
  0
SPLINE
  5
365
100
AcDbEntity
  8
0
100
AcDbSpline
 62
7
  6
CONTINUOUS
 70
0
 71
3
 72
83
 73
79
 74
0
 42
0.0000001
 43
0.0000001
 44
0.0000000001
 40
0.0
 40
0.0
 40
0.0
 40
0.0
 40
0.0038990711
 40
0.0079536
 40
0.0121674496
 40
0.0165439335
 40
0.0210858865
 40
0.0257955801
 40
0.0306746324
 40
0.0357242178
 40
0.040945082
 40
0.0463375909
 40
0.0519018022
 40
0.0576374012
 40
0.0696197808
 40
0.0822776483
 40
0.0955997797
 40
0.1095718595
 40
0.1241768694
 40
0.1393953881
 40
0.1552058538
 40
0.1715847835
 40
0.1885069537
 40
0.205945557
 40
0.2238723336
 40
0.2422577024
 40
0.2610708843
 40
0.2802800098
 40
0.2998522213
 40
0.3197537658
 40
0.3399500919
 40
0.3604059483
 40
0.3810854732
 40
0.4019522824
 40
0.4440994259
 40
0.4865498717
 40
0.5290026144
 40
0.5711566227
 40
0.5920285618
 40
0.6127143342
 40
0.6331775367
 40
0.6533822902
 40
0.673293326
 40
0.6928760741
 40
0.7120967548
 40
0.7309224744
 40
0.7493213321
 40
0.7672625179
 40
0.7847164181
 40
0.8016547303
 40
0.8180505906
 40
0.8338787246
 40
0.849115599
 40
0.8637395971
 40
0.8777312296
 40
0.8910733886
 40
0.9037516692
 40
0.9157547517
 40
0.9215007886
 40
0.9270754428
 40
0.9324784238
 40
0.9377097412
 40
0.9427697287
 40
0.9476591439
 40
0.9523791138
 40
0.9569312757
 40
0.961317774
 40
0.9655413239
 40
0.9696053367
 40
0.9735139118
 40
0.9772720141
 40
0.9808855123
 40
0.9843612906
 40
0.9877073922
 40
0.9909330507
 40
0.9940488477
 40
0.9970667217
 40
1.0
 40
1.0
 40
1.0
 40
1.0
 10
10.7274096126
 20
10.7366214619
 30
0.0
 10
10.7286939611
 20
10.7378620474
 30
0.0
 10
10.7313703255
 20
10.7403347705
 30
0.0
 10
10.7356129811
 20
10.7439493926
 30
0.0
 10
10.7401588227
 20
10.7475390423
 30
0.0
 10
10.7450055026
 20
10.7511018732
 30
0.0
 10
10.7501507663
 20
10.7546363479
 30
0.0
 10
10.7555922745
 20
10.7581408226
 30
0.0
 10
10.7613274636
 20
10.7616137506
 30
0.0
 10
10.7673536566
 20
10.7650534495
 30
0.0
 10
10.773668009
 20
10.7684583133
 30
0.0
 10
10.7802675389
 20
10.7718267654
 30
0.0
 10
10.78714917
 20
10.7751571987
 30
0.0
 10
10.7968381233
 20
10.7796100325
 30
0.0
 10
10.8096419857
 20
10.7850575867
 30
0.0
 10
10.8258610446
 20
10.7913266872
 30
0.0
 10
10.8431205819
 20
10.7974077246
 30
0.0
 10
10.8613879637
 20
10.8032891123
 30
0.0
 10
10.8806288453
 20
10.8089596275
 30
0.0
 10
10.9008068757
 20
10.8144084382
 30
0.0
 10
10.9218838924
 20
10.8196251296
 30
0.0
 10
10.9438199811
 20
10.8245997236
 30
0.0
 10
10.9665735692
 20
10.8293227032
 30
0.0
 10
10.9901015051
 20
10.8337850293
 30
0.0
 10
11.01435914
 20
10.8379781691
 30
0.0
 10
11.0393004192
 20
10.8418941088
 30
0.0
 10
11.0648779785
 20
10.8455253626
 30
0.0
 10
11.091043237
 20
10.8488649891
 30
0.0
 10
11.1177464892
 20
10.8519066021
 30
0.0
 10
11.1449369956
 20
10.8546443894
 30
0.0
 10
11.1725630867
 20
10.8570731278
 30
0.0
 10
11.2005722473
 20
10.8591881714
 30
0.0
 10
11.2289112886
 20
10.8609855098
 30
0.0
 10
11.2671904094
 20
10.8629601208
 30
0.0
 10
11.3154667313
 20
10.8646066338
 30
0.0
 10
11.3736532869
 20
10.8652715363
 30
0.0
 10
11.4318432105
 20
10.8646265751
 30
0.0
 10
11.4801266412
 20
10.8629966362
 30
0.0
 10
11.5184148057
 20
10.8610352351
 30
0.0
 10
11.5467630544
 20
10.8592476375
 30
0.0
 10
11.5747830526
 20
10.8571422147
 30
0.0
 10
11.60242159
 20
10.8547229631
 30
0.0
 10
11.629626131
 20
10.8519945131
 30
0.0
 10
11.6563449824
 20
10.8489620748
 30
0.0
 10
11.6825273728
 20
10.8456314406
 30
0.0
 10
11.7081235588
 20
10.8420089702
 30
0.0
 10
11.7330849227
 20
10.8381015915
 30
0.0
 10
11.7573640667
 20
10.833916777
 30
0.0
 10
11.7809148999
 20
10.8294625287
 30
0.0
 10
11.8036927274
 20
10.8247473643
 30
0.0
 10
11.8256543429
 20
10.8197802971
 30
0.0
 10
11.8467581224
 20
10.8145708322
 30
0.0
 10
11.8669641057
 20
10.8091289373
 30
0.0
 10
11.8862340829
 20
10.8034650177
 30
0.0
 10
11.9045316454
 20
10.7975898967
 30
0.0
 10
11.9218223772
 20
10.7915147717
 30
0.0
 10
11.9380735827
 20
10.7852512277
 30
0.0
 10
11.9509049987
 20
10.7798081939
 30
0.0
 10
11.9606165064
 20
10.7753588567
 30
0.0
 10
11.9675152132
 20
10.772030766
 30
0.0
 10
11.9741320247
 20
10.7686645952
 30
0.0
 10
11.9804638396
 20
10.7652619099
 30
0.0
 10
11.9865076572
 20
10.7618242732
 30
0.0
 10
11.9922606672
 20
10.7583533565
 30
0.0
 10
11.997720144
 20
10.7548507174
 30
0.0
 10
12.0028835472
 20
10.7513180152
 30
0.0
 10
12.0077484669
 20
10.7477568802
 30
0.0
 10
12.0123125995
 20
10.7441688943
 30
0.0
 10
12.0165738551
 20
10.7405557468
 30
0.0
 10
12.0205301863
 20
10.7369189838
 30
0.0
 10
12.0241797542
 20
10.733260253
 30
0.0
 10
12.027520816
 20
10.7295811427
 30
0.0
 10
12.0305516951
 20
10.7258831981
 30
0.0
 10
12.0332709352
 20
10.722168051
 30
0.0
 10
12.0356770079
 20
10.7184372388
 30
0.0
 10
12.0377686366
 20
10.7146923227
 30
0.0
 10
12.0395444289
 20
10.7109352469
 30
0.0
 10
12.040529515
 20
10.7083908511
 30
0.0
 10
12.0409659847
 20
10.7071203747
 30
0.0
  0
SPLINE
  5
366
100
AcDbEntity
  8
0
100
AcDbSpline
 62
7
  6
CONTINUOUS
 70
0
 71
3
 72
82
 73
78
 74
0
 42
0.0000001
 43
0.0000001
 44
0.0000000001
 40
0.0
 40
0.0
 40
0.0
 40
0.0
 40
0.0040448529
 40
0.0082603888
 40
0.0126510012
 40
0.0172203915
 40
0.0219716858
 40
0.0269073693
 40
0.0320291528
 40
0.0373381926
 40
0.0428351729
 40
0.0485202967
 40
0.0604534148
 40
0.0731326977
 40
0.0865476644
 40
0.1006837131
 40
0.1155226803
 40
0.1310432739
 40
0.1472214583
 40
0.1640307566
 40
0.181442495
 40
0.1994259983
 40
0.2179487789
 40
0.2369767215
 40
0.2564742328
 40
0.2764043768
 40
0.2967289966
 40
0.3174088578
 40
0.338403774
 40
0.3596727225
 40
0.3811739532
 40
0.4247025304
 40
0.4686462878
 40
0.5126568792
 40
0.5563852818
 40
0.5994853537
 40
0.6206937162
 40
0.6416183531
 40
0.6622184176
 40
0.6824539375
 40
0.7022859296
 40
0.7216765161
 40
0.7405890511
 40
0.7589882681
 40
0.7768404309
 40
0.7941134728
 40
0.8107771642
 40
0.8268033079
 40
0.8421659826
 40
0.8568417837
 40
0.8708101231
 40
0.884053608
 40
0.8965585377
 40
0.9083155216
 40
0.9139123426
 40
0.9193210404
 40
0.9245420624
 40
0.9295763293
 40
0.934425239
 40
0.9390908471
 40
0.9435758133
 40
0.9478835617
 40
0.9520183826
 40
0.9559854592
 40
0.9597911062
 40
0.9634428001
 40
0.9669493498
 40
0.9703210665
 40
0.9767050786
 40
0.9797502036
 40
0.9827180476
 40
0.9856270511
 40
0.9884968943
 40
0.9913481644
 40
0.994201885
 40
0.9970790259
 40
1.0
 40
1.0
 40
1.0
 40
1.0
 10
10.9176970116
 20
10.7234249859
 30
0.0
 10
10.9186566468
 20
10.7243519223
 30
0.0
 10
10.9206611286
 20
10.7261990588
 30
0.0
 10
10.9238476321
 20
10.7288951414
 30
0.0
 10
10.9272732043
 20
10.7315713585
 30
0.0
 10
10.9309358727
 20
10.7342261497
 30
0.0
 10
10.9348337181
 20
10.7368582496
 30
0.0
 10
10.9389647712
 20
10.7394662856
 30
0.0
 10
10.9433268644
 20
10.742048974
 30
0.0
 10
10.9479177124
 20
10.7446049342
 30
0.0
 10
10.9527349144
 20
10.7471328212
 30
0.0
 10
10.9595670221
 20
10.750518965
 30
0.0
 10
10.9686652491
 20
10.7546612478
 30
0.0
 10
10.9802728146
 20
10.7594221871
 30
0.0
 10
10.9927158453
 20
10.7640403526
 30
0.0
 10
11.0059680944
 20
10.7685059221
 30
0.0
 10
11.0200017884
 20
10.7728093724
 30
0.0
 10
11.0347873256
 20
10.7769415165
 30
0.0
 10
11.0502934747
 20
10.7808935176
 30
0.0
 10
11.0664874298
 20
10.7846569165
 30
0.0
 10
11.0833348945
 20
10.7882236499
 30
0.0
 10
11.10080015
 20
10.791586083
 30
0.0
 10
11.1188461391
 20
10.7947370258
 30
0.0
 10
11.1374345579
 20
10.7976697359
 30
0.0
 10
11.1565259414
 20
10.8003779369
 30
0.0
 10
11.1760797437
 20
10.8028558296
 30
0.0
 10
11.1960544218
 20
10.8050981219
 30
0.0
 10
11.2164075347
 20
10.8071000247
 30
0.0
 10
11.2370958233
 20
10.8088572515
 30
0.0
 10
11.2580753591
 20
10.8103660679
 30
0.0
 10
11.2864921158
 20
10.812049005
 30
0.0
 10
11.3224118129
 20
10.8135052195
 30
0.0
 10
11.365780007
 20
10.8142191407
 30
0.0
 10
11.4092189964
 20
10.8139002148
 30
0.0
 10
11.4523596533
 20
10.81255121
 30
0.0
 10
11.4879447868
 20
10.8105680477
 30
0.0
 10
11.5159812343
 20
10.8084670463
 30
0.0
 10
11.5365948136
 20
10.8066520243
 30
0.0
 10
11.5568629598
 20
10.8045933043
 30
0.0
 10
11.576742641
 20
10.8022952632
 30
0.0
 10
11.5961916136
 20
10.7997628248
 30
0.0
 10
11.6151685643
 20
10.7970014024
 30
0.0
 10
11.6336331855
 20
10.7940168968
 30
0.0
 10
11.6515462737
 20
10.7908156918
 30
0.0
 10
11.6688698164
 20
10.7874046449
 30
0.0
 10
11.68556707
 20
10.7837910578
 30
0.0
 10
11.701602637
 20
10.7799826644
 30
0.0
 10
11.7169425542
 20
10.7759876088
 30
0.0
 10
11.7315543792
 20
10.7718144481
 30
0.0
 10
11.7454072731
 20
10.7674721099
 30
0.0
 10
11.7584720383
 20
10.7629698708
 30
0.0
 10
11.7707213088
 20
10.7583173055
 30
0.0
 10
11.782129261
 20
10.7535243052
 30
0.0
 10
11.791056191
 20
10.7493558407
 30
0.0
 10
11.7977481824
 20
10.7459498815
 30
0.0
 10
11.8024594436
 20
10.7434086367
 30
0.0
 10
11.806943209
 20
10.7408399695
 30
0.0
 10
11.8111971494
 20
10.7382452199
 30
0.0
 10
11.8152190062
 20
10.7356256857
 30
0.0
 10
11.8190067099
 20
10.7329827773
 30
0.0
 10
11.8225582669
 20
10.7303178121
 30
0.0
 10
11.8258718146
 20
10.7276321316
 30
0.0
 10
11.8289456578
 20
10.7249271228
 30
0.0
 10
11.8317781245
 20
10.7222040603
 30
0.0
 10
11.8343677685
 20
10.7194642863
 30
0.0
 10
11.8367131207
 20
10.7167092062
 30
0.0
 10
11.8388130271
 20
10.7139396874
 30
0.0
 10
11.8412391877
 20
10.7102974595
 30
0.0
 10
11.8432351144
 20
10.7065572192
 30
0.0
 10
11.8447326523
 20
10.7027482706
 30
0.0
 10
11.8455873616
 20
10.6999285943
 30
0.0
 10
11.8461901075
 20
10.6971035517
 30
0.0
 10
11.8465402346
 20
10.6942747716
 30
0.0
 10
11.8466373443
 20
10.6914442569
 30
0.0
 10
11.8464813581
 20
10.6886139185
 30
0.0
 10
11.8460724209
 20
10.6857860008
 30
0.0
 10
11.8456356603
 20
10.6839212364
 30
0.0
 10
11.8453774868
 20
10.6829929773
 30
0.0
  0
SPLINE
  5
367
100
AcDbEntity
  8
0
100
AcDbSpline
 62
7
  6
CONTINUOUS
 70
0
 71
3
 72
56
 73
52
 74
0
 42
0.0000001
 43
0.0000001
 44
0.0000000001
 40
0.0
 40
0.0
 40
0.0
 40
0.0
 40
0.008909173
 40
0.0183537611
 40
0.0283367583
 40
0.0388580034
 40
0.0499145584
 40
0.0615011897
 40
0.0736105419
 40
0.0862335019
 40
0.0993593573
 40
0.1129758996
 40
0.1270696886
 40
0.1416260414
 40
0.1566291994
 40
0.1720624418
 40
0.1879080625
 40
0.204147561
 40
0.2207616266
 40
0.237730205
 40
0.272646871
 40
0.3087254437
 40
0.3457847622
 40
0.3836368152
 40
0.4220881546
 40
0.4609412715
 40
0.4999959681
 40
0.5390507059
 40
0.5779039434
 40
0.6163554814
 40
0.6542078172
 40
0.691267499
 40
0.7273465035
 40
0.7622636635
 40
0.7958461649
 40
0.8120859802
 40
0.8279319289
 40
0.8433654972
 40
0.858369027
 40
0.8729257339
 40
0.8870199014
 40
0.9006368461
 40
0.9137630832
 40
0.9263864703
 40
0.9384962344
 40
0.9500832801
 40
0.9611402835
 40
0.9716619455
 40
0.9816453892
 40
0.9910903929
 40
1.0
 40
1.0
 40
1.0
 40
1.0
 10
10.9617475764
 20
10.6320633961
 30
0.0
 10
10.9638548774
 20
10.6334272838
 30
0.0
 10
10.968267593
 20
10.6361276403
 30
0.0
 10
10.9752541107
 20
10.6399959834
 30
0.0
 10
10.9827910092
 20
10.6437945742
 30
0.0
 10
10.9908678784
 20
10.6475181517
 30
0.0
 10
10.9994738379
 20
10.6511617147
 30
0.0
 10
11.0085971669
 20
10.6547201924
 30
0.0
 10
11.0182253898
 20
10.6581887235
 30
0.0
 10
11.0283453163
 20
10.6615624949
 30
0.0
 10
11.0389430545
 20
10.6648368097
 30
0.0
 10
11.0500040213
 20
10.6680071653
 30
0.0
 10
11.0615129913
 20
10.6710691181
 30
0.0
 10
11.0734540975
 20
10.6740184351
 30
0.0
 10
11.0858108677
 20
10.6768510273
 30
0.0
 10
11.0985662507
 20
10.6795629248
 30
0.0
 10
11.1117026313
 20
10.6821504002
 30
0.0
 10
11.1252018612
 20
10.6846098266
 30
0.0
 10
11.1390453068
 20
10.6869378126
 30
0.0
 10
11.1581182883
 20
10.6898902566
 30
0.0
 10
11.1826803458
 20
10.6932181337
 30
0.0
 10
11.2129383349
 20
10.6966042578
 30
0.0
 10
11.2440868695
 20
10.6994009671
 30
0.0
 10
11.2759537772
 20
10.7015926308
 30
0.0
 10
11.3083630581
 20
10.7031669557
 30
0.0
 10
11.3411356182
 20
10.704115139
 30
0.0
 10
11.3740903466
 20
10.7044318775
 30
0.0
 10
11.4070451113
 20
10.7041153986
 30
0.0
 10
11.4398177809
 20
10.7031674659
 30
0.0
 10
11.4722272408
 20
10.7015933847
 30
0.0
 10
11.504094414
 20
10.6994019732
 30
0.0
 10
11.5352432397
 20
10.6966055005
 30
0.0
 10
11.5655017488
 20
10.6932196452
 30
0.0
 10
11.5947027371
 20
10.689263342
 30
0.0
 10
11.6182776303
 20
10.6854685478
 30
0.0
 10
11.6364806087
 20
10.68215245
 30
0.0
 10
11.6496172996
 20
10.6795650621
 30
0.0
 10
11.6623729928
 20
10.6768532524
 30
0.0
 10
11.6747300944
 20
10.6740207752
 30
0.0
 10
11.6866715403
 20
10.6710715367
 30
0.0
 10
11.6981808648
 20
10.6680096731
 30
0.0
 10
11.7092422009
 20
10.664839417
 30
0.0
 10
11.7198403147
 20
10.6615651624
 30
0.0
 10
11.7299606362
 20
10.6581914889
 30
0.0
 10
11.7395892592
 20
10.6547230257
 30
0.0
 10
11.748712996
 20
10.6511646066
 30
0.0
 10
11.7573193859
 20
10.6475211356
 30
0.0
 10
11.7653966788
 20
10.6437975942
 30
0.0
 10
11.7729340158
 20
10.6399990745
 30
0.0
 10
11.7799209875
 20
10.6361307971
 30
0.0
 10
11.7843339999
 20
10.6334304674
 30
0.0
 10
11.7864414542
 20
10.6320665913
 30
0.0
  0
SPLINE
  5
368
100
AcDbEntity
  8
0
100
AcDbSpline
 62
7
  6
CONTINUOUS
 70
0
 71
3
 72
45
 73
41
 74
0
 42
0.0000001
 43
0.0000001
 44
0.0000000001
 40
0.0
 40
0.0
 40
0.0
 40
0.0
 40
0.0109065704
 40
0.0222213483
 40
0.0339384264
 40
0.0460509072
 40
0.0585511826
 40
0.0714308077
 40
0.0982904817
 40
0.1265507582
 40
0.156122767
 40
0.18690994
 40
0.2188089614
 40
0.2517106055
 40
0.285500498
 40
0.3200598258
 40
0.3552660125
 40
0.3909933697
 40
0.4271137336
 40
0.4634970909
 40
0.5000121987
 40
0.5365272001
 40
0.5729102389
 40
0.6090300735
 40
0.6447566932
 40
0.6799619375
 40
0.7145201228
 40
0.748308678
 40
0.7812087967
 40
0.8131061124
 40
0.8438914082
 40
0.8734613786
 40
0.901719467
 40
0.9285768165
 40
0.9414552557
 40
0.9539542718
 40
0.9660655147
 40
0.9777812822
 40
0.9890947805
 40
1.0
 40
1.0
 40
1.0
 40
1.0
 10
11.0359471731
 20
10.6064303453
 30
0.0
 10
11.0382646071
 20
10.607355475
 30
0.0
 10
11.0430088589
 20
10.6091840427
 30
0.0
 10
11.0503134136
 20
10.6118186625
 30
0.0
 10
11.0579311278
 20
10.6143933237
 30
0.0
 10
11.0658546037
 20
10.6169055592
 30
0.0
 10
11.0740762377
 20
10.619352913
 30
0.0
 10
11.0855868626
 20
10.6225714583
 30
0.0
 10
11.1006676803
 20
10.6264028361
 30
0.0
 10
11.1195763704
 20
10.6306441801
 30
0.0
 10
11.1394687434
 20
10.6345744835
 30
0.0
 10
11.1602679814
 20
10.6381783892
 30
0.0
 10
11.1818939015
 20
10.6414417797
 30
0.0
 10
11.2042629945
 20
10.6443518908
 30
0.0
 10
11.2272888484
 20
10.6468973435
 30
0.0
 10
11.2508824708
 20
10.6490681908
 30
0.0
 10
11.2749526488
 20
10.6508559532
 30
0.0
 10
11.2994063065
 20
10.6522536503
 30
0.0
 10
11.3241488709
 20
10.6532558263
 30
0.0
 10
11.3490846418
 20
10.6538585701
 30
0.0
 10
11.3741171654
 20
10.6540595299
 30
0.0
 10
11.399149611
 20
10.6538579217
 30
0.0
 10
11.4240851479
 20
10.6532545319
 30
0.0
 10
11.4488273234
 20
10.652251715
 30
0.0
 10
11.4732804387
 20
10.6508533846
 30
0.0
 10
11.497349923
 20
10.6490649989
 30
0.0
 10
11.5209427031
 20
10.6468935408
 30
0.0
 10
11.5439675693
 20
10.6443474921
 30
0.0
 10
11.5663355332
 20
10.6414368023
 30
0.0
 10
11.5879601872
 20
10.6381728525
 30
0.0
 10
11.6087580272
 20
10.6345684096
 30
0.0
 10
11.6286488754
 20
10.6306375912
 30
0.0
 10
11.6475559217
 20
10.6263957635
 30
0.0
 10
11.66263529
 20
10.6225639745
 30
0.0
 10
11.6741447033
 20
10.619345147
 30
0.0
 10
11.6823653873
 20
10.6168975555
 30
0.0
 10
11.6902878932
 20
10.6143851423
 30
0.0
 10
11.6979046067
 20
10.6118102552
 30
0.0
 10
11.705208145
 20
10.6091754746
 30
0.0
 10
11.7099516973
 20
10.6073467645
 30
0.0
 10
11.7122687729
 20
10.6064215706
 30
0.0
  0
SPLINE
  5
369
100
AcDbEntity
  8
0
100
AcDbSpline
 62
7
  6
CONTINUOUS
 70
0
 71
3
 72
20
 73
16
 74
0
 42
0.0000001
 43
0.0000001
 44
0.0000000001
 40
0.0
 40
0.0
 40
0.0
 40
0.0
 40
0.1505005022
 40
0.2902383493
 40
0.4204794849
 40
0.4825760308
 40
0.5429535645
 40
0.6018792827
 40
0.6596437318
 40
0.7165576947
 40
0.7729472187
 40
0.829148528
 40
0.8855014043
 40
0.9423427572
 40
1.0
 40
1.0
 40
1.0
 40
1.0
 10
10.9176970116
 20
10.7234249859
 30
0.0
 10
10.9160597034
 20
10.7218434675
 30
0.0
 10
10.9130216326
 20
10.7186649288
 30
0.0
 10
10.9090838771
 20
10.7136572468
 30
0.0
 10
10.9064322187
 20
10.7093754131
 30
0.0
 10
10.9047447495
 20
10.7059428378
 30
0.0
 10
10.9037034077
 20
10.7034018957
 30
0.0
 10
10.9028671802
 20
10.7008550354
 30
0.0
 10
10.9022366416
 20
10.6983033794
 30
0.0
 10
10.9018122203
 20
10.6957482282
 30
0.0
 10
10.9015943465
 20
10.6931908929
 30
0.0
 10
10.9015831827
 20
10.6906327888
 30
0.0
 10
10.9017787005
 20
10.6880752717
 30
0.0
 10
10.9021807713
 20
10.6855199281
 30
0.0
 10
10.9025827823
 20
10.6838333338
 30
0.0
 10
10.9028164626
 20
10.6829931297
 30
0.0
  0
SPLINE
  5
36A
100
AcDbEntity
  8
0
100
AcDbSpline
 62
7
  6
CONTINUOUS
 70
0
 71
3
 72
19
 73
15
 74
0
 42
0.0000001
 43
0.0000001
 44
0.0000000001
 40
0.0
 40
0.0
 40
0.0
 40
0.0
 40
0.1504611406
 40
0.2916985742
 40
0.4244193292
 40
0.4878835935
 40
0.5495802133
 40
0.6682271463
 40
0.7255606136
 40
0.7817999183
 40
0.8371467056
 40
0.8918136429
 40
0.9460222308
 40
1.0
 40
1.0
 40
1.0
 40
1.0
 10
13.004579848
 20
7.8803853124
 30
0.0
 10
13.002687114
 20
7.8785570717
 30
0.0
 10
12.9989042597
 20
7.8751267751
 30
0.0
 10
12.9930468692
 20
7.8705555172
 30
0.0
 10
12.9880993908
 20
7.8673224599
 30
0.0
 10
12.9841540844
 20
7.8651331261
 30
0.0
 10
12.9803251754
 20
7.8632535232
 30
0.0
 10
12.976451431
 20
7.8617171253
 30
0.0
 10
12.9725558974
 20
7.8605609651
 30
0.0
 10
12.9696756462
 20
7.859894539
 30
0.0
 10
12.96680498
 20
7.859419549
 30
0.0
 10
12.9639446622
 20
7.8591362023
 30
0.0
 10
12.9610958463
 20
7.8590446163
 30
0.0
 10
12.9592031735
 20
7.8591115448
 30
0.0
 10
12.9582613798
 20
7.8591768553
 30
0.0
  0
SPLINE
  5
36B
100
AcDbEntity
  8
0
100
AcDbSpline
 62
7
  6
CONTINUOUS
 70
0
 71
3
 72
39
 73
35
 74
0
 42
0.0000001
 43
0.0000001
 44
0.0000000001
 40
0.0
 40
0.0
 40
0.0
 40
0.0
 40
0.0314026134
 40
0.06300949
 40
0.0948071102
 40
0.1267734453
 40
0.1588809722
 40
0.1910970226
 40
0.2233851132
 40
0.2557062446
 40
0.2880202663
 40
0.3202872751
 40
0.3524690067
 40
0.384530184
 40
0.4164397927
 40
0.448172249
 40
0.4797084083
 40
0.5110363809
 40
0.5421521201
 40
0.5730597413
 40
0.6037715194
 40
0.6343075569
 40
0.6646951118
 40
0.6949675896
 40
0.7251632184
 40
0.755323478
 40
0.7854913548
 40
0.8157095105
 40
0.8460184691
 40
0.8764549222
 40
0.9070502335
 40
0.9378293335
 40
0.9688091139
 40
1.0
 40
1.0
 40
1.0
 40
1.0
 10
12.0164993511
 20
7.1933119294
 30
0.0
 10
12.0121876154
 20
7.1936109493
 30
0.0
 10
12.00355984
 20
7.1946358468
 30
0.0
 10
11.990792049
 20
7.1974194677
 30
0.0
 10
11.978271739
 20
7.2014275511
 30
0.0
 10
11.9661207023
 20
7.2066212545
 30
0.0
 10
11.954455156
 20
7.212950407
 30
0.0
 10
11.9433871156
 20
7.2203540067
 30
0.0
 10
11.9330227165
 20
7.2287608268
 30
0.0
 10
11.9234614095
 20
7.2380900991
 30
0.0
 10
11.9147949798
 20
7.2482522709
 30
0.0
 10
11.9071066375
 20
7.259149802
 30
0.0
 10
11.90047028
 20
7.2706781384
 30
0.0
 10
11.8949497982
 20
7.2827266889
 30
0.0
 10
11.8905984716
 20
7.2951798551
 30
0.0
 10
11.8874583836
 20
7.3079180911
 30
0.0
 10
11.8855600769
 20
7.3208190566
 30
0.0
 10
11.8849222485
 20
7.3337587548
 30
0.0
 10
11.8855515443
 20
7.3466126885
 30
0.0
 10
11.8874423801
 20
7.3592570432
 30
0.0
 10
11.8905770283
 20
7.3715698738
 30
0.0
 10
11.894925739
 20
7.3834322726
 30
0.0
 10
11.9004469731
 20
7.3947295272
 30
0.0
 10
11.9070876889
 20
7.4053523034
 30
0.0
 10
11.914783902
 20
7.4151977278
 30
0.0
 10
11.9234612932
 20
7.4241704328
 30
0.0
 10
11.9330359355
 20
7.4321835307
 30
0.0
 10
11.9434150966
 20
7.4391595666
 30
0.0
 10
11.9544982383
 20
7.4450312429
 30
0.0
 10
11.9661780881
 20
7.4497420616
 30
0.0
 10
11.9783415564
 20
7.4532468854
 30
0.0
 10
11.9908714604
 20
7.455512281
 30
0.0
 10
12.0036453524
 20
7.4565171271
 30
0.0
 10
12.0122166867
 20
7.4563407735
 30
0.0
 10
12.0164993511
 20
7.4560437697
 30
0.0
  0
SPLINE
  5
36C
100
AcDbEntity
  8
0
100
AcDbSpline
 62
7
  6
CONTINUOUS
 70
0
 71
3
 72
39
 73
35
 74
0
 42
0.0000001
 43
0.0000001
 44
0.0000000001
 40
0.0
 40
0.0
 40
0.0
 40
0.0
 40
0.0314026134
 40
0.06300949
 40
0.0948071102
 40
0.1267734453
 40
0.1588809722
 40
0.1910970226
 40
0.2233851132
 40
0.2557062446
 40
0.2880202663
 40
0.3202872751
 40
0.3524690067
 40
0.384530184
 40
0.4164397927
 40
0.448172249
 40
0.4797084083
 40
0.5110363809
 40
0.5421521201
 40
0.5730597413
 40
0.6037715194
 40
0.6343075569
 40
0.6646951118
 40
0.6949675896
 40
0.7251632184
 40
0.755323478
 40
0.7854913548
 40
0.8157095105
 40
0.8460184691
 40
0.8764549222
 40
0.9070502335
 40
0.9378293335
 40
0.9688091139
 40
1.0
 40
1.0
 40
1.0
 40
1.0
 10
9.9648727045
 20
7.5983245609
 30
0.0
 10
9.9691844402
 20
7.598025541
 30
0.0
 10
9.9778122157
 20
7.5970006435
 30
0.0
 10
9.9905800067
 20
7.5942170225
 30
0.0
 10
10.0031003167
 20
7.5902089392
 30
0.0
 10
10.0152513534
 20
7.5850152357
 30
0.0
 10
10.0269168996
 20
7.5786860833
 30
0.0
 10
10.0379849401
 20
7.5712824836
 30
0.0
 10
10.0483493391
 20
7.5628756635
 30
0.0
 10
10.0579106461
 20
7.5535463912
 30
0.0
 10
10.0665770759
 20
7.5433842194
 30
0.0
 10
10.0742654181
 20
7.5324866883
 30
0.0
 10
10.0809017757
 20
7.5209583518
 30
0.0
 10
10.0864222575
 20
7.5089098013
 30
0.0
 10
10.090773584
 20
7.4964566352
 30
0.0
 10
10.0939136721
 20
7.4837183992
 30
0.0
 10
10.0958119788
 20
7.4708174336
 30
0.0
 10
10.0964498072
 20
7.4578777355
 30
0.0
 10
10.0958205114
 20
7.4450238017
 30
0.0
 10
10.0939296756
 20
7.432379447
 30
0.0
 10
10.0907950273
 20
7.4200666164
 30
0.0
 10
10.0864463167
 20
7.4082042177
 30
0.0
 10
10.0809250826
 20
7.3969069631
 30
0.0
 10
10.0742843668
 20
7.3862841869
 30
0.0
 10
10.0665881537
 20
7.3764387624
 30
0.0
 10
10.0579107625
 20
7.3674660574
 30
0.0
 10
10.0483361202
 20
7.3594529595
 30
0.0
 10
10.0379569591
 20
7.3524769236
 30
0.0
 10
10.0268738174
 20
7.3466052474
 30
0.0
 10
10.0151939676
 20
7.3418944287
 30
0.0
 10
10.0030304993
 20
7.3383896049
 30
0.0
 10
9.9905005952
 20
7.3361242093
 30
0.0
 10
9.9777267033
 20
7.3351193631
 30
0.0
 10
9.969155369
 20
7.3352957168
 30
0.0
 10
9.9648727045
 20
7.3355927206
 30
0.0
  0
SPLINE
  5
36D
100
AcDbEntity
  8
0
100
AcDbSpline
 62
7
  6
CONTINUOUS
 70
0
 71
3
 72
85
 73
81
 74
0
 42
0.0000001
 43
0.0000001
 44
0.0000000001
 40
0.0
 40
0.0
 40
0.0
 40
0.0
 40
0.0041938785
 40
0.0085762526
 40
0.0131521725
 40
0.0179258276
 40
0.0229006911
 40
0.028079459
 40
0.0334638936
 40
0.0390551032
 40
0.0448536297
 40
0.0508594469
 40
0.0634901079
 40
0.076939214
 40
0.0911923552
 40
0.106230319
 40
0.122029753
 40
0.1385636726
 40
0.1558019084
 40
0.1737114658
 40
0.1922568156
 40
0.2114001318
 40
0.2311015106
 40
0.2513191976
 40
0.2720097753
 40
0.2931283342
 40
0.3146286272
 40
0.3364632445
 40
0.3585837793
 40
0.4034839214
 40
0.4489285174
 40
0.4945096695
 40
0.5398178882
 40
0.5844468655
 40
0.6063822147
 40
0.6279992666
 40
0.64925027
 40
0.6700885783
 40
0.6904688071
 40
0.7103470128
 40
0.7296808753
 40
0.7484298652
 40
0.7665554374
 40
0.7840212502
 40
0.8007934351
 40
0.8168408612
 40
0.8321354498
 40
0.8466525686
 40
0.8603715394
 40
0.8732762803
 40
0.8853560896
 40
0.8910854755
 40
0.8966076785
 40
0.9019233923
 40
0.9070340056
 40
0.911941519
 40
0.9166487657
 40
0.9211594738
 40
0.9254783272
 40
0.9296112421
 40
0.9335653764
 40
0.9373493905
 40
0.9409736255
 40
0.9444501994
 40
0.9477932807
 40
0.9510190948
 40
0.954145996
 40
0.9571943966
 40
0.96018648
 40
0.9631458579
 40
0.966096994
 40
0.9690645833
 40
0.9720728733
 40
0.9751450686
 40
0.9783027827
 40
0.9849468936
 40
0.9884712202
 40
0.992147635
 40
0.9959874677
 40
1.0
 40
1.0
 40
1.0
 40
1.0
 10
9.9648110437
 20
10.8204174812
 30
0.0
 10
9.9655686284
 20
10.8211492519
 30
0.0
 10
9.9671555243
 20
10.822607066
 30
0.0
 10
9.9696864602
 20
10.8247310956
 30
0.0
 10
9.972417773
 20
10.8268382855
 30
0.0
 10
9.9753476863
 20
10.828927251
 30
0.0
 10
9.9784744663
 20
10.8309968709
 30
0.0
 10
9.9817963262
 20
10.8330459215
 30
0.0
 10
9.9853112927
 20
10.8350732652
 30
0.0
 10
9.9890172841
 20
10.8370776699
 30
0.0
 10
9.9929121035
 20
10.8390579428
 30
0.0
 10
9.9984472178
 20
10.8417092169
 30
0.0
 10
10.0058300229
 20
10.8449452093
 30
0.0
 10
10.0152595666
 20
10.8486513241
 30
0.0
 10
10.0253802517
 20
10.8522339809
 30
0.0
 10
10.0361678982
 20
10.8556845366
 30
0.0
 10
10.0475968804
 20
10.8589946365
 30
0.0
 10
10.0596398789
 20
10.8621562629
 30
0.0
 10
10.0722680647
 20
10.8651617479
 30
0.0
 10
10.0854511609
 20
10.8680037967
 30
0.0
 10
10.0991575298
 20
10.8706755068
 30
0.0
 10
10.1133542461
 20
10.8731703916
 30
0.0
 10
10.128007181
 20
10.8754824056
 30
0.0
 10
10.1430810951
 20
10.8776059419
 30
0.0
 10
10.1585397283
 20
10.8795358505
 30
0.0
 10
10.1743458883
 20
10.8812674483
 30
0.0
 10
10.1904615244
 20
10.8827965356
 30
0.0
 10
10.2068478741
 20
10.8841194382
 30
0.0
 10
10.2291145011
 20
10.8856113578
 30
0.0
 10
10.2573326864
 20
10.8869340182
 30
0.0
 10
10.2914663949
 20
10.8876551757
 30
0.0
 10
10.325710053
 20
10.8875108007
 30
0.0
 10
10.3597341099
 20
10.8865022865
 30
0.0
 10
10.3877910985
 20
10.8849413624
 30
0.0
 10
10.4098745467
 20
10.88326061
 30
0.0
 10
10.4260847817
 20
10.8817998462
 30
0.0
 10
10.4419983642
 20
10.8801353142
 30
0.0
 10
10.4575770236
 20
10.8782710188
 30
0.0
 10
10.4727832597
 20
10.8762114806
 30
0.0
 10
10.4875804898
 20
10.8739616897
 30
0.0
 10
10.5019331281
 20
10.8715271087
 30
0.0
 10
10.5158066718
 20
10.868913644
 30
0.0
 10
10.5291677829
 20
10.866127636
 30
0.0
 10
10.5419843767
 20
10.863175839
 30
0.0
 10
10.5542257146
 20
10.8600654223
 30
0.0
 10
10.5658624799
 20
10.8568039377
 30
0.0
 10
10.5768668605
 20
10.8533992939
 30
0.0
 10
10.5872125978
 20
10.849859732
 30
0.0
 10
10.5968751862
 20
10.846193786
 30
0.0
 10
10.6058315948
 20
10.8424102858
 30
0.0
 10
10.612807573
 20
10.8391112139
 30
0.0
 10
10.618009267
 20
10.8364122034
 30
0.0
 10
10.6216518359
 20
10.8344000226
 30
0.0
 10
10.6251026594
 20
10.8323652944
 30
0.0
 10
10.6283597254
 20
10.830309246
 30
0.0
 10
10.6314210864
 20
10.828233041
 30
0.0
 10
10.6342849401
 20
10.8261378911
 30
0.0
 10
10.6369496184
 20
10.8240250237
 30
0.0
 10
10.6394135068
 20
10.8218955714
 30
0.0
 10
10.6416751874
 20
10.8197507751
 30
0.0
 10
10.6437332772
 20
10.8175917647
 30
0.0
 10
10.6455865008
 20
10.8154196871
 30
0.0
 10
10.6472337237
 20
10.8132357234
 30
0.0
 10
10.6486737557
 20
10.8110409528
 30
0.0
 10
10.6499055966
 20
10.8088365824
 30
0.0
 10
10.6509282093
 20
10.8066237954
 30
0.0
 10
10.6517405908
 20
10.8044038712
 30
0.0
 10
10.6523419508
 20
10.8021782544
 30
0.0
 10
10.6527314447
 20
10.7999484797
 30
0.0
 10
10.6529086132
 20
10.7977162808
 30
0.0
 10
10.652873198
 20
10.7954834649
 30
0.0
 10
10.6526251768
 20
10.7932518758
 30
0.0
 10
10.652165029
 20
10.7910233169
 30
0.0
 10
10.6514931798
 20
10.7887993484
 30
0.0
 10
10.6502965121
 20
10.7857921831
 30
0.0
 10
10.6486809542
 20
10.7828439231
 30
0.0
 10
10.646707739
 20
10.7799791706
 30
0.0
 10
10.6449915333
 20
10.7777987525
 30
0.0
 10
10.6430699314
 20
10.7756310195
 30
0.0
 10
10.6416839884
 20
10.7742265784
 30
0.0
 10
10.6409591622
 20
10.77352645
 30
0.0
  0
SPLINE
  5
36E
100
AcDbEntity
  8
0
100
AcDbSpline
 62
7
  6
CONTINUOUS
 70
0
 71
3
 72
90
 73
86
 74
0
 42
0.0000001
 43
0.0000001
 44
0.0000000001
 40
0.0
 40
0.0
 40
0.0
 40
0.0
 40
0.0039801734
 40
0.0081241052
 40
0.0124359616
 40
0.0169193135
 40
0.0215771815
 40
0.0264119171
 40
0.0314251791
 40
0.0366181551
 40
0.0419915397
 40
0.047545654
 40
0.0532804223
 40
0.0591954139
 40
0.0652899192
 40
0.0715628971
 40
0.08463856
 40
0.0984098622
 40
0.1128604225
 40
0.1279709368
 40
0.1437195167
 40
0.1600819662
 40
0.1770320115
 40
0.1945414958
 40
0.2125805581
 40
0.2311177886
 40
0.2501203685
 40
0.2695542002
 40
0.2893840278
 40
0.3095735514
 40
0.3300855399
 40
0.3508819414
 40
0.3719239887
 40
0.3931723021
 40
0.4145869913
 40
0.4361277558
 40
0.4577539862
 40
0.4794248651
 40
0.5010994671
 40
0.5227368581
 40
0.5442961936
 40
0.5657368187
 40
0.5870183693
 40
0.6081008732
 40
0.6289448503
 40
0.6495114141
 40
0.6697623751
 40
0.6896603446
 40
0.7091688452
 40
0.7282524229
 40
0.7468767607
 40
0.7650087978
 40
0.7826168578
 40
0.7996707871
 40
0.8161421063
 40
0.8320041856
 40
0.8472324355
 40
0.8618045284
 40
0.8757006673
 40
0.8889039105
 40
0.8952415029
 40
0.9014010575
 40
0.9073814349
 40
0.9131818212
 40
0.9188016688
 40
0.9242407739
 40
0.9294993077
 40
0.9345778094
 40
0.9394773131
 40
0.9441992992
 40
0.948745847
 40
0.9531196365
 40
0.9573240498
 40
0.9613632821
 40
0.9652423783
 40
0.968967428
 40
0.9725455945
 40
0.9759853044
 40
0.9824864771
 40
0.9855753379
 40
0.9885738066
 40
0.9914977312
 40
0.994364333
 40
0.997192009
 40
1.0
 40
1.0
 40
1.0
 40
1.0
 10
10.7274096126
 20
10.7675310909
 30
0.0
 10
10.7287355977
 20
10.7688118942
 30
0.0
 10
10.7315023406
 20
10.7713644449
 30
0.0
 10
10.7358950807
 20
10.7750926421
 30
0.0
 10
10.7406103983
 20
10.7787941035
 30
0.0
 10
10.7456457058
 20
10.7824668499
 30
0.0
 10
10.7509985398
 20
10.7861091751
 30
0.0
 10
10.7566662868
 20
10.7897192973
 30
0.0
 10
10.7626461084
 20
10.7932954999
 30
0.0
 10
10.7689350405
 20
10.7968359211
 30
0.0
 10
10.7755299073
 20
10.8003388548
 30
0.0
 10
10.7824274248
 20
10.8038025145
 30
0.0
 10
10.7896241336
 20
10.8072251744
 30
0.0
 10
10.7971164131
 20
10.8106051269
 30
0.0
 10
10.8049005195
 20
10.8139406501
 30
0.0
 10
10.8158145171
 20
10.8183881435
 30
0.0
 10
10.8301673422
 20
10.8238122868
 30
0.0
 10
10.8482592397
 20
10.8300311465
 30
0.0
 10
10.8674138227
 20
10.8360340778
 30
0.0
 10
10.8875924703
 20
10.8418088806
 30
0.0
 10
10.9087546742
 20
10.8473438008
 30
0.0
 10
10.930857807
 20
10.852627565
 30
0.0
 10
10.9538573112
 20
10.8576494074
 30
0.0
 10
10.977706772
 20
10.8623991007
 30
0.0
 10
11.0023580284
 20
10.8668669713
 30
0.0
 10
11.0277612767
 20
10.8710439207
 30
0.0
 10
11.053865176
 20
10.8749214443
 30
0.0
 10
11.0806169548
 20
10.8784916482
 30
0.0
 10
11.1079625187
 20
10.881747264
 30
0.0
 10
11.1358465607
 20
10.8846816683
 30
0.0
 10
11.1642126757
 20
10.8872888937
 30
0.0
 10
11.1930034784
 20
10.8895636379
 30
0.0
 10
11.2221607205
 20
10.891501275
 30
0.0
 10
11.251625409
 20
10.8930978642
 30
0.0
 10
11.2813379257
 20
10.8943501578
 30
0.0
 10
11.3112381474
 20
10.8952556082
 30
0.0
 10
11.3412655692
 20
10.8958123772
 30
0.0
 10
11.371359428
 20
10.8960193341
 30
0.0
 10
11.4014588265
 20
10.8958760587
 30
0.0
 10
11.4315028561
 20
10.8953828418
 30
0.0
 10
11.4614307202
 20
10.8945406851
 30
0.0
 10
11.4911818576
 20
10.893351298
 30
0.0
 10
11.5206960667
 20
10.8918170997
 30
0.0
 10
11.5499136283
 20
10.8899412114
 30
0.0
 10
11.5787754268
 20
10.8877274481
 30
0.0
 10
11.6072230698
 20
10.8851803117
 30
0.0
 10
11.635199006
 20
10.8823049822
 30
0.0
 10
11.6626466433
 20
10.8791073069
 30
0.0
 10
11.6895104665
 20
10.8755937904
 30
0.0
 10
11.7157361525
 20
10.8717715857
 30
0.0
 10
11.7412706812
 20
10.8676484738
 30
0.0
 10
11.7660624435
 20
10.8632328494
 30
0.0
 10
11.790061348
 20
10.8585337042
 30
0.0
 10
11.8132189272
 20
10.8535606088
 30
0.0
 10
11.8354884405
 20
10.8483236909
 30
0.0
 10
11.8568249868
 20
10.8428336207
 30
0.0
 10
11.8771855771
 20
10.8371015814
 30
0.0
 10
11.896529322
 20
10.8311392419
 30
0.0
 10
11.9148172099
 20
10.8249587226
 30
0.0
 10
11.9293384963
 20
10.8195659207
 30
0.0
 10
11.9403906877
 20
10.815142471
 30
0.0
 10
11.9482799656
 20
10.8118235247
 30
0.0
 10
11.9558788237
 20
10.8084595334
 30
0.0
 10
11.9631834644
 20
10.8050522144
 30
0.0
 10
11.9701902098
 20
10.8016032631
 30
0.0
 10
11.9768955434
 20
10.7981144071
 30
0.0
 10
11.9832961199
 20
10.794587428
 30
0.0
 10
11.9893887143
 20
10.791024028
 30
0.0
 10
11.9951703151
 20
10.7874260475
 30
0.0
 10
12.0006380112
 20
10.7837951997
 30
0.0
 10
12.0057891028
 20
10.780133311
 30
0.0
 10
12.0106210241
 20
10.7764421508
 30
0.0
 10
12.0151313571
 20
10.7727234718
 30
0.0
 10
12.0193178857
 20
10.768979107
 30
0.0
 10
12.0231784783
 20
10.7652107038
 30
0.0
 10
12.0267111552
 20
10.7614202098
 30
0.0
 10
12.0299143299
 20
10.7576088373
 30
0.0
 10
12.033671999
 20
10.75259736
 30
0.0
 10
12.0368628453
 20
10.7474507745
 30
0.0
 10
12.0393962738
 20
10.7421943154
 30
0.0
 10
12.040926938
 20
10.7383067591
 30
0.0
 10
12.0421189612
 20
10.7344097574
 30
0.0
 10
12.0429712882
 20
10.7305051776
 30
0.0
 10
12.0434830508
 20
10.726595823
 30
0.0
 10
12.0435969864
 20
10.7239840643
 30
0.0
 10
12.0435969901
 20
10.7226834464
 30
0.0
  0
SPLINE
  5
36F
100
AcDbEntity
  8
0
100
AcDbSpline
 62
7
  6
CONTINUOUS
 70
0
 71
3
 72
39
 73
35
 74
0
 42
0.0000001
 43
0.0000001
 44
0.0000000001
 40
0.0
 40
0.0
 40
0.0
 40
0.0
 40
0.0314026134
 40
0.06300949
 40
0.0948071102
 40
0.1267734453
 40
0.1588809722
 40
0.1910970226
 40
0.2233851132
 40
0.2557062446
 40
0.2880202663
 40
0.3202872751
 40
0.3524690067
 40
0.384530184
 40
0.4164397927
 40
0.448172249
 40
0.4797084083
 40
0.5110363809
 40
0.5421521201
 40
0.5730597413
 40
0.6037715194
 40
0.6343075569
 40
0.6646951118
 40
0.6949675896
 40
0.7251632184
 40
0.755323478
 40
0.7854913548
 40
0.8157095105
 40
0.8460184691
 40
0.8764549222
 40
0.9070502335
 40
0.9378293335
 40
0.9688091139
 40
1.0
 40
1.0
 40
1.0
 40
1.0
 10
9.9648727045
 20
7.3355927206
 30
0.0
 10
9.9605609688
 20
7.3358917405
 30
0.0
 10
9.9519331934
 20
7.336916638
 30
0.0
 10
9.9391654024
 20
7.3397002589
 30
0.0
 10
9.9266450924
 20
7.3437083423
 30
0.0
 10
9.9144940557
 20
7.3489020457
 30
0.0
 10
9.9028285094
 20
7.3552311982
 30
0.0
 10
9.891760469
 20
7.3626347979
 30
0.0
 10
9.8813960699
 20
7.371041618
 30
0.0
 10
9.8718347629
 20
7.3803708902
 30
0.0
 10
9.8631683332
 20
7.3905330621
 30
0.0
 10
9.8554799909
 20
7.4014305932
 30
0.0
 10
9.8488436334
 20
7.4129589296
 30
0.0
 10
9.8433231515
 20
7.4250074801
 30
0.0
 10
9.838971825
 20
7.4374606463
 30
0.0
 10
9.8358317369
 20
7.4501988823
 30
0.0
 10
9.8339334303
 20
7.4630998478
 30
0.0
 10
9.8332956019
 20
7.476039546
 30
0.0
 10
9.8339248977
 20
7.4888934797
 30
0.0
 10
9.8358157335
 20
7.5015378344
 30
0.0
 10
9.8389503817
 20
7.513850665
 30
0.0
 10
9.8432990923
 20
7.5257130638
 30
0.0
 10
9.8488203265
 20
7.5370103184
 30
0.0
 10
9.8554610423
 20
7.5476330946
 30
0.0
 10
9.8631572554
 20
7.557478519
 30
0.0
 10
9.8718346466
 20
7.566451224
 30
0.0
 10
9.8814092888
 20
7.5744643219
 30
0.0
 10
9.89178845
 20
7.5814403578
 30
0.0
 10
9.9028715917
 20
7.587312034
 30
0.0
 10
9.9145514415
 20
7.5920228528
 30
0.0
 10
9.9267149098
 20
7.5955276766
 30
0.0
 10
9.9392448138
 20
7.5977930722
 30
0.0
 10
9.9520187058
 20
7.5987979183
 30
0.0
 10
9.9605900401
 20
7.5986215647
 30
0.0
 10
9.9648727045
 20
7.5983245609
 30
0.0
  0
SPLINE
  5
370
100
AcDbEntity
  8
0
100
AcDbSpline
 62
7
  6
CONTINUOUS
 70
0
 71
3
 72
42
 73
38
 74
0
 42
0.0000001
 43
0.0000001
 44
0.0000000001
 40
0.0
 40
0.0
 40
0.0
 40
0.0
 40
0.0299419663
 40
0.0449235352
 40
0.0599142051
 40
0.0899287052
 40
0.1200139767
 40
0.135092661
 40
0.150196701
 40
0.1804840414
 40
0.210897872
 40
0.2414513324
 40
0.2721543376
 40
0.3030133986
 40
0.3340315263
 40
0.3652082187
 40
0.3965395244
 40
0.4280181782
 40
0.4596338019
 40
0.4913731609
 40
0.5232204716
 40
0.55515775
 40
0.5871651943
 40
0.6192215961
 40
0.6513047701
 40
0.6833919991
 40
0.7154604852
 40
0.7474878032
 40
0.7794523473
 40
0.8113337692
 40
0.8431133916
 40
0.8747746171
 40
0.9063032365
 40
0.9376879249
 40
0.9533258257
 40
0.968925233
 40
1.0
 40
1.0
 40
1.0
 40
1.0
 10
9.3925778433
 20
9.9551251465
 30
0.0
 10
9.3889447062
 20
9.951615805
 30
0.0
 10
9.383280871
 20
9.9465644079
 30
0.0
 10
9.375348758
 20
9.9402967564
 30
0.0
 10
9.367164064
 20
9.9343409663
 30
0.0
 10
9.3564843653
 20
9.9275017981
 30
0.0
 10
9.3452854002
 20
9.9215195138
 30
0.0
 10
9.3360491752
 20
9.9172636562
 30
0.0
 10
9.3266221215
 20
9.9133591946
 30
0.0
 10
9.3145276634
 20
9.9091607272
 30
0.0
 10
9.2996230584
 20
9.9052478687
 30
0.0
 10
9.28439323
 20
9.9024758837
 30
0.0
 10
9.2689225756
 20
9.9008600748
 30
0.0
 10
9.25329608
 20
9.9004090626
 30
0.0
 10
9.2375997247
 20
9.9011251436
 30
0.0
 10
9.2219197807
 20
9.9030041812
 30
0.0
 10
9.2063424027
 20
9.9060356668
 30
0.0
 10
9.1909531441
 20
9.9102027763
 30
0.0
 10
9.1758364979
 20
9.9154824704
 30
0.0
 10
9.1610754384
 20
9.9218456241
 30
0.0
 10
9.1467509724
 20
9.9292571893
 30
0.0
 10
9.1329417
 20
9.9376763863
 30
0.0
 10
9.1197233897
 20
9.9470569293
 30
0.0
 10
9.107168568
 20
9.957347279
 30
0.0
 10
9.0953461257
 20
9.9684909235
 30
0.0
 10
9.084320945
 20
9.9804266861
 30
0.0
 10
9.0741535461
 20
9.9930890574
 30
0.0
 10
9.0648997594
 20
10.0064085524
 30
0.0
 10
9.056610421
 20
10.0203120834
 30
0.0
 10
9.0493310959
 20
10.0347233724
 30
0.0
 10
9.0431018303
 20
10.0495633047
 30
0.0
 10
9.0379569228
 20
10.0647505772
 30
0.0
 10
9.0339247907
 20
10.0802013279
 30
0.0
 10
9.031507442
 20
10.093243442
 30
0.0
 10
9.0301513767
 20
10.103722614
 30
0.0
 10
9.0291835884
 20
10.114191761
 30
0.0
 10
9.0288905522
 20
10.1220697199
 30
0.0
 10
9.0288905522
 20
10.1273120787
 30
0.0
  0
SPLINE
  5
371
100
AcDbEntity
  8
0
100
AcDbSpline
 62
7
  6
CONTINUOUS
 70
0
 71
3
 72
21
 73
17
 74
0
 42
0.0000001
 43
0.0000001
 44
0.0000000001
 40
0.0
 40
0.0
 40
0.0
 40
0.0
 40
0.1273176366
 40
0.2537999756
 40
0.3167619475
 40
0.3795355041
 40
0.4421314991
 40
0.5045621439
 40
0.5668413432
 40
0.6289845283
 40
0.6910084528
 40
0.7529310935
 40
0.8147714495
 40
0.8765493365
 40
0.9382852194
 40
1.0
 40
1.0
 40
1.0
 40
1.0
 10
11.1713140704
 20
8.3192739266
 30
0.0
 10
11.1713140704
 20
8.3260186809
 30
0.0
 10
11.1719579017
 20
8.3394726202
 30
0.0
 10
11.1743894435
 20
8.3561045961
 30
0.0
 10
11.1772956767
 20
8.3691509273
 30
0.0
 10
11.1799460051
 20
8.3787739059
 30
0.0
 10
11.1830639382
 20
8.3882259
 30
0.0
 10
11.1866423317
 20
8.3974853726
 30
0.0
 10
11.1906729088
 20
8.4065309153
 30
0.0
 10
11.1951464311
 20
8.4153416678
 30
0.0
 10
11.2000526083
 20
8.4238972902
 30
0.0
 10
11.2053800972
 20
8.4321780774
 30
0.0
 10
11.211116627
 20
8.4401648963
 30
0.0
 10
11.2172490691
 20
8.447839359
 30
0.0
 10
11.2237629931
 20
8.4551835579
 30
0.0
 10
11.2283507926
 20
8.4598490728
 30
0.0
 10
11.2307023163
 20
8.4621204706
 30
0.0
  0
SPLINE
  5
372
100
AcDbEntity
  8
0
100
AcDbSpline
 62
7
  6
CONTINUOUS
 70
0
 71
3
 72
42
 73
38
 74
0
 42
0.0000001
 43
0.0000001
 44
0.0000000001
 40
0.0
 40
0.0
 40
0.0
 40
0.0
 40
0.0299419663
 40
0.0449235352
 40
0.0599142051
 40
0.0899287052
 40
0.1200139767
 40
0.135092661
 40
0.150196701
 40
0.1804840414
 40
0.210897872
 40
0.2414513324
 40
0.2721543376
 40
0.3030133986
 40
0.3340315263
 40
0.3652082187
 40
0.3965395244
 40
0.4280181782
 40
0.4596338019
 40
0.4913731609
 40
0.5232204716
 40
0.55515775
 40
0.5871651943
 40
0.6192215961
 40
0.6513047701
 40
0.6833919991
 40
0.7154604852
 40
0.7474878032
 40
0.7794523473
 40
0.8113337692
 40
0.8431133916
 40
0.8747746171
 40
0.9063032365
 40
0.9376879249
 40
0.9533258257
 40
0.968925233
 40
1.0
 40
1.0
 40
1.0
 40
1.0
 10
12.4101303446
 20
9.7458571698
 30
0.0
 10
12.4064972075
 20
9.7423478283
 30
0.0
 10
12.4008333724
 20
9.7372964312
 30
0.0
 10
12.3929012593
 20
9.7310287797
 30
0.0
 10
12.3847165654
 20
9.7250729896
 30
0.0
 10
12.3740368667
 20
9.7182338214
 30
0.0
 10
12.3628379016
 20
9.712251537
 30
0.0
 10
12.3536016766
 20
9.7079956794
 30
0.0
 10
12.3441746228
 20
9.7040912179
 30
0.0
 10
12.3320801648
 20
9.6998927504
 30
0.0
 10
12.3171755598
 20
9.6959798919
 30
0.0
 10
12.3019457313
 20
9.6932079069
 30
0.0
 10
12.2864750769
 20
9.691592098
 30
0.0
 10
12.2708485813
 20
9.6911410859
 30
0.0
 10
12.2551522261
 20
9.6918571668
 30
0.0
 10
12.2394722821
 20
9.6937362045
 30
0.0
 10
12.2238949041
 20
9.69676769
 30
0.0
 10
12.2085056454
 20
9.7009347995
 30
0.0
 10
12.1933889993
 20
9.7062144936
 30
0.0
 10
12.1786279398
 20
9.7125776474
 30
0.0
 10
12.1643034737
 20
9.7199892125
 30
0.0
 10
12.1504942013
 20
9.7284084095
 30
0.0
 10
12.1372758911
 20
9.7377889525
 30
0.0
 10
12.1247210693
 20
9.7480793022
 30
0.0
 10
12.1128986271
 20
9.7592229467
 30
0.0
 10
12.1018734463
 20
9.7711587093
 30
0.0
 10
12.0917060474
 20
9.7838210806
 30
0.0
 10
12.0824522608
 20
9.7971405757
 30
0.0
 10
12.0741629223
 20
9.8110441067
 30
0.0
 10
12.0668835972
 20
9.8254553957
 30
0.0
 10
12.0606543317
 20
9.8402953279
 30
0.0
 10
12.0555094242
 20
9.8554826005
 30
0.0
 10
12.0514772921
 20
9.8709333511
 30
0.0
 10
12.0490599433
 20
9.8839754652
 30
0.0
 10
12.0477038781
 20
9.8944546373
 30
0.0
 10
12.0467360897
 20
9.9049237842
 30
0.0
 10
12.0464430535
 20
9.9128017432
 30
0.0
 10
12.0464430535
 20
9.918044102
 30
0.0
  0
SPLINE
  5
373
100
AcDbEntity
  8
0
100
AcDbSpline
 62
7
  6
CONTINUOUS
 70
0
 71
3
 72
42
 73
38
 74
0
 42
0.0000001
 43
0.0000001
 44
0.0000000001
 40
0.0
 40
0.0
 40
0.0
 40
0.0
 40
0.0299419663
 40
0.0449235352
 40
0.0599142051
 40
0.0899287052
 40
0.1200139767
 40
0.135092661
 40
0.150196701
 40
0.1804840414
 40
0.210897872
 40
0.2414513324
 40
0.2721543376
 40
0.3030133986
 40
0.3340315263
 40
0.3652082187
 40
0.3965395244
 40
0.4280181782
 40
0.4596338019
 40
0.4913731609
 40
0.5232204716
 40
0.55515775
 40
0.5871651943
 40
0.6192215961
 40
0.6513047701
 40
0.6833919991
 40
0.7154604852
 40
0.7474878032
 40
0.7794523473
 40
0.8113337692
 40
0.8431133916
 40
0.8747746171
 40
0.9063032365
 40
0.9376879249
 40
0.9533258257
 40
0.968925233
 40
1.0
 40
1.0
 40
1.0
 40
1.0
 10
11.1428355504
 20
8.748043628
 30
0.0
 10
11.1392024133
 20
8.7445342864
 30
0.0
 10
11.1335385782
 20
8.7394828894
 30
0.0
 10
11.1256064651
 20
8.7332152379
 30
0.0
 10
11.1174217712
 20
8.7272594478
 30
0.0
 10
11.1067420725
 20
8.7204202796
 30
0.0
 10
11.0955431074
 20
8.7144379952
 30
0.0
 10
11.0863068824
 20
8.7101821376
 30
0.0
 10
11.0768798286
 20
8.7062776761
 30
0.0
 10
11.0647853706
 20
8.7020792086
 30
0.0
 10
11.0498807656
 20
8.6981663501
 30
0.0
 10
11.0346509371
 20
8.6953943651
 30
0.0
 10
11.0191802827
 20
8.6937785562
 30
0.0
 10
11.0035537872
 20
8.6933275441
 30
0.0
 10
10.9878574319
 20
8.694043625
 30
0.0
 10
10.9721774879
 20
8.6959226627
 30
0.0
 10
10.9566001099
 20
8.6989541482
 30
0.0
 10
10.9412108513
 20
8.7031212577
 30
0.0
 10
10.9260942051
 20
8.7084009518
 30
0.0
 10
10.9113331456
 20
8.7147641056
 30
0.0
 10
10.8970086795
 20
8.7221756707
 30
0.0
 10
10.8831994071
 20
8.7305948677
 30
0.0
 10
10.8699810969
 20
8.7399754107
 30
0.0
 10
10.8574262751
 20
8.7502657604
 30
0.0
 10
10.8456038329
 20
8.7614094049
 30
0.0
 10
10.8345786521
 20
8.7733451675
 30
0.0
 10
10.8244112533
 20
8.7860075388
 30
0.0
 10
10.8151574666
 20
8.7993270339
 30
0.0
 10
10.8068681281
 20
8.8132305649
 30
0.0
 10
10.799588803
 20
8.8276418538
 30
0.0
 10
10.7933595375
 20
8.8424817861
 30
0.0
 10
10.78821463
 20
8.8576690587
 30
0.0
 10
10.7841824979
 20
8.8731198093
 30
0.0
 10
10.7817651491
 20
8.8861619234
 30
0.0
 10
10.7804090839
 20
8.8966410954
 30
0.0
 10
10.7794412955
 20
8.9071102424
 30
0.0
 10
10.7791482594
 20
8.9149882014
 30
0.0
 10
10.7791482594
 20
8.9202305601
 30
0.0
  0
SPLINE
  5
374
100
AcDbEntity
  8
0
100
AcDbSpline
 62
7
  6
CONTINUOUS
 70
0
 71
3
 72
42
 73
38
 74
0
 42
0.0000001
 43
0.0000001
 44
0.0000000001
 40
0.0
 40
0.0
 40
0.0
 40
0.0
 40
0.0299419663
 40
0.0449235352
 40
0.0599142051
 40
0.0899287052
 40
0.1200139767
 40
0.135092661
 40
0.150196701
 40
0.1804840414
 40
0.210897872
 40
0.2414513324
 40
0.2721543376
 40
0.3030133986
 40
0.3340315263
 40
0.3652082187
 40
0.3965395244
 40
0.4280181782
 40
0.4596338019
 40
0.4913731609
 40
0.5232204716
 40
0.55515775
 40
0.5871651943
 40
0.6192215961
 40
0.6513047701
 40
0.6833919991
 40
0.7154604852
 40
0.7474878032
 40
0.7794523473
 40
0.8113337692
 40
0.8431133916
 40
0.8747746171
 40
0.9063032365
 40
0.9376879249
 40
0.9533258257
 40
0.968925233
 40
1.0
 40
1.0
 40
1.0
 40
1.0
 10
11.5350013615
 20
8.1470869944
 30
0.0
 10
11.5313682244
 20
8.1435776529
 30
0.0
 10
11.5257043892
 20
8.1385262558
 30
0.0
 10
11.5177722762
 20
8.1322586043
 30
0.0
 10
11.5095875823
 20
8.1263028142
 30
0.0
 10
11.4989078835
 20
8.119463646
 30
0.0
 10
11.4877089185
 20
8.1134813617
 30
0.0
 10
11.4784726934
 20
8.1092255041
 30
0.0
 10
11.4690456397
 20
8.1053210425
 30
0.0
 10
11.4569511816
 20
8.1011225751
 30
0.0
 10
11.4420465767
 20
8.0972097166
 30
0.0
 10
11.4268167482
 20
8.0944377316
 30
0.0
 10
11.4113460938
 20
8.0928219227
 30
0.0
 10
11.3957195982
 20
8.0923709105
 30
0.0
 10
11.3800232429
 20
8.0930869915
 30
0.0
 10
11.3643432989
 20
8.0949660291
 30
0.0
 10
11.3487659209
 20
8.0979975147
 30
0.0
 10
11.3333766623
 20
8.1021646242
 30
0.0
 10
11.3182600161
 20
8.1074443183
 30
0.0
 10
11.3034989567
 20
8.113807472
 30
0.0
 10
11.2891744906
 20
8.1212190372
 30
0.0
 10
11.2753652182
 20
8.1296382342
 30
0.0
 10
11.2621469079
 20
8.1390187772
 30
0.0
 10
11.2495920862
 20
8.1493091269
 30
0.0
 10
11.237769644
 20
8.1604527714
 30
0.0
 10
11.2267444632
 20
8.172388534
 30
0.0
 10
11.2165770643
 20
8.1850509053
 30
0.0
 10
11.2073232776
 20
8.1983704003
 30
0.0
 10
11.1990339392
 20
8.2122739313
 30
0.0
 10
11.1917546141
 20
8.2266852203
 30
0.0
 10
11.1855253485
 20
8.2415251526
 30
0.0
 10
11.180380441
 20
8.2567124252
 30
0.0
 10
11.1763483089
 20
8.2721631758
 30
0.0
 10
11.1739309602
 20
8.2852052899
 30
0.0
 10
11.1725748949
 20
8.2956844619
 30
0.0
 10
11.1716071066
 20
8.3061536089
 30
0.0
 10
11.1713140704
 20
8.3140315679
 30
0.0
 10
11.1713140704
 20
8.3192739266
 30
0.0
  0
SPLINE
  5
375
100
AcDbEntity
  8
0
100
AcDbSpline
 62
7
  6
CONTINUOUS
 70
0
 71
3
 72
21
 73
17
 74
0
 42
0.0000001
 43
0.0000001
 44
0.0000000001
 40
0.0
 40
0.0
 40
0.0
 40
0.0
 40
0.1273176366
 40
0.2537999756
 40
0.3167619475
 40
0.3795355041
 40
0.4421314991
 40
0.5045621439
 40
0.5668413432
 40
0.6289845283
 40
0.6910084528
 40
0.7529310935
 40
0.8147714495
 40
0.8765493365
 40
0.9382852194
 40
1.0
 40
1.0
 40
1.0
 40
1.0
 10
9.0288905522
 20
10.1273120787
 30
0.0
 10
9.0288905522
 20
10.1340568329
 30
0.0
 10
9.0295343835
 20
10.1475107723
 30
0.0
 10
9.0319659253
 20
10.1641427482
 30
0.0
 10
9.0348721584
 20
10.1771890794
 30
0.0
 10
9.0375224869
 20
10.186812058
 30
0.0
 10
9.0406404199
 20
10.1962640521
 30
0.0
 10
9.0442188135
 20
10.2055235247
 30
0.0
 10
9.0482493906
 20
10.2145690674
 30
0.0
 10
9.0527229129
 20
10.2233798199
 30
0.0
 10
9.0576290901
 20
10.2319354423
 30
0.0
 10
9.062956579
 20
10.2402162295
 30
0.0
 10
9.0686931087
 20
10.2482030484
 30
0.0
 10
9.0748255509
 20
10.2558775111
 30
0.0
 10
9.0813394749
 20
10.26322171
 30
0.0
 10
9.0859272744
 20
10.2678872249
 30
0.0
 10
9.0882787981
 20
10.2701586227
 30
0.0
  0
SPLINE
  5
376
100
AcDbEntity
  8
0
100
AcDbSpline
 62
7
  6
CONTINUOUS
 70
0
 71
3
 72
42
 73
38
 74
0
 42
0.0000001
 43
0.0000001
 44
0.0000000001
 40
0.0
 40
0.0
 40
0.0
 40
0.0
 40
0.0299419663
 40
0.0449235352
 40
0.0599142051
 40
0.0899287052
 40
0.1200139767
 40
0.135092661
 40
0.150196701
 40
0.1804840414
 40
0.210897872
 40
0.2414513324
 40
0.2721543376
 40
0.3030133986
 40
0.3340315263
 40
0.3652082187
 40
0.3965395244
 40
0.4280181782
 40
0.4596338019
 40
0.4913731609
 40
0.5232204716
 40
0.55515775
 40
0.5871651943
 40
0.6192215961
 40
0.6513047701
 40
0.6833919991
 40
0.7154604852
 40
0.7474878032
 40
0.7794523473
 40
0.8113337692
 40
0.8431133916
 40
0.8747746171
 40
0.9063032365
 40
0.9376879249
 40
0.9533258257
 40
0.968925233
 40
1.0
 40
1.0
 40
1.0
 40
1.0
 10
10.7506696242
 20
8.2014805852
 30
0.0
 10
10.7470364871
 20
8.1979712436
 30
0.0
 10
10.741372652
 20
8.1929198466
 30
0.0
 10
10.7334405389
 20
8.1866521951
 30
0.0
 10
10.725255845
 20
8.180696405
 30
0.0
 10
10.7145761463
 20
8.1738572368
 30
0.0
 10
10.7033771812
 20
8.1678749524
 30
0.0
 10
10.6941409562
 20
8.1636190948
 30
0.0
 10
10.6847139024
 20
8.1597146333
 30
0.0
 10
10.6726194444
 20
8.1555161658
 30
0.0
 10
10.6577148394
 20
8.1516033073
 30
0.0
 10
10.6424850109
 20
8.1488313223
 30
0.0
 10
10.6270143565
 20
8.1472155134
 30
0.0
 10
10.6113878609
 20
8.1467645013
 30
0.0
 10
10.5956915057
 20
8.1474805822
 30
0.0
 10
10.5800115617
 20
8.1493596199
 30
0.0
 10
10.5644341837
 20
8.1523911054
 30
0.0
 10
10.549044925
 20
8.1565582149
 30
0.0
 10
10.5339282789
 20
8.161837909
 30
0.0
 10
10.5191672194
 20
8.1682010628
 30
0.0
 10
10.5048427533
 20
8.1756126279
 30
0.0
 10
10.4910334809
 20
8.1840318249
 30
0.0
 10
10.4778151707
 20
8.1934123679
 30
0.0
 10
10.4652603489
 20
8.2037027176
 30
0.0
 10
10.4534379067
 20
8.2148463621
 30
0.0
 10
10.4424127259
 20
8.2267821247
 30
0.0
 10
10.432245327
 20
8.239444496
 30
0.0
 10
10.4229915404
 20
8.2527639911
 30
0.0
 10
10.4147022019
 20
8.2666675221
 30
0.0
 10
10.4074228768
 20
8.281078811
 30
0.0
 10
10.4011936113
 20
8.2959187433
 30
0.0
 10
10.3960487038
 20
8.3111060159
 30
0.0
 10
10.3920165717
 20
8.3265567665
 30
0.0
 10
10.3895992229
 20
8.3395988806
 30
0.0
 10
10.3882431577
 20
8.3500780526
 30
0.0
 10
10.3872753693
 20
8.3605471996
 30
0.0
 10
10.3869823331
 20
8.3684251586
 30
0.0
 10
10.3869823331
 20
8.3736675173
 30
0.0
  0
SPLINE
  5
377
100
AcDbEntity
  8
0
100
AcDbSpline
 62
7
  6
CONTINUOUS
 70
0
 71
3
 72
42
 73
38
 74
0
 42
0.0000001
 43
0.0000001
 44
0.0000000001
 40
0.0
 40
0.0
 40
0.0
 40
0.0
 40
0.0299419663
 40
0.0449235352
 40
0.0599142051
 40
0.0899287052
 40
0.1200139767
 40
0.135092661
 40
0.150196701
 40
0.1804840414
 40
0.210897872
 40
0.2414513324
 40
0.2721543376
 40
0.3030133986
 40
0.3340315263
 40
0.3652082187
 40
0.3965395244
 40
0.4280181782
 40
0.4596338019
 40
0.4913731609
 40
0.5232204716
 40
0.55515775
 40
0.5871651943
 40
0.6192215961
 40
0.6513047701
 40
0.6833919991
 40
0.7154604852
 40
0.7474878032
 40
0.7794523473
 40
0.8113337692
 40
0.8431133916
 40
0.8747746171
 40
0.9063032365
 40
0.9376879249
 40
0.9533258257
 40
0.968925233
 40
1.0
 40
1.0
 40
1.0
 40
1.0
 10
10.2367971067
 20
7.8150081192
 30
0.0
 10
10.2331639696
 20
7.8114987777
 30
0.0
 10
10.2275001344
 20
7.8064473806
 30
0.0
 10
10.2195680214
 20
7.8001797291
 30
0.0
 10
10.2113833275
 20
7.794223939
 30
0.0
 10
10.2007036287
 20
7.7873847708
 30
0.0
 10
10.1895046637
 20
7.7814024864
 30
0.0
 10
10.1802684386
 20
7.7771466288
 30
0.0
 10
10.1708413849
 20
7.7732421673
 30
0.0
 10
10.1587469268
 20
7.7690436998
 30
0.0
 10
10.1438423219
 20
7.7651308413
 30
0.0
 10
10.1286124934
 20
7.7623588563
 30
0.0
 10
10.113141839
 20
7.7607430474
 30
0.0
 10
10.0975153434
 20
7.7602920353
 30
0.0
 10
10.0818189881
 20
7.7610081162
 30
0.0
 10
10.0661390441
 20
7.7628871539
 30
0.0
 10
10.0505616661
 20
7.7659186394
 30
0.0
 10
10.0351724075
 20
7.7700857489
 30
0.0
 10
10.0200557613
 20
7.775365443
 30
0.0
 10
10.0052947018
 20
7.7817285968
 30
0.0
 10
9.9909702358
 20
7.7891401619
 30
0.0
 10
9.9771609634
 20
7.7975593589
 30
0.0
 10
9.9639426531
 20
7.8069399019
 30
0.0
 10
9.9513878314
 20
7.8172302516
 30
0.0
 10
9.9395653892
 20
7.8283738961
 30
0.0
 10
9.9285402084
 20
7.8403096587
 30
0.0
 10
9.9183728095
 20
7.85297203
 30
0.0
 10
9.9091190228
 20
7.8662915251
 30
0.0
 10
9.9008296844
 20
7.8801950561
 30
0.0
 10
9.8935503593
 20
7.8946063451
 30
0.0
 10
9.8873210937
 20
7.9094462773
 30
0.0
 10
9.8821761862
 20
7.9246335499
 30
0.0
 10
9.8781440541
 20
7.9400843005
 30
0.0
 10
9.8757267054
 20
7.9531264146
 30
0.0
 10
9.8743706401
 20
7.9636055867
 30
0.0
 10
9.8734028518
 20
7.9740747336
 30
0.0
 10
9.8731098156
 20
7.9819526926
 30
0.0
 10
9.8731098156
 20
7.9871950514
 30
0.0
  0
SPLINE
  5
378
100
AcDbEntity
  8
0
100
AcDbSpline
 62
7
  6
CONTINUOUS
 70
0
 71
3
 72
42
 73
38
 74
0
 42
0.0000001
 43
0.0000001
 44
0.0000000001
 40
0.0
 40
0.0
 40
0.0
 40
0.0
 40
0.0299419663
 40
0.0449235352
 40
0.0599142051
 40
0.0899287052
 40
0.1200139767
 40
0.135092661
 40
0.150196701
 40
0.1804840414
 40
0.210897872
 40
0.2414513324
 40
0.2721543376
 40
0.3030133986
 40
0.3340315263
 40
0.3652082187
 40
0.3965395244
 40
0.4280181782
 40
0.4596338019
 40
0.4913731609
 40
0.5232204716
 40
0.55515775
 40
0.5871651943
 40
0.6192215961
 40
0.6513047701
 40
0.6833919991
 40
0.7154604852
 40
0.7474878032
 40
0.7794523473
 40
0.8113337692
 40
0.8431133916
 40
0.8747746171
 40
0.9063032365
 40
0.9376879249
 40
0.9533258257
 40
0.968925233
 40
1.0
 40
1.0
 40
1.0
 40
1.0
 10
9.3925778433
 20
6.4546099337
 30
0.0
 10
9.3889447062
 20
6.4511005922
 30
0.0
 10
9.383280871
 20
6.4460491951
 30
0.0
 10
9.375348758
 20
6.4397815436
 30
0.0
 10
9.367164064
 20
6.4338257535
 30
0.0
 10
9.3564843653
 20
6.4269865853
 30
0.0
 10
9.3452854002
 20
6.421004301
 30
0.0
 10
9.3360491752
 20
6.4167484434
 30
0.0
 10
9.3266221215
 20
6.4128439818
 30
0.0
 10
9.3145276634
 20
6.4086455144
 30
0.0
 10
9.2996230584
 20
6.4047326559
 30
0.0
 10
9.28439323
 20
6.4019606708
 30
0.0
 10
9.2689225756
 20
6.400344862
 30
0.0
 10
9.25329608
 20
6.3998938498
 30
0.0
 10
9.2375997247
 20
6.4006099308
 30
0.0
 10
9.2219197807
 20
6.4024889684
 30
0.0
 10
9.2063424027
 20
6.405520454
 30
0.0
 10
9.1909531441
 20
6.4096875635
 30
0.0
 10
9.1758364979
 20
6.4149672576
 30
0.0
 10
9.1610754384
 20
6.4213304113
 30
0.0
 10
9.1467509724
 20
6.4287419765
 30
0.0
 10
9.1329417
 20
6.4371611734
 30
0.0
 10
9.1197233897
 20
6.4465417165
 30
0.0
 10
9.107168568
 20
6.4568320662
 30
0.0
 10
9.0953461257
 20
6.4679757107
 30
0.0
 10
9.084320945
 20
6.4799114733
 30
0.0
 10
9.0741535461
 20
6.4925738445
 30
0.0
 10
9.0648997594
 20
6.5058933396
 30
0.0
 10
9.056610421
 20
6.5197968706
 30
0.0
 10
9.0493310959
 20
6.5342081596
 30
0.0
 10
9.0431018303
 20
6.5490480918
 30
0.0
 10
9.0379569228
 20
6.5642353644
 30
0.0
 10
9.0339247907
 20
6.579686115
 30
0.0
 10
9.031507442
 20
6.5927282291
 30
0.0
 10
9.0301513767
 20
6.6032074012
 30
0.0
 10
9.0291835884
 20
6.6136765482
 30
0.0
 10
9.0288905522
 20
6.6215545071
 30
0.0
 10
9.0288905522
 20
6.6267968659
 30
0.0
  0
SPLINE
  5
379
100
AcDbEntity
  8
0
100
AcDbSpline
 62
7
  6
CONTINUOUS
 70
0
 71
3
 72
42
 73
38
 74
0
 42
0.0000001
 43
0.0000001
 44
0.0000000001
 40
0.0
 40
0.0
 40
0.0
 40
0.0
 40
0.0299419663
 40
0.0449235352
 40
0.0599142051
 40
0.0899287052
 40
0.1200139767
 40
0.135092661
 40
0.150196701
 40
0.1804840414
 40
0.210897872
 40
0.2414513324
 40
0.2721543376
 40
0.3030133986
 40
0.3340315263
 40
0.3652082187
 40
0.3965395244
 40
0.4280181782
 40
0.4596338019
 40
0.4913731609
 40
0.5232204716
 40
0.55515775
 40
0.5871651943
 40
0.6192215961
 40
0.6513047701
 40
0.6833919991
 40
0.7154604852
 40
0.7474878032
 40
0.7794523473
 40
0.8113337692
 40
0.8431133916
 40
0.8747746171
 40
0.9063032365
 40
0.9376879249
 40
0.9533258257
 40
0.968925233
 40
1.0
 40
1.0
 40
1.0
 40
1.0
 10
12.4101303446
 20
6.245341957
 30
0.0
 10
12.4064972075
 20
6.2418326154
 30
0.0
 10
12.4008333724
 20
6.2367812184
 30
0.0
 10
12.3929012593
 20
6.2305135669
 30
0.0
 10
12.3847165654
 20
6.2245577768
 30
0.0
 10
12.3740368667
 20
6.2177186086
 30
0.0
 10
12.3628379016
 20
6.2117363242
 30
0.0
 10
12.3536016766
 20
6.2074804666
 30
0.0
 10
12.3441746228
 20
6.2035760051
 30
0.0
 10
12.3320801648
 20
6.1993775376
 30
0.0
 10
12.3171755598
 20
6.1954646791
 30
0.0
 10
12.3019457313
 20
6.1926926941
 30
0.0
 10
12.2864750769
 20
6.1910768852
 30
0.0
 10
12.2708485813
 20
6.1906258731
 30
0.0
 10
12.2551522261
 20
6.191341954
 30
0.0
 10
12.2394722821
 20
6.1932209917
 30
0.0
 10
12.2238949041
 20
6.1962524772
 30
0.0
 10
12.2085056454
 20
6.2004195867
 30
0.0
 10
12.1933889993
 20
6.2056992808
 30
0.0
 10
12.1786279398
 20
6.2120624346
 30
0.0
 10
12.1643034737
 20
6.2194739997
 30
0.0
 10
12.1504942013
 20
6.2278931967
 30
0.0
 10
12.1372758911
 20
6.2372737397
 30
0.0
 10
12.1247210693
 20
6.2475640894
 30
0.0
 10
12.1128986271
 20
6.2587077339
 30
0.0
 10
12.1018734463
 20
6.2706434965
 30
0.0
 10
12.0917060474
 20
6.2833058678
 30
0.0
 10
12.0824522608
 20
6.2966253629
 30
0.0
 10
12.0741629223
 20
6.3105288939
 30
0.0
 10
12.0668835972
 20
6.3249401828
 30
0.0
 10
12.0606543317
 20
6.3397801151
 30
0.0
 10
12.0555094242
 20
6.3549673877
 30
0.0
 10
12.0514772921
 20
6.3704181383
 30
0.0
 10
12.0490599433
 20
6.3834602524
 30
0.0
 10
12.0477038781
 20
6.3939394245
 30
0.0
 10
12.0467360897
 20
6.4044085714
 30
0.0
 10
12.0464430535
 20
6.4122865304
 30
0.0
 10
12.0464430535
 20
6.4175288892
 30
0.0
  0
SPLINE
  5
37A
100
AcDbEntity
  8
0
100
AcDbSpline
 62
7
  6
CONTINUOUS
 70
0
 71
3
 72
15
 73
11
 74
0
 42
0.0000001
 43
0.0000001
 44
0.0000000001
 40
0.0
 40
0.0
 40
0.0
 40
0.0
 40
0.1233171261
 40
0.2468171865
 40
0.3706749939
 40
0.4950495802
 40
0.6200773232
 40
0.7458671315
 40
0.872492731
 40
1.0
 40
1.0
 40
1.0
 40
1.0
 10
10.0491139344
 20
9.1431410949
 30
0.0
 10
10.0465894008
 20
9.1407026038
 30
0.0
 10
10.0412694302
 20
9.1360901781
 30
0.0
 10
10.0325867139
 20
9.1300629879
 30
0.0
 10
10.0232828889
 20
9.1249821466
 30
0.0
 10
10.0134531883
 20
9.1208998761
 30
0.0
 10
10.0031967665
 20
9.1178567056
 30
0.0
 10
9.9926169422
 20
9.1158830625
 30
0.0
 10
9.9818217113
 20
9.1149981433
 30
0.0
 10
9.9745754291
 20
9.1151394849
 30
0.0
 10
9.9709549471
 20
9.1153905662
 30
0.0
  0
SPLINE
  5
37B
100
AcDbEntity
  8
0
100
AcDbSpline
 62
7
  6
CONTINUOUS
 70
0
 71
3
 72
39
 73
35
 74
0
 42
0.0000001
 43
0.0000001
 44
0.0000000001
 40
0.0
 40
0.0
 40
0.0
 40
0.0
 40
0.0314026134
 40
0.06300949
 40
0.0948071102
 40
0.1267734453
 40
0.1588809722
 40
0.1910970226
 40
0.2233851132
 40
0.2557062446
 40
0.2880202663
 40
0.3202872751
 40
0.3524690067
 40
0.384530184
 40
0.4164397927
 40
0.448172249
 40
0.4797084083
 40
0.5110363809
 40
0.5421521201
 40
0.5730597413
 40
0.6037715194
 40
0.6343075569
 40
0.6646951118
 40
0.6949675896
 40
0.7251632184
 40
0.755323478
 40
0.7854913548
 40
0.8157095105
 40
0.8460184691
 40
0.8764549222
 40
0.9070502335
 40
0.9378293335
 40
0.9688091139
 40
1.0
 40
1.0
 40
1.0
 40
1.0
 10
9.9648727045
 20
9.3495481527
 30
0.0
 10
9.9691844402
 20
9.3492491328
 30
0.0
 10
9.9778122157
 20
9.3482242353
 30
0.0
 10
9.9905800067
 20
9.3454406143
 30
0.0
 10
10.0031003167
 20
9.341432531
 30
0.0
 10
10.0152513534
 20
9.3362388276
 30
0.0
 10
10.0269168996
 20
9.3299096751
 30
0.0
 10
10.0379849401
 20
9.3225060754
 30
0.0
 10
10.0483493391
 20
9.3140992553
 30
0.0
 10
10.0579106461
 20
9.304769983
 30
0.0
 10
10.0665770759
 20
9.2946078112
 30
0.0
 10
10.0742654181
 20
9.2837102801
 30
0.0
 10
10.0809017757
 20
9.2721819436
 30
0.0
 10
10.0864222575
 20
9.2601333931
 30
0.0
 10
10.090773584
 20
9.247680227
 30
0.0
 10
10.0939136721
 20
9.234941991
 30
0.0
 10
10.0958119788
 20
9.2220410254
 30
0.0
 10
10.0964498072
 20
9.2091013273
 30
0.0
 10
10.0958205114
 20
9.1962473936
 30
0.0
 10
10.0939296756
 20
9.1836030388
 30
0.0
 10
10.0907950273
 20
9.1712902083
 30
0.0
 10
10.0864463167
 20
9.1594278095
 30
0.0
 10
10.0809250826
 20
9.1481305549
 30
0.0
 10
10.0742843668
 20
9.1375077787
 30
0.0
 10
10.0665881537
 20
9.1276623543
 30
0.0
 10
10.0579107625
 20
9.1186896493
 30
0.0
 10
10.0483361202
 20
9.1106765514
 30
0.0
 10
10.0379569591
 20
9.1037005155
 30
0.0
 10
10.0268738174
 20
9.0978288392
 30
0.0
 10
10.0151939676
 20
9.0931180205
 30
0.0
 10
10.0030304993
 20
9.0896131967
 30
0.0
 10
9.9905005952
 20
9.0873478011
 30
0.0
 10
9.9777267033
 20
9.0863429549
 30
0.0
 10
9.969155369
 20
9.0865193086
 30
0.0
 10
9.9648727045
 20
9.0868163124
 30
0.0
  0
SPLINE
  5
37C
100
AcDbEntity
  8
0
100
AcDbSpline
 62
7
  6
CONTINUOUS
 70
0
 71
3
 72
39
 73
35
 74
0
 42
0.0000001
 43
0.0000001
 44
0.0000000001
 40
0.0
 40
0.0
 40
0.0
 40
0.0
 40
0.0314026134
 40
0.06300949
 40
0.0948071102
 40
0.1267734453
 40
0.1588809722
 40
0.1910970226
 40
0.2233851132
 40
0.2557062446
 40
0.2880202663
 40
0.3202872751
 40
0.3524690067
 40
0.384530184
 40
0.4164397927
 40
0.448172249
 40
0.4797084083
 40
0.5110363809
 40
0.5421521201
 40
0.5730597413
 40
0.6037715194
 40
0.6343075569
 40
0.6646951118
 40
0.6949675896
 40
0.7251632184
 40
0.755323478
 40
0.7854913548
 40
0.8157095105
 40
0.8460184691
 40
0.8764549222
 40
0.9070502335
 40
0.9378293335
 40
0.9688091139
 40
1.0
 40
1.0
 40
1.0
 40
1.0
 10
9.9648727045
 20
9.0868163124
 30
0.0
 10
9.9605609688
 20
9.0871153323
 30
0.0
 10
9.9519331934
 20
9.0881402298
 30
0.0
 10
9.9391654024
 20
9.0909238508
 30
0.0
 10
9.9266450924
 20
9.0949319341
 30
0.0
 10
9.9144940557
 20
9.1001256375
 30
0.0
 10
9.9028285094
 20
9.10645479
 30
0.0
 10
9.891760469
 20
9.1138583897
 30
0.0
 10
9.8813960699
 20
9.1222652098
 30
0.0
 10
9.8718347629
 20
9.1315944821
 30
0.0
 10
9.8631683332
 20
9.1417566539
 30
0.0
 10
9.8554799909
 20
9.152654185
 30
0.0
 10
9.8488436334
 20
9.1641825215
 30
0.0
 10
9.8433231515
 20
9.176231072
 30
0.0
 10
9.838971825
 20
9.1886842381
 30
0.0
 10
9.8358317369
 20
9.2014224741
 30
0.0
 10
9.8339334303
 20
9.2143234397
 30
0.0
 10
9.8332956019
 20
9.2272631378
 30
0.0
 10
9.8339248977
 20
9.2401170715
 30
0.0
 10
9.8358157335
 20
9.2527614263
 30
0.0
 10
9.8389503817
 20
9.2650742568
 30
0.0
 10
9.8432990923
 20
9.2769366556
 30
0.0
 10
9.8488203265
 20
9.2882339102
 30
0.0
 10
9.8554610423
 20
9.2988566864
 30
0.0
 10
9.8631572554
 20
9.3087021108
 30
0.0
 10
9.8718346466
 20
9.3176748158
 30
0.0
 10
9.8814092888
 20
9.3256879137
 30
0.0
 10
9.89178845
 20
9.3326639496
 30
0.0
 10
9.9028715917
 20
9.3385356259
 30
0.0
 10
9.9145514415
 20
9.3432464446
 30
0.0
 10
9.9267149098
 20
9.3467512684
 30
0.0
 10
9.9392448138
 20
9.349016664
 30
0.0
 10
9.9520187058
 20
9.3500215102
 30
0.0
 10
9.9605900401
 20
9.3498451565
 30
0.0
 10
9.9648727045
 20
9.3495481527
 30
0.0
  0
SPLINE
  5
37D
100
AcDbEntity
  8
0
100
AcDbSpline
 62
7
  6
CONTINUOUS
 70
0
 71
3
 72
21
 73
17
 74
0
 42
0.0000001
 43
0.0000001
 44
0.0000000001
 40
0.0
 40
0.0
 40
0.0
 40
0.0
 40
0.1273176366
 40
0.2537999756
 40
0.3167619475
 40
0.3795355041
 40
0.4421314991
 40
0.5045621439
 40
0.5668413432
 40
0.6289845283
 40
0.6910084528
 40
0.7529310935
 40
0.8147714495
 40
0.8765493365
 40
0.9382852194
 40
1.0
 40
1.0
 40
1.0
 40
1.0
 10
12.0464430535
 20
6.4175288892
 30
0.0
 10
12.0464430535
 20
6.4242736434
 30
0.0
 10
12.0470868848
 20
6.4377275827
 30
0.0
 10
12.0495184266
 20
6.4543595587
 30
0.0
 10
12.0524246598
 20
6.4674058899
 30
0.0
 10
12.0550749882
 20
6.4770288684
 30
0.0
 10
12.0581929213
 20
6.4864808625
 30
0.0
 10
12.0617713148
 20
6.4957403351
 30
0.0
 10
12.0658018919
 20
6.5047858779
 30
0.0
 10
12.0702754143
 20
6.5135966304
 30
0.0
 10
12.0751815914
 20
6.5221522528
 30
0.0
 10
12.0805090804
 20
6.53043304
 30
0.0
 10
12.0862456101
 20
6.5384198588
 30
0.0
 10
12.0923780522
 20
6.5460943216
 30
0.0
 10
12.0988919763
 20
6.5534385204
 30
0.0
 10
12.1034797757
 20
6.5581040353
 30
0.0
 10
12.1058312995
 20
6.5603754332
 30
0.0
  0
SPLINE
  5
37E
100
AcDbEntity
  8
0
100
AcDbSpline
 62
7
  6
CONTINUOUS
 70
0
 71
3
 72
15
 73
11
 74
0
 42
0.0000001
 43
0.0000001
 44
0.0000000001
 40
0.0
 40
0.0
 40
0.0
 40
0.0
 40
0.1233171261
 40
0.2468171865
 40
0.3706749939
 40
0.4950495802
 40
0.6200773232
 40
0.7458671315
 40
0.872492731
 40
1.0
 40
1.0
 40
1.0
 40
1.0
 10
12.1007405811
 20
9.0008603037
 30
0.0
 10
12.0982160474
 20
8.9984218126
 30
0.0
 10
12.0928960768
 20
8.9938093869
 30
0.0
 10
12.0842133605
 20
8.9877821967
 30
0.0
 10
12.0749095356
 20
8.9827013554
 30
0.0
 10
12.0650798349
 20
8.9786190849
 30
0.0
 10
12.0548234131
 20
8.9755759144
 30
0.0
 10
12.0442435888
 20
8.9736022713
 30
0.0
 10
12.0334483579
 20
8.9727173522
 30
0.0
 10
12.0262020757
 20
8.9728586937
 30
0.0
 10
12.0225815937
 20
8.973109775
 30
0.0
  0
SPLINE
  5
37F
100
AcDbEntity
  8
0
100
AcDbSpline
 62
7
  6
CONTINUOUS
 70
0
 71
3
 72
15
 73
11
 74
0
 42
0.0000001
 43
0.0000001
 44
0.0000000001
 40
0.0
 40
0.0
 40
0.0
 40
0.0
 40
0.1273482936
 40
0.2538605366
 40
0.3795879111
 40
0.5046050899
 40
0.6290174366
 40
0.7529533732
 40
0.8765605776
 40
1.0
 40
1.0
 40
1.0
 40
1.0
 10
11.9139149318
 20
7.3380889036
 30
0.0
 10
11.9139149318
 20
7.341553679
 30
0.0
 10
11.9142457467
 20
7.3484652734
 30
0.0
 10
11.9157418336
 20
7.3586997348
 30
0.0
 10
11.9182225948
 20
7.3686770415
 30
0.0
 10
11.9216656275
 20
7.3783038857
 30
0.0
 10
11.9260393256
 20
7.3874914909
 30
0.0
 10
11.931303834
 20
7.3961550183
 30
0.0
 10
11.9374096641
 20
7.4042132787
 30
0.0
 10
11.9420070326
 20
7.4091357334
 30
0.0
 10
11.9444226063
 20
7.4114689782
 30
0.0
  0
SPLINE
  5
380
100
AcDbEntity
  8
0
100
AcDbSpline
 62
7
  6
CONTINUOUS
 70
0
 71
3
 72
23
 73
19
 74
0
 42
0.0000001
 43
0.0000001
 44
0.0000000001
 40
0.0
 40
0.0
 40
0.0
 40
0.0
 40
0.0614488807
 40
0.1232974294
 40
0.1855193177
 40
0.2480712672
 40
0.3108995318
 40
0.3739401513
 40
0.4371217414
 40
0.5003679843
 40
0.5636003151
 40
0.6267406524
 40
0.6897141172
 40
0.7524516838
 40
0.8148926113
 40
0.8769871451
 40
0.9386966623
 40
1.0
 40
1.0
 40
1.0
 40
1.0
 10
12.0225815937
 20
7.2218861831
 30
0.0
 10
12.0190149006
 20
7.2221335341
 30
0.0
 10
12.0118779557
 20
7.2229813325
 30
0.0
 10
12.0013163637
 20
7.2252839652
 30
0.0
 10
11.9909594905
 20
7.2285994772
 30
0.0
 10
11.9809080833
 20
7.232895747
 30
0.0
 10
11.9712582665
 20
7.2381312401
 30
0.0
 10
11.9621027161
 20
7.2442555397
 30
0.0
 10
11.9535292333
 20
7.2512097222
 30
0.0
 10
11.9456200737
 20
7.2589269604
 30
0.0
 10
11.9384511423
 20
7.2673331591
 30
0.0
 10
11.9320912883
 20
7.2763476539
 30
0.0
 10
11.9266016557
 20
7.2858839592
 30
0.0
 10
11.9220351023
 20
7.2958506142
 30
0.0
 10
11.9184356422
 20
7.3061518892
 30
0.0
 10
11.9158381677
 20
7.316689237
 30
0.0
 10
11.9142678353
 20
7.3273601383
 30
0.0
 10
11.9139149318
 20
7.334522112
 30
0.0
 10
11.9139149318
 20
7.3380889036
 30
0.0
  0
SPLINE
  5
381
100
AcDbEntity
  8
0
100
AcDbSpline
 62
7
  6
CONTINUOUS
 70
0
 71
3
 72
15
 73
11
 74
0
 42
0.0000001
 43
0.0000001
 44
0.0000000001
 40
0.0
 40
0.0
 40
0.0
 40
0.0
 40
0.1233171261
 40
0.2468171865
 40
0.3706749939
 40
0.4950495802
 40
0.6200773232
 40
0.7458671315
 40
0.872492731
 40
1.0
 40
1.0
 40
1.0
 40
1.0
 10
12.1007405811
 20
7.2496367119
 30
0.0
 10
12.0982160474
 20
7.2471982208
 30
0.0
 10
12.0928960768
 20
7.242585795
 30
0.0
 10
12.0842133605
 20
7.2365586048
 30
0.0
 10
12.0749095356
 20
7.2314777636
 30
0.0
 10
12.0650798349
 20
7.2273954931
 30
0.0
 10
12.0548234131
 20
7.2243523226
 30
0.0
 10
12.0442435888
 20
7.2223786795
 30
0.0
 10
12.0334483579
 20
7.2214937603
 30
0.0
 10
12.0262020757
 20
7.2216351019
 30
0.0
 10
12.0225815937
 20
7.2218861831
 30
0.0
  0
SPLINE
  5
382
100
AcDbEntity
  8
0
100
AcDbSpline
 62
7
  6
CONTINUOUS
 70
0
 71
3
 72
15
 73
11
 74
0
 42
0.0000001
 43
0.0000001
 44
0.0000000001
 40
0.0
 40
0.0
 40
0.0
 40
0.0
 40
0.1233171261
 40
0.2468171865
 40
0.3706749939
 40
0.4950495802
 40
0.6200773232
 40
0.7458671315
 40
0.872492731
 40
1.0
 40
1.0
 40
1.0
 40
1.0
 10
10.0491139344
 20
7.3919175031
 30
0.0
 10
10.0465894008
 20
7.389479012
 30
0.0
 10
10.0412694302
 20
7.3848665862
 30
0.0
 10
10.0325867139
 20
7.378839396
 30
0.0
 10
10.0232828889
 20
7.3737585548
 30
0.0
 10
10.0134531883
 20
7.3696762843
 30
0.0
 10
10.0031967665
 20
7.3666331138
 30
0.0
 10
9.9926169422
 20
7.3646594707
 30
0.0
 10
9.9818217113
 20
7.3637745515
 30
0.0
 10
9.9745754291
 20
7.3639158931
 30
0.0
 10
9.9709549471
 20
7.3641669743
 30
0.0
  0
SPLINE
  5
383
100
AcDbEntity
  8
0
100
AcDbSpline
 62
7
  6
CONTINUOUS
 70
0
 71
3
 72
21
 73
17
 74
0
 42
0.0000001
 43
0.0000001
 44
0.0000000001
 40
0.0
 40
0.0
 40
0.0
 40
0.0
 40
0.1273176366
 40
0.2537999756
 40
0.3167619475
 40
0.3795355041
 40
0.4421314991
 40
0.5045621439
 40
0.5668413432
 40
0.6289845283
 40
0.6910084528
 40
0.7529310935
 40
0.8147714495
 40
0.8765493365
 40
0.9382852194
 40
1.0
 40
1.0
 40
1.0
 40
1.0
 10
12.0464430535
 20
9.918044102
 30
0.0
 10
12.0464430535
 20
9.9247888562
 30
0.0
 10
12.0470868848
 20
9.9382427956
 30
0.0
 10
12.0495184266
 20
9.9548747715
 30
0.0
 10
12.0524246598
 20
9.9679211027
 30
0.0
 10
12.0550749882
 20
9.9775440812
 30
0.0
 10
12.0581929213
 20
9.9869960754
 30
0.0
 10
12.0617713148
 20
9.996255548
 30
0.0
 10
12.0658018919
 20
10.0053010907
 30
0.0
 10
12.0702754143
 20
10.0141118432
 30
0.0
 10
12.0751815914
 20
10.0226674656
 30
0.0
 10
12.0805090804
 20
10.0309482528
 30
0.0
 10
12.0862456101
 20
10.0389350716
 30
0.0
 10
12.0923780522
 20
10.0466095344
 30
0.0
 10
12.0988919763
 20
10.0539537332
 30
0.0
 10
12.1034797757
 20
10.0586192481
 30
0.0
 10
12.1058312995
 20
10.060890646
 30
0.0
  0
SPLINE
  5
384
100
AcDbEntity
  8
0
100
AcDbSpline
 62
7
  6
CONTINUOUS
 70
0
 71
3
 72
21
 73
17
 74
0
 42
0.0000001
 43
0.0000001
 44
0.0000000001
 40
0.0
 40
0.0
 40
0.0
 40
0.0
 40
0.1273176366
 40
0.2537999756
 40
0.3167619475
 40
0.3795355041
 40
0.4421314991
 40
0.5045621439
 40
0.5668413432
 40
0.6289845283
 40
0.6910084528
 40
0.7529310935
 40
0.8147714495
 40
0.8765493365
 40
0.9382852194
 40
1.0
 40
1.0
 40
1.0
 40
1.0
 10
10.3869823331
 20
8.3736675173
 30
0.0
 10
10.3869823331
 20
8.3804122716
 30
0.0
 10
10.3876261644
 20
8.3938662109
 30
0.0
 10
10.3900577062
 20
8.4104981869
 30
0.0
 10
10.3929639394
 20
8.423544518
 30
0.0
 10
10.3956142678
 20
8.4331674966
 30
0.0
 10
10.3987322009
 20
8.4426194907
 30
0.0
 10
10.4023105944
 20
8.4518789633
 30
0.0
 10
10.4063411715
 20
8.4609245061
 30
0.0
 10
10.4108146939
 20
8.4697352585
 30
0.0
 10
10.415720871
 20
8.478290881
 30
0.0
 10
10.42104836
 20
8.4865716681
 30
0.0
 10
10.4267848897
 20
8.494558487
 30
0.0
 10
10.4329173318
 20
8.5022329497
 30
0.0
 10
10.4394312559
 20
8.5095771486
 30
0.0
 10
10.4440190553
 20
8.5142426635
 30
0.0
 10
10.4463705791
 20
8.5165140614
 30
0.0
  0
SPLINE
  5
385
100
AcDbEntity
  8
0
100
AcDbSpline
 62
7
  6
CONTINUOUS
 70
0
 71
3
 72
39
 73
35
 74
0
 42
0.0000001
 43
0.0000001
 44
0.0000000001
 40
0.0
 40
0.0
 40
0.0
 40
0.0
 40
0.0314026134
 40
0.06300949
 40
0.0948071102
 40
0.1267734453
 40
0.1588809722
 40
0.1910970226
 40
0.2233851132
 40
0.2557062446
 40
0.2880202663
 40
0.3202872751
 40
0.3524690067
 40
0.384530184
 40
0.4164397927
 40
0.448172249
 40
0.4797084083
 40
0.5110363809
 40
0.5421521201
 40
0.5730597413
 40
0.6037715194
 40
0.6343075569
 40
0.6646951118
 40
0.6949675896
 40
0.7251632184
 40
0.755323478
 40
0.7854913548
 40
0.8157095105
 40
0.8460184691
 40
0.8764549222
 40
0.9070502335
 40
0.9378293335
 40
0.9688091139
 40
1.0
 40
1.0
 40
1.0
 40
1.0
 10
12.0164993511
 20
9.2072673615
 30
0.0
 10
12.0208110868
 20
9.2069683416
 30
0.0
 10
12.0294388623
 20
9.2059434441
 30
0.0
 10
12.0422066533
 20
9.2031598231
 30
0.0
 10
12.0547269633
 20
9.1991517398
 30
0.0
 10
12.066878
 20
9.1939580364
 30
0.0
 10
12.0785435462
 20
9.1876288839
 30
0.0
 10
12.0896115867
 20
9.1802252842
 30
0.0
 10
12.0999759857
 20
9.1718184641
 30
0.0
 10
12.1095372928
 20
9.1624891918
 30
0.0
 10
12.1182037225
 20
9.15232702
 30
0.0
 10
12.1258920647
 20
9.1414294889
 30
0.0
 10
12.1325284223
 20
9.1299011524
 30
0.0
 10
12.1380489041
 20
9.117852602
 30
0.0
 10
12.1424002307
 20
9.1053994358
 30
0.0
 10
12.1455403187
 20
9.0926611998
 30
0.0
 10
12.1474386254
 20
9.0797602343
 30
0.0
 10
12.1480764538
 20
9.0668205361
 30
0.0
 10
12.147447158
 20
9.0539666024
 30
0.0
 10
12.1455563222
 20
9.0413222477
 30
0.0
 10
12.142421674
 20
9.0290094171
 30
0.0
 10
12.1380729633
 20
9.0171470183
 30
0.0
 10
12.1325517292
 20
9.0058497637
 30
0.0
 10
12.1259110134
 20
8.9952269875
 30
0.0
 10
12.1182148003
 20
8.9853815631
 30
0.0
 10
12.1095374091
 20
8.9764088581
 30
0.0
 10
12.0999627668
 20
8.9683957602
 30
0.0
 10
12.0895836057
 20
8.9614197243
 30
0.0
 10
12.078500464
 20
8.955548048
 30
0.0
 10
12.0668206142
 20
8.9508372293
 30
0.0
 10
12.0546571459
 20
8.9473324055
 30
0.0
 10
12.0421272418
 20
8.9450670099
 30
0.0
 10
12.0293533499
 20
8.9440621637
 30
0.0
 10
12.0207820156
 20
8.9442385174
 30
0.0
 10
12.0164993511
 20
8.9445355212
 30
0.0
  0
SPLINE
  5
386
100
AcDbEntity
  8
0
100
AcDbSpline
 62
7
  6
CONTINUOUS
 70
0
 71
3
 72
39
 73
35
 74
0
 42
0.0000001
 43
0.0000001
 44
0.0000000001
 40
0.0
 40
0.0
 40
0.0
 40
0.0
 40
0.0314026134
 40
0.06300949
 40
0.0948071102
 40
0.1267734453
 40
0.1588809722
 40
0.1910970226
 40
0.2233851132
 40
0.2557062446
 40
0.2880202663
 40
0.3202872751
 40
0.3524690067
 40
0.384530184
 40
0.4164397927
 40
0.448172249
 40
0.4797084083
 40
0.5110363809
 40
0.5421521201
 40
0.5730597413
 40
0.6037715194
 40
0.6343075569
 40
0.6646951118
 40
0.6949675896
 40
0.7251632184
 40
0.755323478
 40
0.7854913548
 40
0.8157095105
 40
0.8460184691
 40
0.8764549222
 40
0.9070502335
 40
0.9378293335
 40
0.9688091139
 40
1.0
 40
1.0
 40
1.0
 40
1.0
 10
12.0164993511
 20
8.9445355212
 30
0.0
 10
12.0121876154
 20
8.9448345411
 30
0.0
 10
12.00355984
 20
8.9458594386
 30
0.0
 10
11.990792049
 20
8.9486430596
 30
0.0
 10
11.978271739
 20
8.9526511429
 30
0.0
 10
11.9661207023
 20
8.9578448463
 30
0.0
 10
11.954455156
 20
8.9641739988
 30
0.0
 10
11.9433871156
 20
8.9715775985
 30
0.0
 10
11.9330227165
 20
8.9799844186
 30
0.0
 10
11.9234614095
 20
8.9893136909
 30
0.0
 10
11.9147949798
 20
8.9994758627
 30
0.0
 10
11.9071066375
 20
9.0103733938
 30
0.0
 10
11.90047028
 20
9.0219017303
 30
0.0
 10
11.8949497982
 20
9.0339502808
 30
0.0
 10
11.8905984716
 20
9.0464034469
 30
0.0
 10
11.8874583836
 20
9.0591416829
 30
0.0
 10
11.8855600769
 20
9.0720426485
 30
0.0
 10
11.8849222485
 20
9.0849823466
 30
0.0
 10
11.8855515443
 20
9.0978362803
 30
0.0
 10
11.8874423801
 20
9.1104806351
 30
0.0
 10
11.8905770283
 20
9.1227934656
 30
0.0
 10
11.894925739
 20
9.1346558644
 30
0.0
 10
11.9004469731
 20
9.145953119
 30
0.0
 10
11.9070876889
 20
9.1565758952
 30
0.0
 10
11.914783902
 20
9.1664213196
 30
0.0
 10
11.9234612932
 20
9.1753940247
 30
0.0
 10
11.9330359355
 20
9.1834071226
 30
0.0
 10
11.9434150966
 20
9.1903831584
 30
0.0
 10
11.9544982383
 20
9.1962548347
 30
0.0
 10
11.9661780881
 20
9.2009656534
 30
0.0
 10
11.9783415564
 20
9.2044704772
 30
0.0
 10
11.9908714604
 20
9.2067358728
 30
0.0
 10
12.0036453524
 20
9.207740719
 30
0.0
 10
12.0122166867
 20
9.2075643653
 30
0.0
 10
12.0164993511
 20
9.2072673615
 30
0.0
  0
SPLINE
  5
387
100
AcDbEntity
  8
0
100
AcDbSpline
 62
7
  6
CONTINUOUS
 70
0
 71
3
 72
15
 73
11
 74
0
 42
0.0000001
 43
0.0000001
 44
0.0000000001
 40
0.0
 40
0.0
 40
0.0
 40
0.0
 40
0.1273482936
 40
0.2538605366
 40
0.3795879111
 40
0.5046050899
 40
0.6290174366
 40
0.7529533732
 40
0.8765605776
 40
1.0
 40
1.0
 40
1.0
 40
1.0
 10
11.9139149318
 20
9.0893124955
 30
0.0
 10
11.9139149318
 20
9.0927772708
 30
0.0
 10
11.9142457467
 20
9.0996888652
 30
0.0
 10
11.9157418336
 20
9.1099233266
 30
0.0
 10
11.9182225948
 20
9.1199006333
 30
0.0
 10
11.9216656275
 20
9.1295274775
 30
0.0
 10
11.9260393256
 20
9.1387150827
 30
0.0
 10
11.931303834
 20
9.1473786101
 30
0.0
 10
11.9374096641
 20
9.1554368706
 30
0.0
 10
11.9420070326
 20
9.1603593252
 30
0.0
 10
11.9444226063
 20
9.16269257
 30
0.0
  0
SPLINE
  5
388
100
AcDbEntity
  8
0
100
AcDbSpline
 62
7
  6
CONTINUOUS
 70
0
 71
3
 72
15
 73
11
 74
0
 42
0.0000001
 43
0.0000001
 44
0.0000000001
 40
0.0
 40
0.0
 40
0.0
 40
0.0
 40
0.1273482936
 40
0.2538605366
 40
0.3795879111
 40
0.5046050899
 40
0.6290174366
 40
0.7529533732
 40
0.8765605776
 40
1.0
 40
1.0
 40
1.0
 40
1.0
 10
9.8622882852
 20
7.4803696948
 30
0.0
 10
9.8622882852
 20
7.4838344702
 30
0.0
 10
9.8626191001
 20
7.4907460646
 30
0.0
 10
9.864115187
 20
7.500980526
 30
0.0
 10
9.8665959482
 20
7.5109578327
 30
0.0
 10
9.8700389809
 20
7.5205846769
 30
0.0
 10
9.874412679
 20
7.5297722821
 30
0.0
 10
9.8796771874
 20
7.5384358094
 30
0.0
 10
9.8857830175
 20
7.5464940699
 30
0.0
 10
9.890380386
 20
7.5514165246
 30
0.0
 10
9.8927959597
 20
7.5537497693
 30
0.0
  0
SPLINE
  5
389
100
AcDbEntity
  8
0
100
AcDbSpline
 62
7
  6
CONTINUOUS
 70
0
 71
3
 72
23
 73
19
 74
0
 42
0.0000001
 43
0.0000001
 44
0.0000000001
 40
0.0
 40
0.0
 40
0.0
 40
0.0
 40
0.0614488807
 40
0.1232974294
 40
0.1855193177
 40
0.2480712672
 40
0.3108995318
 40
0.3739401513
 40
0.4371217414
 40
0.5003679843
 40
0.5636003151
 40
0.6267406524
 40
0.6897141172
 40
0.7524516838
 40
0.8148926113
 40
0.8769871451
 40
0.9386966623
 40
1.0
 40
1.0
 40
1.0
 40
1.0
 10
9.9709549471
 20
7.3641669743
 30
0.0
 10
9.967388254
 20
7.3644143253
 30
0.0
 10
9.960251309
 20
7.3652621237
 30
0.0
 10
9.9496897171
 20
7.3675647564
 30
0.0
 10
9.9393328439
 20
7.3708802684
 30
0.0
 10
9.9292814367
 20
7.3751765381
 30
0.0
 10
9.9196316198
 20
7.3804120313
 30
0.0
 10
9.9104760695
 20
7.3865363309
 30
0.0
 10
9.9019025866
 20
7.3934905134
 30
0.0
 10
9.8939934271
 20
7.4012077516
 30
0.0
 10
9.8868244957
 20
7.4096139503
 30
0.0
 10
9.8804646417
 20
7.4186284451
 30
0.0
 10
9.8749750091
 20
7.4281647504
 30
0.0
 10
9.8704084557
 20
7.4381314054
 30
0.0
 10
9.8668089956
 20
7.4484326804
 30
0.0
 10
9.864211521
 20
7.4589700282
 30
0.0
 10
9.8626411887
 20
7.4696409295
 30
0.0
 10
9.8622882852
 20
7.4768029031
 30
0.0
 10
9.8622882852
 20
7.4803696948
 30
0.0
  0
SPLINE
  5
38A
100
AcDbEntity
  8
0
100
AcDbSpline
 62
7
  6
CONTINUOUS
 70
0
 71
3
 72
21
 73
17
 74
0
 42
0.0000001
 43
0.0000001
 44
0.0000000001
 40
0.0
 40
0.0
 40
0.0
 40
0.0
 40
0.1273176366
 40
0.2537999756
 40
0.3167619475
 40
0.3795355041
 40
0.4421314991
 40
0.5045621439
 40
0.5668413432
 40
0.6289845283
 40
0.6910084528
 40
0.7529310935
 40
0.8147714495
 40
0.8765493365
 40
0.9382852194
 40
1.0
 40
1.0
 40
1.0
 40
1.0
 10
9.8731098156
 20
7.9871950514
 30
0.0
 10
9.8731098156
 20
7.9939398056
 30
0.0
 10
9.8737536469
 20
8.007393745
 30
0.0
 10
9.8761851887
 20
8.0240257209
 30
0.0
 10
9.8790914219
 20
8.0370720521
 30
0.0
 10
9.8817417503
 20
8.0466950306
 30
0.0
 10
9.8848596834
 20
8.0561470248
 30
0.0
 10
9.8884380769
 20
8.0654064974
 30
0.0
 10
9.892468654
 20
8.0744520401
 30
0.0
 10
9.8969421763
 20
8.0832627926
 30
0.0
 10
9.9018483535
 20
8.091818415
 30
0.0
 10
9.9071758424
 20
8.1000992022
 30
0.0
 10
9.9129123721
 20
8.108086021
 30
0.0
 10
9.9190448143
 20
8.1157604838
 30
0.0
 10
9.9255587383
 20
8.1231046826
 30
0.0
 10
9.9301465378
 20
8.1277701975
 30
0.0
 10
9.9324980615
 20
8.1300415954
 30
0.0
  0
SPLINE
  5
38B
100
AcDbEntity
  8
0
100
AcDbSpline
 62
7
  6
CONTINUOUS
 70
0
 71
3
 72
18
 73
14
 74
0
 42
0.0000001
 43
0.0000001
 44
0.0000000001
 40
0.0
 40
0.0
 40
0.0
 40
0.0
 40
0.0548620934
 40
0.1099281175
 40
0.1653995415
 40
0.2214731583
 40
0.2783387419
 40
0.3361775034
 40
0.4554063124
 40
0.5804415574
 40
0.7123342032
 40
0.8519579354
 40
1.0
 40
1.0
 40
1.0
 40
1.0
 10
10.704596993
 20
10.7226828912
 30
0.0
 10
10.7045969903
 20
10.7236284177
 30
0.0
 10
10.704657002
 20
10.7255235284
 30
0.0
 10
10.7049268211
 20
10.7283631128
 30
0.0
 10
10.7053763911
 20
10.7312010604
 30
0.0
 10
10.7060055603
 20
10.7340363337
 30
0.0
 10
10.7068140679
 20
10.7368682217
 30
0.0
 10
10.7081438971
 20
10.7406763502
 30
0.0
 10
10.7102742712
 20
10.7454392962
 30
0.0
 10
10.7135168365
 20
10.7510643576
 30
0.0
 10
10.7174661182
 20
10.7566530127
 30
0.0
 10
10.7221161062
 20
10.7621996421
 30
0.0
 10
10.7255744731
 20
10.7657584821
 30
0.0
 10
10.7274096126
 20
10.7675310909
 30
0.0
  0
SPLINE
  5
38C
100
AcDbEntity
  8
0
100
AcDbSpline
 62
7
  6
CONTINUOUS
 70
0
 71
3
 72
23
 73
19
 74
0
 42
0.0000001
 43
0.0000001
 44
0.0000000001
 40
0.0
 40
0.0
 40
0.0
 40
0.0
 40
0.0749625009
 40
0.1455684839
 40
0.2121600745
 40
0.2751631548
 40
0.3350982506
 40
0.3925832742
 40
0.4483295117
 40
0.5031237972
 40
0.5577983643
 40
0.613191491
 40
0.670106811
 40
0.729278715
 40
0.7913522906
 40
0.8568775564
 40
0.9263090861
 40
1.0
 40
1.0
 40
1.0
 40
1.0
 10
9.9656834971
 20
10.7726994131
 30
0.0
 10
9.9646728262
 20
10.773639949
 30
0.0
 10
9.9627662483
 20
10.7755282113
 30
0.0
 10
9.9601936997
 20
10.7784741787
 30
0.0
 10
9.9579999821
 20
10.781443467
 30
0.0
 10
9.9561883953
 20
10.7844335224
 30
0.0
 10
9.9547619313
 20
10.7874416806
 30
0.0
 10
9.9537238187
 20
10.790464878
 30
0.0
 10
9.9530769613
 20
10.7934992168
 30
0.0
 10
9.9528236635
 20
10.796539893
 30
0.0
 10
9.9529649221
 20
10.7995813764
 30
0.0
 10
9.953500151
 20
10.8026180526
 30
0.0
 10
9.9544274401
 20
10.8056448396
 30
0.0
 10
9.9557438709
 20
10.8086576149
 30
0.0
 10
9.9574463801
 20
10.8116530751
 30
0.0
 10
9.9595318812
 20
10.8146286025
 30
0.0
 10
9.9619971638
 20
10.8175813623
 30
0.0
 10
9.9638348833
 20
10.8194745827
 30
0.0
 10
9.9648110437
 20
10.8204174812
 30
0.0
  0
SPLINE
  5
38D
100
AcDbEntity
  8
0
100
AcDbSpline
 62
7
  6
CONTINUOUS
 70
0
 71
3
 72
21
 73
17
 74
0
 42
0.0000001
 43
0.0000001
 44
0.0000000001
 40
0.0
 40
0.0
 40
0.0
 40
0.0
 40
0.1273176366
 40
0.2537999756
 40
0.3167619475
 40
0.3795355041
 40
0.4421314991
 40
0.5045621439
 40
0.5668413432
 40
0.6289845283
 40
0.6910084528
 40
0.7529310935
 40
0.8147714495
 40
0.8765493365
 40
0.9382852194
 40
1.0
 40
1.0
 40
1.0
 40
1.0
 10
9.0288905522
 20
6.6267968659
 30
0.0
 10
9.0288905522
 20
6.6335416201
 30
0.0
 10
9.0295343835
 20
6.6469955595
 30
0.0
 10
9.0319659253
 20
6.6636275354
 30
0.0
 10
9.0348721584
 20
6.6766738666
 30
0.0
 10
9.0375224869
 20
6.6862968451
 30
0.0
 10
9.0406404199
 20
6.6957488393
 30
0.0
 10
9.0442188135
 20
6.7050083119
 30
0.0
 10
9.0482493906
 20
6.7140538546
 30
0.0
 10
9.0527229129
 20
6.7228646071
 30
0.0
 10
9.0576290901
 20
6.7314202295
 30
0.0
 10
9.062956579
 20
6.7397010167
 30
0.0
 10
9.0686931087
 20
6.7476878355
 30
0.0
 10
9.0748255509
 20
6.7553622983
 30
0.0
 10
9.0813394749
 20
6.7627064972
 30
0.0
 10
9.0859272744
 20
6.7673720121
 30
0.0
 10
9.0882787981
 20
6.7696434099
 30
0.0
  0
SPLINE
  5
38E
100
AcDbEntity
  8
0
100
AcDbSpline
 62
7
  6
CONTINUOUS
 70
0
 71
3
 72
15
 73
11
 74
0
 42
0.0000001
 43
0.0000001
 44
0.0000000001
 40
0.0
 40
0.0
 40
0.0
 40
0.0
 40
0.1273482936
 40
0.2538605366
 40
0.3795879111
 40
0.5046050899
 40
0.6290174366
 40
0.7529533732
 40
0.8765605776
 40
1.0
 40
1.0
 40
1.0
 40
1.0
 10
9.8622882852
 20
9.2315932866
 30
0.0
 10
9.8622882852
 20
9.235058062
 30
0.0
 10
9.8626191001
 20
9.2419696564
 30
0.0
 10
9.864115187
 20
9.2522041178
 30
0.0
 10
9.8665959482
 20
9.2621814245
 30
0.0
 10
9.8700389809
 20
9.2718082687
 30
0.0
 10
9.874412679
 20
9.2809958739
 30
0.0
 10
9.8796771874
 20
9.2896594013
 30
0.0
 10
9.8857830175
 20
9.2977176617
 30
0.0
 10
9.890380386
 20
9.3026401164
 30
0.0
 10
9.8927959597
 20
9.3049733612
 30
0.0
  0
SPLINE
  5
38F
100
AcDbEntity
  8
0
100
AcDbSpline
 62
7
  6
CONTINUOUS
 70
0
 71
3
 72
23
 73
19
 74
0
 42
0.0000001
 43
0.0000001
 44
0.0000000001
 40
0.0
 40
0.0
 40
0.0
 40
0.0
 40
0.0614488807
 40
0.1232974294
 40
0.1855193177
 40
0.2480712672
 40
0.3108995318
 40
0.3739401513
 40
0.4371217414
 40
0.5003679843
 40
0.5636003151
 40
0.6267406524
 40
0.6897141172
 40
0.7524516838
 40
0.8148926113
 40
0.8769871451
 40
0.9386966623
 40
1.0
 40
1.0
 40
1.0
 40
1.0
 10
9.9709549471
 20
9.1153905662
 30
0.0
 10
9.967388254
 20
9.1156379172
 30
0.0
 10
9.960251309
 20
9.1164857155
 30
0.0
 10
9.9496897171
 20
9.1187883482
 30
0.0
 10
9.9393328439
 20
9.1221038602
 30
0.0
 10
9.9292814367
 20
9.12640013
 30
0.0
 10
9.9196316198
 20
9.1316356231
 30
0.0
 10
9.9104760695
 20
9.1377599227
 30
0.0
 10
9.9019025866
 20
9.1447141052
 30
0.0
 10
9.8939934271
 20
9.1524313434
 30
0.0
 10
9.8868244957
 20
9.1608375421
 30
0.0
 10
9.8804646417
 20
9.1698520369
 30
0.0
 10
9.8749750091
 20
9.1793883422
 30
0.0
 10
9.8704084557
 20
9.1893549972
 30
0.0
 10
9.8668089956
 20
9.1996562722
 30
0.0
 10
9.864211521
 20
9.21019362
 30
0.0
 10
9.8626411887
 20
9.2208645213
 30
0.0
 10
9.8622882852
 20
9.228026495
 30
0.0
 10
9.8622882852
 20
9.2315932866
 30
0.0
  0
SPLINE
  5
390
100
AcDbEntity
  8
0
100
AcDbSpline
 62
7
  6
CONTINUOUS
 70
0
 71
3
 72
19
 73
15
 74
0
 42
0.0000001
 43
0.0000001
 44
0.0000000001
 40
0.0
 40
0.0
 40
0.0
 40
0.0
 40
0.0567969622
 40
0.1127631432
 40
0.1682601609
 40
0.2236598469
 40
0.2793360256
 40
0.3356566958
 40
0.3929761353
 40
0.4516290587
 40
0.5740733639
 40
0.7052207328
 40
0.8467731849
 40
1.0
 40
1.0
 40
1.0
 40
1.0
 10
12.9329059231
 20
8.0595434099
 30
0.0
 10
12.9337144447
 20
8.0592575491
 30
0.0
 10
12.935342805
 20
8.0587528631
 30
0.0
 10
12.9378258337
 20
8.0582022164
 30
0.0
 10
12.9403257371
 20
8.0578653722
 30
0.0
 10
12.9428408283
 20
8.0577425793
 30
0.0
 10
12.9453696762
 20
8.0578338857
 30
0.0
 10
12.9479107543
 20
8.058139187
 30
0.0
 10
12.9504627619
 20
8.0586580959
 30
0.0
 10
12.9539270234
 20
8.0596479864
 30
0.0
 10
12.9583018064
 20
8.0614504079
 30
0.0
 10
12.9634881182
 20
8.0644277848
 30
0.0
 10
12.9686813975
 20
8.0682399558
 30
0.0
 10
12.9720061893
 20
8.0712089722
 30
0.0
 10
12.973670219
 20
8.0728163015
 30
0.0
  0
SPLINE
  5
391
100
AcDbEntity
  8
0
100
AcDbSpline
 62
7
  6
CONTINUOUS
 70
0
 71
3
 72
15
 73
11
 74
0
 42
0.0000001
 43
0.0000001
 44
0.0000000001
 40
0.0
 40
0.0
 40
0.0
 40
0.0
 40
0.1094428859
 40
0.2224122289
 40
0.3394398045
 40
0.4609979092
 40
0.5875012361
 40
0.7193105701
 40
0.8567281191
 40
1.0
 40
1.0
 40
1.0
 40
1.0
 10
12.9429092971
 20
7.8630876176
 30
0.0
 10
12.9441954892
 20
7.8634640941
 30
0.0
 10
12.946779518
 20
7.8643345734
 30
0.0
 10
12.9506116289
 20
7.8659532124
 30
0.0
 10
12.9544537886
 20
7.8679021451
 30
0.0
 10
12.9583038745
 20
7.8701800797
 30
0.0
 10
12.9621603612
 20
7.8727856429
 30
0.0
 10
12.9660215261
 20
7.8757174634
 30
0.0
 10
12.9698854637
 20
7.8789737845
 30
0.0
 10
12.9724083559
 20
7.8813100363
 30
0.0
 10
12.973670219
 20
7.8825289025
 30
0.0
  0
SPLINE
  5
392
100
AcDbEntity
  8
0
100
AcDbSpline
 62
7
  6
CONTINUOUS
 70
0
 71
3
 72
39
 73
35
 74
0
 42
0.0000001
 43
0.0000001
 44
0.0000000001
 40
0.0
 40
0.0
 40
0.0
 40
0.0
 40
0.0228208707
 40
0.0471579263
 40
0.0729504752
 40
0.1001283135
 40
0.1286129951
 40
0.1583188559
 40
0.1891538727
 40
0.2210204113
 40
0.2538158984
 40
0.2874334421
 40
0.3217624174
 40
0.356689028
 40
0.3920968513
 40
0.4278673735
 40
0.4638805178
 40
0.5000151672
 40
0.5361496856
 40
0.5721624375
 40
0.6079323078
 40
0.6433392222
 40
0.6782646712
 40
0.7125922374
 40
0.7462081306
 40
0.7790017334
 40
0.8108661626
 40
0.8416988549
 40
0.8714021873
 40
0.8998841497
 40
0.9270590924
 40
0.9528485858
 40
0.9771824451
 40
1.0
 40
1.0
 40
1.0
 40
1.0
 10
12.9121412747
 20
8.8641566974
 30
0.0
 10
12.9135114728
 20
8.8592629522
 30
0.0
 10
12.9161334682
 20
8.8490909497
 30
0.0
 10
12.9196363059
 20
8.8332251026
 30
0.0
 10
12.9228256567
 20
8.8163050626
 30
0.0
 10
12.9256897606
 20
8.7983913845
 30
0.0
 10
12.9282181425
 20
8.7795478577
 30
0.0
 10
12.930401527
 20
8.7598418593
 30
0.0
 10
12.9322319108
 20
8.7393438995
 30
0.0
 10
12.93370258
 20
8.7181274002
 30
0.0
 10
12.9348081347
 20
8.6962684005
 30
0.0
 10
12.9355445057
 20
8.6738452779
 30
0.0
 10
12.9359089669
 20
8.6509384573
 30
0.0
 10
12.935900143
 20
8.627630117
 30
0.0
 10
12.9355180128
 20
8.6040038889
 30
0.0
 10
12.9347639082
 20
8.5801445549
 30
0.0
 10
12.9336405081
 20
8.5561377397
 30
0.0
 10
12.9321518282
 20
8.532069601
 30
0.0
 10
12.9303032059
 20
8.5080265177
 30
0.0
 10
12.9281012812
 20
8.4840947783
 30
0.0
 10
12.9255539725
 20
8.4603602687
 30
0.0
 10
12.9226704484
 20
8.4369081617
 30
0.0
 10
12.9194610956
 20
8.413822609
 30
0.0
 10
12.9159374817
 20
8.3911864357
 30
0.0
 10
12.9121123147
 20
8.3690808397
 30
0.0
 10
12.9079993988
 20
8.3475850952
 30
0.0
 10
12.9036135852
 20
8.3267762625
 30
0.0
 10
12.8989707203
 20
8.3067289019
 30
0.0
 10
12.8940875906
 20
8.2875147992
 30
0.0
 10
12.8889818578
 20
8.2692026781
 30
0.0
 10
12.8836720101
 20
8.2518579832
 30
0.0
 10
12.878177231
 20
8.2355424383
 30
0.0
 10
12.8725175214
 20
8.2203143898
 30
0.0
 10
12.8685163
 20
8.2106033502
 30
0.0
 10
12.866483589
 20
8.205946445
 30
0.0
  0
SPLINE
  5
393
100
AcDbEntity
  8
0
100
AcDbSpline
 62
7
  6
CONTINUOUS
 70
0
 71
3
 72
55
 73
51
 74
0
 42
0.0000001
 43
0.0000001
 44
0.0000000001
 40
0.0
 40
0.0
 40
0.0
 40
0.0
 40
0.0090754007
 40
0.018681917
 40
0.0288201334
 40
0.0394879658
 40
0.0506809234
 40
0.0623925816
 40
0.0746146944
 40
0.0873374457
 40
0.1005496628
 40
0.1142388231
 40
0.1283913193
 40
0.1429924485
 40
0.1580265254
 40
0.1734770172
 40
0.1893264911
 40
0.2055568025
 40
0.2390831044
 40
0.2738979499
 40
0.3098335947
 40
0.3467146813
 40
0.3843595829
 40
0.4225816937
 40
0.4611906877
 40
0.4999937664
 40
0.5387969019
 40
0.5774060666
 40
0.6156284613
 40
0.6532737569
 40
0.690155345
 40
0.7260915963
 40
0.7609071504
 40
0.7944342578
 40
0.8106650028
 40
0.8265149366
 40
0.8419659064
 40
0.8570004814
 40
0.8716021306
 40
0.8857551593
 40
0.899444874
 40
0.9126576583
 40
0.9253809899
 40
0.9376036991
 40
0.9493159581
 40
0.9605095326
 40
0.9711779833
 40
0.981316816
 40
0.9909239745
 40
1.0
 40
1.0
 40
1.0
 40
1.0
 10
12.9428792392
 20
8.9410528825
 30
0.0
 10
12.9440068863
 20
8.9387911229
 30
0.0
 10
12.9462224656
 20
8.9340820124
 30
0.0
 10
12.9493518336
 20
8.9266896848
 30
0.0
 10
12.9523775238
 20
8.9187777196
 30
0.0
 10
12.9552954122
 20
8.9103566277
 30
0.0
 10
12.9581017161
 20
8.9014374056
 30
0.0
 10
12.9607926399
 20
8.8920318043
 30
0.0
 10
12.9633646046
 20
8.8821522441
 30
0.0
 10
12.9658141773
 20
8.871811804
 30
0.0
 10
12.9681380289
 20
8.861024191
 30
0.0
 10
12.970333085
 20
8.8498037315
 30
0.0
 10
12.9723963614
 20
8.8381653364
 30
0.0
 10
12.9743250921
 20
8.8261244866
 30
0.0
 10
12.9761167051
 20
8.8136972055
 30
0.0
 10
12.9777687463
 20
8.8009000446
 30
0.0
 10
12.9792790608
 20
8.7877500313
 30
0.0
 10
12.9811209007
 20
8.7695729441
 30
0.0
 10
12.9830422337
 20
8.7460977192
 30
0.0
 10
12.9847315855
 20
8.7171059429
 30
0.0
 10
12.98581938
 20
8.6871506084
 30
0.0
 10
12.9862996194
 20
8.6563913771
 30
0.0
 10
12.9861695302
 20
8.6249920545
 30
0.0
 10
12.985429659
 20
8.5931199577
 30
0.0
 10
12.984083845
 20
8.5609449388
 30
0.0
 10
12.982139209
 20
8.5286384858
 30
0.0
 10
12.9796060979
 20
8.4963727929
 30
0.0
 10
12.9764980316
 20
8.4643198343
 30
0.0
 10
12.972831628
 20
8.4326504404
 30
0.0
 10
12.9686265262
 20
8.4015333691
 30
0.0
 10
12.9639052799
 20
8.3711344135
 30
0.0
 10
12.9586932463
 20
8.34161543
 30
0.0
 10
12.9530184031
 20
8.3131337263
 30
0.0
 10
12.9478752359
 20
8.2901478376
 30
0.0
 10
12.9435420811
 20
8.2723984733
 30
0.0
 10
12.9402311543
 20
8.2595823985
 30
0.0
 10
12.9368285554
 20
8.2471353423
 30
0.0
 10
12.9333387726
 20
8.2350738719
 30
0.0
 10
12.9297665241
 20
8.2234140418
 30
0.0
 10
12.9261165599
 20
8.2121713692
 30
0.0
 10
12.922393768
 20
8.2013608034
 30
0.0
 10
12.9186031531
 20
8.1909967029
 30
0.0
 10
12.9147497399
 20
8.1810928334
 30
0.0
 10
12.9108387234
 20
8.1716623103
 30
0.0
 10
12.9068752971
 20
8.1627176169
 30
0.0
 10
12.9028647326
 20
8.1542705584
 30
0.0
 10
12.8988124045
 20
8.1463322535
 30
0.0
 10
12.8947235768
 20
8.1389130667
 30
0.0
 10
12.8906037861
 20
8.1320228423
 30
0.0
 10
12.8877594002
 20
8.127664213
 30
0.0
 10
12.8863303547
 20
8.1255795421
 30
0.0
  0
SPLINE
  5
394
100
AcDbEntity
  8
0
100
AcDbSpline
 62
7
  6
CONTINUOUS
 70
0
 71
3
 72
81
 73
77
 74
0
 42
0.0000001
 43
0.0000001
 44
0.0000000001
 40
0.0
 40
0.0
 40
0.0
 40
0.0
 40
0.0028240138
 40
0.0056048815
 40
0.008363746
 40
0.0111222987
 40
0.0139022408
 40
0.0167247316
 40
0.0196099107
 40
0.0225765228
 40
0.0288165364
 40
0.032122739
 40
0.0355679634
 40
0.0391623377
 40
0.0429144357
 40
0.0468315318
 40
0.050919672
 40
0.0551838183
 40
0.0596280466
 40
0.0642555357
 40
0.0690687798
 40
0.0740696245
 40
0.0792592999
 40
0.0846385935
 40
0.0902077746
 40
0.1019143841
 40
0.1143746682
 40
0.1275785076
 40
0.1415116318
 40
0.1561561823
 40
0.1714911946
 40
0.1874929715
 40
0.2041353766
 40
0.2213900623
 40
0.2392266818
 40
0.2576130935
 40
0.2765155241
 40
0.2958987097
 40
0.3157260223
 40
0.3359596192
 40
0.3565605708
 40
0.3774889767
 40
0.3987040719
 40
0.4418269
 40
0.485590978
 40
0.5296508901
 40
0.5736582541
 40
0.6172652071
 40
0.6601279314
 40
0.6811751434
 40
0.7019110022
 40
0.7222952514
 40
0.7422885558
 40
0.7618526191
 40
0.7809503245
 40
0.799545857
 40
0.8176048283
 40
0.8350944194
 40
0.8519835515
 40
0.8682430742
 40
0.8838459438
 40
0.8987674503
 40
0.912985496
 40
0.9264809563
 40
0.9392380817
 40
0.9512450084
 40
0.956964983
 40
0.9624951481
 40
0.9678354378
 40
0.9729862428
 40
0.9779483905
 40
0.9827232324
 40
0.9873128547
 40
0.9917199393
 40
0.9959477
 40
1.0
 40
1.0
 40
1.0
 40
1.0
 10
12.9981283704
 20
9.0000200335
 30
0.0
 10
12.9990364185
 20
9.0002053912
 30
0.0
 10
13.0008553694
 20
9.0004968628
 30
0.0
 10
13.003597083
 20
9.0006879909
 30
0.0
 10
13.0063236128
 20
9.0006284574
 30
0.0
 10
13.009032736
 20
9.00031827
 30
0.0
 10
13.0117225621
 20
8.999757609
 30
0.0
 10
13.0143911999
 20
8.9989471843
 30
0.0
 10
13.0170371028
 20
8.9978877019
 30
0.0
 10
13.0205914361
 20
8.9961150529
 30
0.0
 10
13.0240406187
 20
8.9938556186
 30
0.0
 10
13.0273632039
 20
8.9911813761
 30
0.0
 10
13.029874673
 20
8.9888933024
 30
0.0
 10
13.0323553642
 20
8.986363375
 30
0.0
 10
13.0348046041
 20
8.9835927922
 30
0.0
 10
13.0372210922
 20
8.9805830447
 30
0.0
 10
13.0396037219
 20
8.9773356932
 30
0.0
 10
13.0419513656
 20
8.9738524407
 30
0.0
 10
13.0442628024
 20
8.9701350455
 30
0.0
 10
13.0465369362
 20
8.966185459
 30
0.0
 10
13.048772585
 20
8.9620057053
 30
0.0
 10
13.0509685913
 20
8.9575979435
 30
0.0
 10
13.0531238644
 20
8.9529644803
 30
0.0
 10
13.0552372554
 20
8.9481076958
 30
0.0
 10
13.0580446058
 20
8.9412226282
 30
0.0
 10
13.0614296483
 20
8.9320666525
 30
0.0
 10
13.0652430033
 20
8.9204077853
 30
0.0
 10
13.0688643814
 20
8.9079253935
 30
0.0
 10
13.0722861073
 20
8.8946455915
 30
0.0
 10
13.0755009136
 20
8.8805960006
 30
0.0
 10
13.078501951
 20
8.8658060267
 30
0.0
 10
13.0812828139
 20
8.8503066641
 30
0.0
 10
13.0838375566
 20
8.834130451
 30
0.0
 10
13.0861607218
 20
8.8173113915
 30
0.0
 10
13.0882473547
 20
8.7998848775
 30
0.0
 10
13.0900929978
 20
8.7818875988
 30
0.0
 10
13.0916937054
 20
8.7633574595
 30
0.0
 10
13.0930460499
 20
8.7443335024
 30
0.0
 10
13.0941471472
 20
8.7248558271
 30
0.0
 10
13.0949946454
 20
8.7049654955
 30
0.0
 10
13.0955867201
 20
8.6847044531
 30
0.0
 10
13.0959221171
 20
8.6641153881
 30
0.0
 10
13.0960265367
 20
8.6361326224
 30
0.0
 10
13.0955048818
 20
8.6006562447
 30
0.0
 10
13.0938627455
 20
8.5577102862
 30
0.0
 10
13.0912144785
 20
8.5145237197
 30
0.0
 10
13.0875824207
 20
8.4714604777
 30
0.0
 10
13.0829971885
 20
8.4288834543
 30
0.0
 10
13.0783869711
 20
8.3938976322
 30
0.0
 10
13.0742429347
 20
8.3664291352
 30
0.0
 10
13.0709419157
 20
8.34629554
 30
0.0
 10
13.0674362265
 20
8.3265477506
 30
0.0
 10
13.0637332533
 20
8.3072273748
 30
0.0
 10
13.0598408366
 20
8.2883751523
 30
0.0
 10
13.0557672212
 20
8.2700308127
 30
0.0
 10
13.0515210406
 20
8.2522330035
 30
0.0
 10
13.0471112918
 20
8.2350192114
 30
0.0
 10
13.042547316
 20
8.2184256814
 30
0.0
 10
13.0378387848
 20
8.202487328
 30
0.0
 10
13.032995688
 20
8.1872376508
 30
0.0
 10
13.028028294
 20
8.1727086696
 30
0.0
 10
13.0229471286
 20
8.1589308453
 30
0.0
 10
13.0177629436
 20
8.1459330278
 30
0.0
 10
13.0124866991
 20
8.1337422661
 30
0.0
 10
13.007129535
 20
8.1223840822
 30
0.0
 10
13.0025358565
 20
8.1134938348
 30
0.0
 10
12.9988211623
 20
8.1068258072
 30
0.0
 10
12.9960670798
 20
8.1021286031
 30
0.0
 10
12.9933011965
 20
8.0976564977
 30
0.0
 10
12.9905249635
 20
8.0934118119
 30
0.0
 10
12.9877398508
 20
8.0893967529
 30
0.0
 10
12.9849472324
 20
8.0856134116
 30
0.0
 10
12.9821485541
 20
8.0820636818
 30
0.0
 10
12.9793451564
 20
8.0787494122
 30
0.0
 10
12.976538662
 20
8.0756724865
 30
0.0
 10
12.9746267321
 20
8.0737402223
 30
0.0
 10
12.973670219
 20
8.0728163015
 30
0.0
  0
SPLINE
  5
395
100
AcDbEntity
  8
0
100
AcDbSpline
 62
7
  6
CONTINUOUS
 70
0
 71
3
 72
83
 73
79
 74
0
 42
0.0000001
 43
0.0000001
 44
0.0000000001
 40
0.0
 40
0.0
 40
0.0
 40
0.0
 40
0.0028619825
 40
0.0058136913
 40
0.0088683181
 40
0.0120376163
 40
0.0153318807
 40
0.0187600704
 40
0.0223299103
 40
0.0260479592
 40
0.0299198021
 40
0.0339500752
 40
0.038142624
 40
0.0425005885
 40
0.047026433
 40
0.0517221069
 40
0.0565890098
 40
0.0616281123
 40
0.0668399918
 40
0.0722248228
 40
0.0777825026
 40
0.0835125828
 40
0.0954864725
 40
0.1081384899
 40
0.1214566957
 40
0.1354261987
 40
0.1500295123
 40
0.1652468454
 40
0.181056354
 40
0.197434343
 40
0.2143554357
 40
0.231792717
 40
0.2497178641
 40
0.2681012778
 40
0.2869121942
 40
0.3061187877
 40
0.3256882652
 40
0.3455869597
 40
0.3657804303
 40
0.3862335511
 40
0.4069105983
 40
0.4277753333
 40
0.4699202175
 40
0.5123719542
 40
0.554830867
 40
0.5969972165
 40
0.6178779855
 40
0.6385745556
 40
0.6590506451
 40
0.6792704772
 40
0.6991988641
 40
0.718801294
 40
0.7380440225
 40
0.7568941716
 40
0.7753198187
 40
0.7932900922
 40
0.8107752748
 40
0.8277469175
 40
0.8441779688
 40
0.8600428981
 40
0.8753178403
 40
0.8899807637
 40
0.9040116722
 40
0.9173928521
 40
0.9301091481
 40
0.9421483189
 40
0.9479113003
 40
0.9535019991
 40
0.9589199048
 40
0.9641648595
 40
0.9692369872
 40
0.9741367703
 40
0.9788650894
 40
0.9834232404
 40
0.9878131398
 40
0.9920372272
 40
0.9960983827
 40
1.0
 40
1.0
 40
1.0
 40
1.0
 10
13.0352640672
 20
9.1931645255
 30
0.0
 10
13.0364522001
 20
9.1926258768
 30
0.0
 10
13.0388238426
 20
9.1914370771
 30
0.0
 10
13.0422991798
 20
9.1893664227
 30
0.0
 10
13.0457409085
 20
9.1869847445
 30
0.0
 10
13.0491472323
 20
9.184293478
 30
0.0
 10
13.0525168864
 20
9.1812941009
 30
0.0
 10
13.0558484659
 20
9.1779881364
 30
0.0
 10
13.0591405664
 20
9.174377168
 30
0.0
 10
13.0623918756
 20
9.1704629642
 30
0.0
 10
13.065600935
 20
9.1662473017
 30
0.0
 10
13.068766404
 20
9.1617321719
 30
0.0
 10
13.0718868776
 20
9.1569196503
 30
0.0
 10
13.0749609282
 20
9.1518119425
 30
0.0
 10
13.0779872301
 20
9.1464114361
 30
0.0
 10
13.0809643343
 20
9.1407205987
 30
0.0
 10
13.0838909216
 20
9.134742089
 30
0.0
 10
13.0867656274
 20
9.1284786772
 30
0.0
 10
13.0895870895
 20
9.1219332687
 30
0.0
 10
13.0923540405
 20
9.1151089323
 30
0.0
 10
13.0950651536
 20
9.1080088255
 30
0.0
 10
13.0986565783
 20
9.0980320283
 30
0.0
 10
13.1029845161
 20
9.084886464
 30
0.0
 10
13.1078625669
 20
9.0682905088
 30
0.0
 10
13.1124891914
 20
9.050680733
 30
0.0
 10
13.1168556201
 20
9.0320901369
 30
0.0
 10
13.120953551
 20
9.0125533857
 30
0.0
 10
13.1247751938
 20
8.9921070726
 30
0.0
 10
13.1283132724
 20
8.9707895284
 30
0.0
 10
13.1315610482
 20
8.9486407633
 30
0.0
 10
13.1345123308
 20
8.9257023784
 30
0.0
 10
13.1371614966
 20
8.9020174898
 30
0.0
 10
13.1395035054
 20
8.8776306417
 30
0.0
 10
13.1415338965
 20
8.8525877139
 30
0.0
 10
13.1432488006
 20
8.8269358288
 30
0.0
 10
13.1446449442
 20
8.8007232642
 30
0.0
 10
13.145719661
 20
8.7739993636
 30
0.0
 10
13.1464709016
 20
8.7468144435
 30
0.0
 10
13.1468972282
 20
8.7192196889
 30
0.0
 10
13.1469978086
 20
8.6912670719
 30
0.0
 10
13.1467724561
 20
8.6630091879
 30
0.0
 10
13.1460353882
 20
8.6248700922
 30
0.0
 10
13.1443001229
 20
8.5768264076
 30
0.0
 10
13.1409485343
 20
8.5190053378
 30
0.0
 10
13.1363456484
 20
8.4612605893
 30
0.0
 10
13.1314807067
 20
8.4134119031
 30
0.0
 10
13.1269837757
 20
8.3755055054
 30
0.0
 10
13.1233335641
 20
8.3474565647
 30
0.0
 10
13.1194019928
 20
8.3197499396
 30
0.0
 10
13.1151964547
 20
8.2924377631
 30
0.0
 10
13.1107248989
 20
8.2655714729
 30
0.0
 10
13.1059957657
 20
8.239201652
 30
0.0
 10
13.1010179859
 20
8.2133779463
 30
0.0
 10
13.09580097
 20
8.188148961
 30
0.0
 10
13.0903545796
 20
8.1635621728
 30
0.0
 10
13.0846891109
 20
8.1396638423
 30
0.0
 10
13.0788152742
 20
8.1164989252
 30
0.0
 10
13.0727441745
 20
8.0941109801
 30
0.0
 10
13.0664873015
 20
8.0725420778
 30
0.0
 10
13.060056494
 20
8.0518327212
 30
0.0
 10
13.0534639189
 20
8.0320217716
 30
0.0
 10
13.0467220442
 20
8.0131463597
 30
0.0
 10
13.0398436123
 20
7.9952418284
 30
0.0
 10
13.0328416141
 20
7.9783415475
 30
0.0
 10
13.0257292672
 20
7.9624771802
 30
0.0
 10
13.0196359983
 20
7.9499686709
 30
0.0
 10
13.0147074383
 20
7.9405126814
 30
0.0
 10
13.0110457005
 20
7.9338014141
 30
0.0
 10
13.0073663953
 20
7.9273704007
 30
0.0
 10
13.0036712636
 20
7.9212226111
 30
0.0
 10
12.9999620026
 20
7.9153609257
 30
0.0
 10
12.9962403397
 20
7.9097880846
 30
0.0
 10
12.9925080556
 20
7.9045066647
 30
0.0
 10
12.9887667973
 20
7.8995191326
 30
0.0
 10
12.9850182912
 20
7.8948277305
 30
0.0
 10
12.9812641562
 20
7.8904346244
 30
0.0
 10
12.9775063084
 20
7.8863420507
 30
0.0
 10
12.9749493495
 20
7.8837644477
 30
0.0
 10
12.973670219
 20
7.8825289025
 30
0.0
  0
SPLINE
  5
396
100
AcDbEntity
  8
0
100
AcDbSpline
 62
7
  6
CONTINUOUS
 70
0
 71
3
 72
88
 73
84
 74
0
 42
0.0000001
 43
0.0000001
 44
0.0000000001
 40
0.0
 40
0.0
 40
0.0
 40
0.0
 40
0.0027164206
 40
0.0054532135
 40
0.00823027
 40
0.0110665466
 40
0.0139797362
 40
0.0169860264
 40
0.0200999638
 40
0.0233344621
 40
0.0267007864
 40
0.030208716
 40
0.033866602
 40
0.0376815365
 40
0.0416594862
 40
0.0458053757
 40
0.0501232805
 40
0.0546164357
 40
0.0592874172
 40
0.0641381604
 40
0.0691700473
 40
0.0743839976
 40
0.0797804461
 40
0.085359486
 40
0.0911208072
 40
0.097063806
 40
0.1031875785
 40
0.1094909314
 40
0.1226301057
 40
0.1364676988
 40
0.1509864378
 40
0.1661662591
 40
0.1819846247
 40
0.1984167804
 40
0.2154359739
 40
0.2330136371
 40
0.2511195505
 40
0.2697219952
 40
0.2887878869
 40
0.3082829001
 40
0.3281715858
 40
0.3484174815
 40
0.3689832185
 40
0.3898306305
 40
0.410920857
 40
0.4322144439
 40
0.4536714439
 40
0.4969133241
 40
0.5403214886
 40
0.5835686279
 40
0.6050302166
 40
0.6263296837
 40
0.6474270673
 40
0.6682828961
 40
0.6888582896
 40
0.7091150586
 40
0.7290158075
 40
0.7485240405
 40
0.7676042737
 40
0.7862221443
 40
0.8043445271
 40
0.8219396585
 40
0.8389772699
 40
0.8554287349
 40
0.8712672375
 40
0.8864679574
 40
0.9010082824
 40
0.9148680665
 40
0.9280299429
 40
0.9343448017
 40
0.9404801679
 40
0.9464348204
 40
0.9522078552
 40
0.9577986253
 40
0.9632068219
 40
0.9684325067
 40
0.9734760906
 40
0.9783384494
 40
0.9830208978
 40
0.9875254123
 40
0.9918545974
 40
0.9960115688
 40
1.0
 40
1.0
 40
1.0
 40
1.0
 10
13.0508983161
 20
9.1949685276
 30
0.0
 10
13.052147856
 20
9.1948818758
 30
0.0
 10
13.0546499069
 20
9.1945948146
 30
0.0
 10
13.058371143
 20
9.1938267113
 30
0.0
 10
13.0620642388
 20
9.192721098
 30
0.0
 10
13.0657265946
 20
9.1912791554
 30
0.0
 10
13.0693562969
 20
9.1895021003
 30
0.0
 10
13.0729514817
 20
9.1873913326
 30
0.0
 10
13.0765105266
 20
9.1849483971
 30
0.0
 10
13.080031788
 20
9.1821747663
 30
0.0
 10
13.0835138187
 20
9.1790721446
 30
0.0
 10
13.0869550504
 20
9.1756421572
 30
0.0
 10
13.0903540225
 20
9.1718866356
 30
0.0
 10
13.093709222
 20
9.167807475
 30
0.0
 10
13.0970190958
 20
9.16340669
 30
0.0
 10
13.1002821788
 20
9.1586864915
 30
0.0
 10
13.1034968612
 20
9.153649161
 30
0.0
 10
13.1066616835
 20
9.1482972152
 30
0.0
 10
13.1097750689
 20
9.1426332663
 30
0.0
 10
13.1128355181
 20
9.1366601197
 30
0.0
 10
13.1158415465
 20
9.1303807343
 30
0.0
 10
13.1187916213
 20
9.123798209
 30
0.0
 10
13.1216843427
 20
9.1169158322
 30
0.0
 10
13.1245182033
 20
9.1097370116
 30
0.0
 10
13.1272918394
 20
9.1022653384
 30
0.0
 10
13.1300038294
 20
9.0945045384
 30
0.0
 10
13.1326528353
 20
9.0864584797
 30
0.0
 10
13.1361474784
 20
9.0751992519
 30
0.0
 10
13.1403364034
 20
9.0604338238
 30
0.0
 10
13.1450245486
 20
9.0418811192
 30
0.0
 10
13.1494316116
 20
9.0222941672
 30
0.0
 10
13.1535486567
 20
9.0017122377
 30
0.0
 10
13.1573673041
 20
8.9801764342
 30
0.0
 10
13.1608797835
 20
8.9577298971
 30
0.0
 10
13.1640789422
 20
8.9344176202
 30
0.0
 10
13.1669582681
 20
8.9102863789
 30
0.0
 10
13.1695119026
 20
8.8853846209
 30
0.0
 10
13.1717346477
 20
8.8597623633
 30
0.0
 10
13.1736219777
 20
8.8334710854
 30
0.0
 10
13.1751700472
 20
8.8065636232
 30
0.0
 10
13.1763756984
 20
8.7790940614
 30
0.0
 10
13.1772364674
 20
8.7511176244
 30
0.0
 10
13.1777505932
 20
8.722690565
 30
0.0
 10
13.1779170179
 20
8.6938700434
 30
0.0
 10
13.1777353772
 20
8.6647140299
 30
0.0
 10
13.1772060445
 20
8.6352811101
 30
0.0
 10
13.1760349681
 20
8.5956465848
 30
0.0
 10
13.1737097051
 20
8.5458480396
 30
0.0
 10
13.1695762951
 20
8.4860905424
 30
0.0
 10
13.1650228356
 20
8.4364415694
 30
0.0
 10
13.1607254403
 20
8.3970160125
 30
0.0
 10
13.1571968545
 20
8.3677823918
 30
0.0
 10
13.1533618884
 20
8.338869141
 30
0.0
 10
13.1492282402
 20
8.3103343588
 30
0.0
 10
13.144804254
 20
8.282235436
 30
0.0
 10
13.1400988498
 20
8.2546288685
 30
0.0
 10
13.1351215198
 20
8.2275701617
 30
0.0
 10
13.1298823057
 20
8.2011137109
 30
0.0
 10
13.1243917851
 20
8.1753126894
 30
0.0
 10
13.1186610444
 20
8.1502189402
 30
0.0
 10
13.1127016574
 20
8.1258828718
 30
0.0
 10
13.1065256621
 20
8.1023533542
 30
0.0
 10
13.1001455365
 20
8.079677617
 30
0.0
 10
13.0935741716
 20
8.0579011489
 30
0.0
 10
13.0868248491
 20
8.0370675891
 30
0.0
 10
13.0799112103
 20
8.0172186559
 30
0.0
 10
13.0728472195
 20
7.9983939678
 30
0.0
 10
13.0656471371
 20
7.9806312525
 30
0.0
 10
13.0594634348
 20
7.9665555534
 30
0.0
 10
13.0544504748
 20
7.9558620364
 30
0.0
 10
13.050717729
 20
7.9482400546
 30
0.0
 10
13.0469618381
 20
7.9409090618
 30
0.0
 10
13.0431847053
 20
7.9338726993
 30
0.0
 10
13.0393882035
 20
7.9271344882
 30
0.0
 10
13.0355742217
 20
7.920697787
 30
0.0
 10
13.0317446886
 20
7.9145657829
 30
0.0
 10
13.0279014537
 20
7.9087415554
 30
0.0
 10
13.0240465016
 20
7.9032279718
 30
0.0
 10
13.0201816669
 20
7.8980277787
 30
0.0
 10
13.0163088356
 20
7.8931434956
 30
0.0
 10
13.0124298111
 20
7.8885774994
 30
0.0
 10
13.0085466599
 20
7.884332269
 30
0.0
 10
13.0059026036
 20
7.8816629963
 30
0.0
 10
13.004579848
 20
7.8803853124
 30
0.0
  0
SPLINE
  5
397
100
AcDbEntity
  8
0
100
AcDbSpline
 62
4
  6
CONTINUOUS
 70
0
 71
3
 72
325
 73
321
 74
0
 42
0.0000001
 43
0.0000001
 44
0.0000000001
 40
0.0
 40
0.0
 40
0.0
 40
0.0
 40
0.015625
 40
0.0234375
 40
0.03125
 40
0.0390625
 40
0.04296875
 40
0.046875
 40
0.05078125
 40
0.0546875
 40
0.056640625
 40
0.05859375
 40
0.060546875
 40
0.0615234375
 40
0.0620117188
 40
0.0625
 40
0.0629882812
 40
0.0634765625
 40
0.064453125
 40
0.06640625
 40
0.068359375
 40
0.0703125
 40
0.07421875
 40
0.078125
 40
0.0859375
 40
0.09375
 40
0.1015625
 40
0.10546875
 40
0.109375
 40
0.11328125
 40
0.1171875
 40
0.119140625
 40
0.12109375
 40
0.123046875
 40
0.1240234375
 40
0.1245117188
 40
0.125
 40
0.1254882812
 40
0.1259765625
 40
0.126953125
 40
0.12890625
 40
0.130859375
 40
0.1328125
 40
0.13671875
 40
0.140625
 40
0.1484375
 40
0.15625
 40
0.1640625
 40
0.16796875
 40
0.171875
 40
0.17578125
 40
0.1796875
 40
0.181640625
 40
0.18359375
 40
0.185546875
 40
0.1865234375
 40
0.1870117188
 40
0.1875
 40
0.1879882812
 40
0.1884765625
 40
0.189453125
 40
0.19140625
 40
0.193359375
 40
0.1953125
 40
0.19921875
 40
0.203125
 40
0.20703125
 40
0.2109375
 40
0.21875
 40
0.2265625
 40
0.23046875
 40
0.234375
 40
0.23828125
 40
0.2421875
 40
0.244140625
 40
0.24609375
 40
0.248046875
 40
0.2490234375
 40
0.2495117188
 40
0.25
 40
0.2504882812
 40
0.2509765625
 40
0.251953125
 40
0.25390625
 40
0.255859375
 40
0.2578125
 40
0.26171875
 40
0.265625
 40
0.26953125
 40
0.2734375
 40
0.28125
 40
0.2890625
 40
0.29296875
 40
0.296875
 40
0.30078125
 40
0.3046875
 40
0.306640625
 40
0.30859375
 40
0.310546875
 40
0.3115234375
 40
0.3120117188
 40
0.3125
 40
0.3129882812
 40
0.3134765625
 40
0.314453125
 40
0.31640625
 40
0.318359375
 40
0.3203125
 40
0.32421875
 40
0.328125
 40
0.33203125
 40
0.3359375
 40
0.34375
 40
0.3515625
 40
0.35546875
 40
0.359375
 40
0.36328125
 40
0.3671875
 40
0.369140625
 40
0.37109375
 40
0.373046875
 40
0.3740234375
 40
0.3745117188
 40
0.375
 40
0.3754882812
 40
0.3759765625
 40
0.376953125
 40
0.37890625
 40
0.380859375
 40
0.3828125
 40
0.38671875
 40
0.390625
 40
0.39453125
 40
0.3984375
 40
0.40625
 40
0.4140625
 40
0.41796875
 40
0.421875
 40
0.42578125
 40
0.4296875
 40
0.431640625
 40
0.43359375
 40
0.435546875
 40
0.4365234375
 40
0.4370117188
 40
0.4375
 40
0.4379882812
 40
0.4384765625
 40
0.439453125
 40
0.44140625
 40
0.443359375
 40
0.4453125
 40
0.44921875
 40
0.453125
 40
0.45703125
 40
0.4609375
 40
0.46875
 40
0.4765625
 40
0.484375
 40
0.48828125
 40
0.4921875
 40
0.494140625
 40
0.49609375
 40
0.498046875
 40
0.4990234375
 40
0.4995117188
 40
0.5
 40
0.5004882812
 40
0.5009765625
 40
0.501953125
 40
0.50390625
 40
0.505859375
 40
0.5078125
 40
0.51171875
 40
0.515625
 40
0.5234375
 40
0.53125
 40
0.5390625
 40
0.546875
 40
0.55078125
 40
0.5546875
 40
0.556640625
 40
0.55859375
 40
0.560546875
 40
0.5615234375
 40
0.5620117188
 40
0.5625
 40
0.5629882812
 40
0.5634765625
 40
0.564453125
 40
0.56640625
 40
0.568359375
 40
0.5703125
 40
0.57421875
 40
0.578125
 40
0.5859375
 40
0.59375
 40
0.6015625
 40
0.609375
 40
0.61328125
 40
0.6171875
 40
0.619140625
 40
0.62109375
 40
0.623046875
 40
0.6240234375
 40
0.6245117188
 40
0.625
 40
0.6254882812
 40
0.6259765625
 40
0.626953125
 40
0.62890625
 40
0.630859375
 40
0.6328125
 40
0.63671875
 40
0.640625
 40
0.6484375
 40
0.65625
 40
0.6640625
 40
0.671875
 40
0.67578125
 40
0.6796875
 40
0.681640625
 40
0.68359375
 40
0.685546875
 40
0.6865234375
 40
0.6870117188
 40
0.6875
 40
0.6879882812
 40
0.6884765625
 40
0.689453125
 40
0.69140625
 40
0.693359375
 40
0.6953125
 40
0.69921875
 40
0.703125
 40
0.7109375
 40
0.71875
 40
0.7265625
 40
0.734375
 40
0.73828125
 40
0.7421875
 40
0.744140625
 40
0.74609375
 40
0.748046875
 40
0.7490234375
 40
0.7495117188
 40
0.75
 40
0.7504882812
 40
0.7509765625
 40
0.751953125
 40
0.75390625
 40
0.755859375
 40
0.7578125
 40
0.76171875
 40
0.765625
 40
0.7734375
 40
0.78125
 40
0.7890625
 40
0.796875
 40
0.80078125
 40
0.8046875
 40
0.806640625
 40
0.80859375
 40
0.810546875
 40
0.8115234375
 40
0.8120117188
 40
0.8125
 40
0.8129882812
 40
0.8134765625
 40
0.814453125
 40
0.81640625
 40
0.818359375
 40
0.8203125
 40
0.82421875
 40
0.828125
 40
0.8359375
 40
0.84375
 40
0.8515625
 40
0.859375
 40
0.86328125
 40
0.8671875
 40
0.869140625
 40
0.87109375
 40
0.873046875
 40
0.8740234375
 40
0.8745117188
 40
0.875
 40
0.8754882812
 40
0.8759765625
 40
0.876953125
 40
0.87890625
 40
0.880859375
 40
0.8828125
 40
0.88671875
 40
0.890625
 40
0.8984375
 40
0.90625
 40
0.9140625
 40
0.921875
 40
0.92578125
 40
0.9296875
 40
0.931640625
 40
0.93359375
 40
0.935546875
 40
0.9365234375
 40
0.9370117188
 40
0.9375
 40
0.9379882812
 40
0.9384765625
 40
0.939453125
 40
0.94140625
 40
0.943359375
 40
0.9453125
 40
0.94921875
 40
0.953125
 40
0.9609375
 40
0.96875
 40
0.9765625
 40
0.984375
 40
1.0
 40
1.0
 40
1.0
 40
1.0
 10
10.9883677802
 20
7.2273283526
 30
0.0
 10
10.9852345933
 20
7.2272384281
 30
0.0
 10
10.9805348129
 20
7.2271035415
 30
0.0
 10
10.9742684391
 20
7.2269236928
 30
0.0
 10
10.9695686588
 20
7.2267888057
 30
0.0
 10
10.9656521748
 20
7.2266764018
 30
0.0
 10
10.9625189886
 20
7.226586474
 30
0.0
 10
10.9601690964
 20
7.2265190411
 30
0.0
 10
10.9578192138
 20
7.2264515588
 30
0.0
 10
10.9558609482
 20
7.2263954774
 30
0.0
 10
10.9542944032
 20
7.2263502676
 30
0.0
 10
10.9531193104
 20
7.2263173021
 30
0.0
 10
10.9521406515
 20
7.2262868349
 30
0.0
 10
10.951454442
 20
7.2262713873
 30
0.0
 10
10.9510641153
 20
7.2262533799
 30
0.0
 10
10.9507663192
 20
7.2262657349
 30
0.0
 10
10.9504878311
 20
7.226179238
 30
0.0
 10
10.9501097788
 20
7.2260983895
 30
0.0
 10
10.9494513252
 20
7.2259408394
 30
0.0
 10
10.9485090366
 20
7.2257241669
 30
0.0
 10
10.9473789925
 20
7.2254605648
 30
0.0
 10
10.9458720217
 20
7.225110351
 30
0.0
 10
10.9439883923
 20
7.2246721538
 30
0.0
 10
10.9409745382
 20
7.2239712787
 30
0.0
 10
10.9372072367
 20
7.2230951024
 30
0.0
 10
10.9326864682
 20
7.2220437255
 30
0.0
 10
10.928919162
 20
7.2211675721
 30
0.0
 10
10.9259053184
 20
7.2204666466
 30
0.0
 10
10.9236449308
 20
7.2199409646
 30
0.0
 10
10.9213845622
 20
7.2194152353
 30
0.0
 10
10.9195008627
 20
7.2189772749
 30
0.0
 10
10.9179940351
 20
7.2186265768
 30
0.0
 10
10.9168635536
 20
7.218364454
 30
0.0
 10
10.9159226337
 20
7.2181431533
 30
0.0
 10
10.9152617367
 20
7.2179938652
 30
0.0
 10
10.9148875992
 20
7.2178997788
 30
0.0
 10
10.9145970861
 20
7.2178539445
 30
0.0
 10
10.9143444538
 20
7.2177135777
 30
0.0
 10
10.9139943974
 20
7.2175593959
 30
0.0
 10
10.9133879551
 20
7.2172742147
 30
0.0
 10
10.9125183903
 20
7.216874845
 30
0.0
 10
10.9114762902
 20
7.2163921633
 30
0.0
 10
10.9100863422
 20
7.2157497887
 30
0.0
 10
10.908349072
 20
7.2149464091
 30
0.0
 10
10.9055693476
 20
7.2136612317
 30
0.0
 10
10.9020947236
 20
7.2120546811
 30
0.0
 10
10.8979251615
 20
7.2101268537
 30
0.0
 10
10.8944505286
 20
7.208520325
 30
0.0
 10
10.8916708239
 20
7.2072350993
 30
0.0
 10
10.8895860391
 20
7.2062711919
 30
0.0
 10
10.8875012785
 20
7.2053072383
 30
0.0
 10
10.8857639025
 20
7.2045040878
 30
0.0
 10
10.884374171
 20
7.2038612445
 30
0.0
 10
10.8833314097
 20
7.2033799943
 30
0.0
 10
10.8824639136
 20
7.2029761461
 30
0.0
 10
10.8818537783
 20
7.2026989596
 30
0.0
 10
10.8815096389
 20
7.2025319683
 30
0.0
 10
10.8812388314
 20
7.2024309485
 30
0.0
 10
10.8810165814
 20
7.2022373334
 30
0.0
 10
10.8807033106
 20
7.2020114783
 30
0.0
 10
10.8801629782
 20
7.2016011834
 30
0.0
 10
10.8793869491
 20
7.2010229153
 30
0.0
 10
10.87845748
 20
7.2003256261
 30
0.0
 10
10.8772175711
 20
7.1993970834
 30
0.0
 10
10.8756678967
 20
7.1982360015
 30
0.0
 10
10.8738081966
 20
7.1968428762
 30
0.0
 10
10.8719485208
 20
7.1954497045
 30
0.0
 10
10.8694689445
 20
7.1935921586
 30
0.0
 10
10.8663694776
 20
7.1912702202
 30
0.0
 10
10.8632700078
 20
7.1889482854
 30
0.0
 10
10.860790436
 20
7.1870907337
 30
0.0
 10
10.8589307469
 20
7.1856975793
 30
0.0
 10
10.8570710967
 20
7.1843043895
 30
0.0
 10
10.855521267
 20
7.183143508
 30
0.0
 10
10.8542816747
 20
7.1822145565
 30
0.0
 10
10.8533512386
 20
7.1815185159
 30
0.0
 10
10.8525782352
 20
7.1809363413
 30
0.0
 10
10.8520325014
 20
7.1805330202
 30
0.0
 10
10.8517278851
 20
7.1802959913
 30
0.0
 10
10.8514790514
 20
7.1801366986
 30
0.0
 10
10.8513080875
 20
7.1799067696
 30
0.0
 10
10.8510529737
 20
7.1796248363
 30
0.0
 10
10.8506191798
 20
7.1791199734
 30
0.0
 10
10.849992858
 20
7.1784047423
 30
0.0
 10
10.8492441038
 20
7.1775438962
 30
0.0
 10
10.8482447756
 20
7.1763969986
 30
0.0
 10
10.8469959549
 20
7.1749630688
 30
0.0
 10
10.8454972244
 20
7.173242485
 30
0.0
 10
10.8439985329
 20
7.1715218658
 30
0.0
 10
10.8420002639
 20
7.1692277194
 30
0.0
 10
10.8395024328
 20
7.1663600317
 30
0.0
 10
10.8370045982
 20
7.1634923469
 30
0.0
 10
10.8350063348
 20
7.1611981959
 30
0.0
 10
10.8335076264
 20
7.1594775906
 30
0.0
 10
10.8320089593
 20
7.1577569548
 30
0.0
 10
10.8307599415
 20
7.1563231867
 30
0.0
 10
10.8297610152
 20
7.1551759593
 30
0.0
 10
10.8290110335
 20
7.1543161203
 30
0.0
 10
10.8283885523
 20
7.1535977382
 30
0.0
 10
10.8279479023
 20
7.1530985005
 30
0.0
 10
10.8277037737
 20
7.1528075543
 30
0.0
 10
10.827499067
 20
7.15260531
 30
0.0
 10
10.8273769653
 20
7.152342038
 30
0.0
 10
10.8271853494
 20
7.1520122957
 30
0.0
 10
10.8268634464
 20
7.1514253287
 30
0.0
 10
10.8263965663
 20
7.1505919897
 30
0.0
 10
10.8258393144
 20
7.1495897635
 30
0.0
 10
10.8250952625
 20
7.1482542371
 30
0.0
 10
10.8241655577
 20
7.146584563
 30
0.0
 10
10.8230497576
 20
7.1445810682
 30
0.0
 10
10.8219339987
 20
7.1425775429
 30
0.0
 10
10.8204463058
 20
7.1399061866
 30
0.0
 10
10.8185866951
 20
7.1365669872
 30
0.0
 10
10.8167270806
 20
7.1332277901
 30
0.0
 10
10.8152393938
 20
7.13055643
 30
0.0
 10
10.8141236167
 20
7.1285529158
 30
0.0
 10
10.8130078854
 20
7.1265493793
 30
0.0
 10
10.8120779664
 20
7.124879835
 30
0.0
 10
10.8113343512
 20
7.1235440441
 30
0.0
 10
10.8107757655
 20
7.1225426255
 30
0.0
 10
10.8103130587
 20
7.1217067594
 30
0.0
 10
10.8099837057
 20
7.1211243038
 30
0.0
 10
10.8098040266
 20
7.1207873333
 30
0.0
 10
10.8096452588
 20
7.1205462641
 30
0.0
 10
10.8095782636
 20
7.1202606293
 30
0.0
 10
10.8094569254
 20
7.1198953279
 30
0.0
 10
10.8092594983
 20
7.1192488077
 30
0.0
 10
10.8089696619
 20
7.118328994
 30
0.0
 10
10.8086251958
 20
7.1172235968
 30
0.0
 10
10.8081647419
 20
7.1157502999
 30
0.0
 10
10.8075895745
 20
7.1139084846
 30
0.0
 10
10.8068992022
 20
7.1116983896
 30
0.0
 10
10.8062088758
 20
7.1094882722
 30
0.0
 10
10.8052884244
 20
7.1065414569
 30
0.0
 10
10.8041378663
 20
7.1028579349
 30
0.0
 10
10.802987304
 20
7.0991744146
 30
0.0
 10
10.8020668593
 20
7.0962275964
 30
0.0
 10
10.8013765129
 20
7.0940174875
 30
0.0
 10
10.8006862153
 20
7.0918073608
 30
0.0
 10
10.8001108155
 20
7.0899656439
 30
0.0
 10
10.7996508355
 20
7.0884921465
 30
0.0
 10
10.7993049222
 20
7.0873873618
 30
0.0
 10
10.7990196139
 20
7.0864656316
 30
0.0
 10
10.7988141033
 20
7.0858225327
 30
0.0
 10
10.7987057167
 20
7.0854517495
 30
0.0
 10
10.7985989385
 20
7.085182953
 30
0.0
 10
10.7985895892
 20
7.0848786417
 30
0.0
 10
10.7985431392
 20
7.0844852813
 30
0.0
 10
10.7984776857
 20
7.0837911287
 30
0.0
 10
10.7983759024
 20
7.0828024997
 30
0.0
 10
10.7982573058
 20
7.0816148532
 30
0.0
 10
10.7980979393
 20
7.0800317759
 30
0.0
 10
10.7978991559
 20
7.0780527743
 30
0.0
 10
10.7976604338
 20
7.0756780389
 30
0.0
 10
10.7974217603
 20
7.0733032856
 30
0.0
 10
10.7971035122
 20
7.0701369542
 30
0.0
 10
10.7967057058
 20
7.0661790377
 30
0.0
 10
10.7962283456
 20
7.0614295391
 30
0.0
 10
10.7958305158
 20
7.0574716227
 30
0.0
 10
10.7955123193
 20
7.054305291
 30
0.0
 10
10.7953132928
 20
7.0523263307
 30
0.0
 10
10.7951544237
 20
7.0507431692
 30
0.0
 10
10.7950343078
 20
7.0495557798
 30
0.0
 10
10.794937278
 20
7.0485663467
 30
0.0
 10
10.7948633387
 20
7.0478736296
 30
0.0
 10
10.794830485
 20
7.0474779691
 30
0.0
 10
10.7947793723
 20
7.0471807226
 30
0.0
 10
10.7948294507
 20
7.0468853918
 30
0.0
 10
10.7948609252
 20
7.0464909492
 30
0.0
 10
10.794932451
 20
7.0458009858
 30
0.0
 10
10.7950260329
 20
7.0448151612
 30
0.0
 10
10.7951420113
 20
7.0436322413
 30
0.0
 10
10.7952953638
 20
7.0420549905
 30
0.0
 10
10.7954874945
 20
7.0400834352
 30
0.0
 10
10.7957946576
 20
7.0369289422
 30
0.0
 10
10.7961786964
 20
7.0329858275
 30
0.0
 10
10.7966395043
 20
7.028254089
 30
0.0
 10
10.7971003312
 20
7.0235223518
 30
0.0
 10
10.7974843224
 20
7.0195792337
 30
0.0
 10
10.7977915809
 20
7.0164247476
 30
0.0
 10
10.7979834692
 20
7.0144531747
 30
0.0
 10
10.7981373192
 20
7.01287596
 30
0.0
 10
10.7982517776
 20
7.0116929295
 30
0.0
 10
10.798350115
 20
7.010707451
 30
0.0
 10
10.7984131515
 20
7.0100168698
 30
0.0
 10
10.7984582281
 20
7.0096234171
 30
0.0
 10
10.7984665253
 20
7.0093250456
 30
0.0
 10
10.7985723354
 20
7.0090392195
 30
0.0
 10
10.798679402
 20
7.0086537421
 30
0.0
 10
10.798882616
 20
7.0079811955
 30
0.0
 10
10.7991646364
 20
7.0070193488
 30
0.0
 10
10.7995066074
 20
7.0058655889
 30
0.0
 10
10.7999613299
 20
7.004327083
 30
0.0
 10
10.8005301572
 20
7.0024040053
 30
0.0
 10
10.8014400438
 20
6.9993270503
 30
0.0
 10
10.8025774839
 20
6.9954808673
 30
0.0
 10
10.8039423748
 20
6.9908654424
 30
0.0
 10
10.8053072838
 20
6.9862500217
 30
0.0
 10
10.8064446785
 20
6.9824038281
 30
0.0
 10
10.807354656
 20
6.9793268943
 30
0.0
 10
10.8079232522
 20
6.9774037628
 30
0.0
 10
10.808378449
 20
6.9758653673
 30
0.0
 10
10.8087189711
 20
6.9747112704
 30
0.0
 10
10.8090055248
 20
6.9737504779
 30
0.0
 10
10.8092006462
 20
6.9730760493
 30
0.0
 10
10.8093206791
 20
6.9726935874
 30
0.0
 10
10.8093866606
 20
6.9723984985
 30
0.0
 10
10.8095445475
 20
6.9721349167
 30
0.0
 10
10.8097230057
 20
6.9717724842
 30
0.0
 10
10.8100502439
 20
6.9711433478
 30
0.0
 10
10.8105099181
 20
6.9702419045
 30
0.0
 10
10.8110648697
 20
6.9691613184
 30
0.0
 10
10.8118036376
 20
6.9677201367
 30
0.0
 10
10.8127274972
 20
6.9659187966
 30
0.0
 10
10.8142054491
 20
6.9630365758
 30
0.0
 10
10.8160529662
 20
6.9594338264
 30
0.0
 10
10.8182699515
 20
6.9551105147
 30
0.0
 10
10.8204869542
 20
6.95078721
 30
0.0
 10
10.8223344278
 20
6.9471844429
 30
0.0
 10
10.8238124667
 20
6.9443022575
 30
0.0
 10
10.8247361054
 20
6.9425008273
 30
0.0
 10
10.8254753268
 20
6.9410598306
 30
0.0
 10
10.8260288928
 20
6.9399786794
 30
0.0
 10
10.826492902
 20
6.9390790041
 30
0.0
 10
10.8268124015
 20
6.9384467115
 30
0.0
 10
10.827003259
 20
6.9380893361
 30
0.0
 10
10.8271230594
 20
6.9378102204
 30
0.0
 10
10.8273320875
 20
6.9375734742
 30
0.0
 10
10.8275796681
 20
6.9372430337
 30
0.0
 10
10.8280274351
 20
6.9366716485
 30
0.0
 10
10.828659521
 20
6.9358517841
 30
0.0
 10
10.8294212691
 20
6.9348694876
 30
0.0
 10
10.8304357999
 20
6.9335592208
 30
0.0
 10
10.8317043514
 20
6.9319215716
 30
0.0
 10
10.8337338168
 20
6.9293012298
 30
0.0
 10
10.8362707234
 20
6.9260258384
 30
0.0
 10
10.8393149777
 20
6.9220953516
 30
0.0
 10
10.8423592469
 20
6.9181648758
 30
0.0
 10
10.8448961164
 20
6.9148894566
 30
0.0
 10
10.846925656
 20
6.9122691704
 30
0.0
 10
10.8481940191
 20
6.91063138
 30
0.0
 10
10.8492089365
 20
6.9093214029
 30
0.0
 10
10.8499695031
 20
6.9083382214
 30
0.0
 10
10.8506052857
 20
6.9075211262
 30
0.0
 10
10.8510464535
 20
6.9069447974
 30
0.0
 10
10.8513046077
 20
6.906622278
 30
0.0
 10
10.851481157
 20
6.9063612006
 30
0.0
 10
10.8517229425
 20
6.9061734688
 30
0.0
 10
10.8520225679
 20
6.9058975759
 30
0.0
 10
10.8525575146
 20
6.9054266834
 30
0.0
 10
10.8533161812
 20
6.9047477478
 30
0.0
 10
10.8542289536
 20
6.9039356926
 30
0.0
 10
10.8554451549
 20
6.9028520207
 30
0.0
 10
10.8569656902
 20
6.9014977498
 30
0.0
 10
10.859398388
 20
6.899330738
 30
0.0
 10
10.8624393151
 20
6.8966220348
 30
0.0
 10
10.8660884028
 20
6.8933715628
 30
0.0
 10
10.869737502
 20
6.8901211053
 30
0.0
 10
10.8727784002
 20
6.8874123657
 30
0.0
 10
10.8752111559
 20
6.8852454269
 30
0.0
 10
10.8767315442
 20
6.8838909704
 30
0.0
 10
10.8779480472
 20
6.8828076793
 30
0.0
 10
10.8788598977
 20
6.8819944606
 30
0.0
 10
10.879621449
 20
6.8813191655
 30
0.0
 10
10.8801512459
 20
6.8808417741
 30
0.0
 10
10.8804591225
 20
6.8805762941
 30
0.0
 10
10.8806755632
 20
6.8803565773
 30
0.0
 10
10.880947303
 20
6.8802156303
 30
0.0
 10
10.8812903339
 20
6.8800002251
 30
0.0
 10
10.8818996249
 20
6.8796360676
 30
0.0
 10
10.8827653422
 20
6.8791091499
 30
0.0
 10
10.883806214
 20
6.8784797133
 30
0.0
 10
10.8851933406
 20
6.8776394639
 30
0.0
 10
10.8869274894
 20
6.8765894947
 30
0.0
 10
10.889701993
 20
6.8749093526
 30
0.0
 10
10.8931701689
 20
6.8728092411
 30
0.0
 10
10.8973319592
 20
6.8702890768
 30
0.0
 10
10.9014937585
 20
6.8677689286
 30
0.0
 10
10.904961912
 20
6.8656687769
 30
0.0
 10
10.9077364605
 20
6.8639887153
 30
0.0
 10
10.9094704952
 20
6.8629385414
 30
0.0
 10
10.910857856
 20
6.8620987123
 30
0.0
 10
10.9118980126
 20
6.8614679915
 30
0.0
 10
10.9127659675
 20
6.8609450918
 30
0.0
 10
10.9133712639
 20
6.8605737613
 30
0.0
 10
10.9137206952
 20
6.8603698491
 30
0.0
 10
10.9139727749
 20
6.8601935995
 30
0.0
 10
10.9142630558
 20
6.8601064733
 30
0.0
 10
10.9146367721
 20
6.8599592178
 30
0.0
 10
10.9152969839
 20
6.8597160048
 30
0.0
 10
10.9162368978
 20
6.8593609852
 30
0.0
 10
10.9173661839
 20
6.8589382028
 30
0.0
 10
10.9188714133
 20
6.858373361
 30
0.0
 10
10.9207531163
 20
6.8576676963
 30
0.0
 10
10.9237637481
 20
6.8565384161
 30
0.0
 10
10.92752707
 20
6.8551268907
 30
0.0
 10
10.9320430418
 20
6.8534330259
 30
0.0
 10
10.93655902
 20
6.8517391788
 30
0.0
 10
10.9403223258
 20
6.8503276091
 30
0.0
 10
10.9433329898
 20
6.8491984175
 30
0.0
 10
10.945214611
 20
6.8484925277
 30
0.0
 10
10.9467200081
 20
6.8479281479
 30
0.0
 10
10.947848782
 20
6.8475039539
 30
0.0
 10
10.9487902984
 20
6.8471533512
 30
0.0
 10
10.9494476495
 20
6.8469022532
 30
0.0
 10
10.9498259494
 20
6.8467676314
 30
0.0
 10
10.9501021508
 20
6.8466416985
 30
0.0
 10
10.9504071107
 20
6.8466112002
 30
0.0
 10
10.9508036927
 20
6.8465372472
 30
0.0
 10
10.9515023848
 20
6.8464233391
 30
0.0
 10
10.9524980729
 20
6.8462525047
 30
0.0
 10
10.9536939446
 20
6.8460509741
 30
0.0
 10
10.9552880748
 20
6.8457810544
 30
0.0
 10
10.9572808626
 20
6.8454440698
 30
0.0
 10
10.9604692533
 20
6.8449046626
 30
0.0
 10
10.9644547656
 20
6.8442304831
 30
0.0
 10
10.9692373701
 20
6.8434214336
 30
0.0
 10
10.9740199773
 20
6.8426123932
 30
0.0
 10
10.980396786
 20
6.8415336695
 30
0.0
 10
10.9851793927
 20
6.8407246275
 30
0.0
 10
10.9883677971
 20
6.8401852659
 30
0.0
  0
SPLINE
  5
398
100
AcDbEntity
  8
0
100
AcDbSpline
 62
4
  6
CONTINUOUS
 70
0
 71
3
 72
325
 73
321
 74
0
 42
0.0000001
 43
0.0000001
 44
0.0000000001
 40
0.0
 40
0.0
 40
0.0
 40
0.0
 40
0.015625
 40
0.0234375
 40
0.03125
 40
0.0390625
 40
0.04296875
 40
0.046875
 40
0.05078125
 40
0.0546875
 40
0.056640625
 40
0.05859375
 40
0.060546875
 40
0.0615234375
 40
0.0620117188
 40
0.0625
 40
0.0629882812
 40
0.0634765625
 40
0.064453125
 40
0.06640625
 40
0.068359375
 40
0.0703125
 40
0.07421875
 40
0.078125
 40
0.0859375
 40
0.09375
 40
0.1015625
 40
0.10546875
 40
0.109375
 40
0.11328125
 40
0.1171875
 40
0.119140625
 40
0.12109375
 40
0.123046875
 40
0.1240234375
 40
0.1245117188
 40
0.125
 40
0.1254882812
 40
0.1259765625
 40
0.126953125
 40
0.12890625
 40
0.130859375
 40
0.1328125
 40
0.13671875
 40
0.140625
 40
0.1484375
 40
0.15625
 40
0.1640625
 40
0.16796875
 40
0.171875
 40
0.17578125
 40
0.1796875
 40
0.181640625
 40
0.18359375
 40
0.185546875
 40
0.1865234375
 40
0.1870117188
 40
0.1875
 40
0.1879882812
 40
0.1884765625
 40
0.189453125
 40
0.19140625
 40
0.193359375
 40
0.1953125
 40
0.19921875
 40
0.203125
 40
0.20703125
 40
0.2109375
 40
0.21875
 40
0.2265625
 40
0.23046875
 40
0.234375
 40
0.23828125
 40
0.2421875
 40
0.244140625
 40
0.24609375
 40
0.248046875
 40
0.2490234375
 40
0.2495117188
 40
0.25
 40
0.2504882812
 40
0.2509765625
 40
0.251953125
 40
0.25390625
 40
0.255859375
 40
0.2578125
 40
0.26171875
 40
0.265625
 40
0.26953125
 40
0.2734375
 40
0.28125
 40
0.2890625
 40
0.29296875
 40
0.296875
 40
0.30078125
 40
0.3046875
 40
0.306640625
 40
0.30859375
 40
0.310546875
 40
0.3115234375
 40
0.3120117188
 40
0.3125
 40
0.3129882812
 40
0.3134765625
 40
0.314453125
 40
0.31640625
 40
0.318359375
 40
0.3203125
 40
0.32421875
 40
0.328125
 40
0.33203125
 40
0.3359375
 40
0.34375
 40
0.3515625
 40
0.35546875
 40
0.359375
 40
0.36328125
 40
0.3671875
 40
0.369140625
 40
0.37109375
 40
0.373046875
 40
0.3740234375
 40
0.3745117188
 40
0.375
 40
0.3754882812
 40
0.3759765625
 40
0.376953125
 40
0.37890625
 40
0.380859375
 40
0.3828125
 40
0.38671875
 40
0.390625
 40
0.39453125
 40
0.3984375
 40
0.40625
 40
0.4140625
 40
0.41796875
 40
0.421875
 40
0.42578125
 40
0.4296875
 40
0.431640625
 40
0.43359375
 40
0.435546875
 40
0.4365234375
 40
0.4370117188
 40
0.4375
 40
0.4379882812
 40
0.4384765625
 40
0.439453125
 40
0.44140625
 40
0.443359375
 40
0.4453125
 40
0.44921875
 40
0.453125
 40
0.45703125
 40
0.4609375
 40
0.46875
 40
0.4765625
 40
0.484375
 40
0.48828125
 40
0.4921875
 40
0.494140625
 40
0.49609375
 40
0.498046875
 40
0.4990234375
 40
0.4995117188
 40
0.5
 40
0.5004882812
 40
0.5009765625
 40
0.501953125
 40
0.50390625
 40
0.505859375
 40
0.5078125
 40
0.51171875
 40
0.515625
 40
0.5234375
 40
0.53125
 40
0.5390625
 40
0.546875
 40
0.55078125
 40
0.5546875
 40
0.556640625
 40
0.55859375
 40
0.560546875
 40
0.5615234375
 40
0.5620117188
 40
0.5625
 40
0.5629882812
 40
0.5634765625
 40
0.564453125
 40
0.56640625
 40
0.568359375
 40
0.5703125
 40
0.57421875
 40
0.578125
 40
0.5859375
 40
0.59375
 40
0.6015625
 40
0.609375
 40
0.61328125
 40
0.6171875
 40
0.619140625
 40
0.62109375
 40
0.623046875
 40
0.6240234375
 40
0.6245117188
 40
0.625
 40
0.6254882812
 40
0.6259765625
 40
0.626953125
 40
0.62890625
 40
0.630859375
 40
0.6328125
 40
0.63671875
 40
0.640625
 40
0.6484375
 40
0.65625
 40
0.6640625
 40
0.671875
 40
0.67578125
 40
0.6796875
 40
0.681640625
 40
0.68359375
 40
0.685546875
 40
0.6865234375
 40
0.6870117188
 40
0.6875
 40
0.6879882812
 40
0.6884765625
 40
0.689453125
 40
0.69140625
 40
0.693359375
 40
0.6953125
 40
0.69921875
 40
0.703125
 40
0.7109375
 40
0.71875
 40
0.7265625
 40
0.734375
 40
0.73828125
 40
0.7421875
 40
0.744140625
 40
0.74609375
 40
0.748046875
 40
0.7490234375
 40
0.7495117188
 40
0.75
 40
0.7504882812
 40
0.7509765625
 40
0.751953125
 40
0.75390625
 40
0.755859375
 40
0.7578125
 40
0.76171875
 40
0.765625
 40
0.7734375
 40
0.78125
 40
0.7890625
 40
0.796875
 40
0.80078125
 40
0.8046875
 40
0.806640625
 40
0.80859375
 40
0.810546875
 40
0.8115234375
 40
0.8120117188
 40
0.8125
 40
0.8129882812
 40
0.8134765625
 40
0.814453125
 40
0.81640625
 40
0.818359375
 40
0.8203125
 40
0.82421875
 40
0.828125
 40
0.8359375
 40
0.84375
 40
0.8515625
 40
0.859375
 40
0.86328125
 40
0.8671875
 40
0.869140625
 40
0.87109375
 40
0.873046875
 40
0.8740234375
 40
0.8745117188
 40
0.875
 40
0.8754882812
 40
0.8759765625
 40
0.876953125
 40
0.87890625
 40
0.880859375
 40
0.8828125
 40
0.88671875
 40
0.890625
 40
0.8984375
 40
0.90625
 40
0.9140625
 40
0.921875
 40
0.92578125
 40
0.9296875
 40
0.931640625
 40
0.93359375
 40
0.935546875
 40
0.9365234375
 40
0.9370117188
 40
0.9375
 40
0.9379882812
 40
0.9384765625
 40
0.939453125
 40
0.94140625
 40
0.943359375
 40
0.9453125
 40
0.94921875
 40
0.953125
 40
0.9609375
 40
0.96875
 40
0.9765625
 40
0.984375
 40
1.0
 40
1.0
 40
1.0
 40
1.0
 10
10.9883677802
 20
6.8401852671
 30
0.0
 10
10.9915009671
 20
6.8402751915
 30
0.0
 10
10.9962007475
 20
6.8404100782
 30
0.0
 10
11.0024671214
 20
6.8405899268
 30
0.0
 10
11.0071669017
 20
6.840724814
 30
0.0
 10
11.0110833856
 20
6.8408372178
 30
0.0
 10
11.0142165719
 20
6.8409271457
 30
0.0
 10
11.0165664641
 20
6.8409945786
 30
0.0
 10
11.0189163467
 20
6.8410620609
 30
0.0
 10
11.0208746122
 20
6.8411181422
 30
0.0
 10
11.0224411573
 20
6.8411633521
 30
0.0
 10
11.0236162501
 20
6.8411963176
 30
0.0
 10
11.0245949089
 20
6.8412267847
 30
0.0
 10
11.0252811185
 20
6.8412422324
 30
0.0
 10
11.0256714451
 20
6.8412602397
 30
0.0
 10
11.0259692413
 20
6.8412478847
 30
0.0
 10
11.0262477293
 20
6.8413343816
 30
0.0
 10
11.0266257816
 20
6.8414152302
 30
0.0
 10
11.0272842353
 20
6.8415727803
 30
0.0
 10
11.0282265239
 20
6.8417894528
 30
0.0
 10
11.029356568
 20
6.8420530549
 30
0.0
 10
11.0308635387
 20
6.8424032686
 30
0.0
 10
11.0327471682
 20
6.8428414658
 30
0.0
 10
11.0357610222
 20
6.843542341
 30
0.0
 10
11.0395283237
 20
6.8444185173
 30
0.0
 10
11.0440490922
 20
6.8454698941
 30
0.0
 10
11.0478163985
 20
6.8463460475
 30
0.0
 10
11.050830242
 20
6.8470469731
 30
0.0
 10
11.0530906296
 20
6.8475726551
 30
0.0
 10
11.0553509983
 20
6.8480983843
 30
0.0
 10
11.0572346978
 20
6.8485363448
 30
0.0
 10
11.0587415253
 20
6.8488870429
 30
0.0
 10
11.0598720069
 20
6.8491491657
 30
0.0
 10
11.0608129268
 20
6.8493704664
 30
0.0
 10
11.0614738237
 20
6.8495197544
 30
0.0
 10
11.0618479613
 20
6.8496138409
 30
0.0
 10
11.0621384743
 20
6.8496596752
 30
0.0
 10
11.0623911067
 20
6.849800042
 30
0.0
 10
11.062741163
 20
6.8499542237
 30
0.0
 10
11.0633476054
 20
6.850239405
 30
0.0
 10
11.0642171702
 20
6.8506387747
 30
0.0
 10
11.0652592703
 20
6.8511214563
 30
0.0
 10
11.0666492183
 20
6.851763831
 30
0.0
 10
11.0683864885
 20
6.8525672105
 30
0.0
 10
11.0711662129
 20
6.853852388
 30
0.0
 10
11.0746408369
 20
6.8554589386
 30
0.0
 10
11.0788103989
 20
6.857386766
 30
0.0
 10
11.0822850319
 20
6.8589932946
 30
0.0
 10
11.0850647366
 20
6.8602785203
 30
0.0
 10
11.0871495214
 20
6.8612424277
 30
0.0
 10
11.0892342819
 20
6.8622063813
 30
0.0
 10
11.090971658
 20
6.8630095318
 30
0.0
 10
11.0923613895
 20
6.8636523751
 30
0.0
 10
11.0934041508
 20
6.8641336254
 30
0.0
 10
11.0942716469
 20
6.8645374735
 30
0.0
 10
11.0948817822
 20
6.86481466
 30
0.0
 10
11.0952259215
 20
6.8649816514
 30
0.0
 10
11.0954967291
 20
6.8650826712
 30
0.0
 10
11.0957189791
 20
6.8652762862
 30
0.0
 10
11.0960322498
 20
6.8655021414
 30
0.0
 10
11.0965725822
 20
6.8659124362
 30
0.0
 10
11.0973486114
 20
6.8664907043
 30
0.0
 10
11.0982780804
 20
6.8671879936
 30
0.0
 10
11.0995179893
 20
6.8681165362
 30
0.0
 10
11.1010676638
 20
6.8692776182
 30
0.0
 10
11.1029273638
 20
6.8706707435
 30
0.0
 10
11.1047870396
 20
6.8720639151
 30
0.0
 10
11.1072666159
 20
6.8739214611
 30
0.0
 10
11.1103660829
 20
6.8762433995
 30
0.0
 10
11.1134655526
 20
6.8785653343
 30
0.0
 10
11.1159451245
 20
6.8804228859
 30
0.0
 10
11.1178048136
 20
6.8818160404
 30
0.0
 10
11.1196644637
 20
6.8832092301
 30
0.0
 10
11.1212142935
 20
6.8843701116
 30
0.0
 10
11.1224538857
 20
6.8852990631
 30
0.0
 10
11.1233843218
 20
6.8859951037
 30
0.0
 10
11.1241573253
 20
6.8865772784
 30
0.0
 10
11.124703059
 20
6.8869805994
 30
0.0
 10
11.1250076754
 20
6.8872176284
 30
0.0
 10
11.125256509
 20
6.8873769211
 30
0.0
 10
11.125427473
 20
6.8876068501
 30
0.0
 10
11.1256825867
 20
6.8878887834
 30
0.0
 10
11.1261163806
 20
6.8883936463
 30
0.0
 10
11.1267427024
 20
6.8891088773
 30
0.0
 10
11.1274914566
 20
6.8899697235
 30
0.0
 10
11.1284907848
 20
6.891116621
 30
0.0
 10
11.1297396056
 20
6.8925505509
 30
0.0
 10
11.131238336
 20
6.8942711347
 30
0.0
 10
11.1327370275
 20
6.8959917538
 30
0.0
 10
11.1347352965
 20
6.8982859003
 30
0.0
 10
11.1372331276
 20
6.9011535879
 30
0.0
 10
11.1397309622
 20
6.9040212727
 30
0.0
 10
11.1417292256
 20
6.9063154238
 30
0.0
 10
11.143227934
 20
6.9080360291
 30
0.0
 10
11.1447266011
 20
6.9097566649
 30
0.0
 10
11.145975619
 20
6.911190433
 30
0.0
 10
11.1469745452
 20
6.9123376603
 30
0.0
 10
11.1477245269
 20
6.9131974993
 30
0.0
 10
11.1483470082
 20
6.9139158814
 30
0.0
 10
11.1487876581
 20
6.9144151192
 30
0.0
 10
11.1490317868
 20
6.9147060654
 30
0.0
 10
11.1492364934
 20
6.9149083097
 30
0.0
 10
11.1493585952
 20
6.9151715817
 30
0.0
 10
11.149550211
 20
6.9155013239
 30
0.0
 10
11.1498721141
 20
6.9160882909
 30
0.0
 10
11.1503389941
 20
6.9169216299
 30
0.0
 10
11.150896246
 20
6.9179238562
 30
0.0
 10
11.151640298
 20
6.9192593826
 30
0.0
 10
11.1525700028
 20
6.9209290566
 30
0.0
 10
11.1536858029
 20
6.9229325514
 30
0.0
 10
11.1548015617
 20
6.9249360767
 30
0.0
 10
11.1562892546
 20
6.9276074331
 30
0.0
 10
11.1581488653
 20
6.9309466325
 30
0.0
 10
11.1600084798
 20
6.9342858296
 30
0.0
 10
11.1614961666
 20
6.9369571897
 30
0.0
 10
11.1626119438
 20
6.9389607039
 30
0.0
 10
11.1637276751
 20
6.9409642404
 30
0.0
 10
11.1646575941
 20
6.9426337847
 30
0.0
 10
11.1654012092
 20
6.9439695756
 30
0.0
 10
11.165959795
 20
6.9449709941
 30
0.0
 10
11.1664225018
 20
6.9458068602
 30
0.0
 10
11.1667518548
 20
6.9463893159
 30
0.0
 10
11.1669315339
 20
6.9467262864
 30
0.0
 10
11.1670903017
 20
6.9469673555
 30
0.0
 10
11.1671572968
 20
6.9472529904
 30
0.0
 10
11.167278635
 20
6.9476182918
 30
0.0
 10
11.1674760622
 20
6.948264812
 30
0.0
 10
11.1677658986
 20
6.9491846257
 30
0.0
 10
11.1681103646
 20
6.9502900229
 30
0.0
 10
11.1685708186
 20
6.9517633197
 30
0.0
 10
11.1691459859
 20
6.953605135
 30
0.0
 10
11.1698363583
 20
6.9558152301
 30
0.0
 10
11.1705266847
 20
6.9580253474
 30
0.0
 10
11.1714471361
 20
6.9609721628
 30
0.0
 10
11.1725976942
 20
6.9646556848
 30
0.0
 10
11.1737482564
 20
6.9683392051
 30
0.0
 10
11.1746687012
 20
6.9712860232
 30
0.0
 10
11.1753590475
 20
6.9734961322
 30
0.0
 10
11.1760493452
 20
6.9757062588
 30
0.0
 10
11.1766247449
 20
6.9775479758
 30
0.0
 10
11.1770847249
 20
6.9790214732
 30
0.0
 10
11.1774306382
 20
6.9801262578
 30
0.0
 10
11.1777159466
 20
6.9810479881
 30
0.0
 10
11.1779214571
 20
6.9816910869
 30
0.0
 10
11.1780298437
 20
6.9820618702
 30
0.0
 10
11.1781366219
 20
6.9823306666
 30
0.0
 10
11.1781459712
 20
6.982634978
 30
0.0
 10
11.1781924212
 20
6.9830283384
 30
0.0
 10
11.1782578748
 20
6.983722491
 30
0.0
 10
11.178359658
 20
6.98471112
 30
0.0
 10
11.1784782546
 20
6.9858987664
 30
0.0
 10
11.1786376211
 20
6.9874818438
 30
0.0
 10
11.1788364045
 20
6.9894608453
 30
0.0
 10
11.1790751267
 20
6.9918355808
 30
0.0
 10
11.1793138002
 20
6.994210334
 30
0.0
 10
11.1796320482
 20
6.9973766655
 30
0.0
 10
11.1800298546
 20
7.0013345819
 30
0.0
 10
11.1805072148
 20
7.0060840806
 30
0.0
 10
11.1809050447
 20
7.0100419969
 30
0.0
 10
11.1812232411
 20
7.0132083287
 30
0.0
 10
11.1814222676
 20
7.0151872889
 30
0.0
 10
11.1815811367
 20
7.0167704505
 30
0.0
 10
11.1817012526
 20
7.0179578399
 30
0.0
 10
11.1817982824
 20
7.018947273
 30
0.0
 10
11.1818722217
 20
7.0196399901
 30
0.0
 10
11.1819050754
 20
7.0200356505
 30
0.0
 10
11.1819561881
 20
7.020332897
 30
0.0
 10
11.1819061098
 20
7.0206282279
 30
0.0
 10
11.1818746352
 20
7.0210226705
 30
0.0
 10
11.1818031095
 20
7.0217126338
 30
0.0
 10
11.1817095276
 20
7.0226984584
 30
0.0
 10
11.1815935492
 20
7.0238813783
 30
0.0
 10
11.1814401967
 20
7.0254586292
 30
0.0
 10
11.181248066
 20
7.0274301844
 30
0.0
 10
11.1809409029
 20
7.0305846775
 30
0.0
 10
11.180556864
 20
7.0345277921
 30
0.0
 10
11.1800960562
 20
7.0392595307
 30
0.0
 10
11.1796352292
 20
7.0439912679
 30
0.0
 10
11.1792512381
 20
7.047934386
 30
0.0
 10
11.1789439796
 20
7.0510888721
 30
0.0
 10
11.1787520913
 20
7.053060445
 30
0.0
 10
11.1785982413
 20
7.0546376596
 30
0.0
 10
11.1784837828
 20
7.0558206901
 30
0.0
 10
11.1783854454
 20
7.0568061687
 30
0.0
 10
11.178322409
 20
7.0574967498
 30
0.0
 10
11.1782773324
 20
7.0578902025
 30
0.0
 10
11.1782690351
 20
7.0581885741
 30
0.0
 10
11.178163225
 20
7.0584744001
 30
0.0
 10
11.1780561585
 20
7.0588598775
 30
0.0
 10
11.1778529445
 20
7.0595324241
 30
0.0
 10
11.177570924
 20
7.0604942709
 30
0.0
 10
11.1772289531
 20
7.0616480308
 30
0.0
 10
11.1767742305
 20
7.0631865366
 30
0.0
 10
11.1762054032
 20
7.0651096144
 30
0.0
 10
11.1752955166
 20
7.0681865693
 30
0.0
 10
11.1741580765
 20
7.0720327523
 30
0.0
 10
11.1727931857
 20
7.0766481773
 30
0.0
 10
11.1714282766
 20
7.081263598
 30
0.0
 10
11.170290882
 20
7.0851097916
 30
0.0
 10
11.1693809045
 20
7.0881867253
 30
0.0
 10
11.1688123082
 20
7.0901098568
 30
0.0
 10
11.1683571114
 20
7.0916482524
 30
0.0
 10
11.1680165894
 20
7.0928023492
 30
0.0
 10
11.1677300357
 20
7.0937631417
 30
0.0
 10
11.1675349143
 20
7.0944375704
 30
0.0
 10
11.1674148813
 20
7.0948200322
 30
0.0
 10
11.1673488998
 20
7.0951151211
 30
0.0
 10
11.1671910129
 20
7.095378703
 30
0.0
 10
11.1670125547
 20
7.0957411355
 30
0.0
 10
11.1666853166
 20
7.0963702718
 30
0.0
 10
11.1662256423
 20
7.0972717152
 30
0.0
 10
11.1656706908
 20
7.0983523013
 30
0.0
 10
11.1649319229
 20
7.099793483
 30
0.0
 10
11.1640080632
 20
7.1015948231
 30
0.0
 10
11.1625301113
 20
7.1044770438
 30
0.0
 10
11.1606825942
 20
7.1080797933
 30
0.0
 10
11.1584656089
 20
7.112403105
 30
0.0
 10
11.1562486062
 20
7.1167264096
 30
0.0
 10
11.1544011326
 20
7.1203291768
 30
0.0
 10
11.1529230937
 20
7.1232113621
 30
0.0
 10
11.1519994551
 20
7.1250127923
 30
0.0
 10
11.1512602336
 20
7.1264537891
 30
0.0
 10
11.1507066676
 20
7.1275349403
 30
0.0
 10
11.1502426584
 20
7.1284346155
 30
0.0
 10
11.1499231589
 20
7.1290669082
 30
0.0
 10
11.1497323014
 20
7.1294242836
 30
0.0
 10
11.1496125011
 20
7.1297033993
 30
0.0
 10
11.1494034729
 20
7.1299401455
 30
0.0
 10
11.1491558924
 20
7.130270586
 30
0.0
 10
11.1487081253
 20
7.1308419711
 30
0.0
 10
11.1480760394
 20
7.1316618356
 30
0.0
 10
11.1473142913
 20
7.132644132
 30
0.0
 10
11.1462997606
 20
7.1339543988
 30
0.0
 10
11.1450312091
 20
7.135592048
 30
0.0
 10
11.1430017436
 20
7.1382123898
 30
0.0
 10
11.140464837
 20
7.1414877813
 30
0.0
 10
11.1374205827
 20
7.1454182681
 30
0.0
 10
11.1343763136
 20
7.1493487438
 30
0.0
 10
11.131839444
 20
7.1526241631
 30
0.0
 10
11.1298099045
 20
7.1552444493
 30
0.0
 10
11.1285415414
 20
7.1568822397
 30
0.0
 10
11.1275266239
 20
7.1581922167
 30
0.0
 10
11.1267660573
 20
7.1591753983
 30
0.0
 10
11.1261302748
 20
7.1599924934
 30
0.0
 10
11.1256891069
 20
7.1605688223
 30
0.0
 10
11.1254309527
 20
7.1608913417
 30
0.0
 10
11.1252544034
 20
7.1611524191
 30
0.0
 10
11.125012618
 20
7.1613401509
 30
0.0
 10
11.1247129925
 20
7.1616160437
 30
0.0
 10
11.1241780459
 20
7.1620869363
 30
0.0
 10
11.1234193793
 20
7.1627658718
 30
0.0
 10
11.1225066068
 20
7.163577927
 30
0.0
 10
11.1212904056
 20
7.164661599
 30
0.0
 10
11.1197698703
 20
7.1660158699
 30
0.0
 10
11.1173371724
 20
7.1681828817
 30
0.0
 10
11.1142962454
 20
7.1708915848
 30
0.0
 10
11.1106471577
 20
7.1741420569
 30
0.0
 10
11.1069980584
 20
7.1773925143
 30
0.0
 10
11.1039571603
 20
7.180101254
 30
0.0
 10
11.1015244045
 20
7.1822681928
 30
0.0
 10
11.1000040163
 20
7.1836226492
 30
0.0
 10
11.0987875132
 20
7.1847059403
 30
0.0
 10
11.0978756628
 20
7.1855191591
 30
0.0
 10
11.0971141115
 20
7.1861944541
 30
0.0
 10
11.0965843146
 20
7.1866718456
 30
0.0
 10
11.096276438
 20
7.1869373256
 30
0.0
 10
11.0960599973
 20
7.1871570424
 30
0.0
 10
11.0957882574
 20
7.1872979894
 30
0.0
 10
11.0954452266
 20
7.1875133945
 30
0.0
 10
11.0948359355
 20
7.187877552
 30
0.0
 10
11.0939702183
 20
7.1884044698
 30
0.0
 10
11.0929293465
 20
7.1890339064
 30
0.0
 10
11.0915422199
 20
7.1898741558
 30
0.0
 10
11.089808071
 20
7.1909241249
 30
0.0
 10
11.0870335674
 20
7.1926042671
 30
0.0
 10
11.0835653915
 20
7.1947043785
 30
0.0
 10
11.0794036012
 20
7.1972245428
 30
0.0
 10
11.0752418019
 20
7.199744691
 30
0.0
 10
11.0717736485
 20
7.2018448428
 30
0.0
 10
11.0689991
 20
7.2035249044
 30
0.0
 10
11.0672650652
 20
7.2045750783
 30
0.0
 10
11.0658777045
 20
7.2054149073
 30
0.0
 10
11.0648375479
 20
7.2060456282
 30
0.0
 10
11.0639695929
 20
7.2065685278
 30
0.0
 10
11.0633642966
 20
7.2069398583
 30
0.0
 10
11.0630148653
 20
7.2071437705
 30
0.0
 10
11.0627627856
 20
7.2073200201
 30
0.0
 10
11.0624725046
 20
7.2074071463
 30
0.0
 10
11.0620987884
 20
7.2075544018
 30
0.0
 10
11.0614385765
 20
7.2077976149
 30
0.0
 10
11.0604986626
 20
7.2081526345
 30
0.0
 10
11.0593693766
 20
7.2085754168
 30
0.0
 10
11.0578641471
 20
7.2091402587
 30
0.0
 10
11.0559824442
 20
7.2098459233
 30
0.0
 10
11.0529718123
 20
7.2109752036
 30
0.0
 10
11.0492084905
 20
7.2123867289
 30
0.0
 10
11.0446925187
 20
7.2140805938
 30
0.0
 10
11.0401765405
 20
7.2157744409
 30
0.0
 10
11.0364132347
 20
7.2171860105
 30
0.0
 10
11.0334025707
 20
7.2183152022
 30
0.0
 10
11.0315209494
 20
7.219021092
 30
0.0
 10
11.0300155523
 20
7.2195854717
 30
0.0
 10
11.0288867785
 20
7.2200096658
 30
0.0
 10
11.027945262
 20
7.2203602685
 30
0.0
 10
11.027287911
 20
7.2206113665
 30
0.0
 10
11.0269096111
 20
7.2207459883
 30
0.0
 10
11.0266334096
 20
7.2208719211
 30
0.0
 10
11.0263284497
 20
7.2209024194
 30
0.0
 10
11.0259318678
 20
7.2209763725
 30
0.0
 10
11.0252331756
 20
7.2210902805
 30
0.0
 10
11.0242374875
 20
7.221261115
 30
0.0
 10
11.0230416159
 20
7.2214626456
 30
0.0
 10
11.0214474857
 20
7.2217325653
 30
0.0
 10
11.0194546978
 20
7.2220695498
 30
0.0
 10
11.0162663072
 20
7.2226089571
 30
0.0
 10
11.0122807949
 20
7.2232831366
 30
0.0
 10
11.0074981904
 20
7.2240921861
 30
0.0
 10
11.0027155831
 20
7.2249012265
 30
0.0
 10
10.9963387745
 20
7.2259799502
 30
0.0
 10
10.9915561677
 20
7.2267889922
 30
0.0
 10
10.9883677633
 20
7.2273283537
 30
0.0
  0
ENDSEC
  0
SECTION
  2
OBJECTS
  0
DICTIONARY
  5
C
100
AcDbDictionary
280
0
281
1
  3
ACAD_GROUP
350
D
  3
ACAD_MLINESTYLE
350
17
  3
ACAD_LAYOUT
350
1A
  3
ACAD_PLOTSETTINGS
350
19
  3
ACAD_PLOTSTYLENAME
350
E
  3
ACAD_IMAGE_DICT
350
       39A
  3
ACAD_IMAGE_VARS
350
       39B
  3
ACAD_TABLESTYLE
350
       39C
  0
IMAGEDEF_REACTOR
  5
399
100
AcDbRasterImageDefReactor
 90
2
330
27D
  0
DICTIONARY
  5
D
102
{ACAD_REACTORS
330
C
102
}
100
AcDbDictionary
280
0
281
1
  0
ACDBDICTIONARYWDFLT
  5
E
102
{ACAD_REACTORS
330
C
102
}
100
AcDbDictionary
281
1
  3
Normal
350
F
100
AcDbDictionaryWithDefault
340
F
  0
DICTIONARY
  5
39A
330
C
100
AcDbDictionary
281
1
  3
CSK_assy_2_img_1
350
       39F
  0
RASTERVARIABLES
  5
39B
330
C
100
AcDbRasterVariables
 90
0
 70
0
 71
1
 72
5
  0
DICTIONARY
  5
17
102
{ACAD_REACTORS
330
C
102
}
100
AcDbDictionary
280
0
281
1
  3
Standard
350
18
  0
DICTIONARY
  5
39C
330
C
100
AcDbDictionary
281
1
  3
Standard
350
       3A0
  3
Standard1
350
       3A1
  0
DICTIONARY
  5
19
102
{ACAD_REACTORS
330
C
102
}
100
AcDbDictionary
281
1
  0
DICTIONARY
  5
1A
102
{ACAD_REACTORS
330
C
102
}
100
AcDbDictionary
281
1
  3
Model
350
39D
  3
Layout1
350
39E
  0
ACDBPLACEHOLDER
  5
F
102
{ACAD_REACTORS
330
E
102
}
  0
MLINESTYLE
  5
18
102
{ACAD_REACTORS
330
17
102
}
100
AcDbMlineStyle
  2
STANDARD
 70
0
  3

 62
256
 51
90.0
 52
90.0
 71
2
 49
0.5
 62
256
  6
BYLAYER
 49
-0.5
 62
256
  6
BYLAYER
  0
LAYOUT
  5
39D
102
{ACAD_REACTORS
330
1A
102
}
100
AcDbPlotSettings
  1

  2
none_device
  4
ANSI_C_(22.00_x_17.00_Inches)
  6

 40
0.0
 41
0.0
 42
0.0
 43
0.0
 44
558.8
 45
431.8
 46
0.0
 47
0.0
 48
0.0
 49
0.0
140
0.0
141
0.0
142
1.0
143
1.0
 70
1024
 72
0
 73
0
 74
0
  7

 75
0
147
1.0
148
0.0
149
0.0
100
AcDbLayout
  1
Model
 70
0
 71
0
 10
0.0
 20
0.0
 11
22.0
 21
17.0
 12
0.0
 22
0.0
 32
0.0
 14
0.0
 24
0.0
 34
0.0
 15
0.0
 25
0.0
 35
0.0
146
0.0
 13
0.0
 23
0.0
 33
0.0
 16
1.0
 26
0.0
 36
0.0
 17
0.0
 27
1.0
 37
0.0
 76
0
330
20C
345
0
346
0
  0
LAYOUT
  5
39E
102
{ACAD_REACTORS
330
1A
102
}
100
AcDbPlotSettings
  1

  2
none_device
  4
ANSI_C_(22.00_x_17.00_Inches)
  6

 40
0.0
 41
0.0
 42
0.0
 43
0.0
 44
558.8
 45
431.8
 46
0.0
 47
0.0
 48
0.0
 49
0.0
140
0.0
141
0.0
142
1.0
143
1.0
 70
0
 72
0
 73
0
 74
0
  7

 75
0
147
1.0
148
0.0
149
0.0
100
AcDbLayout
  1
Layout1
 70
0
 71
1
 10
0.0
 20
0.0
 11
22.0
 21
17.0
 12
0.0
 22
0.0
 32
0.0
 14
0.0
 24
0.0
 34
0.0
 15
0.0
 25
0.0
 35
0.0
146
0.0
 13
0.0
 23
0.0
 33
0.0
 16
1.0
 26
0.0
 36
0.0
 17
0.0
 27
1.0
 37
0.0
 76
0
330
20D
345
0
346
0
  0
IMAGEDEF
  5
39F
102
{ACAD_REACTORS
330
39A
330
399
102
}
100
AcDbRasterImageDef
 90
0
  1
CSK_assy_2_img_1.png
 10
369.0
 20
92.0
 11
0.0066666667
 21
0.0066666667
280
1
281
0
  0
TABLESTYLE
  5
3A0
102
{ACAD_REACTORS
330
39C
330
280
330
281
102
}
330
39C
100
AcDbTableStyle
  3
Standard
 70
0
 71
0
 40
0.06
 41
0.06
280
1
281
1
  7
Standard
140
0.18
170
1
 62
0
 63
7
283
0
  7
Standard
140
0.18
170
1
 62
0
 63
7
283
0
  7
Standard
140
0.18
170
1
 62
0
 63
7
283
0
  0
TABLESTYLE
  5
3A1
102
{ACAD_REACTORS
330
39C
330
27F
102
}
330
39C
100
AcDbTableStyle
  3
Standard1
 70
1
 71
0
 40
0.06
 41
0.06
280
1
281
1
  7
Standard
140
0.18
170
1
 62
0
 63
7
283
0
  7
Standard
140
0.18
170
1
 62
0
 63
7
283
0
  7
Standard
140
0.18
170
1
 62
0
 63
7
283
0
  0
ENDSEC
  0
EOF
