999
DXF file: CNW_assy_2.dxf
999
Pro/ENGINEER 2014200 by Parametric Technology Corporation
  0
SECTION
  2
HEADER
  9
$ACADVER
  1
AC1021
  9
$DWGCODEPAGE
  3
ANSI_1252
  9
$EXTMAX
 10
22.0
 20
17.0
 30
0.0
  9
$EXTMIN
 10
0.0
 20
0.0
 30
0.0
  9
$LIMMIN
 10
0.0
 20
0.0
  9
$LIMMAX
 10
22.0
 20
17.0
  9
$VIEWCTR
 10
11.0
 20
8.5
  9
$VIEWSIZE
 40
17.0
  9
$CLAYER
  8
0
  9
$LTSCALE
 40
1.21
  9
$CELTYPE
  6
BYLAYER
  9
$DIMSCALE
 40
1.0
  9
$DIMASZ
 40
0.1875
  9
$DIMEXO
 40
0.0625
  9
$DIMDLI
 40
0.836
  9
$DIMEXE
 40
0.125
  9
$DIMCEN
 40
0.198
  9
$DIMLFAC
 40
1.0
  9
$DIMBLK
  1
_FILLED
  9
$DIMTXT
 40
0.1
  9
$DIMTOL
 70
0
  9
$DIMLIM
 70
0
  9
$DIMTFAC
 40
1.0
  9
$DIMGAP
 40
0.09
  9
$DIMDSEP
 70
46
  9
$AUNITS
 70
0
  9
$PDMODE
 70
3
  9
$PDSIZE
 40
0.3125
  9
$HANDSEED
  5
382
  9
$TILEMODE
 70
1
  9
$MEASUREMENT
 70
0
  9
$INSUNITS
 70
1
  0
ENDSEC
  0
SECTION
  2
CLASSES
  0
CLASS
  1
ACDBDICTIONARYWDFLT
  2
AcDbDictionaryWithDefault
  3
AutoCAD 2000
 90
0
 91
1
280
0
281
0
  0
CLASS
  1
ACDBPLACEHOLDER
  2
AcDbPlaceHolder
  3
AutoCAD 2000
 90
0
 91
1
280
0
281
0
  0
CLASS
  1
LAYOUT
  2
AcDbLayout
  3
AutoCAD 2000
 90
0
 91
0
280
0
281
0
  0
CLASS
  1
RASTERVARIABLES
  2
AcDbRasterVariables
  3
ISM
 90
0
 91
1
280
0
281
0
  0
CLASS
  1
IMAGEDEF
  2
AcDbRasterImageDef
  3
ISM
 90
0
 91
1
280
0
281
0
  0
CLASS
  1
IMAGEDEF_REACTOR
  2
AcDbRasterImageDefReactor
  3
ISM
 90
0
 91
1
280
0
281
0
  0
CLASS
  1
IMAGE
  2
AcDbRasterImage
  3
ISM
 90
127
 91
1
280
0
281
1
  0
CLASS
  1
TABLESTYLE
  2
AcDbTableStyle
  3
ObjectDBX Classes
 90
2047
 91
1
280
0
281
0
  0
CLASS
  1
ACAD_TABLE
  2
AcDbTable
  3
ObjectDBX Classes
 90
1025
 91
3
280
0
281
1
  0
ENDSEC
  0
SECTION
  2
TABLES
  0
TABLE
  2
VPORT
  5
8
100
AcDbSymbolTable
 70
2
  0
VPORT
  5
1F4
100
AcDbSymbolTableRecord
100
AcDbViewportTableRecord
  2
*ACTIVE
 70
0
 10
0.0
 20
0.0
 11
1.0
 21
1.0
 12
11.0
 22
8.5
 13
0.0
 23
0.0
 14
1.0
 24
1.0
 15
0.0
 25
0.0
 16
0.0
 26
0.0
 36
1.0
 17
0.0
 27
0.0
 37
0.0
 40
17.0
 41
1.2941176471
 42
50.0
 43
0.0
 44
0.0
 50
0.0
 51
0.0
 71
0
 72
100
 73
1
 74
1
 75
0
 76
0
 77
0
 78
0
  0
ENDTAB
  0
TABLE
  2
LTYPE
  5
5
100
AcDbSymbolTable
 70
6
  0
LTYPE
  5
14
100
AcDbSymbolTableRecord
100
AcDbLinetypeTableRecord
  2
BYBLOCK
 70
0
  3

 72
65
 73
0
 40
0.0
  0
LTYPE
  5
15
100
AcDbSymbolTableRecord
100
AcDbLinetypeTableRecord
  2
BYLAYER
 70
0
  3

 72
65
 73
0
 40
0.0
  0
LTYPE
  5
16
100
AcDbSymbolTableRecord
100
AcDbLinetypeTableRecord
  2
CONTINUOUS
 70
64
  3
Solid line
 72
65
 73
0
 40
0.0
  0
LTYPE
  5
1F5
100
AcDbSymbolTableRecord
100
AcDbLinetypeTableRecord
  2
CENTER
 70
64
  3
____ _ ____ _ ____ _ ____ _ ____ _ ____ _ ____
 72
65
 73
4
 40
0.6
 49
0.375
 74
0
 49
-0.075
 74
0
 49
0.075
 74
0
 49
-0.075
 74
0
  0
LTYPE
  5
1F6
100
AcDbSymbolTableRecord
100
AcDbLinetypeTableRecord
  2
HIDDEN
 70
64
  3
- - - - - - - - - - - - - - - - - - - -
 72
65
 73
2
 40
0.2
 49
0.1
 74
0
 49
-0.1
 74
0
  0
LTYPE
  5
1F7
100
AcDbSymbolTableRecord
100
AcDbLinetypeTableRecord
  2
PHANTOM
 70
64
  3
_____ _ _ _____ _ _ _____ _ _ _____
 72
65
 73
6
 40
0.8
 49
0.45
 74
0
 49
-0.05
 74
0
 49
0.1
 74
0
 49
-0.05
 74
0
 49
0.1
 74
0
 49
-0.05
 74
0
  0
LTYPE
  5
1F8
100
AcDbSymbolTableRecord
100
AcDbLinetypeTableRecord
  2
DOT
 70
64
  3
. . . . . . . . . . . . . . . . . . . .
 72
65
 73
2
 40
0.2
 49
0.1
 74
0
 49
-0.1
 74
0
  0
LTYPE
  5
1F9
100
AcDbSymbolTableRecord
100
AcDbLinetypeTableRecord
  2
DASHED
 70
64
  3
- - - - - - - - - - - - - - - - - - - -
 72
65
 73
2
 40
0.2
 49
0.1
 74
0
 49
-0.1
 74
0
  0
ENDTAB
  0
TABLE
  2
LAYER
  5
2
100
AcDbSymbolTable
 70
36
  0
LAYER
  5
10
100
AcDbSymbolTableRecord
100
AcDbLayerTableRecord
  2
0
 70
0
 62
7
  6
CONTINUOUS
370
-3
390
F
  0
LAYER
  5
1FA
100
AcDbSymbolTableRecord
100
AcDbLayerTableRecord
  2
DEFAULT_1
 70
0
 62
7
  6
CENTER
370
-3
390
F
  0
LAYER
  5
1FB
100
AcDbSymbolTableRecord
100
AcDbLayerTableRecord
  2
DEFAULT_2
 70
0
 62
8
  6
HIDDEN
370
-3
390
F
  0
LAYER
  5
1FC
100
AcDbSymbolTableRecord
100
AcDbLayerTableRecord
  2
DEFAULT_3
 70
0
 62
7
  6
PHANTOM
370
-3
390
F
  0
LAYER
  5
1FD
100
AcDbSymbolTableRecord
100
AcDbLayerTableRecord
  2
01___PRT_ALL_DTM_PLN
 70
0
 62
7
  6
CONTINUOUS
370
-3
390
F
  0
LAYER
  5
1FE
100
AcDbSymbolTableRecord
100
AcDbLayerTableRecord
  2
01___PRT_DEF_DTM_PLN
 70
0
 62
7
  6
CONTINUOUS
370
-3
390
F
  0
LAYER
  5
1FF
100
AcDbSymbolTableRecord
100
AcDbLayerTableRecord
  2
02___PRT_ALL_AXES
 70
0
 62
7
  6
CONTINUOUS
370
-3
390
F
  0
LAYER
  5
200
100
AcDbSymbolTableRecord
100
AcDbLayerTableRecord
  2
03___PRT_ALL_CURVES
 70
0
 62
7
  6
CONTINUOUS
370
-3
390
F
  0
LAYER
  5
201
100
AcDbSymbolTableRecord
100
AcDbLayerTableRecord
  2
04___PRT_ALL_DTM_PNT
 70
0
 62
7
  6
CONTINUOUS
370
-3
390
F
  0
LAYER
  5
202
100
AcDbSymbolTableRecord
100
AcDbLayerTableRecord
  2
05___PRT_ALL_DTM_CSYS
 70
0
 62
7
  6
CONTINUOUS
370
-3
390
F
  0
LAYER
  5
203
100
AcDbSymbolTableRecord
100
AcDbLayerTableRecord
  2
05___PRT_DEF_DTM_CSYS
 70
0
 62
7
  6
CONTINUOUS
370
-3
390
F
  0
LAYER
  5
204
100
AcDbSymbolTableRecord
100
AcDbLayerTableRecord
  2
06___PRT_ALL_SURFS
 70
0
 62
7
  6
CONTINUOUS
370
-3
390
F
  0
LAYER
  5
205
100
AcDbSymbolTableRecord
100
AcDbLayerTableRecord
  2
DATUM_PLANES
 70
0
 62
7
  6
CONTINUOUS
370
-3
390
F
  0
LAYER
  5
206
100
AcDbSymbolTableRecord
100
AcDbLayerTableRecord
  2
PORT_AREAS
 70
0
 62
7
  6
CONTINUOUS
370
-3
390
F
  0
LAYER
  5
207
100
AcDbSymbolTableRecord
100
AcDbLayerTableRecord
  2
SUNNBOMCOSMETIC
 70
0
 62
7
  6
CONTINUOUS
370
-3
390
F
  0
LAYER
  5
208
100
AcDbSymbolTableRecord
100
AcDbLayerTableRecord
  2
SUNNBOMSTAMPING
 70
0
 62
7
  6
CONTINUOUS
370
-3
390
F
  0
LAYER
  5
209
100
AcDbSymbolTableRecord
100
AcDbLayerTableRecord
  2
THREADS
 70
0
 62
7
  6
CONTINUOUS
370
-3
390
F
  0
ENDTAB
  0
TABLE
  2
STYLE
  5
3
100
AcDbSymbolTable
 70
1
  0
STYLE
  5
11
100
AcDbSymbolTableRecord
100
AcDbTextStyleTableRecord
  2
STANDARD
 70
0
 40
0.0
 41
0.8
 50
0.0
 71
0
 42
0.2
  3
txt
  4

  0
STYLE
  5
20A
100
AcDbSymbolTableRecord
100
AcDbTextStyleTableRecord
  2
TEXTSTYLE_1
 70
0
 40
0.0
 41
0.8
 50
0.0
 71
0
 42
0.2
  3
gdt
  4

  0
ENDTAB
  0
TABLE
  2
VIEW
  5
6
100
AcDbSymbolTable
 70
0
  0
ENDTAB
  0
TABLE
  2
UCS
  5
7
100
AcDbSymbolTable
 70
0
  0
ENDTAB
  0
TABLE
  2
APPID
  5
9
100
AcDbSymbolTable
 70
1
  0
APPID
  5
20B
100
AcDbSymbolTableRecord
100
AcDbRegAppTableRecord
  2
ACAD
 70
0
  0
ENDTAB
  0
TABLE
  2
BLOCK_RECORD
  5
1
100
AcDbSymbolTable
 70
0
  0
BLOCK_RECORD
  5
20C
100
AcDbSymbolTableRecord
100
AcDbBlockTableRecord
  2
*Model_Space
  0
BLOCK_RECORD
  5
20D
100
AcDbSymbolTableRecord
100
AcDbBlockTableRecord
  2
*Paper_Space
  0
BLOCK_RECORD
  5
20E
100
AcDbSymbolTableRecord
100
AcDbBlockTableRecord
  2
SUN_FIRST_THIRD_ANGLE_BL0
  0
BLOCK_RECORD
  5
20F
100
AcDbSymbolTableRecord
100
AcDbBlockTableRecord
  2
*T1
  0
BLOCK_RECORD
  5
210
100
AcDbSymbolTableRecord
100
AcDbBlockTableRecord
  2
*T2
  0
BLOCK_RECORD
  5
211
100
AcDbSymbolTableRecord
100
AcDbBlockTableRecord
  2
*T3
  0
ENDTAB
  0
TABLE
  2
DIMSTYLE
  5
A
100
AcDbSymbolTable
 70
1
100
AcDbDimStyleTable
 71
0
  0
DIMSTYLE
105
212
100
AcDbSymbolTableRecord
100
AcDbDimStyleTableRecord
  2
STANDARD
 70
0
  3

  4

 40
1.0
 41
0.1875
 42
0.0625
 43
0.38
 44
0.125
 45
0.0
 46
0.0
 47
0.001
 48
0.001
140
0.1
141
0.09
142
0.0
143
25.4
144
1.0
145
0.0
146
1.0
147
0.09
 71
0.0
 72
0.0
 73
1
 74
1
 75
0
 76
0
 77
0
 78
4
170
0
171
2
172
0
173
0
174
0
175
0
176
0
177
0
178
0
270
2
271
3
272
3
273
2
274
2
275
0
280
0
281
0
282
0
283
1
284
4
285
0
286
0
287
3
288
0
340
11
278
46
  0
ENDTAB
  0
ENDSEC
  0
SECTION
  2
BLOCKS
  0
BLOCK
  5
20
100
AcDbEntity
  8
0
100
AcDbBlockBegin
  2
*Model_Space
 70
0
 10
0.0
 20
0.0
 30
0.0
  3
*Model_Space
  1

  0
ENDBLK
  5
21
100
AcDbEntity
  8
0
100
AcDbBlockEnd
  0
BLOCK
  5
1C
100
AcDbEntity
  8
0
100
AcDbBlockBegin
  2
*Paper_Space
 70
0
 10
0.0
 20
0.0
 30
0.0
  3
*Paper_Space
  1

  0
ENDBLK
  5
1D
100
AcDbEntity
  8
0
100
AcDbBlockEnd
  0
BLOCK
  5
213
100
AcDbEntity
  8
0
100
AcDbBlockBegin
 62
2
  6
CONTINUOUS
  2
SUN_FIRST_THIRD_ANGLE_BL0
 70
64
 10
20.4816717061
 20
1.2289683772
  3
SUN_FIRST_THIRD_ANGLE_BL0
  1

  0
TEXT
  5
214
100
AcDbEntity
  8
0
100
AcDbText
 62
2
  6
CONTINUOUS
 10
19.4750896608
 20
1.4136269581
  7
STANDARD
 40
0.08
  1
FIRST ANGLE
 41
0.8
 72
0
100
AcDbText
  0
TEXT
  5
215
100
AcDbEntity
  8
0
100
AcDbText
 62
2
  6
CONTINUOUS
 10
20.7842537513
 20
1.4047600029
  7
STANDARD
 40
0.08
  1
THIRD ANGLE
 41
0.8
 72
0
100
AcDbText
  0
LINE
  5
216
100
AcDbEntity
  8
0
100
AcDbLine
 62
7
  6
CONTINUOUS
 10
19.4767170086
 20
1.1727031207
 11
19.6334271527
 21
1.1717972817
  0
LINE
  5
217
100
AcDbEntity
  8
0
100
AcDbLine
 62
7
  6
CONTINUOUS
 10
19.6596964832
 20
1.1717972817
 11
19.6950230232
 21
1.171593082
  0
LINE
  5
218
100
AcDbEntity
  8
0
100
AcDbLine
 62
7
  6
CONTINUOUS
 10
19.7194818561
 20
1.1708914427
 11
19.8852396156
 21
1.1699333054
  0
LINE
  5
219
100
AcDbEntity
  8
0
100
AcDbLine
 62
7
  6
CONTINUOUS
 10
19.4758111696
 20
1.2723454088
 11
19.88525039
 21
1.3511534004
  0
LINE
  5
21A
100
AcDbEntity
  8
0
100
AcDbLine
 62
7
  6
CONTINUOUS
 10
19.88525039
 20
1.3511534004
 11
19.8831348489
 21
0.9851647912
  0
LINE
  5
21B
100
AcDbEntity
  8
0
100
AcDbLine
 62
7
  6
CONTINUOUS
 10
19.8831348489
 20
0.9851647912
 11
19.4767170086
 21
1.0658141206
  0
LINE
  5
21C
100
AcDbEntity
  8
0
100
AcDbLine
 62
7
  6
CONTINUOUS
 10
19.4767170086
 20
1.0658141206
 11
19.4779056764
 21
1.2714536432
  0
CIRCLE
  5
21D
100
AcDbEntity
  8
0
100
AcDbCircle
 62
7
  6
CONTINUOUS
 10
20.2068232291
 20
1.1717972817
 40
0.175742101
  0
CIRCLE
  5
21E
100
AcDbEntity
  8
0
100
AcDbCircle
 62
7
  6
CONTINUOUS
 10
20.2068232291
 20
1.1717972817
 40
0.1005522074
  0
LINE
  5
21F
100
AcDbEntity
  8
0
100
AcDbLine
 62
7
  6
CONTINUOUS
 10
20.2077290681
 20
1.3756110529
 11
20.2071171714
 21
1.2379342989
  0
LINE
  5
220
100
AcDbEntity
  8
0
100
AcDbLine
 62
7
  6
CONTINUOUS
 10
20.2077290681
 20
1.2016899681
 11
20.2074674401
 21
1.1428236749
  0
LINE
  5
221
100
AcDbEntity
  8
0
100
AcDbLine
 62
7
  6
CONTINUOUS
 10
20.208634907
 20
1.101141841
 11
20.2080230104
 21
0.963465087
  0
LINE
  5
222
100
AcDbEntity
  8
0
100
AcDbLine
 62
7
  6
CONTINUOUS
 10
20.0066328138
 20
1.1745147986
 11
20.1443095678
 21
1.1739029019
  0
LINE
  5
223
100
AcDbEntity
  8
0
100
AcDbLine
 62
7
  6
CONTINUOUS
 10
20.1832714155
 20
1.1727031207
 11
20.238153505
 21
1.172335442
  0
LINE
  5
224
100
AcDbEntity
  8
0
100
AcDbLine
 62
7
  6
CONTINUOUS
 10
20.2756669918
 20
1.1717972817
 11
20.407916871
 21
1.1712095044
  0
CIRCLE
  5
225
100
AcDbEntity
  8
0
100
AcDbCircle
 62
7
  6
CONTINUOUS
 10
20.7509457401
 20
1.1693297793
 40
0.1722024983
  0
CIRCLE
  5
226
100
AcDbEntity
  8
0
100
AcDbCircle
 62
7
  6
CONTINUOUS
 10
20.7509457401
 20
1.1693297793
 40
0.0985164967
  0
LINE
  5
227
100
AcDbEntity
  8
0
100
AcDbLine
 62
7
  6
CONTINUOUS
 10
20.7169767782
 20
1.170462078
 11
20.7825395137
 21
1.1682766535
  0
LINE
  5
228
100
AcDbEntity
  8
0
100
AcDbLine
 62
7
  6
CONTINUOUS
 10
20.8177513651
 20
1.1693297793
 11
20.947965719
 21
1.1693297793
  0
LINE
  5
229
100
AcDbEntity
  8
0
100
AcDbLine
 62
7
  6
CONTINUOUS
 10
20.6875370113
 20
1.170462078
 11
20.5573226574
 21
1.170462078
  0
LINE
  5
22A
100
AcDbEntity
  8
0
100
AcDbLine
 62
7
  6
CONTINUOUS
 10
20.7486811426
 20
1.1987695462
 11
20.7486811426
 21
1.1432869085
  0
LINE
  5
22B
100
AcDbEntity
  8
0
100
AcDbLine
 62
7
  6
CONTINUOUS
 10
20.7498134414
 20
1.1059210505
 11
20.7498134414
 21
0.9757066966
  0
LINE
  5
22C
100
AcDbEntity
  8
0
100
AcDbLine
 62
7
  6
CONTINUOUS
 10
20.7486811426
 20
1.2338708068
 11
20.7486811426
 21
1.3640851607
  0
LINE
  5
22D
100
AcDbEntity
  8
0
100
AcDbLine
 62
7
  6
CONTINUOUS
 10
21.0702539817
 20
1.2701043662
 11
21.4790138229
 21
1.3448360823
  0
LINE
  5
22E
100
AcDbEntity
  8
0
100
AcDbLine
 62
7
  6
CONTINUOUS
 10
21.4790138229
 20
1.3448360823
 11
21.4790138229
 21
0.9779712941
  0
LINE
  5
22F
100
AcDbEntity
  8
0
100
AcDbLine
 62
7
  6
CONTINUOUS
 10
21.4790138229
 20
0.9779712941
 11
21.069121683
 21
1.0617614
  0
LINE
  5
230
100
AcDbEntity
  8
0
100
AcDbLine
 62
7
  6
CONTINUOUS
 10
21.0702539817
 20
1.2701043662
 11
21.069121683
 21
1.0617614
  0
LINE
  5
231
100
AcDbEntity
  8
0
100
AcDbLine
 62
7
  6
CONTINUOUS
 10
21.4790138229
 20
1.1693297793
 11
21.3159628059
 21
1.1693297793
  0
LINE
  5
232
100
AcDbEntity
  8
0
100
AcDbLine
 62
7
  6
CONTINUOUS
 10
21.2876553377
 20
1.1693297793
 11
21.2502894796
 21
1.1693297793
  0
LINE
  5
233
100
AcDbEntity
  8
0
100
AcDbLine
 62
7
  6
CONTINUOUS
 10
21.2208497126
 20
1.1659328831
 11
21.0713862804
 21
1.1659328831
  0
LINE
  5
234
100
AcDbEntity
  8
0
100
AcDbLine
 62
7
  6
CONTINUOUS
 10
20.4796138713
 20
1.5284908897
 11
20.4766766948
 21
0.9294458646
  0
ENDBLK
  5
235
100
AcDbEntity
  8
0
  6
BYBLOCK
 62
0
100
AcDbBlockEnd
  0
BLOCK
  5
236
100
AcDbEntity
  8
0
100
AcDbBlockBegin
  2
*T1
 70
1
 10
0.0
 20
0.0
  3
*T1
  1

  0
LINE
  5
237
100
AcDbEntity
  8
0
100
AcDbLine
 62
2
  6
CONTINUOUS
 10
9.275
 20
0.0
 11
-0.0
 21
0.0
  0
LINE
  5
238
100
AcDbEntity
  8
0
100
AcDbLine
 62
2
  6
CONTINUOUS
 10
9.275
 20
0.0
 11
9.275
 21
1.25
  0
LINE
  5
239
100
AcDbEntity
  8
0
100
AcDbLine
 62
2
  6
CONTINUOUS
 10
9.275
 20
0.625
 11
-0.0
 21
0.625
  0
LINE
  5
23A
100
AcDbEntity
  8
0
100
AcDbLine
 62
2
  6
CONTINUOUS
 10
9.275
 20
1.25
 11
-0.0
 21
1.25
  0
LINE
  5
23B
100
AcDbEntity
  8
0
100
AcDbLine
 62
2
  6
CONTINUOUS
 10
6.8
 20
0.0
 11
6.8
 21
1.25
  0
LINE
  5
23C
100
AcDbEntity
  8
0
100
AcDbLine
 62
2
  6
CONTINUOUS
 10
6.4
 20
0.0
 11
6.4
 21
0.625
  0
LINE
  5
23D
100
AcDbEntity
  8
0
100
AcDbLine
 62
2
  6
CONTINUOUS
 10
5.9
 20
0.0
 11
5.9
 21
0.625
  0
LINE
  5
23E
100
AcDbEntity
  8
0
100
AcDbLine
 62
2
  6
CONTINUOUS
 10
5.2
 20
0.0
 11
5.2
 21
0.625
  0
LINE
  5
23F
100
AcDbEntity
  8
0
100
AcDbLine
 62
2
  6
CONTINUOUS
 10
4.1
 20
0.0
 11
4.1
 21
1.25
  0
LINE
  5
240
100
AcDbEntity
  8
0
100
AcDbLine
 62
2
  6
CONTINUOUS
 10
-0.0
 20
0.0
 11
-0.0
 21
1.25
  0
MTEXT
  5
241
100
AcDbEntity
  8
0
100
AcDbMText
 62
2
  6
CONTINUOUS
  7
STANDARD
 71
2
 72
1
 10
6.6
 20
0.325
 30
0.0
 11
1.0
 21
0.0
 31
0.0
 44
0.9
  1
2
 40
0.125
 41
0.2
  0
MTEXT
  5
242
100
AcDbEntity
  8
0
100
AcDbMText
 62
2
  6
CONTINUOUS
  7
STANDARD
 71
2
 72
1
 10
6.15
 20
0.325
 30
0.0
 11
1.0
 21
0.0
 31
0.0
 44
0.9
  1
C
 40
0.125
 41
0.2
  0
MTEXT
  5
243
100
AcDbEntity
  8
0
100
AcDbMText
 62
2
  6
CONTINUOUS
  7
STANDARD
 71
2
 72
1
 10
5.55
 20
0.325
 30
0.0
 11
1.0
 21
0.0
 31
0.0
 44
0.9
  1
2.000
 40
0.125
 41
1.0
  0
MTEXT
  5
244
100
AcDbEntity
  8
0
100
AcDbMText
 62
2
  6
CONTINUOUS
  7
STANDARD
 71
2
 72
1
 10
4.65
 20
0.325
 30
0.0
 11
1.0
 21
0.0
 31
0.0
 44
0.9
  1
Dec-02-19
 40
0.125
 41
1.8
  0
MTEXT
  5
245
100
AcDbEntity
  8
0
100
AcDbMText
 62
2
  6
CONTINUOUS
  7
STANDARD
 71
2
 72
1
 10
2.05
 20
0.4625
 30
0.0
 11
1.0
 21
0.0
 31
0.0
 44
0.9
  1
T-3A Line mount\PNinety degree with reverse flow check
 40
0.125
 41
7.4
  0
MTEXT
  5
246
100
AcDbEntity
  8
0
100
AcDbMText
 62
2
  6
CONTINUOUS
  7
STANDARD
 71
1
 72
1
 10
6.45
 20
0.5625
 30
0.0
 11
1.0
 21
0.0
 31
0.0
 44
0.9
  1
SHEET
 40
0.06
 41
0.48
  0
MTEXT
  5
247
100
AcDbEntity
  8
0
100
AcDbMText
 62
2
  6
CONTINUOUS
  7
STANDARD
 71
1
 72
1
 10
5.95
 20
0.5625
 30
0.0
 11
1.0
 21
0.0
 31
0.0
 44
0.9
  1
DWG SIZE
 40
0.06
 41
0.768
  0
MTEXT
  5
248
100
AcDbEntity
  8
0
100
AcDbMText
 62
2
  6
CONTINUOUS
  7
STANDARD
 71
1
 72
1
 10
5.25
 20
0.5625
 30
0.0
 11
1.0
 21
0.0
 31
0.0
 44
0.9
  1
SCALE
 40
0.06
 41
0.48
  0
MTEXT
  5
249
100
AcDbEntity
  8
0
100
AcDbMText
 62
2
  6
CONTINUOUS
  7
STANDARD
 71
1
 72
1
 10
4.15
 20
0.5625
 30
0.0
 11
1.0
 21
0.0
 31
0.0
 44
0.9
  1
DATE
 40
0.06
 41
0.384
  0
MTEXT
  5
24A
100
AcDbEntity
  8
0
100
AcDbMText
 62
2
  6
CONTINUOUS
  7
STANDARD
 71
1
 72
1
 10
0.05
 20
0.5625
 30
0.0
 11
1.0
 21
0.0
 31
0.0
 44
0.9
  1
DESCRIPTION
 40
0.06
 41
1.056
  0
MTEXT
  5
24B
100
AcDbEntity
  8
0
100
AcDbMText
 62
2
  6
CONTINUOUS
  7
STANDARD
 71
2
 72
1
 10
5.45
 20
1.0375
 30
0.0
 11
1.0
 21
0.0
 31
0.0
 44
0.9
  1
ALL DIMENSIONS IN INCH\PVIEWS ARE THIRD ANGLE
 40
0.12
 41
4.224
  0
MTEXT
  5
24C
100
AcDbEntity
  8
0
100
AcDbMText
 62
2
  6
CONTINUOUS
  7
STANDARD
 71
2
 72
1
 10
2.05
 20
0.95
 30
0.0
 11
1.0
 21
0.0
 31
0.0
 44
0.9
  1
CNW
 40
0.125
 41
0.6
  0
MTEXT
  5
24D
100
AcDbEntity
  8
0
100
AcDbMText
 62
2
  6
CONTINUOUS
  7
STANDARD
 71
1
 72
1
 10
0.05
 20
1.1875
 30
0.0
 11
1.0
 21
0.0
 31
0.0
 44
0.9
  1
MODEL
 40
0.06
 41
0.48
  0
ENDBLK
  5
24E
100
AcDbEntity
  8
0
  6
BYBLOCK
 62
0
100
AcDbBlockEnd
  0
BLOCK
  5
24F
100
AcDbEntity
  8
0
100
AcDbBlockBegin
  2
*T2
 70
1
 10
0.0
 20
0.0
  3
*T2
  1

  0
LINE
  5
250
100
AcDbEntity
  8
0
100
AcDbLine
 62
2
  6
CONTINUOUS
 10
0.0
 20
0.0
 11
9.055
 21
0.0
  0
LINE
  5
251
100
AcDbEntity
  8
0
100
AcDbLine
 62
2
  6
CONTINUOUS
 10
0.0
 20
0.0
 11
0.0
 21
-2.594
  0
LINE
  5
252
100
AcDbEntity
  8
0
100
AcDbLine
 62
2
  6
CONTINUOUS
 10
0.0
 20
-0.344
 11
9.055
 21
-0.344
  0
LINE
  5
253
100
AcDbEntity
  8
0
100
AcDbLine
 62
2
  6
CONTINUOUS
 10
0.0
 20
-0.594
 11
9.055
 21
-0.594
  0
LINE
  5
254
100
AcDbEntity
  8
0
100
AcDbLine
 62
2
  6
CONTINUOUS
 10
0.0
 20
-0.844
 11
9.055
 21
-0.844
  0
LINE
  5
255
100
AcDbEntity
  8
0
100
AcDbLine
 62
2
  6
CONTINUOUS
 10
0.0
 20
-1.094
 11
9.055
 21
-1.094
  0
LINE
  5
256
100
AcDbEntity
  8
0
100
AcDbLine
 62
2
  6
CONTINUOUS
 10
0.0
 20
-1.344
 11
9.055
 21
-1.344
  0
LINE
  5
257
100
AcDbEntity
  8
0
100
AcDbLine
 62
2
  6
CONTINUOUS
 10
0.0
 20
-1.594
 11
9.055
 21
-1.594
  0
LINE
  5
258
100
AcDbEntity
  8
0
100
AcDbLine
 62
2
  6
CONTINUOUS
 10
0.0
 20
-1.844
 11
9.055
 21
-1.844
  0
LINE
  5
259
100
AcDbEntity
  8
0
100
AcDbLine
 62
2
  6
CONTINUOUS
 10
0.0
 20
-2.094
 11
9.055
 21
-2.094
  0
LINE
  5
25A
100
AcDbEntity
  8
0
100
AcDbLine
 62
2
  6
CONTINUOUS
 10
0.0
 20
-2.344
 11
9.055
 21
-2.344
  0
LINE
  5
25B
100
AcDbEntity
  8
0
100
AcDbLine
 62
2
  6
CONTINUOUS
 10
0.0
 20
-2.594
 11
9.055
 21
-2.594
  0
LINE
  5
25C
100
AcDbEntity
  8
0
100
AcDbLine
 62
2
  6
CONTINUOUS
 10
3.055
 20
0.0
 11
3.055
 21
-2.594
  0
LINE
  5
25D
100
AcDbEntity
  8
0
100
AcDbLine
 62
2
  6
CONTINUOUS
 10
9.055
 20
0.0
 11
9.055
 21
-2.594
  0
MTEXT
  5
25E
100
AcDbEntity
  8
0
100
AcDbMText
 62
2
  6
CONTINUOUS
  7
STANDARD
 71
2
 72
1
 10
1.5275
 20
-0.0995
 30
0.0
 11
1.0
 21
0.0
 31
0.0
 44
0.9
  1
Technical Data
 40
0.145
 41
3.248
  0
MTEXT
  5
25F
100
AcDbEntity
  8
0
100
AcDbMText
 62
2
  6
CONTINUOUS
  7
STANDARD
 71
2
 72
1
 10
4.555
 20
-0.0995
 30
0.0
 11
1.0
 21
0.0
 31
0.0
 44
0.9
  1
U.S. Units
 40
0.145
 41
2.32
  0
MTEXT
  5
260
100
AcDbEntity
  8
0
100
AcDbMText
 62
2
  6
CONTINUOUS
  7
STANDARD
 71
2
 72
1
 10
7.555
 20
-0.0995
 30
0.0
 11
1.0
 21
0.0
 31
0.0
 44
0.9
  1
Metric Units
 40
0.145
 41
2.784
  0
MTEXT
  5
261
100
AcDbEntity
  8
0
100
AcDbMText
 62
2
  6
CONTINUOUS
  7
STANDARD
 71
2
 72
1
 10
1.5275
 20
-0.4065
 30
0.0
 11
1.0
 21
0.0
 31
0.0
 44
0.9
  1
Cavity
 40
0.125
 41
1.2
  0
MTEXT
  5
262
100
AcDbEntity
  8
0
100
AcDbMText
 62
2
  6
CONTINUOUS
  7
STANDARD
 71
2
 72
1
 10
6.055
 20
-0.4065
 30
0.0
 11
1.0
 21
0.0
 31
0.0
 44
0.9
  1
T-3A
 40
0.125
 41
0.8
  0
MTEXT
  5
263
100
AcDbEntity
  8
0
100
AcDbMText
 62
2
  6
CONTINUOUS
  7
STANDARD
 71
2
 72
1
 10
1.5275
 20
-0.6565
 30
0.0
 11
1.0
 21
0.0
 31
0.0
 44
0.9
  1
Body Features
 40
0.125
 41
2.6
  0
MTEXT
  5
264
100
AcDbEntity
  8
0
100
AcDbMText
 62
2
  6
CONTINUOUS
  7
STANDARD
 71
2
 72
1
 10
6.055
 20
-0.6565
 30
0.0
 11
1.0
 21
0.0
 31
0.0
 44
0.9
  1
Ninety degree with reverse flow check
 40
0.125
 41
7.4
  0
MTEXT
  5
265
100
AcDbEntity
  8
0
100
AcDbMText
 62
2
  6
CONTINUOUS
  7
STANDARD
 71
2
 72
1
 10
1.5275
 20
-0.9065
 30
0.0
 11
1.0
 21
0.0
 31
0.0
 44
0.9
  1
Body Type
 40
0.125
 41
1.8
  0
MTEXT
  5
266
100
AcDbEntity
  8
0
100
AcDbMText
 62
2
  6
CONTINUOUS
  7
STANDARD
 71
2
 72
1
 10
6.055
 20
-0.9065
 30
0.0
 11
1.0
 21
0.0
 31
0.0
 44
0.9
  1
Line mount
 40
0.125
 41
2.0
  0
MTEXT
  5
267
100
AcDbEntity
  8
0
100
AcDbMText
 62
2
  6
CONTINUOUS
  7
STANDARD
 71
2
 72
1
 10
1.5275
 20
-1.1565
 30
0.0
 11
1.0
 21
0.0
 31
0.0
 44
0.9
  1
Interface
 40
0.125
 41
1.8
  0
MTEXT
  5
268
100
AcDbEntity
  8
0
100
AcDbMText
 62
2
  6
CONTINUOUS
  7
STANDARD
 71
2
 72
1
 10
6.055
 20
-1.1565
 30
0.0
 11
1.0
 21
0.0
 31
0.0
 44
0.9
  1
None
 40
0.125
 41
0.8
  0
MTEXT
  5
269
100
AcDbEntity
  8
0
100
AcDbMText
 62
2
  6
CONTINUOUS
  7
STANDARD
 71
2
 72
1
 10
1.5275
 20
-1.4065
 30
0.0
 11
1.0
 21
0.0
 31
0.0
 44
0.9
  1
Open Cavity Quantity
 40
0.125
 41
4.0
  0
MTEXT
  5
26A
100
AcDbEntity
  8
0
100
AcDbMText
 62
2
  6
CONTINUOUS
  7
STANDARD
 71
2
 72
1
 10
6.055
 20
-1.4065
 30
0.0
 11
1.0
 21
0.0
 31
0.0
 44
0.9
  1
1
 40
0.125
 41
0.2
  0
MTEXT
  5
26B
100
AcDbEntity
  8
0
100
AcDbMText
 62
2
  6
CONTINUOUS
  7
STANDARD
 71
2
 72
1
 10
1.5275
 20
-1.6565
 30
0.0
 11
1.0
 21
0.0
 31
0.0
 44
0.9
  1
Weight
 40
0.125
 41
1.2
  0
MTEXT
  5
26C
100
AcDbEntity
  8
0
100
AcDbMText
 62
2
  6
CONTINUOUS
  7
STANDARD
 71
2
 72
1
 10
4.555
 20
-1.6565
 30
0.0
 11
1.0
 21
0.0
 31
0.0
 44
0.9
  1
1.465 lb.
 40
0.125
 41
1.8
  0
MTEXT
  5
26D
100
AcDbEntity
  8
0
100
AcDbMText
 62
2
  6
CONTINUOUS
  7
STANDARD
 71
2
 72
1
 10
7.555
 20
-1.6565
 30
0.0
 11
1.0
 21
0.0
 31
0.0
 44
0.9
  1
0,665 kg.
 40
0.125
 41
1.8
  0
MTEXT
  5
26E
100
AcDbEntity
  8
0
100
AcDbMText
 62
2
  6
CONTINUOUS
  7
STANDARD
 71
2
 72
1
 10
1.5275
 20
-1.9065
 30
0.0
 11
1.0
 21
0.0
 31
0.0
 44
0.9
  1
Mounting Hole Diameter
 40
0.125
 41
4.4
  0
MTEXT
  5
26F
100
AcDbEntity
  8
0
100
AcDbMText
 62
2
  6
CONTINUOUS
  7
STANDARD
 71
2
 72
1
 10
4.555
 20
-1.9065
 30
0.0
 11
1.0
 21
0.0
 31
0.0
 44
0.9
  1
.28 in.
 40
0.125
 41
1.4
  0
MTEXT
  5
270
100
AcDbEntity
  8
0
100
AcDbMText
 62
2
  6
CONTINUOUS
  7
STANDARD
 71
2
 72
1
 10
7.555
 20
-1.9065
 30
0.0
 11
1.0
 21
0.0
 31
0.0
 44
0.9
  1
7,1 mm
 40
0.125
 41
1.2
  0
MTEXT
  5
271
100
AcDbEntity
  8
0
100
AcDbMText
 62
2
  6
CONTINUOUS
  7
STANDARD
 71
2
 72
1
 10
1.5275
 20
-2.1565
 30
0.0
 11
1.0
 21
0.0
 31
0.0
 44
0.9
  1
Mounting Hole Depth
 40
0.125
 41
3.8
  0
MTEXT
  5
272
100
AcDbEntity
  8
0
100
AcDbMText
 62
2
  6
CONTINUOUS
  7
STANDARD
 71
2
 72
1
 10
6.055
 20
-2.1565
 30
0.0
 11
1.0
 21
0.0
 31
0.0
 44
0.9
  1
Through
 40
0.125
 41
1.4
  0
MTEXT
  5
273
100
AcDbEntity
  8
0
100
AcDbMText
 62
2
  6
CONTINUOUS
  7
STANDARD
 71
2
 72
1
 10
1.5275
 20
-2.4065
 30
0.0
 11
1.0
 21
0.0
 31
0.0
 44
0.9
  1
Mounting Hole Quantity
 40
0.125
 41
4.4
  0
MTEXT
  5
274
100
AcDbEntity
  8
0
100
AcDbMText
 62
2
  6
CONTINUOUS
  7
STANDARD
 71
2
 72
1
 10
6.055
 20
-2.4065
 30
0.0
 11
1.0
 21
0.0
 31
0.0
 44
0.9
  1
2
 40
0.125
 41
0.2
  0
ENDBLK
  5
275
100
AcDbEntity
  8
0
  6
BYBLOCK
 62
0
100
AcDbBlockEnd
  0
BLOCK
  5
276
100
AcDbEntity
  8
0
100
AcDbBlockBegin
  2
*T3
 70
1
 10
0.0
 20
0.0
  3
*T3
  1

  0
LINE
  5
277
100
AcDbEntity
  8
0
100
AcDbLine
 62
2
  6
CONTINUOUS
 10
0.0
 20
0.0
 11
4.6
 21
0.0
  0
LINE
  5
278
100
AcDbEntity
  8
0
100
AcDbLine
 62
2
  6
CONTINUOUS
 10
0.0
 20
0.0
 11
0.0
 21
-0.93775
  0
LINE
  5
279
100
AcDbEntity
  8
0
100
AcDbLine
 62
2
  6
CONTINUOUS
 10
0.0
 20
-0.34375
 11
4.6
 21
-0.34375
  0
LINE
  5
27A
100
AcDbEntity
  8
0
100
AcDbLine
 62
2
  6
CONTINUOUS
 10
0.0
 20
-0.68775
 11
4.6
 21
-0.68775
  0
LINE
  5
27B
100
AcDbEntity
  8
0
100
AcDbLine
 62
2
  6
CONTINUOUS
 10
0.0
 20
-0.93775
 11
4.6
 21
-0.93775
  0
LINE
  5
27C
100
AcDbEntity
  8
0
100
AcDbLine
 62
2
  6
CONTINUOUS
 10
1.3
 20
-0.34375
 11
1.3
 21
-0.93775
  0
LINE
  5
27D
100
AcDbEntity
  8
0
100
AcDbLine
 62
2
  6
CONTINUOUS
 10
3.3
 20
-0.34375
 11
3.3
 21
-0.93775
  0
LINE
  5
27E
100
AcDbEntity
  8
0
100
AcDbLine
 62
2
  6
CONTINUOUS
 10
4.6
 20
0.0
 11
4.6
 21
-0.93775
  0
MTEXT
  5
27F
100
AcDbEntity
  8
0
100
AcDbMText
 62
2
  6
CONTINUOUS
  7
STANDARD
 71
2
 72
1
 10
2.3
 20
-0.099375
 30
0.0
 11
1.0
 21
0.0
 31
0.0
 44
0.9
  1
Port Headings
 40
0.145
 41
3.016
  0
MTEXT
  5
280
100
AcDbEntity
  8
0
100
AcDbMText
 62
2
  6
CONTINUOUS
  7
STANDARD
 71
2
 72
1
 10
0.65
 20
-0.44325
 30
0.0
 11
1.0
 21
0.0
 31
0.0
 44
0.9
  1
Product
 40
0.145
 41
1.624
  0
MTEXT
  5
281
100
AcDbEntity
  8
0
100
AcDbMText
 62
2
  6
CONTINUOUS
  7
STANDARD
 71
2
 72
1
 10
2.3
 20
-0.44325
 30
0.0
 11
1.0
 21
0.0
 31
0.0
 44
0.9
  1
Port
 40
0.145
 41
0.928
  0
MTEXT
  5
282
100
AcDbEntity
  8
0
100
AcDbMText
 62
2
  6
CONTINUOUS
  7
STANDARD
 71
2
 72
1
 10
3.95
 20
-0.44325
 30
0.0
 11
1.0
 21
0.0
 31
0.0
 44
0.9
  1
Size
 40
0.145
 41
0.928
  0
MTEXT
  5
283
100
AcDbEntity
  8
0
100
AcDbMText
 62
2
  6
CONTINUOUS
  7
STANDARD
 71
2
 72
1
 10
0.65
 20
-0.75025
 30
0.0
 11
1.0
 21
0.0
 31
0.0
 44
0.9
  1
CNW
 40
0.125
 41
0.6
  0
MTEXT
  5
284
100
AcDbEntity
  8
0
100
AcDbMText
 62
2
  6
CONTINUOUS
  7
STANDARD
 71
2
 72
1
 10
2.3
 20
-0.75025
 30
0.0
 11
1.0
 21
0.0
 31
0.0
 44
0.9
  1
All Ports
 40
0.125
 41
1.8
  0
MTEXT
  5
285
100
AcDbEntity
  8
0
100
AcDbMText
 62
2
  6
CONTINUOUS
  7
STANDARD
 71
2
 72
1
 10
3.95
 20
-0.75025
 30
0.0
 11
1.0
 21
0.0
 31
0.0
 44
0.9
  1
3/4" BSPP
 40
0.125
 41
1.8
  0
ENDBLK
  5
286
100
AcDbEntity
  8
0
  6
BYBLOCK
 62
0
100
AcDbBlockEnd
  0
ENDSEC
  0
SECTION
  2
ENTITIES
  0
IMAGE
  5
287
100
AcDbEntity
  8
0
100
AcDbRasterImage
 62
7
  6
CONTINUOUS
 10
19.2297077316
 20
0.3094318264
 30
0.0
 11
0.0066666667
 21
0.0
 31
0.0
 12
0.0
 22
0.0066666667
 32
0.0
 13
369.0
 23
92.0
340
       37F
 70
9
280
0
281
50
282
50
283
0
360
       379
 71
1
 91
2
 14
-0.5
 24
-0.5
 14
368.5
 24
91.5
  0
INSERT
  5
288
100
AcDbEntity
  8
0
100
AcDbBlockReference
 62
2
  6
CONTINUOUS
  2
SUN_FIRST_THIRD_ANGLE_BL0
 10
20.4816717061
 20
1.2289683772
  0
ACAD_TABLE
  5
289
100
AcDbEntity
  8
0
 62
2
  6
CONTINUOUS
100
AcDbBlockReference
  2
*T1
 10
12.42375
 20
0.30125
 30
0.0
100
AcDbTable
342
       381
343
20F
 11
1.0
 21
0.0
 31
0.0
 90
6
 91
4
 92
6
 93
20
 94
0
 95
0
 96
0
 70
1
 41
0.0
141
0.525
141
0.1
141
0.525
141
0.1
142
4.1
142
1.1
142
0.7
142
0.5
142
0.4
142
2.475
171
1
172
0
173
0
174
0
175
1
176
1
 91
33
178
0
145
0.0
301
CELL_VALUE
 90
4
  1
T-3A Line mount\PNinety degree with reverse flow check
304
ACVALUE_END
170
2
140
0.125
171
1
172
0
173
0
174
0
175
1
176
1
 91
33
178
0
145
0.0
301
CELL_VALUE
 90
4
  1
Dec-02-19
304
ACVALUE_END
170
5
140
0.125
171
1
172
0
173
0
174
0
175
1
176
1
 91
33
178
0
145
0.0
301
CELL_VALUE
 90
4
  1
2.000
304
ACVALUE_END
170
5
140
0.125
171
1
172
0
173
0
174
0
175
1
176
1
 91
33
178
0
145
0.0
301
CELL_VALUE
 90
4
  1
C
304
ACVALUE_END
170
5
140
0.125
171
1
172
0
173
0
174
0
175
1
176
1
 91
33
178
0
145
0.0
301
CELL_VALUE
 90
4
  1
2
304
ACVALUE_END
170
5
140
0.125
171
1
172
0
173
0
174
0
175
1
176
1
 91
33
178
0
145
0.0
301
CELL_VALUE
 90
4
  1
 
304
ACVALUE_END
170
1
140
0.125
171
1
172
0
173
0
174
0
175
1
176
1
 91
33
178
0
145
0.0
301
CELL_VALUE
 90
4
  1
DESCRIPTION
304
ACVALUE_END
170
1
140
0.06
171
1
172
0
173
0
174
0
175
1
176
1
 91
33
178
0
145
0.0
301
CELL_VALUE
 90
4
  1
DATE
304
ACVALUE_END
170
1
140
0.06
171
1
172
0
173
0
174
0
175
1
176
1
 91
33
178
0
145
0.0
301
CELL_VALUE
 90
4
  1
SCALE
304
ACVALUE_END
170
1
140
0.06
171
1
172
0
173
0
174
0
175
1
176
1
 91
33
178
0
145
0.0
301
CELL_VALUE
 90
4
  1
DWG SIZE
304
ACVALUE_END
170
1
140
0.06
171
1
172
0
173
0
174
0
175
1
176
1
 91
33
178
0
145
0.0
301
CELL_VALUE
 90
4
  1
SHEET
304
ACVALUE_END
170
1
140
0.06
171
1
172
0
173
0
174
0
175
1
176
1
 91
33
178
0
145
0.0
301
CELL_VALUE
 90
4
  1
 
304
ACVALUE_END
170
1
140
0.125
171
1
172
0
173
0
174
0
175
1
176
1
 91
33
178
0
145
0.0
301
CELL_VALUE
 90
4
  1
CNW
304
ACVALUE_END
170
5
140
0.125
171
1
172
0
173
0
174
0
175
4
176
1
 91
33
178
0
145
0.0
301
CELL_VALUE
 90
4
  1
ALL DIMENSIONS IN INCH\PVIEWS ARE THIRD ANGLE
304
ACVALUE_END
170
5
140
0.12
171
1
172
0
173
1
174
0
175
1
176
1
 91
1
178
0
145
0.0
170
1
171
1
172
0
173
1
174
0
175
1
176
1
 91
1
178
0
145
0.0
170
1
171
1
172
0
173
1
174
0
175
1
176
1
 91
1
178
0
145
0.0
170
5
171
1
172
0
173
0
174
0
175
1
176
1
 91
33
178
0
145
0.0
301
CELL_VALUE
 90
4
  1
 
304
ACVALUE_END
170
1
140
0.125
171
1
172
0
173
0
174
0
175
1
176
1
 91
33
178
0
145
0.0
301
CELL_VALUE
 90
4
  1
MODEL
304
ACVALUE_END
170
1
140
0.06
171
1
172
0
173
0
174
0
175
1
176
1
 91
33
178
0
145
0.0
301
CELL_VALUE
 90
4
  1
 
304
ACVALUE_END
170
1
140
0.125
171
1
172
0
173
0
174
0
175
1
176
1
 91
33
178
0
145
0.0
301
CELL_VALUE
 90
4
  1
 
304
ACVALUE_END
170
1
140
0.125
171
1
172
0
173
0
174
0
175
1
176
1
 91
33
178
0
145
0.0
301
CELL_VALUE
 90
4
  1
 
304
ACVALUE_END
170
1
140
0.125
171
1
172
0
173
0
174
0
175
1
176
1
 91
33
178
0
145
0.0
301
CELL_VALUE
 90
4
  1
 
304
ACVALUE_END
170
1
140
0.125
171
1
172
0
173
0
174
0
175
1
176
1
 91
33
178
0
145
0.0
301
CELL_VALUE
 90
4
  1
 
304
ACVALUE_END
170
1
140
0.125
  0
ACAD_TABLE
  5
28A
100
AcDbEntity
  8
0
 62
2
  6
CONTINUOUS
100
AcDbBlockReference
  2
*T2
 10
12.4237499994
 20
16.47875
 30
0.0
100
AcDbTable
342
       380
343
210
 11
1.0
 21
0.0
 31
0.0
 90
22
 91
10
 92
3
 93
16
 94
0
 95
0
 96
0
 41
0.028
141
0.344
141
0.25
141
0.25
141
0.25
141
0.25
141
0.25
141
0.25
141
0.25
141
0.25
141
0.25
142
3.055
142
3.0
142
3.0
171
1
172
0
173
0
174
0
175
1
176
1
 91
33
178
0
145
0.0
301
CELL_VALUE
 90
4
  1
Technical Data
304
ACVALUE_END
170
5
140
0.145
171
1
172
0
173
0
174
0
175
1
176
1
 91
33
178
0
145
0.0
301
CELL_VALUE
 90
4
  1
U.S. Units
304
ACVALUE_END
170
5
140
0.145
171
1
172
0
173
0
174
0
175
1
176
1
 91
33
178
0
145
0.0
301
CELL_VALUE
 90
4
  1
Metric Units
304
ACVALUE_END
170
5
140
0.145
171
1
172
0
173
0
174
0
175
1
176
1
 91
33
178
0
145
0.0
301
CELL_VALUE
 90
4
  1
Cavity
304
ACVALUE_END
170
5
140
0.125
171
1
172
0
173
0
174
0
175
2
176
1
 91
33
178
0
145
0.0
301
CELL_VALUE
 90
4
  1
T-3A
304
ACVALUE_END
170
5
140
0.125
171
1
172
0
173
1
174
0
175
1
176
1
 91
1
178
0
145
0.0
170
1
171
1
172
0
173
0
174
0
175
1
176
1
 91
33
178
0
145
0.0
301
CELL_VALUE
 90
4
  1
Body Features
304
ACVALUE_END
170
5
140
0.125
171
1
172
0
173
0
174
0
175
2
176
1
 91
33
178
0
145
0.0
301
CELL_VALUE
 90
4
  1
Ninety degree with reverse flow check
304
ACVALUE_END
170
5
140
0.125
171
1
172
0
173
1
174
0
175
1
176
1
 91
1
178
0
145
0.0
170
1
171
1
172
0
173
0
174
0
175
1
176
1
 91
33
178
0
145
0.0
301
CELL_VALUE
 90
4
  1
Body Type
304
ACVALUE_END
170
5
140
0.125
171
1
172
0
173
0
174
0
175
2
176
1
 91
33
178
0
145
0.0
301
CELL_VALUE
 90
4
  1
Line mount
304
ACVALUE_END
170
5
140
0.125
171
1
172
0
173
1
174
0
175
1
176
1
 91
1
178
0
145
0.0
170
1
171
1
172
0
173
0
174
0
175
1
176
1
 91
33
178
0
145
0.0
301
CELL_VALUE
 90
4
  1
Interface
304
ACVALUE_END
170
5
140
0.125
171
1
172
0
173
0
174
0
175
2
176
1
 91
33
178
0
145
0.0
301
CELL_VALUE
 90
4
  1
None
304
ACVALUE_END
170
5
140
0.125
171
1
172
0
173
1
174
0
175
1
176
1
 91
1
178
0
145
0.0
170
1
171
1
172
0
173
0
174
0
175
1
176
1
 91
33
178
0
145
0.0
301
CELL_VALUE
 90
4
  1
Open Cavity Quantity
304
ACVALUE_END
170
5
140
0.125
171
1
172
0
173
0
174
0
175
2
176
1
 91
33
178
0
145
0.0
301
CELL_VALUE
 90
4
  1
1
304
ACVALUE_END
170
5
140
0.125
171
1
172
0
173
1
174
0
175
1
176
1
 91
1
178
0
145
0.0
170
1
171
1
172
0
173
0
174
0
175
1
176
1
 91
33
178
0
145
0.0
301
CELL_VALUE
 90
4
  1
Weight
304
ACVALUE_END
170
5
140
0.125
171
1
172
0
173
0
174
0
175
1
176
1
 91
33
178
0
145
0.0
301
CELL_VALUE
 90
4
  1
1.465 lb.
304
ACVALUE_END
170
5
140
0.125
171
1
172
0
173
0
174
0
175
1
176
1
 91
33
178
0
145
0.0
301
CELL_VALUE
 90
4
  1
0,665 kg.
304
ACVALUE_END
170
5
140
0.125
171
1
172
0
173
0
174
0
175
1
176
1
 91
33
178
0
145
0.0
301
CELL_VALUE
 90
4
  1
Mounting Hole Diameter
304
ACVALUE_END
170
5
140
0.125
171
1
172
0
173
0
174
0
175
1
176
1
 91
33
178
0
145
0.0
301
CELL_VALUE
 90
4
  1
.28 in.
304
ACVALUE_END
170
5
140
0.125
171
1
172
0
173
0
174
0
175
1
176
1
 91
33
178
0
145
0.0
301
CELL_VALUE
 90
4
  1
7,1 mm
304
ACVALUE_END
170
5
140
0.125
171
1
172
0
173
0
174
0
175
1
176
1
 91
33
178
0
145
0.0
301
CELL_VALUE
 90
4
  1
Mounting Hole Depth
304
ACVALUE_END
170
5
140
0.125
171
1
172
0
173
0
174
0
175
2
176
1
 91
33
178
0
145
0.0
301
CELL_VALUE
 90
4
  1
Through
304
ACVALUE_END
170
5
140
0.125
171
1
172
0
173
1
174
0
175
1
176
1
 91
1
178
0
145
0.0
170
1
171
1
172
0
173
0
174
0
175
1
176
1
 91
33
178
0
145
0.0
301
CELL_VALUE
 90
4
  1
Mounting Hole Quantity
304
ACVALUE_END
170
5
140
0.125
171
1
172
0
173
0
174
0
175
2
176
1
 91
33
178
0
145
0.0
301
CELL_VALUE
 90
4
  1
2
304
ACVALUE_END
170
5
140
0.125
171
1
172
0
173
1
174
0
175
1
176
1
 91
1
178
0
145
0.0
170
1
  0
ACAD_TABLE
  5
28B
100
AcDbEntity
  8
0
 62
2
  6
CONTINUOUS
100
AcDbBlockReference
  2
*T3
 10
0.52125
 20
1.459
 30
0.0
100
AcDbTable
342
       380
343
211
 11
1.0
 21
0.0
 31
0.0
 90
22
 91
3
 92
3
 93
16
 94
0
 95
0
 96
0
 41
0.05
141
0.34375
141
0.344
141
0.25
142
1.3
142
2.0
142
1.3
171
1
172
0
173
0
174
0
175
3
176
1
 91
33
178
0
145
0.0
301
CELL_VALUE
 90
4
  1
Port Headings
304
ACVALUE_END
170
5
140
0.145
171
1
172
0
173
1
174
0
175
1
176
1
 91
1
178
0
145
0.0
170
1
171
1
172
0
173
1
174
0
175
1
176
1
 91
1
178
0
145
0.0
170
1
171
1
172
0
173
0
174
0
175
1
176
1
 91
33
178
0
145
0.0
301
CELL_VALUE
 90
4
  1
Product
304
ACVALUE_END
170
5
140
0.145
171
1
172
0
173
0
174
0
175
1
176
1
 91
33
178
0
145
0.0
301
CELL_VALUE
 90
4
  1
Port
304
ACVALUE_END
170
5
140
0.145
171
1
172
0
173
0
174
0
175
1
176
1
 91
33
178
0
145
0.0
301
CELL_VALUE
 90
4
  1
Size
304
ACVALUE_END
170
5
140
0.145
171
1
172
0
173
0
174
0
175
1
176
1
 91
33
178
0
145
0.0
301
CELL_VALUE
 90
4
  1
CNW
304
ACVALUE_END
170
5
140
0.125
171
1
172
0
173
0
174
0
175
1
176
1
 91
33
178
0
145
0.0
301
CELL_VALUE
 90
4
  1
All Ports
304
ACVALUE_END
170
5
140
0.125
171
1
172
0
173
0
174
0
175
1
176
1
 91
33
178
0
145
0.0
301
CELL_VALUE
 90
4
  1
3/4" BSPP
304
ACVALUE_END
170
5
140
0.125
  0
MTEXT
  5
28C
100
AcDbEntity
  8
0
100
AcDbMText
 62
2
  6
CONTINUOUS
  7
STANDARD
 71
1
 72
1
 10
0.52125
 20
5.75995
 30
0.0
 11
1.0
 21
0.0
 31
0.0
 44
0.6
  3
Notes\P \P1. Important: Carefully consider\P   the maximum system pressure. The\P   pressure rating of the manifold is\P   dependent on the manifold material,\P   with the port type/size a secondary\P   consideration. Manifolds\P   constructed of alu
  1
minum are not\P   rated for pressures higher than\P   3000 psi (210 bar), regardless of\P   the port type/size specified.
 40
0.1
 41
3.04
  0
LINE
  5
28D
100
AcDbEntity
  8
0
100
AcDbLine
 62
7
  6
CONTINUOUS
 10
0.30125
 20
0.30125
 11
0.30125
 21
16.69875
  0
LINE
  5
28E
100
AcDbEntity
  8
0
100
AcDbLine
 62
7
  6
CONTINUOUS
 10
0.30125
 20
0.30125
 11
21.69875
 21
0.30125
  0
LINE
  5
28F
100
AcDbEntity
  8
0
100
AcDbLine
 62
7
  6
CONTINUOUS
 10
0.30125
 20
16.69875
 11
21.69875
 21
16.69875
  0
LINE
  5
290
100
AcDbEntity
  8
0
100
AcDbLine
 62
7
  6
CONTINUOUS
 10
21.69875
 20
0.30125
 11
21.69875
 21
16.69875
  0
LINE
  5
291
100
AcDbEntity
  8
0
100
AcDbLine
 62
7
  6
CONTINUOUS
 10
6.647853453
 20
11.2572330942
 11
7.4243099475
 21
12.0072325197
  0
LINE
  5
292
100
AcDbEntity
  8
0
100
AcDbLine
 62
7
  6
CONTINUOUS
 10
6.647853453
 20
5.4616777931
 11
6.647853453
 21
11.2572330942
  0
LINE
  5
293
100
AcDbEntity
  8
0
100
AcDbLine
 62
4
  6
CONTINUOUS
 10
8.5217497367
 20
10.7747149988
 11
8.5410682493
 21
10.8023530312
  0
LINE
  5
294
100
AcDbEntity
  8
0
100
AcDbLine
 62
7
  6
CONTINUOUS
 10
13.4093346376
 20
4.9927674803
 11
6.647853453
 21
5.4616777931
  0
LINE
  5
295
100
AcDbEntity
  8
0
100
AcDbLine
 62
4
  6
CONTINUOUS
 10
8.5410682493
 20
10.8023530312
 11
8.5603867757
 21
10.8155021748
  0
LINE
  5
296
100
AcDbEntity
  8
0
100
AcDbLine
 62
4
  6
CONTINUOUS
 10
11.2456606637
 20
5.4519148759
 11
11.4774828706
 21
5.4358379513
  0
LINE
  5
297
100
AcDbEntity
  8
0
100
AcDbLine
 62
4
  6
CONTINUOUS
 10
8.5217497367
 20
10.7457372229
 11
8.5217497367
 21
10.7747149988
  0
LINE
  5
298
100
AcDbEntity
  8
0
100
AcDbLine
 62
4
  6
CONTINUOUS
 10
8.7535719435
 20
10.6861936345
 11
8.7535719435
 21
10.8021047379
  0
LINE
  5
299
100
AcDbEntity
  8
0
100
AcDbLine
 62
4
  6
CONTINUOUS
 10
9.4628374563
 20
7.0796389096
 11
9.4297200001
 21
7.1150530726
  0
LINE
  5
29A
100
AcDbEntity
  8
0
100
AcDbLine
 62
4
  6
CONTINUOUS
 10
9.661542207
 20
7.1486523356
 11
9.6284247474
 21
7.1840664954
  0
LINE
  5
29B
100
AcDbEntity
  8
0
100
AcDbLine
 62
4
  6
CONTINUOUS
 10
9.4297200001
 20
7.1150530726
 11
9.4297200001
 21
7.1812879883
  0
LINE
  5
29C
100
AcDbEntity
  8
0
100
AcDbLine
 62
4
  6
CONTINUOUS
 10
9.4297200001
 20
8.9144349361
 11
9.4297200001
 21
8.9199544914
  0
LINE
  5
29D
100
AcDbEntity
  8
0
100
AcDbLine
 62
4
  6
CONTINUOUS
 10
9.4959549124
 20
8.5124321108
 11
9.4959549124
 21
8.4296384497
  0
LINE
  5
29E
100
AcDbEntity
  8
0
100
AcDbLine
 62
4
  6
CONTINUOUS
 10
9.4959549124
 20
7.8059262691
 11
9.4959549124
 21
7.8887199302
  0
LINE
  5
29F
100
AcDbEntity
  8
0
100
AcDbLine
 62
4
  6
CONTINUOUS
 10
9.4959549124
 20
8.1481400241
 11
9.4959549124
 21
8.2143749088
  0
LINE
  5
2A0
100
AcDbEntity
  8
0
100
AcDbLine
 62
4
  6
CONTINUOUS
 10
9.4959549124
 20
8.280609904
 11
9.4959549124
 21
8.3468447886
  0
LINE
  5
2A1
100
AcDbEntity
  8
0
100
AcDbLine
 62
4
  6
CONTINUOUS
 10
9.4959549124
 20
9.0147134116
 11
9.4959549124
 21
9.0809485174
  0
LINE
  5
2A2
100
AcDbEntity
  8
0
100
AcDbLine
 62
4
  6
CONTINUOUS
 10
9.4959549124
 20
9.163742068
 11
9.4959549124
 21
9.2299769526
  0
LINE
  5
2A3
100
AcDbEntity
  8
0
100
AcDbLine
 62
4
  6
CONTINUOUS
 10
9.5842681357
 20
9.2238524098
 11
9.5732289837
 21
9.1583830929
  0
LINE
  5
2A4
100
AcDbEntity
  8
0
100
AcDbLine
 62
4
  6
CONTINUOUS
 10
9.5953072878
 20
9.2396455079
 11
9.5842681357
 21
9.2238524098
  0
LINE
  5
2A5
100
AcDbEntity
  8
0
100
AcDbLine
 62
4
  6
CONTINUOUS
 10
9.5732289837
 20
9.1583830929
 11
9.5621898316
 21
9.1425899948
  0
LINE
  5
2A6
100
AcDbEntity
  8
0
100
AcDbLine
 62
4
  6
CONTINUOUS
 10
9.4959549124
 20
9.2299769526
 11
9.5125136474
 21
9.2453872663
  0
LINE
  5
2A7
100
AcDbEntity
  8
0
100
AcDbLine
 62
4
  6
CONTINUOUS
 10
9.4959549124
 20
7.0773422062
 11
9.4628374563
 21
7.0796389096
  0
LINE
  5
2A8
100
AcDbEntity
  8
0
100
AcDbLine
 62
4
  6
CONTINUOUS
 10
9.661542207
 20
7.3307983651
 11
9.6284247474
 21
7.3662125111
  0
LINE
  5
2A9
100
AcDbEntity
  8
0
100
AcDbLine
 62
4
  6
CONTINUOUS
 10
9.5125136474
 20
8.1138742296
 11
9.4959549124
 21
8.1481400241
  0
LINE
  5
2AA
100
AcDbEntity
  8
0
100
AcDbLine
 62
4
  6
CONTINUOUS
 10
9.5787485597
 20
8.4570141331
 11
9.5787485597
 21
8.5232490178
  0
LINE
  5
2AB
100
AcDbEntity
  8
0
100
AcDbLine
 62
4
  6
CONTINUOUS
 10
9.661542207
 20
9.0694649995
 11
9.661542207
 21
9.0032298938
  0
LINE
  5
2AC
100
AcDbEntity
  8
0
100
AcDbLine
 62
4
  6
CONTINUOUS
 10
9.661542207
 20
8.7990056845
 11
9.661542207
 21
8.7658882421
  0
LINE
  5
2AD
100
AcDbEntity
  8
0
100
AcDbLine
 62
4
  6
CONTINUOUS
 10
9.661542207
 20
8.5175072588
 11
9.661542207
 21
8.4512723742
  0
LINE
  5
2AE
100
AcDbEntity
  8
0
100
AcDbLine
 62
4
  6
CONTINUOUS
 10
9.661542207
 20
8.2028913909
 11
9.661542207
 21
8.1366565062
  0
LINE
  5
2AF
100
AcDbEntity
  8
0
100
AcDbLine
 62
4
  6
CONTINUOUS
 10
9.661542207
 20
7.0824174181
 11
9.661542207
 21
7.1486523356
  0
LINE
  5
2B0
100
AcDbEntity
  8
0
100
AcDbLine
 62
4
  6
CONTINUOUS
 10
9.661542207
 20
7.2811221602
 11
9.661542207
 21
7.3307983651
  0
LINE
  5
2B1
100
AcDbEntity
  8
0
100
AcDbLine
 62
4
  6
CONTINUOUS
 10
9.661542207
 20
8.6003009199
 11
9.661542207
 21
8.683094581
  0
LINE
  5
2B2
100
AcDbEntity
  8
0
100
AcDbLine
 62
4
  6
CONTINUOUS
 10
9.661542207
 20
9.1522585501
 11
9.661542207
 21
9.2184934347
  0
LINE
  5
2B3
100
AcDbEntity
  8
0
100
AcDbLine
 62
4
  6
CONTINUOUS
 10
9.7167379707
 20
7.9562022342
 11
9.7167379707
 21
7.9893196765
  0
LINE
  5
2B4
100
AcDbEntity
  8
0
100
AcDbLine
 62
4
  6
CONTINUOUS
 10
9.661542207
 20
8.4512723742
 11
9.6449834772
 21
8.4193032837
  0
LINE
  5
2B5
100
AcDbEntity
  8
0
100
AcDbLine
 62
4
  6
CONTINUOUS
 10
9.6449834772
 20
9.136848236
 11
9.661542207
 21
9.1522585501
  0
LINE
  5
2B6
100
AcDbEntity
  8
0
100
AcDbLine
 62
4
  6
CONTINUOUS
 10
9.661542207
 20
9.0032298938
 11
9.6449834772
 21
8.9878195797
  0
LINE
  5
2B7
100
AcDbEntity
  8
0
100
AcDbLine
 62
4
  6
CONTINUOUS
 10
9.661542207
 20
8.7658882421
 11
9.6449834772
 21
8.7504778175
  0
LINE
  5
2B8
100
AcDbEntity
  8
0
100
AcDbLine
 62
4
  6
CONTINUOUS
 10
9.6284247474
 20
7.1840664954
 11
9.5953072878
 21
7.186363199
  0
LINE
  5
2B9
100
AcDbEntity
  8
0
100
AcDbLine
 62
4
  6
CONTINUOUS
 10
9.4297200001
 20
7.2640816287
 11
9.6284247474
 21
7.2503014077
  0
LINE
  5
2BA
100
AcDbEntity
  8
0
100
AcDbLine
 62
4
  6
CONTINUOUS
 10
10.843835462
 20
7.2377669093
 11
10.6120132551
 21
7.2538438339
  0
LINE
  5
2BB
100
AcDbEntity
  8
0
100
AcDbLine
 62
4
  6
CONTINUOUS
 10
9.6284247474
 20
7.3662125111
 11
9.4297200001
 21
7.3799927321
  0
LINE
  5
2BC
100
AcDbEntity
  8
0
100
AcDbLine
 62
4
  6
CONTINUOUS
 10
9.661542207
 20
7.4301507198
 11
9.4297200001
 21
7.4462276444
  0
LINE
  5
2BD
100
AcDbEntity
  8
0
100
AcDbLine
 62
4
  6
CONTINUOUS
 10
10.6451307113
 20
7.3674582202
 11
10.8107180024
 21
7.3559747025
  0
LINE
  5
2BE
100
AcDbEntity
  8
0
100
AcDbLine
 62
4
  6
CONTINUOUS
 10
10.1351218562
 20
7.8305945757
 11
10.1020044
 21
7.8660087387
  0
LINE
  5
2BF
100
AcDbEntity
  8
0
100
AcDbLine
 62
4
  6
CONTINUOUS
 10
9.5953072878
 20
8.4227483391
 11
9.5787485597
 21
8.4570141331
  0
LINE
  5
2C0
100
AcDbEntity
  8
0
100
AcDbLine
 62
4
  6
CONTINUOUS
 10
10.1020044
 20
7.8660087387
 11
10.1020044
 21
7.9322436545
  0
LINE
  5
2C1
100
AcDbEntity
  8
0
100
AcDbLine
 62
4
  6
CONTINUOUS
 10
9.661542207
 20
8.1366565062
 11
9.6449834772
 21
8.1046874157
  0
LINE
  5
2C2
100
AcDbEntity
  8
0
100
AcDbLine
 62
4
  6
CONTINUOUS
 10
9.6449834772
 20
8.5848904953
 11
9.661542207
 21
8.6003009199
  0
LINE
  5
2C3
100
AcDbEntity
  8
0
100
AcDbLine
 62
4
  6
CONTINUOUS
 10
10.6120132551
 20
7.5298226352
 11
10.843835462
 21
7.5799806505
  0
LINE
  5
2C4
100
AcDbEntity
  8
0
100
AcDbLine
 62
4
  6
CONTINUOUS
 10
9.661542207
 20
7.5460618232
 11
9.4297200001
 21
7.5621387478
  0
LINE
  5
2C5
100
AcDbEntity
  8
0
100
AcDbLine
 62
4
  6
CONTINUOUS
 10
9.661542207
 20
7.7944427512
 11
9.4297200001
 21
7.8105196759
  0
LINE
  5
2C6
100
AcDbEntity
  8
0
100
AcDbLine
 62
4
  6
CONTINUOUS
 10
10.843835462
 20
7.7124504751
 11
10.6120132551
 21
7.7285273997
  0
LINE
  5
2C7
100
AcDbEntity
  8
0
100
AcDbLine
 62
4
  6
CONTINUOUS
 10
10.3007091473
 20
7.8191110581
 11
10.1351218562
 21
7.8305945757
  0
LINE
  5
2C8
100
AcDbEntity
  8
0
100
AcDbLine
 62
4
  6
CONTINUOUS
 10
9.5125136474
 20
7.9041302992
 11
9.661542207
 21
7.8937951335
  0
LINE
  5
2C9
100
AcDbEntity
  8
0
100
AcDbLine
 62
4
  6
CONTINUOUS
 10
10.843835462
 20
7.4475107982
 11
10.6120132551
 21
7.5298226352
  0
LINE
  5
2CA
100
AcDbEntity
  8
0
100
AcDbLine
 62
4
  6
CONTINUOUS
 10
9.7167379707
 20
7.9893196765
 11
9.4959549124
 21
8.0708659183
  0
LINE
  5
2CB
100
AcDbEntity
  8
0
100
AcDbLine
 62
4
  6
CONTINUOUS
 10
10.8107180024
 20
7.3559747025
 11
10.843835462
 21
7.3205605427
  0
LINE
  5
2CC
100
AcDbEntity
  8
0
100
AcDbLine
 62
4
  6
CONTINUOUS
 10
9.5125136474
 20
8.9970063936
 11
9.4959549124
 21
9.0147134116
  0
LINE
  5
2CD
100
AcDbEntity
  8
0
100
AcDbLine
 62
4
  6
CONTINUOUS
 10
8.5410682493
 20
10.7154197036
 11
8.5217497367
 21
10.7457372229
  0
LINE
  5
2CE
100
AcDbEntity
  8
0
100
AcDbLine
 62
4
  6
CONTINUOUS
 10
8.6183423275
 20
10.7969940557
 11
8.6569793596
 21
10.7363590167
  0
LINE
  5
2CF
100
AcDbEntity
  8
0
100
AcDbLine
 62
4
  6
CONTINUOUS
 10
10.7003264715
 20
7.2035626765
 11
10.7444830866
 21
7.1121871815
  0
LINE
  5
2D0
100
AcDbEntity
  8
0
100
AcDbLine
 62
4
  6
CONTINUOUS
 10
10.3338266069
 20
7.9161667298
 11
10.3338266069
 21
7.8499318141
  0
LINE
  5
2D1
100
AcDbEntity
  8
0
100
AcDbLine
 62
4
  6
CONTINUOUS
 10
10.6120132551
 20
7.2538438339
 11
10.6120132551
 21
7.3366374674
  0
LINE
  5
2D2
100
AcDbEntity
  8
0
100
AcDbLine
 62
4
  6
CONTINUOUS
 10
10.6120132551
 20
7.6622924598
 11
10.6120132551
 21
7.7947622844
  0
LINE
  5
2D3
100
AcDbEntity
  8
0
100
AcDbLine
 62
4
  6
CONTINUOUS
 10
10.6120132551
 20
7.8609972243
 11
10.6120132551
 21
7.9603496066
  0
LINE
  5
2D4
100
AcDbEntity
  8
0
100
AcDbLine
 62
4
  6
CONTINUOUS
 10
10.6120132551
 20
8.2418480322
 11
10.6120132551
 21
8.3080829169
  0
LINE
  5
2D5
100
AcDbEntity
  8
0
100
AcDbLine
 62
4
  6
CONTINUOUS
 10
10.6120132551
 20
8.4350331309
 11
10.6120132551
 21
8.4847093497
  0
LINE
  5
2D6
100
AcDbEntity
  8
0
100
AcDbLine
 62
4
  6
CONTINUOUS
 10
10.6120132551
 20
8.5840616767
 11
10.6120132551
 21
8.6668553378
  0
LINE
  5
2D7
100
AcDbEntity
  8
0
100
AcDbLine
 62
4
  6
CONTINUOUS
 10
10.6120132551
 20
8.7938056623
 11
10.6120132551
 21
8.8931579893
  0
LINE
  5
2D8
100
AcDbEntity
  8
0
100
AcDbLine
 62
4
  6
CONTINUOUS
 10
10.7003264715
 20
8.9532683316
 11
10.7444830866
 21
9.0385192764
  0
LINE
  5
2D9
100
AcDbEntity
  8
0
100
AcDbLine
 62
4
  6
CONTINUOUS
 10
9.4959549124
 20
7.8887199302
 11
9.5125136474
 21
7.9041302992
  0
LINE
  5
2DA
100
AcDbEntity
  8
0
100
AcDbLine
 62
4
  6
CONTINUOUS
 10
10.6120132551
 20
8.6668553378
 11
10.6451307113
 21
8.6976760767
  0
LINE
  5
2DB
100
AcDbEntity
  8
0
100
AcDbLine
 62
4
  6
CONTINUOUS
 10
9.4959549124
 20
8.3468447886
 11
9.5125136474
 21
8.3567355471
  0
LINE
  5
2DC
100
AcDbEntity
  8
0
100
AcDbLine
 62
4
  6
CONTINUOUS
 10
9.5290723686
 20
8.5266940733
 11
9.4959549124
 21
8.5124321108
  0
LINE
  5
2DD
100
AcDbEntity
  8
0
100
AcDbLine
 62
4
  6
CONTINUOUS
 10
13.1002381351
 20
8.4094328758
 11
13.0422825834
 21
8.398963219
  0
LINE
  5
2DE
100
AcDbEntity
  8
0
100
AcDbLine
 62
4
  6
CONTINUOUS
 10
10.843835462
 20
7.8449202997
 11
10.6120132551
 21
7.8609972243
  0
LINE
  5
2DF
100
AcDbEntity
  8
0
100
AcDbLine
 62
4
  6
CONTINUOUS
 10
10.3338266069
 20
8.0099995223
 11
10.1020044
 21
8.0260764469
  0
LINE
  5
2E0
100
AcDbEntity
  8
0
100
AcDbLine
 62
4
  6
CONTINUOUS
 10
9.6449834772
 20
8.1046874157
 11
9.5125136474
 21
8.1138742296
  0
LINE
  5
2E1
100
AcDbEntity
  8
0
100
AcDbLine
 62
4
  6
CONTINUOUS
 10
10.3338266069
 20
8.1259106395
 11
10.1020044
 21
8.1419875642
  0
LINE
  5
2E2
100
AcDbEntity
  8
0
100
AcDbLine
 62
4
  6
CONTINUOUS
 10
9.4297200001
 20
8.2189683155
 11
9.661542207
 21
8.2028913909
  0
LINE
  5
2E3
100
AcDbEntity
  8
0
100
AcDbLine
 62
7
  6
CONTINUOUS
 10
14.1934896812
 20
7.9345391957
 11
14.9622965638
 21
7.8812222573
  0
LINE
  5
2E4
100
AcDbEntity
  8
0
100
AcDbLine
 62
4
  6
CONTINUOUS
 10
9.661542207
 20
8.2691263861
 11
9.4959549124
 21
8.280609904
  0
LINE
  5
2E5
100
AcDbEntity
  8
0
100
AcDbLine
 62
4
  6
CONTINUOUS
 10
10.3338266069
 20
8.3411740976
 11
10.1020044
 21
8.406927241
  0
LINE
  5
2E6
100
AcDbEntity
  8
0
100
AcDbLine
 62
4
  6
CONTINUOUS
 10
10.3338266069
 20
8.2418217429
 11
10.1682393123
 21
8.302981452
  0
LINE
  5
2E7
100
AcDbEntity
  8
0
100
AcDbLine
 62
4
  6
CONTINUOUS
 10
9.5125136474
 20
9.1460350499
 11
9.4959549124
 21
9.163742068
  0
LINE
  5
2E8
100
AcDbEntity
  8
0
100
AcDbLine
 62
4
  6
CONTINUOUS
 10
9.661542207
 20
9.2184934347
 11
9.6449834772
 21
9.2362004524
  0
LINE
  5
2E9
100
AcDbEntity
  8
0
100
AcDbLine
 62
4
  6
CONTINUOUS
 10
10.6451307113
 20
8.2064338865
 11
10.6120132551
 21
8.2418480322
  0
LINE
  5
2EA
100
AcDbEntity
  8
0
100
AcDbLine
 62
4
  6
CONTINUOUS
 10
10.6451307113
 20
8.3996189852
 11
10.6120132551
 21
8.4350331309
  0
LINE
  5
2EB
100
AcDbEntity
  8
0
100
AcDbLine
 62
4
  6
CONTINUOUS
 10
10.7113656236
 20
8.8531504368
 11
10.7113656236
 21
8.7869155522
  0
LINE
  5
2EC
100
AcDbEntity
  8
0
100
AcDbLine
 62
4
  6
CONTINUOUS
 10
10.7113656236
 20
7.9203420541
 11
10.7113656236
 21
7.8541071142
  0
LINE
  5
2ED
100
AcDbEntity
  8
0
100
AcDbLine
 62
4
  6
CONTINUOUS
 10
10.7776005428
 20
7.4741825096
 11
10.7776005428
 21
7.562495726
  0
LINE
  5
2EE
100
AcDbEntity
  8
0
100
AcDbLine
 62
4
  6
CONTINUOUS
 10
10.843835462
 20
8.6507784131
 11
10.843835462
 21
8.567984752
  0
LINE
  5
2EF
100
AcDbEntity
  8
0
100
AcDbLine
 62
4
  6
CONTINUOUS
 10
10.843835462
 20
8.468632425
 11
10.843835462
 21
8.4189562063
  0
LINE
  5
2F0
100
AcDbEntity
  8
0
100
AcDbLine
 62
4
  6
CONTINUOUS
 10
10.843835462
 20
8.2920059922
 11
10.843835462
 21
8.2257711076
  0
LINE
  5
2F1
100
AcDbEntity
  8
0
100
AcDbLine
 62
4
  6
CONTINUOUS
 10
10.843835462
 20
7.3205605427
 11
10.843835462
 21
7.2377669093
  0
LINE
  5
2F2
100
AcDbEntity
  8
0
100
AcDbLine
 62
4
  6
CONTINUOUS
 10
10.843835462
 20
7.8449202997
 11
10.843835462
 21
7.9442726819
  0
LINE
  5
2F3
100
AcDbEntity
  8
0
100
AcDbLine
 62
4
  6
CONTINUOUS
 10
10.843835462
 20
8.7777287377
 11
10.843835462
 21
8.8770810647
  0
LINE
  5
2F4
100
AcDbEntity
  8
0
100
AcDbLine
 62
4
  6
CONTINUOUS
 10
9.5953072878
 20
7.186363199
 11
9.4959549124
 21
7.0773422062
  0
LINE
  5
2F5
100
AcDbEntity
  8
0
100
AcDbLine
 62
7
  6
CONTINUOUS
 10
13.4093346376
 20
10.7883227814
 11
14.1857911321
 21
11.5383222069
  0
LINE
  5
2F6
100
AcDbEntity
  8
0
100
AcDbLine
 62
4
  6
CONTINUOUS
 10
10.6120132551
 20
8.4847093497
 11
10.6451307113
 21
8.5155300886
  0
LINE
  5
2F7
100
AcDbEntity
  8
0
100
AcDbLine
 62
4
  6
CONTINUOUS
 10
9.4297200001
 20
7.1812879883
 11
9.4462787351
 21
7.1966983642
  0
LINE
  5
2F8
100
AcDbEntity
  8
0
100
AcDbLine
 62
4
  6
CONTINUOUS
 10
10.843835462
 20
8.4189562063
 11
10.8107180024
 21
8.3881354675
  0
LINE
  5
2F9
100
AcDbEntity
  8
0
100
AcDbLine
 62
4
  6
CONTINUOUS
 10
9.6284247474
 20
7.2503014077
 11
9.661542207
 21
7.2811221602
  0
LINE
  5
2FA
100
AcDbEntity
  8
0
100
AcDbLine
 62
4
  6
CONTINUOUS
 10
10.3338266069
 20
7.8499318141
 11
10.3007091473
 21
7.8191110581
  0
LINE
  5
2FB
100
AcDbEntity
  8
0
100
AcDbLine
 62
4
  6
CONTINUOUS
 10
9.4959549124
 20
7.9715135913
 11
9.661542207
 21
8.0097062922
  0
LINE
  5
2FC
100
AcDbEntity
  8
0
100
AcDbLine
 62
4
  6
CONTINUOUS
 10
10.1682393123
 20
8.302981452
 11
10.3338266069
 21
8.3411740976
  0
LINE
  5
2FD
100
AcDbEntity
  8
0
100
AcDbLine
 62
4
  6
CONTINUOUS
 10
10.1020044
 20
8.2082224765
 11
10.3338266069
 21
8.2418217429
  0
LINE
  5
2FE
100
AcDbEntity
  8
0
100
AcDbLine
 62
4
  6
CONTINUOUS
 10
10.8107180024
 20
8.1949503689
 11
10.6451307113
 21
8.2064338865
  0
LINE
  5
2FF
100
AcDbEntity
  8
0
100
AcDbLine
 62
4
  6
CONTINUOUS
 10
9.5125136474
 20
8.3567355471
 11
9.5456311035
 21
8.3544388437
  0
LINE
  5
300
100
AcDbEntity
  8
0
100
AcDbLine
 62
7
  6
CONTINUOUS
 10
13.7007679533
 20
8.1286894043
 11
13.9714969086
 21
8.1099142875
  0
LINE
  5
301
100
AcDbEntity
  8
0
100
AcDbLine
 62
4
  6
CONTINUOUS
 10
9.6449834772
 20
8.4193032837
 11
9.5953072878
 21
8.4227483391
  0
LINE
  5
302
100
AcDbEntity
  8
0
100
AcDbLine
 62
4
  6
CONTINUOUS
 10
10.8107180024
 20
8.3881354675
 11
10.6451307113
 21
8.3996189852
  0
LINE
  5
303
100
AcDbEntity
  8
0
100
AcDbLine
 62
4
  6
CONTINUOUS
 10
9.661542207
 20
8.5175072588
 11
9.5290723686
 21
8.5266940733
  0
LINE
  5
304
100
AcDbEntity
  8
0
100
AcDbLine
 62
7
  6
CONTINUOUS
 10
13.9312230856
 20
8.2463155773
 11
14.7000299682
 21
8.1929986389
  0
LINE
  5
305
100
AcDbEntity
  8
0
100
AcDbLine
 62
4
  6
CONTINUOUS
 10
9.4959549124
 20
8.5952256614
 11
9.6449834772
 21
8.5848904953
  0
LINE
  5
306
100
AcDbEntity
  8
0
100
AcDbLine
 62
4
  6
CONTINUOUS
 10
10.6451307113
 20
8.5155300886
 11
10.8107180024
 21
8.504046571
  0
LINE
  5
307
100
AcDbEntity
  8
0
100
AcDbLine
 62
7
  6
CONTINUOUS
 10
13.9167750612
 20
8.3257534367
 11
14.6855819439
 21
8.2724364983
  0
LINE
  5
308
100
AcDbEntity
  8
0
100
AcDbLine
 62
4
  6
CONTINUOUS
 10
9.4297200001
 20
8.9199544914
 11
9.4462787351
 21
8.913286584
  0
LINE
  5
309
100
AcDbEntity
  8
0
100
AcDbLine
 62
4
  6
CONTINUOUS
 10
10.8107180024
 20
8.504046571
 11
10.843835462
 21
8.468632425
  0
LINE
  5
30A
100
AcDbEntity
  8
0
100
AcDbLine
 62
4
  6
CONTINUOUS
 10
10.8107180024
 20
8.6861925591
 11
10.843835462
 21
8.6507784131
  0
LINE
  5
30B
100
AcDbEntity
  8
0
100
AcDbLine
 62
4
  6
CONTINUOUS
 10
10.7444830866
 20
9.0385192764
 11
10.7886396983
 21
8.9471437886
  0
LINE
  5
30C
100
AcDbEntity
  8
0
100
AcDbLine
 62
4
  6
CONTINUOUS
 10
10.7444830866
 20
7.1121871815
 11
10.7886396983
 21
7.1974381334
  0
LINE
  5
30D
100
AcDbEntity
  8
0
100
AcDbLine
 62
4
  6
CONTINUOUS
 10
10.843835462
 20
8.2257711076
 11
10.8107180024
 21
8.1949503689
  0
LINE
  5
30E
100
AcDbEntity
  8
0
100
AcDbLine
 62
4
  6
CONTINUOUS
 10
9.6449834772
 20
7.0670070401
 11
9.661542207
 21
7.0824174181
  0
LINE
  5
30F
100
AcDbEntity
  8
0
100
AcDbLine
 62
4
  6
CONTINUOUS
 10
10.1020044
 20
8.0260764469
 11
10.3338266069
 21
8.1259106395
  0
LINE
  5
310
100
AcDbEntity
  8
0
100
AcDbLine
 62
4
  6
CONTINUOUS
 10
9.4297200001
 20
7.4462276444
 11
9.661542207
 21
7.5460618232
  0
LINE
  5
311
100
AcDbEntity
  8
0
100
AcDbLine
 62
4
  6
CONTINUOUS
 10
12.92637148
 20
9.1894016295
 11
13.1581936868
 21
9.2457691445
  0
LINE
  5
312
100
AcDbEntity
  8
0
100
AcDbLine
 62
4
  6
CONTINUOUS
 10
10.843835462
 20
8.567984752
 11
10.6120132551
 21
8.5840616767
  0
LINE
  5
313
100
AcDbEntity
  8
0
100
AcDbLine
 62
4
  6
CONTINUOUS
 10
9.661542207
 20
8.683094581
 11
9.4959549124
 21
8.6945780989
  0
LINE
  5
314
100
AcDbEntity
  8
0
100
AcDbLine
 62
4
  6
CONTINUOUS
 10
9.6449834772
 20
8.7504778175
 11
9.4297200001
 21
8.7654063904
  0
LINE
  5
315
100
AcDbEntity
  8
0
100
AcDbLine
 62
4
  6
CONTINUOUS
 10
10.6451307113
 20
8.6976760767
 11
10.8107180024
 21
8.6861925591
  0
LINE
  5
316
100
AcDbEntity
  8
0
100
AcDbLine
 62
4
  6
CONTINUOUS
 10
10.843835462
 20
8.7777287377
 11
10.6120132551
 21
8.7938056623
  0
LINE
  5
317
100
AcDbEntity
  8
0
100
AcDbLine
 62
4
  6
CONTINUOUS
 10
9.661542207
 20
8.8983580115
 11
9.4959549124
 21
8.9098415294
  0
LINE
  5
318
100
AcDbEntity
  8
0
100
AcDbLine
 62
4
  6
CONTINUOUS
 10
9.4462787351
 20
8.913286584
 11
9.4297200001
 21
8.9144349361
  0
LINE
  5
319
100
AcDbEntity
  8
0
100
AcDbLine
 62
4
  6
CONTINUOUS
 10
9.6449834772
 20
8.9878195797
 11
9.5125136474
 21
8.9970063936
  0
LINE
  5
31A
100
AcDbEntity
  8
0
100
AcDbLine
 62
4
  6
CONTINUOUS
 10
8.5603867757
 20
10.6995910714
 11
8.5410682493
 21
10.7154197036
  0
LINE
  5
31B
100
AcDbEntity
  8
0
100
AcDbLine
 62
4
  6
CONTINUOUS
 10
8.6569793596
 20
10.7363590167
 11
8.6956163918
 21
10.7047017536
  0
LINE
  5
31C
100
AcDbEntity
  8
0
100
AcDbLine
 62
4
  6
CONTINUOUS
 10
8.599023801
 20
10.812822688
 11
8.6183423275
 21
10.7969940557
  0
LINE
  5
31D
100
AcDbEntity
  8
0
100
AcDbLine
 62
4
  6
CONTINUOUS
 10
10.6120132551
 20
7.3366374674
 11
10.6451307113
 21
7.3674582202
  0
LINE
  5
31E
100
AcDbEntity
  8
0
100
AcDbLine
 62
4
  6
CONTINUOUS
 10
12.92637148
 20
8.6678016641
 11
13.1581936868
 21
8.7676358429
  0
LINE
  5
31F
100
AcDbEntity
  8
0
100
AcDbLine
 62
4
  6
CONTINUOUS
 10
13.1581936868
 20
8.8835469463
 11
12.92637148
 21
8.899623871
  0
LINE
  5
320
100
AcDbEntity
  8
0
100
AcDbLine
 62
4
  6
CONTINUOUS
 10
9.5621898316
 20
9.1425899948
 11
9.5125136474
 21
9.1460350499
  0
LINE
  5
321
100
AcDbEntity
  8
0
100
AcDbLine
 62
4
  6
CONTINUOUS
 10
9.6449834772
 20
9.2362004524
 11
9.5953072878
 21
9.2396455079
  0
LINE
  5
322
100
AcDbEntity
  8
0
100
AcDbLine
 62
4
  6
CONTINUOUS
 10
13.0422825834
 20
8.398963219
 11
12.9843270317
 21
8.4174713381
  0
LINE
  5
323
100
AcDbEntity
  8
0
100
AcDbLine
 62
4
  6
CONTINUOUS
 10
12.9456899926
 20
8.5360619293
 11
12.965008519
 21
8.5492110729
  0
LINE
  5
324
100
AcDbEntity
  8
0
100
AcDbLine
 62
7
  6
CONTINUOUS
 10
13.9167750612
 20
9.4559663859
 11
14.6855819439
 21
9.4026494475
  0
LINE
  5
325
100
AcDbEntity
  8
0
100
AcDbLine
 62
4
  6
CONTINUOUS
 10
13.138875169
 20
8.4357311643
 11
13.1002381351
 21
8.4094328758
  0
LINE
  5
326
100
AcDbEntity
  8
0
100
AcDbLine
 62
7
  6
CONTINUOUS
 10
13.9312230856
 20
9.5633156867
 11
14.7000299682
 21
9.5099987483
  0
LINE
  5
327
100
AcDbEntity
  8
0
100
AcDbLine
 62
4
  6
CONTINUOUS
 10
8.6956163918
 20
10.7047017536
 11
8.7535719435
 21
10.6861936345
  0
LINE
  5
328
100
AcDbEntity
  8
0
100
AcDbLine
 62
4
  6
CONTINUOUS
 10
13.1581936868
 20
9.1008802652
 11
12.92637148
 21
9.1894016295
  0
LINE
  5
329
100
AcDbEntity
  8
0
100
AcDbLine
 62
4
  6
CONTINUOUS
 10
13.1581936868
 20
8.6517247394
 11
12.92637148
 21
8.7837127675
  0
LINE
  5
32A
100
AcDbEntity
  8
0
100
AcDbLine
 62
4
  6
CONTINUOUS
 10
12.9843270317
 20
8.4174713381
 11
12.9456899926
 21
8.4491286018
  0
LINE
  5
32B
100
AcDbEntity
  8
0
100
AcDbLine
 62
4
  6
CONTINUOUS
 10
13.1195566512
 20
8.5384931235
 11
13.138875169
 21
8.5226644918
  0
LINE
  5
32C
100
AcDbEntity
  8
0
100
AcDbLine
 62
7
  6
CONTINUOUS
 10
14.0474346076
 20
10.1479477706
 11
14.1054006286
 21
10.2462282766
  0
LINE
  5
32D
100
AcDbEntity
  8
0
100
AcDbLine
 62
4
  6
CONTINUOUS
 10
12.92637148
 20
8.5084238969
 11
12.9456899926
 21
8.5360619293
  0
LINE
  5
32E
100
AcDbEntity
  8
0
100
AcDbLine
 62
4
  6
CONTINUOUS
 10
13.1581936868
 20
8.4633691964
 11
13.138875169
 21
8.4357311643
  0
LINE
  5
32F
100
AcDbEntity
  8
0
100
AcDbLine
 62
4
  6
CONTINUOUS
 10
12.9456899926
 20
8.4491286018
 11
12.92637148
 21
8.479446121
  0
LINE
  5
330
100
AcDbEntity
  8
0
100
AcDbLine
 62
4
  6
CONTINUOUS
 10
13.138875169
 20
8.5226644918
 11
13.1581936868
 21
8.4923469722
  0
LINE
  5
331
100
AcDbEntity
  8
0
100
AcDbLine
 62
4
  6
CONTINUOUS
 10
12.92637148
 20
8.479446121
 11
12.92637148
 21
8.5084238969
  0
LINE
  5
332
100
AcDbEntity
  8
0
100
AcDbLine
 62
4
  6
CONTINUOUS
 10
12.92637148
 20
8.899623871
 11
12.92637148
 21
9.0155349744
  0
LINE
  5
333
100
AcDbEntity
  8
0
100
AcDbLine
 62
4
  6
CONTINUOUS
 10
13.0422825834
 20
8.8915854086
 11
13.0422825834
 21
8.9640298483
  0
LINE
  5
334
100
AcDbEntity
  8
0
100
AcDbLine
 62
4
  6
CONTINUOUS
 10
13.0809196156
 20
9.1352170161
 11
13.0809196156
 21
9.2221503437
  0
LINE
  5
335
100
AcDbEntity
  8
0
100
AcDbLine
 62
4
  6
CONTINUOUS
 10
13.1581936868
 20
8.4923469722
 11
13.1581936868
 21
8.4633691964
  0
LINE
  5
336
100
AcDbEntity
  8
0
100
AcDbLine
 62
7
  6
CONTINUOUS
 10
13.8498999897
 20
10.2755158289
 11
14.1122599018
 21
10.2573211072
  0
LINE
  5
337
100
AcDbEntity
  8
0
100
AcDbLine
 62
7
  6
CONTINUOUS
 10
14.1934896812
 20
10.3817522544
 11
14.9622965638
 21
10.328435316
  0
LINE
  5
338
100
AcDbEntity
  8
0
100
AcDbLine
 62
7
  6
CONTINUOUS
 10
14.2223857299
 20
10.4096636957
 11
14.9911926125
 21
10.3563467573
  0
LINE
  5
339
100
AcDbEntity
  8
0
100
AcDbLine
 62
4
  6
CONTINUOUS
 10
8.5603867757
 20
10.8155021748
 11
8.599023801
 21
10.812822688
  0
LINE
  5
33A
100
AcDbEntity
  8
0
100
AcDbLine
 62
7
  6
CONTINUOUS
 10
13.4093346376
 20
10.7883227814
 11
13.4093346376
 21
4.9927674803
  0
LINE
  5
33B
100
AcDbEntity
  8
0
100
AcDbLine
 62
7
  6
CONTINUOUS
 10
6.647853453
 20
11.2572330942
 11
13.4093346376
 21
10.7883227814
  0
LINE
  5
33C
100
AcDbEntity
  8
0
100
AcDbLine
 62
7
  6
CONTINUOUS
 10
13.9142685836
 20
8.2277520713
 11
13.9431724522
 21
8.1583079255
  0
LINE
  5
33D
100
AcDbEntity
  8
0
100
AcDbLine
 62
7
  6
CONTINUOUS
 10
14.1857911321
 20
11.5383222069
 11
14.1857911321
 21
10.3703634286
  0
LINE
  5
33E
100
AcDbEntity
  8
0
100
AcDbLine
 62
7
  6
CONTINUOUS
 10
14.1857911321
 20
7.9392570099
 11
14.1857911321
 21
5.7427669058
  0
LINE
  5
33F
100
AcDbEntity
  8
0
100
AcDbLine
 62
7
  6
CONTINUOUS
 10
7.4243099475
 20
12.0072325197
 11
14.1857911321
 21
11.5383222069
  0
LINE
  5
340
100
AcDbEntity
  8
0
100
AcDbLine
 62
7
  6
CONTINUOUS
 10
15.0792816652
 20
8.0446576764
 11
15.1199749258
 21
8.1136524804
  0
LINE
  5
341
100
AcDbEntity
  8
0
100
AcDbLine
 62
7
  6
CONTINUOUS
 10
13.4093346376
 20
4.9927674803
 11
14.1857911321
 21
5.7427669058
  0
LINE
  5
342
100
AcDbEntity
  8
0
100
AcDbLine
 62
7
  6
CONTINUOUS
 10
15.2415098415
 20
10.1325780276
 11
15.2573487982
 21
10.0945235085
  0
ARC
  5
343
100
AcDbEntity
  8
0
100
AcDbCircle
 62
7
  6
CONTINUOUS
 10
18.4869820696
 20
8.8955141726
 40
4.6044433738
100
AcDbArc
 50
171.6607434677
 51
173.0086288777
  0
ARC
  5
344
100
AcDbEntity
  8
0
100
AcDbCircle
 62
7
  6
CONTINUOUS
 10
19.2557889522
 20
8.8421972342
 40
4.6044433738
100
AcDbArc
 50
171.6607434677
 51
173.0086288777
  0
ARC
  5
345
100
AcDbEntity
  8
0
100
AcDbCircle
 62
7
  6
CONTINUOUS
 10
15.8095551986
 20
8.6289762856
 40
1.9169143811
100
AcDbArc
 50
189.1014340788
 51
191.5149294916
  0
ARC
  5
346
100
AcDbEntity
  8
0
100
AcDbCircle
 62
7
  6
CONTINUOUS
 10
16.5783620812
 20
8.5756593472
 40
1.9169143811
100
AcDbArc
 50
189.1014340788
 51
191.5149294916
  0
SPLINE
  5
347
100
AcDbEntity
  8
0
100
AcDbSpline
 62
7
  6
CONTINUOUS
 70
0
 71
3
 72
9
 73
5
 74
0
 42
0.0000001
 43
0.0000001
 44
0.0000000001
 40
0.0
 40
0.0
 40
0.0
 40
0.0
 40
0.4898589089
 40
1.0
 40
1.0
 40
1.0
 40
1.0
 10
14.2079377055
 20
10.396895466
 30
0.0
 10
14.2054791294
 20
10.3945206637
 30
0.0
 10
14.200564775
 20
10.3895635971
 30
0.0
 10
14.1958483393
 20
10.3844184502
 30
0.0
 10
14.1934896812
 20
10.3817522544
 30
0.0
  0
SPLINE
  5
348
100
AcDbEntity
  8
0
100
AcDbSpline
 62
7
  6
CONTINUOUS
 70
0
 71
3
 72
9
 73
5
 74
0
 42
0.0000001
 43
0.0000001
 44
0.0000000001
 40
0.0
 40
0.0
 40
0.0
 40
0.0
 40
0.2578199612
 40
1.0
 40
1.0
 40
1.0
 40
1.0
 10
14.2079377055
 20
10.396895466
 30
0.0
 10
14.209129776
 20
10.3980469177
 30
0.0
 10
14.2138001817
 20
10.4024641304
 30
0.0
 10
14.2186628445
 20
10.4066799333
 30
0.0
 10
14.2223857299
 20
10.4096636957
 30
0.0
  0
SPLINE
  5
349
100
AcDbEntity
  8
0
100
AcDbSpline
 62
7
  6
CONTINUOUS
 70
0
 71
3
 72
9
 73
5
 74
0
 42
0.0000001
 43
0.0000001
 44
0.0000000001
 40
0.0
 40
0.0
 40
0.0
 40
0.0
 40
0.2423492772
 40
1.0
 40
1.0
 40
1.0
 40
1.0
 10
14.9622965638
 20
7.8812222573
 30
0.0
 10
14.9635122338
 20
7.8821965743
 30
0.0
 10
14.9684774106
 20
7.8862803564
 30
0.0
 10
14.9732414441
 20
7.8906067095
 30
0.0
 10
14.9767445882
 20
7.893990487
 30
0.0
  0
SPLINE
  5
34A
100
AcDbEntity
  8
0
100
AcDbSpline
 62
7
  6
CONTINUOUS
 70
0
 71
3
 72
9
 73
5
 74
0
 42
0.0000001
 43
0.0000001
 44
0.0000000001
 40
0.0
 40
0.0
 40
0.0
 40
0.0
 40
0.4898589089
 40
1.0
 40
1.0
 40
1.0
 40
1.0
 10
14.9767445882
 20
7.893990487
 30
0.0
 10
14.9792031643
 20
7.8963652894
 30
0.0
 10
14.9841175188
 20
7.901322356
 30
0.0
 10
14.9888339544
 20
7.9064675029
 30
0.0
 10
14.9911926125
 20
7.9091336987
 30
0.0
  0
SPLINE
  5
34B
100
AcDbEntity
  8
0
100
AcDbSpline
 62
7
  6
CONTINUOUS
 70
0
 71
3
 72
9
 73
5
 74
0
 42
0.0000001
 43
0.0000001
 44
0.0000000001
 40
0.0
 40
0.0
 40
0.0
 40
0.0
 40
0.5035395631
 40
1.0
 40
1.0
 40
1.0
 40
1.0
 10
14.1934896812
 20
10.3817522544
 30
0.0
 10
14.1777879909
 20
10.3595221926
 30
0.0
 10
14.1473680611
 20
10.3148291299
 30
0.0
 10
14.1187931317
 20
10.2689265235
 30
0.0
 10
14.1051573818
 20
10.2458158264
 30
0.0
  0
SPLINE
  5
34C
100
AcDbEntity
  8
0
100
AcDbSpline
 62
7
  6
CONTINUOUS
 70
0
 71
3
 72
9
 73
5
 74
0
 42
0.0000001
 43
0.0000001
 44
0.0000000001
 40
0.0
 40
0.0
 40
0.0
 40
0.0
 40
0.5035395631
 40
1.0
 40
1.0
 40
1.0
 40
1.0
 10
14.9911926125
 20
7.9091336987
 30
0.0
 10
15.0068943028
 20
7.9313637605
 30
0.0
 10
15.0373142326
 20
7.9760568232
 30
0.0
 10
15.065889162
 20
8.0219594296
 30
0.0
 10
15.0795249119
 20
8.0450701267
 30
0.0
  0
SPLINE
  5
34D
100
AcDbEntity
  8
0
100
AcDbSpline
 62
7
  6
CONTINUOUS
 70
0
 71
3
 72
23
 73
19
 74
0
 42
0.0000001
 43
0.0000001
 44
0.0000000001
 40
0.0
 40
0.0
 40
0.0
 40
0.0
 40
0.0432903358
 40
0.0886111095
 40
0.1362135929
 40
0.1863092711
 40
0.2390678977
 40
0.2946076476
 40
0.3530023406
 40
0.4142746704
 40
0.4784099503
 40
0.5453523313
 40
0.6150199742
 40
0.6873039377
 40
0.76208146
 40
0.8392182661
 40
0.9185728956
 40
1.0
 40
1.0
 40
1.0
 40
1.0
 10
13.9428269969
 20
8.1591384133
 30
0.0
 10
13.944719842
 20
8.1545859988
 30
0.0
 10
13.9489616494
 20
8.1454166124
 30
0.0
 10
13.9564897704
 20
8.1318387049
 30
0.0
 10
13.9653437706
 20
8.1181531838
 30
0.0
 10
13.9755381127
 20
8.1043677612
 30
0.0
 10
13.9870778692
 20
8.0904910356
 30
0.0
 10
13.9999538716
 20
8.0765304892
 30
0.0
 10
14.014147756
 20
8.0624968229
 30
0.0
 10
14.0296276334
 20
8.0483980194
 30
0.0
 10
14.0463542742
 20
8.0342454312
 30
0.0
 10
14.0642779221
 20
8.0200469788
 30
0.0
 10
14.0833442745
 20
8.0058132491
 30
0.0
 10
14.1034926842
 20
7.9915514488
 30
0.0
 10
14.1246611037
 20
7.9772702232
 30
0.0
 10
14.146785205
 20
7.9629756423
 30
0.0
 10
14.1698010533
 20
7.9486741726
 30
0.0
 10
14.1855044269
 20
7.939254568
 30
0.0
 10
14.1934896812
 20
7.9345391957
 30
0.0
  0
SPLINE
  5
34E
100
AcDbEntity
  8
0
100
AcDbSpline
 62
7
  6
CONTINUOUS
 70
0
 71
3
 72
23
 73
19
 74
0
 42
0.0000001
 43
0.0000001
 44
0.0000000001
 40
0.0
 40
0.0
 40
0.0
 40
0.0
 40
0.0432903358
 40
0.0886111095
 40
0.1362135929
 40
0.1863092711
 40
0.2390678977
 40
0.2946076476
 40
0.3530023406
 40
0.4142746704
 40
0.4784099503
 40
0.5453523313
 40
0.6150199742
 40
0.6873039377
 40
0.76208146
 40
0.8392182661
 40
0.9185728956
 40
1.0
 40
1.0
 40
1.0
 40
1.0
 10
15.2418552968
 20
10.1317475398
 30
0.0
 10
15.2399624517
 20
10.1362999543
 30
0.0
 10
15.2357206443
 20
10.1454693407
 30
0.0
 10
15.2281925233
 20
10.1590472481
 30
0.0
 10
15.2193385231
 20
10.1727327693
 30
0.0
 10
15.209144181
 20
10.1865181919
 30
0.0
 10
15.1976044245
 20
10.2003949175
 30
0.0
 10
15.1847284221
 20
10.2143554639
 30
0.0
 10
15.1705345378
 20
10.2283891302
 30
0.0
 10
15.1550546603
 20
10.2424879337
 30
0.0
 10
15.1383280195
 20
10.2566405219
 30
0.0
 10
15.1204043716
 20
10.2708389743
 30
0.0
 10
15.1013380192
 20
10.285072704
 30
0.0
 10
15.0811896095
 20
10.2993345043
 30
0.0
 10
15.06002119
 20
10.3136157299
 30
0.0
 10
15.0378970887
 20
10.3279103108
 30
0.0
 10
15.0148812404
 20
10.3422117805
 30
0.0
 10
14.9991778668
 20
10.3516313851
 30
0.0
 10
14.9911926125
 20
10.3563467573
 30
0.0
  0
SPLINE
  5
34F
100
AcDbEntity
  8
0
100
AcDbSpline
 62
7
  6
CONTINUOUS
 70
0
 71
3
 72
52
 73
48
 74
0
 42
0.0000001
 43
0.0000001
 44
0.0000000001
 40
0.0
 40
0.0
 40
0.0
 40
0.0
 40
0.009739007
 40
0.0199697226
 40
0.0306886433
 40
0.041891006
 40
0.0535703056
 40
0.0657184368
 40
0.0783265479
 40
0.0913844462
 40
0.104880614
 40
0.118803057
 40
0.1331387627
 40
0.1478736378
 40
0.1784817501
 40
0.210503274
 40
0.2438041446
 40
0.2782417445
 40
0.3136664221
 40
0.3499227968
 40
0.3868502931
 40
0.424284505
 40
0.462058199
 40
0.5000020634
 40
0.5379459265
 40
0.575719552
 40
0.6131536576
 40
0.650081013
 40
0.6863371331
 40
0.7217616055
 40
0.7561989741
 40
0.7894994529
 40
0.8215206599
 40
0.8370095697
 40
0.852129088
 40
0.8668637319
 40
0.8811991625
 40
0.8951214827
 40
0.9086173982
 40
0.9216749924
 40
0.9342829792
 40
0.9464308589
 40
0.9581098157
 40
0.9693119702
 40
0.9800305533
 40
0.990260945
 40
1.0
 40
1.0
 40
1.0
 40
1.0
 10
15.1199796714
 20
8.1136604865
 30
0.0
 10
15.1233154613
 20
8.1193164735
 30
0.0
 10
15.1299505488
 20
8.1310357843
 30
0.0
 10
15.1395800721
 20
8.1493531184
 30
0.0
 10
15.1491214388
 20
8.1688215271
 30
0.0
 10
15.1585624159
 20
8.1894179168
 30
0.0
 10
15.1678917661
 20
8.2111178964
 30
0.0
 10
15.1770988479
 20
8.2338954678
 30
0.0
 10
15.1861721598
 20
8.2577238076
 30
0.0
 10
15.1951008434
 20
8.2825745545
 30
0.0
 10
15.2038746656
 20
8.3084179226
 30
0.0
 10
15.2124826177
 20
8.3352232356
 30
0.0
 10
15.2209144027
 20
8.3629585422
 30
0.0
 10
15.2320501647
 20
8.4016258257
 30
0.0
 10
15.2454221977
 20
8.4520518539
 30
0.0
 10
15.2604171348
 20
8.5149758782
 30
0.0
 10
15.2744837554
 20
8.5807563234
 30
0.0
 10
15.2875545243
 20
8.649078827
 30
0.0
 10
15.2995666754
 20
8.7196172316
 30
0.0
 10
15.3104618879
 20
8.792034572
 30
0.0
 10
15.320187933
 20
8.8659847415
 30
0.0
 10
15.3286983004
 20
8.9411141575
 30
0.0
 10
15.3359516539
 20
9.017063648
 30
0.0
 10
15.3419134425
 20
9.0934700421
 30
0.0
 10
15.3465553367
 20
9.169967924
 30
0.0
 10
15.3498547048
 20
9.2461914917
 30
0.0
 10
15.3517961498
 20
9.3217762386
 30
0.0
 10
15.3523707546
 20
9.3963607066
 30
0.0
 10
15.3515755549
 20
9.4695883389
 30
0.0
 10
15.349415011
 20
9.5411091055
 30
0.0
 10
15.3459001281
 20
9.6105813252
 30
0.0
 10
15.3410476036
 20
9.6776727939
 30
0.0
 10
15.3358539679
 20
9.7319162274
 30
0.0
 10
15.3310225148
 20
9.7738672218
 30
0.0
 10
15.3271212092
 20
9.8041902683
 30
0.0
 10
15.3229063472
 20
9.8336859466
 30
0.0
 10
15.3183834935
 20
9.8623191376
 30
0.0
 10
15.3135580871
 20
9.8900556266
 30
0.0
 10
15.3084354079
 20
9.9168622078
 30
0.0
 10
15.3030221839
 20
9.9427070089
 30
0.0
 10
15.2973249482
 20
9.967559229
 30
0.0
 10
15.2913499577
 20
9.9913891252
 30
0.0
 10
15.2851049839
 20
10.0141685134
 30
0.0
 10
15.2785975911
 20
10.0358703551
 30
0.0
 10
15.2718348532
 20
10.0564688197
 30
0.0
 10
15.2648256033
 20
10.0759394571
 30
0.0
 10
15.2598716184
 20
10.0884622213
 30
0.0
 10
15.2573483799
 20
10.0945245127
 30
0.0
  0
SPLINE
  5
350
100
AcDbEntity
  8
0
100
AcDbSpline
 62
7
  6
CONTINUOUS
 70
0
 71
3
 72
92
 73
88
 74
0
 42
0.0000001
 43
0.0000001
 44
0.0000000001
 40
0.0
 40
0.0
 40
0.0
 40
0.0
 40
0.0042121518
 40
0.0086199285
 40
0.0132276929
 40
0.0180388696
 40
0.0230560968
 40
0.0282813556
 40
0.0337160399
 40
0.0393610334
 40
0.045216776
 40
0.0512830206
 40
0.057558848
 40
0.0640430377
 40
0.0776297893
 40
0.0920275395
 40
0.1072155675
 40
0.1231691972
 40
0.1398600531
 40
0.1572570154
 40
0.1753258052
 40
0.1940301834
 40
0.2133311212
 40
0.2331881606
 40
0.2535584728
 40
0.2743981254
 40
0.2956612775
 40
0.3173011716
 40
0.3392696387
 40
0.3615177234
 40
0.4066517047
 40
0.4522981837
 40
0.4751854704
 40
0.4980462562
 40
0.5208289364
 40
0.5434821354
 40
0.5659547793
 40
0.5881964648
 40
0.6101572432
 40
0.631788274
 40
0.6530413516
 40
0.6738697744
 40
0.694227744
 40
0.7140712968
 40
0.7333577731
 40
0.7520465894
 40
0.7700990071
 40
0.787478568
 40
0.8041513614
 40
0.8200860082
 40
0.835254577
 40
0.8496321115
 40
0.8631982731
 40
0.8696719777
 40
0.8759372268
 40
0.8819929354
 40
0.8878383011
 40
0.8934729119
 40
0.8988970864
 40
0.9041117044
 40
0.9091181523
 40
0.9139184354
 40
0.9185155439
 40
0.9229134865
 40
0.9271172172
 40
0.9311328034
 40
0.9349677857
 40
0.9386314402
 40
0.9421347313
 40
0.9454905131
 40
0.9487138044
 40
0.9518220359
 40
0.9548348613
 40
0.9577740276
 40
0.9606631368
 40
0.9635271996
 40
0.966391897
 40
0.9692828682
 40
0.9722250438
 40
0.9752420181
 40
0.9783555199
 40
0.9815851609
 40
0.9849483595
 40
0.9884600811
 40
0.9921326424
 40
0.9959763898
 40
1.0
 40
1.0
 40
1.0
 40
1.0
 10
15.0648576441
 20
10.1848515769
 30
0.0
 10
15.0624537223
 20
10.1825295666
 30
0.0
 10
15.0576487988
 20
10.1776579621
 30
0.0
 10
15.0506058774
 20
10.1698721801
 30
0.0
 10
15.0435708245
 20
10.1614500174
 30
0.0
 10
15.0365486557
 20
10.1523972524
 30
0.0
 10
15.0295442506
 20
10.1427192869
 30
0.0
 10
15.0225617522
 20
10.1324222392
 30
0.0
 10
15.0156050044
 20
10.1215123572
 30
0.0
 10
15.0086779379
 20
10.1099958669
 30
0.0
 10
15.0017846779
 20
10.0978792062
 30
0.0
 10
14.9949292694
 20
10.0851695222
 30
0.0
 10
14.988115578
 20
10.0718746171
 30
0.0
 10
14.9789487908
 20
10.0530847725
 30
0.0
 10
14.9676501236
 20
10.0281708346
 30
0.0
 10
14.9545255409
 20
9.9965228054
 30
0.0
 10
14.9416637893
 20
9.962749865
 30
0.0
 10
14.9290960118
 20
9.9269329068
 30
0.0
 10
14.9168522691
 20
9.8891573959
 30
0.0
 10
14.904962845
 20
9.8495137844
 30
0.0
 10
14.8934557084
 20
9.8080971865
 30
0.0
 10
14.8823596978
 20
9.7650069687
 30
0.0
 10
14.8717005891
 20
9.7203467163
 30
0.0
 10
14.8615053428
 20
9.6742237408
 30
0.0
 10
14.8517974493
 20
9.6267490175
 30
0.0
 10
14.8426015348
 20
9.5780367116
 30
0.0
 10
14.8339387543
 20
9.5282040742
 30
0.0
 10
14.8258310283
 20
9.4773710192
 30
0.0
 10
14.8182970491
 20
9.4256598697
 30
0.0
 10
14.8089980608
 20
9.3553731437
 30
0.0
 10
14.7989526597
 20
9.2662418282
 30
0.0
 10
14.7910749428
 20
9.1763842376
 30
0.0
 10
14.7860687288
 20
9.1040363634
 30
0.0
 10
14.7829805812
 20
9.049745196
 30
0.0
 10
14.7805702823
 20
8.9956057064
 30
0.0
 10
14.7788429099
 20
8.9417482192
 30
0.0
 10
14.7778034714
 20
8.8883023836
 30
0.0
 10
14.7774534562
 20
8.8353969708
 30
0.0
 10
14.7777946907
 20
8.7831592577
 30
0.0
 10
14.7788252476
 20
8.7317151162
 30
0.0
 10
14.7805435912
 20
8.6811882737
 30
0.0
 10
14.782944548
 20
8.6317004669
 30
0.0
 10
14.7860230763
 20
8.5833706968
 30
0.0
 10
14.7897709471
 20
8.5363153417
 30
0.0
 10
14.7941795228
 20
8.4906475124
 30
0.0
 10
14.7992377101
 20
8.4464770612
 30
0.0
 10
14.8049332498
 20
8.4039100972
 30
0.0
 10
14.8112523774
 20
8.3630488603
 30
0.0
 10
14.8181792462
 20
8.3239913556
 30
0.0
 10
14.8256976252
 20
8.2868312049
 30
0.0
 10
14.8337881981
 20
8.2516570916
 30
0.0
 10
14.8424325171
 20
8.2185533873
 30
0.0
 10
14.8501950372
 20
8.1923640041
 30
0.0
 10
14.8566891231
 20
8.1725262996
 30
0.0
 10
14.8616086797
 20
8.1584468638
 30
0.0
 10
14.8666502759
 20
8.1449415278
 30
0.0
 10
14.8718109789
 20
8.1320184436
 30
0.0
 10
14.8770879979
 20
8.1196855263
 30
0.0
 10
14.8824779813
 20
8.1079499689
 30
0.0
 10
14.8879776188
 20
8.0968185301
 30
0.0
 10
14.8935836657
 20
8.0862978334
 30
0.0
 10
14.8992931525
 20
8.0763943602
 30
0.0
 10
14.9051027394
 20
8.0671139071
 30
0.0
 10
14.9110089036
 20
8.0584616344
 30
0.0
 10
14.9170083472
 20
8.0504425774
 30
0.0
 10
14.9230980123
 20
8.0430617431
 30
0.0
 10
14.9292748201
 20
8.0363237213
 30
0.0
 10
14.9355352468
 20
8.0302322189
 30
0.0
 10
14.9418761244
 20
8.0247909761
 30
0.0
 10
14.9482943831
 20
8.0200038773
 30
0.0
 10
14.9547870453
 20
8.0158749881
 30
0.0
 10
14.9613503595
 20
8.0124072999
 30
0.0
 10
14.9679805367
 20
8.0096039315
 30
0.0
 10
14.9746733767
 20
8.00746808
 30
0.0
 10
14.9814241575
 20
8.0060031253
 30
0.0
 10
14.9882272243
 20
8.0052104989
 30
0.0
 10
14.995076722
 20
8.0050906339
 30
0.0
 10
15.0019668192
 20
8.0056433662
 30
0.0
 10
15.008891857
 20
8.0068681118
 30
0.0
 10
15.0158466736
 20
8.0087629181
 30
0.0
 10
15.0228268812
 20
8.0113249309
 30
0.0
 10
15.0298285336
 20
8.0145515639
 30
0.0
 10
15.0368477247
 20
8.0184404097
 30
0.0
 10
15.0438803633
 20
8.0229883496
 30
0.0
 10
15.0509226552
 20
8.0281910153
 30
0.0
 10
15.0579700005
 20
8.034044064
 30
0.0
 10
15.0625613251
 20
8.0382780415
 30
0.0
 10
15.0648576441
 20
8.0404961154
 30
0.0
  0
SPLINE
  5
351
100
AcDbEntity
  8
0
100
AcDbSpline
 62
7
  6
CONTINUOUS
 70
0
 71
3
 72
15
 73
11
 74
0
 42
0.0000001
 43
0.0000001
 44
0.0000000001
 40
0.0
 40
0.0
 40
0.0
 40
0.0
 40
0.1072747747
 40
0.2194482562
 40
0.3366285371
 40
0.4589008517
 40
0.5863312082
 40
0.7189695525
 40
0.8568514726
 40
1.0
 40
1.0
 40
1.0
 40
1.0
 10
15.0648576441
 20
8.0404961154
 30
0.0
 10
15.0672204645
 20
8.0427784248
 30
0.0
 10
15.0719433516
 20
8.0475629069
 30
0.0
 10
15.0788687467
 20
8.0552023783
 30
0.0
 10
15.0857867049
 20
8.0634573472
 30
0.0
 10
15.0926924563
 20
8.0723223154
 30
0.0
 10
15.0995813496
 20
8.0817921446
 30
0.0
 10
15.1064493795
 20
8.0918610882
 30
0.0
 10
15.1132928623
 20
8.1025231051
 30
0.0
 10
15.1177527323
 20
8.1098846077
 30
0.0
 10
15.1199796714
 20
8.1136604865
 30
0.0
  0
SPLINE
  5
352
100
AcDbEntity
  8
0
100
AcDbSpline
 62
7
  6
CONTINUOUS
 70
0
 71
3
 72
9
 73
5
 74
0
 42
0.0000001
 43
0.0000001
 44
0.0000000001
 40
0.0
 40
0.0
 40
0.0
 40
0.0
 40
0.4898589089
 40
1.0
 40
1.0
 40
1.0
 40
1.0
 10
14.9767445882
 20
10.3435785276
 30
0.0
 10
14.974286012
 20
10.3412037253
 30
0.0
 10
14.9693716576
 20
10.3362466587
 30
0.0
 10
14.9646552219
 20
10.3311015118
 30
0.0
 10
14.9622965638
 20
10.328435316
 30
0.0
  0
SPLINE
  5
353
100
AcDbEntity
  8
0
100
AcDbSpline
 62
7
  6
CONTINUOUS
 70
0
 71
3
 72
9
 73
5
 74
0
 42
0.0000001
 43
0.0000001
 44
0.0000000001
 40
0.0
 40
0.0
 40
0.0
 40
0.0
 40
0.2423492772
 40
1.0
 40
1.0
 40
1.0
 40
1.0
 10
14.9911926125
 20
10.3563467573
 30
0.0
 10
14.9899769425
 20
10.3553724403
 30
0.0
 10
14.9850117658
 20
10.3512886582
 30
0.0
 10
14.9802477323
 20
10.3469623052
 30
0.0
 10
14.9767445882
 20
10.3435785276
 30
0.0
  0
SPLINE
  5
354
100
AcDbEntity
  8
0
100
AcDbSpline
 62
7
  6
CONTINUOUS
 70
0
 71
3
 72
29
 73
25
 74
0
 42
0.0000001
 43
0.0000001
 44
0.0000000001
 40
0.0
 40
0.0
 40
0.0
 40
0.0
 40
0.0586485699
 40
0.1174941927
 40
0.1765996552
 40
0.236042115
 40
0.2659173254
 40
0.2959088442
 40
0.3562791685
 40
0.3866847568
 40
0.417249253
 40
0.4479825335
 40
0.4788935446
 40
0.509989549
 40
0.5412773237
 40
0.5727621419
 40
0.6044475662
 40
0.6684252964
 40
0.700722107
 40
0.7332212604
 40
0.7988124798
 40
0.8651693793
 40
0.9322497619
 40
1.0
 40
1.0
 40
1.0
 40
1.0
 10
14.9622965638
 20
10.328435316
 30
0.0
 10
14.9630887365
 20
10.3113004727
 30
0.0
 10
14.964085516
 20
10.2769423907
 30
0.0
 10
14.9636424911
 20
10.2252807964
 30
0.0
 10
14.9610864427
 20
10.1734457721
 30
0.0
 10
14.9570561657
 20
10.1302074341
 30
0.0
 10
14.9526198027
 20
10.0955929192
 30
0.0
 10
14.947326757
 20
10.0608248221
 30
0.0
 10
14.9407515394
 20
10.0261039835
 30
0.0
 10
14.9328662328
 20
9.9914994451
 30
0.0
 10
14.9262643789
 20
9.9655008745
 30
0.0
 10
14.9189821386
 20
9.939531261
 30
0.0
 10
14.9110173196
 20
9.913600124
 30
0.0
 10
14.902373956
 20
9.8877162208
 30
0.0
 10
14.8930541569
 20
9.8618897206
 30
0.0
 10
14.8830661294
 20
9.8361291933
 30
0.0
 10
14.8688298151
 20
9.8017719544
 30
0.0
 10
14.853339636
 20
9.767687837
 30
0.0
 10
14.836692656
 20
9.7339015635
 30
0.0
 10
14.8191510198
 20
9.7000381373
 30
0.0
 10
14.7957937884
 20
9.6579803202
 30
0.0
 10
14.7657545987
 20
9.6081070562
 30
0.0
 10
14.7338066994
 20
9.5586830905
 30
0.0
 10
14.7114618285
 20
9.5261836912
 30
0.0
 10
14.7000299682
 20
9.5099987483
 30
0.0
  0
SPLINE
  5
355
100
AcDbEntity
  8
0
100
AcDbSpline
 62
7
  6
CONTINUOUS
 70
0
 71
3
 72
28
 73
24
 74
0
 42
0.0000001
 43
0.0000001
 44
0.0000000001
 40
0.0
 40
0.0
 40
0.0
 40
0.0
 40
0.1269492752
 40
0.1902637774
 40
0.2534525032
 40
0.2849967752
 40
0.3165053824
 40
0.3794072761
 40
0.4108011801
 40
0.4421549885
 40
0.4734680747
 40
0.5047401836
 40
0.5359711658
 40
0.5671609517
 40
0.5983100192
 40
0.6294190111
 40
0.6915167246
 40
0.7225105017
 40
0.7534679652
 40
0.8152784177
 40
0.8769618878
 40
0.9385325238
 40
1.0
 40
1.0
 40
1.0
 40
1.0
 10
14.6855819439
 20
9.4026494475
 30
0.0
 10
14.6978388399
 20
9.3557871331
 30
0.0
 10
14.7145928259
 20
9.2851063947
 30
0.0
 10
14.7329354382
 20
9.1901439931
 30
0.0
 10
14.7425693471
 20
9.1306023355
 30
0.0
 10
14.7490958714
 20
9.0828758356
 30
0.0
 10
14.7548023105
 20
9.035154814
 30
0.0
 10
14.7592621543
 20
8.9873484018
 30
0.0
 10
14.7624080927
 20
8.9395068143
 30
0.0
 10
14.7641017673
 20
8.9036548173
 30
0.0
 10
14.7651210746
 20
8.86782389
 30
0.0
 10
14.7654607539
 20
8.8320268958
 30
0.0
 10
14.7651219684
 20
8.7962769323
 30
0.0
 10
14.764103541
 20
8.7605868734
 30
0.0
 10
14.7624106907
 20
8.724968928
 30
0.0
 10
14.7592697606
 20
8.6776217287
 30
0.0
 10
14.754813739
 20
8.6304291561
 30
0.0
 10
14.7491011609
 20
8.5834412194
 30
0.0
 10
14.7425823843
 20
8.5366686911
 30
0.0
 10
14.7329612869
 20
8.4785151167
 30
0.0
 10
14.7192164889
 20
8.4092414882
 30
0.0
 10
14.7034599257
 20
8.3405335868
 30
0.0
 10
14.6917249326
 20
8.2950712143
 30
0.0
 10
14.6855819439
 20
8.2724364983
 30
0.0
  0
SPLINE
  5
356
100
AcDbEntity
  8
0
100
AcDbSpline
 62
7
  6
CONTINUOUS
 70
0
 71
3
 72
28
 73
24
 74
0
 42
0.0000001
 43
0.0000001
 44
0.0000000001
 40
0.0
 40
0.0
 40
0.0
 40
0.0
 40
0.0614674762
 40
0.1230381122
 40
0.1847215823
 40
0.2465320349
 40
0.2774894984
 40
0.3084832754
 40
0.370580989
 40
0.4016899809
 40
0.4328390483
 40
0.4640288343
 40
0.4952598165
 40
0.5265319254
 40
0.5578450116
 40
0.58919882
 40
0.620592724
 40
0.6834946176
 40
0.7150032248
 40
0.7465474968
 40
0.8097362226
 40
0.8730507248
 40
1.0
 40
1.0
 40
1.0
 40
1.0
 10
13.9167750612
 20
9.4559663859
 30
0.0
 10
13.9106320725
 20
9.4333316699
 30
0.0
 10
13.8988970794
 20
9.3878692974
 30
0.0
 10
13.8831405162
 20
9.319161396
 30
0.0
 10
13.8693957182
 20
9.2498877675
 30
0.0
 10
13.8597746208
 20
9.1917341931
 30
0.0
 10
13.8532558442
 20
9.1449616648
 30
0.0
 10
13.8475432661
 20
9.097973728
 30
0.0
 10
13.8430872445
 20
9.0507811555
 30
0.0
 10
13.8399463145
 20
9.0034339562
 30
0.0
 10
13.8382534641
 20
8.9678160107
 30
0.0
 10
13.8372350367
 20
8.9321259519
 30
0.0
 10
13.8368962512
 20
8.8963759884
 30
0.0
 10
13.8372359305
 20
8.8605789942
 30
0.0
 10
13.8382552378
 20
8.8247480668
 30
0.0
 10
13.8399489124
 20
8.7888960699
 30
0.0
 10
13.8430948508
 20
8.7410544823
 30
0.0
 10
13.8475546946
 20
8.6932480701
 30
0.0
 10
13.8532611337
 20
8.6455270486
 30
0.0
 10
13.859787658
 20
8.5978005486
 30
0.0
 10
13.8694215669
 20
8.5382588911
 30
0.0
 10
13.8877641792
 20
8.4432964894
 30
0.0
 10
13.9045181652
 20
8.3726157511
 30
0.0
 10
13.9167750612
 20
8.3257534367
 30
0.0
  0
SPLINE
  5
357
100
AcDbEntity
  8
0
100
AcDbSpline
 62
7
  6
CONTINUOUS
 70
0
 71
3
 72
35
 73
31
 74
0
 42
0.0000001
 43
0.0000001
 44
0.0000000001
 40
0.0
 40
0.0
 40
0.0
 40
0.0
 40
0.0913150035
 40
0.1792110316
 40
0.2217758004
 40
0.263365303
 40
0.303942469
 40
0.3434728289
 40
0.3819243877
 40
0.4192693252
 40
0.4554869812
 40
0.4905607565
 40
0.524481398
 40
0.5572503534
 40
0.6193608377
 40
0.6770819214
 40
0.7044015014
 40
0.7307633311
 40
0.7562301025
 40
0.7808748494
 40
0.8047762316
 40
0.8280151811
 40
0.8506773308
 40
0.8728482791
 40
0.8946116219
 40
0.916049434
 40
0.9372390446
 40
0.9582517922
 40
0.9791527961
 40
1.0
 40
1.0
 40
1.0
 40
1.0
 10
14.7000299682
 20
8.1929986389
 30
0.0
 10
14.7113175085
 20
8.1863332338
 30
0.0
 10
14.7333435611
 20
8.1730360824
 30
0.0
 10
14.7602104871
 20
8.1559483478
 30
0.0
 10
14.7807688754
 20
8.1422586525
 30
0.0
 10
14.7955213902
 20
8.1321095516
 30
0.0
 10
14.8097497691
 20
8.1219711452
 30
0.0
 10
14.8234317567
 20
8.11184668
 30
0.0
 10
14.8365453625
 20
8.1017392329
 30
0.0
 10
14.8490693256
 20
8.0916515207
 30
0.0
 10
14.8609849319
 20
8.081587916
 30
0.0
 10
14.8722740847
 20
8.0715516791
 30
0.0
 10
14.8829208152
 20
8.061545665
 30
0.0
 10
14.896010471
 20
8.048483747
 30
0.0
 10
14.9107705806
 20
8.0322719617
 30
0.0
 10
14.923787089
 20
8.015601634
 30
0.0
 10
14.9327706641
 20
8.0023651293
 30
0.0
 10
14.9387116043
 20
7.9926748697
 30
0.0
 10
14.9439849622
 20
7.983041025
 30
0.0
 10
14.9486017744
 20
7.9734662413
 30
0.0
 10
14.9525757404
 20
7.9639527246
 30
0.0
 10
14.9559202352
 20
7.9545013065
 30
0.0
 10
14.9586532783
 20
7.9451137082
 30
0.0
 10
14.9607939826
 20
7.9357908035
 30
0.0
 10
14.9623614854
 20
7.9265329
 30
0.0
 10
14.9633775414
 20
7.9173402736
 30
0.0
 10
14.9638641756
 20
7.9082126349
 30
0.0
 10
14.9638434809
 20
7.8991493492
 30
0.0
 10
14.9633379373
 20
7.8901499405
 30
0.0
 10
14.9626922573
 20
7.8841886815
 30
0.0
 10
14.9622965638
 20
7.8812222573
 30
0.0
  0
SPLINE
  5
358
100
AcDbEntity
  8
0
100
AcDbSpline
 62
7
  6
CONTINUOUS
 70
0
 71
3
 72
15
 73
11
 74
0
 42
0.0000001
 43
0.0000001
 44
0.0000000001
 40
0.0
 40
0.0
 40
0.0
 40
0.0
 40
0.1195882985
 40
0.2396126262
 40
0.360556304
 40
0.482967703
 40
0.6074530981
 40
0.7346676949
 40
0.8652861107
 40
1.0
 40
1.0
 40
1.0
 40
1.0
 10
13.9312230856
 20
8.2463155773
 30
0.0
 10
13.9307540393
 20
8.2427992438
 30
0.0
 10
13.9300205608
 20
8.2357242272
 30
0.0
 10
13.9295773198
 20
8.2250309821
 30
0.0
 10
13.9298277673
 20
8.2142467099
 30
0.0
 10
13.9308092653
 20
8.2033709683
 30
0.0
 10
13.9325585477
 20
8.1924032302
 30
0.0
 10
13.9351121662
 20
8.1813440967
 30
0.0
 10
13.9385017656
 20
8.1701949138
 30
0.0
 10
13.9412927692
 20
8.16282833
 30
0.0
 10
13.9428269969
 20
8.1591384133
 30
0.0
  0
SPLINE
  5
359
100
AcDbEntity
  8
0
100
AcDbSpline
 62
7
  6
CONTINUOUS
 70
0
 71
3
 72
52
 73
48
 74
0
 42
0.0000001
 43
0.0000001
 44
0.0000000001
 40
0.0
 40
0.0
 40
0.0
 40
0.0
 40
0.0097387613
 40
0.01996924
 40
0.0306879308
 40
0.0418900686
 40
0.0535691498
 40
0.0657170708
 40
0.0783249817
 40
0.0913826919
 40
0.1048786857
 40
0.1188009705
 40
0.1331365327
 40
0.1478712739
 40
0.1784791338
 40
0.2105004411
 40
0.2438011534
 40
0.2782386556
 40
0.3136632709
 40
0.3499196009
 40
0.3868470982
 40
0.4242813612
 40
0.4620551404
 40
0.499999107
 40
0.5379430949
 40
0.5757168797
 40
0.6131511635
 40
0.6500787085
 40
0.6863350312
 40
0.7217597201
 40
0.7561973093
 40
0.7894980008
 40
0.8215194253
 40
0.8370084466
 40
0.8521280753
 40
0.8668628263
 40
0.8811983593
 40
0.8951207763
 40
0.9086167822
 40
0.9216744626
 40
0.9342825344
 40
0.9464305003
 40
0.9581095423
 40
0.9693117773
 40
0.9800304329
 40
0.9902608885
 40
1.0
 40
1.0
 40
1.0
 40
1.0
 10
14.0474353977
 20
10.1479491496
 30
0.0
 10
14.0442017429
 20
10.1424665842
 30
0.0
 10
14.0377698062
 20
10.1311065806
 30
0.0
 10
14.028435119
 20
10.1133507969
 30
0.0
 10
14.0191858835
 20
10.0944791684
 30
0.0
 10
14.0100339591
 20
10.0745140841
 30
0.0
 10
14.0009902417
 20
10.0534791874
 30
0.0
 10
13.9920650451
 20
10.0313996785
 30
0.0
 10
13.9832695169
 20
10.0083015569
 30
0.0
 10
13.974614182
 20
9.9842123122
 30
0.0
 10
13.9661089604
 20
9.9591608147
 30
0.0
 10
13.9577645242
 20
9.9331767998
 30
0.0
 10
13.949590856
 20
9.9062912433
 30
0.0
 10
13.938795976
 20
9.8688085859
 30
0.0
 10
13.9258332723
 20
9.8199273595
 30
0.0
 10
13.9112973345
 20
9.7589309156
 30
0.0
 10
13.8976612709
 20
9.6951654222
 30
0.0
 10
13.8849905577
 20
9.6289356142
 30
0.0
 10
13.8733460395
 20
9.5605576882
 30
0.0
 10
13.8627842581
 20
9.490358299
 30
0.0
 10
13.8533558413
 20
9.4186729448
 30
0.0
 10
13.8451058728
 20
9.3458443695
 30
0.0
 10
13.8380744302
 20
9.272220764
 30
0.0
 10
13.832295005
 20
9.1981541952
 30
0.0
 10
13.827795064
 20
9.1239988876
 30
0.0
 10
13.8245965435
 20
9.0501094394
 30
0.0
 10
13.8227143709
 20
8.9768392017
 30
0.0
 10
13.822157193
 20
8.9045385768
 30
0.0
 10
13.8229278821
 20
8.8335532053
 30
0.0
 10
13.8250221173
 20
8.7642224023
 30
0.0
 10
13.8284292287
 20
8.6968773985
 30
0.0
 10
13.8331330311
 20
8.6318402304
 30
0.0
 10
13.8381675301
 20
8.5792576865
 30
0.0
 10
13.8428509624
 20
8.5385911828
 30
0.0
 10
13.8466327523
 20
8.5091965849
 30
0.0
 10
13.8507185002
 20
8.480604022
 30
0.0
 10
13.8551028111
 20
8.4528475407
 30
0.0
 10
13.859780411
 20
8.4259603096
 30
0.0
 10
13.864746182
 20
8.3999745174
 30
0.0
 10
13.8699936038
 20
8.3749210576
 30
0.0
 10
13.8755163448
 20
8.3508297832
 30
0.0
 10
13.8813083393
 20
8.3277295241
 30
0.0
 10
13.8873620532
 20
8.3056476031
 30
0.0
 10
13.8936701524
 20
8.2846102371
 30
0.0
 10
13.9002257798
 20
8.2646424707
 30
0.0
 10
13.9070203718
 20
8.2457680069
 30
0.0
 10
13.9118226426
 20
8.2336286811
 30
0.0
 10
13.9142686078
 20
8.227752014
 30
0.0
  0
SPLINE
  5
35A
100
AcDbEntity
  8
0
100
AcDbSpline
 62
7
  6
CONTINUOUS
 70
0
 71
3
 72
25
 73
21
 74
0
 42
0.0000001
 43
0.0000001
 44
0.0000000001
 40
0.0
 40
0.0
 40
0.0
 40
0.0
 40
0.0668867605
 40
0.1331120545
 40
0.1986581884
 40
0.2635176015
 40
0.2956921237
 40
0.3276978125
 40
0.3595370449
 40
0.3912129943
 40
0.4540900257
 40
0.5163726496
 40
0.5781124379
 40
0.6393658946
 40
0.7001947143
 40
0.7606598158
 40
0.8208202142
 40
0.8807319305
 40
0.940444804
 40
1.0
 40
1.0
 40
1.0
 40
1.0
 10
14.1051573818
 20
10.2458158264
 30
0.0
 10
14.0970536001
 20
10.2320810452
 30
0.0
 10
14.0813119547
 20
10.2045171309
 30
0.0
 10
14.059093892
 20
10.1626782594
 30
0.0
 10
14.038484765
 20
10.1205601023
 30
0.0
 10
14.0226801401
 20
10.0851555561
 30
0.0
 10
14.0109304892
 20
10.0567200078
 30
0.0
 10
14.002590534
 20
10.0353984966
 30
0.0
 10
13.9947066279
 20
10.0140307383
 30
0.0
 10
13.9848363696
 20
9.9855566647
 30
0.0
 10
13.9736470336
 20
9.9498653802
 30
0.0
 10
13.9620600533
 20
9.9068246565
 30
0.0
 10
13.9523273609
 20
9.8637236764
 30
0.0
 10
13.944417317
 20
9.8206041555
 30
0.0
 10
13.9382685724
 20
9.7775061373
 30
0.0
 10
13.933809883
 20
9.7344635059
 30
0.0
 10
13.9309526157
 20
9.6915051723
 30
0.0
 10
13.9296023317
 20
9.6486534787
 30
0.0
 10
13.929658353
 20
9.605926237
 30
0.0
 10
13.93056733
 20
9.5774998028
 30
0.0
 10
13.9312230856
 20
9.5633156867
 30
0.0
  0
SPLINE
  5
35B
100
AcDbEntity
  8
0
100
AcDbSpline
 62
7
  6
CONTINUOUS
 70
0
 71
3
 72
9
 73
5
 74
0
 42
0.0000001
 43
0.0000001
 44
0.0000000001
 40
0.0
 40
0.0
 40
0.0
 40
0.0
 40
0.5156474505
 40
1.0
 40
1.0
 40
1.0
 40
1.0
 10
15.2573483799
 20
10.0945245127
 30
0.0
 10
15.254629388
 20
10.101057118
 30
0.0
 10
15.2491143081
 20
10.1136270033
 30
0.0
 10
15.2430472707
 20
10.1259418849
 30
0.0
 10
15.2399558577
 20
10.1318256036
 30
0.0
  0
SPLINE
  5
35C
100
AcDbEntity
  8
0
100
AcDbSpline
 62
7
  6
CONTINUOUS
 70
0
 71
3
 72
29
 73
25
 74
0
 42
0.0000001
 43
0.0000001
 44
0.0000000001
 40
0.0
 40
0.0
 40
0.0
 40
0.0
 40
0.0862327848
 40
0.1664676269
 40
0.2409152233
 40
0.3098757337
 40
0.3737745705
 40
0.4331809165
 40
0.4888343581
 40
0.5155549759
 40
0.5417008459
 40
0.5674144755
 40
0.5928466994
 40
0.6181538755
 40
0.6434945689
 40
0.6690265959
 40
0.6949041625
 40
0.7212751943
 40
0.7482787411
 40
0.804656131
 40
0.8649664487
 40
0.8968317374
 40
0.9299236223
 40
1.0
 40
1.0
 40
1.0
 40
1.0
 10
15.2399558577
 20
10.1318256036
 30
0.0
 10
15.2369524628
 20
10.1375418021
 30
0.0
 10
15.2308739787
 20
10.1484332947
 30
0.0
 10
15.2211429068
 20
10.1636380203
 30
0.0
 10
15.2111452841
 20
10.1770926449
 30
0.0
 10
15.2008922965
 20
10.1887743644
 30
0.0
 10
15.1903949917
 20
10.1986643444
 30
0.0
 10
15.1796650962
 20
10.2067422374
 30
0.0
 10
15.1704088096
 20
10.212015476
 30
0.0
 10
15.1629462671
 20
10.2152480642
 30
0.0
 10
15.1573808262
 20
10.2171765408
 30
0.0
 10
15.1517747961
 20
10.2186393732
 30
0.0
 10
15.1461308277
 20
10.2196354466
 30
0.0
 10
15.140452076
 20
10.2201644532
 30
0.0
 10
15.1347416248
 20
10.2202262192
 30
0.0
 10
15.1290025616
 20
10.2198208147
 30
0.0
 10
15.1232379577
 20
10.2189484818
 30
0.0
 10
15.1174505394
 20
10.217609701
 30
0.0
 10
15.1095958818
 20
10.2151703584
 30
0.0
 10
15.0996865245
 20
10.2108898602
 30
0.0
 10
15.0900764254
 20
10.2052384823
 30
0.0
 10
15.0823872134
 20
10.1998604229
 30
0.0
 10
15.0743968156
 20
10.1936585849
 30
0.0
 10
15.0686318488
 20
10.1884971789
 30
0.0
 10
15.0648576441
 20
10.1848515769
 30
0.0
  0
SPLINE
  5
35D
100
AcDbEntity
  8
0
100
AcDbSpline
 62
7
  6
CONTINUOUS
 70
0
 71
3
 72
23
 73
19
 74
0
 42
0.0000001
 43
0.0000001
 44
0.0000000001
 40
0.0
 40
0.0
 40
0.0
 40
0.0
 40
0.0637754757
 40
0.1273453426
 40
0.1907021752
 40
0.2538559149
 40
0.3168132477
 40
0.3795821059
 40
0.4421733695
 40
0.5045993382
 40
0.566873869
 40
0.6290123778
 40
0.6910316472
 40
0.7529496469
 40
0.8147853527
 40
0.8765585998
 40
0.9382898568
 40
1.0
 40
1.0
 40
1.0
 40
1.0
 10
13.1977968691
 20
10.3200300337
 30
0.0
 10
13.1977968691
 20
10.3156946618
 30
0.0
 10
13.1975893071
 20
10.3070364275
 30
0.0
 10
13.1966527626
 20
10.2941017725
 30
0.0
 10
13.195093297
 20
10.2812695714
 30
0.0
 10
13.1929146373
 20
10.2685701585
 30
0.0
 10
13.1901218244
 20
10.2560324057
 30
0.0
 10
13.186721188
 20
10.2436853008
 30
0.0
 10
13.18272051
 20
10.2315573508
 30
0.0
 10
13.1781290849
 20
10.219676471
 30
0.0
 10
13.1729574241
 20
10.2080700778
 30
0.0
 10
13.1672173794
 20
10.196764973
 30
0.0
 10
13.1609222706
 20
10.1857871839
 30
0.0
 10
13.1540865345
 20
10.1751620577
 30
0.0
 10
13.1467259132
 20
10.1649141581
 30
0.0
 10
13.1388573772
 20
10.1550669821
 30
0.0
 10
13.13049932
 20
10.1456435975
 30
0.0
 10
13.1246126554
 20
10.1396572797
 30
0.0
 10
13.1215954009
 20
10.1367428368
 30
0.0
  0
SPLINE
  5
35E
100
AcDbEntity
  8
0
100
AcDbSpline
 62
7
  6
CONTINUOUS
 70
0
 71
3
 72
23
 73
19
 74
0
 42
0.0000001
 43
0.0000001
 44
0.0000000001
 40
0.0
 40
0.0
 40
0.0
 40
0.0
 40
0.0637754757
 40
0.1273453426
 40
0.1907021752
 40
0.2538559149
 40
0.3168132477
 40
0.3795821059
 40
0.4421733695
 40
0.5045993382
 40
0.566873869
 40
0.6290123778
 40
0.6910316472
 40
0.7529496469
 40
0.8147853527
 40
0.8765585998
 40
0.9382898568
 40
1.0
 40
1.0
 40
1.0
 40
1.0
 10
13.1977968691
 20
5.4904006161
 30
0.0
 10
13.1977968691
 20
5.4860652442
 30
0.0
 10
13.1975893071
 20
5.4774070099
 30
0.0
 10
13.1966527626
 20
5.4644723549
 30
0.0
 10
13.195093297
 20
5.4516401538
 30
0.0
 10
13.1929146373
 20
5.4389407409
 30
0.0
 10
13.1901218244
 20
5.4264029881
 30
0.0
 10
13.186721188
 20
5.4140558832
 30
0.0
 10
13.18272051
 20
5.4019279332
 30
0.0
 10
13.1781290849
 20
5.3900470534
 30
0.0
 10
13.1729574241
 20
5.3784406602
 30
0.0
 10
13.1672173794
 20
5.3671355554
 30
0.0
 10
13.1609222706
 20
5.3561577663
 30
0.0
 10
13.1540865345
 20
5.3455326401
 30
0.0
 10
13.1467259132
 20
5.3352847405
 30
0.0
 10
13.1388573772
 20
5.3254375645
 30
0.0
 10
13.13049932
 20
5.3160141799
 30
0.0
 10
13.1246126554
 20
5.3100278621
 30
0.0
 10
13.1215954009
 20
5.3071134192
 30
0.0
  0
SPLINE
  5
35F
100
AcDbEntity
  8
0
100
AcDbSpline
 62
7
  6
CONTINUOUS
 70
0
 71
3
 72
56
 73
52
 74
0
 42
0.0000001
 43
0.0000001
 44
0.0000000001
 40
0.0
 40
0.0
 40
0.0
 40
0.0
 40
0.04819767
 40
0.0958287999
 40
0.1428184574
 40
0.1890960021
 40
0.2345906274
 40
0.2792338175
 40
0.3229587609
 40
0.3657007211
 40
0.4073972055
 40
0.447988157
 40
0.4874161815
 40
0.5256267868
 40
0.5625686641
 40
0.5981939778
 40
0.6324586991
 40
0.6490685131
 40
0.6653236227
 40
0.6812197653
 40
0.6967530693
 40
0.7119199208
 40
0.7267171674
 40
0.7411419932
 40
0.7551920189
 40
0.768865364
 40
0.7821605602
 40
0.7950767741
 40
0.8076136724
 40
0.8197715991
 40
0.831551607
 40
0.842955453
 40
0.8539858326
 40
0.8646462836
 40
0.8749414472
 40
0.8848770999
 40
0.8944602695
 40
0.903699487
 40
0.9126047878
 40
0.9211880502
 40
0.9294630638
 40
0.9374457581
 40
0.9451544345
 40
0.9526098277
 40
0.9598353668
 40
0.9668571361
 40
0.9737039215
 40
0.9804070763
 40
0.9870002242
 40
0.9935189075
 40
1.0
 40
1.0
 40
1.0
 40
1.0
 10
8.727950171
 20
11.142452282
 30
0.0
 10
8.709740921
 20
11.1437150977
 30
0.0
 10
8.6735502011
 20
11.1464291556
 30
0.0
 10
8.6196638119
 20
11.1510958776
 30
0.0
 10
8.5665599549
 20
11.1563285301
 30
0.0
 10
8.5143278927
 20
11.1621181955
 30
0.0
 10
8.4630546144
 20
11.1684552372
 30
0.0
 10
8.4128259792
 20
11.1753289715
 30
0.0
 10
8.3637259028
 20
11.1827278621
 30
0.0
 10
8.3158364455
 20
11.1906394642
 30
0.0
 10
8.2692376167
 20
11.1990504761
 30
0.0
 10
8.2240072519
 20
11.2079467569
 30
0.0
 10
8.1802208739
 20
11.2173133478
 30
0.0
 10
8.137951578
 20
11.2271345037
 30
0.0
 10
8.0972698094
 20
11.2373937008
 30
0.0
 10
8.0582435466
 20
11.2480736893
 30
0.0
 10
8.0268385226
 20
11.2574033283
 30
0.0
 10
8.0026006147
 20
11.2650757554
 30
0.0
 10
7.9850644748
 20
11.2708643917
 30
0.0
 10
7.9679894207
 20
11.2767445609
 30
0.0
 10
7.9513825464
 20
11.2827137558
 30
0.0
 10
7.9352507998
 20
11.2887695561
 30
0.0
 10
7.9196008915
 20
11.2949093633
 30
0.0
 10
7.9044393483
 20
11.3011306404
 30
0.0
 10
7.8897724915
 20
11.3074308087
 30
0.0
 10
7.8756064073
 20
11.3138071751
 30
0.0
 10
7.8619470153
 20
11.3202571732
 30
0.0
 10
7.8487999632
 20
11.3267780279
 30
0.0
 10
7.8361707268
 20
11.3333670891
 30
0.0
 10
7.8240645424
 20
11.3400216147
 30
0.0
 10
7.8124864037
 20
11.3467388071
 30
0.0
 10
7.8014411412
 20
11.3535159863
 30
0.0
 10
7.7909332685
 20
11.3603502642
 30
0.0
 10
7.7809671642
 20
11.3672389372
 30
0.0
 10
7.7715469167
 20
11.3741791628
 30
0.0
 10
7.7626763942
 20
11.3811681263
 30
0.0
 10
7.7543593072
 20
11.3882031045
 30
0.0
 10
7.7465990174
 20
11.3952812031
 30
0.0
 10
7.7393988337
 20
11.402399756
 30
0.0
 10
7.7327617182
 20
11.4095559252
 30
0.0
 10
7.7266905124
 20
11.4167469863
 30
0.0
 10
7.721187921
 20
11.423970241
 30
0.0
 10
7.7162563304
 20
11.431222866
 30
0.0
 10
7.7118982249
 20
11.438502203
 30
0.0
 10
7.7081156885
 20
11.445805352
 30
0.0
 10
7.7049108624
 20
11.4531294562
 30
0.0
 10
7.7022856815
 20
11.460471486
 30
0.0
 10
7.7002417592
 20
11.4678281503
 30
0.0
 10
7.6987807362
 20
11.475196246
 30
0.0
 10
7.6979035536
 20
11.4825715038
 30
0.0
 10
7.6977083686
 20
11.4874968579
 30
0.0
 10
7.6977083594
 20
11.4899513186
 30
0.0
  0
SPLINE
  5
360
100
AcDbEntity
  8
0
100
AcDbSpline
 62
7
  6
CONTINUOUS
 70
0
 71
3
 72
61
 73
57
 74
0
 42
0.0000001
 43
0.0000001
 44
0.0000000001
 40
0.0
 40
0.0
 40
0.0
 40
0.0
 40
0.0417736088
 40
0.0840360431
 40
0.126657155
 40
0.1695046842
 40
0.2124458378
 40
0.2553473321
 40
0.2980760744
 40
0.3404996436
 40
0.3824868274
 40
0.4239081481
 40
0.4646363976
 40
0.5045471783
 40
0.5435194547
 40
0.5814361204
 40
0.5999634452
 40
0.6181850312
 40
0.6360876424
 40
0.6536583488
 40
0.6708846631
 40
0.6877544565
 40
0.7042560738
 40
0.7203782989
 40
0.7361104104
 40
0.7514422273
 40
0.7663640903
 40
0.7808669935
 40
0.7949425048
 40
0.8085829615
 40
0.8217813757
 40
0.8345316441
 40
0.8468285057
 40
0.8586677174
 40
0.8700461208
 40
0.8809617639
 40
0.8914141105
 40
0.9014041268
 40
0.9109346407
 40
0.9200104579
 40
0.9286388542
 40
0.9368298218
 40
0.9445966692
 40
0.9519564915
 40
0.9589308526
 40
0.9655464796
 40
0.97183593
 40
0.9778382749
 40
0.9807467215
 40
0.9836011958
 40
0.9864085004
 40
0.9891758164
 40
0.9919106777
 40
0.9946209229
 40
0.9973146203
 40
1.0
 40
1.0
 40
1.0
 40
1.0
 10
13.5180385469
 20
8.930561243
 30
0.0
 10
13.5180385469
 20
8.9507095878
 30
0.0
 10
13.5183528806
 20
8.9912426823
 30
0.0
 10
13.5197425039
 20
9.0523185716
 30
0.0
 10
13.5220489265
 20
9.1138851535
 30
0.0
 10
13.5252645996
 20
9.1757386755
 30
0.0
 10
13.5293788893
 20
9.2376744596
 30
0.0
 10
13.534378199
 20
9.2994876185
 30
0.0
 10
13.5402459671
 20
9.360973645
 30
0.0
 10
13.5469627426
 20
9.4219291301
 30
0.0
 10
13.554506241
 20
9.4821524284
 30
0.0
 10
13.5628514195
 20
9.5414443381
 30
0.0
 10
13.5719705599
 20
9.5996087468
 30
0.0
 10
13.5818333497
 20
9.6564533612
 30
0.0
 10
13.5924070064
 20
9.7117900909
 30
0.0
 10
13.6018525347
 20
9.756834695
 30
0.0
 10
13.6097485889
 20
9.7919717707
 30
0.0
 10
13.6157803982
 20
9.8176324864
 30
0.0
 10
13.6219623799
 20
9.8427825606
 30
0.0
 10
13.6282895023
 20
9.8674012077
 30
0.0
 10
13.6347564467
 20
9.8914680678
 30
0.0
 10
13.6413579074
 20
9.9149632379
 30
0.0
 10
13.648088371
 20
9.9378672973
 30
0.0
 10
13.654942274
 20
9.9601613126
 30
0.0
 10
13.661913938
 20
9.9818268612
 30
0.0
 10
13.6689975522
 20
10.0028460487
 30
0.0
 10
13.6761872948
 20
10.023201511
 30
0.0
 10
13.6834771342
 20
10.0428764572
 30
0.0
 10
13.6908611118
 20
10.0618546424
 30
0.0
 10
13.6983330207
 20
10.0801204381
 30
0.0
 10
13.7058867582
 20
10.0976587819
 30
0.0
 10
13.7135160018
 20
10.1144552595
 30
0.0
 10
13.7212144981
 20
10.130496056
 30
0.0
 10
13.7289758693
 20
10.1457680175
 30
0.0
 10
13.7367937216
 20
10.1602586418
 30
0.0
 10
13.7446616762
 20
10.1739560785
 30
0.0
 10
13.7525732396
 20
10.1868491985
 30
0.0
 10
13.760522081
 20
10.1989274956
 30
0.0
 10
13.7685016923
 20
10.2101812567
 30
0.0
 10
13.776505842
 20
10.2206013554
 30
0.0
 10
13.784528148
 20
10.2301794921
 30
0.0
 10
13.792562553
 20
10.2389079244
 30
0.0
 10
13.8006029802
 20
10.246779667
 30
0.0
 10
13.8086436652
 20
10.2537882587
 30
0.0
 10
13.8166789391
 20
10.2599277319
 30
0.0
 10
13.8247035145
 20
10.265192611
 30
0.0
 10
13.8327114479
 20
10.2695772451
 30
0.0
 10
13.8394371307
 20
10.2725240886
 30
0.0
 10
13.8447886452
 20
10.2744176386
 30
0.0
 10
13.8487512958
 20
10.2756005832
 30
0.0
 10
13.8527037583
 20
10.2765606946
 30
0.0
 10
13.8566452642
 20
10.2772976887
 30
0.0
 10
13.8605749032
 20
10.2778112824
 30
0.0
 10
13.8644918208
 20
10.2781013593
 30
0.0
 10
13.8683949399
 20
10.27816782
 30
0.0
 10
13.8709889623
 20
10.2780628987
 30
0.0
 10
13.8722810778
 20
10.2779732959
 30
0.0
  0
SPLINE
  5
361
100
AcDbEntity
  8
0
100
AcDbSpline
 62
7
  6
CONTINUOUS
 70
0
 71
3
 72
37
 73
33
 74
0
 42
0.0000001
 43
0.0000001
 44
0.0000000001
 40
0.0
 40
0.0
 40
0.0
 40
0.0
 40
0.0845013031
 40
0.1672995432
 40
0.2079612317
 40
0.2480786786
 40
0.287613863
 40
0.3265295541
 40
0.3647892887
 40
0.4023575788
 40
0.4391998683
 40
0.4752827591
 40
0.5105739063
 40
0.545042223
 40
0.5786579603
 40
0.6113926775
 40
0.6432195624
 40
0.6741133164
 40
0.7040504387
 40
0.7330093519
 40
0.7609704418
 40
0.7879164933
 40
0.813832659
 40
0.8387069171
 40
0.8625303599
 40
0.8852974651
 40
0.907006827
 40
0.9276614701
 40
0.9472697778
 40
0.9658463312
 40
0.9834128979
 40
1.0
 40
1.0
 40
1.0
 40
1.0
 10
8.8159485738
 20
11.1656329588
 30
0.0
 10
8.7942129558
 20
11.1671403291
 30
0.0
 10
8.7512052228
 20
11.1705061892
 30
0.0
 10
8.6978312574
 20
11.1756799579
 30
0.0
 10
8.6559146645
 20
11.1803631524
 30
0.0
 10
8.6251199456
 20
11.184114755
 30
0.0
 10
8.5948115688
 20
11.1881225611
 30
0.0
 10
8.5650213415
 20
11.1923823993
 30
0.0
 10
8.5357805639
 20
11.1968897747
 30
0.0
 10
8.5071199678
 20
11.2016399009
 30
0.0
 10
8.479069668
 20
11.2066278249
 30
0.0
 10
8.4516591271
 20
11.2118482244
 30
0.0
 10
8.4249171373
 20
11.2172956332
 30
0.0
 10
8.39887178
 20
11.2229643001
 30
0.0
 10
8.3735503967
 20
11.2288482089
 30
0.0
 10
8.348979568
 20
11.2349412168
 30
0.0
 10
8.3251850641
 20
11.2412368262
 30
0.0
 10
8.3021918401
 20
11.2477284438
 30
0.0
 10
8.2800239914
 20
11.2544092165
 30
0.0
 10
8.2587047252
 20
11.2612720628
 30
0.0
 10
8.2382563581
 20
11.2683098261
 30
0.0
 10
8.2187002409
 20
11.2755150182
 30
0.0
 10
8.2000567869
 20
11.2828801236
 30
0.0
 10
8.1823454083
 20
11.2903974075
 30
0.0
 10
8.1655844892
 20
11.2980589666
 30
0.0
 10
8.1497914143
 20
11.3058569115
 30
0.0
 10
8.1349824478
 20
11.3137830772
 30
0.0
 10
8.1211728102
 20
11.3218294205
 30
0.0
 10
8.1083766586
 20
11.3299877388
 30
0.0
 10
8.0966068105
 20
11.3382500205
 30
0.0
 10
8.0858758144
 20
11.3466078414
 30
0.0
 10
8.079235123
 20
11.3524008023
 30
0.0
 10
8.0761042669
 20
11.355314379
 30
0.0
  0
SPLINE
  5
362
100
AcDbEntity
  8
0
100
AcDbSpline
 62
7
  6
CONTINUOUS
 70
0
 71
3
 72
51
 73
47
 74
0
 42
0.0000001
 43
0.0000001
 44
0.0000000001
 40
0.0
 40
0.0
 40
0.0
 40
0.0
 40
0.0378656932
 40
0.0761053471
 40
0.1146336937
 40
0.1533659544
 40
0.1922159711
 40
0.2310975834
 40
0.2699244213
 40
0.3086103092
 40
0.3470694643
 40
0.3852167579
 40
0.4229679612
 40
0.4602399986
 40
0.4969512004
 40
0.5330215606
 40
0.5683729988
 40
0.6029296306
 40
0.636618047
 40
0.6693676075
 40
0.701110752
 40
0.7317833368
 40
0.7466993527
 40
0.7613254478
 40
0.7756546995
 40
0.7896805515
 40
0.8033966977
 40
0.8167971972
 40
0.8298764445
 40
0.8426291891
 40
0.8550506179
 40
0.8671362747
 40
0.8788822429
 40
0.8902850014
 40
0.9013416575
 40
0.9120498099
 40
0.9224077598
 40
0.9324144598
 40
0.9420696473
 40
0.9513739285
 40
0.9603288195
 40
0.9689369754
 40
0.9772021703
 40
0.9851296393
 40
0.9927260714
 40
1.0
 40
1.0
 40
1.0
 40
1.0
 10
8.8159485738
 20
11.1656329588
 30
0.0
 10
8.8325376447
 20
11.1644825029
 30
0.0
 10
8.8658956761
 20
11.1623958919
 30
0.0
 10
8.9161778244
 20
11.159914615
 30
0.0
 10
8.9668682375
 20
11.1580702817
 30
0.0
 10
9.0178459952
 20
11.1568672655
 30
0.0
 10
9.0689900264
 20
11.1563084731
 30
0.0
 10
9.1201785654
 20
11.1563952224
 30
0.0
 10
9.1712898634
 20
11.1571273154
 30
0.0
 10
9.2222023122
 20
11.1585029973
 30
0.0
 10
9.2727947926
 20
11.1605189799
 30
0.0
 10
9.3229469456
 20
11.1631704409
 30
0.0
 10
9.3725394664
 20
11.1664510384
 30
0.0
 10
9.4214543894
 20
11.1703529222
 30
0.0
 10
9.469575371
 20
11.1748667542
 30
0.0
 10
9.5167879699
 20
11.17998173
 30
0.0
 10
9.56297992
 20
11.185685604
 30
0.0
 10
9.6080414072
 20
11.1919647172
 30
0.0
 10
9.6518653161
 20
11.1988040312
 30
0.0
 10
9.6943475606
 20
11.206187153
 30
0.0
 10
9.7353870901
 20
11.2140964121
 30
0.0
 10
9.7686046393
 20
11.2211741585
 30
0.0
 10
9.7943771504
 20
11.2270956937
 30
0.0
 10
9.8131063527
 20
11.2316150504
 30
0.0
 10
9.8314039802
 20
11.2362512177
 30
0.0
 10
9.8492591784
 20
11.2410013863
 30
0.0
 10
9.8666613318
 20
11.245862767
 30
0.0
 10
9.8836001051
 20
11.2508324404
 30
0.0
 10
9.9000654413
 20
11.2559074378
 30
0.0
 10
9.9160475607
 20
11.2610847713
 30
0.0
 10
9.9315369896
 20
11.2663612921
 30
0.0
 10
9.9465245275
 20
11.271733946
 30
0.0
 10
9.9610013095
 20
11.2771994315
 30
0.0
 10
9.97495874
 20
11.2827546082
 30
0.0
 10
9.9883885815
 20
11.28839607
 30
0.0
 10
10.0012828752
 20
11.2941205588
 30
0.0
 10
10.0136340228
 20
11.2999246192
 30
0.0
 10
10.0254347352
 20
11.3058048522
 30
0.0
 10
10.0366780619
 20
11.3117577972
 30
0.0
 10
10.047357416
 20
11.3177799158
 30
0.0
 10
10.0574665007
 20
11.3238677679
 30
0.0
 10
10.0669994574
 20
11.3300177127
 30
0.0
 10
10.0759506378
 20
11.3362263224
 30
0.0
 10
10.0843149623
 20
11.3424899777
 30
0.0
 10
10.0920872577
 20
11.3488050705
 30
0.0
 10
10.0969753582
 20
11.353139482
 30
0.0
 10
10.0993138038
 20
11.3553156616
 30
0.0
  0
SPLINE
  5
363
100
AcDbEntity
  8
0
100
AcDbSpline
 62
7
  6
CONTINUOUS
 70
0
 71
3
 72
39
 73
35
 74
0
 42
0.0000001
 43
0.0000001
 44
0.0000000001
 40
0.0
 40
0.0
 40
0.0
 40
0.0
 40
0.0299424699
 40
0.0599093164
 40
0.0899243219
 40
0.1200101003
 40
0.1501875584
 40
0.1804754099
 40
0.210889754
 40
0.2414437305
 40
0.2721472545
 40
0.3030068369
 40
0.3340254888
 40
0.3652027079
 40
0.3965345426
 40
0.4280137277
 40
0.4596298846
 40
0.4913697788
 40
0.5232176263
 40
0.5551554431
 40
0.5871634274
 40
0.6192203703
 40
0.6513040862
 40
0.6833918576
 40
0.715460886
 40
0.7474887457
 40
0.7794538306
 40
0.8113357916
 40
0.8431159521
 40
0.8747777094
 40
0.9063068732
 40
0.9376920545
 40
0.96892477
 40
1.0
 40
1.0
 40
1.0
 40
1.0
 10
12.7311479908
 20
10.54096403
 30
0.0
 10
12.7358096872
 20
10.5454668812
 30
0.0
 10
12.7454996431
 20
10.5541091808
 30
0.0
 10
12.7610244573
 20
10.5658827871
 30
0.0
 10
12.7774598031
 20
10.5764076235
 30
0.0
 10
12.7947138463
 20
10.5856246493
 30
0.0
 10
12.8126917257
 20
10.5934835094
 30
0.0
 10
12.8312942234
 20
10.5999410037
 30
0.0
 10
12.8504188285
 20
10.6049618004
 30
0.0
 10
12.869960178
 20
10.6085184879
 30
0.0
 10
12.8898106809
 20
10.6105917467
 30
0.0
 10
12.9098611036
 20
10.6111704305
 30
0.0
 10
12.9300011738
 20
10.610251616
 30
0.0
 10
12.950120183
 20
10.6078406048
 30
0.0
 10
12.9701075892
 20
10.6039508828
 30
0.0
 10
12.9898536177
 20
10.5986040371
 30
0.0
 10
13.0092498556
 20
10.59182963
 30
0.0
 10
13.0281898386
 20
10.5836650325
 30
0.0
 10
13.0465696271
 20
10.5741552157
 30
0.0
 10
13.064288369
 20
10.5633525031
 30
0.0
 10
13.0812488453
 20
10.5513162837
 30
0.0
 10
13.0973579967
 20
10.5381126872
 30
0.0
 10
13.1125274287
 20
10.523814224
 30
0.0
 10
13.1266738907
 20
10.50849939
 30
0.0
 10
13.1397197283
 20
10.4922522402
 30
0.0
 10
13.1515933051
 20
10.475161932
 30
0.0
 10
13.1622293933
 20
10.4573222418
 30
0.0
 10
13.1715695271
 20
10.4388310533
 30
0.0
 10
13.1795623265
 20
10.4197898394
 30
0.0
 10
13.1861637688
 20
10.4003030668
 30
0.0
 10
13.1913374529
 20
10.3804777984
 30
0.0
 10
13.1950547582
 20
10.3604224909
 30
0.0
 10
13.1972950805
 20
10.3402487444
 30
0.0
 10
13.1977968691
 20
10.3267565158
 30
0.0
 10
13.1977968691
 20
10.3200300337
 30
0.0
  0
SPLINE
  5
364
100
AcDbEntity
  8
0
100
AcDbSpline
 62
7
  6
CONTINUOUS
 70
0
 71
3
 72
39
 73
35
 74
0
 42
0.0000001
 43
0.0000001
 44
0.0000000001
 40
0.0
 40
0.0
 40
0.0
 40
0.0
 40
0.0299424699
 40
0.0599093164
 40
0.0899243219
 40
0.1200101003
 40
0.1501875584
 40
0.1804754099
 40
0.210889754
 40
0.2414437305
 40
0.2721472545
 40
0.3030068369
 40
0.3340254888
 40
0.3652027079
 40
0.3965345426
 40
0.4280137277
 40
0.4596298846
 40
0.4913697788
 40
0.5232176263
 40
0.5551554431
 40
0.5871634274
 40
0.6192203703
 40
0.6513040862
 40
0.6833918576
 40
0.715460886
 40
0.7474887457
 40
0.7794538306
 40
0.8113357916
 40
0.8431159521
 40
0.8747777094
 40
0.9063068732
 40
0.9376920545
 40
0.96892477
 40
1.0
 40
1.0
 40
1.0
 40
1.0
 10
12.7311479908
 20
5.7113346124
 30
0.0
 10
12.7358096872
 20
5.7158374636
 30
0.0
 10
12.7454996431
 20
5.7244797632
 30
0.0
 10
12.7610244573
 20
5.7362533695
 30
0.0
 10
12.7774598031
 20
5.7467782059
 30
0.0
 10
12.7947138463
 20
5.7559952317
 30
0.0
 10
12.8126917257
 20
5.7638540918
 30
0.0
 10
12.8312942234
 20
5.7703115861
 30
0.0
 10
12.8504188285
 20
5.7753323828
 30
0.0
 10
12.869960178
 20
5.7788890703
 30
0.0
 10
12.8898106809
 20
5.7809623291
 30
0.0
 10
12.9098611036
 20
5.7815410129
 30
0.0
 10
12.9300011738
 20
5.7806221984
 30
0.0
 10
12.950120183
 20
5.7782111872
 30
0.0
 10
12.9701075892
 20
5.7743214652
 30
0.0
 10
12.9898536177
 20
5.7689746195
 30
0.0
 10
13.0092498556
 20
5.7622002124
 30
0.0
 10
13.0281898386
 20
5.7540356149
 30
0.0
 10
13.0465696271
 20
5.7445257981
 30
0.0
 10
13.064288369
 20
5.7337230855
 30
0.0
 10
13.0812488453
 20
5.7216868661
 30
0.0
 10
13.0973579967
 20
5.7084832696
 30
0.0
 10
13.1125274287
 20
5.6941848064
 30
0.0
 10
13.1266738907
 20
5.6788699724
 30
0.0
 10
13.1397197283
 20
5.6626228226
 30
0.0
 10
13.1515933051
 20
5.6455325144
 30
0.0
 10
13.1622293933
 20
5.6276928242
 30
0.0
 10
13.1715695271
 20
5.6092016357
 30
0.0
 10
13.1795623265
 20
5.5901604218
 30
0.0
 10
13.1861637688
 20
5.5706736492
 30
0.0
 10
13.1913374529
 20
5.5508483808
 30
0.0
 10
13.1950547582
 20
5.5307930733
 30
0.0
 10
13.1972950805
 20
5.5106193267
 30
0.0
 10
13.1977968691
 20
5.4971270982
 30
0.0
 10
13.1977968691
 20
5.4904006161
 30
0.0
  0
SPLINE
  5
365
100
AcDbEntity
  8
0
100
AcDbSpline
 62
7
  6
CONTINUOUS
 70
0
 71
3
 72
54
 73
50
 74
0
 42
0.0000001
 43
0.0000001
 44
0.0000000001
 40
0.0
 40
0.0
 40
0.0
 40
0.0
 40
0.0063158507
 40
0.0126706009
 40
0.0191023977
 40
0.0256478986
 40
0.0323417211
 40
0.0392160215
 40
0.0536137219
 40
0.0611943855
 40
0.0690560622
 40
0.0772171197
 40
0.0856934318
 40
0.0944987522
 40
0.1036448027
 40
0.113141486
 40
0.1229971814
 40
0.1332187245
 40
0.1438117391
 40
0.1547806923
 40
0.1661289554
 40
0.1778590781
 40
0.1899726748
 40
0.2024706471
 40
0.2153532452
 40
0.2286199987
 40
0.2422699729
 40
0.2563016345
 40
0.2707129683
 40
0.2855015805
 40
0.3006645508
 40
0.3161986637
 40
0.3321003047
 40
0.364989385
 40
0.3992970598
 40
0.4349833452
 40
0.4720041093
 40
0.5103114544
 40
0.549854083
 40
0.590577587
 40
0.6324246928
 40
0.6753354638
 40
0.7192475599
 40
0.7640963991
 40
0.8098154153
 40
0.8563362597
 40
0.9035882195
 40
0.9515013118
 40
1.0
 40
1.0
 40
1.0
 40
1.0
 10
13.7228446919
 20
8.1231487765
 30
0.0
 10
13.7210192865
 20
8.1232753607
 30
0.0
 10
13.7173658608
 20
8.1236787329
 30
0.0
 10
13.711926646
 20
8.1247300527
 30
0.0
 10
13.706523803
 20
8.1262277626
 30
0.0
 10
13.7011604771
 20
8.1281705756
 30
0.0
 10
13.6958387529
 20
8.1305573583
 30
0.0
 10
13.6886931501
 20
8.1343877705
 30
0.0
 10
13.6817415476
 20
8.1390767095
 30
0.0
 10
13.6750142091
 20
8.1445105279
 30
0.0
 10
13.6699327685
 20
8.1490918526
 30
0.0
 10
13.6649056275
 20
8.1541061615
 30
0.0
 10
13.6599339754
 20
8.1595516053
 30
0.0
 10
13.6550198945
 20
8.1654258764
 30
0.0
 10
13.6501651827
 20
8.1717265765
 30
0.0
 10
13.6453716629
 20
8.1784511034
 30
0.0
 10
13.6406412846
 20
8.1855967849
 30
0.0
 10
13.6359758188
 20
8.1931606724
 30
0.0
 10
13.6313771587
 20
8.2011397244
 30
0.0
 10
13.6268471636
 20
8.2095307079
 30
0.0
 10
13.6223875879
 20
8.2183301844
 30
0.0
 10
13.618000324
 20
8.2275346051
 30
0.0
 10
13.613687094
 20
8.2371401908
 30
0.0
 10
13.6094496676
 20
8.2471430236
 30
0.0
 10
13.6052898257
 20
8.2575390247
 30
0.0
 10
13.601209199
 20
8.2683239164
 30
0.0
 10
13.5972095346
 20
8.2794932956
 30
0.0
 10
13.593292447
 20
8.2910425698
 30
0.0
 10
13.5894595311
 20
8.3029669939
 30
0.0
 10
13.5857124275
 20
8.3152616801
 30
0.0
 10
13.5820526176
 20
8.3279215566
 30
0.0
 10
13.5784816386
 20
8.3409414377
 30
0.0
 10
13.5737880485
 20
8.3589769457
 30
0.0
 10
13.5681664306
 20
8.3823887811
 30
0.0
 10
13.5618709875
 20
8.4115253553
 30
0.0
 10
13.5559630958
 20
8.4419630962
 30
0.0
 10
13.5504525854
 20
8.4736518393
 30
0.0
 10
13.5453486305
 20
8.5065395059
 30
0.0
 10
13.5406597354
 20
8.5405719505
 30
0.0
 10
13.536393718
 20
8.5756931364
 30
0.0
 10
13.5325576989
 20
8.6118452001
 30
0.0
 10
13.5291580606
 20
8.648968555
 30
0.0
 10
13.5262004678
 20
8.6870019887
 30
0.0
 10
13.5236898498
 20
8.7258827884
 30
0.0
 10
13.5216304006
 20
8.7655468637
 30
0.0
 10
13.5200255808
 20
8.8059286549
 30
0.0
 10
13.5188780055
 20
8.846961902
 30
0.0
 10
13.5181896925
 20
8.8885784219
 30
0.0
 10
13.5180385469
 20
8.9165105028
 30
0.0
 10
13.5180385469
 20
8.930561243
 30
0.0
  0
SPLINE
  5
366
100
AcDbEntity
  8
0
100
AcDbSpline
 62
7
  6
CONTINUOUS
 70
0
 71
3
 72
11
 73
7
 74
0
 42
0.0000001
 43
0.0000001
 44
0.0000000001
 40
0.0
 40
0.0
 40
0.0
 40
0.0
 40
0.2579671692
 40
0.5091741048
 40
0.7557602359
 40
1.0
 40
1.0
 40
1.0
 40
1.0
 10
8.133042103
 20
11.3150441881
 30
0.0
 10
8.1321679718
 20
11.3171814411
 30
0.0
 10
8.1306250491
 20
11.3214778646
 30
0.0
 10
8.1289435326
 20
11.32804099
 30
0.0
 10
8.1279333302
 20
11.334616535
 30
0.0
 10
8.1277083709
 20
11.3390132015
 30
0.0
 10
8.1277083598
 20
11.3411994282
 30
0.0
  0
SPLINE
  5
367
100
AcDbEntity
  8
0
100
AcDbSpline
 62
7
  6
CONTINUOUS
 70
0
 71
3
 72
64
 73
60
 74
0
 42
0.0000001
 43
0.0000001
 44
0.0000000001
 40
0.0
 40
0.0
 40
0.0
 40
0.0
 40
0.0027758387
 40
0.0055595824
 40
0.0083590655
 40
0.0111819794
 40
0.0140358014
 40
0.0169277481
 40
0.019864731
 40
0.022853302
 40
0.0290079858
 40
0.035438301
 40
0.0387696712
 40
0.0421838346
 40
0.0492745804
 40
0.0567385318
 40
0.0645975212
 40
0.0728690988
 40
0.0815670104
 40
0.0907018291
 40
0.1002813132
 40
0.1103108419
 40
0.1207937351
 40
0.1317314688
 40
0.1431239945
 40
0.1549698042
 40
0.1672662038
 40
0.1800093531
 40
0.1931944186
 40
0.2068156777
 40
0.2208665351
 40
0.2353396907
 40
0.2502270833
 40
0.2655200476
 40
0.2812092867
 40
0.2972849401
 40
0.3137366413
 40
0.3305534868
 40
0.3477241574
 40
0.3652368476
 40
0.3830793755
 40
0.4012391539
 40
0.4197032268
 40
0.438458316
 40
0.4574907861
 40
0.4767867365
 40
0.4963319481
 40
0.5361116867
 40
0.576711777
 40
0.6180102065
 40
0.6598821184
 40
0.7022003471
 40
0.7448359455
 40
0.7876587066
 40
0.8305376891
 40
0.8733417056
 40
0.915939974
 40
0.9582021531
 40
1.0
 40
1.0
 40
1.0
 40
1.0
 10
10.4777083342
 20
11.4899527129
 30
0.0
 10
10.4777083407
 20
11.4882352092
 30
0.0
 10
10.4776130642
 20
11.4847945547
 30
0.0
 10
10.4771845555
 20
11.4796378147
 30
0.0
 10
10.4764704609
 20
11.4744832837
 30
0.0
 10
10.4754709765
 20
11.4693323473
 30
0.0
 10
10.4741864591
 20
11.4641860787
 30
0.0
 10
10.4726172701
 20
11.4590456376
 30
0.0
 10
10.4707637128
 20
11.4539120503
 30
0.0
 10
10.4678861113
 20
11.4470110346
 30
0.0
 10
10.4635502363
 20
11.438389839
 30
0.0
 10
10.4583779289
 20
11.4299960391
 30
0.0
 10
10.4537036634
 20
11.4233148807
 30
0.0
 10
10.4485357124
 20
11.4164874933
 30
0.0
 10
10.4413503354
 20
11.4079911283
 30
0.0
 10
10.4317277866
 20
11.3979931418
 30
0.0
 10
10.4210066955
 20
11.3880735632
 30
0.0
 10
10.4091960275
 20
11.3782400329
 30
0.0
 10
10.3963052215
 20
11.3684995647
 30
0.0
 10
10.3823445094
 20
11.3588596699
 30
0.0
 10
10.3673250413
 20
11.349327736
 30
0.0
 10
10.3512588118
 20
11.3399112595
 30
0.0
 10
10.3341586825
 20
11.330617776
 30
0.0
 10
10.3160384404
 20
11.3214546584
 30
0.0
 10
10.2969126727
 20
11.3124294156
 30
0.0
 10
10.2767968889
 20
11.3035492747
 30
0.0
 10
10.2557073834
 20
11.294821547
 30
0.0
 10
10.2336613054
 20
11.2862533274
 30
0.0
 10
10.2106765993
 20
11.2778516208
 30
0.0
 10
10.1867719885
 20
11.2696233627
 30
0.0
 10
10.1619669871
 20
11.2615752271
 30
0.0
 10
10.1362818355
 20
11.2537139091
 30
0.0
 10
10.109737531
 20
11.246045787
 30
0.0
 10
10.082355768
 20
11.238577215
 30
0.0
 10
10.0541589442
 20
11.2313143116
 30
0.0
 10
10.0251701313
 20
11.2242630288
 30
0.0
 10
9.9954130519
 20
11.2174292117
 30
0.0
 10
9.9649120709
 20
11.2108184084
 30
0.0
 10
9.9336921601
 20
11.2044361267
 30
0.0
 10
9.9017788905
 20
11.1982875496
 30
0.0
 10
9.8691984017
 20
11.1923777694
 30
0.0
 10
9.8359773834
 20
11.1867116353
 30
0.0
 10
9.8021430542
 20
11.1812937806
 30
0.0
 10
9.7677231338
 20
11.1761287053
 30
0.0
 10
9.732745834
 20
11.1712205959
 30
0.0
 10
9.6972397902
 20
11.1665735273
 30
0.0
 10
9.648950218
 20
11.1606962876
 30
0.0
 10
9.5874790551
 20
11.1540417175
 30
0.0
 10
9.5125009297
 20
11.1471992677
 30
0.0
 10
9.4361308751
 20
11.1414766554
 30
0.0
 10
9.3586192377
 20
11.1368927518
 30
0.0
 10
9.2802199106
 20
11.1334627036
 30
0.0
 10
9.2011897794
 20
11.1311978366
 30
0.0
 10
9.1217877943
 20
11.1301056251
 30
0.0
 10
9.0422741439
 20
11.1301896752
 30
0.0
 10
8.9629093514
 20
11.1314496981
 30
0.0
 10
8.8839535383
 20
11.1338815579
 30
0.0
 10
8.8056654952
 20
11.1374771776
 30
0.0
 10
8.7537499218
 20
11.1406630632
 30
0.0
 10
8.727950171
 20
11.142452282
 30
0.0
  0
SPLINE
  5
368
100
AcDbEntity
  8
0
100
AcDbSpline
 62
7
  6
CONTINUOUS
 70
0
 71
3
 72
13
 73
9
 74
0
 42
0.0000001
 43
0.0000001
 44
0.0000000001
 40
0.0
 40
0.0
 40
0.0
 40
0.0
 40
0.2580427425
 40
0.509228504
 40
0.6329600676
 40
0.7558037434
 40
0.8780514723
 40
1.0
 40
1.0
 40
1.0
 40
1.0
 10
10.0422919972
 20
11.314843053
 30
0.0
 10
10.0431794428
 20
11.3169961631
 30
0.0
 10
10.0447460937
 20
11.3213244591
 30
0.0
 10
10.046176455
 20
11.3268647095
 30
0.0
 10
10.0469724372
 20
11.3312875524
 30
0.0
 10
10.0473969657
 20
11.3345904834
 30
0.0
 10
10.047651716
 20
11.3378945612
 30
0.0
 10
10.0477083394
 20
11.3400988462
 30
0.0
 10
10.0477083339
 20
11.3411994282
 30
0.0
  0
SPLINE
  5
369
100
AcDbEntity
  8
0
100
AcDbSpline
 62
7
  6
CONTINUOUS
 70
0
 71
3
 72
56
 73
52
 74
0
 42
0.0000001
 43
0.0000001
 44
0.0000000001
 40
0.0
 40
0.0
 40
0.0
 40
0.0
 40
0.04819767
 40
0.0958287999
 40
0.1428184574
 40
0.1890960021
 40
0.2345906274
 40
0.2792338175
 40
0.3229587609
 40
0.3657007211
 40
0.4073972055
 40
0.447988157
 40
0.4874161815
 40
0.5256267868
 40
0.5625686641
 40
0.5981939778
 40
0.6324586991
 40
0.6490685131
 40
0.6653236227
 40
0.6812197653
 40
0.6967530693
 40
0.7119199208
 40
0.7267171674
 40
0.7411419932
 40
0.7551920189
 40
0.768865364
 40
0.7821605602
 40
0.7950767741
 40
0.8076136724
 40
0.8197715991
 40
0.831551607
 40
0.842955453
 40
0.8539858326
 40
0.8646462836
 40
0.8749414472
 40
0.8848770999
 40
0.8944602695
 40
0.903699487
 40
0.9126047878
 40
0.9211880502
 40
0.9294630638
 40
0.9374457581
 40
0.9451544345
 40
0.9526098277
 40
0.9598353668
 40
0.9668571361
 40
0.9737039215
 40
0.9804070763
 40
0.9870002242
 40
0.9935189075
 40
1.0
 40
1.0
 40
1.0
 40
1.0
 10
9.4474665226
 20
11.8374517496
 30
0.0
 10
9.4656757727
 20
11.8361889338
 30
0.0
 10
9.5018664926
 20
11.8334748759
 30
0.0
 10
9.5557528818
 20
11.8288081539
 30
0.0
 10
9.6088567388
 20
11.8235755014
 30
0.0
 10
9.661088801
 20
11.8177858361
 30
0.0
 10
9.7123620793
 20
11.8114487943
 30
0.0
 10
9.7625907145
 20
11.80457506
 30
0.0
 10
9.8116907908
 20
11.7971761695
 30
0.0
 10
9.8595802481
 20
11.7892645674
 30
0.0
 10
9.906179077
 20
11.7808535554
 30
0.0
 10
9.9514094418
 20
11.7719572747
 30
0.0
 10
9.9951958198
 20
11.7625906838
 30
0.0
 10
10.0374651156
 20
11.7527695278
 30
0.0
 10
10.0781468843
 20
11.7425103307
 30
0.0
 10
10.1171731471
 20
11.7318303422
 30
0.0
 10
10.1485781711
 20
11.7225007032
 30
0.0
 10
10.172816079
 20
11.7148282761
 30
0.0
 10
10.1903522189
 20
11.7090396399
 30
0.0
 10
10.207427273
 20
11.7031594706
 30
0.0
 10
10.2240341473
 20
11.6971902757
 30
0.0
 10
10.2401658938
 20
11.6911344754
 30
0.0
 10
10.2558158022
 20
11.6849946683
 30
0.0
 10
10.2709773454
 20
11.6787733911
 30
0.0
 10
10.2856442021
 20
11.6724732228
 30
0.0
 10
10.2998102864
 20
11.6660968564
 30
0.0
 10
10.3134696783
 20
11.6596468583
 30
0.0
 10
10.3266167305
 20
11.6531260036
 30
0.0
 10
10.3392459668
 20
11.6465369424
 30
0.0
 10
10.3513521513
 20
11.6398824168
 30
0.0
 10
10.36293029
 20
11.6331652244
 30
0.0
 10
10.3739755525
 20
11.6263880452
 30
0.0
 10
10.3844834252
 20
11.6195537673
 30
0.0
 10
10.3944495294
 20
11.6126650943
 30
0.0
 10
10.403869777
 20
11.6057248687
 30
0.0
 10
10.4127402995
 20
11.5987359052
 30
0.0
 10
10.4210573865
 20
11.5917009271
 30
0.0
 10
10.4288176763
 20
11.5846228285
 30
0.0
 10
10.4360178599
 20
11.5775042755
 30
0.0
 10
10.4426549755
 20
11.5703481063
 30
0.0
 10
10.4487261813
 20
11.5631570452
 30
0.0
 10
10.4542287727
 20
11.5559337905
 30
0.0
 10
10.4591603633
 20
11.5486811656
 30
0.0
 10
10.4635184688
 20
11.5414018285
 30
0.0
 10
10.4673010052
 20
11.5340986795
 30
0.0
 10
10.4705058313
 20
11.5267745753
 30
0.0
 10
10.4731310122
 20
11.5194325455
 30
0.0
 10
10.4751749345
 20
11.5120758813
 30
0.0
 10
10.4766359575
 20
11.5047077856
 30
0.0
 10
10.4775131401
 20
11.4973325277
 30
0.0
 10
10.4777083251
 20
11.4924071737
 30
0.0
 10
10.4777083342
 20
11.4899527129
 30
0.0
  0
SPLINE
  5
36A
100
AcDbEntity
  8
0
100
AcDbSpline
 62
7
  6
CONTINUOUS
 70
0
 71
3
 72
23
 73
19
 74
0
 42
0.0000001
 43
0.0000001
 44
0.0000000001
 40
0.0
 40
0.0
 40
0.0
 40
0.0
 40
0.0637754757
 40
0.1273453426
 40
0.1907021752
 40
0.2538559149
 40
0.3168132477
 40
0.3795821059
 40
0.4421733695
 40
0.5045993382
 40
0.566873869
 40
0.6290123778
 40
0.6910316472
 40
0.7529496469
 40
0.8147853527
 40
0.8765585998
 40
0.9382898568
 40
1.0
 40
1.0
 40
1.0
 40
1.0
 10
12.6549465226
 20
5.5280474155
 30
0.0
 10
12.6549465226
 20
5.5323827875
 30
0.0
 10
12.6551540846
 20
5.5410410218
 30
0.0
 10
12.6560906291
 20
5.5539756768
 30
0.0
 10
12.6576500947
 20
5.5668078779
 30
0.0
 10
12.6598287544
 20
5.5795072908
 30
0.0
 10
12.6626215673
 20
5.5920450436
 30
0.0
 10
12.6660222037
 20
5.6043921485
 30
0.0
 10
12.6700228817
 20
5.6165200985
 30
0.0
 10
12.6746143068
 20
5.6284009782
 30
0.0
 10
12.6797859676
 20
5.6400073715
 30
0.0
 10
12.6855260123
 20
5.6513124763
 30
0.0
 10
12.6918211211
 20
5.6622902653
 30
0.0
 10
12.6986568572
 20
5.6729153915
 30
0.0
 10
12.7060174785
 20
5.6831632912
 30
0.0
 10
12.7138860145
 20
5.6930104672
 30
0.0
 10
12.7222440718
 20
5.7024338518
 30
0.0
 10
12.7281307363
 20
5.7084201695
 30
0.0
 10
12.7311479908
 20
5.7113346124
 30
0.0
  0
SPLINE
  5
36B
100
AcDbEntity
  8
0
100
AcDbSpline
 62
7
  6
CONTINUOUS
 70
0
 71
3
 72
11
 73
7
 74
0
 42
0.0000001
 43
0.0000001
 44
0.0000000001
 40
0.0
 40
0.0
 40
0.0
 40
0.0
 40
0.2460857654
 40
0.4937563832
 40
0.744564636
 40
1.0
 40
1.0
 40
1.0
 40
1.0
 10
13.8722810778
 20
10.2779732959
 30
0.0
 10
13.8741479616
 20
10.2778438354
 30
0.0
 10
13.8778847503
 20
10.2774277515
 30
0.0
 10
13.8834469481
 20
10.2763367568
 30
0.0
 10
13.8889705939
 20
10.2747789545
 30
0.0
 10
13.8925863764
 20
10.2734443998
 30
0.0
 10
13.8943823521
 20
10.2727043677
 30
0.0
  0
SPLINE
  5
36C
100
AcDbEntity
  8
0
100
AcDbSpline
 62
7
  6
CONTINUOUS
 70
0
 71
3
 72
39
 73
35
 74
0
 42
0.0000001
 43
0.0000001
 44
0.0000000001
 40
0.0
 40
0.0
 40
0.0
 40
0.0
 40
0.0299424699
 40
0.0599093164
 40
0.0899243219
 40
0.1200101003
 40
0.1501875584
 40
0.1804754099
 40
0.210889754
 40
0.2414437305
 40
0.2721472545
 40
0.3030068369
 40
0.3340254888
 40
0.3652027079
 40
0.3965345426
 40
0.4280137277
 40
0.4596298846
 40
0.4913697788
 40
0.5232176263
 40
0.5551554431
 40
0.5871634274
 40
0.6192203703
 40
0.6513040862
 40
0.6833918576
 40
0.715460886
 40
0.7474887457
 40
0.7794538306
 40
0.8113357916
 40
0.8431159521
 40
0.8747777094
 40
0.9063068732
 40
0.9376920545
 40
0.96892477
 40
1.0
 40
1.0
 40
1.0
 40
1.0
 10
13.1215954009
 20
10.1367428368
 30
0.0
 10
13.1169337045
 20
10.1322399856
 30
0.0
 10
13.1072437486
 20
10.1235976861
 30
0.0
 10
13.0917189345
 20
10.1118240798
 30
0.0
 10
13.0752835886
 20
10.1012992434
 30
0.0
 10
13.0580295454
 20
10.0920822176
 30
0.0
 10
13.040051666
 20
10.0842233574
 30
0.0
 10
13.0214491684
 20
10.0777658632
 30
0.0
 10
13.0023245632
 20
10.0727450665
 30
0.0
 10
12.9827832137
 20
10.0691883789
 30
0.0
 10
12.9629327108
 20
10.0671151202
 30
0.0
 10
12.9428822881
 20
10.0665364364
 30
0.0
 10
12.9227422179
 20
10.0674552509
 30
0.0
 10
12.9026232088
 20
10.0698662621
 30
0.0
 10
12.8826358025
 20
10.073755984
 30
0.0
 10
12.862889774
 20
10.0791028298
 30
0.0
 10
12.8434935361
 20
10.0858772369
 30
0.0
 10
12.8245535532
 20
10.0940418344
 30
0.0
 10
12.8061737646
 20
10.1035516512
 30
0.0
 10
12.7884550227
 20
10.1143543638
 30
0.0
 10
12.7714945465
 20
10.1263905832
 30
0.0
 10
12.755385395
 20
10.1395941796
 30
0.0
 10
12.740215963
 20
10.1538926429
 30
0.0
 10
12.726069501
 20
10.1692074769
 30
0.0
 10
12.7130236634
 20
10.1854546267
 30
0.0
 10
12.7011500866
 20
10.2025449349
 30
0.0
 10
12.6905139984
 20
10.2203846251
 30
0.0
 10
12.6811738646
 20
10.2388758136
 30
0.0
 10
12.6731810652
 20
10.2579170275
 30
0.0
 10
12.6665796229
 20
10.2774038
 30
0.0
 10
12.6614059388
 20
10.2972290685
 30
0.0
 10
12.6576886335
 20
10.317284376
 30
0.0
 10
12.6554483112
 20
10.3374581225
 30
0.0
 10
12.6549465226
 20
10.3509503511
 30
0.0
 10
12.6549465226
 20
10.3576768331
 30
0.0
  0
SPLINE
  5
36D
100
AcDbEntity
  8
0
100
AcDbSpline
 62
7
  6
CONTINUOUS
 70
0
 71
3
 72
39
 73
35
 74
0
 42
0.0000001
 43
0.0000001
 44
0.0000000001
 40
0.0
 40
0.0
 40
0.0
 40
0.0
 40
0.0299424699
 40
0.0599093164
 40
0.0899243219
 40
0.1200101003
 40
0.1501875584
 40
0.1804754099
 40
0.210889754
 40
0.2414437305
 40
0.2721472545
 40
0.3030068369
 40
0.3340254888
 40
0.3652027079
 40
0.3965345426
 40
0.4280137277
 40
0.4596298846
 40
0.4913697788
 40
0.5232176263
 40
0.5551554431
 40
0.5871634274
 40
0.6192203703
 40
0.6513040862
 40
0.6833918576
 40
0.715460886
 40
0.7474887457
 40
0.7794538306
 40
0.8113357916
 40
0.8431159521
 40
0.8747777094
 40
0.9063068732
 40
0.9376920545
 40
0.96892477
 40
1.0
 40
1.0
 40
1.0
 40
1.0
 10
13.1215954009
 20
5.3071134192
 30
0.0
 10
13.1169337045
 20
5.302610568
 30
0.0
 10
13.1072437486
 20
5.2939682685
 30
0.0
 10
13.0917189345
 20
5.2821946622
 30
0.0
 10
13.0752835886
 20
5.2716698258
 30
0.0
 10
13.0580295454
 20
5.2624528
 30
0.0
 10
13.040051666
 20
5.2545939398
 30
0.0
 10
13.0214491684
 20
5.2481364456
 30
0.0
 10
13.0023245632
 20
5.2431156489
 30
0.0
 10
12.9827832137
 20
5.2395589613
 30
0.0
 10
12.9629327108
 20
5.2374857026
 30
0.0
 10
12.9428822881
 20
5.2369070188
 30
0.0
 10
12.9227422179
 20
5.2378258332
 30
0.0
 10
12.9026232088
 20
5.2402368444
 30
0.0
 10
12.8826358025
 20
5.2441265664
 30
0.0
 10
12.862889774
 20
5.2494734122
 30
0.0
 10
12.8434935361
 20
5.2562478193
 30
0.0
 10
12.8245535532
 20
5.2644124168
 30
0.0
 10
12.8061737646
 20
5.2739222336
 30
0.0
 10
12.7884550227
 20
5.2847249462
 30
0.0
 10
12.7714945465
 20
5.2967611656
 30
0.0
 10
12.755385395
 20
5.309964762
 30
0.0
 10
12.740215963
 20
5.3242632253
 30
0.0
 10
12.726069501
 20
5.3395780593
 30
0.0
 10
12.7130236634
 20
5.3558252091
 30
0.0
 10
12.7011500866
 20
5.3729155173
 30
0.0
 10
12.6905139984
 20
5.3907552075
 30
0.0
 10
12.6811738646
 20
5.409246396
 30
0.0
 10
12.6731810652
 20
5.4282876099
 30
0.0
 10
12.6665796229
 20
5.4477743824
 30
0.0
 10
12.6614059388
 20
5.4675996509
 30
0.0
 10
12.6576886335
 20
5.4876549583
 30
0.0
 10
12.6554483112
 20
5.5078287049
 30
0.0
 10
12.6549465226
 20
5.5213209335
 30
0.0
 10
12.6549465226
 20
5.5280474155
 30
0.0
  0
SPLINE
  5
36E
100
AcDbEntity
  8
0
100
AcDbSpline
 62
7
  6
CONTINUOUS
 70
0
 71
3
 72
64
 73
60
 74
0
 42
0.0000001
 43
0.0000001
 44
0.0000000001
 40
0.0
 40
0.0
 40
0.0
 40
0.0
 40
0.0027758387
 40
0.0055595824
 40
0.0083590655
 40
0.0111819794
 40
0.0140358014
 40
0.0169277481
 40
0.019864731
 40
0.022853302
 40
0.0290079858
 40
0.035438301
 40
0.0387696712
 40
0.0421838346
 40
0.0492745804
 40
0.0567385318
 40
0.0645975212
 40
0.0728690988
 40
0.0815670104
 40
0.0907018291
 40
0.1002813132
 40
0.1103108419
 40
0.1207937351
 40
0.1317314688
 40
0.1431239945
 40
0.1549698042
 40
0.1672662038
 40
0.1800093531
 40
0.1931944186
 40
0.2068156777
 40
0.2208665351
 40
0.2353396907
 40
0.2502270833
 40
0.2655200476
 40
0.2812092867
 40
0.2972849401
 40
0.3137366413
 40
0.3305534868
 40
0.3477241574
 40
0.3652368476
 40
0.3830793755
 40
0.4012391539
 40
0.4197032268
 40
0.438458316
 40
0.4574907861
 40
0.4767867365
 40
0.4963319481
 40
0.5361116867
 40
0.576711777
 40
0.6180102065
 40
0.6598821184
 40
0.7022003471
 40
0.7448359455
 40
0.7876587066
 40
0.8305376891
 40
0.8733417056
 40
0.915939974
 40
0.9582021531
 40
1.0
 40
1.0
 40
1.0
 40
1.0
 10
7.6977083594
 20
11.4899513186
 30
0.0
 10
7.697708353
 20
11.4916688223
 30
0.0
 10
7.6978036295
 20
11.4951094768
 30
0.0
 10
7.6982321381
 20
11.5002662168
 30
0.0
 10
7.6989462328
 20
11.5054207478
 30
0.0
 10
7.6999457171
 20
11.5105716842
 30
0.0
 10
7.7012302346
 20
11.5157179528
 30
0.0
 10
7.7027994236
 20
11.520858394
 30
0.0
 10
7.7046529808
 20
11.5259919812
 30
0.0
 10
7.7075305823
 20
11.5328929969
 30
0.0
 10
7.7118664574
 20
11.5415141926
 30
0.0
 10
7.7170387648
 20
11.5499079925
 30
0.0
 10
7.7217130302
 20
11.5565891508
 30
0.0
 10
7.7268809813
 20
11.5634165382
 30
0.0
 10
7.7340663583
 20
11.5719129032
 30
0.0
 10
7.7436889071
 20
11.5819108898
 30
0.0
 10
7.7544099981
 20
11.5918304683
 30
0.0
 10
7.7662206662
 20
11.6016639986
 30
0.0
 10
7.7791114722
 20
11.6114044669
 30
0.0
 10
7.7930721843
 20
11.6210443617
 30
0.0
 10
7.8080916524
 20
11.6305762955
 30
0.0
 10
7.8241578818
 20
11.639992772
 30
0.0
 10
7.8412580112
 20
11.6492862555
 30
0.0
 10
7.8593782533
 20
11.6584493732
 30
0.0
 10
7.878504021
 20
11.6674746159
 30
0.0
 10
7.8986198048
 20
11.6763547569
 30
0.0
 10
7.9197093102
 20
11.6850824846
 30
0.0
 10
7.9417553883
 20
11.6936507041
 30
0.0
 10
7.9647400944
 20
11.7020524107
 30
0.0
 10
7.9886447052
 20
11.7102806688
 30
0.0
 10
8.0134497065
 20
11.7183288045
 30
0.0
 10
8.0391348581
 20
11.7261901224
 30
0.0
 10
8.0656791627
 20
11.7338582446
 30
0.0
 10
8.0930609257
 20
11.7413268165
 30
0.0
 10
8.1212577495
 20
11.74858972
 30
0.0
 10
8.1502465624
 20
11.7556410027
 30
0.0
 10
8.1800036417
 20
11.7624748199
 30
0.0
 10
8.2105046228
 20
11.7690856232
 30
0.0
 10
8.2417245335
 20
11.7754679049
 30
0.0
 10
8.2736378032
 20
11.7816164819
 30
0.0
 10
8.3062182919
 20
11.7875262621
 30
0.0
 10
8.3394393102
 20
11.7931923963
 30
0.0
 10
8.3732736395
 20
11.798610251
 30
0.0
 10
8.4076935599
 20
11.8037753263
 30
0.0
 10
8.4426708596
 20
11.8086834356
 30
0.0
 10
8.4781769035
 20
11.8133305043
 30
0.0
 10
8.5264664756
 20
11.8192077439
 30
0.0
 10
8.5879376385
 20
11.825862314
 30
0.0
 10
8.662915764
 20
11.8327047639
 30
0.0
 10
8.7392858186
 20
11.8384273762
 30
0.0
 10
8.8167974559
 20
11.8430112797
 30
0.0
 10
8.895196783
 20
11.8464413279
 30
0.0
 10
8.9742269143
 20
11.8487061949
 30
0.0
 10
9.0536288993
 20
11.8497984065
 30
0.0
 10
9.1331425498
 20
11.8497143564
 30
0.0
 10
9.2125073423
 20
11.8484543335
 30
0.0
 10
9.2914631553
 20
11.8460224736
 30
0.0
 10
9.3697511985
 20
11.8424268539
 30
0.0
 10
9.4216667718
 20
11.8392409684
 30
0.0
 10
9.4474665226
 20
11.8374517496
 30
0.0
  0
SPLINE
  5
36F
100
AcDbEntity
  8
0
100
AcDbSpline
 62
7
  6
CONTINUOUS
 70
0
 71
3
 72
57
 73
53
 74
0
 42
0.0000001
 43
0.0000001
 44
0.0000000001
 40
0.0
 40
0.0
 40
0.0
 40
0.0
 40
0.0057391456
 40
0.0116897241
 40
0.0178914946
 40
0.0243789309
 40
0.0311813445
 40
0.0383233172
 40
0.0458251454
 40
0.0537033447
 40
0.0619711519
 40
0.0706389054
 40
0.0797145123
 40
0.089203667
 40
0.0991102625
 40
0.1094364826
 40
0.1201831477
 40
0.1313497403
 40
0.1429346709
 40
0.1549352931
 40
0.1673480778
 40
0.1801686555
 40
0.193391898
 40
0.2070120051
 40
0.2210225032
 40
0.2354163757
 40
0.2501859988
 40
0.2653232997
 40
0.2808196605
 40
0.2966660761
 40
0.3128530614
 40
0.3293707806
 40
0.3462089856
 40
0.3633570976
 40
0.380804192
 40
0.3985390266
 40
0.4165500738
 40
0.4348255015
 40
0.472120589
 40
0.510325103
 40
0.5493359552
 40
0.5890470043
 40
0.6293495007
 40
0.6701325194
 40
0.7112833854
 40
0.7526880947
 40
0.7942317281
 40
0.8357988776
 40
0.8772740191
 40
0.9185420611
 40
0.9594883681
 40
1.0
 40
1.0
 40
1.0
 40
1.0
 10
7.7028448779
 20
11.4590321997
 30
0.0
 10
7.7039480218
 20
11.4623441293
 30
0.0
 10
7.7065244324
 20
11.4689842079
 30
0.0
 10
7.7113593658
 20
11.4787477661
 30
0.0
 10
7.7172200413
 20
11.4884672319
 30
0.0
 10
7.7241002143
 20
11.4981349817
 30
0.0
 10
7.7319937345
 20
11.5077454312
 30
0.0
 10
7.740894173
 20
11.5172924426
 30
0.0
 10
7.750794675
 20
11.526769983
 30
0.0
 10
7.7616878588
 20
11.5361718794
 30
0.0
 10
7.7735657996
 20
11.545491765
 30
0.0
 10
7.7864198186
 20
11.5547233253
 30
0.0
 10
7.8002406554
 20
11.5638599755
 30
0.0
 10
7.8150182058
 20
11.5728953435
 30
0.0
 10
7.8307417675
 20
11.5818227792
 30
0.0
 10
7.8473997961
 20
11.5906359293
 30
0.0
 10
7.8649801307
 20
11.5993282114
 30
0.0
 10
7.8834698179
 20
11.6078933388
 30
0.0
 10
7.9028552677
 20
11.6163248933
 30
0.0
 10
7.9231221602
 20
11.6246166894
 30
0.0
 10
7.944255527
 20
11.6327625344
 30
0.0
 10
7.9662397281
 20
11.6407563762
 30
0.0
 10
7.9890584754
 20
11.6485922827
 30
0.0
 10
8.0126948574
 20
11.6562643694
 30
0.0
 10
8.0371313284
 20
11.6637669814
 30
0.0
 10
8.062349756
 20
11.6710944394
 30
0.0
 10
8.0883314003
 20
11.6782413694
 30
0.0
 10
8.1150569631
 20
11.6852023388
 30
0.0
 10
8.1425065725
 20
11.6919722495
 30
0.0
 10
8.1706598238
 20
11.6985459575
 30
0.0
 10
8.1994957767
 20
11.7049186343
 30
0.0
 10
8.2289929835
 20
11.7110854602
 30
0.0
 10
8.2591294991
 20
11.7170418762
 30
0.0
 10
8.2898828995
 20
11.7227834118
 30
0.0
 10
8.3212303021
 20
11.7283057867
 30
0.0
 10
8.3531483705
 20
11.7336048892
 30
0.0
 10
8.3856133741
 20
11.7386767545
 30
0.0
 10
8.4298954059
 20
11.7451749497
 30
0.0
 10
8.4864399194
 20
11.7526890311
 30
0.0
 10
8.5556333814
 20
11.7606834132
 30
0.0
 10
8.6264105286
 20
11.7676908282
 30
0.0
 10
8.6985606125
 20
11.7736902878
 30
0.0
 10
8.7718689856
 20
11.7786637936
 30
0.0
 10
8.8461174656
 20
11.7825964377
 30
0.0
 10
8.9210850695
 20
11.7854764321
 30
0.0
 10
8.9965486543
 20
11.7872951452
 30
0.0
 10
9.0722835956
 20
11.7880471285
 30
0.0
 10
9.1480644465
 20
11.7877301243
 30
0.0
 10
9.2236656505
 20
11.786345092
 30
0.0
 10
9.2988621346
 20
11.7838961624
 30
0.0
 10
9.373429966
 20
11.7803907124
 30
0.0
 10
9.4228844927
 20
11.7773372611
 30
0.0
 10
9.4474665226
 20
11.7756324916
 30
0.0
  0
SPLINE
  5
370
100
AcDbEntity
  8
0
100
AcDbSpline
 62
7
  6
CONTINUOUS
 70
0
 71
3
 72
75
 73
71
 74
0
 42
0.0000001
 43
0.0000001
 44
0.0000000001
 40
0.0
 40
0.0
 40
0.0
 40
0.0
 40
0.0082488764
 40
0.0160245167
 40
0.0197467132
 40
0.0233650006
 40
0.03031231
 40
0.0336571111
 40
0.0369256253
 40
0.0401263795
 40
0.04326853
 40
0.0463618029
 40
0.0494164516
 40
0.0524431719
 40
0.0554529791
 40
0.0584570949
 40
0.0614668124
 40
0.0644933533
 40
0.0675477417
 40
0.070640669
 40
0.0737823881
 40
0.0769826444
 40
0.0802505941
 40
0.087020886
 40
0.0941561417
 40
0.1017065566
 40
0.1056512048
 40
0.1097141833
 40
0.1138993145
 40
0.1182099491
 40
0.1226490073
 40
0.1272190615
 40
0.1319223328
 40
0.136760686
 40
0.1468481427
 40
0.1574918222
 40
0.1686977219
 40
0.1804686697
 40
0.1928048987
 40
0.2057042782
 40
0.2191626763
 40
0.2331742166
 40
0.2477313745
 40
0.262825275
 40
0.278445717
 40
0.2945813322
 40
0.3112197247
 40
0.3283474497
 40
0.3459502106
 40
0.3640128398
 40
0.3825193739
 40
0.4014531634
 40
0.4207968201
 40
0.4405323637
 40
0.4606412071
 40
0.4811041921
 40
0.5019016854
 40
0.5230135322
 40
0.5444191635
 40
0.5660975985
 40
0.5880274629
 40
0.6325539227
 40
0.6778218939
 40
0.723650282
 40
0.769855047
 40
0.8162501818
 40
0.8626486728
 40
0.9088635939
 40
0.9547085167
 40
1.0
 40
1.0
 40
1.0
 40
1.0
 10
8.0761042669
 20
11.355314379
 30
0.0
 10
8.0731114066
 20
11.3580995367
 30
0.0
 10
8.0674614915
 20
11.3636907008
 30
0.0
 10
8.0610065544
 20
11.3710604574
 30
0.0
 10
8.0564221427
 20
11.3769886634
 30
0.0
 10
8.052331517
 20
11.3827707571
 30
0.0
 10
8.0487265376
 20
11.3886620238
 30
0.0
 10
8.0456622927
 20
11.3946465343
 30
0.0
 10
8.0436745839
 20
11.399088569
 30
0.0
 10
8.0419693195
 20
11.4035391435
 30
0.0
 10
8.0405469838
 20
11.4079971434
 30
0.0
 10
8.0394081917
 20
11.4124612924
 30
0.0
 10
8.0385534317
 20
11.4169302942
 30
0.0
 10
8.0379829774
 20
11.4214027833
 30
0.0
 10
8.0376970983
 20
11.4258773902
 30
0.0
 10
8.0376960042
 20
11.4303527102
 30
0.0
 10
8.0379796057
 20
11.4348273265
 30
0.0
 10
8.0385477657
 20
11.4392998455
 30
0.0
 10
8.0394003269
 20
11.4437688711
 30
0.0
 10
8.0405368827
 20
11.4482330651
 30
0.0
 10
8.0419569155
 20
11.4526911115
 30
0.0
 10
8.0436600143
 20
11.4571418281
 30
0.0
 10
8.0463385341
 20
11.4631345084
 30
0.0
 10
8.0504266889
 20
11.4706180647
 30
0.0
 10
8.0563951452
 20
11.4794355576
 30
0.0
 10
8.0622082382
 20
11.4866233617
 30
0.0
 10
8.0673857502
 20
11.4923391514
 30
0.0
 10
8.0716010382
 20
11.4966710036
 30
0.0
 10
8.076090455
 20
11.5009839383
 30
0.0
 10
8.0808529032
 20
11.5052769712
 30
0.0
 10
8.0858870336
 20
11.5095489909
 30
0.0
 10
8.0911915312
 20
11.5137988568
 30
0.0
 10
8.0967650042
 20
11.5180254661
 30
0.0
 10
8.1046628773
 20
11.5237075084
 30
0.0
 10
8.1152145245
 20
11.5307348122
 30
0.0
 10
8.1287534717
 20
11.5389429226
 30
0.0
 10
8.1433259981
 20
11.5470313239
 30
0.0
 10
8.1589164429
 20
11.5549915198
 30
0.0
 10
8.1755084349
 20
11.5628150302
 30
0.0
 10
8.1930843086
 20
11.5704935474
 30
0.0
 10
8.2116253394
 20
11.5780188486
 30
0.0
 10
8.231111725
 20
11.5853827727
 30
0.0
 10
8.2515225754
 20
11.5925774538
 30
0.0
 10
8.2728360049
 20
11.5995950481
 30
0.0
 10
8.2950291085
 20
11.6064279861
 30
0.0
 10
8.3180780132
 20
11.6130688912
 30
0.0
 10
8.3419579165
 20
11.6195105056
 30
0.0
 10
8.3666430856
 20
11.6257459169
 30
0.0
 10
8.3921069199
 20
11.6317683177
 30
0.0
 10
8.418321962
 20
11.6375711861
 30
0.0
 10
8.4452599335
 20
11.6431482646
 30
0.0
 10
8.4728917746
 20
11.648493447
 30
0.0
 10
8.5011876619
 20
11.6536009974
 30
0.0
 10
8.5301170541
 20
11.6584653476
 30
0.0
 10
8.5596487216
 20
11.6630812183
 30
0.0
 10
8.5897507783
 20
11.6674436476
 30
0.0
 10
8.6203907213
 20
11.6715478507
 30
0.0
 10
8.6515354642
 20
11.6753894298
 30
0.0
 10
8.6831513629
 20
11.6789641987
 30
0.0
 10
8.7152043031
 20
11.6822682887
 30
0.0
 10
8.7586971758
 20
11.6863284731
 30
0.0
 10
8.8139013225
 20
11.6906922611
 30
0.0
 10
8.8809982721
 20
11.694773462
 30
0.0
 10
8.9489877633
 20
11.6977074341
 30
0.0
 10
9.0175761172
 20
11.6994814199
 30
0.0
 10
9.0864672699
 20
11.7000876636
 30
0.0
 10
9.1553637935
 20
11.6995235378
 30
0.0
 10
9.2239681729
 20
11.697791484
 30
0.0
 10
9.2919841313
 20
11.6948991113
 30
0.0
 10
9.337074505
 20
11.6921855591
 30
0.0
 10
9.3594681199
 20
11.6906325567
 30
0.0
  0
SPLINE
  5
371
100
AcDbEntity
  8
0
100
AcDbSpline
 62
7
  6
CONTINUOUS
 70
0
 71
3
 72
11
 73
7
 74
0
 42
0.0000001
 43
0.0000001
 44
0.0000000001
 40
0.0
 40
0.0
 40
0.0
 40
0.0
 40
0.2553208846
 40
0.506111185
 40
0.7538311369
 40
1.0
 40
1.0
 40
1.0
 40
1.0
 10
13.7452085349
 20
8.1252520432
 30
0.0
 10
13.7433483781
 20
8.1247789519
 30
0.0
 10
13.7396247237
 20
8.1239770622
 30
0.0
 10
13.7340030261
 20
8.1232182241
 30
0.0
 10
13.7284071107
 20
8.1229165387
 30
0.0
 10
13.7246908326
 20
8.1230207545
 30
0.0
 10
13.7228446919
 20
8.1231487765
 30
0.0
  0
SPLINE
  5
372
100
AcDbEntity
  8
0
100
AcDbSpline
 62
7
  6
CONTINUOUS
 70
0
 71
3
 72
60
 73
56
 74
0
 42
0.0000001
 43
0.0000001
 44
0.0000000001
 40
0.0
 40
0.0
 40
0.0
 40
0.0
 40
0.0027758453
 40
0.0055595985
 40
0.0083590921
 40
0.0111820129
 40
0.0140358448
 40
0.0169278095
 40
0.0228516392
 40
0.0290063612
 40
0.0354367015
 40
0.0387680937
 40
0.0421822784
 40
0.0492730566
 40
0.0567370527
 40
0.0645960806
 40
0.0728677052
 40
0.0815656551
 40
0.0907005284
 40
0.1002800461
 40
0.1103096389
 40
0.1207925612
 40
0.1317303642
 40
0.1431229196
 40
0.1549687953
 40
0.1672652331
 40
0.1800084399
 40
0.1931935546
 40
0.206814863
 40
0.2208657765
 40
0.2353389783
 40
0.2502264269
 40
0.2655194405
 40
0.2812087324
 40
0.2972844394
 40
0.313736191
 40
0.3305530903
 40
0.3477238136
 40
0.3652365528
 40
0.3830791397
 40
0.419702626
 40
0.4574898599
 40
0.4963307282
 40
0.5361105692
 40
0.5767107628
 40
0.6180092963
 40
0.6598813122
 40
0.7021996439
 40
0.7448353445
 40
0.7876582063
 40
0.8305372912
 40
0.8733414113
 40
0.9159397577
 40
0.9582021186
 40
1.0
 40
1.0
 40
1.0
 40
1.0
 10
8.1277083598
 20
11.3411994282
 30
0.0
 10
8.1277083538
 20
11.3423856166
 30
0.0
 10
8.127774153
 20
11.3447618957
 30
0.0
 10
8.1280701675
 20
11.3483233786
 30
0.0
 10
8.1285633983
 20
11.3518833382
 30
0.0
 10
8.1292536703
 20
11.3554408076
 30
0.0
 10
8.1301408615
 20
11.3589951146
 30
0.0
 10
8.1315973711
 20
11.3637663337
 30
0.0
 10
8.133928185
 20
11.3697358973
 30
0.0
 10
8.1374867824
 20
11.3768108046
 30
0.0
 10
8.1410591352
 20
11.3826083583
 30
0.0
 10
8.1442874335
 20
11.3872226126
 30
0.0
 10
8.147856704
 20
11.3919379331
 30
0.0
 10
8.1528192816
 20
11.3978059254
 30
0.0
 10
8.1594651228
 20
11.4047109859
 30
0.0
 10
8.166869643
 20
11.4115619198
 30
0.0
 10
8.1750266937
 20
11.418353398
 30
0.0
 10
8.1839297169
 20
11.4250806365
 30
0.0
 10
8.1935716907
 20
11.4317383675
 30
0.0
 10
8.2039448601
 20
11.4383215984
 30
0.0
 10
8.215041005
 20
11.4448250093
 30
0.0
 10
8.2268511726
 20
11.4512435674
 30
0.0
 10
8.2393659108
 20
11.4575719907
 30
0.0
 10
8.2525750802
 20
11.4638052861
 30
0.0
 10
8.2664680234
 20
11.4699382841
 30
0.0
 10
8.2810334467
 20
11.4759660829
 30
0.0
 10
8.2962595323
 20
11.4818836751
 30
0.0
 10
8.3121338733
 20
11.4876862859
 30
0.0
 10
8.3286435421
 20
11.4933691039
 30
0.0
 10
8.3457750636
 20
11.4989275081
 30
0.0
 10
8.3635144534
 20
11.5043569071
 30
0.0
 10
8.3818472158
 20
11.5096528561
 30
0.0
 10
8.4007583633
 20
11.5148110015
 30
0.0
 10
8.4202324296
 20
11.5198270945
 30
0.0
 10
8.4402534795
 20
11.5246970333
 30
0.0
 10
8.4608051283
 20
11.5294167834
 30
0.0
 10
8.4818705506
 20
11.5339825077
 30
0.0
 10
8.5034324934
 20
11.5383903977
 30
0.0
 10
8.5254733179
 20
11.5426369109
 30
0.0
 10
8.5557383274
 20
11.5481265901
 30
0.0
 10
8.5946373067
 20
11.5545462484
 30
0.0
 10
8.6425348884
 20
11.561488485
 30
0.0
 10
8.6918908661
 20
11.5677116184
 30
0.0
 10
8.7425435044
 20
11.5731950976
 30
0.0
 10
8.7943269902
 20
11.5779207923
 30
0.0
 10
8.8470717078
 20
11.5818730912
 30
0.0
 10
8.9006048807
 20
11.5850389398
 30
0.0
 10
8.954751124
 20
11.5874078843
 30
0.0
 10
9.0093330296
 20
11.588972103
 30
0.0
 10
9.0641717533
 20
11.5897264336
 30
0.0
 10
9.1190875989
 20
11.5896683831
 30
0.0
 10
9.1739006266
 20
11.5887981494
 30
0.0
 10
9.2284312287
 20
11.5871185926
 30
0.0
 10
9.2825006089
 20
11.5846352815
 30
0.0
 10
9.3183559384
 20
11.5824349606
 30
0.0
 10
9.3361744251
 20
11.5811992444
 30
0.0
  0
SPLINE
  5
373
100
AcDbEntity
  8
0
100
AcDbSpline
 62
7
  6
CONTINUOUS
 70
0
 71
3
 72
53
 73
49
 74
0
 42
0.0000001
 43
0.0000001
 44
0.0000000001
 40
0.0
 40
0.0
 40
0.0
 40
0.0
 40
0.0066018892
 40
0.0133636545
 40
0.0203093317
 40
0.0274608868
 40
0.0348381057
 40
0.0424587347
 40
0.0503385494
 40
0.0584914065
 40
0.0669295065
 40
0.0756634135
 40
0.0847022366
 40
0.0940538315
 40
0.1037247731
 40
0.1137206183
 40
0.1240459506
 40
0.1347044083
 40
0.1456989186
 40
0.1570316158
 40
0.1687039803
 40
0.1807169512
 40
0.1930708213
 40
0.2057654496
 40
0.2188002196
 40
0.2321740289
 40
0.2458854654
 40
0.2599326716
 40
0.2743134613
 40
0.289025377
 40
0.3194303881
 40
0.3511226259
 40
0.3840722594
 40
0.4182457691
 40
0.4536063383
 40
0.4901141485
 40
0.5277266086
 40
0.5663985607
 40
0.6060825223
 40
0.6467288672
 40
0.6882859735
 40
0.7307003709
 40
0.7739168726
 40
0.8178788278
 40
0.8625281713
 40
0.9078049883
 40
0.9536503121
 40
1.0
 40
1.0
 40
1.0
 40
1.0
 10
10.4726772693
 20
11.4587140026
 30
0.0
 10
10.471916002
 20
11.4610235071
 30
0.0
 10
10.4702157853
 20
11.4656474072
 30
0.0
 10
10.4671866243
 20
11.472492448
 30
0.0
 10
10.4636525104
 20
11.479319745
 30
0.0
 10
10.4596150948
 20
11.486126404
 30
0.0
 10
10.4550762175
 20
11.4929102899
 30
0.0
 10
10.4500377165
 20
11.4996690598
 30
0.0
 10
10.4445015369
 20
11.5064004096
 30
0.0
 10
10.4384698917
 20
11.5131021594
 30
0.0
 10
10.43194495
 20
11.5197719587
 30
0.0
 10
10.4249291558
 20
11.5264075656
 30
0.0
 10
10.4174250933
 20
11.5330067342
 30
0.0
 10
10.4094354171
 20
11.5395670839
 30
0.0
 10
10.400963084
 20
11.5460864085
 30
0.0
 10
10.3920111227
 20
11.5525623699
 30
0.0
 10
10.3825827494
 20
11.5589926392
 30
0.0
 10
10.3726814134
 20
11.565375002
 30
0.0
 10
10.3623106463
 20
11.5717070853
 30
0.0
 10
10.3514742254
 20
11.5779866531
 30
0.0
 10
10.3401760824
 20
11.584211461
 30
0.0
 10
10.3284202805
 20
11.59037918
 30
0.0
 10
10.3162111215
 20
11.5964876553
 30
0.0
 10
10.3035530212
 20
11.602534623
 30
0.0
 10
10.2904505765
 20
11.6085178653
 30
0.0
 10
10.2769085745
 20
11.6144352657
 30
0.0
 10
10.2629319187
 20
11.6202845918
 30
0.0
 10
10.2485257195
 20
11.6260637461
 30
0.0
 10
10.2336952115
 20
11.6317706563
 30
0.0
 10
10.2131367976
 20
11.6393639888
 30
0.0
 10
10.1864074794
 20
11.648645884
 30
0.0
 10
10.1530696726
 20
11.659344463
 30
0.0
 10
10.1181753386
 20
11.6697063343
 30
0.0
 10
10.081775437
 20
11.6797162917
 30
0.0
 10
10.0439229201
 20
11.6893596377
 30
0.0
 10
10.0046729624
 20
11.6986221947
 30
0.0
 10
9.964082801
 20
11.7074903443
 30
0.0
 10
9.9222116781
 20
11.7159510736
 30
0.0
 10
9.8791207231
 20
11.7239919532
 30
0.0
 10
9.834872857
 20
11.7316011634
 30
0.0
 10
9.7895327076
 20
11.7387675175
 30
0.0
 10
9.7431665324
 20
11.7454805035
 30
0.0
 10
9.6958420815
 20
11.7517302715
 30
0.0
 10
9.6476284885
 20
11.75750764
 30
0.0
 10
9.5985963738
 20
11.7628040854
 30
0.0
 10
9.5488169783
 20
11.7676119422
 30
0.0
 10
9.4983636678
 20
11.7719240055
 30
0.0
 10
9.464498031
 20
11.7744513524
 30
0.0
 10
9.4474665226
 20
11.7756324916
 30
0.0
  0
SPLINE
  5
374
100
AcDbEntity
  8
0
100
AcDbSpline
 62
7
  6
CONTINUOUS
 70
0
 71
3
 72
62
 73
58
 74
0
 42
0.0000001
 43
0.0000001
 44
0.0000000001
 40
0.0
 40
0.0
 40
0.0
 40
0.0
 40
0.0098425786
 40
0.0192570808
 40
0.0282657703
 40
0.0368951041
 40
0.0451761955
 40
0.0531450832
 40
0.0608430649
 40
0.0683165519
 40
0.0756168718
 40
0.0827994504
 40
0.0899227863
 40
0.0970469671
 40
0.1042320612
 40
0.111536489
 40
0.1190155975
 40
0.1267205456
 40
0.1346976589
 40
0.1429880193
 40
0.1516275982
 40
0.1606472998
 40
0.1700735219
 40
0.1799283706
 40
0.1902303024
 40
0.2009943871
 40
0.2122328194
 40
0.2239552204
 40
0.2361689331
 40
0.24887938
 40
0.2620901404
 40
0.2758033627
 40
0.2900196781
 40
0.3047386235
 40
0.3199584889
 40
0.3356766756
 40
0.3518895796
 40
0.368592819
 40
0.3857812217
 40
0.4034488924
 40
0.421589329
 40
0.4401953375
 40
0.4592592588
 40
0.4787727784
 40
0.4987272063
 40
0.5191132584
 40
0.5399213112
 40
0.5611412353
 40
0.6047738432
 40
0.6499233315
 40
0.6964958608
 40
0.7443926906
 40
0.7935106064
 40
0.843742576
 40
0.8949776129
 40
0.9471025839
 40
1.0
 40
1.0
 40
1.0
 40
1.0
 10
10.0993138038
 20
11.3553156616
 30
0.0
 10
10.1015784573
 20
11.3574231695
 30
0.0
 10
10.1059141688
 20
11.3616506009
 30
0.0
 10
10.1119466467
 20
11.3681783352
 30
0.0
 10
10.1173562446
 20
11.3747448516
 30
0.0
 10
10.1221391815
 20
11.381346531
 30
0.0
 10
10.1262922259
 20
11.3879798753
 30
0.0
 10
10.1298120169
 20
11.3946413989
 30
0.0
 10
10.1326956643
 20
11.401327262
 30
0.0
 10
10.134940067
 20
11.4080335102
 30
0.0
 10
10.1365428761
 20
11.4147555867
 30
0.0
 10
10.1375017732
 20
11.4214886056
 30
0.0
 10
10.1378155935
 20
11.4282271562
 30
0.0
 10
10.1374837028
 20
11.4349656313
 30
0.0
 10
10.1365067046
 20
11.4416984062
 30
0.0
 10
10.1348859529
 20
11.4484201228
 30
0.0
 10
10.132623528
 20
11.4551258287
 30
0.0
 10
10.1297221049
 20
11.4618111042
 30
0.0
 10
10.1261844482
 20
11.4684718397
 30
0.0
 10
10.1220137921
 20
11.475104396
 30
0.0
 10
10.1172131839
 20
11.4817050931
 30
0.0
 10
10.1117861606
 20
11.488270589
 30
0.0
 10
10.1057361325
 20
11.4947972742
 30
0.0
 10
10.0990670177
 20
11.5012817768
 30
0.0
 10
10.0917827981
 20
11.5077204475
 30
0.0
 10
10.0838879169
 20
11.5141097697
 30
0.0
 10
10.0753870656
 20
11.5204460803
 30
0.0
 10
10.0662853187
 20
11.5267257232
 30
0.0
 10
10.0565881262
 20
11.5329450716
 30
0.0
 10
10.0463012531
 20
11.5391003816
 30
0.0
 10
10.0354309041
 20
11.5451880933
 30
0.0
 10
10.0239835613
 20
11.5512044422
 30
0.0
 10
10.0119661585
 20
11.5571459376
 30
0.0
 10
9.9993859012
 20
11.563008865
 30
0.0
 10
9.9862504212
 20
11.5687897883
 30
0.0
 10
9.9725676381
 20
11.5744851045
 30
0.0
 10
9.9583458554
 20
11.5800914191
 30
0.0
 10
9.9435936849
 20
11.5856052806
 30
0.0
 10
9.9283200805
 20
11.5910233373
 30
0.0
 10
9.912534318
 20
11.5963423071
 30
0.0
 10
9.8962459823
 20
11.6015588964
 30
0.0
 10
9.8794649822
 20
11.6066699921
 30
0.0
 10
9.8622015134
 20
11.611672387
 30
0.0
 10
9.8444660871
 20
11.6165631222
 30
0.0
 10
9.8262694863
 20
11.6213391151
 30
0.0
 10
9.8076227977
 20
11.6259975335
 30
0.0
 10
9.7885373518
 20
11.6305354781
 30
0.0
 10
9.7622769945
 20
11.6364768328
 30
0.0
 10
9.7284353293
 20
11.6435694409
 30
0.0
 10
9.6866321549
 20
11.6514808057
 30
0.0
 10
9.6433698876
 20
11.658849818
 30
0.0
 10
9.5987539504
 20
11.6656584009
 30
0.0
 10
9.5528928703
 20
11.6718898493
 30
0.0
 10
9.5058984007
 20
11.6775288442
 30
0.0
 10
9.4578848111
 20
11.682561605
 30
0.0
 10
9.4089693514
 20
11.6869757131
 30
0.0
 10
9.3760542567
 20
11.6894823042
 30
0.0
 10
9.3594681199
 20
11.6906325567
 30
0.0
  0
SPLINE
  5
375
100
AcDbEntity
  8
0
100
AcDbSpline
 62
7
  6
CONTINUOUS
 70
0
 71
3
 72
23
 73
19
 74
0
 42
0.0000001
 43
0.0000001
 44
0.0000000001
 40
0.0
 40
0.0
 40
0.0
 40
0.0
 40
0.0637754757
 40
0.1273453426
 40
0.1907021752
 40
0.2538559149
 40
0.3168132477
 40
0.3795821059
 40
0.4421733695
 40
0.5045993382
 40
0.566873869
 40
0.6290123778
 40
0.6910316472
 40
0.7529496469
 40
0.8147853527
 40
0.8765585998
 40
0.9382898568
 40
1.0
 40
1.0
 40
1.0
 40
1.0
 10
12.6549465226
 20
10.3576768331
 30
0.0
 10
12.6549465226
 20
10.3620122051
 30
0.0
 10
12.6551540846
 20
10.3706704394
 30
0.0
 10
12.6560906291
 20
10.3836050944
 30
0.0
 10
12.6576500947
 20
10.3964372955
 30
0.0
 10
12.6598287544
 20
10.4091367084
 30
0.0
 10
12.6626215673
 20
10.4216744612
 30
0.0
 10
12.6660222037
 20
10.4340215661
 30
0.0
 10
12.6700228817
 20
10.4461495161
 30
0.0
 10
12.6746143068
 20
10.4580303958
 30
0.0
 10
12.6797859676
 20
10.4696367891
 30
0.0
 10
12.6855260123
 20
10.4809418939
 30
0.0
 10
12.6918211211
 20
10.491919683
 30
0.0
 10
12.6986568572
 20
10.5025448091
 30
0.0
 10
12.7060174785
 20
10.5127927088
 30
0.0
 10
12.7138860145
 20
10.5226398848
 30
0.0
 10
12.7222440718
 20
10.5320632694
 30
0.0
 10
12.7281307363
 20
10.5380495872
 30
0.0
 10
12.7311479908
 20
10.54096403
 30
0.0
  0
SPLINE
  5
376
100
AcDbEntity
  8
0
100
AcDbSpline
 62
7
  6
CONTINUOUS
 70
0
 71
3
 72
53
 73
49
 74
0
 42
0.0000001
 43
0.0000001
 44
0.0000000001
 40
0.0
 40
0.0
 40
0.0
 40
0.0
 40
0.0064811111
 40
0.0129998044
 40
0.0195929716
 40
0.0262961292
 40
0.0331429196
 40
0.0401647029
 40
0.0473902326
 40
0.0548456387
 40
0.0625543142
 40
0.0705370025
 40
0.0788120264
 40
0.0873952864
 40
0.0963005859
 40
0.1055398116
 40
0.115122984
 40
0.1250586327
 40
0.1353538157
 40
0.1460142608
 40
0.1570446507
 40
0.168448522
 40
0.1802285127
 40
0.1923864772
 40
0.2049233819
 40
0.2178395991
 40
0.2311348427
 40
0.2448081753
 40
0.2588582411
 40
0.2732830932
 40
0.3032464334
 40
0.3346752143
 40
0.3675395792
 40
0.4018043845
 40
0.4374297794
 40
0.4743717374
 40
0.5125824435
 40
0.5520105739
 40
0.5926016232
 40
0.6342982079
 40
0.6770402952
 40
0.7207653801
 40
0.7654086671
 40
0.8109034548
 40
0.8571811293
 40
0.9041707609
 40
0.9518025492
 40
1.0
 40
1.0
 40
1.0
 40
1.0
 10
10.0477083339
 20
11.3411994282
 30
0.0
 10
10.0477083253
 20
11.3428945976
 30
0.0
 10
10.0475735356
 20
11.3462962814
 30
0.0
 10
10.0469678171
 20
11.3513900039
 30
0.0
 10
10.0459587214
 20
11.3564787531
 30
0.0
 10
10.0445471732
 20
11.361559634
 30
0.0
 10
10.0427341312
 20
11.3666304
 30
0.0
 10
10.0405207228
 20
11.3716887646
 30
0.0
 10
10.0379083985
 20
11.3767327003
 30
0.0
 10
10.0348984783
 20
11.3817601442
 30
0.0
 10
10.0314925258
 20
11.3867691666
 30
0.0
 10
10.0276922116
 20
11.3917579071
 30
0.0
 10
10.023499158
 20
11.3967243909
 30
0.0
 10
10.0189152816
 20
11.4016667976
 30
0.0
 10
10.0139425174
 20
11.4065832198
 30
0.0
 10
10.008582908
 20
11.4114716948
 30
0.0
 10
10.0028387528
 20
11.416330393
 30
0.0
 10
9.9967123749
 20
11.4211573249
 30
0.0
 10
9.9902063095
 20
11.4259505641
 30
0.0
 10
9.983323271
 20
11.4307082347
 30
0.0
 10
9.9760660469
 20
11.4354283201
 30
0.0
 10
9.9684376681
 20
11.4401089506
 30
0.0
 10
9.9604412842
 20
11.4447482075
 30
0.0
 10
9.9520801746
 20
11.4493441167
 30
0.0
 10
9.9433578388
 20
11.4538948564
 30
0.0
 10
9.9342778727
 20
11.458398492
 30
0.0
 10
9.9248440426
 20
11.4628531433
 30
0.0
 10
9.9150602924
 20
11.4672570075
 30
0.0
 10
9.9049306528
 20
11.4716082066
 30
0.0
 10
9.8907894304
 20
11.4774107506
 30
0.0
 10
9.872268497
 20
11.484506131
 30
0.0
 10
9.8490059578
 20
11.4926779018
 30
0.0
 10
9.8244715612
 20
11.5005975995
 30
0.0
 10
9.7987062257
 20
11.5082519292
 30
0.0
 10
9.7717527364
 20
11.5156280507
 30
0.0
 10
9.7436559788
 20
11.5227135615
 30
0.0
 10
9.7144627621
 20
11.5294965288
 30
0.0
 10
9.6842217817
 20
11.535965552
 30
0.0
 10
9.6529835159
 20
11.5421097633
 30
0.0
 10
9.6208001206
 20
11.5479188282
 30
0.0
 10
9.5877253429
 20
11.553382963
 30
0.0
 10
9.5538144555
 20
11.558492989
 30
0.0
 10
9.519124126
 20
11.5632403332
 30
0.0
 10
9.4837123199
 20
11.5676170106
 30
0.0
 10
9.4476383637
 20
11.5716156278
 30
0.0
 10
9.410962177
 20
11.5752295657
 30
0.0
 10
9.3737456263
 20
11.578452617
 30
0.0
 10
9.3487505213
 20
11.5803270892
 30
0.0
 10
9.3361744251
 20
11.5811992444
 30
0.0
  0
SPLINE
  5
377
100
AcDbEntity
  8
0
100
AcDbSpline
 62
4
  6
CONTINUOUS
 70
0
 71
3
 72
403
 73
399
 74
0
 42
0.0000001
 43
0.0000001
 44
0.0000000001
 40
0.0
 40
0.0
 40
0.0
 40
0.0
 40
0.015625
 40
0.0234375
 40
0.03125
 40
0.0390625
 40
0.04296875
 40
0.046875
 40
0.05078125
 40
0.0546875
 40
0.056640625
 40
0.05859375
 40
0.0595703125
 40
0.060546875
 40
0.0615234375
 40
0.0620117188
 40
0.0622558594
 40
0.0625
 40
0.0627441406
 40
0.0629882812
 40
0.0634765625
 40
0.064453125
 40
0.0654296875
 40
0.06640625
 40
0.068359375
 40
0.0703125
 40
0.07421875
 40
0.078125
 40
0.08203125
 40
0.0859375
 40
0.09375
 40
0.1015625
 40
0.10546875
 40
0.109375
 40
0.11328125
 40
0.1171875
 40
0.119140625
 40
0.12109375
 40
0.1220703125
 40
0.123046875
 40
0.1240234375
 40
0.1245117188
 40
0.1247558594
 40
0.125
 40
0.1252441406
 40
0.1254882812
 40
0.1259765625
 40
0.126953125
 40
0.1279296875
 40
0.12890625
 40
0.130859375
 40
0.1328125
 40
0.13671875
 40
0.140625
 40
0.14453125
 40
0.1484375
 40
0.15625
 40
0.1640625
 40
0.16796875
 40
0.171875
 40
0.17578125
 40
0.1796875
 40
0.181640625
 40
0.18359375
 40
0.1845703125
 40
0.185546875
 40
0.1865234375
 40
0.1870117188
 40
0.1872558594
 40
0.1875
 40
0.1877441406
 40
0.1879882812
 40
0.1884765625
 40
0.189453125
 40
0.1904296875
 40
0.19140625
 40
0.193359375
 40
0.1953125
 40
0.19921875
 40
0.203125
 40
0.20703125
 40
0.2109375
 40
0.21875
 40
0.2265625
 40
0.23046875
 40
0.234375
 40
0.23828125
 40
0.2421875
 40
0.244140625
 40
0.24609375
 40
0.2470703125
 40
0.248046875
 40
0.2490234375
 40
0.2495117188
 40
0.2497558594
 40
0.25
 40
0.2502441406
 40
0.2504882812
 40
0.2509765625
 40
0.251953125
 40
0.2529296875
 40
0.25390625
 40
0.255859375
 40
0.2578125
 40
0.26171875
 40
0.265625
 40
0.26953125
 40
0.2734375
 40
0.28125
 40
0.2890625
 40
0.29296875
 40
0.296875
 40
0.30078125
 40
0.3046875
 40
0.306640625
 40
0.30859375
 40
0.3095703125
 40
0.310546875
 40
0.3115234375
 40
0.3120117188
 40
0.3122558594
 40
0.3125
 40
0.3127441406
 40
0.3129882812
 40
0.3134765625
 40
0.314453125
 40
0.3154296875
 40
0.31640625
 40
0.318359375
 40
0.3203125
 40
0.32421875
 40
0.328125
 40
0.33203125
 40
0.3359375
 40
0.34375
 40
0.3515625
 40
0.35546875
 40
0.359375
 40
0.36328125
 40
0.3671875
 40
0.369140625
 40
0.37109375
 40
0.3720703125
 40
0.373046875
 40
0.3740234375
 40
0.3745117188
 40
0.3747558594
 40
0.375
 40
0.3752441406
 40
0.3754882812
 40
0.3759765625
 40
0.376953125
 40
0.3779296875
 40
0.37890625
 40
0.380859375
 40
0.3828125
 40
0.38671875
 40
0.390625
 40
0.39453125
 40
0.3984375
 40
0.40625
 40
0.4140625
 40
0.41796875
 40
0.421875
 40
0.42578125
 40
0.4296875
 40
0.431640625
 40
0.43359375
 40
0.4345703125
 40
0.435546875
 40
0.4365234375
 40
0.4370117188
 40
0.4372558594
 40
0.4375
 40
0.4377441406
 40
0.4379882812
 40
0.4384765625
 40
0.439453125
 40
0.4404296875
 40
0.44140625
 40
0.443359375
 40
0.4453125
 40
0.44921875
 40
0.453125
 40
0.45703125
 40
0.4609375
 40
0.46875
 40
0.4765625
 40
0.48046875
 40
0.484375
 40
0.48828125
 40
0.4921875
 40
0.494140625
 40
0.49609375
 40
0.4970703125
 40
0.498046875
 40
0.4990234375
 40
0.4995117188
 40
0.4997558594
 40
0.5
 40
0.5002441406
 40
0.5004882812
 40
0.5009765625
 40
0.501953125
 40
0.5029296875
 40
0.50390625
 40
0.505859375
 40
0.5078125
 40
0.51171875
 40
0.515625
 40
0.51953125
 40
0.5234375
 40
0.53125
 40
0.5390625
 40
0.54296875
 40
0.546875
 40
0.55078125
 40
0.5546875
 40
0.556640625
 40
0.55859375
 40
0.5595703125
 40
0.560546875
 40
0.5615234375
 40
0.5620117188
 40
0.5622558594
 40
0.5625
 40
0.5627441406
 40
0.5629882812
 40
0.5634765625
 40
0.564453125
 40
0.5654296875
 40
0.56640625
 40
0.568359375
 40
0.5703125
 40
0.57421875
 40
0.578125
 40
0.58203125
 40
0.5859375
 40
0.59375
 40
0.6015625
 40
0.60546875
 40
0.609375
 40
0.61328125
 40
0.6171875
 40
0.619140625
 40
0.62109375
 40
0.6220703125
 40
0.623046875
 40
0.6240234375
 40
0.6245117188
 40
0.6247558594
 40
0.625
 40
0.6252441406
 40
0.6254882812
 40
0.6259765625
 40
0.626953125
 40
0.6279296875
 40
0.62890625
 40
0.630859375
 40
0.6328125
 40
0.63671875
 40
0.640625
 40
0.64453125
 40
0.6484375
 40
0.65625
 40
0.6640625
 40
0.66796875
 40
0.671875
 40
0.67578125
 40
0.6796875
 40
0.681640625
 40
0.68359375
 40
0.6845703125
 40
0.685546875
 40
0.6865234375
 40
0.6870117188
 40
0.6872558594
 40
0.6875
 40
0.6877441406
 40
0.6879882812
 40
0.6884765625
 40
0.689453125
 40
0.6904296875
 40
0.69140625
 40
0.693359375
 40
0.6953125
 40
0.69921875
 40
0.703125
 40
0.70703125
 40
0.7109375
 40
0.71875
 40
0.7265625
 40
0.73046875
 40
0.734375
 40
0.73828125
 40
0.7421875
 40
0.744140625
 40
0.74609375
 40
0.7470703125
 40
0.748046875
 40
0.7490234375
 40
0.7495117188
 40
0.7497558594
 40
0.75
 40
0.7502441406
 40
0.7504882812
 40
0.7509765625
 40
0.751953125
 40
0.7529296875
 40
0.75390625
 40
0.755859375
 40
0.7578125
 40
0.76171875
 40
0.765625
 40
0.76953125
 40
0.7734375
 40
0.78125
 40
0.7890625
 40
0.79296875
 40
0.796875
 40
0.80078125
 40
0.8046875
 40
0.806640625
 40
0.80859375
 40
0.8095703125
 40
0.810546875
 40
0.8115234375
 40
0.8120117188
 40
0.8122558594
 40
0.8125
 40
0.8127441406
 40
0.8129882812
 40
0.8134765625
 40
0.814453125
 40
0.8154296875
 40
0.81640625
 40
0.818359375
 40
0.8203125
 40
0.82421875
 40
0.828125
 40
0.83203125
 40
0.8359375
 40
0.84375
 40
0.8515625
 40
0.85546875
 40
0.859375
 40
0.86328125
 40
0.8671875
 40
0.869140625
 40
0.87109375
 40
0.8720703125
 40
0.873046875
 40
0.8740234375
 40
0.8745117188
 40
0.8747558594
 40
0.875
 40
0.8752441406
 40
0.8754882812
 40
0.8759765625
 40
0.876953125
 40
0.8779296875
 40
0.87890625
 40
0.880859375
 40
0.8828125
 40
0.88671875
 40
0.890625
 40
0.89453125
 40
0.8984375
 40
0.90625
 40
0.9140625
 40
0.91796875
 40
0.921875
 40
0.92578125
 40
0.9296875
 40
0.931640625
 40
0.93359375
 40
0.9345703125
 40
0.935546875
 40
0.9365234375
 40
0.9370117188
 40
0.9372558594
 40
0.9375
 40
0.9377441406
 40
0.9379882812
 40
0.9384765625
 40
0.939453125
 40
0.9404296875
 40
0.94140625
 40
0.943359375
 40
0.9453125
 40
0.94921875
 40
0.953125
 40
0.95703125
 40
0.9609375
 40
0.96875
 40
0.9765625
 40
0.984375
 40
1.0
 40
1.0
 40
1.0
 40
1.0
 10
9.5456311035
 20
7.6948494673
 30
0.0
 10
9.5393647297
 20
7.6946696185
 30
0.0
 10
9.5299651689
 20
7.6943998452
 30
0.0
 10
9.5174324213
 20
7.6940401476
 30
0.0
 10
9.5080328605
 20
7.6937703743
 30
0.0
 10
9.5001998932
 20
7.6935455636
 30
0.0
 10
9.4939335195
 20
7.6933657141
 30
0.0
 10
9.4892337387
 20
7.6932308295
 30
0.0
 10
9.4845339598
 20
7.6930959354
 30
0.0
 10
9.4806174716
 20
7.6929835531
 30
0.0
 10
9.4774842939
 20
7.6928935813
 30
0.0
 10
9.4755260286
 20
7.6928374991
 30
0.0
 10
9.4739594834
 20
7.6927922894
 30
0.0
 10
9.4727843907
 20
7.6927593239
 30
0.0
 10
9.4718057318
 20
7.6927288567
 30
0.0
 10
9.4711195223
 20
7.6927134091
 30
0.0
 10
9.4707291956
 20
7.6926954017
 30
0.0
 10
9.4704313995
 20
7.6927077567
 30
0.0
 10
9.4701529114
 20
7.6926212598
 30
0.0
 10
9.4697748591
 20
7.6925404113
 30
0.0
 10
9.4691164055
 20
7.6923828612
 30
0.0
 10
9.4681741169
 20
7.6921661887
 30
0.0
 10
9.4670440728
 20
7.6919025866
 30
0.0
 10
9.465537102
 20
7.6915523728
 30
0.0
 10
9.4636534726
 20
7.6911141756
 30
0.0
 10
9.4606396185
 20
7.6904133005
 30
0.0
 10
9.456872317
 20
7.6895371241
 30
0.0
 10
9.4523515484
 20
7.6884857477
 30
0.0
 10
9.4478307816
 20
7.6874343619
 30
0.0
 10
9.4418030918
 20
7.6860325175
 30
0.0
 10
9.4342684799
 20
7.6842802107
 30
0.0
 10
9.4267338678
 20
7.6825279047
 30
0.0
 10
9.4207061784
 20
7.681126059
 30
0.0
 10
9.4161854105
 20
7.6800746771
 30
0.0
 10
9.4116646461
 20
7.6790232861
 30
0.0
 10
9.4078973312
 20
7.6781471551
 30
0.0
 10
9.4048835046
 20
7.6774461873
 30
0.0
 10
9.4029998054
 20
7.677008226
 30
0.0
 10
9.4014929778
 20
7.6766575281
 30
0.0
 10
9.4003624962
 20
7.6763954052
 30
0.0
 10
9.3994215763
 20
7.6761741045
 30
0.0
 10
9.3987606794
 20
7.6760248165
 30
0.0
 10
9.3983865419
 20
7.67593073
 30
0.0
 10
9.3980960288
 20
7.6758848957
 30
0.0
 10
9.3978433964
 20
7.6757445289
 30
0.0
 10
9.3974933401
 20
7.6755903472
 30
0.0
 10
9.3968868977
 20
7.6753051659
 30
0.0
 10
9.3960173329
 20
7.6749057962
 30
0.0
 10
9.3949752328
 20
7.6744231146
 30
0.0
 10
9.3935852849
 20
7.6737807399
 30
0.0
 10
9.3918480147
 20
7.6729773604
 30
0.0
 10
9.3890682902
 20
7.6716921829
 30
0.0
 10
9.3855936663
 20
7.6700856322
 30
0.0
 10
9.381424104
 20
7.6681578052
 30
0.0
 10
9.3772545454
 20
7.6662299692
 30
0.0
 10
9.3716951326
 20
7.6636595243
 30
0.0
 10
9.364745867
 20
7.660446467
 30
0.0
 10
9.3577966012
 20
7.6572334105
 30
0.0
 10
9.3522371889
 20
7.6546629644
 30
0.0
 10
9.3480676286
 20
7.6527351321
 30
0.0
 10
9.3438980728
 20
7.650807291
 30
0.0
 10
9.3404234286
 20
7.6492007843
 30
0.0
 10
9.3376437456
 20
7.6479155172
 30
0.0
 10
9.3359063699
 20
7.6471123659
 30
0.0
 10
9.3345166384
 20
7.6464695227
 30
0.0
 10
9.3334738771
 20
7.6459882724
 30
0.0
 10
9.332606381
 20
7.6455844243
 30
0.0
 10
9.3319962457
 20
7.6453072378
 30
0.0
 10
9.3316521063
 20
7.6451402464
 30
0.0
 10
9.3313812988
 20
7.6450392266
 30
0.0
 10
9.3311590488
 20
7.6448456116
 30
0.0
 10
9.330845778
 20
7.6446197564
 30
0.0
 10
9.3303054456
 20
7.6442094616
 30
0.0
 10
9.3295294165
 20
7.6436311935
 30
0.0
 10
9.3285999474
 20
7.6429339043
 30
0.0
 10
9.3273600386
 20
7.6420053615
 30
0.0
 10
9.3258103637
 20
7.6408442803
 30
0.0
 10
9.3233307659
 20
7.6389867755
 30
0.0
 10
9.3202313091
 20
7.6366648173
 30
0.0
 10
9.3165119436
 20
7.6338785005
 30
0.0
 10
9.3127925828
 20
7.6310921749
 30
0.0
 10
9.3078334334
 20
7.6273770772
 30
0.0
 10
9.3016344972
 20
7.6227332039
 30
0.0
 10
9.2954355605
 20
7.6180893313
 30
0.0
 10
9.290476412
 20
7.6143742324
 30
0.0
 10
9.2867570486
 20
7.6115879101
 30
0.0
 10
9.2830376926
 20
7.608801581
 30
0.0
 10
9.2799382061
 20
7.6064796611
 30
0.0
 10
9.2774586689
 20
7.6046220781
 30
0.0
 10
9.2759088398
 20
7.603461196
 30
0.0
 10
9.2746692475
 20
7.6025322446
 30
0.0
 10
9.2737388114
 20
7.601836204
 30
0.0
 10
9.272965808
 20
7.6012540293
 30
0.0
 10
9.2724200742
 20
7.6008507083
 30
0.0
 10
9.2721154579
 20
7.6006136793
 30
0.0
 10
9.2718666242
 20
7.6004543867
 30
0.0
 10
9.2716956603
 20
7.6002244576
 30
0.0
 10
9.2714405465
 20
7.5999425243
 30
0.0
 10
9.2710067526
 20
7.5994376614
 30
0.0
 10
9.2703804308
 20
7.5987224304
 30
0.0
 10
9.2696316766
 20
7.5978615842
 30
0.0
 10
9.2686323485
 20
7.5967146866
 30
0.0
 10
9.2673835271
 20
7.5952807574
 30
0.0
 10
9.2653852235
 20
7.5929866423
 30
0.0
 10
9.262887409
 20
7.5901189395
 30
0.0
 10
9.2598900037
 20
7.5866777215
 30
0.0
 10
9.2568926058
 20
7.5832364967
 30
0.0
 10
9.2528960728
 20
7.5786481993
 30
0.0
 10
9.2479004075
 20
7.5729128267
 30
0.0
 10
9.2429047414
 20
7.5671774546
 30
0.0
 10
9.2389082095
 20
7.5625891563
 30
0.0
 10
9.2359108084
 20
7.5591479342
 30
0.0
 10
9.2329134152
 20
7.5557067062
 30
0.0
 10
9.230415563
 20
7.5528390343
 30
0.0
 10
9.2284173363
 20
7.5505448562
 30
0.0
 10
9.2271683192
 20
7.5491110875
 30
0.0
 10
9.2261693928
 20
7.5479638602
 30
0.0
 10
9.2254194111
 20
7.5471040212
 30
0.0
 10
9.2247969299
 20
7.5463856391
 30
0.0
 10
9.2243562799
 20
7.5458864014
 30
0.0
 10
9.2241121513
 20
7.5455954552
 30
0.0
 10
9.2239074447
 20
7.5453932109
 30
0.0
 10
9.2237853429
 20
7.5451299388
 30
0.0
 10
9.223593727
 20
7.5448001966
 30
0.0
 10
9.223271824
 20
7.5442132296
 30
0.0
 10
9.2228049439
 20
7.5433798906
 30
0.0
 10
9.222247692
 20
7.5423776644
 30
0.0
 10
9.2215036402
 20
7.5410421379
 30
0.0
 10
9.2205739347
 20
7.5393724644
 30
0.0
 10
9.2190862051
 20
7.5367011351
 30
0.0
 10
9.2172266119
 20
7.5333619226
 30
0.0
 10
9.2149950707
 20
7.5293548895
 30
0.0
 10
9.2127635373
 20
7.5253478505
 30
0.0
 10
9.2097881567
 20
7.5200051339
 30
0.0
 10
9.206068932
 20
7.5133267373
 30
0.0
 10
9.2023497065
 20
7.5066483412
 30
0.0
 10
9.1993743271
 20
7.5013056239
 30
0.0
 10
9.1971427902
 20
7.497298587
 30
0.0
 10
9.1949112621
 20
7.4932915459
 30
0.0
 10
9.193051628
 20
7.4899523582
 30
0.0
 10
9.191563982
 20
7.4872809783
 30
0.0
 10
9.1906340638
 20
7.4856114336
 30
0.0
 10
9.1898904485
 20
7.4842756428
 30
0.0
 10
9.1893318628
 20
7.4832742242
 30
0.0
 10
9.188869156
 20
7.4824383581
 30
0.0
 10
9.188539803
 20
7.4818559025
 30
0.0
 10
9.1883601239
 20
7.4815189319
 30
0.0
 10
9.1882013561
 20
7.4812778628
 30
0.0
 10
9.188134361
 20
7.480992228
 30
0.0
 10
9.1880130228
 20
7.4806269266
 30
0.0
 10
9.1878155956
 20
7.4799804064
 30
0.0
 10
9.1875257592
 20
7.4790605927
 30
0.0
 10
9.1871812931
 20
7.4779551955
 30
0.0
 10
9.1867208393
 20
7.4764818986
 30
0.0
 10
9.1861456711
 20
7.4746400837
 30
0.0
 10
9.185225179
 20
7.4716932882
 30
0.0
 10
9.1840746404
 20
7.4680097566
 30
0.0
 10
9.1826939613
 20
7.4635895346
 30
0.0
 10
9.181313291
 20
7.4591693084
 30
0.0
 10
9.1794723941
 20
7.4532756749
 30
0.0
 10
9.1771712741
 20
7.4459086325
 30
0.0
 10
9.1748701534
 20
7.4385415905
 30
0.0
 10
9.1730292578
 20
7.4326479565
 30
0.0
 10
9.1716485836
 20
7.4282277318
 30
0.0
 10
9.1702679188
 20
7.4238075038
 30
0.0
 10
9.1691173357
 20
7.4201239911
 30
0.0
 10
9.1681969343
 20
7.4171771572
 30
0.0
 10
9.1676215354
 20
7.4153354399
 30
0.0
 10
9.1671615552
 20
7.4138619426
 30
0.0
 10
9.1668156419
 20
7.4127571579
 30
0.0
 10
9.1665303336
 20
7.4118354277
 30
0.0
 10
9.1663248231
 20
7.4111923288
 30
0.0
 10
9.1662164365
 20
7.4108215455
 30
0.0
 10
9.1661096582
 20
7.4105527491
 30
0.0
 10
9.166100309
 20
7.4102484378
 30
0.0
 10
9.166053859
 20
7.4098550773
 30
0.0
 10
9.1659884054
 20
7.4091609247
 30
0.0
 10
9.1658866222
 20
7.4081722957
 30
0.0
 10
9.1657680256
 20
7.4069846493
 30
0.0
 10
9.1656086592
 20
7.4054015719
 30
0.0
 10
9.1654098749
 20
7.4034225707
 30
0.0
 10
9.1650915833
 20
7.400256255
 30
0.0
 10
9.1646938
 20
7.3962983309
 30
0.0
 10
9.1642164253
 20
7.3915488345
 30
0.0
 10
9.1637390598
 20
7.3867993348
 30
0.0
 10
9.1631025693
 20
7.3804666697
 30
0.0
 10
9.1623069574
 20
7.372550838
 30
0.0
 10
9.1615113447
 20
7.3646350063
 30
0.0
 10
9.1608748555
 20
7.358302341
 30
0.0
 10
9.160397486
 20
7.353552842
 30
0.0
 10
9.1599201263
 20
7.3488033431
 30
0.0
 10
9.1595222963
 20
7.3448454268
 30
0.0
 10
9.1592040999
 20
7.3416790951
 30
0.0
 10
9.1590050734
 20
7.3397001348
 30
0.0
 10
9.1588462043
 20
7.3381169733
 30
0.0
 10
9.1587260884
 20
7.3369295839
 30
0.0
 10
9.1586290586
 20
7.3359401508
 30
0.0
 10
9.1585551193
 20
7.3352474337
 30
0.0
 10
9.1585222656
 20
7.3348517732
 30
0.0
 10
9.1584711529
 20
7.3345545267
 30
0.0
 10
9.1585212312
 20
7.3342591959
 30
0.0
 10
9.1585527058
 20
7.3338647532
 30
0.0
 10
9.1586242316
 20
7.3331747899
 30
0.0
 10
9.1587178135
 20
7.3321889653
 30
0.0
 10
9.1588337919
 20
7.3310060454
 30
0.0
 10
9.1589871443
 20
7.3294287946
 30
0.0
 10
9.1591792751
 20
7.3274572393
 30
0.0
 10
9.1594864382
 20
7.3243027463
 30
0.0
 10
9.1598704766
 20
7.3203596316
 30
0.0
 10
9.1603312864
 20
7.3156278933
 30
0.0
 10
9.160792106
 20
7.3108961551
 30
0.0
 10
9.1614065286
 20
7.3045871709
 30
0.0
 10
9.1621745582
 20
7.2967009406
 30
0.0
 10
9.1629425869
 20
7.2888147102
 30
0.0
 10
9.1635570109
 20
7.2825057261
 30
0.0
 10
9.1640178265
 20
7.2777739877
 30
0.0
 10
9.1644786513
 20
7.2730422504
 30
0.0
 10
9.164862643
 20
7.2690991323
 30
0.0
 10
9.1651699014
 20
7.2659446462
 30
0.0
 10
9.1653617897
 20
7.2639730733
 30
0.0
 10
9.1655156397
 20
7.2623958587
 30
0.0
 10
9.1656300982
 20
7.2612128282
 30
0.0
 10
9.1657284356
 20
7.2602273496
 30
0.0
 10
9.165791472
 20
7.2595367685
 30
0.0
 10
9.1658365486
 20
7.2591433158
 30
0.0
 10
9.1658448459
 20
7.2588449442
 30
0.0
 10
9.1659506559
 20
7.2585591182
 30
0.0
 10
9.1660577225
 20
7.2581736408
 30
0.0
 10
9.1662609365
 20
7.2575010942
 30
0.0
 10
9.166542957
 20
7.2565392474
 30
0.0
 10
9.1668849279
 20
7.2553854876
 30
0.0
 10
9.1673396504
 20
7.2538469817
 30
0.0
 10
9.1679084778
 20
7.2519239039
 30
0.0
 10
9.1688183644
 20
7.248846949
 30
0.0
 10
9.1699558041
 20
7.2450007659
 30
0.0
 10
9.1713206968
 20
7.2403853416
 30
0.0
 10
9.1726855989
 20
7.2357699185
 30
0.0
 10
9.174505465
 20
7.2296160206
 30
0.0
 10
9.1767802989
 20
7.2219236484
 30
0.0
 10
9.179055132
 20
7.2142312761
 30
0.0
 10
9.1808749994
 20
7.2080773785
 30
0.0
 10
9.1822398976
 20
7.2034619545
 30
0.0
 10
9.1836048046
 20
7.1988465335
 30
0.0
 10
9.1847421998
 20
7.19500034
 30
0.0
 10
9.1856521772
 20
7.1919234062
 30
0.0
 10
9.1862207735
 20
7.1900002747
 30
0.0
 10
9.1866759703
 20
7.1884618792
 30
0.0
 10
9.1870164923
 20
7.1873077823
 30
0.0
 10
9.187303046
 20
7.1863469898
 30
0.0
 10
9.1874981674
 20
7.1856725612
 30
0.0
 10
9.1876182004
 20
7.1852900993
 30
0.0
 10
9.1876841819
 20
7.1849950104
 30
0.0
 10
9.1878420688
 20
7.1847314286
 30
0.0
 10
9.188020527
 20
7.1843689961
 30
0.0
 10
9.1883477652
 20
7.1837398597
 30
0.0
 10
9.1888074394
 20
7.1828384164
 30
0.0
 10
9.1893623909
 20
7.1817578303
 30
0.0
 10
9.1901011588
 20
7.1803166486
 30
0.0
 10
9.1910250185
 20
7.1785153085
 30
0.0
 10
9.1925029704
 20
7.1756330877
 30
0.0
 10
9.1943504871
 20
7.1720303381
 30
0.0
 10
9.1965674742
 20
7.1677070272
 30
0.0
 10
9.1987844701
 20
7.1633837194
 30
0.0
 10
9.2017404616
 20
7.1576193079
 30
0.0
 10
9.2054354521
 20
7.1504137939
 30
0.0
 10
9.2091304418
 20
7.1432082796
 30
0.0
 10
9.2120864345
 20
7.1374438686
 30
0.0
 10
9.2143034268
 20
7.1331205593
 30
0.0
 10
9.2165204276
 20
7.128797254
 30
0.0
 10
9.2183679017
 20
7.125194487
 30
0.0
 10
9.2198459405
 20
7.1223123017
 30
0.0
 10
9.2207695792
 20
7.1205108715
 30
0.0
 10
9.2215088006
 20
7.1190698747
 30
0.0
 10
9.2220623666
 20
7.1179887235
 30
0.0
 10
9.2225263758
 20
7.1170890482
 30
0.0
 10
9.2228458753
 20
7.1164567556
 30
0.0
 10
9.2230367328
 20
7.1160993802
 30
0.0
 10
9.2231565332
 20
7.1158202645
 30
0.0
 10
9.2233655613
 20
7.1155835183
 30
0.0
 10
9.2236131419
 20
7.1152530778
 30
0.0
 10
9.2240609089
 20
7.1146816927
 30
0.0
 10
9.2246929948
 20
7.1138618282
 30
0.0
 10
9.2254547429
 20
7.1128795318
 30
0.0
 10
9.2264692736
 20
7.111569265
 30
0.0
 10
9.2277378251
 20
7.1099316158
 30
0.0
 10
9.2297672906
 20
7.107311274
 30
0.0
 10
9.2323041969
 20
7.1040358822
 30
0.0
 10
9.2353484525
 20
7.1001053969
 30
0.0
 10
9.2383927167
 20
7.0961749156
 30
0.0
 10
9.2424517326
 20
7.0909342724
 30
0.0
 10
9.2475255036
 20
7.0843834691
 30
0.0
 10
9.252599274
 20
7.0778326652
 30
0.0
 10
9.2566582909
 20
7.0725920229
 30
0.0
 10
9.259702552
 20
7.0686615393
 30
0.0
 10
9.2627468193
 20
7.0647310627
 30
0.0
 10
9.2652836892
 20
7.0614556437
 30
0.0
 10
9.2673132288
 20
7.0588353574
 30
0.0
 10
9.2685815919
 20
7.057197567
 30
0.0
 10
9.2695965093
 20
7.05588759
 30
0.0
 10
9.2703570759
 20
7.0549044084
 30
0.0
 10
9.2709928585
 20
7.0540873133
 30
0.0
 10
9.2714340263
 20
7.0535109844
 30
0.0
 10
9.2716921805
 20
7.053188465
 30
0.0
 10
9.2718687298
 20
7.0529273876
 30
0.0
 10
9.2721105153
 20
7.0527396558
 30
0.0
 10
9.2724101407
 20
7.052463763
 30
0.0
 10
9.2729450874
 20
7.0519928704
 30
0.0
 10
9.273703754
 20
7.0513139349
 30
0.0
 10
9.2746165264
 20
7.0505018797
 30
0.0
 10
9.2758327277
 20
7.0494182077
 30
0.0
 10
9.277353263
 20
7.0480639368
 30
0.0
 10
9.2797859609
 20
7.0458969251
 30
0.0
 10
9.2828268877
 20
7.0431882215
 30
0.0
 10
9.2864759765
 20
7.0399377511
 30
0.0
 10
9.2901250715
 20
7.0366872877
 30
0.0
 10
9.2949905294
 20
7.0323533339
 30
0.0
 10
9.3010723526
 20
7.0269358927
 30
0.0
 10
9.3071541753
 20
7.0215184509
 30
0.0
 10
9.312019634
 20
7.0171844982
 30
0.0
 10
9.3156687266
 20
7.0139340317
 30
0.0
 10
9.3193178246
 20
7.0106835728
 30
0.0
 10
9.322358723
 20
7.0079748335
 30
0.0
 10
9.3247914787
 20
7.0058078946
 30
0.0
 10
9.326311867
 20
7.0044534382
 30
0.0
 10
9.32752837
 20
7.0033701471
 30
0.0
 10
9.3284402205
 20
7.0025569283
 30
0.0
 10
9.3292017718
 20
7.0018816333
 30
0.0
 10
9.3297315687
 20
7.0014042418
 30
0.0
 10
9.3300394453
 20
7.0011387619
 30
0.0
 10
9.330255886
 20
7.000919045
 30
0.0
 10
9.3305276258
 20
7.000778098
 30
0.0
 10
9.3308706567
 20
7.0005626929
 30
0.0
 10
9.3314799477
 20
7.0001985354
 30
0.0
 10
9.332345665
 20
6.9996716176
 30
0.0
 10
9.3333865368
 20
6.999042181
 30
0.0
 10
9.3347736634
 20
6.9982019316
 30
0.0
 10
9.3365078122
 20
6.9971519625
 30
0.0
 10
9.3392823159
 20
6.9954718204
 30
0.0
 10
9.3427504916
 20
6.9933717085
 30
0.0
 10
9.3469122827
 20
6.990851546
 30
0.0
 10
9.351074079
 20
6.9883313911
 30
0.0
 10
9.356623139
 20
6.9849711819
 30
0.0
 10
9.3635594646
 20
6.9807709213
 30
0.0
 10
9.3704957899
 20
6.9765706601
 30
0.0
 10
9.3760448505
 20
6.973210452
 30
0.0
 10
9.380206645
 20
6.9706902937
 30
0.0
 10
9.3843684431
 20
6.9681701439
 30
0.0
 10
9.3878365968
 20
6.9660699925
 30
0.0
 10
9.3906111453
 20
6.9643899309
 30
0.0
 10
9.3923451801
 20
6.963339757
 30
0.0
 10
9.3937325408
 20
6.962499928
 30
0.0
 10
9.3947726974
 20
6.9618692071
 30
0.0
 10
9.3956406523
 20
6.9613463074
 30
0.0
 10
9.3962459487
 20
6.960974977
 30
0.0
 10
9.39659538
 20
6.9607710647
 30
0.0
 10
9.3968474597
 20
6.9605948152
 30
0.0
 10
9.3971377407
 20
6.960507689
 30
0.0
 10
9.3975114569
 20
6.9603604334
 30
0.0
 10
9.3981716687
 20
6.9601172204
 30
0.0
 10
9.3991115827
 20
6.9597622008
 30
0.0
 10
9.4002408687
 20
6.9593394185
 30
0.0
 10
9.4017460981
 20
6.9587745766
 30
0.0
 10
9.4036278011
 20
6.9580689119
 30
0.0
 10
9.406638433
 20
6.9569396318
 30
0.0
 10
9.4104017547
 20
6.9555281059
 30
0.0
 10
9.4149177271
 20
6.9538342431
 30
0.0
 10
9.4194337031
 20
6.9521403887
 30
0.0
 10
9.4254550032
 20
6.9498819132
 30
0.0
 10
9.4329816288
 20
6.94705882
 30
0.0
 10
9.4405082541
 20
6.9442357261
 30
0.0
 10
9.4465295547
 20
6.9419772519
 30
0.0
 10
9.4510455294
 20
6.9402833938
 30
0.0
 10
9.4555615068
 20
6.9385895449
 30
0.0
 10
9.4593248128
 20
6.9371779756
 30
0.0
 10
9.4623354767
 20
6.9360487839
 30
0.0
 10
9.464217098
 20
6.9353428941
 30
0.0
 10
9.4657224951
 20
6.9347785144
 30
0.0
 10
9.466851269
 20
6.9343543203
 30
0.0
 10
9.4677927854
 20
6.9340037176
 30
0.0
 10
9.4684501365
 20
6.9337526196
 30
0.0
 10
9.4688284364
 20
6.9336179978
 30
0.0
 10
9.4691046378
 20
6.933492065
 30
0.0
 10
9.4694095977
 20
6.9334615667
 30
0.0
 10
9.4698061797
 20
6.9333876136
 30
0.0
 10
9.4705048718
 20
6.9332737056
 30
0.0
 10
9.4715005599
 20
6.9331028711
 30
0.0
 10
9.4726964316
 20
6.9329013405
 30
0.0
 10
9.4742905618
 20
6.9326314208
 30
0.0
 10
9.4762833496
 20
6.9322944363
 30
0.0
 10
9.4794717403
 20
6.931755029
 30
0.0
 10
9.4834572526
 20
6.9310808495
 30
0.0
 10
9.4882398571
 20
6.9302718
 30
0.0
 10
9.4930224643
 20
6.9294627597
 30
0.0
 10
9.499399273
 20
6.928384036
 30
0.0
 10
9.5073702842
 20
6.9270356325
 30
0.0
 10
9.5169354974
 20
6.9254175478
 30
0.0
 10
9.5296891152
 20
6.9232601017
 30
0.0
 10
9.5392543285
 20
6.9216420171
 30
0.0
 10
9.5456311374
 20
6.920563294
 30
0.0
  0
SPLINE
  5
378
100
AcDbEntity
  8
0
100
AcDbSpline
 62
4
  6
CONTINUOUS
 70
0
 71
3
 72
403
 73
399
 74
0
 42
0.0000001
 43
0.0000001
 44
0.0000000001
 40
0.0
 40
0.0
 40
0.0
 40
0.0
 40
0.015625
 40
0.0234375
 40
0.03125
 40
0.0390625
 40
0.04296875
 40
0.046875
 40
0.05078125
 40
0.0546875
 40
0.056640625
 40
0.05859375
 40
0.0595703125
 40
0.060546875
 40
0.0615234375
 40
0.0620117188
 40
0.0622558594
 40
0.0625
 40
0.0627441406
 40
0.0629882812
 40
0.0634765625
 40
0.064453125
 40
0.0654296875
 40
0.06640625
 40
0.068359375
 40
0.0703125
 40
0.07421875
 40
0.078125
 40
0.08203125
 40
0.0859375
 40
0.09375
 40
0.1015625
 40
0.10546875
 40
0.109375
 40
0.11328125
 40
0.1171875
 40
0.119140625
 40
0.12109375
 40
0.1220703125
 40
0.123046875
 40
0.1240234375
 40
0.1245117188
 40
0.1247558594
 40
0.125
 40
0.1252441406
 40
0.1254882812
 40
0.1259765625
 40
0.126953125
 40
0.1279296875
 40
0.12890625
 40
0.130859375
 40
0.1328125
 40
0.13671875
 40
0.140625
 40
0.14453125
 40
0.1484375
 40
0.15625
 40
0.1640625
 40
0.16796875
 40
0.171875
 40
0.17578125
 40
0.1796875
 40
0.181640625
 40
0.18359375
 40
0.1845703125
 40
0.185546875
 40
0.1865234375
 40
0.1870117188
 40
0.1872558594
 40
0.1875
 40
0.1877441406
 40
0.1879882812
 40
0.1884765625
 40
0.189453125
 40
0.1904296875
 40
0.19140625
 40
0.193359375
 40
0.1953125
 40
0.19921875
 40
0.203125
 40
0.20703125
 40
0.2109375
 40
0.21875
 40
0.2265625
 40
0.23046875
 40
0.234375
 40
0.23828125
 40
0.2421875
 40
0.244140625
 40
0.24609375
 40
0.2470703125
 40
0.248046875
 40
0.2490234375
 40
0.2495117188
 40
0.2497558594
 40
0.25
 40
0.2502441406
 40
0.2504882812
 40
0.2509765625
 40
0.251953125
 40
0.2529296875
 40
0.25390625
 40
0.255859375
 40
0.2578125
 40
0.26171875
 40
0.265625
 40
0.26953125
 40
0.2734375
 40
0.28125
 40
0.2890625
 40
0.29296875
 40
0.296875
 40
0.30078125
 40
0.3046875
 40
0.306640625
 40
0.30859375
 40
0.3095703125
 40
0.310546875
 40
0.3115234375
 40
0.3120117188
 40
0.3122558594
 40
0.3125
 40
0.3127441406
 40
0.3129882812
 40
0.3134765625
 40
0.314453125
 40
0.3154296875
 40
0.31640625
 40
0.318359375
 40
0.3203125
 40
0.32421875
 40
0.328125
 40
0.33203125
 40
0.3359375
 40
0.34375
 40
0.3515625
 40
0.35546875
 40
0.359375
 40
0.36328125
 40
0.3671875
 40
0.369140625
 40
0.37109375
 40
0.3720703125
 40
0.373046875
 40
0.3740234375
 40
0.3745117188
 40
0.3747558594
 40
0.375
 40
0.3752441406
 40
0.3754882812
 40
0.3759765625
 40
0.376953125
 40
0.3779296875
 40
0.37890625
 40
0.380859375
 40
0.3828125
 40
0.38671875
 40
0.390625
 40
0.39453125
 40
0.3984375
 40
0.40625
 40
0.4140625
 40
0.41796875
 40
0.421875
 40
0.42578125
 40
0.4296875
 40
0.431640625
 40
0.43359375
 40
0.4345703125
 40
0.435546875
 40
0.4365234375
 40
0.4370117188
 40
0.4372558594
 40
0.4375
 40
0.4377441406
 40
0.4379882812
 40
0.4384765625
 40
0.439453125
 40
0.4404296875
 40
0.44140625
 40
0.443359375
 40
0.4453125
 40
0.44921875
 40
0.453125
 40
0.45703125
 40
0.4609375
 40
0.46875
 40
0.4765625
 40
0.48046875
 40
0.484375
 40
0.48828125
 40
0.4921875
 40
0.494140625
 40
0.49609375
 40
0.4970703125
 40
0.498046875
 40
0.4990234375
 40
0.4995117188
 40
0.4997558594
 40
0.5
 40
0.5002441406
 40
0.5004882812
 40
0.5009765625
 40
0.501953125
 40
0.5029296875
 40
0.50390625
 40
0.505859375
 40
0.5078125
 40
0.51171875
 40
0.515625
 40
0.51953125
 40
0.5234375
 40
0.53125
 40
0.5390625
 40
0.54296875
 40
0.546875
 40
0.55078125
 40
0.5546875
 40
0.556640625
 40
0.55859375
 40
0.5595703125
 40
0.560546875
 40
0.5615234375
 40
0.5620117188
 40
0.5622558594
 40
0.5625
 40
0.5627441406
 40
0.5629882812
 40
0.5634765625
 40
0.564453125
 40
0.5654296875
 40
0.56640625
 40
0.568359375
 40
0.5703125
 40
0.57421875
 40
0.578125
 40
0.58203125
 40
0.5859375
 40
0.59375
 40
0.6015625
 40
0.60546875
 40
0.609375
 40
0.61328125
 40
0.6171875
 40
0.619140625
 40
0.62109375
 40
0.6220703125
 40
0.623046875
 40
0.6240234375
 40
0.6245117188
 40
0.6247558594
 40
0.625
 40
0.6252441406
 40
0.6254882812
 40
0.6259765625
 40
0.626953125
 40
0.6279296875
 40
0.62890625
 40
0.630859375
 40
0.6328125
 40
0.63671875
 40
0.640625
 40
0.64453125
 40
0.6484375
 40
0.65625
 40
0.6640625
 40
0.66796875
 40
0.671875
 40
0.67578125
 40
0.6796875
 40
0.681640625
 40
0.68359375
 40
0.6845703125
 40
0.685546875
 40
0.6865234375
 40
0.6870117188
 40
0.6872558594
 40
0.6875
 40
0.6877441406
 40
0.6879882812
 40
0.6884765625
 40
0.689453125
 40
0.6904296875
 40
0.69140625
 40
0.693359375
 40
0.6953125
 40
0.69921875
 40
0.703125
 40
0.70703125
 40
0.7109375
 40
0.71875
 40
0.7265625
 40
0.73046875
 40
0.734375
 40
0.73828125
 40
0.7421875
 40
0.744140625
 40
0.74609375
 40
0.7470703125
 40
0.748046875
 40
0.7490234375
 40
0.7495117188
 40
0.7497558594
 40
0.75
 40
0.7502441406
 40
0.7504882812
 40
0.7509765625
 40
0.751953125
 40
0.7529296875
 40
0.75390625
 40
0.755859375
 40
0.7578125
 40
0.76171875
 40
0.765625
 40
0.76953125
 40
0.7734375
 40
0.78125
 40
0.7890625
 40
0.79296875
 40
0.796875
 40
0.80078125
 40
0.8046875
 40
0.806640625
 40
0.80859375
 40
0.8095703125
 40
0.810546875
 40
0.8115234375
 40
0.8120117188
 40
0.8122558594
 40
0.8125
 40
0.8127441406
 40
0.8129882812
 40
0.8134765625
 40
0.814453125
 40
0.8154296875
 40
0.81640625
 40
0.818359375
 40
0.8203125
 40
0.82421875
 40
0.828125
 40
0.83203125
 40
0.8359375
 40
0.84375
 40
0.8515625
 40
0.85546875
 40
0.859375
 40
0.86328125
 40
0.8671875
 40
0.869140625
 40
0.87109375
 40
0.8720703125
 40
0.873046875
 40
0.8740234375
 40
0.8745117188
 40
0.8747558594
 40
0.875
 40
0.8752441406
 40
0.8754882812
 40
0.8759765625
 40
0.876953125
 40
0.8779296875
 40
0.87890625
 40
0.880859375
 40
0.8828125
 40
0.88671875
 40
0.890625
 40
0.89453125
 40
0.8984375
 40
0.90625
 40
0.9140625
 40
0.91796875
 40
0.921875
 40
0.92578125
 40
0.9296875
 40
0.931640625
 40
0.93359375
 40
0.9345703125
 40
0.935546875
 40
0.9365234375
 40
0.9370117188
 40
0.9372558594
 40
0.9375
 40
0.9377441406
 40
0.9379882812
 40
0.9384765625
 40
0.939453125
 40
0.9404296875
 40
0.94140625
 40
0.943359375
 40
0.9453125
 40
0.94921875
 40
0.953125
 40
0.95703125
 40
0.9609375
 40
0.96875
 40
0.9765625
 40
0.984375
 40
1.0
 40
1.0
 40
1.0
 40
1.0
 10
9.5456311035
 20
6.9205632964
 30
0.0
 10
9.5518974774
 20
6.9207431452
 30
0.0
 10
9.5612970381
 20
6.9210129185
 30
0.0
 10
9.5738297858
 20
6.9213726161
 30
0.0
 10
9.5832293465
 20
6.9216423894
 30
0.0
 10
9.5910623139
 20
6.9218672001
 30
0.0
 10
9.5973286876
 20
6.9220470496
 30
0.0
 10
9.6020284684
 20
6.9221819342
 30
0.0
 10
9.6067282473
 20
6.9223168283
 30
0.0
 10
9.6106447355
 20
6.9224292106
 30
0.0
 10
9.6137779131
 20
6.9225191824
 30
0.0
 10
9.6157361785
 20
6.9225752646
 30
0.0
 10
9.6173027236
 20
6.9226204743
 30
0.0
 10
9.6184778164
 20
6.9226534398
 30
0.0
 10
9.6194564752
 20
6.9226839069
 30
0.0
 10
9.6201426848
 20
6.9226993546
 30
0.0
 10
9.6205330114
 20
6.9227173619
 30
0.0
 10
9.6208308076
 20
6.922705007
 30
0.0
 10
9.6211092957
 20
6.9227915038
 30
0.0
 10
9.621487348
 20
6.9228723524
 30
0.0
 10
9.6221458016
 20
6.9230299025
 30
0.0
 10
9.6230880902
 20
6.923246575
 30
0.0
 10
9.6242181343
 20
6.9235101771
 30
0.0
 10
9.6257251051
 20
6.9238603909
 30
0.0
 10
9.6276087345
 20
6.924298588
 30
0.0
 10
9.6306225886
 20
6.9249994632
 30
0.0
 10
9.63438989
 20
6.9258756396
 30
0.0
 10
9.6389106587
 20
6.926927016
 30
0.0
 10
9.6434314255
 20
6.9279784018
 30
0.0
 10
9.6494591152
 20
6.9293802462
 30
0.0
 10
9.6569937271
 20
6.931132553
 30
0.0
 10
9.6645283393
 20
6.932884859
 30
0.0
 10
9.6705560286
 20
6.9342867047
 30
0.0
 10
9.6750767966
 20
6.9353380866
 30
0.0
 10
9.6795975609
 20
6.9363894776
 30
0.0
 10
9.6833648759
 20
6.9372656085
 30
0.0
 10
9.6863787025
 20
6.9379665764
 30
0.0
 10
9.6882624017
 20
6.9384045377
 30
0.0
 10
9.6897692293
 20
6.9387552356
 30
0.0
 10
9.6908997108
 20
6.9390173585
 30
0.0
 10
9.6918406307
 20
6.9392386592
 30
0.0
 10
9.6925015277
 20
6.9393879472
 30
0.0
 10
9.6928756652
 20
6.9394820337
 30
0.0
 10
9.6931661783
 20
6.939527868
 30
0.0
 10
9.6934188106
 20
6.9396682348
 30
0.0
 10
9.693768867
 20
6.9398224165
 30
0.0
 10
9.6943753093
 20
6.9401075977
 30
0.0
 10
9.6952448741
 20
6.9405069675
 30
0.0
 10
9.6962869742
 20
6.9409896491
 30
0.0
 10
9.6976769222
 20
6.9416320238
 30
0.0
 10
9.6994141924
 20
6.9424354033
 30
0.0
 10
9.7021939168
 20
6.9437205808
 30
0.0
 10
9.7056685408
 20
6.9453271314
 30
0.0
 10
9.7098381031
 20
6.9472549584
 30
0.0
 10
9.7140076617
 20
6.9491827945
 30
0.0
 10
9.7195670745
 20
6.9517532394
 30
0.0
 10
9.72651634
 20
6.9549662966
 30
0.0
 10
9.7334656059
 20
6.9581793531
 30
0.0
 10
9.7390250181
 20
6.9607497993
 30
0.0
 10
9.7431945785
 20
6.9626776316
 30
0.0
 10
9.7473641343
 20
6.9646054727
 30
0.0
 10
9.7508387785
 20
6.9662119794
 30
0.0
 10
9.7536184615
 20
6.9674972465
 30
0.0
 10
9.7553558372
 20
6.9683003978
 30
0.0
 10
9.7567455687
 20
6.968943241
 30
0.0
 10
9.75778833
 20
6.9694244913
 30
0.0
 10
9.7586558261
 20
6.9698283394
 30
0.0
 10
9.7592659614
 20
6.9701055259
 30
0.0
 10
9.7596101007
 20
6.9702725172
 30
0.0
 10
9.7598809083
 20
6.970373537
 30
0.0
 10
9.7601031583
 20
6.9705671521
 30
0.0
 10
9.7604164291
 20
6.9707930073
 30
0.0
 10
9.7609567615
 20
6.9712033021
 30
0.0
 10
9.7617327906
 20
6.9717815702
 30
0.0
 10
9.7626622596
 20
6.9724788594
 30
0.0
 10
9.7639021685
 20
6.9734074022
 30
0.0
 10
9.7654518434
 20
6.9745684834
 30
0.0
 10
9.7679314412
 20
6.9764259882
 30
0.0
 10
9.771030898
 20
6.9787479464
 30
0.0
 10
9.7747502634
 20
6.9815342631
 30
0.0
 10
9.7784696243
 20
6.9843205888
 30
0.0
 10
9.7834287737
 20
6.9880356865
 30
0.0
 10
9.7896277099
 20
6.9926795598
 30
0.0
 10
9.7958266465
 20
6.9973234324
 30
0.0
 10
9.8007857951
 20
7.0010385312
 30
0.0
 10
9.8045051585
 20
7.0038248536
 30
0.0
 10
9.8082245144
 20
7.0066111827
 30
0.0
 10
9.8113240009
 20
7.0089331025
 30
0.0
 10
9.8138035382
 20
7.0107906856
 30
0.0
 10
9.8153533672
 20
7.0119515676
 30
0.0
 10
9.8165929595
 20
7.0128805191
 30
0.0
 10
9.8175233956
 20
7.0135765597
 30
0.0
 10
9.8182963991
 20
7.0141587343
 30
0.0
 10
9.8188421329
 20
7.0145620554
 30
0.0
 10
9.8191467492
 20
7.0147990844
 30
0.0
 10
9.8193955828
 20
7.014958377
 30
0.0
 10
9.8195665468
 20
7.0151883061
 30
0.0
 10
9.8198216605
 20
7.0154702393
 30
0.0
 10
9.8202554544
 20
7.0159751023
 30
0.0
 10
9.8208817762
 20
7.0166903333
 30
0.0
 10
9.8216305305
 20
7.0175511794
 30
0.0
 10
9.8226298586
 20
7.0186980771
 30
0.0
 10
9.82387868
 20
7.0201320063
 30
0.0
 10
9.8258769836
 20
7.0224261214
 30
0.0
 10
9.8283747981
 20
7.0252938241
 30
0.0
 10
9.8313722034
 20
7.0287350422
 30
0.0
 10
9.8343696012
 20
7.032176267
 30
0.0
 10
9.8383661343
 20
7.0367645644
 30
0.0
 10
9.8433617996
 20
7.042499937
 30
0.0
 10
9.8483574656
 20
7.0482353091
 30
0.0
 10
9.8523539976
 20
7.0528236074
 30
0.0
 10
9.8553513987
 20
7.0562648295
 30
0.0
 10
9.8583487918
 20
7.0597060575
 30
0.0
 10
9.8608466441
 20
7.0625737293
 30
0.0
 10
9.8628448707
 20
7.0648679075
 30
0.0
 10
9.8640938879
 20
7.0663016762
 30
0.0
 10
9.8650928142
 20
7.0674489034
 30
0.0
 10
9.8658427959
 20
7.0683087425
 30
0.0
 10
9.8664652772
 20
7.0690271246
 30
0.0
 10
9.8669059271
 20
7.0695263623
 30
0.0
 10
9.8671500558
 20
7.0698173085
 30
0.0
 10
9.8673547624
 20
7.0700195528
 30
0.0
 10
9.8674768642
 20
7.0702828248
 30
0.0
 10
9.8676684801
 20
7.0706125671
 30
0.0
 10
9.8679903831
 20
7.0711995341
 30
0.0
 10
9.8684572632
 20
7.0720328731
 30
0.0
 10
9.8690145151
 20
7.0730350993
 30
0.0
 10
9.8697585669
 20
7.0743706258
 30
0.0
 10
9.8706882724
 20
7.0760402993
 30
0.0
 10
9.872176002
 20
7.0787116286
 30
0.0
 10
9.8740355951
 20
7.082050841
 30
0.0
 10
9.8762671364
 20
7.0860578742
 30
0.0
 10
9.8784986698
 20
7.0900649132
 30
0.0
 10
9.8814740504
 20
7.0954076298
 30
0.0
 10
9.8851932751
 20
7.1020860264
 30
0.0
 10
9.8889125005
 20
7.1087644224
 30
0.0
 10
9.89188788
 20
7.1141071398
 30
0.0
 10
9.8941194168
 20
7.1181141767
 30
0.0
 10
9.8963509449
 20
7.1221212178
 30
0.0
 10
9.898210579
 20
7.1254604055
 30
0.0
 10
9.8996982251
 20
7.1281317853
 30
0.0
 10
9.9006281433
 20
7.1298013301
 30
0.0
 10
9.9013717585
 20
7.1311371209
 30
0.0
 10
9.9019303443
 20
7.1321385394
 30
0.0
 10
9.9023930511
 20
7.1329744056
 30
0.0
 10
9.9027224041
 20
7.1335568612
 30
0.0
 10
9.9029020832
 20
7.1338938317
 30
0.0
 10
9.903060851
 20
7.1341349008
 30
0.0
 10
9.9031278461
 20
7.1344205357
 30
0.0
 10
9.9032491843
 20
7.1347858371
 30
0.0
 10
9.9034466115
 20
7.1354323573
 30
0.0
 10
9.9037364479
 20
7.136352171
 30
0.0
 10
9.9040809139
 20
7.1374575682
 30
0.0
 10
9.9045413678
 20
7.1389308651
 30
0.0
 10
9.9051165359
 20
7.14077268
 30
0.0
 10
9.906037028
 20
7.1437194755
 30
0.0
 10
9.9071875666
 20
7.1474030071
 30
0.0
 10
9.9085682458
 20
7.1518232291
 30
0.0
 10
9.9099489161
 20
7.1562434553
 30
0.0
 10
9.911789813
 20
7.1621370888
 30
0.0
 10
9.9140909329
 20
7.1695041312
 30
0.0
 10
9.9163920537
 20
7.1768711732
 30
0.0
 10
9.9182329493
 20
7.1827648072
 30
0.0
 10
9.9196136234
 20
7.1871850318
 30
0.0
 10
9.9209942883
 20
7.1916052598
 30
0.0
 10
9.9221448713
 20
7.1952887726
 30
0.0
 10
9.9230652728
 20
7.1982356065
 30
0.0
 10
9.9236406717
 20
7.2000773237
 30
0.0
 10
9.9241006518
 20
7.2015508211
 30
0.0
 10
9.9244465651
 20
7.2026556058
 30
0.0
 10
9.9247318734
 20
7.203577336
 30
0.0
 10
9.924937384
 20
7.2042204349
 30
0.0
 10
9.9250457706
 20
7.2045912181
 30
0.0
 10
9.9251525488
 20
7.2048600146
 30
0.0
 10
9.9251618981
 20
7.2051643259
 30
0.0
 10
9.9252083481
 20
7.2055576864
 30
0.0
 10
9.9252738017
 20
7.2062518389
 30
0.0
 10
9.9253755849
 20
7.2072404679
 30
0.0
 10
9.9254941815
 20
7.2084281144
 30
0.0
 10
9.9256535479
 20
7.2100111918
 30
0.0
 10
9.9258523322
 20
7.211990193
 30
0.0
 10
9.9261706238
 20
7.2151565086
 30
0.0
 10
9.926568407
 20
7.2191144328
 30
0.0
 10
9.9270457818
 20
7.2238639291
 30
0.0
 10
9.9275231472
 20
7.2286134289
 30
0.0
 10
9.9281596378
 20
7.2349460939
 30
0.0
 10
9.9289552497
 20
7.2428619257
 30
0.0
 10
9.9297508624
 20
7.2507777574
 30
0.0
 10
9.9303873516
 20
7.2571104227
 30
0.0
 10
9.930864721
 20
7.2618599217
 30
0.0
 10
9.9313420808
 20
7.2666094206
 30
0.0
 10
9.9317399107
 20
7.2705673368
 30
0.0
 10
9.9320581072
 20
7.2737336686
 30
0.0
 10
9.9322571337
 20
7.2757126288
 30
0.0
 10
9.9324160028
 20
7.2772957904
 30
0.0
 10
9.9325361187
 20
7.2784831798
 30
0.0
 10
9.9326331484
 20
7.2794726129
 30
0.0
 10
9.9327070878
 20
7.28016533
 30
0.0
 10
9.9327399415
 20
7.2805609905
 30
0.0
 10
9.9327910542
 20
7.2808582369
 30
0.0
 10
9.9327409758
 20
7.2811535678
 30
0.0
 10
9.9327095013
 20
7.2815480104
 30
0.0
 10
9.9326379755
 20
7.2822379737
 30
0.0
 10
9.9325443936
 20
7.2832237984
 30
0.0
 10
9.9324284152
 20
7.2844067183
 30
0.0
 10
9.9322750627
 20
7.2859839691
 30
0.0
 10
9.932082932
 20
7.2879555244
 30
0.0
 10
9.9317757688
 20
7.2911100174
 30
0.0
 10
9.9313917305
 20
7.2950531321
 30
0.0
 10
9.9309309206
 20
7.2997848704
 30
0.0
 10
9.9304701011
 20
7.3045166086
 30
0.0
 10
9.9298556784
 20
7.3108255928
 30
0.0
 10
9.9290876489
 20
7.3187118231
 30
0.0
 10
9.9283196201
 20
7.3265980534
 30
0.0
 10
9.9277051961
 20
7.3329070376
 30
0.0
 10
9.9272443806
 20
7.337638776
 30
0.0
 10
9.9267835557
 20
7.3423705133
 30
0.0
 10
9.9263995641
 20
7.3463136314
 30
0.0
 10
9.9260923057
 20
7.3494681175
 30
0.0
 10
9.9259004173
 20
7.3514396903
 30
0.0
 10
9.9257465674
 20
7.353016905
 30
0.0
 10
9.9256321089
 20
7.3541999355
 30
0.0
 10
9.9255337715
 20
7.355185414
 30
0.0
 10
9.9254707351
 20
7.3558759952
 30
0.0
 10
9.9254256585
 20
7.3562694479
 30
0.0
 10
9.9254173612
 20
7.3565678195
 30
0.0
 10
9.9253115511
 20
7.3568536455
 30
0.0
 10
9.9252044846
 20
7.3572391229
 30
0.0
 10
9.9250012706
 20
7.3579116695
 30
0.0
 10
9.9247192501
 20
7.3588735163
 30
0.0
 10
9.9243772792
 20
7.3600272761
 30
0.0
 10
9.9239225566
 20
7.361565782
 30
0.0
 10
9.9233537293
 20
7.3634888597
 30
0.0
 10
9.9224438427
 20
7.3665658147
 30
0.0
 10
9.921306403
 20
7.3704119978
 30
0.0
 10
9.9199415103
 20
7.3750274221
 30
0.0
 10
9.9185766082
 20
7.3796428452
 30
0.0
 10
9.9167567421
 20
7.3857967431
 30
0.0
 10
9.9144819082
 20
7.3934891153
 30
0.0
 10
9.9122070751
 20
7.4011814876
 30
0.0
 10
9.9103872077
 20
7.4073353852
 30
0.0
 10
9.9090223095
 20
7.4119508092
 30
0.0
 10
9.9076574024
 20
7.4165662302
 30
0.0
 10
9.9065200073
 20
7.4204124237
 30
0.0
 10
9.9056100298
 20
7.4234893575
 30
0.0
 10
9.9050414336
 20
7.425412489
 30
0.0
 10
9.9045862368
 20
7.4269508845
 30
0.0
 10
9.9042457148
 20
7.4281049814
 30
0.0
 10
9.903959161
 20
7.4290657739
 30
0.0
 10
9.9037640396
 20
7.4297402025
 30
0.0
 10
9.9036440067
 20
7.4301226644
 30
0.0
 10
9.9035780252
 20
7.4304177532
 30
0.0
 10
9.9034201383
 20
7.4306813351
 30
0.0
 10
9.9032416801
 20
7.4310437676
 30
0.0
 10
9.9029144419
 20
7.431672904
 30
0.0
 10
9.9024547677
 20
7.4325743473
 30
0.0
 10
9.9018998162
 20
7.4336549334
 30
0.0
 10
9.9011610482
 20
7.4350961151
 30
0.0
 10
9.9002371886
 20
7.4368974552
 30
0.0
 10
9.8987592366
 20
7.4397796759
 30
0.0
 10
9.89691172
 20
7.4433824256
 30
0.0
 10
9.8946947328
 20
7.4477057365
 30
0.0
 10
9.8924777369
 20
7.4520290443
 30
0.0
 10
9.8895217455
 20
7.4577934558
 30
0.0
 10
9.885826755
 20
7.4649989698
 30
0.0
 10
9.8821317652
 20
7.4722044841
 30
0.0
 10
9.8791757726
 20
7.4779688951
 30
0.0
 10
9.8769587803
 20
7.4822922044
 30
0.0
 10
9.8747417795
 20
7.4866155097
 30
0.0
 10
9.8728943054
 20
7.4902182767
 30
0.0
 10
9.8714162666
 20
7.493100462
 30
0.0
 10
9.8704926279
 20
7.4949018922
 30
0.0
 10
9.8697534065
 20
7.496342889
 30
0.0
 10
9.8691998405
 20
7.4974240402
 30
0.0
 10
9.8687358313
 20
7.4983237154
 30
0.0
 10
9.8684163318
 20
7.4989560081
 30
0.0
 10
9.8682254743
 20
7.4993133834
 30
0.0
 10
9.8681056739
 20
7.4995924992
 30
0.0
 10
9.8678966458
 20
7.4998292454
 30
0.0
 10
9.8676490652
 20
7.5001596859
 30
0.0
 10
9.8672012981
 20
7.500731071
 30
0.0
 10
9.8665692123
 20
7.5015509355
 30
0.0
 10
9.8658074641
 20
7.5025332319
 30
0.0
 10
9.8647929334
 20
7.5038434987
 30
0.0
 10
9.8635243819
 20
7.5054811479
 30
0.0
 10
9.8614949164
 20
7.5081014897
 30
0.0
 10
9.8589580102
 20
7.5113768815
 30
0.0
 10
9.8559137545
 20
7.5153073668
 30
0.0
 10
9.8528694903
 20
7.5192378481
 30
0.0
 10
9.8488104744
 20
7.5244784912
 30
0.0
 10
9.8437367035
 20
7.5310292946
 30
0.0
 10
9.8386629331
 20
7.5375800984
 30
0.0
 10
9.8346039162
 20
7.5428207408
 30
0.0
 10
9.8315596551
 20
7.5467512244
 30
0.0
 10
9.8285153878
 20
7.550681701
 30
0.0
 10
9.8259785178
 20
7.55395712
 30
0.0
 10
9.8239489783
 20
7.5565774063
 30
0.0
 10
9.8226806152
 20
7.5582151966
 30
0.0
 10
9.8216656978
 20
7.5595251737
 30
0.0
 10
9.8209051312
 20
7.5605083553
 30
0.0
 10
9.8202693486
 20
7.5613254504
 30
0.0
 10
9.8198281808
 20
7.5619017793
 30
0.0
 10
9.8195700266
 20
7.5622242987
 30
0.0
 10
9.8193934772
 20
7.562485376
 30
0.0
 10
9.8191516918
 20
7.5626731079
 30
0.0
 10
9.8188520663
 20
7.5629490007
 30
0.0
 10
9.8183171197
 20
7.5634198933
 30
0.0
 10
9.8175584531
 20
7.5640988288
 30
0.0
 10
9.8166456807
 20
7.564910884
 30
0.0
 10
9.8154294794
 20
7.5659945559
 30
0.0
 10
9.8139089441
 20
7.5673488269
 30
0.0
 10
9.8114762462
 20
7.5695158386
 30
0.0
 10
9.8084353194
 20
7.5722245421
 30
0.0
 10
9.8047862306
 20
7.5754750126
 30
0.0
 10
9.8011371355
 20
7.578725476
 30
0.0
 10
9.7962716776
 20
7.5830594297
 30
0.0
 10
9.7901898545
 20
7.5884768709
 30
0.0
 10
9.7841080318
 20
7.5938943128
 30
0.0
 10
9.7792425731
 20
7.5982282655
 30
0.0
 10
9.7755934804
 20
7.601478732
 30
0.0
 10
9.7719443825
 20
7.6047291909
 30
0.0
 10
9.768903484
 20
7.6074379302
 30
0.0
 10
9.7664707284
 20
7.609604869
 30
0.0
 10
9.7649503401
 20
7.6109593255
 30
0.0
 10
9.7637338371
 20
7.6120426166
 30
0.0
 10
9.7628219866
 20
7.6128558353
 30
0.0
 10
9.7620604353
 20
7.6135311304
 30
0.0
 10
9.7615306384
 20
7.6140085218
 30
0.0
 10
9.7612227618
 20
7.6142740018
 30
0.0
 10
9.7610063211
 20
7.6144937187
 30
0.0
 10
9.7607345812
 20
7.6146346657
 30
0.0
 10
9.7603915504
 20
7.6148500708
 30
0.0
 10
9.7597822593
 20
7.6152142283
 30
0.0
 10
9.7589165421
 20
7.6157411461
 30
0.0
 10
9.7578756703
 20
7.6163705827
 30
0.0
 10
9.7564885437
 20
7.6172108321
 30
0.0
 10
9.7547543949
 20
7.6182608012
 30
0.0
 10
9.7519798912
 20
7.6199409433
 30
0.0
 10
9.7485117155
 20
7.6220410552
 30
0.0
 10
9.7443499244
 20
7.6245612177
 30
0.0
 10
9.740188128
 20
7.6270813726
 30
0.0
 10
9.7346390681
 20
7.6304415818
 30
0.0
 10
9.7277027424
 20
7.6346418423
 30
0.0
 10
9.7207664172
 20
7.6388421036
 30
0.0
 10
9.7152173566
 20
7.6422023117
 30
0.0
 10
9.7110555621
 20
7.64472247
 30
0.0
 10
9.706893764
 20
7.6472426198
 30
0.0
 10
9.7034256102
 20
7.6493427711
 30
0.0
 10
9.7006510618
 20
7.6510228328
 30
0.0
 10
9.698917027
 20
7.6520730067
 30
0.0
 10
9.6975296663
 20
7.6529128357
 30
0.0
 10
9.6964895097
 20
7.6535435566
 30
0.0
 10
9.6956215547
 20
7.6540664562
 30
0.0
 10
9.6950162583
 20
7.6544377867
 30
0.0
 10
9.6946668271
 20
7.6546416989
 30
0.0
 10
9.6944147474
 20
7.6548179485
 30
0.0
 10
9.6941244664
 20
7.6549050747
 30
0.0
 10
9.6937507501
 20
7.6550523302
 30
0.0
 10
9.6930905383
 20
7.6552955433
 30
0.0
 10
9.6921506244
 20
7.6556505629
 30
0.0
 10
9.6910213384
 20
7.6560733452
 30
0.0
 10
9.6895161089
 20
7.6566381871
 30
0.0
 10
9.687634406
 20
7.6573438518
 30
0.0
 10
9.6846237741
 20
7.6584731319
 30
0.0
 10
9.6808604524
 20
7.6598846577
 30
0.0
 10
9.67634448
 20
7.6615785206
 30
0.0
 10
9.671828504
 20
7.663272375
 30
0.0
 10
9.6658072039
 20
7.6655308504
 30
0.0
 10
9.6582805783
 20
7.6683539436
 30
0.0
 10
9.6507539529
 20
7.6711770376
 30
0.0
 10
9.6447326524
 20
7.6734355118
 30
0.0
 10
9.6402166777
 20
7.6751293699
 30
0.0
 10
9.6357007002
 20
7.6768232188
 30
0.0
 10
9.6319373943
 20
7.678234788
 30
0.0
 10
9.6289267303
 20
7.6793639797
 30
0.0
 10
9.627045109
 20
7.6800698695
 30
0.0
 10
9.6255397119
 20
7.6806342493
 30
0.0
 10
9.6244109381
 20
7.6810584433
 30
0.0
 10
9.6234694217
 20
7.6814090461
 30
0.0
 10
9.6228120706
 20
7.681660144
 30
0.0
 10
9.6224337707
 20
7.6817947659
 30
0.0
 10
9.6221575692
 20
7.6819206987
 30
0.0
 10
9.6218526093
 20
7.681951197
 30
0.0
 10
9.6214560274
 20
7.6820251501
 30
0.0
 10
9.6207573353
 20
7.6821390581
 30
0.0
 10
9.6197616471
 20
7.6823098926
 30
0.0
 10
9.6185657755
 20
7.6825114231
 30
0.0
 10
9.6169716453
 20
7.6827813428
 30
0.0
 10
9.6149788574
 20
7.6831183274
 30
0.0
 10
9.6117904668
 20
7.6836577347
 30
0.0
 10
9.6078049545
 20
7.6843319141
 30
0.0
 10
9.60302235
 20
7.6851409636
 30
0.0
 10
9.5982397428
 20
7.685950004
 30
0.0
 10
9.5918629341
 20
7.6870287277
 30
0.0
 10
9.5838919229
 20
7.6883771312
 30
0.0
 10
9.5743267096
 20
7.6899952159
 30
0.0
 10
9.5615730919
 20
7.692152662
 30
0.0
 10
9.5520078786
 20
7.6937707466
 30
0.0
 10
9.5456310697
 20
7.6948494697
 30
0.0
  0
ENDSEC
  0
SECTION
  2
OBJECTS
  0
DICTIONARY
  5
C
100
AcDbDictionary
280
0
281
1
  3
ACAD_GROUP
350
D
  3
ACAD_MLINESTYLE
350
17
  3
ACAD_LAYOUT
350
1A
  3
ACAD_PLOTSETTINGS
350
19
  3
ACAD_PLOTSTYLENAME
350
E
  3
ACAD_IMAGE_DICT
350
       37A
  3
ACAD_IMAGE_VARS
350
       37B
  3
ACAD_TABLESTYLE
350
       37C
  0
IMAGEDEF_REACTOR
  5
379
100
AcDbRasterImageDefReactor
 90
2
330
287
  0
DICTIONARY
  5
D
102
{ACAD_REACTORS
330
C
102
}
100
AcDbDictionary
280
0
281
1
  0
ACDBDICTIONARYWDFLT
  5
E
102
{ACAD_REACTORS
330
C
102
}
100
AcDbDictionary
281
1
  3
Normal
350
F
100
AcDbDictionaryWithDefault
340
F
  0
DICTIONARY
  5
37A
330
C
100
AcDbDictionary
281
1
  3
CNW_assy_2_img_1
350
       37F
  0
RASTERVARIABLES
  5
37B
330
C
100
AcDbRasterVariables
 90
0
 70
0
 71
1
 72
5
  0
DICTIONARY
  5
17
102
{ACAD_REACTORS
330
C
102
}
100
AcDbDictionary
280
0
281
1
  3
Standard
350
18
  0
DICTIONARY
  5
37C
330
C
100
AcDbDictionary
281
1
  3
Standard
350
       380
  3
Standard1
350
       381
  0
DICTIONARY
  5
19
102
{ACAD_REACTORS
330
C
102
}
100
AcDbDictionary
281
1
  0
DICTIONARY
  5
1A
102
{ACAD_REACTORS
330
C
102
}
100
AcDbDictionary
281
1
  3
Model
350
37D
  3
Layout1
350
37E
  0
ACDBPLACEHOLDER
  5
F
102
{ACAD_REACTORS
330
E
102
}
  0
MLINESTYLE
  5
18
102
{ACAD_REACTORS
330
17
102
}
100
AcDbMlineStyle
  2
STANDARD
 70
0
  3

 62
256
 51
90.0
 52
90.0
 71
2
 49
0.5
 62
256
  6
BYLAYER
 49
-0.5
 62
256
  6
BYLAYER
  0
LAYOUT
  5
37D
102
{ACAD_REACTORS
330
1A
102
}
100
AcDbPlotSettings
  1

  2
none_device
  4
ANSI_C_(22.00_x_17.00_Inches)
  6

 40
0.0
 41
0.0
 42
0.0
 43
0.0
 44
558.8
 45
431.8
 46
0.0
 47
0.0
 48
0.0
 49
0.0
140
0.0
141
0.0
142
1.0
143
1.0
 70
1024
 72
0
 73
0
 74
0
  7

 75
0
147
1.0
148
0.0
149
0.0
100
AcDbLayout
  1
Model
 70
0
 71
0
 10
0.0
 20
0.0
 11
22.0
 21
17.0
 12
0.0
 22
0.0
 32
0.0
 14
0.0
 24
0.0
 34
0.0
 15
0.0
 25
0.0
 35
0.0
146
0.0
 13
0.0
 23
0.0
 33
0.0
 16
1.0
 26
0.0
 36
0.0
 17
0.0
 27
1.0
 37
0.0
 76
0
330
20C
345
0
346
0
  0
LAYOUT
  5
37E
102
{ACAD_REACTORS
330
1A
102
}
100
AcDbPlotSettings
  1

  2
none_device
  4
ANSI_C_(22.00_x_17.00_Inches)
  6

 40
0.0
 41
0.0
 42
0.0
 43
0.0
 44
558.8
 45
431.8
 46
0.0
 47
0.0
 48
0.0
 49
0.0
140
0.0
141
0.0
142
1.0
143
1.0
 70
0
 72
0
 73
0
 74
0
  7

 75
0
147
1.0
148
0.0
149
0.0
100
AcDbLayout
  1
Layout1
 70
0
 71
1
 10
0.0
 20
0.0
 11
22.0
 21
17.0
 12
0.0
 22
0.0
 32
0.0
 14
0.0
 24
0.0
 34
0.0
 15
0.0
 25
0.0
 35
0.0
146
0.0
 13
0.0
 23
0.0
 33
0.0
 16
1.0
 26
0.0
 36
0.0
 17
0.0
 27
1.0
 37
0.0
 76
0
330
20D
345
0
346
0
  0
IMAGEDEF
  5
37F
102
{ACAD_REACTORS
330
37A
330
379
102
}
100
AcDbRasterImageDef
 90
0
  1
CNW_assy_2_img_1.png
 10
369.0
 20
92.0
 11
0.0066666667
 21
0.0066666667
280
1
281
0
  0
TABLESTYLE
  5
380
102
{ACAD_REACTORS
330
37C
330
28A
330
28B
102
}
330
37C
100
AcDbTableStyle
  3
Standard
 70
0
 71
0
 40
0.06
 41
0.06
280
1
281
1
  7
Standard
140
0.18
170
1
 62
0
 63
7
283
0
  7
Standard
140
0.18
170
1
 62
0
 63
7
283
0
  7
Standard
140
0.18
170
1
 62
0
 63
7
283
0
  0
TABLESTYLE
  5
381
102
{ACAD_REACTORS
330
37C
330
289
102
}
330
37C
100
AcDbTableStyle
  3
Standard1
 70
1
 71
0
 40
0.06
 41
0.06
280
1
281
1
  7
Standard
140
0.18
170
1
 62
0
 63
7
283
0
  7
Standard
140
0.18
170
1
 62
0
 63
7
283
0
  7
Standard
140
0.18
170
1
 62
0
 63
7
283
0
  0
ENDSEC
  0
EOF
