999
DXF file: CNI_assy_2.dxf
999
Pro/ENGINEER 2014200 by Parametric Technology Corporation
  0
SECTION
  2
HEADER
  9
$ACADVER
  1
AC1021
  9
$DWGCODEPAGE
  3
ANSI_1252
  9
$EXTMAX
 10
22.0
 20
17.0
 30
0.0
  9
$EXTMIN
 10
0.0
 20
0.0
 30
0.0
  9
$LIMMIN
 10
0.0
 20
0.0
  9
$LIMMAX
 10
22.0
 20
17.0
  9
$VIEWCTR
 10
11.0
 20
8.5
  9
$VIEWSIZE
 40
17.0
  9
$CLAYER
  8
0
  9
$LTSCALE
 40
1.21
  9
$CELTYPE
  6
BYLAYER
  9
$DIMSCALE
 40
1.0
  9
$DIMASZ
 40
0.1875
  9
$DIMEXO
 40
0.0625
  9
$DIMDLI
 40
0.836
  9
$DIMEXE
 40
0.125
  9
$DIMCEN
 40
0.198
  9
$DIMLFAC
 40
1.0
  9
$DIMBLK
  1
_FILLED
  9
$DIMTXT
 40
0.1
  9
$DIMTOL
 70
0
  9
$DIMLIM
 70
0
  9
$DIMTFAC
 40
1.0
  9
$DIMGAP
 40
0.09
  9
$DIMDSEP
 70
46
  9
$AUNITS
 70
0
  9
$PDMODE
 70
3
  9
$PDSIZE
 40
0.3125
  9
$HANDSEED
  5
368
  9
$TILEMODE
 70
1
  9
$MEASUREMENT
 70
0
  9
$INSUNITS
 70
1
  0
ENDSEC
  0
SECTION
  2
CLASSES
  0
CLASS
  1
ACDBDICTIONARYWDFLT
  2
AcDbDictionaryWithDefault
  3
AutoCAD 2000
 90
0
 91
1
280
0
281
0
  0
CLASS
  1
ACDBPLACEHOLDER
  2
AcDbPlaceHolder
  3
AutoCAD 2000
 90
0
 91
1
280
0
281
0
  0
CLASS
  1
LAYOUT
  2
AcDbLayout
  3
AutoCAD 2000
 90
0
 91
0
280
0
281
0
  0
CLASS
  1
RASTERVARIABLES
  2
AcDbRasterVariables
  3
ISM
 90
0
 91
1
280
0
281
0
  0
CLASS
  1
IMAGEDEF
  2
AcDbRasterImageDef
  3
ISM
 90
0
 91
1
280
0
281
0
  0
CLASS
  1
IMAGEDEF_REACTOR
  2
AcDbRasterImageDefReactor
  3
ISM
 90
0
 91
1
280
0
281
0
  0
CLASS
  1
IMAGE
  2
AcDbRasterImage
  3
ISM
 90
127
 91
1
280
0
281
1
  0
CLASS
  1
TABLESTYLE
  2
AcDbTableStyle
  3
ObjectDBX Classes
 90
2047
 91
1
280
0
281
0
  0
CLASS
  1
ACAD_TABLE
  2
AcDbTable
  3
ObjectDBX Classes
 90
1025
 91
3
280
0
281
1
  0
ENDSEC
  0
SECTION
  2
TABLES
  0
TABLE
  2
VPORT
  5
8
100
AcDbSymbolTable
 70
2
  0
VPORT
  5
1F4
100
AcDbSymbolTableRecord
100
AcDbViewportTableRecord
  2
*ACTIVE
 70
0
 10
0.0
 20
0.0
 11
1.0
 21
1.0
 12
11.0
 22
8.5
 13
0.0
 23
0.0
 14
1.0
 24
1.0
 15
0.0
 25
0.0
 16
0.0
 26
0.0
 36
1.0
 17
0.0
 27
0.0
 37
0.0
 40
17.0
 41
1.2941176471
 42
50.0
 43
0.0
 44
0.0
 50
0.0
 51
0.0
 71
0
 72
100
 73
1
 74
1
 75
0
 76
0
 77
0
 78
0
  0
ENDTAB
  0
TABLE
  2
LTYPE
  5
5
100
AcDbSymbolTable
 70
6
  0
LTYPE
  5
14
100
AcDbSymbolTableRecord
100
AcDbLinetypeTableRecord
  2
BYBLOCK
 70
0
  3

 72
65
 73
0
 40
0.0
  0
LTYPE
  5
15
100
AcDbSymbolTableRecord
100
AcDbLinetypeTableRecord
  2
BYLAYER
 70
0
  3

 72
65
 73
0
 40
0.0
  0
LTYPE
  5
16
100
AcDbSymbolTableRecord
100
AcDbLinetypeTableRecord
  2
CONTINUOUS
 70
64
  3
Solid line
 72
65
 73
0
 40
0.0
  0
LTYPE
  5
1F5
100
AcDbSymbolTableRecord
100
AcDbLinetypeTableRecord
  2
CENTER
 70
64
  3
____ _ ____ _ ____ _ ____ _ ____ _ ____ _ ____
 72
65
 73
4
 40
0.6
 49
0.375
 74
0
 49
-0.075
 74
0
 49
0.075
 74
0
 49
-0.075
 74
0
  0
LTYPE
  5
1F6
100
AcDbSymbolTableRecord
100
AcDbLinetypeTableRecord
  2
HIDDEN
 70
64
  3
- - - - - - - - - - - - - - - - - - - -
 72
65
 73
2
 40
0.2
 49
0.1
 74
0
 49
-0.1
 74
0
  0
LTYPE
  5
1F7
100
AcDbSymbolTableRecord
100
AcDbLinetypeTableRecord
  2
PHANTOM
 70
64
  3
_____ _ _ _____ _ _ _____ _ _ _____
 72
65
 73
6
 40
0.8
 49
0.45
 74
0
 49
-0.05
 74
0
 49
0.1
 74
0
 49
-0.05
 74
0
 49
0.1
 74
0
 49
-0.05
 74
0
  0
LTYPE
  5
1F8
100
AcDbSymbolTableRecord
100
AcDbLinetypeTableRecord
  2
DOT
 70
64
  3
. . . . . . . . . . . . . . . . . . . .
 72
65
 73
2
 40
0.2
 49
0.1
 74
0
 49
-0.1
 74
0
  0
LTYPE
  5
1F9
100
AcDbSymbolTableRecord
100
AcDbLinetypeTableRecord
  2
DASHED
 70
64
  3
- - - - - - - - - - - - - - - - - - - -
 72
65
 73
2
 40
0.2
 49
0.1
 74
0
 49
-0.1
 74
0
  0
ENDTAB
  0
TABLE
  2
LAYER
  5
2
100
AcDbSymbolTable
 70
36
  0
LAYER
  5
10
100
AcDbSymbolTableRecord
100
AcDbLayerTableRecord
  2
0
 70
0
 62
7
  6
CONTINUOUS
370
-3
390
F
  0
LAYER
  5
1FA
100
AcDbSymbolTableRecord
100
AcDbLayerTableRecord
  2
DEFAULT_1
 70
0
 62
7
  6
CENTER
370
-3
390
F
  0
LAYER
  5
1FB
100
AcDbSymbolTableRecord
100
AcDbLayerTableRecord
  2
DEFAULT_2
 70
0
 62
8
  6
HIDDEN
370
-3
390
F
  0
LAYER
  5
1FC
100
AcDbSymbolTableRecord
100
AcDbLayerTableRecord
  2
DEFAULT_3
 70
0
 62
7
  6
PHANTOM
370
-3
390
F
  0
LAYER
  5
1FD
100
AcDbSymbolTableRecord
100
AcDbLayerTableRecord
  2
01___PRT_ALL_DTM_PLN
 70
0
 62
7
  6
CONTINUOUS
370
-3
390
F
  0
LAYER
  5
1FE
100
AcDbSymbolTableRecord
100
AcDbLayerTableRecord
  2
01___PRT_DEF_DTM_PLN
 70
0
 62
7
  6
CONTINUOUS
370
-3
390
F
  0
LAYER
  5
1FF
100
AcDbSymbolTableRecord
100
AcDbLayerTableRecord
  2
02___PRT_ALL_AXES
 70
0
 62
7
  6
CONTINUOUS
370
-3
390
F
  0
LAYER
  5
200
100
AcDbSymbolTableRecord
100
AcDbLayerTableRecord
  2
03___PRT_ALL_CURVES
 70
0
 62
7
  6
CONTINUOUS
370
-3
390
F
  0
LAYER
  5
201
100
AcDbSymbolTableRecord
100
AcDbLayerTableRecord
  2
04___PRT_ALL_DTM_PNT
 70
0
 62
7
  6
CONTINUOUS
370
-3
390
F
  0
LAYER
  5
202
100
AcDbSymbolTableRecord
100
AcDbLayerTableRecord
  2
05___PRT_ALL_DTM_CSYS
 70
0
 62
7
  6
CONTINUOUS
370
-3
390
F
  0
LAYER
  5
203
100
AcDbSymbolTableRecord
100
AcDbLayerTableRecord
  2
05___PRT_DEF_DTM_CSYS
 70
0
 62
7
  6
CONTINUOUS
370
-3
390
F
  0
LAYER
  5
204
100
AcDbSymbolTableRecord
100
AcDbLayerTableRecord
  2
06___PRT_ALL_SURFS
 70
0
 62
7
  6
CONTINUOUS
370
-3
390
F
  0
LAYER
  5
205
100
AcDbSymbolTableRecord
100
AcDbLayerTableRecord
  2
DATUM_PLANES
 70
0
 62
7
  6
CONTINUOUS
370
-3
390
F
  0
LAYER
  5
206
100
AcDbSymbolTableRecord
100
AcDbLayerTableRecord
  2
PORT_AREAS
 70
0
 62
7
  6
CONTINUOUS
370
-3
390
F
  0
LAYER
  5
207
100
AcDbSymbolTableRecord
100
AcDbLayerTableRecord
  2
SUNNBOMCOSMETIC
 70
0
 62
7
  6
CONTINUOUS
370
-3
390
F
  0
LAYER
  5
208
100
AcDbSymbolTableRecord
100
AcDbLayerTableRecord
  2
SUNNBOMSTAMPING
 70
0
 62
7
  6
CONTINUOUS
370
-3
390
F
  0
LAYER
  5
209
100
AcDbSymbolTableRecord
100
AcDbLayerTableRecord
  2
THREADS
 70
0
 62
7
  6
CONTINUOUS
370
-3
390
F
  0
ENDTAB
  0
TABLE
  2
STYLE
  5
3
100
AcDbSymbolTable
 70
1
  0
STYLE
  5
11
100
AcDbSymbolTableRecord
100
AcDbTextStyleTableRecord
  2
STANDARD
 70
0
 40
0.0
 41
0.8
 50
0.0
 71
0
 42
0.2
  3
txt
  4

  0
STYLE
  5
20A
100
AcDbSymbolTableRecord
100
AcDbTextStyleTableRecord
  2
TEXTSTYLE_1
 70
0
 40
0.0
 41
0.8
 50
0.0
 71
0
 42
0.2
  3
gdt
  4

  0
ENDTAB
  0
TABLE
  2
VIEW
  5
6
100
AcDbSymbolTable
 70
0
  0
ENDTAB
  0
TABLE
  2
UCS
  5
7
100
AcDbSymbolTable
 70
0
  0
ENDTAB
  0
TABLE
  2
APPID
  5
9
100
AcDbSymbolTable
 70
1
  0
APPID
  5
20B
100
AcDbSymbolTableRecord
100
AcDbRegAppTableRecord
  2
ACAD
 70
0
  0
ENDTAB
  0
TABLE
  2
BLOCK_RECORD
  5
1
100
AcDbSymbolTable
 70
0
  0
BLOCK_RECORD
  5
20C
100
AcDbSymbolTableRecord
100
AcDbBlockTableRecord
  2
*Model_Space
  0
BLOCK_RECORD
  5
20D
100
AcDbSymbolTableRecord
100
AcDbBlockTableRecord
  2
*Paper_Space
  0
BLOCK_RECORD
  5
20E
100
AcDbSymbolTableRecord
100
AcDbBlockTableRecord
  2
SUN_FIRST_THIRD_ANGLE_BL0
  0
BLOCK_RECORD
  5
20F
100
AcDbSymbolTableRecord
100
AcDbBlockTableRecord
  2
*T1
  0
BLOCK_RECORD
  5
210
100
AcDbSymbolTableRecord
100
AcDbBlockTableRecord
  2
*T2
  0
BLOCK_RECORD
  5
211
100
AcDbSymbolTableRecord
100
AcDbBlockTableRecord
  2
*T3
  0
ENDTAB
  0
TABLE
  2
DIMSTYLE
  5
A
100
AcDbSymbolTable
 70
1
100
AcDbDimStyleTable
 71
0
  0
DIMSTYLE
105
212
100
AcDbSymbolTableRecord
100
AcDbDimStyleTableRecord
  2
STANDARD
 70
0
  3

  4

 40
1.0
 41
0.1875
 42
0.0625
 43
0.38
 44
0.125
 45
0.0
 46
0.0
 47
0.001
 48
0.001
140
0.1
141
0.09
142
0.0
143
25.4
144
1.0
145
0.0
146
1.0
147
0.09
 71
0.0
 72
0.0
 73
1
 74
1
 75
0
 76
0
 77
0
 78
4
170
0
171
2
172
0
173
0
174
0
175
0
176
0
177
0
178
0
270
2
271
3
272
3
273
2
274
2
275
0
280
0
281
0
282
0
283
1
284
4
285
0
286
0
287
3
288
0
340
11
278
46
  0
ENDTAB
  0
ENDSEC
  0
SECTION
  2
BLOCKS
  0
BLOCK
  5
20
100
AcDbEntity
  8
0
100
AcDbBlockBegin
  2
*Model_Space
 70
0
 10
0.0
 20
0.0
 30
0.0
  3
*Model_Space
  1

  0
ENDBLK
  5
21
100
AcDbEntity
  8
0
100
AcDbBlockEnd
  0
BLOCK
  5
1C
100
AcDbEntity
  8
0
100
AcDbBlockBegin
  2
*Paper_Space
 70
0
 10
0.0
 20
0.0
 30
0.0
  3
*Paper_Space
  1

  0
ENDBLK
  5
1D
100
AcDbEntity
  8
0
100
AcDbBlockEnd
  0
BLOCK
  5
213
100
AcDbEntity
  8
0
100
AcDbBlockBegin
 62
2
  6
CONTINUOUS
  2
SUN_FIRST_THIRD_ANGLE_BL0
 70
64
 10
20.4816717061
 20
1.2289683772
  3
SUN_FIRST_THIRD_ANGLE_BL0
  1

  0
TEXT
  5
214
100
AcDbEntity
  8
0
100
AcDbText
 62
2
  6
CONTINUOUS
 10
19.4750896608
 20
1.4136269581
  7
STANDARD
 40
0.08
  1
FIRST ANGLE
 41
0.8
 72
0
100
AcDbText
  0
TEXT
  5
215
100
AcDbEntity
  8
0
100
AcDbText
 62
2
  6
CONTINUOUS
 10
20.7842537513
 20
1.4047600029
  7
STANDARD
 40
0.08
  1
THIRD ANGLE
 41
0.8
 72
0
100
AcDbText
  0
LINE
  5
216
100
AcDbEntity
  8
0
100
AcDbLine
 62
7
  6
CONTINUOUS
 10
19.4767170086
 20
1.1727031207
 11
19.6334271527
 21
1.1717972817
  0
LINE
  5
217
100
AcDbEntity
  8
0
100
AcDbLine
 62
7
  6
CONTINUOUS
 10
19.6596964832
 20
1.1717972817
 11
19.6950230232
 21
1.171593082
  0
LINE
  5
218
100
AcDbEntity
  8
0
100
AcDbLine
 62
7
  6
CONTINUOUS
 10
19.7194818561
 20
1.1708914427
 11
19.8852396156
 21
1.1699333054
  0
LINE
  5
219
100
AcDbEntity
  8
0
100
AcDbLine
 62
7
  6
CONTINUOUS
 10
19.4758111696
 20
1.2723454088
 11
19.88525039
 21
1.3511534004
  0
LINE
  5
21A
100
AcDbEntity
  8
0
100
AcDbLine
 62
7
  6
CONTINUOUS
 10
19.88525039
 20
1.3511534004
 11
19.8831348489
 21
0.9851647912
  0
LINE
  5
21B
100
AcDbEntity
  8
0
100
AcDbLine
 62
7
  6
CONTINUOUS
 10
19.8831348489
 20
0.9851647912
 11
19.4767170086
 21
1.0658141206
  0
LINE
  5
21C
100
AcDbEntity
  8
0
100
AcDbLine
 62
7
  6
CONTINUOUS
 10
19.4767170086
 20
1.0658141206
 11
19.4779056764
 21
1.2714536432
  0
CIRCLE
  5
21D
100
AcDbEntity
  8
0
100
AcDbCircle
 62
7
  6
CONTINUOUS
 10
20.2068232291
 20
1.1717972817
 40
0.175742101
  0
CIRCLE
  5
21E
100
AcDbEntity
  8
0
100
AcDbCircle
 62
7
  6
CONTINUOUS
 10
20.2068232291
 20
1.1717972817
 40
0.1005522074
  0
LINE
  5
21F
100
AcDbEntity
  8
0
100
AcDbLine
 62
7
  6
CONTINUOUS
 10
20.2077290681
 20
1.3756110529
 11
20.2071171714
 21
1.2379342989
  0
LINE
  5
220
100
AcDbEntity
  8
0
100
AcDbLine
 62
7
  6
CONTINUOUS
 10
20.2077290681
 20
1.2016899681
 11
20.2074674401
 21
1.1428236749
  0
LINE
  5
221
100
AcDbEntity
  8
0
100
AcDbLine
 62
7
  6
CONTINUOUS
 10
20.208634907
 20
1.101141841
 11
20.2080230104
 21
0.963465087
  0
LINE
  5
222
100
AcDbEntity
  8
0
100
AcDbLine
 62
7
  6
CONTINUOUS
 10
20.0066328138
 20
1.1745147986
 11
20.1443095678
 21
1.1739029019
  0
LINE
  5
223
100
AcDbEntity
  8
0
100
AcDbLine
 62
7
  6
CONTINUOUS
 10
20.1832714155
 20
1.1727031207
 11
20.238153505
 21
1.172335442
  0
LINE
  5
224
100
AcDbEntity
  8
0
100
AcDbLine
 62
7
  6
CONTINUOUS
 10
20.2756669918
 20
1.1717972817
 11
20.407916871
 21
1.1712095044
  0
CIRCLE
  5
225
100
AcDbEntity
  8
0
100
AcDbCircle
 62
7
  6
CONTINUOUS
 10
20.7509457401
 20
1.1693297793
 40
0.1722024983
  0
CIRCLE
  5
226
100
AcDbEntity
  8
0
100
AcDbCircle
 62
7
  6
CONTINUOUS
 10
20.7509457401
 20
1.1693297793
 40
0.0985164967
  0
LINE
  5
227
100
AcDbEntity
  8
0
100
AcDbLine
 62
7
  6
CONTINUOUS
 10
20.7169767782
 20
1.170462078
 11
20.7825395137
 21
1.1682766535
  0
LINE
  5
228
100
AcDbEntity
  8
0
100
AcDbLine
 62
7
  6
CONTINUOUS
 10
20.8177513651
 20
1.1693297793
 11
20.947965719
 21
1.1693297793
  0
LINE
  5
229
100
AcDbEntity
  8
0
100
AcDbLine
 62
7
  6
CONTINUOUS
 10
20.6875370113
 20
1.170462078
 11
20.5573226574
 21
1.170462078
  0
LINE
  5
22A
100
AcDbEntity
  8
0
100
AcDbLine
 62
7
  6
CONTINUOUS
 10
20.7486811426
 20
1.1987695462
 11
20.7486811426
 21
1.1432869085
  0
LINE
  5
22B
100
AcDbEntity
  8
0
100
AcDbLine
 62
7
  6
CONTINUOUS
 10
20.7498134414
 20
1.1059210505
 11
20.7498134414
 21
0.9757066966
  0
LINE
  5
22C
100
AcDbEntity
  8
0
100
AcDbLine
 62
7
  6
CONTINUOUS
 10
20.7486811426
 20
1.2338708068
 11
20.7486811426
 21
1.3640851607
  0
LINE
  5
22D
100
AcDbEntity
  8
0
100
AcDbLine
 62
7
  6
CONTINUOUS
 10
21.0702539817
 20
1.2701043662
 11
21.4790138229
 21
1.3448360823
  0
LINE
  5
22E
100
AcDbEntity
  8
0
100
AcDbLine
 62
7
  6
CONTINUOUS
 10
21.4790138229
 20
1.3448360823
 11
21.4790138229
 21
0.9779712941
  0
LINE
  5
22F
100
AcDbEntity
  8
0
100
AcDbLine
 62
7
  6
CONTINUOUS
 10
21.4790138229
 20
0.9779712941
 11
21.069121683
 21
1.0617614
  0
LINE
  5
230
100
AcDbEntity
  8
0
100
AcDbLine
 62
7
  6
CONTINUOUS
 10
21.0702539817
 20
1.2701043662
 11
21.069121683
 21
1.0617614
  0
LINE
  5
231
100
AcDbEntity
  8
0
100
AcDbLine
 62
7
  6
CONTINUOUS
 10
21.4790138229
 20
1.1693297793
 11
21.3159628059
 21
1.1693297793
  0
LINE
  5
232
100
AcDbEntity
  8
0
100
AcDbLine
 62
7
  6
CONTINUOUS
 10
21.2876553377
 20
1.1693297793
 11
21.2502894796
 21
1.1693297793
  0
LINE
  5
233
100
AcDbEntity
  8
0
100
AcDbLine
 62
7
  6
CONTINUOUS
 10
21.2208497126
 20
1.1659328831
 11
21.0713862804
 21
1.1659328831
  0
LINE
  5
234
100
AcDbEntity
  8
0
100
AcDbLine
 62
7
  6
CONTINUOUS
 10
20.4796138713
 20
1.5284908897
 11
20.4766766948
 21
0.9294458646
  0
ENDBLK
  5
235
100
AcDbEntity
  8
0
  6
BYBLOCK
 62
0
100
AcDbBlockEnd
  0
BLOCK
  5
236
100
AcDbEntity
  8
0
100
AcDbBlockBegin
  2
*T1
 70
1
 10
0.0
 20
0.0
  3
*T1
  1

  0
LINE
  5
237
100
AcDbEntity
  8
0
100
AcDbLine
 62
2
  6
CONTINUOUS
 10
9.275
 20
0.0
 11
-0.0
 21
0.0
  0
LINE
  5
238
100
AcDbEntity
  8
0
100
AcDbLine
 62
2
  6
CONTINUOUS
 10
9.275
 20
0.0
 11
9.275
 21
1.25
  0
LINE
  5
239
100
AcDbEntity
  8
0
100
AcDbLine
 62
2
  6
CONTINUOUS
 10
9.275
 20
0.625
 11
-0.0
 21
0.625
  0
LINE
  5
23A
100
AcDbEntity
  8
0
100
AcDbLine
 62
2
  6
CONTINUOUS
 10
9.275
 20
1.25
 11
-0.0
 21
1.25
  0
LINE
  5
23B
100
AcDbEntity
  8
0
100
AcDbLine
 62
2
  6
CONTINUOUS
 10
6.8
 20
0.0
 11
6.8
 21
1.25
  0
LINE
  5
23C
100
AcDbEntity
  8
0
100
AcDbLine
 62
2
  6
CONTINUOUS
 10
6.4
 20
0.0
 11
6.4
 21
0.625
  0
LINE
  5
23D
100
AcDbEntity
  8
0
100
AcDbLine
 62
2
  6
CONTINUOUS
 10
5.9
 20
0.0
 11
5.9
 21
0.625
  0
LINE
  5
23E
100
AcDbEntity
  8
0
100
AcDbLine
 62
2
  6
CONTINUOUS
 10
5.2
 20
0.0
 11
5.2
 21
0.625
  0
LINE
  5
23F
100
AcDbEntity
  8
0
100
AcDbLine
 62
2
  6
CONTINUOUS
 10
4.1
 20
0.0
 11
4.1
 21
1.25
  0
LINE
  5
240
100
AcDbEntity
  8
0
100
AcDbLine
 62
2
  6
CONTINUOUS
 10
-0.0
 20
0.0
 11
-0.0
 21
1.25
  0
MTEXT
  5
241
100
AcDbEntity
  8
0
100
AcDbMText
 62
2
  6
CONTINUOUS
  7
STANDARD
 71
2
 72
1
 10
6.6
 20
0.325
 30
0.0
 11
1.0
 21
0.0
 31
0.0
 44
0.9
  1
2
 40
0.125
 41
0.2
  0
MTEXT
  5
242
100
AcDbEntity
  8
0
100
AcDbMText
 62
2
  6
CONTINUOUS
  7
STANDARD
 71
2
 72
1
 10
6.15
 20
0.325
 30
0.0
 11
1.0
 21
0.0
 31
0.0
 44
0.9
  1
C
 40
0.125
 41
0.2
  0
MTEXT
  5
243
100
AcDbEntity
  8
0
100
AcDbMText
 62
2
  6
CONTINUOUS
  7
STANDARD
 71
2
 72
1
 10
5.55
 20
0.325
 30
0.0
 11
1.0
 21
0.0
 31
0.0
 44
0.9
  1
2.000
 40
0.125
 41
1.0
  0
MTEXT
  5
244
100
AcDbEntity
  8
0
100
AcDbMText
 62
2
  6
CONTINUOUS
  7
STANDARD
 71
2
 72
1
 10
4.65
 20
0.325
 30
0.0
 11
1.0
 21
0.0
 31
0.0
 44
0.9
  1
Apr-04-24
 40
0.125
 41
1.8
  0
MTEXT
  5
245
100
AcDbEntity
  8
0
100
AcDbMText
 62
2
  6
CONTINUOUS
  7
STANDARD
 71
2
 72
1
 10
2.05
 20
0.4625
 30
0.0
 11
1.0
 21
0.0
 31
0.0
 44
0.9
  1
T-3A Line mount\PNinety degree with reverse flow check
 40
0.125
 41
7.4
  0
MTEXT
  5
246
100
AcDbEntity
  8
0
100
AcDbMText
 62
2
  6
CONTINUOUS
  7
STANDARD
 71
1
 72
1
 10
6.45
 20
0.5625
 30
0.0
 11
1.0
 21
0.0
 31
0.0
 44
0.9
  1
SHEET
 40
0.06
 41
0.48
  0
MTEXT
  5
247
100
AcDbEntity
  8
0
100
AcDbMText
 62
2
  6
CONTINUOUS
  7
STANDARD
 71
1
 72
1
 10
5.95
 20
0.5625
 30
0.0
 11
1.0
 21
0.0
 31
0.0
 44
0.9
  1
DWG SIZE
 40
0.06
 41
0.768
  0
MTEXT
  5
248
100
AcDbEntity
  8
0
100
AcDbMText
 62
2
  6
CONTINUOUS
  7
STANDARD
 71
1
 72
1
 10
5.25
 20
0.5625
 30
0.0
 11
1.0
 21
0.0
 31
0.0
 44
0.9
  1
SCALE
 40
0.06
 41
0.48
  0
MTEXT
  5
249
100
AcDbEntity
  8
0
100
AcDbMText
 62
2
  6
CONTINUOUS
  7
STANDARD
 71
1
 72
1
 10
4.15
 20
0.5625
 30
0.0
 11
1.0
 21
0.0
 31
0.0
 44
0.9
  1
DATE
 40
0.06
 41
0.384
  0
MTEXT
  5
24A
100
AcDbEntity
  8
0
100
AcDbMText
 62
2
  6
CONTINUOUS
  7
STANDARD
 71
1
 72
1
 10
0.05
 20
0.5625
 30
0.0
 11
1.0
 21
0.0
 31
0.0
 44
0.9
  1
DESCRIPTION
 40
0.06
 41
1.056
  0
MTEXT
  5
24B
100
AcDbEntity
  8
0
100
AcDbMText
 62
2
  6
CONTINUOUS
  7
STANDARD
 71
2
 72
1
 10
5.45
 20
1.0375
 30
0.0
 11
1.0
 21
0.0
 31
0.0
 44
0.9
  1
ALL DIMENSIONS IN INCH\PVIEWS ARE THIRD ANGLE
 40
0.12
 41
4.224
  0
MTEXT
  5
24C
100
AcDbEntity
  8
0
100
AcDbMText
 62
2
  6
CONTINUOUS
  7
STANDARD
 71
2
 72
1
 10
2.05
 20
0.95
 30
0.0
 11
1.0
 21
0.0
 31
0.0
 44
0.9
  1
CNI
 40
0.125
 41
0.6
  0
MTEXT
  5
24D
100
AcDbEntity
  8
0
100
AcDbMText
 62
2
  6
CONTINUOUS
  7
STANDARD
 71
1
 72
1
 10
0.05
 20
1.1875
 30
0.0
 11
1.0
 21
0.0
 31
0.0
 44
0.9
  1
MODEL
 40
0.06
 41
0.48
  0
ENDBLK
  5
24E
100
AcDbEntity
  8
0
  6
BYBLOCK
 62
0
100
AcDbBlockEnd
  0
BLOCK
  5
24F
100
AcDbEntity
  8
0
100
AcDbBlockBegin
  2
*T2
 70
1
 10
0.0
 20
0.0
  3
*T2
  1

  0
LINE
  5
250
100
AcDbEntity
  8
0
100
AcDbLine
 62
2
  6
CONTINUOUS
 10
0.0
 20
0.0
 11
9.055
 21
0.0
  0
LINE
  5
251
100
AcDbEntity
  8
0
100
AcDbLine
 62
2
  6
CONTINUOUS
 10
0.0
 20
0.0
 11
0.0
 21
-2.844
  0
LINE
  5
252
100
AcDbEntity
  8
0
100
AcDbLine
 62
2
  6
CONTINUOUS
 10
0.0
 20
-0.344
 11
9.055
 21
-0.344
  0
LINE
  5
253
100
AcDbEntity
  8
0
100
AcDbLine
 62
2
  6
CONTINUOUS
 10
0.0
 20
-0.594
 11
9.055
 21
-0.594
  0
LINE
  5
254
100
AcDbEntity
  8
0
100
AcDbLine
 62
2
  6
CONTINUOUS
 10
0.0
 20
-0.844
 11
9.055
 21
-0.844
  0
LINE
  5
255
100
AcDbEntity
  8
0
100
AcDbLine
 62
2
  6
CONTINUOUS
 10
0.0
 20
-1.094
 11
9.055
 21
-1.094
  0
LINE
  5
256
100
AcDbEntity
  8
0
100
AcDbLine
 62
2
  6
CONTINUOUS
 10
0.0
 20
-1.344
 11
9.055
 21
-1.344
  0
LINE
  5
257
100
AcDbEntity
  8
0
100
AcDbLine
 62
2
  6
CONTINUOUS
 10
0.0
 20
-1.594
 11
9.055
 21
-1.594
  0
LINE
  5
258
100
AcDbEntity
  8
0
100
AcDbLine
 62
2
  6
CONTINUOUS
 10
0.0
 20
-1.844
 11
9.055
 21
-1.844
  0
LINE
  5
259
100
AcDbEntity
  8
0
100
AcDbLine
 62
2
  6
CONTINUOUS
 10
0.0
 20
-2.094
 11
9.055
 21
-2.094
  0
LINE
  5
25A
100
AcDbEntity
  8
0
100
AcDbLine
 62
2
  6
CONTINUOUS
 10
0.0
 20
-2.344
 11
9.055
 21
-2.344
  0
LINE
  5
25B
100
AcDbEntity
  8
0
100
AcDbLine
 62
2
  6
CONTINUOUS
 10
0.0
 20
-2.594
 11
9.055
 21
-2.594
  0
LINE
  5
25C
100
AcDbEntity
  8
0
100
AcDbLine
 62
2
  6
CONTINUOUS
 10
0.0
 20
-2.844
 11
9.055
 21
-2.844
  0
LINE
  5
25D
100
AcDbEntity
  8
0
100
AcDbLine
 62
2
  6
CONTINUOUS
 10
3.055
 20
0.0
 11
3.055
 21
-2.844
  0
LINE
  5
25E
100
AcDbEntity
  8
0
100
AcDbLine
 62
2
  6
CONTINUOUS
 10
9.055
 20
0.0
 11
9.055
 21
-2.844
  0
MTEXT
  5
25F
100
AcDbEntity
  8
0
100
AcDbMText
 62
2
  6
CONTINUOUS
  7
STANDARD
 71
2
 72
1
 10
1.5275
 20
-0.0995
 30
0.0
 11
1.0
 21
0.0
 31
0.0
 44
0.9
  1
Technical Data
 40
0.145
 41
3.248
  0
MTEXT
  5
260
100
AcDbEntity
  8
0
100
AcDbMText
 62
2
  6
CONTINUOUS
  7
STANDARD
 71
2
 72
1
 10
4.555
 20
-0.0995
 30
0.0
 11
1.0
 21
0.0
 31
0.0
 44
0.9
  1
U.S. Units
 40
0.145
 41
2.32
  0
MTEXT
  5
261
100
AcDbEntity
  8
0
100
AcDbMText
 62
2
  6
CONTINUOUS
  7
STANDARD
 71
2
 72
1
 10
7.555
 20
-0.0995
 30
0.0
 11
1.0
 21
0.0
 31
0.0
 44
0.9
  1
Metric Units
 40
0.145
 41
2.784
  0
MTEXT
  5
262
100
AcDbEntity
  8
0
100
AcDbMText
 62
2
  6
CONTINUOUS
  7
STANDARD
 71
2
 72
1
 10
1.5275
 20
-0.4065
 30
0.0
 11
1.0
 21
0.0
 31
0.0
 44
0.9
  1
Cavity
 40
0.125
 41
1.2
  0
MTEXT
  5
263
100
AcDbEntity
  8
0
100
AcDbMText
 62
2
  6
CONTINUOUS
  7
STANDARD
 71
2
 72
1
 10
6.055
 20
-0.4065
 30
0.0
 11
1.0
 21
0.0
 31
0.0
 44
0.9
  1
T-3A
 40
0.125
 41
0.8
  0
MTEXT
  5
264
100
AcDbEntity
  8
0
100
AcDbMText
 62
2
  6
CONTINUOUS
  7
STANDARD
 71
2
 72
1
 10
1.5275
 20
-0.6565
 30
0.0
 11
1.0
 21
0.0
 31
0.0
 44
0.9
  1
Body Features
 40
0.125
 41
2.6
  0
MTEXT
  5
265
100
AcDbEntity
  8
0
100
AcDbMText
 62
2
  6
CONTINUOUS
  7
STANDARD
 71
2
 72
1
 10
6.055
 20
-0.6565
 30
0.0
 11
1.0
 21
0.0
 31
0.0
 44
0.9
  1
Ninety degree with reverse flow check
 40
0.125
 41
7.4
  0
MTEXT
  5
266
100
AcDbEntity
  8
0
100
AcDbMText
 62
2
  6
CONTINUOUS
  7
STANDARD
 71
2
 72
1
 10
1.5275
 20
-0.9065
 30
0.0
 11
1.0
 21
0.0
 31
0.0
 44
0.9
  1
Body Type
 40
0.125
 41
1.8
  0
MTEXT
  5
267
100
AcDbEntity
  8
0
100
AcDbMText
 62
2
  6
CONTINUOUS
  7
STANDARD
 71
2
 72
1
 10
6.055
 20
-0.9065
 30
0.0
 11
1.0
 21
0.0
 31
0.0
 44
0.9
  1
Line mount
 40
0.125
 41
2.0
  0
MTEXT
  5
268
100
AcDbEntity
  8
0
100
AcDbMText
 62
2
  6
CONTINUOUS
  7
STANDARD
 71
2
 72
1
 10
1.5275
 20
-1.1565
 30
0.0
 11
1.0
 21
0.0
 31
0.0
 44
0.9
  1
Interface
 40
0.125
 41
1.8
  0
MTEXT
  5
269
100
AcDbEntity
  8
0
100
AcDbMText
 62
2
  6
CONTINUOUS
  7
STANDARD
 71
2
 72
1
 10
6.055
 20
-1.1565
 30
0.0
 11
1.0
 21
0.0
 31
0.0
 44
0.9
  1
None
 40
0.125
 41
0.8
  0
MTEXT
  5
26A
100
AcDbEntity
  8
0
100
AcDbMText
 62
2
  6
CONTINUOUS
  7
STANDARD
 71
2
 72
1
 10
1.5275
 20
-1.4065
 30
0.0
 11
1.0
 21
0.0
 31
0.0
 44
0.9
  1
Open Cavity Quantity
 40
0.125
 41
4.0
  0
MTEXT
  5
26B
100
AcDbEntity
  8
0
100
AcDbMText
 62
2
  6
CONTINUOUS
  7
STANDARD
 71
2
 72
1
 10
6.055
 20
-1.4065
 30
0.0
 11
1.0
 21
0.0
 31
0.0
 44
0.9
  1
1
 40
0.125
 41
0.2
  0
MTEXT
  5
26C
100
AcDbEntity
  8
0
100
AcDbMText
 62
2
  6
CONTINUOUS
  7
STANDARD
 71
2
 72
1
 10
1.5275
 20
-1.6565
 30
0.0
 11
1.0
 21
0.0
 31
0.0
 44
0.9
  1
Weight
 40
0.125
 41
1.2
  0
MTEXT
  5
26D
100
AcDbEntity
  8
0
100
AcDbMText
 62
2
  6
CONTINUOUS
  7
STANDARD
 71
2
 72
1
 10
4.555
 20
-1.6565
 30
0.0
 11
1.0
 21
0.0
 31
0.0
 44
0.9
  1
1.578 lb.
 40
0.125
 41
1.8
  0
MTEXT
  5
26E
100
AcDbEntity
  8
0
100
AcDbMText
 62
2
  6
CONTINUOUS
  7
STANDARD
 71
2
 72
1
 10
7.555
 20
-1.6565
 30
0.0
 11
1.0
 21
0.0
 31
0.0
 44
0.9
  1
0,716 kg.
 40
0.125
 41
1.8
  0
MTEXT
  5
26F
100
AcDbEntity
  8
0
100
AcDbMText
 62
2
  6
CONTINUOUS
  7
STANDARD
 71
2
 72
1
 10
1.5275
 20
-1.9065
 30
0.0
 11
1.0
 21
0.0
 31
0.0
 44
0.9
  1
Mounting Hole Diameter
 40
0.125
 41
4.4
  0
MTEXT
  5
270
100
AcDbEntity
  8
0
100
AcDbMText
 62
2
  6
CONTINUOUS
  7
STANDARD
 71
2
 72
1
 10
4.555
 20
-1.9065
 30
0.0
 11
1.0
 21
0.0
 31
0.0
 44
0.9
  1
.28 in.
 40
0.125
 41
1.4
  0
MTEXT
  5
271
100
AcDbEntity
  8
0
100
AcDbMText
 62
2
  6
CONTINUOUS
  7
STANDARD
 71
2
 72
1
 10
7.555
 20
-1.9065
 30
0.0
 11
1.0
 21
0.0
 31
0.0
 44
0.9
  1
7,1 mm
 40
0.125
 41
1.2
  0
MTEXT
  5
272
100
AcDbEntity
  8
0
100
AcDbMText
 62
2
  6
CONTINUOUS
  7
STANDARD
 71
2
 72
1
 10
1.5275
 20
-2.1565
 30
0.0
 11
1.0
 21
0.0
 31
0.0
 44
0.9
  1
Mounting Hole Depth
 40
0.125
 41
3.8
  0
MTEXT
  5
273
100
AcDbEntity
  8
0
100
AcDbMText
 62
2
  6
CONTINUOUS
  7
STANDARD
 71
2
 72
1
 10
6.055
 20
-2.1565
 30
0.0
 11
1.0
 21
0.0
 31
0.0
 44
0.9
  1
Through
 40
0.125
 41
1.4
  0
MTEXT
  5
274
100
AcDbEntity
  8
0
100
AcDbMText
 62
2
  6
CONTINUOUS
  7
STANDARD
 71
2
 72
1
 10
1.5275
 20
-2.4065
 30
0.0
 11
1.0
 21
0.0
 31
0.0
 44
0.9
  1
Mounting Hole Quantity
 40
0.125
 41
4.4
  0
MTEXT
  5
275
100
AcDbEntity
  8
0
100
AcDbMText
 62
2
  6
CONTINUOUS
  7
STANDARD
 71
2
 72
1
 10
6.055
 20
-2.4065
 30
0.0
 11
1.0
 21
0.0
 31
0.0
 44
0.9
  1
2
 40
0.125
 41
0.2
  0
MTEXT
  5
276
100
AcDbEntity
  8
0
100
AcDbMText
 62
2
  6
CONTINUOUS
  7
STANDARD
 71
2
 72
1
 10
1.5275
 20
-2.6565
 30
0.0
 11
1.0
 21
0.0
 31
0.0
 44
0.9
  1
Includes integral cartridge(s)
 40
0.125
 41
6.0
  0
MTEXT
  5
277
100
AcDbEntity
  8
0
100
AcDbMText
 62
2
  6
CONTINUOUS
  7
STANDARD
 71
2
 72
1
 10
6.055
 20
-2.6565
 30
0.0
 11
1.0
 21
0.0
 31
0.0
 44
0.9
  1
Yes (see Included Components)
 40
0.125
 41
5.8
  0
ENDBLK
  5
278
100
AcDbEntity
  8
0
  6
BYBLOCK
 62
0
100
AcDbBlockEnd
  0
BLOCK
  5
279
100
AcDbEntity
  8
0
100
AcDbBlockBegin
  2
*T3
 70
1
 10
0.0
 20
0.0
  3
*T3
  1

  0
LINE
  5
27A
100
AcDbEntity
  8
0
100
AcDbLine
 62
2
  6
CONTINUOUS
 10
0.0
 20
0.0
 11
4.6
 21
0.0
  0
LINE
  5
27B
100
AcDbEntity
  8
0
100
AcDbLine
 62
2
  6
CONTINUOUS
 10
0.0
 20
0.0
 11
0.0
 21
-0.93775
  0
LINE
  5
27C
100
AcDbEntity
  8
0
100
AcDbLine
 62
2
  6
CONTINUOUS
 10
0.0
 20
-0.34375
 11
4.6
 21
-0.34375
  0
LINE
  5
27D
100
AcDbEntity
  8
0
100
AcDbLine
 62
2
  6
CONTINUOUS
 10
0.0
 20
-0.68775
 11
4.6
 21
-0.68775
  0
LINE
  5
27E
100
AcDbEntity
  8
0
100
AcDbLine
 62
2
  6
CONTINUOUS
 10
0.0
 20
-0.93775
 11
4.6
 21
-0.93775
  0
LINE
  5
27F
100
AcDbEntity
  8
0
100
AcDbLine
 62
2
  6
CONTINUOUS
 10
1.3
 20
-0.34375
 11
1.3
 21
-0.93775
  0
LINE
  5
280
100
AcDbEntity
  8
0
100
AcDbLine
 62
2
  6
CONTINUOUS
 10
3.3
 20
-0.34375
 11
3.3
 21
-0.93775
  0
LINE
  5
281
100
AcDbEntity
  8
0
100
AcDbLine
 62
2
  6
CONTINUOUS
 10
4.6
 20
0.0
 11
4.6
 21
-0.93775
  0
MTEXT
  5
282
100
AcDbEntity
  8
0
100
AcDbMText
 62
2
  6
CONTINUOUS
  7
STANDARD
 71
2
 72
1
 10
2.3
 20
-0.099375
 30
0.0
 11
1.0
 21
0.0
 31
0.0
 44
0.9
  1
Port Headings
 40
0.145
 41
3.016
  0
MTEXT
  5
283
100
AcDbEntity
  8
0
100
AcDbMText
 62
2
  6
CONTINUOUS
  7
STANDARD
 71
2
 72
1
 10
0.65
 20
-0.44325
 30
0.0
 11
1.0
 21
0.0
 31
0.0
 44
0.9
  1
Product
 40
0.145
 41
1.624
  0
MTEXT
  5
284
100
AcDbEntity
  8
0
100
AcDbMText
 62
2
  6
CONTINUOUS
  7
STANDARD
 71
2
 72
1
 10
2.3
 20
-0.44325
 30
0.0
 11
1.0
 21
0.0
 31
0.0
 44
0.9
  1
Port
 40
0.145
 41
0.928
  0
MTEXT
  5
285
100
AcDbEntity
  8
0
100
AcDbMText
 62
2
  6
CONTINUOUS
  7
STANDARD
 71
2
 72
1
 10
3.95
 20
-0.44325
 30
0.0
 11
1.0
 21
0.0
 31
0.0
 44
0.9
  1
Size
 40
0.145
 41
0.928
  0
MTEXT
  5
286
100
AcDbEntity
  8
0
100
AcDbMText
 62
2
  6
CONTINUOUS
  7
STANDARD
 71
2
 72
1
 10
0.65
 20
-0.75025
 30
0.0
 11
1.0
 21
0.0
 31
0.0
 44
0.9
  1
CNI
 40
0.125
 41
0.6
  0
MTEXT
  5
287
100
AcDbEntity
  8
0
100
AcDbMText
 62
2
  6
CONTINUOUS
  7
STANDARD
 71
2
 72
1
 10
2.3
 20
-0.75025
 30
0.0
 11
1.0
 21
0.0
 31
0.0
 44
0.9
  1
All Ports
 40
0.125
 41
1.8
  0
MTEXT
  5
288
100
AcDbEntity
  8
0
100
AcDbMText
 62
2
  6
CONTINUOUS
  7
STANDARD
 71
2
 72
1
 10
3.95
 20
-0.75025
 30
0.0
 11
1.0
 21
0.0
 31
0.0
 44
0.9
  1
SAE 6
 40
0.125
 41
1.0
  0
ENDBLK
  5
289
100
AcDbEntity
  8
0
  6
BYBLOCK
 62
0
100
AcDbBlockEnd
  0
ENDSEC
  0
SECTION
  2
ENTITIES
  0
IMAGE
  5
28A
100
AcDbEntity
  8
0
100
AcDbRasterImage
 62
7
  6
CONTINUOUS
 10
19.2297077316
 20
0.3094318264
 30
0.0
 11
0.0066666667
 21
0.0
 31
0.0
 12
0.0
 22
0.0066666667
 32
0.0
 13
369.0
 23
92.0
340
       365
 70
9
280
0
281
50
282
50
283
0
360
       35F
 71
1
 91
2
 14
-0.5
 24
-0.5
 14
368.5
 24
91.5
  0
INSERT
  5
28B
100
AcDbEntity
  8
0
100
AcDbBlockReference
 62
2
  6
CONTINUOUS
  2
SUN_FIRST_THIRD_ANGLE_BL0
 10
20.4816717061
 20
1.2289683772
  0
ACAD_TABLE
  5
28C
100
AcDbEntity
  8
0
 62
2
  6
CONTINUOUS
100
AcDbBlockReference
  2
*T1
 10
12.42375
 20
0.30125
 30
0.0
100
AcDbTable
342
       367
343
20F
 11
1.0
 21
0.0
 31
0.0
 90
6
 91
4
 92
6
 93
20
 94
0
 95
0
 96
0
 70
1
 41
0.0
141
0.525
141
0.1
141
0.525
141
0.1
142
4.1
142
1.1
142
0.7
142
0.5
142
0.4
142
2.475
171
1
172
0
173
0
174
0
175
1
176
1
 91
33
178
0
145
0.0
301
CELL_VALUE
 90
4
  1
T-3A Line mount\PNinety degree with reverse flow check
304
ACVALUE_END
170
2
140
0.125
171
1
172
0
173
0
174
0
175
1
176
1
 91
33
178
0
145
0.0
301
CELL_VALUE
 90
4
  1
Apr-04-24
304
ACVALUE_END
170
5
140
0.125
171
1
172
0
173
0
174
0
175
1
176
1
 91
33
178
0
145
0.0
301
CELL_VALUE
 90
4
  1
2.000
304
ACVALUE_END
170
5
140
0.125
171
1
172
0
173
0
174
0
175
1
176
1
 91
33
178
0
145
0.0
301
CELL_VALUE
 90
4
  1
C
304
ACVALUE_END
170
5
140
0.125
171
1
172
0
173
0
174
0
175
1
176
1
 91
33
178
0
145
0.0
301
CELL_VALUE
 90
4
  1
2
304
ACVALUE_END
170
5
140
0.125
171
1
172
0
173
0
174
0
175
1
176
1
 91
33
178
0
145
0.0
301
CELL_VALUE
 90
4
  1
 
304
ACVALUE_END
170
1
140
0.125
171
1
172
0
173
0
174
0
175
1
176
1
 91
33
178
0
145
0.0
301
CELL_VALUE
 90
4
  1
DESCRIPTION
304
ACVALUE_END
170
1
140
0.06
171
1
172
0
173
0
174
0
175
1
176
1
 91
33
178
0
145
0.0
301
CELL_VALUE
 90
4
  1
DATE
304
ACVALUE_END
170
1
140
0.06
171
1
172
0
173
0
174
0
175
1
176
1
 91
33
178
0
145
0.0
301
CELL_VALUE
 90
4
  1
SCALE
304
ACVALUE_END
170
1
140
0.06
171
1
172
0
173
0
174
0
175
1
176
1
 91
33
178
0
145
0.0
301
CELL_VALUE
 90
4
  1
DWG SIZE
304
ACVALUE_END
170
1
140
0.06
171
1
172
0
173
0
174
0
175
1
176
1
 91
33
178
0
145
0.0
301
CELL_VALUE
 90
4
  1
SHEET
304
ACVALUE_END
170
1
140
0.06
171
1
172
0
173
0
174
0
175
1
176
1
 91
33
178
0
145
0.0
301
CELL_VALUE
 90
4
  1
 
304
ACVALUE_END
170
1
140
0.125
171
1
172
0
173
0
174
0
175
1
176
1
 91
33
178
0
145
0.0
301
CELL_VALUE
 90
4
  1
CNI
304
ACVALUE_END
170
5
140
0.125
171
1
172
0
173
0
174
0
175
4
176
1
 91
33
178
0
145
0.0
301
CELL_VALUE
 90
4
  1
ALL DIMENSIONS IN INCH\PVIEWS ARE THIRD ANGLE
304
ACVALUE_END
170
5
140
0.12
171
1
172
0
173
1
174
0
175
1
176
1
 91
1
178
0
145
0.0
170
1
171
1
172
0
173
1
174
0
175
1
176
1
 91
1
178
0
145
0.0
170
1
171
1
172
0
173
1
174
0
175
1
176
1
 91
1
178
0
145
0.0
170
5
171
1
172
0
173
0
174
0
175
1
176
1
 91
33
178
0
145
0.0
301
CELL_VALUE
 90
4
  1
 
304
ACVALUE_END
170
1
140
0.125
171
1
172
0
173
0
174
0
175
1
176
1
 91
33
178
0
145
0.0
301
CELL_VALUE
 90
4
  1
MODEL
304
ACVALUE_END
170
1
140
0.06
171
1
172
0
173
0
174
0
175
1
176
1
 91
33
178
0
145
0.0
301
CELL_VALUE
 90
4
  1
 
304
ACVALUE_END
170
1
140
0.125
171
1
172
0
173
0
174
0
175
1
176
1
 91
33
178
0
145
0.0
301
CELL_VALUE
 90
4
  1
 
304
ACVALUE_END
170
1
140
0.125
171
1
172
0
173
0
174
0
175
1
176
1
 91
33
178
0
145
0.0
301
CELL_VALUE
 90
4
  1
 
304
ACVALUE_END
170
1
140
0.125
171
1
172
0
173
0
174
0
175
1
176
1
 91
33
178
0
145
0.0
301
CELL_VALUE
 90
4
  1
 
304
ACVALUE_END
170
1
140
0.125
171
1
172
0
173
0
174
0
175
1
176
1
 91
33
178
0
145
0.0
301
CELL_VALUE
 90
4
  1
 
304
ACVALUE_END
170
1
140
0.125
  0
ACAD_TABLE
  5
28D
100
AcDbEntity
  8
0
 62
2
  6
CONTINUOUS
100
AcDbBlockReference
  2
*T2
 10
12.4237499994
 20
16.47875
 30
0.0
100
AcDbTable
342
       366
343
210
 11
1.0
 21
0.0
 31
0.0
 90
22
 91
11
 92
3
 93
16
 94
0
 95
0
 96
0
 41
0.028
141
0.344
141
0.25
141
0.25
141
0.25
141
0.25
141
0.25
141
0.25
141
0.25
141
0.25
141
0.25
141
0.25
142
3.055
142
3.0
142
3.0
171
1
172
0
173
0
174
0
175
1
176
1
 91
33
178
0
145
0.0
301
CELL_VALUE
 90
4
  1
Technical Data
304
ACVALUE_END
170
5
140
0.145
171
1
172
0
173
0
174
0
175
1
176
1
 91
33
178
0
145
0.0
301
CELL_VALUE
 90
4
  1
U.S. Units
304
ACVALUE_END
170
5
140
0.145
171
1
172
0
173
0
174
0
175
1
176
1
 91
33
178
0
145
0.0
301
CELL_VALUE
 90
4
  1
Metric Units
304
ACVALUE_END
170
5
140
0.145
171
1
172
0
173
0
174
0
175
1
176
1
 91
33
178
0
145
0.0
301
CELL_VALUE
 90
4
  1
Cavity
304
ACVALUE_END
170
5
140
0.125
171
1
172
0
173
0
174
0
175
2
176
1
 91
33
178
0
145
0.0
301
CELL_VALUE
 90
4
  1
T-3A
304
ACVALUE_END
170
5
140
0.125
171
1
172
0
173
1
174
0
175
1
176
1
 91
1
178
0
145
0.0
170
1
171
1
172
0
173
0
174
0
175
1
176
1
 91
33
178
0
145
0.0
301
CELL_VALUE
 90
4
  1
Body Features
304
ACVALUE_END
170
5
140
0.125
171
1
172
0
173
0
174
0
175
2
176
1
 91
33
178
0
145
0.0
301
CELL_VALUE
 90
4
  1
Ninety degree with reverse flow check
304
ACVALUE_END
170
5
140
0.125
171
1
172
0
173
1
174
0
175
1
176
1
 91
1
178
0
145
0.0
170
1
171
1
172
0
173
0
174
0
175
1
176
1
 91
33
178
0
145
0.0
301
CELL_VALUE
 90
4
  1
Body Type
304
ACVALUE_END
170
5
140
0.125
171
1
172
0
173
0
174
0
175
2
176
1
 91
33
178
0
145
0.0
301
CELL_VALUE
 90
4
  1
Line mount
304
ACVALUE_END
170
5
140
0.125
171
1
172
0
173
1
174
0
175
1
176
1
 91
1
178
0
145
0.0
170
1
171
1
172
0
173
0
174
0
175
1
176
1
 91
33
178
0
145
0.0
301
CELL_VALUE
 90
4
  1
Interface
304
ACVALUE_END
170
5
140
0.125
171
1
172
0
173
0
174
0
175
2
176
1
 91
33
178
0
145
0.0
301
CELL_VALUE
 90
4
  1
None
304
ACVALUE_END
170
5
140
0.125
171
1
172
0
173
1
174
0
175
1
176
1
 91
1
178
0
145
0.0
170
1
171
1
172
0
173
0
174
0
175
1
176
1
 91
33
178
0
145
0.0
301
CELL_VALUE
 90
4
  1
Open Cavity Quantity
304
ACVALUE_END
170
5
140
0.125
171
1
172
0
173
0
174
0
175
2
176
1
 91
33
178
0
145
0.0
301
CELL_VALUE
 90
4
  1
1
304
ACVALUE_END
170
5
140
0.125
171
1
172
0
173
1
174
0
175
1
176
1
 91
1
178
0
145
0.0
170
1
171
1
172
0
173
0
174
0
175
1
176
1
 91
33
178
0
145
0.0
301
CELL_VALUE
 90
4
  1
Weight
304
ACVALUE_END
170
5
140
0.125
171
1
172
0
173
0
174
0
175
1
176
1
 91
33
178
0
145
0.0
301
CELL_VALUE
 90
4
  1
1.578 lb.
304
ACVALUE_END
170
5
140
0.125
171
1
172
0
173
0
174
0
175
1
176
1
 91
33
178
0
145
0.0
301
CELL_VALUE
 90
4
  1
0,716 kg.
304
ACVALUE_END
170
5
140
0.125
171
1
172
0
173
0
174
0
175
1
176
1
 91
33
178
0
145
0.0
301
CELL_VALUE
 90
4
  1
Mounting Hole Diameter
304
ACVALUE_END
170
5
140
0.125
171
1
172
0
173
0
174
0
175
1
176
1
 91
33
178
0
145
0.0
301
CELL_VALUE
 90
4
  1
.28 in.
304
ACVALUE_END
170
5
140
0.125
171
1
172
0
173
0
174
0
175
1
176
1
 91
33
178
0
145
0.0
301
CELL_VALUE
 90
4
  1
7,1 mm
304
ACVALUE_END
170
5
140
0.125
171
1
172
0
173
0
174
0
175
1
176
1
 91
33
178
0
145
0.0
301
CELL_VALUE
 90
4
  1
Mounting Hole Depth
304
ACVALUE_END
170
5
140
0.125
171
1
172
0
173
0
174
0
175
2
176
1
 91
33
178
0
145
0.0
301
CELL_VALUE
 90
4
  1
Through
304
ACVALUE_END
170
5
140
0.125
171
1
172
0
173
1
174
0
175
1
176
1
 91
1
178
0
145
0.0
170
1
171
1
172
0
173
0
174
0
175
1
176
1
 91
33
178
0
145
0.0
301
CELL_VALUE
 90
4
  1
Mounting Hole Quantity
304
ACVALUE_END
170
5
140
0.125
171
1
172
0
173
0
174
0
175
2
176
1
 91
33
178
0
145
0.0
301
CELL_VALUE
 90
4
  1
2
304
ACVALUE_END
170
5
140
0.125
171
1
172
0
173
1
174
0
175
1
176
1
 91
1
178
0
145
0.0
170
1
171
1
172
0
173
0
174
0
175
1
176
1
 91
33
178
0
145
0.0
301
CELL_VALUE
 90
4
  1
Includes integral cartridge(s)
304
ACVALUE_END
170
5
140
0.125
171
1
172
0
173
0
174
0
175
2
176
1
 91
33
178
0
145
0.0
301
CELL_VALUE
 90
4
  1
Yes (see Included Components)
304
ACVALUE_END
170
5
140
0.125
171
1
172
0
173
1
174
0
175
1
176
1
 91
1
178
0
145
0.0
170
1
  0
ACAD_TABLE
  5
28E
100
AcDbEntity
  8
0
 62
2
  6
CONTINUOUS
100
AcDbBlockReference
  2
*T3
 10
0.52125
 20
1.459
 30
0.0
100
AcDbTable
342
       366
343
211
 11
1.0
 21
0.0
 31
0.0
 90
22
 91
3
 92
3
 93
16
 94
0
 95
0
 96
0
 41
0.05
141
0.34375
141
0.344
141
0.25
142
1.3
142
2.0
142
1.3
171
1
172
0
173
0
174
0
175
3
176
1
 91
33
178
0
145
0.0
301
CELL_VALUE
 90
4
  1
Port Headings
304
ACVALUE_END
170
5
140
0.145
171
1
172
0
173
1
174
0
175
1
176
1
 91
1
178
0
145
0.0
170
1
171
1
172
0
173
1
174
0
175
1
176
1
 91
1
178
0
145
0.0
170
1
171
1
172
0
173
0
174
0
175
1
176
1
 91
33
178
0
145
0.0
301
CELL_VALUE
 90
4
  1
Product
304
ACVALUE_END
170
5
140
0.145
171
1
172
0
173
0
174
0
175
1
176
1
 91
33
178
0
145
0.0
301
CELL_VALUE
 90
4
  1
Port
304
ACVALUE_END
170
5
140
0.145
171
1
172
0
173
0
174
0
175
1
176
1
 91
33
178
0
145
0.0
301
CELL_VALUE
 90
4
  1
Size
304
ACVALUE_END
170
5
140
0.145
171
1
172
0
173
0
174
0
175
1
176
1
 91
33
178
0
145
0.0
301
CELL_VALUE
 90
4
  1
CNI
304
ACVALUE_END
170
5
140
0.125
171
1
172
0
173
0
174
0
175
1
176
1
 91
33
178
0
145
0.0
301
CELL_VALUE
 90
4
  1
All Ports
304
ACVALUE_END
170
5
140
0.125
171
1
172
0
173
0
174
0
175
1
176
1
 91
33
178
0
145
0.0
301
CELL_VALUE
 90
4
  1
SAE 6
304
ACVALUE_END
170
5
140
0.125
  0
MTEXT
  5
28F
100
AcDbEntity
  8
0
100
AcDbMText
 62
2
  6
CONTINUOUS
  7
STANDARD
 71
1
 72
1
 10
0.52125
 20
5.75995
 30
0.0
 11
1.0
 21
0.0
 31
0.0
 44
0.6
  3
Notes\P \P1. Important: Carefully consider\P   the maximum system pressure. The\P   pressure rating of the manifold is\P   dependent on the manifold material,\P   with the port type/size a secondary\P   consideration. Manifolds\P   constructed of alu
  3
minum are not\P   rated for pressures higher than\P   3000 psi (210 bar), regardless of\P   the port type/size specified.\P2. This drawing is for reference\P   only. It is generated by an\P   automated process and does not fall\P   under Sun's docume
  1
nt control\P   process.
 40
0.1
 41
3.04
  0
LINE
  5
290
100
AcDbEntity
  8
0
100
AcDbLine
 62
7
  6
CONTINUOUS
 10
0.30125
 20
0.30125
 11
0.30125
 21
16.69875
  0
LINE
  5
291
100
AcDbEntity
  8
0
100
AcDbLine
 62
7
  6
CONTINUOUS
 10
0.30125
 20
0.30125
 11
21.69875
 21
0.30125
  0
LINE
  5
292
100
AcDbEntity
  8
0
100
AcDbLine
 62
7
  6
CONTINUOUS
 10
0.30125
 20
16.69875
 11
21.69875
 21
16.69875
  0
LINE
  5
293
100
AcDbEntity
  8
0
100
AcDbLine
 62
7
  6
CONTINUOUS
 10
21.69875
 20
0.30125
 11
21.69875
 21
16.69875
  0
LINE
  5
294
100
AcDbEntity
  8
0
100
AcDbLine
 62
7
  6
CONTINUOUS
 10
6.647853453
 20
11.2572330942
 11
7.4243099475
 21
12.0072325197
  0
LINE
  5
295
100
AcDbEntity
  8
0
100
AcDbLine
 62
7
  6
CONTINUOUS
 10
6.647853453
 20
5.4616777931
 11
6.647853453
 21
11.2572330942
  0
LINE
  5
296
100
AcDbEntity
  8
0
100
AcDbLine
 62
4
  6
CONTINUOUS
 10
8.5217497367
 20
10.8906261094
 11
8.5410682493
 21
10.9182641418
  0
LINE
  5
297
100
AcDbEntity
  8
0
100
AcDbLine
 62
4
  6
CONTINUOUS
 10
8.5410682493
 20
10.9182641418
 11
8.5603867757
 21
10.9314132854
  0
LINE
  5
298
100
AcDbEntity
  8
0
100
AcDbLine
 62
7
  6
CONTINUOUS
 10
13.4093346376
 20
4.9927674803
 11
6.647853453
 21
5.4616777931
  0
LINE
  5
299
100
AcDbEntity
  8
0
100
AcDbLine
 62
4
  6
CONTINUOUS
 10
11.2456606637
 20
5.4519148759
 11
11.4774828706
 21
5.4358379513
  0
LINE
  5
29A
100
AcDbEntity
  8
0
100
AcDbLine
 62
4
  6
CONTINUOUS
 10
8.5217497367
 20
10.8616483335
 11
8.5217497367
 21
10.8906261094
  0
LINE
  5
29B
100
AcDbEntity
  8
0
100
AcDbLine
 62
4
  6
CONTINUOUS
 10
8.7535719435
 20
10.8021047451
 11
8.7535719435
 21
10.9180158485
  0
LINE
  5
29C
100
AcDbEntity
  8
0
100
AcDbLine
 62
4
  6
CONTINUOUS
 10
9.4297200001
 20
7.1832198138
 11
9.4297200001
 21
7.0673087104
  0
LINE
  5
29D
100
AcDbEntity
  8
0
100
AcDbLine
 62
4
  6
CONTINUOUS
 10
9.4297200001
 20
7.4150420207
 11
9.4297200001
 21
7.5309531241
  0
LINE
  5
29E
100
AcDbEntity
  8
0
100
AcDbLine
 62
4
  6
CONTINUOUS
 10
9.4876755518
 20
8.9980389828
 11
9.4876755518
 21
9.0270167586
  0
LINE
  5
29F
100
AcDbEntity
  8
0
100
AcDbLine
 62
4
  6
CONTINUOUS
 10
9.5456311035
 20
8.6607753292
 11
9.5456311035
 21
8.5835012603
  0
LINE
  5
2A0
100
AcDbEntity
  8
0
100
AcDbLine
 62
4
  6
CONTINUOUS
 10
9.5456311035
 20
7.8706479721
 11
9.5456311035
 21
7.7547368686
  0
LINE
  5
2A1
100
AcDbEntity
  8
0
100
AcDbLine
 62
4
  6
CONTINUOUS
 10
9.5456311035
 20
7.059270248
 11
9.5456311035
 21
7.1751813515
  0
LINE
  5
2A2
100
AcDbEntity
  8
0
100
AcDbLine
 62
4
  6
CONTINUOUS
 10
9.5456311035
 20
8.158493881
 11
9.5456311035
 21
8.2744049845
  0
LINE
  5
2A3
100
AcDbEntity
  8
0
100
AcDbLine
 62
4
  6
CONTINUOUS
 10
9.5456311035
 20
8.3516790534
 11
9.5456311035
 21
8.4675901568
  0
LINE
  5
2A4
100
AcDbEntity
  8
0
100
AcDbLine
 62
4
  6
CONTINUOUS
 10
9.5456311035
 20
9.0857827085
 11
9.5456311035
 21
9.2016938119
  0
LINE
  5
2A5
100
AcDbEntity
  8
0
100
AcDbLine
 62
4
  6
CONTINUOUS
 10
9.5456311035
 20
9.2789678809
 11
9.5456311035
 21
9.3948789843
  0
LINE
  5
2A6
100
AcDbEntity
  8
0
100
AcDbLine
 62
4
  6
CONTINUOUS
 10
9.4297200001
 20
7.0673087104
 11
9.5456311035
 21
7.059270248
  0
LINE
  5
2A7
100
AcDbEntity
  8
0
100
AcDbLine
 62
4
  6
CONTINUOUS
 10
9.584268138
 20
8.5421847384
 11
9.584268138
 21
8.6580958418
  0
LINE
  5
2A8
100
AcDbEntity
  8
0
100
AcDbLine
 62
4
  6
CONTINUOUS
 10
9.6035866553
 20
9.2749486497
 11
9.6035866553
 21
9.3908597531
  0
LINE
  5
2A9
100
AcDbEntity
  8
0
100
AcDbLine
 62
4
  6
CONTINUOUS
 10
9.661542207
 20
9.386840522
 11
9.661542207
 21
9.2709294185
  0
LINE
  5
2AA
100
AcDbEntity
  8
0
100
AcDbLine
 62
4
  6
CONTINUOUS
 10
9.661542207
 20
8.6527368669
 11
9.661542207
 21
8.5368257635
  0
LINE
  5
2AB
100
AcDbEntity
  8
0
100
AcDbLine
 62
4
  6
CONTINUOUS
 10
9.661542207
 20
8.2663665221
 11
9.661542207
 21
8.1504554187
  0
LINE
  5
2AC
100
AcDbEntity
  8
0
100
AcDbLine
 62
4
  6
CONTINUOUS
 10
9.661542207
 20
8.0731813498
 11
9.661542207
 21
7.9572702463
  0
LINE
  5
2AD
100
AcDbEntity
  8
0
100
AcDbLine
 62
4
  6
CONTINUOUS
 10
9.661542207
 20
7.3410095443
 11
9.661542207
 21
7.2250984409
  0
LINE
  5
2AE
100
AcDbEntity
  8
0
100
AcDbLine
 62
4
  6
CONTINUOUS
 10
9.661542207
 20
7.1671428891
 11
9.661542207
 21
7.0512317857
  0
LINE
  5
2AF
100
AcDbEntity
  8
0
100
AcDbLine
 62
4
  6
CONTINUOUS
 10
9.661542207
 20
8.7300109359
 11
9.661542207
 21
8.8459220393
  0
LINE
  5
2B0
100
AcDbEntity
  8
0
100
AcDbLine
 62
4
  6
CONTINUOUS
 10
9.661542207
 20
9.0777442462
 11
9.661542207
 21
9.1936553496
  0
LINE
  5
2B1
100
AcDbEntity
  8
0
100
AcDbLine
 62
4
  6
CONTINUOUS
 10
9.7774533104
 20
8.0651428874
 11
9.7774533104
 21
7.9878688185
  0
LINE
  5
2B2
100
AcDbEntity
  8
0
100
AcDbLine
 62
4
  6
CONTINUOUS
 10
9.5456311035
 20
7.1751813515
 11
9.661542207
 21
7.1671428891
  0
LINE
  5
2B3
100
AcDbEntity
  8
0
100
AcDbLine
 62
4
  6
CONTINUOUS
 10
9.661542207
 20
7.2250984409
 11
9.4297200001
 21
7.2411753655
  0
LINE
  5
2B4
100
AcDbEntity
  8
0
100
AcDbLine
 62
4
  6
CONTINUOUS
 10
10.843835462
 20
7.2377668517
 11
10.6120132551
 21
7.2538437764
  0
LINE
  5
2B5
100
AcDbEntity
  8
0
100
AcDbLine
 62
4
  6
CONTINUOUS
 10
9.4297200001
 20
7.3570864689
 11
9.661542207
 21
7.3410095443
  0
LINE
  5
2B6
100
AcDbEntity
  8
0
100
AcDbLine
 62
4
  6
CONTINUOUS
 10
9.4297200001
 20
7.4150420207
 11
9.661542207
 21
7.398965096
  0
LINE
  5
2B7
100
AcDbEntity
  8
0
100
AcDbLine
 62
4
  6
CONTINUOUS
 10
10.6451307113
 20
7.3674581626
 11
10.8107180024
 21
7.3559746449
  0
LINE
  5
2B8
100
AcDbEntity
  8
0
100
AcDbLine
 62
4
  6
CONTINUOUS
 10
9.4297200001
 20
7.5309531241
 11
9.661542207
 21
7.5148761994
  0
LINE
  5
2B9
100
AcDbEntity
  8
0
100
AcDbLine
 62
4
  6
CONTINUOUS
 10
10.1020044
 20
7.9432828221
 11
10.1020044
 21
8.0095177378
  0
LINE
  5
2BA
100
AcDbEntity
  8
0
100
AcDbLine
 62
4
  6
CONTINUOUS
 10
10.6120132551
 20
7.5298225776
 11
10.843835462
 21
7.5799805929
  0
LINE
  5
2BB
100
AcDbEntity
  8
0
100
AcDbLine
 62
4
  6
CONTINUOUS
 10
9.661542207
 20
7.7466984063
 11
9.4297200001
 21
7.762775331
  0
LINE
  5
2BC
100
AcDbEntity
  8
0
100
AcDbLine
 62
4
  6
CONTINUOUS
 10
10.843835462
 20
7.7124504175
 11
10.6120132551
 21
7.7285273421
  0
LINE
  5
2BD
100
AcDbEntity
  8
0
100
AcDbLine
 62
4
  6
CONTINUOUS
 10
9.661542207
 20
7.8626095097
 11
9.5456311035
 21
7.8706479721
  0
LINE
  5
2BE
100
AcDbEntity
  8
0
100
AcDbLine
 62
4
  6
CONTINUOUS
 10
10.843835462
 20
7.4475107407
 11
10.6120132551
 21
7.5298225776
  0
LINE
  5
2BF
100
AcDbEntity
  8
0
100
AcDbLine
 62
4
  6
CONTINUOUS
 10
10.1351218562
 20
7.9078686591
 11
10.1020044
 21
7.9432828221
  0
LINE
  5
2C0
100
AcDbEntity
  8
0
100
AcDbLine
 62
4
  6
CONTINUOUS
 10
10.8107180024
 20
7.3559746449
 11
10.843835462
 21
7.3205604852
  0
LINE
  5
2C1
100
AcDbEntity
  8
0
100
AcDbLine
 62
4
  6
CONTINUOUS
 10
8.5410682493
 20
10.8313308143
 11
8.5217497367
 21
10.8616483335
  0
LINE
  5
2C2
100
AcDbEntity
  8
0
100
AcDbLine
 62
4
  6
CONTINUOUS
 10
8.6183423275
 20
10.9129051663
 11
8.6569793596
 21
10.8522701273
  0
LINE
  5
2C3
100
AcDbEntity
  8
0
100
AcDbLine
 62
4
  6
CONTINUOUS
 10
10.7003264715
 20
7.2035626189
 11
10.7444830866
 21
7.1121871239
  0
LINE
  5
2C4
100
AcDbEntity
  8
0
100
AcDbLine
 62
4
  6
CONTINUOUS
 10
10.3338266069
 20
7.9934408132
 11
10.3338266069
 21
7.9272058974
  0
LINE
  5
2C5
100
AcDbEntity
  8
0
100
AcDbLine
 62
4
  6
CONTINUOUS
 10
10.6120132551
 20
7.2538437764
 11
10.6120132551
 21
7.3366374098
  0
LINE
  5
2C6
100
AcDbEntity
  8
0
100
AcDbLine
 62
4
  6
CONTINUOUS
 10
10.6120132551
 20
7.6622924022
 11
10.6120132551
 21
7.7947622268
  0
LINE
  5
2C7
100
AcDbEntity
  8
0
100
AcDbLine
 62
4
  6
CONTINUOUS
 10
10.6120132551
 20
7.8609971667
 11
10.6120132551
 21
7.960349549
  0
LINE
  5
2C8
100
AcDbEntity
  8
0
100
AcDbLine
 62
4
  6
CONTINUOUS
 10
10.6120132551
 20
8.2418479746
 11
10.6120132551
 21
8.3080828593
  0
LINE
  5
2C9
100
AcDbEntity
  8
0
100
AcDbLine
 62
4
  6
CONTINUOUS
 10
10.6120132551
 20
8.4350330733
 11
10.6120132551
 21
8.4847092921
  0
LINE
  5
2CA
100
AcDbEntity
  8
0
100
AcDbLine
 62
4
  6
CONTINUOUS
 10
10.6120132551
 20
8.5840616191
 11
10.6120132551
 21
8.6668552802
  0
LINE
  5
2CB
100
AcDbEntity
  8
0
100
AcDbLine
 62
4
  6
CONTINUOUS
 10
10.6120132551
 20
8.7938056048
 11
10.6120132551
 21
8.8931579318
  0
LINE
  5
2CC
100
AcDbEntity
  8
0
100
AcDbLine
 62
4
  6
CONTINUOUS
 10
10.7003264715
 20
8.9532682741
 11
10.7444830866
 21
9.0385192188
  0
LINE
  5
2CD
100
AcDbEntity
  8
0
100
AcDbLine
 62
4
  6
CONTINUOUS
 10
10.6120132551
 20
8.6668552802
 11
10.6451307113
 21
8.6976760191
  0
LINE
  5
2CE
100
AcDbEntity
  8
0
100
AcDbLine
 62
4
  6
CONTINUOUS
 10
13.2354680904
 20
8.4000546466
 11
13.1775125387
 21
8.3895849898
  0
LINE
  5
2CF
100
AcDbEntity
  8
0
100
AcDbLine
 62
4
  6
CONTINUOUS
 10
10.843835462
 20
7.8449202421
 11
10.6120132551
 21
7.8609971667
  0
LINE
  5
2D0
100
AcDbEntity
  8
0
100
AcDbLine
 62
4
  6
CONTINUOUS
 10
10.3007091473
 20
7.8963851415
 11
10.1351218562
 21
7.9078686591
  0
LINE
  5
2D1
100
AcDbEntity
  8
0
100
AcDbLine
 62
4
  6
CONTINUOUS
 10
9.661542207
 20
7.9572702463
 11
9.5456311035
 21
7.9653087086
  0
LINE
  5
2D2
100
AcDbEntity
  8
0
100
AcDbLine
 62
4
  6
CONTINUOUS
 10
9.5456311035
 20
8.0812198121
 11
9.7774533104
 21
8.0651428874
  0
LINE
  5
2D3
100
AcDbEntity
  8
0
100
AcDbLine
 62
4
  6
CONTINUOUS
 10
10.3338266069
 20
8.0872736056
 11
10.1020044
 21
8.1033505303
  0
LINE
  5
2D4
100
AcDbEntity
  8
0
100
AcDbLine
 62
4
  6
CONTINUOUS
 10
9.661542207
 20
8.1504554187
 11
9.5456311035
 21
8.158493881
  0
LINE
  5
2D5
100
AcDbEntity
  8
0
100
AcDbLine
 62
7
  6
CONTINUOUS
 10
14.1934896812
 20
7.9345391957
 11
14.9622965638
 21
7.8812222573
  0
LINE
  5
2D6
100
AcDbEntity
  8
0
100
AcDbLine
 62
4
  6
CONTINUOUS
 10
10.3338266069
 20
8.2031847229
 11
10.1020044
 21
8.2192616475
  0
LINE
  5
2D7
100
AcDbEntity
  8
0
100
AcDbLine
 62
4
  6
CONTINUOUS
 10
9.4297200001
 20
8.2824434468
 11
9.661542207
 21
8.2663665221
  0
LINE
  5
2D8
100
AcDbEntity
  8
0
100
AcDbLine
 62
4
  6
CONTINUOUS
 10
10.6451307113
 20
8.2064338289
 11
10.6120132551
 21
8.2418479746
  0
LINE
  5
2D9
100
AcDbEntity
  8
0
100
AcDbLine
 62
4
  6
CONTINUOUS
 10
10.6451307113
 20
8.3996189276
 11
10.6120132551
 21
8.4350330733
  0
LINE
  5
2DA
100
AcDbEntity
  8
0
100
AcDbLine
 62
4
  6
CONTINUOUS
 10
10.7113656236
 20
8.8531503793
 11
10.7113656236
 21
8.7869154946
  0
LINE
  5
2DB
100
AcDbEntity
  8
0
100
AcDbLine
 62
4
  6
CONTINUOUS
 10
10.7113656236
 20
7.9203419965
 11
10.7113656236
 21
7.8541070566
  0
LINE
  5
2DC
100
AcDbEntity
  8
0
100
AcDbLine
 62
4
  6
CONTINUOUS
 10
10.7776005428
 20
7.474182452
 11
10.7776005428
 21
7.5624956684
  0
LINE
  5
2DD
100
AcDbEntity
  8
0
100
AcDbLine
 62
4
  6
CONTINUOUS
 10
10.843835462
 20
8.6507783555
 11
10.843835462
 21
8.5679846944
  0
LINE
  5
2DE
100
AcDbEntity
  8
0
100
AcDbLine
 62
4
  6
CONTINUOUS
 10
10.843835462
 20
8.4686323674
 11
10.843835462
 21
8.4189561487
  0
LINE
  5
2DF
100
AcDbEntity
  8
0
100
AcDbLine
 62
4
  6
CONTINUOUS
 10
10.843835462
 20
8.2920059346
 11
10.843835462
 21
8.22577105
  0
LINE
  5
2E0
100
AcDbEntity
  8
0
100
AcDbLine
 62
4
  6
CONTINUOUS
 10
10.843835462
 20
7.3205604852
 11
10.843835462
 21
7.2377668517
  0
LINE
  5
2E1
100
AcDbEntity
  8
0
100
AcDbLine
 62
4
  6
CONTINUOUS
 10
10.843835462
 20
7.8449202421
 11
10.843835462
 21
7.9442726244
  0
LINE
  5
2E2
100
AcDbEntity
  8
0
100
AcDbLine
 62
4
  6
CONTINUOUS
 10
10.843835462
 20
8.7777286801
 11
10.843835462
 21
8.8770810071
  0
LINE
  5
2E3
100
AcDbEntity
  8
0
100
AcDbLine
 62
7
  6
CONTINUOUS
 10
13.4093346376
 20
10.7883227814
 11
14.1857911321
 21
11.5383222069
  0
LINE
  5
2E4
100
AcDbEntity
  8
0
100
AcDbLine
 62
4
  6
CONTINUOUS
 10
10.6120132551
 20
8.4847092921
 11
10.6451307113
 21
8.515530031
  0
LINE
  5
2E5
100
AcDbEntity
  8
0
100
AcDbLine
 62
4
  6
CONTINUOUS
 10
10.843835462
 20
8.4189561487
 11
10.8107180024
 21
8.38813541
  0
LINE
  5
2E6
100
AcDbEntity
  8
0
100
AcDbLine
 62
4
  6
CONTINUOUS
 10
10.3338266069
 20
7.9272058974
 11
10.3007091473
 21
7.8963851415
  0
LINE
  5
2E7
100
AcDbEntity
  8
0
100
AcDbLine
 62
4
  6
CONTINUOUS
 10
10.1020044
 20
8.1033505303
 11
10.3338266069
 21
8.2031847229
  0
LINE
  5
2E8
100
AcDbEntity
  8
0
100
AcDbLine
 62
4
  6
CONTINUOUS
 10
10.8107180024
 20
8.1949503113
 11
10.6451307113
 21
8.2064338289
  0
LINE
  5
2E9
100
AcDbEntity
  8
0
100
AcDbLine
 62
4
  6
CONTINUOUS
 10
9.5456311035
 20
8.3516790534
 11
9.661542207
 21
8.3436405911
  0
LINE
  5
2EA
100
AcDbEntity
  8
0
100
AcDbLine
 62
4
  6
CONTINUOUS
 10
10.3338266069
 20
8.3135762434
 11
10.1020044
 21
8.329653168
  0
LINE
  5
2EB
100
AcDbEntity
  8
0
100
AcDbLine
 62
7
  6
CONTINUOUS
 10
13.7007679533
 20
8.1286894043
 11
13.9714969086
 21
8.1099142875
  0
LINE
  5
2EC
100
AcDbEntity
  8
0
100
AcDbLine
 62
4
  6
CONTINUOUS
 10
10.8107180024
 20
8.38813541
 11
10.6451307113
 21
8.3996189276
  0
LINE
  5
2ED
100
AcDbEntity
  8
0
100
AcDbLine
 62
4
  6
CONTINUOUS
 10
9.661542207
 20
8.5368257635
 11
9.584268138
 21
8.5421847384
  0
LINE
  5
2EE
100
AcDbEntity
  8
0
100
AcDbLine
 62
7
  6
CONTINUOUS
 10
13.9312230856
 20
8.2463155773
 11
14.7000299682
 21
8.1929986389
  0
LINE
  5
2EF
100
AcDbEntity
  8
0
100
AcDbLine
 62
4
  6
CONTINUOUS
 10
10.6451307113
 20
8.515530031
 11
10.8107180024
 21
8.5040465134
  0
LINE
  5
2F0
100
AcDbEntity
  8
0
100
AcDbLine
 62
7
  6
CONTINUOUS
 10
13.9167750612
 20
8.3257534367
 11
14.6855819439
 21
8.2724364983
  0
LINE
  5
2F1
100
AcDbEntity
  8
0
100
AcDbLine
 62
4
  6
CONTINUOUS
 10
10.8107180024
 20
8.5040465134
 11
10.843835462
 21
8.4686323674
  0
LINE
  5
2F2
100
AcDbEntity
  8
0
100
AcDbLine
 62
4
  6
CONTINUOUS
 10
10.8107180024
 20
8.6861925015
 11
10.843835462
 21
8.6507783555
  0
LINE
  5
2F3
100
AcDbEntity
  8
0
100
AcDbLine
 62
4
  6
CONTINUOUS
 10
10.7444830866
 20
9.0385192188
 11
10.7886396983
 21
8.947143731
  0
LINE
  5
2F4
100
AcDbEntity
  8
0
100
AcDbLine
 62
4
  6
CONTINUOUS
 10
10.7444830866
 20
7.1121871239
 11
10.7886396983
 21
7.1974380758
  0
LINE
  5
2F5
100
AcDbEntity
  8
0
100
AcDbLine
 62
4
  6
CONTINUOUS
 10
10.843835462
 20
8.22577105
 11
10.8107180024
 21
8.1949503113
  0
LINE
  5
2F6
100
AcDbEntity
  8
0
100
AcDbLine
 62
4
  6
CONTINUOUS
 10
13.0616014353
 20
9.1800234003
 11
13.2934236421
 21
9.2363909153
  0
LINE
  5
2F7
100
AcDbEntity
  8
0
100
AcDbLine
 62
4
  6
CONTINUOUS
 10
10.843835462
 20
8.5679846944
 11
10.6120132551
 21
8.5840616191
  0
LINE
  5
2F8
100
AcDbEntity
  8
0
100
AcDbLine
 62
4
  6
CONTINUOUS
 10
9.5456311035
 20
8.6607753292
 11
9.661542207
 21
8.6527368669
  0
LINE
  5
2F9
100
AcDbEntity
  8
0
100
AcDbLine
 62
4
  6
CONTINUOUS
 10
9.5456311035
 20
8.7380493982
 11
9.661542207
 21
8.7300109359
  0
LINE
  5
2FA
100
AcDbEntity
  8
0
100
AcDbLine
 62
4
  6
CONTINUOUS
 10
10.6451307113
 20
8.6976760191
 11
10.8107180024
 21
8.6861925015
  0
LINE
  5
2FB
100
AcDbEntity
  8
0
100
AcDbLine
 62
4
  6
CONTINUOUS
 10
9.661542207
 20
8.8459220393
 11
9.5456311035
 21
8.8539605016
  0
LINE
  5
2FC
100
AcDbEntity
  8
0
100
AcDbLine
 62
4
  6
CONTINUOUS
 10
10.843835462
 20
8.7777286801
 11
10.6120132551
 21
8.7938056048
  0
LINE
  5
2FD
100
AcDbEntity
  8
0
100
AcDbLine
 62
4
  6
CONTINUOUS
 10
9.661542207
 20
8.9231961083
 11
9.4297200001
 21
8.9392730329
  0
LINE
  5
2FE
100
AcDbEntity
  8
0
100
AcDbLine
 62
4
  6
CONTINUOUS
 10
9.661542207
 20
9.0004701772
 11
9.5456311035
 21
9.0085086395
  0
LINE
  5
2FF
100
AcDbEntity
  8
0
100
AcDbLine
 62
4
  6
CONTINUOUS
 10
8.5603867757
 20
10.815502182
 11
8.5410682493
 21
10.8313308143
  0
LINE
  5
300
100
AcDbEntity
  8
0
100
AcDbLine
 62
4
  6
CONTINUOUS
 10
8.6569793596
 20
10.8522701273
 11
8.6956163918
 21
10.8206128642
  0
LINE
  5
301
100
AcDbEntity
  8
0
100
AcDbLine
 62
4
  6
CONTINUOUS
 10
8.599023801
 20
10.9287337986
 11
8.6183423275
 21
10.9129051663
  0
LINE
  5
302
100
AcDbEntity
  8
0
100
AcDbLine
 62
4
  6
CONTINUOUS
 10
10.6120132551
 20
7.3366374098
 11
10.6451307113
 21
7.3674581626
  0
LINE
  5
303
100
AcDbEntity
  8
0
100
AcDbLine
 62
4
  6
CONTINUOUS
 10
13.0616014353
 20
8.6584234348
 11
13.2934236421
 21
8.7582576136
  0
LINE
  5
304
100
AcDbEntity
  8
0
100
AcDbLine
 62
4
  6
CONTINUOUS
 10
9.5456311035
 20
9.0857827085
 11
9.661542207
 21
9.0777442462
  0
LINE
  5
305
100
AcDbEntity
  8
0
100
AcDbLine
 62
4
  6
CONTINUOUS
 10
13.2934236421
 20
8.874168717
 11
13.0616014353
 21
8.8902456417
  0
LINE
  5
306
100
AcDbEntity
  8
0
100
AcDbLine
 62
4
  6
CONTINUOUS
 10
9.5456311035
 20
9.2789678809
 11
9.6035866553
 21
9.2749486497
  0
LINE
  5
307
100
AcDbEntity
  8
0
100
AcDbLine
 62
4
  6
CONTINUOUS
 10
9.6035866553
 20
9.3908597531
 11
9.661542207
 21
9.386840522
  0
LINE
  5
308
100
AcDbEntity
  8
0
100
AcDbLine
 62
4
  6
CONTINUOUS
 10
13.1775125387
 20
8.3895849898
 11
13.119556987
 21
8.4080931089
  0
LINE
  5
309
100
AcDbEntity
  8
0
100
AcDbLine
 62
4
  6
CONTINUOUS
 10
13.0809199479
 20
8.5266837001
 11
13.1002384744
 21
8.5398328436
  0
LINE
  5
30A
100
AcDbEntity
  8
0
100
AcDbLine
 62
7
  6
CONTINUOUS
 10
13.9167750612
 20
9.4559663859
 11
14.6855819439
 21
9.4026494475
  0
LINE
  5
30B
100
AcDbEntity
  8
0
100
AcDbLine
 62
4
  6
CONTINUOUS
 10
13.2741051243
 20
8.426352935
 11
13.2354680904
 21
8.4000546466
  0
LINE
  5
30C
100
AcDbEntity
  8
0
100
AcDbLine
 62
7
  6
CONTINUOUS
 10
13.9312230856
 20
9.5633156867
 11
14.7000299682
 21
9.5099987483
  0
LINE
  5
30D
100
AcDbEntity
  8
0
100
AcDbLine
 62
4
  6
CONTINUOUS
 10
8.6956163918
 20
10.8206128642
 11
8.7535719435
 21
10.8021047451
  0
LINE
  5
30E
100
AcDbEntity
  8
0
100
AcDbLine
 62
4
  6
CONTINUOUS
 10
13.2934236421
 20
9.091502036
 11
13.0616014353
 21
9.1800234003
  0
LINE
  5
30F
100
AcDbEntity
  8
0
100
AcDbLine
 62
4
  6
CONTINUOUS
 10
13.2934236421
 20
8.6423465102
 11
13.0616014353
 21
8.7743345383
  0
LINE
  5
310
100
AcDbEntity
  8
0
100
AcDbLine
 62
4
  6
CONTINUOUS
 10
13.119556987
 20
8.4080931089
 11
13.0809199479
 21
8.4397503725
  0
LINE
  5
311
100
AcDbEntity
  8
0
100
AcDbLine
 62
4
  6
CONTINUOUS
 10
13.2547866065
 20
8.5291148943
 11
13.2741051243
 21
8.5132862626
  0
LINE
  5
312
100
AcDbEntity
  8
0
100
AcDbLine
 62
7
  6
CONTINUOUS
 10
14.0474346076
 20
10.1479477706
 11
14.1054006286
 21
10.2462282766
  0
LINE
  5
313
100
AcDbEntity
  8
0
100
AcDbLine
 62
4
  6
CONTINUOUS
 10
13.0616014353
 20
8.4990456676
 11
13.0809199479
 21
8.5266837001
  0
LINE
  5
314
100
AcDbEntity
  8
0
100
AcDbLine
 62
4
  6
CONTINUOUS
 10
13.2934236421
 20
8.4539909671
 11
13.2741051243
 21
8.426352935
  0
LINE
  5
315
100
AcDbEntity
  8
0
100
AcDbLine
 62
4
  6
CONTINUOUS
 10
13.0809199479
 20
8.4397503725
 11
13.0616014353
 21
8.4700678918
  0
LINE
  5
316
100
AcDbEntity
  8
0
100
AcDbLine
 62
4
  6
CONTINUOUS
 10
13.0616014353
 20
8.4700678918
 11
13.0616014353
 21
8.4990456676
  0
LINE
  5
317
100
AcDbEntity
  8
0
100
AcDbLine
 62
4
  6
CONTINUOUS
 10
13.0616014353
 20
8.8902456417
 11
13.0616014353
 21
9.0061567451
  0
LINE
  5
318
100
AcDbEntity
  8
0
100
AcDbLine
 62
4
  6
CONTINUOUS
 10
13.1775125387
 20
8.8822071794
 11
13.1775125387
 21
8.954651619
  0
LINE
  5
319
100
AcDbEntity
  8
0
100
AcDbLine
 62
4
  6
CONTINUOUS
 10
13.2161495709
 20
9.1258387869
 11
13.2161495709
 21
9.2127721145
  0
LINE
  5
31A
100
AcDbEntity
  8
0
100
AcDbLine
 62
7
  6
CONTINUOUS
 10
13.8498999897
 20
10.2755158289
 11
14.1122599018
 21
10.2573211072
  0
LINE
  5
31B
100
AcDbEntity
  8
0
100
AcDbLine
 62
7
  6
CONTINUOUS
 10
14.1934896812
 20
10.3817522544
 11
14.9622965638
 21
10.328435316
  0
LINE
  5
31C
100
AcDbEntity
  8
0
100
AcDbLine
 62
7
  6
CONTINUOUS
 10
14.2223857299
 20
10.4096636957
 11
14.9911926125
 21
10.3563467573
  0
LINE
  5
31D
100
AcDbEntity
  8
0
100
AcDbLine
 62
4
  6
CONTINUOUS
 10
8.5603867757
 20
10.9314132854
 11
8.599023801
 21
10.9287337986
  0
LINE
  5
31E
100
AcDbEntity
  8
0
100
AcDbLine
 62
4
  6
CONTINUOUS
 10
13.2741051243
 20
8.5132862626
 11
13.2934236421
 21
8.482968743
  0
LINE
  5
31F
100
AcDbEntity
  8
0
100
AcDbLine
 62
4
  6
CONTINUOUS
 10
13.2934236421
 20
8.482968743
 11
13.2934236421
 21
8.4539909671
  0
LINE
  5
320
100
AcDbEntity
  8
0
100
AcDbLine
 62
7
  6
CONTINUOUS
 10
13.4093346376
 20
10.7883227814
 11
13.4093346376
 21
4.9927674803
  0
LINE
  5
321
100
AcDbEntity
  8
0
100
AcDbLine
 62
7
  6
CONTINUOUS
 10
6.647853453
 20
11.2572330942
 11
13.4093346376
 21
10.7883227814
  0
LINE
  5
322
100
AcDbEntity
  8
0
100
AcDbLine
 62
7
  6
CONTINUOUS
 10
13.9142685836
 20
8.2277520713
 11
13.9431724522
 21
8.1583079255
  0
LINE
  5
323
100
AcDbEntity
  8
0
100
AcDbLine
 62
7
  6
CONTINUOUS
 10
14.1857911321
 20
11.5383222069
 11
14.1857911321
 21
10.3703634286
  0
LINE
  5
324
100
AcDbEntity
  8
0
100
AcDbLine
 62
7
  6
CONTINUOUS
 10
14.1857911321
 20
7.9392570099
 11
14.1857911321
 21
5.7427669058
  0
LINE
  5
325
100
AcDbEntity
  8
0
100
AcDbLine
 62
7
  6
CONTINUOUS
 10
7.4243099475
 20
12.0072325197
 11
14.1857911321
 21
11.5383222069
  0
LINE
  5
326
100
AcDbEntity
  8
0
100
AcDbLine
 62
7
  6
CONTINUOUS
 10
15.0792816652
 20
8.0446576764
 11
15.1199749258
 21
8.1136524804
  0
LINE
  5
327
100
AcDbEntity
  8
0
100
AcDbLine
 62
7
  6
CONTINUOUS
 10
13.4093346376
 20
4.9927674803
 11
14.1857911321
 21
5.7427669058
  0
LINE
  5
328
100
AcDbEntity
  8
0
100
AcDbLine
 62
7
  6
CONTINUOUS
 10
15.2415098415
 20
10.1325780276
 11
15.2573487982
 21
10.0945235085
  0
ARC
  5
329
100
AcDbEntity
  8
0
100
AcDbCircle
 62
7
  6
CONTINUOUS
 10
18.4869820696
 20
8.8955141726
 40
4.6044433738
100
AcDbArc
 50
171.6607434677
 51
173.0086288777
  0
ARC
  5
32A
100
AcDbEntity
  8
0
100
AcDbCircle
 62
7
  6
CONTINUOUS
 10
19.2557889522
 20
8.8421972342
 40
4.6044433738
100
AcDbArc
 50
171.6607434677
 51
173.0086288777
  0
ARC
  5
32B
100
AcDbEntity
  8
0
100
AcDbCircle
 62
7
  6
CONTINUOUS
 10
15.8095551986
 20
8.6289762856
 40
1.9169143811
100
AcDbArc
 50
189.1014340788
 51
191.5149294916
  0
ARC
  5
32C
100
AcDbEntity
  8
0
100
AcDbCircle
 62
7
  6
CONTINUOUS
 10
16.5783620812
 20
8.5756593472
 40
1.9169143811
100
AcDbArc
 50
189.1014340788
 51
191.5149294916
  0
ARC
  5
32D
100
AcDbEntity
  8
0
100
AcDbCircle
 62
7
  6
CONTINUOUS
 10
9.1077562927
 20
9.6614911041
 40
1.6395905922
100
AcDbArc
 50
82.8942546626
 51
86.0848609051
  0
SPLINE
  5
32E
100
AcDbEntity
  8
0
100
AcDbSpline
 62
7
  6
CONTINUOUS
 70
0
 71
3
 72
9
 73
5
 74
0
 42
0.0000001
 43
0.0000001
 44
0.0000000001
 40
0.0
 40
0.0
 40
0.0
 40
0.0
 40
0.4898589089
 40
1.0
 40
1.0
 40
1.0
 40
1.0
 10
14.2079377055
 20
10.396895466
 30
0.0
 10
14.2054791294
 20
10.3945206637
 30
0.0
 10
14.200564775
 20
10.3895635971
 30
0.0
 10
14.1958483393
 20
10.3844184502
 30
0.0
 10
14.1934896812
 20
10.3817522544
 30
0.0
  0
SPLINE
  5
32F
100
AcDbEntity
  8
0
100
AcDbSpline
 62
7
  6
CONTINUOUS
 70
0
 71
3
 72
9
 73
5
 74
0
 42
0.0000001
 43
0.0000001
 44
0.0000000001
 40
0.0
 40
0.0
 40
0.0
 40
0.0
 40
0.2578199612
 40
1.0
 40
1.0
 40
1.0
 40
1.0
 10
14.2079377055
 20
10.396895466
 30
0.0
 10
14.209129776
 20
10.3980469177
 30
0.0
 10
14.2138001817
 20
10.4024641304
 30
0.0
 10
14.2186628445
 20
10.4066799333
 30
0.0
 10
14.2223857299
 20
10.4096636957
 30
0.0
  0
SPLINE
  5
330
100
AcDbEntity
  8
0
100
AcDbSpline
 62
7
  6
CONTINUOUS
 70
0
 71
3
 72
9
 73
5
 74
0
 42
0.0000001
 43
0.0000001
 44
0.0000000001
 40
0.0
 40
0.0
 40
0.0
 40
0.0
 40
0.2423492772
 40
1.0
 40
1.0
 40
1.0
 40
1.0
 10
14.9622965638
 20
7.8812222573
 30
0.0
 10
14.9635122338
 20
7.8821965743
 30
0.0
 10
14.9684774106
 20
7.8862803564
 30
0.0
 10
14.9732414441
 20
7.8906067095
 30
0.0
 10
14.9767445882
 20
7.893990487
 30
0.0
  0
SPLINE
  5
331
100
AcDbEntity
  8
0
100
AcDbSpline
 62
7
  6
CONTINUOUS
 70
0
 71
3
 72
9
 73
5
 74
0
 42
0.0000001
 43
0.0000001
 44
0.0000000001
 40
0.0
 40
0.0
 40
0.0
 40
0.0
 40
0.4898589089
 40
1.0
 40
1.0
 40
1.0
 40
1.0
 10
14.9767445882
 20
7.893990487
 30
0.0
 10
14.9792031643
 20
7.8963652894
 30
0.0
 10
14.9841175188
 20
7.901322356
 30
0.0
 10
14.9888339544
 20
7.9064675029
 30
0.0
 10
14.9911926125
 20
7.9091336987
 30
0.0
  0
SPLINE
  5
332
100
AcDbEntity
  8
0
100
AcDbSpline
 62
7
  6
CONTINUOUS
 70
0
 71
3
 72
9
 73
5
 74
0
 42
0.0000001
 43
0.0000001
 44
0.0000000001
 40
0.0
 40
0.0
 40
0.0
 40
0.0
 40
0.5035395631
 40
1.0
 40
1.0
 40
1.0
 40
1.0
 10
14.1934896812
 20
10.3817522544
 30
0.0
 10
14.1777879909
 20
10.3595221926
 30
0.0
 10
14.1473680611
 20
10.3148291299
 30
0.0
 10
14.1187931317
 20
10.2689265235
 30
0.0
 10
14.1051573818
 20
10.2458158264
 30
0.0
  0
SPLINE
  5
333
100
AcDbEntity
  8
0
100
AcDbSpline
 62
7
  6
CONTINUOUS
 70
0
 71
3
 72
9
 73
5
 74
0
 42
0.0000001
 43
0.0000001
 44
0.0000000001
 40
0.0
 40
0.0
 40
0.0
 40
0.0
 40
0.5035395631
 40
1.0
 40
1.0
 40
1.0
 40
1.0
 10
14.9911926125
 20
7.9091336987
 30
0.0
 10
15.0068943028
 20
7.9313637605
 30
0.0
 10
15.0373142326
 20
7.9760568232
 30
0.0
 10
15.065889162
 20
8.0219594296
 30
0.0
 10
15.0795249119
 20
8.0450701267
 30
0.0
  0
SPLINE
  5
334
100
AcDbEntity
  8
0
100
AcDbSpline
 62
7
  6
CONTINUOUS
 70
0
 71
3
 72
23
 73
19
 74
0
 42
0.0000001
 43
0.0000001
 44
0.0000000001
 40
0.0
 40
0.0
 40
0.0
 40
0.0
 40
0.0432903358
 40
0.0886111095
 40
0.1362135929
 40
0.1863092711
 40
0.2390678977
 40
0.2946076476
 40
0.3530023406
 40
0.4142746704
 40
0.4784099503
 40
0.5453523313
 40
0.6150199742
 40
0.6873039377
 40
0.76208146
 40
0.8392182661
 40
0.9185728956
 40
1.0
 40
1.0
 40
1.0
 40
1.0
 10
13.9428269969
 20
8.1591384133
 30
0.0
 10
13.944719842
 20
8.1545859988
 30
0.0
 10
13.9489616494
 20
8.1454166124
 30
0.0
 10
13.9564897704
 20
8.1318387049
 30
0.0
 10
13.9653437706
 20
8.1181531838
 30
0.0
 10
13.9755381127
 20
8.1043677612
 30
0.0
 10
13.9870778692
 20
8.0904910356
 30
0.0
 10
13.9999538716
 20
8.0765304892
 30
0.0
 10
14.014147756
 20
8.0624968229
 30
0.0
 10
14.0296276334
 20
8.0483980194
 30
0.0
 10
14.0463542742
 20
8.0342454312
 30
0.0
 10
14.0642779221
 20
8.0200469788
 30
0.0
 10
14.0833442745
 20
8.0058132491
 30
0.0
 10
14.1034926842
 20
7.9915514488
 30
0.0
 10
14.1246611037
 20
7.9772702232
 30
0.0
 10
14.146785205
 20
7.9629756423
 30
0.0
 10
14.1698010533
 20
7.9486741726
 30
0.0
 10
14.1855044269
 20
7.939254568
 30
0.0
 10
14.1934896812
 20
7.9345391957
 30
0.0
  0
SPLINE
  5
335
100
AcDbEntity
  8
0
100
AcDbSpline
 62
7
  6
CONTINUOUS
 70
0
 71
3
 72
23
 73
19
 74
0
 42
0.0000001
 43
0.0000001
 44
0.0000000001
 40
0.0
 40
0.0
 40
0.0
 40
0.0
 40
0.0432903358
 40
0.0886111095
 40
0.1362135929
 40
0.1863092711
 40
0.2390678977
 40
0.2946076476
 40
0.3530023406
 40
0.4142746704
 40
0.4784099503
 40
0.5453523313
 40
0.6150199742
 40
0.6873039377
 40
0.76208146
 40
0.8392182661
 40
0.9185728956
 40
1.0
 40
1.0
 40
1.0
 40
1.0
 10
15.2418552968
 20
10.1317475398
 30
0.0
 10
15.2399624517
 20
10.1362999543
 30
0.0
 10
15.2357206443
 20
10.1454693407
 30
0.0
 10
15.2281925233
 20
10.1590472481
 30
0.0
 10
15.2193385231
 20
10.1727327693
 30
0.0
 10
15.209144181
 20
10.1865181919
 30
0.0
 10
15.1976044245
 20
10.2003949175
 30
0.0
 10
15.1847284221
 20
10.2143554639
 30
0.0
 10
15.1705345378
 20
10.2283891302
 30
0.0
 10
15.1550546603
 20
10.2424879337
 30
0.0
 10
15.1383280195
 20
10.2566405219
 30
0.0
 10
15.1204043716
 20
10.2708389743
 30
0.0
 10
15.1013380192
 20
10.285072704
 30
0.0
 10
15.0811896095
 20
10.2993345043
 30
0.0
 10
15.06002119
 20
10.3136157299
 30
0.0
 10
15.0378970887
 20
10.3279103108
 30
0.0
 10
15.0148812404
 20
10.3422117805
 30
0.0
 10
14.9991778668
 20
10.3516313851
 30
0.0
 10
14.9911926125
 20
10.3563467573
 30
0.0
  0
SPLINE
  5
336
100
AcDbEntity
  8
0
100
AcDbSpline
 62
7
  6
CONTINUOUS
 70
0
 71
3
 72
52
 73
48
 74
0
 42
0.0000001
 43
0.0000001
 44
0.0000000001
 40
0.0
 40
0.0
 40
0.0
 40
0.0
 40
0.009739007
 40
0.0199697226
 40
0.0306886433
 40
0.041891006
 40
0.0535703056
 40
0.0657184368
 40
0.0783265479
 40
0.0913844462
 40
0.104880614
 40
0.118803057
 40
0.1331387627
 40
0.1478736378
 40
0.1784817501
 40
0.210503274
 40
0.2438041446
 40
0.2782417445
 40
0.3136664221
 40
0.3499227968
 40
0.3868502931
 40
0.424284505
 40
0.462058199
 40
0.5000020634
 40
0.5379459265
 40
0.575719552
 40
0.6131536576
 40
0.650081013
 40
0.6863371331
 40
0.7217616055
 40
0.7561989741
 40
0.7894994529
 40
0.8215206599
 40
0.8370095697
 40
0.852129088
 40
0.8668637319
 40
0.8811991625
 40
0.8951214827
 40
0.9086173982
 40
0.9216749924
 40
0.9342829792
 40
0.9464308589
 40
0.9581098157
 40
0.9693119702
 40
0.9800305533
 40
0.990260945
 40
1.0
 40
1.0
 40
1.0
 40
1.0
 10
15.1199796714
 20
8.1136604865
 30
0.0
 10
15.1233154613
 20
8.1193164735
 30
0.0
 10
15.1299505488
 20
8.1310357843
 30
0.0
 10
15.1395800721
 20
8.1493531184
 30
0.0
 10
15.1491214388
 20
8.1688215271
 30
0.0
 10
15.1585624159
 20
8.1894179168
 30
0.0
 10
15.1678917661
 20
8.2111178964
 30
0.0
 10
15.1770988479
 20
8.2338954678
 30
0.0
 10
15.1861721598
 20
8.2577238076
 30
0.0
 10
15.1951008434
 20
8.2825745545
 30
0.0
 10
15.2038746656
 20
8.3084179226
 30
0.0
 10
15.2124826177
 20
8.3352232356
 30
0.0
 10
15.2209144027
 20
8.3629585422
 30
0.0
 10
15.2320501647
 20
8.4016258257
 30
0.0
 10
15.2454221977
 20
8.4520518539
 30
0.0
 10
15.2604171348
 20
8.5149758782
 30
0.0
 10
15.2744837554
 20
8.5807563234
 30
0.0
 10
15.2875545243
 20
8.649078827
 30
0.0
 10
15.2995666754
 20
8.7196172316
 30
0.0
 10
15.3104618879
 20
8.792034572
 30
0.0
 10
15.320187933
 20
8.8659847415
 30
0.0
 10
15.3286983004
 20
8.9411141575
 30
0.0
 10
15.3359516539
 20
9.017063648
 30
0.0
 10
15.3419134425
 20
9.0934700421
 30
0.0
 10
15.3465553367
 20
9.169967924
 30
0.0
 10
15.3498547048
 20
9.2461914917
 30
0.0
 10
15.3517961498
 20
9.3217762386
 30
0.0
 10
15.3523707546
 20
9.3963607066
 30
0.0
 10
15.3515755549
 20
9.4695883389
 30
0.0
 10
15.349415011
 20
9.5411091055
 30
0.0
 10
15.3459001281
 20
9.6105813252
 30
0.0
 10
15.3410476036
 20
9.6776727939
 30
0.0
 10
15.3358539679
 20
9.7319162274
 30
0.0
 10
15.3310225148
 20
9.7738672218
 30
0.0
 10
15.3271212092
 20
9.8041902683
 30
0.0
 10
15.3229063472
 20
9.8336859466
 30
0.0
 10
15.3183834935
 20
9.8623191376
 30
0.0
 10
15.3135580871
 20
9.8900556266
 30
0.0
 10
15.3084354079
 20
9.9168622078
 30
0.0
 10
15.3030221839
 20
9.9427070089
 30
0.0
 10
15.2973249482
 20
9.967559229
 30
0.0
 10
15.2913499577
 20
9.9913891252
 30
0.0
 10
15.2851049839
 20
10.0141685134
 30
0.0
 10
15.2785975911
 20
10.0358703551
 30
0.0
 10
15.2718348532
 20
10.0564688197
 30
0.0
 10
15.2648256033
 20
10.0759394571
 30
0.0
 10
15.2598716184
 20
10.0884622213
 30
0.0
 10
15.2573483799
 20
10.0945245127
 30
0.0
  0
SPLINE
  5
337
100
AcDbEntity
  8
0
100
AcDbSpline
 62
7
  6
CONTINUOUS
 70
0
 71
3
 72
92
 73
88
 74
0
 42
0.0000001
 43
0.0000001
 44
0.0000000001
 40
0.0
 40
0.0
 40
0.0
 40
0.0
 40
0.0042121518
 40
0.0086199285
 40
0.0132276929
 40
0.0180388696
 40
0.0230560968
 40
0.0282813556
 40
0.0337160399
 40
0.0393610334
 40
0.045216776
 40
0.0512830206
 40
0.057558848
 40
0.0640430377
 40
0.0776297893
 40
0.0920275395
 40
0.1072155675
 40
0.1231691972
 40
0.1398600531
 40
0.1572570154
 40
0.1753258052
 40
0.1940301834
 40
0.2133311212
 40
0.2331881606
 40
0.2535584728
 40
0.2743981254
 40
0.2956612775
 40
0.3173011716
 40
0.3392696387
 40
0.3615177234
 40
0.4066517047
 40
0.4522981837
 40
0.4751854704
 40
0.4980462562
 40
0.5208289364
 40
0.5434821354
 40
0.5659547793
 40
0.5881964648
 40
0.6101572432
 40
0.631788274
 40
0.6530413516
 40
0.6738697744
 40
0.694227744
 40
0.7140712968
 40
0.7333577731
 40
0.7520465894
 40
0.7700990071
 40
0.787478568
 40
0.8041513614
 40
0.8200860082
 40
0.835254577
 40
0.8496321115
 40
0.8631982731
 40
0.8696719777
 40
0.8759372268
 40
0.8819929354
 40
0.8878383011
 40
0.8934729119
 40
0.8988970864
 40
0.9041117044
 40
0.9091181523
 40
0.9139184354
 40
0.9185155439
 40
0.9229134865
 40
0.9271172172
 40
0.9311328034
 40
0.9349677857
 40
0.9386314402
 40
0.9421347313
 40
0.9454905131
 40
0.9487138044
 40
0.9518220359
 40
0.9548348613
 40
0.9577740276
 40
0.9606631368
 40
0.9635271996
 40
0.966391897
 40
0.9692828682
 40
0.9722250438
 40
0.9752420181
 40
0.9783555199
 40
0.9815851609
 40
0.9849483595
 40
0.9884600811
 40
0.9921326424
 40
0.9959763898
 40
1.0
 40
1.0
 40
1.0
 40
1.0
 10
15.0648576441
 20
10.1848515769
 30
0.0
 10
15.0624537223
 20
10.1825295666
 30
0.0
 10
15.0576487988
 20
10.1776579621
 30
0.0
 10
15.0506058774
 20
10.1698721801
 30
0.0
 10
15.0435708245
 20
10.1614500174
 30
0.0
 10
15.0365486557
 20
10.1523972524
 30
0.0
 10
15.0295442506
 20
10.1427192869
 30
0.0
 10
15.0225617522
 20
10.1324222392
 30
0.0
 10
15.0156050044
 20
10.1215123572
 30
0.0
 10
15.0086779379
 20
10.1099958669
 30
0.0
 10
15.0017846779
 20
10.0978792062
 30
0.0
 10
14.9949292694
 20
10.0851695222
 30
0.0
 10
14.988115578
 20
10.0718746171
 30
0.0
 10
14.9789487908
 20
10.0530847725
 30
0.0
 10
14.9676501236
 20
10.0281708346
 30
0.0
 10
14.9545255409
 20
9.9965228054
 30
0.0
 10
14.9416637893
 20
9.962749865
 30
0.0
 10
14.9290960118
 20
9.9269329068
 30
0.0
 10
14.9168522691
 20
9.8891573959
 30
0.0
 10
14.904962845
 20
9.8495137844
 30
0.0
 10
14.8934557084
 20
9.8080971865
 30
0.0
 10
14.8823596978
 20
9.7650069687
 30
0.0
 10
14.8717005891
 20
9.7203467163
 30
0.0
 10
14.8615053428
 20
9.6742237408
 30
0.0
 10
14.8517974493
 20
9.6267490175
 30
0.0
 10
14.8426015348
 20
9.5780367116
 30
0.0
 10
14.8339387543
 20
9.5282040742
 30
0.0
 10
14.8258310283
 20
9.4773710192
 30
0.0
 10
14.8182970491
 20
9.4256598697
 30
0.0
 10
14.8089980608
 20
9.3553731437
 30
0.0
 10
14.7989526597
 20
9.2662418282
 30
0.0
 10
14.7910749428
 20
9.1763842376
 30
0.0
 10
14.7860687288
 20
9.1040363634
 30
0.0
 10
14.7829805812
 20
9.049745196
 30
0.0
 10
14.7805702823
 20
8.9956057064
 30
0.0
 10
14.7788429099
 20
8.9417482192
 30
0.0
 10
14.7778034714
 20
8.8883023836
 30
0.0
 10
14.7774534562
 20
8.8353969708
 30
0.0
 10
14.7777946907
 20
8.7831592577
 30
0.0
 10
14.7788252476
 20
8.7317151162
 30
0.0
 10
14.7805435912
 20
8.6811882737
 30
0.0
 10
14.782944548
 20
8.6317004669
 30
0.0
 10
14.7860230763
 20
8.5833706968
 30
0.0
 10
14.7897709471
 20
8.5363153417
 30
0.0
 10
14.7941795228
 20
8.4906475124
 30
0.0
 10
14.7992377101
 20
8.4464770612
 30
0.0
 10
14.8049332498
 20
8.4039100972
 30
0.0
 10
14.8112523774
 20
8.3630488603
 30
0.0
 10
14.8181792462
 20
8.3239913556
 30
0.0
 10
14.8256976252
 20
8.2868312049
 30
0.0
 10
14.8337881981
 20
8.2516570916
 30
0.0
 10
14.8424325171
 20
8.2185533873
 30
0.0
 10
14.8501950372
 20
8.1923640041
 30
0.0
 10
14.8566891231
 20
8.1725262996
 30
0.0
 10
14.8616086797
 20
8.1584468638
 30
0.0
 10
14.8666502759
 20
8.1449415278
 30
0.0
 10
14.8718109789
 20
8.1320184436
 30
0.0
 10
14.8770879979
 20
8.1196855263
 30
0.0
 10
14.8824779813
 20
8.1079499689
 30
0.0
 10
14.8879776188
 20
8.0968185301
 30
0.0
 10
14.8935836657
 20
8.0862978334
 30
0.0
 10
14.8992931525
 20
8.0763943602
 30
0.0
 10
14.9051027394
 20
8.0671139071
 30
0.0
 10
14.9110089036
 20
8.0584616344
 30
0.0
 10
14.9170083472
 20
8.0504425774
 30
0.0
 10
14.9230980123
 20
8.0430617431
 30
0.0
 10
14.9292748201
 20
8.0363237213
 30
0.0
 10
14.9355352468
 20
8.0302322189
 30
0.0
 10
14.9418761244
 20
8.0247909761
 30
0.0
 10
14.9482943831
 20
8.0200038773
 30
0.0
 10
14.9547870453
 20
8.0158749881
 30
0.0
 10
14.9613503595
 20
8.0124072999
 30
0.0
 10
14.9679805367
 20
8.0096039315
 30
0.0
 10
14.9746733767
 20
8.00746808
 30
0.0
 10
14.9814241575
 20
8.0060031253
 30
0.0
 10
14.9882272243
 20
8.0052104989
 30
0.0
 10
14.995076722
 20
8.0050906339
 30
0.0
 10
15.0019668192
 20
8.0056433662
 30
0.0
 10
15.008891857
 20
8.0068681118
 30
0.0
 10
15.0158466736
 20
8.0087629181
 30
0.0
 10
15.0228268812
 20
8.0113249309
 30
0.0
 10
15.0298285336
 20
8.0145515639
 30
0.0
 10
15.0368477247
 20
8.0184404097
 30
0.0
 10
15.0438803633
 20
8.0229883496
 30
0.0
 10
15.0509226552
 20
8.0281910153
 30
0.0
 10
15.0579700005
 20
8.034044064
 30
0.0
 10
15.0625613251
 20
8.0382780415
 30
0.0
 10
15.0648576441
 20
8.0404961154
 30
0.0
  0
SPLINE
  5
338
100
AcDbEntity
  8
0
100
AcDbSpline
 62
7
  6
CONTINUOUS
 70
0
 71
3
 72
15
 73
11
 74
0
 42
0.0000001
 43
0.0000001
 44
0.0000000001
 40
0.0
 40
0.0
 40
0.0
 40
0.0
 40
0.1072747747
 40
0.2194482562
 40
0.3366285371
 40
0.4589008517
 40
0.5863312082
 40
0.7189695525
 40
0.8568514726
 40
1.0
 40
1.0
 40
1.0
 40
1.0
 10
15.0648576441
 20
8.0404961154
 30
0.0
 10
15.0672204645
 20
8.0427784248
 30
0.0
 10
15.0719433516
 20
8.0475629069
 30
0.0
 10
15.0788687467
 20
8.0552023783
 30
0.0
 10
15.0857867049
 20
8.0634573472
 30
0.0
 10
15.0926924563
 20
8.0723223154
 30
0.0
 10
15.0995813496
 20
8.0817921446
 30
0.0
 10
15.1064493795
 20
8.0918610882
 30
0.0
 10
15.1132928623
 20
8.1025231051
 30
0.0
 10
15.1177527323
 20
8.1098846077
 30
0.0
 10
15.1199796714
 20
8.1136604865
 30
0.0
  0
SPLINE
  5
339
100
AcDbEntity
  8
0
100
AcDbSpline
 62
7
  6
CONTINUOUS
 70
0
 71
3
 72
9
 73
5
 74
0
 42
0.0000001
 43
0.0000001
 44
0.0000000001
 40
0.0
 40
0.0
 40
0.0
 40
0.0
 40
0.4898589089
 40
1.0
 40
1.0
 40
1.0
 40
1.0
 10
14.9767445882
 20
10.3435785276
 30
0.0
 10
14.974286012
 20
10.3412037253
 30
0.0
 10
14.9693716576
 20
10.3362466587
 30
0.0
 10
14.9646552219
 20
10.3311015118
 30
0.0
 10
14.9622965638
 20
10.328435316
 30
0.0
  0
SPLINE
  5
33A
100
AcDbEntity
  8
0
100
AcDbSpline
 62
7
  6
CONTINUOUS
 70
0
 71
3
 72
9
 73
5
 74
0
 42
0.0000001
 43
0.0000001
 44
0.0000000001
 40
0.0
 40
0.0
 40
0.0
 40
0.0
 40
0.2423492772
 40
1.0
 40
1.0
 40
1.0
 40
1.0
 10
14.9911926125
 20
10.3563467573
 30
0.0
 10
14.9899769425
 20
10.3553724403
 30
0.0
 10
14.9850117658
 20
10.3512886582
 30
0.0
 10
14.9802477323
 20
10.3469623052
 30
0.0
 10
14.9767445882
 20
10.3435785276
 30
0.0
  0
SPLINE
  5
33B
100
AcDbEntity
  8
0
100
AcDbSpline
 62
7
  6
CONTINUOUS
 70
0
 71
3
 72
29
 73
25
 74
0
 42
0.0000001
 43
0.0000001
 44
0.0000000001
 40
0.0
 40
0.0
 40
0.0
 40
0.0
 40
0.0586485699
 40
0.1174941927
 40
0.1765996552
 40
0.236042115
 40
0.2659173254
 40
0.2959088442
 40
0.3562791685
 40
0.3866847568
 40
0.417249253
 40
0.4479825335
 40
0.4788935446
 40
0.509989549
 40
0.5412773237
 40
0.5727621419
 40
0.6044475662
 40
0.6684252964
 40
0.700722107
 40
0.7332212604
 40
0.7988124798
 40
0.8651693793
 40
0.9322497619
 40
1.0
 40
1.0
 40
1.0
 40
1.0
 10
14.9622965638
 20
10.328435316
 30
0.0
 10
14.9630887365
 20
10.3113004727
 30
0.0
 10
14.964085516
 20
10.2769423907
 30
0.0
 10
14.9636424911
 20
10.2252807964
 30
0.0
 10
14.9610864427
 20
10.1734457721
 30
0.0
 10
14.9570561657
 20
10.1302074341
 30
0.0
 10
14.9526198027
 20
10.0955929192
 30
0.0
 10
14.947326757
 20
10.0608248221
 30
0.0
 10
14.9407515394
 20
10.0261039835
 30
0.0
 10
14.9328662328
 20
9.9914994451
 30
0.0
 10
14.9262643789
 20
9.9655008745
 30
0.0
 10
14.9189821386
 20
9.939531261
 30
0.0
 10
14.9110173196
 20
9.913600124
 30
0.0
 10
14.902373956
 20
9.8877162208
 30
0.0
 10
14.8930541569
 20
9.8618897206
 30
0.0
 10
14.8830661294
 20
9.8361291933
 30
0.0
 10
14.8688298151
 20
9.8017719544
 30
0.0
 10
14.853339636
 20
9.767687837
 30
0.0
 10
14.836692656
 20
9.7339015635
 30
0.0
 10
14.8191510198
 20
9.7000381373
 30
0.0
 10
14.7957937884
 20
9.6579803202
 30
0.0
 10
14.7657545987
 20
9.6081070562
 30
0.0
 10
14.7338066994
 20
9.5586830905
 30
0.0
 10
14.7114618285
 20
9.5261836912
 30
0.0
 10
14.7000299682
 20
9.5099987483
 30
0.0
  0
SPLINE
  5
33C
100
AcDbEntity
  8
0
100
AcDbSpline
 62
7
  6
CONTINUOUS
 70
0
 71
3
 72
28
 73
24
 74
0
 42
0.0000001
 43
0.0000001
 44
0.0000000001
 40
0.0
 40
0.0
 40
0.0
 40
0.0
 40
0.1269492752
 40
0.1902637774
 40
0.2534525032
 40
0.2849967752
 40
0.3165053824
 40
0.3794072761
 40
0.4108011801
 40
0.4421549885
 40
0.4734680747
 40
0.5047401836
 40
0.5359711658
 40
0.5671609517
 40
0.5983100192
 40
0.6294190111
 40
0.6915167246
 40
0.7225105017
 40
0.7534679652
 40
0.8152784177
 40
0.8769618878
 40
0.9385325238
 40
1.0
 40
1.0
 40
1.0
 40
1.0
 10
14.6855819439
 20
9.4026494475
 30
0.0
 10
14.6978388399
 20
9.3557871331
 30
0.0
 10
14.7145928259
 20
9.2851063947
 30
0.0
 10
14.7329354382
 20
9.1901439931
 30
0.0
 10
14.7425693471
 20
9.1306023355
 30
0.0
 10
14.7490958714
 20
9.0828758356
 30
0.0
 10
14.7548023105
 20
9.035154814
 30
0.0
 10
14.7592621543
 20
8.9873484018
 30
0.0
 10
14.7624080927
 20
8.9395068143
 30
0.0
 10
14.7641017673
 20
8.9036548173
 30
0.0
 10
14.7651210746
 20
8.86782389
 30
0.0
 10
14.7654607539
 20
8.8320268958
 30
0.0
 10
14.7651219684
 20
8.7962769323
 30
0.0
 10
14.764103541
 20
8.7605868734
 30
0.0
 10
14.7624106907
 20
8.724968928
 30
0.0
 10
14.7592697606
 20
8.6776217287
 30
0.0
 10
14.754813739
 20
8.6304291561
 30
0.0
 10
14.7491011609
 20
8.5834412194
 30
0.0
 10
14.7425823843
 20
8.5366686911
 30
0.0
 10
14.7329612869
 20
8.4785151167
 30
0.0
 10
14.7192164889
 20
8.4092414882
 30
0.0
 10
14.7034599257
 20
8.3405335868
 30
0.0
 10
14.6917249326
 20
8.2950712143
 30
0.0
 10
14.6855819439
 20
8.2724364983
 30
0.0
  0
SPLINE
  5
33D
100
AcDbEntity
  8
0
100
AcDbSpline
 62
7
  6
CONTINUOUS
 70
0
 71
3
 72
28
 73
24
 74
0
 42
0.0000001
 43
0.0000001
 44
0.0000000001
 40
0.0
 40
0.0
 40
0.0
 40
0.0
 40
0.0614674762
 40
0.1230381122
 40
0.1847215823
 40
0.2465320349
 40
0.2774894984
 40
0.3084832754
 40
0.370580989
 40
0.4016899809
 40
0.4328390483
 40
0.4640288343
 40
0.4952598165
 40
0.5265319254
 40
0.5578450116
 40
0.58919882
 40
0.620592724
 40
0.6834946176
 40
0.7150032248
 40
0.7465474968
 40
0.8097362226
 40
0.8730507248
 40
1.0
 40
1.0
 40
1.0
 40
1.0
 10
13.9167750612
 20
9.4559663859
 30
0.0
 10
13.9106320725
 20
9.4333316699
 30
0.0
 10
13.8988970794
 20
9.3878692974
 30
0.0
 10
13.8831405162
 20
9.319161396
 30
0.0
 10
13.8693957182
 20
9.2498877675
 30
0.0
 10
13.8597746208
 20
9.1917341931
 30
0.0
 10
13.8532558442
 20
9.1449616648
 30
0.0
 10
13.8475432661
 20
9.097973728
 30
0.0
 10
13.8430872445
 20
9.0507811555
 30
0.0
 10
13.8399463145
 20
9.0034339562
 30
0.0
 10
13.8382534641
 20
8.9678160107
 30
0.0
 10
13.8372350367
 20
8.9321259519
 30
0.0
 10
13.8368962512
 20
8.8963759884
 30
0.0
 10
13.8372359305
 20
8.8605789942
 30
0.0
 10
13.8382552378
 20
8.8247480668
 30
0.0
 10
13.8399489124
 20
8.7888960699
 30
0.0
 10
13.8430948508
 20
8.7410544823
 30
0.0
 10
13.8475546946
 20
8.6932480701
 30
0.0
 10
13.8532611337
 20
8.6455270486
 30
0.0
 10
13.859787658
 20
8.5978005486
 30
0.0
 10
13.8694215669
 20
8.5382588911
 30
0.0
 10
13.8877641792
 20
8.4432964894
 30
0.0
 10
13.9045181652
 20
8.3726157511
 30
0.0
 10
13.9167750612
 20
8.3257534367
 30
0.0
  0
SPLINE
  5
33E
100
AcDbEntity
  8
0
100
AcDbSpline
 62
7
  6
CONTINUOUS
 70
0
 71
3
 72
35
 73
31
 74
0
 42
0.0000001
 43
0.0000001
 44
0.0000000001
 40
0.0
 40
0.0
 40
0.0
 40
0.0
 40
0.0913150035
 40
0.1792110316
 40
0.2217758004
 40
0.263365303
 40
0.303942469
 40
0.3434728289
 40
0.3819243877
 40
0.4192693252
 40
0.4554869812
 40
0.4905607565
 40
0.524481398
 40
0.5572503534
 40
0.6193608377
 40
0.6770819214
 40
0.7044015014
 40
0.7307633311
 40
0.7562301025
 40
0.7808748494
 40
0.8047762316
 40
0.8280151811
 40
0.8506773308
 40
0.8728482791
 40
0.8946116219
 40
0.916049434
 40
0.9372390446
 40
0.9582517922
 40
0.9791527961
 40
1.0
 40
1.0
 40
1.0
 40
1.0
 10
14.7000299682
 20
8.1929986389
 30
0.0
 10
14.7113175085
 20
8.1863332338
 30
0.0
 10
14.7333435611
 20
8.1730360824
 30
0.0
 10
14.7602104871
 20
8.1559483478
 30
0.0
 10
14.7807688754
 20
8.1422586525
 30
0.0
 10
14.7955213902
 20
8.1321095516
 30
0.0
 10
14.8097497691
 20
8.1219711452
 30
0.0
 10
14.8234317567
 20
8.11184668
 30
0.0
 10
14.8365453625
 20
8.1017392329
 30
0.0
 10
14.8490693256
 20
8.0916515207
 30
0.0
 10
14.8609849319
 20
8.081587916
 30
0.0
 10
14.8722740847
 20
8.0715516791
 30
0.0
 10
14.8829208152
 20
8.061545665
 30
0.0
 10
14.896010471
 20
8.048483747
 30
0.0
 10
14.9107705806
 20
8.0322719617
 30
0.0
 10
14.923787089
 20
8.015601634
 30
0.0
 10
14.9327706641
 20
8.0023651293
 30
0.0
 10
14.9387116043
 20
7.9926748697
 30
0.0
 10
14.9439849622
 20
7.983041025
 30
0.0
 10
14.9486017744
 20
7.9734662413
 30
0.0
 10
14.9525757404
 20
7.9639527246
 30
0.0
 10
14.9559202352
 20
7.9545013065
 30
0.0
 10
14.9586532783
 20
7.9451137082
 30
0.0
 10
14.9607939826
 20
7.9357908035
 30
0.0
 10
14.9623614854
 20
7.9265329
 30
0.0
 10
14.9633775414
 20
7.9173402736
 30
0.0
 10
14.9638641756
 20
7.9082126349
 30
0.0
 10
14.9638434809
 20
7.8991493492
 30
0.0
 10
14.9633379373
 20
7.8901499405
 30
0.0
 10
14.9626922573
 20
7.8841886815
 30
0.0
 10
14.9622965638
 20
7.8812222573
 30
0.0
  0
SPLINE
  5
33F
100
AcDbEntity
  8
0
100
AcDbSpline
 62
7
  6
CONTINUOUS
 70
0
 71
3
 72
15
 73
11
 74
0
 42
0.0000001
 43
0.0000001
 44
0.0000000001
 40
0.0
 40
0.0
 40
0.0
 40
0.0
 40
0.1195882985
 40
0.2396126262
 40
0.360556304
 40
0.482967703
 40
0.6074530981
 40
0.7346676949
 40
0.8652861107
 40
1.0
 40
1.0
 40
1.0
 40
1.0
 10
13.9312230856
 20
8.2463155773
 30
0.0
 10
13.9307540393
 20
8.2427992438
 30
0.0
 10
13.9300205608
 20
8.2357242272
 30
0.0
 10
13.9295773198
 20
8.2250309821
 30
0.0
 10
13.9298277673
 20
8.2142467099
 30
0.0
 10
13.9308092653
 20
8.2033709683
 30
0.0
 10
13.9325585477
 20
8.1924032302
 30
0.0
 10
13.9351121662
 20
8.1813440967
 30
0.0
 10
13.9385017656
 20
8.1701949138
 30
0.0
 10
13.9412927692
 20
8.16282833
 30
0.0
 10
13.9428269969
 20
8.1591384133
 30
0.0
  0
SPLINE
  5
340
100
AcDbEntity
  8
0
100
AcDbSpline
 62
7
  6
CONTINUOUS
 70
0
 71
3
 72
52
 73
48
 74
0
 42
0.0000001
 43
0.0000001
 44
0.0000000001
 40
0.0
 40
0.0
 40
0.0
 40
0.0
 40
0.0097387613
 40
0.01996924
 40
0.0306879308
 40
0.0418900686
 40
0.0535691498
 40
0.0657170708
 40
0.0783249817
 40
0.0913826919
 40
0.1048786857
 40
0.1188009705
 40
0.1331365327
 40
0.1478712739
 40
0.1784791338
 40
0.2105004411
 40
0.2438011534
 40
0.2782386556
 40
0.3136632709
 40
0.3499196009
 40
0.3868470982
 40
0.4242813612
 40
0.4620551404
 40
0.499999107
 40
0.5379430949
 40
0.5757168797
 40
0.6131511635
 40
0.6500787085
 40
0.6863350312
 40
0.7217597201
 40
0.7561973093
 40
0.7894980008
 40
0.8215194253
 40
0.8370084466
 40
0.8521280753
 40
0.8668628263
 40
0.8811983593
 40
0.8951207763
 40
0.9086167822
 40
0.9216744626
 40
0.9342825344
 40
0.9464305003
 40
0.9581095423
 40
0.9693117773
 40
0.9800304329
 40
0.9902608885
 40
1.0
 40
1.0
 40
1.0
 40
1.0
 10
14.0474353977
 20
10.1479491496
 30
0.0
 10
14.0442017429
 20
10.1424665842
 30
0.0
 10
14.0377698062
 20
10.1311065806
 30
0.0
 10
14.028435119
 20
10.1133507969
 30
0.0
 10
14.0191858835
 20
10.0944791684
 30
0.0
 10
14.0100339591
 20
10.0745140841
 30
0.0
 10
14.0009902417
 20
10.0534791874
 30
0.0
 10
13.9920650451
 20
10.0313996785
 30
0.0
 10
13.9832695169
 20
10.0083015569
 30
0.0
 10
13.974614182
 20
9.9842123122
 30
0.0
 10
13.9661089604
 20
9.9591608147
 30
0.0
 10
13.9577645242
 20
9.9331767998
 30
0.0
 10
13.949590856
 20
9.9062912433
 30
0.0
 10
13.938795976
 20
9.8688085859
 30
0.0
 10
13.9258332723
 20
9.8199273595
 30
0.0
 10
13.9112973345
 20
9.7589309156
 30
0.0
 10
13.8976612709
 20
9.6951654222
 30
0.0
 10
13.8849905577
 20
9.6289356142
 30
0.0
 10
13.8733460395
 20
9.5605576882
 30
0.0
 10
13.8627842581
 20
9.490358299
 30
0.0
 10
13.8533558413
 20
9.4186729448
 30
0.0
 10
13.8451058728
 20
9.3458443695
 30
0.0
 10
13.8380744302
 20
9.272220764
 30
0.0
 10
13.832295005
 20
9.1981541952
 30
0.0
 10
13.827795064
 20
9.1239988876
 30
0.0
 10
13.8245965435
 20
9.0501094394
 30
0.0
 10
13.8227143709
 20
8.9768392017
 30
0.0
 10
13.822157193
 20
8.9045385768
 30
0.0
 10
13.8229278821
 20
8.8335532053
 30
0.0
 10
13.8250221173
 20
8.7642224023
 30
0.0
 10
13.8284292287
 20
8.6968773985
 30
0.0
 10
13.8331330311
 20
8.6318402304
 30
0.0
 10
13.8381675301
 20
8.5792576865
 30
0.0
 10
13.8428509624
 20
8.5385911828
 30
0.0
 10
13.8466327523
 20
8.5091965849
 30
0.0
 10
13.8507185002
 20
8.480604022
 30
0.0
 10
13.8551028111
 20
8.4528475407
 30
0.0
 10
13.859780411
 20
8.4259603096
 30
0.0
 10
13.864746182
 20
8.3999745174
 30
0.0
 10
13.8699936038
 20
8.3749210576
 30
0.0
 10
13.8755163448
 20
8.3508297832
 30
0.0
 10
13.8813083393
 20
8.3277295241
 30
0.0
 10
13.8873620532
 20
8.3056476031
 30
0.0
 10
13.8936701524
 20
8.2846102371
 30
0.0
 10
13.9002257798
 20
8.2646424707
 30
0.0
 10
13.9070203718
 20
8.2457680069
 30
0.0
 10
13.9118226426
 20
8.2336286811
 30
0.0
 10
13.9142686078
 20
8.227752014
 30
0.0
  0
SPLINE
  5
341
100
AcDbEntity
  8
0
100
AcDbSpline
 62
7
  6
CONTINUOUS
 70
0
 71
3
 72
25
 73
21
 74
0
 42
0.0000001
 43
0.0000001
 44
0.0000000001
 40
0.0
 40
0.0
 40
0.0
 40
0.0
 40
0.0668867605
 40
0.1331120545
 40
0.1986581884
 40
0.2635176015
 40
0.2956921237
 40
0.3276978125
 40
0.3595370449
 40
0.3912129943
 40
0.4540900257
 40
0.5163726496
 40
0.5781124379
 40
0.6393658946
 40
0.7001947143
 40
0.7606598158
 40
0.8208202142
 40
0.8807319305
 40
0.940444804
 40
1.0
 40
1.0
 40
1.0
 40
1.0
 10
14.1051573818
 20
10.2458158264
 30
0.0
 10
14.0970536001
 20
10.2320810452
 30
0.0
 10
14.0813119547
 20
10.2045171309
 30
0.0
 10
14.059093892
 20
10.1626782594
 30
0.0
 10
14.038484765
 20
10.1205601023
 30
0.0
 10
14.0226801401
 20
10.0851555561
 30
0.0
 10
14.0109304892
 20
10.0567200078
 30
0.0
 10
14.002590534
 20
10.0353984966
 30
0.0
 10
13.9947066279
 20
10.0140307383
 30
0.0
 10
13.9848363696
 20
9.9855566647
 30
0.0
 10
13.9736470336
 20
9.9498653802
 30
0.0
 10
13.9620600533
 20
9.9068246565
 30
0.0
 10
13.9523273609
 20
9.8637236764
 30
0.0
 10
13.944417317
 20
9.8206041555
 30
0.0
 10
13.9382685724
 20
9.7775061373
 30
0.0
 10
13.933809883
 20
9.7344635059
 30
0.0
 10
13.9309526157
 20
9.6915051723
 30
0.0
 10
13.9296023317
 20
9.6486534787
 30
0.0
 10
13.929658353
 20
9.605926237
 30
0.0
 10
13.93056733
 20
9.5774998028
 30
0.0
 10
13.9312230856
 20
9.5633156867
 30
0.0
  0
SPLINE
  5
342
100
AcDbEntity
  8
0
100
AcDbSpline
 62
7
  6
CONTINUOUS
 70
0
 71
3
 72
9
 73
5
 74
0
 42
0.0000001
 43
0.0000001
 44
0.0000000001
 40
0.0
 40
0.0
 40
0.0
 40
0.0
 40
0.5156474505
 40
1.0
 40
1.0
 40
1.0
 40
1.0
 10
15.2573483799
 20
10.0945245127
 30
0.0
 10
15.254629388
 20
10.101057118
 30
0.0
 10
15.2491143081
 20
10.1136270033
 30
0.0
 10
15.2430472707
 20
10.1259418849
 30
0.0
 10
15.2399558577
 20
10.1318256036
 30
0.0
  0
SPLINE
  5
343
100
AcDbEntity
  8
0
100
AcDbSpline
 62
7
  6
CONTINUOUS
 70
0
 71
3
 72
29
 73
25
 74
0
 42
0.0000001
 43
0.0000001
 44
0.0000000001
 40
0.0
 40
0.0
 40
0.0
 40
0.0
 40
0.0862327848
 40
0.1664676269
 40
0.2409152233
 40
0.3098757337
 40
0.3737745705
 40
0.4331809165
 40
0.4888343581
 40
0.5155549759
 40
0.5417008459
 40
0.5674144755
 40
0.5928466994
 40
0.6181538755
 40
0.6434945689
 40
0.6690265959
 40
0.6949041625
 40
0.7212751943
 40
0.7482787411
 40
0.804656131
 40
0.8649664487
 40
0.8968317374
 40
0.9299236223
 40
1.0
 40
1.0
 40
1.0
 40
1.0
 10
15.2399558577
 20
10.1318256036
 30
0.0
 10
15.2369524628
 20
10.1375418021
 30
0.0
 10
15.2308739787
 20
10.1484332947
 30
0.0
 10
15.2211429068
 20
10.1636380203
 30
0.0
 10
15.2111452841
 20
10.1770926449
 30
0.0
 10
15.2008922965
 20
10.1887743644
 30
0.0
 10
15.1903949917
 20
10.1986643444
 30
0.0
 10
15.1796650962
 20
10.2067422374
 30
0.0
 10
15.1704088096
 20
10.212015476
 30
0.0
 10
15.1629462671
 20
10.2152480642
 30
0.0
 10
15.1573808262
 20
10.2171765408
 30
0.0
 10
15.1517747961
 20
10.2186393732
 30
0.0
 10
15.1461308277
 20
10.2196354466
 30
0.0
 10
15.140452076
 20
10.2201644532
 30
0.0
 10
15.1347416248
 20
10.2202262192
 30
0.0
 10
15.1290025616
 20
10.2198208147
 30
0.0
 10
15.1232379577
 20
10.2189484818
 30
0.0
 10
15.1174505394
 20
10.217609701
 30
0.0
 10
15.1095958818
 20
10.2151703584
 30
0.0
 10
15.0996865245
 20
10.2108898602
 30
0.0
 10
15.0900764254
 20
10.2052384823
 30
0.0
 10
15.0823872134
 20
10.1998604229
 30
0.0
 10
15.0743968156
 20
10.1936585849
 30
0.0
 10
15.0686318488
 20
10.1884971789
 30
0.0
 10
15.0648576441
 20
10.1848515769
 30
0.0
  0
SPLINE
  5
344
100
AcDbEntity
  8
0
100
AcDbSpline
 62
7
  6
CONTINUOUS
 70
0
 71
3
 72
23
 73
19
 74
0
 42
0.0000001
 43
0.0000001
 44
0.0000000001
 40
0.0
 40
0.0
 40
0.0
 40
0.0
 40
0.0637754757
 40
0.1273453426
 40
0.1907021752
 40
0.2538559149
 40
0.3168132477
 40
0.3795821059
 40
0.4421733695
 40
0.5045993382
 40
0.566873869
 40
0.6290123778
 40
0.6910316472
 40
0.7529496469
 40
0.8147853527
 40
0.8765585998
 40
0.9382898568
 40
1.0
 40
1.0
 40
1.0
 40
1.0
 10
13.1977968691
 20
10.3200300337
 30
0.0
 10
13.1977968691
 20
10.3156946618
 30
0.0
 10
13.1975893071
 20
10.3070364275
 30
0.0
 10
13.1966527626
 20
10.2941017725
 30
0.0
 10
13.195093297
 20
10.2812695714
 30
0.0
 10
13.1929146373
 20
10.2685701585
 30
0.0
 10
13.1901218244
 20
10.2560324057
 30
0.0
 10
13.186721188
 20
10.2436853008
 30
0.0
 10
13.18272051
 20
10.2315573508
 30
0.0
 10
13.1781290849
 20
10.219676471
 30
0.0
 10
13.1729574241
 20
10.2080700778
 30
0.0
 10
13.1672173794
 20
10.196764973
 30
0.0
 10
13.1609222706
 20
10.1857871839
 30
0.0
 10
13.1540865345
 20
10.1751620577
 30
0.0
 10
13.1467259132
 20
10.1649141581
 30
0.0
 10
13.1388573772
 20
10.1550669821
 30
0.0
 10
13.13049932
 20
10.1456435975
 30
0.0
 10
13.1246126554
 20
10.1396572797
 30
0.0
 10
13.1215954009
 20
10.1367428368
 30
0.0
  0
SPLINE
  5
345
100
AcDbEntity
  8
0
100
AcDbSpline
 62
7
  6
CONTINUOUS
 70
0
 71
3
 72
23
 73
19
 74
0
 42
0.0000001
 43
0.0000001
 44
0.0000000001
 40
0.0
 40
0.0
 40
0.0
 40
0.0
 40
0.0637754757
 40
0.1273453426
 40
0.1907021752
 40
0.2538559149
 40
0.3168132477
 40
0.3795821059
 40
0.4421733695
 40
0.5045993382
 40
0.566873869
 40
0.6290123778
 40
0.6910316472
 40
0.7529496469
 40
0.8147853527
 40
0.8765585998
 40
0.9382898568
 40
1.0
 40
1.0
 40
1.0
 40
1.0
 10
13.1977968691
 20
5.4904006161
 30
0.0
 10
13.1977968691
 20
5.4860652442
 30
0.0
 10
13.1975893071
 20
5.4774070099
 30
0.0
 10
13.1966527626
 20
5.4644723549
 30
0.0
 10
13.195093297
 20
5.4516401538
 30
0.0
 10
13.1929146373
 20
5.4389407409
 30
0.0
 10
13.1901218244
 20
5.4264029881
 30
0.0
 10
13.186721188
 20
5.4140558832
 30
0.0
 10
13.18272051
 20
5.4019279332
 30
0.0
 10
13.1781290849
 20
5.3900470534
 30
0.0
 10
13.1729574241
 20
5.3784406602
 30
0.0
 10
13.1672173794
 20
5.3671355554
 30
0.0
 10
13.1609222706
 20
5.3561577663
 30
0.0
 10
13.1540865345
 20
5.3455326401
 30
0.0
 10
13.1467259132
 20
5.3352847405
 30
0.0
 10
13.1388573772
 20
5.3254375645
 30
0.0
 10
13.13049932
 20
5.3160141799
 30
0.0
 10
13.1246126554
 20
5.3100278621
 30
0.0
 10
13.1215954009
 20
5.3071134192
 30
0.0
  0
SPLINE
  5
346
100
AcDbEntity
  8
0
100
AcDbSpline
 62
7
  6
CONTINUOUS
 70
0
 71
3
 72
52
 73
48
 74
0
 42
0.0000001
 43
0.0000001
 44
0.0000000001
 40
0.0
 40
0.0
 40
0.0
 40
0.0
 40
0.0481976586
 40
0.0958298417
 40
0.1428197349
 40
0.1890976738
 40
0.2345927526
 40
0.2792363126
 40
0.3229616726
 40
0.3657040217
 40
0.4074008695
 40
0.4479921877
 40
0.4874205767
 40
0.5256315209
 40
0.5625737305
 40
0.5981993819
 40
0.6324644205
 40
0.6653290015
 40
0.6967580213
 40
0.7267215998
 40
0.7411465372
 40
0.7551967179
 40
0.7688701694
 40
0.7821654908
 40
0.7950818363
 40
0.8076188358
 40
0.8197768796
 40
0.8315570016
 40
0.842960946
 40
0.8539914268
 40
0.8646519891
 40
0.8749472323
 40
0.8848829866
 40
0.8944662508
 40
0.9037055339
 40
0.912610945
 40
0.9211942707
 40
0.9294693586
 40
0.9374521473
 40
0.9451608712
 40
0.9598350014
 40
0.9668568271
 40
0.9737036868
 40
0.980406896
 40
0.9870001056
 40
0.9935188497
 40
1.0
 40
1.0
 40
1.0
 40
1.0
 10
8.8780650933
 20
11.2874521709
 30
0.0
 10
8.8674540475
 20
11.2881880494
 30
0.0
 10
8.8463644564
 20
11.2897696347
 30
0.0
 10
8.8149630415
 20
11.2924890765
 30
0.0
 10
8.7840175431
 20
11.2955383311
 30
0.0
 10
8.7535801959
 20
11.2989121584
 30
0.0
 10
8.7237015312
 20
11.3026049714
 30
0.0
 10
8.6944316052
 20
11.3066105329
 30
0.0
 10
8.6658193349
 20
11.3109221039
 30
0.0
 10
8.6379125304
 20
11.3155324613
 30
0.0
 10
8.6107578247
 20
11.3204338475
 30
0.0
 10
8.5844005661
 20
11.3256180092
 30
0.0
 10
8.5588847666
 20
11.3310762315
 30
0.0
 10
8.5342530175
 20
11.336799354
 30
0.0
 10
8.5105463968
 20
11.342777736
 30
0.0
 10
8.4878044014
 20
11.3490013167
 30
0.0
 10
8.4660649135
 20
11.3554596427
 30
0.0
 10
8.4453640289
 20
11.3621418795
 30
0.0
 10
8.4257362612
 20
11.3690367915
 30
0.0
 10
8.4101092154
 20
11.3750234872
 30
0.0
 10
8.3981775639
 20
11.3799193913
 30
0.0
 10
8.3896306759
 20
11.3835907024
 30
0.0
 10
8.3813756265
 20
11.3873064398
 30
0.0
 10
8.3734158355
 20
11.3910650687
 30
0.0
 10
8.3657545975
 20
11.3948649796
 30
0.0
 10
8.3583951194
 20
11.3987046604
 30
0.0
 10
8.3513404336
 20
11.4025824708
 30
0.0
 10
8.3445934569
 20
11.4064968019
 30
0.0
 10
8.3381570109
 20
11.4104460966
 30
0.0
 10
8.3320337184
 20
11.4144286643
 30
0.0
 10
8.326226122
 20
11.4184429114
 30
0.0
 10
8.3207366347
 20
11.4224872319
 30
0.0
 10
8.3155674742
 20
11.4265599284
 30
0.0
 10
8.3107208165
 20
11.4306594359
 30
0.0
 10
8.3061986539
 20
11.4347841132
 30
0.0
 10
8.3020028332
 20
11.4389322926
 30
0.0
 10
8.2981351665
 20
11.4431024759
 30
0.0
 10
8.2945973172
 20
11.4472928795
 30
0.0
 10
8.2913905855
 20
11.4515023511
 30
0.0
 10
8.2876212878
 20
11.4570455396
 30
0.0
 10
8.2844322036
 20
11.4627196671
 30
0.0
 10
8.2819055972
 20
11.468494136
 30
0.0
 10
8.2803756937
 20
11.4727726816
 30
0.0
 10
8.2791846864
 20
11.4770596413
 30
0.0
 10
8.2783332793
 20
11.4813532818
 30
0.0
 10
8.2778220929
 20
11.4856510903
 30
0.0
 10
8.2777083694
 20
11.4885212618
 30
0.0
 10
8.2777083634
 20
11.4899515587
 30
0.0
  0
SPLINE
  5
347
100
AcDbEntity
  8
0
100
AcDbSpline
 62
7
  6
CONTINUOUS
 70
0
 71
3
 72
61
 73
57
 74
0
 42
0.0000001
 43
0.0000001
 44
0.0000000001
 40
0.0
 40
0.0
 40
0.0
 40
0.0
 40
0.0417736088
 40
0.0840360431
 40
0.126657155
 40
0.1695046842
 40
0.2124458378
 40
0.2553473321
 40
0.2980760744
 40
0.3404996436
 40
0.3824868274
 40
0.4239081481
 40
0.4646363976
 40
0.5045471783
 40
0.5435194547
 40
0.5814361204
 40
0.5999634452
 40
0.6181850312
 40
0.6360876424
 40
0.6536583488
 40
0.6708846631
 40
0.6877544565
 40
0.7042560738
 40
0.7203782989
 40
0.7361104104
 40
0.7514422273
 40
0.7663640903
 40
0.7808669935
 40
0.7949425048
 40
0.8085829615
 40
0.8217813757
 40
0.8345316441
 40
0.8468285057
 40
0.8586677174
 40
0.8700461208
 40
0.8809617639
 40
0.8914141105
 40
0.9014041268
 40
0.9109346407
 40
0.9200104579
 40
0.9286388542
 40
0.9368298218
 40
0.9445966692
 40
0.9519564915
 40
0.9589308526
 40
0.9655464796
 40
0.97183593
 40
0.9778382749
 40
0.9807467215
 40
0.9836011958
 40
0.9864085004
 40
0.9891758164
 40
0.9919106777
 40
0.9946209229
 40
0.9973146203
 40
1.0
 40
1.0
 40
1.0
 40
1.0
 10
13.5180385469
 20
8.930561243
 30
0.0
 10
13.5180385469
 20
8.9507095878
 30
0.0
 10
13.5183528806
 20
8.9912426823
 30
0.0
 10
13.5197425039
 20
9.0523185716
 30
0.0
 10
13.5220489265
 20
9.1138851535
 30
0.0
 10
13.5252645996
 20
9.1757386755
 30
0.0
 10
13.5293788893
 20
9.2376744596
 30
0.0
 10
13.534378199
 20
9.2994876185
 30
0.0
 10
13.5402459671
 20
9.360973645
 30
0.0
 10
13.5469627426
 20
9.4219291301
 30
0.0
 10
13.554506241
 20
9.4821524284
 30
0.0
 10
13.5628514195
 20
9.5414443381
 30
0.0
 10
13.5719705599
 20
9.5996087468
 30
0.0
 10
13.5818333497
 20
9.6564533612
 30
0.0
 10
13.5924070064
 20
9.7117900909
 30
0.0
 10
13.6018525347
 20
9.756834695
 30
0.0
 10
13.6097485889
 20
9.7919717707
 30
0.0
 10
13.6157803982
 20
9.8176324864
 30
0.0
 10
13.6219623799
 20
9.8427825606
 30
0.0
 10
13.6282895023
 20
9.8674012077
 30
0.0
 10
13.6347564467
 20
9.8914680678
 30
0.0
 10
13.6413579074
 20
9.9149632379
 30
0.0
 10
13.648088371
 20
9.9378672973
 30
0.0
 10
13.654942274
 20
9.9601613126
 30
0.0
 10
13.661913938
 20
9.9818268612
 30
0.0
 10
13.6689975522
 20
10.0028460487
 30
0.0
 10
13.6761872948
 20
10.023201511
 30
0.0
 10
13.6834771342
 20
10.0428764572
 30
0.0
 10
13.6908611118
 20
10.0618546424
 30
0.0
 10
13.6983330207
 20
10.0801204381
 30
0.0
 10
13.7058867582
 20
10.0976587819
 30
0.0
 10
13.7135160018
 20
10.1144552595
 30
0.0
 10
13.7212144981
 20
10.130496056
 30
0.0
 10
13.7289758693
 20
10.1457680175
 30
0.0
 10
13.7367937216
 20
10.1602586418
 30
0.0
 10
13.7446616762
 20
10.1739560785
 30
0.0
 10
13.7525732396
 20
10.1868491985
 30
0.0
 10
13.760522081
 20
10.1989274956
 30
0.0
 10
13.7685016923
 20
10.2101812567
 30
0.0
 10
13.776505842
 20
10.2206013554
 30
0.0
 10
13.784528148
 20
10.2301794921
 30
0.0
 10
13.792562553
 20
10.2389079244
 30
0.0
 10
13.8006029802
 20
10.246779667
 30
0.0
 10
13.8086436652
 20
10.2537882587
 30
0.0
 10
13.8166789391
 20
10.2599277319
 30
0.0
 10
13.8247035145
 20
10.265192611
 30
0.0
 10
13.8327114479
 20
10.2695772451
 30
0.0
 10
13.8394371307
 20
10.2725240886
 30
0.0
 10
13.8447886452
 20
10.2744176386
 30
0.0
 10
13.8487512958
 20
10.2756005832
 30
0.0
 10
13.8527037583
 20
10.2765606946
 30
0.0
 10
13.8566452642
 20
10.2772976887
 30
0.0
 10
13.8605749032
 20
10.2778112824
 30
0.0
 10
13.8644918208
 20
10.2781013593
 30
0.0
 10
13.8683949399
 20
10.27816782
 30
0.0
 10
13.8709889623
 20
10.2780628987
 30
0.0
 10
13.8722810778
 20
10.2779732959
 30
0.0
  0
SPLINE
  5
348
100
AcDbEntity
  8
0
100
AcDbSpline
 62
7
  6
CONTINUOUS
 70
0
 71
3
 72
36
 73
32
 74
0
 42
0.0000001
 43
0.0000001
 44
0.0000000001
 40
0.0
 40
0.0
 40
0.0
 40
0.0
 40
0.0937926979
 40
0.1836552058
 40
0.26944432
 40
0.3107723878
 40
0.3510364048
 40
0.3902236932
 40
0.4283232035
 40
0.4653249971
 40
0.5012211875
 40
0.5360055141
 40
0.5696735133
 40
0.6022232828
 40
0.6336548717
 40
0.6639711964
 40
0.6931781901
 40
0.721284715
 40
0.7483037776
 40
0.7742522541
 40
0.7991517166
 40
0.8230293498
 40
0.8459179621
 40
0.8678574725
 40
0.8888953553
 40
0.9090873683
 40
0.9284989024
 40
0.9472050613
 40
0.9652914985
 40
0.9828544532
 40
1.0
 40
1.0
 40
1.0
 40
1.0
 10
8.6600545249
 20
11.3119486976
 30
0.0
 10
8.6531565709
 20
11.3136495206
 30
0.0
 10
8.6396847334
 20
11.3171245728
 30
0.0
 10
8.6200464756
 20
11.3226898408
 30
0.0
 10
8.6043526817
 20
11.3275795928
 30
0.0
 10
8.5923321487
 20
11.3316126696
 30
0.0
 10
8.5837030394
 20
11.3346531129
 30
0.0
 10
8.5753525797
 20
11.3377451742
 30
0.0
 10
8.567285343
 20
11.3408871046
 30
0.0
 10
8.5595057924
 20
11.3440772364
 30
0.0
 10
8.5520181927
 20
11.3473137612
 30
0.0
 10
8.5448266541
 20
11.3505948894
 30
0.0
 10
8.5379351454
 20
11.3539188743
 30
0.0
 10
8.5313474133
 20
11.3572838088
 30
0.0
 10
8.5250670846
 20
11.3606879129
 30
0.0
 10
8.5190975886
 20
11.3641293206
 30
0.0
 10
8.5134421531
 20
11.367606112
 30
0.0
 10
8.5081039017
 20
11.3711165005
 30
0.0
 10
8.5030856919
 20
11.374658527
 30
0.0
 10
8.4983902558
 20
11.3782303387
 30
0.0
 10
8.4940201743
 20
11.3818301053
 30
0.0
 10
8.4899777593
 20
11.3854558779
 30
0.0
 10
8.4862652917
 20
11.3891059007
 30
0.0
 10
8.4828848021
 20
11.3927783028
 30
0.0
 10
8.4798381781
 20
11.3964712531
 30
0.0
 10
8.477127319
 20
11.4001830326
 30
0.0
 10
8.4747538139
 20
11.4039117589
 30
0.0
 10
8.4727193498
 20
11.407655623
 30
0.0
 10
8.4710254649
 20
11.4114128271
 30
0.0
 10
8.469673573
 20
11.4151808969
 30
0.0
 10
8.4689944164
 20
11.4177246677
 30
0.0
 10
8.4687148631
 20
11.418992953
 30
0.0
  0
SPLINE
  5
349
100
AcDbEntity
  8
0
100
AcDbSpline
 62
7
  6
CONTINUOUS
 70
0
 71
3
 72
35
 73
31
 74
0
 42
0.0000001
 43
0.0000001
 44
0.0000000001
 40
0.0
 40
0.0
 40
0.0
 40
0.0
 40
0.0938047674
 40
0.1836797299
 40
0.2694810696
 40
0.3108149816
 40
0.3510846874
 40
0.3902775439
 40
0.4283820749
 40
0.4653887633
 40
0.5012893581
 40
0.5360775431
 40
0.5697491392
 40
0.6023017178
 40
0.6337356639
 40
0.664053776
 40
0.693261685
 40
0.7213686815
 40
0.7483873218
 40
0.7743346082
 40
0.7992322671
 40
0.8231070587
 40
0.8459921969
 40
0.8679273918
 40
0.8889600461
 40
0.9285308181
 40
0.947229695
 40
0.9653083487
 40
0.9828629752
 40
1.0
 40
1.0
 40
1.0
 40
1.0
 10
9.5150260961
 20
11.3118659013
 30
0.0
 10
9.5219359322
 20
11.3135670948
 30
0.0
 10
9.5354310962
 20
11.3170431309
 30
0.0
 10
9.555103636
 20
11.3226105018
 30
0.0
 10
9.5708250842
 20
11.3275025792
 30
0.0
 10
9.5828669411
 20
11.3315378536
 30
0.0
 10
9.5915114203
 20
11.3345800792
 30
0.0
 10
9.5998768154
 20
11.3376740182
 30
0.0
 10
9.6079585019
 20
11.3408180442
 30
0.0
 10
9.6157520393
 20
11.3440103365
 30
0.0
 10
9.6232531225
 20
11.3472491754
 30
0.0
 10
9.630457617
 20
11.35053278
 30
0.0
 10
9.6373615821
 20
11.3538592802
 30
0.0
 10
9.6439611964
 20
11.3572269282
 30
0.0
 10
9.6502528645
 20
11.3606338147
 30
0.0
 10
9.6562331442
 20
11.3640780835
 30
0.0
 10
9.6618987393
 20
11.3675579163
 30
0.0
 10
9.6672466061
 20
11.371071344
 30
0.0
 10
9.6722737953
 20
11.3746165563
 30
0.0
 10
9.6769775856
 20
11.3781916484
 30
0.0
 10
9.6813554461
 20
11.3817946884
 30
0.0
 10
9.6854049495
 20
11.3854239367
 30
0.0
 10
9.6891238466
 20
11.3890773284
 30
0.0
 10
9.69251038
 20
11.3927535067
 30
0.0
 10
9.6964978789
 20
11.3975835201
 30
0.0
 10
9.6999235441
 20
11.4025530187
 30
0.0
 10
9.7026922473
 20
11.4076451894
 30
0.0
 10
9.7043887271
 20
11.4114062303
 30
0.0
 10
9.7057423105
 20
11.4151780936
 30
0.0
 10
9.7064222555
 20
11.4177244489
 30
0.0
 10
9.7067020755
 20
11.4189940182
 30
0.0
  0
SPLINE
  5
34A
100
AcDbEntity
  8
0
100
AcDbSpline
 62
7
  6
CONTINUOUS
 70
0
 71
3
 72
39
 73
35
 74
0
 42
0.0000001
 43
0.0000001
 44
0.0000000001
 40
0.0
 40
0.0
 40
0.0
 40
0.0
 40
0.0299424699
 40
0.0599093164
 40
0.0899243219
 40
0.1200101003
 40
0.1501875584
 40
0.1804754099
 40
0.210889754
 40
0.2414437305
 40
0.2721472545
 40
0.3030068369
 40
0.3340254888
 40
0.3652027079
 40
0.3965345426
 40
0.4280137277
 40
0.4596298846
 40
0.4913697788
 40
0.5232176263
 40
0.5551554431
 40
0.5871634274
 40
0.6192203703
 40
0.6513040862
 40
0.6833918576
 40
0.715460886
 40
0.7474887457
 40
0.7794538306
 40
0.8113357916
 40
0.8431159521
 40
0.8747777094
 40
0.9063068732
 40
0.9376920545
 40
0.96892477
 40
1.0
 40
1.0
 40
1.0
 40
1.0
 10
12.7311479908
 20
10.54096403
 30
0.0
 10
12.7358096872
 20
10.5454668812
 30
0.0
 10
12.7454996431
 20
10.5541091808
 30
0.0
 10
12.7610244573
 20
10.5658827871
 30
0.0
 10
12.7774598031
 20
10.5764076235
 30
0.0
 10
12.7947138463
 20
10.5856246493
 30
0.0
 10
12.8126917257
 20
10.5934835094
 30
0.0
 10
12.8312942234
 20
10.5999410037
 30
0.0
 10
12.8504188285
 20
10.6049618004
 30
0.0
 10
12.869960178
 20
10.6085184879
 30
0.0
 10
12.8898106809
 20
10.6105917467
 30
0.0
 10
12.9098611036
 20
10.6111704305
 30
0.0
 10
12.9300011738
 20
10.610251616
 30
0.0
 10
12.950120183
 20
10.6078406048
 30
0.0
 10
12.9701075892
 20
10.6039508828
 30
0.0
 10
12.9898536177
 20
10.5986040371
 30
0.0
 10
13.0092498556
 20
10.59182963
 30
0.0
 10
13.0281898386
 20
10.5836650325
 30
0.0
 10
13.0465696271
 20
10.5741552157
 30
0.0
 10
13.064288369
 20
10.5633525031
 30
0.0
 10
13.0812488453
 20
10.5513162837
 30
0.0
 10
13.0973579967
 20
10.5381126872
 30
0.0
 10
13.1125274287
 20
10.523814224
 30
0.0
 10
13.1266738907
 20
10.50849939
 30
0.0
 10
13.1397197283
 20
10.4922522402
 30
0.0
 10
13.1515933051
 20
10.475161932
 30
0.0
 10
13.1622293933
 20
10.4573222418
 30
0.0
 10
13.1715695271
 20
10.4388310533
 30
0.0
 10
13.1795623265
 20
10.4197898394
 30
0.0
 10
13.1861637688
 20
10.4003030668
 30
0.0
 10
13.1913374529
 20
10.3804777984
 30
0.0
 10
13.1950547582
 20
10.3604224909
 30
0.0
 10
13.1972950805
 20
10.3402487444
 30
0.0
 10
13.1977968691
 20
10.3267565158
 30
0.0
 10
13.1977968691
 20
10.3200300337
 30
0.0
  0
SPLINE
  5
34B
100
AcDbEntity
  8
0
100
AcDbSpline
 62
7
  6
CONTINUOUS
 70
0
 71
3
 72
39
 73
35
 74
0
 42
0.0000001
 43
0.0000001
 44
0.0000000001
 40
0.0
 40
0.0
 40
0.0
 40
0.0
 40
0.0299424699
 40
0.0599093164
 40
0.0899243219
 40
0.1200101003
 40
0.1501875584
 40
0.1804754099
 40
0.210889754
 40
0.2414437305
 40
0.2721472545
 40
0.3030068369
 40
0.3340254888
 40
0.3652027079
 40
0.3965345426
 40
0.4280137277
 40
0.4596298846
 40
0.4913697788
 40
0.5232176263
 40
0.5551554431
 40
0.5871634274
 40
0.6192203703
 40
0.6513040862
 40
0.6833918576
 40
0.715460886
 40
0.7474887457
 40
0.7794538306
 40
0.8113357916
 40
0.8431159521
 40
0.8747777094
 40
0.9063068732
 40
0.9376920545
 40
0.96892477
 40
1.0
 40
1.0
 40
1.0
 40
1.0
 10
12.7311479908
 20
5.7113346124
 30
0.0
 10
12.7358096872
 20
5.7158374636
 30
0.0
 10
12.7454996431
 20
5.7244797632
 30
0.0
 10
12.7610244573
 20
5.7362533695
 30
0.0
 10
12.7774598031
 20
5.7467782059
 30
0.0
 10
12.7947138463
 20
5.7559952317
 30
0.0
 10
12.8126917257
 20
5.7638540918
 30
0.0
 10
12.8312942234
 20
5.7703115861
 30
0.0
 10
12.8504188285
 20
5.7753323828
 30
0.0
 10
12.869960178
 20
5.7788890703
 30
0.0
 10
12.8898106809
 20
5.7809623291
 30
0.0
 10
12.9098611036
 20
5.7815410129
 30
0.0
 10
12.9300011738
 20
5.7806221984
 30
0.0
 10
12.950120183
 20
5.7782111872
 30
0.0
 10
12.9701075892
 20
5.7743214652
 30
0.0
 10
12.9898536177
 20
5.7689746195
 30
0.0
 10
13.0092498556
 20
5.7622002124
 30
0.0
 10
13.0281898386
 20
5.7540356149
 30
0.0
 10
13.0465696271
 20
5.7445257981
 30
0.0
 10
13.064288369
 20
5.7337230855
 30
0.0
 10
13.0812488453
 20
5.7216868661
 30
0.0
 10
13.0973579967
 20
5.7084832696
 30
0.0
 10
13.1125274287
 20
5.6941848064
 30
0.0
 10
13.1266738907
 20
5.6788699724
 30
0.0
 10
13.1397197283
 20
5.6626228226
 30
0.0
 10
13.1515933051
 20
5.6455325144
 30
0.0
 10
13.1622293933
 20
5.6276928242
 30
0.0
 10
13.1715695271
 20
5.6092016357
 30
0.0
 10
13.1795623265
 20
5.5901604218
 30
0.0
 10
13.1861637688
 20
5.5706736492
 30
0.0
 10
13.1913374529
 20
5.5508483808
 30
0.0
 10
13.1950547582
 20
5.5307930733
 30
0.0
 10
13.1972950805
 20
5.5106193267
 30
0.0
 10
13.1977968691
 20
5.4971270982
 30
0.0
 10
13.1977968691
 20
5.4904006161
 30
0.0
  0
SPLINE
  5
34C
100
AcDbEntity
  8
0
100
AcDbSpline
 62
7
  6
CONTINUOUS
 70
0
 71
3
 72
54
 73
50
 74
0
 42
0.0000001
 43
0.0000001
 44
0.0000000001
 40
0.0
 40
0.0
 40
0.0
 40
0.0
 40
0.0063158507
 40
0.0126706009
 40
0.0191023977
 40
0.0256478986
 40
0.0323417211
 40
0.0392160215
 40
0.0536137219
 40
0.0611943855
 40
0.0690560622
 40
0.0772171197
 40
0.0856934318
 40
0.0944987522
 40
0.1036448027
 40
0.113141486
 40
0.1229971814
 40
0.1332187245
 40
0.1438117391
 40
0.1547806923
 40
0.1661289554
 40
0.1778590781
 40
0.1899726748
 40
0.2024706471
 40
0.2153532452
 40
0.2286199987
 40
0.2422699729
 40
0.2563016345
 40
0.2707129683
 40
0.2855015805
 40
0.3006645508
 40
0.3161986637
 40
0.3321003047
 40
0.364989385
 40
0.3992970598
 40
0.4349833452
 40
0.4720041093
 40
0.5103114544
 40
0.549854083
 40
0.590577587
 40
0.6324246928
 40
0.6753354638
 40
0.7192475599
 40
0.7640963991
 40
0.8098154153
 40
0.8563362597
 40
0.9035882195
 40
0.9515013118
 40
1.0
 40
1.0
 40
1.0
 40
1.0
 10
13.7228446919
 20
8.1231487765
 30
0.0
 10
13.7210192865
 20
8.1232753607
 30
0.0
 10
13.7173658608
 20
8.1236787329
 30
0.0
 10
13.711926646
 20
8.1247300527
 30
0.0
 10
13.706523803
 20
8.1262277626
 30
0.0
 10
13.7011604771
 20
8.1281705756
 30
0.0
 10
13.6958387529
 20
8.1305573583
 30
0.0
 10
13.6886931501
 20
8.1343877705
 30
0.0
 10
13.6817415476
 20
8.1390767095
 30
0.0
 10
13.6750142091
 20
8.1445105279
 30
0.0
 10
13.6699327685
 20
8.1490918526
 30
0.0
 10
13.6649056275
 20
8.1541061615
 30
0.0
 10
13.6599339754
 20
8.1595516053
 30
0.0
 10
13.6550198945
 20
8.1654258764
 30
0.0
 10
13.6501651827
 20
8.1717265765
 30
0.0
 10
13.6453716629
 20
8.1784511034
 30
0.0
 10
13.6406412846
 20
8.1855967849
 30
0.0
 10
13.6359758188
 20
8.1931606724
 30
0.0
 10
13.6313771587
 20
8.2011397244
 30
0.0
 10
13.6268471636
 20
8.2095307079
 30
0.0
 10
13.6223875879
 20
8.2183301844
 30
0.0
 10
13.618000324
 20
8.2275346051
 30
0.0
 10
13.613687094
 20
8.2371401908
 30
0.0
 10
13.6094496676
 20
8.2471430236
 30
0.0
 10
13.6052898257
 20
8.2575390247
 30
0.0
 10
13.601209199
 20
8.2683239164
 30
0.0
 10
13.5972095346
 20
8.2794932956
 30
0.0
 10
13.593292447
 20
8.2910425698
 30
0.0
 10
13.5894595311
 20
8.3029669939
 30
0.0
 10
13.5857124275
 20
8.3152616801
 30
0.0
 10
13.5820526176
 20
8.3279215566
 30
0.0
 10
13.5784816386
 20
8.3409414377
 30
0.0
 10
13.5737880485
 20
8.3589769457
 30
0.0
 10
13.5681664306
 20
8.3823887811
 30
0.0
 10
13.5618709875
 20
8.4115253553
 30
0.0
 10
13.5559630958
 20
8.4419630962
 30
0.0
 10
13.5504525854
 20
8.4736518393
 30
0.0
 10
13.5453486305
 20
8.5065395059
 30
0.0
 10
13.5406597354
 20
8.5405719505
 30
0.0
 10
13.536393718
 20
8.5756931364
 30
0.0
 10
13.5325576989
 20
8.6118452001
 30
0.0
 10
13.5291580606
 20
8.648968555
 30
0.0
 10
13.5262004678
 20
8.6870019887
 30
0.0
 10
13.5236898498
 20
8.7258827884
 30
0.0
 10
13.5216304006
 20
8.7655468637
 30
0.0
 10
13.5200255808
 20
8.8059286549
 30
0.0
 10
13.5188780055
 20
8.846961902
 30
0.0
 10
13.5181896925
 20
8.8885784219
 30
0.0
 10
13.5180385469
 20
8.9165105028
 30
0.0
 10
13.5180385469
 20
8.930561243
 30
0.0
  0
SPLINE
  5
34D
100
AcDbEntity
  8
0
100
AcDbSpline
 62
7
  6
CONTINUOUS
 70
0
 71
3
 72
59
 73
55
 74
0
 42
0.0000001
 43
0.0000001
 44
0.0000000001
 40
0.0
 40
0.0
 40
0.0
 40
0.0
 40
0.0027758488
 40
0.0055596021
 40
0.008359095
 40
0.0111820195
 40
0.0140358522
 40
0.0169278075
 40
0.0228516365
 40
0.0290063393
 40
0.0354366794
 40
0.0387680642
 40
0.0421822272
 40
0.0492730078
 40
0.0567369683
 40
0.0645960023
 40
0.0728675869
 40
0.0815655464
 40
0.0907003782
 40
0.1002799082
 40
0.1103094603
 40
0.1207923966
 40
0.1317301617
 40
0.1431227321
 40
0.1549685743
 40
0.1672650269
 40
0.1800082061
 40
0.1931933349
 40
0.2068146222
 40
0.2208655488
 40
0.2353387364
 40
0.2502261967
 40
0.2655192032
 40
0.2812085054
 40
0.2972842121
 40
0.3137359731
 40
0.3305528785
 40
0.3477236105
 40
0.3830784316
 40
0.4197019435
 40
0.457489208
 40
0.4963301116
 40
0.5361099921
 40
0.576710229
 40
0.6180088092
 40
0.6598808745
 40
0.702199258
 40
0.7448350122
 40
0.7876579293
 40
0.8305370685
 40
0.8733412491
 40
0.9159396382
 40
0.9582020849
 40
1.0
 40
1.0
 40
1.0
 40
1.0
 10
9.8977083303
 20
11.4899524728
 30
0.0
 10
9.8977083345
 20
11.4889516253
 30
0.0
 10
9.8976528179
 20
11.4869466394
 30
0.0
 10
9.8974031214
 20
11.4839416326
 30
0.0
 10
9.8969869962
 20
11.4809379094
 30
0.0
 10
9.8964045659
 20
11.4779362956
 30
0.0
 10
9.895656007
 20
11.4749373504
 30
0.0
 10
9.8944271684
 20
11.4709116097
 30
0.0
 10
9.8924605154
 20
11.4658748122
 30
0.0
 10
9.8894580536
 20
11.4599053177
 30
0.0
 10
9.8864438722
 20
11.4550136459
 30
0.0
 10
9.8837200208
 20
11.4511203662
 30
0.0
 10
9.8807085165
 20
11.4471417751
 30
0.0
 10
9.8765213178
 20
11.4421907033
 30
0.0
 10
9.8709139794
 20
11.4363644876
 30
0.0
 10
9.8646664012
 20
11.4305840644
 30
0.0
 10
9.8577839648
 20
11.4248536808
 30
0.0
 10
9.8502720307
 20
11.4191776277
 30
0.0
 10
9.8421366776
 20
11.4135600922
 30
0.0
 10
9.8333843127
 20
11.4080055443
 30
0.0
 10
9.8240219907
 20
11.4025182189
 30
0.0
 10
9.8140571627
 20
11.397102609
 30
0.0
 10
9.8034978917
 20
11.391762935
 30
0.0
 10
9.7923526587
 20
11.3865036338
 30
0.0
 10
9.7806305175
 20
11.381328857
 30
0.0
 10
9.7683409468
 20
11.3762429357
 30
0.0
 10
9.7554939583
 20
11.3712499159
 30
0.0
 10
9.7420999885
 20
11.3663539885
 30
0.0
 10
9.7281699697
 20
11.361559068
 30
0.0
 10
9.7137152528
 20
11.3568691815
 30
0.0
 10
9.698747651
 20
11.3522880919
 30
0.0
 10
9.6832793854
 20
11.3478196439
 30
0.0
 10
9.667323108
 20
11.3434674328
 30
0.0
 10
9.650891865
 20
11.339235106
 30
0.0
 10
9.6339991025
 20
11.3351260759
 30
0.0
 10
9.6166586491
 20
11.3311437853
 30
0.0
 10
9.5988846839
 20
11.3272914295
 30
0.0
 10
9.5743890005
 20
11.3222838489
 30
0.0
 10
9.5427887399
 20
11.3163856074
 30
0.0
 10
9.5037377915
 20
11.3099407235
 30
0.0
 10
9.4633240631
 20
11.3040832118
 30
0.0
 10
9.4216799577
 20
11.2988324225
 30
0.0
 10
9.3789417484
 20
11.294205724
 30
0.0
 10
9.3352493936
 20
11.2902184059
 30
0.0
 10
9.2907459926
 20
11.2868836423
 30
0.0
 10
9.24557733
 20
11.2842124478
 30
0.0
 10
9.1998913864
 20
11.2822136427
 30
0.0
 10
9.1538378507
 20
11.2808938265
 30
0.0
 10
9.1075676236
 20
11.2802573554
 30
0.0
 10
9.0612323223
 20
11.2803063318
 30
0.0
 10
9.0149837782
 20
11.2810405906
 30
0.0
 10
8.9689735193
 20
11.2824577155
 30
0.0
 10
8.9233524262
 20
11.2845530124
 30
0.0
 10
8.893099452
 20
11.2864095346
 30
0.0
 10
8.8780650933
 20
11.2874521709
 30
0.0
  0
SPLINE
  5
34E
100
AcDbEntity
  8
0
100
AcDbSpline
 62
7
  6
CONTINUOUS
 70
0
 71
3
 72
39
 73
35
 74
0
 42
0.0000001
 43
0.0000001
 44
0.0000000001
 40
0.0
 40
0.0
 40
0.0
 40
0.0
 40
0.0299424699
 40
0.0599093164
 40
0.0899243219
 40
0.1200101003
 40
0.1501875584
 40
0.1804754099
 40
0.210889754
 40
0.2414437305
 40
0.2721472545
 40
0.3030068369
 40
0.3340254888
 40
0.3652027079
 40
0.3965345426
 40
0.4280137277
 40
0.4596298846
 40
0.4913697788
 40
0.5232176263
 40
0.5551554431
 40
0.5871634274
 40
0.6192203703
 40
0.6513040862
 40
0.6833918576
 40
0.715460886
 40
0.7474887457
 40
0.7794538306
 40
0.8113357916
 40
0.8431159521
 40
0.8747777094
 40
0.9063068732
 40
0.9376920545
 40
0.96892477
 40
1.0
 40
1.0
 40
1.0
 40
1.0
 10
13.1215954009
 20
10.1367428368
 30
0.0
 10
13.1169337045
 20
10.1322399856
 30
0.0
 10
13.1072437486
 20
10.1235976861
 30
0.0
 10
13.0917189345
 20
10.1118240798
 30
0.0
 10
13.0752835886
 20
10.1012992434
 30
0.0
 10
13.0580295454
 20
10.0920822176
 30
0.0
 10
13.040051666
 20
10.0842233574
 30
0.0
 10
13.0214491684
 20
10.0777658632
 30
0.0
 10
13.0023245632
 20
10.0727450665
 30
0.0
 10
12.9827832137
 20
10.0691883789
 30
0.0
 10
12.9629327108
 20
10.0671151202
 30
0.0
 10
12.9428822881
 20
10.0665364364
 30
0.0
 10
12.9227422179
 20
10.0674552509
 30
0.0
 10
12.9026232088
 20
10.0698662621
 30
0.0
 10
12.8826358025
 20
10.073755984
 30
0.0
 10
12.862889774
 20
10.0791028298
 30
0.0
 10
12.8434935361
 20
10.0858772369
 30
0.0
 10
12.8245535532
 20
10.0940418344
 30
0.0
 10
12.8061737646
 20
10.1035516512
 30
0.0
 10
12.7884550227
 20
10.1143543638
 30
0.0
 10
12.7714945465
 20
10.1263905832
 30
0.0
 10
12.755385395
 20
10.1395941796
 30
0.0
 10
12.740215963
 20
10.1538926429
 30
0.0
 10
12.726069501
 20
10.1692074769
 30
0.0
 10
12.7130236634
 20
10.1854546267
 30
0.0
 10
12.7011500866
 20
10.2025449349
 30
0.0
 10
12.6905139984
 20
10.2203846251
 30
0.0
 10
12.6811738646
 20
10.2388758136
 30
0.0
 10
12.6731810652
 20
10.2579170275
 30
0.0
 10
12.6665796229
 20
10.2774038
 30
0.0
 10
12.6614059388
 20
10.2972290685
 30
0.0
 10
12.6576886335
 20
10.317284376
 30
0.0
 10
12.6554483112
 20
10.3374581225
 30
0.0
 10
12.6549465226
 20
10.3509503511
 30
0.0
 10
12.6549465226
 20
10.3576768331
 30
0.0
  0
SPLINE
  5
34F
100
AcDbEntity
  8
0
100
AcDbSpline
 62
7
  6
CONTINUOUS
 70
0
 71
3
 72
39
 73
35
 74
0
 42
0.0000001
 43
0.0000001
 44
0.0000000001
 40
0.0
 40
0.0
 40
0.0
 40
0.0
 40
0.0299424699
 40
0.0599093164
 40
0.0899243219
 40
0.1200101003
 40
0.1501875584
 40
0.1804754099
 40
0.210889754
 40
0.2414437305
 40
0.2721472545
 40
0.3030068369
 40
0.3340254888
 40
0.3652027079
 40
0.3965345426
 40
0.4280137277
 40
0.4596298846
 40
0.4913697788
 40
0.5232176263
 40
0.5551554431
 40
0.5871634274
 40
0.6192203703
 40
0.6513040862
 40
0.6833918576
 40
0.715460886
 40
0.7474887457
 40
0.7794538306
 40
0.8113357916
 40
0.8431159521
 40
0.8747777094
 40
0.9063068732
 40
0.9376920545
 40
0.96892477
 40
1.0
 40
1.0
 40
1.0
 40
1.0
 10
13.1215954009
 20
5.3071134192
 30
0.0
 10
13.1169337045
 20
5.302610568
 30
0.0
 10
13.1072437486
 20
5.2939682685
 30
0.0
 10
13.0917189345
 20
5.2821946622
 30
0.0
 10
13.0752835886
 20
5.2716698258
 30
0.0
 10
13.0580295454
 20
5.2624528
 30
0.0
 10
13.040051666
 20
5.2545939398
 30
0.0
 10
13.0214491684
 20
5.2481364456
 30
0.0
 10
13.0023245632
 20
5.2431156489
 30
0.0
 10
12.9827832137
 20
5.2395589613
 30
0.0
 10
12.9629327108
 20
5.2374857026
 30
0.0
 10
12.9428822881
 20
5.2369070188
 30
0.0
 10
12.9227422179
 20
5.2378258332
 30
0.0
 10
12.9026232088
 20
5.2402368444
 30
0.0
 10
12.8826358025
 20
5.2441265664
 30
0.0
 10
12.862889774
 20
5.2494734122
 30
0.0
 10
12.8434935361
 20
5.2562478193
 30
0.0
 10
12.8245535532
 20
5.2644124168
 30
0.0
 10
12.8061737646
 20
5.2739222336
 30
0.0
 10
12.7884550227
 20
5.2847249462
 30
0.0
 10
12.7714945465
 20
5.2967611656
 30
0.0
 10
12.755385395
 20
5.309964762
 30
0.0
 10
12.740215963
 20
5.3242632253
 30
0.0
 10
12.726069501
 20
5.3395780593
 30
0.0
 10
12.7130236634
 20
5.3558252091
 30
0.0
 10
12.7011500866
 20
5.3729155173
 30
0.0
 10
12.6905139984
 20
5.3907552075
 30
0.0
 10
12.6811738646
 20
5.409246396
 30
0.0
 10
12.6731810652
 20
5.4282876099
 30
0.0
 10
12.6665796229
 20
5.4477743824
 30
0.0
 10
12.6614059388
 20
5.4675996509
 30
0.0
 10
12.6576886335
 20
5.4876549583
 30
0.0
 10
12.6554483112
 20
5.5078287049
 30
0.0
 10
12.6549465226
 20
5.5213209335
 30
0.0
 10
12.6549465226
 20
5.5280474155
 30
0.0
  0
SPLINE
  5
350
100
AcDbEntity
  8
0
100
AcDbSpline
 62
7
  6
CONTINUOUS
 70
0
 71
3
 72
52
 73
48
 74
0
 42
0.0000001
 43
0.0000001
 44
0.0000000001
 40
0.0
 40
0.0
 40
0.0
 40
0.0
 40
0.0481976586
 40
0.0958298417
 40
0.1428197349
 40
0.1890976738
 40
0.2345927526
 40
0.2792363126
 40
0.3229616726
 40
0.3657040217
 40
0.4074008695
 40
0.4479921877
 40
0.4874205767
 40
0.5256315209
 40
0.5625737305
 40
0.5981993819
 40
0.6324644205
 40
0.6653290015
 40
0.6967580213
 40
0.7267215998
 40
0.7411465372
 40
0.7551967179
 40
0.7688701694
 40
0.7821654908
 40
0.7950818363
 40
0.8076188358
 40
0.8197768796
 40
0.8315570016
 40
0.842960946
 40
0.8539914268
 40
0.8646519891
 40
0.8749472323
 40
0.8848829866
 40
0.8944662508
 40
0.9037055339
 40
0.912610945
 40
0.9211942707
 40
0.9294693586
 40
0.9374521473
 40
0.9451608712
 40
0.9598350014
 40
0.9668568271
 40
0.9737036868
 40
0.980406896
 40
0.9870001056
 40
0.9935188497
 40
1.0
 40
1.0
 40
1.0
 40
1.0
 10
9.2973516004
 20
11.6924518606
 30
0.0
 10
9.3079626461
 20
11.6917159821
 30
0.0
 10
9.3290522373
 20
11.6901343968
 30
0.0
 10
9.3604536522
 20
11.6874149551
 30
0.0
 10
9.3913991506
 20
11.6843657005
 30
0.0
 10
9.4218364977
 20
11.6809918731
 30
0.0
 10
9.4517151625
 20
11.6772990601
 30
0.0
 10
9.4809850885
 20
11.6732934987
 30
0.0
 10
9.5095973587
 20
11.6689819276
 30
0.0
 10
9.5375041633
 20
11.6643715703
 30
0.0
 10
9.564658869
 20
11.659470184
 30
0.0
 10
9.5910161275
 20
11.6542860224
 30
0.0
 10
9.6165319271
 20
11.6488278
 30
0.0
 10
9.6411636762
 20
11.6431046775
 30
0.0
 10
9.6648702969
 20
11.6371262955
 30
0.0
 10
9.6876122923
 20
11.6309027149
 30
0.0
 10
9.7093517801
 20
11.6244443888
 30
0.0
 10
9.7300526648
 20
11.6177621521
 30
0.0
 10
9.7496804324
 20
11.61086724
 30
0.0
 10
9.7653074783
 20
11.6048805443
 30
0.0
 10
9.7772391298
 20
11.5999846403
 30
0.0
 10
9.7857860178
 20
11.5963133291
 30
0.0
 10
9.7940410672
 20
11.5925975917
 30
0.0
 10
9.8020008582
 20
11.5888389629
 30
0.0
 10
9.8096620962
 20
11.5850390519
 30
0.0
 10
9.8170215742
 20
11.5811993712
 30
0.0
 10
9.8240762601
 20
11.5773215607
 30
0.0
 10
9.8308232368
 20
11.5734072296
 30
0.0
 10
9.8372596828
 20
11.5694579349
 30
0.0
 10
9.8433829753
 20
11.5654753673
 30
0.0
 10
9.8491905717
 20
11.5614611201
 30
0.0
 10
9.8546800589
 20
11.5574167996
 30
0.0
 10
9.8598492194
 20
11.5533441031
 30
0.0
 10
9.8646958772
 20
11.5492445956
 30
0.0
 10
9.8692180397
 20
11.5451199184
 30
0.0
 10
9.8734138604
 20
11.540971739
 30
0.0
 10
9.8772815272
 20
11.5368015557
 30
0.0
 10
9.8808193765
 20
11.532611152
 30
0.0
 10
9.8840261082
 20
11.5284016804
 30
0.0
 10
9.8877954059
 20
11.5228584919
 30
0.0
 10
9.8909844901
 20
11.5171843644
 30
0.0
 10
9.8935110965
 20
11.5114098955
 30
0.0
 10
9.895041
 20
11.5071313499
 30
0.0
 10
9.8962320073
 20
11.5028443902
 30
0.0
 10
9.8970834144
 20
11.4985507497
 30
0.0
 10
9.8975946008
 20
11.4942529412
 30
0.0
 10
9.8977083243
 20
11.4913827697
 30
0.0
 10
9.8977083303
 20
11.4899524728
 30
0.0
  0
SPLINE
  5
351
100
AcDbEntity
  8
0
100
AcDbSpline
 62
7
  6
CONTINUOUS
 70
0
 71
3
 72
11
 73
7
 74
0
 42
0.0000001
 43
0.0000001
 44
0.0000000001
 40
0.0
 40
0.0
 40
0.0
 40
0.0
 40
0.2553208846
 40
0.506111185
 40
0.7538311369
 40
1.0
 40
1.0
 40
1.0
 40
1.0
 10
13.7452085349
 20
8.1252520432
 30
0.0
 10
13.7433483781
 20
8.1247789519
 30
0.0
 10
13.7396247237
 20
8.1239770622
 30
0.0
 10
13.7340030261
 20
8.1232182241
 30
0.0
 10
13.7284071107
 20
8.1229165387
 30
0.0
 10
13.7246908326
 20
8.1230207545
 30
0.0
 10
13.7228446919
 20
8.1231487765
 30
0.0
  0
SPLINE
  5
352
100
AcDbEntity
  8
0
100
AcDbSpline
 62
7
  6
CONTINUOUS
 70
0
 71
3
 72
23
 73
19
 74
0
 42
0.0000001
 43
0.0000001
 44
0.0000000001
 40
0.0
 40
0.0
 40
0.0
 40
0.0
 40
0.0637754757
 40
0.1273453426
 40
0.1907021752
 40
0.2538559149
 40
0.3168132477
 40
0.3795821059
 40
0.4421733695
 40
0.5045993382
 40
0.566873869
 40
0.6290123778
 40
0.6910316472
 40
0.7529496469
 40
0.8147853527
 40
0.8765585998
 40
0.9382898568
 40
1.0
 40
1.0
 40
1.0
 40
1.0
 10
12.6549465226
 20
5.5280474155
 30
0.0
 10
12.6549465226
 20
5.5323827875
 30
0.0
 10
12.6551540846
 20
5.5410410218
 30
0.0
 10
12.6560906291
 20
5.5539756768
 30
0.0
 10
12.6576500947
 20
5.5668078779
 30
0.0
 10
12.6598287544
 20
5.5795072908
 30
0.0
 10
12.6626215673
 20
5.5920450436
 30
0.0
 10
12.6660222037
 20
5.6043921485
 30
0.0
 10
12.6700228817
 20
5.6165200985
 30
0.0
 10
12.6746143068
 20
5.6284009782
 30
0.0
 10
12.6797859676
 20
5.6400073715
 30
0.0
 10
12.6855260123
 20
5.6513124763
 30
0.0
 10
12.6918211211
 20
5.6622902653
 30
0.0
 10
12.6986568572
 20
5.6729153915
 30
0.0
 10
12.7060174785
 20
5.6831632912
 30
0.0
 10
12.7138860145
 20
5.6930104672
 30
0.0
 10
12.7222440718
 20
5.7024338518
 30
0.0
 10
12.7281307363
 20
5.7084201695
 30
0.0
 10
12.7311479908
 20
5.7113346124
 30
0.0
  0
SPLINE
  5
353
100
AcDbEntity
  8
0
100
AcDbSpline
 62
7
  6
CONTINUOUS
 70
0
 71
3
 72
23
 73
19
 74
0
 42
0.0000001
 43
0.0000001
 44
0.0000000001
 40
0.0
 40
0.0
 40
0.0
 40
0.0
 40
0.0637754757
 40
0.1273453426
 40
0.1907021752
 40
0.2538559149
 40
0.3168132477
 40
0.3795821059
 40
0.4421733695
 40
0.5045993382
 40
0.566873869
 40
0.6290123778
 40
0.6910316472
 40
0.7529496469
 40
0.8147853527
 40
0.8765585998
 40
0.9382898568
 40
1.0
 40
1.0
 40
1.0
 40
1.0
 10
12.6549465226
 20
10.3576768331
 30
0.0
 10
12.6549465226
 20
10.3620122051
 30
0.0
 10
12.6551540846
 20
10.3706704394
 30
0.0
 10
12.6560906291
 20
10.3836050944
 30
0.0
 10
12.6576500947
 20
10.3964372955
 30
0.0
 10
12.6598287544
 20
10.4091367084
 30
0.0
 10
12.6626215673
 20
10.4216744612
 30
0.0
 10
12.6660222037
 20
10.4340215661
 30
0.0
 10
12.6700228817
 20
10.4461495161
 30
0.0
 10
12.6746143068
 20
10.4580303958
 30
0.0
 10
12.6797859676
 20
10.4696367891
 30
0.0
 10
12.6855260123
 20
10.4809418939
 30
0.0
 10
12.6918211211
 20
10.491919683
 30
0.0
 10
12.6986568572
 20
10.5025448091
 30
0.0
 10
12.7060174785
 20
10.5127927088
 30
0.0
 10
12.7138860145
 20
10.5226398848
 30
0.0
 10
12.7222440718
 20
10.5320632694
 30
0.0
 10
12.7281307363
 20
10.5380495872
 30
0.0
 10
12.7311479908
 20
10.54096403
 30
0.0
  0
SPLINE
  5
354
100
AcDbEntity
  8
0
100
AcDbSpline
 62
7
  6
CONTINUOUS
 70
0
 71
3
 72
11
 73
7
 74
0
 42
0.0000001
 43
0.0000001
 44
0.0000000001
 40
0.0
 40
0.0
 40
0.0
 40
0.0
 40
0.2460857654
 40
0.4937563832
 40
0.744564636
 40
1.0
 40
1.0
 40
1.0
 40
1.0
 10
13.8722810778
 20
10.2779732959
 30
0.0
 10
13.8741479616
 20
10.2778438354
 30
0.0
 10
13.8778847503
 20
10.2774277515
 30
0.0
 10
13.8834469481
 20
10.2763367568
 30
0.0
 10
13.8889705939
 20
10.2747789545
 30
0.0
 10
13.8925863764
 20
10.2734443998
 30
0.0
 10
13.8943823521
 20
10.2727043677
 30
0.0
  0
SPLINE
  5
355
100
AcDbEntity
  8
0
100
AcDbSpline
 62
7
  6
CONTINUOUS
 70
0
 71
3
 72
23
 73
19
 74
0
 42
0.0000001
 43
0.0000001
 44
0.0000000001
 40
0.0
 40
0.0
 40
0.0
 40
0.0
 40
0.0484878586
 40
0.0992222544
 40
0.1521420979
 40
0.2071788367
 40
0.2642569714
 40
0.3232946791
 40
0.3842046514
 40
0.4468943892
 40
0.5112665869
 40
0.5772197216
 40
0.6446483198
 40
0.7134435617
 40
0.7834926624
 40
0.8546799475
 40
0.9268918951
 40
1.0
 40
1.0
 40
1.0
 40
1.0
 10
9.5551002662
 20
11.3227318057
 30
0.0
 10
9.5501705977
 20
11.3244900227
 30
0.0
 10
9.540030395
 20
11.3279421208
 30
0.0
 10
9.5243517393
 20
11.3328334115
 30
0.0
 10
9.5078825885
 20
11.3375482647
 30
0.0
 10
9.4906527736
 20
11.3420779998
 30
0.0
 10
9.4726933258
 20
11.3464143752
 30
0.0
 10
9.4540367
 20
11.3505495134
 30
0.0
 10
9.434716604
 20
11.354475856
 30
0.0
 10
9.4147679717
 20
11.3581862339
 30
0.0
 10
9.3942269013
 20
11.3616739161
 30
0.0
 10
9.3731305715
 20
11.3649325323
 30
0.0
 10
9.3515171451
 20
11.3679561349
 30
0.0
 10
9.3294257873
 20
11.3707392313
 30
0.0
 10
9.3068965847
 20
11.3732767494
 30
0.0
 10
9.2839699672
 20
11.3755641006
 30
0.0
 10
9.2606879826
 20
11.3775970251
 30
0.0
 10
9.2450457483
 20
11.3787736858
 30
0.0
 10
9.2371732942
 20
11.3793196424
 30
0.0
  0
SPLINE
  5
356
100
AcDbEntity
  8
0
100
AcDbSpline
 62
7
  6
CONTINUOUS
 70
0
 71
3
 72
53
 73
49
 74
0
 42
0.0000001
 43
0.0000001
 44
0.0000000001
 40
0.0
 40
0.0
 40
0.0
 40
0.0
 40
0.0067360364
 40
0.0134024796
 40
0.0200407874
 40
0.0266929865
 40
0.033400824
 40
0.0402049055
 40
0.0471440153
 40
0.054254455
 40
0.0615696655
 40
0.0691200822
 40
0.0769329021
 40
0.0850322418
 40
0.0934393408
 40
0.1021725432
 40
0.1112477071
 40
0.1206784491
 40
0.1304761513
 40
0.1406504198
 40
0.1512092303
 40
0.1621589123
 40
0.1735045828
 40
0.185250167
 40
0.1973983817
 40
0.2099511206
 40
0.2229093685
 40
0.2362732138
 40
0.2500421768
 40
0.2642150447
 40
0.293763528
 40
0.3248989251
 40
0.357592599
 40
0.3918091431
 40
0.427507369
 40
0.4646408953
 40
0.5031585293
 40
0.5430048954
 40
0.5841208249
 40
0.6264435338
 40
0.6699070557
 40
0.7144425391
 40
0.7599783614
 40
0.8064406658
 40
0.8537530139
 40
0.9018367404
 40
0.950614647
 40
1.0
 40
1.0
 40
1.0
 40
1.0
 10
9.7067020755
 20
11.4189940182
 30
0.0
 10
9.7069514377
 20
11.4201253976
 30
0.0
 10
9.7073594612
 20
11.422397054
 30
0.0
 10
9.7076918262
 20
11.4258315191
 30
0.0
 10
9.7077401242
 20
11.4292675389
 30
0.0
 10
9.7075041331
 20
11.4327028414
 30
0.0
 10
9.7069841273
 20
11.4361355014
 30
0.0
 10
9.7061806539
 20
11.4395636069
 30
0.0
 10
9.7050942684
 20
11.4429853247
 30
0.0
 10
9.7037258796
 20
11.446398973
 30
0.0
 10
9.7020764847
 20
11.4498029999
 30
0.0
 10
9.7001470197
 20
11.4531958568
 30
0.0
 10
9.6979386802
 20
11.4565761515
 30
0.0
 10
9.6954526552
 20
11.4599425065
 30
0.0
 10
9.6926901164
 20
11.4632934794
 30
0.0
 10
9.6896524716
 20
11.4666277554
 30
0.0
 10
9.6863411282
 20
11.4699439534
 30
0.0
 10
9.6827575512
 20
11.4732406259
 30
0.0
 10
9.6789034276
 20
11.4765164451
 30
0.0
 10
9.6747804695
 20
11.479769986
 30
0.0
 10
9.6703904961
 20
11.482999792
 30
0.0
 10
9.6657355242
 20
11.4862045188
 30
0.0
 10
9.6608176159
 20
11.4893827179
 30
0.0
 10
9.6556389642
 20
11.4925329492
 30
0.0
 10
9.6502019325
 20
11.495653869
 30
0.0
 10
9.6445089432
 20
11.4987440326
 30
0.0
 10
9.6385625587
 20
11.5018020396
 30
0.0
 10
9.63236549
 20
11.5048265569
 30
0.0
 10
9.6259205051
 20
11.5078161891
 30
0.0
 10
9.6168744872
 20
11.5118095924
 30
0.0
 10
9.6049595704
 20
11.5166942076
 30
0.0
 10
9.5899134989
 20
11.5223168515
 30
0.0
 10
9.5739540864
 20
11.5277689488
 30
0.0
 10
9.5571102881
 20
11.5330405699
 30
0.0
 10
9.5394124847
 20
11.5381220691
 30
0.0
 10
9.5208927226
 20
11.5430041148
 30
0.0
 10
9.5015845859
 20
11.5476777967
 30
0.0
 10
9.4815231206
 20
11.5521345531
 30
0.0
 10
9.4607447579
 20
11.5563661885
 30
0.0
 10
9.4392872671
 20
11.5603649701
 30
0.0
 10
9.4171896705
 20
11.5641235844
 30
0.0
 10
9.394492165
 20
11.5676351223
 30
0.0
 10
9.3712360281
 20
11.5708931645
 30
0.0
 10
9.3474636047
 20
11.5738917529
 30
0.0
 10
9.3232182558
 20
11.5766253825
 30
0.0
 10
9.2985437429
 20
11.5790891001
 30
0.0
 10
9.2734855085
 20
11.5812782925
 30
0.0
 10
9.2566494796
 20
11.5825450028
 30
0.0
 10
9.2481760224
 20
11.583132639
 30
0.0
  0
SPLINE
  5
357
100
AcDbEntity
  8
0
100
AcDbSpline
 62
7
  6
CONTINUOUS
 70
0
 71
3
 72
46
 73
42
 74
0
 42
0.0000001
 43
0.0000001
 44
0.0000000001
 40
0.0
 40
0.0
 40
0.0
 40
0.0
 40
0.0141780224
 40
0.02160122
 40
0.0292643569
 40
0.0371795661
 40
0.0453574709
 40
0.05380737
 40
0.0625374283
 40
0.071554638
 40
0.080864954
 40
0.0904735021
 40
0.1003845327
 40
0.1106014798
 40
0.1211271783
 40
0.1319638213
 40
0.1431129427
 40
0.1663514814
 40
0.1908469566
 40
0.2165958175
 40
0.2435887194
 40
0.2718115052
 40
0.3012457375
 40
0.3318690393
 40
0.3636557392
 40
0.3965770247
 40
0.430601226
 40
0.4656942229
 40
0.5018194322
 40
0.5389381218
 40
0.5770096214
 40
0.6159912851
 40
0.6558388267
 40
0.696506375
 40
0.7379464633
 40
0.7801104208
 40
0.8229483775
 40
0.8664087168
 40
0.9104394234
 40
0.9549894332
 40
1.0
 40
1.0
 40
1.0
 40
1.0
 10
9.8889956397
 20
11.4587988516
 30
0.0
 10
9.887519089
 20
11.4613833313
 30
0.0
 10
9.8850487225
 20
11.4651986554
 30
0.0
 10
9.8813521786
 20
11.4701073501
 30
0.0
 10
9.8782754731
 20
11.4738315307
 30
0.0
 10
9.8749385127
 20
11.4775398851
 30
0.0
 10
9.8713422519
 20
11.481231616
 30
0.0
 10
9.8674879654
 20
11.4849055156
 30
0.0
 10
9.8633768576
 20
11.4885604151
 30
0.0
 10
9.8590102979
 20
11.492195174
 30
0.0
 10
9.8543897388
 20
11.495808677
 30
0.0
 10
9.8495166515
 20
11.4993997318
 30
0.0
 10
9.8443926261
 20
11.5029671862
 30
0.0
 10
9.8390193627
 20
11.5065099342
 30
0.0
 10
9.8333985924
 20
11.5100267919
 30
0.0
 10
9.8275321298
 20
11.5135166284
 30
0.0
 10
9.8192708219
 20
11.5181969426
 30
0.0
 10
9.808331789
 20
11.5239620352
 30
0.0
 10
9.7944324766
 20
11.5306619351
 30
0.0
 10
9.7796029944
 20
11.5372271866
 30
0.0
 10
9.7638628001
 20
11.543649237
 30
0.0
 10
9.7472323019
 20
11.5499196519
 30
0.0
 10
9.72973321
 20
11.5560301364
 30
0.0
 10
9.7113884216
 20
11.5619726847
 30
0.0
 10
9.6922219635
 20
11.567739399
 30
0.0
 10
9.6722589826
 20
11.5733226505
 30
0.0
 10
9.6515257045
 20
11.5787150875
 30
0.0
 10
9.6300493734
 20
11.5839095184
 30
0.0
 10
9.6078582418
 20
11.5888990931
 30
0.0
 10
9.5849815132
 20
11.5936772168
 30
0.0
 10
9.5614492984
 20
11.5982375166
 30
0.0
 10
9.5372925914
 20
11.6025739992
 30
0.0
 10
9.5125432088
 20
11.6066809092
 30
0.0
 10
9.4872337596
 20
11.6105527831
 30
0.0
 10
9.4613975963
 20
11.6141845423
 30
0.0
 10
9.4350687388
 20
11.6175713505
 30
0.0
 10
9.408281943
 20
11.6207087083
 30
0.0
 10
9.3810725592
 20
11.6235925134
 30
0.0
 10
9.3534760661
 20
11.6262189427
 30
0.0
 10
9.3255293983
 20
11.62858444
 30
0.0
 10
9.3067784673
 20
11.6299788472
 30
0.0
 10
9.2973516004
 20
11.6306326026
 30
0.0
  0
SPLINE
  5
358
100
AcDbEntity
  8
0
100
AcDbSpline
 62
7
  6
CONTINUOUS
 70
0
 71
3
 72
19
 73
15
 74
0
 42
0.0000001
 43
0.0000001
 44
0.0000000001
 40
0.0
 40
0.0
 40
0.0
 40
0.0
 40
0.0586029904
 40
0.1182555707
 40
0.1788495829
 40
0.2402744997
 40
0.3024176743
 40
0.3651647518
 40
0.4283999171
 40
0.4920061236
 40
0.619857326
 40
0.747771692
 40
0.8747988114
 40
1.0
 40
1.0
 40
1.0
 40
1.0
 10
8.8648990236
 20
11.2884929016
 30
0.0
 10
8.8717881115
 20
11.2893588906
 30
0.0
 10
8.8857022327
 20
11.2910078595
 30
0.0
 10
8.9067775074
 20
11.2932171157
 30
0.0
 10
8.9282128268
 20
11.2951811735
 30
0.0
 10
8.9499654942
 20
11.2968960872
 30
0.0
 10
8.9719922478
 20
11.2983584533
 30
0.0
 10
8.9942492482
 20
11.2995653412
 30
0.0
 10
9.01669225
 20
11.3005143364
 30
0.0
 10
9.0468548494
 20
11.3014347294
 30
0.0
 10
9.0846945905
 20
11.3019282476
 30
0.0
 10
9.1300497268
 20
11.3014754669
 30
0.0
 10
9.1750683179
 20
11.299982227
 30
0.0
 10
9.2049076113
 20
11.2982846815
 30
0.0
 10
9.2197059509
 20
11.2972584131
 30
0.0
  0
SPLINE
  5
359
100
AcDbEntity
  8
0
100
AcDbSpline
 62
7
  6
CONTINUOUS
 70
0
 71
3
 72
30
 73
26
 74
0
 42
0.0000001
 43
0.0000001
 44
0.0000000001
 40
0.0
 40
0.0
 40
0.0
 40
0.0
 40
0.0222327357
 40
0.0453808286
 40
0.0694229381
 40
0.0943350668
 40
0.1200910779
 40
0.1466627372
 40
0.1740198601
 40
0.2021306432
 40
0.2309615339
 40
0.2604776006
 40
0.2906425058
 40
0.321418608
 40
0.3527671916
 40
0.3846483614
 40
0.4498433491
 40
0.5166678802
 40
0.5847735961
 40
0.6538032044
 40
0.7233930418
 40
0.7931755704
 40
0.8627821741
 40
0.9318444909
 40
1.0
 40
1.0
 40
1.0
 40
1.0
 10
8.6204135577
 20
11.3227664375
 30
0.0
 10
8.6247616777
 20
11.3243163179
 30
0.0
 10
8.6336776025
 20
11.3273667375
 30
0.0
 10
8.64742015
 20
11.3317184135
 30
0.0
 10
8.6617858952
 20
11.3359335372
 30
0.0
 10
8.6767544581
 20
11.3400061542
 30
0.0
 10
8.6923047578
 20
11.3439304429
 30
0.0
 10
8.7084148267
 20
11.3477008097
 30
0.0
 10
8.7250619008
 20
11.3513119354
 30
0.0
 10
8.74222245
 20
11.3547586149
 30
0.0
 10
8.7598722017
 20
11.3580360045
 30
0.0
 10
8.777986187
 20
11.3611394084
 30
0.0
 10
8.7965387767
 20
11.3640644076
 30
0.0
 10
8.8155037053
 20
11.3668068748
 30
0.0
 10
8.8348541529
 20
11.3693628755
 30
0.0
 10
8.8613288841
 20
11.3725409751
 30
0.0
 10
8.8951846257
 20
11.3760111675
 30
0.0
 10
8.936604346
 20
11.3793511089
 30
0.0
 10
8.9788791978
 20
11.3818777682
 30
0.0
 10
9.0217698499
 20
11.3835766969
 30
0.0
 10
9.0650336579
 20
11.3844381343
 30
0.0
 10
9.1084257966
 20
11.3844571637
 30
0.0
 10
9.151700652
 20
11.3836336537
 30
0.0
 10
9.1946132555
 20
11.3819723788
 30
0.0
 10
9.2230563607
 20
11.380298655
 30
0.0
 10
9.2371732942
 20
11.3793196424
 30
0.0
  0
SPLINE
  5
35A
100
AcDbEntity
  8
0
100
AcDbSpline
 62
7
  6
CONTINUOUS
 70
0
 71
3
 72
55
 73
51
 74
0
 42
0.0000001
 43
0.0000001
 44
0.0000000001
 40
0.0
 40
0.0
 40
0.0
 40
0.0
 40
0.0057290482
 40
0.0113946485
 40
0.0170650385
 40
0.022808265
 40
0.028689603
 40
0.0347694147
 40
0.0411017512
 40
0.0477336417
 40
0.0547051284
 40
0.0620495463
 40
0.0697942924
 40
0.0779613542
 40
0.0865682319
 40
0.0956283359
 40
0.1051518318
 40
0.1151458264
 40
0.1256150886
 40
0.1365620673
 40
0.1479874927
 40
0.1598902958
 40
0.1722680988
 40
0.1851170986
 40
0.1984324515
 40
0.2122081655
 40
0.2264373825
 40
0.2411123096
 40
0.2562244016
 40
0.2717643483
 40
0.2877221637
 40
0.3040872349
 40
0.3208483272
 40
0.3379936927
 40
0.3733869142
 40
0.4101635095
 40
0.448212479
 40
0.4874167157
 40
0.5276537496
 40
0.5687964433
 40
0.610713653
 40
0.6532708656
 40
0.696330821
 40
0.7397541196
 40
0.7833998358
 40
0.8271260866
 40
0.870790718
 40
0.9142516555
 40
0.9573680975
 40
1.0
 40
1.0
 40
1.0
 40
1.0
 10
8.4687148631
 20
11.418992953
 30
0.0
 10
8.4683707458
 20
11.420554154
 30
0.0
 10
8.4678541481
 20
11.4236994229
 30
0.0
 10
8.4676189017
 20
11.4284655128
 30
0.0
 10
8.4679306005
 20
11.4332317174
 30
0.0
 10
8.4687886002
 20
11.4379910302
 30
0.0
 10
8.4701907515
 20
11.4427378794
 30
0.0
 10
8.4721340934
 20
11.4474672585
 30
0.0
 10
8.4746153052
 20
11.452174951
 30
0.0
 10
8.4776308115
 20
11.456857343
 30
0.0
 10
8.4811771441
 20
11.46151101
 30
0.0
 10
8.4852505811
 20
11.466132767
 30
0.0
 10
8.4898474268
 20
11.4707192143
 30
0.0
 10
8.4949635341
 20
11.475267089
 30
0.0
 10
8.5005946135
 20
11.4797727886
 30
0.0
 10
8.5067358068
 20
11.4842328999
 30
0.0
 10
8.5133820062
 20
11.4886436695
 30
0.0
 10
8.5205275133
 20
11.4930016008
 30
0.0
 10
8.5281663226
 20
11.4973028936
 30
0.0
 10
8.5362918651
 20
11.5015440387
 30
0.0
 10
8.5448972329
 20
11.5057212737
 30
0.0
 10
8.5539749988
 20
11.5098311259
 30
0.0
 10
8.563517378
 20
11.5138699282
 30
0.0
 10
8.5735161115
 20
11.5178342766
 30
0.0
 10
8.5839625743
 20
11.5217206364
 30
0.0
 10
8.5948477077
 20
11.5255256956
 30
0.0
 10
8.6061620862
 20
11.5292460766
 30
0.0
 10
8.6178958854
 20
11.5328785773
 30
0.0
 10
8.6300389208
 20
11.5364199944
 30
0.0
 10
8.6425806381
 20
11.5398672511
 30
0.0
 10
8.6555101364
 20
11.5432173325
 30
0.0
 10
8.668816166
 20
11.5464672965
 30
0.0
 10
8.6824871656
 20
11.5496143455
 30
0.0
 10
8.701386201
 20
11.5537128134
 30
0.0
 10
8.725838682
 20
11.558546603
 30
0.0
 10
8.7561390835
 20
11.5638356867
 30
0.0
 10
8.7875940405
 20
11.568654267
 30
0.0
 10
8.82009402
 20
11.5729854111
 30
0.0
 10
8.8535259908
 20
11.5768138762
 30
0.0
 10
8.8877735785
 20
11.5801262035
 30
0.0
 10
8.9227175523
 20
11.5829107509
 30
0.0
 10
8.9582362275
 20
11.5851577354
 30
0.0
 10
8.994205901
 20
11.5868592643
 30
0.0
 10
9.0305012874
 20
11.5880093634
 30
0.0
 10
9.0669959525
 20
11.5886039925
 30
0.0
 10
9.1035627803
 20
11.5886410681
 30
0.0
 10
9.1400743519
 20
11.5881204521
 30
0.0
 10
9.1764035719
 20
11.5870439841
 30
0.0
 10
9.212423694
 20
11.5854154315
 30
0.0
 10
9.2363082045
 20
11.583955675
 30
0.0
 10
9.2481760224
 20
11.583132639
 30
0.0
  0
SPLINE
  5
35B
100
AcDbEntity
  8
0
100
AcDbSpline
 62
7
  6
CONTINUOUS
 70
0
 71
3
 72
51
 73
47
 74
0
 42
0.0000001
 43
0.0000001
 44
0.0000000001
 40
0.0
 40
0.0
 40
0.0
 40
0.0
 40
0.0125262123
 40
0.0192332965
 40
0.0262639145
 40
0.0336359848
 40
0.0413642219
 40
0.049460446
 40
0.0579339944
 40
0.0667920496
 40
0.0760398581
 40
0.0856810822
 40
0.0957178403
 40
0.1061510798
 40
0.1169804923
 40
0.1282048777
 40
0.1398220091
 40
0.1518289402
 40
0.1642218947
 40
0.1769964724
 40
0.1901476142
 40
0.2036696866
 40
0.2175565431
 40
0.2318014899
 40
0.2463974372
 40
0.2613367721
 40
0.2766115697
 40
0.3081331311
 40
0.3408915467
 40
0.3748104679
 40
0.4098088957
 40
0.44580167
 40
0.4826999194
 40
0.52041148
 40
0.5588412923
 40
0.5978917854
 40
0.6374632485
 40
0.6774541945
 40
0.7177617199
 40
0.7582818551
 40
0.7989099312
 40
0.839540883
 40
0.8800697451
 40
0.9203915937
 40
0.9604028951
 40
1.0
 40
1.0
 40
1.0
 40
1.0
 10
8.2865388063
 20
11.4590042476
 30
0.0
 10
8.2887231439
 20
11.4628015785
 30
0.0
 10
8.292555774
 20
11.4683659273
 30
0.0
 10
8.2984678315
 20
11.475398866
 30
0.0
 10
8.3035496241
 20
11.4807606577
 30
0.0
 10
8.3091726995
 20
11.4860837465
 30
0.0
 10
8.3153339806
 20
11.4913657971
 30
0.0
 10
8.3220290286
 20
11.4966032269
 30
0.0
 10
8.3292533801
 20
11.501792746
 30
0.0
 10
8.337002146
 20
11.5069309011
 30
0.0
 10
8.345270058
 20
11.5120143471
 30
0.0
 10
8.3540515394
 20
11.5170395818
 30
0.0
 10
8.3633405731
 20
11.5220033087
 30
0.0
 10
8.3731308623
 20
11.5269020254
 30
0.0
 10
8.3834156704
 20
11.5317324999
 30
0.0
 10
8.3941879823
 20
11.5364912914
 30
0.0
 10
8.4054403717
 20
11.5411752281
 30
0.0
 10
8.4171651222
 20
11.5457809825
 30
0.0
 10
8.4293541445
 20
11.5503054384
 30
0.0
 10
8.4419990465
 20
11.5547454157
 30
0.0
 10
8.4550910998
 20
11.5590978576
 30
0.0
 10
8.468621267
 20
11.563359749
 30
0.0
 10
8.4825802034
 20
11.5675281048
 30
0.0
 10
8.4969582591
 20
11.5716000813
 30
0.0
 10
8.5117454942
 20
11.5755727798
 30
0.0
 10
8.5269316921
 20
11.5794435431
 30
0.0
 10
8.5479180089
 20
11.5845180728
 30
0.0
 10
8.5750761442
 20
11.5905738975
 30
0.0
 10
8.6087525066
 20
11.5973191901
 30
0.0
 10
8.6437549143
 20
11.6035978813
 30
0.0
 10
8.6799864638
 20
11.6093924445
 30
0.0
 10
8.7173470005
 20
11.6146866905
 30
0.0
 10
8.7557331452
 20
11.6194658387
 30
0.0
 10
8.7950386623
 20
11.6237165494
 30
0.0
 10
8.8351547407
 20
11.6274269629
 30
0.0
 10
8.8759703067
 20
11.6305867298
 30
0.0
 10
8.9173723339
 20
11.6331870386
 30
0.0
 10
8.9592461614
 20
11.6352206398
 30
0.0
 10
9.0014758122
 20
11.6366818638
 30
0.0
 10
9.0439443214
 20
11.6375666391
 30
0.0
 10
9.086534048
 20
11.6378724961
 30
0.0
 10
9.1291270457
 20
11.63759859
 30
0.0
 10
9.1716052691
 20
11.6367456694
 30
0.0
 10
9.2138512117
 20
11.6353161343
 30
0.0
 10
9.2557475973
 20
11.6333139412
 30
0.0
 10
9.2835365901
 20
11.6315906769
 30
0.0
 10
9.2973516004
 20
11.6306326026
 30
0.0
  0
SPLINE
  5
35C
100
AcDbEntity
  8
0
100
AcDbSpline
 62
7
  6
CONTINUOUS
 70
0
 71
3
 72
59
 73
55
 74
0
 42
0.0000001
 43
0.0000001
 44
0.0000000001
 40
0.0
 40
0.0
 40
0.0
 40
0.0
 40
0.0027758488
 40
0.0055596021
 40
0.008359095
 40
0.0111820195
 40
0.0140358522
 40
0.0169278075
 40
0.0228516365
 40
0.0290063393
 40
0.0354366794
 40
0.0387680642
 40
0.0421822272
 40
0.0492730078
 40
0.0567369683
 40
0.0645960023
 40
0.0728675869
 40
0.0815655464
 40
0.0907003782
 40
0.1002799082
 40
0.1103094603
 40
0.1207923966
 40
0.1317301617
 40
0.1431227321
 40
0.1549685743
 40
0.1672650269
 40
0.1800082061
 40
0.1931933349
 40
0.2068146222
 40
0.2208655488
 40
0.2353387364
 40
0.2502261967
 40
0.2655192032
 40
0.2812085054
 40
0.2972842121
 40
0.3137359731
 40
0.3305528785
 40
0.3477236105
 40
0.3830784316
 40
0.4197019435
 40
0.457489208
 40
0.4963301116
 40
0.5361099921
 40
0.576710229
 40
0.6180088092
 40
0.6598808745
 40
0.702199258
 40
0.7448350122
 40
0.7876579293
 40
0.8305370685
 40
0.8733412491
 40
0.9159396382
 40
0.9582020849
 40
1.0
 40
1.0
 40
1.0
 40
1.0
 10
8.2777083634
 20
11.4899515587
 30
0.0
 10
8.2777083591
 20
11.4909524063
 30
0.0
 10
8.2777638758
 20
11.4929573922
 30
0.0
 10
8.2780135723
 20
11.495962399
 30
0.0
 10
8.2784296974
 20
11.4989661222
 30
0.0
 10
8.2790121278
 20
11.5019677359
 30
0.0
 10
8.2797606867
 20
11.5049666812
 30
0.0
 10
8.2809895253
 20
11.5089924219
 30
0.0
 10
8.2829561783
 20
11.5140292193
 30
0.0
 10
8.2859586401
 20
11.5199987138
 30
0.0
 10
8.2889728215
 20
11.5248903856
 30
0.0
 10
8.2916966729
 20
11.5287836653
 30
0.0
 10
8.2947081772
 20
11.5327622564
 30
0.0
 10
8.2988953759
 20
11.5377133283
 30
0.0
 10
8.3045027142
 20
11.5435395439
 30
0.0
 10
8.3107502925
 20
11.5493199671
 30
0.0
 10
8.3176327288
 20
11.5550503508
 30
0.0
 10
8.325144663
 20
11.5607264038
 30
0.0
 10
8.3332800161
 20
11.5663439393
 30
0.0
 10
8.3420323809
 20
11.5718984873
 30
0.0
 10
8.3513947029
 20
11.5773858127
 30
0.0
 10
8.3613595309
 20
11.5828014225
 30
0.0
 10
8.371918802
 20
11.5881410966
 30
0.0
 10
8.3830640349
 20
11.5934003978
 30
0.0
 10
8.3947861762
 20
11.5985751745
 30
0.0
 10
8.4070757469
 20
11.6036610958
 30
0.0
 10
8.4199227353
 20
11.6086541157
 30
0.0
 10
8.4333167052
 20
11.613550043
 30
0.0
 10
8.447246724
 20
11.6183449635
 30
0.0
 10
8.4617014409
 20
11.62303485
 30
0.0
 10
8.4766690427
 20
11.6276159396
 30
0.0
 10
8.4921373083
 20
11.6320843876
 30
0.0
 10
8.5080935857
 20
11.6364365988
 30
0.0
 10
8.5245248287
 20
11.6406689255
 30
0.0
 10
8.5414175912
 20
11.6447779557
 30
0.0
 10
8.5587580446
 20
11.6487602463
 30
0.0
 10
8.5765320098
 20
11.6526126021
 30
0.0
 10
8.6010276932
 20
11.6576201827
 30
0.0
 10
8.6326279537
 20
11.6635184242
 30
0.0
 10
8.6716789022
 20
11.6699633081
 30
0.0
 10
8.7120926305
 20
11.6758208197
 30
0.0
 10
8.7537367359
 20
11.681071609
 30
0.0
 10
8.7964749453
 20
11.6856983075
 30
0.0
 10
8.8401673001
 20
11.6896856257
 30
0.0
 10
8.8846707011
 20
11.6930203892
 30
0.0
 10
8.9298393637
 20
11.6956915838
 30
0.0
 10
8.9755253072
 20
11.6976903889
 30
0.0
 10
9.021578843
 20
11.699010205
 30
0.0
 10
9.0678490701
 20
11.6996466762
 30
0.0
 10
9.1141843713
 20
11.6995976997
 30
0.0
 10
9.1604329154
 20
11.6988634409
 30
0.0
 10
9.2064431744
 20
11.6974463161
 30
0.0
 10
9.2520642675
 20
11.6953510192
 30
0.0
 10
9.2823172417
 20
11.693494497
 30
0.0
 10
9.2973516004
 20
11.6924518606
 30
0.0
  0
SPLINE
  5
35D
100
AcDbEntity
  8
0
100
AcDbSpline
 62
4
  6
CONTINUOUS
 70
0
 71
3
 72
397
 73
393
 74
0
 42
0.0000001
 43
0.0000001
 44
0.0000000001
 40
0.0
 40
0.0
 40
0.0
 40
0.0
 40
0.015625
 40
0.0234375
 40
0.03125
 40
0.0390625
 40
0.04296875
 40
0.046875
 40
0.05078125
 40
0.0546875
 40
0.056640625
 40
0.05859375
 40
0.0595703125
 40
0.060546875
 40
0.0615234375
 40
0.0620117188
 40
0.0622558594
 40
0.0625
 40
0.0627441406
 40
0.0629882812
 40
0.0634765625
 40
0.064453125
 40
0.0654296875
 40
0.06640625
 40
0.068359375
 40
0.0703125
 40
0.07421875
 40
0.078125
 40
0.08203125
 40
0.0859375
 40
0.09375
 40
0.1015625
 40
0.10546875
 40
0.109375
 40
0.11328125
 40
0.1171875
 40
0.119140625
 40
0.12109375
 40
0.1220703125
 40
0.123046875
 40
0.1240234375
 40
0.1245117188
 40
0.1247558594
 40
0.125
 40
0.1252441406
 40
0.1254882812
 40
0.1259765625
 40
0.126953125
 40
0.1279296875
 40
0.12890625
 40
0.130859375
 40
0.1328125
 40
0.13671875
 40
0.140625
 40
0.14453125
 40
0.1484375
 40
0.15625
 40
0.1640625
 40
0.16796875
 40
0.171875
 40
0.17578125
 40
0.1796875
 40
0.181640625
 40
0.18359375
 40
0.1845703125
 40
0.185546875
 40
0.1865234375
 40
0.1870117188
 40
0.1872558594
 40
0.1875
 40
0.1877441406
 40
0.1879882812
 40
0.1884765625
 40
0.189453125
 40
0.1904296875
 40
0.19140625
 40
0.193359375
 40
0.1953125
 40
0.19921875
 40
0.203125
 40
0.20703125
 40
0.2109375
 40
0.21875
 40
0.2265625
 40
0.23046875
 40
0.234375
 40
0.23828125
 40
0.2421875
 40
0.244140625
 40
0.24609375
 40
0.2470703125
 40
0.248046875
 40
0.2490234375
 40
0.2495117188
 40
0.2497558594
 40
0.25
 40
0.2502441406
 40
0.2504882812
 40
0.2509765625
 40
0.251953125
 40
0.2529296875
 40
0.25390625
 40
0.255859375
 40
0.2578125
 40
0.26171875
 40
0.265625
 40
0.26953125
 40
0.2734375
 40
0.28125
 40
0.2890625
 40
0.29296875
 40
0.296875
 40
0.30078125
 40
0.3046875
 40
0.306640625
 40
0.30859375
 40
0.3095703125
 40
0.310546875
 40
0.3115234375
 40
0.3120117188
 40
0.3122558594
 40
0.3125
 40
0.3127441406
 40
0.3129882812
 40
0.3134765625
 40
0.314453125
 40
0.3154296875
 40
0.31640625
 40
0.318359375
 40
0.3203125
 40
0.32421875
 40
0.328125
 40
0.33203125
 40
0.3359375
 40
0.34375
 40
0.3515625
 40
0.35546875
 40
0.359375
 40
0.36328125
 40
0.3671875
 40
0.369140625
 40
0.37109375
 40
0.3720703125
 40
0.373046875
 40
0.3740234375
 40
0.3745117188
 40
0.3747558594
 40
0.375
 40
0.3752441406
 40
0.3754882812
 40
0.3759765625
 40
0.376953125
 40
0.3779296875
 40
0.37890625
 40
0.380859375
 40
0.3828125
 40
0.38671875
 40
0.390625
 40
0.39453125
 40
0.3984375
 40
0.40625
 40
0.4140625
 40
0.41796875
 40
0.421875
 40
0.42578125
 40
0.4296875
 40
0.431640625
 40
0.43359375
 40
0.4345703125
 40
0.435546875
 40
0.4365234375
 40
0.4370117188
 40
0.4372558594
 40
0.4375
 40
0.4377441406
 40
0.4379882812
 40
0.4384765625
 40
0.439453125
 40
0.4404296875
 40
0.44140625
 40
0.443359375
 40
0.4453125
 40
0.44921875
 40
0.453125
 40
0.45703125
 40
0.4609375
 40
0.46875
 40
0.4765625
 40
0.48046875
 40
0.484375
 40
0.48828125
 40
0.4921875
 40
0.494140625
 40
0.49609375
 40
0.4970703125
 40
0.498046875
 40
0.4990234375
 40
0.4995117188
 40
0.4997558594
 40
0.5
 40
0.5002441406
 40
0.5004882812
 40
0.5009765625
 40
0.501953125
 40
0.5029296875
 40
0.50390625
 40
0.505859375
 40
0.5078125
 40
0.51171875
 40
0.515625
 40
0.51953125
 40
0.5234375
 40
0.53125
 40
0.5390625
 40
0.54296875
 40
0.546875
 40
0.55078125
 40
0.5546875
 40
0.556640625
 40
0.55859375
 40
0.5595703125
 40
0.560546875
 40
0.5615234375
 40
0.5620117188
 40
0.5622558594
 40
0.5625
 40
0.5627441406
 40
0.5629882812
 40
0.5634765625
 40
0.564453125
 40
0.5654296875
 40
0.56640625
 40
0.568359375
 40
0.5703125
 40
0.57421875
 40
0.578125
 40
0.58203125
 40
0.5859375
 40
0.59375
 40
0.6015625
 40
0.60546875
 40
0.609375
 40
0.61328125
 40
0.6171875
 40
0.619140625
 40
0.62109375
 40
0.6220703125
 40
0.623046875
 40
0.6240234375
 40
0.6245117188
 40
0.625
 40
0.6254882812
 40
0.6259765625
 40
0.626953125
 40
0.6279296875
 40
0.62890625
 40
0.630859375
 40
0.6328125
 40
0.63671875
 40
0.640625
 40
0.64453125
 40
0.6484375
 40
0.65625
 40
0.6640625
 40
0.66796875
 40
0.671875
 40
0.67578125
 40
0.6796875
 40
0.681640625
 40
0.68359375
 40
0.6845703125
 40
0.685546875
 40
0.6865234375
 40
0.6870117188
 40
0.6872558594
 40
0.6875
 40
0.6877441406
 40
0.6879882812
 40
0.6884765625
 40
0.689453125
 40
0.6904296875
 40
0.69140625
 40
0.693359375
 40
0.6953125
 40
0.69921875
 40
0.703125
 40
0.70703125
 40
0.7109375
 40
0.71875
 40
0.7265625
 40
0.73046875
 40
0.734375
 40
0.73828125
 40
0.7421875
 40
0.744140625
 40
0.74609375
 40
0.7470703125
 40
0.748046875
 40
0.7490234375
 40
0.7495117188
 40
0.7497558594
 40
0.75
 40
0.7502441406
 40
0.7504882812
 40
0.7509765625
 40
0.751953125
 40
0.7529296875
 40
0.75390625
 40
0.755859375
 40
0.7578125
 40
0.76171875
 40
0.765625
 40
0.76953125
 40
0.7734375
 40
0.78125
 40
0.7890625
 40
0.79296875
 40
0.796875
 40
0.80078125
 40
0.8046875
 40
0.806640625
 40
0.80859375
 40
0.8095703125
 40
0.810546875
 40
0.8115234375
 40
0.8120117188
 40
0.8125
 40
0.8129882812
 40
0.8134765625
 40
0.814453125
 40
0.8154296875
 40
0.81640625
 40
0.818359375
 40
0.8203125
 40
0.82421875
 40
0.828125
 40
0.83203125
 40
0.8359375
 40
0.84375
 40
0.8515625
 40
0.85546875
 40
0.859375
 40
0.86328125
 40
0.8671875
 40
0.869140625
 40
0.87109375
 40
0.8720703125
 40
0.873046875
 40
0.8740234375
 40
0.8745117188
 40
0.875
 40
0.8754882812
 40
0.8759765625
 40
0.876953125
 40
0.8779296875
 40
0.87890625
 40
0.880859375
 40
0.8828125
 40
0.88671875
 40
0.890625
 40
0.89453125
 40
0.8984375
 40
0.90625
 40
0.9140625
 40
0.91796875
 40
0.921875
 40
0.92578125
 40
0.9296875
 40
0.931640625
 40
0.93359375
 40
0.9345703125
 40
0.935546875
 40
0.9365234375
 40
0.9370117188
 40
0.9372558594
 40
0.9375
 40
0.9377441406
 40
0.9379882812
 40
0.9384765625
 40
0.939453125
 40
0.9404296875
 40
0.94140625
 40
0.943359375
 40
0.9453125
 40
0.94921875
 40
0.953125
 40
0.95703125
 40
0.9609375
 40
0.96875
 40
0.9765625
 40
0.984375
 40
1.0
 40
1.0
 40
1.0
 40
1.0
 10
9.5456311035
 20
7.6388257652
 30
0.0
 10
9.540002624
 20
7.6386642243
 30
0.0
 10
9.5315599048
 20
7.638421913
 30
0.0
 10
9.5203029458
 20
7.6380988313
 30
0.0
 10
9.5118602266
 20
7.63785652
 30
0.0
 10
9.5048246272
 20
7.6376545942
 30
0.0
 10
9.4991961478
 20
7.6374930527
 30
0.0
 10
9.4949747878
 20
7.6373718989
 30
0.0
 10
9.4907534295
 20
7.6372507365
 30
0.0
 10
9.4872356257
 20
7.6371497943
 30
0.0
 10
9.4844213943
 20
7.6370689814
 30
0.0
 10
9.4826624733
 20
7.6370186081
 30
0.0
 10
9.4812553969
 20
7.6369780006
 30
0.0
 10
9.4801999243
 20
7.6369483909
 30
0.0
 10
9.4793208894
 20
7.6369210252
 30
0.0
 10
9.4787045336
 20
7.63690715
 30
0.0
 10
9.4783539407
 20
7.6368909758
 30
0.0
 10
9.4780864592
 20
7.636902073
 30
0.0
 10
9.4778363202
 20
7.6368243812
 30
0.0
 10
9.4774967522
 20
7.6367517628
 30
0.0
 10
9.4769053268
 20
7.6366102507
 30
0.0
 10
9.4760589598
 20
7.6364156347
 30
0.0
 10
9.4750439501
 20
7.6361788663
 30
0.0
 10
9.4736903836
 20
7.6358643031
 30
0.0
 10
9.4719985009
 20
7.6354707128
 30
0.0
 10
9.4692914463
 20
7.6348411842
 30
0.0
 10
9.4659076426
 20
7.6340541994
 30
0.0
 10
9.461847072
 20
7.6331098494
 30
0.0
 10
9.457786503
 20
7.6321654909
 30
0.0
 10
9.4523724104
 20
7.6309063492
 30
0.0
 10
9.4456047949
 20
7.6293324209
 30
0.0
 10
9.4388371792
 20
7.6277584934
 30
0.0
 10
9.433423087
 20
7.6264993505
 30
0.0
 10
9.4293625169
 20
7.6255549955
 30
0.0
 10
9.4253019502
 20
7.6246106324
 30
0.0
 10
9.4219181344
 20
7.6238236884
 30
0.0
 10
9.4192111045
 20
7.6231940766
 30
0.0
 10
9.4175191591
 20
7.6228006982
 30
0.0
 10
9.4161657211
 20
7.6224857
 30
0.0
 10
9.4151503185
 20
7.6222502603
 30
0.0
 10
9.4143051809
 20
7.6220514872
 30
0.0
 10
9.4137115609
 20
7.6219173962
 30
0.0
 10
9.4133755092
 20
7.6218328874
 30
0.0
 10
9.4131145693
 20
7.6217917188
 30
0.0
 10
9.4128876541
 20
7.6216656409
 30
0.0
 10
9.4125732322
 20
7.6215271543
 30
0.0
 10
9.4120285235
 20
7.6212710035
 30
0.0
 10
9.4112474773
 20
7.6209122882
 30
0.0
 10
9.4103114592
 20
7.6204787418
 30
0.0
 10
9.4090630029
 20
7.6199017585
 30
0.0
 10
9.4075025806
 20
7.6191801602
 30
0.0
 10
9.4050058221
 20
7.6180258092
 30
0.0
 10
9.4018849024
 20
7.6165827996
 30
0.0
 10
9.3981397866
 20
7.6148512184
 30
0.0
 10
9.394394674
 20
7.6131196292
 30
0.0
 10
9.3894011895
 20
7.6108108464
 30
0.0
 10
9.3831593342
 20
7.6079248668
 30
0.0
 10
9.3769174787
 20
7.6050388879
 30
0.0
 10
9.3719239946
 20
7.6027301039
 30
0.0
 10
9.3681788805
 20
7.600998518
 30
0.0
 10
9.3644337706
 20
7.5992669242
 30
0.0
 10
9.3613128326
 20
7.5978239541
 30
0.0
 10
9.3588161113
 20
7.5966695226
 30
0.0
 10
9.3572555943
 20
7.5959481292
 30
0.0
 10
9.3560073324
 20
7.5953707251
 30
0.0
 10
9.3550707205
 20
7.5949384644
 30
0.0
 10
9.3542915324
 20
7.5945757265
 30
0.0
 10
9.3537435066
 20
7.5943267566
 30
0.0
 10
9.3534343995
 20
7.5941767644
 30
0.0
 10
9.3531911591
 20
7.5940860281
 30
0.0
 10
9.3529915334
 20
7.5939121223
 30
0.0
 10
9.3527101524
 20
7.5937092584
 30
0.0
 10
9.352224824
 20
7.5933407301
 30
0.0
 10
9.3515277918
 20
7.5928213276
 30
0.0
 10
9.3506929394
 20
7.5921950199
 30
0.0
 10
9.3495792488
 20
7.5913609995
 30
0.0
 10
9.3481873252
 20
7.5903181122
 30
0.0
 10
9.3459601416
 20
7.5886496947
 30
0.0
 10
9.3431761984
 20
7.5865641035
 30
0.0
 10
9.3398354509
 20
7.5840614238
 30
0.0
 10
9.3364947076
 20
7.5815587361
 30
0.0
 10
9.3320403818
 20
7.578221822
 30
0.0
 10
9.3264724751
 20
7.5740506783
 30
0.0
 10
9.3209045679
 20
7.5698795352
 30
0.0
 10
9.3164502428
 20
7.5665426201
 30
0.0
 10
9.3131094973
 20
7.5640399354
 30
0.0
 10
9.3097687584
 20
7.5615372446
 30
0.0
 10
9.3069847885
 20
7.5594516878
 30
0.0
 10
9.3047576593
 20
7.5577832001
 30
0.0
 10
9.3033655972
 20
7.5567404916
 30
0.0
 10
9.302252191
 20
7.5559061041
 30
0.0
 10
9.3014164699
 20
7.5552809179
 30
0.0
 10
9.3007221554
 20
7.5547580066
 30
0.0
 10
9.3002319754
 20
7.5543957421
 30
0.0
 10
9.2999583679
 20
7.5541828419
 30
0.0
 10
9.2997348646
 20
7.5540397646
 30
0.0
 10
9.2995813042
 20
7.5538332415
 30
0.0
 10
9.2993521601
 20
7.553580008
 30
0.0
 10
9.2989625249
 20
7.5531265384
 30
0.0
 10
9.2983999604
 20
7.5524841153
 30
0.0
 10
9.2977274267
 20
7.5517109002
 30
0.0
 10
9.2968298266
 20
7.5506807526
 30
0.0
 10
9.2957081307
 20
7.5493927922
 30
0.0
 10
9.2939132472
 20
7.5473322098
 30
0.0
 10
9.2916697012
 20
7.5447564289
 30
0.0
 10
9.288977421
 20
7.5416655145
 30
0.0
 10
9.2862851475
 20
7.538574594
 30
0.0
 10
9.2826954472
 20
7.5344533688
 30
0.0
 10
9.2782083226
 20
7.5293018365
 30
0.0
 10
9.2737211975
 20
7.5241503047
 30
0.0
 10
9.2701314981
 20
7.5200290787
 30
0.0
 10
9.2674392217
 20
7.5169381606
 30
0.0
 10
9.2647469524
 20
7.5138472372
 30
0.0
 10
9.2625033725
 20
7.5112714841
 30
0.0
 10
9.2607085581
 20
7.509210845
 30
0.0
 10
9.2595866864
 20
7.5079230289
 30
0.0
 10
9.2586894472
 20
7.5068925852
 30
0.0
 10
9.258015811
 20
7.5061202747
 30
0.0
 10
9.257456696
 20
7.5054750213
 30
0.0
 10
9.2570609027
 20
7.5050266042
 30
0.0
 10
9.2568416255
 20
7.5047652753
 30
0.0
 10
9.2566577572
 20
7.5045836187
 30
0.0
 10
9.256548085
 20
7.5043471468
 30
0.0
 10
9.2563759749
 20
7.5040509712
 30
0.0
 10
9.2560868405
 20
7.5035237553
 30
0.0
 10
9.2556674871
 20
7.5027752472
 30
0.0
 10
9.2551669614
 20
7.501875044
 30
0.0
 10
9.2544986514
 20
7.5006754693
 30
0.0
 10
9.2536635866
 20
7.4991757626
 30
0.0
 10
9.2523273025
 20
7.496776365
 30
0.0
 10
9.2506570093
 20
7.4937770724
 30
0.0
 10
9.2486526309
 20
7.4901779408
 30
0.0
 10
9.2466482596
 20
7.486578804
 30
0.0
 10
9.2439757621
 20
7.4817799567
 30
0.0
 10
9.2406351411
 20
7.4757813969
 30
0.0
 10
9.2372945194
 20
7.4697828376
 30
0.0
 10
9.2346220229
 20
7.4649839897
 30
0.0
 10
9.2326176485
 20
7.4613848548
 30
0.0
 10
9.2306132819
 20
7.457785716
 30
0.0
 10
9.2289429519
 20
7.4547864457
 30
0.0
 10
9.2276067429
 20
7.4523870026
 30
0.0
 10
9.226771487
 20
7.4508874116
 30
0.0
 10
9.2261035691
 20
7.4496875995
 30
0.0
 10
9.2256018454
 20
7.4487881217
 30
0.0
 10
9.2251862405
 20
7.4480373438
 30
0.0
 10
9.2248904144
 20
7.44751418
 30
0.0
 10
9.224729026
 20
7.4472115119
 30
0.0
 10
9.2245864202
 20
7.4469949827
 30
0.0
 10
9.2245262449
 20
7.4467384245
 30
0.0
 10
9.2244172585
 20
7.4464103095
 30
0.0
 10
9.2242399287
 20
7.4458296027
 30
0.0
 10
9.2239795966
 20
7.4450034227
 30
0.0
 10
9.223670196
 20
7.444010551
 30
0.0
 10
9.2232566147
 20
7.4426872304
 30
0.0
 10
9.2227399966
 20
7.4410329057
 30
0.0
 10
9.2219132073
 20
7.4383860833
 30
0.0
 10
9.2208797894
 20
7.435077522
 30
0.0
 10
9.2196396584
 20
7.4311072628
 30
0.0
 10
9.2183995353
 20
7.4271369997
 30
0.0
 10
9.2167460352
 20
7.4218433169
 30
0.0
 10
9.214679161
 20
7.415226213
 30
0.0
 10
9.2126122861
 20
7.4086091094
 30
0.0
 10
9.210958787
 20
7.4033154261
 30
0.0
 10
9.2097186605
 20
7.3993451645
 30
0.0
 10
9.2084785424
 20
7.3953748998
 30
0.0
 10
9.2074450846
 20
7.3920663554
 30
0.0
 10
9.2066183767
 20
7.3894194986
 30
0.0
 10
9.2061015513
 20
7.3877652616
 30
0.0
 10
9.2056883955
 20
7.3864417609
 30
0.0
 10
9.2053776949
 20
7.3854494394
 30
0.0
 10
9.20512143
 20
7.384621538
 30
0.0
 10
9.2049368397
 20
7.3840439043
 30
0.0
 10
9.2048394864
 20
7.3837108654
 30
0.0
 10
9.2047435778
 20
7.3834694315
 30
0.0
 10
9.2047351803
 20
7.383196098
 30
0.0
 10
9.2046934587
 20
7.3828427802
 30
0.0
 10
9.2046346681
 20
7.3822192898
 30
0.0
 10
9.204543246
 20
7.3813312997
 30
0.0
 10
9.2044367221
 20
7.3802645514
 30
0.0
 10
9.2042935786
 20
7.3788426256
 30
0.0
 10
9.2041150299
 20
7.3770650796
 30
0.0
 10
9.2038291392
 20
7.3742210835
 30
0.0
 10
9.2034718489
 20
7.3706660618
 30
0.0
 10
9.2030430692
 20
7.3664000471
 30
0.0
 10
9.2026142978
 20
7.3621340294
 30
0.0
 10
9.2020425997
 20
7.3564460069
 30
0.0
 10
9.2013279783
 20
7.3493359784
 30
0.0
 10
9.200613356
 20
7.3422259499
 30
0.0
 10
9.2000416592
 20
7.3365379272
 30
0.0
 10
9.1996128842
 20
7.3322719101
 30
0.0
 10
9.199184118
 20
7.3280058932
 30
0.0
 10
9.1988267857
 20
7.3244508785
 30
0.0
 10
9.1985409805
 20
7.321606868
 30
0.0
 10
9.1983622142
 20
7.3198293588
 30
0.0
 10
9.1982195174
 20
7.3184073574
 30
0.0
 10
9.1981116289
 20
7.31734084
 30
0.0
 10
9.1980244764
 20
7.3164521276
 30
0.0
 10
9.1979580638
 20
7.3158299266
 30
0.0
 10
9.1979285545
 20
7.315474543
 30
0.0
 10
9.1978826449
 20
7.3152075551
 30
0.0
 10
9.1979276254
 20
7.3149422879
 30
0.0
 10
9.197955896
 20
7.3145879981
 30
0.0
 10
9.1980201407
 20
7.3139682706
 30
0.0
 10
9.1981041963
 20
7.3130827993
 30
0.0
 10
9.1982083685
 20
7.3120202964
 30
0.0
 10
9.1983461103
 20
7.310603604
 30
0.0
 10
9.1985186828
 20
7.308832746
 30
0.0
 10
9.1987945778
 20
7.3059993691
 30
0.0
 10
9.1991395224
 20
7.3024576493
 30
0.0
 10
9.1995534235
 20
7.2982075849
 30
0.0
 10
9.1999673333
 20
7.2939575207
 30
0.0
 10
9.2005192099
 20
7.2882907684
 30
0.0
 10
9.2012090568
 20
7.281207328
 30
0.0
 10
9.201898903
 20
7.2741238876
 30
0.0
 10
9.2024507808
 20
7.2684571354
 30
0.0
 10
9.202864687
 20
7.2642070709
 30
0.0
 10
9.2032786015
 20
7.2599570075
 30
0.0
 10
9.2036235042
 20
7.2564152847
 30
0.0
 10
9.2038994848
 20
7.2535819139
 30
0.0
 10
9.2040718396
 20
7.2518110401
 30
0.0
 10
9.2042100282
 20
7.2503943802
 30
0.0
 10
9.2043128353
 20
7.249331778
 30
0.0
 10
9.2044011622
 20
7.2484466176
 30
0.0
 10
9.2044577818
 20
7.2478263351
 30
0.0
 10
9.2044982698
 20
7.2474729345
 30
0.0
 10
9.2045057224
 20
7.2472049361
 30
0.0
 10
9.2046007614
 20
7.2469482061
 30
0.0
 10
9.2046969289
 20
7.2466019689
 30
0.0
 10
9.2048794565
 20
7.2459978852
 30
0.0
 10
9.2051327683
 20
7.2451339509
 30
0.0
 10
9.2054399278
 20
7.2440976397
 30
0.0
 10
9.2058483612
 20
7.2427157482
 30
0.0
 10
9.206359284
 20
7.2409884328
 30
0.0
 10
9.2071765474
 20
7.2382247009
 30
0.0
 10
9.2081981998
 20
7.2347700453
 30
0.0
 10
9.2094241514
 20
7.2306244546
 30
0.0
 10
9.2106501113
 20
7.226478865
 30
0.0
 10
9.2122847216
 20
7.2209514119
 30
0.0
 10
9.2143279853
 20
7.2140420954
 30
0.0
 10
9.2163712496
 20
7.2071327793
 30
0.0
 10
9.218005859
 20
7.2016053257
 30
0.0
 10
9.2192318218
 20
7.1974597375
 30
0.0
 10
9.2204577624
 20
7.1933141416
 30
0.0
 10
9.2214794489
 20
7.1898595022
 30
0.0
 10
9.2222966427
 20
7.1870957373
 30
0.0
 10
9.2228077427
 20
7.1853685056
 30
0.0
 10
9.2232158123
 20
7.1839864424
 30
0.0
 10
9.2235240835
 20
7.1829506558
 30
0.0
 10
9.2237739169
 20
7.1820850802
 30
0.0
 10
9.2239896165
 20
7.1813980475
 30
0.0
 10
9.2241081282
 20
7.1808679416
 30
0.0
 10
9.2243917752
 20
7.1803944474
 30
0.0
 10
9.2247122874
 20
7.1797433465
 30
0.0
 10
9.2251327186
 20
7.1789362553
 30
0.0
 10
9.2256287649
 20
7.1779648417
 30
0.0
 10
9.2262931188
 20
7.1766706379
 30
0.0
 10
9.227122548
 20
7.1750525358
 30
0.0
 10
9.228450201
 20
7.1724637666
 30
0.0
 10
9.230109573
 20
7.1692277385
 30
0.0
 10
9.2321009026
 20
7.1653445333
 30
0.0
 10
9.2340922099
 20
7.1614613205
 30
0.0
 10
9.2367472942
 20
7.1562837061
 30
0.0
 10
9.2400661469
 20
7.1498116872
 30
0.0
 10
9.2433850002
 20
7.1433396685
 30
0.0
 10
9.2460400834
 20
7.1381620538
 30
0.0
 10
9.2480313939
 20
7.1342788418
 30
0.0
 10
9.250022712
 20
7.1303956335
 30
0.0
 10
9.2516821198
 20
7.1271596152
 30
0.0
 10
9.2530096996
 20
7.124570826
 30
0.0
 10
9.2538393152
 20
7.1229527749
 30
0.0
 10
9.2545032865
 20
7.1216584665
 30
0.0
 10
9.2550005015
 20
7.1206873726
 30
0.0
 10
9.2554172762
 20
7.119879281
 30
0.0
 10
9.2557042518
 20
7.1193113535
 30
0.0
 10
9.2558756807
 20
7.1189903576
 30
0.0
 10
9.2559832858
 20
7.1187396549
 30
0.0
 10
9.2561710357
 20
7.1185270086
 30
0.0
 10
9.2563934134
 20
7.1182302057
 30
0.0
 10
9.2567955994
 20
7.1177169856
 30
0.0
 10
9.2573633412
 20
7.1169805804
 30
0.0
 10
9.2580475461
 20
7.1160982782
 30
0.0
 10
9.2589588012
 20
7.1149213918
 30
0.0
 10
9.2600982187
 20
7.1134504494
 30
0.0
 10
9.2619210919
 20
7.1110968491
 30
0.0
 10
9.2641997503
 20
7.1081548804
 30
0.0
 10
9.2669341116
 20
7.1046245043
 30
0.0
 10
9.2696684807
 20
7.1010941319
 30
0.0
 10
9.2733143033
 20
7.0963869674
 30
0.0
 10
9.2778715826
 20
7.0905030123
 30
0.0
 10
9.2824288614
 20
7.0846190568
 30
0.0
 10
9.286074685
 20
7.079911893
 30
0.0
 10
9.2888090512
 20
7.0763815185
 30
0.0
 10
9.2915434231
 20
7.0728511503
 30
0.0
 10
9.2938220488
 20
7.0699091571
 30
0.0
 10
9.2956449885
 20
7.0675556066
 30
0.0
 10
9.2967842368
 20
7.0660845374
 30
0.0
 10
9.2976958393
 20
7.0649079113
 30
0.0
 10
9.2983789829
 20
7.0640248141
 30
0.0
 10
9.2989500451
 20
7.0632908963
 30
0.0
 10
9.2993463036
 20
7.0627732356
 30
0.0
 10
9.2995781787
 20
7.0624835476
 30
0.0
 10
9.2997367559
 20
7.0622490469
 30
0.0
 10
9.2999539284
 20
7.0620804255
 30
0.0
 10
9.3002230531
 20
7.0618326176
 30
0.0
 10
9.3007035441
 20
7.0614096602
 30
0.0
 10
9.3013849812
 20
7.0607998379
 30
0.0
 10
9.3022048367
 20
7.060070447
 30
0.0
 10
9.303297233
 20
7.0590970889
 30
0.0
 10
9.3046629833
 20
7.0578806779
 30
0.0
 10
9.3068480413
 20
7.0559342602
 30
0.0
 10
9.3095794126
 20
7.053501293
 30
0.0
 10
9.3128570373
 20
7.0505817087
 30
0.0
 10
9.3161346676
 20
7.0476621308
 30
0.0
 10
9.3205048394
 20
7.043769358
 30
0.0
 10
9.3259675546
 20
7.0389033926
 30
0.0
 10
9.3314302702
 20
7.0340374278
 30
0.0
 10
9.3358004415
 20
7.0301446541
 30
0.0
 10
9.3390780734
 20
7.0272250789
 30
0.0
 10
9.3423556919
 20
7.0243054845
 30
0.0
 10
9.3450870825
 20
7.0218725487
 30
0.0
 10
9.3472721014
 20
7.0199260669
 30
0.0
 10
9.3486379511
 20
7.018709819
 30
0.0
 10
9.3497301433
 20
7.0177361261
 30
0.0
 10
9.3505506226
 20
7.0170077583
 30
0.0
 10
9.3512301078
 20
7.0163947348
 30
0.0
 10
9.3517832225
 20
7.015917886
 30
0.0
 10
9.3521720274
 20
7.0155231697
 30
0.0
 10
9.3526601936
 20
7.0152699869
 30
0.0
 10
9.3532763736
 20
7.0148829702
 30
0.0
 10
9.3540585069
 20
7.0144161619
 30
0.0
 10
9.3549919697
 20
7.0138487314
 30
0.0
 10
9.3562383671
 20
7.0130946934
 30
0.0
 10
9.3577957542
 20
7.0121512775
 30
0.0
 10
9.3602879144
 20
7.0106422974
 30
0.0
 10
9.3634029977
 20
7.0087559058
 30
0.0
 10
9.3671411477
 20
7.0064923073
 30
0.0
 10
9.3708792843
 20
7.0042286896
 30
0.0
 10
9.3758634712
 20
7.0012105394
 30
0.0
 10
9.3820937031
 20
6.9974378492
 30
0.0
 10
9.3883239359
 20
6.9936651607
 30
0.0
 10
9.3933081212
 20
6.9906470077
 30
0.0
 10
9.3970462626
 20
6.9883833986
 30
0.0
 10
9.4007843947
 20
6.9861197679
 30
0.0
 10
9.4038995337
 20
6.9842334763
 30
0.0
 10
9.4063915803
 20
6.9827242922
 30
0.0
 10
9.4079492565
 20
6.9817813954
 30
0.0
 10
9.4091950605
 20
6.981026292
 30
0.0
 10
9.410130336
 20
6.9804621164
 30
0.0
 10
9.4109067979
 20
6.9799851244
 30
0.0
 10
9.4115345485
 20
6.9796188843
 30
0.0
 10
9.4119873789
 20
6.979302251
 30
0.0
 10
9.4125088491
 20
6.9791457542
 30
0.0
 10
9.4131801659
 20
6.978881154
 30
0.0
 10
9.4140275383
 20
6.9785695957
 30
0.0
 10
9.415040864
 20
6.978187511
 30
0.0
 10
9.4163931948
 20
6.977680934
 30
0.0
 10
9.4180831873
 20
6.9770467303
 30
0.0
 10
9.4207874105
 20
6.9760325534
 30
0.0
 10
9.4241676087
 20
6.9747646439
 30
0.0
 10
9.4282238812
 20
6.9732432333
 30
0.0
 10
9.4322801445
 20
6.9717218011
 30
0.0
 10
9.4376884988
 20
6.9696932323
 30
0.0
 10
9.4444489405
 20
6.9671575189
 30
0.0
 10
9.4512093825
 20
6.964621806
 30
0.0
 10
9.4566177363
 20
6.9625932363
 30
0.0
 10
9.460674001
 20
6.9610718069
 30
0.0
 10
9.4647302682
 20
6.9595503857
 30
0.0
 10
9.4681104831
 20
6.9582825092
 30
0.0
 10
9.4708146723
 20
6.9572682652
 30
0.0
 10
9.4725047513
 20
6.9566342324
 30
0.0
 10
9.4738569044
 20
6.9561273045
 30
0.0
 10
9.4748707731
 20
6.9557462919
 30
0.0
 10
9.4757164465
 20
6.9554313793
 30
0.0
 10
9.4763068816
 20
6.9552058421
 30
0.0
 10
9.4766466719
 20
6.9550849243
 30
0.0
 10
9.4768947571
 20
6.954971811
 30
0.0
 10
9.4771686732
 20
6.9549444173
 30
0.0
 10
9.4775248845
 20
6.9548779924
 30
0.0
 10
9.4781524523
 20
6.9547756798
 30
0.0
 10
9.4790467829
 20
6.9546222357
 30
0.0
 10
9.4801209191
 20
6.9544412202
 30
0.0
 10
9.4815527726
 20
6.9541987774
 30
0.0
 10
9.4833427018
 20
6.9538960966
 30
0.0
 10
9.4862065258
 20
6.9534115991
 30
0.0
 10
9.4897863272
 20
6.9528060486
 30
0.0
 10
9.4940820798
 20
6.9520793575
 30
0.0
 10
9.4983778348
 20
6.9513526745
 30
0.0
 10
9.5041055072
 20
6.950383761
 30
0.0
 10
9.5112650981
 20
6.9491726201
 30
0.0
 10
9.5198566071
 20
6.9477192506
 30
0.0
 10
9.5313119523
 20
6.9457814248
 30
0.0
 10
9.5399034613
 20
6.9443280554
 30
0.0
 10
9.5456311339
 20
6.9433591425
 30
0.0
  0
SPLINE
  5
35E
100
AcDbEntity
  8
0
100
AcDbSpline
 62
4
  6
CONTINUOUS
 70
0
 71
3
 72
397
 73
393
 74
0
 42
0.0000001
 43
0.0000001
 44
0.0000000001
 40
0.0
 40
0.0
 40
0.0
 40
0.0
 40
0.015625
 40
0.0234375
 40
0.03125
 40
0.0390625
 40
0.04296875
 40
0.046875
 40
0.05078125
 40
0.0546875
 40
0.056640625
 40
0.05859375
 40
0.0595703125
 40
0.060546875
 40
0.0615234375
 40
0.0620117188
 40
0.0622558594
 40
0.0625
 40
0.0627441406
 40
0.0629882812
 40
0.0634765625
 40
0.064453125
 40
0.0654296875
 40
0.06640625
 40
0.068359375
 40
0.0703125
 40
0.07421875
 40
0.078125
 40
0.08203125
 40
0.0859375
 40
0.09375
 40
0.1015625
 40
0.10546875
 40
0.109375
 40
0.11328125
 40
0.1171875
 40
0.119140625
 40
0.12109375
 40
0.1220703125
 40
0.123046875
 40
0.1240234375
 40
0.1245117188
 40
0.1247558594
 40
0.125
 40
0.1252441406
 40
0.1254882812
 40
0.1259765625
 40
0.126953125
 40
0.1279296875
 40
0.12890625
 40
0.130859375
 40
0.1328125
 40
0.13671875
 40
0.140625
 40
0.14453125
 40
0.1484375
 40
0.15625
 40
0.1640625
 40
0.16796875
 40
0.171875
 40
0.17578125
 40
0.1796875
 40
0.181640625
 40
0.18359375
 40
0.1845703125
 40
0.185546875
 40
0.1865234375
 40
0.1870117188
 40
0.1872558594
 40
0.1875
 40
0.1877441406
 40
0.1879882812
 40
0.1884765625
 40
0.189453125
 40
0.1904296875
 40
0.19140625
 40
0.193359375
 40
0.1953125
 40
0.19921875
 40
0.203125
 40
0.20703125
 40
0.2109375
 40
0.21875
 40
0.2265625
 40
0.23046875
 40
0.234375
 40
0.23828125
 40
0.2421875
 40
0.244140625
 40
0.24609375
 40
0.2470703125
 40
0.248046875
 40
0.2490234375
 40
0.2495117188
 40
0.2497558594
 40
0.25
 40
0.2502441406
 40
0.2504882812
 40
0.2509765625
 40
0.251953125
 40
0.2529296875
 40
0.25390625
 40
0.255859375
 40
0.2578125
 40
0.26171875
 40
0.265625
 40
0.26953125
 40
0.2734375
 40
0.28125
 40
0.2890625
 40
0.29296875
 40
0.296875
 40
0.30078125
 40
0.3046875
 40
0.306640625
 40
0.30859375
 40
0.3095703125
 40
0.310546875
 40
0.3115234375
 40
0.3120117188
 40
0.3122558594
 40
0.3125
 40
0.3127441406
 40
0.3129882812
 40
0.3134765625
 40
0.314453125
 40
0.3154296875
 40
0.31640625
 40
0.318359375
 40
0.3203125
 40
0.32421875
 40
0.328125
 40
0.33203125
 40
0.3359375
 40
0.34375
 40
0.3515625
 40
0.35546875
 40
0.359375
 40
0.36328125
 40
0.3671875
 40
0.369140625
 40
0.37109375
 40
0.3720703125
 40
0.373046875
 40
0.3740234375
 40
0.3745117188
 40
0.3747558594
 40
0.375
 40
0.3752441406
 40
0.3754882812
 40
0.3759765625
 40
0.376953125
 40
0.3779296875
 40
0.37890625
 40
0.380859375
 40
0.3828125
 40
0.38671875
 40
0.390625
 40
0.39453125
 40
0.3984375
 40
0.40625
 40
0.4140625
 40
0.41796875
 40
0.421875
 40
0.42578125
 40
0.4296875
 40
0.431640625
 40
0.43359375
 40
0.4345703125
 40
0.435546875
 40
0.4365234375
 40
0.4370117188
 40
0.4372558594
 40
0.4375
 40
0.4377441406
 40
0.4379882812
 40
0.4384765625
 40
0.439453125
 40
0.4404296875
 40
0.44140625
 40
0.443359375
 40
0.4453125
 40
0.44921875
 40
0.453125
 40
0.45703125
 40
0.4609375
 40
0.46875
 40
0.4765625
 40
0.48046875
 40
0.484375
 40
0.48828125
 40
0.4921875
 40
0.494140625
 40
0.49609375
 40
0.4970703125
 40
0.498046875
 40
0.4990234375
 40
0.4995117188
 40
0.4997558594
 40
0.5
 40
0.5002441406
 40
0.5004882812
 40
0.5009765625
 40
0.501953125
 40
0.5029296875
 40
0.50390625
 40
0.505859375
 40
0.5078125
 40
0.51171875
 40
0.515625
 40
0.51953125
 40
0.5234375
 40
0.53125
 40
0.5390625
 40
0.54296875
 40
0.546875
 40
0.55078125
 40
0.5546875
 40
0.556640625
 40
0.55859375
 40
0.5595703125
 40
0.560546875
 40
0.5615234375
 40
0.5620117188
 40
0.5622558594
 40
0.5625
 40
0.5627441406
 40
0.5629882812
 40
0.5634765625
 40
0.564453125
 40
0.5654296875
 40
0.56640625
 40
0.568359375
 40
0.5703125
 40
0.57421875
 40
0.578125
 40
0.58203125
 40
0.5859375
 40
0.59375
 40
0.6015625
 40
0.60546875
 40
0.609375
 40
0.61328125
 40
0.6171875
 40
0.619140625
 40
0.62109375
 40
0.6220703125
 40
0.623046875
 40
0.6240234375
 40
0.6245117188
 40
0.625
 40
0.6254882812
 40
0.6259765625
 40
0.626953125
 40
0.6279296875
 40
0.62890625
 40
0.630859375
 40
0.6328125
 40
0.63671875
 40
0.640625
 40
0.64453125
 40
0.6484375
 40
0.65625
 40
0.6640625
 40
0.66796875
 40
0.671875
 40
0.67578125
 40
0.6796875
 40
0.681640625
 40
0.68359375
 40
0.6845703125
 40
0.685546875
 40
0.6865234375
 40
0.6870117188
 40
0.6872558594
 40
0.6875
 40
0.6877441406
 40
0.6879882812
 40
0.6884765625
 40
0.689453125
 40
0.6904296875
 40
0.69140625
 40
0.693359375
 40
0.6953125
 40
0.69921875
 40
0.703125
 40
0.70703125
 40
0.7109375
 40
0.71875
 40
0.7265625
 40
0.73046875
 40
0.734375
 40
0.73828125
 40
0.7421875
 40
0.744140625
 40
0.74609375
 40
0.7470703125
 40
0.748046875
 40
0.7490234375
 40
0.7495117188
 40
0.7497558594
 40
0.75
 40
0.7502441406
 40
0.7504882812
 40
0.7509765625
 40
0.751953125
 40
0.7529296875
 40
0.75390625
 40
0.755859375
 40
0.7578125
 40
0.76171875
 40
0.765625
 40
0.76953125
 40
0.7734375
 40
0.78125
 40
0.7890625
 40
0.79296875
 40
0.796875
 40
0.80078125
 40
0.8046875
 40
0.806640625
 40
0.80859375
 40
0.8095703125
 40
0.810546875
 40
0.8115234375
 40
0.8120117188
 40
0.8125
 40
0.8129882812
 40
0.8134765625
 40
0.814453125
 40
0.8154296875
 40
0.81640625
 40
0.818359375
 40
0.8203125
 40
0.82421875
 40
0.828125
 40
0.83203125
 40
0.8359375
 40
0.84375
 40
0.8515625
 40
0.85546875
 40
0.859375
 40
0.86328125
 40
0.8671875
 40
0.869140625
 40
0.87109375
 40
0.8720703125
 40
0.873046875
 40
0.8740234375
 40
0.8745117188
 40
0.875
 40
0.8754882812
 40
0.8759765625
 40
0.876953125
 40
0.8779296875
 40
0.87890625
 40
0.880859375
 40
0.8828125
 40
0.88671875
 40
0.890625
 40
0.89453125
 40
0.8984375
 40
0.90625
 40
0.9140625
 40
0.91796875
 40
0.921875
 40
0.92578125
 40
0.9296875
 40
0.931640625
 40
0.93359375
 40
0.9345703125
 40
0.935546875
 40
0.9365234375
 40
0.9370117188
 40
0.9372558594
 40
0.9375
 40
0.9377441406
 40
0.9379882812
 40
0.9384765625
 40
0.939453125
 40
0.9404296875
 40
0.94140625
 40
0.943359375
 40
0.9453125
 40
0.94921875
 40
0.953125
 40
0.95703125
 40
0.9609375
 40
0.96875
 40
0.9765625
 40
0.984375
 40
1.0
 40
1.0
 40
1.0
 40
1.0
 10
9.5456311035
 20
6.9433591446
 30
0.0
 10
9.551259583
 20
6.9435206855
 30
0.0
 10
9.5597023023
 20
6.9437629968
 30
0.0
 10
9.5709592613
 20
6.9440860785
 30
0.0
 10
9.5794019805
 20
6.9443283898
 30
0.0
 10
9.5864375799
 20
6.9445303156
 30
0.0
 10
9.5920660593
 20
6.9446918571
 30
0.0
 10
9.5962874193
 20
6.9448130109
 30
0.0
 10
9.6005087776
 20
6.9449341733
 30
0.0
 10
9.6040265813
 20
6.9450351155
 30
0.0
 10
9.6068408128
 20
6.9451159284
 30
0.0
 10
9.6085997338
 20
6.9451663017
 30
0.0
 10
9.6100068102
 20
6.9452069092
 30
0.0
 10
9.6110622828
 20
6.9452365189
 30
0.0
 10
9.6119413176
 20
6.9452638846
 30
0.0
 10
9.6125576735
 20
6.9452777598
 30
0.0
 10
9.6129082663
 20
6.945293934
 30
0.0
 10
9.6131757479
 20
6.9452828368
 30
0.0
 10
9.6134258869
 20
6.9453605286
 30
0.0
 10
9.6137654548
 20
6.945433147
 30
0.0
 10
9.6143568803
 20
6.9455746591
 30
0.0
 10
9.6152032472
 20
6.9457692751
 30
0.0
 10
9.6162182569
 20
6.9460060435
 30
0.0
 10
9.6175718235
 20
6.9463206067
 30
0.0
 10
9.6192637062
 20
6.946714197
 30
0.0
 10
9.6219707607
 20
6.9473437256
 30
0.0
 10
9.6253545645
 20
6.9481307104
 30
0.0
 10
9.6294151351
 20
6.9490750604
 30
0.0
 10
9.6334757041
 20
6.9500194189
 30
0.0
 10
9.6388897967
 20
6.9512785606
 30
0.0
 10
9.6456574122
 20
6.9528524889
 30
0.0
 10
9.6524250279
 20
6.9544264164
 30
0.0
 10
9.6578391201
 20
6.9556855593
 30
0.0
 10
9.6618996901
 20
6.9566299143
 30
0.0
 10
9.6659602569
 20
6.9575742774
 30
0.0
 10
9.6693440727
 20
6.9583612214
 30
0.0
 10
9.6720511026
 20
6.9589908332
 30
0.0
 10
9.673743048
 20
6.9593842116
 30
0.0
 10
9.6750964859
 20
6.9596992098
 30
0.0
 10
9.6761118885
 20
6.9599346495
 30
0.0
 10
9.6769570262
 20
6.9601334226
 30
0.0
 10
9.6775506462
 20
6.9602675136
 30
0.0
 10
9.6778866979
 20
6.9603520224
 30
0.0
 10
9.6781476377
 20
6.960393191
 30
0.0
 10
9.678374553
 20
6.9605192689
 30
0.0
 10
9.6786889749
 20
6.9606577555
 30
0.0
 10
9.6792336836
 20
6.9609139063
 30
0.0
 10
9.6800147298
 20
6.9612726216
 30
0.0
 10
9.6809507479
 20
6.961706168
 30
0.0
 10
9.6821992041
 20
6.9622831513
 30
0.0
 10
9.6837596265
 20
6.9630047496
 30
0.0
 10
9.686256385
 20
6.9641591006
 30
0.0
 10
9.6893773047
 20
6.9656021102
 30
0.0
 10
9.6931224205
 20
6.9673336914
 30
0.0
 10
9.696867533
 20
6.9690652806
 30
0.0
 10
9.7018610176
 20
6.9713740634
 30
0.0
 10
9.7081028728
 20
6.974260043
 30
0.0
 10
9.7143447284
 20
6.9771460219
 30
0.0
 10
9.7193382124
 20
6.9794548059
 30
0.0
 10
9.7230833266
 20
6.9811863918
 30
0.0
 10
9.7268284365
 20
6.9829179856
 30
0.0
 10
9.7299493745
 20
6.9843609557
 30
0.0
 10
9.7324460957
 20
6.9855153872
 30
0.0
 10
9.7340066128
 20
6.9862367806
 30
0.0
 10
9.7352548747
 20
6.9868141847
 30
0.0
 10
9.7361914866
 20
6.9872464454
 30
0.0
 10
9.7369706747
 20
6.9876091833
 30
0.0
 10
9.7375187004
 20
6.9878581532
 30
0.0
 10
9.7378278076
 20
6.9880081454
 30
0.0
 10
9.7380710479
 20
6.9880988817
 30
0.0
 10
9.7382706737
 20
6.9882727875
 30
0.0
 10
9.7385520546
 20
6.9884756514
 30
0.0
 10
9.7390373831
 20
6.9888441797
 30
0.0
 10
9.7397344153
 20
6.9893635822
 30
0.0
 10
9.7405692677
 20
6.9899898899
 30
0.0
 10
9.7416829583
 20
6.9908239103
 30
0.0
 10
9.7430748818
 20
6.9918667976
 30
0.0
 10
9.7453020655
 20
6.9935352151
 30
0.0
 10
9.7480860087
 20
6.9956208063
 30
0.0
 10
9.7514267561
 20
6.998123486
 30
0.0
 10
9.7547674994
 20
7.0006261737
 30
0.0
 10
9.7592218253
 20
7.0039630878
 30
0.0
 10
9.764789732
 20
7.0081342315
 30
0.0
 10
9.7703576392
 20
7.0123053746
 30
0.0
 10
9.7748119642
 20
7.0156422897
 30
0.0
 10
9.7781527098
 20
7.0181449744
 30
0.0
 10
9.7814934487
 20
7.0206476652
 30
0.0
 10
9.7842774186
 20
7.022733222
 30
0.0
 10
9.7865045478
 20
7.0244017097
 30
0.0
 10
9.7878966098
 20
7.0254444182
 30
0.0
 10
9.7890100161
 20
7.0262788057
 30
0.0
 10
9.7898457372
 20
7.0269039919
 30
0.0
 10
9.7905400516
 20
7.0274269032
 30
0.0
 10
9.7910302317
 20
7.0277891677
 30
0.0
 10
9.7913038392
 20
7.0280020679
 30
0.0
 10
9.7915273424
 20
7.0281451452
 30
0.0
 10
9.7916809029
 20
7.0283516683
 30
0.0
 10
9.791910047
 20
7.0286049018
 30
0.0
 10
9.7922996822
 20
7.0290583714
 30
0.0
 10
9.7928622467
 20
7.0297007945
 30
0.0
 10
9.7935347804
 20
7.0304740096
 30
0.0
 10
9.7944323805
 20
7.0315041572
 30
0.0
 10
9.7955540764
 20
7.0327921176
 30
0.0
 10
9.7973489599
 20
7.0348527
 30
0.0
 10
9.7995925058
 20
7.0374284809
 30
0.0
 10
9.802284786
 20
7.0405193953
 30
0.0
 10
9.8049770595
 20
7.0436103158
 30
0.0
 10
9.8085667599
 20
7.047731541
 30
0.0
 10
9.8130538844
 20
7.0528830733
 30
0.0
 10
9.8175410096
 20
7.0580346051
 30
0.0
 10
9.821130709
 20
7.0621558311
 30
0.0
 10
9.8238229854
 20
7.0652467492
 30
0.0
 10
9.8265152547
 20
7.0683376726
 30
0.0
 10
9.8287588346
 20
7.0709134257
 30
0.0
 10
9.8305536489
 20
7.0729740648
 30
0.0
 10
9.8316755206
 20
7.0742618809
 30
0.0
 10
9.8325727598
 20
7.0752923246
 30
0.0
 10
9.8332463961
 20
7.0760646351
 30
0.0
 10
9.833805511
 20
7.0767098885
 30
0.0
 10
9.8342013044
 20
7.0771583056
 30
0.0
 10
9.8344205816
 20
7.0774196345
 30
0.0
 10
9.8346044498
 20
7.0776012911
 30
0.0
 10
9.8347141221
 20
7.077837763
 30
0.0
 10
9.8348862322
 20
7.0781339386
 30
0.0
 10
9.8351753666
 20
7.0786611545
 30
0.0
 10
9.83559472
 20
7.0794096626
 30
0.0
 10
9.8360952456
 20
7.0803098658
 30
0.0
 10
9.8367635556
 20
7.0815094405
 30
0.0
 10
9.8375986205
 20
7.0830091472
 30
0.0
 10
9.8389349046
 20
7.0854085448
 30
0.0
 10
9.8406051978
 20
7.0884078374
 30
0.0
 10
9.8426095762
 20
7.092006969
 30
0.0
 10
9.8446139475
 20
7.0956061058
 30
0.0
 10
9.847286445
 20
7.1004049531
 30
0.0
 10
9.850627066
 20
7.1064035129
 30
0.0
 10
9.8539676877
 20
7.1124020722
 30
0.0
 10
9.8566401841
 20
7.1172009201
 30
0.0
 10
9.8586445586
 20
7.120800055
 30
0.0
 10
9.8606489252
 20
7.1243991938
 30
0.0
 10
9.8623192552
 20
7.1273984641
 30
0.0
 10
9.8636554642
 20
7.1297979071
 30
0.0
 10
9.8644907201
 20
7.1312974982
 30
0.0
 10
9.865158638
 20
7.1324973103
 30
0.0
 10
9.8656603617
 20
7.1333967881
 30
0.0
 10
9.8660759666
 20
7.134147566
 30
0.0
 10
9.8663717927
 20
7.1346707298
 30
0.0
 10
9.866533181
 20
7.1349733979
 30
0.0
 10
9.8666757868
 20
7.1351899271
 30
0.0
 10
9.8667359621
 20
7.1354464853
 30
0.0
 10
9.8668449485
 20
7.1357746003
 30
0.0
 10
9.8670222784
 20
7.1363553071
 30
0.0
 10
9.8672826104
 20
7.1371814871
 30
0.0
 10
9.8675920111
 20
7.1381743588
 30
0.0
 10
9.8680055924
 20
7.1394976794
 30
0.0
 10
9.8685222105
 20
7.1411520041
 30
0.0
 10
9.8693489998
 20
7.1437988265
 30
0.0
 10
9.8703824177
 20
7.1471073878
 30
0.0
 10
9.8716225487
 20
7.151077647
 30
0.0
 10
9.8728626717
 20
7.1550479101
 30
0.0
 10
9.8745161719
 20
7.1603415929
 30
0.0
 10
9.8765830461
 20
7.1669586968
 30
0.0
 10
9.878649921
 20
7.1735758004
 30
0.0
 10
9.8803034201
 20
7.1788694837
 30
0.0
 10
9.8815435466
 20
7.1828397453
 30
0.0
 10
9.8827836647
 20
7.18681001
 30
0.0
 10
9.8838171225
 20
7.1901185544
 30
0.0
 10
9.8846438304
 20
7.1927654112
 30
0.0
 10
9.8851606558
 20
7.1944196482
 30
0.0
 10
9.8855738116
 20
7.1957431489
 30
0.0
 10
9.8858845121
 20
7.1967354704
 30
0.0
 10
9.8861407771
 20
7.1975633718
 30
0.0
 10
9.8863253674
 20
7.1981410055
 30
0.0
 10
9.8864227207
 20
7.1984740444
 30
0.0
 10
9.8865186292
 20
7.1987154783
 30
0.0
 10
9.8865270268
 20
7.1989888118
 30
0.0
 10
9.8865687483
 20
7.1993421296
 30
0.0
 10
9.886627539
 20
7.19996562
 30
0.0
 10
9.8867189611
 20
7.2008536101
 30
0.0
 10
9.886825485
 20
7.2019203584
 30
0.0
 10
9.8869686284
 20
7.2033422842
 30
0.0
 10
9.8871471771
 20
7.2051198302
 30
0.0
 10
9.8874330678
 20
7.2079638263
 30
0.0
 10
9.8877903582
 20
7.211518848
 30
0.0
 10
9.8882191379
 20
7.2157848627
 30
0.0
 10
9.8886479093
 20
7.2200508804
 30
0.0
 10
9.8892196073
 20
7.2257389029
 30
0.0
 10
9.8899342288
 20
7.2328489314
 30
0.0
 10
9.890648851
 20
7.2399589599
 30
0.0
 10
9.8912205479
 20
7.2456469826
 30
0.0
 10
9.8916493228
 20
7.2499129997
 30
0.0
 10
9.8920780891
 20
7.2541790166
 30
0.0
 10
9.8924354214
 20
7.2577340313
 30
0.0
 10
9.8927212265
 20
7.2605780418
 30
0.0
 10
9.8928999929
 20
7.262355551
 30
0.0
 10
9.8930426897
 20
7.2637775524
 30
0.0
 10
9.8931505782
 20
7.2648440698
 30
0.0
 10
9.8932377307
 20
7.2657327822
 30
0.0
 10
9.8933041433
 20
7.2663549832
 30
0.0
 10
9.8933336526
 20
7.2667103668
 30
0.0
 10
9.8933795622
 20
7.2669773547
 30
0.0
 10
9.8933345816
 20
7.2672426219
 30
0.0
 10
9.8933063111
 20
7.2675969117
 30
0.0
 10
9.8932420664
 20
7.2682166392
 30
0.0
 10
9.8931580108
 20
7.2691021105
 30
0.0
 10
9.8930538386
 20
7.2701646134
 30
0.0
 10
9.8929160968
 20
7.2715813058
 30
0.0
 10
9.8927435243
 20
7.2733521637
 30
0.0
 10
9.8924676293
 20
7.2761855407
 30
0.0
 10
9.8921226846
 20
7.2797272605
 30
0.0
 10
9.8917087836
 20
7.2839773249
 30
0.0
 10
9.8912948738
 20
7.2882273891
 30
0.0
 10
9.8907429972
 20
7.2938941414
 30
0.0
 10
9.8900531502
 20
7.3009775818
 30
0.0
 10
9.8893633041
 20
7.3080610222
 30
0.0
 10
9.8888114262
 20
7.3137277744
 30
0.0
 10
9.8883975201
 20
7.3179778389
 30
0.0
 10
9.8879836055
 20
7.3222279023
 30
0.0
 10
9.8876387028
 20
7.3257696251
 30
0.0
 10
9.8873627222
 20
7.3286029959
 30
0.0
 10
9.8871903674
 20
7.3303738697
 30
0.0
 10
9.8870521788
 20
7.3317905296
 30
0.0
 10
9.8869493718
 20
7.3328531318
 30
0.0
 10
9.8868610448
 20
7.3337382922
 30
0.0
 10
9.8868044253
 20
7.3343585747
 30
0.0
 10
9.8867639373
 20
7.3347119753
 30
0.0
 10
9.8867564847
 20
7.3349799737
 30
0.0
 10
9.8866614457
 20
7.3352367037
 30
0.0
 10
9.8865652781
 20
7.3355829409
 30
0.0
 10
9.8863827506
 20
7.3361870246
 30
0.0
 10
9.8861294388
 20
7.3370509589
 30
0.0
 10
9.8858222793
 20
7.3380872701
 30
0.0
 10
9.8854138458
 20
7.3394691616
 30
0.0
 10
9.8849029231
 20
7.341196477
 30
0.0
 10
9.8840856596
 20
7.3439602089
 30
0.0
 10
9.8830640072
 20
7.3474148645
 30
0.0
 10
9.8818380557
 20
7.3515604551
 30
0.0
 10
9.8806120958
 20
7.3557060448
 30
0.0
 10
9.8789774854
 20
7.3612334979
 30
0.0
 10
9.8769342218
 20
7.3681428144
 30
0.0
 10
9.8748909575
 20
7.3750521305
 30
0.0
 10
9.8732563481
 20
7.3805795841
 30
0.0
 10
9.8720303853
 20
7.3847251723
 30
0.0
 10
9.8708044447
 20
7.3888707682
 30
0.0
 10
9.8697827581
 20
7.3923254076
 30
0.0
 10
9.8689655643
 20
7.3950891725
 30
0.0
 10
9.8684544643
 20
7.3968164042
 30
0.0
 10
9.8680463948
 20
7.3981984674
 30
0.0
 10
9.8677381235
 20
7.399234254
 30
0.0
 10
9.8674882902
 20
7.4000998296
 30
0.0
 10
9.8672725906
 20
7.4007868623
 30
0.0
 10
9.8671540789
 20
7.4013169682
 30
0.0
 10
9.8668704318
 20
7.4017904624
 30
0.0
 10
9.8665499197
 20
7.4024415633
 30
0.0
 10
9.8661294884
 20
7.4032486545
 30
0.0
 10
9.8656334421
 20
7.4042200681
 30
0.0
 10
9.8649690883
 20
7.4055142719
 30
0.0
 10
9.8641396591
 20
7.407132374
 30
0.0
 10
9.8628120061
 20
7.4097211432
 30
0.0
 10
9.8611526341
 20
7.4129571713
 30
0.0
 10
9.8591613045
 20
7.4168403765
 30
0.0
 10
9.8571699971
 20
7.4207235893
 30
0.0
 10
9.8545149129
 20
7.4259012037
 30
0.0
 10
9.8511960602
 20
7.4323732226
 30
0.0
 10
9.8478772068
 20
7.4388452413
 30
0.0
 10
9.8452221236
 20
7.444022856
 30
0.0
 10
9.8432308132
 20
7.447906068
 30
0.0
 10
9.8412394951
 20
7.4517892763
 30
0.0
 10
9.8395800872
 20
7.4550252946
 30
0.0
 10
9.8382525075
 20
7.4576140838
 30
0.0
 10
9.8374228919
 20
7.4592321349
 30
0.0
 10
9.8367589206
 20
7.4605264433
 30
0.0
 10
9.8362617056
 20
7.4614975372
 30
0.0
 10
9.8358449308
 20
7.4623056288
 30
0.0
 10
9.8355579552
 20
7.4628735563
 30
0.0
 10
9.8353865264
 20
7.4631945521
 30
0.0
 10
9.8352789212
 20
7.4634452549
 30
0.0
 10
9.8350911714
 20
7.4636579012
 30
0.0
 10
9.8348687937
 20
7.4639547041
 30
0.0
 10
9.8344666077
 20
7.4644679242
 30
0.0
 10
9.8338988659
 20
7.4652043294
 30
0.0
 10
9.833214661
 20
7.4660866316
 30
0.0
 10
9.8323034058
 20
7.467263518
 30
0.0
 10
9.8311639883
 20
7.4687344604
 30
0.0
 10
9.8293411151
 20
7.4710880607
 30
0.0
 10
9.8270624568
 20
7.4740300294
 30
0.0
 10
9.8243280954
 20
7.4775604055
 30
0.0
 10
9.8215937264
 20
7.4810907779
 30
0.0
 10
9.8179479037
 20
7.4857979424
 30
0.0
 10
9.8133906244
 20
7.4916818975
 30
0.0
 10
9.8088333457
 20
7.497565853
 30
0.0
 10
9.8051875221
 20
7.5022730168
 30
0.0
 10
9.8024531558
 20
7.5058033913
 30
0.0
 10
9.799718784
 20
7.5093337595
 30
0.0
 10
9.7974401583
 20
7.5122757527
 30
0.0
 10
9.7956172186
 20
7.5146293032
 30
0.0
 10
9.7944779703
 20
7.5161003724
 30
0.0
 10
9.7935663678
 20
7.5172769985
 30
0.0
 10
9.7928832242
 20
7.5181600957
 30
0.0
 10
9.792312162
 20
7.5188940135
 30
0.0
 10
9.7919159034
 20
7.5194116742
 30
0.0
 10
9.7916840284
 20
7.5197013622
 30
0.0
 10
9.7915254512
 20
7.5199358629
 30
0.0
 10
9.7913082786
 20
7.5201044843
 30
0.0
 10
9.7910391539
 20
7.5203522922
 30
0.0
 10
9.790558663
 20
7.5207752496
 30
0.0
 10
9.7898772259
 20
7.5213850719
 30
0.0
 10
9.7890573704
 20
7.5221144628
 30
0.0
 10
9.7879649741
 20
7.5230878209
 30
0.0
 10
9.7865992238
 20
7.5243042319
 30
0.0
 10
9.7844141658
 20
7.5262506496
 30
0.0
 10
9.7816827944
 20
7.5286836168
 30
0.0
 10
9.7784051698
 20
7.5316032011
 30
0.0
 10
9.7751275395
 20
7.534522779
 30
0.0
 10
9.7707573677
 20
7.5384155518
 30
0.0
 10
9.7652946524
 20
7.5432815172
 30
0.0
 10
9.7598319368
 20
7.548147482
 30
0.0
 10
9.7554617656
 20
7.5520402557
 30
0.0
 10
9.7521841336
 20
7.5549598309
 30
0.0
 10
9.7489065151
 20
7.5578794253
 30
0.0
 10
9.7461751246
 20
7.5603123611
 30
0.0
 10
9.7439901057
 20
7.5622588429
 30
0.0
 10
9.7426242559
 20
7.5634750908
 30
0.0
 10
9.7415320638
 20
7.5644487837
 30
0.0
 10
9.7407115845
 20
7.5651771515
 30
0.0
 10
9.7400320993
 20
7.565790175
 30
0.0
 10
9.7394789845
 20
7.5662670238
 30
0.0
 10
9.7390901796
 20
7.5666617401
 30
0.0
 10
9.7386020135
 20
7.5669149229
 30
0.0
 10
9.7379858334
 20
7.5673019396
 30
0.0
 10
9.7372037002
 20
7.5677687479
 30
0.0
 10
9.7362702374
 20
7.5683361784
 30
0.0
 10
9.73502384
 20
7.5690902164
 30
0.0
 10
9.7334664528
 20
7.5700336323
 30
0.0
 10
9.7309742927
 20
7.5715426124
 30
0.0
 10
9.7278592094
 20
7.573429004
 30
0.0
 10
9.7241210594
 20
7.5756926025
 30
0.0
 10
9.7203829228
 20
7.5779562202
 30
0.0
 10
9.7153987359
 20
7.5809743704
 30
0.0
 10
9.709168504
 20
7.5847470606
 30
0.0
 10
9.7029382711
 20
7.5885197491
 30
0.0
 10
9.6979540859
 20
7.5915379021
 30
0.0
 10
9.6942159445
 20
7.5938015112
 30
0.0
 10
9.6904778123
 20
7.5960651419
 30
0.0
 10
9.6873626734
 20
7.5979514335
 30
0.0
 10
9.6848706268
 20
7.5994606176
 30
0.0
 10
9.6833129506
 20
7.6004035144
 30
0.0
 10
9.6820671465
 20
7.6011586178
 30
0.0
 10
9.6811318711
 20
7.6017227934
 30
0.0
 10
9.6803554091
 20
7.6021997854
 30
0.0
 10
9.6797276585
 20
7.6025660254
 30
0.0
 10
9.6792748282
 20
7.6028826588
 30
0.0
 10
9.678753358
 20
7.6030391556
 30
0.0
 10
9.6780820411
 20
7.6033037558
 30
0.0
 10
9.6772346688
 20
7.6036153141
 30
0.0
 10
9.676221343
 20
7.6039973988
 30
0.0
 10
9.6748690122
 20
7.6045039758
 30
0.0
 10
9.6731790198
 20
7.6051381795
 30
0.0
 10
9.6704747966
 20
7.6061523564
 30
0.0
 10
9.6670945983
 20
7.6074202659
 30
0.0
 10
9.6630383258
 20
7.6089416765
 30
0.0
 10
9.6589820626
 20
7.6104631087
 30
0.0
 10
9.6535737083
 20
7.6124916775
 30
0.0
 10
9.6468132666
 20
7.6150273909
 30
0.0
 10
9.6400528245
 20
7.6175631038
 30
0.0
 10
9.6346444708
 20
7.6195916735
 30
0.0
 10
9.6305882061
 20
7.6211131028
 30
0.0
 10
9.6265319389
 20
7.6226345241
 30
0.0
 10
9.623151724
 20
7.6239024006
 30
0.0
 10
9.6204475348
 20
7.6249166446
 30
0.0
 10
9.6187574558
 20
7.6255506774
 30
0.0
 10
9.6174053027
 20
7.6260576053
 30
0.0
 10
9.616391434
 20
7.6264386179
 30
0.0
 10
9.6155457605
 20
7.6267535305
 30
0.0
 10
9.6149553254
 20
7.6269790677
 30
0.0
 10
9.6146155351
 20
7.6270999855
 30
0.0
 10
9.61436745
 20
7.6272130988
 30
0.0
 10
9.6140935339
 20
7.6272404925
 30
0.0
 10
9.6137373226
 20
7.6273069174
 30
0.0
 10
9.6131097548
 20
7.62740923
 30
0.0
 10
9.6122154241
 20
7.6275626741
 30
0.0
 10
9.6111412879
 20
7.6277436896
 30
0.0
 10
9.6097094344
 20
7.6279861324
 30
0.0
 10
9.6079195052
 20
7.6282888132
 30
0.0
 10
9.6050556813
 20
7.6287733107
 30
0.0
 10
9.6014758798
 20
7.6293788612
 30
0.0
 10
9.5971801273
 20
7.6301055523
 30
0.0
 10
9.5928843723
 20
7.6308322353
 30
0.0
 10
9.5871566998
 20
7.6318011488
 30
0.0
 10
9.579997109
 20
7.6330122897
 30
0.0
 10
9.5714056
 20
7.6344656592
 30
0.0
 10
9.5599502547
 20
7.636403485
 30
0.0
 10
9.5513587458
 20
7.6378568544
 30
0.0
 10
9.5456310731
 20
7.6388257673
 30
0.0
  0
ENDSEC
  0
SECTION
  2
OBJECTS
  0
DICTIONARY
  5
C
100
AcDbDictionary
280
0
281
1
  3
ACAD_GROUP
350
D
  3
ACAD_MLINESTYLE
350
17
  3
ACAD_LAYOUT
350
1A
  3
ACAD_PLOTSETTINGS
350
19
  3
ACAD_PLOTSTYLENAME
350
E
  3
ACAD_IMAGE_DICT
350
       360
  3
ACAD_IMAGE_VARS
350
       361
  3
ACAD_TABLESTYLE
350
       362
  0
IMAGEDEF_REACTOR
  5
35F
100
AcDbRasterImageDefReactor
 90
2
330
28A
  0
DICTIONARY
  5
D
102
{ACAD_REACTORS
330
C
102
}
100
AcDbDictionary
280
0
281
1
  0
ACDBDICTIONARYWDFLT
  5
E
102
{ACAD_REACTORS
330
C
102
}
100
AcDbDictionary
281
1
  3
Normal
350
F
100
AcDbDictionaryWithDefault
340
F
  0
DICTIONARY
  5
360
330
C
100
AcDbDictionary
281
1
  3
CNI_assy_2_img_1
350
       365
  0
RASTERVARIABLES
  5
361
330
C
100
AcDbRasterVariables
 90
0
 70
0
 71
1
 72
5
  0
DICTIONARY
  5
17
102
{ACAD_REACTORS
330
C
102
}
100
AcDbDictionary
280
0
281
1
  3
Standard
350
18
  0
DICTIONARY
  5
362
330
C
100
AcDbDictionary
281
1
  3
Standard
350
       366
  3
Standard1
350
       367
  0
DICTIONARY
  5
19
102
{ACAD_REACTORS
330
C
102
}
100
AcDbDictionary
281
1
  0
DICTIONARY
  5
1A
102
{ACAD_REACTORS
330
C
102
}
100
AcDbDictionary
281
1
  3
Model
350
363
  3
Layout1
350
364
  0
ACDBPLACEHOLDER
  5
F
102
{ACAD_REACTORS
330
E
102
}
  0
MLINESTYLE
  5
18
102
{ACAD_REACTORS
330
17
102
}
100
AcDbMlineStyle
  2
STANDARD
 70
0
  3

 62
256
 51
90.0
 52
90.0
 71
2
 49
0.5
 62
256
  6
BYLAYER
 49
-0.5
 62
256
  6
BYLAYER
  0
LAYOUT
  5
363
102
{ACAD_REACTORS
330
1A
102
}
100
AcDbPlotSettings
  1

  2
none_device
  4
ANSI_C_(22.00_x_17.00_Inches)
  6

 40
0.0
 41
0.0
 42
0.0
 43
0.0
 44
558.8
 45
431.8
 46
0.0
 47
0.0
 48
0.0
 49
0.0
140
0.0
141
0.0
142
1.0
143
1.0
 70
1024
 72
0
 73
0
 74
0
  7

 75
0
147
1.0
148
0.0
149
0.0
100
AcDbLayout
  1
Model
 70
0
 71
0
 10
0.0
 20
0.0
 11
22.0
 21
17.0
 12
0.0
 22
0.0
 32
0.0
 14
0.0
 24
0.0
 34
0.0
 15
0.0
 25
0.0
 35
0.0
146
0.0
 13
0.0
 23
0.0
 33
0.0
 16
1.0
 26
0.0
 36
0.0
 17
0.0
 27
1.0
 37
0.0
 76
0
330
20C
345
0
346
0
  0
LAYOUT
  5
364
102
{ACAD_REACTORS
330
1A
102
}
100
AcDbPlotSettings
  1

  2
none_device
  4
ANSI_C_(22.00_x_17.00_Inches)
  6

 40
0.0
 41
0.0
 42
0.0
 43
0.0
 44
558.8
 45
431.8
 46
0.0
 47
0.0
 48
0.0
 49
0.0
140
0.0
141
0.0
142
1.0
143
1.0
 70
0
 72
0
 73
0
 74
0
  7

 75
0
147
1.0
148
0.0
149
0.0
100
AcDbLayout
  1
Layout1
 70
0
 71
1
 10
0.0
 20
0.0
 11
22.0
 21
17.0
 12
0.0
 22
0.0
 32
0.0
 14
0.0
 24
0.0
 34
0.0
 15
0.0
 25
0.0
 35
0.0
146
0.0
 13
0.0
 23
0.0
 33
0.0
 16
1.0
 26
0.0
 36
0.0
 17
0.0
 27
1.0
 37
0.0
 76
0
330
20D
345
0
346
0
  0
IMAGEDEF
  5
365
102
{ACAD_REACTORS
330
360
330
35F
102
}
100
AcDbRasterImageDef
 90
0
  1
CNI_assy_2_img_1.png
 10
369.0
 20
92.0
 11
0.0066666667
 21
0.0066666667
280
1
281
0
  0
TABLESTYLE
  5
366
102
{ACAD_REACTORS
330
362
330
28D
330
28E
102
}
330
362
100
AcDbTableStyle
  3
Standard
 70
0
 71
0
 40
0.06
 41
0.06
280
1
281
1
  7
Standard
140
0.18
170
1
 62
0
 63
7
283
0
  7
Standard
140
0.18
170
1
 62
0
 63
7
283
0
  7
Standard
140
0.18
170
1
 62
0
 63
7
283
0
  0
TABLESTYLE
  5
367
102
{ACAD_REACTORS
330
362
330
28C
102
}
330
362
100
AcDbTableStyle
  3
Standard1
 70
1
 71
0
 40
0.06
 41
0.06
280
1
281
1
  7
Standard
140
0.18
170
1
 62
0
 63
7
283
0
  7
Standard
140
0.18
170
1
 62
0
 63
7
283
0
  7
Standard
140
0.18
170
1
 62
0
 63
7
283
0
  0
ENDSEC
  0
EOF
