999
DXF file: CMW_assy_2.dxf
999
Pro/ENGINEER 2014200 by Parametric Technology Corporation
  0
SECTION
  2
HEADER
  9
$ACADVER
  1
AC1021
  9
$DWGCODEPAGE
  3
ANSI_1252
  9
$EXTMAX
 10
22.0
 20
17.0
 30
0.0
  9
$EXTMIN
 10
0.0
 20
0.0
 30
0.0
  9
$LIMMIN
 10
0.0
 20
0.0
  9
$LIMMAX
 10
22.0
 20
17.0
  9
$VIEWCTR
 10
11.0
 20
8.5
  9
$VIEWSIZE
 40
17.0
  9
$CLAYER
  8
0
  9
$LTSCALE
 40
1.21
  9
$CELTYPE
  6
BYLAYER
  9
$DIMSCALE
 40
1.0
  9
$DIMASZ
 40
0.1875
  9
$DIMEXO
 40
0.0625
  9
$DIMDLI
 40
0.836
  9
$DIMEXE
 40
0.125
  9
$DIMCEN
 40
0.198
  9
$DIMLFAC
 40
1.0
  9
$DIMBLK
  1
_FILLED
  9
$DIMTXT
 40
0.1
  9
$DIMTOL
 70
0
  9
$DIMLIM
 70
0
  9
$DIMTFAC
 40
1.0
  9
$DIMGAP
 40
0.09
  9
$DIMDSEP
 70
46
  9
$AUNITS
 70
0
  9
$PDMODE
 70
3
  9
$PDSIZE
 40
0.3125
  9
$HANDSEED
  5
3A3
  9
$TILEMODE
 70
1
  9
$MEASUREMENT
 70
0
  9
$INSUNITS
 70
1
  0
ENDSEC
  0
SECTION
  2
CLASSES
  0
CLASS
  1
ACDBDICTIONARYWDFLT
  2
AcDbDictionaryWithDefault
  3
AutoCAD 2000
 90
0
 91
1
280
0
281
0
  0
CLASS
  1
ACDBPLACEHOLDER
  2
AcDbPlaceHolder
  3
AutoCAD 2000
 90
0
 91
1
280
0
281
0
  0
CLASS
  1
LAYOUT
  2
AcDbLayout
  3
AutoCAD 2000
 90
0
 91
0
280
0
281
0
  0
CLASS
  1
RASTERVARIABLES
  2
AcDbRasterVariables
  3
ISM
 90
0
 91
1
280
0
281
0
  0
CLASS
  1
IMAGEDEF
  2
AcDbRasterImageDef
  3
ISM
 90
0
 91
1
280
0
281
0
  0
CLASS
  1
IMAGEDEF_REACTOR
  2
AcDbRasterImageDefReactor
  3
ISM
 90
0
 91
1
280
0
281
0
  0
CLASS
  1
IMAGE
  2
AcDbRasterImage
  3
ISM
 90
127
 91
1
280
0
281
1
  0
CLASS
  1
TABLESTYLE
  2
AcDbTableStyle
  3
ObjectDBX Classes
 90
2047
 91
1
280
0
281
0
  0
CLASS
  1
ACAD_TABLE
  2
AcDbTable
  3
ObjectDBX Classes
 90
1025
 91
3
280
0
281
1
  0
ENDSEC
  0
SECTION
  2
TABLES
  0
TABLE
  2
VPORT
  5
8
100
AcDbSymbolTable
 70
2
  0
VPORT
  5
1F4
100
AcDbSymbolTableRecord
100
AcDbViewportTableRecord
  2
*ACTIVE
 70
0
 10
0.0
 20
0.0
 11
1.0
 21
1.0
 12
11.0
 22
8.5
 13
0.0
 23
0.0
 14
1.0
 24
1.0
 15
0.0
 25
0.0
 16
0.0
 26
0.0
 36
1.0
 17
0.0
 27
0.0
 37
0.0
 40
17.0
 41
1.2941176471
 42
50.0
 43
0.0
 44
0.0
 50
0.0
 51
0.0
 71
0
 72
100
 73
1
 74
1
 75
0
 76
0
 77
0
 78
0
  0
ENDTAB
  0
TABLE
  2
LTYPE
  5
5
100
AcDbSymbolTable
 70
6
  0
LTYPE
  5
14
100
AcDbSymbolTableRecord
100
AcDbLinetypeTableRecord
  2
BYBLOCK
 70
0
  3

 72
65
 73
0
 40
0.0
  0
LTYPE
  5
15
100
AcDbSymbolTableRecord
100
AcDbLinetypeTableRecord
  2
BYLAYER
 70
0
  3

 72
65
 73
0
 40
0.0
  0
LTYPE
  5
16
100
AcDbSymbolTableRecord
100
AcDbLinetypeTableRecord
  2
CONTINUOUS
 70
64
  3
Solid line
 72
65
 73
0
 40
0.0
  0
LTYPE
  5
1F5
100
AcDbSymbolTableRecord
100
AcDbLinetypeTableRecord
  2
CENTER
 70
64
  3
____ _ ____ _ ____ _ ____ _ ____ _ ____ _ ____
 72
65
 73
4
 40
0.6
 49
0.375
 74
0
 49
-0.075
 74
0
 49
0.075
 74
0
 49
-0.075
 74
0
  0
LTYPE
  5
1F6
100
AcDbSymbolTableRecord
100
AcDbLinetypeTableRecord
  2
HIDDEN
 70
64
  3
- - - - - - - - - - - - - - - - - - - -
 72
65
 73
2
 40
0.2
 49
0.1
 74
0
 49
-0.1
 74
0
  0
LTYPE
  5
1F7
100
AcDbSymbolTableRecord
100
AcDbLinetypeTableRecord
  2
PHANTOM
 70
64
  3
_____ _ _ _____ _ _ _____ _ _ _____
 72
65
 73
6
 40
0.8
 49
0.45
 74
0
 49
-0.05
 74
0
 49
0.1
 74
0
 49
-0.05
 74
0
 49
0.1
 74
0
 49
-0.05
 74
0
  0
LTYPE
  5
1F8
100
AcDbSymbolTableRecord
100
AcDbLinetypeTableRecord
  2
DOT
 70
64
  3
. . . . . . . . . . . . . . . . . . . .
 72
65
 73
2
 40
0.2
 49
0.1
 74
0
 49
-0.1
 74
0
  0
LTYPE
  5
1F9
100
AcDbSymbolTableRecord
100
AcDbLinetypeTableRecord
  2
DASHED
 70
64
  3
- - - - - - - - - - - - - - - - - - - -
 72
65
 73
2
 40
0.2
 49
0.1
 74
0
 49
-0.1
 74
0
  0
ENDTAB
  0
TABLE
  2
LAYER
  5
2
100
AcDbSymbolTable
 70
36
  0
LAYER
  5
10
100
AcDbSymbolTableRecord
100
AcDbLayerTableRecord
  2
0
 70
0
 62
7
  6
CONTINUOUS
370
-3
390
F
  0
LAYER
  5
1FA
100
AcDbSymbolTableRecord
100
AcDbLayerTableRecord
  2
DEFAULT_1
 70
0
 62
7
  6
CENTER
370
-3
390
F
  0
LAYER
  5
1FB
100
AcDbSymbolTableRecord
100
AcDbLayerTableRecord
  2
DEFAULT_2
 70
0
 62
8
  6
HIDDEN
370
-3
390
F
  0
LAYER
  5
1FC
100
AcDbSymbolTableRecord
100
AcDbLayerTableRecord
  2
DEFAULT_3
 70
0
 62
7
  6
PHANTOM
370
-3
390
F
  0
LAYER
  5
1FD
100
AcDbSymbolTableRecord
100
AcDbLayerTableRecord
  2
01___PRT_ALL_DTM_PLN
 70
0
 62
7
  6
CONTINUOUS
370
-3
390
F
  0
LAYER
  5
1FE
100
AcDbSymbolTableRecord
100
AcDbLayerTableRecord
  2
01___PRT_DEF_DTM_PLN
 70
0
 62
7
  6
CONTINUOUS
370
-3
390
F
  0
LAYER
  5
1FF
100
AcDbSymbolTableRecord
100
AcDbLayerTableRecord
  2
02___PRT_ALL_AXES
 70
0
 62
7
  6
CONTINUOUS
370
-3
390
F
  0
LAYER
  5
200
100
AcDbSymbolTableRecord
100
AcDbLayerTableRecord
  2
03___PRT_ALL_CURVES
 70
0
 62
7
  6
CONTINUOUS
370
-3
390
F
  0
LAYER
  5
201
100
AcDbSymbolTableRecord
100
AcDbLayerTableRecord
  2
04___PRT_ALL_DTM_PNT
 70
0
 62
7
  6
CONTINUOUS
370
-3
390
F
  0
LAYER
  5
202
100
AcDbSymbolTableRecord
100
AcDbLayerTableRecord
  2
05___PRT_ALL_DTM_CSYS
 70
0
 62
7
  6
CONTINUOUS
370
-3
390
F
  0
LAYER
  5
203
100
AcDbSymbolTableRecord
100
AcDbLayerTableRecord
  2
05___PRT_DEF_DTM_CSYS
 70
0
 62
7
  6
CONTINUOUS
370
-3
390
F
  0
LAYER
  5
204
100
AcDbSymbolTableRecord
100
AcDbLayerTableRecord
  2
06___PRT_ALL_SURFS
 70
0
 62
7
  6
CONTINUOUS
370
-3
390
F
  0
LAYER
  5
205
100
AcDbSymbolTableRecord
100
AcDbLayerTableRecord
  2
DATUM_PLANES
 70
0
 62
7
  6
CONTINUOUS
370
-3
390
F
  0
LAYER
  5
206
100
AcDbSymbolTableRecord
100
AcDbLayerTableRecord
  2
PORT_AREAS
 70
0
 62
7
  6
CONTINUOUS
370
-3
390
F
  0
LAYER
  5
207
100
AcDbSymbolTableRecord
100
AcDbLayerTableRecord
  2
SUNNBOMCOSMETIC
 70
0
 62
7
  6
CONTINUOUS
370
-3
390
F
  0
LAYER
  5
208
100
AcDbSymbolTableRecord
100
AcDbLayerTableRecord
  2
SUNNBOMSTAMPING
 70
0
 62
7
  6
CONTINUOUS
370
-3
390
F
  0
LAYER
  5
209
100
AcDbSymbolTableRecord
100
AcDbLayerTableRecord
  2
THREADS
 70
0
 62
7
  6
CONTINUOUS
370
-3
390
F
  0
ENDTAB
  0
TABLE
  2
STYLE
  5
3
100
AcDbSymbolTable
 70
1
  0
STYLE
  5
11
100
AcDbSymbolTableRecord
100
AcDbTextStyleTableRecord
  2
STANDARD
 70
0
 40
0.0
 41
0.8
 50
0.0
 71
0
 42
0.2
  3
txt
  4

  0
STYLE
  5
20A
100
AcDbSymbolTableRecord
100
AcDbTextStyleTableRecord
  2
TEXTSTYLE_1
 70
0
 40
0.0
 41
0.8
 50
0.0
 71
0
 42
0.2
  3
gdt
  4

  0
ENDTAB
  0
TABLE
  2
VIEW
  5
6
100
AcDbSymbolTable
 70
0
  0
ENDTAB
  0
TABLE
  2
UCS
  5
7
100
AcDbSymbolTable
 70
0
  0
ENDTAB
  0
TABLE
  2
APPID
  5
9
100
AcDbSymbolTable
 70
1
  0
APPID
  5
20B
100
AcDbSymbolTableRecord
100
AcDbRegAppTableRecord
  2
ACAD
 70
0
  0
ENDTAB
  0
TABLE
  2
BLOCK_RECORD
  5
1
100
AcDbSymbolTable
 70
0
  0
BLOCK_RECORD
  5
20C
100
AcDbSymbolTableRecord
100
AcDbBlockTableRecord
  2
*Model_Space
  0
BLOCK_RECORD
  5
20D
100
AcDbSymbolTableRecord
100
AcDbBlockTableRecord
  2
*Paper_Space
  0
BLOCK_RECORD
  5
20E
100
AcDbSymbolTableRecord
100
AcDbBlockTableRecord
  2
SUN_FIRST_THIRD_ANGLE_BL0
  0
BLOCK_RECORD
  5
20F
100
AcDbSymbolTableRecord
100
AcDbBlockTableRecord
  2
*T1
  0
BLOCK_RECORD
  5
210
100
AcDbSymbolTableRecord
100
AcDbBlockTableRecord
  2
*T2
  0
BLOCK_RECORD
  5
211
100
AcDbSymbolTableRecord
100
AcDbBlockTableRecord
  2
*T3
  0
ENDTAB
  0
TABLE
  2
DIMSTYLE
  5
A
100
AcDbSymbolTable
 70
1
100
AcDbDimStyleTable
 71
0
  0
DIMSTYLE
105
212
100
AcDbSymbolTableRecord
100
AcDbDimStyleTableRecord
  2
STANDARD
 70
0
  3

  4

 40
1.0
 41
0.1875
 42
0.0625
 43
0.38
 44
0.125
 45
0.0
 46
0.0
 47
0.001
 48
0.001
140
0.1
141
0.09
142
0.0
143
25.4
144
1.0
145
0.0
146
1.0
147
0.09
 71
0.0
 72
0.0
 73
1
 74
1
 75
0
 76
0
 77
0
 78
4
170
0
171
2
172
0
173
0
174
0
175
0
176
0
177
0
178
0
270
2
271
3
272
3
273
2
274
2
275
0
280
0
281
0
282
0
283
1
284
4
285
0
286
0
287
3
288
0
340
11
278
46
  0
ENDTAB
  0
ENDSEC
  0
SECTION
  2
BLOCKS
  0
BLOCK
  5
20
100
AcDbEntity
  8
0
100
AcDbBlockBegin
  2
*Model_Space
 70
0
 10
0.0
 20
0.0
 30
0.0
  3
*Model_Space
  1

  0
ENDBLK
  5
21
100
AcDbEntity
  8
0
100
AcDbBlockEnd
  0
BLOCK
  5
1C
100
AcDbEntity
  8
0
100
AcDbBlockBegin
  2
*Paper_Space
 70
0
 10
0.0
 20
0.0
 30
0.0
  3
*Paper_Space
  1

  0
ENDBLK
  5
1D
100
AcDbEntity
  8
0
100
AcDbBlockEnd
  0
BLOCK
  5
213
100
AcDbEntity
  8
0
100
AcDbBlockBegin
 62
2
  6
CONTINUOUS
  2
SUN_FIRST_THIRD_ANGLE_BL0
 70
64
 10
20.4816717061
 20
1.2289683772
  3
SUN_FIRST_THIRD_ANGLE_BL0
  1

  0
TEXT
  5
214
100
AcDbEntity
  8
0
100
AcDbText
 62
2
  6
CONTINUOUS
 10
19.4750896608
 20
1.4136269581
  7
STANDARD
 40
0.08
  1
FIRST ANGLE
 41
0.8
 72
0
100
AcDbText
  0
TEXT
  5
215
100
AcDbEntity
  8
0
100
AcDbText
 62
2
  6
CONTINUOUS
 10
20.7842537513
 20
1.4047600029
  7
STANDARD
 40
0.08
  1
THIRD ANGLE
 41
0.8
 72
0
100
AcDbText
  0
LINE
  5
216
100
AcDbEntity
  8
0
100
AcDbLine
 62
7
  6
CONTINUOUS
 10
19.4767170086
 20
1.1727031207
 11
19.6334271527
 21
1.1717972817
  0
LINE
  5
217
100
AcDbEntity
  8
0
100
AcDbLine
 62
7
  6
CONTINUOUS
 10
19.6596964832
 20
1.1717972817
 11
19.6950230232
 21
1.171593082
  0
LINE
  5
218
100
AcDbEntity
  8
0
100
AcDbLine
 62
7
  6
CONTINUOUS
 10
19.7194818561
 20
1.1708914427
 11
19.8852396156
 21
1.1699333054
  0
LINE
  5
219
100
AcDbEntity
  8
0
100
AcDbLine
 62
7
  6
CONTINUOUS
 10
19.4758111696
 20
1.2723454088
 11
19.88525039
 21
1.3511534004
  0
LINE
  5
21A
100
AcDbEntity
  8
0
100
AcDbLine
 62
7
  6
CONTINUOUS
 10
19.88525039
 20
1.3511534004
 11
19.8831348489
 21
0.9851647912
  0
LINE
  5
21B
100
AcDbEntity
  8
0
100
AcDbLine
 62
7
  6
CONTINUOUS
 10
19.8831348489
 20
0.9851647912
 11
19.4767170086
 21
1.0658141206
  0
LINE
  5
21C
100
AcDbEntity
  8
0
100
AcDbLine
 62
7
  6
CONTINUOUS
 10
19.4767170086
 20
1.0658141206
 11
19.4779056764
 21
1.2714536432
  0
CIRCLE
  5
21D
100
AcDbEntity
  8
0
100
AcDbCircle
 62
7
  6
CONTINUOUS
 10
20.2068232291
 20
1.1717972817
 40
0.175742101
  0
CIRCLE
  5
21E
100
AcDbEntity
  8
0
100
AcDbCircle
 62
7
  6
CONTINUOUS
 10
20.2068232291
 20
1.1717972817
 40
0.1005522074
  0
LINE
  5
21F
100
AcDbEntity
  8
0
100
AcDbLine
 62
7
  6
CONTINUOUS
 10
20.2077290681
 20
1.3756110529
 11
20.2071171714
 21
1.2379342989
  0
LINE
  5
220
100
AcDbEntity
  8
0
100
AcDbLine
 62
7
  6
CONTINUOUS
 10
20.2077290681
 20
1.2016899681
 11
20.2074674401
 21
1.1428236749
  0
LINE
  5
221
100
AcDbEntity
  8
0
100
AcDbLine
 62
7
  6
CONTINUOUS
 10
20.208634907
 20
1.101141841
 11
20.2080230104
 21
0.963465087
  0
LINE
  5
222
100
AcDbEntity
  8
0
100
AcDbLine
 62
7
  6
CONTINUOUS
 10
20.0066328138
 20
1.1745147986
 11
20.1443095678
 21
1.1739029019
  0
LINE
  5
223
100
AcDbEntity
  8
0
100
AcDbLine
 62
7
  6
CONTINUOUS
 10
20.1832714155
 20
1.1727031207
 11
20.238153505
 21
1.172335442
  0
LINE
  5
224
100
AcDbEntity
  8
0
100
AcDbLine
 62
7
  6
CONTINUOUS
 10
20.2756669918
 20
1.1717972817
 11
20.407916871
 21
1.1712095044
  0
CIRCLE
  5
225
100
AcDbEntity
  8
0
100
AcDbCircle
 62
7
  6
CONTINUOUS
 10
20.7509457401
 20
1.1693297793
 40
0.1722024983
  0
CIRCLE
  5
226
100
AcDbEntity
  8
0
100
AcDbCircle
 62
7
  6
CONTINUOUS
 10
20.7509457401
 20
1.1693297793
 40
0.0985164967
  0
LINE
  5
227
100
AcDbEntity
  8
0
100
AcDbLine
 62
7
  6
CONTINUOUS
 10
20.7169767782
 20
1.170462078
 11
20.7825395137
 21
1.1682766535
  0
LINE
  5
228
100
AcDbEntity
  8
0
100
AcDbLine
 62
7
  6
CONTINUOUS
 10
20.8177513651
 20
1.1693297793
 11
20.947965719
 21
1.1693297793
  0
LINE
  5
229
100
AcDbEntity
  8
0
100
AcDbLine
 62
7
  6
CONTINUOUS
 10
20.6875370113
 20
1.170462078
 11
20.5573226574
 21
1.170462078
  0
LINE
  5
22A
100
AcDbEntity
  8
0
100
AcDbLine
 62
7
  6
CONTINUOUS
 10
20.7486811426
 20
1.1987695462
 11
20.7486811426
 21
1.1432869085
  0
LINE
  5
22B
100
AcDbEntity
  8
0
100
AcDbLine
 62
7
  6
CONTINUOUS
 10
20.7498134414
 20
1.1059210505
 11
20.7498134414
 21
0.9757066966
  0
LINE
  5
22C
100
AcDbEntity
  8
0
100
AcDbLine
 62
7
  6
CONTINUOUS
 10
20.7486811426
 20
1.2338708068
 11
20.7486811426
 21
1.3640851607
  0
LINE
  5
22D
100
AcDbEntity
  8
0
100
AcDbLine
 62
7
  6
CONTINUOUS
 10
21.0702539817
 20
1.2701043662
 11
21.4790138229
 21
1.3448360823
  0
LINE
  5
22E
100
AcDbEntity
  8
0
100
AcDbLine
 62
7
  6
CONTINUOUS
 10
21.4790138229
 20
1.3448360823
 11
21.4790138229
 21
0.9779712941
  0
LINE
  5
22F
100
AcDbEntity
  8
0
100
AcDbLine
 62
7
  6
CONTINUOUS
 10
21.4790138229
 20
0.9779712941
 11
21.069121683
 21
1.0617614
  0
LINE
  5
230
100
AcDbEntity
  8
0
100
AcDbLine
 62
7
  6
CONTINUOUS
 10
21.0702539817
 20
1.2701043662
 11
21.069121683
 21
1.0617614
  0
LINE
  5
231
100
AcDbEntity
  8
0
100
AcDbLine
 62
7
  6
CONTINUOUS
 10
21.4790138229
 20
1.1693297793
 11
21.3159628059
 21
1.1693297793
  0
LINE
  5
232
100
AcDbEntity
  8
0
100
AcDbLine
 62
7
  6
CONTINUOUS
 10
21.2876553377
 20
1.1693297793
 11
21.2502894796
 21
1.1693297793
  0
LINE
  5
233
100
AcDbEntity
  8
0
100
AcDbLine
 62
7
  6
CONTINUOUS
 10
21.2208497126
 20
1.1659328831
 11
21.0713862804
 21
1.1659328831
  0
LINE
  5
234
100
AcDbEntity
  8
0
100
AcDbLine
 62
7
  6
CONTINUOUS
 10
20.4796138713
 20
1.5284908897
 11
20.4766766948
 21
0.9294458646
  0
ENDBLK
  5
235
100
AcDbEntity
  8
0
  6
BYBLOCK
 62
0
100
AcDbBlockEnd
  0
BLOCK
  5
236
100
AcDbEntity
  8
0
100
AcDbBlockBegin
  2
*T1
 70
1
 10
0.0
 20
0.0
  3
*T1
  1

  0
LINE
  5
237
100
AcDbEntity
  8
0
100
AcDbLine
 62
2
  6
CONTINUOUS
 10
9.275
 20
0.0
 11
-0.0
 21
0.0
  0
LINE
  5
238
100
AcDbEntity
  8
0
100
AcDbLine
 62
2
  6
CONTINUOUS
 10
9.275
 20
0.0
 11
9.275
 21
1.25
  0
LINE
  5
239
100
AcDbEntity
  8
0
100
AcDbLine
 62
2
  6
CONTINUOUS
 10
9.275
 20
0.625
 11
-0.0
 21
0.625
  0
LINE
  5
23A
100
AcDbEntity
  8
0
100
AcDbLine
 62
2
  6
CONTINUOUS
 10
9.275
 20
1.25
 11
-0.0
 21
1.25
  0
LINE
  5
23B
100
AcDbEntity
  8
0
100
AcDbLine
 62
2
  6
CONTINUOUS
 10
6.8
 20
0.0
 11
6.8
 21
1.25
  0
LINE
  5
23C
100
AcDbEntity
  8
0
100
AcDbLine
 62
2
  6
CONTINUOUS
 10
6.4
 20
0.0
 11
6.4
 21
0.625
  0
LINE
  5
23D
100
AcDbEntity
  8
0
100
AcDbLine
 62
2
  6
CONTINUOUS
 10
5.9
 20
0.0
 11
5.9
 21
0.625
  0
LINE
  5
23E
100
AcDbEntity
  8
0
100
AcDbLine
 62
2
  6
CONTINUOUS
 10
5.2
 20
0.0
 11
5.2
 21
0.625
  0
LINE
  5
23F
100
AcDbEntity
  8
0
100
AcDbLine
 62
2
  6
CONTINUOUS
 10
4.1
 20
0.0
 11
4.1
 21
1.25
  0
LINE
  5
240
100
AcDbEntity
  8
0
100
AcDbLine
 62
2
  6
CONTINUOUS
 10
-0.0
 20
0.0
 11
-0.0
 21
1.25
  0
MTEXT
  5
241
100
AcDbEntity
  8
0
100
AcDbMText
 62
2
  6
CONTINUOUS
  7
STANDARD
 71
2
 72
1
 10
6.6
 20
0.325
 30
0.0
 11
1.0
 21
0.0
 31
0.0
 44
0.9
  1
2
 40
0.125
 41
0.2
  0
MTEXT
  5
242
100
AcDbEntity
  8
0
100
AcDbMText
 62
2
  6
CONTINUOUS
  7
STANDARD
 71
2
 72
1
 10
6.15
 20
0.325
 30
0.0
 11
1.0
 21
0.0
 31
0.0
 44
0.9
  1
C
 40
0.125
 41
0.2
  0
MTEXT
  5
243
100
AcDbEntity
  8
0
100
AcDbMText
 62
2
  6
CONTINUOUS
  7
STANDARD
 71
2
 72
1
 10
5.55
 20
0.325
 30
0.0
 11
1.0
 21
0.0
 31
0.0
 44
0.9
  1
1.000
 40
0.125
 41
1.0
  0
MTEXT
  5
244
100
AcDbEntity
  8
0
100
AcDbMText
 62
2
  6
CONTINUOUS
  7
STANDARD
 71
2
 72
1
 10
4.65
 20
0.325
 30
0.0
 11
1.0
 21
0.0
 31
0.0
 44
0.9
  1
Feb-26-20
 40
0.125
 41
1.8
  0
MTEXT
  5
245
100
AcDbEntity
  8
0
100
AcDbMText
 62
2
  6
CONTINUOUS
  7
STANDARD
 71
2
 72
1
 10
2.05
 20
0.4625
 30
0.0
 11
1.0
 21
0.0
 31
0.0
 44
0.9
  1
T-3A Line mount\PCross port with make up checks
 40
0.125
 41
6.0
  0
MTEXT
  5
246
100
AcDbEntity
  8
0
100
AcDbMText
 62
2
  6
CONTINUOUS
  7
STANDARD
 71
1
 72
1
 10
6.45
 20
0.5625
 30
0.0
 11
1.0
 21
0.0
 31
0.0
 44
0.9
  1
SHEET
 40
0.06
 41
0.48
  0
MTEXT
  5
247
100
AcDbEntity
  8
0
100
AcDbMText
 62
2
  6
CONTINUOUS
  7
STANDARD
 71
1
 72
1
 10
5.95
 20
0.5625
 30
0.0
 11
1.0
 21
0.0
 31
0.0
 44
0.9
  1
DWG SIZE
 40
0.06
 41
0.768
  0
MTEXT
  5
248
100
AcDbEntity
  8
0
100
AcDbMText
 62
2
  6
CONTINUOUS
  7
STANDARD
 71
1
 72
1
 10
5.25
 20
0.5625
 30
0.0
 11
1.0
 21
0.0
 31
0.0
 44
0.9
  1
SCALE
 40
0.06
 41
0.48
  0
MTEXT
  5
249
100
AcDbEntity
  8
0
100
AcDbMText
 62
2
  6
CONTINUOUS
  7
STANDARD
 71
1
 72
1
 10
4.15
 20
0.5625
 30
0.0
 11
1.0
 21
0.0
 31
0.0
 44
0.9
  1
DATE
 40
0.06
 41
0.384
  0
MTEXT
  5
24A
100
AcDbEntity
  8
0
100
AcDbMText
 62
2
  6
CONTINUOUS
  7
STANDARD
 71
1
 72
1
 10
0.05
 20
0.5625
 30
0.0
 11
1.0
 21
0.0
 31
0.0
 44
0.9
  1
DESCRIPTION
 40
0.06
 41
1.056
  0
MTEXT
  5
24B
100
AcDbEntity
  8
0
100
AcDbMText
 62
2
  6
CONTINUOUS
  7
STANDARD
 71
2
 72
1
 10
5.45
 20
1.0375
 30
0.0
 11
1.0
 21
0.0
 31
0.0
 44
0.9
  1
ALL DIMENSIONS IN INCH\PVIEWS ARE THIRD ANGLE
 40
0.12
 41
4.224
  0
MTEXT
  5
24C
100
AcDbEntity
  8
0
100
AcDbMText
 62
2
  6
CONTINUOUS
  7
STANDARD
 71
2
 72
1
 10
2.05
 20
0.95
 30
0.0
 11
1.0
 21
0.0
 31
0.0
 44
0.9
  1
CMW
 40
0.125
 41
0.6
  0
MTEXT
  5
24D
100
AcDbEntity
  8
0
100
AcDbMText
 62
2
  6
CONTINUOUS
  7
STANDARD
 71
1
 72
1
 10
0.05
 20
1.1875
 30
0.0
 11
1.0
 21
0.0
 31
0.0
 44
0.9
  1
MODEL
 40
0.06
 41
0.48
  0
ENDBLK
  5
24E
100
AcDbEntity
  8
0
  6
BYBLOCK
 62
0
100
AcDbBlockEnd
  0
BLOCK
  5
24F
100
AcDbEntity
  8
0
100
AcDbBlockBegin
  2
*T2
 70
1
 10
0.0
 20
0.0
  3
*T2
  1

  0
LINE
  5
250
100
AcDbEntity
  8
0
100
AcDbLine
 62
2
  6
CONTINUOUS
 10
0.0
 20
0.0
 11
9.055
 21
0.0
  0
LINE
  5
251
100
AcDbEntity
  8
0
100
AcDbLine
 62
2
  6
CONTINUOUS
 10
0.0
 20
0.0
 11
0.0
 21
-2.594
  0
LINE
  5
252
100
AcDbEntity
  8
0
100
AcDbLine
 62
2
  6
CONTINUOUS
 10
0.0
 20
-0.344
 11
9.055
 21
-0.344
  0
LINE
  5
253
100
AcDbEntity
  8
0
100
AcDbLine
 62
2
  6
CONTINUOUS
 10
0.0
 20
-0.594
 11
9.055
 21
-0.594
  0
LINE
  5
254
100
AcDbEntity
  8
0
100
AcDbLine
 62
2
  6
CONTINUOUS
 10
0.0
 20
-0.844
 11
9.055
 21
-0.844
  0
LINE
  5
255
100
AcDbEntity
  8
0
100
AcDbLine
 62
2
  6
CONTINUOUS
 10
0.0
 20
-1.094
 11
9.055
 21
-1.094
  0
LINE
  5
256
100
AcDbEntity
  8
0
100
AcDbLine
 62
2
  6
CONTINUOUS
 10
0.0
 20
-1.344
 11
9.055
 21
-1.344
  0
LINE
  5
257
100
AcDbEntity
  8
0
100
AcDbLine
 62
2
  6
CONTINUOUS
 10
0.0
 20
-1.594
 11
9.055
 21
-1.594
  0
LINE
  5
258
100
AcDbEntity
  8
0
100
AcDbLine
 62
2
  6
CONTINUOUS
 10
0.0
 20
-1.844
 11
9.055
 21
-1.844
  0
LINE
  5
259
100
AcDbEntity
  8
0
100
AcDbLine
 62
2
  6
CONTINUOUS
 10
0.0
 20
-2.094
 11
9.055
 21
-2.094
  0
LINE
  5
25A
100
AcDbEntity
  8
0
100
AcDbLine
 62
2
  6
CONTINUOUS
 10
0.0
 20
-2.344
 11
9.055
 21
-2.344
  0
LINE
  5
25B
100
AcDbEntity
  8
0
100
AcDbLine
 62
2
  6
CONTINUOUS
 10
0.0
 20
-2.594
 11
9.055
 21
-2.594
  0
LINE
  5
25C
100
AcDbEntity
  8
0
100
AcDbLine
 62
2
  6
CONTINUOUS
 10
3.055
 20
0.0
 11
3.055
 21
-2.594
  0
LINE
  5
25D
100
AcDbEntity
  8
0
100
AcDbLine
 62
2
  6
CONTINUOUS
 10
9.055
 20
0.0
 11
9.055
 21
-2.594
  0
MTEXT
  5
25E
100
AcDbEntity
  8
0
100
AcDbMText
 62
2
  6
CONTINUOUS
  7
STANDARD
 71
2
 72
1
 10
1.5275
 20
-0.0995
 30
0.0
 11
1.0
 21
0.0
 31
0.0
 44
0.9
  1
Technical Data
 40
0.145
 41
3.248
  0
MTEXT
  5
25F
100
AcDbEntity
  8
0
100
AcDbMText
 62
2
  6
CONTINUOUS
  7
STANDARD
 71
2
 72
1
 10
4.555
 20
-0.0995
 30
0.0
 11
1.0
 21
0.0
 31
0.0
 44
0.9
  1
U.S. Units
 40
0.145
 41
2.32
  0
MTEXT
  5
260
100
AcDbEntity
  8
0
100
AcDbMText
 62
2
  6
CONTINUOUS
  7
STANDARD
 71
2
 72
1
 10
7.555
 20
-0.0995
 30
0.0
 11
1.0
 21
0.0
 31
0.0
 44
0.9
  1
Metric Units
 40
0.145
 41
2.784
  0
MTEXT
  5
261
100
AcDbEntity
  8
0
100
AcDbMText
 62
2
  6
CONTINUOUS
  7
STANDARD
 71
2
 72
1
 10
1.5275
 20
-0.4065
 30
0.0
 11
1.0
 21
0.0
 31
0.0
 44
0.9
  1
Cavity
 40
0.125
 41
1.2
  0
MTEXT
  5
262
100
AcDbEntity
  8
0
100
AcDbMText
 62
2
  6
CONTINUOUS
  7
STANDARD
 71
2
 72
1
 10
6.055
 20
-0.4065
 30
0.0
 11
1.0
 21
0.0
 31
0.0
 44
0.9
  1
T-3A
 40
0.125
 41
0.8
  0
MTEXT
  5
263
100
AcDbEntity
  8
0
100
AcDbMText
 62
2
  6
CONTINUOUS
  7
STANDARD
 71
2
 72
1
 10
1.5275
 20
-0.6565
 30
0.0
 11
1.0
 21
0.0
 31
0.0
 44
0.9
  1
Body Features
 40
0.125
 41
2.6
  0
MTEXT
  5
264
100
AcDbEntity
  8
0
100
AcDbMText
 62
2
  6
CONTINUOUS
  7
STANDARD
 71
2
 72
1
 10
6.055
 20
-0.6565
 30
0.0
 11
1.0
 21
0.0
 31
0.0
 44
0.9
  1
Cross port with make up checks
 40
0.125
 41
6.0
  0
MTEXT
  5
265
100
AcDbEntity
  8
0
100
AcDbMText
 62
2
  6
CONTINUOUS
  7
STANDARD
 71
2
 72
1
 10
1.5275
 20
-0.9065
 30
0.0
 11
1.0
 21
0.0
 31
0.0
 44
0.9
  1
Body Type
 40
0.125
 41
1.8
  0
MTEXT
  5
266
100
AcDbEntity
  8
0
100
AcDbMText
 62
2
  6
CONTINUOUS
  7
STANDARD
 71
2
 72
1
 10
6.055
 20
-0.9065
 30
0.0
 11
1.0
 21
0.0
 31
0.0
 44
0.9
  1
Line mount
 40
0.125
 41
2.0
  0
MTEXT
  5
267
100
AcDbEntity
  8
0
100
AcDbMText
 62
2
  6
CONTINUOUS
  7
STANDARD
 71
2
 72
1
 10
1.5275
 20
-1.1565
 30
0.0
 11
1.0
 21
0.0
 31
0.0
 44
0.9
  1
Interface
 40
0.125
 41
1.8
  0
MTEXT
  5
268
100
AcDbEntity
  8
0
100
AcDbMText
 62
2
  6
CONTINUOUS
  7
STANDARD
 71
2
 72
1
 10
6.055
 20
-1.1565
 30
0.0
 11
1.0
 21
0.0
 31
0.0
 44
0.9
  1
None
 40
0.125
 41
0.8
  0
MTEXT
  5
269
100
AcDbEntity
  8
0
100
AcDbMText
 62
2
  6
CONTINUOUS
  7
STANDARD
 71
2
 72
1
 10
1.5275
 20
-1.4065
 30
0.0
 11
1.0
 21
0.0
 31
0.0
 44
0.9
  1
Open Cavity Quantity
 40
0.125
 41
4.0
  0
MTEXT
  5
26A
100
AcDbEntity
  8
0
100
AcDbMText
 62
2
  6
CONTINUOUS
  7
STANDARD
 71
2
 72
1
 10
6.055
 20
-1.4065
 30
0.0
 11
1.0
 21
0.0
 31
0.0
 44
0.9
  1
2
 40
0.125
 41
0.2
  0
MTEXT
  5
26B
100
AcDbEntity
  8
0
100
AcDbMText
 62
2
  6
CONTINUOUS
  7
STANDARD
 71
2
 72
1
 10
1.5275
 20
-1.6565
 30
0.0
 11
1.0
 21
0.0
 31
0.0
 44
0.9
  1
Weight
 40
0.125
 41
1.2
  0
MTEXT
  5
26C
100
AcDbEntity
  8
0
100
AcDbMText
 62
2
  6
CONTINUOUS
  7
STANDARD
 71
2
 72
1
 10
4.555
 20
-1.6565
 30
0.0
 11
1.0
 21
0.0
 31
0.0
 44
0.9
  1
3.905 lb.
 40
0.125
 41
1.8
  0
MTEXT
  5
26D
100
AcDbEntity
  8
0
100
AcDbMText
 62
2
  6
CONTINUOUS
  7
STANDARD
 71
2
 72
1
 10
7.555
 20
-1.6565
 30
0.0
 11
1.0
 21
0.0
 31
0.0
 44
0.9
  1
1,771 kg.
 40
0.125
 41
1.8
  0
MTEXT
  5
26E
100
AcDbEntity
  8
0
100
AcDbMText
 62
2
  6
CONTINUOUS
  7
STANDARD
 71
2
 72
1
 10
1.5275
 20
-1.9065
 30
0.0
 11
1.0
 21
0.0
 31
0.0
 44
0.9
  1
Mounting Hole Diameter
 40
0.125
 41
4.4
  0
MTEXT
  5
26F
100
AcDbEntity
  8
0
100
AcDbMText
 62
2
  6
CONTINUOUS
  7
STANDARD
 71
2
 72
1
 10
4.555
 20
-1.9065
 30
0.0
 11
1.0
 21
0.0
 31
0.0
 44
0.9
  1
.34 in.
 40
0.125
 41
1.4
  0
MTEXT
  5
270
100
AcDbEntity
  8
0
100
AcDbMText
 62
2
  6
CONTINUOUS
  7
STANDARD
 71
2
 72
1
 10
7.555
 20
-1.9065
 30
0.0
 11
1.0
 21
0.0
 31
0.0
 44
0.9
  1
8.6 mm
 40
0.125
 41
1.2
  0
MTEXT
  5
271
100
AcDbEntity
  8
0
100
AcDbMText
 62
2
  6
CONTINUOUS
  7
STANDARD
 71
2
 72
1
 10
1.5275
 20
-2.1565
 30
0.0
 11
1.0
 21
0.0
 31
0.0
 44
0.9
  1
Mounting Hole Depth
 40
0.125
 41
3.8
  0
MTEXT
  5
272
100
AcDbEntity
  8
0
100
AcDbMText
 62
2
  6
CONTINUOUS
  7
STANDARD
 71
2
 72
1
 10
6.055
 20
-2.1565
 30
0.0
 11
1.0
 21
0.0
 31
0.0
 44
0.9
  1
Through
 40
0.125
 41
1.4
  0
MTEXT
  5
273
100
AcDbEntity
  8
0
100
AcDbMText
 62
2
  6
CONTINUOUS
  7
STANDARD
 71
2
 72
1
 10
1.5275
 20
-2.4065
 30
0.0
 11
1.0
 21
0.0
 31
0.0
 44
0.9
  1
Mounting Hole Quantity
 40
0.125
 41
4.4
  0
MTEXT
  5
274
100
AcDbEntity
  8
0
100
AcDbMText
 62
2
  6
CONTINUOUS
  7
STANDARD
 71
2
 72
1
 10
6.055
 20
-2.4065
 30
0.0
 11
1.0
 21
0.0
 31
0.0
 44
0.9
  1
2
 40
0.125
 41
0.2
  0
ENDBLK
  5
275
100
AcDbEntity
  8
0
  6
BYBLOCK
 62
0
100
AcDbBlockEnd
  0
BLOCK
  5
276
100
AcDbEntity
  8
0
100
AcDbBlockBegin
  2
*T3
 70
1
 10
0.0
 20
0.0
  3
*T3
  1

  0
LINE
  5
277
100
AcDbEntity
  8
0
100
AcDbLine
 62
2
  6
CONTINUOUS
 10
0.0
 20
0.0
 11
4.6
 21
0.0
  0
LINE
  5
278
100
AcDbEntity
  8
0
100
AcDbLine
 62
2
  6
CONTINUOUS
 10
0.0
 20
0.0
 11
0.0
 21
-0.93775
  0
LINE
  5
279
100
AcDbEntity
  8
0
100
AcDbLine
 62
2
  6
CONTINUOUS
 10
0.0
 20
-0.34375
 11
4.6
 21
-0.34375
  0
LINE
  5
27A
100
AcDbEntity
  8
0
100
AcDbLine
 62
2
  6
CONTINUOUS
 10
0.0
 20
-0.68775
 11
4.6
 21
-0.68775
  0
LINE
  5
27B
100
AcDbEntity
  8
0
100
AcDbLine
 62
2
  6
CONTINUOUS
 10
0.0
 20
-0.93775
 11
4.6
 21
-0.93775
  0
LINE
  5
27C
100
AcDbEntity
  8
0
100
AcDbLine
 62
2
  6
CONTINUOUS
 10
1.3
 20
-0.34375
 11
1.3
 21
-0.93775
  0
LINE
  5
27D
100
AcDbEntity
  8
0
100
AcDbLine
 62
2
  6
CONTINUOUS
 10
3.3
 20
-0.34375
 11
3.3
 21
-0.93775
  0
LINE
  5
27E
100
AcDbEntity
  8
0
100
AcDbLine
 62
2
  6
CONTINUOUS
 10
4.6
 20
0.0
 11
4.6
 21
-0.93775
  0
MTEXT
  5
27F
100
AcDbEntity
  8
0
100
AcDbMText
 62
2
  6
CONTINUOUS
  7
STANDARD
 71
2
 72
1
 10
2.3
 20
-0.099375
 30
0.0
 11
1.0
 21
0.0
 31
0.0
 44
0.9
  1
Port Headings
 40
0.145
 41
3.016
  0
MTEXT
  5
280
100
AcDbEntity
  8
0
100
AcDbMText
 62
2
  6
CONTINUOUS
  7
STANDARD
 71
2
 72
1
 10
0.65
 20
-0.44325
 30
0.0
 11
1.0
 21
0.0
 31
0.0
 44
0.9
  1
Product
 40
0.145
 41
1.624
  0
MTEXT
  5
281
100
AcDbEntity
  8
0
100
AcDbMText
 62
2
  6
CONTINUOUS
  7
STANDARD
 71
2
 72
1
 10
2.3
 20
-0.44325
 30
0.0
 11
1.0
 21
0.0
 31
0.0
 44
0.9
  1
Port
 40
0.145
 41
0.928
  0
MTEXT
  5
282
100
AcDbEntity
  8
0
100
AcDbMText
 62
2
  6
CONTINUOUS
  7
STANDARD
 71
2
 72
1
 10
3.95
 20
-0.44325
 30
0.0
 11
1.0
 21
0.0
 31
0.0
 44
0.9
  1
Size
 40
0.145
 41
0.928
  0
MTEXT
  5
283
100
AcDbEntity
  8
0
100
AcDbMText
 62
2
  6
CONTINUOUS
  7
STANDARD
 71
2
 72
1
 10
0.65
 20
-0.75025
 30
0.0
 11
1.0
 21
0.0
 31
0.0
 44
0.9
  1
CMW
 40
0.125
 41
0.6
  0
MTEXT
  5
284
100
AcDbEntity
  8
0
100
AcDbMText
 62
2
  6
CONTINUOUS
  7
STANDARD
 71
2
 72
1
 10
2.3
 20
-0.75025
 30
0.0
 11
1.0
 21
0.0
 31
0.0
 44
0.9
  1
All Ports
 40
0.125
 41
1.8
  0
MTEXT
  5
285
100
AcDbEntity
  8
0
100
AcDbMText
 62
2
  6
CONTINUOUS
  7
STANDARD
 71
2
 72
1
 10
3.95
 20
-0.75025
 30
0.0
 11
1.0
 21
0.0
 31
0.0
 44
0.9
  1
3/4" BSPP
 40
0.125
 41
1.8
  0
ENDBLK
  5
286
100
AcDbEntity
  8
0
  6
BYBLOCK
 62
0
100
AcDbBlockEnd
  0
ENDSEC
  0
SECTION
  2
ENTITIES
  0
IMAGE
  5
287
100
AcDbEntity
  8
0
100
AcDbRasterImage
 62
7
  6
CONTINUOUS
 10
19.2297077316
 20
0.3094318264
 30
0.0
 11
0.0066666667
 21
0.0
 31
0.0
 12
0.0
 22
0.0066666667
 32
0.0
 13
369.0
 23
92.0
340
       3A0
 70
9
280
0
281
50
282
50
283
0
360
       39A
 71
1
 91
2
 14
-0.5
 24
-0.5
 14
368.5
 24
91.5
  0
INSERT
  5
288
100
AcDbEntity
  8
0
100
AcDbBlockReference
 62
2
  6
CONTINUOUS
  2
SUN_FIRST_THIRD_ANGLE_BL0
 10
20.4816717061
 20
1.2289683772
  0
ACAD_TABLE
  5
289
100
AcDbEntity
  8
0
 62
2
  6
CONTINUOUS
100
AcDbBlockReference
  2
*T1
 10
12.42375
 20
0.30125
 30
0.0
100
AcDbTable
342
       3A2
343
20F
 11
1.0
 21
0.0
 31
0.0
 90
6
 91
4
 92
6
 93
20
 94
0
 95
0
 96
0
 70
1
 41
0.0
141
0.525
141
0.1
141
0.525
141
0.1
142
4.1
142
1.1
142
0.7
142
0.5
142
0.4
142
2.475
171
1
172
0
173
0
174
0
175
1
176
1
 91
33
178
0
145
0.0
301
CELL_VALUE
 90
4
  1
T-3A Line mount\PCross port with make up checks
304
ACVALUE_END
170
2
140
0.125
171
1
172
0
173
0
174
0
175
1
176
1
 91
33
178
0
145
0.0
301
CELL_VALUE
 90
4
  1
Feb-26-20
304
ACVALUE_END
170
5
140
0.125
171
1
172
0
173
0
174
0
175
1
176
1
 91
33
178
0
145
0.0
301
CELL_VALUE
 90
4
  1
1.000
304
ACVALUE_END
170
5
140
0.125
171
1
172
0
173
0
174
0
175
1
176
1
 91
33
178
0
145
0.0
301
CELL_VALUE
 90
4
  1
C
304
ACVALUE_END
170
5
140
0.125
171
1
172
0
173
0
174
0
175
1
176
1
 91
33
178
0
145
0.0
301
CELL_VALUE
 90
4
  1
2
304
ACVALUE_END
170
5
140
0.125
171
1
172
0
173
0
174
0
175
1
176
1
 91
33
178
0
145
0.0
301
CELL_VALUE
 90
4
  1
 
304
ACVALUE_END
170
1
140
0.125
171
1
172
0
173
0
174
0
175
1
176
1
 91
33
178
0
145
0.0
301
CELL_VALUE
 90
4
  1
DESCRIPTION
304
ACVALUE_END
170
1
140
0.06
171
1
172
0
173
0
174
0
175
1
176
1
 91
33
178
0
145
0.0
301
CELL_VALUE
 90
4
  1
DATE
304
ACVALUE_END
170
1
140
0.06
171
1
172
0
173
0
174
0
175
1
176
1
 91
33
178
0
145
0.0
301
CELL_VALUE
 90
4
  1
SCALE
304
ACVALUE_END
170
1
140
0.06
171
1
172
0
173
0
174
0
175
1
176
1
 91
33
178
0
145
0.0
301
CELL_VALUE
 90
4
  1
DWG SIZE
304
ACVALUE_END
170
1
140
0.06
171
1
172
0
173
0
174
0
175
1
176
1
 91
33
178
0
145
0.0
301
CELL_VALUE
 90
4
  1
SHEET
304
ACVALUE_END
170
1
140
0.06
171
1
172
0
173
0
174
0
175
1
176
1
 91
33
178
0
145
0.0
301
CELL_VALUE
 90
4
  1
 
304
ACVALUE_END
170
1
140
0.125
171
1
172
0
173
0
174
0
175
1
176
1
 91
33
178
0
145
0.0
301
CELL_VALUE
 90
4
  1
CMW
304
ACVALUE_END
170
5
140
0.125
171
1
172
0
173
0
174
0
175
4
176
1
 91
33
178
0
145
0.0
301
CELL_VALUE
 90
4
  1
ALL DIMENSIONS IN INCH\PVIEWS ARE THIRD ANGLE
304
ACVALUE_END
170
5
140
0.12
171
1
172
0
173
1
174
0
175
1
176
1
 91
1
178
0
145
0.0
170
1
171
1
172
0
173
1
174
0
175
1
176
1
 91
1
178
0
145
0.0
170
1
171
1
172
0
173
1
174
0
175
1
176
1
 91
1
178
0
145
0.0
170
5
171
1
172
0
173
0
174
0
175
1
176
1
 91
33
178
0
145
0.0
301
CELL_VALUE
 90
4
  1
 
304
ACVALUE_END
170
1
140
0.125
171
1
172
0
173
0
174
0
175
1
176
1
 91
33
178
0
145
0.0
301
CELL_VALUE
 90
4
  1
MODEL
304
ACVALUE_END
170
1
140
0.06
171
1
172
0
173
0
174
0
175
1
176
1
 91
33
178
0
145
0.0
301
CELL_VALUE
 90
4
  1
 
304
ACVALUE_END
170
1
140
0.125
171
1
172
0
173
0
174
0
175
1
176
1
 91
33
178
0
145
0.0
301
CELL_VALUE
 90
4
  1
 
304
ACVALUE_END
170
1
140
0.125
171
1
172
0
173
0
174
0
175
1
176
1
 91
33
178
0
145
0.0
301
CELL_VALUE
 90
4
  1
 
304
ACVALUE_END
170
1
140
0.125
171
1
172
0
173
0
174
0
175
1
176
1
 91
33
178
0
145
0.0
301
CELL_VALUE
 90
4
  1
 
304
ACVALUE_END
170
1
140
0.125
171
1
172
0
173
0
174
0
175
1
176
1
 91
33
178
0
145
0.0
301
CELL_VALUE
 90
4
  1
 
304
ACVALUE_END
170
1
140
0.125
  0
ACAD_TABLE
  5
28A
100
AcDbEntity
  8
0
 62
2
  6
CONTINUOUS
100
AcDbBlockReference
  2
*T2
 10
12.4237499994
 20
16.47875
 30
0.0
100
AcDbTable
342
       3A1
343
210
 11
1.0
 21
0.0
 31
0.0
 90
22
 91
10
 92
3
 93
16
 94
0
 95
0
 96
0
 41
0.028
141
0.344
141
0.25
141
0.25
141
0.25
141
0.25
141
0.25
141
0.25
141
0.25
141
0.25
141
0.25
142
3.055
142
3.0
142
3.0
171
1
172
0
173
0
174
0
175
1
176
1
 91
33
178
0
145
0.0
301
CELL_VALUE
 90
4
  1
Technical Data
304
ACVALUE_END
170
5
140
0.145
171
1
172
0
173
0
174
0
175
1
176
1
 91
33
178
0
145
0.0
301
CELL_VALUE
 90
4
  1
U.S. Units
304
ACVALUE_END
170
5
140
0.145
171
1
172
0
173
0
174
0
175
1
176
1
 91
33
178
0
145
0.0
301
CELL_VALUE
 90
4
  1
Metric Units
304
ACVALUE_END
170
5
140
0.145
171
1
172
0
173
0
174
0
175
1
176
1
 91
33
178
0
145
0.0
301
CELL_VALUE
 90
4
  1
Cavity
304
ACVALUE_END
170
5
140
0.125
171
1
172
0
173
0
174
0
175
2
176
1
 91
33
178
0
145
0.0
301
CELL_VALUE
 90
4
  1
T-3A
304
ACVALUE_END
170
5
140
0.125
171
1
172
0
173
1
174
0
175
1
176
1
 91
1
178
0
145
0.0
170
1
171
1
172
0
173
0
174
0
175
1
176
1
 91
33
178
0
145
0.0
301
CELL_VALUE
 90
4
  1
Body Features
304
ACVALUE_END
170
5
140
0.125
171
1
172
0
173
0
174
0
175
2
176
1
 91
33
178
0
145
0.0
301
CELL_VALUE
 90
4
  1
Cross port with make up checks
304
ACVALUE_END
170
5
140
0.125
171
1
172
0
173
1
174
0
175
1
176
1
 91
1
178
0
145
0.0
170
1
171
1
172
0
173
0
174
0
175
1
176
1
 91
33
178
0
145
0.0
301
CELL_VALUE
 90
4
  1
Body Type
304
ACVALUE_END
170
5
140
0.125
171
1
172
0
173
0
174
0
175
2
176
1
 91
33
178
0
145
0.0
301
CELL_VALUE
 90
4
  1
Line mount
304
ACVALUE_END
170
5
140
0.125
171
1
172
0
173
1
174
0
175
1
176
1
 91
1
178
0
145
0.0
170
1
171
1
172
0
173
0
174
0
175
1
176
1
 91
33
178
0
145
0.0
301
CELL_VALUE
 90
4
  1
Interface
304
ACVALUE_END
170
5
140
0.125
171
1
172
0
173
0
174
0
175
2
176
1
 91
33
178
0
145
0.0
301
CELL_VALUE
 90
4
  1
None
304
ACVALUE_END
170
5
140
0.125
171
1
172
0
173
1
174
0
175
1
176
1
 91
1
178
0
145
0.0
170
1
171
1
172
0
173
0
174
0
175
1
176
1
 91
33
178
0
145
0.0
301
CELL_VALUE
 90
4
  1
Open Cavity Quantity
304
ACVALUE_END
170
5
140
0.125
171
1
172
0
173
0
174
0
175
2
176
1
 91
33
178
0
145
0.0
301
CELL_VALUE
 90
4
  1
2
304
ACVALUE_END
170
5
140
0.125
171
1
172
0
173
1
174
0
175
1
176
1
 91
1
178
0
145
0.0
170
1
171
1
172
0
173
0
174
0
175
1
176
1
 91
33
178
0
145
0.0
301
CELL_VALUE
 90
4
  1
Weight
304
ACVALUE_END
170
5
140
0.125
171
1
172
0
173
0
174
0
175
1
176
1
 91
33
178
0
145
0.0
301
CELL_VALUE
 90
4
  1
3.905 lb.
304
ACVALUE_END
170
5
140
0.125
171
1
172
0
173
0
174
0
175
1
176
1
 91
33
178
0
145
0.0
301
CELL_VALUE
 90
4
  1
1,771 kg.
304
ACVALUE_END
170
5
140
0.125
171
1
172
0
173
0
174
0
175
1
176
1
 91
33
178
0
145
0.0
301
CELL_VALUE
 90
4
  1
Mounting Hole Diameter
304
ACVALUE_END
170
5
140
0.125
171
1
172
0
173
0
174
0
175
1
176
1
 91
33
178
0
145
0.0
301
CELL_VALUE
 90
4
  1
.34 in.
304
ACVALUE_END
170
5
140
0.125
171
1
172
0
173
0
174
0
175
1
176
1
 91
33
178
0
145
0.0
301
CELL_VALUE
 90
4
  1
8.6 mm
304
ACVALUE_END
170
5
140
0.125
171
1
172
0
173
0
174
0
175
1
176
1
 91
33
178
0
145
0.0
301
CELL_VALUE
 90
4
  1
Mounting Hole Depth
304
ACVALUE_END
170
5
140
0.125
171
1
172
0
173
0
174
0
175
2
176
1
 91
33
178
0
145
0.0
301
CELL_VALUE
 90
4
  1
Through
304
ACVALUE_END
170
5
140
0.125
171
1
172
0
173
1
174
0
175
1
176
1
 91
1
178
0
145
0.0
170
1
171
1
172
0
173
0
174
0
175
1
176
1
 91
33
178
0
145
0.0
301
CELL_VALUE
 90
4
  1
Mounting Hole Quantity
304
ACVALUE_END
170
5
140
0.125
171
1
172
0
173
0
174
0
175
2
176
1
 91
33
178
0
145
0.0
301
CELL_VALUE
 90
4
  1
2
304
ACVALUE_END
170
5
140
0.125
171
1
172
0
173
1
174
0
175
1
176
1
 91
1
178
0
145
0.0
170
1
  0
ACAD_TABLE
  5
28B
100
AcDbEntity
  8
0
 62
2
  6
CONTINUOUS
100
AcDbBlockReference
  2
*T3
 10
0.52125
 20
1.459
 30
0.0
100
AcDbTable
342
       3A1
343
211
 11
1.0
 21
0.0
 31
0.0
 90
22
 91
3
 92
3
 93
16
 94
0
 95
0
 96
0
 41
0.05
141
0.34375
141
0.344
141
0.25
142
1.3
142
2.0
142
1.3
171
1
172
0
173
0
174
0
175
3
176
1
 91
33
178
0
145
0.0
301
CELL_VALUE
 90
4
  1
Port Headings
304
ACVALUE_END
170
5
140
0.145
171
1
172
0
173
1
174
0
175
1
176
1
 91
1
178
0
145
0.0
170
1
171
1
172
0
173
1
174
0
175
1
176
1
 91
1
178
0
145
0.0
170
1
171
1
172
0
173
0
174
0
175
1
176
1
 91
33
178
0
145
0.0
301
CELL_VALUE
 90
4
  1
Product
304
ACVALUE_END
170
5
140
0.145
171
1
172
0
173
0
174
0
175
1
176
1
 91
33
178
0
145
0.0
301
CELL_VALUE
 90
4
  1
Port
304
ACVALUE_END
170
5
140
0.145
171
1
172
0
173
0
174
0
175
1
176
1
 91
33
178
0
145
0.0
301
CELL_VALUE
 90
4
  1
Size
304
ACVALUE_END
170
5
140
0.145
171
1
172
0
173
0
174
0
175
1
176
1
 91
33
178
0
145
0.0
301
CELL_VALUE
 90
4
  1
CMW
304
ACVALUE_END
170
5
140
0.125
171
1
172
0
173
0
174
0
175
1
176
1
 91
33
178
0
145
0.0
301
CELL_VALUE
 90
4
  1
All Ports
304
ACVALUE_END
170
5
140
0.125
171
1
172
0
173
0
174
0
175
1
176
1
 91
33
178
0
145
0.0
301
CELL_VALUE
 90
4
  1
3/4" BSPP
304
ACVALUE_END
170
5
140
0.125
  0
MTEXT
  5
28C
100
AcDbEntity
  8
0
100
AcDbMText
 62
2
  6
CONTINUOUS
  7
STANDARD
 71
1
 72
1
 10
0.52125
 20
5.75995
 30
0.0
 11
1.0
 21
0.0
 31
0.0
 44
0.6
  3
Notes\P \P1. Important: Carefully consider\P   the maximum system pressure. The\P   pressure rating of the manifold is\P   dependent on the manifold material,\P   with the port type/size a secondary\P   consideration. Manifolds\P   constructed of alu
  1
minum are not\P   rated for pressures higher than\P   3000 psi (210 bar), regardless of\P   the port type/size specified.
 40
0.1
 41
3.04
  0
LINE
  5
28D
100
AcDbEntity
  8
0
100
AcDbLine
 62
7
  6
CONTINUOUS
 10
0.30125
 20
0.30125
 11
0.30125
 21
16.69875
  0
LINE
  5
28E
100
AcDbEntity
  8
0
100
AcDbLine
 62
7
  6
CONTINUOUS
 10
0.30125
 20
0.30125
 11
21.69875
 21
0.30125
  0
LINE
  5
28F
100
AcDbEntity
  8
0
100
AcDbLine
 62
7
  6
CONTINUOUS
 10
0.30125
 20
16.69875
 11
21.69875
 21
16.69875
  0
LINE
  5
290
100
AcDbEntity
  8
0
100
AcDbLine
 62
7
  6
CONTINUOUS
 10
21.69875
 20
0.30125
 11
21.69875
 21
16.69875
  0
LINE
  5
291
100
AcDbEntity
  8
0
100
AcDbLine
 62
7
  6
CONTINUOUS
 10
8.796326381
 20
9.8742849087
 11
9.7021922912
 21
10.7492842384
  0
LINE
  5
292
100
AcDbEntity
  8
0
100
AcDbLine
 62
7
  6
CONTINUOUS
 10
8.796326381
 20
6.4935443164
 11
8.796326381
 21
9.8742849087
  0
LINE
  5
293
100
AcDbEntity
  8
0
100
AcDbLine
 62
4
  6
CONTINUOUS
 10
8.9243115604
 20
9.1399988649
 11
8.9170671164
 21
9.1115234929
  0
LINE
  5
294
100
AcDbEntity
  8
0
100
AcDbLine
 62
4
  6
CONTINUOUS
 10
8.9170671164
 20
9.2081160768
 11
8.9243115604
 21
9.2172729361
  0
LINE
  5
295
100
AcDbEntity
  8
0
100
AcDbLine
 62
7
  6
CONTINUOUS
 10
12.2978077088
 20
6.2507157616
 11
8.796326381
 21
6.4935443164
  0
LINE
  5
296
100
AcDbEntity
  8
0
100
AcDbLine
 62
4
  6
CONTINUOUS
 10
8.9750226681
 20
9.2040968456
 11
8.9750226681
 21
9.184778333
  0
LINE
  5
297
100
AcDbEntity
  8
0
100
AcDbLine
 62
4
  6
CONTINUOUS
 10
8.9750226681
 20
7.3514509228
 11
8.9750226681
 21
7.2355398193
  0
LINE
  5
298
100
AcDbEntity
  8
0
100
AcDbLine
 62
4
  6
CONTINUOUS
 10
8.9388004483
 20
9.1583125731
 11
8.9243115604
 21
9.1399988649
  0
LINE
  5
299
100
AcDbEntity
  8
0
100
AcDbLine
 62
4
  6
CONTINUOUS
 10
8.9750226681
 20
9.184778333
 11
8.9677782242
 21
9.1756214737
  0
LINE
  5
29A
100
AcDbEntity
  8
0
100
AcDbLine
 62
4
  6
CONTINUOUS
 10
10.5475499733
 20
6.6087483866
 11
10.6199944129
 21
6.6037243477
  0
LINE
  5
29B
100
AcDbEntity
  8
0
100
AcDbLine
 62
4
  6
CONTINUOUS
 10
9.3406946347
 20
9.3784079959
 11
9.3406946347
 21
9.394966724
  0
LINE
  5
29C
100
AcDbEntity
  8
0
100
AcDbLine
 62
4
  6
CONTINUOUS
 10
9.3406946347
 20
9.394966724
 11
9.3572533645
 21
9.4103771002
  0
LINE
  5
29D
100
AcDbEntity
  8
0
100
AcDbLine
 62
4
  6
CONTINUOUS
 10
9.3820914584
 20
9.2927434692
 11
9.3986501865
 21
9.3081538473
  0
LINE
  5
29E
100
AcDbEntity
  8
0
100
AcDbLine
 62
4
  6
CONTINUOUS
 10
8.9243115604
 20
9.2172729361
 11
8.9388004483
 21
9.2259273846
  0
LINE
  5
29F
100
AcDbEntity
  8
0
100
AcDbLine
 62
4
  6
CONTINUOUS
 10
9.3986501865
 20
9.3081538473
 11
9.3986501865
 21
9.3247125771
  0
LINE
  5
2A0
100
AcDbEntity
  8
0
100
AcDbLine
 62
4
  6
CONTINUOUS
 10
9.4317676426
 20
9.4052095175
 11
9.4317676426
 21
9.3058571439
  0
LINE
  5
2A1
100
AcDbEntity
  8
0
100
AcDbLine
 62
4
  6
CONTINUOUS
 10
9.4676449031
 20
8.6956636901
 11
9.4676449031
 21
8.8115747935
  0
LINE
  5
2A2
100
AcDbEntity
  8
0
100
AcDbLine
 62
4
  6
CONTINUOUS
 10
9.4897231943
 20
9.3018379127
 11
9.4897231943
 21
9.4011902863
  0
LINE
  5
2A3
100
AcDbEntity
  8
0
100
AcDbLine
 62
4
  6
CONTINUOUS
 10
9.5228406505
 20
9.2829824795
 11
9.5228406505
 21
9.398893583
  0
LINE
  5
2A4
100
AcDbEntity
  8
0
100
AcDbLine
 62
4
  6
CONTINUOUS
 10
9.5256004479
 20
8.7909968348
 11
9.5256004479
 21
8.7082031892
  0
LINE
  5
2A5
100
AcDbEntity
  8
0
100
AcDbLine
 62
4
  6
CONTINUOUS
 10
9.4731644732
 20
9.2864275341
 11
9.4897231943
 21
9.3018379127
  0
LINE
  5
2A6
100
AcDbEntity
  8
0
100
AcDbLine
 62
4
  6
CONTINUOUS
 10
8.9677782242
 20
9.1756214737
 11
8.9388004483
 21
9.1583125731
  0
LINE
  5
2A7
100
AcDbEntity
  8
0
100
AcDbLine
 62
4
  6
CONTINUOUS
 10
9.5807962022
 20
9.2789632484
 11
9.5807962022
 21
9.3948743518
  0
LINE
  5
2A8
100
AcDbEntity
  8
0
100
AcDbLine
 62
4
  6
CONTINUOUS
 10
9.704986686
 20
8.6792039816
 11
9.704986686
 21
8.795115085
  0
LINE
  5
2A9
100
AcDbEntity
  8
0
100
AcDbLine
 62
4
  6
CONTINUOUS
 10
9.7049866662
 20
9.2703506104
 11
9.7049866662
 21
9.3862617139
  0
LINE
  5
2AA
100
AcDbEntity
  8
0
100
AcDbLine
 62
4
  6
CONTINUOUS
 10
9.735344289
 20
8.948661832
 11
9.735344289
 21
9.0314554775
  0
LINE
  5
2AB
100
AcDbEntity
  8
0
100
AcDbLine
 62
4
  6
CONTINUOUS
 10
9.7546628573
 20
9.3414198347
 11
9.7546628573
 21
9.2669055549
  0
LINE
  5
2AC
100
AcDbEntity
  8
0
100
AcDbLine
 62
4
  6
CONTINUOUS
 10
9.5725168476
 20
8.6883907961
 11
9.6056343037
 21
8.8020051961
  0
LINE
  5
2AD
100
AcDbEntity
  8
0
100
AcDbLine
 62
4
  6
CONTINUOUS
 10
9.8043390485
 20
9.2358626175
 11
9.8374564908
 21
9.3439574442
  0
LINE
  5
2AE
100
AcDbEntity
  8
0
100
AcDbLine
 62
4
  6
CONTINUOUS
 10
9.735344289
 20
9.0314554775
 11
9.7519030188
 21
9.0468658538
  0
LINE
  5
2AF
100
AcDbEntity
  8
0
100
AcDbLine
 62
4
  6
CONTINUOUS
 10
8.9677782242
 20
9.2142585127
 11
8.9750226681
 21
9.2040968456
  0
LINE
  5
2B0
100
AcDbEntity
  8
0
100
AcDbLine
 62
4
  6
CONTINUOUS
 10
9.6056343037
 20
8.8020051961
 11
9.6387517737
 21
8.6837973883
  0
LINE
  5
2B1
100
AcDbEntity
  8
0
100
AcDbLine
 62
4
  6
CONTINUOUS
 10
9.7712215983
 20
8.6746105748
 11
9.7712215983
 21
8.7905216782
  0
LINE
  5
2B2
100
AcDbEntity
  8
0
100
AcDbLine
 62
4
  6
CONTINUOUS
 10
9.8319368729
 20
8.9254043837
 11
9.8319368729
 21
9.0413154872
  0
LINE
  5
2B3
100
AcDbEntity
  8
0
100
AcDbLine
 62
4
  6
CONTINUOUS
 10
9.8595348225
 20
9.2679120243
 11
9.8595348225
 21
9.3341469392
  0
LINE
  5
2B4
100
AcDbEntity
  8
0
100
AcDbLine
 62
4
  6
CONTINUOUS
 10
9.8981717921
 20
9.0367220799
 11
9.8981717921
 21
8.9208109765
  0
LINE
  5
2B5
100
AcDbEntity
  8
0
100
AcDbLine
 62
4
  6
CONTINUOUS
 10
9.909210986
 20
9.3720987092
 11
9.909210986
 21
9.2561876057
  0
LINE
  5
2B6
100
AcDbEntity
  8
0
100
AcDbLine
 62
4
  6
CONTINUOUS
 10
9.9423284836
 20
9.2538908995
 11
9.9423284836
 21
9.3366845468
  0
LINE
  5
2B7
100
AcDbEntity
  8
0
100
AcDbLine
 62
4
  6
CONTINUOUS
 10
9.9450882811
 20
8.6791116092
 11
9.9450882811
 21
8.7619052547
  0
LINE
  5
2B8
100
AcDbEntity
  8
0
100
AcDbLine
 62
4
  6
CONTINUOUS
 10
10.0058035212
 20
8.9133466907
 11
10.0306416306
 21
9.0275352654
  0
LINE
  5
2B9
100
AcDbEntity
  8
0
100
AcDbLine
 62
4
  6
CONTINUOUS
 10
9.9561273439
 20
8.9167917453
 11
9.9809654394
 21
8.9978628648
  0
LINE
  5
2BA
100
AcDbEntity
  8
0
100
AcDbLine
 62
4
  6
CONTINUOUS
 10
9.865054336
 20
8.9727838676
 11
9.8981717921
 21
9.0367220799
  0
LINE
  5
2BB
100
AcDbEntity
  8
0
100
AcDbLine
 62
4
  6
CONTINUOUS
 10
9.5256004479
 20
8.7082031892
 11
9.5090417198
 21
8.6927928111
  0
LINE
  5
2BC
100
AcDbEntity
  8
0
100
AcDbLine
 62
4
  6
CONTINUOUS
 10
10.3011009045
 20
9.3035242274
 11
10.3093802375
 21
9.3112294212
  0
LINE
  5
2BD
100
AcDbEntity
  8
0
100
AcDbLine
 62
4
  6
CONTINUOUS
 10
9.8595348225
 20
9.3341469392
 11
9.8760935437
 21
9.3412779555
  0
LINE
  5
2BE
100
AcDbEntity
  8
0
100
AcDbLine
 62
4
  6
CONTINUOUS
 10
10.0168427565
 20
9.2818407767
 11
10.0334014777
 21
9.2889717895
  0
LINE
  5
2BF
100
AcDbEntity
  8
0
100
AcDbLine
 62
4
  6
CONTINUOUS
 10
9.9809654813
 20
9.3257256944
 11
9.9809654813
 21
9.3091669663
  0
LINE
  5
2C0
100
AcDbEntity
  8
0
100
AcDbLine
 62
4
  6
CONTINUOUS
 10
10.0168427565
 20
9.257002682
 11
10.0168427565
 21
9.2818407767
  0
LINE
  5
2C1
100
AcDbEntity
  8
0
100
AcDbLine
 62
4
  6
CONTINUOUS
 10
10.0416808304
 20
8.6724128931
 11
10.0416808304
 21
8.7552065387
  0
LINE
  5
2C2
100
AcDbEntity
  8
0
100
AcDbLine
 62
4
  6
CONTINUOUS
 10
10.06651892
 20
9.2452782635
 11
10.06651892
 21
9.3115131827
  0
LINE
  5
2C3
100
AcDbEntity
  8
0
100
AcDbLine
 62
4
  6
CONTINUOUS
 10
10.0996363623
 20
9.3257752083
 11
10.0996363623
 21
9.2512609259
  0
LINE
  5
2C4
100
AcDbEntity
  8
0
100
AcDbLine
 62
4
  6
CONTINUOUS
 10
10.0996363821
 20
8.7511873075
 11
10.0996363821
 21
8.668393662
  0
LINE
  5
2C5
100
AcDbEntity
  8
0
100
AcDbLine
 62
4
  6
CONTINUOUS
 10
10.1327538245
 20
8.6495382297
 11
10.1327538245
 21
8.7654493332
  0
LINE
  5
2C6
100
AcDbEntity
  8
0
100
AcDbLine
 62
4
  6
CONTINUOUS
 10
10.1493125811
 20
9.2395365036
 11
10.1493125811
 21
9.3223301509
  0
LINE
  5
2C7
100
AcDbEntity
  8
0
100
AcDbLine
 62
4
  6
CONTINUOUS
 10
10.1824300234
 20
9.245519166
 11
10.1824300234
 21
9.3531509046
  0
LINE
  5
2C8
100
AcDbEntity
  8
0
100
AcDbLine
 62
4
  6
CONTINUOUS
 10
10.259704074
 20
9.347791931
 11
10.2569442963
 21
9.3397039547
  0
LINE
  5
2C9
100
AcDbEntity
  8
0
100
AcDbLine
 62
4
  6
CONTINUOUS
 10
10.3756152327
 20
9.2983566412
 11
10.3838945656
 21
9.306061835
  0
LINE
  5
2CA
100
AcDbEntity
  8
0
100
AcDbLine
 62
4
  6
CONTINUOUS
 10
10.417012008
 20
9.2209714853
 11
10.4252913409
 21
9.2286766765
  0
LINE
  5
2CB
100
AcDbEntity
  8
0
100
AcDbLine
 62
4
  6
CONTINUOUS
 10
9.9450882811
 20
8.7619052547
 11
9.9616470022
 21
8.7773156316
  0
LINE
  5
2CC
100
AcDbEntity
  8
0
100
AcDbLine
 62
4
  6
CONTINUOUS
 10
10.0416808304
 20
8.7552065387
 11
10.0582395516
 21
8.7706169156
  0
LINE
  5
2CD
100
AcDbEntity
  8
0
100
AcDbLine
 62
4
  6
CONTINUOUS
 10
9.4455665955
 20
8.7689493212
 11
9.4014099839
 21
8.749933285
  0
LINE
  5
2CE
100
AcDbEntity
  8
0
100
AcDbLine
 62
4
  6
CONTINUOUS
 10
9.5090417198
 20
8.8087039145
 11
9.5256004479
 21
8.7909968348
  0
LINE
  5
2CF
100
AcDbEntity
  8
0
100
AcDbLine
 62
4
  6
CONTINUOUS
 10
9.5228406505
 20
9.398893583
 11
9.5807962022
 21
9.2789632484
  0
LINE
  5
2D0
100
AcDbEntity
  8
0
100
AcDbLine
 62
4
  6
CONTINUOUS
 10
9.8319368729
 20
9.0413154872
 11
9.865054336
 21
8.9727838676
  0
LINE
  5
2D1
100
AcDbEntity
  8
0
100
AcDbLine
 62
4
  6
CONTINUOUS
 10
9.7877803273
 20
9.3474024978
 11
9.8126184367
 21
9.2628863218
  0
LINE
  5
2D2
100
AcDbEntity
  8
0
100
AcDbLine
 62
4
  6
CONTINUOUS
 10
9.9809654394
 20
8.9978628648
 11
10.0058035212
 21
8.9133466907
  0
LINE
  5
2D3
100
AcDbEntity
  8
0
100
AcDbLine
 62
4
  6
CONTINUOUS
 10
9.9312892483
 20
9.0344253765
 11
9.9561273439
 21
8.9167917453
  0
LINE
  5
2D4
100
AcDbEntity
  8
0
100
AcDbLine
 62
4
  6
CONTINUOUS
 10
10.1907093762
 20
8.7448713739
 11
10.1907093762
 21
8.6620777284
  0
LINE
  5
2D5
100
AcDbEntity
  8
0
100
AcDbLine
 62
4
  6
CONTINUOUS
 10
10.2376258173
 20
8.6422653323
 11
10.2376258173
 21
8.7581764358
  0
LINE
  5
2D6
100
AcDbEntity
  8
0
100
AcDbLine
 62
4
  6
CONTINUOUS
 10
10.2569442963
 20
9.2320722188
 11
10.2569442963
 21
9.3148658661
  0
LINE
  5
2D7
100
AcDbEntity
  8
0
100
AcDbLine
 62
4
  6
CONTINUOUS
 10
10.2569442963
 20
9.3397039547
 11
10.2569442963
 21
9.3479833222
  0
LINE
  5
2D8
100
AcDbEntity
  8
0
100
AcDbLine
 62
4
  6
CONTINUOUS
 10
10.3011009045
 20
9.2372893125
 11
10.3011009045
 21
9.3035242274
  0
LINE
  5
2D9
100
AcDbEntity
  8
0
100
AcDbLine
 62
4
  6
CONTINUOUS
 10
10.3756152327
 20
9.2735185491
 11
10.3756152327
 21
9.2983566412
  0
LINE
  5
2DA
100
AcDbEntity
  8
0
100
AcDbLine
 62
4
  6
CONTINUOUS
 10
10.0996363821
 20
8.668393662
 11
10.083077661
 21
8.6529832834
  0
LINE
  5
2DB
100
AcDbEntity
  8
0
100
AcDbLine
 62
4
  6
CONTINUOUS
 10
10.1907093762
 20
8.6620777284
 11
10.174150655
 21
8.6466673498
  0
LINE
  5
2DC
100
AcDbEntity
  8
0
100
AcDbLine
 62
4
  6
CONTINUOUS
 10
8.9532893362
 20
9.2249225768
 11
8.9677782242
 21
9.2142585127
  0
LINE
  5
2DD
100
AcDbEntity
  8
0
100
AcDbLine
 62
4
  6
CONTINUOUS
 10
9.3406946347
 20
9.3038937135
 11
9.3489739996
 21
9.2950401727
  0
LINE
  5
2DE
100
AcDbEntity
  8
0
100
AcDbLine
 62
4
  6
CONTINUOUS
 10
9.9616470022
 20
8.6614045282
 11
9.9450882811
 21
8.6791116092
  0
LINE
  5
2DF
100
AcDbEntity
  8
0
100
AcDbLine
 62
4
  6
CONTINUOUS
 10
9.7519030188
 20
8.9309547504
 11
9.735344289
 21
8.948661832
  0
LINE
  5
2E0
100
AcDbEntity
  8
0
100
AcDbLine
 62
4
  6
CONTINUOUS
 10
10.4252913409
 20
9.2286766765
 11
10.4252913409
 21
9.2535147712
  0
LINE
  5
2E1
100
AcDbEntity
  8
0
100
AcDbLine
 62
4
  6
CONTINUOUS
 10
10.5837721931
 20
6.6062363672
 11
10.5837721931
 21
6.4903252637
  0
LINE
  5
2E2
100
AcDbEntity
  8
0
100
AcDbLine
 62
4
  6
CONTINUOUS
 10
10.3645760313
 20
8.6831374928
 11
10.3204194231
 21
8.6641214581
  0
LINE
  5
2E3
100
AcDbEntity
  8
0
100
AcDbLine
 62
4
  6
CONTINUOUS
 10
9.4014099839
 20
8.749933285
 11
9.4455665955
 21
8.7247927078
  0
LINE
  5
2E4
100
AcDbEntity
  8
0
100
AcDbLine
 62
4
  6
CONTINUOUS
 10
9.3986501865
 20
9.3247125771
 11
9.3406946347
 21
9.3784079959
  0
LINE
  5
2E5
100
AcDbEntity
  8
0
100
AcDbLine
 62
4
  6
CONTINUOUS
 10
9.4317676426
 20
9.3058571439
 11
9.4483263707
 21
9.2881500624
  0
LINE
  5
2E6
100
AcDbEntity
  8
0
100
AcDbLine
 62
4
  6
CONTINUOUS
 10
10.0582395516
 20
8.6547058121
 11
10.0416808304
 21
8.6724128931
  0
LINE
  5
2E7
100
AcDbEntity
  8
0
100
AcDbLine
 62
4
  6
CONTINUOUS
 10
9.3903708224
 20
9.4080803967
 11
9.3986501865
 21
9.3992268534
  0
LINE
  5
2E8
100
AcDbEntity
  8
0
100
AcDbLine
 62
4
  6
CONTINUOUS
 10
10.083077661
 20
8.7688943868
 11
10.0996363821
 21
8.7511873075
  0
LINE
  5
2E9
100
AcDbEntity
  8
0
100
AcDbLine
 62
4
  6
CONTINUOUS
 10
10.174150655
 20
8.7625784532
 11
10.1907093762
 21
8.7448713739
  0
LINE
  5
2EA
100
AcDbEntity
  8
0
100
AcDbLine
 62
4
  6
CONTINUOUS
 10
9.975445926
 20
9.3343878443
 11
9.9809654813
 21
9.3257256944
  0
LINE
  5
2EB
100
AcDbEntity
  8
0
100
AcDbLine
 62
4
  6
CONTINUOUS
 10
10.06651892
 20
9.3115131827
 11
10.0582395871
 21
9.3286460844
  0
LINE
  5
2EC
100
AcDbEntity
  8
0
100
AcDbLine
 62
4
  6
CONTINUOUS
 10
9.7463834968
 20
9.3502733778
 11
9.7546628573
 21
9.3414198347
  0
LINE
  5
2ED
100
AcDbEntity
  8
0
100
AcDbLine
 62
4
  6
CONTINUOUS
 10
10.3204194231
 20
8.7082780715
 11
10.3645760313
 21
8.6831374928
  0
LINE
  5
2EE
100
AcDbEntity
  8
0
100
AcDbLine
 62
4
  6
CONTINUOUS
 10
10.0996363623
 20
9.2512609259
 11
10.1079157506
 21
9.2424073835
  0
LINE
  5
2EF
100
AcDbEntity
  8
0
100
AcDbLine
 62
4
  6
CONTINUOUS
 10
10.1907094117
 20
9.2366656236
 11
10.1824300234
 21
9.245519166
  0
LINE
  5
2F0
100
AcDbEntity
  8
0
100
AcDbLine
 62
4
  6
CONTINUOUS
 10
10.3093802375
 20
9.2284357739
 11
10.3011009045
 21
9.2372893125
  0
LINE
  5
2F1
100
AcDbEntity
  8
0
100
AcDbLine
 62
7
  6
CONTINUOUS
 10
12.2978077088
 20
9.6314563539
 11
13.203673619
 21
10.5064556836
  0
LINE
  5
2F2
100
AcDbEntity
  8
0
100
AcDbLine
 62
4
  6
CONTINUOUS
 10
12.0635706818
 20
8.9995645766
 11
12.0780595698
 21
9.0082190251
  0
LINE
  5
2F3
100
AcDbEntity
  8
0
100
AcDbLine
 62
4
  6
CONTINUOUS
 10
12.1070373456
 20
8.9579131141
 11
12.0780595698
 21
8.9406042136
  0
LINE
  5
2F4
100
AcDbEntity
  8
0
100
AcDbLine
 62
4
  6
CONTINUOUS
 10
10.174150655
 20
8.6466673498
 11
10.1327538245
 21
8.6495382297
  0
LINE
  5
2F5
100
AcDbEntity
  8
0
100
AcDbLine
 62
4
  6
CONTINUOUS
 10
10.083077661
 20
8.6529832834
 11
10.0582395516
 21
8.6547058121
  0
LINE
  5
2F6
100
AcDbEntity
  8
0
100
AcDbLine
 62
4
  6
CONTINUOUS
 10
9.9947644446
 20
8.6591078257
 11
9.9616470022
 21
8.6614045282
  0
LINE
  5
2F7
100
AcDbEntity
  8
0
100
AcDbLine
 62
4
  6
CONTINUOUS
 10
9.5090417198
 20
8.6927928111
 11
9.4676449031
 21
8.6956636901
  0
LINE
  5
2F8
100
AcDbEntity
  8
0
100
AcDbLine
 62
4
  6
CONTINUOUS
 10
9.7712215983
 20
8.6746105748
 11
9.8208977894
 21
8.6711655192
  0
LINE
  5
2F9
100
AcDbEntity
  8
0
100
AcDbLine
 62
4
  6
CONTINUOUS
 10
10.2376258173
 20
8.6422653323
 11
10.2873019808
 21
8.6388202787
  0
LINE
  5
2FA
100
AcDbEntity
  8
0
100
AcDbLine
 62
4
  6
CONTINUOUS
 10
9.5835559996
 20
8.7207426879
 11
9.6277126078
 21
8.7176804167
  0
LINE
  5
2FB
100
AcDbEntity
  8
0
100
AcDbLine
 62
4
  6
CONTINUOUS
 10
10.2707432596
 20
8.7062035491
 11
10.2376258173
 21
8.7085002515
  0
LINE
  5
2FC
100
AcDbEntity
  8
0
100
AcDbLine
 62
4
  6
CONTINUOUS
 10
9.8043390682
 20
8.7385487897
 11
9.7712215983
 21
8.740845494
  0
LINE
  5
2FD
100
AcDbEntity
  8
0
100
AcDbLine
 62
4
  6
CONTINUOUS
 10
9.4676449031
 20
8.8115747935
 11
9.5090417198
 21
8.8087039145
  0
LINE
  5
2FE
100
AcDbEntity
  8
0
100
AcDbLine
 62
4
  6
CONTINUOUS
 10
9.671869216
 20
8.7974117893
 11
9.7381041283
 21
8.7928183826
  0
LINE
  5
2FF
100
AcDbEntity
  8
0
100
AcDbLine
 62
4
  6
CONTINUOUS
 10
9.7712215983
 20
8.7905216782
 11
9.8208977894
 21
8.7870766227
  0
LINE
  5
300
100
AcDbEntity
  8
0
100
AcDbLine
 62
4
  6
CONTINUOUS
 10
9.9616470022
 20
8.7773156316
 11
9.9947644446
 21
8.7750189292
  0
LINE
  5
301
100
AcDbEntity
  8
0
100
AcDbLine
 62
4
  6
CONTINUOUS
 10
10.0582395516
 20
8.7706169156
 11
10.083077661
 21
8.7688943868
  0
LINE
  5
302
100
AcDbEntity
  8
0
100
AcDbLine
 62
4
  6
CONTINUOUS
 10
10.1327538245
 20
8.7654493332
 11
10.174150655
 21
8.7625784532
  0
LINE
  5
303
100
AcDbEntity
  8
0
100
AcDbLine
 62
4
  6
CONTINUOUS
 10
10.2376258173
 20
8.7581764358
 11
10.2873019808
 21
8.7547313821
  0
LINE
  5
304
100
AcDbEntity
  8
0
100
AcDbLine
 62
4
  6
CONTINUOUS
 10
9.8760935437
 20
9.2584843082
 11
9.8595348225
 21
9.2679120243
  0
LINE
  5
305
100
AcDbEntity
  8
0
100
AcDbLine
 62
4
  6
CONTINUOUS
 10
10.0334014777
 20
9.2475749659
 11
10.0168427565
 21
9.257002682
  0
LINE
  5
306
100
AcDbEntity
  8
0
100
AcDbLine
 62
4
  6
CONTINUOUS
 10
10.3756152327
 20
9.2321217263
 11
10.3838945656
 21
9.2232681877
  0
LINE
  5
307
100
AcDbEntity
  8
0
100
AcDbLine
 62
4
  6
CONTINUOUS
 10
10.417012008
 20
9.3037651325
 11
10.4252913409
 21
9.2949115914
  0
LINE
  5
308
100
AcDbEntity
  8
0
100
AcDbLine
 62
4
  6
CONTINUOUS
 10
9.7850204767
 20
8.9286580469
 11
9.7519030188
 21
8.9309547504
  0
LINE
  5
309
100
AcDbEntity
  8
0
100
AcDbLine
 62
4
  6
CONTINUOUS
 10
10.3838945656
 20
9.2674247993
 11
10.3756152327
 21
9.2735185491
  0
LINE
  5
30A
100
AcDbEntity
  8
0
100
AcDbLine
 62
4
  6
CONTINUOUS
 10
10.4252913409
 20
9.2535147712
 11
10.417012008
 21
9.2596085209
  0
LINE
  5
30B
100
AcDbEntity
  8
0
100
AcDbLine
 62
4
  6
CONTINUOUS
 10
12.0563262379
 20
8.9904077173
 11
12.0635706818
 21
8.9995645766
  0
LINE
  5
30C
100
AcDbEntity
  8
0
100
AcDbLine
 62
4
  6
CONTINUOUS
 10
12.0780595698
 20
8.9406042136
 11
12.0635706818
 21
8.9222905053
  0
LINE
  5
30D
100
AcDbEntity
  8
0
100
AcDbLine
 62
4
  6
CONTINUOUS
 10
12.1142817896
 20
8.9670699735
 11
12.1070373456
 21
8.9579131141
  0
LINE
  5
30E
100
AcDbEntity
  8
0
100
AcDbLine
 62
4
  6
CONTINUOUS
 10
9.7519030188
 20
9.0468658538
 11
9.7850204767
 21
9.0445691503
  0
LINE
  5
30F
100
AcDbEntity
  8
0
100
AcDbLine
 62
4
  6
CONTINUOUS
 10
8.9170671164
 20
9.1115234929
 11
8.9750226681
 21
9.1075042617
  0
LINE
  5
310
100
AcDbEntity
  8
0
100
AcDbLine
 62
4
  6
CONTINUOUS
 10
12.0563262379
 20
8.8938151334
 11
12.1142817896
 21
8.8897959022
  0
LINE
  5
311
100
AcDbEntity
  8
0
100
AcDbLine
 62
4
  6
CONTINUOUS
 10
8.9388004483
 20
9.2259273846
 11
8.9532893362
 21
9.2249225768
  0
LINE
  5
312
100
AcDbEntity
  8
0
100
AcDbLine
 62
4
  6
CONTINUOUS
 10
12.0780595698
 20
9.0082190251
 11
12.0925484577
 21
9.0072142173
  0
LINE
  5
313
100
AcDbEntity
  8
0
100
AcDbLine
 62
4
  6
CONTINUOUS
 10
9.7877803273
 20
9.2370109687
 11
9.8043390485
 21
9.2358626175
  0
LINE
  5
314
100
AcDbEntity
  8
0
100
AcDbLine
 62
4
  6
CONTINUOUS
 10
10.417012008
 20
9.2596085209
 11
10.3838945656
 21
9.2674247993
  0
LINE
  5
315
100
AcDbEntity
  8
0
100
AcDbLine
 62
4
  6
CONTINUOUS
 10
10.3424977903
 20
9.2261390638
 11
10.3093802375
 21
9.2284357739
  0
LINE
  5
316
100
AcDbEntity
  8
0
100
AcDbLine
 62
4
  6
CONTINUOUS
 10
10.2072681328
 20
9.2355172724
 11
10.1907094117
 21
9.2366656236
  0
LINE
  5
317
100
AcDbEntity
  8
0
100
AcDbLine
 62
4
  6
CONTINUOUS
 10
10.06651892
 20
9.2452782635
 11
10.0334014777
 21
9.2475749659
  0
LINE
  5
318
100
AcDbEntity
  8
0
100
AcDbLine
 62
4
  6
CONTINUOUS
 10
9.909210986
 20
9.2561876057
 11
9.8760935437
 21
9.2584843082
  0
LINE
  5
319
100
AcDbEntity
  8
0
100
AcDbLine
 62
4
  6
CONTINUOUS
 10
9.3489739996
 20
9.2950401727
 11
9.3820914584
 21
9.2927434692
  0
LINE
  5
31A
100
AcDbEntity
  8
0
100
AcDbLine
 62
4
  6
CONTINUOUS
 10
9.4483263707
 20
9.2881500624
 11
9.4731644732
 21
9.2864275341
  0
LINE
  5
31B
100
AcDbEntity
  8
0
100
AcDbLine
 62
4
  6
CONTINUOUS
 10
10.1079157506
 20
9.2424073835
 11
10.1493125811
 21
9.2395365036
  0
LINE
  5
31C
100
AcDbEntity
  8
0
100
AcDbLine
 62
4
  6
CONTINUOUS
 10
10.3838945656
 20
9.2232681877
 11
10.417012008
 21
9.2209714853
  0
LINE
  5
31D
100
AcDbEntity
  8
0
100
AcDbLine
 62
4
  6
CONTINUOUS
 10
10.0334014777
 20
9.2889717895
 11
10.06651892
 21
9.2866750871
  0
LINE
  5
31E
100
AcDbEntity
  8
0
100
AcDbLine
 62
4
  6
CONTINUOUS
 10
10.0582395871
 20
9.3286460844
 11
10.0168427565
 21
9.3315169644
  0
LINE
  5
31F
100
AcDbEntity
  8
0
100
AcDbLine
 62
4
  6
CONTINUOUS
 10
9.7049866662
 20
9.3531442577
 11
9.7463834968
 21
9.3502733778
  0
LINE
  5
320
100
AcDbEntity
  8
0
100
AcDbLine
 62
4
  6
CONTINUOUS
 10
9.8760935437
 20
9.3412779555
 11
9.909210986
 21
9.338981253
  0
LINE
  5
321
100
AcDbEntity
  8
0
100
AcDbLine
 62
4
  6
CONTINUOUS
 10
9.9423284836
 20
9.3366845468
 11
9.975445926
 21
9.3343878443
  0
LINE
  5
322
100
AcDbEntity
  8
0
100
AcDbLine
 62
4
  6
CONTINUOUS
 10
10.3093802375
 20
9.3112294212
 11
10.3424977903
 21
9.3089327111
  0
LINE
  5
323
100
AcDbEntity
  8
0
100
AcDbLine
 62
4
  6
CONTINUOUS
 10
10.3838945656
 20
9.306061835
 11
10.417012008
 21
9.3037651325
  0
LINE
  5
324
100
AcDbEntity
  8
0
100
AcDbLine
 62
4
  6
CONTINUOUS
 10
9.3572533645
 20
9.4103771002
 11
9.3903708224
 21
9.4080803967
  0
LINE
  5
325
100
AcDbEntity
  8
0
100
AcDbLine
 62
4
  6
CONTINUOUS
 10
10.2569442963
 20
9.3479833222
 11
10.259704074
 21
9.347791931
  0
LINE
  5
326
100
AcDbEntity
  8
0
100
AcDbLine
 62
4
  6
CONTINUOUS
 10
12.0635706818
 20
8.9222905053
 11
12.0563262379
 21
8.8938151334
  0
LINE
  5
327
100
AcDbEntity
  8
0
100
AcDbLine
 62
4
  6
CONTINUOUS
 10
12.0925484577
 20
9.0072142173
 11
12.1070373456
 21
8.9965501532
  0
LINE
  5
328
100
AcDbEntity
  8
0
100
AcDbLine
 62
4
  6
CONTINUOUS
 10
12.1142817896
 20
8.9863884861
 11
12.1142817896
 21
8.9670699735
  0
LINE
  5
329
100
AcDbEntity
  8
0
100
AcDbLine
 62
4
  6
CONTINUOUS
 10
12.1142817896
 20
7.1337425632
 11
12.1142817896
 21
7.0178314598
  0
LINE
  5
32A
100
AcDbEntity
  8
0
100
AcDbLine
 62
7
  6
CONTINUOUS
 10
12.2978077088
 20
9.6314563539
 11
8.796326381
 21
9.8742849087
  0
LINE
  5
32B
100
AcDbEntity
  8
0
100
AcDbLine
 62
4
  6
CONTINUOUS
 10
12.1070373456
 20
8.9965501532
 11
12.1142817896
 21
8.9863884861
  0
LINE
  5
32C
100
AcDbEntity
  8
0
100
AcDbLine
 62
7
  6
CONTINUOUS
 10
12.2978077088
 20
6.2507157616
 11
12.2978077088
 21
9.6314563539
  0
LINE
  5
32D
100
AcDbEntity
  8
0
100
AcDbLine
 62
7
  6
CONTINUOUS
 10
13.203673619
 20
10.5064556836
 11
13.203673619
 21
7.1257150913
  0
LINE
  5
32E
100
AcDbEntity
  8
0
100
AcDbLine
 62
7
  6
CONTINUOUS
 10
13.203673619
 20
10.5064556836
 11
9.7021922912
 21
10.7492842384
  0
LINE
  5
32F
100
AcDbEntity
  8
0
100
AcDbLine
 62
7
  6
CONTINUOUS
 10
13.203673619
 20
7.1257150913
 11
12.2978077088
 21
6.2507157616
  0
ARC
  5
330
100
AcDbEntity
  8
0
100
AcDbCircle
 62
7
  6
CONTINUOUS
 10
11.1769113537
 20
8.5230875018
 40
0.4701271947
100
AcDbArc
 50
312.647489739
 51
313.2580020013
  0
ARC
  5
331
100
AcDbEntity
  8
0
100
AcDbCircle
 62
7
  6
CONTINUOUS
 10
10.0303574103
 20
7.5169005246
 40
0.4701271945
100
AcDbArc
 50
312.6474897388
 51
313.2580020015
  0
ARC
  5
332
100
AcDbEntity
  8
0
100
AcDbCircle
 62
7
  6
CONTINUOUS
 10
9.933242565
 20
7.6174402684
 40
0.4700888924
100
AcDbArc
 50
134.556684751
 51
135.3663488374
  0
ARC
  5
333
100
AcDbEntity
  8
0
100
AcDbCircle
 62
7
  6
CONTINUOUS
 10
11.0797965086
 20
8.6236272454
 40
0.4700888924
100
AcDbArc
 50
134.556684751
 51
135.3663488375
  0
ARC
  5
334
100
AcDbEntity
  8
0
100
AcDbCircle
 62
7
  6
CONTINUOUS
 10
10.0277711883
 20
7.5816941663
 40
0.454126938
100
AcDbArc
 50
0.000926186
 51
2.2949281796
  0
ARC
  5
335
100
AcDbEntity
  8
0
100
AcDbCircle
 62
7
  6
CONTINUOUS
 10
11.1743251319
 20
8.5878811433
 40
0.454126938
100
AcDbArc
 50
0.000926186
 51
2.2949281796
  0
ARC
  5
336
100
AcDbEntity
  8
0
100
AcDbCircle
 62
7
  6
CONTINUOUS
 10
10.374198379
 20
7.985536962
 40
0.4445269571
100
AcDbArc
 50
170.0390362826
 51
180.0318263578
  0
ARC
  5
337
100
AcDbEntity
  8
0
100
AcDbCircle
 62
7
  6
CONTINUOUS
 10
11.5207523226
 20
8.991723939
 40
0.4445269571
100
AcDbArc
 50
170.0390362826
 51
180.0318263578
  0
ARC
  5
338
100
AcDbEntity
  8
0
100
AcDbCircle
 62
7
  6
CONTINUOUS
 10
10.3762929577
 20
7.9866530449
 40
0.4304504076
100
AcDbArc
 50
169.6143884174
 51
180.0321356943
  0
ARC
  5
339
100
AcDbEntity
  8
0
100
AcDbCircle
 62
7
  6
CONTINUOUS
 10
11.5228469013
 20
8.9928400219
 40
0.4304504076
100
AcDbArc
 50
169.6143884174
 51
180.0321356943
  0
ARC
  5
33A
100
AcDbEntity
  8
0
100
AcDbCircle
 62
7
  6
CONTINUOUS
 10
11.5302138014
 20
8.9984966547
 40
0.4158969953
100
AcDbArc
 50
169.8099589814
 51
180.0309516171
  0
ARC
  5
33B
100
AcDbEntity
  8
0
100
AcDbCircle
 62
7
  6
CONTINUOUS
 10
10.3836598578
 20
7.9923096776
 40
0.4158969953
100
AcDbArc
 50
169.8099589814
 51
180.0309516171
  0
SPLINE
  5
33C
100
AcDbEntity
  8
0
100
AcDbSpline
 62
7
  6
CONTINUOUS
 70
0
 71
3
 72
54
 73
50
 74
0
 42
0.0000001
 43
0.0000001
 44
0.0000000001
 40
0.0
 40
0.0
 40
0.0
 40
0.0
 40
0.0417740106
 40
0.0840368515
 40
0.1266583734
 40
0.1695063147
 40
0.2124478814
 40
0.2553497884
 40
0.2980789417
 40
0.340502919
 40
0.3824905067
 40
0.4239122259
 40
0.4646408671
 40
0.5045520317
 40
0.5435246831
 40
0.5814417135
 40
0.6181905344
 40
0.6536637003
 40
0.6877595809
 40
0.704261357
 40
0.7203837372
 40
0.736116
 40
0.7514479644
 40
0.7663699709
 40
0.7808730136
 40
0.7949486603
 40
0.8085892482
 40
0.8217877894
 40
0.8345381805
 40
0.8468351604
 40
0.8586744859
 40
0.8700529987
 40
0.8809687469
 40
0.891421194
 40
0.9014113064
 40
0.910941912
 40
0.9200178165
 40
0.9286462958
 40
0.9368373422
 40
0.9446042644
 40
0.9519641574
 40
0.9589385856
 40
0.9655542762
 40
0.9718437871
 40
0.9778461898
 40
0.9836073681
 40
0.9891800557
 40
0.994623083
 40
1.0
 40
1.0
 40
1.0
 40
1.0
 10
12.8133748151
 20
7.5031035068
 30
0.0
 10
12.8133748151
 20
7.5160693398
 30
0.0
 10
12.8135770947
 20
7.5421531366
 30
0.0
 10
12.814471343
 20
7.5814566025
 30
0.0
 10
12.8159555686
 20
7.6210758381
 30
0.0
 10
12.8180249138
 20
7.6608797249
 30
0.0
 10
12.8206725354
 20
7.7007365489
 30
0.0
 10
12.8238896838
 20
7.7405144613
 30
0.0
 10
12.8276657013
 20
7.780081858
 30
0.0
 10
12.8319880707
 20
7.8193078414
 30
0.0
 10
12.8368424515
 20
7.8580626495
 30
0.0
 10
12.8422127286
 20
7.89621809
 30
0.0
 10
12.8480810638
 20
7.9336479692
 30
0.0
 10
12.8544279534
 20
7.970228513
 30
0.0
 10
12.8612322912
 20
8.0058387889
 30
0.0
 10
12.8684714402
 20
8.0403610928
 30
0.0
 10
12.8761212962
 20
8.0736814234
 30
0.0
 10
12.8841564
 20
8.105689608
 30
0.0
 10
12.8912257572
 20
8.1314546319
 30
0.0
 10
12.8970642722
 20
8.1513235999
 30
0.0
 10
12.9014749021
 20
8.1656702199
 30
0.0
 10
12.9059612927
 20
8.1796123995
 30
0.0
 10
12.9105197308
 20
8.1931386365
 30
0.0
 10
12.915146463
 20
8.2062377533
 30
0.0
 10
12.9198376097
 20
8.2188989455
 30
0.0
 10
12.924589336
 20
8.2311117591
 30
0.0
 10
12.9293976478
 20
8.2428661369
 30
0.0
 10
12.9342586177
 20
8.254152386
 30
0.0
 10
12.9391681773
 20
8.2649612303
 30
0.0
 10
12.9441223022
 20
8.2752837799
 30
0.0
 10
12.9491168883
 20
8.2851115699
 30
0.0
 10
12.954147821
 20
8.294436555
 30
0.0
 10
12.9592109955
 20
8.3032511092
 30
0.0
 10
12.9643022331
 20
8.3115480707
 30
0.0
 10
12.9694174597
 20
8.3193206786
 30
0.0
 10
12.9745524873
 20
8.3265626822
 30
0.0
 10
12.9797033059
 20
8.3332682087
 30
0.0
 10
12.9848658085
 20
8.3394319171
 30
0.0
 10
12.9900360964
 20
8.3450488247
 30
0.0
 10
12.995210262
 20
8.3501144374
 30
0.0
 10
13.0003845857
 20
8.3546245942
 30
0.0
 10
13.0055554537
 20
8.358575465
 30
0.0
 10
13.0107193462
 20
8.3619634911
 30
0.0
 10
13.0158728433
 20
8.3647851575
 30
0.0
 10
13.0210123638
 20
8.3670371445
 30
0.0
 10
13.0261340135
 20
8.3687159613
 30
0.0
 10
13.0312335103
 20
8.3698185011
 30
0.0
 10
13.0363047074
 20
8.3703419542
 30
0.0
 10
13.0396715526
 20
8.370303568
 30
0.0
 10
13.0413364438
 20
8.3701881149
 30
0.0
  0
SPLINE
  5
33D
100
AcDbEntity
  8
0
100
AcDbSpline
 62
7
  6
CONTINUOUS
 70
0
 71
3
 72
54
 73
50
 74
0
 42
0.0000001
 43
0.0000001
 44
0.0000000001
 40
0.0
 40
0.0
 40
0.0
 40
0.0
 40
0.0417740106
 40
0.0840368515
 40
0.1266583734
 40
0.1695063147
 40
0.2124478814
 40
0.2553497884
 40
0.2980789417
 40
0.340502919
 40
0.3824905067
 40
0.4239122259
 40
0.4646408671
 40
0.5045520317
 40
0.5435246831
 40
0.5814417135
 40
0.6181905344
 40
0.6536637003
 40
0.6877595809
 40
0.704261357
 40
0.7203837372
 40
0.736116
 40
0.7514479644
 40
0.7663699709
 40
0.7808730136
 40
0.7949486603
 40
0.8085892482
 40
0.8217877894
 40
0.8345381805
 40
0.8468351604
 40
0.8586744859
 40
0.8700529987
 40
0.8809687469
 40
0.891421194
 40
0.9014113064
 40
0.910941912
 40
0.9200178165
 40
0.9286462958
 40
0.9368373422
 40
0.9446042644
 40
0.9519641574
 40
0.9589385856
 40
0.9655542762
 40
0.9718437871
 40
0.9778461898
 40
0.9836073681
 40
0.9891800557
 40
0.994623083
 40
1.0
 40
1.0
 40
1.0
 40
1.0
 10
12.8133748151
 20
9.3750679492
 30
0.0
 10
12.8133748151
 20
9.3880337822
 30
0.0
 10
12.8135770947
 20
9.414117579
 30
0.0
 10
12.814471343
 20
9.4534210449
 30
0.0
 10
12.8159555686
 20
9.4930402805
 30
0.0
 10
12.8180249138
 20
9.5328441673
 30
0.0
 10
12.8206725354
 20
9.5727009913
 30
0.0
 10
12.8238896838
 20
9.6124789037
 30
0.0
 10
12.8276657013
 20
9.6520463004
 30
0.0
 10
12.8319880707
 20
9.6912722838
 30
0.0
 10
12.8368424515
 20
9.7300270919
 30
0.0
 10
12.8422127286
 20
9.7681825324
 30
0.0
 10
12.8480810638
 20
9.8056124116
 30
0.0
 10
12.8544279534
 20
9.8421929554
 30
0.0
 10
12.8612322912
 20
9.8778032313
 30
0.0
 10
12.8684714402
 20
9.9123255352
 30
0.0
 10
12.8761212962
 20
9.9456458659
 30
0.0
 10
12.8841564
 20
9.9776540504
 30
0.0
 10
12.8912257572
 20
10.0034190743
 30
0.0
 10
12.8970642722
 20
10.0232880423
 30
0.0
 10
12.9014749021
 20
10.0376346623
 30
0.0
 10
12.9059612927
 20
10.0515768419
 30
0.0
 10
12.9105197308
 20
10.0651030789
 30
0.0
 10
12.915146463
 20
10.0782021957
 30
0.0
 10
12.9198376097
 20
10.0908633879
 30
0.0
 10
12.924589336
 20
10.1030762015
 30
0.0
 10
12.9293976478
 20
10.1148305793
 30
0.0
 10
12.9342586177
 20
10.1261168284
 30
0.0
 10
12.9391681773
 20
10.1369256727
 30
0.0
 10
12.9441223022
 20
10.1472482223
 30
0.0
 10
12.9491168883
 20
10.1570760124
 30
0.0
 10
12.954147821
 20
10.1664009974
 30
0.0
 10
12.9592109955
 20
10.1752155516
 30
0.0
 10
12.9643022331
 20
10.1835125131
 30
0.0
 10
12.9694174597
 20
10.191285121
 30
0.0
 10
12.9745524873
 20
10.1985271246
 30
0.0
 10
12.9797033059
 20
10.2052326511
 30
0.0
 10
12.9848658085
 20
10.2113963595
 30
0.0
 10
12.9900360964
 20
10.2170132671
 30
0.0
 10
12.995210262
 20
10.2220788798
 30
0.0
 10
13.0003845857
 20
10.2265890366
 30
0.0
 10
13.0055554537
 20
10.2305399074
 30
0.0
 10
13.0107193462
 20
10.2339279335
 30
0.0
 10
13.0158728433
 20
10.2367495999
 30
0.0
 10
13.0210123638
 20
10.2390015869
 30
0.0
 10
13.0261340135
 20
10.2406804037
 30
0.0
 10
13.0312335103
 20
10.2417829435
 30
0.0
 10
13.0363047074
 20
10.2423063966
 30
0.0
 10
13.0396715526
 20
10.2422680104
 30
0.0
 10
13.0413364438
 20
10.2421525573
 30
0.0
  0
SPLINE
  5
33E
100
AcDbEntity
  8
0
100
AcDbSpline
 62
7
  6
CONTINUOUS
 70
0
 71
3
 72
23
 73
19
 74
0
 42
0.0000001
 43
0.0000001
 44
0.0000000001
 40
0.0
 40
0.0
 40
0.0
 40
0.0
 40
0.0637775561
 40
0.1273446565
 40
0.1907020307
 40
0.2538561431
 40
0.3168131834
 40
0.3795821015
 40
0.4421733894
 40
0.5045993415
 40
0.5668738676
 40
0.6290123791
 40
0.6910316472
 40
0.7529496401
 40
0.8147853492
 40
0.8765585998
 40
0.9382898533
 40
1.0
 40
1.0
 40
1.0
 40
1.0
 10
10.4953901077
 20
7.5232337614
 30
0.0
 10
10.4953901077
 20
7.5149021483
 30
0.0
 10
10.4949913457
 20
7.4982635909
 30
0.0
 10
10.4931914041
 20
7.4734069237
 30
0.0
 10
10.4901945787
 20
7.4487473594
 30
0.0
 10
10.4860079004
 20
7.424342633
 30
0.0
 10
10.480640833
 20
7.4002486663
 30
0.0
 10
10.474105757
 20
7.3765211107
 30
0.0
 10
10.4664176501
 20
7.353214644
 30
0.0
 10
10.45759419
 20
7.3303830212
 30
0.0
 10
10.447655678
 20
7.3080788955
 30
0.0
 10
10.4366249915
 20
7.2863537107
 30
0.0
 10
10.4245275348
 20
7.2652575843
 30
0.0
 10
10.4113911627
 20
7.2448391736
 30
0.0
 10
10.3972461882
 20
7.2251456292
 30
0.0
 10
10.3821250478
 20
7.2062222363
 30
0.0
 10
10.3660632149
 20
7.1881132347
 30
0.0
 10
10.3547507277
 20
7.1766092557
 30
0.0
 10
10.3489524238
 20
7.1710085383
 30
0.0
  0
SPLINE
  5
33F
100
AcDbEntity
  8
0
100
AcDbSpline
 62
7
  6
CONTINUOUS
 70
0
 71
3
 72
23
 73
19
 74
0
 42
0.0000001
 43
0.0000001
 44
0.0000000001
 40
0.0
 40
0.0
 40
0.0
 40
0.0
 40
0.0637775561
 40
0.1273446565
 40
0.1907020307
 40
0.2538561431
 40
0.3168131834
 40
0.3795821015
 40
0.4421733894
 40
0.5045993415
 40
0.5668738676
 40
0.6290123791
 40
0.6910316472
 40
0.7529496401
 40
0.8147853492
 40
0.8765585998
 40
0.9382898533
 40
1.0
 40
1.0
 40
1.0
 40
1.0
 10
11.6419440513
 20
8.5294207384
 30
0.0
 10
11.6419440513
 20
8.5210891253
 30
0.0
 10
11.6415452893
 20
8.5044505679
 30
0.0
 10
11.6397453477
 20
8.4795939007
 30
0.0
 10
11.6367485223
 20
8.4549343365
 30
0.0
 10
11.632561844
 20
8.43052961
 30
0.0
 10
11.6271947766
 20
8.4064356433
 30
0.0
 10
11.6206597006
 20
8.3827080877
 30
0.0
 10
11.6129715937
 20
8.359401621
 30
0.0
 10
11.6041481336
 20
8.3365699982
 30
0.0
 10
11.5942096216
 20
8.3142658725
 30
0.0
 10
11.5831789351
 20
8.2925406877
 30
0.0
 10
11.5710814784
 20
8.2714445613
 30
0.0
 10
11.5579451063
 20
8.2510261507
 30
0.0
 10
11.5438001318
 20
8.2313326062
 30
0.0
 10
11.5286789914
 20
8.2124092134
 30
0.0
 10
11.5126171585
 20
8.1943002117
 30
0.0
 10
11.5013046713
 20
8.1827962327
 30
0.0
 10
11.4955063674
 20
8.1771955153
 30
0.0
  0
SPLINE
  5
340
100
AcDbEntity
  8
0
100
AcDbSpline
 62
7
  6
CONTINUOUS
 70
0
 71
3
 72
33
 73
29
 74
0
 42
0.0000001
 43
0.0000001
 44
0.0000000001
 40
0.0
 40
0.0
 40
0.0
 40
0.0
 40
0.0958348039
 40
0.1891069742
 40
0.2792500435
 40
0.36572131
 40
0.4480125246
 40
0.5256540669
 40
0.5625988158
 40
0.598226802
 40
0.632494146
 40
0.6653609288
 40
0.6967920316
 40
0.726757616
 40
0.7552336203
 40
0.7822031337
 40
0.8076567456
 40
0.8315949344
 40
0.8540288219
 40
0.8749836671
 40
0.8945009457
 40
0.9126431418
 40
0.9294980666
 40
0.945184889
 40
0.9598599849
 40
0.9737213022
 40
0.9870092614
 40
1.0
 40
1.0
 40
1.0
 40
1.0
 10
12.1498874949
 20
9.8635763906
 30
0.0
 10
12.1454075757
 20
9.8638870741
 30
0.0
 10
12.1365739911
 20
9.8645986637
 30
0.0
 10
12.1235581935
 20
9.865956993
 30
0.0
 10
12.1110154626
 20
9.8675847839
 30
0.0
 10
12.0990293978
 20
9.869470971
 30
0.0
 10
12.0876799607
 20
9.8716027295
 30
0.0
 10
12.0786719348
 20
9.873603361
 30
0.0
 10
12.0718463874
 20
9.8753245446
 30
0.0
 10
12.0670172172
 20
9.8766461254
 30
0.0
 10
12.062400928
 20
9.8780175175
 30
0.0
 10
12.0580051886
 20
9.879436466
 30
0.0
 10
12.053837294
 20
9.880900577
 30
0.0
 10
12.0499041393
 20
9.8824073889
 30
0.0
 10
12.0462122189
 20
9.8839544179
 30
0.0
 10
12.0427675816
 20
9.8855390483
 30
0.0
 10
12.0395758676
 20
9.8871587381
 30
0.0
 10
12.0366422178
 20
9.8888107854
 30
0.0
 10
12.0339713675
 20
9.8904926482
 30
0.0
 10
12.0315675185
 20
9.8922016705
 30
0.0
 10
12.0294344925
 20
9.8939354276
 30
0.0
 10
12.0275756449
 20
9.8956915301
 30
0.0
 10
12.0259940781
 20
9.8974678563
 30
0.0
 10
12.0246927692
 20
9.8992624688
 30
0.0
 10
12.0236747955
 20
9.901073398
 30
0.0
 10
12.0229436665
 20
9.9028985896
 30
0.0
 10
12.0225029011
 20
9.9047341232
 30
0.0
 10
12.022404348
 20
9.9059676306
 30
0.0
 10
12.022404348
 20
9.9065763577
 30
0.0
  0
SPLINE
  5
341
100
AcDbEntity
  8
0
100
AcDbSpline
 62
7
  6
CONTINUOUS
 70
0
 71
3
 72
33
 73
29
 74
0
 42
0.0000001
 43
0.0000001
 44
0.0000000001
 40
0.0
 40
0.0
 40
0.0
 40
0.0
 40
0.0958348039
 40
0.1891069742
 40
0.2792500435
 40
0.36572131
 40
0.4480125246
 40
0.5256540669
 40
0.5625988158
 40
0.598226802
 40
0.632494146
 40
0.6653609288
 40
0.6967920316
 40
0.726757616
 40
0.7552336203
 40
0.7822031337
 40
0.8076567456
 40
0.8315949344
 40
0.8540288219
 40
0.8749836671
 40
0.8945009457
 40
0.9126431418
 40
0.9294980666
 40
0.945184889
 40
0.9598599849
 40
0.9737213022
 40
0.9870092614
 40
1.0
 40
1.0
 40
1.0
 40
1.0
 10
9.3728505798
 20
10.0561645548
 30
0.0
 10
9.3683706605
 20
10.0564752383
 30
0.0
 10
9.3595370759
 20
10.0571868279
 30
0.0
 10
9.3465212783
 20
10.0585451571
 30
0.0
 10
9.3339785475
 20
10.0601729481
 30
0.0
 10
9.3219924827
 20
10.0620591352
 30
0.0
 10
9.3106430455
 20
10.0641908936
 30
0.0
 10
9.3016350197
 20
10.0661915252
 30
0.0
 10
9.2948094723
 20
10.0679127088
 30
0.0
 10
9.2899803021
 20
10.0692342896
 30
0.0
 10
9.2853640129
 20
10.0706056817
 30
0.0
 10
9.2809682735
 20
10.0720246302
 30
0.0
 10
9.2768003789
 20
10.0734887411
 30
0.0
 10
9.2728672242
 20
10.0749955531
 30
0.0
 10
9.2691753038
 20
10.0765425821
 30
0.0
 10
9.2657306664
 20
10.0781272125
 30
0.0
 10
9.2625389525
 20
10.0797469023
 30
0.0
 10
9.2596053027
 20
10.0813989496
 30
0.0
 10
9.2569344524
 20
10.0830808124
 30
0.0
 10
9.2545306033
 20
10.0847898346
 30
0.0
 10
9.2523975773
 20
10.0865235918
 30
0.0
 10
9.2505387298
 20
10.0882796943
 30
0.0
 10
9.2489571629
 20
10.0900560205
 30
0.0
 10
9.2476558541
 20
10.091850633
 30
0.0
 10
9.2466378804
 20
10.0936615622
 30
0.0
 10
9.2459067514
 20
10.0954867538
 30
0.0
 10
9.2454659859
 20
10.0973222873
 30
0.0
 10
9.2453674328
 20
10.0985557948
 30
0.0
 10
9.2453674328
 20
10.0991645219
 30
0.0
  0
SPLINE
  5
342
100
AcDbEntity
  8
0
100
AcDbSpline
 62
7
  6
CONTINUOUS
 70
0
 71
3
 72
15
 73
11
 74
0
 42
0.0000001
 43
0.0000001
 44
0.0000000001
 40
0.0
 40
0.0
 40
0.0
 40
0.0
 40
0.1320516139
 40
0.2596745096
 40
0.3839110141
 40
0.5059743056
 40
0.6271965709
 40
0.7489845951
 40
0.8727812176
 40
1.0
 40
1.0
 40
1.0
 40
1.0
 10
11.2429673737
 20
8.3934836576
 30
0.0
 10
11.2442236762
 20
8.3946971527
 30
0.0
 10
11.246595657
 20
8.3971886836
 30
0.0
 10
11.2497477379
 20
8.4011794923
 30
0.0
 10
11.2524211415
 20
8.4053507915
 30
0.0
 10
11.2546109664
 20
8.4097009942
 30
0.0
 10
11.2563137436
 20
8.4142296118
 30
0.0
 10
11.2575269692
 20
8.4189369049
 30
0.0
 10
11.258249987
 20
8.4238232814
 30
0.0
 10
11.2584031793
 20
8.4271461544
 30
0.0
 10
11.2584029363
 20
8.4288289025
 30
0.0
  0
SPLINE
  5
343
100
AcDbEntity
  8
0
100
AcDbSpline
 62
7
  6
CONTINUOUS
 70
0
 71
3
 72
49
 73
45
 74
0
 42
0.0000001
 43
0.0000001
 44
0.0000000001
 40
0.0
 40
0.0
 40
0.0
 40
0.0
 40
0.038133545
 40
0.0762616245
 40
0.1143846397
 40
0.1524972612
 40
0.1905884572
 40
0.2096233091
 40
0.228646033
 40
0.2666380564
 40
0.3045398178
 40
0.3234482362
 40
0.3423197962
 40
0.3799233028
 40
0.4173014428
 40
0.4543901746
 40
0.4911147859
 40
0.5273899562
 40
0.5631206235
 40
0.5982039224
 40
0.6325319218
 40
0.6659949954
 40
0.69848527
 40
0.7298997749
 40
0.7451755784
 40
0.7601473143
 40
0.7891330428
 40
0.8167853112
 40
0.8430391875
 40
0.8556264975
 40
0.8678451692
 40
0.8796907142
 40
0.8911593932
 40
0.9022486008
 40
0.9129568449
 40
0.9232839088
 40
0.9332311496
 40
0.9428015056
 40
0.9520001059
 40
0.9608341765
 40
0.9693138418
 40
0.9774520878
 40
0.9852660968
 40
1.0
 40
1.0
 40
1.0
 40
1.0
 10
10.8139709188
 20
8.7381600588
 30
0.0
 10
10.8139709188
 20
8.7297848784
 30
0.0
 10
10.8144720541
 20
8.7130313771
 30
0.0
 10
10.8167265418
 20
8.6879963483
 30
0.0
 10
10.820480057
 20
8.6631452903
 30
0.0
 10
10.8257259707
 20
8.6385747532
 30
0.0
 10
10.8313349269
 20
8.6184089585
 30
0.0
 10
10.8365568466
 20
8.6025182876
 30
0.0
 10
10.8422612446
 20
8.586817499
 30
0.0
 10
10.8502940846
 20
8.5675652952
 30
0.0
 10
10.8595191291
 20
8.5488824145
 30
0.0
 10
10.8675913606
 20
8.5343493739
 30
0.0
 10
10.8760977508
 20
8.5201425248
 30
0.0
 10
10.8875511511
 20
8.5029850965
 30
0.0
 10
10.9025619198
 20
8.4834554201
 30
0.0
 10
10.9187338302
 20
8.465131268
 30
0.0
 10
10.9359542466
 20
8.4481315911
 30
0.0
 10
10.9540882276
 20
8.4325639025
 30
0.0
 10
10.9729786748
 20
8.4185196588
 30
0.0
 10
10.9924490826
 20
8.4060685707
 30
0.0
 10
11.0123080437
 20
8.3952541931
 30
0.0
 10
11.0323557535
 20
8.3860911311
 30
0.0
 10
11.0523899229
 20
8.3785647733
 30
0.0
 10
11.0690643225
 20
8.373575162
 30
0.0
 10
11.0822230188
 20
8.3703635329
 30
0.0
 10
11.0949602321
 20
8.3677068166
 30
0.0
 10
11.1105099797
 20
8.3652647744
 30
0.0
 10
11.1286561249
 20
8.363646087
 30
0.0
 10
11.1432686198
 20
8.3633244374
 30
0.0
 10
11.1544796821
 20
8.363657217
 30
0.0
 10
11.1625145036
 20
8.3641731729
 30
0.0
 10
11.1702817803
 20
8.3649458826
 30
0.0
 10
11.1777706703
 20
8.365962683
 30
0.0
 10
11.184971065
 20
8.3672113168
 30
0.0
 10
11.1918737052
 20
8.3686801424
 30
0.0
 10
11.198470121
 20
8.3703580037
 30
0.0
 10
11.2047524911
 20
8.372234579
 30
0.0
 10
11.2107137569
 20
8.3743000487
 30
0.0
 10
11.2163473226
 20
8.3765456089
 30
0.0
 10
11.221647376
 20
8.3789630199
 30
0.0
 10
11.2266081914
 20
8.3815449731
 30
0.0
 10
11.2312256102
 20
8.3842853981
 30
0.0
 10
11.23680641
 20
8.3880674321
 30
0.0
 10
11.2406398858
 20
8.3912354768
 30
0.0
 10
11.2429673737
 20
8.3934836576
 30
0.0
  0
SPLINE
  5
344
100
AcDbEntity
  8
0
100
AcDbSpline
 62
7
  6
CONTINUOUS
 70
0
 71
3
 72
23
 73
19
 74
0
 42
0.0000001
 43
0.0000001
 44
0.0000000001
 40
0.0
 40
0.0
 40
0.0
 40
0.0
 40
0.0637774724
 40
0.127344696
 40
0.1907020124
 40
0.2538561402
 40
0.3168131804
 40
0.3795820984
 40
0.4421733882
 40
0.5045993399
 40
0.5668738668
 40
0.6290123797
 40
0.6910316501
 40
0.7529496455
 40
0.8147853558
 40
0.8765586055
 40
0.9382898564
 40
1.0
 40
1.0
 40
1.0
 40
1.0
 10
10.4854212505
 20
7.5371045841
 30
0.0
 10
10.4854212505
 20
7.5291355856
 30
0.0
 10
10.4850398402
 20
7.513221158
 30
0.0
 10
10.4833182469
 20
7.4894462909
 30
0.0
 10
10.4804518495
 20
7.4658599369
 30
0.0
 10
10.4764474003
 20
7.4425173424
 30
0.0
 10
10.4713139327
 20
7.4194719748
 30
0.0
 10
10.4650632929
 20
7.3967770717
 30
0.0
 10
10.4577098003
 20
7.3744849311
 30
0.0
 10
10.4492703726
 20
7.3526469653
 30
0.0
 10
10.4397644291
 20
7.3313135346
 30
0.0
 10
10.4292138494
 20
7.3105338435
 30
0.0
 10
10.41764293
 20
7.2903558289
 30
0.0
 10
10.4050783106
 20
7.2708260319
 30
0.0
 10
10.3915489782
 20
7.2519895561
 30
0.0
 10
10.3770859644
 20
7.2338897114
 30
0.0
 10
10.3617232
 20
7.2165688125
 30
0.0
 10
10.3509030953
 20
7.2055654583
 30
0.0
 10
10.3453571469
 20
7.200208488
 30
0.0
  0
SPLINE
  5
345
100
AcDbEntity
  8
0
100
AcDbSpline
 62
7
  6
CONTINUOUS
 70
0
 71
3
 72
23
 73
19
 74
0
 42
0.0000001
 43
0.0000001
 44
0.0000000001
 40
0.0
 40
0.0
 40
0.0
 40
0.0
 40
0.0637772815
 40
0.1273447908
 40
0.1907019866
 40
0.2538561396
 40
0.3168131864
 40
0.379582096
 40
0.4421733877
 40
0.5045993365
 40
0.5668738645
 40
0.6290123802
 40
0.6910316524
 40
0.7529496465
 40
0.8147853538
 40
0.8765586016
 40
0.9382898535
 40
1.0
 40
1.0
 40
1.0
 40
1.0
 10
10.4818981263
 20
7.5817015072
 30
0.0
 10
10.4818981263
 20
7.5744731149
 30
0.0
 10
10.4815521529
 20
7.5600376558
 30
0.0
 10
10.4799905667
 20
7.5384722652
 30
0.0
 10
10.4773905404
 20
7.5170778464
 30
0.0
 10
10.4737582493
 20
7.4959045625
 30
0.0
 10
10.4691018543
 20
7.4750008711
 30
0.0
 10
10.4634320946
 20
7.4544150813
 30
0.0
 10
10.4567619799
 20
7.4341946239
 30
0.0
 10
10.4491068582
 20
7.4143861294
 30
0.0
 10
10.4404843419
 20
7.3950352786
 30
0.0
 10
10.4309142702
 20
7.3761867055
 30
0.0
 10
10.4204186687
 20
7.3578839004
 30
0.0
 10
10.4090217044
 20
7.3401690801
 30
0.0
 10
10.3967496922
 20
7.3230831425
 30
0.0
 10
10.3836307802
 20
7.3066653695
 30
0.0
 10
10.3696957423
 20
7.2909541425
 30
0.0
 10
10.3598811776
 20
7.2809733718
 30
0.0
 10
10.3548506373
 20
7.276114236
 30
0.0
  0
SPLINE
  5
346
100
AcDbEntity
  8
0
100
AcDbSpline
 62
7
  6
CONTINUOUS
 70
0
 71
3
 72
44
 73
40
 74
0
 42
0.0000001
 43
0.0000001
 44
0.0000000001
 40
0.0
 40
0.0
 40
0.0
 40
0.0
 40
0.0310744349
 40
0.0623061033
 40
0.0936903779
 40
0.1252186236
 40
0.1568794503
 40
0.1886586803
 40
0.2205397066
 40
0.2525038554
 40
0.2845307769
 40
0.3165988658
 40
0.3486856972
 40
0.3807684736
 40
0.4128244778
 40
0.4448315246
 40
0.4767684059
 40
0.5086153213
 40
0.5403542862
 40
0.5719695169
 40
0.6034477806
 40
0.6347786986
 40
0.6659550044
 40
0.696972748
 40
0.7278314278
 40
0.7585340529
 40
0.7890871347
 40
0.8195005891
 40
0.8497875544
 40
0.8648914079
 40
0.8799699038
 40
0.8950254603
 40
0.9100606302
 40
0.9250780906
 40
0.9400806268
 40
0.9550711117
 40
0.9700524936
 40
0.9850277766
 40
1.0
 40
1.0
 40
1.0
 40
1.0
 10
10.4854212505
 20
7.5371045841
 30
0.0
 10
10.4854212505
 20
7.5494684328
 30
0.0
 10
10.4844989286
 20
7.574268204
 30
0.0
 10
10.4803810011
 20
7.6113491295
 30
0.0
 10
10.4735483394
 20
7.6482123216
 30
0.0
 10
10.464038693
 20
7.6846527289
 30
0.0
 10
10.4519047063
 20
7.7204709439
 30
0.0
 10
10.4372133252
 20
7.7554701955
 30
0.0
 10
10.4200454296
 20
7.7894584569
 30
0.0
 10
10.4004954454
 20
7.8222491993
 30
0.0
 10
10.3786708788
 20
7.8536625295
 30
0.0
 10
10.3546916151
 20
7.8835260778
 30
0.0
 10
10.328689291
 20
7.9116759341
 30
0.0
 10
10.3008066758
 20
7.9379576262
 30
0.0
 10
10.2711967975
 20
7.9622268854
 30
0.0
 10
10.2400221029
 20
7.9843503964
 30
0.0
 10
10.2074536516
 20
8.0042066143
 30
0.0
 10
10.1736701578
 20
8.0216864105
 30
0.0
 10
10.1388569806
 20
8.0366935868
 30
0.0
 10
10.1032051612
 20
8.0491454554
 30
0.0
 10
10.066910407
 20
8.0589733732
 30
0.0
 10
10.0301719842
 20
8.0661229994
 30
0.0
 10
9.9931916584
 20
8.0705546037
 30
0.0
 10
9.9561726296
 20
8.072243442
 30
0.0
 10
9.9193183588
 20
8.0711797767
 30
0.0
 10
9.8828316344
 20
8.0673689791
 30
0.0
 10
9.8469128765
 20
8.0608313787
 30
0.0
 10
9.8117611839
 20
8.0516031363
 30
0.0
 10
9.7832369195
 20
8.0417012238
 30
0.0
 10
9.7610039489
 20
8.0324928616
 30
0.0
 10
9.7446523492
 20
8.0249582979
 30
0.0
 10
9.7286336016
 20
8.0168003642
 30
0.0
 10
9.7129694527
 20
8.0080301086
 30
0.0
 10
9.6976815173
 20
7.9986596869
 30
0.0
 10
9.6827908088
 20
7.9887019658
 30
0.0
 10
9.6683178866
 20
7.9781706101
 30
0.0
 10
9.6542825488
 20
7.9670801076
 30
0.0
 10
9.6407043958
 20
7.9554459498
 30
0.0
 10
9.6319686078
 20
7.9473371357
 30
0.0
 10
9.6276839163
 20
7.9431984449
 30
0.0
  0
SPLINE
  5
347
100
AcDbEntity
  8
0
100
AcDbSpline
 62
7
  6
CONTINUOUS
 70
0
 71
3
 72
23
 73
19
 74
0
 42
0.0000001
 43
0.0000001
 44
0.0000000001
 40
0.0
 40
0.0
 40
0.0
 40
0.0
 40
0.0638791805
 40
0.1275345516
 40
0.1909676692
 40
0.2541823925
 40
0.3171848698
 40
0.3799834959
 40
0.4425888439
 40
0.5050135722
 40
0.5672723046
 40
0.6293814867
 40
0.6913592194
 40
0.7532250695
 40
0.8149998588
 40
0.8767054351
 40
0.9383644294
 40
1.0
 40
1.0
 40
1.0
 40
1.0
 10
10.0325313528
 20
8.0653903628
 30
0.0
 10
10.024911657
 20
8.0659721517
 30
0.0
 10
10.0096669419
 20
8.0667517625
 30
0.0
 10
9.9868120814
 20
8.0667613689
 30
0.0
 10
9.964065166
 20
8.0656092675
 30
0.0
 10
9.9414852059
 20
8.063298277
 30
0.0
 10
9.919129837
 20
8.0598342778
 30
0.0
 10
9.8970563841
 20
8.0552260782
 30
0.0
 10
9.8753213919
 20
8.0494854247
 30
0.0
 10
9.8539805666
 20
8.0426269648
 30
0.0
 10
9.8330886101
 20
8.0346682153
 30
0.0
 10
9.8126990849
 20
8.0256295139
 30
0.0
 10
9.7928642731
 20
8.015533987
 30
0.0
 10
9.7736350208
 20
8.0044074701
 30
0.0
 10
9.755060683
 20
7.9922784999
 30
0.0
 10
9.737188727
 20
7.9791779895
 30
0.0
 10
9.7200656055
 20
7.9651400977
 30
0.0
 10
9.7091764616
 20
7.9551784709
 30
0.0
 10
9.7038730625
 20
7.9500557732
 30
0.0
  0
SPLINE
  5
348
100
AcDbEntity
  8
0
100
AcDbSpline
 62
7
  6
CONTINUOUS
 70
0
 71
3
 72
23
 73
19
 74
0
 42
0.0000001
 43
0.0000001
 44
0.0000000001
 40
0.0
 40
0.0
 40
0.0
 40
0.0
 40
0.0637774724
 40
0.127344696
 40
0.1907020124
 40
0.2538561402
 40
0.3168131804
 40
0.3795820984
 40
0.4421733882
 40
0.5045993399
 40
0.5668738668
 40
0.6290123797
 40
0.6910316501
 40
0.7529496455
 40
0.8147853558
 40
0.8765586055
 40
0.9382898564
 40
1.0
 40
1.0
 40
1.0
 40
1.0
 10
11.6319751941
 20
8.5432915611
 30
0.0
 10
11.6319751941
 20
8.5353225626
 30
0.0
 10
11.6315937838
 20
8.519408135
 30
0.0
 10
11.6298721905
 20
8.495633268
 30
0.0
 10
11.6270057931
 20
8.4720469139
 30
0.0
 10
11.6230013439
 20
8.4487043194
 30
0.0
 10
11.6178678763
 20
8.4256589519
 30
0.0
 10
11.6116172365
 20
8.4029640487
 30
0.0
 10
11.6042637439
 20
8.3806719081
 30
0.0
 10
11.5958243162
 20
8.3588339424
 30
0.0
 10
11.5863183727
 20
8.3375005117
 30
0.0
 10
11.575767793
 20
8.3167208205
 30
0.0
 10
11.5641968736
 20
8.2965428059
 30
0.0
 10
11.5516322542
 20
8.2770130089
 30
0.0
 10
11.5381029218
 20
8.2581765331
 30
0.0
 10
11.523639908
 20
8.2400766884
 30
0.0
 10
11.5082771436
 20
8.2227557895
 30
0.0
 10
11.4974570389
 20
8.2117524353
 30
0.0
 10
11.4919110905
 20
8.206395465
 30
0.0
  0
SPLINE
  5
349
100
AcDbEntity
  8
0
100
AcDbSpline
 62
7
  6
CONTINUOUS
 70
0
 71
3
 72
23
 73
19
 74
0
 42
0.0000001
 43
0.0000001
 44
0.0000000001
 40
0.0
 40
0.0
 40
0.0
 40
0.0
 40
0.0637772815
 40
0.1273447908
 40
0.1907019866
 40
0.2538561396
 40
0.3168131864
 40
0.379582096
 40
0.4421733877
 40
0.5045993365
 40
0.5668738645
 40
0.6290123802
 40
0.6910316524
 40
0.7529496465
 40
0.8147853538
 40
0.8765586016
 40
0.9382898535
 40
1.0
 40
1.0
 40
1.0
 40
1.0
 10
11.6284520699
 20
8.5878884843
 30
0.0
 10
11.6284520699
 20
8.580660092
 30
0.0
 10
11.6281060965
 20
8.5662246328
 30
0.0
 10
11.6265445103
 20
8.5446592422
 30
0.0
 10
11.623944484
 20
8.5232648234
 30
0.0
 10
11.6203121929
 20
8.5020915396
 30
0.0
 10
11.6156557979
 20
8.4811878482
 30
0.0
 10
11.6099860382
 20
8.4606020583
 30
0.0
 10
11.6033159235
 20
8.440381601
 30
0.0
 10
11.5956608018
 20
8.4205731064
 30
0.0
 10
11.5870382855
 20
8.4012222556
 30
0.0
 10
11.5774682138
 20
8.3823736825
 30
0.0
 10
11.5669726123
 20
8.3640708774
 30
0.0
 10
11.555575648
 20
8.3463560572
 30
0.0
 10
11.5433036358
 20
8.3292701196
 30
0.0
 10
11.5301847238
 20
8.3128523465
 30
0.0
 10
11.5162496859
 20
8.2971411196
 30
0.0
 10
11.5064351212
 20
8.2871603488
 30
0.0
 10
11.5014045809
 20
8.282301213
 30
0.0
  0
SPLINE
  5
34A
100
AcDbEntity
  8
0
100
AcDbSpline
 62
7
  6
CONTINUOUS
 70
0
 71
3
 72
44
 73
40
 74
0
 42
0.0000001
 43
0.0000001
 44
0.0000000001
 40
0.0
 40
0.0
 40
0.0
 40
0.0
 40
0.0310744349
 40
0.0623061033
 40
0.0936903779
 40
0.1252186236
 40
0.1568794503
 40
0.1886586803
 40
0.2205397066
 40
0.2525038554
 40
0.2845307769
 40
0.3165988658
 40
0.3486856972
 40
0.3807684736
 40
0.4128244778
 40
0.4448315246
 40
0.4767684059
 40
0.5086153213
 40
0.5403542862
 40
0.5719695169
 40
0.6034477806
 40
0.6347786986
 40
0.6659550044
 40
0.696972748
 40
0.7278314278
 40
0.7585340529
 40
0.7890871347
 40
0.8195005891
 40
0.8497875544
 40
0.8648914079
 40
0.8799699038
 40
0.8950254603
 40
0.9100606302
 40
0.9250780906
 40
0.9400806268
 40
0.9550711117
 40
0.9700524936
 40
0.9850277766
 40
1.0
 40
1.0
 40
1.0
 40
1.0
 10
11.6319751941
 20
8.5432915611
 30
0.0
 10
11.6319751941
 20
8.5556554099
 30
0.0
 10
11.6310528722
 20
8.580455181
 30
0.0
 10
11.6269349447
 20
8.6175361065
 30
0.0
 10
11.620102283
 20
8.6543992986
 30
0.0
 10
11.6105926366
 20
8.690839706
 30
0.0
 10
11.5984586499
 20
8.726657921
 30
0.0
 10
11.5837672688
 20
8.7616571726
 30
0.0
 10
11.5665993732
 20
8.795645434
 30
0.0
 10
11.547049389
 20
8.8284361763
 30
0.0
 10
11.5252248224
 20
8.8598495065
 30
0.0
 10
11.5012455587
 20
8.8897130548
 30
0.0
 10
11.4752432346
 20
8.9178629111
 30
0.0
 10
11.4473606194
 20
8.9441446032
 30
0.0
 10
11.4177507411
 20
8.9684138625
 30
0.0
 10
11.3865760465
 20
8.9905373734
 30
0.0
 10
11.3540075952
 20
9.0103935913
 30
0.0
 10
11.3202241014
 20
9.0278733876
 30
0.0
 10
11.2854109242
 20
9.0428805639
 30
0.0
 10
11.2497591048
 20
9.0553324324
 30
0.0
 10
11.2134643506
 20
9.0651603502
 30
0.0
 10
11.1767259278
 20
9.0723099764
 30
0.0
 10
11.139745602
 20
9.0767415807
 30
0.0
 10
11.1027265732
 20
9.078430419
 30
0.0
 10
11.0658723024
 20
9.0773667537
 30
0.0
 10
11.029385578
 20
9.0735559561
 30
0.0
 10
10.9934668201
 20
9.0670183557
 30
0.0
 10
10.9583151275
 20
9.0577901133
 30
0.0
 10
10.9297908631
 20
9.0478882008
 30
0.0
 10
10.9075578925
 20
9.0386798386
 30
0.0
 10
10.8912062928
 20
9.0311452749
 30
0.0
 10
10.8751875452
 20
9.0229873412
 30
0.0
 10
10.8595233963
 20
9.0142170856
 30
0.0
 10
10.8442354609
 20
9.0048466639
 30
0.0
 10
10.8293447524
 20
8.9948889429
 30
0.0
 10
10.8148718302
 20
8.9843575872
 30
0.0
 10
10.8008364924
 20
8.9732670846
 30
0.0
 10
10.7872583394
 20
8.9616329268
 30
0.0
 10
10.7785225514
 20
8.9535241128
 30
0.0
 10
10.7742378599
 20
8.949385422
 30
0.0
  0
SPLINE
  5
34B
100
AcDbEntity
  8
0
100
AcDbSpline
 62
7
  6
CONTINUOUS
 70
0
 71
3
 72
23
 73
19
 74
0
 42
0.0000001
 43
0.0000001
 44
0.0000000001
 40
0.0
 40
0.0
 40
0.0
 40
0.0
 40
0.0638791805
 40
0.1275345516
 40
0.1909676692
 40
0.2541823925
 40
0.3171848698
 40
0.3799834959
 40
0.4425888439
 40
0.5050135722
 40
0.5672723046
 40
0.6293814867
 40
0.6913592194
 40
0.7532250695
 40
0.8149998588
 40
0.8767054351
 40
0.9383644294
 40
1.0
 40
1.0
 40
1.0
 40
1.0
 10
11.1790852964
 20
9.0715773398
 30
0.0
 10
11.1714656006
 20
9.0721591287
 30
0.0
 10
11.1562208855
 20
9.0729387395
 30
0.0
 10
11.133366025
 20
9.072948346
 30
0.0
 10
11.1106191096
 20
9.0717962445
 30
0.0
 10
11.0880391495
 20
9.069485254
 30
0.0
 10
11.0656837806
 20
9.0660212548
 30
0.0
 10
11.0436103277
 20
9.0614130553
 30
0.0
 10
11.0218753355
 20
9.0556724017
 30
0.0
 10
11.0005345102
 20
9.0488139418
 30
0.0
 10
10.9796425537
 20
9.0408551923
 30
0.0
 10
10.9592530285
 20
9.0318164909
 30
0.0
 10
10.9394182167
 20
9.021720964
 30
0.0
 10
10.9201889644
 20
9.0105944472
 30
0.0
 10
10.9016146266
 20
8.998465477
 30
0.0
 10
10.8837426706
 20
8.9853649665
 30
0.0
 10
10.8666195491
 20
8.9713270747
 30
0.0
 10
10.8557304052
 20
8.9613654479
 30
0.0
 10
10.8504270061
 20
8.9562427503
 30
0.0
  0
SPLINE
  5
34C
100
AcDbEntity
  8
0
100
AcDbSpline
 62
7
  6
CONTINUOUS
 70
0
 71
3
 72
48
 73
44
 74
0
 42
0.0000001
 43
0.0000001
 44
0.0000000001
 40
0.0
 40
0.0
 40
0.0
 40
0.0
 40
0.0063158899
 40
0.0126706797
 40
0.0191025165
 40
0.025648058
 40
0.0323419221
 40
0.0392162652
 40
0.0536140552
 40
0.0611947659
 40
0.0690564915
 40
0.0772175997
 40
0.0856939645
 40
0.0944993396
 40
0.103645447
 40
0.1131421893
 40
0.122997946
 40
0.1332195527
 40
0.1438126331
 40
0.1547816545
 40
0.1661299881
 40
0.1778601838
 40
0.1899738557
 40
0.215353302
 40
0.2422691224
 40
0.2707113841
 40
0.3006623731
 40
0.332097648
 40
0.3649869327
 40
0.3992948208
 40
0.434981328
 40
0.4720023222
 40
0.5103099054
 40
0.5498527799
 40
0.590576537
 40
0.632423903
 40
0.6753349407
 40
0.7192473098
 40
0.7640964278
 40
0.8098157282
 40
0.8563368617
 40
0.9035891153
 40
1.0
 40
1.0
 40
1.0
 40
1.0
 10
12.9451713621
 20
6.9835186325
 30
0.0
 10
12.9439966799
 20
6.9836000917
 30
0.0
 10
12.9416456328
 20
6.9838596692
 30
0.0
 10
12.9381453974
 20
6.984536213
 30
0.0
 10
12.9346685678
 20
6.985500017
 30
0.0
 10
12.9312171683
 20
6.9867502532
 30
0.0
 10
12.9277925402
 20
6.9882861921
 30
0.0
 10
12.9231942125
 20
6.9907511333
 30
0.0
 10
12.9187207276
 20
6.9937685523
 30
0.0
 10
12.9143915607
 20
6.9972653151
 30
0.0
 10
12.9111215595
 20
7.0002134824
 30
0.0
 10
12.9078865012
 20
7.003440283
 30
0.0
 10
12.904687151
 20
7.0069445269
 30
0.0
 10
12.901524849
 20
7.0107247292
 30
0.0
 10
12.898400752
 20
7.0147793464
 30
0.0
 10
12.8953160333
 20
7.0191067039
 30
0.0
 10
12.8922719473
 20
7.0237050823
 30
0.0
 10
12.8892696335
 20
7.028572584
 30
0.0
 10
12.8863103109
 20
7.0337072516
 30
0.0
 10
12.8833951738
 20
7.0391070054
 30
0.0
 10
12.8805253595
 20
7.0447696296
 30
0.0
 10
12.8777020535
 20
7.050692852
 30
0.0
 10
12.8739426917
 20
7.0590651741
 30
0.0
 10
12.869380512
 20
7.0701767583
 30
0.0
 10
12.8641911074
 20
7.0843094483
 30
0.0
 10
12.8592136219
 20
7.0994179828
 30
0.0
 10
12.8544562685
 20
7.115477639
 30
0.0
 10
12.8499269007
 20
7.132462344
 30
0.0
 10
12.8456330325
 20
7.1503443278
 30
0.0
 10
12.8415818035
 20
7.169094315
 30
0.0
 10
12.8377799643
 20
7.1886815473
 30
0.0
 10
12.8342338492
 20
7.2090738453
 30
0.0
 10
12.8309493596
 20
7.2302376663
 30
0.0
 10
12.8279319688
 20
7.2521381751
 30
0.0
 10
12.8251867076
 20
7.2747393085
 30
0.0
 10
12.8227181583
 20
7.298003831
 30
0.0
 10
12.820530428
 20
7.3218933975
 30
0.0
 10
12.8186271626
 20
7.3463686156
 30
0.0
 10
12.8170115322
 20
7.3713891333
 30
0.0
 10
12.8156862433
 20
7.3969136884
 30
0.0
 10
12.8146534937
 20
7.4229001645
 30
0.0
 10
12.813662328
 20
7.4583438883
 30
0.0
 10
12.8133748151
 20
7.4851291387
 30
0.0
 10
12.8133748151
 20
7.5031035068
 30
0.0
  0
SPLINE
  5
34D
100
AcDbEntity
  8
0
100
AcDbSpline
 62
7
  6
CONTINUOUS
 70
0
 71
3
 72
33
 73
29
 74
0
 42
0.0000001
 43
0.0000001
 44
0.0000000001
 40
0.0
 40
0.0
 40
0.0
 40
0.0
 40
0.0162144692
 40
0.0334275894
 40
0.0516720786
 40
0.0709712473
 40
0.091340872
 40
0.1127900333
 40
0.1353223936
 40
0.1589368226
 40
0.183628034
 40
0.2093872636
 40
0.2362023918
 40
0.2640586644
 40
0.2929385944
 40
0.3228225234
 40
0.3536886216
 40
0.3855131152
 40
0.4182705339
 40
0.4519336172
 40
0.486473739
 40
0.521860682
 40
0.5950467061
 40
0.6712269155
 40
0.7501175304
 40
0.8314199122
 40
0.9148213441
 40
1.0
 40
1.0
 40
1.0
 40
1.0
 10
12.8934465417
 20
7.1753590197
 30
0.0
 10
12.8921400155
 20
7.1769654717
 30
0.0
 10
12.8895564988
 20
7.1803678297
 30
0.0
 10
12.8858720515
 20
7.1858458045
 30
0.0
 10
12.8822686481
 20
7.1918418402
 30
0.0
 10
12.878749901
 20
7.198349543
 30
0.0
 10
12.875319293
 20
7.2053624392
 30
0.0
 10
12.8719802505
 20
7.2128733229
 30
0.0
 10
12.8687362254
 20
7.220874499
 30
0.0
 10
12.8655905823
 20
7.2293577015
 30
0.0
 10
12.86254658
 20
7.2383141294
 30
0.0
 10
12.8596074649
 20
7.2477344697
 30
0.0
 10
12.8567762731
 20
7.2576088844
 30
0.0
 10
12.8540560566
 20
7.267927055
 30
0.0
 10
12.8514496429
 20
7.2786781694
 30
0.0
 10
12.8489598236
 20
7.2898509545
 30
0.0
 10
12.8465892292
 20
7.3014336806
 30
0.0
 10
12.8443403584
 20
7.3134141782
 30
0.0
 10
12.8422156289
 20
7.3257798538
 30
0.0
 10
12.840217254
 20
7.3385176974
 30
0.0
 10
12.8383473779
 20
7.351614321
 30
0.0
 10
12.8360019178
 20
7.3697399559
 30
0.0
 10
12.8334181685
 20
7.3931945687
 30
0.0
 10
12.8308914406
 20
7.4222367759
 30
0.0
 10
12.8289158457
 20
7.4523603587
 30
0.0
 10
12.8274999026
 20
7.4834384148
 30
0.0
 10
12.8266497447
 20
7.5153401689
 30
0.0
 10
12.8264643874
 20
7.5368692868
 30
0.0
 10
12.8264643874
 20
7.5477470643
 30
0.0
  0
SPLINE
  5
34E
100
AcDbEntity
  8
0
100
AcDbSpline
 62
7
  6
CONTINUOUS
 70
0
 71
3
 72
11
 73
7
 74
0
 42
0.0000001
 43
0.0000001
 44
0.0000000001
 40
0.0
 40
0.0
 40
0.0
 40
0.0
 40
0.2455900323
 40
0.4929688136
 40
0.7438827442
 40
1.0
 40
1.0
 40
1.0
 40
1.0
 10
12.8856692582
 20
7.2031615213
 30
0.0
 10
12.8847866247
 20
7.2032227281
 30
0.0
 10
12.8830194006
 20
7.2034242672
 30
0.0
 10
12.8803905976
 20
7.203961555
 30
0.0
 10
12.8777814479
 20
7.2047335657
 30
0.0
 10
12.8760767943
 20
7.205396328
 30
0.0
 10
12.8752305617
 20
7.2057640579
 30
0.0
  0
SPLINE
  5
34F
100
AcDbEntity
  8
0
100
AcDbSpline
 62
7
  6
CONTINUOUS
 70
0
 71
3
 72
45
 73
41
 74
0
 42
0.0000001
 43
0.0000001
 44
0.0000000001
 40
0.0
 40
0.0
 40
0.0
 40
0.0
 40
0.0070628706
 40
0.0144558874
 40
0.0221882691
 40
0.0302672625
 40
0.038698503
 40
0.0474860403
 40
0.0566327429
 40
0.0661402303
 40
0.0760091809
 40
0.0862393412
 40
0.0968296272
 40
0.1077782911
 40
0.1307393107
 40
0.1550968896
 40
0.1808162276
 40
0.2078554948
 40
0.2361667238
 40
0.2656965207
 40
0.2963866609
 40
0.3281745856
 40
0.3609938312
 40
0.394774411
 40
0.4294431613
 40
0.4649240623
 40
0.5011385381
 40
0.5380057502
 40
0.575442881
 40
0.6133654064
 40
0.6516873629
 40
0.6903216122
 40
0.7291801017
 40
0.7681741235
 40
0.8072145862
 40
0.8462122195
 40
0.8850780457
 40
0.9237229577
 40
0.9620597573
 40
1.0
 40
1.0
 40
1.0
 40
1.0
 10
12.9636272689
 20
8.1873247135
 30
0.0
 10
12.9624829278
 20
8.1862596866
 30
0.0
 10
12.9601954278
 20
8.1840205155
 30
0.0
 10
12.956842897
 20
8.1804298562
 30
0.0
 10
12.9534940012
 20
8.1765341134
 30
0.0
 10
12.9501507485
 20
8.1723357429
 30
0.0
 10
12.9468151109
 20
8.1678371773
 30
0.0
 10
12.9434889885
 20
8.1630411509
 30
0.0
 10
12.9401744259
 20
8.1579504911
 30
0.0
 10
12.9368733481
 20
8.1525682799
 30
0.0
 10
12.9335877711
 20
8.1468977341
 30
0.0
 10
12.9303196799
 20
8.1409422749
 30
0.0
 10
12.9270709985
 20
8.1347054954
 30
0.0
 10
12.9226985258
 20
8.1258791771
 30
0.0
 10
12.9173079707
 20
8.1141598023
 30
0.0
 10
12.9110461479
 20
8.0992531409
 30
0.0
 10
12.9049079248
 20
8.0833240114
 30
0.0
 10
12.8989083268
 20
8.0664110149
 30
0.0
 10
12.8930620453
 20
8.0485549705
 30
0.0
 10
12.8873834082
 20
8.0297991574
 30
0.0
 10
12.8818863347
 20
8.0101890829
 30
0.0
 10
12.8765842984
 20
7.9897723865
 30
0.0
 10
12.8714902916
 20
7.968598705
 30
0.0
 10
12.8666167937
 20
7.9467195465
 30
0.0
 10
12.8619757396
 20
7.9241881589
 30
0.0
 10
12.8575784927
 20
7.9010593972
 30
0.0
 10
12.8534358127
 20
7.8773895872
 30
0.0
 10
12.8495578329
 20
7.8532363844
 30
0.0
 10
12.8459540363
 20
7.8286586299
 30
0.0
 10
12.8426332328
 20
7.8037162049
 30
0.0
 10
12.8396035381
 20
7.7784698841
 30
0.0
 10
12.8368723541
 20
7.752981187
 30
0.0
 10
12.8344463516
 20
7.7273122273
 30
0.0
 10
12.8323314513
 20
7.7015255594
 30
0.0
 10
12.8305328131
 20
7.6756840343
 30
0.0
 10
12.8290548118
 20
7.6498506066
 30
0.0
 10
12.827901063
 20
7.6240883016
 30
0.0
 10
12.8270743358
 20
7.5984597473
 30
0.0
 10
12.8265766796
 20
7.5730276258
 30
0.0
 10
12.8264643874
 20
7.5561445951
 30
0.0
 10
12.8264643874
 20
7.5477470643
 30
0.0
  0
SPLINE
  5
350
100
AcDbEntity
  8
0
100
AcDbSpline
 62
7
  6
CONTINUOUS
 70
0
 71
3
 72
11
 73
7
 74
0
 42
0.0000001
 43
0.0000001
 44
0.0000000001
 40
0.0
 40
0.0
 40
0.0
 40
0.0
 40
0.2455791091
 40
0.4929512018
 40
0.7438678611
 40
1.0
 40
1.0
 40
1.0
 40
1.0
 10
12.9520859602
 20
8.1608612531
 30
0.0
 10
12.951202184
 20
8.1609225391
 30
0.0
 10
12.9494217315
 20
8.1609668156
 30
0.0
 10
12.946740413
 20
8.1607969058
 30
0.0
 10
12.9440461418
 20
8.1603911091
 30
0.0
 10
12.9422640265
 20
8.1599687659
 30
0.0
 10
12.9413739913
 20
8.1597206668
 30
0.0
  0
SPLINE
  5
351
100
AcDbEntity
  8
0
100
AcDbSpline
 62
7
  6
CONTINUOUS
 70
0
 71
3
 72
48
 73
44
 74
0
 42
0.0000001
 43
0.0000001
 44
0.0000000001
 40
0.0
 40
0.0
 40
0.0
 40
0.0
 40
0.0063158899
 40
0.0126706797
 40
0.0191025165
 40
0.025648058
 40
0.0323419221
 40
0.0392162652
 40
0.0536140552
 40
0.0611947659
 40
0.0690564915
 40
0.0772175997
 40
0.0856939645
 40
0.0944993396
 40
0.103645447
 40
0.1131421893
 40
0.122997946
 40
0.1332195527
 40
0.1438126331
 40
0.1547816545
 40
0.1661299881
 40
0.1778601838
 40
0.1899738557
 40
0.215353302
 40
0.2422691224
 40
0.2707113841
 40
0.3006623731
 40
0.332097648
 40
0.3649869327
 40
0.3992948208
 40
0.434981328
 40
0.4720023222
 40
0.5103099054
 40
0.5498527799
 40
0.590576537
 40
0.632423903
 40
0.6753349407
 40
0.7192473098
 40
0.7640964278
 40
0.8098157282
 40
0.8563368617
 40
0.9035891153
 40
1.0
 40
1.0
 40
1.0
 40
1.0
 10
12.9451713621
 20
8.8554830749
 30
0.0
 10
12.9439966799
 20
8.8555645341
 30
0.0
 10
12.9416456328
 20
8.8558241116
 30
0.0
 10
12.9381453974
 20
8.8565006554
 30
0.0
 10
12.9346685678
 20
8.8574644594
 30
0.0
 10
12.9312171683
 20
8.8587146956
 30
0.0
 10
12.9277925402
 20
8.8602506345
 30
0.0
 10
12.9231942125
 20
8.8627155757
 30
0.0
 10
12.9187207276
 20
8.8657329947
 30
0.0
 10
12.9143915607
 20
8.8692297575
 30
0.0
 10
12.9111215595
 20
8.8721779248
 30
0.0
 10
12.9078865012
 20
8.8754047254
 30
0.0
 10
12.904687151
 20
8.8789089693
 30
0.0
 10
12.901524849
 20
8.8826891716
 30
0.0
 10
12.898400752
 20
8.8867437888
 30
0.0
 10
12.8953160333
 20
8.8910711463
 30
0.0
 10
12.8922719473
 20
8.8956695247
 30
0.0
 10
12.8892696335
 20
8.9005370264
 30
0.0
 10
12.8863103109
 20
8.905671694
 30
0.0
 10
12.8833951738
 20
8.9110714478
 30
0.0
 10
12.8805253595
 20
8.916734072
 30
0.0
 10
12.8777020535
 20
8.9226572944
 30
0.0
 10
12.8739426917
 20
8.9310296165
 30
0.0
 10
12.869380512
 20
8.9421412007
 30
0.0
 10
12.8641911074
 20
8.9562738907
 30
0.0
 10
12.8592136219
 20
8.9713824252
 30
0.0
 10
12.8544562685
 20
8.9874420814
 30
0.0
 10
12.8499269007
 20
9.0044267864
 30
0.0
 10
12.8456330325
 20
9.0223087702
 30
0.0
 10
12.8415818035
 20
9.0410587574
 30
0.0
 10
12.8377799643
 20
9.0606459897
 30
0.0
 10
12.8342338492
 20
9.0810382877
 30
0.0
 10
12.8309493596
 20
9.1022021087
 30
0.0
 10
12.8279319688
 20
9.1241026175
 30
0.0
 10
12.8251867076
 20
9.1467037509
 30
0.0
 10
12.8227181583
 20
9.1699682734
 30
0.0
 10
12.820530428
 20
9.1938578399
 30
0.0
 10
12.8186271626
 20
9.218333058
 30
0.0
 10
12.8170115322
 20
9.2433535757
 30
0.0
 10
12.8156862433
 20
9.2688781308
 30
0.0
 10
12.8146534937
 20
9.2948646069
 30
0.0
 10
12.813662328
 20
9.3303083307
 30
0.0
 10
12.8133748151
 20
9.3570935811
 30
0.0
 10
12.8133748151
 20
9.3750679492
 30
0.0
  0
SPLINE
  5
352
100
AcDbEntity
  8
0
100
AcDbSpline
 62
7
  6
CONTINUOUS
 70
0
 71
3
 72
33
 73
29
 74
0
 42
0.0000001
 43
0.0000001
 44
0.0000000001
 40
0.0
 40
0.0
 40
0.0
 40
0.0
 40
0.0162144692
 40
0.0334275894
 40
0.0516720786
 40
0.0709712473
 40
0.091340872
 40
0.1127900333
 40
0.1353223936
 40
0.1589368226
 40
0.183628034
 40
0.2093872636
 40
0.2362023918
 40
0.2640586644
 40
0.2929385944
 40
0.3228225234
 40
0.3536886216
 40
0.3855131152
 40
0.4182705339
 40
0.4519336172
 40
0.486473739
 40
0.521860682
 40
0.5950467061
 40
0.6712269155
 40
0.7501175304
 40
0.8314199122
 40
0.9148213441
 40
1.0
 40
1.0
 40
1.0
 40
1.0
 10
12.8934465417
 20
9.0473234621
 30
0.0
 10
12.8921400155
 20
9.0489299141
 30
0.0
 10
12.8895564988
 20
9.0523322722
 30
0.0
 10
12.8858720515
 20
9.0578102469
 30
0.0
 10
12.8822686481
 20
9.0638062826
 30
0.0
 10
12.878749901
 20
9.0703139854
 30
0.0
 10
12.875319293
 20
9.0773268817
 30
0.0
 10
12.8719802505
 20
9.0848377653
 30
0.0
 10
12.8687362254
 20
9.0928389414
 30
0.0
 10
12.8655905823
 20
9.1013221439
 30
0.0
 10
12.86254658
 20
9.1102785718
 30
0.0
 10
12.8596074649
 20
9.1196989121
 30
0.0
 10
12.8567762731
 20
9.1295733268
 30
0.0
 10
12.8540560566
 20
9.1398914974
 30
0.0
 10
12.8514496429
 20
9.1506426118
 30
0.0
 10
12.8489598236
 20
9.1618153969
 30
0.0
 10
12.8465892292
 20
9.173398123
 30
0.0
 10
12.8443403584
 20
9.1853786206
 30
0.0
 10
12.8422156289
 20
9.1977442962
 30
0.0
 10
12.840217254
 20
9.2104821398
 30
0.0
 10
12.8383473779
 20
9.2235787634
 30
0.0
 10
12.8360019178
 20
9.2417043984
 30
0.0
 10
12.8334181685
 20
9.2651590111
 30
0.0
 10
12.8308914406
 20
9.2942012183
 30
0.0
 10
12.8289158457
 20
9.3243248011
 30
0.0
 10
12.8274999026
 20
9.3554028572
 30
0.0
 10
12.8266497447
 20
9.3873046113
 30
0.0
 10
12.8264643874
 20
9.4088337292
 30
0.0
 10
12.8264643874
 20
9.4197115067
 30
0.0
  0
SPLINE
  5
353
100
AcDbEntity
  8
0
100
AcDbSpline
 62
7
  6
CONTINUOUS
 70
0
 71
3
 72
11
 73
7
 74
0
 42
0.0000001
 43
0.0000001
 44
0.0000000001
 40
0.0
 40
0.0
 40
0.0
 40
0.0
 40
0.2455900323
 40
0.4929688136
 40
0.7438827442
 40
1.0
 40
1.0
 40
1.0
 40
1.0
 10
12.8856692582
 20
9.0751259637
 30
0.0
 10
12.8847866247
 20
9.0751871705
 30
0.0
 10
12.8830194006
 20
9.0753887096
 30
0.0
 10
12.8803905976
 20
9.0759259974
 30
0.0
 10
12.8777814479
 20
9.0766980081
 30
0.0
 10
12.8760767943
 20
9.0773607704
 30
0.0
 10
12.8752305617
 20
9.0777285003
 30
0.0
  0
SPLINE
  5
354
100
AcDbEntity
  8
0
100
AcDbSpline
 62
7
  6
CONTINUOUS
 70
0
 71
3
 72
45
 73
41
 74
0
 42
0.0000001
 43
0.0000001
 44
0.0000000001
 40
0.0
 40
0.0
 40
0.0
 40
0.0
 40
0.0070628706
 40
0.0144558874
 40
0.0221882691
 40
0.0302672625
 40
0.038698503
 40
0.0474860403
 40
0.0566327429
 40
0.0661402303
 40
0.0760091809
 40
0.0862393412
 40
0.0968296272
 40
0.1077782911
 40
0.1307393107
 40
0.1550968896
 40
0.1808162276
 40
0.2078554948
 40
0.2361667238
 40
0.2656965207
 40
0.2963866609
 40
0.3281745856
 40
0.3609938312
 40
0.394774411
 40
0.4294431613
 40
0.4649240623
 40
0.5011385381
 40
0.5380057502
 40
0.575442881
 40
0.6133654064
 40
0.6516873629
 40
0.6903216122
 40
0.7291801017
 40
0.7681741235
 40
0.8072145862
 40
0.8462122195
 40
0.8850780457
 40
0.9237229577
 40
0.9620597573
 40
1.0
 40
1.0
 40
1.0
 40
1.0
 10
12.9636272689
 20
10.059289156
 30
0.0
 10
12.9624829278
 20
10.058224129
 30
0.0
 10
12.9601954278
 20
10.0559849579
 30
0.0
 10
12.956842897
 20
10.0523942986
 30
0.0
 10
12.9534940012
 20
10.0484985558
 30
0.0
 10
12.9501507485
 20
10.0443001853
 30
0.0
 10
12.9468151109
 20
10.0398016197
 30
0.0
 10
12.9434889885
 20
10.0350055933
 30
0.0
 10
12.9401744259
 20
10.0299149335
 30
0.0
 10
12.9368733481
 20
10.0245327223
 30
0.0
 10
12.9335877711
 20
10.0188621765
 30
0.0
 10
12.9303196799
 20
10.0129067173
 30
0.0
 10
12.9270709985
 20
10.0066699378
 30
0.0
 10
12.9226985258
 20
9.9978436195
 30
0.0
 10
12.9173079707
 20
9.9861242447
 30
0.0
 10
12.9110461479
 20
9.9712175833
 30
0.0
 10
12.9049079248
 20
9.9552884538
 30
0.0
 10
12.8989083268
 20
9.9383754574
 30
0.0
 10
12.8930620453
 20
9.9205194129
 30
0.0
 10
12.8873834082
 20
9.9017635998
 30
0.0
 10
12.8818863347
 20
9.8821535253
 30
0.0
 10
12.8765842984
 20
9.8617368289
 30
0.0
 10
12.8714902916
 20
9.8405631475
 30
0.0
 10
12.8666167937
 20
9.8186839889
 30
0.0
 10
12.8619757396
 20
9.7961526013
 30
0.0
 10
12.8575784927
 20
9.7730238396
 30
0.0
 10
12.8534358127
 20
9.7493540296
 30
0.0
 10
12.8495578329
 20
9.7252008268
 30
0.0
 10
12.8459540363
 20
9.7006230723
 30
0.0
 10
12.8426332328
 20
9.6756806473
 30
0.0
 10
12.8396035381
 20
9.6504343265
 30
0.0
 10
12.8368723541
 20
9.6249456294
 30
0.0
 10
12.8344463516
 20
9.5992766697
 30
0.0
 10
12.8323314513
 20
9.5734900018
 30
0.0
 10
12.8305328131
 20
9.5476484767
 30
0.0
 10
12.8290548118
 20
9.521815049
 30
0.0
 10
12.827901063
 20
9.496052744
 30
0.0
 10
12.8270743358
 20
9.4704241897
 30
0.0
 10
12.8265766796
 20
9.4449920682
 30
0.0
 10
12.8264643874
 20
9.4281090375
 30
0.0
 10
12.8264643874
 20
9.4197115067
 30
0.0
  0
SPLINE
  5
355
100
AcDbEntity
  8
0
100
AcDbSpline
 62
7
  6
CONTINUOUS
 70
0
 71
3
 72
11
 73
7
 74
0
 42
0.0000001
 43
0.0000001
 44
0.0000000001
 40
0.0
 40
0.0
 40
0.0
 40
0.0
 40
0.2455791091
 40
0.4929512018
 40
0.7438678611
 40
1.0
 40
1.0
 40
1.0
 40
1.0
 10
12.9520859602
 20
10.0328256955
 30
0.0
 10
12.951202184
 20
10.0328869815
 30
0.0
 10
12.9494217315
 20
10.0329312581
 30
0.0
 10
12.946740413
 20
10.0327613482
 30
0.0
 10
12.9440461418
 20
10.0323555515
 30
0.0
 10
12.9422640265
 20
10.0319332083
 30
0.0
 10
12.9413739913
 20
10.0316851092
 30
0.0
  0
SPLINE
  5
356
100
AcDbEntity
  8
0
100
AcDbSpline
 62
7
  6
CONTINUOUS
 70
0
 71
3
 72
35
 73
31
 74
0
 42
0.0000001
 43
0.0000001
 44
0.0000000001
 40
0.0
 40
0.0
 40
0.0
 40
0.0
 40
0.018263777
 40
0.0360370005
 40
0.0534948642
 40
0.070825219
 40
0.0882204248
 40
0.1058720112
 40
0.1239664112
 40
0.14267673
 40
0.1621617256
 40
0.1825643819
 40
0.2040088994
 40
0.226604809
 40
0.2504466283
 40
0.2756145008
 40
0.3021788804
 40
0.3301986399
 40
0.3597241928
 40
0.3907996244
 40
0.423460223
 40
0.4577372655
 40
0.4936560342
 40
0.5312361894
 40
0.5704949843
 40
0.6114430772
 40
0.6984246336
 40
0.7922122915
 40
0.8927679294
 40
1.0
 40
1.0
 40
1.0
 40
1.0
 10
10.3254029551
 20
7.3347348004
 30
0.0
 10
10.3254030643
 20
7.3341785195
 30
0.0
 10
10.3254580059
 20
7.3330799229
 30
0.0
 10
10.3257147035
 20
7.3314676831
 30
0.0
 10
10.3261441725
 20
7.3299217397
 30
0.0
 10
10.3267460348
 20
7.3284467656
 30
0.0
 10
10.3275194028
 20
7.3270472821
 30
0.0
 10
10.3284630687
 20
7.3257279022
 30
0.0
 10
10.3295755638
 20
7.3244931781
 30
0.0
 10
10.3308552075
 20
7.3233474998
 30
0.0
 10
10.3323003012
 20
7.3222952465
 30
0.0
 10
10.3339090778
 20
7.3213407851
 30
0.0
 10
10.335679742
 20
7.3204885336
 30
0.0
 10
10.3376104216
 20
7.3197430653
 30
0.0
 10
10.3396990995
 20
7.3191090229
 30
0.0
 10
10.3419436182
 20
7.3185911843
 30
0.0
 10
10.3443415931
 20
7.3181944438
 30
0.0
 10
10.346890419
 20
7.3179237076
 30
0.0
 10
10.3495872499
 20
7.3177839731
 30
0.0
 10
10.3524289498
 20
7.3177802472
 30
0.0
 10
10.3554121379
 20
7.3179174608
 30
0.0
 10
10.3585331129
 20
7.3182005946
 30
0.0
 10
10.3617878949
 20
7.3186344789
 30
0.0
 10
10.3651722124
 20
7.3192238473
 30
0.0
 10
10.3686814825
 20
7.3199733851
 30
0.0
 10
10.3736204189
 20
7.3212173956
 30
0.0
 10
10.3800773964
 20
7.3232142848
 30
0.0
 10
10.3880886113
 20
7.3262694758
 30
0.0
 10
10.3964624298
 20
7.3300570069
 30
0.0
 10
10.4020737671
 20
7.3329922771
 30
0.0
 10
10.4049267799
 20
7.3345821408
 30
0.0
  0
SPLINE
  5
357
100
AcDbEntity
  8
0
100
AcDbSpline
 62
7
  6
CONTINUOUS
 70
0
 71
3
 72
42
 73
38
 74
0
 42
0.0000001
 43
0.0000001
 44
0.0000000001
 40
0.0
 40
0.0
 40
0.0
 40
0.0
 40
0.0055576443
 40
0.0111781836
 40
0.0169222355
 40
0.022846223
 40
0.0290011442
 40
0.0354316623
 40
0.0421762431
 40
0.049267259
 40
0.0567314277
 40
0.0645907244
 40
0.072862575
 40
0.081560766
 40
0.0906959315
 40
0.100275708
 40
0.1103055927
 40
0.1207888494
 40
0.1431177711
 40
0.1672591076
 40
0.1931868442
 40
0.2208588039
 40
0.2502193991
 40
0.2812018039
 40
0.3137295194
 40
0.3477175618
 40
0.3830734051
 40
0.419697946
 40
0.4574862654
 40
0.4963282772
 40
0.5361092896
 40
0.5767106614
 40
0.6598810502
 40
0.7448351505
 40
0.8305372122
 40
0.9159392559
 40
1.0
 40
1.0
 40
1.0
 40
1.0
 10
12.3664043199
 20
9.9065763577
 30
0.0
 10
12.3664043199
 20
9.9061508634
 30
0.0
 10
12.3663566978
 20
9.905294318
 30
0.0
 10
12.366142874
 20
9.9040140735
 30
0.0
 10
12.3657870581
 20
9.9027366884
 30
0.0
 10
12.3652899656
 20
9.9014636256
 30
0.0
 10
12.3646523355
 20
9.9001959561
 30
0.0
 10
12.3638751166
 20
9.8989346048
 30
0.0
 10
12.3629591345
 20
9.8976804685
 30
0.0
 10
12.3619052961
 20
9.8964343952
 30
0.0
 10
12.3607145778
 20
9.8951971852
 30
0.0
 10
12.3593879251
 20
9.8939697549
 30
0.0
 10
12.3579264588
 20
9.8927529366
 30
0.0
 10
12.3563313359
 20
9.8915476383
 30
0.0
 10
12.3546038101
 20
9.8903548024
 30
0.0
 10
12.3527452886
 20
9.8891753036
 30
0.0
 10
12.3507572278
 20
9.8880100929
 30
0.0
 10
12.3478748804
 20
9.8864437031
 30
0.0
 10
12.3439513154
 20
9.8845358879
 30
0.0
 10
12.3388498448
 20
9.8823637118
 30
0.0
 10
12.333276642
 20
9.8802700002
 30
0.0
 10
12.3272497024
 20
9.8782616097
 30
0.0
 10
12.320788379
 20
9.8763451369
 30
0.0
 10
12.3139136116
 20
9.8745269167
 30
0.0
 10
12.3066477312
 20
9.8728129707
 30
0.0
 10
12.2990144078
 20
9.8712089828
 30
0.0
 10
12.2910385567
 20
9.8697202561
 30
0.0
 10
12.2827462413
 20
9.8683517187
 30
0.0
 10
12.2741645736
 20
9.8671078992
 30
0.0
 10
12.2653216358
 20
9.8659929271
 30
0.0
 10
12.2562463542
 20
9.8650104563
 30
0.0
 10
12.2437760504
 20
9.8638725135
 30
0.0
 10
12.2278284277
 20
9.8628096807
 30
0.0
 10
12.208405198
 20
9.8621102796
 30
0.0
 10
12.1887988063
 20
9.861986467
 30
0.0
 10
12.1692658955
 20
9.8624398672
 30
0.0
 10
12.1563077801
 20
9.8631311424
 30
0.0
 10
12.1498874949
 20
9.8635763906
 30
0.0
  0
SPLINE
  5
358
100
AcDbEntity
  8
0
100
AcDbSpline
 62
7
  6
CONTINUOUS
 70
0
 71
3
 72
42
 73
38
 74
0
 42
0.0000001
 43
0.0000001
 44
0.0000000001
 40
0.0
 40
0.0
 40
0.0
 40
0.0
 40
0.0055576443
 40
0.0111781836
 40
0.0169222355
 40
0.022846223
 40
0.0290011442
 40
0.0354316623
 40
0.0421762431
 40
0.049267259
 40
0.0567314277
 40
0.0645907244
 40
0.072862575
 40
0.081560766
 40
0.0906959315
 40
0.100275708
 40
0.1103055927
 40
0.1207888494
 40
0.1431177711
 40
0.1672591076
 40
0.1931868442
 40
0.2208588039
 40
0.2502193991
 40
0.2812018039
 40
0.3137295194
 40
0.3477175618
 40
0.3830734051
 40
0.419697946
 40
0.4574862654
 40
0.4963282772
 40
0.5361092896
 40
0.5767106614
 40
0.6598810502
 40
0.7448351505
 40
0.8305372122
 40
0.9159392559
 40
1.0
 40
1.0
 40
1.0
 40
1.0
 10
9.5893674048
 20
10.0991645219
 30
0.0
 10
9.5893674048
 20
10.0987390276
 30
0.0
 10
9.5893197826
 20
10.0978824822
 30
0.0
 10
9.5891059589
 20
10.0966022377
 30
0.0
 10
9.5887501429
 20
10.0953248526
 30
0.0
 10
9.5882530505
 20
10.0940517898
 30
0.0
 10
9.5876154204
 20
10.0927841202
 30
0.0
 10
9.5868382015
 20
10.091522769
 30
0.0
 10
9.5859222194
 20
10.0902686327
 30
0.0
 10
9.5848683809
 20
10.0890225594
 30
0.0
 10
9.5836776626
 20
10.0877853494
 30
0.0
 10
9.58235101
 20
10.0865579191
 30
0.0
 10
9.5808895437
 20
10.0853411007
 30
0.0
 10
9.5792944208
 20
10.0841358024
 30
0.0
 10
9.577566895
 20
10.0829429666
 30
0.0
 10
9.5757083734
 20
10.0817634678
 30
0.0
 10
9.5737203127
 20
10.0805982571
 30
0.0
 10
9.5708379653
 20
10.0790318673
 30
0.0
 10
9.5669144003
 20
10.0771240521
 30
0.0
 10
9.5618129297
 20
10.074951876
 30
0.0
 10
9.5562397268
 20
10.0728581644
 30
0.0
 10
9.5502127873
 20
10.0708497739
 30
0.0
 10
9.5437514639
 20
10.0689333011
 30
0.0
 10
9.5368766965
 20
10.0671150809
 30
0.0
 10
9.5296108161
 20
10.0654011349
 30
0.0
 10
9.5219774927
 20
10.0637971469
 30
0.0
 10
9.5140016415
 20
10.0623084203
 30
0.0
 10
9.5057093262
 20
10.0609398829
 30
0.0
 10
9.4971276584
 20
10.0596960634
 30
0.0
 10
9.4882847207
 20
10.0585810913
 30
0.0
 10
9.4792094391
 20
10.0575986205
 30
0.0
 10
9.4667391352
 20
10.0564606777
 30
0.0
 10
9.4507915126
 20
10.0553978449
 30
0.0
 10
9.4313682828
 20
10.0546984438
 30
0.0
 10
9.4117618912
 20
10.0545746311
 30
0.0
 10
9.3922289804
 20
10.0550280314
 30
0.0
 10
9.379270865
 20
10.0557193065
 30
0.0
 10
9.3728505798
 20
10.0561645548
 30
0.0
  0
SPLINE
  5
359
100
AcDbEntity
  8
0
100
AcDbSpline
 62
7
  6
CONTINUOUS
 70
0
 71
3
 72
46
 73
42
 74
0
 42
0.0000001
 43
0.0000001
 44
0.0000000001
 40
0.0
 40
0.0
 40
0.0
 40
0.0
 40
0.0149720525
 40
0.0299471649
 40
0.0449283772
 40
0.0599186917
 40
0.0749210573
 40
0.0899383484
 40
0.1049733476
 40
0.1200287333
 40
0.1351070597
 40
0.1502107421
 40
0.1653420474
 40
0.1805030776
 40
0.1956957572
 40
0.2109218287
 40
0.2414745667
 40
0.2721768461
 40
0.3030351766
 40
0.3340525707
 40
0.3652285255
 40
0.3965590884
 40
0.4280369959
 40
0.4596518697
 40
0.4913904744
 40
0.523237028
 40
0.5551735471
 40
0.5871802301
 40
0.6192358692
 40
0.6513182802
 40
0.6834047461
 40
0.7154724694
 40
0.7474990252
 40
0.7794628091
 40
0.811343472
 40
0.843122339
 40
0.8747828041
 40
0.9063106918
 40
0.9376946023
 40
0.9689259241
 40
1.0
 40
1.0
 40
1.0
 40
1.0
 10
9.5986278375
 20
7.947805147
 30
0.0
 10
9.6031074753
 20
7.952132134
 30
0.0
 10
9.6122407712
 20
7.9606098231
 30
0.0
 10
9.6264366955
 20
7.972773306
 30
0.0
 10
9.6411106442
 20
7.9843683529
 30
0.0
 10
9.6562420915
 20
7.9953787995
 30
0.0
 10
9.6718102897
 20
8.0057895718
 30
0.0
 10
9.6877938273
 20
8.015586272
 30
0.0
 10
9.704170673
 20
8.0247554896
 30
0.0
 10
9.7209182908
 20
8.0332846113
 30
0.0
 10
9.7380136608
 20
8.0411618528
 30
0.0
 10
9.7554332177
 20
8.0483764501
 30
0.0
 10
9.7731530226
 20
8.0549184816
 30
0.0
 10
9.7911486159
 20
8.0607788907
 30
0.0
 10
9.809395564
 20
8.065949744
 30
0.0
 10
9.834051089
 20
8.071921469
 30
0.0
 10
9.8653851221
 20
8.0776247104
 30
0.0
 10
9.9035310715
 20
8.0816085938
 30
0.0
 10
9.9420623512
 20
8.082720687
 30
0.0
 10
9.9807655938
 20
8.0809549131
 30
0.0
 10
10.0194284407
 20
8.0763216
 30
0.0
 10
10.057838365
 20
8.0688466665
 30
0.0
 10
10.0957844305
 20
8.0585715472
 30
0.0
 10
10.1330582921
 20
8.0455530693
 30
0.0
 10
10.1694553759
 20
8.0298630871
 30
0.0
 10
10.2047759215
 20
8.0115879734
 30
0.0
 10
10.2388261186
 20
7.9908282839
 30
0.0
 10
10.2714191681
 20
7.9676981869
 30
0.0
 10
10.3023762148
 20
7.9423247269
 30
0.0
 10
10.3315273799
 20
7.9148472412
 30
0.0
 10
10.3587127188
 20
7.885416615
 30
0.0
 10
10.3837829795
 20
7.8541943507
 30
0.0
 10
10.4066004758
 20
7.8213517695
 30
0.0
 10
10.4270399071
 20
7.7870691157
 30
0.0
 10
10.4449889015
 20
7.7515344758
 30
0.0
 10
10.4603486819
 20
7.7149428372
 30
0.0
 10
10.4730347142
 20
7.677494977
 30
0.0
 10
10.4829770236
 20
7.6393966248
 30
0.0
 10
10.4901205495
 20
7.6008562471
 30
0.0
 10
10.4944258214
 20
7.5620882323
 30
0.0
 10
10.4953901077
 20
7.5361601322
 30
0.0
 10
10.4953901077
 20
7.5232337614
 30
0.0
  0
SPLINE
  5
35A
100
AcDbEntity
  8
0
100
AcDbSpline
 62
7
  6
CONTINUOUS
 70
0
 71
3
 72
21
 73
17
 74
0
 42
0.0000001
 43
0.0000001
 44
0.0000000001
 40
0.0
 40
0.0
 40
0.0
 40
0.0
 40
0.0637059368
 40
0.1272429767
 40
0.1905895195
 40
0.2537353466
 40
0.3166796191
 40
0.3794290654
 40
0.4419963668
 40
0.504398446
 40
0.5666548536
 40
0.6287865065
 40
0.6908145497
 40
0.7527595696
 40
0.8764464892
 40
1.0
 40
1.0
 40
1.0
 40
1.0
 10
10.9040549209
 20
8.9998180034
 30
0.0
 10
10.9004349411
 20
8.9950555225
 30
0.0
 10
10.8933801555
 20
8.9854081409
 30
0.0
 10
10.8833711292
 20
8.9705669283
 30
0.0
 10
10.8739737464
 20
8.9553924154
 30
0.0
 10
10.8652109167
 20
8.9399066867
 30
0.0
 10
10.8571014625
 20
8.9241318985
 30
0.0
 10
10.8496609306
 20
8.908090572
 30
0.0
 10
10.8429018996
 20
8.8918054474
 30
0.0
 10
10.8368343715
 20
8.8752995231
 30
0.0
 10
10.8314663323
 20
8.8585959637
 30
0.0
 10
10.8268040846
 20
8.8417183175
 30
0.0
 10
10.8228523823
 20
8.824690069
 30
0.0
 10
10.8185383808
 20
8.801832226
 30
0.0
 10
10.8149334558
 20
8.7729889588
 30
0.0
 10
10.8139709188
 20
8.7497619448
 30
0.0
 10
10.8139709188
 20
8.7381600588
 30
0.0
  0
SPLINE
  5
35B
100
AcDbEntity
  8
0
100
AcDbSpline
 62
7
  6
CONTINUOUS
 70
0
 71
3
 72
46
 73
42
 74
0
 42
0.0000001
 43
0.0000001
 44
0.0000000001
 40
0.0
 40
0.0
 40
0.0
 40
0.0
 40
0.0149720525
 40
0.0299471649
 40
0.0449283772
 40
0.0599186917
 40
0.0749210573
 40
0.0899383484
 40
0.1049733476
 40
0.1200287333
 40
0.1351070597
 40
0.1502107421
 40
0.1653420474
 40
0.1805030776
 40
0.1956957572
 40
0.2109218287
 40
0.2414745667
 40
0.2721768461
 40
0.3030351766
 40
0.3340525707
 40
0.3652285255
 40
0.3965590884
 40
0.4280369959
 40
0.4596518697
 40
0.4913904744
 40
0.523237028
 40
0.5551735471
 40
0.5871802301
 40
0.6192358692
 40
0.6513182802
 40
0.6834047461
 40
0.7154724694
 40
0.7474990252
 40
0.7794628091
 40
0.811343472
 40
0.843122339
 40
0.8747828041
 40
0.9063106918
 40
0.9376946023
 40
0.9689259241
 40
1.0
 40
1.0
 40
1.0
 40
1.0
 10
10.7451817811
 20
8.953992124
 30
0.0
 10
10.7496614189
 20
8.958319111
 30
0.0
 10
10.7587947148
 20
8.9667968001
 30
0.0
 10
10.7729906391
 20
8.9789602831
 30
0.0
 10
10.7876645878
 20
8.99055533
 30
0.0
 10
10.8027960351
 20
9.0015657766
 30
0.0
 10
10.8183642333
 20
9.0119765489
 30
0.0
 10
10.8343477709
 20
9.021773249
 30
0.0
 10
10.8507246166
 20
9.0309424667
 30
0.0
 10
10.8674722344
 20
9.0394715883
 30
0.0
 10
10.8845676044
 20
9.0473488298
 30
0.0
 10
10.9019871613
 20
9.0545634272
 30
0.0
 10
10.9197069662
 20
9.0611054586
 30
0.0
 10
10.9377025595
 20
9.0669658677
 30
0.0
 10
10.9559495076
 20
9.072136721
 30
0.0
 10
10.9806050326
 20
9.078108446
 30
0.0
 10
11.0119390657
 20
9.0838116874
 30
0.0
 10
11.0500850151
 20
9.0877955709
 30
0.0
 10
11.0886162948
 20
9.0889076641
 30
0.0
 10
11.1273195374
 20
9.0871418902
 30
0.0
 10
11.1659823843
 20
9.082508577
 30
0.0
 10
11.2043923086
 20
9.0750336435
 30
0.0
 10
11.2423383741
 20
9.0647585242
 30
0.0
 10
11.2796122357
 20
9.0517400463
 30
0.0
 10
11.3160093195
 20
9.0360500641
 30
0.0
 10
11.3513298651
 20
9.0177749505
 30
0.0
 10
11.3853800622
 20
8.9970152609
 30
0.0
 10
11.4179731117
 20
8.9738851639
 30
0.0
 10
11.4489301584
 20
8.9485117039
 30
0.0
 10
11.4780813235
 20
8.9210342182
 30
0.0
 10
11.5052666624
 20
8.8916035921
 30
0.0
 10
11.5303369231
 20
8.8603813278
 30
0.0
 10
11.5531544194
 20
8.8275387466
 30
0.0
 10
11.5735938507
 20
8.7932560927
 30
0.0
 10
11.5915428451
 20
8.7577214528
 30
0.0
 10
11.6069026255
 20
8.7211298142
 30
0.0
 10
11.6195886578
 20
8.683681954
 30
0.0
 10
11.6295309672
 20
8.6455836018
 30
0.0
 10
11.6366744931
 20
8.6070432242
 30
0.0
 10
11.640979765
 20
8.5682752093
 30
0.0
 10
11.6419440513
 20
8.5423471092
 30
0.0
 10
11.6419440513
 20
8.5294207384
 30
0.0
  0
SPLINE
  5
35C
100
AcDbEntity
  8
0
100
AcDbSpline
 62
7
  6
CONTINUOUS
 70
0
 71
3
 72
71
 73
67
 74
0
 42
0.0000001
 43
0.0000001
 44
0.0000000001
 40
0.0
 40
0.0
 40
0.0
 40
0.0
 40
0.0155842565
 40
0.0311159319
 40
0.0465952524
 40
0.0620238826
 40
0.0774034482
 40
0.0927362827
 40
0.1080251231
 40
0.1232731738
 40
0.1384840558
 40
0.1536617763
 40
0.1688106896
 40
0.1839354527
 40
0.199040978
 40
0.2141323822
 40
0.2292149324
 40
0.2442939901
 40
0.2593749544
 40
0.2744632041
 40
0.2895640403
 40
0.3046826298
 40
0.3198239504
 40
0.3349927394
 40
0.3501934439
 40
0.3654301774
 40
0.3807066784
 40
0.3960262752
 40
0.411391855
 40
0.4268058382
 40
0.4422701586
 40
0.4577862484
 40
0.4733550295
 40
0.4889769098
 40
0.5046517845
 40
0.5203790422
 40
0.5361575755
 40
0.5519857963
 40
0.5678616545
 40
0.5837826618
 40
0.5997459181
 40
0.6157481413
 40
0.6317856992
 40
0.6478546441
 40
0.6639507502
 40
0.6800695513
 40
0.6962063821
 40
0.7123564199
 40
0.7285147268
 40
0.7446762929
 40
0.76083608
 40
0.776989065
 40
0.7931302839
 40
0.8092548753
 40
0.8253581235
 40
0.8414355003
 40
0.8574827053
 40
0.8734957053
 40
0.889470771
 40
0.9054045131
 40
0.921293919
 40
0.9371363621
 40
0.9529297157
 40
0.968672092
 40
0.9843626215
 40
1.0
 40
1.0
 40
1.0
 40
1.0
 10
10.4908564549
 20
7.5318545887
 30
0.0
 10
10.4908564549
 20
7.5235404584
 30
0.0
 10
10.4904495773
 20
7.5069373014
 30
0.0
 10
10.4886129037
 20
7.4821371595
 30
0.0
 10
10.4855550988
 20
7.4575407483
 30
0.0
 10
10.4812836555
 20
7.4332082763
 30
0.0
 10
10.4758086732
 20
7.4091980513
 30
0.0
 10
10.4691433554
 20
7.385568061
 30
0.0
 10
10.4613036762
 20
7.362375246
 30
0.0
 10
10.4523084839
 20
7.3396755432
 30
0.0
 10
10.4421794174
 20
7.317523694
 30
0.0
 10
10.4309408591
 20
7.2959731266
 30
0.0
 10
10.4186198718
 20
7.2750758245
 30
0.0
 10
10.4052461348
 20
7.2548822004
 30
0.0
 10
10.3908518733
 20
7.2354409733
 30
0.0
 10
10.3754717814
 20
7.2167990491
 30
0.0
 10
10.3591429367
 20
7.1990014077
 30
0.0
 10
10.341904722
 20
7.1820909816
 30
0.0
 10
10.3237987202
 20
7.1661085567
 30
0.0
 10
10.3048686096
 20
7.1510926758
 30
0.0
 10
10.2851600585
 20
7.1370795444
 30
0.0
 10
10.264720613
 20
7.1241029433
 30
0.0
 10
10.2435995815
 20
7.1121941467
 30
0.0
 10
10.2218479135
 20
7.1013818489
 30
0.0
 10
10.1995180813
 20
7.0916920825
 30
0.0
 10
10.1766639472
 20
7.0831481617
 30
0.0
 10
10.153340629
 20
7.0757706335
 30
0.0
 10
10.129604367
 20
7.0695772282
 30
0.0
 10
10.1055123877
 20
7.0645828186
 30
0.0
 10
10.0811227661
 20
7.0607993852
 30
0.0
 10
10.0564942852
 20
7.0582359914
 30
0.0
 10
10.0316862959
 20
7.0568987508
 30
0.0
 10
10.0067585717
 20
7.0567908164
 30
0.0
 10
9.9817711644
 20
7.0579123842
 30
0.0
 10
9.95678426
 20
7.0602606917
 30
0.0
 10
9.9318580352
 20
7.0638300265
 30
0.0
 10
9.9070525134
 20
7.0686117404
 30
0.0
 10
9.8824274224
 20
7.0745942732
 30
0.0
 10
9.8580420491
 20
7.0817631715
 30
0.0
 10
9.8339550957
 20
7.0901011225
 30
0.0
 10
9.810224542
 20
7.0995880082
 30
0.0
 10
9.7869075063
 20
7.1102009512
 30
0.0
 10
9.7640601099
 20
7.1219143706
 30
0.0
 10
9.7417373424
 20
7.134700043
 30
0.0
 10
9.7199929325
 20
7.1485271714
 30
0.0
 10
9.698879215
 20
7.1633624532
 30
0.0
 10
9.6784470015
 20
7.1791701557
 30
0.0
 10
9.6587454657
 20
7.195912214
 30
0.0
 10
9.6398220246
 20
7.2135483195
 30
0.0
 10
9.6217222261
 20
7.232036017
 30
0.0
 10
9.6044896397
 20
7.2513308061
 30
0.0
 10
9.5881657533
 20
7.2713862473
 30
0.0
 10
9.5727898709
 20
7.2921540712
 30
0.0
 10
9.5583990093
 20
7.3135842885
 30
0.0
 10
9.545027821
 20
7.3356253199
 30
0.0
 10
9.5327085097
 20
7.3582241173
 30
0.0
 10
9.5214707537
 20
7.3813262912
 30
0.0
 10
9.5113416347
 20
7.4048762401
 30
0.0
 10
9.5023455741
 20
7.4288172825
 30
0.0
 10
9.4945042676
 20
7.4530917947
 30
0.0
 10
9.487836638
 20
7.4776413327
 30
0.0
 10
9.4823587494
 20
7.5024068296
 30
0.0
 10
9.4780839067
 20
7.5273285494
 30
0.0
 10
9.4750223251
 20
7.5523468301
 30
0.0
 10
9.4731816155
 20
7.5774004757
 30
0.0
 10
9.4727705737
 20
7.5941166138
 30
0.0
 10
9.4727705737
 20
7.6024590844
 30
0.0
  0
SPLINE
  5
35D
100
AcDbEntity
  8
0
100
AcDbSpline
 62
7
  6
CONTINUOUS
 70
0
 71
3
 72
56
 73
52
 74
0
 42
0.0000001
 43
0.0000001
 44
0.0000000001
 40
0.0
 40
0.0
 40
0.0
 40
0.0
 40
0.0532131131
 40
0.105633554
 40
0.1571443692
 40
0.2076346289
 40
0.2569945169
 40
0.3051184503
 40
0.3519044663
 40
0.3972549662
 40
0.4410771197
 40
0.4832833744
 40
0.5237920264
 40
0.5625278718
 40
0.5994229784
 40
0.6344176177
 40
0.6511866862
 40
0.6674626524
 40
0.683240886
 40
0.6985176179
 40
0.7132899542
 40
0.7275558774
 40
0.7413145617
 40
0.7545661886
 40
0.767312411
 40
0.7795562339
 40
0.7913023825
 40
0.8025574865
 40
0.8133302408
 40
0.823631933
 40
0.833476506
 40
0.8428812547
 40
0.8518670268
 40
0.8604588344
 40
0.8686863032
 40
0.876584014
 40
0.8841919771
 40
0.8915555538
 40
0.8987254324
 40
0.9057569207
 40
0.9127089848
 40
0.919642806
 40
0.9266200918
 40
0.9337012954
 40
0.9409440611
 40
0.9484018784
 40
0.9641402673
 40
0.9725130258
 40
0.9812628804
 40
0.9904174298
 40
1.0
 40
1.0
 40
1.0
 40
1.0
 10
13.0982241605
 20
7.8102468632
 30
0.0
 10
13.0982241605
 20
7.8184393475
 30
0.0
 10
13.0981186342
 20
7.8347024971
 30
0.0
 10
13.0976369128
 20
7.8588917539
 30
0.0
 10
13.096833963
 20
7.8826531269
 30
0.0
 10
13.0957117871
 20
7.9059298748
 30
0.0
 10
13.0942730635
 20
7.928666814
 30
0.0
 10
13.0925212885
 20
7.9508098204
 30
0.0
 10
13.090460682
 20
7.9723062901
 30
0.0
 10
13.0880962186
 20
7.9931051465
 30
0.0
 10
13.085433606
 20
8.0131570045
 30
0.0
 10
13.0824792713
 20
8.0324142916
 30
0.0
 10
13.0792403417
 20
8.0508313465
 30
0.0
 10
13.0757246382
 20
8.0683646185
 30
0.0
 10
13.071940611
 20
8.084972514
 30
0.0
 10
13.0685245322
 20
8.0981901547
 30
0.0
 10
13.0656548873
 20
8.1082649925
 30
0.0
 10
13.0634719171
 20
8.1154580845
 30
0.0
 10
13.0612288832
 20
8.122391607
 30
0.0
 10
13.0589271012
 20
8.1290614691
 30
0.0
 10
13.0565679652
 20
8.1354637339
 30
0.0
 10
13.0541528234
 20
8.1415946149
 30
0.0
 10
13.0516831681
 20
8.1474505184
 30
0.0
 10
13.0491603816
 20
8.1530279852
 30
0.0
 10
13.0465860018
 20
8.1583237632
 30
0.0
 10
13.0439614884
 20
8.1633347466
 30
0.0
 10
13.0412883598
 20
8.1680580134
 30
0.0
 10
13.0385681705
 20
8.1724908333
 30
0.0
 10
13.0358023894
 20
8.1766306033
 30
0.0
 10
13.0329926247
 20
8.1804749665
 30
0.0
 10
13.030140314
 20
8.1840216386
 30
0.0
 10
13.0272470311
 20
8.187268581
 30
0.0
 10
13.0243142253
 20
8.1902138272
 30
0.0
 10
13.0213433717
 20
8.1928555464
 30
0.0
 10
13.0183359739
 20
8.1951920454
 30
0.0
 10
13.0152934673
 20
8.1972215783
 30
0.0
 10
13.0122174922
 20
8.198942625
 30
0.0
 10
13.0091096882
 20
8.2003535093
 30
0.0
 10
13.0059720202
 20
8.201452846
 30
0.0
 10
13.0028066392
 20
8.2022392936
 30
0.0
 10
12.9996159963
 20
8.2027118496
 30
0.0
 10
12.9964027424
 20
8.2028700074
 30
0.0
 10
12.9931695888
 20
8.2027135584
 30
0.0
 10
12.9899192316
 20
8.2022430636
 30
0.0
 10
12.9866539712
 20
8.2014590902
 30
0.0
 10
12.982205005
 20
8.1999713677
 30
0.0
 10
12.9778028708
 20
8.1978592468
 30
0.0
 10
12.9734878457
 20
8.1952141756
 30
0.0
 10
12.9701785143
 20
8.1928821852
 30
0.0
 10
12.9668661381
 20
8.1902452937
 30
0.0
 10
12.9647072142
 20
8.1883298078
 30
0.0
 10
12.9636272689
 20
8.1873247135
 30
0.0
  0
SPLINE
  5
35E
100
AcDbEntity
  8
0
100
AcDbSpline
 62
7
  6
CONTINUOUS
 70
0
 71
3
 72
71
 73
67
 74
0
 42
0.0000001
 43
0.0000001
 44
0.0000000001
 40
0.0
 40
0.0
 40
0.0
 40
0.0
 40
0.0156373785
 40
0.031327908
 40
0.0470702843
 40
0.0628636379
 40
0.078706081
 40
0.0945954869
 40
0.110529229
 40
0.1265042947
 40
0.1425172947
 40
0.1585644997
 40
0.1746418765
 40
0.1907451247
 40
0.2068697161
 40
0.223010935
 40
0.23916392
 40
0.2553237071
 40
0.2714852732
 40
0.2876435801
 40
0.3037936179
 40
0.3199304487
 40
0.3360492498
 40
0.3521453559
 40
0.3682143008
 40
0.3842518587
 40
0.4002540819
 40
0.4162173382
 40
0.4321383455
 40
0.4480142037
 40
0.4638424245
 40
0.4796209578
 40
0.4953482155
 40
0.5110230902
 40
0.5266449705
 40
0.5422137516
 40
0.5577298414
 40
0.5731941618
 40
0.588608145
 40
0.6039737248
 40
0.6192933216
 40
0.6345698226
 40
0.6498065561
 40
0.6650072606
 40
0.6801760496
 40
0.6953173702
 40
0.7104359597
 40
0.7255367959
 40
0.7406250456
 40
0.7557060099
 40
0.7707850676
 40
0.7858676178
 40
0.800959022
 40
0.8160645473
 40
0.8311893104
 40
0.8463382237
 40
0.8615159442
 40
0.8767268262
 40
0.8919748769
 40
0.9072637173
 40
0.9225965518
 40
0.9379761174
 40
0.9534047476
 40
0.9688840681
 40
0.9844157435
 40
1.0
 40
1.0
 40
1.0
 40
1.0
 10
10.4908564549
 20
7.5318545887
 30
0.0
 10
10.4908564549
 20
7.5401970594
 30
0.0
 10
10.4904454131
 20
7.5569131975
 30
0.0
 10
10.4886047034
 20
7.5819668431
 30
0.0
 10
10.4855431218
 20
7.6069851237
 30
0.0
 10
10.4812682791
 20
7.6319068435
 30
0.0
 10
10.4757903906
 20
7.6566723404
 30
0.0
 10
10.469122761
 20
7.6812218784
 30
0.0
 10
10.4612814545
 20
7.7054963907
 30
0.0
 10
10.4522853938
 20
7.7294374331
 30
0.0
 10
10.4421562749
 20
7.7529873819
 30
0.0
 10
10.4309185189
 20
7.7760895558
 30
0.0
 10
10.4185992076
 20
7.7986883533
 30
0.0
 10
10.4052280193
 20
7.8207293846
 30
0.0
 10
10.3908371577
 20
7.842159602
 30
0.0
 10
10.3754612753
 20
7.8629274258
 30
0.0
 10
10.3591373889
 20
7.8829828671
 30
0.0
 10
10.3419048025
 20
7.9022776561
 30
0.0
 10
10.323805004
 20
7.9207653536
 30
0.0
 10
10.3048815629
 20
7.9384014591
 30
0.0
 10
10.2851800271
 20
7.9551435174
 30
0.0
 10
10.2647478136
 20
7.9709512199
 30
0.0
 10
10.2436340961
 20
7.9857865017
 30
0.0
 10
10.2218896861
 20
7.9996136301
 30
0.0
 10
10.1995669187
 20
8.0123993025
 30
0.0
 10
10.1767195223
 20
8.024112722
 30
0.0
 10
10.1534024866
 20
8.0347256649
 30
0.0
 10
10.1296719329
 20
8.0442125506
 30
0.0
 10
10.1055849795
 20
8.0525505017
 30
0.0
 10
10.0811996062
 20
8.0597193999
 30
0.0
 10
10.0565745151
 20
8.0657019327
 30
0.0
 10
10.0317689934
 20
8.0704836467
 30
0.0
 10
10.0068427686
 20
8.0740529814
 30
0.0
 10
9.9818558642
 20
8.0764012889
 30
0.0
 10
9.9568684569
 20
8.0775228567
 30
0.0
 10
9.9319407327
 20
8.0774149224
 30
0.0
 10
9.9071327434
 20
8.0760776818
 30
0.0
 10
9.8825042624
 20
8.0735142879
 30
0.0
 10
9.8581146408
 20
8.0697308545
 30
0.0
 10
9.8340226616
 20
8.0647364449
 30
0.0
 10
9.8102863996
 20
8.0585430396
 30
0.0
 10
9.7869630813
 20
8.0511655115
 30
0.0
 10
9.7641089472
 20
8.0426215907
 30
0.0
 10
9.7417791151
 20
8.0329318243
 30
0.0
 10
9.7200274471
 20
8.0221195264
 30
0.0
 10
9.6989064156
 20
8.0102107298
 30
0.0
 10
9.67846697
 20
7.9972341288
 30
0.0
 10
9.6587584189
 20
7.9832209974
 30
0.0
 10
9.6398283084
 20
7.9682051164
 30
0.0
 10
9.6217223066
 20
7.9522226915
 30
0.0
 10
9.6044840918
 20
7.9353122655
 30
0.0
 10
9.5881552471
 20
7.9175146241
 30
0.0
 10
9.5727751553
 20
7.8988726999
 30
0.0
 10
9.5583808938
 20
7.8794314727
 30
0.0
 10
9.5450071568
 20
7.8592378486
 30
0.0
 10
9.5326861695
 20
7.8383405466
 30
0.0
 10
9.5214476112
 20
7.8167899792
 30
0.0
 10
9.5113185446
 20
7.7946381299
 30
0.0
 10
9.5023233524
 20
7.7719384271
 30
0.0
 10
9.4944836732
 20
7.7487456121
 30
0.0
 10
9.4878183553
 20
7.7251156219
 30
0.0
 10
9.482343373
 20
7.7011053968
 30
0.0
 10
9.4780719297
 20
7.6767729248
 30
0.0
 10
9.4750141248
 20
7.6521765136
 30
0.0
 10
9.4731774513
 20
7.6273763717
 30
0.0
 10
9.4727705737
 20
7.6107732147
 30
0.0
 10
9.4727705737
 20
7.6024590844
 30
0.0
  0
SPLINE
  5
35F
100
AcDbEntity
  8
0
100
AcDbSpline
 62
7
  6
CONTINUOUS
 70
0
 71
3
 72
15
 73
11
 74
0
 42
0.0000001
 43
0.0000001
 44
0.0000000001
 40
0.0
 40
0.0
 40
0.0
 40
0.0
 40
0.164396815
 40
0.3164102787
 40
0.4563866578
 40
0.584821459
 40
0.7023706596
 40
0.8099114887
 40
0.9086094936
 40
1.0
 40
1.0
 40
1.0
 40
1.0
 10
10.3417585243
 20
7.3626612222
 30
0.0
 10
10.340452211
 20
7.3613994203
 30
0.0
 10
10.3379951922
 20
7.3589102977
 30
0.0
 10
10.3346629384
 20
7.3551222347
 30
0.0
 10
10.3318333317
 20
7.3514337874
 30
0.0
 10
10.3295092315
 20
7.3478527205
 30
0.0
 10
10.3276926815
 20
7.3443878767
 30
0.0
 10
10.3263862723
 20
7.3410485175
 30
0.0
 10
10.3255926854
 20
7.3378472434
 30
0.0
 10
10.3254027571
 20
7.335744454
 30
0.0
 10
10.3254029551
 20
7.3347348004
 30
0.0
  0
SPLINE
  5
360
100
AcDbEntity
  8
0
100
AcDbSpline
 62
7
  6
CONTINUOUS
 70
0
 71
3
 72
48
 73
44
 74
0
 42
0.0000001
 43
0.0000001
 44
0.0000000001
 40
0.0
 40
0.0
 40
0.0
 40
0.0
 40
0.0063158899
 40
0.0126706797
 40
0.0191025165
 40
0.025648058
 40
0.0323419221
 40
0.0392162652
 40
0.0536140552
 40
0.0611947659
 40
0.0690564915
 40
0.0772175997
 40
0.0856939645
 40
0.0944993396
 40
0.103645447
 40
0.1131421893
 40
0.122997946
 40
0.1332195527
 40
0.1438126331
 40
0.1547816545
 40
0.1661299881
 40
0.1778601838
 40
0.1899738557
 40
0.215353302
 40
0.2422691224
 40
0.2707113841
 40
0.3006623731
 40
0.332097648
 40
0.3649869327
 40
0.3992948208
 40
0.434981328
 40
0.4720023222
 40
0.5103099054
 40
0.5498527799
 40
0.590576537
 40
0.632423903
 40
0.6753349407
 40
0.7192473098
 40
0.7640964278
 40
0.8098157282
 40
0.8563368617
 40
0.9035891153
 40
1.0
 40
1.0
 40
1.0
 40
1.0
 10
13.0413364438
 20
8.3701881149
 30
0.0
 10
13.042511126
 20
8.3701066556
 30
0.0
 10
13.0448621731
 20
8.3698470781
 30
0.0
 10
13.0483624085
 20
8.3691705343
 30
0.0
 10
13.0518392381
 20
8.3682067303
 30
0.0
 10
13.0552906376
 20
8.3669564941
 30
0.0
 10
13.0587152657
 20
8.3654205553
 30
0.0
 10
13.0633135934
 20
8.3629556141
 30
0.0
 10
13.0677870783
 20
8.359938195
 30
0.0
 10
13.0721162453
 20
8.3564414323
 30
0.0
 10
13.0753862464
 20
8.353493265
 30
0.0
 10
13.0786213047
 20
8.3502664644
 30
0.0
 10
13.0818206549
 20
8.3467622204
 30
0.0
 10
13.0849829569
 20
8.3429820182
 30
0.0
 10
13.0881070539
 20
8.338927401
 30
0.0
 10
13.0911917726
 20
8.3346000434
 30
0.0
 10
13.0942358587
 20
8.330001665
 30
0.0
 10
13.0972381724
 20
8.3251341633
 30
0.0
 10
13.100197495
 20
8.3199994957
 30
0.0
 10
13.1031126321
 20
8.314599742
 30
0.0
 10
13.1059824464
 20
8.3089371177
 30
0.0
 10
13.1088057524
 20
8.3030138954
 30
0.0
 10
13.1125651142
 20
8.2946415733
 30
0.0
 10
13.1171272939
 20
8.283529989
 30
0.0
 10
13.1223166985
 20
8.2693972991
 30
0.0
 10
13.127294184
 20
8.2542887645
 30
0.0
 10
13.1320515374
 20
8.2382291084
 30
0.0
 10
13.1365809053
 20
8.2212444034
 30
0.0
 10
13.1408747735
 20
8.2033624195
 30
0.0
 10
13.1449260024
 20
8.1846124324
 30
0.0
 10
13.1487278416
 20
8.1650252001
 30
0.0
 10
13.1522739567
 20
8.144632902
 30
0.0
 10
13.1555584463
 20
8.123469081
 30
0.0
 10
13.1585758371
 20
8.1015685723
 30
0.0
 10
13.1613210983
 20
8.0789674388
 30
0.0
 10
13.1637896476
 20
8.0557029164
 30
0.0
 10
13.1659773779
 20
8.0318133499
 30
0.0
 10
13.1678806433
 20
8.0073381317
 30
0.0
 10
13.1694962738
 20
7.982317614
 30
0.0
 10
13.1708215626
 20
7.9567930589
 30
0.0
 10
13.1718543123
 20
7.9308065829
 30
0.0
 10
13.1728454779
 20
7.8953628591
 30
0.0
 10
13.1731329909
 20
7.8685776087
 30
0.0
 10
13.1731329909
 20
7.8506032406
 30
0.0
  0
SPLINE
  5
361
100
AcDbEntity
  8
0
100
AcDbSpline
 62
7
  6
CONTINUOUS
 70
0
 71
3
 72
37
 73
33
 74
0
 42
0.0000001
 43
0.0000001
 44
0.0000000001
 40
0.0
 40
0.0
 40
0.0
 40
0.0
 40
0.0306358971
 40
0.0613750814
 40
0.0922157449
 40
0.1231551209
 40
0.1541895174
 40
0.1853143605
 40
0.2165242473
 40
0.2478130007
 40
0.2791737303
 40
0.3105988981
 40
0.3420803897
 40
0.3736095924
 40
0.4051774734
 40
0.4367746596
 40
0.5000015908
 40
0.5632284426
 40
0.5948255332
 40
0.6263932833
 40
0.6579223185
 40
0.6894036061
 40
0.7208285362
 40
0.7521889995
 40
0.7834774603
 40
0.8146870281
 40
0.8458115337
 40
0.8768455446
 40
0.9077845995
 40
0.93862478
 40
0.9693635217
 40
1.0
 40
1.0
 40
1.0
 40
1.0
 10
10.4774276592
 20
7.6259750088
 30
0.0
 10
10.4706638948
 20
7.6263169574
 30
0.0
 10
10.457128105
 20
7.6273353252
 30
0.0
 10
10.4368913525
 20
7.6298543023
 30
0.0
 10
10.4167337105
 20
7.6333613189
 30
0.0
 10
10.3967045557
 20
7.6378478202
 30
0.0
 10
10.3768521311
 20
7.6433029375
 30
0.0
 10
10.3572244623
 20
7.6497134274
 30
0.0
 10
10.3378689697
 20
7.6570637563
 30
0.0
 10
10.3188324304
 20
7.6653361268
 30
0.0
 10
10.3001608445
 20
7.6745105259
 30
0.0
 10
10.2818993442
 20
7.6845647615
 30
0.0
 10
10.2640920234
 20
7.6954745286
 30
0.0
 10
10.246782004
 20
7.7072133379
 30
0.0
 10
10.2300107372
 20
7.7197531738
 30
0.0
 10
10.2084205278
 20
7.7375010017
 30
0.0
 10
10.1829838554
 20
7.7615293436
 30
0.0
 10
10.1598561581
 20
7.787787553
 30
0.0
 10
10.142871179
 20
7.8099828055
 30
0.0
 10
10.1309231976
 20
7.8271806247
 30
0.0
 10
10.1197945587
 20
7.8448889611
 30
0.0
 10
10.1095118042
 20
7.8630654029
 30
0.0
 10
10.1000998914
 20
7.8816659248
 30
0.0
 10
10.0915815624
 20
7.9006456102
 30
0.0
 10
10.0839774411
 20
7.9199585913
 30
0.0
 10
10.0773059456
 20
7.9395582065
 30
0.0
 10
10.0715832344
 20
7.9593970783
 30
0.0
 10
10.0668231407
 20
7.9794272825
 30
0.0
 10
10.0630372545
 20
7.9996003342
 30
0.0
 10
10.0602347125
 20
8.0198676512
 30
0.0
 10
10.0584223542
 20
8.0401798095
 30
0.0
 10
10.0578763499
 20
8.0537428981
 30
0.0
 10
10.0577702672
 20
8.0605145984
 30
0.0
  0
SPLINE
  5
362
100
AcDbEntity
  8
0
100
AcDbSpline
 62
7
  6
CONTINUOUS
 70
0
 71
3
 72
44
 73
40
 74
0
 42
0.0000001
 43
0.0000001
 44
0.0000000001
 40
0.0
 40
0.0
 40
0.0
 40
0.0
 40
0.0924658189
 40
0.1826123444
 40
0.2266685511
 40
0.2699692249
 40
0.3124585516
 40
0.3540820653
 40
0.394787031
 40
0.434522488
 40
0.4732393644
 40
0.5108907173
 40
0.5474318862
 40
0.5828206213
 40
0.6170173304
 40
0.6499853847
 40
0.6816913094
 40
0.7121050976
 40
0.7412006957
 40
0.7689564315
 40
0.7953555319
 40
0.8203869029
 40
0.8440460956
 40
0.8663363671
 40
0.8769724159
 40
0.8872718427
 40
0.8972379498
 40
0.9068748932
 40
0.9161878389
 40
0.9251829016
 40
0.9338673966
 40
0.9422499535
 40
0.9503405364
 40
0.9581507433
 40
0.9656938807
 40
0.9729850573
 40
0.9868766524
 40
0.9935234958
 40
1.0
 40
1.0
 40
1.0
 40
1.0
 10
13.1422233618
 20
9.724711273
 30
0.0
 10
13.1422233618
 20
9.7414606099
 30
0.0
 10
13.1418922204
 20
9.7745401815
 30
0.0
 10
13.14061345
 20
9.8155826358
 30
0.0
 10
13.1390684293
 20
9.8476992253
 30
0.0
 10
13.1376659904
 20
9.8711783913
 30
0.0
 10
13.1360131687
 20
9.8941994993
 30
0.0
 10
13.1341123051
 20
9.9167296717
 30
0.0
 10
13.1319661654
 20
9.9387366932
 30
0.0
 10
13.1295778475
 20
9.9601891149
 30
0.0
 10
13.1269507833
 20
9.9810562802
 30
0.0
 10
13.1240887674
 20
10.0013083826
 30
0.0
 10
13.12099594
 20
10.0209165094
 30
0.0
 10
13.1176767567
 20
10.0398526731
 30
0.0
 10
13.1141359936
 20
10.0580898629
 30
0.0
 10
13.1103787737
 20
10.0756020958
 30
0.0
 10
13.1064105154
 20
10.0923644448
 30
0.0
 10
13.1022369156
 20
10.108353077
 30
0.0
 10
13.0978639848
 20
10.1235453113
 30
0.0
 10
13.0932980067
 20
10.1379196646
 30
0.0
 10
13.0885454991
 20
10.1514558401
 30
0.0
 10
13.0836131849
 20
10.1641349085
 30
0.0
 10
13.0785080678
 20
10.1759389355
 30
0.0
 10
13.0740486175
 20
10.1851721565
 30
0.0
 10
13.0703914817
 20
10.1920963416
 30
0.0
 10
13.0676529019
 20
10.1969789517
 30
0.0
 10
13.0648766346
 20
10.2016307239
 30
0.0
 10
13.0620635888
 20
10.2060500152
 30
0.0
 10
13.0592147885
 20
10.210235294
 30
0.0
 10
13.056331168
 20
10.2141850652
 30
0.0
 10
13.053413701
 20
10.2178979328
 30
0.0
 10
13.0504634086
 20
10.221372608
 30
0.0
 10
13.0474811963
 20
10.2246078298
 30
0.0
 10
13.0444681395
 20
10.22760239
 30
0.0
 10
13.0414249585
 20
10.230355411
 30
0.0
 10
13.0373945519
 20
10.2336487332
 30
0.0
 10
13.0332393401
 20
10.2365265319
 30
0.0
 10
13.0289735902
 20
10.2389296039
 30
0.0
 10
13.0268297735
 20
10.2399616552
 30
0.0
 10
13.0257559518
 20
10.2404341063
 30
0.0
  0
SPLINE
  5
363
100
AcDbEntity
  8
0
100
AcDbSpline
 62
7
  6
CONTINUOUS
 70
0
 71
3
 72
51
 73
47
 74
0
 42
0.0000001
 43
0.0000001
 44
0.0000000001
 40
0.0
 40
0.0
 40
0.0
 40
0.0
 40
0.0404197988
 40
0.0812956878
 40
0.1225135268
 40
0.1639576867
 40
0.2055118783
 40
0.247059362
 40
0.2884834419
 40
0.3296678558
 40
0.3704971998
 40
0.410857345
 40
0.4506358589
 40
0.4897224317
 40
0.5280093083
 40
0.5653917311
 40
0.6017683958
 40
0.6370419276
 40
0.6711193861
 40
0.7039128094
 40
0.7353398169
 40
0.7653242927
 40
0.7797540741
 40
0.7937979427
 40
0.8074485697
 40
0.8206991318
 40
0.8335434934
 40
0.8459761296
 40
0.8579923054
 40
0.8695880371
 40
0.8807602703
 40
0.8915068932
 40
0.9018269203
 40
0.9117205745
 40
0.9211894897
 40
0.9302368833
 40
0.9388677995
 40
0.9470893991
 40
0.9549112727
 40
0.9623458745
 40
0.969408931
 40
0.9761200204
 40
0.9825030587
 40
0.9885869338
 40
0.9944059077
 40
1.0
 40
1.0
 40
1.0
 40
1.0
 10
13.1422233618
 20
9.724711273
 30
0.0
 10
13.1422233618
 20
9.7123791598
 30
0.0
 10
13.1420403923
 20
9.6875754274
 30
0.0
 10
13.1412308085
 20
9.650204041
 30
0.0
 10
13.1398866905
 20
9.6125352724
 30
0.0
 10
13.1380120302
 20
9.5746820149
 30
0.0
 10
13.1356124323
 20
9.5367576327
 30
0.0
 10
13.1326950758
 20
9.4988757082
 30
0.0
 10
13.1292687057
 20
9.4611496989
 30
0.0
 10
13.1253435997
 20
9.4236925908
 30
0.0
 10
13.1209315412
 20
9.3866165603
 30
0.0
 10
13.1160457826
 20
9.350032635
 30
0.0
 10
13.1107010067
 20
9.3140503588
 30
0.0
 10
13.1049132834
 20
9.2787774608
 30
0.0
 10
13.0987000224
 20
9.2443195282
 30
0.0
 10
13.092079922
 20
9.2107796854
 30
0.0
 10
13.0850729141
 20
9.1782582802
 30
0.0
 10
13.0777001057
 20
9.1468525681
 30
0.0
 10
13.0699837151
 20
9.1166564361
 30
0.0
 10
13.0619470112
 20
9.0877600139
 30
0.0
 10
13.0536142184
 20
9.0602497108
 30
0.0
 10
13.0463547233
 20
9.0382756119
 30
0.0
 10
13.0404061234
 20
9.0214606684
 30
0.0
 10
13.0359434412
 20
9.009407663
 30
0.0
 10
13.0314258434
 20
8.9977601919
 30
0.0
 10
13.0268566343
 20
8.986526948
 30
0.0
 10
13.0222392973
 20
8.9757163048
 30
0.0
 10
13.0175772421
 20
8.9653363295
 30
0.0
 10
13.0128740021
 20
8.9553947404
 30
0.0
 10
13.008133053
 20
8.9458989403
 30
0.0
 10
13.0033579672
 20
8.9368559686
 30
0.0
 10
12.9985522686
 20
8.9282725354
 30
0.0
 10
12.9937195459
 20
8.9201549771
 30
0.0
 10
12.9888633489
 20
8.912509285
 30
0.0
 10
12.9839872519
 20
8.9053410729
 30
0.0
 10
12.9790947974
 20
8.8986555927
 30
0.0
 10
12.9741895013
 20
8.892457727
 30
0.0
 10
12.9692748499
 20
8.8867519829
 30
0.0
 10
12.9643542407
 20
8.881542531
 30
0.0
 10
12.9594310372
 20
8.8768331678
 30
0.0
 10
12.9545084575
 20
8.8726274336
 30
0.0
 10
12.949589676
 20
8.8689285293
 30
0.0
 10
12.9446777731
 20
8.8657395671
 30
0.0
 10
12.9397756451
 20
8.863063346
 30
0.0
 10
12.9348870339
 20
8.8609029618
 30
0.0
 10
12.9315813468
 20
8.859789024
 30
0.0
 10
12.929938829
 20
8.8593251572
 30
0.0
  0
SPLINE
  5
364
100
AcDbEntity
  8
0
100
AcDbSpline
 62
7
  6
CONTINUOUS
 70
0
 71
3
 72
57
 73
53
 74
0
 42
0.0000001
 43
0.0000001
 44
0.0000000001
 40
0.0
 40
0.0
 40
0.0
 40
0.0
 40
0.0452111151
 40
0.0910028922
 40
0.1371914731
 40
0.183589865
 40
0.2300105241
 40
0.2762656379
 40
0.3221682775
 40
0.3675333237
 40
0.4121784488
 40
0.4559250957
 40
0.4985994741
 40
0.5400335829
 40
0.5800662712
 40
0.6185443608
 40
0.637155417
 40
0.6553246567
 40
0.6730357378
 40
0.6902730659
 40
0.7070219026
 40
0.7232683064
 40
0.7389993698
 40
0.7542031206
 40
0.7688687611
 40
0.7829866902
 40
0.7965486293
 40
0.8095478594
 40
0.8219792442
 40
0.8338396478
 40
0.8451280137
 40
0.8558458432
 40
0.8659975471
 40
0.8755909364
 40
0.8846379793
 40
0.8931554241
 40
0.9011659533
 40
0.9086991512
 40
0.9157928765
 40
0.9224945133
 40
0.9288620062
 40
0.9349644242
 40
0.9408812842
 40
0.946700577
 40
0.9525151341
 40
0.9584180353
 40
0.9644979297
 40
0.9708353444
 40
0.9775004039
 40
0.9845522178
 40
0.9920391601
 40
1.0
 40
1.0
 40
1.0
 40
1.0
 10
13.0982241605
 20
9.6822113056
 30
0.0
 10
13.0982241605
 20
9.6710178809
 30
0.0
 10
13.0980245323
 20
9.6484868175
 30
0.0
 10
13.0971442728
 20
9.6145306657
 30
0.0
 10
13.0956846403
 20
9.5803001948
 30
0.0
 10
13.0936518629
 20
9.5459430526
 30
0.0
 10
13.0910547086
 20
9.5116074336
 30
0.0
 10
13.0879043782
 20
9.4774413876
 30
0.0
 10
13.0842144902
 20
9.4435922451
 30
0.0
 10
13.0800010126
 20
9.4102059538
 30
0.0
 10
13.0752821998
 20
9.3774264473
 30
0.0
 10
13.0700785118
 20
9.3453950112
 30
0.0
 10
13.064412525
 20
9.3142496852
 30
0.0
 10
13.0583088513
 20
9.2841245813
 30
0.0
 10
13.0517939865
 20
9.2551495534
 30
0.0
 10
13.0459833547
 20
9.23181402
 30
0.0
 10
13.0411402572
 20
9.2138214279
 30
0.0
 10
13.037463437
 20
9.2008406547
 30
0.0
 10
13.0337058085
 20
9.1882375333
 30
0.0
 10
13.0298713945
 20
9.1760256265
 30
0.0
 10
13.025964384
 20
9.1642180806
 30
0.0
 10
13.0219889538
 20
9.1528276071
 30
0.0
 10
13.0179494546
 20
9.1418664469
 30
0.0
 10
13.0138502109
 20
9.1313463847
 30
0.0
 10
13.0096956766
 20
9.1212787082
 30
0.0
 10
13.005490337
 20
9.1116742092
 30
0.0
 10
13.0012386999
 20
9.1025431744
 30
0.0
 10
12.9969453885
 20
9.0938953414
 30
0.0
 10
12.9926149475
 20
9.0857399412
 30
0.0
 10
12.9882520636
 20
9.07808561
 30
0.0
 10
12.9838613219
 20
9.0709404555
 30
0.0
 10
12.9794473606
 20
9.0643119861
 30
0.0
 10
12.9750147733
 20
9.0582071242
 30
0.0
 10
12.9705680317
 20
9.0526322443
 30
0.0
 10
12.9661116131
 20
9.0475930758
 30
0.0
 10
12.9616497058
 20
9.0430949034
 30
0.0
 10
12.9571864511
 20
9.0391424203
 30
0.0
 10
12.9527256625
 20
9.0357400323
 30
0.0
 10
12.9482710228
 20
9.0328918828
 30
0.0
 10
12.9438261626
 20
9.0306020546
 30
0.0
 10
12.9393949052
 20
9.0288748752
 30
0.0
 10
12.9349818819
 20
9.0277145614
 30
0.0
 10
12.9305928715
 20
9.0271252428
 30
0.0
 10
12.9262351259
 20
9.027109651
 30
0.0
 10
12.9219168002
 20
9.0276686301
 30
0.0
 10
12.9176459627
 20
9.0288005097
 30
0.0
 10
12.9134295066
 20
9.0305015775
 30
0.0
 10
12.9092728366
 20
9.0327672174
 30
0.0
 10
12.9051799467
 20
9.0355923743
 30
0.0
 10
12.901154146
 20
9.0389724463
 30
0.0
 10
12.8971985827
 20
9.0429025328
 30
0.0
 10
12.8946901473
 20
9.0457943749
 30
0.0
 10
12.8934465417
 20
9.0473234621
 30
0.0
  0
SPLINE
  5
365
100
AcDbEntity
  8
0
100
AcDbSpline
 62
7
  6
CONTINUOUS
 70
0
 71
3
 72
51
 73
47
 74
0
 42
0.0000001
 43
0.0000001
 44
0.0000000001
 40
0.0
 40
0.0
 40
0.0
 40
0.0
 40
0.0417744843
 40
0.0840380839
 40
0.1266601362
 40
0.1695087031
 40
0.212450867
 40
0.2553533782
 40
0.2980831295
 40
0.3405076991
 40
0.3824958705
 40
0.4239181636
 40
0.4646473676
 40
0.5045590818
 40
0.5435322671
 40
0.5814498133
 40
0.6181991296
 40
0.6536727683
 40
0.6877690975
 40
0.7203930432
 40
0.7514569337
 40
0.7663791342
 40
0.7808823543
 40
0.7949581844
 40
0.8085989353
 40
0.8217976447
 40
0.8345481875
 40
0.8468453172
 40
0.8586847848
 40
0.8700634277
 40
0.8809793084
 40
0.8914318672
 40
0.9014221009
 40
0.9109528038
 40
0.9200288152
 40
0.9286573828
 40
0.9368485186
 40
0.9446155236
 40
0.9519754893
 40
0.9589499968
 40
0.9655657475
 40
0.9778459114
 40
0.9836071632
 40
0.9891799111
 40
0.9946230109
 40
1.0
 40
1.0
 40
1.0
 40
1.0
 10
13.0431106483
 20
9.6739757376
 30
0.0
 10
13.0431106483
 20
9.6650209312
 30
0.0
 10
13.042970942
 20
9.6470061897
 30
0.0
 10
13.0423533364
 20
9.6198613205
 30
0.0
 10
13.0413282527
 20
9.5924983366
 30
0.0
 10
13.0398990647
 20
9.56500786
 30
0.0
 10
13.0380704859
 20
9.5374808076
 30
0.0
 10
13.0358485655
 20
9.510008261
 30
0.0
 10
13.0332406617
 20
9.4826811064
 30
0.0
 10
13.0302554205
 20
9.45558975
 30
0.0
 10
13.026902746
 20
9.4288238115
 30
0.0
 10
13.0231937687
 20
9.4024718264
 30
0.0
 10
13.0191408088
 20
9.3766209503
 30
0.0
 10
13.0147573363
 20
9.351356667
 30
0.0
 10
13.0100579275
 20
9.326762501
 30
0.0
 10
13.0050582177
 20
9.3029197373
 30
0.0
 10
12.9997748507
 20
9.2799071389
 30
0.0
 10
12.9942254225
 20
9.2578006984
 30
0.0
 10
12.9884284315
 20
9.2366732965
 30
0.0
 10
12.9824031856
 20
9.2165947109
 30
0.0
 10
12.977140691
 20
9.200584133
 30
0.0
 10
12.9728221808
 20
9.1883574286
 30
0.0
 10
12.9695822227
 20
9.1796130083
 30
0.0
 10
12.9663004607
 20
9.1711782644
 30
0.0
 10
12.962979598
 20
9.1630601404
 30
0.0
 10
12.9596223822
 20
9.1552653267
 30
0.0
 10
12.9562315969
 20
9.1478002352
 30
0.0
 10
12.9528100395
 20
9.1406710012
 30
0.0
 10
12.9493605363
 20
9.1338834733
 30
0.0
 10
12.9458859261
 20
9.1274432091
 30
0.0
 10
12.9423890585
 20
9.1213554701
 30
0.0
 10
12.9388727941
 20
9.1156252126
 30
0.0
 10
12.9353399806
 20
9.1102570912
 30
0.0
 10
12.9317934713
 20
9.1052554411
 30
0.0
 10
12.9282360765
 20
9.1006242992
 30
0.0
 10
12.9246705925
 20
9.0963673698
 30
0.0
 10
12.921099757
 20
9.0924880916
 30
0.0
 10
12.9175261855
 20
9.0889895349
 30
0.0
 10
12.9139526956
 20
9.0858747128
 30
0.0
 10
12.9103809219
 20
9.0831457988
 30
0.0
 10
12.9057421618
 20
9.0801019999
 30
0.0
 10
12.9009862058
 20
9.0777215854
 30
0.0
 10
12.8961689128
 20
9.0761426467
 30
0.0
 10
12.8926467911
 20
9.0753811776
 30
0.0
 10
12.8891444246
 20
9.0750196565
 30
0.0
 10
12.8868191118
 20
9.0750462263
 30
0.0
 10
12.8856692582
 20
9.0751259637
 30
0.0
  0
SPLINE
  5
366
100
AcDbEntity
  8
0
100
AcDbSpline
 62
7
  6
CONTINUOUS
 70
0
 71
3
 72
39
 73
35
 74
0
 42
0.0000001
 43
0.0000001
 44
0.0000000001
 40
0.0
 40
0.0
 40
0.0
 40
0.0
 40
0.0307061174
 40
0.0615299296
 40
0.0924690078
 40
0.1235199663
 40
0.1546778093
 40
0.1859364009
 40
0.2172883682
 40
0.2487252769
 40
0.2802376993
 40
0.3118153506
 40
0.3434471995
 40
0.3751216031
 40
0.4068264394
 40
0.4385492426
 40
0.470277349
 40
0.5019980313
 40
0.5336986496
 40
0.5653667852
 40
0.5969903869
 40
0.6285579043
 40
0.660058422
 40
0.6914817894
 40
0.7228187377
 40
0.7540609999
 40
0.785201409
 40
0.8162339986
 40
0.8471540805
 40
0.8779583183
 40
0.908644781
 40
0.9392129818
 40
0.9696639036
 40
1.0
 40
1.0
 40
1.0
 40
1.0
 10
9.9677629231
 20
7.9920850069
 30
0.0
 10
9.9677629231
 20
7.9842095007
 30
0.0
 10
9.9682032912
 20
7.9684248597
 30
0.0
 10
9.9701739257
 20
7.9447789998
 30
0.0
 10
9.9734497609
 20
7.9211884542
 30
0.0
 10
9.9780205163
 20
7.8977273052
 30
0.0
 10
9.9838719916
 20
7.8744679283
 30
0.0
 10
9.9909859705
 20
7.8514824367
 30
0.0
 10
9.9993403657
 20
7.8288419794
 30
0.0
 10
10.0089092439
 20
7.8066166625
 30
0.0
 10
10.0196629244
 20
7.7848752916
 30
0.0
 10
10.0315680666
 20
7.7636851753
 30
0.0
 10
10.0445877715
 20
7.7431119114
 30
0.0
 10
10.0586816999
 20
7.7232191896
 30
0.0
 10
10.0738061918
 20
7.7040685922
 30
0.0
 10
10.0899144063
 20
7.6857194077
 30
0.0
 10
10.1069564608
 20
7.6682284462
 30
0.0
 10
10.1248795893
 20
7.6516498658
 30
0.0
 10
10.1436283007
 20
7.6360350051
 30
0.0
 10
10.163144553
 20
7.6214322257
 30
0.0
 10
10.1833679296
 20
7.6078867628
 30
0.0
 10
10.204235826
 20
7.5954405858
 30
0.0
 10
10.2256836425
 20
7.5841322687
 30
0.0
 10
10.2476449817
 20
7.5739968713
 30
0.0
 10
10.2700518539
 20
7.5650658303
 30
0.0
 10
10.2928348848
 20
7.5573668624
 30
0.0
 10
10.3159235291
 20
7.5509238768
 30
0.0
 10
10.3392462881
 20
7.5457569021
 30
0.0
 10
10.3627309228
 20
7.5418820214
 30
0.0
 10
10.3863047053
 20
7.5393113261
 30
0.0
 10
10.4098945277
 20
7.5380528594
 30
0.0
 10
10.4334275576
 20
7.5381106549
 30
0.0
 10
10.4568298627
 20
7.5394844767
 30
0.0
 10
10.4723269469
 20
7.5412786232
 30
0.0
 10
10.4800272118
 20
7.5423938395
 30
0.0
  0
SPLINE
  5
367
100
AcDbEntity
  8
0
100
AcDbSpline
 62
7
  6
CONTINUOUS
 70
0
 71
3
 72
39
 73
35
 74
0
 42
0.0000001
 43
0.0000001
 44
0.0000000001
 40
0.0
 40
0.0
 40
0.0
 40
0.0
 40
0.0307080506
 40
0.0615340171
 40
0.0924754716
 40
0.1235289983
 40
0.1546895781
 40
0.1859510391
 40
0.2173059684
 40
0.2487458862
 40
0.2802613148
 40
0.3118419169
 40
0.3434766059
 40
0.3751536831
 40
0.4068609704
 40
0.4385859475
 40
0.4703158982
 40
0.5020380463
 40
0.5337397077
 40
0.565408425
 40
0.5970321151
 40
0.6285992029
 40
0.6600987572
 40
0.6915206204
 40
0.7228555269
 40
0.754095223
 40
0.7852325658
 40
0.8162616242
 40
0.8471777561
 40
0.8779776824
 40
0.9086595394
 40
0.9392229183
 40
0.969668889
 40
1.0
 40
1.0
 40
1.0
 40
1.0
 10
9.9458426178
 20
7.9864116166
 30
0.0
 10
9.9458426178
 20
7.9782421669
 30
0.0
 10
9.9463002935
 20
7.9618683134
 30
0.0
 10
9.9483483705
 20
7.9373400097
 30
0.0
 10
9.9517528984
 20
7.9128694853
 30
0.0
 10
9.9565031642
 20
7.8885338776
 30
0.0
 10
9.9625843476
 20
7.8644085468
 30
0.0
 10
9.9699774471
 20
7.8405685754
 30
0.0
 10
9.9786594208
 20
7.8170880385
 30
0.0
 10
9.9886032159
 20
7.7940399203
 30
0.0
 10
9.9997778716
 20
7.7714958454
 30
0.0
 10
10.0121486097
 20
7.7495258733
 30
0.0
 10
10.0256769426
 20
7.7281982748
 30
0.0
 10
10.0403207954
 20
7.7075793264
 30
0.0
 10
10.0560346321
 20
7.6877331019
 30
0.0
 10
10.0727696011
 20
7.6687212773
 30
0.0
 10
10.0904736817
 20
7.6506029385
 30
0.0
 10
10.1090918495
 20
7.6334344001
 30
0.0
 10
10.1285662422
 20
7.6172690305
 30
0.0
 10
10.1488363416
 20
7.602157087
 30
0.0
 10
10.1698391585
 20
7.588145561
 30
0.0
 10
10.191509428
 20
7.5752780316
 30
0.0
 10
10.2137798108
 20
7.5635945313
 30
0.0
 10
10.2365811006
 20
7.5531314217
 30
0.0
 10
10.2598424383
 20
7.5439212805
 30
0.0
 10
10.2834915294
 20
7.5359928002
 30
0.0
 10
10.3074548677
 20
7.5293706982
 30
0.0
 10
10.331657963
 20
7.5240756397
 30
0.0
 10
10.3560255631
 20
7.5201241709
 30
0.0
 10
10.3804819176
 20
7.5175286718
 30
0.0
 10
10.4049508917
 20
7.5162972963
 30
0.0
 10
10.4293566497
 20
7.5164340165
 30
0.0
 10
10.4536222242
 20
7.5179383419
 30
0.0
 10
10.4696876852
 20
7.5198538532
 30
0.0
 10
10.4776694666
 20
7.5210381981
 30
0.0
  0
SPLINE
  5
368
100
AcDbEntity
  8
0
100
AcDbSpline
 62
7
  6
CONTINUOUS
 70
0
 71
3
 72
54
 73
50
 74
0
 42
0.0000001
 43
0.0000001
 44
0.0000000001
 40
0.0
 40
0.0
 40
0.0
 40
0.0
 40
0.0417740106
 40
0.0840368515
 40
0.1266583734
 40
0.1695063147
 40
0.2124478814
 40
0.2553497884
 40
0.2980789417
 40
0.340502919
 40
0.3824905067
 40
0.4239122259
 40
0.4646408671
 40
0.5045520317
 40
0.5435246831
 40
0.5814417135
 40
0.6181905344
 40
0.6536637003
 40
0.6877595809
 40
0.704261357
 40
0.7203837372
 40
0.736116
 40
0.7514479644
 40
0.7663699709
 40
0.7808730136
 40
0.7949486603
 40
0.8085892482
 40
0.8217877894
 40
0.8345381805
 40
0.8468351604
 40
0.8586744859
 40
0.8700529987
 40
0.8809687469
 40
0.891421194
 40
0.9014113064
 40
0.910941912
 40
0.9200178165
 40
0.9286462958
 40
0.9368373422
 40
0.9446042644
 40
0.9519641574
 40
0.9589385856
 40
0.9655542762
 40
0.9718437871
 40
0.9778461898
 40
0.9836073681
 40
0.9891800557
 40
0.994623083
 40
1.0
 40
1.0
 40
1.0
 40
1.0
 10
13.1731329909
 20
7.8506032406
 30
0.0
 10
13.1731329909
 20
7.8376374076
 30
0.0
 10
13.1729307113
 20
7.8115536107
 30
0.0
 10
13.1720364629
 20
7.7722501449
 30
0.0
 10
13.1705522373
 20
7.7326309093
 30
0.0
 10
13.1684828921
 20
7.6928270225
 30
0.0
 10
13.1658352705
 20
7.6529701984
 30
0.0
 10
13.1626181221
 20
7.613192286
 30
0.0
 10
13.1588421047
 20
7.5736248893
 30
0.0
 10
13.1545197353
 20
7.5343989059
 30
0.0
 10
13.1496653544
 20
7.4956440978
 30
0.0
 10
13.1442950773
 20
7.4574886573
 30
0.0
 10
13.1384267421
 20
7.4200587782
 30
0.0
 10
13.1320798525
 20
7.3834782343
 30
0.0
 10
13.1252755147
 20
7.3478679584
 30
0.0
 10
13.1180363657
 20
7.3133456545
 30
0.0
 10
13.1103865097
 20
7.2800253239
 30
0.0
 10
13.1023514059
 20
7.2480171394
 30
0.0
 10
13.0952820487
 20
7.2222521155
 30
0.0
 10
13.0894435338
 20
7.2023831474
 30
0.0
 10
13.0850329038
 20
7.1880365274
 30
0.0
 10
13.0805465132
 20
7.1740943478
 30
0.0
 10
13.0759880751
 20
7.1605681109
 30
0.0
 10
13.0713613429
 20
7.1474689941
 30
0.0
 10
13.0666701962
 20
7.1348078018
 30
0.0
 10
13.0619184699
 20
7.1225949882
 30
0.0
 10
13.0571101581
 20
7.1108406104
 30
0.0
 10
13.0522491882
 20
7.0995543614
 30
0.0
 10
13.0473396286
 20
7.088745517
 30
0.0
 10
13.0423855037
 20
7.0784229674
 30
0.0
 10
13.0373909176
 20
7.0685951774
 30
0.0
 10
13.0323599849
 20
7.0592701923
 30
0.0
 10
13.0272968104
 20
7.0504556381
 30
0.0
 10
13.0222055728
 20
7.0421586767
 30
0.0
 10
13.0170903462
 20
7.0343860688
 30
0.0
 10
13.0119553186
 20
7.0271440651
 30
0.0
 10
13.0068045
 20
7.0204385386
 30
0.0
 10
13.0016419974
 20
7.0142748303
 30
0.0
 10
12.9964717095
 20
7.0086579226
 30
0.0
 10
12.991297544
 20
7.0035923099
 30
0.0
 10
12.9861232202
 20
6.9990821532
 30
0.0
 10
12.9809523522
 20
6.9951312823
 30
0.0
 10
12.9757884597
 20
6.9917432563
 30
0.0
 10
12.9706349626
 20
6.9889215899
 30
0.0
 10
12.9654954422
 20
6.9866696028
 30
0.0
 10
12.9603737924
 20
6.984990786
 30
0.0
 10
12.9552742956
 20
6.9838882462
 30
0.0
 10
12.9502030986
 20
6.9833647931
 30
0.0
 10
12.9468362533
 20
6.9834031793
 30
0.0
 10
12.9451713621
 20
6.9835186325
 30
0.0
  0
SPLINE
  5
369
100
AcDbEntity
  8
0
100
AcDbSpline
 62
7
  6
CONTINUOUS
 70
0
 71
3
 72
51
 73
47
 74
0
 42
0.0000001
 43
0.0000001
 44
0.0000000001
 40
0.0
 40
0.0
 40
0.0
 40
0.0
 40
0.0404197988
 40
0.0812956878
 40
0.1225135268
 40
0.1639576867
 40
0.2055118783
 40
0.247059362
 40
0.2884834419
 40
0.3296678558
 40
0.3704971998
 40
0.410857345
 40
0.4506358589
 40
0.4897224317
 40
0.5280093083
 40
0.5653917311
 40
0.6017683958
 40
0.6370419276
 40
0.6711193861
 40
0.7039128094
 40
0.7353398169
 40
0.7653242927
 40
0.7797540741
 40
0.7937979427
 40
0.8074485697
 40
0.8206991318
 40
0.8335434934
 40
0.8459761296
 40
0.8579923054
 40
0.8695880371
 40
0.8807602703
 40
0.8915068932
 40
0.9018269203
 40
0.9117205745
 40
0.9211894897
 40
0.9302368833
 40
0.9388677995
 40
0.9470893991
 40
0.9549112727
 40
0.9623458745
 40
0.969408931
 40
0.9761200204
 40
0.9825030587
 40
0.9885869338
 40
0.9944059077
 40
1.0
 40
1.0
 40
1.0
 40
1.0
 10
13.1422233618
 20
7.8527468306
 30
0.0
 10
13.1422233618
 20
7.8404147174
 30
0.0
 10
13.1420403923
 20
7.815610985
 30
0.0
 10
13.1412308085
 20
7.7782395986
 30
0.0
 10
13.1398866905
 20
7.74057083
 30
0.0
 10
13.1380120302
 20
7.7027175725
 30
0.0
 10
13.1356124323
 20
7.6647931903
 30
0.0
 10
13.1326950758
 20
7.6269112658
 30
0.0
 10
13.1292687057
 20
7.5891852565
 30
0.0
 10
13.1253435997
 20
7.5517281484
 30
0.0
 10
13.1209315412
 20
7.5146521179
 30
0.0
 10
13.1160457826
 20
7.4780681926
 30
0.0
 10
13.1107010067
 20
7.4420859164
 30
0.0
 10
13.1049132834
 20
7.4068130184
 30
0.0
 10
13.0987000224
 20
7.3723550858
 30
0.0
 10
13.092079922
 20
7.3388152429
 30
0.0
 10
13.0850729141
 20
7.3062938378
 30
0.0
 10
13.0777001057
 20
7.2748881257
 30
0.0
 10
13.0699837151
 20
7.2446919937
 30
0.0
 10
13.0619470112
 20
7.2157955715
 30
0.0
 10
13.0536142184
 20
7.1882852684
 30
0.0
 10
13.0463547233
 20
7.1663111695
 30
0.0
 10
13.0404061234
 20
7.149496226
 30
0.0
 10
13.0359434412
 20
7.1374432206
 30
0.0
 10
13.0314258434
 20
7.1257957495
 30
0.0
 10
13.0268566343
 20
7.1145625056
 30
0.0
 10
13.0222392973
 20
7.1037518624
 30
0.0
 10
13.0175772421
 20
7.0933718871
 30
0.0
 10
13.0128740021
 20
7.083430298
 30
0.0
 10
13.008133053
 20
7.0739344979
 30
0.0
 10
13.0033579672
 20
7.0648915262
 30
0.0
 10
12.9985522686
 20
7.056308093
 30
0.0
 10
12.9937195459
 20
7.0481905347
 30
0.0
 10
12.9888633489
 20
7.0405448426
 30
0.0
 10
12.9839872519
 20
7.0333766305
 30
0.0
 10
12.9790947974
 20
7.0266911503
 30
0.0
 10
12.9741895013
 20
7.0204932846
 30
0.0
 10
12.9692748499
 20
7.0147875405
 30
0.0
 10
12.9643542407
 20
7.0095780886
 30
0.0
 10
12.9594310372
 20
7.0048687254
 30
0.0
 10
12.9545084575
 20
7.0006629912
 30
0.0
 10
12.949589676
 20
6.9969640869
 30
0.0
 10
12.9446777731
 20
6.9937751247
 30
0.0
 10
12.9397756451
 20
6.9910989036
 30
0.0
 10
12.9348870339
 20
6.9889385194
 30
0.0
 10
12.9315813468
 20
6.9878245815
 30
0.0
 10
12.929938829
 20
6.9873607148
 30
0.0
  0
SPLINE
  5
36A
100
AcDbEntity
  8
0
100
AcDbSpline
 62
7
  6
CONTINUOUS
 70
0
 71
3
 72
11
 73
7
 74
0
 42
0.0000001
 43
0.0000001
 44
0.0000000001
 40
0.0
 40
0.0
 40
0.0
 40
0.0
 40
0.254007962
 40
0.5055366202
 40
0.7543134013
 40
1.0
 40
1.0
 40
1.0
 40
1.0
 10
11.0392823399
 20
8.9557941923
 30
0.0
 10
11.0392823399
 20
8.9649482085
 30
0.0
 10
11.0397927198
 20
8.9831712366
 30
0.0
 10
11.0421067256
 20
9.0102713495
 30
0.0
 10
11.0459442323
 20
9.0368951684
 30
0.0
 10
11.0495196064
 20
9.0543649216
 30
0.0
 10
11.0515536039
 20
9.0629822555
 30
0.0
  0
SPLINE
  5
36B
100
AcDbEntity
  8
0
100
AcDbSpline
 62
7
  6
CONTINUOUS
 70
0
 71
3
 72
57
 73
53
 74
0
 42
0.0000001
 43
0.0000001
 44
0.0000000001
 40
0.0
 40
0.0
 40
0.0
 40
0.0
 40
0.0452111151
 40
0.0910028922
 40
0.1371914731
 40
0.183589865
 40
0.2300105241
 40
0.2762656379
 40
0.3221682775
 40
0.3675333237
 40
0.4121784488
 40
0.4559250957
 40
0.4985994741
 40
0.5400335829
 40
0.5800662712
 40
0.6185443608
 40
0.637155417
 40
0.6553246567
 40
0.6730357378
 40
0.6902730659
 40
0.7070219026
 40
0.7232683064
 40
0.7389993698
 40
0.7542031206
 40
0.7688687611
 40
0.7829866902
 40
0.7965486293
 40
0.8095478594
 40
0.8219792442
 40
0.8338396478
 40
0.8451280137
 40
0.8558458432
 40
0.8659975471
 40
0.8755909364
 40
0.8846379793
 40
0.8931554241
 40
0.9011659533
 40
0.9086991512
 40
0.9157928765
 40
0.9224945133
 40
0.9288620062
 40
0.9349644242
 40
0.9408812842
 40
0.946700577
 40
0.9525151341
 40
0.9584180353
 40
0.9644979297
 40
0.9708353444
 40
0.9775004039
 40
0.9845522178
 40
0.9920391601
 40
1.0
 40
1.0
 40
1.0
 40
1.0
 10
13.0982241605
 20
7.8102468632
 30
0.0
 10
13.0982241605
 20
7.7990534385
 30
0.0
 10
13.0980245323
 20
7.776522375
 30
0.0
 10
13.0971442728
 20
7.7425662233
 30
0.0
 10
13.0956846403
 20
7.7083357524
 30
0.0
 10
13.0936518629
 20
7.6739786101
 30
0.0
 10
13.0910547086
 20
7.6396429911
 30
0.0
 10
13.0879043782
 20
7.6054769452
 30
0.0
 10
13.0842144902
 20
7.5716278027
 30
0.0
 10
13.0800010126
 20
7.5382415113
 30
0.0
 10
13.0752821998
 20
7.5054620049
 30
0.0
 10
13.0700785118
 20
7.4734305688
 30
0.0
 10
13.064412525
 20
7.4422852428
 30
0.0
 10
13.0583088513
 20
7.4121601389
 30
0.0
 10
13.0517939865
 20
7.383185111
 30
0.0
 10
13.0459833547
 20
7.3598495776
 30
0.0
 10
13.0411402572
 20
7.3418569854
 30
0.0
 10
13.037463437
 20
7.3288762123
 30
0.0
 10
13.0337058085
 20
7.3162730909
 30
0.0
 10
13.0298713945
 20
7.3040611841
 30
0.0
 10
13.025964384
 20
7.2922536382
 30
0.0
 10
13.0219889538
 20
7.2808631647
 30
0.0
 10
13.0179494546
 20
7.2699020045
 30
0.0
 10
13.0138502109
 20
7.2593819423
 30
0.0
 10
13.0096956766
 20
7.2493142658
 30
0.0
 10
13.005490337
 20
7.2397097668
 30
0.0
 10
13.0012386999
 20
7.230578732
 30
0.0
 10
12.9969453885
 20
7.221930899
 30
0.0
 10
12.9926149475
 20
7.2137754988
 30
0.0
 10
12.9882520636
 20
7.2061211676
 30
0.0
 10
12.9838613219
 20
7.1989760131
 30
0.0
 10
12.9794473606
 20
7.1923475437
 30
0.0
 10
12.9750147733
 20
7.1862426818
 30
0.0
 10
12.9705680317
 20
7.1806678019
 30
0.0
 10
12.9661116131
 20
7.1756286334
 30
0.0
 10
12.9616497058
 20
7.171130461
 30
0.0
 10
12.9571864511
 20
7.1671779779
 30
0.0
 10
12.9527256625
 20
7.1637755899
 30
0.0
 10
12.9482710228
 20
7.1609274404
 30
0.0
 10
12.9438261626
 20
7.1586376122
 30
0.0
 10
12.9393949052
 20
7.1569104327
 30
0.0
 10
12.9349818819
 20
7.155750119
 30
0.0
 10
12.9305928715
 20
7.1551608004
 30
0.0
 10
12.9262351259
 20
7.1551452086
 30
0.0
 10
12.9219168002
 20
7.1557041877
 30
0.0
 10
12.9176459627
 20
7.1568360673
 30
0.0
 10
12.9134295066
 20
7.1585371351
 30
0.0
 10
12.9092728366
 20
7.160802775
 30
0.0
 10
12.9051799467
 20
7.1636279319
 30
0.0
 10
12.901154146
 20
7.1670080039
 30
0.0
 10
12.8971985827
 20
7.1709380904
 30
0.0
 10
12.8946901473
 20
7.1738299324
 30
0.0
 10
12.8934465417
 20
7.1753590197
 30
0.0
  0
SPLINE
  5
36C
100
AcDbEntity
  8
0
100
AcDbSpline
 62
7
  6
CONTINUOUS
 70
0
 71
3
 72
51
 73
47
 74
0
 42
0.0000001
 43
0.0000001
 44
0.0000000001
 40
0.0
 40
0.0
 40
0.0
 40
0.0
 40
0.0417744843
 40
0.0840380839
 40
0.1266601362
 40
0.1695087031
 40
0.212450867
 40
0.2553533782
 40
0.2980831295
 40
0.3405076991
 40
0.3824958705
 40
0.4239181636
 40
0.4646473676
 40
0.5045590818
 40
0.5435322671
 40
0.5814498133
 40
0.6181991296
 40
0.6536727683
 40
0.6877690975
 40
0.7203930432
 40
0.7514569337
 40
0.7663791342
 40
0.7808823543
 40
0.7949581844
 40
0.8085989353
 40
0.8217976447
 40
0.8345481875
 40
0.8468453172
 40
0.8586847848
 40
0.8700634277
 40
0.8809793084
 40
0.8914318672
 40
0.9014221009
 40
0.9109528038
 40
0.9200288152
 40
0.9286573828
 40
0.9368485186
 40
0.9446155236
 40
0.9519754893
 40
0.9589499968
 40
0.9655657475
 40
0.9778459114
 40
0.9836071632
 40
0.9891799111
 40
0.9946230109
 40
1.0
 40
1.0
 40
1.0
 40
1.0
 10
13.0431106483
 20
7.8020112952
 30
0.0
 10
13.0431106483
 20
7.7930564888
 30
0.0
 10
13.042970942
 20
7.7750417473
 30
0.0
 10
13.0423533364
 20
7.7478968781
 30
0.0
 10
13.0413282527
 20
7.7205338942
 30
0.0
 10
13.0398990647
 20
7.6930434176
 30
0.0
 10
13.0380704859
 20
7.6655163652
 30
0.0
 10
13.0358485655
 20
7.6380438186
 30
0.0
 10
13.0332406617
 20
7.610716664
 30
0.0
 10
13.0302554205
 20
7.5836253076
 30
0.0
 10
13.026902746
 20
7.556859369
 30
0.0
 10
13.0231937687
 20
7.530507384
 30
0.0
 10
13.0191408088
 20
7.5046565079
 30
0.0
 10
13.0147573363
 20
7.4793922246
 30
0.0
 10
13.0100579275
 20
7.4547980586
 30
0.0
 10
13.0050582177
 20
7.4309552949
 30
0.0
 10
12.9997748507
 20
7.4079426965
 30
0.0
 10
12.9942254225
 20
7.385836256
 30
0.0
 10
12.9884284315
 20
7.3647088541
 30
0.0
 10
12.9824031856
 20
7.3446302685
 30
0.0
 10
12.977140691
 20
7.3286196906
 30
0.0
 10
12.9728221808
 20
7.3163929862
 30
0.0
 10
12.9695822227
 20
7.3076485659
 30
0.0
 10
12.9663004607
 20
7.299213822
 30
0.0
 10
12.962979598
 20
7.291095698
 30
0.0
 10
12.9596223822
 20
7.2833008843
 30
0.0
 10
12.9562315969
 20
7.2758357928
 30
0.0
 10
12.9528100395
 20
7.2687065588
 30
0.0
 10
12.9493605363
 20
7.2619190309
 30
0.0
 10
12.9458859261
 20
7.2554787667
 30
0.0
 10
12.9423890585
 20
7.2493910277
 30
0.0
 10
12.9388727941
 20
7.2436607701
 30
0.0
 10
12.9353399806
 20
7.2382926488
 30
0.0
 10
12.9317934713
 20
7.2332909987
 30
0.0
 10
12.9282360765
 20
7.2286598568
 30
0.0
 10
12.9246705925
 20
7.2244029274
 30
0.0
 10
12.921099757
 20
7.2205236492
 30
0.0
 10
12.9175261855
 20
7.2170250925
 30
0.0
 10
12.9139526956
 20
7.2139102704
 30
0.0
 10
12.9103809219
 20
7.2111813564
 30
0.0
 10
12.9057421618
 20
7.2081375575
 30
0.0
 10
12.9009862058
 20
7.205757143
 30
0.0
 10
12.8961689128
 20
7.2041782043
 30
0.0
 10
12.8926467911
 20
7.2034167352
 30
0.0
 10
12.8891444246
 20
7.2030552141
 30
0.0
 10
12.8868191118
 20
7.2030817839
 30
0.0
 10
12.8856692582
 20
7.2031615213
 30
0.0
  0
SPLINE
  5
36D
100
AcDbEntity
  8
0
100
AcDbSpline
 62
7
  6
CONTINUOUS
 70
0
 71
3
 72
71
 73
67
 74
0
 42
0.0000001
 43
0.0000001
 44
0.0000000001
 40
0.0
 40
0.0
 40
0.0
 40
0.0
 40
0.0155842565
 40
0.0311159319
 40
0.0465952524
 40
0.0620238826
 40
0.0774034482
 40
0.0927362827
 40
0.1080251231
 40
0.1232731738
 40
0.1384840558
 40
0.1536617763
 40
0.1688106896
 40
0.1839354527
 40
0.199040978
 40
0.2141323822
 40
0.2292149324
 40
0.2442939901
 40
0.2593749544
 40
0.2744632041
 40
0.2895640403
 40
0.3046826298
 40
0.3198239504
 40
0.3349927394
 40
0.3501934439
 40
0.3654301774
 40
0.3807066784
 40
0.3960262752
 40
0.411391855
 40
0.4268058382
 40
0.4422701586
 40
0.4577862484
 40
0.4733550295
 40
0.4889769098
 40
0.5046517845
 40
0.5203790422
 40
0.5361575755
 40
0.5519857963
 40
0.5678616545
 40
0.5837826618
 40
0.5997459181
 40
0.6157481413
 40
0.6317856992
 40
0.6478546441
 40
0.6639507502
 40
0.6800695513
 40
0.6962063821
 40
0.7123564199
 40
0.7285147268
 40
0.7446762929
 40
0.76083608
 40
0.776989065
 40
0.7931302839
 40
0.8092548753
 40
0.8253581235
 40
0.8414355003
 40
0.8574827053
 40
0.8734957053
 40
0.889470771
 40
0.9054045131
 40
0.921293919
 40
0.9371363621
 40
0.9529297157
 40
0.968672092
 40
0.9843626215
 40
1.0
 40
1.0
 40
1.0
 40
1.0
 10
11.6374103985
 20
8.5380415658
 30
0.0
 10
11.6374103985
 20
8.5297274355
 30
0.0
 10
11.6370035209
 20
8.5131242785
 30
0.0
 10
11.6351668473
 20
8.4883241366
 30
0.0
 10
11.6321090424
 20
8.4637277254
 30
0.0
 10
11.6278375991
 20
8.4393952534
 30
0.0
 10
11.6223626168
 20
8.4153850283
 30
0.0
 10
11.615697299
 20
8.3917550381
 30
0.0
 10
11.6078576198
 20
8.3685622231
 30
0.0
 10
11.5988624275
 20
8.3458625202
 30
0.0
 10
11.588733361
 20
8.323710671
 30
0.0
 10
11.5774948027
 20
8.3021601036
 30
0.0
 10
11.5651738154
 20
8.2812628015
 30
0.0
 10
11.5518000784
 20
8.2610691774
 30
0.0
 10
11.5374058169
 20
8.2416279503
 30
0.0
 10
11.522025725
 20
8.2229860261
 30
0.0
 10
11.5056968803
 20
8.2051883847
 30
0.0
 10
11.4884586656
 20
8.1882779587
 30
0.0
 10
11.4703526638
 20
8.1722955337
 30
0.0
 10
11.4514225532
 20
8.1572796528
 30
0.0
 10
11.4317140021
 20
8.1432665214
 30
0.0
 10
11.4112745566
 20
8.1302899204
 30
0.0
 10
11.3901535251
 20
8.1183811238
 30
0.0
 10
11.3684018571
 20
8.1075688259
 30
0.0
 10
11.3460720249
 20
8.0978790595
 30
0.0
 10
11.3232178908
 20
8.0893351387
 30
0.0
 10
11.2998945726
 20
8.0819576105
 30
0.0
 10
11.2761583106
 20
8.0757642053
 30
0.0
 10
11.2520663313
 20
8.0707697957
 30
0.0
 10
11.2276767097
 20
8.0669863623
 30
0.0
 10
11.2030482288
 20
8.0644229684
 30
0.0
 10
11.1782402395
 20
8.0630857278
 30
0.0
 10
11.1533125153
 20
8.0629777935
 30
0.0
 10
11.128325108
 20
8.0640993613
 30
0.0
 10
11.1033382036
 20
8.0664476687
 30
0.0
 10
11.0784119788
 20
8.0700170035
 30
0.0
 10
11.053606457
 20
8.0747987174
 30
0.0
 10
11.028981366
 20
8.0807812502
 30
0.0
 10
11.0045959926
 20
8.0879501485
 30
0.0
 10
10.9805090393
 20
8.0962880995
 30
0.0
 10
10.9567784855
 20
8.1057749852
 30
0.0
 10
10.9334614499
 20
8.1163879282
 30
0.0
 10
10.9106140535
 20
8.1281013476
 30
0.0
 10
10.888291286
 20
8.14088702
 30
0.0
 10
10.8665468761
 20
8.1547141485
 30
0.0
 10
10.8454331586
 20
8.1695494302
 30
0.0
 10
10.8250009451
 20
8.1853571328
 30
0.0
 10
10.8052994093
 20
8.202099191
 30
0.0
 10
10.7863759682
 20
8.2197352965
 30
0.0
 10
10.7682761697
 20
8.2382229941
 30
0.0
 10
10.7510435833
 20
8.2575177831
 30
0.0
 10
10.7347196969
 20
8.2775732243
 30
0.0
 10
10.7193438145
 20
8.2983410482
 30
0.0
 10
10.7049529529
 20
8.3197712655
 30
0.0
 10
10.6915817646
 20
8.3418122969
 30
0.0
 10
10.6792624533
 20
8.3644110943
 30
0.0
 10
10.6680246973
 20
8.3875132682
 30
0.0
 10
10.6578955783
 20
8.4110632171
 30
0.0
 10
10.6488995177
 20
8.4350042595
 30
0.0
 10
10.6410582112
 20
8.4592787717
 30
0.0
 10
10.6343905816
 20
8.4838283098
 30
0.0
 10
10.628912693
 20
8.5085938067
 30
0.0
 10
10.6246378503
 20
8.5335155264
 30
0.0
 10
10.6215762687
 20
8.5585338071
 30
0.0
 10
10.6197355591
 20
8.5835874527
 30
0.0
 10
10.6193245173
 20
8.6003035908
 30
0.0
 10
10.6193245173
 20
8.6086460614
 30
0.0
  0
SPLINE
  5
36E
100
AcDbEntity
  8
0
100
AcDbSpline
 62
7
  6
CONTINUOUS
 70
0
 71
3
 72
40
 73
36
 74
0
 42
0.0000001
 43
0.0000001
 44
0.0000000001
 40
0.0
 40
0.0
 40
0.0
 40
0.0
 40
0.0964132781
 40
0.1901869921
 40
0.2359074318
 40
0.2807575844
 40
0.3246709866
 40
0.3675830148
 40
0.4094313598
 40
0.4501560995
 40
0.4896999016
 40
0.528008388
 40
0.5650302757
 40
0.6007176322
 40
0.6350263452
 40
0.6679164477
 40
0.699352486
 40
0.7293041846
 40
0.7577471706
 40
0.7846636899
 40
0.8100437507
 40
0.8338866661
 40
0.8562027356
 40
0.8770156382
 40
0.8963657406
 40
0.9143140809
 40
0.9309474397
 40
0.9463845834
 40
0.9607827633
 40
0.9676572724
 40
0.9743513226
 40
0.9808970232
 40
0.987329015
 40
0.9936839639
 40
1.0
 40
1.0
 40
1.0
 40
1.0
 10
13.0431106483
 20
7.8020112952
 30
0.0
 10
13.0431106483
 20
7.8144252471
 30
0.0
 10
13.0428476448
 20
7.8389141606
 30
0.0
 10
13.0418296762
 20
7.8692749735
 30
0.0
 10
13.0405989765
 20
7.8929793313
 30
0.0
 10
13.0394831375
 20
7.9102596827
 30
0.0
 10
13.0381686634
 20
7.9271634008
 30
0.0
 10
13.0366577099
 20
7.9436626453
 30
0.0
 10
13.0349528179
 20
7.959730208
 30
0.0
 10
13.0330568242
 20
7.9753396069
 30
0.0
 10
13.0309728734
 20
7.9904651213
 30
0.0
 10
13.0287044543
 20
8.005081845
 30
0.0
 10
13.026255351
 20
8.0191657217
 30
0.0
 10
13.023629626
 20
8.0326935837
 30
0.0
 10
13.0208316619
 20
8.0456432079
 30
0.0
 10
13.0178661281
 20
8.0579933535
 30
0.0
 10
13.0147379415
 20
8.0697237906
 30
0.0
 10
13.0114522871
 20
8.080815356
 30
0.0
 10
13.0080146177
 20
8.0912500038
 30
0.0
 10
13.00443058
 20
8.1010108269
 30
0.0
 10
13.0007059916
 20
8.1100821042
 30
0.0
 10
12.9968468533
 20
8.1184493712
 30
0.0
 10
12.9928592151
 20
8.1260994307
 30
0.0
 10
12.9887490721
 20
8.1330203491
 30
0.0
 10
12.9845222603
 20
8.1392014979
 30
0.0
 10
12.9801843562
 20
8.1446333673
 30
0.0
 10
12.9757400258
 20
8.149307439
 30
0.0
 10
12.9711944147
 20
8.1532150503
 30
0.0
 10
12.9672644875
 20
8.1558659919
 30
0.0
 10
12.9640885468
 20
8.1575684503
 30
0.0
 10
12.9617233775
 20
8.1586292808
 30
0.0
 10
12.9593396706
 20
8.1594927615
 30
0.0
 10
12.9569384109
 20
8.1601584088
 30
0.0
 10
12.9545209958
 20
8.1606257268
 30
0.0
 10
12.9528972501
 20
8.1608049936
 30
0.0
 10
12.9520859602
 20
8.1608612531
 30
0.0
  0
SPLINE
  5
36F
100
AcDbEntity
  8
0
100
AcDbSpline
 62
7
  6
CONTINUOUS
 70
0
 71
3
 72
48
 73
44
 74
0
 42
0.0000001
 43
0.0000001
 44
0.0000000001
 40
0.0
 40
0.0
 40
0.0
 40
0.0
 40
0.0063158899
 40
0.0126706797
 40
0.0191025165
 40
0.025648058
 40
0.0323419221
 40
0.0392162652
 40
0.0536140552
 40
0.0611947659
 40
0.0690564915
 40
0.0772175997
 40
0.0856939645
 40
0.0944993396
 40
0.103645447
 40
0.1131421893
 40
0.122997946
 40
0.1332195527
 40
0.1438126331
 40
0.1547816545
 40
0.1661299881
 40
0.1778601838
 40
0.1899738557
 40
0.215353302
 40
0.2422691224
 40
0.2707113841
 40
0.3006623731
 40
0.332097648
 40
0.3649869327
 40
0.3992948208
 40
0.434981328
 40
0.4720023222
 40
0.5103099054
 40
0.5498527799
 40
0.590576537
 40
0.632423903
 40
0.6753349407
 40
0.7192473098
 40
0.7640964278
 40
0.8098157282
 40
0.8563368617
 40
0.9035891153
 40
1.0
 40
1.0
 40
1.0
 40
1.0
 10
13.0413364438
 20
10.2421525573
 30
0.0
 10
13.042511126
 20
10.242071098
 30
0.0
 10
13.0448621731
 20
10.2418115205
 30
0.0
 10
13.0483624085
 20
10.2411349767
 30
0.0
 10
13.0518392381
 20
10.2401711727
 30
0.0
 10
13.0552906376
 20
10.2389209366
 30
0.0
 10
13.0587152657
 20
10.2373849977
 30
0.0
 10
13.0633135934
 20
10.2349200565
 30
0.0
 10
13.0677870783
 20
10.2319026374
 30
0.0
 10
13.0721162453
 20
10.2284058747
 30
0.0
 10
13.0753862464
 20
10.2254577074
 30
0.0
 10
13.0786213047
 20
10.2222309068
 30
0.0
 10
13.0818206549
 20
10.2187266628
 30
0.0
 10
13.0849829569
 20
10.2149464606
 30
0.0
 10
13.0881070539
 20
10.2108918434
 30
0.0
 10
13.0911917726
 20
10.2065644858
 30
0.0
 10
13.0942358587
 20
10.2019661075
 30
0.0
 10
13.0972381724
 20
10.1970986058
 30
0.0
 10
13.100197495
 20
10.1919639381
 30
0.0
 10
13.1031126321
 20
10.1865641844
 30
0.0
 10
13.1059824464
 20
10.1809015601
 30
0.0
 10
13.1088057524
 20
10.1749783378
 30
0.0
 10
13.1125651142
 20
10.1666060157
 30
0.0
 10
13.1171272939
 20
10.1554944314
 30
0.0
 10
13.1223166985
 20
10.1413617415
 30
0.0
 10
13.127294184
 20
10.1262532069
 30
0.0
 10
13.1320515374
 20
10.1101935508
 30
0.0
 10
13.1365809053
 20
10.0932088458
 30
0.0
 10
13.1408747735
 20
10.0753268619
 30
0.0
 10
13.1449260024
 20
10.0565768748
 30
0.0
 10
13.1487278416
 20
10.0369896425
 30
0.0
 10
13.1522739567
 20
10.0165973445
 30
0.0
 10
13.1555584463
 20
9.9954335234
 30
0.0
 10
13.1585758371
 20
9.9735330147
 30
0.0
 10
13.1613210983
 20
9.9509318812
 30
0.0
 10
13.1637896476
 20
9.9276673588
 30
0.0
 10
13.1659773779
 20
9.9037777923
 30
0.0
 10
13.1678806433
 20
9.8793025741
 30
0.0
 10
13.1694962738
 20
9.8542820564
 30
0.0
 10
13.1708215626
 20
9.8287575013
 30
0.0
 10
13.1718543123
 20
9.8027710253
 30
0.0
 10
13.1728454779
 20
9.7673273015
 30
0.0
 10
13.1731329909
 20
9.7405420511
 30
0.0
 10
13.1731329909
 20
9.722567683
 30
0.0
  0
SPLINE
  5
370
100
AcDbEntity
  8
0
100
AcDbSpline
 62
7
  6
CONTINUOUS
 70
0
 71
3
 72
71
 73
67
 74
0
 42
0.0000001
 43
0.0000001
 44
0.0000000001
 40
0.0
 40
0.0
 40
0.0
 40
0.0
 40
0.0156373785
 40
0.031327908
 40
0.0470702843
 40
0.0628636379
 40
0.078706081
 40
0.0945954869
 40
0.110529229
 40
0.1265042947
 40
0.1425172947
 40
0.1585644997
 40
0.1746418765
 40
0.1907451247
 40
0.2068697161
 40
0.223010935
 40
0.23916392
 40
0.2553237071
 40
0.2714852732
 40
0.2876435801
 40
0.3037936179
 40
0.3199304487
 40
0.3360492498
 40
0.3521453559
 40
0.3682143008
 40
0.3842518587
 40
0.4002540819
 40
0.4162173382
 40
0.4321383455
 40
0.4480142037
 40
0.4638424245
 40
0.4796209578
 40
0.4953482155
 40
0.5110230902
 40
0.5266449705
 40
0.5422137516
 40
0.5577298414
 40
0.5731941618
 40
0.588608145
 40
0.6039737248
 40
0.6192933216
 40
0.6345698226
 40
0.6498065561
 40
0.6650072606
 40
0.6801760496
 40
0.6953173702
 40
0.7104359597
 40
0.7255367959
 40
0.7406250456
 40
0.7557060099
 40
0.7707850676
 40
0.7858676178
 40
0.800959022
 40
0.8160645473
 40
0.8311893104
 40
0.8463382237
 40
0.8615159442
 40
0.8767268262
 40
0.8919748769
 40
0.9072637173
 40
0.9225965518
 40
0.9379761174
 40
0.9534047476
 40
0.9688840681
 40
0.9844157435
 40
1.0
 40
1.0
 40
1.0
 40
1.0
 10
11.6374103985
 20
8.5380415658
 30
0.0
 10
11.6374103985
 20
8.5463840364
 30
0.0
 10
11.6369993567
 20
8.5631001745
 30
0.0
 10
11.635158647
 20
8.5881538201
 30
0.0
 10
11.6320970654
 20
8.6131721008
 30
0.0
 10
11.6278222227
 20
8.6380938205
 30
0.0
 10
11.6223443342
 20
8.6628593174
 30
0.0
 10
11.6156767046
 20
8.6874088555
 30
0.0
 10
11.6078353981
 20
8.7116833677
 30
0.0
 10
11.5988393374
 20
8.7356244101
 30
0.0
 10
11.5887102185
 20
8.7591743589
 30
0.0
 10
11.5774724625
 20
8.7822765329
 30
0.0
 10
11.5651531512
 20
8.8048753303
 30
0.0
 10
11.5517819629
 20
8.8269163617
 30
0.0
 10
11.5373911013
 20
8.848346579
 30
0.0
 10
11.5220152189
 20
8.8691144029
 30
0.0
 10
11.5056913325
 20
8.8891698441
 30
0.0
 10
11.4884587461
 20
8.9084646331
 30
0.0
 10
11.4703589476
 20
8.9269523307
 30
0.0
 10
11.4514355065
 20
8.9445884361
 30
0.0
 10
11.4317339707
 20
8.9613304944
 30
0.0
 10
11.4113017572
 20
8.977138197
 30
0.0
 10
11.3901880397
 20
8.9919734787
 30
0.0
 10
11.3684436297
 20
9.0058006072
 30
0.0
 10
11.3461208623
 20
9.0185862796
 30
0.0
 10
11.3232734659
 20
9.030299699
 30
0.0
 10
11.2999564302
 20
9.040912642
 30
0.0
 10
11.2762258765
 20
9.0503995277
 30
0.0
 10
11.2521389231
 20
9.0587374787
 30
0.0
 10
11.2277535498
 20
9.065906377
 30
0.0
 10
11.2031284587
 20
9.0718889098
 30
0.0
 10
11.178322937
 20
9.0766706237
 30
0.0
 10
11.1533967122
 20
9.0802399585
 30
0.0
 10
11.1284098078
 20
9.0825882659
 30
0.0
 10
11.1034224005
 20
9.0837098337
 30
0.0
 10
11.0784946763
 20
9.0836018994
 30
0.0
 10
11.053686687
 20
9.0822646588
 30
0.0
 10
11.029058206
 20
9.0797012649
 30
0.0
 10
11.0046685844
 20
9.0759178315
 30
0.0
 10
10.9805766052
 20
9.0709234219
 30
0.0
 10
10.9568403432
 20
9.0647300166
 30
0.0
 10
10.9335170249
 20
9.0573524885
 30
0.0
 10
10.9106628908
 20
9.0488085677
 30
0.0
 10
10.8883330587
 20
9.0391188013
 30
0.0
 10
10.8665813907
 20
9.0283065034
 30
0.0
 10
10.8454603592
 20
9.0163977068
 30
0.0
 10
10.8250209136
 20
9.0034211058
 30
0.0
 10
10.8053123625
 20
8.9894079744
 30
0.0
 10
10.786382252
 20
8.9743920935
 30
0.0
 10
10.7682762502
 20
8.9584096685
 30
0.0
 10
10.7510380354
 20
8.9414992425
 30
0.0
 10
10.7347091907
 20
8.9237016011
 30
0.0
 10
10.7193290989
 20
8.9050596769
 30
0.0
 10
10.7049348374
 20
8.8856184498
 30
0.0
 10
10.6915611004
 20
8.8654248257
 30
0.0
 10
10.6792401131
 20
8.8445275236
 30
0.0
 10
10.6680015548
 20
8.8229769562
 30
0.0
 10
10.6578724882
 20
8.800825107
 30
0.0
 10
10.648877296
 20
8.7781254041
 30
0.0
 10
10.6410376168
 20
8.7549325891
 30
0.0
 10
10.6343722989
 20
8.7313025989
 30
0.0
 10
10.6288973166
 20
8.7072923738
 30
0.0
 10
10.6246258733
 20
8.6829599018
 30
0.0
 10
10.6215680684
 20
8.6583634906
 30
0.0
 10
10.6197313949
 20
8.6335633487
 30
0.0
 10
10.6193245173
 20
8.6169601917
 30
0.0
 10
10.6193245173
 20
8.6086460614
 30
0.0
  0
SPLINE
  5
371
100
AcDbEntity
  8
0
100
AcDbSpline
 62
7
  6
CONTINUOUS
 70
0
 71
3
 72
37
 73
33
 74
0
 42
0.0000001
 43
0.0000001
 44
0.0000000001
 40
0.0
 40
0.0
 40
0.0
 40
0.0
 40
0.0306358971
 40
0.0613750814
 40
0.0922157449
 40
0.1231551209
 40
0.1541895174
 40
0.1853143605
 40
0.2165242473
 40
0.2478130007
 40
0.2791737303
 40
0.3105988981
 40
0.3420803897
 40
0.3736095924
 40
0.4051774734
 40
0.4367746596
 40
0.5000015908
 40
0.5632284426
 40
0.5948255332
 40
0.6263932833
 40
0.6579223185
 40
0.6894036061
 40
0.7208285362
 40
0.7521889995
 40
0.7834774603
 40
0.8146870281
 40
0.8458115337
 40
0.8768455446
 40
0.9077845995
 40
0.93862478
 40
0.9693635217
 40
1.0
 40
1.0
 40
1.0
 40
1.0
 10
11.6239816028
 20
8.6321619858
 30
0.0
 10
11.6172178384
 20
8.6325039344
 30
0.0
 10
11.6036820486
 20
8.6335223023
 30
0.0
 10
11.5834452961
 20
8.6360412794
 30
0.0
 10
11.5632876541
 20
8.6395482959
 30
0.0
 10
11.5432584993
 20
8.6440347972
 30
0.0
 10
11.5234060747
 20
8.6494899146
 30
0.0
 10
11.5037784059
 20
8.6559004044
 30
0.0
 10
11.4844229133
 20
8.6632507333
 30
0.0
 10
11.465386374
 20
8.6715231039
 30
0.0
 10
11.4467147881
 20
8.6806975029
 30
0.0
 10
11.4284532878
 20
8.6907517385
 30
0.0
 10
11.410645967
 20
8.7016615056
 30
0.0
 10
11.3933359476
 20
8.713400315
 30
0.0
 10
11.3765646808
 20
8.7259401509
 30
0.0
 10
11.3549744714
 20
8.7436879787
 30
0.0
 10
11.329537799
 20
8.7677163206
 30
0.0
 10
11.3064101017
 20
8.79397453
 30
0.0
 10
11.2894251226
 20
8.8161697825
 30
0.0
 10
11.2774771412
 20
8.8333676017
 30
0.0
 10
11.2663485023
 20
8.8510759382
 30
0.0
 10
11.2560657478
 20
8.8692523799
 30
0.0
 10
11.246653835
 20
8.8878529018
 30
0.0
 10
11.238135506
 20
8.9068325872
 30
0.0
 10
11.2305313847
 20
8.9261455684
 30
0.0
 10
11.2238598892
 20
8.9457451835
 30
0.0
 10
11.218137178
 20
8.9655840553
 30
0.0
 10
11.2133770843
 20
8.9856142595
 30
0.0
 10
11.2095911981
 20
9.0057873112
 30
0.0
 10
11.2067886561
 20
9.0260546282
 30
0.0
 10
11.2049762978
 20
9.0463667865
 30
0.0
 10
11.2044302935
 20
9.0599298751
 30
0.0
 10
11.2043242108
 20
9.0667015754
 30
0.0
  0
SPLINE
  5
372
100
AcDbEntity
  8
0
100
AcDbSpline
 62
7
  6
CONTINUOUS
 70
0
 71
3
 72
56
 73
52
 74
0
 42
0.0000001
 43
0.0000001
 44
0.0000000001
 40
0.0
 40
0.0
 40
0.0
 40
0.0
 40
0.0532131131
 40
0.105633554
 40
0.1571443692
 40
0.2076346289
 40
0.2569945169
 40
0.3051184503
 40
0.3519044663
 40
0.3972549662
 40
0.4410771197
 40
0.4832833744
 40
0.5237920264
 40
0.5625278718
 40
0.5994229784
 40
0.6344176177
 40
0.6511866862
 40
0.6674626524
 40
0.683240886
 40
0.6985176179
 40
0.7132899542
 40
0.7275558774
 40
0.7413145617
 40
0.7545661886
 40
0.767312411
 40
0.7795562339
 40
0.7913023825
 40
0.8025574865
 40
0.8133302408
 40
0.823631933
 40
0.833476506
 40
0.8428812547
 40
0.8518670268
 40
0.8604588344
 40
0.8686863032
 40
0.876584014
 40
0.8841919771
 40
0.8915555538
 40
0.8987254324
 40
0.9057569207
 40
0.9127089848
 40
0.919642806
 40
0.9266200918
 40
0.9337012954
 40
0.9409440611
 40
0.9484018784
 40
0.9641402673
 40
0.9725130258
 40
0.9812628804
 40
0.9904174298
 40
1.0
 40
1.0
 40
1.0
 40
1.0
 10
13.0982241605
 20
9.6822113056
 30
0.0
 10
13.0982241605
 20
9.6904037899
 30
0.0
 10
13.0981186342
 20
9.7066669395
 30
0.0
 10
13.0976369128
 20
9.7308561964
 30
0.0
 10
13.096833963
 20
9.7546175693
 30
0.0
 10
13.0957117871
 20
9.7778943172
 30
0.0
 10
13.0942730635
 20
9.8006312565
 30
0.0
 10
13.0925212885
 20
9.8227742628
 30
0.0
 10
13.090460682
 20
9.8442707325
 30
0.0
 10
13.0880962186
 20
9.8650695889
 30
0.0
 10
13.085433606
 20
9.885121447
 30
0.0
 10
13.0824792713
 20
9.904378734
 30
0.0
 10
13.0792403417
 20
9.9227957889
 30
0.0
 10
13.0757246382
 20
9.940329061
 30
0.0
 10
13.071940611
 20
9.9569369564
 30
0.0
 10
13.0685245322
 20
9.9701545971
 30
0.0
 10
13.0656548873
 20
9.9802294349
 30
0.0
 10
13.0634719171
 20
9.9874225269
 30
0.0
 10
13.0612288832
 20
9.9943560494
 30
0.0
 10
13.0589271012
 20
10.0010259115
 30
0.0
 10
13.0565679652
 20
10.0074281763
 30
0.0
 10
13.0541528234
 20
10.0135590574
 30
0.0
 10
13.0516831681
 20
10.0194149608
 30
0.0
 10
13.0491603816
 20
10.0249924276
 30
0.0
 10
13.0465860018
 20
10.0302882057
 30
0.0
 10
13.0439614884
 20
10.035299189
 30
0.0
 10
13.0412883598
 20
10.0400224558
 30
0.0
 10
13.0385681705
 20
10.0444552757
 30
0.0
 10
13.0358023894
 20
10.0485950457
 30
0.0
 10
13.0329926247
 20
10.0524394089
 30
0.0
 10
13.030140314
 20
10.055986081
 30
0.0
 10
13.0272470311
 20
10.0592330234
 30
0.0
 10
13.0243142253
 20
10.0621782696
 30
0.0
 10
13.0213433717
 20
10.0648199888
 30
0.0
 10
13.0183359739
 20
10.0671564879
 30
0.0
 10
13.0152934673
 20
10.0691860207
 30
0.0
 10
13.0122174922
 20
10.0709070674
 30
0.0
 10
13.0091096882
 20
10.0723179517
 30
0.0
 10
13.0059720202
 20
10.0734172884
 30
0.0
 10
13.0028066392
 20
10.074203736
 30
0.0
 10
12.9996159963
 20
10.0746762921
 30
0.0
 10
12.9964027424
 20
10.0748344498
 30
0.0
 10
12.9931695888
 20
10.0746780008
 30
0.0
 10
12.9899192316
 20
10.074207506
 30
0.0
 10
12.9866539712
 20
10.0734235326
 30
0.0
 10
12.982205005
 20
10.0719358102
 30
0.0
 10
12.9778028708
 20
10.0698236892
 30
0.0
 10
12.9734878457
 20
10.067178618
 30
0.0
 10
12.9701785143
 20
10.0648466276
 30
0.0
 10
12.9668661381
 20
10.0622097361
 30
0.0
 10
12.9647072142
 20
10.0602942502
 30
0.0
 10
12.9636272689
 20
10.059289156
 30
0.0
  0
SPLINE
  5
373
100
AcDbEntity
  8
0
100
AcDbSpline
 62
7
  6
CONTINUOUS
 70
0
 71
3
 72
39
 73
35
 74
0
 42
0.0000001
 43
0.0000001
 44
0.0000000001
 40
0.0
 40
0.0
 40
0.0
 40
0.0
 40
0.0307061174
 40
0.0615299296
 40
0.0924690078
 40
0.1235199663
 40
0.1546778093
 40
0.1859364009
 40
0.2172883682
 40
0.2487252769
 40
0.2802376993
 40
0.3118153506
 40
0.3434471995
 40
0.3751216031
 40
0.4068264394
 40
0.4385492426
 40
0.470277349
 40
0.5019980313
 40
0.5336986496
 40
0.5653667852
 40
0.5969903869
 40
0.6285579043
 40
0.660058422
 40
0.6914817894
 40
0.7228187377
 40
0.7540609999
 40
0.785201409
 40
0.8162339986
 40
0.8471540805
 40
0.8779583183
 40
0.908644781
 40
0.9392129818
 40
0.9696639036
 40
1.0
 40
1.0
 40
1.0
 40
1.0
 10
11.1143168667
 20
8.9982719839
 30
0.0
 10
11.1143168667
 20
8.9903964777
 30
0.0
 10
11.1147572348
 20
8.9746118368
 30
0.0
 10
11.1167278693
 20
8.9509659768
 30
0.0
 10
11.1200037045
 20
8.9273754312
 30
0.0
 10
11.1245744599
 20
8.9039142823
 30
0.0
 10
11.1304259352
 20
8.8806549053
 30
0.0
 10
11.1375399141
 20
8.8576694137
 30
0.0
 10
11.1458943093
 20
8.8350289564
 30
0.0
 10
11.1554631875
 20
8.8128036395
 30
0.0
 10
11.166216868
 20
8.7910622686
 30
0.0
 10
11.1781220102
 20
8.7698721524
 30
0.0
 10
11.1911417151
 20
8.7492988885
 30
0.0
 10
11.2052356435
 20
8.7294061666
 30
0.0
 10
11.2203601354
 20
8.7102555692
 30
0.0
 10
11.2364683499
 20
8.6919063848
 30
0.0
 10
11.2535104044
 20
8.6744154233
 30
0.0
 10
11.2714335329
 20
8.6578368428
 30
0.0
 10
11.2901822443
 20
8.6422219822
 30
0.0
 10
11.3096984966
 20
8.6276192028
 30
0.0
 10
11.3299218732
 20
8.6140737399
 30
0.0
 10
11.3507897696
 20
8.6016275628
 30
0.0
 10
11.3722375861
 20
8.5903192457
 30
0.0
 10
11.3941989253
 20
8.5801838483
 30
0.0
 10
11.4166057975
 20
8.5712528074
 30
0.0
 10
11.4393888284
 20
8.5635538394
 30
0.0
 10
11.4624774727
 20
8.5571108538
 30
0.0
 10
11.4858002317
 20
8.5519438792
 30
0.0
 10
11.5092848664
 20
8.5480689984
 30
0.0
 10
11.5328586489
 20
8.5454983032
 30
0.0
 10
11.5564484713
 20
8.5442398365
 30
0.0
 10
11.5799815012
 20
8.5442976319
 30
0.0
 10
11.6033838063
 20
8.5456714537
 30
0.0
 10
11.6188808905
 20
8.5474656002
 30
0.0
 10
11.6265811554
 20
8.5485808166
 30
0.0
  0
SPLINE
  5
374
100
AcDbEntity
  8
0
100
AcDbSpline
 62
7
  6
CONTINUOUS
 70
0
 71
3
 72
39
 73
35
 74
0
 42
0.0000001
 43
0.0000001
 44
0.0000000001
 40
0.0
 40
0.0
 40
0.0
 40
0.0
 40
0.0307080506
 40
0.0615340171
 40
0.0924754716
 40
0.1235289983
 40
0.1546895781
 40
0.1859510391
 40
0.2173059684
 40
0.2487458862
 40
0.2802613148
 40
0.3118419169
 40
0.3434766059
 40
0.3751536831
 40
0.4068609704
 40
0.4385859475
 40
0.4703158982
 40
0.5020380463
 40
0.5337397077
 40
0.565408425
 40
0.5970321151
 40
0.6285992029
 40
0.6600987572
 40
0.6915206204
 40
0.7228555269
 40
0.754095223
 40
0.7852325658
 40
0.8162616242
 40
0.8471777561
 40
0.8779776824
 40
0.9086595394
 40
0.9392229183
 40
0.969668889
 40
1.0
 40
1.0
 40
1.0
 40
1.0
 10
11.0923965614
 20
8.9925985936
 30
0.0
 10
11.0923965614
 20
8.9844291439
 30
0.0
 10
11.0928542371
 20
8.9680552905
 30
0.0
 10
11.0949023141
 20
8.9435269867
 30
0.0
 10
11.098306842
 20
8.9190564623
 30
0.0
 10
11.1030571078
 20
8.8947208546
 30
0.0
 10
11.1091382912
 20
8.8705955238
 30
0.0
 10
11.1165313907
 20
8.8467555524
 30
0.0
 10
11.1252133644
 20
8.8232750155
 30
0.0
 10
11.1351571595
 20
8.8002268973
 30
0.0
 10
11.1463318152
 20
8.7776828224
 30
0.0
 10
11.1587025533
 20
8.7557128503
 30
0.0
 10
11.1722308862
 20
8.7343852518
 30
0.0
 10
11.186874739
 20
8.7137663035
 30
0.0
 10
11.2025885757
 20
8.6939200789
 30
0.0
 10
11.2193235447
 20
8.6749082543
 30
0.0
 10
11.2370276253
 20
8.6567899155
 30
0.0
 10
11.2556457931
 20
8.6396213772
 30
0.0
 10
11.2751201858
 20
8.6234560075
 30
0.0
 10
11.2953902852
 20
8.6083440641
 30
0.0
 10
11.3163931021
 20
8.594332538
 30
0.0
 10
11.3380633716
 20
8.5814650086
 30
0.0
 10
11.3603337544
 20
8.5697815083
 30
0.0
 10
11.3831350442
 20
8.5593183988
 30
0.0
 10
11.4063963819
 20
8.5501082576
 30
0.0
 10
11.430045473
 20
8.5421797772
 30
0.0
 10
11.4540088113
 20
8.5355576752
 30
0.0
 10
11.4782119066
 20
8.5302626167
 30
0.0
 10
11.5025795067
 20
8.526311148
 30
0.0
 10
11.5270358612
 20
8.5237156489
 30
0.0
 10
11.5515048353
 20
8.5224842733
 30
0.0
 10
11.5759105933
 20
8.5226209935
 30
0.0
 10
11.6001761678
 20
8.5241253189
 30
0.0
 10
11.6162416288
 20
8.5260408302
 30
0.0
 10
11.6242234102
 20
8.5272251751
 30
0.0
  0
SPLINE
  5
375
100
AcDbEntity
  8
0
100
AcDbSpline
 62
7
  6
CONTINUOUS
 70
0
 71
3
 72
40
 73
36
 74
0
 42
0.0000001
 43
0.0000001
 44
0.0000000001
 40
0.0
 40
0.0
 40
0.0
 40
0.0
 40
0.0964132781
 40
0.1901869921
 40
0.2359074318
 40
0.2807575844
 40
0.3246709866
 40
0.3675830148
 40
0.4094313598
 40
0.4501560995
 40
0.4896999016
 40
0.528008388
 40
0.5650302757
 40
0.6007176322
 40
0.6350263452
 40
0.6679164477
 40
0.699352486
 40
0.7293041846
 40
0.7577471706
 40
0.7846636899
 40
0.8100437507
 40
0.8338866661
 40
0.8562027356
 40
0.8770156382
 40
0.8963657406
 40
0.9143140809
 40
0.9309474397
 40
0.9463845834
 40
0.9607827633
 40
0.9676572724
 40
0.9743513226
 40
0.9808970232
 40
0.987329015
 40
0.9936839639
 40
1.0
 40
1.0
 40
1.0
 40
1.0
 10
13.0431106483
 20
9.6739757376
 30
0.0
 10
13.0431106483
 20
9.6863896895
 30
0.0
 10
13.0428476448
 20
9.710878603
 30
0.0
 10
13.0418296762
 20
9.7412394159
 30
0.0
 10
13.0405989765
 20
9.7649437737
 30
0.0
 10
13.0394831375
 20
9.7822241251
 30
0.0
 10
13.0381686634
 20
9.7991278432
 30
0.0
 10
13.0366577099
 20
9.8156270877
 30
0.0
 10
13.0349528179
 20
9.8316946504
 30
0.0
 10
13.0330568242
 20
9.8473040494
 30
0.0
 10
13.0309728734
 20
9.8624295638
 30
0.0
 10
13.0287044543
 20
9.8770462874
 30
0.0
 10
13.026255351
 20
9.8911301641
 30
0.0
 10
13.023629626
 20
9.9046580261
 30
0.0
 10
13.0208316619
 20
9.9176076503
 30
0.0
 10
13.0178661281
 20
9.929957796
 30
0.0
 10
13.0147379415
 20
9.941688233
 30
0.0
 10
13.0114522871
 20
9.9527797984
 30
0.0
 10
13.0080146177
 20
9.9632144462
 30
0.0
 10
13.00443058
 20
9.9729752693
 30
0.0
 10
13.0007059916
 20
9.9820465466
 30
0.0
 10
12.9968468533
 20
9.9904138137
 30
0.0
 10
12.9928592151
 20
9.9980638731
 30
0.0
 10
12.9887490721
 20
10.0049847915
 30
0.0
 10
12.9845222603
 20
10.0111659403
 30
0.0
 10
12.9801843562
 20
10.0165978097
 30
0.0
 10
12.9757400258
 20
10.0212718814
 30
0.0
 10
12.9711944147
 20
10.0251794927
 30
0.0
 10
12.9672644875
 20
10.0278304343
 30
0.0
 10
12.9640885468
 20
10.0295328927
 30
0.0
 10
12.9617233775
 20
10.0305937232
 30
0.0
 10
12.9593396706
 20
10.0314572039
 30
0.0
 10
12.9569384109
 20
10.0321228512
 30
0.0
 10
12.9545209958
 20
10.0325901693
 30
0.0
 10
12.9528972501
 20
10.032769436
 30
0.0
 10
12.9520859602
 20
10.0328256955
 30
0.0
  0
SPLINE
  5
376
100
AcDbEntity
  8
0
100
AcDbSpline
 62
7
  6
CONTINUOUS
 70
0
 71
3
 72
44
 73
40
 74
0
 42
0.0000001
 43
0.0000001
 44
0.0000000001
 40
0.0
 40
0.0
 40
0.0
 40
0.0
 40
0.0924658189
 40
0.1826123444
 40
0.2266685511
 40
0.2699692249
 40
0.3124585516
 40
0.3540820653
 40
0.394787031
 40
0.434522488
 40
0.4732393644
 40
0.5108907173
 40
0.5474318862
 40
0.5828206213
 40
0.6170173304
 40
0.6499853847
 40
0.6816913094
 40
0.7121050976
 40
0.7412006957
 40
0.7689564315
 40
0.7953555319
 40
0.8203869029
 40
0.8440460956
 40
0.8663363671
 40
0.8769724159
 40
0.8872718427
 40
0.8972379498
 40
0.9068748932
 40
0.9161878389
 40
0.9251829016
 40
0.9338673966
 40
0.9422499535
 40
0.9503405364
 40
0.9581507433
 40
0.9656938807
 40
0.9729850573
 40
0.9868766524
 40
0.9935234958
 40
1.0
 40
1.0
 40
1.0
 40
1.0
 10
13.1422233618
 20
7.8527468306
 30
0.0
 10
13.1422233618
 20
7.8694961675
 30
0.0
 10
13.1418922204
 20
7.9025757391
 30
0.0
 10
13.14061345
 20
7.9436181934
 30
0.0
 10
13.1390684293
 20
7.9757347829
 30
0.0
 10
13.1376659904
 20
7.9992139489
 30
0.0
 10
13.1360131687
 20
8.0222350569
 30
0.0
 10
13.1341123051
 20
8.0447652293
 30
0.0
 10
13.1319661654
 20
8.0667722508
 30
0.0
 10
13.1295778475
 20
8.0882246725
 30
0.0
 10
13.1269507833
 20
8.1090918378
 30
0.0
 10
13.1240887674
 20
8.1293439402
 30
0.0
 10
13.12099594
 20
8.1489520669
 30
0.0
 10
13.1176767567
 20
8.1678882307
 30
0.0
 10
13.1141359936
 20
8.1861254205
 30
0.0
 10
13.1103787737
 20
8.2036376534
 30
0.0
 10
13.1064105154
 20
8.2204000024
 30
0.0
 10
13.1022369156
 20
8.2363886346
 30
0.0
 10
13.0978639848
 20
8.2515808689
 30
0.0
 10
13.0932980067
 20
8.2659552222
 30
0.0
 10
13.0885454991
 20
8.2794913977
 30
0.0
 10
13.0836131849
 20
8.2921704661
 30
0.0
 10
13.0785080678
 20
8.303974493
 30
0.0
 10
13.0740486175
 20
8.3132077141
 30
0.0
 10
13.0703914817
 20
8.3201318992
 30
0.0
 10
13.0676529019
 20
8.3250145093
 30
0.0
 10
13.0648766346
 20
8.3296662815
 30
0.0
 10
13.0620635888
 20
8.3340855728
 30
0.0
 10
13.0592147885
 20
8.3382708516
 30
0.0
 10
13.056331168
 20
8.3422206228
 30
0.0
 10
13.053413701
 20
8.3459334904
 30
0.0
 10
13.0504634086
 20
8.3494081655
 30
0.0
 10
13.0474811963
 20
8.3526433874
 30
0.0
 10
13.0444681395
 20
8.3556379476
 30
0.0
 10
13.0414249585
 20
8.3583909686
 30
0.0
 10
13.0373945519
 20
8.3616842908
 30
0.0
 10
13.0332393401
 20
8.3645620895
 30
0.0
 10
13.0289735902
 20
8.3669651615
 30
0.0
 10
13.0268297735
 20
8.3679972128
 30
0.0
 10
13.0257559518
 20
8.3684696639
 30
0.0
  0
SPLINE
  5
377
100
AcDbEntity
  8
0
100
AcDbSpline
 62
7
  6
CONTINUOUS
 70
0
 71
3
 72
54
 73
50
 74
0
 42
0.0000001
 43
0.0000001
 44
0.0000000001
 40
0.0
 40
0.0
 40
0.0
 40
0.0
 40
0.0417740106
 40
0.0840368515
 40
0.1266583734
 40
0.1695063147
 40
0.2124478814
 40
0.2553497884
 40
0.2980789417
 40
0.340502919
 40
0.3824905067
 40
0.4239122259
 40
0.4646408671
 40
0.5045520317
 40
0.5435246831
 40
0.5814417135
 40
0.6181905344
 40
0.6536637003
 40
0.6877595809
 40
0.704261357
 40
0.7203837372
 40
0.736116
 40
0.7514479644
 40
0.7663699709
 40
0.7808730136
 40
0.7949486603
 40
0.8085892482
 40
0.8217877894
 40
0.8345381805
 40
0.8468351604
 40
0.8586744859
 40
0.8700529987
 40
0.8809687469
 40
0.891421194
 40
0.9014113064
 40
0.910941912
 40
0.9200178165
 40
0.9286462958
 40
0.9368373422
 40
0.9446042644
 40
0.9519641574
 40
0.9589385856
 40
0.9655542762
 40
0.9718437871
 40
0.9778461898
 40
0.9836073681
 40
0.9891800557
 40
0.994623083
 40
1.0
 40
1.0
 40
1.0
 40
1.0
 10
13.1731329909
 20
9.722567683
 30
0.0
 10
13.1731329909
 20
9.70960185
 30
0.0
 10
13.1729307113
 20
9.6835180531
 30
0.0
 10
13.1720364629
 20
9.6442145873
 30
0.0
 10
13.1705522373
 20
9.6045953517
 30
0.0
 10
13.1684828921
 20
9.5647914649
 30
0.0
 10
13.1658352705
 20
9.5249346408
 30
0.0
 10
13.1626181221
 20
9.4851567284
 30
0.0
 10
13.1588421047
 20
9.4455893317
 30
0.0
 10
13.1545197353
 20
9.4063633483
 30
0.0
 10
13.1496653544
 20
9.3676085403
 30
0.0
 10
13.1442950773
 20
9.3294530997
 30
0.0
 10
13.1384267421
 20
9.2920232206
 30
0.0
 10
13.1320798525
 20
9.2554426768
 30
0.0
 10
13.1252755147
 20
9.2198324008
 30
0.0
 10
13.1180363657
 20
9.1853100969
 30
0.0
 10
13.1103865097
 20
9.1519897663
 30
0.0
 10
13.1023514059
 20
9.1199815818
 30
0.0
 10
13.0952820487
 20
9.0942165579
 30
0.0
 10
13.0894435338
 20
9.0743475898
 30
0.0
 10
13.0850329038
 20
9.0600009698
 30
0.0
 10
13.0805465132
 20
9.0460587902
 30
0.0
 10
13.0759880751
 20
9.0325325533
 30
0.0
 10
13.0713613429
 20
9.0194334365
 30
0.0
 10
13.0666701962
 20
9.0067722442
 30
0.0
 10
13.0619184699
 20
8.9945594306
 30
0.0
 10
13.0571101581
 20
8.9828050529
 30
0.0
 10
13.0522491882
 20
8.9715188038
 30
0.0
 10
13.0473396286
 20
8.9607099594
 30
0.0
 10
13.0423855037
 20
8.9503874098
 30
0.0
 10
13.0373909176
 20
8.9405596198
 30
0.0
 10
13.0323599849
 20
8.9312346347
 30
0.0
 10
13.0272968104
 20
8.9224200805
 30
0.0
 10
13.0222055728
 20
8.9141231191
 30
0.0
 10
13.0170903462
 20
8.9063505112
 30
0.0
 10
13.0119553186
 20
8.8991085075
 30
0.0
 10
13.0068045
 20
8.892402981
 30
0.0
 10
13.0016419974
 20
8.8862392727
 30
0.0
 10
12.9964717095
 20
8.880622365
 30
0.0
 10
12.991297544
 20
8.8755567524
 30
0.0
 10
12.9861232202
 20
8.8710465956
 30
0.0
 10
12.9809523522
 20
8.8670957247
 30
0.0
 10
12.9757884597
 20
8.8637076987
 30
0.0
 10
12.9706349626
 20
8.8608860323
 30
0.0
 10
12.9654954422
 20
8.8586340453
 30
0.0
 10
12.9603737924
 20
8.8569552285
 30
0.0
 10
12.9552742956
 20
8.8558526887
 30
0.0
 10
12.9502030986
 20
8.8553292355
 30
0.0
 10
12.9468362533
 20
8.8553676217
 30
0.0
 10
12.9451713621
 20
8.8554830749
 30
0.0
  0
SPLINE
  5
378
100
AcDbEntity
  8
0
100
AcDbSpline
 62
7
  6
CONTINUOUS
 70
0
 71
3
 72
50
 73
46
 74
0
 42
0.0000001
 43
0.0000001
 44
0.0000000001
 40
0.0
 40
0.0
 40
0.0
 40
0.0
 40
0.0067432767
 40
0.0137065559
 40
0.0209232545
 40
0.0284236235
 40
0.036234937
 40
0.04438128
 40
0.0528837935
 40
0.0617607632
 40
0.0710276834
 40
0.0806975887
 40
0.0907809269
 40
0.1012859916
 40
0.1122186847
 40
0.123582937
 40
0.135380466
 40
0.1476111225
 40
0.160272702
 40
0.1733612174
 40
0.1868707529
 40
0.2007937154
 40
0.2151207271
 40
0.2298409041
 40
0.2604095205
 40
0.2923842314
 40
0.3256321377
 40
0.3600080755
 40
0.3953603202
 40
0.4315362648
 40
0.4683875432
 40
0.5057743226
 40
0.5435683915
 40
0.5816550945
 40
0.6199342339
 40
0.6583199786
 40
0.6967400758
 40
0.7351346657
 40
0.7734546964
 40
0.8116602576
 40
0.8497188184
 40
0.8876037091
 40
0.9252918381
 40
0.9627640306
 40
1.0
 40
1.0
 40
1.0
 40
1.0
 10
11.2584029363
 20
8.4288289025
 30
0.0
 10
11.2584027479
 20
8.4301338247
 30
0.0
 10
11.2583072681
 20
8.4327869999
 30
0.0
 10
11.2578936683
 20
8.4368173757
 30
0.0
 10
11.2572093676
 20
8.4409591701
 30
0.0
 10
11.2562561346
 20
8.4452154094
 30
0.0
 10
11.2550365164
 20
8.4495898718
 30
0.0
 10
11.253552891
 20
8.4540863836
 30
0.0
 10
11.2518086412
 20
8.4587091905
 30
0.0
 10
11.2498069835
 20
8.4634624797
 30
0.0
 10
11.2475522113
 20
8.468350794
 30
0.0
 10
11.2450486256
 20
8.473378494
 30
0.0
 10
11.2423015547
 20
8.4785501937
 30
0.0
 10
11.2393165818
 20
8.4838702591
 30
0.0
 10
11.236100229
 20
8.4893431534
 30
0.0
 10
11.2326594999
 20
8.4949730492
 30
0.0
 10
11.2290022602
 20
8.5007640406
 30
0.0
 10
11.2251370205
 20
8.5067198859
 30
0.0
 10
11.2210730955
 20
8.5128441
 30
0.0
 10
11.216820529
 20
8.5191397972
 30
0.0
 10
11.2123901239
 20
8.5256097095
 30
0.0
 10
11.2077934166
 20
8.532256087
 30
0.0
 10
11.203042656
 20
8.5390807067
 30
0.0
 10
11.1964367359
 20
8.5485386799
 30
0.0
 10
11.1878726461
 20
8.5607945883
 30
0.0
 10
11.1773273067
 20
8.5760399622
 30
0.0
 10
11.1665083058
 20
8.5919912215
 30
0.0
 10
11.1555387454
 20
8.6086284687
 30
0.0
 10
11.1445419038
 20
8.6259235319
 30
0.0
 10
11.1336383764
 20
8.6438412731
 30
0.0
 10
11.1229434663
 20
8.6623410502
 30
0.0
 10
11.1125651499
 20
8.6813782297
 30
0.0
 10
11.1026026564
 20
8.7009055792
 30
0.0
 10
11.0931456716
 20
8.720874439
 30
0.0
 10
11.0842740709
 20
8.7412356062
 30
0.0
 10
11.0760580711
 20
8.7619399215
 30
0.0
 10
11.0685586736
 20
8.7829385891
 30
0.0
 10
11.0618282624
 20
8.8041832665
 30
0.0
 10
11.0559112541
 20
8.825625994
 30
0.0
 10
11.0508447618
 20
8.8472189899
 30
0.0
 10
11.04665916
 20
8.8689144376
 30
0.0
 10
11.0433786913
 20
8.8906640412
 30
0.0
 10
11.0410216544
 20
8.9124192088
 30
0.0
 10
11.0396011035
 20
8.9341294495
 30
0.0
 10
11.0392823399
 20
8.94858849
 30
0.0
 10
11.0392823399
 20
8.9557941923
 30
0.0
  0
SPLINE
  5
379
100
AcDbEntity
  8
0
100
AcDbSpline
 62
7
  6
CONTINUOUS
 70
0
 71
3
 72
23
 73
19
 74
0
 42
0.0000001
 43
0.0000001
 44
0.0000000001
 40
0.0
 40
0.0
 40
0.0
 40
0.0
 40
0.0637775561
 40
0.1273446565
 40
0.1907020307
 40
0.2538561431
 40
0.3168131834
 40
0.3795821015
 40
0.4421733894
 40
0.5045993415
 40
0.5668738676
 40
0.6290123791
 40
0.6910316472
 40
0.7529496401
 40
0.8147853492
 40
0.8765585998
 40
0.9382898533
 40
1.0
 40
1.0
 40
1.0
 40
1.0
 10
9.4521901535
 20
7.5955799239
 30
0.0
 10
9.4521901535
 20
7.603911537
 30
0.0
 10
9.4525889156
 20
7.6205500943
 30
0.0
 10
9.4543888572
 20
7.6454067616
 30
0.0
 10
9.4573856826
 20
7.6700663258
 30
0.0
 10
9.4615723609
 20
7.6944710523
 30
0.0
 10
9.4669394283
 20
7.718565019
 30
0.0
 10
9.4734745043
 20
7.7422925745
 30
0.0
 10
9.4811626112
 20
7.7655990413
 30
0.0
 10
9.4899860713
 20
7.788430664
 30
0.0
 10
9.4999245832
 20
7.8107347898
 30
0.0
 10
9.5109552698
 20
7.8324599746
 30
0.0
 10
9.5230527265
 20
7.853556101
 30
0.0
 10
9.5361890985
 20
7.8739745116
 30
0.0
 10
9.550334073
 20
7.8936680561
 30
0.0
 10
9.5654552135
 20
7.9125914489
 30
0.0
 10
9.5815170464
 20
7.9307004506
 30
0.0
 10
9.5928295336
 20
7.9422044296
 30
0.0
 10
9.5986278375
 20
7.947805147
 30
0.0
  0
SPLINE
  5
37A
100
AcDbEntity
  8
0
100
AcDbSpline
 62
7
  6
CONTINUOUS
 70
0
 71
3
 72
23
 73
19
 74
0
 42
0.0000001
 43
0.0000001
 44
0.0000000001
 40
0.0
 40
0.0
 40
0.0
 40
0.0
 40
0.0637775561
 40
0.1273446565
 40
0.1907020307
 40
0.2538561431
 40
0.3168131834
 40
0.3795821015
 40
0.4421733894
 40
0.5045993415
 40
0.5668738676
 40
0.6290123791
 40
0.6910316472
 40
0.7529496401
 40
0.8147853492
 40
0.8765585998
 40
0.9382898533
 40
1.0
 40
1.0
 40
1.0
 40
1.0
 10
10.5987440971
 20
8.6017669009
 30
0.0
 10
10.5987440971
 20
8.610098514
 30
0.0
 10
10.5991428592
 20
8.6267370714
 30
0.0
 10
10.6009428008
 20
8.6515937386
 30
0.0
 10
10.6039396262
 20
8.6762533028
 30
0.0
 10
10.6081263045
 20
8.7006580293
 30
0.0
 10
10.6134933719
 20
8.724751996
 30
0.0
 10
10.6200284479
 20
8.7484795516
 30
0.0
 10
10.6277165548
 20
8.7717860183
 30
0.0
 10
10.6365400149
 20
8.7946176411
 30
0.0
 10
10.6464785268
 20
8.8169217668
 30
0.0
 10
10.6575092134
 20
8.8386469516
 30
0.0
 10
10.6696066701
 20
8.859743078
 30
0.0
 10
10.6827430421
 20
8.8801614887
 30
0.0
 10
10.6968880166
 20
8.8998550331
 30
0.0
 10
10.7120091571
 20
8.918778426
 30
0.0
 10
10.72807099
 20
8.9368874276
 30
0.0
 10
10.7393834772
 20
8.9483914066
 30
0.0
 10
10.7451817811
 20
8.953992124
 30
0.0
  0
SPLINE
  5
37B
100
AcDbEntity
  8
0
100
AcDbSpline
 62
7
  6
CONTINUOUS
 70
0
 71
3
 72
42
 73
38
 74
0
 42
0.0000001
 43
0.0000001
 44
0.0000000001
 40
0.0
 40
0.0
 40
0.0
 40
0.0
 40
0.0055576443
 40
0.0111781836
 40
0.0169222355
 40
0.022846223
 40
0.0290011442
 40
0.0354316623
 40
0.0421762431
 40
0.049267259
 40
0.0567314277
 40
0.0645907244
 40
0.072862575
 40
0.081560766
 40
0.0906959315
 40
0.100275708
 40
0.1103055927
 40
0.1207888494
 40
0.1431177711
 40
0.1672591076
 40
0.1931868442
 40
0.2208588039
 40
0.2502193991
 40
0.2812018039
 40
0.3137295194
 40
0.3477175618
 40
0.3830734051
 40
0.419697946
 40
0.4574862654
 40
0.4963282772
 40
0.5361092896
 40
0.5767106614
 40
0.6598810502
 40
0.7448351505
 40
0.8305372122
 40
0.9159392559
 40
1.0
 40
1.0
 40
1.0
 40
1.0
 10
12.022404348
 20
9.9065763577
 30
0.0
 10
12.022404348
 20
9.907001852
 30
0.0
 10
12.0224519701
 20
9.9078583974
 30
0.0
 10
12.0226657939
 20
9.9091386419
 30
0.0
 10
12.0230216098
 20
9.910416027
 30
0.0
 10
12.0235187023
 20
9.9116890898
 30
0.0
 10
12.0241563324
 20
9.9129567593
 30
0.0
 10
12.0249335513
 20
9.9142181106
 30
0.0
 10
12.0258495334
 20
9.9154722469
 30
0.0
 10
12.0269033718
 20
9.9167183202
 30
0.0
 10
12.0280940901
 20
9.9179555302
 30
0.0
 10
12.0294207427
 20
9.9191829605
 30
0.0
 10
12.0308822091
 20
9.9203997788
 30
0.0
 10
12.032477332
 20
9.9216050771
 30
0.0
 10
12.0342048577
 20
9.922797913
 30
0.0
 10
12.0360633793
 20
9.9239774118
 30
0.0
 10
12.0380514401
 20
9.9251426225
 30
0.0
 10
12.0409337875
 20
9.9267090123
 30
0.0
 10
12.0448573525
 20
9.9286168275
 30
0.0
 10
12.049958823
 20
9.9307890036
 30
0.0
 10
12.0555320259
 20
9.9328827152
 30
0.0
 10
12.0615589654
 20
9.9348911057
 30
0.0
 10
12.0680202889
 20
9.9368075785
 30
0.0
 10
12.0748950562
 20
9.9386257987
 30
0.0
 10
12.0821609367
 20
9.9403397447
 30
0.0
 10
12.08979426
 20
9.9419437327
 30
0.0
 10
12.0977701112
 20
9.9434324593
 30
0.0
 10
12.1060624266
 20
9.9448009967
 30
0.0
 10
12.1146440943
 20
9.9460448162
 30
0.0
 10
12.123487032
 20
9.9471597883
 30
0.0
 10
12.1325623137
 20
9.9481422591
 30
0.0
 10
12.1450326175
 20
9.9492802019
 30
0.0
 10
12.1609802402
 20
9.9503430347
 30
0.0
 10
12.1804034699
 20
9.9510424358
 30
0.0
 10
12.2000098615
 20
9.9511662484
 30
0.0
 10
12.2195427724
 20
9.9507128482
 30
0.0
 10
12.2325008877
 20
9.9500215731
 30
0.0
 10
12.238921173
 20
9.9495763248
 30
0.0
  0
SPLINE
  5
37C
100
AcDbEntity
  8
0
100
AcDbSpline
 62
7
  6
CONTINUOUS
 70
0
 71
3
 72
33
 73
29
 74
0
 42
0.0000001
 43
0.0000001
 44
0.0000000001
 40
0.0
 40
0.0
 40
0.0
 40
0.0
 40
0.0958348039
 40
0.1891069742
 40
0.2792500435
 40
0.36572131
 40
0.4480125246
 40
0.5256540669
 40
0.5625988158
 40
0.598226802
 40
0.632494146
 40
0.6653609288
 40
0.6967920316
 40
0.726757616
 40
0.7552336203
 40
0.7822031337
 40
0.8076567456
 40
0.8315949344
 40
0.8540288219
 40
0.8749836671
 40
0.8945009457
 40
0.9126431418
 40
0.9294980666
 40
0.945184889
 40
0.9598599849
 40
0.9737213022
 40
0.9870092614
 40
1.0
 40
1.0
 40
1.0
 40
1.0
 10
12.238921173
 20
9.9495763248
 30
0.0
 10
12.2434010922
 20
9.9492656413
 30
0.0
 10
12.2522346768
 20
9.9485540517
 30
0.0
 10
12.2652504744
 20
9.9471957224
 30
0.0
 10
12.2777932052
 20
9.9455679315
 30
0.0
 10
12.2897792701
 20
9.9436817444
 30
0.0
 10
12.3011287072
 20
9.9415499859
 30
0.0
 10
12.3101367331
 20
9.9395493544
 30
0.0
 10
12.3169622805
 20
9.9378281708
 30
0.0
 10
12.3217914506
 20
9.93650659
 30
0.0
 10
12.3264077398
 20
9.9351351979
 30
0.0
 10
12.3308034793
 20
9.9337162494
 30
0.0
 10
12.3349713739
 20
9.9322521384
 30
0.0
 10
12.3389045286
 20
9.9307453265
 30
0.0
 10
12.342596449
 20
9.9291982975
 30
0.0
 10
12.3460410863
 20
9.9276136671
 30
0.0
 10
12.3492328003
 20
9.9259939773
 30
0.0
 10
12.35216645
 20
9.92434193
 30
0.0
 10
12.3548373004
 20
9.9226600672
 30
0.0
 10
12.3572411494
 20
9.9209510449
 30
0.0
 10
12.3593741754
 20
9.9192172878
 30
0.0
 10
12.3612330229
 20
9.9174611853
 30
0.0
 10
12.3628145898
 20
9.9156848591
 30
0.0
 10
12.3641158987
 20
9.9138902466
 30
0.0
 10
12.3651338724
 20
9.9120793174
 30
0.0
 10
12.3658650013
 20
9.9102541258
 30
0.0
 10
12.3663057668
 20
9.9084185923
 30
0.0
 10
12.3664043199
 20
9.9071850848
 30
0.0
 10
12.3664043199
 20
9.9065763577
 30
0.0
  0
SPLINE
  5
37D
100
AcDbEntity
  8
0
100
AcDbSpline
 62
7
  6
CONTINUOUS
 70
0
 71
3
 72
42
 73
38
 74
0
 42
0.0000001
 43
0.0000001
 44
0.0000000001
 40
0.0
 40
0.0
 40
0.0
 40
0.0
 40
0.0055576443
 40
0.0111781836
 40
0.0169222355
 40
0.022846223
 40
0.0290011442
 40
0.0354316623
 40
0.0421762431
 40
0.049267259
 40
0.0567314277
 40
0.0645907244
 40
0.072862575
 40
0.081560766
 40
0.0906959315
 40
0.100275708
 40
0.1103055927
 40
0.1207888494
 40
0.1431177711
 40
0.1672591076
 40
0.1931868442
 40
0.2208588039
 40
0.2502193991
 40
0.2812018039
 40
0.3137295194
 40
0.3477175618
 40
0.3830734051
 40
0.419697946
 40
0.4574862654
 40
0.4963282772
 40
0.5361092896
 40
0.5767106614
 40
0.6598810502
 40
0.7448351505
 40
0.8305372122
 40
0.9159392559
 40
1.0
 40
1.0
 40
1.0
 40
1.0
 10
9.2453674328
 20
10.0991645219
 30
0.0
 10
9.2453674328
 20
10.0995900161
 30
0.0
 10
9.245415055
 20
10.1004465616
 30
0.0
 10
9.2456288788
 20
10.1017268061
 30
0.0
 10
9.2459846947
 20
10.1030041912
 30
0.0
 10
9.2464817872
 20
10.104277254
 30
0.0
 10
9.2471194172
 20
10.1055449235
 30
0.0
 10
9.2478966361
 20
10.1068062747
 30
0.0
 10
9.2488126183
 20
10.1080604111
 30
0.0
 10
9.2498664567
 20
10.1093064844
 30
0.0
 10
9.251057175
 20
10.1105436944
 30
0.0
 10
9.2523838276
 20
10.1117711247
 30
0.0
 10
9.2538452939
 20
10.112987943
 30
0.0
 10
9.2554404169
 20
10.1141932413
 30
0.0
 10
9.2571679426
 20
10.1153860772
 30
0.0
 10
9.2590264642
 20
10.116565576
 30
0.0
 10
9.261014525
 20
10.1177307867
 30
0.0
 10
9.2638968723
 20
10.1192971764
 30
0.0
 10
9.2678204373
 20
10.1212049917
 30
0.0
 10
9.2729219079
 20
10.1233771678
 30
0.0
 10
9.2784951108
 20
10.1254708794
 30
0.0
 10
9.2845220503
 20
10.1274792699
 30
0.0
 10
9.2909833737
 20
10.1293957427
 30
0.0
 10
9.2978581411
 20
10.1312139629
 30
0.0
 10
9.3051240215
 20
10.1329279089
 30
0.0
 10
9.3127573449
 20
10.1345318968
 30
0.0
 10
9.3207331961
 20
10.1360206235
 30
0.0
 10
9.3290255115
 20
10.1373891609
 30
0.0
 10
9.3376071792
 20
10.1386329804
 30
0.0
 10
9.3464501169
 20
10.1397479525
 30
0.0
 10
9.3555253986
 20
10.1407304233
 30
0.0
 10
9.3679957024
 20
10.1418683661
 30
0.0
 10
9.383943325
 20
10.1429311989
 30
0.0
 10
9.4033665548
 20
10.1436306
 30
0.0
 10
9.4229729464
 20
10.1437544126
 30
0.0
 10
9.4425058572
 20
10.1433010124
 30
0.0
 10
9.4554639726
 20
10.1426097372
 30
0.0
 10
9.4618842578
 20
10.1421644889
 30
0.0
  0
SPLINE
  5
37E
100
AcDbEntity
  8
0
100
AcDbSpline
 62
7
  6
CONTINUOUS
 70
0
 71
3
 72
46
 73
42
 74
0
 42
0.0000001
 43
0.0000001
 44
0.0000000001
 40
0.0
 40
0.0
 40
0.0
 40
0.0
 40
0.0149720525
 40
0.0299471649
 40
0.0449283772
 40
0.0599186917
 40
0.0749210573
 40
0.0899383484
 40
0.1049733476
 40
0.1200287333
 40
0.1351070597
 40
0.1502107421
 40
0.1653420474
 40
0.1805030776
 40
0.1956957572
 40
0.2109218287
 40
0.2414745667
 40
0.2721768461
 40
0.3030351766
 40
0.3340525707
 40
0.3652285255
 40
0.3965590884
 40
0.4280369959
 40
0.4596518697
 40
0.4913904744
 40
0.523237028
 40
0.5551735471
 40
0.5871802301
 40
0.6192358692
 40
0.6513182802
 40
0.6834047461
 40
0.7154724694
 40
0.7474990252
 40
0.7794628091
 40
0.811343472
 40
0.843122339
 40
0.8747828041
 40
0.9063106918
 40
0.9376946023
 40
0.9689259241
 40
1.0
 40
1.0
 40
1.0
 40
1.0
 10
10.3489524238
 20
7.1710085383
 30
0.0
 10
10.344472786
 20
7.1666815513
 30
0.0
 10
10.3353394901
 20
7.1582038621
 30
0.0
 10
10.3211435658
 20
7.1460403792
 30
0.0
 10
10.3064696171
 20
7.1344453323
 30
0.0
 10
10.2913381698
 20
7.1234348857
 30
0.0
 10
10.2757699716
 20
7.1130241134
 30
0.0
 10
10.259786434
 20
7.1032274133
 30
0.0
 10
10.2434095883
 20
7.0940581956
 30
0.0
 10
10.2266619705
 20
7.085529074
 30
0.0
 10
10.2095666005
 20
7.0776518325
 30
0.0
 10
10.1921470436
 20
7.0704372351
 30
0.0
 10
10.1744272387
 20
7.0638952037
 30
0.0
 10
10.1564316454
 20
7.0580347946
 30
0.0
 10
10.1381846973
 20
7.0528639413
 30
0.0
 10
10.1135291723
 20
7.0468922163
 30
0.0
 10
10.0821951392
 20
7.0411889749
 30
0.0
 10
10.0440491898
 20
7.0372050914
 30
0.0
 10
10.0055179101
 20
7.0360929982
 30
0.0
 10
9.9668146674
 20
7.0378587721
 30
0.0
 10
9.9281518206
 20
7.0424920852
 30
0.0
 10
9.8897418963
 20
7.0499670188
 30
0.0
 10
9.8517958308
 20
7.0602421381
 30
0.0
 10
9.8145219692
 20
7.073260616
 30
0.0
 10
9.7781248854
 20
7.0889505982
 30
0.0
 10
9.7428043398
 20
7.1072257118
 30
0.0
 10
9.7087541427
 20
7.1279854014
 30
0.0
 10
9.6761610932
 20
7.1511154984
 30
0.0
 10
9.6452040465
 20
7.1764889583
 30
0.0
 10
9.6160528814
 20
7.2039664441
 30
0.0
 10
9.5888675424
 20
7.2333970702
 30
0.0
 10
9.5637972818
 20
7.2646193345
 30
0.0
 10
9.5409797855
 20
7.2974619157
 30
0.0
 10
9.5205403542
 20
7.3317445696
 30
0.0
 10
9.5025913598
 20
7.3672792095
 30
0.0
 10
9.4872315794
 20
7.4038708481
 30
0.0
 10
9.4745455471
 20
7.4413187083
 30
0.0
 10
9.4646032377
 20
7.4794170604
 30
0.0
 10
9.4574597118
 20
7.5179574381
 30
0.0
 10
9.4531544399
 20
7.5567254529
 30
0.0
 10
9.4521901535
 20
7.5826535531
 30
0.0
 10
9.4521901535
 20
7.5955799239
 30
0.0
  0
SPLINE
  5
37F
100
AcDbEntity
  8
0
100
AcDbSpline
 62
7
  6
CONTINUOUS
 70
0
 71
3
 72
39
 73
35
 74
0
 42
0.0000001
 43
0.0000001
 44
0.0000000001
 40
0.0
 40
0.0
 40
0.0
 40
0.0
 40
0.0299352965
 40
0.0599016299
 40
0.0899220623
 40
0.1200183695
 40
0.1502105357
 40
0.1805162983
 40
0.2109507622
 40
0.2415260872
 40
0.2722512506
 40
0.303131891
 40
0.3341702377
 40
0.3653651132
 40
0.3967120054
 40
0.4282032141
 40
0.459828055
 40
0.4915731142
 40
0.5234225501
 40
0.5553584372
 40
0.5873611385
 40
0.6194097018
 40
0.6514822778
 40
0.6835565491
 40
0.7156101653
 40
0.7476211786
 40
0.7795684744
 40
0.8114321892
 40
0.8431941149
 40
0.8748380717
 40
0.906350256
 40
0.9377195916
 40
0.968937666
 40
1.0
 40
1.0
 40
1.0
 40
1.0
 10
10.3488619336
 20
7.1711051406
 30
0.0
 10
10.3397847383
 20
7.1627443372
 30
0.0
 10
10.3209532251
 20
7.1467227303
 30
0.0
 10
10.2908882671
 20
7.124973565
 30
0.0
 10
10.2591529736
 20
7.1056115049
 30
0.0
 10
10.2259213805
 20
7.0887431286
 30
0.0
 10
10.191372749
 20
7.0744588858
 30
0.0
 10
10.1556942047
 20
7.0628357695
 30
0.0
 10
10.1190786773
 20
7.0539361415
 30
0.0
 10
10.081724106
 20
7.0478076901
 30
0.0
 10
10.0438323137
 20
7.0444830499
 30
0.0
 10
10.0056079181
 20
7.043979649
 30
0.0
 10
9.967257214
 20
7.0462997419
 30
0.0
 10
9.9289870868
 20
7.0514304035
 30
0.0
 10
9.8910038893
 20
7.0593434928
 30
0.0
 10
9.8535123455
 20
7.069995939
 30
0.0
 10
9.8167144824
 20
7.0833300078
 30
0.0
 10
9.7808085359
 20
7.0992735348
 30
0.0
 10
9.7459878802
 20
7.1177403126
 30
0.0
 10
9.712440041
 20
7.1386306472
 30
0.0
 10
9.6803457046
 20
7.1618318707
 30
0.0
 10
9.6498776838
 20
7.1872188461
 30
0.0
 10
9.6212000575
 20
7.2146547375
 30
0.0
 10
9.5944673235
 20
7.2439917505
 30
0.0
 10
9.5698235157
 20
7.2750718551
 30
0.0
 10
9.5474014202
 20
7.307727633
 30
0.0
 10
9.5273219421
 20
7.3417832273
 30
0.0
 10
9.5096934523
 20
7.3770552612
 30
0.0
 10
9.494611096
 20
7.413353737
 30
0.0
 10
9.4821563839
 20
7.4504831951
 30
0.0
 10
9.4723967611
 20
7.4882434397
 30
0.0
 10
9.4653852409
 20
7.5264316613
 30
0.0
 10
9.4611598421
 20
7.56483938
 30
0.0
 10
9.4602135372
 20
7.5905243647
 30
0.0
 10
9.4602135372
 20
7.6033299178
 30
0.0
  0
SPLINE
  5
380
100
AcDbEntity
  8
0
100
AcDbSpline
 62
7
  6
CONTINUOUS
 70
0
 71
3
 72
44
 73
40
 74
0
 42
0.0000001
 43
0.0000001
 44
0.0000000001
 40
0.0
 40
0.0
 40
0.0
 40
0.0
 40
0.0149722234
 40
0.0299475064
 40
0.0449288883
 40
0.0599193732
 40
0.0749219094
 40
0.0899393698
 40
0.1049745397
 40
0.1200300962
 40
0.1351085921
 40
0.1502124456
 40
0.1804994109
 40
0.2109128653
 40
0.2414659471
 40
0.2721685722
 40
0.303027252
 40
0.3340449956
 40
0.3652213014
 40
0.3965522194
 40
0.4280304831
 40
0.4596457138
 40
0.4913846787
 40
0.5232315941
 40
0.5551684754
 40
0.5871755222
 40
0.6192315264
 40
0.6513143028
 40
0.6834011342
 40
0.7154692231
 40
0.7474961446
 40
0.7794602934
 40
0.8113413197
 40
0.8431205497
 40
0.8747813764
 40
0.9063096221
 40
0.9376938967
 40
0.9689255651
 40
1.0
 40
1.0
 40
1.0
 40
1.0
 10
10.3453571469
 20
7.200208488
 30
0.0
 10
10.3410724554
 20
7.1960697972
 30
0.0
 10
10.3323366674
 20
7.1879609831
 30
0.0
 10
10.3187585144
 20
7.1763268253
 30
0.0
 10
10.3047231766
 20
7.1652363228
 30
0.0
 10
10.2902502545
 20
7.1547049671
 30
0.0
 10
10.275359546
 20
7.144747246
 30
0.0
 10
10.2600716105
 20
7.1353768243
 30
0.0
 10
10.2444074617
 20
7.1266065687
 30
0.0
 10
10.2283887141
 20
7.118448635
 30
0.0
 10
10.2120371143
 20
7.1109140713
 30
0.0
 10
10.1898041438
 20
7.1017057091
 30
0.0
 10
10.1612798794
 20
7.0918037966
 30
0.0
 10
10.1261281868
 20
7.0825755542
 30
0.0
 10
10.0902094289
 20
7.0760379538
 30
0.0
 10
10.0537227045
 20
7.0722271562
 30
0.0
 10
10.0168684337
 20
7.0711634909
 30
0.0
 10
9.9798494048
 20
7.0728523292
 30
0.0
 10
9.942869079
 20
7.0772839335
 30
0.0
 10
9.9061306563
 20
7.0844335597
 30
0.0
 10
9.869835902
 20
7.0942614775
 30
0.0
 10
9.8341840827
 20
7.1067133461
 30
0.0
 10
9.7993709054
 20
7.1217205224
 30
0.0
 10
9.7655874116
 20
7.1392003186
 30
0.0
 10
9.7330189604
 20
7.1590565365
 30
0.0
 10
9.7018442657
 20
7.1811800475
 30
0.0
 10
9.6722343874
 20
7.2054493067
 30
0.0
 10
9.6443517722
 20
7.2317309988
 30
0.0
 10
9.6183494481
 20
7.2598808551
 30
0.0
 10
9.5943701844
 20
7.2897444034
 30
0.0
 10
9.5725456178
 20
7.3211577336
 30
0.0
 10
9.5529956337
 20
7.353948476
 30
0.0
 10
9.5358277381
 20
7.3879367374
 30
0.0
 10
9.521136357
 20
7.422935989
 30
0.0
 10
9.5090023702
 20
7.458754204
 30
0.0
 10
9.4994927238
 20
7.4951946113
 30
0.0
 10
9.4926600621
 20
7.5320578034
 30
0.0
 10
9.4885421347
 20
7.5691387289
 30
0.0
 10
9.4876198128
 20
7.5939385001
 30
0.0
 10
9.4876198128
 20
7.6063023488
 30
0.0
  0
SPLINE
  5
381
100
AcDbEntity
  8
0
100
AcDbSpline
 62
7
  6
CONTINUOUS
 70
0
 71
3
 72
41
 73
37
 74
0
 42
0.0000001
 43
0.0000001
 44
0.0000000001
 40
0.0
 40
0.0
 40
0.0
 40
0.0
 40
0.0149634506
 40
0.0299339677
 40
0.0449144042
 40
0.0599075575
 40
0.0899372235
 40
0.1200492116
 40
0.1502622547
 40
0.1805927873
 40
0.2110546007
 40
0.2416585661
 40
0.2724124378
 40
0.3033207313
 40
0.3343846737
 40
0.3656022241
 40
0.3969681674
 40
0.4284742657
 40
0.4601094623
 40
0.491860136
 40
0.5237104002
 40
0.5556424325
 40
0.587636833
 40
0.6196730071
 40
0.6517295646
 40
0.6837847274
 40
0.7158167438
 40
0.7478043027
 40
0.7797269401
 40
0.8115654369
 40
0.8433021989
 40
0.8749216099
 40
0.9064103582
 40
0.93775778
 40
0.9689557564
 40
1.0
 40
1.0
 40
1.0
 40
1.0
 10
10.3625994543
 20
7.2178263569
 30
0.0
 10
10.3581886176
 20
7.2140154512
 30
0.0
 10
10.3492157082
 20
7.2065625132
 30
0.0
 10
10.335329055
 20
7.1959117241
 30
0.0
 10
10.3210298808
 20
7.1858005569
 30
0.0
 10
10.3014323986
 20
7.173051601
 30
0.0
 10
10.2759858673
 20
7.1585250118
 30
0.0
 10
10.2441358207
 20
7.1434629691
 30
0.0
 10
10.2111177101
 20
7.1308368339
 30
0.0
 10
10.1771068253
 20
7.1207136305
 30
0.0
 10
10.1422821528
 20
7.1131461428
 30
0.0
 10
10.106827288
 20
7.1081738456
 30
0.0
 10
10.0709289314
 20
7.1058224609
 30
0.0
 10
10.0347760452
 20
7.1061039603
 30
0.0
 10
9.9985588355
 20
7.1090164665
 30
0.0
 10
9.9624677568
 20
7.1145442183
 30
0.0
 10
9.9266925199
 20
7.1226577724
 30
0.0
 10
9.8914211215
 20
7.1333141705
 30
0.0
 10
9.8568388533
 20
7.1464571032
 30
0.0
 10
9.823127332
 20
7.1620172178
 30
0.0
 10
9.7904635835
 20
7.1799125521
 30
0.0
 10
9.7590191355
 20
7.200048957
 30
0.0
 10
9.7289590762
 20
7.2223205043
 30
0.0
 10
9.700441227
 20
7.2466101067
 30
0.0
 10
9.6736153466
 20
7.2727901475
 30
0.0
 10
9.6486223467
 20
7.3007231245
 30
0.0
 10
9.6255934927
 20
7.3302623106
 30
0.0
 10
9.604649791
 20
7.3612525894
 30
0.0
 10
9.5859013712
 20
7.393531254
 30
0.0
 10
9.5694468654
 20
7.4269288238
 30
0.0
 10
9.5553728644
 20
7.4612698988
 30
0.0
 10
9.5437535407
 20
7.4963741864
 30
0.0
 10
9.5346502416
 20
7.5320571428
 30
0.0
 10
9.5281111633
 20
7.5681318998
 30
0.0
 10
9.5241708763
 20
7.6044064487
 30
0.0
 10
9.5232885332
 20
7.6286622083
 30
0.0
 10
9.5232885332
 20
7.6407556891
 30
0.0
  0
SPLINE
  5
382
100
AcDbEntity
  8
0
100
AcDbSpline
 62
7
  6
CONTINUOUS
 70
0
 71
3
 72
39
 73
35
 74
0
 42
0.0000001
 43
0.0000001
 44
0.0000000001
 40
0.0
 40
0.0
 40
0.0
 40
0.0
 40
0.0299424711
 40
0.0599093186
 40
0.0899243248
 40
0.1200101037
 40
0.1501875627
 40
0.180475415
 40
0.2108897594
 40
0.2414437357
 40
0.2721472604
 40
0.3030068436
 40
0.3340254954
 40
0.3652027141
 40
0.3965345493
 40
0.4280137349
 40
0.4596298917
 40
0.4913697854
 40
0.5232176332
 40
0.5551554502
 40
0.5871634342
 40
0.6192203768
 40
0.6513040925
 40
0.6833918636
 40
0.7154608917
 40
0.7474887511
 40
0.7794538353
 40
0.8113357951
 40
0.8431159563
 40
0.8747777105
 40
0.9063068747
 40
0.9376920817
 40
0.9689246483
 40
1.0
 40
1.0
 40
1.0
 40
1.0
 10
10.3548506373
 20
7.276114236
 30
0.0
 10
10.3470783834
 20
7.2686068044
 30
0.0
 10
10.330922703
 20
7.2541978451
 30
0.0
 10
10.3050388021
 20
7.234568177
 30
0.0
 10
10.2776368152
 20
7.2170205217
 30
0.0
 10
10.2488698498
 20
7.2016533166
 30
0.0
 10
10.2188960477
 20
7.1885505516
 30
0.0
 10
10.1878808452
 20
7.1777842286
 30
0.0
 10
10.1559951585
 20
7.1694132385
 30
0.0
 10
10.12341465
 20
7.1634832901
 30
0.0
 10
10.0903186973
 20
7.1600266305
 30
0.0
 10
10.0568894273
 20
7.1590618155
 30
0.0
 10
10.0233106914
 20
7.1605937036
 30
0.0
 10
9.9897670671
 20
7.1646134639
 30
0.0
 10
9.9564428623
 20
7.1710986468
 30
0.0
 10
9.9235210975
 20
7.1800132324
 30
0.0
 10
9.8911825201
 20
7.1913079189
 30
0.0
 10
9.859604634
 20
7.2049204083
 30
0.0
 10
9.8289607485
 20
7.2207757526
 30
0.0
 10
9.7994189996
 20
7.238786688
 30
0.0
 10
9.7711414683
 20
7.2588541871
 30
0.0
 10
9.7442833113
 20
7.2808680028
 30
0.0
 10
9.7189919285
 20
7.3047072666
 30
0.0
 10
9.6954061015
 20
7.3302410819
 30
0.0
 10
9.6736552898
 20
7.3573292998
 30
0.0
 10
9.6538589354
 20
7.3858232794
 30
0.0
 10
9.6361258195
 20
7.4155666883
 30
0.0
 10
9.620553393
 20
7.4463963114
 30
0.0
 10
9.607227311
 20
7.4781429632
 30
0.0
 10
9.5962209747
 20
7.5106324759
 30
0.0
 10
9.5875951044
 20
7.5436863664
 30
0.0
 10
9.5813974218
 20
7.5771237402
 30
0.0
 10
9.5776621776
 20
7.6107586171
 30
0.0
 10
9.5768255734
 20
7.6332536628
 30
0.0
 10
9.5768255734
 20
7.644468502
 30
0.0
  0
SPLINE
  5
383
100
AcDbEntity
  8
0
100
AcDbSpline
 62
7
  6
CONTINUOUS
 70
0
 71
3
 72
27
 73
23
 74
0
 42
0.0000001
 43
0.0000001
 44
0.0000000001
 40
0.0
 40
0.0
 40
0.0
 40
0.0
 40
0.0307111104
 40
0.0615157722
 40
0.0924115594
 40
0.1233953087
 40
0.1855956953
 40
0.2480934873
 40
0.3108408578
 40
0.3737823438
 40
0.436856599
 40
0.4999982802
 40
0.5631400307
 40
0.6262144858
 40
0.6891563001
 40
0.7519041172
 40
0.8144024547
 40
0.8766034844
 40
0.907587552
 40
0.9384837775
 40
0.9692886998
 40
1.0
 40
1.0
 40
1.0
 40
1.0
 10
11.6030444172
 20
8.7125256127
 30
0.0
 10
11.5979842528
 20
8.7130770707
 30
0.0
 10
11.5878719748
 20
8.7144106149
 30
0.0
 10
11.5727871211
 20
8.717091702
 30
0.0
 10
11.5577918717
 20
8.7204514376
 30
0.0
 10
11.5379373596
 20
8.7258323619
 30
0.0
 10
11.5134987129
 20
8.7342236333
 30
0.0
 10
11.4850695695
 20
8.7468466628
 30
0.0
 10
11.4577263753
 20
8.7619334962
 30
0.0
 10
11.4316965102
 20
8.7793588367
 30
0.0
 10
11.407194403
 20
8.7989785149
 30
0.0
 10
11.3844224931
 20
8.8206303307
 30
0.0
 10
11.3635688252
 20
8.8441353834
 30
0.0
 10
11.3448056685
 20
8.86929955
 30
0.0
 10
11.3282882544
 20
8.8959149854
 30
0.0
 10
11.3141530991
 20
8.9237623168
 30
0.0
 10
11.3025178124
 20
8.952610089
 30
0.0
 10
11.2949740305
 20
8.9773237498
 30
0.0
 10
11.2902808235
 20
8.9973522145
 30
0.0
 10
11.2874400724
 20
9.0124545521
 30
0.0
 10
11.2852805683
 20
9.0276230093
 30
0.0
 10
11.2842964452
 20
9.0377753259
 30
0.0
 10
11.2839197495
 20
9.0428515243
 30
0.0
  0
SPLINE
  5
384
100
AcDbEntity
  8
0
100
AcDbSpline
 62
7
  6
CONTINUOUS
 70
0
 71
3
 72
23
 73
19
 74
0
 42
0.0000001
 43
0.0000001
 44
0.0000000001
 40
0.0
 40
0.0
 40
0.0
 40
0.0
 40
0.0832077549
 40
0.1638405312
 40
0.2418358568
 40
0.3171395929
 40
0.3897039492
 40
0.4594884879
 40
0.5264589208
 40
0.5905872829
 40
0.6518517087
 40
0.7102363335
 40
0.7657315477
 40
0.8183339109
 40
0.8680463915
 40
0.9148805257
 40
0.9588569572
 40
1.0
 40
1.0
 40
1.0
 40
1.0
 10
10.4560149891
 20
7.4333006431
 30
0.0
 10
10.4527215694
 20
7.4315376711
 30
0.0
 10
10.4462343016
 20
7.4280706734
 30
0.0
 10
10.4366604275
 20
7.4229502002
 30
0.0
 10
10.4274099571
 20
7.4179774764
 30
0.0
 10
10.4184975101
 20
7.4131410883
 30
0.0
 10
10.4099366304
 20
7.4084299793
 30
0.0
 10
10.4017395688
 20
7.403834247
 30
0.0
 10
10.3939175241
 20
7.3993448709
 30
0.0
 10
10.3864808366
 20
7.3949536726
 30
0.0
 10
10.3794387069
 20
7.39065396
 30
0.0
 10
10.3727998302
 20
7.3864396427
 30
0.0
 10
10.3665718023
 20
7.3823063622
 30
0.0
 10
10.3607618056
 20
7.3782505339
 30
0.0
 10
10.355376165
 20
7.3742700995
 30
0.0
 10
10.3504205015
 20
7.3703641009
 30
0.0
 10
10.3459003202
 20
7.3665329581
 30
0.0
 10
10.3430870662
 20
7.3639444951
 30
0.0
 10
10.3417585243
 20
7.3626612222
 30
0.0
  0
SPLINE
  5
385
100
AcDbEntity
  8
0
100
AcDbSpline
 62
7
  6
CONTINUOUS
 70
0
 71
3
 72
40
 73
36
 74
0
 42
0.0000001
 43
0.0000001
 44
0.0000000001
 40
0.0
 40
0.0
 40
0.0
 40
0.0
 40
0.0303421722
 40
0.0455576284
 40
0.0608021289
 40
0.0913761882
 40
0.1220682359
 40
0.152877691
 40
0.1838025398
 40
0.2148393761
 40
0.2459834567
 40
0.2772287715
 40
0.3085681262
 40
0.3399932364
 40
0.371494832
 40
0.4030627701
 40
0.4346861561
 40
0.4663534703
 40
0.4980527002
 40
0.5297714763
 40
0.5614972111
 40
0.5932172396
 40
0.6249189604
 40
0.6565899764
 40
0.6882182338
 40
0.7197921581
 40
0.7513007871
 40
0.7827338986
 40
0.814082129
 40
0.8453370974
 40
0.8764914792
 40
0.9075391954
 40
0.9384752351
 40
0.969296367
 40
1.0
 40
1.0
 40
1.0
 40
1.0
 10
10.4751303237
 20
7.5045692473
 30
0.0
 10
10.4669152618
 20
7.5034153503
 30
0.0
 10
10.4545275886
 20
7.5020339007
 30
0.0
 10
10.4379417071
 20
7.5008917707
 30
0.0
 10
10.4212664904
 20
7.5002136331
 30
0.0
 10
10.4003363377
 20
7.5002432626
 30
0.0
 10
10.3751907542
 20
7.5016783673
 30
0.0
 10
10.3500670135
 20
7.5045084711
 30
0.0
 10
10.325043068
 20
7.5087247683
 30
0.0
 10
10.3001959396
 20
7.5143141649
 30
0.0
 10
10.2756022575
 20
7.5212593465
 30
0.0
 10
10.2513378152
 20
7.5295388261
 30
0.0
 10
10.2274773952
 20
7.5391270133
 30
0.0
 10
10.2040945251
 20
7.5499942933
 30
0.0
 10
10.1812612571
 20
7.5621071183
 30
0.0
 10
10.1590479463
 20
7.5754281117
 30
0.0
 10
10.1375230361
 20
7.5899161825
 30
0.0
 10
10.1167528484
 20
7.6055266518
 30
0.0
 10
10.0968013813
 20
7.6222113902
 30
0.0
 10
10.0777301126
 20
7.6399189653
 30
0.0
 10
10.0595978109
 20
7.6585947984
 30
0.0
 10
10.0424603562
 20
7.6781813332
 30
0.0
 10
10.0263705686
 20
7.6986182119
 30
0.0
 10
10.0113780467
 20
7.7198424603
 30
0.0
 10
9.9975290151
 20
7.7417886804
 30
0.0
 10
9.9848661831
 20
7.7643892511
 30
0.0
 10
9.9734286127
 20
7.7875745345
 30
0.0
 10
9.9632516005
 20
7.8112730889
 30
0.0
 10
9.9543665633
 20
7.83541189
 30
0.0
 10
9.9468009563
 20
7.8599165427
 30
0.0
 10
9.9405781516
 20
7.884711552
 30
0.0
 10
9.9357174453
 20
7.9097203962
 30
0.0
 10
9.9322338423
 20
7.9348663088
 30
0.0
 10
9.9301382586
 20
7.9600706707
 30
0.0
 10
9.9296699702
 20
7.9768955075
 30
0.0
 10
9.9296699702
 20
7.9852900377
 30
0.0
  0
SPLINE
  5
386
100
AcDbEntity
  8
0
100
AcDbSpline
 62
7
  6
CONTINUOUS
 70
0
 71
3
 72
37
 73
33
 74
0
 42
0.0000001
 43
0.0000001
 44
0.0000000001
 40
0.0
 40
0.0
 40
0.0
 40
0.0
 40
0.0306209688
 40
0.0613471457
 40
0.0921768931
 40
0.1231075615
 40
0.1541355244
 40
0.1852562254
 40
0.2164642286
 40
0.2477532774
 40
0.2791163574
 40
0.3105457672
 40
0.3420331943
 40
0.3735697966
 40
0.4051462848
 40
0.4367530071
 40
0.5000000814
 40
0.5632471446
 40
0.5948538556
 40
0.6264303301
 40
0.6579669148
 40
0.6894543185
 40
0.7208836994
 40
0.752246748
 40
0.7835357634
 40
0.8147437326
 40
0.8458643994
 40
0.8768922984
 40
0.9078229995
 40
0.9386524956
 40
0.969378975
 40
1.0
 40
1.0
 40
1.0
 40
1.0
 10
10.4797362596
 20
7.6111400226
 30
0.0
 10
10.4726764642
 20
7.6114102498
 30
0.0
 10
10.4585436708
 20
7.6123054761
 30
0.0
 10
10.4374034135
 20
7.614701108
 30
0.0
 10
10.4163357117
 20
7.6181459223
 30
0.0
 10
10.3953937852
 20
7.6226312643
 30
0.0
 10
10.3746296443
 20
7.6281458996
 30
0.0
 10
10.3540950896
 20
7.6346760319
 30
0.0
 10
10.3338412809
 20
7.6422053452
 30
0.0
 10
10.3139186944
 20
7.6507150405
 30
0.0
 10
10.2943769751
 20
7.6601838899
 30
0.0
 10
10.2752648255
 20
7.6705882609
 30
0.0
 10
10.2566298319
 20
7.6819022171
 30
0.0
 10
10.23851853
 20
7.6940974345
 30
0.0
 10
10.2209756432
 20
7.7071439025
 30
0.0
 10
10.1984003296
 20
7.7256312937
 30
0.0
 10
10.1718224504
 20
7.7506979683
 30
0.0
 10
10.1476924393
 20
7.7781290476
 30
0.0
 10
10.1299989389
 20
7.8013318051
 30
0.0
 10
10.1175686005
 20
7.8193165062
 30
0.0
 10
10.1060087283
 20
7.8378397726
 30
0.0
 10
10.0953477574
 20
7.8568558603
 30
0.0
 10
10.0856123704
 20
7.8763172732
 30
0.0
 10
10.0768268241
 20
7.8961755493
 30
0.0
 10
10.0690130506
 20
7.9163812
 30
0.0
 10
10.0621905609
 20
7.9368838818
 30
0.0
 10
10.0563764141
 20
7.957632495
 30
0.0
 10
10.0515851017
 20
7.9785753565
 30
0.0
 10
10.0478286741
 20
7.9996601617
 30
0.0
 10
10.0451164098
 20
8.0208346567
 30
0.0
 10
10.0434552874
 20
8.0420452981
 30
0.0
 10
10.0430506639
 20
8.056200717
 30
0.0
 10
10.043025395
 20
8.0632656501
 30
0.0
  0
SPLINE
  5
387
100
AcDbEntity
  8
0
100
AcDbSpline
 62
7
  6
CONTINUOUS
 70
0
 71
3
 72
23
 73
19
 74
0
 42
0.0000001
 43
0.0000001
 44
0.0000000001
 40
0.0
 40
0.0
 40
0.0
 40
0.0
 40
0.0616937245
 40
0.1234167449
 40
0.1851886145
 40
0.2470284172
 40
0.3089545848
 40
0.3709847224
 40
0.4331354437
 40
0.4954222246
 40
0.5578592589
 40
0.6204593496
 40
0.6832337752
 40
0.7461921795
 40
0.8093427947
 40
0.8726910654
 40
0.9362436028
 40
1.0
 40
1.0
 40
1.0
 40
1.0
 10
9.5987209479
 20
7.9477111488
 30
0.0
 10
9.5932197651
 20
7.9421391602
 30
0.0
 10
9.5824914419
 20
7.9307154399
 30
0.0
 10
9.567270709
 20
7.9127934661
 30
0.0
 10
9.5529507307
 20
7.8941198025
 30
0.0
 10
9.5395631804
 20
7.874735634
 30
0.0
 10
9.5271370219
 20
7.8546829863
 30
0.0
 10
9.5156993128
 20
7.8340055238
 30
0.0
 10
9.5052748808
 20
7.812748232
 30
0.0
 10
9.4958863588
 20
7.7909573646
 30
0.0
 10
9.4875541223
 20
7.7686803235
 30
0.0
 10
9.4802962524
 20
7.74596556
 30
0.0
 10
9.4741285035
 20
7.7228624778
 30
0.0
 10
9.4690642165
 20
7.6994212833
 30
0.0
 10
9.4651144106
 20
7.675693066
 30
0.0
 10
9.4622874646
 20
7.6517290525
 30
0.0
 10
9.460589702
 20
7.6275822273
 30
0.0
 10
9.4602135372
 20
7.6114217838
 30
0.0
 10
9.4602135372
 20
7.6033299178
 30
0.0
  0
SPLINE
  5
388
100
AcDbEntity
  8
0
100
AcDbSpline
 62
7
  6
CONTINUOUS
 70
0
 71
3
 72
23
 73
19
 74
0
 42
0.0000001
 43
0.0000001
 44
0.0000000001
 40
0.0
 40
0.0
 40
0.0
 40
0.0
 40
0.0617101436
 40
0.1234413945
 40
0.1852146442
 40
0.2470503545
 40
0.3089683499
 40
0.3709876203
 40
0.4331261332
 40
0.4954006601
 40
0.5578266118
 40
0.6204179016
 40
0.6831868196
 40
0.7461438598
 40
0.8092979876
 40
0.872655304
 40
0.9362225276
 40
1.0
 40
1.0
 40
1.0
 40
1.0
 10
9.6276839163
 20
7.9431984449
 30
0.0
 10
9.622137968
 20
7.9378414746
 30
0.0
 10
9.6113178633
 20
7.9268381204
 30
0.0
 10
9.5959550988
 20
7.9095172215
 30
0.0
 10
9.5814920851
 20
7.8914173768
 30
0.0
 10
9.5679627527
 20
7.872580901
 30
0.0
 10
9.5553981332
 20
7.853051104
 30
0.0
 10
9.5438272139
 20
7.8328730894
 30
0.0
 10
9.5332766342
 20
7.8120933983
 30
0.0
 10
9.5237706907
 20
7.7907599676
 30
0.0
 10
9.515331263
 20
7.7689220018
 30
0.0
 10
9.5079777704
 20
7.7466298612
 30
0.0
 10
9.5017271306
 20
7.7239349581
 30
0.0
 10
9.4965936629
 20
7.7008895905
 30
0.0
 10
9.4925892137
 20
7.677546996
 30
0.0
 10
9.4897228164
 20
7.653960642
 30
0.0
 10
9.4880012231
 20
7.6301857749
 30
0.0
 10
9.4876198128
 20
7.6142713473
 30
0.0
 10
9.4876198128
 20
7.6063023488
 30
0.0
  0
SPLINE
  5
389
100
AcDbEntity
  8
0
100
AcDbSpline
 62
7
  6
CONTINUOUS
 70
0
 71
3
 72
23
 73
19
 74
0
 42
0.0000001
 43
0.0000001
 44
0.0000000001
 40
0.0
 40
0.0
 40
0.0
 40
0.0
 40
0.0616766115
 40
0.1233923867
 40
0.1851651512
 40
0.2470122229
 40
0.3089502651
 40
0.3709951414
 40
0.4331617789
 40
0.4954640402
 40
0.557914607
 40
0.6205249071
 40
0.6833049635
 40
0.7462634007
 40
0.809407508
 40
0.8727419694
 40
0.9362732619
 40
1.0
 40
1.0
 40
1.0
 40
1.0
 10
9.646085396
 20
7.9600320149
 30
0.0
 10
9.6411892752
 20
7.954753824
 30
0.0
 10
9.6316458823
 20
7.9439571134
 30
0.0
 10
9.618119376
 20
7.9270888547
 30
0.0
 10
9.6054038317
 20
7.9095759579
 30
0.0
 10
9.5935252152
 20
7.8914541061
 30
0.0
 10
9.5825072425
 20
7.8727595928
 30
0.0
 10
9.5723720581
 20
7.8535300161
 30
0.0
 10
9.5631400015
 20
7.8338039967
 30
0.0
 10
9.5548296022
 20
7.8136211667
 30
0.0
 10
9.5474574962
 20
7.7930220816
 30
0.0
 10
9.5410384552
 20
7.7720481205
 30
0.0
 10
9.5355853338
 20
7.750741412
 30
0.0
 10
9.5311090551
 20
7.7291447113
 30
0.0
 10
9.5276186208
 20
7.7073015036
 30
0.0
 10
9.5251208355
 20
7.6852553009
 30
0.0
 10
9.5236209059
 20
7.6630511777
 30
0.0
 10
9.5232885332
 20
7.6481943922
 30
0.0
 10
9.5232885332
 20
7.6407556891
 30
0.0
  0
SPLINE
  5
38A
100
AcDbEntity
  8
0
100
AcDbSpline
 62
7
  6
CONTINUOUS
 70
0
 71
3
 72
23
 73
19
 74
0
 42
0.0000001
 43
0.0000001
 44
0.0000000001
 40
0.0
 40
0.0
 40
0.0
 40
0.0
 40
0.0617101465
 40
0.1234413984
 40
0.1852146462
 40
0.2470503535
 40
0.3089683476
 40
0.3709876198
 40
0.4331261355
 40
0.4954006635
 40
0.5578266123
 40
0.620417904
 40
0.6831868136
 40
0.7461438604
 40
0.8092980134
 40
0.8726552092
 40
0.9362227185
 40
1.0
 40
1.0
 40
1.0
 40
1.0
 10
9.7038730625
 20
7.9500557732
 30
0.0
 10
9.6988425222
 20
7.9451966374
 30
0.0
 10
9.6890279574
 20
7.9352158667
 30
0.0
 10
9.6750929195
 20
7.9195046397
 30
0.0
 10
9.6619740076
 20
7.9030868667
 30
0.0
 10
9.6497019953
 20
7.8860009291
 30
0.0
 10
9.638305031
 20
7.8682861089
 30
0.0
 10
9.6278094295
 20
7.8499833038
 30
0.0
 10
9.6182393578
 20
7.8311347306
 30
0.0
 10
9.6096168416
 20
7.8117838798
 30
0.0
 10
9.6019617199
 20
7.7919753853
 30
0.0
 10
9.5952916051
 20
7.771754928
 30
0.0
 10
9.5896218454
 20
7.7511691381
 30
0.0
 10
9.5849654505
 20
7.7302654467
 30
0.0
 10
9.5813331593
 20
7.7090921628
 30
0.0
 10
9.578733133
 20
7.687697744
 30
0.0
 10
9.5771715469
 20
7.6661323535
 30
0.0
 10
9.5768255734
 20
7.6516968943
 30
0.0
 10
9.5768255734
 20
7.644468502
 30
0.0
  0
SPLINE
  5
38B
100
AcDbEntity
  8
0
100
AcDbSpline
 62
7
  6
CONTINUOUS
 70
0
 71
3
 72
33
 73
29
 74
0
 42
0.0000001
 43
0.0000001
 44
0.0000000001
 40
0.0
 40
0.0
 40
0.0
 40
0.0
 40
0.0958348039
 40
0.1891069742
 40
0.2792500435
 40
0.36572131
 40
0.4480125246
 40
0.5256540669
 40
0.5625988158
 40
0.598226802
 40
0.632494146
 40
0.6653609288
 40
0.6967920316
 40
0.726757616
 40
0.7552336203
 40
0.7822031337
 40
0.8076567456
 40
0.8315949344
 40
0.8540288219
 40
0.8749836671
 40
0.8945009457
 40
0.9126431418
 40
0.9294980666
 40
0.945184889
 40
0.9598599849
 40
0.9737213022
 40
0.9870092614
 40
1.0
 40
1.0
 40
1.0
 40
1.0
 10
9.4618842578
 20
10.1421644889
 30
0.0
 10
9.4663641771
 20
10.1418538055
 30
0.0
 10
9.4751977617
 20
10.1411422159
 30
0.0
 10
9.4882135593
 20
10.1397838866
 30
0.0
 10
9.5007562901
 20
10.1381560957
 30
0.0
 10
9.512742355
 20
10.1362699086
 30
0.0
 10
9.5240917921
 20
10.1341381501
 30
0.0
 10
9.5330998179
 20
10.1321375185
 30
0.0
 10
9.5399253653
 20
10.130416335
 30
0.0
 10
9.5447545355
 20
10.1290947542
 30
0.0
 10
9.5493708247
 20
10.1277233621
 30
0.0
 10
9.5537665642
 20
10.1263044136
 30
0.0
 10
9.5579344587
 20
10.1248403026
 30
0.0
 10
9.5618676134
 20
10.1233334907
 30
0.0
 10
9.5655595339
 20
10.1217864617
 30
0.0
 10
9.5690041712
 20
10.1202018312
 30
0.0
 10
9.5721958852
 20
10.1185821415
 30
0.0
 10
9.5751295349
 20
10.1169300942
 30
0.0
 10
9.5778003852
 20
10.1152482314
 30
0.0
 10
9.5802042343
 20
10.1135392091
 30
0.0
 10
9.5823372603
 20
10.111805452
 30
0.0
 10
9.5841961078
 20
10.1100493494
 30
0.0
 10
9.5857776747
 20
10.1082730233
 30
0.0
 10
9.5870789835
 20
10.1064784107
 30
0.0
 10
9.5880969573
 20
10.1046674816
 30
0.0
 10
9.5888280862
 20
10.10284229
 30
0.0
 10
9.5892688517
 20
10.1010067564
 30
0.0
 10
9.5893674048
 20
10.099773249
 30
0.0
 10
9.5893674048
 20
10.0991645219
 30
0.0
  0
SPLINE
  5
38C
100
AcDbEntity
  8
0
100
AcDbSpline
 62
7
  6
CONTINUOUS
 70
0
 71
3
 72
27
 73
23
 74
0
 42
0.0000001
 43
0.0000001
 44
0.0000000001
 40
0.0
 40
0.0
 40
0.0
 40
0.0
 40
0.0307111104
 40
0.0615157722
 40
0.0924115594
 40
0.1233953087
 40
0.1855956953
 40
0.2480934873
 40
0.3108408578
 40
0.3737823438
 40
0.436856599
 40
0.4999982802
 40
0.5631400307
 40
0.6262144858
 40
0.6891563001
 40
0.7519041172
 40
0.8144024547
 40
0.8766034844
 40
0.907587552
 40
0.9384837775
 40
0.9692886998
 40
1.0
 40
1.0
 40
1.0
 40
1.0
 10
10.4564904736
 20
7.7063386357
 30
0.0
 10
10.4514303092
 20
7.7068900936
 30
0.0
 10
10.4413180312
 20
7.7082236378
 30
0.0
 10
10.4262331775
 20
7.7109047249
 30
0.0
 10
10.4112379281
 20
7.7142644605
 30
0.0
 10
10.391383416
 20
7.7196453849
 30
0.0
 10
10.3669447693
 20
7.7280366563
 30
0.0
 10
10.3385156259
 20
7.7406596858
 30
0.0
 10
10.3111724317
 20
7.7557465191
 30
0.0
 10
10.2851425666
 20
7.7731718596
 30
0.0
 10
10.2606404594
 20
7.7927915379
 30
0.0
 10
10.2378685495
 20
7.8144433537
 30
0.0
 10
10.2170148816
 20
7.8379484063
 30
0.0
 10
10.1982517249
 20
7.863112573
 30
0.0
 10
10.1817343108
 20
7.8897280084
 30
0.0
 10
10.1675991555
 20
7.9175753398
 30
0.0
 10
10.1559638688
 20
7.946423112
 30
0.0
 10
10.1484200869
 20
7.9711367728
 30
0.0
 10
10.1437268799
 20
7.9911652374
 30
0.0
 10
10.1408861288
 20
8.0062675751
 30
0.0
 10
10.1387266247
 20
8.0214360323
 30
0.0
 10
10.1377425016
 20
8.0315883488
 30
0.0
 10
10.1373658059
 20
8.0366645473
 30
0.0
  0
SPLINE
  5
38D
100
AcDbEntity
  8
0
100
AcDbSpline
 62
7
  6
CONTINUOUS
 70
0
 71
3
 72
23
 73
19
 74
0
 42
0.0000001
 43
0.0000001
 44
0.0000000001
 40
0.0
 40
0.0
 40
0.0
 40
0.0
 40
0.0617101465
 40
0.1234413984
 40
0.1852146462
 40
0.2470503535
 40
0.3089683476
 40
0.3709876198
 40
0.4331261355
 40
0.4954006635
 40
0.5578266123
 40
0.620417904
 40
0.6831868136
 40
0.7461438604
 40
0.8092980134
 40
0.8726552092
 40
0.9362227185
 40
1.0
 40
1.0
 40
1.0
 40
1.0
 10
10.8504270061
 20
8.9562427503
 30
0.0
 10
10.8453964658
 20
8.9513836145
 30
0.0
 10
10.835581901
 20
8.9414028437
 30
0.0
 10
10.8216468631
 20
8.9256916167
 30
0.0
 10
10.8085279512
 20
8.9092738437
 30
0.0
 10
10.7962559389
 20
8.8921879061
 30
0.0
 10
10.7848589746
 20
8.8744730859
 30
0.0
 10
10.7743633731
 20
8.8561702808
 30
0.0
 10
10.7647933014
 20
8.8373217076
 30
0.0
 10
10.7561707852
 20
8.8179708569
 30
0.0
 10
10.7485156635
 20
8.7981623623
 30
0.0
 10
10.7418455487
 20
8.777941905
 30
0.0
 10
10.736175789
 20
8.7573561151
 30
0.0
 10
10.7315193941
 20
8.7364524237
 30
0.0
 10
10.7278871029
 20
8.7152791399
 30
0.0
 10
10.7252870766
 20
8.693884721
 30
0.0
 10
10.7237254905
 20
8.6723193305
 30
0.0
 10
10.723379517
 20
8.6578838713
 30
0.0
 10
10.723379517
 20
8.650655479
 30
0.0
  0
SPLINE
  5
38E
100
AcDbEntity
  8
0
100
AcDbSpline
 62
7
  6
CONTINUOUS
 70
0
 71
3
 72
23
 73
19
 74
0
 42
0.0000001
 43
0.0000001
 44
0.0000000001
 40
0.0
 40
0.0
 40
0.0
 40
0.0
 40
0.0616766115
 40
0.1233923867
 40
0.1851651512
 40
0.2470122229
 40
0.3089502651
 40
0.3709951414
 40
0.4331617789
 40
0.4954640402
 40
0.557914607
 40
0.6205249071
 40
0.6833049635
 40
0.7462634007
 40
0.809407508
 40
0.8727419694
 40
0.9362732619
 40
1.0
 40
1.0
 40
1.0
 40
1.0
 10
10.7926393396
 20
8.9662189919
 30
0.0
 10
10.7877432188
 20
8.960940801
 30
0.0
 10
10.7781998259
 20
8.9501440905
 30
0.0
 10
10.7646733196
 20
8.9332758317
 30
0.0
 10
10.7519577753
 20
8.915762935
 30
0.0
 10
10.7400791588
 20
8.8976410832
 30
0.0
 10
10.7290611861
 20
8.8789465699
 30
0.0
 10
10.7189260017
 20
8.8597169932
 30
0.0
 10
10.7096939451
 20
8.8399909738
 30
0.0
 10
10.7013835458
 20
8.8198081437
 30
0.0
 10
10.6940114398
 20
8.7992090586
 30
0.0
 10
10.6875923988
 20
8.7782350975
 30
0.0
 10
10.6821392774
 20
8.7569283891
 30
0.0
 10
10.6776629987
 20
8.7353316883
 30
0.0
 10
10.6741725644
 20
8.7134884806
 30
0.0
 10
10.6716747791
 20
8.6914422779
 30
0.0
 10
10.6701748495
 20
8.6692381547
 30
0.0
 10
10.6698424768
 20
8.6543813692
 30
0.0
 10
10.6698424768
 20
8.6469426661
 30
0.0
  0
SPLINE
  5
38F
100
AcDbEntity
  8
0
100
AcDbSpline
 62
7
  6
CONTINUOUS
 70
0
 71
3
 72
23
 73
19
 74
0
 42
0.0000001
 43
0.0000001
 44
0.0000000001
 40
0.0
 40
0.0
 40
0.0
 40
0.0
 40
0.0617101436
 40
0.1234413945
 40
0.1852146442
 40
0.2470503545
 40
0.3089683499
 40
0.3709876203
 40
0.4331261332
 40
0.4954006601
 40
0.5578266118
 40
0.6204179016
 40
0.6831868196
 40
0.7461438598
 40
0.8092979876
 40
0.872655304
 40
0.9362225276
 40
1.0
 40
1.0
 40
1.0
 40
1.0
 10
10.7742378599
 20
8.949385422
 30
0.0
 10
10.7686919116
 20
8.9440284517
 30
0.0
 10
10.7578718069
 20
8.9330250974
 30
0.0
 10
10.7425090424
 20
8.9157041985
 30
0.0
 10
10.7280460287
 20
8.8976043539
 30
0.0
 10
10.7145166963
 20
8.8787678781
 30
0.0
 10
10.7019520768
 20
8.859238081
 30
0.0
 10
10.6903811575
 20
8.8390600664
 30
0.0
 10
10.6798305778
 20
8.8182803753
 30
0.0
 10
10.6703246343
 20
8.7969469446
 30
0.0
 10
10.6618852066
 20
8.7751089789
 30
0.0
 10
10.654531714
 20
8.7528168382
 30
0.0
 10
10.6482810742
 20
8.7301219351
 30
0.0
 10
10.6431476065
 20
8.7070765675
 30
0.0
 10
10.6391431573
 20
8.6837339731
 30
0.0
 10
10.63627676
 20
8.660147619
 30
0.0
 10
10.6345551667
 20
8.636372752
 30
0.0
 10
10.6341737564
 20
8.6204583244
 30
0.0
 10
10.6341737564
 20
8.6124893258
 30
0.0
  0
SPLINE
  5
390
100
AcDbEntity
  8
0
100
AcDbSpline
 62
7
  6
CONTINUOUS
 70
0
 71
3
 72
46
 73
42
 74
0
 42
0.0000001
 43
0.0000001
 44
0.0000000001
 40
0.0
 40
0.0
 40
0.0
 40
0.0
 40
0.0149720525
 40
0.0299471649
 40
0.0449283772
 40
0.0599186917
 40
0.0749210573
 40
0.0899383484
 40
0.1049733476
 40
0.1200287333
 40
0.1351070597
 40
0.1502107421
 40
0.1653420474
 40
0.1805030776
 40
0.1956957572
 40
0.2109218287
 40
0.2414745667
 40
0.2721768461
 40
0.3030351766
 40
0.3340525707
 40
0.3652285255
 40
0.3965590884
 40
0.4280369959
 40
0.4596518697
 40
0.4913904744
 40
0.523237028
 40
0.5551735471
 40
0.5871802301
 40
0.6192358692
 40
0.6513182802
 40
0.6834047461
 40
0.7154724694
 40
0.7474990252
 40
0.7794628091
 40
0.811343472
 40
0.843122339
 40
0.8747828041
 40
0.9063106918
 40
0.9376946023
 40
0.9689259241
 40
1.0
 40
1.0
 40
1.0
 40
1.0
 10
11.4955063674
 20
8.1771955153
 30
0.0
 10
11.4910267296
 20
8.1728685283
 30
0.0
 10
11.4818934337
 20
8.1643908392
 30
0.0
 10
11.4676975094
 20
8.1522273563
 30
0.0
 10
11.4530235607
 20
8.1406323094
 30
0.0
 10
11.4378921134
 20
8.1296218627
 30
0.0
 10
11.4223239152
 20
8.1192110905
 30
0.0
 10
11.4063403776
 20
8.1094143903
 30
0.0
 10
11.3899635319
 20
8.1002451727
 30
0.0
 10
11.3732159141
 20
8.091716051
 30
0.0
 10
11.3561205441
 20
8.0838388095
 30
0.0
 10
11.3387009872
 20
8.0766242122
 30
0.0
 10
11.3209811823
 20
8.0700821807
 30
0.0
 10
11.302985589
 20
8.0642217716
 30
0.0
 10
11.2847386409
 20
8.0590509183
 30
0.0
 10
11.2600831159
 20
8.0530791933
 30
0.0
 10
11.2287490828
 20
8.0473759519
 30
0.0
 10
11.1906031334
 20
8.0433920684
 30
0.0
 10
11.1520718537
 20
8.0422799753
 30
0.0
 10
11.113368611
 20
8.0440457492
 30
0.0
 10
11.0747057642
 20
8.0486790623
 30
0.0
 10
11.0362958399
 20
8.0561539958
 30
0.0
 10
10.9983497744
 20
8.0664291151
 30
0.0
 10
10.9610759128
 20
8.079447593
 30
0.0
 10
10.924678829
 20
8.0951375752
 30
0.0
 10
10.8893582834
 20
8.1134126889
 30
0.0
 10
10.8553080863
 20
8.1341723784
 30
0.0
 10
10.8227150368
 20
8.1573024754
 30
0.0
 10
10.7917579901
 20
8.1826759354
 30
0.0
 10
10.762606825
 20
8.2101534211
 30
0.0
 10
10.735421486
 20
8.2395840473
 30
0.0
 10
10.7103512254
 20
8.2708063116
 30
0.0
 10
10.6875337291
 20
8.3036488928
 30
0.0
 10
10.6670942978
 20
8.3379315466
 30
0.0
 10
10.6491453034
 20
8.3734661865
 30
0.0
 10
10.633785523
 20
8.4100578251
 30
0.0
 10
10.6210994907
 20
8.4475056853
 30
0.0
 10
10.6111571813
 20
8.4856040375
 30
0.0
 10
10.6040136554
 20
8.5241444152
 30
0.0
 10
10.5997083835
 20
8.56291243
 30
0.0
 10
10.5987440971
 20
8.5888405301
 30
0.0
 10
10.5987440971
 20
8.6017669009
 30
0.0
  0
SPLINE
  5
391
100
AcDbEntity
  8
0
100
AcDbSpline
 62
7
  6
CONTINUOUS
 70
0
 71
3
 72
39
 73
35
 74
0
 42
0.0000001
 43
0.0000001
 44
0.0000000001
 40
0.0
 40
0.0
 40
0.0
 40
0.0
 40
0.0299352965
 40
0.0599016299
 40
0.0899220623
 40
0.1200183695
 40
0.1502105357
 40
0.1805162983
 40
0.2109507622
 40
0.2415260872
 40
0.2722512506
 40
0.303131891
 40
0.3341702377
 40
0.3653651132
 40
0.3967120054
 40
0.4282032141
 40
0.459828055
 40
0.4915731142
 40
0.5234225501
 40
0.5553584372
 40
0.5873611385
 40
0.6194097018
 40
0.6514822778
 40
0.6835565491
 40
0.7156101653
 40
0.7476211786
 40
0.7795684744
 40
0.8114321892
 40
0.8431941149
 40
0.8748380717
 40
0.906350256
 40
0.9377195916
 40
0.968937666
 40
1.0
 40
1.0
 40
1.0
 40
1.0
 10
11.4954158772
 20
8.1772921176
 30
0.0
 10
11.4863386819
 20
8.1689313143
 30
0.0
 10
11.4675071687
 20
8.1529097073
 30
0.0
 10
11.4374422107
 20
8.131160542
 30
0.0
 10
11.4057069172
 20
8.1117984819
 30
0.0
 10
11.3724753241
 20
8.0949301056
 30
0.0
 10
11.3379266926
 20
8.0806458629
 30
0.0
 10
11.3022481483
 20
8.0690227465
 30
0.0
 10
11.2656326209
 20
8.0601231185
 30
0.0
 10
11.2282780496
 20
8.0539946671
 30
0.0
 10
11.1903862573
 20
8.0506700269
 30
0.0
 10
11.1521618617
 20
8.0501666261
 30
0.0
 10
11.1138111576
 20
8.0524867189
 30
0.0
 10
11.0755410304
 20
8.0576173805
 30
0.0
 10
11.0375578329
 20
8.0655304699
 30
0.0
 10
11.0000662891
 20
8.0761829161
 30
0.0
 10
10.963268426
 20
8.0895169848
 30
0.0
 10
10.9273624795
 20
8.1054605118
 30
0.0
 10
10.8925418238
 20
8.1239272896
 30
0.0
 10
10.8589939846
 20
8.1448176243
 30
0.0
 10
10.8268996482
 20
8.1680188477
 30
0.0
 10
10.7964316274
 20
8.1934058231
 30
0.0
 10
10.7677540011
 20
8.2208417145
 30
0.0
 10
10.7410212671
 20
8.2501787276
 30
0.0
 10
10.7163774593
 20
8.2812588321
 30
0.0
 10
10.6939553638
 20
8.31391461
 30
0.0
 10
10.6738758857
 20
8.3479702043
 30
0.0
 10
10.6562473959
 20
8.3832422383
 30
0.0
 10
10.6411650396
 20
8.419540714
 30
0.0
 10
10.6287103275
 20
8.4566701721
 30
0.0
 10
10.6189507047
 20
8.4944304168
 30
0.0
 10
10.6119391845
 20
8.5326186383
 30
0.0
 10
10.6077137857
 20
8.5710263571
 30
0.0
 10
10.6067674808
 20
8.5967113417
 30
0.0
 10
10.6067674808
 20
8.6095168949
 30
0.0
  0
SPLINE
  5
392
100
AcDbEntity
  8
0
100
AcDbSpline
 62
7
  6
CONTINUOUS
 70
0
 71
3
 72
23
 73
19
 74
0
 42
0.0000001
 43
0.0000001
 44
0.0000000001
 40
0.0
 40
0.0
 40
0.0
 40
0.0
 40
0.0616937245
 40
0.1234167449
 40
0.1851886145
 40
0.2470284172
 40
0.3089545848
 40
0.3709847224
 40
0.4331354437
 40
0.4954222246
 40
0.5578592589
 40
0.6204593496
 40
0.6832337752
 40
0.7461921795
 40
0.8093427947
 40
0.8726910654
 40
0.9362436028
 40
1.0
 40
1.0
 40
1.0
 40
1.0
 10
10.7452748915
 20
8.9538981258
 30
0.0
 10
10.7397737087
 20
8.9483261373
 30
0.0
 10
10.7290453855
 20
8.9369024169
 30
0.0
 10
10.7138246526
 20
8.9189804432
 30
0.0
 10
10.6995046743
 20
8.9003067795
 30
0.0
 10
10.686117124
 20
8.880922611
 30
0.0
 10
10.6736909655
 20
8.8608699633
 30
0.0
 10
10.6622532564
 20
8.8401925008
 30
0.0
 10
10.6518288244
 20
8.818935209
 30
0.0
 10
10.6424403024
 20
8.7971443416
 30
0.0
 10
10.6341080659
 20
8.7748673006
 30
0.0
 10
10.6268501959
 20
8.752152537
 30
0.0
 10
10.6206824471
 20
8.7290494548
 30
0.0
 10
10.6156181601
 20
8.7056082603
 30
0.0
 10
10.6116683542
 20
8.6818800431
 30
0.0
 10
10.6088414082
 20
8.6579160296
 30
0.0
 10
10.6071436455
 20
8.6337692044
 30
0.0
 10
10.6067674808
 20
8.6176087608
 30
0.0
 10
10.6067674808
 20
8.6095168949
 30
0.0
  0
SPLINE
  5
393
100
AcDbEntity
  8
0
100
AcDbSpline
 62
7
  6
CONTINUOUS
 70
0
 71
3
 72
44
 73
40
 74
0
 42
0.0000001
 43
0.0000001
 44
0.0000000001
 40
0.0
 40
0.0
 40
0.0
 40
0.0
 40
0.0149722234
 40
0.0299475064
 40
0.0449288883
 40
0.0599193732
 40
0.0749219094
 40
0.0899393698
 40
0.1049745397
 40
0.1200300962
 40
0.1351085921
 40
0.1502124456
 40
0.1804994109
 40
0.2109128653
 40
0.2414659471
 40
0.2721685722
 40
0.303027252
 40
0.3340449956
 40
0.3652213014
 40
0.3965522194
 40
0.4280304831
 40
0.4596457138
 40
0.4913846787
 40
0.5232315941
 40
0.5551684754
 40
0.5871755222
 40
0.6192315264
 40
0.6513143028
 40
0.6834011342
 40
0.7154692231
 40
0.7474961446
 40
0.7794602934
 40
0.8113413197
 40
0.8431205497
 40
0.8747813764
 40
0.9063096221
 40
0.9376938967
 40
0.9689255651
 40
1.0
 40
1.0
 40
1.0
 40
1.0
 10
11.4919110905
 20
8.206395465
 30
0.0
 10
11.487626399
 20
8.2022567742
 30
0.0
 10
11.478890611
 20
8.1941479602
 30
0.0
 10
11.465312458
 20
8.1825138023
 30
0.0
 10
11.4512771202
 20
8.1714232998
 30
0.0
 10
11.4368041981
 20
8.1608919441
 30
0.0
 10
11.4219134896
 20
8.150934223
 30
0.0
 10
11.4066255541
 20
8.1415638014
 30
0.0
 10
11.3909614053
 20
8.1327935457
 30
0.0
 10
11.3749426577
 20
8.124635612
 30
0.0
 10
11.3585910579
 20
8.1171010484
 30
0.0
 10
11.3363580874
 20
8.1078926862
 30
0.0
 10
11.307833823
 20
8.0979907736
 30
0.0
 10
11.2726821304
 20
8.0887625312
 30
0.0
 10
11.2367633725
 20
8.0822249309
 30
0.0
 10
11.2002766481
 20
8.0784141332
 30
0.0
 10
11.1634223773
 20
8.077350468
 30
0.0
 10
11.1264033484
 20
8.0790393063
 30
0.0
 10
11.0894230226
 20
8.0834709105
 30
0.0
 10
11.0526845999
 20
8.0906205367
 30
0.0
 10
11.0163898456
 20
8.1004484546
 30
0.0
 10
10.9807380263
 20
8.1129003231
 30
0.0
 10
10.945924849
 20
8.1279074994
 30
0.0
 10
10.9121413552
 20
8.1453872956
 30
0.0
 10
10.879572904
 20
8.1652435136
 30
0.0
 10
10.8483982093
 20
8.1873670245
 30
0.0
 10
10.818788331
 20
8.2116362838
 30
0.0
 10
10.7909057158
 20
8.2379179759
 30
0.0
 10
10.7649033917
 20
8.2660678321
 30
0.0
 10
10.740924128
 20
8.2959313805
 30
0.0
 10
10.7190995614
 20
8.3273447106
 30
0.0
 10
10.6995495773
 20
8.360135453
 30
0.0
 10
10.6823816817
 20
8.3941237144
 30
0.0
 10
10.6676903006
 20
8.429122966
 30
0.0
 10
10.6555563138
 20
8.464941181
 30
0.0
 10
10.6460466674
 20
8.5013815884
 30
0.0
 10
10.6392140057
 20
8.5382447804
 30
0.0
 10
10.6350960783
 20
8.575325706
 30
0.0
 10
10.6341737564
 20
8.6001254771
 30
0.0
 10
10.6341737564
 20
8.6124893258
 30
0.0
  0
SPLINE
  5
394
100
AcDbEntity
  8
0
100
AcDbSpline
 62
7
  6
CONTINUOUS
 70
0
 71
3
 72
41
 73
37
 74
0
 42
0.0000001
 43
0.0000001
 44
0.0000000001
 40
0.0
 40
0.0
 40
0.0
 40
0.0
 40
0.0149634506
 40
0.0299339677
 40
0.0449144042
 40
0.0599075575
 40
0.0899372235
 40
0.1200492116
 40
0.1502622547
 40
0.1805927873
 40
0.2110546007
 40
0.2416585661
 40
0.2724124378
 40
0.3033207313
 40
0.3343846737
 40
0.3656022241
 40
0.3969681674
 40
0.4284742657
 40
0.4601094623
 40
0.491860136
 40
0.5237104002
 40
0.5556424325
 40
0.587636833
 40
0.6196730071
 40
0.6517295646
 40
0.6837847274
 40
0.7158167438
 40
0.7478043027
 40
0.7797269401
 40
0.8115654369
 40
0.8433021989
 40
0.8749216099
 40
0.9064103582
 40
0.93775778
 40
0.9689557564
 40
1.0
 40
1.0
 40
1.0
 40
1.0
 10
11.5091533979
 20
8.2240133339
 30
0.0
 10
11.5047425612
 20
8.2202024283
 30
0.0
 10
11.4957696518
 20
8.2127494902
 30
0.0
 10
11.4818829986
 20
8.2020987011
 30
0.0
 10
11.4675838244
 20
8.1919875339
 30
0.0
 10
11.4479863422
 20
8.179238578
 30
0.0
 10
11.4225398109
 20
8.1647119888
 30
0.0
 10
11.3906897643
 20
8.1496499461
 30
0.0
 10
11.3576716537
 20
8.1370238109
 30
0.0
 10
11.3236607689
 20
8.1269006075
 30
0.0
 10
11.2888360964
 20
8.1193331198
 30
0.0
 10
11.2533812316
 20
8.1143608226
 30
0.0
 10
11.217482875
 20
8.1120094379
 30
0.0
 10
11.1813299888
 20
8.1122909374
 30
0.0
 10
11.1451127791
 20
8.1152034435
 30
0.0
 10
11.1090217004
 20
8.1207311953
 30
0.0
 10
11.0732464635
 20
8.1288447494
 30
0.0
 10
11.0379750651
 20
8.1395011475
 30
0.0
 10
11.0033927969
 20
8.1526440802
 30
0.0
 10
10.9696812756
 20
8.1682041949
 30
0.0
 10
10.9370175271
 20
8.1860995292
 30
0.0
 10
10.9055730791
 20
8.206235934
 30
0.0
 10
10.8755130198
 20
8.2285074814
 30
0.0
 10
10.8469951706
 20
8.2527970838
 30
0.0
 10
10.8201692902
 20
8.2789771245
 30
0.0
 10
10.7951762903
 20
8.3069101016
 30
0.0
 10
10.7721474363
 20
8.3364492877
 30
0.0
 10
10.7512037346
 20
8.3674395664
 30
0.0
 10
10.7324553148
 20
8.399718231
 30
0.0
 10
10.716000809
 20
8.4331158009
 30
0.0
 10
10.701926808
 20
8.4674568758
 30
0.0
 10
10.6903074843
 20
8.5025611634
 30
0.0
 10
10.6812041852
 20
8.5382441199
 30
0.0
 10
10.6746651069
 20
8.5743188768
 30
0.0
 10
10.6707248199
 20
8.6105934258
 30
0.0
 10
10.6698424768
 20
8.6348491853
 30
0.0
 10
10.6698424768
 20
8.6469426661
 30
0.0
  0
SPLINE
  5
395
100
AcDbEntity
  8
0
100
AcDbSpline
 62
7
  6
CONTINUOUS
 70
0
 71
3
 72
39
 73
35
 74
0
 42
0.0000001
 43
0.0000001
 44
0.0000000001
 40
0.0
 40
0.0
 40
0.0
 40
0.0
 40
0.0299424711
 40
0.0599093186
 40
0.0899243248
 40
0.1200101037
 40
0.1501875627
 40
0.180475415
 40
0.2108897594
 40
0.2414437357
 40
0.2721472604
 40
0.3030068436
 40
0.3340254954
 40
0.3652027141
 40
0.3965345493
 40
0.4280137349
 40
0.4596298917
 40
0.4913697854
 40
0.5232176332
 40
0.5551554502
 40
0.5871634342
 40
0.6192203768
 40
0.6513040925
 40
0.6833918636
 40
0.7154608917
 40
0.7474887511
 40
0.7794538353
 40
0.8113357951
 40
0.8431159563
 40
0.8747777105
 40
0.9063068747
 40
0.9376920817
 40
0.9689246483
 40
1.0
 40
1.0
 40
1.0
 40
1.0
 10
11.5014045809
 20
8.282301213
 30
0.0
 10
11.493632327
 20
8.2747937815
 30
0.0
 10
11.4774766466
 20
8.2603848221
 30
0.0
 10
11.4515927457
 20
8.240755154
 30
0.0
 10
11.4241907588
 20
8.2232074987
 30
0.0
 10
11.3954237934
 20
8.2078402937
 30
0.0
 10
11.3654499913
 20
8.1947375286
 30
0.0
 10
11.3344347888
 20
8.1839712056
 30
0.0
 10
11.3025491021
 20
8.1756002155
 30
0.0
 10
11.2699685936
 20
8.1696702671
 30
0.0
 10
11.2368726409
 20
8.1662136075
 30
0.0
 10
11.2034433709
 20
8.1652487926
 30
0.0
 10
11.169864635
 20
8.1667806806
 30
0.0
 10
11.1363210107
 20
8.170800441
 30
0.0
 10
11.1029968059
 20
8.1772856238
 30
0.0
 10
11.0700750411
 20
8.1862002095
 30
0.0
 10
11.0377364637
 20
8.1974948959
 30
0.0
 10
11.0061585776
 20
8.2111073853
 30
0.0
 10
10.9755146921
 20
8.2269627296
 30
0.0
 10
10.9459729432
 20
8.2449736651
 30
0.0
 10
10.9176954119
 20
8.2650411641
 30
0.0
 10
10.8908372549
 20
8.2870549799
 30
0.0
 10
10.8655458721
 20
8.3108942436
 30
0.0
 10
10.8419600451
 20
8.3364280589
 30
0.0
 10
10.8202092334
 20
8.3635162768
 30
0.0
 10
10.800412879
 20
8.3920102565
 30
0.0
 10
10.7826797631
 20
8.4217536654
 30
0.0
 10
10.7671073366
 20
8.4525832884
 30
0.0
 10
10.7537812546
 20
8.4843299402
 30
0.0
 10
10.7427749183
 20
8.516819453
 30
0.0
 10
10.734149048
 20
8.5498733434
 30
0.0
 10
10.7279513654
 20
8.5833107172
 30
0.0
 10
10.7242161212
 20
8.6169455941
 30
0.0
 10
10.723379517
 20
8.6394406399
 30
0.0
 10
10.723379517
 20
8.650655479
 30
0.0
  0
SPLINE
  5
396
100
AcDbEntity
  8
0
100
AcDbSpline
 62
7
  6
CONTINUOUS
 70
0
 71
3
 72
40
 73
36
 74
0
 42
0.0000001
 43
0.0000001
 44
0.0000000001
 40
0.0
 40
0.0
 40
0.0
 40
0.0
 40
0.0303421722
 40
0.0455576284
 40
0.0608021289
 40
0.0913761882
 40
0.1220682359
 40
0.152877691
 40
0.1838025398
 40
0.2148393761
 40
0.2459834567
 40
0.2772287715
 40
0.3085681262
 40
0.3399932364
 40
0.371494832
 40
0.4030627701
 40
0.4346861561
 40
0.4663534703
 40
0.4980527002
 40
0.5297714763
 40
0.5614972111
 40
0.5932172396
 40
0.6249189604
 40
0.6565899764
 40
0.6882182338
 40
0.7197921581
 40
0.7513007871
 40
0.7827338986
 40
0.814082129
 40
0.8453370974
 40
0.8764914792
 40
0.9075391954
 40
0.9384752351
 40
0.969296367
 40
1.0
 40
1.0
 40
1.0
 40
1.0
 10
11.6216842673
 20
8.5107562243
 30
0.0
 10
11.6134692054
 20
8.5096023273
 30
0.0
 10
11.6010815322
 20
8.5082208777
 30
0.0
 10
11.5844956507
 20
8.5070787478
 30
0.0
 10
11.567820434
 20
8.5064006102
 30
0.0
 10
11.5468902813
 20
8.5064302397
 30
0.0
 10
11.5217446978
 20
8.5078653444
 30
0.0
 10
11.4966209571
 20
8.5106954481
 30
0.0
 10
11.4715970116
 20
8.5149117453
 30
0.0
 10
11.4467498832
 20
8.5205011419
 30
0.0
 10
11.4221562011
 20
8.5274463235
 30
0.0
 10
11.3978917588
 20
8.5357258031
 30
0.0
 10
11.3740313388
 20
8.5453139903
 30
0.0
 10
11.3506484687
 20
8.5561812703
 30
0.0
 10
11.3278152007
 20
8.5682940954
 30
0.0
 10
11.3056018899
 20
8.5816150888
 30
0.0
 10
11.2840769797
 20
8.5961031595
 30
0.0
 10
11.263306792
 20
8.6117136288
 30
0.0
 10
11.2433553249
 20
8.6283983672
 30
0.0
 10
11.2242840562
 20
8.6461059423
 30
0.0
 10
11.2061517545
 20
8.6647817754
 30
0.0
 10
11.1890142998
 20
8.6843683102
 30
0.0
 10
11.1729245122
 20
8.7048051889
 30
0.0
 10
11.1579319903
 20
8.7260294373
 30
0.0
 10
11.1440829587
 20
8.7479756575
 30
0.0
 10
11.1314201267
 20
8.7705762281
 30
0.0
 10
11.1199825563
 20
8.7937615115
 30
0.0
 10
11.109805544
 20
8.817460066
 30
0.0
 10
11.1009205069
 20
8.841598867
 30
0.0
 10
11.0933548999
 20
8.8661035197
 30
0.0
 10
11.0871320952
 20
8.890898529
 30
0.0
 10
11.0822713889
 20
8.9159073733
 30
0.0
 10
11.0787877859
 20
8.9410532859
 30
0.0
 10
11.0766922022
 20
8.9662576477
 30
0.0
 10
11.0762239138
 20
8.9830824845
 30
0.0
 10
11.0762239138
 20
8.9914770147
 30
0.0
  0
SPLINE
  5
397
100
AcDbEntity
  8
0
100
AcDbSpline
 62
7
  6
CONTINUOUS
 70
0
 71
3
 72
37
 73
33
 74
0
 42
0.0000001
 43
0.0000001
 44
0.0000000001
 40
0.0
 40
0.0
 40
0.0
 40
0.0
 40
0.0306209688
 40
0.0613471457
 40
0.0921768931
 40
0.1231075615
 40
0.1541355244
 40
0.1852562254
 40
0.2164642286
 40
0.2477532774
 40
0.2791163574
 40
0.3105457672
 40
0.3420331943
 40
0.3735697966
 40
0.4051462848
 40
0.4367530071
 40
0.5000000814
 40
0.5632471446
 40
0.5948538556
 40
0.6264303301
 40
0.6579669148
 40
0.6894543185
 40
0.7208836994
 40
0.752246748
 40
0.7835357634
 40
0.8147437326
 40
0.8458643994
 40
0.8768922984
 40
0.9078229995
 40
0.9386524956
 40
0.969378975
 40
1.0
 40
1.0
 40
1.0
 40
1.0
 10
11.6262902032
 20
8.6173269996
 30
0.0
 10
11.6192304078
 20
8.6175972268
 30
0.0
 10
11.6050976144
 20
8.6184924531
 30
0.0
 10
11.5839573571
 20
8.6208880851
 30
0.0
 10
11.5628896553
 20
8.6243328994
 30
0.0
 10
11.5419477288
 20
8.6288182414
 30
0.0
 10
11.5211835879
 20
8.6343328766
 30
0.0
 10
11.5006490332
 20
8.6408630089
 30
0.0
 10
11.4803952245
 20
8.6483923222
 30
0.0
 10
11.460472638
 20
8.6569020175
 30
0.0
 10
11.4409309187
 20
8.6663708669
 30
0.0
 10
11.4218187691
 20
8.6767752379
 30
0.0
 10
11.4031837755
 20
8.6880891941
 30
0.0
 10
11.3850724736
 20
8.7002844115
 30
0.0
 10
11.3675295868
 20
8.7133308796
 30
0.0
 10
11.3449542732
 20
8.7318182707
 30
0.0
 10
11.3183763939
 20
8.7568849453
 30
0.0
 10
11.2942463829
 20
8.7843160246
 30
0.0
 10
11.2765528825
 20
8.8075187822
 30
0.0
 10
11.2641225441
 20
8.8255034832
 30
0.0
 10
11.2525626719
 20
8.8440267497
 30
0.0
 10
11.241901701
 20
8.8630428373
 30
0.0
 10
11.232166314
 20
8.8825042502
 30
0.0
 10
11.2233807677
 20
8.9023625263
 30
0.0
 10
11.2155669942
 20
8.922568177
 30
0.0
 10
11.2087445045
 20
8.9430708589
 30
0.0
 10
11.2029303577
 20
8.9638194721
 30
0.0
 10
11.1981390453
 20
8.9847623335
 30
0.0
 10
11.1943826177
 20
9.0058471388
 30
0.0
 10
11.1916703534
 20
9.0270216338
 30
0.0
 10
11.190009231
 20
9.0482322751
 30
0.0
 10
11.1896046075
 20
9.062387694
 30
0.0
 10
11.1895793386
 20
9.0694526271
 30
0.0
  0
SPLINE
  5
398
100
AcDbEntity
  8
0
100
AcDbSpline
 62
4
  6
CONTINUOUS
 70
0
 71
3
 72
337
 73
333
 74
0
 42
0.0000001
 43
0.0000001
 44
0.0000000001
 40
0.0
 40
0.0
 40
0.0
 40
0.0
 40
0.015625
 40
0.0234375
 40
0.03125
 40
0.0390625
 40
0.04296875
 40
0.046875
 40
0.05078125
 40
0.0546875
 40
0.056640625
 40
0.05859375
 40
0.060546875
 40
0.0615234375
 40
0.0620117188
 40
0.0625
 40
0.0629882812
 40
0.0634765625
 40
0.064453125
 40
0.06640625
 40
0.068359375
 40
0.0703125
 40
0.07421875
 40
0.078125
 40
0.08203125
 40
0.0859375
 40
0.09375
 40
0.1015625
 40
0.10546875
 40
0.109375
 40
0.11328125
 40
0.1171875
 40
0.119140625
 40
0.12109375
 40
0.123046875
 40
0.1240234375
 40
0.1245117188
 40
0.125
 40
0.1254882812
 40
0.1259765625
 40
0.126953125
 40
0.12890625
 40
0.130859375
 40
0.1328125
 40
0.13671875
 40
0.140625
 40
0.14453125
 40
0.1484375
 40
0.15625
 40
0.1640625
 40
0.16796875
 40
0.171875
 40
0.17578125
 40
0.1796875
 40
0.181640625
 40
0.18359375
 40
0.1845703125
 40
0.185546875
 40
0.1865234375
 40
0.1870117188
 40
0.1875
 40
0.1879882812
 40
0.1884765625
 40
0.189453125
 40
0.1904296875
 40
0.19140625
 40
0.193359375
 40
0.1953125
 40
0.19921875
 40
0.203125
 40
0.20703125
 40
0.2109375
 40
0.21875
 40
0.2265625
 40
0.23046875
 40
0.234375
 40
0.23828125
 40
0.2421875
 40
0.244140625
 40
0.24609375
 40
0.2470703125
 40
0.248046875
 40
0.2490234375
 40
0.2495117188
 40
0.25
 40
0.2504882812
 40
0.2509765625
 40
0.251953125
 40
0.2529296875
 40
0.25390625
 40
0.255859375
 40
0.2578125
 40
0.26171875
 40
0.265625
 40
0.26953125
 40
0.2734375
 40
0.28125
 40
0.2890625
 40
0.29296875
 40
0.296875
 40
0.30078125
 40
0.3046875
 40
0.306640625
 40
0.30859375
 40
0.310546875
 40
0.3115234375
 40
0.3120117188
 40
0.3125
 40
0.3129882812
 40
0.3134765625
 40
0.314453125
 40
0.31640625
 40
0.318359375
 40
0.3203125
 40
0.32421875
 40
0.328125
 40
0.33203125
 40
0.3359375
 40
0.34375
 40
0.3515625
 40
0.35546875
 40
0.359375
 40
0.36328125
 40
0.3671875
 40
0.369140625
 40
0.37109375
 40
0.373046875
 40
0.3740234375
 40
0.3745117188
 40
0.375
 40
0.3754882812
 40
0.3759765625
 40
0.376953125
 40
0.37890625
 40
0.380859375
 40
0.3828125
 40
0.38671875
 40
0.390625
 40
0.39453125
 40
0.3984375
 40
0.40625
 40
0.4140625
 40
0.41796875
 40
0.421875
 40
0.42578125
 40
0.4296875
 40
0.431640625
 40
0.43359375
 40
0.435546875
 40
0.4365234375
 40
0.4370117188
 40
0.4375
 40
0.4379882812
 40
0.4384765625
 40
0.439453125
 40
0.44140625
 40
0.443359375
 40
0.4453125
 40
0.44921875
 40
0.453125
 40
0.45703125
 40
0.4609375
 40
0.46875
 40
0.4765625
 40
0.48046875
 40
0.484375
 40
0.48828125
 40
0.4921875
 40
0.494140625
 40
0.49609375
 40
0.498046875
 40
0.4990234375
 40
0.4995117188
 40
0.5
 40
0.5004882812
 40
0.5009765625
 40
0.501953125
 40
0.50390625
 40
0.505859375
 40
0.5078125
 40
0.51171875
 40
0.515625
 40
0.51953125
 40
0.5234375
 40
0.53125
 40
0.5390625
 40
0.546875
 40
0.55078125
 40
0.5546875
 40
0.556640625
 40
0.55859375
 40
0.560546875
 40
0.5615234375
 40
0.5620117188
 40
0.5625
 40
0.5629882812
 40
0.5634765625
 40
0.564453125
 40
0.56640625
 40
0.568359375
 40
0.5703125
 40
0.57421875
 40
0.578125
 40
0.5859375
 40
0.59375
 40
0.6015625
 40
0.609375
 40
0.61328125
 40
0.6171875
 40
0.619140625
 40
0.62109375
 40
0.623046875
 40
0.6240234375
 40
0.6245117188
 40
0.625
 40
0.6254882812
 40
0.6259765625
 40
0.626953125
 40
0.62890625
 40
0.630859375
 40
0.6328125
 40
0.63671875
 40
0.640625
 40
0.6484375
 40
0.65625
 40
0.6640625
 40
0.66796875
 40
0.671875
 40
0.67578125
 40
0.6796875
 40
0.681640625
 40
0.68359375
 40
0.685546875
 40
0.6865234375
 40
0.6870117188
 40
0.6875
 40
0.6879882812
 40
0.6884765625
 40
0.689453125
 40
0.69140625
 40
0.693359375
 40
0.6953125
 40
0.69921875
 40
0.703125
 40
0.70703125
 40
0.7109375
 40
0.71875
 40
0.7265625
 40
0.734375
 40
0.73828125
 40
0.7421875
 40
0.744140625
 40
0.74609375
 40
0.748046875
 40
0.7490234375
 40
0.7495117188
 40
0.75
 40
0.7504882812
 40
0.7509765625
 40
0.751953125
 40
0.75390625
 40
0.755859375
 40
0.7578125
 40
0.76171875
 40
0.765625
 40
0.7734375
 40
0.78125
 40
0.7890625
 40
0.796875
 40
0.80078125
 40
0.8046875
 40
0.806640625
 40
0.80859375
 40
0.810546875
 40
0.8115234375
 40
0.8120117188
 40
0.8125
 40
0.8129882812
 40
0.8134765625
 40
0.814453125
 40
0.81640625
 40
0.818359375
 40
0.8203125
 40
0.82421875
 40
0.828125
 40
0.8359375
 40
0.84375
 40
0.8515625
 40
0.859375
 40
0.86328125
 40
0.8671875
 40
0.869140625
 40
0.87109375
 40
0.873046875
 40
0.8740234375
 40
0.8745117188
 40
0.875
 40
0.8754882812
 40
0.8759765625
 40
0.876953125
 40
0.87890625
 40
0.880859375
 40
0.8828125
 40
0.88671875
 40
0.890625
 40
0.8984375
 40
0.90625
 40
0.9140625
 40
0.91796875
 40
0.921875
 40
0.92578125
 40
0.9296875
 40
0.931640625
 40
0.93359375
 40
0.935546875
 40
0.9365234375
 40
0.9370117188
 40
0.9375
 40
0.9379882812
 40
0.9384765625
 40
0.939453125
 40
0.94140625
 40
0.943359375
 40
0.9453125
 40
0.94921875
 40
0.953125
 40
0.95703125
 40
0.9609375
 40
0.96875
 40
0.9765625
 40
0.984375
 40
1.0
 40
1.0
 40
1.0
 40
1.0
 10
9.4575992503
 20
9.151890995
 30
0.0
 10
9.4607324373
 20
9.1519809194
 30
0.0
 10
9.4654322176
 20
9.1521158061
 30
0.0
 10
9.4716985915
 20
9.1522956547
 30
0.0
 10
9.4763983718
 20
9.1524305419
 30
0.0
 10
9.4803148557
 20
9.1525429457
 30
0.0
 10
9.483448042
 20
9.1526328735
 30
0.0
 10
9.4857979342
 20
9.1527003065
 30
0.0
 10
9.4881478168
 20
9.1527677888
 30
0.0
 10
9.4901060823
 20
9.1528238701
 30
0.0
 10
9.4916726274
 20
9.1528690799
 30
0.0
 10
9.4928477202
 20
9.1529020454
 30
0.0
 10
9.493826379
 20
9.1529325126
 30
0.0
 10
9.4945125886
 20
9.1529479603
 30
0.0
 10
9.4949029152
 20
9.1529659676
 30
0.0
 10
9.4952007114
 20
9.1529536126
 30
0.0
 10
9.4954791995
 20
9.1530401095
 30
0.0
 10
9.4958572518
 20
9.153120958
 30
0.0
 10
9.4965157054
 20
9.1532785081
 30
0.0
 10
9.497457994
 20
9.1534951807
 30
0.0
 10
9.4985880381
 20
9.1537587828
 30
0.0
 10
9.5000950089
 20
9.1541089964
 30
0.0
 10
9.5019786382
 20
9.1545471944
 30
0.0
 10
9.5042390294
 20
9.1550728473
 30
0.0
 10
9.5064994109
 20
9.1555985496
 30
0.0
 10
9.5095132564
 20
9.1562994687
 30
0.0
 10
9.5132805619
 20
9.1571756241
 30
0.0
 10
9.5170478687
 20
9.1580517751
 30
0.0
 10
9.5200617122
 20
9.158752701
 30
0.0
 10
9.5223220997
 20
9.159278383
 30
0.0
 10
9.5245824684
 20
9.1598041122
 30
0.0
 10
9.5264661679
 20
9.1602420727
 30
0.0
 10
9.5279729954
 20
9.1605927707
 30
0.0
 10
9.529103477
 20
9.1608548936
 30
0.0
 10
9.5300443969
 20
9.1610761943
 30
0.0
 10
9.5307052939
 20
9.1612254823
 30
0.0
 10
9.5310794314
 20
9.1613195687
 30
0.0
 10
9.5313699444
 20
9.1613654031
 30
0.0
 10
9.5316225768
 20
9.1615057699
 30
0.0
 10
9.5319726332
 20
9.1616599516
 30
0.0
 10
9.5325790755
 20
9.1619451328
 30
0.0
 10
9.5334486403
 20
9.1623445026
 30
0.0
 10
9.5344907404
 20
9.1628271842
 30
0.0
 10
9.5358806884
 20
9.1634695588
 30
0.0
 10
9.5376179583
 20
9.1642729391
 30
0.0
 10
9.539702753
 20
9.1652368189
 30
0.0
 10
9.5417875287
 20
9.1662007459
 30
0.0
 10
9.5445672363
 20
9.1674859654
 30
0.0
 10
9.5480418685
 20
9.1690924953
 30
0.0
 10
9.5515165013
 20
9.1706990237
 30
0.0
 10
9.554296208
 20
9.1719842457
 30
0.0
 10
9.5563809864
 20
9.1729481654
 30
0.0
 10
9.5584657712
 20
9.1739120726
 30
0.0
 10
9.5602030716
 20
9.1747153675
 30
0.0
 10
9.5615929575
 20
9.1753579163
 30
0.0
 10
9.5624615322
 20
9.1757597077
 30
0.0
 10
9.5631566303
 20
9.1760806863
 30
0.0
 10
9.5636773012
 20
9.1763226649
 30
0.0
 10
9.5641132698
 20
9.1765203545
 30
0.0
 10
9.5644573881
 20
9.1766873859
 30
0.0
 10
9.5647282009
 20
9.1767883957
 30
0.0
 10
9.5649504457
 20
9.1769820208
 30
0.0
 10
9.5652637375
 20
9.1772078358
 30
0.0
 10
9.5656495315
 20
9.1775012044
 30
0.0
 10
9.5661149757
 20
9.1778484956
 30
0.0
 10
9.5667346978
 20
9.1783132099
 30
0.0
 10
9.5675096485
 20
9.1788935347
 30
0.0
 10
9.5687494029
 20
9.1798223719
 30
0.0
 10
9.5702991531
 20
9.1809833094
 30
0.0
 10
9.5721588288
 20
9.1823764812
 30
0.0
 10
9.5740185111
 20
9.1837696404
 30
0.0
 10
9.5764980852
 20
9.1856271905
 30
0.0
 10
9.5795975537
 20
9.1879491264
 30
0.0
 10
9.5826970215
 20
9.1902710633
 30
0.0
 10
9.5851765968
 20
9.1921286118
 30
0.0
 10
9.5870362755
 20
9.1935217757
 30
0.0
 10
9.5888959647
 20
9.1949149301
 30
0.0
 10
9.5904456729
 20
9.1960759217
 30
0.0
 10
9.5916855129
 20
9.1970046486
 30
0.0
 10
9.5924602459
 20
9.1975852542
 30
0.0
 10
9.5930804146
 20
9.198049392
 30
0.0
 10
9.5935444945
 20
9.1983984448
 30
0.0
 10
9.5939345573
 20
9.1986863018
 30
0.0
 10
9.5942391399
 20
9.1989233614
 30
0.0
 10
9.5944879819
 20
9.1990826464
 30
0.0
 10
9.5946589375
 20
9.1993125831
 30
0.0
 10
9.594914085
 20
9.1995944858
 30
0.0
 10
9.5952236848
 20
9.1999553316
 30
0.0
 10
9.5955992001
 20
9.2003847222
 30
0.0
 10
9.5960984916
 20
9.2009585089
 30
0.0
 10
9.5967230838
 20
9.2016753089
 30
0.0
 10
9.5977221643
 20
9.2028224312
 30
0.0
 10
9.5989711065
 20
9.2042562508
 30
0.0
 10
9.6004697979
 20
9.20597687
 30
0.0
 10
9.6019684998
 20
9.2076974797
 30
0.0
 10
9.6039667654
 20
9.2099916293
 30
0.0
 10
9.6064645982
 20
9.2128593154
 30
0.0
 10
9.6089624323
 20
9.2157270006
 30
0.0
 10
9.6109606958
 20
9.2180211517
 30
0.0
 10
9.6124594041
 20
9.219741757
 30
0.0
 10
9.6139580712
 20
9.2214623927
 30
0.0
 10
9.6152070891
 20
9.2228961609
 30
0.0
 10
9.6162060153
 20
9.2240433882
 30
0.0
 10
9.6169559971
 20
9.2249032272
 30
0.0
 10
9.6175784783
 20
9.2256216093
 30
0.0
 10
9.6180191282
 20
9.2261208471
 30
0.0
 10
9.6182632569
 20
9.2264117933
 30
0.0
 10
9.6184679635
 20
9.2266140375
 30
0.0
 10
9.6185900653
 20
9.2268773096
 30
0.0
 10
9.6187816812
 20
9.2272070518
 30
0.0
 10
9.6191035842
 20
9.2277940188
 30
0.0
 10
9.6195704643
 20
9.2286273578
 30
0.0
 10
9.6201277162
 20
9.2296295841
 30
0.0
 10
9.6208717681
 20
9.2309651105
 30
0.0
 10
9.6218014729
 20
9.2326347845
 30
0.0
 10
9.622917273
 20
9.2346382793
 30
0.0
 10
9.6240330318
 20
9.2366418046
 30
0.0
 10
9.6255207248
 20
9.239313161
 30
0.0
 10
9.6273803354
 20
9.2426523604
 30
0.0
 10
9.6292399499
 20
9.2459915575
 30
0.0
 10
9.6307276367
 20
9.2486629176
 30
0.0
 10
9.6318434139
 20
9.2506664318
 30
0.0
 10
9.6329591452
 20
9.2526699682
 30
0.0
 10
9.6338890642
 20
9.2543395126
 30
0.0
 10
9.6346326793
 20
9.2556753035
 30
0.0
 10
9.6351912651
 20
9.256676722
 30
0.0
 10
9.6356539719
 20
9.2575125881
 30
0.0
 10
9.6359833249
 20
9.2580950438
 30
0.0
 10
9.636163004
 20
9.2584320143
 30
0.0
 10
9.6363217718
 20
9.2586730834
 30
0.0
 10
9.6363887669
 20
9.2589587182
 30
0.0
 10
9.6365101051
 20
9.2593240196
 30
0.0
 10
9.6367075323
 20
9.2599705398
 30
0.0
 10
9.6369973687
 20
9.2608903536
 30
0.0
 10
9.6373418348
 20
9.2619957508
 30
0.0
 10
9.6378022887
 20
9.2634690476
 30
0.0
 10
9.6383774561
 20
9.2653108629
 30
0.0
 10
9.6390678284
 20
9.267520958
 30
0.0
 10
9.6397581548
 20
9.2697310753
 30
0.0
 10
9.6406786062
 20
9.2726778906
 30
0.0
 10
9.6418291643
 20
9.2763614127
 30
0.0
 10
9.6429797266
 20
9.280044933
 30
0.0
 10
9.6439001713
 20
9.2829917511
 30
0.0
 10
9.6445905176
 20
9.28520186
 30
0.0
 10
9.6452808153
 20
9.2874119867
 30
0.0
 10
9.645856215
 20
9.2892537036
 30
0.0
 10
9.6463161951
 20
9.290727201
 30
0.0
 10
9.6466621084
 20
9.2918319857
 30
0.0
 10
9.6469474167
 20
9.2927537159
 30
0.0
 10
9.6471529272
 20
9.2933968148
 30
0.0
 10
9.6472613139
 20
9.2937675981
 30
0.0
 10
9.6473680921
 20
9.2940363945
 30
0.0
 10
9.6473774413
 20
9.2943407058
 30
0.0
 10
9.6474238913
 20
9.2947340663
 30
0.0
 10
9.6474893449
 20
9.2954282189
 30
0.0
 10
9.6475911282
 20
9.2964168479
 30
0.0
 10
9.6477097247
 20
9.2976044943
 30
0.0
 10
9.6478690913
 20
9.2991875717
 30
0.0
 10
9.6480678747
 20
9.3011665732
 30
0.0
 10
9.6483065968
 20
9.3035413087
 30
0.0
 10
9.6485452703
 20
9.3059160619
 30
0.0
 10
9.6488635186
 20
9.3090823934
 30
0.0
 10
9.6492613226
 20
9.3130403098
 30
0.0
 10
9.649659131
 20
9.3169982255
 30
0.0
 10
9.6499773724
 20
9.3201645581
 30
0.0
 10
9.6502160667
 20
9.3225393078
 30
0.0
 10
9.6504547105
 20
9.3249140565
 30
0.0
 10
9.6506537378
 20
9.3268930168
 30
0.0
 10
9.6508126068
 20
9.3284761783
 30
0.0
 10
9.6509327227
 20
9.3296635677
 30
0.0
 10
9.6510297525
 20
9.3306530008
 30
0.0
 10
9.6511036918
 20
9.331345718
 30
0.0
 10
9.6511365455
 20
9.3317413784
 30
0.0
 10
9.6511876583
 20
9.3320386249
 30
0.0
 10
9.6511375799
 20
9.3323339557
 30
0.0
 10
9.6511061054
 20
9.3327283984
 30
0.0
 10
9.6510345796
 20
9.3334183617
 30
0.0
 10
9.6509409977
 20
9.3344041863
 30
0.0
 10
9.6508250193
 20
9.3355871062
 30
0.0
 10
9.6506716669
 20
9.3371643571
 30
0.0
 10
9.6504795353
 20
9.3391359123
 30
0.0
 10
9.6502491665
 20
9.3415017821
 30
0.0
 10
9.6500187472
 20
9.343867651
 30
0.0
 10
9.6497115388
 20
9.3470221432
 30
0.0
 10
9.6493275243
 20
9.3509652585
 30
0.0
 10
9.6488666999
 20
9.3556969958
 30
0.0
 10
9.6484827081
 20
9.3596401139
 30
0.0
 10
9.6481754497
 20
9.3627946
 30
0.0
 10
9.6479835614
 20
9.3647661729
 30
0.0
 10
9.6478297114
 20
9.3663433875
 30
0.0
 10
9.6477152529
 20
9.367526418
 30
0.0
 10
9.6476169156
 20
9.3685118966
 30
0.0
 10
9.6475538791
 20
9.3692024777
 30
0.0
 10
9.6475088025
 20
9.3695959304
 30
0.0
 10
9.6475005053
 20
9.369894302
 30
0.0
 10
9.6473946952
 20
9.370180128
 30
0.0
 10
9.6472876286
 20
9.3705656054
 30
0.0
 10
9.6470844146
 20
9.371238152
 30
0.0
 10
9.6468023941
 20
9.3721999988
 30
0.0
 10
9.6464604232
 20
9.3733537586
 30
0.0
 10
9.6460057007
 20
9.3748922645
 30
0.0
 10
9.6454368733
 20
9.3768153423
 30
0.0
 10
9.6445269868
 20
9.3798922972
 30
0.0
 10
9.6433895466
 20
9.3837384802
 30
0.0
 10
9.6420246558
 20
9.3883539051
 30
0.0
 10
9.6406597468
 20
9.3929693259
 30
0.0
 10
9.6395223521
 20
9.3968155194
 30
0.0
 10
9.6386123746
 20
9.3998924532
 30
0.0
 10
9.6380437783
 20
9.4018155847
 30
0.0
 10
9.6375885815
 20
9.4033539803
 30
0.0
 10
9.6372480595
 20
9.4045080771
 30
0.0
 10
9.6369615058
 20
9.4054688696
 30
0.0
 10
9.6367663844
 20
9.4061432983
 30
0.0
 10
9.6366463515
 20
9.4065257601
 30
0.0
 10
9.63658037
 20
9.406820849
 30
0.0
 10
9.6364224831
 20
9.4070844308
 30
0.0
 10
9.6362440248
 20
9.4074468633
 30
0.0
 10
9.6359167867
 20
9.4080759997
 30
0.0
 10
9.6354571124
 20
9.408977443
 30
0.0
 10
9.6349021609
 20
9.4100580291
 30
0.0
 10
9.634163393
 20
9.4114992109
 30
0.0
 10
9.6332395334
 20
9.413300551
 30
0.0
 10
9.6317615814
 20
9.4161827717
 30
0.0
 10
9.6299140648
 20
9.4197855214
 30
0.0
 10
9.6276970773
 20
9.424108832
 30
0.0
 10
9.625849582
 20
9.4277115892
 30
0.0
 10
9.6243715831
 20
9.4305937935
 30
0.0
 10
9.6232630954
 20
9.4327554522
 30
0.0
 10
9.6221545632
 20
9.4349170897
 30
0.0
 10
9.6212309253
 20
9.4367185203
 30
0.0
 10
9.6204917037
 20
9.438159517
 30
0.0
 10
9.6199381378
 20
9.4392406682
 30
0.0
 10
9.6194741286
 20
9.4401403434
 30
0.0
 10
9.619154629
 20
9.4407726361
 30
0.0
 10
9.6189637716
 20
9.4411300114
 30
0.0
 10
9.6188439712
 20
9.4414091272
 30
0.0
 10
9.618634943
 20
9.4416458733
 30
0.0
 10
9.6183873625
 20
9.4419763139
 30
0.0
 10
9.6179395954
 20
9.442547699
 30
0.0
 10
9.6173075095
 20
9.4433675635
 30
0.0
 10
9.6165457614
 20
9.4443498599
 30
0.0
 10
9.6155312308
 20
9.4456601267
 30
0.0
 10
9.6142626785
 20
9.4472977756
 30
0.0
 10
9.6127405826
 20
9.4492630334
 30
0.0
 10
9.611218442
 20
9.45122827
 30
0.0
 10
9.6091889367
 20
9.4538485927
 30
0.0
 10
9.6066520511
 20
9.4571239952
 30
0.0
 10
9.6036077842
 20
9.4610544719
 30
0.0
 10
9.6010709141
 20
9.4643298909
 30
0.0
 10
9.5990413746
 20
9.4669501772
 30
0.0
 10
9.5977730115
 20
9.4685879675
 30
0.0
 10
9.5967580941
 20
9.4698979446
 30
0.0
 10
9.5959975275
 20
9.4708811262
 30
0.0
 10
9.5953617449
 20
9.4716982213
 30
0.0
 10
9.5949205771
 20
9.4722745502
 30
0.0
 10
9.5946624229
 20
9.4725970696
 30
0.0
 10
9.5944858735
 20
9.4728581469
 30
0.0
 10
9.5942440881
 20
9.4730458788
 30
0.0
 10
9.5939444626
 20
9.4733217716
 30
0.0
 10
9.593409516
 20
9.4737926642
 30
0.0
 10
9.5926508494
 20
9.4744715997
 30
0.0
 10
9.591738077
 20
9.4752836549
 30
0.0
 10
9.5905218757
 20
9.4763673268
 30
0.0
 10
9.5890013404
 20
9.4777215977
 30
0.0
 10
9.5865686425
 20
9.4798886096
 30
0.0
 10
9.5835277155
 20
9.4825973127
 30
0.0
 10
9.5798786278
 20
9.4858477848
 30
0.0
 10
9.5762295285
 20
9.4890982422
 30
0.0
 10
9.5731886304
 20
9.4918069818
 30
0.0
 10
9.5707558747
 20
9.4939739207
 30
0.0
 10
9.5692354864
 20
9.4953283771
 30
0.0
 10
9.5680189834
 20
9.4964116682
 30
0.0
 10
9.5671071329
 20
9.497224887
 30
0.0
 10
9.5663455816
 20
9.497900182
 30
0.0
 10
9.5658157847
 20
9.4983775734
 30
0.0
 10
9.5655079081
 20
9.4986430534
 30
0.0
 10
9.5652914674
 20
9.4988627703
 30
0.0
 10
9.5650197275
 20
9.4990037173
 30
0.0
 10
9.5646766967
 20
9.4992191224
 30
0.0
 10
9.5640674057
 20
9.4995832799
 30
0.0
 10
9.5632016884
 20
9.5001101977
 30
0.0
 10
9.5621608166
 20
9.5007396343
 30
0.0
 10
9.56077369
 20
9.5015798837
 30
0.0
 10
9.5590395412
 20
9.5026298528
 30
0.0
 10
9.5562650375
 20
9.5043099949
 30
0.0
 10
9.5527968616
 20
9.5064101064
 30
0.0
 10
9.5486350713
 20
9.5089302707
 30
0.0
 10
9.5444732721
 20
9.5114504189
 30
0.0
 10
9.5410051186
 20
9.5135505707
 30
0.0
 10
9.5382305701
 20
9.5152306322
 30
0.0
 10
9.5364965353
 20
9.5162808062
 30
0.0
 10
9.5351091746
 20
9.5171206352
 30
0.0
 10
9.534069018
 20
9.517751356
 30
0.0
 10
9.5332010631
 20
9.5182742557
 30
0.0
 10
9.5325957667
 20
9.5186455862
 30
0.0
 10
9.5322463354
 20
9.5188494984
 30
0.0
 10
9.5319942557
 20
9.519025748
 30
0.0
 10
9.5317039747
 20
9.5191128742
 30
0.0
 10
9.5313302585
 20
9.5192601297
 30
0.0
 10
9.5306700467
 20
9.5195033427
 30
0.0
 10
9.5297301327
 20
9.5198583624
 30
0.0
 10
9.5286008467
 20
9.5202811447
 30
0.0
 10
9.5270956173
 20
9.5208459866
 30
0.0
 10
9.5252139143
 20
9.5215516512
 30
0.0
 10
9.5222032824
 20
9.5226809314
 30
0.0
 10
9.5184399608
 20
9.5240924573
 30
0.0
 10
9.5139239882
 20
9.5257863197
 30
0.0
 10
9.5101606753
 20
9.5271978665
 30
0.0
 10
9.5071500242
 20
9.5283271009
 30
0.0
 10
9.5048920396
 20
9.5291740389
 30
0.0
 10
9.5026340406
 20
9.5300209293
 30
0.0
 10
9.5007524196
 20
9.5307268199
 30
0.0
 10
9.4992470224
 20
9.5312911996
 30
0.0
 10
9.4981182486
 20
9.5317153937
 30
0.0
 10
9.4971767322
 20
9.5320659964
 30
0.0
 10
9.4965193811
 20
9.5323170944
 30
0.0
 10
9.4961410812
 20
9.5324517162
 30
0.0
 10
9.4958648797
 20
9.532577649
 30
0.0
 10
9.4955599198
 20
9.5326081473
 30
0.0
 10
9.4951633379
 20
9.5326821004
 30
0.0
 10
9.4944646458
 20
9.5327960084
 30
0.0
 10
9.4934689576
 20
9.5329668429
 30
0.0
 10
9.492273086
 20
9.5331683734
 30
0.0
 10
9.4906789558
 20
9.5334382932
 30
0.0
 10
9.4886861677
 20
9.533775277
 30
0.0
 10
9.4862948757
 20
9.5341798358
 30
0.0
 10
9.4839035694
 20
9.5345843469
 30
0.0
 10
9.480715166
 20
9.5351237117
 30
0.0
 10
9.4767296599
 20
9.535797912
 30
0.0
 10
9.4719470534
 20
9.5366069548
 30
0.0
 10
9.4655702445
 20
9.5376856777
 30
0.0
 10
9.4607876379
 20
9.5384947201
 30
0.0
 10
9.4575992334
 20
9.5390340816
 30
0.0
  0
SPLINE
  5
399
100
AcDbEntity
  8
0
100
AcDbSpline
 62
4
  6
CONTINUOUS
 70
0
 71
3
 72
337
 73
333
 74
0
 42
0.0000001
 43
0.0000001
 44
0.0000000001
 40
0.0
 40
0.0
 40
0.0
 40
0.0
 40
0.015625
 40
0.0234375
 40
0.03125
 40
0.0390625
 40
0.04296875
 40
0.046875
 40
0.05078125
 40
0.0546875
 40
0.056640625
 40
0.05859375
 40
0.060546875
 40
0.0615234375
 40
0.0620117188
 40
0.0625
 40
0.0629882812
 40
0.0634765625
 40
0.064453125
 40
0.06640625
 40
0.068359375
 40
0.0703125
 40
0.07421875
 40
0.078125
 40
0.08203125
 40
0.0859375
 40
0.09375
 40
0.1015625
 40
0.10546875
 40
0.109375
 40
0.11328125
 40
0.1171875
 40
0.119140625
 40
0.12109375
 40
0.123046875
 40
0.1240234375
 40
0.1245117188
 40
0.125
 40
0.1254882812
 40
0.1259765625
 40
0.126953125
 40
0.12890625
 40
0.130859375
 40
0.1328125
 40
0.13671875
 40
0.140625
 40
0.14453125
 40
0.1484375
 40
0.15625
 40
0.1640625
 40
0.16796875
 40
0.171875
 40
0.17578125
 40
0.1796875
 40
0.181640625
 40
0.18359375
 40
0.1845703125
 40
0.185546875
 40
0.1865234375
 40
0.1870117188
 40
0.1875
 40
0.1879882812
 40
0.1884765625
 40
0.189453125
 40
0.1904296875
 40
0.19140625
 40
0.193359375
 40
0.1953125
 40
0.19921875
 40
0.203125
 40
0.20703125
 40
0.2109375
 40
0.21875
 40
0.2265625
 40
0.23046875
 40
0.234375
 40
0.23828125
 40
0.2421875
 40
0.244140625
 40
0.24609375
 40
0.2470703125
 40
0.248046875
 40
0.2490234375
 40
0.2495117188
 40
0.25
 40
0.2504882812
 40
0.2509765625
 40
0.251953125
 40
0.2529296875
 40
0.25390625
 40
0.255859375
 40
0.2578125
 40
0.26171875
 40
0.265625
 40
0.26953125
 40
0.2734375
 40
0.28125
 40
0.2890625
 40
0.29296875
 40
0.296875
 40
0.30078125
 40
0.3046875
 40
0.306640625
 40
0.30859375
 40
0.310546875
 40
0.3115234375
 40
0.3120117188
 40
0.3125
 40
0.3129882812
 40
0.3134765625
 40
0.314453125
 40
0.31640625
 40
0.318359375
 40
0.3203125
 40
0.32421875
 40
0.328125
 40
0.33203125
 40
0.3359375
 40
0.34375
 40
0.3515625
 40
0.35546875
 40
0.359375
 40
0.36328125
 40
0.3671875
 40
0.369140625
 40
0.37109375
 40
0.373046875
 40
0.3740234375
 40
0.3745117188
 40
0.375
 40
0.3754882812
 40
0.3759765625
 40
0.376953125
 40
0.37890625
 40
0.380859375
 40
0.3828125
 40
0.38671875
 40
0.390625
 40
0.39453125
 40
0.3984375
 40
0.40625
 40
0.4140625
 40
0.41796875
 40
0.421875
 40
0.42578125
 40
0.4296875
 40
0.431640625
 40
0.43359375
 40
0.435546875
 40
0.4365234375
 40
0.4370117188
 40
0.4375
 40
0.4379882812
 40
0.4384765625
 40
0.439453125
 40
0.44140625
 40
0.443359375
 40
0.4453125
 40
0.44921875
 40
0.453125
 40
0.45703125
 40
0.4609375
 40
0.46875
 40
0.4765625
 40
0.48046875
 40
0.484375
 40
0.48828125
 40
0.4921875
 40
0.494140625
 40
0.49609375
 40
0.498046875
 40
0.4990234375
 40
0.4995117188
 40
0.5
 40
0.5004882812
 40
0.5009765625
 40
0.501953125
 40
0.50390625
 40
0.505859375
 40
0.5078125
 40
0.51171875
 40
0.515625
 40
0.51953125
 40
0.5234375
 40
0.53125
 40
0.5390625
 40
0.546875
 40
0.55078125
 40
0.5546875
 40
0.556640625
 40
0.55859375
 40
0.560546875
 40
0.5615234375
 40
0.5620117188
 40
0.5625
 40
0.5629882812
 40
0.5634765625
 40
0.564453125
 40
0.56640625
 40
0.568359375
 40
0.5703125
 40
0.57421875
 40
0.578125
 40
0.5859375
 40
0.59375
 40
0.6015625
 40
0.609375
 40
0.61328125
 40
0.6171875
 40
0.619140625
 40
0.62109375
 40
0.623046875
 40
0.6240234375
 40
0.6245117188
 40
0.625
 40
0.6254882812
 40
0.6259765625
 40
0.626953125
 40
0.62890625
 40
0.630859375
 40
0.6328125
 40
0.63671875
 40
0.640625
 40
0.6484375
 40
0.65625
 40
0.6640625
 40
0.66796875
 40
0.671875
 40
0.67578125
 40
0.6796875
 40
0.681640625
 40
0.68359375
 40
0.685546875
 40
0.6865234375
 40
0.6870117188
 40
0.6875
 40
0.6879882812
 40
0.6884765625
 40
0.689453125
 40
0.69140625
 40
0.693359375
 40
0.6953125
 40
0.69921875
 40
0.703125
 40
0.70703125
 40
0.7109375
 40
0.71875
 40
0.7265625
 40
0.734375
 40
0.73828125
 40
0.7421875
 40
0.744140625
 40
0.74609375
 40
0.748046875
 40
0.7490234375
 40
0.7495117188
 40
0.75
 40
0.7504882812
 40
0.7509765625
 40
0.751953125
 40
0.75390625
 40
0.755859375
 40
0.7578125
 40
0.76171875
 40
0.765625
 40
0.7734375
 40
0.78125
 40
0.7890625
 40
0.796875
 40
0.80078125
 40
0.8046875
 40
0.806640625
 40
0.80859375
 40
0.810546875
 40
0.8115234375
 40
0.8120117188
 40
0.8125
 40
0.8129882812
 40
0.8134765625
 40
0.814453125
 40
0.81640625
 40
0.818359375
 40
0.8203125
 40
0.82421875
 40
0.828125
 40
0.8359375
 40
0.84375
 40
0.8515625
 40
0.859375
 40
0.86328125
 40
0.8671875
 40
0.869140625
 40
0.87109375
 40
0.873046875
 40
0.8740234375
 40
0.8745117188
 40
0.875
 40
0.8754882812
 40
0.8759765625
 40
0.876953125
 40
0.87890625
 40
0.880859375
 40
0.8828125
 40
0.88671875
 40
0.890625
 40
0.8984375
 40
0.90625
 40
0.9140625
 40
0.91796875
 40
0.921875
 40
0.92578125
 40
0.9296875
 40
0.931640625
 40
0.93359375
 40
0.935546875
 40
0.9365234375
 40
0.9370117188
 40
0.9375
 40
0.9379882812
 40
0.9384765625
 40
0.939453125
 40
0.94140625
 40
0.943359375
 40
0.9453125
 40
0.94921875
 40
0.953125
 40
0.95703125
 40
0.9609375
 40
0.96875
 40
0.9765625
 40
0.984375
 40
1.0
 40
1.0
 40
1.0
 40
1.0
 10
9.4575992503
 20
9.5390340804
 30
0.0
 10
9.4544660634
 20
9.538944156
 30
0.0
 10
9.4497662831
 20
9.5388092693
 30
0.0
 10
9.4434999092
 20
9.5386294207
 30
0.0
 10
9.4388001289
 20
9.5384945335
 30
0.0
 10
9.434883645
 20
9.5383821297
 30
0.0
 10
9.4317504587
 20
9.5382922019
 30
0.0
 10
9.4294005665
 20
9.538224769
 30
0.0
 10
9.4270506839
 20
9.5381572866
 30
0.0
 10
9.4250924184
 20
9.5381012053
 30
0.0
 10
9.4235258733
 20
9.5380559955
 30
0.0
 10
9.4223507805
 20
9.53802303
 30
0.0
 10
9.4213721217
 20
9.5379925628
 30
0.0
 10
9.4206859121
 20
9.5379771152
 30
0.0
 10
9.4202955855
 20
9.5379591078
 30
0.0
 10
9.4199977893
 20
9.5379714628
 30
0.0
 10
9.4197193012
 20
9.5378849659
 30
0.0
 10
9.4193412489
 20
9.5378041174
 30
0.0
 10
9.4186827953
 20
9.5376465673
 30
0.0
 10
9.4177405067
 20
9.5374298948
 30
0.0
 10
9.4166104626
 20
9.5371662926
 30
0.0
 10
9.4151034918
 20
9.536816079
 30
0.0
 10
9.4132198625
 20
9.536377881
 30
0.0
 10
9.4109594713
 20
9.5358522281
 30
0.0
 10
9.4086990898
 20
9.5353265258
 30
0.0
 10
9.4056852443
 20
9.5346256067
 30
0.0
 10
9.4019179388
 20
9.5337494514
 30
0.0
 10
9.398150632
 20
9.5328733003
 30
0.0
 10
9.3951367885
 20
9.5321723744
 30
0.0
 10
9.392876401
 20
9.5316466925
 30
0.0
 10
9.3906160323
 20
9.5311209632
 30
0.0
 10
9.3887323328
 20
9.5306830027
 30
0.0
 10
9.3872255053
 20
9.5303323047
 30
0.0
 10
9.3860950237
 20
9.5300701818
 30
0.0
 10
9.3851541038
 20
9.5298488811
 30
0.0
 10
9.3844932068
 20
9.5296995931
 30
0.0
 10
9.3841190693
 20
9.5296055067
 30
0.0
 10
9.3838285563
 20
9.5295596723
 30
0.0
 10
9.3835759239
 20
9.5294193056
 30
0.0
 10
9.3832258675
 20
9.5292651238
 30
0.0
 10
9.3826194252
 20
9.5289799426
 30
0.0
 10
9.3817498604
 20
9.5285805729
 30
0.0
 10
9.3807077603
 20
9.5280978912
 30
0.0
 10
9.3793178123
 20
9.5274555166
 30
0.0
 10
9.3775805424
 20
9.5266521363
 30
0.0
 10
9.3754957477
 20
9.5256882565
 30
0.0
 10
9.373410972
 20
9.5247243295
 30
0.0
 10
9.3706312644
 20
9.52343911
 30
0.0
 10
9.3671566322
 20
9.5218325801
 30
0.0
 10
9.3636819994
 20
9.5202260517
 30
0.0
 10
9.3609022927
 20
9.5189408297
 30
0.0
 10
9.3588175143
 20
9.51797691
 30
0.0
 10
9.3567327295
 20
9.5170130028
 30
0.0
 10
9.3549954291
 20
9.5162097079
 30
0.0
 10
9.3536055432
 20
9.5155671591
 30
0.0
 10
9.3527369685
 20
9.5151653677
 30
0.0
 10
9.3520418704
 20
9.5148443891
 30
0.0
 10
9.3515211995
 20
9.5146024105
 30
0.0
 10
9.3510852309
 20
9.5144047209
 30
0.0
 10
9.3507411126
 20
9.5142376895
 30
0.0
 10
9.3504702997
 20
9.5141366797
 30
0.0
 10
9.350248055
 20
9.5139430546
 30
0.0
 10
9.3499347632
 20
9.5137172396
 30
0.0
 10
9.3495489692
 20
9.5134238711
 30
0.0
 10
9.349083525
 20
9.5130765799
 30
0.0
 10
9.3484638029
 20
9.5126118655
 30
0.0
 10
9.3476888522
 20
9.5120315407
 30
0.0
 10
9.3464490978
 20
9.5111027035
 30
0.0
 10
9.3448993476
 20
9.509941766
 30
0.0
 10
9.3430396719
 20
9.5085485942
 30
0.0
 10
9.3411799896
 20
9.507155435
 30
0.0
 10
9.3387004155
 20
9.5052978849
 30
0.0
 10
9.335600947
 20
9.502975949
 30
0.0
 10
9.3325014792
 20
9.5006540121
 30
0.0
 10
9.3300219039
 20
9.4987964636
 30
0.0
 10
9.3281622252
 20
9.4974032997
 30
0.0
 10
9.326302536
 20
9.4960101453
 30
0.0
 10
9.3247528278
 20
9.4948491537
 30
0.0
 10
9.3235129878
 20
9.4939204269
 30
0.0
 10
9.3227382548
 20
9.4933398212
 30
0.0
 10
9.3221180861
 20
9.4928756834
 30
0.0
 10
9.3216540062
 20
9.4925266306
 30
0.0
 10
9.3212639434
 20
9.4922387736
 30
0.0
 10
9.3209593608
 20
9.492001714
 30
0.0
 10
9.3207105188
 20
9.491842429
 30
0.0
 10
9.3205395632
 20
9.4916124924
 30
0.0
 10
9.3202844157
 20
9.4913305897
 30
0.0
 10
9.3199748159
 20
9.4909697439
 30
0.0
 10
9.3195993006
 20
9.4905403532
 30
0.0
 10
9.3191000091
 20
9.4899665665
 30
0.0
 10
9.3184754169
 20
9.4892497665
 30
0.0
 10
9.3174763364
 20
9.4881026443
 30
0.0
 10
9.3162273942
 20
9.4866688246
 30
0.0
 10
9.3147287028
 20
9.4849482054
 30
0.0
 10
9.3132300009
 20
9.4832275957
 30
0.0
 10
9.3112317353
 20
9.4809334461
 30
0.0
 10
9.3087339025
 20
9.47806576
 30
0.0
 10
9.3062360684
 20
9.4751980748
 30
0.0
 10
9.3042378049
 20
9.4729039237
 30
0.0
 10
9.3027390966
 20
9.4711833185
 30
0.0
 10
9.3012404295
 20
9.4694626827
 30
0.0
 10
9.2999914116
 20
9.4680289146
 30
0.0
 10
9.2989924854
 20
9.4668816872
 30
0.0
 10
9.2982425036
 20
9.4660218482
 30
0.0
 10
9.2976200224
 20
9.4653034661
 30
0.0
 10
9.2971793725
 20
9.4648042284
 30
0.0
 10
9.2969352438
 20
9.4645132822
 30
0.0
 10
9.2967305372
 20
9.4643110379
 30
0.0
 10
9.2966084354
 20
9.4640477658
 30
0.0
 10
9.2964168195
 20
9.4637180236
 30
0.0
 10
9.2960949165
 20
9.4631310566
 30
0.0
 10
9.2956280364
 20
9.4622977176
 30
0.0
 10
9.2950707845
 20
9.4612954913
 30
0.0
 10
9.2943267326
 20
9.459959965
 30
0.0
 10
9.2933970278
 20
9.4582902909
 30
0.0
 10
9.2922812277
 20
9.4562867961
 30
0.0
 10
9.2911654689
 20
9.4542832708
 30
0.0
 10
9.2896777759
 20
9.4516119144
 30
0.0
 10
9.2878181653
 20
9.448272715
 30
0.0
 10
9.2859585508
 20
9.4449335179
 30
0.0
 10
9.284470864
 20
9.4422621579
 30
0.0
 10
9.2833550868
 20
9.4402586437
 30
0.0
 10
9.2822393555
 20
9.4382551072
 30
0.0
 10
9.2813094365
 20
9.4365855628
 30
0.0
 10
9.2805658214
 20
9.435249772
 30
0.0
 10
9.2800072356
 20
9.4342483534
 30
0.0
 10
9.2795445288
 20
9.4334124873
 30
0.0
 10
9.2792151758
 20
9.4328300316
 30
0.0
 10
9.2790354967
 20
9.4324930611
 30
0.0
 10
9.2788767289
 20
9.432251992
 30
0.0
 10
9.2788097338
 20
9.4319663572
 30
0.0
 10
9.2786883956
 20
9.4316010558
 30
0.0
 10
9.2784909684
 20
9.4309545356
 30
0.0
 10
9.278201132
 20
9.4300347219
 30
0.0
 10
9.2778566659
 20
9.4289293246
 30
0.0
 10
9.277396212
 20
9.4274560278
 30
0.0
 10
9.2768210446
 20
9.4256142125
 30
0.0
 10
9.2761306723
 20
9.4234041175
 30
0.0
 10
9.2754403459
 20
9.4211940001
 30
0.0
 10
9.2745198945
 20
9.4182471848
 30
0.0
 10
9.2733693364
 20
9.4145636627
 30
0.0
 10
9.2722187741
 20
9.4108801424
 30
0.0
 10
9.2712983294
 20
9.4079333243
 30
0.0
 10
9.2706079831
 20
9.4057232154
 30
0.0
 10
9.2699176854
 20
9.4035130887
 30
0.0
 10
9.2693422857
 20
9.4016713718
 30
0.0
 10
9.2688823056
 20
9.4001978744
 30
0.0
 10
9.2685363923
 20
9.3990930897
 30
0.0
 10
9.268251084
 20
9.3981713595
 30
0.0
 10
9.2680455735
 20
9.3975282606
 30
0.0
 10
9.2679371868
 20
9.3971574774
 30
0.0
 10
9.2678304086
 20
9.3968886809
 30
0.0
 10
9.2678210594
 20
9.3965843696
 30
0.0
 10
9.2677746094
 20
9.3961910091
 30
0.0
 10
9.2677091558
 20
9.3954968565
 30
0.0
 10
9.2676073725
 20
9.3945082275
 30
0.0
 10
9.267488776
 20
9.3933205811
 30
0.0
 10
9.2673294094
 20
9.3917375038
 30
0.0
 10
9.267130626
 20
9.3897585022
 30
0.0
 10
9.2668919039
 20
9.3873837667
 30
0.0
 10
9.2666532304
 20
9.3850090135
 30
0.0
 10
9.2663349821
 20
9.3818426821
 30
0.0
 10
9.2659371781
 20
9.3778847656
 30
0.0
 10
9.2655393697
 20
9.3739268499
 30
0.0
 10
9.2652211283
 20
9.3707605173
 30
0.0
 10
9.264982434
 20
9.3683857676
 30
0.0
 10
9.2647437902
 20
9.3660110189
 30
0.0
 10
9.2645447629
 20
9.3640320586
 30
0.0
 10
9.2643858939
 20
9.3624488971
 30
0.0
 10
9.264265778
 20
9.3612615077
 30
0.0
 10
9.2641687482
 20
9.3602720746
 30
0.0
 10
9.2640948089
 20
9.3595793575
 30
0.0
 10
9.2640619552
 20
9.359183697
 30
0.0
 10
9.2640108424
 20
9.3588864505
 30
0.0
 10
9.2640609208
 20
9.3585911197
 30
0.0
 10
9.2640923953
 20
9.358196677
 30
0.0
 10
9.2641639211
 20
9.3575067137
 30
0.0
 10
9.264257503
 20
9.3565208891
 30
0.0
 10
9.2643734814
 20
9.3553379692
 30
0.0
 10
9.2645268338
 20
9.3537607183
 30
0.0
 10
9.2647189654
 20
9.3517891631
 30
0.0
 10
9.2649493342
 20
9.3494232933
 30
0.0
 10
9.2651797535
 20
9.3470574244
 30
0.0
 10
9.2654869619
 20
9.3439029322
 30
0.0
 10
9.2658709764
 20
9.3399598169
 30
0.0
 10
9.2663318008
 20
9.3352280796
 30
0.0
 10
9.2667157926
 20
9.3312849615
 30
0.0
 10
9.267023051
 20
9.3281304754
 30
0.0
 10
9.2672149393
 20
9.3261589026
 30
0.0
 10
9.2673687893
 20
9.3245816879
 30
0.0
 10
9.2674832478
 20
9.3233986574
 30
0.0
 10
9.2675815851
 20
9.3224131789
 30
0.0
 10
9.2676446216
 20
9.3217225977
 30
0.0
 10
9.2676896982
 20
9.321329145
 30
0.0
 10
9.2676979954
 20
9.3210307734
 30
0.0
 10
9.2678038055
 20
9.3207449474
 30
0.0
 10
9.2679108721
 20
9.32035947
 30
0.0
 10
9.2681140861
 20
9.3196869234
 30
0.0
 10
9.2683961066
 20
9.3187250766
 30
0.0
 10
9.2687380775
 20
9.3175713168
 30
0.0
 10
9.2691928
 20
9.3160328109
 30
0.0
 10
9.2697616274
 20
9.3141097332
 30
0.0
 10
9.2706715139
 20
9.3110327782
 30
0.0
 10
9.2718089541
 20
9.3071865952
 30
0.0
 10
9.2731738449
 20
9.3025711703
 30
0.0
 10
9.2745387539
 20
9.2979557496
 30
0.0
 10
9.2756761486
 20
9.294109556
 30
0.0
 10
9.2765861261
 20
9.2910326222
 30
0.0
 10
9.2771547224
 20
9.2891094907
 30
0.0
 10
9.2776099192
 20
9.2875710951
 30
0.0
 10
9.2779504412
 20
9.2864169983
 30
0.0
 10
9.2782369949
 20
9.2854562058
 30
0.0
 10
9.2784321163
 20
9.2847817771
 30
0.0
 10
9.2785521492
 20
9.2843993153
 30
0.0
 10
9.2786181307
 20
9.2841042264
 30
0.0
 10
9.2787760176
 20
9.2838406446
 30
0.0
 10
9.2789544759
 20
9.2834782121
 30
0.0
 10
9.279281714
 20
9.2828490757
 30
0.0
 10
9.2797413883
 20
9.2819476324
 30
0.0
 10
9.2802963398
 20
9.2808670463
 30
0.0
 10
9.2810351077
 20
9.2794258646
 30
0.0
 10
9.2819589673
 20
9.2776245245
 30
0.0
 10
9.2834369193
 20
9.2747423037
 30
0.0
 10
9.2852844359
 20
9.271139554
 30
0.0
 10
9.2875014234
 20
9.2668162434
 30
0.0
 10
9.2893489187
 20
9.2632134862
 30
0.0
 10
9.2908269176
 20
9.2603312819
 30
0.0
 10
9.2919354053
 20
9.2581696232
 30
0.0
 10
9.2930439375
 20
9.2560079857
 30
0.0
 10
9.2939675754
 20
9.2542065552
 30
0.0
 10
9.294706797
 20
9.2527655585
 30
0.0
 10
9.2952603629
 20
9.2516844072
 30
0.0
 10
9.2957243721
 20
9.250784732
 30
0.0
 10
9.2960438717
 20
9.2501524393
 30
0.0
 10
9.2962347291
 20
9.249795064
 30
0.0
 10
9.2963545295
 20
9.2495159482
 30
0.0
 10
9.2965635577
 20
9.2492792021
 30
0.0
 10
9.2968111382
 20
9.2489487615
 30
0.0
 10
9.2972589053
 20
9.2483773764
 30
0.0
 10
9.2978909912
 20
9.2475575119
 30
0.0
 10
9.2986527393
 20
9.2465752155
 30
0.0
 10
9.2996672699
 20
9.2452649487
 30
0.0
 10
9.3009358222
 20
9.2436272998
 30
0.0
 10
9.3024579181
 20
9.241662042
 30
0.0
 10
9.3039800587
 20
9.2396968054
 30
0.0
 10
9.306009564
 20
9.2370764827
 30
0.0
 10
9.3085464496
 20
9.2338010803
 30
0.0
 10
9.3115907165
 20
9.2298706035
 30
0.0
 10
9.3141275866
 20
9.2265951845
 30
0.0
 10
9.3161571261
 20
9.2239748982
 30
0.0
 10
9.3174254892
 20
9.2223371079
 30
0.0
 10
9.3184404066
 20
9.2210271308
 30
0.0
 10
9.3192009732
 20
9.2200439492
 30
0.0
 10
9.3198367558
 20
9.2192268541
 30
0.0
 10
9.3202779236
 20
9.2186505252
 30
0.0
 10
9.3205360778
 20
9.2183280058
 30
0.0
 10
9.3207126272
 20
9.2180669285
 30
0.0
 10
9.3209544126
 20
9.2178791966
 30
0.0
 10
9.3212540381
 20
9.2176033038
 30
0.0
 10
9.3217889847
 20
9.2171324112
 30
0.0
 10
9.3225476513
 20
9.2164534757
 30
0.0
 10
9.3234604237
 20
9.2156414205
 30
0.0
 10
9.324676625
 20
9.2145577486
 30
0.0
 10
9.3261971603
 20
9.2132034777
 30
0.0
 10
9.3286298582
 20
9.2110364659
 30
0.0
 10
9.3316707852
 20
9.2083277627
 30
0.0
 10
9.3353198729
 20
9.2050772907
 30
0.0
 10
9.3389689722
 20
9.2018268332
 30
0.0
 10
9.3420098703
 20
9.1991180936
 30
0.0
 10
9.344442626
 20
9.1969511548
 30
0.0
 10
9.3459630143
 20
9.1955966983
 30
0.0
 10
9.3471795173
 20
9.1945134072
 30
0.0
 10
9.3480913678
 20
9.1937001885
 30
0.0
 10
9.3488529191
 20
9.1930248934
 30
0.0
 10
9.349382716
 20
9.192547502
 30
0.0
 10
9.3496905926
 20
9.192282022
 30
0.0
 10
9.3499070333
 20
9.1920623051
 30
0.0
 10
9.3501787732
 20
9.1919213581
 30
0.0
 10
9.350521804
 20
9.191705953
 30
0.0
 10
9.351131095
 20
9.1913417955
 30
0.0
 10
9.3519968123
 20
9.1908148777
 30
0.0
 10
9.3530376841
 20
9.1901854411
 30
0.0
 10
9.3544248107
 20
9.1893451917
 30
0.0
 10
9.3561589595
 20
9.1882952226
 30
0.0
 10
9.3589334632
 20
9.1866150805
 30
0.0
 10
9.3624016391
 20
9.184514969
 30
0.0
 10
9.3665634294
 20
9.1819948047
 30
0.0
 10
9.3707252286
 20
9.1794746565
 30
0.0
 10
9.3741933821
 20
9.1773745048
 30
0.0
 10
9.3769679306
 20
9.1756944432
 30
0.0
 10
9.3787019654
 20
9.1746442692
 30
0.0
 10
9.3800893261
 20
9.1738044402
 30
0.0
 10
9.3811294827
 20
9.1731737194
 30
0.0
 10
9.3819974376
 20
9.1726508197
 30
0.0
 10
9.382602734
 20
9.1722794892
 30
0.0
 10
9.3829521653
 20
9.172075577
 30
0.0
 10
9.383204245
 20
9.1718993274
 30
0.0
 10
9.383494526
 20
9.1718122012
 30
0.0
 10
9.3838682422
 20
9.1716649457
 30
0.0
 10
9.384528454
 20
9.1714217327
 30
0.0
 10
9.385468368
 20
9.171066713
 30
0.0
 10
9.386597654
 20
9.1706439307
 30
0.0
 10
9.3881028834
 20
9.1700790889
 30
0.0
 10
9.3899845864
 20
9.1693734242
 30
0.0
 10
9.3929952183
 20
9.168244144
 30
0.0
 10
9.3967585399
 20
9.1668326181
 30
0.0
 10
9.4012745125
 20
9.1651387557
 30
0.0
 10
9.4050378254
 20
9.1637272089
 30
0.0
 10
9.4080484765
 20
9.1625979746
 30
0.0
 10
9.4103064611
 20
9.1617510365
 30
0.0
 10
9.4125644601
 20
9.1609041461
 30
0.0
 10
9.4144460811
 20
9.1601982555
 30
0.0
 10
9.4159514783
 20
9.1596338758
 30
0.0
 10
9.4170802521
 20
9.1592096818
 30
0.0
 10
9.4180217685
 20
9.158859079
 30
0.0
 10
9.4186791196
 20
9.1586079811
 30
0.0
 10
9.4190574195
 20
9.1584733592
 30
0.0
 10
9.419333621
 20
9.1583474264
 30
0.0
 10
9.4196385809
 20
9.1583169281
 30
0.0
 10
9.4200351628
 20
9.158242975
 30
0.0
 10
9.4207338549
 20
9.158129067
 30
0.0
 10
9.4217295431
 20
9.1579582325
 30
0.0
 10
9.4229254147
 20
9.157756702
 30
0.0
 10
9.4245195449
 20
9.1574867822
 30
0.0
 10
9.426512333
 20
9.1571497984
 30
0.0
 10
9.428903625
 20
9.1567452396
 30
0.0
 10
9.4312949313
 20
9.1563407285
 30
0.0
 10
9.4344833347
 20
9.1558013637
 30
0.0
 10
9.4384688408
 20
9.1551271634
 30
0.0
 10
9.4432514473
 20
9.1543181206
 30
0.0
 10
9.4496282562
 20
9.1532393977
 30
0.0
 10
9.4544108628
 20
9.1524303553
 30
0.0
 10
9.4575992673
 20
9.1518909938
 30
0.0
  0
ENDSEC
  0
SECTION
  2
OBJECTS
  0
DICTIONARY
  5
C
100
AcDbDictionary
280
0
281
1
  3
ACAD_GROUP
350
D
  3
ACAD_MLINESTYLE
350
17
  3
ACAD_LAYOUT
350
1A
  3
ACAD_PLOTSETTINGS
350
19
  3
ACAD_PLOTSTYLENAME
350
E
  3
ACAD_IMAGE_DICT
350
       39B
  3
ACAD_IMAGE_VARS
350
       39C
  3
ACAD_TABLESTYLE
350
       39D
  0
IMAGEDEF_REACTOR
  5
39A
100
AcDbRasterImageDefReactor
 90
2
330
287
  0
DICTIONARY
  5
D
102
{ACAD_REACTORS
330
C
102
}
100
AcDbDictionary
280
0
281
1
  0
ACDBDICTIONARYWDFLT
  5
E
102
{ACAD_REACTORS
330
C
102
}
100
AcDbDictionary
281
1
  3
Normal
350
F
100
AcDbDictionaryWithDefault
340
F
  0
DICTIONARY
  5
39B
330
C
100
AcDbDictionary
281
1
  3
CMW_assy_2_img_1
350
       3A0
  0
RASTERVARIABLES
  5
39C
330
C
100
AcDbRasterVariables
 90
0
 70
0
 71
1
 72
5
  0
DICTIONARY
  5
17
102
{ACAD_REACTORS
330
C
102
}
100
AcDbDictionary
280
0
281
1
  3
Standard
350
18
  0
DICTIONARY
  5
39D
330
C
100
AcDbDictionary
281
1
  3
Standard
350
       3A1
  3
Standard1
350
       3A2
  0
DICTIONARY
  5
19
102
{ACAD_REACTORS
330
C
102
}
100
AcDbDictionary
281
1
  0
DICTIONARY
  5
1A
102
{ACAD_REACTORS
330
C
102
}
100
AcDbDictionary
281
1
  3
Model
350
39E
  3
Layout1
350
39F
  0
ACDBPLACEHOLDER
  5
F
102
{ACAD_REACTORS
330
E
102
}
  0
MLINESTYLE
  5
18
102
{ACAD_REACTORS
330
17
102
}
100
AcDbMlineStyle
  2
STANDARD
 70
0
  3

 62
256
 51
90.0
 52
90.0
 71
2
 49
0.5
 62
256
  6
BYLAYER
 49
-0.5
 62
256
  6
BYLAYER
  0
LAYOUT
  5
39E
102
{ACAD_REACTORS
330
1A
102
}
100
AcDbPlotSettings
  1

  2
none_device
  4
ANSI_C_(22.00_x_17.00_Inches)
  6

 40
0.0
 41
0.0
 42
0.0
 43
0.0
 44
558.8
 45
431.8
 46
0.0
 47
0.0
 48
0.0
 49
0.0
140
0.0
141
0.0
142
1.0
143
1.0
 70
1024
 72
0
 73
0
 74
0
  7

 75
0
147
1.0
148
0.0
149
0.0
100
AcDbLayout
  1
Model
 70
0
 71
0
 10
0.0
 20
0.0
 11
22.0
 21
17.0
 12
0.0
 22
0.0
 32
0.0
 14
0.0
 24
0.0
 34
0.0
 15
0.0
 25
0.0
 35
0.0
146
0.0
 13
0.0
 23
0.0
 33
0.0
 16
1.0
 26
0.0
 36
0.0
 17
0.0
 27
1.0
 37
0.0
 76
0
330
20C
345
0
346
0
  0
LAYOUT
  5
39F
102
{ACAD_REACTORS
330
1A
102
}
100
AcDbPlotSettings
  1

  2
none_device
  4
ANSI_C_(22.00_x_17.00_Inches)
  6

 40
0.0
 41
0.0
 42
0.0
 43
0.0
 44
558.8
 45
431.8
 46
0.0
 47
0.0
 48
0.0
 49
0.0
140
0.0
141
0.0
142
1.0
143
1.0
 70
0
 72
0
 73
0
 74
0
  7

 75
0
147
1.0
148
0.0
149
0.0
100
AcDbLayout
  1
Layout1
 70
0
 71
1
 10
0.0
 20
0.0
 11
22.0
 21
17.0
 12
0.0
 22
0.0
 32
0.0
 14
0.0
 24
0.0
 34
0.0
 15
0.0
 25
0.0
 35
0.0
146
0.0
 13
0.0
 23
0.0
 33
0.0
 16
1.0
 26
0.0
 36
0.0
 17
0.0
 27
1.0
 37
0.0
 76
0
330
20D
345
0
346
0
  0
IMAGEDEF
  5
3A0
102
{ACAD_REACTORS
330
39B
330
39A
102
}
100
AcDbRasterImageDef
 90
0
  1
CMW_assy_2_img_1.png
 10
369.0
 20
92.0
 11
0.0066666667
 21
0.0066666667
280
1
281
0
  0
TABLESTYLE
  5
3A1
102
{ACAD_REACTORS
330
39D
330
28A
330
28B
102
}
330
39D
100
AcDbTableStyle
  3
Standard
 70
0
 71
0
 40
0.06
 41
0.06
280
1
281
1
  7
Standard
140
0.18
170
1
 62
0
 63
7
283
0
  7
Standard
140
0.18
170
1
 62
0
 63
7
283
0
  7
Standard
140
0.18
170
1
 62
0
 63
7
283
0
  0
TABLESTYLE
  5
3A2
102
{ACAD_REACTORS
330
39D
330
289
102
}
330
39D
100
AcDbTableStyle
  3
Standard1
 70
1
 71
0
 40
0.06
 41
0.06
280
1
281
1
  7
Standard
140
0.18
170
1
 62
0
 63
7
283
0
  7
Standard
140
0.18
170
1
 62
0
 63
7
283
0
  7
Standard
140
0.18
170
1
 62
0
 63
7
283
0
  0
ENDSEC
  0
EOF
