999
DXF file: CML_assy_2.dxf
999
Pro/ENGINEER 2014200 by Parametric Technology Corporation
  0
SECTION
  2
HEADER
  9
$ACADVER
  1
AC1021
  9
$DWGCODEPAGE
  3
ANSI_1252
  9
$EXTMAX
 10
22.0
 20
17.0
 30
0.0
  9
$EXTMIN
 10
0.0
 20
0.0
 30
0.0
  9
$LIMMIN
 10
0.0
 20
0.0
  9
$LIMMAX
 10
22.0
 20
17.0
  9
$VIEWCTR
 10
11.0
 20
8.5
  9
$VIEWSIZE
 40
17.0
  9
$CLAYER
  8
0
  9
$LTSCALE
 40
1.21
  9
$CELTYPE
  6
BYLAYER
  9
$DIMSCALE
 40
1.0
  9
$DIMASZ
 40
0.1875
  9
$DIMEXO
 40
0.0625
  9
$DIMDLI
 40
0.836
  9
$DIMEXE
 40
0.125
  9
$DIMCEN
 40
0.198
  9
$DIMLFAC
 40
1.0
  9
$DIMBLK
  1
_FILLED
  9
$DIMTXT
 40
0.1
  9
$DIMTOL
 70
0
  9
$DIMLIM
 70
0
  9
$DIMTFAC
 40
1.0
  9
$DIMGAP
 40
0.09
  9
$DIMDSEP
 70
46
  9
$AUNITS
 70
0
  9
$PDMODE
 70
3
  9
$PDSIZE
 40
0.3125
  9
$HANDSEED
  5
395
  9
$TILEMODE
 70
1
  9
$MEASUREMENT
 70
0
  9
$INSUNITS
 70
1
  0
ENDSEC
  0
SECTION
  2
CLASSES
  0
CLASS
  1
ACDBDICTIONARYWDFLT
  2
AcDbDictionaryWithDefault
  3
AutoCAD 2000
 90
0
 91
1
280
0
281
0
  0
CLASS
  1
ACDBPLACEHOLDER
  2
AcDbPlaceHolder
  3
AutoCAD 2000
 90
0
 91
1
280
0
281
0
  0
CLASS
  1
LAYOUT
  2
AcDbLayout
  3
AutoCAD 2000
 90
0
 91
0
280
0
281
0
  0
CLASS
  1
RASTERVARIABLES
  2
AcDbRasterVariables
  3
ISM
 90
0
 91
1
280
0
281
0
  0
CLASS
  1
IMAGEDEF
  2
AcDbRasterImageDef
  3
ISM
 90
0
 91
1
280
0
281
0
  0
CLASS
  1
IMAGEDEF_REACTOR
  2
AcDbRasterImageDefReactor
  3
ISM
 90
0
 91
1
280
0
281
0
  0
CLASS
  1
IMAGE
  2
AcDbRasterImage
  3
ISM
 90
127
 91
1
280
0
281
1
  0
CLASS
  1
TABLESTYLE
  2
AcDbTableStyle
  3
ObjectDBX Classes
 90
2047
 91
1
280
0
281
0
  0
CLASS
  1
ACAD_TABLE
  2
AcDbTable
  3
ObjectDBX Classes
 90
1025
 91
3
280
0
281
1
  0
ENDSEC
  0
SECTION
  2
TABLES
  0
TABLE
  2
VPORT
  5
8
100
AcDbSymbolTable
 70
2
  0
VPORT
  5
1F4
100
AcDbSymbolTableRecord
100
AcDbViewportTableRecord
  2
*ACTIVE
 70
0
 10
0.0
 20
0.0
 11
1.0
 21
1.0
 12
11.0
 22
8.5
 13
0.0
 23
0.0
 14
1.0
 24
1.0
 15
0.0
 25
0.0
 16
0.0
 26
0.0
 36
1.0
 17
0.0
 27
0.0
 37
0.0
 40
17.0
 41
1.2941176471
 42
50.0
 43
0.0
 44
0.0
 50
0.0
 51
0.0
 71
0
 72
100
 73
1
 74
1
 75
0
 76
0
 77
0
 78
0
  0
ENDTAB
  0
TABLE
  2
LTYPE
  5
5
100
AcDbSymbolTable
 70
6
  0
LTYPE
  5
14
100
AcDbSymbolTableRecord
100
AcDbLinetypeTableRecord
  2
BYBLOCK
 70
0
  3

 72
65
 73
0
 40
0.0
  0
LTYPE
  5
15
100
AcDbSymbolTableRecord
100
AcDbLinetypeTableRecord
  2
BYLAYER
 70
0
  3

 72
65
 73
0
 40
0.0
  0
LTYPE
  5
16
100
AcDbSymbolTableRecord
100
AcDbLinetypeTableRecord
  2
CONTINUOUS
 70
64
  3
Solid line
 72
65
 73
0
 40
0.0
  0
LTYPE
  5
1F5
100
AcDbSymbolTableRecord
100
AcDbLinetypeTableRecord
  2
CENTER
 70
64
  3
____ _ ____ _ ____ _ ____ _ ____ _ ____ _ ____
 72
65
 73
4
 40
0.6
 49
0.375
 74
0
 49
-0.075
 74
0
 49
0.075
 74
0
 49
-0.075
 74
0
  0
LTYPE
  5
1F6
100
AcDbSymbolTableRecord
100
AcDbLinetypeTableRecord
  2
HIDDEN
 70
64
  3
- - - - - - - - - - - - - - - - - - - -
 72
65
 73
2
 40
0.2
 49
0.1
 74
0
 49
-0.1
 74
0
  0
LTYPE
  5
1F7
100
AcDbSymbolTableRecord
100
AcDbLinetypeTableRecord
  2
PHANTOM
 70
64
  3
_____ _ _ _____ _ _ _____ _ _ _____
 72
65
 73
6
 40
0.8
 49
0.45
 74
0
 49
-0.05
 74
0
 49
0.1
 74
0
 49
-0.05
 74
0
 49
0.1
 74
0
 49
-0.05
 74
0
  0
LTYPE
  5
1F8
100
AcDbSymbolTableRecord
100
AcDbLinetypeTableRecord
  2
DOT
 70
64
  3
. . . . . . . . . . . . . . . . . . . .
 72
65
 73
2
 40
0.2
 49
0.1
 74
0
 49
-0.1
 74
0
  0
LTYPE
  5
1F9
100
AcDbSymbolTableRecord
100
AcDbLinetypeTableRecord
  2
DASHED
 70
64
  3
- - - - - - - - - - - - - - - - - - - -
 72
65
 73
2
 40
0.2
 49
0.1
 74
0
 49
-0.1
 74
0
  0
ENDTAB
  0
TABLE
  2
LAYER
  5
2
100
AcDbSymbolTable
 70
36
  0
LAYER
  5
10
100
AcDbSymbolTableRecord
100
AcDbLayerTableRecord
  2
0
 70
0
 62
7
  6
CONTINUOUS
370
-3
390
F
  0
LAYER
  5
1FA
100
AcDbSymbolTableRecord
100
AcDbLayerTableRecord
  2
DEFAULT_1
 70
0
 62
7
  6
CENTER
370
-3
390
F
  0
LAYER
  5
1FB
100
AcDbSymbolTableRecord
100
AcDbLayerTableRecord
  2
DEFAULT_2
 70
0
 62
8
  6
HIDDEN
370
-3
390
F
  0
LAYER
  5
1FC
100
AcDbSymbolTableRecord
100
AcDbLayerTableRecord
  2
DEFAULT_3
 70
0
 62
7
  6
PHANTOM
370
-3
390
F
  0
LAYER
  5
1FD
100
AcDbSymbolTableRecord
100
AcDbLayerTableRecord
  2
01___PRT_ALL_DTM_PLN
 70
0
 62
7
  6
CONTINUOUS
370
-3
390
F
  0
LAYER
  5
1FE
100
AcDbSymbolTableRecord
100
AcDbLayerTableRecord
  2
01___PRT_DEF_DTM_PLN
 70
0
 62
7
  6
CONTINUOUS
370
-3
390
F
  0
LAYER
  5
1FF
100
AcDbSymbolTableRecord
100
AcDbLayerTableRecord
  2
02___PRT_ALL_AXES
 70
0
 62
7
  6
CONTINUOUS
370
-3
390
F
  0
LAYER
  5
200
100
AcDbSymbolTableRecord
100
AcDbLayerTableRecord
  2
03___PRT_ALL_CURVES
 70
0
 62
7
  6
CONTINUOUS
370
-3
390
F
  0
LAYER
  5
201
100
AcDbSymbolTableRecord
100
AcDbLayerTableRecord
  2
04___PRT_ALL_DTM_PNT
 70
0
 62
7
  6
CONTINUOUS
370
-3
390
F
  0
LAYER
  5
202
100
AcDbSymbolTableRecord
100
AcDbLayerTableRecord
  2
05___PRT_ALL_DTM_CSYS
 70
0
 62
7
  6
CONTINUOUS
370
-3
390
F
  0
LAYER
  5
203
100
AcDbSymbolTableRecord
100
AcDbLayerTableRecord
  2
05___PRT_DEF_DTM_CSYS
 70
0
 62
7
  6
CONTINUOUS
370
-3
390
F
  0
LAYER
  5
204
100
AcDbSymbolTableRecord
100
AcDbLayerTableRecord
  2
06___PRT_ALL_SURFS
 70
0
 62
7
  6
CONTINUOUS
370
-3
390
F
  0
LAYER
  5
205
100
AcDbSymbolTableRecord
100
AcDbLayerTableRecord
  2
DATUM_PLANES
 70
0
 62
7
  6
CONTINUOUS
370
-3
390
F
  0
LAYER
  5
206
100
AcDbSymbolTableRecord
100
AcDbLayerTableRecord
  2
PORT_AREAS
 70
0
 62
7
  6
CONTINUOUS
370
-3
390
F
  0
LAYER
  5
207
100
AcDbSymbolTableRecord
100
AcDbLayerTableRecord
  2
SUNNBOMCOSMETIC
 70
0
 62
7
  6
CONTINUOUS
370
-3
390
F
  0
LAYER
  5
208
100
AcDbSymbolTableRecord
100
AcDbLayerTableRecord
  2
SUNNBOMSTAMPING
 70
0
 62
7
  6
CONTINUOUS
370
-3
390
F
  0
LAYER
  5
209
100
AcDbSymbolTableRecord
100
AcDbLayerTableRecord
  2
THREADS
 70
0
 62
7
  6
CONTINUOUS
370
-3
390
F
  0
ENDTAB
  0
TABLE
  2
STYLE
  5
3
100
AcDbSymbolTable
 70
1
  0
STYLE
  5
11
100
AcDbSymbolTableRecord
100
AcDbTextStyleTableRecord
  2
STANDARD
 70
0
 40
0.0
 41
0.8
 50
0.0
 71
0
 42
0.2
  3
txt
  4

  0
STYLE
  5
20A
100
AcDbSymbolTableRecord
100
AcDbTextStyleTableRecord
  2
TEXTSTYLE_1
 70
0
 40
0.0
 41
0.8
 50
0.0
 71
0
 42
0.2
  3
gdt
  4

  0
ENDTAB
  0
TABLE
  2
VIEW
  5
6
100
AcDbSymbolTable
 70
0
  0
ENDTAB
  0
TABLE
  2
UCS
  5
7
100
AcDbSymbolTable
 70
0
  0
ENDTAB
  0
TABLE
  2
APPID
  5
9
100
AcDbSymbolTable
 70
1
  0
APPID
  5
20B
100
AcDbSymbolTableRecord
100
AcDbRegAppTableRecord
  2
ACAD
 70
0
  0
ENDTAB
  0
TABLE
  2
BLOCK_RECORD
  5
1
100
AcDbSymbolTable
 70
0
  0
BLOCK_RECORD
  5
20C
100
AcDbSymbolTableRecord
100
AcDbBlockTableRecord
  2
*Model_Space
  0
BLOCK_RECORD
  5
20D
100
AcDbSymbolTableRecord
100
AcDbBlockTableRecord
  2
*Paper_Space
  0
BLOCK_RECORD
  5
20E
100
AcDbSymbolTableRecord
100
AcDbBlockTableRecord
  2
SUN_FIRST_THIRD_ANGLE_BL0
  0
BLOCK_RECORD
  5
20F
100
AcDbSymbolTableRecord
100
AcDbBlockTableRecord
  2
*T1
  0
BLOCK_RECORD
  5
210
100
AcDbSymbolTableRecord
100
AcDbBlockTableRecord
  2
*T2
  0
BLOCK_RECORD
  5
211
100
AcDbSymbolTableRecord
100
AcDbBlockTableRecord
  2
*T3
  0
ENDTAB
  0
TABLE
  2
DIMSTYLE
  5
A
100
AcDbSymbolTable
 70
1
100
AcDbDimStyleTable
 71
0
  0
DIMSTYLE
105
212
100
AcDbSymbolTableRecord
100
AcDbDimStyleTableRecord
  2
STANDARD
 70
0
  3

  4

 40
1.0
 41
0.1875
 42
0.0625
 43
0.38
 44
0.125
 45
0.0
 46
0.0
 47
0.001
 48
0.001
140
0.1
141
0.09
142
0.0
143
25.4
144
1.0
145
0.0
146
1.0
147
0.09
 71
0.0
 72
0.0
 73
1
 74
1
 75
0
 76
0
 77
0
 78
4
170
0
171
2
172
0
173
0
174
0
175
0
176
0
177
0
178
0
270
2
271
3
272
3
273
2
274
2
275
0
280
0
281
0
282
0
283
1
284
4
285
0
286
0
287
3
288
0
340
11
278
46
  0
ENDTAB
  0
ENDSEC
  0
SECTION
  2
BLOCKS
  0
BLOCK
  5
20
100
AcDbEntity
  8
0
100
AcDbBlockBegin
  2
*Model_Space
 70
0
 10
0.0
 20
0.0
 30
0.0
  3
*Model_Space
  1

  0
ENDBLK
  5
21
100
AcDbEntity
  8
0
100
AcDbBlockEnd
  0
BLOCK
  5
1C
100
AcDbEntity
  8
0
100
AcDbBlockBegin
  2
*Paper_Space
 70
0
 10
0.0
 20
0.0
 30
0.0
  3
*Paper_Space
  1

  0
ENDBLK
  5
1D
100
AcDbEntity
  8
0
100
AcDbBlockEnd
  0
BLOCK
  5
213
100
AcDbEntity
  8
0
100
AcDbBlockBegin
 62
2
  6
CONTINUOUS
  2
SUN_FIRST_THIRD_ANGLE_BL0
 70
64
 10
20.4816717061
 20
1.2289683772
  3
SUN_FIRST_THIRD_ANGLE_BL0
  1

  0
TEXT
  5
214
100
AcDbEntity
  8
0
100
AcDbText
 62
2
  6
CONTINUOUS
 10
19.4750896608
 20
1.4136269581
  7
STANDARD
 40
0.08
  1
FIRST ANGLE
 41
0.8
 72
0
100
AcDbText
  0
TEXT
  5
215
100
AcDbEntity
  8
0
100
AcDbText
 62
2
  6
CONTINUOUS
 10
20.7842537513
 20
1.4047600029
  7
STANDARD
 40
0.08
  1
THIRD ANGLE
 41
0.8
 72
0
100
AcDbText
  0
LINE
  5
216
100
AcDbEntity
  8
0
100
AcDbLine
 62
7
  6
CONTINUOUS
 10
19.4767170086
 20
1.1727031207
 11
19.6334271527
 21
1.1717972817
  0
LINE
  5
217
100
AcDbEntity
  8
0
100
AcDbLine
 62
7
  6
CONTINUOUS
 10
19.6596964832
 20
1.1717972817
 11
19.6950230232
 21
1.171593082
  0
LINE
  5
218
100
AcDbEntity
  8
0
100
AcDbLine
 62
7
  6
CONTINUOUS
 10
19.7194818561
 20
1.1708914427
 11
19.8852396156
 21
1.1699333054
  0
LINE
  5
219
100
AcDbEntity
  8
0
100
AcDbLine
 62
7
  6
CONTINUOUS
 10
19.4758111696
 20
1.2723454088
 11
19.88525039
 21
1.3511534004
  0
LINE
  5
21A
100
AcDbEntity
  8
0
100
AcDbLine
 62
7
  6
CONTINUOUS
 10
19.88525039
 20
1.3511534004
 11
19.8831348489
 21
0.9851647912
  0
LINE
  5
21B
100
AcDbEntity
  8
0
100
AcDbLine
 62
7
  6
CONTINUOUS
 10
19.8831348489
 20
0.9851647912
 11
19.4767170086
 21
1.0658141206
  0
LINE
  5
21C
100
AcDbEntity
  8
0
100
AcDbLine
 62
7
  6
CONTINUOUS
 10
19.4767170086
 20
1.0658141206
 11
19.4779056764
 21
1.2714536432
  0
CIRCLE
  5
21D
100
AcDbEntity
  8
0
100
AcDbCircle
 62
7
  6
CONTINUOUS
 10
20.2068232291
 20
1.1717972817
 40
0.175742101
  0
CIRCLE
  5
21E
100
AcDbEntity
  8
0
100
AcDbCircle
 62
7
  6
CONTINUOUS
 10
20.2068232291
 20
1.1717972817
 40
0.1005522074
  0
LINE
  5
21F
100
AcDbEntity
  8
0
100
AcDbLine
 62
7
  6
CONTINUOUS
 10
20.2077290681
 20
1.3756110529
 11
20.2071171714
 21
1.2379342989
  0
LINE
  5
220
100
AcDbEntity
  8
0
100
AcDbLine
 62
7
  6
CONTINUOUS
 10
20.2077290681
 20
1.2016899681
 11
20.2074674401
 21
1.1428236749
  0
LINE
  5
221
100
AcDbEntity
  8
0
100
AcDbLine
 62
7
  6
CONTINUOUS
 10
20.208634907
 20
1.101141841
 11
20.2080230104
 21
0.963465087
  0
LINE
  5
222
100
AcDbEntity
  8
0
100
AcDbLine
 62
7
  6
CONTINUOUS
 10
20.0066328138
 20
1.1745147986
 11
20.1443095678
 21
1.1739029019
  0
LINE
  5
223
100
AcDbEntity
  8
0
100
AcDbLine
 62
7
  6
CONTINUOUS
 10
20.1832714155
 20
1.1727031207
 11
20.238153505
 21
1.172335442
  0
LINE
  5
224
100
AcDbEntity
  8
0
100
AcDbLine
 62
7
  6
CONTINUOUS
 10
20.2756669918
 20
1.1717972817
 11
20.407916871
 21
1.1712095044
  0
CIRCLE
  5
225
100
AcDbEntity
  8
0
100
AcDbCircle
 62
7
  6
CONTINUOUS
 10
20.7509457401
 20
1.1693297793
 40
0.1722024983
  0
CIRCLE
  5
226
100
AcDbEntity
  8
0
100
AcDbCircle
 62
7
  6
CONTINUOUS
 10
20.7509457401
 20
1.1693297793
 40
0.0985164967
  0
LINE
  5
227
100
AcDbEntity
  8
0
100
AcDbLine
 62
7
  6
CONTINUOUS
 10
20.7169767782
 20
1.170462078
 11
20.7825395137
 21
1.1682766535
  0
LINE
  5
228
100
AcDbEntity
  8
0
100
AcDbLine
 62
7
  6
CONTINUOUS
 10
20.8177513651
 20
1.1693297793
 11
20.947965719
 21
1.1693297793
  0
LINE
  5
229
100
AcDbEntity
  8
0
100
AcDbLine
 62
7
  6
CONTINUOUS
 10
20.6875370113
 20
1.170462078
 11
20.5573226574
 21
1.170462078
  0
LINE
  5
22A
100
AcDbEntity
  8
0
100
AcDbLine
 62
7
  6
CONTINUOUS
 10
20.7486811426
 20
1.1987695462
 11
20.7486811426
 21
1.1432869085
  0
LINE
  5
22B
100
AcDbEntity
  8
0
100
AcDbLine
 62
7
  6
CONTINUOUS
 10
20.7498134414
 20
1.1059210505
 11
20.7498134414
 21
0.9757066966
  0
LINE
  5
22C
100
AcDbEntity
  8
0
100
AcDbLine
 62
7
  6
CONTINUOUS
 10
20.7486811426
 20
1.2338708068
 11
20.7486811426
 21
1.3640851607
  0
LINE
  5
22D
100
AcDbEntity
  8
0
100
AcDbLine
 62
7
  6
CONTINUOUS
 10
21.0702539817
 20
1.2701043662
 11
21.4790138229
 21
1.3448360823
  0
LINE
  5
22E
100
AcDbEntity
  8
0
100
AcDbLine
 62
7
  6
CONTINUOUS
 10
21.4790138229
 20
1.3448360823
 11
21.4790138229
 21
0.9779712941
  0
LINE
  5
22F
100
AcDbEntity
  8
0
100
AcDbLine
 62
7
  6
CONTINUOUS
 10
21.4790138229
 20
0.9779712941
 11
21.069121683
 21
1.0617614
  0
LINE
  5
230
100
AcDbEntity
  8
0
100
AcDbLine
 62
7
  6
CONTINUOUS
 10
21.0702539817
 20
1.2701043662
 11
21.069121683
 21
1.0617614
  0
LINE
  5
231
100
AcDbEntity
  8
0
100
AcDbLine
 62
7
  6
CONTINUOUS
 10
21.4790138229
 20
1.1693297793
 11
21.3159628059
 21
1.1693297793
  0
LINE
  5
232
100
AcDbEntity
  8
0
100
AcDbLine
 62
7
  6
CONTINUOUS
 10
21.2876553377
 20
1.1693297793
 11
21.2502894796
 21
1.1693297793
  0
LINE
  5
233
100
AcDbEntity
  8
0
100
AcDbLine
 62
7
  6
CONTINUOUS
 10
21.2208497126
 20
1.1659328831
 11
21.0713862804
 21
1.1659328831
  0
LINE
  5
234
100
AcDbEntity
  8
0
100
AcDbLine
 62
7
  6
CONTINUOUS
 10
20.4796138713
 20
1.5284908897
 11
20.4766766948
 21
0.9294458646
  0
ENDBLK
  5
235
100
AcDbEntity
  8
0
  6
BYBLOCK
 62
0
100
AcDbBlockEnd
  0
BLOCK
  5
236
100
AcDbEntity
  8
0
100
AcDbBlockBegin
  2
*T1
 70
1
 10
0.0
 20
0.0
  3
*T1
  1

  0
LINE
  5
237
100
AcDbEntity
  8
0
100
AcDbLine
 62
2
  6
CONTINUOUS
 10
9.275
 20
0.0
 11
-0.0
 21
0.0
  0
LINE
  5
238
100
AcDbEntity
  8
0
100
AcDbLine
 62
2
  6
CONTINUOUS
 10
9.275
 20
0.0
 11
9.275
 21
1.25
  0
LINE
  5
239
100
AcDbEntity
  8
0
100
AcDbLine
 62
2
  6
CONTINUOUS
 10
9.275
 20
0.625
 11
-0.0
 21
0.625
  0
LINE
  5
23A
100
AcDbEntity
  8
0
100
AcDbLine
 62
2
  6
CONTINUOUS
 10
9.275
 20
1.25
 11
-0.0
 21
1.25
  0
LINE
  5
23B
100
AcDbEntity
  8
0
100
AcDbLine
 62
2
  6
CONTINUOUS
 10
6.8
 20
0.0
 11
6.8
 21
1.25
  0
LINE
  5
23C
100
AcDbEntity
  8
0
100
AcDbLine
 62
2
  6
CONTINUOUS
 10
6.4
 20
0.0
 11
6.4
 21
0.625
  0
LINE
  5
23D
100
AcDbEntity
  8
0
100
AcDbLine
 62
2
  6
CONTINUOUS
 10
5.9
 20
0.0
 11
5.9
 21
0.625
  0
LINE
  5
23E
100
AcDbEntity
  8
0
100
AcDbLine
 62
2
  6
CONTINUOUS
 10
5.2
 20
0.0
 11
5.2
 21
0.625
  0
LINE
  5
23F
100
AcDbEntity
  8
0
100
AcDbLine
 62
2
  6
CONTINUOUS
 10
4.1
 20
0.0
 11
4.1
 21
1.25
  0
LINE
  5
240
100
AcDbEntity
  8
0
100
AcDbLine
 62
2
  6
CONTINUOUS
 10
-0.0
 20
0.0
 11
-0.0
 21
1.25
  0
MTEXT
  5
241
100
AcDbEntity
  8
0
100
AcDbMText
 62
2
  6
CONTINUOUS
  7
STANDARD
 71
2
 72
1
 10
6.6
 20
0.325
 30
0.0
 11
1.0
 21
0.0
 31
0.0
 44
0.9
  1
2
 40
0.125
 41
0.2
  0
MTEXT
  5
242
100
AcDbEntity
  8
0
100
AcDbMText
 62
2
  6
CONTINUOUS
  7
STANDARD
 71
2
 72
1
 10
6.15
 20
0.325
 30
0.0
 11
1.0
 21
0.0
 31
0.0
 44
0.9
  1
C
 40
0.125
 41
0.2
  0
MTEXT
  5
243
100
AcDbEntity
  8
0
100
AcDbMText
 62
2
  6
CONTINUOUS
  7
STANDARD
 71
2
 72
1
 10
5.55
 20
0.325
 30
0.0
 11
1.0
 21
0.0
 31
0.0
 44
0.9
  1
1.000
 40
0.125
 41
1.0
  0
MTEXT
  5
244
100
AcDbEntity
  8
0
100
AcDbMText
 62
2
  6
CONTINUOUS
  7
STANDARD
 71
2
 72
1
 10
4.65
 20
0.325
 30
0.0
 11
1.0
 21
0.0
 31
0.0
 44
0.9
  1
Aug-01-23
 40
0.125
 41
1.8
  0
MTEXT
  5
245
100
AcDbEntity
  8
0
100
AcDbMText
 62
2
  6
CONTINUOUS
  7
STANDARD
 71
2
 72
1
 10
2.05
 20
0.4625
 30
0.0
 11
1.0
 21
0.0
 31
0.0
 44
0.9
  1
T-3A Line mount\PCross port with make up checks
 40
0.125
 41
6.0
  0
MTEXT
  5
246
100
AcDbEntity
  8
0
100
AcDbMText
 62
2
  6
CONTINUOUS
  7
STANDARD
 71
1
 72
1
 10
6.45
 20
0.5625
 30
0.0
 11
1.0
 21
0.0
 31
0.0
 44
0.9
  1
SHEET
 40
0.06
 41
0.48
  0
MTEXT
  5
247
100
AcDbEntity
  8
0
100
AcDbMText
 62
2
  6
CONTINUOUS
  7
STANDARD
 71
1
 72
1
 10
5.95
 20
0.5625
 30
0.0
 11
1.0
 21
0.0
 31
0.0
 44
0.9
  1
DWG SIZE
 40
0.06
 41
0.768
  0
MTEXT
  5
248
100
AcDbEntity
  8
0
100
AcDbMText
 62
2
  6
CONTINUOUS
  7
STANDARD
 71
1
 72
1
 10
5.25
 20
0.5625
 30
0.0
 11
1.0
 21
0.0
 31
0.0
 44
0.9
  1
SCALE
 40
0.06
 41
0.48
  0
MTEXT
  5
249
100
AcDbEntity
  8
0
100
AcDbMText
 62
2
  6
CONTINUOUS
  7
STANDARD
 71
1
 72
1
 10
4.15
 20
0.5625
 30
0.0
 11
1.0
 21
0.0
 31
0.0
 44
0.9
  1
DATE
 40
0.06
 41
0.384
  0
MTEXT
  5
24A
100
AcDbEntity
  8
0
100
AcDbMText
 62
2
  6
CONTINUOUS
  7
STANDARD
 71
1
 72
1
 10
0.05
 20
0.5625
 30
0.0
 11
1.0
 21
0.0
 31
0.0
 44
0.9
  1
DESCRIPTION
 40
0.06
 41
1.056
  0
MTEXT
  5
24B
100
AcDbEntity
  8
0
100
AcDbMText
 62
2
  6
CONTINUOUS
  7
STANDARD
 71
2
 72
1
 10
5.45
 20
1.0375
 30
0.0
 11
1.0
 21
0.0
 31
0.0
 44
0.9
  1
ALL DIMENSIONS IN INCH\PVIEWS ARE THIRD ANGLE
 40
0.12
 41
4.224
  0
MTEXT
  5
24C
100
AcDbEntity
  8
0
100
AcDbMText
 62
2
  6
CONTINUOUS
  7
STANDARD
 71
2
 72
1
 10
2.05
 20
0.95
 30
0.0
 11
1.0
 21
0.0
 31
0.0
 44
0.9
  1
CML
 40
0.125
 41
0.6
  0
MTEXT
  5
24D
100
AcDbEntity
  8
0
100
AcDbMText
 62
2
  6
CONTINUOUS
  7
STANDARD
 71
1
 72
1
 10
0.05
 20
1.1875
 30
0.0
 11
1.0
 21
0.0
 31
0.0
 44
0.9
  1
MODEL
 40
0.06
 41
0.48
  0
ENDBLK
  5
24E
100
AcDbEntity
  8
0
  6
BYBLOCK
 62
0
100
AcDbBlockEnd
  0
BLOCK
  5
24F
100
AcDbEntity
  8
0
100
AcDbBlockBegin
  2
*T2
 70
1
 10
0.0
 20
0.0
  3
*T2
  1

  0
LINE
  5
250
100
AcDbEntity
  8
0
100
AcDbLine
 62
2
  6
CONTINUOUS
 10
0.0
 20
0.0
 11
9.055
 21
0.0
  0
LINE
  5
251
100
AcDbEntity
  8
0
100
AcDbLine
 62
2
  6
CONTINUOUS
 10
0.0
 20
0.0
 11
0.0
 21
-2.844
  0
LINE
  5
252
100
AcDbEntity
  8
0
100
AcDbLine
 62
2
  6
CONTINUOUS
 10
0.0
 20
-0.344
 11
9.055
 21
-0.344
  0
LINE
  5
253
100
AcDbEntity
  8
0
100
AcDbLine
 62
2
  6
CONTINUOUS
 10
0.0
 20
-0.594
 11
9.055
 21
-0.594
  0
LINE
  5
254
100
AcDbEntity
  8
0
100
AcDbLine
 62
2
  6
CONTINUOUS
 10
0.0
 20
-0.844
 11
9.055
 21
-0.844
  0
LINE
  5
255
100
AcDbEntity
  8
0
100
AcDbLine
 62
2
  6
CONTINUOUS
 10
0.0
 20
-1.094
 11
9.055
 21
-1.094
  0
LINE
  5
256
100
AcDbEntity
  8
0
100
AcDbLine
 62
2
  6
CONTINUOUS
 10
0.0
 20
-1.344
 11
9.055
 21
-1.344
  0
LINE
  5
257
100
AcDbEntity
  8
0
100
AcDbLine
 62
2
  6
CONTINUOUS
 10
0.0
 20
-1.594
 11
9.055
 21
-1.594
  0
LINE
  5
258
100
AcDbEntity
  8
0
100
AcDbLine
 62
2
  6
CONTINUOUS
 10
0.0
 20
-1.844
 11
9.055
 21
-1.844
  0
LINE
  5
259
100
AcDbEntity
  8
0
100
AcDbLine
 62
2
  6
CONTINUOUS
 10
0.0
 20
-2.094
 11
9.055
 21
-2.094
  0
LINE
  5
25A
100
AcDbEntity
  8
0
100
AcDbLine
 62
2
  6
CONTINUOUS
 10
0.0
 20
-2.344
 11
9.055
 21
-2.344
  0
LINE
  5
25B
100
AcDbEntity
  8
0
100
AcDbLine
 62
2
  6
CONTINUOUS
 10
0.0
 20
-2.594
 11
9.055
 21
-2.594
  0
LINE
  5
25C
100
AcDbEntity
  8
0
100
AcDbLine
 62
2
  6
CONTINUOUS
 10
0.0
 20
-2.844
 11
9.055
 21
-2.844
  0
LINE
  5
25D
100
AcDbEntity
  8
0
100
AcDbLine
 62
2
  6
CONTINUOUS
 10
3.055
 20
0.0
 11
3.055
 21
-2.844
  0
LINE
  5
25E
100
AcDbEntity
  8
0
100
AcDbLine
 62
2
  6
CONTINUOUS
 10
9.055
 20
0.0
 11
9.055
 21
-2.844
  0
MTEXT
  5
25F
100
AcDbEntity
  8
0
100
AcDbMText
 62
2
  6
CONTINUOUS
  7
STANDARD
 71
2
 72
1
 10
1.5275
 20
-0.0995
 30
0.0
 11
1.0
 21
0.0
 31
0.0
 44
0.9
  1
Technical Data
 40
0.145
 41
3.248
  0
MTEXT
  5
260
100
AcDbEntity
  8
0
100
AcDbMText
 62
2
  6
CONTINUOUS
  7
STANDARD
 71
2
 72
1
 10
4.555
 20
-0.0995
 30
0.0
 11
1.0
 21
0.0
 31
0.0
 44
0.9
  1
U.S. Units
 40
0.145
 41
2.32
  0
MTEXT
  5
261
100
AcDbEntity
  8
0
100
AcDbMText
 62
2
  6
CONTINUOUS
  7
STANDARD
 71
2
 72
1
 10
7.555
 20
-0.0995
 30
0.0
 11
1.0
 21
0.0
 31
0.0
 44
0.9
  1
Metric Units
 40
0.145
 41
2.784
  0
MTEXT
  5
262
100
AcDbEntity
  8
0
100
AcDbMText
 62
2
  6
CONTINUOUS
  7
STANDARD
 71
2
 72
1
 10
1.5275
 20
-0.4065
 30
0.0
 11
1.0
 21
0.0
 31
0.0
 44
0.9
  1
Cavity
 40
0.125
 41
1.2
  0
MTEXT
  5
263
100
AcDbEntity
  8
0
100
AcDbMText
 62
2
  6
CONTINUOUS
  7
STANDARD
 71
2
 72
1
 10
6.055
 20
-0.4065
 30
0.0
 11
1.0
 21
0.0
 31
0.0
 44
0.9
  1
T-3A
 40
0.125
 41
0.8
  0
MTEXT
  5
264
100
AcDbEntity
  8
0
100
AcDbMText
 62
2
  6
CONTINUOUS
  7
STANDARD
 71
2
 72
1
 10
1.5275
 20
-0.6565
 30
0.0
 11
1.0
 21
0.0
 31
0.0
 44
0.9
  1
Body Features
 40
0.125
 41
2.6
  0
MTEXT
  5
265
100
AcDbEntity
  8
0
100
AcDbMText
 62
2
  6
CONTINUOUS
  7
STANDARD
 71
2
 72
1
 10
6.055
 20
-0.6565
 30
0.0
 11
1.0
 21
0.0
 31
0.0
 44
0.9
  1
Cross port with make up checks
 40
0.125
 41
6.0
  0
MTEXT
  5
266
100
AcDbEntity
  8
0
100
AcDbMText
 62
2
  6
CONTINUOUS
  7
STANDARD
 71
2
 72
1
 10
1.5275
 20
-0.9065
 30
0.0
 11
1.0
 21
0.0
 31
0.0
 44
0.9
  1
Body Type
 40
0.125
 41
1.8
  0
MTEXT
  5
267
100
AcDbEntity
  8
0
100
AcDbMText
 62
2
  6
CONTINUOUS
  7
STANDARD
 71
2
 72
1
 10
6.055
 20
-0.9065
 30
0.0
 11
1.0
 21
0.0
 31
0.0
 44
0.9
  1
Line mount
 40
0.125
 41
2.0
  0
MTEXT
  5
268
100
AcDbEntity
  8
0
100
AcDbMText
 62
2
  6
CONTINUOUS
  7
STANDARD
 71
2
 72
1
 10
1.5275
 20
-1.1565
 30
0.0
 11
1.0
 21
0.0
 31
0.0
 44
0.9
  1
Interface
 40
0.125
 41
1.8
  0
MTEXT
  5
269
100
AcDbEntity
  8
0
100
AcDbMText
 62
2
  6
CONTINUOUS
  7
STANDARD
 71
2
 72
1
 10
6.055
 20
-1.1565
 30
0.0
 11
1.0
 21
0.0
 31
0.0
 44
0.9
  1
None
 40
0.125
 41
0.8
  0
MTEXT
  5
26A
100
AcDbEntity
  8
0
100
AcDbMText
 62
2
  6
CONTINUOUS
  7
STANDARD
 71
2
 72
1
 10
1.5275
 20
-1.4065
 30
0.0
 11
1.0
 21
0.0
 31
0.0
 44
0.9
  1
Open Cavity Quantity
 40
0.125
 41
4.0
  0
MTEXT
  5
26B
100
AcDbEntity
  8
0
100
AcDbMText
 62
2
  6
CONTINUOUS
  7
STANDARD
 71
2
 72
1
 10
6.055
 20
-1.4065
 30
0.0
 11
1.0
 21
0.0
 31
0.0
 44
0.9
  1
2
 40
0.125
 41
0.2
  0
MTEXT
  5
26C
100
AcDbEntity
  8
0
100
AcDbMText
 62
2
  6
CONTINUOUS
  7
STANDARD
 71
2
 72
1
 10
1.5275
 20
-1.6565
 30
0.0
 11
1.0
 21
0.0
 31
0.0
 44
0.9
  1
Weight
 40
0.125
 41
1.2
  0
MTEXT
  5
26D
100
AcDbEntity
  8
0
100
AcDbMText
 62
2
  6
CONTINUOUS
  7
STANDARD
 71
2
 72
1
 10
4.555
 20
-1.6565
 30
0.0
 11
1.0
 21
0.0
 31
0.0
 44
0.9
  1
3.860 lb.
 40
0.125
 41
1.8
  0
MTEXT
  5
26E
100
AcDbEntity
  8
0
100
AcDbMText
 62
2
  6
CONTINUOUS
  7
STANDARD
 71
2
 72
1
 10
7.555
 20
-1.6565
 30
0.0
 11
1.0
 21
0.0
 31
0.0
 44
0.9
  1
1,751 kg.
 40
0.125
 41
1.8
  0
MTEXT
  5
26F
100
AcDbEntity
  8
0
100
AcDbMText
 62
2
  6
CONTINUOUS
  7
STANDARD
 71
2
 72
1
 10
1.5275
 20
-1.9065
 30
0.0
 11
1.0
 21
0.0
 31
0.0
 44
0.9
  1
Mounting Hole Diameter
 40
0.125
 41
4.4
  0
MTEXT
  5
270
100
AcDbEntity
  8
0
100
AcDbMText
 62
2
  6
CONTINUOUS
  7
STANDARD
 71
2
 72
1
 10
4.555
 20
-1.9065
 30
0.0
 11
1.0
 21
0.0
 31
0.0
 44
0.9
  1
.34 in.
 40
0.125
 41
1.4
  0
MTEXT
  5
271
100
AcDbEntity
  8
0
100
AcDbMText
 62
2
  6
CONTINUOUS
  7
STANDARD
 71
2
 72
1
 10
7.555
 20
-1.9065
 30
0.0
 11
1.0
 21
0.0
 31
0.0
 44
0.9
  1
8.6 mm
 40
0.125
 41
1.2
  0
MTEXT
  5
272
100
AcDbEntity
  8
0
100
AcDbMText
 62
2
  6
CONTINUOUS
  7
STANDARD
 71
2
 72
1
 10
1.5275
 20
-2.1565
 30
0.0
 11
1.0
 21
0.0
 31
0.0
 44
0.9
  1
Mounting Hole Depth
 40
0.125
 41
3.8
  0
MTEXT
  5
273
100
AcDbEntity
  8
0
100
AcDbMText
 62
2
  6
CONTINUOUS
  7
STANDARD
 71
2
 72
1
 10
6.055
 20
-2.1565
 30
0.0
 11
1.0
 21
0.0
 31
0.0
 44
0.9
  1
Through
 40
0.125
 41
1.4
  0
MTEXT
  5
274
100
AcDbEntity
  8
0
100
AcDbMText
 62
2
  6
CONTINUOUS
  7
STANDARD
 71
2
 72
1
 10
1.5275
 20
-2.4065
 30
0.0
 11
1.0
 21
0.0
 31
0.0
 44
0.9
  1
Mounting Hole Quantity
 40
0.125
 41
4.4
  0
MTEXT
  5
275
100
AcDbEntity
  8
0
100
AcDbMText
 62
2
  6
CONTINUOUS
  7
STANDARD
 71
2
 72
1
 10
6.055
 20
-2.4065
 30
0.0
 11
1.0
 21
0.0
 31
0.0
 44
0.9
  1
2
 40
0.125
 41
0.2
  0
MTEXT
  5
276
100
AcDbEntity
  8
0
100
AcDbMText
 62
2
  6
CONTINUOUS
  7
STANDARD
 71
2
 72
1
 10
1.5275
 20
-2.6565
 30
0.0
 11
1.0
 21
0.0
 31
0.0
 44
0.9
  1
Includes integral cartridge(s)
 40
0.125
 41
6.0
  0
MTEXT
  5
277
100
AcDbEntity
  8
0
100
AcDbMText
 62
2
  6
CONTINUOUS
  7
STANDARD
 71
2
 72
1
 10
6.055
 20
-2.6565
 30
0.0
 11
1.0
 21
0.0
 31
0.0
 44
0.9
  1
Yes (see Included Components)
 40
0.125
 41
5.8
  0
ENDBLK
  5
278
100
AcDbEntity
  8
0
  6
BYBLOCK
 62
0
100
AcDbBlockEnd
  0
BLOCK
  5
279
100
AcDbEntity
  8
0
100
AcDbBlockBegin
  2
*T3
 70
1
 10
0.0
 20
0.0
  3
*T3
  1

  0
LINE
  5
27A
100
AcDbEntity
  8
0
100
AcDbLine
 62
2
  6
CONTINUOUS
 10
0.0
 20
0.0
 11
4.6
 21
0.0
  0
LINE
  5
27B
100
AcDbEntity
  8
0
100
AcDbLine
 62
2
  6
CONTINUOUS
 10
0.0
 20
0.0
 11
0.0
 21
-0.93775
  0
LINE
  5
27C
100
AcDbEntity
  8
0
100
AcDbLine
 62
2
  6
CONTINUOUS
 10
0.0
 20
-0.34375
 11
4.6
 21
-0.34375
  0
LINE
  5
27D
100
AcDbEntity
  8
0
100
AcDbLine
 62
2
  6
CONTINUOUS
 10
0.0
 20
-0.68775
 11
4.6
 21
-0.68775
  0
LINE
  5
27E
100
AcDbEntity
  8
0
100
AcDbLine
 62
2
  6
CONTINUOUS
 10
0.0
 20
-0.93775
 11
4.6
 21
-0.93775
  0
LINE
  5
27F
100
AcDbEntity
  8
0
100
AcDbLine
 62
2
  6
CONTINUOUS
 10
1.3
 20
-0.34375
 11
1.3
 21
-0.93775
  0
LINE
  5
280
100
AcDbEntity
  8
0
100
AcDbLine
 62
2
  6
CONTINUOUS
 10
3.3
 20
-0.34375
 11
3.3
 21
-0.93775
  0
LINE
  5
281
100
AcDbEntity
  8
0
100
AcDbLine
 62
2
  6
CONTINUOUS
 10
4.6
 20
0.0
 11
4.6
 21
-0.93775
  0
MTEXT
  5
282
100
AcDbEntity
  8
0
100
AcDbMText
 62
2
  6
CONTINUOUS
  7
STANDARD
 71
2
 72
1
 10
2.3
 20
-0.099375
 30
0.0
 11
1.0
 21
0.0
 31
0.0
 44
0.9
  1
Port Headings
 40
0.145
 41
3.016
  0
MTEXT
  5
283
100
AcDbEntity
  8
0
100
AcDbMText
 62
2
  6
CONTINUOUS
  7
STANDARD
 71
2
 72
1
 10
0.65
 20
-0.44325
 30
0.0
 11
1.0
 21
0.0
 31
0.0
 44
0.9
  1
Product
 40
0.145
 41
1.624
  0
MTEXT
  5
284
100
AcDbEntity
  8
0
100
AcDbMText
 62
2
  6
CONTINUOUS
  7
STANDARD
 71
2
 72
1
 10
2.3
 20
-0.44325
 30
0.0
 11
1.0
 21
0.0
 31
0.0
 44
0.9
  1
Port
 40
0.145
 41
0.928
  0
MTEXT
  5
285
100
AcDbEntity
  8
0
100
AcDbMText
 62
2
  6
CONTINUOUS
  7
STANDARD
 71
2
 72
1
 10
3.95
 20
-0.44325
 30
0.0
 11
1.0
 21
0.0
 31
0.0
 44
0.9
  1
Size
 40
0.145
 41
0.928
  0
MTEXT
  5
286
100
AcDbEntity
  8
0
100
AcDbMText
 62
2
  6
CONTINUOUS
  7
STANDARD
 71
2
 72
1
 10
0.65
 20
-0.75025
 30
0.0
 11
1.0
 21
0.0
 31
0.0
 44
0.9
  1
CML
 40
0.125
 41
0.6
  0
MTEXT
  5
287
100
AcDbEntity
  8
0
100
AcDbMText
 62
2
  6
CONTINUOUS
  7
STANDARD
 71
2
 72
1
 10
2.3
 20
-0.75025
 30
0.0
 11
1.0
 21
0.0
 31
0.0
 44
0.9
  1
All Ports
 40
0.125
 41
1.8
  0
MTEXT
  5
288
100
AcDbEntity
  8
0
100
AcDbMText
 62
2
  6
CONTINUOUS
  7
STANDARD
 71
2
 72
1
 10
3.95
 20
-0.75025
 30
0.0
 11
1.0
 21
0.0
 31
0.0
 44
0.9
  1
SAE 12
 40
0.125
 41
1.2
  0
ENDBLK
  5
289
100
AcDbEntity
  8
0
  6
BYBLOCK
 62
0
100
AcDbBlockEnd
  0
ENDSEC
  0
SECTION
  2
ENTITIES
  0
IMAGE
  5
28A
100
AcDbEntity
  8
0
100
AcDbRasterImage
 62
7
  6
CONTINUOUS
 10
19.2297077316
 20
0.3094318264
 30
0.0
 11
0.0066666667
 21
0.0
 31
0.0
 12
0.0
 22
0.0066666667
 32
0.0
 13
369.0
 23
92.0
340
       392
 70
9
280
0
281
50
282
50
283
0
360
       38C
 71
1
 91
2
 14
-0.5
 24
-0.5
 14
368.5
 24
91.5
  0
INSERT
  5
28B
100
AcDbEntity
  8
0
100
AcDbBlockReference
 62
2
  6
CONTINUOUS
  2
SUN_FIRST_THIRD_ANGLE_BL0
 10
20.4816717061
 20
1.2289683772
  0
ACAD_TABLE
  5
28C
100
AcDbEntity
  8
0
 62
2
  6
CONTINUOUS
100
AcDbBlockReference
  2
*T1
 10
12.42375
 20
0.30125
 30
0.0
100
AcDbTable
342
       394
343
20F
 11
1.0
 21
0.0
 31
0.0
 90
6
 91
4
 92
6
 93
20
 94
0
 95
0
 96
0
 70
1
 41
0.0
141
0.525
141
0.1
141
0.525
141
0.1
142
4.1
142
1.1
142
0.7
142
0.5
142
0.4
142
2.475
171
1
172
0
173
0
174
0
175
1
176
1
 91
33
178
0
145
0.0
301
CELL_VALUE
 90
4
  1
T-3A Line mount\PCross port with make up checks
304
ACVALUE_END
170
2
140
0.125
171
1
172
0
173
0
174
0
175
1
176
1
 91
33
178
0
145
0.0
301
CELL_VALUE
 90
4
  1
Aug-01-23
304
ACVALUE_END
170
5
140
0.125
171
1
172
0
173
0
174
0
175
1
176
1
 91
33
178
0
145
0.0
301
CELL_VALUE
 90
4
  1
1.000
304
ACVALUE_END
170
5
140
0.125
171
1
172
0
173
0
174
0
175
1
176
1
 91
33
178
0
145
0.0
301
CELL_VALUE
 90
4
  1
C
304
ACVALUE_END
170
5
140
0.125
171
1
172
0
173
0
174
0
175
1
176
1
 91
33
178
0
145
0.0
301
CELL_VALUE
 90
4
  1
2
304
ACVALUE_END
170
5
140
0.125
171
1
172
0
173
0
174
0
175
1
176
1
 91
33
178
0
145
0.0
301
CELL_VALUE
 90
4
  1
 
304
ACVALUE_END
170
1
140
0.125
171
1
172
0
173
0
174
0
175
1
176
1
 91
33
178
0
145
0.0
301
CELL_VALUE
 90
4
  1
DESCRIPTION
304
ACVALUE_END
170
1
140
0.06
171
1
172
0
173
0
174
0
175
1
176
1
 91
33
178
0
145
0.0
301
CELL_VALUE
 90
4
  1
DATE
304
ACVALUE_END
170
1
140
0.06
171
1
172
0
173
0
174
0
175
1
176
1
 91
33
178
0
145
0.0
301
CELL_VALUE
 90
4
  1
SCALE
304
ACVALUE_END
170
1
140
0.06
171
1
172
0
173
0
174
0
175
1
176
1
 91
33
178
0
145
0.0
301
CELL_VALUE
 90
4
  1
DWG SIZE
304
ACVALUE_END
170
1
140
0.06
171
1
172
0
173
0
174
0
175
1
176
1
 91
33
178
0
145
0.0
301
CELL_VALUE
 90
4
  1
SHEET
304
ACVALUE_END
170
1
140
0.06
171
1
172
0
173
0
174
0
175
1
176
1
 91
33
178
0
145
0.0
301
CELL_VALUE
 90
4
  1
 
304
ACVALUE_END
170
1
140
0.125
171
1
172
0
173
0
174
0
175
1
176
1
 91
33
178
0
145
0.0
301
CELL_VALUE
 90
4
  1
CML
304
ACVALUE_END
170
5
140
0.125
171
1
172
0
173
0
174
0
175
4
176
1
 91
33
178
0
145
0.0
301
CELL_VALUE
 90
4
  1
ALL DIMENSIONS IN INCH\PVIEWS ARE THIRD ANGLE
304
ACVALUE_END
170
5
140
0.12
171
1
172
0
173
1
174
0
175
1
176
1
 91
1
178
0
145
0.0
170
1
171
1
172
0
173
1
174
0
175
1
176
1
 91
1
178
0
145
0.0
170
1
171
1
172
0
173
1
174
0
175
1
176
1
 91
1
178
0
145
0.0
170
5
171
1
172
0
173
0
174
0
175
1
176
1
 91
33
178
0
145
0.0
301
CELL_VALUE
 90
4
  1
 
304
ACVALUE_END
170
1
140
0.125
171
1
172
0
173
0
174
0
175
1
176
1
 91
33
178
0
145
0.0
301
CELL_VALUE
 90
4
  1
MODEL
304
ACVALUE_END
170
1
140
0.06
171
1
172
0
173
0
174
0
175
1
176
1
 91
33
178
0
145
0.0
301
CELL_VALUE
 90
4
  1
 
304
ACVALUE_END
170
1
140
0.125
171
1
172
0
173
0
174
0
175
1
176
1
 91
33
178
0
145
0.0
301
CELL_VALUE
 90
4
  1
 
304
ACVALUE_END
170
1
140
0.125
171
1
172
0
173
0
174
0
175
1
176
1
 91
33
178
0
145
0.0
301
CELL_VALUE
 90
4
  1
 
304
ACVALUE_END
170
1
140
0.125
171
1
172
0
173
0
174
0
175
1
176
1
 91
33
178
0
145
0.0
301
CELL_VALUE
 90
4
  1
 
304
ACVALUE_END
170
1
140
0.125
171
1
172
0
173
0
174
0
175
1
176
1
 91
33
178
0
145
0.0
301
CELL_VALUE
 90
4
  1
 
304
ACVALUE_END
170
1
140
0.125
  0
ACAD_TABLE
  5
28D
100
AcDbEntity
  8
0
 62
2
  6
CONTINUOUS
100
AcDbBlockReference
  2
*T2
 10
12.4237499994
 20
16.47875
 30
0.0
100
AcDbTable
342
       393
343
210
 11
1.0
 21
0.0
 31
0.0
 90
22
 91
11
 92
3
 93
16
 94
0
 95
0
 96
0
 41
0.028
141
0.344
141
0.25
141
0.25
141
0.25
141
0.25
141
0.25
141
0.25
141
0.25
141
0.25
141
0.25
141
0.25
142
3.055
142
3.0
142
3.0
171
1
172
0
173
0
174
0
175
1
176
1
 91
33
178
0
145
0.0
301
CELL_VALUE
 90
4
  1
Technical Data
304
ACVALUE_END
170
5
140
0.145
171
1
172
0
173
0
174
0
175
1
176
1
 91
33
178
0
145
0.0
301
CELL_VALUE
 90
4
  1
U.S. Units
304
ACVALUE_END
170
5
140
0.145
171
1
172
0
173
0
174
0
175
1
176
1
 91
33
178
0
145
0.0
301
CELL_VALUE
 90
4
  1
Metric Units
304
ACVALUE_END
170
5
140
0.145
171
1
172
0
173
0
174
0
175
1
176
1
 91
33
178
0
145
0.0
301
CELL_VALUE
 90
4
  1
Cavity
304
ACVALUE_END
170
5
140
0.125
171
1
172
0
173
0
174
0
175
2
176
1
 91
33
178
0
145
0.0
301
CELL_VALUE
 90
4
  1
T-3A
304
ACVALUE_END
170
5
140
0.125
171
1
172
0
173
1
174
0
175
1
176
1
 91
1
178
0
145
0.0
170
1
171
1
172
0
173
0
174
0
175
1
176
1
 91
33
178
0
145
0.0
301
CELL_VALUE
 90
4
  1
Body Features
304
ACVALUE_END
170
5
140
0.125
171
1
172
0
173
0
174
0
175
2
176
1
 91
33
178
0
145
0.0
301
CELL_VALUE
 90
4
  1
Cross port with make up checks
304
ACVALUE_END
170
5
140
0.125
171
1
172
0
173
1
174
0
175
1
176
1
 91
1
178
0
145
0.0
170
1
171
1
172
0
173
0
174
0
175
1
176
1
 91
33
178
0
145
0.0
301
CELL_VALUE
 90
4
  1
Body Type
304
ACVALUE_END
170
5
140
0.125
171
1
172
0
173
0
174
0
175
2
176
1
 91
33
178
0
145
0.0
301
CELL_VALUE
 90
4
  1
Line mount
304
ACVALUE_END
170
5
140
0.125
171
1
172
0
173
1
174
0
175
1
176
1
 91
1
178
0
145
0.0
170
1
171
1
172
0
173
0
174
0
175
1
176
1
 91
33
178
0
145
0.0
301
CELL_VALUE
 90
4
  1
Interface
304
ACVALUE_END
170
5
140
0.125
171
1
172
0
173
0
174
0
175
2
176
1
 91
33
178
0
145
0.0
301
CELL_VALUE
 90
4
  1
None
304
ACVALUE_END
170
5
140
0.125
171
1
172
0
173
1
174
0
175
1
176
1
 91
1
178
0
145
0.0
170
1
171
1
172
0
173
0
174
0
175
1
176
1
 91
33
178
0
145
0.0
301
CELL_VALUE
 90
4
  1
Open Cavity Quantity
304
ACVALUE_END
170
5
140
0.125
171
1
172
0
173
0
174
0
175
2
176
1
 91
33
178
0
145
0.0
301
CELL_VALUE
 90
4
  1
2
304
ACVALUE_END
170
5
140
0.125
171
1
172
0
173
1
174
0
175
1
176
1
 91
1
178
0
145
0.0
170
1
171
1
172
0
173
0
174
0
175
1
176
1
 91
33
178
0
145
0.0
301
CELL_VALUE
 90
4
  1
Weight
304
ACVALUE_END
170
5
140
0.125
171
1
172
0
173
0
174
0
175
1
176
1
 91
33
178
0
145
0.0
301
CELL_VALUE
 90
4
  1
3.860 lb.
304
ACVALUE_END
170
5
140
0.125
171
1
172
0
173
0
174
0
175
1
176
1
 91
33
178
0
145
0.0
301
CELL_VALUE
 90
4
  1
1,751 kg.
304
ACVALUE_END
170
5
140
0.125
171
1
172
0
173
0
174
0
175
1
176
1
 91
33
178
0
145
0.0
301
CELL_VALUE
 90
4
  1
Mounting Hole Diameter
304
ACVALUE_END
170
5
140
0.125
171
1
172
0
173
0
174
0
175
1
176
1
 91
33
178
0
145
0.0
301
CELL_VALUE
 90
4
  1
.34 in.
304
ACVALUE_END
170
5
140
0.125
171
1
172
0
173
0
174
0
175
1
176
1
 91
33
178
0
145
0.0
301
CELL_VALUE
 90
4
  1
8.6 mm
304
ACVALUE_END
170
5
140
0.125
171
1
172
0
173
0
174
0
175
1
176
1
 91
33
178
0
145
0.0
301
CELL_VALUE
 90
4
  1
Mounting Hole Depth
304
ACVALUE_END
170
5
140
0.125
171
1
172
0
173
0
174
0
175
2
176
1
 91
33
178
0
145
0.0
301
CELL_VALUE
 90
4
  1
Through
304
ACVALUE_END
170
5
140
0.125
171
1
172
0
173
1
174
0
175
1
176
1
 91
1
178
0
145
0.0
170
1
171
1
172
0
173
0
174
0
175
1
176
1
 91
33
178
0
145
0.0
301
CELL_VALUE
 90
4
  1
Mounting Hole Quantity
304
ACVALUE_END
170
5
140
0.125
171
1
172
0
173
0
174
0
175
2
176
1
 91
33
178
0
145
0.0
301
CELL_VALUE
 90
4
  1
2
304
ACVALUE_END
170
5
140
0.125
171
1
172
0
173
1
174
0
175
1
176
1
 91
1
178
0
145
0.0
170
1
171
1
172
0
173
0
174
0
175
1
176
1
 91
33
178
0
145
0.0
301
CELL_VALUE
 90
4
  1
Includes integral cartridge(s)
304
ACVALUE_END
170
5
140
0.125
171
1
172
0
173
0
174
0
175
2
176
1
 91
33
178
0
145
0.0
301
CELL_VALUE
 90
4
  1
Yes (see Included Components)
304
ACVALUE_END
170
5
140
0.125
171
1
172
0
173
1
174
0
175
1
176
1
 91
1
178
0
145
0.0
170
1
  0
ACAD_TABLE
  5
28E
100
AcDbEntity
  8
0
 62
2
  6
CONTINUOUS
100
AcDbBlockReference
  2
*T3
 10
0.52125
 20
1.459
 30
0.0
100
AcDbTable
342
       393
343
211
 11
1.0
 21
0.0
 31
0.0
 90
22
 91
3
 92
3
 93
16
 94
0
 95
0
 96
0
 41
0.05
141
0.34375
141
0.344
141
0.25
142
1.3
142
2.0
142
1.3
171
1
172
0
173
0
174
0
175
3
176
1
 91
33
178
0
145
0.0
301
CELL_VALUE
 90
4
  1
Port Headings
304
ACVALUE_END
170
5
140
0.145
171
1
172
0
173
1
174
0
175
1
176
1
 91
1
178
0
145
0.0
170
1
171
1
172
0
173
1
174
0
175
1
176
1
 91
1
178
0
145
0.0
170
1
171
1
172
0
173
0
174
0
175
1
176
1
 91
33
178
0
145
0.0
301
CELL_VALUE
 90
4
  1
Product
304
ACVALUE_END
170
5
140
0.145
171
1
172
0
173
0
174
0
175
1
176
1
 91
33
178
0
145
0.0
301
CELL_VALUE
 90
4
  1
Port
304
ACVALUE_END
170
5
140
0.145
171
1
172
0
173
0
174
0
175
1
176
1
 91
33
178
0
145
0.0
301
CELL_VALUE
 90
4
  1
Size
304
ACVALUE_END
170
5
140
0.145
171
1
172
0
173
0
174
0
175
1
176
1
 91
33
178
0
145
0.0
301
CELL_VALUE
 90
4
  1
CML
304
ACVALUE_END
170
5
140
0.125
171
1
172
0
173
0
174
0
175
1
176
1
 91
33
178
0
145
0.0
301
CELL_VALUE
 90
4
  1
All Ports
304
ACVALUE_END
170
5
140
0.125
171
1
172
0
173
0
174
0
175
1
176
1
 91
33
178
0
145
0.0
301
CELL_VALUE
 90
4
  1
SAE 12
304
ACVALUE_END
170
5
140
0.125
  0
MTEXT
  5
28F
100
AcDbEntity
  8
0
100
AcDbMText
 62
2
  6
CONTINUOUS
  7
STANDARD
 71
1
 72
1
 10
0.52125
 20
5.75995
 30
0.0
 11
1.0
 21
0.0
 31
0.0
 44
0.6
  3
Notes\P \P1. Important: Carefully consider\P   the maximum system pressure. The\P   pressure rating of the manifold is\P   dependent on the manifold material,\P   with the port type/size a secondary\P   consideration. Manifolds\P   constructed of alu
  3
minum are not\P   rated for pressures higher than\P   3000 psi (210 bar), regardless of\P   the port type/size specified.\P2. This drawing is for reference\P   only. It is generated by an\P   automated process and does not fall\P   under Sun's docume
  1
nt control\P   process.
 40
0.1
 41
3.04
  0
LINE
  5
290
100
AcDbEntity
  8
0
100
AcDbLine
 62
7
  6
CONTINUOUS
 10
0.30125
 20
0.30125
 11
0.30125
 21
16.69875
  0
LINE
  5
291
100
AcDbEntity
  8
0
100
AcDbLine
 62
7
  6
CONTINUOUS
 10
0.30125
 20
0.30125
 11
21.69875
 21
0.30125
  0
LINE
  5
292
100
AcDbEntity
  8
0
100
AcDbLine
 62
7
  6
CONTINUOUS
 10
0.30125
 20
16.69875
 11
21.69875
 21
16.69875
  0
LINE
  5
293
100
AcDbEntity
  8
0
100
AcDbLine
 62
7
  6
CONTINUOUS
 10
21.69875
 20
0.30125
 11
21.69875
 21
16.69875
  0
LINE
  5
294
100
AcDbEntity
  8
0
100
AcDbLine
 62
7
  6
CONTINUOUS
 10
8.796326381
 20
9.8742849087
 11
9.4391819146
 21
10.495235708
  0
LINE
  5
295
100
AcDbEntity
  8
0
100
AcDbLine
 62
7
  6
CONTINUOUS
 10
9.5443632357
 20
10.5968330686
 11
9.7021922912
 21
10.7492842384
  0
LINE
  5
296
100
AcDbEntity
  8
0
100
AcDbLine
 62
7
  6
CONTINUOUS
 10
9.4700915436
 20
10.493092118
 11
9.5752728647
 21
10.5946894785
  0
LINE
  5
297
100
AcDbEntity
  8
0
100
AcDbLine
 62
7
  6
CONTINUOUS
 10
8.796326381
 20
6.4935443164
 11
8.796326381
 21
9.8742849087
  0
LINE
  5
298
100
AcDbEntity
  8
0
100
AcDbLine
 62
4
  6
CONTINUOUS
 10
8.9243115604
 20
9.1399988649
 11
8.9170671164
 21
9.1115234929
  0
LINE
  5
299
100
AcDbEntity
  8
0
100
AcDbLine
 62
4
  6
CONTINUOUS
 10
8.9170671164
 20
9.2081160768
 11
8.9243115604
 21
9.2172729361
  0
LINE
  5
29A
100
AcDbEntity
  8
0
100
AcDbLine
 62
7
  6
CONTINUOUS
 10
12.2978077088
 20
6.2507157616
 11
8.796326381
 21
6.4935443164
  0
LINE
  5
29B
100
AcDbEntity
  8
0
100
AcDbLine
 62
4
  6
CONTINUOUS
 10
8.9750226681
 20
9.2040968456
 11
8.9750226681
 21
9.184778333
  0
LINE
  5
29C
100
AcDbEntity
  8
0
100
AcDbLine
 62
4
  6
CONTINUOUS
 10
8.9750226681
 20
7.3514509228
 11
8.9750226681
 21
7.2355398193
  0
LINE
  5
29D
100
AcDbEntity
  8
0
100
AcDbLine
 62
4
  6
CONTINUOUS
 10
8.9388004483
 20
9.1583125731
 11
8.9243115604
 21
9.1399988649
  0
LINE
  5
29E
100
AcDbEntity
  8
0
100
AcDbLine
 62
4
  6
CONTINUOUS
 10
8.9750226681
 20
9.184778333
 11
8.9677782242
 21
9.1756214737
  0
LINE
  5
29F
100
AcDbEntity
  8
0
100
AcDbLine
 62
4
  6
CONTINUOUS
 10
10.5475499733
 20
6.6087483866
 11
10.6199944129
 21
6.6037243477
  0
LINE
  5
2A0
100
AcDbEntity
  8
0
100
AcDbLine
 62
4
  6
CONTINUOUS
 10
9.3333811722
 20
9.4120326437
 11
9.3333811722
 21
9.3540770907
  0
LINE
  5
2A1
100
AcDbEntity
  8
0
100
AcDbLine
 62
4
  6
CONTINUOUS
 10
8.9243115604
 20
9.2172729361
 11
8.9388004483
 21
9.2259273846
  0
LINE
  5
2A2
100
AcDbEntity
  8
0
100
AcDbLine
 62
4
  6
CONTINUOUS
 10
9.3913367252
 20
9.3500578594
 11
9.3913367252
 21
9.2921023064
  0
LINE
  5
2A3
100
AcDbEntity
  8
0
100
AcDbLine
 62
4
  6
CONTINUOUS
 10
9.4203145017
 20
9.2900926908
 11
9.4203145017
 21
9.4060037968
  0
LINE
  5
2A4
100
AcDbEntity
  8
0
100
AcDbLine
 62
4
  6
CONTINUOUS
 10
9.4676448758
 20
8.6956636775
 11
9.4676448758
 21
8.8115747835
  0
LINE
  5
2A5
100
AcDbEntity
  8
0
100
AcDbLine
 62
4
  6
CONTINUOUS
 10
9.4782700547
 20
9.4019845656
 11
9.4782700547
 21
9.2860734595
  0
LINE
  5
2A6
100
AcDbEntity
  8
0
100
AcDbLine
 62
4
  6
CONTINUOUS
 10
9.5072478313
 20
9.3999749499
 11
9.5072478313
 21
9.2840638439
  0
LINE
  5
2A7
100
AcDbEntity
  8
0
100
AcDbLine
 62
4
  6
CONTINUOUS
 10
9.5256004219
 20
8.7909968243
 11
9.5256004219
 21
8.7082031769
  0
LINE
  5
2A8
100
AcDbEntity
  8
0
100
AcDbLine
 62
4
  6
CONTINUOUS
 10
8.9677782242
 20
9.1756214737
 11
8.9388004483
 21
9.1583125731
  0
LINE
  5
2A9
100
AcDbEntity
  8
0
100
AcDbLine
 62
7
  6
CONTINUOUS
 10
12.940663361
 20
6.8716666754
 11
12.937420785
 21
6.8717872917
  0
LINE
  5
2AA
100
AcDbEntity
  8
0
100
AcDbLine
 62
7
  6
CONTINUOUS
 10
12.940663361
 20
6.8716666754
 11
12.9359278026
 21
6.8719950875
  0
LINE
  5
2AB
100
AcDbEntity
  8
0
100
AcDbLine
 62
4
  6
CONTINUOUS
 10
9.5652033843
 20
9.3959557187
 11
9.5652033843
 21
9.2800446127
  0
LINE
  5
2AC
100
AcDbEntity
  8
0
100
AcDbLine
 62
4
  6
CONTINUOUS
 10
9.6811144903
 20
9.2720061502
 11
9.6811144903
 21
9.3879172562
  0
LINE
  5
2AD
100
AcDbEntity
  8
0
100
AcDbLine
 62
4
  6
CONTINUOUS
 10
9.704986664
 20
8.6792039686
 11
9.704986664
 21
8.7951150746
  0
LINE
  5
2AE
100
AcDbEntity
  8
0
100
AcDbLine
 62
4
  6
CONTINUOUS
 10
9.7390700433
 20
9.2679869189
 11
9.7390700433
 21
9.3259424719
  0
LINE
  5
2AF
100
AcDbEntity
  8
0
100
AcDbLine
 62
4
  6
CONTINUOUS
 10
9.7643221027
 20
8.9466522053
 11
9.7643221027
 21
9.0294458528
  0
LINE
  5
2B0
100
AcDbEntity
  8
0
100
AcDbLine
 62
4
  6
CONTINUOUS
 10
9.5725168226
 20
8.6883907833
 11
9.6056342795
 21
8.8020051859
  0
LINE
  5
2B1
100
AcDbEntity
  8
0
100
AcDbLine
 62
7
  6
CONTINUOUS
 10
13.0458444449
 20
6.9732638068
 11
13.0149348159
 21
6.9754073969
  0
LINE
  5
2B2
100
AcDbEntity
  8
0
100
AcDbLine
 62
4
  6
CONTINUOUS
 10
8.9677782242
 20
9.2142585127
 11
8.9750226681
 21
9.2040968456
  0
LINE
  5
2B3
100
AcDbEntity
  8
0
100
AcDbLine
 62
4
  6
CONTINUOUS
 10
9.6056342795
 20
8.8020051859
 11
9.6387517502
 21
8.6837973754
  0
LINE
  5
2B4
100
AcDbEntity
  8
0
100
AcDbLine
 62
4
  6
CONTINUOUS
 10
9.7712215778
 20
8.6746105617
 11
9.7712215778
 21
8.7905216677
  0
LINE
  5
2B5
100
AcDbEntity
  8
0
100
AcDbLine
 62
4
  6
CONTINUOUS
 10
9.7864004116
 20
9.2647045467
 11
9.7864004116
 21
9.3226600997
  0
LINE
  5
2B6
100
AcDbEntity
  8
0
100
AcDbLine
 62
4
  6
CONTINUOUS
 10
9.8443559646
 20
9.3186408685
 11
9.8443559646
 21
9.2027297625
  0
LINE
  5
2B7
100
AcDbEntity
  8
0
100
AcDbLine
 62
4
  6
CONTINUOUS
 10
9.8609146887
 20
8.9233947566
 11
9.8609146887
 21
9.0393058626
  0
LINE
  5
2B8
100
AcDbEntity
  8
0
100
AcDbLine
 62
4
  6
CONTINUOUS
 10
9.8829929999
 20
9.258005828
 11
9.8829929999
 21
9.315961381
  0
LINE
  5
2B9
100
AcDbEntity
  8
0
100
AcDbLine
 62
4
  6
CONTINUOUS
 10
9.9271496094
 20
9.0347124553
 11
9.9271496094
 21
8.9188013492
  0
LINE
  5
2BA
100
AcDbEntity
  8
0
100
AcDbLine
 62
4
  6
CONTINUOUS
 10
9.940948553
 20
9.3698977027
 11
9.940948553
 21
9.2539865967
  0
LINE
  5
2BB
100
AcDbEntity
  8
0
100
AcDbLine
 62
4
  6
CONTINUOUS
 10
9.9450882644
 20
8.6791115962
 11
9.9450882644
 21
8.7619052436
  0
LINE
  5
2BC
100
AcDbEntity
  8
0
100
AcDbLine
 62
4
  6
CONTINUOUS
 10
9.9602670663
 20
9.0324157518
 11
9.9602670663
 21
8.9165046458
  0
LINE
  5
2BD
100
AcDbEntity
  8
0
100
AcDbLine
 62
4
  6
CONTINUOUS
 10
9.8940321525
 20
8.9707742415
 11
9.9271496094
 21
9.0347124553
  0
LINE
  5
2BE
100
AcDbEntity
  8
0
100
AcDbLine
 62
4
  6
CONTINUOUS
 10
9.7643221027
 20
9.0294458528
 11
9.7808808329
 21
9.0448562294
  0
LINE
  5
2BF
100
AcDbEntity
  8
0
100
AcDbLine
 62
4
  6
CONTINUOUS
 10
9.5256004219
 20
8.7082031769
 11
9.5090416934
 21
8.6927927984
  0
LINE
  5
2C0
100
AcDbEntity
  8
0
100
AcDbLine
 62
4
  6
CONTINUOUS
 10
9.9795855883
 20
9.3092626622
 11
9.9795855883
 21
9.2513071092
  0
LINE
  5
2C1
100
AcDbEntity
  8
0
100
AcDbLine
 62
4
  6
CONTINUOUS
 10
10.0416808159
 20
8.67241288
 11
10.0416808159
 21
8.7552065274
  0
LINE
  5
2C2
100
AcDbEntity
  8
0
100
AcDbLine
 62
4
  6
CONTINUOUS
 10
10.0761781766
 20
9.2446083905
 11
10.0761781766
 21
9.2832454258
  0
LINE
  5
2C3
100
AcDbEntity
  8
0
100
AcDbLine
 62
4
  6
CONTINUOUS
 10
10.0996363689
 20
8.7511872962
 11
10.0996363689
 21
8.6683936487
  0
LINE
  5
2C4
100
AcDbEntity
  8
0
100
AcDbLine
 62
4
  6
CONTINUOUS
 10
10.132753812
 20
8.6495382161
 11
10.132753812
 21
8.7654493221
  0
LINE
  5
2C5
100
AcDbEntity
  8
0
100
AcDbLine
 62
4
  6
CONTINUOUS
 10
10.1341337297
 20
9.2985447122
 11
10.1341337297
 21
9.2405891592
  0
LINE
  5
2C6
100
AcDbEntity
  8
0
100
AcDbLine
 62
4
  6
CONTINUOUS
 10
10.172770765
 20
9.2958652247
 11
10.172770765
 21
9.2379096717
  0
LINE
  5
2C7
100
AcDbEntity
  8
0
100
AcDbLine
 62
4
  6
CONTINUOUS
 10
9.9450882644
 20
8.7619052436
 11
9.961646986
 21
8.7773156208
  0
LINE
  5
2C8
100
AcDbEntity
  8
0
100
AcDbLine
 62
4
  6
CONTINUOUS
 10
10.0416808159
 20
8.7552065274
 11
10.0582395375
 21
8.7706169046
  0
LINE
  5
2C9
100
AcDbEntity
  8
0
100
AcDbLine
 62
4
  6
CONTINUOUS
 10
9.4455665677
 20
8.7689493102
 11
9.4014099551
 21
8.7499332736
  0
LINE
  5
2CA
100
AcDbEntity
  8
0
100
AcDbLine
 62
4
  6
CONTINUOUS
 10
9.5090416934
 20
8.8087039045
 11
9.5256004219
 21
8.7909968243
  0
LINE
  5
2CB
100
AcDbEntity
  8
0
100
AcDbLine
 62
4
  6
CONTINUOUS
 10
10.190709365
 20
8.7448713624
 11
10.190709365
 21
8.662077715
  0
LINE
  5
2CC
100
AcDbEntity
  8
0
100
AcDbLine
 62
4
  6
CONTINUOUS
 10
10.230726318
 20
9.2338904404
 11
10.230726318
 21
9.2918459935
  0
LINE
  5
2CD
100
AcDbEntity
  8
0
100
AcDbLine
 62
4
  6
CONTINUOUS
 10
10.2376258072
 20
8.6422653185
 11
10.2376258072
 21
8.7581764246
  0
LINE
  5
2CE
100
AcDbEntity
  8
0
100
AcDbLine
 62
4
  6
CONTINUOUS
 10
10.2693633534
 20
9.2312109529
 11
10.2693633534
 21
9.347122059
  0
LINE
  5
2CF
100
AcDbEntity
  8
0
100
AcDbLine
 62
4
  6
CONTINUOUS
 10
10.3080003887
 20
9.2285314654
 11
10.3080003887
 21
9.2864870185
  0
LINE
  5
2D0
100
AcDbEntity
  8
0
100
AcDbLine
 62
4
  6
CONTINUOUS
 10
10.346637424
 20
9.283807531
 11
10.346637424
 21
9.2258519779
  0
LINE
  5
2D1
100
AcDbEntity
  8
0
100
AcDbLine
 62
4
  6
CONTINUOUS
 10
10.0996363689
 20
8.6683936487
 11
10.0830776474
 21
8.6529832698
  0
LINE
  5
2D2
100
AcDbEntity
  8
0
100
AcDbLine
 62
4
  6
CONTINUOUS
 10
10.190709365
 20
8.662077715
 11
10.1741506435
 21
8.6466673361
  0
LINE
  5
2D3
100
AcDbEntity
  8
0
100
AcDbLine
 62
4
  6
CONTINUOUS
 10
8.9532893362
 20
9.2249225768
 11
8.9677782242
 21
9.2142585127
  0
LINE
  5
2D4
100
AcDbEntity
  8
0
100
AcDbLine
 62
4
  6
CONTINUOUS
 10
9.961646986
 20
8.6614045148
 11
9.9450882644
 21
8.6791115962
  0
LINE
  5
2D5
100
AcDbEntity
  8
0
100
AcDbLine
 62
4
  6
CONTINUOUS
 10
9.8609146887
 20
9.0393058626
 11
9.8940321525
 21
8.9707742415
  0
LINE
  5
2D6
100
AcDbEntity
  8
0
100
AcDbLine
 62
4
  6
CONTINUOUS
 10
10.4432300124
 20
9.2771088122
 11
10.4432300124
 21
9.2481310357
  0
LINE
  5
2D7
100
AcDbEntity
  8
0
100
AcDbLine
 62
4
  6
CONTINUOUS
 10
10.5011855654
 20
9.2441118044
 11
10.5011855654
 21
9.2151340279
  0
LINE
  5
2D8
100
AcDbEntity
  8
0
100
AcDbLine
 62
4
  6
CONTINUOUS
 10
10.5837721931
 20
6.6062363672
 11
10.5837721931
 21
6.4903252637
  0
LINE
  5
2D9
100
AcDbEntity
  8
0
100
AcDbLine
 62
4
  6
CONTINUOUS
 10
10.3645760241
 20
8.6831374799
 11
10.3204194149
 21
8.6641214448
  0
LINE
  5
2DA
100
AcDbEntity
  8
0
100
AcDbLine
 62
4
  6
CONTINUOUS
 10
9.4014099551
 20
8.7499332736
 11
9.4455665677
 21
8.7247926958
  0
LINE
  5
2DB
100
AcDbEntity
  8
0
100
AcDbLine
 62
4
  6
CONTINUOUS
 10
9.7808808329
 20
8.9289451233
 11
9.7643221027
 21
8.9466522053
  0
LINE
  5
2DC
100
AcDbEntity
  8
0
100
AcDbLine
 62
4
  6
CONTINUOUS
 10
10.0582395375
 20
8.6547057986
 11
10.0416808159
 21
8.67241288
  0
LINE
  5
2DD
100
AcDbEntity
  8
0
100
AcDbLine
 62
4
  6
CONTINUOUS
 10
10.0830776474
 20
8.7688943758
 11
10.0996363689
 21
8.7511872962
  0
LINE
  5
2DE
100
AcDbEntity
  8
0
100
AcDbLine
 62
4
  6
CONTINUOUS
 10
10.1741506435
 20
8.7625784421
 11
10.190709365
 21
8.7448713624
  0
LINE
  5
2DF
100
AcDbEntity
  8
0
100
AcDbLine
 62
4
  6
CONTINUOUS
 10
10.3204194149
 20
8.7082780592
 11
10.3645760241
 21
8.6831374799
  0
LINE
  5
2E0
100
AcDbEntity
  8
0
100
AcDbLine
 62
7
  6
CONTINUOUS
 10
13.0149349345
 20
10.3561481038
 11
12.9097536134
 21
10.2545507433
  0
LINE
  5
2E1
100
AcDbEntity
  8
0
100
AcDbLine
 62
7
  6
CONTINUOUS
 10
12.2978077088
 20
9.6314563539
 11
12.9406632424
 21
10.2524071532
  0
LINE
  5
2E2
100
AcDbEntity
  8
0
100
AcDbLine
 62
7
  6
CONTINUOUS
 10
13.0458445635
 20
10.3540045137
 11
13.203673619
 21
10.5064556836
  0
LINE
  5
2E3
100
AcDbEntity
  8
0
100
AcDbLine
 62
4
  6
CONTINUOUS
 10
12.0635706818
 20
8.9995645766
 11
12.0780595698
 21
9.0082190251
  0
LINE
  5
2E4
100
AcDbEntity
  8
0
100
AcDbLine
 62
4
  6
CONTINUOUS
 10
12.1070373456
 20
8.9579131141
 11
12.0780595698
 21
8.9406042136
  0
LINE
  5
2E5
100
AcDbEntity
  8
0
100
AcDbLine
 62
4
  6
CONTINUOUS
 10
10.1741506435
 20
8.6466673361
 11
10.132753812
 21
8.6495382161
  0
LINE
  5
2E6
100
AcDbEntity
  8
0
100
AcDbLine
 62
4
  6
CONTINUOUS
 10
10.0830776474
 20
8.6529832698
 11
10.0582395375
 21
8.6547057986
  0
LINE
  5
2E7
100
AcDbEntity
  8
0
100
AcDbLine
 62
4
  6
CONTINUOUS
 10
9.994764429
 20
8.6591078123
 11
9.961646986
 21
8.6614045148
  0
LINE
  5
2E8
100
AcDbEntity
  8
0
100
AcDbLine
 62
4
  6
CONTINUOUS
 10
9.5090416934
 20
8.6927927984
 11
9.4676448758
 21
8.6956636775
  0
LINE
  5
2E9
100
AcDbEntity
  8
0
100
AcDbLine
 62
4
  6
CONTINUOUS
 10
9.7712215778
 20
8.6746105617
 11
9.82089777
 21
8.6711655061
  0
LINE
  5
2EA
100
AcDbEntity
  8
0
100
AcDbLine
 62
4
  6
CONTINUOUS
 10
10.2376258072
 20
8.6422653185
 11
10.2873019718
 21
8.6388202648
  0
LINE
  5
2EB
100
AcDbEntity
  8
0
100
AcDbLine
 62
4
  6
CONTINUOUS
 10
9.5835559749
 20
8.7207426758
 11
9.6277125841
 21
8.7176804046
  0
LINE
  5
2EC
100
AcDbEntity
  8
0
100
AcDbLine
 62
4
  6
CONTINUOUS
 10
10.2707432503
 20
8.7062035367
 11
10.2376258072
 21
8.7085002392
  0
LINE
  5
2ED
100
AcDbEntity
  8
0
100
AcDbLine
 62
4
  6
CONTINUOUS
 10
9.8043390485
 20
8.738548778
 11
9.7712215778
 21
8.7408454824
  0
LINE
  5
2EE
100
AcDbEntity
  8
0
100
AcDbLine
 62
4
  6
CONTINUOUS
 10
9.4676448758
 20
8.8115747835
 11
9.5090416934
 21
8.8087039045
  0
LINE
  5
2EF
100
AcDbEntity
  8
0
100
AcDbLine
 62
4
  6
CONTINUOUS
 10
9.6718691933
 20
8.797411779
 11
9.7381041071
 21
8.7928183721
  0
LINE
  5
2F0
100
AcDbEntity
  8
0
100
AcDbLine
 62
4
  6
CONTINUOUS
 10
9.7712215778
 20
8.7905216677
 11
9.82089777
 21
8.7870766121
  0
LINE
  5
2F1
100
AcDbEntity
  8
0
100
AcDbLine
 62
4
  6
CONTINUOUS
 10
9.961646986
 20
8.7773156208
 11
9.994764429
 21
8.7750189183
  0
LINE
  5
2F2
100
AcDbEntity
  8
0
100
AcDbLine
 62
4
  6
CONTINUOUS
 10
10.0582395375
 20
8.7706169046
 11
10.0830776474
 21
8.7688943758
  0
LINE
  5
2F3
100
AcDbEntity
  8
0
100
AcDbLine
 62
4
  6
CONTINUOUS
 10
10.132753812
 20
8.7654493221
 11
10.1741506435
 21
8.7625784421
  0
LINE
  5
2F4
100
AcDbEntity
  8
0
100
AcDbLine
 62
4
  6
CONTINUOUS
 10
10.2376258072
 20
8.7581764246
 11
10.2873019718
 21
8.7547313708
  0
LINE
  5
2F5
100
AcDbEntity
  8
0
100
AcDbLine
 62
4
  6
CONTINUOUS
 10
9.8139982915
 20
8.9266484198
 11
9.7808808329
 21
8.9289451233
  0
LINE
  5
2F6
100
AcDbEntity
  8
0
100
AcDbLine
 62
4
  6
CONTINUOUS
 10
9.9602670663
 20
8.9165046458
 11
10.0016638978
 21
8.9136337658
  0
LINE
  5
2F7
100
AcDbEntity
  8
0
100
AcDbLine
 62
4
  6
CONTINUOUS
 10
12.0563262379
 20
8.9904077173
 11
12.0635706818
 21
8.9995645766
  0
LINE
  5
2F8
100
AcDbEntity
  8
0
100
AcDbLine
 62
4
  6
CONTINUOUS
 10
12.0780595698
 20
8.9406042136
 11
12.0635706818
 21
8.9222905053
  0
LINE
  5
2F9
100
AcDbEntity
  8
0
100
AcDbLine
 62
4
  6
CONTINUOUS
 10
12.1142817896
 20
8.9670699735
 11
12.1070373456
 21
8.9579131141
  0
LINE
  5
2FA
100
AcDbEntity
  8
0
100
AcDbLine
 62
4
  6
CONTINUOUS
 10
9.7808808329
 20
9.0448562294
 11
9.8139982915
 21
9.0425595258
  0
LINE
  5
2FB
100
AcDbEntity
  8
0
100
AcDbLine
 62
4
  6
CONTINUOUS
 10
8.9170671164
 20
9.1115234929
 11
8.9750226681
 21
9.1075042617
  0
LINE
  5
2FC
100
AcDbEntity
  8
0
100
AcDbLine
 62
4
  6
CONTINUOUS
 10
12.0563262379
 20
8.8938151334
 11
12.1142817896
 21
8.8897959022
  0
LINE
  5
2FD
100
AcDbEntity
  8
0
100
AcDbLine
 62
4
  6
CONTINUOUS
 10
8.9388004483
 20
9.2259273846
 11
8.9532893362
 21
9.2249225768
  0
LINE
  5
2FE
100
AcDbEntity
  8
0
100
AcDbLine
 62
4
  6
CONTINUOUS
 10
12.0780595698
 20
9.0082190251
 11
12.0925484577
 21
9.0072142173
  0
LINE
  5
2FF
100
AcDbEntity
  8
0
100
AcDbLine
 62
4
  6
CONTINUOUS
 10
9.8443559646
 20
9.2027297625
 11
9.8057189293
 21
9.20540925
  0
LINE
  5
300
100
AcDbEntity
  8
0
100
AcDbLine
 62
4
  6
CONTINUOUS
 10
10.5011855654
 20
9.2151340279
 11
10.4432300124
 21
9.2191532592
  0
LINE
  5
301
100
AcDbEntity
  8
0
100
AcDbLine
 62
4
  6
CONTINUOUS
 10
10.1341337297
 20
9.2405891592
 11
10.0761781766
 21
9.2446083905
  0
LINE
  5
302
100
AcDbEntity
  8
0
100
AcDbLine
 62
4
  6
CONTINUOUS
 10
9.940948553
 20
9.2539865967
 11
9.8829929999
 21
9.258005828
  0
LINE
  5
303
100
AcDbEntity
  8
0
100
AcDbLine
 62
4
  6
CONTINUOUS
 10
9.8443559646
 20
9.2606853155
 11
9.7864004116
 21
9.2647045467
  0
LINE
  5
304
100
AcDbEntity
  8
0
100
AcDbLine
 62
4
  6
CONTINUOUS
 10
9.4782700547
 20
9.2860734595
 11
9.4203145017
 21
9.2900926908
  0
LINE
  5
305
100
AcDbEntity
  8
0
100
AcDbLine
 62
4
  6
CONTINUOUS
 10
9.3913367252
 20
9.2921023064
 11
9.3333811722
 21
9.2961215377
  0
LINE
  5
306
100
AcDbEntity
  8
0
100
AcDbLine
 62
4
  6
CONTINUOUS
 10
10.172770765
 20
9.2379096717
 11
10.230726318
 21
9.2338904404
  0
LINE
  5
307
100
AcDbEntity
  8
0
100
AcDbLine
 62
4
  6
CONTINUOUS
 10
10.346637424
 20
9.2258519779
 11
10.404592977
 21
9.2218327467
  0
LINE
  5
308
100
AcDbEntity
  8
0
100
AcDbLine
 62
4
  6
CONTINUOUS
 10
10.4432300124
 20
9.2481310357
 11
10.5011855654
 21
9.2441118044
  0
LINE
  5
309
100
AcDbEntity
  8
0
100
AcDbLine
 62
4
  6
CONTINUOUS
 10
10.0761781766
 20
9.2832454258
 11
10.1341337297
 21
9.2792261945
  0
LINE
  5
30A
100
AcDbEntity
  8
0
100
AcDbLine
 62
4
  6
CONTINUOUS
 10
10.1341337297
 20
9.2985447122
 11
10.0954966943
 21
9.3012241997
  0
LINE
  5
30B
100
AcDbEntity
  8
0
100
AcDbLine
 62
4
  6
CONTINUOUS
 10
9.7390700433
 20
9.3259424719
 11
9.6811144903
 21
9.3299617032
  0
LINE
  5
30C
100
AcDbEntity
  8
0
100
AcDbLine
 62
4
  6
CONTINUOUS
 10
9.3333811722
 20
9.3540770907
 11
9.3913367252
 21
9.3500578594
  0
LINE
  5
30D
100
AcDbEntity
  8
0
100
AcDbLine
 62
4
  6
CONTINUOUS
 10
9.8829929999
 20
9.315961381
 11
9.940948553
 21
9.3119421497
  0
LINE
  5
30E
100
AcDbEntity
  8
0
100
AcDbLine
 62
4
  6
CONTINUOUS
 10
9.9795855883
 20
9.3092626622
 11
10.0375411413
 21
9.305243431
  0
LINE
  5
30F
100
AcDbEntity
  8
0
100
AcDbLine
 62
4
  6
CONTINUOUS
 10
10.346637424
 20
9.283807531
 11
10.404592977
 21
9.2797882997
  0
LINE
  5
310
100
AcDbEntity
  8
0
100
AcDbLine
 62
4
  6
CONTINUOUS
 10
10.4432300124
 20
9.2771088122
 11
10.5011855654
 21
9.2730895809
  0
LINE
  5
311
100
AcDbEntity
  8
0
100
AcDbLine
 62
4
  6
CONTINUOUS
 10
10.3007559446
 20
9.3159671989
 11
10.3152448328
 21
9.3149623911
  0
LINE
  5
312
100
AcDbEntity
  8
0
100
AcDbLine
 62
4
  6
CONTINUOUS
 10
9.3913367252
 20
9.4080134124
 11
9.3333811722
 21
9.4120326437
  0
LINE
  5
313
100
AcDbEntity
  8
0
100
AcDbLine
 62
4
  6
CONTINUOUS
 10
9.5072478313
 20
9.3999749499
 11
9.5652033843
 21
9.3959557187
  0
LINE
  5
314
100
AcDbEntity
  8
0
100
AcDbLine
 62
4
  6
CONTINUOUS
 10
12.0635706818
 20
8.9222905053
 11
12.0563262379
 21
8.8938151334
  0
LINE
  5
315
100
AcDbEntity
  8
0
100
AcDbLine
 62
4
  6
CONTINUOUS
 10
12.0925484577
 20
9.0072142173
 11
12.1070373456
 21
8.9965501532
  0
LINE
  5
316
100
AcDbEntity
  8
0
100
AcDbLine
 62
4
  6
CONTINUOUS
 10
12.1142817896
 20
8.9863884861
 11
12.1142817896
 21
8.9670699735
  0
LINE
  5
317
100
AcDbEntity
  8
0
100
AcDbLine
 62
4
  6
CONTINUOUS
 10
12.1142817896
 20
7.1337425632
 11
12.1142817896
 21
7.0178314598
  0
LINE
  5
318
100
AcDbEntity
  8
0
100
AcDbLine
 62
7
  6
CONTINUOUS
 10
12.2978077088
 20
9.6314563539
 11
8.796326381
 21
9.8742849087
  0
LINE
  5
319
100
AcDbEntity
  8
0
100
AcDbLine
 62
4
  6
CONTINUOUS
 10
12.1070373456
 20
8.9965501532
 11
12.1142817896
 21
8.9863884861
  0
LINE
  5
31A
100
AcDbEntity
  8
0
100
AcDbLine
 62
7
  6
CONTINUOUS
 10
12.2978077088
 20
6.2507157616
 11
12.2978077088
 21
9.6314563539
  0
LINE
  5
31B
100
AcDbEntity
  8
0
100
AcDbLine
 62
7
  6
CONTINUOUS
 10
12.9406632424
 20
10.2524071532
 11
12.9097536134
 21
10.2545507433
  0
LINE
  5
31C
100
AcDbEntity
  8
0
100
AcDbLine
 62
7
  6
CONTINUOUS
 10
9.4391819146
 20
10.495235708
 11
9.4700915436
 21
10.493092118
  0
LINE
  5
31D
100
AcDbEntity
  8
0
100
AcDbLine
 62
7
  6
CONTINUOUS
 10
13.0458445635
 20
10.3540045137
 11
13.04908702
 21
10.3538838984
  0
LINE
  5
31E
100
AcDbEntity
  8
0
100
AcDbLine
 62
7
  6
CONTINUOUS
 10
13.0458445635
 20
10.3540045137
 11
13.0149349345
 21
10.3561481038
  0
LINE
  5
31F
100
AcDbEntity
  8
0
100
AcDbLine
 62
7
  6
CONTINUOUS
 10
9.5443632357
 20
10.5968330686
 11
9.5752728647
 21
10.5946894785
  0
LINE
  5
320
100
AcDbEntity
  8
0
100
AcDbLine
 62
7
  6
CONTINUOUS
 10
13.203673619
 20
10.5064556836
 11
13.203673619
 21
7.1257150913
  0
LINE
  5
321
100
AcDbEntity
  8
0
100
AcDbLine
 62
7
  6
CONTINUOUS
 10
13.203673619
 20
10.5064556836
 11
9.7021922912
 21
10.7492842384
  0
LINE
  5
322
100
AcDbEntity
  8
0
100
AcDbLine
 62
7
  6
CONTINUOUS
 10
12.9149523458
 20
6.8788317411
 11
13.0149348159
 21
6.9754073969
  0
LINE
  5
323
100
AcDbEntity
  8
0
100
AcDbLine
 62
7
  6
CONTINUOUS
 10
13.203673619
 20
7.1257150913
 11
13.0458444449
 21
6.9732638068
  0
LINE
  5
324
100
AcDbEntity
  8
0
100
AcDbLine
 62
7
  6
CONTINUOUS
 10
12.940663361
 20
6.8716666754
 11
12.2978077088
 21
6.2507157616
  0
ARC
  5
325
100
AcDbEntity
  8
0
100
AcDbCircle
 62
7
  6
CONTINUOUS
 10
11.1769113537
 20
8.5230875018
 40
0.4701271947
100
AcDbArc
 50
312.647489739
 51
313.2580020013
  0
ARC
  5
326
100
AcDbEntity
  8
0
100
AcDbCircle
 62
7
  6
CONTINUOUS
 10
10.0303574103
 20
7.5169005246
 40
0.4701271945
100
AcDbArc
 50
312.6474897388
 51
313.2580020015
  0
ARC
  5
327
100
AcDbEntity
  8
0
100
AcDbCircle
 62
7
  6
CONTINUOUS
 10
11.0797965086
 20
8.6236272454
 40
0.4700888924
100
AcDbArc
 50
134.556684751
 51
135.3663488375
  0
ARC
  5
328
100
AcDbEntity
  8
0
100
AcDbCircle
 62
7
  6
CONTINUOUS
 10
9.933242565
 20
7.6174402684
 40
0.4700888924
100
AcDbArc
 50
134.556684751
 51
135.3663488374
  0
ARC
  5
329
100
AcDbEntity
  8
0
100
AcDbCircle
 62
7
  6
CONTINUOUS
 10
10.0277711883
 20
7.5816941663
 40
0.454126938
100
AcDbArc
 50
0.000926186
 51
2.2949281796
  0
ARC
  5
32A
100
AcDbEntity
  8
0
100
AcDbCircle
 62
7
  6
CONTINUOUS
 10
11.1743251319
 20
8.5878811433
 40
0.454126938
100
AcDbArc
 50
0.000926186
 51
2.2949281796
  0
ARC
  5
32B
100
AcDbEntity
  8
0
100
AcDbCircle
 62
7
  6
CONTINUOUS
 10
11.5207523226
 20
8.991723939
 40
0.4445269571
100
AcDbArc
 50
170.0390362826
 51
180.0318263578
  0
ARC
  5
32C
100
AcDbEntity
  8
0
100
AcDbCircle
 62
7
  6
CONTINUOUS
 10
10.374198379
 20
7.985536962
 40
0.4445269571
100
AcDbArc
 50
170.0390362826
 51
180.0318263578
  0
ARC
  5
32D
100
AcDbEntity
  8
0
100
AcDbCircle
 62
7
  6
CONTINUOUS
 10
10.3762929577
 20
7.9866530449
 40
0.4304504076
100
AcDbArc
 50
169.6143884174
 51
180.0321356943
  0
ARC
  5
32E
100
AcDbEntity
  8
0
100
AcDbCircle
 62
7
  6
CONTINUOUS
 10
11.5228469013
 20
8.9928400219
 40
0.4304504076
100
AcDbArc
 50
169.6143884174
 51
180.0321356943
  0
ARC
  5
32F
100
AcDbEntity
  8
0
100
AcDbCircle
 62
7
  6
CONTINUOUS
 10
11.5302138014
 20
8.9984966547
 40
0.4158969953
100
AcDbArc
 50
169.8099589814
 51
180.0309516171
  0
ARC
  5
330
100
AcDbEntity
  8
0
100
AcDbCircle
 62
7
  6
CONTINUOUS
 10
10.3836598578
 20
7.9923096776
 40
0.4158969953
100
AcDbArc
 50
169.8099589814
 51
180.0309516171
  0
ARC
  5
331
100
AcDbEntity
  8
0
100
AcDbCircle
 62
7
  6
CONTINUOUS
 10
10.5473114131
 20
8.0783850184
 40
0.2961259508
100
AcDbArc
 50
204.3236293749
 51
206.328857381
  0
ARC
  5
332
100
AcDbEntity
  8
0
100
AcDbCircle
 62
7
  6
CONTINUOUS
 10
10.3532539841
 20
8.1787111067
 40
0.242403059
100
AcDbArc
 50
252.881927201
 51
255.5822411035
  0
SPLINE
  5
333
100
AcDbEntity
  8
0
100
AcDbSpline
 62
7
  6
CONTINUOUS
 70
0
 71
3
 72
23
 73
19
 74
0
 42
0.0000001
 43
0.0000001
 44
0.0000000001
 40
0.0
 40
0.0
 40
0.0
 40
0.0
 40
0.0637775561
 40
0.1273446565
 40
0.1907020307
 40
0.2538561431
 40
0.3168131834
 40
0.3795821015
 40
0.4421733894
 40
0.5045993415
 40
0.5668738676
 40
0.6290123791
 40
0.6910316472
 40
0.7529496401
 40
0.8147853492
 40
0.8765585998
 40
0.9382898533
 40
1.0
 40
1.0
 40
1.0
 40
1.0
 10
10.4953901077
 20
7.5232337614
 30
0.0
 10
10.4953901077
 20
7.5149021483
 30
0.0
 10
10.4949913457
 20
7.4982635909
 30
0.0
 10
10.4931914041
 20
7.4734069237
 30
0.0
 10
10.4901945787
 20
7.4487473594
 30
0.0
 10
10.4860079004
 20
7.424342633
 30
0.0
 10
10.480640833
 20
7.4002486663
 30
0.0
 10
10.474105757
 20
7.3765211107
 30
0.0
 10
10.4664176501
 20
7.353214644
 30
0.0
 10
10.45759419
 20
7.3303830212
 30
0.0
 10
10.447655678
 20
7.3080788955
 30
0.0
 10
10.4366249915
 20
7.2863537107
 30
0.0
 10
10.4245275348
 20
7.2652575843
 30
0.0
 10
10.4113911627
 20
7.2448391736
 30
0.0
 10
10.3972461882
 20
7.2251456292
 30
0.0
 10
10.3821250478
 20
7.2062222363
 30
0.0
 10
10.3660632149
 20
7.1881132347
 30
0.0
 10
10.3547507277
 20
7.1766092557
 30
0.0
 10
10.3489524238
 20
7.1710085383
 30
0.0
  0
SPLINE
  5
334
100
AcDbEntity
  8
0
100
AcDbSpline
 62
7
  6
CONTINUOUS
 70
0
 71
3
 72
23
 73
19
 74
0
 42
0.0000001
 43
0.0000001
 44
0.0000000001
 40
0.0
 40
0.0
 40
0.0
 40
0.0
 40
0.0637775561
 40
0.1273446565
 40
0.1907020307
 40
0.2538561431
 40
0.3168131834
 40
0.3795821015
 40
0.4421733894
 40
0.5045993415
 40
0.5668738676
 40
0.6290123791
 40
0.6910316472
 40
0.7529496401
 40
0.8147853492
 40
0.8765585998
 40
0.9382898533
 40
1.0
 40
1.0
 40
1.0
 40
1.0
 10
11.6419440513
 20
8.5294207384
 30
0.0
 10
11.6419440513
 20
8.5210891253
 30
0.0
 10
11.6415452893
 20
8.5044505679
 30
0.0
 10
11.6397453477
 20
8.4795939007
 30
0.0
 10
11.6367485223
 20
8.4549343365
 30
0.0
 10
11.632561844
 20
8.43052961
 30
0.0
 10
11.6271947766
 20
8.4064356433
 30
0.0
 10
11.6206597006
 20
8.3827080877
 30
0.0
 10
11.6129715937
 20
8.359401621
 30
0.0
 10
11.6041481336
 20
8.3365699982
 30
0.0
 10
11.5942096216
 20
8.3142658725
 30
0.0
 10
11.5831789351
 20
8.2925406877
 30
0.0
 10
11.5710814784
 20
8.2714445613
 30
0.0
 10
11.5579451063
 20
8.2510261507
 30
0.0
 10
11.5438001318
 20
8.2313326062
 30
0.0
 10
11.5286789914
 20
8.2124092134
 30
0.0
 10
11.5126171585
 20
8.1943002117
 30
0.0
 10
11.5013046713
 20
8.1827962327
 30
0.0
 10
11.4955063674
 20
8.1771955153
 30
0.0
  0
SPLINE
  5
335
100
AcDbEntity
  8
0
100
AcDbSpline
 62
7
  6
CONTINUOUS
 70
0
 71
3
 72
33
 73
29
 74
0
 42
0.0000001
 43
0.0000001
 44
0.0000000001
 40
0.0
 40
0.0
 40
0.0
 40
0.0
 40
0.0958348039
 40
0.1891069742
 40
0.2792500435
 40
0.36572131
 40
0.4480125246
 40
0.5256540669
 40
0.5625988158
 40
0.598226802
 40
0.632494146
 40
0.6653609288
 40
0.6967920316
 40
0.726757616
 40
0.7552336203
 40
0.7822031337
 40
0.8076567456
 40
0.8315949344
 40
0.8540288219
 40
0.8749836671
 40
0.8945009457
 40
0.9126431418
 40
0.9294980666
 40
0.945184889
 40
0.9598599849
 40
0.9737213022
 40
0.9870092614
 40
1.0
 40
1.0
 40
1.0
 40
1.0
 10
12.1498874949
 20
9.8635763906
 30
0.0
 10
12.1454075757
 20
9.8638870741
 30
0.0
 10
12.1365739911
 20
9.8645986637
 30
0.0
 10
12.1235581935
 20
9.865956993
 30
0.0
 10
12.1110154626
 20
9.8675847839
 30
0.0
 10
12.0990293978
 20
9.869470971
 30
0.0
 10
12.0876799607
 20
9.8716027295
 30
0.0
 10
12.0786719348
 20
9.873603361
 30
0.0
 10
12.0718463874
 20
9.8753245446
 30
0.0
 10
12.0670172172
 20
9.8766461254
 30
0.0
 10
12.062400928
 20
9.8780175175
 30
0.0
 10
12.0580051886
 20
9.879436466
 30
0.0
 10
12.053837294
 20
9.880900577
 30
0.0
 10
12.0499041393
 20
9.8824073889
 30
0.0
 10
12.0462122189
 20
9.8839544179
 30
0.0
 10
12.0427675816
 20
9.8855390483
 30
0.0
 10
12.0395758676
 20
9.8871587381
 30
0.0
 10
12.0366422178
 20
9.8888107854
 30
0.0
 10
12.0339713675
 20
9.8904926482
 30
0.0
 10
12.0315675185
 20
9.8922016705
 30
0.0
 10
12.0294344925
 20
9.8939354276
 30
0.0
 10
12.0275756449
 20
9.8956915301
 30
0.0
 10
12.0259940781
 20
9.8974678563
 30
0.0
 10
12.0246927692
 20
9.8992624688
 30
0.0
 10
12.0236747955
 20
9.901073398
 30
0.0
 10
12.0229436665
 20
9.9028985896
 30
0.0
 10
12.0225029011
 20
9.9047341232
 30
0.0
 10
12.022404348
 20
9.9059676306
 30
0.0
 10
12.022404348
 20
9.9065763577
 30
0.0
  0
SPLINE
  5
336
100
AcDbEntity
  8
0
100
AcDbSpline
 62
7
  6
CONTINUOUS
 70
0
 71
3
 72
33
 73
29
 74
0
 42
0.0000001
 43
0.0000001
 44
0.0000000001
 40
0.0
 40
0.0
 40
0.0
 40
0.0
 40
0.0958348039
 40
0.1891069742
 40
0.2792500435
 40
0.36572131
 40
0.4480125246
 40
0.5256540669
 40
0.5625988158
 40
0.598226802
 40
0.632494146
 40
0.6653609288
 40
0.6967920316
 40
0.726757616
 40
0.7552336203
 40
0.7822031337
 40
0.8076567456
 40
0.8315949344
 40
0.8540288219
 40
0.8749836671
 40
0.8945009457
 40
0.9126431418
 40
0.9294980666
 40
0.945184889
 40
0.9598599849
 40
0.9737213022
 40
0.9870092614
 40
1.0
 40
1.0
 40
1.0
 40
1.0
 10
9.3728505798
 20
10.0561645548
 30
0.0
 10
9.3683706605
 20
10.0564752383
 30
0.0
 10
9.3595370759
 20
10.0571868279
 30
0.0
 10
9.3465212783
 20
10.0585451571
 30
0.0
 10
9.3339785475
 20
10.0601729481
 30
0.0
 10
9.3219924827
 20
10.0620591352
 30
0.0
 10
9.3106430455
 20
10.0641908936
 30
0.0
 10
9.3016350197
 20
10.0661915252
 30
0.0
 10
9.2948094723
 20
10.0679127088
 30
0.0
 10
9.2899803021
 20
10.0692342896
 30
0.0
 10
9.2853640129
 20
10.0706056817
 30
0.0
 10
9.2809682735
 20
10.0720246302
 30
0.0
 10
9.2768003789
 20
10.0734887411
 30
0.0
 10
9.2728672242
 20
10.0749955531
 30
0.0
 10
9.2691753038
 20
10.0765425821
 30
0.0
 10
9.2657306664
 20
10.0781272125
 30
0.0
 10
9.2625389525
 20
10.0797469023
 30
0.0
 10
9.2596053027
 20
10.0813989496
 30
0.0
 10
9.2569344524
 20
10.0830808124
 30
0.0
 10
9.2545306033
 20
10.0847898346
 30
0.0
 10
9.2523975773
 20
10.0865235918
 30
0.0
 10
9.2505387298
 20
10.0882796943
 30
0.0
 10
9.2489571629
 20
10.0900560205
 30
0.0
 10
9.2476558541
 20
10.091850633
 30
0.0
 10
9.2466378804
 20
10.0936615622
 30
0.0
 10
9.2459067514
 20
10.0954867538
 30
0.0
 10
9.2454659859
 20
10.0973222873
 30
0.0
 10
9.2453674328
 20
10.0985557948
 30
0.0
 10
9.2453674328
 20
10.0991645219
 30
0.0
  0
SPLINE
  5
337
100
AcDbEntity
  8
0
100
AcDbSpline
 62
7
  6
CONTINUOUS
 70
0
 71
3
 72
15
 73
11
 74
0
 42
0.0000001
 43
0.0000001
 44
0.0000000001
 40
0.0
 40
0.0
 40
0.0
 40
0.0
 40
0.1344505003
 40
0.2638340512
 40
0.3891435539
 40
0.5115581695
 40
0.6323999352
 40
0.7530939387
 40
0.8751313617
 40
1.0
 40
1.0
 40
1.0
 40
1.0
 10
11.2656666319
 20
8.3853919365
 30
0.0
 10
11.2669851427
 20
8.3866655202
 30
0.0
 10
11.2694738947
 20
8.3892699539
 30
0.0
 10
11.2727883571
 20
8.3934224103
 30
0.0
 10
11.2756005387
 20
8.3977370184
 30
0.0
 10
11.2779053089
 20
8.4022128029
 30
0.0
 10
11.279698711
 20
8.4068499671
 30
0.0
 10
11.2809776157
 20
8.4116494704
 30
0.0
 10
11.2817406395
 20
8.4166122727
 30
0.0
 10
11.2819031562
 20
8.4199815596
 30
0.0
 10
11.2819029394
 20
8.4216840786
 30
0.0
  0
SPLINE
  5
338
100
AcDbEntity
  8
0
100
AcDbSpline
 62
7
  6
CONTINUOUS
 70
0
 71
3
 72
49
 73
45
 74
0
 42
0.0000001
 43
0.0000001
 44
0.0000000001
 40
0.0
 40
0.0
 40
0.0
 40
0.0
 40
0.038059593
 40
0.0761223512
 40
0.1141890242
 40
0.1522537611
 40
0.1903049662
 40
0.209322671
 40
0.2283299593
 40
0.2662950016
 40
0.3041746222
 40
0.3230735625
 40
0.3419364042
 40
0.3795233609
 40
0.4168854048
 40
0.453956774
 40
0.4906610647
 40
0.5269116152
 40
0.5626127075
 40
0.5976617211
 40
0.6319522034
 40
0.665377287
 40
0.6978329568
 40
0.7292208122
 40
0.7444877095
 40
0.7594542509
 40
0.7884426693
 40
0.816117497
 40
0.8424154955
 40
0.8550328918
 40
0.8672868424
 40
0.8791725478
 40
0.8906857876
 40
0.9018233657
 40
0.9125830053
 40
0.9229635789
 40
0.9329653149
 40
0.9425898629
 40
0.9518408147
 40
0.9607236544
 40
0.9692464825
 40
0.9774200041
 40
0.9852587985
 40
1.0
 40
1.0
 40
1.0
 40
1.0
 10
10.8076538299
 20
8.7320582191
 30
0.0
 10
10.8076538299
 20
8.723285585
 30
0.0
 10
10.8082016465
 20
8.7057346434
 30
0.0
 10
10.8106653695
 20
8.6795135706
 30
0.0
 10
10.8147665255
 20
8.6534957213
 30
0.0
 10
10.82049702
 20
8.6277908913
 30
0.0
 10
10.8266220276
 20
8.6067187162
 30
0.0
 10
10.8323224154
 20
8.5901329809
 30
0.0
 10
10.8385486714
 20
8.5737586096
 30
0.0
 10
10.8473130592
 20
8.5537110084
 30
0.0
 10
10.8573707947
 20
8.5343074089
 30
0.0
 10
10.8661656079
 20
8.519249585
 30
0.0
 10
10.8754292576
 20
8.5045553824
 30
0.0
 10
10.8878921876
 20
8.4868622095
 30
0.0
 10
10.9042033593
 20
8.4668196369
 30
0.0
 10
10.9217469485
 20
8.4481231371
 30
0.0
 10
10.9403907712
 20
8.4308987958
 30
0.0
 10
10.9599782411
 20
8.4152568723
 30
0.0
 10
10.9803294891
 20
8.4012865339
 30
0.0
 10
11.0012455832
 20
8.3890499087
 30
0.0
 10
11.0225144446
 20
8.378577866
 30
0.0
 10
11.0439186814
 20
8.3698679926
 30
0.0
 10
11.0652424386
 20
8.3628857613
 30
0.0
 10
11.0829359361
 20
8.3584128352
 30
0.0
 10
11.0968686166
 20
8.3556402007
 30
0.0
 10
11.1103404523
 20
8.3534257431
 30
0.0
 10
11.1267575872
 20
8.3515529638
 30
0.0
 10
11.1458708793
 20
8.3506358226
 30
0.0
 10
11.1612295633
 20
8.3509025986
 30
0.0
 10
11.1729989708
 20
8.3516972132
 30
0.0
 10
11.1814301235
 20
8.3525487669
 30
0.0
 10
11.1895755143
 20
8.3536497423
 30
0.0
 10
11.1974247149
 20
8.3549862667
 30
0.0
 10
11.2049679881
 20
8.3565450477
 30
0.0
 10
11.212196432
 20
8.358313465
 30
0.0
 10
11.2191018856
 20
8.3602795251
 30
0.0
 10
11.2256768106
 20
8.3624321329
 30
0.0
 10
11.2319143896
 20
8.3647608
 30
0.0
 10
11.2378082335
 20
8.3672561284
 30
0.0
 10
11.2433527089
 20
8.3699093544
 30
0.0
 10
11.2485422324
 20
8.3727127464
 30
0.0
 10
11.2533727685
 20
8.3756598129
 30
0.0
 10
11.2592071116
 20
8.3796891335
 30
0.0
 10
11.2632227434
 20
8.3830313213
 30
0.0
 10
11.2656666319
 20
8.3853919365
 30
0.0
  0
SPLINE
  5
339
100
AcDbEntity
  8
0
100
AcDbSpline
 62
7
  6
CONTINUOUS
 70
0
 71
3
 72
23
 73
19
 74
0
 42
0.0000001
 43
0.0000001
 44
0.0000000001
 40
0.0
 40
0.0
 40
0.0
 40
0.0
 40
0.0637774724
 40
0.127344696
 40
0.1907020124
 40
0.2538561402
 40
0.3168131804
 40
0.3795820984
 40
0.4421733882
 40
0.5045993399
 40
0.5668738668
 40
0.6290123797
 40
0.6910316501
 40
0.7529496455
 40
0.8147853558
 40
0.8765586055
 40
0.9382898564
 40
1.0
 40
1.0
 40
1.0
 40
1.0
 10
10.4854212505
 20
7.5371045841
 30
0.0
 10
10.4854212505
 20
7.5291355856
 30
0.0
 10
10.4850398402
 20
7.513221158
 30
0.0
 10
10.4833182469
 20
7.4894462909
 30
0.0
 10
10.4804518495
 20
7.4658599369
 30
0.0
 10
10.4764474003
 20
7.4425173424
 30
0.0
 10
10.4713139327
 20
7.4194719748
 30
0.0
 10
10.4650632929
 20
7.3967770717
 30
0.0
 10
10.4577098003
 20
7.3744849311
 30
0.0
 10
10.4492703726
 20
7.3526469653
 30
0.0
 10
10.4397644291
 20
7.3313135346
 30
0.0
 10
10.4292138494
 20
7.3105338435
 30
0.0
 10
10.41764293
 20
7.2903558289
 30
0.0
 10
10.4050783106
 20
7.2708260319
 30
0.0
 10
10.3915489782
 20
7.2519895561
 30
0.0
 10
10.3770859644
 20
7.2338897114
 30
0.0
 10
10.3617232
 20
7.2165688125
 30
0.0
 10
10.3509030953
 20
7.2055654583
 30
0.0
 10
10.3453571469
 20
7.200208488
 30
0.0
  0
SPLINE
  5
33A
100
AcDbEntity
  8
0
100
AcDbSpline
 62
7
  6
CONTINUOUS
 70
0
 71
3
 72
23
 73
19
 74
0
 42
0.0000001
 43
0.0000001
 44
0.0000000001
 40
0.0
 40
0.0
 40
0.0
 40
0.0
 40
0.0637772815
 40
0.1273447908
 40
0.1907019866
 40
0.2538561396
 40
0.3168131864
 40
0.379582096
 40
0.4421733877
 40
0.5045993365
 40
0.5668738645
 40
0.6290123802
 40
0.6910316524
 40
0.7529496465
 40
0.8147853538
 40
0.8765586016
 40
0.9382898535
 40
1.0
 40
1.0
 40
1.0
 40
1.0
 10
10.4818981263
 20
7.5817015072
 30
0.0
 10
10.4818981263
 20
7.5744731149
 30
0.0
 10
10.4815521529
 20
7.5600376558
 30
0.0
 10
10.4799905667
 20
7.5384722652
 30
0.0
 10
10.4773905404
 20
7.5170778464
 30
0.0
 10
10.4737582493
 20
7.4959045625
 30
0.0
 10
10.4691018543
 20
7.4750008711
 30
0.0
 10
10.4634320946
 20
7.4544150813
 30
0.0
 10
10.4567619799
 20
7.4341946239
 30
0.0
 10
10.4491068582
 20
7.4143861294
 30
0.0
 10
10.4404843419
 20
7.3950352786
 30
0.0
 10
10.4309142702
 20
7.3761867055
 30
0.0
 10
10.4204186687
 20
7.3578839004
 30
0.0
 10
10.4090217044
 20
7.3401690801
 30
0.0
 10
10.3967496922
 20
7.3230831425
 30
0.0
 10
10.3836307802
 20
7.3066653695
 30
0.0
 10
10.3696957423
 20
7.2909541425
 30
0.0
 10
10.3598811776
 20
7.2809733718
 30
0.0
 10
10.3548506373
 20
7.276114236
 30
0.0
  0
SPLINE
  5
33B
100
AcDbEntity
  8
0
100
AcDbSpline
 62
7
  6
CONTINUOUS
 70
0
 71
3
 72
44
 73
40
 74
0
 42
0.0000001
 43
0.0000001
 44
0.0000000001
 40
0.0
 40
0.0
 40
0.0
 40
0.0
 40
0.0310744349
 40
0.0623061033
 40
0.0936903779
 40
0.1252186236
 40
0.1568794503
 40
0.1886586803
 40
0.2205397066
 40
0.2525038554
 40
0.2845307769
 40
0.3165988658
 40
0.3486856972
 40
0.3807684736
 40
0.4128244778
 40
0.4448315246
 40
0.4767684059
 40
0.5086153213
 40
0.5403542862
 40
0.5719695169
 40
0.6034477806
 40
0.6347786986
 40
0.6659550044
 40
0.696972748
 40
0.7278314278
 40
0.7585340529
 40
0.7890871347
 40
0.8195005891
 40
0.8497875544
 40
0.8648914079
 40
0.8799699038
 40
0.8950254603
 40
0.9100606302
 40
0.9250780906
 40
0.9400806268
 40
0.9550711117
 40
0.9700524936
 40
0.9850277766
 40
1.0
 40
1.0
 40
1.0
 40
1.0
 10
10.4854212505
 20
7.5371045841
 30
0.0
 10
10.4854212505
 20
7.5494684328
 30
0.0
 10
10.4844989286
 20
7.574268204
 30
0.0
 10
10.4803810011
 20
7.6113491295
 30
0.0
 10
10.4735483394
 20
7.6482123216
 30
0.0
 10
10.464038693
 20
7.6846527289
 30
0.0
 10
10.4519047063
 20
7.7204709439
 30
0.0
 10
10.4372133252
 20
7.7554701955
 30
0.0
 10
10.4200454296
 20
7.7894584569
 30
0.0
 10
10.4004954454
 20
7.8222491993
 30
0.0
 10
10.3786708788
 20
7.8536625295
 30
0.0
 10
10.3546916151
 20
7.8835260778
 30
0.0
 10
10.328689291
 20
7.9116759341
 30
0.0
 10
10.3008066758
 20
7.9379576262
 30
0.0
 10
10.2711967975
 20
7.9622268854
 30
0.0
 10
10.2400221029
 20
7.9843503964
 30
0.0
 10
10.2074536516
 20
8.0042066143
 30
0.0
 10
10.1736701578
 20
8.0216864105
 30
0.0
 10
10.1388569806
 20
8.0366935868
 30
0.0
 10
10.1032051612
 20
8.0491454554
 30
0.0
 10
10.066910407
 20
8.0589733732
 30
0.0
 10
10.0301719842
 20
8.0661229994
 30
0.0
 10
9.9931916584
 20
8.0705546037
 30
0.0
 10
9.9561726296
 20
8.072243442
 30
0.0
 10
9.9193183588
 20
8.0711797767
 30
0.0
 10
9.8828316344
 20
8.0673689791
 30
0.0
 10
9.8469128765
 20
8.0608313787
 30
0.0
 10
9.8117611839
 20
8.0516031363
 30
0.0
 10
9.7832369195
 20
8.0417012238
 30
0.0
 10
9.7610039489
 20
8.0324928616
 30
0.0
 10
9.7446523492
 20
8.0249582979
 30
0.0
 10
9.7286336016
 20
8.0168003642
 30
0.0
 10
9.7129694527
 20
8.0080301086
 30
0.0
 10
9.6976815173
 20
7.9986596869
 30
0.0
 10
9.6827908088
 20
7.9887019658
 30
0.0
 10
9.6683178866
 20
7.9781706101
 30
0.0
 10
9.6542825488
 20
7.9670801076
 30
0.0
 10
9.6407043958
 20
7.9554459498
 30
0.0
 10
9.6319686078
 20
7.9473371357
 30
0.0
 10
9.6276839163
 20
7.9431984449
 30
0.0
  0
SPLINE
  5
33C
100
AcDbEntity
  8
0
100
AcDbSpline
 62
7
  6
CONTINUOUS
 70
0
 71
3
 72
23
 73
19
 74
0
 42
0.0000001
 43
0.0000001
 44
0.0000000001
 40
0.0
 40
0.0
 40
0.0
 40
0.0
 40
0.0638791805
 40
0.1275345516
 40
0.1909676692
 40
0.2541823925
 40
0.3171848698
 40
0.3799834959
 40
0.4425888439
 40
0.5050135722
 40
0.5672723046
 40
0.6293814867
 40
0.6913592194
 40
0.7532250695
 40
0.8149998588
 40
0.8767054351
 40
0.9383644294
 40
1.0
 40
1.0
 40
1.0
 40
1.0
 10
10.0325313528
 20
8.0653903628
 30
0.0
 10
10.024911657
 20
8.0659721517
 30
0.0
 10
10.0096669419
 20
8.0667517625
 30
0.0
 10
9.9868120814
 20
8.0667613689
 30
0.0
 10
9.964065166
 20
8.0656092675
 30
0.0
 10
9.9414852059
 20
8.063298277
 30
0.0
 10
9.919129837
 20
8.0598342778
 30
0.0
 10
9.8970563841
 20
8.0552260782
 30
0.0
 10
9.8753213919
 20
8.0494854247
 30
0.0
 10
9.8539805666
 20
8.0426269648
 30
0.0
 10
9.8330886101
 20
8.0346682153
 30
0.0
 10
9.8126990849
 20
8.0256295139
 30
0.0
 10
9.7928642731
 20
8.015533987
 30
0.0
 10
9.7736350208
 20
8.0044074701
 30
0.0
 10
9.755060683
 20
7.9922784999
 30
0.0
 10
9.737188727
 20
7.9791779895
 30
0.0
 10
9.7200656055
 20
7.9651400977
 30
0.0
 10
9.7091764616
 20
7.9551784709
 30
0.0
 10
9.7038730625
 20
7.9500557732
 30
0.0
  0
SPLINE
  5
33D
100
AcDbEntity
  8
0
100
AcDbSpline
 62
7
  6
CONTINUOUS
 70
0
 71
3
 72
23
 73
19
 74
0
 42
0.0000001
 43
0.0000001
 44
0.0000000001
 40
0.0
 40
0.0
 40
0.0
 40
0.0
 40
0.0637774724
 40
0.127344696
 40
0.1907020124
 40
0.2538561402
 40
0.3168131804
 40
0.3795820984
 40
0.4421733882
 40
0.5045993399
 40
0.5668738668
 40
0.6290123797
 40
0.6910316501
 40
0.7529496455
 40
0.8147853558
 40
0.8765586055
 40
0.9382898564
 40
1.0
 40
1.0
 40
1.0
 40
1.0
 10
11.6319751941
 20
8.5432915611
 30
0.0
 10
11.6319751941
 20
8.5353225626
 30
0.0
 10
11.6315937838
 20
8.519408135
 30
0.0
 10
11.6298721905
 20
8.495633268
 30
0.0
 10
11.6270057931
 20
8.4720469139
 30
0.0
 10
11.6230013439
 20
8.4487043194
 30
0.0
 10
11.6178678763
 20
8.4256589519
 30
0.0
 10
11.6116172365
 20
8.4029640487
 30
0.0
 10
11.6042637439
 20
8.3806719081
 30
0.0
 10
11.5958243162
 20
8.3588339424
 30
0.0
 10
11.5863183727
 20
8.3375005117
 30
0.0
 10
11.575767793
 20
8.3167208205
 30
0.0
 10
11.5641968736
 20
8.2965428059
 30
0.0
 10
11.5516322542
 20
8.2770130089
 30
0.0
 10
11.5381029218
 20
8.2581765331
 30
0.0
 10
11.523639908
 20
8.2400766884
 30
0.0
 10
11.5082771436
 20
8.2227557895
 30
0.0
 10
11.4974570389
 20
8.2117524353
 30
0.0
 10
11.4919110905
 20
8.206395465
 30
0.0
  0
SPLINE
  5
33E
100
AcDbEntity
  8
0
100
AcDbSpline
 62
7
  6
CONTINUOUS
 70
0
 71
3
 72
23
 73
19
 74
0
 42
0.0000001
 43
0.0000001
 44
0.0000000001
 40
0.0
 40
0.0
 40
0.0
 40
0.0
 40
0.0637772815
 40
0.1273447908
 40
0.1907019866
 40
0.2538561396
 40
0.3168131864
 40
0.379582096
 40
0.4421733877
 40
0.5045993365
 40
0.5668738645
 40
0.6290123802
 40
0.6910316524
 40
0.7529496465
 40
0.8147853538
 40
0.8765586016
 40
0.9382898535
 40
1.0
 40
1.0
 40
1.0
 40
1.0
 10
11.6284520699
 20
8.5878884843
 30
0.0
 10
11.6284520699
 20
8.580660092
 30
0.0
 10
11.6281060965
 20
8.5662246328
 30
0.0
 10
11.6265445103
 20
8.5446592422
 30
0.0
 10
11.623944484
 20
8.5232648234
 30
0.0
 10
11.6203121929
 20
8.5020915396
 30
0.0
 10
11.6156557979
 20
8.4811878482
 30
0.0
 10
11.6099860382
 20
8.4606020583
 30
0.0
 10
11.6033159235
 20
8.440381601
 30
0.0
 10
11.5956608018
 20
8.4205731064
 30
0.0
 10
11.5870382855
 20
8.4012222556
 30
0.0
 10
11.5774682138
 20
8.3823736825
 30
0.0
 10
11.5669726123
 20
8.3640708774
 30
0.0
 10
11.555575648
 20
8.3463560572
 30
0.0
 10
11.5433036358
 20
8.3292701196
 30
0.0
 10
11.5301847238
 20
8.3128523465
 30
0.0
 10
11.5162496859
 20
8.2971411196
 30
0.0
 10
11.5064351212
 20
8.2871603488
 30
0.0
 10
11.5014045809
 20
8.282301213
 30
0.0
  0
SPLINE
  5
33F
100
AcDbEntity
  8
0
100
AcDbSpline
 62
7
  6
CONTINUOUS
 70
0
 71
3
 72
44
 73
40
 74
0
 42
0.0000001
 43
0.0000001
 44
0.0000000001
 40
0.0
 40
0.0
 40
0.0
 40
0.0
 40
0.0310744349
 40
0.0623061033
 40
0.0936903779
 40
0.1252186236
 40
0.1568794503
 40
0.1886586803
 40
0.2205397066
 40
0.2525038554
 40
0.2845307769
 40
0.3165988658
 40
0.3486856972
 40
0.3807684736
 40
0.4128244778
 40
0.4448315246
 40
0.4767684059
 40
0.5086153213
 40
0.5403542862
 40
0.5719695169
 40
0.6034477806
 40
0.6347786986
 40
0.6659550044
 40
0.696972748
 40
0.7278314278
 40
0.7585340529
 40
0.7890871347
 40
0.8195005891
 40
0.8497875544
 40
0.8648914079
 40
0.8799699038
 40
0.8950254603
 40
0.9100606302
 40
0.9250780906
 40
0.9400806268
 40
0.9550711117
 40
0.9700524936
 40
0.9850277766
 40
1.0
 40
1.0
 40
1.0
 40
1.0
 10
11.6319751941
 20
8.5432915611
 30
0.0
 10
11.6319751941
 20
8.5556554099
 30
0.0
 10
11.6310528722
 20
8.580455181
 30
0.0
 10
11.6269349447
 20
8.6175361065
 30
0.0
 10
11.620102283
 20
8.6543992986
 30
0.0
 10
11.6105926366
 20
8.690839706
 30
0.0
 10
11.5984586499
 20
8.726657921
 30
0.0
 10
11.5837672688
 20
8.7616571726
 30
0.0
 10
11.5665993732
 20
8.795645434
 30
0.0
 10
11.547049389
 20
8.8284361763
 30
0.0
 10
11.5252248224
 20
8.8598495065
 30
0.0
 10
11.5012455587
 20
8.8897130548
 30
0.0
 10
11.4752432346
 20
8.9178629111
 30
0.0
 10
11.4473606194
 20
8.9441446032
 30
0.0
 10
11.4177507411
 20
8.9684138625
 30
0.0
 10
11.3865760465
 20
8.9905373734
 30
0.0
 10
11.3540075952
 20
9.0103935913
 30
0.0
 10
11.3202241014
 20
9.0278733876
 30
0.0
 10
11.2854109242
 20
9.0428805639
 30
0.0
 10
11.2497591048
 20
9.0553324324
 30
0.0
 10
11.2134643506
 20
9.0651603502
 30
0.0
 10
11.1767259278
 20
9.0723099764
 30
0.0
 10
11.139745602
 20
9.0767415807
 30
0.0
 10
11.1027265732
 20
9.078430419
 30
0.0
 10
11.0658723024
 20
9.0773667537
 30
0.0
 10
11.029385578
 20
9.0735559561
 30
0.0
 10
10.9934668201
 20
9.0670183557
 30
0.0
 10
10.9583151275
 20
9.0577901133
 30
0.0
 10
10.9297908631
 20
9.0478882008
 30
0.0
 10
10.9075578925
 20
9.0386798386
 30
0.0
 10
10.8912062928
 20
9.0311452749
 30
0.0
 10
10.8751875452
 20
9.0229873412
 30
0.0
 10
10.8595233963
 20
9.0142170856
 30
0.0
 10
10.8442354609
 20
9.0048466639
 30
0.0
 10
10.8293447524
 20
8.9948889429
 30
0.0
 10
10.8148718302
 20
8.9843575872
 30
0.0
 10
10.8008364924
 20
8.9732670846
 30
0.0
 10
10.7872583394
 20
8.9616329268
 30
0.0
 10
10.7785225514
 20
8.9535241128
 30
0.0
 10
10.7742378599
 20
8.949385422
 30
0.0
  0
SPLINE
  5
340
100
AcDbEntity
  8
0
100
AcDbSpline
 62
7
  6
CONTINUOUS
 70
0
 71
3
 72
23
 73
19
 74
0
 42
0.0000001
 43
0.0000001
 44
0.0000000001
 40
0.0
 40
0.0
 40
0.0
 40
0.0
 40
0.0638791805
 40
0.1275345516
 40
0.1909676692
 40
0.2541823925
 40
0.3171848698
 40
0.3799834959
 40
0.4425888439
 40
0.5050135722
 40
0.5672723046
 40
0.6293814867
 40
0.6913592194
 40
0.7532250695
 40
0.8149998588
 40
0.8767054351
 40
0.9383644294
 40
1.0
 40
1.0
 40
1.0
 40
1.0
 10
11.1790852964
 20
9.0715773398
 30
0.0
 10
11.1714656006
 20
9.0721591287
 30
0.0
 10
11.1562208855
 20
9.0729387395
 30
0.0
 10
11.133366025
 20
9.072948346
 30
0.0
 10
11.1106191096
 20
9.0717962445
 30
0.0
 10
11.0880391495
 20
9.069485254
 30
0.0
 10
11.0656837806
 20
9.0660212548
 30
0.0
 10
11.0436103277
 20
9.0614130553
 30
0.0
 10
11.0218753355
 20
9.0556724017
 30
0.0
 10
11.0005345102
 20
9.0488139418
 30
0.0
 10
10.9796425537
 20
9.0408551923
 30
0.0
 10
10.9592530285
 20
9.0318164909
 30
0.0
 10
10.9394182167
 20
9.021720964
 30
0.0
 10
10.9201889644
 20
9.0105944472
 30
0.0
 10
10.9016146266
 20
8.998465477
 30
0.0
 10
10.8837426706
 20
8.9853649665
 30
0.0
 10
10.8666195491
 20
8.9713270747
 30
0.0
 10
10.8557304052
 20
8.9613654479
 30
0.0
 10
10.8504270061
 20
8.9562427503
 30
0.0
  0
SPLINE
  5
341
100
AcDbEntity
  8
0
100
AcDbSpline
 62
7
  6
CONTINUOUS
 70
0
 71
3
 72
100
 73
96
 74
0
 42
0.0000001
 43
0.0000001
 44
0.0000000001
 40
0.0
 40
0.0
 40
0.0
 40
0.0
 40
0.0028644023
 40
0.0057545132
 40
0.0086952077
 40
0.0117101473
 40
0.014821083
 40
0.0180475632
 40
0.0214068689
 40
0.0249140243
 40
0.0285819104
 40
0.0324214142
 40
0.0364416594
 40
0.0406501683
 40
0.0450530987
 40
0.0496553623
 40
0.0544608407
 40
0.0594724494
 40
0.0646923295
 40
0.0701218625
 40
0.0757618413
 40
0.0816124502
 40
0.0876734177
 40
0.0939439734
 40
0.100422986
 40
0.1071089069
 40
0.1139998942
 40
0.1210937514
 40
0.1283880359
 40
0.1358800012
 40
0.1435666879
 40
0.1514448741
 40
0.1677615768
 40
0.1848006779
 40
0.2025294986
 40
0.2209127574
 40
0.2399128291
 40
0.2594899736
 40
0.2796025416
 40
0.3002071646
 40
0.3212589324
 40
0.3427115622
 40
0.3645175614
 40
0.3866283853
 40
0.4089945921
 40
0.4315659948
 40
0.4542918124
 40
0.4771208188
 40
0.5000014916
 40
0.5228821607
 40
0.5457111557
 40
0.5684369546
 40
0.5910083311
 40
0.6133745043
 40
0.6354852873
 40
0.6572912383
 40
0.6787438129
 40
0.6997955184
 40
0.7204000722
 40
0.7405125643
 40
0.7600896264
 40
0.7790896096
 40
0.7974727739
 40
0.8152014945
 40
0.8322404903
 40
0.848557083
 40
0.8641214992
 40
0.8716134098
 40
0.8789076311
 40
0.886001434
 40
0.8928923548
 40
0.8995782218
 40
0.9060571653
 40
0.9123276676
 40
0.9183885641
 40
0.9242391202
 40
0.9298790271
 40
0.9353085081
 40
0.9405283162
 40
0.945539874
 40
0.9503452819
 40
0.9549474957
 40
0.9593503586
 40
0.9635588199
 40
0.9675790023
 40
0.9714184611
 40
0.9750862914
 40
0.978593408
 40
0.981952668
 40
0.98517911
 40
0.988290009
 40
0.9913049437
 40
0.9942456322
 40
0.997135665
 40
1.0
 40
1.0
 40
1.0
 40
1.0
 10
12.9374207751
 20
6.871787149
 30
0.0
 10
12.9357723215
 20
6.8719015349
 30
0.0
 10
12.9324696854
 20
6.8722948255
 30
0.0
 10
12.9275631335
 20
6.8733724706
 30
0.0
 10
12.9226982399
 20
6.8749374766
 30
0.0
 10
12.9178791598
 20
6.8769878506
 30
0.0
 10
12.9131087626
 20
6.8795213239
 30
0.0
 10
12.9083898516
 20
6.8825354812
 30
0.0
 10
12.9037249366
 20
6.8860278069
 30
0.0
 10
12.8991163557
 20
6.8899956762
 30
0.0
 10
12.8945664298
 20
6.8944364253
 30
0.0
 10
12.8900774213
 20
6.8993472059
 30
0.0
 10
12.8856516941
 20
6.9047250569
 30
0.0
 10
12.8812915422
 20
6.9105667385
 30
0.0
 10
12.8769993966
 20
6.9168688431
 30
0.0
 10
12.8727775799
 20
6.9236276385
 30
0.0
 10
12.8686285555
 20
6.9308391911
 30
0.0
 10
12.8645546363
 20
6.9384992305
 30
0.0
 10
12.8605582713
 20
6.9466032696
 30
0.0
 10
12.8566417292
 20
6.9551464912
 30
0.0
 10
12.8528074081
 20
6.9641238537
 30
0.0
 10
12.8490575085
 20
6.9735300013
 30
0.0
 10
12.8453943502
 20
6.9833593492
 30
0.0
 10
12.8418200502
 20
6.9936060173
 30
0.0
 10
12.8383368307
 20
7.0042638946
 30
0.0
 10
12.8349467154
 20
7.0153265932
 30
0.0
 10
12.831651815
 20
7.0267874945
 30
0.0
 10
12.8284540527
 20
7.0386397204
 30
0.0
 10
12.8253554161
 20
7.0508761652
 30
0.0
 10
12.8223577282
 20
7.0634894757
 30
0.0
 10
12.8194628234
 20
7.0764720917
 30
0.0
 10
12.8156983131
 20
7.0944750162
 30
0.0
 10
12.8112756544
 20
7.117849945
 30
0.0
 10
12.8064646634
 20
7.1469266341
 30
0.0
 10
12.8021016285
 20
7.1772786716
 30
0.0
 10
12.7981971735
 20
7.2088330414
 30
0.0
 10
12.7947608462
 20
7.2415139856
 30
0.0
 10
12.791801039
 20
7.275242932
 30
0.0
 10
12.7893249855
 20
7.3099387686
 30
0.0
 10
12.7873387396
 20
7.345518025
 30
0.0
 10
12.7858471636
 20
7.3818950846
 30
0.0
 10
12.7848539168
 20
7.4189823939
 30
0.0
 10
12.7843614484
 20
7.4566906768
 30
0.0
 10
12.7843709919
 20
7.4949291523
 30
0.0
 10
12.7848825634
 20
7.5336057551
 30
0.0
 10
12.7858949622
 20
7.5726273593
 30
0.0
 10
12.7874057739
 20
7.611900004
 30
0.0
 10
12.7894113768
 20
7.6513291209
 30
0.0
 10
12.7919069512
 20
7.6908197633
 30
0.0
 10
12.7948864908
 20
7.7302768356
 30
0.0
 10
12.7983428174
 20
7.7696053237
 30
0.0
 10
12.8022675986
 20
7.8087105243
 30
0.0
 10
12.8066513673
 20
7.8474982746
 30
0.0
 10
12.8114835444
 20
7.8858751802
 30
0.0
 10
12.8167524645
 20
7.9237488408
 30
0.0
 10
12.8224454029
 20
7.961028075
 30
0.0
 10
12.8285486067
 20
7.997623141
 30
0.0
 10
12.8350473267
 20
8.0334459558
 30
0.0
 10
12.8419258528
 20
8.0684103093
 30
0.0
 10
12.849167551
 20
8.1024320757
 30
0.0
 10
12.8567549032
 20
8.1354294208
 30
0.0
 10
12.8646695486
 20
8.1673230032
 30
0.0
 10
12.8728923282
 20
8.1980361792
 30
0.0
 10
12.8814033319
 20
8.2274951719
 30
0.0
 10
12.8901819454
 20
8.2556293531
 30
0.0
 10
12.8992069146
 20
8.2823711058
 30
0.0
 10
12.9070107144
 20
8.3037050409
 30
0.0
 10
12.9133718239
 20
8.3200178264
 30
0.0
 10
12.9181299209
 20
8.331709296
 30
0.0
 10
12.9229331042
 20
8.3430065384
 30
0.0
 10
12.9277785188
 20
8.3539027854
 30
0.0
 10
12.9326632276
 20
8.3643915065
 30
0.0
 10
12.9375843141
 20
8.3744664155
 30
0.0
 10
12.9425387958
 20
8.3841214929
 30
0.0
 10
12.9475237343
 20
8.3933509594
 30
0.0
 10
12.9525361059
 20
8.4021493233
 30
0.0
 10
12.9575729655
 20
8.410511327
 30
0.0
 10
12.9626312638
 20
8.4184320238
 30
0.0
 10
12.9677080666
 20
8.4259066896
 30
0.0
 10
12.9728003202
 20
8.4329309365
 30
0.0
 10
12.9779051248
 20
8.4395005801
 30
0.0
 10
12.983019453
 20
8.4456117974
 30
0.0
 10
12.9881404696
 20
8.4512609365
 30
0.0
 10
12.9932652135
 20
8.4564447263
 30
0.0
 10
12.9983909477
 20
8.4611600142
 30
0.0
 10
13.0035148178
 20
8.4654040299
 30
0.0
 10
13.0086342006
 20
8.4691740395
 30
0.0
 10
13.0137463499
 20
8.4724676628
 30
0.0
 10
13.018848694
 20
8.4752824505
 30
0.0
 10
13.0239384679
 20
8.4776162647
 30
0.0
 10
13.0290129223
 20
8.4794668321
 30
0.0
 10
13.0340689041
 20
8.4808322372
 30
0.0
 10
13.0391032341
 20
8.4817105463
 30
0.0
 10
13.0441114888
 20
8.4821004899
 30
0.0
 10
13.0474367145
 20
8.482034054
 30
0.0
 10
13.0490851342
 20
8.4819197408
 30
0.0
  0
SPLINE
  5
342
100
AcDbEntity
  8
0
100
AcDbSpline
 62
7
  6
CONTINUOUS
 70
0
 71
3
 72
38
 73
34
 74
0
 42
0.0000001
 43
0.0000001
 44
0.0000000001
 40
0.0
 40
0.0
 40
0.0
 40
0.0
 40
0.0063859075
 40
0.012918452
 40
0.02652315
 40
0.0410109005
 40
0.0565339442
 40
0.0732106505
 40
0.0911303938
 40
0.1103586826
 40
0.1309415273
 40
0.1529091175
 40
0.1762788953
 40
0.2010577539
 40
0.2272437326
 40
0.2548275476
 40
0.2837936119
 40
0.3141207535
 40
0.3457830426
 40
0.3787503218
 40
0.4129885067
 40
0.448460082
 40
0.4851244403
 40
0.5229380158
 40
0.5618545985
 40
0.6018256008
 40
0.6428001335
 40
0.6847252213
 40
0.7275460089
 40
0.7712058333
 40
0.8156465573
 40
0.9066280505
 40
1.0
 40
1.0
 40
1.0
 40
1.0
 10
12.912737572
 20
7.1074371469
 30
0.0
 10
12.911829136
 20
7.1077583247
 30
0.0
 10
12.9100143559
 20
7.1084750185
 30
0.0
 10
12.9063999323
 20
7.1101989435
 30
0.0
 10
12.9019191393
 20
7.1129145622
 30
0.0
 10
12.8967171453
 20
7.1169657833
 30
0.0
 10
12.8916208203
 20
7.1218446034
 30
0.0
 10
12.8866355877
 20
7.127542272
 30
0.0
 10
12.881766101
 20
7.1340504054
 30
0.0
 10
12.877017941
 20
7.1413598691
 30
0.0
 10
12.8723969492
 20
7.1494605456
 30
0.0
 10
12.8679092046
 20
7.1583411295
 30
0.0
 10
12.863560914
 20
7.1679891244
 30
0.0
 10
12.8593582629
 20
7.1783907936
 30
0.0
 10
12.8553073003
 20
7.1895311744
 30
0.0
 10
12.8514139655
 20
7.2013941474
 30
0.0
 10
12.8476840201
 20
7.2139624558
 30
0.0
 10
12.8441229651
 20
7.2272177267
 30
0.0
 10
12.8407360958
 20
7.2411405367
 30
0.0
 10
12.8375284777
 20
7.2557104437
 30
0.0
 10
12.8345048723
 20
7.270906008
 30
0.0
 10
12.831669785
 20
7.2867048456
 30
0.0
 10
12.829027467
 20
7.3030836685
 30
0.0
 10
12.8265818495
 20
7.3200183089
 30
0.0
 10
12.824336572
 20
7.3374837647
 30
0.0
 10
12.8222950028
 20
7.3554542451
 30
0.0
 10
12.8204601856
 20
7.3739032018
 30
0.0
 10
12.8188348437
 20
7.3928033702
 30
0.0
 10
12.8174214228
 20
7.4121268067
 30
0.0
 10
12.8162220092
 20
7.4318449841
 30
0.0
 10
12.8149003138
 20
7.4588340612
 30
0.0
 10
12.8138065338
 20
7.4933414523
 30
0.0
 10
12.8135234458
 20
7.5211586001
 30
0.0
 10
12.8135234458
 20
7.5352470738
 30
0.0
  0
SPLINE
  5
343
100
AcDbEntity
  8
0
100
AcDbSpline
 62
7
  6
CONTINUOUS
 70
0
 71
3
 72
51
 73
47
 74
0
 42
0.0000001
 43
0.0000001
 44
0.0000000001
 40
0.0
 40
0.0
 40
0.0
 40
0.0
 40
0.0054988976
 40
0.0111936891
 40
0.0171298501
 40
0.0233469167
 40
0.0298784732
 40
0.0367526586
 40
0.0439925874
 40
0.0516170709
 40
0.0596410644
 40
0.0680763222
 40
0.0769317312
 40
0.0862138281
 40
0.0959270137
 40
0.1060739408
 40
0.1166556415
 40
0.1276718145
 40
0.1391208975
 40
0.1510002786
 40
0.1633063389
 40
0.1760346068
 40
0.189179787
 40
0.2027358704
 40
0.2166961604
 40
0.2310533473
 40
0.2609256125
 40
0.2922840647
 40
0.3250517196
 40
0.3591448979
 40
0.3944739682
 40
0.4309439962
 40
0.4684553286
 40
0.5069041316
 40
0.5461828972
 40
0.5861809273
 40
0.6267848011
 40
0.6678788332
 40
0.709345523
 40
0.7510659996
 40
0.7929204649
 40
0.8347886274
 40
0.8765501598
 40
0.9180850849
 40
0.959274346
 40
1.0
 40
1.0
 40
1.0
 40
1.0
 10
12.9921085971
 20
8.2519328353
 30
0.0
 10
12.9907431424
 20
8.2516541162
 30
0.0
 10
12.9879916744
 20
8.2509402713
 30
0.0
 10
12.9839097842
 20
8.2494446291
 30
0.0
 10
12.979814449
 20
8.2475107119
 30
0.0
 10
12.9757091304
 20
8.2451409481
 30
0.0
 10
12.9715962175
 20
8.2423378671
 30
0.0
 10
12.9674784155
 20
8.2391039289
 30
0.0
 10
12.9633582832
 20
8.2354418626
 30
0.0
 10
12.959238602
 20
8.2313544601
 30
0.0
 10
12.9551221114
 20
8.2268448643
 30
0.0
 10
12.9510117466
 20
8.221916402
 30
0.0
 10
12.9469103951
 20
8.2165727785
 30
0.0
 10
12.9428210948
 20
8.2108179467
 30
0.0
 10
12.9387468217
 20
8.2046562324
 30
0.0
 10
12.9346906593
 20
8.1980922373
 30
0.0
 10
12.9306556225
 20
8.1911309182
 30
0.0
 10
12.9266447987
 20
8.1837775171
 30
0.0
 10
12.9226612066
 20
8.1760376114
 30
0.0
 10
12.9187079089
 20
8.1679170644
 30
0.0
 10
12.9147879038
 20
8.1594220551
 30
0.0
 10
12.9109042106
 20
8.1505590449
 30
0.0
 10
12.9070597873
 20
8.1413347924
 30
0.0
 10
12.9032576019
 20
8.1317563342
 30
0.0
 10
12.8995005327
 20
8.1218309771
 30
0.0
 10
12.8944888198
 20
8.1079608947
 30
0.0
 10
12.8883707885
 20
8.0898047582
 30
0.0
 10
12.881347411
 20
8.0670387719
 30
0.0
 10
12.8745702933
 20
8.0430847195
 30
0.0
 10
12.868060338
 20
8.0180158773
 30
0.0
 10
12.861837637
 20
7.9919087848
 30
0.0
 10
12.8559213815
 20
7.9648432864
 30
0.0
 10
12.8503298105
 20
7.9369021893
 30
0.0
 10
12.8450801529
 20
7.9081710228
 30
0.0
 10
12.8401885765
 20
7.8787377617
 30
0.0
 10
12.8356701391
 20
7.8486925533
 30
0.0
 10
12.8315387433
 20
7.8181274354
 30
0.0
 10
12.8278070946
 20
7.7871360509
 30
0.0
 10
12.824486663
 20
7.7558133584
 30
0.0
 10
12.8215876487
 20
7.7242553376
 30
0.0
 10
12.819118951
 20
7.6925586957
 30
0.0
 10
12.8170881402
 20
7.6608205622
 30
0.0
 10
12.815501438
 20
7.6291382103
 30
0.0
 10
12.8143636899
 20
7.597608693
 30
0.0
 10
12.8136783651
 20
7.5663287346
 30
0.0
 10
12.8135234458
 20
7.5455683622
 30
0.0
 10
12.8135234458
 20
7.5352470738
 30
0.0
  0
SPLINE
  5
344
100
AcDbEntity
  8
0
100
AcDbSpline
 62
7
  6
CONTINUOUS
 70
0
 71
3
 72
78
 73
74
 74
0
 42
0.0000001
 43
0.0000001
 44
0.0000000001
 40
0.0
 40
0.0
 40
0.0
 40
0.0
 40
0.0026209802
 40
0.0052583038
 40
0.0079279905
 40
0.0106454284
 40
0.0134251475
 40
0.0162806123
 40
0.0222638924
 40
0.025415636
 40
0.0286851825
 40
0.0320801556
 40
0.0356071897
 40
0.039271989
 40
0.0430794059
 40
0.0470335743
 40
0.0511379153
 40
0.0553952796
 40
0.059807969
 40
0.0643777917
 40
0.0691061587
 40
0.0739940506
 40
0.0790421353
 40
0.0842507483
 40
0.0896199305
 40
0.0951494927
 40
0.1008389636
 40
0.1126944227
 40
0.1251790489
 40
0.1382823466
 40
0.1519913867
 40
0.1662910911
 40
0.1811644561
 40
0.1965927481
 40
0.2125556712
 40
0.2290315053
 40
0.2459972257
 40
0.263428605
 40
0.2813003123
 40
0.2995860088
 40
0.318258432
 40
0.3372894737
 40
0.3566502521
 40
0.3763111845
 40
0.396242063
 40
0.4164121244
 40
0.4367901168
 40
0.4573443653
 40
0.4988526506
 40
0.5406782339
 40
0.582559255
 40
0.6242334115
 40
0.6654400483
 40
0.6857878532
 40
0.7059228512
 40
0.7258138615
 40
0.7454302012
 40
0.7647417536
 40
0.7837190418
 40
0.8023333012
 40
0.8205565486
 40
0.8383616581
 40
0.8557224395
 40
0.8726137287
 40
0.889011482
 40
0.904892868
 40
0.9202363783
 40
0.9350219459
 40
0.9492310915
 40
0.9628471332
 40
0.9758551882
 40
0.988242996
 40
1.0
 40
1.0
 40
1.0
 40
1.0
 10
12.9374226714
 20
8.743751449
 30
0.0
 10
12.936050249
 20
8.7438466225
 30
0.0
 10
12.9333033638
 20
8.7441505935
 30
0.0
 10
12.9292140563
 20
8.7449442124
 30
0.0
 10
12.9251522983
 20
8.7460755027
 30
0.0
 10
12.9211204752
 20
8.7475434859
 30
0.0
 10
12.9171202168
 20
8.7493473712
 30
0.0
 10
12.9117484816
 20
8.7522430542
 30
0.0
 10
12.9065241449
 20
8.7557879397
 30
0.0
 10
12.9014696015
 20
8.7598953628
 30
0.0
 10
12.8976515337
 20
8.7633590827
 30
0.0
 10
12.8938745763
 20
8.7671501779
 30
0.0
 10
12.8901397427
 20
8.77126734
 30
0.0
 10
12.8864485672
 20
8.775708755
 30
0.0
 10
12.8828023833
 20
8.7804725747
 30
0.0
 10
12.8792026835
 20
8.7855568721
 30
0.0
 10
12.8756508142
 20
8.7909595207
 30
0.0
 10
12.8721482306
 20
8.7966783278
 30
0.0
 10
12.8686963366
 20
8.8027109419
 30
0.0
 10
12.8652964961
 20
8.8090548713
 30
0.0
 10
12.8619501553
 20
8.8157075286
 30
0.0
 10
12.8586586242
 20
8.8226661475
 30
0.0
 10
12.8554233018
 20
8.8299278699
 30
0.0
 10
12.8522455139
 20
8.8374896888
 30
0.0
 10
12.84912656
 20
8.8453484643
 30
0.0
 10
12.846067758
 20
8.8535009625
 30
0.0
 10
12.8420155749
 20
8.8649150429
 30
0.0
 10
12.8371224938
 20
8.8799015802
 30
0.0
 10
12.8315880284
 20
8.8987624578
 30
0.0
 10
12.8263223981
 20
8.9187079247
 30
0.0
 10
12.8213344455
 20
8.9397047959
 30
0.0
 10
12.8166325765
 20
8.9617183188
 30
0.0
 10
12.812224714
 20
8.9847119079
 30
0.0
 10
12.808118289
 20
9.0086473155
 30
0.0
 10
12.8043202294
 20
9.033484684
 30
0.0
 10
12.8008369446
 20
9.0591826283
 30
0.0
 10
12.7976743167
 20
9.0856983046
 30
0.0
 10
12.7948376824
 20
9.1129874824
 30
0.0
 10
12.7923318241
 20
9.1410046223
 30
0.0
 10
12.7901609704
 20
9.1697029592
 30
0.0
 10
12.7883287869
 20
9.1990345849
 30
0.0
 10
12.7868383718
 20
9.2289505266
 30
0.0
 10
12.7856922466
 20
9.2594008271
 30
0.0
 10
12.7848923481
 20
9.2903346288
 30
0.0
 10
12.7844400324
 20
9.3217002664
 30
0.0
 10
12.7843360815
 20
9.3534453382
 30
0.0
 10
12.7845806641
 20
9.3855168612
 30
0.0
 10
12.7853736459
 20
9.4287822337
 30
0.0
 10
12.7872360707
 20
9.4832842616
 30
0.0
 10
12.7908316272
 20
9.5489139605
 30
0.0
 10
12.795771358
 20
9.6145436967
 30
0.0
 10
12.8020222078
 20
9.6797350496
 30
0.0
 10
12.8083148159
 20
9.733556215
 30
0.0
 10
12.8139807416
 20
9.7760586497
 30
0.0
 10
12.8185116004
 20
9.8074231837
 30
0.0
 10
12.8233338726
 20
9.8383557096
 30
0.0
 10
12.8284395161
 20
9.8688046005
 30
0.0
 10
12.8338199755
 20
9.8987189907
 30
0.0
 10
12.8394662397
 20
9.9280489272
 30
0.0
 10
12.8453688446
 20
9.9567454384
 30
0.0
 10
12.8515178983
 20
9.9847606179
 30
0.0
 10
12.8579030948
 20
10.0120477019
 30
0.0
 10
12.8645137328
 20
10.0385611502
 30
0.0
 10
12.8713387293
 20
10.0642567299
 30
0.0
 10
12.8783666343
 20
10.0890915932
 30
0.0
 10
12.8855856593
 20
10.1130243489
 30
0.0
 10
12.8929836961
 20
10.1360151309
 30
0.0
 10
12.900548338
 20
10.1580256661
 30
0.0
 10
12.9082669057
 20
10.179019383
 30
0.0
 10
12.9161264516
 20
10.198961359
 30
0.0
 10
12.9241138565
 20
10.2178187757
 30
0.0
 10
12.9322156573
 20
10.2355600204
 30
0.0
 10
12.9378322247
 20
10.2469237419
 30
0.0
 10
12.9406632424
 20
10.2524071532
 30
0.0
  0
SPLINE
  5
345
100
AcDbEntity
  8
0
100
AcDbSpline
 62
7
  6
CONTINUOUS
 70
0
 71
3
 72
38
 73
34
 74
0
 42
0.0000001
 43
0.0000001
 44
0.0000000001
 40
0.0
 40
0.0
 40
0.0
 40
0.0
 40
0.0063859075
 40
0.012918452
 40
0.02652315
 40
0.0410109005
 40
0.0565339442
 40
0.0732106505
 40
0.0911303938
 40
0.1103586826
 40
0.1309415273
 40
0.1529091175
 40
0.1762788953
 40
0.2010577539
 40
0.2272437326
 40
0.2548275476
 40
0.2837936119
 40
0.3141207535
 40
0.3457830426
 40
0.3787503218
 40
0.4129885067
 40
0.448460082
 40
0.4851244403
 40
0.5229380158
 40
0.5618545985
 40
0.6018256008
 40
0.6428001335
 40
0.6847252213
 40
0.7275460089
 40
0.7712058333
 40
0.8156465573
 40
0.9066280505
 40
1.0
 40
1.0
 40
1.0
 40
1.0
 10
12.912737572
 20
8.9794015893
 30
0.0
 10
12.911829136
 20
8.9797227671
 30
0.0
 10
12.9100143559
 20
8.9804394609
 30
0.0
 10
12.9063999323
 20
8.9821633859
 30
0.0
 10
12.9019191393
 20
8.9848790047
 30
0.0
 10
12.8967171453
 20
8.9889302257
 30
0.0
 10
12.8916208203
 20
8.9938090458
 30
0.0
 10
12.8866355877
 20
8.9995067144
 30
0.0
 10
12.881766101
 20
9.0060148478
 30
0.0
 10
12.877017941
 20
9.0133243115
 30
0.0
 10
12.8723969492
 20
9.021424988
 30
0.0
 10
12.8679092046
 20
9.0303055719
 30
0.0
 10
12.863560914
 20
9.0399535668
 30
0.0
 10
12.8593582629
 20
9.050355236
 30
0.0
 10
12.8553073003
 20
9.0614956168
 30
0.0
 10
12.8514139655
 20
9.0733585898
 30
0.0
 10
12.8476840201
 20
9.0859268982
 30
0.0
 10
12.8441229651
 20
9.0991821691
 30
0.0
 10
12.8407360958
 20
9.1131049791
 30
0.0
 10
12.8375284777
 20
9.1276748861
 30
0.0
 10
12.8345048723
 20
9.1428704504
 30
0.0
 10
12.831669785
 20
9.158669288
 30
0.0
 10
12.829027467
 20
9.1750481109
 30
0.0
 10
12.8265818495
 20
9.1919827513
 30
0.0
 10
12.824336572
 20
9.2094482071
 30
0.0
 10
12.8222950028
 20
9.2274186875
 30
0.0
 10
12.8204601856
 20
9.2458676442
 30
0.0
 10
12.8188348437
 20
9.2647678126
 30
0.0
 10
12.8174214228
 20
9.2840912492
 30
0.0
 10
12.8162220092
 20
9.3038094265
 30
0.0
 10
12.8149003138
 20
9.3307985036
 30
0.0
 10
12.8138065338
 20
9.3653058947
 30
0.0
 10
12.8135234458
 20
9.3931230425
 30
0.0
 10
12.8135234458
 20
9.4072115162
 30
0.0
  0
SPLINE
  5
346
100
AcDbEntity
  8
0
100
AcDbSpline
 62
7
  6
CONTINUOUS
 70
0
 71
3
 72
51
 73
47
 74
0
 42
0.0000001
 43
0.0000001
 44
0.0000000001
 40
0.0
 40
0.0
 40
0.0
 40
0.0
 40
0.0054988976
 40
0.0111936891
 40
0.0171298501
 40
0.0233469167
 40
0.0298784732
 40
0.0367526586
 40
0.0439925874
 40
0.0516170709
 40
0.0596410644
 40
0.0680763222
 40
0.0769317312
 40
0.0862138281
 40
0.0959270137
 40
0.1060739408
 40
0.1166556415
 40
0.1276718145
 40
0.1391208975
 40
0.1510002786
 40
0.1633063389
 40
0.1760346068
 40
0.189179787
 40
0.2027358704
 40
0.2166961604
 40
0.2310533473
 40
0.2609256125
 40
0.2922840647
 40
0.3250517196
 40
0.3591448979
 40
0.3944739682
 40
0.4309439962
 40
0.4684553286
 40
0.5069041316
 40
0.5461828972
 40
0.5861809273
 40
0.6267848011
 40
0.6678788332
 40
0.709345523
 40
0.7510659996
 40
0.7929204649
 40
0.8347886274
 40
0.8765501598
 40
0.9180850849
 40
0.959274346
 40
1.0
 40
1.0
 40
1.0
 40
1.0
 10
12.9921085971
 20
10.1238972777
 30
0.0
 10
12.9907431424
 20
10.1236185586
 30
0.0
 10
12.9879916744
 20
10.1229047138
 30
0.0
 10
12.9839097842
 20
10.1214090716
 30
0.0
 10
12.979814449
 20
10.1194751543
 30
0.0
 10
12.9757091304
 20
10.1171053905
 30
0.0
 10
12.9715962175
 20
10.1143023095
 30
0.0
 10
12.9674784155
 20
10.1110683713
 30
0.0
 10
12.9633582832
 20
10.107406305
 30
0.0
 10
12.959238602
 20
10.1033189025
 30
0.0
 10
12.9551221114
 20
10.0988093067
 30
0.0
 10
12.9510117466
 20
10.0938808445
 30
0.0
 10
12.9469103951
 20
10.0885372209
 30
0.0
 10
12.9428210948
 20
10.0827823891
 30
0.0
 10
12.9387468217
 20
10.0766206748
 30
0.0
 10
12.9346906593
 20
10.0700566797
 30
0.0
 10
12.9306556225
 20
10.0630953606
 30
0.0
 10
12.9266447987
 20
10.0557419595
 30
0.0
 10
12.9226612066
 20
10.0480020538
 30
0.0
 10
12.9187079089
 20
10.0398815068
 30
0.0
 10
12.9147879038
 20
10.0313864975
 30
0.0
 10
12.9109042106
 20
10.0225234874
 30
0.0
 10
12.9070597873
 20
10.0132992348
 30
0.0
 10
12.9032576019
 20
10.0037207767
 30
0.0
 10
12.8995005327
 20
9.9937954195
 30
0.0
 10
12.8944888198
 20
9.9799253371
 30
0.0
 10
12.8883707885
 20
9.9617692006
 30
0.0
 10
12.881347411
 20
9.9390032143
 30
0.0
 10
12.8745702933
 20
9.9150491619
 30
0.0
 10
12.868060338
 20
9.8899803198
 30
0.0
 10
12.861837637
 20
9.8638732272
 30
0.0
 10
12.8559213815
 20
9.8368077288
 30
0.0
 10
12.8503298105
 20
9.8088666317
 30
0.0
 10
12.8450801529
 20
9.7801354652
 30
0.0
 10
12.8401885765
 20
9.7507022041
 30
0.0
 10
12.8356701391
 20
9.7206569957
 30
0.0
 10
12.8315387433
 20
9.6900918778
 30
0.0
 10
12.8278070946
 20
9.6591004933
 30
0.0
 10
12.824486663
 20
9.6277778008
 30
0.0
 10
12.8215876487
 20
9.59621978
 30
0.0
 10
12.819118951
 20
9.5645231381
 30
0.0
 10
12.8170881402
 20
9.5327850046
 30
0.0
 10
12.815501438
 20
9.5011026527
 30
0.0
 10
12.8143636899
 20
9.4695731354
 30
0.0
 10
12.8136783651
 20
9.438293177
 30
0.0
 10
12.8135234458
 20
9.4175328046
 30
0.0
 10
12.8135234458
 20
9.4072115162
 30
0.0
  0
SPLINE
  5
347
100
AcDbEntity
  8
0
100
AcDbSpline
 62
7
  6
CONTINUOUS
 70
0
 71
3
 72
11
 73
7
 74
0
 42
0.0000001
 43
0.0000001
 44
0.0000000001
 40
0.0
 40
0.0
 40
0.0
 40
0.0
 40
0.2595913907
 40
0.5112559066
 40
0.7572502442
 40
1.0
 40
1.0
 40
1.0
 40
1.0
 10
9.5700989117
 20
10.5899197111
 30
0.0
 10
9.5684138297
 20
10.5908360434
 30
0.0
 10
9.565013721
 20
10.5924965968
 30
0.0
 10
9.5597660327
 20
10.5944633575
 30
0.0
 10
9.5544665251
 20
10.5958589497
 30
0.0
 10
9.5508892276
 20
10.5964087069
 30
0.0
 10
9.549104352
 20
10.5965861355
 30
0.0
  0
SPLINE
  5
348
100
AcDbEntity
  8
0
100
AcDbSpline
 62
7
  6
CONTINUOUS
 70
0
 71
3
 72
21
 73
17
 74
0
 42
0.0000001
 43
0.0000001
 44
0.0000000001
 40
0.0
 40
0.0
 40
0.0
 40
0.0
 40
0.063703438
 40
0.1272282717
 40
0.190556412
 40
0.2536804575
 40
0.3166019522
 40
0.3793296766
 40
0.4418780543
 40
0.5042653643
 40
0.5665123076
 40
0.6286407904
 40
0.6906727064
 40
0.7526292353
 40
0.8763636135
 40
1.0
 40
1.0
 40
1.0
 40
1.0
 10
10.9001053953
 20
8.9969749751
 30
0.0
 10
10.8963908875
 20
8.992176544
 30
0.0
 10
10.8891520676
 20
8.982452289
 30
0.0
 10
10.8788816805
 20
8.9674801933
 30
0.0
 10
10.8692390348
 20
8.9521609818
 30
0.0
 10
10.8602473484
 20
8.9365170267
 30
0.0
 10
10.851925767
 20
8.920570905
 30
0.0
 10
10.8442901463
 20
8.9043456829
 30
0.0
 10
10.8373533249
 20
8.8878647598
 30
0.0
 10
10.831125699
 20
8.8711518181
 30
0.0
 10
10.8256155925
 20
8.8542308032
 30
0.0
 10
10.8208295746
 20
8.8371261227
 30
0.0
 10
10.8167726618
 20
8.8198621487
 30
0.0
 10
10.8123432517
 20
8.7966784135
 30
0.0
 10
10.8086417794
 20
8.7674101409
 30
0.0
 10
10.8076538299
 20
8.7438353668
 30
0.0
 10
10.8076538299
 20
8.7320582191
 30
0.0
  0
SPLINE
  5
349
100
AcDbEntity
  8
0
100
AcDbSpline
 62
7
  6
CONTINUOUS
 70
0
 71
3
 72
46
 73
42
 74
0
 42
0.0000001
 43
0.0000001
 44
0.0000000001
 40
0.0
 40
0.0
 40
0.0
 40
0.0
 40
0.0149720525
 40
0.0299471649
 40
0.0449283772
 40
0.0599186917
 40
0.0749210573
 40
0.0899383484
 40
0.1049733476
 40
0.1200287333
 40
0.1351070597
 40
0.1502107421
 40
0.1653420474
 40
0.1805030776
 40
0.1956957572
 40
0.2109218287
 40
0.2414745667
 40
0.2721768461
 40
0.3030351766
 40
0.3340525707
 40
0.3652285255
 40
0.3965590884
 40
0.4280369959
 40
0.4596518697
 40
0.4913904744
 40
0.523237028
 40
0.5551735471
 40
0.5871802301
 40
0.6192358692
 40
0.6513182802
 40
0.6834047461
 40
0.7154724694
 40
0.7474990252
 40
0.7794628091
 40
0.811343472
 40
0.843122339
 40
0.8747828041
 40
0.9063106918
 40
0.9376946023
 40
0.9689259241
 40
1.0
 40
1.0
 40
1.0
 40
1.0
 10
10.7451817811
 20
8.953992124
 30
0.0
 10
10.7496614189
 20
8.958319111
 30
0.0
 10
10.7587947148
 20
8.9667968001
 30
0.0
 10
10.7729906391
 20
8.9789602831
 30
0.0
 10
10.7876645878
 20
8.99055533
 30
0.0
 10
10.8027960351
 20
9.0015657766
 30
0.0
 10
10.8183642333
 20
9.0119765489
 30
0.0
 10
10.8343477709
 20
9.021773249
 30
0.0
 10
10.8507246166
 20
9.0309424667
 30
0.0
 10
10.8674722344
 20
9.0394715883
 30
0.0
 10
10.8845676044
 20
9.0473488298
 30
0.0
 10
10.9019871613
 20
9.0545634272
 30
0.0
 10
10.9197069662
 20
9.0611054586
 30
0.0
 10
10.9377025595
 20
9.0669658677
 30
0.0
 10
10.9559495076
 20
9.072136721
 30
0.0
 10
10.9806050326
 20
9.078108446
 30
0.0
 10
11.0119390657
 20
9.0838116874
 30
0.0
 10
11.0500850151
 20
9.0877955709
 30
0.0
 10
11.0886162948
 20
9.0889076641
 30
0.0
 10
11.1273195374
 20
9.0871418902
 30
0.0
 10
11.1659823843
 20
9.082508577
 30
0.0
 10
11.2043923086
 20
9.0750336435
 30
0.0
 10
11.2423383741
 20
9.0647585242
 30
0.0
 10
11.2796122357
 20
9.0517400463
 30
0.0
 10
11.3160093195
 20
9.0360500641
 30
0.0
 10
11.3513298651
 20
9.0177749505
 30
0.0
 10
11.3853800622
 20
8.9970152609
 30
0.0
 10
11.4179731117
 20
8.9738851639
 30
0.0
 10
11.4489301584
 20
8.9485117039
 30
0.0
 10
11.4780813235
 20
8.9210342182
 30
0.0
 10
11.5052666624
 20
8.8916035921
 30
0.0
 10
11.5303369231
 20
8.8603813278
 30
0.0
 10
11.5531544194
 20
8.8275387466
 30
0.0
 10
11.5735938507
 20
8.7932560927
 30
0.0
 10
11.5915428451
 20
8.7577214528
 30
0.0
 10
11.6069026255
 20
8.7211298142
 30
0.0
 10
11.6195886578
 20
8.683681954
 30
0.0
 10
11.6295309672
 20
8.6455836018
 30
0.0
 10
11.6366744931
 20
8.6070432242
 30
0.0
 10
11.640979765
 20
8.5682752093
 30
0.0
 10
11.6419440513
 20
8.5423471092
 30
0.0
 10
11.6419440513
 20
8.5294207384
 30
0.0
  0
SPLINE
  5
34A
100
AcDbEntity
  8
0
100
AcDbSpline
 62
7
  6
CONTINUOUS
 70
0
 71
3
 72
33
 73
29
 74
0
 42
0.0000001
 43
0.0000001
 44
0.0000000001
 40
0.0
 40
0.0
 40
0.0
 40
0.0
 40
0.018120629
 40
0.0357918537
 40
0.05318789
 40
0.0704943039
 40
0.0878995757
 40
0.1055906847
 40
0.1237484907
 40
0.1425401482
 40
0.1825802461
 40
0.2041295063
 40
0.2268301584
 40
0.2507728251
 40
0.2760362446
 40
0.3026887766
 40
0.3307874636
 40
0.3603829711
 40
0.3915170753
 40
0.4242255071
 40
0.458539062
 40
0.4944813602
 40
0.5320734747
 40
0.612247886
 40
0.6991497644
 40
0.7927872171
 40
0.893107522
 40
1.0
 40
1.0
 40
1.0
 40
1.0
 10
10.3149029561
 20
7.3320387799
 30
0.0
 10
10.3149030797
 20
7.3314250289
 30
0.0
 10
10.3149645753
 20
7.3302116557
 30
0.0
 10
10.3152512233
 20
7.3284294976
 30
0.0
 10
10.3157306611
 20
7.3267174814
 30
0.0
 10
10.3164024296
 20
7.3250810785
 30
0.0
 10
10.3172655186
 20
7.3235255643
 30
0.0
 10
10.3183185493
 20
7.3220563757
 30
0.0
 10
10.3195600216
 20
7.320678775
 30
0.0
 10
10.3215041771
 20
7.3189348581
 30
0.0
 10
10.3238002145
 20
7.3174368932
 30
0.0
 10
10.3263705404
 20
7.3161901366
 30
0.0
 10
10.328524696
 20
7.3153497498
 30
0.0
 10
10.3308545132
 20
7.3146334557
 30
0.0
 10
10.3333578921
 20
7.3140467415
 30
0.0
 10
10.3360318723
 20
7.3135955632
 30
0.0
 10
10.3388734124
 20
7.3132858287
 30
0.0
 10
10.3418790753
 20
7.3131235836
 30
0.0
 10
10.3450451312
 20
7.3131147798
 30
0.0
 10
10.3483675031
 20
7.3132654157
 30
0.0
 10
10.3518417169
 20
7.31358142
 30
0.0
 10
10.3554630457
 20
7.3140685227
 30
0.0
 10
10.3605912083
 20
7.3149734339
 30
0.0
 10
10.3673408778
 20
7.3165849963
 30
0.0
 10
10.3757674005
 20
7.319247592
 30
0.0
 10
10.3846328773
 20
7.3227154315
 30
0.0
 10
10.3938761365
 20
7.3270188648
 30
0.0
 10
10.4000549096
 20
7.3303574194
 30
0.0
 10
10.4031913707
 20
7.3321658671
 30
0.0
  0
SPLINE
  5
34B
100
AcDbEntity
  8
0
100
AcDbSpline
 62
7
  6
CONTINUOUS
 70
0
 71
3
 72
42
 73
38
 74
0
 42
0.0000001
 43
0.0000001
 44
0.0000000001
 40
0.0
 40
0.0
 40
0.0
 40
0.0
 40
0.0055576443
 40
0.0111781836
 40
0.0169222355
 40
0.022846223
 40
0.0290011442
 40
0.0354316623
 40
0.0421762431
 40
0.049267259
 40
0.0567314277
 40
0.0645907244
 40
0.072862575
 40
0.081560766
 40
0.0906959315
 40
0.100275708
 40
0.1103055927
 40
0.1207888494
 40
0.1431177711
 40
0.1672591076
 40
0.1931868442
 40
0.2208588039
 40
0.2502193991
 40
0.2812018039
 40
0.3137295194
 40
0.3477175618
 40
0.3830734051
 40
0.419697946
 40
0.4574862654
 40
0.4963282772
 40
0.5361092896
 40
0.5767106614
 40
0.6598810502
 40
0.7448351505
 40
0.8305372122
 40
0.9159392559
 40
1.0
 40
1.0
 40
1.0
 40
1.0
 10
12.3664043199
 20
9.9065763577
 30
0.0
 10
12.3664043199
 20
9.9061508634
 30
0.0
 10
12.3663566978
 20
9.905294318
 30
0.0
 10
12.366142874
 20
9.9040140735
 30
0.0
 10
12.3657870581
 20
9.9027366884
 30
0.0
 10
12.3652899656
 20
9.9014636256
 30
0.0
 10
12.3646523355
 20
9.9001959561
 30
0.0
 10
12.3638751166
 20
9.8989346048
 30
0.0
 10
12.3629591345
 20
9.8976804685
 30
0.0
 10
12.3619052961
 20
9.8964343952
 30
0.0
 10
12.3607145778
 20
9.8951971852
 30
0.0
 10
12.3593879251
 20
9.8939697549
 30
0.0
 10
12.3579264588
 20
9.8927529366
 30
0.0
 10
12.3563313359
 20
9.8915476383
 30
0.0
 10
12.3546038101
 20
9.8903548024
 30
0.0
 10
12.3527452886
 20
9.8891753036
 30
0.0
 10
12.3507572278
 20
9.8880100929
 30
0.0
 10
12.3478748804
 20
9.8864437031
 30
0.0
 10
12.3439513154
 20
9.8845358879
 30
0.0
 10
12.3388498448
 20
9.8823637118
 30
0.0
 10
12.333276642
 20
9.8802700002
 30
0.0
 10
12.3272497024
 20
9.8782616097
 30
0.0
 10
12.320788379
 20
9.8763451369
 30
0.0
 10
12.3139136116
 20
9.8745269167
 30
0.0
 10
12.3066477312
 20
9.8728129707
 30
0.0
 10
12.2990144078
 20
9.8712089828
 30
0.0
 10
12.2910385567
 20
9.8697202561
 30
0.0
 10
12.2827462413
 20
9.8683517187
 30
0.0
 10
12.2741645736
 20
9.8671078992
 30
0.0
 10
12.2653216358
 20
9.8659929271
 30
0.0
 10
12.2562463542
 20
9.8650104563
 30
0.0
 10
12.2437760504
 20
9.8638725135
 30
0.0
 10
12.2278284277
 20
9.8628096807
 30
0.0
 10
12.208405198
 20
9.8621102796
 30
0.0
 10
12.1887988063
 20
9.861986467
 30
0.0
 10
12.1692658955
 20
9.8624398672
 30
0.0
 10
12.1563077801
 20
9.8631311424
 30
0.0
 10
12.1498874949
 20
9.8635763906
 30
0.0
  0
SPLINE
  5
34C
100
AcDbEntity
  8
0
100
AcDbSpline
 62
7
  6
CONTINUOUS
 70
0
 71
3
 72
42
 73
38
 74
0
 42
0.0000001
 43
0.0000001
 44
0.0000000001
 40
0.0
 40
0.0
 40
0.0
 40
0.0
 40
0.0055576443
 40
0.0111781836
 40
0.0169222355
 40
0.022846223
 40
0.0290011442
 40
0.0354316623
 40
0.0421762431
 40
0.049267259
 40
0.0567314277
 40
0.0645907244
 40
0.072862575
 40
0.081560766
 40
0.0906959315
 40
0.100275708
 40
0.1103055927
 40
0.1207888494
 40
0.1431177711
 40
0.1672591076
 40
0.1931868442
 40
0.2208588039
 40
0.2502193991
 40
0.2812018039
 40
0.3137295194
 40
0.3477175618
 40
0.3830734051
 40
0.419697946
 40
0.4574862654
 40
0.4963282772
 40
0.5361092896
 40
0.5767106614
 40
0.6598810502
 40
0.7448351505
 40
0.8305372122
 40
0.9159392559
 40
1.0
 40
1.0
 40
1.0
 40
1.0
 10
9.5893674048
 20
10.0991645219
 30
0.0
 10
9.5893674048
 20
10.0987390276
 30
0.0
 10
9.5893197826
 20
10.0978824822
 30
0.0
 10
9.5891059589
 20
10.0966022377
 30
0.0
 10
9.5887501429
 20
10.0953248526
 30
0.0
 10
9.5882530505
 20
10.0940517898
 30
0.0
 10
9.5876154204
 20
10.0927841202
 30
0.0
 10
9.5868382015
 20
10.091522769
 30
0.0
 10
9.5859222194
 20
10.0902686327
 30
0.0
 10
9.5848683809
 20
10.0890225594
 30
0.0
 10
9.5836776626
 20
10.0877853494
 30
0.0
 10
9.58235101
 20
10.0865579191
 30
0.0
 10
9.5808895437
 20
10.0853411007
 30
0.0
 10
9.5792944208
 20
10.0841358024
 30
0.0
 10
9.577566895
 20
10.0829429666
 30
0.0
 10
9.5757083734
 20
10.0817634678
 30
0.0
 10
9.5737203127
 20
10.0805982571
 30
0.0
 10
9.5708379653
 20
10.0790318673
 30
0.0
 10
9.5669144003
 20
10.0771240521
 30
0.0
 10
9.5618129297
 20
10.074951876
 30
0.0
 10
9.5562397268
 20
10.0728581644
 30
0.0
 10
9.5502127873
 20
10.0708497739
 30
0.0
 10
9.5437514639
 20
10.0689333011
 30
0.0
 10
9.5368766965
 20
10.0671150809
 30
0.0
 10
9.5296108161
 20
10.0654011349
 30
0.0
 10
9.5219774927
 20
10.0637971469
 30
0.0
 10
9.5140016415
 20
10.0623084203
 30
0.0
 10
9.5057093262
 20
10.0609398829
 30
0.0
 10
9.4971276584
 20
10.0596960634
 30
0.0
 10
9.4882847207
 20
10.0585810913
 30
0.0
 10
9.4792094391
 20
10.0575986205
 30
0.0
 10
9.4667391352
 20
10.0564606777
 30
0.0
 10
9.4507915126
 20
10.0553978449
 30
0.0
 10
9.4313682828
 20
10.0546984438
 30
0.0
 10
9.4117618912
 20
10.0545746311
 30
0.0
 10
9.3922289804
 20
10.0550280314
 30
0.0
 10
9.379270865
 20
10.0557193065
 30
0.0
 10
9.3728505798
 20
10.0561645548
 30
0.0
  0
SPLINE
  5
34D
100
AcDbEntity
  8
0
100
AcDbSpline
 62
7
  6
CONTINUOUS
 70
0
 71
3
 72
46
 73
42
 74
0
 42
0.0000001
 43
0.0000001
 44
0.0000000001
 40
0.0
 40
0.0
 40
0.0
 40
0.0
 40
0.0149720525
 40
0.0299471649
 40
0.0449283772
 40
0.0599186917
 40
0.0749210573
 40
0.0899383484
 40
0.1049733476
 40
0.1200287333
 40
0.1351070597
 40
0.1502107421
 40
0.1653420474
 40
0.1805030776
 40
0.1956957572
 40
0.2109218287
 40
0.2414745667
 40
0.2721768461
 40
0.3030351766
 40
0.3340525707
 40
0.3652285255
 40
0.3965590884
 40
0.4280369959
 40
0.4596518697
 40
0.4913904744
 40
0.523237028
 40
0.5551735471
 40
0.5871802301
 40
0.6192358692
 40
0.6513182802
 40
0.6834047461
 40
0.7154724694
 40
0.7474990252
 40
0.7794628091
 40
0.811343472
 40
0.843122339
 40
0.8747828041
 40
0.9063106918
 40
0.9376946023
 40
0.9689259241
 40
1.0
 40
1.0
 40
1.0
 40
1.0
 10
9.5986278375
 20
7.947805147
 30
0.0
 10
9.6031074753
 20
7.952132134
 30
0.0
 10
9.6122407712
 20
7.9606098231
 30
0.0
 10
9.6264366955
 20
7.972773306
 30
0.0
 10
9.6411106442
 20
7.9843683529
 30
0.0
 10
9.6562420915
 20
7.9953787995
 30
0.0
 10
9.6718102897
 20
8.0057895718
 30
0.0
 10
9.6877938273
 20
8.015586272
 30
0.0
 10
9.704170673
 20
8.0247554896
 30
0.0
 10
9.7209182908
 20
8.0332846113
 30
0.0
 10
9.7380136608
 20
8.0411618528
 30
0.0
 10
9.7554332177
 20
8.0483764501
 30
0.0
 10
9.7731530226
 20
8.0549184816
 30
0.0
 10
9.7911486159
 20
8.0607788907
 30
0.0
 10
9.809395564
 20
8.065949744
 30
0.0
 10
9.834051089
 20
8.071921469
 30
0.0
 10
9.8653851221
 20
8.0776247104
 30
0.0
 10
9.9035310715
 20
8.0816085938
 30
0.0
 10
9.9420623512
 20
8.082720687
 30
0.0
 10
9.9807655938
 20
8.0809549131
 30
0.0
 10
10.0194284407
 20
8.0763216
 30
0.0
 10
10.057838365
 20
8.0688466665
 30
0.0
 10
10.0957844305
 20
8.0585715472
 30
0.0
 10
10.1330582921
 20
8.0455530693
 30
0.0
 10
10.1694553759
 20
8.0298630871
 30
0.0
 10
10.2047759215
 20
8.0115879734
 30
0.0
 10
10.2388261186
 20
7.9908282839
 30
0.0
 10
10.2714191681
 20
7.9676981869
 30
0.0
 10
10.3023762148
 20
7.9423247269
 30
0.0
 10
10.3315273799
 20
7.9148472412
 30
0.0
 10
10.3587127188
 20
7.885416615
 30
0.0
 10
10.3837829795
 20
7.8541943507
 30
0.0
 10
10.4066004758
 20
7.8213517695
 30
0.0
 10
10.4270399071
 20
7.7870691157
 30
0.0
 10
10.4449889015
 20
7.7515344758
 30
0.0
 10
10.4603486819
 20
7.7149428372
 30
0.0
 10
10.4730347142
 20
7.677494977
 30
0.0
 10
10.4829770236
 20
7.6393966248
 30
0.0
 10
10.4901205495
 20
7.6008562471
 30
0.0
 10
10.4944258214
 20
7.5620882323
 30
0.0
 10
10.4953901077
 20
7.5361601322
 30
0.0
 10
10.4953901077
 20
7.5232337614
 30
0.0
  0
SPLINE
  5
34E
100
AcDbEntity
  8
0
100
AcDbSpline
 62
7
  6
CONTINUOUS
 70
0
 71
3
 72
73
 73
69
 74
0
 42
0.0000001
 43
0.0000001
 44
0.0000000001
 40
0.0
 40
0.0
 40
0.0
 40
0.0
 40
0.0115169624
 40
0.0236344198
 40
0.0363426332
 40
0.0496304956
 40
0.0634844519
 40
0.0778893166
 40
0.0928282776
 40
0.1082830728
 40
0.1242341291
 40
0.1406606614
 40
0.1575407634
 40
0.1748515035
 40
0.1925690112
 40
0.2106685512
 40
0.2291245895
 40
0.2479108568
 40
0.2670004219
 40
0.2863657555
 40
0.3059787888
 40
0.3258109692
 40
0.3660159721
 40
0.4067455375
 40
0.4477599013
 40
0.4888171647
 40
0.529675105
 40
0.5700929985
 40
0.6098334273
 40
0.629377053
 40
0.6486647327
 40
0.6676685447
 40
0.6863611237
 40
0.7047157305
 40
0.7227063089
 40
0.7403075482
 40
0.7574949511
 40
0.7742449127
 40
0.7905348009
 40
0.8063430304
 40
0.8216491523
 40
0.8364339561
 40
0.8506795979
 40
0.8643697252
 40
0.8774896253
 40
0.8900264099
 40
0.9019692476
 40
0.9133096511
 40
0.9240418135
 40
0.9291790784
 40
0.934163577
 40
0.9389955452
 40
0.9436755304
 40
0.948204344
 40
0.9525831617
 40
0.956813528
 40
0.9608973791
 40
0.9648371509
 40
0.9686357576
 40
0.9722967056
 40
0.9758241464
 40
0.979222915
 40
0.9824986677
 40
0.9856578974
 40
0.9887080437
 40
0.9945131534
 40
0.9972910097
 40
1.0
 40
1.0
 40
1.0
 40
1.0
 10
13.0149348159
 20
6.9754073969
 30
0.0
 10
13.0176802524
 20
6.9807250391
 30
0.0
 10
13.0231287548
 20
6.9917341064
 30
0.0
 10
13.0309973143
 20
7.0089040049
 30
0.0
 10
13.0387588228
 20
7.0271271022
 30
0.0
 10
13.0464009581
 20
7.0463745822
 30
0.0
 10
13.053911708
 20
7.0666166233
 30
0.0
 10
13.0612792077
 20
7.0878214943
 30
0.0
 10
13.0684918333
 20
7.1099559988
 30
0.0
 10
13.0755381907
 20
7.1329854304
 30
0.0
 10
13.0824071493
 20
7.1568736565
 30
0.0
 10
13.0890878521
 20
7.1815831762
 30
0.0
 10
13.0955697514
 20
7.2070751718
 30
0.0
 10
13.1018426144
 20
7.2333095798
 30
0.0
 10
13.1078965364
 20
7.2602451623
 30
0.0
 10
13.1137219574
 20
7.2878395729
 30
0.0
 10
13.1193096787
 20
7.316049419
 30
0.0
 10
13.1246508879
 20
7.3448303281
 30
0.0
 10
13.1297371611
 20
7.3741370277
 30
0.0
 10
13.134560466
 20
7.4039234064
 30
0.0
 10
13.1391132202
 20
7.4341426397
 30
0.0
 10
13.1448389886
 20
7.4751338527
 30
0.0
 10
13.1512607033
 20
7.5271039815
 30
0.0
 10
13.1577509816
 20
7.5901430444
 30
0.0
 10
13.1630188248
 20
7.6537404719
 30
0.0
 10
13.1670310841
 20
7.7174962107
 30
0.0
 10
13.1697625523
 20
7.7810095421
 30
0.0
 10
13.1711961769
 20
7.8438809378
 30
0.0
 10
13.1713028171
 20
7.8956930611
 30
0.0
 10
13.1707215733
 20
7.9365177246
 30
0.0
 10
13.1699605033
 20
7.9665615186
 30
0.0
 10
13.1688732036
 20
7.9961527508
 30
0.0
 10
13.167461374
 20
8.0252449051
 30
0.0
 10
13.165727275
 20
8.0537922084
 30
0.0
 10
13.1636736646
 20
8.0817497645
 30
0.0
 10
13.1613038069
 20
8.1090736037
 30
0.0
 10
13.158621462
 20
8.1357207592
 30
0.0
 10
13.1556308904
 20
8.1616493402
 30
0.0
 10
13.1523368491
 20
8.1868186022
 30
0.0
 10
13.1487445716
 20
8.2111890078
 30
0.0
 10
13.1448597631
 20
8.2347222871
 30
0.0
 10
13.140688587
 20
8.2573815076
 30
0.0
 10
13.1362376724
 20
8.2791311445
 30
0.0
 10
13.1315140889
 20
8.2999371389
 30
0.0
 10
13.1265253291
 20
8.31976696
 30
0.0
 10
13.1212792919
 20
8.3385896341
 30
0.0
 10
13.1157842577
 20
8.3563759291
 30
0.0
 10
13.1100488955
 20
8.3730980318
 30
0.0
 10
13.1050058577
 20
8.3863108012
 30
0.0
 10
13.100847603
 20
8.3963181889
 30
0.0
 10
13.0977199624
 20
8.4034319699
 30
0.0
 10
13.094539082
 20
8.4102608805
 30
0.0
 10
13.0913062231
 20
8.4168022937
 30
0.0
 10
13.0880225959
 20
8.4230536456
 30
0.0
 10
13.0846894848
 20
8.4290125171
 30
0.0
 10
13.0813081865
 20
8.4346766088
 30
0.0
 10
13.0778799351
 20
8.4400437004
 30
0.0
 10
13.0744060866
 20
8.4451117487
 30
0.0
 10
13.0708878949
 20
8.4498787689
 30
0.0
 10
13.067326664
 20
8.4543429151
 30
0.0
 10
13.0637237367
 20
8.4585024696
 30
0.0
 10
13.060080314
 20
8.4623557672
 30
0.0
 10
13.0563978684
 20
8.4659012488
 30
0.0
 10
13.052677249
 20
8.4691376889
 30
0.0
 10
13.0477501322
 20
8.4729748193
 30
0.0
 10
13.0426642357
 20
8.4762766303
 30
0.0
 10
13.0374440759
 20
8.4789638336
 30
0.0
 10
13.0348217148
 20
8.4800903858
 30
0.0
 10
13.0335087353
 20
8.4805979442
 30
0.0
  0
SPLINE
  5
34F
100
AcDbEntity
  8
0
100
AcDbSpline
 62
7
  6
CONTINUOUS
 70
0
 71
3
 72
33
 73
29
 74
0
 42
0.0000001
 43
0.0000001
 44
0.0000000001
 40
0.0
 40
0.0
 40
0.0
 40
0.0
 40
0.0718179815
 40
0.144733805
 40
0.2182248732
 40
0.2917623451
 40
0.3648171643
 40
0.4368647136
 40
0.4723498379
 40
0.5073908989
 40
0.5419257457
 40
0.5758934278
 40
0.6092343476
 40
0.6418904234
 40
0.6738052892
 40
0.7049244595
 40
0.7351954993
 40
0.764568219
 40
0.7929949206
 40
0.8204306395
 40
0.8468333805
 40
0.8721644186
 40
0.896388678
 40
0.9194751892
 40
0.9413975719
 40
0.9621346799
 40
0.9816714443
 40
1.0
 40
1.0
 40
1.0
 40
1.0
 10
12.9682969892
 20
7.8227468454
 30
0.0
 10
12.9682969892
 20
7.8074111567
 30
0.0
 10
12.9679312381
 20
7.7765042824
 30
0.0
 10
12.9663297869
 20
7.7299294171
 30
0.0
 10
12.9636820458
 20
7.683034369
 30
0.0
 10
12.9600082693
 20
7.6361787969
 30
0.0
 10
12.9553366087
 20
7.5897220155
 30
0.0
 10
12.950618663
 20
7.5514461666
 30
0.0
 10
12.9463651929
 20
7.5212996089
 30
0.0
 10
12.9429663141
 20
7.4991237419
 30
0.0
 10
12.9393492638
 20
7.4773108047
 30
0.0
 10
12.9355209759
 20
7.4559026139
 30
0.0
 10
12.931488827
 20
7.434940248
 30
0.0
 10
12.9272605714
 20
7.4144639164
 30
0.0
 10
12.9228443585
 20
7.3945128856
 30
0.0
 10
12.9182487
 20
7.3751254027
 30
0.0
 10
12.9134824518
 20
7.356338628
 30
0.0
 10
12.9085547936
 20
7.3381885614
 30
0.0
 10
12.903475225
 20
7.3207099595
 30
0.0
 10
12.8982535464
 20
7.3039362639
 30
0.0
 10
12.8928998262
 20
7.287899543
 30
0.0
 10
12.88742438
 20
7.272630426
 30
0.0
 10
12.8818377522
 20
7.2581580293
 30
0.0
 10
12.8761506981
 20
7.2445098661
 30
0.0
 10
12.8703741567
 20
7.2317118421
 30
0.0
 10
12.8645191214
 20
7.2197880242
 30
0.0
 10
12.8585969141
 20
7.2087611528
 30
0.0
 10
12.8544796539
 20
7.2017986869
 30
0.0
 10
12.8524062702
 20
7.1984792156
 30
0.0
  0
SPLINE
  5
350
100
AcDbEntity
  8
0
100
AcDbSpline
 62
7
  6
CONTINUOUS
 70
0
 71
3
 72
23
 73
19
 74
0
 42
0.0000001
 43
0.0000001
 44
0.0000000001
 40
0.0
 40
0.0
 40
0.0
 40
0.0
 40
0.0637775561
 40
0.1273446565
 40
0.1907020307
 40
0.2538561431
 40
0.3168131834
 40
0.3795821015
 40
0.4421733894
 40
0.5045993415
 40
0.5668738676
 40
0.6290123791
 40
0.6910316472
 40
0.7529496401
 40
0.8147853492
 40
0.8765585998
 40
0.9382898533
 40
1.0
 40
1.0
 40
1.0
 40
1.0
 10
10.5987440971
 20
8.6017669009
 30
0.0
 10
10.5987440971
 20
8.610098514
 30
0.0
 10
10.5991428592
 20
8.6267370714
 30
0.0
 10
10.6009428008
 20
8.6515937386
 30
0.0
 10
10.6039396262
 20
8.6762533028
 30
0.0
 10
10.6081263045
 20
8.7006580293
 30
0.0
 10
10.6134933719
 20
8.724751996
 30
0.0
 10
10.6200284479
 20
8.7484795516
 30
0.0
 10
10.6277165548
 20
8.7717860183
 30
0.0
 10
10.6365400149
 20
8.7946176411
 30
0.0
 10
10.6464785268
 20
8.8169217668
 30
0.0
 10
10.6575092134
 20
8.8386469516
 30
0.0
 10
10.6696066701
 20
8.859743078
 30
0.0
 10
10.6827430421
 20
8.8801614887
 30
0.0
 10
10.6968880166
 20
8.8998550331
 30
0.0
 10
10.7120091571
 20
8.918778426
 30
0.0
 10
10.72807099
 20
8.9368874276
 30
0.0
 10
10.7393834772
 20
8.9483914066
 30
0.0
 10
10.7451817811
 20
8.953992124
 30
0.0
  0
SPLINE
  5
351
100
AcDbEntity
  8
0
100
AcDbSpline
 62
7
  6
CONTINUOUS
 70
0
 71
3
 72
28
 73
24
 74
0
 42
0.0000001
 43
0.0000001
 44
0.0000000001
 40
0.0
 40
0.0
 40
0.0
 40
0.0
 40
0.0676482701
 40
0.1362387593
 40
0.2054173701
 40
0.2748243603
 40
0.3440991392
 40
0.4128818943
 40
0.480816065
 40
0.5475507279
 40
0.6127430427
 40
0.6760607
 40
0.7371844293
 40
0.7668286208
 40
0.7958119308
 40
0.8240993622
 40
0.851657216
 40
0.878453345
 40
0.904457137
 40
0.9296396683
 40
0.9539739659
 40
0.9774350031
 40
1.0
 40
1.0
 40
1.0
 40
1.0
 10
12.9100934321
 20
7.8140495345
 30
0.0
 10
12.9100934321
 20
7.8021850526
 30
0.0
 10
12.9098533291
 20
7.7782902287
 30
0.0
 10
12.9087975491
 20
7.7422765516
 30
0.0
 10
12.9070488054
 20
7.7059809554
 30
0.0
 10
12.9046166909
 20
7.6696045178
 30
0.0
 10
12.9015146809
 20
7.6333487304
 30
0.0
 10
12.8977600026
 20
7.5974143767
 30
0.0
 10
12.8933735387
 20
7.5620004365
 30
0.0
 10
12.8883797057
 20
7.5273029959
 30
0.0
 10
12.8828063705
 20
7.4935140527
 30
0.0
 10
12.8766846166
 20
7.4608207262
 30
0.0
 10
12.8710993276
 20
7.4343769858
 30
0.0
 10
12.8663717591
 20
7.4139129189
 30
0.0
 10
12.8627471183
 20
7.3991060827
 30
0.0
 10
12.8590124733
 20
7.3847043031
 30
0.0
 10
12.855172959
 20
7.3707275031
 30
0.0
 10
12.8512339487
 20
7.3571950219
 30
0.0
 10
12.8472009123
 20
7.3441255746
 30
0.0
 10
12.843079441
 20
7.3315372397
 30
0.0
 10
12.8388752885
 20
7.3194473751
 30
0.0
 10
12.8345943106
 20
7.3078727559
 30
0.0
 10
12.8316345068
 20
7.3003618521
 30
0.0
 10
12.8301406435
 20
7.2966970679
 30
0.0
  0
SPLINE
  5
352
100
AcDbEntity
  8
0
100
AcDbSpline
 62
7
  6
CONTINUOUS
 70
0
 71
3
 72
71
 73
67
 74
0
 42
0.0000001
 43
0.0000001
 44
0.0000000001
 40
0.0
 40
0.0
 40
0.0
 40
0.0
 40
0.0155842565
 40
0.0311159319
 40
0.0465952524
 40
0.0620238826
 40
0.0774034482
 40
0.0927362827
 40
0.1080251231
 40
0.1232731738
 40
0.1384840558
 40
0.1536617763
 40
0.1688106896
 40
0.1839354527
 40
0.199040978
 40
0.2141323822
 40
0.2292149324
 40
0.2442939901
 40
0.2593749544
 40
0.2744632041
 40
0.2895640403
 40
0.3046826298
 40
0.3198239504
 40
0.3349927394
 40
0.3501934439
 40
0.3654301774
 40
0.3807066784
 40
0.3960262752
 40
0.411391855
 40
0.4268058382
 40
0.4422701586
 40
0.4577862484
 40
0.4733550295
 40
0.4889769098
 40
0.5046517845
 40
0.5203790422
 40
0.5361575755
 40
0.5519857963
 40
0.5678616545
 40
0.5837826618
 40
0.5997459181
 40
0.6157481413
 40
0.6317856992
 40
0.6478546441
 40
0.6639507502
 40
0.6800695513
 40
0.6962063821
 40
0.7123564199
 40
0.7285147268
 40
0.7446762929
 40
0.76083608
 40
0.776989065
 40
0.7931302839
 40
0.8092548753
 40
0.8253581235
 40
0.8414355003
 40
0.8574827053
 40
0.8734957053
 40
0.889470771
 40
0.9054045131
 40
0.921293919
 40
0.9371363621
 40
0.9529297157
 40
0.968672092
 40
0.9843626215
 40
1.0
 40
1.0
 40
1.0
 40
1.0
 10
10.4908564549
 20
7.5318545887
 30
0.0
 10
10.4908564549
 20
7.5235404584
 30
0.0
 10
10.4904495773
 20
7.5069373014
 30
0.0
 10
10.4886129037
 20
7.4821371595
 30
0.0
 10
10.4855550988
 20
7.4575407483
 30
0.0
 10
10.4812836555
 20
7.4332082763
 30
0.0
 10
10.4758086732
 20
7.4091980513
 30
0.0
 10
10.4691433554
 20
7.385568061
 30
0.0
 10
10.4613036762
 20
7.362375246
 30
0.0
 10
10.4523084839
 20
7.3396755432
 30
0.0
 10
10.4421794174
 20
7.317523694
 30
0.0
 10
10.4309408591
 20
7.2959731266
 30
0.0
 10
10.4186198718
 20
7.2750758245
 30
0.0
 10
10.4052461348
 20
7.2548822004
 30
0.0
 10
10.3908518733
 20
7.2354409733
 30
0.0
 10
10.3754717814
 20
7.2167990491
 30
0.0
 10
10.3591429367
 20
7.1990014077
 30
0.0
 10
10.341904722
 20
7.1820909816
 30
0.0
 10
10.3237987202
 20
7.1661085567
 30
0.0
 10
10.3048686096
 20
7.1510926758
 30
0.0
 10
10.2851600585
 20
7.1370795444
 30
0.0
 10
10.264720613
 20
7.1241029433
 30
0.0
 10
10.2435995815
 20
7.1121941467
 30
0.0
 10
10.2218479135
 20
7.1013818489
 30
0.0
 10
10.1995180813
 20
7.0916920825
 30
0.0
 10
10.1766639472
 20
7.0831481617
 30
0.0
 10
10.153340629
 20
7.0757706335
 30
0.0
 10
10.129604367
 20
7.0695772282
 30
0.0
 10
10.1055123877
 20
7.0645828186
 30
0.0
 10
10.0811227661
 20
7.0607993852
 30
0.0
 10
10.0564942852
 20
7.0582359914
 30
0.0
 10
10.0316862959
 20
7.0568987508
 30
0.0
 10
10.0067585717
 20
7.0567908164
 30
0.0
 10
9.9817711644
 20
7.0579123842
 30
0.0
 10
9.95678426
 20
7.0602606917
 30
0.0
 10
9.9318580352
 20
7.0638300265
 30
0.0
 10
9.9070525134
 20
7.0686117404
 30
0.0
 10
9.8824274224
 20
7.0745942732
 30
0.0
 10
9.8580420491
 20
7.0817631715
 30
0.0
 10
9.8339550957
 20
7.0901011225
 30
0.0
 10
9.810224542
 20
7.0995880082
 30
0.0
 10
9.7869075063
 20
7.1102009512
 30
0.0
 10
9.7640601099
 20
7.1219143706
 30
0.0
 10
9.7417373424
 20
7.134700043
 30
0.0
 10
9.7199929325
 20
7.1485271714
 30
0.0
 10
9.698879215
 20
7.1633624532
 30
0.0
 10
9.6784470015
 20
7.1791701557
 30
0.0
 10
9.6587454657
 20
7.195912214
 30
0.0
 10
9.6398220246
 20
7.2135483195
 30
0.0
 10
9.6217222261
 20
7.232036017
 30
0.0
 10
9.6044896397
 20
7.2513308061
 30
0.0
 10
9.5881657533
 20
7.2713862473
 30
0.0
 10
9.5727898709
 20
7.2921540712
 30
0.0
 10
9.5583990093
 20
7.3135842885
 30
0.0
 10
9.545027821
 20
7.3356253199
 30
0.0
 10
9.5327085097
 20
7.3582241173
 30
0.0
 10
9.5214707537
 20
7.3813262912
 30
0.0
 10
9.5113416347
 20
7.4048762401
 30
0.0
 10
9.5023455741
 20
7.4288172825
 30
0.0
 10
9.4945042676
 20
7.4530917947
 30
0.0
 10
9.487836638
 20
7.4776413327
 30
0.0
 10
9.4823587494
 20
7.5024068296
 30
0.0
 10
9.4780839067
 20
7.5273285494
 30
0.0
 10
9.4750223251
 20
7.5523468301
 30
0.0
 10
9.4731816155
 20
7.5774004757
 30
0.0
 10
9.4727705737
 20
7.5941166138
 30
0.0
 10
9.4727705737
 20
7.6024590844
 30
0.0
  0
SPLINE
  5
353
100
AcDbEntity
  8
0
100
AcDbSpline
 62
7
  6
CONTINUOUS
 70
0
 71
3
 72
52
 73
48
 74
0
 42
0.0000001
 43
0.0000001
 44
0.0000000001
 40
0.0
 40
0.0
 40
0.0
 40
0.0
 40
0.0499779125
 40
0.0993160495
 40
0.1479278371
 40
0.1957336332
 40
0.2426529024
 40
0.2886079559
 40
0.33352336
 40
0.3773261063
 40
0.4199459773
 40
0.461315784
 40
0.5013716661
 40
0.5400533612
 40
0.5773045436
 40
0.6130732609
 40
0.6473124242
 40
0.6799803084
 40
0.7110412166
 40
0.7404663453
 40
0.7682348979
 40
0.78149468
 40
0.7943368657
 40
0.8067618093
 40
0.8187706918
 40
0.8303655333
 40
0.8415495254
 40
0.8523268987
 40
0.8627032024
 40
0.8726854988
 40
0.8822823559
 40
0.891504292
 40
0.9003638341
 40
0.9088757725
 40
0.9170575677
 40
0.924929406
 40
0.9325146109
 40
0.9398398101
 40
0.9469349907
 40
0.9538336628
 40
0.9605725908
 40
0.9671915091
 40
0.9737325865
 40
0.9802396241
 40
0.9867571864
 40
0.9933295953
 40
1.0
 40
1.0
 40
1.0
 40
1.0
 10
13.1111651021
 20
7.8227468536
 30
0.0
 10
13.1111651021
 20
7.8306234572
 30
0.0
 10
13.1110759238
 20
7.846275994
 30
0.0
 10
13.1106695663
 20
7.8695866543
 30
0.0
 10
13.1099921011
 20
7.8925485916
 30
0.0
 10
13.1090448552
 20
7.915119456
 30
0.0
 10
13.1078295389
 20
7.9372581872
 30
0.0
 10
13.106348423
 20
7.9589241939
 30
0.0
 10
13.1046042556
 20
7.9800778626
 30
0.0
 10
13.102600263
 20
8.0006805075
 30
0.0
 10
13.1003401478
 20
8.0206944506
 30
0.0
 10
13.0978280932
 20
8.0400831129
 30
0.0
 10
13.0950687556
 20
8.0588110774
 30
0.0
 10
13.0920672422
 20
8.0768441513
 30
0.0
 10
13.0888291004
 20
8.094149431
 30
0.0
 10
13.0853603166
 20
8.1106953769
 30
0.0
 10
13.0816673135
 20
8.1264518921
 30
0.0
 10
13.0777569128
 20
8.1413903492
 30
0.0
 10
13.0736363138
 20
8.1554837489
 30
0.0
 10
13.069313079
 20
8.1687064597
 30
0.0
 10
13.0654915773
 20
8.1791348101
 30
0.0
 10
13.0623299108
 20
8.187014815
 30
0.0
 10
13.0599494633
 20
8.1926011893
 30
0.0
 10
13.0575243968
 20
8.1979526523
 30
0.0
 10
13.0550558012
 20
8.203066801
 30
0.0
 10
13.0525447421
 20
8.2079413019
 30
0.0
 10
13.049992398
 20
8.2125739808
 30
0.0
 10
13.0473998744
 20
8.2169627424
 30
0.0
 10
13.0447683008
 20
8.2211056057
 30
0.0
 10
13.0420988751
 20
8.22500074
 30
0.0
 10
13.0393926849
 20
8.2286463602
 30
0.0
 10
13.0366509212
 20
8.2320408497
 30
0.0
 10
13.0338747318
 20
8.2351826773
 30
0.0
 10
13.0310652108
 20
8.2380703602
 30
0.0
 10
13.0282235577
 20
8.2407026002
 30
0.0
 10
13.0253508586
 20
8.243078076
 30
0.0
 10
13.0224482677
 20
8.2451955756
 30
0.0
 10
13.0195169863
 20
8.2470539884
 30
0.0
 10
13.01655818
 20
8.2486521212
 30
0.0
 10
13.0135731971
 20
8.2499889964
 30
0.0
 10
13.0105634283
 20
8.2510636177
 30
0.0
 10
13.0075304102
 20
8.2518750786
 30
0.0
 10
13.0044758435
 20
8.2524227883
 30
0.0
 10
13.0014015207
 20
8.2527061843
 30
0.0
 10
12.9983092524
 20
8.2527251018
 30
0.0
 10
12.9952011479
 20
8.2524796905
 30
0.0
 10
12.9931386248
 20
8.2521430863
 30
0.0
 10
12.9921085971
 20
8.2519328353
 30
0.0
  0
SPLINE
  5
354
100
AcDbEntity
  8
0
100
AcDbSpline
 62
7
  6
CONTINUOUS
 70
0
 71
3
 72
78
 73
74
 74
0
 42
0.0000001
 43
0.0000001
 44
0.0000000001
 40
0.0
 40
0.0
 40
0.0
 40
0.0
 40
0.0026209804
 40
0.0052583041
 40
0.007927991
 40
0.0106454291
 40
0.0134251485
 40
0.0162806135
 40
0.0222638942
 40
0.0254156383
 40
0.0286851852
 40
0.0320801588
 40
0.0356071935
 40
0.0392719934
 40
0.043079411
 40
0.0470335801
 40
0.0511379218
 40
0.0553952869
 40
0.0598079772
 40
0.0643778009
 40
0.0691061689
 40
0.0739940618
 40
0.0790421476
 40
0.0842507617
 40
0.0896199451
 40
0.0951495085
 40
0.1008389807
 40
0.1126944424
 40
0.1251790714
 40
0.138282372
 40
0.1519914151
 40
0.1662911227
 40
0.1811644909
 40
0.1965927862
 40
0.2125557128
 40
0.2290315503
 40
0.2459972741
 40
0.2634286569
 40
0.2813003676
 40
0.2995860675
 40
0.318258494
 40
0.337289539
 40
0.3566503207
 40
0.3763112561
 40
0.3962421376
 40
0.4164122018
 40
0.4367901969
 40
0.4573444478
 40
0.4988527372
 40
0.5406783239
 40
0.5825593471
 40
0.6242335045
 40
0.6654401409
 40
0.685787945
 40
0.7059229419
 40
0.7258139507
 40
0.7454302885
 40
0.7647418386
 40
0.7837191241
 40
0.8023333803
 40
0.8205566241
 40
0.8383617295
 40
0.8557225065
 40
0.8726137908
 40
0.8890115389
 40
0.9048929191
 40
0.9202364233
 40
0.9350219843
 40
0.9492311229
 40
0.9628471573
 40
0.9758552046
 40
0.9882430044
 40
1.0
 40
1.0
 40
1.0
 40
1.0
 10
13.0490851342
 20
8.4819197408
 30
0.0
 10
13.0504575569
 20
8.4818245672
 30
0.0
 10
13.0532044428
 20
8.4815205962
 30
0.0
 10
13.0572937511
 20
8.480726977
 30
0.0
 10
13.0613555101
 20
8.4795956863
 30
0.0
 10
13.065387334
 20
8.4781277025
 30
0.0
 10
13.0693875933
 20
8.4763238165
 30
0.0
 10
13.0747593297
 20
8.4734281323
 30
0.0
 10
13.0799836675
 20
8.4698832454
 30
0.0
 10
13.0850382119
 20
8.4657758205
 30
0.0
 10
13.0888562805
 20
8.4623120991
 30
0.0
 10
13.0926332387
 20
8.4585210023
 30
0.0
 10
13.0963680731
 20
8.4544038384
 30
0.0
 10
13.1000592492
 20
8.4499624215
 30
0.0
 10
13.1037054338
 20
8.4451985999
 30
0.0
 10
13.1073051343
 20
8.4401143003
 30
0.0
 10
13.1108570042
 20
8.4347116494
 30
0.0
 10
13.1143595885
 20
8.4289928399
 30
0.0
 10
13.117811483
 20
8.4229602232
 30
0.0
 10
13.1212113241
 20
8.4166162911
 30
0.0
 10
13.1245576653
 20
8.4099636309
 30
0.0
 10
13.1278491969
 20
8.4030050091
 30
0.0
 10
13.1310845198
 20
8.3957432836
 30
0.0
 10
13.1342623082
 20
8.3881814615
 30
0.0
 10
13.1373812625
 20
8.3803226827
 30
0.0
 10
13.1404400648
 20
8.372170181
 30
0.0
 10
13.1444922483
 20
8.3607560958
 30
0.0
 10
13.1493853299
 20
8.3457695523
 30
0.0
 10
13.1549197956
 20
8.3269086669
 30
0.0
 10
13.1601854262
 20
8.3069631918
 30
0.0
 10
13.1651733789
 20
8.285966312
 30
0.0
 10
13.1698752478
 20
8.2639527802
 30
0.0
 10
13.1742831101
 20
8.240959182
 30
0.0
 10
13.1783895347
 20
8.217023765
 30
0.0
 10
13.1821875937
 20
8.1921863869
 30
0.0
 10
13.1856708777
 20
8.1664884327
 30
0.0
 10
13.1888335047
 20
8.1399727464
 30
0.0
 10
13.1916701379
 20
8.1126835585
 30
0.0
 10
13.194175995
 20
8.0846664084
 30
0.0
 10
13.1963468472
 20
8.0559680613
 30
0.0
 10
13.1981790291
 20
8.0266364253
 30
0.0
 10
13.1996694424
 20
7.9967204735
 30
0.0
 10
13.2008155657
 20
7.9662701628
 30
0.0
 10
13.2016154621
 20
7.9353363511
 30
0.0
 10
13.2020677754
 20
7.9039707036
 30
0.0
 10
13.2021717239
 20
7.8722256222
 30
0.0
 10
13.2019271388
 20
7.8401540899
 30
0.0
 10
13.2011341533
 20
7.7968887055
 30
0.0
 10
13.1992717236
 20
7.7423866636
 30
0.0
 10
13.1956761606
 20
7.6767569492
 30
0.0
 10
13.1907364229
 20
7.6111271993
 30
0.0
 10
13.1844855658
 20
7.5459358348
 30
0.0
 10
13.1781929512
 20
7.4921146614
 30
0.0
 10
13.1725270201
 20
7.4496122215
 30
0.0
 10
13.1679961572
 20
7.4182476847
 30
0.0
 10
13.163173881
 20
7.3873151566
 30
0.0
 10
13.1580682334
 20
7.3568662643
 30
0.0
 10
13.1526877698
 20
7.3269518734
 30
0.0
 10
13.1470415015
 20
7.2976219371
 30
0.0
 10
13.1411388924
 20
7.2689254269
 30
0.0
 10
13.1349898345
 20
7.2409102493
 30
0.0
 10
13.1286046339
 20
7.2136231681
 30
0.0
 10
13.1219939918
 20
7.1871097233
 30
0.0
 10
13.1151689912
 20
7.1614141482
 30
0.0
 10
13.1081410822
 20
7.1365792903
 30
0.0
 10
13.1009220532
 20
7.1126465409
 30
0.0
 10
13.0935240125
 20
7.0896557662
 30
0.0
 10
13.0859593668
 20
7.0676452392
 30
0.0
 10
13.0782407955
 20
7.0466515314
 30
0.0
 10
13.070381246
 20
7.0267095654
 30
0.0
 10
13.0623938377
 20
7.0078521597
 30
0.0
 10
13.0542920335
 20
6.9901109268
 30
0.0
 10
13.0486754638
 20
6.9787472137
 30
0.0
 10
13.0458444449
 20
6.9732638068
 30
0.0
  0
SPLINE
  5
355
100
AcDbEntity
  8
0
100
AcDbSpline
 62
7
  6
CONTINUOUS
 70
0
 71
3
 72
54
 73
50
 74
0
 42
0.0000001
 43
0.0000001
 44
0.0000000001
 40
0.0
 40
0.0
 40
0.0
 40
0.0
 40
0.0427960701
 40
0.0861064905
 40
0.1297875467
 40
0.173693336
 40
0.2176773329
 40
0.2615925587
 40
0.3052923648
 40
0.3486310056
 40
0.3914642787
 40
0.4336501497
 40
0.4750493893
 40
0.5155262189
 40
0.5549489717
 40
0.5931907774
 40
0.6301302797
 40
0.6656524041
 40
0.6996491983
 40
0.7160444006
 40
0.732021548
 40
0.7475695729
 40
0.7626781109
 40
0.7773374694
 40
0.7915387287
 40
0.8052737976
 40
0.8185354546
 40
0.8313175056
 40
0.843614774
 40
0.855423366
 40
0.8667406375
 40
0.8775655669
 40
0.8878987486
 40
0.8977428682
 40
0.9071027979
 40
0.9159861752
 40
0.9244036874
 40
0.9323697709
 40
0.9399031581
 40
0.9470277024
 40
0.9537731721
 40
0.9601760789
 40
0.9662804261
 40
0.9721380521
 40
0.9778085319
 40
0.9833581306
 40
0.9888579484
 40
0.9943811754
 40
1.0
 40
1.0
 40
1.0
 40
1.0
 10
13.1111651021
 20
9.694711296
 30
0.0
 10
13.1111651021
 20
9.6835781595
 30
0.0
 10
13.1109848249
 20
9.6611777057
 30
0.0
 10
13.1101883922
 20
9.6274224032
 30
0.0
 10
13.1088668301
 20
9.5933946156
 30
0.0
 10
13.1070247992
 20
9.5592155928
 30
0.0
 10
13.1046688563
 20
9.5250070825
 30
0.0
 10
13.101807386
 20
9.490890914
 30
0.0
 10
13.0984505969
 20
9.4569885984
 30
0.0
 10
13.0946104727
 20
9.4234208753
 30
0.0
 10
13.0903007353
 20
9.3903072849
 30
0.0
 10
13.0855367944
 20
9.3577657369
 30
0.0
 10
13.0803356946
 20
9.3259120865
 30
0.0
 10
13.0747160555
 20
9.2948597167
 30
0.0
 10
13.0686980076
 20
9.2647191218
 30
0.0
 10
13.0623031189
 20
9.2355975256
 30
0.0
 10
13.0555543318
 20
9.2075984079
 30
0.0
 10
13.048475839
 20
9.1808213983
 30
0.0
 10
13.042250749
 20
9.159353102
 30
0.0
 10
13.0371143051
 20
9.1428688344
 30
0.0
 10
13.0332421137
 20
9.1310188241
 30
0.0
 10
13.0293069435
 20
9.119542851
 30
0.0
 10
13.0253123047
 20
9.1084510998
 30
0.0
 10
13.021261755
 20
9.0977534277
 30
0.0
 10
13.0171589103
 20
9.087459329
 30
0.0
 10
13.0130074398
 20
9.0775779315
 30
0.0
 10
13.0088110205
 20
9.0681179947
 30
0.0
 10
13.0045734241
 20
9.0590878797
 30
0.0
 10
13.0002983682
 20
9.0504955762
 30
0.0
 10
12.9959897044
 20
9.0423486404
 30
0.0
 10
12.9916511709
 20
9.0346542597
 30
0.0
 10
12.9872866631
 20
9.02741915
 30
0.0
 10
12.9828999151
 20
9.0206496645
 30
0.0
 10
12.9784948111
 20
9.0143516529
 30
0.0
 10
12.974075043
 20
9.0085306093
 30
0.0
 10
12.9696444034
 20
9.0031915137
 30
0.0
 10
12.9652064775
 20
8.9983390035
 30
0.0
 10
12.9607648606
 20
8.9939772425
 30
0.0
 10
12.9563229449
 20
8.9901100919
 30
0.0
 10
12.9518840365
 20
8.9867410801
 30
0.0
 10
12.947451312
 20
8.9838735347
 30
0.0
 10
12.9430278916
 20
8.9815107203
 30
0.0
 10
12.9386170607
 20
8.9796558114
 30
0.0
 10
12.9342224264
 20
8.9783121159
 30
0.0
 10
12.9298483193
 20
8.9774825773
 30
0.0
 10
12.9254999423
 20
8.9771697936
 30
0.0
 10
12.9211830832
 20
8.9773750383
 30
0.0
 10
12.9169046876
 20
8.9780981239
 30
0.0
 10
12.9141156801
 20
8.9789143588
 30
0.0
 10
12.912737572
 20
8.9794015893
 30
0.0
  0
SPLINE
  5
356
100
AcDbEntity
  8
0
100
AcDbSpline
 62
7
  6
CONTINUOUS
 70
0
 71
3
 72
71
 73
67
 74
0
 42
0.0000001
 43
0.0000001
 44
0.0000000001
 40
0.0
 40
0.0
 40
0.0
 40
0.0
 40
0.0156373785
 40
0.031327908
 40
0.0470702843
 40
0.0628636379
 40
0.078706081
 40
0.0945954869
 40
0.110529229
 40
0.1265042947
 40
0.1425172947
 40
0.1585644997
 40
0.1746418765
 40
0.1907451247
 40
0.2068697161
 40
0.223010935
 40
0.23916392
 40
0.2553237071
 40
0.2714852732
 40
0.2876435801
 40
0.3037936179
 40
0.3199304487
 40
0.3360492498
 40
0.3521453559
 40
0.3682143008
 40
0.3842518587
 40
0.4002540819
 40
0.4162173382
 40
0.4321383455
 40
0.4480142037
 40
0.4638424245
 40
0.4796209578
 40
0.4953482155
 40
0.5110230902
 40
0.5266449705
 40
0.5422137516
 40
0.5577298414
 40
0.5731941618
 40
0.588608145
 40
0.6039737248
 40
0.6192933216
 40
0.6345698226
 40
0.6498065561
 40
0.6650072606
 40
0.6801760496
 40
0.6953173702
 40
0.7104359597
 40
0.7255367959
 40
0.7406250456
 40
0.7557060099
 40
0.7707850676
 40
0.7858676178
 40
0.800959022
 40
0.8160645473
 40
0.8311893104
 40
0.8463382237
 40
0.8615159442
 40
0.8767268262
 40
0.8919748769
 40
0.9072637173
 40
0.9225965518
 40
0.9379761174
 40
0.9534047476
 40
0.9688840681
 40
0.9844157435
 40
1.0
 40
1.0
 40
1.0
 40
1.0
 10
10.4908564549
 20
7.5318545887
 30
0.0
 10
10.4908564549
 20
7.5401970594
 30
0.0
 10
10.4904454131
 20
7.5569131975
 30
0.0
 10
10.4886047034
 20
7.5819668431
 30
0.0
 10
10.4855431218
 20
7.6069851237
 30
0.0
 10
10.4812682791
 20
7.6319068435
 30
0.0
 10
10.4757903906
 20
7.6566723404
 30
0.0
 10
10.469122761
 20
7.6812218784
 30
0.0
 10
10.4612814545
 20
7.7054963907
 30
0.0
 10
10.4522853938
 20
7.7294374331
 30
0.0
 10
10.4421562749
 20
7.7529873819
 30
0.0
 10
10.4309185189
 20
7.7760895558
 30
0.0
 10
10.4185992076
 20
7.7986883533
 30
0.0
 10
10.4052280193
 20
7.8207293846
 30
0.0
 10
10.3908371577
 20
7.842159602
 30
0.0
 10
10.3754612753
 20
7.8629274258
 30
0.0
 10
10.3591373889
 20
7.8829828671
 30
0.0
 10
10.3419048025
 20
7.9022776561
 30
0.0
 10
10.323805004
 20
7.9207653536
 30
0.0
 10
10.3048815629
 20
7.9384014591
 30
0.0
 10
10.2851800271
 20
7.9551435174
 30
0.0
 10
10.2647478136
 20
7.9709512199
 30
0.0
 10
10.2436340961
 20
7.9857865017
 30
0.0
 10
10.2218896861
 20
7.9996136301
 30
0.0
 10
10.1995669187
 20
8.0123993025
 30
0.0
 10
10.1767195223
 20
8.024112722
 30
0.0
 10
10.1534024866
 20
8.0347256649
 30
0.0
 10
10.1296719329
 20
8.0442125506
 30
0.0
 10
10.1055849795
 20
8.0525505017
 30
0.0
 10
10.0811996062
 20
8.0597193999
 30
0.0
 10
10.0565745151
 20
8.0657019327
 30
0.0
 10
10.0317689934
 20
8.0704836467
 30
0.0
 10
10.0068427686
 20
8.0740529814
 30
0.0
 10
9.9818558642
 20
8.0764012889
 30
0.0
 10
9.9568684569
 20
8.0775228567
 30
0.0
 10
9.9319407327
 20
8.0774149224
 30
0.0
 10
9.9071327434
 20
8.0760776818
 30
0.0
 10
9.8825042624
 20
8.0735142879
 30
0.0
 10
9.8581146408
 20
8.0697308545
 30
0.0
 10
9.8340226616
 20
8.0647364449
 30
0.0
 10
9.8102863996
 20
8.0585430396
 30
0.0
 10
9.7869630813
 20
8.0511655115
 30
0.0
 10
9.7641089472
 20
8.0426215907
 30
0.0
 10
9.7417791151
 20
8.0329318243
 30
0.0
 10
9.7200274471
 20
8.0221195264
 30
0.0
 10
9.6989064156
 20
8.0102107298
 30
0.0
 10
9.67846697
 20
7.9972341288
 30
0.0
 10
9.6587584189
 20
7.9832209974
 30
0.0
 10
9.6398283084
 20
7.9682051164
 30
0.0
 10
9.6217223066
 20
7.9522226915
 30
0.0
 10
9.6044840918
 20
7.9353122655
 30
0.0
 10
9.5881552471
 20
7.9175146241
 30
0.0
 10
9.5727751553
 20
7.8988726999
 30
0.0
 10
9.5583808938
 20
7.8794314727
 30
0.0
 10
9.5450071568
 20
7.8592378486
 30
0.0
 10
9.5326861695
 20
7.8383405466
 30
0.0
 10
9.5214476112
 20
7.8167899792
 30
0.0
 10
9.5113185446
 20
7.7946381299
 30
0.0
 10
9.5023233524
 20
7.7719384271
 30
0.0
 10
9.4944836732
 20
7.7487456121
 30
0.0
 10
9.4878183553
 20
7.7251156219
 30
0.0
 10
9.482343373
 20
7.7011053968
 30
0.0
 10
9.4780719297
 20
7.6767729248
 30
0.0
 10
9.4750141248
 20
7.6521765136
 30
0.0
 10
9.4731774513
 20
7.6273763717
 30
0.0
 10
9.4727705737
 20
7.6107732147
 30
0.0
 10
9.4727705737
 20
7.6024590844
 30
0.0
  0
SPLINE
  5
357
100
AcDbEntity
  8
0
100
AcDbSpline
 62
7
  6
CONTINUOUS
 70
0
 71
3
 72
28
 73
24
 74
0
 42
0.0000001
 43
0.0000001
 44
0.0000000001
 40
0.0
 40
0.0
 40
0.0
 40
0.0
 40
0.0786887548
 40
0.15606343
 40
0.2319168532
 40
0.3060489888
 40
0.3782651367
 40
0.4483782184
 40
0.5162091114
 40
0.5815878465
 40
0.6443546179
 40
0.7043610228
 40
0.7614714633
 40
0.7889030225
 40
0.8155664539
 40
0.841449284
 40
0.8665401549
 40
0.8908290477
 40
0.9143073568
 40
0.9369679815
 40
0.9588056127
 40
0.9798167079
 40
1.0
 40
1.0
 40
1.0
 40
1.0
 10
12.9682969892
 20
7.8227468454
 30
0.0
 10
12.9682969892
 20
7.8319982509
 30
0.0
 10
12.9681658243
 20
7.8503468673
 30
0.0
 10
12.9675661651
 20
7.8776076355
 30
0.0
 10
12.9665668481
 20
7.9043207146
 30
0.0
 10
12.9651708539
 20
7.9304087319
 30
0.0
 10
12.963382286
 20
7.9557963584
 30
0.0
 10
12.9612064236
 20
7.9804102044
 30
0.0
 10
12.9586496687
 20
8.0041791959
 30
0.0
 10
12.9557195458
 20
8.0270347096
 30
0.0
 10
12.9524246865
 20
8.0489108804
 30
0.0
 10
12.948774754
 20
8.0697445352
 30
0.0
 10
12.9454025919
 20
8.0864035908
 30
0.0
 10
12.9425248807
 20
8.0991577866
 30
0.0
 10
12.9403136011
 20
8.1082974569
 30
0.0
 10
12.9380219899
 20
8.1171333212
 30
0.0
 10
12.9356516698
 20
8.1256590243
 30
0.0
 10
12.9332043691
 20
8.1338684235
 30
0.0
 10
12.9306818678
 20
8.141755619
 30
0.0
 10
12.9280859695
 20
8.1493149349
 30
0.0
 10
12.925418575
 20
8.1565409798
 30
0.0
 10
12.9226815854
 20
8.1634284915
 30
0.0
 10
12.9207734877
 20
8.167880799
 30
0.0
 10
12.9198066539
 20
8.1700478441
 30
0.0
  0
SPLINE
  5
358
100
AcDbEntity
  8
0
100
AcDbSpline
 62
7
  6
CONTINUOUS
 70
0
 71
3
 72
33
 73
29
 74
0
 42
0.0000001
 43
0.0000001
 44
0.0000000001
 40
0.0
 40
0.0
 40
0.0
 40
0.0
 40
0.0718179815
 40
0.144733805
 40
0.2182248732
 40
0.2917623451
 40
0.3648171643
 40
0.4368647136
 40
0.4723498379
 40
0.5073908989
 40
0.5419257457
 40
0.5758934278
 40
0.6092343476
 40
0.6418904234
 40
0.6738052892
 40
0.7049244595
 40
0.7351954993
 40
0.764568219
 40
0.7929949206
 40
0.8204306395
 40
0.8468333805
 40
0.8721644186
 40
0.896388678
 40
0.9194751892
 40
0.9413975719
 40
0.9621346799
 40
0.9816714443
 40
1.0
 40
1.0
 40
1.0
 40
1.0
 10
12.9682969892
 20
9.6947112878
 30
0.0
 10
12.9682969892
 20
9.6793755991
 30
0.0
 10
12.9679312381
 20
9.6484687248
 30
0.0
 10
12.9663297869
 20
9.6018938595
 30
0.0
 10
12.9636820458
 20
9.5549988114
 30
0.0
 10
12.9600082693
 20
9.5081432393
 30
0.0
 10
12.9553366087
 20
9.4616864579
 30
0.0
 10
12.950618663
 20
9.423410609
 30
0.0
 10
12.9463651929
 20
9.3932640513
 30
0.0
 10
12.9429663141
 20
9.3710881843
 30
0.0
 10
12.9393492638
 20
9.3492752471
 30
0.0
 10
12.9355209759
 20
9.3278670563
 30
0.0
 10
12.931488827
 20
9.3069046904
 30
0.0
 10
12.9272605714
 20
9.2864283588
 30
0.0
 10
12.9228443585
 20
9.2664773281
 30
0.0
 10
12.9182487
 20
9.2470898451
 30
0.0
 10
12.9134824518
 20
9.2283030704
 30
0.0
 10
12.9085547936
 20
9.2101530038
 30
0.0
 10
12.903475225
 20
9.1926744019
 30
0.0
 10
12.8982535464
 20
9.1759007063
 30
0.0
 10
12.8928998262
 20
9.1598639855
 30
0.0
 10
12.88742438
 20
9.1445948684
 30
0.0
 10
12.8818377522
 20
9.1301224717
 30
0.0
 10
12.8761506981
 20
9.1164743085
 30
0.0
 10
12.8703741567
 20
9.1036762845
 30
0.0
 10
12.8645191214
 20
9.0917524666
 30
0.0
 10
12.8585969141
 20
9.0807255952
 30
0.0
 10
12.8544796539
 20
9.0737631294
 30
0.0
 10
12.8524062702
 20
9.070443658
 30
0.0
  0
SPLINE
  5
359
100
AcDbEntity
  8
0
100
AcDbSpline
 62
7
  6
CONTINUOUS
 70
0
 71
3
 72
23
 73
19
 74
0
 42
0.0000001
 43
0.0000001
 44
0.0000000001
 40
0.0
 40
0.0
 40
0.0
 40
0.0
 40
0.0637775561
 40
0.1273446565
 40
0.1907020307
 40
0.2538561431
 40
0.3168131834
 40
0.3795821015
 40
0.4421733894
 40
0.5045993415
 40
0.5668738676
 40
0.6290123791
 40
0.6910316472
 40
0.7529496401
 40
0.8147853492
 40
0.8765585998
 40
0.9382898533
 40
1.0
 40
1.0
 40
1.0
 40
1.0
 10
9.4521901535
 20
7.5955799239
 30
0.0
 10
9.4521901535
 20
7.603911537
 30
0.0
 10
9.4525889156
 20
7.6205500943
 30
0.0
 10
9.4543888572
 20
7.6454067616
 30
0.0
 10
9.4573856826
 20
7.6700663258
 30
0.0
 10
9.4615723609
 20
7.6944710523
 30
0.0
 10
9.4669394283
 20
7.718565019
 30
0.0
 10
9.4734745043
 20
7.7422925745
 30
0.0
 10
9.4811626112
 20
7.7655990413
 30
0.0
 10
9.4899860713
 20
7.788430664
 30
0.0
 10
9.4999245832
 20
7.8107347898
 30
0.0
 10
9.5109552698
 20
7.8324599746
 30
0.0
 10
9.5230527265
 20
7.853556101
 30
0.0
 10
9.5361890985
 20
7.8739745116
 30
0.0
 10
9.550334073
 20
7.8936680561
 30
0.0
 10
9.5654552135
 20
7.9125914489
 30
0.0
 10
9.5815170464
 20
7.9307004506
 30
0.0
 10
9.5928295336
 20
7.9422044296
 30
0.0
 10
9.5986278375
 20
7.947805147
 30
0.0
  0
SPLINE
  5
35A
100
AcDbEntity
  8
0
100
AcDbSpline
 62
7
  6
CONTINUOUS
 70
0
 71
3
 72
28
 73
24
 74
0
 42
0.0000001
 43
0.0000001
 44
0.0000000001
 40
0.0
 40
0.0
 40
0.0
 40
0.0
 40
0.0676482701
 40
0.1362387593
 40
0.2054173701
 40
0.2748243603
 40
0.3440991392
 40
0.4128818943
 40
0.480816065
 40
0.5475507279
 40
0.6127430427
 40
0.6760607
 40
0.7371844293
 40
0.7668286208
 40
0.7958119308
 40
0.8240993622
 40
0.851657216
 40
0.878453345
 40
0.904457137
 40
0.9296396683
 40
0.9539739659
 40
0.9774350031
 40
1.0
 40
1.0
 40
1.0
 40
1.0
 10
12.9100934321
 20
9.686013977
 30
0.0
 10
12.9100934321
 20
9.674149495
 30
0.0
 10
12.9098533291
 20
9.6502546711
 30
0.0
 10
12.9087975491
 20
9.614240994
 30
0.0
 10
12.9070488054
 20
9.5779453978
 30
0.0
 10
12.9046166909
 20
9.5415689602
 30
0.0
 10
12.9015146809
 20
9.5053131728
 30
0.0
 10
12.8977600026
 20
9.4693788191
 30
0.0
 10
12.8933735387
 20
9.4339648789
 30
0.0
 10
12.8883797057
 20
9.3992674383
 30
0.0
 10
12.8828063705
 20
9.3654784952
 30
0.0
 10
12.8766846166
 20
9.3327851686
 30
0.0
 10
12.8710993276
 20
9.3063414282
 30
0.0
 10
12.8663717591
 20
9.2858773613
 30
0.0
 10
12.8627471183
 20
9.2710705251
 30
0.0
 10
12.8590124733
 20
9.2566687455
 30
0.0
 10
12.855172959
 20
9.2426919455
 30
0.0
 10
12.8512339487
 20
9.2291594643
 30
0.0
 10
12.8472009123
 20
9.216090017
 30
0.0
 10
12.843079441
 20
9.2035016821
 30
0.0
 10
12.8388752885
 20
9.1914118176
 30
0.0
 10
12.8345943106
 20
9.1798371984
 30
0.0
 10
12.8316345068
 20
9.1723262945
 30
0.0
 10
12.8301406435
 20
9.1686615104
 30
0.0
  0
SPLINE
  5
35B
100
AcDbEntity
  8
0
100
AcDbSpline
 62
7
  6
CONTINUOUS
 70
0
 71
3
 72
37
 73
33
 74
0
 42
0.0000001
 43
0.0000001
 44
0.0000000001
 40
0.0
 40
0.0
 40
0.0
 40
0.0
 40
0.0306358971
 40
0.0613750814
 40
0.0922157449
 40
0.1231551209
 40
0.1541895174
 40
0.1853143605
 40
0.2165242473
 40
0.2478130007
 40
0.2791737303
 40
0.3105988981
 40
0.3420803897
 40
0.3736095924
 40
0.4051774734
 40
0.4367746596
 40
0.5000015908
 40
0.5632284426
 40
0.5948255332
 40
0.6263932833
 40
0.6579223185
 40
0.6894036061
 40
0.7208285362
 40
0.7521889995
 40
0.7834774603
 40
0.8146870281
 40
0.8458115337
 40
0.8768455446
 40
0.9077845995
 40
0.93862478
 40
0.9693635217
 40
1.0
 40
1.0
 40
1.0
 40
1.0
 10
10.4774276592
 20
7.6259750088
 30
0.0
 10
10.4706638948
 20
7.6263169574
 30
0.0
 10
10.457128105
 20
7.6273353252
 30
0.0
 10
10.4368913525
 20
7.6298543023
 30
0.0
 10
10.4167337105
 20
7.6333613189
 30
0.0
 10
10.3967045557
 20
7.6378478202
 30
0.0
 10
10.3768521311
 20
7.6433029375
 30
0.0
 10
10.3572244623
 20
7.6497134274
 30
0.0
 10
10.3378689697
 20
7.6570637563
 30
0.0
 10
10.3188324304
 20
7.6653361268
 30
0.0
 10
10.3001608445
 20
7.6745105259
 30
0.0
 10
10.2818993442
 20
7.6845647615
 30
0.0
 10
10.2640920234
 20
7.6954745286
 30
0.0
 10
10.246782004
 20
7.7072133379
 30
0.0
 10
10.2300107372
 20
7.7197531738
 30
0.0
 10
10.2084205278
 20
7.7375010017
 30
0.0
 10
10.1829838554
 20
7.7615293436
 30
0.0
 10
10.1598561581
 20
7.787787553
 30
0.0
 10
10.142871179
 20
7.8099828055
 30
0.0
 10
10.1309231976
 20
7.8271806247
 30
0.0
 10
10.1197945587
 20
7.8448889611
 30
0.0
 10
10.1095118042
 20
7.8630654029
 30
0.0
 10
10.1000998914
 20
7.8816659248
 30
0.0
 10
10.0915815624
 20
7.9006456102
 30
0.0
 10
10.0839774411
 20
7.9199585913
 30
0.0
 10
10.0773059456
 20
7.9395582065
 30
0.0
 10
10.0715832344
 20
7.9593970783
 30
0.0
 10
10.0668231407
 20
7.9794272825
 30
0.0
 10
10.0630372545
 20
7.9996003342
 30
0.0
 10
10.0602347125
 20
8.0198676512
 30
0.0
 10
10.0584223542
 20
8.0401798095
 30
0.0
 10
10.0578763499
 20
8.0537428981
 30
0.0
 10
10.0577702672
 20
8.0605145984
 30
0.0
  0
SPLINE
  5
35C
100
AcDbEntity
  8
0
100
AcDbSpline
 62
7
  6
CONTINUOUS
 70
0
 71
3
 72
39
 73
35
 74
0
 42
0.0000001
 43
0.0000001
 44
0.0000000001
 40
0.0
 40
0.0
 40
0.0
 40
0.0
 40
0.0307061174
 40
0.0615299296
 40
0.0924690078
 40
0.1235199663
 40
0.1546778093
 40
0.1859364009
 40
0.2172883682
 40
0.2487252769
 40
0.2802376993
 40
0.3118153506
 40
0.3434471995
 40
0.3751216031
 40
0.4068264394
 40
0.4385492426
 40
0.470277349
 40
0.5019980313
 40
0.5336986496
 40
0.5653667852
 40
0.5969903869
 40
0.6285579043
 40
0.660058422
 40
0.6914817894
 40
0.7228187377
 40
0.7540609999
 40
0.785201409
 40
0.8162339986
 40
0.8471540805
 40
0.8779583183
 40
0.908644781
 40
0.9392129818
 40
0.9696639036
 40
1.0
 40
1.0
 40
1.0
 40
1.0
 10
9.9677629231
 20
7.9920850069
 30
0.0
 10
9.9677629231
 20
7.9842095007
 30
0.0
 10
9.9682032912
 20
7.9684248597
 30
0.0
 10
9.9701739257
 20
7.9447789998
 30
0.0
 10
9.9734497609
 20
7.9211884542
 30
0.0
 10
9.9780205163
 20
7.8977273052
 30
0.0
 10
9.9838719916
 20
7.8744679283
 30
0.0
 10
9.9909859705
 20
7.8514824367
 30
0.0
 10
9.9993403657
 20
7.8288419794
 30
0.0
 10
10.0089092439
 20
7.8066166625
 30
0.0
 10
10.0196629244
 20
7.7848752916
 30
0.0
 10
10.0315680666
 20
7.7636851753
 30
0.0
 10
10.0445877715
 20
7.7431119114
 30
0.0
 10
10.0586816999
 20
7.7232191896
 30
0.0
 10
10.0738061918
 20
7.7040685922
 30
0.0
 10
10.0899144063
 20
7.6857194077
 30
0.0
 10
10.1069564608
 20
7.6682284462
 30
0.0
 10
10.1248795893
 20
7.6516498658
 30
0.0
 10
10.1436283007
 20
7.6360350051
 30
0.0
 10
10.163144553
 20
7.6214322257
 30
0.0
 10
10.1833679296
 20
7.6078867628
 30
0.0
 10
10.204235826
 20
7.5954405858
 30
0.0
 10
10.2256836425
 20
7.5841322687
 30
0.0
 10
10.2476449817
 20
7.5739968713
 30
0.0
 10
10.2700518539
 20
7.5650658303
 30
0.0
 10
10.2928348848
 20
7.5573668624
 30
0.0
 10
10.3159235291
 20
7.5509238768
 30
0.0
 10
10.3392462881
 20
7.5457569021
 30
0.0
 10
10.3627309228
 20
7.5418820214
 30
0.0
 10
10.3863047053
 20
7.5393113261
 30
0.0
 10
10.4098945277
 20
7.5380528594
 30
0.0
 10
10.4334275576
 20
7.5381106549
 30
0.0
 10
10.4568298627
 20
7.5394844767
 30
0.0
 10
10.4723269469
 20
7.5412786232
 30
0.0
 10
10.4800272118
 20
7.5423938395
 30
0.0
  0
SPLINE
  5
35D
100
AcDbEntity
  8
0
100
AcDbSpline
 62
7
  6
CONTINUOUS
 70
0
 71
3
 72
97
 73
93
 74
0
 42
0.0000001
 43
0.0000001
 44
0.0000000001
 40
0.0
 40
0.0
 40
0.0
 40
0.0
 40
0.0029730428
 40
0.0060398062
 40
0.0092183432
 40
0.0125246163
 40
0.0159725653
 40
0.0195741526
 40
0.0233395822
 40
0.0272773988
 40
0.0313947435
 40
0.0356974434
 40
0.0401902427
 40
0.0448768709
 40
0.049760223
 40
0.0548424161
 40
0.0601249128
 40
0.0656085782
 40
0.0712937487
 40
0.0771802998
 40
0.0832676655
 40
0.0895549218
 40
0.0960407646
 40
0.1027236087
 40
0.1096015351
 40
0.1166723992
 40
0.1313826334
 40
0.1468326786
 40
0.1629972138
 40
0.179848025
 40
0.1973543137
 40
0.2154829562
 40
0.2341987286
 40
0.2534645064
 40
0.2732414446
 40
0.2934891445
 40
0.3141658105
 40
0.3352283994
 40
0.3566327634
 40
0.3783337905
 40
0.4002855406
 40
0.4224413803
 40
0.4447541156
 40
0.4671761241
 40
0.489659486
 40
0.5121561151
 40
0.5346178893
 40
0.5569967809
 40
0.5792449872
 40
0.6013150618
 40
0.6231600457
 40
0.6447335999
 40
0.665990139
 40
0.6868849665
 40
0.7073744131
 40
0.7274159774
 40
0.7469684719
 40
0.7659921752
 40
0.7844489931
 40
0.8023026303
 40
0.8195187794
 40
0.8360653303
 40
0.8519126092
 40
0.8670336587
 40
0.8743144336
 40
0.8814049574
 40
0.8883027938
 40
0.8950057471
 40
0.9015118892
 40
0.90781959
 40
0.9139275189
 40
0.9198347138
 40
0.9255405616
 40
0.9310449048
 40
0.9363480104
 40
0.9414507107
 40
0.9463543757
 40
0.951061082
 40
0.9555736084
 40
0.9598956255
 40
0.9640317361
 40
0.9679876788
 40
0.9717704261
 40
0.9753883927
 40
0.9788515849
 40
0.982171792
 40
0.9853627408
 40
0.9884401837
 40
0.9914219426
 40
0.9943278444
 40
0.9971795489
 40
1.0
 40
1.0
 40
1.0
 40
1.0
 10
12.9220928252
 20
8.7471910204
 30
0.0
 10
12.9237465939
 20
8.7475763046
 30
0.0
 10
12.9270729112
 20
8.7485091805
 30
0.0
 10
12.9320118206
 20
8.7503488481
 30
0.0
 10
12.9369656354
 20
8.7526461272
 30
0.0
 10
12.9419312683
 20
8.7553988519
 30
0.0
 10
12.9469063079
 20
8.7586051076
 30
0.0
 10
12.9518883231
 20
8.7622626401
 30
0.0
 10
12.95687477
 20
8.7663692786
 30
0.0
 10
12.9618632157
 20
8.7709225099
 30
0.0
 10
12.9668510167
 20
8.7759198001
 30
0.0
 10
12.9718356388
 20
8.7813582655
 30
0.0
 10
12.9768143571
 20
8.7872349139
 30
0.0
 10
12.9817845384
 20
8.7935464233
 30
0.0
 10
12.9867434154
 20
8.8002892989
 30
0.0
 10
12.9916882801
 20
8.8074597497
 30
0.0
 10
12.9966163586
 20
8.8150537681
 30
0.0
 10
13.0015248943
 20
8.8230670844
 30
0.0
 10
13.0064111314
 20
8.8314951855
 30
0.0
 10
13.0112722881
 20
8.8403333243
 30
0.0
 10
13.016105642
 20
8.8495764968
 30
0.0
 10
13.0209084061
 20
8.8592194853
 30
0.0
 10
13.0256779013
 20
8.8692568128
 30
0.0
 10
13.0304113468
 20
8.8796827987
 30
0.0
 10
13.0351061375
 20
8.8904915201
 30
0.0
 10
13.0413936109
 20
8.9056050121
 30
0.0
 10
13.0491227691
 20
8.9254185
 30
0.0
 10
13.0580835925
 20
8.9503162093
 30
0.0
 10
13.0668277958
 20
8.9765824833
 30
0.0
 10
13.0753353274
 20
9.0041575615
 30
0.0
 10
13.0835866776
 20
9.0329788832
 30
0.0
 10
13.0915629236
 20
9.062980909
 30
0.0
 10
13.0992457775
 20
9.0940953812
 30
0.0
 10
13.1066176286
 20
9.1262514615
 30
0.0
 10
13.1136615841
 20
9.1593759087
 30
0.0
 10
13.1203615079
 20
9.1933932491
 30
0.0
 10
13.1267020569
 20
9.2282259543
 30
0.0
 10
13.1326687157
 20
9.2637946213
 30
0.0
 10
13.1382478287
 20
9.3000181571
 30
0.0
 10
13.1434266315
 20
9.3368139655
 30
0.0
 10
13.1481932791
 20
9.3740981378
 30
0.0
 10
13.1525368725
 20
9.4117856452
 30
0.0
 10
13.1564474839
 20
9.4497905347
 30
0.0
 10
13.1599161783
 20
9.488026126
 30
0.0
 10
13.1629350345
 20
9.5264052098
 30
0.0
 10
13.1654971626
 20
9.5648402485
 30
0.0
 10
13.1675967198
 20
9.6032435759
 30
0.0
 10
13.1692289239
 20
9.6415275985
 30
0.0
 10
13.1703900644
 20
9.6796049958
 30
0.0
 10
13.1710775112
 20
9.717388921
 30
0.0
 10
13.1712897206
 20
9.7547931994
 30
0.0
 10
13.1710262396
 20
9.7917325264
 30
0.0
 10
13.1702877075
 20
9.8281226639
 30
0.0
 10
13.1690758548
 20
9.8638806334
 30
0.0
 10
13.1673935002
 20
9.898924908
 30
0.0
 10
13.1652445448
 20
9.9331756003
 30
0.0
 10
13.1626339642
 20
9.966554648
 30
0.0
 10
13.159567798
 20
9.998985996
 30
0.0
 10
13.1560531369
 20
10.0303957734
 30
0.0
 10
13.1520981082
 20
10.0607124755
 30
0.0
 10
13.147711854
 20
10.0898671113
 30
0.0
 10
13.1429045234
 20
10.1177934591
 30
0.0
 10
13.1376872008
 20
10.144427929
 30
0.0
 10
13.1329501363
 20
10.1657570652
 30
0.0
 10
13.1289526459
 20
10.1821209549
 30
0.0
 10
13.1258974293
 20
10.1938788543
 30
0.0
 10
13.1227490804
 20
10.2052701409
 30
0.0
 10
13.1195093677
 20
10.2162883563
 30
0.0
 10
13.1161801394
 20
10.2269272383
 30
0.0
 10
13.1127633135
 20
10.2371807549
 30
0.0
 10
13.1092608041
 20
10.2470430888
 30
0.0
 10
13.1056746476
 20
10.2565086659
 30
0.0
 10
13.1020068225
 20
10.2655721239
 30
0.0
 10
13.0982594697
 20
10.2742283646
 30
0.0
 10
13.0944346255
 20
10.2824724939
 30
0.0
 10
13.0905345149
 20
10.2902999049
 30
0.0
 10
13.0865612236
 20
10.2977061831
 30
0.0
 10
13.0825170304
 20
10.3046872219
 30
0.0
 10
13.0784040584
 20
10.3112390946
 30
0.0
 10
13.0742245995
 20
10.3173581913
 30
0.0
 10
13.0699807944
 20
10.3230410698
 30
0.0
 10
13.0656749006
 20
10.3282845883
 30
0.0
 10
13.0613090514
 20
10.3330857572
 30
0.0
 10
13.0568854354
 20
10.3374418304
 30
0.0
 10
13.0524061787
 20
10.3413501963
 30
0.0
 10
13.0478734166
 20
10.3448083753
 30
0.0
 10
13.0432893465
 20
10.3478140027
 30
0.0
 10
13.0386562333
 20
10.3503647275
 30
0.0
 10
13.0339766649
 20
10.3524584078
 30
0.0
 10
13.02925318
 20
10.3540928975
 30
0.0
 10
13.0244894869
 20
10.3552663941
 30
0.0
 10
13.0212790491
 20
10.3557418221
 30
0.0
 10
13.0196760466
 20
10.3559011711
 30
0.0
  0
SPLINE
  5
35E
100
AcDbEntity
  8
0
100
AcDbSpline
 62
7
  6
CONTINUOUS
 70
0
 71
3
 72
39
 73
35
 74
0
 42
0.0000001
 43
0.0000001
 44
0.0000000001
 40
0.0
 40
0.0
 40
0.0
 40
0.0
 40
0.0307080506
 40
0.0615340171
 40
0.0924754716
 40
0.1235289983
 40
0.1546895781
 40
0.1859510391
 40
0.2173059684
 40
0.2487458862
 40
0.2802613148
 40
0.3118419169
 40
0.3434766059
 40
0.3751536831
 40
0.4068609704
 40
0.4385859475
 40
0.4703158982
 40
0.5020380463
 40
0.5337397077
 40
0.565408425
 40
0.5970321151
 40
0.6285992029
 40
0.6600987572
 40
0.6915206204
 40
0.7228555269
 40
0.754095223
 40
0.7852325658
 40
0.8162616242
 40
0.8471777561
 40
0.8779776824
 40
0.9086595394
 40
0.9392229183
 40
0.969668889
 40
1.0
 40
1.0
 40
1.0
 40
1.0
 10
9.9458426178
 20
7.9864116166
 30
0.0
 10
9.9458426178
 20
7.9782421669
 30
0.0
 10
9.9463002935
 20
7.9618683134
 30
0.0
 10
9.9483483705
 20
7.9373400097
 30
0.0
 10
9.9517528984
 20
7.9128694853
 30
0.0
 10
9.9565031642
 20
7.8885338776
 30
0.0
 10
9.9625843476
 20
7.8644085468
 30
0.0
 10
9.9699774471
 20
7.8405685754
 30
0.0
 10
9.9786594208
 20
7.8170880385
 30
0.0
 10
9.9886032159
 20
7.7940399203
 30
0.0
 10
9.9997778716
 20
7.7714958454
 30
0.0
 10
10.0121486097
 20
7.7495258733
 30
0.0
 10
10.0256769426
 20
7.7281982748
 30
0.0
 10
10.0403207954
 20
7.7075793264
 30
0.0
 10
10.0560346321
 20
7.6877331019
 30
0.0
 10
10.0727696011
 20
7.6687212773
 30
0.0
 10
10.0904736817
 20
7.6506029385
 30
0.0
 10
10.1090918495
 20
7.6334344001
 30
0.0
 10
10.1285662422
 20
7.6172690305
 30
0.0
 10
10.1488363416
 20
7.602157087
 30
0.0
 10
10.1698391585
 20
7.588145561
 30
0.0
 10
10.191509428
 20
7.5752780316
 30
0.0
 10
10.2137798108
 20
7.5635945313
 30
0.0
 10
10.2365811006
 20
7.5531314217
 30
0.0
 10
10.2598424383
 20
7.5439212805
 30
0.0
 10
10.2834915294
 20
7.5359928002
 30
0.0
 10
10.3074548677
 20
7.5293706982
 30
0.0
 10
10.331657963
 20
7.5240756397
 30
0.0
 10
10.3560255631
 20
7.5201241709
 30
0.0
 10
10.3804819176
 20
7.5175286718
 30
0.0
 10
10.4049508917
 20
7.5162972963
 30
0.0
 10
10.4293566497
 20
7.5164340165
 30
0.0
 10
10.4536222242
 20
7.5179383419
 30
0.0
 10
10.4696876852
 20
7.5198538532
 30
0.0
 10
10.4776694666
 20
7.5210381981
 30
0.0
  0
SPLINE
  5
35F
100
AcDbEntity
  8
0
100
AcDbSpline
 62
7
  6
CONTINUOUS
 70
0
 71
3
 72
100
 73
96
 74
0
 42
0.0000001
 43
0.0000001
 44
0.0000000001
 40
0.0
 40
0.0
 40
0.0
 40
0.0
 40
0.0028644023
 40
0.0057545132
 40
0.0086952076
 40
0.0117101473
 40
0.014821083
 40
0.0180475631
 40
0.0214068688
 40
0.0249140241
 40
0.0285819102
 40
0.032421414
 40
0.0364416591
 40
0.040650168
 40
0.0450530984
 40
0.0496553619
 40
0.0544608403
 40
0.059472449
 40
0.064692329
 40
0.070121862
 40
0.0757618408
 40
0.0816124496
 40
0.0876734171
 40
0.0939439728
 40
0.1004229853
 40
0.1071089063
 40
0.1139998935
 40
0.1210937506
 40
0.1283880351
 40
0.1358800004
 40
0.1435666871
 40
0.1514448733
 40
0.1677615759
 40
0.1848006769
 40
0.2025294976
 40
0.2209127563
 40
0.239912828
 40
0.2594899725
 40
0.2796025404
 40
0.3002071634
 40
0.3212589311
 40
0.3427115609
 40
0.3645175601
 40
0.386628384
 40
0.4089945908
 40
0.4315659936
 40
0.4542918112
 40
0.4771208176
 40
0.5000014905
 40
0.5228821596
 40
0.5457111547
 40
0.5684369536
 40
0.5910083302
 40
0.6133745034
 40
0.6354852865
 40
0.6572912376
 40
0.6787438122
 40
0.6997955178
 40
0.7204000716
 40
0.7405125638
 40
0.760089626
 40
0.7790896092
 40
0.7974727735
 40
0.8152014942
 40
0.83224049
 40
0.8485570828
 40
0.864121499
 40
0.8716134097
 40
0.878907631
 40
0.8860014338
 40
0.8928923547
 40
0.8995782217
 40
0.9060571652
 40
0.9123276675
 40
0.918388564
 40
0.9242391202
 40
0.929879027
 40
0.935308508
 40
0.9405283162
 40
0.945539874
 40
0.9503452818
 40
0.9549474957
 40
0.9593503586
 40
0.9635588199
 40
0.9675790023
 40
0.9714184611
 40
0.9750862914
 40
0.978593408
 40
0.981952668
 40
0.98517911
 40
0.988290009
 40
0.9913049437
 40
0.9942456322
 40
0.997135665
 40
1.0
 40
1.0
 40
1.0
 40
1.0
 10
13.0490870299
 20
10.3538840409
 30
0.0
 10
13.0507354834
 20
10.3537696549
 30
0.0
 10
13.0540381195
 20
10.3533763644
 30
0.0
 10
13.0589446715
 20
10.3522987194
 30
0.0
 10
13.0638095651
 20
10.3507337135
 30
0.0
 10
13.0686286452
 20
10.3486833396
 30
0.0
 10
13.0733990424
 20
10.3461498664
 30
0.0
 10
13.0781179534
 20
10.3431357092
 30
0.0
 10
13.0827828684
 20
10.3396433836
 30
0.0
 10
13.0873914494
 20
10.3356755144
 30
0.0
 10
13.0919413752
 20
10.3312347654
 30
0.0
 10
13.0964303838
 20
10.3263239848
 30
0.0
 10
13.100856111
 20
10.3209461339
 30
0.0
 10
13.1052162629
 20
10.3151044524
 30
0.0
 10
13.1095084085
 20
10.3088023478
 30
0.0
 10
13.1137302253
 20
10.3020435526
 30
0.0
 10
13.1178792496
 20
10.2948320001
 30
0.0
 10
13.1219531689
 20
10.2871719607
 30
0.0
 10
13.1259495339
 20
10.2790679217
 30
0.0
 10
13.129866076
 20
10.2705247001
 30
0.0
 10
13.1337003971
 20
10.2615473377
 30
0.0
 10
13.1374502967
 20
10.2521411902
 30
0.0
 10
13.1411134551
 20
10.2423118424
 30
0.0
 10
13.1446877551
 20
10.2320651742
 30
0.0
 10
13.1481709746
 20
10.2214072971
 30
0.0
 10
13.1515610899
 20
10.2103445985
 30
0.0
 10
13.1548559904
 20
10.1988836973
 30
0.0
 10
13.1580537527
 20
10.1870314714
 30
0.0
 10
13.1611523893
 20
10.1747950266
 30
0.0
 10
13.1641500772
 20
10.1621817162
 30
0.0
 10
13.1670449821
 20
10.1491991002
 30
0.0
 10
13.1708094924
 20
10.1311961758
 30
0.0
 10
13.1752321511
 20
10.1078212471
 30
0.0
 10
13.1800431421
 20
10.078744558
 30
0.0
 10
13.1844061771
 20
10.0483925205
 30
0.0
 10
13.1883106321
 20
10.0168381508
 30
0.0
 10
13.1917469595
 20
9.9841572067
 30
0.0
 10
13.1947067667
 20
9.9504282603
 30
0.0
 10
13.1971828203
 20
9.9157324237
 30
0.0
 10
13.1991690661
 20
9.8801531674
 30
0.0
 10
13.2006606422
 20
9.8437761078
 30
0.0
 10
13.201653889
 20
9.8066887985
 30
0.0
 10
13.2021463575
 20
9.7689805156
 30
0.0
 10
13.202136814
 20
9.7307420401
 30
0.0
 10
13.2016252425
 20
9.6920654372
 30
0.0
 10
13.2006128438
 20
9.6530438329
 30
0.0
 10
13.1991020321
 20
9.6137711882
 30
0.0
 10
13.1970964292
 20
9.5743420712
 30
0.0
 10
13.1946008549
 20
9.5348514287
 30
0.0
 10
13.1916213153
 20
9.4953943562
 30
0.0
 10
13.1881649887
 20
9.4560658681
 30
0.0
 10
13.1842402075
 20
9.4169606673
 30
0.0
 10
13.1798564388
 20
9.3781729168
 30
0.0
 10
13.1750242617
 20
9.3397960112
 30
0.0
 10
13.1697553416
 20
9.3019223504
 30
0.0
 10
13.1640624032
 20
9.2646431162
 30
0.0
 10
13.1579591994
 20
9.2280480499
 30
0.0
 10
13.1514604794
 20
9.192225235
 30
0.0
 10
13.1445819533
 20
9.1572608814
 30
0.0
 10
13.1373402551
 20
9.1232391149
 30
0.0
 10
13.1297529029
 20
9.0902417696
 30
0.0
 10
13.1218382575
 20
9.0583481872
 30
0.0
 10
13.1136154779
 20
9.027635011
 30
0.0
 10
13.1051044741
 20
8.9981760183
 30
0.0
 10
13.0963258607
 20
8.970041837
 30
0.0
 10
13.0873008914
 20
8.9433000842
 30
0.0
 10
13.0794970916
 20
8.921966149
 30
0.0
 10
13.0731359821
 20
8.9056533635
 30
0.0
 10
13.0683778851
 20
8.8939618938
 30
0.0
 10
13.0635747017
 20
8.8826646514
 30
0.0
 10
13.0587292871
 20
8.8717684044
 30
0.0
 10
13.0538445783
 20
8.8612796832
 30
0.0
 10
13.0489234918
 20
8.8512047743
 30
0.0
 10
13.04396901
 20
8.8415496968
 30
0.0
 10
13.0389840716
 20
8.8323202303
 30
0.0
 10
13.0339717
 20
8.8235218664
 30
0.0
 10
13.0289348403
 20
8.8151598626
 30
0.0
 10
13.023876542
 20
8.8072391659
 30
0.0
 10
13.0187997392
 20
8.7997645
 30
0.0
 10
13.0137074856
 20
8.7927402531
 30
0.0
 10
13.008602681
 20
8.7861706095
 30
0.0
 10
13.0034883527
 20
8.7800593922
 30
0.0
 10
12.9983673362
 20
8.7744102531
 30
0.0
 10
12.9932425922
 20
8.7692264632
 30
0.0
 10
12.988116858
 20
8.7645111753
 30
0.0
 10
12.9829929879
 20
8.7602671597
 30
0.0
 10
12.9778736051
 20
8.7564971501
 30
0.0
 10
12.9727614557
 20
8.7532035268
 30
0.0
 10
12.9676591116
 20
8.7503887391
 30
0.0
 10
12.9625693378
 20
8.7480549249
 30
0.0
 10
12.9574948834
 20
8.7462043576
 30
0.0
 10
12.9524389015
 20
8.7448389525
 30
0.0
 10
12.9474045715
 20
8.7439606434
 30
0.0
 10
12.9423963168
 20
8.7435706998
 30
0.0
 10
12.9390710911
 20
8.7436371358
 30
0.0
 10
12.9374226714
 20
8.743751449
 30
0.0
  0
SPLINE
  5
360
100
AcDbEntity
  8
0
100
AcDbSpline
 62
7
  6
CONTINUOUS
 70
0
 71
3
 72
71
 73
67
 74
0
 42
0.0000001
 43
0.0000001
 44
0.0000000001
 40
0.0
 40
0.0
 40
0.0
 40
0.0
 40
0.0155842565
 40
0.0311159319
 40
0.0465952524
 40
0.0620238826
 40
0.0774034482
 40
0.0927362827
 40
0.1080251231
 40
0.1232731738
 40
0.1384840558
 40
0.1536617763
 40
0.1688106896
 40
0.1839354527
 40
0.199040978
 40
0.2141323822
 40
0.2292149324
 40
0.2442939901
 40
0.2593749544
 40
0.2744632041
 40
0.2895640403
 40
0.3046826298
 40
0.3198239504
 40
0.3349927394
 40
0.3501934439
 40
0.3654301774
 40
0.3807066784
 40
0.3960262752
 40
0.411391855
 40
0.4268058382
 40
0.4422701586
 40
0.4577862484
 40
0.4733550295
 40
0.4889769098
 40
0.5046517845
 40
0.5203790422
 40
0.5361575755
 40
0.5519857963
 40
0.5678616545
 40
0.5837826618
 40
0.5997459181
 40
0.6157481413
 40
0.6317856992
 40
0.6478546441
 40
0.6639507502
 40
0.6800695513
 40
0.6962063821
 40
0.7123564199
 40
0.7285147268
 40
0.7446762929
 40
0.76083608
 40
0.776989065
 40
0.7931302839
 40
0.8092548753
 40
0.8253581235
 40
0.8414355003
 40
0.8574827053
 40
0.8734957053
 40
0.889470771
 40
0.9054045131
 40
0.921293919
 40
0.9371363621
 40
0.9529297157
 40
0.968672092
 40
0.9843626215
 40
1.0
 40
1.0
 40
1.0
 40
1.0
 10
11.6374103985
 20
8.5380415658
 30
0.0
 10
11.6374103985
 20
8.5297274355
 30
0.0
 10
11.6370035209
 20
8.5131242785
 30
0.0
 10
11.6351668473
 20
8.4883241366
 30
0.0
 10
11.6321090424
 20
8.4637277254
 30
0.0
 10
11.6278375991
 20
8.4393952534
 30
0.0
 10
11.6223626168
 20
8.4153850283
 30
0.0
 10
11.615697299
 20
8.3917550381
 30
0.0
 10
11.6078576198
 20
8.3685622231
 30
0.0
 10
11.5988624275
 20
8.3458625202
 30
0.0
 10
11.588733361
 20
8.323710671
 30
0.0
 10
11.5774948027
 20
8.3021601036
 30
0.0
 10
11.5651738154
 20
8.2812628015
 30
0.0
 10
11.5518000784
 20
8.2610691774
 30
0.0
 10
11.5374058169
 20
8.2416279503
 30
0.0
 10
11.522025725
 20
8.2229860261
 30
0.0
 10
11.5056968803
 20
8.2051883847
 30
0.0
 10
11.4884586656
 20
8.1882779587
 30
0.0
 10
11.4703526638
 20
8.1722955337
 30
0.0
 10
11.4514225532
 20
8.1572796528
 30
0.0
 10
11.4317140021
 20
8.1432665214
 30
0.0
 10
11.4112745566
 20
8.1302899204
 30
0.0
 10
11.3901535251
 20
8.1183811238
 30
0.0
 10
11.3684018571
 20
8.1075688259
 30
0.0
 10
11.3460720249
 20
8.0978790595
 30
0.0
 10
11.3232178908
 20
8.0893351387
 30
0.0
 10
11.2998945726
 20
8.0819576105
 30
0.0
 10
11.2761583106
 20
8.0757642053
 30
0.0
 10
11.2520663313
 20
8.0707697957
 30
0.0
 10
11.2276767097
 20
8.0669863623
 30
0.0
 10
11.2030482288
 20
8.0644229684
 30
0.0
 10
11.1782402395
 20
8.0630857278
 30
0.0
 10
11.1533125153
 20
8.0629777935
 30
0.0
 10
11.128325108
 20
8.0640993613
 30
0.0
 10
11.1033382036
 20
8.0664476687
 30
0.0
 10
11.0784119788
 20
8.0700170035
 30
0.0
 10
11.053606457
 20
8.0747987174
 30
0.0
 10
11.028981366
 20
8.0807812502
 30
0.0
 10
11.0045959926
 20
8.0879501485
 30
0.0
 10
10.9805090393
 20
8.0962880995
 30
0.0
 10
10.9567784855
 20
8.1057749852
 30
0.0
 10
10.9334614499
 20
8.1163879282
 30
0.0
 10
10.9106140535
 20
8.1281013476
 30
0.0
 10
10.888291286
 20
8.14088702
 30
0.0
 10
10.8665468761
 20
8.1547141485
 30
0.0
 10
10.8454331586
 20
8.1695494302
 30
0.0
 10
10.8250009451
 20
8.1853571328
 30
0.0
 10
10.8052994093
 20
8.202099191
 30
0.0
 10
10.7863759682
 20
8.2197352965
 30
0.0
 10
10.7682761697
 20
8.2382229941
 30
0.0
 10
10.7510435833
 20
8.2575177831
 30
0.0
 10
10.7347196969
 20
8.2775732243
 30
0.0
 10
10.7193438145
 20
8.2983410482
 30
0.0
 10
10.7049529529
 20
8.3197712655
 30
0.0
 10
10.6915817646
 20
8.3418122969
 30
0.0
 10
10.6792624533
 20
8.3644110943
 30
0.0
 10
10.6680246973
 20
8.3875132682
 30
0.0
 10
10.6578955783
 20
8.4110632171
 30
0.0
 10
10.6488995177
 20
8.4350042595
 30
0.0
 10
10.6410582112
 20
8.4592787717
 30
0.0
 10
10.6343905816
 20
8.4838283098
 30
0.0
 10
10.628912693
 20
8.5085938067
 30
0.0
 10
10.6246378503
 20
8.5335155264
 30
0.0
 10
10.6215762687
 20
8.5585338071
 30
0.0
 10
10.6197355591
 20
8.5835874527
 30
0.0
 10
10.6193245173
 20
8.6003035908
 30
0.0
 10
10.6193245173
 20
8.6086460614
 30
0.0
  0
SPLINE
  5
361
100
AcDbEntity
  8
0
100
AcDbSpline
 62
7
  6
CONTINUOUS
 70
0
 71
3
 72
21
 73
17
 74
0
 42
0.0000001
 43
0.0000001
 44
0.0000000001
 40
0.0
 40
0.0
 40
0.0
 40
0.0
 40
0.1443735059
 40
0.2847906534
 40
0.3532507692
 40
0.4204062679
 40
0.4861574818
 40
0.5504075043
 40
0.6130629063
 40
0.6740338444
 40
0.7332343625
 40
0.7905829406
 40
0.8460027114
 40
0.8994218397
 40
0.9507742246
 40
1.0
 40
1.0
 40
1.0
 40
1.0
 10
12.9100934321
 20
7.8140495345
 30
0.0
 10
12.9100934321
 20
7.8267447255
 30
0.0
 10
12.9098242692
 20
7.8517881085
 30
0.0
 10
12.908782434
 20
7.8828360708
 30
0.0
 10
12.9075228708
 20
7.9070762976
 30
0.0
 10
12.9063808772
 20
7.9247467197
 30
0.0
 10
12.9050355999
 20
7.9420315411
 30
0.0
 10
12.903489248
 20
7.9589022496
 30
0.0
 10
12.9017444261
 20
7.9753309816
 30
0.0
 10
12.8998040424
 20
7.9912906184
 30
0.0
 10
12.8976713199
 20
8.0067548207
 30
0.0
 10
12.8953498339
 20
8.021698088
 30
0.0
 10
12.8928434652
 20
8.0360957797
 30
0.0
 10
12.8901563724
 20
8.0499242086
 30
0.0
 10
12.8872930658
 20
8.0631605059
 30
0.0
 10
12.8852254193
 20
8.0717605928
 30
0.0
 10
12.8841598501
 20
8.0759559555
 30
0.0
  0
SPLINE
  5
362
100
AcDbEntity
  8
0
100
AcDbSpline
 62
7
  6
CONTINUOUS
 70
0
 71
3
 72
15
 73
11
 74
0
 42
0.0000001
 43
0.0000001
 44
0.0000000001
 40
0.0
 40
0.0
 40
0.0
 40
0.0
 40
0.1627807188
 40
0.3135917784
 40
0.452807754
 40
0.5809521748
 40
0.6987067889
 40
0.8069663985
 40
0.9068962773
 40
1.0
 40
1.0
 40
1.0
 40
1.0
 10
10.3316163026
 20
7.3609675665
 30
0.0
 10
10.3302805245
 20
7.3596773038
 30
0.0
 10
10.3277676018
 20
7.3571276675
 30
0.0
 10
10.3243623849
 20
7.3532382262
 30
0.0
 10
10.3214707299
 20
7.3494379854
 30
0.0
 10
10.3190956657
 20
7.3457349247
 30
0.0
 10
10.3172394742
 20
7.3421381755
 30
0.0
 10
10.3159050205
 20
7.3386575035
 30
0.0
 10
10.3150952135
 20
7.3353062051
 30
0.0
 10
10.3149027423
 20
7.333101003
 30
0.0
 10
10.3149029561
 20
7.3320387799
 30
0.0
  0
SPLINE
  5
363
100
AcDbEntity
  8
0
100
AcDbSpline
 62
7
  6
CONTINUOUS
 70
0
 71
3
 72
71
 73
67
 74
0
 42
0.0000001
 43
0.0000001
 44
0.0000000001
 40
0.0
 40
0.0
 40
0.0
 40
0.0
 40
0.0156373785
 40
0.031327908
 40
0.0470702843
 40
0.0628636379
 40
0.078706081
 40
0.0945954869
 40
0.110529229
 40
0.1265042947
 40
0.1425172947
 40
0.1585644997
 40
0.1746418765
 40
0.1907451247
 40
0.2068697161
 40
0.223010935
 40
0.23916392
 40
0.2553237071
 40
0.2714852732
 40
0.2876435801
 40
0.3037936179
 40
0.3199304487
 40
0.3360492498
 40
0.3521453559
 40
0.3682143008
 40
0.3842518587
 40
0.4002540819
 40
0.4162173382
 40
0.4321383455
 40
0.4480142037
 40
0.4638424245
 40
0.4796209578
 40
0.4953482155
 40
0.5110230902
 40
0.5266449705
 40
0.5422137516
 40
0.5577298414
 40
0.5731941618
 40
0.588608145
 40
0.6039737248
 40
0.6192933216
 40
0.6345698226
 40
0.6498065561
 40
0.6650072606
 40
0.6801760496
 40
0.6953173702
 40
0.7104359597
 40
0.7255367959
 40
0.7406250456
 40
0.7557060099
 40
0.7707850676
 40
0.7858676178
 40
0.800959022
 40
0.8160645473
 40
0.8311893104
 40
0.8463382237
 40
0.8615159442
 40
0.8767268262
 40
0.8919748769
 40
0.9072637173
 40
0.9225965518
 40
0.9379761174
 40
0.9534047476
 40
0.9688840681
 40
0.9844157435
 40
1.0
 40
1.0
 40
1.0
 40
1.0
 10
11.6374103985
 20
8.5380415658
 30
0.0
 10
11.6374103985
 20
8.5463840364
 30
0.0
 10
11.6369993567
 20
8.5631001745
 30
0.0
 10
11.635158647
 20
8.5881538201
 30
0.0
 10
11.6320970654
 20
8.6131721008
 30
0.0
 10
11.6278222227
 20
8.6380938205
 30
0.0
 10
11.6223443342
 20
8.6628593174
 30
0.0
 10
11.6156767046
 20
8.6874088555
 30
0.0
 10
11.6078353981
 20
8.7116833677
 30
0.0
 10
11.5988393374
 20
8.7356244101
 30
0.0
 10
11.5887102185
 20
8.7591743589
 30
0.0
 10
11.5774724625
 20
8.7822765329
 30
0.0
 10
11.5651531512
 20
8.8048753303
 30
0.0
 10
11.5517819629
 20
8.8269163617
 30
0.0
 10
11.5373911013
 20
8.848346579
 30
0.0
 10
11.5220152189
 20
8.8691144029
 30
0.0
 10
11.5056913325
 20
8.8891698441
 30
0.0
 10
11.4884587461
 20
8.9084646331
 30
0.0
 10
11.4703589476
 20
8.9269523307
 30
0.0
 10
11.4514355065
 20
8.9445884361
 30
0.0
 10
11.4317339707
 20
8.9613304944
 30
0.0
 10
11.4113017572
 20
8.977138197
 30
0.0
 10
11.3901880397
 20
8.9919734787
 30
0.0
 10
11.3684436297
 20
9.0058006072
 30
0.0
 10
11.3461208623
 20
9.0185862796
 30
0.0
 10
11.3232734659
 20
9.030299699
 30
0.0
 10
11.2999564302
 20
9.040912642
 30
0.0
 10
11.2762258765
 20
9.0503995277
 30
0.0
 10
11.2521389231
 20
9.0587374787
 30
0.0
 10
11.2277535498
 20
9.065906377
 30
0.0
 10
11.2031284587
 20
9.0718889098
 30
0.0
 10
11.178322937
 20
9.0766706237
 30
0.0
 10
11.1533967122
 20
9.0802399585
 30
0.0
 10
11.1284098078
 20
9.0825882659
 30
0.0
 10
11.1034224005
 20
9.0837098337
 30
0.0
 10
11.0784946763
 20
9.0836018994
 30
0.0
 10
11.053686687
 20
9.0822646588
 30
0.0
 10
11.029058206
 20
9.0797012649
 30
0.0
 10
11.0046685844
 20
9.0759178315
 30
0.0
 10
10.9805766052
 20
9.0709234219
 30
0.0
 10
10.9568403432
 20
9.0647300166
 30
0.0
 10
10.9335170249
 20
9.0573524885
 30
0.0
 10
10.9106628908
 20
9.0488085677
 30
0.0
 10
10.8883330587
 20
9.0391188013
 30
0.0
 10
10.8665813907
 20
9.0283065034
 30
0.0
 10
10.8454603592
 20
9.0163977068
 30
0.0
 10
10.8250209136
 20
9.0034211058
 30
0.0
 10
10.8053123625
 20
8.9894079744
 30
0.0
 10
10.786382252
 20
8.9743920935
 30
0.0
 10
10.7682762502
 20
8.9584096685
 30
0.0
 10
10.7510380354
 20
8.9414992425
 30
0.0
 10
10.7347091907
 20
8.9237016011
 30
0.0
 10
10.7193290989
 20
8.9050596769
 30
0.0
 10
10.7049348374
 20
8.8856184498
 30
0.0
 10
10.6915611004
 20
8.8654248257
 30
0.0
 10
10.6792401131
 20
8.8445275236
 30
0.0
 10
10.6680015548
 20
8.8229769562
 30
0.0
 10
10.6578724882
 20
8.800825107
 30
0.0
 10
10.648877296
 20
8.7781254041
 30
0.0
 10
10.6410376168
 20
8.7549325891
 30
0.0
 10
10.6343722989
 20
8.7313025989
 30
0.0
 10
10.6288973166
 20
8.7072923738
 30
0.0
 10
10.6246258733
 20
8.6829599018
 30
0.0
 10
10.6215680684
 20
8.6583634906
 30
0.0
 10
10.6197313949
 20
8.6335633487
 30
0.0
 10
10.6193245173
 20
8.6169601917
 30
0.0
 10
10.6193245173
 20
8.6086460614
 30
0.0
  0
SPLINE
  5
364
100
AcDbEntity
  8
0
100
AcDbSpline
 62
7
  6
CONTINUOUS
 70
0
 71
3
 72
52
 73
48
 74
0
 42
0.0000001
 43
0.0000001
 44
0.0000000001
 40
0.0
 40
0.0
 40
0.0
 40
0.0
 40
0.0499779125
 40
0.0993160495
 40
0.1479278371
 40
0.1957336332
 40
0.2426529024
 40
0.2886079559
 40
0.33352336
 40
0.3773261063
 40
0.4199459773
 40
0.461315784
 40
0.5013716661
 40
0.5400533612
 40
0.5773045436
 40
0.6130732609
 40
0.6473124242
 40
0.6799803084
 40
0.7110412166
 40
0.7404663453
 40
0.7682348979
 40
0.78149468
 40
0.7943368657
 40
0.8067618093
 40
0.8187706918
 40
0.8303655333
 40
0.8415495254
 40
0.8523268987
 40
0.8627032024
 40
0.8726854988
 40
0.8822823559
 40
0.891504292
 40
0.9003638341
 40
0.9088757725
 40
0.9170575677
 40
0.924929406
 40
0.9325146109
 40
0.9398398101
 40
0.9469349907
 40
0.9538336628
 40
0.9605725908
 40
0.9671915091
 40
0.9737325865
 40
0.9802396241
 40
0.9867571864
 40
0.9933295953
 40
1.0
 40
1.0
 40
1.0
 40
1.0
 10
13.1111651021
 20
9.694711296
 30
0.0
 10
13.1111651021
 20
9.7025878996
 30
0.0
 10
13.1110759238
 20
9.7182404364
 30
0.0
 10
13.1106695663
 20
9.7415510967
 30
0.0
 10
13.1099921011
 20
9.764513034
 30
0.0
 10
13.1090448552
 20
9.7870838985
 30
0.0
 10
13.1078295389
 20
9.8092226296
 30
0.0
 10
13.106348423
 20
9.8308886363
 30
0.0
 10
13.1046042556
 20
9.852042305
 30
0.0
 10
13.102600263
 20
9.8726449499
 30
0.0
 10
13.1003401478
 20
9.892658893
 30
0.0
 10
13.0978280932
 20
9.9120475553
 30
0.0
 10
13.0950687556
 20
9.9307755198
 30
0.0
 10
13.0920672422
 20
9.9488085937
 30
0.0
 10
13.0888291004
 20
9.9661138734
 30
0.0
 10
13.0853603166
 20
9.9826598193
 30
0.0
 10
13.0816673135
 20
9.9984163345
 30
0.0
 10
13.0777569128
 20
10.0133547916
 30
0.0
 10
13.0736363138
 20
10.0274481913
 30
0.0
 10
13.069313079
 20
10.0406709021
 30
0.0
 10
13.0654915773
 20
10.0510992526
 30
0.0
 10
13.0623299108
 20
10.0589792574
 30
0.0
 10
13.0599494633
 20
10.0645656317
 30
0.0
 10
13.0575243968
 20
10.0699170947
 30
0.0
 10
13.0550558012
 20
10.0750312434
 30
0.0
 10
13.0525447421
 20
10.0799057443
 30
0.0
 10
13.049992398
 20
10.0845384232
 30
0.0
 10
13.0473998744
 20
10.0889271848
 30
0.0
 10
13.0447683008
 20
10.0930700481
 30
0.0
 10
13.0420988751
 20
10.0969651824
 30
0.0
 10
13.0393926849
 20
10.1006108026
 30
0.0
 10
13.0366509212
 20
10.1040052921
 30
0.0
 10
13.0338747318
 20
10.1071471197
 30
0.0
 10
13.0310652108
 20
10.1100348026
 30
0.0
 10
13.0282235577
 20
10.1126670426
 30
0.0
 10
13.0253508586
 20
10.1150425184
 30
0.0
 10
13.0224482677
 20
10.117160018
 30
0.0
 10
13.0195169863
 20
10.1190184308
 30
0.0
 10
13.01655818
 20
10.1206165636
 30
0.0
 10
13.0135731971
 20
10.1219534388
 30
0.0
 10
13.0105634283
 20
10.1230280601
 30
0.0
 10
13.0075304102
 20
10.123839521
 30
0.0
 10
13.0044758435
 20
10.1243872307
 30
0.0
 10
13.0014015207
 20
10.1246706267
 30
0.0
 10
12.9983092524
 20
10.1246895442
 30
0.0
 10
12.9952011479
 20
10.1244441329
 30
0.0
 10
12.9931386248
 20
10.1241075287
 30
0.0
 10
12.9921085971
 20
10.1238972777
 30
0.0
  0
SPLINE
  5
365
100
AcDbEntity
  8
0
100
AcDbSpline
 62
7
  6
CONTINUOUS
 70
0
 71
3
 72
37
 73
33
 74
0
 42
0.0000001
 43
0.0000001
 44
0.0000000001
 40
0.0
 40
0.0
 40
0.0
 40
0.0
 40
0.0306358971
 40
0.0613750814
 40
0.0922157449
 40
0.1231551209
 40
0.1541895174
 40
0.1853143605
 40
0.2165242473
 40
0.2478130007
 40
0.2791737303
 40
0.3105988981
 40
0.3420803897
 40
0.3736095924
 40
0.4051774734
 40
0.4367746596
 40
0.5000015908
 40
0.5632284426
 40
0.5948255332
 40
0.6263932833
 40
0.6579223185
 40
0.6894036061
 40
0.7208285362
 40
0.7521889995
 40
0.7834774603
 40
0.8146870281
 40
0.8458115337
 40
0.8768455446
 40
0.9077845995
 40
0.93862478
 40
0.9693635217
 40
1.0
 40
1.0
 40
1.0
 40
1.0
 10
11.6239816028
 20
8.6321619858
 30
0.0
 10
11.6172178384
 20
8.6325039344
 30
0.0
 10
11.6036820486
 20
8.6335223023
 30
0.0
 10
11.5834452961
 20
8.6360412794
 30
0.0
 10
11.5632876541
 20
8.6395482959
 30
0.0
 10
11.5432584993
 20
8.6440347972
 30
0.0
 10
11.5234060747
 20
8.6494899146
 30
0.0
 10
11.5037784059
 20
8.6559004044
 30
0.0
 10
11.4844229133
 20
8.6632507333
 30
0.0
 10
11.465386374
 20
8.6715231039
 30
0.0
 10
11.4467147881
 20
8.6806975029
 30
0.0
 10
11.4284532878
 20
8.6907517385
 30
0.0
 10
11.410645967
 20
8.7016615056
 30
0.0
 10
11.3933359476
 20
8.713400315
 30
0.0
 10
11.3765646808
 20
8.7259401509
 30
0.0
 10
11.3549744714
 20
8.7436879787
 30
0.0
 10
11.329537799
 20
8.7677163206
 30
0.0
 10
11.3064101017
 20
8.79397453
 30
0.0
 10
11.2894251226
 20
8.8161697825
 30
0.0
 10
11.2774771412
 20
8.8333676017
 30
0.0
 10
11.2663485023
 20
8.8510759382
 30
0.0
 10
11.2560657478
 20
8.8692523799
 30
0.0
 10
11.246653835
 20
8.8878529018
 30
0.0
 10
11.238135506
 20
8.9068325872
 30
0.0
 10
11.2305313847
 20
8.9261455684
 30
0.0
 10
11.2238598892
 20
8.9457451835
 30
0.0
 10
11.218137178
 20
8.9655840553
 30
0.0
 10
11.2133770843
 20
8.9856142595
 30
0.0
 10
11.2095911981
 20
9.0057873112
 30
0.0
 10
11.2067886561
 20
9.0260546282
 30
0.0
 10
11.2049762978
 20
9.0463667865
 30
0.0
 10
11.2044302935
 20
9.0599298751
 30
0.0
 10
11.2043242108
 20
9.0667015754
 30
0.0
  0
SPLINE
  5
366
100
AcDbEntity
  8
0
100
AcDbSpline
 62
7
  6
CONTINUOUS
 70
0
 71
3
 72
11
 73
7
 74
0
 42
0.0000001
 43
0.0000001
 44
0.0000000001
 40
0.0
 40
0.0
 40
0.0
 40
0.0
 40
0.2536412244
 40
0.5050131838
 40
0.753890872
 40
1.0
 40
1.0
 40
1.0
 40
1.0
 10
11.0455994288
 20
8.9618960319
 30
0.0
 10
11.0455994288
 20
8.9706117969
 30
0.0
 10
11.0460643317
 20
8.9879691173
 30
0.0
 10
11.0481713185
 20
9.0138015949
 30
0.0
 10
11.0516681827
 20
9.0392217513
 30
0.0
 10
11.0549277047
 20
9.0559263578
 30
0.0
 10
11.0567832063
 20
9.0641772362
 30
0.0
  0
SPLINE
  5
367
100
AcDbEntity
  8
0
100
AcDbSpline
 62
7
  6
CONTINUOUS
 70
0
 71
3
 72
39
 73
35
 74
0
 42
0.0000001
 43
0.0000001
 44
0.0000000001
 40
0.0
 40
0.0
 40
0.0
 40
0.0
 40
0.0307061174
 40
0.0615299296
 40
0.0924690078
 40
0.1235199663
 40
0.1546778093
 40
0.1859364009
 40
0.2172883682
 40
0.2487252769
 40
0.2802376993
 40
0.3118153506
 40
0.3434471995
 40
0.3751216031
 40
0.4068264394
 40
0.4385492426
 40
0.470277349
 40
0.5019980313
 40
0.5336986496
 40
0.5653667852
 40
0.5969903869
 40
0.6285579043
 40
0.660058422
 40
0.6914817894
 40
0.7228187377
 40
0.7540609999
 40
0.785201409
 40
0.8162339986
 40
0.8471540805
 40
0.8779583183
 40
0.908644781
 40
0.9392129818
 40
0.9696639036
 40
1.0
 40
1.0
 40
1.0
 40
1.0
 10
11.1143168667
 20
8.9982719839
 30
0.0
 10
11.1143168667
 20
8.9903964777
 30
0.0
 10
11.1147572348
 20
8.9746118368
 30
0.0
 10
11.1167278693
 20
8.9509659768
 30
0.0
 10
11.1200037045
 20
8.9273754312
 30
0.0
 10
11.1245744599
 20
8.9039142823
 30
0.0
 10
11.1304259352
 20
8.8806549053
 30
0.0
 10
11.1375399141
 20
8.8576694137
 30
0.0
 10
11.1458943093
 20
8.8350289564
 30
0.0
 10
11.1554631875
 20
8.8128036395
 30
0.0
 10
11.166216868
 20
8.7910622686
 30
0.0
 10
11.1781220102
 20
8.7698721524
 30
0.0
 10
11.1911417151
 20
8.7492988885
 30
0.0
 10
11.2052356435
 20
8.7294061666
 30
0.0
 10
11.2203601354
 20
8.7102555692
 30
0.0
 10
11.2364683499
 20
8.6919063848
 30
0.0
 10
11.2535104044
 20
8.6744154233
 30
0.0
 10
11.2714335329
 20
8.6578368428
 30
0.0
 10
11.2901822443
 20
8.6422219822
 30
0.0
 10
11.3096984966
 20
8.6276192028
 30
0.0
 10
11.3299218732
 20
8.6140737399
 30
0.0
 10
11.3507897696
 20
8.6016275628
 30
0.0
 10
11.3722375861
 20
8.5903192457
 30
0.0
 10
11.3941989253
 20
8.5801838483
 30
0.0
 10
11.4166057975
 20
8.5712528074
 30
0.0
 10
11.4393888284
 20
8.5635538394
 30
0.0
 10
11.4624774727
 20
8.5571108538
 30
0.0
 10
11.4858002317
 20
8.5519438792
 30
0.0
 10
11.5092848664
 20
8.5480689984
 30
0.0
 10
11.5328586489
 20
8.5454983032
 30
0.0
 10
11.5564484713
 20
8.5442398365
 30
0.0
 10
11.5799815012
 20
8.5442976319
 30
0.0
 10
11.6033838063
 20
8.5456714537
 30
0.0
 10
11.6188808905
 20
8.5474656002
 30
0.0
 10
11.6265811554
 20
8.5485808166
 30
0.0
  0
SPLINE
  5
368
100
AcDbEntity
  8
0
100
AcDbSpline
 62
7
  6
CONTINUOUS
 70
0
 71
3
 72
28
 73
24
 74
0
 42
0.0000001
 43
0.0000001
 44
0.0000000001
 40
0.0
 40
0.0
 40
0.0
 40
0.0
 40
0.0786887548
 40
0.15606343
 40
0.2319168532
 40
0.3060489888
 40
0.3782651367
 40
0.4483782184
 40
0.5162091114
 40
0.5815878465
 40
0.6443546179
 40
0.7043610228
 40
0.7614714633
 40
0.7889030225
 40
0.8155664539
 40
0.841449284
 40
0.8665401549
 40
0.8908290477
 40
0.9143073568
 40
0.9369679815
 40
0.9588056127
 40
0.9798167079
 40
1.0
 40
1.0
 40
1.0
 40
1.0
 10
12.9682969892
 20
9.6947112878
 30
0.0
 10
12.9682969892
 20
9.7039626934
 30
0.0
 10
12.9681658243
 20
9.7223113097
 30
0.0
 10
12.9675661651
 20
9.7495720779
 30
0.0
 10
12.9665668481
 20
9.776285157
 30
0.0
 10
12.9651708539
 20
9.8023731743
 30
0.0
 10
12.963382286
 20
9.8277608008
 30
0.0
 10
12.9612064236
 20
9.8523746468
 30
0.0
 10
12.9586496687
 20
9.8761436383
 30
0.0
 10
12.9557195458
 20
9.898999152
 30
0.0
 10
12.9524246865
 20
9.9208753228
 30
0.0
 10
12.948774754
 20
9.9417089776
 30
0.0
 10
12.9454025919
 20
9.9583680332
 30
0.0
 10
12.9425248807
 20
9.971122229
 30
0.0
 10
12.9403136011
 20
9.9802618993
 30
0.0
 10
12.9380219899
 20
9.9890977636
 30
0.0
 10
12.9356516698
 20
9.9976234667
 30
0.0
 10
12.9332043691
 20
10.0058328659
 30
0.0
 10
12.9306818678
 20
10.0137200614
 30
0.0
 10
12.9280859695
 20
10.0212793773
 30
0.0
 10
12.925418575
 20
10.0285054222
 30
0.0
 10
12.9226815854
 20
10.0353929339
 30
0.0
 10
12.9207734877
 20
10.0398452415
 30
0.0
 10
12.9198066539
 20
10.0420122865
 30
0.0
  0
SPLINE
  5
369
100
AcDbEntity
  8
0
100
AcDbSpline
 62
7
  6
CONTINUOUS
 70
0
 71
3
 72
21
 73
17
 74
0
 42
0.0000001
 43
0.0000001
 44
0.0000000001
 40
0.0
 40
0.0
 40
0.0
 40
0.0
 40
0.1443735059
 40
0.2847906534
 40
0.3532507692
 40
0.4204062679
 40
0.4861574818
 40
0.5504075043
 40
0.6130629063
 40
0.6740338444
 40
0.7332343625
 40
0.7905829406
 40
0.8460027114
 40
0.8994218397
 40
0.9507742246
 40
1.0
 40
1.0
 40
1.0
 40
1.0
 10
12.9100934321
 20
9.686013977
 30
0.0
 10
12.9100934321
 20
9.6987091679
 30
0.0
 10
12.9098242692
 20
9.7237525509
 30
0.0
 10
12.908782434
 20
9.7548005133
 30
0.0
 10
12.9075228708
 20
9.77904074
 30
0.0
 10
12.9063808772
 20
9.7967111621
 30
0.0
 10
12.9050355999
 20
9.8139959835
 30
0.0
 10
12.903489248
 20
9.830866692
 30
0.0
 10
12.9017444261
 20
9.847295424
 30
0.0
 10
12.8998040424
 20
9.8632550608
 30
0.0
 10
12.8976713199
 20
9.8787192631
 30
0.0
 10
12.8953498339
 20
9.8936625304
 30
0.0
 10
12.8928434652
 20
9.9080602221
 30
0.0
 10
12.8901563724
 20
9.921888651
 30
0.0
 10
12.8872930658
 20
9.9351249483
 30
0.0
 10
12.8852254193
 20
9.9437250353
 30
0.0
 10
12.8841598501
 20
9.947920398
 30
0.0
  0
SPLINE
  5
36A
100
AcDbEntity
  8
0
100
AcDbSpline
 62
7
  6
CONTINUOUS
 70
0
 71
3
 72
39
 73
35
 74
0
 42
0.0000001
 43
0.0000001
 44
0.0000000001
 40
0.0
 40
0.0
 40
0.0
 40
0.0
 40
0.0307080506
 40
0.0615340171
 40
0.0924754716
 40
0.1235289983
 40
0.1546895781
 40
0.1859510391
 40
0.2173059684
 40
0.2487458862
 40
0.2802613148
 40
0.3118419169
 40
0.3434766059
 40
0.3751536831
 40
0.4068609704
 40
0.4385859475
 40
0.4703158982
 40
0.5020380463
 40
0.5337397077
 40
0.565408425
 40
0.5970321151
 40
0.6285992029
 40
0.6600987572
 40
0.6915206204
 40
0.7228555269
 40
0.754095223
 40
0.7852325658
 40
0.8162616242
 40
0.8471777561
 40
0.8779776824
 40
0.9086595394
 40
0.9392229183
 40
0.969668889
 40
1.0
 40
1.0
 40
1.0
 40
1.0
 10
11.0923965614
 20
8.9925985936
 30
0.0
 10
11.0923965614
 20
8.9844291439
 30
0.0
 10
11.0928542371
 20
8.9680552905
 30
0.0
 10
11.0949023141
 20
8.9435269867
 30
0.0
 10
11.098306842
 20
8.9190564623
 30
0.0
 10
11.1030571078
 20
8.8947208546
 30
0.0
 10
11.1091382912
 20
8.8705955238
 30
0.0
 10
11.1165313907
 20
8.8467555524
 30
0.0
 10
11.1252133644
 20
8.8232750155
 30
0.0
 10
11.1351571595
 20
8.8002268973
 30
0.0
 10
11.1463318152
 20
8.7776828224
 30
0.0
 10
11.1587025533
 20
8.7557128503
 30
0.0
 10
11.1722308862
 20
8.7343852518
 30
0.0
 10
11.186874739
 20
8.7137663035
 30
0.0
 10
11.2025885757
 20
8.6939200789
 30
0.0
 10
11.2193235447
 20
8.6749082543
 30
0.0
 10
11.2370276253
 20
8.6567899155
 30
0.0
 10
11.2556457931
 20
8.6396213772
 30
0.0
 10
11.2751201858
 20
8.6234560075
 30
0.0
 10
11.2953902852
 20
8.6083440641
 30
0.0
 10
11.3163931021
 20
8.594332538
 30
0.0
 10
11.3380633716
 20
8.5814650086
 30
0.0
 10
11.3603337544
 20
8.5697815083
 30
0.0
 10
11.3831350442
 20
8.5593183988
 30
0.0
 10
11.4063963819
 20
8.5501082576
 30
0.0
 10
11.430045473
 20
8.5421797772
 30
0.0
 10
11.4540088113
 20
8.5355576752
 30
0.0
 10
11.4782119066
 20
8.5302626167
 30
0.0
 10
11.5025795067
 20
8.526311148
 30
0.0
 10
11.5270358612
 20
8.5237156489
 30
0.0
 10
11.5515048353
 20
8.5224842733
 30
0.0
 10
11.5759105933
 20
8.5226209935
 30
0.0
 10
11.6001761678
 20
8.5241253189
 30
0.0
 10
11.6162416288
 20
8.5260408302
 30
0.0
 10
11.6242234102
 20
8.5272251751
 30
0.0
  0
SPLINE
  5
36B
100
AcDbEntity
  8
0
100
AcDbSpline
 62
7
  6
CONTINUOUS
 70
0
 71
3
 72
54
 73
50
 74
0
 42
0.0000001
 43
0.0000001
 44
0.0000000001
 40
0.0
 40
0.0
 40
0.0
 40
0.0
 40
0.0427960701
 40
0.0861064905
 40
0.1297875467
 40
0.173693336
 40
0.2176773329
 40
0.2615925587
 40
0.3052923648
 40
0.3486310056
 40
0.3914642787
 40
0.4336501497
 40
0.4750493893
 40
0.5155262189
 40
0.5549489717
 40
0.5931907774
 40
0.6301302797
 40
0.6656524041
 40
0.6996491983
 40
0.7160444006
 40
0.732021548
 40
0.7475695729
 40
0.7626781109
 40
0.7773374694
 40
0.7915387287
 40
0.8052737976
 40
0.8185354546
 40
0.8313175056
 40
0.843614774
 40
0.855423366
 40
0.8667406375
 40
0.8775655669
 40
0.8878987486
 40
0.8977428682
 40
0.9071027979
 40
0.9159861752
 40
0.9244036874
 40
0.9323697709
 40
0.9399031581
 40
0.9470277024
 40
0.9537731721
 40
0.9601760789
 40
0.9662804261
 40
0.9721380521
 40
0.9778085319
 40
0.9833581306
 40
0.9888579484
 40
0.9943811754
 40
1.0
 40
1.0
 40
1.0
 40
1.0
 10
13.1111651021
 20
7.8227468536
 30
0.0
 10
13.1111651021
 20
7.8116137171
 30
0.0
 10
13.1109848249
 20
7.7892132633
 30
0.0
 10
13.1101883922
 20
7.7554579607
 30
0.0
 10
13.1088668301
 20
7.7214301732
 30
0.0
 10
13.1070247992
 20
7.6872511504
 30
0.0
 10
13.1046688563
 20
7.6530426401
 30
0.0
 10
13.101807386
 20
7.6189264716
 30
0.0
 10
13.0984505969
 20
7.585024156
 30
0.0
 10
13.0946104727
 20
7.5514564329
 30
0.0
 10
13.0903007353
 20
7.5183428424
 30
0.0
 10
13.0855367944
 20
7.4858012945
 30
0.0
 10
13.0803356946
 20
7.4539476441
 30
0.0
 10
13.0747160555
 20
7.4228952743
 30
0.0
 10
13.0686980076
 20
7.3927546794
 30
0.0
 10
13.0623031189
 20
7.3636330832
 30
0.0
 10
13.0555543318
 20
7.3356339655
 30
0.0
 10
13.048475839
 20
7.3088569558
 30
0.0
 10
13.042250749
 20
7.2873886596
 30
0.0
 10
13.0371143051
 20
7.270904392
 30
0.0
 10
13.0332421137
 20
7.2590543817
 30
0.0
 10
13.0293069435
 20
7.2475784086
 30
0.0
 10
13.0253123047
 20
7.2364866574
 30
0.0
 10
13.021261755
 20
7.2257889853
 30
0.0
 10
13.0171589103
 20
7.2154948866
 30
0.0
 10
13.0130074398
 20
7.2056134891
 30
0.0
 10
13.0088110205
 20
7.1961535523
 30
0.0
 10
13.0045734241
 20
7.1871234372
 30
0.0
 10
13.0002983682
 20
7.1785311338
 30
0.0
 10
12.9959897044
 20
7.170384198
 30
0.0
 10
12.9916511709
 20
7.1626898173
 30
0.0
 10
12.9872866631
 20
7.1554547076
 30
0.0
 10
12.9828999151
 20
7.1486852221
 30
0.0
 10
12.9784948111
 20
7.1423872105
 30
0.0
 10
12.974075043
 20
7.1365661669
 30
0.0
 10
12.9696444034
 20
7.1312270713
 30
0.0
 10
12.9652064775
 20
7.1263745611
 30
0.0
 10
12.9607648606
 20
7.1220128001
 30
0.0
 10
12.9563229449
 20
7.1181456494
 30
0.0
 10
12.9518840365
 20
7.1147766377
 30
0.0
 10
12.947451312
 20
7.1119090923
 30
0.0
 10
12.9430278916
 20
7.1095462779
 30
0.0
 10
12.9386170607
 20
7.107691369
 30
0.0
 10
12.9342224264
 20
7.1063476735
 30
0.0
 10
12.9298483193
 20
7.1055181349
 30
0.0
 10
12.9254999423
 20
7.1052053512
 30
0.0
 10
12.9211830832
 20
7.1054105959
 30
0.0
 10
12.9169046876
 20
7.1061336815
 30
0.0
 10
12.9141156801
 20
7.1069499164
 30
0.0
 10
12.912737572
 20
7.1074371469
 30
0.0
  0
SPLINE
  5
36C
100
AcDbEntity
  8
0
100
AcDbSpline
 62
7
  6
CONTINUOUS
 70
0
 71
3
 72
27
 73
23
 74
0
 42
0.0000001
 43
0.0000001
 44
0.0000000001
 40
0.0
 40
0.0
 40
0.0
 40
0.0
 40
0.0307111104
 40
0.0615157722
 40
0.0924115594
 40
0.1233953087
 40
0.1855956953
 40
0.2480934873
 40
0.3108408578
 40
0.3737823438
 40
0.436856599
 40
0.4999982802
 40
0.5631400307
 40
0.6262144858
 40
0.6891563001
 40
0.7519041172
 40
0.8144024547
 40
0.8766034844
 40
0.907587552
 40
0.9384837775
 40
0.9692886998
 40
1.0
 40
1.0
 40
1.0
 40
1.0
 10
11.6030444172
 20
8.7125256127
 30
0.0
 10
11.5979842528
 20
8.7130770707
 30
0.0
 10
11.5878719748
 20
8.7144106149
 30
0.0
 10
11.5727871211
 20
8.717091702
 30
0.0
 10
11.5577918717
 20
8.7204514376
 30
0.0
 10
11.5379373596
 20
8.7258323619
 30
0.0
 10
11.5134987129
 20
8.7342236333
 30
0.0
 10
11.4850695695
 20
8.7468466628
 30
0.0
 10
11.4577263753
 20
8.7619334962
 30
0.0
 10
11.4316965102
 20
8.7793588367
 30
0.0
 10
11.407194403
 20
8.7989785149
 30
0.0
 10
11.3844224931
 20
8.8206303307
 30
0.0
 10
11.3635688252
 20
8.8441353834
 30
0.0
 10
11.3448056685
 20
8.86929955
 30
0.0
 10
11.3282882544
 20
8.8959149854
 30
0.0
 10
11.3141530991
 20
8.9237623168
 30
0.0
 10
11.3025178124
 20
8.952610089
 30
0.0
 10
11.2949740305
 20
8.9773237498
 30
0.0
 10
11.2902808235
 20
8.9973522145
 30
0.0
 10
11.2874400724
 20
9.0124545521
 30
0.0
 10
11.2852805683
 20
9.0276230093
 30
0.0
 10
11.2842964452
 20
9.0377753259
 30
0.0
 10
11.2839197495
 20
9.0428515243
 30
0.0
  0
SPLINE
  5
36D
100
AcDbEntity
  8
0
100
AcDbSpline
 62
7
  6
CONTINUOUS
 70
0
 71
3
 72
33
 73
29
 74
0
 42
0.0000001
 43
0.0000001
 44
0.0000000001
 40
0.0
 40
0.0
 40
0.0
 40
0.0
 40
0.0958348039
 40
0.1891069742
 40
0.2792500435
 40
0.36572131
 40
0.4480125246
 40
0.5256540669
 40
0.5625988158
 40
0.598226802
 40
0.632494146
 40
0.6653609288
 40
0.6967920316
 40
0.726757616
 40
0.7552336203
 40
0.7822031337
 40
0.8076567456
 40
0.8315949344
 40
0.8540288219
 40
0.8749836671
 40
0.8945009457
 40
0.9126431418
 40
0.9294980666
 40
0.945184889
 40
0.9598599849
 40
0.9737213022
 40
0.9870092614
 40
1.0
 40
1.0
 40
1.0
 40
1.0
 10
12.238921173
 20
9.9495763248
 30
0.0
 10
12.2434010922
 20
9.9492656413
 30
0.0
 10
12.2522346768
 20
9.9485540517
 30
0.0
 10
12.2652504744
 20
9.9471957224
 30
0.0
 10
12.2777932052
 20
9.9455679315
 30
0.0
 10
12.2897792701
 20
9.9436817444
 30
0.0
 10
12.3011287072
 20
9.9415499859
 30
0.0
 10
12.3101367331
 20
9.9395493544
 30
0.0
 10
12.3169622805
 20
9.9378281708
 30
0.0
 10
12.3217914506
 20
9.93650659
 30
0.0
 10
12.3264077398
 20
9.9351351979
 30
0.0
 10
12.3308034793
 20
9.9337162494
 30
0.0
 10
12.3349713739
 20
9.9322521384
 30
0.0
 10
12.3389045286
 20
9.9307453265
 30
0.0
 10
12.342596449
 20
9.9291982975
 30
0.0
 10
12.3460410863
 20
9.9276136671
 30
0.0
 10
12.3492328003
 20
9.9259939773
 30
0.0
 10
12.35216645
 20
9.92434193
 30
0.0
 10
12.3548373004
 20
9.9226600672
 30
0.0
 10
12.3572411494
 20
9.9209510449
 30
0.0
 10
12.3593741754
 20
9.9192172878
 30
0.0
 10
12.3612330229
 20
9.9174611853
 30
0.0
 10
12.3628145898
 20
9.9156848591
 30
0.0
 10
12.3641158987
 20
9.9138902466
 30
0.0
 10
12.3651338724
 20
9.9120793174
 30
0.0
 10
12.3658650013
 20
9.9102541258
 30
0.0
 10
12.3663057668
 20
9.9084185923
 30
0.0
 10
12.3664043199
 20
9.9071850848
 30
0.0
 10
12.3664043199
 20
9.9065763577
 30
0.0
  0
SPLINE
  5
36E
100
AcDbEntity
  8
0
100
AcDbSpline
 62
7
  6
CONTINUOUS
 70
0
 71
3
 72
23
 73
19
 74
0
 42
0.0000001
 43
0.0000001
 44
0.0000000001
 40
0.0
 40
0.0
 40
0.0
 40
0.0
 40
0.0617101465
 40
0.1234413984
 40
0.1852146462
 40
0.2470503535
 40
0.3089683476
 40
0.3709876198
 40
0.4331261355
 40
0.4954006635
 40
0.5578266123
 40
0.620417904
 40
0.6831868136
 40
0.7461438604
 40
0.8092980134
 40
0.8726552092
 40
0.9362227185
 40
1.0
 40
1.0
 40
1.0
 40
1.0
 10
10.8504270061
 20
8.9562427503
 30
0.0
 10
10.8453964658
 20
8.9513836145
 30
0.0
 10
10.835581901
 20
8.9414028437
 30
0.0
 10
10.8216468631
 20
8.9256916167
 30
0.0
 10
10.8085279512
 20
8.9092738437
 30
0.0
 10
10.7962559389
 20
8.8921879061
 30
0.0
 10
10.7848589746
 20
8.8744730859
 30
0.0
 10
10.7743633731
 20
8.8561702808
 30
0.0
 10
10.7647933014
 20
8.8373217076
 30
0.0
 10
10.7561707852
 20
8.8179708569
 30
0.0
 10
10.7485156635
 20
8.7981623623
 30
0.0
 10
10.7418455487
 20
8.777941905
 30
0.0
 10
10.736175789
 20
8.7573561151
 30
0.0
 10
10.7315193941
 20
8.7364524237
 30
0.0
 10
10.7278871029
 20
8.7152791399
 30
0.0
 10
10.7252870766
 20
8.693884721
 30
0.0
 10
10.7237254905
 20
8.6723193305
 30
0.0
 10
10.723379517
 20
8.6578838713
 30
0.0
 10
10.723379517
 20
8.650655479
 30
0.0
  0
SPLINE
  5
36F
100
AcDbEntity
  8
0
100
AcDbSpline
 62
7
  6
CONTINUOUS
 70
0
 71
3
 72
23
 73
19
 74
0
 42
0.0000001
 43
0.0000001
 44
0.0000000001
 40
0.0
 40
0.0
 40
0.0
 40
0.0
 40
0.0616766115
 40
0.1233923867
 40
0.1851651512
 40
0.2470122229
 40
0.3089502651
 40
0.3709951414
 40
0.4331617789
 40
0.4954640402
 40
0.557914607
 40
0.6205249071
 40
0.6833049635
 40
0.7462634007
 40
0.809407508
 40
0.8727419694
 40
0.9362732619
 40
1.0
 40
1.0
 40
1.0
 40
1.0
 10
10.7926393396
 20
8.9662189919
 30
0.0
 10
10.7877432188
 20
8.960940801
 30
0.0
 10
10.7781998259
 20
8.9501440905
 30
0.0
 10
10.7646733196
 20
8.9332758317
 30
0.0
 10
10.7519577753
 20
8.915762935
 30
0.0
 10
10.7400791588
 20
8.8976410832
 30
0.0
 10
10.7290611861
 20
8.8789465699
 30
0.0
 10
10.7189260017
 20
8.8597169932
 30
0.0
 10
10.7096939451
 20
8.8399909738
 30
0.0
 10
10.7013835458
 20
8.8198081437
 30
0.0
 10
10.6940114398
 20
8.7992090586
 30
0.0
 10
10.6875923988
 20
8.7782350975
 30
0.0
 10
10.6821392774
 20
8.7569283891
 30
0.0
 10
10.6776629987
 20
8.7353316883
 30
0.0
 10
10.6741725644
 20
8.7134884806
 30
0.0
 10
10.6716747791
 20
8.6914422779
 30
0.0
 10
10.6701748495
 20
8.6692381547
 30
0.0
 10
10.6698424768
 20
8.6543813692
 30
0.0
 10
10.6698424768
 20
8.6469426661
 30
0.0
  0
SPLINE
  5
370
100
AcDbEntity
  8
0
100
AcDbSpline
 62
7
  6
CONTINUOUS
 70
0
 71
3
 72
23
 73
19
 74
0
 42
0.0000001
 43
0.0000001
 44
0.0000000001
 40
0.0
 40
0.0
 40
0.0
 40
0.0
 40
0.0617101436
 40
0.1234413945
 40
0.1852146442
 40
0.2470503545
 40
0.3089683499
 40
0.3709876203
 40
0.4331261332
 40
0.4954006601
 40
0.5578266118
 40
0.6204179016
 40
0.6831868196
 40
0.7461438598
 40
0.8092979876
 40
0.872655304
 40
0.9362225276
 40
1.0
 40
1.0
 40
1.0
 40
1.0
 10
10.7742378599
 20
8.949385422
 30
0.0
 10
10.7686919116
 20
8.9440284517
 30
0.0
 10
10.7578718069
 20
8.9330250974
 30
0.0
 10
10.7425090424
 20
8.9157041985
 30
0.0
 10
10.7280460287
 20
8.8976043539
 30
0.0
 10
10.7145166963
 20
8.8787678781
 30
0.0
 10
10.7019520768
 20
8.859238081
 30
0.0
 10
10.6903811575
 20
8.8390600664
 30
0.0
 10
10.6798305778
 20
8.8182803753
 30
0.0
 10
10.6703246343
 20
8.7969469446
 30
0.0
 10
10.6618852066
 20
8.7751089789
 30
0.0
 10
10.654531714
 20
8.7528168382
 30
0.0
 10
10.6482810742
 20
8.7301219351
 30
0.0
 10
10.6431476065
 20
8.7070765675
 30
0.0
 10
10.6391431573
 20
8.6837339731
 30
0.0
 10
10.63627676
 20
8.660147619
 30
0.0
 10
10.6345551667
 20
8.636372752
 30
0.0
 10
10.6341737564
 20
8.6204583244
 30
0.0
 10
10.6341737564
 20
8.6124893258
 30
0.0
  0
SPLINE
  5
371
100
AcDbEntity
  8
0
100
AcDbSpline
 62
7
  6
CONTINUOUS
 70
0
 71
3
 72
23
 73
19
 74
0
 42
0.0000001
 43
0.0000001
 44
0.0000000001
 40
0.0
 40
0.0
 40
0.0
 40
0.0
 40
0.0616937245
 40
0.1234167449
 40
0.1851886145
 40
0.2470284172
 40
0.3089545848
 40
0.3709847224
 40
0.4331354437
 40
0.4954222246
 40
0.5578592589
 40
0.6204593496
 40
0.6832337752
 40
0.7461921795
 40
0.8093427947
 40
0.8726910654
 40
0.9362436028
 40
1.0
 40
1.0
 40
1.0
 40
1.0
 10
10.7452748915
 20
8.9538981258
 30
0.0
 10
10.7397737087
 20
8.9483261373
 30
0.0
 10
10.7290453855
 20
8.9369024169
 30
0.0
 10
10.7138246526
 20
8.9189804432
 30
0.0
 10
10.6995046743
 20
8.9003067795
 30
0.0
 10
10.686117124
 20
8.880922611
 30
0.0
 10
10.6736909655
 20
8.8608699633
 30
0.0
 10
10.6622532564
 20
8.8401925008
 30
0.0
 10
10.6518288244
 20
8.818935209
 30
0.0
 10
10.6424403024
 20
8.7971443416
 30
0.0
 10
10.6341080659
 20
8.7748673006
 30
0.0
 10
10.6268501959
 20
8.752152537
 30
0.0
 10
10.6206824471
 20
8.7290494548
 30
0.0
 10
10.6156181601
 20
8.7056082603
 30
0.0
 10
10.6116683542
 20
8.6818800431
 30
0.0
 10
10.6088414082
 20
8.6579160296
 30
0.0
 10
10.6071436455
 20
8.6337692044
 30
0.0
 10
10.6067674808
 20
8.6176087608
 30
0.0
 10
10.6067674808
 20
8.6095168949
 30
0.0
  0
SPLINE
  5
372
100
AcDbEntity
  8
0
100
AcDbSpline
 62
7
  6
CONTINUOUS
 70
0
 71
3
 72
33
 73
29
 74
0
 42
0.0000001
 43
0.0000001
 44
0.0000000001
 40
0.0
 40
0.0
 40
0.0
 40
0.0
 40
0.0958348039
 40
0.1891069742
 40
0.2792500435
 40
0.36572131
 40
0.4480125246
 40
0.5256540669
 40
0.5625988158
 40
0.598226802
 40
0.632494146
 40
0.6653609288
 40
0.6967920316
 40
0.726757616
 40
0.7552336203
 40
0.7822031337
 40
0.8076567456
 40
0.8315949344
 40
0.8540288219
 40
0.8749836671
 40
0.8945009457
 40
0.9126431418
 40
0.9294980666
 40
0.945184889
 40
0.9598599849
 40
0.9737213022
 40
0.9870092614
 40
1.0
 40
1.0
 40
1.0
 40
1.0
 10
9.4618842578
 20
10.1421644889
 30
0.0
 10
9.4663641771
 20
10.1418538055
 30
0.0
 10
9.4751977617
 20
10.1411422159
 30
0.0
 10
9.4882135593
 20
10.1397838866
 30
0.0
 10
9.5007562901
 20
10.1381560957
 30
0.0
 10
9.512742355
 20
10.1362699086
 30
0.0
 10
9.5240917921
 20
10.1341381501
 30
0.0
 10
9.5330998179
 20
10.1321375185
 30
0.0
 10
9.5399253653
 20
10.130416335
 30
0.0
 10
9.5447545355
 20
10.1290947542
 30
0.0
 10
9.5493708247
 20
10.1277233621
 30
0.0
 10
9.5537665642
 20
10.1263044136
 30
0.0
 10
9.5579344587
 20
10.1248403026
 30
0.0
 10
9.5618676134
 20
10.1233334907
 30
0.0
 10
9.5655595339
 20
10.1217864617
 30
0.0
 10
9.5690041712
 20
10.1202018312
 30
0.0
 10
9.5721958852
 20
10.1185821415
 30
0.0
 10
9.5751295349
 20
10.1169300942
 30
0.0
 10
9.5778003852
 20
10.1152482314
 30
0.0
 10
9.5802042343
 20
10.1135392091
 30
0.0
 10
9.5823372603
 20
10.111805452
 30
0.0
 10
9.5841961078
 20
10.1100493494
 30
0.0
 10
9.5857776747
 20
10.1082730233
 30
0.0
 10
9.5870789835
 20
10.1064784107
 30
0.0
 10
9.5880969573
 20
10.1046674816
 30
0.0
 10
9.5888280862
 20
10.10284229
 30
0.0
 10
9.5892688517
 20
10.1010067564
 30
0.0
 10
9.5893674048
 20
10.099773249
 30
0.0
 10
9.5893674048
 20
10.0991645219
 30
0.0
  0
SPLINE
  5
373
100
AcDbEntity
  8
0
100
AcDbSpline
 62
7
  6
CONTINUOUS
 70
0
 71
3
 72
37
 73
33
 74
0
 42
0.0000001
 43
0.0000001
 44
0.0000000001
 40
0.0
 40
0.0
 40
0.0
 40
0.0
 40
0.0306209688
 40
0.0613471457
 40
0.0921768931
 40
0.1231075615
 40
0.1541355244
 40
0.1852562254
 40
0.2164642286
 40
0.2477532774
 40
0.2791163574
 40
0.3105457672
 40
0.3420331943
 40
0.3735697966
 40
0.4051462848
 40
0.4367530071
 40
0.5000000814
 40
0.5632471446
 40
0.5948538556
 40
0.6264303301
 40
0.6579669148
 40
0.6894543185
 40
0.7208836994
 40
0.752246748
 40
0.7835357634
 40
0.8147437326
 40
0.8458643994
 40
0.8768922984
 40
0.9078229995
 40
0.9386524956
 40
0.969378975
 40
1.0
 40
1.0
 40
1.0
 40
1.0
 10
11.6262902032
 20
8.6173269996
 30
0.0
 10
11.6192304078
 20
8.6175972268
 30
0.0
 10
11.6050976144
 20
8.6184924531
 30
0.0
 10
11.5839573571
 20
8.6208880851
 30
0.0
 10
11.5628896553
 20
8.6243328994
 30
0.0
 10
11.5419477288
 20
8.6288182414
 30
0.0
 10
11.5211835879
 20
8.6343328766
 30
0.0
 10
11.5006490332
 20
8.6408630089
 30
0.0
 10
11.4803952245
 20
8.6483923222
 30
0.0
 10
11.460472638
 20
8.6569020175
 30
0.0
 10
11.4409309187
 20
8.6663708669
 30
0.0
 10
11.4218187691
 20
8.6767752379
 30
0.0
 10
11.4031837755
 20
8.6880891941
 30
0.0
 10
11.3850724736
 20
8.7002844115
 30
0.0
 10
11.3675295868
 20
8.7133308796
 30
0.0
 10
11.3449542732
 20
8.7318182707
 30
0.0
 10
11.3183763939
 20
8.7568849453
 30
0.0
 10
11.2942463829
 20
8.7843160246
 30
0.0
 10
11.2765528825
 20
8.8075187822
 30
0.0
 10
11.2641225441
 20
8.8255034832
 30
0.0
 10
11.2525626719
 20
8.8440267497
 30
0.0
 10
11.241901701
 20
8.8630428373
 30
0.0
 10
11.232166314
 20
8.8825042502
 30
0.0
 10
11.2233807677
 20
8.9023625263
 30
0.0
 10
11.2155669942
 20
8.922568177
 30
0.0
 10
11.2087445045
 20
8.9430708589
 30
0.0
 10
11.2029303577
 20
8.9638194721
 30
0.0
 10
11.1981390453
 20
8.9847623335
 30
0.0
 10
11.1943826177
 20
9.0058471388
 30
0.0
 10
11.1916703534
 20
9.0270216338
 30
0.0
 10
11.190009231
 20
9.0482322751
 30
0.0
 10
11.1896046075
 20
9.062387694
 30
0.0
 10
11.1895793386
 20
9.0694526271
 30
0.0
  0
SPLINE
  5
374
100
AcDbEntity
  8
0
100
AcDbSpline
 62
7
  6
CONTINUOUS
 70
0
 71
3
 72
40
 73
36
 74
0
 42
0.0000001
 43
0.0000001
 44
0.0000000001
 40
0.0
 40
0.0
 40
0.0
 40
0.0
 40
0.0303421722
 40
0.0455576284
 40
0.0608021289
 40
0.0913761882
 40
0.1220682359
 40
0.152877691
 40
0.1838025398
 40
0.2148393761
 40
0.2459834567
 40
0.2772287715
 40
0.3085681262
 40
0.3399932364
 40
0.371494832
 40
0.4030627701
 40
0.4346861561
 40
0.4663534703
 40
0.4980527002
 40
0.5297714763
 40
0.5614972111
 40
0.5932172396
 40
0.6249189604
 40
0.6565899764
 40
0.6882182338
 40
0.7197921581
 40
0.7513007871
 40
0.7827338986
 40
0.814082129
 40
0.8453370974
 40
0.8764914792
 40
0.9075391954
 40
0.9384752351
 40
0.969296367
 40
1.0
 40
1.0
 40
1.0
 40
1.0
 10
11.6216842673
 20
8.5107562243
 30
0.0
 10
11.6134692054
 20
8.5096023273
 30
0.0
 10
11.6010815322
 20
8.5082208777
 30
0.0
 10
11.5844956507
 20
8.5070787478
 30
0.0
 10
11.567820434
 20
8.5064006102
 30
0.0
 10
11.5468902813
 20
8.5064302397
 30
0.0
 10
11.5217446978
 20
8.5078653444
 30
0.0
 10
11.4966209571
 20
8.5106954481
 30
0.0
 10
11.4715970116
 20
8.5149117453
 30
0.0
 10
11.4467498832
 20
8.5205011419
 30
0.0
 10
11.4221562011
 20
8.5274463235
 30
0.0
 10
11.3978917588
 20
8.5357258031
 30
0.0
 10
11.3740313388
 20
8.5453139903
 30
0.0
 10
11.3506484687
 20
8.5561812703
 30
0.0
 10
11.3278152007
 20
8.5682940954
 30
0.0
 10
11.3056018899
 20
8.5816150888
 30
0.0
 10
11.2840769797
 20
8.5961031595
 30
0.0
 10
11.263306792
 20
8.6117136288
 30
0.0
 10
11.2433553249
 20
8.6283983672
 30
0.0
 10
11.2242840562
 20
8.6461059423
 30
0.0
 10
11.2061517545
 20
8.6647817754
 30
0.0
 10
11.1890142998
 20
8.6843683102
 30
0.0
 10
11.1729245122
 20
8.7048051889
 30
0.0
 10
11.1579319903
 20
8.7260294373
 30
0.0
 10
11.1440829587
 20
8.7479756575
 30
0.0
 10
11.1314201267
 20
8.7705762281
 30
0.0
 10
11.1199825563
 20
8.7937615115
 30
0.0
 10
11.109805544
 20
8.817460066
 30
0.0
 10
11.1009205069
 20
8.841598867
 30
0.0
 10
11.0933548999
 20
8.8661035197
 30
0.0
 10
11.0871320952
 20
8.890898529
 30
0.0
 10
11.0822713889
 20
8.9159073733
 30
0.0
 10
11.0787877859
 20
8.9410532859
 30
0.0
 10
11.0766922022
 20
8.9662576477
 30
0.0
 10
11.0762239138
 20
8.9830824845
 30
0.0
 10
11.0762239138
 20
8.9914770147
 30
0.0
  0
SPLINE
  5
375
100
AcDbEntity
  8
0
100
AcDbSpline
 62
7
  6
CONTINUOUS
 70
0
 71
3
 72
39
 73
35
 74
0
 42
0.0000001
 43
0.0000001
 44
0.0000000001
 40
0.0
 40
0.0
 40
0.0
 40
0.0
 40
0.0299424711
 40
0.0599093186
 40
0.0899243248
 40
0.1200101037
 40
0.1501875627
 40
0.180475415
 40
0.2108897594
 40
0.2414437357
 40
0.2721472604
 40
0.3030068436
 40
0.3340254954
 40
0.3652027141
 40
0.3965345493
 40
0.4280137349
 40
0.4596298917
 40
0.4913697854
 40
0.5232176332
 40
0.5551554502
 40
0.5871634342
 40
0.6192203768
 40
0.6513040925
 40
0.6833918636
 40
0.7154608917
 40
0.7474887511
 40
0.7794538353
 40
0.8113357951
 40
0.8431159563
 40
0.8747777105
 40
0.9063068747
 40
0.9376920817
 40
0.9689246483
 40
1.0
 40
1.0
 40
1.0
 40
1.0
 10
11.5014045809
 20
8.282301213
 30
0.0
 10
11.493632327
 20
8.2747937815
 30
0.0
 10
11.4774766466
 20
8.2603848221
 30
0.0
 10
11.4515927457
 20
8.240755154
 30
0.0
 10
11.4241907588
 20
8.2232074987
 30
0.0
 10
11.3954237934
 20
8.2078402937
 30
0.0
 10
11.3654499913
 20
8.1947375286
 30
0.0
 10
11.3344347888
 20
8.1839712056
 30
0.0
 10
11.3025491021
 20
8.1756002155
 30
0.0
 10
11.2699685936
 20
8.1696702671
 30
0.0
 10
11.2368726409
 20
8.1662136075
 30
0.0
 10
11.2034433709
 20
8.1652487926
 30
0.0
 10
11.169864635
 20
8.1667806806
 30
0.0
 10
11.1363210107
 20
8.170800441
 30
0.0
 10
11.1029968059
 20
8.1772856238
 30
0.0
 10
11.0700750411
 20
8.1862002095
 30
0.0
 10
11.0377364637
 20
8.1974948959
 30
0.0
 10
11.0061585776
 20
8.2111073853
 30
0.0
 10
10.9755146921
 20
8.2269627296
 30
0.0
 10
10.9459729432
 20
8.2449736651
 30
0.0
 10
10.9176954119
 20
8.2650411641
 30
0.0
 10
10.8908372549
 20
8.2870549799
 30
0.0
 10
10.8655458721
 20
8.3108942436
 30
0.0
 10
10.8419600451
 20
8.3364280589
 30
0.0
 10
10.8202092334
 20
8.3635162768
 30
0.0
 10
10.800412879
 20
8.3920102565
 30
0.0
 10
10.7826797631
 20
8.4217536654
 30
0.0
 10
10.7671073366
 20
8.4525832884
 30
0.0
 10
10.7537812546
 20
8.4843299402
 30
0.0
 10
10.7427749183
 20
8.516819453
 30
0.0
 10
10.734149048
 20
8.5498733434
 30
0.0
 10
10.7279513654
 20
8.5833107172
 30
0.0
 10
10.7242161212
 20
8.6169455941
 30
0.0
 10
10.723379517
 20
8.6394406399
 30
0.0
 10
10.723379517
 20
8.650655479
 30
0.0
  0
SPLINE
  5
376
100
AcDbEntity
  8
0
100
AcDbSpline
 62
7
  6
CONTINUOUS
 70
0
 71
3
 72
41
 73
37
 74
0
 42
0.0000001
 43
0.0000001
 44
0.0000000001
 40
0.0
 40
0.0
 40
0.0
 40
0.0
 40
0.0149634506
 40
0.0299339677
 40
0.0449144042
 40
0.0599075575
 40
0.0899372235
 40
0.1200492116
 40
0.1502622547
 40
0.1805927873
 40
0.2110546007
 40
0.2416585661
 40
0.2724124378
 40
0.3033207313
 40
0.3343846737
 40
0.3656022241
 40
0.3969681674
 40
0.4284742657
 40
0.4601094623
 40
0.491860136
 40
0.5237104002
 40
0.5556424325
 40
0.587636833
 40
0.6196730071
 40
0.6517295646
 40
0.6837847274
 40
0.7158167438
 40
0.7478043027
 40
0.7797269401
 40
0.8115654369
 40
0.8433021989
 40
0.8749216099
 40
0.9064103582
 40
0.93775778
 40
0.9689557564
 40
1.0
 40
1.0
 40
1.0
 40
1.0
 10
11.5091533979
 20
8.2240133339
 30
0.0
 10
11.5047425612
 20
8.2202024283
 30
0.0
 10
11.4957696518
 20
8.2127494902
 30
0.0
 10
11.4818829986
 20
8.2020987011
 30
0.0
 10
11.4675838244
 20
8.1919875339
 30
0.0
 10
11.4479863422
 20
8.179238578
 30
0.0
 10
11.4225398109
 20
8.1647119888
 30
0.0
 10
11.3906897643
 20
8.1496499461
 30
0.0
 10
11.3576716537
 20
8.1370238109
 30
0.0
 10
11.3236607689
 20
8.1269006075
 30
0.0
 10
11.2888360964
 20
8.1193331198
 30
0.0
 10
11.2533812316
 20
8.1143608226
 30
0.0
 10
11.217482875
 20
8.1120094379
 30
0.0
 10
11.1813299888
 20
8.1122909374
 30
0.0
 10
11.1451127791
 20
8.1152034435
 30
0.0
 10
11.1090217004
 20
8.1207311953
 30
0.0
 10
11.0732464635
 20
8.1288447494
 30
0.0
 10
11.0379750651
 20
8.1395011475
 30
0.0
 10
11.0033927969
 20
8.1526440802
 30
0.0
 10
10.9696812756
 20
8.1682041949
 30
0.0
 10
10.9370175271
 20
8.1860995292
 30
0.0
 10
10.9055730791
 20
8.206235934
 30
0.0
 10
10.8755130198
 20
8.2285074814
 30
0.0
 10
10.8469951706
 20
8.2527970838
 30
0.0
 10
10.8201692902
 20
8.2789771245
 30
0.0
 10
10.7951762903
 20
8.3069101016
 30
0.0
 10
10.7721474363
 20
8.3364492877
 30
0.0
 10
10.7512037346
 20
8.3674395664
 30
0.0
 10
10.7324553148
 20
8.399718231
 30
0.0
 10
10.716000809
 20
8.4331158009
 30
0.0
 10
10.701926808
 20
8.4674568758
 30
0.0
 10
10.6903074843
 20
8.5025611634
 30
0.0
 10
10.6812041852
 20
8.5382441199
 30
0.0
 10
10.6746651069
 20
8.5743188768
 30
0.0
 10
10.6707248199
 20
8.6105934258
 30
0.0
 10
10.6698424768
 20
8.6348491853
 30
0.0
 10
10.6698424768
 20
8.6469426661
 30
0.0
  0
SPLINE
  5
377
100
AcDbEntity
  8
0
100
AcDbSpline
 62
7
  6
CONTINUOUS
 70
0
 71
3
 72
44
 73
40
 74
0
 42
0.0000001
 43
0.0000001
 44
0.0000000001
 40
0.0
 40
0.0
 40
0.0
 40
0.0
 40
0.0149722234
 40
0.0299475064
 40
0.0449288883
 40
0.0599193732
 40
0.0749219094
 40
0.0899393698
 40
0.1049745397
 40
0.1200300962
 40
0.1351085921
 40
0.1502124456
 40
0.1804994109
 40
0.2109128653
 40
0.2414659471
 40
0.2721685722
 40
0.303027252
 40
0.3340449956
 40
0.3652213014
 40
0.3965522194
 40
0.4280304831
 40
0.4596457138
 40
0.4913846787
 40
0.5232315941
 40
0.5551684754
 40
0.5871755222
 40
0.6192315264
 40
0.6513143028
 40
0.6834011342
 40
0.7154692231
 40
0.7474961446
 40
0.7794602934
 40
0.8113413197
 40
0.8431205497
 40
0.8747813764
 40
0.9063096221
 40
0.9376938967
 40
0.9689255651
 40
1.0
 40
1.0
 40
1.0
 40
1.0
 10
11.4919110905
 20
8.206395465
 30
0.0
 10
11.487626399
 20
8.2022567742
 30
0.0
 10
11.478890611
 20
8.1941479602
 30
0.0
 10
11.465312458
 20
8.1825138023
 30
0.0
 10
11.4512771202
 20
8.1714232998
 30
0.0
 10
11.4368041981
 20
8.1608919441
 30
0.0
 10
11.4219134896
 20
8.150934223
 30
0.0
 10
11.4066255541
 20
8.1415638014
 30
0.0
 10
11.3909614053
 20
8.1327935457
 30
0.0
 10
11.3749426577
 20
8.124635612
 30
0.0
 10
11.3585910579
 20
8.1171010484
 30
0.0
 10
11.3363580874
 20
8.1078926862
 30
0.0
 10
11.307833823
 20
8.0979907736
 30
0.0
 10
11.2726821304
 20
8.0887625312
 30
0.0
 10
11.2367633725
 20
8.0822249309
 30
0.0
 10
11.2002766481
 20
8.0784141332
 30
0.0
 10
11.1634223773
 20
8.077350468
 30
0.0
 10
11.1264033484
 20
8.0790393063
 30
0.0
 10
11.0894230226
 20
8.0834709105
 30
0.0
 10
11.0526845999
 20
8.0906205367
 30
0.0
 10
11.0163898456
 20
8.1004484546
 30
0.0
 10
10.9807380263
 20
8.1129003231
 30
0.0
 10
10.945924849
 20
8.1279074994
 30
0.0
 10
10.9121413552
 20
8.1453872956
 30
0.0
 10
10.879572904
 20
8.1652435136
 30
0.0
 10
10.8483982093
 20
8.1873670245
 30
0.0
 10
10.818788331
 20
8.2116362838
 30
0.0
 10
10.7909057158
 20
8.2379179759
 30
0.0
 10
10.7649033917
 20
8.2660678321
 30
0.0
 10
10.740924128
 20
8.2959313805
 30
0.0
 10
10.7190995614
 20
8.3273447106
 30
0.0
 10
10.6995495773
 20
8.360135453
 30
0.0
 10
10.6823816817
 20
8.3941237144
 30
0.0
 10
10.6676903006
 20
8.429122966
 30
0.0
 10
10.6555563138
 20
8.464941181
 30
0.0
 10
10.6460466674
 20
8.5013815884
 30
0.0
 10
10.6392140057
 20
8.5382447804
 30
0.0
 10
10.6350960783
 20
8.575325706
 30
0.0
 10
10.6341737564
 20
8.6001254771
 30
0.0
 10
10.6341737564
 20
8.6124893258
 30
0.0
  0
SPLINE
  5
378
100
AcDbEntity
  8
0
100
AcDbSpline
 62
7
  6
CONTINUOUS
 70
0
 71
3
 72
39
 73
35
 74
0
 42
0.0000001
 43
0.0000001
 44
0.0000000001
 40
0.0
 40
0.0
 40
0.0
 40
0.0
 40
0.0299352965
 40
0.0599016299
 40
0.0899220623
 40
0.1200183695
 40
0.1502105357
 40
0.1805162983
 40
0.2109507622
 40
0.2415260872
 40
0.2722512506
 40
0.303131891
 40
0.3341702377
 40
0.3653651132
 40
0.3967120054
 40
0.4282032141
 40
0.459828055
 40
0.4915731142
 40
0.5234225501
 40
0.5553584372
 40
0.5873611385
 40
0.6194097018
 40
0.6514822778
 40
0.6835565491
 40
0.7156101653
 40
0.7476211786
 40
0.7795684744
 40
0.8114321892
 40
0.8431941149
 40
0.8748380717
 40
0.906350256
 40
0.9377195916
 40
0.968937666
 40
1.0
 40
1.0
 40
1.0
 40
1.0
 10
11.4954158772
 20
8.1772921176
 30
0.0
 10
11.4863386819
 20
8.1689313143
 30
0.0
 10
11.4675071687
 20
8.1529097073
 30
0.0
 10
11.4374422107
 20
8.131160542
 30
0.0
 10
11.4057069172
 20
8.1117984819
 30
0.0
 10
11.3724753241
 20
8.0949301056
 30
0.0
 10
11.3379266926
 20
8.0806458629
 30
0.0
 10
11.3022481483
 20
8.0690227465
 30
0.0
 10
11.2656326209
 20
8.0601231185
 30
0.0
 10
11.2282780496
 20
8.0539946671
 30
0.0
 10
11.1903862573
 20
8.0506700269
 30
0.0
 10
11.1521618617
 20
8.0501666261
 30
0.0
 10
11.1138111576
 20
8.0524867189
 30
0.0
 10
11.0755410304
 20
8.0576173805
 30
0.0
 10
11.0375578329
 20
8.0655304699
 30
0.0
 10
11.0000662891
 20
8.0761829161
 30
0.0
 10
10.963268426
 20
8.0895169848
 30
0.0
 10
10.9273624795
 20
8.1054605118
 30
0.0
 10
10.8925418238
 20
8.1239272896
 30
0.0
 10
10.8589939846
 20
8.1448176243
 30
0.0
 10
10.8268996482
 20
8.1680188477
 30
0.0
 10
10.7964316274
 20
8.1934058231
 30
0.0
 10
10.7677540011
 20
8.2208417145
 30
0.0
 10
10.7410212671
 20
8.2501787276
 30
0.0
 10
10.7163774593
 20
8.2812588321
 30
0.0
 10
10.6939553638
 20
8.31391461
 30
0.0
 10
10.6738758857
 20
8.3479702043
 30
0.0
 10
10.6562473959
 20
8.3832422383
 30
0.0
 10
10.6411650396
 20
8.419540714
 30
0.0
 10
10.6287103275
 20
8.4566701721
 30
0.0
 10
10.6189507047
 20
8.4944304168
 30
0.0
 10
10.6119391845
 20
8.5326186383
 30
0.0
 10
10.6077137857
 20
8.5710263571
 30
0.0
 10
10.6067674808
 20
8.5967113417
 30
0.0
 10
10.6067674808
 20
8.6095168949
 30
0.0
  0
SPLINE
  5
379
100
AcDbEntity
  8
0
100
AcDbSpline
 62
7
  6
CONTINUOUS
 70
0
 71
3
 72
46
 73
42
 74
0
 42
0.0000001
 43
0.0000001
 44
0.0000000001
 40
0.0
 40
0.0
 40
0.0
 40
0.0
 40
0.0149720525
 40
0.0299471649
 40
0.0449283772
 40
0.0599186917
 40
0.0749210573
 40
0.0899383484
 40
0.1049733476
 40
0.1200287333
 40
0.1351070597
 40
0.1502107421
 40
0.1653420474
 40
0.1805030776
 40
0.1956957572
 40
0.2109218287
 40
0.2414745667
 40
0.2721768461
 40
0.3030351766
 40
0.3340525707
 40
0.3652285255
 40
0.3965590884
 40
0.4280369959
 40
0.4596518697
 40
0.4913904744
 40
0.523237028
 40
0.5551735471
 40
0.5871802301
 40
0.6192358692
 40
0.6513182802
 40
0.6834047461
 40
0.7154724694
 40
0.7474990252
 40
0.7794628091
 40
0.811343472
 40
0.843122339
 40
0.8747828041
 40
0.9063106918
 40
0.9376946023
 40
0.9689259241
 40
1.0
 40
1.0
 40
1.0
 40
1.0
 10
11.4955063674
 20
8.1771955153
 30
0.0
 10
11.4910267296
 20
8.1728685283
 30
0.0
 10
11.4818934337
 20
8.1643908392
 30
0.0
 10
11.4676975094
 20
8.1522273563
 30
0.0
 10
11.4530235607
 20
8.1406323094
 30
0.0
 10
11.4378921134
 20
8.1296218627
 30
0.0
 10
11.4223239152
 20
8.1192110905
 30
0.0
 10
11.4063403776
 20
8.1094143903
 30
0.0
 10
11.3899635319
 20
8.1002451727
 30
0.0
 10
11.3732159141
 20
8.091716051
 30
0.0
 10
11.3561205441
 20
8.0838388095
 30
0.0
 10
11.3387009872
 20
8.0766242122
 30
0.0
 10
11.3209811823
 20
8.0700821807
 30
0.0
 10
11.302985589
 20
8.0642217716
 30
0.0
 10
11.2847386409
 20
8.0590509183
 30
0.0
 10
11.2600831159
 20
8.0530791933
 30
0.0
 10
11.2287490828
 20
8.0473759519
 30
0.0
 10
11.1906031334
 20
8.0433920684
 30
0.0
 10
11.1520718537
 20
8.0422799753
 30
0.0
 10
11.113368611
 20
8.0440457492
 30
0.0
 10
11.0747057642
 20
8.0486790623
 30
0.0
 10
11.0362958399
 20
8.0561539958
 30
0.0
 10
10.9983497744
 20
8.0664291151
 30
0.0
 10
10.9610759128
 20
8.079447593
 30
0.0
 10
10.924678829
 20
8.0951375752
 30
0.0
 10
10.8893582834
 20
8.1134126889
 30
0.0
 10
10.8553080863
 20
8.1341723784
 30
0.0
 10
10.8227150368
 20
8.1573024754
 30
0.0
 10
10.7917579901
 20
8.1826759354
 30
0.0
 10
10.762606825
 20
8.2101534211
 30
0.0
 10
10.735421486
 20
8.2395840473
 30
0.0
 10
10.7103512254
 20
8.2708063116
 30
0.0
 10
10.6875337291
 20
8.3036488928
 30
0.0
 10
10.6670942978
 20
8.3379315466
 30
0.0
 10
10.6491453034
 20
8.3734661865
 30
0.0
 10
10.633785523
 20
8.4100578251
 30
0.0
 10
10.6210994907
 20
8.4475056853
 30
0.0
 10
10.6111571813
 20
8.4856040375
 30
0.0
 10
10.6040136554
 20
8.5241444152
 30
0.0
 10
10.5997083835
 20
8.56291243
 30
0.0
 10
10.5987440971
 20
8.5888405301
 30
0.0
 10
10.5987440971
 20
8.6017669009
 30
0.0
  0
SPLINE
  5
37A
100
AcDbEntity
  8
0
100
AcDbSpline
 62
7
  6
CONTINUOUS
 70
0
 71
3
 72
50
 73
46
 74
0
 42
0.0000001
 43
0.0000001
 44
0.0000000001
 40
0.0
 40
0.0
 40
0.0
 40
0.0
 40
0.0065432072
 40
0.013287297
 40
0.0202680573
 40
0.027518169
 40
0.0350672957
 40
0.0429418117
 40
0.0511650847
 40
0.0597574791
 40
0.068736519
 40
0.0781171547
 40
0.087911704
 40
0.0981302861
 40
0.1087805607
 40
0.1198682461
 40
0.1313967348
 40
0.1433676402
 40
0.1557803402
 40
0.1686325476
 40
0.1819198071
 40
0.1956361196
 40
0.2097733747
 40
0.2243220824
 40
0.2546066725
 40
0.2863814163
 40
0.3195171307
 40
0.3538689786
 40
0.3892822105
 40
0.4255982874
 40
0.4626606816
 40
0.5003199214
 40
0.5384374864
 40
0.5768885008
 40
0.6155631772
 40
0.6543671444
 40
0.6932208264
 40
0.7320583085
 40
0.7708257326
 40
0.8094794899
 40
0.8479843153
 40
0.8863115578
 40
0.9244368929
 40
0.9623398744
 40
1.0
 40
1.0
 40
1.0
 40
1.0
 10
11.2819029394
 20
8.4216840786
 30
0.0
 10
11.2819027725
 20
8.422994525
 30
0.0
 10
11.2818034297
 20
8.4256564869
 30
0.0
 10
11.2813715735
 20
8.4296955119
 30
0.0
 10
11.2806564024
 20
8.4338377414
 30
0.0
 10
11.2796595531
 20
8.438086715
 30
0.0
 10
11.2783833053
 20
8.442446803
 30
0.0
 10
11.2768298325
 20
8.4469225012
 30
0.0
 10
11.2750022212
 20
8.4515187752
 30
0.0
 10
11.2729033835
 20
8.4562405907
 30
0.0
 10
11.2705373043
 20
8.4610933429
 30
0.0
 10
11.2679078949
 20
8.4660822616
 30
0.0
 10
11.2650201752
 20
8.4712129435
 30
0.0
 10
11.2618792927
 20
8.4764907093
 30
0.0
 10
11.2584914778
 20
8.4819211278
 30
0.0
 10
11.2548633002
 20
8.4875094084
 30
0.0
 10
11.2510023785
 20
8.4932608578
 30
0.0
 10
11.2469168462
 20
8.4991803445
 30
0.0
 10
11.2426158545
 20
8.5052726727
 30
0.0
 10
11.2381091891
 20
8.5115421198
 30
0.0
 10
11.2334076172
 20
8.5179927482
 30
0.0
 10
11.2285225931
 20
8.5246279925
 30
0.0
 10
11.2234665119
 20
8.531450954
 30
0.0
 10
11.2164198004
 20
8.5409287626
 30
0.0
 10
11.2072637492
 20
8.5532400034
 30
0.0
 10
11.1959637579
 20
8.5685958139
 30
0.0
 10
11.1843356159
 20
8.5847207101
 30
0.0
 10
11.1725111995
 20
8.6016005602
 30
0.0
 10
11.1606244518
 20
8.6192110799
 30
0.0
 10
11.1488080736
 20
8.6375190723
 30
0.0
 10
11.1371903503
 20
8.6564839574
 30
0.0
 10
11.1258925493
 20
8.6760594788
 30
0.0
 10
11.1150269737
 20
8.6961953693
 30
0.0
 10
11.1046957375
 20
8.7168388315
 30
0.0
 10
11.0949901924
 20
8.7379357268
 30
0.0
 10
11.0859909073
 20
8.7594314118
 30
0.0
 10
11.0777680219
 20
8.7812712449
 30
0.0
 10
11.0703818582
 20
8.8034008095
 30
0.0
 10
11.0638836134
 20
8.8257659203
 30
0.0
 10
11.0583161003
 20
8.8483124602
 30
0.0
 10
11.0537143785
 20
8.8709861667
 30
0.0
 10
11.050106411
 20
8.8937321953
 30
0.0
 10
11.0475133658
 20
8.9164952441
 30
0.0
 10
11.0459502514
 20
8.9392179299
 30
0.0
 10
11.0455994288
 20
8.9543536186
 30
0.0
 10
11.0455994288
 20
8.9618960319
 30
0.0
  0
SPLINE
  5
37B
100
AcDbEntity
  8
0
100
AcDbSpline
 62
7
  6
CONTINUOUS
 70
0
 71
3
 72
27
 73
23
 74
0
 42
0.0000001
 43
0.0000001
 44
0.0000000001
 40
0.0
 40
0.0
 40
0.0
 40
0.0
 40
0.0307111104
 40
0.0615157722
 40
0.0924115594
 40
0.1233953087
 40
0.1855956953
 40
0.2480934873
 40
0.3108408578
 40
0.3737823438
 40
0.436856599
 40
0.4999982802
 40
0.5631400307
 40
0.6262144858
 40
0.6891563001
 40
0.7519041172
 40
0.8144024547
 40
0.8766034844
 40
0.907587552
 40
0.9384837775
 40
0.9692886998
 40
1.0
 40
1.0
 40
1.0
 40
1.0
 10
10.4564904736
 20
7.7063386357
 30
0.0
 10
10.4514303092
 20
7.7068900936
 30
0.0
 10
10.4413180312
 20
7.7082236378
 30
0.0
 10
10.4262331775
 20
7.7109047249
 30
0.0
 10
10.4112379281
 20
7.7142644605
 30
0.0
 10
10.391383416
 20
7.7196453849
 30
0.0
 10
10.3669447693
 20
7.7280366563
 30
0.0
 10
10.3385156259
 20
7.7406596858
 30
0.0
 10
10.3111724317
 20
7.7557465191
 30
0.0
 10
10.2851425666
 20
7.7731718596
 30
0.0
 10
10.2606404594
 20
7.7927915379
 30
0.0
 10
10.2378685495
 20
7.8144433537
 30
0.0
 10
10.2170148816
 20
7.8379484063
 30
0.0
 10
10.1982517249
 20
7.863112573
 30
0.0
 10
10.1817343108
 20
7.8897280084
 30
0.0
 10
10.1675991555
 20
7.9175753398
 30
0.0
 10
10.1559638688
 20
7.946423112
 30
0.0
 10
10.1484200869
 20
7.9711367728
 30
0.0
 10
10.1437268799
 20
7.9911652374
 30
0.0
 10
10.1408861288
 20
8.0062675751
 30
0.0
 10
10.1387266247
 20
8.0214360323
 30
0.0
 10
10.1377425016
 20
8.0315883488
 30
0.0
 10
10.1373658059
 20
8.0366645473
 30
0.0
  0
SPLINE
  5
37C
100
AcDbEntity
  8
0
100
AcDbSpline
 62
7
  6
CONTINUOUS
 70
0
 71
3
 72
23
 73
19
 74
0
 42
0.0000001
 43
0.0000001
 44
0.0000000001
 40
0.0
 40
0.0
 40
0.0
 40
0.0
 40
0.0617101465
 40
0.1234413984
 40
0.1852146462
 40
0.2470503535
 40
0.3089683476
 40
0.3709876198
 40
0.4331261355
 40
0.4954006635
 40
0.5578266123
 40
0.620417904
 40
0.6831868136
 40
0.7461438604
 40
0.8092980134
 40
0.8726552092
 40
0.9362227185
 40
1.0
 40
1.0
 40
1.0
 40
1.0
 10
9.7038730625
 20
7.9500557732
 30
0.0
 10
9.6988425222
 20
7.9451966374
 30
0.0
 10
9.6890279574
 20
7.9352158667
 30
0.0
 10
9.6750929195
 20
7.9195046397
 30
0.0
 10
9.6619740076
 20
7.9030868667
 30
0.0
 10
9.6497019953
 20
7.8860009291
 30
0.0
 10
9.638305031
 20
7.8682861089
 30
0.0
 10
9.6278094295
 20
7.8499833038
 30
0.0
 10
9.6182393578
 20
7.8311347306
 30
0.0
 10
9.6096168416
 20
7.8117838798
 30
0.0
 10
9.6019617199
 20
7.7919753853
 30
0.0
 10
9.5952916051
 20
7.771754928
 30
0.0
 10
9.5896218454
 20
7.7511691381
 30
0.0
 10
9.5849654505
 20
7.7302654467
 30
0.0
 10
9.5813331593
 20
7.7090921628
 30
0.0
 10
9.578733133
 20
7.687697744
 30
0.0
 10
9.5771715469
 20
7.6661323535
 30
0.0
 10
9.5768255734
 20
7.6516968943
 30
0.0
 10
9.5768255734
 20
7.644468502
 30
0.0
  0
SPLINE
  5
37D
100
AcDbEntity
  8
0
100
AcDbSpline
 62
7
  6
CONTINUOUS
 70
0
 71
3
 72
23
 73
19
 74
0
 42
0.0000001
 43
0.0000001
 44
0.0000000001
 40
0.0
 40
0.0
 40
0.0
 40
0.0
 40
0.0616766115
 40
0.1233923867
 40
0.1851651512
 40
0.2470122229
 40
0.3089502651
 40
0.3709951414
 40
0.4331617789
 40
0.4954640402
 40
0.557914607
 40
0.6205249071
 40
0.6833049635
 40
0.7462634007
 40
0.809407508
 40
0.8727419694
 40
0.9362732619
 40
1.0
 40
1.0
 40
1.0
 40
1.0
 10
9.646085396
 20
7.9600320149
 30
0.0
 10
9.6411892752
 20
7.954753824
 30
0.0
 10
9.6316458823
 20
7.9439571134
 30
0.0
 10
9.618119376
 20
7.9270888547
 30
0.0
 10
9.6054038317
 20
7.9095759579
 30
0.0
 10
9.5935252152
 20
7.8914541061
 30
0.0
 10
9.5825072425
 20
7.8727595928
 30
0.0
 10
9.5723720581
 20
7.8535300161
 30
0.0
 10
9.5631400015
 20
7.8338039967
 30
0.0
 10
9.5548296022
 20
7.8136211667
 30
0.0
 10
9.5474574962
 20
7.7930220816
 30
0.0
 10
9.5410384552
 20
7.7720481205
 30
0.0
 10
9.5355853338
 20
7.750741412
 30
0.0
 10
9.5311090551
 20
7.7291447113
 30
0.0
 10
9.5276186208
 20
7.7073015036
 30
0.0
 10
9.5251208355
 20
7.6852553009
 30
0.0
 10
9.5236209059
 20
7.6630511777
 30
0.0
 10
9.5232885332
 20
7.6481943922
 30
0.0
 10
9.5232885332
 20
7.6407556891
 30
0.0
  0
SPLINE
  5
37E
100
AcDbEntity
  8
0
100
AcDbSpline
 62
7
  6
CONTINUOUS
 70
0
 71
3
 72
42
 73
38
 74
0
 42
0.0000001
 43
0.0000001
 44
0.0000000001
 40
0.0
 40
0.0
 40
0.0
 40
0.0
 40
0.0055576443
 40
0.0111781836
 40
0.0169222355
 40
0.022846223
 40
0.0290011442
 40
0.0354316623
 40
0.0421762431
 40
0.049267259
 40
0.0567314277
 40
0.0645907244
 40
0.072862575
 40
0.081560766
 40
0.0906959315
 40
0.100275708
 40
0.1103055927
 40
0.1207888494
 40
0.1431177711
 40
0.1672591076
 40
0.1931868442
 40
0.2208588039
 40
0.2502193991
 40
0.2812018039
 40
0.3137295194
 40
0.3477175618
 40
0.3830734051
 40
0.419697946
 40
0.4574862654
 40
0.4963282772
 40
0.5361092896
 40
0.5767106614
 40
0.6598810502
 40
0.7448351505
 40
0.8305372122
 40
0.9159392559
 40
1.0
 40
1.0
 40
1.0
 40
1.0
 10
12.022404348
 20
9.9065763577
 30
0.0
 10
12.022404348
 20
9.907001852
 30
0.0
 10
12.0224519701
 20
9.9078583974
 30
0.0
 10
12.0226657939
 20
9.9091386419
 30
0.0
 10
12.0230216098
 20
9.910416027
 30
0.0
 10
12.0235187023
 20
9.9116890898
 30
0.0
 10
12.0241563324
 20
9.9129567593
 30
0.0
 10
12.0249335513
 20
9.9142181106
 30
0.0
 10
12.0258495334
 20
9.9154722469
 30
0.0
 10
12.0269033718
 20
9.9167183202
 30
0.0
 10
12.0280940901
 20
9.9179555302
 30
0.0
 10
12.0294207427
 20
9.9191829605
 30
0.0
 10
12.0308822091
 20
9.9203997788
 30
0.0
 10
12.032477332
 20
9.9216050771
 30
0.0
 10
12.0342048577
 20
9.922797913
 30
0.0
 10
12.0360633793
 20
9.9239774118
 30
0.0
 10
12.0380514401
 20
9.9251426225
 30
0.0
 10
12.0409337875
 20
9.9267090123
 30
0.0
 10
12.0448573525
 20
9.9286168275
 30
0.0
 10
12.049958823
 20
9.9307890036
 30
0.0
 10
12.0555320259
 20
9.9328827152
 30
0.0
 10
12.0615589654
 20
9.9348911057
 30
0.0
 10
12.0680202889
 20
9.9368075785
 30
0.0
 10
12.0748950562
 20
9.9386257987
 30
0.0
 10
12.0821609367
 20
9.9403397447
 30
0.0
 10
12.08979426
 20
9.9419437327
 30
0.0
 10
12.0977701112
 20
9.9434324593
 30
0.0
 10
12.1060624266
 20
9.9448009967
 30
0.0
 10
12.1146440943
 20
9.9460448162
 30
0.0
 10
12.123487032
 20
9.9471597883
 30
0.0
 10
12.1325623137
 20
9.9481422591
 30
0.0
 10
12.1450326175
 20
9.9492802019
 30
0.0
 10
12.1609802402
 20
9.9503430347
 30
0.0
 10
12.1804034699
 20
9.9510424358
 30
0.0
 10
12.2000098615
 20
9.9511662484
 30
0.0
 10
12.2195427724
 20
9.9507128482
 30
0.0
 10
12.2325008877
 20
9.9500215731
 30
0.0
 10
12.238921173
 20
9.9495763248
 30
0.0
  0
SPLINE
  5
37F
100
AcDbEntity
  8
0
100
AcDbSpline
 62
7
  6
CONTINUOUS
 70
0
 71
3
 72
23
 73
19
 74
0
 42
0.0000001
 43
0.0000001
 44
0.0000000001
 40
0.0
 40
0.0
 40
0.0
 40
0.0
 40
0.0617101436
 40
0.1234413945
 40
0.1852146442
 40
0.2470503545
 40
0.3089683499
 40
0.3709876203
 40
0.4331261332
 40
0.4954006601
 40
0.5578266118
 40
0.6204179016
 40
0.6831868196
 40
0.7461438598
 40
0.8092979876
 40
0.872655304
 40
0.9362225276
 40
1.0
 40
1.0
 40
1.0
 40
1.0
 10
9.6276839163
 20
7.9431984449
 30
0.0
 10
9.622137968
 20
7.9378414746
 30
0.0
 10
9.6113178633
 20
7.9268381204
 30
0.0
 10
9.5959550988
 20
7.9095172215
 30
0.0
 10
9.5814920851
 20
7.8914173768
 30
0.0
 10
9.5679627527
 20
7.872580901
 30
0.0
 10
9.5553981332
 20
7.853051104
 30
0.0
 10
9.5438272139
 20
7.8328730894
 30
0.0
 10
9.5332766342
 20
7.8120933983
 30
0.0
 10
9.5237706907
 20
7.7907599676
 30
0.0
 10
9.515331263
 20
7.7689220018
 30
0.0
 10
9.5079777704
 20
7.7466298612
 30
0.0
 10
9.5017271306
 20
7.7239349581
 30
0.0
 10
9.4965936629
 20
7.7008895905
 30
0.0
 10
9.4925892137
 20
7.677546996
 30
0.0
 10
9.4897228164
 20
7.653960642
 30
0.0
 10
9.4880012231
 20
7.6301857749
 30
0.0
 10
9.4876198128
 20
7.6142713473
 30
0.0
 10
9.4876198128
 20
7.6063023488
 30
0.0
  0
SPLINE
  5
380
100
AcDbEntity
  8
0
100
AcDbSpline
 62
7
  6
CONTINUOUS
 70
0
 71
3
 72
23
 73
19
 74
0
 42
0.0000001
 43
0.0000001
 44
0.0000000001
 40
0.0
 40
0.0
 40
0.0
 40
0.0
 40
0.0616937245
 40
0.1234167449
 40
0.1851886145
 40
0.2470284172
 40
0.3089545848
 40
0.3709847224
 40
0.4331354437
 40
0.4954222246
 40
0.5578592589
 40
0.6204593496
 40
0.6832337752
 40
0.7461921795
 40
0.8093427947
 40
0.8726910654
 40
0.9362436028
 40
1.0
 40
1.0
 40
1.0
 40
1.0
 10
9.5987209479
 20
7.9477111488
 30
0.0
 10
9.5932197651
 20
7.9421391602
 30
0.0
 10
9.5824914419
 20
7.9307154399
 30
0.0
 10
9.567270709
 20
7.9127934661
 30
0.0
 10
9.5529507307
 20
7.8941198025
 30
0.0
 10
9.5395631804
 20
7.874735634
 30
0.0
 10
9.5271370219
 20
7.8546829863
 30
0.0
 10
9.5156993128
 20
7.8340055238
 30
0.0
 10
9.5052748808
 20
7.812748232
 30
0.0
 10
9.4958863588
 20
7.7909573646
 30
0.0
 10
9.4875541223
 20
7.7686803235
 30
0.0
 10
9.4802962524
 20
7.74596556
 30
0.0
 10
9.4741285035
 20
7.7228624778
 30
0.0
 10
9.4690642165
 20
7.6994212833
 30
0.0
 10
9.4651144106
 20
7.675693066
 30
0.0
 10
9.4622874646
 20
7.6517290525
 30
0.0
 10
9.460589702
 20
7.6275822273
 30
0.0
 10
9.4602135372
 20
7.6114217838
 30
0.0
 10
9.4602135372
 20
7.6033299178
 30
0.0
  0
SPLINE
  5
381
100
AcDbEntity
  8
0
100
AcDbSpline
 62
7
  6
CONTINUOUS
 70
0
 71
3
 72
42
 73
38
 74
0
 42
0.0000001
 43
0.0000001
 44
0.0000000001
 40
0.0
 40
0.0
 40
0.0
 40
0.0
 40
0.0055576443
 40
0.0111781836
 40
0.0169222355
 40
0.022846223
 40
0.0290011442
 40
0.0354316623
 40
0.0421762431
 40
0.049267259
 40
0.0567314277
 40
0.0645907244
 40
0.072862575
 40
0.081560766
 40
0.0906959315
 40
0.100275708
 40
0.1103055927
 40
0.1207888494
 40
0.1431177711
 40
0.1672591076
 40
0.1931868442
 40
0.2208588039
 40
0.2502193991
 40
0.2812018039
 40
0.3137295194
 40
0.3477175618
 40
0.3830734051
 40
0.419697946
 40
0.4574862654
 40
0.4963282772
 40
0.5361092896
 40
0.5767106614
 40
0.6598810502
 40
0.7448351505
 40
0.8305372122
 40
0.9159392559
 40
1.0
 40
1.0
 40
1.0
 40
1.0
 10
9.2453674328
 20
10.0991645219
 30
0.0
 10
9.2453674328
 20
10.0995900161
 30
0.0
 10
9.245415055
 20
10.1004465616
 30
0.0
 10
9.2456288788
 20
10.1017268061
 30
0.0
 10
9.2459846947
 20
10.1030041912
 30
0.0
 10
9.2464817872
 20
10.104277254
 30
0.0
 10
9.2471194172
 20
10.1055449235
 30
0.0
 10
9.2478966361
 20
10.1068062747
 30
0.0
 10
9.2488126183
 20
10.1080604111
 30
0.0
 10
9.2498664567
 20
10.1093064844
 30
0.0
 10
9.251057175
 20
10.1105436944
 30
0.0
 10
9.2523838276
 20
10.1117711247
 30
0.0
 10
9.2538452939
 20
10.112987943
 30
0.0
 10
9.2554404169
 20
10.1141932413
 30
0.0
 10
9.2571679426
 20
10.1153860772
 30
0.0
 10
9.2590264642
 20
10.116565576
 30
0.0
 10
9.261014525
 20
10.1177307867
 30
0.0
 10
9.2638968723
 20
10.1192971764
 30
0.0
 10
9.2678204373
 20
10.1212049917
 30
0.0
 10
9.2729219079
 20
10.1233771678
 30
0.0
 10
9.2784951108
 20
10.1254708794
 30
0.0
 10
9.2845220503
 20
10.1274792699
 30
0.0
 10
9.2909833737
 20
10.1293957427
 30
0.0
 10
9.2978581411
 20
10.1312139629
 30
0.0
 10
9.3051240215
 20
10.1329279089
 30
0.0
 10
9.3127573449
 20
10.1345318968
 30
0.0
 10
9.3207331961
 20
10.1360206235
 30
0.0
 10
9.3290255115
 20
10.1373891609
 30
0.0
 10
9.3376071792
 20
10.1386329804
 30
0.0
 10
9.3464501169
 20
10.1397479525
 30
0.0
 10
9.3555253986
 20
10.1407304233
 30
0.0
 10
9.3679957024
 20
10.1418683661
 30
0.0
 10
9.383943325
 20
10.1429311989
 30
0.0
 10
9.4033665548
 20
10.1436306
 30
0.0
 10
9.4229729464
 20
10.1437544126
 30
0.0
 10
9.4425058572
 20
10.1433010124
 30
0.0
 10
9.4554639726
 20
10.1426097372
 30
0.0
 10
9.4618842578
 20
10.1421644889
 30
0.0
  0
SPLINE
  5
382
100
AcDbEntity
  8
0
100
AcDbSpline
 62
7
  6
CONTINUOUS
 70
0
 71
3
 72
37
 73
33
 74
0
 42
0.0000001
 43
0.0000001
 44
0.0000000001
 40
0.0
 40
0.0
 40
0.0
 40
0.0
 40
0.0306209688
 40
0.0613471457
 40
0.0921768931
 40
0.1231075615
 40
0.1541355244
 40
0.1852562254
 40
0.2164642286
 40
0.2477532774
 40
0.2791163574
 40
0.3105457672
 40
0.3420331943
 40
0.3735697966
 40
0.4051462848
 40
0.4367530071
 40
0.5000000814
 40
0.5632471446
 40
0.5948538556
 40
0.6264303301
 40
0.6579669148
 40
0.6894543185
 40
0.7208836994
 40
0.752246748
 40
0.7835357634
 40
0.8147437326
 40
0.8458643994
 40
0.8768922984
 40
0.9078229995
 40
0.9386524956
 40
0.969378975
 40
1.0
 40
1.0
 40
1.0
 40
1.0
 10
10.4797362596
 20
7.6111400226
 30
0.0
 10
10.4726764642
 20
7.6114102498
 30
0.0
 10
10.4585436708
 20
7.6123054761
 30
0.0
 10
10.4374034135
 20
7.614701108
 30
0.0
 10
10.4163357117
 20
7.6181459223
 30
0.0
 10
10.3953937852
 20
7.6226312643
 30
0.0
 10
10.3746296443
 20
7.6281458996
 30
0.0
 10
10.3540950896
 20
7.6346760319
 30
0.0
 10
10.3338412809
 20
7.6422053452
 30
0.0
 10
10.3139186944
 20
7.6507150405
 30
0.0
 10
10.2943769751
 20
7.6601838899
 30
0.0
 10
10.2752648255
 20
7.6705882609
 30
0.0
 10
10.2566298319
 20
7.6819022171
 30
0.0
 10
10.23851853
 20
7.6940974345
 30
0.0
 10
10.2209756432
 20
7.7071439025
 30
0.0
 10
10.1984003296
 20
7.7256312937
 30
0.0
 10
10.1718224504
 20
7.7506979683
 30
0.0
 10
10.1476924393
 20
7.7781290476
 30
0.0
 10
10.1299989389
 20
7.8013318051
 30
0.0
 10
10.1175686005
 20
7.8193165062
 30
0.0
 10
10.1060087283
 20
7.8378397726
 30
0.0
 10
10.0953477574
 20
7.8568558603
 30
0.0
 10
10.0856123704
 20
7.8763172732
 30
0.0
 10
10.0768268241
 20
7.8961755493
 30
0.0
 10
10.0690130506
 20
7.9163812
 30
0.0
 10
10.0621905609
 20
7.9368838818
 30
0.0
 10
10.0563764141
 20
7.957632495
 30
0.0
 10
10.0515851017
 20
7.9785753565
 30
0.0
 10
10.0478286741
 20
7.9996601617
 30
0.0
 10
10.0451164098
 20
8.0208346567
 30
0.0
 10
10.0434552874
 20
8.0420452981
 30
0.0
 10
10.0430506639
 20
8.056200717
 30
0.0
 10
10.043025395
 20
8.0632656501
 30
0.0
  0
SPLINE
  5
383
100
AcDbEntity
  8
0
100
AcDbSpline
 62
7
  6
CONTINUOUS
 70
0
 71
3
 72
46
 73
42
 74
0
 42
0.0000001
 43
0.0000001
 44
0.0000000001
 40
0.0
 40
0.0
 40
0.0
 40
0.0
 40
0.0149720525
 40
0.0299471649
 40
0.0449283772
 40
0.0599186917
 40
0.0749210573
 40
0.0899383484
 40
0.1049733476
 40
0.1200287333
 40
0.1351070597
 40
0.1502107421
 40
0.1653420474
 40
0.1805030776
 40
0.1956957572
 40
0.2109218287
 40
0.2414745667
 40
0.2721768461
 40
0.3030351766
 40
0.3340525707
 40
0.3652285255
 40
0.3965590884
 40
0.4280369959
 40
0.4596518697
 40
0.4913904744
 40
0.523237028
 40
0.5551735471
 40
0.5871802301
 40
0.6192358692
 40
0.6513182802
 40
0.6834047461
 40
0.7154724694
 40
0.7474990252
 40
0.7794628091
 40
0.811343472
 40
0.843122339
 40
0.8747828041
 40
0.9063106918
 40
0.9376946023
 40
0.9689259241
 40
1.0
 40
1.0
 40
1.0
 40
1.0
 10
10.3489524238
 20
7.1710085383
 30
0.0
 10
10.344472786
 20
7.1666815513
 30
0.0
 10
10.3353394901
 20
7.1582038621
 30
0.0
 10
10.3211435658
 20
7.1460403792
 30
0.0
 10
10.3064696171
 20
7.1344453323
 30
0.0
 10
10.2913381698
 20
7.1234348857
 30
0.0
 10
10.2757699716
 20
7.1130241134
 30
0.0
 10
10.259786434
 20
7.1032274133
 30
0.0
 10
10.2434095883
 20
7.0940581956
 30
0.0
 10
10.2266619705
 20
7.085529074
 30
0.0
 10
10.2095666005
 20
7.0776518325
 30
0.0
 10
10.1921470436
 20
7.0704372351
 30
0.0
 10
10.1744272387
 20
7.0638952037
 30
0.0
 10
10.1564316454
 20
7.0580347946
 30
0.0
 10
10.1381846973
 20
7.0528639413
 30
0.0
 10
10.1135291723
 20
7.0468922163
 30
0.0
 10
10.0821951392
 20
7.0411889749
 30
0.0
 10
10.0440491898
 20
7.0372050914
 30
0.0
 10
10.0055179101
 20
7.0360929982
 30
0.0
 10
9.9668146674
 20
7.0378587721
 30
0.0
 10
9.9281518206
 20
7.0424920852
 30
0.0
 10
9.8897418963
 20
7.0499670188
 30
0.0
 10
9.8517958308
 20
7.0602421381
 30
0.0
 10
9.8145219692
 20
7.073260616
 30
0.0
 10
9.7781248854
 20
7.0889505982
 30
0.0
 10
9.7428043398
 20
7.1072257118
 30
0.0
 10
9.7087541427
 20
7.1279854014
 30
0.0
 10
9.6761610932
 20
7.1511154984
 30
0.0
 10
9.6452040465
 20
7.1764889583
 30
0.0
 10
9.6160528814
 20
7.2039664441
 30
0.0
 10
9.5888675424
 20
7.2333970702
 30
0.0
 10
9.5637972818
 20
7.2646193345
 30
0.0
 10
9.5409797855
 20
7.2974619157
 30
0.0
 10
9.5205403542
 20
7.3317445696
 30
0.0
 10
9.5025913598
 20
7.3672792095
 30
0.0
 10
9.4872315794
 20
7.4038708481
 30
0.0
 10
9.4745455471
 20
7.4413187083
 30
0.0
 10
9.4646032377
 20
7.4794170604
 30
0.0
 10
9.4574597118
 20
7.5179574381
 30
0.0
 10
9.4531544399
 20
7.5567254529
 30
0.0
 10
9.4521901535
 20
7.5826535531
 30
0.0
 10
9.4521901535
 20
7.5955799239
 30
0.0
  0
SPLINE
  5
384
100
AcDbEntity
  8
0
100
AcDbSpline
 62
7
  6
CONTINUOUS
 70
0
 71
3
 72
39
 73
35
 74
0
 42
0.0000001
 43
0.0000001
 44
0.0000000001
 40
0.0
 40
0.0
 40
0.0
 40
0.0
 40
0.0299352965
 40
0.0599016299
 40
0.0899220623
 40
0.1200183695
 40
0.1502105357
 40
0.1805162983
 40
0.2109507622
 40
0.2415260872
 40
0.2722512506
 40
0.303131891
 40
0.3341702377
 40
0.3653651132
 40
0.3967120054
 40
0.4282032141
 40
0.459828055
 40
0.4915731142
 40
0.5234225501
 40
0.5553584372
 40
0.5873611385
 40
0.6194097018
 40
0.6514822778
 40
0.6835565491
 40
0.7156101653
 40
0.7476211786
 40
0.7795684744
 40
0.8114321892
 40
0.8431941149
 40
0.8748380717
 40
0.906350256
 40
0.9377195916
 40
0.968937666
 40
1.0
 40
1.0
 40
1.0
 40
1.0
 10
10.3488619336
 20
7.1711051406
 30
0.0
 10
10.3397847383
 20
7.1627443372
 30
0.0
 10
10.3209532251
 20
7.1467227303
 30
0.0
 10
10.2908882671
 20
7.124973565
 30
0.0
 10
10.2591529736
 20
7.1056115049
 30
0.0
 10
10.2259213805
 20
7.0887431286
 30
0.0
 10
10.191372749
 20
7.0744588858
 30
0.0
 10
10.1556942047
 20
7.0628357695
 30
0.0
 10
10.1190786773
 20
7.0539361415
 30
0.0
 10
10.081724106
 20
7.0478076901
 30
0.0
 10
10.0438323137
 20
7.0444830499
 30
0.0
 10
10.0056079181
 20
7.043979649
 30
0.0
 10
9.967257214
 20
7.0462997419
 30
0.0
 10
9.9289870868
 20
7.0514304035
 30
0.0
 10
9.8910038893
 20
7.0593434928
 30
0.0
 10
9.8535123455
 20
7.069995939
 30
0.0
 10
9.8167144824
 20
7.0833300078
 30
0.0
 10
9.7808085359
 20
7.0992735348
 30
0.0
 10
9.7459878802
 20
7.1177403126
 30
0.0
 10
9.712440041
 20
7.1386306472
 30
0.0
 10
9.6803457046
 20
7.1618318707
 30
0.0
 10
9.6498776838
 20
7.1872188461
 30
0.0
 10
9.6212000575
 20
7.2146547375
 30
0.0
 10
9.5944673235
 20
7.2439917505
 30
0.0
 10
9.5698235157
 20
7.2750718551
 30
0.0
 10
9.5474014202
 20
7.307727633
 30
0.0
 10
9.5273219421
 20
7.3417832273
 30
0.0
 10
9.5096934523
 20
7.3770552612
 30
0.0
 10
9.494611096
 20
7.413353737
 30
0.0
 10
9.4821563839
 20
7.4504831951
 30
0.0
 10
9.4723967611
 20
7.4882434397
 30
0.0
 10
9.4653852409
 20
7.5264316613
 30
0.0
 10
9.4611598421
 20
7.56483938
 30
0.0
 10
9.4602135372
 20
7.5905243647
 30
0.0
 10
9.4602135372
 20
7.6033299178
 30
0.0
  0
SPLINE
  5
385
100
AcDbEntity
  8
0
100
AcDbSpline
 62
7
  6
CONTINUOUS
 70
0
 71
3
 72
40
 73
36
 74
0
 42
0.0000001
 43
0.0000001
 44
0.0000000001
 40
0.0
 40
0.0
 40
0.0
 40
0.0
 40
0.0303421722
 40
0.0455576284
 40
0.0608021289
 40
0.0913761882
 40
0.1220682359
 40
0.152877691
 40
0.1838025398
 40
0.2148393761
 40
0.2459834567
 40
0.2772287715
 40
0.3085681262
 40
0.3399932364
 40
0.371494832
 40
0.4030627701
 40
0.4346861561
 40
0.4663534703
 40
0.4980527002
 40
0.5297714763
 40
0.5614972111
 40
0.5932172396
 40
0.6249189604
 40
0.6565899764
 40
0.6882182338
 40
0.7197921581
 40
0.7513007871
 40
0.7827338986
 40
0.814082129
 40
0.8453370974
 40
0.8764914792
 40
0.9075391954
 40
0.9384752351
 40
0.969296367
 40
1.0
 40
1.0
 40
1.0
 40
1.0
 10
10.4751303237
 20
7.5045692473
 30
0.0
 10
10.4669152618
 20
7.5034153503
 30
0.0
 10
10.4545275886
 20
7.5020339007
 30
0.0
 10
10.4379417071
 20
7.5008917707
 30
0.0
 10
10.4212664904
 20
7.5002136331
 30
0.0
 10
10.4003363377
 20
7.5002432626
 30
0.0
 10
10.3751907542
 20
7.5016783673
 30
0.0
 10
10.3500670135
 20
7.5045084711
 30
0.0
 10
10.325043068
 20
7.5087247683
 30
0.0
 10
10.3001959396
 20
7.5143141649
 30
0.0
 10
10.2756022575
 20
7.5212593465
 30
0.0
 10
10.2513378152
 20
7.5295388261
 30
0.0
 10
10.2274773952
 20
7.5391270133
 30
0.0
 10
10.2040945251
 20
7.5499942933
 30
0.0
 10
10.1812612571
 20
7.5621071183
 30
0.0
 10
10.1590479463
 20
7.5754281117
 30
0.0
 10
10.1375230361
 20
7.5899161825
 30
0.0
 10
10.1167528484
 20
7.6055266518
 30
0.0
 10
10.0968013813
 20
7.6222113902
 30
0.0
 10
10.0777301126
 20
7.6399189653
 30
0.0
 10
10.0595978109
 20
7.6585947984
 30
0.0
 10
10.0424603562
 20
7.6781813332
 30
0.0
 10
10.0263705686
 20
7.6986182119
 30
0.0
 10
10.0113780467
 20
7.7198424603
 30
0.0
 10
9.9975290151
 20
7.7417886804
 30
0.0
 10
9.9848661831
 20
7.7643892511
 30
0.0
 10
9.9734286127
 20
7.7875745345
 30
0.0
 10
9.9632516005
 20
7.8112730889
 30
0.0
 10
9.9543665633
 20
7.83541189
 30
0.0
 10
9.9468009563
 20
7.8599165427
 30
0.0
 10
9.9405781516
 20
7.884711552
 30
0.0
 10
9.9357174453
 20
7.9097203962
 30
0.0
 10
9.9322338423
 20
7.9348663088
 30
0.0
 10
9.9301382586
 20
7.9600706707
 30
0.0
 10
9.9296699702
 20
7.9768955075
 30
0.0
 10
9.9296699702
 20
7.9852900377
 30
0.0
  0
SPLINE
  5
386
100
AcDbEntity
  8
0
100
AcDbSpline
 62
7
  6
CONTINUOUS
 70
0
 71
3
 72
44
 73
40
 74
0
 42
0.0000001
 43
0.0000001
 44
0.0000000001
 40
0.0
 40
0.0
 40
0.0
 40
0.0
 40
0.0149722234
 40
0.0299475064
 40
0.0449288883
 40
0.0599193732
 40
0.0749219094
 40
0.0899393698
 40
0.1049745397
 40
0.1200300962
 40
0.1351085921
 40
0.1502124456
 40
0.1804994109
 40
0.2109128653
 40
0.2414659471
 40
0.2721685722
 40
0.303027252
 40
0.3340449956
 40
0.3652213014
 40
0.3965522194
 40
0.4280304831
 40
0.4596457138
 40
0.4913846787
 40
0.5232315941
 40
0.5551684754
 40
0.5871755222
 40
0.6192315264
 40
0.6513143028
 40
0.6834011342
 40
0.7154692231
 40
0.7474961446
 40
0.7794602934
 40
0.8113413197
 40
0.8431205497
 40
0.8747813764
 40
0.9063096221
 40
0.9376938967
 40
0.9689255651
 40
1.0
 40
1.0
 40
1.0
 40
1.0
 10
10.3453571469
 20
7.200208488
 30
0.0
 10
10.3410724554
 20
7.1960697972
 30
0.0
 10
10.3323366674
 20
7.1879609831
 30
0.0
 10
10.3187585144
 20
7.1763268253
 30
0.0
 10
10.3047231766
 20
7.1652363228
 30
0.0
 10
10.2902502545
 20
7.1547049671
 30
0.0
 10
10.275359546
 20
7.144747246
 30
0.0
 10
10.2600716105
 20
7.1353768243
 30
0.0
 10
10.2444074617
 20
7.1266065687
 30
0.0
 10
10.2283887141
 20
7.118448635
 30
0.0
 10
10.2120371143
 20
7.1109140713
 30
0.0
 10
10.1898041438
 20
7.1017057091
 30
0.0
 10
10.1612798794
 20
7.0918037966
 30
0.0
 10
10.1261281868
 20
7.0825755542
 30
0.0
 10
10.0902094289
 20
7.0760379538
 30
0.0
 10
10.0537227045
 20
7.0722271562
 30
0.0
 10
10.0168684337
 20
7.0711634909
 30
0.0
 10
9.9798494048
 20
7.0728523292
 30
0.0
 10
9.942869079
 20
7.0772839335
 30
0.0
 10
9.9061306563
 20
7.0844335597
 30
0.0
 10
9.869835902
 20
7.0942614775
 30
0.0
 10
9.8341840827
 20
7.1067133461
 30
0.0
 10
9.7993709054
 20
7.1217205224
 30
0.0
 10
9.7655874116
 20
7.1392003186
 30
0.0
 10
9.7330189604
 20
7.1590565365
 30
0.0
 10
9.7018442657
 20
7.1811800475
 30
0.0
 10
9.6722343874
 20
7.2054493067
 30
0.0
 10
9.6443517722
 20
7.2317309988
 30
0.0
 10
9.6183494481
 20
7.2598808551
 30
0.0
 10
9.5943701844
 20
7.2897444034
 30
0.0
 10
9.5725456178
 20
7.3211577336
 30
0.0
 10
9.5529956337
 20
7.353948476
 30
0.0
 10
9.5358277381
 20
7.3879367374
 30
0.0
 10
9.521136357
 20
7.422935989
 30
0.0
 10
9.5090023702
 20
7.458754204
 30
0.0
 10
9.4994927238
 20
7.4951946113
 30
0.0
 10
9.4926600621
 20
7.5320578034
 30
0.0
 10
9.4885421347
 20
7.5691387289
 30
0.0
 10
9.4876198128
 20
7.5939385001
 30
0.0
 10
9.4876198128
 20
7.6063023488
 30
0.0
  0
SPLINE
  5
387
100
AcDbEntity
  8
0
100
AcDbSpline
 62
7
  6
CONTINUOUS
 70
0
 71
3
 72
41
 73
37
 74
0
 42
0.0000001
 43
0.0000001
 44
0.0000000001
 40
0.0
 40
0.0
 40
0.0
 40
0.0
 40
0.0149634506
 40
0.0299339677
 40
0.0449144042
 40
0.0599075575
 40
0.0899372235
 40
0.1200492116
 40
0.1502622547
 40
0.1805927873
 40
0.2110546007
 40
0.2416585661
 40
0.2724124378
 40
0.3033207313
 40
0.3343846737
 40
0.3656022241
 40
0.3969681674
 40
0.4284742657
 40
0.4601094623
 40
0.491860136
 40
0.5237104002
 40
0.5556424325
 40
0.587636833
 40
0.6196730071
 40
0.6517295646
 40
0.6837847274
 40
0.7158167438
 40
0.7478043027
 40
0.7797269401
 40
0.8115654369
 40
0.8433021989
 40
0.8749216099
 40
0.9064103582
 40
0.93775778
 40
0.9689557564
 40
1.0
 40
1.0
 40
1.0
 40
1.0
 10
10.3625994543
 20
7.2178263569
 30
0.0
 10
10.3581886176
 20
7.2140154512
 30
0.0
 10
10.3492157082
 20
7.2065625132
 30
0.0
 10
10.335329055
 20
7.1959117241
 30
0.0
 10
10.3210298808
 20
7.1858005569
 30
0.0
 10
10.3014323986
 20
7.173051601
 30
0.0
 10
10.2759858673
 20
7.1585250118
 30
0.0
 10
10.2441358207
 20
7.1434629691
 30
0.0
 10
10.2111177101
 20
7.1308368339
 30
0.0
 10
10.1771068253
 20
7.1207136305
 30
0.0
 10
10.1422821528
 20
7.1131461428
 30
0.0
 10
10.106827288
 20
7.1081738456
 30
0.0
 10
10.0709289314
 20
7.1058224609
 30
0.0
 10
10.0347760452
 20
7.1061039603
 30
0.0
 10
9.9985588355
 20
7.1090164665
 30
0.0
 10
9.9624677568
 20
7.1145442183
 30
0.0
 10
9.9266925199
 20
7.1226577724
 30
0.0
 10
9.8914211215
 20
7.1333141705
 30
0.0
 10
9.8568388533
 20
7.1464571032
 30
0.0
 10
9.823127332
 20
7.1620172178
 30
0.0
 10
9.7904635835
 20
7.1799125521
 30
0.0
 10
9.7590191355
 20
7.200048957
 30
0.0
 10
9.7289590762
 20
7.2223205043
 30
0.0
 10
9.700441227
 20
7.2466101067
 30
0.0
 10
9.6736153466
 20
7.2727901475
 30
0.0
 10
9.6486223467
 20
7.3007231245
 30
0.0
 10
9.6255934927
 20
7.3302623106
 30
0.0
 10
9.604649791
 20
7.3612525894
 30
0.0
 10
9.5859013712
 20
7.393531254
 30
0.0
 10
9.5694468654
 20
7.4269288238
 30
0.0
 10
9.5553728644
 20
7.4612698988
 30
0.0
 10
9.5437535407
 20
7.4963741864
 30
0.0
 10
9.5346502416
 20
7.5320571428
 30
0.0
 10
9.5281111633
 20
7.5681318998
 30
0.0
 10
9.5241708763
 20
7.6044064487
 30
0.0
 10
9.5232885332
 20
7.6286622083
 30
0.0
 10
9.5232885332
 20
7.6407556891
 30
0.0
  0
SPLINE
  5
388
100
AcDbEntity
  8
0
100
AcDbSpline
 62
7
  6
CONTINUOUS
 70
0
 71
3
 72
23
 73
19
 74
0
 42
0.0000001
 43
0.0000001
 44
0.0000000001
 40
0.0
 40
0.0
 40
0.0
 40
0.0
 40
0.083692997
 40
0.1647675998
 40
0.2431535047
 40
0.3187885687
 40
0.3916196311
 40
0.4616014152
 40
0.528695957
 40
0.5928729754
 40
0.654108974
 40
0.7123876761
 40
0.7676999167
 40
0.8200440521
 40
0.8694257294
 40
0.9158604391
 40
0.9593745594
 40
1.0
 40
1.0
 40
1.0
 40
1.0
 10
10.4570537149
 20
7.4363013849
 30
0.0
 10
10.4534234614
 20
7.4344096575
 30
0.0
 10
10.4462716494
 20
7.4306947556
 30
0.0
 10
10.4357134513
 20
7.4252202889
 30
0.0
 10
10.4255115406
 20
7.4199149022
 30
0.0
 10
10.4156840655
 20
7.4147634895
 30
0.0
 10
10.4062474831
 20
7.4097520048
 30
0.0
 10
10.3972166668
 20
7.4048676054
 30
0.0
 10
10.3886053246
 20
7.4000982646
 30
0.0
 10
10.3804257025
 20
7.3954336677
 30
0.0
 10
10.3726890696
 20
7.3908645659
 30
0.0
 10
10.3654056746
 20
7.386383169
 30
0.0
 10
10.3585846448
 20
7.3819834405
 30
0.0
 10
10.3522345554
 20
7.3776604278
 30
0.0
 10
10.346362824
 20
7.3734112728
 30
0.0
 10
10.340976216
 20
7.3692342445
 30
0.0
 10
10.3360811279
 20
7.3651296159
 30
0.0
 10
10.3330455077
 20
7.3623480727
 30
0.0
 10
10.3316163026
 20
7.3609675665
 30
0.0
  0
SPLINE
  5
389
100
AcDbEntity
  8
0
100
AcDbSpline
 62
7
  6
CONTINUOUS
 70
0
 71
3
 72
39
 73
35
 74
0
 42
0.0000001
 43
0.0000001
 44
0.0000000001
 40
0.0
 40
0.0
 40
0.0
 40
0.0
 40
0.0299424711
 40
0.0599093186
 40
0.0899243248
 40
0.1200101037
 40
0.1501875627
 40
0.180475415
 40
0.2108897594
 40
0.2414437357
 40
0.2721472604
 40
0.3030068436
 40
0.3340254954
 40
0.3652027141
 40
0.3965345493
 40
0.4280137349
 40
0.4596298917
 40
0.4913697854
 40
0.5232176332
 40
0.5551554502
 40
0.5871634342
 40
0.6192203768
 40
0.6513040925
 40
0.6833918636
 40
0.7154608917
 40
0.7474887511
 40
0.7794538353
 40
0.8113357951
 40
0.8431159563
 40
0.8747777105
 40
0.9063068747
 40
0.9376920817
 40
0.9689246483
 40
1.0
 40
1.0
 40
1.0
 40
1.0
 10
10.3548506373
 20
7.276114236
 30
0.0
 10
10.3470783834
 20
7.2686068044
 30
0.0
 10
10.330922703
 20
7.2541978451
 30
0.0
 10
10.3050388021
 20
7.234568177
 30
0.0
 10
10.2776368152
 20
7.2170205217
 30
0.0
 10
10.2488698498
 20
7.2016533166
 30
0.0
 10
10.2188960477
 20
7.1885505516
 30
0.0
 10
10.1878808452
 20
7.1777842286
 30
0.0
 10
10.1559951585
 20
7.1694132385
 30
0.0
 10
10.12341465
 20
7.1634832901
 30
0.0
 10
10.0903186973
 20
7.1600266305
 30
0.0
 10
10.0568894273
 20
7.1590618155
 30
0.0
 10
10.0233106914
 20
7.1605937036
 30
0.0
 10
9.9897670671
 20
7.1646134639
 30
0.0
 10
9.9564428623
 20
7.1710986468
 30
0.0
 10
9.9235210975
 20
7.1800132324
 30
0.0
 10
9.8911825201
 20
7.1913079189
 30
0.0
 10
9.859604634
 20
7.2049204083
 30
0.0
 10
9.8289607485
 20
7.2207757526
 30
0.0
 10
9.7994189996
 20
7.238786688
 30
0.0
 10
9.7711414683
 20
7.2588541871
 30
0.0
 10
9.7442833113
 20
7.2808680028
 30
0.0
 10
9.7189919285
 20
7.3047072666
 30
0.0
 10
9.6954061015
 20
7.3302410819
 30
0.0
 10
9.6736552898
 20
7.3573292998
 30
0.0
 10
9.6538589354
 20
7.3858232794
 30
0.0
 10
9.6361258195
 20
7.4155666883
 30
0.0
 10
9.620553393
 20
7.4463963114
 30
0.0
 10
9.607227311
 20
7.4781429632
 30
0.0
 10
9.5962209747
 20
7.5106324759
 30
0.0
 10
9.5875951044
 20
7.5436863664
 30
0.0
 10
9.5813974218
 20
7.5771237402
 30
0.0
 10
9.5776621776
 20
7.6107586171
 30
0.0
 10
9.5768255734
 20
7.6332536628
 30
0.0
 10
9.5768255734
 20
7.644468502
 30
0.0
  0
SPLINE
  5
38A
100
AcDbEntity
  8
0
100
AcDbSpline
 62
4
  6
CONTINUOUS
 70
0
 71
3
 72
313
 73
309
 74
0
 42
0.0000001
 43
0.0000001
 44
0.0000000001
 40
0.0
 40
0.0
 40
0.0
 40
0.0
 40
0.015625
 40
0.0234375
 40
0.03125
 40
0.0390625
 40
0.046875
 40
0.05078125
 40
0.0546875
 40
0.056640625
 40
0.05859375
 40
0.060546875
 40
0.0615234375
 40
0.0620117188
 40
0.0625
 40
0.0629882812
 40
0.0634765625
 40
0.064453125
 40
0.06640625
 40
0.068359375
 40
0.0703125
 40
0.07421875
 40
0.078125
 40
0.0859375
 40
0.09375
 40
0.1015625
 40
0.109375
 40
0.11328125
 40
0.1171875
 40
0.119140625
 40
0.12109375
 40
0.123046875
 40
0.1240234375
 40
0.1245117188
 40
0.125
 40
0.1254882812
 40
0.1259765625
 40
0.126953125
 40
0.12890625
 40
0.130859375
 40
0.1328125
 40
0.13671875
 40
0.140625
 40
0.1484375
 40
0.15625
 40
0.1640625
 40
0.171875
 40
0.17578125
 40
0.1796875
 40
0.181640625
 40
0.18359375
 40
0.185546875
 40
0.1865234375
 40
0.1870117188
 40
0.1875
 40
0.1879882812
 40
0.1884765625
 40
0.189453125
 40
0.19140625
 40
0.193359375
 40
0.1953125
 40
0.19921875
 40
0.203125
 40
0.2109375
 40
0.21875
 40
0.2265625
 40
0.234375
 40
0.23828125
 40
0.2421875
 40
0.244140625
 40
0.24609375
 40
0.248046875
 40
0.2490234375
 40
0.2495117188
 40
0.25
 40
0.2504882812
 40
0.2509765625
 40
0.251953125
 40
0.25390625
 40
0.255859375
 40
0.2578125
 40
0.26171875
 40
0.265625
 40
0.2734375
 40
0.28125
 40
0.2890625
 40
0.296875
 40
0.30078125
 40
0.3046875
 40
0.306640625
 40
0.30859375
 40
0.310546875
 40
0.3115234375
 40
0.3120117188
 40
0.3125
 40
0.3129882812
 40
0.3134765625
 40
0.314453125
 40
0.31640625
 40
0.318359375
 40
0.3203125
 40
0.32421875
 40
0.328125
 40
0.3359375
 40
0.34375
 40
0.3515625
 40
0.359375
 40
0.36328125
 40
0.3671875
 40
0.369140625
 40
0.37109375
 40
0.373046875
 40
0.3740234375
 40
0.3745117188
 40
0.375
 40
0.3754882812
 40
0.3759765625
 40
0.376953125
 40
0.37890625
 40
0.380859375
 40
0.3828125
 40
0.38671875
 40
0.390625
 40
0.3984375
 40
0.40625
 40
0.4140625
 40
0.421875
 40
0.42578125
 40
0.4296875
 40
0.431640625
 40
0.43359375
 40
0.435546875
 40
0.4365234375
 40
0.4370117188
 40
0.4375
 40
0.4379882812
 40
0.4384765625
 40
0.439453125
 40
0.44140625
 40
0.443359375
 40
0.4453125
 40
0.44921875
 40
0.453125
 40
0.4609375
 40
0.46875
 40
0.4765625
 40
0.484375
 40
0.48828125
 40
0.4921875
 40
0.494140625
 40
0.49609375
 40
0.498046875
 40
0.4990234375
 40
0.4995117188
 40
0.5
 40
0.5004882812
 40
0.5009765625
 40
0.501953125
 40
0.50390625
 40
0.505859375
 40
0.5078125
 40
0.51171875
 40
0.515625
 40
0.5234375
 40
0.53125
 40
0.5390625
 40
0.546875
 40
0.55078125
 40
0.5546875
 40
0.556640625
 40
0.55859375
 40
0.560546875
 40
0.5615234375
 40
0.5620117188
 40
0.5625
 40
0.5629882812
 40
0.5634765625
 40
0.564453125
 40
0.56640625
 40
0.568359375
 40
0.5703125
 40
0.57421875
 40
0.578125
 40
0.5859375
 40
0.59375
 40
0.6015625
 40
0.609375
 40
0.61328125
 40
0.6171875
 40
0.619140625
 40
0.62109375
 40
0.623046875
 40
0.6240234375
 40
0.6245117188
 40
0.625
 40
0.6254882812
 40
0.6259765625
 40
0.626953125
 40
0.62890625
 40
0.630859375
 40
0.6328125
 40
0.63671875
 40
0.640625
 40
0.6484375
 40
0.65625
 40
0.6640625
 40
0.671875
 40
0.67578125
 40
0.6796875
 40
0.681640625
 40
0.68359375
 40
0.685546875
 40
0.6865234375
 40
0.6870117188
 40
0.6875
 40
0.6879882812
 40
0.6884765625
 40
0.689453125
 40
0.69140625
 40
0.693359375
 40
0.6953125
 40
0.69921875
 40
0.703125
 40
0.7109375
 40
0.71875
 40
0.7265625
 40
0.734375
 40
0.73828125
 40
0.7421875
 40
0.744140625
 40
0.74609375
 40
0.748046875
 40
0.7490234375
 40
0.7495117188
 40
0.75
 40
0.7504882812
 40
0.7509765625
 40
0.751953125
 40
0.75390625
 40
0.755859375
 40
0.7578125
 40
0.76171875
 40
0.765625
 40
0.7734375
 40
0.78125
 40
0.7890625
 40
0.796875
 40
0.80078125
 40
0.8046875
 40
0.806640625
 40
0.80859375
 40
0.810546875
 40
0.8115234375
 40
0.8120117188
 40
0.8125
 40
0.8129882812
 40
0.8134765625
 40
0.814453125
 40
0.81640625
 40
0.818359375
 40
0.8203125
 40
0.82421875
 40
0.828125
 40
0.8359375
 40
0.84375
 40
0.8515625
 40
0.859375
 40
0.86328125
 40
0.8671875
 40
0.869140625
 40
0.87109375
 40
0.873046875
 40
0.8740234375
 40
0.8745117188
 40
0.875
 40
0.8754882812
 40
0.8759765625
 40
0.876953125
 40
0.87890625
 40
0.880859375
 40
0.8828125
 40
0.88671875
 40
0.890625
 40
0.8984375
 40
0.90625
 40
0.9140625
 40
0.921875
 40
0.92578125
 40
0.9296875
 40
0.931640625
 40
0.93359375
 40
0.935546875
 40
0.9365234375
 40
0.9370117188
 40
0.9375
 40
0.9379882812
 40
0.9384765625
 40
0.939453125
 40
0.94140625
 40
0.943359375
 40
0.9453125
 40
0.94921875
 40
0.953125
 40
0.9609375
 40
0.96875
 40
0.9765625
 40
0.984375
 40
1.0
 40
1.0
 40
1.0
 40
1.0
 10
9.4492922782
 20
9.1721719691
 30
0.0
 10
9.4521065181
 20
9.1722527396
 30
0.0
 10
9.4563278778
 20
9.172373895
 30
0.0
 10
9.4619563573
 20
9.1725354365
 30
0.0
 10
9.4661777174
 20
9.1726565903
 30
0.0
 10
9.4703990758
 20
9.1727777527
 30
0.0
 10
9.4739168796
 20
9.1728786949
 30
0.0
 10
9.4767311111
 20
9.1729595078
 30
0.0
 10
9.4784900322
 20
9.1730098811
 30
0.0
 10
9.4798971086
 20
9.1730504886
 30
0.0
 10
9.4809525812
 20
9.1730800983
 30
0.0
 10
9.4818316161
 20
9.173107464
 30
0.0
 10
9.482447972
 20
9.1731213392
 30
0.0
 10
9.4827985648
 20
9.1731375134
 30
0.0
 10
9.4830660464
 20
9.1731264162
 30
0.0
 10
9.4833161854
 20
9.173204108
 30
0.0
 10
9.4836557533
 20
9.1732767264
 30
0.0
 10
9.4842471788
 20
9.1734182385
 30
0.0
 10
9.4850935458
 20
9.1736128545
 30
0.0
 10
9.4861085555
 20
9.1738496229
 30
0.0
 10
9.4874621221
 20
9.1741641862
 30
0.0
 10
9.4891540048
 20
9.1745577764
 30
0.0
 10
9.4918610595
 20
9.175187305
 30
0.0
 10
9.4952448631
 20
9.1759742902
 30
0.0
 10
9.4993054345
 20
9.1769186385
 30
0.0
 10
9.503366001
 20
9.1778630035
 30
0.0
 10
9.506749817
 20
9.1786499471
 30
0.0
 10
9.5094568469
 20
9.179279559
 30
0.0
 10
9.5111487924
 20
9.1796729374
 30
0.0
 10
9.5125022303
 20
9.1799879356
 30
0.0
 10
9.513517633
 20
9.1802233753
 30
0.0
 10
9.5143627706
 20
9.1804221483
 30
0.0
 10
9.5149563907
 20
9.1805562394
 30
0.0
 10
9.5152924423
 20
9.1806407482
 30
0.0
 10
9.5155533822
 20
9.1806819167
 30
0.0
 10
9.5157802975
 20
9.1808079947
 30
0.0
 10
9.5160947194
 20
9.1809464813
 30
0.0
 10
9.5166394281
 20
9.1812026321
 30
0.0
 10
9.5174204743
 20
9.1815613474
 30
0.0
 10
9.5183564924
 20
9.1819948938
 30
0.0
 10
9.5196049487
 20
9.1825718771
 30
0.0
 10
9.5211653711
 20
9.1832934755
 30
0.0
 10
9.5236621296
 20
9.1844478265
 30
0.0
 10
9.5267830492
 20
9.1858908365
 30
0.0
 10
9.530528166
 20
9.187622416
 30
0.0
 10
9.5342732753
 20
9.1893540116
 30
0.0
 10
9.5373942135
 20
9.1907969812
 30
0.0
 10
9.5398909348
 20
9.1919514129
 30
0.0
 10
9.5414514519
 20
9.1926728063
 30
0.0
 10
9.5426997138
 20
9.1932502104
 30
0.0
 10
9.5436363257
 20
9.1936824711
 30
0.0
 10
9.5444155139
 20
9.1940452089
 30
0.0
 10
9.5449635396
 20
9.1942941788
 30
0.0
 10
9.5452726468
 20
9.1944441711
 30
0.0
 10
9.5455158871
 20
9.1945349074
 30
0.0
 10
9.5457155129
 20
9.1947088132
 30
0.0
 10
9.5459968938
 20
9.1949116771
 30
0.0
 10
9.5464822223
 20
9.1952802054
 30
0.0
 10
9.5471792545
 20
9.1957996079
 30
0.0
 10
9.548014107
 20
9.1964259156
 30
0.0
 10
9.5491277976
 20
9.1972599361
 30
0.0
 10
9.5505197211
 20
9.1983028234
 30
0.0
 10
9.5527469049
 20
9.1999712408
 30
0.0
 10
9.5555308478
 20
9.2020568324
 30
0.0
 10
9.5588715968
 20
9.2045595109
 30
0.0
 10
9.5622123348
 20
9.2070622035
 30
0.0
 10
9.564996305
 20
9.2091477599
 30
0.0
 10
9.5672234343
 20
9.2108162477
 30
0.0
 10
9.5686154963
 20
9.2118589562
 30
0.0
 10
9.5697289026
 20
9.2126933437
 30
0.0
 10
9.5705646237
 20
9.2133185299
 30
0.0
 10
9.5712589382
 20
9.2138414413
 30
0.0
 10
9.5717491182
 20
9.2142037057
 30
0.0
 10
9.5720227257
 20
9.214416606
 30
0.0
 10
9.572246229
 20
9.2145596832
 30
0.0
 10
9.5723997894
 20
9.2147662063
 30
0.0
 10
9.5726289335
 20
9.2150194398
 30
0.0
 10
9.5730185688
 20
9.2154729095
 30
0.0
 10
9.5735811333
 20
9.2161153326
 30
0.0
 10
9.574253667
 20
9.2168885477
 30
0.0
 10
9.5751512671
 20
9.2179186953
 30
0.0
 10
9.5762729631
 20
9.2192066557
 30
0.0
 10
9.5780678466
 20
9.2212672382
 30
0.0
 10
9.5803113923
 20
9.2238430194
 30
0.0
 10
9.5830036741
 20
9.2269339328
 30
0.0
 10
9.585695942
 20
9.2300248575
 30
0.0
 10
9.5879395222
 20
9.2326006104
 30
0.0
 10
9.5897343366
 20
9.2346612496
 30
0.0
 10
9.5908562084
 20
9.2359490657
 30
0.0
 10
9.5917534476
 20
9.2369795094
 30
0.0
 10
9.5924270839
 20
9.2377518199
 30
0.0
 10
9.5929861988
 20
9.2383970733
 30
0.0
 10
9.5933819921
 20
9.2388454905
 30
0.0
 10
9.5936012694
 20
9.2391068194
 30
0.0
 10
9.5937851376
 20
9.2392884759
 30
0.0
 10
9.5938948099
 20
9.2395249478
 30
0.0
 10
9.5940669199
 20
9.2398211235
 30
0.0
 10
9.5943560544
 20
9.2403483394
 30
0.0
 10
9.5947754078
 20
9.2410968475
 30
0.0
 10
9.5952759334
 20
9.2419970507
 30
0.0
 10
9.5959442435
 20
9.2431966254
 30
0.0
 10
9.5967793083
 20
9.2446963322
 30
0.0
 10
9.5981155925
 20
9.2470957298
 30
0.0
 10
9.5997858853
 20
9.2500950227
 30
0.0
 10
9.6017902655
 20
9.2536941535
 30
0.0
 10
9.6037946305
 20
9.2572932935
 30
0.0
 10
9.605464961
 20
9.2602925636
 30
0.0
 10
9.60680117
 20
9.2626920067
 30
0.0
 10
9.6076364259
 20
9.2641915978
 30
0.0
 10
9.6083043438
 20
9.26539141
 30
0.0
 10
9.6088060675
 20
9.2662908877
 30
0.0
 10
9.6092216724
 20
9.2670416657
 30
0.0
 10
9.6095174985
 20
9.2675648295
 30
0.0
 10
9.6096788869
 20
9.2678674976
 30
0.0
 10
9.6098214927
 20
9.2680840268
 30
0.0
 10
9.609881668
 20
9.268340585
 30
0.0
 10
9.6099906544
 20
9.2686687001
 30
0.0
 10
9.6101679842
 20
9.2692494068
 30
0.0
 10
9.6104283163
 20
9.2700755868
 30
0.0
 10
9.610737717
 20
9.2710684586
 30
0.0
 10
9.6111512983
 20
9.2723917792
 30
0.0
 10
9.6116679164
 20
9.274046104
 30
0.0
 10
9.6124947058
 20
9.2766929263
 30
0.0
 10
9.6135281232
 20
9.2800014879
 30
0.0
 10
9.614768256
 20
9.2839717466
 30
0.0
 10
9.6160083725
 20
9.2879420122
 30
0.0
 10
9.6170418307
 20
9.2912505564
 30
0.0
 10
9.6178685386
 20
9.2938974133
 30
0.0
 10
9.618385364
 20
9.2955516504
 30
0.0
 10
9.6187985198
 20
9.296875151
 30
0.0
 10
9.6191092204
 20
9.2978674726
 30
0.0
 10
9.6193654853
 20
9.298695374
 30
0.0
 10
9.6195500757
 20
9.2992730078
 30
0.0
 10
9.6196474289
 20
9.2996060466
 30
0.0
 10
9.6197433375
 20
9.2998474805
 30
0.0
 10
9.619751735
 20
9.3001208141
 30
0.0
 10
9.6197934566
 20
9.3004741319
 30
0.0
 10
9.6198522472
 20
9.3010976222
 30
0.0
 10
9.6199436693
 20
9.3019856124
 30
0.0
 10
9.6200501932
 20
9.3030523607
 30
0.0
 10
9.6201933367
 20
9.3044742865
 30
0.0
 10
9.6203718854
 20
9.3062518326
 30
0.0
 10
9.6206577761
 20
9.3090958287
 30
0.0
 10
9.6210150661
 20
9.3126508505
 30
0.0
 10
9.6214438477
 20
9.3169168653
 30
0.0
 10
9.6218726121
 20
9.321182883
 30
0.0
 10
9.6222299448
 20
9.3247378975
 30
0.0
 10
9.62251575
 20
9.3275819082
 30
0.0
 10
9.6226945163
 20
9.3293594174
 30
0.0
 10
9.6228372131
 20
9.3307814188
 30
0.0
 10
9.6229451016
 20
9.3318479363
 30
0.0
 10
9.6230322541
 20
9.3327366487
 30
0.0
 10
9.6230986667
 20
9.3333588497
 30
0.0
 10
9.623128176
 20
9.3337142333
 30
0.0
 10
9.6231740856
 20
9.3339812212
 30
0.0
 10
9.6231291051
 20
9.3342464884
 30
0.0
 10
9.6231008345
 20
9.3346007782
 30
0.0
 10
9.6230365898
 20
9.3352205058
 30
0.0
 10
9.6229525342
 20
9.336105977
 30
0.0
 10
9.622848362
 20
9.3371684799
 30
0.0
 10
9.6227106203
 20
9.3385851724
 30
0.0
 10
9.6225380477
 20
9.3403560304
 30
0.0
 10
9.6222621527
 20
9.3431894074
 30
0.0
 10
9.6219172077
 20
9.3467311273
 30
0.0
 10
9.6215033084
 20
9.3509811919
 30
0.0
 10
9.621089392
 20
9.3552312554
 30
0.0
 10
9.6207444897
 20
9.3587729783
 30
0.0
 10
9.6204685091
 20
9.3616063491
 30
0.0
 10
9.6202961543
 20
9.363377223
 30
0.0
 10
9.6201579656
 20
9.3647938829
 30
0.0
 10
9.6200551586
 20
9.3658564852
 30
0.0
 10
9.6199668316
 20
9.3667416456
 30
0.0
 10
9.6199102121
 20
9.367361928
 30
0.0
 10
9.6198697241
 20
9.3677153287
 30
0.0
 10
9.6198622715
 20
9.3679833271
 30
0.0
 10
9.6197672325
 20
9.3682400571
 30
0.0
 10
9.6196710649
 20
9.3685862943
 30
0.0
 10
9.6194885374
 20
9.3691903781
 30
0.0
 10
9.6192352256
 20
9.3700543123
 30
0.0
 10
9.618928066
 20
9.3710906236
 30
0.0
 10
9.6185196326
 20
9.3724725151
 30
0.0
 10
9.6180087099
 20
9.3741998305
 30
0.0
 10
9.6171914464
 20
9.3769635625
 30
0.0
 10
9.6161697936
 20
9.380418218
 30
0.0
 10
9.6149438437
 20
9.3845638094
 30
0.0
 10
9.6137178775
 20
9.3887093969
 30
0.0
 10
9.6126962655
 20
9.3921640619
 30
0.0
 10
9.6118789204
 20
9.3949277749
 30
0.0
 10
9.6113682052
 20
9.3966551386
 30
0.0
 10
9.6109593458
 20
9.3980369311
 30
0.0
 10
9.6106534877
 20
9.399073545
 30
0.0
 10
9.6103961041
 20
9.3999365323
 30
0.0
 10
9.6102208454
 20
9.4005423066
 30
0.0
 10
9.6101130313
 20
9.4008858352
 30
0.0
 10
9.6100537665
 20
9.4011508851
 30
0.0
 10
9.6099119519
 20
9.4013876352
 30
0.0
 10
9.6097516601
 20
9.4017131734
 30
0.0
 10
9.6094577336
 20
9.402278266
 30
0.0
 10
9.6090448526
 20
9.4030879456
 30
0.0
 10
9.6085463931
 20
9.404058532
 30
0.0
 10
9.6078828291
 20
9.4053530066
 30
0.0
 10
9.607053015
 20
9.4069709768
 30
0.0
 10
9.6057255133
 20
9.4095597979
 30
0.0
 10
9.6040660667
 20
9.4127958004
 30
0.0
 10
9.6020747625
 20
9.4166790146
 30
0.0
 10
9.6000834427
 20
9.4205622225
 30
0.0
 10
9.5984240352
 20
9.423798241
 30
0.0
 10
9.5970964554
 20
9.4263870302
 30
0.0
 10
9.5962668398
 20
9.4280050814
 30
0.0
 10
9.5956028684
 20
9.4292993898
 30
0.0
 10
9.5951056534
 20
9.4302704838
 30
0.0
 10
9.5946888787
 20
9.4310785753
 30
0.0
 10
9.5944019031
 20
9.4316465029
 30
0.0
 10
9.5942304742
 20
9.4319674987
 30
0.0
 10
9.5941228691
 20
9.4322182015
 30
0.0
 10
9.5939351192
 20
9.4324308478
 30
0.0
 10
9.5937127415
 20
9.4327276506
 30
0.0
 10
9.5933105555
 20
9.4332408708
 30
0.0
 10
9.5927428137
 20
9.433977276
 30
0.0
 10
9.5920586087
 20
9.4348595783
 30
0.0
 10
9.5911473536
 20
9.4360364646
 30
0.0
 10
9.590007936
 20
9.4375074071
 30
0.0
 10
9.5881850629
 20
9.4398610075
 30
0.0
 10
9.5859064042
 20
9.4428029759
 30
0.0
 10
9.583172044
 20
9.4463333534
 30
0.0
 10
9.5804376704
 20
9.4498637209
 30
0.0
 10
9.578159045
 20
9.4528057143
 30
0.0
 10
9.5763361053
 20
9.4551592649
 30
0.0
 10
9.575196857
 20
9.4566303341
 30
0.0
 10
9.5742852544
 20
9.4578069602
 30
0.0
 10
9.5736021108
 20
9.4586900575
 30
0.0
 10
9.5730310485
 20
9.4594239752
 30
0.0
 10
9.57263479
 20
9.4599416359
 30
0.0
 10
9.572402915
 20
9.460231324
 30
0.0
 10
9.5722443378
 20
9.4604658247
 30
0.0
 10
9.5720271652
 20
9.4606344461
 30
0.0
 10
9.5717580405
 20
9.460882254
 30
0.0
 10
9.5712775495
 20
9.4613052114
 30
0.0
 10
9.5705961124
 20
9.4619150338
 30
0.0
 10
9.5697762569
 20
9.4626444247
 30
0.0
 10
9.5686838606
 20
9.4636177827
 30
0.0
 10
9.5673181103
 20
9.4648341937
 30
0.0
 10
9.5651330523
 20
9.4667806116
 30
0.0
 10
9.5624016806
 20
9.4692135785
 30
0.0
 10
9.5591240568
 20
9.4721331643
 30
0.0
 10
9.5558464227
 20
9.4750527369
 30
0.0
 10
9.553115077
 20
9.4774857366
 30
0.0
 10
9.550929967
 20
9.4794320889
 30
0.0
 10
9.5495643488
 20
9.4806486666
 30
0.0
 10
9.5484716814
 20
9.4816216826
 30
0.0
 10
9.547652654
 20
9.4823521186
 30
0.0
 10
9.5469686259
 20
9.482958671
 30
0.0
 10
9.5464927604
 20
9.4833874657
 30
0.0
 10
9.5462162245
 20
9.4836259208
 30
0.0
 10
9.5460218167
 20
9.4838232713
 30
0.0
 10
9.5457777389
 20
9.4839498704
 30
0.0
 10
9.5454696274
 20
9.4841433481
 30
0.0
 10
9.54492236
 20
9.4844704356
 30
0.0
 10
9.5441447696
 20
9.4849437151
 30
0.0
 10
9.5432098548
 20
9.4855090773
 30
0.0
 10
9.5419639327
 20
9.4862637924
 30
0.0
 10
9.5404063139
 20
9.4872068784
 30
0.0
 10
9.5379142448
 20
9.4887159882
 30
0.0
 10
9.5347991166
 20
9.4906023159
 30
0.0
 10
9.5310609816
 20
9.4928659366
 30
0.0
 10
9.5273228384
 20
9.4951295428
 30
0.0
 10
9.5242077304
 20
9.4970159067
 30
0.0
 10
9.5217156209
 20
9.498524944
 30
0.0
 10
9.5201581047
 20
9.4994682141
 30
0.0
 10
9.5189119722
 20
9.5002225515
 30
0.0
 10
9.5179776998
 20
9.5007890673
 30
0.0
 10
9.5171980996
 20
9.5012587376
 30
0.0
 10
9.5166544202
 20
9.501592268
 30
0.0
 10
9.5163405597
 20
9.5017754227
 30
0.0
 10
9.5161141408
 20
9.5019337307
 30
0.0
 10
9.5158534094
 20
9.5020119878
 30
0.0
 10
9.5155177361
 20
9.5021442532
 30
0.0
 10
9.5149247315
 20
9.5023627081
 30
0.0
 10
9.5140804974
 20
9.502681588
 30
0.0
 10
9.5130661686
 20
9.5030613326
 30
0.0
 10
9.5117141661
 20
9.5035686756
 30
0.0
 10
9.5100240137
 20
9.5042025061
 30
0.0
 10
9.5073198533
 20
9.5052168297
 30
0.0
 10
9.503939624
 20
9.5064846669
 30
0.0
 10
9.4998833618
 20
9.5080061024
 30
0.0
 10
9.4958270939
 20
9.509527522
 30
0.0
 10
9.492446879
 20
9.510795399
 30
0.0
 10
9.4897426898
 20
9.511809643
 30
0.0
 10
9.4880526107
 20
9.5124436757
 30
0.0
 10
9.4867004576
 20
9.5129506037
 30
0.0
 10
9.4856865889
 20
9.5133316163
 30
0.0
 10
9.4848409154
 20
9.5136465289
 30
0.0
 10
9.4842504803
 20
9.513872066
 30
0.0
 10
9.48391069
 20
9.5139929839
 30
0.0
 10
9.4836626048
 20
9.5141060972
 30
0.0
 10
9.4833886887
 20
9.5141334909
 30
0.0
 10
9.4830324774
 20
9.5141999158
 30
0.0
 10
9.4824049096
 20
9.5143022284
 30
0.0
 10
9.4815105789
 20
9.5144556725
 30
0.0
 10
9.4804364427
 20
9.514636688
 30
0.0
 10
9.4790045892
 20
9.5148791309
 30
0.0
 10
9.4772146599
 20
9.5151818116
 30
0.0
 10
9.4743508359
 20
9.5156663092
 30
0.0
 10
9.4707710344
 20
9.5162718596
 30
0.0
 10
9.4664752818
 20
9.5169985508
 30
0.0
 10
9.4621795267
 20
9.5177252338
 30
0.0
 10
9.4564518541
 20
9.5186941473
 30
0.0
 10
9.4521560994
 20
9.5194208318
 30
0.0
 10
9.449292263
 20
9.5199052883
 30
0.0
  0
SPLINE
  5
38B
100
AcDbEntity
  8
0
100
AcDbSpline
 62
4
  6
CONTINUOUS
 70
0
 71
3
 72
313
 73
309
 74
0
 42
0.0000001
 43
0.0000001
 44
0.0000000001
 40
0.0
 40
0.0
 40
0.0
 40
0.0
 40
0.015625
 40
0.0234375
 40
0.03125
 40
0.0390625
 40
0.046875
 40
0.05078125
 40
0.0546875
 40
0.056640625
 40
0.05859375
 40
0.060546875
 40
0.0615234375
 40
0.0620117188
 40
0.0625
 40
0.0629882812
 40
0.0634765625
 40
0.064453125
 40
0.06640625
 40
0.068359375
 40
0.0703125
 40
0.07421875
 40
0.078125
 40
0.0859375
 40
0.09375
 40
0.1015625
 40
0.109375
 40
0.11328125
 40
0.1171875
 40
0.119140625
 40
0.12109375
 40
0.123046875
 40
0.1240234375
 40
0.1245117188
 40
0.125
 40
0.1254882812
 40
0.1259765625
 40
0.126953125
 40
0.12890625
 40
0.130859375
 40
0.1328125
 40
0.13671875
 40
0.140625
 40
0.1484375
 40
0.15625
 40
0.1640625
 40
0.171875
 40
0.17578125
 40
0.1796875
 40
0.181640625
 40
0.18359375
 40
0.185546875
 40
0.1865234375
 40
0.1870117188
 40
0.1875
 40
0.1879882812
 40
0.1884765625
 40
0.189453125
 40
0.19140625
 40
0.193359375
 40
0.1953125
 40
0.19921875
 40
0.203125
 40
0.2109375
 40
0.21875
 40
0.2265625
 40
0.234375
 40
0.23828125
 40
0.2421875
 40
0.244140625
 40
0.24609375
 40
0.248046875
 40
0.2490234375
 40
0.2495117188
 40
0.25
 40
0.2504882812
 40
0.2509765625
 40
0.251953125
 40
0.25390625
 40
0.255859375
 40
0.2578125
 40
0.26171875
 40
0.265625
 40
0.2734375
 40
0.28125
 40
0.2890625
 40
0.296875
 40
0.30078125
 40
0.3046875
 40
0.306640625
 40
0.30859375
 40
0.310546875
 40
0.3115234375
 40
0.3120117188
 40
0.3125
 40
0.3129882812
 40
0.3134765625
 40
0.314453125
 40
0.31640625
 40
0.318359375
 40
0.3203125
 40
0.32421875
 40
0.328125
 40
0.3359375
 40
0.34375
 40
0.3515625
 40
0.359375
 40
0.36328125
 40
0.3671875
 40
0.369140625
 40
0.37109375
 40
0.373046875
 40
0.3740234375
 40
0.3745117188
 40
0.375
 40
0.3754882812
 40
0.3759765625
 40
0.376953125
 40
0.37890625
 40
0.380859375
 40
0.3828125
 40
0.38671875
 40
0.390625
 40
0.3984375
 40
0.40625
 40
0.4140625
 40
0.421875
 40
0.42578125
 40
0.4296875
 40
0.431640625
 40
0.43359375
 40
0.435546875
 40
0.4365234375
 40
0.4370117188
 40
0.4375
 40
0.4379882812
 40
0.4384765625
 40
0.439453125
 40
0.44140625
 40
0.443359375
 40
0.4453125
 40
0.44921875
 40
0.453125
 40
0.4609375
 40
0.46875
 40
0.4765625
 40
0.484375
 40
0.48828125
 40
0.4921875
 40
0.494140625
 40
0.49609375
 40
0.498046875
 40
0.4990234375
 40
0.4995117188
 40
0.5
 40
0.5004882812
 40
0.5009765625
 40
0.501953125
 40
0.50390625
 40
0.505859375
 40
0.5078125
 40
0.51171875
 40
0.515625
 40
0.5234375
 40
0.53125
 40
0.5390625
 40
0.546875
 40
0.55078125
 40
0.5546875
 40
0.556640625
 40
0.55859375
 40
0.560546875
 40
0.5615234375
 40
0.5620117188
 40
0.5625
 40
0.5629882812
 40
0.5634765625
 40
0.564453125
 40
0.56640625
 40
0.568359375
 40
0.5703125
 40
0.57421875
 40
0.578125
 40
0.5859375
 40
0.59375
 40
0.6015625
 40
0.609375
 40
0.61328125
 40
0.6171875
 40
0.619140625
 40
0.62109375
 40
0.623046875
 40
0.6240234375
 40
0.6245117188
 40
0.625
 40
0.6254882812
 40
0.6259765625
 40
0.626953125
 40
0.62890625
 40
0.630859375
 40
0.6328125
 40
0.63671875
 40
0.640625
 40
0.6484375
 40
0.65625
 40
0.6640625
 40
0.671875
 40
0.67578125
 40
0.6796875
 40
0.681640625
 40
0.68359375
 40
0.685546875
 40
0.6865234375
 40
0.6870117188
 40
0.6875
 40
0.6879882812
 40
0.6884765625
 40
0.689453125
 40
0.69140625
 40
0.693359375
 40
0.6953125
 40
0.69921875
 40
0.703125
 40
0.7109375
 40
0.71875
 40
0.7265625
 40
0.734375
 40
0.73828125
 40
0.7421875
 40
0.744140625
 40
0.74609375
 40
0.748046875
 40
0.7490234375
 40
0.7495117188
 40
0.75
 40
0.7504882812
 40
0.7509765625
 40
0.751953125
 40
0.75390625
 40
0.755859375
 40
0.7578125
 40
0.76171875
 40
0.765625
 40
0.7734375
 40
0.78125
 40
0.7890625
 40
0.796875
 40
0.80078125
 40
0.8046875
 40
0.806640625
 40
0.80859375
 40
0.810546875
 40
0.8115234375
 40
0.8120117188
 40
0.8125
 40
0.8129882812
 40
0.8134765625
 40
0.814453125
 40
0.81640625
 40
0.818359375
 40
0.8203125
 40
0.82421875
 40
0.828125
 40
0.8359375
 40
0.84375
 40
0.8515625
 40
0.859375
 40
0.86328125
 40
0.8671875
 40
0.869140625
 40
0.87109375
 40
0.873046875
 40
0.8740234375
 40
0.8745117188
 40
0.875
 40
0.8754882812
 40
0.8759765625
 40
0.876953125
 40
0.87890625
 40
0.880859375
 40
0.8828125
 40
0.88671875
 40
0.890625
 40
0.8984375
 40
0.90625
 40
0.9140625
 40
0.921875
 40
0.92578125
 40
0.9296875
 40
0.931640625
 40
0.93359375
 40
0.935546875
 40
0.9365234375
 40
0.9370117188
 40
0.9375
 40
0.9379882812
 40
0.9384765625
 40
0.939453125
 40
0.94140625
 40
0.943359375
 40
0.9453125
 40
0.94921875
 40
0.953125
 40
0.9609375
 40
0.96875
 40
0.9765625
 40
0.984375
 40
1.0
 40
1.0
 40
1.0
 40
1.0
 10
9.4492922782
 20
9.5199052872
 30
0.0
 10
9.4464780384
 20
9.5198245168
 30
0.0
 10
9.4422566787
 20
9.5197033614
 30
0.0
 10
9.4366281992
 20
9.5195418199
 30
0.0
 10
9.4324068391
 20
9.519420666
 30
0.0
 10
9.4281854807
 20
9.5192995037
 30
0.0
 10
9.4246676769
 20
9.5191985615
 30
0.0
 10
9.4218534454
 20
9.5191177485
 30
0.0
 10
9.4200945243
 20
9.5190673753
 30
0.0
 10
9.4186874478
 20
9.5190267678
 30
0.0
 10
9.4176319753
 20
9.518997158
 30
0.0
 10
9.4167529404
 20
9.5189697923
 30
0.0
 10
9.4161365845
 20
9.5189559172
 30
0.0
 10
9.4157859917
 20
9.5189397429
 30
0.0
 10
9.4155185101
 20
9.5189508402
 30
0.0
 10
9.4152683711
 20
9.5188731484
 30
0.0
 10
9.4149288031
 20
9.51880053
 30
0.0
 10
9.4143373777
 20
9.5186590179
 30
0.0
 10
9.4134910107
 20
9.5184644018
 30
0.0
 10
9.412476001
 20
9.5182276335
 30
0.0
 10
9.4111224344
 20
9.5179130702
 30
0.0
 10
9.4094305516
 20
9.5175194799
 30
0.0
 10
9.406723497
 20
9.5168899514
 30
0.0
 10
9.4033396934
 20
9.5161029661
 30
0.0
 10
9.399279122
 20
9.5151586178
 30
0.0
 10
9.3952185555
 20
9.5142142529
 30
0.0
 10
9.3918347395
 20
9.5134273093
 30
0.0
 10
9.3891277095
 20
9.5127976974
 30
0.0
 10
9.3874357641
 20
9.512404319
 30
0.0
 10
9.3860823262
 20
9.5120893208
 30
0.0
 10
9.3850669235
 20
9.5118538811
 30
0.0
 10
9.3842217859
 20
9.511655108
 30
0.0
 10
9.3836281658
 20
9.511521017
 30
0.0
 10
9.3832921142
 20
9.5114365082
 30
0.0
 10
9.3830311743
 20
9.5113953396
 30
0.0
 10
9.382804259
 20
9.5112692617
 30
0.0
 10
9.3824898371
 20
9.5111307751
 30
0.0
 10
9.3819451284
 20
9.5108746243
 30
0.0
 10
9.3811640822
 20
9.5105159089
 30
0.0
 10
9.3802280641
 20
9.5100823626
 30
0.0
 10
9.3789796078
 20
9.5095053793
 30
0.0
 10
9.3774191854
 20
9.5087837809
 30
0.0
 10
9.3749224269
 20
9.5076294299
 30
0.0
 10
9.3718015073
 20
9.5061864199
 30
0.0
 10
9.3680563905
 20
9.5044548404
 30
0.0
 10
9.3643112812
 20
9.5027232448
 30
0.0
 10
9.361190343
 20
9.5012802751
 30
0.0
 10
9.3586936217
 20
9.5001258435
 30
0.0
 10
9.3571331046
 20
9.4994044501
 30
0.0
 10
9.3558848427
 20
9.498827046
 30
0.0
 10
9.3549482307
 20
9.4983947853
 30
0.0
 10
9.3541690426
 20
9.4980320474
 30
0.0
 10
9.3536210169
 20
9.4977830775
 30
0.0
 10
9.3533119097
 20
9.4976330853
 30
0.0
 10
9.3530686693
 20
9.4975423489
 30
0.0
 10
9.3528690436
 20
9.4973684432
 30
0.0
 10
9.3525876626
 20
9.4971655793
 30
0.0
 10
9.3521023341
 20
9.4967970509
 30
0.0
 10
9.351405302
 20
9.4962776485
 30
0.0
 10
9.3505704495
 20
9.4956513408
 30
0.0
 10
9.3494567589
 20
9.4948173203
 30
0.0
 10
9.3480648354
 20
9.493774433
 30
0.0
 10
9.3458376516
 20
9.4921060155
 30
0.0
 10
9.3430537087
 20
9.4900204239
 30
0.0
 10
9.3397129597
 20
9.4875177454
 30
0.0
 10
9.3363722217
 20
9.4850150529
 30
0.0
 10
9.3335882515
 20
9.4829294965
 30
0.0
 10
9.3313611222
 20
9.4812610086
 30
0.0
 10
9.3299690601
 20
9.4802183002
 30
0.0
 10
9.3288556538
 20
9.4793839126
 30
0.0
 10
9.3280199328
 20
9.4787587264
 30
0.0
 10
9.3273256183
 20
9.4782358151
 30
0.0
 10
9.3268354382
 20
9.4778735507
 30
0.0
 10
9.3265618307
 20
9.4776606504
 30
0.0
 10
9.3263383275
 20
9.4775175731
 30
0.0
 10
9.326184767
 20
9.47731105
 30
0.0
 10
9.3259556229
 20
9.4770578165
 30
0.0
 10
9.3255659877
 20
9.4766043469
 30
0.0
 10
9.3250034232
 20
9.4759619238
 30
0.0
 10
9.3243308894
 20
9.4751887086
 30
0.0
 10
9.3234332893
 20
9.474158561
 30
0.0
 10
9.3223115934
 20
9.4728706006
 30
0.0
 10
9.3205167099
 20
9.4708100182
 30
0.0
 10
9.3182731642
 20
9.4682342369
 30
0.0
 10
9.3155808824
 20
9.4651433236
 30
0.0
 10
9.3128886145
 20
9.4620523988
 30
0.0
 10
9.3106450342
 20
9.459476646
 30
0.0
 10
9.3088502199
 20
9.4574160068
 30
0.0
 10
9.3077283481
 20
9.4561281906
 30
0.0
 10
9.3068311089
 20
9.455097747
 30
0.0
 10
9.3061574726
 20
9.4543254364
 30
0.0
 10
9.3055983577
 20
9.453680183
 30
0.0
 10
9.3052025643
 20
9.4532317659
 30
0.0
 10
9.3049832871
 20
9.452970437
 30
0.0
 10
9.3047994189
 20
9.4527887804
 30
0.0
 10
9.3046897466
 20
9.4525523085
 30
0.0
 10
9.3045176365
 20
9.4522561329
 30
0.0
 10
9.3042285021
 20
9.451728917
 30
0.0
 10
9.3038091487
 20
9.4509804089
 30
0.0
 10
9.303308623
 20
9.4500802056
 30
0.0
 10
9.302640313
 20
9.4488806309
 30
0.0
 10
9.3018052482
 20
9.4473809242
 30
0.0
 10
9.300468964
 20
9.4449815266
 30
0.0
 10
9.2987986712
 20
9.4419822337
 30
0.0
 10
9.296794291
 20
9.4383831028
 30
0.0
 10
9.2947899259
 20
9.4347839629
 30
0.0
 10
9.2931195955
 20
9.4317846927
 30
0.0
 10
9.2917833865
 20
9.4293852496
 30
0.0
 10
9.2909481306
 20
9.4278856585
 30
0.0
 10
9.2902802127
 20
9.4266858464
 30
0.0
 10
9.289778489
 20
9.4257863686
 30
0.0
 10
9.2893628841
 20
9.4250355907
 30
0.0
 10
9.289067058
 20
9.4245124269
 30
0.0
 10
9.2889056696
 20
9.4242097587
 30
0.0
 10
9.2887630638
 20
9.4239932296
 30
0.0
 10
9.2887028885
 20
9.4237366714
 30
0.0
 10
9.2885939021
 20
9.4234085563
 30
0.0
 10
9.2884165723
 20
9.4228278495
 30
0.0
 10
9.2881562402
 20
9.4220016695
 30
0.0
 10
9.2878468395
 20
9.4210087978
 30
0.0
 10
9.2874332582
 20
9.4196854772
 30
0.0
 10
9.2869166401
 20
9.4180311524
 30
0.0
 10
9.2860898507
 20
9.41538433
 30
0.0
 10
9.2850564332
 20
9.4120757685
 30
0.0
 10
9.2838163005
 20
9.4081055098
 30
0.0
 10
9.282576184
 20
9.4041352442
 30
0.0
 10
9.2815427257
 20
9.4008266999
 30
0.0
 10
9.2807160179
 20
9.3981798431
 30
0.0
 10
9.2801991925
 20
9.396525606
 30
0.0
 10
9.2797860367
 20
9.3952021053
 30
0.0
 10
9.2794753361
 20
9.3942097837
 30
0.0
 10
9.2792190711
 20
9.3933818823
 30
0.0
 10
9.2790344808
 20
9.3928042486
 30
0.0
 10
9.2789371276
 20
9.3924712097
 30
0.0
 10
9.278841219
 20
9.3922297758
 30
0.0
 10
9.2788328214
 20
9.3919564423
 30
0.0
 10
9.2787910999
 20
9.3916031245
 30
0.0
 10
9.2787323093
 20
9.3909796341
 30
0.0
 10
9.2786408872
 20
9.390091644
 30
0.0
 10
9.2785343633
 20
9.3890248957
 30
0.0
 10
9.2783912198
 20
9.3876029698
 30
0.0
 10
9.2782126711
 20
9.3858254238
 30
0.0
 10
9.2779267803
 20
9.3829814276
 30
0.0
 10
9.2775694904
 20
9.3794264058
 30
0.0
 10
9.2771407088
 20
9.3751603911
 30
0.0
 10
9.2767119444
 20
9.3708943734
 30
0.0
 10
9.2763546116
 20
9.3673393588
 30
0.0
 10
9.2760688065
 20
9.3644953482
 30
0.0
 10
9.2758900402
 20
9.362717839
 30
0.0
 10
9.2757473434
 20
9.3612958375
 30
0.0
 10
9.2756394549
 20
9.3602293201
 30
0.0
 10
9.2755523023
 20
9.3593406077
 30
0.0
 10
9.2754858898
 20
9.3587184067
 30
0.0
 10
9.2754563805
 20
9.358363023
 30
0.0
 10
9.2754104708
 20
9.3580960352
 30
0.0
 10
9.2754554514
 20
9.3578307679
 30
0.0
 10
9.2754837219
 20
9.3574764781
 30
0.0
 10
9.2755479667
 20
9.3568567506
 30
0.0
 10
9.2756320223
 20
9.3559712793
 30
0.0
 10
9.2757361945
 20
9.3549087764
 30
0.0
 10
9.2758739362
 20
9.353492084
 30
0.0
 10
9.2760465087
 20
9.351721226
 30
0.0
 10
9.2763224038
 20
9.3488878489
 30
0.0
 10
9.2766673488
 20
9.3453461291
 30
0.0
 10
9.2770812481
 20
9.3410960644
 30
0.0
 10
9.2774951645
 20
9.336846001
 30
0.0
 10
9.2778400668
 20
9.333304278
 30
0.0
 10
9.2781160474
 20
9.3304709072
 30
0.0
 10
9.2782884022
 20
9.3287000334
 30
0.0
 10
9.2784265908
 20
9.3272833735
 30
0.0
 10
9.2785293979
 20
9.3262207712
 30
0.0
 10
9.2786177248
 20
9.3253356108
 30
0.0
 10
9.2786743444
 20
9.3247153283
 30
0.0
 10
9.2787148324
 20
9.3243619277
 30
0.0
 10
9.278722285
 20
9.3240939292
 30
0.0
 10
9.278817324
 20
9.3238371993
 30
0.0
 10
9.2789134916
 20
9.3234909621
 30
0.0
 10
9.2790960191
 20
9.3228868783
 30
0.0
 10
9.2793493309
 20
9.3220229441
 30
0.0
 10
9.2796564904
 20
9.3209866328
 30
0.0
 10
9.2800649239
 20
9.3196047412
 30
0.0
 10
9.2805758466
 20
9.3178774259
 30
0.0
 10
9.2813931101
 20
9.3151136938
 30
0.0
 10
9.2824147629
 20
9.3116590383
 30
0.0
 10
9.2836407128
 20
9.307513447
 30
0.0
 10
9.284866679
 20
9.3033678594
 30
0.0
 10
9.285888291
 20
9.2999131945
 30
0.0
 10
9.2867056361
 20
9.2971494814
 30
0.0
 10
9.2872163513
 20
9.2954221178
 30
0.0
 10
9.2876252107
 20
9.2940403253
 30
0.0
 10
9.2879310688
 20
9.2930037114
 30
0.0
 10
9.2881884524
 20
9.2921407241
 30
0.0
 10
9.2883637111
 20
9.2915349498
 30
0.0
 10
9.2884715252
 20
9.2911914212
 30
0.0
 10
9.28853079
 20
9.2909263713
 30
0.0
 10
9.2886726045
 20
9.2906896211
 30
0.0
 10
9.2888328964
 20
9.290364083
 30
0.0
 10
9.2891268229
 20
9.2897989904
 30
0.0
 10
9.2895397039
 20
9.2889893107
 30
0.0
 10
9.2900381634
 20
9.2880187244
 30
0.0
 10
9.2907017274
 20
9.2867242498
 30
0.0
 10
9.2915315415
 20
9.2851062796
 30
0.0
 10
9.2928590432
 20
9.2825174585
 30
0.0
 10
9.2945184898
 20
9.2792814559
 30
0.0
 10
9.296509794
 20
9.2753982417
 30
0.0
 10
9.2985011138
 20
9.2715150339
 30
0.0
 10
9.3001605213
 20
9.2682790154
 30
0.0
 10
9.3014881011
 20
9.2656902261
 30
0.0
 10
9.3023177167
 20
9.264072175
 30
0.0
 10
9.3029816881
 20
9.2627778665
 30
0.0
 10
9.3034789031
 20
9.2618067726
 30
0.0
 10
9.3038956778
 20
9.260998681
 30
0.0
 10
9.3041826534
 20
9.2604307535
 30
0.0
 10
9.3043540823
 20
9.2601097576
 30
0.0
 10
9.3044616874
 20
9.2598590549
 30
0.0
 10
9.3046494373
 20
9.2596464086
 30
0.0
 10
9.304871815
 20
9.2593496057
 30
0.0
 10
9.305274001
 20
9.2588363855
 30
0.0
 10
9.3058417428
 20
9.2580999803
 30
0.0
 10
9.3065259477
 20
9.2572176781
 30
0.0
 10
9.3074372029
 20
9.2560407917
 30
0.0
 10
9.3085766204
 20
9.2545698493
 30
0.0
 10
9.3103994936
 20
9.2522162489
 30
0.0
 10
9.3126781523
 20
9.2492742804
 30
0.0
 10
9.3154125125
 20
9.2457439029
 30
0.0
 10
9.3181468861
 20
9.2422135354
 30
0.0
 10
9.3204255114
 20
9.2392715421
 30
0.0
 10
9.3222484512
 20
9.2369179915
 30
0.0
 10
9.3233876995
 20
9.2354469223
 30
0.0
 10
9.3242993021
 20
9.2342702961
 30
0.0
 10
9.3249824457
 20
9.2333871989
 30
0.0
 10
9.3255535079
 20
9.2326532811
 30
0.0
 10
9.3259497665
 20
9.2321356204
 30
0.0
 10
9.3261816415
 20
9.2318459323
 30
0.0
 10
9.3263402187
 20
9.2316114317
 30
0.0
 10
9.3265573913
 20
9.2314428103
 30
0.0
 10
9.326826516
 20
9.2311950023
 30
0.0
 10
9.327307007
 20
9.2307720449
 30
0.0
 10
9.327988444
 20
9.2301622226
 30
0.0
 10
9.3288082996
 20
9.2294328317
 30
0.0
 10
9.3299006959
 20
9.2284594736
 30
0.0
 10
9.3312664462
 20
9.2272430626
 30
0.0
 10
9.3334515042
 20
9.2252966448
 30
0.0
 10
9.3361828759
 20
9.2228636778
 30
0.0
 10
9.3394604996
 20
9.2199440921
 30
0.0
 10
9.3427381338
 20
9.2170245195
 30
0.0
 10
9.3454694795
 20
9.2145915197
 30
0.0
 10
9.3476545895
 20
9.2126451675
 30
0.0
 10
9.3490202077
 20
9.2114285898
 30
0.0
 10
9.3501128751
 20
9.2104555738
 30
0.0
 10
9.3509319025
 20
9.2097251378
 30
0.0
 10
9.3516159306
 20
9.2091185853
 30
0.0
 10
9.3520917961
 20
9.2086897906
 30
0.0
 10
9.352368332
 20
9.2084513355
 30
0.0
 10
9.3525627398
 20
9.2082539851
 30
0.0
 10
9.3528068175
 20
9.208127386
 30
0.0
 10
9.3531149291
 20
9.2079339083
 30
0.0
 10
9.3536621965
 20
9.2076068207
 30
0.0
 10
9.3544397868
 20
9.2071335413
 30
0.0
 10
9.3553747017
 20
9.206568179
 30
0.0
 10
9.3566206238
 20
9.205813464
 30
0.0
 10
9.3581782425
 20
9.2048703779
 30
0.0
 10
9.3606703117
 20
9.2033612682
 30
0.0
 10
9.3637854399
 20
9.2014749405
 30
0.0
 10
9.3675235749
 20
9.1992113198
 30
0.0
 10
9.3712617181
 20
9.1969477136
 30
0.0
 10
9.374376826
 20
9.1950613497
 30
0.0
 10
9.3768689355
 20
9.1935523123
 30
0.0
 10
9.3784264518
 20
9.1926090423
 30
0.0
 10
9.3796725842
 20
9.1918547048
 30
0.0
 10
9.3806068567
 20
9.1912881891
 30
0.0
 10
9.3813864569
 20
9.1908185187
 30
0.0
 10
9.3819301363
 20
9.1904849883
 30
0.0
 10
9.3822439968
 20
9.1903018336
 30
0.0
 10
9.3824704157
 20
9.1901435256
 30
0.0
 10
9.3827311471
 20
9.1900652686
 30
0.0
 10
9.3830668204
 20
9.1899330031
 30
0.0
 10
9.383659825
 20
9.1897145483
 30
0.0
 10
9.3845040591
 20
9.1893956684
 30
0.0
 10
9.3855183879
 20
9.1890159238
 30
0.0
 10
9.3868703904
 20
9.1885085808
 30
0.0
 10
9.3885605428
 20
9.1878747502
 30
0.0
 10
9.3912647032
 20
9.1868604267
 30
0.0
 10
9.3946449325
 20
9.1855925895
 30
0.0
 10
9.3987011947
 20
9.184071154
 30
0.0
 10
9.4027574626
 20
9.1825497344
 30
0.0
 10
9.4061376775
 20
9.1812818574
 30
0.0
 10
9.4088418667
 20
9.1802676134
 30
0.0
 10
9.4105319458
 20
9.1796335806
 30
0.0
 10
9.4118840989
 20
9.1791266527
 30
0.0
 10
9.4128979676
 20
9.1787456401
 30
0.0
 10
9.4137436411
 20
9.1784307274
 30
0.0
 10
9.4143340762
 20
9.1782051903
 30
0.0
 10
9.4146738665
 20
9.1780842725
 30
0.0
 10
9.4149219517
 20
9.1779711592
 30
0.0
 10
9.4151958678
 20
9.1779437655
 30
0.0
 10
9.4155520791
 20
9.1778773406
 30
0.0
 10
9.4161796469
 20
9.177775028
 30
0.0
 10
9.4170739776
 20
9.1776215838
 30
0.0
 10
9.4181481138
 20
9.1774405684
 30
0.0
 10
9.4195799673
 20
9.1771981255
 30
0.0
 10
9.4213698966
 20
9.1768954448
 30
0.0
 10
9.4242337206
 20
9.1764109472
 30
0.0
 10
9.4278135221
 20
9.1758053968
 30
0.0
 10
9.4321092747
 20
9.1750787056
 30
0.0
 10
9.4364050298
 20
9.1743520226
 30
0.0
 10
9.4421327024
 20
9.1733831091
 30
0.0
 10
9.4464284571
 20
9.1726564246
 30
0.0
 10
9.4492922934
 20
9.1721719681
 30
0.0
  0
ENDSEC
  0
SECTION
  2
OBJECTS
  0
DICTIONARY
  5
C
100
AcDbDictionary
280
0
281
1
  3
ACAD_GROUP
350
D
  3
ACAD_MLINESTYLE
350
17
  3
ACAD_LAYOUT
350
1A
  3
ACAD_PLOTSETTINGS
350
19
  3
ACAD_PLOTSTYLENAME
350
E
  3
ACAD_IMAGE_DICT
350
       38D
  3
ACAD_IMAGE_VARS
350
       38E
  3
ACAD_TABLESTYLE
350
       38F
  0
IMAGEDEF_REACTOR
  5
38C
100
AcDbRasterImageDefReactor
 90
2
330
28A
  0
DICTIONARY
  5
D
102
{ACAD_REACTORS
330
C
102
}
100
AcDbDictionary
280
0
281
1
  0
ACDBDICTIONARYWDFLT
  5
E
102
{ACAD_REACTORS
330
C
102
}
100
AcDbDictionary
281
1
  3
Normal
350
F
100
AcDbDictionaryWithDefault
340
F
  0
DICTIONARY
  5
38D
330
C
100
AcDbDictionary
281
1
  3
CML_assy_2_img_1
350
       392
  0
RASTERVARIABLES
  5
38E
330
C
100
AcDbRasterVariables
 90
0
 70
0
 71
1
 72
5
  0
DICTIONARY
  5
17
102
{ACAD_REACTORS
330
C
102
}
100
AcDbDictionary
280
0
281
1
  3
Standard
350
18
  0
DICTIONARY
  5
38F
330
C
100
AcDbDictionary
281
1
  3
Standard
350
       393
  3
Standard1
350
       394
  0
DICTIONARY
  5
19
102
{ACAD_REACTORS
330
C
102
}
100
AcDbDictionary
281
1
  0
DICTIONARY
  5
1A
102
{ACAD_REACTORS
330
C
102
}
100
AcDbDictionary
281
1
  3
Model
350
390
  3
Layout1
350
391
  0
ACDBPLACEHOLDER
  5
F
102
{ACAD_REACTORS
330
E
102
}
  0
MLINESTYLE
  5
18
102
{ACAD_REACTORS
330
17
102
}
100
AcDbMlineStyle
  2
STANDARD
 70
0
  3

 62
256
 51
90.0
 52
90.0
 71
2
 49
0.5
 62
256
  6
BYLAYER
 49
-0.5
 62
256
  6
BYLAYER
  0
LAYOUT
  5
390
102
{ACAD_REACTORS
330
1A
102
}
100
AcDbPlotSettings
  1

  2
none_device
  4
ANSI_C_(22.00_x_17.00_Inches)
  6

 40
0.0
 41
0.0
 42
0.0
 43
0.0
 44
558.8
 45
431.8
 46
0.0
 47
0.0
 48
0.0
 49
0.0
140
0.0
141
0.0
142
1.0
143
1.0
 70
1024
 72
0
 73
0
 74
0
  7

 75
0
147
1.0
148
0.0
149
0.0
100
AcDbLayout
  1
Model
 70
0
 71
0
 10
0.0
 20
0.0
 11
22.0
 21
17.0
 12
0.0
 22
0.0
 32
0.0
 14
0.0
 24
0.0
 34
0.0
 15
0.0
 25
0.0
 35
0.0
146
0.0
 13
0.0
 23
0.0
 33
0.0
 16
1.0
 26
0.0
 36
0.0
 17
0.0
 27
1.0
 37
0.0
 76
0
330
20C
345
0
346
0
  0
LAYOUT
  5
391
102
{ACAD_REACTORS
330
1A
102
}
100
AcDbPlotSettings
  1

  2
none_device
  4
ANSI_C_(22.00_x_17.00_Inches)
  6

 40
0.0
 41
0.0
 42
0.0
 43
0.0
 44
558.8
 45
431.8
 46
0.0
 47
0.0
 48
0.0
 49
0.0
140
0.0
141
0.0
142
1.0
143
1.0
 70
0
 72
0
 73
0
 74
0
  7

 75
0
147
1.0
148
0.0
149
0.0
100
AcDbLayout
  1
Layout1
 70
0
 71
1
 10
0.0
 20
0.0
 11
22.0
 21
17.0
 12
0.0
 22
0.0
 32
0.0
 14
0.0
 24
0.0
 34
0.0
 15
0.0
 25
0.0
 35
0.0
146
0.0
 13
0.0
 23
0.0
 33
0.0
 16
1.0
 26
0.0
 36
0.0
 17
0.0
 27
1.0
 37
0.0
 76
0
330
20D
345
0
346
0
  0
IMAGEDEF
  5
392
102
{ACAD_REACTORS
330
38D
330
38C
102
}
100
AcDbRasterImageDef
 90
0
  1
CML_assy_2_img_1.png
 10
369.0
 20
92.0
 11
0.0066666667
 21
0.0066666667
280
1
281
0
  0
TABLESTYLE
  5
393
102
{ACAD_REACTORS
330
38F
330
28D
330
28E
102
}
330
38F
100
AcDbTableStyle
  3
Standard
 70
0
 71
0
 40
0.06
 41
0.06
280
1
281
1
  7
Standard
140
0.18
170
1
 62
0
 63
7
283
0
  7
Standard
140
0.18
170
1
 62
0
 63
7
283
0
  7
Standard
140
0.18
170
1
 62
0
 63
7
283
0
  0
TABLESTYLE
  5
394
102
{ACAD_REACTORS
330
38F
330
28C
102
}
330
38F
100
AcDbTableStyle
  3
Standard1
 70
1
 71
0
 40
0.06
 41
0.06
280
1
281
1
  7
Standard
140
0.18
170
1
 62
0
 63
7
283
0
  7
Standard
140
0.18
170
1
 62
0
 63
7
283
0
  7
Standard
140
0.18
170
1
 62
0
 63
7
283
0
  0
ENDSEC
  0
EOF
