999
DXF file: CMJ_assy_2.dxf
999
Pro/ENGINEER 2014200 by Parametric Technology Corporation
  0
SECTION
  2
HEADER
  9
$ACADVER
  1
AC1021
  9
$DWGCODEPAGE
  3
ANSI_1252
  9
$EXTMAX
 10
22.0
 20
17.0
 30
0.0
  9
$EXTMIN
 10
0.0
 20
0.0
 30
0.0
  9
$LIMMIN
 10
0.0
 20
0.0
  9
$LIMMAX
 10
22.0
 20
17.0
  9
$VIEWCTR
 10
11.0
 20
8.5
  9
$VIEWSIZE
 40
17.0
  9
$CLAYER
  8
0
  9
$LTSCALE
 40
1.21
  9
$CELTYPE
  6
BYLAYER
  9
$DIMSCALE
 40
1.0
  9
$DIMASZ
 40
0.1875
  9
$DIMEXO
 40
0.0625
  9
$DIMDLI
 40
0.836
  9
$DIMEXE
 40
0.125
  9
$DIMCEN
 40
0.198
  9
$DIMLFAC
 40
1.0
  9
$DIMBLK
  1
_FILLED
  9
$DIMTXT
 40
0.1
  9
$DIMTOL
 70
0
  9
$DIMLIM
 70
0
  9
$DIMTFAC
 40
1.0
  9
$DIMGAP
 40
0.09
  9
$DIMDSEP
 70
46
  9
$AUNITS
 70
0
  9
$PDMODE
 70
3
  9
$PDSIZE
 40
0.3125
  9
$HANDSEED
  5
388
  9
$TILEMODE
 70
1
  9
$MEASUREMENT
 70
0
  9
$INSUNITS
 70
1
  0
ENDSEC
  0
SECTION
  2
CLASSES
  0
CLASS
  1
ACDBDICTIONARYWDFLT
  2
AcDbDictionaryWithDefault
  3
AutoCAD 2000
 90
0
 91
1
280
0
281
0
  0
CLASS
  1
ACDBPLACEHOLDER
  2
AcDbPlaceHolder
  3
AutoCAD 2000
 90
0
 91
1
280
0
281
0
  0
CLASS
  1
LAYOUT
  2
AcDbLayout
  3
AutoCAD 2000
 90
0
 91
0
280
0
281
0
  0
CLASS
  1
RASTERVARIABLES
  2
AcDbRasterVariables
  3
ISM
 90
0
 91
1
280
0
281
0
  0
CLASS
  1
IMAGEDEF
  2
AcDbRasterImageDef
  3
ISM
 90
0
 91
1
280
0
281
0
  0
CLASS
  1
IMAGEDEF_REACTOR
  2
AcDbRasterImageDefReactor
  3
ISM
 90
0
 91
1
280
0
281
0
  0
CLASS
  1
IMAGE
  2
AcDbRasterImage
  3
ISM
 90
127
 91
1
280
0
281
1
  0
CLASS
  1
TABLESTYLE
  2
AcDbTableStyle
  3
ObjectDBX Classes
 90
2047
 91
1
280
0
281
0
  0
CLASS
  1
ACAD_TABLE
  2
AcDbTable
  3
ObjectDBX Classes
 90
1025
 91
3
280
0
281
1
  0
ENDSEC
  0
SECTION
  2
TABLES
  0
TABLE
  2
VPORT
  5
8
100
AcDbSymbolTable
 70
2
  0
VPORT
  5
1F4
100
AcDbSymbolTableRecord
100
AcDbViewportTableRecord
  2
*ACTIVE
 70
0
 10
0.0
 20
0.0
 11
1.0
 21
1.0
 12
11.0
 22
8.5
 13
0.0
 23
0.0
 14
1.0
 24
1.0
 15
0.0
 25
0.0
 16
0.0
 26
0.0
 36
1.0
 17
0.0
 27
0.0
 37
0.0
 40
17.0
 41
1.2941176471
 42
50.0
 43
0.0
 44
0.0
 50
0.0
 51
0.0
 71
0
 72
100
 73
1
 74
1
 75
0
 76
0
 77
0
 78
0
  0
ENDTAB
  0
TABLE
  2
LTYPE
  5
5
100
AcDbSymbolTable
 70
6
  0
LTYPE
  5
14
100
AcDbSymbolTableRecord
100
AcDbLinetypeTableRecord
  2
BYBLOCK
 70
0
  3

 72
65
 73
0
 40
0.0
  0
LTYPE
  5
15
100
AcDbSymbolTableRecord
100
AcDbLinetypeTableRecord
  2
BYLAYER
 70
0
  3

 72
65
 73
0
 40
0.0
  0
LTYPE
  5
16
100
AcDbSymbolTableRecord
100
AcDbLinetypeTableRecord
  2
CONTINUOUS
 70
64
  3
Solid line
 72
65
 73
0
 40
0.0
  0
LTYPE
  5
1F5
100
AcDbSymbolTableRecord
100
AcDbLinetypeTableRecord
  2
CENTER
 70
64
  3
____ _ ____ _ ____ _ ____ _ ____ _ ____ _ ____
 72
65
 73
4
 40
0.6
 49
0.375
 74
0
 49
-0.075
 74
0
 49
0.075
 74
0
 49
-0.075
 74
0
  0
LTYPE
  5
1F6
100
AcDbSymbolTableRecord
100
AcDbLinetypeTableRecord
  2
HIDDEN
 70
64
  3
- - - - - - - - - - - - - - - - - - - -
 72
65
 73
2
 40
0.2
 49
0.1
 74
0
 49
-0.1
 74
0
  0
LTYPE
  5
1F7
100
AcDbSymbolTableRecord
100
AcDbLinetypeTableRecord
  2
PHANTOM
 70
64
  3
_____ _ _ _____ _ _ _____ _ _ _____
 72
65
 73
6
 40
0.8
 49
0.45
 74
0
 49
-0.05
 74
0
 49
0.1
 74
0
 49
-0.05
 74
0
 49
0.1
 74
0
 49
-0.05
 74
0
  0
LTYPE
  5
1F8
100
AcDbSymbolTableRecord
100
AcDbLinetypeTableRecord
  2
DOT
 70
64
  3
. . . . . . . . . . . . . . . . . . . .
 72
65
 73
2
 40
0.2
 49
0.1
 74
0
 49
-0.1
 74
0
  0
LTYPE
  5
1F9
100
AcDbSymbolTableRecord
100
AcDbLinetypeTableRecord
  2
DASHED
 70
64
  3
- - - - - - - - - - - - - - - - - - - -
 72
65
 73
2
 40
0.2
 49
0.1
 74
0
 49
-0.1
 74
0
  0
ENDTAB
  0
TABLE
  2
LAYER
  5
2
100
AcDbSymbolTable
 70
36
  0
LAYER
  5
10
100
AcDbSymbolTableRecord
100
AcDbLayerTableRecord
  2
0
 70
0
 62
7
  6
CONTINUOUS
370
-3
390
F
  0
LAYER
  5
1FA
100
AcDbSymbolTableRecord
100
AcDbLayerTableRecord
  2
DEFAULT_1
 70
0
 62
7
  6
CENTER
370
-3
390
F
  0
LAYER
  5
1FB
100
AcDbSymbolTableRecord
100
AcDbLayerTableRecord
  2
DEFAULT_2
 70
0
 62
8
  6
HIDDEN
370
-3
390
F
  0
LAYER
  5
1FC
100
AcDbSymbolTableRecord
100
AcDbLayerTableRecord
  2
DEFAULT_3
 70
0
 62
7
  6
PHANTOM
370
-3
390
F
  0
LAYER
  5
1FD
100
AcDbSymbolTableRecord
100
AcDbLayerTableRecord
  2
01___PRT_ALL_DTM_PLN
 70
0
 62
7
  6
CONTINUOUS
370
-3
390
F
  0
LAYER
  5
1FE
100
AcDbSymbolTableRecord
100
AcDbLayerTableRecord
  2
01___PRT_DEF_DTM_PLN
 70
0
 62
7
  6
CONTINUOUS
370
-3
390
F
  0
LAYER
  5
1FF
100
AcDbSymbolTableRecord
100
AcDbLayerTableRecord
  2
02___PRT_ALL_AXES
 70
0
 62
7
  6
CONTINUOUS
370
-3
390
F
  0
LAYER
  5
200
100
AcDbSymbolTableRecord
100
AcDbLayerTableRecord
  2
03___PRT_ALL_CURVES
 70
0
 62
7
  6
CONTINUOUS
370
-3
390
F
  0
LAYER
  5
201
100
AcDbSymbolTableRecord
100
AcDbLayerTableRecord
  2
04___PRT_ALL_DTM_PNT
 70
0
 62
7
  6
CONTINUOUS
370
-3
390
F
  0
LAYER
  5
202
100
AcDbSymbolTableRecord
100
AcDbLayerTableRecord
  2
05___PRT_ALL_DTM_CSYS
 70
0
 62
7
  6
CONTINUOUS
370
-3
390
F
  0
LAYER
  5
203
100
AcDbSymbolTableRecord
100
AcDbLayerTableRecord
  2
05___PRT_DEF_DTM_CSYS
 70
0
 62
7
  6
CONTINUOUS
370
-3
390
F
  0
LAYER
  5
204
100
AcDbSymbolTableRecord
100
AcDbLayerTableRecord
  2
06___PRT_ALL_SURFS
 70
0
 62
7
  6
CONTINUOUS
370
-3
390
F
  0
LAYER
  5
205
100
AcDbSymbolTableRecord
100
AcDbLayerTableRecord
  2
DATUM_PLANES
 70
0
 62
7
  6
CONTINUOUS
370
-3
390
F
  0
LAYER
  5
206
100
AcDbSymbolTableRecord
100
AcDbLayerTableRecord
  2
PORT_AREAS
 70
0
 62
7
  6
CONTINUOUS
370
-3
390
F
  0
LAYER
  5
207
100
AcDbSymbolTableRecord
100
AcDbLayerTableRecord
  2
SUNNBOMCOSMETIC
 70
0
 62
7
  6
CONTINUOUS
370
-3
390
F
  0
LAYER
  5
208
100
AcDbSymbolTableRecord
100
AcDbLayerTableRecord
  2
SUNNBOMSTAMPING
 70
0
 62
7
  6
CONTINUOUS
370
-3
390
F
  0
LAYER
  5
209
100
AcDbSymbolTableRecord
100
AcDbLayerTableRecord
  2
THREADS
 70
0
 62
7
  6
CONTINUOUS
370
-3
390
F
  0
ENDTAB
  0
TABLE
  2
STYLE
  5
3
100
AcDbSymbolTable
 70
1
  0
STYLE
  5
11
100
AcDbSymbolTableRecord
100
AcDbTextStyleTableRecord
  2
STANDARD
 70
0
 40
0.0
 41
0.8
 50
0.0
 71
0
 42
0.2
  3
txt
  4

  0
STYLE
  5
20A
100
AcDbSymbolTableRecord
100
AcDbTextStyleTableRecord
  2
TEXTSTYLE_1
 70
0
 40
0.0
 41
0.8
 50
0.0
 71
0
 42
0.2
  3
gdt
  4

  0
ENDTAB
  0
TABLE
  2
VIEW
  5
6
100
AcDbSymbolTable
 70
0
  0
ENDTAB
  0
TABLE
  2
UCS
  5
7
100
AcDbSymbolTable
 70
0
  0
ENDTAB
  0
TABLE
  2
APPID
  5
9
100
AcDbSymbolTable
 70
1
  0
APPID
  5
20B
100
AcDbSymbolTableRecord
100
AcDbRegAppTableRecord
  2
ACAD
 70
0
  0
ENDTAB
  0
TABLE
  2
BLOCK_RECORD
  5
1
100
AcDbSymbolTable
 70
0
  0
BLOCK_RECORD
  5
20C
100
AcDbSymbolTableRecord
100
AcDbBlockTableRecord
  2
*Model_Space
  0
BLOCK_RECORD
  5
20D
100
AcDbSymbolTableRecord
100
AcDbBlockTableRecord
  2
*Paper_Space
  0
BLOCK_RECORD
  5
20E
100
AcDbSymbolTableRecord
100
AcDbBlockTableRecord
  2
SUN_FIRST_THIRD_ANGLE_BL0
  0
BLOCK_RECORD
  5
20F
100
AcDbSymbolTableRecord
100
AcDbBlockTableRecord
  2
*T1
  0
BLOCK_RECORD
  5
210
100
AcDbSymbolTableRecord
100
AcDbBlockTableRecord
  2
*T2
  0
BLOCK_RECORD
  5
211
100
AcDbSymbolTableRecord
100
AcDbBlockTableRecord
  2
*T3
  0
ENDTAB
  0
TABLE
  2
DIMSTYLE
  5
A
100
AcDbSymbolTable
 70
1
100
AcDbDimStyleTable
 71
0
  0
DIMSTYLE
105
212
100
AcDbSymbolTableRecord
100
AcDbDimStyleTableRecord
  2
STANDARD
 70
0
  3

  4

 40
1.0
 41
0.1875
 42
0.0625
 43
0.38
 44
0.125
 45
0.0
 46
0.0
 47
0.001
 48
0.001
140
0.1
141
0.09
142
0.0
143
25.4
144
1.0
145
0.0
146
1.0
147
0.09
 71
0.0
 72
0.0
 73
1
 74
1
 75
0
 76
0
 77
0
 78
4
170
0
171
2
172
0
173
0
174
0
175
0
176
0
177
0
178
0
270
2
271
3
272
3
273
2
274
2
275
0
280
0
281
0
282
0
283
1
284
4
285
0
286
0
287
3
288
0
340
11
278
46
  0
ENDTAB
  0
ENDSEC
  0
SECTION
  2
BLOCKS
  0
BLOCK
  5
20
100
AcDbEntity
  8
0
100
AcDbBlockBegin
  2
*Model_Space
 70
0
 10
0.0
 20
0.0
 30
0.0
  3
*Model_Space
  1

  0
ENDBLK
  5
21
100
AcDbEntity
  8
0
100
AcDbBlockEnd
  0
BLOCK
  5
1C
100
AcDbEntity
  8
0
100
AcDbBlockBegin
  2
*Paper_Space
 70
0
 10
0.0
 20
0.0
 30
0.0
  3
*Paper_Space
  1

  0
ENDBLK
  5
1D
100
AcDbEntity
  8
0
100
AcDbBlockEnd
  0
BLOCK
  5
213
100
AcDbEntity
  8
0
100
AcDbBlockBegin
 62
2
  6
CONTINUOUS
  2
SUN_FIRST_THIRD_ANGLE_BL0
 70
64
 10
20.4816717061
 20
1.2289683772
  3
SUN_FIRST_THIRD_ANGLE_BL0
  1

  0
TEXT
  5
214
100
AcDbEntity
  8
0
100
AcDbText
 62
2
  6
CONTINUOUS
 10
19.4750896608
 20
1.4136269581
  7
STANDARD
 40
0.08
  1
FIRST ANGLE
 41
0.8
 72
0
100
AcDbText
  0
TEXT
  5
215
100
AcDbEntity
  8
0
100
AcDbText
 62
2
  6
CONTINUOUS
 10
20.7842537513
 20
1.4047600029
  7
STANDARD
 40
0.08
  1
THIRD ANGLE
 41
0.8
 72
0
100
AcDbText
  0
LINE
  5
216
100
AcDbEntity
  8
0
100
AcDbLine
 62
7
  6
CONTINUOUS
 10
19.4767170086
 20
1.1727031207
 11
19.6334271527
 21
1.1717972817
  0
LINE
  5
217
100
AcDbEntity
  8
0
100
AcDbLine
 62
7
  6
CONTINUOUS
 10
19.6596964832
 20
1.1717972817
 11
19.6950230232
 21
1.171593082
  0
LINE
  5
218
100
AcDbEntity
  8
0
100
AcDbLine
 62
7
  6
CONTINUOUS
 10
19.7194818561
 20
1.1708914427
 11
19.8852396156
 21
1.1699333054
  0
LINE
  5
219
100
AcDbEntity
  8
0
100
AcDbLine
 62
7
  6
CONTINUOUS
 10
19.4758111696
 20
1.2723454088
 11
19.88525039
 21
1.3511534004
  0
LINE
  5
21A
100
AcDbEntity
  8
0
100
AcDbLine
 62
7
  6
CONTINUOUS
 10
19.88525039
 20
1.3511534004
 11
19.8831348489
 21
0.9851647912
  0
LINE
  5
21B
100
AcDbEntity
  8
0
100
AcDbLine
 62
7
  6
CONTINUOUS
 10
19.8831348489
 20
0.9851647912
 11
19.4767170086
 21
1.0658141206
  0
LINE
  5
21C
100
AcDbEntity
  8
0
100
AcDbLine
 62
7
  6
CONTINUOUS
 10
19.4767170086
 20
1.0658141206
 11
19.4779056764
 21
1.2714536432
  0
CIRCLE
  5
21D
100
AcDbEntity
  8
0
100
AcDbCircle
 62
7
  6
CONTINUOUS
 10
20.2068232291
 20
1.1717972817
 40
0.175742101
  0
CIRCLE
  5
21E
100
AcDbEntity
  8
0
100
AcDbCircle
 62
7
  6
CONTINUOUS
 10
20.2068232291
 20
1.1717972817
 40
0.1005522074
  0
LINE
  5
21F
100
AcDbEntity
  8
0
100
AcDbLine
 62
7
  6
CONTINUOUS
 10
20.2077290681
 20
1.3756110529
 11
20.2071171714
 21
1.2379342989
  0
LINE
  5
220
100
AcDbEntity
  8
0
100
AcDbLine
 62
7
  6
CONTINUOUS
 10
20.2077290681
 20
1.2016899681
 11
20.2074674401
 21
1.1428236749
  0
LINE
  5
221
100
AcDbEntity
  8
0
100
AcDbLine
 62
7
  6
CONTINUOUS
 10
20.208634907
 20
1.101141841
 11
20.2080230104
 21
0.963465087
  0
LINE
  5
222
100
AcDbEntity
  8
0
100
AcDbLine
 62
7
  6
CONTINUOUS
 10
20.0066328138
 20
1.1745147986
 11
20.1443095678
 21
1.1739029019
  0
LINE
  5
223
100
AcDbEntity
  8
0
100
AcDbLine
 62
7
  6
CONTINUOUS
 10
20.1832714155
 20
1.1727031207
 11
20.238153505
 21
1.172335442
  0
LINE
  5
224
100
AcDbEntity
  8
0
100
AcDbLine
 62
7
  6
CONTINUOUS
 10
20.2756669918
 20
1.1717972817
 11
20.407916871
 21
1.1712095044
  0
CIRCLE
  5
225
100
AcDbEntity
  8
0
100
AcDbCircle
 62
7
  6
CONTINUOUS
 10
20.7509457401
 20
1.1693297793
 40
0.1722024983
  0
CIRCLE
  5
226
100
AcDbEntity
  8
0
100
AcDbCircle
 62
7
  6
CONTINUOUS
 10
20.7509457401
 20
1.1693297793
 40
0.0985164967
  0
LINE
  5
227
100
AcDbEntity
  8
0
100
AcDbLine
 62
7
  6
CONTINUOUS
 10
20.7169767782
 20
1.170462078
 11
20.7825395137
 21
1.1682766535
  0
LINE
  5
228
100
AcDbEntity
  8
0
100
AcDbLine
 62
7
  6
CONTINUOUS
 10
20.8177513651
 20
1.1693297793
 11
20.947965719
 21
1.1693297793
  0
LINE
  5
229
100
AcDbEntity
  8
0
100
AcDbLine
 62
7
  6
CONTINUOUS
 10
20.6875370113
 20
1.170462078
 11
20.5573226574
 21
1.170462078
  0
LINE
  5
22A
100
AcDbEntity
  8
0
100
AcDbLine
 62
7
  6
CONTINUOUS
 10
20.7486811426
 20
1.1987695462
 11
20.7486811426
 21
1.1432869085
  0
LINE
  5
22B
100
AcDbEntity
  8
0
100
AcDbLine
 62
7
  6
CONTINUOUS
 10
20.7498134414
 20
1.1059210505
 11
20.7498134414
 21
0.9757066966
  0
LINE
  5
22C
100
AcDbEntity
  8
0
100
AcDbLine
 62
7
  6
CONTINUOUS
 10
20.7486811426
 20
1.2338708068
 11
20.7486811426
 21
1.3640851607
  0
LINE
  5
22D
100
AcDbEntity
  8
0
100
AcDbLine
 62
7
  6
CONTINUOUS
 10
21.0702539817
 20
1.2701043662
 11
21.4790138229
 21
1.3448360823
  0
LINE
  5
22E
100
AcDbEntity
  8
0
100
AcDbLine
 62
7
  6
CONTINUOUS
 10
21.4790138229
 20
1.3448360823
 11
21.4790138229
 21
0.9779712941
  0
LINE
  5
22F
100
AcDbEntity
  8
0
100
AcDbLine
 62
7
  6
CONTINUOUS
 10
21.4790138229
 20
0.9779712941
 11
21.069121683
 21
1.0617614
  0
LINE
  5
230
100
AcDbEntity
  8
0
100
AcDbLine
 62
7
  6
CONTINUOUS
 10
21.0702539817
 20
1.2701043662
 11
21.069121683
 21
1.0617614
  0
LINE
  5
231
100
AcDbEntity
  8
0
100
AcDbLine
 62
7
  6
CONTINUOUS
 10
21.4790138229
 20
1.1693297793
 11
21.3159628059
 21
1.1693297793
  0
LINE
  5
232
100
AcDbEntity
  8
0
100
AcDbLine
 62
7
  6
CONTINUOUS
 10
21.2876553377
 20
1.1693297793
 11
21.2502894796
 21
1.1693297793
  0
LINE
  5
233
100
AcDbEntity
  8
0
100
AcDbLine
 62
7
  6
CONTINUOUS
 10
21.2208497126
 20
1.1659328831
 11
21.0713862804
 21
1.1659328831
  0
LINE
  5
234
100
AcDbEntity
  8
0
100
AcDbLine
 62
7
  6
CONTINUOUS
 10
20.4796138713
 20
1.5284908897
 11
20.4766766948
 21
0.9294458646
  0
ENDBLK
  5
235
100
AcDbEntity
  8
0
  6
BYBLOCK
 62
0
100
AcDbBlockEnd
  0
BLOCK
  5
236
100
AcDbEntity
  8
0
100
AcDbBlockBegin
  2
*T1
 70
1
 10
0.0
 20
0.0
  3
*T1
  1

  0
LINE
  5
237
100
AcDbEntity
  8
0
100
AcDbLine
 62
2
  6
CONTINUOUS
 10
9.275
 20
0.0
 11
-0.0
 21
0.0
  0
LINE
  5
238
100
AcDbEntity
  8
0
100
AcDbLine
 62
2
  6
CONTINUOUS
 10
9.275
 20
0.0
 11
9.275
 21
1.25
  0
LINE
  5
239
100
AcDbEntity
  8
0
100
AcDbLine
 62
2
  6
CONTINUOUS
 10
9.275
 20
0.625
 11
-0.0
 21
0.625
  0
LINE
  5
23A
100
AcDbEntity
  8
0
100
AcDbLine
 62
2
  6
CONTINUOUS
 10
9.275
 20
1.25
 11
-0.0
 21
1.25
  0
LINE
  5
23B
100
AcDbEntity
  8
0
100
AcDbLine
 62
2
  6
CONTINUOUS
 10
6.8
 20
0.0
 11
6.8
 21
1.25
  0
LINE
  5
23C
100
AcDbEntity
  8
0
100
AcDbLine
 62
2
  6
CONTINUOUS
 10
6.4
 20
0.0
 11
6.4
 21
0.625
  0
LINE
  5
23D
100
AcDbEntity
  8
0
100
AcDbLine
 62
2
  6
CONTINUOUS
 10
5.9
 20
0.0
 11
5.9
 21
0.625
  0
LINE
  5
23E
100
AcDbEntity
  8
0
100
AcDbLine
 62
2
  6
CONTINUOUS
 10
5.2
 20
0.0
 11
5.2
 21
0.625
  0
LINE
  5
23F
100
AcDbEntity
  8
0
100
AcDbLine
 62
2
  6
CONTINUOUS
 10
4.1
 20
0.0
 11
4.1
 21
1.25
  0
LINE
  5
240
100
AcDbEntity
  8
0
100
AcDbLine
 62
2
  6
CONTINUOUS
 10
-0.0
 20
0.0
 11
-0.0
 21
1.25
  0
MTEXT
  5
241
100
AcDbEntity
  8
0
100
AcDbMText
 62
2
  6
CONTINUOUS
  7
STANDARD
 71
2
 72
1
 10
6.6
 20
0.325
 30
0.0
 11
1.0
 21
0.0
 31
0.0
 44
0.9
  1
2
 40
0.125
 41
0.2
  0
MTEXT
  5
242
100
AcDbEntity
  8
0
100
AcDbMText
 62
2
  6
CONTINUOUS
  7
STANDARD
 71
2
 72
1
 10
6.15
 20
0.325
 30
0.0
 11
1.0
 21
0.0
 31
0.0
 44
0.9
  1
C
 40
0.125
 41
0.2
  0
MTEXT
  5
243
100
AcDbEntity
  8
0
100
AcDbMText
 62
2
  6
CONTINUOUS
  7
STANDARD
 71
2
 72
1
 10
5.55
 20
0.325
 30
0.0
 11
1.0
 21
0.0
 31
0.0
 44
0.9
  1
1.000
 40
0.125
 41
1.0
  0
MTEXT
  5
244
100
AcDbEntity
  8
0
100
AcDbMText
 62
2
  6
CONTINUOUS
  7
STANDARD
 71
2
 72
1
 10
4.65
 20
0.325
 30
0.0
 11
1.0
 21
0.0
 31
0.0
 44
0.9
  1
May-02-24
 40
0.125
 41
1.8
  0
MTEXT
  5
245
100
AcDbEntity
  8
0
100
AcDbMText
 62
2
  6
CONTINUOUS
  7
STANDARD
 71
2
 72
1
 10
2.05
 20
0.4625
 30
0.0
 11
1.0
 21
0.0
 31
0.0
 44
0.9
  1
T-3A Line mount\PCross port with make up checks
 40
0.125
 41
6.0
  0
MTEXT
  5
246
100
AcDbEntity
  8
0
100
AcDbMText
 62
2
  6
CONTINUOUS
  7
STANDARD
 71
1
 72
1
 10
6.45
 20
0.5625
 30
0.0
 11
1.0
 21
0.0
 31
0.0
 44
0.9
  1
SHEET
 40
0.06
 41
0.48
  0
MTEXT
  5
247
100
AcDbEntity
  8
0
100
AcDbMText
 62
2
  6
CONTINUOUS
  7
STANDARD
 71
1
 72
1
 10
5.95
 20
0.5625
 30
0.0
 11
1.0
 21
0.0
 31
0.0
 44
0.9
  1
DWG SIZE
 40
0.06
 41
0.768
  0
MTEXT
  5
248
100
AcDbEntity
  8
0
100
AcDbMText
 62
2
  6
CONTINUOUS
  7
STANDARD
 71
1
 72
1
 10
5.25
 20
0.5625
 30
0.0
 11
1.0
 21
0.0
 31
0.0
 44
0.9
  1
SCALE
 40
0.06
 41
0.48
  0
MTEXT
  5
249
100
AcDbEntity
  8
0
100
AcDbMText
 62
2
  6
CONTINUOUS
  7
STANDARD
 71
1
 72
1
 10
4.15
 20
0.5625
 30
0.0
 11
1.0
 21
0.0
 31
0.0
 44
0.9
  1
DATE
 40
0.06
 41
0.384
  0
MTEXT
  5
24A
100
AcDbEntity
  8
0
100
AcDbMText
 62
2
  6
CONTINUOUS
  7
STANDARD
 71
1
 72
1
 10
0.05
 20
0.5625
 30
0.0
 11
1.0
 21
0.0
 31
0.0
 44
0.9
  1
DESCRIPTION
 40
0.06
 41
1.056
  0
MTEXT
  5
24B
100
AcDbEntity
  8
0
100
AcDbMText
 62
2
  6
CONTINUOUS
  7
STANDARD
 71
2
 72
1
 10
5.45
 20
1.0375
 30
0.0
 11
1.0
 21
0.0
 31
0.0
 44
0.9
  1
ALL DIMENSIONS IN INCH\PVIEWS ARE THIRD ANGLE
 40
0.12
 41
4.224
  0
MTEXT
  5
24C
100
AcDbEntity
  8
0
100
AcDbMText
 62
2
  6
CONTINUOUS
  7
STANDARD
 71
2
 72
1
 10
2.05
 20
0.95
 30
0.0
 11
1.0
 21
0.0
 31
0.0
 44
0.9
  1
CMJ
 40
0.125
 41
0.6
  0
MTEXT
  5
24D
100
AcDbEntity
  8
0
100
AcDbMText
 62
2
  6
CONTINUOUS
  7
STANDARD
 71
1
 72
1
 10
0.05
 20
1.1875
 30
0.0
 11
1.0
 21
0.0
 31
0.0
 44
0.9
  1
MODEL
 40
0.06
 41
0.48
  0
ENDBLK
  5
24E
100
AcDbEntity
  8
0
  6
BYBLOCK
 62
0
100
AcDbBlockEnd
  0
BLOCK
  5
24F
100
AcDbEntity
  8
0
100
AcDbBlockBegin
  2
*T2
 70
1
 10
0.0
 20
0.0
  3
*T2
  1

  0
LINE
  5
250
100
AcDbEntity
  8
0
100
AcDbLine
 62
2
  6
CONTINUOUS
 10
0.0
 20
0.0
 11
9.055
 21
0.0
  0
LINE
  5
251
100
AcDbEntity
  8
0
100
AcDbLine
 62
2
  6
CONTINUOUS
 10
0.0
 20
0.0
 11
0.0
 21
-2.844
  0
LINE
  5
252
100
AcDbEntity
  8
0
100
AcDbLine
 62
2
  6
CONTINUOUS
 10
0.0
 20
-0.344
 11
9.055
 21
-0.344
  0
LINE
  5
253
100
AcDbEntity
  8
0
100
AcDbLine
 62
2
  6
CONTINUOUS
 10
0.0
 20
-0.594
 11
9.055
 21
-0.594
  0
LINE
  5
254
100
AcDbEntity
  8
0
100
AcDbLine
 62
2
  6
CONTINUOUS
 10
0.0
 20
-0.844
 11
9.055
 21
-0.844
  0
LINE
  5
255
100
AcDbEntity
  8
0
100
AcDbLine
 62
2
  6
CONTINUOUS
 10
0.0
 20
-1.094
 11
9.055
 21
-1.094
  0
LINE
  5
256
100
AcDbEntity
  8
0
100
AcDbLine
 62
2
  6
CONTINUOUS
 10
0.0
 20
-1.344
 11
9.055
 21
-1.344
  0
LINE
  5
257
100
AcDbEntity
  8
0
100
AcDbLine
 62
2
  6
CONTINUOUS
 10
0.0
 20
-1.594
 11
9.055
 21
-1.594
  0
LINE
  5
258
100
AcDbEntity
  8
0
100
AcDbLine
 62
2
  6
CONTINUOUS
 10
0.0
 20
-1.844
 11
9.055
 21
-1.844
  0
LINE
  5
259
100
AcDbEntity
  8
0
100
AcDbLine
 62
2
  6
CONTINUOUS
 10
0.0
 20
-2.094
 11
9.055
 21
-2.094
  0
LINE
  5
25A
100
AcDbEntity
  8
0
100
AcDbLine
 62
2
  6
CONTINUOUS
 10
0.0
 20
-2.344
 11
9.055
 21
-2.344
  0
LINE
  5
25B
100
AcDbEntity
  8
0
100
AcDbLine
 62
2
  6
CONTINUOUS
 10
0.0
 20
-2.594
 11
9.055
 21
-2.594
  0
LINE
  5
25C
100
AcDbEntity
  8
0
100
AcDbLine
 62
2
  6
CONTINUOUS
 10
0.0
 20
-2.844
 11
9.055
 21
-2.844
  0
LINE
  5
25D
100
AcDbEntity
  8
0
100
AcDbLine
 62
2
  6
CONTINUOUS
 10
3.055
 20
0.0
 11
3.055
 21
-2.844
  0
LINE
  5
25E
100
AcDbEntity
  8
0
100
AcDbLine
 62
2
  6
CONTINUOUS
 10
9.055
 20
0.0
 11
9.055
 21
-2.844
  0
MTEXT
  5
25F
100
AcDbEntity
  8
0
100
AcDbMText
 62
2
  6
CONTINUOUS
  7
STANDARD
 71
2
 72
1
 10
1.5275
 20
-0.0995
 30
0.0
 11
1.0
 21
0.0
 31
0.0
 44
0.9
  1
Technical Data
 40
0.145
 41
3.248
  0
MTEXT
  5
260
100
AcDbEntity
  8
0
100
AcDbMText
 62
2
  6
CONTINUOUS
  7
STANDARD
 71
2
 72
1
 10
4.555
 20
-0.0995
 30
0.0
 11
1.0
 21
0.0
 31
0.0
 44
0.9
  1
U.S. Units
 40
0.145
 41
2.32
  0
MTEXT
  5
261
100
AcDbEntity
  8
0
100
AcDbMText
 62
2
  6
CONTINUOUS
  7
STANDARD
 71
2
 72
1
 10
7.555
 20
-0.0995
 30
0.0
 11
1.0
 21
0.0
 31
0.0
 44
0.9
  1
Metric Units
 40
0.145
 41
2.784
  0
MTEXT
  5
262
100
AcDbEntity
  8
0
100
AcDbMText
 62
2
  6
CONTINUOUS
  7
STANDARD
 71
2
 72
1
 10
1.5275
 20
-0.4065
 30
0.0
 11
1.0
 21
0.0
 31
0.0
 44
0.9
  1
Cavity
 40
0.125
 41
1.2
  0
MTEXT
  5
263
100
AcDbEntity
  8
0
100
AcDbMText
 62
2
  6
CONTINUOUS
  7
STANDARD
 71
2
 72
1
 10
6.055
 20
-0.4065
 30
0.0
 11
1.0
 21
0.0
 31
0.0
 44
0.9
  1
T-3A
 40
0.125
 41
0.8
  0
MTEXT
  5
264
100
AcDbEntity
  8
0
100
AcDbMText
 62
2
  6
CONTINUOUS
  7
STANDARD
 71
2
 72
1
 10
1.5275
 20
-0.6565
 30
0.0
 11
1.0
 21
0.0
 31
0.0
 44
0.9
  1
Body Features
 40
0.125
 41
2.6
  0
MTEXT
  5
265
100
AcDbEntity
  8
0
100
AcDbMText
 62
2
  6
CONTINUOUS
  7
STANDARD
 71
2
 72
1
 10
6.055
 20
-0.6565
 30
0.0
 11
1.0
 21
0.0
 31
0.0
 44
0.9
  1
Cross port with make up checks
 40
0.125
 41
6.0
  0
MTEXT
  5
266
100
AcDbEntity
  8
0
100
AcDbMText
 62
2
  6
CONTINUOUS
  7
STANDARD
 71
2
 72
1
 10
1.5275
 20
-0.9065
 30
0.0
 11
1.0
 21
0.0
 31
0.0
 44
0.9
  1
Body Type
 40
0.125
 41
1.8
  0
MTEXT
  5
267
100
AcDbEntity
  8
0
100
AcDbMText
 62
2
  6
CONTINUOUS
  7
STANDARD
 71
2
 72
1
 10
6.055
 20
-0.9065
 30
0.0
 11
1.0
 21
0.0
 31
0.0
 44
0.9
  1
Line mount
 40
0.125
 41
2.0
  0
MTEXT
  5
268
100
AcDbEntity
  8
0
100
AcDbMText
 62
2
  6
CONTINUOUS
  7
STANDARD
 71
2
 72
1
 10
1.5275
 20
-1.1565
 30
0.0
 11
1.0
 21
0.0
 31
0.0
 44
0.9
  1
Interface
 40
0.125
 41
1.8
  0
MTEXT
  5
269
100
AcDbEntity
  8
0
100
AcDbMText
 62
2
  6
CONTINUOUS
  7
STANDARD
 71
2
 72
1
 10
6.055
 20
-1.1565
 30
0.0
 11
1.0
 21
0.0
 31
0.0
 44
0.9
  1
None
 40
0.125
 41
0.8
  0
MTEXT
  5
26A
100
AcDbEntity
  8
0
100
AcDbMText
 62
2
  6
CONTINUOUS
  7
STANDARD
 71
2
 72
1
 10
1.5275
 20
-1.4065
 30
0.0
 11
1.0
 21
0.0
 31
0.0
 44
0.9
  1
Open Cavity Quantity
 40
0.125
 41
4.0
  0
MTEXT
  5
26B
100
AcDbEntity
  8
0
100
AcDbMText
 62
2
  6
CONTINUOUS
  7
STANDARD
 71
2
 72
1
 10
6.055
 20
-1.4065
 30
0.0
 11
1.0
 21
0.0
 31
0.0
 44
0.9
  1
2
 40
0.125
 41
0.2
  0
MTEXT
  5
26C
100
AcDbEntity
  8
0
100
AcDbMText
 62
2
  6
CONTINUOUS
  7
STANDARD
 71
2
 72
1
 10
1.5275
 20
-1.6565
 30
0.0
 11
1.0
 21
0.0
 31
0.0
 44
0.9
  1
Weight
 40
0.125
 41
1.2
  0
MTEXT
  5
26D
100
AcDbEntity
  8
0
100
AcDbMText
 62
2
  6
CONTINUOUS
  7
STANDARD
 71
2
 72
1
 10
4.555
 20
-1.6565
 30
0.0
 11
1.0
 21
0.0
 31
0.0
 44
0.9
  1
4.110 lb.
 40
0.125
 41
1.8
  0
MTEXT
  5
26E
100
AcDbEntity
  8
0
100
AcDbMText
 62
2
  6
CONTINUOUS
  7
STANDARD
 71
2
 72
1
 10
7.555
 20
-1.6565
 30
0.0
 11
1.0
 21
0.0
 31
0.0
 44
0.9
  1
1,864 kg.
 40
0.125
 41
1.8
  0
MTEXT
  5
26F
100
AcDbEntity
  8
0
100
AcDbMText
 62
2
  6
CONTINUOUS
  7
STANDARD
 71
2
 72
1
 10
1.5275
 20
-1.9065
 30
0.0
 11
1.0
 21
0.0
 31
0.0
 44
0.9
  1
Mounting Hole Diameter
 40
0.125
 41
4.4
  0
MTEXT
  5
270
100
AcDbEntity
  8
0
100
AcDbMText
 62
2
  6
CONTINUOUS
  7
STANDARD
 71
2
 72
1
 10
4.555
 20
-1.9065
 30
0.0
 11
1.0
 21
0.0
 31
0.0
 44
0.9
  1
.34 in.
 40
0.125
 41
1.4
  0
MTEXT
  5
271
100
AcDbEntity
  8
0
100
AcDbMText
 62
2
  6
CONTINUOUS
  7
STANDARD
 71
2
 72
1
 10
7.555
 20
-1.9065
 30
0.0
 11
1.0
 21
0.0
 31
0.0
 44
0.9
  1
8.6 mm
 40
0.125
 41
1.2
  0
MTEXT
  5
272
100
AcDbEntity
  8
0
100
AcDbMText
 62
2
  6
CONTINUOUS
  7
STANDARD
 71
2
 72
1
 10
1.5275
 20
-2.1565
 30
0.0
 11
1.0
 21
0.0
 31
0.0
 44
0.9
  1
Mounting Hole Depth
 40
0.125
 41
3.8
  0
MTEXT
  5
273
100
AcDbEntity
  8
0
100
AcDbMText
 62
2
  6
CONTINUOUS
  7
STANDARD
 71
2
 72
1
 10
6.055
 20
-2.1565
 30
0.0
 11
1.0
 21
0.0
 31
0.0
 44
0.9
  1
Through
 40
0.125
 41
1.4
  0
MTEXT
  5
274
100
AcDbEntity
  8
0
100
AcDbMText
 62
2
  6
CONTINUOUS
  7
STANDARD
 71
2
 72
1
 10
1.5275
 20
-2.4065
 30
0.0
 11
1.0
 21
0.0
 31
0.0
 44
0.9
  1
Mounting Hole Quantity
 40
0.125
 41
4.4
  0
MTEXT
  5
275
100
AcDbEntity
  8
0
100
AcDbMText
 62
2
  6
CONTINUOUS
  7
STANDARD
 71
2
 72
1
 10
6.055
 20
-2.4065
 30
0.0
 11
1.0
 21
0.0
 31
0.0
 44
0.9
  1
2
 40
0.125
 41
0.2
  0
MTEXT
  5
276
100
AcDbEntity
  8
0
100
AcDbMText
 62
2
  6
CONTINUOUS
  7
STANDARD
 71
2
 72
1
 10
1.5275
 20
-2.6565
 30
0.0
 11
1.0
 21
0.0
 31
0.0
 44
0.9
  1
Includes integral cartridge(s)
 40
0.125
 41
6.0
  0
MTEXT
  5
277
100
AcDbEntity
  8
0
100
AcDbMText
 62
2
  6
CONTINUOUS
  7
STANDARD
 71
2
 72
1
 10
6.055
 20
-2.6565
 30
0.0
 11
1.0
 21
0.0
 31
0.0
 44
0.9
  1
Yes (see Included Components)
 40
0.125
 41
5.8
  0
ENDBLK
  5
278
100
AcDbEntity
  8
0
  6
BYBLOCK
 62
0
100
AcDbBlockEnd
  0
BLOCK
  5
279
100
AcDbEntity
  8
0
100
AcDbBlockBegin
  2
*T3
 70
1
 10
0.0
 20
0.0
  3
*T3
  1

  0
LINE
  5
27A
100
AcDbEntity
  8
0
100
AcDbLine
 62
2
  6
CONTINUOUS
 10
0.0
 20
0.0
 11
4.6
 21
0.0
  0
LINE
  5
27B
100
AcDbEntity
  8
0
100
AcDbLine
 62
2
  6
CONTINUOUS
 10
0.0
 20
0.0
 11
0.0
 21
-0.93775
  0
LINE
  5
27C
100
AcDbEntity
  8
0
100
AcDbLine
 62
2
  6
CONTINUOUS
 10
0.0
 20
-0.34375
 11
4.6
 21
-0.34375
  0
LINE
  5
27D
100
AcDbEntity
  8
0
100
AcDbLine
 62
2
  6
CONTINUOUS
 10
0.0
 20
-0.68775
 11
4.6
 21
-0.68775
  0
LINE
  5
27E
100
AcDbEntity
  8
0
100
AcDbLine
 62
2
  6
CONTINUOUS
 10
0.0
 20
-0.93775
 11
4.6
 21
-0.93775
  0
LINE
  5
27F
100
AcDbEntity
  8
0
100
AcDbLine
 62
2
  6
CONTINUOUS
 10
1.3
 20
-0.34375
 11
1.3
 21
-0.93775
  0
LINE
  5
280
100
AcDbEntity
  8
0
100
AcDbLine
 62
2
  6
CONTINUOUS
 10
3.3
 20
-0.34375
 11
3.3
 21
-0.93775
  0
LINE
  5
281
100
AcDbEntity
  8
0
100
AcDbLine
 62
2
  6
CONTINUOUS
 10
4.6
 20
0.0
 11
4.6
 21
-0.93775
  0
MTEXT
  5
282
100
AcDbEntity
  8
0
100
AcDbMText
 62
2
  6
CONTINUOUS
  7
STANDARD
 71
2
 72
1
 10
2.3
 20
-0.099375
 30
0.0
 11
1.0
 21
0.0
 31
0.0
 44
0.9
  1
Port Headings
 40
0.145
 41
3.016
  0
MTEXT
  5
283
100
AcDbEntity
  8
0
100
AcDbMText
 62
2
  6
CONTINUOUS
  7
STANDARD
 71
2
 72
1
 10
0.65
 20
-0.44325
 30
0.0
 11
1.0
 21
0.0
 31
0.0
 44
0.9
  1
Product
 40
0.145
 41
1.624
  0
MTEXT
  5
284
100
AcDbEntity
  8
0
100
AcDbMText
 62
2
  6
CONTINUOUS
  7
STANDARD
 71
2
 72
1
 10
2.3
 20
-0.44325
 30
0.0
 11
1.0
 21
0.0
 31
0.0
 44
0.9
  1
Port
 40
0.145
 41
0.928
  0
MTEXT
  5
285
100
AcDbEntity
  8
0
100
AcDbMText
 62
2
  6
CONTINUOUS
  7
STANDARD
 71
2
 72
1
 10
3.95
 20
-0.44325
 30
0.0
 11
1.0
 21
0.0
 31
0.0
 44
0.9
  1
Size
 40
0.145
 41
0.928
  0
MTEXT
  5
286
100
AcDbEntity
  8
0
100
AcDbMText
 62
2
  6
CONTINUOUS
  7
STANDARD
 71
2
 72
1
 10
0.65
 20
-0.75025
 30
0.0
 11
1.0
 21
0.0
 31
0.0
 44
0.9
  1
CMJ
 40
0.125
 41
0.6
  0
MTEXT
  5
287
100
AcDbEntity
  8
0
100
AcDbMText
 62
2
  6
CONTINUOUS
  7
STANDARD
 71
2
 72
1
 10
2.3
 20
-0.75025
 30
0.0
 11
1.0
 21
0.0
 31
0.0
 44
0.9
  1
All Ports
 40
0.125
 41
1.8
  0
MTEXT
  5
288
100
AcDbEntity
  8
0
100
AcDbMText
 62
2
  6
CONTINUOUS
  7
STANDARD
 71
2
 72
1
 10
3.95
 20
-0.75025
 30
0.0
 11
1.0
 21
0.0
 31
0.0
 44
0.9
  1
SAE 8
 40
0.125
 41
1.0
  0
ENDBLK
  5
289
100
AcDbEntity
  8
0
  6
BYBLOCK
 62
0
100
AcDbBlockEnd
  0
ENDSEC
  0
SECTION
  2
ENTITIES
  0
IMAGE
  5
28A
100
AcDbEntity
  8
0
100
AcDbRasterImage
 62
7
  6
CONTINUOUS
 10
19.2297077316
 20
0.3094318264
 30
0.0
 11
0.0066666667
 21
0.0
 31
0.0
 12
0.0
 22
0.0066666667
 32
0.0
 13
369.0
 23
92.0
340
       385
 70
9
280
0
281
50
282
50
283
0
360
       37F
 71
1
 91
2
 14
-0.5
 24
-0.5
 14
368.5
 24
91.5
  0
INSERT
  5
28B
100
AcDbEntity
  8
0
100
AcDbBlockReference
 62
2
  6
CONTINUOUS
  2
SUN_FIRST_THIRD_ANGLE_BL0
 10
20.4816717061
 20
1.2289683772
  0
ACAD_TABLE
  5
28C
100
AcDbEntity
  8
0
 62
2
  6
CONTINUOUS
100
AcDbBlockReference
  2
*T1
 10
12.42375
 20
0.30125
 30
0.0
100
AcDbTable
342
       387
343
20F
 11
1.0
 21
0.0
 31
0.0
 90
6
 91
4
 92
6
 93
20
 94
0
 95
0
 96
0
 70
1
 41
0.0
141
0.525
141
0.1
141
0.525
141
0.1
142
4.1
142
1.1
142
0.7
142
0.5
142
0.4
142
2.475
171
1
172
0
173
0
174
0
175
1
176
1
 91
33
178
0
145
0.0
301
CELL_VALUE
 90
4
  1
T-3A Line mount\PCross port with make up checks
304
ACVALUE_END
170
2
140
0.125
171
1
172
0
173
0
174
0
175
1
176
1
 91
33
178
0
145
0.0
301
CELL_VALUE
 90
4
  1
May-02-24
304
ACVALUE_END
170
5
140
0.125
171
1
172
0
173
0
174
0
175
1
176
1
 91
33
178
0
145
0.0
301
CELL_VALUE
 90
4
  1
1.000
304
ACVALUE_END
170
5
140
0.125
171
1
172
0
173
0
174
0
175
1
176
1
 91
33
178
0
145
0.0
301
CELL_VALUE
 90
4
  1
C
304
ACVALUE_END
170
5
140
0.125
171
1
172
0
173
0
174
0
175
1
176
1
 91
33
178
0
145
0.0
301
CELL_VALUE
 90
4
  1
2
304
ACVALUE_END
170
5
140
0.125
171
1
172
0
173
0
174
0
175
1
176
1
 91
33
178
0
145
0.0
301
CELL_VALUE
 90
4
  1
 
304
ACVALUE_END
170
1
140
0.125
171
1
172
0
173
0
174
0
175
1
176
1
 91
33
178
0
145
0.0
301
CELL_VALUE
 90
4
  1
DESCRIPTION
304
ACVALUE_END
170
1
140
0.06
171
1
172
0
173
0
174
0
175
1
176
1
 91
33
178
0
145
0.0
301
CELL_VALUE
 90
4
  1
DATE
304
ACVALUE_END
170
1
140
0.06
171
1
172
0
173
0
174
0
175
1
176
1
 91
33
178
0
145
0.0
301
CELL_VALUE
 90
4
  1
SCALE
304
ACVALUE_END
170
1
140
0.06
171
1
172
0
173
0
174
0
175
1
176
1
 91
33
178
0
145
0.0
301
CELL_VALUE
 90
4
  1
DWG SIZE
304
ACVALUE_END
170
1
140
0.06
171
1
172
0
173
0
174
0
175
1
176
1
 91
33
178
0
145
0.0
301
CELL_VALUE
 90
4
  1
SHEET
304
ACVALUE_END
170
1
140
0.06
171
1
172
0
173
0
174
0
175
1
176
1
 91
33
178
0
145
0.0
301
CELL_VALUE
 90
4
  1
 
304
ACVALUE_END
170
1
140
0.125
171
1
172
0
173
0
174
0
175
1
176
1
 91
33
178
0
145
0.0
301
CELL_VALUE
 90
4
  1
CMJ
304
ACVALUE_END
170
5
140
0.125
171
1
172
0
173
0
174
0
175
4
176
1
 91
33
178
0
145
0.0
301
CELL_VALUE
 90
4
  1
ALL DIMENSIONS IN INCH\PVIEWS ARE THIRD ANGLE
304
ACVALUE_END
170
5
140
0.12
171
1
172
0
173
1
174
0
175
1
176
1
 91
1
178
0
145
0.0
170
1
171
1
172
0
173
1
174
0
175
1
176
1
 91
1
178
0
145
0.0
170
1
171
1
172
0
173
1
174
0
175
1
176
1
 91
1
178
0
145
0.0
170
5
171
1
172
0
173
0
174
0
175
1
176
1
 91
33
178
0
145
0.0
301
CELL_VALUE
 90
4
  1
 
304
ACVALUE_END
170
1
140
0.125
171
1
172
0
173
0
174
0
175
1
176
1
 91
33
178
0
145
0.0
301
CELL_VALUE
 90
4
  1
MODEL
304
ACVALUE_END
170
1
140
0.06
171
1
172
0
173
0
174
0
175
1
176
1
 91
33
178
0
145
0.0
301
CELL_VALUE
 90
4
  1
 
304
ACVALUE_END
170
1
140
0.125
171
1
172
0
173
0
174
0
175
1
176
1
 91
33
178
0
145
0.0
301
CELL_VALUE
 90
4
  1
 
304
ACVALUE_END
170
1
140
0.125
171
1
172
0
173
0
174
0
175
1
176
1
 91
33
178
0
145
0.0
301
CELL_VALUE
 90
4
  1
 
304
ACVALUE_END
170
1
140
0.125
171
1
172
0
173
0
174
0
175
1
176
1
 91
33
178
0
145
0.0
301
CELL_VALUE
 90
4
  1
 
304
ACVALUE_END
170
1
140
0.125
171
1
172
0
173
0
174
0
175
1
176
1
 91
33
178
0
145
0.0
301
CELL_VALUE
 90
4
  1
 
304
ACVALUE_END
170
1
140
0.125
  0
ACAD_TABLE
  5
28D
100
AcDbEntity
  8
0
 62
2
  6
CONTINUOUS
100
AcDbBlockReference
  2
*T2
 10
12.4237499994
 20
16.47875
 30
0.0
100
AcDbTable
342
       386
343
210
 11
1.0
 21
0.0
 31
0.0
 90
22
 91
11
 92
3
 93
16
 94
0
 95
0
 96
0
 41
0.028
141
0.344
141
0.25
141
0.25
141
0.25
141
0.25
141
0.25
141
0.25
141
0.25
141
0.25
141
0.25
141
0.25
142
3.055
142
3.0
142
3.0
171
1
172
0
173
0
174
0
175
1
176
1
 91
33
178
0
145
0.0
301
CELL_VALUE
 90
4
  1
Technical Data
304
ACVALUE_END
170
5
140
0.145
171
1
172
0
173
0
174
0
175
1
176
1
 91
33
178
0
145
0.0
301
CELL_VALUE
 90
4
  1
U.S. Units
304
ACVALUE_END
170
5
140
0.145
171
1
172
0
173
0
174
0
175
1
176
1
 91
33
178
0
145
0.0
301
CELL_VALUE
 90
4
  1
Metric Units
304
ACVALUE_END
170
5
140
0.145
171
1
172
0
173
0
174
0
175
1
176
1
 91
33
178
0
145
0.0
301
CELL_VALUE
 90
4
  1
Cavity
304
ACVALUE_END
170
5
140
0.125
171
1
172
0
173
0
174
0
175
2
176
1
 91
33
178
0
145
0.0
301
CELL_VALUE
 90
4
  1
T-3A
304
ACVALUE_END
170
5
140
0.125
171
1
172
0
173
1
174
0
175
1
176
1
 91
1
178
0
145
0.0
170
1
171
1
172
0
173
0
174
0
175
1
176
1
 91
33
178
0
145
0.0
301
CELL_VALUE
 90
4
  1
Body Features
304
ACVALUE_END
170
5
140
0.125
171
1
172
0
173
0
174
0
175
2
176
1
 91
33
178
0
145
0.0
301
CELL_VALUE
 90
4
  1
Cross port with make up checks
304
ACVALUE_END
170
5
140
0.125
171
1
172
0
173
1
174
0
175
1
176
1
 91
1
178
0
145
0.0
170
1
171
1
172
0
173
0
174
0
175
1
176
1
 91
33
178
0
145
0.0
301
CELL_VALUE
 90
4
  1
Body Type
304
ACVALUE_END
170
5
140
0.125
171
1
172
0
173
0
174
0
175
2
176
1
 91
33
178
0
145
0.0
301
CELL_VALUE
 90
4
  1
Line mount
304
ACVALUE_END
170
5
140
0.125
171
1
172
0
173
1
174
0
175
1
176
1
 91
1
178
0
145
0.0
170
1
171
1
172
0
173
0
174
0
175
1
176
1
 91
33
178
0
145
0.0
301
CELL_VALUE
 90
4
  1
Interface
304
ACVALUE_END
170
5
140
0.125
171
1
172
0
173
0
174
0
175
2
176
1
 91
33
178
0
145
0.0
301
CELL_VALUE
 90
4
  1
None
304
ACVALUE_END
170
5
140
0.125
171
1
172
0
173
1
174
0
175
1
176
1
 91
1
178
0
145
0.0
170
1
171
1
172
0
173
0
174
0
175
1
176
1
 91
33
178
0
145
0.0
301
CELL_VALUE
 90
4
  1
Open Cavity Quantity
304
ACVALUE_END
170
5
140
0.125
171
1
172
0
173
0
174
0
175
2
176
1
 91
33
178
0
145
0.0
301
CELL_VALUE
 90
4
  1
2
304
ACVALUE_END
170
5
140
0.125
171
1
172
0
173
1
174
0
175
1
176
1
 91
1
178
0
145
0.0
170
1
171
1
172
0
173
0
174
0
175
1
176
1
 91
33
178
0
145
0.0
301
CELL_VALUE
 90
4
  1
Weight
304
ACVALUE_END
170
5
140
0.125
171
1
172
0
173
0
174
0
175
1
176
1
 91
33
178
0
145
0.0
301
CELL_VALUE
 90
4
  1
4.110 lb.
304
ACVALUE_END
170
5
140
0.125
171
1
172
0
173
0
174
0
175
1
176
1
 91
33
178
0
145
0.0
301
CELL_VALUE
 90
4
  1
1,864 kg.
304
ACVALUE_END
170
5
140
0.125
171
1
172
0
173
0
174
0
175
1
176
1
 91
33
178
0
145
0.0
301
CELL_VALUE
 90
4
  1
Mounting Hole Diameter
304
ACVALUE_END
170
5
140
0.125
171
1
172
0
173
0
174
0
175
1
176
1
 91
33
178
0
145
0.0
301
CELL_VALUE
 90
4
  1
.34 in.
304
ACVALUE_END
170
5
140
0.125
171
1
172
0
173
0
174
0
175
1
176
1
 91
33
178
0
145
0.0
301
CELL_VALUE
 90
4
  1
8.6 mm
304
ACVALUE_END
170
5
140
0.125
171
1
172
0
173
0
174
0
175
1
176
1
 91
33
178
0
145
0.0
301
CELL_VALUE
 90
4
  1
Mounting Hole Depth
304
ACVALUE_END
170
5
140
0.125
171
1
172
0
173
0
174
0
175
2
176
1
 91
33
178
0
145
0.0
301
CELL_VALUE
 90
4
  1
Through
304
ACVALUE_END
170
5
140
0.125
171
1
172
0
173
1
174
0
175
1
176
1
 91
1
178
0
145
0.0
170
1
171
1
172
0
173
0
174
0
175
1
176
1
 91
33
178
0
145
0.0
301
CELL_VALUE
 90
4
  1
Mounting Hole Quantity
304
ACVALUE_END
170
5
140
0.125
171
1
172
0
173
0
174
0
175
2
176
1
 91
33
178
0
145
0.0
301
CELL_VALUE
 90
4
  1
2
304
ACVALUE_END
170
5
140
0.125
171
1
172
0
173
1
174
0
175
1
176
1
 91
1
178
0
145
0.0
170
1
171
1
172
0
173
0
174
0
175
1
176
1
 91
33
178
0
145
0.0
301
CELL_VALUE
 90
4
  1
Includes integral cartridge(s)
304
ACVALUE_END
170
5
140
0.125
171
1
172
0
173
0
174
0
175
2
176
1
 91
33
178
0
145
0.0
301
CELL_VALUE
 90
4
  1
Yes (see Included Components)
304
ACVALUE_END
170
5
140
0.125
171
1
172
0
173
1
174
0
175
1
176
1
 91
1
178
0
145
0.0
170
1
  0
ACAD_TABLE
  5
28E
100
AcDbEntity
  8
0
 62
2
  6
CONTINUOUS
100
AcDbBlockReference
  2
*T3
 10
0.52125
 20
1.459
 30
0.0
100
AcDbTable
342
       386
343
211
 11
1.0
 21
0.0
 31
0.0
 90
22
 91
3
 92
3
 93
16
 94
0
 95
0
 96
0
 41
0.05
141
0.34375
141
0.344
141
0.25
142
1.3
142
2.0
142
1.3
171
1
172
0
173
0
174
0
175
3
176
1
 91
33
178
0
145
0.0
301
CELL_VALUE
 90
4
  1
Port Headings
304
ACVALUE_END
170
5
140
0.145
171
1
172
0
173
1
174
0
175
1
176
1
 91
1
178
0
145
0.0
170
1
171
1
172
0
173
1
174
0
175
1
176
1
 91
1
178
0
145
0.0
170
1
171
1
172
0
173
0
174
0
175
1
176
1
 91
33
178
0
145
0.0
301
CELL_VALUE
 90
4
  1
Product
304
ACVALUE_END
170
5
140
0.145
171
1
172
0
173
0
174
0
175
1
176
1
 91
33
178
0
145
0.0
301
CELL_VALUE
 90
4
  1
Port
304
ACVALUE_END
170
5
140
0.145
171
1
172
0
173
0
174
0
175
1
176
1
 91
33
178
0
145
0.0
301
CELL_VALUE
 90
4
  1
Size
304
ACVALUE_END
170
5
140
0.145
171
1
172
0
173
0
174
0
175
1
176
1
 91
33
178
0
145
0.0
301
CELL_VALUE
 90
4
  1
CMJ
304
ACVALUE_END
170
5
140
0.125
171
1
172
0
173
0
174
0
175
1
176
1
 91
33
178
0
145
0.0
301
CELL_VALUE
 90
4
  1
All Ports
304
ACVALUE_END
170
5
140
0.125
171
1
172
0
173
0
174
0
175
1
176
1
 91
33
178
0
145
0.0
301
CELL_VALUE
 90
4
  1
SAE 8
304
ACVALUE_END
170
5
140
0.125
  0
MTEXT
  5
28F
100
AcDbEntity
  8
0
100
AcDbMText
 62
2
  6
CONTINUOUS
  7
STANDARD
 71
1
 72
1
 10
0.52125
 20
5.75995
 30
0.0
 11
1.0
 21
0.0
 31
0.0
 44
0.6
  3
Notes\P \P1. Important: Carefully consider\P   the maximum system pressure. The\P   pressure rating of the manifold is\P   dependent on the manifold material,\P   with the port type/size a secondary\P   consideration. Manifolds\P   constructed of alu
  3
minum are not\P   rated for pressures higher than\P   3000 psi (210 bar), regardless of\P   the port type/size specified.\P2. This drawing is for reference\P   only. It is generated by an\P   automated process and does not fall\P   under Sun's docume
  1
nt control\P   process.
 40
0.1
 41
3.04
  0
LINE
  5
290
100
AcDbEntity
  8
0
100
AcDbLine
 62
7
  6
CONTINUOUS
 10
0.30125
 20
0.30125
 11
0.30125
 21
16.69875
  0
LINE
  5
291
100
AcDbEntity
  8
0
100
AcDbLine
 62
7
  6
CONTINUOUS
 10
0.30125
 20
0.30125
 11
21.69875
 21
0.30125
  0
LINE
  5
292
100
AcDbEntity
  8
0
100
AcDbLine
 62
7
  6
CONTINUOUS
 10
0.30125
 20
16.69875
 11
21.69875
 21
16.69875
  0
LINE
  5
293
100
AcDbEntity
  8
0
100
AcDbLine
 62
7
  6
CONTINUOUS
 10
21.69875
 20
0.30125
 11
21.69875
 21
16.69875
  0
LINE
  5
294
100
AcDbEntity
  8
0
100
AcDbLine
 62
7
  6
CONTINUOUS
 10
8.796326381
 20
9.8742849087
 11
9.7021922912
 21
10.7492842384
  0
LINE
  5
295
100
AcDbEntity
  8
0
100
AcDbLine
 62
7
  6
CONTINUOUS
 10
8.796326381
 20
6.4935443164
 11
8.796326381
 21
9.8742849087
  0
LINE
  5
296
100
AcDbEntity
  8
0
100
AcDbLine
 62
4
  6
CONTINUOUS
 10
8.9243115604
 20
9.1399988649
 11
8.9170671164
 21
9.1115234929
  0
LINE
  5
297
100
AcDbEntity
  8
0
100
AcDbLine
 62
4
  6
CONTINUOUS
 10
8.9170671164
 20
9.2081160768
 11
8.9243115604
 21
9.2172729361
  0
LINE
  5
298
100
AcDbEntity
  8
0
100
AcDbLine
 62
7
  6
CONTINUOUS
 10
12.2978077088
 20
6.2507157616
 11
8.796326381
 21
6.4935443164
  0
LINE
  5
299
100
AcDbEntity
  8
0
100
AcDbLine
 62
4
  6
CONTINUOUS
 10
8.9750226681
 20
9.2040968456
 11
8.9750226681
 21
9.184778333
  0
LINE
  5
29A
100
AcDbEntity
  8
0
100
AcDbLine
 62
4
  6
CONTINUOUS
 10
8.9750226681
 20
7.3514509228
 11
8.9750226681
 21
7.2355398193
  0
LINE
  5
29B
100
AcDbEntity
  8
0
100
AcDbLine
 62
4
  6
CONTINUOUS
 10
8.9388004483
 20
9.1583125731
 11
8.9243115604
 21
9.1399988649
  0
LINE
  5
29C
100
AcDbEntity
  8
0
100
AcDbLine
 62
4
  6
CONTINUOUS
 10
8.9750226681
 20
9.184778333
 11
8.9677782242
 21
9.1756214737
  0
LINE
  5
29D
100
AcDbEntity
  8
0
100
AcDbLine
 62
4
  6
CONTINUOUS
 10
10.5475499733
 20
6.6087483866
 11
10.6199944129
 21
6.6037243477
  0
LINE
  5
29E
100
AcDbEntity
  8
0
100
AcDbLine
 62
4
  6
CONTINUOUS
 10
9.3333811834
 20
9.4120326416
 11
9.3333811834
 21
9.3540770899
  0
LINE
  5
29F
100
AcDbEntity
  8
0
100
AcDbLine
 62
4
  6
CONTINUOUS
 10
8.9243115604
 20
9.2172729361
 11
8.9388004483
 21
9.2259273846
  0
LINE
  5
2A0
100
AcDbEntity
  8
0
100
AcDbLine
 62
4
  6
CONTINUOUS
 10
9.3913367352
 20
9.3500578587
 11
9.3913367352
 21
9.292102307
  0
LINE
  5
2A1
100
AcDbEntity
  8
0
100
AcDbLine
 62
4
  6
CONTINUOUS
 10
9.420314511
 20
9.2900926914
 11
9.420314511
 21
9.4060037949
  0
LINE
  5
2A2
100
AcDbEntity
  8
0
100
AcDbLine
 62
4
  6
CONTINUOUS
 10
9.4676448743
 20
8.6956636921
 11
9.4676448743
 21
8.8115747955
  0
LINE
  5
2A3
100
AcDbEntity
  8
0
100
AcDbLine
 62
4
  6
CONTINUOUS
 10
9.4782700627
 20
9.4019845637
 11
9.4782700627
 21
9.2860734603
  0
LINE
  5
2A4
100
AcDbEntity
  8
0
100
AcDbLine
 62
4
  6
CONTINUOUS
 10
9.5072478386
 20
9.3999749481
 11
9.5072478386
 21
9.2840638447
  0
LINE
  5
2A5
100
AcDbEntity
  8
0
100
AcDbLine
 62
4
  6
CONTINUOUS
 10
9.5256004191
 20
8.7909968368
 11
9.5256004191
 21
8.7082031912
  0
LINE
  5
2A6
100
AcDbEntity
  8
0
100
AcDbLine
 62
4
  6
CONTINUOUS
 10
8.9677782242
 20
9.1756214737
 11
8.9388004483
 21
9.1583125731
  0
LINE
  5
2A7
100
AcDbEntity
  8
0
100
AcDbLine
 62
4
  6
CONTINUOUS
 10
9.5652033903
 20
9.395955717
 11
9.5652033903
 21
9.2800446135
  0
LINE
  5
2A8
100
AcDbEntity
  8
0
100
AcDbLine
 62
4
  6
CONTINUOUS
 10
9.6811144937
 20
9.2720061512
 11
9.6811144937
 21
9.3879172546
  0
LINE
  5
2A9
100
AcDbEntity
  8
0
100
AcDbLine
 62
4
  6
CONTINUOUS
 10
9.7049866572
 20
8.6792039836
 11
9.7049866572
 21
8.795115087
  0
LINE
  5
2AA
100
AcDbEntity
  8
0
100
AcDbLine
 62
4
  6
CONTINUOUS
 10
9.7390700455
 20
9.2679869201
 11
9.7390700455
 21
9.3259424718
  0
LINE
  5
2AB
100
AcDbEntity
  8
0
100
AcDbLine
 62
4
  6
CONTINUOUS
 10
9.7643221099
 20
8.9466522133
 11
9.7643221099
 21
9.0294458588
  0
LINE
  5
2AC
100
AcDbEntity
  8
0
100
AcDbLine
 62
4
  6
CONTINUOUS
 10
9.5725168188
 20
8.6883907981
 11
9.6056342749
 21
8.8020051981
  0
LINE
  5
2AD
100
AcDbEntity
  8
0
100
AcDbLine
 62
4
  6
CONTINUOUS
 10
8.9677782242
 20
9.2142585127
 11
8.9750226681
 21
9.2040968456
  0
LINE
  5
2AE
100
AcDbEntity
  8
0
100
AcDbLine
 62
4
  6
CONTINUOUS
 10
9.6056342749
 20
8.8020051981
 11
9.6387517449
 21
8.6837973903
  0
LINE
  5
2AF
100
AcDbEntity
  8
0
100
AcDbLine
 62
4
  6
CONTINUOUS
 10
9.7712215695
 20
8.6746105768
 11
9.7712215695
 21
8.7905216802
  0
LINE
  5
2B0
100
AcDbEntity
  8
0
100
AcDbLine
 62
4
  6
CONTINUOUS
 10
9.7864004138
 20
9.2647045479
 11
9.7864004138
 21
9.3226600996
  0
LINE
  5
2B1
100
AcDbEntity
  8
0
100
AcDbLine
 62
4
  6
CONTINUOUS
 10
9.8443559655
 20
9.3186408684
 11
9.8443559655
 21
9.202729765
  0
LINE
  5
2B2
100
AcDbEntity
  8
0
100
AcDbLine
 62
4
  6
CONTINUOUS
 10
9.8609146938
 20
8.923394765
 11
9.8609146938
 21
9.0393058685
  0
LINE
  5
2B3
100
AcDbEntity
  8
0
100
AcDbLine
 62
4
  6
CONTINUOUS
 10
9.8829929999
 20
9.2580058293
 11
9.8829929999
 21
9.315961381
  0
LINE
  5
2B4
100
AcDbEntity
  8
0
100
AcDbLine
 62
4
  6
CONTINUOUS
 10
9.927149613
 20
9.0347124612
 11
9.927149613
 21
8.9188013578
  0
LINE
  5
2B5
100
AcDbEntity
  8
0
100
AcDbLine
 62
4
  6
CONTINUOUS
 10
9.9409485517
 20
9.3698977015
 11
9.9409485517
 21
9.2539865981
  0
LINE
  5
2B6
100
AcDbEntity
  8
0
100
AcDbLine
 62
4
  6
CONTINUOUS
 10
9.9450882523
 20
8.6791116112
 11
9.9450882523
 21
8.7619052567
  0
LINE
  5
2B7
100
AcDbEntity
  8
0
100
AcDbLine
 62
4
  6
CONTINUOUS
 10
9.8940321568
 20
8.9707742489
 11
9.927149613
 21
9.0347124612
  0
LINE
  5
2B8
100
AcDbEntity
  8
0
100
AcDbLine
 62
4
  6
CONTINUOUS
 10
9.7643221099
 20
9.0294458588
 11
9.7808808397
 21
9.0448562351
  0
LINE
  5
2B9
100
AcDbEntity
  8
0
100
AcDbLine
 62
4
  6
CONTINUOUS
 10
9.5256004191
 20
8.7082031912
 11
9.509041691
 21
8.6927928131
  0
LINE
  5
2BA
100
AcDbEntity
  8
0
100
AcDbLine
 62
4
  6
CONTINUOUS
 10
9.9795855861
 20
9.3092626624
 11
9.9795855861
 21
9.2513071107
  0
LINE
  5
2BB
100
AcDbEntity
  8
0
100
AcDbLine
 62
4
  6
CONTINUOUS
 10
10.0016638997
 20
8.9301925043
 11
10.0016638997
 21
9.0295448779
  0
LINE
  5
2BC
100
AcDbEntity
  8
0
100
AcDbLine
 62
4
  6
CONTINUOUS
 10
10.0416808016
 20
8.6724128951
 11
10.0416808016
 21
8.7552065407
  0
LINE
  5
2BD
100
AcDbEntity
  8
0
100
AcDbLine
 62
4
  6
CONTINUOUS
 10
10.0761781723
 20
9.244608392
 11
10.0761781723
 21
9.2832454265
  0
LINE
  5
2BE
100
AcDbEntity
  8
0
100
AcDbLine
 62
4
  6
CONTINUOUS
 10
10.0996363533
 20
8.7511873095
 11
10.0996363533
 21
8.668393664
  0
LINE
  5
2BF
100
AcDbEntity
  8
0
100
AcDbLine
 62
4
  6
CONTINUOUS
 10
10.1327537957
 20
8.6495382317
 11
10.1327537957
 21
8.7654493352
  0
LINE
  5
2C0
100
AcDbEntity
  8
0
100
AcDbLine
 62
4
  6
CONTINUOUS
 10
10.134133724
 20
9.2985447126
 11
10.134133724
 21
9.2405891609
  0
LINE
  5
2C1
100
AcDbEntity
  8
0
100
AcDbLine
 62
4
  6
CONTINUOUS
 10
10.1727707585
 20
9.2958652252
 11
10.1727707585
 21
9.2379096734
  0
LINE
  5
2C2
100
AcDbEntity
  8
0
100
AcDbLine
 62
4
  6
CONTINUOUS
 10
9.9851051647
 20
8.9147821266
 11
10.0016638997
 21
8.9301925043
  0
LINE
  5
2C3
100
AcDbEntity
  8
0
100
AcDbLine
 62
4
  6
CONTINUOUS
 10
9.9450882523
 20
8.7619052567
 11
9.9616469734
 21
8.7773156336
  0
LINE
  5
2C4
100
AcDbEntity
  8
0
100
AcDbLine
 62
4
  6
CONTINUOUS
 10
10.0416808016
 20
8.7552065407
 11
10.0582395228
 21
8.7706169175
  0
LINE
  5
2C5
100
AcDbEntity
  8
0
100
AcDbLine
 62
4
  6
CONTINUOUS
 10
9.4455665668
 20
8.7689493232
 11
9.4014099551
 21
8.749933287
  0
LINE
  5
2C6
100
AcDbEntity
  8
0
100
AcDbLine
 62
4
  6
CONTINUOUS
 10
9.509041691
 20
8.8087039165
 11
9.5256004191
 21
8.7909968368
  0
LINE
  5
2C7
100
AcDbEntity
  8
0
100
AcDbLine
 62
4
  6
CONTINUOUS
 10
10.1907093474
 20
8.7448713759
 11
10.1907093474
 21
8.6620777304
  0
LINE
  5
2C8
100
AcDbEntity
  8
0
100
AcDbLine
 62
4
  6
CONTINUOUS
 10
10.2307263102
 20
9.2338904423
 11
10.2307263102
 21
9.291845994
  0
LINE
  5
2C9
100
AcDbEntity
  8
0
100
AcDbLine
 62
4
  6
CONTINUOUS
 10
10.2376257885
 20
8.6422653343
 11
10.2376257885
 21
8.7581764378
  0
LINE
  5
2CA
100
AcDbEntity
  8
0
100
AcDbLine
 62
4
  6
CONTINUOUS
 10
10.2693633447
 20
9.2312109548
 11
10.2693633447
 21
9.3471220583
  0
LINE
  5
2CB
100
AcDbEntity
  8
0
100
AcDbLine
 62
4
  6
CONTINUOUS
 10
10.3080003792
 20
9.2285314674
 11
10.3080003792
 21
9.2864870191
  0
LINE
  5
2CC
100
AcDbEntity
  8
0
100
AcDbLine
 62
4
  6
CONTINUOUS
 10
10.3466374137
 20
9.2838075317
 11
10.3466374137
 21
9.22585198
  0
LINE
  5
2CD
100
AcDbEntity
  8
0
100
AcDbLine
 62
4
  6
CONTINUOUS
 10
10.0996363533
 20
8.668393664
 11
10.0830776322
 21
8.6529832854
  0
LINE
  5
2CE
100
AcDbEntity
  8
0
100
AcDbLine
 62
4
  6
CONTINUOUS
 10
10.1907093474
 20
8.6620777304
 11
10.1741506262
 21
8.6466673518
  0
LINE
  5
2CF
100
AcDbEntity
  8
0
100
AcDbLine
 62
4
  6
CONTINUOUS
 10
8.9532893362
 20
9.2249225768
 11
8.9677782242
 21
9.2142585127
  0
LINE
  5
2D0
100
AcDbEntity
  8
0
100
AcDbLine
 62
4
  6
CONTINUOUS
 10
9.9616469734
 20
8.6614045302
 11
9.9450882523
 21
8.6791116112
  0
LINE
  5
2D1
100
AcDbEntity
  8
0
100
AcDbLine
 62
4
  6
CONTINUOUS
 10
9.8609146938
 20
9.0393058685
 11
9.8940321568
 21
8.9707742489
  0
LINE
  5
2D2
100
AcDbEntity
  8
0
100
AcDbLine
 62
4
  6
CONTINUOUS
 10
10.4432299999
 20
9.2771088131
 11
10.4432299999
 21
9.2481310372
  0
LINE
  5
2D3
100
AcDbEntity
  8
0
100
AcDbLine
 62
4
  6
CONTINUOUS
 10
10.5011855516
 20
9.244111806
 11
10.5011855516
 21
9.2151340302
  0
LINE
  5
2D4
100
AcDbEntity
  8
0
100
AcDbLine
 62
4
  6
CONTINUOUS
 10
10.5837721931
 20
6.6062363672
 11
10.5837721931
 21
6.4903252637
  0
LINE
  5
2D5
100
AcDbEntity
  8
0
100
AcDbLine
 62
4
  6
CONTINUOUS
 10
10.3645760025
 20
8.6831374948
 11
10.3204193943
 21
8.6641214601
  0
LINE
  5
2D6
100
AcDbEntity
  8
0
100
AcDbLine
 62
4
  6
CONTINUOUS
 10
9.4014099551
 20
8.749933287
 11
9.4455665668
 21
8.7247927098
  0
LINE
  5
2D7
100
AcDbEntity
  8
0
100
AcDbLine
 62
4
  6
CONTINUOUS
 10
9.7808808397
 20
8.9289451317
 11
9.7643221099
 21
8.9466522133
  0
LINE
  5
2D8
100
AcDbEntity
  8
0
100
AcDbLine
 62
4
  6
CONTINUOUS
 10
10.0582395228
 20
8.6547058141
 11
10.0416808016
 21
8.6724128951
  0
LINE
  5
2D9
100
AcDbEntity
  8
0
100
AcDbLine
 62
4
  6
CONTINUOUS
 10
10.0830776322
 20
8.7688943888
 11
10.0996363533
 21
8.7511873095
  0
LINE
  5
2DA
100
AcDbEntity
  8
0
100
AcDbLine
 62
4
  6
CONTINUOUS
 10
10.1741506262
 20
8.7625784552
 11
10.1907093474
 21
8.7448713759
  0
LINE
  5
2DB
100
AcDbEntity
  8
0
100
AcDbLine
 62
4
  6
CONTINUOUS
 10
10.3204193943
 20
8.7082780735
 11
10.3645760025
 21
8.6831374948
  0
LINE
  5
2DC
100
AcDbEntity
  8
0
100
AcDbLine
 62
7
  6
CONTINUOUS
 10
12.2978077088
 20
9.6314563539
 11
13.203673619
 21
10.5064556836
  0
LINE
  5
2DD
100
AcDbEntity
  8
0
100
AcDbLine
 62
4
  6
CONTINUOUS
 10
12.0635706818
 20
8.9995645766
 11
12.0780595698
 21
9.0082190251
  0
LINE
  5
2DE
100
AcDbEntity
  8
0
100
AcDbLine
 62
4
  6
CONTINUOUS
 10
12.1070373456
 20
8.9579131141
 11
12.0780595698
 21
8.9406042136
  0
LINE
  5
2DF
100
AcDbEntity
  8
0
100
AcDbLine
 62
4
  6
CONTINUOUS
 10
10.1741506262
 20
8.6466673518
 11
10.1327537957
 21
8.6495382317
  0
LINE
  5
2E0
100
AcDbEntity
  8
0
100
AcDbLine
 62
4
  6
CONTINUOUS
 10
10.0830776322
 20
8.6529832854
 11
10.0582395228
 21
8.6547058141
  0
LINE
  5
2E1
100
AcDbEntity
  8
0
100
AcDbLine
 62
4
  6
CONTINUOUS
 10
9.9947644158
 20
8.6591078277
 11
9.9616469734
 21
8.6614045302
  0
LINE
  5
2E2
100
AcDbEntity
  8
0
100
AcDbLine
 62
4
  6
CONTINUOUS
 10
9.509041691
 20
8.6927928131
 11
9.4676448743
 21
8.6956636921
  0
LINE
  5
2E3
100
AcDbEntity
  8
0
100
AcDbLine
 62
4
  6
CONTINUOUS
 10
9.7712215695
 20
8.6746105768
 11
9.8208977606
 21
8.6711655212
  0
LINE
  5
2E4
100
AcDbEntity
  8
0
100
AcDbLine
 62
4
  6
CONTINUOUS
 10
10.2376257885
 20
8.6422653343
 11
10.287301952
 21
8.6388202807
  0
LINE
  5
2E5
100
AcDbEntity
  8
0
100
AcDbLine
 62
4
  6
CONTINUOUS
 10
9.5835559708
 20
8.7207426899
 11
9.627712579
 21
8.7176804187
  0
LINE
  5
2E6
100
AcDbEntity
  8
0
100
AcDbLine
 62
4
  6
CONTINUOUS
 10
10.2707432308
 20
8.7062035511
 11
10.2376257885
 21
8.7085002535
  0
LINE
  5
2E7
100
AcDbEntity
  8
0
100
AcDbLine
 62
4
  6
CONTINUOUS
 10
9.8043390395
 20
8.7385487916
 11
9.7712215695
 21
8.740845496
  0
LINE
  5
2E8
100
AcDbEntity
  8
0
100
AcDbLine
 62
4
  6
CONTINUOUS
 10
9.4676448743
 20
8.8115747955
 11
9.509041691
 21
8.8087039165
  0
LINE
  5
2E9
100
AcDbEntity
  8
0
100
AcDbLine
 62
4
  6
CONTINUOUS
 10
9.6718691872
 20
8.7974117913
 11
9.7381040995
 21
8.7928183846
  0
LINE
  5
2EA
100
AcDbEntity
  8
0
100
AcDbLine
 62
4
  6
CONTINUOUS
 10
9.7712215695
 20
8.7905216802
 11
9.8208977606
 21
8.7870766247
  0
LINE
  5
2EB
100
AcDbEntity
  8
0
100
AcDbLine
 62
4
  6
CONTINUOUS
 10
9.9616469734
 20
8.7773156336
 11
9.9947644158
 21
8.7750189312
  0
LINE
  5
2EC
100
AcDbEntity
  8
0
100
AcDbLine
 62
4
  6
CONTINUOUS
 10
10.0582395228
 20
8.7706169175
 11
10.0830776322
 21
8.7688943888
  0
LINE
  5
2ED
100
AcDbEntity
  8
0
100
AcDbLine
 62
4
  6
CONTINUOUS
 10
10.1327537957
 20
8.7654493352
 11
10.1741506262
 21
8.7625784552
  0
LINE
  5
2EE
100
AcDbEntity
  8
0
100
AcDbLine
 62
4
  6
CONTINUOUS
 10
10.2376257885
 20
8.7581764378
 11
10.287301952
 21
8.7547313841
  0
LINE
  5
2EF
100
AcDbEntity
  8
0
100
AcDbLine
 62
4
  6
CONTINUOUS
 10
9.8139982976
 20
8.9266484282
 11
9.7808808397
 21
8.9289451317
  0
LINE
  5
2F0
100
AcDbEntity
  8
0
100
AcDbLine
 62
4
  6
CONTINUOUS
 10
9.9602670691
 20
8.9165046544
 11
9.9851051647
 21
8.9147821266
  0
LINE
  5
2F1
100
AcDbEntity
  8
0
100
AcDbLine
 62
4
  6
CONTINUOUS
 10
12.0563262379
 20
8.9904077173
 11
12.0635706818
 21
8.9995645766
  0
LINE
  5
2F2
100
AcDbEntity
  8
0
100
AcDbLine
 62
4
  6
CONTINUOUS
 10
12.0780595698
 20
8.9406042136
 11
12.0635706818
 21
8.9222905053
  0
LINE
  5
2F3
100
AcDbEntity
  8
0
100
AcDbLine
 62
4
  6
CONTINUOUS
 10
12.1142817896
 20
8.9670699735
 11
12.1070373456
 21
8.9579131141
  0
LINE
  5
2F4
100
AcDbEntity
  8
0
100
AcDbLine
 62
4
  6
CONTINUOUS
 10
9.7808808397
 20
9.0448562351
 11
9.8139982976
 21
9.0425595316
  0
LINE
  5
2F5
100
AcDbEntity
  8
0
100
AcDbLine
 62
4
  6
CONTINUOUS
 10
8.9170671164
 20
9.1115234929
 11
8.9750226681
 21
9.1075042617
  0
LINE
  5
2F6
100
AcDbEntity
  8
0
100
AcDbLine
 62
4
  6
CONTINUOUS
 10
12.0563262379
 20
8.8938151334
 11
12.1142817896
 21
8.8897959022
  0
LINE
  5
2F7
100
AcDbEntity
  8
0
100
AcDbLine
 62
4
  6
CONTINUOUS
 10
8.9388004483
 20
9.2259273846
 11
8.9532893362
 21
9.2249225768
  0
LINE
  5
2F8
100
AcDbEntity
  8
0
100
AcDbLine
 62
4
  6
CONTINUOUS
 10
12.0780595698
 20
9.0082190251
 11
12.0925484577
 21
9.0072142173
  0
LINE
  5
2F9
100
AcDbEntity
  8
0
100
AcDbLine
 62
4
  6
CONTINUOUS
 10
9.8443559655
 20
9.202729765
 11
9.805718931
 21
9.2054092524
  0
LINE
  5
2FA
100
AcDbEntity
  8
0
100
AcDbLine
 62
4
  6
CONTINUOUS
 10
10.5011855516
 20
9.2151340302
 11
10.4432299999
 21
9.2191532614
  0
LINE
  5
2FB
100
AcDbEntity
  8
0
100
AcDbLine
 62
4
  6
CONTINUOUS
 10
10.134133724
 20
9.2405891609
 11
10.0761781723
 21
9.244608392
  0
LINE
  5
2FC
100
AcDbEntity
  8
0
100
AcDbLine
 62
4
  6
CONTINUOUS
 10
9.9409485517
 20
9.2539865981
 11
9.8829929999
 21
9.2580058293
  0
LINE
  5
2FD
100
AcDbEntity
  8
0
100
AcDbLine
 62
4
  6
CONTINUOUS
 10
9.8443559655
 20
9.2606853167
 11
9.7864004138
 21
9.2647045479
  0
LINE
  5
2FE
100
AcDbEntity
  8
0
100
AcDbLine
 62
4
  6
CONTINUOUS
 10
9.4782700627
 20
9.2860734603
 11
9.420314511
 21
9.2900926914
  0
LINE
  5
2FF
100
AcDbEntity
  8
0
100
AcDbLine
 62
4
  6
CONTINUOUS
 10
9.3913367352
 20
9.292102307
 11
9.3333811834
 21
9.2961215382
  0
LINE
  5
300
100
AcDbEntity
  8
0
100
AcDbLine
 62
4
  6
CONTINUOUS
 10
10.1727707585
 20
9.2379096734
 11
10.2307263102
 21
9.2338904423
  0
LINE
  5
301
100
AcDbEntity
  8
0
100
AcDbLine
 62
4
  6
CONTINUOUS
 10
10.3466374137
 20
9.22585198
 11
10.4045929654
 21
9.2218327488
  0
LINE
  5
302
100
AcDbEntity
  8
0
100
AcDbLine
 62
4
  6
CONTINUOUS
 10
10.4432299999
 20
9.2481310372
 11
10.5011855516
 21
9.244111806
  0
LINE
  5
303
100
AcDbEntity
  8
0
100
AcDbLine
 62
4
  6
CONTINUOUS
 10
10.0761781723
 20
9.2832454265
 11
10.134133724
 21
9.2792261954
  0
LINE
  5
304
100
AcDbEntity
  8
0
100
AcDbLine
 62
4
  6
CONTINUOUS
 10
10.134133724
 20
9.2985447126
 11
10.0954966896
 21
9.3012242
  0
LINE
  5
305
100
AcDbEntity
  8
0
100
AcDbLine
 62
4
  6
CONTINUOUS
 10
9.7390700455
 20
9.3259424718
 11
9.6811144937
 21
9.3299617029
  0
LINE
  5
306
100
AcDbEntity
  8
0
100
AcDbLine
 62
4
  6
CONTINUOUS
 10
9.3333811834
 20
9.3540770899
 11
9.3913367352
 21
9.3500578587
  0
LINE
  5
307
100
AcDbEntity
  8
0
100
AcDbLine
 62
4
  6
CONTINUOUS
 10
9.8829929999
 20
9.315961381
 11
9.9409485517
 21
9.3119421498
  0
LINE
  5
308
100
AcDbEntity
  8
0
100
AcDbLine
 62
4
  6
CONTINUOUS
 10
9.9795855861
 20
9.3092626624
 11
10.0375411379
 21
9.3052434312
  0
LINE
  5
309
100
AcDbEntity
  8
0
100
AcDbLine
 62
4
  6
CONTINUOUS
 10
10.3466374137
 20
9.2838075317
 11
10.4045929654
 21
9.2797883005
  0
LINE
  5
30A
100
AcDbEntity
  8
0
100
AcDbLine
 62
4
  6
CONTINUOUS
 10
10.4432299999
 20
9.2771088131
 11
10.5011855516
 21
9.2730895819
  0
LINE
  5
30B
100
AcDbEntity
  8
0
100
AcDbLine
 62
4
  6
CONTINUOUS
 10
10.3007559352
 20
9.3159671989
 11
10.3152448232
 21
9.3149623911
  0
LINE
  5
30C
100
AcDbEntity
  8
0
100
AcDbLine
 62
4
  6
CONTINUOUS
 10
9.3913367352
 20
9.4080134105
 11
9.3333811834
 21
9.4120326416
  0
LINE
  5
30D
100
AcDbEntity
  8
0
100
AcDbLine
 62
4
  6
CONTINUOUS
 10
9.5072478386
 20
9.3999749481
 11
9.5652033903
 21
9.395955717
  0
LINE
  5
30E
100
AcDbEntity
  8
0
100
AcDbLine
 62
4
  6
CONTINUOUS
 10
12.0635706818
 20
8.9222905053
 11
12.0563262379
 21
8.8938151334
  0
LINE
  5
30F
100
AcDbEntity
  8
0
100
AcDbLine
 62
4
  6
CONTINUOUS
 10
12.0925484577
 20
9.0072142173
 11
12.1070373456
 21
8.9965501532
  0
LINE
  5
310
100
AcDbEntity
  8
0
100
AcDbLine
 62
4
  6
CONTINUOUS
 10
12.1142817896
 20
8.9863884861
 11
12.1142817896
 21
8.9670699735
  0
LINE
  5
311
100
AcDbEntity
  8
0
100
AcDbLine
 62
4
  6
CONTINUOUS
 10
12.1142817896
 20
7.1337425632
 11
12.1142817896
 21
7.0178314598
  0
LINE
  5
312
100
AcDbEntity
  8
0
100
AcDbLine
 62
7
  6
CONTINUOUS
 10
12.2978077088
 20
9.6314563539
 11
8.796326381
 21
9.8742849087
  0
LINE
  5
313
100
AcDbEntity
  8
0
100
AcDbLine
 62
4
  6
CONTINUOUS
 10
12.1070373456
 20
8.9965501532
 11
12.1142817896
 21
8.9863884861
  0
LINE
  5
314
100
AcDbEntity
  8
0
100
AcDbLine
 62
7
  6
CONTINUOUS
 10
12.2978077088
 20
6.2507157616
 11
12.2978077088
 21
9.6314563539
  0
LINE
  5
315
100
AcDbEntity
  8
0
100
AcDbLine
 62
7
  6
CONTINUOUS
 10
13.203673619
 20
10.5064556836
 11
13.203673619
 21
7.1257150913
  0
LINE
  5
316
100
AcDbEntity
  8
0
100
AcDbLine
 62
7
  6
CONTINUOUS
 10
13.203673619
 20
10.5064556836
 11
9.7021922912
 21
10.7492842384
  0
LINE
  5
317
100
AcDbEntity
  8
0
100
AcDbLine
 62
7
  6
CONTINUOUS
 10
13.203673619
 20
7.1257150913
 11
12.2978077088
 21
6.2507157616
  0
ARC
  5
318
100
AcDbEntity
  8
0
100
AcDbCircle
 62
7
  6
CONTINUOUS
 10
11.1769113537
 20
8.5230875018
 40
0.4701271947
100
AcDbArc
 50
312.647489739
 51
313.2580020013
  0
ARC
  5
319
100
AcDbEntity
  8
0
100
AcDbCircle
 62
7
  6
CONTINUOUS
 10
10.0303574103
 20
7.5169005246
 40
0.4701271945
100
AcDbArc
 50
312.6474897388
 51
313.2580020015
  0
ARC
  5
31A
100
AcDbEntity
  8
0
100
AcDbCircle
 62
7
  6
CONTINUOUS
 10
11.0797965086
 20
8.6236272454
 40
0.4700888924
100
AcDbArc
 50
134.556684751
 51
135.3663488375
  0
ARC
  5
31B
100
AcDbEntity
  8
0
100
AcDbCircle
 62
7
  6
CONTINUOUS
 10
9.933242565
 20
7.6174402684
 40
0.4700888924
100
AcDbArc
 50
134.556684751
 51
135.3663488374
  0
ARC
  5
31C
100
AcDbEntity
  8
0
100
AcDbCircle
 62
7
  6
CONTINUOUS
 10
10.0277711883
 20
7.5816941663
 40
0.454126938
100
AcDbArc
 50
0.000926186
 51
2.2949281796
  0
ARC
  5
31D
100
AcDbEntity
  8
0
100
AcDbCircle
 62
7
  6
CONTINUOUS
 10
11.1743251319
 20
8.5878811433
 40
0.454126938
100
AcDbArc
 50
0.000926186
 51
2.2949281796
  0
ARC
  5
31E
100
AcDbEntity
  8
0
100
AcDbCircle
 62
7
  6
CONTINUOUS
 10
11.5207523226
 20
8.991723939
 40
0.4445269571
100
AcDbArc
 50
170.0390362826
 51
180.0318263578
  0
ARC
  5
31F
100
AcDbEntity
  8
0
100
AcDbCircle
 62
7
  6
CONTINUOUS
 10
10.374198379
 20
7.985536962
 40
0.4445269571
100
AcDbArc
 50
170.0390362826
 51
180.0318263578
  0
ARC
  5
320
100
AcDbEntity
  8
0
100
AcDbCircle
 62
7
  6
CONTINUOUS
 10
10.3762929577
 20
7.9866530449
 40
0.4304504076
100
AcDbArc
 50
169.6143884174
 51
180.0321356943
  0
ARC
  5
321
100
AcDbEntity
  8
0
100
AcDbCircle
 62
7
  6
CONTINUOUS
 10
11.5228469013
 20
8.9928400219
 40
0.4304504076
100
AcDbArc
 50
169.6143884174
 51
180.0321356943
  0
ARC
  5
322
100
AcDbEntity
  8
0
100
AcDbCircle
 62
7
  6
CONTINUOUS
 10
11.5302138014
 20
8.9984966547
 40
0.4158969953
100
AcDbArc
 50
169.8099589814
 51
180.0309516171
  0
ARC
  5
323
100
AcDbEntity
  8
0
100
AcDbCircle
 62
7
  6
CONTINUOUS
 10
10.3836598578
 20
7.9923096776
 40
0.4158969953
100
AcDbArc
 50
169.8099589814
 51
180.0309516171
  0
SPLINE
  5
324
100
AcDbEntity
  8
0
100
AcDbSpline
 62
7
  6
CONTINUOUS
 70
0
 71
3
 72
53
 73
49
 74
0
 42
0.0000001
 43
0.0000001
 44
0.0000000001
 40
0.0
 40
0.0
 40
0.0
 40
0.0
 40
0.0417740113
 40
0.0840369498
 40
0.1266584959
 40
0.1695064843
 40
0.2124480935
 40
0.2553500426
 40
0.298079237
 40
0.3405032536
 40
0.382490879
 40
0.4239126346
 40
0.4646413116
 40
0.5045525112
 40
0.543525196
 40
0.5814422576
 40
0.6181911067
 40
0.6536642972
 40
0.6877601986
 40
0.720383738
 40
0.7361160079
 40
0.7514479787
 40
0.7663699923
 40
0.7808730391
 40
0.7949486907
 40
0.8085892839
 40
0.8217878242
 40
0.8345382246
 40
0.8468351953
 40
0.858674535
 40
0.8700530305
 40
0.8809687964
 40
0.8914212207
 40
0.9014113515
 40
0.9109419335
 40
0.9200178526
 40
0.9286463131
 40
0.9368373658
 40
0.9446042772
 40
0.9519641672
 40
0.9589385932
 40
0.9655542738
 40
0.9718437889
 40
0.9778461802
 40
0.9836073652
 40
0.9891800467
 40
0.99462308
 40
1.0
 40
1.0
 40
1.0
 40
1.0
 10
12.8405507924
 20
7.5293534867
 30
0.0
 10
12.8405507924
 20
7.540360448
 30
0.0
 10
12.8407225126
 20
7.5625035433
 30
0.0
 10
12.8414816568
 20
7.5958690928
 30
0.0
 10
12.8427416496
 20
7.6295027178
 30
0.0
 10
12.8444983607
 20
7.6632930825
 30
0.0
 10
12.8467459849
 20
7.6971283913
 30
0.0
 10
12.8494770928
 20
7.7308967087
 30
0.0
 10
12.8526826372
 20
7.7644863141
 30
0.0
 10
12.8563519918
 20
7.7977860854
 30
0.0
 10
12.8604729823
 20
7.830685865
 30
0.0
 10
12.8650319278
 20
7.8630768281
 30
0.0
 10
12.8700136848
 20
7.8948518465
 30
0.0
 10
12.8754016963
 20
7.9259058467
 30
0.0
 10
12.8811780457
 20
7.9561361621
 30
0.0
 10
12.8873235144
 20
7.9854428852
 30
0.0
 10
12.8938176465
 20
8.0137291855
 30
0.0
 10
12.9006388057
 20
8.0409017185
 30
0.0
 10
12.9077642824
 20
8.0668706802
 30
0.0
 10
12.9140090767
 20
8.0876814768
 30
0.0
 10
12.9191494492
 20
8.1036562282
 30
0.0
 10
12.9230192226
 20
8.1151389379
 30
0.0
 10
12.92694695
 20
8.1262590484
 30
0.0
 10
12.9309293678
 20
8.1370073965
 30
0.0
 10
12.9349632104
 20
8.147375106
 30
0.0
 10
12.9390450876
 20
8.1573536397
 30
0.0
 10
12.9431716751
 20
8.1669347669
 30
0.0
 10
12.9473394962
 20
8.1761106183
 30
0.0
 10
12.9515451736
 20
8.1848736369
 30
0.0
 10
12.9557851658
 20
8.1932166529
 30
0.0
 10
12.9600560565
 20
8.2011328123
 30
0.0
 10
12.9643542661
 20
8.2086156745
 30
0.0
 10
12.9686763578
 20
8.2156591169
 30
0.0
 10
12.9730187508
 20
8.2222574525
 30
0.0
 10
12.9773780178
 20
8.2284053145
 30
0.0
 10
12.9817506281
 20
8.2340977833
 30
0.0
 10
12.986133212
 20
8.2393302576
 30
0.0
 10
12.9905223609
 20
8.2440985702
 30
0.0
 10
12.9949148319
 20
8.2483988542
 30
0.0
 10
12.999307422
 20
8.2522276104
 30
0.0
 10
13.0036970778
 20
8.2555815804
 30
0.0
 10
13.0080808268
 20
8.2584577166
 30
0.0
 10
13.0124557247
 20
8.2608531009
 30
0.0
 10
13.01681879
 20
8.2627648074
 30
0.0
 10
13.0211666511
 20
8.2641900213
 30
0.0
 10
13.0254957342
 20
8.265125922
 30
0.0
 10
13.0298007739
 20
8.2655703323
 30
0.0
 10
13.0326589608
 20
8.2655376943
 30
0.0
 10
13.0340723216
 20
8.2654396809
 30
0.0
  0
SPLINE
  5
325
100
AcDbEntity
  8
0
100
AcDbSpline
 62
7
  6
CONTINUOUS
 70
0
 71
3
 72
53
 73
49
 74
0
 42
0.0000001
 43
0.0000001
 44
0.0000000001
 40
0.0
 40
0.0
 40
0.0
 40
0.0
 40
0.0417740113
 40
0.0840369498
 40
0.1266584959
 40
0.1695064843
 40
0.2124480935
 40
0.2553500426
 40
0.298079237
 40
0.3405032536
 40
0.382490879
 40
0.4239126346
 40
0.4646413116
 40
0.5045525112
 40
0.543525196
 40
0.5814422576
 40
0.6181911067
 40
0.6536642972
 40
0.6877601986
 40
0.720383738
 40
0.7361160079
 40
0.7514479787
 40
0.7663699923
 40
0.7808730391
 40
0.7949486907
 40
0.8085892839
 40
0.8217878242
 40
0.8345382246
 40
0.8468351953
 40
0.858674535
 40
0.8700530305
 40
0.8809687964
 40
0.8914212207
 40
0.9014113515
 40
0.9109419335
 40
0.9200178526
 40
0.9286463131
 40
0.9368373658
 40
0.9446042772
 40
0.9519641672
 40
0.9589385932
 40
0.9655542738
 40
0.9718437889
 40
0.9778461802
 40
0.9836073652
 40
0.9891800467
 40
0.99462308
 40
1.0
 40
1.0
 40
1.0
 40
1.0
 10
12.8405507924
 20
9.4013179291
 30
0.0
 10
12.8405507924
 20
9.4123248905
 30
0.0
 10
12.8407225126
 20
9.4344679857
 30
0.0
 10
12.8414816568
 20
9.4678335352
 30
0.0
 10
12.8427416496
 20
9.5014671602
 30
0.0
 10
12.8444983607
 20
9.5352575249
 30
0.0
 10
12.8467459849
 20
9.5690928337
 30
0.0
 10
12.8494770928
 20
9.6028611511
 30
0.0
 10
12.8526826372
 20
9.6364507565
 30
0.0
 10
12.8563519918
 20
9.6697505278
 30
0.0
 10
12.8604729823
 20
9.7026503074
 30
0.0
 10
12.8650319278
 20
9.7350412706
 30
0.0
 10
12.8700136848
 20
9.7668162889
 30
0.0
 10
12.8754016963
 20
9.7978702891
 30
0.0
 10
12.8811780457
 20
9.8281006045
 30
0.0
 10
12.8873235144
 20
9.8574073276
 30
0.0
 10
12.8938176465
 20
9.8856936279
 30
0.0
 10
12.9006388057
 20
9.9128661609
 30
0.0
 10
12.9077642824
 20
9.9388351226
 30
0.0
 10
12.9140090767
 20
9.9596459192
 30
0.0
 10
12.9191494492
 20
9.9756206706
 30
0.0
 10
12.9230192226
 20
9.9871033803
 30
0.0
 10
12.92694695
 20
9.9982234908
 30
0.0
 10
12.9309293678
 20
10.0089718389
 30
0.0
 10
12.9349632104
 20
10.0193395484
 30
0.0
 10
12.9390450876
 20
10.0293180821
 30
0.0
 10
12.9431716751
 20
10.0388992093
 30
0.0
 10
12.9473394962
 20
10.0480750607
 30
0.0
 10
12.9515451736
 20
10.0568380793
 30
0.0
 10
12.9557851658
 20
10.0651810953
 30
0.0
 10
12.9600560565
 20
10.0730972547
 30
0.0
 10
12.9643542661
 20
10.0805801169
 30
0.0
 10
12.9686763578
 20
10.0876235593
 30
0.0
 10
12.9730187508
 20
10.094221895
 30
0.0
 10
12.9773780178
 20
10.1003697569
 30
0.0
 10
12.9817506281
 20
10.1060622257
 30
0.0
 10
12.986133212
 20
10.1112947
 30
0.0
 10
12.9905223609
 20
10.1160630126
 30
0.0
 10
12.9949148319
 20
10.1203632966
 30
0.0
 10
12.999307422
 20
10.1241920528
 30
0.0
 10
13.0036970778
 20
10.1275460228
 30
0.0
 10
13.0080808268
 20
10.130422159
 30
0.0
 10
13.0124557247
 20
10.1328175433
 30
0.0
 10
13.01681879
 20
10.1347292498
 30
0.0
 10
13.0211666511
 20
10.1361544637
 30
0.0
 10
13.0254957342
 20
10.1370903645
 30
0.0
 10
13.0298007739
 20
10.1375347747
 30
0.0
 10
13.0326589608
 20
10.1375021367
 30
0.0
 10
13.0340723216
 20
10.1374041233
 30
0.0
  0
SPLINE
  5
326
100
AcDbEntity
  8
0
100
AcDbSpline
 62
7
  6
CONTINUOUS
 70
0
 71
3
 72
23
 73
19
 74
0
 42
0.0000001
 43
0.0000001
 44
0.0000000001
 40
0.0
 40
0.0
 40
0.0
 40
0.0
 40
0.0637775561
 40
0.1273446565
 40
0.1907020307
 40
0.2538561431
 40
0.3168131834
 40
0.3795821015
 40
0.4421733894
 40
0.5045993415
 40
0.5668738676
 40
0.6290123791
 40
0.6910316472
 40
0.7529496401
 40
0.8147853492
 40
0.8765585998
 40
0.9382898533
 40
1.0
 40
1.0
 40
1.0
 40
1.0
 10
10.4953901077
 20
7.5232337614
 30
0.0
 10
10.4953901077
 20
7.5149021483
 30
0.0
 10
10.4949913457
 20
7.4982635909
 30
0.0
 10
10.4931914041
 20
7.4734069237
 30
0.0
 10
10.4901945787
 20
7.4487473594
 30
0.0
 10
10.4860079004
 20
7.424342633
 30
0.0
 10
10.480640833
 20
7.4002486663
 30
0.0
 10
10.474105757
 20
7.3765211107
 30
0.0
 10
10.4664176501
 20
7.353214644
 30
0.0
 10
10.45759419
 20
7.3303830212
 30
0.0
 10
10.447655678
 20
7.3080788955
 30
0.0
 10
10.4366249915
 20
7.2863537107
 30
0.0
 10
10.4245275348
 20
7.2652575843
 30
0.0
 10
10.4113911627
 20
7.2448391736
 30
0.0
 10
10.3972461882
 20
7.2251456292
 30
0.0
 10
10.3821250478
 20
7.2062222363
 30
0.0
 10
10.3660632149
 20
7.1881132347
 30
0.0
 10
10.3547507277
 20
7.1766092557
 30
0.0
 10
10.3489524238
 20
7.1710085383
 30
0.0
  0
SPLINE
  5
327
100
AcDbEntity
  8
0
100
AcDbSpline
 62
7
  6
CONTINUOUS
 70
0
 71
3
 72
23
 73
19
 74
0
 42
0.0000001
 43
0.0000001
 44
0.0000000001
 40
0.0
 40
0.0
 40
0.0
 40
0.0
 40
0.0637775561
 40
0.1273446565
 40
0.1907020307
 40
0.2538561431
 40
0.3168131834
 40
0.3795821015
 40
0.4421733894
 40
0.5045993415
 40
0.5668738676
 40
0.6290123791
 40
0.6910316472
 40
0.7529496401
 40
0.8147853492
 40
0.8765585998
 40
0.9382898533
 40
1.0
 40
1.0
 40
1.0
 40
1.0
 10
11.6419440513
 20
8.5294207384
 30
0.0
 10
11.6419440513
 20
8.5210891253
 30
0.0
 10
11.6415452893
 20
8.5044505679
 30
0.0
 10
11.6397453477
 20
8.4795939007
 30
0.0
 10
11.6367485223
 20
8.4549343365
 30
0.0
 10
11.632561844
 20
8.43052961
 30
0.0
 10
11.6271947766
 20
8.4064356433
 30
0.0
 10
11.6206597006
 20
8.3827080877
 30
0.0
 10
11.6129715937
 20
8.359401621
 30
0.0
 10
11.6041481336
 20
8.3365699982
 30
0.0
 10
11.5942096216
 20
8.3142658725
 30
0.0
 10
11.5831789351
 20
8.2925406877
 30
0.0
 10
11.5710814784
 20
8.2714445613
 30
0.0
 10
11.5579451063
 20
8.2510261507
 30
0.0
 10
11.5438001318
 20
8.2313326062
 30
0.0
 10
11.5286789914
 20
8.2124092134
 30
0.0
 10
11.5126171585
 20
8.1943002117
 30
0.0
 10
11.5013046713
 20
8.1827962327
 30
0.0
 10
11.4955063674
 20
8.1771955153
 30
0.0
  0
SPLINE
  5
328
100
AcDbEntity
  8
0
100
AcDbSpline
 62
7
  6
CONTINUOUS
 70
0
 71
3
 72
33
 73
29
 74
0
 42
0.0000001
 43
0.0000001
 44
0.0000000001
 40
0.0
 40
0.0
 40
0.0
 40
0.0
 40
0.0958348039
 40
0.1891069742
 40
0.2792500435
 40
0.36572131
 40
0.4480125246
 40
0.5256540669
 40
0.5625988158
 40
0.598226802
 40
0.632494146
 40
0.6653609288
 40
0.6967920316
 40
0.726757616
 40
0.7552336203
 40
0.7822031337
 40
0.8076567456
 40
0.8315949344
 40
0.8540288219
 40
0.8749836671
 40
0.8945009457
 40
0.9126431418
 40
0.9294980666
 40
0.945184889
 40
0.9598599849
 40
0.9737213022
 40
0.9870092614
 40
1.0
 40
1.0
 40
1.0
 40
1.0
 10
12.1498874949
 20
9.8635763906
 30
0.0
 10
12.1454075757
 20
9.8638870741
 30
0.0
 10
12.1365739911
 20
9.8645986637
 30
0.0
 10
12.1235581935
 20
9.865956993
 30
0.0
 10
12.1110154626
 20
9.8675847839
 30
0.0
 10
12.0990293978
 20
9.869470971
 30
0.0
 10
12.0876799607
 20
9.8716027295
 30
0.0
 10
12.0786719348
 20
9.873603361
 30
0.0
 10
12.0718463874
 20
9.8753245446
 30
0.0
 10
12.0670172172
 20
9.8766461254
 30
0.0
 10
12.062400928
 20
9.8780175175
 30
0.0
 10
12.0580051886
 20
9.879436466
 30
0.0
 10
12.053837294
 20
9.880900577
 30
0.0
 10
12.0499041393
 20
9.8824073889
 30
0.0
 10
12.0462122189
 20
9.8839544179
 30
0.0
 10
12.0427675816
 20
9.8855390483
 30
0.0
 10
12.0395758676
 20
9.8871587381
 30
0.0
 10
12.0366422178
 20
9.8888107854
 30
0.0
 10
12.0339713675
 20
9.8904926482
 30
0.0
 10
12.0315675185
 20
9.8922016705
 30
0.0
 10
12.0294344925
 20
9.8939354276
 30
0.0
 10
12.0275756449
 20
9.8956915301
 30
0.0
 10
12.0259940781
 20
9.8974678563
 30
0.0
 10
12.0246927692
 20
9.8992624688
 30
0.0
 10
12.0236747955
 20
9.901073398
 30
0.0
 10
12.0229436665
 20
9.9028985896
 30
0.0
 10
12.0225029011
 20
9.9047341232
 30
0.0
 10
12.022404348
 20
9.9059676306
 30
0.0
 10
12.022404348
 20
9.9065763577
 30
0.0
  0
SPLINE
  5
329
100
AcDbEntity
  8
0
100
AcDbSpline
 62
7
  6
CONTINUOUS
 70
0
 71
3
 72
33
 73
29
 74
0
 42
0.0000001
 43
0.0000001
 44
0.0000000001
 40
0.0
 40
0.0
 40
0.0
 40
0.0
 40
0.0958348039
 40
0.1891069742
 40
0.2792500435
 40
0.36572131
 40
0.4480125246
 40
0.5256540669
 40
0.5625988158
 40
0.598226802
 40
0.632494146
 40
0.6653609288
 40
0.6967920316
 40
0.726757616
 40
0.7552336203
 40
0.7822031337
 40
0.8076567456
 40
0.8315949344
 40
0.8540288219
 40
0.8749836671
 40
0.8945009457
 40
0.9126431418
 40
0.9294980666
 40
0.945184889
 40
0.9598599849
 40
0.9737213022
 40
0.9870092614
 40
1.0
 40
1.0
 40
1.0
 40
1.0
 10
9.3728505798
 20
10.0561645548
 30
0.0
 10
9.3683706605
 20
10.0564752383
 30
0.0
 10
9.3595370759
 20
10.0571868279
 30
0.0
 10
9.3465212783
 20
10.0585451571
 30
0.0
 10
9.3339785475
 20
10.0601729481
 30
0.0
 10
9.3219924827
 20
10.0620591352
 30
0.0
 10
9.3106430455
 20
10.0641908936
 30
0.0
 10
9.3016350197
 20
10.0661915252
 30
0.0
 10
9.2948094723
 20
10.0679127088
 30
0.0
 10
9.2899803021
 20
10.0692342896
 30
0.0
 10
9.2853640129
 20
10.0706056817
 30
0.0
 10
9.2809682735
 20
10.0720246302
 30
0.0
 10
9.2768003789
 20
10.0734887411
 30
0.0
 10
9.2728672242
 20
10.0749955531
 30
0.0
 10
9.2691753038
 20
10.0765425821
 30
0.0
 10
9.2657306664
 20
10.0781272125
 30
0.0
 10
9.2625389525
 20
10.0797469023
 30
0.0
 10
9.2596053027
 20
10.0813989496
 30
0.0
 10
9.2569344524
 20
10.0830808124
 30
0.0
 10
9.2545306033
 20
10.0847898346
 30
0.0
 10
9.2523975773
 20
10.0865235918
 30
0.0
 10
9.2505387298
 20
10.0882796943
 30
0.0
 10
9.2489571629
 20
10.0900560205
 30
0.0
 10
9.2476558541
 20
10.091850633
 30
0.0
 10
9.2466378804
 20
10.0936615622
 30
0.0
 10
9.2459067514
 20
10.0954867538
 30
0.0
 10
9.2454659859
 20
10.0973222873
 30
0.0
 10
9.2453674328
 20
10.0985557948
 30
0.0
 10
9.2453674328
 20
10.0991645219
 30
0.0
  0
SPLINE
  5
32A
100
AcDbEntity
  8
0
100
AcDbSpline
 62
7
  6
CONTINUOUS
 70
0
 71
3
 72
15
 73
11
 74
0
 42
0.0000001
 43
0.0000001
 44
0.0000000001
 40
0.0
 40
0.0
 40
0.0
 40
0.0
 40
0.1193069051
 40
0.2376286404
 40
0.3562779551
 40
0.4766151382
 40
0.5999675392
 40
0.7275804037
 40
0.8605909224
 40
1.0
 40
1.0
 40
1.0
 40
1.0
 10
11.1299540453
 20
8.4551409307
 30
0.0
 10
11.1308999203
 20
8.4560545758
 30
0.0
 10
11.1326880024
 20
8.4579770495
 30
0.0
 10
11.1350316171
 20
8.4611379591
 30
0.0
 10
11.137013315
 20
8.4645510871
 30
0.0
 10
11.1386301658
 20
8.4682116026
 30
0.0
 10
11.1398817433
 20
8.4721158224
 30
0.0
 10
11.1407688786
 20
8.4762608641
 30
0.0
 10
11.1412942317
 20
8.4806443081
 30
0.0
 10
11.1414030263
 20
8.483648735
 30
0.0
 10
11.1414029453
 20
8.4851853907
 30
0.0
  0
SPLINE
  5
32B
100
AcDbEntity
  8
0
100
AcDbSpline
 62
7
  6
CONTINUOUS
 70
0
 71
3
 72
47
 73
43
 74
0
 42
0.0000001
 43
0.0000001
 44
0.0000000001
 40
0.0
 40
0.0
 40
0.0
 40
0.0
 40
0.0385052873
 40
0.0769580345
 40
0.1153549145
 40
0.1536927562
 40
0.1919622292
 40
0.2301502049
 40
0.2682385393
 40
0.3062037067
 40
0.3440161656
 40
0.3816394993
 40
0.419029461
 40
0.4561328681
 40
0.4928866255
 40
0.529216937
 40
0.5650386932
 40
0.6002554636
 40
0.6347602778
 40
0.6684371909
 40
0.7011638917
 40
0.7328151504
 40
0.7632670443
 40
0.7924015335
 40
0.8201112593
 40
0.8334046649
 40
0.84630892
 40
0.858815739
 40
0.8709183467
 40
0.882611879
 40
0.8938931719
 40
0.9047615418
 40
0.9152184008
 40
0.9252682548
 40
0.9349183959
 40
0.9441798769
 40
0.9530675633
 40
0.9697937456
 40
0.9776972486
 40
0.9853370787
 40
0.9927555168
 40
1.0
 40
1.0
 40
1.0
 40
1.0
 10
10.8459574228
 20
8.7690566509
 30
0.0
 10
10.8459574228
 20
8.7627514786
 30
0.0
 10
10.8462493134
 20
8.7501477663
 30
0.0
 10
10.8475644868
 20
8.7312979189
 30
0.0
 10
10.8497558357
 20
8.7125568569
 30
0.0
 10
10.8528212752
 20
8.6939692207
 30
0.0
 10
10.8567579759
 20
8.6755812452
 30
0.0
 10
10.8615614246
 20
8.6574425392
 30
0.0
 10
10.8672250752
 20
8.6396058274
 30
0.0
 10
10.8737395559
 20
8.6221273545
 30
0.0
 10
10.881091761
 20
8.6050670264
 30
0.0
 10
10.8892637517
 20
8.5884884985
 30
0.0
 10
10.8982314318
 20
8.5724590916
 30
0.0
 10
10.907963066
 20
8.5570494462
 30
0.0
 10
10.9184177099
 20
8.5423328247
 30
0.0
 10
10.9295436877
 20
8.5283840196
 30
0.0
 10
10.9412772112
 20
8.515277776
 30
0.0
 10
10.9535413863
 20
8.5030867414
 30
0.0
 10
10.9662458261
 20
8.491878999
 30
0.0
 10
10.9792870651
 20
8.4817153403
 30
0.0
 10
10.9925499532
 20
8.4726465571
 30
0.0
 10
11.0059099174
 20
8.4647110766
 30
0.0
 10
11.0192363957
 20
8.4579331365
 30
0.0
 10
11.0323956289
 20
8.4523223867
 30
0.0
 10
11.0432596748
 20
8.4485640212
 30
0.0
 10
11.0517513636
 20
8.4461469381
 30
0.0
 10
11.0579096921
 20
8.444642649
 30
0.0
 10
11.0639307665
 20
8.4434178453
 30
0.0
 10
11.0698006273
 20
8.4424680032
 30
0.0
 10
11.0755058795
 20
8.4417881817
 30
0.0
 10
11.0810339262
 20
8.4413731423
 30
0.0
 10
11.0863728768
 20
8.4412173726
 30
0.0
 10
11.0915116526
 20
8.4413152743
 30
0.0
 10
11.0964399615
 20
8.4416611872
 30
0.0
 10
11.101148112
 20
8.442249481
 30
0.0
 10
11.1056278844
 20
8.4430748487
 30
0.0
 10
11.1111714421
 20
8.4444558943
 30
0.0
 10
11.1163636181
 20
8.4463030092
 30
0.0
 10
11.1211056256
 20
8.4486450537
 30
0.0
 10
11.1243331517
 20
8.4505830011
 30
0.0
 10
11.1272922628
 20
8.4527311414
 30
0.0
 10
11.1291008143
 20
8.4543167727
 30
0.0
 10
11.1299540453
 20
8.4551409307
 30
0.0
  0
SPLINE
  5
32C
100
AcDbEntity
  8
0
100
AcDbSpline
 62
7
  6
CONTINUOUS
 70
0
 71
3
 72
23
 73
19
 74
0
 42
0.0000001
 43
0.0000001
 44
0.0000000001
 40
0.0
 40
0.0
 40
0.0
 40
0.0
 40
0.0637774724
 40
0.127344696
 40
0.1907020124
 40
0.2538561402
 40
0.3168131804
 40
0.3795820984
 40
0.4421733882
 40
0.5045993399
 40
0.5668738668
 40
0.6290123797
 40
0.6910316501
 40
0.7529496455
 40
0.8147853558
 40
0.8765586055
 40
0.9382898564
 40
1.0
 40
1.0
 40
1.0
 40
1.0
 10
10.4854212505
 20
7.5371045841
 30
0.0
 10
10.4854212505
 20
7.5291355856
 30
0.0
 10
10.4850398402
 20
7.513221158
 30
0.0
 10
10.4833182469
 20
7.4894462909
 30
0.0
 10
10.4804518495
 20
7.4658599369
 30
0.0
 10
10.4764474003
 20
7.4425173424
 30
0.0
 10
10.4713139327
 20
7.4194719748
 30
0.0
 10
10.4650632929
 20
7.3967770717
 30
0.0
 10
10.4577098003
 20
7.3744849311
 30
0.0
 10
10.4492703726
 20
7.3526469653
 30
0.0
 10
10.4397644291
 20
7.3313135346
 30
0.0
 10
10.4292138494
 20
7.3105338435
 30
0.0
 10
10.41764293
 20
7.2903558289
 30
0.0
 10
10.4050783106
 20
7.2708260319
 30
0.0
 10
10.3915489782
 20
7.2519895561
 30
0.0
 10
10.3770859644
 20
7.2338897114
 30
0.0
 10
10.3617232
 20
7.2165688125
 30
0.0
 10
10.3509030953
 20
7.2055654583
 30
0.0
 10
10.3453571469
 20
7.200208488
 30
0.0
  0
SPLINE
  5
32D
100
AcDbEntity
  8
0
100
AcDbSpline
 62
7
  6
CONTINUOUS
 70
0
 71
3
 72
23
 73
19
 74
0
 42
0.0000001
 43
0.0000001
 44
0.0000000001
 40
0.0
 40
0.0
 40
0.0
 40
0.0
 40
0.0637772815
 40
0.1273447908
 40
0.1907019866
 40
0.2538561396
 40
0.3168131864
 40
0.379582096
 40
0.4421733877
 40
0.5045993365
 40
0.5668738645
 40
0.6290123802
 40
0.6910316524
 40
0.7529496465
 40
0.8147853538
 40
0.8765586016
 40
0.9382898535
 40
1.0
 40
1.0
 40
1.0
 40
1.0
 10
10.4818981263
 20
7.5817015072
 30
0.0
 10
10.4818981263
 20
7.5744731149
 30
0.0
 10
10.4815521529
 20
7.5600376558
 30
0.0
 10
10.4799905667
 20
7.5384722652
 30
0.0
 10
10.4773905404
 20
7.5170778464
 30
0.0
 10
10.4737582493
 20
7.4959045625
 30
0.0
 10
10.4691018543
 20
7.4750008711
 30
0.0
 10
10.4634320946
 20
7.4544150813
 30
0.0
 10
10.4567619799
 20
7.4341946239
 30
0.0
 10
10.4491068582
 20
7.4143861294
 30
0.0
 10
10.4404843419
 20
7.3950352786
 30
0.0
 10
10.4309142702
 20
7.3761867055
 30
0.0
 10
10.4204186687
 20
7.3578839004
 30
0.0
 10
10.4090217044
 20
7.3401690801
 30
0.0
 10
10.3967496922
 20
7.3230831425
 30
0.0
 10
10.3836307802
 20
7.3066653695
 30
0.0
 10
10.3696957423
 20
7.2909541425
 30
0.0
 10
10.3598811776
 20
7.2809733718
 30
0.0
 10
10.3548506373
 20
7.276114236
 30
0.0
  0
SPLINE
  5
32E
100
AcDbEntity
  8
0
100
AcDbSpline
 62
7
  6
CONTINUOUS
 70
0
 71
3
 72
44
 73
40
 74
0
 42
0.0000001
 43
0.0000001
 44
0.0000000001
 40
0.0
 40
0.0
 40
0.0
 40
0.0
 40
0.0310744349
 40
0.0623061033
 40
0.0936903779
 40
0.1252186236
 40
0.1568794503
 40
0.1886586803
 40
0.2205397066
 40
0.2525038554
 40
0.2845307769
 40
0.3165988658
 40
0.3486856972
 40
0.3807684736
 40
0.4128244778
 40
0.4448315246
 40
0.4767684059
 40
0.5086153213
 40
0.5403542862
 40
0.5719695169
 40
0.6034477806
 40
0.6347786986
 40
0.6659550044
 40
0.696972748
 40
0.7278314278
 40
0.7585340529
 40
0.7890871347
 40
0.8195005891
 40
0.8497875544
 40
0.8648914079
 40
0.8799699038
 40
0.8950254603
 40
0.9100606302
 40
0.9250780906
 40
0.9400806268
 40
0.9550711117
 40
0.9700524936
 40
0.9850277766
 40
1.0
 40
1.0
 40
1.0
 40
1.0
 10
10.4854212505
 20
7.5371045841
 30
0.0
 10
10.4854212505
 20
7.5494684328
 30
0.0
 10
10.4844989286
 20
7.574268204
 30
0.0
 10
10.4803810011
 20
7.6113491295
 30
0.0
 10
10.4735483394
 20
7.6482123216
 30
0.0
 10
10.464038693
 20
7.6846527289
 30
0.0
 10
10.4519047063
 20
7.7204709439
 30
0.0
 10
10.4372133252
 20
7.7554701955
 30
0.0
 10
10.4200454296
 20
7.7894584569
 30
0.0
 10
10.4004954454
 20
7.8222491993
 30
0.0
 10
10.3786708788
 20
7.8536625295
 30
0.0
 10
10.3546916151
 20
7.8835260778
 30
0.0
 10
10.328689291
 20
7.9116759341
 30
0.0
 10
10.3008066758
 20
7.9379576262
 30
0.0
 10
10.2711967975
 20
7.9622268854
 30
0.0
 10
10.2400221029
 20
7.9843503964
 30
0.0
 10
10.2074536516
 20
8.0042066143
 30
0.0
 10
10.1736701578
 20
8.0216864105
 30
0.0
 10
10.1388569806
 20
8.0366935868
 30
0.0
 10
10.1032051612
 20
8.0491454554
 30
0.0
 10
10.066910407
 20
8.0589733732
 30
0.0
 10
10.0301719842
 20
8.0661229994
 30
0.0
 10
9.9931916584
 20
8.0705546037
 30
0.0
 10
9.9561726296
 20
8.072243442
 30
0.0
 10
9.9193183588
 20
8.0711797767
 30
0.0
 10
9.8828316344
 20
8.0673689791
 30
0.0
 10
9.8469128765
 20
8.0608313787
 30
0.0
 10
9.8117611839
 20
8.0516031363
 30
0.0
 10
9.7832369195
 20
8.0417012238
 30
0.0
 10
9.7610039489
 20
8.0324928616
 30
0.0
 10
9.7446523492
 20
8.0249582979
 30
0.0
 10
9.7286336016
 20
8.0168003642
 30
0.0
 10
9.7129694527
 20
8.0080301086
 30
0.0
 10
9.6976815173
 20
7.9986596869
 30
0.0
 10
9.6827908088
 20
7.9887019658
 30
0.0
 10
9.6683178866
 20
7.9781706101
 30
0.0
 10
9.6542825488
 20
7.9670801076
 30
0.0
 10
9.6407043958
 20
7.9554459498
 30
0.0
 10
9.6319686078
 20
7.9473371357
 30
0.0
 10
9.6276839163
 20
7.9431984449
 30
0.0
  0
SPLINE
  5
32F
100
AcDbEntity
  8
0
100
AcDbSpline
 62
7
  6
CONTINUOUS
 70
0
 71
3
 72
23
 73
19
 74
0
 42
0.0000001
 43
0.0000001
 44
0.0000000001
 40
0.0
 40
0.0
 40
0.0
 40
0.0
 40
0.0638791805
 40
0.1275345516
 40
0.1909676692
 40
0.2541823925
 40
0.3171848698
 40
0.3799834959
 40
0.4425888439
 40
0.5050135722
 40
0.5672723046
 40
0.6293814867
 40
0.6913592194
 40
0.7532250695
 40
0.8149998588
 40
0.8767054351
 40
0.9383644294
 40
1.0
 40
1.0
 40
1.0
 40
1.0
 10
10.0325313528
 20
8.0653903628
 30
0.0
 10
10.024911657
 20
8.0659721517
 30
0.0
 10
10.0096669419
 20
8.0667517625
 30
0.0
 10
9.9868120814
 20
8.0667613689
 30
0.0
 10
9.964065166
 20
8.0656092675
 30
0.0
 10
9.9414852059
 20
8.063298277
 30
0.0
 10
9.919129837
 20
8.0598342778
 30
0.0
 10
9.8970563841
 20
8.0552260782
 30
0.0
 10
9.8753213919
 20
8.0494854247
 30
0.0
 10
9.8539805666
 20
8.0426269648
 30
0.0
 10
9.8330886101
 20
8.0346682153
 30
0.0
 10
9.8126990849
 20
8.0256295139
 30
0.0
 10
9.7928642731
 20
8.015533987
 30
0.0
 10
9.7736350208
 20
8.0044074701
 30
0.0
 10
9.755060683
 20
7.9922784999
 30
0.0
 10
9.737188727
 20
7.9791779895
 30
0.0
 10
9.7200656055
 20
7.9651400977
 30
0.0
 10
9.7091764616
 20
7.9551784709
 30
0.0
 10
9.7038730625
 20
7.9500557732
 30
0.0
  0
SPLINE
  5
330
100
AcDbEntity
  8
0
100
AcDbSpline
 62
7
  6
CONTINUOUS
 70
0
 71
3
 72
23
 73
19
 74
0
 42
0.0000001
 43
0.0000001
 44
0.0000000001
 40
0.0
 40
0.0
 40
0.0
 40
0.0
 40
0.0637774724
 40
0.127344696
 40
0.1907020124
 40
0.2538561402
 40
0.3168131804
 40
0.3795820984
 40
0.4421733882
 40
0.5045993399
 40
0.5668738668
 40
0.6290123797
 40
0.6910316501
 40
0.7529496455
 40
0.8147853558
 40
0.8765586055
 40
0.9382898564
 40
1.0
 40
1.0
 40
1.0
 40
1.0
 10
11.6319751941
 20
8.5432915611
 30
0.0
 10
11.6319751941
 20
8.5353225626
 30
0.0
 10
11.6315937838
 20
8.519408135
 30
0.0
 10
11.6298721905
 20
8.495633268
 30
0.0
 10
11.6270057931
 20
8.4720469139
 30
0.0
 10
11.6230013439
 20
8.4487043194
 30
0.0
 10
11.6178678763
 20
8.4256589519
 30
0.0
 10
11.6116172365
 20
8.4029640487
 30
0.0
 10
11.6042637439
 20
8.3806719081
 30
0.0
 10
11.5958243162
 20
8.3588339424
 30
0.0
 10
11.5863183727
 20
8.3375005117
 30
0.0
 10
11.575767793
 20
8.3167208205
 30
0.0
 10
11.5641968736
 20
8.2965428059
 30
0.0
 10
11.5516322542
 20
8.2770130089
 30
0.0
 10
11.5381029218
 20
8.2581765331
 30
0.0
 10
11.523639908
 20
8.2400766884
 30
0.0
 10
11.5082771436
 20
8.2227557895
 30
0.0
 10
11.4974570389
 20
8.2117524353
 30
0.0
 10
11.4919110905
 20
8.206395465
 30
0.0
  0
SPLINE
  5
331
100
AcDbEntity
  8
0
100
AcDbSpline
 62
7
  6
CONTINUOUS
 70
0
 71
3
 72
23
 73
19
 74
0
 42
0.0000001
 43
0.0000001
 44
0.0000000001
 40
0.0
 40
0.0
 40
0.0
 40
0.0
 40
0.0637772815
 40
0.1273447908
 40
0.1907019866
 40
0.2538561396
 40
0.3168131864
 40
0.379582096
 40
0.4421733877
 40
0.5045993365
 40
0.5668738645
 40
0.6290123802
 40
0.6910316524
 40
0.7529496465
 40
0.8147853538
 40
0.8765586016
 40
0.9382898535
 40
1.0
 40
1.0
 40
1.0
 40
1.0
 10
11.6284520699
 20
8.5878884843
 30
0.0
 10
11.6284520699
 20
8.580660092
 30
0.0
 10
11.6281060965
 20
8.5662246328
 30
0.0
 10
11.6265445103
 20
8.5446592422
 30
0.0
 10
11.623944484
 20
8.5232648234
 30
0.0
 10
11.6203121929
 20
8.5020915396
 30
0.0
 10
11.6156557979
 20
8.4811878482
 30
0.0
 10
11.6099860382
 20
8.4606020583
 30
0.0
 10
11.6033159235
 20
8.440381601
 30
0.0
 10
11.5956608018
 20
8.4205731064
 30
0.0
 10
11.5870382855
 20
8.4012222556
 30
0.0
 10
11.5774682138
 20
8.3823736825
 30
0.0
 10
11.5669726123
 20
8.3640708774
 30
0.0
 10
11.555575648
 20
8.3463560572
 30
0.0
 10
11.5433036358
 20
8.3292701196
 30
0.0
 10
11.5301847238
 20
8.3128523465
 30
0.0
 10
11.5162496859
 20
8.2971411196
 30
0.0
 10
11.5064351212
 20
8.2871603488
 30
0.0
 10
11.5014045809
 20
8.282301213
 30
0.0
  0
SPLINE
  5
332
100
AcDbEntity
  8
0
100
AcDbSpline
 62
7
  6
CONTINUOUS
 70
0
 71
3
 72
44
 73
40
 74
0
 42
0.0000001
 43
0.0000001
 44
0.0000000001
 40
0.0
 40
0.0
 40
0.0
 40
0.0
 40
0.0310744349
 40
0.0623061033
 40
0.0936903779
 40
0.1252186236
 40
0.1568794503
 40
0.1886586803
 40
0.2205397066
 40
0.2525038554
 40
0.2845307769
 40
0.3165988658
 40
0.3486856972
 40
0.3807684736
 40
0.4128244778
 40
0.4448315246
 40
0.4767684059
 40
0.5086153213
 40
0.5403542862
 40
0.5719695169
 40
0.6034477806
 40
0.6347786986
 40
0.6659550044
 40
0.696972748
 40
0.7278314278
 40
0.7585340529
 40
0.7890871347
 40
0.8195005891
 40
0.8497875544
 40
0.8648914079
 40
0.8799699038
 40
0.8950254603
 40
0.9100606302
 40
0.9250780906
 40
0.9400806268
 40
0.9550711117
 40
0.9700524936
 40
0.9850277766
 40
1.0
 40
1.0
 40
1.0
 40
1.0
 10
11.6319751941
 20
8.5432915611
 30
0.0
 10
11.6319751941
 20
8.5556554099
 30
0.0
 10
11.6310528722
 20
8.580455181
 30
0.0
 10
11.6269349447
 20
8.6175361065
 30
0.0
 10
11.620102283
 20
8.6543992986
 30
0.0
 10
11.6105926366
 20
8.690839706
 30
0.0
 10
11.5984586499
 20
8.726657921
 30
0.0
 10
11.5837672688
 20
8.7616571726
 30
0.0
 10
11.5665993732
 20
8.795645434
 30
0.0
 10
11.547049389
 20
8.8284361763
 30
0.0
 10
11.5252248224
 20
8.8598495065
 30
0.0
 10
11.5012455587
 20
8.8897130548
 30
0.0
 10
11.4752432346
 20
8.9178629111
 30
0.0
 10
11.4473606194
 20
8.9441446032
 30
0.0
 10
11.4177507411
 20
8.9684138625
 30
0.0
 10
11.3865760465
 20
8.9905373734
 30
0.0
 10
11.3540075952
 20
9.0103935913
 30
0.0
 10
11.3202241014
 20
9.0278733876
 30
0.0
 10
11.2854109242
 20
9.0428805639
 30
0.0
 10
11.2497591048
 20
9.0553324324
 30
0.0
 10
11.2134643506
 20
9.0651603502
 30
0.0
 10
11.1767259278
 20
9.0723099764
 30
0.0
 10
11.139745602
 20
9.0767415807
 30
0.0
 10
11.1027265732
 20
9.078430419
 30
0.0
 10
11.0658723024
 20
9.0773667537
 30
0.0
 10
11.029385578
 20
9.0735559561
 30
0.0
 10
10.9934668201
 20
9.0670183557
 30
0.0
 10
10.9583151275
 20
9.0577901133
 30
0.0
 10
10.9297908631
 20
9.0478882008
 30
0.0
 10
10.9075578925
 20
9.0386798386
 30
0.0
 10
10.8912062928
 20
9.0311452749
 30
0.0
 10
10.8751875452
 20
9.0229873412
 30
0.0
 10
10.8595233963
 20
9.0142170856
 30
0.0
 10
10.8442354609
 20
9.0048466639
 30
0.0
 10
10.8293447524
 20
8.9948889429
 30
0.0
 10
10.8148718302
 20
8.9843575872
 30
0.0
 10
10.8008364924
 20
8.9732670846
 30
0.0
 10
10.7872583394
 20
8.9616329268
 30
0.0
 10
10.7785225514
 20
8.9535241128
 30
0.0
 10
10.7742378599
 20
8.949385422
 30
0.0
  0
SPLINE
  5
333
100
AcDbEntity
  8
0
100
AcDbSpline
 62
7
  6
CONTINUOUS
 70
0
 71
3
 72
23
 73
19
 74
0
 42
0.0000001
 43
0.0000001
 44
0.0000000001
 40
0.0
 40
0.0
 40
0.0
 40
0.0
 40
0.0638791805
 40
0.1275345516
 40
0.1909676692
 40
0.2541823925
 40
0.3171848698
 40
0.3799834959
 40
0.4425888439
 40
0.5050135722
 40
0.5672723046
 40
0.6293814867
 40
0.6913592194
 40
0.7532250695
 40
0.8149998588
 40
0.8767054351
 40
0.9383644294
 40
1.0
 40
1.0
 40
1.0
 40
1.0
 10
11.1790852964
 20
9.0715773398
 30
0.0
 10
11.1714656006
 20
9.0721591287
 30
0.0
 10
11.1562208855
 20
9.0729387395
 30
0.0
 10
11.133366025
 20
9.072948346
 30
0.0
 10
11.1106191096
 20
9.0717962445
 30
0.0
 10
11.0880391495
 20
9.069485254
 30
0.0
 10
11.0656837806
 20
9.0660212548
 30
0.0
 10
11.0436103277
 20
9.0614130553
 30
0.0
 10
11.0218753355
 20
9.0556724017
 30
0.0
 10
11.0005345102
 20
9.0488139418
 30
0.0
 10
10.9796425537
 20
9.0408551923
 30
0.0
 10
10.9592530285
 20
9.0318164909
 30
0.0
 10
10.9394182167
 20
9.021720964
 30
0.0
 10
10.9201889644
 20
9.0105944472
 30
0.0
 10
10.9016146266
 20
8.998465477
 30
0.0
 10
10.8837426706
 20
8.9853649665
 30
0.0
 10
10.8666195491
 20
8.9713270747
 30
0.0
 10
10.8557304052
 20
8.9613654479
 30
0.0
 10
10.8504270061
 20
8.9562427503
 30
0.0
  0
SPLINE
  5
334
100
AcDbEntity
  8
0
100
AcDbSpline
 62
7
  6
CONTINUOUS
 70
0
 71
3
 72
47
 73
43
 74
0
 42
0.0000001
 43
0.0000001
 44
0.0000000001
 40
0.0
 40
0.0
 40
0.0
 40
0.0
 40
0.0063158967
 40
0.0126706977
 40
0.0191025471
 40
0.0256480963
 40
0.0323419829
 40
0.0392163382
 40
0.053614168
 40
0.0611948929
 40
0.0690566412
 40
0.077217773
 40
0.0856941569
 40
0.0944995551
 40
0.1036456891
 40
0.1131424521
 40
0.122998232
 40
0.1332198706
 40
0.1438129644
 40
0.1547820179
 40
0.1661303832
 40
0.1899727563
 40
0.2153522396
 40
0.2422681077
 40
0.2707104459
 40
0.3006614883
 40
0.3320967939
 40
0.3649861265
 40
0.3992940928
 40
0.4349806571
 40
0.4720016811
 40
0.5103093127
 40
0.5498522596
 40
0.5905760756
 40
0.6324234754
 40
0.6753345639
 40
0.7192469999
 40
0.7640961586
 40
0.8098155359
 40
0.8563366993
 40
0.9035889296
 40
1.0
 40
1.0
 40
1.0
 40
1.0
 10
12.9524354843
 20
7.0882670665
 30
0.0
 10
12.951438273
 20
7.0883362209
 30
0.0
 10
12.9494424194
 20
7.0885565694
 30
0.0
 10
12.946471002
 20
7.0891309307
 30
0.0
 10
12.9435194547
 20
7.0899491381
 30
0.0
 10
12.9405894845
 20
7.09101048
 30
0.0
 10
12.9376822602
 20
7.0923144037
 30
0.0
 10
12.9337786382
 20
7.0944069397
 30
0.0
 10
12.9299810175
 20
7.0969685154
 30
0.0
 10
12.9263058949
 20
7.0999369918
 30
0.0
 10
12.9235299288
 20
7.1024397636
 30
0.0
 10
12.9207836247
 20
7.1051790706
 30
0.0
 10
12.9180676307
 20
7.1081539013
 30
0.0
 10
12.9153830901
 20
7.111363001
 30
0.0
 10
12.9127309846
 20
7.1148050583
 30
0.0
 10
12.9101123037
 20
7.1184786466
 30
0.0
 10
12.9075281176
 20
7.122382311
 30
0.0
 10
12.9049793994
 20
7.1265144433
 30
0.0
 10
12.9024671681
 20
7.1308733684
 30
0.0
 10
12.8999924357
 20
7.135457345
 30
0.0
 10
12.896689631
 20
7.1419745361
 30
0.0
 10
12.8926732581
 20
7.1506830285
 30
0.0
 10
12.8880951392
 20
7.1618329787
 30
0.0
 10
12.8836897316
 20
7.1738306915
 30
0.0
 10
12.8794642606
 20
7.1866565992
 30
0.0
 10
12.8754256477
 20
7.2002899913
 30
0.0
 10
12.871580572
 20
7.2147086501
 30
0.0
 10
12.8679354203
 20
7.2298890369
 30
0.0
 10
12.8644962615
 20
7.2458062935
 30
0.0
 10
12.8612688068
 20
7.2624342994
 30
0.0
 10
12.8582584323
 20
7.2797457345
 30
0.0
 10
12.8554701632
 20
7.2977121341
 30
0.0
 10
12.8529086477
 20
7.3163039278
 30
0.0
 10
12.8505781442
 20
7.3354904923
 30
0.0
 10
12.8484825372
 20
7.355240216
 30
0.0
 10
12.8466253293
 20
7.3755205537
 30
0.0
 10
12.845009615
 20
7.3962980639
 30
0.0
 10
12.843638075
 20
7.4175384931
 30
0.0
 10
12.8425130088
 20
7.4392068033
 30
0.0
 10
12.841636287
 20
7.4612672372
 30
0.0
 10
12.8407948684
 20
7.4913561283
 30
0.0
 10
12.8405507924
 20
7.5140946696
 30
0.0
 10
12.8405507924
 20
7.5293534867
 30
0.0
  0
SPLINE
  5
335
100
AcDbEntity
  8
0
100
AcDbSpline
 62
7
  6
CONTINUOUS
 70
0
 71
3
 72
37
 73
33
 74
0
 42
0.0000001
 43
0.0000001
 44
0.0000000001
 40
0.0
 40
0.0
 40
0.0
 40
0.0
 40
0.0063859225
 40
0.0129184861
 40
0.0265232051
 40
0.0410109936
 40
0.0565340937
 40
0.0732108047
 40
0.091130616
 40
0.1103589627
 40
0.130941804
 40
0.1529094837
 40
0.176279308
 40
0.20105818
 40
0.2272442438
 40
0.2548280955
 40
0.2837942023
 40
0.3141214063
 40
0.3457837346
 40
0.3787510783
 40
0.4129892997
 40
0.4484609326
 40
0.4851253575
 40
0.5229389535
 40
0.5618556139
 40
0.6018266706
 40
0.6428012283
 40
0.6847264057
 40
0.7275472095
 40
0.8156464307
 40
0.9066278626
 40
1.0
 40
1.0
 40
1.0
 40
1.0
 10
12.9274038229
 20
7.2764200765
 30
0.0
 10
12.926763968
 20
7.2766462984
 30
0.0
 10
12.9254857331
 20
7.2771511076
 30
0.0
 10
12.922939928
 20
7.2783653646
 30
0.0
 10
12.9197838878
 20
7.2802781013
 30
0.0
 10
12.9161198779
 20
7.2831315826
 30
0.0
 10
12.9125303104
 20
7.2865679886
 30
0.0
 10
12.9090189542
 20
7.2905811181
 30
0.0
 10
12.9055891594
 20
7.2951651264
 30
0.0
 10
12.9022448138
 20
7.3003135393
 30
0.0
 10
12.8989900084
 20
7.3060192261
 30
0.0
 10
12.8958290995
 20
7.3122742605
 30
0.0
 10
12.8927663911
 20
7.3190698069
 30
0.0
 10
12.889806253
 20
7.3263961976
 30
0.0
 10
12.8869529854
 20
7.3342429067
 30
0.0
 10
12.8842107191
 20
7.342598566
 30
0.0
 10
12.8815835421
 20
7.3514510257
 30
0.0
 10
12.8790753288
 20
7.3607873469
 30
0.0
 10
12.8766897916
 20
7.3705938464
 30
0.0
 10
12.874430522
 20
7.3808561266
 30
0.0
 10
12.8723008491
 20
7.3915590857
 30
0.0
 10
12.870303965
 20
7.4026869599
 30
0.0
 10
12.8684428632
 20
7.4142233438
 30
0.0
 10
12.8667202878
 20
7.4261512153
 30
0.0
 10
12.8651388423
 20
7.4384529661
 30
0.0
 10
12.8637008711
 20
7.4511104297
 30
0.0
 10
12.8624085137
 20
7.4641049025
 30
0.0
 10
12.8612637096
 20
7.4774171975
 30
0.0
 10
12.8599236905
 20
7.4957379103
 30
0.0
 10
12.8586395507
 20
7.519288111
 30
0.0
 10
12.8577220073
 20
7.5482308476
 30
0.0
 10
12.8575226472
 20
7.5678238534
 30
0.0
 10
12.8575226472
 20
7.5777470413
 30
0.0
  0
SPLINE
  5
336
100
AcDbEntity
  8
0
100
AcDbSpline
 62
7
  6
CONTINUOUS
 70
0
 71
3
 72
50
 73
46
 74
0
 42
0.0000001
 43
0.0000001
 44
0.0000000001
 40
0.0
 40
0.0
 40
0.0
 40
0.0
 40
0.0054988989
 40
0.0111936692
 40
0.0171298345
 40
0.0233468656
 40
0.0298784298
 40
0.0367525742
 40
0.0439925084
 40
0.0516169557
 40
0.0596409456
 40
0.0680761789
 40
0.0769315725
 40
0.086213659
 40
0.0959268196
 40
0.1060737474
 40
0.1166554209
 40
0.1276715986
 40
0.1391206615
 40
0.151000043
 40
0.1633060958
 40
0.1760343561
 40
0.1891795426
 40
0.2027356113
 40
0.231052278
 40
0.2609245561
 40
0.2922830307
 40
0.3250507141
 40
0.3591439251
 40
0.3944730314
 40
0.4309430985
 40
0.4684544736
 40
0.5069033239
 40
0.5461821421
 40
0.5861802306
 40
0.6267841683
 40
0.6678782673
 40
0.7093450261
 40
0.75106557
 40
0.7929201118
 40
0.8347883224
 40
0.8765499918
 40
0.9180848236
 40
0.9592744765
 40
1.0
 40
1.0
 40
1.0
 40
1.0
 10
12.9833089622
 20
8.0825431528
 30
0.0
 10
12.9823472063
 20
8.0823468421
 30
0.0
 10
12.9804092213
 20
8.0818440476
 30
0.0
 10
12.9775341306
 20
8.0807906587
 30
0.0
 10
12.9746496107
 20
8.0794284896
 30
0.0
 10
12.9717580058
 20
8.0777594194
 30
0.0
 10
12.968861113
 20
8.0757850562
 30
0.0
 10
12.9659607122
 20
8.0735072959
 30
0.0
 10
12.9630587314
 20
8.0709279189
 30
0.0
 10
12.9601570146
 20
8.068049006
 30
0.0
 10
12.9572575867
 20
8.0648726864
 30
0.0
 10
12.9543624457
 20
8.0614013595
 30
0.0
 10
12.9514736659
 20
8.0576376042
 30
0.0
 10
12.9485933753
 20
8.0535842149
 30
0.0
 10
12.9457236559
 20
8.0492442435
 30
0.0
 10
12.9428667145
 20
8.0446209159
 30
0.0
 10
12.940024626
 20
8.0397177437
 30
0.0
 10
12.9371996193
 20
8.034538398
 30
0.0
 10
12.9343937689
 20
8.0290868258
 30
0.0
 10
12.931609274
 20
8.0233671431
 30
0.0
 10
12.9288482185
 20
8.0173837104
 30
0.0
 10
12.9261127436
 20
8.011141077
 30
0.0
 10
12.9234049184
 20
8.0046439965
 30
0.0
 10
12.9197813768
 20
7.9955154506
 30
0.0
 10
12.91534642
 20
7.9834986226
 30
0.0
 10
12.9102413341
 20
7.9683490326
 30
0.0
 10
12.9052944323
 20
7.9523137535
 30
0.0
 10
12.9005209715
 20
7.9354417918
 30
0.0
 10
12.8959356894
 20
7.9177845899
 30
0.0
 10
12.8915527333
 20
7.8993961075
 30
0.0
 10
12.8873856214
 20
7.8803325693
 30
0.0
 10
12.8834472002
 20
7.8606523039
 30
0.0
 10
12.879749605
 20
7.8404155521
 30
0.0
 10
12.8763042241
 20
7.8196842789
 30
0.0
 10
12.8731216637
 20
7.7985219786
 30
0.0
 10
12.870211717
 20
7.7769934784
 30
0.0
 10
12.8675833324
 20
7.7551647364
 30
0.0
 10
12.8652445889
 20
7.7331026375
 30
0.0
 10
12.8632026693
 20
7.710874784
 30
0.0
 10
12.8614638447
 20
7.6885492966
 30
0.0
 10
12.8600334402
 20
7.6661945724
 30
0.0
 10
12.8589158523
 20
7.6438791677
 30
0.0
 10
12.8581144691
 20
7.6216713509
 30
0.0
 10
12.8576317686
 20
7.5996393574
 30
0.0
 10
12.8575226472
 20
7.5850167926
 30
0.0
 10
12.8575226472
 20
7.5777470413
 30
0.0
  0
SPLINE
  5
337
100
AcDbEntity
  8
0
100
AcDbSpline
 62
7
  6
CONTINUOUS
 70
0
 71
3
 72
47
 73
43
 74
0
 42
0.0000001
 43
0.0000001
 44
0.0000000001
 40
0.0
 40
0.0
 40
0.0
 40
0.0
 40
0.0063158967
 40
0.0126706977
 40
0.0191025471
 40
0.0256480963
 40
0.0323419829
 40
0.0392163382
 40
0.053614168
 40
0.0611948929
 40
0.0690566412
 40
0.077217773
 40
0.0856941569
 40
0.0944995551
 40
0.1036456891
 40
0.1131424521
 40
0.122998232
 40
0.1332198706
 40
0.1438129644
 40
0.1547820179
 40
0.1661303832
 40
0.1899727563
 40
0.2153522396
 40
0.2422681077
 40
0.2707104459
 40
0.3006614883
 40
0.3320967939
 40
0.3649861265
 40
0.3992940928
 40
0.4349806571
 40
0.4720016811
 40
0.5103093127
 40
0.5498522596
 40
0.5905760756
 40
0.6324234754
 40
0.6753345639
 40
0.7192469999
 40
0.7640961586
 40
0.8098155359
 40
0.8563366993
 40
0.9035889296
 40
1.0
 40
1.0
 40
1.0
 40
1.0
 10
12.9524354843
 20
8.9602315089
 30
0.0
 10
12.951438273
 20
8.9603006633
 30
0.0
 10
12.9494424194
 20
8.9605210118
 30
0.0
 10
12.946471002
 20
8.9610953731
 30
0.0
 10
12.9435194547
 20
8.9619135805
 30
0.0
 10
12.9405894845
 20
8.9629749224
 30
0.0
 10
12.9376822602
 20
8.9642788461
 30
0.0
 10
12.9337786382
 20
8.9663713821
 30
0.0
 10
12.9299810175
 20
8.9689329578
 30
0.0
 10
12.9263058949
 20
8.9719014343
 30
0.0
 10
12.9235299288
 20
8.974404206
 30
0.0
 10
12.9207836247
 20
8.977143513
 30
0.0
 10
12.9180676307
 20
8.9801183437
 30
0.0
 10
12.9153830901
 20
8.9833274434
 30
0.0
 10
12.9127309846
 20
8.9867695007
 30
0.0
 10
12.9101123037
 20
8.990443089
 30
0.0
 10
12.9075281176
 20
8.9943467534
 30
0.0
 10
12.9049793994
 20
8.9984788857
 30
0.0
 10
12.9024671681
 20
9.0028378108
 30
0.0
 10
12.8999924357
 20
9.0074217874
 30
0.0
 10
12.896689631
 20
9.0139389785
 30
0.0
 10
12.8926732581
 20
9.0226474709
 30
0.0
 10
12.8880951392
 20
9.0337974211
 30
0.0
 10
12.8836897316
 20
9.0457951339
 30
0.0
 10
12.8794642606
 20
9.0586210416
 30
0.0
 10
12.8754256477
 20
9.0722544337
 30
0.0
 10
12.871580572
 20
9.0866730925
 30
0.0
 10
12.8679354203
 20
9.1018534793
 30
0.0
 10
12.8644962615
 20
9.1177707359
 30
0.0
 10
12.8612688068
 20
9.1343987418
 30
0.0
 10
12.8582584323
 20
9.1517101769
 30
0.0
 10
12.8554701632
 20
9.1696765765
 30
0.0
 10
12.8529086477
 20
9.1882683702
 30
0.0
 10
12.8505781442
 20
9.2074549347
 30
0.0
 10
12.8484825372
 20
9.2272046584
 30
0.0
 10
12.8466253293
 20
9.2474849961
 30
0.0
 10
12.845009615
 20
9.2682625063
 30
0.0
 10
12.843638075
 20
9.2895029355
 30
0.0
 10
12.8425130088
 20
9.3111712457
 30
0.0
 10
12.841636287
 20
9.3332316796
 30
0.0
 10
12.8407948684
 20
9.3633205707
 30
0.0
 10
12.8405507924
 20
9.386059112
 30
0.0
 10
12.8405507924
 20
9.4013179291
 30
0.0
  0
SPLINE
  5
338
100
AcDbEntity
  8
0
100
AcDbSpline
 62
7
  6
CONTINUOUS
 70
0
 71
3
 72
37
 73
33
 74
0
 42
0.0000001
 43
0.0000001
 44
0.0000000001
 40
0.0
 40
0.0
 40
0.0
 40
0.0
 40
0.0063859225
 40
0.0129184861
 40
0.0265232051
 40
0.0410109936
 40
0.0565340937
 40
0.0732108047
 40
0.091130616
 40
0.1103589627
 40
0.130941804
 40
0.1529094837
 40
0.176279308
 40
0.20105818
 40
0.2272442438
 40
0.2548280955
 40
0.2837942023
 40
0.3141214063
 40
0.3457837346
 40
0.3787510783
 40
0.4129892997
 40
0.4484609326
 40
0.4851253575
 40
0.5229389535
 40
0.5618556139
 40
0.6018266706
 40
0.6428012283
 40
0.6847264057
 40
0.7275472095
 40
0.8156464307
 40
0.9066278626
 40
1.0
 40
1.0
 40
1.0
 40
1.0
 10
12.9274038229
 20
9.1483845189
 30
0.0
 10
12.926763968
 20
9.1486107409
 30
0.0
 10
12.9254857331
 20
9.14911555
 30
0.0
 10
12.922939928
 20
9.1503298071
 30
0.0
 10
12.9197838878
 20
9.1522425437
 30
0.0
 10
12.9161198779
 20
9.155096025
 30
0.0
 10
12.9125303104
 20
9.158532431
 30
0.0
 10
12.9090189542
 20
9.1625455605
 30
0.0
 10
12.9055891594
 20
9.1671295688
 30
0.0
 10
12.9022448138
 20
9.1722779817
 30
0.0
 10
12.8989900084
 20
9.1779836685
 30
0.0
 10
12.8958290995
 20
9.1842387029
 30
0.0
 10
12.8927663911
 20
9.1910342493
 30
0.0
 10
12.889806253
 20
9.19836064
 30
0.0
 10
12.8869529854
 20
9.2062073492
 30
0.0
 10
12.8842107191
 20
9.2145630084
 30
0.0
 10
12.8815835421
 20
9.2234154681
 30
0.0
 10
12.8790753288
 20
9.2327517893
 30
0.0
 10
12.8766897916
 20
9.2425582888
 30
0.0
 10
12.874430522
 20
9.252820569
 30
0.0
 10
12.8723008491
 20
9.2635235281
 30
0.0
 10
12.870303965
 20
9.2746514023
 30
0.0
 10
12.8684428632
 20
9.2861877862
 30
0.0
 10
12.8667202878
 20
9.2981156577
 30
0.0
 10
12.8651388423
 20
9.3104174085
 30
0.0
 10
12.8637008711
 20
9.3230748721
 30
0.0
 10
12.8624085137
 20
9.3360693449
 30
0.0
 10
12.8612637096
 20
9.3493816399
 30
0.0
 10
12.8599236905
 20
9.3677023527
 30
0.0
 10
12.8586395507
 20
9.3912525534
 30
0.0
 10
12.8577220073
 20
9.42019529
 30
0.0
 10
12.8575226472
 20
9.4397882958
 30
0.0
 10
12.8575226472
 20
9.4497114837
 30
0.0
  0
SPLINE
  5
339
100
AcDbEntity
  8
0
100
AcDbSpline
 62
7
  6
CONTINUOUS
 70
0
 71
3
 72
50
 73
46
 74
0
 42
0.0000001
 43
0.0000001
 44
0.0000000001
 40
0.0
 40
0.0
 40
0.0
 40
0.0
 40
0.0054988989
 40
0.0111936692
 40
0.0171298345
 40
0.0233468656
 40
0.0298784298
 40
0.0367525742
 40
0.0439925084
 40
0.0516169557
 40
0.0596409456
 40
0.0680761789
 40
0.0769315725
 40
0.086213659
 40
0.0959268196
 40
0.1060737474
 40
0.1166554209
 40
0.1276715986
 40
0.1391206615
 40
0.151000043
 40
0.1633060958
 40
0.1760343561
 40
0.1891795426
 40
0.2027356113
 40
0.231052278
 40
0.2609245561
 40
0.2922830307
 40
0.3250507141
 40
0.3591439251
 40
0.3944730314
 40
0.4309430985
 40
0.4684544736
 40
0.5069033239
 40
0.5461821421
 40
0.5861802306
 40
0.6267841683
 40
0.6678782673
 40
0.7093450261
 40
0.75106557
 40
0.7929201118
 40
0.8347883224
 40
0.8765499918
 40
0.9180848236
 40
0.9592744765
 40
1.0
 40
1.0
 40
1.0
 40
1.0
 10
12.9833089622
 20
9.9545075952
 30
0.0
 10
12.9823472063
 20
9.9543112845
 30
0.0
 10
12.9804092213
 20
9.95380849
 30
0.0
 10
12.9775341306
 20
9.9527551011
 30
0.0
 10
12.9746496107
 20
9.951392932
 30
0.0
 10
12.9717580058
 20
9.9497238618
 30
0.0
 10
12.968861113
 20
9.9477494986
 30
0.0
 10
12.9659607122
 20
9.9454717384
 30
0.0
 10
12.9630587314
 20
9.9428923613
 30
0.0
 10
12.9601570146
 20
9.9400134484
 30
0.0
 10
12.9572575867
 20
9.9368371288
 30
0.0
 10
12.9543624457
 20
9.9333658019
 30
0.0
 10
12.9514736659
 20
9.9296020466
 30
0.0
 10
12.9485933753
 20
9.9255486573
 30
0.0
 10
12.9457236559
 20
9.9212086859
 30
0.0
 10
12.9428667145
 20
9.9165853584
 30
0.0
 10
12.940024626
 20
9.9116821861
 30
0.0
 10
12.9371996193
 20
9.9065028404
 30
0.0
 10
12.9343937689
 20
9.9010512682
 30
0.0
 10
12.931609274
 20
9.8953315855
 30
0.0
 10
12.9288482185
 20
9.8893481529
 30
0.0
 10
12.9261127436
 20
9.8831055194
 30
0.0
 10
12.9234049184
 20
9.8766084389
 30
0.0
 10
12.9197813768
 20
9.867479893
 30
0.0
 10
12.91534642
 20
9.855463065
 30
0.0
 10
12.9102413341
 20
9.840313475
 30
0.0
 10
12.9052944323
 20
9.8242781959
 30
0.0
 10
12.9005209715
 20
9.8074062342
 30
0.0
 10
12.8959356894
 20
9.7897490323
 30
0.0
 10
12.8915527333
 20
9.7713605499
 30
0.0
 10
12.8873856214
 20
9.7522970117
 30
0.0
 10
12.8834472002
 20
9.7326167463
 30
0.0
 10
12.879749605
 20
9.7123799945
 30
0.0
 10
12.8763042241
 20
9.6916487213
 30
0.0
 10
12.8731216637
 20
9.670486421
 30
0.0
 10
12.870211717
 20
9.6489579209
 30
0.0
 10
12.8675833324
 20
9.6271291788
 30
0.0
 10
12.8652445889
 20
9.6050670799
 30
0.0
 10
12.8632026693
 20
9.5828392264
 30
0.0
 10
12.8614638447
 20
9.560513739
 30
0.0
 10
12.8600334402
 20
9.5381590148
 30
0.0
 10
12.8589158523
 20
9.5158436102
 30
0.0
 10
12.8581144691
 20
9.4936357933
 30
0.0
 10
12.8576317686
 20
9.4716037998
 30
0.0
 10
12.8575226472
 20
9.456981235
 30
0.0
 10
12.8575226472
 20
9.4497114837
 30
0.0
  0
SPLINE
  5
33A
100
AcDbEntity
  8
0
100
AcDbSpline
 62
7
  6
CONTINUOUS
 70
0
 71
3
 72
15
 73
11
 74
0
 42
0.0000001
 43
0.0000001
 44
0.0000000001
 40
0.0
 40
0.0
 40
0.0
 40
0.0
 40
0.1271679072
 40
0.2538617796
 40
0.3798419576
 40
0.5050560259
 40
0.6295642736
 40
0.7534798321
 40
0.8769238691
 40
1.0
 40
1.0
 40
1.0
 40
1.0
 10
10.9238645749
 20
9.0124387252
 30
0.0
 10
10.9176221965
 20
9.0033832926
 30
0.0
 10
10.9057655702
 20
8.9848792119
 30
0.0
 10
10.8900421489
 20
8.9560027164
 30
0.0
 10
10.8765644421
 20
8.9261941068
 30
0.0
 10
10.8654470167
 20
8.8956275963
 30
0.0
 10
10.8567571751
 20
8.8644693068
 30
0.0
 10
10.8505325081
 20
8.8328818466
 30
0.0
 10
10.8467915185
 20
8.8010317019
 30
0.0
 10
10.8459574228
 20
8.7797013117
 30
0.0
 10
10.8459574228
 20
8.7690566509
 30
0.0
  0
SPLINE
  5
33B
100
AcDbEntity
  8
0
100
AcDbSpline
 62
7
  6
CONTINUOUS
 70
0
 71
3
 72
46
 73
42
 74
0
 42
0.0000001
 43
0.0000001
 44
0.0000000001
 40
0.0
 40
0.0
 40
0.0
 40
0.0
 40
0.0149720525
 40
0.0299471649
 40
0.0449283772
 40
0.0599186917
 40
0.0749210573
 40
0.0899383484
 40
0.1049733476
 40
0.1200287333
 40
0.1351070597
 40
0.1502107421
 40
0.1653420474
 40
0.1805030776
 40
0.1956957572
 40
0.2109218287
 40
0.2414745667
 40
0.2721768461
 40
0.3030351766
 40
0.3340525707
 40
0.3652285255
 40
0.3965590884
 40
0.4280369959
 40
0.4596518697
 40
0.4913904744
 40
0.523237028
 40
0.5551735471
 40
0.5871802301
 40
0.6192358692
 40
0.6513182802
 40
0.6834047461
 40
0.7154724694
 40
0.7474990252
 40
0.7794628091
 40
0.811343472
 40
0.843122339
 40
0.8747828041
 40
0.9063106918
 40
0.9376946023
 40
0.9689259241
 40
1.0
 40
1.0
 40
1.0
 40
1.0
 10
10.7451817811
 20
8.953992124
 30
0.0
 10
10.7496614189
 20
8.958319111
 30
0.0
 10
10.7587947148
 20
8.9667968001
 30
0.0
 10
10.7729906391
 20
8.9789602831
 30
0.0
 10
10.7876645878
 20
8.99055533
 30
0.0
 10
10.8027960351
 20
9.0015657766
 30
0.0
 10
10.8183642333
 20
9.0119765489
 30
0.0
 10
10.8343477709
 20
9.021773249
 30
0.0
 10
10.8507246166
 20
9.0309424667
 30
0.0
 10
10.8674722344
 20
9.0394715883
 30
0.0
 10
10.8845676044
 20
9.0473488298
 30
0.0
 10
10.9019871613
 20
9.0545634272
 30
0.0
 10
10.9197069662
 20
9.0611054586
 30
0.0
 10
10.9377025595
 20
9.0669658677
 30
0.0
 10
10.9559495076
 20
9.072136721
 30
0.0
 10
10.9806050326
 20
9.078108446
 30
0.0
 10
11.0119390657
 20
9.0838116874
 30
0.0
 10
11.0500850151
 20
9.0877955709
 30
0.0
 10
11.0886162948
 20
9.0889076641
 30
0.0
 10
11.1273195374
 20
9.0871418902
 30
0.0
 10
11.1659823843
 20
9.082508577
 30
0.0
 10
11.2043923086
 20
9.0750336435
 30
0.0
 10
11.2423383741
 20
9.0647585242
 30
0.0
 10
11.2796122357
 20
9.0517400463
 30
0.0
 10
11.3160093195
 20
9.0360500641
 30
0.0
 10
11.3513298651
 20
9.0177749505
 30
0.0
 10
11.3853800622
 20
8.9970152609
 30
0.0
 10
11.4179731117
 20
8.9738851639
 30
0.0
 10
11.4489301584
 20
8.9485117039
 30
0.0
 10
11.4780813235
 20
8.9210342182
 30
0.0
 10
11.5052666624
 20
8.8916035921
 30
0.0
 10
11.5303369231
 20
8.8603813278
 30
0.0
 10
11.5531544194
 20
8.8275387466
 30
0.0
 10
11.5735938507
 20
8.7932560927
 30
0.0
 10
11.5915428451
 20
8.7577214528
 30
0.0
 10
11.6069026255
 20
8.7211298142
 30
0.0
 10
11.6195886578
 20
8.683681954
 30
0.0
 10
11.6295309672
 20
8.6455836018
 30
0.0
 10
11.6366744931
 20
8.6070432242
 30
0.0
 10
11.640979765
 20
8.5682752093
 30
0.0
 10
11.6419440513
 20
8.5423471092
 30
0.0
 10
11.6419440513
 20
8.5294207384
 30
0.0
  0
SPLINE
  5
33C
100
AcDbEntity
  8
0
100
AcDbSpline
 62
7
  6
CONTINUOUS
 70
0
 71
3
 72
46
 73
42
 74
0
 42
0.0000001
 43
0.0000001
 44
0.0000000001
 40
0.0
 40
0.0
 40
0.0
 40
0.0
 40
0.0149720525
 40
0.0299471649
 40
0.0449283772
 40
0.0599186917
 40
0.0749210573
 40
0.0899383484
 40
0.1049733476
 40
0.1200287333
 40
0.1351070597
 40
0.1502107421
 40
0.1653420474
 40
0.1805030776
 40
0.1956957572
 40
0.2109218287
 40
0.2414745667
 40
0.2721768461
 40
0.3030351766
 40
0.3340525707
 40
0.3652285255
 40
0.3965590884
 40
0.4280369959
 40
0.4596518697
 40
0.4913904744
 40
0.523237028
 40
0.5551735471
 40
0.5871802301
 40
0.6192358692
 40
0.6513182802
 40
0.6834047461
 40
0.7154724694
 40
0.7474990252
 40
0.7794628091
 40
0.811343472
 40
0.843122339
 40
0.8747828041
 40
0.9063106918
 40
0.9376946023
 40
0.9689259241
 40
1.0
 40
1.0
 40
1.0
 40
1.0
 10
9.5986278375
 20
7.947805147
 30
0.0
 10
9.6031074753
 20
7.952132134
 30
0.0
 10
9.6122407712
 20
7.9606098231
 30
0.0
 10
9.6264366955
 20
7.972773306
 30
0.0
 10
9.6411106442
 20
7.9843683529
 30
0.0
 10
9.6562420915
 20
7.9953787995
 30
0.0
 10
9.6718102897
 20
8.0057895718
 30
0.0
 10
9.6877938273
 20
8.015586272
 30
0.0
 10
9.704170673
 20
8.0247554896
 30
0.0
 10
9.7209182908
 20
8.0332846113
 30
0.0
 10
9.7380136608
 20
8.0411618528
 30
0.0
 10
9.7554332177
 20
8.0483764501
 30
0.0
 10
9.7731530226
 20
8.0549184816
 30
0.0
 10
9.7911486159
 20
8.0607788907
 30
0.0
 10
9.809395564
 20
8.065949744
 30
0.0
 10
9.834051089
 20
8.071921469
 30
0.0
 10
9.8653851221
 20
8.0776247104
 30
0.0
 10
9.9035310715
 20
8.0816085938
 30
0.0
 10
9.9420623512
 20
8.082720687
 30
0.0
 10
9.9807655938
 20
8.0809549131
 30
0.0
 10
10.0194284407
 20
8.0763216
 30
0.0
 10
10.057838365
 20
8.0688466665
 30
0.0
 10
10.0957844305
 20
8.0585715472
 30
0.0
 10
10.1330582921
 20
8.0455530693
 30
0.0
 10
10.1694553759
 20
8.0298630871
 30
0.0
 10
10.2047759215
 20
8.0115879734
 30
0.0
 10
10.2388261186
 20
7.9908282839
 30
0.0
 10
10.2714191681
 20
7.9676981869
 30
0.0
 10
10.3023762148
 20
7.9423247269
 30
0.0
 10
10.3315273799
 20
7.9148472412
 30
0.0
 10
10.3587127188
 20
7.885416615
 30
0.0
 10
10.3837829795
 20
7.8541943507
 30
0.0
 10
10.4066004758
 20
7.8213517695
 30
0.0
 10
10.4270399071
 20
7.7870691157
 30
0.0
 10
10.4449889015
 20
7.7515344758
 30
0.0
 10
10.4603486819
 20
7.7149428372
 30
0.0
 10
10.4730347142
 20
7.677494977
 30
0.0
 10
10.4829770236
 20
7.6393966248
 30
0.0
 10
10.4901205495
 20
7.6008562471
 30
0.0
 10
10.4944258214
 20
7.5620882323
 30
0.0
 10
10.4953901077
 20
7.5361601322
 30
0.0
 10
10.4953901077
 20
7.5232337614
 30
0.0
  0
SPLINE
  5
33D
100
AcDbEntity
  8
0
100
AcDbSpline
 62
7
  6
CONTINUOUS
 70
0
 71
3
 72
42
 73
38
 74
0
 42
0.0000001
 43
0.0000001
 44
0.0000000001
 40
0.0
 40
0.0
 40
0.0
 40
0.0
 40
0.0055576443
 40
0.0111781836
 40
0.0169222355
 40
0.022846223
 40
0.0290011442
 40
0.0354316623
 40
0.0421762431
 40
0.049267259
 40
0.0567314277
 40
0.0645907244
 40
0.072862575
 40
0.081560766
 40
0.0906959315
 40
0.100275708
 40
0.1103055927
 40
0.1207888494
 40
0.1431177711
 40
0.1672591076
 40
0.1931868442
 40
0.2208588039
 40
0.2502193991
 40
0.2812018039
 40
0.3137295194
 40
0.3477175618
 40
0.3830734051
 40
0.419697946
 40
0.4574862654
 40
0.4963282772
 40
0.5361092896
 40
0.5767106614
 40
0.6598810502
 40
0.7448351505
 40
0.8305372122
 40
0.9159392559
 40
1.0
 40
1.0
 40
1.0
 40
1.0
 10
12.3664043199
 20
9.9065763577
 30
0.0
 10
12.3664043199
 20
9.9061508634
 30
0.0
 10
12.3663566978
 20
9.905294318
 30
0.0
 10
12.366142874
 20
9.9040140735
 30
0.0
 10
12.3657870581
 20
9.9027366884
 30
0.0
 10
12.3652899656
 20
9.9014636256
 30
0.0
 10
12.3646523355
 20
9.9001959561
 30
0.0
 10
12.3638751166
 20
9.8989346048
 30
0.0
 10
12.3629591345
 20
9.8976804685
 30
0.0
 10
12.3619052961
 20
9.8964343952
 30
0.0
 10
12.3607145778
 20
9.8951971852
 30
0.0
 10
12.3593879251
 20
9.8939697549
 30
0.0
 10
12.3579264588
 20
9.8927529366
 30
0.0
 10
12.3563313359
 20
9.8915476383
 30
0.0
 10
12.3546038101
 20
9.8903548024
 30
0.0
 10
12.3527452886
 20
9.8891753036
 30
0.0
 10
12.3507572278
 20
9.8880100929
 30
0.0
 10
12.3478748804
 20
9.8864437031
 30
0.0
 10
12.3439513154
 20
9.8845358879
 30
0.0
 10
12.3388498448
 20
9.8823637118
 30
0.0
 10
12.333276642
 20
9.8802700002
 30
0.0
 10
12.3272497024
 20
9.8782616097
 30
0.0
 10
12.320788379
 20
9.8763451369
 30
0.0
 10
12.3139136116
 20
9.8745269167
 30
0.0
 10
12.3066477312
 20
9.8728129707
 30
0.0
 10
12.2990144078
 20
9.8712089828
 30
0.0
 10
12.2910385567
 20
9.8697202561
 30
0.0
 10
12.2827462413
 20
9.8683517187
 30
0.0
 10
12.2741645736
 20
9.8671078992
 30
0.0
 10
12.2653216358
 20
9.8659929271
 30
0.0
 10
12.2562463542
 20
9.8650104563
 30
0.0
 10
12.2437760504
 20
9.8638725135
 30
0.0
 10
12.2278284277
 20
9.8628096807
 30
0.0
 10
12.208405198
 20
9.8621102796
 30
0.0
 10
12.1887988063
 20
9.861986467
 30
0.0
 10
12.1692658955
 20
9.8624398672
 30
0.0
 10
12.1563077801
 20
9.8631311424
 30
0.0
 10
12.1498874949
 20
9.8635763906
 30
0.0
  0
SPLINE
  5
33E
100
AcDbEntity
  8
0
100
AcDbSpline
 62
7
  6
CONTINUOUS
 70
0
 71
3
 72
42
 73
38
 74
0
 42
0.0000001
 43
0.0000001
 44
0.0000000001
 40
0.0
 40
0.0
 40
0.0
 40
0.0
 40
0.0055576443
 40
0.0111781836
 40
0.0169222355
 40
0.022846223
 40
0.0290011442
 40
0.0354316623
 40
0.0421762431
 40
0.049267259
 40
0.0567314277
 40
0.0645907244
 40
0.072862575
 40
0.081560766
 40
0.0906959315
 40
0.100275708
 40
0.1103055927
 40
0.1207888494
 40
0.1431177711
 40
0.1672591076
 40
0.1931868442
 40
0.2208588039
 40
0.2502193991
 40
0.2812018039
 40
0.3137295194
 40
0.3477175618
 40
0.3830734051
 40
0.419697946
 40
0.4574862654
 40
0.4963282772
 40
0.5361092896
 40
0.5767106614
 40
0.6598810502
 40
0.7448351505
 40
0.8305372122
 40
0.9159392559
 40
1.0
 40
1.0
 40
1.0
 40
1.0
 10
9.5893674048
 20
10.0991645219
 30
0.0
 10
9.5893674048
 20
10.0987390276
 30
0.0
 10
9.5893197826
 20
10.0978824822
 30
0.0
 10
9.5891059589
 20
10.0966022377
 30
0.0
 10
9.5887501429
 20
10.0953248526
 30
0.0
 10
9.5882530505
 20
10.0940517898
 30
0.0
 10
9.5876154204
 20
10.0927841202
 30
0.0
 10
9.5868382015
 20
10.091522769
 30
0.0
 10
9.5859222194
 20
10.0902686327
 30
0.0
 10
9.5848683809
 20
10.0890225594
 30
0.0
 10
9.5836776626
 20
10.0877853494
 30
0.0
 10
9.58235101
 20
10.0865579191
 30
0.0
 10
9.5808895437
 20
10.0853411007
 30
0.0
 10
9.5792944208
 20
10.0841358024
 30
0.0
 10
9.577566895
 20
10.0829429666
 30
0.0
 10
9.5757083734
 20
10.0817634678
 30
0.0
 10
9.5737203127
 20
10.0805982571
 30
0.0
 10
9.5708379653
 20
10.0790318673
 30
0.0
 10
9.5669144003
 20
10.0771240521
 30
0.0
 10
9.5618129297
 20
10.074951876
 30
0.0
 10
9.5562397268
 20
10.0728581644
 30
0.0
 10
9.5502127873
 20
10.0708497739
 30
0.0
 10
9.5437514639
 20
10.0689333011
 30
0.0
 10
9.5368766965
 20
10.0671150809
 30
0.0
 10
9.5296108161
 20
10.0654011349
 30
0.0
 10
9.5219774927
 20
10.0637971469
 30
0.0
 10
9.5140016415
 20
10.0623084203
 30
0.0
 10
9.5057093262
 20
10.0609398829
 30
0.0
 10
9.4971276584
 20
10.0596960634
 30
0.0
 10
9.4882847207
 20
10.0585810913
 30
0.0
 10
9.4792094391
 20
10.0575986205
 30
0.0
 10
9.4667391352
 20
10.0564606777
 30
0.0
 10
9.4507915126
 20
10.0553978449
 30
0.0
 10
9.4313682828
 20
10.0546984438
 30
0.0
 10
9.4117618912
 20
10.0545746311
 30
0.0
 10
9.3922289804
 20
10.0550280314
 30
0.0
 10
9.379270865
 20
10.0557193065
 30
0.0
 10
9.3728505798
 20
10.0561645548
 30
0.0
  0
SPLINE
  5
33F
100
AcDbEntity
  8
0
100
AcDbSpline
 62
7
  6
CONTINUOUS
 70
0
 71
3
 72
23
 73
19
 74
0
 42
0.0000001
 43
0.0000001
 44
0.0000000001
 40
0.0
 40
0.0
 40
0.0
 40
0.0
 40
0.0637775561
 40
0.1273446565
 40
0.1907020307
 40
0.2538561431
 40
0.3168131834
 40
0.3795821015
 40
0.4421733894
 40
0.5045993415
 40
0.5668738676
 40
0.6290123791
 40
0.6910316472
 40
0.7529496401
 40
0.8147853492
 40
0.8765585998
 40
0.9382898533
 40
1.0
 40
1.0
 40
1.0
 40
1.0
 10
10.5987440971
 20
8.6017669009
 30
0.0
 10
10.5987440971
 20
8.610098514
 30
0.0
 10
10.5991428592
 20
8.6267370714
 30
0.0
 10
10.6009428008
 20
8.6515937386
 30
0.0
 10
10.6039396262
 20
8.6762533028
 30
0.0
 10
10.6081263045
 20
8.7006580293
 30
0.0
 10
10.6134933719
 20
8.724751996
 30
0.0
 10
10.6200284479
 20
8.7484795516
 30
0.0
 10
10.6277165548
 20
8.7717860183
 30
0.0
 10
10.6365400149
 20
8.7946176411
 30
0.0
 10
10.6464785268
 20
8.8169217668
 30
0.0
 10
10.6575092134
 20
8.8386469516
 30
0.0
 10
10.6696066701
 20
8.859743078
 30
0.0
 10
10.6827430421
 20
8.8801614887
 30
0.0
 10
10.6968880166
 20
8.8998550331
 30
0.0
 10
10.7120091571
 20
8.918778426
 30
0.0
 10
10.72807099
 20
8.9368874276
 30
0.0
 10
10.7393834772
 20
8.9483914066
 30
0.0
 10
10.7451817811
 20
8.953992124
 30
0.0
  0
SPLINE
  5
340
100
AcDbEntity
  8
0
100
AcDbSpline
 62
7
  6
CONTINUOUS
 70
0
 71
3
 72
43
 73
39
 74
0
 42
0.0000001
 43
0.0000001
 44
0.0000000001
 40
0.0
 40
0.0
 40
0.0
 40
0.0
 40
0.0993169278
 40
0.1957347666
 40
0.2426552758
 40
0.2886114572
 40
0.33352797
 40
0.37733178
 40
0.4199527168
 40
0.4613235835
 40
0.5013804496
 40
0.5400631058
 40
0.5773152505
 40
0.6130848738
 40
0.6473249081
 40
0.679993648
 40
0.7110553471
 40
0.7404812383
 40
0.7682505534
 40
0.7943517416
 40
0.8187843854
 40
0.8415616366
 40
0.862713155
 40
0.8822893232
 40
0.9003668471
 40
0.917055429
 40
0.9249274689
 40
0.9325129017
 40
0.9398382988
 40
0.9469336696
 40
0.9538325341
 40
0.9605716397
 40
0.9671907286
 40
0.9737319725
 40
0.9802391704
 40
0.9867568896
 40
0.993329449
 40
1.0
 40
1.0
 40
1.0
 40
1.0
 10
13.0671659007
 20
7.7802468862
 30
0.0
 10
13.0671659007
 20
7.7912714125
 30
0.0
 10
13.0669203428
 20
7.8129995208
 30
0.0
 10
13.0659682112
 20
7.8399212339
 30
0.0
 10
13.0648165233
 20
7.8609025407
 30
0.0
 10
13.0637732938
 20
7.8761629431
 30
0.0
 10
13.0625448031
 20
7.8910624551
 30
0.0
 10
13.0611332905
 20
7.9055738606
 30
0.0
 10
13.0595413919
 20
7.9196706205
 30
0.0
 10
13.0577720457
 20
7.9333269685
 30
0.0
 10
13.0558285123
 20
7.9465179534
 30
0.0
 10
13.0537144072
 20
7.9592194953
 30
0.0
 10
13.0514336433
 20
7.9714084226
 30
0.0
 10
13.0489904188
 20
7.9830625172
 30
0.0
 10
13.0463892664
 20
7.9941605768
 30
0.0
 10
13.0436349987
 20
8.0046824517
 30
0.0
 10
13.0407326696
 20
8.0146090798
 30
0.0
 10
13.0376876115
 20
8.0239225554
 30
0.0
 10
13.0345053973
 20
8.0326061772
 30
0.0
 10
13.0311917538
 20
8.0406444753
 30
0.0
 10
13.0277525485
 20
8.0480232692
 30
0.0
 10
13.0241937186
 20
8.0547297522
 30
0.0
 10
13.0205211538
 20
8.0607523948
 30
0.0
 10
13.0167402637
 20
8.066081148
 30
0.0
 10
13.0128567
 20
8.070706498
 30
0.0
 10
13.0094743459
 20
8.0740309186
 30
0.0
 10
13.0067230364
 20
8.0763060978
 30
0.0
 10
13.0046785877
 20
8.0777975959
 30
0.0
 10
13.0026139549
 20
8.0791065717
 30
0.0
 10
13.0005299272
 20
8.0802322238
 30
0.0
 10
12.9984274718
 20
8.0811738758
 30
0.0
 10
12.996307551
 20
8.0819307968
 30
0.0
 10
12.9941712563
 20
8.0825023623
 30
0.0
 10
12.992019785
 20
8.0828881616
 30
0.0
 10
12.9898543979
 20
8.0830877986
 30
0.0
 10
12.9876763705
 20
8.0831011296
 30
0.0
 10
12.9854871897
 20
8.082928302
 30
0.0
 10
12.9840344574
 20
8.0826912388
 30
0.0
 10
12.9833089622
 20
8.0825431528
 30
0.0
  0
SPLINE
  5
341
100
AcDbEntity
  8
0
100
AcDbSpline
 62
7
  6
CONTINUOUS
 70
0
 71
3
 72
23
 73
19
 74
0
 42
0.0000001
 43
0.0000001
 44
0.0000000001
 40
0.0
 40
0.0
 40
0.0
 40
0.0
 40
0.0762084523
 40
0.1512816476
 40
0.2250487796
 40
0.2973523607
 40
0.3680342551
 40
0.4369428602
 40
0.5039319803
 40
0.568861501
 40
0.631598206
 40
0.6920164257
 40
0.7499989896
 40
0.8054380885
 40
0.8582363483
 40
0.9083081729
 40
0.9555815106
 40
1.0
 40
1.0
 40
1.0
 40
1.0
 10
12.9532855209
 20
7.7802468796
 30
0.0
 10
12.9532855209
 20
7.7861140076
 30
0.0
 10
12.953209849
 20
7.7977610187
 30
0.0
 10
12.9528644398
 20
7.8150841202
 30
0.0
 10
12.9522886791
 20
7.8321003587
 30
0.0
 10
12.9514840365
 20
7.848768875
 30
0.0
 10
12.9504524153
 20
7.8650501477
 30
0.0
 10
12.9491963308
 20
7.8809052942
 30
0.0
 10
12.9477188278
 20
7.8962965615
 30
0.0
 10
12.9460234803
 20
7.9111872965
 30
0.0
 10
12.9441143893
 20
7.9255420481
 30
0.0
 10
12.9419961643
 20
7.93932667
 30
0.0
 10
12.9396739379
 20
7.9525084064
 30
0.0
 10
12.9371533273
 20
7.9650559882
 30
0.0
 10
12.9344404314
 20
7.9769396726
 30
0.0
 10
12.9315417675
 20
7.9881314606
 30
0.0
 10
12.9284643852
 20
7.9986047567
 30
0.0
 10
12.9262281526
 20
8.0053026208
 30
0.0
 10
12.9250758917
 20
8.0085223329
 30
0.0
  0
SPLINE
  5
342
100
AcDbEntity
  8
0
100
AcDbSpline
 62
7
  6
CONTINUOUS
 70
0
 71
3
 72
17
 73
13
 74
0
 42
0.0000001
 43
0.0000001
 44
0.0000000001
 40
0.0
 40
0.0
 40
0.0
 40
0.0
 40
0.1405710816
 40
0.2778856398
 40
0.4113134619
 40
0.540245283
 40
0.6641030084
 40
0.7823421661
 40
0.83919698
 40
0.8944614947
 40
0.9480799677
 40
1.0
 40
1.0
 40
1.0
 40
1.0
 10
12.9158994673
 20
7.7746603116
 30
0.0
 10
12.9158994673
 20
7.7824526754
 30
0.0
 10
12.9157549268
 20
7.797857333
 30
0.0
 10
12.9150908706
 20
7.8206497454
 30
0.0
 10
12.9139852915
 20
7.8427792366
 30
0.0
 10
12.9124439163
 20
7.8641350059
 30
0.0
 10
12.9104746869
 20
7.8846100143
 30
0.0
 10
12.9084603071
 20
7.9010614231
 30
0.0
 10
12.9066322149
 20
7.9136999069
 30
0.0
 10
12.9051788267
 20
7.9227720639
 30
0.0
 10
12.9036271125
 20
7.9315502462
 30
0.0
 10
12.9025100327
 20
7.9372933625
 30
0.0
 10
12.9019342203
 20
7.9401132894
 30
0.0
  0
SPLINE
  5
343
100
AcDbEntity
  8
0
100
AcDbSpline
 62
7
  6
CONTINUOUS
 70
0
 71
3
 72
71
 73
67
 74
0
 42
0.0000001
 43
0.0000001
 44
0.0000000001
 40
0.0
 40
0.0
 40
0.0
 40
0.0
 40
0.0155842565
 40
0.0311159319
 40
0.0465952524
 40
0.0620238826
 40
0.0774034482
 40
0.0927362827
 40
0.1080251231
 40
0.1232731738
 40
0.1384840558
 40
0.1536617763
 40
0.1688106896
 40
0.1839354527
 40
0.199040978
 40
0.2141323822
 40
0.2292149324
 40
0.2442939901
 40
0.2593749544
 40
0.2744632041
 40
0.2895640403
 40
0.3046826298
 40
0.3198239504
 40
0.3349927394
 40
0.3501934439
 40
0.3654301774
 40
0.3807066784
 40
0.3960262752
 40
0.411391855
 40
0.4268058382
 40
0.4422701586
 40
0.4577862484
 40
0.4733550295
 40
0.4889769098
 40
0.5046517845
 40
0.5203790422
 40
0.5361575755
 40
0.5519857963
 40
0.5678616545
 40
0.5837826618
 40
0.5997459181
 40
0.6157481413
 40
0.6317856992
 40
0.6478546441
 40
0.6639507502
 40
0.6800695513
 40
0.6962063821
 40
0.7123564199
 40
0.7285147268
 40
0.7446762929
 40
0.76083608
 40
0.776989065
 40
0.7931302839
 40
0.8092548753
 40
0.8253581235
 40
0.8414355003
 40
0.8574827053
 40
0.8734957053
 40
0.889470771
 40
0.9054045131
 40
0.921293919
 40
0.9371363621
 40
0.9529297157
 40
0.968672092
 40
0.9843626215
 40
1.0
 40
1.0
 40
1.0
 40
1.0
 10
10.4908564549
 20
7.5318545887
 30
0.0
 10
10.4908564549
 20
7.5235404584
 30
0.0
 10
10.4904495773
 20
7.5069373014
 30
0.0
 10
10.4886129037
 20
7.4821371595
 30
0.0
 10
10.4855550988
 20
7.4575407483
 30
0.0
 10
10.4812836555
 20
7.4332082763
 30
0.0
 10
10.4758086732
 20
7.4091980513
 30
0.0
 10
10.4691433554
 20
7.385568061
 30
0.0
 10
10.4613036762
 20
7.362375246
 30
0.0
 10
10.4523084839
 20
7.3396755432
 30
0.0
 10
10.4421794174
 20
7.317523694
 30
0.0
 10
10.4309408591
 20
7.2959731266
 30
0.0
 10
10.4186198718
 20
7.2750758245
 30
0.0
 10
10.4052461348
 20
7.2548822004
 30
0.0
 10
10.3908518733
 20
7.2354409733
 30
0.0
 10
10.3754717814
 20
7.2167990491
 30
0.0
 10
10.3591429367
 20
7.1990014077
 30
0.0
 10
10.341904722
 20
7.1820909816
 30
0.0
 10
10.3237987202
 20
7.1661085567
 30
0.0
 10
10.3048686096
 20
7.1510926758
 30
0.0
 10
10.2851600585
 20
7.1370795444
 30
0.0
 10
10.264720613
 20
7.1241029433
 30
0.0
 10
10.2435995815
 20
7.1121941467
 30
0.0
 10
10.2218479135
 20
7.1013818489
 30
0.0
 10
10.1995180813
 20
7.0916920825
 30
0.0
 10
10.1766639472
 20
7.0831481617
 30
0.0
 10
10.153340629
 20
7.0757706335
 30
0.0
 10
10.129604367
 20
7.0695772282
 30
0.0
 10
10.1055123877
 20
7.0645828186
 30
0.0
 10
10.0811227661
 20
7.0607993852
 30
0.0
 10
10.0564942852
 20
7.0582359914
 30
0.0
 10
10.0316862959
 20
7.0568987508
 30
0.0
 10
10.0067585717
 20
7.0567908164
 30
0.0
 10
9.9817711644
 20
7.0579123842
 30
0.0
 10
9.95678426
 20
7.0602606917
 30
0.0
 10
9.9318580352
 20
7.0638300265
 30
0.0
 10
9.9070525134
 20
7.0686117404
 30
0.0
 10
9.8824274224
 20
7.0745942732
 30
0.0
 10
9.8580420491
 20
7.0817631715
 30
0.0
 10
9.8339550957
 20
7.0901011225
 30
0.0
 10
9.810224542
 20
7.0995880082
 30
0.0
 10
9.7869075063
 20
7.1102009512
 30
0.0
 10
9.7640601099
 20
7.1219143706
 30
0.0
 10
9.7417373424
 20
7.134700043
 30
0.0
 10
9.7199929325
 20
7.1485271714
 30
0.0
 10
9.698879215
 20
7.1633624532
 30
0.0
 10
9.6784470015
 20
7.1791701557
 30
0.0
 10
9.6587454657
 20
7.195912214
 30
0.0
 10
9.6398220246
 20
7.2135483195
 30
0.0
 10
9.6217222261
 20
7.232036017
 30
0.0
 10
9.6044896397
 20
7.2513308061
 30
0.0
 10
9.5881657533
 20
7.2713862473
 30
0.0
 10
9.5727898709
 20
7.2921540712
 30
0.0
 10
9.5583990093
 20
7.3135842885
 30
0.0
 10
9.545027821
 20
7.3356253199
 30
0.0
 10
9.5327085097
 20
7.3582241173
 30
0.0
 10
9.5214707537
 20
7.3813262912
 30
0.0
 10
9.5113416347
 20
7.4048762401
 30
0.0
 10
9.5023455741
 20
7.4288172825
 30
0.0
 10
9.4945042676
 20
7.4530917947
 30
0.0
 10
9.487836638
 20
7.4776413327
 30
0.0
 10
9.4823587494
 20
7.5024068296
 30
0.0
 10
9.4780839067
 20
7.5273285494
 30
0.0
 10
9.4750223251
 20
7.5523468301
 30
0.0
 10
9.4731816155
 20
7.5774004757
 30
0.0
 10
9.4727705737
 20
7.5941166138
 30
0.0
 10
9.4727705737
 20
7.6024590844
 30
0.0
  0
SPLINE
  5
344
100
AcDbEntity
  8
0
100
AcDbSpline
 62
7
  6
CONTINUOUS
 70
0
 71
3
 72
23
 73
19
 74
0
 42
0.0000001
 43
0.0000001
 44
0.0000000001
 40
0.0
 40
0.0
 40
0.0
 40
0.0
 40
0.0637775561
 40
0.1273446565
 40
0.1907020307
 40
0.2538561431
 40
0.3168131834
 40
0.3795821015
 40
0.4421733894
 40
0.5045993415
 40
0.5668738676
 40
0.6290123791
 40
0.6910316472
 40
0.7529496401
 40
0.8147853492
 40
0.8765585998
 40
0.9382898533
 40
1.0
 40
1.0
 40
1.0
 40
1.0
 10
9.4521901535
 20
7.5955799239
 30
0.0
 10
9.4521901535
 20
7.603911537
 30
0.0
 10
9.4525889156
 20
7.6205500943
 30
0.0
 10
9.4543888572
 20
7.6454067616
 30
0.0
 10
9.4573856826
 20
7.6700663258
 30
0.0
 10
9.4615723609
 20
7.6944710523
 30
0.0
 10
9.4669394283
 20
7.718565019
 30
0.0
 10
9.4734745043
 20
7.7422925745
 30
0.0
 10
9.4811626112
 20
7.7655990413
 30
0.0
 10
9.4899860713
 20
7.788430664
 30
0.0
 10
9.4999245832
 20
7.8107347898
 30
0.0
 10
9.5109552698
 20
7.8324599746
 30
0.0
 10
9.5230527265
 20
7.853556101
 30
0.0
 10
9.5361890985
 20
7.8739745116
 30
0.0
 10
9.550334073
 20
7.8936680561
 30
0.0
 10
9.5654552135
 20
7.9125914489
 30
0.0
 10
9.5815170464
 20
7.9307004506
 30
0.0
 10
9.5928295336
 20
7.9422044296
 30
0.0
 10
9.5986278375
 20
7.947805147
 30
0.0
  0
SPLINE
  5
345
100
AcDbEntity
  8
0
100
AcDbSpline
 62
7
  6
CONTINUOUS
 70
0
 71
3
 72
36
 73
32
 74
0
 42
0.0000001
 43
0.0000001
 44
0.0000000001
 40
0.0
 40
0.0
 40
0.0
 40
0.0
 40
0.0917687265
 40
0.1812720639
 40
0.268054025
 40
0.3102871763
 40
0.3516772716
 40
0.3921731355
 40
0.431725271
 40
0.4702860802
 40
0.5078098973
 40
0.5442531456
 40
0.5795746531
 40
0.6137357038
 40
0.6467002585
 40
0.6784353651
 40
0.7089112922
 40
0.7381018879
 40
0.7659851683
 40
0.7925436587
 40
0.8177650498
 40
0.8416431711
 40
0.8641788239
 40
0.8853811068
 40
0.9052692483
 40
0.9238745579
 40
0.9412431734
 40
0.9574395824
 40
0.9725504706
 40
0.9866891885
 40
1.0
 40
1.0
 40
1.0
 40
1.0
 10
13.1150473845
 20
7.8264968507
 30
0.0
 10
13.1150473845
 20
7.8405318405
 30
0.0
 10
13.1147734672
 20
7.8682562882
 30
0.0
 10
13.1135136059
 20
7.9092356423
 30
0.0
 10
13.1117507509
 20
7.9426122912
 30
0.0
 10
13.1099114135
 20
7.9686093951
 30
0.0
 10
13.1083390394
 20
7.9875272937
 30
0.0
 10
13.1065636215
 20
8.006015353
 30
0.0
 10
13.1045876061
 20
8.0240478575
 30
0.0
 10
13.1024137985
 20
8.0415997065
 30
0.0
 10
13.1000452509
 20
8.0586464792
 30
0.0
 10
13.0974852686
 20
8.0751644614
 30
0.0
 10
13.0947374721
 20
8.0911306921
 30
0.0
 10
13.0918057211
 20
8.1065229871
 30
0.0
 10
13.0886941085
 20
8.1213199712
 30
0.0
 10
13.0854070291
 20
8.1355011263
 30
0.0
 10
13.0819490935
 20
8.1490468095
 30
0.0
 10
13.0783251193
 20
8.1619382835
 30
0.0
 10
13.0745402023
 20
8.1741577719
 30
0.0
 10
13.0705996152
 20
8.1856884705
 30
0.0
 10
13.0665087896
 20
8.1965145761
 30
0.0
 10
13.0622733814
 20
8.2066213536
 30
0.0
 10
13.0578991374
 20
8.2159951354
 30
0.0
 10
13.0533918462
 20
8.2246233385
 30
0.0
 10
13.0487573654
 20
8.2324945336
 30
0.0
 10
13.0440014289
 20
8.2395983743
 30
0.0
 10
13.0391294682
 20
8.245925541
 30
0.0
 10
13.0341467904
 20
8.2514675714
 30
0.0
 10
13.0290576928
 20
8.2562167748
 30
0.0
 10
13.023867852
 20
8.2601646622
 30
0.0
 10
13.0202471868
 20
8.2623138145
 30
0.0
 10
13.0184321144
 20
8.2632356292
 30
0.0
  0
SPLINE
  5
346
100
AcDbEntity
  8
0
100
AcDbSpline
 62
7
  6
CONTINUOUS
 70
0
 71
3
 72
71
 73
67
 74
0
 42
0.0000001
 43
0.0000001
 44
0.0000000001
 40
0.0
 40
0.0
 40
0.0
 40
0.0
 40
0.0156373785
 40
0.031327908
 40
0.0470702843
 40
0.0628636379
 40
0.078706081
 40
0.0945954869
 40
0.110529229
 40
0.1265042947
 40
0.1425172947
 40
0.1585644997
 40
0.1746418765
 40
0.1907451247
 40
0.2068697161
 40
0.223010935
 40
0.23916392
 40
0.2553237071
 40
0.2714852732
 40
0.2876435801
 40
0.3037936179
 40
0.3199304487
 40
0.3360492498
 40
0.3521453559
 40
0.3682143008
 40
0.3842518587
 40
0.4002540819
 40
0.4162173382
 40
0.4321383455
 40
0.4480142037
 40
0.4638424245
 40
0.4796209578
 40
0.4953482155
 40
0.5110230902
 40
0.5266449705
 40
0.5422137516
 40
0.5577298414
 40
0.5731941618
 40
0.588608145
 40
0.6039737248
 40
0.6192933216
 40
0.6345698226
 40
0.6498065561
 40
0.6650072606
 40
0.6801760496
 40
0.6953173702
 40
0.7104359597
 40
0.7255367959
 40
0.7406250456
 40
0.7557060099
 40
0.7707850676
 40
0.7858676178
 40
0.800959022
 40
0.8160645473
 40
0.8311893104
 40
0.8463382237
 40
0.8615159442
 40
0.8767268262
 40
0.8919748769
 40
0.9072637173
 40
0.9225965518
 40
0.9379761174
 40
0.9534047476
 40
0.9688840681
 40
0.9844157435
 40
1.0
 40
1.0
 40
1.0
 40
1.0
 10
10.4908564549
 20
7.5318545887
 30
0.0
 10
10.4908564549
 20
7.5401970594
 30
0.0
 10
10.4904454131
 20
7.5569131975
 30
0.0
 10
10.4886047034
 20
7.5819668431
 30
0.0
 10
10.4855431218
 20
7.6069851237
 30
0.0
 10
10.4812682791
 20
7.6319068435
 30
0.0
 10
10.4757903906
 20
7.6566723404
 30
0.0
 10
10.469122761
 20
7.6812218784
 30
0.0
 10
10.4612814545
 20
7.7054963907
 30
0.0
 10
10.4522853938
 20
7.7294374331
 30
0.0
 10
10.4421562749
 20
7.7529873819
 30
0.0
 10
10.4309185189
 20
7.7760895558
 30
0.0
 10
10.4185992076
 20
7.7986883533
 30
0.0
 10
10.4052280193
 20
7.8207293846
 30
0.0
 10
10.3908371577
 20
7.842159602
 30
0.0
 10
10.3754612753
 20
7.8629274258
 30
0.0
 10
10.3591373889
 20
7.8829828671
 30
0.0
 10
10.3419048025
 20
7.9022776561
 30
0.0
 10
10.323805004
 20
7.9207653536
 30
0.0
 10
10.3048815629
 20
7.9384014591
 30
0.0
 10
10.2851800271
 20
7.9551435174
 30
0.0
 10
10.2647478136
 20
7.9709512199
 30
0.0
 10
10.2436340961
 20
7.9857865017
 30
0.0
 10
10.2218896861
 20
7.9996136301
 30
0.0
 10
10.1995669187
 20
8.0123993025
 30
0.0
 10
10.1767195223
 20
8.024112722
 30
0.0
 10
10.1534024866
 20
8.0347256649
 30
0.0
 10
10.1296719329
 20
8.0442125506
 30
0.0
 10
10.1055849795
 20
8.0525505017
 30
0.0
 10
10.0811996062
 20
8.0597193999
 30
0.0
 10
10.0565745151
 20
8.0657019327
 30
0.0
 10
10.0317689934
 20
8.0704836467
 30
0.0
 10
10.0068427686
 20
8.0740529814
 30
0.0
 10
9.9818558642
 20
8.0764012889
 30
0.0
 10
9.9568684569
 20
8.0775228567
 30
0.0
 10
9.9319407327
 20
8.0774149224
 30
0.0
 10
9.9071327434
 20
8.0760776818
 30
0.0
 10
9.8825042624
 20
8.0735142879
 30
0.0
 10
9.8581146408
 20
8.0697308545
 30
0.0
 10
9.8340226616
 20
8.0647364449
 30
0.0
 10
9.8102863996
 20
8.0585430396
 30
0.0
 10
9.7869630813
 20
8.0511655115
 30
0.0
 10
9.7641089472
 20
8.0426215907
 30
0.0
 10
9.7417791151
 20
8.0329318243
 30
0.0
 10
9.7200274471
 20
8.0221195264
 30
0.0
 10
9.6989064156
 20
8.0102107298
 30
0.0
 10
9.67846697
 20
7.9972341288
 30
0.0
 10
9.6587584189
 20
7.9832209974
 30
0.0
 10
9.6398283084
 20
7.9682051164
 30
0.0
 10
9.6217223066
 20
7.9522226915
 30
0.0
 10
9.6044840918
 20
7.9353122655
 30
0.0
 10
9.5881552471
 20
7.9175146241
 30
0.0
 10
9.5727751553
 20
7.8988726999
 30
0.0
 10
9.5583808938
 20
7.8794314727
 30
0.0
 10
9.5450071568
 20
7.8592378486
 30
0.0
 10
9.5326861695
 20
7.8383405466
 30
0.0
 10
9.5214476112
 20
7.8167899792
 30
0.0
 10
9.5113185446
 20
7.7946381299
 30
0.0
 10
9.5023233524
 20
7.7719384271
 30
0.0
 10
9.4944836732
 20
7.7487456121
 30
0.0
 10
9.4878183553
 20
7.7251156219
 30
0.0
 10
9.482343373
 20
7.7011053968
 30
0.0
 10
9.4780719297
 20
7.6767729248
 30
0.0
 10
9.4750141248
 20
7.6521765136
 30
0.0
 10
9.4731774513
 20
7.6273763717
 30
0.0
 10
9.4727705737
 20
7.6107732147
 30
0.0
 10
9.4727705737
 20
7.6024590844
 30
0.0
  0
SPLINE
  5
347
100
AcDbEntity
  8
0
100
AcDbSpline
 62
7
  6
CONTINUOUS
 70
0
 71
3
 72
47
 73
43
 74
0
 42
0.0000001
 43
0.0000001
 44
0.0000000001
 40
0.0
 40
0.0
 40
0.0
 40
0.0
 40
0.0063158967
 40
0.0126706977
 40
0.0191025471
 40
0.0256480963
 40
0.0323419829
 40
0.0392163382
 40
0.053614168
 40
0.0611948929
 40
0.0690566412
 40
0.077217773
 40
0.0856941569
 40
0.0944995551
 40
0.1036456891
 40
0.1131424521
 40
0.122998232
 40
0.1332198706
 40
0.1438129644
 40
0.1547820179
 40
0.1661303832
 40
0.1899727563
 40
0.2153522396
 40
0.2422681077
 40
0.2707104459
 40
0.3006614883
 40
0.3320967939
 40
0.3649861265
 40
0.3992940928
 40
0.4349806571
 40
0.4720016811
 40
0.5103093127
 40
0.5498522596
 40
0.5905760756
 40
0.6324234754
 40
0.6753345639
 40
0.7192469999
 40
0.7640961586
 40
0.8098155359
 40
0.8563366993
 40
0.9035889296
 40
1.0
 40
1.0
 40
1.0
 40
1.0
 10
13.0340723216
 20
8.2654396809
 30
0.0
 10
13.0350695329
 20
8.2653705265
 30
0.0
 10
13.0370653865
 20
8.2651501779
 30
0.0
 10
13.0400368039
 20
8.2645758166
 30
0.0
 10
13.0429883512
 20
8.2637576093
 30
0.0
 10
13.0459183215
 20
8.2626962674
 30
0.0
 10
13.0488255457
 20
8.2613923436
 30
0.0
 10
13.0527291677
 20
8.2592998076
 30
0.0
 10
13.0565267884
 20
8.256738232
 30
0.0
 10
13.060201911
 20
8.2537697555
 30
0.0
 10
13.0629778771
 20
8.2512669837
 30
0.0
 10
13.0657241812
 20
8.2485276768
 30
0.0
 10
13.0684401752
 20
8.245552846
 30
0.0
 10
13.0711247158
 20
8.2423437463
 30
0.0
 10
13.0737768213
 20
8.2389016891
 30
0.0
 10
13.0763955022
 20
8.2352281007
 30
0.0
 10
13.0789796883
 20
8.2313244363
 30
0.0
 10
13.0815284065
 20
8.2271923041
 30
0.0
 10
13.0840406378
 20
8.2228333789
 30
0.0
 10
13.0865153702
 20
8.2182494023
 30
0.0
 10
13.0898181749
 20
8.2117322112
 30
0.0
 10
13.0938345478
 20
8.2030237188
 30
0.0
 10
13.0984126667
 20
8.1918737687
 30
0.0
 10
13.1028180743
 20
8.1798760558
 30
0.0
 10
13.1070435453
 20
8.1670501481
 30
0.0
 10
13.1110821583
 20
8.153416756
 30
0.0
 10
13.1149272339
 20
8.1389980973
 30
0.0
 10
13.1185723856
 20
8.1238177104
 30
0.0
 10
13.1220115444
 20
8.1079004538
 30
0.0
 10
13.1252389991
 20
8.091272448
 30
0.0
 10
13.1282493736
 20
8.0739610128
 30
0.0
 10
13.1310376427
 20
8.0559946132
 30
0.0
 10
13.1335991582
 20
8.0374028195
 30
0.0
 10
13.1359296617
 20
8.018216255
 30
0.0
 10
13.1380252687
 20
7.9984665313
 30
0.0
 10
13.1398824767
 20
7.9781861936
 30
0.0
 10
13.1414981909
 20
7.9574086835
 30
0.0
 10
13.1428697309
 20
7.9361682543
 30
0.0
 10
13.1439947971
 20
7.914499944
 30
0.0
 10
13.1448715189
 20
7.8924395101
 30
0.0
 10
13.1457129375
 20
7.862350619
 30
0.0
 10
13.1459570135
 20
7.8396120777
 30
0.0
 10
13.1459570135
 20
7.8243532607
 30
0.0
  0
SPLINE
  5
348
100
AcDbEntity
  8
0
100
AcDbSpline
 62
7
  6
CONTINUOUS
 70
0
 71
3
 72
50
 73
46
 74
0
 42
0.0000001
 43
0.0000001
 44
0.0000000001
 40
0.0
 40
0.0
 40
0.0
 40
0.0
 40
0.0401665336
 40
0.0807832654
 40
0.1217385449
 40
0.1629199585
 40
0.2042140433
 40
0.2455070523
 40
0.286685201
 40
0.3276351211
 40
0.3682442391
 40
0.4084011835
 40
0.4479961848
 40
0.486921483
 40
0.5250717405
 40
0.5623444636
 40
0.5986404368
 40
0.6338641753
 40
0.6679244028
 40
0.7007345662
 40
0.7322134008
 40
0.7622855691
 40
0.7908824026
 40
0.8046085554
 40
0.8179436369
 40
0.8308813848
 40
0.8434161524
 40
0.8555429753
 40
0.8672576434
 40
0.8785567413
 40
0.889437789
 40
0.8998992648
 40
0.9099408259
 40
0.9195633293
 40
0.9287691455
 40
0.9375622037
 40
0.9459484129
 40
0.9539357677
 40
0.9615348929
 40
0.9687592481
 40
0.9756257959
 40
0.982155317
 40
0.9883731411
 40
0.9943094808
 40
1.0
 40
1.0
 40
1.0
 40
1.0
 10
13.1150473845
 20
7.8264968507
 30
0.0
 10
13.1150473845
 20
7.8161289499
 30
0.0
 10
13.1148950439
 20
7.7952766512
 30
0.0
 10
13.1142208865
 20
7.7638594089
 30
0.0
 10
13.1131015355
 20
7.7321927033
 30
0.0
 10
13.1115402709
 20
7.7003696909
 30
0.0
 10
13.1095416571
 20
7.6684838056
 30
0.0
 10
13.107111567
 20
7.6366287452
 30
0.0
 10
13.1042571416
 20
7.6048980873
 30
0.0
 10
13.1009867806
 20
7.5733850518
 30
0.0
 10
13.0973101131
 20
7.5421822122
 30
0.0
 10
13.0932379707
 20
7.511381226
 30
0.0
 10
13.0887823565
 20
7.4810725622
 30
0.0
 10
13.0839564096
 20
7.4513452334
 30
0.0
 10
13.0787743677
 20
7.4222865307
 30
0.0
 10
13.0732515259
 20
7.3939817643
 30
0.0
 10
13.0674041926
 20
7.3665140069
 30
0.0
 10
13.061249642
 20
7.3399638456
 30
0.0
 10
13.0548060651
 20
7.3144091295
 30
0.0
 10
13.0480925136
 20
7.2899247554
 30
0.0
 10
13.0411288496
 20
7.2665823428
 30
0.0
 10
13.0339356615
 20
7.2444503185
 30
0.0
 10
13.027685475
 20
7.2268367726
 30
0.0
 10
13.0225757754
 20
7.2134090018
 30
0.0
 10
13.018751788
 20
7.2038181111
 30
0.0
 10
13.0148865197
 20
7.1945762261
 30
0.0
 10
13.0109827792
 20
7.1856900976
 30
0.0
 10
13.007043436
 20
7.1771662237
 30
0.0
 10
13.0030713916
 20
7.1690108217
 30
0.0
 10
12.9990695347
 20
7.1612298428
 30
0.0
 10
12.9950408206
 20
7.1538289386
 30
0.0
 10
12.9909881478
 20
7.1468134973
 30
0.0
 10
12.9869145056
 20
7.1401885814
 30
0.0
 10
12.9828227813
 20
7.1339589999
 30
0.0
 10
12.9787159729
 20
7.1281292074
 30
0.0
 10
12.9745969264
 20
7.122703425
 30
0.0
 10
12.9704686097
 20
7.1176854887
 30
0.0
 10
12.966333787
 20
7.1130790402
 30
0.0
 10
12.9621953416
 20
7.1088873127
 30
0.0
 10
12.9580559106
 20
7.1051134157
 30
0.0
 10
12.9539182265
 20
7.1017600499
 30
0.0
 10
12.9497848144
 20
7.0988299246
 30
0.0
 10
12.9456581394
 20
7.0963253352
 30
0.0
 10
12.9415411669
 20
7.0942489296
 30
0.0
 10
12.9387511831
 20
7.0931301835
 30
0.0
 10
12.9373635283
 20
7.0926485783
 30
0.0
  0
SPLINE
  5
349
100
AcDbEntity
  8
0
100
AcDbSpline
 62
7
  6
CONTINUOUS
 70
0
 71
3
 72
52
 73
48
 74
0
 42
0.0000001
 43
0.0000001
 44
0.0000000001
 40
0.0
 40
0.0
 40
0.0
 40
0.0
 40
0.0427960132
 40
0.08610673
 40
0.1297877726
 40
0.1736936845
 40
0.217677755
 40
0.2615930701
 40
0.3052929593
 40
0.3486316832
 40
0.3914650367
 40
0.4336509855
 40
0.4750502997
 40
0.5155272004
 40
0.5549500209
 40
0.5931918907
 40
0.630131454
 40
0.6656536364
 40
0.699650486
 40
0.7320221194
 40
0.7626778258
 40
0.777337222
 40
0.7915384878
 40
0.805273585
 40
0.8185352532
 40
0.8313173227
 40
0.8436146068
 40
0.8554232081
 40
0.8667404992
 40
0.8775654307
 40
0.8878986336
 40
0.8977427509
 40
0.9071027011
 40
0.915986074
 40
0.9244036042
 40
0.9323696833
 40
0.939903085
 40
0.9470276266
 40
0.9537731072
 40
0.9601760141
 40
0.9662803701
 40
0.9721379997
 40
0.9778084882
 40
0.9833580948
 40
0.9888579229
 40
0.9943811629
 40
1.0
 40
1.0
 40
1.0
 40
1.0
 10
13.0671659007
 20
7.7802468862
 30
0.0
 10
13.0671659007
 20
7.7724053081
 30
0.0
 10
13.0670389202
 20
7.7566275774
 30
0.0
 10
13.0664779608
 20
7.7328520983
 30
0.0
 10
13.0655471145
 20
7.7088846628
 30
0.0
 10
13.0642496872
 20
7.6848107456
 30
0.0
 10
13.0625902807
 20
7.6607160405
 30
0.0
 10
13.0605748096
 20
7.6366863832
 30
0.0
 10
13.05821046
 20
7.612807351
 30
0.0
 10
13.0555056746
 20
7.5891639896
 30
0.0
 10
13.0524701175
 20
7.5658404963
 30
0.0
 10
13.049114643
 20
7.5429199209
 30
0.0
 10
13.0454512563
 20
7.5204838658
 30
0.0
 10
13.0414930722
 20
7.4986121917
 30
0.0
 10
13.0372542694
 20
7.4773827272
 30
0.0
 10
13.0327500406
 20
7.4568709866
 30
0.0
 10
13.0279965406
 20
7.4371498853
 30
0.0
 10
13.0230108264
 20
7.4182894916
 30
0.0
 10
13.0178108041
 20
7.4003566746
 30
0.0
 10
13.0124151345
 20
7.3834151391
 30
0.0
 10
13.0077043289
 20
7.3699799283
 30
0.0
 10
13.0038426479
 20
7.3597807941
 30
0.0
 10
13.0009527868
 20
7.3525301673
 30
0.0
 10
12.998028719
 20
7.3455702282
 30
0.0
 10
12.9950729719
 20
7.3389071457
 30
0.0
 10
12.9920882307
 20
7.3325468065
 30
0.0
 10
12.989077104
 20
7.3264948389
 30
0.0
 10
12.9860422997
 20
7.3207565678
 30
0.0
 10
12.982986469
 20
7.3153370484
 30
0.0
 10
12.9799123257
 20
7.3102410232
 30
0.0
 10
12.9768225399
 20
7.3054729496
 30
0.0
 10
12.9737197994
 20
7.3010369708
 30
0.0
 10
12.9706067584
 20
7.296936928
 30
0.0
 10
12.9674860308
 20
7.2931763629
 30
0.0
 10
12.9643602006
 20
7.2897585028
 30
0.0
 10
12.9612317422
 20
7.2866863239
 30
0.0
 10
12.9581031001
 20
7.2839624988
 30
0.0
 10
12.9549765521
 20
7.2815895625
 30
0.0
 10
12.9518543806
 20
7.2795698073
 30
0.0
 10
12.9487387452
 20
7.2779055847
 30
0.0
 10
12.9456319909
 20
7.2765990792
 30
0.0
 10
12.9425366347
 20
7.2756526706
 30
0.0
 10
12.9394557435
 20
7.275068384
 30
0.0
 10
12.9363929719
 20
7.274848096
 30
0.0
 10
12.9333524005
 20
7.2749926575
 30
0.0
 10
12.9303389233
 20
7.2755019825
 30
0.0
 10
12.9283744905
 20
7.2760768951
 30
0.0
 10
12.9274038229
 20
7.2764200765
 30
0.0
  0
SPLINE
  5
34A
100
AcDbEntity
  8
0
100
AcDbSpline
 62
7
  6
CONTINUOUS
 70
0
 71
3
 72
33
 73
29
 74
0
 42
0.0000001
 43
0.0000001
 44
0.0000000001
 40
0.0
 40
0.0
 40
0.0
 40
0.0
 40
0.0958348039
 40
0.1891069742
 40
0.2792500435
 40
0.36572131
 40
0.4480125246
 40
0.5256540669
 40
0.5625988158
 40
0.598226802
 40
0.632494146
 40
0.6653609288
 40
0.6967920316
 40
0.726757616
 40
0.7552336203
 40
0.7822031337
 40
0.8076567456
 40
0.8315949344
 40
0.8540288219
 40
0.8749836671
 40
0.8945009457
 40
0.9126431418
 40
0.9294980666
 40
0.945184889
 40
0.9598599849
 40
0.9737213022
 40
0.9870092614
 40
1.0
 40
1.0
 40
1.0
 40
1.0
 10
12.238921173
 20
9.9495763248
 30
0.0
 10
12.2434010922
 20
9.9492656413
 30
0.0
 10
12.2522346768
 20
9.9485540517
 30
0.0
 10
12.2652504744
 20
9.9471957224
 30
0.0
 10
12.2777932052
 20
9.9455679315
 30
0.0
 10
12.2897792701
 20
9.9436817444
 30
0.0
 10
12.3011287072
 20
9.9415499859
 30
0.0
 10
12.3101367331
 20
9.9395493544
 30
0.0
 10
12.3169622805
 20
9.9378281708
 30
0.0
 10
12.3217914506
 20
9.93650659
 30
0.0
 10
12.3264077398
 20
9.9351351979
 30
0.0
 10
12.3308034793
 20
9.9337162494
 30
0.0
 10
12.3349713739
 20
9.9322521384
 30
0.0
 10
12.3389045286
 20
9.9307453265
 30
0.0
 10
12.342596449
 20
9.9291982975
 30
0.0
 10
12.3460410863
 20
9.9276136671
 30
0.0
 10
12.3492328003
 20
9.9259939773
 30
0.0
 10
12.35216645
 20
9.92434193
 30
0.0
 10
12.3548373004
 20
9.9226600672
 30
0.0
 10
12.3572411494
 20
9.9209510449
 30
0.0
 10
12.3593741754
 20
9.9192172878
 30
0.0
 10
12.3612330229
 20
9.9174611853
 30
0.0
 10
12.3628145898
 20
9.9156848591
 30
0.0
 10
12.3641158987
 20
9.9138902466
 30
0.0
 10
12.3651338724
 20
9.9120793174
 30
0.0
 10
12.3658650013
 20
9.9102541258
 30
0.0
 10
12.3663057668
 20
9.9084185923
 30
0.0
 10
12.3664043199
 20
9.9071850848
 30
0.0
 10
12.3664043199
 20
9.9065763577
 30
0.0
  0
SPLINE
  5
34B
100
AcDbEntity
  8
0
100
AcDbSpline
 62
7
  6
CONTINUOUS
 70
0
 71
3
 72
37
 73
33
 74
0
 42
0.0000001
 43
0.0000001
 44
0.0000000001
 40
0.0
 40
0.0
 40
0.0
 40
0.0
 40
0.0306358971
 40
0.0613750814
 40
0.0922157449
 40
0.1231551209
 40
0.1541895174
 40
0.1853143605
 40
0.2165242473
 40
0.2478130007
 40
0.2791737303
 40
0.3105988981
 40
0.3420803897
 40
0.3736095924
 40
0.4051774734
 40
0.4367746596
 40
0.5000015908
 40
0.5632284426
 40
0.5948255332
 40
0.6263932833
 40
0.6579223185
 40
0.6894036061
 40
0.7208285362
 40
0.7521889995
 40
0.7834774603
 40
0.8146870281
 40
0.8458115337
 40
0.8768455446
 40
0.9077845995
 40
0.93862478
 40
0.9693635217
 40
1.0
 40
1.0
 40
1.0
 40
1.0
 10
10.4774276592
 20
7.6259750088
 30
0.0
 10
10.4706638948
 20
7.6263169574
 30
0.0
 10
10.457128105
 20
7.6273353252
 30
0.0
 10
10.4368913525
 20
7.6298543023
 30
0.0
 10
10.4167337105
 20
7.6333613189
 30
0.0
 10
10.3967045557
 20
7.6378478202
 30
0.0
 10
10.3768521311
 20
7.6433029375
 30
0.0
 10
10.3572244623
 20
7.6497134274
 30
0.0
 10
10.3378689697
 20
7.6570637563
 30
0.0
 10
10.3188324304
 20
7.6653361268
 30
0.0
 10
10.3001608445
 20
7.6745105259
 30
0.0
 10
10.2818993442
 20
7.6845647615
 30
0.0
 10
10.2640920234
 20
7.6954745286
 30
0.0
 10
10.246782004
 20
7.7072133379
 30
0.0
 10
10.2300107372
 20
7.7197531738
 30
0.0
 10
10.2084205278
 20
7.7375010017
 30
0.0
 10
10.1829838554
 20
7.7615293436
 30
0.0
 10
10.1598561581
 20
7.787787553
 30
0.0
 10
10.142871179
 20
7.8099828055
 30
0.0
 10
10.1309231976
 20
7.8271806247
 30
0.0
 10
10.1197945587
 20
7.8448889611
 30
0.0
 10
10.1095118042
 20
7.8630654029
 30
0.0
 10
10.1000998914
 20
7.8816659248
 30
0.0
 10
10.0915815624
 20
7.9006456102
 30
0.0
 10
10.0839774411
 20
7.9199585913
 30
0.0
 10
10.0773059456
 20
7.9395582065
 30
0.0
 10
10.0715832344
 20
7.9593970783
 30
0.0
 10
10.0668231407
 20
7.9794272825
 30
0.0
 10
10.0630372545
 20
7.9996003342
 30
0.0
 10
10.0602347125
 20
8.0198676512
 30
0.0
 10
10.0584223542
 20
8.0401798095
 30
0.0
 10
10.0578763499
 20
8.0537428981
 30
0.0
 10
10.0577702672
 20
8.0605145984
 30
0.0
  0
SPLINE
  5
34C
100
AcDbEntity
  8
0
100
AcDbSpline
 62
7
  6
CONTINUOUS
 70
0
 71
3
 72
39
 73
35
 74
0
 42
0.0000001
 43
0.0000001
 44
0.0000000001
 40
0.0
 40
0.0
 40
0.0
 40
0.0
 40
0.0307061174
 40
0.0615299296
 40
0.0924690078
 40
0.1235199663
 40
0.1546778093
 40
0.1859364009
 40
0.2172883682
 40
0.2487252769
 40
0.2802376993
 40
0.3118153506
 40
0.3434471995
 40
0.3751216031
 40
0.4068264394
 40
0.4385492426
 40
0.470277349
 40
0.5019980313
 40
0.5336986496
 40
0.5653667852
 40
0.5969903869
 40
0.6285579043
 40
0.660058422
 40
0.6914817894
 40
0.7228187377
 40
0.7540609999
 40
0.785201409
 40
0.8162339986
 40
0.8471540805
 40
0.8779583183
 40
0.908644781
 40
0.9392129818
 40
0.9696639036
 40
1.0
 40
1.0
 40
1.0
 40
1.0
 10
9.9677629231
 20
7.9920850069
 30
0.0
 10
9.9677629231
 20
7.9842095007
 30
0.0
 10
9.9682032912
 20
7.9684248597
 30
0.0
 10
9.9701739257
 20
7.9447789998
 30
0.0
 10
9.9734497609
 20
7.9211884542
 30
0.0
 10
9.9780205163
 20
7.8977273052
 30
0.0
 10
9.9838719916
 20
7.8744679283
 30
0.0
 10
9.9909859705
 20
7.8514824367
 30
0.0
 10
9.9993403657
 20
7.8288419794
 30
0.0
 10
10.0089092439
 20
7.8066166625
 30
0.0
 10
10.0196629244
 20
7.7848752916
 30
0.0
 10
10.0315680666
 20
7.7636851753
 30
0.0
 10
10.0445877715
 20
7.7431119114
 30
0.0
 10
10.0586816999
 20
7.7232191896
 30
0.0
 10
10.0738061918
 20
7.7040685922
 30
0.0
 10
10.0899144063
 20
7.6857194077
 30
0.0
 10
10.1069564608
 20
7.6682284462
 30
0.0
 10
10.1248795893
 20
7.6516498658
 30
0.0
 10
10.1436283007
 20
7.6360350051
 30
0.0
 10
10.163144553
 20
7.6214322257
 30
0.0
 10
10.1833679296
 20
7.6078867628
 30
0.0
 10
10.204235826
 20
7.5954405858
 30
0.0
 10
10.2256836425
 20
7.5841322687
 30
0.0
 10
10.2476449817
 20
7.5739968713
 30
0.0
 10
10.2700518539
 20
7.5650658303
 30
0.0
 10
10.2928348848
 20
7.5573668624
 30
0.0
 10
10.3159235291
 20
7.5509238768
 30
0.0
 10
10.3392462881
 20
7.5457569021
 30
0.0
 10
10.3627309228
 20
7.5418820214
 30
0.0
 10
10.3863047053
 20
7.5393113261
 30
0.0
 10
10.4098945277
 20
7.5380528594
 30
0.0
 10
10.4334275576
 20
7.5381106549
 30
0.0
 10
10.4568298627
 20
7.5394844767
 30
0.0
 10
10.4723269469
 20
7.5412786232
 30
0.0
 10
10.4800272118
 20
7.5423938395
 30
0.0
  0
SPLINE
  5
34D
100
AcDbEntity
  8
0
100
AcDbSpline
 62
7
  6
CONTINUOUS
 70
0
 71
3
 72
39
 73
35
 74
0
 42
0.0000001
 43
0.0000001
 44
0.0000000001
 40
0.0
 40
0.0
 40
0.0
 40
0.0
 40
0.0307080506
 40
0.0615340171
 40
0.0924754716
 40
0.1235289983
 40
0.1546895781
 40
0.1859510391
 40
0.2173059684
 40
0.2487458862
 40
0.2802613148
 40
0.3118419169
 40
0.3434766059
 40
0.3751536831
 40
0.4068609704
 40
0.4385859475
 40
0.4703158982
 40
0.5020380463
 40
0.5337397077
 40
0.565408425
 40
0.5970321151
 40
0.6285992029
 40
0.6600987572
 40
0.6915206204
 40
0.7228555269
 40
0.754095223
 40
0.7852325658
 40
0.8162616242
 40
0.8471777561
 40
0.8779776824
 40
0.9086595394
 40
0.9392229183
 40
0.969668889
 40
1.0
 40
1.0
 40
1.0
 40
1.0
 10
9.9458426178
 20
7.9864116166
 30
0.0
 10
9.9458426178
 20
7.9782421669
 30
0.0
 10
9.9463002935
 20
7.9618683134
 30
0.0
 10
9.9483483705
 20
7.9373400097
 30
0.0
 10
9.9517528984
 20
7.9128694853
 30
0.0
 10
9.9565031642
 20
7.8885338776
 30
0.0
 10
9.9625843476
 20
7.8644085468
 30
0.0
 10
9.9699774471
 20
7.8405685754
 30
0.0
 10
9.9786594208
 20
7.8170880385
 30
0.0
 10
9.9886032159
 20
7.7940399203
 30
0.0
 10
9.9997778716
 20
7.7714958454
 30
0.0
 10
10.0121486097
 20
7.7495258733
 30
0.0
 10
10.0256769426
 20
7.7281982748
 30
0.0
 10
10.0403207954
 20
7.7075793264
 30
0.0
 10
10.0560346321
 20
7.6877331019
 30
0.0
 10
10.0727696011
 20
7.6687212773
 30
0.0
 10
10.0904736817
 20
7.6506029385
 30
0.0
 10
10.1090918495
 20
7.6334344001
 30
0.0
 10
10.1285662422
 20
7.6172690305
 30
0.0
 10
10.1488363416
 20
7.602157087
 30
0.0
 10
10.1698391585
 20
7.588145561
 30
0.0
 10
10.191509428
 20
7.5752780316
 30
0.0
 10
10.2137798108
 20
7.5635945313
 30
0.0
 10
10.2365811006
 20
7.5531314217
 30
0.0
 10
10.2598424383
 20
7.5439212805
 30
0.0
 10
10.2834915294
 20
7.5359928002
 30
0.0
 10
10.3074548677
 20
7.5293706982
 30
0.0
 10
10.331657963
 20
7.5240756397
 30
0.0
 10
10.3560255631
 20
7.5201241709
 30
0.0
 10
10.3804819176
 20
7.5175286718
 30
0.0
 10
10.4049508917
 20
7.5162972963
 30
0.0
 10
10.4293566497
 20
7.5164340165
 30
0.0
 10
10.4536222242
 20
7.5179383419
 30
0.0
 10
10.4696876852
 20
7.5198538532
 30
0.0
 10
10.4776694666
 20
7.5210381981
 30
0.0
  0
SPLINE
  5
34E
100
AcDbEntity
  8
0
100
AcDbSpline
 62
7
  6
CONTINUOUS
 70
0
 71
3
 72
47
 73
43
 74
0
 42
0.0000001
 43
0.0000001
 44
0.0000000001
 40
0.0
 40
0.0
 40
0.0
 40
0.0
 40
0.0063158967
 40
0.0126706977
 40
0.0191025471
 40
0.0256480963
 40
0.0323419829
 40
0.0392163382
 40
0.053614168
 40
0.0611948929
 40
0.0690566412
 40
0.077217773
 40
0.0856941569
 40
0.0944995551
 40
0.1036456891
 40
0.1131424521
 40
0.122998232
 40
0.1332198706
 40
0.1438129644
 40
0.1547820179
 40
0.1661303832
 40
0.1899727563
 40
0.2153522396
 40
0.2422681077
 40
0.2707104459
 40
0.3006614883
 40
0.3320967939
 40
0.3649861265
 40
0.3992940928
 40
0.4349806571
 40
0.4720016811
 40
0.5103093127
 40
0.5498522596
 40
0.5905760756
 40
0.6324234754
 40
0.6753345639
 40
0.7192469999
 40
0.7640961586
 40
0.8098155359
 40
0.8563366993
 40
0.9035889296
 40
1.0
 40
1.0
 40
1.0
 40
1.0
 10
13.0340723216
 20
10.1374041233
 30
0.0
 10
13.0350695329
 20
10.1373349689
 30
0.0
 10
13.0370653865
 20
10.1371146203
 30
0.0
 10
13.0400368039
 20
10.136540259
 30
0.0
 10
13.0429883512
 20
10.1357220517
 30
0.0
 10
13.0459183215
 20
10.1346607098
 30
0.0
 10
13.0488255457
 20
10.133356786
 30
0.0
 10
13.0527291677
 20
10.13126425
 30
0.0
 10
13.0565267884
 20
10.1287026744
 30
0.0
 10
13.060201911
 20
10.1257341979
 30
0.0
 10
13.0629778771
 20
10.1232314262
 30
0.0
 10
13.0657241812
 20
10.1204921192
 30
0.0
 10
13.0684401752
 20
10.1175172884
 30
0.0
 10
13.0711247158
 20
10.1143081887
 30
0.0
 10
13.0737768213
 20
10.1108661315
 30
0.0
 10
13.0763955022
 20
10.1071925431
 30
0.0
 10
13.0789796883
 20
10.1032888787
 30
0.0
 10
13.0815284065
 20
10.0991567465
 30
0.0
 10
13.0840406378
 20
10.0947978213
 30
0.0
 10
13.0865153702
 20
10.0902138447
 30
0.0
 10
13.0898181749
 20
10.0836966536
 30
0.0
 10
13.0938345478
 20
10.0749881612
 30
0.0
 10
13.0984126667
 20
10.0638382111
 30
0.0
 10
13.1028180743
 20
10.0518404982
 30
0.0
 10
13.1070435453
 20
10.0390145906
 30
0.0
 10
13.1110821583
 20
10.0253811984
 30
0.0
 10
13.1149272339
 20
10.0109625397
 30
0.0
 10
13.1185723856
 20
9.9957821528
 30
0.0
 10
13.1220115444
 20
9.9798648962
 30
0.0
 10
13.1252389991
 20
9.9632368904
 30
0.0
 10
13.1282493736
 20
9.9459254553
 30
0.0
 10
13.1310376427
 20
9.9279590557
 30
0.0
 10
13.1335991582
 20
9.9093672619
 30
0.0
 10
13.1359296617
 20
9.8901806974
 30
0.0
 10
13.1380252687
 20
9.8704309737
 30
0.0
 10
13.1398824767
 20
9.850150636
 30
0.0
 10
13.1414981909
 20
9.8293731259
 30
0.0
 10
13.1428697309
 20
9.8081326967
 30
0.0
 10
13.1439947971
 20
9.7864643864
 30
0.0
 10
13.1448715189
 20
9.7644039526
 30
0.0
 10
13.1457129375
 20
9.7343150615
 30
0.0
 10
13.1459570135
 20
9.7115765201
 30
0.0
 10
13.1459570135
 20
9.6963177031
 30
0.0
  0
SPLINE
  5
34F
100
AcDbEntity
  8
0
100
AcDbSpline
 62
7
  6
CONTINUOUS
 70
0
 71
3
 72
71
 73
67
 74
0
 42
0.0000001
 43
0.0000001
 44
0.0000000001
 40
0.0
 40
0.0
 40
0.0
 40
0.0
 40
0.0155842565
 40
0.0311159319
 40
0.0465952524
 40
0.0620238826
 40
0.0774034482
 40
0.0927362827
 40
0.1080251231
 40
0.1232731738
 40
0.1384840558
 40
0.1536617763
 40
0.1688106896
 40
0.1839354527
 40
0.199040978
 40
0.2141323822
 40
0.2292149324
 40
0.2442939901
 40
0.2593749544
 40
0.2744632041
 40
0.2895640403
 40
0.3046826298
 40
0.3198239504
 40
0.3349927394
 40
0.3501934439
 40
0.3654301774
 40
0.3807066784
 40
0.3960262752
 40
0.411391855
 40
0.4268058382
 40
0.4422701586
 40
0.4577862484
 40
0.4733550295
 40
0.4889769098
 40
0.5046517845
 40
0.5203790422
 40
0.5361575755
 40
0.5519857963
 40
0.5678616545
 40
0.5837826618
 40
0.5997459181
 40
0.6157481413
 40
0.6317856992
 40
0.6478546441
 40
0.6639507502
 40
0.6800695513
 40
0.6962063821
 40
0.7123564199
 40
0.7285147268
 40
0.7446762929
 40
0.76083608
 40
0.776989065
 40
0.7931302839
 40
0.8092548753
 40
0.8253581235
 40
0.8414355003
 40
0.8574827053
 40
0.8734957053
 40
0.889470771
 40
0.9054045131
 40
0.921293919
 40
0.9371363621
 40
0.9529297157
 40
0.968672092
 40
0.9843626215
 40
1.0
 40
1.0
 40
1.0
 40
1.0
 10
11.6374103985
 20
8.5380415658
 30
0.0
 10
11.6374103985
 20
8.5297274355
 30
0.0
 10
11.6370035209
 20
8.5131242785
 30
0.0
 10
11.6351668473
 20
8.4883241366
 30
0.0
 10
11.6321090424
 20
8.4637277254
 30
0.0
 10
11.6278375991
 20
8.4393952534
 30
0.0
 10
11.6223626168
 20
8.4153850283
 30
0.0
 10
11.615697299
 20
8.3917550381
 30
0.0
 10
11.6078576198
 20
8.3685622231
 30
0.0
 10
11.5988624275
 20
8.3458625202
 30
0.0
 10
11.588733361
 20
8.323710671
 30
0.0
 10
11.5774948027
 20
8.3021601036
 30
0.0
 10
11.5651738154
 20
8.2812628015
 30
0.0
 10
11.5518000784
 20
8.2610691774
 30
0.0
 10
11.5374058169
 20
8.2416279503
 30
0.0
 10
11.522025725
 20
8.2229860261
 30
0.0
 10
11.5056968803
 20
8.2051883847
 30
0.0
 10
11.4884586656
 20
8.1882779587
 30
0.0
 10
11.4703526638
 20
8.1722955337
 30
0.0
 10
11.4514225532
 20
8.1572796528
 30
0.0
 10
11.4317140021
 20
8.1432665214
 30
0.0
 10
11.4112745566
 20
8.1302899204
 30
0.0
 10
11.3901535251
 20
8.1183811238
 30
0.0
 10
11.3684018571
 20
8.1075688259
 30
0.0
 10
11.3460720249
 20
8.0978790595
 30
0.0
 10
11.3232178908
 20
8.0893351387
 30
0.0
 10
11.2998945726
 20
8.0819576105
 30
0.0
 10
11.2761583106
 20
8.0757642053
 30
0.0
 10
11.2520663313
 20
8.0707697957
 30
0.0
 10
11.2276767097
 20
8.0669863623
 30
0.0
 10
11.2030482288
 20
8.0644229684
 30
0.0
 10
11.1782402395
 20
8.0630857278
 30
0.0
 10
11.1533125153
 20
8.0629777935
 30
0.0
 10
11.128325108
 20
8.0640993613
 30
0.0
 10
11.1033382036
 20
8.0664476687
 30
0.0
 10
11.0784119788
 20
8.0700170035
 30
0.0
 10
11.053606457
 20
8.0747987174
 30
0.0
 10
11.028981366
 20
8.0807812502
 30
0.0
 10
11.0045959926
 20
8.0879501485
 30
0.0
 10
10.9805090393
 20
8.0962880995
 30
0.0
 10
10.9567784855
 20
8.1057749852
 30
0.0
 10
10.9334614499
 20
8.1163879282
 30
0.0
 10
10.9106140535
 20
8.1281013476
 30
0.0
 10
10.888291286
 20
8.14088702
 30
0.0
 10
10.8665468761
 20
8.1547141485
 30
0.0
 10
10.8454331586
 20
8.1695494302
 30
0.0
 10
10.8250009451
 20
8.1853571328
 30
0.0
 10
10.8052994093
 20
8.202099191
 30
0.0
 10
10.7863759682
 20
8.2197352965
 30
0.0
 10
10.7682761697
 20
8.2382229941
 30
0.0
 10
10.7510435833
 20
8.2575177831
 30
0.0
 10
10.7347196969
 20
8.2775732243
 30
0.0
 10
10.7193438145
 20
8.2983410482
 30
0.0
 10
10.7049529529
 20
8.3197712655
 30
0.0
 10
10.6915817646
 20
8.3418122969
 30
0.0
 10
10.6792624533
 20
8.3644110943
 30
0.0
 10
10.6680246973
 20
8.3875132682
 30
0.0
 10
10.6578955783
 20
8.4110632171
 30
0.0
 10
10.6488995177
 20
8.4350042595
 30
0.0
 10
10.6410582112
 20
8.4592787717
 30
0.0
 10
10.6343905816
 20
8.4838283098
 30
0.0
 10
10.628912693
 20
8.5085938067
 30
0.0
 10
10.6246378503
 20
8.5335155264
 30
0.0
 10
10.6215762687
 20
8.5585338071
 30
0.0
 10
10.6197355591
 20
8.5835874527
 30
0.0
 10
10.6193245173
 20
8.6003035908
 30
0.0
 10
10.6193245173
 20
8.6086460614
 30
0.0
  0
SPLINE
  5
350
100
AcDbEntity
  8
0
100
AcDbSpline
 62
7
  6
CONTINUOUS
 70
0
 71
3
 72
30
 73
26
 74
0
 42
0.0000001
 43
0.0000001
 44
0.0000000001
 40
0.0
 40
0.0
 40
0.0
 40
0.0
 40
0.0701085675
 40
0.1412554411
 40
0.2129876311
 40
0.284845363
 40
0.3563685412
 40
0.4270997236
 40
0.4965879152
 40
0.5643924056
 40
0.6300866103
 40
0.6620145347
 40
0.6932633929
 40
0.7237856012
 40
0.7535352787
 40
0.7824684091
 40
0.8105428748
 40
0.8377187799
 40
0.8639586224
 40
0.8892273897
 40
0.9134929947
 40
0.9367265106
 40
0.9589024158
 40
0.9799992401
 40
1.0
 40
1.0
 40
1.0
 40
1.0
 10
12.9532855209
 20
7.7802468796
 30
0.0
 10
12.9532855209
 20
7.7701539929
 30
0.0
 10
12.9530585536
 20
7.7498181131
 30
0.0
 10
12.9520631534
 20
7.7191702638
 30
0.0
 10
12.9504162733
 20
7.6882982329
 30
0.0
 10
12.9481290549
 20
7.6574127626
 30
0.0
 10
12.945217145
 20
7.6267246215
 30
0.0
 10
12.9417004977
 20
7.5964432114
 30
0.0
 10
12.9376032569
 20
7.5667750572
 30
0.0
 10
12.9329535725
 20
7.5379226421
 30
0.0
 10
12.9286050314
 20
7.5145053407
 30
0.0
 10
12.9248648176
 20
7.4963334309
 30
0.0
 10
12.9219690657
 20
7.4831584935
 30
0.0
 10
12.918961113
 20
7.4703305876
 30
0.0
 10
12.9158460895
 20
7.4578715837
 30
0.0
 10
12.9126293627
 20
7.4458027335
 30
0.0
 10
12.9093164245
 20
7.4341446188
 30
0.0
 10
12.9059129625
 20
7.4229171055
 30
0.0
 10
12.9024248327
 20
7.4121393083
 30
0.0
 10
12.8988579914
 20
7.4018295736
 30
0.0
 10
12.8952185627
 20
7.3920054151
 30
0.0
 10
12.8915128051
 20
7.3826835076
 30
0.0
 10
12.8877470105
 20
7.373879602
 30
0.0
 10
12.8839276914
 20
7.3656087015
 30
0.0
 10
12.8812788303
 20
7.3603168792
 30
0.0
 10
12.8799436634
 20
7.3577658311
 30
0.0
  0
SPLINE
  5
351
100
AcDbEntity
  8
0
100
AcDbSpline
 62
7
  6
CONTINUOUS
 70
0
 71
3
 72
25
 73
21
 74
0
 42
0.0000001
 43
0.0000001
 44
0.0000000001
 40
0.0
 40
0.0
 40
0.0
 40
0.0
 40
0.0663121894
 40
0.1335065374
 40
0.201282973
 40
0.2693366539
 40
0.3373619242
 40
0.405053017
 40
0.4721061566
 40
0.5382212038
 40
0.6031034489
 40
0.6664653916
 40
0.7280285669
 40
0.7875254295
 40
0.8447013342
 40
0.8993166662
 40
0.9255946027
 40
0.9511506474
 40
0.9759601588
 40
1.0
 40
1.0
 40
1.0
 40
1.0
 10
12.9158994673
 20
7.7746603116
 30
0.0
 10
12.9158994673
 20
7.7669037602
 30
0.0
 10
12.9157535812
 20
7.7512871241
 30
0.0
 10
12.9151110245
 20
7.7277506121
 30
0.0
 10
12.9140460077
 20
7.7040254659
 30
0.0
 10
12.9125635836
 20
7.6802253949
 30
0.0
 10
12.9106708591
 20
7.656464441
 30
0.0
 10
12.9083769082
 20
7.6328564275
 30
0.0
 10
12.9056927579
 20
7.6095144522
 30
0.0
 10
12.902631323
 20
7.5865503206
 30
0.0
 10
12.8992073504
 20
7.5640740114
 30
0.0
 10
12.8954373491
 20
7.5421931343
 30
0.0
 10
12.8913395104
 20
7.5210124237
 30
0.0
 10
12.8869336371
 20
7.5006331534
 30
0.0
 10
12.882241001
 20
7.4811528745
 30
0.0
 10
12.8780585323
 20
7.4655516297
 30
0.0
 10
12.8745773158
 20
7.4535963797
 30
0.0
 10
12.8719426623
 20
7.4450268676
 30
0.0
 10
12.8692538708
 20
7.4367490301
 30
0.0
 10
12.8673975796
 20
7.4313446821
 30
0.0
 10
12.8664599272
 20
7.4286936737
 30
0.0
  0
SPLINE
  5
352
100
AcDbEntity
  8
0
100
AcDbSpline
 62
7
  6
CONTINUOUS
 70
0
 71
3
 72
71
 73
67
 74
0
 42
0.0000001
 43
0.0000001
 44
0.0000000001
 40
0.0
 40
0.0
 40
0.0
 40
0.0
 40
0.0156373785
 40
0.031327908
 40
0.0470702843
 40
0.0628636379
 40
0.078706081
 40
0.0945954869
 40
0.110529229
 40
0.1265042947
 40
0.1425172947
 40
0.1585644997
 40
0.1746418765
 40
0.1907451247
 40
0.2068697161
 40
0.223010935
 40
0.23916392
 40
0.2553237071
 40
0.2714852732
 40
0.2876435801
 40
0.3037936179
 40
0.3199304487
 40
0.3360492498
 40
0.3521453559
 40
0.3682143008
 40
0.3842518587
 40
0.4002540819
 40
0.4162173382
 40
0.4321383455
 40
0.4480142037
 40
0.4638424245
 40
0.4796209578
 40
0.4953482155
 40
0.5110230902
 40
0.5266449705
 40
0.5422137516
 40
0.5577298414
 40
0.5731941618
 40
0.588608145
 40
0.6039737248
 40
0.6192933216
 40
0.6345698226
 40
0.6498065561
 40
0.6650072606
 40
0.6801760496
 40
0.6953173702
 40
0.7104359597
 40
0.7255367959
 40
0.7406250456
 40
0.7557060099
 40
0.7707850676
 40
0.7858676178
 40
0.800959022
 40
0.8160645473
 40
0.8311893104
 40
0.8463382237
 40
0.8615159442
 40
0.8767268262
 40
0.8919748769
 40
0.9072637173
 40
0.9225965518
 40
0.9379761174
 40
0.9534047476
 40
0.9688840681
 40
0.9844157435
 40
1.0
 40
1.0
 40
1.0
 40
1.0
 10
11.6374103985
 20
8.5380415658
 30
0.0
 10
11.6374103985
 20
8.5463840364
 30
0.0
 10
11.6369993567
 20
8.5631001745
 30
0.0
 10
11.635158647
 20
8.5881538201
 30
0.0
 10
11.6320970654
 20
8.6131721008
 30
0.0
 10
11.6278222227
 20
8.6380938205
 30
0.0
 10
11.6223443342
 20
8.6628593174
 30
0.0
 10
11.6156767046
 20
8.6874088555
 30
0.0
 10
11.6078353981
 20
8.7116833677
 30
0.0
 10
11.5988393374
 20
8.7356244101
 30
0.0
 10
11.5887102185
 20
8.7591743589
 30
0.0
 10
11.5774724625
 20
8.7822765329
 30
0.0
 10
11.5651531512
 20
8.8048753303
 30
0.0
 10
11.5517819629
 20
8.8269163617
 30
0.0
 10
11.5373911013
 20
8.848346579
 30
0.0
 10
11.5220152189
 20
8.8691144029
 30
0.0
 10
11.5056913325
 20
8.8891698441
 30
0.0
 10
11.4884587461
 20
8.9084646331
 30
0.0
 10
11.4703589476
 20
8.9269523307
 30
0.0
 10
11.4514355065
 20
8.9445884361
 30
0.0
 10
11.4317339707
 20
8.9613304944
 30
0.0
 10
11.4113017572
 20
8.977138197
 30
0.0
 10
11.3901880397
 20
8.9919734787
 30
0.0
 10
11.3684436297
 20
9.0058006072
 30
0.0
 10
11.3461208623
 20
9.0185862796
 30
0.0
 10
11.3232734659
 20
9.030299699
 30
0.0
 10
11.2999564302
 20
9.040912642
 30
0.0
 10
11.2762258765
 20
9.0503995277
 30
0.0
 10
11.2521389231
 20
9.0587374787
 30
0.0
 10
11.2277535498
 20
9.065906377
 30
0.0
 10
11.2031284587
 20
9.0718889098
 30
0.0
 10
11.178322937
 20
9.0766706237
 30
0.0
 10
11.1533967122
 20
9.0802399585
 30
0.0
 10
11.1284098078
 20
9.0825882659
 30
0.0
 10
11.1034224005
 20
9.0837098337
 30
0.0
 10
11.0784946763
 20
9.0836018994
 30
0.0
 10
11.053686687
 20
9.0822646588
 30
0.0
 10
11.029058206
 20
9.0797012649
 30
0.0
 10
11.0046685844
 20
9.0759178315
 30
0.0
 10
10.9805766052
 20
9.0709234219
 30
0.0
 10
10.9568403432
 20
9.0647300166
 30
0.0
 10
10.9335170249
 20
9.0573524885
 30
0.0
 10
10.9106628908
 20
9.0488085677
 30
0.0
 10
10.8883330587
 20
9.0391188013
 30
0.0
 10
10.8665813907
 20
9.0283065034
 30
0.0
 10
10.8454603592
 20
9.0163977068
 30
0.0
 10
10.8250209136
 20
9.0034211058
 30
0.0
 10
10.8053123625
 20
8.9894079744
 30
0.0
 10
10.786382252
 20
8.9743920935
 30
0.0
 10
10.7682762502
 20
8.9584096685
 30
0.0
 10
10.7510380354
 20
8.9414992425
 30
0.0
 10
10.7347091907
 20
8.9237016011
 30
0.0
 10
10.7193290989
 20
8.9050596769
 30
0.0
 10
10.7049348374
 20
8.8856184498
 30
0.0
 10
10.6915611004
 20
8.8654248257
 30
0.0
 10
10.6792401131
 20
8.8445275236
 30
0.0
 10
10.6680015548
 20
8.8229769562
 30
0.0
 10
10.6578724882
 20
8.800825107
 30
0.0
 10
10.648877296
 20
8.7781254041
 30
0.0
 10
10.6410376168
 20
8.7549325891
 30
0.0
 10
10.6343722989
 20
8.7313025989
 30
0.0
 10
10.6288973166
 20
8.7072923738
 30
0.0
 10
10.6246258733
 20
8.6829599018
 30
0.0
 10
10.6215680684
 20
8.6583634906
 30
0.0
 10
10.6197313949
 20
8.6335633487
 30
0.0
 10
10.6193245173
 20
8.6169601917
 30
0.0
 10
10.6193245173
 20
8.6086460614
 30
0.0
  0
SPLINE
  5
353
100
AcDbEntity
  8
0
100
AcDbSpline
 62
7
  6
CONTINUOUS
 70
0
 71
3
 72
36
 73
32
 74
0
 42
0.0000001
 43
0.0000001
 44
0.0000000001
 40
0.0
 40
0.0
 40
0.0
 40
0.0
 40
0.0917687265
 40
0.1812720639
 40
0.268054025
 40
0.3102871763
 40
0.3516772716
 40
0.3921731355
 40
0.431725271
 40
0.4702860802
 40
0.5078098973
 40
0.5442531456
 40
0.5795746531
 40
0.6137357038
 40
0.6467002585
 40
0.6784353651
 40
0.7089112922
 40
0.7381018879
 40
0.7659851683
 40
0.7925436587
 40
0.8177650498
 40
0.8416431711
 40
0.8641788239
 40
0.8853811068
 40
0.9052692483
 40
0.9238745579
 40
0.9412431734
 40
0.9574395824
 40
0.9725504706
 40
0.9866891885
 40
1.0
 40
1.0
 40
1.0
 40
1.0
 10
13.1150473845
 20
9.6984612931
 30
0.0
 10
13.1150473845
 20
9.7124962829
 30
0.0
 10
13.1147734672
 20
9.7402207306
 30
0.0
 10
13.1135136059
 20
9.7812000847
 30
0.0
 10
13.1117507509
 20
9.8145767336
 30
0.0
 10
13.1099114135
 20
9.8405738376
 30
0.0
 10
13.1083390394
 20
9.8594917361
 30
0.0
 10
13.1065636215
 20
9.8779797954
 30
0.0
 10
13.1045876061
 20
9.8960122999
 30
0.0
 10
13.1024137985
 20
9.9135641489
 30
0.0
 10
13.1000452509
 20
9.9306109216
 30
0.0
 10
13.0974852686
 20
9.9471289038
 30
0.0
 10
13.0947374721
 20
9.9630951346
 30
0.0
 10
13.0918057211
 20
9.9784874296
 30
0.0
 10
13.0886941085
 20
9.9932844136
 30
0.0
 10
13.0854070291
 20
10.0074655687
 30
0.0
 10
13.0819490935
 20
10.0210112519
 30
0.0
 10
13.0783251193
 20
10.0339027259
 30
0.0
 10
13.0745402023
 20
10.0461222143
 30
0.0
 10
13.0705996152
 20
10.0576529129
 30
0.0
 10
13.0665087896
 20
10.0684790185
 30
0.0
 10
13.0622733814
 20
10.078585796
 30
0.0
 10
13.0578991374
 20
10.0879595778
 30
0.0
 10
13.0533918462
 20
10.0965877809
 30
0.0
 10
13.0487573654
 20
10.104458976
 30
0.0
 10
13.0440014289
 20
10.1115628167
 30
0.0
 10
13.0391294682
 20
10.1178899834
 30
0.0
 10
13.0341467904
 20
10.1234320138
 30
0.0
 10
13.0290576928
 20
10.1281812172
 30
0.0
 10
13.023867852
 20
10.1321291046
 30
0.0
 10
13.0202471868
 20
10.1342782569
 30
0.0
 10
13.0184321144
 20
10.1352000716
 30
0.0
  0
SPLINE
  5
354
100
AcDbEntity
  8
0
100
AcDbSpline
 62
7
  6
CONTINUOUS
 70
0
 71
3
 72
50
 73
46
 74
0
 42
0.0000001
 43
0.0000001
 44
0.0000000001
 40
0.0
 40
0.0
 40
0.0
 40
0.0
 40
0.0401665336
 40
0.0807832654
 40
0.1217385449
 40
0.1629199585
 40
0.2042140433
 40
0.2455070523
 40
0.286685201
 40
0.3276351211
 40
0.3682442391
 40
0.4084011835
 40
0.4479961848
 40
0.486921483
 40
0.5250717405
 40
0.5623444636
 40
0.5986404368
 40
0.6338641753
 40
0.6679244028
 40
0.7007345662
 40
0.7322134008
 40
0.7622855691
 40
0.7908824026
 40
0.8046085554
 40
0.8179436369
 40
0.8308813848
 40
0.8434161524
 40
0.8555429753
 40
0.8672576434
 40
0.8785567413
 40
0.889437789
 40
0.8998992648
 40
0.9099408259
 40
0.9195633293
 40
0.9287691455
 40
0.9375622037
 40
0.9459484129
 40
0.9539357677
 40
0.9615348929
 40
0.9687592481
 40
0.9756257959
 40
0.982155317
 40
0.9883731411
 40
0.9943094808
 40
1.0
 40
1.0
 40
1.0
 40
1.0
 10
13.1150473845
 20
9.6984612931
 30
0.0
 10
13.1150473845
 20
9.6880933923
 30
0.0
 10
13.1148950439
 20
9.6672410936
 30
0.0
 10
13.1142208865
 20
9.6358238513
 30
0.0
 10
13.1131015355
 20
9.6041571457
 30
0.0
 10
13.1115402709
 20
9.5723341333
 30
0.0
 10
13.1095416571
 20
9.540448248
 30
0.0
 10
13.107111567
 20
9.5085931876
 30
0.0
 10
13.1042571416
 20
9.4768625297
 30
0.0
 10
13.1009867806
 20
9.4453494942
 30
0.0
 10
13.0973101131
 20
9.4141466546
 30
0.0
 10
13.0932379707
 20
9.3833456684
 30
0.0
 10
13.0887823565
 20
9.3530370046
 30
0.0
 10
13.0839564096
 20
9.3233096758
 30
0.0
 10
13.0787743677
 20
9.2942509731
 30
0.0
 10
13.0732515259
 20
9.2659462067
 30
0.0
 10
13.0674041926
 20
9.2384784493
 30
0.0
 10
13.061249642
 20
9.211928288
 30
0.0
 10
13.0548060651
 20
9.1863735719
 30
0.0
 10
13.0480925136
 20
9.1618891978
 30
0.0
 10
13.0411288496
 20
9.1385467852
 30
0.0
 10
13.0339356615
 20
9.1164147609
 30
0.0
 10
13.027685475
 20
9.098801215
 30
0.0
 10
13.0225757754
 20
9.0853734442
 30
0.0
 10
13.018751788
 20
9.0757825535
 30
0.0
 10
13.0148865197
 20
9.0665406685
 30
0.0
 10
13.0109827792
 20
9.05765454
 30
0.0
 10
13.007043436
 20
9.0491306661
 30
0.0
 10
13.0030713916
 20
9.0409752641
 30
0.0
 10
12.9990695347
 20
9.0331942852
 30
0.0
 10
12.9950408206
 20
9.0257933811
 30
0.0
 10
12.9909881478
 20
9.0187779397
 30
0.0
 10
12.9869145056
 20
9.0121530238
 30
0.0
 10
12.9828227813
 20
9.0059234424
 30
0.0
 10
12.9787159729
 20
9.0000936498
 30
0.0
 10
12.9745969264
 20
8.9946678674
 30
0.0
 10
12.9704686097
 20
8.9896499311
 30
0.0
 10
12.966333787
 20
8.9850434826
 30
0.0
 10
12.9621953416
 20
8.9808517552
 30
0.0
 10
12.9580559106
 20
8.9770778582
 30
0.0
 10
12.9539182265
 20
8.9737244923
 30
0.0
 10
12.9497848144
 20
8.970794367
 30
0.0
 10
12.9456581394
 20
8.9682897776
 30
0.0
 10
12.9415411669
 20
8.966213372
 30
0.0
 10
12.9387511831
 20
8.965094626
 30
0.0
 10
12.9373635283
 20
8.9646130207
 30
0.0
  0
SPLINE
  5
355
100
AcDbEntity
  8
0
100
AcDbSpline
 62
7
  6
CONTINUOUS
 70
0
 71
3
 72
52
 73
48
 74
0
 42
0.0000001
 43
0.0000001
 44
0.0000000001
 40
0.0
 40
0.0
 40
0.0
 40
0.0
 40
0.0427960132
 40
0.08610673
 40
0.1297877726
 40
0.1736936845
 40
0.217677755
 40
0.2615930701
 40
0.3052929593
 40
0.3486316832
 40
0.3914650367
 40
0.4336509855
 40
0.4750502997
 40
0.5155272004
 40
0.5549500209
 40
0.5931918907
 40
0.630131454
 40
0.6656536364
 40
0.699650486
 40
0.7320221194
 40
0.7626778258
 40
0.777337222
 40
0.7915384878
 40
0.805273585
 40
0.8185352532
 40
0.8313173227
 40
0.8436146068
 40
0.8554232081
 40
0.8667404992
 40
0.8775654307
 40
0.8878986336
 40
0.8977427509
 40
0.9071027011
 40
0.915986074
 40
0.9244036042
 40
0.9323696833
 40
0.939903085
 40
0.9470276266
 40
0.9537731072
 40
0.9601760141
 40
0.9662803701
 40
0.9721379997
 40
0.9778084882
 40
0.9833580948
 40
0.9888579229
 40
0.9943811629
 40
1.0
 40
1.0
 40
1.0
 40
1.0
 10
13.0671659007
 20
9.6522113286
 30
0.0
 10
13.0671659007
 20
9.6443697505
 30
0.0
 10
13.0670389202
 20
9.6285920199
 30
0.0
 10
13.0664779608
 20
9.6048165407
 30
0.0
 10
13.0655471145
 20
9.5808491052
 30
0.0
 10
13.0642496872
 20
9.556775188
 30
0.0
 10
13.0625902807
 20
9.532680483
 30
0.0
 10
13.0605748096
 20
9.5086508256
 30
0.0
 10
13.05821046
 20
9.4847717934
 30
0.0
 10
13.0555056746
 20
9.4611284321
 30
0.0
 10
13.0524701175
 20
9.4378049387
 30
0.0
 10
13.049114643
 20
9.4148843633
 30
0.0
 10
13.0454512563
 20
9.3924483082
 30
0.0
 10
13.0414930722
 20
9.3705766341
 30
0.0
 10
13.0372542694
 20
9.3493471696
 30
0.0
 10
13.0327500406
 20
9.328835429
 30
0.0
 10
13.0279965406
 20
9.3091143277
 30
0.0
 10
13.0230108264
 20
9.290253934
 30
0.0
 10
13.0178108041
 20
9.2723211171
 30
0.0
 10
13.0124151345
 20
9.2553795815
 30
0.0
 10
13.0077043289
 20
9.2419443707
 30
0.0
 10
13.0038426479
 20
9.2317452365
 30
0.0
 10
13.0009527868
 20
9.2244946097
 30
0.0
 10
12.998028719
 20
9.2175346706
 30
0.0
 10
12.9950729719
 20
9.2108715881
 30
0.0
 10
12.9920882307
 20
9.2045112489
 30
0.0
 10
12.989077104
 20
9.1984592813
 30
0.0
 10
12.9860422997
 20
9.1927210102
 30
0.0
 10
12.982986469
 20
9.1873014908
 30
0.0
 10
12.9799123257
 20
9.1822054656
 30
0.0
 10
12.9768225399
 20
9.177437392
 30
0.0
 10
12.9737197994
 20
9.1730014132
 30
0.0
 10
12.9706067584
 20
9.1689013704
 30
0.0
 10
12.9674860308
 20
9.1651408053
 30
0.0
 10
12.9643602006
 20
9.1617229452
 30
0.0
 10
12.9612317422
 20
9.1586507663
 30
0.0
 10
12.9581031001
 20
9.1559269412
 30
0.0
 10
12.9549765521
 20
9.1535540049
 30
0.0
 10
12.9518543806
 20
9.1515342498
 30
0.0
 10
12.9487387452
 20
9.1498700271
 30
0.0
 10
12.9456319909
 20
9.1485635216
 30
0.0
 10
12.9425366347
 20
9.147617113
 30
0.0
 10
12.9394557435
 20
9.1470328264
 30
0.0
 10
12.9363929719
 20
9.1468125384
 30
0.0
 10
12.9333524005
 20
9.1469570999
 30
0.0
 10
12.9303389233
 20
9.1474664249
 30
0.0
 10
12.9283744905
 20
9.1480413375
 30
0.0
 10
12.9274038229
 20
9.1483845189
 30
0.0
  0
SPLINE
  5
356
100
AcDbEntity
  8
0
100
AcDbSpline
 62
7
  6
CONTINUOUS
 70
0
 71
3
 72
30
 73
26
 74
0
 42
0.0000001
 43
0.0000001
 44
0.0000000001
 40
0.0
 40
0.0
 40
0.0
 40
0.0
 40
0.0701085675
 40
0.1412554411
 40
0.2129876311
 40
0.284845363
 40
0.3563685412
 40
0.4270997236
 40
0.4965879152
 40
0.5643924056
 40
0.6300866103
 40
0.6620145347
 40
0.6932633929
 40
0.7237856012
 40
0.7535352787
 40
0.7824684091
 40
0.8105428748
 40
0.8377187799
 40
0.8639586224
 40
0.8892273897
 40
0.9134929947
 40
0.9367265106
 40
0.9589024158
 40
0.9799992401
 40
1.0
 40
1.0
 40
1.0
 40
1.0
 10
12.9532855209
 20
9.6522113221
 30
0.0
 10
12.9532855209
 20
9.6421184353
 30
0.0
 10
12.9530585536
 20
9.6217825555
 30
0.0
 10
12.9520631534
 20
9.5911347062
 30
0.0
 10
12.9504162733
 20
9.5602626754
 30
0.0
 10
12.9481290549
 20
9.529377205
 30
0.0
 10
12.945217145
 20
9.4986890639
 30
0.0
 10
12.9417004977
 20
9.4684076538
 30
0.0
 10
12.9376032569
 20
9.4387394996
 30
0.0
 10
12.9329535725
 20
9.4098870845
 30
0.0
 10
12.9286050314
 20
9.3864697831
 30
0.0
 10
12.9248648176
 20
9.3682978733
 30
0.0
 10
12.9219690657
 20
9.3551229359
 30
0.0
 10
12.918961113
 20
9.34229503
 30
0.0
 10
12.9158460895
 20
9.3298360261
 30
0.0
 10
12.9126293627
 20
9.3177671759
 30
0.0
 10
12.9093164245
 20
9.3061090613
 30
0.0
 10
12.9059129625
 20
9.2948815479
 30
0.0
 10
12.9024248327
 20
9.2841037507
 30
0.0
 10
12.8988579914
 20
9.273794016
 30
0.0
 10
12.8952185627
 20
9.2639698575
 30
0.0
 10
12.8915128051
 20
9.25464795
 30
0.0
 10
12.8877470105
 20
9.2458440444
 30
0.0
 10
12.8839276914
 20
9.237573144
 30
0.0
 10
12.8812788303
 20
9.2322813216
 30
0.0
 10
12.8799436634
 20
9.2297302736
 30
0.0
  0
SPLINE
  5
357
100
AcDbEntity
  8
0
100
AcDbSpline
 62
7
  6
CONTINUOUS
 70
0
 71
3
 72
25
 73
21
 74
0
 42
0.0000001
 43
0.0000001
 44
0.0000000001
 40
0.0
 40
0.0
 40
0.0
 40
0.0
 40
0.0663121894
 40
0.1335065374
 40
0.201282973
 40
0.2693366539
 40
0.3373619242
 40
0.405053017
 40
0.4721061566
 40
0.5382212038
 40
0.6031034489
 40
0.6664653916
 40
0.7280285669
 40
0.7875254295
 40
0.8447013342
 40
0.8993166662
 40
0.9255946027
 40
0.9511506474
 40
0.9759601588
 40
1.0
 40
1.0
 40
1.0
 40
1.0
 10
12.9158994673
 20
9.646624754
 30
0.0
 10
12.9158994673
 20
9.6388682026
 30
0.0
 10
12.9157535812
 20
9.6232515665
 30
0.0
 10
12.9151110245
 20
9.5997150545
 30
0.0
 10
12.9140460077
 20
9.5759899083
 30
0.0
 10
12.9125635836
 20
9.5521898373
 30
0.0
 10
12.9106708591
 20
9.5284288834
 30
0.0
 10
12.9083769082
 20
9.50482087
 30
0.0
 10
12.9056927579
 20
9.4814788946
 30
0.0
 10
12.902631323
 20
9.458514763
 30
0.0
 10
12.8992073504
 20
9.4360384538
 30
0.0
 10
12.8954373491
 20
9.4141575767
 30
0.0
 10
12.8913395104
 20
9.3929768661
 30
0.0
 10
12.8869336371
 20
9.3725975958
 30
0.0
 10
12.882241001
 20
9.3531173169
 30
0.0
 10
12.8780585323
 20
9.3375160721
 30
0.0
 10
12.8745773158
 20
9.3255608221
 30
0.0
 10
12.8719426623
 20
9.3169913101
 30
0.0
 10
12.8692538708
 20
9.3087134726
 30
0.0
 10
12.8673975796
 20
9.3033091245
 30
0.0
 10
12.8664599272
 20
9.3006581161
 30
0.0
  0
SPLINE
  5
358
100
AcDbEntity
  8
0
100
AcDbSpline
 62
7
  6
CONTINUOUS
 70
0
 71
3
 72
37
 73
33
 74
0
 42
0.0000001
 43
0.0000001
 44
0.0000000001
 40
0.0
 40
0.0
 40
0.0
 40
0.0
 40
0.0306358971
 40
0.0613750814
 40
0.0922157449
 40
0.1231551209
 40
0.1541895174
 40
0.1853143605
 40
0.2165242473
 40
0.2478130007
 40
0.2791737303
 40
0.3105988981
 40
0.3420803897
 40
0.3736095924
 40
0.4051774734
 40
0.4367746596
 40
0.5000015908
 40
0.5632284426
 40
0.5948255332
 40
0.6263932833
 40
0.6579223185
 40
0.6894036061
 40
0.7208285362
 40
0.7521889995
 40
0.7834774603
 40
0.8146870281
 40
0.8458115337
 40
0.8768455446
 40
0.9077845995
 40
0.93862478
 40
0.9693635217
 40
1.0
 40
1.0
 40
1.0
 40
1.0
 10
11.6239816028
 20
8.6321619858
 30
0.0
 10
11.6172178384
 20
8.6325039344
 30
0.0
 10
11.6036820486
 20
8.6335223023
 30
0.0
 10
11.5834452961
 20
8.6360412794
 30
0.0
 10
11.5632876541
 20
8.6395482959
 30
0.0
 10
11.5432584993
 20
8.6440347972
 30
0.0
 10
11.5234060747
 20
8.6494899146
 30
0.0
 10
11.5037784059
 20
8.6559004044
 30
0.0
 10
11.4844229133
 20
8.6632507333
 30
0.0
 10
11.465386374
 20
8.6715231039
 30
0.0
 10
11.4467147881
 20
8.6806975029
 30
0.0
 10
11.4284532878
 20
8.6907517385
 30
0.0
 10
11.410645967
 20
8.7016615056
 30
0.0
 10
11.3933359476
 20
8.713400315
 30
0.0
 10
11.3765646808
 20
8.7259401509
 30
0.0
 10
11.3549744714
 20
8.7436879787
 30
0.0
 10
11.329537799
 20
8.7677163206
 30
0.0
 10
11.3064101017
 20
8.79397453
 30
0.0
 10
11.2894251226
 20
8.8161697825
 30
0.0
 10
11.2774771412
 20
8.8333676017
 30
0.0
 10
11.2663485023
 20
8.8510759382
 30
0.0
 10
11.2560657478
 20
8.8692523799
 30
0.0
 10
11.246653835
 20
8.8878529018
 30
0.0
 10
11.238135506
 20
8.9068325872
 30
0.0
 10
11.2305313847
 20
8.9261455684
 30
0.0
 10
11.2238598892
 20
8.9457451835
 30
0.0
 10
11.218137178
 20
8.9655840553
 30
0.0
 10
11.2133770843
 20
8.9856142595
 30
0.0
 10
11.2095911981
 20
9.0057873112
 30
0.0
 10
11.2067886561
 20
9.0260546282
 30
0.0
 10
11.2049762978
 20
9.0463667865
 30
0.0
 10
11.2044302935
 20
9.0599298751
 30
0.0
 10
11.2043242108
 20
9.0667015754
 30
0.0
  0
SPLINE
  5
359
100
AcDbEntity
  8
0
100
AcDbSpline
 62
7
  6
CONTINUOUS
 70
0
 71
3
 72
39
 73
35
 74
0
 42
0.0000001
 43
0.0000001
 44
0.0000000001
 40
0.0
 40
0.0
 40
0.0
 40
0.0
 40
0.0307061174
 40
0.0615299296
 40
0.0924690078
 40
0.1235199663
 40
0.1546778093
 40
0.1859364009
 40
0.2172883682
 40
0.2487252769
 40
0.2802376993
 40
0.3118153506
 40
0.3434471995
 40
0.3751216031
 40
0.4068264394
 40
0.4385492426
 40
0.470277349
 40
0.5019980313
 40
0.5336986496
 40
0.5653667852
 40
0.5969903869
 40
0.6285579043
 40
0.660058422
 40
0.6914817894
 40
0.7228187377
 40
0.7540609999
 40
0.785201409
 40
0.8162339986
 40
0.8471540805
 40
0.8779583183
 40
0.908644781
 40
0.9392129818
 40
0.9696639036
 40
1.0
 40
1.0
 40
1.0
 40
1.0
 10
11.1143168667
 20
8.9982719839
 30
0.0
 10
11.1143168667
 20
8.9903964777
 30
0.0
 10
11.1147572348
 20
8.9746118368
 30
0.0
 10
11.1167278693
 20
8.9509659768
 30
0.0
 10
11.1200037045
 20
8.9273754312
 30
0.0
 10
11.1245744599
 20
8.9039142823
 30
0.0
 10
11.1304259352
 20
8.8806549053
 30
0.0
 10
11.1375399141
 20
8.8576694137
 30
0.0
 10
11.1458943093
 20
8.8350289564
 30
0.0
 10
11.1554631875
 20
8.8128036395
 30
0.0
 10
11.166216868
 20
8.7910622686
 30
0.0
 10
11.1781220102
 20
8.7698721524
 30
0.0
 10
11.1911417151
 20
8.7492988885
 30
0.0
 10
11.2052356435
 20
8.7294061666
 30
0.0
 10
11.2203601354
 20
8.7102555692
 30
0.0
 10
11.2364683499
 20
8.6919063848
 30
0.0
 10
11.2535104044
 20
8.6744154233
 30
0.0
 10
11.2714335329
 20
8.6578368428
 30
0.0
 10
11.2901822443
 20
8.6422219822
 30
0.0
 10
11.3096984966
 20
8.6276192028
 30
0.0
 10
11.3299218732
 20
8.6140737399
 30
0.0
 10
11.3507897696
 20
8.6016275628
 30
0.0
 10
11.3722375861
 20
8.5903192457
 30
0.0
 10
11.3941989253
 20
8.5801838483
 30
0.0
 10
11.4166057975
 20
8.5712528074
 30
0.0
 10
11.4393888284
 20
8.5635538394
 30
0.0
 10
11.4624774727
 20
8.5571108538
 30
0.0
 10
11.4858002317
 20
8.5519438792
 30
0.0
 10
11.5092848664
 20
8.5480689984
 30
0.0
 10
11.5328586489
 20
8.5454983032
 30
0.0
 10
11.5564484713
 20
8.5442398365
 30
0.0
 10
11.5799815012
 20
8.5442976319
 30
0.0
 10
11.6033838063
 20
8.5456714537
 30
0.0
 10
11.6188808905
 20
8.5474656002
 30
0.0
 10
11.6265811554
 20
8.5485808166
 30
0.0
  0
SPLINE
  5
35A
100
AcDbEntity
  8
0
100
AcDbSpline
 62
7
  6
CONTINUOUS
 70
0
 71
3
 72
39
 73
35
 74
0
 42
0.0000001
 43
0.0000001
 44
0.0000000001
 40
0.0
 40
0.0
 40
0.0
 40
0.0
 40
0.0307080506
 40
0.0615340171
 40
0.0924754716
 40
0.1235289983
 40
0.1546895781
 40
0.1859510391
 40
0.2173059684
 40
0.2487458862
 40
0.2802613148
 40
0.3118419169
 40
0.3434766059
 40
0.3751536831
 40
0.4068609704
 40
0.4385859475
 40
0.4703158982
 40
0.5020380463
 40
0.5337397077
 40
0.565408425
 40
0.5970321151
 40
0.6285992029
 40
0.6600987572
 40
0.6915206204
 40
0.7228555269
 40
0.754095223
 40
0.7852325658
 40
0.8162616242
 40
0.8471777561
 40
0.8779776824
 40
0.9086595394
 40
0.9392229183
 40
0.969668889
 40
1.0
 40
1.0
 40
1.0
 40
1.0
 10
11.0923965614
 20
8.9925985936
 30
0.0
 10
11.0923965614
 20
8.9844291439
 30
0.0
 10
11.0928542371
 20
8.9680552905
 30
0.0
 10
11.0949023141
 20
8.9435269867
 30
0.0
 10
11.098306842
 20
8.9190564623
 30
0.0
 10
11.1030571078
 20
8.8947208546
 30
0.0
 10
11.1091382912
 20
8.8705955238
 30
0.0
 10
11.1165313907
 20
8.8467555524
 30
0.0
 10
11.1252133644
 20
8.8232750155
 30
0.0
 10
11.1351571595
 20
8.8002268973
 30
0.0
 10
11.1463318152
 20
8.7776828224
 30
0.0
 10
11.1587025533
 20
8.7557128503
 30
0.0
 10
11.1722308862
 20
8.7343852518
 30
0.0
 10
11.186874739
 20
8.7137663035
 30
0.0
 10
11.2025885757
 20
8.6939200789
 30
0.0
 10
11.2193235447
 20
8.6749082543
 30
0.0
 10
11.2370276253
 20
8.6567899155
 30
0.0
 10
11.2556457931
 20
8.6396213772
 30
0.0
 10
11.2751201858
 20
8.6234560075
 30
0.0
 10
11.2953902852
 20
8.6083440641
 30
0.0
 10
11.3163931021
 20
8.594332538
 30
0.0
 10
11.3380633716
 20
8.5814650086
 30
0.0
 10
11.3603337544
 20
8.5697815083
 30
0.0
 10
11.3831350442
 20
8.5593183988
 30
0.0
 10
11.4063963819
 20
8.5501082576
 30
0.0
 10
11.430045473
 20
8.5421797772
 30
0.0
 10
11.4540088113
 20
8.5355576752
 30
0.0
 10
11.4782119066
 20
8.5302626167
 30
0.0
 10
11.5025795067
 20
8.526311148
 30
0.0
 10
11.5270358612
 20
8.5237156489
 30
0.0
 10
11.5515048353
 20
8.5224842733
 30
0.0
 10
11.5759105933
 20
8.5226209935
 30
0.0
 10
11.6001761678
 20
8.5241253189
 30
0.0
 10
11.6162416288
 20
8.5260408302
 30
0.0
 10
11.6242234102
 20
8.5272251751
 30
0.0
  0
SPLINE
  5
35B
100
AcDbEntity
  8
0
100
AcDbSpline
 62
7
  6
CONTINUOUS
 70
0
 71
3
 72
43
 73
39
 74
0
 42
0.0000001
 43
0.0000001
 44
0.0000000001
 40
0.0
 40
0.0
 40
0.0
 40
0.0
 40
0.0993169278
 40
0.1957347666
 40
0.2426552758
 40
0.2886114572
 40
0.33352797
 40
0.37733178
 40
0.4199527168
 40
0.4613235835
 40
0.5013804496
 40
0.5400631058
 40
0.5773152505
 40
0.6130848738
 40
0.6473249081
 40
0.679993648
 40
0.7110553471
 40
0.7404812383
 40
0.7682505534
 40
0.7943517416
 40
0.8187843854
 40
0.8415616366
 40
0.862713155
 40
0.8822893232
 40
0.9003668471
 40
0.917055429
 40
0.9249274689
 40
0.9325129017
 40
0.9398382988
 40
0.9469336696
 40
0.9538325341
 40
0.9605716397
 40
0.9671907286
 40
0.9737319725
 40
0.9802391704
 40
0.9867568896
 40
0.993329449
 40
1.0
 40
1.0
 40
1.0
 40
1.0
 10
13.0671659007
 20
9.6522113286
 30
0.0
 10
13.0671659007
 20
9.6632358549
 30
0.0
 10
13.0669203428
 20
9.6849639632
 30
0.0
 10
13.0659682112
 20
9.7118856763
 30
0.0
 10
13.0648165233
 20
9.7328669831
 30
0.0
 10
13.0637732938
 20
9.7481273855
 30
0.0
 10
13.0625448031
 20
9.7630268975
 30
0.0
 10
13.0611332905
 20
9.7775383031
 30
0.0
 10
13.0595413919
 20
9.7916350629
 30
0.0
 10
13.0577720457
 20
9.8052914109
 30
0.0
 10
13.0558285123
 20
9.8184823958
 30
0.0
 10
13.0537144072
 20
9.8311839377
 30
0.0
 10
13.0514336433
 20
9.843372865
 30
0.0
 10
13.0489904188
 20
9.8550269596
 30
0.0
 10
13.0463892664
 20
9.8661250192
 30
0.0
 10
13.0436349987
 20
9.8766468941
 30
0.0
 10
13.0407326696
 20
9.8865735222
 30
0.0
 10
13.0376876115
 20
9.8958869978
 30
0.0
 10
13.0345053973
 20
9.9045706196
 30
0.0
 10
13.0311917538
 20
9.9126089177
 30
0.0
 10
13.0277525485
 20
9.9199877116
 30
0.0
 10
13.0241937186
 20
9.9266941946
 30
0.0
 10
13.0205211538
 20
9.9327168373
 30
0.0
 10
13.0167402637
 20
9.9380455904
 30
0.0
 10
13.0128567
 20
9.9426709404
 30
0.0
 10
13.0094743459
 20
9.945995361
 30
0.0
 10
13.0067230364
 20
9.9482705402
 30
0.0
 10
13.0046785877
 20
9.9497620383
 30
0.0
 10
13.0026139549
 20
9.9510710141
 30
0.0
 10
13.0005299272
 20
9.9521966662
 30
0.0
 10
12.9984274718
 20
9.9531383182
 30
0.0
 10
12.996307551
 20
9.9538952392
 30
0.0
 10
12.9941712563
 20
9.9544668047
 30
0.0
 10
12.992019785
 20
9.954852604
 30
0.0
 10
12.9898543979
 20
9.955052241
 30
0.0
 10
12.9876763705
 20
9.955065572
 30
0.0
 10
12.9854871897
 20
9.9548927444
 30
0.0
 10
12.9840344574
 20
9.9546556812
 30
0.0
 10
12.9833089622
 20
9.9545075952
 30
0.0
  0
SPLINE
  5
35C
100
AcDbEntity
  8
0
100
AcDbSpline
 62
7
  6
CONTINUOUS
 70
0
 71
3
 72
23
 73
19
 74
0
 42
0.0000001
 43
0.0000001
 44
0.0000000001
 40
0.0
 40
0.0
 40
0.0
 40
0.0
 40
0.0762084523
 40
0.1512816476
 40
0.2250487796
 40
0.2973523607
 40
0.3680342551
 40
0.4369428602
 40
0.5039319803
 40
0.568861501
 40
0.631598206
 40
0.6920164257
 40
0.7499989896
 40
0.8054380885
 40
0.8582363483
 40
0.9083081729
 40
0.9555815106
 40
1.0
 40
1.0
 40
1.0
 40
1.0
 10
12.9532855209
 20
9.6522113221
 30
0.0
 10
12.9532855209
 20
9.65807845
 30
0.0
 10
12.953209849
 20
9.6697254611
 30
0.0
 10
12.9528644398
 20
9.6870485626
 30
0.0
 10
12.9522886791
 20
9.7040648011
 30
0.0
 10
12.9514840365
 20
9.7207333174
 30
0.0
 10
12.9504524153
 20
9.7370145901
 30
0.0
 10
12.9491963308
 20
9.7528697367
 30
0.0
 10
12.9477188278
 20
9.7682610039
 30
0.0
 10
12.9460234803
 20
9.7831517389
 30
0.0
 10
12.9441143893
 20
9.7975064906
 30
0.0
 10
12.9419961643
 20
9.8112911124
 30
0.0
 10
12.9396739379
 20
9.8244728488
 30
0.0
 10
12.9371533273
 20
9.8370204306
 30
0.0
 10
12.9344404314
 20
9.848904115
 30
0.0
 10
12.9315417675
 20
9.860095903
 30
0.0
 10
12.9284643852
 20
9.8705691991
 30
0.0
 10
12.9262281526
 20
9.8772670632
 30
0.0
 10
12.9250758917
 20
9.8804867753
 30
0.0
  0
SPLINE
  5
35D
100
AcDbEntity
  8
0
100
AcDbSpline
 62
7
  6
CONTINUOUS
 70
0
 71
3
 72
17
 73
13
 74
0
 42
0.0000001
 43
0.0000001
 44
0.0000000001
 40
0.0
 40
0.0
 40
0.0
 40
0.0
 40
0.1405710816
 40
0.2778856398
 40
0.4113134619
 40
0.540245283
 40
0.6641030084
 40
0.7823421661
 40
0.83919698
 40
0.8944614947
 40
0.9480799677
 40
1.0
 40
1.0
 40
1.0
 40
1.0
 10
12.9158994673
 20
9.646624754
 30
0.0
 10
12.9158994673
 20
9.6544171178
 30
0.0
 10
12.9157549268
 20
9.6698217754
 30
0.0
 10
12.9150908706
 20
9.6926141878
 30
0.0
 10
12.9139852915
 20
9.714743679
 30
0.0
 10
12.9124439163
 20
9.7360994483
 30
0.0
 10
12.9104746869
 20
9.7565744567
 30
0.0
 10
12.9084603071
 20
9.7730258655
 30
0.0
 10
12.9066322149
 20
9.7856643493
 30
0.0
 10
12.9051788267
 20
9.7947365063
 30
0.0
 10
12.9036271125
 20
9.8035146886
 30
0.0
 10
12.9025100327
 20
9.8092578049
 30
0.0
 10
12.9019342203
 20
9.8120777318
 30
0.0
  0
SPLINE
  5
35E
100
AcDbEntity
  8
0
100
AcDbSpline
 62
7
  6
CONTINUOUS
 70
0
 71
3
 72
27
 73
23
 74
0
 42
0.0000001
 43
0.0000001
 44
0.0000000001
 40
0.0
 40
0.0
 40
0.0
 40
0.0
 40
0.0307111104
 40
0.0615157722
 40
0.0924115594
 40
0.1233953087
 40
0.1855956953
 40
0.2480934873
 40
0.3108408578
 40
0.3737823438
 40
0.436856599
 40
0.4999982802
 40
0.5631400307
 40
0.6262144858
 40
0.6891563001
 40
0.7519041172
 40
0.8144024547
 40
0.8766034844
 40
0.907587552
 40
0.9384837775
 40
0.9692886998
 40
1.0
 40
1.0
 40
1.0
 40
1.0
 10
11.6030444172
 20
8.7125256127
 30
0.0
 10
11.5979842528
 20
8.7130770707
 30
0.0
 10
11.5878719748
 20
8.7144106149
 30
0.0
 10
11.5727871211
 20
8.717091702
 30
0.0
 10
11.5577918717
 20
8.7204514376
 30
0.0
 10
11.5379373596
 20
8.7258323619
 30
0.0
 10
11.5134987129
 20
8.7342236333
 30
0.0
 10
11.4850695695
 20
8.7468466628
 30
0.0
 10
11.4577263753
 20
8.7619334962
 30
0.0
 10
11.4316965102
 20
8.7793588367
 30
0.0
 10
11.407194403
 20
8.7989785149
 30
0.0
 10
11.3844224931
 20
8.8206303307
 30
0.0
 10
11.3635688252
 20
8.8441353834
 30
0.0
 10
11.3448056685
 20
8.86929955
 30
0.0
 10
11.3282882544
 20
8.8959149854
 30
0.0
 10
11.3141530991
 20
8.9237623168
 30
0.0
 10
11.3025178124
 20
8.952610089
 30
0.0
 10
11.2949740305
 20
8.9773237498
 30
0.0
 10
11.2902808235
 20
8.9973522145
 30
0.0
 10
11.2874400724
 20
9.0124545521
 30
0.0
 10
11.2852805683
 20
9.0276230093
 30
0.0
 10
11.2842964452
 20
9.0377753259
 30
0.0
 10
11.2839197495
 20
9.0428515243
 30
0.0
  0
SPLINE
  5
35F
100
AcDbEntity
  8
0
100
AcDbSpline
 62
7
  6
CONTINUOUS
 70
0
 71
3
 72
53
 73
49
 74
0
 42
0.0000001
 43
0.0000001
 44
0.0000000001
 40
0.0
 40
0.0
 40
0.0
 40
0.0
 40
0.0417740113
 40
0.0840369498
 40
0.1266584959
 40
0.1695064843
 40
0.2124480935
 40
0.2553500426
 40
0.298079237
 40
0.3405032536
 40
0.382490879
 40
0.4239126346
 40
0.4646413116
 40
0.5045525112
 40
0.543525196
 40
0.5814422576
 40
0.6181911067
 40
0.6536642972
 40
0.6877601986
 40
0.720383738
 40
0.7361160079
 40
0.7514479787
 40
0.7663699923
 40
0.7808730391
 40
0.7949486907
 40
0.8085892839
 40
0.8217878242
 40
0.8345382246
 40
0.8468351953
 40
0.858674535
 40
0.8700530305
 40
0.8809687964
 40
0.8914212207
 40
0.9014113515
 40
0.9109419335
 40
0.9200178526
 40
0.9286463131
 40
0.9368373658
 40
0.9446042772
 40
0.9519641672
 40
0.9589385932
 40
0.9655542738
 40
0.9718437889
 40
0.9778461802
 40
0.9836073652
 40
0.9891800467
 40
0.99462308
 40
1.0
 40
1.0
 40
1.0
 40
1.0
 10
13.1459570135
 20
7.8243532607
 30
0.0
 10
13.1459570135
 20
7.8133462993
 30
0.0
 10
13.1457852933
 20
7.791203204
 30
0.0
 10
13.1450261492
 20
7.7578376545
 30
0.0
 10
13.1437661563
 20
7.7242040295
 30
0.0
 10
13.1420094452
 20
7.6904136648
 30
0.0
 10
13.1397618211
 20
7.656578356
 30
0.0
 10
13.1370307131
 20
7.6228100386
 30
0.0
 10
13.1338251687
 20
7.5892204333
 30
0.0
 10
13.1301558142
 20
7.5559206619
 30
0.0
 10
13.1260348236
 20
7.5230208824
 30
0.0
 10
13.1214758781
 20
7.4906299192
 30
0.0
 10
13.1164941211
 20
7.4588549009
 30
0.0
 10
13.1111061096
 20
7.4278009007
 30
0.0
 10
13.1053297602
 20
7.3975705852
 30
0.0
 10
13.0991842915
 20
7.3682638621
 30
0.0
 10
13.0926901594
 20
7.3399775619
 30
0.0
 10
13.0858690002
 20
7.3128050289
 30
0.0
 10
13.0787435235
 20
7.2868360672
 30
0.0
 10
13.0724987292
 20
7.2660252705
 30
0.0
 10
13.0673583568
 20
7.2500505191
 30
0.0
 10
13.0634885834
 20
7.2385678094
 30
0.0
 10
13.0595608559
 20
7.2274476989
 30
0.0
 10
13.0555784381
 20
7.2166993509
 30
0.0
 10
13.0515445955
 20
7.2063316413
 30
0.0
 10
13.0474627183
 20
7.1963531077
 30
0.0
 10
13.0433361308
 20
7.1867719804
 30
0.0
 10
13.0391683098
 20
7.177596129
 30
0.0
 10
13.0349626323
 20
7.1688331105
 30
0.0
 10
13.0307226401
 20
7.1604900945
 30
0.0
 10
13.0264517494
 20
7.1525739351
 30
0.0
 10
13.0221535398
 20
7.1450910728
 30
0.0
 10
13.0178314481
 20
7.1380476304
 30
0.0
 10
13.0134890552
 20
7.1314492948
 30
0.0
 10
13.0091297881
 20
7.1253014328
 30
0.0
 10
13.0047571778
 20
7.119608964
 30
0.0
 10
13.0003745939
 20
7.1143764898
 30
0.0
 10
12.9959854451
 20
7.1096081771
 30
0.0
 10
12.9915929741
 20
7.1053078932
 30
0.0
 10
12.9872003839
 20
7.101479137
 30
0.0
 10
12.9828107281
 20
7.098125167
 30
0.0
 10
12.9784269791
 20
7.0952490307
 30
0.0
 10
12.9740520812
 20
7.0928536464
 30
0.0
 10
12.9696890159
 20
7.09094194
 30
0.0
 10
12.9653411548
 20
7.0895167261
 30
0.0
 10
12.9610120717
 20
7.0885808253
 30
0.0
 10
12.956707032
 20
7.088136415
 30
0.0
 10
12.9538488452
 20
7.088169053
 30
0.0
 10
12.9524354843
 20
7.0882670665
 30
0.0
  0
SPLINE
  5
360
100
AcDbEntity
  8
0
100
AcDbSpline
 62
7
  6
CONTINUOUS
 70
0
 71
3
 72
23
 73
19
 74
0
 42
0.0000001
 43
0.0000001
 44
0.0000000001
 40
0.0
 40
0.0
 40
0.0
 40
0.0
 40
0.0617101465
 40
0.1234413984
 40
0.1852146462
 40
0.2470503535
 40
0.3089683476
 40
0.3709876198
 40
0.4331261355
 40
0.4954006635
 40
0.5578266123
 40
0.620417904
 40
0.6831868136
 40
0.7461438604
 40
0.8092980134
 40
0.8726552092
 40
0.9362227185
 40
1.0
 40
1.0
 40
1.0
 40
1.0
 10
10.8504270061
 20
8.9562427503
 30
0.0
 10
10.8453964658
 20
8.9513836145
 30
0.0
 10
10.835581901
 20
8.9414028437
 30
0.0
 10
10.8216468631
 20
8.9256916167
 30
0.0
 10
10.8085279512
 20
8.9092738437
 30
0.0
 10
10.7962559389
 20
8.8921879061
 30
0.0
 10
10.7848589746
 20
8.8744730859
 30
0.0
 10
10.7743633731
 20
8.8561702808
 30
0.0
 10
10.7647933014
 20
8.8373217076
 30
0.0
 10
10.7561707852
 20
8.8179708569
 30
0.0
 10
10.7485156635
 20
8.7981623623
 30
0.0
 10
10.7418455487
 20
8.777941905
 30
0.0
 10
10.736175789
 20
8.7573561151
 30
0.0
 10
10.7315193941
 20
8.7364524237
 30
0.0
 10
10.7278871029
 20
8.7152791399
 30
0.0
 10
10.7252870766
 20
8.693884721
 30
0.0
 10
10.7237254905
 20
8.6723193305
 30
0.0
 10
10.723379517
 20
8.6578838713
 30
0.0
 10
10.723379517
 20
8.650655479
 30
0.0
  0
SPLINE
  5
361
100
AcDbEntity
  8
0
100
AcDbSpline
 62
7
  6
CONTINUOUS
 70
0
 71
3
 72
23
 73
19
 74
0
 42
0.0000001
 43
0.0000001
 44
0.0000000001
 40
0.0
 40
0.0
 40
0.0
 40
0.0
 40
0.0616766115
 40
0.1233923867
 40
0.1851651512
 40
0.2470122229
 40
0.3089502651
 40
0.3709951414
 40
0.4331617789
 40
0.4954640402
 40
0.557914607
 40
0.6205249071
 40
0.6833049635
 40
0.7462634007
 40
0.809407508
 40
0.8727419694
 40
0.9362732619
 40
1.0
 40
1.0
 40
1.0
 40
1.0
 10
10.7926393396
 20
8.9662189919
 30
0.0
 10
10.7877432188
 20
8.960940801
 30
0.0
 10
10.7781998259
 20
8.9501440905
 30
0.0
 10
10.7646733196
 20
8.9332758317
 30
0.0
 10
10.7519577753
 20
8.915762935
 30
0.0
 10
10.7400791588
 20
8.8976410832
 30
0.0
 10
10.7290611861
 20
8.8789465699
 30
0.0
 10
10.7189260017
 20
8.8597169932
 30
0.0
 10
10.7096939451
 20
8.8399909738
 30
0.0
 10
10.7013835458
 20
8.8198081437
 30
0.0
 10
10.6940114398
 20
8.7992090586
 30
0.0
 10
10.6875923988
 20
8.7782350975
 30
0.0
 10
10.6821392774
 20
8.7569283891
 30
0.0
 10
10.6776629987
 20
8.7353316883
 30
0.0
 10
10.6741725644
 20
8.7134884806
 30
0.0
 10
10.6716747791
 20
8.6914422779
 30
0.0
 10
10.6701748495
 20
8.6692381547
 30
0.0
 10
10.6698424768
 20
8.6543813692
 30
0.0
 10
10.6698424768
 20
8.6469426661
 30
0.0
  0
SPLINE
  5
362
100
AcDbEntity
  8
0
100
AcDbSpline
 62
7
  6
CONTINUOUS
 70
0
 71
3
 72
23
 73
19
 74
0
 42
0.0000001
 43
0.0000001
 44
0.0000000001
 40
0.0
 40
0.0
 40
0.0
 40
0.0
 40
0.0617101436
 40
0.1234413945
 40
0.1852146442
 40
0.2470503545
 40
0.3089683499
 40
0.3709876203
 40
0.4331261332
 40
0.4954006601
 40
0.5578266118
 40
0.6204179016
 40
0.6831868196
 40
0.7461438598
 40
0.8092979876
 40
0.872655304
 40
0.9362225276
 40
1.0
 40
1.0
 40
1.0
 40
1.0
 10
10.7742378599
 20
8.949385422
 30
0.0
 10
10.7686919116
 20
8.9440284517
 30
0.0
 10
10.7578718069
 20
8.9330250974
 30
0.0
 10
10.7425090424
 20
8.9157041985
 30
0.0
 10
10.7280460287
 20
8.8976043539
 30
0.0
 10
10.7145166963
 20
8.8787678781
 30
0.0
 10
10.7019520768
 20
8.859238081
 30
0.0
 10
10.6903811575
 20
8.8390600664
 30
0.0
 10
10.6798305778
 20
8.8182803753
 30
0.0
 10
10.6703246343
 20
8.7969469446
 30
0.0
 10
10.6618852066
 20
8.7751089789
 30
0.0
 10
10.654531714
 20
8.7528168382
 30
0.0
 10
10.6482810742
 20
8.7301219351
 30
0.0
 10
10.6431476065
 20
8.7070765675
 30
0.0
 10
10.6391431573
 20
8.6837339731
 30
0.0
 10
10.63627676
 20
8.660147619
 30
0.0
 10
10.6345551667
 20
8.636372752
 30
0.0
 10
10.6341737564
 20
8.6204583244
 30
0.0
 10
10.6341737564
 20
8.6124893258
 30
0.0
  0
SPLINE
  5
363
100
AcDbEntity
  8
0
100
AcDbSpline
 62
7
  6
CONTINUOUS
 70
0
 71
3
 72
23
 73
19
 74
0
 42
0.0000001
 43
0.0000001
 44
0.0000000001
 40
0.0
 40
0.0
 40
0.0
 40
0.0
 40
0.0616937245
 40
0.1234167449
 40
0.1851886145
 40
0.2470284172
 40
0.3089545848
 40
0.3709847224
 40
0.4331354437
 40
0.4954222246
 40
0.5578592589
 40
0.6204593496
 40
0.6832337752
 40
0.7461921795
 40
0.8093427947
 40
0.8726910654
 40
0.9362436028
 40
1.0
 40
1.0
 40
1.0
 40
1.0
 10
10.7452748915
 20
8.9538981258
 30
0.0
 10
10.7397737087
 20
8.9483261373
 30
0.0
 10
10.7290453855
 20
8.9369024169
 30
0.0
 10
10.7138246526
 20
8.9189804432
 30
0.0
 10
10.6995046743
 20
8.9003067795
 30
0.0
 10
10.686117124
 20
8.880922611
 30
0.0
 10
10.6736909655
 20
8.8608699633
 30
0.0
 10
10.6622532564
 20
8.8401925008
 30
0.0
 10
10.6518288244
 20
8.818935209
 30
0.0
 10
10.6424403024
 20
8.7971443416
 30
0.0
 10
10.6341080659
 20
8.7748673006
 30
0.0
 10
10.6268501959
 20
8.752152537
 30
0.0
 10
10.6206824471
 20
8.7290494548
 30
0.0
 10
10.6156181601
 20
8.7056082603
 30
0.0
 10
10.6116683542
 20
8.6818800431
 30
0.0
 10
10.6088414082
 20
8.6579160296
 30
0.0
 10
10.6071436455
 20
8.6337692044
 30
0.0
 10
10.6067674808
 20
8.6176087608
 30
0.0
 10
10.6067674808
 20
8.6095168949
 30
0.0
  0
SPLINE
  5
364
100
AcDbEntity
  8
0
100
AcDbSpline
 62
7
  6
CONTINUOUS
 70
0
 71
3
 72
37
 73
33
 74
0
 42
0.0000001
 43
0.0000001
 44
0.0000000001
 40
0.0
 40
0.0
 40
0.0
 40
0.0
 40
0.0306209688
 40
0.0613471457
 40
0.0921768931
 40
0.1231075615
 40
0.1541355244
 40
0.1852562254
 40
0.2164642286
 40
0.2477532774
 40
0.2791163574
 40
0.3105457672
 40
0.3420331943
 40
0.3735697966
 40
0.4051462848
 40
0.4367530071
 40
0.5000000814
 40
0.5632471446
 40
0.5948538556
 40
0.6264303301
 40
0.6579669148
 40
0.6894543185
 40
0.7208836994
 40
0.752246748
 40
0.7835357634
 40
0.8147437326
 40
0.8458643994
 40
0.8768922984
 40
0.9078229995
 40
0.9386524956
 40
0.969378975
 40
1.0
 40
1.0
 40
1.0
 40
1.0
 10
11.6262902032
 20
8.6173269996
 30
0.0
 10
11.6192304078
 20
8.6175972268
 30
0.0
 10
11.6050976144
 20
8.6184924531
 30
0.0
 10
11.5839573571
 20
8.6208880851
 30
0.0
 10
11.5628896553
 20
8.6243328994
 30
0.0
 10
11.5419477288
 20
8.6288182414
 30
0.0
 10
11.5211835879
 20
8.6343328766
 30
0.0
 10
11.5006490332
 20
8.6408630089
 30
0.0
 10
11.4803952245
 20
8.6483923222
 30
0.0
 10
11.460472638
 20
8.6569020175
 30
0.0
 10
11.4409309187
 20
8.6663708669
 30
0.0
 10
11.4218187691
 20
8.6767752379
 30
0.0
 10
11.4031837755
 20
8.6880891941
 30
0.0
 10
11.3850724736
 20
8.7002844115
 30
0.0
 10
11.3675295868
 20
8.7133308796
 30
0.0
 10
11.3449542732
 20
8.7318182707
 30
0.0
 10
11.3183763939
 20
8.7568849453
 30
0.0
 10
11.2942463829
 20
8.7843160246
 30
0.0
 10
11.2765528825
 20
8.8075187822
 30
0.0
 10
11.2641225441
 20
8.8255034832
 30
0.0
 10
11.2525626719
 20
8.8440267497
 30
0.0
 10
11.241901701
 20
8.8630428373
 30
0.0
 10
11.232166314
 20
8.8825042502
 30
0.0
 10
11.2233807677
 20
8.9023625263
 30
0.0
 10
11.2155669942
 20
8.922568177
 30
0.0
 10
11.2087445045
 20
8.9430708589
 30
0.0
 10
11.2029303577
 20
8.9638194721
 30
0.0
 10
11.1981390453
 20
8.9847623335
 30
0.0
 10
11.1943826177
 20
9.0058471388
 30
0.0
 10
11.1916703534
 20
9.0270216338
 30
0.0
 10
11.190009231
 20
9.0482322751
 30
0.0
 10
11.1896046075
 20
9.062387694
 30
0.0
 10
11.1895793386
 20
9.0694526271
 30
0.0
  0
SPLINE
  5
365
100
AcDbEntity
  8
0
100
AcDbSpline
 62
7
  6
CONTINUOUS
 70
0
 71
3
 72
40
 73
36
 74
0
 42
0.0000001
 43
0.0000001
 44
0.0000000001
 40
0.0
 40
0.0
 40
0.0
 40
0.0
 40
0.0303421722
 40
0.0455576284
 40
0.0608021289
 40
0.0913761882
 40
0.1220682359
 40
0.152877691
 40
0.1838025398
 40
0.2148393761
 40
0.2459834567
 40
0.2772287715
 40
0.3085681262
 40
0.3399932364
 40
0.371494832
 40
0.4030627701
 40
0.4346861561
 40
0.4663534703
 40
0.4980527002
 40
0.5297714763
 40
0.5614972111
 40
0.5932172396
 40
0.6249189604
 40
0.6565899764
 40
0.6882182338
 40
0.7197921581
 40
0.7513007871
 40
0.7827338986
 40
0.814082129
 40
0.8453370974
 40
0.8764914792
 40
0.9075391954
 40
0.9384752351
 40
0.969296367
 40
1.0
 40
1.0
 40
1.0
 40
1.0
 10
11.6216842673
 20
8.5107562243
 30
0.0
 10
11.6134692054
 20
8.5096023273
 30
0.0
 10
11.6010815322
 20
8.5082208777
 30
0.0
 10
11.5844956507
 20
8.5070787478
 30
0.0
 10
11.567820434
 20
8.5064006102
 30
0.0
 10
11.5468902813
 20
8.5064302397
 30
0.0
 10
11.5217446978
 20
8.5078653444
 30
0.0
 10
11.4966209571
 20
8.5106954481
 30
0.0
 10
11.4715970116
 20
8.5149117453
 30
0.0
 10
11.4467498832
 20
8.5205011419
 30
0.0
 10
11.4221562011
 20
8.5274463235
 30
0.0
 10
11.3978917588
 20
8.5357258031
 30
0.0
 10
11.3740313388
 20
8.5453139903
 30
0.0
 10
11.3506484687
 20
8.5561812703
 30
0.0
 10
11.3278152007
 20
8.5682940954
 30
0.0
 10
11.3056018899
 20
8.5816150888
 30
0.0
 10
11.2840769797
 20
8.5961031595
 30
0.0
 10
11.263306792
 20
8.6117136288
 30
0.0
 10
11.2433553249
 20
8.6283983672
 30
0.0
 10
11.2242840562
 20
8.6461059423
 30
0.0
 10
11.2061517545
 20
8.6647817754
 30
0.0
 10
11.1890142998
 20
8.6843683102
 30
0.0
 10
11.1729245122
 20
8.7048051889
 30
0.0
 10
11.1579319903
 20
8.7260294373
 30
0.0
 10
11.1440829587
 20
8.7479756575
 30
0.0
 10
11.1314201267
 20
8.7705762281
 30
0.0
 10
11.1199825563
 20
8.7937615115
 30
0.0
 10
11.109805544
 20
8.817460066
 30
0.0
 10
11.1009205069
 20
8.841598867
 30
0.0
 10
11.0933548999
 20
8.8661035197
 30
0.0
 10
11.0871320952
 20
8.890898529
 30
0.0
 10
11.0822713889
 20
8.9159073733
 30
0.0
 10
11.0787877859
 20
8.9410532859
 30
0.0
 10
11.0766922022
 20
8.9662576477
 30
0.0
 10
11.0762239138
 20
8.9830824845
 30
0.0
 10
11.0762239138
 20
8.9914770147
 30
0.0
  0
SPLINE
  5
366
100
AcDbEntity
  8
0
100
AcDbSpline
 62
7
  6
CONTINUOUS
 70
0
 71
3
 72
39
 73
35
 74
0
 42
0.0000001
 43
0.0000001
 44
0.0000000001
 40
0.0
 40
0.0
 40
0.0
 40
0.0
 40
0.0299424711
 40
0.0599093186
 40
0.0899243248
 40
0.1200101037
 40
0.1501875627
 40
0.180475415
 40
0.2108897594
 40
0.2414437357
 40
0.2721472604
 40
0.3030068436
 40
0.3340254954
 40
0.3652027141
 40
0.3965345493
 40
0.4280137349
 40
0.4596298917
 40
0.4913697854
 40
0.5232176332
 40
0.5551554502
 40
0.5871634342
 40
0.6192203768
 40
0.6513040925
 40
0.6833918636
 40
0.7154608917
 40
0.7474887511
 40
0.7794538353
 40
0.8113357951
 40
0.8431159563
 40
0.8747777105
 40
0.9063068747
 40
0.9376920817
 40
0.9689246483
 40
1.0
 40
1.0
 40
1.0
 40
1.0
 10
11.5014045809
 20
8.282301213
 30
0.0
 10
11.493632327
 20
8.2747937815
 30
0.0
 10
11.4774766466
 20
8.2603848221
 30
0.0
 10
11.4515927457
 20
8.240755154
 30
0.0
 10
11.4241907588
 20
8.2232074987
 30
0.0
 10
11.3954237934
 20
8.2078402937
 30
0.0
 10
11.3654499913
 20
8.1947375286
 30
0.0
 10
11.3344347888
 20
8.1839712056
 30
0.0
 10
11.3025491021
 20
8.1756002155
 30
0.0
 10
11.2699685936
 20
8.1696702671
 30
0.0
 10
11.2368726409
 20
8.1662136075
 30
0.0
 10
11.2034433709
 20
8.1652487926
 30
0.0
 10
11.169864635
 20
8.1667806806
 30
0.0
 10
11.1363210107
 20
8.170800441
 30
0.0
 10
11.1029968059
 20
8.1772856238
 30
0.0
 10
11.0700750411
 20
8.1862002095
 30
0.0
 10
11.0377364637
 20
8.1974948959
 30
0.0
 10
11.0061585776
 20
8.2111073853
 30
0.0
 10
10.9755146921
 20
8.2269627296
 30
0.0
 10
10.9459729432
 20
8.2449736651
 30
0.0
 10
10.9176954119
 20
8.2650411641
 30
0.0
 10
10.8908372549
 20
8.2870549799
 30
0.0
 10
10.8655458721
 20
8.3108942436
 30
0.0
 10
10.8419600451
 20
8.3364280589
 30
0.0
 10
10.8202092334
 20
8.3635162768
 30
0.0
 10
10.800412879
 20
8.3920102565
 30
0.0
 10
10.7826797631
 20
8.4217536654
 30
0.0
 10
10.7671073366
 20
8.4525832884
 30
0.0
 10
10.7537812546
 20
8.4843299402
 30
0.0
 10
10.7427749183
 20
8.516819453
 30
0.0
 10
10.734149048
 20
8.5498733434
 30
0.0
 10
10.7279513654
 20
8.5833107172
 30
0.0
 10
10.7242161212
 20
8.6169455941
 30
0.0
 10
10.723379517
 20
8.6394406399
 30
0.0
 10
10.723379517
 20
8.650655479
 30
0.0
  0
SPLINE
  5
367
100
AcDbEntity
  8
0
100
AcDbSpline
 62
7
  6
CONTINUOUS
 70
0
 71
3
 72
41
 73
37
 74
0
 42
0.0000001
 43
0.0000001
 44
0.0000000001
 40
0.0
 40
0.0
 40
0.0
 40
0.0
 40
0.0149634506
 40
0.0299339677
 40
0.0449144042
 40
0.0599075575
 40
0.0899372235
 40
0.1200492116
 40
0.1502622547
 40
0.1805927873
 40
0.2110546007
 40
0.2416585661
 40
0.2724124378
 40
0.3033207313
 40
0.3343846737
 40
0.3656022241
 40
0.3969681674
 40
0.4284742657
 40
0.4601094623
 40
0.491860136
 40
0.5237104002
 40
0.5556424325
 40
0.587636833
 40
0.6196730071
 40
0.6517295646
 40
0.6837847274
 40
0.7158167438
 40
0.7478043027
 40
0.7797269401
 40
0.8115654369
 40
0.8433021989
 40
0.8749216099
 40
0.9064103582
 40
0.93775778
 40
0.9689557564
 40
1.0
 40
1.0
 40
1.0
 40
1.0
 10
11.5091533979
 20
8.2240133339
 30
0.0
 10
11.5047425612
 20
8.2202024283
 30
0.0
 10
11.4957696518
 20
8.2127494902
 30
0.0
 10
11.4818829986
 20
8.2020987011
 30
0.0
 10
11.4675838244
 20
8.1919875339
 30
0.0
 10
11.4479863422
 20
8.179238578
 30
0.0
 10
11.4225398109
 20
8.1647119888
 30
0.0
 10
11.3906897643
 20
8.1496499461
 30
0.0
 10
11.3576716537
 20
8.1370238109
 30
0.0
 10
11.3236607689
 20
8.1269006075
 30
0.0
 10
11.2888360964
 20
8.1193331198
 30
0.0
 10
11.2533812316
 20
8.1143608226
 30
0.0
 10
11.217482875
 20
8.1120094379
 30
0.0
 10
11.1813299888
 20
8.1122909374
 30
0.0
 10
11.1451127791
 20
8.1152034435
 30
0.0
 10
11.1090217004
 20
8.1207311953
 30
0.0
 10
11.0732464635
 20
8.1288447494
 30
0.0
 10
11.0379750651
 20
8.1395011475
 30
0.0
 10
11.0033927969
 20
8.1526440802
 30
0.0
 10
10.9696812756
 20
8.1682041949
 30
0.0
 10
10.9370175271
 20
8.1860995292
 30
0.0
 10
10.9055730791
 20
8.206235934
 30
0.0
 10
10.8755130198
 20
8.2285074814
 30
0.0
 10
10.8469951706
 20
8.2527970838
 30
0.0
 10
10.8201692902
 20
8.2789771245
 30
0.0
 10
10.7951762903
 20
8.3069101016
 30
0.0
 10
10.7721474363
 20
8.3364492877
 30
0.0
 10
10.7512037346
 20
8.3674395664
 30
0.0
 10
10.7324553148
 20
8.399718231
 30
0.0
 10
10.716000809
 20
8.4331158009
 30
0.0
 10
10.701926808
 20
8.4674568758
 30
0.0
 10
10.6903074843
 20
8.5025611634
 30
0.0
 10
10.6812041852
 20
8.5382441199
 30
0.0
 10
10.6746651069
 20
8.5743188768
 30
0.0
 10
10.6707248199
 20
8.6105934258
 30
0.0
 10
10.6698424768
 20
8.6348491853
 30
0.0
 10
10.6698424768
 20
8.6469426661
 30
0.0
  0
SPLINE
  5
368
100
AcDbEntity
  8
0
100
AcDbSpline
 62
7
  6
CONTINUOUS
 70
0
 71
3
 72
44
 73
40
 74
0
 42
0.0000001
 43
0.0000001
 44
0.0000000001
 40
0.0
 40
0.0
 40
0.0
 40
0.0
 40
0.0149722234
 40
0.0299475064
 40
0.0449288883
 40
0.0599193732
 40
0.0749219094
 40
0.0899393698
 40
0.1049745397
 40
0.1200300962
 40
0.1351085921
 40
0.1502124456
 40
0.1804994109
 40
0.2109128653
 40
0.2414659471
 40
0.2721685722
 40
0.303027252
 40
0.3340449956
 40
0.3652213014
 40
0.3965522194
 40
0.4280304831
 40
0.4596457138
 40
0.4913846787
 40
0.5232315941
 40
0.5551684754
 40
0.5871755222
 40
0.6192315264
 40
0.6513143028
 40
0.6834011342
 40
0.7154692231
 40
0.7474961446
 40
0.7794602934
 40
0.8113413197
 40
0.8431205497
 40
0.8747813764
 40
0.9063096221
 40
0.9376938967
 40
0.9689255651
 40
1.0
 40
1.0
 40
1.0
 40
1.0
 10
11.4919110905
 20
8.206395465
 30
0.0
 10
11.487626399
 20
8.2022567742
 30
0.0
 10
11.478890611
 20
8.1941479602
 30
0.0
 10
11.465312458
 20
8.1825138023
 30
0.0
 10
11.4512771202
 20
8.1714232998
 30
0.0
 10
11.4368041981
 20
8.1608919441
 30
0.0
 10
11.4219134896
 20
8.150934223
 30
0.0
 10
11.4066255541
 20
8.1415638014
 30
0.0
 10
11.3909614053
 20
8.1327935457
 30
0.0
 10
11.3749426577
 20
8.124635612
 30
0.0
 10
11.3585910579
 20
8.1171010484
 30
0.0
 10
11.3363580874
 20
8.1078926862
 30
0.0
 10
11.307833823
 20
8.0979907736
 30
0.0
 10
11.2726821304
 20
8.0887625312
 30
0.0
 10
11.2367633725
 20
8.0822249309
 30
0.0
 10
11.2002766481
 20
8.0784141332
 30
0.0
 10
11.1634223773
 20
8.077350468
 30
0.0
 10
11.1264033484
 20
8.0790393063
 30
0.0
 10
11.0894230226
 20
8.0834709105
 30
0.0
 10
11.0526845999
 20
8.0906205367
 30
0.0
 10
11.0163898456
 20
8.1004484546
 30
0.0
 10
10.9807380263
 20
8.1129003231
 30
0.0
 10
10.945924849
 20
8.1279074994
 30
0.0
 10
10.9121413552
 20
8.1453872956
 30
0.0
 10
10.879572904
 20
8.1652435136
 30
0.0
 10
10.8483982093
 20
8.1873670245
 30
0.0
 10
10.818788331
 20
8.2116362838
 30
0.0
 10
10.7909057158
 20
8.2379179759
 30
0.0
 10
10.7649033917
 20
8.2660678321
 30
0.0
 10
10.740924128
 20
8.2959313805
 30
0.0
 10
10.7190995614
 20
8.3273447106
 30
0.0
 10
10.6995495773
 20
8.360135453
 30
0.0
 10
10.6823816817
 20
8.3941237144
 30
0.0
 10
10.6676903006
 20
8.429122966
 30
0.0
 10
10.6555563138
 20
8.464941181
 30
0.0
 10
10.6460466674
 20
8.5013815884
 30
0.0
 10
10.6392140057
 20
8.5382447804
 30
0.0
 10
10.6350960783
 20
8.575325706
 30
0.0
 10
10.6341737564
 20
8.6001254771
 30
0.0
 10
10.6341737564
 20
8.6124893258
 30
0.0
  0
SPLINE
  5
369
100
AcDbEntity
  8
0
100
AcDbSpline
 62
7
  6
CONTINUOUS
 70
0
 71
3
 72
39
 73
35
 74
0
 42
0.0000001
 43
0.0000001
 44
0.0000000001
 40
0.0
 40
0.0
 40
0.0
 40
0.0
 40
0.0299352965
 40
0.0599016299
 40
0.0899220623
 40
0.1200183695
 40
0.1502105357
 40
0.1805162983
 40
0.2109507622
 40
0.2415260872
 40
0.2722512506
 40
0.303131891
 40
0.3341702377
 40
0.3653651132
 40
0.3967120054
 40
0.4282032141
 40
0.459828055
 40
0.4915731142
 40
0.5234225501
 40
0.5553584372
 40
0.5873611385
 40
0.6194097018
 40
0.6514822778
 40
0.6835565491
 40
0.7156101653
 40
0.7476211786
 40
0.7795684744
 40
0.8114321892
 40
0.8431941149
 40
0.8748380717
 40
0.906350256
 40
0.9377195916
 40
0.968937666
 40
1.0
 40
1.0
 40
1.0
 40
1.0
 10
11.4954158772
 20
8.1772921176
 30
0.0
 10
11.4863386819
 20
8.1689313143
 30
0.0
 10
11.4675071687
 20
8.1529097073
 30
0.0
 10
11.4374422107
 20
8.131160542
 30
0.0
 10
11.4057069172
 20
8.1117984819
 30
0.0
 10
11.3724753241
 20
8.0949301056
 30
0.0
 10
11.3379266926
 20
8.0806458629
 30
0.0
 10
11.3022481483
 20
8.0690227465
 30
0.0
 10
11.2656326209
 20
8.0601231185
 30
0.0
 10
11.2282780496
 20
8.0539946671
 30
0.0
 10
11.1903862573
 20
8.0506700269
 30
0.0
 10
11.1521618617
 20
8.0501666261
 30
0.0
 10
11.1138111576
 20
8.0524867189
 30
0.0
 10
11.0755410304
 20
8.0576173805
 30
0.0
 10
11.0375578329
 20
8.0655304699
 30
0.0
 10
11.0000662891
 20
8.0761829161
 30
0.0
 10
10.963268426
 20
8.0895169848
 30
0.0
 10
10.9273624795
 20
8.1054605118
 30
0.0
 10
10.8925418238
 20
8.1239272896
 30
0.0
 10
10.8589939846
 20
8.1448176243
 30
0.0
 10
10.8268996482
 20
8.1680188477
 30
0.0
 10
10.7964316274
 20
8.1934058231
 30
0.0
 10
10.7677540011
 20
8.2208417145
 30
0.0
 10
10.7410212671
 20
8.2501787276
 30
0.0
 10
10.7163774593
 20
8.2812588321
 30
0.0
 10
10.6939553638
 20
8.31391461
 30
0.0
 10
10.6738758857
 20
8.3479702043
 30
0.0
 10
10.6562473959
 20
8.3832422383
 30
0.0
 10
10.6411650396
 20
8.419540714
 30
0.0
 10
10.6287103275
 20
8.4566701721
 30
0.0
 10
10.6189507047
 20
8.4944304168
 30
0.0
 10
10.6119391845
 20
8.5326186383
 30
0.0
 10
10.6077137857
 20
8.5710263571
 30
0.0
 10
10.6067674808
 20
8.5967113417
 30
0.0
 10
10.6067674808
 20
8.6095168949
 30
0.0
  0
SPLINE
  5
36A
100
AcDbEntity
  8
0
100
AcDbSpline
 62
7
  6
CONTINUOUS
 70
0
 71
3
 72
46
 73
42
 74
0
 42
0.0000001
 43
0.0000001
 44
0.0000000001
 40
0.0
 40
0.0
 40
0.0
 40
0.0
 40
0.0149720525
 40
0.0299471649
 40
0.0449283772
 40
0.0599186917
 40
0.0749210573
 40
0.0899383484
 40
0.1049733476
 40
0.1200287333
 40
0.1351070597
 40
0.1502107421
 40
0.1653420474
 40
0.1805030776
 40
0.1956957572
 40
0.2109218287
 40
0.2414745667
 40
0.2721768461
 40
0.3030351766
 40
0.3340525707
 40
0.3652285255
 40
0.3965590884
 40
0.4280369959
 40
0.4596518697
 40
0.4913904744
 40
0.523237028
 40
0.5551735471
 40
0.5871802301
 40
0.6192358692
 40
0.6513182802
 40
0.6834047461
 40
0.7154724694
 40
0.7474990252
 40
0.7794628091
 40
0.811343472
 40
0.843122339
 40
0.8747828041
 40
0.9063106918
 40
0.9376946023
 40
0.9689259241
 40
1.0
 40
1.0
 40
1.0
 40
1.0
 10
11.4955063674
 20
8.1771955153
 30
0.0
 10
11.4910267296
 20
8.1728685283
 30
0.0
 10
11.4818934337
 20
8.1643908392
 30
0.0
 10
11.4676975094
 20
8.1522273563
 30
0.0
 10
11.4530235607
 20
8.1406323094
 30
0.0
 10
11.4378921134
 20
8.1296218627
 30
0.0
 10
11.4223239152
 20
8.1192110905
 30
0.0
 10
11.4063403776
 20
8.1094143903
 30
0.0
 10
11.3899635319
 20
8.1002451727
 30
0.0
 10
11.3732159141
 20
8.091716051
 30
0.0
 10
11.3561205441
 20
8.0838388095
 30
0.0
 10
11.3387009872
 20
8.0766242122
 30
0.0
 10
11.3209811823
 20
8.0700821807
 30
0.0
 10
11.302985589
 20
8.0642217716
 30
0.0
 10
11.2847386409
 20
8.0590509183
 30
0.0
 10
11.2600831159
 20
8.0530791933
 30
0.0
 10
11.2287490828
 20
8.0473759519
 30
0.0
 10
11.1906031334
 20
8.0433920684
 30
0.0
 10
11.1520718537
 20
8.0422799753
 30
0.0
 10
11.113368611
 20
8.0440457492
 30
0.0
 10
11.0747057642
 20
8.0486790623
 30
0.0
 10
11.0362958399
 20
8.0561539958
 30
0.0
 10
10.9983497744
 20
8.0664291151
 30
0.0
 10
10.9610759128
 20
8.079447593
 30
0.0
 10
10.924678829
 20
8.0951375752
 30
0.0
 10
10.8893582834
 20
8.1134126889
 30
0.0
 10
10.8553080863
 20
8.1341723784
 30
0.0
 10
10.8227150368
 20
8.1573024754
 30
0.0
 10
10.7917579901
 20
8.1826759354
 30
0.0
 10
10.762606825
 20
8.2101534211
 30
0.0
 10
10.735421486
 20
8.2395840473
 30
0.0
 10
10.7103512254
 20
8.2708063116
 30
0.0
 10
10.6875337291
 20
8.3036488928
 30
0.0
 10
10.6670942978
 20
8.3379315466
 30
0.0
 10
10.6491453034
 20
8.3734661865
 30
0.0
 10
10.633785523
 20
8.4100578251
 30
0.0
 10
10.6210994907
 20
8.4475056853
 30
0.0
 10
10.6111571813
 20
8.4856040375
 30
0.0
 10
10.6040136554
 20
8.5241444152
 30
0.0
 10
10.5997083835
 20
8.56291243
 30
0.0
 10
10.5987440971
 20
8.5888405301
 30
0.0
 10
10.5987440971
 20
8.6017669009
 30
0.0
  0
SPLINE
  5
36B
100
AcDbEntity
  8
0
100
AcDbSpline
 62
7
  6
CONTINUOUS
 70
0
 71
3
 72
27
 73
23
 74
0
 42
0.0000001
 43
0.0000001
 44
0.0000000001
 40
0.0
 40
0.0
 40
0.0
 40
0.0
 40
0.0307111104
 40
0.0615157722
 40
0.0924115594
 40
0.1233953087
 40
0.1855956953
 40
0.2480934873
 40
0.3108408578
 40
0.3737823438
 40
0.436856599
 40
0.4999982802
 40
0.5631400307
 40
0.6262144858
 40
0.6891563001
 40
0.7519041172
 40
0.8144024547
 40
0.8766034844
 40
0.907587552
 40
0.9384837775
 40
0.9692886998
 40
1.0
 40
1.0
 40
1.0
 40
1.0
 10
10.4564904736
 20
7.7063386357
 30
0.0
 10
10.4514303092
 20
7.7068900936
 30
0.0
 10
10.4413180312
 20
7.7082236378
 30
0.0
 10
10.4262331775
 20
7.7109047249
 30
0.0
 10
10.4112379281
 20
7.7142644605
 30
0.0
 10
10.391383416
 20
7.7196453849
 30
0.0
 10
10.3669447693
 20
7.7280366563
 30
0.0
 10
10.3385156259
 20
7.7406596858
 30
0.0
 10
10.3111724317
 20
7.7557465191
 30
0.0
 10
10.2851425666
 20
7.7731718596
 30
0.0
 10
10.2606404594
 20
7.7927915379
 30
0.0
 10
10.2378685495
 20
7.8144433537
 30
0.0
 10
10.2170148816
 20
7.8379484063
 30
0.0
 10
10.1982517249
 20
7.863112573
 30
0.0
 10
10.1817343108
 20
7.8897280084
 30
0.0
 10
10.1675991555
 20
7.9175753398
 30
0.0
 10
10.1559638688
 20
7.946423112
 30
0.0
 10
10.1484200869
 20
7.9711367728
 30
0.0
 10
10.1437268799
 20
7.9911652374
 30
0.0
 10
10.1408861288
 20
8.0062675751
 30
0.0
 10
10.1387266247
 20
8.0214360323
 30
0.0
 10
10.1377425016
 20
8.0315883488
 30
0.0
 10
10.1373658059
 20
8.0366645473
 30
0.0
  0
SPLINE
  5
36C
100
AcDbEntity
  8
0
100
AcDbSpline
 62
7
  6
CONTINUOUS
 70
0
 71
3
 72
39
 73
35
 74
0
 42
0.0000001
 43
0.0000001
 44
0.0000000001
 40
0.0
 40
0.0
 40
0.0
 40
0.0
 40
0.0079091665
 40
0.0161411712
 40
0.0247156027
 40
0.0336487877
 40
0.0429540494
 40
0.0526417946
 40
0.0627197671
 40
0.0731931951
 40
0.0840648932
 40
0.0953355626
 40
0.1070036619
 40
0.1190659294
 40
0.14434974
 40
0.1711268199
 40
0.1993135638
 40
0.2288082479
 40
0.2594956884
 40
0.2912519524
 40
0.3239489693
 40
0.3574586825
 40
0.3916567161
 40
0.4264252216
 40
0.4616549727
 40
0.4972466841
 40
0.5331116003
 40
0.5691715991
 40
0.6416102428
 40
0.714133101
 40
0.7864292628
 40
0.8582768911
 40
0.9295115248
 40
1.0
 40
1.0
 40
1.0
 40
1.0
 10
11.1414029453
 20
8.4851853907
 30
0.0
 10
11.1414028808
 20
8.4864088261
 30
0.0
 10
11.1413305358
 20
8.4889060531
 30
0.0
 10
11.1410221877
 20
8.4927182027
 30
0.0
 10
11.1405146266
 20
8.4966686404
 30
0.0
 10
11.1398112834
 20
8.5007572757
 30
0.0
 10
11.1389158129
 20
8.5049842037
 30
0.0
 10
11.1378324359
 20
8.5093494377
 30
0.0
 10
11.1365658339
 20
8.5138529411
 30
0.0
 10
11.1351210787
 20
8.5184945418
 30
0.0
 10
11.1335038944
 20
8.5232740042
 30
0.0
 10
11.1317202445
 20
8.5281908363
 30
0.0
 10
11.1297768805
 20
8.5332445125
 30
0.0
 10
11.1269370874
 20
8.5402747062
 30
0.0
 10
11.1230193516
 20
8.5493884596
 30
0.0
 10
11.1178761785
 20
8.5606866281
 30
0.0
 10
11.1122898249
 20
8.5724968987
 30
0.0
 10
11.1063344606
 20
8.5848008983
 30
0.0
 10
11.1000867717
 20
8.5975766246
 30
0.0
 10
11.0936244799
 20
8.6107988221
 30
0.0
 10
11.0870246392
 20
8.6244396576
 30
0.0
 10
11.0803621451
 20
8.6384694485
 30
0.0
 10
11.0737084398
 20
8.6528573957
 30
0.0
 10
11.0671305274
 20
8.6675722704
 30
0.0
 10
11.0606903092
 20
8.6825830151
 30
0.0
 10
11.0544442306
 20
8.6978591401
 30
0.0
 10
11.0484431727
 20
8.7133712742
 30
0.0
 10
11.0408177277
 20
8.7343613415
 30
0.0
 10
11.0321351209
 20
8.7609942736
 30
0.0
 10
11.0233096457
 20
8.7934367618
 30
0.0
 10
11.0162586458
 20
8.8262195663
 30
0.0
 10
11.011124922
 20
8.8591573185
 30
0.0
 10
11.0080033328
 20
8.8920655219
 30
0.0
 10
11.0072958358
 20
8.9139940372
 30
0.0
 10
11.0072958358
 20
8.9248976001
 30
0.0
  0
SPLINE
  5
36D
100
AcDbEntity
  8
0
100
AcDbSpline
 62
7
  6
CONTINUOUS
 70
0
 71
3
 72
23
 73
19
 74
0
 42
0.0000001
 43
0.0000001
 44
0.0000000001
 40
0.0
 40
0.0
 40
0.0
 40
0.0
 40
0.0617101465
 40
0.1234413984
 40
0.1852146462
 40
0.2470503535
 40
0.3089683476
 40
0.3709876198
 40
0.4331261355
 40
0.4954006635
 40
0.5578266123
 40
0.620417904
 40
0.6831868136
 40
0.7461438604
 40
0.8092980134
 40
0.8726552092
 40
0.9362227185
 40
1.0
 40
1.0
 40
1.0
 40
1.0
 10
9.7038730625
 20
7.9500557732
 30
0.0
 10
9.6988425222
 20
7.9451966374
 30
0.0
 10
9.6890279574
 20
7.9352158667
 30
0.0
 10
9.6750929195
 20
7.9195046397
 30
0.0
 10
9.6619740076
 20
7.9030868667
 30
0.0
 10
9.6497019953
 20
7.8860009291
 30
0.0
 10
9.638305031
 20
7.8682861089
 30
0.0
 10
9.6278094295
 20
7.8499833038
 30
0.0
 10
9.6182393578
 20
7.8311347306
 30
0.0
 10
9.6096168416
 20
7.8117838798
 30
0.0
 10
9.6019617199
 20
7.7919753853
 30
0.0
 10
9.5952916051
 20
7.771754928
 30
0.0
 10
9.5896218454
 20
7.7511691381
 30
0.0
 10
9.5849654505
 20
7.7302654467
 30
0.0
 10
9.5813331593
 20
7.7090921628
 30
0.0
 10
9.578733133
 20
7.687697744
 30
0.0
 10
9.5771715469
 20
7.6661323535
 30
0.0
 10
9.5768255734
 20
7.6516968943
 30
0.0
 10
9.5768255734
 20
7.644468502
 30
0.0
  0
SPLINE
  5
36E
100
AcDbEntity
  8
0
100
AcDbSpline
 62
7
  6
CONTINUOUS
 70
0
 71
3
 72
23
 73
19
 74
0
 42
0.0000001
 43
0.0000001
 44
0.0000000001
 40
0.0
 40
0.0
 40
0.0
 40
0.0
 40
0.0616766115
 40
0.1233923867
 40
0.1851651512
 40
0.2470122229
 40
0.3089502651
 40
0.3709951414
 40
0.4331617789
 40
0.4954640402
 40
0.557914607
 40
0.6205249071
 40
0.6833049635
 40
0.7462634007
 40
0.809407508
 40
0.8727419694
 40
0.9362732619
 40
1.0
 40
1.0
 40
1.0
 40
1.0
 10
9.646085396
 20
7.9600320149
 30
0.0
 10
9.6411892752
 20
7.954753824
 30
0.0
 10
9.6316458823
 20
7.9439571134
 30
0.0
 10
9.618119376
 20
7.9270888547
 30
0.0
 10
9.6054038317
 20
7.9095759579
 30
0.0
 10
9.5935252152
 20
7.8914541061
 30
0.0
 10
9.5825072425
 20
7.8727595928
 30
0.0
 10
9.5723720581
 20
7.8535300161
 30
0.0
 10
9.5631400015
 20
7.8338039967
 30
0.0
 10
9.5548296022
 20
7.8136211667
 30
0.0
 10
9.5474574962
 20
7.7930220816
 30
0.0
 10
9.5410384552
 20
7.7720481205
 30
0.0
 10
9.5355853338
 20
7.750741412
 30
0.0
 10
9.5311090551
 20
7.7291447113
 30
0.0
 10
9.5276186208
 20
7.7073015036
 30
0.0
 10
9.5251208355
 20
7.6852553009
 30
0.0
 10
9.5236209059
 20
7.6630511777
 30
0.0
 10
9.5232885332
 20
7.6481943922
 30
0.0
 10
9.5232885332
 20
7.6407556891
 30
0.0
  0
SPLINE
  5
36F
100
AcDbEntity
  8
0
100
AcDbSpline
 62
7
  6
CONTINUOUS
 70
0
 71
3
 72
23
 73
19
 74
0
 42
0.0000001
 43
0.0000001
 44
0.0000000001
 40
0.0
 40
0.0
 40
0.0
 40
0.0
 40
0.0617101436
 40
0.1234413945
 40
0.1852146442
 40
0.2470503545
 40
0.3089683499
 40
0.3709876203
 40
0.4331261332
 40
0.4954006601
 40
0.5578266118
 40
0.6204179016
 40
0.6831868196
 40
0.7461438598
 40
0.8092979876
 40
0.872655304
 40
0.9362225276
 40
1.0
 40
1.0
 40
1.0
 40
1.0
 10
9.6276839163
 20
7.9431984449
 30
0.0
 10
9.622137968
 20
7.9378414746
 30
0.0
 10
9.6113178633
 20
7.9268381204
 30
0.0
 10
9.5959550988
 20
7.9095172215
 30
0.0
 10
9.5814920851
 20
7.8914173768
 30
0.0
 10
9.5679627527
 20
7.872580901
 30
0.0
 10
9.5553981332
 20
7.853051104
 30
0.0
 10
9.5438272139
 20
7.8328730894
 30
0.0
 10
9.5332766342
 20
7.8120933983
 30
0.0
 10
9.5237706907
 20
7.7907599676
 30
0.0
 10
9.515331263
 20
7.7689220018
 30
0.0
 10
9.5079777704
 20
7.7466298612
 30
0.0
 10
9.5017271306
 20
7.7239349581
 30
0.0
 10
9.4965936629
 20
7.7008895905
 30
0.0
 10
9.4925892137
 20
7.677546996
 30
0.0
 10
9.4897228164
 20
7.653960642
 30
0.0
 10
9.4880012231
 20
7.6301857749
 30
0.0
 10
9.4876198128
 20
7.6142713473
 30
0.0
 10
9.4876198128
 20
7.6063023488
 30
0.0
  0
SPLINE
  5
370
100
AcDbEntity
  8
0
100
AcDbSpline
 62
7
  6
CONTINUOUS
 70
0
 71
3
 72
23
 73
19
 74
0
 42
0.0000001
 43
0.0000001
 44
0.0000000001
 40
0.0
 40
0.0
 40
0.0
 40
0.0
 40
0.0616937245
 40
0.1234167449
 40
0.1851886145
 40
0.2470284172
 40
0.3089545848
 40
0.3709847224
 40
0.4331354437
 40
0.4954222246
 40
0.5578592589
 40
0.6204593496
 40
0.6832337752
 40
0.7461921795
 40
0.8093427947
 40
0.8726910654
 40
0.9362436028
 40
1.0
 40
1.0
 40
1.0
 40
1.0
 10
9.5987209479
 20
7.9477111488
 30
0.0
 10
9.5932197651
 20
7.9421391602
 30
0.0
 10
9.5824914419
 20
7.9307154399
 30
0.0
 10
9.567270709
 20
7.9127934661
 30
0.0
 10
9.5529507307
 20
7.8941198025
 30
0.0
 10
9.5395631804
 20
7.874735634
 30
0.0
 10
9.5271370219
 20
7.8546829863
 30
0.0
 10
9.5156993128
 20
7.8340055238
 30
0.0
 10
9.5052748808
 20
7.812748232
 30
0.0
 10
9.4958863588
 20
7.7909573646
 30
0.0
 10
9.4875541223
 20
7.7686803235
 30
0.0
 10
9.4802962524
 20
7.74596556
 30
0.0
 10
9.4741285035
 20
7.7228624778
 30
0.0
 10
9.4690642165
 20
7.6994212833
 30
0.0
 10
9.4651144106
 20
7.675693066
 30
0.0
 10
9.4622874646
 20
7.6517290525
 30
0.0
 10
9.460589702
 20
7.6275822273
 30
0.0
 10
9.4602135372
 20
7.6114217838
 30
0.0
 10
9.4602135372
 20
7.6033299178
 30
0.0
  0
SPLINE
  5
371
100
AcDbEntity
  8
0
100
AcDbSpline
 62
7
  6
CONTINUOUS
 70
0
 71
3
 72
13
 73
9
 74
0
 42
0.0000001
 43
0.0000001
 44
0.0000000001
 40
0.0
 40
0.0
 40
0.0
 40
0.0
 40
0.1289245963
 40
0.2569275592
 40
0.3839181311
 40
0.5098128183
 40
0.7578394822
 40
1.0
 40
1.0
 40
1.0
 40
1.0
 10
11.0072958358
 20
8.9248976001
 30
0.0
 10
11.0072958358
 20
8.9306242208
 30
0.0
 10
11.0074891884
 20
8.9420375243
 30
0.0
 10
11.0083644562
 20
8.9590712704
 30
0.0
 10
11.0098199699
 20
8.9759306332
 30
0.0
 10
11.0125109989
 20
8.9980208672
 30
0.0
 10
11.0172536783
 20
9.0249964498
 30
0.0
 10
11.022557367
 20
9.046136583
 30
0.0
 10
11.0255575527
 20
9.0564660802
 30
0.0
  0
SPLINE
  5
372
100
AcDbEntity
  8
0
100
AcDbSpline
 62
7
  6
CONTINUOUS
 70
0
 71
3
 72
37
 73
33
 74
0
 42
0.0000001
 43
0.0000001
 44
0.0000000001
 40
0.0
 40
0.0
 40
0.0
 40
0.0
 40
0.0306209688
 40
0.0613471457
 40
0.0921768931
 40
0.1231075615
 40
0.1541355244
 40
0.1852562254
 40
0.2164642286
 40
0.2477532774
 40
0.2791163574
 40
0.3105457672
 40
0.3420331943
 40
0.3735697966
 40
0.4051462848
 40
0.4367530071
 40
0.5000000814
 40
0.5632471446
 40
0.5948538556
 40
0.6264303301
 40
0.6579669148
 40
0.6894543185
 40
0.7208836994
 40
0.752246748
 40
0.7835357634
 40
0.8147437326
 40
0.8458643994
 40
0.8768922984
 40
0.9078229995
 40
0.9386524956
 40
0.969378975
 40
1.0
 40
1.0
 40
1.0
 40
1.0
 10
10.4797362596
 20
7.6111400226
 30
0.0
 10
10.4726764642
 20
7.6114102498
 30
0.0
 10
10.4585436708
 20
7.6123054761
 30
0.0
 10
10.4374034135
 20
7.614701108
 30
0.0
 10
10.4163357117
 20
7.6181459223
 30
0.0
 10
10.3953937852
 20
7.6226312643
 30
0.0
 10
10.3746296443
 20
7.6281458996
 30
0.0
 10
10.3540950896
 20
7.6346760319
 30
0.0
 10
10.3338412809
 20
7.6422053452
 30
0.0
 10
10.3139186944
 20
7.6507150405
 30
0.0
 10
10.2943769751
 20
7.6601838899
 30
0.0
 10
10.2752648255
 20
7.6705882609
 30
0.0
 10
10.2566298319
 20
7.6819022171
 30
0.0
 10
10.23851853
 20
7.6940974345
 30
0.0
 10
10.2209756432
 20
7.7071439025
 30
0.0
 10
10.1984003296
 20
7.7256312937
 30
0.0
 10
10.1718224504
 20
7.7506979683
 30
0.0
 10
10.1476924393
 20
7.7781290476
 30
0.0
 10
10.1299989389
 20
7.8013318051
 30
0.0
 10
10.1175686005
 20
7.8193165062
 30
0.0
 10
10.1060087283
 20
7.8378397726
 30
0.0
 10
10.0953477574
 20
7.8568558603
 30
0.0
 10
10.0856123704
 20
7.8763172732
 30
0.0
 10
10.0768268241
 20
7.8961755493
 30
0.0
 10
10.0690130506
 20
7.9163812
 30
0.0
 10
10.0621905609
 20
7.9368838818
 30
0.0
 10
10.0563764141
 20
7.957632495
 30
0.0
 10
10.0515851017
 20
7.9785753565
 30
0.0
 10
10.0478286741
 20
7.9996601617
 30
0.0
 10
10.0451164098
 20
8.0208346567
 30
0.0
 10
10.0434552874
 20
8.0420452981
 30
0.0
 10
10.0430506639
 20
8.056200717
 30
0.0
 10
10.043025395
 20
8.0632656501
 30
0.0
  0
SPLINE
  5
373
100
AcDbEntity
  8
0
100
AcDbSpline
 62
7
  6
CONTINUOUS
 70
0
 71
3
 72
40
 73
36
 74
0
 42
0.0000001
 43
0.0000001
 44
0.0000000001
 40
0.0
 40
0.0
 40
0.0
 40
0.0
 40
0.0303421722
 40
0.0455576284
 40
0.0608021289
 40
0.0913761882
 40
0.1220682359
 40
0.152877691
 40
0.1838025398
 40
0.2148393761
 40
0.2459834567
 40
0.2772287715
 40
0.3085681262
 40
0.3399932364
 40
0.371494832
 40
0.4030627701
 40
0.4346861561
 40
0.4663534703
 40
0.4980527002
 40
0.5297714763
 40
0.5614972111
 40
0.5932172396
 40
0.6249189604
 40
0.6565899764
 40
0.6882182338
 40
0.7197921581
 40
0.7513007871
 40
0.7827338986
 40
0.814082129
 40
0.8453370974
 40
0.8764914792
 40
0.9075391954
 40
0.9384752351
 40
0.969296367
 40
1.0
 40
1.0
 40
1.0
 40
1.0
 10
10.4751303237
 20
7.5045692473
 30
0.0
 10
10.4669152618
 20
7.5034153503
 30
0.0
 10
10.4545275886
 20
7.5020339007
 30
0.0
 10
10.4379417071
 20
7.5008917707
 30
0.0
 10
10.4212664904
 20
7.5002136331
 30
0.0
 10
10.4003363377
 20
7.5002432626
 30
0.0
 10
10.3751907542
 20
7.5016783673
 30
0.0
 10
10.3500670135
 20
7.5045084711
 30
0.0
 10
10.325043068
 20
7.5087247683
 30
0.0
 10
10.3001959396
 20
7.5143141649
 30
0.0
 10
10.2756022575
 20
7.5212593465
 30
0.0
 10
10.2513378152
 20
7.5295388261
 30
0.0
 10
10.2274773952
 20
7.5391270133
 30
0.0
 10
10.2040945251
 20
7.5499942933
 30
0.0
 10
10.1812612571
 20
7.5621071183
 30
0.0
 10
10.1590479463
 20
7.5754281117
 30
0.0
 10
10.1375230361
 20
7.5899161825
 30
0.0
 10
10.1167528484
 20
7.6055266518
 30
0.0
 10
10.0968013813
 20
7.6222113902
 30
0.0
 10
10.0777301126
 20
7.6399189653
 30
0.0
 10
10.0595978109
 20
7.6585947984
 30
0.0
 10
10.0424603562
 20
7.6781813332
 30
0.0
 10
10.0263705686
 20
7.6986182119
 30
0.0
 10
10.0113780467
 20
7.7198424603
 30
0.0
 10
9.9975290151
 20
7.7417886804
 30
0.0
 10
9.9848661831
 20
7.7643892511
 30
0.0
 10
9.9734286127
 20
7.7875745345
 30
0.0
 10
9.9632516005
 20
7.8112730889
 30
0.0
 10
9.9543665633
 20
7.83541189
 30
0.0
 10
9.9468009563
 20
7.8599165427
 30
0.0
 10
9.9405781516
 20
7.884711552
 30
0.0
 10
9.9357174453
 20
7.9097203962
 30
0.0
 10
9.9322338423
 20
7.9348663088
 30
0.0
 10
9.9301382586
 20
7.9600706707
 30
0.0
 10
9.9296699702
 20
7.9768955075
 30
0.0
 10
9.9296699702
 20
7.9852900377
 30
0.0
  0
SPLINE
  5
374
100
AcDbEntity
  8
0
100
AcDbSpline
 62
7
  6
CONTINUOUS
 70
0
 71
3
 72
33
 73
29
 74
0
 42
0.0000001
 43
0.0000001
 44
0.0000000001
 40
0.0
 40
0.0
 40
0.0
 40
0.0
 40
0.0958348039
 40
0.1891069742
 40
0.2792500435
 40
0.36572131
 40
0.4480125246
 40
0.5256540669
 40
0.5625988158
 40
0.598226802
 40
0.632494146
 40
0.6653609288
 40
0.6967920316
 40
0.726757616
 40
0.7552336203
 40
0.7822031337
 40
0.8076567456
 40
0.8315949344
 40
0.8540288219
 40
0.8749836671
 40
0.8945009457
 40
0.9126431418
 40
0.9294980666
 40
0.945184889
 40
0.9598599849
 40
0.9737213022
 40
0.9870092614
 40
1.0
 40
1.0
 40
1.0
 40
1.0
 10
9.4618842578
 20
10.1421644889
 30
0.0
 10
9.4663641771
 20
10.1418538055
 30
0.0
 10
9.4751977617
 20
10.1411422159
 30
0.0
 10
9.4882135593
 20
10.1397838866
 30
0.0
 10
9.5007562901
 20
10.1381560957
 30
0.0
 10
9.512742355
 20
10.1362699086
 30
0.0
 10
9.5240917921
 20
10.1341381501
 30
0.0
 10
9.5330998179
 20
10.1321375185
 30
0.0
 10
9.5399253653
 20
10.130416335
 30
0.0
 10
9.5447545355
 20
10.1290947542
 30
0.0
 10
9.5493708247
 20
10.1277233621
 30
0.0
 10
9.5537665642
 20
10.1263044136
 30
0.0
 10
9.5579344587
 20
10.1248403026
 30
0.0
 10
9.5618676134
 20
10.1233334907
 30
0.0
 10
9.5655595339
 20
10.1217864617
 30
0.0
 10
9.5690041712
 20
10.1202018312
 30
0.0
 10
9.5721958852
 20
10.1185821415
 30
0.0
 10
9.5751295349
 20
10.1169300942
 30
0.0
 10
9.5778003852
 20
10.1152482314
 30
0.0
 10
9.5802042343
 20
10.1135392091
 30
0.0
 10
9.5823372603
 20
10.111805452
 30
0.0
 10
9.5841961078
 20
10.1100493494
 30
0.0
 10
9.5857776747
 20
10.1082730233
 30
0.0
 10
9.5870789835
 20
10.1064784107
 30
0.0
 10
9.5880969573
 20
10.1046674816
 30
0.0
 10
9.5888280862
 20
10.10284229
 30
0.0
 10
9.5892688517
 20
10.1010067564
 30
0.0
 10
9.5893674048
 20
10.099773249
 30
0.0
 10
9.5893674048
 20
10.0991645219
 30
0.0
  0
SPLINE
  5
375
100
AcDbEntity
  8
0
100
AcDbSpline
 62
7
  6
CONTINUOUS
 70
0
 71
3
 72
39
 73
35
 74
0
 42
0.0000001
 43
0.0000001
 44
0.0000000001
 40
0.0
 40
0.0
 40
0.0
 40
0.0
 40
0.0299424711
 40
0.0599093186
 40
0.0899243248
 40
0.1200101037
 40
0.1501875627
 40
0.180475415
 40
0.2108897594
 40
0.2414437357
 40
0.2721472604
 40
0.3030068436
 40
0.3340254954
 40
0.3652027141
 40
0.3965345493
 40
0.4280137349
 40
0.4596298917
 40
0.4913697854
 40
0.5232176332
 40
0.5551554502
 40
0.5871634342
 40
0.6192203768
 40
0.6513040925
 40
0.6833918636
 40
0.7154608917
 40
0.7474887511
 40
0.7794538353
 40
0.8113357951
 40
0.8431159563
 40
0.8747777105
 40
0.9063068747
 40
0.9376920817
 40
0.9689246483
 40
1.0
 40
1.0
 40
1.0
 40
1.0
 10
10.3548506373
 20
7.276114236
 30
0.0
 10
10.3470783834
 20
7.2686068044
 30
0.0
 10
10.330922703
 20
7.2541978451
 30
0.0
 10
10.3050388021
 20
7.234568177
 30
0.0
 10
10.2776368152
 20
7.2170205217
 30
0.0
 10
10.2488698498
 20
7.2016533166
 30
0.0
 10
10.2188960477
 20
7.1885505516
 30
0.0
 10
10.1878808452
 20
7.1777842286
 30
0.0
 10
10.1559951585
 20
7.1694132385
 30
0.0
 10
10.12341465
 20
7.1634832901
 30
0.0
 10
10.0903186973
 20
7.1600266305
 30
0.0
 10
10.0568894273
 20
7.1590618155
 30
0.0
 10
10.0233106914
 20
7.1605937036
 30
0.0
 10
9.9897670671
 20
7.1646134639
 30
0.0
 10
9.9564428623
 20
7.1710986468
 30
0.0
 10
9.9235210975
 20
7.1800132324
 30
0.0
 10
9.8911825201
 20
7.1913079189
 30
0.0
 10
9.859604634
 20
7.2049204083
 30
0.0
 10
9.8289607485
 20
7.2207757526
 30
0.0
 10
9.7994189996
 20
7.238786688
 30
0.0
 10
9.7711414683
 20
7.2588541871
 30
0.0
 10
9.7442833113
 20
7.2808680028
 30
0.0
 10
9.7189919285
 20
7.3047072666
 30
0.0
 10
9.6954061015
 20
7.3302410819
 30
0.0
 10
9.6736552898
 20
7.3573292998
 30
0.0
 10
9.6538589354
 20
7.3858232794
 30
0.0
 10
9.6361258195
 20
7.4155666883
 30
0.0
 10
9.620553393
 20
7.4463963114
 30
0.0
 10
9.607227311
 20
7.4781429632
 30
0.0
 10
9.5962209747
 20
7.5106324759
 30
0.0
 10
9.5875951044
 20
7.5436863664
 30
0.0
 10
9.5813974218
 20
7.5771237402
 30
0.0
 10
9.5776621776
 20
7.6107586171
 30
0.0
 10
9.5768255734
 20
7.6332536628
 30
0.0
 10
9.5768255734
 20
7.644468502
 30
0.0
  0
SPLINE
  5
376
100
AcDbEntity
  8
0
100
AcDbSpline
 62
7
  6
CONTINUOUS
 70
0
 71
3
 72
53
 73
49
 74
0
 42
0.0000001
 43
0.0000001
 44
0.0000000001
 40
0.0
 40
0.0
 40
0.0
 40
0.0
 40
0.0417740113
 40
0.0840369498
 40
0.1266584959
 40
0.1695064843
 40
0.2124480935
 40
0.2553500426
 40
0.298079237
 40
0.3405032536
 40
0.382490879
 40
0.4239126346
 40
0.4646413116
 40
0.5045525112
 40
0.543525196
 40
0.5814422576
 40
0.6181911067
 40
0.6536642972
 40
0.6877601986
 40
0.720383738
 40
0.7361160079
 40
0.7514479787
 40
0.7663699923
 40
0.7808730391
 40
0.7949486907
 40
0.8085892839
 40
0.8217878242
 40
0.8345382246
 40
0.8468351953
 40
0.858674535
 40
0.8700530305
 40
0.8809687964
 40
0.8914212207
 40
0.9014113515
 40
0.9109419335
 40
0.9200178526
 40
0.9286463131
 40
0.9368373658
 40
0.9446042772
 40
0.9519641672
 40
0.9589385932
 40
0.9655542738
 40
0.9718437889
 40
0.9778461802
 40
0.9836073652
 40
0.9891800467
 40
0.99462308
 40
1.0
 40
1.0
 40
1.0
 40
1.0
 10
13.1459570135
 20
9.6963177031
 30
0.0
 10
13.1459570135
 20
9.6853107417
 30
0.0
 10
13.1457852933
 20
9.6631676464
 30
0.0
 10
13.1450261492
 20
9.6298020969
 30
0.0
 10
13.1437661563
 20
9.596168472
 30
0.0
 10
13.1420094452
 20
9.5623781073
 30
0.0
 10
13.1397618211
 20
9.5285427984
 30
0.0
 10
13.1370307131
 20
9.494774481
 30
0.0
 10
13.1338251687
 20
9.4611848757
 30
0.0
 10
13.1301558142
 20
9.4278851043
 30
0.0
 10
13.1260348236
 20
9.3949853248
 30
0.0
 10
13.1214758781
 20
9.3625943616
 30
0.0
 10
13.1164941211
 20
9.3308193433
 30
0.0
 10
13.1111061096
 20
9.2997653431
 30
0.0
 10
13.1053297602
 20
9.2695350276
 30
0.0
 10
13.0991842915
 20
9.2402283045
 30
0.0
 10
13.0926901594
 20
9.2119420043
 30
0.0
 10
13.0858690002
 20
9.1847694713
 30
0.0
 10
13.0787435235
 20
9.1588005096
 30
0.0
 10
13.0724987292
 20
9.1379897129
 30
0.0
 10
13.0673583568
 20
9.1220149615
 30
0.0
 10
13.0634885834
 20
9.1105322518
 30
0.0
 10
13.0595608559
 20
9.0994121413
 30
0.0
 10
13.0555784381
 20
9.0886637933
 30
0.0
 10
13.0515445955
 20
9.0782960837
 30
0.0
 10
13.0474627183
 20
9.0683175501
 30
0.0
 10
13.0433361308
 20
9.0587364228
 30
0.0
 10
13.0391683098
 20
9.0495605714
 30
0.0
 10
13.0349626323
 20
9.0407975529
 30
0.0
 10
13.0307226401
 20
9.0324545369
 30
0.0
 10
13.0264517494
 20
9.0245383775
 30
0.0
 10
13.0221535398
 20
9.0170555152
 30
0.0
 10
13.0178314481
 20
9.0100120729
 30
0.0
 10
13.0134890552
 20
9.0034137372
 30
0.0
 10
13.0091297881
 20
8.9972658753
 30
0.0
 10
13.0047571778
 20
8.9915734064
 30
0.0
 10
13.0003745939
 20
8.9863409322
 30
0.0
 10
12.9959854451
 20
8.9815726195
 30
0.0
 10
12.9915929741
 20
8.9772723356
 30
0.0
 10
12.9872003839
 20
8.9734435794
 30
0.0
 10
12.9828107281
 20
8.9700896094
 30
0.0
 10
12.9784269791
 20
8.9672134731
 30
0.0
 10
12.9740520812
 20
8.9648180888
 30
0.0
 10
12.9696890159
 20
8.9629063824
 30
0.0
 10
12.9653411548
 20
8.9614811685
 30
0.0
 10
12.9610120717
 20
8.9605452677
 30
0.0
 10
12.956707032
 20
8.9601008575
 30
0.0
 10
12.9538488452
 20
8.9601334954
 30
0.0
 10
12.9524354843
 20
8.9602315089
 30
0.0
  0
SPLINE
  5
377
100
AcDbEntity
  8
0
100
AcDbSpline
 62
7
  6
CONTINUOUS
 70
0
 71
3
 72
41
 73
37
 74
0
 42
0.0000001
 43
0.0000001
 44
0.0000000001
 40
0.0
 40
0.0
 40
0.0
 40
0.0
 40
0.0149634506
 40
0.0299339677
 40
0.0449144042
 40
0.0599075575
 40
0.0899372235
 40
0.1200492116
 40
0.1502622547
 40
0.1805927873
 40
0.2110546007
 40
0.2416585661
 40
0.2724124378
 40
0.3033207313
 40
0.3343846737
 40
0.3656022241
 40
0.3969681674
 40
0.4284742657
 40
0.4601094623
 40
0.491860136
 40
0.5237104002
 40
0.5556424325
 40
0.587636833
 40
0.6196730071
 40
0.6517295646
 40
0.6837847274
 40
0.7158167438
 40
0.7478043027
 40
0.7797269401
 40
0.8115654369
 40
0.8433021989
 40
0.8749216099
 40
0.9064103582
 40
0.93775778
 40
0.9689557564
 40
1.0
 40
1.0
 40
1.0
 40
1.0
 10
10.3625994543
 20
7.2178263569
 30
0.0
 10
10.3581886176
 20
7.2140154512
 30
0.0
 10
10.3492157082
 20
7.2065625132
 30
0.0
 10
10.335329055
 20
7.1959117241
 30
0.0
 10
10.3210298808
 20
7.1858005569
 30
0.0
 10
10.3014323986
 20
7.173051601
 30
0.0
 10
10.2759858673
 20
7.1585250118
 30
0.0
 10
10.2441358207
 20
7.1434629691
 30
0.0
 10
10.2111177101
 20
7.1308368339
 30
0.0
 10
10.1771068253
 20
7.1207136305
 30
0.0
 10
10.1422821528
 20
7.1131461428
 30
0.0
 10
10.106827288
 20
7.1081738456
 30
0.0
 10
10.0709289314
 20
7.1058224609
 30
0.0
 10
10.0347760452
 20
7.1061039603
 30
0.0
 10
9.9985588355
 20
7.1090164665
 30
0.0
 10
9.9624677568
 20
7.1145442183
 30
0.0
 10
9.9266925199
 20
7.1226577724
 30
0.0
 10
9.8914211215
 20
7.1333141705
 30
0.0
 10
9.8568388533
 20
7.1464571032
 30
0.0
 10
9.823127332
 20
7.1620172178
 30
0.0
 10
9.7904635835
 20
7.1799125521
 30
0.0
 10
9.7590191355
 20
7.200048957
 30
0.0
 10
9.7289590762
 20
7.2223205043
 30
0.0
 10
9.700441227
 20
7.2466101067
 30
0.0
 10
9.6736153466
 20
7.2727901475
 30
0.0
 10
9.6486223467
 20
7.3007231245
 30
0.0
 10
9.6255934927
 20
7.3302623106
 30
0.0
 10
9.604649791
 20
7.3612525894
 30
0.0
 10
9.5859013712
 20
7.393531254
 30
0.0
 10
9.5694468654
 20
7.4269288238
 30
0.0
 10
9.5553728644
 20
7.4612698988
 30
0.0
 10
9.5437535407
 20
7.4963741864
 30
0.0
 10
9.5346502416
 20
7.5320571428
 30
0.0
 10
9.5281111633
 20
7.5681318998
 30
0.0
 10
9.5241708763
 20
7.6044064487
 30
0.0
 10
9.5232885332
 20
7.6286622083
 30
0.0
 10
9.5232885332
 20
7.6407556891
 30
0.0
  0
SPLINE
  5
378
100
AcDbEntity
  8
0
100
AcDbSpline
 62
7
  6
CONTINUOUS
 70
0
 71
3
 72
44
 73
40
 74
0
 42
0.0000001
 43
0.0000001
 44
0.0000000001
 40
0.0
 40
0.0
 40
0.0
 40
0.0
 40
0.0149722234
 40
0.0299475064
 40
0.0449288883
 40
0.0599193732
 40
0.0749219094
 40
0.0899393698
 40
0.1049745397
 40
0.1200300962
 40
0.1351085921
 40
0.1502124456
 40
0.1804994109
 40
0.2109128653
 40
0.2414659471
 40
0.2721685722
 40
0.303027252
 40
0.3340449956
 40
0.3652213014
 40
0.3965522194
 40
0.4280304831
 40
0.4596457138
 40
0.4913846787
 40
0.5232315941
 40
0.5551684754
 40
0.5871755222
 40
0.6192315264
 40
0.6513143028
 40
0.6834011342
 40
0.7154692231
 40
0.7474961446
 40
0.7794602934
 40
0.8113413197
 40
0.8431205497
 40
0.8747813764
 40
0.9063096221
 40
0.9376938967
 40
0.9689255651
 40
1.0
 40
1.0
 40
1.0
 40
1.0
 10
10.3453571469
 20
7.200208488
 30
0.0
 10
10.3410724554
 20
7.1960697972
 30
0.0
 10
10.3323366674
 20
7.1879609831
 30
0.0
 10
10.3187585144
 20
7.1763268253
 30
0.0
 10
10.3047231766
 20
7.1652363228
 30
0.0
 10
10.2902502545
 20
7.1547049671
 30
0.0
 10
10.275359546
 20
7.144747246
 30
0.0
 10
10.2600716105
 20
7.1353768243
 30
0.0
 10
10.2444074617
 20
7.1266065687
 30
0.0
 10
10.2283887141
 20
7.118448635
 30
0.0
 10
10.2120371143
 20
7.1109140713
 30
0.0
 10
10.1898041438
 20
7.1017057091
 30
0.0
 10
10.1612798794
 20
7.0918037966
 30
0.0
 10
10.1261281868
 20
7.0825755542
 30
0.0
 10
10.0902094289
 20
7.0760379538
 30
0.0
 10
10.0537227045
 20
7.0722271562
 30
0.0
 10
10.0168684337
 20
7.0711634909
 30
0.0
 10
9.9798494048
 20
7.0728523292
 30
0.0
 10
9.942869079
 20
7.0772839335
 30
0.0
 10
9.9061306563
 20
7.0844335597
 30
0.0
 10
9.869835902
 20
7.0942614775
 30
0.0
 10
9.8341840827
 20
7.1067133461
 30
0.0
 10
9.7993709054
 20
7.1217205224
 30
0.0
 10
9.7655874116
 20
7.1392003186
 30
0.0
 10
9.7330189604
 20
7.1590565365
 30
0.0
 10
9.7018442657
 20
7.1811800475
 30
0.0
 10
9.6722343874
 20
7.2054493067
 30
0.0
 10
9.6443517722
 20
7.2317309988
 30
0.0
 10
9.6183494481
 20
7.2598808551
 30
0.0
 10
9.5943701844
 20
7.2897444034
 30
0.0
 10
9.5725456178
 20
7.3211577336
 30
0.0
 10
9.5529956337
 20
7.353948476
 30
0.0
 10
9.5358277381
 20
7.3879367374
 30
0.0
 10
9.521136357
 20
7.422935989
 30
0.0
 10
9.5090023702
 20
7.458754204
 30
0.0
 10
9.4994927238
 20
7.4951946113
 30
0.0
 10
9.4926600621
 20
7.5320578034
 30
0.0
 10
9.4885421347
 20
7.5691387289
 30
0.0
 10
9.4876198128
 20
7.5939385001
 30
0.0
 10
9.4876198128
 20
7.6063023488
 30
0.0
  0
SPLINE
  5
379
100
AcDbEntity
  8
0
100
AcDbSpline
 62
7
  6
CONTINUOUS
 70
0
 71
3
 72
39
 73
35
 74
0
 42
0.0000001
 43
0.0000001
 44
0.0000000001
 40
0.0
 40
0.0
 40
0.0
 40
0.0
 40
0.0299352965
 40
0.0599016299
 40
0.0899220623
 40
0.1200183695
 40
0.1502105357
 40
0.1805162983
 40
0.2109507622
 40
0.2415260872
 40
0.2722512506
 40
0.303131891
 40
0.3341702377
 40
0.3653651132
 40
0.3967120054
 40
0.4282032141
 40
0.459828055
 40
0.4915731142
 40
0.5234225501
 40
0.5553584372
 40
0.5873611385
 40
0.6194097018
 40
0.6514822778
 40
0.6835565491
 40
0.7156101653
 40
0.7476211786
 40
0.7795684744
 40
0.8114321892
 40
0.8431941149
 40
0.8748380717
 40
0.906350256
 40
0.9377195916
 40
0.968937666
 40
1.0
 40
1.0
 40
1.0
 40
1.0
 10
10.3488619336
 20
7.1711051406
 30
0.0
 10
10.3397847383
 20
7.1627443372
 30
0.0
 10
10.3209532251
 20
7.1467227303
 30
0.0
 10
10.2908882671
 20
7.124973565
 30
0.0
 10
10.2591529736
 20
7.1056115049
 30
0.0
 10
10.2259213805
 20
7.0887431286
 30
0.0
 10
10.191372749
 20
7.0744588858
 30
0.0
 10
10.1556942047
 20
7.0628357695
 30
0.0
 10
10.1190786773
 20
7.0539361415
 30
0.0
 10
10.081724106
 20
7.0478076901
 30
0.0
 10
10.0438323137
 20
7.0444830499
 30
0.0
 10
10.0056079181
 20
7.043979649
 30
0.0
 10
9.967257214
 20
7.0462997419
 30
0.0
 10
9.9289870868
 20
7.0514304035
 30
0.0
 10
9.8910038893
 20
7.0593434928
 30
0.0
 10
9.8535123455
 20
7.069995939
 30
0.0
 10
9.8167144824
 20
7.0833300078
 30
0.0
 10
9.7808085359
 20
7.0992735348
 30
0.0
 10
9.7459878802
 20
7.1177403126
 30
0.0
 10
9.712440041
 20
7.1386306472
 30
0.0
 10
9.6803457046
 20
7.1618318707
 30
0.0
 10
9.6498776838
 20
7.1872188461
 30
0.0
 10
9.6212000575
 20
7.2146547375
 30
0.0
 10
9.5944673235
 20
7.2439917505
 30
0.0
 10
9.5698235157
 20
7.2750718551
 30
0.0
 10
9.5474014202
 20
7.307727633
 30
0.0
 10
9.5273219421
 20
7.3417832273
 30
0.0
 10
9.5096934523
 20
7.3770552612
 30
0.0
 10
9.494611096
 20
7.413353737
 30
0.0
 10
9.4821563839
 20
7.4504831951
 30
0.0
 10
9.4723967611
 20
7.4882434397
 30
0.0
 10
9.4653852409
 20
7.5264316613
 30
0.0
 10
9.4611598421
 20
7.56483938
 30
0.0
 10
9.4602135372
 20
7.5905243647
 30
0.0
 10
9.4602135372
 20
7.6033299178
 30
0.0
  0
SPLINE
  5
37A
100
AcDbEntity
  8
0
100
AcDbSpline
 62
7
  6
CONTINUOUS
 70
0
 71
3
 72
46
 73
42
 74
0
 42
0.0000001
 43
0.0000001
 44
0.0000000001
 40
0.0
 40
0.0
 40
0.0
 40
0.0
 40
0.0149720525
 40
0.0299471649
 40
0.0449283772
 40
0.0599186917
 40
0.0749210573
 40
0.0899383484
 40
0.1049733476
 40
0.1200287333
 40
0.1351070597
 40
0.1502107421
 40
0.1653420474
 40
0.1805030776
 40
0.1956957572
 40
0.2109218287
 40
0.2414745667
 40
0.2721768461
 40
0.3030351766
 40
0.3340525707
 40
0.3652285255
 40
0.3965590884
 40
0.4280369959
 40
0.4596518697
 40
0.4913904744
 40
0.523237028
 40
0.5551735471
 40
0.5871802301
 40
0.6192358692
 40
0.6513182802
 40
0.6834047461
 40
0.7154724694
 40
0.7474990252
 40
0.7794628091
 40
0.811343472
 40
0.843122339
 40
0.8747828041
 40
0.9063106918
 40
0.9376946023
 40
0.9689259241
 40
1.0
 40
1.0
 40
1.0
 40
1.0
 10
10.3489524238
 20
7.1710085383
 30
0.0
 10
10.344472786
 20
7.1666815513
 30
0.0
 10
10.3353394901
 20
7.1582038621
 30
0.0
 10
10.3211435658
 20
7.1460403792
 30
0.0
 10
10.3064696171
 20
7.1344453323
 30
0.0
 10
10.2913381698
 20
7.1234348857
 30
0.0
 10
10.2757699716
 20
7.1130241134
 30
0.0
 10
10.259786434
 20
7.1032274133
 30
0.0
 10
10.2434095883
 20
7.0940581956
 30
0.0
 10
10.2266619705
 20
7.085529074
 30
0.0
 10
10.2095666005
 20
7.0776518325
 30
0.0
 10
10.1921470436
 20
7.0704372351
 30
0.0
 10
10.1744272387
 20
7.0638952037
 30
0.0
 10
10.1564316454
 20
7.0580347946
 30
0.0
 10
10.1381846973
 20
7.0528639413
 30
0.0
 10
10.1135291723
 20
7.0468922163
 30
0.0
 10
10.0821951392
 20
7.0411889749
 30
0.0
 10
10.0440491898
 20
7.0372050914
 30
0.0
 10
10.0055179101
 20
7.0360929982
 30
0.0
 10
9.9668146674
 20
7.0378587721
 30
0.0
 10
9.9281518206
 20
7.0424920852
 30
0.0
 10
9.8897418963
 20
7.0499670188
 30
0.0
 10
9.8517958308
 20
7.0602421381
 30
0.0
 10
9.8145219692
 20
7.073260616
 30
0.0
 10
9.7781248854
 20
7.0889505982
 30
0.0
 10
9.7428043398
 20
7.1072257118
 30
0.0
 10
9.7087541427
 20
7.1279854014
 30
0.0
 10
9.6761610932
 20
7.1511154984
 30
0.0
 10
9.6452040465
 20
7.1764889583
 30
0.0
 10
9.6160528814
 20
7.2039664441
 30
0.0
 10
9.5888675424
 20
7.2333970702
 30
0.0
 10
9.5637972818
 20
7.2646193345
 30
0.0
 10
9.5409797855
 20
7.2974619157
 30
0.0
 10
9.5205403542
 20
7.3317445696
 30
0.0
 10
9.5025913598
 20
7.3672792095
 30
0.0
 10
9.4872315794
 20
7.4038708481
 30
0.0
 10
9.4745455471
 20
7.4413187083
 30
0.0
 10
9.4646032377
 20
7.4794170604
 30
0.0
 10
9.4574597118
 20
7.5179574381
 30
0.0
 10
9.4531544399
 20
7.5567254529
 30
0.0
 10
9.4521901535
 20
7.5826535531
 30
0.0
 10
9.4521901535
 20
7.5955799239
 30
0.0
  0
SPLINE
  5
37B
100
AcDbEntity
  8
0
100
AcDbSpline
 62
7
  6
CONTINUOUS
 70
0
 71
3
 72
42
 73
38
 74
0
 42
0.0000001
 43
0.0000001
 44
0.0000000001
 40
0.0
 40
0.0
 40
0.0
 40
0.0
 40
0.0055576443
 40
0.0111781836
 40
0.0169222355
 40
0.022846223
 40
0.0290011442
 40
0.0354316623
 40
0.0421762431
 40
0.049267259
 40
0.0567314277
 40
0.0645907244
 40
0.072862575
 40
0.081560766
 40
0.0906959315
 40
0.100275708
 40
0.1103055927
 40
0.1207888494
 40
0.1431177711
 40
0.1672591076
 40
0.1931868442
 40
0.2208588039
 40
0.2502193991
 40
0.2812018039
 40
0.3137295194
 40
0.3477175618
 40
0.3830734051
 40
0.419697946
 40
0.4574862654
 40
0.4963282772
 40
0.5361092896
 40
0.5767106614
 40
0.6598810502
 40
0.7448351505
 40
0.8305372122
 40
0.9159392559
 40
1.0
 40
1.0
 40
1.0
 40
1.0
 10
12.022404348
 20
9.9065763577
 30
0.0
 10
12.022404348
 20
9.907001852
 30
0.0
 10
12.0224519701
 20
9.9078583974
 30
0.0
 10
12.0226657939
 20
9.9091386419
 30
0.0
 10
12.0230216098
 20
9.910416027
 30
0.0
 10
12.0235187023
 20
9.9116890898
 30
0.0
 10
12.0241563324
 20
9.9129567593
 30
0.0
 10
12.0249335513
 20
9.9142181106
 30
0.0
 10
12.0258495334
 20
9.9154722469
 30
0.0
 10
12.0269033718
 20
9.9167183202
 30
0.0
 10
12.0280940901
 20
9.9179555302
 30
0.0
 10
12.0294207427
 20
9.9191829605
 30
0.0
 10
12.0308822091
 20
9.9203997788
 30
0.0
 10
12.032477332
 20
9.9216050771
 30
0.0
 10
12.0342048577
 20
9.922797913
 30
0.0
 10
12.0360633793
 20
9.9239774118
 30
0.0
 10
12.0380514401
 20
9.9251426225
 30
0.0
 10
12.0409337875
 20
9.9267090123
 30
0.0
 10
12.0448573525
 20
9.9286168275
 30
0.0
 10
12.049958823
 20
9.9307890036
 30
0.0
 10
12.0555320259
 20
9.9328827152
 30
0.0
 10
12.0615589654
 20
9.9348911057
 30
0.0
 10
12.0680202889
 20
9.9368075785
 30
0.0
 10
12.0748950562
 20
9.9386257987
 30
0.0
 10
12.0821609367
 20
9.9403397447
 30
0.0
 10
12.08979426
 20
9.9419437327
 30
0.0
 10
12.0977701112
 20
9.9434324593
 30
0.0
 10
12.1060624266
 20
9.9448009967
 30
0.0
 10
12.1146440943
 20
9.9460448162
 30
0.0
 10
12.123487032
 20
9.9471597883
 30
0.0
 10
12.1325623137
 20
9.9481422591
 30
0.0
 10
12.1450326175
 20
9.9492802019
 30
0.0
 10
12.1609802402
 20
9.9503430347
 30
0.0
 10
12.1804034699
 20
9.9510424358
 30
0.0
 10
12.2000098615
 20
9.9511662484
 30
0.0
 10
12.2195427724
 20
9.9507128482
 30
0.0
 10
12.2325008877
 20
9.9500215731
 30
0.0
 10
12.238921173
 20
9.9495763248
 30
0.0
  0
SPLINE
  5
37C
100
AcDbEntity
  8
0
100
AcDbSpline
 62
7
  6
CONTINUOUS
 70
0
 71
3
 72
42
 73
38
 74
0
 42
0.0000001
 43
0.0000001
 44
0.0000000001
 40
0.0
 40
0.0
 40
0.0
 40
0.0
 40
0.0055576443
 40
0.0111781836
 40
0.0169222355
 40
0.022846223
 40
0.0290011442
 40
0.0354316623
 40
0.0421762431
 40
0.049267259
 40
0.0567314277
 40
0.0645907244
 40
0.072862575
 40
0.081560766
 40
0.0906959315
 40
0.100275708
 40
0.1103055927
 40
0.1207888494
 40
0.1431177711
 40
0.1672591076
 40
0.1931868442
 40
0.2208588039
 40
0.2502193991
 40
0.2812018039
 40
0.3137295194
 40
0.3477175618
 40
0.3830734051
 40
0.419697946
 40
0.4574862654
 40
0.4963282772
 40
0.5361092896
 40
0.5767106614
 40
0.6598810502
 40
0.7448351505
 40
0.8305372122
 40
0.9159392559
 40
1.0
 40
1.0
 40
1.0
 40
1.0
 10
9.2453674328
 20
10.0991645219
 30
0.0
 10
9.2453674328
 20
10.0995900161
 30
0.0
 10
9.245415055
 20
10.1004465616
 30
0.0
 10
9.2456288788
 20
10.1017268061
 30
0.0
 10
9.2459846947
 20
10.1030041912
 30
0.0
 10
9.2464817872
 20
10.104277254
 30
0.0
 10
9.2471194172
 20
10.1055449235
 30
0.0
 10
9.2478966361
 20
10.1068062747
 30
0.0
 10
9.2488126183
 20
10.1080604111
 30
0.0
 10
9.2498664567
 20
10.1093064844
 30
0.0
 10
9.251057175
 20
10.1105436944
 30
0.0
 10
9.2523838276
 20
10.1117711247
 30
0.0
 10
9.2538452939
 20
10.112987943
 30
0.0
 10
9.2554404169
 20
10.1141932413
 30
0.0
 10
9.2571679426
 20
10.1153860772
 30
0.0
 10
9.2590264642
 20
10.116565576
 30
0.0
 10
9.261014525
 20
10.1177307867
 30
0.0
 10
9.2638968723
 20
10.1192971764
 30
0.0
 10
9.2678204373
 20
10.1212049917
 30
0.0
 10
9.2729219079
 20
10.1233771678
 30
0.0
 10
9.2784951108
 20
10.1254708794
 30
0.0
 10
9.2845220503
 20
10.1274792699
 30
0.0
 10
9.2909833737
 20
10.1293957427
 30
0.0
 10
9.2978581411
 20
10.1312139629
 30
0.0
 10
9.3051240215
 20
10.1329279089
 30
0.0
 10
9.3127573449
 20
10.1345318968
 30
0.0
 10
9.3207331961
 20
10.1360206235
 30
0.0
 10
9.3290255115
 20
10.1373891609
 30
0.0
 10
9.3376071792
 20
10.1386329804
 30
0.0
 10
9.3464501169
 20
10.1397479525
 30
0.0
 10
9.3555253986
 20
10.1407304233
 30
0.0
 10
9.3679957024
 20
10.1418683661
 30
0.0
 10
9.383943325
 20
10.1429311989
 30
0.0
 10
9.4033665548
 20
10.1436306
 30
0.0
 10
9.4229729464
 20
10.1437544126
 30
0.0
 10
9.4425058572
 20
10.1433010124
 30
0.0
 10
9.4554639726
 20
10.1426097372
 30
0.0
 10
9.4618842578
 20
10.1421644889
 30
0.0
  0
SPLINE
  5
37D
100
AcDbEntity
  8
0
100
AcDbSpline
 62
4
  6
CONTINUOUS
 70
0
 71
3
 72
313
 73
309
 74
0
 42
0.0000001
 43
0.0000001
 44
0.0000000001
 40
0.0
 40
0.0
 40
0.0
 40
0.0
 40
0.015625
 40
0.0234375
 40
0.03125
 40
0.0390625
 40
0.046875
 40
0.05078125
 40
0.0546875
 40
0.056640625
 40
0.05859375
 40
0.060546875
 40
0.0615234375
 40
0.0620117188
 40
0.0625
 40
0.0629882812
 40
0.0634765625
 40
0.064453125
 40
0.06640625
 40
0.068359375
 40
0.0703125
 40
0.07421875
 40
0.078125
 40
0.0859375
 40
0.09375
 40
0.1015625
 40
0.109375
 40
0.11328125
 40
0.1171875
 40
0.119140625
 40
0.12109375
 40
0.123046875
 40
0.1240234375
 40
0.1245117188
 40
0.125
 40
0.1254882812
 40
0.1259765625
 40
0.126953125
 40
0.12890625
 40
0.130859375
 40
0.1328125
 40
0.13671875
 40
0.140625
 40
0.1484375
 40
0.15625
 40
0.1640625
 40
0.171875
 40
0.17578125
 40
0.1796875
 40
0.181640625
 40
0.18359375
 40
0.185546875
 40
0.1865234375
 40
0.1870117188
 40
0.1875
 40
0.1879882812
 40
0.1884765625
 40
0.189453125
 40
0.19140625
 40
0.193359375
 40
0.1953125
 40
0.19921875
 40
0.203125
 40
0.2109375
 40
0.21875
 40
0.2265625
 40
0.234375
 40
0.23828125
 40
0.2421875
 40
0.244140625
 40
0.24609375
 40
0.248046875
 40
0.2490234375
 40
0.2495117188
 40
0.25
 40
0.2504882812
 40
0.2509765625
 40
0.251953125
 40
0.25390625
 40
0.255859375
 40
0.2578125
 40
0.26171875
 40
0.265625
 40
0.2734375
 40
0.28125
 40
0.2890625
 40
0.296875
 40
0.30078125
 40
0.3046875
 40
0.306640625
 40
0.30859375
 40
0.310546875
 40
0.3115234375
 40
0.3120117188
 40
0.3125
 40
0.3129882812
 40
0.3134765625
 40
0.314453125
 40
0.31640625
 40
0.318359375
 40
0.3203125
 40
0.32421875
 40
0.328125
 40
0.3359375
 40
0.34375
 40
0.3515625
 40
0.359375
 40
0.36328125
 40
0.3671875
 40
0.369140625
 40
0.37109375
 40
0.373046875
 40
0.3740234375
 40
0.3745117188
 40
0.375
 40
0.3754882812
 40
0.3759765625
 40
0.376953125
 40
0.37890625
 40
0.380859375
 40
0.3828125
 40
0.38671875
 40
0.390625
 40
0.3984375
 40
0.40625
 40
0.4140625
 40
0.421875
 40
0.42578125
 40
0.4296875
 40
0.431640625
 40
0.43359375
 40
0.435546875
 40
0.4365234375
 40
0.4370117188
 40
0.4375
 40
0.4379882812
 40
0.4384765625
 40
0.439453125
 40
0.44140625
 40
0.443359375
 40
0.4453125
 40
0.44921875
 40
0.453125
 40
0.4609375
 40
0.46875
 40
0.4765625
 40
0.484375
 40
0.48828125
 40
0.4921875
 40
0.494140625
 40
0.49609375
 40
0.498046875
 40
0.4990234375
 40
0.4995117188
 40
0.5
 40
0.5004882812
 40
0.5009765625
 40
0.501953125
 40
0.50390625
 40
0.505859375
 40
0.5078125
 40
0.51171875
 40
0.515625
 40
0.5234375
 40
0.53125
 40
0.5390625
 40
0.546875
 40
0.55078125
 40
0.5546875
 40
0.556640625
 40
0.55859375
 40
0.560546875
 40
0.5615234375
 40
0.5620117188
 40
0.5625
 40
0.5629882812
 40
0.5634765625
 40
0.564453125
 40
0.56640625
 40
0.568359375
 40
0.5703125
 40
0.57421875
 40
0.578125
 40
0.5859375
 40
0.59375
 40
0.6015625
 40
0.609375
 40
0.61328125
 40
0.6171875
 40
0.619140625
 40
0.62109375
 40
0.623046875
 40
0.6240234375
 40
0.6245117188
 40
0.625
 40
0.6254882812
 40
0.6259765625
 40
0.626953125
 40
0.62890625
 40
0.630859375
 40
0.6328125
 40
0.63671875
 40
0.640625
 40
0.6484375
 40
0.65625
 40
0.6640625
 40
0.671875
 40
0.67578125
 40
0.6796875
 40
0.681640625
 40
0.68359375
 40
0.685546875
 40
0.6865234375
 40
0.6870117188
 40
0.6875
 40
0.6879882812
 40
0.6884765625
 40
0.689453125
 40
0.69140625
 40
0.693359375
 40
0.6953125
 40
0.69921875
 40
0.703125
 40
0.7109375
 40
0.71875
 40
0.7265625
 40
0.734375
 40
0.73828125
 40
0.7421875
 40
0.744140625
 40
0.74609375
 40
0.748046875
 40
0.7490234375
 40
0.7495117188
 40
0.75
 40
0.7504882812
 40
0.7509765625
 40
0.751953125
 40
0.75390625
 40
0.755859375
 40
0.7578125
 40
0.76171875
 40
0.765625
 40
0.7734375
 40
0.78125
 40
0.7890625
 40
0.796875
 40
0.80078125
 40
0.8046875
 40
0.806640625
 40
0.80859375
 40
0.810546875
 40
0.8115234375
 40
0.8120117188
 40
0.8125
 40
0.8129882812
 40
0.8134765625
 40
0.814453125
 40
0.81640625
 40
0.818359375
 40
0.8203125
 40
0.82421875
 40
0.828125
 40
0.8359375
 40
0.84375
 40
0.8515625
 40
0.859375
 40
0.86328125
 40
0.8671875
 40
0.869140625
 40
0.87109375
 40
0.873046875
 40
0.8740234375
 40
0.8745117188
 40
0.875
 40
0.8754882812
 40
0.8759765625
 40
0.876953125
 40
0.87890625
 40
0.880859375
 40
0.8828125
 40
0.88671875
 40
0.890625
 40
0.8984375
 40
0.90625
 40
0.9140625
 40
0.921875
 40
0.92578125
 40
0.9296875
 40
0.931640625
 40
0.93359375
 40
0.935546875
 40
0.9365234375
 40
0.9370117188
 40
0.9375
 40
0.9379882812
 40
0.9384765625
 40
0.939453125
 40
0.94140625
 40
0.943359375
 40
0.9453125
 40
0.94921875
 40
0.953125
 40
0.9609375
 40
0.96875
 40
0.9765625
 40
0.984375
 40
1.0
 40
1.0
 40
1.0
 40
1.0
 10
9.4492922869
 20
9.1721719724
 30
0.0
 10
9.4521065266
 20
9.1722527429
 30
0.0
 10
9.4563278863
 20
9.1723738983
 30
0.0
 10
9.4619563657
 20
9.1725354397
 30
0.0
 10
9.4661777256
 20
9.1726565936
 30
0.0
 10
9.4703990839
 20
9.172777756
 30
0.0
 10
9.4739168877
 20
9.1728786981
 30
0.0
 10
9.4767311191
 20
9.1729595111
 30
0.0
 10
9.4784900401
 20
9.1730098843
 30
0.0
 10
9.4798971166
 20
9.1730504918
 30
0.0
 10
9.4809525892
 20
9.1730801016
 30
0.0
 10
9.481831624
 20
9.1731074673
 30
0.0
 10
9.4824479799
 20
9.1731213424
 30
0.0
 10
9.4827985727
 20
9.1731375167
 30
0.0
 10
9.4830660543
 20
9.1731264194
 30
0.0
 10
9.4833161933
 20
9.1732041112
 30
0.0
 10
9.4836557612
 20
9.1732767297
 30
0.0
 10
9.4842471866
 20
9.1734182417
 30
0.0
 10
9.4850935536
 20
9.1736128578
 30
0.0
 10
9.4861085633
 20
9.1738496261
 30
0.0
 10
9.4874621298
 20
9.1741641894
 30
0.0
 10
9.4891540126
 20
9.1745577797
 30
0.0
 10
9.4918610671
 20
9.1751873082
 30
0.0
 10
9.4952448707
 20
9.1759742934
 30
0.0
 10
9.499305442
 20
9.1769186417
 30
0.0
 10
9.5033660085
 20
9.1778630067
 30
0.0
 10
9.5067498243
 20
9.1786499502
 30
0.0
 10
9.5094568542
 20
9.1792795621
 30
0.0
 10
9.5111487996
 20
9.1796729405
 30
0.0
 10
9.5125022376
 20
9.1799879387
 30
0.0
 10
9.5135176402
 20
9.1802233784
 30
0.0
 10
9.5143627778
 20
9.1804221514
 30
0.0
 10
9.5149563978
 20
9.1805562425
 30
0.0
 10
9.5152924495
 20
9.1806407513
 30
0.0
 10
9.5155533894
 20
9.1806819198
 30
0.0
 10
9.5157803047
 20
9.1808079978
 30
0.0
 10
9.5160947265
 20
9.1809464844
 30
0.0
 10
9.5166394352
 20
9.1812026352
 30
0.0
 10
9.5174204814
 20
9.1815613505
 30
0.0
 10
9.5183564995
 20
9.1819948969
 30
0.0
 10
9.5196049558
 20
9.1825718801
 30
0.0
 10
9.5211653781
 20
9.1832934785
 30
0.0
 10
9.5236621366
 20
9.1844478295
 30
0.0
 10
9.5267830561
 20
9.1858908395
 30
0.0
 10
9.5305281728
 20
9.1876224189
 30
0.0
 10
9.5342732821
 20
9.1893540145
 30
0.0
 10
9.5373942202
 20
9.1907969841
 30
0.0
 10
9.5398909414
 20
9.1919514157
 30
0.0
 10
9.5414514585
 20
9.1926728091
 30
0.0
 10
9.5426997203
 20
9.1932502132
 30
0.0
 10
9.5436363323
 20
9.1936824739
 30
0.0
 10
9.5444155204
 20
9.1940452117
 30
0.0
 10
9.5449635461
 20
9.1942941816
 30
0.0
 10
9.5452726533
 20
9.1944441739
 30
0.0
 10
9.5455158936
 20
9.1945349102
 30
0.0
 10
9.5457155194
 20
9.194708816
 30
0.0
 10
9.5459969003
 20
9.1949116799
 30
0.0
 10
9.5464822288
 20
9.1952802082
 30
0.0
 10
9.547179261
 20
9.1957996107
 30
0.0
 10
9.5480141134
 20
9.1964259183
 30
0.0
 10
9.549127804
 20
9.1972599388
 30
0.0
 10
9.5505197275
 20
9.1983028261
 30
0.0
 10
9.5527469112
 20
9.1999712435
 30
0.0
 10
9.5555308541
 20
9.202056835
 30
0.0
 10
9.558871603
 20
9.2045595135
 30
0.0
 10
9.5622123409
 20
9.207062206
 30
0.0
 10
9.5649963111
 20
9.2091477623
 30
0.0
 10
9.5672234403
 20
9.2108162501
 30
0.0
 10
9.5686155023
 20
9.2118589586
 30
0.0
 10
9.5697289086
 20
9.2126933461
 30
0.0
 10
9.5705646296
 20
9.2133185323
 30
0.0
 10
9.5712589441
 20
9.2138414436
 30
0.0
 10
9.5717491241
 20
9.214203708
 30
0.0
 10
9.5720227316
 20
9.2144166083
 30
0.0
 10
9.5722462349
 20
9.2145596856
 30
0.0
 10
9.5723997953
 20
9.2147662087
 30
0.0
 10
9.5726289394
 20
9.2150194421
 30
0.0
 10
9.5730185746
 20
9.2154729118
 30
0.0
 10
9.5735811392
 20
9.2161153349
 30
0.0
 10
9.5742536729
 20
9.21688855
 30
0.0
 10
9.575151273
 20
9.2179186976
 30
0.0
 10
9.5762729689
 20
9.219206658
 30
0.0
 10
9.5780678524
 20
9.2212672404
 30
0.0
 10
9.580311398
 20
9.2238430215
 30
0.0
 10
9.5830036797
 20
9.2269339349
 30
0.0
 10
9.5856959476
 20
9.2300248595
 30
0.0
 10
9.5879395278
 20
9.2326006123
 30
0.0
 10
9.5897343421
 20
9.2346612515
 30
0.0
 10
9.5908562138
 20
9.2359490676
 30
0.0
 10
9.591753453
 20
9.2369795112
 30
0.0
 10
9.5924270893
 20
9.2377518218
 30
0.0
 10
9.5929862042
 20
9.2383970751
 30
0.0
 10
9.5933819976
 20
9.2388454923
 30
0.0
 10
9.5936012748
 20
9.2391068212
 30
0.0
 10
9.593785143
 20
9.2392884777
 30
0.0
 10
9.5938948153
 20
9.2395249496
 30
0.0
 10
9.5940669253
 20
9.2398211253
 30
0.0
 10
9.5943560598
 20
9.2403483411
 30
0.0
 10
9.5947754132
 20
9.2410968492
 30
0.0
 10
9.5952759388
 20
9.2419970524
 30
0.0
 10
9.5959442488
 20
9.2431966271
 30
0.0
 10
9.5967793137
 20
9.2446963339
 30
0.0
 10
9.5981155978
 20
9.2470957314
 30
0.0
 10
9.5997858906
 20
9.2500950242
 30
0.0
 10
9.6017902707
 20
9.253694155
 30
0.0
 10
9.6037946357
 20
9.2572932949
 30
0.0
 10
9.6054649661
 20
9.260292565
 30
0.0
 10
9.6068011751
 20
9.262692008
 30
0.0
 10
9.607636431
 20
9.2641915991
 30
0.0
 10
9.6083043489
 20
9.2653914112
 30
0.0
 10
9.6088060726
 20
9.2662908889
 30
0.0
 10
9.6092216775
 20
9.2670416669
 30
0.0
 10
9.6095175036
 20
9.2675648306
 30
0.0
 10
9.6096788919
 20
9.2678674988
 30
0.0
 10
9.6098214977
 20
9.2680840279
 30
0.0
 10
9.609881673
 20
9.2683405861
 30
0.0
 10
9.6099906594
 20
9.2686687012
 30
0.0
 10
9.6101679892
 20
9.2692494079
 30
0.0
 10
9.6104283213
 20
9.2700755879
 30
0.0
 10
9.610737722
 20
9.2710684597
 30
0.0
 10
9.6111513033
 20
9.2723917802
 30
0.0
 10
9.6116679214
 20
9.274046105
 30
0.0
 10
9.6124947107
 20
9.2766929273
 30
0.0
 10
9.6135281282
 20
9.2800014888
 30
0.0
 10
9.614768261
 20
9.2839717474
 30
0.0
 10
9.6160083774
 20
9.2879420128
 30
0.0
 10
9.6170418356
 20
9.291250557
 30
0.0
 10
9.6178685435
 20
9.2938974139
 30
0.0
 10
9.6183853688
 20
9.2955516509
 30
0.0
 10
9.6187985246
 20
9.2968751515
 30
0.0
 10
9.6191092252
 20
9.2978674731
 30
0.0
 10
9.6193654902
 20
9.2986953745
 30
0.0
 10
9.6195500805
 20
9.2992730082
 30
0.0
 10
9.6196474337
 20
9.2996060471
 30
0.0
 10
9.6197433423
 20
9.299847481
 30
0.0
 10
9.6197517399
 20
9.3001208145
 30
0.0
 10
9.6197934614
 20
9.3004741323
 30
0.0
 10
9.6198522521
 20
9.3010976226
 30
0.0
 10
9.6199436741
 20
9.3019856128
 30
0.0
 10
9.620050198
 20
9.303052361
 30
0.0
 10
9.6201933415
 20
9.3044742869
 30
0.0
 10
9.6203718902
 20
9.3062518329
 30
0.0
 10
9.620657781
 20
9.309095829
 30
0.0
 10
9.6210150709
 20
9.3126508507
 30
0.0
 10
9.6214438524
 20
9.3169168654
 30
0.0
 10
9.6218726169
 20
9.3211828829
 30
0.0
 10
9.6222299496
 20
9.3247378974
 30
0.0
 10
9.6225157547
 20
9.327581908
 30
0.0
 10
9.6226945211
 20
9.3293594172
 30
0.0
 10
9.6228372179
 20
9.3307814186
 30
0.0
 10
9.6229451064
 20
9.331847936
 30
0.0
 10
9.6230322589
 20
9.3327366484
 30
0.0
 10
9.6230986715
 20
9.3333588494
 30
0.0
 10
9.6231281808
 20
9.333714233
 30
0.0
 10
9.6231740904
 20
9.3339812209
 30
0.0
 10
9.6231291098
 20
9.3342464881
 30
0.0
 10
9.6231008393
 20
9.3346007779
 30
0.0
 10
9.6230365946
 20
9.3352205054
 30
0.0
 10
9.622952539
 20
9.3361059766
 30
0.0
 10
9.6228483668
 20
9.3371684795
 30
0.0
 10
9.622710625
 20
9.3385851719
 30
0.0
 10
9.6225380525
 20
9.3403560299
 30
0.0
 10
9.6222621575
 20
9.3431894069
 30
0.0
 10
9.6219172124
 20
9.3467311266
 30
0.0
 10
9.6215033132
 20
9.3509811912
 30
0.0
 10
9.6210893968
 20
9.3552312546
 30
0.0
 10
9.6207444945
 20
9.3587729774
 30
0.0
 10
9.6204685139
 20
9.3616063482
 30
0.0
 10
9.6202961591
 20
9.363377222
 30
0.0
 10
9.6201579705
 20
9.3647938819
 30
0.0
 10
9.6200551634
 20
9.3658564841
 30
0.0
 10
9.6199668365
 20
9.3667416445
 30
0.0
 10
9.6199102169
 20
9.367361927
 30
0.0
 10
9.6198697289
 20
9.3677153276
 30
0.0
 10
9.6198622763
 20
9.367983326
 30
0.0
 10
9.6197672373
 20
9.368240056
 30
0.0
 10
9.6196710698
 20
9.3685862932
 30
0.0
 10
9.6194885422
 20
9.3691903769
 30
0.0
 10
9.6192352304
 20
9.3700543112
 30
0.0
 10
9.6189280709
 20
9.3710906224
 30
0.0
 10
9.6185196375
 20
9.3724725139
 30
0.0
 10
9.6180087147
 20
9.3741998293
 30
0.0
 10
9.6171914513
 20
9.3769635612
 30
0.0
 10
9.6161697985
 20
9.3804182167
 30
0.0
 10
9.6149438487
 20
9.3845638079
 30
0.0
 10
9.6137178825
 20
9.3887093954
 30
0.0
 10
9.6126962705
 20
9.3921640603
 30
0.0
 10
9.6118789254
 20
9.3949277733
 30
0.0
 10
9.6113682102
 20
9.3966551369
 30
0.0
 10
9.6109593508
 20
9.3980369293
 30
0.0
 10
9.6106534927
 20
9.3990735432
 30
0.0
 10
9.6103961091
 20
9.3999365305
 30
0.0
 10
9.6102208504
 20
9.4005423047
 30
0.0
 10
9.6101130364
 20
9.4008858333
 30
0.0
 10
9.6100537716
 20
9.4011508832
 30
0.0
 10
9.609911957
 20
9.4013876334
 30
0.0
 10
9.6097516652
 20
9.4017131716
 30
0.0
 10
9.6094577387
 20
9.4022782641
 30
0.0
 10
9.6090448576
 20
9.4030879437
 30
0.0
 10
9.6085463982
 20
9.4040585301
 30
0.0
 10
9.6078828342
 20
9.4053530047
 30
0.0
 10
9.6070530201
 20
9.4069709748
 30
0.0
 10
9.6057255184
 20
9.4095597959
 30
0.0
 10
9.6040660719
 20
9.4127957984
 30
0.0
 10
9.6020747677
 20
9.4166790125
 30
0.0
 10
9.600083448
 20
9.4205622202
 30
0.0
 10
9.5984240405
 20
9.4237982386
 30
0.0
 10
9.5970964607
 20
9.4263870278
 30
0.0
 10
9.5962668451
 20
9.4280050789
 30
0.0
 10
9.5956028738
 20
9.4292993874
 30
0.0
 10
9.5951056588
 20
9.4302704813
 30
0.0
 10
9.5946888841
 20
9.4310785728
 30
0.0
 10
9.5944019085
 20
9.4316465004
 30
0.0
 10
9.5942304796
 20
9.4319674962
 30
0.0
 10
9.5941228745
 20
9.432218199
 30
0.0
 10
9.5939351246
 20
9.4324308452
 30
0.0
 10
9.5937127469
 20
9.4327276481
 30
0.0
 10
9.5933105609
 20
9.4332408683
 30
0.0
 10
9.5927428191
 20
9.4339772735
 30
0.0
 10
9.5920586142
 20
9.4348595757
 30
0.0
 10
9.5911473591
 20
9.436036462
 30
0.0
 10
9.5900079415
 20
9.4375074044
 30
0.0
 10
9.5881850684
 20
9.4398610048
 30
0.0
 10
9.5859064098
 20
9.4428029732
 30
0.0
 10
9.5831720496
 20
9.4463333506
 30
0.0
 10
9.5804376761
 20
9.449863718
 30
0.0
 10
9.5781590508
 20
9.4528057113
 30
0.0
 10
9.5763361111
 20
9.4551592618
 30
0.0
 10
9.5751968628
 20
9.456630331
 30
0.0
 10
9.5742852603
 20
9.4578069571
 30
0.0
 10
9.5736021166
 20
9.4586900544
 30
0.0
 10
9.5730310544
 20
9.4594239721
 30
0.0
 10
9.5726347959
 20
9.4599416328
 30
0.0
 10
9.5724029209
 20
9.4602313209
 30
0.0
 10
9.5722443436
 20
9.4604658215
 30
0.0
 10
9.5720271711
 20
9.4606344429
 30
0.0
 10
9.5717580464
 20
9.4608822509
 30
0.0
 10
9.5712775554
 20
9.4613052082
 30
0.0
 10
9.5705961184
 20
9.4619150306
 30
0.0
 10
9.5697762629
 20
9.4626444215
 30
0.0
 10
9.5686838665
 20
9.4636177795
 30
0.0
 10
9.5673181163
 20
9.4648341905
 30
0.0
 10
9.5651330583
 20
9.4667806083
 30
0.0
 10
9.5624016867
 20
9.4692135752
 30
0.0
 10
9.559124063
 20
9.4721331609
 30
0.0
 10
9.555846429
 20
9.4750527334
 30
0.0
 10
9.5531150833
 20
9.4774857331
 30
0.0
 10
9.5509299734
 20
9.4794320853
 30
0.0
 10
9.5495643552
 20
9.480648663
 30
0.0
 10
9.5484716878
 20
9.4816216789
 30
0.0
 10
9.5476526604
 20
9.4823521149
 30
0.0
 10
9.5469686323
 20
9.4829586674
 30
0.0
 10
9.5464927668
 20
9.4833874621
 30
0.0
 10
9.546216231
 20
9.4836259172
 30
0.0
 10
9.5460218231
 20
9.4838232676
 30
0.0
 10
9.5457777454
 20
9.4839498667
 30
0.0
 10
9.5454696339
 20
9.4841433444
 30
0.0
 10
9.5449223665
 20
9.484470432
 30
0.0
 10
9.5441447762
 20
9.4849437114
 30
0.0
 10
9.5432098614
 20
9.4855090736
 30
0.0
 10
9.5419639392
 20
9.4862637886
 30
0.0
 10
9.5404063205
 20
9.4872068747
 30
0.0
 10
9.5379142514
 20
9.4887159844
 30
0.0
 10
9.5347991234
 20
9.4906023121
 30
0.0
 10
9.5310609884
 20
9.4928659327
 30
0.0
 10
9.5273228453
 20
9.4951295388
 30
0.0
 10
9.5242077374
 20
9.4970159027
 30
0.0
 10
9.521715628
 20
9.49852494
 30
0.0
 10
9.5201581117
 20
9.49946821
 30
0.0
 10
9.5189119793
 20
9.5002225475
 30
0.0
 10
9.5179777069
 20
9.5007890632
 30
0.0
 10
9.5171981067
 20
9.5012587336
 30
0.0
 10
9.5166544273
 20
9.501592264
 30
0.0
 10
9.5163405669
 20
9.5017754186
 30
0.0
 10
9.516114148
 20
9.5019337266
 30
0.0
 10
9.5158534166
 20
9.5020119837
 30
0.0
 10
9.5155177433
 20
9.5021442491
 30
0.0
 10
9.5149247387
 20
9.502362704
 30
0.0
 10
9.5140805046
 20
9.5026815839
 30
0.0
 10
9.5130661758
 20
9.5030613285
 30
0.0
 10
9.5117141733
 20
9.5035686715
 30
0.0
 10
9.510024021
 20
9.504202502
 30
0.0
 10
9.5073198606
 20
9.5052168255
 30
0.0
 10
9.5039396314
 20
9.5064846627
 30
0.0
 10
9.4998833693
 20
9.5080060982
 30
0.0
 10
9.4958271015
 20
9.5095275177
 30
0.0
 10
9.4924468867
 20
9.5107953947
 30
0.0
 10
9.4897426975
 20
9.5118096387
 30
0.0
 10
9.4880526185
 20
9.5124436714
 30
0.0
 10
9.4867004654
 20
9.5129505994
 30
0.0
 10
9.4856865967
 20
9.513331612
 30
0.0
 10
9.4848409232
 20
9.5136465246
 30
0.0
 10
9.4842504882
 20
9.5138720617
 30
0.0
 10
9.4839106978
 20
9.5139929795
 30
0.0
 10
9.4836626127
 20
9.5141060928
 30
0.0
 10
9.4833886966
 20
9.5141334865
 30
0.0
 10
9.4830324853
 20
9.5141999114
 30
0.0
 10
9.4824049175
 20
9.514302224
 30
0.0
 10
9.4815105868
 20
9.5144556681
 30
0.0
 10
9.4804364506
 20
9.5146366836
 30
0.0
 10
9.4790045972
 20
9.5148791265
 30
0.0
 10
9.4772146679
 20
9.5151818072
 30
0.0
 10
9.474350844
 20
9.5156663048
 30
0.0
 10
9.4707710425
 20
9.5162718552
 30
0.0
 10
9.46647529
 20
9.5169985464
 30
0.0
 10
9.462179535
 20
9.5177252293
 30
0.0
 10
9.4564518625
 20
9.5186941428
 30
0.0
 10
9.452156108
 20
9.5194208273
 30
0.0
 10
9.4492922717
 20
9.5199052838
 30
0.0
  0
SPLINE
  5
37E
100
AcDbEntity
  8
0
100
AcDbSpline
 62
4
  6
CONTINUOUS
 70
0
 71
3
 72
313
 73
309
 74
0
 42
0.0000001
 43
0.0000001
 44
0.0000000001
 40
0.0
 40
0.0
 40
0.0
 40
0.0
 40
0.015625
 40
0.0234375
 40
0.03125
 40
0.0390625
 40
0.046875
 40
0.05078125
 40
0.0546875
 40
0.056640625
 40
0.05859375
 40
0.060546875
 40
0.0615234375
 40
0.0620117188
 40
0.0625
 40
0.0629882812
 40
0.0634765625
 40
0.064453125
 40
0.06640625
 40
0.068359375
 40
0.0703125
 40
0.07421875
 40
0.078125
 40
0.0859375
 40
0.09375
 40
0.1015625
 40
0.109375
 40
0.11328125
 40
0.1171875
 40
0.119140625
 40
0.12109375
 40
0.123046875
 40
0.1240234375
 40
0.1245117188
 40
0.125
 40
0.1254882812
 40
0.1259765625
 40
0.126953125
 40
0.12890625
 40
0.130859375
 40
0.1328125
 40
0.13671875
 40
0.140625
 40
0.1484375
 40
0.15625
 40
0.1640625
 40
0.171875
 40
0.17578125
 40
0.1796875
 40
0.181640625
 40
0.18359375
 40
0.185546875
 40
0.1865234375
 40
0.1870117188
 40
0.1875
 40
0.1879882812
 40
0.1884765625
 40
0.189453125
 40
0.19140625
 40
0.193359375
 40
0.1953125
 40
0.19921875
 40
0.203125
 40
0.2109375
 40
0.21875
 40
0.2265625
 40
0.234375
 40
0.23828125
 40
0.2421875
 40
0.244140625
 40
0.24609375
 40
0.248046875
 40
0.2490234375
 40
0.2495117188
 40
0.25
 40
0.2504882812
 40
0.2509765625
 40
0.251953125
 40
0.25390625
 40
0.255859375
 40
0.2578125
 40
0.26171875
 40
0.265625
 40
0.2734375
 40
0.28125
 40
0.2890625
 40
0.296875
 40
0.30078125
 40
0.3046875
 40
0.306640625
 40
0.30859375
 40
0.310546875
 40
0.3115234375
 40
0.3120117188
 40
0.3125
 40
0.3129882812
 40
0.3134765625
 40
0.314453125
 40
0.31640625
 40
0.318359375
 40
0.3203125
 40
0.32421875
 40
0.328125
 40
0.3359375
 40
0.34375
 40
0.3515625
 40
0.359375
 40
0.36328125
 40
0.3671875
 40
0.369140625
 40
0.37109375
 40
0.373046875
 40
0.3740234375
 40
0.3745117188
 40
0.375
 40
0.3754882812
 40
0.3759765625
 40
0.376953125
 40
0.37890625
 40
0.380859375
 40
0.3828125
 40
0.38671875
 40
0.390625
 40
0.3984375
 40
0.40625
 40
0.4140625
 40
0.421875
 40
0.42578125
 40
0.4296875
 40
0.431640625
 40
0.43359375
 40
0.435546875
 40
0.4365234375
 40
0.4370117188
 40
0.4375
 40
0.4379882812
 40
0.4384765625
 40
0.439453125
 40
0.44140625
 40
0.443359375
 40
0.4453125
 40
0.44921875
 40
0.453125
 40
0.4609375
 40
0.46875
 40
0.4765625
 40
0.484375
 40
0.48828125
 40
0.4921875
 40
0.494140625
 40
0.49609375
 40
0.498046875
 40
0.4990234375
 40
0.4995117188
 40
0.5
 40
0.5004882812
 40
0.5009765625
 40
0.501953125
 40
0.50390625
 40
0.505859375
 40
0.5078125
 40
0.51171875
 40
0.515625
 40
0.5234375
 40
0.53125
 40
0.5390625
 40
0.546875
 40
0.55078125
 40
0.5546875
 40
0.556640625
 40
0.55859375
 40
0.560546875
 40
0.5615234375
 40
0.5620117188
 40
0.5625
 40
0.5629882812
 40
0.5634765625
 40
0.564453125
 40
0.56640625
 40
0.568359375
 40
0.5703125
 40
0.57421875
 40
0.578125
 40
0.5859375
 40
0.59375
 40
0.6015625
 40
0.609375
 40
0.61328125
 40
0.6171875
 40
0.619140625
 40
0.62109375
 40
0.623046875
 40
0.6240234375
 40
0.6245117188
 40
0.625
 40
0.6254882812
 40
0.6259765625
 40
0.626953125
 40
0.62890625
 40
0.630859375
 40
0.6328125
 40
0.63671875
 40
0.640625
 40
0.6484375
 40
0.65625
 40
0.6640625
 40
0.671875
 40
0.67578125
 40
0.6796875
 40
0.681640625
 40
0.68359375
 40
0.685546875
 40
0.6865234375
 40
0.6870117188
 40
0.6875
 40
0.6879882812
 40
0.6884765625
 40
0.689453125
 40
0.69140625
 40
0.693359375
 40
0.6953125
 40
0.69921875
 40
0.703125
 40
0.7109375
 40
0.71875
 40
0.7265625
 40
0.734375
 40
0.73828125
 40
0.7421875
 40
0.744140625
 40
0.74609375
 40
0.748046875
 40
0.7490234375
 40
0.7495117188
 40
0.75
 40
0.7504882812
 40
0.7509765625
 40
0.751953125
 40
0.75390625
 40
0.755859375
 40
0.7578125
 40
0.76171875
 40
0.765625
 40
0.7734375
 40
0.78125
 40
0.7890625
 40
0.796875
 40
0.80078125
 40
0.8046875
 40
0.806640625
 40
0.80859375
 40
0.810546875
 40
0.8115234375
 40
0.8120117188
 40
0.8125
 40
0.8129882812
 40
0.8134765625
 40
0.814453125
 40
0.81640625
 40
0.818359375
 40
0.8203125
 40
0.82421875
 40
0.828125
 40
0.8359375
 40
0.84375
 40
0.8515625
 40
0.859375
 40
0.86328125
 40
0.8671875
 40
0.869140625
 40
0.87109375
 40
0.873046875
 40
0.8740234375
 40
0.8745117188
 40
0.875
 40
0.8754882812
 40
0.8759765625
 40
0.876953125
 40
0.87890625
 40
0.880859375
 40
0.8828125
 40
0.88671875
 40
0.890625
 40
0.8984375
 40
0.90625
 40
0.9140625
 40
0.921875
 40
0.92578125
 40
0.9296875
 40
0.931640625
 40
0.93359375
 40
0.935546875
 40
0.9365234375
 40
0.9370117188
 40
0.9375
 40
0.9379882812
 40
0.9384765625
 40
0.939453125
 40
0.94140625
 40
0.943359375
 40
0.9453125
 40
0.94921875
 40
0.953125
 40
0.9609375
 40
0.96875
 40
0.9765625
 40
0.984375
 40
1.0
 40
1.0
 40
1.0
 40
1.0
 10
9.4492922869
 20
9.5199052827
 30
0.0
 10
9.4464780471
 20
9.5198245123
 30
0.0
 10
9.4422566875
 20
9.5197033569
 30
0.0
 10
9.4366282081
 20
9.5195418154
 30
0.0
 10
9.4324068481
 20
9.5194206616
 30
0.0
 10
9.4281854898
 20
9.5192994992
 30
0.0
 10
9.4246676861
 20
9.519198557
 30
0.0
 10
9.4218534546
 20
9.5191177441
 30
0.0
 10
9.4200945336
 20
9.5190673708
 30
0.0
 10
9.4186874572
 20
9.5190267633
 30
0.0
 10
9.4176319846
 20
9.5189971536
 30
0.0
 10
9.4167529497
 20
9.5189697879
 30
0.0
 10
9.4161365939
 20
9.5189559127
 30
0.0
 10
9.4157860011
 20
9.5189397385
 30
0.0
 10
9.4155185195
 20
9.5189508357
 30
0.0
 10
9.4152683805
 20
9.5188731439
 30
0.0
 10
9.4149288126
 20
9.5188005255
 30
0.0
 10
9.4143373871
 20
9.5186590134
 30
0.0
 10
9.4134910201
 20
9.5184643974
 30
0.0
 10
9.4124760104
 20
9.518227629
 30
0.0
 10
9.4111224439
 20
9.5179130658
 30
0.0
 10
9.4094305612
 20
9.5175194755
 30
0.0
 10
9.4067235066
 20
9.516889947
 30
0.0
 10
9.4033397031
 20
9.5161029617
 30
0.0
 10
9.3992791317
 20
9.5151586134
 30
0.0
 10
9.3952185653
 20
9.5142142485
 30
0.0
 10
9.3918347494
 20
9.513427305
 30
0.0
 10
9.3891277195
 20
9.512797693
 30
0.0
 10
9.3874357741
 20
9.5124043147
 30
0.0
 10
9.3860823362
 20
9.5120893165
 30
0.0
 10
9.3850669336
 20
9.5118538768
 30
0.0
 10
9.3842217959
 20
9.5116551037
 30
0.0
 10
9.3836281759
 20
9.5115210127
 30
0.0
 10
9.3832921243
 20
9.5114365039
 30
0.0
 10
9.3830311844
 20
9.5113953353
 30
0.0
 10
9.3828042691
 20
9.5112692574
 30
0.0
 10
9.3824898472
 20
9.5111307708
 30
0.0
 10
9.3819451385
 20
9.51087462
 30
0.0
 10
9.3811640923
 20
9.5105159047
 30
0.0
 10
9.3802280743
 20
9.5100823583
 30
0.0
 10
9.378979618
 20
9.509505375
 30
0.0
 10
9.3774191956
 20
9.5087837766
 30
0.0
 10
9.3749224371
 20
9.5076294257
 30
0.0
 10
9.3718015177
 20
9.5061864157
 30
0.0
 10
9.368056401
 20
9.5044548363
 30
0.0
 10
9.3643112917
 20
9.5027232407
 30
0.0
 10
9.3611903536
 20
9.501280271
 30
0.0
 10
9.3586936323
 20
9.5001258394
 30
0.0
 10
9.3571331153
 20
9.4994044461
 30
0.0
 10
9.3558848534
 20
9.498827042
 30
0.0
 10
9.3549482415
 20
9.4983947813
 30
0.0
 10
9.3541690534
 20
9.4980320434
 30
0.0
 10
9.3536210276
 20
9.4977830735
 30
0.0
 10
9.3533119205
 20
9.4976330813
 30
0.0
 10
9.3530686801
 20
9.4975423449
 30
0.0
 10
9.3528690544
 20
9.4973684392
 30
0.0
 10
9.3525876734
 20
9.4971655753
 30
0.0
 10
9.352102345
 20
9.496797047
 30
0.0
 10
9.3514053128
 20
9.4962776445
 30
0.0
 10
9.3505704604
 20
9.4956513368
 30
0.0
 10
9.3494567698
 20
9.4948173164
 30
0.0
 10
9.3480648463
 20
9.4937744291
 30
0.0
 10
9.3458376625
 20
9.4921060117
 30
0.0
 10
9.3430537197
 20
9.4900204201
 30
0.0
 10
9.3397129708
 20
9.4875177417
 30
0.0
 10
9.3363722328
 20
9.4850150492
 30
0.0
 10
9.3335882627
 20
9.4829294928
 30
0.0
 10
9.3313611335
 20
9.481261005
 30
0.0
 10
9.3299690714
 20
9.4802182966
 30
0.0
 10
9.3288556652
 20
9.4793839091
 30
0.0
 10
9.3280199441
 20
9.4787587229
 30
0.0
 10
9.3273256297
 20
9.4782358115
 30
0.0
 10
9.3268354496
 20
9.4778735471
 30
0.0
 10
9.3265618421
 20
9.4776606468
 30
0.0
 10
9.3263383389
 20
9.4775175696
 30
0.0
 10
9.3261847784
 20
9.4773110465
 30
0.0
 10
9.3259556343
 20
9.477057813
 30
0.0
 10
9.3255659991
 20
9.4766043433
 30
0.0
 10
9.3250034346
 20
9.4759619202
 30
0.0
 10
9.3243309009
 20
9.4751887051
 30
0.0
 10
9.3234333008
 20
9.4741585576
 30
0.0
 10
9.3223116049
 20
9.4728705972
 30
0.0
 10
9.3205167214
 20
9.4708100148
 30
0.0
 10
9.3182731758
 20
9.4682342336
 30
0.0
 10
9.3155808941
 20
9.4651433203
 30
0.0
 10
9.3128886262
 20
9.4620523957
 30
0.0
 10
9.310645046
 20
9.4594766428
 30
0.0
 10
9.3088502316
 20
9.4574160037
 30
0.0
 10
9.3077283599
 20
9.4561281876
 30
0.0
 10
9.3068311207
 20
9.4550977439
 30
0.0
 10
9.3061574845
 20
9.4543254334
 30
0.0
 10
9.3055983695
 20
9.45368018
 30
0.0
 10
9.3052025762
 20
9.4532317629
 30
0.0
 10
9.304983299
 20
9.452970434
 30
0.0
 10
9.3047994307
 20
9.4527887774
 30
0.0
 10
9.3046897585
 20
9.4525523055
 30
0.0
 10
9.3045176484
 20
9.4522561299
 30
0.0
 10
9.304228514
 20
9.451728914
 30
0.0
 10
9.3038091606
 20
9.4509804059
 30
0.0
 10
9.3033086349
 20
9.4500802027
 30
0.0
 10
9.3026403249
 20
9.448880628
 30
0.0
 10
9.3018052601
 20
9.4473809213
 30
0.0
 10
9.300468976
 20
9.4449815238
 30
0.0
 10
9.2987986832
 20
9.4419822309
 30
0.0
 10
9.2967943031
 20
9.4383831002
 30
0.0
 10
9.294789938
 20
9.4347839603
 30
0.0
 10
9.2931196076
 20
9.4317846902
 30
0.0
 10
9.2917833987
 20
9.4293852472
 30
0.0
 10
9.2909481428
 20
9.4278856561
 30
0.0
 10
9.2902802249
 20
9.426685844
 30
0.0
 10
9.2897785012
 20
9.4257863662
 30
0.0
 10
9.2893628963
 20
9.4250355883
 30
0.0
 10
9.2890670702
 20
9.4245124245
 30
0.0
 10
9.2889056818
 20
9.4242097564
 30
0.0
 10
9.288763076
 20
9.4239932273
 30
0.0
 10
9.2887029007
 20
9.423736669
 30
0.0
 10
9.2885939143
 20
9.423408554
 30
0.0
 10
9.2884165845
 20
9.4228278472
 30
0.0
 10
9.2881562524
 20
9.4220016672
 30
0.0
 10
9.2878468518
 20
9.4210087955
 30
0.0
 10
9.2874332705
 20
9.4196854749
 30
0.0
 10
9.2869166524
 20
9.4180311502
 30
0.0
 10
9.286089863
 20
9.4153843279
 30
0.0
 10
9.2850564455
 20
9.4120757664
 30
0.0
 10
9.2838163128
 20
9.4081055078
 30
0.0
 10
9.2825761964
 20
9.4041352423
 30
0.0
 10
9.2815427381
 20
9.4008266981
 30
0.0
 10
9.2807160303
 20
9.3981798413
 30
0.0
 10
9.2801992049
 20
9.3965256043
 30
0.0
 10
9.2797860491
 20
9.3952021036
 30
0.0
 10
9.2794753485
 20
9.3942097821
 30
0.0
 10
9.2792190836
 20
9.3933818807
 30
0.0
 10
9.2790344933
 20
9.3928042469
 30
0.0
 10
9.27893714
 20
9.3924712081
 30
0.0
 10
9.2788412314
 20
9.3922297742
 30
0.0
 10
9.2788328339
 20
9.3919564406
 30
0.0
 10
9.2787911123
 20
9.3916031229
 30
0.0
 10
9.2787323217
 20
9.3909796325
 30
0.0
 10
9.2786408996
 20
9.3900916424
 30
0.0
 10
9.2785343757
 20
9.3890248941
 30
0.0
 10
9.2783912323
 20
9.3876029683
 30
0.0
 10
9.2782126835
 20
9.3858254223
 30
0.0
 10
9.2779267928
 20
9.3829814262
 30
0.0
 10
9.2775695029
 20
9.3794264045
 30
0.0
 10
9.2771407213
 20
9.3751603898
 30
0.0
 10
9.2767119569
 20
9.3708943722
 30
0.0
 10
9.2763546241
 20
9.3673393578
 30
0.0
 10
9.276068819
 20
9.3644953472
 30
0.0
 10
9.2758900527
 20
9.362717838
 30
0.0
 10
9.2757473559
 20
9.3612958366
 30
0.0
 10
9.2756394674
 20
9.3602293192
 30
0.0
 10
9.2755523149
 20
9.3593406068
 30
0.0
 10
9.2754859023
 20
9.3587184058
 30
0.0
 10
9.275456393
 20
9.3583630222
 30
0.0
 10
9.2754104834
 20
9.3580960343
 30
0.0
 10
9.2754554639
 20
9.3578307671
 30
0.0
 10
9.2754837345
 20
9.3574764773
 30
0.0
 10
9.2755479792
 20
9.3568567498
 30
0.0
 10
9.2756320348
 20
9.3559712785
 30
0.0
 10
9.275736207
 20
9.3549087756
 30
0.0
 10
9.2758739487
 20
9.3534920832
 30
0.0
 10
9.2760465213
 20
9.3517212252
 30
0.0
 10
9.2763224163
 20
9.3488878483
 30
0.0
 10
9.2766673613
 20
9.3453461285
 30
0.0
 10
9.2770812606
 20
9.3410960639
 30
0.0
 10
9.277495177
 20
9.3368460006
 30
0.0
 10
9.2778400792
 20
9.3333042777
 30
0.0
 10
9.2781160599
 20
9.330470907
 30
0.0
 10
9.2782884147
 20
9.3287000331
 30
0.0
 10
9.2784266033
 20
9.3272833733
 30
0.0
 10
9.2785294103
 20
9.326220771
 30
0.0
 10
9.2786177373
 20
9.3253356107
 30
0.0
 10
9.2786743569
 20
9.3247153282
 30
0.0
 10
9.2787148448
 20
9.3243619275
 30
0.0
 10
9.2787222974
 20
9.3240939291
 30
0.0
 10
9.2788173364
 20
9.3238371992
 30
0.0
 10
9.278913504
 20
9.323490962
 30
0.0
 10
9.2790960316
 20
9.3228868782
 30
0.0
 10
9.2793493434
 20
9.322022944
 30
0.0
 10
9.2796565029
 20
9.3209866327
 30
0.0
 10
9.2800649363
 20
9.3196047412
 30
0.0
 10
9.280575859
 20
9.3178774259
 30
0.0
 10
9.2813931224
 20
9.3151136939
 30
0.0
 10
9.2824147752
 20
9.3116590385
 30
0.0
 10
9.2836407251
 20
9.3075134473
 30
0.0
 10
9.2848666913
 20
9.3033678598
 30
0.0
 10
9.2858883033
 20
9.2999131949
 30
0.0
 10
9.2867056483
 20
9.2971494819
 30
0.0
 10
9.2872163635
 20
9.2954221183
 30
0.0
 10
9.2876252229
 20
9.2940403259
 30
0.0
 10
9.287931081
 20
9.2930037119
 30
0.0
 10
9.2881884646
 20
9.2921407247
 30
0.0
 10
9.2883637234
 20
9.2915349504
 30
0.0
 10
9.2884715374
 20
9.2911914218
 30
0.0
 10
9.2885308022
 20
9.2909263719
 30
0.0
 10
9.2886726168
 20
9.2906896218
 30
0.0
 10
9.2888329086
 20
9.2903640836
 30
0.0
 10
9.2891268351
 20
9.289798991
 30
0.0
 10
9.2895397161
 20
9.2889893114
 30
0.0
 10
9.2900381756
 20
9.2880187251
 30
0.0
 10
9.2907017396
 20
9.2867242505
 30
0.0
 10
9.2915315536
 20
9.2851062804
 30
0.0
 10
9.2928590554
 20
9.2825174593
 30
0.0
 10
9.2945185019
 20
9.2792814568
 30
0.0
 10
9.296509806
 20
9.2753982427
 30
0.0
 10
9.2985011258
 20
9.2715150349
 30
0.0
 10
9.3001605332
 20
9.2682790165
 30
0.0
 10
9.3014881131
 20
9.2656902273
 30
0.0
 10
9.3023177286
 20
9.2640721762
 30
0.0
 10
9.3029817
 20
9.2627778678
 30
0.0
 10
9.303478915
 20
9.2618067739
 30
0.0
 10
9.3038956897
 20
9.2609986823
 30
0.0
 10
9.3041826653
 20
9.2604307548
 30
0.0
 10
9.3043540942
 20
9.260109759
 30
0.0
 10
9.3044616993
 20
9.2598590562
 30
0.0
 10
9.3046494491
 20
9.2596464099
 30
0.0
 10
9.3048718269
 20
9.2593496071
 30
0.0
 10
9.3052740129
 20
9.2588363869
 30
0.0
 10
9.3058417547
 20
9.2580999817
 30
0.0
 10
9.3065259596
 20
9.2572176795
 30
0.0
 10
9.3074372147
 20
9.2560407931
 30
0.0
 10
9.3085766322
 20
9.2545698508
 30
0.0
 10
9.3103995054
 20
9.2522162504
 30
0.0
 10
9.312678164
 20
9.249274282
 30
0.0
 10
9.3154125242
 20
9.2457439046
 30
0.0
 10
9.3181468976
 20
9.2422135372
 30
0.0
 10
9.320425523
 20
9.2392715438
 30
0.0
 10
9.3222484627
 20
9.2369179933
 30
0.0
 10
9.323387711
 20
9.2354469241
 30
0.0
 10
9.3242993135
 20
9.234270298
 30
0.0
 10
9.3249824571
 20
9.2333872008
 30
0.0
 10
9.3255535193
 20
9.232653283
 30
0.0
 10
9.3259497779
 20
9.2321356224
 30
0.0
 10
9.3261816529
 20
9.2318459343
 30
0.0
 10
9.3263402301
 20
9.2316114337
 30
0.0
 10
9.3265574027
 20
9.2314428123
 30
0.0
 10
9.3268265273
 20
9.2311950043
 30
0.0
 10
9.3273070183
 20
9.2307720469
 30
0.0
 10
9.3279884554
 20
9.2301622246
 30
0.0
 10
9.3288083109
 20
9.2294328337
 30
0.0
 10
9.3299007072
 20
9.2284594757
 30
0.0
 10
9.3312664575
 20
9.2272430647
 30
0.0
 10
9.3334515154
 20
9.2252966469
 30
0.0
 10
9.3361828871
 20
9.22286368
 30
0.0
 10
9.3394605107
 20
9.2199440943
 30
0.0
 10
9.3427381448
 20
9.2170245217
 30
0.0
 10
9.3454694904
 20
9.2145915221
 30
0.0
 10
9.3476546004
 20
9.2126451698
 30
0.0
 10
9.3490202186
 20
9.2114285922
 30
0.0
 10
9.350112886
 20
9.2104555762
 30
0.0
 10
9.3509319133
 20
9.2097251402
 30
0.0
 10
9.3516159414
 20
9.2091185878
 30
0.0
 10
9.3520918069
 20
9.2086897931
 30
0.0
 10
9.3523683428
 20
9.208451338
 30
0.0
 10
9.3525627506
 20
9.2082539876
 30
0.0
 10
9.3528068283
 20
9.2081273885
 30
0.0
 10
9.3531149399
 20
9.2079339108
 30
0.0
 10
9.3536622073
 20
9.2076068232
 30
0.0
 10
9.3544397976
 20
9.2071335438
 30
0.0
 10
9.3553747124
 20
9.2065681816
 30
0.0
 10
9.3566206345
 20
9.2058134665
 30
0.0
 10
9.3581782532
 20
9.2048703805
 30
0.0
 10
9.3606703223
 20
9.2033612708
 30
0.0
 10
9.3637854504
 20
9.2014749431
 30
0.0
 10
9.3675235854
 20
9.1992113225
 30
0.0
 10
9.3712617285
 20
9.1969477163
 30
0.0
 10
9.3743768364
 20
9.1950613525
 30
0.0
 10
9.3768689458
 20
9.1935523151
 30
0.0
 10
9.378426462
 20
9.1926090451
 30
0.0
 10
9.3796725944
 20
9.1918547077
 30
0.0
 10
9.3806068668
 20
9.1912881919
 30
0.0
 10
9.3813864671
 20
9.1908185216
 30
0.0
 10
9.3819301465
 20
9.1904849912
 30
0.0
 10
9.3822440069
 20
9.1903018365
 30
0.0
 10
9.3824704258
 20
9.1901435285
 30
0.0
 10
9.3827311572
 20
9.1900652714
 30
0.0
 10
9.3830668305
 20
9.189933006
 30
0.0
 10
9.3836598351
 20
9.1897145512
 30
0.0
 10
9.3845040692
 20
9.1893956713
 30
0.0
 10
9.3855183979
 20
9.1890159267
 30
0.0
 10
9.3868704004
 20
9.1885085837
 30
0.0
 10
9.3885605528
 20
9.1878747532
 30
0.0
 10
9.3912647131
 20
9.1868604296
 30
0.0
 10
9.3946449423
 20
9.1855925925
 30
0.0
 10
9.3987012044
 20
9.184071157
 30
0.0
 10
9.4027574723
 20
9.1825497374
 30
0.0
 10
9.4061376871
 20
9.1812818605
 30
0.0
 10
9.4088418763
 20
9.1802676165
 30
0.0
 10
9.4105319553
 20
9.1796335837
 30
0.0
 10
9.4118841083
 20
9.1791266558
 30
0.0
 10
9.4128979771
 20
9.1787456432
 30
0.0
 10
9.4137436505
 20
9.1784307306
 30
0.0
 10
9.4143340856
 20
9.1782051935
 30
0.0
 10
9.4146738759
 20
9.1780842757
 30
0.0
 10
9.4149219611
 20
9.1779711623
 30
0.0
 10
9.4151958772
 20
9.1779437686
 30
0.0
 10
9.4155520885
 20
9.1778773437
 30
0.0
 10
9.4161796563
 20
9.1777750311
 30
0.0
 10
9.4170739869
 20
9.177621587
 30
0.0
 10
9.4181481231
 20
9.1774405715
 30
0.0
 10
9.4195799766
 20
9.1771981287
 30
0.0
 10
9.4213699058
 20
9.1768954479
 30
0.0
 10
9.4242337297
 20
9.1764109504
 30
0.0
 10
9.4278135312
 20
9.1758054
 30
0.0
 10
9.4321092837
 20
9.1750787088
 30
0.0
 10
9.4364050387
 20
9.1743520258
 30
0.0
 10
9.4421327112
 20
9.1733831123
 30
0.0
 10
9.4464284658
 20
9.1726564278
 30
0.0
 10
9.4492923021
 20
9.1721719714
 30
0.0
  0
ENDSEC
  0
SECTION
  2
OBJECTS
  0
DICTIONARY
  5
C
100
AcDbDictionary
280
0
281
1
  3
ACAD_GROUP
350
D
  3
ACAD_MLINESTYLE
350
17
  3
ACAD_LAYOUT
350
1A
  3
ACAD_PLOTSETTINGS
350
19
  3
ACAD_PLOTSTYLENAME
350
E
  3
ACAD_IMAGE_DICT
350
       380
  3
ACAD_IMAGE_VARS
350
       381
  3
ACAD_TABLESTYLE
350
       382
  0
IMAGEDEF_REACTOR
  5
37F
100
AcDbRasterImageDefReactor
 90
2
330
28A
  0
DICTIONARY
  5
D
102
{ACAD_REACTORS
330
C
102
}
100
AcDbDictionary
280
0
281
1
  0
ACDBDICTIONARYWDFLT
  5
E
102
{ACAD_REACTORS
330
C
102
}
100
AcDbDictionary
281
1
  3
Normal
350
F
100
AcDbDictionaryWithDefault
340
F
  0
DICTIONARY
  5
380
330
C
100
AcDbDictionary
281
1
  3
CMJ_assy_2_img_1
350
       385
  0
RASTERVARIABLES
  5
381
330
C
100
AcDbRasterVariables
 90
0
 70
0
 71
1
 72
5
  0
DICTIONARY
  5
17
102
{ACAD_REACTORS
330
C
102
}
100
AcDbDictionary
280
0
281
1
  3
Standard
350
18
  0
DICTIONARY
  5
382
330
C
100
AcDbDictionary
281
1
  3
Standard
350
       386
  3
Standard1
350
       387
  0
DICTIONARY
  5
19
102
{ACAD_REACTORS
330
C
102
}
100
AcDbDictionary
281
1
  0
DICTIONARY
  5
1A
102
{ACAD_REACTORS
330
C
102
}
100
AcDbDictionary
281
1
  3
Model
350
383
  3
Layout1
350
384
  0
ACDBPLACEHOLDER
  5
F
102
{ACAD_REACTORS
330
E
102
}
  0
MLINESTYLE
  5
18
102
{ACAD_REACTORS
330
17
102
}
100
AcDbMlineStyle
  2
STANDARD
 70
0
  3

 62
256
 51
90.0
 52
90.0
 71
2
 49
0.5
 62
256
  6
BYLAYER
 49
-0.5
 62
256
  6
BYLAYER
  0
LAYOUT
  5
383
102
{ACAD_REACTORS
330
1A
102
}
100
AcDbPlotSettings
  1

  2
none_device
  4
ANSI_C_(22.00_x_17.00_Inches)
  6

 40
0.0
 41
0.0
 42
0.0
 43
0.0
 44
558.8
 45
431.8
 46
0.0
 47
0.0
 48
0.0
 49
0.0
140
0.0
141
0.0
142
1.0
143
1.0
 70
1024
 72
0
 73
0
 74
0
  7

 75
0
147
1.0
148
0.0
149
0.0
100
AcDbLayout
  1
Model
 70
0
 71
0
 10
0.0
 20
0.0
 11
22.0
 21
17.0
 12
0.0
 22
0.0
 32
0.0
 14
0.0
 24
0.0
 34
0.0
 15
0.0
 25
0.0
 35
0.0
146
0.0
 13
0.0
 23
0.0
 33
0.0
 16
1.0
 26
0.0
 36
0.0
 17
0.0
 27
1.0
 37
0.0
 76
0
330
20C
345
0
346
0
  0
LAYOUT
  5
384
102
{ACAD_REACTORS
330
1A
102
}
100
AcDbPlotSettings
  1

  2
none_device
  4
ANSI_C_(22.00_x_17.00_Inches)
  6

 40
0.0
 41
0.0
 42
0.0
 43
0.0
 44
558.8
 45
431.8
 46
0.0
 47
0.0
 48
0.0
 49
0.0
140
0.0
141
0.0
142
1.0
143
1.0
 70
0
 72
0
 73
0
 74
0
  7

 75
0
147
1.0
148
0.0
149
0.0
100
AcDbLayout
  1
Layout1
 70
0
 71
1
 10
0.0
 20
0.0
 11
22.0
 21
17.0
 12
0.0
 22
0.0
 32
0.0
 14
0.0
 24
0.0
 34
0.0
 15
0.0
 25
0.0
 35
0.0
146
0.0
 13
0.0
 23
0.0
 33
0.0
 16
1.0
 26
0.0
 36
0.0
 17
0.0
 27
1.0
 37
0.0
 76
0
330
20D
345
0
346
0
  0
IMAGEDEF
  5
385
102
{ACAD_REACTORS
330
380
330
37F
102
}
100
AcDbRasterImageDef
 90
0
  1
CMJ_assy_2_img_1.png
 10
369.0
 20
92.0
 11
0.0066666667
 21
0.0066666667
280
1
281
0
  0
TABLESTYLE
  5
386
102
{ACAD_REACTORS
330
382
330
28D
330
28E
102
}
330
382
100
AcDbTableStyle
  3
Standard
 70
0
 71
0
 40
0.06
 41
0.06
280
1
281
1
  7
Standard
140
0.18
170
1
 62
0
 63
7
283
0
  7
Standard
140
0.18
170
1
 62
0
 63
7
283
0
  7
Standard
140
0.18
170
1
 62
0
 63
7
283
0
  0
TABLESTYLE
  5
387
102
{ACAD_REACTORS
330
382
330
28C
102
}
330
382
100
AcDbTableStyle
  3
Standard1
 70
1
 71
0
 40
0.06
 41
0.06
280
1
281
1
  7
Standard
140
0.18
170
1
 62
0
 63
7
283
0
  7
Standard
140
0.18
170
1
 62
0
 63
7
283
0
  7
Standard
140
0.18
170
1
 62
0
 63
7
283
0
  0
ENDSEC
  0
EOF
