999
DXF file: CKJ_assy_2.dxf
999
Pro/ENGINEER 2014200 by Parametric Technology Corporation
  0
SECTION
  2
HEADER
  9
$ACADVER
  1
AC1021
  9
$DWGCODEPAGE
  3
ANSI_1252
  9
$EXTMAX
 10
22.0
 20
17.0
 30
0.0
  9
$EXTMIN
 10
0.0
 20
0.0
 30
0.0
  9
$LIMMIN
 10
0.0
 20
0.0
  9
$LIMMAX
 10
22.0
 20
17.0
  9
$VIEWCTR
 10
11.0
 20
8.5
  9
$VIEWSIZE
 40
17.0
  9
$CLAYER
  8
0
  9
$LTSCALE
 40
1.21
  9
$CELTYPE
  6
BYLAYER
  9
$DIMSCALE
 40
1.0
  9
$DIMASZ
 40
0.1875
  9
$DIMEXO
 40
0.0625
  9
$DIMDLI
 40
0.836
  9
$DIMEXE
 40
0.125
  9
$DIMCEN
 40
0.198
  9
$DIMLFAC
 40
1.0
  9
$DIMBLK
  1
_FILLED
  9
$DIMTXT
 40
0.1
  9
$DIMTOL
 70
0
  9
$DIMLIM
 70
0
  9
$DIMTFAC
 40
1.0
  9
$DIMGAP
 40
0.09
  9
$DIMDSEP
 70
46
  9
$AUNITS
 70
0
  9
$PDMODE
 70
3
  9
$PDSIZE
 40
0.3125
  9
$HANDSEED
  5
30A
  9
$TILEMODE
 70
1
  9
$MEASUREMENT
 70
0
  9
$INSUNITS
 70
1
  0
ENDSEC
  0
SECTION
  2
CLASSES
  0
CLASS
  1
ACDBDICTIONARYWDFLT
  2
AcDbDictionaryWithDefault
  3
AutoCAD 2000
 90
0
 91
1
280
0
281
0
  0
CLASS
  1
ACDBPLACEHOLDER
  2
AcDbPlaceHolder
  3
AutoCAD 2000
 90
0
 91
1
280
0
281
0
  0
CLASS
  1
LAYOUT
  2
AcDbLayout
  3
AutoCAD 2000
 90
0
 91
0
280
0
281
0
  0
CLASS
  1
RASTERVARIABLES
  2
AcDbRasterVariables
  3
ISM
 90
0
 91
1
280
0
281
0
  0
CLASS
  1
IMAGEDEF
  2
AcDbRasterImageDef
  3
ISM
 90
0
 91
1
280
0
281
0
  0
CLASS
  1
IMAGEDEF_REACTOR
  2
AcDbRasterImageDefReactor
  3
ISM
 90
0
 91
1
280
0
281
0
  0
CLASS
  1
IMAGE
  2
AcDbRasterImage
  3
ISM
 90
127
 91
1
280
0
281
1
  0
CLASS
  1
TABLESTYLE
  2
AcDbTableStyle
  3
ObjectDBX Classes
 90
2047
 91
1
280
0
281
0
  0
CLASS
  1
ACAD_TABLE
  2
AcDbTable
  3
ObjectDBX Classes
 90
1025
 91
2
280
0
281
1
  0
ENDSEC
  0
SECTION
  2
TABLES
  0
TABLE
  2
VPORT
  5
8
100
AcDbSymbolTable
 70
2
  0
VPORT
  5
1F4
100
AcDbSymbolTableRecord
100
AcDbViewportTableRecord
  2
*ACTIVE
 70
0
 10
0.0
 20
0.0
 11
1.0
 21
1.0
 12
11.0
 22
8.5
 13
0.0
 23
0.0
 14
1.0
 24
1.0
 15
0.0
 25
0.0
 16
0.0
 26
0.0
 36
1.0
 17
0.0
 27
0.0
 37
0.0
 40
17.0
 41
1.2941176471
 42
50.0
 43
0.0
 44
0.0
 50
0.0
 51
0.0
 71
0
 72
100
 73
1
 74
1
 75
0
 76
0
 77
0
 78
0
  0
ENDTAB
  0
TABLE
  2
LTYPE
  5
5
100
AcDbSymbolTable
 70
6
  0
LTYPE
  5
14
100
AcDbSymbolTableRecord
100
AcDbLinetypeTableRecord
  2
BYBLOCK
 70
0
  3

 72
65
 73
0
 40
0.0
  0
LTYPE
  5
15
100
AcDbSymbolTableRecord
100
AcDbLinetypeTableRecord
  2
BYLAYER
 70
0
  3

 72
65
 73
0
 40
0.0
  0
LTYPE
  5
16
100
AcDbSymbolTableRecord
100
AcDbLinetypeTableRecord
  2
CONTINUOUS
 70
64
  3
Solid line
 72
65
 73
0
 40
0.0
  0
LTYPE
  5
1F5
100
AcDbSymbolTableRecord
100
AcDbLinetypeTableRecord
  2
CENTER
 70
64
  3
____ _ ____ _ ____ _ ____ _ ____ _ ____ _ ____
 72
65
 73
4
 40
0.6
 49
0.375
 74
0
 49
-0.075
 74
0
 49
0.075
 74
0
 49
-0.075
 74
0
  0
LTYPE
  5
1F6
100
AcDbSymbolTableRecord
100
AcDbLinetypeTableRecord
  2
HIDDEN
 70
64
  3
- - - - - - - - - - - - - - - - - - - -
 72
65
 73
2
 40
0.2
 49
0.1
 74
0
 49
-0.1
 74
0
  0
LTYPE
  5
1F7
100
AcDbSymbolTableRecord
100
AcDbLinetypeTableRecord
  2
PHANTOM
 70
64
  3
_____ _ _ _____ _ _ _____ _ _ _____
 72
65
 73
6
 40
0.8
 49
0.45
 74
0
 49
-0.05
 74
0
 49
0.1
 74
0
 49
-0.05
 74
0
 49
0.1
 74
0
 49
-0.05
 74
0
  0
LTYPE
  5
1F8
100
AcDbSymbolTableRecord
100
AcDbLinetypeTableRecord
  2
DOT
 70
64
  3
. . . . . . . . . . . . . . . . . . . .
 72
65
 73
2
 40
0.2
 49
0.1
 74
0
 49
-0.1
 74
0
  0
LTYPE
  5
1F9
100
AcDbSymbolTableRecord
100
AcDbLinetypeTableRecord
  2
DASHED
 70
64
  3
- - - - - - - - - - - - - - - - - - - -
 72
65
 73
2
 40
0.2
 49
0.1
 74
0
 49
-0.1
 74
0
  0
ENDTAB
  0
TABLE
  2
LAYER
  5
2
100
AcDbSymbolTable
 70
36
  0
LAYER
  5
10
100
AcDbSymbolTableRecord
100
AcDbLayerTableRecord
  2
0
 70
0
 62
7
  6
CONTINUOUS
370
-3
390
F
  0
LAYER
  5
1FA
100
AcDbSymbolTableRecord
100
AcDbLayerTableRecord
  2
DEFAULT_1
 70
0
 62
7
  6
CENTER
370
-3
390
F
  0
LAYER
  5
1FB
100
AcDbSymbolTableRecord
100
AcDbLayerTableRecord
  2
DEFAULT_2
 70
0
 62
8
  6
HIDDEN
370
-3
390
F
  0
LAYER
  5
1FC
100
AcDbSymbolTableRecord
100
AcDbLayerTableRecord
  2
DEFAULT_3
 70
0
 62
7
  6
PHANTOM
370
-3
390
F
  0
LAYER
  5
1FD
100
AcDbSymbolTableRecord
100
AcDbLayerTableRecord
  2
01___PRT_ALL_DTM_PLN
 70
0
 62
7
  6
CONTINUOUS
370
-3
390
F
  0
LAYER
  5
1FE
100
AcDbSymbolTableRecord
100
AcDbLayerTableRecord
  2
01___PRT_DEF_DTM_PLN
 70
0
 62
7
  6
CONTINUOUS
370
-3
390
F
  0
LAYER
  5
1FF
100
AcDbSymbolTableRecord
100
AcDbLayerTableRecord
  2
02___PRT_ALL_AXES
 70
0
 62
7
  6
CONTINUOUS
370
-3
390
F
  0
LAYER
  5
200
100
AcDbSymbolTableRecord
100
AcDbLayerTableRecord
  2
03___PRT_ALL_CURVES
 70
0
 62
7
  6
CONTINUOUS
370
-3
390
F
  0
LAYER
  5
201
100
AcDbSymbolTableRecord
100
AcDbLayerTableRecord
  2
04___PRT_ALL_DTM_PNT
 70
0
 62
7
  6
CONTINUOUS
370
-3
390
F
  0
LAYER
  5
202
100
AcDbSymbolTableRecord
100
AcDbLayerTableRecord
  2
05___PRT_ALL_DTM_CSYS
 70
0
 62
7
  6
CONTINUOUS
370
-3
390
F
  0
LAYER
  5
203
100
AcDbSymbolTableRecord
100
AcDbLayerTableRecord
  2
05___PRT_DEF_DTM_CSYS
 70
0
 62
7
  6
CONTINUOUS
370
-3
390
F
  0
LAYER
  5
204
100
AcDbSymbolTableRecord
100
AcDbLayerTableRecord
  2
06___PRT_ALL_SURFS
 70
0
 62
7
  6
CONTINUOUS
370
-3
390
F
  0
LAYER
  5
205
100
AcDbSymbolTableRecord
100
AcDbLayerTableRecord
  2
DATUM_PLANES
 70
0
 62
7
  6
CONTINUOUS
370
-3
390
F
  0
LAYER
  5
206
100
AcDbSymbolTableRecord
100
AcDbLayerTableRecord
  2
DIMENSIONS
 70
0
 62
7
  6
CONTINUOUS
370
-3
390
F
  0
LAYER
  5
207
100
AcDbSymbolTableRecord
100
AcDbLayerTableRecord
  2
PARAMETERDIMENSIONS
 70
0
 62
7
  6
CONTINUOUS
370
-3
390
F
  0
LAYER
  5
208
100
AcDbSymbolTableRecord
100
AcDbLayerTableRecord
  2
PLANE
 70
0
 62
7
  6
CONTINUOUS
370
-3
390
F
  0
LAYER
  5
209
100
AcDbSymbolTableRecord
100
AcDbLayerTableRecord
  2
PORT_AREAS
 70
0
 62
7
  6
CONTINUOUS
370
-3
390
F
  0
LAYER
  5
20A
100
AcDbSymbolTableRecord
100
AcDbLayerTableRecord
  2
SUNNBOMCOSMETIC
 70
0
 62
7
  6
CONTINUOUS
370
-3
390
F
  0
LAYER
  5
20B
100
AcDbSymbolTableRecord
100
AcDbLayerTableRecord
  2
SUNNBOMSTAMPING
 70
0
 62
7
  6
CONTINUOUS
370
-3
390
F
  0
LAYER
  5
20C
100
AcDbSymbolTableRecord
100
AcDbLayerTableRecord
  2
THREADS
 70
0
 62
7
  6
CONTINUOUS
370
-3
390
F
  0
ENDTAB
  0
TABLE
  2
STYLE
  5
3
100
AcDbSymbolTable
 70
1
  0
STYLE
  5
11
100
AcDbSymbolTableRecord
100
AcDbTextStyleTableRecord
  2
STANDARD
 70
0
 40
0.0
 41
0.8
 50
0.0
 71
0
 42
0.2
  3
txt
  4

  0
STYLE
  5
20D
100
AcDbSymbolTableRecord
100
AcDbTextStyleTableRecord
  2
TEXTSTYLE_1
 70
0
 40
0.0
 41
0.8
 50
0.0
 71
0
 42
0.2
  3
gdt
  4

  0
ENDTAB
  0
TABLE
  2
VIEW
  5
6
100
AcDbSymbolTable
 70
0
  0
ENDTAB
  0
TABLE
  2
UCS
  5
7
100
AcDbSymbolTable
 70
0
  0
ENDTAB
  0
TABLE
  2
APPID
  5
9
100
AcDbSymbolTable
 70
1
  0
APPID
  5
20E
100
AcDbSymbolTableRecord
100
AcDbRegAppTableRecord
  2
ACAD
 70
0
  0
ENDTAB
  0
TABLE
  2
BLOCK_RECORD
  5
1
100
AcDbSymbolTable
 70
0
  0
BLOCK_RECORD
  5
20F
100
AcDbSymbolTableRecord
100
AcDbBlockTableRecord
  2
*Model_Space
  0
BLOCK_RECORD
  5
210
100
AcDbSymbolTableRecord
100
AcDbBlockTableRecord
  2
*Paper_Space
  0
BLOCK_RECORD
  5
211
100
AcDbSymbolTableRecord
100
AcDbBlockTableRecord
  2
SUN_FIRST_THIRD_ANGLE_BL0
  0
BLOCK_RECORD
  5
212
100
AcDbSymbolTableRecord
100
AcDbBlockTableRecord
  2
*T1
  0
BLOCK_RECORD
  5
213
100
AcDbSymbolTableRecord
100
AcDbBlockTableRecord
  2
*T2
  0
ENDTAB
  0
TABLE
  2
DIMSTYLE
  5
A
100
AcDbSymbolTable
 70
1
100
AcDbDimStyleTable
 71
0
  0
DIMSTYLE
105
214
100
AcDbSymbolTableRecord
100
AcDbDimStyleTableRecord
  2
STANDARD
 70
0
  3

  4

 40
1.0
 41
0.1875
 42
0.0625
 43
0.38
 44
0.125
 45
0.0
 46
0.0
 47
0.001
 48
0.001
140
0.1
141
0.09
142
0.0
143
25.4
144
1.0
145
0.0
146
1.0
147
0.09
 71
0.0
 72
0.0
 73
1
 74
1
 75
0
 76
0
 77
0
 78
4
170
0
171
2
172
0
173
0
174
0
175
0
176
0
177
0
178
0
270
2
271
3
272
3
273
2
274
2
275
0
280
0
281
0
282
0
283
1
284
4
285
0
286
0
287
3
288
0
340
11
278
46
  0
ENDTAB
  0
ENDSEC
  0
SECTION
  2
BLOCKS
  0
BLOCK
  5
20
100
AcDbEntity
  8
0
100
AcDbBlockBegin
  2
*Model_Space
 70
0
 10
0.0
 20
0.0
 30
0.0
  3
*Model_Space
  1

  0
ENDBLK
  5
21
100
AcDbEntity
  8
0
100
AcDbBlockEnd
  0
BLOCK
  5
1C
100
AcDbEntity
  8
0
100
AcDbBlockBegin
  2
*Paper_Space
 70
0
 10
0.0
 20
0.0
 30
0.0
  3
*Paper_Space
  1

  0
ENDBLK
  5
1D
100
AcDbEntity
  8
0
100
AcDbBlockEnd
  0
BLOCK
  5
215
100
AcDbEntity
  8
0
100
AcDbBlockBegin
 62
2
  6
CONTINUOUS
  2
SUN_FIRST_THIRD_ANGLE_BL0
 70
64
 10
20.4816717061
 20
1.2289683772
  3
SUN_FIRST_THIRD_ANGLE_BL0
  1

  0
TEXT
  5
216
100
AcDbEntity
  8
0
100
AcDbText
 62
2
  6
CONTINUOUS
 10
19.4750896608
 20
1.4136269581
  7
STANDARD
 40
0.08
  1
FIRST ANGLE
 41
0.8
 72
0
100
AcDbText
  0
TEXT
  5
217
100
AcDbEntity
  8
0
100
AcDbText
 62
2
  6
CONTINUOUS
 10
20.7842537513
 20
1.4047600029
  7
STANDARD
 40
0.08
  1
THIRD ANGLE
 41
0.8
 72
0
100
AcDbText
  0
LINE
  5
218
100
AcDbEntity
  8
0
100
AcDbLine
 62
7
  6
CONTINUOUS
 10
19.4767170086
 20
1.1727031207
 11
19.6334271527
 21
1.1717972817
  0
LINE
  5
219
100
AcDbEntity
  8
0
100
AcDbLine
 62
7
  6
CONTINUOUS
 10
19.6596964832
 20
1.1717972817
 11
19.6950230232
 21
1.171593082
  0
LINE
  5
21A
100
AcDbEntity
  8
0
100
AcDbLine
 62
7
  6
CONTINUOUS
 10
19.7194818561
 20
1.1708914427
 11
19.8852396156
 21
1.1699333054
  0
LINE
  5
21B
100
AcDbEntity
  8
0
100
AcDbLine
 62
7
  6
CONTINUOUS
 10
19.4758111696
 20
1.2723454088
 11
19.88525039
 21
1.3511534004
  0
LINE
  5
21C
100
AcDbEntity
  8
0
100
AcDbLine
 62
7
  6
CONTINUOUS
 10
19.88525039
 20
1.3511534004
 11
19.8831348489
 21
0.9851647912
  0
LINE
  5
21D
100
AcDbEntity
  8
0
100
AcDbLine
 62
7
  6
CONTINUOUS
 10
19.8831348489
 20
0.9851647912
 11
19.4767170086
 21
1.0658141206
  0
LINE
  5
21E
100
AcDbEntity
  8
0
100
AcDbLine
 62
7
  6
CONTINUOUS
 10
19.4767170086
 20
1.0658141206
 11
19.4779056764
 21
1.2714536432
  0
CIRCLE
  5
21F
100
AcDbEntity
  8
0
100
AcDbCircle
 62
7
  6
CONTINUOUS
 10
20.2068232291
 20
1.1717972817
 40
0.175742101
  0
CIRCLE
  5
220
100
AcDbEntity
  8
0
100
AcDbCircle
 62
7
  6
CONTINUOUS
 10
20.2068232291
 20
1.1717972817
 40
0.1005522074
  0
LINE
  5
221
100
AcDbEntity
  8
0
100
AcDbLine
 62
7
  6
CONTINUOUS
 10
20.2077290681
 20
1.3756110529
 11
20.2071171714
 21
1.2379342989
  0
LINE
  5
222
100
AcDbEntity
  8
0
100
AcDbLine
 62
7
  6
CONTINUOUS
 10
20.2077290681
 20
1.2016899681
 11
20.2074674401
 21
1.1428236749
  0
LINE
  5
223
100
AcDbEntity
  8
0
100
AcDbLine
 62
7
  6
CONTINUOUS
 10
20.208634907
 20
1.101141841
 11
20.2080230104
 21
0.963465087
  0
LINE
  5
224
100
AcDbEntity
  8
0
100
AcDbLine
 62
7
  6
CONTINUOUS
 10
20.0066328138
 20
1.1745147986
 11
20.1443095678
 21
1.1739029019
  0
LINE
  5
225
100
AcDbEntity
  8
0
100
AcDbLine
 62
7
  6
CONTINUOUS
 10
20.1832714155
 20
1.1727031207
 11
20.238153505
 21
1.172335442
  0
LINE
  5
226
100
AcDbEntity
  8
0
100
AcDbLine
 62
7
  6
CONTINUOUS
 10
20.2756669918
 20
1.1717972817
 11
20.407916871
 21
1.1712095044
  0
CIRCLE
  5
227
100
AcDbEntity
  8
0
100
AcDbCircle
 62
7
  6
CONTINUOUS
 10
20.7509457401
 20
1.1693297793
 40
0.1722024983
  0
CIRCLE
  5
228
100
AcDbEntity
  8
0
100
AcDbCircle
 62
7
  6
CONTINUOUS
 10
20.7509457401
 20
1.1693297793
 40
0.0985164967
  0
LINE
  5
229
100
AcDbEntity
  8
0
100
AcDbLine
 62
7
  6
CONTINUOUS
 10
20.7169767782
 20
1.170462078
 11
20.7825395137
 21
1.1682766535
  0
LINE
  5
22A
100
AcDbEntity
  8
0
100
AcDbLine
 62
7
  6
CONTINUOUS
 10
20.8177513651
 20
1.1693297793
 11
20.947965719
 21
1.1693297793
  0
LINE
  5
22B
100
AcDbEntity
  8
0
100
AcDbLine
 62
7
  6
CONTINUOUS
 10
20.6875370113
 20
1.170462078
 11
20.5573226574
 21
1.170462078
  0
LINE
  5
22C
100
AcDbEntity
  8
0
100
AcDbLine
 62
7
  6
CONTINUOUS
 10
20.7486811426
 20
1.1987695462
 11
20.7486811426
 21
1.1432869085
  0
LINE
  5
22D
100
AcDbEntity
  8
0
100
AcDbLine
 62
7
  6
CONTINUOUS
 10
20.7498134414
 20
1.1059210505
 11
20.7498134414
 21
0.9757066966
  0
LINE
  5
22E
100
AcDbEntity
  8
0
100
AcDbLine
 62
7
  6
CONTINUOUS
 10
20.7486811426
 20
1.2338708068
 11
20.7486811426
 21
1.3640851607
  0
LINE
  5
22F
100
AcDbEntity
  8
0
100
AcDbLine
 62
7
  6
CONTINUOUS
 10
21.0702539817
 20
1.2701043662
 11
21.4790138229
 21
1.3448360823
  0
LINE
  5
230
100
AcDbEntity
  8
0
100
AcDbLine
 62
7
  6
CONTINUOUS
 10
21.4790138229
 20
1.3448360823
 11
21.4790138229
 21
0.9779712941
  0
LINE
  5
231
100
AcDbEntity
  8
0
100
AcDbLine
 62
7
  6
CONTINUOUS
 10
21.4790138229
 20
0.9779712941
 11
21.069121683
 21
1.0617614
  0
LINE
  5
232
100
AcDbEntity
  8
0
100
AcDbLine
 62
7
  6
CONTINUOUS
 10
21.0702539817
 20
1.2701043662
 11
21.069121683
 21
1.0617614
  0
LINE
  5
233
100
AcDbEntity
  8
0
100
AcDbLine
 62
7
  6
CONTINUOUS
 10
21.4790138229
 20
1.1693297793
 11
21.3159628059
 21
1.1693297793
  0
LINE
  5
234
100
AcDbEntity
  8
0
100
AcDbLine
 62
7
  6
CONTINUOUS
 10
21.2876553377
 20
1.1693297793
 11
21.2502894796
 21
1.1693297793
  0
LINE
  5
235
100
AcDbEntity
  8
0
100
AcDbLine
 62
7
  6
CONTINUOUS
 10
21.2208497126
 20
1.1659328831
 11
21.0713862804
 21
1.1659328831
  0
LINE
  5
236
100
AcDbEntity
  8
0
100
AcDbLine
 62
7
  6
CONTINUOUS
 10
20.4796138713
 20
1.5284908897
 11
20.4766766948
 21
0.9294458646
  0
ENDBLK
  5
237
100
AcDbEntity
  8
0
  6
BYBLOCK
 62
0
100
AcDbBlockEnd
  0
BLOCK
  5
238
100
AcDbEntity
  8
0
100
AcDbBlockBegin
  2
*T1
 70
1
 10
0.0
 20
0.0
  3
*T1
  1

  0
LINE
  5
239
100
AcDbEntity
  8
0
100
AcDbLine
 62
2
  6
CONTINUOUS
 10
9.275
 20
0.0
 11
-0.0
 21
0.0
  0
LINE
  5
23A
100
AcDbEntity
  8
0
100
AcDbLine
 62
2
  6
CONTINUOUS
 10
9.275
 20
0.0
 11
9.275
 21
1.25
  0
LINE
  5
23B
100
AcDbEntity
  8
0
100
AcDbLine
 62
2
  6
CONTINUOUS
 10
9.275
 20
0.625
 11
-0.0
 21
0.625
  0
LINE
  5
23C
100
AcDbEntity
  8
0
100
AcDbLine
 62
2
  6
CONTINUOUS
 10
9.275
 20
1.25
 11
-0.0
 21
1.25
  0
LINE
  5
23D
100
AcDbEntity
  8
0
100
AcDbLine
 62
2
  6
CONTINUOUS
 10
6.8
 20
0.0
 11
6.8
 21
1.25
  0
LINE
  5
23E
100
AcDbEntity
  8
0
100
AcDbLine
 62
2
  6
CONTINUOUS
 10
6.4
 20
0.0
 11
6.4
 21
0.625
  0
LINE
  5
23F
100
AcDbEntity
  8
0
100
AcDbLine
 62
2
  6
CONTINUOUS
 10
5.9
 20
0.0
 11
5.9
 21
0.625
  0
LINE
  5
240
100
AcDbEntity
  8
0
100
AcDbLine
 62
2
  6
CONTINUOUS
 10
5.2
 20
0.0
 11
5.2
 21
0.625
  0
LINE
  5
241
100
AcDbEntity
  8
0
100
AcDbLine
 62
2
  6
CONTINUOUS
 10
4.1
 20
0.0
 11
4.1
 21
1.25
  0
LINE
  5
242
100
AcDbEntity
  8
0
100
AcDbLine
 62
2
  6
CONTINUOUS
 10
-0.0
 20
0.0
 11
-0.0
 21
1.25
  0
MTEXT
  5
243
100
AcDbEntity
  8
0
100
AcDbMText
 62
2
  6
CONTINUOUS
  7
STANDARD
 71
2
 72
1
 10
6.6
 20
0.325
 30
0.0
 11
1.0
 21
0.0
 31
0.0
 44
0.9
  1
2
 40
0.125
 41
0.2
  0
MTEXT
  5
244
100
AcDbEntity
  8
0
100
AcDbMText
 62
2
  6
CONTINUOUS
  7
STANDARD
 71
2
 72
1
 10
6.15
 20
0.325
 30
0.0
 11
1.0
 21
0.0
 31
0.0
 44
0.9
  1
C
 40
0.125
 41
0.2
  0
MTEXT
  5
245
100
AcDbEntity
  8
0
100
AcDbMText
 62
2
  6
CONTINUOUS
  7
STANDARD
 71
2
 72
1
 10
5.55
 20
0.325
 30
0.0
 11
1.0
 21
0.0
 31
0.0
 44
0.9
  1
1.000
 40
0.125
 41
1.0
  0
MTEXT
  5
246
100
AcDbEntity
  8
0
100
AcDbMText
 62
2
  6
CONTINUOUS
  7
STANDARD
 71
2
 72
1
 10
4.65
 20
0.325
 30
0.0
 11
1.0
 21
0.0
 31
0.0
 44
0.9
  1
Nov-24-20
 40
0.125
 41
1.8
  0
MTEXT
  5
247
100
AcDbEntity
  8
0
100
AcDbMText
 62
2
  6
CONTINUOUS
  7
STANDARD
 71
2
 72
1
 10
2.05
 20
0.4625
 30
0.0
 11
1.0
 21
0.0
 31
0.0
 44
0.9
  1
T-3A Sandwich ISO 07\PA to T, check T to B
 40
0.125
 41
4.0
  0
MTEXT
  5
248
100
AcDbEntity
  8
0
100
AcDbMText
 62
2
  6
CONTINUOUS
  7
STANDARD
 71
1
 72
1
 10
6.45
 20
0.5625
 30
0.0
 11
1.0
 21
0.0
 31
0.0
 44
0.9
  1
SHEET
 40
0.06
 41
0.48
  0
MTEXT
  5
249
100
AcDbEntity
  8
0
100
AcDbMText
 62
2
  6
CONTINUOUS
  7
STANDARD
 71
1
 72
1
 10
5.95
 20
0.5625
 30
0.0
 11
1.0
 21
0.0
 31
0.0
 44
0.9
  1
DWG SIZE
 40
0.06
 41
0.768
  0
MTEXT
  5
24A
100
AcDbEntity
  8
0
100
AcDbMText
 62
2
  6
CONTINUOUS
  7
STANDARD
 71
1
 72
1
 10
5.25
 20
0.5625
 30
0.0
 11
1.0
 21
0.0
 31
0.0
 44
0.9
  1
SCALE
 40
0.06
 41
0.48
  0
MTEXT
  5
24B
100
AcDbEntity
  8
0
100
AcDbMText
 62
2
  6
CONTINUOUS
  7
STANDARD
 71
1
 72
1
 10
4.15
 20
0.5625
 30
0.0
 11
1.0
 21
0.0
 31
0.0
 44
0.9
  1
DATE
 40
0.06
 41
0.384
  0
MTEXT
  5
24C
100
AcDbEntity
  8
0
100
AcDbMText
 62
2
  6
CONTINUOUS
  7
STANDARD
 71
1
 72
1
 10
0.05
 20
0.5625
 30
0.0
 11
1.0
 21
0.0
 31
0.0
 44
0.9
  1
DESCRIPTION
 40
0.06
 41
1.056
  0
MTEXT
  5
24D
100
AcDbEntity
  8
0
100
AcDbMText
 62
2
  6
CONTINUOUS
  7
STANDARD
 71
2
 72
1
 10
5.45
 20
1.0375
 30
0.0
 11
1.0
 21
0.0
 31
0.0
 44
0.9
  1
ALL DIMENSIONS IN INCH\PVIEWS ARE THIRD ANGLE
 40
0.12
 41
4.224
  0
MTEXT
  5
24E
100
AcDbEntity
  8
0
100
AcDbMText
 62
2
  6
CONTINUOUS
  7
STANDARD
 71
2
 72
1
 10
2.05
 20
0.95
 30
0.0
 11
1.0
 21
0.0
 31
0.0
 44
0.9
  1
CKJ
 40
0.125
 41
0.6
  0
MTEXT
  5
24F
100
AcDbEntity
  8
0
100
AcDbMText
 62
2
  6
CONTINUOUS
  7
STANDARD
 71
1
 72
1
 10
0.05
 20
1.1875
 30
0.0
 11
1.0
 21
0.0
 31
0.0
 44
0.9
  1
MODEL
 40
0.06
 41
0.48
  0
ENDBLK
  5
250
100
AcDbEntity
  8
0
  6
BYBLOCK
 62
0
100
AcDbBlockEnd
  0
BLOCK
  5
251
100
AcDbEntity
  8
0
100
AcDbBlockBegin
  2
*T2
 70
1
 10
0.0
 20
0.0
  3
*T2
  1

  0
LINE
  5
252
100
AcDbEntity
  8
0
100
AcDbLine
 62
2
  6
CONTINUOUS
 10
0.0
 20
0.0
 11
9.055
 21
0.0
  0
LINE
  5
253
100
AcDbEntity
  8
0
100
AcDbLine
 62
2
  6
CONTINUOUS
 10
0.0
 20
0.0
 11
0.0
 21
-2.094
  0
LINE
  5
254
100
AcDbEntity
  8
0
100
AcDbLine
 62
2
  6
CONTINUOUS
 10
0.0
 20
-0.344
 11
9.055
 21
-0.344
  0
LINE
  5
255
100
AcDbEntity
  8
0
100
AcDbLine
 62
2
  6
CONTINUOUS
 10
0.0
 20
-0.594
 11
9.055
 21
-0.594
  0
LINE
  5
256
100
AcDbEntity
  8
0
100
AcDbLine
 62
2
  6
CONTINUOUS
 10
0.0
 20
-0.844
 11
9.055
 21
-0.844
  0
LINE
  5
257
100
AcDbEntity
  8
0
100
AcDbLine
 62
2
  6
CONTINUOUS
 10
0.0
 20
-1.094
 11
9.055
 21
-1.094
  0
LINE
  5
258
100
AcDbEntity
  8
0
100
AcDbLine
 62
2
  6
CONTINUOUS
 10
0.0
 20
-1.344
 11
9.055
 21
-1.344
  0
LINE
  5
259
100
AcDbEntity
  8
0
100
AcDbLine
 62
2
  6
CONTINUOUS
 10
0.0
 20
-1.594
 11
9.055
 21
-1.594
  0
LINE
  5
25A
100
AcDbEntity
  8
0
100
AcDbLine
 62
2
  6
CONTINUOUS
 10
0.0
 20
-1.844
 11
9.055
 21
-1.844
  0
LINE
  5
25B
100
AcDbEntity
  8
0
100
AcDbLine
 62
2
  6
CONTINUOUS
 10
0.0
 20
-2.094
 11
9.055
 21
-2.094
  0
LINE
  5
25C
100
AcDbEntity
  8
0
100
AcDbLine
 62
2
  6
CONTINUOUS
 10
3.055
 20
0.0
 11
3.055
 21
-2.094
  0
LINE
  5
25D
100
AcDbEntity
  8
0
100
AcDbLine
 62
2
  6
CONTINUOUS
 10
9.055
 20
0.0
 11
9.055
 21
-2.094
  0
MTEXT
  5
25E
100
AcDbEntity
  8
0
100
AcDbMText
 62
2
  6
CONTINUOUS
  7
STANDARD
 71
2
 72
1
 10
1.5275
 20
-0.0995
 30
0.0
 11
1.0
 21
0.0
 31
0.0
 44
0.9
  1
Technical Data
 40
0.145
 41
3.248
  0
MTEXT
  5
25F
100
AcDbEntity
  8
0
100
AcDbMText
 62
2
  6
CONTINUOUS
  7
STANDARD
 71
2
 72
1
 10
4.555
 20
-0.0995
 30
0.0
 11
1.0
 21
0.0
 31
0.0
 44
0.9
  1
U.S. Units
 40
0.145
 41
2.32
  0
MTEXT
  5
260
100
AcDbEntity
  8
0
100
AcDbMText
 62
2
  6
CONTINUOUS
  7
STANDARD
 71
2
 72
1
 10
7.555
 20
-0.0995
 30
0.0
 11
1.0
 21
0.0
 31
0.0
 44
0.9
  1
Metric Units
 40
0.145
 41
2.784
  0
MTEXT
  5
261
100
AcDbEntity
  8
0
100
AcDbMText
 62
2
  6
CONTINUOUS
  7
STANDARD
 71
2
 72
1
 10
1.5275
 20
-0.4065
 30
0.0
 11
1.0
 21
0.0
 31
0.0
 44
0.9
  1
Cavity
 40
0.125
 41
1.2
  0
MTEXT
  5
262
100
AcDbEntity
  8
0
100
AcDbMText
 62
2
  6
CONTINUOUS
  7
STANDARD
 71
2
 72
1
 10
6.055
 20
-0.4065
 30
0.0
 11
1.0
 21
0.0
 31
0.0
 44
0.9
  1
T-3A
 40
0.125
 41
0.8
  0
MTEXT
  5
263
100
AcDbEntity
  8
0
100
AcDbMText
 62
2
  6
CONTINUOUS
  7
STANDARD
 71
2
 72
1
 10
1.5275
 20
-0.6565
 30
0.0
 11
1.0
 21
0.0
 31
0.0
 44
0.9
  1
Body Features
 40
0.125
 41
2.6
  0
MTEXT
  5
264
100
AcDbEntity
  8
0
100
AcDbMText
 62
2
  6
CONTINUOUS
  7
STANDARD
 71
2
 72
1
 10
6.055
 20
-0.6565
 30
0.0
 11
1.0
 21
0.0
 31
0.0
 44
0.9
  1
A to T, check T to B
 40
0.125
 41
4.0
  0
MTEXT
  5
265
100
AcDbEntity
  8
0
100
AcDbMText
 62
2
  6
CONTINUOUS
  7
STANDARD
 71
2
 72
1
 10
1.5275
 20
-0.9065
 30
0.0
 11
1.0
 21
0.0
 31
0.0
 44
0.9
  1
Body Type
 40
0.125
 41
1.8
  0
MTEXT
  5
266
100
AcDbEntity
  8
0
100
AcDbMText
 62
2
  6
CONTINUOUS
  7
STANDARD
 71
2
 72
1
 10
6.055
 20
-0.9065
 30
0.0
 11
1.0
 21
0.0
 31
0.0
 44
0.9
  1
Sandwich
 40
0.125
 41
1.6
  0
MTEXT
  5
267
100
AcDbEntity
  8
0
100
AcDbMText
 62
2
  6
CONTINUOUS
  7
STANDARD
 71
2
 72
1
 10
1.5275
 20
-1.1565
 30
0.0
 11
1.0
 21
0.0
 31
0.0
 44
0.9
  1
Interface
 40
0.125
 41
1.8
  0
MTEXT
  5
268
100
AcDbEntity
  8
0
100
AcDbMText
 62
2
  6
CONTINUOUS
  7
STANDARD
 71
2
 72
1
 10
6.055
 20
-1.1565
 30
0.0
 11
1.0
 21
0.0
 31
0.0
 44
0.9
  1
ISO 07
 40
0.125
 41
1.2
  0
MTEXT
  5
269
100
AcDbEntity
  8
0
100
AcDbMText
 62
2
  6
CONTINUOUS
  7
STANDARD
 71
2
 72
1
 10
1.5275
 20
-1.4065
 30
0.0
 11
1.0
 21
0.0
 31
0.0
 44
0.9
  1
Open Cavity Quantity
 40
0.125
 41
4.0
  0
MTEXT
  5
26A
100
AcDbEntity
  8
0
100
AcDbMText
 62
2
  6
CONTINUOUS
  7
STANDARD
 71
2
 72
1
 10
6.055
 20
-1.4065
 30
0.0
 11
1.0
 21
0.0
 31
0.0
 44
0.9
  1
1
 40
0.125
 41
0.2
  0
MTEXT
  5
26B
100
AcDbEntity
  8
0
100
AcDbMText
 62
2
  6
CONTINUOUS
  7
STANDARD
 71
2
 72
1
 10
1.5275
 20
-1.6565
 30
0.0
 11
1.0
 21
0.0
 31
0.0
 44
0.9
  1
Stack Height
 40
0.125
 41
2.4
  0
MTEXT
  5
26C
100
AcDbEntity
  8
0
100
AcDbMText
 62
2
  6
CONTINUOUS
  7
STANDARD
 71
2
 72
1
 10
4.555
 20
-1.6565
 30
0.0
 11
1.0
 21
0.0
 31
0.0
 44
0.9
  1
1.97 in.
 40
0.125
 41
1.6
  0
MTEXT
  5
26D
100
AcDbEntity
  8
0
100
AcDbMText
 62
2
  6
CONTINUOUS
  7
STANDARD
 71
2
 72
1
 10
7.555
 20
-1.6565
 30
0.0
 11
1.0
 21
0.0
 31
0.0
 44
0.9
  1
50 mm
 40
0.125
 41
1.0
  0
MTEXT
  5
26E
100
AcDbEntity
  8
0
100
AcDbMText
 62
2
  6
CONTINUOUS
  7
STANDARD
 71
2
 72
1
 10
1.5275
 20
-1.9065
 30
0.0
 11
1.0
 21
0.0
 31
0.0
 44
0.9
  1
Weight
 40
0.125
 41
1.2
  0
MTEXT
  5
26F
100
AcDbEntity
  8
0
100
AcDbMText
 62
2
  6
CONTINUOUS
  7
STANDARD
 71
2
 72
1
 10
4.555
 20
-1.9065
 30
0.0
 11
1.0
 21
0.0
 31
0.0
 44
0.9
  1
3.239 lb.
 40
0.125
 41
1.8
  0
MTEXT
  5
270
100
AcDbEntity
  8
0
100
AcDbMText
 62
2
  6
CONTINUOUS
  7
STANDARD
 71
2
 72
1
 10
7.555
 20
-1.9065
 30
0.0
 11
1.0
 21
0.0
 31
0.0
 44
0.9
  1
1,469 kg.
 40
0.125
 41
1.8
  0
ENDBLK
  5
271
100
AcDbEntity
  8
0
  6
BYBLOCK
 62
0
100
AcDbBlockEnd
  0
ENDSEC
  0
SECTION
  2
ENTITIES
  0
IMAGE
  5
272
100
AcDbEntity
  8
0
100
AcDbRasterImage
 62
7
  6
CONTINUOUS
 10
19.2297077316
 20
0.3094318264
 30
0.0
 11
0.0066666667
 21
0.0
 31
0.0
 12
0.0
 22
0.0066666667
 32
0.0
 13
369.0
 23
92.0
340
       307
 70
9
280
0
281
50
282
50
283
0
360
       301
 71
1
 91
2
 14
-0.5
 24
-0.5
 14
368.5
 24
91.5
  0
INSERT
  5
273
100
AcDbEntity
  8
0
100
AcDbBlockReference
 62
2
  6
CONTINUOUS
  2
SUN_FIRST_THIRD_ANGLE_BL0
 10
20.4816717061
 20
1.2289683772
  0
ACAD_TABLE
  5
274
100
AcDbEntity
  8
0
 62
2
  6
CONTINUOUS
100
AcDbBlockReference
  2
*T1
 10
12.42375
 20
0.30125
 30
0.0
100
AcDbTable
342
       309
343
212
 11
1.0
 21
0.0
 31
0.0
 90
6
 91
4
 92
6
 93
20
 94
0
 95
0
 96
0
 70
1
 41
0.0
141
0.525
141
0.1
141
0.525
141
0.1
142
4.1
142
1.1
142
0.7
142
0.5
142
0.4
142
2.475
171
1
172
0
173
0
174
0
175
1
176
1
 91
33
178
0
145
0.0
301
CELL_VALUE
 90
4
  1
T-3A Sandwich ISO 07\PA to T, check T to B
304
ACVALUE_END
170
2
140
0.125
171
1
172
0
173
0
174
0
175
1
176
1
 91
33
178
0
145
0.0
301
CELL_VALUE
 90
4
  1
Nov-24-20
304
ACVALUE_END
170
5
140
0.125
171
1
172
0
173
0
174
0
175
1
176
1
 91
33
178
0
145
0.0
301
CELL_VALUE
 90
4
  1
1.000
304
ACVALUE_END
170
5
140
0.125
171
1
172
0
173
0
174
0
175
1
176
1
 91
33
178
0
145
0.0
301
CELL_VALUE
 90
4
  1
C
304
ACVALUE_END
170
5
140
0.125
171
1
172
0
173
0
174
0
175
1
176
1
 91
33
178
0
145
0.0
301
CELL_VALUE
 90
4
  1
2
304
ACVALUE_END
170
5
140
0.125
171
1
172
0
173
0
174
0
175
1
176
1
 91
33
178
0
145
0.0
301
CELL_VALUE
 90
4
  1
 
304
ACVALUE_END
170
1
140
0.125
171
1
172
0
173
0
174
0
175
1
176
1
 91
33
178
0
145
0.0
301
CELL_VALUE
 90
4
  1
DESCRIPTION
304
ACVALUE_END
170
1
140
0.06
171
1
172
0
173
0
174
0
175
1
176
1
 91
33
178
0
145
0.0
301
CELL_VALUE
 90
4
  1
DATE
304
ACVALUE_END
170
1
140
0.06
171
1
172
0
173
0
174
0
175
1
176
1
 91
33
178
0
145
0.0
301
CELL_VALUE
 90
4
  1
SCALE
304
ACVALUE_END
170
1
140
0.06
171
1
172
0
173
0
174
0
175
1
176
1
 91
33
178
0
145
0.0
301
CELL_VALUE
 90
4
  1
DWG SIZE
304
ACVALUE_END
170
1
140
0.06
171
1
172
0
173
0
174
0
175
1
176
1
 91
33
178
0
145
0.0
301
CELL_VALUE
 90
4
  1
SHEET
304
ACVALUE_END
170
1
140
0.06
171
1
172
0
173
0
174
0
175
1
176
1
 91
33
178
0
145
0.0
301
CELL_VALUE
 90
4
  1
 
304
ACVALUE_END
170
1
140
0.125
171
1
172
0
173
0
174
0
175
1
176
1
 91
33
178
0
145
0.0
301
CELL_VALUE
 90
4
  1
CKJ
304
ACVALUE_END
170
5
140
0.125
171
1
172
0
173
0
174
0
175
4
176
1
 91
33
178
0
145
0.0
301
CELL_VALUE
 90
4
  1
ALL DIMENSIONS IN INCH\PVIEWS ARE THIRD ANGLE
304
ACVALUE_END
170
5
140
0.12
171
1
172
0
173
1
174
0
175
1
176
1
 91
1
178
0
145
0.0
170
1
171
1
172
0
173
1
174
0
175
1
176
1
 91
1
178
0
145
0.0
170
1
171
1
172
0
173
1
174
0
175
1
176
1
 91
1
178
0
145
0.0
170
5
171
1
172
0
173
0
174
0
175
1
176
1
 91
33
178
0
145
0.0
301
CELL_VALUE
 90
4
  1
 
304
ACVALUE_END
170
1
140
0.125
171
1
172
0
173
0
174
0
175
1
176
1
 91
33
178
0
145
0.0
301
CELL_VALUE
 90
4
  1
MODEL
304
ACVALUE_END
170
1
140
0.06
171
1
172
0
173
0
174
0
175
1
176
1
 91
33
178
0
145
0.0
301
CELL_VALUE
 90
4
  1
 
304
ACVALUE_END
170
1
140
0.125
171
1
172
0
173
0
174
0
175
1
176
1
 91
33
178
0
145
0.0
301
CELL_VALUE
 90
4
  1
 
304
ACVALUE_END
170
1
140
0.125
171
1
172
0
173
0
174
0
175
1
176
1
 91
33
178
0
145
0.0
301
CELL_VALUE
 90
4
  1
 
304
ACVALUE_END
170
1
140
0.125
171
1
172
0
173
0
174
0
175
1
176
1
 91
33
178
0
145
0.0
301
CELL_VALUE
 90
4
  1
 
304
ACVALUE_END
170
1
140
0.125
171
1
172
0
173
0
174
0
175
1
176
1
 91
33
178
0
145
0.0
301
CELL_VALUE
 90
4
  1
 
304
ACVALUE_END
170
1
140
0.125
  0
ACAD_TABLE
  5
275
100
AcDbEntity
  8
0
 62
2
  6
CONTINUOUS
100
AcDbBlockReference
  2
*T2
 10
12.4237499994
 20
16.47875
 30
0.0
100
AcDbTable
342
       308
343
213
 11
1.0
 21
0.0
 31
0.0
 90
22
 91
8
 92
3
 93
16
 94
0
 95
0
 96
0
 41
0.028
141
0.344
141
0.25
141
0.25
141
0.25
141
0.25
141
0.25
141
0.25
141
0.25
142
3.055
142
3.0
142
3.0
171
1
172
0
173
0
174
0
175
1
176
1
 91
33
178
0
145
0.0
301
CELL_VALUE
 90
4
  1
Technical Data
304
ACVALUE_END
170
5
140
0.145
171
1
172
0
173
0
174
0
175
1
176
1
 91
33
178
0
145
0.0
301
CELL_VALUE
 90
4
  1
U.S. Units
304
ACVALUE_END
170
5
140
0.145
171
1
172
0
173
0
174
0
175
1
176
1
 91
33
178
0
145
0.0
301
CELL_VALUE
 90
4
  1
Metric Units
304
ACVALUE_END
170
5
140
0.145
171
1
172
0
173
0
174
0
175
1
176
1
 91
33
178
0
145
0.0
301
CELL_VALUE
 90
4
  1
Cavity
304
ACVALUE_END
170
5
140
0.125
171
1
172
0
173
0
174
0
175
2
176
1
 91
33
178
0
145
0.0
301
CELL_VALUE
 90
4
  1
T-3A
304
ACVALUE_END
170
5
140
0.125
171
1
172
0
173
1
174
0
175
1
176
1
 91
1
178
0
145
0.0
170
1
171
1
172
0
173
0
174
0
175
1
176
1
 91
33
178
0
145
0.0
301
CELL_VALUE
 90
4
  1
Body Features
304
ACVALUE_END
170
5
140
0.125
171
1
172
0
173
0
174
0
175
2
176
1
 91
33
178
0
145
0.0
301
CELL_VALUE
 90
4
  1
A to T, check T to B
304
ACVALUE_END
170
5
140
0.125
171
1
172
0
173
1
174
0
175
1
176
1
 91
1
178
0
145
0.0
170
1
171
1
172
0
173
0
174
0
175
1
176
1
 91
33
178
0
145
0.0
301
CELL_VALUE
 90
4
  1
Body Type
304
ACVALUE_END
170
5
140
0.125
171
1
172
0
173
0
174
0
175
2
176
1
 91
33
178
0
145
0.0
301
CELL_VALUE
 90
4
  1
Sandwich
304
ACVALUE_END
170
5
140
0.125
171
1
172
0
173
1
174
0
175
1
176
1
 91
1
178
0
145
0.0
170
1
171
1
172
0
173
0
174
0
175
1
176
1
 91
33
178
0
145
0.0
301
CELL_VALUE
 90
4
  1
Interface
304
ACVALUE_END
170
5
140
0.125
171
1
172
0
173
0
174
0
175
2
176
1
 91
33
178
0
145
0.0
301
CELL_VALUE
 90
4
  1
ISO 07
304
ACVALUE_END
170
5
140
0.125
171
1
172
0
173
1
174
0
175
1
176
1
 91
1
178
0
145
0.0
170
1
171
1
172
0
173
0
174
0
175
1
176
1
 91
33
178
0
145
0.0
301
CELL_VALUE
 90
4
  1
Open Cavity Quantity
304
ACVALUE_END
170
5
140
0.125
171
1
172
0
173
0
174
0
175
2
176
1
 91
33
178
0
145
0.0
301
CELL_VALUE
 90
4
  1
1
304
ACVALUE_END
170
5
140
0.125
171
1
172
0
173
1
174
0
175
1
176
1
 91
1
178
0
145
0.0
170
1
171
1
172
0
173
0
174
0
175
1
176
1
 91
33
178
0
145
0.0
301
CELL_VALUE
 90
4
  1
Stack Height
304
ACVALUE_END
170
5
140
0.125
171
1
172
0
173
0
174
0
175
1
176
1
 91
33
178
0
145
0.0
301
CELL_VALUE
 90
4
  1
1.97 in.
304
ACVALUE_END
170
5
140
0.125
171
1
172
0
173
0
174
0
175
1
176
1
 91
33
178
0
145
0.0
301
CELL_VALUE
 90
4
  1
50 mm
304
ACVALUE_END
170
5
140
0.125
171
1
172
0
173
0
174
0
175
1
176
1
 91
33
178
0
145
0.0
301
CELL_VALUE
 90
4
  1
Weight
304
ACVALUE_END
170
5
140
0.125
171
1
172
0
173
0
174
0
175
1
176
1
 91
33
178
0
145
0.0
301
CELL_VALUE
 90
4
  1
3.239 lb.
304
ACVALUE_END
170
5
140
0.125
171
1
172
0
173
0
174
0
175
1
176
1
 91
33
178
0
145
0.0
301
CELL_VALUE
 90
4
  1
1,469 kg.
304
ACVALUE_END
170
5
140
0.125
  0
MTEXT
  5
276
100
AcDbEntity
  8
0
100
AcDbMText
 62
2
  6
CONTINUOUS
  7
STANDARD
 71
1
 72
1
 10
0.52125
 20
5.75995
 30
0.0
 11
1.0
 21
0.0
 31
0.0
 44
0.6
  3
Notes\P \P1. Important: Carefully consider\P   the maximum system pressure. The\P   pressure rating of the manifold is\P   dependent on the manifold material,\P   with the port type/size a secondary\P   consideration. Manifolds\P   constructed of alu
  1
minum are not\P   rated for pressures higher than\P   3000 psi (210 bar), regardless of\P   the port type/size specified.\P2. Items without balloons are\P   shipped loose.
 40
0.1
 41
3.04
  0
LINE
  5
277
100
AcDbEntity
  8
0
100
AcDbLine
 62
7
  6
CONTINUOUS
 10
0.30125
 20
0.30125
 11
0.30125
 21
16.69875
  0
LINE
  5
278
100
AcDbEntity
  8
0
100
AcDbLine
 62
7
  6
CONTINUOUS
 10
0.30125
 20
0.30125
 11
21.69875
 21
0.30125
  0
LINE
  5
279
100
AcDbEntity
  8
0
100
AcDbLine
 62
7
  6
CONTINUOUS
 10
0.30125
 20
16.69875
 11
21.69875
 21
16.69875
  0
LINE
  5
27A
100
AcDbEntity
  8
0
100
AcDbLine
 62
7
  6
CONTINUOUS
 10
21.69875
 20
0.30125
 11
21.69875
 21
16.69875
  0
LINE
  5
27B
100
AcDbEntity
  8
0
100
AcDbLine
 62
7
  6
CONTINUOUS
 10
8.4348321398
 20
10.3481894626
 11
8.2487413999
 21
10.1684396003
  0
LINE
  5
27C
100
AcDbEntity
  8
0
100
AcDbLine
 62
7
  6
CONTINUOUS
 10
8.4647758422
 20
10.3760565622
 11
8.2786851023
 21
10.1963066999
  0
LINE
  5
27D
100
AcDbEntity
  8
0
100
AcDbLine
 62
7
  6
CONTINUOUS
 10
8.4661489251
 20
10.3773586712
 11
8.4647758422
 21
10.3760565622
  0
LINE
  5
27E
100
AcDbEntity
  8
0
100
AcDbLine
 62
7
  6
CONTINUOUS
 10
8.4361307094
 20
10.3494207132
 11
8.4348321398
 21
10.3481894626
  0
LINE
  5
27F
100
AcDbEntity
  8
0
100
AcDbLine
 62
7
  6
CONTINUOUS
 10
8.4348321398
 20
10.3481894626
 11
8.464763779
 21
10.3760695236
  0
LINE
  5
280
100
AcDbEntity
  8
0
100
AcDbLine
 62
7
  6
CONTINUOUS
 10
8.2487413999
 20
10.1684396003
 11
8.2786851023
 21
10.1963066999
  0
LINE
  5
281
100
AcDbEntity
  8
0
100
AcDbLine
 62
7
  6
CONTINUOUS
 10
8.2049320914
 20
7.0008776297
 11
8.1790566156
 21
7.0326928795
  0
LINE
  5
282
100
AcDbEntity
  8
0
100
AcDbLine
 62
7
  6
CONTINUOUS
 10
8.1113086004
 20
9.5227830579
 11
8.1113086004
 21
7.4093372247
  0
LINE
  5
283
100
AcDbEntity
  8
0
100
AcDbLine
 62
7
  6
CONTINUOUS
 10
8.133228919
 20
9.512956461
 11
8.133228919
 21
7.3995106278
  0
LINE
  5
284
100
AcDbEntity
  8
0
100
AcDbLine
 62
7
  6
CONTINUOUS
 10
8.5219608212
 20
10.1150900531
 11
9.0072461303
 21
10.583839694
  0
LINE
  5
285
100
AcDbEntity
  8
0
100
AcDbLine
 62
7
  6
CONTINUOUS
 10
8.5219608212
 20
10.1150900531
 11
8.5219608212
 21
6.7343494608
  0
LINE
  5
286
100
AcDbEntity
  8
0
100
AcDbLine
 62
7
  6
CONTINUOUS
 10
8.1113086004
 20
7.4093372247
 11
8.133228919
 21
7.3995106278
  0
LINE
  5
287
100
AcDbEntity
  8
0
100
AcDbLine
 62
7
  6
CONTINUOUS
 10
13.1101089694
 20
6.416160306
 11
8.5219608212
 21
6.7343494608
  0
LINE
  5
288
100
AcDbEntity
  8
0
100
AcDbLine
 62
7
  6
CONTINUOUS
 10
8.5219608212
 20
6.959789456
 11
8.2398036571
 21
6.9793571217
  0
LINE
  5
289
100
AcDbEntity
  8
0
100
AcDbLine
 62
7
  6
CONTINUOUS
 10
8.133228919
 20
7.3995106278
 11
8.5219608212
 21
7.3725519789
  0
LINE
  5
28A
100
AcDbEntity
  8
0
100
AcDbLine
 62
7
  6
CONTINUOUS
 10
13.3093629667
 20
8.0869885113
 11
13.693766408
 21
8.0603300421
  0
LINE
  5
28B
100
AcDbEntity
  8
0
100
AcDbLine
 62
7
  6
CONTINUOUS
 10
8.1113086004
 20
9.5227830579
 11
8.133228919
 21
9.512956461
  0
LINE
  5
28C
100
AcDbEntity
  8
0
100
AcDbLine
 62
7
  6
CONTINUOUS
 10
13.2065361025
 20
8.2409136442
 11
13.5626331102
 21
8.2162182329
  0
LINE
  5
28D
100
AcDbEntity
  8
0
100
AcDbLine
 62
7
  6
CONTINUOUS
 10
13.1999715938
 20
8.2805868372
 11
13.555409098
 21
8.2559371626
  0
LINE
  5
28E
100
AcDbEntity
  8
0
100
AcDbLine
 62
7
  6
CONTINUOUS
 10
13.2017441149
 20
8.8455703871
 11
13.555409098
 21
8.8210436372
  0
LINE
  5
28F
100
AcDbEntity
  8
0
100
AcDbLine
 62
7
  6
CONTINUOUS
 10
13.1101089694
 20
9.7969008983
 11
13.5953942785
 21
10.2656505392
  0
LINE
  5
290
100
AcDbEntity
  8
0
100
AcDbLine
 62
7
  6
CONTINUOUS
 10
13.2088463543
 20
8.8992534825
 11
13.5626331102
 21
8.8747182876
  0
LINE
  5
291
100
AcDbEntity
  8
0
100
AcDbLine
 62
7
  6
CONTINUOUS
 10
8.133228919
 20
9.512956461
 11
8.5219608212
 21
9.485997812
  0
LINE
  5
292
100
AcDbEntity
  8
0
100
AcDbLine
 62
7
  6
CONTINUOUS
 10
13.3302462115
 20
9.3091467827
 11
13.693766408
 21
9.2839365714
  0
LINE
  5
293
100
AcDbEntity
  8
0
100
AcDbLine
 62
7
  6
CONTINUOUS
 10
13.340762067
 20
9.3233752002
 11
13.7082144324
 21
9.2978922921
  0
LINE
  5
294
100
AcDbEntity
  8
0
100
AcDbLine
 62
7
  6
CONTINUOUS
 10
8.5219608212
 20
10.1150900531
 11
13.1101089694
 21
9.7969008983
  0
LINE
  5
295
100
AcDbEntity
  8
0
100
AcDbLine
 62
7
  6
CONTINUOUS
 10
8.2786851023
 20
10.1963066999
 11
8.5841137263
 21
10.1751251529
  0
LINE
  5
296
100
AcDbEntity
  8
0
100
AcDbLine
 62
7
  6
CONTINUOUS
 10
8.4647758422
 20
10.3760565622
 11
8.7702044662
 21
10.3548750152
  0
LINE
  5
297
100
AcDbEntity
  8
0
100
AcDbLine
 62
7
  6
CONTINUOUS
 10
8.7900054535
 20
10.3740013014
 11
8.5036572874
 21
10.3938596141
  0
LINE
  5
298
100
AcDbEntity
  8
0
100
AcDbLine
 62
7
  6
CONTINUOUS
 10
13.1101089694
 20
9.7969008983
 11
13.1101089694
 21
6.416160306
  0
LINE
  5
299
100
AcDbEntity
  8
0
100
AcDbLine
 62
7
  6
CONTINUOUS
 10
9.0072461303
 20
10.583839694
 11
13.5953942785
 21
10.2656505392
  0
LINE
  5
29A
100
AcDbEntity
  8
0
100
AcDbLine
 62
7
  6
CONTINUOUS
 10
13.5953942785
 20
10.2656505392
 11
13.5953942785
 21
9.3057163964
  0
LINE
  5
29B
100
AcDbEntity
  8
0
100
AcDbLine
 62
7
  6
CONTINUOUS
 10
13.5953942785
 20
8.0671521725
 11
13.5953942785
 21
6.8849099469
  0
LINE
  5
29C
100
AcDbEntity
  8
0
100
AcDbLine
 62
7
  6
CONTINUOUS
 10
13.7522589587
 20
8.1420477517
 11
13.772605589
 21
8.1765451537
  0
LINE
  5
29D
100
AcDbEntity
  8
0
100
AcDbLine
 62
7
  6
CONTINUOUS
 10
13.8333730469
 20
9.1860079273
 11
13.8412925252
 21
9.1669806677
  0
LINE
  5
29E
100
AcDbEntity
  8
0
100
AcDbLine
 62
7
  6
CONTINUOUS
 10
13.1101089694
 20
6.416160306
 11
13.5953942785
 21
6.8849099469
  0
ARC
  5
29F
100
AcDbEntity
  8
0
100
AcDbCircle
 62
7
  6
CONTINUOUS
 10
15.8405126022
 20
8.5408175306
 40
2.3022216869
100
AcDbArc
 50
171.6607434676
 51
173.0086288778
  0
ARC
  5
2A0
100
AcDbEntity
  8
0
100
AcDbCircle
 62
7
  6
CONTINUOUS
 10
14.5017991667
 20
8.407548587
 40
0.9584571905
100
AcDbArc
 50
189.1014340788
 51
191.5149294916
  0
ARC
  5
2A1
100
AcDbEntity
  8
0
100
AcDbCircle
 62
7
  6
CONTINUOUS
 10
10.114783614
 20
8.8890603614
 40
0.5772834874
100
AcDbArc
 50
141.9142680092
 51
143.3960495018
  0
ARC
  5
2A2
100
AcDbEntity
  8
0
100
AcDbCircle
 62
7
  6
CONTINUOUS
 10
9.7066360901
 20
8.8848095716
 40
0.3701204601
100
AcDbArc
 50
149.4563109989
 51
159.555484821
  0
ARC
  5
2A3
100
AcDbEntity
  8
0
100
AcDbCircle
 62
7
  6
CONTINUOUS
 10
11.8492754061
 20
7.682471013
 40
0.3191611503
100
AcDbArc
 50
180.0000856314
 51
180.3458113483
  0
ARC
  5
2A4
100
AcDbEntity
  8
0
100
AcDbCircle
 62
7
  6
CONTINUOUS
 10
11.8442141881
 20
7.6825939717
 40
0.3140999565
100
AcDbArc
 50
171.1120971868
 51
180.0224663654
  0
ARC
  5
2A5
100
AcDbEntity
  8
0
100
AcDbCircle
 62
7
  6
CONTINUOUS
 10
13.197482367
 20
9.2341572223
 40
0.1725364891
100
AcDbArc
 50
31.1044673523
 51
32.3963659069
  0
ARC
  5
2A6
100
AcDbEntity
  8
0
100
AcDbCircle
 62
7
  6
CONTINUOUS
 10
9.4953653186
 20
8.9805377314
 40
0.139756458
100
AcDbArc
 50
166.1775959252
 51
166.538535456
  0
SPLINE
  5
2A7
100
AcDbEntity
  8
0
100
AcDbSpline
 62
7
  6
CONTINUOUS
 70
0
 71
3
 72
9
 73
5
 74
0
 42
0.0000001
 43
0.0000001
 44
0.0000000001
 40
0.0
 40
0.0
 40
0.0
 40
0.0
 40
0.2423492772
 40
1.0
 40
1.0
 40
1.0
 40
1.0
 10
13.693766408
 20
8.0603300421
 30
0.0
 10
13.694374243
 20
8.0608172006
 30
0.0
 10
13.6968568314
 20
8.0628590917
 30
0.0
 10
13.6992388481
 20
8.0650222682
 30
0.0
 10
13.7009904202
 20
8.066714157
 30
0.0
  0
SPLINE
  5
2A8
100
AcDbEntity
  8
0
100
AcDbSpline
 62
7
  6
CONTINUOUS
 70
0
 71
3
 72
9
 73
5
 74
0
 42
0.0000001
 43
0.0000001
 44
0.0000000001
 40
0.0
 40
0.0
 40
0.0
 40
0.0
 40
0.2424516602
 40
1.0
 40
1.0
 40
1.0
 40
1.0
 10
13.7009904202
 20
8.066714157
 30
0.0
 10
13.7015988189
 20
8.067301825
 30
0.0
 10
13.7040821093
 20
8.0697526107
 30
0.0
 10
13.7064632334
 20
8.0723062307
 30
0.0
 10
13.7082144324
 20
8.0742857628
 30
0.0
  0
SPLINE
  5
2A9
100
AcDbEntity
  8
0
100
AcDbSpline
 62
7
  6
CONTINUOUS
 70
0
 71
3
 72
9
 73
5
 74
0
 42
0.0000001
 43
0.0000001
 44
0.0000000001
 40
0.0
 40
0.0
 40
0.0
 40
0.0
 40
0.5035395631
 40
1.0
 40
1.0
 40
1.0
 40
1.0
 10
13.7082144324
 20
8.0742857628
 30
0.0
 10
13.7160652775
 20
8.0854007937
 30
0.0
 10
13.7312752424
 20
8.107747325
 30
0.0
 10
13.7455627071
 20
8.1306986282
 30
0.0
 10
13.7523805821
 20
8.1422539768
 30
0.0
  0
SPLINE
  5
2AA
100
AcDbEntity
  8
0
100
AcDbSpline
 62
7
  6
CONTINUOUS
 70
0
 71
3
 72
14
 73
10
 74
0
 42
0.0000001
 43
0.0000001
 44
0.0000000001
 40
0.0
 40
0.0
 40
0.0
 40
0.0
 40
0.1110767533
 40
0.2264627986
 40
0.3460176958
 40
0.4695754557
 40
0.5969534589
 40
0.72795519
 40
1.0
 40
1.0
 40
1.0
 40
1.0
 10
13.2324755267
 20
8.1396733336
 30
0.0
 10
13.2351200967
 20
8.1374504165
 30
0.0
 10
13.24058417
 20
8.1330038646
 30
0.0
 10
13.2491189815
 20
8.126446416
 30
0.0
 10
13.2581281765
 20
8.1198751101
 30
0.0
 10
13.2675876905
 20
8.1132935051
 30
0.0
 10
13.2774727089
 20
8.1067044202
 30
0.0
 10
13.2913615565
 20
8.0978003272
 30
0.0
 10
13.3020772463
 20
8.0912908018
 30
0.0
 10
13.3093629667
 20
8.0869885113
 30
0.0
  0
SPLINE
  5
2AB
100
AcDbEntity
  8
0
100
AcDbSpline
 62
7
  6
CONTINUOUS
 70
0
 71
3
 72
23
 73
19
 74
0
 42
0.0000001
 43
0.0000001
 44
0.0000000001
 40
0.0
 40
0.0
 40
0.0
 40
0.0
 40
0.0432903358
 40
0.0886111095
 40
0.1362135929
 40
0.1863092711
 40
0.2390678977
 40
0.2946076476
 40
0.3530023406
 40
0.4142746704
 40
0.4784099503
 40
0.5453523313
 40
0.6150199742
 40
0.6873039377
 40
0.76208146
 40
0.8392182661
 40
0.9185728956
 40
1.0
 40
1.0
 40
1.0
 40
1.0
 10
13.8335457745
 20
9.1855926834
 30
0.0
 10
13.832599352
 20
9.1878688906
 30
0.0
 10
13.8304784483
 20
9.1924535838
 30
0.0
 10
13.8267143877
 20
9.1992425375
 30
0.0
 10
13.8222873877
 20
9.2060852981
 30
0.0
 10
13.8171902166
 20
9.2129780094
 30
0.0
 10
13.8114203383
 20
9.2199163722
 30
0.0
 10
13.8049823372
 20
9.2268966454
 30
0.0
 10
13.797885395
 20
9.2339134786
 30
0.0
 10
13.7901454562
 20
9.2409628803
 30
0.0
 10
13.7817821358
 20
9.2480391744
 30
0.0
 10
13.7728203119
 20
9.2551384006
 30
0.0
 10
13.7632871357
 20
9.2622552655
 30
0.0
 10
13.7532129308
 20
9.2693861656
 30
0.0
 10
13.7426287211
 20
9.2765267784
 30
0.0
 10
13.7315666704
 20
9.2836740688
 30
0.0
 10
13.7200587463
 20
9.2908248037
 30
0.0
 10
13.7122070595
 20
9.295534606
 30
0.0
 10
13.7082144324
 20
9.2978922921
 30
0.0
  0
SPLINE
  5
2AC
100
AcDbEntity
  8
0
100
AcDbSpline
 62
7
  6
CONTINUOUS
 70
0
 71
3
 72
47
 73
43
 74
0
 42
0.0000001
 43
0.0000001
 44
0.0000000001
 40
0.0
 40
0.0
 40
0.0
 40
0.0
 40
0.0097390474
 40
0.0199698054
 40
0.0306887706
 40
0.0418911797
 40
0.0535705278
 40
0.0657187093
 40
0.0783268726
 40
0.0913848251
 40
0.1188026063
 40
0.1478725169
 40
0.1784807562
 40
0.2105024129
 40
0.2438034215
 40
0.2782411642
 40
0.3136659887
 40
0.3499225137
 40
0.3868501632
 40
0.4242845303
 40
0.4620583808
 40
0.5000024026
 40
0.537946423
 40
0.5757202051
 40
0.6131544659
 40
0.6500819745
 40
0.6863382449
 40
0.7217628641
 40
0.7562003755
 40
0.7895009924
 40
0.8215223322
 40
0.8521302096
 40
0.8811996138
 40
0.9086170193
 40
0.9216746676
 40
0.9342827067
 40
0.9464306368
 40
0.9581096421
 40
0.9693118429
 40
0.9800304705
 40
0.9902609046
 40
1.0
 40
1.0
 40
1.0
 40
1.0
 10
13.7726079618
 20
8.1765491567
 30
0.0
 10
13.7742758568
 20
8.1793771502
 30
0.0
 10
13.7775934005
 20
8.1852368056
 30
0.0
 10
13.7824081621
 20
8.1943954726
 30
0.0
 10
13.7871788456
 20
8.204129677
 30
0.0
 10
13.7918993336
 20
8.2144278718
 30
0.0
 10
13.796564011
 20
8.2252778621
 30
0.0
 10
13.801167543
 20
8.2366666457
 30
0.0
 10
13.805704234
 20
8.2485808237
 30
0.0
 10
13.8117553875
 20
8.2654231664
 30
0.0
 10
13.8190896637
 20
8.2876965534
 30
0.0
 10
13.8274042268
 20
8.3158604386
 30
0.0
 10
13.8353292611
 20
8.3457447409
 30
0.0
 10
13.8428266832
 20
8.3772068809
 30
0.0
 10
13.8498600067
 20
8.4100970671
 30
0.0
 10
13.8563953874
 20
8.4442583292
 30
0.0
 10
13.862401464
 20
8.4795275286
 30
0.0
 10
13.86784907
 20
8.5157361996
 30
0.0
 10
13.8727120926
 20
8.5527112841
 30
0.0
 10
13.8769672763
 20
8.5902759922
 30
0.0
 10
13.8805939531
 20
8.6282507374
 30
0.0
 10
13.8835748474
 20
8.6664539345
 30
0.0
 10
13.8858957944
 20
8.7047028754
 30
0.0
 10
13.8875454785
 20
8.7428146593
 30
0.0
 10
13.888516201
 20
8.7806070326
 30
0.0
 10
13.8888035036
 20
8.8178992673
 30
0.0
 10
13.8884059027
 20
8.8545130809
 30
0.0
 10
13.8873256347
 20
8.8902734735
 30
0.0
 10
13.885568179
 20
8.9250095502
 30
0.0
 10
13.8831419672
 20
8.9585554019
 30
0.0
 10
13.8800591339
 20
8.9907509033
 30
0.0
 10
13.8763349668
 20
9.0214426566
 30
0.0
 10
13.8719873518
 20
9.0504841764
 30
0.0
 10
13.8677978513
 20
9.0735563411
 30
0.0
 10
13.8641292431
 20
9.0910724073
 30
0.0
 10
13.8612805938
 20
9.1034985307
 30
0.0
 10
13.8582931066
 20
9.1154134753
 30
0.0
 10
13.8551706176
 20
9.1268031703
 30
0.0
 10
13.8519169217
 20
9.1376540909
 30
0.0
 10
13.8485355527
 20
9.1479533233
 30
0.0
 10
13.8450309277
 20
9.157688642
 30
0.0
 10
13.8425539353
 20
9.1639500241
 30
0.0
 10
13.8412923161
 20
9.1669811698
 30
0.0
  0
SPLINE
  5
2AD
100
AcDbEntity
  8
0
100
AcDbSpline
 62
7
  6
CONTINUOUS
 70
0
 71
3
 72
71
 73
67
 74
0
 42
0.0000001
 43
0.0000001
 44
0.0000000001
 40
0.0
 40
0.0
 40
0.0
 40
0.0
 40
0.0086181769
 40
0.0180358616
 40
0.0282774586
 40
0.0393565278
 40
0.0512781193
 40
0.0640379079
 40
0.0776250778
 40
0.0920232712
 40
0.1072117669
 40
0.1231658877
 40
0.1398572575
 40
0.1572547554
 40
0.1753241015
 40
0.1940290556
 40
0.2133305876
 40
0.2331882383
 40
0.2743982911
 40
0.3173016118
 40
0.3615185692
 40
0.4066539401
 40
0.4523018244
 40
0.498050443
 40
0.543486841
 40
0.5882016236
 40
0.6317937783
 40
0.6530475103
 40
0.6738765743
 40
0.6942351706
 40
0.7140793344
 40
0.7333664045
 40
0.7520557961
 40
0.7701087697
 40
0.7874888656
 40
0.8041621724
 40
0.8200973098
 40
0.8352663455
 40
0.8496443226
 40
0.8632109019
 40
0.875949623
 40
0.8878502973
 40
0.8989084674
 40
0.9091286382
 40
0.9185247606
 40
0.9229228386
 40
0.9271266988
 40
0.9311424085
 40
0.9349775089
 40
0.9386412763
 40
0.9421446752
 40
0.9487194012
 40
0.9518277284
 40
0.9548406465
 40
0.9577799033
 40
0.9606691014
 40
0.9635332525
 40
0.9663980381
 40
0.9692890983
 40
0.9722313645
 40
0.9752484317
 40
0.9783620293
 40
0.9849505497
 40
0.9884623794
 40
0.9921350537
 40
1.0
 40
1.0
 40
1.0
 40
1.0
 10
13.7450469481
 20
9.2121447019
 30
0.0
 10
13.7425877792
 20
9.209769327
 30
0.0
 10
13.7376848032
 20
9.2045431498
 30
0.0
 10
13.730668065
 20
9.1957788504
 30
0.0
 10
13.723687573
 20
9.1857702331
 30
0.0
 10
13.7167592023
 20
9.1745418642
 30
0.0
 10
13.7098985769
 20
9.1621184621
 30
0.0
 10
13.7031210204
 20
9.1485287953
 30
0.0
 10
13.6964431855
 20
9.1338044364
 30
0.0
 10
13.6898808972
 20
9.1179802854
 30
0.0
 10
13.6834500206
 20
9.1010938548
 30
0.0
 10
13.6771661321
 20
9.0831853643
 30
0.0
 10
13.6710442605
 20
9.0642976121
 30
0.0
 10
13.6650995492
 20
9.0444758058
 30
0.0
 10
13.6593459781
 20
9.0237675055
 30
0.0
 10
13.6537979838
 20
9.0022224027
 30
0.0
 10
13.6484683861
 20
8.9798922524
 30
0.0
 10
13.6415865171
 20
8.9487579871
 30
0.0
 10
13.6336518447
 20
8.9082732691
 30
0.0
 10
13.6253025868
 20
8.8580442436
 30
0.0
 10
13.618093434
 20
8.8060665279
 30
0.0
 10
13.6120943851
 20
8.7528398611
 30
0.0
 10
13.607363633
 20
8.6988756579
 30
0.0
 10
13.6039468712
 20
8.6446927517
 30
0.0
 10
13.6018768357
 20
8.5908119739
 30
0.0
 10
13.601173237
 20
8.5377516266
 30
0.0
 10
13.6017348032
 20
8.4942838775
 30
0.0
 10
13.6028898884
 20
8.4603130741
 30
0.0
 10
13.6040904087
 20
8.4355691407
 30
0.0
 10
13.605629662
 20
8.4114042635
 30
0.0
 10
13.6075036002
 20
8.3878765839
 30
0.0
 10
13.6097078874
 20
8.3650426697
 30
0.0
 10
13.6122369812
 20
8.342957444
 30
0.0
 10
13.615084751
 20
8.3216739622
 30
0.0
 10
13.6182443147
 20
8.3012433429
 30
0.0
 10
13.6217077494
 20
8.2817145938
 30
0.0
 10
13.6254669378
 20
8.2631345071
 30
0.0
 10
13.6295122282
 20
8.2455474895
 30
0.0
 10
13.6338343743
 20
8.2289955032
 30
0.0
 10
13.6384221436
 20
8.2135177864
 30
0.0
 10
13.643265303
 20
8.1991509516
 30
0.0
 10
13.6483513452
 20
8.1859285203
 30
0.0
 10
13.6536693864
 20
8.1738810202
 30
0.0
 10
13.659206206
 20
8.1630362709
 30
0.0
 10
13.6640960583
 20
8.1548487172
 30
0.0
 10
13.6681225408
 20
8.1489497327
 30
0.0
 10
13.6711223034
 20
8.1449402054
 30
0.0
 10
13.6741671506
 20
8.141249771
 30
0.0
 10
13.6772554643
 20
8.1378808235
 30
0.0
 10
13.6803860019
 20
8.1348348505
 30
0.0
 10
13.6845247481
 20
8.1312830442
 30
0.0
 10
13.6888352275
 20
8.1282778698
 30
0.0
 10
13.6932932173
 20
8.1259226265
 30
0.0
 10
13.6966084172
 20
8.1245208629
 30
0.0
 10
13.6999548085
 20
8.1234529577
 30
0.0
 10
13.7033302063
 20
8.1227204749
 30
0.0
 10
13.7067317383
 20
8.1223241634
 30
0.0
 10
13.7101564855
 20
8.1222642295
 30
0.0
 10
13.7136015421
 20
8.1225405996
 30
0.0
 10
13.7170640299
 20
8.1231529574
 30
0.0
 10
13.7205415588
 20
8.124100419
 30
0.0
 10
13.7252833694
 20
8.1258407762
 30
0.0
 10
13.7299680585
 20
8.1282444637
 30
0.0
 10
13.7345581354
 20
8.1312129898
 30
0.0
 10
13.7393629338
 20
8.134762757
 30
0.0
 10
13.7428027112
 20
8.1377992046
 30
0.0
 10
13.7450469481
 20
8.1399669712
 30
0.0
  0
SPLINE
  5
2AE
100
AcDbEntity
  8
0
100
AcDbSpline
 62
7
  6
CONTINUOUS
 70
0
 71
3
 72
11
 73
7
 74
0
 42
0.0000001
 43
0.0000001
 44
0.0000000001
 40
0.0
 40
0.0
 40
0.0
 40
0.0
 40
0.2194295797
 40
0.4588777944
 40
0.7189534041
 40
1.0
 40
1.0
 40
1.0
 40
1.0
 10
13.7450469481
 20
8.1399669712
 30
0.0
 10
13.7474631693
 20
8.1423008617
 30
0.0
 10
13.7522810861
 20
8.1474276742
 30
0.0
 10
13.759181742
 20
8.1560133911
 30
0.0
 10
13.7660478305
 20
8.1658028776
 30
0.0
 10
13.770422173
 20
8.1728430501
 30
0.0
 10
13.7726079618
 20
8.1765491567
 30
0.0
  0
SPLINE
  5
2AF
100
AcDbEntity
  8
0
100
AcDbSpline
 62
7
  6
CONTINUOUS
 70
0
 71
3
 72
9
 73
5
 74
0
 42
0.0000001
 43
0.0000001
 44
0.0000000001
 40
0.0
 40
0.0
 40
0.0
 40
0.0
 40
0.2424516602
 40
1.0
 40
1.0
 40
1.0
 40
1.0
 10
13.7009904202
 20
9.2915081773
 30
0.0
 10
13.7003820215
 20
9.2909205092
 30
0.0
 10
13.6978987311
 20
9.2884697235
 30
0.0
 10
13.695517607
 20
9.2859161035
 30
0.0
 10
13.693766408
 20
9.2839365714
 30
0.0
  0
SPLINE
  5
2B0
100
AcDbEntity
  8
0
100
AcDbSpline
 62
7
  6
CONTINUOUS
 70
0
 71
3
 72
9
 73
5
 74
0
 42
0.0000001
 43
0.0000001
 44
0.0000000001
 40
0.0
 40
0.0
 40
0.0
 40
0.0
 40
0.2423492772
 40
1.0
 40
1.0
 40
1.0
 40
1.0
 10
13.7082144324
 20
9.2978922921
 30
0.0
 10
13.7076065974
 20
9.2974051336
 30
0.0
 10
13.705124009
 20
9.2953632426
 30
0.0
 10
13.7027419922
 20
9.2932000661
 30
0.0
 10
13.7009904202
 20
9.2915081773
 30
0.0
  0
SPLINE
  5
2B1
100
AcDbEntity
  8
0
100
AcDbSpline
 62
7
  6
CONTINUOUS
 70
0
 71
3
 72
23
 73
19
 74
0
 42
0.0000001
 43
0.0000001
 44
0.0000000001
 40
0.0
 40
0.0
 40
0.0
 40
0.0
 40
0.0586500584
 40
0.1174971748
 40
0.1766041375
 40
0.2360481059
 40
0.2959121929
 40
0.3562840494
 40
0.417251051
 40
0.4788922537
 40
0.5412731263
 40
0.604440809
 40
0.668420163
 40
0.7332144894
 40
0.7988073735
 40
0.8651659572
 40
0.9322480423
 40
1.0
 40
1.0
 40
1.0
 40
1.0
 10
13.693766408
 20
9.2839365714
 30
0.0
 10
13.6941624944
 20
9.2753691498
 30
0.0
 10
13.6946608775
 20
9.2581900966
 30
0.0
 10
13.6944393949
 20
9.2323593547
 30
0.0
 10
13.6931612604
 20
9.2064416385
 30
0.0
 10
13.6907393988
 20
9.1804553072
 30
0.0
 10
13.6870948148
 20
9.1544243074
 30
0.0
 10
13.682161947
 20
9.1283789644
 30
0.0
 10
13.6758919989
 20
9.1023549621
 30
0.0
 10
13.6682600042
 20
9.0763909849
 30
0.0
 10
13.6592669859
 20
9.0505259289
 30
0.0
 10
13.6489378816
 20
9.0247968141
 30
0.0
 10
13.6373216096
 20
8.9992355619
 30
0.0
 10
13.6244869555
 20
8.9738670146
 30
0.0
 10
13.6105150428
 20
8.9487092221
 30
0.0
 10
13.5954954193
 20
8.9237724009
 30
0.0
 10
13.5795214776
 20
8.8990604705
 30
0.0
 10
13.5683490403
 20
8.8828107591
 30
0.0
 10
13.5626331102
 20
8.8747182876
 30
0.0
  0
SPLINE
  5
2B2
100
AcDbEntity
  8
0
100
AcDbSpline
 62
7
  6
CONTINUOUS
 70
0
 71
3
 72
21
 73
17
 74
0
 42
0.0000001
 43
0.0000001
 44
0.0000000001
 40
0.0
 40
0.0
 40
0.0
 40
0.0
 40
0.1269527041
 40
0.1902689165
 40
0.2534593491
 40
0.3165116873
 40
0.37941528
 40
0.4421620112
 40
0.5047460954
 40
0.5671657261
 40
0.6294227274
 40
0.6915221182
 40
0.7534726662
 40
0.8152847883
 40
0.8769699244
 40
1.0
 40
1.0
 40
1.0
 40
1.0
 10
13.555409098
 20
8.8210436372
 30
0.0
 10
13.561537546
 20
8.79761248
 30
0.0
 10
13.5699145617
 20
8.7622721906
 30
0.0
 10
13.5790858075
 20
8.7147907775
 30
0.0
 10
13.5848631898
 20
8.6790858449
 30
0.0
 10
13.5894605346
 20
8.643288755
 30
0.0
 10
13.5928045919
 20
8.6074370602
 30
0.0
 10
13.5948363899
 20
8.5715760038
 30
0.0
 10
13.5955188605
 20
8.5357559102
 30
0.0
 10
13.5948399493
 20
8.5000291241
 30
0.0
 10
13.5928114125
 20
8.4644463547
 30
0.0
 10
13.58947006
 20
8.4290531466
 30
0.0
 10
13.584874756
 20
8.3938872177
 30
0.0
 10
13.5790986492
 20
8.3589763525
 30
0.0
 10
13.5699446322
 20
8.3128387405
 30
0.0
 10
13.561556674
 20
8.2785887807
 30
0.0
 10
13.555409098
 20
8.2559371626
 30
0.0
  0
SPLINE
  5
2B3
100
AcDbEntity
  8
0
100
AcDbSpline
 62
7
  6
CONTINUOUS
 70
0
 71
3
 72
24
 73
20
 74
0
 42
0.0000001
 43
0.0000001
 44
0.0000000001
 40
0.0
 40
0.0
 40
0.0
 40
0.0
 40
0.0913270067
 40
0.1792345887
 40
0.2633975065
 40
0.3435123174
 40
0.419314425
 40
0.4906094671
 40
0.5245345675
 40
0.5573078303
 40
0.6194264789
 40
0.67715515
 40
0.7308292085
 40
0.7809307172
 40
0.8280591397
 40
0.8728796032
 40
0.9160685661
 40
0.9582602556
 40
1.0
 40
1.0
 40
1.0
 40
1.0
 10
13.5626331102
 20
8.2162182329
 30
0.0
 10
13.5682768804
 20
8.2128855303
 30
0.0
 10
13.5792899823
 20
8.206236951
 30
0.0
 10
13.5952421442
 20
8.1960909653
 30
0.0
 10
13.6102416916
 20
8.1859580794
 30
0.0
 10
13.6241978977
 20
8.1758475033
 30
0.0
 10
13.6370234477
 20
8.1657699885
 30
0.0
 10
13.6468608547
 20
8.1572748636
 30
0.0
 10
13.6540785455
 20
8.1504917698
 30
0.0
 10
13.6606233181
 20
8.1439608105
 30
0.0
 10
13.6680037245
 20
8.1358545994
 30
0.0
 10
13.6756759669
 20
8.1260283005
 30
0.0
 10
13.6819958762
 20
8.1162922362
 30
0.0
 10
13.6869818925
 20
8.1066566234
 30
0.0
 10
13.6906748631
 20
8.0971317987
 30
0.0
 10
13.6931336891
 20
8.0877277555
 30
0.0
 10
13.6944337957
 20
8.078453108
 30
0.0
 10
13.694663096
 20
8.0693146568
 30
0.0
 10
13.6941624797
 20
8.0632993015
 30
0.0
 10
13.693766408
 20
8.0603300421
 30
0.0
  0
SPLINE
  5
2B4
100
AcDbEntity
  8
0
100
AcDbSpline
 62
7
  6
CONTINUOUS
 70
0
 71
3
 72
9
 73
5
 74
0
 42
0.0000001
 43
0.0000001
 44
0.0000000001
 40
0.0
 40
0.0
 40
0.0
 40
0.0
 40
0.5156474505
 40
1.0
 40
1.0
 40
1.0
 40
1.0
 10
13.8412923161
 20
9.1669811698
 30
0.0
 10
13.8399328201
 20
9.1702474724
 30
0.0
 10
13.8371752802
 20
9.1765324151
 30
0.0
 10
13.8341417614
 20
9.1826898559
 30
0.0
 10
13.8325960549
 20
9.1856317152
 30
0.0
  0
SPLINE
  5
2B5
100
AcDbEntity
  8
0
100
AcDbSpline
 62
7
  6
CONTINUOUS
 70
0
 71
3
 72
27
 73
23
 74
0
 42
0.0000001
 43
0.0000001
 44
0.0000000001
 40
0.0
 40
0.0
 40
0.0
 40
0.0
 40
0.0862376397
 40
0.166476999
 40
0.2409287868
 40
0.3098931797
 40
0.3737956139
 40
0.4332053045
 40
0.4888618794
 40
0.5155840016
 40
0.5417313436
 40
0.5674464209
 40
0.5928800766
 40
0.6181886775
 40
0.6435307976
 40
0.669064262
 40
0.6949432855
 40
0.7482846378
 40
0.8046652017
 40
0.8649789148
 40
0.929919677
 40
1.0
 40
1.0
 40
1.0
 40
1.0
 10
13.8325960549
 20
9.1856317152
 30
0.0
 10
13.8310943575
 20
9.1884898145
 30
0.0
 10
13.8280551155
 20
9.1939355608
 30
0.0
 10
13.8231895795
 20
9.2015379236
 30
0.0
 10
13.8181907681
 20
9.2082652359
 30
0.0
 10
13.8130642744
 20
9.2141060957
 30
0.0
 10
13.807815622
 20
9.2190510857
 30
0.0
 10
13.8024506742
 20
9.2230900322
 30
0.0
 10
13.7978225309
 20
9.2257266514
 30
0.0
 10
13.7940912596
 20
9.2273429455
 30
0.0
 10
13.7913085393
 20
9.2283071839
 30
0.0
 10
13.7885055238
 20
9.2290385998
 30
0.0
 10
13.7856835412
 20
9.2295366376
 30
0.0
 10
13.7828441595
 20
9.2298011371
 30
0.0
 10
13.7799889559
 20
9.2298320342
 30
0.0
 10
13.7771193412
 20
9.2296292785
 30
0.0
 10
13.7732381428
 20
9.2290421632
 30
0.0
 10
13.7683219057
 20
9.2276960187
 30
0.0
 10
13.7624619153
 20
9.2251638896
 30
0.0
 10
13.7565869825
 20
9.2217092741
 30
0.0
 10
13.7507055068
 20
9.2173439444
 30
0.0
 10
13.7469340505
 20
9.2139675029
 30
0.0
 10
13.7450469481
 20
9.2121447019
 30
0.0
  0
SPLINE
  5
2B6
100
AcDbEntity
  8
0
100
AcDbSpline
 62
7
  6
CONTINUOUS
 70
0
 71
3
 72
21
 73
17
 74
0
 42
0.0000001
 43
0.0000001
 44
0.0000000001
 40
0.0
 40
0.0
 40
0.0
 40
0.0
 40
0.1273176984
 40
0.2537999461
 40
0.3167619614
 40
0.3795355204
 40
0.4421314992
 40
0.5045621453
 40
0.5668413456
 40
0.6289845231
 40
0.6910084433
 40
0.7529310869
 40
0.8147714401
 40
0.8765493236
 40
0.9382852134
 40
1.0
 40
1.0
 40
1.0
 40
1.0
 10
9.0870274467
 20
9.7136803432
 30
0.0
 10
9.0870274467
 20
9.7071819208
 30
0.0
 10
9.0864071288
 20
9.6942193531
 30
0.0
 10
9.0840643628
 20
9.6781948213
 30
0.0
 10
9.0812642608
 20
9.6656249793
 30
0.0
 10
9.0787107138
 20
9.6563534577
 30
0.0
 10
9.0757066185
 20
9.6472466864
 30
0.0
 10
9.0722589009
 20
9.6383253997
 30
0.0
 10
9.0683755098
 20
9.6296102312
 30
0.0
 10
9.0640653214
 20
9.6211212951
 30
0.0
 10
9.0593383066
 20
9.6128781595
 30
0.0
 10
9.0542053667
 20
9.6048998218
 30
0.0
 10
9.0486782898
 20
9.5972047437
 30
0.0
 10
9.0427697875
 20
9.589810598
 30
0.0
 10
9.0364937482
 20
9.5827346424
 30
0.0
 10
9.0320734497
 20
9.5782395787
 30
0.0
 10
9.0298078023
 20
9.5760511448
 30
0.0
  0
SPLINE
  5
2B7
100
AcDbEntity
  8
0
100
AcDbSpline
 62
7
  6
CONTINUOUS
 70
0
 71
3
 72
21
 73
17
 74
0
 42
0.0000001
 43
0.0000001
 44
0.0000000001
 40
0.0
 40
0.0
 40
0.0
 40
0.0
 40
0.1273176984
 40
0.2537999461
 40
0.3167619614
 40
0.3795355204
 40
0.4421314992
 40
0.5045621453
 40
0.5668413456
 40
0.6289845231
 40
0.6910084433
 40
0.7529310869
 40
0.8147714401
 40
0.8765493236
 40
0.9382852134
 40
1.0
 40
1.0
 40
1.0
 40
1.0
 10
12.9507308081
 20
9.445731605
 30
0.0
 10
12.9507308081
 20
9.4392331826
 30
0.0
 10
12.9501104902
 20
9.4262706149
 30
0.0
 10
12.9477677242
 20
9.4102460831
 30
0.0
 10
12.9449676221
 20
9.3976762411
 30
0.0
 10
12.9424140752
 20
9.3884047195
 30
0.0
 10
12.9394099798
 20
9.3792979482
 30
0.0
 10
12.9359622622
 20
9.3703766615
 30
0.0
 10
12.9320788712
 20
9.361661493
 30
0.0
 10
12.9277686827
 20
9.3531725569
 30
0.0
 10
12.9230416679
 20
9.3449294213
 30
0.0
 10
12.9179087281
 20
9.3369510836
 30
0.0
 10
12.9123816511
 20
9.3292560055
 30
0.0
 10
12.9064731489
 20
9.3218618598
 30
0.0
 10
12.9001971096
 20
9.3147859042
 30
0.0
 10
12.8957768111
 20
9.3102908406
 30
0.0
 10
12.8935111637
 20
9.3081024066
 30
0.0
  0
SPLINE
  5
2B8
100
AcDbEntity
  8
0
100
AcDbSpline
 62
7
  6
CONTINUOUS
 70
0
 71
3
 72
21
 73
17
 74
0
 42
0.0000001
 43
0.0000001
 44
0.0000000001
 40
0.0
 40
0.0
 40
0.0
 40
0.0
 40
0.1273176984
 40
0.2537999461
 40
0.3167619614
 40
0.3795355204
 40
0.4421314992
 40
0.5045621453
 40
0.5668413456
 40
0.6289845231
 40
0.6910084433
 40
0.7529310869
 40
0.8147714401
 40
0.8765493236
 40
0.9382852134
 40
1.0
 40
1.0
 40
1.0
 40
1.0
 10
12.9507308081
 20
6.7875034833
 30
0.0
 10
12.9507308081
 20
6.7810050609
 30
0.0
 10
12.9501104902
 20
6.7680424932
 30
0.0
 10
12.9477677242
 20
6.7520179613
 30
0.0
 10
12.9449676221
 20
6.7394481194
 30
0.0
 10
12.9424140752
 20
6.7301765978
 30
0.0
 10
12.9394099798
 20
6.7210698265
 30
0.0
 10
12.9359622622
 20
6.7121485398
 30
0.0
 10
12.9320788712
 20
6.7034333713
 30
0.0
 10
12.9277686827
 20
6.6949444351
 30
0.0
 10
12.9230416679
 20
6.6867012996
 30
0.0
 10
12.9179087281
 20
6.6787229619
 30
0.0
 10
12.9123816511
 20
6.6710278838
 30
0.0
 10
12.9064731489
 20
6.6636337381
 30
0.0
 10
12.9001971096
 20
6.6565577825
 30
0.0
 10
12.8957768111
 20
6.6520627188
 30
0.0
 10
12.8935111637
 20
6.6498742849
 30
0.0
  0
SPLINE
  5
2B9
100
AcDbEntity
  8
0
100
AcDbSpline
 62
7
  6
CONTINUOUS
 70
0
 71
3
 72
21
 73
17
 74
0
 42
0.0000001
 43
0.0000001
 44
0.0000000001
 40
0.0
 40
0.0
 40
0.0
 40
0.0
 40
0.1273176984
 40
0.2537999461
 40
0.3167619614
 40
0.3795355204
 40
0.4421314992
 40
0.5045621453
 40
0.5668413456
 40
0.6289845231
 40
0.6910084433
 40
0.7529310869
 40
0.8147714401
 40
0.8765493236
 40
0.9382852134
 40
1.0
 40
1.0
 40
1.0
 40
1.0
 10
9.0870274467
 20
7.0554522215
 30
0.0
 10
9.0870274467
 20
7.0489537991
 30
0.0
 10
9.0864071288
 20
7.0359912314
 30
0.0
 10
9.0840643628
 20
7.0199666995
 30
0.0
 10
9.0812642608
 20
7.0073968576
 30
0.0
 10
9.0787107138
 20
6.998125336
 30
0.0
 10
9.0757066185
 20
6.9890185647
 30
0.0
 10
9.0722589009
 20
6.980097278
 30
0.0
 10
9.0683755098
 20
6.9713821095
 30
0.0
 10
9.0640653214
 20
6.9628931733
 30
0.0
 10
9.0593383066
 20
6.9546500378
 30
0.0
 10
9.0542053667
 20
6.9466717001
 30
0.0
 10
9.0486782898
 20
6.938976622
 30
0.0
 10
9.0427697875
 20
6.9315824762
 30
0.0
 10
9.0364937482
 20
6.9245065207
 30
0.0
 10
9.0320734497
 20
6.920011457
 30
0.0
 10
9.0298078023
 20
6.9178230231
 30
0.0
  0
SPLINE
  5
2BA
100
AcDbEntity
  8
0
100
AcDbSpline
 62
7
  6
CONTINUOUS
 70
0
 71
3
 72
15
 73
11
 74
0
 42
0.0000001
 43
0.0000001
 44
0.0000000001
 40
0.0
 40
0.0
 40
0.0
 40
0.0
 40
0.1273483438
 40
0.2538606048
 40
0.3795878922
 40
0.5046051199
 40
0.6290174392
 40
0.7529533668
 40
0.8765605676
 40
1.0
 40
1.0
 40
1.0
 40
1.0
 10
10.3161681284
 20
9.6892924718
 30
0.0
 10
10.3161681284
 20
9.6849653076
 30
0.0
 10
10.3157549665
 20
9.6763334058
 30
0.0
 10
10.3138864852
 20
9.6635515759
 30
0.0
 10
10.3107882303
 20
9.6510909119
 30
0.0
 10
10.3064881931
 20
9.6390679455
 30
0.0
 10
10.301025813
 20
9.6275935605
 30
0.0
 10
10.2944508804
 20
9.6167737217
 30
0.0
 10
10.2868252469
 20
9.6067097876
 30
0.0
 10
10.2810835174
 20
9.6005621952
 30
0.0
 10
10.2780667045
 20
9.5976482018
 30
0.0
  0
SPLINE
  5
2BB
100
AcDbEntity
  8
0
100
AcDbSpline
 62
7
  6
CONTINUOUS
 70
0
 71
3
 72
15
 73
11
 74
0
 42
0.0000001
 43
0.0000001
 44
0.0000000001
 40
0.0
 40
0.0
 40
0.0
 40
0.0
 40
0.1273483438
 40
0.2538606048
 40
0.3795878922
 40
0.5046051199
 40
0.6290174392
 40
0.7529533668
 40
0.8765605676
 40
1.0
 40
1.0
 40
1.0
 40
1.0
 10
10.9208376615
 20
6.8674237555
 30
0.0
 10
10.9208376615
 20
6.8630965912
 30
0.0
 10
10.9204244996
 20
6.8544646894
 30
0.0
 10
10.9185560183
 20
6.8416828595
 30
0.0
 10
10.9154577634
 20
6.8292221956
 30
0.0
 10
10.9111577261
 20
6.8171992292
 30
0.0
 10
10.9056953461
 20
6.8057248441
 30
0.0
 10
10.8991204135
 20
6.7949050053
 30
0.0
 10
10.8914947799
 20
6.7848410712
 30
0.0
 10
10.8857530504
 20
6.7786934788
 30
0.0
 10
10.8827362376
 20
6.7757794854
 30
0.0
  0
SPLINE
  5
2BC
100
AcDbEntity
  8
0
100
AcDbSpline
 62
7
  6
CONTINUOUS
 70
0
 71
3
 72
15
 73
11
 74
0
 42
0.0000001
 43
0.0000001
 44
0.0000000001
 40
0.0
 40
0.0
 40
0.0
 40
0.0
 40
0.127347711
 40
0.2538606874
 40
0.3795878987
 40
0.5046050998
 40
0.6290174656
 40
0.7529533976
 40
0.8765605982
 40
1.0
 40
1.0
 40
1.0
 40
1.0
 10
11.8717918578
 20
9.5205562754
 30
0.0
 10
11.8717918578
 20
9.5181540748
 30
0.0
 10
11.8715624955
 20
9.5133620992
 30
0.0
 10
11.8705252537
 20
9.5062662984
 30
0.0
 10
11.8688052981
 20
9.4993487779
 30
0.0
 10
11.8664181932
 20
9.4926742483
 30
0.0
 10
11.8633858378
 20
9.4863042454
 30
0.0
 10
11.8597358697
 20
9.4802975901
 30
0.0
 10
11.8555026031
 20
9.4747105686
 30
0.0
 10
11.8523151804
 20
9.4712976739
 30
0.0
 10
11.8506404219
 20
9.469679963
 30
0.0
  0
SPLINE
  5
2BD
100
AcDbEntity
  8
0
100
AcDbSpline
 62
7
  6
CONTINUOUS
 70
0
 71
3
 72
15
 73
11
 74
0
 42
0.0000001
 43
0.0000001
 44
0.0000000001
 40
0.0
 40
0.0
 40
0.0
 40
0.0
 40
0.127347711
 40
0.2538606874
 40
0.3795878987
 40
0.5046050998
 40
0.6290174656
 40
0.7529533976
 40
0.8765605982
 40
1.0
 40
1.0
 40
1.0
 40
1.0
 10
9.6549918814
 20
7.0160637541
 30
0.0
 10
9.6549918814
 20
7.0136615536
 30
0.0
 10
9.6547625191
 20
7.008869578
 30
0.0
 10
9.6537252773
 20
7.0017737772
 30
0.0
 10
9.6520053217
 20
6.9948562567
 30
0.0
 10
9.6496182169
 20
6.9881817271
 30
0.0
 10
9.6465858615
 20
6.9818117242
 30
0.0
 10
9.6429358933
 20
6.9758050689
 30
0.0
 10
9.6387026267
 20
6.9702180474
 30
0.0
 10
9.635515204
 20
6.9668051527
 30
0.0
 10
9.6338404456
 20
6.9651874418
 30
0.0
  0
SPLINE
  5
2BE
100
AcDbEntity
  8
0
100
AcDbSpline
 62
7
  6
CONTINUOUS
 70
0
 71
3
 72
37
 73
33
 74
0
 42
0.0000001
 43
0.0000001
 44
0.0000000001
 40
0.0
 40
0.0
 40
0.0
 40
0.0
 40
0.0309022894
 40
0.0464137109
 40
0.0619623436
 40
0.0931634379
 40
0.1244997716
 40
0.1402169466
 40
0.1559627163
 40
0.1875276974
 40
0.2191822997
 40
0.2509086638
 40
0.2826886173
 40
0.3145041604
 40
0.3463378609
 40
0.3781731527
 40
0.4099945447
 40
0.4417877531
 40
0.4735397696
 40
0.5052388806
 40
0.5368746519
 40
0.5684378893
 40
0.6312955024
 40
0.6937819827
 40
0.7558624283
 40
0.8175168201
 40
0.8481918383
 40
0.8787594004
 40
0.9092210334
 40
0.9395792048
 40
0.9698373671
 40
1.0
 40
1.0
 40
1.0
 40
1.0
 10
10.7851250749
 20
9.3939689299
 30
0.0
 10
10.7916839253
 20
9.393514072
 30
0.0
 10
10.8015146869
 20
9.3924681495
 30
0.0
 10
10.8145304601
 20
9.3903639739
 30
0.0
 10
10.8275251788
 20
9.3877808266
 30
0.0
 10
10.843636945
 20
9.3836699947
 30
0.0
 10
10.8594544911
 20
9.3784291211
 30
0.0
 10
10.871906335
 20
9.3735790174
 30
0.0
 10
10.8842308594
 20
9.3682893819
 30
0.0
 10
10.899327506
 20
9.3608871365
 30
0.0
 10
10.9168539449
 20
9.3508158974
 30
0.0
 10
10.9337372938
 20
9.3396176012
 30
0.0
 10
10.9499145168
 20
9.3273658779
 30
0.0
 10
10.9653315819
 20
9.3141361597
 30
0.0
 10
10.9799421467
 20
9.3000047148
 30
0.0
 10
10.9937071975
 20
9.2850474801
 30
0.0
 10
11.0065942818
 20
9.2693392408
 30
0.0
 10
11.0185767653
 20
9.2529530277
 30
0.0
 10
11.029633092
 20
9.2359596292
 30
0.0
 10
11.0397459577
 20
9.218427624
 30
0.0
 10
11.0489019813
 20
9.2004222493
 30
0.0
 10
11.0598029646
 20
9.1759076841
 30
0.0
 10
11.0710017796
 20
9.1443924748
 30
0.0
 10
11.0805101359
 20
9.1055994246
 30
0.0
 10
11.0860529831
 20
9.066303898
 30
0.0
 10
11.087359093
 20
9.0334175484
 30
0.0
 10
11.0864030712
 20
9.0072787557
 30
0.0
 10
11.084692232
 20
8.9878343733
 30
0.0
 10
11.0819869845
 20
8.9685716727
 30
0.0
 10
11.078288452
 20
8.9495413303
 30
0.0
 10
11.0735986724
 20
8.9307966845
 30
0.0
 10
11.0698066826
 20
8.9185059771
 30
0.0
 10
11.0677464079
 20
8.9124284598
 30
0.0
  0
SPLINE
  5
2BF
100
AcDbEntity
  8
0
100
AcDbSpline
 62
7
  6
CONTINUOUS
 70
0
 71
3
 72
37
 73
33
 74
0
 42
0.0000001
 43
0.0000001
 44
0.0000000001
 40
0.0
 40
0.0
 40
0.0
 40
0.0
 40
0.0324304938
 40
0.0648354635
 40
0.0972015465
 40
0.1295196974
 40
0.1617793593
 40
0.1939714266
 40
0.2260875098
 40
0.2581201639
 40
0.2900629701
 40
0.3219105445
 40
0.3536586047
 40
0.3853040044
 40
0.4168446937
 40
0.4482796841
 40
0.4796090279
 40
0.5108338281
 40
0.5419561346
 40
0.5729788613
 40
0.6039057449
 40
0.6347413328
 40
0.6654908458
 40
0.6961600932
 40
0.7267554589
 40
0.7572838402
 40
0.818152097
 40
0.878844312
 40
0.9091532931
 40
0.9394431842
 40
0.9697225579
 40
1.0
 40
1.0
 40
1.0
 40
1.0
 10
10.419171508
 20
7.7218250062
 30
0.0
 10
10.4224964873
 20
7.7179016545
 30
0.0
 10
10.4289524575
 20
7.7098935064
 30
0.0
 10
10.438029268
 20
7.6974280647
 30
0.0
 10
10.4464730732
 20
7.6845462751
 30
0.0
 10
10.4542619525
 20
7.6712850906
 30
0.0
 10
10.4613768954
 20
7.6576815726
 30
0.0
 10
10.4678014204
 20
7.6437740217
 30
0.0
 10
10.4735217681
 20
7.6296011672
 30
0.0
 10
10.4785268115
 20
7.6152020633
 30
0.0
 10
10.4828080273
 20
7.6006158184
 30
0.0
 10
10.4863594071
 20
7.5858813709
 30
0.0
 10
10.4891774017
 20
7.5710372942
 30
0.0
 10
10.4912608258
 20
7.556121611
 30
0.0
 10
10.4926106631
 20
7.5411716274
 30
0.0
 10
10.4932299318
 20
7.5262238143
 30
0.0
 10
10.4931235395
 20
7.511313697
 30
0.0
 10
10.4922981983
 20
7.4964757678
 30
0.0
 10
10.4907621888
 20
7.4817434273
 30
0.0
 10
10.4885252163
 20
7.4671489602
 30
0.0
 10
10.485598281
 20
7.452723507
 30
0.0
 10
10.4819936151
 20
7.4384970538
 30
0.0
 10
10.4777244479
 20
7.4244984231
 30
0.0
 10
10.4728049885
 20
7.4107554527
 30
0.0
 10
10.4672500382
 20
7.3972944703
 30
0.0
 10
10.4590270546
 20
7.3797771031
 30
0.0
 10
10.4472360951
 20
7.3586938033
 30
0.0
 10
10.433528841
 20
7.3388457804
 30
0.0
 10
10.4215062755
 20
7.3238245637
 30
0.0
 10
10.4119792728
 20
7.3130040284
 30
0.0
 10
10.401959557
 20
7.3026459196
 30
0.0
 10
10.3949641225
 20
7.2960609699
 30
0.0
 10
10.3913920581
 20
7.2928526479
 30
0.0
  0
SPLINE
  5
2C0
100
AcDbEntity
  8
0
100
AcDbSpline
 62
7
  6
CONTINUOUS
 70
0
 71
3
 72
23
 73
19
 74
0
 42
0.0000001
 43
0.0000001
 44
0.0000000001
 40
0.0
 40
0.0
 40
0.0
 40
0.0
 40
0.0639344303
 40
0.1275582351
 40
0.1908822765
 40
0.2539220903
 40
0.3166999909
 40
0.3792433795
 40
0.4415843811
 40
0.5037589166
 40
0.5658058131
 40
0.627765846
 40
0.6896807855
 40
0.7515924732
 40
0.8135419574
 40
0.8755687097
 40
0.9377099376
 40
1.0
 40
1.0
 40
1.0
 40
1.0
 10
11.7337948586
 20
7.4157147457
 30
0.0
 10
11.7337948586
 20
7.4081849969
 30
0.0
 10
11.7332657313
 20
7.3931565171
 30
0.0
 10
11.7308754958
 20
7.3707847928
 30
0.0
 10
11.7269047506
 20
7.348744584
 30
0.0
 10
11.7213766702
 20
7.3271455327
 30
0.0
 10
11.7143234911
 20
7.3060920763
 30
0.0
 10
11.7057857827
 20
7.2856848244
 30
0.0
 10
11.6958119812
 20
7.2660193104
 30
0.0
 10
11.6844576598
 20
7.2471855617
 30
0.0
 10
11.6717848216
 20
7.2292676116
 30
0.0
 10
11.6578611358
 20
7.2123431911
 30
0.0
 10
11.6427591946
 20
7.1964835339
 30
0.0
 10
11.6265557436
 20
7.1817532758
 30
0.0
 10
11.6093311325
 20
7.1682105335
 30
0.0
 10
11.5911681497
 20
7.1559067564
 30
0.0
 10
11.572153437
 20
7.1448877926
 30
0.0
 10
11.5589821407
 20
7.1384318499
 30
0.0
 10
11.5522879759
 20
7.1354307957
 30
0.0
  0
SPLINE
  5
2C1
100
AcDbEntity
  8
0
100
AcDbSpline
 62
7
  6
CONTINUOUS
 70
0
 71
3
 72
53
 73
49
 74
0
 42
0.0000001
 43
0.0000001
 44
0.0000000001
 40
0.0
 40
0.0
 40
0.0
 40
0.0
 40
0.0417740478
 40
0.0840369835
 40
0.1266585592
 40
0.1695065657
 40
0.2124481957
 40
0.2553501644
 40
0.2980793779
 40
0.3405034127
 40
0.3824910553
 40
0.4239128269
 40
0.4646415185
 40
0.5045527309
 40
0.5435254266
 40
0.5814424966
 40
0.6181913512
 40
0.6536645436
 40
0.6877604426
 40
0.7203839756
 40
0.7361162401
 40
0.7514482063
 40
0.7663702194
 40
0.7808732533
 40
0.7949489098
 40
0.808589482
 40
0.8217880323
 40
0.8345384043
 40
0.8468353889
 40
0.8586746951
 40
0.8700532057
 40
0.8809689358
 40
0.8914213732
 40
0.9014114696
 40
0.9109420597
 40
0.9200179488
 40
0.9286464106
 40
0.9368374402
 40
0.9446043453
 40
0.9519642202
 40
0.9589386335
 40
0.9655543067
 40
0.9718438059
 40
0.9778461959
 40
0.9836073668
 40
0.9891800504
 40
0.9946230772
 40
1.0
 40
1.0
 40
1.0
 40
1.0
 10
13.183095886
 20
8.5392527603
 30
0.0
 10
13.183095886
 20
8.5514910226
 30
0.0
 10
13.1832868155
 20
8.5761111582
 30
0.0
 10
13.1841308833
 20
8.6132091528
 30
0.0
 10
13.1855318258
 20
8.6506052057
 30
0.0
 10
13.1874850539
 20
8.6881755389
 30
0.0
 10
13.1899841107
 20
8.7257958408
 30
0.0
 10
13.1930207367
 20
8.7633416576
 30
0.0
 10
13.1965848723
 20
8.8006887699
 30
0.0
 10
13.2006647025
 20
8.8377136251
 30
0.0
 10
13.2052466911
 20
8.8742937427
 30
0.0
 10
13.2103156268
 20
8.9103081242
 30
0.0
 10
13.2158546721
 20
8.9456376569
 30
0.0
 10
13.2218454178
 20
8.9801655134
 30
0.0
 10
13.2282679432
 20
9.0137775419
 30
0.0
 10
13.2351008796
 20
9.0463626583
 30
0.0
 10
13.242321483
 20
9.0778131996
 30
0.0
 10
13.2499056966
 20
9.1080253791
 30
0.0
 10
13.2578282709
 20
9.1368993461
 30
0.0
 10
13.2647716436
 20
9.1600381298
 30
0.0
 10
13.2704870493
 20
9.1777998844
 30
0.0
 10
13.2747897186
 20
9.1905670988
 30
0.0
 10
13.2791568184
 20
9.2029311519
 30
0.0
 10
13.2835847423
 20
9.2148818526
 30
0.0
 10
13.2880698178
 20
9.2264093382
 30
0.0
 10
13.292608337
 20
9.2375041054
 30
0.0
 10
13.2971965222
 20
9.2481570194
 30
0.0
 10
13.3018306087
 20
9.2583593077
 30
0.0
 10
13.3065067225
 20
9.2681025978
 30
0.0
 10
13.3112210608
 20
9.2773788802
 30
0.0
 10
13.315969677
 20
9.2861805801
 30
0.0
 10
13.3207487484
 20
9.2945004823
 30
0.0
 10
13.3255542919
 20
9.3023318408
 30
0.0
 10
13.3303824877
 20
9.3096682646
 30
0.0
 10
13.3352293691
 20
9.3165038589
 30
0.0
 10
13.3400911553
 20
9.3228330793
 30
0.0
 10
13.3449639712
 20
9.3286508832
 30
0.0
 10
13.3498441341
 20
9.3339525693
 30
0.0
 10
13.3547279561
 20
9.3387338956
 30
0.0
 10
13.3596119305
 20
9.3429909304
 30
0.0
 10
13.3644926369
 20
9.3467200688
 30
0.0
 10
13.369366767
 20
9.3499179346
 30
0.0
 10
13.3742310761
 20
9.3525812333
 30
0.0
 10
13.3790822001
 20
9.3547068056
 30
0.0
 10
13.383916451
 20
9.3562913796
 30
0.0
 10
13.3887297934
 20
9.3573320107
 30
0.0
 10
13.3935164243
 20
9.3578260423
 30
0.0
 10
13.3966943385
 20
9.3577897815
 30
0.0
 10
13.398265805
 20
9.3576807996
 30
0.0
  0
SPLINE
  5
2C2
100
AcDbEntity
  8
0
100
AcDbSpline
 62
7
  6
CONTINUOUS
 70
0
 71
3
 72
18
 73
14
 74
0
 42
0.0000001
 43
0.0000001
 44
0.0000000001
 40
0.0
 40
0.0
 40
0.0
 40
0.0
 40
0.1313703051
 40
0.2585842776
 40
0.3828636321
 40
0.5053856838
 40
0.6272793601
 40
0.6883455796
 40
0.7496607953
 40
0.8113553103
 40
0.8735592063
 40
0.9363992948
 40
1.0
 40
1.0
 40
1.0
 40
1.0
 10
9.7580088063
 20
9.228366801
 30
0.0
 10
9.7647305298
 20
9.2262416101
 30
0.0
 10
9.777827709
 20
9.2216175024
 30
0.0
 10
9.796676931
 20
9.2133982501
 30
0.0
 10
9.8144322976
 20
9.2039959351
 30
0.0
 10
9.8311430963
 20
9.1933638897
 30
0.0
 10
9.8442123994
 20
9.1834327322
 30
0.0
 10
9.8541186038
 20
9.1748427085
 30
0.0
 10
9.8612944588
 20
9.1680494896
 30
0.0
 10
9.8682047149
 20
9.1609012268
 30
0.0
 10
9.8748422163
 20
9.1533891869
 30
0.0
 10
9.8811970804
 20
9.145504933
 30
0.0
 10
9.885211413
 20
9.1400312266
 30
0.0
 10
9.8871665721
 20
9.1372337618
 30
0.0
  0
SPLINE
  5
2C3
100
AcDbEntity
  8
0
100
AcDbSpline
 62
7
  6
CONTINUOUS
 70
0
 71
3
 72
14
 73
10
 74
0
 42
0.0000001
 43
0.0000001
 44
0.0000000001
 40
0.0
 40
0.0
 40
0.0
 40
0.0
 40
0.1349837743
 40
0.2675973618
 40
0.3973994236
 40
0.5241144198
 40
0.6476400978
 40
0.7680190565
 40
1.0
 40
1.0
 40
1.0
 40
1.0
 10
9.6556590362
 20
9.2454000328
 30
0.0
 10
9.6603370007
 20
9.2452125847
 30
0.0
 10
9.6696056945
 20
9.2446970514
 30
0.0
 10
9.6833391409
 20
9.2435016577
 30
0.0
 10
9.6967434548
 20
9.2419076462
 30
0.0
 10
9.7097780368
 20
9.239931982
 30
0.0
 10
9.7224198808
 20
9.2375893895
 30
0.0
 10
9.7385403147
 20
9.2340366171
 30
0.0
 10
9.7503371839
 20
9.230792319
 30
0.0
 10
9.7580088063
 20
9.228366801
 30
0.0
  0
SPLINE
  5
2C4
100
AcDbEntity
  8
0
100
AcDbSpline
 62
7
  6
CONTINUOUS
 70
0
 71
3
 72
32
 73
28
 74
0
 42
0.0000001
 43
0.0000001
 44
0.0000000001
 40
0.0
 40
0.0
 40
0.0
 40
0.0
 40
0.0851786848
 40
0.1685803226
 40
0.2498827917
 40
0.3287735031
 40
0.4049538093
 40
0.4781399203
 40
0.5480655658
 40
0.5817287479
 40
0.6144861685
 40
0.6463107472
 40
0.67717687
 40
0.7070608521
 40
0.7359408389
 40
0.7637971302
 40
0.7906123426
 40
0.8163715726
 40
0.8410628756
 40
0.8646773075
 40
0.8872097451
 40
0.908658924
 40
0.9290286029
 40
0.948327806
 40
0.9665723337
 40
0.9837854943
 40
1.0
 40
1.0
 40
1.0
 40
1.0
 10
8.1113086004
 20
7.4093372247
 30
0.0
 10
8.1113086004
 20
7.3983351457
 30
0.0
 10
8.1114960762
 20
7.3765599887
 30
0.0
 10
8.1123559473
 20
7.344293662
 30
0.0
 10
8.1137880689
 20
7.3128604238
 30
0.0
 10
8.1157862523
 20
7.2823926259
 30
0.0
 10
8.1183418143
 20
7.2530183961
 30
0.0
 10
8.1214437756
 20
7.2248613711
 30
0.0
 10
8.1245103222
 20
7.2022322014
 30
0.0
 10
8.1272398106
 20
7.1848333584
 30
0.0
 10
8.1293888664
 20
7.1723263539
 30
0.0
 10
8.1316634089
 20
7.160208942
 30
0.0
 10
8.134061109
 20
7.1484938439
 30
0.0
 10
8.136579376
 20
7.137193372
 30
0.0
 10
8.1392155688
 20
7.1263193889
 30
0.0
 10
8.1419668869
 20
7.1158832987
 30
0.0
 10
8.1448304082
 20
7.1058960311
 30
0.0
 10
8.1478031394
 20
7.0963680329
 30
0.0
 10
8.1508818962
 20
7.0873092393
 30
0.0
 10
8.1540635156
 20
7.0787290894
 30
0.0
 10
8.1573445871
 20
7.0706364631
 30
0.0
 10
8.1607218058
 20
7.0630397427
 30
0.0
 10
8.1641916058
 20
7.0559466924
 30
0.0
 10
8.1677505696
 20
7.0493646136
 30
0.0
 10
8.1713951501
 20
7.0433000468
 30
0.0
 10
8.175121702
 20
7.0377594607
 30
0.0
 10
8.1777347412
 20
7.0343182132
 30
0.0
 10
8.1790561989
 20
7.0326934003
 30
0.0
  0
SPLINE
  5
2C5
100
AcDbEntity
  8
0
100
AcDbSpline
 62
7
  6
CONTINUOUS
 70
0
 71
3
 72
42
 73
38
 74
0
 42
0.0000001
 43
0.0000001
 44
0.0000000001
 40
0.0
 40
0.0
 40
0.0
 40
0.0
 40
0.0071626559
 40
0.0146567706
 40
0.0224899671
 40
0.0306685167
 40
0.0391975294
 40
0.048080791
 40
0.0573205676
 40
0.0669181447
 40
0.07687382
 40
0.0871870637
 40
0.0978566545
 40
0.1088805404
 40
0.1319794507
 40
0.1564573048
 40
0.1822787479
 40
0.2094016883
 40
0.2377781422
 40
0.2673548919
 40
0.2980740388
 40
0.3298735011
 40
0.3626874254
 40
0.3964465514
 40
0.431078539
 40
0.4665082665
 40
0.502658144
 40
0.5394483976
 40
0.5767973385
 40
0.6146216242
 40
0.6528365109
 40
0.6913561215
 40
0.7300937002
 40
0.7689618747
 40
0.8467373609
 40
0.9239818312
 40
1.0
 40
1.0
 40
1.0
 40
1.0
 10
8.2487413999
 20
10.1684396003
 30
0.0
 10
8.2475911725
 20
10.1673285659
 30
0.0
 10
8.2452922497
 20
10.1649978471
 30
0.0
 10
8.241922775
 20
10.1612731473
 30
0.0
 10
8.2385575826
 20
10.1572443085
 30
0.0
 10
8.2351988408
 20
10.152913939
 30
0.0
 10
8.2318483927
 20
10.1482845764
 30
0.0
 10
8.2285082125
 20
10.1433588793
 30
0.0
 10
8.2251801769
 20
10.1381397836
 30
0.0
 10
8.2218663389
 20
10.1326303641
 30
0.0
 10
8.2185686505
 20
10.126833917
 30
0.0
 10
8.2152890659
 20
10.1207539007
 30
0.0
 10
8.2120295653
 20
10.1143939145
 30
0.0
 10
8.207644476
 20
10.1054052444
 30
0.0
 10
8.2022394105
 20
10.0934869887
 30
0.0
 10
8.1959609137
 20
10.0783472578
 30
0.0
 10
8.1898081272
 20
10.0621910107
 30
0.0
 10
8.1837959247
 20
10.045056951
 30
0.0
 10
8.1779388601
 20
10.0269859527
 30
0.0
 10
8.1722511194
 20
10.0080213041
 30
0.0
 10
8.1667464722
 20
9.9882084845
 30
0.0
 10
8.1614382485
 20
9.9675950625
 30
0.0
 10
8.1563392998
 20
9.9462305602
 30
0.0
 10
8.1514619694
 20
9.9241663317
 30
0.0
 10
8.1468180628
 20
9.9014554384
 30
0.0
 10
8.1424188071
 20
9.8781525201
 30
0.0
 10
8.1382748369
 20
9.854313655
 30
0.0
 10
8.1343961681
 20
9.8299962182
 30
0.0
 10
8.1307921734
 20
9.8052587427
 30
0.0
 10
8.1274715638
 20
9.7801607812
 30
0.0
 10
8.124442353
 20
9.754762758
 30
0.0
 10
8.1217118578
 20
9.7291258423
 30
0.0
 10
8.1192866304
 20
9.7033117127
 30
0.0
 10
8.1164675266
 20
9.6687340403
 30
0.0
 10
8.1137429617
 20
9.6255259843
 30
0.0
 10
8.1117624515
 20
9.5739756779
 30
0.0
 10
8.1113086004
 20
9.5397555024
 30
0.0
 10
8.1113086004
 20
9.5227830579
 30
0.0
  0
SPLINE
  5
2C6
100
AcDbEntity
  8
0
100
AcDbSpline
 62
7
  6
CONTINUOUS
 70
0
 71
3
 72
42
 73
38
 74
0
 42
0.0000001
 43
0.0000001
 44
0.0000000001
 40
0.0
 40
0.0
 40
0.0
 40
0.0
 40
0.0299419634
 40
0.0449235299
 40
0.0599142017
 40
0.0899287029
 40
0.1200139772
 40
0.1350926626
 40
0.1501967046
 40
0.1804840506
 40
0.2108978877
 40
0.2414513551
 40
0.2721543675
 40
0.3030134354
 40
0.3340315696
 40
0.3652082675
 40
0.3965395775
 40
0.4280182343
 40
0.4596338596
 40
0.4913732188
 40
0.5232205284
 40
0.5551578047
 40
0.5871652463
 40
0.6192216448
 40
0.6513048151
 40
0.6833920402
 40
0.7154605222
 40
0.747487836
 40
0.7794523759
 40
0.8113337934
 40
0.8431134117
 40
0.8747746318
 40
0.9063032512
 40
0.9376879208
 40
0.9533258
 40
0.9689252634
 40
1.0
 40
1.0
 40
1.0
 40
1.0
 10
8.7366263682
 20
9.8795781348
 30
0.0
 10
8.74012679
 20
9.8829592619
 30
0.0
 10
8.7455837582
 20
9.8878260715
 30
0.0
 10
8.7532261192
 20
9.8938647223
 30
0.0
 10
8.761111851
 20
9.8996028806
 30
0.0
 10
8.7714014344
 20
9.9061921453
 30
0.0
 10
8.7821913036
 20
9.9119558449
 30
0.0
 10
8.7910901494
 20
9.9160561466
 30
0.0
 10
8.8001728192
 20
9.9198179621
 30
0.0
 10
8.8118254727
 20
9.9238629768
 30
0.0
 10
8.8261856019
 20
9.9276328292
 30
0.0
 10
8.8408590713
 20
9.9303034793
 30
0.0
 10
8.8557645628
 20
9.9318601937
 30
0.0
 10
8.8708201972
 20
9.9322946646
 30
0.0
 10
8.8859431342
 20
9.9316046808
 30
0.0
 10
8.9010502546
 20
9.9297942281
 30
0.0
 10
8.9160585517
 20
9.926873432
 30
0.0
 10
8.9308855979
 20
9.9228585027
 30
0.0
 10
8.9454499876
 20
9.9177716384
 30
0.0
 10
8.9596717785
 20
9.9116409005
 30
0.0
 10
8.9734729243
 20
9.9045000576
 30
0.0
 10
8.9867776966
 20
9.8963883988
 30
0.0
 10
8.9995130954
 20
9.8873505184
 30
0.0
 10
9.0116092442
 20
9.8774360724
 30
0.0
 10
9.022999769
 20
9.8666995078
 30
0.0
 10
9.0336221584
 20
9.855199766
 30
0.0
 10
9.043418103
 20
9.8429999628
 30
0.0
 10
9.0523338123
 20
9.8301670446
 30
0.0
 10
9.0603203076
 20
9.8167714287
 30
0.0
 10
9.0673336887
 20
9.8028866065
 30
0.0
 10
9.0733353721
 20
9.7885888022
 30
0.0
 10
9.0782923143
 20
9.7739563478
 30
0.0
 10
9.0821771316
 20
9.759070044
 30
0.0
 10
9.0845061659
 20
9.7465043897
 30
0.0
 10
9.085812685
 20
9.7364080388
 30
0.0
 10
9.0867451157
 20
9.7263213493
 30
0.0
 10
9.0870274467
 20
9.7187311834
 30
0.0
 10
9.0870274467
 20
9.7136803432
 30
0.0
  0
SPLINE
  5
2C7
100
AcDbEntity
  8
0
100
AcDbSpline
 62
7
  6
CONTINUOUS
 70
0
 71
3
 72
42
 73
38
 74
0
 42
0.0000001
 43
0.0000001
 44
0.0000000001
 40
0.0
 40
0.0
 40
0.0
 40
0.0
 40
0.0299419634
 40
0.0449235299
 40
0.0599142017
 40
0.0899287029
 40
0.1200139772
 40
0.1350926626
 40
0.1501967046
 40
0.1804840506
 40
0.2108978877
 40
0.2414513551
 40
0.2721543675
 40
0.3030134354
 40
0.3340315696
 40
0.3652082675
 40
0.3965395775
 40
0.4280182343
 40
0.4596338596
 40
0.4913732188
 40
0.5232205284
 40
0.5551578047
 40
0.5871652463
 40
0.6192216448
 40
0.6513048151
 40
0.6833920402
 40
0.7154605222
 40
0.747487836
 40
0.7794523759
 40
0.8113337934
 40
0.8431134117
 40
0.8747746318
 40
0.9063032512
 40
0.9376879208
 40
0.9533258
 40
0.9689252634
 40
1.0
 40
1.0
 40
1.0
 40
1.0
 10
12.6003297296
 20
9.6116293966
 30
0.0
 10
12.6038301513
 20
9.6150105238
 30
0.0
 10
12.6092871195
 20
9.6198773333
 30
0.0
 10
12.6169294806
 20
9.6259159841
 30
0.0
 10
12.6248152124
 20
9.6316541424
 30
0.0
 10
12.6351047958
 20
9.6382434071
 30
0.0
 10
12.645894665
 20
9.6440071068
 30
0.0
 10
12.6547935108
 20
9.6481074084
 30
0.0
 10
12.6638761806
 20
9.6518692239
 30
0.0
 10
12.6755288341
 20
9.6559142386
 30
0.0
 10
12.6898889633
 20
9.659684091
 30
0.0
 10
12.7045624327
 20
9.6623547411
 30
0.0
 10
12.7194679241
 20
9.6639114555
 30
0.0
 10
12.7345235585
 20
9.6643459264
 30
0.0
 10
12.7496464955
 20
9.6636559426
 30
0.0
 10
12.764753616
 20
9.6618454899
 30
0.0
 10
12.7797619131
 20
9.6589246938
 30
0.0
 10
12.7945889593
 20
9.6549097645
 30
0.0
 10
12.809153349
 20
9.6498229002
 30
0.0
 10
12.8233751399
 20
9.6436921624
 30
0.0
 10
12.8371762856
 20
9.6365513195
 30
0.0
 10
12.850481058
 20
9.6284396606
 30
0.0
 10
12.8632164568
 20
9.6194017802
 30
0.0
 10
12.8753126056
 20
9.6094873342
 30
0.0
 10
12.8867031304
 20
9.5987507696
 30
0.0
 10
12.8973255198
 20
9.5872510278
 30
0.0
 10
12.9071214644
 20
9.5750512247
 30
0.0
 10
12.9160371737
 20
9.5622183064
 30
0.0
 10
12.924023669
 20
9.5488226906
 30
0.0
 10
12.9310370501
 20
9.5349378683
 30
0.0
 10
12.9370387335
 20
9.520640064
 30
0.0
 10
12.9419956757
 20
9.5060076096
 30
0.0
 10
12.945880493
 20
9.4911213058
 30
0.0
 10
12.9482095273
 20
9.4785556515
 30
0.0
 10
12.9495160464
 20
9.4684593006
 30
0.0
 10
12.9504484771
 20
9.4583726112
 30
0.0
 10
12.9507308081
 20
9.4507824452
 30
0.0
 10
12.9507308081
 20
9.445731605
 30
0.0
  0
SPLINE
  5
2C8
100
AcDbEntity
  8
0
100
AcDbSpline
 62
7
  6
CONTINUOUS
 70
0
 71
3
 72
42
 73
38
 74
0
 42
0.0000001
 43
0.0000001
 44
0.0000000001
 40
0.0
 40
0.0
 40
0.0
 40
0.0
 40
0.0299419634
 40
0.0449235299
 40
0.0599142017
 40
0.0899287029
 40
0.1200139772
 40
0.1350926626
 40
0.1501967046
 40
0.1804840506
 40
0.2108978877
 40
0.2414513551
 40
0.2721543675
 40
0.3030134354
 40
0.3340315696
 40
0.3652082675
 40
0.3965395775
 40
0.4280182343
 40
0.4596338596
 40
0.4913732188
 40
0.5232205284
 40
0.5551578047
 40
0.5871652463
 40
0.6192216448
 40
0.6513048151
 40
0.6833920402
 40
0.7154605222
 40
0.747487836
 40
0.7794523759
 40
0.8113337934
 40
0.8431134117
 40
0.8747746318
 40
0.9063032512
 40
0.9376879208
 40
0.9533258
 40
0.9689252634
 40
1.0
 40
1.0
 40
1.0
 40
1.0
 10
12.6003297296
 20
6.9534012748
 30
0.0
 10
12.6038301513
 20
6.956782402
 30
0.0
 10
12.6092871195
 20
6.9616492116
 30
0.0
 10
12.6169294806
 20
6.9676878623
 30
0.0
 10
12.6248152124
 20
6.9734260206
 30
0.0
 10
12.6351047958
 20
6.9800152853
 30
0.0
 10
12.645894665
 20
6.985778985
 30
0.0
 10
12.6547935108
 20
6.9898792867
 30
0.0
 10
12.6638761806
 20
6.9936411021
 30
0.0
 10
12.6755288341
 20
6.9976861169
 30
0.0
 10
12.6898889633
 20
7.0014559692
 30
0.0
 10
12.7045624327
 20
7.0041266194
 30
0.0
 10
12.7194679241
 20
7.0056833338
 30
0.0
 10
12.7345235585
 20
7.0061178046
 30
0.0
 10
12.7496464955
 20
7.0054278209
 30
0.0
 10
12.764753616
 20
7.0036173681
 30
0.0
 10
12.7797619131
 20
7.0006965721
 30
0.0
 10
12.7945889593
 20
6.9966816428
 30
0.0
 10
12.809153349
 20
6.9915947785
 30
0.0
 10
12.8233751399
 20
6.9854640406
 30
0.0
 10
12.8371762856
 20
6.9783231977
 30
0.0
 10
12.850481058
 20
6.9702115389
 30
0.0
 10
12.8632164568
 20
6.9611736585
 30
0.0
 10
12.8753126056
 20
6.9512592125
 30
0.0
 10
12.8867031304
 20
6.9405226479
 30
0.0
 10
12.8973255198
 20
6.9290229061
 30
0.0
 10
12.9071214644
 20
6.9168231029
 30
0.0
 10
12.9160371737
 20
6.9039901847
 30
0.0
 10
12.924023669
 20
6.8905945688
 30
0.0
 10
12.9310370501
 20
6.8767097466
 30
0.0
 10
12.9370387335
 20
6.8624119422
 30
0.0
 10
12.9419956757
 20
6.8477794879
 30
0.0
 10
12.945880493
 20
6.8328931841
 30
0.0
 10
12.9482095273
 20
6.8203275298
 30
0.0
 10
12.9495160464
 20
6.8102311789
 30
0.0
 10
12.9504484771
 20
6.8001444894
 30
0.0
 10
12.9507308081
 20
6.7925543235
 30
0.0
 10
12.9507308081
 20
6.7875034833
 30
0.0
  0
SPLINE
  5
2C9
100
AcDbEntity
  8
0
100
AcDbSpline
 62
7
  6
CONTINUOUS
 70
0
 71
3
 72
42
 73
38
 74
0
 42
0.0000001
 43
0.0000001
 44
0.0000000001
 40
0.0
 40
0.0
 40
0.0
 40
0.0
 40
0.0299419634
 40
0.0449235299
 40
0.0599142017
 40
0.0899287029
 40
0.1200139772
 40
0.1350926626
 40
0.1501967046
 40
0.1804840506
 40
0.2108978877
 40
0.2414513551
 40
0.2721543675
 40
0.3030134354
 40
0.3340315696
 40
0.3652082675
 40
0.3965395775
 40
0.4280182343
 40
0.4596338596
 40
0.4913732188
 40
0.5232205284
 40
0.5551578047
 40
0.5871652463
 40
0.6192216448
 40
0.6513048151
 40
0.6833920402
 40
0.7154605222
 40
0.747487836
 40
0.7794523759
 40
0.8113337934
 40
0.8431134117
 40
0.8747746318
 40
0.9063032512
 40
0.9376879208
 40
0.9533258
 40
0.9689252634
 40
1.0
 40
1.0
 40
1.0
 40
1.0
 10
8.7366263682
 20
7.221350013
 30
0.0
 10
8.74012679
 20
7.2247311402
 30
0.0
 10
8.7455837582
 20
7.2295979498
 30
0.0
 10
8.7532261192
 20
7.2356366005
 30
0.0
 10
8.761111851
 20
7.2413747588
 30
0.0
 10
8.7714014344
 20
7.2479640235
 30
0.0
 10
8.7821913036
 20
7.2537277232
 30
0.0
 10
8.7910901494
 20
7.2578280249
 30
0.0
 10
8.8001728192
 20
7.2615898403
 30
0.0
 10
8.8118254727
 20
7.2656348551
 30
0.0
 10
8.8261856019
 20
7.2694047074
 30
0.0
 10
8.8408590713
 20
7.2720753576
 30
0.0
 10
8.8557645628
 20
7.273632072
 30
0.0
 10
8.8708201972
 20
7.2740665428
 30
0.0
 10
8.8859431342
 20
7.273376559
 30
0.0
 10
8.9010502546
 20
7.2715661063
 30
0.0
 10
8.9160585517
 20
7.2686453103
 30
0.0
 10
8.9308855979
 20
7.264630381
 30
0.0
 10
8.9454499876
 20
7.2595435166
 30
0.0
 10
8.9596717785
 20
7.2534127788
 30
0.0
 10
8.9734729243
 20
7.2462719359
 30
0.0
 10
8.9867776966
 20
7.2381602771
 30
0.0
 10
8.9995130954
 20
7.2291223967
 30
0.0
 10
9.0116092442
 20
7.2192079507
 30
0.0
 10
9.022999769
 20
7.2084713861
 30
0.0
 10
9.0336221584
 20
7.1969716443
 30
0.0
 10
9.043418103
 20
7.1847718411
 30
0.0
 10
9.0523338123
 20
7.1719389229
 30
0.0
 10
9.0603203076
 20
7.158543307
 30
0.0
 10
9.0673336887
 20
7.1446584848
 30
0.0
 10
9.0733353721
 20
7.1303606804
 30
0.0
 10
9.0782923143
 20
7.1157282261
 30
0.0
 10
9.0821771316
 20
7.1008419223
 30
0.0
 10
9.0845061659
 20
7.088276268
 30
0.0
 10
9.085812685
 20
7.0781799171
 30
0.0
 10
9.0867451157
 20
7.0680932276
 30
0.0
 10
9.0870274467
 20
7.0605030617
 30
0.0
 10
9.0870274467
 20
7.0554522215
 30
0.0
  0
SPLINE
  5
2CA
100
AcDbEntity
  8
0
100
AcDbSpline
 62
7
  6
CONTINUOUS
 70
0
 71
3
 72
40
 73
36
 74
0
 42
0.0000001
 43
0.0000001
 44
0.0000000001
 40
0.0
 40
0.0
 40
0.0
 40
0.0
 40
0.0299422917
 40
0.0449240218
 40
0.0599148595
 40
0.0899296895
 40
0.1200152935
 40
0.1501925778
 40
0.1804802557
 40
0.2108944263
 40
0.2414482291
 40
0.2721515789
 40
0.3030109866
 40
0.3340294629
 40
0.3652065054
 40
0.3965381623
 40
0.4280171682
 40
0.4596331441
 40
0.4913728551
 40
0.5232205171
 40
0.5551581459
 40
0.5871659397
 40
0.6192226901
 40
0.6513062117
 40
0.6833937874
 40
0.7154626194
 40
0.7474902821
 40
0.779455171
 40
0.8113369343
 40
0.8431169059
 40
0.8747784521
 40
0.906307475
 40
0.9376923384
 40
0.96892512
 40
1.0
 40
1.0
 40
1.0
 40
1.0
 10
10.0828443791
 20
9.7997601416
 30
0.0
 10
10.085175229
 20
9.8020115513
 30
0.0
 10
10.088808909
 20
9.8052522233
 30
0.0
 10
10.0938977772
 20
9.8092732255
 30
0.0
 10
10.0991486958
 20
9.8130940882
 30
0.0
 10
10.1060004757
 20
9.8174817986
 30
0.0
 10
10.1146273497
 20
9.8220901211
 30
0.0
 10
10.1236163319
 20
9.8260195109
 30
0.0
 10
10.1329175638
 20
9.8292481813
 30
0.0
 10
10.1424798577
 20
9.8317585175
 30
0.0
 10
10.1522505145
 20
9.8335368005
 30
0.0
 10
10.1621757442
 20
9.8345733743
 30
0.0
 10
10.1722009294
 20
9.8348626652
 30
0.0
 10
10.1822709346
 20
9.8344032116
 30
0.0
 10
10.1923304061
 20
9.8331976643
 30
0.0
 10
10.2023240733
 20
9.8312527661
 30
0.0
 10
10.2121970491
 20
9.8285793103
 30
0.0
 10
10.2218951273
 20
9.8251920779
 30
0.0
 10
10.2313650762
 20
9.8211097548
 30
0.0
 10
10.2405549265
 20
9.8163548271
 30
0.0
 10
10.2494142528
 20
9.8109534569
 30
0.0
 10
10.2578944462
 20
9.8049353386
 30
0.0
 10
10.2659489778
 20
9.7983335374
 30
0.0
 10
10.273533651
 20
9.7911843081
 30
0.0
 10
10.2806068413
 20
9.7835268987
 30
0.0
 10
10.2871297219
 20
9.7754033361
 30
0.0
 10
10.2930664757
 20
9.7668581988
 30
0.0
 10
10.2983844881
 20
9.7579383741
 30
0.0
 10
10.3030545295
 20
9.7486928038
 30
0.0
 10
10.3070509028
 20
9.7391722236
 30
0.0
 10
10.3103516136
 20
9.7294288637
 30
0.0
 10
10.3129384268
 20
9.7195162664
 30
0.0
 10
10.3147970926
 20
9.7094886281
 30
0.0
 10
10.3159172264
 20
9.6994017872
 30
0.0
 10
10.3161681284
 20
9.6926556848
 30
0.0
 10
10.3161681284
 20
9.6892924718
 30
0.0
  0
SPLINE
  5
2CB
100
AcDbEntity
  8
0
100
AcDbSpline
 62
7
  6
CONTINUOUS
 70
0
 71
3
 72
40
 73
36
 74
0
 42
0.0000001
 43
0.0000001
 44
0.0000000001
 40
0.0
 40
0.0
 40
0.0
 40
0.0
 40
0.0299422917
 40
0.0449240218
 40
0.0599148595
 40
0.0899296895
 40
0.1200152935
 40
0.1501925778
 40
0.1804802557
 40
0.2108944263
 40
0.2414482291
 40
0.2721515789
 40
0.3030109866
 40
0.3340294629
 40
0.3652065054
 40
0.3965381623
 40
0.4280171682
 40
0.4596331441
 40
0.4913728551
 40
0.5232205171
 40
0.5551581459
 40
0.5871659397
 40
0.6192226901
 40
0.6513062117
 40
0.6833937874
 40
0.7154626194
 40
0.7474902821
 40
0.779455171
 40
0.8113369343
 40
0.8431169059
 40
0.8747784521
 40
0.906307475
 40
0.9376923384
 40
0.96892512
 40
1.0
 40
1.0
 40
1.0
 40
1.0
 10
10.6875139121
 20
6.9778914253
 30
0.0
 10
10.6898447621
 20
6.9801428349
 30
0.0
 10
10.693478442
 20
6.9833835069
 30
0.0
 10
10.6985673102
 20
6.9874045091
 30
0.0
 10
10.7038182289
 20
6.9912253718
 30
0.0
 10
10.7106700088
 20
6.9956130822
 30
0.0
 10
10.7192968828
 20
7.0002214047
 30
0.0
 10
10.728285865
 20
7.0041507945
 30
0.0
 10
10.7375870968
 20
7.007379465
 30
0.0
 10
10.7471493907
 20
7.0098898011
 30
0.0
 10
10.7569200476
 20
7.0116680841
 30
0.0
 10
10.7668452773
 20
7.012704658
 30
0.0
 10
10.7768704624
 20
7.0129939488
 30
0.0
 10
10.7869404677
 20
7.0125344952
 30
0.0
 10
10.7969999391
 20
7.0113289479
 30
0.0
 10
10.8069936063
 20
7.0093840497
 30
0.0
 10
10.8168665822
 20
7.0067105939
 30
0.0
 10
10.8265646604
 20
7.0033233615
 30
0.0
 10
10.8360346093
 20
6.9992410385
 30
0.0
 10
10.8452244596
 20
6.9944861108
 30
0.0
 10
10.8540837859
 20
6.9890847405
 30
0.0
 10
10.8625639792
 20
6.9830666222
 30
0.0
 10
10.8706185108
 20
6.976464821
 30
0.0
 10
10.8782031841
 20
6.9693155917
 30
0.0
 10
10.8852763744
 20
6.9616581823
 30
0.0
 10
10.891799255
 20
6.9535346197
 30
0.0
 10
10.8977360088
 20
6.9449894824
 30
0.0
 10
10.9030540212
 20
6.9360696577
 30
0.0
 10
10.9077240625
 20
6.9268240874
 30
0.0
 10
10.9117204359
 20
6.9173035072
 30
0.0
 10
10.9150211466
 20
6.9075601473
 30
0.0
 10
10.9176079598
 20
6.89764755
 30
0.0
 10
10.9194666257
 20
6.8876199117
 30
0.0
 10
10.9205867595
 20
6.8775330709
 30
0.0
 10
10.9208376615
 20
6.8707869684
 30
0.0
 10
10.9208376615
 20
6.8674237555
 30
0.0
  0
SPLINE
  5
2CC
100
AcDbEntity
  8
0
100
AcDbSpline
 62
7
  6
CONTINUOUS
 70
0
 71
3
 72
37
 73
33
 74
0
 42
0.0000001
 43
0.0000001
 44
0.0000000001
 40
0.0
 40
0.0
 40
0.0
 40
0.0
 40
0.0299448033
 40
0.0599139857
 40
0.0899313261
 40
0.1200194368
 40
0.1501992296
 40
0.1804894257
 40
0.2109061295
 40
0.2414624764
 40
0.2721683759
 40
0.3030303418
 40
0.3340513927
 40
0.3652310309
 40
0.3965652996
 40
0.428046925
 40
0.45966553
 40
0.4914078862
 40
0.5551593905
 40
0.6191906838
 40
0.6512768977
 40
0.6833671744
 40
0.7154387056
 40
0.7474690601
 40
0.7794366302
 40
0.8113210838
 40
0.8431037264
 40
0.8747679161
 40
0.9062997384
 40
0.9376866971
 40
0.9689232651
 40
1.0
 40
1.0
 40
1.0
 40
1.0
 10
11.7422588558
 20
9.581882589
 30
0.0
 10
11.7435528484
 20
9.5831325041
 30
0.0
 10
11.7462425531
 20
9.585531496
 30
0.0
 10
11.7505519197
 20
9.5887996737
 30
0.0
 10
11.7551140375
 20
9.5917212128
 30
0.0
 10
11.7599034125
 20
9.5942797304
 30
0.0
 10
11.7648937104
 20
9.5964612554
 30
0.0
 10
11.7700573936
 20
9.598253794
 30
0.0
 10
11.775366012
 20
9.5996475242
 30
0.0
 10
11.7807903174
 20
9.6006348299
 30
0.0
 10
11.7863004394
 20
9.6012103665
 30
0.0
 10
11.7918660575
 20
9.6013710446
 30
0.0
 10
11.7974565654
 20
9.60111605
 30
0.0
 10
11.8030412271
 20
9.6004468434
 30
0.0
 10
11.8085893737
 20
9.5993671476
 30
0.0
 10
11.8140704621
 20
9.5978830194
 30
0.0
 10
11.8194546769
 20
9.5960024972
 30
0.0
 10
11.8264727424
 20
9.5929773923
 30
0.0
 10
11.8348535969
 20
9.5882589731
 30
0.0
 10
11.8425135733
 20
9.5824099493
 30
0.0
 10
11.8481224169
 20
9.5771230113
 30
0.0
 10
11.8520494005
 20
9.5728717932
 30
0.0
 10
11.8556706426
 20
9.5683619249
 30
0.0
 10
11.8589665443
 20
9.5636179701
 30
0.0
 10
11.8619189338
 20
9.5586660153
 30
0.0
 10
11.8645116002
 20
9.5535332146
 30
0.0
 10
11.8667302654
 20
9.5482477363
 30
0.0
 10
11.8685627164
 20
9.5428385643
 30
0.0
 10
11.8699987959
 20
9.5373354621
 30
0.0
 10
11.8710307201
 20
9.5317684373
 30
0.0
 10
11.8716525371
 20
9.5261685849
 30
0.0
 10
11.8717918578
 20
9.5224233662
 30
0.0
 10
11.8717918578
 20
9.5205562754
 30
0.0
  0
SPLINE
  5
2CD
100
AcDbEntity
  8
0
100
AcDbSpline
 62
7
  6
CONTINUOUS
 70
0
 71
3
 72
37
 73
33
 74
0
 42
0.0000001
 43
0.0000001
 44
0.0000000001
 40
0.0
 40
0.0
 40
0.0
 40
0.0
 40
0.0299448033
 40
0.0599139857
 40
0.0899313261
 40
0.1200194368
 40
0.1501992296
 40
0.1804894257
 40
0.2109061295
 40
0.2414624764
 40
0.2721683759
 40
0.3030303418
 40
0.3340513927
 40
0.3652310309
 40
0.3965652996
 40
0.428046925
 40
0.45966553
 40
0.4914078862
 40
0.5551593905
 40
0.6191906838
 40
0.6512768977
 40
0.6833671744
 40
0.7154387056
 40
0.7474690601
 40
0.7794366302
 40
0.8113210838
 40
0.8431037264
 40
0.8747679161
 40
0.9062997384
 40
0.9376866971
 40
0.9689232651
 40
1.0
 40
1.0
 40
1.0
 40
1.0
 10
9.5254588794
 20
7.0773900678
 30
0.0
 10
9.526752872
 20
7.0786399829
 30
0.0
 10
9.5294425767
 20
7.0810389748
 30
0.0
 10
9.5337519433
 20
7.0843071525
 30
0.0
 10
9.5383140611
 20
7.0872286915
 30
0.0
 10
9.5431034361
 20
7.0897872092
 30
0.0
 10
9.548093734
 20
7.0919687342
 30
0.0
 10
9.5532574172
 20
7.0937612728
 30
0.0
 10
9.5585660356
 20
7.095155003
 30
0.0
 10
9.563990341
 20
7.0961423087
 30
0.0
 10
9.5695004631
 20
7.0967178453
 30
0.0
 10
9.5750660811
 20
7.0968785234
 30
0.0
 10
9.580656589
 20
7.0966235288
 30
0.0
 10
9.5862412507
 20
7.0959543222
 30
0.0
 10
9.5917893973
 20
7.0948746264
 30
0.0
 10
9.5972704857
 20
7.0933904981
 30
0.0
 10
9.6026547005
 20
7.091509976
 30
0.0
 10
9.609672766
 20
7.0884848711
 30
0.0
 10
9.6180536205
 20
7.0837664519
 30
0.0
 10
9.6257135969
 20
7.0779174281
 30
0.0
 10
9.6313224405
 20
7.0726304901
 30
0.0
 10
9.6352494241
 20
7.068379272
 30
0.0
 10
9.6388706662
 20
7.0638694037
 30
0.0
 10
9.6421665679
 20
7.0591254489
 30
0.0
 10
9.6451189574
 20
7.0541734941
 30
0.0
 10
9.6477116238
 20
7.0490406934
 30
0.0
 10
9.6499302891
 20
7.0437552151
 30
0.0
 10
9.6517627401
 20
7.0383460431
 30
0.0
 10
9.6531988195
 20
7.0328429408
 30
0.0
 10
9.6542307437
 20
7.0272759161
 30
0.0
 10
9.6548525607
 20
7.0216760636
 30
0.0
 10
9.6549918814
 20
7.017930845
 30
0.0
 10
9.6549918814
 20
7.0160637541
 30
0.0
  0
SPLINE
  5
2CE
100
AcDbEntity
  8
0
100
AcDbSpline
 62
7
  6
CONTINUOUS
 70
0
 71
3
 72
25
 73
21
 74
0
 42
0.0000001
 43
0.0000001
 44
0.0000000001
 40
0.0
 40
0.0
 40
0.0
 40
0.0
 40
0.0626377471
 40
0.0938819144
 40
0.1250772851
 40
0.1873257556
 40
0.2494239951
 40
0.2804335652
 40
0.3114198202
 40
0.3733328156
 40
0.4352213647
 40
0.497137346
 40
0.5591363926
 40
0.6212764315
 40
0.6836155568
 40
0.7462094547
 40
0.8091085882
 40
0.8723551406
 40
0.9359793205
 40
1.0
 40
1.0
 40
1.0
 40
1.0
 10
10.5025037418
 20
9.1917726957
 30
0.0
 10
10.5050137216
 20
9.1991767791
 30
0.0
 10
10.5091506717
 20
9.2101525973
 30
0.0
 10
10.5154064581
 20
9.2244580467
 30
0.0
 10
10.522137351
 20
9.2384929572
 30
0.0
 10
10.5314575466
 20
9.2555429195
 30
0.0
 10
10.5419819007
 20
9.2718511091
 30
0.0
 10
10.5511002931
 20
9.2843750586
 30
0.0
 10
10.5606735591
 20
9.2965252578
 30
0.0
 10
10.5735016506
 20
9.3109995566
 30
0.0
 10
10.5902217663
 20
9.3270893338
 30
0.0
 10
10.6082087494
 20
9.3417694724
 30
0.0
 10
10.6273891111
 20
9.3549097883
 30
0.0
 10
10.6476731641
 20
9.3663830147
 30
0.0
 10
10.6689526237
 20
9.3760672335
 30
0.0
 10
10.6911001115
 20
9.3838503428
 30
0.0
 10
10.713969113
 20
9.3896345161
 30
0.0
 10
10.7373964477
 20
9.3933407219
 30
0.0
 10
10.7612013407
 20
9.3949137524
 30
0.0
 10
10.7771536573
 20
9.3945217495
 30
0.0
 10
10.7851250749
 20
9.3939689299
 30
0.0
  0
SPLINE
  5
2CF
100
AcDbEntity
  8
0
100
AcDbSpline
 62
7
  6
CONTINUOUS
 70
0
 71
3
 72
25
 73
21
 74
0
 42
0.0000001
 43
0.0000001
 44
0.0000000001
 40
0.0
 40
0.0
 40
0.0
 40
0.0
 40
0.0622267905
 40
0.1243593511
 40
0.1864210842
 40
0.2484367559
 40
0.310432993
 40
0.3724380964
 40
0.4344820478
 40
0.4965963335
 40
0.5588136723
 40
0.6211676682
 40
0.6836922577
 40
0.7150336576
 40
0.7464304307
 40
0.8093956192
 40
0.8726273501
 40
0.9043563141
 40
0.9361617367
 40
1.0
 40
1.0
 40
1.0
 40
1.0
 10
9.3878740321
 20
9.0729023179
 30
0.0
 10
9.3912777186
 20
9.0786624247
 30
0.0
 10
9.3984001024
 20
9.089988278
 30
0.0
 10
9.4100113129
 20
9.1063389539
 30
0.0
 10
9.4225209901
 20
9.1219850875
 30
0.0
 10
9.4359057621
 20
9.1368700758
 30
0.0
 10
9.4501406439
 20
9.1509362953
 30
0.0
 10
9.4651978047
 20
9.1641238973
 30
0.0
 10
9.4810460726
 20
9.1763710826
 30
0.0
 10
9.4976500599
 20
9.187614104
 30
0.0
 10
9.5149695821
 20
9.1977876216
 30
0.0
 10
9.532957835
 20
9.2068248506
 30
0.0
 10
9.5484510488
 20
9.2133486186
 30
0.0
 10
9.5611176331
 20
9.2179324693
 30
0.0
 10
9.5739803046
 20
9.222090053
 30
0.0
 10
9.5903689478
 20
9.2264523596
 30
0.0
 10
9.6070625261
 20
9.2296425145
 30
0.0
 10
9.6205720691
 20
9.2314700619
 30
0.0
 10
9.6342036557
 20
9.2328088823
 30
0.0
 10
9.6444903229
 20
9.2332467282
 30
0.0
 10
9.651354075
 20
9.2332830904
 30
0.0
  0
SPLINE
  5
2D0
100
AcDbEntity
  8
0
100
AcDbSpline
 62
7
  6
CONTINUOUS
 70
0
 71
3
 72
39
 73
35
 74
0
 42
0.0000001
 43
0.0000001
 44
0.0000000001
 40
0.0
 40
0.0
 40
0.0
 40
0.0
 40
0.0301480211
 40
0.0603123523
 40
0.0905022119
 40
0.1207266375
 40
0.1509944201
 40
0.1813140367
 40
0.211693613
 40
0.2421408729
 40
0.272663042
 40
0.3032667952
 40
0.3339582197
 40
0.3647427485
 40
0.3956250488
 40
0.4266089752
 40
0.4576975305
 40
0.4888927974
 40
0.5201958425
 40
0.5516066588
 40
0.5831241506
 40
0.6147460916
 40
0.6464690877
 40
0.6782885376
 40
0.7101986545
 40
0.742192505
 40
0.7742620463
 40
0.8063981929
 40
0.8385908976
 40
0.8708292223
 40
0.9031017223
 40
0.9353957568
 40
0.9676999949
 40
1.0
 40
1.0
 40
1.0
 40
1.0
 10
9.9695190255
 20
7.7540257386
 30
0.0
 10
9.9732753757
 20
7.7573995806
 30
0.0
 10
9.9809574254
 20
7.7639654311
 30
0.0
 10
9.9929535089
 20
7.7732391287
 30
0.0
 10
10.0054008877
 20
7.7819207102
 30
0.0
 10
10.0182735728
 20
7.7899906679
 30
0.0
 10
10.0315453232
 20
7.7974306058
 30
0.0
 10
10.0451890218
 20
7.8042227328
 30
0.0
 10
10.0591768013
 20
7.8103499824
 30
0.0
 10
10.0734799431
 20
7.8157959998
 30
0.0
 10
10.0880688087
 20
7.8205452464
 30
0.0
 10
10.1029127957
 20
7.8245830299
 30
0.0
 10
10.117980298
 20
7.8278955571
 30
0.0
 10
10.1332386508
 20
7.8304700131
 30
0.0
 10
10.1486540754
 20
7.832294718
 30
0.0
 10
10.1641916572
 20
7.8333592188
 30
0.0
 10
10.1798153354
 20
7.8336544013
 30
0.0
 10
10.1954878945
 20
7.8331726314
 30
0.0
 10
10.2111709706
 20
7.8319079442
 30
0.0
 10
10.2268250936
 20
7.8298562241
 30
0.0
 10
10.2424097504
 20
7.8270153379
 30
0.0
 10
10.2578834757
 20
7.8233853207
 30
0.0
 10
10.2732039599
 20
7.8189685456
 30
0.0
 10
10.2883282053
 20
7.8137699359
 30
0.0
 10
10.3032127095
 20
7.8077971085
 30
0.0
 10
10.3178136751
 20
7.8010604954
 30
0.0
 10
10.332087256
 20
7.793573468
 30
0.0
 10
10.3459898253
 20
7.7853524238
 30
0.0
 10
10.3594782579
 20
7.7764168496
 30
0.0
 10
10.3725103199
 20
7.7667893493
 30
0.0
 10
10.3850447821
 20
7.7564956142
 30
0.0
 10
10.3970422891
 20
7.7455641628
 30
0.0
 10
10.4084644018
 20
7.7340269179
 30
0.0
 10
10.4156741093
 20
7.7259518063
 30
0.0
 10
10.419171508
 20
7.7218250062
 30
0.0
  0
SPLINE
  5
2D1
100
AcDbEntity
  8
0
100
AcDbSpline
 62
7
  6
CONTINUOUS
 70
0
 71
3
 72
41
 73
37
 74
0
 42
0.0000001
 43
0.0000001
 44
0.0000000001
 40
0.0
 40
0.0
 40
0.0
 40
0.0
 40
0.0300286532
 40
0.0450802141
 40
0.0601571029
 40
0.0903878945
 40
0.1207337778
 40
0.1512016285
 40
0.1817964225
 40
0.2125212266
 40
0.2433772066
 40
0.2743636497
 40
0.3054780004
 40
0.3367159063
 40
0.3680712746
 40
0.3995363393
 40
0.4311017383
 40
0.4627566037
 40
0.4944886665
 40
0.5262843774
 40
0.558129047
 40
0.5900070079
 40
0.6219018007
 40
0.6537963855
 40
0.685673381
 40
0.7175153293
 40
0.7493049867
 40
0.7810256347
 40
0.8126614081
 40
0.8441976282
 40
0.8756211493
 40
0.9069206354
 40
0.9380870089
 40
0.9536199795
 40
0.96911764
 40
1.0
 40
1.0
 40
1.0
 40
1.0
 10
11.2273017005
 20
7.7437116606
 30
0.0
 10
11.2337853716
 20
7.7466183487
 30
0.0
 10
11.2436678773
 20
7.7506602123
 30
0.0
 10
11.2570935448
 20
7.7553953002
 30
0.0
 10
11.2707125204
 20
7.7597048177
 30
0.0
 10
11.2880352757
 20
7.7642718939
 30
0.0
 10
11.3091896455
 20
7.7684203912
 30
0.0
 10
11.3306499567
 20
7.7712312138
 30
0.0
 10
11.3523333781
 20
7.7726970543
 30
0.0
 10
11.3741576236
 20
7.7728149387
 30
0.0
 10
11.396040169
 20
7.7715858618
 30
0.0
 10
11.4178985266
 20
7.7690148159
 30
0.0
 10
11.4396502251
 20
7.7651107581
 30
0.0
 10
11.4612128708
 20
7.7598866377
 30
0.0
 10
11.4825041967
 20
7.7533594486
 30
0.0
 10
11.5034421362
 20
7.7455503147
 30
0.0
 10
11.5239449197
 20
7.7364846001
 30
0.0
 10
11.5439312048
 20
7.7261920418
 30
0.0
 10
11.5633202447
 20
7.7147068972
 30
0.0
 10
11.5820321026
 20
7.7020680991
 30
0.0
 10
11.5999879159
 20
7.688319411
 30
0.0
 10
11.617110215
 20
7.6735095705
 30
0.0
 10
11.6333232976
 20
7.6576924116
 30
0.0
 10
11.6485536609
 20
7.6409269524
 30
0.0
 10
11.6627304873
 20
7.6232774368
 30
0.0
 10
11.6757861801
 20
7.6048133168
 30
0.0
 10
11.6876569399
 20
7.5856091615
 30
0.0
 10
11.6982833721
 20
7.5657444911
 30
0.0
 10
11.707611109
 20
7.5453034943
 30
0.0
 10
11.7155914304
 20
7.5243747387
 30
0.0
 10
11.7221818732
 20
7.5030504539
 30
0.0
 10
11.7273467337
 20
7.481426928
 30
0.0
 10
11.7304428467
 20
7.4632173776
 30
0.0
 10
11.7321798079
 20
7.4486006037
 30
0.0
 10
11.7334196722
 20
7.4340013096
 30
0.0
 10
11.7337948586
 20
7.4230221589
 30
0.0
 10
11.7337948586
 20
7.4157147457
 30
0.0
  0
SPLINE
  5
2D2
100
AcDbEntity
  8
0
100
AcDbSpline
 62
7
  6
CONTINUOUS
 70
0
 71
3
 72
18
 73
14
 74
0
 42
0.0000001
 43
0.0000001
 44
0.0000000001
 40
0.0
 40
0.0
 40
0.0
 40
0.0
 40
0.0544329352
 40
0.1090826489
 40
0.1641632408
 40
0.2198833593
 40
0.3339856842
 40
0.4529290252
 40
0.5146470264
 40
0.5780419322
 40
0.7103385855
 40
0.8507563301
 40
1.0
 40
1.0
 40
1.0
 40
1.0
 10
8.5036572864
 20
10.3938595996
 30
0.0
 10
8.5028943199
 20
10.3939125078
 30
0.0
 10
8.5013614102
 20
10.3939685492
 30
0.0
 10
8.4990542888
 20
10.3939025792
 30
0.0
 10
8.4967380592
 20
10.3936866245
 30
0.0
 10
8.4936147421
 20
10.3931952518
 30
0.0
 10
8.489672561
 20
10.3921925925
 30
0.0
 10
8.4857939866
 20
10.390716291
 30
0.0
 10
8.4826916543
 20
10.3892527373
 30
0.0
 10
8.4794997317
 20
10.3875493317
 30
0.0
 10
8.4754960697
 20
10.3850320084
 30
0.0
 10
8.4707519536
 20
10.3814671625
 30
0.0
 10
8.4676839159
 20
10.3787872505
 30
0.0
 10
8.4661489251
 20
10.3773586614
 30
0.0
  0
SPLINE
  5
2D3
100
AcDbEntity
  8
0
100
AcDbSpline
 62
7
  6
CONTINUOUS
 70
0
 71
3
 72
18
 73
14
 74
0
 42
0.0000001
 43
0.0000001
 44
0.0000000001
 40
0.0
 40
0.0
 40
0.0
 40
0.0
 40
0.1492433865
 40
0.2896567537
 40
0.4219549226
 40
0.4853510248
 40
0.547069665
 40
0.6660128776
 40
0.7801156975
 40
0.8358359998
 40
0.8909168778
 40
0.9455668631
 40
1.0
 40
1.0
 40
1.0
 40
1.0
 10
8.2049320919
 20
7.0008776335
 30
0.0
 10
8.2062551733
 20
6.9992508263
 30
0.0
 10
8.2089238855
 20
6.9961731277
 30
0.0
 10
8.2131304732
 20
6.9919875753
 30
0.0
 10
8.2167483184
 20
6.9889417269
 30
0.0
 10
8.2196745702
 20
6.9868139715
 30
0.0
 10
8.2225451794
 20
6.9849361456
 30
0.0
 10
8.2261828852
 20
6.9829386463
 30
0.0
 10
8.2299489056
 20
6.9814013549
 30
0.0
 10
8.2329745209
 20
6.9804835864
 30
0.0
 10
8.2352387743
 20
6.9799499629
 30
0.0
 10
8.2375147089
 20
6.9795661216
 30
0.0
 10
8.2390406888
 20
6.9794100448
 30
0.0
 10
8.2398036581
 20
6.9793571363
 30
0.0
  0
SPLINE
  5
2D4
100
AcDbEntity
  8
0
100
AcDbSpline
 62
7
  6
CONTINUOUS
 70
0
 71
3
 72
47
 73
43
 74
0
 42
0.0000001
 43
0.0000001
 44
0.0000000001
 40
0.0
 40
0.0
 40
0.0
 40
0.0
 40
0.0063158953
 40
0.0126706964
 40
0.0191025413
 40
0.0256481068
 40
0.0323419887
 40
0.0392163511
 40
0.0536141938
 40
0.0611949453
 40
0.0690567093
 40
0.0772178306
 40
0.0856942536
 40
0.094499648
 40
0.1036457893
 40
0.1131425899
 40
0.1229983503
 40
0.1332200167
 40
0.1438131323
 40
0.1547821683
 40
0.1661305713
 40
0.1899729423
 40
0.2153524409
 40
0.2422683478
 40
0.2707106917
 40
0.3006617255
 40
0.3320970385
 40
0.3649863926
 40
0.3992943516
 40
0.4349809011
 40
0.4720019229
 40
0.5103095575
 40
0.5498524869
 40
0.5905762826
 40
0.6324236706
 40
0.6753347453
 40
0.7192471563
 40
0.7640962954
 40
0.8098156376
 40
0.856336788
 40
0.9035890146
 40
1.0
 40
1.0
 40
1.0
 40
1.0
 10
13.3074962738
 20
8.0488244697
 30
0.0
 10
13.3063875109
 20
8.048901363
 30
0.0
 10
13.3041683976
 20
8.0491464037
 30
0.0
 10
13.3008645918
 20
8.0497850281
 30
0.0
 10
13.2975828631
 20
8.0506947432
 30
0.0
 10
13.2943251587
 20
8.0518748801
 30
0.0
 10
13.2910927074
 20
8.0533246414
 30
0.0
 10
13.2867524256
 20
8.0556512921
 30
0.0
 10
13.2825299781
 20
8.0584994142
 30
0.0
 10
13.278443761
 20
8.0617999968
 30
0.0
 10
13.2753572736
 20
8.0645827557
 30
0.0
 10
13.2723037354
 20
8.0676284824
 30
0.0
 10
13.2692839541
 20
8.0709361272
 30
0.0
 10
13.2662990951
 20
8.0745042056
 30
0.0
 10
13.2633503144
 20
8.0783313149
 30
0.0
 10
13.2604387256
 20
8.0824158704
 30
0.0
 10
13.2575654361
 20
8.0867562064
 30
0.0
 10
13.254731628
 20
8.0913505943
 30
0.0
 10
13.2519383791
 20
8.0961971379
 30
0.0
 10
13.2491867942
 20
8.1012938946
 30
0.0
 10
13.2455145597
 20
8.1085401459
 30
0.0
 10
13.2410488808
 20
8.118222805
 30
0.0
 10
13.2359586467
 20
8.130620048
 30
0.0
 10
13.2310604499
 20
8.1439598897
 30
0.0
 10
13.2263623038
 20
8.1582205615
 30
0.0
 10
13.2218719167
 20
8.1733790399
 30
0.0
 10
13.217596722
 20
8.1894106323
 30
0.0
 10
13.2135438237
 20
8.2062891645
 30
0.0
 10
13.2097199486
 20
8.2239869885
 30
0.0
 10
13.20613146
 20
8.2424750648
 30
0.0
 10
13.2027843392
 20
8.2617230241
 30
0.0
 10
13.1996841733
 20
8.2816992147
 30
0.0
 10
13.1968361179
 20
8.3023707539
 30
0.0
 10
13.1942449169
 20
8.3237035948
 30
0.0
 10
13.1919148921
 20
8.3456625931
 30
0.0
 10
13.1898499355
 20
8.3682115611
 30
0.0
 10
13.1880534816
 20
8.3913133153
 30
0.0
 10
13.1865285177
 20
8.414929769
 30
0.0
 10
13.1852775996
 20
8.4390219702
 30
0.0
 10
13.1843028069
 20
8.4635501624
 30
0.0
 10
13.1833672644
 20
8.4970048978
 30
0.0
 10
13.183095886
 20
8.5222870466
 30
0.0
 10
13.183095886
 20
8.5392527603
 30
0.0
  0
SPLINE
  5
2D5
100
AcDbEntity
  8
0
100
AcDbSpline
 62
7
  6
CONTINUOUS
 70
0
 71
3
 72
21
 73
17
 74
0
 42
0.0000001
 43
0.0000001
 44
0.0000000001
 40
0.0
 40
0.0
 40
0.0
 40
0.0
 40
0.1273176984
 40
0.2537999461
 40
0.3167619614
 40
0.3795355204
 40
0.4421314992
 40
0.5045621453
 40
0.5668413456
 40
0.6289845231
 40
0.6910084433
 40
0.7529310869
 40
0.8147714401
 40
0.8765493236
 40
0.9382852134
 40
1.0
 40
1.0
 40
1.0
 40
1.0
 10
8.6794067238
 20
9.7419489363
 30
0.0
 10
8.6794067238
 20
9.7484473588
 30
0.0
 10
8.6800270417
 20
9.7614099264
 30
0.0
 10
8.6823698077
 20
9.7774344583
 30
0.0
 10
8.6851699098
 20
9.7900043003
 30
0.0
 10
8.6877234568
 20
9.7992758218
 30
0.0
 10
8.6907275521
 20
9.8083825931
 30
0.0
 10
8.6941752697
 20
9.8173038798
 30
0.0
 10
8.6980586608
 20
9.8260190483
 30
0.0
 10
8.7023688492
 20
9.8345079845
 30
0.0
 10
8.707095864
 20
9.8427511201
 30
0.0
 10
8.7122288038
 20
9.8507294578
 30
0.0
 10
8.7177558808
 20
9.8584245358
 30
0.0
 10
8.723664383
 20
9.8658186816
 30
0.0
 10
8.7299404223
 20
9.8728946372
 30
0.0
 10
8.7343607209
 20
9.8773897008
 30
0.0
 10
8.7366263682
 20
9.8795781348
 30
0.0
  0
SPLINE
  5
2D6
100
AcDbEntity
  8
0
100
AcDbSpline
 62
7
  6
CONTINUOUS
 70
0
 71
3
 72
15
 73
11
 74
0
 42
0.0000001
 43
0.0000001
 44
0.0000000001
 40
0.0
 40
0.0
 40
0.0
 40
0.0
 40
0.127347711
 40
0.2538606874
 40
0.3795878987
 40
0.5046050998
 40
0.6290174656
 40
0.7529533976
 40
0.8765605982
 40
1.0
 40
1.0
 40
1.0
 40
1.0
 10
11.72110742
 20
9.5310062766
 30
0.0
 10
11.72110742
 20
9.5334084771
 30
0.0
 10
11.7213367823
 20
9.5382004528
 30
0.0
 10
11.7223740241
 20
9.5452962535
 30
0.0
 10
11.7240939797
 20
9.552213774
 30
0.0
 10
11.7264810845
 20
9.5588883036
 30
0.0
 10
11.7295134399
 20
9.5652583065
 30
0.0
 10
11.7331634081
 20
9.5712649618
 30
0.0
 10
11.7373966747
 20
9.5768519834
 30
0.0
 10
11.7405840973
 20
9.5802648781
 30
0.0
 10
11.7422588558
 20
9.581882589
 30
0.0
  0
SPLINE
  5
2D7
100
AcDbEntity
  8
0
100
AcDbSpline
 62
7
  6
CONTINUOUS
 70
0
 71
3
 72
44
 73
40
 74
0
 42
0.0000001
 43
0.0000001
 44
0.0000000001
 40
0.0
 40
0.0
 40
0.0
 40
0.0
 40
0.0071626857
 40
0.0146567757
 40
0.022489911
 40
0.0306684145
 40
0.0391974259
 40
0.0480806762
 40
0.0573204283
 40
0.0669179841
 40
0.0768736187
 40
0.0871868551
 40
0.0978564091
 40
0.1088802697
 40
0.1202558776
 40
0.1319799881
 40
0.1564577855
 40
0.1822791762
 40
0.2094020597
 40
0.23777844
 40
0.2673551012
 40
0.2980741647
 40
0.329873556
 40
0.3626874121
 40
0.3964464604
 40
0.4310783547
 40
0.4665079852
 40
0.5026577713
 40
0.5394479405
 40
0.5767967958
 40
0.6146209874
 40
0.652835776
 40
0.6913552897
 40
0.7689593762
 40
0.8467346714
 40
0.885467838
 40
0.9239805093
 40
0.9621870323
 40
1.0
 40
1.0
 40
1.0
 40
1.0
 10
8.2786851023
 20
10.1963066999
 30
0.0
 10
8.2774677161
 20
10.195130795
 30
0.0
 10
8.2750345722
 20
10.1926640031
 30
0.0
 10
8.271468385
 20
10.1887218548
 30
0.0
 10
8.2679067507
 20
10.1844578175
 30
0.0
 10
8.2643519259
 20
10.1798746522
 30
0.0
 10
8.2608058826
 20
10.1749750202
 30
0.0
 10
8.2572706907
 20
10.1697617581
 30
0.0
 10
8.2537483587
 20
10.1642379689
 30
0.0
 10
8.2502410705
 20
10.1584069034
 30
0.0
 10
8.2467508484
 20
10.1522720646
 30
0.0
 10
8.2432798118
 20
10.1458370867
 30
0.0
 10
8.2398300274
 20
10.13910581
 30
0.0
 10
8.2364035453
 20
10.1320822648
 30
0.0
 10
8.2330024496
 20
10.1247706315
 30
0.0
 10
8.2284384965
 20
10.1144954255
 30
0.0
 10
8.2228232689
 20
10.100954618
 30
0.0
 10
8.2163112804
 20
10.0838553065
 30
0.0
 10
8.2099480869
 20
10.0657209041
 30
0.0
 10
8.2037490841
 20
10.0465949283
 30
0.0
 10
8.1977292854
 20
10.0265231204
 30
0.0
 10
8.1919032718
 20
10.0055536257
 30
0.0
 10
8.1862851541
 20
9.9837367795
 30
0.0
 10
8.180888531
 20
9.9611250015
 30
0.0
 10
8.1757264633
 20
9.937772651
 30
0.0
 10
8.1708114402
 20
9.9137358899
 30
0.0
 10
8.1661553496
 20
9.8890725432
 30
0.0
 10
8.1617694503
 20
9.8638419567
 30
0.0
 10
8.1576643466
 20
9.8381048553
 30
0.0
 10
8.1538499532
 20
9.8119231903
 30
0.0
 10
8.150335491
 20
9.7853600054
 30
0.0
 10
8.1471294089
 20
9.7584792127
 30
0.0
 10
8.1432668982
 20
9.7222128372
 30
0.0
 10
8.1392652943
 20
9.6765639909
 30
0.0
 10
8.136378033
 20
9.6307806036
 30
0.0
 10
8.1347485392
 20
9.5941840687
 30
0.0
 10
8.133874073
 20
9.5669155556
 30
0.0
 10
8.1333476837
 20
9.5398556598
 30
0.0
 10
8.133228919
 20
9.5218917916
 30
0.0
 10
8.133228919
 20
9.512956461
 30
0.0
  0
SPLINE
  5
2D8
100
AcDbEntity
  8
0
100
AcDbSpline
 62
7
  6
CONTINUOUS
 70
0
 71
3
 72
23
 73
19
 74
0
 42
0.0000001
 43
0.0000001
 44
0.0000000001
 40
0.0
 40
0.0
 40
0.0
 40
0.0
 40
0.0812193332
 40
0.1593697577
 40
0.2345157338
 40
0.3067346313
 40
0.3761199597
 40
0.442782543
 40
0.5068521552
 40
0.5684807857
 40
0.6278431382
 40
0.6851394578
 40
0.7405963555
 40
0.7944668113
 40
0.8470302385
 40
0.898589376
 40
0.949466949
 40
1.0
 40
1.0
 40
1.0
 40
1.0
 10
13.365003877
 20
8.0829322941
 30
0.0
 10
13.3638197237
 20
8.0814721334
 30
0.0
 10
13.361451295
 20
8.0786429363
 30
0.0
 10
13.3578254509
 20
8.0746016954
 30
0.0
 10
13.3541970414
 20
8.0708471953
 30
0.0
 10
13.3505676147
 20
8.0673812277
 30
0.0
 10
13.3469387194
 20
8.0642053418
 30
0.0
 10
13.3433118924
 20
8.0613209867
 30
0.0
 10
13.3396885793
 20
8.0587295918
 30
0.0
 10
13.3360703224
 20
8.0564323638
 30
0.0
 10
13.3324585556
 20
8.0544305633
 30
0.0
 10
13.3288547869
 20
8.0527253166
 30
0.0
 10
13.3252605708
 20
8.0513176492
 30
0.0
 10
13.3216774725
 20
8.0502086588
 30
0.0
 10
13.3181072698
 20
8.0493991423
 30
0.0
 10
13.3145516888
 20
8.0488899389
 30
0.0
 10
13.3110130531
 20
8.0486815891
 30
0.0
 10
13.3086631512
 20
8.0487435463
 30
0.0
 10
13.3074962738
 20
8.0488244697
 30
0.0
  0
SPLINE
  5
2D9
100
AcDbEntity
  8
0
100
AcDbSpline
 62
7
  6
CONTINUOUS
 70
0
 71
3
 72
15
 73
11
 74
0
 42
0.0000001
 43
0.0000001
 44
0.0000000001
 40
0.0
 40
0.0
 40
0.0
 40
0.0
 40
0.1273483438
 40
0.2538606048
 40
0.3795878922
 40
0.5046051199
 40
0.6290174392
 40
0.7529533668
 40
0.8765605676
 40
1.0
 40
1.0
 40
1.0
 40
1.0
 10
10.0447429551
 20
9.7081158715
 30
0.0
 10
10.0447429551
 20
9.7124430358
 30
0.0
 10
10.045156117
 20
9.7210749376
 30
0.0
 10
10.0470245983
 20
9.7338567675
 30
0.0
 10
10.0501228533
 20
9.7463174315
 30
0.0
 10
10.0544228905
 20
9.7583403979
 30
0.0
 10
10.0598852705
 20
9.7698147829
 30
0.0
 10
10.0664602032
 20
9.7806346217
 30
0.0
 10
10.0740858367
 20
9.7906985558
 30
0.0
 10
10.0798275662
 20
9.7968461482
 30
0.0
 10
10.0828443791
 20
9.7997601416
 30
0.0
  0
SPLINE
  5
2DA
100
AcDbEntity
  8
0
100
AcDbSpline
 62
7
  6
CONTINUOUS
 70
0
 71
3
 72
42
 73
38
 74
0
 42
0.0000001
 43
0.0000001
 44
0.0000000001
 40
0.0
 40
0.0
 40
0.0
 40
0.0
 40
0.0299419634
 40
0.0449235299
 40
0.0599142017
 40
0.0899287029
 40
0.1200139772
 40
0.1350926626
 40
0.1501967046
 40
0.1804840506
 40
0.2108978877
 40
0.2414513551
 40
0.2721543675
 40
0.3030134354
 40
0.3340315696
 40
0.3652082675
 40
0.3965395775
 40
0.4280182343
 40
0.4596338596
 40
0.4913732188
 40
0.5232205284
 40
0.5551578047
 40
0.5871652463
 40
0.6192216448
 40
0.6513048151
 40
0.6833920402
 40
0.7154605222
 40
0.747487836
 40
0.7794523759
 40
0.8113337934
 40
0.8431134117
 40
0.8747746318
 40
0.9063032512
 40
0.9376879208
 40
0.9533258
 40
0.9689252634
 40
1.0
 40
1.0
 40
1.0
 40
1.0
 10
9.0298078023
 20
9.5760511448
 30
0.0
 10
9.0263073806
 20
9.5726700176
 30
0.0
 10
9.0208504124
 20
9.567803208
 30
0.0
 10
9.0132080514
 20
9.5617645573
 30
0.0
 10
9.0053223195
 20
9.556026399
 30
0.0
 10
8.9950327361
 20
9.5494371343
 30
0.0
 10
8.9842428669
 20
9.5436734346
 30
0.0
 10
8.9753440211
 20
9.539573133
 30
0.0
 10
8.9662613513
 20
9.5358113175
 30
0.0
 10
8.9546086978
 20
9.5317663027
 30
0.0
 10
8.9402485686
 20
9.5279964504
 30
0.0
 10
8.9255750992
 20
9.5253258002
 30
0.0
 10
8.9106696078
 20
9.5237690859
 30
0.0
 10
8.8956139734
 20
9.523334615
 30
0.0
 10
8.8804910364
 20
9.5240245988
 30
0.0
 10
8.8653839159
 20
9.5258350515
 30
0.0
 10
8.8503756188
 20
9.5287558475
 30
0.0
 10
8.8355485726
 20
9.5327707768
 30
0.0
 10
8.8209841829
 20
9.5378576412
 30
0.0
 10
8.806762392
 20
9.543988379
 30
0.0
 10
8.7929612463
 20
9.5511292219
 30
0.0
 10
8.7796564739
 20
9.5592408807
 30
0.0
 10
8.7669210751
 20
9.5682787612
 30
0.0
 10
8.7548249263
 20
9.5781932071
 30
0.0
 10
8.7434344015
 20
9.5889297718
 30
0.0
 10
8.7328120121
 20
9.6004295136
 30
0.0
 10
8.7230160676
 20
9.6126293167
 30
0.0
 10
8.7141003582
 20
9.625462235
 30
0.0
 10
8.7061138629
 20
9.6388578508
 30
0.0
 10
8.6991004818
 20
9.652742673
 30
0.0
 10
8.6930987984
 20
9.6670404774
 30
0.0
 10
8.6881418562
 20
9.6816729317
 30
0.0
 10
8.6842570389
 20
9.6965592355
 30
0.0
 10
8.6819280046
 20
9.7091248898
 30
0.0
 10
8.6806214855
 20
9.7192212407
 30
0.0
 10
8.6796890549
 20
9.7293079302
 30
0.0
 10
8.6794067238
 20
9.7368980961
 30
0.0
 10
8.6794067238
 20
9.7419489363
 30
0.0
  0
SPLINE
  5
2DB
100
AcDbEntity
  8
0
100
AcDbSpline
 62
7
  6
CONTINUOUS
 70
0
 71
3
 72
42
 73
38
 74
0
 42
0.0000001
 43
0.0000001
 44
0.0000000001
 40
0.0
 40
0.0
 40
0.0
 40
0.0
 40
0.0299419634
 40
0.0449235299
 40
0.0599142017
 40
0.0899287029
 40
0.1200139772
 40
0.1350926626
 40
0.1501967046
 40
0.1804840506
 40
0.2108978877
 40
0.2414513551
 40
0.2721543675
 40
0.3030134354
 40
0.3340315696
 40
0.3652082675
 40
0.3965395775
 40
0.4280182343
 40
0.4596338596
 40
0.4913732188
 40
0.5232205284
 40
0.5551578047
 40
0.5871652463
 40
0.6192216448
 40
0.6513048151
 40
0.6833920402
 40
0.7154605222
 40
0.747487836
 40
0.7794523759
 40
0.8113337934
 40
0.8431134117
 40
0.8747746318
 40
0.9063032512
 40
0.9376879208
 40
0.9533258
 40
0.9689252634
 40
1.0
 40
1.0
 40
1.0
 40
1.0
 10
12.8935111637
 20
9.3081024066
 30
0.0
 10
12.890010742
 20
9.3047212794
 30
0.0
 10
12.8845537738
 20
9.2998544699
 30
0.0
 10
12.8769114127
 20
9.2938158191
 30
0.0
 10
12.8690256809
 20
9.2880776608
 30
0.0
 10
12.8587360975
 20
9.2814883961
 30
0.0
 10
12.8479462283
 20
9.2757246964
 30
0.0
 10
12.8390473825
 20
9.2716243948
 30
0.0
 10
12.8299647127
 20
9.2678625793
 30
0.0
 10
12.8183120592
 20
9.2638175645
 30
0.0
 10
12.80395193
 20
9.2600477122
 30
0.0
 10
12.7892784606
 20
9.257377062
 30
0.0
 10
12.7743729692
 20
9.2558203477
 30
0.0
 10
12.7593173347
 20
9.2553858768
 30
0.0
 10
12.7441943978
 20
9.2560758606
 30
0.0
 10
12.7290872773
 20
9.2578863133
 30
0.0
 10
12.7140789802
 20
9.2608071093
 30
0.0
 10
12.699251934
 20
9.2648220387
 30
0.0
 10
12.6846875443
 20
9.269908903
 30
0.0
 10
12.6704657534
 20
9.2760396408
 30
0.0
 10
12.6566646076
 20
9.2831804837
 30
0.0
 10
12.6433598353
 20
9.2912921426
 30
0.0
 10
12.6306244365
 20
9.300330023
 30
0.0
 10
12.6185282877
 20
9.310244469
 30
0.0
 10
12.6071377629
 20
9.3209810336
 30
0.0
 10
12.5965153735
 20
9.3324807754
 30
0.0
 10
12.5867194289
 20
9.3446805785
 30
0.0
 10
12.5778037196
 20
9.3575134968
 30
0.0
 10
12.5698172243
 20
9.3709091126
 30
0.0
 10
12.5628038432
 20
9.3847939348
 30
0.0
 10
12.5568021598
 20
9.3990917392
 30
0.0
 10
12.5518452176
 20
9.4137241935
 30
0.0
 10
12.5479604003
 20
9.4286104973
 30
0.0
 10
12.545631366
 20
9.4411761516
 30
0.0
 10
12.5443248469
 20
9.4512725025
 30
0.0
 10
12.5433924162
 20
9.461359192
 30
0.0
 10
12.5431100852
 20
9.4689493579
 30
0.0
 10
12.5431100852
 20
9.4740001982
 30
0.0
  0
SPLINE
  5
2DC
100
AcDbEntity
  8
0
100
AcDbSpline
 62
7
  6
CONTINUOUS
 70
0
 71
3
 72
15
 73
11
 74
0
 42
0.0000001
 43
0.0000001
 44
0.0000000001
 40
0.0
 40
0.0
 40
0.0
 40
0.0
 40
0.1273483438
 40
0.2538606048
 40
0.3795878922
 40
0.5046051199
 40
0.6290174392
 40
0.7529533668
 40
0.8765605676
 40
1.0
 40
1.0
 40
1.0
 40
1.0
 10
10.6494124882
 20
6.8862471552
 30
0.0
 10
10.6494124882
 20
6.8905743194
 30
0.0
 10
10.6498256501
 20
6.8992062212
 30
0.0
 10
10.6516941314
 20
6.9119880512
 30
0.0
 10
10.6547923863
 20
6.9244487151
 30
0.0
 10
10.6590924236
 20
6.9364716815
 30
0.0
 10
10.6645548036
 20
6.9479460665
 30
0.0
 10
10.6711297362
 20
6.9587659053
 30
0.0
 10
10.6787553698
 20
6.9688298394
 30
0.0
 10
10.6844970993
 20
6.9749774319
 30
0.0
 10
10.6875139121
 20
6.9778914253
 30
0.0
  0
SPLINE
  5
2DD
100
AcDbEntity
  8
0
100
AcDbSpline
 62
7
  6
CONTINUOUS
 70
0
 71
3
 72
42
 73
38
 74
0
 42
0.0000001
 43
0.0000001
 44
0.0000000001
 40
0.0
 40
0.0
 40
0.0
 40
0.0
 40
0.0299419634
 40
0.0449235299
 40
0.0599142017
 40
0.0899287029
 40
0.1200139772
 40
0.1350926626
 40
0.1501967046
 40
0.1804840506
 40
0.2108978877
 40
0.2414513551
 40
0.2721543675
 40
0.3030134354
 40
0.3340315696
 40
0.3652082675
 40
0.3965395775
 40
0.4280182343
 40
0.4596338596
 40
0.4913732188
 40
0.5232205284
 40
0.5551578047
 40
0.5871652463
 40
0.6192216448
 40
0.6513048151
 40
0.6833920402
 40
0.7154605222
 40
0.747487836
 40
0.7794523759
 40
0.8113337934
 40
0.8431134117
 40
0.8747746318
 40
0.9063032512
 40
0.9376879208
 40
0.9533258
 40
0.9689252634
 40
1.0
 40
1.0
 40
1.0
 40
1.0
 10
12.8935111637
 20
6.6498742849
 30
0.0
 10
12.890010742
 20
6.6464931577
 30
0.0
 10
12.8845537738
 20
6.6416263481
 30
0.0
 10
12.8769114127
 20
6.6355876974
 30
0.0
 10
12.8690256809
 20
6.6298495391
 30
0.0
 10
12.8587360975
 20
6.6232602744
 30
0.0
 10
12.8479462283
 20
6.6174965747
 30
0.0
 10
12.8390473825
 20
6.613396273
 30
0.0
 10
12.8299647127
 20
6.6096344576
 30
0.0
 10
12.8183120592
 20
6.6055894428
 30
0.0
 10
12.80395193
 20
6.6018195905
 30
0.0
 10
12.7892784606
 20
6.5991489403
 30
0.0
 10
12.7743729692
 20
6.5975922259
 30
0.0
 10
12.7593173347
 20
6.5971577551
 30
0.0
 10
12.7441943978
 20
6.5978477389
 30
0.0
 10
12.7290872773
 20
6.5996581916
 30
0.0
 10
12.7140789802
 20
6.6025789876
 30
0.0
 10
12.699251934
 20
6.6065939169
 30
0.0
 10
12.6846875443
 20
6.6116807813
 30
0.0
 10
12.6704657534
 20
6.6178115191
 30
0.0
 10
12.6566646076
 20
6.624952362
 30
0.0
 10
12.6433598353
 20
6.6330640208
 30
0.0
 10
12.6306244365
 20
6.6421019012
 30
0.0
 10
12.6185282877
 20
6.6520163472
 30
0.0
 10
12.6071377629
 20
6.6627529118
 30
0.0
 10
12.5965153735
 20
6.6742526536
 30
0.0
 10
12.5867194289
 20
6.6864524568
 30
0.0
 10
12.5778037196
 20
6.699285375
 30
0.0
 10
12.5698172243
 20
6.7126809909
 30
0.0
 10
12.5628038432
 20
6.7265658131
 30
0.0
 10
12.5568021598
 20
6.7408636175
 30
0.0
 10
12.5518452176
 20
6.7554960718
 30
0.0
 10
12.5479604003
 20
6.7703823756
 30
0.0
 10
12.545631366
 20
6.7829480299
 30
0.0
 10
12.5443248469
 20
6.7930443808
 30
0.0
 10
12.5433924162
 20
6.8031310703
 30
0.0
 10
12.5431100852
 20
6.8107212362
 30
0.0
 10
12.5431100852
 20
6.8157720764
 30
0.0
  0
SPLINE
  5
2DE
100
AcDbEntity
  8
0
100
AcDbSpline
 62
7
  6
CONTINUOUS
 70
0
 71
3
 72
42
 73
38
 74
0
 42
0.0000001
 43
0.0000001
 44
0.0000000001
 40
0.0
 40
0.0
 40
0.0
 40
0.0
 40
0.0299419634
 40
0.0449235299
 40
0.0599142017
 40
0.0899287029
 40
0.1200139772
 40
0.1350926626
 40
0.1501967046
 40
0.1804840506
 40
0.2108978877
 40
0.2414513551
 40
0.2721543675
 40
0.3030134354
 40
0.3340315696
 40
0.3652082675
 40
0.3965395775
 40
0.4280182343
 40
0.4596338596
 40
0.4913732188
 40
0.5232205284
 40
0.5551578047
 40
0.5871652463
 40
0.6192216448
 40
0.6513048151
 40
0.6833920402
 40
0.7154605222
 40
0.747487836
 40
0.7794523759
 40
0.8113337934
 40
0.8431134117
 40
0.8747746318
 40
0.9063032512
 40
0.9376879208
 40
0.9533258
 40
0.9689252634
 40
1.0
 40
1.0
 40
1.0
 40
1.0
 10
9.0298078023
 20
6.9178230231
 30
0.0
 10
9.0263073806
 20
6.9144418959
 30
0.0
 10
9.0208504124
 20
6.9095750863
 30
0.0
 10
9.0132080514
 20
6.9035364356
 30
0.0
 10
9.0053223195
 20
6.8977982773
 30
0.0
 10
8.9950327361
 20
6.8912090125
 30
0.0
 10
8.9842428669
 20
6.8854453129
 30
0.0
 10
8.9753440211
 20
6.8813450112
 30
0.0
 10
8.9662613513
 20
6.8775831958
 30
0.0
 10
8.9546086978
 20
6.873538181
 30
0.0
 10
8.9402485686
 20
6.8697683287
 30
0.0
 10
8.9255750992
 20
6.8670976785
 30
0.0
 10
8.9106696078
 20
6.8655409641
 30
0.0
 10
8.8956139734
 20
6.8651064933
 30
0.0
 10
8.8804910364
 20
6.865796477
 30
0.0
 10
8.8653839159
 20
6.8676069297
 30
0.0
 10
8.8503756188
 20
6.8705277258
 30
0.0
 10
8.8355485726
 20
6.8745426551
 30
0.0
 10
8.8209841829
 20
6.8796295194
 30
0.0
 10
8.806762392
 20
6.8857602573
 30
0.0
 10
8.7929612463
 20
6.8929011002
 30
0.0
 10
8.7796564739
 20
6.901012759
 30
0.0
 10
8.7669210751
 20
6.9100506394
 30
0.0
 10
8.7548249263
 20
6.9199650854
 30
0.0
 10
8.7434344015
 20
6.93070165
 30
0.0
 10
8.7328120121
 20
6.9422013918
 30
0.0
 10
8.7230160676
 20
6.954401195
 30
0.0
 10
8.7141003582
 20
6.9672341132
 30
0.0
 10
8.7061138629
 20
6.9806297291
 30
0.0
 10
8.6991004818
 20
6.9945145513
 30
0.0
 10
8.6930987984
 20
7.0088123557
 30
0.0
 10
8.6881418562
 20
7.02344481
 30
0.0
 10
8.6842570389
 20
7.0383311138
 30
0.0
 10
8.6819280046
 20
7.0508967681
 30
0.0
 10
8.6806214855
 20
7.060993119
 30
0.0
 10
8.6796890549
 20
7.0710798085
 30
0.0
 10
8.6794067238
 20
7.0786699744
 30
0.0
 10
8.6794067238
 20
7.0837208146
 30
0.0
  0
SPLINE
  5
2DF
100
AcDbEntity
  8
0
100
AcDbSpline
 62
7
  6
CONTINUOUS
 70
0
 71
3
 72
40
 73
36
 74
0
 42
0.0000001
 43
0.0000001
 44
0.0000000001
 40
0.0
 40
0.0
 40
0.0
 40
0.0
 40
0.0299422917
 40
0.0449240218
 40
0.0599148595
 40
0.0899296895
 40
0.1200152935
 40
0.1501925778
 40
0.1804802557
 40
0.2108944263
 40
0.2414482291
 40
0.2721515789
 40
0.3030109866
 40
0.3340294629
 40
0.3652065054
 40
0.3965381623
 40
0.4280171682
 40
0.4596331441
 40
0.4913728551
 40
0.5232205171
 40
0.5551581459
 40
0.5871659397
 40
0.6192226901
 40
0.6513062117
 40
0.6833937874
 40
0.7154626194
 40
0.7474902821
 40
0.779455171
 40
0.8113369343
 40
0.8431169059
 40
0.8747784521
 40
0.906307475
 40
0.9376923384
 40
0.96892512
 40
1.0
 40
1.0
 40
1.0
 40
1.0
 10
10.2780667045
 20
9.5976482018
 30
0.0
 10
10.2757358545
 20
9.5953967921
 30
0.0
 10
10.2721021746
 20
9.5921561201
 30
0.0
 10
10.2670133064
 20
9.5881351179
 30
0.0
 10
10.2617623878
 20
9.5843142552
 30
0.0
 10
10.2549106078
 20
9.5799265448
 30
0.0
 10
10.2462837338
 20
9.5753182223
 30
0.0
 10
10.2372947516
 20
9.5713888325
 30
0.0
 10
10.2279935198
 20
9.5681601621
 30
0.0
 10
10.2184312259
 20
9.5656498259
 30
0.0
 10
10.208660569
 20
9.5638715429
 30
0.0
 10
10.1987353393
 20
9.5628349691
 30
0.0
 10
10.1887101542
 20
9.5625456782
 30
0.0
 10
10.178640149
 20
9.5630051318
 30
0.0
 10
10.1685806775
 20
9.5642106791
 30
0.0
 10
10.1585870103
 20
9.5661555773
 30
0.0
 10
10.1487140344
 20
9.5688290331
 30
0.0
 10
10.1390159562
 20
9.5722162655
 30
0.0
 10
10.1295460073
 20
9.5762985886
 30
0.0
 10
10.120356157
 20
9.5810535163
 30
0.0
 10
10.1114968307
 20
9.5864548865
 30
0.0
 10
10.1030166374
 20
9.5924730048
 30
0.0
 10
10.0949621058
 20
9.599074806
 30
0.0
 10
10.0873774326
 20
9.6062240353
 30
0.0
 10
10.0803042423
 20
9.6138814447
 30
0.0
 10
10.0737813616
 20
9.6220050073
 30
0.0
 10
10.0678446078
 20
9.6305501446
 30
0.0
 10
10.0625265954
 20
9.6394699693
 30
0.0
 10
10.0578565541
 20
9.6487155396
 30
0.0
 10
10.0538601807
 20
9.6582361198
 30
0.0
 10
10.05055947
 20
9.6679794797
 30
0.0
 10
10.0479726568
 20
9.677892077
 30
0.0
 10
10.0461139909
 20
9.6879197153
 30
0.0
 10
10.0449938571
 20
9.6980065562
 30
0.0
 10
10.0447429551
 20
9.7047526586
 30
0.0
 10
10.0447429551
 20
9.7081158715
 30
0.0
  0
SPLINE
  5
2E0
100
AcDbEntity
  8
0
100
AcDbSpline
 62
7
  6
CONTINUOUS
 70
0
 71
3
 72
40
 73
36
 74
0
 42
0.0000001
 43
0.0000001
 44
0.0000000001
 40
0.0
 40
0.0
 40
0.0
 40
0.0
 40
0.0299422917
 40
0.0449240218
 40
0.0599148595
 40
0.0899296895
 40
0.1200152935
 40
0.1501925778
 40
0.1804802557
 40
0.2108944263
 40
0.2414482291
 40
0.2721515789
 40
0.3030109866
 40
0.3340294629
 40
0.3652065054
 40
0.3965381623
 40
0.4280171682
 40
0.4596331441
 40
0.4913728551
 40
0.5232205171
 40
0.5551581459
 40
0.5871659397
 40
0.6192226901
 40
0.6513062117
 40
0.6833937874
 40
0.7154626194
 40
0.7474902821
 40
0.779455171
 40
0.8113369343
 40
0.8431169059
 40
0.8747784521
 40
0.906307475
 40
0.9376923384
 40
0.96892512
 40
1.0
 40
1.0
 40
1.0
 40
1.0
 10
10.8827362376
 20
6.7757794854
 30
0.0
 10
10.8804053876
 20
6.7735280758
 30
0.0
 10
10.8767717077
 20
6.7702874037
 30
0.0
 10
10.8716828395
 20
6.7662664015
 30
0.0
 10
10.8664319208
 20
6.7624455388
 30
0.0
 10
10.8595801409
 20
6.7580578285
 30
0.0
 10
10.8509532669
 20
6.7534495059
 30
0.0
 10
10.8419642847
 20
6.7495201162
 30
0.0
 10
10.8326630529
 20
6.7462914457
 30
0.0
 10
10.823100759
 20
6.7437811095
 30
0.0
 10
10.8133301021
 20
6.7420028265
 30
0.0
 10
10.8034048724
 20
6.7409662527
 30
0.0
 10
10.7933796873
 20
6.7406769619
 30
0.0
 10
10.783309682
 20
6.7411364154
 30
0.0
 10
10.7732502106
 20
6.7423419627
 30
0.0
 10
10.7632565434
 20
6.7442868609
 30
0.0
 10
10.7533835675
 20
6.7469603167
 30
0.0
 10
10.7436854893
 20
6.7503475491
 30
0.0
 10
10.7342155404
 20
6.7544298722
 30
0.0
 10
10.7250256901
 20
6.7591847999
 30
0.0
 10
10.7161663638
 20
6.7645861702
 30
0.0
 10
10.7076861705
 20
6.7706042884
 30
0.0
 10
10.6996316389
 20
6.7772060897
 30
0.0
 10
10.6920469656
 20
6.7843553189
 30
0.0
 10
10.6849737754
 20
6.7920127284
 30
0.0
 10
10.6784508947
 20
6.8001362909
 30
0.0
 10
10.6725141409
 20
6.8086814283
 30
0.0
 10
10.6671961285
 20
6.8176012529
 30
0.0
 10
10.6625260872
 20
6.8268468233
 30
0.0
 10
10.6585297138
 20
6.8363674035
 30
0.0
 10
10.6552290031
 20
6.8461107633
 30
0.0
 10
10.6526421899
 20
6.8560233606
 30
0.0
 10
10.650783524
 20
6.8660509989
 30
0.0
 10
10.6496633902
 20
6.8761378398
 30
0.0
 10
10.6494124882
 20
6.8828839422
 30
0.0
 10
10.6494124882
 20
6.8862471552
 30
0.0
  0
SPLINE
  5
2E1
100
AcDbEntity
  8
0
100
AcDbSpline
 62
7
  6
CONTINUOUS
 70
0
 71
3
 72
37
 73
33
 74
0
 42
0.0000001
 43
0.0000001
 44
0.0000000001
 40
0.0
 40
0.0
 40
0.0
 40
0.0
 40
0.0299448033
 40
0.0599139857
 40
0.0899313261
 40
0.1200194368
 40
0.1501992296
 40
0.1804894257
 40
0.2109061295
 40
0.2414624764
 40
0.2721683759
 40
0.3030303418
 40
0.3340513927
 40
0.3652310309
 40
0.3965652996
 40
0.428046925
 40
0.45966553
 40
0.4914078862
 40
0.5551593905
 40
0.6191906838
 40
0.6512768977
 40
0.6833671744
 40
0.7154387056
 40
0.7474690601
 40
0.7794366302
 40
0.8113210838
 40
0.8431037264
 40
0.8747679161
 40
0.9062997384
 40
0.9376866971
 40
0.9689232651
 40
1.0
 40
1.0
 40
1.0
 40
1.0
 10
11.8506404219
 20
9.469679963
 30
0.0
 10
11.8493464294
 20
9.4684300479
 30
0.0
 10
11.8466567247
 20
9.4660310559
 30
0.0
 10
11.842347358
 20
9.4627628782
 30
0.0
 10
11.8377852402
 20
9.4598413392
 30
0.0
 10
11.8329958652
 20
9.4572828216
 30
0.0
 10
11.8280055673
 20
9.4551012966
 30
0.0
 10
11.8228418841
 20
9.453308758
 30
0.0
 10
11.8175332657
 20
9.4519150278
 30
0.0
 10
11.8121089604
 20
9.4509277221
 30
0.0
 10
11.8065988383
 20
9.4503521854
 30
0.0
 10
11.8010332202
 20
9.4501915073
 30
0.0
 10
11.7954427123
 20
9.450446502
 30
0.0
 10
11.7898580506
 20
9.4511157086
 30
0.0
 10
11.784309904
 20
9.4521954043
 30
0.0
 10
11.7788288156
 20
9.4536795326
 30
0.0
 10
11.7734446008
 20
9.4555600548
 30
0.0
 10
11.7664265353
 20
9.4585851597
 30
0.0
 10
11.7580456809
 20
9.4633035789
 30
0.0
 10
11.7503857045
 20
9.4691526026
 30
0.0
 10
11.7447768609
 20
9.4744395407
 30
0.0
 10
11.7408498773
 20
9.4786907587
 30
0.0
 10
11.7372286351
 20
9.483200627
 30
0.0
 10
11.7339327334
 20
9.4879445818
 30
0.0
 10
11.730980344
 20
9.4928965366
 30
0.0
 10
11.7283876776
 20
9.4980293374
 30
0.0
 10
11.7261690123
 20
9.5033148157
 30
0.0
 10
11.7243365613
 20
9.5087239877
 30
0.0
 10
11.7229004818
 20
9.5142270899
 30
0.0
 10
11.7218685576
 20
9.5197941147
 30
0.0
 10
11.7212467406
 20
9.5253939671
 30
0.0
 10
11.72110742
 20
9.5291391858
 30
0.0
 10
11.72110742
 20
9.5310062766
 30
0.0
  0
SPLINE
  5
2E2
100
AcDbEntity
  8
0
100
AcDbSpline
 62
7
  6
CONTINUOUS
 70
0
 71
3
 72
37
 73
33
 74
0
 42
0.0000001
 43
0.0000001
 44
0.0000000001
 40
0.0
 40
0.0
 40
0.0
 40
0.0
 40
0.0299448033
 40
0.0599139857
 40
0.0899313261
 40
0.1200194368
 40
0.1501992296
 40
0.1804894257
 40
0.2109061295
 40
0.2414624764
 40
0.2721683759
 40
0.3030303418
 40
0.3340513927
 40
0.3652310309
 40
0.3965652996
 40
0.428046925
 40
0.45966553
 40
0.4914078862
 40
0.5551593905
 40
0.6191906838
 40
0.6512768977
 40
0.6833671744
 40
0.7154387056
 40
0.7474690601
 40
0.7794366302
 40
0.8113210838
 40
0.8431037264
 40
0.8747679161
 40
0.9062997384
 40
0.9376866971
 40
0.9689232651
 40
1.0
 40
1.0
 40
1.0
 40
1.0
 10
9.6338404456
 20
6.9651874418
 30
0.0
 10
9.632546453
 20
6.9639375267
 30
0.0
 10
9.6298567483
 20
6.9615385347
 30
0.0
 10
9.6255473816
 20
6.958270357
 30
0.0
 10
9.6209852639
 20
6.955348818
 30
0.0
 10
9.6161958889
 20
6.9527903003
 30
0.0
 10
9.611205591
 20
6.9506087753
 30
0.0
 10
9.6060419078
 20
6.9488162368
 30
0.0
 10
9.6007332894
 20
6.9474225066
 30
0.0
 10
9.595308984
 20
6.9464352009
 30
0.0
 10
9.5897988619
 20
6.9458596642
 30
0.0
 10
9.5842332439
 20
6.9456989861
 30
0.0
 10
9.5786427359
 20
6.9459539808
 30
0.0
 10
9.5730580743
 20
6.9466231874
 30
0.0
 10
9.5675099277
 20
6.9477028831
 30
0.0
 10
9.5620288393
 20
6.9491870114
 30
0.0
 10
9.5566446244
 20
6.9510675336
 30
0.0
 10
9.549626559
 20
6.9540926385
 30
0.0
 10
9.5412457045
 20
6.9588110577
 30
0.0
 10
9.5335857281
 20
6.9646600814
 30
0.0
 10
9.5279768845
 20
6.9699470195
 30
0.0
 10
9.5240499009
 20
6.9741982375
 30
0.0
 10
9.5204286588
 20
6.9787081058
 30
0.0
 10
9.517132757
 20
6.9834520606
 30
0.0
 10
9.5141803676
 20
6.9884040154
 30
0.0
 10
9.5115877012
 20
6.9935368161
 30
0.0
 10
9.5093690359
 20
6.9988222945
 30
0.0
 10
9.5075365849
 20
7.0042314665
 30
0.0
 10
9.5061005054
 20
7.0097345687
 30
0.0
 10
9.5050685812
 20
7.0153015935
 30
0.0
 10
9.5044467642
 20
7.0209014459
 30
0.0
 10
9.5043074436
 20
7.0246466646
 30
0.0
 10
9.5043074436
 20
7.0265137554
 30
0.0
  0
SPLINE
  5
2E3
100
AcDbEntity
  8
0
100
AcDbSpline
 62
7
  6
CONTINUOUS
 70
0
 71
3
 72
29
 73
25
 74
0
 42
0.0000001
 43
0.0000001
 44
0.0000000001
 40
0.0
 40
0.0
 40
0.0
 40
0.0
 40
0.1243141287
 40
0.2487874616
 40
0.3734370803
 40
0.4358372982
 40
0.4982902474
 40
0.5608000083
 40
0.6233716498
 40
0.6860116454
 40
0.7487285119
 40
0.7801194723
 40
0.8115341326
 40
0.8429743419
 40
0.8744417613
 40
0.905936641
 40
0.921693094
 40
0.937452849
 40
0.9532103012
 40
0.9689503925
 40
0.9768027624
 40
0.9846250586
 40
0.9923918853
 40
1.0
 40
1.0
 40
1.0
 40
1.0
 10
9.3343011558
 20
8.9211845223
 30
0.0
 10
9.3347672429
 20
8.9251180994
 30
0.0
 10
9.3358521733
 20
8.9329731249
 30
0.0
 10
9.3379321923
 20
8.9446916977
 30
0.0
 10
9.3400393461
 20
8.9543944153
 30
0.0
 10
9.3419464308
 20
8.9621127313
 30
0.0
 10
9.3434873808
 20
8.967880871
 30
0.0
 10
9.3451373447
 20
8.9736244308
 30
0.0
 10
9.3468951017
 20
8.9793421609
 30
0.0
 10
9.3487591038
 20
8.9850330654
 30
0.0
 10
9.3503987276
 20
8.9897511122
 30
0.0
 10
9.3517607922
 20
8.9935116797
 30
0.0
 10
9.3528073671
 20
8.9963264572
 30
0.0
 10
9.3538778277
 20
8.9991348398
 30
0.0
 10
9.3549709854
 20
9.0019372056
 30
0.0
 10
9.3558991056
 20
9.0042674555
 30
0.0
 10
9.3566502269
 20
9.0061294224
 30
0.0
 10
9.3572170934
 20
9.0075249979
 30
0.0
 10
9.3577859765
 20
9.0089191881
 30
0.0
 10
9.3582599437
 20
9.0100799831
 30
0.0
 10
9.3586365327
 20
9.0110074287
 30
0.0
 10
9.3589156038
 20
9.0117002701
 30
0.0
 10
9.3591882269
 20
9.0123873017
 30
0.0
 10
9.3593642998
 20
9.0128445037
 30
0.0
 10
9.3594484424
 20
9.0130718544
 30
0.0
  0
SPLINE
  5
2E4
100
AcDbEntity
  8
0
100
AcDbSpline
 62
7
  6
CONTINUOUS
 70
0
 71
3
 72
47
 73
43
 74
0
 42
0.0000001
 43
0.0000001
 44
0.0000000001
 40
0.0
 40
0.0
 40
0.0
 40
0.0
 40
0.1264868424
 40
0.1897281234
 40
0.2529628881
 40
0.3161879907
 40
0.3793991338
 40
0.4425904335
 40
0.5057537622
 40
0.5688776495
 40
0.6319454213
 40
0.6634512838
 40
0.6949326319
 40
0.7263838079
 40
0.7577973242
 40
0.7891629434
 40
0.820466138
 40
0.8360880094
 40
0.8516853028
 40
0.8672532145
 40
0.882785392
 40
0.8982731585
 40
0.9137041959
 40
0.9290600253
 40
0.936701148
 40
0.9443109512
 40
0.9518820317
 40
0.9594038748
 40
0.9668607228
 40
0.9742273207
 40
0.9778641087
 40
0.9814590535
 40
0.9849992571
 40
0.9884645445
 40
0.9918206727
 40
0.9934396426
 40
0.9950027145
 40
0.9964891133
 40
0.9978648509
 40
0.9990707723
 40
0.9995798295
 40
1.0
 40
1.0
 40
1.0
 40
1.0
 10
9.332856579
 20
8.9231903484
 30
0.0
 10
9.3333295532
 20
8.9271723439
 30
0.0
 10
9.3341630131
 20
8.933131538
 30
0.0
 10
9.3355206874
 20
8.9410358005
 30
0.0
 10
9.3366618191
 20
8.9469410842
 30
0.0
 10
9.3379253747
 20
8.9528203629
 30
0.0
 10
9.3393108897
 20
8.9586707004
 30
0.0
 10
9.3408178436
 20
8.9644889147
 30
0.0
 10
9.3424456719
 20
8.9702716092
 30
0.0
 10
9.3441937509
 20
8.9760149913
 30
0.0
 10
9.345750619
 20
8.9807662873
 30
0.0
 10
9.3470558164
 20
8.9845435008
 30
0.0
 10
9.3480640835
 20
8.9873626434
 30
0.0
 10
9.3491019007
 20
8.9901679181
 30
0.0
 10
9.350169154
 20
8.9929582019
 30
0.0
 10
9.3512657053
 20
8.9957320578
 30
0.0
 10
9.3522043693
 20
8.9980298175
 30
0.0
 10
9.3529700298
 20
8.9998581105
 30
0.0
 10
9.3535511359
 20
9.0012228326
 30
0.0
 10
9.3541394223
 20
9.0025813768
 30
0.0
 10
9.3547348279
 20
9.0039330233
 30
0.0
 10
9.3553372594
 20
9.0052768001
 30
0.0
 10
9.3559465664
 20
9.0066113306
 30
0.0
 10
9.3564606692
 20
9.0077158323
 30
0.0
 10
9.3568754746
 20
9.0085930219
 30
0.0
 10
9.3571876067
 20
9.009245755
 30
0.0
 10
9.3575011541
 20
9.0098936112
 30
0.0
 10
9.3578159329
 20
9.0105354745
 30
0.0
 10
9.3581316319
 20
9.0111696532
 30
0.0
 10
9.3583961329
 20
9.0116917207
 30
0.0
 10
9.3586081003
 20
9.012103136
 30
0.0
 10
9.3587661252
 20
9.0124058768
 30
0.0
 10
9.3589235508
 20
9.0127027908
 30
0.0
 10
9.3590798037
 20
9.0129917456
 30
0.0
 10
9.3592096659
 20
9.0132257155
 30
0.0
 10
9.3593125443
 20
9.0134056649
 30
0.0
 10
9.3593874172
 20
9.0135333346
 30
0.0
 10
9.3594601952
 20
9.0136532869
 30
0.0
 10
9.3595295708
 20
9.0137620063
 30
0.0
 10
9.3595851743
 20
9.0138427751
 30
0.0
 10
9.3596268734
 20
9.0138961074
 30
0.0
 10
9.3596465239
 20
9.0139181376
 30
0.0
 10
9.3596560921
 20
9.0139274052
 30
0.0
  0
SPLINE
  5
2E5
100
AcDbEntity
  8
0
100
AcDbSpline
 62
7
  6
CONTINUOUS
 70
0
 71
3
 72
25
 73
21
 74
0
 42
0.0000001
 43
0.0000001
 44
0.0000000001
 40
0.0
 40
0.0
 40
0.0
 40
0.0
 40
0.062637747
 40
0.0938819143
 40
0.1250772849
 40
0.1873257554
 40
0.2494239948
 40
0.2804335649
 40
0.3114198198
 40
0.3733328151
 40
0.4352213642
 40
0.4971373454
 40
0.559136392
 40
0.6212764308
 40
0.6836155562
 40
0.7462094542
 40
0.8091085877
 40
0.8723551403
 40
0.9359793204
 40
1.0
 40
1.0
 40
1.0
 40
1.0
 10
11.0677464079
 20
8.9124284598
 30
0.0
 10
11.0652364281
 20
8.9050243761
 30
0.0
 10
11.0610994778
 20
8.8940485574
 30
0.0
 10
11.054843691
 20
8.8797431075
 30
0.0
 10
11.0481127978
 20
8.8657081964
 30
0.0
 10
11.0387926017
 20
8.8486582335
 30
0.0
 10
11.0282682469
 20
8.8323500433
 30
0.0
 10
11.0191498541
 20
8.8198260934
 30
0.0
 10
11.0095765875
 20
8.8076758939
 30
0.0
 10
10.9967484951
 20
8.7932015947
 30
0.0
 10
10.9800283784
 20
8.7771118172
 30
0.0
 10
10.9620413942
 20
8.7624316785
 30
0.0
 10
10.9428610313
 20
8.7492913625
 30
0.0
 10
10.922576977
 20
8.7378181363
 30
0.0
 10
10.9012975161
 20
8.728133918
 30
0.0
 10
10.8791500271
 20
8.7203508093
 30
0.0
 10
10.8562810243
 20
8.7145666367
 30
0.0
 10
10.8328536883
 20
8.710860432
 30
0.0
 10
10.8090487942
 20
8.7092874028
 30
0.0
 10
10.7930964769
 20
8.7096794064
 30
0.0
 10
10.785125059
 20
8.7102322261
 30
0.0
  0
SPLINE
  5
2E6
100
AcDbEntity
  8
0
100
AcDbSpline
 62
7
  6
CONTINUOUS
 70
0
 71
3
 72
39
 73
35
 74
0
 42
0.0000001
 43
0.0000001
 44
0.0000000001
 40
0.0
 40
0.0
 40
0.0
 40
0.0
 40
0.0301480211
 40
0.0603123522
 40
0.0905022119
 40
0.1207266374
 40
0.15099442
 40
0.1813140366
 40
0.2116936129
 40
0.2421408727
 40
0.2726630419
 40
0.3032667951
 40
0.3339582196
 40
0.3647427483
 40
0.3956250486
 40
0.4266089751
 40
0.4576975304
 40
0.4888927972
 40
0.5201958424
 40
0.5516066587
 40
0.5831241505
 40
0.6147460916
 40
0.6464690876
 40
0.6782885376
 40
0.7101986544
 40
0.742192505
 40
0.7742620463
 40
0.8063981929
 40
0.8385908976
 40
0.8708292223
 40
0.9031017223
 40
0.9353957567
 40
0.9676999949
 40
1.0
 40
1.0
 40
1.0
 40
1.0
 10
10.3913920581
 20
7.2928526479
 30
0.0
 10
10.3876357078
 20
7.2894788058
 30
0.0
 10
10.379953658
 20
7.2829129553
 30
0.0
 10
10.3679575743
 20
7.2736392575
 30
0.0
 10
10.3555101953
 20
7.2649576759
 30
0.0
 10
10.34263751
 20
7.2568877182
 30
0.0
 10
10.3293657594
 20
7.2494477801
 30
0.0
 10
10.3157220606
 20
7.2426556531
 30
0.0
 10
10.3017342808
 20
7.2365284035
 30
0.0
 10
10.2874311388
 20
7.2310823861
 30
0.0
 10
10.2728422729
 20
7.2263331395
 30
0.0
 10
10.2579982856
 20
7.222295356
 30
0.0
 10
10.2429307831
 20
7.2189828289
 30
0.0
 10
10.22767243
 20
7.216408373
 30
0.0
 10
10.2122570052
 20
7.2145836682
 30
0.0
 10
10.1967194232
 20
7.2135191676
 30
0.0
 10
10.1810957446
 20
7.2132239852
 30
0.0
 10
10.1654231854
 20
7.2137057553
 30
0.0
 10
10.149740109
 20
7.2149704427
 30
0.0
 10
10.1340859858
 20
7.217022163
 30
0.0
 10
10.1185013288
 20
7.2198630495
 30
0.0
 10
10.1030276033
 20
7.223493067
 30
0.0
 10
10.0877071189
 20
7.2279098424
 30
0.0
 10
10.0725828733
 20
7.2331084524
 30
0.0
 10
10.0576983691
 20
7.2390812801
 30
0.0
 10
10.0430974034
 20
7.2458178936
 30
0.0
 10
10.0288238223
 20
7.2533049214
 30
0.0
 10
10.014921253
 20
7.261525966
 30
0.0
 10
10.0014328203
 20
7.2704615406
 30
0.0
 10
9.9884007584
 20
7.2800890413
 30
0.0
 10
9.9758662961
 20
7.2903827767
 30
0.0
 10
9.9638687893
 20
7.3013142288
 30
0.0
 10
9.9524466769
 20
7.3128514742
 30
0.0
 10
9.9452369678
 20
7.3209265846
 30
0.0
 10
9.9417395691
 20
7.3250533849
 30
0.0
  0
SPLINE
  5
2E7
100
AcDbEntity
  8
0
100
AcDbSpline
 62
7
  6
CONTINUOUS
 70
0
 71
3
 72
41
 73
37
 74
0
 42
0.0000001
 43
0.0000001
 44
0.0000000001
 40
0.0
 40
0.0
 40
0.0
 40
0.0
 40
0.0300286532
 40
0.045080214
 40
0.0601571028
 40
0.0903878944
 40
0.1207337777
 40
0.1512016283
 40
0.1817964223
 40
0.2125212264
 40
0.2433772062
 40
0.2743636493
 40
0.3054779999
 40
0.3367159057
 40
0.368071274
 40
0.3995363386
 40
0.4311017375
 40
0.4627566028
 40
0.4944886655
 40
0.5262843763
 40
0.5581290459
 40
0.5900070068
 40
0.6219017996
 40
0.6537963844
 40
0.6856733798
 40
0.7175153282
 40
0.7493049857
 40
0.7810256337
 40
0.8126614072
 40
0.8441976274
 40
0.8756211487
 40
0.906920635
 40
0.9380870087
 40
0.9536199794
 40
0.9691176399
 40
1.0
 40
1.0
 40
1.0
 40
1.0
 10
11.5522879759
 20
7.1354307957
 30
0.0
 10
11.5458043051
 20
7.1325241078
 30
0.0
 10
11.5359218
 20
7.1284822444
 30
0.0
 10
11.5224961331
 20
7.1237471567
 30
0.0
 10
11.5088771582
 20
7.1194376393
 30
0.0
 10
11.4915544038
 20
7.1148705632
 30
0.0
 10
11.4704000351
 20
7.1107220658
 30
0.0
 10
11.448939725
 20
7.1079112431
 30
0.0
 10
11.4272563047
 20
7.1064454023
 30
0.0
 10
11.4054320603
 20
7.1063275175
 30
0.0
 10
11.3835495159
 20
7.1075565939
 30
0.0
 10
11.3616911594
 20
7.1101276391
 30
0.0
 10
11.3399394618
 20
7.114031696
 30
0.0
 10
11.3183768171
 20
7.1192558155
 30
0.0
 10
11.297085492
 20
7.1257830036
 30
0.0
 10
11.2761475533
 20
7.1335921364
 30
0.0
 10
11.2556447705
 20
7.1426578497
 30
0.0
 10
11.235658486
 20
7.1529504066
 30
0.0
 10
11.2162694466
 20
7.1644355498
 30
0.0
 10
11.197557589
 20
7.1770743464
 30
0.0
 10
11.1796017758
 20
7.1908230329
 30
0.0
 10
11.1624794768
 20
7.2056328717
 30
0.0
 10
11.1462663941
 20
7.221450029
 30
0.0
 10
11.1310360306
 20
7.2382154864
 30
0.0
 10
11.1168592037
 20
7.2558650003
 30
0.0
 10
11.1038035103
 20
7.2743291186
 30
0.0
 10
11.0919327497
 20
7.2935332721
 30
0.0
 10
11.0813063165
 20
7.3133979408
 30
0.0
 10
11.0719785784
 20
7.3338389359
 30
0.0
 10
11.0639982556
 20
7.35476769
 30
0.0
 10
11.0574078113
 20
7.3760919733
 30
0.0
 10
11.052242949
 20
7.3977154977
 30
0.0
 10
11.0491468345
 20
7.4159250472
 30
0.0
 10
11.0474098718
 20
7.4305418202
 30
0.0
 10
11.046170006
 20
7.4451411136
 30
0.0
 10
11.0457948189
 20
7.4561202638
 30
0.0
 10
11.0457948189
 20
7.4634276766
 30
0.0
  0
SPLINE
  5
2E8
100
AcDbEntity
  8
0
100
AcDbSpline
 62
7
  6
CONTINUOUS
 70
0
 71
3
 72
23
 73
19
 74
0
 42
0.0000001
 43
0.0000001
 44
0.0000000001
 40
0.0
 40
0.0
 40
0.0
 40
0.0
 40
0.0615912567
 40
0.1235190327
 40
0.1857534949
 40
0.2482576391
 40
0.3109869659
 40
0.3738907165
 40
0.4369134733
 40
0.4999965919
 40
0.5630798198
 40
0.6261028984
 40
0.6890071802
 40
0.7517372112
 40
0.8142422543
 40
0.8764777217
 40
0.9384064815
 40
1.0
 40
1.0
 40
1.0
 40
1.0
 10
11.8023443289
 20
9.6004336956
 30
0.0
 10
11.802590087
 20
9.5982622054
 30
0.0
 10
11.8032685036
 20
9.5939261587
 30
0.0
 10
11.8048307565
 20
9.5875156992
 30
0.0
 10
11.80692915
 20
9.581225642
 30
0.0
 10
11.8095479661
 20
9.5751031578
 30
0.0
 10
11.8126677727
 20
9.5691933325
 30
0.0
 10
11.8162654364
 20
9.5635398927
 30
0.0
 10
11.8203143093
 20
9.5581846092
 30
0.0
 10
11.8247844305
 20
9.5531670692
 30
0.0
 10
11.8296427386
 20
9.5485243666
 30
0.0
 10
11.8348533176
 20
9.5442908388
 30
0.0
 10
11.8403776517
 20
9.5404978142
 30
0.0
 10
11.8461749255
 20
9.5371733813
 30
0.0
 10
11.8522022482
 20
9.5343421931
 30
0.0
 10
11.8584152327
 20
9.5320252472
 30
0.0
 10
11.8647673198
 20
9.530239857
 30
0.0
 10
11.8690771251
 20
9.529410319
 30
0.0
 10
11.8712387768
 20
9.5290887919
 30
0.0
  0
SPLINE
  5
2E9
100
AcDbEntity
  8
0
100
AcDbSpline
 62
7
  6
CONTINUOUS
 70
0
 71
3
 72
23
 73
19
 74
0
 42
0.0000001
 43
0.0000001
 44
0.0000000001
 40
0.0
 40
0.0
 40
0.0
 40
0.0
 40
0.0615912567
 40
0.1235190327
 40
0.1857534949
 40
0.2482576391
 40
0.3109869659
 40
0.3738907165
 40
0.4369134733
 40
0.4999965919
 40
0.5630798198
 40
0.6261028984
 40
0.6890071802
 40
0.7517372112
 40
0.8142422543
 40
0.8764777217
 40
0.9384064815
 40
1.0
 40
1.0
 40
1.0
 40
1.0
 10
9.5855443526
 20
7.0959411744
 30
0.0
 10
9.5857901106
 20
7.0937696842
 30
0.0
 10
9.5864685272
 20
7.0894336375
 30
0.0
 10
9.5880307801
 20
7.083023178
 30
0.0
 10
9.5901291736
 20
7.0767331208
 30
0.0
 10
9.5927479897
 20
7.0706106366
 30
0.0
 10
9.5958677964
 20
7.0647008112
 30
0.0
 10
9.59946546
 20
7.0590473715
 30
0.0
 10
9.6035143329
 20
7.053692088
 30
0.0
 10
9.6079844541
 20
7.0486745479
 30
0.0
 10
9.6128427622
 20
7.0440318454
 30
0.0
 10
9.6180533412
 20
7.0397983176
 30
0.0
 10
9.6235776753
 20
7.036005293
 30
0.0
 10
9.6293749491
 20
7.0326808601
 30
0.0
 10
9.6354022718
 20
7.0298496719
 30
0.0
 10
9.6416152564
 20
7.027532726
 30
0.0
 10
9.6479673434
 20
7.0257473358
 30
0.0
 10
9.6522771487
 20
7.0249177978
 30
0.0
 10
9.6544388004
 20
7.0245962707
 30
0.0
  0
SPLINE
  5
2EA
100
AcDbEntity
  8
0
100
AcDbSpline
 62
7
  6
CONTINUOUS
 70
0
 71
3
 72
21
 73
17
 74
0
 42
0.0000001
 43
0.0000001
 44
0.0000000001
 40
0.0
 40
0.0
 40
0.0
 40
0.0
 40
0.1273176984
 40
0.2537999461
 40
0.3167619614
 40
0.3795355204
 40
0.4421314992
 40
0.5045621453
 40
0.5668413456
 40
0.6289845231
 40
0.6910084433
 40
0.7529310869
 40
0.8147714401
 40
0.8765493236
 40
0.9382852134
 40
1.0
 40
1.0
 40
1.0
 40
1.0
 10
8.6794067238
 20
7.0837208146
 30
0.0
 10
8.6794067238
 20
7.090219237
 30
0.0
 10
8.6800270417
 20
7.1031818047
 30
0.0
 10
8.6823698077
 20
7.1192063366
 30
0.0
 10
8.6851699098
 20
7.1317761785
 30
0.0
 10
8.6877234568
 20
7.1410477001
 30
0.0
 10
8.6907275521
 20
7.1501544714
 30
0.0
 10
8.6941752697
 20
7.1590757581
 30
0.0
 10
8.6980586608
 20
7.1677909266
 30
0.0
 10
8.7023688492
 20
7.1762798628
 30
0.0
 10
8.707095864
 20
7.1845229983
 30
0.0
 10
8.7122288038
 20
7.192501336
 30
0.0
 10
8.7177558808
 20
7.2001964141
 30
0.0
 10
8.723664383
 20
7.2075905598
 30
0.0
 10
8.7299404223
 20
7.2146665154
 30
0.0
 10
8.7343607209
 20
7.2191615791
 30
0.0
 10
8.7366263682
 20
7.221350013
 30
0.0
  0
SPLINE
  5
2EB
100
AcDbEntity
  8
0
100
AcDbSpline
 62
7
  6
CONTINUOUS
 70
0
 71
3
 72
37
 73
33
 74
0
 42
0.0000001
 43
0.0000001
 44
0.0000000001
 40
0.0
 40
0.0
 40
0.0
 40
0.0
 40
0.0309022896
 40
0.0464137112
 40
0.0619623439
 40
0.0931634383
 40
0.124499772
 40
0.140216947
 40
0.1559627168
 40
0.187527698
 40
0.2191823003
 40
0.2509086644
 40
0.282688618
 40
0.314504161
 40
0.3463378615
 40
0.3781731533
 40
0.4099945453
 40
0.4417877537
 40
0.4735397701
 40
0.5052388811
 40
0.5368746524
 40
0.5684378897
 40
0.6312955028
 40
0.693781983
 40
0.7558624284
 40
0.8175168202
 40
0.8481918384
 40
0.8787594005
 40
0.9092210335
 40
0.9395792048
 40
0.9698373671
 40
1.0
 40
1.0
 40
1.0
 40
1.0
 10
10.785125059
 20
8.7102322261
 30
0.0
 10
10.7785662087
 20
8.710687084
 30
0.0
 10
10.7687354475
 20
8.7117330082
 30
0.0
 10
10.7557196746
 20
8.7138371844
 30
0.0
 10
10.7427249563
 20
8.7164203321
 30
0.0
 10
10.7266131907
 20
8.7205311649
 30
0.0
 10
10.7107956452
 20
8.7257720391
 30
0.0
 10
10.6983438018
 20
8.7306221433
 30
0.0
 10
10.6860192779
 20
8.7359117793
 30
0.0
 10
10.670922632
 20
8.7433140251
 30
0.0
 10
10.653396194
 20
8.7533852648
 30
0.0
 10
10.6365128459
 20
8.7645835614
 30
0.0
 10
10.6203356237
 20
8.776835285
 30
0.0
 10
10.6049185595
 20
8.7900650034
 30
0.0
 10
10.5903079954
 20
8.8041964483
 30
0.0
 10
10.5765429455
 20
8.8191536831
 30
0.0
 10
10.5636558619
 20
8.8348619224
 30
0.0
 10
10.5516733792
 20
8.8512481354
 30
0.0
 10
10.5406170531
 20
8.8682415336
 30
0.0
 10
10.5305041881
 20
8.8857735386
 30
0.0
 10
10.5213481652
 20
8.903778913
 30
0.0
 10
10.5104471826
 20
8.9282934778
 30
0.0
 10
10.4992483684
 20
8.9598086865
 30
0.0
 10
10.4897400129
 20
8.9986017358
 30
0.0
 10
10.4841971663
 20
9.0378972614
 30
0.0
 10
10.4828910567
 20
9.0707836102
 30
0.0
 10
10.4838470787
 20
9.0969224022
 30
0.0
 10
10.4855579179
 20
9.1163667841
 30
0.0
 10
10.4882631655
 20
9.1356294842
 30
0.0
 10
10.491961698
 20
9.1546598261
 30
0.0
 10
10.4966514774
 20
9.1734044714
 30
0.0
 10
10.5004434672
 20
9.1856951785
 30
0.0
 10
10.5025037418
 20
9.1917726957
 30
0.0
  0
SPLINE
  5
2EC
100
AcDbEntity
  8
0
100
AcDbSpline
 62
7
  6
CONTINUOUS
 70
0
 71
3
 72
11
 73
7
 74
0
 42
0.0000001
 43
0.0000001
 44
0.0000000001
 40
0.0
 40
0.0
 40
0.0
 40
0.0
 40
0.2387434104
 40
0.4861032194
 40
0.7404481205
 40
1.0
 40
1.0
 40
1.0
 40
1.0
 10
9.8519567864
 20
8.9859995685
 30
0.0
 10
9.8467874744
 20
8.9884545522
 30
0.0
 10
9.836231039
 20
8.9933874602
 30
0.0
 10
9.8200786186
 20
9.0007436971
 30
0.0
 10
9.8034116024
 20
9.008171895
 30
0.0
 10
9.7921251372
 20
9.0131067313
 30
0.0
 10
9.7864166048
 20
9.0155803552
 30
0.0
  0
LINE
  5
2ED
100
AcDbEntity
  8
0
100
AcDbLine
 62
7
  6
CONTINUOUS
 10
9.3596560921
 20
9.0139274052
 11
9.3598280886
 21
9.0140931142
  0
SPLINE
  5
2EE
100
AcDbEntity
  8
0
100
AcDbSpline
 62
7
  6
CONTINUOUS
 70
0
 71
3
 72
33
 73
29
 74
0
 42
0.0000001
 43
0.0000001
 44
0.0000000001
 40
0.0
 40
0.0
 40
0.0
 40
0.0
 40
0.0851787552
 40
0.1685803184
 40
0.2498827984
 40
0.3287734937
 40
0.4049537721
 40
0.4781398462
 40
0.5135268248
 40
0.5480669481
 40
0.581730051
 40
0.6144874762
 40
0.6463119612
 40
0.6771780745
 40
0.7070619655
 40
0.7359419099
 40
0.7637981294
 40
0.7906132564
 40
0.81637244
 40
0.8410636161
 40
0.8646780197
 40
0.8872103033
 40
0.9086594522
 40
0.9290289759
 40
0.9483281256
 40
0.9665725206
 40
0.9837855947
 40
1.0
 40
1.0
 40
1.0
 40
1.0
 10
8.133228919
 20
7.3995106278
 30
0.0
 10
8.133228919
 20
7.3878661957
 30
0.0
 10
8.1334273407
 20
7.3648197229
 30
0.0
 10
8.1343374191
 20
7.3306695607
 30
0.0
 10
8.1358531611
 20
7.2974011516
 30
0.0
 10
8.1379680014
 20
7.2651544938
 30
0.0
 10
8.1406728176
 20
7.2340654311
 30
0.0
 10
8.1434386812
 20
7.2089577712
 30
0.0
 10
8.1459494447
 20
7.1895546707
 30
0.0
 10
8.1479511217
 20
7.1755350212
 30
0.0
 10
8.1500903409
 20
7.1618994401
 30
0.0
 10
8.1523648255
 20
7.1486622588
 30
0.0
 10
8.1547722073
 20
7.1358374041
 30
0.0
 10
8.1573098733
 20
7.1234383576
 30
0.0
 10
8.1599751973
 20
7.1114781474
 30
0.0
 10
8.162765296
 20
7.0999693274
 30
0.0
 10
8.1656772585
 20
7.0889239694
 30
0.0
 10
8.1687079812
 20
7.0783536412
 30
0.0
 10
8.1718542596
 20
7.0682693949
 30
0.0
 10
8.1751128084
 20
7.0586817582
 30
0.0
 10
8.1784801496
 20
7.0496006985
 30
0.0
 10
8.1819528413
 20
7.0410356492
 30
0.0
 10
8.1855271933
 20
7.0329954352
 30
0.0
 10
8.1891996315
 20
7.0254883302
 30
0.0
 10
8.1929663496
 20
7.0185220002
 30
0.0
 10
8.1968237556
 20
7.0121034288
 30
0.0
 10
8.200767864
 20
7.0062394049
 30
0.0
 10
8.20353349
 20
7.0025972976
 30
0.0
 10
8.2049320919
 20
7.0008776335
 30
0.0
  0
SPLINE
  5
2EF
100
AcDbEntity
  8
0
100
AcDbSpline
 62
7
  6
CONTINUOUS
 70
0
 71
3
 72
11
 73
7
 74
0
 42
0.0000001
 43
0.0000001
 44
0.0000000001
 40
0.0
 40
0.0
 40
0.0
 40
0.0
 40
0.2347244479
 40
0.4795526787
 40
0.7346133261
 40
1.0
 40
1.0
 40
1.0
 40
1.0
 10
13.2572040594
 20
8.0872039725
 30
0.0
 10
13.2585979183
 20
8.0888452115
 30
0.0
 10
13.261381096
 20
8.0922535831
 30
0.0
 10
13.2654604018
 20
8.097619149
 30
0.0
 10
13.2695292431
 20
8.1033413998
 30
0.0
 10
13.2721804883
 20
8.1073128459
 30
0.0
 10
13.2735050149
 20
8.1093555395
 30
0.0
  0
SPLINE
  5
2F0
100
AcDbEntity
  8
0
100
AcDbSpline
 62
7
  6
CONTINUOUS
 70
0
 71
3
 72
10
 73
6
 74
0
 42
0.0000001
 43
0.0000001
 44
0.0000000001
 40
0.0
 40
0.0
 40
0.0
 40
0.0
 40
0.4925241575
 40
0.7442892619
 40
1.0
 40
1.0
 40
1.0
 40
1.0
 10
9.651354075
 20
9.2332830904
 30
0.0
 10
9.6517501906
 20
9.2353624693
 30
0.0
 10
9.6526313666
 20
9.2384556276
 30
0.0
 10
9.6542292109
 20
9.2424464388
 30
0.0
 10
9.6551626328
 20
9.2444195366
 30
0.0
 10
9.6556590362
 20
9.2454000328
 30
0.0
  0
LINE
  5
2F1
100
AcDbEntity
  8
0
100
AcDbLine
 62
7
  6
CONTINUOUS
 10
9.3598281013
 20
9.0140937786
 11
9.3594484424
 21
9.0130718544
  0
SPLINE
  5
2F2
100
AcDbEntity
  8
0
100
AcDbSpline
 62
7
  6
CONTINUOUS
 70
0
 71
3
 72
21
 73
17
 74
0
 42
0.0000001
 43
0.0000001
 44
0.0000000001
 40
0.0
 40
0.0
 40
0.0
 40
0.0
 40
0.080773743
 40
0.1582775352
 40
0.2327399898
 40
0.3043798145
 40
0.3733868792
 40
0.4399329534
 40
0.5662369821
 40
0.6844324303
 40
0.7408160276
 40
0.7955287299
 40
0.8486845533
 40
0.9004238865
 40
0.9508618058
 40
1.0
 40
1.0
 40
1.0
 40
1.0
 10
9.5398988991
 20
9.0869623096
 30
0.0
 10
9.5346114928
 20
9.0863730646
 30
0.0
 10
9.5242693679
 20
9.085042463
 30
0.0
 10
9.5091392661
 20
9.0825608266
 30
0.0
 10
9.4946945227
 20
9.0796718977
 30
0.0
 10
9.4809050628
 20
9.0764056368
 30
0.0
 10
9.4677435742
 20
9.0727871642
 30
0.0
 10
9.4512880992
 20
9.0676115449
 30
0.0
 10
9.4320920123
 20
9.0603955666
 30
0.0
 10
9.4141255866
 20
9.0519758928
 30
0.0
 10
9.4008863774
 20
9.0447009455
 30
0.0
 10
9.3916386354
 20
9.039079858
 30
0.0
 10
9.3829090087
 20
9.0332159391
 30
0.0
 10
9.3746957193
 20
9.0271085278
 30
0.0
 10
9.3670029318
 20
9.0207658614
 30
0.0
 10
9.3621588431
 20
9.016339307
 30
0.0
 10
9.3598281013
 20
9.0140937786
 30
0.0
  0
SPLINE
  5
2F3
100
AcDbEntity
  8
0
100
AcDbSpline
 62
7
  6
CONTINUOUS
 70
0
 71
3
 72
15
 73
11
 74
0
 42
0.0000001
 43
0.0000001
 44
0.0000000001
 40
0.0
 40
0.0
 40
0.0
 40
0.0
 40
0.127347711
 40
0.2538606874
 40
0.3795878987
 40
0.5046050998
 40
0.6290174656
 40
0.7529533976
 40
0.8765605982
 40
1.0
 40
1.0
 40
1.0
 40
1.0
 10
9.5043074436
 20
7.0265137554
 30
0.0
 10
9.5043074436
 20
7.0289159559
 30
0.0
 10
9.5045368059
 20
7.0337079316
 30
0.0
 10
9.5055740477
 20
7.0408037323
 30
0.0
 10
9.5072940033
 20
7.0477212528
 30
0.0
 10
9.5096811081
 20
7.0543957824
 30
0.0
 10
9.5127134635
 20
7.0607657853
 30
0.0
 10
9.5163634317
 20
7.0667724406
 30
0.0
 10
9.5205966983
 20
7.0723594622
 30
0.0
 10
9.523784121
 20
7.0757723569
 30
0.0
 10
9.5254588794
 20
7.0773900678
 30
0.0
  0
SPLINE
  5
2F4
100
AcDbEntity
  8
0
100
AcDbSpline
 62
7
  6
CONTINUOUS
 70
0
 71
3
 72
21
 73
17
 74
0
 42
0.0000001
 43
0.0000001
 44
0.0000000001
 40
0.0
 40
0.0
 40
0.0
 40
0.0
 40
0.1273176984
 40
0.2537999461
 40
0.3167619614
 40
0.3795355204
 40
0.4421314992
 40
0.5045621453
 40
0.5668413456
 40
0.6289845231
 40
0.6910084433
 40
0.7529310869
 40
0.8147714401
 40
0.8765493236
 40
0.9382852134
 40
1.0
 40
1.0
 40
1.0
 40
1.0
 10
12.5431100852
 20
6.8157720764
 30
0.0
 10
12.5431100852
 20
6.8222704988
 30
0.0
 10
12.5437304031
 20
6.8352330665
 30
0.0
 10
12.5460731691
 20
6.8512575984
 30
0.0
 10
12.5488732711
 20
6.8638274403
 30
0.0
 10
12.5514268181
 20
6.8730989619
 30
0.0
 10
12.5544309134
 20
6.8822057332
 30
0.0
 10
12.557878631
 20
6.8911270199
 30
0.0
 10
12.5617620221
 20
6.8998421884
 30
0.0
 10
12.5660722105
 20
6.9083311246
 30
0.0
 10
12.5707992253
 20
6.9165742601
 30
0.0
 10
12.5759321652
 20
6.9245525978
 30
0.0
 10
12.5814592422
 20
6.9322476759
 30
0.0
 10
12.5873677444
 20
6.9396418217
 30
0.0
 10
12.5936437837
 20
6.9467177772
 30
0.0
 10
12.5980640822
 20
6.9512128409
 30
0.0
 10
12.6003297296
 20
6.9534012748
 30
0.0
  0
SPLINE
  5
2F5
100
AcDbEntity
  8
0
100
AcDbSpline
 62
7
  6
CONTINUOUS
 70
0
 71
3
 72
21
 73
17
 74
0
 42
0.0000001
 43
0.0000001
 44
0.0000000001
 40
0.0
 40
0.0
 40
0.0
 40
0.0
 40
0.1273176984
 40
0.2537999461
 40
0.3167619614
 40
0.3795355204
 40
0.4421314992
 40
0.5045621453
 40
0.5668413456
 40
0.6289845231
 40
0.6910084433
 40
0.7529310869
 40
0.8147714401
 40
0.8765493236
 40
0.9382852134
 40
1.0
 40
1.0
 40
1.0
 40
1.0
 10
12.5431100852
 20
9.4740001982
 30
0.0
 10
12.5431100852
 20
9.4804986206
 30
0.0
 10
12.5437304031
 20
9.4934611882
 30
0.0
 10
12.5460731691
 20
9.5094857201
 30
0.0
 10
12.5488732711
 20
9.5220555621
 30
0.0
 10
12.5514268181
 20
9.5313270836
 30
0.0
 10
12.5544309134
 20
9.5404338549
 30
0.0
 10
12.557878631
 20
9.5493551416
 30
0.0
 10
12.5617620221
 20
9.5580703101
 30
0.0
 10
12.5660722105
 20
9.5665592463
 30
0.0
 10
12.5707992253
 20
9.5748023819
 30
0.0
 10
12.5759321652
 20
9.5827807196
 30
0.0
 10
12.5814592422
 20
9.5904757976
 30
0.0
 10
12.5873677444
 20
9.5978699434
 30
0.0
 10
12.5936437837
 20
9.604945899
 30
0.0
 10
12.5980640822
 20
9.6094409626
 30
0.0
 10
12.6003297296
 20
9.6116293966
 30
0.0
  0
SPLINE
  5
2F6
100
AcDbEntity
  8
0
100
AcDbSpline
 62
7
  6
CONTINUOUS
 70
0
 71
3
 72
23
 73
19
 74
0
 42
0.0000001
 43
0.0000001
 44
0.0000000001
 40
0.0
 40
0.0
 40
0.0
 40
0.0
 40
0.0730755908
 40
0.1465350497
 40
0.2198464617
 40
0.2924960453
 40
0.3640060721
 40
0.4339463039
 40
0.5019431226
 40
0.5676871616
 40
0.6309384874
 40
0.6915303809
 40
0.7493727308
 40
0.8044551195
 40
0.8568507943
 40
0.9067212366
 40
0.9543211445
 40
1.0
 40
1.0
 40
1.0
 40
1.0
 10
9.7864166048
 20
9.0155803552
 30
0.0
 10
9.7806298021
 20
9.0180878953
 30
0.0
 10
9.769008982
 20
9.0230774382
 30
0.0
 10
9.7515242581
 20
9.030445626
 30
0.0
 10
9.7340196657
 20
9.0376707952
 30
0.0
 10
9.7166101264
 20
9.0446836859
 30
0.0
 10
9.6994006842
 20
9.0514123836
 30
0.0
 10
9.6824841332
 20
9.0577840884
 30
0.0
 10
9.6659395966
 20
9.0637265556
 30
0.0
 10
9.6498317601
 20
9.0691692137
 30
0.0
 10
9.6342107254
 20
9.0740439681
 30
0.0
 10
9.6191124222
 20
9.0782856573
 30
0.0
 10
9.6045594841
 20
9.0818321947
 30
0.0
 10
9.5905623733
 20
9.0846244445
 30
0.0
 10
9.577121029
 20
9.0866059142
 30
0.0
 10
9.5642258858
 20
9.0877222719
 30
0.0
 10
9.5518622217
 20
9.087921275
 30
0.0
 10
9.5438169056
 20
9.087399084
 30
0.0
 10
9.5398988991
 20
9.0869623096
 30
0.0
  0
SPLINE
  5
2F7
100
AcDbEntity
  8
0
100
AcDbSpline
 62
7
  6
CONTINUOUS
 70
0
 71
3
 72
23
 73
19
 74
0
 42
0.0000001
 43
0.0000001
 44
0.0000000001
 40
0.0
 40
0.0
 40
0.0
 40
0.0
 40
0.0505324479
 40
0.1014094432
 40
0.1529680435
 40
0.2055309989
 40
0.2594010573
 40
0.3148576447
 40
0.3721537586
 40
0.4315160018
 40
0.4931446423
 40
0.557214375
 40
0.6238771884
 40
0.6932628714
 40
0.7654822241
 40
0.840628777
 40
0.9187798853
 40
1.0
 40
1.0
 40
1.0
 40
1.0
 10
13.398265805
 20
9.3576807996
 30
0.0
 10
13.3994327247
 20
9.3575998732
 30
0.0
 10
13.4017687685
 20
9.3573368493
 30
0.0
 10
13.4052448938
 20
9.3566419868
 30
0.0
 10
13.4086962721
 20
9.3556467929
 30
0.0
 10
13.4121206749
 20
9.3543521179
 30
0.0
 10
13.4155165094
 20
9.3527590358
 30
0.0
 10
13.4188821247
 20
9.3508685802
 30
0.0
 10
13.4222161205
 20
9.3486820528
 30
0.0
 10
13.4255171014
 20
9.3462006877
 30
0.0
 10
13.428783726
 20
9.3434258046
 30
0.0
 10
13.4320147501
 20
9.3403588529
 30
0.0
 10
13.4352088127
 20
9.3370012405
 30
0.0
 10
13.4383646769
 20
9.3333545813
 30
0.0
 10
13.4414810241
 20
9.3294205254
 30
0.0
 10
13.4445565306
 20
9.3252008187
 30
0.0
 10
13.4475899121
 20
9.3206974511
 30
0.0
 10
13.4495451891
 20
9.3175681919
 30
0.0
 10
13.4505164769
 20
9.3159584414
 30
0.0
  0
SPLINE
  5
2F8
100
AcDbEntity
  8
0
100
AcDbSpline
 62
7
  6
CONTINUOUS
 70
0
 71
3
 72
37
 73
33
 74
0
 42
0.0000001
 43
0.0000001
 44
0.0000000001
 40
0.0
 40
0.0
 40
0.0
 40
0.0
 40
0.0324304937
 40
0.0648354635
 40
0.0972015465
 40
0.1295196974
 40
0.1617793593
 40
0.1939714266
 40
0.2260875097
 40
0.2581201639
 40
0.2900629701
 40
0.3219105444
 40
0.3536586046
 40
0.3853040043
 40
0.4168446936
 40
0.448279684
 40
0.4796090278
 40
0.5108338279
 40
0.5419561345
 40
0.5729788612
 40
0.6039057448
 40
0.6347413326
 40
0.6654908457
 40
0.6961600931
 40
0.7267554588
 40
0.7572838401
 40
0.8181520969
 40
0.8788443119
 40
0.9091532931
 40
0.9394431842
 40
0.9697225579
 40
1.0
 40
1.0
 40
1.0
 40
1.0
 10
9.9417395691
 20
7.3250533849
 30
0.0
 10
9.9384145899
 20
7.3289767365
 30
0.0
 10
9.9319586216
 20
7.336984886
 30
0.0
 10
9.9228818119
 20
7.3494503278
 30
0.0
 10
9.9144380065
 20
7.3623321171
 30
0.0
 10
9.9066491279
 20
7.3755933017
 30
0.0
 10
9.8995341854
 20
7.3891968195
 30
0.0
 10
9.8931096608
 20
7.4031043704
 30
0.0
 10
9.8873893134
 20
7.4172772248
 30
0.0
 10
9.8823842704
 20
7.4316763285
 30
0.0
 10
9.8781030549
 20
7.4462625732
 30
0.0
 10
9.8745516754
 20
7.4609970206
 30
0.0
 10
9.871733681
 20
7.4758410971
 30
0.0
 10
9.8696502572
 20
7.4907567801
 30
0.0
 10
9.8683004202
 20
7.5057067635
 30
0.0
 10
9.8676811517
 20
7.5206545763
 30
0.0
 10
9.8677875442
 20
7.5355646934
 30
0.0
 10
9.8686128855
 20
7.5504026223
 30
0.0
 10
9.8701488952
 20
7.5651349626
 30
0.0
 10
9.8723858678
 20
7.5797294294
 30
0.0
 10
9.8753128032
 20
7.5941548824
 30
0.0
 10
9.8789174692
 20
7.6083813353
 30
0.0
 10
9.8831866364
 20
7.6223799657
 30
0.0
 10
9.8881060959
 20
7.6361229358
 30
0.0
 10
9.8936610462
 20
7.6495839181
 30
0.0
 10
9.9018840297
 20
7.6671012849
 30
0.0
 10
9.9136749892
 20
7.6881845843
 30
0.0
 10
9.9273822432
 20
7.7080326069
 30
0.0
 10
9.9394048085
 20
7.7230538233
 30
0.0
 10
9.9489318111
 20
7.7338743584
 30
0.0
 10
9.9589515267
 20
7.744232467
 30
0.0
 10
9.9659469611
 20
7.7508174166
 30
0.0
 10
9.9695190255
 20
7.7540257386
 30
0.0
  0
SPLINE
  5
2F9
100
AcDbEntity
  8
0
100
AcDbSpline
 62
7
  6
CONTINUOUS
 70
0
 71
3
 72
23
 73
19
 74
0
 42
0.0000001
 43
0.0000001
 44
0.0000000001
 40
0.0
 40
0.0
 40
0.0
 40
0.0
 40
0.0639344308
 40
0.1275582359
 40
0.1908822775
 40
0.2539220914
 40
0.3166999922
 40
0.3792433808
 40
0.4415843824
 40
0.5037589179
 40
0.5658058142
 40
0.627765847
 40
0.6896807864
 40
0.7515924739
 40
0.813541958
 40
0.8755687101
 40
0.9377099378
 40
1.0
 40
1.0
 40
1.0
 40
1.0
 10
11.0457948189
 20
7.4634276766
 30
0.0
 10
11.0457948189
 20
7.4709574262
 30
0.0
 10
11.0463239418
 20
7.4859859077
 30
0.0
 10
11.0487141768
 20
7.5083576345
 30
0.0
 10
11.0526849199
 20
7.5303978459
 30
0.0
 10
11.0582129992
 20
7.5519968997
 30
0.0
 10
11.0652661773
 20
7.5730503587
 30
0.0
 10
11.073803885
 20
7.5934576132
 30
0.0
 10
11.0837776862
 20
7.6131231298
 30
0.0
 10
11.0951320076
 20
7.631956881
 30
0.0
 10
11.1078048461
 20
7.6498748333
 30
0.0
 10
11.1217285325
 20
7.6667992561
 30
0.0
 10
11.1368304745
 20
7.6826589154
 30
0.0
 10
11.1530339265
 20
7.6973891753
 30
0.0
 10
11.170258539
 20
7.7109319193
 30
0.0
 10
11.1884215232
 20
7.7232356978
 30
0.0
 10
11.2074362376
 20
7.7342546629
 30
0.0
 10
11.2206075352
 20
7.7407106061
 30
0.0
 10
11.2273017005
 20
7.7437116606
 30
0.0
  0
SPLINE
  5
2FA
100
AcDbEntity
  8
0
100
AcDbSpline
 62
7
  6
CONTINUOUS
 70
0
 71
3
 72
23
 73
19
 74
0
 42
0.0000001
 43
0.0000001
 44
0.0000000001
 40
0.0
 40
0.0
 40
0.0
 40
0.0
 40
0.0630445077
 40
0.1260494688
 40
0.1890028721
 40
0.2518975713
 40
0.3147246238
 40
0.3774769235
 40
0.4401479367
 40
0.5027322165
 40
0.5652253569
 40
0.627624079
 40
0.6899262733
 40
0.75213103
 40
0.8142386565
 40
0.8762506782
 40
0.9381698246
 40
1.0
 40
1.0
 40
1.0
 40
1.0
 10
9.5398988991
 20
9.0869623096
 30
0.0
 10
9.5345709954
 20
9.0846206503
 30
0.0
 10
9.5240437587
 20
9.0796476639
 30
0.0
 10
9.508690429
 20
9.0713427772
 30
0.0
 10
9.4938245625
 20
9.0622192574
 30
0.0
 10
9.4794933063
 20
9.052306087
 30
0.0
 10
9.4657412661
 20
9.0416340249
 30
0.0
 10
9.4526115067
 20
9.030236516
 30
0.0
 10
9.4401450838
 20
9.0181491429
 30
0.0
 10
9.4283809986
 20
9.0054096931
 30
0.0
 10
9.4173560578
 20
8.992057981
 30
0.0
 10
9.4071047537
 20
8.9781357462
 30
0.0
 10
9.3976591652
 20
8.9636865165
 30
0.0
 10
9.3890488511
 20
8.9487554527
 30
0.0
 10
9.3813007788
 20
8.9333892896
 30
0.0
 10
9.3744391592
 20
8.9176358876
 30
0.0
 10
9.3684856695
 20
8.9015452123
 30
0.0
 10
9.3651317508
 20
8.8906174946
 30
0.0
 10
9.3636125823
 20
8.8851156905
 30
0.0
  0
SPLINE
  5
2FB
100
AcDbEntity
  8
0
100
AcDbSpline
 62
7
  6
CONTINUOUS
 70
0
 71
3
 72
27
 73
23
 74
0
 42
0.0000001
 43
0.0000001
 44
0.0000000001
 40
0.0
 40
0.0
 40
0.0
 40
0.0
 40
0.0629978809
 40
0.1260397129
 40
0.1891232417
 40
0.2522322566
 40
0.3153416584
 40
0.3468914575
 40
0.3784295226
 40
0.4414438347
 40
0.5043568673
 40
0.5357683339
 40
0.5671406321
 40
0.6297404443
 40
0.692130725
 40
0.723242007
 40
0.7542893015
 40
0.8161689441
 40
0.8777563687
 40
0.9084394305
 40
0.9390435531
 40
1.0
 40
1.0
 40
1.0
 40
1.0
 10
11.7301668957
 20
7.3690187637
 30
0.0
 10
11.7228446328
 20
7.3726526106
 30
0.0
 10
11.7084437822
 20
7.3804361872
 30
0.0
 10
11.6876821937
 20
7.393552047
 30
0.0
 10
11.6678321704
 20
7.4080367063
 30
0.0
 10
11.64898273
 20
7.4238135554
 30
0.0
 10
11.6341789174
 20
7.4379768144
 30
0.0
 10
11.6229243825
 20
7.4498746216
 30
0.0
 10
11.6120806204
 20
7.4621315795
 30
0.0
 10
11.5993151019
 20
7.4781058233
 30
0.0
 10
11.5876612063
 20
7.4948886358
 30
0.0
 10
11.5790504674
 20
7.5087436
 30
0.0
 10
11.5709368107
 20
7.5228485071
 30
0.0
 10
11.5617277969
 20
7.5409462114
 30
0.0
 10
11.5538053889
 20
7.5596066689
 30
0.0
 10
11.5482786509
 20
7.5747963995
 30
0.0
 10
11.5433102842
 20
7.5901081346
 30
0.0
 10
11.5381375678
 20
7.6094971897
 30
0.0
 10
11.5343755541
 20
7.6291609167
 30
0.0
 10
11.5322357692
 20
7.6449637158
 30
0.0
 10
11.5306814352
 20
7.6607517325
 30
0.0
 10
11.5301678018
 20
7.6726353725
 30
0.0
 10
11.530120069
 20
7.6805447127
 30
0.0
  0
SPLINE
  5
2FC
100
AcDbEntity
  8
0
100
AcDbSpline
 62
4
  6
CONTINUOUS
 70
0
 71
3
 72
69
 73
65
 74
0
 42
0.0000001
 43
0.0000001
 44
0.0000000001
 40
0.0
 40
0.0
 40
0.0
 40
0.0
 40
0.03125
 40
0.046875
 40
0.0625
 40
0.078125
 40
0.09375
 40
0.109375
 40
0.125
 40
0.140625
 40
0.15625
 40
0.171875
 40
0.1875
 40
0.203125
 40
0.21875
 40
0.234375
 40
0.25
 40
0.265625
 40
0.28125
 40
0.296875
 40
0.3125
 40
0.328125
 40
0.34375
 40
0.359375
 40
0.375
 40
0.390625
 40
0.40625
 40
0.421875
 40
0.4375
 40
0.453125
 40
0.46875
 40
0.484375
 40
0.5
 40
0.515625
 40
0.53125
 40
0.546875
 40
0.5625
 40
0.578125
 40
0.59375
 40
0.609375
 40
0.625
 40
0.640625
 40
0.65625
 40
0.671875
 40
0.6875
 40
0.703125
 40
0.71875
 40
0.734375
 40
0.75
 40
0.765625
 40
0.78125
 40
0.796875
 40
0.8125
 40
0.828125
 40
0.84375
 40
0.859375
 40
0.875
 40
0.890625
 40
0.90625
 40
0.921875
 40
0.9375
 40
0.953125
 40
0.96875
 40
1.0
 40
1.0
 40
1.0
 40
1.0
 10
8.8832170853
 20
9.7326442692
 30
0.0
 10
8.8830607386
 20
9.7326397819
 30
0.0
 10
8.8828258079
 20
9.732635143
 30
0.0
 10
8.8825142099
 20
9.73262059
 30
0.0
 10
8.882276404
 20
9.7326305949
 30
0.0
 10
8.8820542061
 20
9.7325611048
 30
0.0
 10
8.8818272804
 20
9.7325142748
 30
0.0
 10
8.8816036579
 20
9.7324562992
 30
0.0
 10
8.8813715505
 20
9.7324202458
 30
0.0
 10
8.8811700797
 20
9.7323076494
 30
0.0
 10
8.8809596992
 20
9.7322168927
 30
0.0
 10
8.8807543207
 20
9.7321153199
 30
0.0
 10
8.880537844
 20
9.7320351722
 30
0.0
 10
8.8803607581
 20
9.7318801399
 30
0.0
 10
8.8801719971
 20
9.7317461881
 30
0.0
 10
8.8799905457
 20
9.7316027988
 30
0.0
 10
8.879791531
 20
9.731476079
 30
0.0
 10
8.8796554598
 20
9.7312921189
 30
0.0
 10
8.8795013342
 20
9.7311243728
 30
0.0
 10
8.8793564829
 20
9.7309490108
 30
0.0
 10
8.8791925887
 20
9.7307878983
 30
0.0
 10
8.8790955918
 20
9.730577404
 30
0.0
 10
8.8789793494
 20
9.7303807818
 30
0.0
 10
8.8788731916
 20
9.7301780529
 30
0.0
 10
8.8787459408
 20
9.7299858787
 30
0.0
 10
8.8786929774
 20
9.7297575926
 30
0.0
 10
8.8786187071
 20
9.7295394906
 30
0.0
 10
8.8785553768
 20
9.7293167638
 30
0.0
 10
8.8784695932
 20
9.7291023522
 30
0.0
 10
8.8784626829
 20
9.7288593045
 30
0.0
 10
8.8784331834
 20
9.7286239014
 30
0.0
 10
8.8784151674
 20
9.7283865557
 30
0.0
 10
8.8783738065
 20
9.7281493357
 30
0.0
 10
8.8784143418
 20
9.7279135556
 30
0.0
 10
8.8784315309
 20
9.7276772079
 30
0.0
 10
8.8784602084
 20
9.7274416909
 30
0.0
 10
8.8784662785
 20
9.7272034184
 30
0.0
 10
8.8785512898
 20
9.7269753372
 30
0.0
 10
8.8786138272
 20
9.7267440713
 30
0.0
 10
8.8786873191
 20
9.726515353
 30
0.0
 10
8.878739467
 20
9.7262796288
 30
0.0
 10
8.8788660361
 20
9.7260693805
 30
0.0
 10
8.8789713825
 20
9.7258516942
 30
0.0
 10
8.8790871985
 20
9.7256382838
 30
0.0
 10
8.8791823589
 20
9.7254152078
 30
0.0
 10
8.8793496721
 20
9.7252265186
 30
0.0
 10
8.8794967145
 20
9.7250275602
 30
0.0
 10
8.8796526875
 20
9.724835292
 30
0.0
 10
8.879793209
 20
9.7246265321
 30
0.0
 10
8.8799866057
 20
9.7244770488
 30
0.0
 10
8.8801650405
 20
9.7243105487
 30
0.0
 10
8.8803504479
 20
9.7241528394
 30
0.0
 10
8.8805229265
 20
9.7239769837
 30
0.0
 10
8.8807401476
 20
9.7238649225
 30
0.0
 10
8.8809448312
 20
9.7237344853
 30
0.0
 10
8.8811549222
 20
9.7236137575
 30
0.0
 10
8.8813559213
 20
9.723472568
 30
0.0
 10
8.8815878805
 20
9.7234035159
 30
0.0
 10
8.881811133
 20
9.723313771
 30
0.0
 10
8.8820382521
 20
9.7232346601
 30
0.0
 10
8.8822586116
 20
9.7231337062
 30
0.0
 10
8.8825021429
 20
9.7231094901
 30
0.0
 10
8.8828187209
 20
9.7230502765
 30
0.0
 10
8.8830579837
 20
9.7230119246
 30
0.0
 10
8.8832170857
 20
9.7229850103
 30
0.0
  0
SPLINE
  5
2FD
100
AcDbEntity
  8
0
100
AcDbSpline
 62
4
  6
CONTINUOUS
 70
0
 71
3
 72
69
 73
65
 74
0
 42
0.0000001
 43
0.0000001
 44
0.0000000001
 40
0.0
 40
0.0
 40
0.0
 40
0.0
 40
0.03125
 40
0.046875
 40
0.0625
 40
0.078125
 40
0.09375
 40
0.109375
 40
0.125
 40
0.140625
 40
0.15625
 40
0.171875
 40
0.1875
 40
0.203125
 40
0.21875
 40
0.234375
 40
0.25
 40
0.265625
 40
0.28125
 40
0.296875
 40
0.3125
 40
0.328125
 40
0.34375
 40
0.359375
 40
0.375
 40
0.390625
 40
0.40625
 40
0.421875
 40
0.4375
 40
0.453125
 40
0.46875
 40
0.484375
 40
0.5
 40
0.515625
 40
0.53125
 40
0.546875
 40
0.5625
 40
0.578125
 40
0.59375
 40
0.609375
 40
0.625
 40
0.640625
 40
0.65625
 40
0.671875
 40
0.6875
 40
0.703125
 40
0.71875
 40
0.734375
 40
0.75
 40
0.765625
 40
0.78125
 40
0.796875
 40
0.8125
 40
0.828125
 40
0.84375
 40
0.859375
 40
0.875
 40
0.890625
 40
0.90625
 40
0.921875
 40
0.9375
 40
0.953125
 40
0.96875
 40
1.0
 40
1.0
 40
1.0
 40
1.0
 10
8.8832170853
 20
9.7229850104
 30
0.0
 10
8.8833734319
 20
9.7229894976
 30
0.0
 10
8.8836083626
 20
9.7229941365
 30
0.0
 10
8.8839199607
 20
9.7230086896
 30
0.0
 10
8.8841577665
 20
9.7229986847
 30
0.0
 10
8.8843799644
 20
9.7230681748
 30
0.0
 10
8.8846068901
 20
9.7231150048
 30
0.0
 10
8.8848305126
 20
9.7231729803
 30
0.0
 10
8.8850626201
 20
9.7232090337
 30
0.0
 10
8.8852640909
 20
9.7233216302
 30
0.0
 10
8.8854744713
 20
9.7234123868
 30
0.0
 10
8.8856798498
 20
9.7235139597
 30
0.0
 10
8.8858963265
 20
9.7235941074
 30
0.0
 10
8.8860734124
 20
9.7237491397
 30
0.0
 10
8.8862621734
 20
9.7238830914
 30
0.0
 10
8.8864436249
 20
9.7240264807
 30
0.0
 10
8.8866426396
 20
9.7241532005
 30
0.0
 10
8.8867787107
 20
9.7243371607
 30
0.0
 10
8.8869328364
 20
9.7245049068
 30
0.0
 10
8.8870776877
 20
9.7246802687
 30
0.0
 10
8.8872415819
 20
9.7248413812
 30
0.0
 10
8.8873385788
 20
9.7250518755
 30
0.0
 10
8.8874548212
 20
9.7252484977
 30
0.0
 10
8.887560979
 20
9.7254512266
 30
0.0
 10
8.8876882297
 20
9.7256434008
 30
0.0
 10
8.8877411932
 20
9.725871687
 30
0.0
 10
8.8878154635
 20
9.7260897889
 30
0.0
 10
8.8878787937
 20
9.7263125158
 30
0.0
 10
8.8879645773
 20
9.7265269273
 30
0.0
 10
8.8879714876
 20
9.7267699751
 30
0.0
 10
8.8880009872
 20
9.7270053782
 30
0.0
 10
8.8880190031
 20
9.7272427238
 30
0.0
 10
8.8880603641
 20
9.7274799438
 30
0.0
 10
8.8880198288
 20
9.7277157239
 30
0.0
 10
8.8880026396
 20
9.7279520717
 30
0.0
 10
8.8879739621
 20
9.7281875886
 30
0.0
 10
8.887967892
 20
9.7284258611
 30
0.0
 10
8.8878828807
 20
9.7286539423
 30
0.0
 10
8.8878203433
 20
9.7288852083
 30
0.0
 10
8.8877468515
 20
9.7291139266
 30
0.0
 10
8.8876947035
 20
9.7293496508
 30
0.0
 10
8.8875681344
 20
9.7295598991
 30
0.0
 10
8.887462788
 20
9.7297775854
 30
0.0
 10
8.887346972
 20
9.7299909957
 30
0.0
 10
8.8872518117
 20
9.7302140718
 30
0.0
 10
8.8870844984
 20
9.7304027609
 30
0.0
 10
8.886937456
 20
9.7306017194
 30
0.0
 10
8.886781483
 20
9.7307939875
 30
0.0
 10
8.8866409615
 20
9.7310027475
 30
0.0
 10
8.8864475648
 20
9.7311522307
 30
0.0
 10
8.8862691301
 20
9.7313187308
 30
0.0
 10
8.8860837227
 20
9.7314764402
 30
0.0
 10
8.885911244
 20
9.7316522958
 30
0.0
 10
8.885694023
 20
9.7317643571
 30
0.0
 10
8.8854893393
 20
9.7318947943
 30
0.0
 10
8.8852792484
 20
9.7320155221
 30
0.0
 10
8.8850782493
 20
9.7321567116
 30
0.0
 10
8.8848462901
 20
9.7322257636
 30
0.0
 10
8.8846230376
 20
9.7323155085
 30
0.0
 10
8.8843959185
 20
9.7323946195
 30
0.0
 10
8.8841755589
 20
9.7324955734
 30
0.0
 10
8.8839320276
 20
9.7325197894
 30
0.0
 10
8.8836154497
 20
9.732579003
 30
0.0
 10
8.8833761869
 20
9.732617355
 30
0.0
 10
8.8832170849
 20
9.7326442692
 30
0.0
  0
ELLIPSE
  5
2FE
100
AcDbEntity
  8
0
100
AcDbEllipse
 62
7
  6
CONTINUOUS
 10
9.5796496625
 20
9.1357005815
 30
0.0
 11
0.0475503526
 21
0.3394426868
 31
0.0
 40
0.8955385937
 41
0.0
 42
6.2831853072
  0
ELLIPSE
  5
2FF
100
AcDbEntity
  8
0
100
AcDbEllipse
 62
7
  6
CONTINUOUS
 10
11.7964496389
 20
8.9211116278
 30
0.0
 11
-0.0370540818
 21
0.1293637251
 31
0.0
 40
0.8883046911
 41
0.0
 42
6.2831853072
  0
ELLIPSE
  5
300
100
AcDbEntity
  8
0
100
AcDbEllipse
 62
7
  6
CONTINUOUS
 10
12.2340141304
 20
7.3201708955
 30
0.0
 11
0.1360512659
 21
-0.0358144401
 31
0.0
 40
0.8504987735
 41
0.0
 42
6.2831853072
  0
ENDSEC
  0
SECTION
  2
OBJECTS
  0
DICTIONARY
  5
C
100
AcDbDictionary
280
0
281
1
  3
ACAD_GROUP
350
D
  3
ACAD_MLINESTYLE
350
17
  3
ACAD_LAYOUT
350
1A
  3
ACAD_PLOTSETTINGS
350
19
  3
ACAD_PLOTSTYLENAME
350
E
  3
ACAD_IMAGE_DICT
350
       302
  3
ACAD_IMAGE_VARS
350
       303
  3
ACAD_TABLESTYLE
350
       304
  0
IMAGEDEF_REACTOR
  5
301
100
AcDbRasterImageDefReactor
 90
2
330
272
  0
DICTIONARY
  5
D
102
{ACAD_REACTORS
330
C
102
}
100
AcDbDictionary
280
0
281
1
  0
ACDBDICTIONARYWDFLT
  5
E
102
{ACAD_REACTORS
330
C
102
}
100
AcDbDictionary
281
1
  3
Normal
350
F
100
AcDbDictionaryWithDefault
340
F
  0
DICTIONARY
  5
302
330
C
100
AcDbDictionary
281
1
  3
CKJ_assy_2_img_1
350
       307
  0
RASTERVARIABLES
  5
303
330
C
100
AcDbRasterVariables
 90
0
 70
0
 71
1
 72
5
  0
DICTIONARY
  5
17
102
{ACAD_REACTORS
330
C
102
}
100
AcDbDictionary
280
0
281
1
  3
Standard
350
18
  0
DICTIONARY
  5
304
330
C
100
AcDbDictionary
281
1
  3
Standard
350
       308
  3
Standard1
350
       309
  0
DICTIONARY
  5
19
102
{ACAD_REACTORS
330
C
102
}
100
AcDbDictionary
281
1
  0
DICTIONARY
  5
1A
102
{ACAD_REACTORS
330
C
102
}
100
AcDbDictionary
281
1
  3
Model
350
305
  3
Layout1
350
306
  0
ACDBPLACEHOLDER
  5
F
102
{ACAD_REACTORS
330
E
102
}
  0
MLINESTYLE
  5
18
102
{ACAD_REACTORS
330
17
102
}
100
AcDbMlineStyle
  2
STANDARD
 70
0
  3

 62
256
 51
90.0
 52
90.0
 71
2
 49
0.5
 62
256
  6
BYLAYER
 49
-0.5
 62
256
  6
BYLAYER
  0
LAYOUT
  5
305
102
{ACAD_REACTORS
330
1A
102
}
100
AcDbPlotSettings
  1

  2
none_device
  4
ANSI_C_(22.00_x_17.00_Inches)
  6

 40
0.0
 41
0.0
 42
0.0
 43
0.0
 44
558.8
 45
431.8
 46
0.0
 47
0.0
 48
0.0
 49
0.0
140
0.0
141
0.0
142
1.0
143
1.0
 70
1024
 72
0
 73
0
 74
0
  7

 75
0
147
1.0
148
0.0
149
0.0
100
AcDbLayout
  1
Model
 70
0
 71
0
 10
0.0
 20
0.0
 11
22.0
 21
17.0
 12
0.0
 22
0.0
 32
0.0
 14
0.0
 24
0.0
 34
0.0
 15
0.0
 25
0.0
 35
0.0
146
0.0
 13
0.0
 23
0.0
 33
0.0
 16
1.0
 26
0.0
 36
0.0
 17
0.0
 27
1.0
 37
0.0
 76
0
330
20F
345
0
346
0
  0
LAYOUT
  5
306
102
{ACAD_REACTORS
330
1A
102
}
100
AcDbPlotSettings
  1

  2
none_device
  4
ANSI_C_(22.00_x_17.00_Inches)
  6

 40
0.0
 41
0.0
 42
0.0
 43
0.0
 44
558.8
 45
431.8
 46
0.0
 47
0.0
 48
0.0
 49
0.0
140
0.0
141
0.0
142
1.0
143
1.0
 70
0
 72
0
 73
0
 74
0
  7

 75
0
147
1.0
148
0.0
149
0.0
100
AcDbLayout
  1
Layout1
 70
0
 71
1
 10
0.0
 20
0.0
 11
22.0
 21
17.0
 12
0.0
 22
0.0
 32
0.0
 14
0.0
 24
0.0
 34
0.0
 15
0.0
 25
0.0
 35
0.0
146
0.0
 13
0.0
 23
0.0
 33
0.0
 16
1.0
 26
0.0
 36
0.0
 17
0.0
 27
1.0
 37
0.0
 76
0
330
210
345
0
346
0
  0
IMAGEDEF
  5
307
102
{ACAD_REACTORS
330
302
330
301
102
}
100
AcDbRasterImageDef
 90
0
  1
CKJ_assy_2_img_1.png
 10
369.0
 20
92.0
 11
0.0066666667
 21
0.0066666667
280
1
281
0
  0
TABLESTYLE
  5
308
102
{ACAD_REACTORS
330
304
330
275
102
}
330
304
100
AcDbTableStyle
  3
Standard
 70
0
 71
0
 40
0.06
 41
0.06
280
1
281
1
  7
Standard
140
0.18
170
1
 62
0
 63
7
283
0
  7
Standard
140
0.18
170
1
 62
0
 63
7
283
0
  7
Standard
140
0.18
170
1
 62
0
 63
7
283
0
  0
TABLESTYLE
  5
309
102
{ACAD_REACTORS
330
304
330
274
102
}
330
304
100
AcDbTableStyle
  3
Standard1
 70
1
 71
0
 40
0.06
 41
0.06
280
1
281
1
  7
Standard
140
0.18
170
1
 62
0
 63
7
283
0
  7
Standard
140
0.18
170
1
 62
0
 63
7
283
0
  7
Standard
140
0.18
170
1
 62
0
 63
7
283
0
  0
ENDSEC
  0
EOF
