999
DXF file: CKC_assy_2.dxf
999
Pro/ENGINEER 2014200 by Parametric Technology Corporation
  0
SECTION
  2
HEADER
  9
$ACADVER
  1
AC1021
  9
$DWGCODEPAGE
  3
ANSI_1252
  9
$EXTMAX
 10
22.0
 20
17.0
 30
0.0
  9
$EXTMIN
 10
0.0
 20
0.0
 30
0.0
  9
$LIMMIN
 10
0.0
 20
0.0
  9
$LIMMAX
 10
22.0
 20
17.0
  9
$VIEWCTR
 10
11.0
 20
8.5
  9
$VIEWSIZE
 40
17.0
  9
$CLAYER
  8
0
  9
$LTSCALE
 40
1.21
  9
$CELTYPE
  6
BYLAYER
  9
$DIMSCALE
 40
1.0
  9
$DIMASZ
 40
0.1875
  9
$DIMEXO
 40
0.0625
  9
$DIMDLI
 40
0.836
  9
$DIMEXE
 40
0.125
  9
$DIMCEN
 40
0.198
  9
$DIMLFAC
 40
1.0
  9
$DIMBLK
  1
_FILLED
  9
$DIMTXT
 40
0.1
  9
$DIMTOL
 70
0
  9
$DIMLIM
 70
0
  9
$DIMTFAC
 40
1.0
  9
$DIMGAP
 40
0.09
  9
$DIMDSEP
 70
46
  9
$AUNITS
 70
0
  9
$PDMODE
 70
3
  9
$PDSIZE
 40
0.3125
  9
$HANDSEED
  5
3EB
  9
$TILEMODE
 70
1
  9
$MEASUREMENT
 70
0
  9
$INSUNITS
 70
1
  0
ENDSEC
  0
SECTION
  2
CLASSES
  0
CLASS
  1
ACDBDICTIONARYWDFLT
  2
AcDbDictionaryWithDefault
  3
AutoCAD 2000
 90
0
 91
1
280
0
281
0
  0
CLASS
  1
ACDBPLACEHOLDER
  2
AcDbPlaceHolder
  3
AutoCAD 2000
 90
0
 91
1
280
0
281
0
  0
CLASS
  1
LAYOUT
  2
AcDbLayout
  3
AutoCAD 2000
 90
0
 91
0
280
0
281
0
  0
CLASS
  1
RASTERVARIABLES
  2
AcDbRasterVariables
  3
ISM
 90
0
 91
1
280
0
281
0
  0
CLASS
  1
IMAGEDEF
  2
AcDbRasterImageDef
  3
ISM
 90
0
 91
1
280
0
281
0
  0
CLASS
  1
IMAGEDEF_REACTOR
  2
AcDbRasterImageDefReactor
  3
ISM
 90
0
 91
1
280
0
281
0
  0
CLASS
  1
IMAGE
  2
AcDbRasterImage
  3
ISM
 90
127
 91
1
280
0
281
1
  0
CLASS
  1
TABLESTYLE
  2
AcDbTableStyle
  3
ObjectDBX Classes
 90
2047
 91
1
280
0
281
0
  0
CLASS
  1
ACAD_TABLE
  2
AcDbTable
  3
ObjectDBX Classes
 90
1025
 91
2
280
0
281
1
  0
ENDSEC
  0
SECTION
  2
TABLES
  0
TABLE
  2
VPORT
  5
8
100
AcDbSymbolTable
 70
2
  0
VPORT
  5
1F4
100
AcDbSymbolTableRecord
100
AcDbViewportTableRecord
  2
*ACTIVE
 70
0
 10
0.0
 20
0.0
 11
1.0
 21
1.0
 12
11.0
 22
8.5
 13
0.0
 23
0.0
 14
1.0
 24
1.0
 15
0.0
 25
0.0
 16
0.0
 26
0.0
 36
1.0
 17
0.0
 27
0.0
 37
0.0
 40
17.0
 41
1.2941176471
 42
50.0
 43
0.0
 44
0.0
 50
0.0
 51
0.0
 71
0
 72
100
 73
1
 74
1
 75
0
 76
0
 77
0
 78
0
  0
ENDTAB
  0
TABLE
  2
LTYPE
  5
5
100
AcDbSymbolTable
 70
6
  0
LTYPE
  5
14
100
AcDbSymbolTableRecord
100
AcDbLinetypeTableRecord
  2
BYBLOCK
 70
0
  3

 72
65
 73
0
 40
0.0
  0
LTYPE
  5
15
100
AcDbSymbolTableRecord
100
AcDbLinetypeTableRecord
  2
BYLAYER
 70
0
  3

 72
65
 73
0
 40
0.0
  0
LTYPE
  5
16
100
AcDbSymbolTableRecord
100
AcDbLinetypeTableRecord
  2
CONTINUOUS
 70
64
  3
Solid line
 72
65
 73
0
 40
0.0
  0
LTYPE
  5
1F5
100
AcDbSymbolTableRecord
100
AcDbLinetypeTableRecord
  2
CENTER
 70
64
  3
____ _ ____ _ ____ _ ____ _ ____ _ ____ _ ____
 72
65
 73
4
 40
0.6
 49
0.375
 74
0
 49
-0.075
 74
0
 49
0.075
 74
0
 49
-0.075
 74
0
  0
LTYPE
  5
1F6
100
AcDbSymbolTableRecord
100
AcDbLinetypeTableRecord
  2
HIDDEN
 70
64
  3
- - - - - - - - - - - - - - - - - - - -
 72
65
 73
2
 40
0.2
 49
0.1
 74
0
 49
-0.1
 74
0
  0
LTYPE
  5
1F7
100
AcDbSymbolTableRecord
100
AcDbLinetypeTableRecord
  2
PHANTOM
 70
64
  3
_____ _ _ _____ _ _ _____ _ _ _____
 72
65
 73
6
 40
0.8
 49
0.45
 74
0
 49
-0.05
 74
0
 49
0.1
 74
0
 49
-0.05
 74
0
 49
0.1
 74
0
 49
-0.05
 74
0
  0
LTYPE
  5
1F8
100
AcDbSymbolTableRecord
100
AcDbLinetypeTableRecord
  2
DOT
 70
64
  3
. . . . . . . . . . . . . . . . . . . .
 72
65
 73
2
 40
0.2
 49
0.1
 74
0
 49
-0.1
 74
0
  0
LTYPE
  5
1F9
100
AcDbSymbolTableRecord
100
AcDbLinetypeTableRecord
  2
DASHED
 70
64
  3
- - - - - - - - - - - - - - - - - - - -
 72
65
 73
2
 40
0.2
 49
0.1
 74
0
 49
-0.1
 74
0
  0
ENDTAB
  0
TABLE
  2
LAYER
  5
2
100
AcDbSymbolTable
 70
36
  0
LAYER
  5
10
100
AcDbSymbolTableRecord
100
AcDbLayerTableRecord
  2
0
 70
0
 62
7
  6
CONTINUOUS
370
-3
390
F
  0
LAYER
  5
1FA
100
AcDbSymbolTableRecord
100
AcDbLayerTableRecord
  2
DEFAULT_1
 70
0
 62
7
  6
CENTER
370
-3
390
F
  0
LAYER
  5
1FB
100
AcDbSymbolTableRecord
100
AcDbLayerTableRecord
  2
DEFAULT_2
 70
0
 62
8
  6
HIDDEN
370
-3
390
F
  0
LAYER
  5
1FC
100
AcDbSymbolTableRecord
100
AcDbLayerTableRecord
  2
DEFAULT_3
 70
0
 62
7
  6
PHANTOM
370
-3
390
F
  0
LAYER
  5
1FD
100
AcDbSymbolTableRecord
100
AcDbLayerTableRecord
  2
01___PRT_ALL_DTM_PLN
 70
0
 62
7
  6
CONTINUOUS
370
-3
390
F
  0
LAYER
  5
1FE
100
AcDbSymbolTableRecord
100
AcDbLayerTableRecord
  2
01___PRT_DEF_DTM_PLN
 70
0
 62
7
  6
CONTINUOUS
370
-3
390
F
  0
LAYER
  5
1FF
100
AcDbSymbolTableRecord
100
AcDbLayerTableRecord
  2
02___PRT_ALL_AXES
 70
0
 62
7
  6
CONTINUOUS
370
-3
390
F
  0
LAYER
  5
200
100
AcDbSymbolTableRecord
100
AcDbLayerTableRecord
  2
03___PRT_ALL_CURVES
 70
0
 62
7
  6
CONTINUOUS
370
-3
390
F
  0
LAYER
  5
201
100
AcDbSymbolTableRecord
100
AcDbLayerTableRecord
  2
04___PRT_ALL_DTM_PNT
 70
0
 62
7
  6
CONTINUOUS
370
-3
390
F
  0
LAYER
  5
202
100
AcDbSymbolTableRecord
100
AcDbLayerTableRecord
  2
05___PRT_ALL_DTM_CSYS
 70
0
 62
7
  6
CONTINUOUS
370
-3
390
F
  0
LAYER
  5
203
100
AcDbSymbolTableRecord
100
AcDbLayerTableRecord
  2
05___PRT_DEF_DTM_CSYS
 70
0
 62
7
  6
CONTINUOUS
370
-3
390
F
  0
LAYER
  5
204
100
AcDbSymbolTableRecord
100
AcDbLayerTableRecord
  2
06___PRT_ALL_SURFS
 70
0
 62
7
  6
CONTINUOUS
370
-3
390
F
  0
LAYER
  5
205
100
AcDbSymbolTableRecord
100
AcDbLayerTableRecord
  2
DATUM_PLANES
 70
0
 62
7
  6
CONTINUOUS
370
-3
390
F
  0
LAYER
  5
206
100
AcDbSymbolTableRecord
100
AcDbLayerTableRecord
  2
DIMENSIONS
 70
0
 62
7
  6
CONTINUOUS
370
-3
390
F
  0
LAYER
  5
207
100
AcDbSymbolTableRecord
100
AcDbLayerTableRecord
  2
PARAMETERDIMENSIONS
 70
0
 62
7
  6
CONTINUOUS
370
-3
390
F
  0
LAYER
  5
208
100
AcDbSymbolTableRecord
100
AcDbLayerTableRecord
  2
PLANE
 70
0
 62
7
  6
CONTINUOUS
370
-3
390
F
  0
LAYER
  5
209
100
AcDbSymbolTableRecord
100
AcDbLayerTableRecord
  2
PORT_AREAS
 70
0
 62
7
  6
CONTINUOUS
370
-3
390
F
  0
LAYER
  5
20A
100
AcDbSymbolTableRecord
100
AcDbLayerTableRecord
  2
SUNNBOMCOSMETIC
 70
0
 62
7
  6
CONTINUOUS
370
-3
390
F
  0
LAYER
  5
20B
100
AcDbSymbolTableRecord
100
AcDbLayerTableRecord
  2
SUNNBOMSTAMPING
 70
0
 62
7
  6
CONTINUOUS
370
-3
390
F
  0
LAYER
  5
20C
100
AcDbSymbolTableRecord
100
AcDbLayerTableRecord
  2
THREADS
 70
0
 62
7
  6
CONTINUOUS
370
-3
390
F
  0
ENDTAB
  0
TABLE
  2
STYLE
  5
3
100
AcDbSymbolTable
 70
1
  0
STYLE
  5
11
100
AcDbSymbolTableRecord
100
AcDbTextStyleTableRecord
  2
STANDARD
 70
0
 40
0.0
 41
0.8
 50
0.0
 71
0
 42
0.2
  3
txt
  4

  0
STYLE
  5
20D
100
AcDbSymbolTableRecord
100
AcDbTextStyleTableRecord
  2
TEXTSTYLE_1
 70
0
 40
0.0
 41
0.8
 50
0.0
 71
0
 42
0.2
  3
gdt
  4

  0
ENDTAB
  0
TABLE
  2
VIEW
  5
6
100
AcDbSymbolTable
 70
0
  0
ENDTAB
  0
TABLE
  2
UCS
  5
7
100
AcDbSymbolTable
 70
0
  0
ENDTAB
  0
TABLE
  2
APPID
  5
9
100
AcDbSymbolTable
 70
1
  0
APPID
  5
20E
100
AcDbSymbolTableRecord
100
AcDbRegAppTableRecord
  2
ACAD
 70
0
  0
ENDTAB
  0
TABLE
  2
BLOCK_RECORD
  5
1
100
AcDbSymbolTable
 70
0
  0
BLOCK_RECORD
  5
20F
100
AcDbSymbolTableRecord
100
AcDbBlockTableRecord
  2
*Model_Space
  0
BLOCK_RECORD
  5
210
100
AcDbSymbolTableRecord
100
AcDbBlockTableRecord
  2
*Paper_Space
  0
BLOCK_RECORD
  5
211
100
AcDbSymbolTableRecord
100
AcDbBlockTableRecord
  2
SUN_FIRST_THIRD_ANGLE_BL0
  0
BLOCK_RECORD
  5
212
100
AcDbSymbolTableRecord
100
AcDbBlockTableRecord
  2
*T1
  0
BLOCK_RECORD
  5
213
100
AcDbSymbolTableRecord
100
AcDbBlockTableRecord
  2
*T2
  0
ENDTAB
  0
TABLE
  2
DIMSTYLE
  5
A
100
AcDbSymbolTable
 70
1
100
AcDbDimStyleTable
 71
0
  0
DIMSTYLE
105
214
100
AcDbSymbolTableRecord
100
AcDbDimStyleTableRecord
  2
STANDARD
 70
0
  3

  4

 40
1.0
 41
0.1875
 42
0.0625
 43
0.38
 44
0.125
 45
0.0
 46
0.0
 47
0.001
 48
0.001
140
0.1
141
0.09
142
0.0
143
25.4
144
1.0
145
0.0
146
1.0
147
0.09
 71
0.0
 72
0.0
 73
1
 74
1
 75
0
 76
0
 77
0
 78
4
170
0
171
2
172
0
173
0
174
0
175
0
176
0
177
0
178
0
270
2
271
3
272
3
273
2
274
2
275
0
280
0
281
0
282
0
283
1
284
4
285
0
286
0
287
3
288
0
340
11
278
46
  0
ENDTAB
  0
ENDSEC
  0
SECTION
  2
BLOCKS
  0
BLOCK
  5
20
100
AcDbEntity
  8
0
100
AcDbBlockBegin
  2
*Model_Space
 70
0
 10
0.0
 20
0.0
 30
0.0
  3
*Model_Space
  1

  0
ENDBLK
  5
21
100
AcDbEntity
  8
0
100
AcDbBlockEnd
  0
BLOCK
  5
1C
100
AcDbEntity
  8
0
100
AcDbBlockBegin
  2
*Paper_Space
 70
0
 10
0.0
 20
0.0
 30
0.0
  3
*Paper_Space
  1

  0
ENDBLK
  5
1D
100
AcDbEntity
  8
0
100
AcDbBlockEnd
  0
BLOCK
  5
215
100
AcDbEntity
  8
0
100
AcDbBlockBegin
 62
2
  6
CONTINUOUS
  2
SUN_FIRST_THIRD_ANGLE_BL0
 70
64
 10
20.4816717061
 20
1.2289683772
  3
SUN_FIRST_THIRD_ANGLE_BL0
  1

  0
TEXT
  5
216
100
AcDbEntity
  8
0
100
AcDbText
 62
2
  6
CONTINUOUS
 10
19.4750896608
 20
1.4136269581
  7
STANDARD
 40
0.08
  1
FIRST ANGLE
 41
0.8
 72
0
100
AcDbText
  0
TEXT
  5
217
100
AcDbEntity
  8
0
100
AcDbText
 62
2
  6
CONTINUOUS
 10
20.7842537513
 20
1.4047600029
  7
STANDARD
 40
0.08
  1
THIRD ANGLE
 41
0.8
 72
0
100
AcDbText
  0
LINE
  5
218
100
AcDbEntity
  8
0
100
AcDbLine
 62
7
  6
CONTINUOUS
 10
19.4767170086
 20
1.1727031207
 11
19.6334271527
 21
1.1717972817
  0
LINE
  5
219
100
AcDbEntity
  8
0
100
AcDbLine
 62
7
  6
CONTINUOUS
 10
19.6596964832
 20
1.1717972817
 11
19.6950230232
 21
1.171593082
  0
LINE
  5
21A
100
AcDbEntity
  8
0
100
AcDbLine
 62
7
  6
CONTINUOUS
 10
19.7194818561
 20
1.1708914427
 11
19.8852396156
 21
1.1699333054
  0
LINE
  5
21B
100
AcDbEntity
  8
0
100
AcDbLine
 62
7
  6
CONTINUOUS
 10
19.4758111696
 20
1.2723454088
 11
19.88525039
 21
1.3511534004
  0
LINE
  5
21C
100
AcDbEntity
  8
0
100
AcDbLine
 62
7
  6
CONTINUOUS
 10
19.88525039
 20
1.3511534004
 11
19.8831348489
 21
0.9851647912
  0
LINE
  5
21D
100
AcDbEntity
  8
0
100
AcDbLine
 62
7
  6
CONTINUOUS
 10
19.8831348489
 20
0.9851647912
 11
19.4767170086
 21
1.0658141206
  0
LINE
  5
21E
100
AcDbEntity
  8
0
100
AcDbLine
 62
7
  6
CONTINUOUS
 10
19.4767170086
 20
1.0658141206
 11
19.4779056764
 21
1.2714536432
  0
CIRCLE
  5
21F
100
AcDbEntity
  8
0
100
AcDbCircle
 62
7
  6
CONTINUOUS
 10
20.2068232291
 20
1.1717972817
 40
0.175742101
  0
CIRCLE
  5
220
100
AcDbEntity
  8
0
100
AcDbCircle
 62
7
  6
CONTINUOUS
 10
20.2068232291
 20
1.1717972817
 40
0.1005522074
  0
LINE
  5
221
100
AcDbEntity
  8
0
100
AcDbLine
 62
7
  6
CONTINUOUS
 10
20.2077290681
 20
1.3756110529
 11
20.2071171714
 21
1.2379342989
  0
LINE
  5
222
100
AcDbEntity
  8
0
100
AcDbLine
 62
7
  6
CONTINUOUS
 10
20.2077290681
 20
1.2016899681
 11
20.2074674401
 21
1.1428236749
  0
LINE
  5
223
100
AcDbEntity
  8
0
100
AcDbLine
 62
7
  6
CONTINUOUS
 10
20.208634907
 20
1.101141841
 11
20.2080230104
 21
0.963465087
  0
LINE
  5
224
100
AcDbEntity
  8
0
100
AcDbLine
 62
7
  6
CONTINUOUS
 10
20.0066328138
 20
1.1745147986
 11
20.1443095678
 21
1.1739029019
  0
LINE
  5
225
100
AcDbEntity
  8
0
100
AcDbLine
 62
7
  6
CONTINUOUS
 10
20.1832714155
 20
1.1727031207
 11
20.238153505
 21
1.172335442
  0
LINE
  5
226
100
AcDbEntity
  8
0
100
AcDbLine
 62
7
  6
CONTINUOUS
 10
20.2756669918
 20
1.1717972817
 11
20.407916871
 21
1.1712095044
  0
CIRCLE
  5
227
100
AcDbEntity
  8
0
100
AcDbCircle
 62
7
  6
CONTINUOUS
 10
20.7509457401
 20
1.1693297793
 40
0.1722024983
  0
CIRCLE
  5
228
100
AcDbEntity
  8
0
100
AcDbCircle
 62
7
  6
CONTINUOUS
 10
20.7509457401
 20
1.1693297793
 40
0.0985164967
  0
LINE
  5
229
100
AcDbEntity
  8
0
100
AcDbLine
 62
7
  6
CONTINUOUS
 10
20.7169767782
 20
1.170462078
 11
20.7825395137
 21
1.1682766535
  0
LINE
  5
22A
100
AcDbEntity
  8
0
100
AcDbLine
 62
7
  6
CONTINUOUS
 10
20.8177513651
 20
1.1693297793
 11
20.947965719
 21
1.1693297793
  0
LINE
  5
22B
100
AcDbEntity
  8
0
100
AcDbLine
 62
7
  6
CONTINUOUS
 10
20.6875370113
 20
1.170462078
 11
20.5573226574
 21
1.170462078
  0
LINE
  5
22C
100
AcDbEntity
  8
0
100
AcDbLine
 62
7
  6
CONTINUOUS
 10
20.7486811426
 20
1.1987695462
 11
20.7486811426
 21
1.1432869085
  0
LINE
  5
22D
100
AcDbEntity
  8
0
100
AcDbLine
 62
7
  6
CONTINUOUS
 10
20.7498134414
 20
1.1059210505
 11
20.7498134414
 21
0.9757066966
  0
LINE
  5
22E
100
AcDbEntity
  8
0
100
AcDbLine
 62
7
  6
CONTINUOUS
 10
20.7486811426
 20
1.2338708068
 11
20.7486811426
 21
1.3640851607
  0
LINE
  5
22F
100
AcDbEntity
  8
0
100
AcDbLine
 62
7
  6
CONTINUOUS
 10
21.0702539817
 20
1.2701043662
 11
21.4790138229
 21
1.3448360823
  0
LINE
  5
230
100
AcDbEntity
  8
0
100
AcDbLine
 62
7
  6
CONTINUOUS
 10
21.4790138229
 20
1.3448360823
 11
21.4790138229
 21
0.9779712941
  0
LINE
  5
231
100
AcDbEntity
  8
0
100
AcDbLine
 62
7
  6
CONTINUOUS
 10
21.4790138229
 20
0.9779712941
 11
21.069121683
 21
1.0617614
  0
LINE
  5
232
100
AcDbEntity
  8
0
100
AcDbLine
 62
7
  6
CONTINUOUS
 10
21.0702539817
 20
1.2701043662
 11
21.069121683
 21
1.0617614
  0
LINE
  5
233
100
AcDbEntity
  8
0
100
AcDbLine
 62
7
  6
CONTINUOUS
 10
21.4790138229
 20
1.1693297793
 11
21.3159628059
 21
1.1693297793
  0
LINE
  5
234
100
AcDbEntity
  8
0
100
AcDbLine
 62
7
  6
CONTINUOUS
 10
21.2876553377
 20
1.1693297793
 11
21.2502894796
 21
1.1693297793
  0
LINE
  5
235
100
AcDbEntity
  8
0
100
AcDbLine
 62
7
  6
CONTINUOUS
 10
21.2208497126
 20
1.1659328831
 11
21.0713862804
 21
1.1659328831
  0
LINE
  5
236
100
AcDbEntity
  8
0
100
AcDbLine
 62
7
  6
CONTINUOUS
 10
20.4796138713
 20
1.5284908897
 11
20.4766766948
 21
0.9294458646
  0
ENDBLK
  5
237
100
AcDbEntity
  8
0
  6
BYBLOCK
 62
0
100
AcDbBlockEnd
  0
BLOCK
  5
238
100
AcDbEntity
  8
0
100
AcDbBlockBegin
  2
*T1
 70
1
 10
0.0
 20
0.0
  3
*T1
  1

  0
LINE
  5
239
100
AcDbEntity
  8
0
100
AcDbLine
 62
2
  6
CONTINUOUS
 10
9.275
 20
0.0
 11
-0.0
 21
0.0
  0
LINE
  5
23A
100
AcDbEntity
  8
0
100
AcDbLine
 62
2
  6
CONTINUOUS
 10
9.275
 20
0.0
 11
9.275
 21
1.25
  0
LINE
  5
23B
100
AcDbEntity
  8
0
100
AcDbLine
 62
2
  6
CONTINUOUS
 10
9.275
 20
0.625
 11
-0.0
 21
0.625
  0
LINE
  5
23C
100
AcDbEntity
  8
0
100
AcDbLine
 62
2
  6
CONTINUOUS
 10
9.275
 20
1.25
 11
-0.0
 21
1.25
  0
LINE
  5
23D
100
AcDbEntity
  8
0
100
AcDbLine
 62
2
  6
CONTINUOUS
 10
6.8
 20
0.0
 11
6.8
 21
1.25
  0
LINE
  5
23E
100
AcDbEntity
  8
0
100
AcDbLine
 62
2
  6
CONTINUOUS
 10
6.4
 20
0.0
 11
6.4
 21
0.625
  0
LINE
  5
23F
100
AcDbEntity
  8
0
100
AcDbLine
 62
2
  6
CONTINUOUS
 10
5.9
 20
0.0
 11
5.9
 21
0.625
  0
LINE
  5
240
100
AcDbEntity
  8
0
100
AcDbLine
 62
2
  6
CONTINUOUS
 10
5.2
 20
0.0
 11
5.2
 21
0.625
  0
LINE
  5
241
100
AcDbEntity
  8
0
100
AcDbLine
 62
2
  6
CONTINUOUS
 10
4.1
 20
0.0
 11
4.1
 21
1.25
  0
LINE
  5
242
100
AcDbEntity
  8
0
100
AcDbLine
 62
2
  6
CONTINUOUS
 10
-0.0
 20
0.0
 11
-0.0
 21
1.25
  0
MTEXT
  5
243
100
AcDbEntity
  8
0
100
AcDbMText
 62
2
  6
CONTINUOUS
  7
STANDARD
 71
2
 72
1
 10
6.6
 20
0.325
 30
0.0
 11
1.0
 21
0.0
 31
0.0
 44
0.9
  1
2
 40
0.125
 41
0.2
  0
MTEXT
  5
244
100
AcDbEntity
  8
0
100
AcDbMText
 62
2
  6
CONTINUOUS
  7
STANDARD
 71
2
 72
1
 10
6.15
 20
0.325
 30
0.0
 11
1.0
 21
0.0
 31
0.0
 44
0.9
  1
C
 40
0.125
 41
0.2
  0
MTEXT
  5
245
100
AcDbEntity
  8
0
100
AcDbMText
 62
2
  6
CONTINUOUS
  7
STANDARD
 71
2
 72
1
 10
5.55
 20
0.325
 30
0.0
 11
1.0
 21
0.0
 31
0.0
 44
0.9
  1
1.000
 40
0.125
 41
1.0
  0
MTEXT
  5
246
100
AcDbEntity
  8
0
100
AcDbMText
 62
2
  6
CONTINUOUS
  7
STANDARD
 71
2
 72
1
 10
4.65
 20
0.325
 30
0.0
 11
1.0
 21
0.0
 31
0.0
 44
0.9
  1
Dec-23-19
 40
0.125
 41
1.8
  0
MTEXT
  5
247
100
AcDbEntity
  8
0
100
AcDbMText
 62
2
  6
CONTINUOUS
  7
STANDARD
 71
2
 72
1
 10
2.05
 20
0.4625
 30
0.0
 11
1.0
 21
0.0
 31
0.0
 44
0.9
  1
Sandwich ISO 07\P(See Technical Data for Body Features)
 40
0.125
 41
7.6
  0
MTEXT
  5
248
100
AcDbEntity
  8
0
100
AcDbMText
 62
2
  6
CONTINUOUS
  7
STANDARD
 71
1
 72
1
 10
6.45
 20
0.5625
 30
0.0
 11
1.0
 21
0.0
 31
0.0
 44
0.9
  1
SHEET
 40
0.06
 41
0.48
  0
MTEXT
  5
249
100
AcDbEntity
  8
0
100
AcDbMText
 62
2
  6
CONTINUOUS
  7
STANDARD
 71
1
 72
1
 10
5.95
 20
0.5625
 30
0.0
 11
1.0
 21
0.0
 31
0.0
 44
0.9
  1
DWG SIZE
 40
0.06
 41
0.768
  0
MTEXT
  5
24A
100
AcDbEntity
  8
0
100
AcDbMText
 62
2
  6
CONTINUOUS
  7
STANDARD
 71
1
 72
1
 10
5.25
 20
0.5625
 30
0.0
 11
1.0
 21
0.0
 31
0.0
 44
0.9
  1
SCALE
 40
0.06
 41
0.48
  0
MTEXT
  5
24B
100
AcDbEntity
  8
0
100
AcDbMText
 62
2
  6
CONTINUOUS
  7
STANDARD
 71
1
 72
1
 10
4.15
 20
0.5625
 30
0.0
 11
1.0
 21
0.0
 31
0.0
 44
0.9
  1
DATE
 40
0.06
 41
0.384
  0
MTEXT
  5
24C
100
AcDbEntity
  8
0
100
AcDbMText
 62
2
  6
CONTINUOUS
  7
STANDARD
 71
1
 72
1
 10
0.05
 20
0.5625
 30
0.0
 11
1.0
 21
0.0
 31
0.0
 44
0.9
  1
DESCRIPTION
 40
0.06
 41
1.056
  0
MTEXT
  5
24D
100
AcDbEntity
  8
0
100
AcDbMText
 62
2
  6
CONTINUOUS
  7
STANDARD
 71
2
 72
1
 10
5.45
 20
1.0375
 30
0.0
 11
1.0
 21
0.0
 31
0.0
 44
0.9
  1
ALL DIMENSIONS IN INCH\PVIEWS ARE THIRD ANGLE
 40
0.12
 41
4.224
  0
MTEXT
  5
24E
100
AcDbEntity
  8
0
100
AcDbMText
 62
2
  6
CONTINUOUS
  7
STANDARD
 71
2
 72
1
 10
2.05
 20
0.95
 30
0.0
 11
1.0
 21
0.0
 31
0.0
 44
0.9
  1
CKC
 40
0.125
 41
0.6
  0
MTEXT
  5
24F
100
AcDbEntity
  8
0
100
AcDbMText
 62
2
  6
CONTINUOUS
  7
STANDARD
 71
1
 72
1
 10
0.05
 20
1.1875
 30
0.0
 11
1.0
 21
0.0
 31
0.0
 44
0.9
  1
MODEL
 40
0.06
 41
0.48
  0
ENDBLK
  5
250
100
AcDbEntity
  8
0
  6
BYBLOCK
 62
0
100
AcDbBlockEnd
  0
BLOCK
  5
251
100
AcDbEntity
  8
0
100
AcDbBlockBegin
  2
*T2
 70
1
 10
0.0
 20
0.0
  3
*T2
  1

  0
LINE
  5
252
100
AcDbEntity
  8
0
100
AcDbLine
 62
2
  6
CONTINUOUS
 10
0.0
 20
0.0
 11
9.055
 21
0.0
  0
LINE
  5
253
100
AcDbEntity
  8
0
100
AcDbLine
 62
2
  6
CONTINUOUS
 10
0.0
 20
0.0
 11
0.0
 21
-1.844
  0
LINE
  5
254
100
AcDbEntity
  8
0
100
AcDbLine
 62
2
  6
CONTINUOUS
 10
0.0
 20
-0.344
 11
9.055
 21
-0.344
  0
LINE
  5
255
100
AcDbEntity
  8
0
100
AcDbLine
 62
2
  6
CONTINUOUS
 10
0.0
 20
-0.594
 11
9.055
 21
-0.594
  0
LINE
  5
256
100
AcDbEntity
  8
0
100
AcDbLine
 62
2
  6
CONTINUOUS
 10
0.0
 20
-0.844
 11
9.055
 21
-0.844
  0
LINE
  5
257
100
AcDbEntity
  8
0
100
AcDbLine
 62
2
  6
CONTINUOUS
 10
0.0
 20
-1.094
 11
9.055
 21
-1.094
  0
LINE
  5
258
100
AcDbEntity
  8
0
100
AcDbLine
 62
2
  6
CONTINUOUS
 10
0.0
 20
-1.344
 11
9.055
 21
-1.344
  0
LINE
  5
259
100
AcDbEntity
  8
0
100
AcDbLine
 62
2
  6
CONTINUOUS
 10
0.0
 20
-1.594
 11
9.055
 21
-1.594
  0
LINE
  5
25A
100
AcDbEntity
  8
0
100
AcDbLine
 62
2
  6
CONTINUOUS
 10
0.0
 20
-1.844
 11
9.055
 21
-1.844
  0
LINE
  5
25B
100
AcDbEntity
  8
0
100
AcDbLine
 62
2
  6
CONTINUOUS
 10
3.055
 20
0.0
 11
3.055
 21
-1.844
  0
LINE
  5
25C
100
AcDbEntity
  8
0
100
AcDbLine
 62
2
  6
CONTINUOUS
 10
9.055
 20
0.0
 11
9.055
 21
-1.844
  0
MTEXT
  5
25D
100
AcDbEntity
  8
0
100
AcDbMText
 62
2
  6
CONTINUOUS
  7
STANDARD
 71
2
 72
1
 10
1.5275
 20
-0.0995
 30
0.0
 11
1.0
 21
0.0
 31
0.0
 44
0.9
  1
Technical Data
 40
0.145
 41
3.248
  0
MTEXT
  5
25E
100
AcDbEntity
  8
0
100
AcDbMText
 62
2
  6
CONTINUOUS
  7
STANDARD
 71
2
 72
1
 10
4.555
 20
-0.0995
 30
0.0
 11
1.0
 21
0.0
 31
0.0
 44
0.9
  1
U.S. Units
 40
0.145
 41
2.32
  0
MTEXT
  5
25F
100
AcDbEntity
  8
0
100
AcDbMText
 62
2
  6
CONTINUOUS
  7
STANDARD
 71
2
 72
1
 10
7.555
 20
-0.0995
 30
0.0
 11
1.0
 21
0.0
 31
0.0
 44
0.9
  1
Metric Units
 40
0.145
 41
2.784
  0
MTEXT
  5
260
100
AcDbEntity
  8
0
100
AcDbMText
 62
2
  6
CONTINUOUS
  7
STANDARD
 71
2
 72
1
 10
1.5275
 20
-0.4065
 30
0.0
 11
1.0
 21
0.0
 31
0.0
 44
0.9
  1
Body Features
 40
0.125
 41
2.6
  0
MTEXT
  5
261
100
AcDbEntity
  8
0
100
AcDbMText
 62
2
  6
CONTINUOUS
  7
STANDARD
 71
2
 72
1
 10
6.055
 20
-0.4065
 30
0.0
 11
1.0
 21
0.0
 31
0.0
 44
0.9
  1
Meter in with restrictive compensator and LS shuttle
 40
0.125
 41
10.4
  0
MTEXT
  5
262
100
AcDbEntity
  8
0
100
AcDbMText
 62
2
  6
CONTINUOUS
  7
STANDARD
 71
2
 72
1
 10
1.5275
 20
-0.6565
 30
0.0
 11
1.0
 21
0.0
 31
0.0
 44
0.9
  1
Body Type
 40
0.125
 41
1.8
  0
MTEXT
  5
263
100
AcDbEntity
  8
0
100
AcDbMText
 62
2
  6
CONTINUOUS
  7
STANDARD
 71
2
 72
1
 10
6.055
 20
-0.6565
 30
0.0
 11
1.0
 21
0.0
 31
0.0
 44
0.9
  1
Sandwich
 40
0.125
 41
1.6
  0
MTEXT
  5
264
100
AcDbEntity
  8
0
100
AcDbMText
 62
2
  6
CONTINUOUS
  7
STANDARD
 71
2
 72
1
 10
1.5275
 20
-0.9065
 30
0.0
 11
1.0
 21
0.0
 31
0.0
 44
0.9
  1
Interface
 40
0.125
 41
1.8
  0
MTEXT
  5
265
100
AcDbEntity
  8
0
100
AcDbMText
 62
2
  6
CONTINUOUS
  7
STANDARD
 71
2
 72
1
 10
6.055
 20
-0.9065
 30
0.0
 11
1.0
 21
0.0
 31
0.0
 44
0.9
  1
ISO 07
 40
0.125
 41
1.2
  0
MTEXT
  5
266
100
AcDbEntity
  8
0
100
AcDbMText
 62
2
  6
CONTINUOUS
  7
STANDARD
 71
2
 72
1
 10
1.5275
 20
-1.1565
 30
0.0
 11
1.0
 21
0.0
 31
0.0
 44
0.9
  1
Stack Height
 40
0.125
 41
2.4
  0
MTEXT
  5
267
100
AcDbEntity
  8
0
100
AcDbMText
 62
2
  6
CONTINUOUS
  7
STANDARD
 71
2
 72
1
 10
4.555
 20
-1.1565
 30
0.0
 11
1.0
 21
0.0
 31
0.0
 44
0.9
  1
2.74 in.
 40
0.125
 41
1.6
  0
MTEXT
  5
268
100
AcDbEntity
  8
0
100
AcDbMText
 62
2
  6
CONTINUOUS
  7
STANDARD
 71
2
 72
1
 10
7.555
 20
-1.1565
 30
0.0
 11
1.0
 21
0.0
 31
0.0
 44
0.9
  1
70 mm
 40
0.125
 41
1.0
  0
MTEXT
  5
269
100
AcDbEntity
  8
0
100
AcDbMText
 62
2
  6
CONTINUOUS
  7
STANDARD
 71
2
 72
1
 10
1.5275
 20
-1.4065
 30
0.0
 11
1.0
 21
0.0
 31
0.0
 44
0.9
  1
Weight
 40
0.125
 41
1.2
  0
MTEXT
  5
26A
100
AcDbEntity
  8
0
100
AcDbMText
 62
2
  6
CONTINUOUS
  7
STANDARD
 71
2
 72
1
 10
4.555
 20
-1.4065
 30
0.0
 11
1.0
 21
0.0
 31
0.0
 44
0.9
  1
4.217 lb.
 40
0.125
 41
1.8
  0
MTEXT
  5
26B
100
AcDbEntity
  8
0
100
AcDbMText
 62
2
  6
CONTINUOUS
  7
STANDARD
 71
2
 72
1
 10
7.555
 20
-1.4065
 30
0.0
 11
1.0
 21
0.0
 31
0.0
 44
0.9
  1
1,913 kg.
 40
0.125
 41
1.8
  0
MTEXT
  5
26C
100
AcDbEntity
  8
0
100
AcDbMText
 62
2
  6
CONTINUOUS
  7
STANDARD
 71
2
 72
1
 10
1.5275
 20
-1.6565
 30
0.0
 11
1.0
 21
0.0
 31
0.0
 44
0.9
  1
Seal Plate Included (see notes)
 40
0.125
 41
6.2
  0
MTEXT
  5
26D
100
AcDbEntity
  8
0
100
AcDbMText
 62
2
  6
CONTINUOUS
  7
STANDARD
 71
2
 72
1
 10
6.055
 20
-1.6565
 30
0.0
 11
1.0
 21
0.0
 31
0.0
 44
0.9
  1
Yes
 40
0.125
 41
0.6
  0
ENDBLK
  5
26E
100
AcDbEntity
  8
0
  6
BYBLOCK
 62
0
100
AcDbBlockEnd
  0
ENDSEC
  0
SECTION
  2
ENTITIES
  0
IMAGE
  5
26F
100
AcDbEntity
  8
0
100
AcDbRasterImage
 62
7
  6
CONTINUOUS
 10
19.2297077316
 20
0.3094318264
 30
0.0
 11
0.0066666667
 21
0.0
 31
0.0
 12
0.0
 22
0.0066666667
 32
0.0
 13
369.0
 23
92.0
340
       3E8
 70
9
280
0
281
50
282
50
283
0
360
       3E2
 71
1
 91
2
 14
-0.5
 24
-0.5
 14
368.5
 24
91.5
  0
INSERT
  5
270
100
AcDbEntity
  8
0
100
AcDbBlockReference
 62
2
  6
CONTINUOUS
  2
SUN_FIRST_THIRD_ANGLE_BL0
 10
20.4816717061
 20
1.2289683772
  0
ACAD_TABLE
  5
271
100
AcDbEntity
  8
0
 62
2
  6
CONTINUOUS
100
AcDbBlockReference
  2
*T1
 10
12.42375
 20
0.30125
 30
0.0
100
AcDbTable
342
       3EA
343
212
 11
1.0
 21
0.0
 31
0.0
 90
6
 91
4
 92
6
 93
20
 94
0
 95
0
 96
0
 70
1
 41
0.0
141
0.525
141
0.1
141
0.525
141
0.1
142
4.1
142
1.1
142
0.7
142
0.5
142
0.4
142
2.475
171
1
172
0
173
0
174
0
175
1
176
1
 91
33
178
0
145
0.0
301
CELL_VALUE
 90
4
  1
Sandwich ISO 07\P(See Technical Data for Body Features)
304
ACVALUE_END
170
2
140
0.125
171
1
172
0
173
0
174
0
175
1
176
1
 91
33
178
0
145
0.0
301
CELL_VALUE
 90
4
  1
Dec-23-19
304
ACVALUE_END
170
5
140
0.125
171
1
172
0
173
0
174
0
175
1
176
1
 91
33
178
0
145
0.0
301
CELL_VALUE
 90
4
  1
1.000
304
ACVALUE_END
170
5
140
0.125
171
1
172
0
173
0
174
0
175
1
176
1
 91
33
178
0
145
0.0
301
CELL_VALUE
 90
4
  1
C
304
ACVALUE_END
170
5
140
0.125
171
1
172
0
173
0
174
0
175
1
176
1
 91
33
178
0
145
0.0
301
CELL_VALUE
 90
4
  1
2
304
ACVALUE_END
170
5
140
0.125
171
1
172
0
173
0
174
0
175
1
176
1
 91
33
178
0
145
0.0
301
CELL_VALUE
 90
4
  1
 
304
ACVALUE_END
170
1
140
0.125
171
1
172
0
173
0
174
0
175
1
176
1
 91
33
178
0
145
0.0
301
CELL_VALUE
 90
4
  1
DESCRIPTION
304
ACVALUE_END
170
1
140
0.06
171
1
172
0
173
0
174
0
175
1
176
1
 91
33
178
0
145
0.0
301
CELL_VALUE
 90
4
  1
DATE
304
ACVALUE_END
170
1
140
0.06
171
1
172
0
173
0
174
0
175
1
176
1
 91
33
178
0
145
0.0
301
CELL_VALUE
 90
4
  1
SCALE
304
ACVALUE_END
170
1
140
0.06
171
1
172
0
173
0
174
0
175
1
176
1
 91
33
178
0
145
0.0
301
CELL_VALUE
 90
4
  1
DWG SIZE
304
ACVALUE_END
170
1
140
0.06
171
1
172
0
173
0
174
0
175
1
176
1
 91
33
178
0
145
0.0
301
CELL_VALUE
 90
4
  1
SHEET
304
ACVALUE_END
170
1
140
0.06
171
1
172
0
173
0
174
0
175
1
176
1
 91
33
178
0
145
0.0
301
CELL_VALUE
 90
4
  1
 
304
ACVALUE_END
170
1
140
0.125
171
1
172
0
173
0
174
0
175
1
176
1
 91
33
178
0
145
0.0
301
CELL_VALUE
 90
4
  1
CKC
304
ACVALUE_END
170
5
140
0.125
171
1
172
0
173
0
174
0
175
4
176
1
 91
33
178
0
145
0.0
301
CELL_VALUE
 90
4
  1
ALL DIMENSIONS IN INCH\PVIEWS ARE THIRD ANGLE
304
ACVALUE_END
170
5
140
0.12
171
1
172
0
173
1
174
0
175
1
176
1
 91
1
178
0
145
0.0
170
1
171
1
172
0
173
1
174
0
175
1
176
1
 91
1
178
0
145
0.0
170
1
171
1
172
0
173
1
174
0
175
1
176
1
 91
1
178
0
145
0.0
170
5
171
1
172
0
173
0
174
0
175
1
176
1
 91
33
178
0
145
0.0
301
CELL_VALUE
 90
4
  1
 
304
ACVALUE_END
170
1
140
0.125
171
1
172
0
173
0
174
0
175
1
176
1
 91
33
178
0
145
0.0
301
CELL_VALUE
 90
4
  1
MODEL
304
ACVALUE_END
170
1
140
0.06
171
1
172
0
173
0
174
0
175
1
176
1
 91
33
178
0
145
0.0
301
CELL_VALUE
 90
4
  1
 
304
ACVALUE_END
170
1
140
0.125
171
1
172
0
173
0
174
0
175
1
176
1
 91
33
178
0
145
0.0
301
CELL_VALUE
 90
4
  1
 
304
ACVALUE_END
170
1
140
0.125
171
1
172
0
173
0
174
0
175
1
176
1
 91
33
178
0
145
0.0
301
CELL_VALUE
 90
4
  1
 
304
ACVALUE_END
170
1
140
0.125
171
1
172
0
173
0
174
0
175
1
176
1
 91
33
178
0
145
0.0
301
CELL_VALUE
 90
4
  1
 
304
ACVALUE_END
170
1
140
0.125
171
1
172
0
173
0
174
0
175
1
176
1
 91
33
178
0
145
0.0
301
CELL_VALUE
 90
4
  1
 
304
ACVALUE_END
170
1
140
0.125
  0
ACAD_TABLE
  5
272
100
AcDbEntity
  8
0
 62
2
  6
CONTINUOUS
100
AcDbBlockReference
  2
*T2
 10
12.4237499994
 20
16.47875
 30
0.0
100
AcDbTable
342
       3E9
343
213
 11
1.0
 21
0.0
 31
0.0
 90
22
 91
7
 92
3
 93
16
 94
0
 95
0
 96
0
 41
0.028
141
0.344
141
0.25
141
0.25
141
0.25
141
0.25
141
0.25
141
0.25
142
3.055
142
3.0
142
3.0
171
1
172
0
173
0
174
0
175
1
176
1
 91
33
178
0
145
0.0
301
CELL_VALUE
 90
4
  1
Technical Data
304
ACVALUE_END
170
5
140
0.145
171
1
172
0
173
0
174
0
175
1
176
1
 91
33
178
0
145
0.0
301
CELL_VALUE
 90
4
  1
U.S. Units
304
ACVALUE_END
170
5
140
0.145
171
1
172
0
173
0
174
0
175
1
176
1
 91
33
178
0
145
0.0
301
CELL_VALUE
 90
4
  1
Metric Units
304
ACVALUE_END
170
5
140
0.145
171
1
172
0
173
0
174
0
175
1
176
1
 91
33
178
0
145
0.0
301
CELL_VALUE
 90
4
  1
Body Features
304
ACVALUE_END
170
5
140
0.125
171
1
172
0
173
0
174
0
175
2
176
1
 91
33
178
0
145
0.0
301
CELL_VALUE
 90
4
  1
Meter in with restrictive compensator and LS shuttle
304
ACVALUE_END
170
5
140
0.125
171
1
172
0
173
1
174
0
175
1
176
1
 91
1
178
0
145
0.0
170
1
171
1
172
0
173
0
174
0
175
1
176
1
 91
33
178
0
145
0.0
301
CELL_VALUE
 90
4
  1
Body Type
304
ACVALUE_END
170
5
140
0.125
171
1
172
0
173
0
174
0
175
2
176
1
 91
33
178
0
145
0.0
301
CELL_VALUE
 90
4
  1
Sandwich
304
ACVALUE_END
170
5
140
0.125
171
1
172
0
173
1
174
0
175
1
176
1
 91
1
178
0
145
0.0
170
1
171
1
172
0
173
0
174
0
175
1
176
1
 91
33
178
0
145
0.0
301
CELL_VALUE
 90
4
  1
Interface
304
ACVALUE_END
170
5
140
0.125
171
1
172
0
173
0
174
0
175
2
176
1
 91
33
178
0
145
0.0
301
CELL_VALUE
 90
4
  1
ISO 07
304
ACVALUE_END
170
5
140
0.125
171
1
172
0
173
1
174
0
175
1
176
1
 91
1
178
0
145
0.0
170
1
171
1
172
0
173
0
174
0
175
1
176
1
 91
33
178
0
145
0.0
301
CELL_VALUE
 90
4
  1
Stack Height
304
ACVALUE_END
170
5
140
0.125
171
1
172
0
173
0
174
0
175
1
176
1
 91
33
178
0
145
0.0
301
CELL_VALUE
 90
4
  1
2.74 in.
304
ACVALUE_END
170
5
140
0.125
171
1
172
0
173
0
174
0
175
1
176
1
 91
33
178
0
145
0.0
301
CELL_VALUE
 90
4
  1
70 mm
304
ACVALUE_END
170
5
140
0.125
171
1
172
0
173
0
174
0
175
1
176
1
 91
33
178
0
145
0.0
301
CELL_VALUE
 90
4
  1
Weight
304
ACVALUE_END
170
5
140
0.125
171
1
172
0
173
0
174
0
175
1
176
1
 91
33
178
0
145
0.0
301
CELL_VALUE
 90
4
  1
4.217 lb.
304
ACVALUE_END
170
5
140
0.125
171
1
172
0
173
0
174
0
175
1
176
1
 91
33
178
0
145
0.0
301
CELL_VALUE
 90
4
  1
1,913 kg.
304
ACVALUE_END
170
5
140
0.125
171
1
172
0
173
0
174
0
175
1
176
1
 91
33
178
0
145
0.0
301
CELL_VALUE
 90
4
  1
Seal Plate Included (see notes)
304
ACVALUE_END
170
5
140
0.125
171
1
172
0
173
0
174
0
175
2
176
1
 91
33
178
0
145
0.0
301
CELL_VALUE
 90
4
  1
Yes
304
ACVALUE_END
170
5
140
0.125
171
1
172
0
173
1
174
0
175
1
176
1
 91
1
178
0
145
0.0
170
1
  0
MTEXT
  5
273
100
AcDbEntity
  8
0
100
AcDbMText
 62
2
  6
CONTINUOUS
  7
STANDARD
 71
1
 72
1
 10
0.52125
 20
5.75995
 30
0.0
 11
1.0
 21
0.0
 31
0.0
 44
0.6
  3
Notes\P \P1. Stack height value in technical\P   data table includes seal retainer\P   plate.\P2. Important: Carefully consider\P   the maximum system pressure. The\P   pressure rating of the manifold is\P   dependent on the manifold material,\P   wi
  3
th the port type/size a secondary\P   consideration. Manifolds\P   constructed of aluminum are not\P   rated for pressures higher than\P   3000 psi (210 bar), regardless of\P   the port type/size specified.\P3. Items without balloons are\P   shipped 
  1
loose.
 40
0.1
 41
3.04
  0
LINE
  5
274
100
AcDbEntity
  8
0
100
AcDbLine
 62
7
  6
CONTINUOUS
 10
0.30125
 20
0.30125
 11
0.30125
 21
16.69875
  0
LINE
  5
275
100
AcDbEntity
  8
0
100
AcDbLine
 62
7
  6
CONTINUOUS
 10
0.30125
 20
0.30125
 11
21.69875
 21
0.30125
  0
LINE
  5
276
100
AcDbEntity
  8
0
100
AcDbLine
 62
7
  6
CONTINUOUS
 10
0.30125
 20
16.69875
 11
21.69875
 21
16.69875
  0
LINE
  5
277
100
AcDbEntity
  8
0
100
AcDbLine
 62
7
  6
CONTINUOUS
 10
21.69875
 20
0.30125
 11
21.69875
 21
16.69875
  0
LINE
  5
278
100
AcDbEntity
  8
0
100
AcDbLine
 62
7
  6
CONTINUOUS
 10
7.9743916554
 20
6.9229026956
 11
7.9485161796
 21
6.9547179454
  0
LINE
  5
279
100
AcDbEntity
  8
0
100
AcDbLine
 62
7
  6
CONTINUOUS
 10
7.8807681644
 20
9.4448081237
 11
7.8807681644
 21
7.3313622906
  0
LINE
  5
27A
100
AcDbEntity
  8
0
100
AcDbLine
 62
7
  6
CONTINUOUS
 10
7.902688483
 20
9.4349815268
 11
7.902688483
 21
7.3215356937
  0
LINE
  5
27B
100
AcDbEntity
  8
0
100
AcDbLine
 62
7
  6
CONTINUOUS
 10
8.4084997618
 20
10.4674643774
 11
8.0182009639
 21
10.0904646662
  0
LINE
  5
27C
100
AcDbEntity
  8
0
100
AcDbLine
 62
7
  6
CONTINUOUS
 10
8.4384434642
 20
10.495331477
 11
8.0481446663
 21
10.1183317658
  0
LINE
  5
27D
100
AcDbEntity
  8
0
100
AcDbLine
 62
7
  6
CONTINUOUS
 10
8.4398165472
 20
10.496633586
 11
8.4384434642
 21
10.495331477
  0
LINE
  5
27E
100
AcDbEntity
  8
0
100
AcDbLine
 62
7
  6
CONTINUOUS
 10
8.4097983314
 20
10.4686956279
 11
8.4084997618
 21
10.4674643774
  0
LINE
  5
27F
100
AcDbEntity
  8
0
100
AcDbLine
 62
7
  6
CONTINUOUS
 10
8.4384314011
 20
10.4953444384
 11
8.4097971053
 21
10.4686946619
  0
LINE
  5
280
100
AcDbEntity
  8
0
100
AcDbLine
 62
7
  6
CONTINUOUS
 10
8.4084997618
 20
10.4674643774
 11
8.4384434642
 21
10.495331477
  0
LINE
  5
281
100
AcDbEntity
  8
0
100
AcDbLine
 62
7
  6
CONTINUOUS
 10
8.0182009639
 20
10.0904646662
 11
8.0481446663
 21
10.1183317658
  0
LINE
  5
282
100
AcDbEntity
  8
0
100
AcDbLine
 62
7
  6
CONTINUOUS
 10
8.5930480875
 20
10.0164651174
 11
9.2825414635
 21
10.6824646158
  0
LINE
  5
283
100
AcDbEntity
  8
0
100
AcDbLine
 62
7
  6
CONTINUOUS
 10
8.5930480875
 20
10.0164651174
 11
8.5930480875
 21
6.635724525
  0
LINE
  5
284
100
AcDbEntity
  8
0
100
AcDbLine
 62
7
  6
CONTINUOUS
 10
7.8807681644
 20
7.3313622906
 11
7.902688483
 21
7.3215356937
  0
LINE
  5
285
100
AcDbEntity
  8
0
100
AcDbLine
 62
7
  6
CONTINUOUS
 10
13.1811960342
 20
6.3175353842
 11
8.5930480875
 21
6.635724525
  0
LINE
  5
286
100
AcDbEntity
  8
0
100
AcDbLine
 62
7
  6
CONTINUOUS
 10
8.5930480875
 20
6.8608965696
 11
8.009263221
 21
6.9013821876
  0
LINE
  5
287
100
AcDbEntity
  8
0
100
AcDbLine
 62
7
  6
CONTINUOUS
 10
9.8623202909
 20
9.6081613374
 11
9.801756062
 21
9.5496607812
  0
LINE
  5
288
100
AcDbEntity
  8
0
100
AcDbLine
 62
7
  6
CONTINUOUS
 10
9.9491623728
 20
9.5182533133
 11
9.8885993885
 21
9.4597539592
  0
LINE
  5
289
100
AcDbEntity
  8
0
100
AcDbLine
 62
7
  6
CONTINUOUS
 10
7.902688483
 20
7.3215356937
 11
8.5930480875
 21
7.2736590925
  0
LINE
  5
28A
100
AcDbEntity
  8
0
100
AcDbLine
 62
7
  6
CONTINUOUS
 10
13.5577976279
 20
7.4654010348
 11
13.9185094489
 21
7.440385585
  0
LINE
  5
28B
100
AcDbEntity
  8
0
100
AcDbLine
 62
7
  6
CONTINUOUS
 10
13.5445221416
 20
7.4811826217
 11
13.9052339626
 21
7.4561671719
  0
LINE
  5
28C
100
AcDbEntity
  8
0
100
AcDbLine
 62
7
  6
CONTINUOUS
 10
13.4494791875
 20
7.5245131929
 11
13.5122064903
 21
7.5201630396
  0
LINE
  5
28D
100
AcDbEntity
  8
0
100
AcDbLine
 62
7
  6
CONTINUOUS
 10
13.2645733367
 20
7.7296311687
 11
13.213038903
 21
7.7332050938
  0
LINE
  5
28E
100
AcDbEntity
  8
0
100
AcDbLine
 62
7
  6
CONTINUOUS
 10
13.487994829
 20
7.7919800435
 11
13.8487066499
 21
7.7669645938
  0
LINE
  5
28F
100
AcDbEntity
  8
0
100
AcDbLine
 62
7
  6
CONTINUOUS
 10
13.487994829
 20
7.8491894889
 11
13.8487066499
 21
7.8241740392
  0
LINE
  5
290
100
AcDbEntity
  8
0
100
AcDbLine
 62
7
  6
CONTINUOUS
 10
13.3229069343
 20
7.9805273492
 11
13.2713081505
 21
7.984105737
  0
LINE
  5
291
100
AcDbEntity
  8
0
100
AcDbLine
 62
7
  6
CONTINUOUS
 10
13.3229069343
 20
8.0853707321
 11
13.2855783309
 21
8.0879594795
  0
LINE
  5
292
100
AcDbEntity
  8
0
100
AcDbLine
 62
7
  6
CONTINUOUS
 10
7.8807681644
 20
9.4448081237
 11
7.902688483
 21
9.4349815268
  0
LINE
  5
293
100
AcDbEntity
  8
0
100
AcDbLine
 62
7
  6
CONTINUOUS
 10
13.5445221416
 20
8.2691892996
 11
13.9052339626
 21
8.2441738499
  0
LINE
  5
294
100
AcDbEntity
  8
0
100
AcDbLine
 62
7
  6
CONTINUOUS
 10
13.303523966
 20
8.2912821711
 11
13.2520476181
 21
8.2948520679
  0
LINE
  5
295
100
AcDbEntity
  8
0
100
AcDbLine
 62
7
  6
CONTINUOUS
 10
13.5577976279
 20
8.3106171581
 11
13.9185094489
 21
8.2856017084
  0
LINE
  5
296
100
AcDbEntity
  8
0
100
AcDbLine
 62
7
  6
CONTINUOUS
 10
13.5087771809
 20
8.3794592426
 11
13.5720887846
 21
8.375068568
  0
LINE
  5
297
100
AcDbEntity
  8
0
100
AcDbLine
 62
7
  6
CONTINUOUS
 10
13.6708522532
 20
8.419819547
 11
14.0315640742
 21
8.3948040972
  0
LINE
  5
298
100
AcDbEntity
  8
0
100
AcDbLine
 62
7
  6
CONTINUOUS
 10
13.8706894102
 20
10.364275475
 11
13.1811960342
 21
9.6982759765
  0
LINE
  5
299
100
AcDbEntity
  8
0
100
AcDbLine
 62
7
  6
CONTINUOUS
 10
7.902688483
 20
9.4349815268
 11
8.5930480875
 21
9.3871049257
  0
LINE
  5
29A
100
AcDbEntity
  8
0
100
AcDbLine
 62
4
  6
CONTINUOUS
 10
13.6702896837
 20
9.9402618677
 11
13.6747265776
 21
9.9445475784
  0
LINE
  5
29B
100
AcDbEntity
  8
0
100
AcDbLine
 62
4
  6
CONTINUOUS
 10
13.6525421067
 20
9.865163472
 11
13.6569790011
 21
9.8694491831
  0
LINE
  5
29C
100
AcDbEntity
  8
0
100
AcDbLine
 62
4
  6
CONTINUOUS
 10
13.6791634715
 20
9.8577602812
 11
13.6525421067
 21
9.8320460159
  0
LINE
  5
29D
100
AcDbEntity
  8
0
100
AcDbLine
 62
4
  6
CONTINUOUS
 10
13.4897080911
 20
9.6388831937
 11
13.5207663501
 21
9.6688831701
  0
LINE
  5
29E
100
AcDbEntity
  8
0
100
AcDbLine
 62
4
  6
CONTINUOUS
 10
13.6525421067
 20
9.7740904642
 11
13.6791634715
 21
9.7998047294
  0
LINE
  5
29F
100
AcDbEntity
  8
0
100
AcDbLine
 62
4
  6
CONTINUOUS
 10
13.6481052124
 20
9.7366872969
 11
13.6791634715
 21
9.7666872733
  0
LINE
  5
2A0
100
AcDbEntity
  8
0
100
AcDbLine
 62
4
  6
CONTINUOUS
 10
13.5163294562
 20
9.6066419146
 11
13.4941449854
 21
9.58521336
  0
LINE
  5
2A1
100
AcDbEntity
  8
0
100
AcDbLine
 62
4
  6
CONTINUOUS
 10
13.6481052124
 20
9.6787317452
 11
13.6791634715
 21
9.7087317216
  0
LINE
  5
2A2
100
AcDbEntity
  8
0
100
AcDbLine
 62
4
  6
CONTINUOUS
 10
13.4897080911
 20
9.4015414108
 11
13.5207663501
 21
9.4315413872
  0
LINE
  5
2A3
100
AcDbEntity
  8
0
100
AcDbLine
 62
4
  6
CONTINUOUS
 10
13.6481052124
 20
9.5545412812
 11
13.6791634715
 21
9.5845412576
  0
LINE
  5
2A4
100
AcDbEntity
  8
0
100
AcDbLine
 62
4
  6
CONTINUOUS
 10
13.6680712358
 20
9.5241507889
 11
13.6481052124
 21
9.5048650901
  0
LINE
  5
2A5
100
AcDbEntity
  8
0
100
AcDbLine
 62
4
  6
CONTINUOUS
 10
13.5624731554
 20
9.4124916028
 11
13.5846576262
 21
9.4339201574
  0
LINE
  5
2A6
100
AcDbEntity
  8
0
100
AcDbLine
 62
4
  6
CONTINUOUS
 10
13.4897080911
 20
9.3353064985
 11
13.5207663501
 21
9.3653064749
  0
LINE
  5
2A7
100
AcDbEntity
  8
0
100
AcDbLine
 62
4
  6
CONTINUOUS
 10
13.6503236596
 20
9.4021359804
 11
13.6680712358
 21
9.4192788237
  0
LINE
  5
2A8
100
AcDbEntity
  8
0
100
AcDbLine
 62
4
  6
CONTINUOUS
 10
13.558036261
 20
9.3116133078
 11
13.5890945201
 21
9.3416132842
  0
LINE
  5
2A9
100
AcDbEntity
  8
0
100
AcDbLine
 62
4
  6
CONTINUOUS
 10
13.6791634715
 20
9.3803169377
 11
13.6481052124
 21
9.3503169614
  0
LINE
  5
2AA
100
AcDbEntity
  8
0
100
AcDbLine
 62
4
  6
CONTINUOUS
 10
13.6481052124
 20
9.3171994638
 11
13.6702896837
 21
9.3386280188
  0
LINE
  5
2AB
100
AcDbEntity
  8
0
100
AcDbLine
 62
4
  6
CONTINUOUS
 10
13.4941449854
 20
9.1657255268
 11
13.5163294562
 21
9.1871540814
  0
LINE
  5
2AC
100
AcDbEntity
  8
0
100
AcDbLine
 62
4
  6
CONTINUOUS
 10
13.5624731554
 20
9.2248260042
 11
13.5846576262
 21
9.2462545588
  0
LINE
  5
2AD
100
AcDbEntity
  8
0
100
AcDbLine
 62
4
  6
CONTINUOUS
 10
13.6680712358
 20
9.297848165
 11
13.6636343419
 21
9.2935624543
  0
LINE
  5
2AE
100
AcDbEntity
  8
0
100
AcDbLine
 62
4
  6
CONTINUOUS
 10
13.4897080911
 20
9.5340112492
 11
13.5207663501
 21
9.5308937694
  0
LINE
  5
2AF
100
AcDbEntity
  8
0
100
AcDbLine
 62
4
  6
CONTINUOUS
 10
13.6791634715
 20
9.0298238498
 11
13.6769450236
 21
9.0304407712
  0
LINE
  5
2B0
100
AcDbEntity
  8
0
100
AcDbLine
 62
4
  6
CONTINUOUS
 10
13.6503236596
 20
9.2448280464
 11
13.6569790011
 21
9.2512566131
  0
LINE
  5
2B1
100
AcDbEntity
  8
0
100
AcDbLine
 62
4
  6
CONTINUOUS
 10
13.4941449854
 20
9.0691329775
 11
13.5163294562
 21
9.0905615321
  0
LINE
  5
2B2
100
AcDbEntity
  8
0
100
AcDbLine
 62
4
  6
CONTINUOUS
 10
13.6481052124
 20
9.1930090274
 11
13.6658527898
 21
9.2101518718
  0
LINE
  5
2B3
100
AcDbEntity
  8
0
100
AcDbLine
 62
4
  6
CONTINUOUS
 10
13.6702896837
 20
9.1813201401
 11
13.6503236596
 21
9.1620344406
  0
LINE
  5
2B4
100
AcDbEntity
  8
0
100
AcDbLine
 62
4
  6
CONTINUOUS
 10
13.5163294562
 20
9.0326059804
 11
13.4941449854
 21
9.0111774258
  0
LINE
  5
2B5
100
AcDbEntity
  8
0
100
AcDbLine
 62
4
  6
CONTINUOUS
 10
13.4897080911
 20
8.9737742724
 11
13.5207663501
 21
9.0037742487
  0
LINE
  5
2B6
100
AcDbEntity
  8
0
100
AcDbLine
 62
4
  6
CONTINUOUS
 10
13.6481052124
 20
9.1102153663
 11
13.6702896837
 21
9.1316439213
  0
LINE
  5
2B7
100
AcDbEntity
  8
0
100
AcDbLine
 62
4
  6
CONTINUOUS
 10
13.6503236596
 20
9.0792407795
 11
13.6791634715
 21
9.1070979003
  0
LINE
  5
2B8
100
AcDbEntity
  8
0
100
AcDbLine
 62
4
  6
CONTINUOUS
 10
13.5163294562
 20
8.9415329863
 11
13.4941449854
 21
8.9201044317
  0
LINE
  5
2B9
100
AcDbEntity
  8
0
100
AcDbLine
 62
4
  6
CONTINUOUS
 10
13.4897080911
 20
8.8689022795
 11
13.5207663501
 21
8.8989022559
  0
LINE
  5
2BA
100
AcDbEntity
  8
0
100
AcDbLine
 62
4
  6
CONTINUOUS
 10
13.6481052124
 20
9.0025836511
 11
13.6702896837
 21
9.0240122061
  0
LINE
  5
2BB
100
AcDbEntity
  8
0
100
AcDbLine
 62
4
  6
CONTINUOUS
 10
13.6769450236
 20
9.0304407712
 11
13.6791634715
 21
9.0325836274
  0
LINE
  5
2BC
100
AcDbEntity
  8
0
100
AcDbLine
 62
4
  6
CONTINUOUS
 10
13.6503236596
 20
8.9605698984
 11
13.6680712358
 21
8.9777127417
  0
LINE
  5
2BD
100
AcDbEntity
  8
0
100
AcDbLine
 62
7
  6
CONTINUOUS
 10
13.1811960342
 20
9.6982759765
 11
8.5930480875
 21
10.0164651174
  0
LINE
  5
2BE
100
AcDbEntity
  8
0
100
AcDbLine
 62
7
  6
CONTINUOUS
 10
8.0481446663
 20
10.1183317658
 11
8.6549421722
 21
10.0762502158
  0
LINE
  5
2BF
100
AcDbEntity
  8
0
100
AcDbLine
 62
4
  6
CONTINUOUS
 10
13.6407103888
 20
9.4480460474
 11
13.6702896837
 21
9.4435000117
  0
LINE
  5
2C0
100
AcDbEntity
  8
0
100
AcDbLine
 62
7
  6
CONTINUOUS
 10
13.4996530346
 20
7.5355981695
 11
13.5501519471
 21
7.4735071175
  0
LINE
  5
2C1
100
AcDbEntity
  8
0
100
AcDbLine
 62
4
  6
CONTINUOUS
 10
13.4766377538
 20
7.1824656263
 11
13.4727554715
 21
7.1883748882
  0
LINE
  5
2C2
100
AcDbEntity
  8
0
100
AcDbLine
 62
4
  6
CONTINUOUS
 10
13.5076960129
 20
7.2124656026
 11
13.5038137306
 21
7.2183748645
  0
LINE
  5
2C3
100
AcDbEntity
  8
0
100
AcDbLine
 62
4
  6
CONTINUOUS
 10
13.4805200362
 20
7.3021267268
 11
13.4844023186
 21
7.2962174675
  0
LINE
  5
2C4
100
AcDbEntity
  8
0
100
AcDbLine
 62
4
  6
CONTINUOUS
 10
13.5038137306
 20
7.2859896769
 11
13.5154605777
 21
7.2682618887
  0
LINE
  5
2C5
100
AcDbEntity
  8
0
100
AcDbLine
 62
4
  6
CONTINUOUS
 10
13.5154605777
 20
7.3262174438
 11
13.5115782953
 21
7.3321267031
  0
LINE
  5
2C6
100
AcDbEntity
  8
0
100
AcDbLine
 62
4
  6
CONTINUOUS
 10
13.5207663501
 20
9.5308937694
 11
13.4897080911
 21
9.4677763231
  0
LINE
  5
2C7
100
AcDbEntity
  8
0
100
AcDbLine
 62
4
  6
CONTINUOUS
 10
13.661415895
 20
8.8967698476
 11
13.6680712358
 21
8.9031984136
  0
LINE
  5
2C8
100
AcDbEntity
  8
0
100
AcDbLine
 62
4
  6
CONTINUOUS
 10
13.6503236596
 20
8.8363794621
 11
13.6569790011
 21
8.8428080287
  0
LINE
  5
2C9
100
AcDbEntity
  8
0
100
AcDbLine
 62
7
  6
CONTINUOUS
 10
13.5259427222
 20
8.4007929546
 11
13.5270872243
 21
8.4018781246
  0
LINE
  5
2CA
100
AcDbEntity
  8
0
100
AcDbLine
 62
7
  6
CONTINUOUS
 10
13.3343458576
 20
8.2640819967
 11
13.3209907733
 21
8.2805027707
  0
LINE
  5
2CB
100
AcDbEntity
  8
0
100
AcDbLine
 62
4
  6
CONTINUOUS
 10
13.6702896837
 20
9.4931761752
 11
13.6481052124
 21
9.4469095107
  0
LINE
  5
2CC
100
AcDbEntity
  8
0
100
AcDbLine
 62
7
  6
CONTINUOUS
 10
12.0810520942
 20
6.7979955846
 11
12.0204878653
 21
6.7394950283
  0
LINE
  5
2CD
100
AcDbEntity
  8
0
100
AcDbLine
 62
7
  6
CONTINUOUS
 10
13.5569333393
 20
8.361555057
 11
13.5657745339
 21
8.3697835066
  0
LINE
  5
2CE
100
AcDbEntity
  8
0
100
AcDbLine
 62
7
  6
CONTINUOUS
 10
8.4384434642
 20
10.495331477
 11
9.0452409701
 21
10.453249927
  0
LINE
  5
2CF
100
AcDbEntity
  8
0
100
AcDbLine
 62
7
  6
CONTINUOUS
 10
9.0650419574
 20
10.4723762132
 11
8.4773249094
 21
10.5131345289
  0
LINE
  5
2D0
100
AcDbEntity
  8
0
100
AcDbLine
 62
7
  6
CONTINUOUS
 10
9.2825414635
 20
10.6824646158
 11
13.8706894102
 21
10.364275475
  0
LINE
  5
2D1
100
AcDbEntity
  8
0
100
AcDbLine
 62
7
  6
CONTINUOUS
 10
13.1811960342
 20
9.6982759765
 11
13.1811960342
 21
6.3175353842
  0
LINE
  5
2D2
100
AcDbEntity
  8
0
100
AcDbLine
 62
4
  6
CONTINUOUS
 10
13.5207663501
 20
9.6274863533
 11
13.5163294562
 21
9.6066419146
  0
LINE
  5
2D3
100
AcDbEntity
  8
0
100
AcDbLine
 62
4
  6
CONTINUOUS
 10
13.6503236596
 20
9.9209761682
 11
13.6481052124
 21
9.9105539478
  0
LINE
  5
2D4
100
AcDbEntity
  8
0
100
AcDbLine
 62
4
  6
CONTINUOUS
 10
13.4897080911
 20
9.1448810946
 11
13.4941449854
 21
9.1657255268
  0
LINE
  5
2D5
100
AcDbEntity
  8
0
100
AcDbLine
 62
4
  6
CONTINUOUS
 10
13.558036261
 20
9.3916471619
 11
13.5624731554
 21
9.4124916028
  0
LINE
  5
2D6
100
AcDbEntity
  8
0
100
AcDbLine
 62
4
  6
CONTINUOUS
 10
13.6525421067
 20
9.8320460159
 11
13.6481052124
 21
9.8112015767
  0
LINE
  5
2D7
100
AcDbEntity
  8
0
100
AcDbLine
 62
4
  6
CONTINUOUS
 10
13.6791634715
 20
9.7666872733
 11
13.6481052124
 21
9.6787317452
  0
LINE
  5
2D8
100
AcDbEntity
  8
0
100
AcDbLine
 62
4
  6
CONTINUOUS
 10
13.5757838385
 20
9.3039180498
 11
13.558036261
 21
9.2536577492
  0
LINE
  5
2D9
100
AcDbEntity
  8
0
100
AcDbLine
 62
4
  6
CONTINUOUS
 10
13.6658527898
 20
9.2101518718
 11
13.6702896837
 21
9.2227169154
  0
LINE
  5
2DA
100
AcDbEntity
  8
0
100
AcDbLine
 62
7
  6
CONTINUOUS
 10
12.1678941761
 20
6.7080875604
 11
12.1073311918
 21
6.6495882063
  0
LINE
  5
2DB
100
AcDbEntity
  8
0
100
AcDbLine
 62
7
  6
CONTINUOUS
 10
13.2988547937
 20
7.7523164106
 11
13.2833608882
 21
7.7378963207
  0
LINE
  5
2DC
100
AcDbEntity
  8
0
100
AcDbLine
 62
4
  6
CONTINUOUS
 10
13.4727554715
 20
7.1883748882
 11
13.4688731891
 21
7.2039434081
  0
LINE
  5
2DD
100
AcDbEntity
  8
0
100
AcDbLine
 62
4
  6
CONTINUOUS
 10
13.5038137306
 20
7.2183748645
 11
13.4999314482
 21
7.2339433844
  0
LINE
  5
2DE
100
AcDbEntity
  8
0
100
AcDbLine
 62
4
  6
CONTINUOUS
 10
13.4844023186
 20
7.2962174675
 11
13.4863434598
 21
7.2884332028
  0
LINE
  5
2DF
100
AcDbEntity
  8
0
100
AcDbLine
 62
4
  6
CONTINUOUS
 10
13.5018725894
 20
7.2937739346
 11
13.5038137306
 21
7.2859896769
  0
LINE
  5
2E0
100
AcDbEntity
  8
0
100
AcDbLine
 62
4
  6
CONTINUOUS
 10
13.5154605777
 20
7.2682618887
 11
13.5174017189
 21
7.2604776309
  0
LINE
  5
2E1
100
AcDbEntity
  8
0
100
AcDbLine
 62
4
  6
CONTINUOUS
 10
13.5174017189
 20
7.3184331791
 11
13.5154605777
 21
7.3262174438
  0
LINE
  5
2E2
100
AcDbEntity
  8
0
100
AcDbLine
 62
4
  6
CONTINUOUS
 10
13.5795182371
 20
7.3301368399
 11
13.5756359547
 21
7.3457053589
  0
LINE
  5
2E3
100
AcDbEntity
  8
0
100
AcDbLine
 62
4
  6
CONTINUOUS
 10
13.5775770959
 20
7.3862173965
 11
13.5756359547
 21
7.3940016543
  0
LINE
  5
2E4
100
AcDbEntity
  8
0
100
AcDbLine
 62
4
  6
CONTINUOUS
 10
13.5406954132
 20
7.3602516809
 11
13.5504011192
 21
7.2537155701
  0
LINE
  5
2E5
100
AcDbEntity
  8
0
100
AcDbLine
 62
4
  6
CONTINUOUS
 10
13.4688731891
 20
7.2039434081
 11
13.4669320479
 21
7.2310461854
  0
LINE
  5
2E6
100
AcDbEntity
  8
0
100
AcDbLine
 62
4
  6
CONTINUOUS
 10
13.4897080911
 20
9.3353064985
 11
13.4897080911
 21
9.2856303074
  0
LINE
  5
2E7
100
AcDbEntity
  8
0
100
AcDbLine
 62
4
  6
CONTINUOUS
 10
13.4897080911
 20
8.8689022795
 11
13.4897080911
 21
8.819226116
  0
LINE
  5
2E8
100
AcDbEntity
  8
0
100
AcDbLine
 62
4
  6
CONTINUOUS
 10
13.4897080911
 20
8.9323774418
 11
13.4897080911
 21
8.9737742724
  0
LINE
  5
2E9
100
AcDbEntity
  8
0
100
AcDbLine
 62
4
  6
CONTINUOUS
 10
13.4897080911
 20
9.0234504359
 11
13.4897080911
 21
9.0482885452
  0
LINE
  5
2EA
100
AcDbEntity
  8
0
100
AcDbLine
 62
4
  6
CONTINUOUS
 10
13.4897080911
 20
9.1117636523
 11
13.4897080911
 21
9.1448810946
  0
LINE
  5
2EB
100
AcDbEntity
  8
0
100
AcDbLine
 62
4
  6
CONTINUOUS
 10
13.4897080911
 20
9.597486377
 11
13.4897080911
 21
9.6388831937
  0
LINE
  5
2EC
100
AcDbEntity
  8
0
100
AcDbLine
 62
4
  6
CONTINUOUS
 10
13.4985818798
 20
9.5315435194
 11
13.4985818798
 21
9.4873869112
  0
LINE
  5
2ED
100
AcDbEntity
  8
0
100
AcDbLine
 62
4
  6
CONTINUOUS
 10
13.5018725894
 20
7.303433191
 11
13.5018725894
 21
7.2937739346
  0
LINE
  5
2EE
100
AcDbEntity
  8
0
100
AcDbLine
 62
4
  6
CONTINUOUS
 10
13.5074556685
 20
8.8529276816
 11
13.5074556685
 21
8.8860451239
  0
LINE
  5
2EF
100
AcDbEntity
  8
0
100
AcDbLine
 62
4
  6
CONTINUOUS
 10
13.5074556685
 20
9.319331873
 11
13.5074556685
 21
9.3524493429
  0
LINE
  5
2F0
100
AcDbEntity
  8
0
100
AcDbLine
 62
4
  6
CONTINUOUS
 10
13.5174017189
 20
7.2604776309
 11
13.5174017189
 21
7.2411591131
  0
LINE
  5
2F1
100
AcDbEntity
  8
0
100
AcDbLine
 62
4
  6
CONTINUOUS
 10
13.5207663501
 20
9.6688831701
 11
13.5207663501
 21
9.6274863533
  0
LINE
  5
2F2
100
AcDbEntity
  8
0
100
AcDbLine
 62
4
  6
CONTINUOUS
 10
13.5207663501
 20
9.4646588571
 11
13.5207663501
 21
9.3984239449
  0
LINE
  5
2F3
100
AcDbEntity
  8
0
100
AcDbLine
 62
4
  6
CONTINUOUS
 10
13.5207663501
 20
9.3653064749
 11
13.5207663501
 21
9.3156302838
  0
LINE
  5
2F4
100
AcDbEntity
  8
0
100
AcDbLine
 62
4
  6
CONTINUOUS
 10
13.5207663501
 20
9.1748810709
 11
13.5207663501
 21
9.1417636286
  0
LINE
  5
2F5
100
AcDbEntity
  8
0
100
AcDbLine
 62
4
  6
CONTINUOUS
 10
13.5207663501
 20
9.0782885216
 11
13.5207663501
 21
9.0534504122
  0
LINE
  5
2F6
100
AcDbEntity
  8
0
100
AcDbLine
 62
4
  6
CONTINUOUS
 10
13.5207663501
 20
9.0037742487
 11
13.5207663501
 21
8.9623774182
  0
LINE
  5
2F7
100
AcDbEntity
  8
0
100
AcDbLine
 62
4
  6
CONTINUOUS
 10
13.5207663501
 20
8.8989022559
 11
13.5207663501
 21
8.8492260924
  0
LINE
  5
2F8
100
AcDbEntity
  8
0
100
AcDbLine
 62
4
  6
CONTINUOUS
 10
13.558036261
 20
9.1708641019
 11
13.558036261
 21
9.2039815719
  0
LINE
  5
2F9
100
AcDbEntity
  8
0
100
AcDbLine
 62
4
  6
CONTINUOUS
 10
13.558036261
 20
9.358529704
 11
13.558036261
 21
9.3916471619
  0
LINE
  5
2FA
100
AcDbEntity
  8
0
100
AcDbLine
 62
4
  6
CONTINUOUS
 10
13.5620479663
 20
7.3808766647
 11
13.5620479663
 21
7.2649655612
  0
LINE
  5
2FB
100
AcDbEntity
  8
0
100
AcDbLine
 62
4
  6
CONTINUOUS
 10
13.4669320479
 20
7.2310461854
 11
13.4688731891
 21
7.2618989598
  0
LINE
  5
2FC
100
AcDbEntity
  8
0
100
AcDbLine
 62
4
  6
CONTINUOUS
 10
13.5030187736
 20
9.7179752458
 11
13.4971029147
 21
9.6681043528
  0
LINE
  5
2FD
100
AcDbEntity
  8
0
100
AcDbLine
 62
4
  6
CONTINUOUS
 10
13.5089346331
 20
8.8046800883
 11
13.5030187736
 21
8.7548091983
  0
LINE
  5
2FE
100
AcDbEntity
  8
0
100
AcDbLine
 62
4
  6
CONTINUOUS
 10
13.6481052124
 20
9.3834344037
 11
13.6503236596
 21
9.4021359804
  0
LINE
  5
2FF
100
AcDbEntity
  8
0
100
AcDbLine
 62
4
  6
CONTINUOUS
 10
13.6481052124
 20
9.2261264697
 11
13.6503236596
 21
9.2448280464
  0
LINE
  5
300
100
AcDbEntity
  8
0
100
AcDbLine
 62
4
  6
CONTINUOUS
 10
13.6599369304
 20
8.8870619444
 11
13.661415895
 21
8.8967698476
  0
LINE
  5
301
100
AcDbEntity
  8
0
100
AcDbLine
 62
4
  6
CONTINUOUS
 10
13.6569790011
 20
9.8694491831
 11
13.6702896837
 21
9.9402618677
  0
LINE
  5
302
100
AcDbEntity
  8
0
100
AcDbLine
 62
4
  6
CONTINUOUS
 10
13.4897080911
 20
9.0482885452
 11
13.4941449854
 21
9.0691329775
  0
LINE
  5
303
100
AcDbEntity
  8
0
100
AcDbLine
 62
4
  6
CONTINUOUS
 10
13.6791634715
 20
9.8991571013
 11
13.6769450236
 21
9.8887348811
  0
LINE
  5
304
100
AcDbEntity
  8
0
100
AcDbLine
 62
4
  6
CONTINUOUS
 10
13.5207663501
 20
9.0534504122
 11
13.5163294562
 21
9.0326059804
  0
LINE
  5
305
100
AcDbEntity
  8
0
100
AcDbLine
 62
4
  6
CONTINUOUS
 10
13.558036261
 20
9.2039815719
 11
13.5624731554
 21
9.2248260042
  0
LINE
  5
306
100
AcDbEntity
  8
0
100
AcDbLine
 62
4
  6
CONTINUOUS
 10
13.5207663501
 20
8.9623774182
 11
13.5163294562
 21
8.9415329863
  0
LINE
  5
307
100
AcDbEntity
  8
0
100
AcDbLine
 62
4
  6
CONTINUOUS
 10
13.6702896837
 20
9.5345730057
 11
13.6680712358
 21
9.5241507889
  0
LINE
  5
308
100
AcDbEntity
  8
0
100
AcDbLine
 62
4
  6
CONTINUOUS
 10
13.6503236596
 20
9.1620344406
 11
13.6481052124
 21
9.1516121968
  0
LINE
  5
309
100
AcDbEntity
  8
0
100
AcDbLine
 62
4
  6
CONTINUOUS
 10
13.6481052124
 20
9.0688185357
 11
13.6503236596
 21
9.0792407795
  0
LINE
  5
30A
100
AcDbEntity
  8
0
100
AcDbLine
 62
4
  6
CONTINUOUS
 10
13.6481052124
 20
8.9501477099
 11
13.6503236596
 21
8.9605698984
  0
LINE
  5
30B
100
AcDbEntity
  8
0
100
AcDbLine
 62
4
  6
CONTINUOUS
 10
13.6503236596
 20
8.8860555703
 11
13.6481052124
 21
8.8756333818
  0
LINE
  5
30C
100
AcDbEntity
  8
0
100
AcDbLine
 62
4
  6
CONTINUOUS
 10
13.6702896837
 20
8.8639444945
 11
13.6680712358
 21
8.8535223053
  0
LINE
  5
30D
100
AcDbEntity
  8
0
100
AcDbLine
 62
4
  6
CONTINUOUS
 10
13.6702896837
 20
9.3055105765
 11
13.6680712358
 21
9.297848165
  0
LINE
  5
30E
100
AcDbEntity
  8
0
100
AcDbLine
 62
4
  6
CONTINUOUS
 10
13.4941449854
 20
8.9201044317
 11
13.4897080911
 21
8.9323774418
  0
LINE
  5
30F
100
AcDbEntity
  8
0
100
AcDbLine
 62
4
  6
CONTINUOUS
 10
13.4941449854
 20
9.0111774258
 11
13.4897080911
 21
9.0234504359
  0
LINE
  5
310
100
AcDbEntity
  8
0
100
AcDbLine
 62
4
  6
CONTINUOUS
 10
13.5163294562
 20
9.0905615321
 11
13.5207663501
 21
9.0782885216
  0
LINE
  5
311
100
AcDbEntity
  8
0
100
AcDbLine
 62
4
  6
CONTINUOUS
 10
13.5030187736
 20
8.7548091983
 11
13.4971029147
 21
8.7932515252
  0
LINE
  5
312
100
AcDbEntity
  8
0
100
AcDbLine
 62
4
  6
CONTINUOUS
 10
13.5775770959
 20
7.3572396207
 11
13.5775770959
 21
7.3862173965
  0
LINE
  5
313
100
AcDbEntity
  8
0
100
AcDbLine
 62
4
  6
CONTINUOUS
 10
13.5795182371
 20
7.3011590658
 11
13.5795182371
 21
7.3301368399
  0
LINE
  5
314
100
AcDbEntity
  8
0
100
AcDbLine
 62
4
  6
CONTINUOUS
 10
13.5890945201
 20
9.4216471383
 11
13.5890945201
 21
9.3885296804
  0
LINE
  5
315
100
AcDbEntity
  8
0
100
AcDbLine
 62
4
  6
CONTINUOUS
 10
13.5890945201
 20
9.2339815482
 11
13.5890945201
 21
9.2008640783
  0
LINE
  5
316
100
AcDbEntity
  8
0
100
AcDbLine
 62
4
  6
CONTINUOUS
 10
13.6407103888
 20
9.4646047686
 11
13.6407103888
 21
9.4480460474
  0
LINE
  5
317
100
AcDbEntity
  8
0
100
AcDbLine
 62
4
  6
CONTINUOUS
 10
13.6481052124
 20
9.9105539478
 11
13.6481052124
 21
9.877436489
  0
LINE
  5
318
100
AcDbEntity
  8
0
100
AcDbLine
 62
4
  6
CONTINUOUS
 10
13.6481052124
 20
9.8112015767
 11
13.6481052124
 21
9.7863634743
  0
LINE
  5
319
100
AcDbEntity
  8
0
100
AcDbLine
 62
4
  6
CONTINUOUS
 10
13.6481052124
 20
9.1516121968
 11
13.6481052124
 21
9.1102153663
  0
LINE
  5
31A
100
AcDbEntity
  8
0
100
AcDbLine
 62
4
  6
CONTINUOUS
 10
13.6481052124
 20
8.8756333818
 11
13.6481052124
 21
8.8425159394
  0
LINE
  5
31B
100
AcDbEntity
  8
0
100
AcDbLine
 62
4
  6
CONTINUOUS
 10
13.6481052124
 20
8.9170301571
 11
13.6481052124
 21
8.9501477099
  0
LINE
  5
31C
100
AcDbEntity
  8
0
100
AcDbLine
 62
4
  6
CONTINUOUS
 10
13.6481052124
 20
9.0522598146
 11
13.6481052124
 21
9.0688185357
  0
LINE
  5
31D
100
AcDbEntity
  8
0
100
AcDbLine
 62
4
  6
CONTINUOUS
 10
13.6481052124
 20
9.1930090274
 11
13.6481052124
 21
9.2261264697
  0
LINE
  5
31E
100
AcDbEntity
  8
0
100
AcDbLine
 62
4
  6
CONTINUOUS
 10
13.6481052124
 20
9.3503169614
 11
13.6481052124
 21
9.3834344037
  0
LINE
  5
31F
100
AcDbEntity
  8
0
100
AcDbLine
 62
4
  6
CONTINUOUS
 10
13.659197448
 20
9.2368407472
 11
13.659197448
 21
9.2037233049
  0
LINE
  5
320
100
AcDbEntity
  8
0
100
AcDbLine
 62
4
  6
CONTINUOUS
 10
13.6702896837
 20
9.5759698363
 11
13.6702896837
 21
9.5345730057
  0
LINE
  5
321
100
AcDbEntity
  8
0
100
AcDbLine
 62
4
  6
CONTINUOUS
 10
13.6702896837
 20
9.4048629588
 11
13.6702896837
 21
9.3717455164
  0
LINE
  5
322
100
AcDbEntity
  8
0
100
AcDbLine
 62
4
  6
CONTINUOUS
 10
13.6702896837
 20
9.3386280188
 11
13.6702896837
 21
9.3055105765
  0
LINE
  5
323
100
AcDbEntity
  8
0
100
AcDbLine
 62
4
  6
CONTINUOUS
 10
13.6702896837
 20
8.971576265
 11
13.6702896837
 21
8.9384587121
  0
LINE
  5
324
100
AcDbEntity
  8
0
100
AcDbLine
 62
4
  6
CONTINUOUS
 10
13.6702896837
 20
8.8970619368
 11
13.6702896837
 21
8.8639444945
  0
LINE
  5
325
100
AcDbEntity
  8
0
100
AcDbLine
 62
4
  6
CONTINUOUS
 10
13.6702896837
 20
9.2227169154
 11
13.6702896837
 21
9.2641137459
  0
LINE
  5
326
100
AcDbEntity
  8
0
100
AcDbLine
 62
4
  6
CONTINUOUS
 10
13.6791634715
 20
9.9322745592
 11
13.6791634715
 21
9.8991571013
  0
LINE
  5
327
100
AcDbEntity
  8
0
100
AcDbLine
 62
4
  6
CONTINUOUS
 10
13.6791634715
 20
9.0325836274
 11
13.6791634715
 21
9.0298238498
  0
LINE
  5
328
100
AcDbEntity
  8
0
100
AcDbLine
 62
4
  6
CONTINUOUS
 10
13.6584579657
 20
8.8525159319
 11
13.6599369304
 21
8.8870619444
  0
LINE
  5
329
100
AcDbEntity
  8
0
100
AcDbLine
 62
4
  6
CONTINUOUS
 10
13.5309897073
 20
7.2349655849
 11
13.5406954132
 21
7.3602516809
  0
LINE
  5
32A
100
AcDbEntity
  8
0
100
AcDbLine
 62
4
  6
CONTINUOUS
 10
13.6569790011
 20
8.8428080287
 11
13.6584579657
 21
8.8525159319
  0
LINE
  5
32B
100
AcDbEntity
  8
0
100
AcDbLine
 62
4
  6
CONTINUOUS
 10
13.4688731891
 20
7.2618989598
 11
13.4727554715
 21
7.2849674764
  0
LINE
  5
32C
100
AcDbEntity
  8
0
100
AcDbLine
 62
4
  6
CONTINUOUS
 10
13.5038137306
 20
7.3149674527
 11
13.5018725894
 21
7.303433191
  0
LINE
  5
32D
100
AcDbEntity
  8
0
100
AcDbLine
 62
4
  6
CONTINUOUS
 10
13.4863434598
 20
7.2111591367
 11
13.4844023186
 21
7.1996248793
  0
LINE
  5
32E
100
AcDbEntity
  8
0
100
AcDbLine
 62
4
  6
CONTINUOUS
 10
13.5174017189
 20
7.2411591131
 11
13.5154605777
 21
7.2296248556
  0
LINE
  5
32F
100
AcDbEntity
  8
0
100
AcDbLine
 62
4
  6
CONTINUOUS
 10
13.5756359547
 20
7.3457053589
 11
13.5775770959
 21
7.3572396207
  0
LINE
  5
330
100
AcDbEntity
  8
0
100
AcDbLine
 62
4
  6
CONTINUOUS
 10
13.5756359547
 20
7.2780905509
 11
13.5795182371
 21
7.3011590658
  0
LINE
  5
331
100
AcDbEntity
  8
0
100
AcDbLine
 62
4
  6
CONTINUOUS
 10
13.4727554715
 20
7.2849674764
 11
13.4766377538
 21
7.2983767297
  0
LINE
  5
332
100
AcDbEntity
  8
0
100
AcDbLine
 62
4
  6
CONTINUOUS
 10
13.5076960129
 20
7.3283767061
 11
13.5038137306
 21
7.3149674527
  0
LINE
  5
333
100
AcDbEntity
  8
0
100
AcDbLine
 62
4
  6
CONTINUOUS
 10
13.4844023186
 20
7.1996248793
 11
13.4805200362
 21
7.1862156233
  0
LINE
  5
334
100
AcDbEntity
  8
0
100
AcDbLine
 62
4
  6
CONTINUOUS
 10
13.5154605777
 20
7.2296248556
 11
13.5115782953
 21
7.2162155997
  0
LINE
  5
335
100
AcDbEntity
  8
0
100
AcDbLine
 62
4
  6
CONTINUOUS
 10
13.5756359547
 20
7.3940016543
 11
13.5620479663
 21
7.3808766647
  0
LINE
  5
336
100
AcDbEntity
  8
0
100
AcDbLine
 62
4
  6
CONTINUOUS
 10
13.5115782953
 20
7.3321267031
 11
13.5076960129
 21
7.3283767061
  0
LINE
  5
337
100
AcDbEntity
  8
0
100
AcDbLine
 62
4
  6
CONTINUOUS
 10
13.4766377538
 20
7.2983767297
 11
13.4805200362
 21
7.3021267268
  0
LINE
  5
338
100
AcDbEntity
  8
0
100
AcDbLine
 62
4
  6
CONTINUOUS
 10
13.5620479663
 20
7.3325803693
 11
13.5756359547
 21
7.3457053589
  0
LINE
  5
339
100
AcDbEntity
  8
0
100
AcDbLine
 62
4
  6
CONTINUOUS
 10
13.5348719896
 20
7.2773526176
 11
13.5465188368
 21
7.2886026087
  0
LINE
  5
33A
100
AcDbEntity
  8
0
100
AcDbLine
 62
4
  6
CONTINUOUS
 10
13.5115782953
 20
7.2162155997
 11
13.5076960129
 21
7.2124656026
  0
LINE
  5
33B
100
AcDbEntity
  8
0
100
AcDbLine
 62
4
  6
CONTINUOUS
 10
13.4805200362
 20
7.1862156233
 11
13.4766377538
 21
7.1824656263
  0
LINE
  5
33C
100
AcDbEntity
  8
0
100
AcDbLine
 62
4
  6
CONTINUOUS
 10
13.5620479663
 20
7.2649655612
 11
13.5756359547
 21
7.2780905509
  0
LINE
  5
33D
100
AcDbEntity
  8
0
100
AcDbLine
 62
4
  6
CONTINUOUS
 10
13.5683890144
 20
9.3216133002
 11
13.5890945201
 21
9.2836577256
  0
LINE
  5
33E
100
AcDbEntity
  8
0
100
AcDbLine
 62
7
  6
CONTINUOUS
 10
14.071011102
 20
8.3232924408
 11
14.0825083834
 21
8.2956691875
  0
LINE
  5
33F
100
AcDbEntity
  8
0
100
AcDbLine
 62
4
  6
CONTINUOUS
 10
13.5163294562
 20
9.1871540814
 11
13.5207663501
 21
9.1748810709
  0
LINE
  5
340
100
AcDbEntity
  8
0
100
AcDbLine
 62
4
  6
CONTINUOUS
 10
13.6481052124
 20
8.8425159394
 11
13.6503236596
 21
8.8363794621
  0
LINE
  5
341
100
AcDbEntity
  8
0
100
AcDbLine
 62
4
  6
CONTINUOUS
 10
13.6680712358
 20
8.9031984136
 11
13.6702896837
 21
8.8970619368
  0
LINE
  5
342
100
AcDbEntity
  8
0
100
AcDbLine
 62
4
  6
CONTINUOUS
 10
13.6680712358
 20
8.9777127417
 11
13.6702896837
 21
8.971576265
  0
LINE
  5
343
100
AcDbEntity
  8
0
100
AcDbLine
 62
4
  6
CONTINUOUS
 10
13.5846576262
 20
9.2462545588
 11
13.5890945201
 21
9.2339815482
  0
LINE
  5
344
100
AcDbEntity
  8
0
100
AcDbLine
 62
4
  6
CONTINUOUS
 10
13.4941449854
 20
9.58521336
 11
13.4897080911
 21
9.597486377
  0
LINE
  5
345
100
AcDbEntity
  8
0
100
AcDbLine
 62
4
  6
CONTINUOUS
 10
13.5846576262
 20
9.4339201574
 11
13.5890945201
 21
9.4216471383
  0
LINE
  5
346
100
AcDbEntity
  8
0
100
AcDbLine
 62
4
  6
CONTINUOUS
 10
13.5089346331
 20
9.6795329159
 11
13.5030187736
 21
9.7179752458
  0
LINE
  5
347
100
AcDbEntity
  8
0
100
AcDbLine
 62
4
  6
CONTINUOUS
 10
13.6569790011
 20
9.2512566131
 11
13.659197448
 21
9.2368407472
  0
LINE
  5
348
100
AcDbEntity
  8
0
100
AcDbLine
 62
4
  6
CONTINUOUS
 10
13.6680712358
 20
9.4192788237
 11
13.6702896837
 21
9.4048629588
  0
LINE
  5
349
100
AcDbEntity
  8
0
100
AcDbLine
 62
7
  6
CONTINUOUS
 10
13.8706894102
 20
10.364275475
 11
13.8706894102
 21
8.4059607931
  0
LINE
  5
34A
100
AcDbEntity
  8
0
100
AcDbLine
 62
7
  6
CONTINUOUS
 10
13.8706894102
 20
7.4437019159
 11
13.8706894102
 21
6.9835348826
  0
LINE
  5
34B
100
AcDbEntity
  8
0
100
AcDbLine
 62
4
  6
CONTINUOUS
 10
13.6481052124
 20
9.7863634743
 11
13.6525421067
 21
9.7740904642
  0
LINE
  5
34C
100
AcDbEntity
  8
0
100
AcDbLine
 62
4
  6
CONTINUOUS
 10
13.6481052124
 20
9.877436489
 11
13.6525421067
 21
9.865163472
  0
LINE
  5
34D
100
AcDbEntity
  8
0
100
AcDbLine
 62
4
  6
CONTINUOUS
 10
13.6747265776
 20
9.9445475784
 11
13.6791634715
 21
9.9322745592
  0
LINE
  5
34E
100
AcDbEntity
  8
0
100
AcDbLine
 62
7
  6
CONTINUOUS
 10
14.0211823328
 20
7.5145558032
 11
14.0292914779
 21
7.5283047351
  0
LINE
  5
34F
100
AcDbEntity
  8
0
100
AcDbLine
 62
7
  6
CONTINUOUS
 10
13.8706894102
 20
6.9835348826
 11
13.1811960342
 21
6.3175353842
  0
ARC
  5
350
100
AcDbEntity
  8
0
100
AcDbCircle
 62
7
  6
CONTINUOUS
 10
15.2958092438
 20
7.8202071279
 40
1.8080467184
100
AcDbArc
 50
179.0815292162
 51
179.9951434028
  0
ARC
  5
351
100
AcDbEntity
  8
0
100
AcDbCircle
 62
7
  6
CONTINUOUS
 10
15.6565210648
 20
7.7951916782
 40
1.8080467184
100
AcDbArc
 50
179.0815292162
 51
179.9951434028
  0
ARC
  5
352
100
AcDbEntity
  8
0
100
AcDbCircle
 62
7
  6
CONTINUOUS
 10
15.5749641154
 20
7.7952853712
 40
1.7264897635
100
AcDbArc
 50
179.9980233072
 51
180.9399035171
  0
ARC
  5
353
100
AcDbEntity
  8
0
100
AcDbCircle
 62
7
  6
CONTINUOUS
 10
15.199188016
 20
7.8201775178
 40
1.7114254938
100
AcDbArc
 50
179.9938779146
 51
180.9440489097
  0
ARC
  5
354
100
AcDbEntity
  8
0
100
AcDbCircle
 62
7
  6
CONTINUOUS
 10
10.6743575474
 20
7.6301511648
 40
0.3571271236
100
AcDbArc
 50
266.0328044378
 51
266.6408084134
  0
ARC
  5
355
100
AcDbEntity
  8
0
100
AcDbCircle
 62
7
  6
CONTINUOUS
 10
13.4604664517
 20
7.5643741923
 40
0.0941742807
100
AcDbArc
 50
314.0484982319
 51
316.5174385948
  0
ARC
  5
356
100
AcDbEntity
  8
0
100
AcDbCircle
 62
7
  6
CONTINUOUS
 10
13.3162581525
 20
8.0979541945
 40
0.0240129587
100
AcDbArc
 50
136.7320372899
 51
137.5790758477
  0
SPLINE
  5
357
100
AcDbEntity
  8
0
100
AcDbSpline
 62
7
  6
CONTINUOUS
 70
0
 71
3
 72
36
 73
32
 74
0
 42
0.0000001
 43
0.0000001
 44
0.0000000001
 40
0.0
 40
0.0
 40
0.0
 40
0.0
 40
0.0622628818
 40
0.0936658563
 40
0.1252007365
 40
0.1568622164
 40
0.1886435896
 40
0.2524607326
 40
0.284492742
 40
0.3165655613
 40
0.3486568137
 40
0.3807444513
 40
0.4128053539
 40
0.444817043
 40
0.5085713735
 40
0.5403149869
 40
0.5719351153
 40
0.6034179132
 40
0.6347535494
 40
0.665934624
 40
0.6969568037
 40
0.7278202444
 40
0.7585274098
 40
0.7890849716
 40
0.8195031326
 40
0.8497944411
 40
0.8799755938
 40
0.9100650379
 40
0.9400835627
 40
0.9700541785
 40
1.0
 40
1.0
 40
1.0
 40
1.0
 10
12.0035391608
 20
6.6987283165
 30
0.0
 10
12.0035391608
 20
6.6957310616
 30
0.0
 10
12.0038772719
 20
6.691213411
 30
0.0
 10
12.0049755734
 20
6.6852838414
 30
0.0
 10
12.0061268149
 20
6.6808735129
 30
0.0
 10
12.0075949523
 20
6.6765393168
 30
0.0
 10
12.0099679496
 20
6.6708872394
 30
0.0
 10
12.0129405748
 20
6.6654828381
 30
0.0
 10
12.0164568285
 20
6.6604229792
 30
0.0
 10
12.0193584207
 20
6.6568089524
 30
0.0
 10
12.0225047994
 20
6.6534026368
 30
0.0
 10
12.0258789765
 20
6.6502226947
 30
0.0
 10
12.0294618906
 20
6.6472854556
 30
0.0
 10
12.03448321
 20
6.6437223071
 30
0.0
 10
12.0398524546
 20
6.6406982908
 30
0.0
 10
12.0454757517
 20
6.6382750853
 30
0.0
 10
12.0497899507
 20
6.6367679263
 30
0.0
 10
12.054181807
 20
6.6355786722
 30
0.0
 10
12.0586274672
 20
6.6347138692
 30
0.0
 10
12.0631022626
 20
6.634177121
 30
0.0
 10
12.0675818433
 20
6.6339731183
 30
0.0
 10
12.0720414237
 20
6.6341018351
 30
0.0
 10
12.0764566181
 20
6.6345626037
 30
0.0
 10
12.0808029057
 20
6.6353541868
 30
0.0
 10
12.0850566649
 20
6.6364705571
 30
0.0
 10
12.0891942358
 20
6.6379068683
 30
0.0
 10
12.0931927219
 20
6.6396551176
 30
0.0
 10
12.097030606
 20
6.6417047113
 30
0.0
 10
12.1006859319
 20
6.644046018
 30
0.0
 10
12.1041389516
 20
6.6466646502
 30
0.0
 10
12.1062943731
 20
6.6485866661
 30
0.0
 10
12.1073311791
 20
6.6495882194
 30
0.0
  0
SPLINE
  5
358
100
AcDbEntity
  8
0
100
AcDbSpline
 62
7
  6
CONTINUOUS
 70
0
 71
3
 72
15
 73
11
 74
0
 42
0.0000001
 43
0.0000001
 44
0.0000000001
 40
0.0
 40
0.0
 40
0.0
 40
0.0
 40
0.1272800245
 40
0.2538578149
 40
0.379604606
 40
0.5046064114
 40
0.629012559
 40
0.7529526619
 40
0.8765610636
 40
1.0
 40
1.0
 40
1.0
 40
1.0
 10
12.0035391608
 20
6.6987283165
 30
0.0
 10
12.0035391608
 20
6.7006521552
 30
0.0
 10
12.0037238253
 20
6.7044918067
 30
0.0
 10
12.0045536469
 20
6.7101780422
 30
0.0
 10
12.0059324731
 20
6.7157219355
 30
0.0
 10
12.0078449975
 20
6.7210702374
 30
0.0
 10
12.0102754455
 20
6.7261738474
 30
0.0
 10
12.0131994536
 20
6.7309873144
 30
0.0
 10
12.0165920589
 20
6.735463867
 30
0.0
 10
12.0191459556
 20
6.7381987199
 30
0.0
 10
12.020487878
 20
6.7394950152
 30
0.0
  0
SPLINE
  5
359
100
AcDbEntity
  8
0
100
AcDbSpline
 62
7
  6
CONTINUOUS
 70
0
 71
3
 72
41
 73
37
 74
0
 42
0.0000001
 43
0.0000001
 44
0.0000000001
 40
0.0
 40
0.0
 40
0.0
 40
0.0
 40
0.0313076924
 40
0.0470621361
 40
0.0628696875
 40
0.0946090174
 40
0.1265140925
 40
0.1585720386
 40
0.1907541083
 40
0.2230210416
 40
0.2553345031
 40
0.287654596
 40
0.3199422625
 40
0.3521575709
 40
0.3842645957
 40
0.4162302443
 40
0.4480271867
 40
0.4796338305
 40
0.5110354891
 40
0.5422256445
 40
0.5732050025
 40
0.6039836079
 40
0.6345781342
 40
0.6650141959
 40
0.6953224052
 40
0.72554018
 40
0.7406325424
 40
0.7557175576
 40
0.7858772943
 40
0.8160728553
 40
0.8463457275
 40
0.8767300351
 40
0.907261708
 40
0.937980193
 40
0.9689047543
 40
1.0
 40
1.0
 40
1.0
 40
1.0
 10
12.0102196369
 20
6.6939778407
 30
0.0
 10
12.0102196369
 20
6.6923525282
 30
0.0
 10
12.0103407681
 20
6.6899072448
 30
0.0
 10
12.0107370598
 20
6.6866666943
 30
0.0
 10
12.0112920562
 20
6.6834264888
 30
0.0
 10
12.0122810987
 20
6.6794151811
 30
0.0
 10
12.0139221329
 20
6.6747181439
 30
0.0
 10
12.0160048406
 20
6.670174162
 30
0.0
 10
12.0185075084
 20
6.6658257456
 30
0.0
 10
12.0214075415
 20
6.6617153845
 30
0.0
 10
12.0246763334
 20
6.657882398
 30
0.0
 10
12.0282826521
 20
6.6543635546
 30
0.0
 10
12.0321919933
 20
6.6511928278
 30
0.0
 10
12.0363664745
 20
6.6484000411
 30
0.0
 10
12.0407666826
 20
6.6460132045
 30
0.0
 10
12.045349639
 20
6.6440537381
 30
0.0
 10
12.0500721435
 20
6.6425425547
 30
0.0
 10
12.0548881498
 20
6.6414919439
 30
0.0
 10
12.0597519397
 20
6.6409148172
 30
0.0
 10
12.0646164057
 20
6.6408140796
 30
0.0
 10
12.0694347995
 20
6.6411937443
 30
0.0
 10
12.0741608489
 20
6.6420475988
 30
0.0
 10
12.0787485458
 20
6.6433700795
 30
0.0
 10
12.0831541402
 20
6.6451465177
 30
0.0
 10
12.0873342177
 20
6.6473613568
 30
0.0
 10
12.0905987856
 20
6.6495556053
 30
0.0
 10
12.0930563308
 20
6.6515046707
 30
0.0
 10
12.0954054324
 20
6.6535785976
 30
0.0
 10
12.0981336391
 20
6.6563993643
 30
0.0
 10
12.1010364575
 20
6.6601127882
 30
0.0
 10
12.1035408053
 20
6.664119704
 30
0.0
 10
12.105623791
 20
6.668380244
 30
0.0
 10
12.1072638853
 20
6.6728545955
 30
0.0
 10
12.108446701
 20
6.6774998933
 30
0.0
 10
12.1091586366
 20
6.6822691457
 30
0.0
 10
12.1093172176
 20
6.6854911166
 30
0.0
 10
12.1093172176
 20
6.6871054001
 30
0.0
  0
SPLINE
  5
35A
100
AcDbEntity
  8
0
100
AcDbSpline
 62
7
  6
CONTINUOUS
 70
0
 71
3
 72
41
 73
37
 74
0
 42
0.0000001
 43
0.0000001
 44
0.0000000001
 40
0.0
 40
0.0
 40
0.0
 40
0.0
 40
0.0310952457
 40
0.062019807
 40
0.092738292
 40
0.1232699649
 40
0.1536542725
 40
0.1839271447
 40
0.2141227057
 40
0.2442824424
 40
0.2593674576
 40
0.27445982
 40
0.3046775948
 40
0.3349858041
 40
0.3654218658
 40
0.3960163921
 40
0.4267949975
 40
0.4577743555
 40
0.4889645109
 40
0.5203661695
 40
0.5519728133
 40
0.5837697557
 40
0.6157354043
 40
0.6478424291
 40
0.6800577375
 40
0.712345404
 40
0.7446654969
 40
0.7769789584
 40
0.8092458917
 40
0.8414279614
 40
0.8734859075
 40
0.9053909826
 40
0.9371303125
 40
0.9529378639
 40
0.9686923076
 40
1.0
 40
1.0
 40
1.0
 40
1.0
 10
12.0102196369
 20
6.6939778407
 30
0.0
 10
12.0102196369
 20
6.6955921241
 30
0.0
 10
12.0103782179
 20
6.6988140951
 30
0.0
 10
12.0110901536
 20
6.7035833475
 30
0.0
 10
12.0122729693
 20
6.7082286453
 30
0.0
 10
12.0139130635
 20
6.7127029967
 30
0.0
 10
12.0159960492
 20
6.7169635368
 30
0.0
 10
12.0185003971
 20
6.7209704526
 30
0.0
 10
12.0214032154
 20
6.7246838764
 30
0.0
 10
12.0241314221
 20
6.7275046431
 30
0.0
 10
12.0264805237
 20
6.72957857
 30
0.0
 10
12.0289380689
 20
6.7315276355
 30
0.0
 10
12.0322026368
 20
6.7337218839
 30
0.0
 10
12.0363827144
 20
6.735936723
 30
0.0
 10
12.0407883088
 20
6.7377131613
 30
0.0
 10
12.0453760056
 20
6.739035642
 30
0.0
 10
12.050102055
 20
6.7398894965
 30
0.0
 10
12.0549204488
 20
6.7402691611
 30
0.0
 10
12.0597849148
 20
6.7401684236
 30
0.0
 10
12.0646487047
 20
6.7395912969
 30
0.0
 10
12.069464711
 20
6.738540686
 30
0.0
 10
12.0741872155
 20
6.7370295026
 30
0.0
 10
12.0787701719
 20
6.7350700362
 30
0.0
 10
12.08317038
 20
6.7326831996
 30
0.0
 10
12.0873448612
 20
6.729890413
 30
0.0
 10
12.0912542024
 20
6.7267196862
 30
0.0
 10
12.0948605212
 20
6.7232008427
 30
0.0
 10
12.0981293131
 20
6.7193678562
 30
0.0
 10
12.1010293461
 20
6.7152574951
 30
0.0
 10
12.1035320139
 20
6.7109090787
 30
0.0
 10
12.1056147216
 20
6.7063650968
 30
0.0
 10
12.1072557558
 20
6.7016680596
 30
0.0
 10
12.1082447983
 20
6.6976567519
 30
0.0
 10
12.1087997948
 20
6.6944165464
 30
0.0
 10
12.1091960864
 20
6.691175996
 30
0.0
 10
12.1093172176
 20
6.6887307125
 30
0.0
 10
12.1093172176
 20
6.6871054001
 30
0.0
  0
SPLINE
  5
35B
100
AcDbEntity
  8
0
100
AcDbSpline
 62
7
  6
CONTINUOUS
 70
0
 71
3
 72
15
 73
11
 74
0
 42
0.0000001
 43
0.0000001
 44
0.0000000001
 40
0.0
 40
0.0
 40
0.0
 40
0.0
 40
0.1234389364
 40
0.2470473381
 40
0.370987441
 40
0.4953935886
 40
0.620395394
 40
0.7461421851
 40
0.8727199755
 40
1.0
 40
1.0
 40
1.0
 40
1.0
 10
12.1073311791
 20
6.6495882194
 30
0.0
 10
12.1086731016
 20
6.6508845148
 30
0.0
 10
12.1112269982
 20
6.6536193676
 30
0.0
 10
12.1146196035
 20
6.6580959202
 30
0.0
 10
12.1175436117
 20
6.6629093872
 30
0.0
 10
12.1199740596
 20
6.6680129972
 30
0.0
 10
12.1218865841
 20
6.6733612991
 30
0.0
 10
12.1232654102
 20
6.6789051925
 30
0.0
 10
12.1240952319
 20
6.6845914279
 30
0.0
 10
12.1242798963
 20
6.6884310794
 30
0.0
 10
12.1242798963
 20
6.6903549181
 30
0.0
  0
SPLINE
  5
35C
100
AcDbEntity
  8
0
100
AcDbSpline
 62
7
  6
CONTINUOUS
 70
0
 71
3
 72
36
 73
32
 74
0
 42
0.0000001
 43
0.0000001
 44
0.0000000001
 40
0.0
 40
0.0
 40
0.0
 40
0.0
 40
0.0299458215
 40
0.0599164373
 40
0.0899349621
 40
0.1200244062
 40
0.1502055589
 40
0.1804968674
 40
0.2109150284
 40
0.2414725902
 40
0.2721797556
 40
0.3030431963
 40
0.334065376
 40
0.3652464506
 40
0.3965820868
 40
0.4280648847
 40
0.4596850131
 40
0.4914286265
 40
0.555182957
 40
0.5871946461
 40
0.6192555487
 40
0.6513431863
 40
0.6834344387
 40
0.715507258
 40
0.7475392674
 40
0.8113564104
 40
0.8431377836
 40
0.8747992635
 40
0.9063341437
 40
0.9377371182
 40
1.0
 40
1.0
 40
1.0
 40
1.0
 10
12.020487878
 20
6.7394950152
 30
0.0
 10
12.021524684
 20
6.7404965685
 30
0.0
 10
12.0236801055
 20
6.7424185844
 30
0.0
 10
12.0271331252
 20
6.7450372166
 30
0.0
 10
12.0307884511
 20
6.7473785233
 30
0.0
 10
12.0346263352
 20
6.749428117
 30
0.0
 10
12.0386248213
 20
6.7511763663
 30
0.0
 10
12.0427623922
 20
6.7526126775
 30
0.0
 10
12.0470161514
 20
6.7537290479
 30
0.0
 10
12.0513624391
 20
6.7545206309
 30
0.0
 10
12.0557776335
 20
6.7549813995
 30
0.0
 10
12.0602372138
 20
6.7551101163
 30
0.0
 10
12.0647167945
 20
6.7549061136
 30
0.0
 10
12.06919159
 20
6.7543693654
 30
0.0
 10
12.0736372502
 20
6.7535045625
 30
0.0
 10
12.0780291064
 20
6.7523153083
 30
0.0
 10
12.0823433054
 20
6.7508081494
 30
0.0
 10
12.0879666025
 20
6.7483849438
 30
0.0
 10
12.0933358471
 20
6.7453609276
 30
0.0
 10
12.0983571665
 20
6.741797779
 30
0.0
 10
12.1019400806
 20
6.7388605399
 30
0.0
 10
12.1053142578
 20
6.7356805978
 30
0.0
 10
12.1084606365
 20
6.7322742822
 30
0.0
 10
12.1113622286
 20
6.7286602554
 30
0.0
 10
12.1148784823
 20
6.7236003965
 30
0.0
 10
12.1178511075
 20
6.7181959952
 30
0.0
 10
12.1202241049
 20
6.7125439178
 30
0.0
 10
12.1216922423
 20
6.7082097218
 30
0.0
 10
12.1228434837
 20
6.7037993932
 30
0.0
 10
12.1239417852
 20
6.6978698236
 30
0.0
 10
12.1242798963
 20
6.693352173
 30
0.0
 10
12.1242798963
 20
6.6903549181
 30
0.0
  0
SPLINE
  5
35D
100
AcDbEntity
  8
0
100
AcDbSpline
 62
7
  6
CONTINUOUS
 70
0
 71
3
 72
36
 73
32
 74
0
 42
0.0000001
 43
0.0000001
 44
0.0000000001
 40
0.0
 40
0.0
 40
0.0
 40
0.0
 40
0.0622628818
 40
0.0936658563
 40
0.1252007365
 40
0.1568622164
 40
0.1886435896
 40
0.2524607326
 40
0.284492742
 40
0.3165655613
 40
0.3486568137
 40
0.3807444513
 40
0.4128053539
 40
0.444817043
 40
0.5085713735
 40
0.5403149869
 40
0.5719351153
 40
0.6034179132
 40
0.6347535494
 40
0.665934624
 40
0.6969568037
 40
0.7278202444
 40
0.7585274098
 40
0.7890849716
 40
0.8195031326
 40
0.8497944411
 40
0.8799755938
 40
0.9100650379
 40
0.9400835627
 40
0.9700541785
 40
1.0
 40
1.0
 40
1.0
 40
1.0
 10
9.7848073576
 20
9.5088940694
 30
0.0
 10
9.7848073576
 20
9.5058968145
 30
0.0
 10
9.7851454686
 20
9.5013791638
 30
0.0
 10
9.7862437701
 20
9.4954495943
 30
0.0
 10
9.7873950116
 20
9.4910392657
 30
0.0
 10
9.788863149
 20
9.4867050697
 30
0.0
 10
9.7912361464
 20
9.4810529923
 30
0.0
 10
9.7942087715
 20
9.475648591
 30
0.0
 10
9.7977250252
 20
9.470588732
 30
0.0
 10
9.8006266174
 20
9.4669747053
 30
0.0
 10
9.8037729961
 20
9.4635683897
 30
0.0
 10
9.8071471733
 20
9.4603884476
 30
0.0
 10
9.8107300873
 20
9.4574512085
 30
0.0
 10
9.8157514068
 20
9.4538880599
 30
0.0
 10
9.8211206513
 20
9.4508640437
 30
0.0
 10
9.8267439484
 20
9.4484408381
 30
0.0
 10
9.8310581474
 20
9.4469336791
 30
0.0
 10
9.8354500037
 20
9.445744425
 30
0.0
 10
9.8398956639
 20
9.4448796221
 30
0.0
 10
9.8443704594
 20
9.4443428739
 30
0.0
 10
9.84885004
 20
9.4441388711
 30
0.0
 10
9.8533096204
 20
9.444267588
 30
0.0
 10
9.8577248148
 20
9.4447283565
 30
0.0
 10
9.8620711024
 20
9.4455199396
 30
0.0
 10
9.8663248616
 20
9.44663631
 30
0.0
 10
9.8704624326
 20
9.4480726212
 30
0.0
 10
9.8744609187
 20
9.4498208705
 30
0.0
 10
9.8782988027
 20
9.4518704642
 30
0.0
 10
9.8819541287
 20
9.4542117709
 30
0.0
 10
9.8854071483
 20
9.4568304031
 30
0.0
 10
9.8875625698
 20
9.458752419
 30
0.0
 10
9.8885993759
 20
9.4597539723
 30
0.0
  0
SPLINE
  5
35E
100
AcDbEntity
  8
0
100
AcDbSpline
 62
7
  6
CONTINUOUS
 70
0
 71
3
 72
15
 73
11
 74
0
 42
0.0000001
 43
0.0000001
 44
0.0000000001
 40
0.0
 40
0.0
 40
0.0
 40
0.0
 40
0.1272800245
 40
0.2538578149
 40
0.379604606
 40
0.5046064114
 40
0.629012559
 40
0.7529526619
 40
0.8765610636
 40
1.0
 40
1.0
 40
1.0
 40
1.0
 10
9.7848073576
 20
9.5088940694
 30
0.0
 10
9.7848073576
 20
9.5108179081
 30
0.0
 10
9.784992022
 20
9.5146575595
 30
0.0
 10
9.7858218436
 20
9.520343795
 30
0.0
 10
9.7872006698
 20
9.5258876883
 30
0.0
 10
9.7891131943
 20
9.5312359903
 30
0.0
 10
9.7915436422
 20
9.5363396002
 30
0.0
 10
9.7944676504
 20
9.5411530673
 30
0.0
 10
9.7978602556
 20
9.5456296199
 30
0.0
 10
9.8004141523
 20
9.5483644727
 30
0.0
 10
9.8017560747
 20
9.5496607681
 30
0.0
  0
SPLINE
  5
35F
100
AcDbEntity
  8
0
100
AcDbSpline
 62
7
  6
CONTINUOUS
 70
0
 71
3
 72
41
 73
37
 74
0
 42
0.0000001
 43
0.0000001
 44
0.0000000001
 40
0.0
 40
0.0
 40
0.0
 40
0.0
 40
0.0313076924
 40
0.0470621361
 40
0.0628696875
 40
0.0946090174
 40
0.1265140925
 40
0.1585720386
 40
0.1907541083
 40
0.2230210416
 40
0.2553345031
 40
0.287654596
 40
0.3199422625
 40
0.3521575709
 40
0.3842645957
 40
0.4162302443
 40
0.4480271867
 40
0.4796338305
 40
0.5110354891
 40
0.5422256445
 40
0.5732050025
 40
0.6039836079
 40
0.6345781342
 40
0.6650141959
 40
0.6953224052
 40
0.72554018
 40
0.7406325424
 40
0.7557175576
 40
0.7858772943
 40
0.8160728553
 40
0.8463457275
 40
0.8767300351
 40
0.907261708
 40
0.937980193
 40
0.9689047543
 40
1.0
 40
1.0
 40
1.0
 40
1.0
 10
9.7914878336
 20
9.5041435935
 30
0.0
 10
9.7914878336
 20
9.5025182811
 30
0.0
 10
9.7916089648
 20
9.5000729976
 30
0.0
 10
9.7920052565
 20
9.4968324472
 30
0.0
 10
9.7925602529
 20
9.4935922417
 30
0.0
 10
9.7935492955
 20
9.489580934
 30
0.0
 10
9.7951903296
 20
9.4848838968
 30
0.0
 10
9.7972730373
 20
9.4803399149
 30
0.0
 10
9.7997757051
 20
9.4759914985
 30
0.0
 10
9.8026757382
 20
9.4718811374
 30
0.0
 10
9.8059445301
 20
9.4680481509
 30
0.0
 10
9.8095508488
 20
9.4645293074
 30
0.0
 10
9.8134601901
 20
9.4613585806
 30
0.0
 10
9.8176346713
 20
9.458565794
 30
0.0
 10
9.8220348793
 20
9.4561789574
 30
0.0
 10
9.8266178357
 20
9.454219491
 30
0.0
 10
9.8313403402
 20
9.4527083076
 30
0.0
 10
9.8361563465
 20
9.4516576967
 30
0.0
 10
9.8410201365
 20
9.4510805701
 30
0.0
 10
9.8458846024
 20
9.4509798325
 30
0.0
 10
9.8507029962
 20
9.4513594971
 30
0.0
 10
9.8554290456
 20
9.4522133516
 30
0.0
 10
9.8600167425
 20
9.4535358323
 30
0.0
 10
9.8644223369
 20
9.4553122706
 30
0.0
 10
9.8686024144
 20
9.4575271097
 30
0.0
 10
9.8718669823
 20
9.4597213581
 30
0.0
 10
9.8743245276
 20
9.4616704236
 30
0.0
 10
9.8766736292
 20
9.4637443505
 30
0.0
 10
9.8794018359
 20
9.4665651172
 30
0.0
 10
9.8823046542
 20
9.470278541
 30
0.0
 10
9.884809002
 20
9.4742854568
 30
0.0
 10
9.8868919877
 20
9.4785459969
 30
0.0
 10
9.888532082
 20
9.4830203483
 30
0.0
 10
9.8897148977
 20
9.4876656462
 30
0.0
 10
9.8904268334
 20
9.4924348985
 30
0.0
 10
9.8905854143
 20
9.4956568695
 30
0.0
 10
9.8905854143
 20
9.4972711529
 30
0.0
  0
SPLINE
  5
360
100
AcDbEntity
  8
0
100
AcDbSpline
 62
7
  6
CONTINUOUS
 70
0
 71
3
 72
41
 73
37
 74
0
 42
0.0000001
 43
0.0000001
 44
0.0000000001
 40
0.0
 40
0.0
 40
0.0
 40
0.0
 40
0.0310952457
 40
0.062019807
 40
0.092738292
 40
0.1232699649
 40
0.1536542725
 40
0.1839271447
 40
0.2141227057
 40
0.2442824424
 40
0.2593674576
 40
0.27445982
 40
0.3046775948
 40
0.3349858041
 40
0.3654218658
 40
0.3960163921
 40
0.4267949975
 40
0.4577743555
 40
0.4889645109
 40
0.5203661695
 40
0.5519728133
 40
0.5837697557
 40
0.6157354043
 40
0.6478424291
 40
0.6800577375
 40
0.712345404
 40
0.7446654969
 40
0.7769789584
 40
0.8092458917
 40
0.8414279614
 40
0.8734859075
 40
0.9053909826
 40
0.9371303125
 40
0.9529378639
 40
0.9686923076
 40
1.0
 40
1.0
 40
1.0
 40
1.0
 10
9.7914878336
 20
9.5041435935
 30
0.0
 10
9.7914878336
 20
9.505757877
 30
0.0
 10
9.7916464146
 20
9.5089798479
 30
0.0
 10
9.7923583503
 20
9.5137491003
 30
0.0
 10
9.793541166
 20
9.5183943981
 30
0.0
 10
9.7951812603
 20
9.5228687496
 30
0.0
 10
9.7972642459
 20
9.5271292896
 30
0.0
 10
9.7997685938
 20
9.5311362054
 30
0.0
 10
9.8026714121
 20
9.5348496293
 30
0.0
 10
9.8053996188
 20
9.537670396
 30
0.0
 10
9.8077487204
 20
9.5397443229
 30
0.0
 10
9.8102062657
 20
9.5416933883
 30
0.0
 10
9.8134708336
 20
9.5438876368
 30
0.0
 10
9.8176509111
 20
9.5461024759
 30
0.0
 10
9.8220565055
 20
9.5478789141
 30
0.0
 10
9.8266442023
 20
9.5492013948
 30
0.0
 10
9.8313702518
 20
9.5500552493
 30
0.0
 10
9.8361886455
 20
9.550434914
 30
0.0
 10
9.8410531115
 20
9.5503341764
 30
0.0
 10
9.8459169015
 20
9.5497570497
 30
0.0
 10
9.8507329078
 20
9.5487064389
 30
0.0
 10
9.8554554123
 20
9.5471952555
 30
0.0
 10
9.8600383686
 20
9.5452357891
 30
0.0
 10
9.8644385767
 20
9.5428489525
 30
0.0
 10
9.8686130579
 20
9.5400561658
 30
0.0
 10
9.8725223992
 20
9.536885439
 30
0.0
 10
9.8761287179
 20
9.5333665956
 30
0.0
 10
9.8793975098
 20
9.5295336091
 30
0.0
 10
9.8822975429
 20
9.525423248
 30
0.0
 10
9.8848002106
 20
9.5210748316
 30
0.0
 10
9.8868829184
 20
9.5165308497
 30
0.0
 10
9.8885239525
 20
9.5118338125
 30
0.0
 10
9.8895129951
 20
9.5078225048
 30
0.0
 10
9.8900679915
 20
9.5045822993
 30
0.0
 10
9.8904642832
 20
9.5013417488
 30
0.0
 10
9.8905854143
 20
9.4988964654
 30
0.0
 10
9.8905854143
 20
9.4972711529
 30
0.0
  0
SPLINE
  5
361
100
AcDbEntity
  8
0
100
AcDbSpline
 62
7
  6
CONTINUOUS
 70
0
 71
3
 72
15
 73
11
 74
0
 42
0.0000001
 43
0.0000001
 44
0.0000000001
 40
0.0
 40
0.0
 40
0.0
 40
0.0
 40
0.1234389364
 40
0.2470473381
 40
0.370987441
 40
0.4953935886
 40
0.620395394
 40
0.7461421851
 40
0.8727199755
 40
1.0
 40
1.0
 40
1.0
 40
1.0
 10
9.8885993759
 20
9.4597539723
 30
0.0
 10
9.8899412983
 20
9.4610502676
 30
0.0
 10
9.8924951949
 20
9.4637851204
 30
0.0
 10
9.8958878002
 20
9.468261673
 30
0.0
 10
9.8988118084
 20
9.4730751401
 30
0.0
 10
9.9012422563
 20
9.4781787501
 30
0.0
 10
9.9031547808
 20
9.483527052
 30
0.0
 10
9.904533607
 20
9.4890709453
 30
0.0
 10
9.9053634286
 20
9.4947571808
 30
0.0
 10
9.905548093
 20
9.4985968322
 30
0.0
 10
9.905548093
 20
9.5005206709
 30
0.0
  0
SPLINE
  5
362
100
AcDbEntity
  8
0
100
AcDbSpline
 62
7
  6
CONTINUOUS
 70
0
 71
3
 72
36
 73
32
 74
0
 42
0.0000001
 43
0.0000001
 44
0.0000000001
 40
0.0
 40
0.0
 40
0.0
 40
0.0
 40
0.0299458215
 40
0.0599164373
 40
0.0899349621
 40
0.1200244062
 40
0.1502055589
 40
0.1804968674
 40
0.2109150284
 40
0.2414725902
 40
0.2721797556
 40
0.3030431963
 40
0.334065376
 40
0.3652464506
 40
0.3965820868
 40
0.4280648847
 40
0.4596850131
 40
0.4914286265
 40
0.555182957
 40
0.5871946461
 40
0.6192555487
 40
0.6513431863
 40
0.6834344387
 40
0.715507258
 40
0.7475392674
 40
0.8113564104
 40
0.8431377836
 40
0.8747992635
 40
0.9063341437
 40
0.9377371182
 40
1.0
 40
1.0
 40
1.0
 40
1.0
 10
9.8017560747
 20
9.5496607681
 30
0.0
 10
9.8027928808
 20
9.5506623214
 30
0.0
 10
9.8049483023
 20
9.5525843373
 30
0.0
 10
9.8084013219
 20
9.5552029694
 30
0.0
 10
9.8120566478
 20
9.5575442761
 30
0.0
 10
9.8158945319
 20
9.5595938698
 30
0.0
 10
9.819893018
 20
9.5613421192
 30
0.0
 10
9.824030589
 20
9.5627784304
 30
0.0
 10
9.8282843481
 20
9.5638948007
 30
0.0
 10
9.8326306358
 20
9.5646863838
 30
0.0
 10
9.8370458302
 20
9.5651471523
 30
0.0
 10
9.8415054105
 20
9.5652758692
 30
0.0
 10
9.8459849912
 20
9.5650718665
 30
0.0
 10
9.8504597867
 20
9.5645351182
 30
0.0
 10
9.8549054469
 20
9.5636703153
 30
0.0
 10
9.8592973031
 20
9.5624810612
 30
0.0
 10
9.8636115021
 20
9.5609739022
 30
0.0
 10
9.8692347993
 20
9.5585506966
 30
0.0
 10
9.8746040438
 20
9.5555266804
 30
0.0
 10
9.8796253632
 20
9.5519635318
 30
0.0
 10
9.8832082773
 20
9.5490262928
 30
0.0
 10
9.8865824545
 20
9.5458463506
 30
0.0
 10
9.8897288332
 20
9.5424400351
 30
0.0
 10
9.8926304253
 20
9.5388260083
 30
0.0
 10
9.8961466791
 20
9.5337661494
 30
0.0
 10
9.8991193042
 20
9.5283617481
 30
0.0
 10
9.9014923016
 20
9.5227096706
 30
0.0
 10
9.902960439
 20
9.5183754746
 30
0.0
 10
9.9041116804
 20
9.5139651461
 30
0.0
 10
9.9052099819
 20
9.5080355765
 30
0.0
 10
9.905548093
 20
9.5035179258
 30
0.0
 10
9.905548093
 20
9.5005206709
 30
0.0
  0
SPLINE
  5
363
100
AcDbEntity
  8
0
100
AcDbSpline
 62
7
  6
CONTINUOUS
 70
0
 71
3
 72
21
 73
17
 74
0
 42
0.0000001
 43
0.0000001
 44
0.0000000001
 40
0.0
 40
0.0
 40
0.0
 40
0.0
 40
0.1685616874
 40
0.3287963644
 40
0.4049748023
 40
0.4781590272
 40
0.5480893266
 40
0.6145170882
 40
0.6772087892
 40
0.7359738033
 40
0.790645498
 40
0.8410920653
 40
0.887237413
 40
0.9290500841
 40
0.9665836944
 40
1.0
 40
1.0
 40
1.0
 40
1.0
 10
13.2711628034
 20
7.9820098959
 30
0.0
 10
13.2711628034
 20
7.9775203512
 30
0.0
 10
13.271311674
 20
7.9687622183
 30
0.0
 10
13.2718986149
 20
7.9579888248
 30
0.0
 10
13.2726132417
 20
7.9497732862
 30
0.0
 10
13.2732530348
 20
7.9439671185
 30
0.0
 10
13.274002724
 20
7.9384360246
 30
0.0
 10
13.2748588029
 20
7.9332032701
 30
0.0
 10
13.2758182346
 20
7.9282910116
 30
0.0
 10
13.276876331
 20
7.9237197302
 30
0.0
 10
13.2780285896
 20
7.9195082596
 30
0.0
 10
13.279270615
 20
7.9156739006
 30
0.0
 10
13.280596373
 20
7.9122319505
 30
0.0
 10
13.2820013386
 20
7.9091958057
 30
0.0
 10
13.283479878
 20
7.9065775426
 30
0.0
 10
13.2845727114
 20
7.905029701
 30
0.0
 10
13.2851343138
 20
7.904339233
 30
0.0
  0
SPLINE
  5
364
100
AcDbEntity
  8
0
100
AcDbSpline
 62
7
  6
CONTINUOUS
 70
0
 71
3
 72
31
 73
27
 74
0
 42
0.0000001
 43
0.0000001
 44
0.0000000001
 40
0.0
 40
0.0
 40
0.0
 40
0.0
 40
0.0762656208
 40
0.1537943453
 40
0.231828897
 40
0.3096812386
 40
0.3866394395
 40
0.4619996552
 40
0.5350812932
 40
0.6052309703
 40
0.6390124002
 40
0.67183295
 40
0.7036213026
 40
0.7343120691
 40
0.7638431047
 40
0.7921545668
 40
0.8191942183
 40
0.8449146835
 40
0.8692723112
 40
0.8922334625
 40
0.9137722707
 40
0.933869892
 40
0.9525222697
 40
0.9697396624
 40
0.9855480192
 40
1.0
 40
1.0
 40
1.0
 40
1.0
 10
13.3682198652
 20
8.075759824
 30
0.0
 10
13.3682198652
 20
8.0672234054
 30
0.0
 10
13.3679898672
 20
8.0500084514
 30
0.0
 10
13.3669882257
 20
8.0240766185
 30
0.0
 10
13.3653341004
 20
7.998000111
 30
0.0
 10
13.3630442804
 20
7.9720358638
 30
0.0
 10
13.3601412978
 20
7.9464341462
 30
0.0
 10
13.3566534248
 20
7.921444362
 30
0.0
 10
13.352614667
 20
7.8973099196
 30
0.0
 10
13.3487772242
 20
7.8778685494
 30
0.0
 10
13.3454491227
 20
7.8629274951
 30
0.0
 10
13.3428731231
 20
7.8522195771
 30
0.0
 10
13.3401916604
 20
7.8418945796
 30
0.0
 10
13.3374115967
 20
7.8319774936
 30
0.0
 10
13.3345399729
 20
7.8224923558
 30
0.0
 10
13.331583273
 20
7.8134623555
 30
0.0
 10
13.3285490565
 20
7.8049092672
 30
0.0
 10
13.3254450361
 20
7.7968536563
 30
0.0
 10
13.3222781902
 20
7.7893151782
 30
0.0
 10
13.3190565426
 20
7.7823117999
 30
0.0
 10
13.3157882653
 20
7.7758600237
 30
0.0
 10
13.3124804926
 20
7.769975421
 30
0.0
 10
13.3091413576
 20
7.7646716281
 30
0.0
 10
13.3057787394
 20
7.759960268
 30
0.0
 10
13.3023996403
 20
7.7558529984
 30
0.0
 10
13.3000377416
 20
7.7534176611
 30
0.0
 10
13.2988536014
 20
7.7523156267
 30
0.0
  0
LINE
  5
365
100
AcDbEntity
  8
0
100
AcDbLine
 62
7
  6
CONTINUOUS
 10
13.2997698516
 20
8.1154063854
 11
13.2987729696
 21
8.1144129479
  0
SPLINE
  5
366
100
AcDbEntity
  8
0
100
AcDbSpline
 62
7
  6
CONTINUOUS
 70
0
 71
3
 72
28
 73
24
 74
0
 42
0.0000001
 43
0.0000001
 44
0.0000000001
 40
0.0
 40
0.0
 40
0.0
 40
0.0
 40
0.01539621
 40
0.0321339426
 40
0.0502432907
 40
0.0697379739
 40
0.0906134169
 40
0.1128553989
 40
0.1364435528
 40
0.1613480339
 40
0.1875295551
 40
0.2149456039
 40
0.2732876909
 40
0.3359386432
 40
0.402407628
 40
0.4721469015
 40
0.5445764584
 40
0.6190821022
 40
0.6950244345
 40
0.7717421076
 40
0.8485898691
 40
0.9249218834
 40
1.0
 40
1.0
 40
1.0
 40
1.0
 10
13.2985315693
 20
8.1141526646
 30
0.0
 10
13.2980581895
 20
8.1136347181
 30
0.0
 10
13.297115709
 20
8.1125116341
 30
0.0
 10
13.2957658252
 20
8.1106603125
 30
0.0
 10
13.2944245566
 20
8.1085768651
 30
0.0
 10
13.2930951829
 20
8.1062657883
 30
0.0
 10
13.2917802694
 20
8.1037323816
 30
0.0
 10
13.2904827966
 20
8.1009823455
 30
0.0
 10
13.2892059417
 20
8.0980216768
 30
0.0
 10
13.2879526612
 20
8.0948570827
 30
0.0
 10
13.2867255842
 20
8.0914959376
 30
0.0
 10
13.2850944223
 20
8.0866616358
 30
0.0
 10
13.2831531383
 20
8.0801801786
 30
0.0
 10
13.2810159879
 20
8.0719064507
 30
0.0
 10
13.2790466543
 20
8.0630583948
 30
0.0
 10
13.2772626797
 20
8.0537172414
 30
0.0
 10
13.2756813588
 20
8.0439685338
 30
0.0
 10
13.2743171118
 20
8.0339018264
 30
0.0
 10
13.2731827457
 20
8.0236100496
 30
0.0
 10
13.2722886704
 20
8.0131875211
 30
0.0
 10
13.2716430495
 20
8.0027288423
 30
0.0
 10
13.2712525827
 20
7.9923323651
 30
0.0
 10
13.2711628034
 20
7.9854315777
 30
0.0
 10
13.2711628034
 20
7.9820098959
 30
0.0
  0
SPLINE
  5
367
100
AcDbEntity
  8
0
100
AcDbSpline
 62
7
  6
CONTINUOUS
 70
0
 71
3
 72
11
 73
7
 74
0
 42
0.0000001
 43
0.0000001
 44
0.0000000001
 40
0.0
 40
0.0
 40
0.0
 40
0.0
 40
0.2743071297
 40
0.5344420773
 40
0.7774377375
 40
1.0
 40
1.0
 40
1.0
 40
1.0
 10
13.2985779642
 20
7.9046056757
 30
0.0
 10
13.2968334733
 20
7.9053456781
 30
0.0
 10
13.2934493192
 20
7.9068226018
 30
0.0
 10
13.2885873178
 20
7.9091061898
 30
0.0
 10
13.2841285872
 20
7.9114005107
 30
0.0
 10
13.2813421594
 20
7.9130110683
 30
0.0
 10
13.2800393064
 20
7.9138274377
 30
0.0
  0
SPLINE
  5
368
100
AcDbEntity
  8
0
100
AcDbSpline
 62
7
  6
CONTINUOUS
 70
0
 71
3
 72
15
 73
11
 74
0
 42
0.0000001
 43
0.0000001
 44
0.0000000001
 40
0.0
 40
0.0
 40
0.0
 40
0.0
 40
0.1492710171
 40
0.289709221
 40
0.4220222282
 40
0.547112762
 40
0.6660745533
 40
0.7801970517
 40
0.890959402
 40
1.0
 40
1.0
 40
1.0
 40
1.0
 10
13.2833608891
 20
7.7378966669
 30
0.0
 10
13.2825920162
 20
7.7371810563
 30
0.0
 10
13.2810553365
 20
7.7358386279
 30
0.0
 10
13.2786790498
 20
7.7340527919
 30
0.0
 10
13.276305938
 20
7.7325608887
 30
0.0
 10
13.2739382561
 20
7.7313648317
 30
0.0
 10
13.2715780929
 20
7.7304665411
 30
0.0
 10
13.2692277159
 20
7.7298682762
 30
0.0
 10
13.2668906488
 20
7.7295725592
 30
0.0
 10
13.2653387895
 20
7.7295782837
 30
0.0
 10
13.2645733553
 20
7.7296314372
 30
0.0
  0
SPLINE
  5
369
100
AcDbEntity
  8
0
100
AcDbSpline
 62
7
  6
CONTINUOUS
 70
0
 71
3
 72
27
 73
23
 74
0
 42
0.0000001
 43
0.0000001
 44
0.0000000001
 40
0.0
 40
0.0
 40
0.0
 40
0.0
 40
0.0162147681
 40
0.0334280458
 40
0.0516718081
 40
0.0709698948
 40
0.0913394088
 40
0.1127892076
 40
0.1353216315
 40
0.1589353237
 40
0.209381896
 40
0.2640510775
 40
0.3228118294
 40
0.385501843
 40
0.4519210818
 40
0.5218507706
 40
0.5950377861
 40
0.6712138901
 40
0.7501030787
 40
0.8314227517
 40
0.9148505898
 40
1.0
 40
1.0
 40
1.0
 40
1.0
 10
13.3343443385
 20
8.2640838477
 30
0.0
 10
13.3350051016
 20
8.263271447
 30
0.0
 10
13.3363116314
 20
8.261550798
 30
0.0
 10
13.3381749331
 20
8.2587805554
 30
0.0
 10
13.339997368
 20
8.2557484938
 30
0.0
 10
13.3417770405
 20
8.2524577054
 30
0.0
 10
13.3435119934
 20
8.2489112484
 30
0.0
 10
13.3452005603
 20
8.2451128418
 30
0.0
 10
13.3468412099
 20
8.2410665704
 30
0.0
 10
13.3490104816
 20
8.2352168696
 30
0.0
 10
13.3515727442
 20
8.2273037284
 30
0.0
 10
13.354366796
 20
8.2170925687
 30
0.0
 10
13.3569325308
 20
8.2060087768
 30
0.0
 10
13.3592581077
 20
8.194098496
 30
0.0
 10
13.3613346136
 20
8.1814110962
 30
0.0
 10
13.3631518216
 20
8.1679997821
 30
0.0
 10
13.3647030242
 20
8.1539211909
 30
0.0
 10
13.3659808749
 20
8.139234406
 30
0.0
 10
13.3669800918
 20
8.1239997656
 30
0.0
 10
13.3676962205
 20
8.1082804377
 30
0.0
 10
13.3681258381
 20
8.092146352
 30
0.0
 10
13.3682198652
 20
8.0812589739
 30
0.0
 10
13.3682198652
 20
8.075759824
 30
0.0
  0
SPLINE
  5
36A
100
AcDbEntity
  8
0
100
AcDbSpline
 62
7
  6
CONTINUOUS
 70
0
 71
3
 72
15
 73
11
 74
0
 42
0.0000001
 43
0.0000001
 44
0.0000000001
 40
0.0
 40
0.0
 40
0.0
 40
0.0
 40
0.1090430419
 40
0.2198054539
 40
0.3339231994
 40
0.452887223
 40
0.5779880059
 40
0.7103070969
 40
0.8507361486
 40
1.0
 40
1.0
 40
1.0
 40
1.0
 10
13.3035239474
 20
8.2912819025
 30
0.0
 10
13.3042893895
 20
8.2912287484
 30
0.0
 10
13.3058271288
 20
8.2910199048
 30
0.0
 10
13.3081009971
 20
8.2904046821
 30
0.0
 10
13.3103464845
 20
8.2894882683
 30
0.0
 10
13.3125600264
 20
8.2882726283
 30
0.0
 10
13.3147397736
 20
8.2867607804
 30
0.0
 10
13.3168841171
 20
8.2849554471
 30
0.0
 10
13.3189913764
 20
8.28285909
 30
0.0
 10
13.3203280859
 20
8.281317605
 30
0.0
 10
13.3209907713
 20
8.2805027555
 30
0.0
  0
SPLINE
  5
36B
100
AcDbEntity
  8
0
100
AcDbSpline
 62
7
  6
CONTINUOUS
 70
0
 71
3
 72
33
 73
29
 74
0
 42
0.0000001
 43
0.0000001
 44
0.0000000001
 40
0.0
 40
0.0
 40
0.0
 40
0.0
 40
0.1056124641
 40
0.2076699554
 40
0.305167057
 40
0.39730514
 40
0.4833444468
 40
0.5625963551
 40
0.5994968149
 40
0.6344975976
 40
0.6675451558
 40
0.6986017549
 40
0.7276432097
 40
0.7546559499
 40
0.7796448267
 40
0.8026448944
 40
0.8237184754
 40
0.8429636001
 40
0.8605339137
 40
0.876650845
 40
0.8916117247
 40
0.9057992803
 40
0.9196709547
 40
0.9337159583
 40
0.9484055614
 40
0.9641484958
 40
0.9812663149
 40
1.0
 40
1.0
 40
1.0
 40
1.0
 10
13.3278441275
 20
8.0367598539
 30
0.0
 10
13.3278441275
 20
8.0401506846
 30
0.0
 10
13.3277581701
 20
8.0468185884
 30
0.0
 10
13.3273620942
 20
8.0566096691
 30
0.0
 10
13.3267032993
 20
8.0659531968
 30
0.0
 10
13.3257891916
 20
8.0747586214
 30
0.0
 10
13.3246288897
 20
8.0829439699
 30
0.0
 10
13.3234399467
 20
8.0893286287
 30
0.0
 10
13.3223617797
 20
8.0940608956
 30
0.0
 10
13.3215185383
 20
8.0973237475
 30
0.0
 10
13.3206231228
 20
8.1003777016
 30
0.0
 10
13.3196777431
 20
8.1032156908
 30
0.0
 10
13.3186848565
 20
8.1058312929
 30
0.0
 10
13.317646677
 20
8.1082184349
 30
0.0
 10
13.3165651997
 20
8.1103715417
 30
0.0
 10
13.3154430839
 20
8.1122860929
 30
0.0
 10
13.3142825971
 20
8.1139581263
 30
0.0
 10
13.3130852498
 20
8.1153837421
 30
0.0
 10
13.3118524933
 20
8.1165595316
 30
0.0
 10
13.3105857148
 20
8.1174823722
 30
0.0
 10
13.3092859727
 20
8.1181477968
 30
0.0
 10
13.3079558659
 20
8.1185494223
 30
0.0
 10
13.3066018281
 20
8.118682985
 30
0.0
 10
13.3052321228
 20
8.1185475441
 30
0.0
 10
13.303854255
 20
8.1181455435
 30
0.0
 10
13.3024728644
 20
8.1174819632
 30
0.0
 10
13.3010899674
 20
8.1165622289
 30
0.0
 10
13.3002101223
 20
8.1158161758
 30
0.0
 10
13.2997698516
 20
8.1154063854
 30
0.0
  0
SPLINE
  5
36C
100
AcDbEntity
  8
0
100
AcDbSpline
 62
7
  6
CONTINUOUS
 70
0
 71
3
 72
39
 73
35
 74
0
 42
0.0000001
 43
0.0000001
 44
0.0000000001
 40
0.0
 40
0.0
 40
0.0
 40
0.0
 40
0.0154361115
 40
0.0224876968
 40
0.0291530353
 40
0.0354908597
 40
0.0415708915
 40
0.0474738374
 40
0.0532886797
 40
0.0591083756
 40
0.0650255691
 40
0.0711284028
 40
0.077496858
 40
0.0841996368
 40
0.0912942181
 40
0.1068282727
 40
0.1243883942
 40
0.1441303714
 40
0.1661343627
 40
0.1904268854
 40
0.2169874925
 40
0.2457720636
 40
0.2767086995
 40
0.3097043823
 40
0.3446553215
 40
0.3814374123
 40
0.4199177276
 40
0.4599540061
 40
0.5440630384
 40
0.6324568902
 40
0.723728931
 40
0.8163990409
 40
0.9090071575
 40
1.0
 40
1.0
 40
1.0
 40
1.0
 10
13.2851343138
 20
7.904339233
 30
0.0
 10
13.2856372385
 20
7.9037209071
 30
0.0
 10
13.2864273701
 20
7.9028620617
 30
0.0
 10
13.2875815926
 20
7.9018931795
 30
0.0
 10
13.2884352721
 20
7.9013039733
 30
0.0
 10
13.2893021661
 20
7.900831404
 30
0.0
 10
13.2901816024
 20
7.9004767038
 30
0.0
 10
13.2910724132
 20
7.9002409434
 30
0.0
 10
13.2919730818
 20
7.9001245962
 30
0.0
 10
13.2928819563
 20
7.9001279194
 30
0.0
 10
13.293797368
 20
7.9002507838
 30
0.0
 10
13.2947178202
 20
7.9004927984
 30
0.0
 10
13.2956420006
 20
7.900853315
 30
0.0
 10
13.2965690579
 20
7.9013311177
 30
0.0
 10
13.2978464625
 20
7.9021481474
 30
0.0
 10
13.2994454265
 20
7.9034840714
 30
0.0
 10
13.3013016377
 20
7.905490587
 30
0.0
 10
13.3031481382
 20
7.9079386999
 30
0.0
 10
13.3049781806
 20
7.9108192859
 30
0.0
 10
13.3067846665
 20
7.9141215951
 30
0.0
 10
13.3085609544
 20
7.9178320386
 30
0.0
 10
13.3102988207
 20
7.9219356471
 30
0.0
 10
13.3119910306
 20
7.9264151053
 30
0.0
 10
13.3136305339
 20
7.9312514172
 30
0.0
 10
13.3152095588
 20
7.9364241165
 30
0.0
 10
13.3167218072
 20
7.9419109529
 30
0.0
 10
13.3181605183
 20
7.9476884536
 30
0.0
 10
13.3200023289
 20
7.9558816451
 30
0.0
 10
13.3220636348
 20
7.966663932
 30
0.0
 10
13.3241179991
 20
7.9801307531
 30
0.0
 10
13.3257555987
 20
7.9940996528
 30
0.0
 10
13.3269486746
 20
8.008331783
 30
0.0
 10
13.3276754809
 20
8.0225807225
 30
0.0
 10
13.3278441275
 20
8.0320615065
 30
0.0
 10
13.3278441275
 20
8.0367598539
 30
0.0
  0
SPLINE
  5
36D
100
AcDbEntity
  8
0
100
AcDbSpline
 62
7
  6
CONTINUOUS
 70
0
 71
3
 72
22
 73
18
 74
0
 42
0.0000001
 43
0.0000001
 44
0.0000000001
 40
0.0
 40
0.0
 40
0.0
 40
0.0
 40
0.0349049308
 40
0.0694005652
 40
0.1048261999
 40
0.1426989904
 40
0.1844642378
 40
0.2312281269
 40
0.2837691192
 40
0.342397856
 40
0.4071540303
 40
0.4778086187
 40
0.5539550737
 40
0.6351250086
 40
0.7208144056
 40
0.8104976172
 40
1.0
 40
1.0
 40
1.0
 40
1.0
 10
13.2947628999
 20
8.1092996615
 30
0.0
 10
13.294589364
 20
8.1088700019
 30
0.0
 10
13.2943140352
 20
8.1079845047
 30
0.0
 10
13.2941686903
 20
8.1065908454
 30
0.0
 10
13.2943232096
 20
8.1051574169
 30
0.0
 10
13.2947971042
 20
8.1036950125
 30
0.0
 10
13.2955982784
 20
8.1022119367
 30
0.0
 10
13.2967254747
 20
8.100709471
 30
0.0
 10
13.2981783852
 20
8.0991924597
 30
0.0
 10
13.2999447482
 20
8.0976605916
 30
0.0
 10
13.3020113842
 20
8.0961197786
 30
0.0
 10
13.304357112
 20
8.0945731029
 30
0.0
 10
13.3069582022
 20
8.0930243038
 30
0.0
 10
13.3097898219
 20
8.0914773772
 30
0.0
 10
13.3128265148
 20
8.0899345241
 30
0.0
 10
13.3171978382
 20
8.0878468608
 30
0.0
 10
13.3205909466
 20
8.0863531601
 30
0.0
 10
13.3229069343
 20
8.0853707321
 30
0.0
  0
SPLINE
  5
36E
100
AcDbEntity
  8
0
100
AcDbSpline
 62
7
  6
CONTINUOUS
 70
0
 71
3
 72
23
 73
19
 74
0
 42
0.0000001
 43
0.0000001
 44
0.0000000001
 40
0.0
 40
0.0
 40
0.0
 40
0.0
 40
0.0715379684
 40
0.1420659735
 40
0.2114201653
 40
0.2794226596
 40
0.3459305561
 40
0.3785913231
 40
0.4108381623
 40
0.4740743306
 40
0.5357090612
 40
0.5959023124
 40
0.6549218074
 40
0.7130703616
 40
0.7706664121
 40
0.8279756838
 40
0.8852232501
 40
1.0
 40
1.0
 40
1.0
 40
1.0
 10
13.3229069343
 20
7.9805273492
 30
0.0
 10
13.3214226403
 20
7.9791293938
 30
0.0
 10
13.3185184738
 20
7.9763064303
 30
0.0
 10
13.3143585307
 20
7.9719445728
 30
0.0
 10
13.310462645
 20
7.9674772619
 30
0.0
 10
13.3068768331
 20
7.962901317
 30
0.0
 10
13.3041734849
 20
7.9589729738
 30
0.0
 10
13.3022190494
 20
7.9557767601
 30
0.0
 10
13.3004337285
 20
7.9525896345
 30
0.0
 10
13.2984861674
 20
7.9485506049
 30
0.0
 10
13.2966279386
 20
7.9436058407
 30
0.0
 10
13.2952913087
 20
7.9386189161
 30
0.0
 10
13.2944700433
 20
7.9336224936
 30
0.0
 10
13.2941502895
 20
7.9286439252
 30
0.0
 10
13.2942904813
 20
7.9237070603
 30
0.0
 10
13.2948487364
 20
7.9188266679
 30
0.0
 10
13.2960827337
 20
7.9124030328
 30
0.0
 10
13.2974887155
 20
7.9076903714
 30
0.0
 10
13.2985779642
 20
7.9046056757
 30
0.0
  0
SPLINE
  5
36F
100
AcDbEntity
  8
0
100
AcDbSpline
 62
7
  6
CONTINUOUS
 70
0
 71
3
 72
14
 73
10
 74
0
 42
0.0000001
 43
0.0000001
 44
0.0000000001
 40
0.0
 40
0.0
 40
0.0
 40
0.0
 40
0.126788248
 40
0.2529895165
 40
0.3785600545
 40
0.5035985003
 40
0.6281879977
 40
0.7524300622
 40
1.0
 40
1.0
 40
1.0
 40
1.0
 10
13.3088605844
 20
8.0339231583
 30
0.0
 10
13.3088605844
 20
8.0361989072
 30
0.0
 10
13.3090334292
 20
8.0407416756
 30
0.0
 10
13.3097973069
 20
8.04749938
 30
0.0
 10
13.3110440908
 20
8.0541526626
 30
0.0
 10
13.3127262243
 20
8.0606784399
 30
0.0
 10
13.3147988506
 20
8.0670651502
 30
0.0
 10
13.318009702
 20
8.0753800028
 30
0.0
 10
13.320863166
 20
8.0814249312
 30
0.0
 10
13.3229069343
 20
8.0853707321
 30
0.0
  0
SPLINE
  5
370
100
AcDbEntity
  8
0
100
AcDbSpline
 62
7
  6
CONTINUOUS
 70
0
 71
3
 72
14
 73
10
 74
0
 42
0.0000001
 43
0.0000001
 44
0.0000000001
 40
0.0
 40
0.0
 40
0.0
 40
0.0
 40
0.2522272973
 40
0.3779846182
 40
0.5033735217
 40
0.628340263
 40
0.7528128113
 40
0.8767440645
 40
1.0
 40
1.0
 40
1.0
 40
1.0
 10
13.3229069343
 20
7.9805273492
 30
0.0
 10
13.3208700337
 20
7.9847424099
 30
0.0
 10
13.3180226364
 20
7.9911642496
 30
0.0
 10
13.3148053045
 20
7.9999386273
 30
0.0
 10
13.3127328537
 20
8.0066083108
 30
0.0
 10
13.3110501939
 20
8.0133629417
 30
0.0
 10
13.3098021175
 20
8.0201848316
 30
0.0
 10
13.309036065
 20
8.0270459131
 30
0.0
 10
13.3088605844
 20
8.031635488
 30
0.0
 10
13.3088605844
 20
8.0339231583
 30
0.0
  0
SPLINE
  5
371
100
AcDbEntity
  8
0
100
AcDbSpline
 62
7
  6
CONTINUOUS
 70
0
 71
3
 72
42
 73
38
 74
0
 42
0.0000001
 43
0.0000001
 44
0.0000000001
 40
0.0
 40
0.0
 40
0.0
 40
0.0
 40
0.0187317918
 40
0.0358459152
 40
0.0515845466
 40
0.0590428417
 40
0.0662861262
 40
0.0733677281
 40
0.0803453143
 40
0.0872795313
 40
0.0942320619
 40
0.1012639729
 40
0.1084341789
 40
0.1157981619
 40
0.1234068684
 40
0.1395232976
 40
0.1570935977
 40
0.1763381572
 40
0.1974103033
 40
0.2204090452
 40
0.2453978239
 40
0.2724087099
 40
0.3014466849
 40
0.3325019809
 40
0.3655490216
 40
0.4005455813
 40
0.4374423964
 40
0.4761812502
 40
0.5166921647
 40
0.5589011869
 40
0.6027280303
 40
0.6480815212
 40
0.6948675949
 40
0.7429904044
 40
0.7923516885
 40
0.8943811518
 40
1.0
 40
1.0
 40
1.0
 40
1.0
 10
13.2988536014
 20
7.7523156267
 30
0.0
 10
13.2977860715
 20
7.751322117
 30
0.0
 10
13.2956529746
 20
7.7495131139
 30
0.0
 10
13.2923005432
 20
7.747283864
 30
0.0
 10
13.2894587047
 20
7.745920706
 30
0.0
 10
13.2872087842
 20
7.7451682924
 30
0.0
 10
13.2855575461
 20
7.7447717437
 30
0.0
 10
13.2839138071
 20
7.7445337742
 30
0.0
 10
13.2822787661
 20
7.7444549337
 30
0.0
 10
13.2806538154
 20
7.7445351604
 30
0.0
 10
13.2790403016
 20
7.7447742824
 30
0.0
 10
13.2774395405
 20
7.7451719761
 30
0.0
 10
13.2758527718
 20
7.7457277972
 30
0.0
 10
13.2742810615
 20
7.7464412937
 30
0.0
 10
13.2721668437
 20
7.7476245238
 30
0.0
 10
13.2695582869
 20
7.7495251285
 30
0.0
 10
13.2665700734
 20
7.7523763775
 30
0.0
 10
13.2636669363
 20
7.755833421
 30
0.0
 10
13.2608532553
 20
7.7598876482
 30
0.0
 10
13.2581325623
 20
7.764530016
 30
0.0
 10
13.2555108283
 20
7.7697509735
 30
0.0
 10
13.2529936874
 20
7.7755390259
 30
0.0
 10
13.2505861198
 20
7.7818808675
 30
0.0
 10
13.2482942257
 20
7.7887622384
 30
0.0
 10
13.2461236088
 20
7.796167241
 30
0.0
 10
13.2440788152
 20
7.804078375
 30
0.0
 10
13.242165126
 20
7.812477179
 30
0.0
 10
13.2403874045
 20
7.821343947
 30
0.0
 10
13.2387493665
 20
7.8306576717
 30
0.0
 10
13.2372552415
 20
7.8403964176
 30
0.0
 10
13.2359089534
 20
7.8505370618
 30
0.0
 10
13.2347131924
 20
7.8610552012
 30
0.0
 10
13.2336710092
 20
7.871925647
 30
0.0
 10
13.23278523
 20
7.8831229446
 30
0.0
 10
13.2318042725
 20
7.8986250925
 30
0.0
 10
13.2309951819
 20
7.9186204921
 30
0.0
 10
13.2307870657
 20
7.9347872465
 30
0.0
 10
13.2307870657
 20
7.9430099257
 30
0.0
  0
SPLINE
  5
372
100
AcDbEntity
  8
0
100
AcDbSpline
 62
7
  6
CONTINUOUS
 70
0
 71
3
 72
50
 73
46
 74
0
 42
0.0000001
 43
0.0000001
 44
0.0000000001
 40
0.0
 40
0.0
 40
0.0
 40
0.0
 40
0.0451955386
 40
0.0909999682
 40
0.1371965654
 40
0.1835931767
 40
0.2762634019
 40
0.3675294641
 40
0.4121749419
 40
0.4559215749
 40
0.4985966907
 40
0.5400311032
 40
0.5800643103
 40
0.6185430603
 40
0.6553228158
 40
0.6902714365
 40
0.7232656373
 40
0.7542003886
 40
0.7829825281
 40
0.7965447723
 40
0.8095447299
 40
0.8219768143
 40
0.8338372512
 40
0.845125688
 40
0.8558440574
 40
0.86599658
 40
0.8755903876
 40
0.884637398
 40
0.8931551119
 40
0.9011662886
 40
0.9087001258
 40
0.9157939675
 40
0.9224956589
 40
0.9288634581
 40
0.934966242
 40
0.9408832608
 40
0.9467025845
 40
0.9525171679
 40
0.9584199421
 40
0.9644995446
 40
0.9708368504
 40
0.9775019178
 40
0.9845534247
 40
0.9920397036
 40
1.0
 40
1.0
 40
1.0
 40
1.0
 10
13.2307870657
 20
7.9430099257
 30
0.0
 10
13.2307870657
 20
7.9486685358
 30
0.0
 10
13.2308882986
 20
7.9600622185
 30
0.0
 10
13.2313331002
 20
7.9772346177
 30
0.0
 10
13.2320712695
 20
7.994547509
 30
0.0
 10
13.2334414724
 20
8.0177033805
 30
0.0
 10
13.2358509623
 20
8.0464463713
 30
0.0
 10
13.239183956
 20
8.0748766562
 30
0.0
 10
13.2423887411
 20
8.0971419344
 30
0.0
 10
13.2450204963
 20
8.1133404911
 30
0.0
 10
13.2478856218
 20
8.1290909682
 30
0.0
 10
13.2509723393
 20
8.144325532
 30
0.0
 10
13.2542669373
 20
8.1589785557
 30
0.0
 10
13.2577549779
 20
8.1729870504
 30
0.0
 10
13.2614217966
 20
8.1862907752
 30
0.0
 10
13.2652505317
 20
8.1988327538
 30
0.0
 10
13.2692256724
 20
8.2105592555
 30
0.0
 10
13.2733286555
 20
8.2214202458
 30
0.0
 10
13.2769078838
 20
8.2298714511
 30
0.0
 10
13.2798329017
 20
8.2361537592
 30
0.0
 10
13.2820040297
 20
8.2405272658
 30
0.0
 10
13.2841938505
 20
8.2446517434
 30
0.0
 10
13.2864002724
 20
8.248522635
 30
0.0
 10
13.2886207507
 20
8.2521360232
 30
0.0
 10
13.2908529071
 20
8.2554882805
 30
0.0
 10
13.2930944001
 20
8.2585758692
 30
0.0
 10
13.2953431184
 20
8.2613953206
 30
0.0
 10
13.2975968723
 20
8.2639436486
 30
0.0
 10
13.2998533058
 20
8.2662185144
 30
0.0
 10
13.3021103651
 20
8.2682176161
 30
0.0
 10
13.3043661168
 20
8.2699386289
 30
0.0
 10
13.3066189385
 20
8.2713790107
 30
0.0
 10
13.3088667948
 20
8.272536965
 30
0.0
 10
13.3111076922
 20
8.2734106439
 30
0.0
 10
13.3133393554
 20
8.2739978898
 30
0.0
 10
13.3155589391
 20
8.2742962404
 30
0.0
 10
13.3177627025
 20
8.2743040196
 30
0.0
 10
13.319946487
 20
8.2740214483
 30
0.0
 10
13.3221063116
 20
8.2734494533
 30
0.0
 10
13.3242387208
 20
8.2725896916
 30
0.0
 10
13.3263407623
 20
8.2714440155
 30
0.0
 10
13.3284104887
 20
8.2700153283
 30
0.0
 10
13.330446404
 20
8.2683062728
 30
0.0
 10
13.332446889
 20
8.2663192239
 30
0.0
 10
13.3337154632
 20
8.2648570427
 30
0.0
 10
13.3343443385
 20
8.2640838477
 30
0.0
  0
SPLINE
  5
373
100
AcDbEntity
  8
0
100
AcDbSpline
 62
7
  6
CONTINUOUS
 70
0
 71
3
 72
43
 73
39
 74
0
 42
0.0000001
 43
0.0000001
 44
0.0000000001
 40
0.0
 40
0.0
 40
0.0
 40
0.0
 40
0.0417580562
 40
0.0840313325
 40
0.1695123717
 40
0.2553504027
 40
0.3405047412
 40
0.3824933613
 40
0.4239160805
 40
0.4646453896
 40
0.5045574469
 40
0.543531429
 40
0.5814489706
 40
0.6181988978
 40
0.6536729431
 40
0.687769252
 40
0.720394091
 40
0.7514578502
 40
0.7808827603
 40
0.8085989953
 40
0.834546618
 40
0.8586824431
 40
0.8809749944
 40
0.8914273408
 40
0.9014177391
 40
0.9109489121
 40
0.9200252775
 40
0.9286536439
 40
0.9368445238
 40
0.9446115821
 40
0.9519719167
 40
0.9655536327
 40
0.9718430139
 40
0.9778454777
 40
0.9836069189
 40
0.9891798578
 40
0.9946229865
 40
1.0
 40
1.0
 40
1.0
 40
1.0
 10
13.2111911503
 20
7.9400817238
 30
0.0
 10
13.2111911503
 20
7.9453312222
 30
0.0
 10
13.2112733011
 20
7.9558951731
 30
0.0
 10
13.211757851
 20
7.9772000467
 30
0.0
 10
13.212961242
 20
8.0040284225
 30
0.0
 10
13.2153293004
 20
8.0361873379
 30
0.0
 10
13.2180625714
 20
8.0628260076
 30
0.0
 10
13.2206965232
 20
8.083853112
 30
0.0
 10
13.2228715612
 20
8.0993074486
 30
0.0
 10
13.2252484952
 20
8.1144678401
 30
0.0
 10
13.2278193197
 20
8.1292842644
 30
0.0
 10
13.2305751028
 20
8.1437077433
 30
0.0
 10
13.2335074405
 20
8.1576905077
 30
0.0
 10
13.2366058172
 20
8.1711864321
 30
0.0
 10
13.239860252
 20
8.1841509432
 30
0.0
 10
13.2432601575
 20
8.1965412292
 30
0.0
 10
13.2467934421
 20
8.2083165775
 30
0.0
 10
13.2504492356
 20
8.2194380994
 30
0.0
 10
13.2542147596
 20
8.2298694081
 30
0.0
 10
13.2580773814
 20
8.2395764365
 30
0.0
 10
13.2620250865
 20
8.2485274689
 30
0.0
 10
13.2660437028
 20
8.256693679
 30
0.0
 10
13.2695121191
 20
8.2629511485
 30
0.0
 10
13.2723223463
 20
8.2675307572
 30
0.0
 10
13.2743942159
 20
8.2706789506
 30
0.0
 10
13.2764740419
 20
8.2736123485
 30
0.0
 10
13.2785602233
 20
8.2763284317
 30
0.0
 10
13.2806513121
 20
8.2788248426
 30
0.0
 10
13.2827454595
 20
8.2810996629
 30
0.0
 10
13.2848413893
 20
8.2831515708
 30
0.0
 10
13.2875627335
 20
8.2855237119
 30
0.0
 10
13.2903541854
 20
8.287529985
 30
0.0
 10
13.2932102508
 20
8.2890935526
 30
0.0
 10
13.2952920191
 20
8.2900055957
 30
0.0
 10
13.2973664236
 20
8.2906857071
 30
0.0
 10
13.2994318881
 20
8.2911325123
 30
0.0
 10
13.3014859304
 20
8.2913444852
 30
0.0
 10
13.3028496149
 20
8.2913287298
 30
0.0
 10
13.3035239474
 20
8.2912819025
 30
0.0
  0
SPLINE
  5
374
100
AcDbEntity
  8
0
100
AcDbSpline
 62
7
  6
CONTINUOUS
 70
0
 71
3
 72
33
 73
29
 74
0
 42
0.0000001
 43
0.0000001
 44
0.0000000001
 40
0.0
 40
0.0
 40
0.0
 40
0.0
 40
0.0126611888
 40
0.0256295287
 40
0.0391901271
 40
0.0535893906
 40
0.0690270472
 40
0.085660288
 40
0.1036096796
 40
0.1229611838
 40
0.1437743872
 40
0.1660905802
 40
0.1899351902
 40
0.2153165822
 40
0.2422333065
 40
0.2706771934
 40
0.3006309966
 40
0.3320682151
 40
0.3649585931
 40
0.3992686535
 40
0.4349577585
 40
0.4719806448
 40
0.5498346311
 40
0.6324085829
 40
0.7192284608
 40
0.8098024865
 40
0.9036089119
 40
1.0
 40
1.0
 40
1.0
 40
1.0
 10
13.2645733553
 20
7.7296314372
 30
0.0
 10
13.2636196294
 20
7.7296976662
 30
0.0
 10
13.2616965845
 20
7.7299909283
 30
0.0
 10
13.2588689483
 20
7.7309008376
 30
0.0
 10
13.2560906412
 20
7.7322779364
 30
0.0
 10
13.2533673747
 20
7.7341156147
 30
0.0
 10
13.2507012386
 20
7.7364073093
 30
0.0
 10
13.2480946943
 20
7.7391481695
 30
0.0
 10
13.2455508046
 20
7.7423338964
 30
0.0
 10
13.2430720979
 20
7.7459590094
 30
0.0
 10
13.2406615573
 20
7.7500177191
 30
0.0
 10
13.2383228224
 20
7.7545040485
 30
0.0
 10
13.2360598022
 20
7.7594112331
 30
0.0
 10
13.2338755273
 20
7.7647311959
 30
0.0
 10
13.2317734807
 20
7.7704554006
 30
0.0
 10
13.2297574109
 20
7.7765748786
 30
0.0
 10
13.2278306837
 20
7.7830797288
 30
0.0
 10
13.2259961089
 20
7.7899591277
 30
0.0
 10
13.2242567894
 20
7.7972018613
 30
0.0
 10
13.222615987
 20
7.8047962489
 30
0.0
 10
13.221076187
 20
7.8127298031
 30
0.0
 10
13.2191282979
 20
7.8239312573
 30
0.0
 10
13.216981354
 20
7.8386882813
 30
0.0
 10
13.2148836193
 20
7.8572419796
 30
0.0
 10
13.2132381127
 20
7.8768050571
 30
0.0
 10
13.2120557111
 20
7.8972508927
 30
0.0
 10
13.2113457587
 20
7.9184414001
 30
0.0
 10
13.2111911503
 20
7.9328034131
 30
0.0
 10
13.2111911503
 20
7.9400817238
 30
0.0
  0
SPLINE
  5
375
100
AcDbEntity
  8
0
100
AcDbSpline
 62
7
  6
CONTINUOUS
 70
0
 71
3
 72
27
 73
23
 74
0
 42
0.0000001
 43
0.0000001
 44
0.0000000001
 40
0.0
 40
0.0
 40
0.0
 40
0.0
 40
0.0779009132
 40
0.1545449361
 40
0.2297356119
 40
0.3032874059
 40
0.3750169976
 40
0.4447488216
 40
0.5123141678
 40
0.5775525502
 40
0.6403124825
 40
0.7004526093
 40
0.7578428484
 40
0.8123657764
 40
0.8385199743
 40
0.8639200944
 40
0.8885557463
 40
0.912418026
 40
0.9354990493
 40
0.9577925991
 40
0.9792939267
 40
1.0
 40
1.0
 40
1.0
 40
1.0
 10
14.1192318356
 20
8.0228129296
 30
0.0
 10
14.1192318356
 20
8.0299995293
 30
0.0
 10
14.119132763
 20
8.044256997
 30
0.0
 10
14.1186800555
 20
8.0654467061
 30
0.0
 10
14.1179255554
 20
8.086226425
 30
0.0
 10
14.1168714297
 20
8.1065391756
 30
0.0
 10
14.1155205715
 20
8.1263296834
 30
0.0
 10
14.1138767572
 20
8.1455438656
 30
0.0
 10
14.1119445413
 20
8.1641293297
 30
0.0
 10
14.1097292919
 20
8.1820354001
 30
0.0
 10
14.1072371597
 20
8.1992132866
 30
0.0
 10
14.1044750728
 20
8.2156162808
 30
0.0
 10
14.1014506694
 20
8.2311996733
 30
0.0
 10
14.0986817952
 20
8.2436342529
 30
0.0
 10
14.096333437
 20
8.2531346262
 30
0.0
 10
14.0945363355
 20
8.2599301102
 30
0.0
 10
14.0926801582
 20
8.2664902428
 30
0.0
 10
14.0907662196
 20
8.2728105805
 30
0.0
 10
14.0887957778
 20
8.2788868164
 30
0.0
 10
14.0867702069
 20
8.2847148484
 30
0.0
 10
14.0846909022
 20
8.2902906781
 30
0.0
 10
14.0832424375
 20
8.2939055302
 30
0.0
 10
14.0825084227
 20
8.295669073
 30
0.0
  0
SPLINE
  5
376
100
AcDbEntity
  8
0
100
AcDbSpline
 62
7
  6
CONTINUOUS
 70
0
 71
3
 72
9
 73
5
 74
0
 42
0.0000001
 43
0.0000001
 44
0.0000000001
 40
0.0
 40
0.0
 40
0.0
 40
0.0
 40
0.4839597094
 40
1.0
 40
1.0
 40
1.0
 40
1.0
 10
13.5577976279
 20
7.4654010348
 30
0.0
 10
13.5564585428
 20
7.4666023139
 30
0.0
 10
13.5538042416
 20
7.4692117472
 30
0.0
 10
13.5513622782
 20
7.4720189481
 30
0.0
 10
13.5501519562
 20
7.4735071028
 30
0.0
  0
SPLINE
  5
377
100
AcDbEntity
  8
0
100
AcDbSpline
 62
7
  6
CONTINUOUS
 70
0
 71
3
 72
11
 73
7
 74
0
 42
0.0000001
 43
0.0000001
 44
0.0000000001
 40
0.0
 40
0.0
 40
0.0
 40
0.0
 40
0.2715243135
 40
0.5282312124
 40
0.7707769425
 40
1.0
 40
1.0
 40
1.0
 40
1.0
 10
14.0448395605
 20
8.3790225103
 30
0.0
 10
14.0438024447
 20
8.3805798851
 30
0.0
 10
14.0417109774
 20
8.3835615298
 30
0.0
 10
14.0384218736
 20
8.3877359797
 30
0.0
 10
14.0350733253
 20
8.3914805444
 30
0.0
 10
14.032739882
 20
8.3937492925
 30
0.0
 10
14.0315640742
 20
8.3948040972
 30
0.0
  0
SPLINE
  5
378
100
AcDbEntity
  8
0
100
AcDbSpline
 62
7
  6
CONTINUOUS
 70
0
 71
3
 72
23
 73
19
 74
0
 42
0.0000001
 43
0.0000001
 44
0.0000000001
 40
0.0
 40
0.0
 40
0.0
 40
0.0
 40
0.0797318705
 40
0.1575316742
 40
0.2332780964
 40
0.3068542736
 40
0.3781490355
 40
0.4470619994
 40
0.5135081551
 40
0.5774227914
 40
0.6387665452
 40
0.6975302735
 40
0.7537394707
 40
0.8074570892
 40
0.8587848182
 40
0.9078625107
 40
0.9548655561
 40
1.0
 40
1.0
 40
1.0
 40
1.0
 10
13.9185094489
 20
7.440385585
 30
0.0
 10
13.9216165489
 20
7.4418093037
 30
0.0
 10
13.9277353907
 20
7.4446663578
 30
0.0
 10
13.9367266853
 20
7.4490433566
 30
0.0
 10
13.9454023471
 20
7.4534625304
 30
0.0
 10
13.9537411458
 20
7.4579246918
 30
0.0
 10
13.9617219414
 20
7.4624303925
 30
0.0
 10
13.969324034
 20
7.4669798022
 30
0.0
 10
13.9765276948
 20
7.4715726889
 30
0.0
 10
13.9833146792
 20
7.4762083949
 30
0.0
 10
13.9896687641
 20
7.4808858258
 30
0.0
 10
13.9955762749
 20
7.4856034612
 30
0.0
 10
14.0010265894
 20
7.4903593252
 30
0.0
 10
14.0060124876
 20
7.4951510675
 30
0.0
 10
14.01053035
 20
7.4999759546
 30
0.0
 10
14.0145803439
 20
7.5048310761
 30
0.0
 10
14.0181660864
 20
7.5097128175
 30
0.0
 10
14.020292028
 20
7.5130455739
 30
0.0
 10
14.0212745717
 20
7.5147122262
 30
0.0
  0
SPLINE
  5
379
100
AcDbEntity
  8
0
100
AcDbSpline
 62
7
  6
CONTINUOUS
 70
0
 71
3
 72
23
 73
19
 74
0
 42
0.0000001
 43
0.0000001
 44
0.0000000001
 40
0.0
 40
0.0
 40
0.0
 40
0.0
 40
0.0775147435
 40
0.1535199048
 40
0.2279086274
 40
0.3005721535
 40
0.3713981315
 40
0.4402714565
 40
0.507076446
 40
0.5716998768
 40
0.6340329532
 40
0.6939755
 40
0.7514397229
 40
0.8063547583
 40
0.8586724209
 40
0.9083716464
 40
0.9554640841
 40
1.0
 40
1.0
 40
1.0
 40
1.0
 10
13.6708522532
 20
8.419819547
 30
0.0
 10
13.6679649185
 20
8.4188989237
 30
0.0
 10
13.662255643
 20
8.417046678
 30
0.0
 10
13.653811322
 20
8.4142019294
 30
0.0
 10
13.6455817746
 20
8.411315676
 30
0.0
 10
13.6375825786
 20
8.4083867241
 30
0.0
 10
13.6298299744
 20
8.4054140576
 30
0.0
 10
13.6223409182
 20
8.4023968224
 30
0.0
 10
13.6151328894
 20
8.3993344203
 30
0.0
 10
13.6082236951
 20
8.3962265366
 30
0.0
 10
13.6016312325
 20
8.3930731265
 30
0.0
 10
13.5953731592
 20
8.3898745713
 30
0.0
 10
13.5894666052
 20
8.3866315746
 30
0.0
 10
13.5839277611
 20
8.3833452121
 30
0.0
 10
13.5787714625
 20
8.3800170565
 30
0.0
 10
13.5740107834
 20
8.3766489034
 30
0.0
 10
13.569657033
 20
8.3732430918
 30
0.0
 10
13.5669575158
 20
8.3708845056
 30
0.0
 10
13.565682942
 20
8.3696982391
 30
0.0
  0
SPLINE
  5
37A
100
AcDbEntity
  8
0
100
AcDbSpline
 62
7
  6
CONTINUOUS
 70
0
 71
3
 72
9
 73
5
 74
0
 42
0.0000001
 43
0.0000001
 44
0.0000000001
 40
0.0
 40
0.0
 40
0.0
 40
0.0
 40
0.4962105828
 40
1.0
 40
1.0
 40
1.0
 40
1.0
 10
14.0710290561
 20
8.3232492985
 30
0.0
 10
14.0671116505
 20
8.3326603161
 30
0.0
 10
14.0587516668
 20
8.3514346552
 30
0.0
 10
14.0496095339
 20
8.3698377873
 30
0.0
 10
14.0448395605
 20
8.3790225103
 30
0.0
  0
SPLINE
  5
37B
100
AcDbEntity
  8
0
100
AcDbSpline
 62
7
  6
CONTINUOUS
 70
0
 71
3
 72
33
 73
29
 74
0
 42
0.0000001
 43
0.0000001
 44
0.0000000001
 40
0.0
 40
0.0
 40
0.0
 40
0.0
 40
0.0188525671
 40
0.0388801676
 40
0.0600714826
 40
0.0824089401
 40
0.1058696757
 40
0.1304262544
 40
0.1560471055
 40
0.1826970002
 40
0.2103374883
 40
0.2389271268
 40
0.2684217312
 40
0.2987746965
 40
0.3299371742
 40
0.361858191
 40
0.3944849302
 40
0.4277628984
 40
0.4616359909
 40
0.4960467239
 40
0.5309364101
 40
0.566245243
 40
0.6378753334
 40
0.7104433654
 40
0.7834461144
 40
0.8563765858
 40
0.9287279017
 40
1.0
 40
1.0
 40
1.0
 40
1.0
 10
14.0292914802
 20
7.5283047527
 30
0.0
 10
14.0309095014
 20
7.5310480755
 30
0.0
 10
14.0341215143
 20
7.5367799805
 30
0.0
 10
14.0387452714
 20
7.545816102
 30
0.0
 10
14.0433126473
 20
7.5555354366
 30
0.0
 10
14.0478151248
 20
7.5659200497
 30
0.0
 10
14.0522444112
 20
7.5769510265
 30
0.0
 10
14.0565922556
 20
7.5886081232
 30
0.0
 10
14.0608505852
 20
7.6008699066
 30
0.0
 10
14.0650114918
 20
7.6137137786
 30
0.0
 10
14.0690672217
 20
7.6271160509
 30
0.0
 10
14.0730102172
 20
7.6410519766
 30
0.0
 10
14.0768331593
 20
7.6554957936
 30
0.0
 10
14.0805289322
 20
7.6704207953
 30
0.0
 10
14.0840906432
 20
7.6857993754
 30
0.0
 10
14.0875116836
 20
7.7016030684
 30
0.0
 10
14.0907856964
 20
7.7178026196
 30
0.0
 10
14.0939065796
 20
7.73436804
 30
0.0
 10
14.0968685388
 20
7.7512686539
 30
0.0
 10
14.0996660757
 20
7.7684731508
 30
0.0
 10
14.1022940056
 20
7.7859496918
 30
0.0
 10
14.1055807687
 20
7.8096840341
 30
0.0
 10
14.1092255121
 20
7.839792749
 30
0.0
 10
14.112833761
 20
7.8763114483
 30
0.0
 10
14.1156702365
 20
7.9131185687
 30
0.0
 10
14.1177139086
 20
7.9499415759
 30
0.0
 10
14.1189497321
 20
7.9865078684
 30
0.0
 10
14.1192318356
 20
8.0107722872
 30
0.0
 10
14.1192318356
 20
8.0228129296
 30
0.0
  0
SPLINE
  5
37C
100
AcDbEntity
  8
0
100
AcDbSpline
 62
7
  6
CONTINUOUS
 70
0
 71
3
 72
59
 73
55
 74
0
 42
0.0000001
 43
0.0000001
 44
0.0000000001
 40
0.0
 40
0.0
 40
0.0
 40
0.0
 40
0.0543667817
 40
0.1078488474
 40
0.1603072659
 40
0.2116106112
 40
0.2616292069
 40
0.3102388766
 40
0.3573203659
 40
0.4027603094
 40
0.4464517966
 40
0.4882951973
 40
0.52819898
 40
0.5660807301
 40
0.5842409667
 40
0.60186966
 40
0.6189596415
 40
0.6355047622
 40
0.6514996239
 40
0.6669400861
 40
0.6818229866
 40
0.6961465361
 40
0.7099103588
 40
0.7231155932
 40
0.7357653531
 40
0.747864607
 40
0.7594208939
 40
0.7704443059
 40
0.7809481542
 40
0.7909493706
 40
0.8004689845
 40
0.8095329744
 40
0.8181726063
 40
0.8264254036
 40
0.8343354178
 40
0.8419537192
 40
0.8493382814
 40
0.8565533529
 40
0.8636683086
 40
0.8707557076
 40
0.8778890382
 40
0.8851402696
 40
0.8925776319
 40
0.9002638878
 40
0.9082553447
 40
0.9166012402
 40
0.9253440355
 40
0.9345195289
 40
0.9441576788
 40
0.9542831127
 40
0.9649157807
 40
0.9760717162
 40
0.987763276
 40
1.0
 40
1.0
 40
1.0
 40
1.0
 10
13.8966476405
 20
7.8078130943
 30
0.0
 10
13.8966476405
 20
7.8005743602
 30
0.0
 10
13.8967481471
 20
7.7862144634
 30
0.0
 10
13.8972074596
 20
7.7648743501
 30
0.0
 10
13.8979729547
 20
7.7439510883
 30
0.0
 10
13.8990424045
 20
7.7235028784
 30
0.0
 10
13.9004128281
 20
7.7035861881
 30
0.0
 10
13.9020803378
 20
7.6842562375
 30
0.0
 10
13.9040402436
 20
7.6655665059
 30
0.0
 10
13.9062870206
 20
7.6475686983
 30
0.0
 10
13.9088143381
 20
7.6303125702
 30
0.0
 10
13.9116150656
 20
7.6138457241
 30
0.0
 10
13.9146813411
 20
7.5982136948
 30
0.0
 10
13.9174886619
 20
7.5857490371
 30
0.0
 10
13.9198694792
 20
7.5762329975
 30
0.0
 10
13.9216908807
 20
7.569431684
 30
0.0
 10
13.9235719743
 20
7.5628700445
 30
0.0
 10
13.925511415
 20
7.556552589
 30
0.0
 10
13.9275079215
 20
7.5504836826
 30
0.0
 10
13.929560049
 20
7.5446674904
 30
0.0
 10
13.9316664242
 20
7.5391080137
 30
0.0
 10
13.9338255817
 20
7.5338090623
 30
0.0
 10
13.936036021
 20
7.5287742535
 30
0.0
 10
13.9382962869
 20
7.5240070387
 30
0.0
 10
13.9406047731
 20
7.5195106332
 30
0.0
 10
13.9429600177
 20
7.5152881143
 30
0.0
 10
13.9453603868
 20
7.5113423016
 30
0.0
 10
13.9478043713
 20
7.5076758713
 30
0.0
 10
13.9502904025
 20
7.5042912865
 30
0.0
 10
13.9528169142
 20
7.5011908116
 30
0.0
 10
13.9553824551
 20
7.4983766154
 30
0.0
 10
13.95798545
 20
7.4958506036
 30
0.0
 10
13.9606245255
 20
7.4936147269
 30
0.0
 10
13.9632981333
 20
7.4916707005
 30
0.0
 10
13.966004803
 20
7.4900203302
 30
0.0
 10
13.9687428673
 20
7.4886653369
 30
0.0
 10
13.9715104311
 20
7.4876073404
 30
0.0
 10
13.9743053309
 20
7.4868479579
 30
0.0
 10
13.9771249857
 20
7.4863882488
 30
0.0
 10
13.9799665969
 20
7.4862290879
 30
0.0
 10
13.982827207
 20
7.4863704679
 30
0.0
 10
13.9857039617
 20
7.4868120083
 30
0.0
 10
13.9885942376
 20
7.4875527444
 30
0.0
 10
13.9914957503
 20
7.4885913744
 30
0.0
 10
13.9944064273
 20
7.4899265677
 30
0.0
 10
13.9973244972
 20
7.4915567107
 30
0.0
 10
14.0002481588
 20
7.4934803817
 30
0.0
 10
14.0031757742
 20
7.4956958993
 30
0.0
 10
14.0061055864
 20
7.4982016465
 30
0.0
 10
14.0090358432
 20
7.5009958261
 30
0.0
 10
14.011964769
 20
7.5040764852
 30
0.0
 10
14.0148904611
 20
7.507441589
 30
0.0
 10
14.0178110715
 20
7.5110887521
 30
0.0
 10
14.0197099108
 20
7.513647987
 30
0.0
 10
14.0206590289
 20
7.5149722638
 30
0.0
  0
SPLINE
  5
37D
100
AcDbEntity
  8
0
100
AcDbSpline
 62
7
  6
CONTINUOUS
 70
0
 71
3
 72
9
 73
5
 74
0
 42
0.0000001
 43
0.0000001
 44
0.0000000001
 40
0.0
 40
0.0
 40
0.0
 40
0.0
 40
0.4844151657
 40
1.0
 40
1.0
 40
1.0
 40
1.0
 10
14.0206590289
 20
7.5149722638
 30
0.0
 10
14.0221534258
 20
7.5170573521
 30
0.0
 10
14.0251272248
 20
7.5214419857
 30
0.0
 10
14.0279043863
 20
7.5259529625
 30
0.0
 10
14.0292914802
 20
7.5283047527
 30
0.0
  0
SPLINE
  5
37E
100
AcDbEntity
  8
0
100
AcDbSpline
 62
7
  6
CONTINUOUS
 70
0
 71
3
 72
11
 73
7
 74
0
 42
0.0000001
 43
0.0000001
 44
0.0000000001
 40
0.0
 40
0.0
 40
0.0
 40
0.0
 40
0.2400390649
 40
0.4868392256
 40
0.7402226139
 40
1.0
 40
1.0
 40
1.0
 40
1.0
 10
13.5577976279
 20
8.3106171581
 30
0.0
 10
13.5566374048
 20
8.3073349552
 30
0.0
 10
13.5543371681
 20
8.300659297
 30
0.0
 10
13.5509903796
 20
8.2904586695
 30
0.0
 10
13.5477015728
 20
8.2799389043
 30
0.0
 10
13.5455756459
 20
8.2728064981
 30
0.0
 10
13.5445221416
 20
8.2691892996
 30
0.0
  0
SPLINE
  5
37F
100
AcDbEntity
  8
0
100
AcDbSpline
 62
7
  6
CONTINUOUS
 70
0
 71
3
 72
11
 73
7
 74
0
 42
0.0000001
 43
0.0000001
 44
0.0000000001
 40
0.0
 40
0.0
 40
0.0
 40
0.0
 40
0.2400390649
 40
0.4868392256
 40
0.7402226139
 40
1.0
 40
1.0
 40
1.0
 40
1.0
 10
13.9185094489
 20
8.2856017084
 30
0.0
 10
13.9173492258
 20
8.2823195054
 30
0.0
 10
13.915048989
 20
8.2756438473
 30
0.0
 10
13.9117022005
 20
8.2654432198
 30
0.0
 10
13.9084133938
 20
8.2549234546
 30
0.0
 10
13.9062874669
 20
8.2477910484
 30
0.0
 10
13.9052339626
 20
8.2441738499
 30
0.0
  0
SPLINE
  5
380
100
AcDbEntity
  8
0
100
AcDbSpline
 62
7
  6
CONTINUOUS
 70
0
 71
3
 72
11
 73
7
 74
0
 42
0.0000001
 43
0.0000001
 44
0.0000000001
 40
0.0
 40
0.0
 40
0.0
 40
0.0
 40
0.2715243135
 40
0.5282312124
 40
0.7707769425
 40
1.0
 40
1.0
 40
1.0
 40
1.0
 10
13.9052339626
 20
7.4561671719
 30
0.0
 10
13.9062710784
 20
7.4546097972
 30
0.0
 10
13.9083625457
 20
7.4516281524
 30
0.0
 10
13.9116516495
 20
7.4474537025
 30
0.0
 10
13.9150001978
 20
7.4437091379
 30
0.0
 10
13.9173336411
 20
7.4414403897
 30
0.0
 10
13.9185094489
 20
7.440385585
 30
0.0
  0
SPLINE
  5
381
100
AcDbEntity
  8
0
100
AcDbSpline
 62
7
  6
CONTINUOUS
 70
0
 71
3
 72
36
 73
32
 74
0
 42
0.0000001
 43
0.0000001
 44
0.0000000001
 40
0.0
 40
0.0
 40
0.0
 40
0.0
 40
0.0216582541
 40
0.0433973278
 40
0.0652690321
 40
0.0873309068
 40
0.1096454595
 40
0.1322792348
 40
0.1553020431
 40
0.1787859455
 40
0.2028036199
 40
0.2274274801
 40
0.2527275208
 40
0.2787707271
 40
0.3333157763
 40
0.3619362707
 40
0.3915092795
 40
0.422069131
 40
0.453641258
 40
0.4862436191
 40
0.5198857971
 40
0.5545700728
 40
0.5902918441
 40
0.6270399614
 40
0.6647980877
 40
0.7035447314
 40
0.743254713
 40
0.7838994087
 40
0.8254477732
 40
0.9111205105
 40
1.0
 40
1.0
 40
1.0
 40
1.0
 10
14.0315640742
 20
8.3948040972
 30
0.0
 10
14.0315206024
 20
8.3936111988
 30
0.0
 10
14.0313787137
 20
8.3912225514
 30
0.0
 10
14.0309944216
 20
8.3876444902
 30
0.0
 10
14.0304307626
 20
8.3840675675
 30
0.0
 10
14.0296800755
 20
8.3804926895
 30
0.0
 10
14.0287348275
 20
8.3769207175
 30
0.0
 10
14.0275876437
 20
8.3733526626
 30
0.0
 10
14.0262315044
 20
8.3697895976
 30
0.0
 10
14.0246596791
 20
8.3662327254
 30
0.0
 10
14.0228660923
 20
8.3626832173
 30
0.0
 10
14.0208450712
 20
8.3591424396
 30
0.0
 10
14.0185917992
 20
8.3556115334
 30
0.0
 10
14.0152205232
 20
8.3508455817
 30
0.0
 10
14.0114057554
 20
8.3461780318
 30
0.0
 10
14.0071877884
 20
8.3416140639
 30
0.0
 10
14.0037300194
 20
8.3381522119
 30
0.0
 10
14.000029562
 20
8.334707977
 30
0.0
 10
13.9960881487
 20
8.3312820804
 30
0.0
 10
13.9919084899
 20
8.3278756275
 30
0.0
 10
13.9874943187
 20
8.3244893761
 30
0.0
 10
13.9828502014
 20
8.3211240626
 30
0.0
 10
13.9779814728
 20
8.3177803262
 30
0.0
 10
13.9728942222
 20
8.3144585704
 30
0.0
 10
13.9675950377
 20
8.3111592299
 30
0.0
 10
13.9620910703
 20
8.3078824463
 30
0.0
 10
13.9563897662
 20
8.3046283902
 30
0.0
 10
13.9504988842
 20
8.3013969874
 30
0.0
 10
13.9423184877
 20
8.2970744385
 30
0.0
 10
13.9316679479
 20
8.2917397701
 30
0.0
 10
13.9229627713
 20
8.2876422859
 30
0.0
 10
13.9185094489
 20
8.2856017084
 30
0.0
  0
SPLINE
  5
382
100
AcDbEntity
  8
0
100
AcDbSpline
 62
7
  6
CONTINUOUS
 70
0
 71
3
 72
23
 73
19
 74
0
 42
0.0000001
 43
0.0000001
 44
0.0000000001
 40
0.0
 40
0.0
 40
0.0
 40
0.0
 40
0.0615624697
 40
0.1232212598
 40
0.1849869103
 40
0.2468697113
 40
0.3088793894
 40
0.371024343
 40
0.4333109996
 40
0.4957432234
 40
0.5583219121
 40
0.6210448958
 40
0.68390715
 40
0.7469012521
 40
0.8100180116
 40
0.8732471893
 40
0.936578022
 40
1.0
 40
1.0
 40
1.0
 40
1.0
 10
13.9052339626
 20
8.2441738499
 30
0.0
 10
13.9063018338
 20
8.2354396066
 30
0.0
 10
13.9082261381
 20
8.2179304809
 30
0.0
 10
13.9104157974
 20
8.1915773994
 30
0.0
 10
13.9118494457
 20
8.1651258247
 30
0.0
 10
13.9124676082
 20
8.138591958
 30
0.0
 10
13.9122157926
 20
8.111997332
 30
0.0
 10
13.9110478191
 20
8.0853689523
 30
0.0
 10
13.9089291928
 20
8.0587384024
 30
0.0
 10
13.9058399496
 20
8.0321403704
 30
0.0
 10
13.9017764906
 20
8.0056106033
 30
0.0
 10
13.8967520493
 20
7.9791836043
 30
0.0
 10
13.890795588
 20
7.9528904614
 30
0.0
 10
13.883949436
 20
7.9267571386
 30
0.0
 10
13.8762661044
 20
7.9008034738
 30
0.0
 10
13.8678047576
 20
7.8750428245
 30
0.0
 10
13.8586279896
 20
7.8494826549
 30
0.0
 10
13.8520794079
 20
7.8325883081
 30
0.0
 10
13.8487066499
 20
7.8241740392
 30
0.0
  0
SPLINE
  5
383
100
AcDbEntity
  8
0
100
AcDbSpline
 62
7
  6
CONTINUOUS
 70
0
 71
3
 72
31
 73
27
 74
0
 42
0.0000001
 43
0.0000001
 44
0.0000000001
 40
0.0
 40
0.0
 40
0.0
 40
0.0
 40
0.0639278594
 40
0.127745817
 40
0.1914309869
 40
0.2549573578
 40
0.2866553253
 40
0.3183035446
 40
0.349898745
 40
0.3814378728
 40
0.4129180898
 40
0.4443370614
 40
0.4756929643
 40
0.5069845079
 40
0.5382111115
 40
0.5693728511
 40
0.6004704124
 40
0.631505195
 40
0.6624791382
 40
0.6933945729
 40
0.7242543396
 40
0.7550615373
 40
0.8165256982
 40
0.8778200908
 40
0.9389702964
 40
1.0
 40
1.0
 40
1.0
 40
1.0
 10
13.5445221416
 20
8.2691892996
 30
0.0
 10
13.5397021145
 20
8.2611826807
 30
0.0
 10
13.5303368066
 20
8.2450205409
 30
0.0
 10
13.5172251847
 20
8.2202889482
 30
0.0
 10
13.5051954713
 20
8.1950765016
 30
0.0
 10
13.4961864769
 20
8.1736523387
 30
0.0
 10
13.4896683995
 20
8.1562860815
 30
0.0
 10
13.4851450293
 20
8.1431625967
 30
0.0
 10
13.4810008787
 20
8.1299387423
 30
0.0
 10
13.4772519361
 20
8.1166228233
 30
0.0
 10
13.473912342
 20
8.1032248313
 30
0.0
 10
13.470994109
 20
8.0897561027
 30
0.0
 10
13.46850687
 20
8.0762291347
 30
0.0
 10
13.4664572157
 20
8.0626573797
 30
0.0
 10
13.4648485948
 20
8.0490548807
 30
0.0
 10
13.4636814014
 20
8.0354358911
 30
0.0
 10
13.4629527896
 20
8.0218145356
 30
0.0
 10
13.462656669
 20
8.0082044542
 30
0.0
 10
13.4627842967
 20
7.9946184612
 30
0.0
 10
13.4633244731
 20
7.9810683513
 30
0.0
 10
13.4642637414
 20
7.9675645205
 30
0.0
 10
13.4660265949
 20
7.9496486611
 30
0.0
 10
13.4691487261
 20
7.927405572
 30
0.0
 10
13.4742311544
 20
7.9009946671
 30
0.0
 10
13.4805047096
 20
7.8749083619
 30
0.0
 10
13.4853950324
 20
7.8577241368
 30
0.0
 10
13.487994829
 20
7.8491894889
 30
0.0
  0
SPLINE
  5
384
100
AcDbEntity
  8
0
100
AcDbSpline
 62
7
  6
CONTINUOUS
 70
0
 71
3
 72
23
 73
19
 74
0
 42
0.0000001
 43
0.0000001
 44
0.0000000001
 40
0.0
 40
0.0
 40
0.0
 40
0.0
 40
0.0678480245
 40
0.135001468
 40
0.2014125877
 40
0.2670411038
 40
0.331858476
 40
0.3958517448
 40
0.4590267982
 40
0.5214101076
 40
0.5830483735
 40
0.6440059088
 40
0.7043600538
 40
0.7641954601
 40
0.8235982859
 40
0.8826512175
 40
0.9414296994
 40
1.0
 40
1.0
 40
1.0
 40
1.0
 10
13.8487066499
 20
7.7669645938
 30
0.0
 10
13.8520652877
 20
7.7604974388
 30
0.0
 10
13.8585858363
 20
7.7475440461
 30
0.0
 10
13.8677627045
 20
7.7279506192
 30
0.0
 10
13.876225311
 20
7.7082966634
 30
0.0
 10
13.8839111974
 20
7.6885944935
 30
0.0
 10
13.8907612274
 20
7.6688602186
 30
0.0
 10
13.8967227357
 20
7.6491139292
 30
0.0
 10
13.9017530457
 20
7.629379139
 30
0.0
 10
13.9058226893
 20
7.6096817957
 30
0.0
 10
13.9089178608
 20
7.5900488155
 30
0.0
 10
13.9110416422
 20
7.570506345
 30
0.0
 10
13.9122136443
 20
7.5510780125
 30
0.0
 10
13.9124682232
 20
7.5317834873
 30
0.0
 10
13.9118516247
 20
7.5126376103
 30
0.0
 10
13.910418539
 20
7.4936499854
 30
0.0
 10
13.9082287339
 20
7.4748256947
 30
0.0
 10
13.9063025739
 20
7.4623665485
 30
0.0
 10
13.9052339626
 20
7.4561671719
 30
0.0
  0
SPLINE
  5
385
100
AcDbEntity
  8
0
100
AcDbSpline
 62
7
  6
CONTINUOUS
 70
0
 71
3
 72
31
 73
27
 74
0
 42
0.0000001
 43
0.0000001
 44
0.0000000001
 40
0.0
 40
0.0
 40
0.0
 40
0.0
 40
0.0574409138
 40
0.1147892738
 40
0.1434666573
 40
0.1721670779
 40
0.2009111514
 40
0.2297223433
 40
0.2586267122
 40
0.2876524225
 40
0.3168295671
 40
0.3461894462
 40
0.3757635756
 40
0.4055830079
 40
0.4356773362
 40
0.4660735411
 40
0.4967952792
 40
0.527862217
 40
0.5592893967
 40
0.5910870639
 40
0.6558016697
 40
0.7220094792
 40
0.789645193
 40
0.8586054862
 40
0.928766739
 40
1.0
 40
1.0
 40
1.0
 40
1.0
 10
13.487994829
 20
7.7919800435
 30
0.0
 10
13.4854008116
 20
7.7861256376
 30
0.0
 10
13.4805169125
 20
7.774290187
 30
0.0
 10
13.4752831622
 20
7.7591659681
 30
0.0
 10
13.4716954096
 20
7.7468879382
 30
0.0
 10
13.4693197584
 20
7.7375837744
 30
0.0
 10
13.4672773582
 20
7.7281854273
 30
0.0
 10
13.4655857724
 20
7.7186943368
 30
0.0
 10
13.4642622816
 20
7.7091130794
 30
0.0
 10
13.4633231739
 20
7.699445383
 30
0.0
 10
13.4627835212
 20
7.6896961784
 30
0.0
 10
13.4626568457
 20
7.6798716122
 30
0.0
 10
13.4629543443
 20
7.6699790236
 30
0.0
 10
13.4636847369
 20
7.6600268166
 30
0.0
 10
13.4648540519
 20
7.6500243247
 30
0.0
 10
13.4664650428
 20
7.6399815796
 30
0.0
 10
13.4685172125
 20
7.6299090367
 30
0.0
 10
13.4710069754
 20
7.6198173891
 30
0.0
 10
13.4739276799
 20
7.6097170794
 30
0.0
 10
13.4784092373
 20
7.5961740952
 30
0.0
 10
13.4850512103
 20
7.5792768937
 30
0.0
 10
13.4944865094
 20
7.5592389528
 30
0.0
 10
13.5052923329
 20
7.5393677624
 30
0.0
 10
13.5173209879
 20
7.5196966607
 30
0.0
 10
13.5304283566
 20
7.5002444684
 30
0.0
 10
13.5397316789
 20
7.4875158064
 30
0.0
 10
13.5445221416
 20
7.4811826217
 30
0.0
  0
SPLINE
  5
386
100
AcDbEntity
  8
0
100
AcDbSpline
 62
7
  6
CONTINUOUS
 70
0
 71
3
 72
47
 73
43
 74
0
 42
0.0000001
 43
0.0000001
 44
0.0000000001
 40
0.0
 40
0.0
 40
0.0
 40
0.0
 40
0.0070629044
 40
0.0144559517
 40
0.0221883778
 40
0.0302673999
 40
0.038698677
 40
0.0474862561
 40
0.0566329678
 40
0.0661405031
 40
0.076009456
 40
0.0862396522
 40
0.0968299667
 40
0.1077786297
 40
0.1190832089
 40
0.1307405889
 40
0.1427472333
 40
0.1550989632
 40
0.180818325
 40
0.207857589
 40
0.2361687834
 40
0.2656985417
 40
0.2963886565
 40
0.328176539
 40
0.3609957232
 40
0.3947762354
 40
0.4294449141
 40
0.4649257283
 40
0.5011401113
 40
0.5380072271
 40
0.5754442484
 40
0.6133666538
 40
0.6516885027
 40
0.6903226404
 40
0.7291809974
 40
0.76817489
 40
0.8072152244
 40
0.8462127348
 40
0.8850784566
 40
0.9237230866
 40
0.9620601175
 40
1.0
 40
1.0
 40
1.0
 40
1.0
 10
13.5569330862
 20
8.3615548088
 30
0.0
 10
13.5559990892
 20
8.3606855305
 30
0.0
 10
13.5541320603
 20
8.3588579156
 30
0.0
 10
13.5513957606
 20
8.3559272209
 30
0.0
 10
13.5486624396
 20
8.3527475122
 30
0.0
 10
13.5459337106
 20
8.3493208132
 30
0.0
 10
13.5432112041
 20
8.3456490934
 30
0.0
 10
13.5404964728
 20
8.3417345886
 30
0.0
 10
13.537791151
 20
8.3375796216
 30
0.0
 10
13.5350968734
 20
8.333186678
 30
0.0
 10
13.5324152094
 20
8.3285584174
 30
0.0
 10
13.5297478403
 20
8.3236976
 30
0.0
 10
13.5270963273
 20
8.3186071811
 30
0.0
 10
13.5244623028
 20
8.3132902279
 30
0.0
 10
13.5218473798
 20
8.3077499551
 30
0.0
 10
13.5192531113
 20
8.3019897332
 30
0.0
 10
13.5166811142
 20
8.2960130335
 30
0.0
 10
13.51323705
 20
8.2876472671
 30
0.0
 10
13.5090071015
 20
8.2766699529
 30
0.0
 10
13.5041103042
 20
8.2628657795
 30
0.0
 10
13.4993386447
 20
8.2482918298
 30
0.0
 10
13.4947038138
 20
8.2329835252
 30
0.0
 10
13.4902171788
 20
8.216977974
 30
0.0
 10
13.4858897302
 20
8.2003140723
 30
0.0
 10
13.4817320718
 20
8.1830323345
 30
0.0
 10
13.4777543878
 20
8.1651747993
 30
0.0
 10
13.4739664225
 20
8.1467849254
 30
0.0
 10
13.4703774527
 20
8.1279074848
 30
0.0
 10
13.4669962556
 20
8.1085884507
 30
0.0
 10
13.4638311011
 20
8.0888748807
 30
0.0
 10
13.4608897297
 20
8.068814801
 30
0.0
 10
13.4581793351
 20
8.0484570826
 30
0.0
 10
13.4557065445
 20
8.0278513274
 30
0.0
 10
13.4534773942
 20
8.0070477494
 30
0.0
 10
13.4514973249
 20
7.9860970473
 30
0.0
 10
13.4497711703
 20
7.9650502763
 30
0.0
 10
13.4483031432
 20
7.9439587297
 30
0.0
 10
13.4470968207
 20
7.9228737875
 30
0.0
 10
13.4461551536
 20
7.9018469228
 30
0.0
 10
13.4454803838
 20
7.8809291607
 30
0.0
 10
13.4450742112
 20
7.8601717711
 30
0.0
 10
13.4449825553
 20
7.8463920201
 30
0.0
 10
13.4449825553
 20
7.8395380978
 30
0.0
  0
SPLINE
  5
387
100
AcDbEntity
  8
0
100
AcDbSpline
 62
7
  6
CONTINUOUS
 70
0
 71
3
 72
23
 73
19
 74
0
 42
0.0000001
 43
0.0000001
 44
0.0000000001
 40
0.0
 40
0.0
 40
0.0
 40
0.0
 40
0.0776335131
 40
0.1508201858
 40
0.2199323752
 40
0.2854359521
 40
0.3478799321
 40
0.4078792609
 40
0.4660880125
 40
0.5231662825
 40
0.5797471957
 40
0.6364077124
 40
0.6936473274
 40
0.7518776728
 40
0.8114219859
 40
0.8725212644
 40
0.9353449765
 40
1.0
 40
1.0
 40
1.0
 40
1.0
 10
13.565682942
 20
8.3696982391
 30
0.0
 10
13.5644354251
 20
8.368537155
 30
0.0
 10
13.562080186
 20
8.3662060933
 30
0.0
 10
13.5588964792
 20
8.36257066
 30
0.0
 10
13.5561701401
 20
8.3589065825
 30
0.0
 10
13.5538988999
 20
8.3552177603
 30
0.0
 10
13.5520774277
 20
8.351508253
 30
0.0
 10
13.5506975147
 20
8.3477827062
 30
0.0
 10
13.5497480159
 20
8.3440461754
 30
0.0
 10
13.5492151817
 20
8.3403038049
 30
0.0
 10
13.5490827897
 20
8.3365604483
 30
0.0
 10
13.5493326853
 20
8.3328201944
 30
0.0
 10
13.5499457636
 20
8.329086154
 30
0.0
 10
13.550902471
 20
8.3253604809
 30
0.0
 10
13.5521834628
 20
8.3216445656
 30
0.0
 10
13.553769994
 20
8.3179392273
 30
0.0
 10
13.5556438569
 20
8.3142451019
 30
0.0
 10
13.5570526963
 20
8.3118252826
 30
0.0
 10
13.5577976279
 20
8.3106171581
 30
0.0
  0
SPLINE
  5
388
100
AcDbEntity
  8
0
100
AcDbSpline
 62
7
  6
CONTINUOUS
 70
0
 71
3
 72
33
 73
29
 74
0
 42
0.0000001
 43
0.0000001
 44
0.0000000001
 40
0.0
 40
0.0
 40
0.0
 40
0.0
 40
0.0162144026
 40
0.0334274578
 40
0.0516718668
 40
0.0709709888
 40
0.091340526
 40
0.1127896432
 40
0.1353219383
 40
0.1589363317
 40
0.1836275029
 40
0.2093866949
 40
0.2362017819
 40
0.2640580405
 40
0.2929379348
 40
0.3228218901
 40
0.3536879434
 40
0.3855124784
 40
0.4182698483
 40
0.4519329949
 40
0.4864731004
 40
0.5218601006
 40
0.5950461582
 40
0.6712264478
 40
0.7501171643
 40
0.8314196072
 40
0.9148213367
 40
1.0
 40
1.0
 40
1.0
 40
1.0
 10
13.4996530705
 20
7.5355981292
 30
0.0
 10
13.4985866983
 20
7.5369092963
 30
0.0
 10
13.496478034
 20
7.5396862408
 30
0.0
 10
13.4934708159
 20
7.5441572912
 30
0.0
 10
13.4905297254
 20
7.5490511695
 30
0.0
 10
13.4876577547
 20
7.5543626789
 30
0.0
 10
13.484857697
 20
7.5600865149
 30
0.0
 10
13.4821323983
 20
7.5662168145
 30
0.0
 10
13.479484633
 20
7.5727472848
 30
0.0
 10
13.4769171791
 20
7.5796711874
 30
0.0
 10
13.4744326763
 20
7.5869813333
 30
0.0
 10
13.4720337869
 20
7.5946701224
 30
0.0
 10
13.4697229781
 20
7.6027295249
 30
0.0
 10
13.4675027573
 20
7.6111511206
 30
0.0
 10
13.4653754026
 20
7.6199260843
 30
0.0
 10
13.4633432398
 20
7.6290452156
 30
0.0
 10
13.461408351
 20
7.6384989381
 30
0.0
 10
13.4595728566
 20
7.6482773194
 30
0.0
 10
13.457838638
 20
7.6583700827
 30
0.0
 10
13.4562075963
 20
7.6687666084
 30
0.0
 10
13.4546813925
 20
7.6794559723
 30
0.0
 10
13.4527670547
 20
7.6942499758
 30
0.0
 10
13.4506581986
 20
7.7133934536
 30
0.0
 10
13.4485958962
 20
7.7370974869
 30
0.0
 10
13.4469834235
 20
7.7616841328
 30
0.0
 10
13.4458277354
 20
7.787049835
 30
0.0
 10
13.445133844
 20
7.8130878231
 30
0.0
 10
13.4449825553
 20
7.8306597443
 30
0.0
 10
13.4449825553
 20
7.8395380978
 30
0.0
  0
SPLINE
  5
389
100
AcDbEntity
  8
0
100
AcDbSpline
 62
7
  6
CONTINUOUS
 70
0
 71
3
 72
9
 73
5
 74
0
 42
0.0000001
 43
0.0000001
 44
0.0000000001
 40
0.0
 40
0.0
 40
0.0
 40
0.0
 40
0.4878923089
 40
1.0
 40
1.0
 40
1.0
 40
1.0
 10
13.5501519562
 20
7.4735071028
 30
0.0
 10
13.549174905
 20
7.4747084386
 30
0.0
 10
13.5472380998
 20
7.4772247373
 30
0.0
 10
13.545423042
 20
7.4798297935
 30
0.0
 10
13.5445221416
 20
7.4811826217
 30
0.0
  0
SPLINE
  5
38A
100
AcDbEntity
  8
0
100
AcDbSpline
 62
7
  6
CONTINUOUS
 70
0
 71
3
 72
66
 73
62
 74
0
 42
0.0000001
 43
0.0000001
 44
0.0000000001
 40
0.0
 40
0.0
 40
0.0
 40
0.0
 40
0.0116737033
 40
0.022701165
 40
0.0330882034
 40
0.0428454302
 40
0.0519891832
 40
0.0605429445
 40
0.0685386565
 40
0.0760187304
 40
0.0830378255
 40
0.0896646364
 40
0.0928581367
 40
0.0959862375
 40
0.0990616278
 40
0.1020977495
 40
0.1051086092
 40
0.1081085976
 40
0.1111122822
 40
0.114134166
 40
0.1171884737
 40
0.1202889498
 40
0.123448659
 40
0.1266798812
 40
0.1333987998
 40
0.1405287864
 40
0.1481348974
 40
0.1562684716
 40
0.1649690788
 40
0.1742664123
 40
0.1841819272
 40
0.1947304921
 40
0.20592134
 40
0.2177592327
 40
0.230245061
 40
0.2433764452
 40
0.257148303
 40
0.2715530229
 40
0.2865809917
 40
0.3022206132
 40
0.318458641
 40
0.3352803274
 40
0.3526694628
 40
0.3706086705
 40
0.3890792875
 40
0.4080616524
 40
0.4275350822
 40
0.4474779395
 40
0.4678677865
 40
0.4886813011
 40
0.5314820093
 40
0.5756808207
 40
0.6210684307
 40
0.6674278649
 40
0.7145359391
 40
0.762164813
 40
0.810083366
 40
0.8580586948
 40
0.9058576868
 40
0.9532477102
 40
1.0
 40
1.0
 40
1.0
 40
1.0
 10
14.0825084227
 20
8.295669073
 30
0.0
 10
14.0815434187
 20
8.2979875903
 30
0.0
 10
14.0795878831
 20
8.3024640877
 30
0.0
 10
14.076478333
 20
8.3088694081
 30
0.0
 10
14.0732798613
 20
8.3147662649
 30
0.0
 10
14.0699963591
 20
8.3201472799
 30
0.0
 10
14.0666315082
 20
8.3250058467
 30
0.0
 10
14.0631889911
 20
8.3293360541
 30
0.0
 10
14.0596721592
 20
8.3331323992
 30
0.0
 10
14.0560840448
 20
8.3363898722
 30
0.0
 10
14.0524281334
 20
8.3391031984
 30
0.0
 10
14.0492883201
 20
8.3409288483
 30
0.0
 10
14.046757469
 20
8.3420964689
 30
0.0
 10
14.0448693289
 20
8.3428229147
 30
0.0
 10
14.0429687769
 20
8.343410255
 30
0.0
 10
14.0410564691
 20
8.343858282
 30
0.0
 10
14.039133142
 20
8.3441667633
 30
0.0
 10
14.0371995389
 20
8.3443354888
 30
0.0
 10
14.0352564394
 20
8.3443643981
 30
0.0
 10
14.0333046163
 20
8.3442535451
 30
0.0
 10
14.0313448249
 20
8.3440029925
 30
0.0
 10
14.0293778282
 20
8.3436128822
 30
0.0
 10
14.0274042726
 20
8.343083474
 30
0.0
 10
14.0247306864
 20
8.3421807018
 30
0.0
 10
14.0213640637
 20
8.3406862494
 30
0.0
 10
14.0173663236
 20
8.3383642191
 30
0.0
 10
14.013361585
 20
8.3354950054
 30
0.0
 10
14.0093540019
 20
8.3320834113
 30
0.0
 10
14.0053473032
 20
8.3281340454
 30
0.0
 10
14.0013457485
 20
8.3236519251
 30
0.0
 10
13.9973537228
 20
8.3186426392
 30
0.0
 10
13.9933759835
 20
8.313112322
 30
0.0
 10
13.9894172824
 20
8.3070678777
 30
0.0
 10
13.9854825807
 20
8.300516839
 30
0.0
 10
13.9815768351
 20
8.2934674653
 30
0.0
 10
13.977705001
 20
8.2859287024
 30
0.0
 10
13.9738721066
 20
8.2779101392
 30
0.0
 10
13.9700830355
 20
8.2694220521
 30
0.0
 10
13.9663427481
 20
8.2604753166
 30
0.0
 10
13.9626560632
 20
8.2510814488
 30
0.0
 10
13.9590277735
 20
8.2412525516
 30
0.0
 10
13.9554626196
 20
8.2310013019
 30
0.0
 10
13.9519651925
 20
8.2203409457
 30
0.0
 10
13.9485400932
 20
8.209285255
 30
0.0
 10
13.9451917323
 20
8.1978485371
 30
0.0
 10
13.9419244913
 20
8.1860455903
 30
0.0
 10
13.9387426177
 20
8.1738916926
 30
0.0
 10
13.9356502315
 20
8.1614025886
 30
0.0
 10
13.9326513729
 20
8.14859444
 30
0.0
 10
13.9287465003
 20
8.1309494631
 30
0.0
 10
13.9241367526
 20
8.1082164799
 30
0.0
 10
13.9190865018
 20
8.0801857385
 30
0.0
 10
13.9144940081
 20
8.0513009795
 30
0.0
 10
13.9103832129
 20
8.0217118874
 30
0.0
 10
13.9067755585
 20
7.9915716695
 30
0.0
 10
13.9036898338
 20
7.9610364777
 30
0.0
 10
13.9011420876
 20
7.9302645156
 30
0.0
 10
13.899145537
 20
7.8994152222
 30
0.0
 10
13.8977105369
 20
7.8686484855
 30
0.0
 10
13.8968444493
 20
7.8381237712
 30
0.0
 10
13.8966476405
 20
7.8178707605
 30
0.0
 10
13.8966476405
 20
7.8078130943
 30
0.0
  0
SPLINE
  5
38B
100
AcDbEntity
  8
0
100
AcDbSpline
 62
7
  6
CONTINUOUS
 70
0
 71
3
 72
16
 73
12
 74
0
 42
0.0000001
 43
0.0000001
 44
0.0000000001
 40
0.0
 40
0.0
 40
0.0
 40
0.0
 40
0.1504820041
 40
0.2917480643
 40
0.4244939849
 40
0.4879688087
 40
0.5496752018
 40
0.6683418057
 40
0.7818820064
 40
0.8918564741
 40
1.0
 40
1.0
 40
1.0
 40
1.0
 10
13.278253096
 20
8.3354096899
 30
0.0
 10
13.2792029572
 20
8.3363271854
 30
0.0
 10
13.2811014457
 20
8.3380486991
 30
0.0
 10
13.2840410277
 20
8.3403428917
 30
0.0
 10
13.2865240508
 20
8.3419654664
 30
0.0
 10
13.2885040259
 20
8.3430642275
 30
0.0
 10
13.2904256968
 20
8.3440075519
 30
0.0
 10
13.2928286378
 20
8.3449606997
 30
0.0
 10
13.2957379038
 20
8.3457347841
 30
0.0
 10
13.2986307398
 20
8.3461213066
 30
0.0
 10
13.3005518228
 20
8.3461191793
 30
0.0
 10
13.3014986089
 20
8.3460535265
 30
0.0
  0
SPLINE
  5
38C
100
AcDbEntity
  8
0
100
AcDbSpline
 62
7
  6
CONTINUOUS
 70
0
 71
3
 72
39
 73
35
 74
0
 42
0.0000001
 43
0.0000001
 44
0.0000000001
 40
0.0
 40
0.0
 40
0.0
 40
0.0
 40
0.0311450358
 40
0.0624431015
 40
0.0938883488
 40
0.125470987
 40
0.1571788833
 40
0.1889972585
 40
0.2209091728
 40
0.2528958412
 40
0.2849370206
 40
0.3170114108
 40
0.3490970703
 40
0.3811718405
 40
0.4132137728
 40
0.4452015525
 40
0.4771149148
 40
0.508935047
 40
0.5406449693
 40
0.5722298884
 40
0.6036775183
 40
0.6349783596
 40
0.6661259323
 40
0.6971169539
 40
0.7279514572
 40
0.75863284
 40
0.7891678413
 40
0.8195664415
 40
0.8498416836
 40
0.8800094166
 40
0.9100879635
 40
0.9400977204
 40
0.9700606957
 40
1.0
 40
1.0
 40
1.0
 40
1.0
 10
10.9170656656
 20
9.3114776559
 30
0.0
 10
10.9259107953
 20
9.3108642441
 30
0.0
 10
10.9436061982
 20
9.3089869832
 30
0.0
 10
10.9699347741
 20
9.3042580831
 30
0.0
 10
10.9959813449
 20
9.2976343415
 30
0.0
 10
11.0216052464
 20
9.2891513353
 30
0.0
 10
11.0466703401
 20
9.2788545646
 30
0.0
 10
11.0710429259
 20
9.2667990889
 30
0.0
 10
11.0945931648
 20
9.2530493358
 30
0.0
 10
11.1171955626
 20
9.237678711
 30
0.0
 10
11.1387296958
 20
9.2207692375
 30
0.0
 10
11.1590808249
 20
9.2024111049
 30
0.0
 10
11.1781405006
 20
9.1827021908
 30
0.0
 10
11.1958071346
 20
9.1617475452
 30
0.0
 10
11.2119865352
 20
9.1396588359
 30
0.0
 10
11.2265924052
 20
9.1165537609
 30
0.0
 10
11.2395467956
 20
9.0925554272
 30
0.0
 10
11.2507805327
 20
9.0677917103
 30
0.0
 10
11.2602335794
 20
9.0423945746
 30
0.0
 10
11.2678553493
 20
9.0164993769
 30
0.0
 10
11.2736049801
 20
8.9902441563
 30
0.0
 10
11.2774515539
 20
8.9637689086
 30
0.0
 10
11.2793742706
 20
8.9372148507
 30
0.0
 10
11.2793625641
 20
8.9107236772
 30
0.0
 10
11.2774161855
 20
8.8844368126
 30
0.0
 10
11.2735452147
 20
8.8584946587
 30
0.0
 10
11.2677700142
 20
8.8330358499
 30
0.0
 10
11.2601211366
 20
8.8081965092
 30
0.0
 10
11.2506391911
 20
8.7841095276
 30
0.0
 10
11.2393745982
 20
8.7609038001
 30
0.0
 10
11.2263875045
 20
8.7387036894
 30
0.0
 10
11.2117468402
 20
8.7176277186
 30
0.0
 10
11.1955323402
 20
8.697790217
 30
0.0
 10
11.183726042
 20
8.6854565184
 30
0.0
 10
11.1775957457
 20
8.6795351037
 30
0.0
  0
SPLINE
  5
38D
100
AcDbEntity
  8
0
100
AcDbSpline
 62
7
  6
CONTINUOUS
 70
0
 71
3
 72
31
 73
27
 74
0
 42
0.0000001
 43
0.0000001
 44
0.0000000001
 40
0.0
 40
0.0
 40
0.0
 40
0.0
 40
0.0309054688
 40
0.061965354
 40
0.0931697798
 40
0.1245101214
 40
0.1559723119
 40
0.1875411386
 40
0.2191995198
 40
0.2509296037
 40
0.3145029321
 40
0.378152221
 40
0.4099771607
 40
0.441773943
 40
0.4735294352
 40
0.5052319387
 40
0.5684163798
 40
0.631280651
 40
0.662586077
 40
0.6937934589
 40
0.7248990657
 40
0.7558999298
 40
0.8175607561
 40
0.8787896485
 40
0.9395949347
 40
1.0
 40
1.0
 40
1.0
 40
1.0
 10
9.9057413319
 20
9.1561383712
 30
0.0
 10
9.9083647993
 20
9.1559564331
 30
0.0
 10
9.9136133905
 20
9.1553980271
 30
0.0
 10
9.921421776
 20
9.1539896523
 30
0.0
 10
9.9291459291
 20
9.1520187691
 30
0.0
 10
9.9367452197
 20
9.1495010021
 30
0.0
 10
9.9441821986
 20
9.14645567
 30
0.0
 10
9.9514218301
 20
9.1429059141
 30
0.0
 10
9.9584326305
 20
9.1388772839
 30
0.0
 10
9.9674408028
 20
9.1329025861
 30
0.0
 10
9.9779907173
 20
9.1243809752
 30
0.0
 10
9.9874563513
 20
9.114663699
 30
0.0
 10
9.9943281414
 20
9.1062875728
 30
0.0
 10
9.9991212396
 20
9.0997331476
 30
0.0
 10
10.0035437649
 20
9.0929358792
 30
0.0
 10
10.0089304147
 20
9.0835977255
 30
0.0
 10
10.0147101468
 20
9.0714538532
 30
0.0
 10
10.0192013022
 20
9.0588141338
 30
0.0
 10
10.0220017981
 20
9.048515931
 30
0.0
 10
10.0237038464
 20
9.0407302913
 30
0.0
 10
10.0250090783
 20
9.0328946625
 30
0.0
 10
10.0262172078
 20
9.022429109
 30
0.0
 10
10.0267385058
 20
9.0093207288
 30
0.0
 10
10.0257720577
 20
8.9936927652
 30
0.0
 10
10.0232147794
 20
8.9783535319
 30
0.0
 10
10.0204414656
 20
8.9683947141
 30
0.0
 10
10.018791447
 20
8.9635268482
 30
0.0
  0
SPLINE
  5
38E
100
AcDbEntity
  8
0
100
AcDbSpline
 62
7
  6
CONTINUOUS
 70
0
 71
3
 72
11
 73
7
 74
0
 42
0.0000001
 43
0.0000001
 44
0.0000000001
 40
0.0
 40
0.0
 40
0.0
 40
0.0
 40
0.2484877766
 40
0.4980102864
 40
0.7485296432
 40
1.0
 40
1.0
 40
1.0
 40
1.0
 10
11.5207694579
 20
6.9863343286
 30
0.0
 10
11.5143286783
 20
6.9867809982
 30
0.0
 10
11.5014443678
 20
6.9880717454
 30
0.0
 10
11.482234408
 20
6.9911796464
 30
0.0
 10
11.4631696194
 20
6.9954495604
 30
0.0
 10
11.4506249463
 20
6.9990519586
 30
0.0
 10
11.444400448
 20
7.001038267
 30
0.0
  0
SPLINE
  5
38F
100
AcDbEntity
  8
0
100
AcDbSpline
 62
7
  6
CONTINUOUS
 70
0
 71
3
 72
30
 73
26
 74
0
 42
0.0000001
 43
0.0000001
 44
0.0000000001
 40
0.0
 40
0.0
 40
0.0
 40
0.0
 40
0.0624249657
 40
0.125434498
 40
0.1889442724
 40
0.2528271713
 40
0.3169275011
 40
0.3810727834
 40
0.4450870568
 40
0.5088044865
 40
0.572082289
 40
0.6035407728
 40
0.6348524197
 40
0.6660107306
 40
0.6970124329
 40
0.7278575745
 40
0.758549545
 40
0.7890950716
 40
0.8195041492
 40
0.8497898383
 40
0.8799679851
 40
0.9100569078
 40
0.9400770184
 40
0.9700503445
 40
1.0
 40
1.0
 40
1.0
 40
1.0
 10
9.9057413319
 20
9.6235776931
 30
0.0
 10
9.9086950916
 20
9.6233728491
 30
0.0
 10
9.9146085704
 20
9.6225257478
 30
0.0
 10
9.9232361437
 20
9.6199985635
 30
0.0
 10
9.9314906167
 20
9.6162629167
 30
0.0
 10
9.9391949448
 20
9.611399131
 30
0.0
 10
9.9461867725
 20
9.6055106084
 30
0.0
 10
9.9523180868
 20
9.59872249
 30
0.0
 10
9.957458969
 20
9.5911780437
 30
0.0
 10
9.9615000476
 20
9.5830381395
 30
0.0
 10
9.9638849572
 20
9.5758826029
 30
0.0
 10
9.9651645994
 20
9.5700383576
 30
0.0
 10
9.9658057259
 20
9.5656256245
 30
0.0
 10
9.966126103
 20
9.561199961
 30
0.0
 10
9.9661241108
 20
9.5567847299
 30
0.0
 10
9.9657996807
 20
9.5524035658
 30
0.0
 10
9.9651544665
 20
9.5480798544
 30
0.0
 10
9.9641918617
 20
9.5438367107
 30
0.0
 10
9.9629169899
 20
9.5396968137
 30
0.0
 10
9.9613366177
 20
9.5356823085
 30
0.0
 10
9.9594591161
 20
9.5318146921
 30
0.0
 10
9.9572945218
 20
9.5281146903
 30
0.0
 10
9.9548543456
 20
9.5246020441
 30
0.0
 10
9.9521518807
 20
9.5212957973
 30
0.0
 10
9.9501841001
 20
9.5192402175
 30
0.0
 10
9.9491623693
 20
9.518253317
 30
0.0
  0
SPLINE
  5
390
100
AcDbEntity
  8
0
100
AcDbSpline
 62
7
  6
CONTINUOUS
 70
0
 71
3
 72
30
 73
26
 74
0
 42
0.0000001
 43
0.0000001
 44
0.0000000001
 40
0.0
 40
0.0
 40
0.0
 40
0.0
 40
0.0624249657
 40
0.125434498
 40
0.1889442724
 40
0.2528271713
 40
0.3169275011
 40
0.3810727834
 40
0.4450870568
 40
0.5088044865
 40
0.572082289
 40
0.6035407728
 40
0.6348524197
 40
0.6660107306
 40
0.6970124329
 40
0.7278575745
 40
0.758549545
 40
0.7890950716
 40
0.8195041492
 40
0.8497898383
 40
0.8799679851
 40
0.9100569078
 40
0.9400770184
 40
0.9700503445
 40
1.0
 40
1.0
 40
1.0
 40
1.0
 10
12.1244731351
 20
6.8134119402
 30
0.0
 10
12.1274268948
 20
6.8132070963
 30
0.0
 10
12.1333403736
 20
6.812359995
 30
0.0
 10
12.1419679469
 20
6.8098328106
 30
0.0
 10
12.15022242
 20
6.8060971638
 30
0.0
 10
12.1579267481
 20
6.8012333781
 30
0.0
 10
12.1649185758
 20
6.7953448555
 30
0.0
 10
12.1710498901
 20
6.7885567371
 30
0.0
 10
12.1761907723
 20
6.7810122908
 30
0.0
 10
12.1802318509
 20
6.7728723866
 30
0.0
 10
12.1826167605
 20
6.76571685
 30
0.0
 10
12.1838964027
 20
6.7598726047
 30
0.0
 10
12.1845375291
 20
6.7554598717
 30
0.0
 10
12.1848579063
 20
6.7510342081
 30
0.0
 10
12.1848559141
 20
6.746618977
 30
0.0
 10
12.1845314839
 20
6.7422378129
 30
0.0
 10
12.1838862698
 20
6.7379141015
 30
0.0
 10
12.182923665
 20
6.7336709579
 30
0.0
 10
12.1816487932
 20
6.7295310608
 30
0.0
 10
12.1800684209
 20
6.7255165557
 30
0.0
 10
12.1781909193
 20
6.7216489392
 30
0.0
 10
12.1760263251
 20
6.7179489374
 30
0.0
 10
12.1735861489
 20
6.7144362913
 30
0.0
 10
12.170883684
 20
6.7111300444
 30
0.0
 10
12.1689159034
 20
6.7090744647
 30
0.0
 10
12.1678941725
 20
6.7080875641
 30
0.0
  0
SPLINE
  5
391
100
AcDbEntity
  8
0
100
AcDbSpline
 62
7
  6
CONTINUOUS
 70
0
 71
3
 72
41
 73
37
 74
0
 42
0.0000001
 43
0.0000001
 44
0.0000000001
 40
0.0
 40
0.0
 40
0.0
 40
0.0
 40
0.0311445478
 40
0.0624424446
 40
0.0938872679
 40
0.125469566
 40
0.1571770992
 40
0.1889951145
 40
0.2209066667
 40
0.2528929719
 40
0.2849337877
 40
0.3170078142
 40
0.3490931102
 40
0.381167517
 40
0.4132090858
 40
0.4451965025
 40
0.4771095029
 40
0.5089292747
 40
0.5406388381
 40
0.5722233999
 40
0.6036706736
 40
0.63497116
 40
0.6661183793
 40
0.6971090497
 40
0.7279432042
 40
0.7586242401
 40
0.7891588962
 40
0.8195571523
 40
0.8498320512
 40
0.8649308901
 40
0.8800050513
 40
0.9100832572
 40
0.940092674
 40
0.9550812744
 40
0.9700610349
 40
1.0
 40
1.0
 40
1.0
 40
1.0
 10
12.8189738279
 20
9.564984327
 30
0.0
 10
12.8239506654
 20
9.5646391821
 30
0.0
 10
12.8339072843
 20
9.5635829021
 30
0.0
 10
12.8487214967
 20
9.560922134
 30
0.0
 10
12.8633770505
 20
9.5571951587
 30
0.0
 10
12.8777947582
 20
9.5524220652
 30
0.0
 10
12.8918980499
 20
9.5466284107
 30
0.0
 10
12.9056116883
 20
9.5398451956
 30
0.0
 10
12.9188626198
 20
9.5321086668
 30
0.0
 10
12.9315802356
 20
9.5234601325
 30
0.0
 10
12.9436967763
 20
9.513945741
 30
0.0
 10
12.9551476799
 20
9.5036162364
 30
0.0
 10
12.9658719245
 20
9.4925266904
 30
0.0
 10
12.9758123491
 20
9.480736211
 30
0.0
 10
12.9849159558
 20
9.468307631
 30
0.0
 10
12.9931341897
 20
9.4553071765
 30
0.0
 10
13.0004231955
 20
9.4418041176
 30
0.0
 10
13.0067440502
 20
9.4278704039
 30
0.0
 10
13.0120629695
 20
9.4135802858
 30
0.0
 10
13.0163514887
 20
9.3990099238
 30
0.0
 10
13.0195866151
 20
9.3842369882
 30
0.0
 10
13.0217509531
 20
9.3693402507
 30
0.0
 10
13.0228328008
 20
9.354399169
 30
0.0
 10
13.0228262187
 20
9.3394934722
 30
0.0
 10
13.0217310614
 20
9.3247027246
 30
0.0
 10
13.0195530135
 20
9.3101059621
 30
0.0
 10
13.0163034671
 20
9.2957810558
 30
0.0
 10
13.0119998478
 20
9.2818050966
 30
0.0
 10
13.0075492165
 20
9.2704993495
 30
0.0
 10
13.0034877127
 20
9.261707414
 30
0.0
 10
12.999104671
 20
9.2531065953
 30
0.0
 10
12.9930189653
 20
9.2427035025
 30
0.0
 10
12.9861505972
 20
9.2328162623
 30
0.0
 10
12.980215257
 20
9.225258746
 30
0.0
 10
12.9739968572
 20
9.2179478468
 30
0.0
 10
12.9690147885
 20
9.2127431423
 30
0.0
 10
12.9655654762
 20
9.2094113594
 30
0.0
  0
SPLINE
  5
392
100
AcDbEntity
  8
0
100
AcDbSpline
 62
7
  6
CONTINUOUS
 70
0
 71
3
 72
41
 73
37
 74
0
 42
0.0000001
 43
0.0000001
 44
0.0000000001
 40
0.0
 40
0.0
 40
0.0
 40
0.0
 40
0.0311445478
 40
0.0624424446
 40
0.0938872679
 40
0.125469566
 40
0.1571770992
 40
0.1889951145
 40
0.2209066667
 40
0.2528929719
 40
0.2849337877
 40
0.3170078142
 40
0.3490931102
 40
0.381167517
 40
0.4132090858
 40
0.4451965025
 40
0.4771095029
 40
0.5089292747
 40
0.5406388381
 40
0.5722233999
 40
0.6036706736
 40
0.63497116
 40
0.6661183793
 40
0.6971090497
 40
0.7279432042
 40
0.7586242401
 40
0.7891588962
 40
0.8195571523
 40
0.8498320512
 40
0.8649308901
 40
0.8800050513
 40
0.9100832572
 40
0.940092674
 40
0.9550812744
 40
0.9700610349
 40
1.0
 40
1.0
 40
1.0
 40
1.0
 10
8.9552702938
 20
9.8329330771
 30
0.0
 10
8.9602471313
 20
9.8325879323
 30
0.0
 10
8.9702037502
 20
9.8315316523
 30
0.0
 10
8.9850179626
 20
9.8288708842
 30
0.0
 10
8.9996735164
 20
9.8251439089
 30
0.0
 10
9.0140912241
 20
9.8203708154
 30
0.0
 10
9.0281945158
 20
9.8145771609
 30
0.0
 10
9.0419081542
 20
9.8077939458
 30
0.0
 10
9.0551590857
 20
9.800057417
 30
0.0
 10
9.0678767015
 20
9.7914088827
 30
0.0
 10
9.0799932422
 20
9.7818944912
 30
0.0
 10
9.0914441458
 20
9.7715649866
 30
0.0
 10
9.1021683904
 20
9.7604754405
 30
0.0
 10
9.112108815
 20
9.7486849611
 30
0.0
 10
9.1212124217
 20
9.7362563812
 30
0.0
 10
9.1294306556
 20
9.7232559267
 30
0.0
 10
9.1367196614
 20
9.7097528678
 30
0.0
 10
9.1430405161
 20
9.6958191541
 30
0.0
 10
9.1483594354
 20
9.681529036
 30
0.0
 10
9.1526479546
 20
9.666958674
 30
0.0
 10
9.155883081
 20
9.6521857384
 30
0.0
 10
9.158047419
 20
9.6372890009
 30
0.0
 10
9.1591292667
 20
9.6223479191
 30
0.0
 10
9.1591226846
 20
9.6074422224
 30
0.0
 10
9.1580275273
 20
9.5926514748
 30
0.0
 10
9.1558494794
 20
9.5780547123
 30
0.0
 10
9.152599933
 20
9.563729806
 30
0.0
 10
9.1482963137
 20
9.5497538468
 30
0.0
 10
9.1438456824
 20
9.5384480996
 30
0.0
 10
9.1397841786
 20
9.5296561642
 30
0.0
 10
9.1354011369
 20
9.5210553454
 30
0.0
 10
9.1293154312
 20
9.5106522526
 30
0.0
 10
9.1224470631
 20
9.5007650125
 30
0.0
 10
9.1165117229
 20
9.4932074961
 30
0.0
 10
9.1102933231
 20
9.485896597
 30
0.0
 10
9.1053112545
 20
9.4806918925
 30
0.0
 10
9.1018619421
 20
9.4773601095
 30
0.0
  0
SPLINE
  5
393
100
AcDbEntity
  8
0
100
AcDbSpline
 62
7
  6
CONTINUOUS
 70
0
 71
3
 72
41
 73
37
 74
0
 42
0.0000001
 43
0.0000001
 44
0.0000000001
 40
0.0
 40
0.0
 40
0.0
 40
0.0
 40
0.0311445478
 40
0.0624424446
 40
0.0938872679
 40
0.125469566
 40
0.1571770992
 40
0.1889951145
 40
0.2209066667
 40
0.2528929719
 40
0.2849337877
 40
0.3170078142
 40
0.3490931102
 40
0.381167517
 40
0.4132090858
 40
0.4451965025
 40
0.4771095029
 40
0.5089292747
 40
0.5406388381
 40
0.5722233999
 40
0.6036706736
 40
0.63497116
 40
0.6661183793
 40
0.6971090497
 40
0.7279432042
 40
0.7586242401
 40
0.7891588962
 40
0.8195571523
 40
0.8498320512
 40
0.8649308901
 40
0.8800050513
 40
0.9100832572
 40
0.940092674
 40
0.9550812744
 40
0.9700610349
 40
1.0
 40
1.0
 40
1.0
 40
1.0
 10
8.9552702938
 20
7.1766368975
 30
0.0
 10
8.9602471313
 20
7.1762917526
 30
0.0
 10
8.9702037502
 20
7.1752354726
 30
0.0
 10
8.9850179626
 20
7.1725747045
 30
0.0
 10
8.9996735164
 20
7.1688477292
 30
0.0
 10
9.0140912241
 20
7.1640746357
 30
0.0
 10
9.0281945158
 20
7.1582809812
 30
0.0
 10
9.0419081542
 20
7.1514977661
 30
0.0
 10
9.0551590857
 20
7.1437612373
 30
0.0
 10
9.0678767015
 20
7.135112703
 30
0.0
 10
9.0799932422
 20
7.1255983115
 30
0.0
 10
9.0914441458
 20
7.1152688069
 30
0.0
 10
9.1021683904
 20
7.1041792608
 30
0.0
 10
9.112108815
 20
7.0923887815
 30
0.0
 10
9.1212124217
 20
7.0799602015
 30
0.0
 10
9.1294306556
 20
7.066959747
 30
0.0
 10
9.1367196614
 20
7.0534566881
 30
0.0
 10
9.1430405161
 20
7.0395229744
 30
0.0
 10
9.1483594354
 20
7.0252328563
 30
0.0
 10
9.1526479546
 20
7.0106624943
 30
0.0
 10
9.155883081
 20
6.9958895587
 30
0.0
 10
9.158047419
 20
6.9809928212
 30
0.0
 10
9.1591292667
 20
6.9660517395
 30
0.0
 10
9.1591226846
 20
6.9511460427
 30
0.0
 10
9.1580275273
 20
6.9363552951
 30
0.0
 10
9.1558494794
 20
6.9217585326
 30
0.0
 10
9.152599933
 20
6.9074336263
 30
0.0
 10
9.1482963137
 20
6.8934576671
 30
0.0
 10
9.1438456824
 20
6.8821519199
 30
0.0
 10
9.1397841786
 20
6.8733599845
 30
0.0
 10
9.1354011369
 20
6.8647591658
 30
0.0
 10
9.1293154312
 20
6.854356073
 30
0.0
 10
9.1224470631
 20
6.8444688328
 30
0.0
 10
9.1165117229
 20
6.8369113164
 30
0.0
 10
9.1102933231
 20
6.8296004173
 30
0.0
 10
9.1053112545
 20
6.8243957128
 30
0.0
 10
9.1018619421
 20
6.8210639299
 30
0.0
  0
SPLINE
  5
394
100
AcDbEntity
  8
0
100
AcDbSpline
 62
7
  6
CONTINUOUS
 70
0
 71
3
 72
41
 73
37
 74
0
 42
0.0000001
 43
0.0000001
 44
0.0000000001
 40
0.0
 40
0.0
 40
0.0
 40
0.0
 40
0.0311445478
 40
0.0624424446
 40
0.0938872679
 40
0.125469566
 40
0.1571770992
 40
0.1889951145
 40
0.2209066667
 40
0.2528929719
 40
0.2849337877
 40
0.3170078142
 40
0.3490931102
 40
0.381167517
 40
0.4132090858
 40
0.4451965025
 40
0.4771095029
 40
0.5089292747
 40
0.5406388381
 40
0.5722233999
 40
0.6036706736
 40
0.63497116
 40
0.6661183793
 40
0.6971090497
 40
0.7279432042
 40
0.7586242401
 40
0.7891588962
 40
0.8195571523
 40
0.8498320512
 40
0.8649308901
 40
0.8800050513
 40
0.9100832572
 40
0.940092674
 40
0.9550812744
 40
0.9700610349
 40
1.0
 40
1.0
 40
1.0
 40
1.0
 10
12.8189738279
 20
6.9086881473
 30
0.0
 10
12.8239506654
 20
6.9083430024
 30
0.0
 10
12.8339072843
 20
6.9072867225
 30
0.0
 10
12.8487214967
 20
6.9046259543
 30
0.0
 10
12.8633770505
 20
6.900898979
 30
0.0
 10
12.8777947582
 20
6.8961258855
 30
0.0
 10
12.8918980499
 20
6.8903322311
 30
0.0
 10
12.9056116883
 20
6.8835490159
 30
0.0
 10
12.9188626198
 20
6.8758124871
 30
0.0
 10
12.9315802356
 20
6.8671639528
 30
0.0
 10
12.9436967763
 20
6.8576495613
 30
0.0
 10
12.9551476799
 20
6.8473200568
 30
0.0
 10
12.9658719245
 20
6.8362305107
 30
0.0
 10
12.9758123491
 20
6.8244400313
 30
0.0
 10
12.9849159558
 20
6.8120114513
 30
0.0
 10
12.9931341897
 20
6.7990109968
 30
0.0
 10
13.0004231955
 20
6.7855079379
 30
0.0
 10
13.0067440502
 20
6.7715742242
 30
0.0
 10
13.0120629695
 20
6.7572841061
 30
0.0
 10
13.0163514887
 20
6.7427137441
 30
0.0
 10
13.0195866151
 20
6.7279408085
 30
0.0
 10
13.0217509531
 20
6.713044071
 30
0.0
 10
13.0228328008
 20
6.6981029893
 30
0.0
 10
13.0228262187
 20
6.6831972926
 30
0.0
 10
13.0217310614
 20
6.668406545
 30
0.0
 10
13.0195530135
 20
6.6538097825
 30
0.0
 10
13.0163034671
 20
6.6394848761
 30
0.0
 10
13.0119998478
 20
6.6255089169
 30
0.0
 10
13.0075492165
 20
6.6142031698
 30
0.0
 10
13.0034877127
 20
6.6054112344
 30
0.0
 10
12.999104671
 20
6.5968104156
 30
0.0
 10
12.9930189653
 20
6.5864073228
 30
0.0
 10
12.9861505972
 20
6.5765200826
 30
0.0
 10
12.980215257
 20
6.5689625663
 30
0.0
 10
12.9739968572
 20
6.5616516671
 30
0.0
 10
12.9690147885
 20
6.5564469626
 30
0.0
 10
12.9655654762
 20
6.5531151797
 30
0.0
  0
SPLINE
  5
395
100
AcDbEntity
  8
0
100
AcDbSpline
 62
7
  6
CONTINUOUS
 70
0
 71
3
 72
40
 73
36
 74
0
 42
0.0000001
 43
0.0000001
 44
0.0000000001
 40
0.0
 40
0.0
 40
0.0
 40
0.0
 40
0.0311444623
 40
0.0624429464
 40
0.0938877347
 40
0.1254702907
 40
0.1571779705
 40
0.188996169
 40
0.2209078941
 40
0.2528943766
 40
0.2849353707
 40
0.3170095775
 40
0.3490950548
 40
0.3811696427
 40
0.4132113916
 40
0.4451989867
 40
0.4771121643
 40
0.5089321125
 40
0.5406418522
 40
0.5722265907
 40
0.603674042
 40
0.6349747068
 40
0.6661221049
 40
0.6971129533
 40
0.727947284
 40
0.7586284939
 40
0.7891633219
 40
0.8195617482
 40
0.8498368162
 40
0.8800043756
 40
0.9100827498
 40
0.9400923353
 40
0.9550810224
 40
0.9700608656
 40
1.0
 40
1.0
 40
1.0
 40
1.0
 10
11.5207694579
 20
9.6477706555
 30
0.0
 10
11.5240833879
 20
9.6475408336
 30
0.0
 10
11.5307132776
 20
9.646837466
 30
0.0
 10
11.5405777089
 20
9.6450657551
 30
0.0
 10
11.5503365145
 20
9.6425840107
 30
0.0
 10
11.5599369121
 20
9.6394057446
 30
0.0
 10
11.5693279606
 20
9.6355478766
 30
0.0
 10
11.5784595464
 20
9.631031104
 30
0.0
 10
11.5872830283
 20
9.6258795371
 30
0.0
 10
11.5957513901
 20
9.6201206917
 30
0.0
 10
11.6038195116
 20
9.613785292
 30
0.0
 10
11.6114444022
 20
9.6069071274
 30
0.0
 10
11.618585427
 20
9.5995228672
 30
0.0
 10
11.6252045226
 20
9.5916718698
 30
0.0
 10
11.6312664004
 20
9.5833959758
 30
0.0
 10
11.6367387298
 20
9.5747392845
 30
0.0
 10
11.6415923097
 20
9.5657479218
 30
0.0
 10
11.6458012232
 20
9.556469797
 30
0.0
 10
11.6493429745
 20
9.5469543513
 30
0.0
 10
11.6521986097
 20
9.5372522976
 30
0.0
 10
11.6543528179
 20
9.5274153541
 30
0.0
 10
11.655794015
 20
9.5174959722
 30
0.0
 10
11.6565144074
 20
9.5075470615
 30
0.0
 10
11.6565100373
 20
9.4976217102
 30
0.0
 10
11.6557808102
 20
9.4877729055
 30
0.0
 10
11.6543305024
 20
9.4780532513
 30
0.0
 10
11.6521667438
 20
9.4685146907
 30
0.0
 10
11.6493009787
 20
9.4592082195
 30
0.0
 10
11.645748436
 20
9.4501836443
 30
0.0
 10
11.6415279589
 20
9.4414891928
 30
0.0
 10
11.6366622657
 20
9.433171695
 30
0.0
 10
11.6320887073
 20
9.4265878331
 30
0.0
 10
11.6281365362
 20
9.42155547
 30
0.0
 10
11.6239958525
 20
9.416687307
 30
0.0
 10
11.6206784266
 20
9.4132216068
 30
0.0
 10
11.6183816137
 20
9.4110030494
 30
0.0
  0
SPLINE
  5
396
100
AcDbEntity
  8
0
100
AcDbSpline
 62
7
  6
CONTINUOUS
 70
0
 71
3
 72
40
 73
36
 74
0
 42
0.0000001
 43
0.0000001
 44
0.0000000001
 40
0.0
 40
0.0
 40
0.0
 40
0.0
 40
0.0311444623
 40
0.0624429464
 40
0.0938877347
 40
0.1254702907
 40
0.1571779705
 40
0.188996169
 40
0.2209078941
 40
0.2528943766
 40
0.2849353707
 40
0.3170095775
 40
0.3490950548
 40
0.3811696427
 40
0.4132113916
 40
0.4451989867
 40
0.4771121643
 40
0.5089321125
 40
0.5406418522
 40
0.5722265907
 40
0.603674042
 40
0.6349747068
 40
0.6661221049
 40
0.6971129533
 40
0.727947284
 40
0.7586284939
 40
0.7891633219
 40
0.8195617482
 40
0.8498368162
 40
0.8800043756
 40
0.9100827498
 40
0.9400923353
 40
0.9550810224
 40
0.9700608656
 40
1.0
 40
1.0
 40
1.0
 40
1.0
 10
10.9170656656
 20
6.9116348559
 30
0.0
 10
10.9203795956
 20
6.9114050341
 30
0.0
 10
10.9270094852
 20
6.9107016664
 30
0.0
 10
10.9368739166
 20
6.9089299555
 30
0.0
 10
10.9466327222
 20
6.9064482111
 30
0.0
 10
10.9562331197
 20
6.903269945
 30
0.0
 10
10.9656241682
 20
6.899412077
 30
0.0
 10
10.974755754
 20
6.8948953044
 30
0.0
 10
10.9835792359
 20
6.8897437375
 30
0.0
 10
10.9920475977
 20
6.8839848921
 30
0.0
 10
11.0001157193
 20
6.8776494924
 30
0.0
 10
11.0077406098
 20
6.8707713278
 30
0.0
 10
11.0148816347
 20
6.8633870676
 30
0.0
 10
11.0215007303
 20
6.8555360702
 30
0.0
 10
11.027562608
 20
6.8472601762
 30
0.0
 10
11.0330349374
 20
6.838603485
 30
0.0
 10
11.0378885174
 20
6.8296121222
 30
0.0
 10
11.0420974308
 20
6.8203339974
 30
0.0
 10
11.0456391821
 20
6.8108185517
 30
0.0
 10
11.0484948173
 20
6.801116498
 30
0.0
 10
11.0506490256
 20
6.7912795545
 30
0.0
 10
11.0520902226
 20
6.7813601727
 30
0.0
 10
11.0528106151
 20
6.7714112619
 30
0.0
 10
11.0528062449
 20
6.7614859106
 30
0.0
 10
11.0520770179
 20
6.7516371059
 30
0.0
 10
11.05062671
 20
6.7419174517
 30
0.0
 10
11.0484629515
 20
6.7323788911
 30
0.0
 10
11.0455971863
 20
6.7230724199
 30
0.0
 10
11.0420446437
 20
6.7140478447
 30
0.0
 10
11.0378241665
 20
6.7053533932
 30
0.0
 10
11.0329584733
 20
6.6970358954
 30
0.0
 10
11.0283849149
 20
6.6904520335
 30
0.0
 10
11.0244327439
 20
6.6854196704
 30
0.0
 10
11.0202920601
 20
6.6805515075
 30
0.0
 10
11.0169746342
 20
6.6770858072
 30
0.0
 10
11.0146778214
 20
6.6748672498
 30
0.0
  0
SPLINE
  5
397
100
AcDbEntity
  8
0
100
AcDbSpline
 62
7
  6
CONTINUOUS
 70
0
 71
3
 72
39
 73
35
 74
0
 42
0.0000001
 43
0.0000001
 44
0.0000000001
 40
0.0
 40
0.0
 40
0.0
 40
0.0
 40
0.0311450358
 40
0.0624431015
 40
0.0938883488
 40
0.125470987
 40
0.1571788833
 40
0.1889972585
 40
0.2209091728
 40
0.2528958412
 40
0.2849370206
 40
0.3170114108
 40
0.3490970703
 40
0.3811718405
 40
0.4132137728
 40
0.4452015525
 40
0.4771149148
 40
0.508935047
 40
0.5406449693
 40
0.5722298884
 40
0.6036775183
 40
0.6349783596
 40
0.6661259323
 40
0.6971169539
 40
0.7279514572
 40
0.75863284
 40
0.7891678413
 40
0.8195664415
 40
0.8498416836
 40
0.8800094166
 40
0.9100879635
 40
0.9400977204
 40
0.9700606957
 40
1.0
 40
1.0
 40
1.0
 40
1.0
 10
12.1244731351
 20
9.2277436635
 30
0.0
 10
12.1333182649
 20
9.2271302517
 30
0.0
 10
12.1510136678
 20
9.2252529908
 30
0.0
 10
12.1773422436
 20
9.2205240907
 30
0.0
 10
12.2033888144
 20
9.2139003491
 30
0.0
 10
12.2290127159
 20
9.2054173429
 30
0.0
 10
12.2540778096
 20
9.1951205721
 30
0.0
 10
12.2784503954
 20
9.1830650964
 30
0.0
 10
12.3020006344
 20
9.1693153434
 30
0.0
 10
12.3246030321
 20
9.1539447185
 30
0.0
 10
12.3461371654
 20
9.1370352451
 30
0.0
 10
12.3664882945
 20
9.1186771125
 30
0.0
 10
12.3855479702
 20
9.0989681984
 30
0.0
 10
12.4032146041
 20
9.0780135528
 30
0.0
 10
12.4193940048
 20
9.0559248435
 30
0.0
 10
12.4339998748
 20
9.0328197685
 30
0.0
 10
12.4469542652
 20
9.0088214348
 30
0.0
 10
12.4581880022
 20
8.9840577179
 30
0.0
 10
12.4676410489
 20
8.9586605822
 30
0.0
 10
12.4752628189
 20
8.9327653845
 30
0.0
 10
12.4810124496
 20
8.9065101638
 30
0.0
 10
12.4848590235
 20
8.8800349161
 30
0.0
 10
12.4867817401
 20
8.8534808583
 30
0.0
 10
12.4867700337
 20
8.8269896848
 30
0.0
 10
12.484823655
 20
8.8007028202
 30
0.0
 10
12.4809526843
 20
8.7747606663
 30
0.0
 10
12.4751774838
 20
8.7493018575
 30
0.0
 10
12.4675286061
 20
8.7244625168
 30
0.0
 10
12.4580466606
 20
8.7003755352
 30
0.0
 10
12.4467820677
 20
8.6771698077
 30
0.0
 10
12.433794974
 20
8.654969697
 30
0.0
 10
12.4191543097
 20
8.6338937261
 30
0.0
 10
12.4029398097
 20
8.6140562246
 30
0.0
 10
12.3911335116
 20
8.601722526
 30
0.0
 10
12.3850032153
 20
8.5958011113
 30
0.0
  0
SPLINE
  5
398
100
AcDbEntity
  8
0
100
AcDbSpline
 62
7
  6
CONTINUOUS
 70
0
 71
3
 72
39
 73
35
 74
0
 42
0.0000001
 43
0.0000001
 44
0.0000000001
 40
0.0
 40
0.0
 40
0.0
 40
0.0
 40
0.0312475248
 40
0.0626613402
 40
0.0942339998
 40
0.1259531817
 40
0.1578034832
 40
0.1897663427
 40
0.2218206157
 40
0.253943096
 40
0.2861090736
 40
0.3182929153
 40
0.350468654
 40
0.382610574
 40
0.4146937857
 40
0.4466947834
 40
0.4785919753
 40
0.5103661743
 40
0.5420010463
 40
0.5734835075
 40
0.6048040655
 40
0.6359570849
 40
0.6669409753
 40
0.6977582951
 40
0.7284157606
 40
0.7589241507
 40
0.7892981025
 40
0.819555799
 40
0.8497185491
 40
0.8798102658
 40
0.9098568529
 40
0.9398855195
 40
0.9699240426
 40
1.0
 40
1.0
 40
1.0
 40
1.0
 10
10.313362043
 20
7.7860646288
 30
0.0
 10
10.3229413088
 20
7.7854003045
 30
0.0
 10
10.3421063306
 20
7.7833055352
 30
0.0
 10
10.370586129
 20
7.7779143733
 30
0.0
 10
10.3987053778
 20
7.7703001421
 30
0.0
 10
10.4262850524
 20
7.76051191
 30
0.0
 10
10.4531527118
 20
7.7486125548
 30
0.0
 10
10.4791400684
 20
7.734678291
 30
0.0
 10
10.5040849941
 20
7.7187980892
 30
0.0
 10
10.5278322665
 20
7.7010729808
 30
0.0
 10
10.5502345856
 20
7.6816153198
 30
0.0
 10
10.5711534661
 20
7.6605480264
 30
0.0
 10
10.5904600474
 20
7.6380037204
 30
0.0
 10
10.6080357743
 20
7.6141237889
 30
0.0
 10
10.6237730388
 20
7.5890574669
 30
0.0
 10
10.6375757509
 20
7.5629608968
 30
0.0
 10
10.6493598707
 20
7.5359961784
 30
0.0
 10
10.6590537544
 20
7.5083303524
 30
0.0
 10
10.6665985036
 20
7.4801344285
 30
0.0
 10
10.6719482278
 20
7.4515824031
 30
0.0
 10
10.6750703307
 20
7.4228502898
 30
0.0
 10
10.6759456158
 20
7.3941151194
 30
0.0
 10
10.6745683717
 20
7.3655539634
 30
0.0
 10
10.6709464127
 20
7.3373429605
 30
0.0
 10
10.6651011119
 20
7.3096563344
 30
0.0
 10
10.6570673527
 20
7.2826653971
 30
0.0
 10
10.6468933463
 20
7.2565375737
 30
0.0
 10
10.6346404515
 20
7.2314354134
 30
0.0
 10
10.620382934
 20
7.2075156169
 30
0.0
 10
10.6042076269
 20
7.1849279647
 30
0.0
 10
10.5862136917
 20
7.1638145354
 30
0.0
 10
10.5665111787
 20
7.1443081498
 30
0.0
 10
10.5452239124
 20
7.1265337142
 30
0.0
 10
10.5300724117
 20
7.1159202268
 30
0.0
 10
10.5222858464
 20
7.1109414048
 30
0.0
  0
SPLINE
  5
399
100
AcDbEntity
  8
0
100
AcDbSpline
 62
7
  6
CONTINUOUS
 70
0
 71
3
 72
39
 73
35
 74
0
 42
0.0000001
 43
0.0000001
 44
0.0000000001
 40
0.0
 40
0.0
 40
0.0
 40
0.0
 40
0.0311445376
 40
0.062443355
 40
0.09388824
 40
0.1254709996
 40
0.1571788478
 40
0.1889972257
 40
0.2209091305
 40
0.2528957945
 40
0.2849369709
 40
0.3170113586
 40
0.3490970145
 40
0.3811717799
 40
0.4132137068
 40
0.4452014824
 40
0.4771148435
 40
0.5089349783
 40
0.5406449062
 40
0.5722298317
 40
0.6036774666
 40
0.6349783114
 40
0.6661258871
 40
0.6971169127
 40
0.7279514223
 40
0.7586328137
 40
0.7891678252
 40
0.8195664354
 40
0.8498416851
 40
0.8800094226
 40
0.9100879711
 40
0.9400977272
 40
0.9700606997
 40
1.0
 40
1.0
 40
1.0
 40
1.0
 10
9.4681768403
 20
7.5409600234
 30
0.0
 10
9.4711251603
 20
7.5407555567
 30
0.0
 10
9.4770236296
 20
7.5401297808
 30
0.0
 10
9.4857997937
 20
7.5385535413
 30
0.0
 10
9.4944819925
 20
7.5363455791
 30
0.0
 10
9.5030232493
 20
7.5335179599
 30
0.0
 10
9.511378259
 20
7.5300857059
 30
0.0
 10
9.5195024314
 20
7.5260672458
 30
0.0
 10
9.5273524925
 20
7.5214840226
 30
0.0
 10
9.5348866121
 20
7.5163605167
 30
0.0
 10
9.5420646456
 20
7.5107240602
 30
0.0
 10
9.5488483443
 20
7.5046047153
 30
0.0
 10
9.5552015604
 20
7.4980351105
 30
0.0
 10
9.5610904326
 20
7.4910502637
 30
0.0
 10
9.5664835658
 20
7.4836873983
 30
0.0
 10
9.5713521961
 20
7.4759857469
 30
0.0
 10
9.575670343
 20
7.4679863448
 30
0.0
 10
9.5794149466
 20
7.4597318148
 30
0.0
 10
9.5825659904
 20
7.4512661427
 30
0.0
 10
9.5851066068
 20
7.442634446
 30
0.0
 10
9.5870231762
 20
7.4338827393
 30
0.0
 10
9.5883053966
 20
7.4250576887
 30
0.0
 10
9.5889463377
 20
7.4162063662
 30
0.0
 10
9.5889424812
 20
7.4073760022
 30
0.0
 10
9.5882937435
 20
7.3986137364
 30
0.0
 10
9.5870034809
 20
7.3899663686
 30
0.0
 10
9.5850784773
 20
7.3814801104
 30
0.0
 10
9.5825289131
 20
7.3732003372
 30
0.0
 10
9.5793683219
 20
7.3651713481
 30
0.0
 10
9.5756135157
 20
7.3574361064
 30
0.0
 10
9.5712845471
 20
7.3500360645
 30
0.0
 10
9.5664043962
 20
7.3430107251
 30
0.0
 10
9.5609996297
 20
7.3363982075
 30
0.0
 10
9.5570642596
 20
7.3322869397
 30
0.0
 10
9.5550208424
 20
7.330313133
 30
0.0
  0
SPLINE
  5
39A
100
AcDbEntity
  8
0
100
AcDbSpline
 62
7
  6
CONTINUOUS
 70
0
 71
3
 72
14
 73
10
 74
0
 42
0.0000001
 43
0.0000001
 44
0.0000000001
 40
0.0
 40
0.0
 40
0.0
 40
0.0
 40
0.2357685436
 40
0.3589405339
 40
0.4845449091
 40
0.6119427986
 40
0.7406037573
 40
0.8700814732
 40
1.0
 40
1.0
 40
1.0
 40
1.0
 10
10.6337540209
 20
9.1641952212
 30
0.0
 10
10.6278441152
 20
9.1543217397
 30
0.0
 10
10.6194412445
 20
9.138919857
 30
0.0
 10
10.6094848075
 20
9.1174622558
 30
0.0
 10
10.602541234
 20
9.100457962
 30
0.0
 10
10.5963566523
 20
9.0828786179
 30
0.0
 10
10.5910387888
 20
9.0648195445
 30
0.0
 10
10.5866808746
 20
9.0463785228
 30
0.0
 10
10.5844698646
 20
9.0339043186
 30
0.0
 10
10.583547165
 20
9.0276309259
 30
0.0
  0
SPLINE
  5
39B
100
AcDbEntity
  8
0
100
AcDbSpline
 62
7
  6
CONTINUOUS
 70
0
 71
3
 72
27
 73
23
 74
0
 42
0.0000001
 43
0.0000001
 44
0.0000000001
 40
0.0
 40
0.0
 40
0.0
 40
0.0
 40
0.0688121723
 40
0.1374936915
 40
0.2058715216
 40
0.2737882565
 40
0.3411013574
 40
0.4076785087
 40
0.4733940215
 40
0.5381240562
 40
0.6017405773
 40
0.6330947765
 40
0.6641166081
 40
0.7250643773
 40
0.7844023887
 40
0.8134012813
 40
0.8419035257
 40
0.8972449951
 40
0.9240064479
 40
0.9500897581
 40
0.9754412687
 40
1.0
 40
1.0
 40
1.0
 40
1.0
 10
10.583547165
 20
9.0276309259
 30
0.0
 10
10.5824903867
 20
9.020445938
 30
0.0
 10
10.5808616976
 20
9.0060133332
 30
0.0
 10
10.5799403097
 20
8.9842880338
 30
0.0
 10
10.5805904488
 20
8.9626453219
 30
0.0
 10
10.5828371843
 20
8.9412542371
 30
0.0
 10
10.5866781654
 20
8.9202835377
 30
0.0
 10
10.5920837345
 20
8.8999004123
 30
0.0
 10
10.5989975451
 20
8.8802665209
 30
0.0
 10
10.6073366722
 20
8.8615364529
 30
0.0
 10
10.6154253485
 20
8.846726657
 30
0.0
 10
10.6225058207
 20
8.8354677674
 30
0.0
 10
10.629881204
 20
8.8247400242
 30
0.0
 10
10.6397275552
 20
8.8121440539
 30
0.0
 10
10.6504355893
 20
8.8005606882
 30
0.0
 10
10.6593639184
 20
8.792050675
 30
0.0
 10
10.6683257091
 20
8.7842035569
 30
0.0
 10
10.6775908664
 20
8.7770743033
 30
0.0
 10
10.6870866619
 20
8.7707290246
 30
0.0
 10
10.6941507419
 20
8.7664563252
 30
0.0
 10
10.7012006837
 20
8.7626266888
 30
0.0
 10
10.7059466915
 20
8.760335934
 30
0.0
 10
10.7083087624
 20
8.7592689571
 30
0.0
  0
SPLINE
  5
39C
100
AcDbEntity
  8
0
100
AcDbSpline
 62
7
  6
CONTINUOUS
 70
0
 71
3
 72
11
 73
7
 74
0
 42
0.0000001
 43
0.0000001
 44
0.0000000001
 40
0.0
 40
0.0
 40
0.0
 40
0.0
 40
0.2550621138
 40
0.5058255634
 40
0.7536495026
 40
1.0
 40
1.0
 40
1.0
 40
1.0
 10
10.7083087624
 20
8.7592689571
 30
0.0
 10
10.7120790939
 20
8.7575658512
 30
0.0
 10
10.7197245251
 20
8.7545457433
 30
0.0
 10
10.7315092311
 20
8.7512193487
 30
0.0
 10
10.7434369949
 20
8.7491587977
 30
0.0
 10
10.7514534154
 20
8.7486366562
 30
0.0
 10
10.7554489806
 20
8.7485896737
 30
0.0
  0
SPLINE
  5
39D
100
AcDbEntity
  8
0
100
AcDbSpline
 62
7
  6
CONTINUOUS
 70
0
 71
3
 72
41
 73
37
 74
0
 42
0.0000001
 43
0.0000001
 44
0.0000000001
 40
0.0
 40
0.0
 40
0.0
 40
0.0
 40
0.0071626665
 40
0.0146567922
 40
0.0224900003
 40
0.030668562
 40
0.0391975872
 40
0.048080862
 40
0.0573206522
 40
0.0669182435
 40
0.0768739335
 40
0.0871871924
 40
0.097856799
 40
0.1088807011
 40
0.1319796455
 40
0.1564575358
 40
0.182279017
 40
0.2094019974
 40
0.2377784932
 40
0.2673552866
 40
0.2980744788
 40
0.329873988
 40
0.3626879607
 40
0.3964471366
 40
0.4310791754
 40
0.4665089551
 40
0.502658886
 40
0.5394491939
 40
0.57679819
 40
0.6146225315
 40
0.6528374746
 40
0.691357142
 40
0.7689615337
 40
0.8467371347
 40
0.923981719
 40
1.0
 40
1.0
 40
1.0
 40
1.0
 10
8.0182009639
 20
10.0904646662
 30
0.0
 10
8.0170507365
 20
10.0893536318
 30
0.0
 10
8.0147518137
 20
10.087022913
 30
0.0
 10
8.011382339
 20
10.0832982131
 30
0.0
 10
8.0080171466
 20
10.0792693744
 30
0.0
 10
8.0046584047
 20
10.0749390048
 30
0.0
 10
8.0013079567
 20
10.0703096422
 30
0.0
 10
7.9979677764
 20
10.0653839452
 30
0.0
 10
7.9946397409
 20
10.0601648495
 30
0.0
 10
7.9913259029
 20
10.0546554299
 30
0.0
 10
7.9880282145
 20
10.0488589828
 30
0.0
 10
7.9847486299
 20
10.0427789666
 30
0.0
 10
7.9814891292
 20
10.0364189804
 30
0.0
 10
7.97710404
 20
10.0274303102
 30
0.0
 10
7.9716989745
 20
10.0155120545
 30
0.0
 10
7.9654204777
 20
10.0003723236
 30
0.0
 10
7.9592676912
 20
9.9842160766
 30
0.0
 10
7.9532554887
 20
9.9670820169
 30
0.0
 10
7.9473984241
 20
9.9490110185
 30
0.0
 10
7.9417106834
 20
9.93004637
 30
0.0
 10
7.9362060362
 20
9.9102335504
 30
0.0
 10
7.9308978124
 20
9.8896201283
 30
0.0
 10
7.9257988637
 20
9.8682556261
 30
0.0
 10
7.9209215334
 20
9.8461913976
 30
0.0
 10
7.9162776268
 20
9.8234805043
 30
0.0
 10
7.9118783711
 20
9.800177586
 30
0.0
 10
7.9077344008
 20
9.7763387208
 30
0.0
 10
7.9038557324
 20
9.7520212844
 30
0.0
 10
7.9002517362
 20
9.7272838071
 30
0.0
 10
7.8969311323
 20
9.7021858524
 30
0.0
 10
7.8939019001
 20
9.6767878037
 30
0.0
 10
7.8902524562
 20
9.6425218978
 30
0.0
 10
7.886471532
 20
9.5993909512
 30
0.0
 10
7.8832024957
 20
9.5475511873
 30
0.0
 10
7.8812220238
 20
9.4960007054
 30
0.0
 10
7.8807681644
 20
9.4617805682
 30
0.0
 10
7.8807681644
 20
9.4448081237
 30
0.0
  0
SPLINE
  5
39E
100
AcDbEntity
  8
0
100
AcDbSpline
 62
7
  6
CONTINUOUS
 70
0
 71
3
 72
32
 73
28
 74
0
 42
0.0000001
 43
0.0000001
 44
0.0000000001
 40
0.0
 40
0.0
 40
0.0
 40
0.0
 40
0.0851786848
 40
0.1685803226
 40
0.2498827917
 40
0.3287735031
 40
0.4049538093
 40
0.4781399203
 40
0.5480655658
 40
0.5817287479
 40
0.6144861685
 40
0.6463107472
 40
0.67717687
 40
0.7070608521
 40
0.7359408389
 40
0.7637971302
 40
0.7906123426
 40
0.8163715726
 40
0.8410628756
 40
0.8646773075
 40
0.8872097451
 40
0.908658924
 40
0.9290286029
 40
0.948327806
 40
0.9665723337
 40
0.9837854943
 40
1.0
 40
1.0
 40
1.0
 40
1.0
 10
7.8807681644
 20
7.3313622906
 30
0.0
 10
7.8807681644
 20
7.3203602116
 30
0.0
 10
7.8809556402
 20
7.2985850546
 30
0.0
 10
7.8818155113
 20
7.2663187279
 30
0.0
 10
7.8832476329
 20
7.2348854896
 30
0.0
 10
7.8852458163
 20
7.2044176918
 30
0.0
 10
7.8878013783
 20
7.175043462
 30
0.0
 10
7.8909033396
 20
7.146886437
 30
0.0
 10
7.8939698862
 20
7.1242572673
 30
0.0
 10
7.8966993746
 20
7.1068584243
 30
0.0
 10
7.8988484303
 20
7.0943514198
 30
0.0
 10
7.9011229729
 20
7.0822340078
 30
0.0
 10
7.9035206729
 20
7.0705189098
 30
0.0
 10
7.90603894
 20
7.0592184379
 30
0.0
 10
7.9086751327
 20
7.0483444548
 30
0.0
 10
7.9114264508
 20
7.0379083646
 30
0.0
 10
7.9142899721
 20
7.0279210969
 30
0.0
 10
7.9172627033
 20
7.0183930987
 30
0.0
 10
7.9203414602
 20
7.0093343051
 30
0.0
 10
7.9235230796
 20
7.0007541552
 30
0.0
 10
7.9268041511
 20
6.9926615289
 30
0.0
 10
7.9301813697
 20
6.9850648086
 30
0.0
 10
7.9336511698
 20
6.9779717583
 30
0.0
 10
7.9372101336
 20
6.9713896795
 30
0.0
 10
7.9408547141
 20
6.9653251126
 30
0.0
 10
7.944581266
 20
6.9597845266
 30
0.0
 10
7.9471943052
 20
6.956343279
 30
0.0
 10
7.9485157628
 20
6.9547184661
 30
0.0
  0
SPLINE
  5
39F
100
AcDbEntity
  8
0
100
AcDbSpline
 62
7
  6
CONTINUOUS
 70
0
 71
3
 72
63
 73
59
 74
0
 42
0.0000001
 43
0.0000001
 44
0.0000000001
 40
0.0
 40
0.0
 40
0.0
 40
0.0
 40
0.0027164952
 40
0.0054533613
 40
0.0082304887
 40
0.0110668428
 40
0.0139800995
 40
0.0169864619
 40
0.0233316293
 40
0.0302033672
 40
0.0376742674
 40
0.0457966651
 40
0.0546066721
 40
0.0641276102
 40
0.0743728745
 40
0.0853479909
 40
0.0970520649
 40
0.1094790399
 40
0.12261856
 40
0.136456512
 40
0.1509756138
 40
0.166155839
 40
0.1819746316
 40
0.1984072152
 40
0.215426863
 40
0.233005003
 40
0.251111394
 40
0.2697143381
 40
0.2887807566
 40
0.3281646083
 40
0.3689765407
 40
0.410914578
 40
0.4536656319
 40
0.4969087149
 40
0.5403180909
 40
0.5835664389
 40
0.626327978
 40
0.6682816204
 40
0.7091141054
 40
0.7485232854
 40
0.7676040582
 40
0.7862224656
 40
0.8043453529
 40
0.8219409749
 40
0.8389790766
 40
0.8554310025
 40
0.8712699477
 40
0.8864711108
 40
0.9010118466
 40
0.9148720077
 40
0.9280342626
 40
0.9404843906
 40
0.952211848
 40
0.9632104997
 40
0.9734792407
 40
0.9830232396
 40
0.9918561392
 40
1.0
 40
1.0
 40
1.0
 40
1.0
 10
13.2550075832
 20
7.6756636596
 30
0.0
 10
13.2543804798
 20
7.6757071447
 30
0.0
 10
13.2531247821
 20
7.6758512046
 30
0.0
 10
13.2512572138
 20
7.6762366672
 30
0.0
 10
13.249403759
 20
7.6767915082
 30
0.0
 10
13.2475657602
 20
7.6775151755
 30
0.0
 10
13.2457440839
 20
7.6784070064
 30
0.0
 10
13.2432946037
 20
7.6798450893
 30
0.0
 10
13.2402708097
 20
7.6820903901
 30
0.0
 10
13.2367936862
 20
7.6853944906
 30
0.0
 10
13.2334059986
 20
7.6893478308
 30
0.0
 10
13.2301124092
 20
7.6939421439
 30
0.0
 10
13.226917369
 20
7.6991690452
 30
0.0
 10
13.2238261396
 20
7.7050188512
 30
0.0
 10
13.2208442386
 20
7.7114806456
 30
0.0
 10
13.2179773244
 20
7.7185421355
 30
0.0
 10
13.2152309472
 20
7.72618966
 30
0.0
 10
13.2126105607
 20
7.7344082742
 30
0.0
 10
13.2101214514
 20
7.7431817942
 30
0.0
 10
13.2077686253
 20
7.7524928256
 30
0.0
 10
13.2055568471
 20
7.7623228395
 30
0.0
 10
13.2034906347
 20
7.7726522269
 30
0.0
 10
13.2015741795
 20
7.7834603297
 30
0.0
 10
13.1998113685
 20
7.7947255
 30
0.0
 10
13.1982058097
 20
7.8064251575
 30
0.0
 10
13.1967607678
 20
7.8185358292
 30
0.0
 10
13.1954791753
 20
7.8310331927
 30
0.0
 10
13.1943636233
 20
7.8438921719
 30
0.0
 10
13.193087003
 20
7.8616774197
 30
0.0
 10
13.1919345524
 20
7.8846213631
 30
0.0
 10
13.1912540692
 20
7.9128783805
 30
0.0
 10
13.1912677102
 20
7.9419226873
 30
0.0
 10
13.1919756192
 20
7.9715209185
 30
0.0
 10
13.1933723591
 20
8.0014354231
 30
0.0
 10
13.1954467781
 20
8.0314259038
 30
0.0
 10
13.1981822333
 20
8.0612514636
 30
0.0
 10
13.2015566595
 20
8.0906725315
 30
0.0
 10
13.2055427165
 20
8.1194529104
 30
0.0
 10
13.2101081638
 20
8.147361387
 30
0.0
 10
13.2144094425
 20
8.1699421756
 30
0.0
 10
13.218123377
 20
8.1873951606
 30
0.0
 10
13.2209994617
 20
8.1999889163
 30
0.0
 10
13.2239902828
 20
8.2122023975
 30
0.0
 10
13.2270898174
 20
8.2240111006
 30
0.0
 10
13.2302917869
 20
8.2353913215
 30
0.0
 10
13.2335897433
 20
8.2463202268
 30
0.0
 10
13.236977012
 20
8.2567759158
 30
0.0
 10
13.2404467343
 20
8.2667374634
 30
0.0
 10
13.2439919207
 20
8.2761849501
 30
0.0
 10
13.2476054165
 20
8.2850995332
 30
0.0
 10
13.251279923
 20
8.2934634944
 30
0.0
 10
13.2550080781
 20
8.3012602611
 30
0.0
 10
13.2587824433
 20
8.308474478
 30
0.0
 10
13.2625955527
 20
8.3150920701
 30
0.0
 10
13.2664399358
 20
8.3211001877
 30
0.0
 10
13.2703085044
 20
8.3264876057
 30
0.0
 10
13.2741937736
 20
8.3312435821
 30
0.0
 10
13.276897642
 20
8.3341004217
 30
0.0
 10
13.278253096
 20
8.3354096899
 30
0.0
  0
SPLINE
  5
3A0
100
AcDbEntity
  8
0
100
AcDbSpline
 62
7
  6
CONTINUOUS
 70
0
 71
3
 72
11
 73
7
 74
0
 42
0.0000001
 43
0.0000001
 44
0.0000000001
 40
0.0
 40
0.0
 40
0.0
 40
0.0
 40
0.2578306665
 40
0.5090146432
 40
0.7556594634
 40
1.0
 40
1.0
 40
1.0
 40
1.0
 10
13.5085624169
 20
8.379293846
 30
0.0
 10
13.5094694371
 20
8.3795891753
 30
0.0
 10
13.5112864136
 20
8.380095401
 30
0.0
 10
13.5140416471
 20
8.3805930368
 30
0.0
 10
13.5167826175
 20
8.3808167391
 30
0.0
 10
13.5186024048
 20
8.3807826574
 30
0.0
 10
13.5195042186
 20
8.3807201101
 30
0.0
  0
SPLINE
  5
3A1
100
AcDbEntity
  8
0
100
AcDbSpline
 62
7
  6
CONTINUOUS
 70
0
 71
3
 72
59
 73
55
 74
0
 42
0.0000001
 43
0.0000001
 44
0.0000000001
 40
0.0
 40
0.0
 40
0.0
 40
0.0
 40
0.0075208311
 40
0.0156241766
 40
0.0243311007
 40
0.0336549386
 40
0.0436028077
 40
0.0541768317
 40
0.0653749453
 40
0.0771915599
 40
0.08961816
 40
0.10264364
 40
0.1162546046
 40
0.1304357049
 40
0.1451697937
 40
0.1604380695
 40
0.1762203028
 40
0.1924949219
 40
0.2092390877
 40
0.2264288677
 40
0.2440392968
 40
0.2620444227
 40
0.2991300734
 40
0.337463055
 40
0.3768093382
 40
0.4169265582
 40
0.4575661491
 40
0.4984753803
 40
0.5393993789
 40
0.5800831581
 40
0.6202736296
 40
0.6597216473
 40
0.6981840261
 40
0.7354256484
 40
0.7535183302
 40
0.7712224299
 40
0.7885118037
 40
0.8053612647
 40
0.8217466086
 40
0.8376447426
 40
0.8530338123
 40
0.8678932395
 40
0.8822038834
 40
0.8959482262
 40
0.9091104572
 40
0.9216767058
 40
0.9336353451
 40
0.9449771968
 40
0.955695942
 40
0.9657887114
 40
0.9752565152
 40
0.9841051685
 40
0.9923468893
 40
1.0
 40
1.0
 40
1.0
 40
1.0
 10
13.4645252538
 20
7.4997824167
 30
0.0
 10
13.4630512589
 20
7.5015947835
 30
0.0
 10
13.4601470358
 20
7.5054899437
 30
0.0
 10
13.4560600249
 20
7.5118528899
 30
0.0
 10
13.452089713
 20
7.5189383887
 30
0.0
 10
13.4482423939
 20
7.5267348244
 30
0.0
 10
13.4445238603
 20
7.5352300602
 30
0.0
 10
13.44094012
 20
7.5444104897
 30
0.0
 10
13.4374969971
 20
7.5542613119
 30
0.0
 10
13.434200144
 20
7.5647664934
 30
0.0
 10
13.4310550589
 20
7.5759088632
 30
0.0
 10
13.428066996
 20
7.587670123
 30
0.0
 10
13.4252409282
 20
7.6000308914
 30
0.0
 10
13.4225816099
 20
7.6129707662
 30
0.0
 10
13.420093512
 20
7.6264683513
 30
0.0
 10
13.4177807847
 20
7.6405012936
 30
0.0
 10
13.4156473229
 20
7.6550463406
 30
0.0
 10
13.413696722
 20
7.6700793736
 30
0.0
 10
13.4119322303
 20
7.6855754479
 30
0.0
 10
13.4103568267
 20
7.7015088369
 30
0.0
 10
13.4089731418
 20
7.7178531117
 30
0.0
 10
13.4073712914
 20
7.7403789843
 30
0.0
 10
13.4058778119
 20
7.7693627933
 30
0.0
 10
13.4048948228
 20
7.805000185
 30
0.0
 10
13.4047110772
 20
7.8415922376
 30
0.0
 10
13.4053280052
 20
7.8788959144
 30
0.0
 10
13.4067417485
 20
7.9166636259
 30
0.0
 10
13.4089430558
 20
7.9546445933
 30
0.0
 10
13.4119173318
 20
7.9925866237
 30
0.0
 10
13.4156448015
 20
8.0302377829
 30
0.0
 10
13.4201006173
 20
8.0673480785
 30
0.0
 10
13.4252549639
 20
8.1036712309
 30
0.0
 10
13.4310733971
 20
8.1389660116
 30
0.0
 10
13.4364937177
 20
8.1675954783
 30
0.0
 10
13.4411440749
 20
8.189801248
 30
0.0
 10
13.4447389395
 20
8.2058945922
 30
0.0
 10
13.4484683852
 20
8.2215606052
 30
0.0
 10
13.4523262046
 20
8.2367733033
 30
0.0
 10
13.4563059674
 20
8.2515074284
 30
0.0
 10
13.460401043
 20
8.2657385357
 30
0.0
 10
13.4646045745
 20
8.2794430348
 30
0.0
 10
13.4689095598
 20
8.2925982131
 30
0.0
 10
13.4733088277
 20
8.3051822879
 30
0.0
 10
13.477795015
 20
8.317174461
 30
0.0
 10
13.4823606534
 20
8.3285549309
 30
0.0
 10
13.4869981602
 20
8.3393049431
 30
0.0
 10
13.4916998047
 20
8.349406852
 30
0.0
 10
13.496457812
 20
8.3588441273
 30
0.0
 10
13.5012643736
 20
8.3676014016
 30
0.0
 10
13.5061116496
 20
8.3756645393
 30
0.0
 10
13.5109917985
 20
8.3830205756
 30
0.0
 10
13.515897389
 20
8.3896580847
 30
0.0
 10
13.5208205149
 20
8.3955660235
 30
0.0
 10
13.5242329231
 20
8.3991414154
 30
0.0
 10
13.5259427222
 20
8.4007929546
 30
0.0
  0
SPLINE
  5
3A2
100
AcDbEntity
  8
0
100
AcDbSpline
 62
7
  6
CONTINUOUS
 70
0
 71
3
 72
11
 73
7
 74
0
 42
0.0000001
 43
0.0000001
 44
0.0000000001
 40
0.0
 40
0.0
 40
0.0
 40
0.0
 40
0.2577384945
 40
0.508908747
 40
0.7555926623
 40
1.0
 40
1.0
 40
1.0
 40
1.0
 10
13.4493609482
 20
7.5246748567
 30
0.0
 10
13.4502135869
 20
7.5242618409
 30
0.0
 10
13.4519332424
 20
7.5235180831
 30
0.0
 10
13.4545772524
 20
7.5226544556
 30
0.0
 10
13.4572446568
 20
7.5220608598
 30
0.0
 10
13.4590404915
 20
7.5218453305
 30
0.0
 10
13.4599367394
 20
7.5217831692
 30
0.0
  0
SPLINE
  5
3A3
100
AcDbEntity
  8
0
100
AcDbSpline
 62
7
  6
CONTINUOUS
 70
0
 71
3
 72
21
 73
17
 74
0
 42
0.0000001
 43
0.0000001
 44
0.0000000001
 40
0.0
 40
0.0
 40
0.0
 40
0.0
 40
0.0616532317
 40
0.1233294843
 40
0.1850515407
 40
0.2468416642
 40
0.3087213449
 40
0.3707111025
 40
0.432830246
 40
0.4950966374
 40
0.5575265756
 40
0.6201345674
 40
0.6829331401
 40
0.7459332076
 40
0.8725262003
 40
1.0
 40
1.0
 40
1.0
 40
1.0
 10
12.6723821796
 20
9.5129365717
 30
0.0
 10
12.6747500358
 20
9.5152237473
 30
0.0
 10
12.6796107
 20
9.5196724843
 30
0.0
 10
12.6872512698
 20
9.5259453809
 30
0.0
 10
12.6952236079
 20
9.5318036717
 30
0.0
 10
12.7035073921
 20
9.5372322866
 30
0.0
 10
12.7120817918
 20
9.5422176594
 30
0.0
 10
12.7209251646
 20
9.5467472553
 30
0.0
 10
12.7300152596
 20
9.5508096312
 30
0.0
 10
12.7393291566
 20
9.5543945828
 30
0.0
 10
12.7488433941
 20
9.5574931482
 30
0.0
 10
12.7585339447
 20
9.5600975007
 30
0.0
 10
12.7683766853
 20
9.5622011122
 30
0.0
 10
12.7816889014
 20
9.5643344654
 30
0.0
 10
12.7985932996
 20
9.5657204688
 30
0.0
 10
12.8121834164
 20
9.5654552436
 30
0.0
 10
12.8189738279
 20
9.564984327
 30
0.0
  0
SPLINE
  5
3A4
100
AcDbEntity
  8
0
100
AcDbSpline
 62
7
  6
CONTINUOUS
 70
0
 71
3
 72
21
 73
17
 74
0
 42
0.0000001
 43
0.0000001
 44
0.0000000001
 40
0.0
 40
0.0
 40
0.0
 40
0.0
 40
0.0616532317
 40
0.1233294843
 40
0.1850515407
 40
0.2468416642
 40
0.3087213449
 40
0.3707111025
 40
0.432830246
 40
0.4950966374
 40
0.5575265756
 40
0.6201345674
 40
0.6829331401
 40
0.7459332076
 40
0.8725262003
 40
1.0
 40
1.0
 40
1.0
 40
1.0
 10
8.8086786455
 20
9.7808853219
 30
0.0
 10
8.8110465017
 20
9.7831724974
 30
0.0
 10
8.8159071659
 20
9.7876212345
 30
0.0
 10
8.8235477357
 20
9.793894131
 30
0.0
 10
8.8315200739
 20
9.7997524219
 30
0.0
 10
8.839803858
 20
9.8051810367
 30
0.0
 10
8.8483782577
 20
9.8101664096
 30
0.0
 10
8.8572216305
 20
9.8146960054
 30
0.0
 10
8.8663117255
 20
9.8187583814
 30
0.0
 10
8.8756256225
 20
9.822343333
 30
0.0
 10
8.88513986
 20
9.8254418983
 30
0.0
 10
8.8948304106
 20
9.8280462509
 30
0.0
 10
8.9046731512
 20
9.8301498624
 30
0.0
 10
8.9179853673
 20
9.8322832156
 30
0.0
 10
8.9348897655
 20
9.833669219
 30
0.0
 10
8.9484798823
 20
9.8334039938
 30
0.0
 10
8.9552702938
 20
9.8329330771
 30
0.0
  0
SPLINE
  5
3A5
100
AcDbEntity
  8
0
100
AcDbSpline
 62
7
  6
CONTINUOUS
 70
0
 71
3
 72
21
 73
17
 74
0
 42
0.0000001
 43
0.0000001
 44
0.0000000001
 40
0.0
 40
0.0
 40
0.0
 40
0.0
 40
0.0616532317
 40
0.1233294843
 40
0.1850515407
 40
0.2468416642
 40
0.3087213449
 40
0.3707111025
 40
0.432830246
 40
0.4950966374
 40
0.5575265756
 40
0.6201345674
 40
0.6829331401
 40
0.7459332076
 40
0.8725262003
 40
1.0
 40
1.0
 40
1.0
 40
1.0
 10
8.8086786455
 20
7.1245891422
 30
0.0
 10
8.8110465017
 20
7.1268763177
 30
0.0
 10
8.8159071659
 20
7.1313250548
 30
0.0
 10
8.8235477357
 20
7.1375979513
 30
0.0
 10
8.8315200739
 20
7.1434562422
 30
0.0
 10
8.839803858
 20
7.148884857
 30
0.0
 10
8.8483782577
 20
7.1538702299
 30
0.0
 10
8.8572216305
 20
7.1583998258
 30
0.0
 10
8.8663117255
 20
7.1624622017
 30
0.0
 10
8.8756256225
 20
7.1660471533
 30
0.0
 10
8.88513986
 20
7.1691457186
 30
0.0
 10
8.8948304106
 20
7.1717500712
 30
0.0
 10
8.9046731512
 20
7.1738536827
 30
0.0
 10
8.9179853673
 20
7.1759870359
 30
0.0
 10
8.9348897655
 20
7.1773730393
 30
0.0
 10
8.9484798823
 20
7.1771078141
 30
0.0
 10
8.9552702938
 20
7.1766368975
 30
0.0
  0
SPLINE
  5
3A6
100
AcDbEntity
  8
0
100
AcDbSpline
 62
7
  6
CONTINUOUS
 70
0
 71
3
 72
15
 73
11
 74
0
 42
0.0000001
 43
0.0000001
 44
0.0000000001
 40
0.0
 40
0.0
 40
0.0
 40
0.0
 40
0.1232692261
 40
0.2468892312
 40
0.3709474268
 40
0.4955201343
 40
0.6206706295
 40
0.7464481637
 40
0.8728846422
 40
1.0
 40
1.0
 40
1.0
 40
1.0
 10
10.1044381303
 20
7.7339761843
 30
0.0
 10
10.1120183681
 20
7.7388230781
 30
0.0
 10
10.1276064754
 20
7.7479116128
 30
0.0
 10
10.1520569366
 20
7.7596072273
 30
0.0
 10
10.1774658071
 20
7.7693156816
 30
0.0
 10
10.2036806047
 20
7.7769769507
 30
0.0
 10
10.2305461443
 20
7.7825450828
 30
0.0
 10
10.2579030931
 20
7.7859862
 30
0.0
 10
10.2855867236
 20
7.7872798399
 30
0.0
 10
10.3041061928
 20
7.7867065242
 30
0.0
 10
10.313362043
 20
7.7860646288
 30
0.0
  0
SPLINE
  5
3A7
100
AcDbEntity
  8
0
100
AcDbSpline
 62
7
  6
CONTINUOUS
 70
0
 71
3
 72
21
 73
17
 74
0
 42
0.0000001
 43
0.0000001
 44
0.0000000001
 40
0.0
 40
0.0
 40
0.0
 40
0.0
 40
0.0616532317
 40
0.1233294843
 40
0.1850515407
 40
0.2468416642
 40
0.3087213449
 40
0.3707111025
 40
0.432830246
 40
0.4950966374
 40
0.5575265756
 40
0.6201345674
 40
0.6829331401
 40
0.7459332076
 40
0.8725262003
 40
1.0
 40
1.0
 40
1.0
 40
1.0
 10
12.6723821796
 20
6.856640392
 30
0.0
 10
12.6747500358
 20
6.8589275676
 30
0.0
 10
12.6796107
 20
6.8633763046
 30
0.0
 10
12.6872512698
 20
6.8696492012
 30
0.0
 10
12.6952236079
 20
6.875507492
 30
0.0
 10
12.7035073921
 20
6.8809361069
 30
0.0
 10
12.7120817918
 20
6.8859214797
 30
0.0
 10
12.7209251646
 20
6.8904510756
 30
0.0
 10
12.7300152596
 20
6.8945134515
 30
0.0
 10
12.7393291566
 20
6.8980984031
 30
0.0
 10
12.7488433941
 20
6.9011969685
 30
0.0
 10
12.7585339447
 20
6.903801321
 30
0.0
 10
12.7683766853
 20
6.9059049325
 30
0.0
 10
12.7816889014
 20
6.9080382857
 30
0.0
 10
12.7985932996
 20
6.9094242891
 30
0.0
 10
12.8121834164
 20
6.9091590639
 30
0.0
 10
12.8189738279
 20
6.9086881473
 30
0.0
  0
SPLINE
  5
3A8
100
AcDbEntity
  8
0
100
AcDbSpline
 62
7
  6
CONTINUOUS
 70
0
 71
3
 72
15
 73
11
 74
0
 42
0.0000001
 43
0.0000001
 44
0.0000000001
 40
0.0
 40
0.0
 40
0.0
 40
0.0
 40
0.1233171025
 40
0.2468171651
 40
0.3706749783
 40
0.4950495965
 40
0.6200773505
 40
0.7458669441
 40
0.8724936009
 40
1.0
 40
1.0
 40
1.0
 40
1.0
 10
12.0810520977
 20
6.7979955809
 30
0.0
 10
12.0824545955
 20
6.7993502683
 30
0.0
 10
12.0854101397
 20
6.8019126147
 30
0.0
 10
12.0902338183
 20
6.8052609379
 30
0.0
 10
12.0954025515
 20
6.8080835132
 30
0.0
 10
12.1008634155
 20
6.8103513553
 30
0.0
 10
12.106561331
 20
6.8120419399
 30
0.0
 10
12.1124389213
 20
6.8131383719
 30
0.0
 10
12.1184361652
 20
6.8136299478
 30
0.0
 10
12.1224618065
 20
6.8135514263
 30
0.0
 10
12.1244731351
 20
6.8134119402
 30
0.0
  0
SPLINE
  5
3A9
100
AcDbEntity
  8
0
100
AcDbSpline
 62
7
  6
CONTINUOUS
 70
0
 71
3
 72
15
 73
11
 74
0
 42
0.0000001
 43
0.0000001
 44
0.0000000001
 40
0.0
 40
0.0
 40
0.0
 40
0.0
 40
0.1233171025
 40
0.2468171651
 40
0.3706749783
 40
0.4950495965
 40
0.6200773505
 40
0.7458669441
 40
0.8724936009
 40
1.0
 40
1.0
 40
1.0
 40
1.0
 10
9.8623202945
 20
9.6081613337
 30
0.0
 10
9.8637227922
 20
9.6095160211
 30
0.0
 10
9.8666783364
 20
9.6120783675
 30
0.0
 10
9.871502015
 20
9.6154266908
 30
0.0
 10
9.8766707482
 20
9.618249266
 30
0.0
 10
9.8821316122
 20
9.6205171081
 30
0.0
 10
9.8878295277
 20
9.6222076927
 30
0.0
 10
9.893707118
 20
9.6233041247
 30
0.0
 10
9.899704362
 20
9.6237957006
 30
0.0
 10
9.9037300032
 20
9.6237171792
 30
0.0
 10
9.9057413319
 20
9.6235776931
 30
0.0
  0
SPLINE
  5
3AA
100
AcDbEntity
  8
0
100
AcDbSpline
 62
7
  6
CONTINUOUS
 70
0
 71
3
 72
15
 73
11
 74
0
 42
0.0000001
 43
0.0000001
 44
0.0000000001
 40
0.0
 40
0.0
 40
0.0
 40
0.0
 40
0.1233171305
 40
0.2468171932
 40
0.3706749987
 40
0.4950495698
 40
0.6200773368
 40
0.7458670832
 40
0.8724927373
 40
1.0
 40
1.0
 40
1.0
 40
1.0
 10
11.4231573021
 20
9.6131130883
 30
0.0
 10
11.4263101571
 20
9.6161585215
 30
0.0
 10
11.4329542309
 20
9.6219189515
 30
0.0
 10
11.443798001
 20
9.629446287
 30
0.0
 10
11.4554174734
 20
9.6357917315
 30
0.0
 10
11.4676937032
 20
9.6408900885
 30
0.0
 10
11.480502873
 20
9.6446906945
 30
0.0
 10
11.4937159411
 20
9.6471555739
 30
0.0
 10
11.5071980297
 20
9.6482607461
 30
0.0
 10
11.5162478632
 20
9.6480842291
 30
0.0
 10
11.5207694579
 20
9.6477706555
 30
0.0
  0
SPLINE
  5
3AB
100
AcDbEntity
  8
0
100
AcDbSpline
 62
7
  6
CONTINUOUS
 70
0
 71
3
 72
15
 73
11
 74
0
 42
0.0000001
 43
0.0000001
 44
0.0000000001
 40
0.0
 40
0.0
 40
0.0
 40
0.0
 40
0.0705103118
 40
0.1513925839
 40
0.246503336
 40
0.3583713771
 40
0.4886496739
 40
0.6384817417
 40
0.808714212
 40
1.0
 40
1.0
 40
1.0
 40
1.0
 10
11.6443140092
 20
7.6521867216
 30
0.0
 10
11.6443494404
 20
7.6522688242
 30
0.0
 10
11.6444549171
 20
7.6524329502
 30
0.0
 10
11.6446861936
 20
7.6526465693
 30
0.0
 10
11.6449965937
 20
7.6528416345
 30
0.0
 10
11.6453871125
 20
7.6530183875
 30
0.0
 10
11.6458591272
 20
7.6531764095
 30
0.0
 10
11.6464137779
 20
7.6533145359
 30
0.0
 10
11.6470519804
 20
7.6534314878
 30
0.0
 10
11.6475067929
 20
7.6534908881
 30
0.0
 10
11.647747931
 20
7.6535173865
 30
0.0
  0
SPLINE
  5
3AC
100
AcDbEntity
  8
0
100
AcDbSpline
 62
7
  6
CONTINUOUS
 70
0
 71
3
 72
54
 73
50
 74
0
 42
0.0000001
 43
0.0000001
 44
0.0000000001
 40
0.0
 40
0.0
 40
0.0
 40
0.0
 40
0.0159350282
 40
0.031912276
 40
0.047928297
 40
0.0639793452
 40
0.0961621311
 40
0.1284348912
 40
0.1607617063
 40
0.1931064141
 40
0.2254339367
 40
0.2577112027
 40
0.2899080233
 40
0.3219975813
 40
0.3539568492
 40
0.3857668905
 40
0.4174129919
 40
0.4488848312
 40
0.4801765806
 40
0.5112869885
 40
0.5422194821
 40
0.5729822357
 40
0.6035882393
 40
0.6188417018
 40
0.6340630904
 40
0.6492553544
 40
0.664421743
 40
0.6795657759
 40
0.6946912055
 40
0.7098020377
 40
0.7249025034
 40
0.7399969933
 40
0.7550900619
 40
0.7701864003
 40
0.7852907612
 40
0.8004079192
 40
0.8155426483
 40
0.8306996567
 40
0.8458835031
 40
0.861098568
 40
0.8763490007
 40
0.8916386464
 40
0.9069709844
 40
0.9223490752
 40
0.9377755714
 40
0.9532526311
 40
0.9687815713
 40
0.984364333
 40
1.0
 40
1.0
 40
1.0
 40
1.0
 10
11.5971384677
 20
7.6744796255
 30
0.0
 10
11.6021831464
 20
7.672869811
 30
0.0
 10
11.612210978
 20
7.6694056884
 30
0.0
 10
11.6270095307
 20
7.6635030757
 30
0.0
 10
11.6415536196
 20
7.6569033435
 30
0.0
 10
11.6605754193
 20
7.6471933931
 30
0.0
 10
11.6835507655
 20
7.633410168
 30
0.0
 10
11.709577029
 20
7.6144465656
 30
0.0
 10
11.7338840568
 20
7.5932423253
 30
0.0
 10
11.7562877965
 20
7.5700132179
 30
0.0
 10
11.7766316116
 20
7.5449828457
 30
0.0
 10
11.7947820688
 20
7.5183798105
 30
0.0
 10
11.8106282564
 20
7.4904347871
 30
0.0
 10
11.824079392
 20
7.4613782914
 30
0.0
 10
11.8350629211
 20
7.4314393633
 30
0.0
 10
11.8435227438
 20
7.4008448649
 30
0.0
 10
11.8494173713
 20
7.3698191716
 30
0.0
 10
11.8527187392
 20
7.3385844156
 30
0.0
 10
11.8534112668
 20
7.3073608563
 30
0.0
 10
11.8514912631
 20
7.2763676605
 30
0.0
 10
11.8469666389
 20
7.2458229187
 30
0.0
 10
11.8398583622
 20
7.2159466971
 30
0.0
 10
11.8317974943
 20
7.1917556141
 30
0.0
 10
11.8240974273
 20
7.1729691696
 30
0.0
 10
11.8177102223
 20
7.1591973019
 30
0.0
 10
11.8107137182
 20
7.1457575923
 30
0.0
 10
11.8031173094
 20
7.1326771342
 30
0.0
 10
11.7949316587
 20
7.1199834419
 30
0.0
 10
11.7861686784
 20
7.1077037588
 30
0.0
 10
11.7768415194
 20
7.0958652253
 30
0.0
 10
11.7669646342
 20
7.0844947789
 30
0.0
 10
11.7565539544
 20
7.0736189924
 30
0.0
 10
11.7456268535
 20
7.0632640436
 30
0.0
 10
11.7342021763
 20
7.0534556432
 30
0.0
 10
11.7223003592
 20
7.0442188486
 30
0.0
 10
11.7099434634
 20
7.0355779201
 30
0.0
 10
11.6971551314
 20
7.0275562525
 30
0.0
 10
11.6839606116
 20
7.0201762314
 30
0.0
 10
11.6703868193
 20
7.0134589602
 30
0.0
 10
11.6564622467
 20
7.0074241857
 30
0.0
 10
11.6422169058
 20
7.0020901565
 30
0.0
 10
11.6276822781
 20
6.9974734513
 30
0.0
 10
11.6128912589
 20
6.9935887242
 30
0.0
 10
11.5978779938
 20
6.9904486462
 30
0.0
 10
11.5826777244
 20
6.9880637997
 30
0.0
 10
11.5673268051
 20
6.9864425714
 30
0.0
 10
11.5518619588
 20
6.9855907518
 30
0.0
 10
11.5363215995
 20
6.9855120662
 30
0.0
 10
11.5259528366
 20
6.9859748601
 30
0.0
 10
11.5207694579
 20
6.9863343286
 30
0.0
  0
SPLINE
  5
3AD
100
AcDbEntity
  8
0
100
AcDbSpline
 62
7
  6
CONTINUOUS
 70
0
 71
3
 72
15
 73
11
 74
0
 42
0.0000001
 43
0.0000001
 44
0.0000000001
 40
0.0
 40
0.0
 40
0.0
 40
0.0
 40
0.1233171305
 40
0.2468171932
 40
0.3706749987
 40
0.4950495698
 40
0.6200773368
 40
0.7458670832
 40
0.8724927373
 40
1.0
 40
1.0
 40
1.0
 40
1.0
 10
10.8194535098
 20
6.8769772887
 30
0.0
 10
10.8226063648
 20
6.8800227219
 30
0.0
 10
10.8292504386
 20
6.8857831519
 30
0.0
 10
10.8400942086
 20
6.8933104874
 30
0.0
 10
10.851713681
 20
6.8996559319
 30
0.0
 10
10.8639899109
 20
6.9047542889
 30
0.0
 10
10.8767990807
 20
6.9085548949
 30
0.0
 10
10.8900121487
 20
6.9110197743
 30
0.0
 10
10.9034942373
 20
6.9121249465
 30
0.0
 10
10.9125440709
 20
6.9119484295
 30
0.0
 10
10.9170656656
 20
6.9116348559
 30
0.0
  0
SPLINE
  5
3AE
100
AcDbEntity
  8
0
100
AcDbSpline
 62
7
  6
CONTINUOUS
 70
0
 71
3
 72
23
 73
19
 74
0
 42
0.0000001
 43
0.0000001
 44
0.0000000001
 40
0.0
 40
0.0
 40
0.0
 40
0.0
 40
0.0626385333
 40
0.1250694069
 40
0.1873187819
 40
0.249417941
 40
0.3114035105
 40
0.3733175109
 40
0.435207166
 40
0.4971243789
 40
0.5591247737
 40
0.6212662277
 40
0.6836068296
 40
0.7462023374
 40
0.8091031225
 40
0.8723514631
 40
0.9359776587
 40
1.0
 40
1.0
 40
1.0
 40
1.0
 10
9.7926912167
 20
9.0752552125
 30
0.0
 10
9.7936951325
 20
9.0782169531
 30
0.0
 10
9.7958991772
 20
9.0840652694
 30
0.0
 10
9.7997957614
 20
9.0925748069
 30
0.0
 10
9.804272222
 20
9.1007643833
 30
0.0
 10
9.8093207902
 20
9.1085881609
 30
0.0
 10
9.8149311577
 20
9.1159990616
 30
0.0
 10
9.8210894825
 20
9.1229480193
 30
0.0
 10
9.8277776698
 20
9.1293844858
 30
0.0
 10
9.8349725013
 20
9.1352568786
 30
0.0
 10
9.8426447872
 20
9.1405133785
 30
0.0
 10
9.8507585879
 20
9.1451030049
 30
0.0
 10
9.8592706024
 20
9.1489770072
 30
0.0
 10
9.8681298802
 20
9.1520905079
 30
0.0
 10
9.8772778088
 20
9.154404379
 30
0.0
 10
9.886649111
 20
9.1558870218
 30
0.0
 10
9.8961714548
 20
9.156516309
 30
0.0
 10
9.9025526434
 20
9.1563595075
 30
0.0
 10
9.9057413319
 20
9.1561383712
 30
0.0
  0
SPLINE
  5
3AF
100
AcDbEntity
  8
0
100
AcDbSpline
 62
7
  6
CONTINUOUS
 70
0
 71
3
 72
23
 73
19
 74
0
 42
0.0000001
 43
0.0000001
 44
0.0000000001
 40
0.0
 40
0.0
 40
0.0
 40
0.0
 40
0.061648207
 40
0.1233194435
 40
0.1850364781
 40
0.246821566
 40
0.3086962095
 40
0.3706809219
 40
0.4327950039
 40
0.4950563343
 40
0.5574811813
 40
0.6200840763
 40
0.6828775913
 40
0.74587233
 40
0.8090769749
 40
0.8724966936
 40
0.9361387049
 40
1.0
 40
1.0
 40
1.0
 40
1.0
 10
10.6565355855
 20
9.2189757955
 30
0.0
 10
10.6607438593
 20
9.2230406781
 30
0.0
 10
10.6693824604
 20
9.2309472151
 30
0.0
 10
10.6829616562
 20
9.2420957385
 30
0.0
 10
10.6971305316
 20
9.2525073431
 30
0.0
 10
10.7118528857
 20
9.2621553564
 30
0.0
 10
10.7270917331
 20
9.2710156276
 30
0.0
 10
10.7428086359
 20
9.2790658261
 30
0.0
 10
10.7589640045
 20
9.2862856963
 30
0.0
 10
10.7755171335
 20
9.2926570658
 30
0.0
 10
10.792426307
 20
9.2981639549
 30
0.0
 10
10.8096489285
 20
9.3027925384
 30
0.0
 10
10.8271416178
 20
9.3065312083
 30
0.0
 10
10.8448603594
 20
9.3093705832
 30
0.0
 10
10.8627604168
 20
9.3113035112
 30
0.0
 10
10.8807970886
 20
9.3123253411
 30
0.0
 10
10.8989241358
 20
9.3124333423
 30
0.0
 10
10.9110192656
 20
9.3118969752
 30
0.0
 10
10.9170656656
 20
9.3114776559
 30
0.0
  0
SPLINE
  5
3B0
100
AcDbEntity
  8
0
100
AcDbSpline
 62
7
  6
CONTINUOUS
 70
0
 71
3
 72
18
 73
14
 74
0
 42
0.0000001
 43
0.0000001
 44
0.0000000001
 40
0.0
 40
0.0
 40
0.0
 40
0.0
 40
0.1492435137
 40
0.2896566257
 40
0.4219550777
 40
0.485351101
 40
0.547069549
 40
0.6660129848
 40
0.7801156501
 40
0.8358360225
 40
0.8909169124
 40
0.9455668623
 40
1.0
 40
1.0
 40
1.0
 40
1.0
 10
7.9743916564
 20
6.9229027031
 30
0.0
 10
7.9757147493
 20
6.921275903
 30
0.0
 10
7.9783834334
 20
6.9181981818
 30
0.0
 10
7.9825900542
 20
6.914012659
 30
0.0
 10
7.9862078743
 20
6.9109667835
 30
0.0
 10
7.9891341303
 20
6.9088390313
 30
0.0
 10
7.9920047578
 20
6.9069612363
 30
0.0
 10
7.9956424327
 20
6.9049636819
 30
0.0
 10
7.9994084779
 20
6.9034264435
 30
0.0
 10
8.0024340824
 20
6.9025086467
 30
0.0
 10
8.0046983359
 20
6.9019750154
 30
0.0
 10
8.0069742753
 20
6.9015912047
 30
0.0
 10
8.0085002534
 20
6.9014351208
 30
0.0
 10
8.0092632225
 20
6.9013822082
 30
0.0
  0
SPLINE
  5
3B1
100
AcDbEntity
  8
0
100
AcDbSpline
 62
7
  6
CONTINUOUS
 70
0
 71
3
 72
18
 73
14
 74
0
 42
0.0000001
 43
0.0000001
 44
0.0000000001
 40
0.0
 40
0.0
 40
0.0
 40
0.0
 40
0.0544328977
 40
0.1090825819
 40
0.164163178
 40
0.2198832571
 40
0.3339856861
 40
0.4529288702
 40
0.5146466453
 40
0.5780414074
 40
0.7103382159
 40
0.8507568709
 40
1.0
 40
1.0
 40
1.0
 40
1.0
 10
8.477324908
 20
10.5131345084
 30
0.0
 10
8.4765619423
 20
10.5131874207
 30
0.0
 10
8.4750290339
 20
10.5132434745
 30
0.0
 10
8.4727219131
 20
10.5131774969
 30
0.0
 10
8.4704056862
 20
10.5129615271
 30
0.0
 10
8.4672823651
 20
10.5124701746
 30
0.0
 10
8.4633401893
 20
10.511467496
 30
0.0
 10
8.459461616
 20
10.5099912068
 30
0.0
 10
8.4563592862
 20
10.5085276642
 30
0.0
 10
8.4531673712
 20
10.506824251
 30
0.0
 10
8.4491636918
 20
10.5043069314
 30
0.0
 10
8.4444195798
 20
10.5007420671
 30
0.0
 10
8.4413515332
 20
10.4980621582
 30
0.0
 10
8.4398165472
 20
10.4966335752
 30
0.0
  0
SPLINE
  5
3B2
100
AcDbEntity
  8
0
100
AcDbSpline
 62
7
  6
CONTINUOUS
 70
0
 71
3
 72
23
 73
19
 74
0
 42
0.0000001
 43
0.0000001
 44
0.0000000001
 40
0.0
 40
0.0
 40
0.0
 40
0.0
 40
0.061648207
 40
0.1233194435
 40
0.1850364781
 40
0.246821566
 40
0.3086962095
 40
0.3706809219
 40
0.4327950039
 40
0.4950563343
 40
0.5574811813
 40
0.6200840763
 40
0.6828775913
 40
0.74587233
 40
0.8090769749
 40
0.8724966936
 40
0.9361387049
 40
1.0
 40
1.0
 40
1.0
 40
1.0
 10
11.863943055
 20
9.1352418031
 30
0.0
 10
11.8681513289
 20
9.1393066857
 30
0.0
 10
11.8767899299
 20
9.1472132227
 30
0.0
 10
11.8903691258
 20
9.1583617461
 30
0.0
 10
11.9045380011
 20
9.1687733507
 30
0.0
 10
11.9192603553
 20
9.178421364
 30
0.0
 10
11.9344992027
 20
9.1872816352
 30
0.0
 10
11.9502161054
 20
9.1953318337
 30
0.0
 10
11.9663714741
 20
9.2025517039
 30
0.0
 10
11.982924603
 20
9.2089230734
 30
0.0
 10
11.9998337766
 20
9.2144299625
 30
0.0
 10
12.0170563981
 20
9.219058546
 30
0.0
 10
12.0345490873
 20
9.2227972159
 30
0.0
 10
12.052267829
 20
9.2256365908
 30
0.0
 10
12.0701678864
 20
9.2275695188
 30
0.0
 10
12.0882045582
 20
9.2285913487
 30
0.0
 10
12.1063316054
 20
9.2286993499
 30
0.0
 10
12.1184267351
 20
9.2281629828
 30
0.0
 10
12.1244731351
 20
9.2277436635
 30
0.0
  0
SPLINE
  5
3B3
100
AcDbEntity
  8
0
100
AcDbSpline
 62
7
  6
CONTINUOUS
 70
0
 71
3
 72
21
 73
17
 74
0
 42
0.0000001
 43
0.0000001
 44
0.0000000001
 40
0.0
 40
0.0
 40
0.0
 40
0.0
 40
0.0560214852
 40
0.1122261806
 40
0.1688044147
 40
0.2259387161
 40
0.2838003195
 40
0.342546098
 40
0.4023162871
 40
0.4632328915
 40
0.5253986583
 40
0.588896583
 40
0.7200676762
 40
0.787865778
 40
0.8571352359
 40
1.0
 40
1.0
 40
1.0
 40
1.0
 10
10.7611771814
 20
9.2485568743
 30
0.0
 10
10.7581894635
 20
9.2485920545
 30
0.0
 10
10.7521987312
 20
9.2484240095
 30
0.0
 10
10.7432385379
 20
9.247457575
 30
0.0
 10
10.7343231617
 20
9.2457795857
 30
0.0
 10
10.7254791096
 20
9.2433951075
 30
0.0
 10
10.7167315922
 20
9.2403113221
 30
0.0
 10
10.7081056658
 20
9.2365374279
 30
0.0
 10
10.6996258183
 20
9.2320845188
 30
0.0
 10
10.6913161545
 20
9.2269656517
 30
0.0
 10
10.6831997683
 20
9.2211953359
 30
0.0
 10
10.67255343
 20
9.2125640603
 30
0.0
 10
10.6625060279
 20
9.2027626075
 30
0.0
 10
10.6531175119
 20
9.1919609135
 30
0.0
 10
10.6439314447
 20
9.1801838895
 30
0.0
 10
10.6376674374
 20
9.170733235
 30
0.0
 10
10.6337540209
 20
9.1641952212
 30
0.0
  0
SPLINE
  5
3B4
100
AcDbEntity
  8
0
100
AcDbSpline
 62
7
  6
CONTINUOUS
 70
0
 71
3
 72
15
 73
11
 74
0
 42
0.0000001
 43
0.0000001
 44
0.0000000001
 40
0.0
 40
0.0
 40
0.0
 40
0.0
 40
0.1233171364
 40
0.2468171961
 40
0.3706749962
 40
0.495049573
 40
0.6200773082
 40
0.7458671136
 40
0.8724927176
 40
1.0
 40
1.0
 40
1.0
 40
1.0
 10
9.3813328382
 20
7.510125443
 30
0.0
 10
9.3841378802
 20
7.5128349293
 30
0.0
 10
9.3900489763
 20
7.5179599469
 30
0.0
 10
9.3996964884
 20
7.5246569603
 30
0.0
 10
9.4100341413
 20
7.5303024572
 30
0.0
 10
9.4209561179
 20
7.5348384112
 30
0.0
 10
9.4323522433
 20
7.5382197878
 30
0.0
 10
9.4441077156
 20
7.5404127772
 30
0.0
 10
9.4561025358
 20
7.5413960491
 30
0.0
 10
9.4641540419
 20
7.5412390054
 30
0.0
 10
9.4681768403
 20
7.5409600234
 30
0.0
  0
SPLINE
  5
3B5
100
AcDbEntity
  8
0
100
AcDbSpline
 62
7
  6
CONTINUOUS
 70
0
 71
3
 72
41
 73
37
 74
0
 42
0.0000001
 43
0.0000001
 44
0.0000000001
 40
0.0
 40
0.0
 40
0.0
 40
0.0
 40
0.0311445478
 40
0.0624424446
 40
0.0938872679
 40
0.125469566
 40
0.1571770992
 40
0.1889951145
 40
0.2209066667
 40
0.2528929719
 40
0.2849337877
 40
0.3170078142
 40
0.3490931102
 40
0.381167517
 40
0.4132090858
 40
0.4451965025
 40
0.4771095029
 40
0.5089292747
 40
0.5406388381
 40
0.5722233999
 40
0.6036706736
 40
0.63497116
 40
0.6661183793
 40
0.6971090497
 40
0.7279432042
 40
0.7586242401
 40
0.7891588962
 40
0.8195571523
 40
0.8498320512
 40
0.8649308901
 40
0.8800050513
 40
0.9100832572
 40
0.940092674
 40
0.9550812744
 40
0.9700610349
 40
1.0
 40
1.0
 40
1.0
 40
1.0
 10
12.8189738279
 20
6.5010674244
 30
0.0
 10
12.8139969904
 20
6.5014125693
 30
0.0
 10
12.8040403714
 20
6.5024688493
 30
0.0
 10
12.7892261591
 20
6.5051296174
 30
0.0
 10
12.7745706053
 20
6.5088565927
 30
0.0
 10
12.7601528975
 20
6.5136296862
 30
0.0
 10
12.7460496059
 20
6.5194233407
 30
0.0
 10
12.7323359675
 20
6.5262065558
 30
0.0
 10
12.719085036
 20
6.5339430846
 30
0.0
 10
12.7063674202
 20
6.5425916189
 30
0.0
 10
12.6942508795
 20
6.5521060104
 30
0.0
 10
12.6827999758
 20
6.562435515
 30
0.0
 10
12.6720757313
 20
6.5735250611
 30
0.0
 10
12.6621353067
 20
6.5853155404
 30
0.0
 10
12.6530316999
 20
6.5977441204
 30
0.0
 10
12.644813466
 20
6.6107445749
 30
0.0
 10
12.6375244602
 20
6.6242476338
 30
0.0
 10
12.6312036056
 20
6.6381813475
 30
0.0
 10
12.6258846862
 20
6.6524714656
 30
0.0
 10
12.621596167
 20
6.6670418276
 30
0.0
 10
12.6183610407
 20
6.6818147632
 30
0.0
 10
12.6161967026
 20
6.6967115007
 30
0.0
 10
12.615114855
 20
6.7116525825
 30
0.0
 10
12.6151214371
 20
6.7265582792
 30
0.0
 10
12.6162165944
 20
6.7413490268
 30
0.0
 10
12.6183946422
 20
6.7559457893
 30
0.0
 10
12.6216441887
 20
6.7702706956
 30
0.0
 10
12.6259478079
 20
6.7842466548
 30
0.0
 10
12.6303984393
 20
6.795552402
 30
0.0
 10
12.6344599431
 20
6.8043443374
 30
0.0
 10
12.6388429847
 20
6.8129451561
 30
0.0
 10
12.6449286905
 20
6.823348249
 30
0.0
 10
12.6517970586
 20
6.8332354891
 30
0.0
 10
12.6577323988
 20
6.8407930055
 30
0.0
 10
12.6639507986
 20
6.8481039046
 30
0.0
 10
12.6689328672
 20
6.8533086091
 30
0.0
 10
12.6723821796
 20
6.856640392
 30
0.0
  0
SPLINE
  5
3B6
100
AcDbEntity
  8
0
100
AcDbSpline
 62
7
  6
CONTINUOUS
 70
0
 71
3
 72
41
 73
37
 74
0
 42
0.0000001
 43
0.0000001
 44
0.0000000001
 40
0.0
 40
0.0
 40
0.0
 40
0.0
 40
0.0071626665
 40
0.0146567922
 40
0.0224900003
 40
0.030668562
 40
0.0391975872
 40
0.048080862
 40
0.0573206522
 40
0.0669182435
 40
0.0768739335
 40
0.0871871924
 40
0.097856799
 40
0.1088807011
 40
0.1319796455
 40
0.1564575358
 40
0.182279017
 40
0.2094019974
 40
0.2377784932
 40
0.2673552866
 40
0.2980744788
 40
0.329873988
 40
0.3626879607
 40
0.3964471366
 40
0.4310791754
 40
0.4665089551
 40
0.502658886
 40
0.5394491939
 40
0.57679819
 40
0.6146225315
 40
0.6528374746
 40
0.691357142
 40
0.7689615337
 40
0.8467371347
 40
0.923981719
 40
1.0
 40
1.0
 40
1.0
 40
1.0
 10
8.0481446663
 20
10.1183317658
 30
0.0
 10
8.0469272881
 20
10.1171558687
 30
0.0
 10
8.0444941532
 20
10.1146890816
 30
0.0
 10
8.0409279672
 20
10.1107469322
 30
0.0
 10
8.0373663135
 20
10.1064828882
 30
0.0
 10
8.0338114869
 20
10.1018997099
 30
0.0
 10
8.0302654383
 20
10.0970000832
 30
0.0
 10
8.026730257
 20
10.0917868219
 30
0.0
 10
8.0232079293
 20
10.0862630332
 30
0.0
 10
8.0197006281
 20
10.0804319715
 30
0.0
 10
8.0162104193
 20
10.0742971254
 30
0.0
 10
8.0127393711
 20
10.0678621552
 30
0.0
 10
8.0092895795
 20
10.0611308704
 30
0.0
 10
8.004648487
 20
10.051617438
 30
0.0
 10
7.9989278715
 20
10.0390033896
 30
0.0
 10
7.9922828334
 20
10.0229797949
 30
0.0
 10
7.9857708447
 20
10.0058803395
 30
0.0
 10
7.9794076473
 20
9.9877459863
 30
0.0
 10
7.9732086449
 20
9.9686199955
 30
0.0
 10
7.9671888515
 20
9.948548183
 30
0.0
 10
7.9613628407
 20
9.9275786828
 30
0.0
 10
7.9557447207
 20
9.9057618406
 30
0.0
 10
7.9503480932
 20
9.8831500698
 30
0.0
 10
7.9451860223
 20
9.8597977225
 30
0.0
 10
7.9402710025
 20
9.8357609579
 30
0.0
 10
7.9356149165
 20
9.8110976056
 30
0.0
 10
7.9312290195
 20
9.7858670175
 30
0.0
 10
7.9271239128
 20
9.7601299192
 30
0.0
 10
7.9233095138
 20
9.7339482577
 30
0.0
 10
7.9197950516
 20
9.707385074
 30
0.0
 10
7.9165889716
 20
9.6805042766
 30
0.0
 10
7.9127264717
 20
9.6442379129
 30
0.0
 10
7.9087248155
 20
9.5985889638
 30
0.0
 10
7.9052649316
 20
9.543722773
 30
0.0
 10
7.9031688389
 20
9.4891627526
 30
0.0
 10
7.902688483
 20
9.4529448297
 30
0.0
 10
7.902688483
 20
9.4349815268
 30
0.0
  0
SPLINE
  5
3B7
100
AcDbEntity
  8
0
100
AcDbSpline
 62
7
  6
CONTINUOUS
 70
0
 71
3
 72
31
 73
27
 74
0
 42
0.0000001
 43
0.0000001
 44
0.0000000001
 40
0.0
 40
0.0
 40
0.0
 40
0.0
 40
0.0309054692
 40
0.0619653548
 40
0.0931697807
 40
0.1245101225
 40
0.1559723132
 40
0.1875411401
 40
0.2191995213
 40
0.2509296053
 40
0.3145029337
 40
0.3781522225
 40
0.4099771622
 40
0.4417739444
 40
0.4735294365
 40
0.50523194
 40
0.5684163809
 40
0.6312806518
 40
0.6625860777
 40
0.6937934596
 40
0.7248990663
 40
0.7558999302
 40
0.8175607564
 40
0.8787896486
 40
0.9395949348
 40
1.0
 40
1.0
 40
1.0
 40
1.0
 10
9.9057413165
 20
8.8826436899
 30
0.0
 10
9.9031178492
 20
8.882825628
 30
0.0
 10
9.8978692584
 20
8.8833840359
 30
0.0
 10
9.8900608736
 20
8.8847924116
 30
0.0
 10
9.882336721
 20
8.8867632955
 30
0.0
 10
9.8747374312
 20
8.8892810634
 30
0.0
 10
9.8673004531
 20
8.8923263961
 30
0.0
 10
9.8600608223
 20
8.8958761526
 30
0.0
 10
9.8530500228
 20
8.8999047833
 30
0.0
 10
9.8440418515
 20
8.9058794816
 30
0.0
 10
9.8334919384
 20
8.9144010929
 30
0.0
 10
9.8240263057
 20
8.9241183692
 30
0.0
 10
9.8171545166
 20
8.9324944954
 30
0.0
 10
9.8123614191
 20
8.9390489205
 30
0.0
 10
9.8079388944
 20
8.9458461887
 30
0.0
 10
9.8025522455
 20
8.955184342
 30
0.0
 10
9.7967725144
 20
8.9673282139
 30
0.0
 10
9.7922813597
 20
8.9799679327
 30
0.0
 10
9.7894808644
 20
8.9902661349
 30
0.0
 10
9.7877788164
 20
8.9980517742
 30
0.0
 10
9.7864735848
 20
9.0058874025
 30
0.0
 10
9.7852654557
 20
9.0163529554
 30
0.0
 10
9.784744158
 20
9.0294613347
 30
0.0
 10
9.7857106063
 20
9.0450892974
 30
0.0
 10
9.7882678846
 20
9.0604285297
 30
0.0
 10
9.7910411982
 20
9.0703873469
 30
0.0
 10
9.7926912167
 20
9.0752552125
 30
0.0
  0
SPLINE
  5
3B8
100
AcDbEntity
  8
0
100
AcDbSpline
 62
7
  6
CONTINUOUS
 70
0
 71
3
 72
32
 73
28
 74
0
 42
0.0000001
 43
0.0000001
 44
0.0000000001
 40
0.0
 40
0.0
 40
0.0
 40
0.0
 40
0.0851788256
 40
0.1685805939
 40
0.2498831809
 40
0.3287739947
 40
0.4049543857
 40
0.4781405615
 40
0.5480662501
 40
0.581729445
 40
0.6144868725
 40
0.6463114519
 40
0.6771775691
 40
0.7070615392
 40
0.7359415075
 40
0.763797774
 40
0.790612955
 40
0.8163721473
 40
0.8410634064
 40
0.8646777882
 40
0.8872101701
 40
0.9086592878
 40
0.9290289006
 40
0.9483280334
 40
0.9665724873
 40
0.9837855716
 40
1.0
 40
1.0
 40
1.0
 40
1.0
 10
7.902688483
 20
7.3215356937
 30
0.0
 10
7.902688483
 20
7.3098912696
 30
0.0
 10
7.902886905
 20
7.2868447935
 30
0.0
 10
7.9037969819
 20
7.2526946338
 30
0.0
 10
7.9053127215
 20
7.2194262056
 30
0.0
 10
7.9074275738
 20
7.1871795889
 30
0.0
 10
7.9101323486
 20
7.1560903928
 30
0.0
 10
7.9134154253
 20
7.1262894734
 30
0.0
 10
7.9166610197
 20
7.1023391479
 30
0.0
 10
7.9195498759
 20
7.0839245153
 30
0.0
 10
7.9218244091
 20
7.0706873232
 30
0.0
 10
7.9242317559
 20
7.0578624717
 30
0.0
 10
7.9267694509
 20
7.045463425
 30
0.0
 10
7.9294347524
 20
7.0335032142
 30
0.0
 10
7.9322248648
 20
7.0219943947
 30
0.0
 10
7.9351368242
 20
7.0109490364
 30
0.0
 10
7.9381675379
 20
7.0003787071
 30
0.0
 10
7.9413138377
 20
6.9902944637
 30
0.0
 10
7.9445723534
 20
6.9807068215
 30
0.0
 10
7.9479397374
 20
6.9716257705
 30
0.0
 10
7.95141238
 20
6.9630607093
 30
0.0
 10
7.9549867831
 20
6.9550205096
 30
0.0
 10
7.9586591729
 20
6.9475133887
 30
0.0
 10
7.9624259321
 20
6.9405470743
 30
0.0
 10
7.9662833067
 20
6.9341284888
 30
0.0
 10
7.9702274384
 20
6.9282644788
 30
0.0
 10
7.9729930437
 20
6.9246223582
 30
0.0
 10
7.9743916564
 20
6.9229027031
 30
0.0
  0
SPLINE
  5
3B9
100
AcDbEntity
  8
0
100
AcDbSpline
 62
7
  6
CONTINUOUS
 70
0
 71
3
 72
23
 73
19
 74
0
 42
0.0000001
 43
0.0000001
 44
0.0000000001
 40
0.0
 40
0.0
 40
0.0
 40
0.0
 40
0.0632002499
 40
0.1263914575
 40
0.189550186
 40
0.2526592655
 40
0.3156986126
 40
0.3786499499
 40
0.441495493
 40
0.5042184341
 40
0.5668030811
 40
0.6292349901
 40
0.6915010904
 40
0.7535898023
 40
0.8154914685
 40
0.8771970245
 40
0.9387024911
 40
1.0
 40
1.0
 40
1.0
 40
1.0
 10
10.7083087624
 20
8.7592689571
 30
0.0
 10
10.7125049062
 20
8.7547393835
 30
0.0
 10
10.7211067185
 20
8.7458729637
 30
0.0
 10
10.7346047438
 20
8.7331854324
 30
0.0
 10
10.7486669647
 20
8.7211392897
 30
0.0
 10
10.7632584803
 20
8.70976429
 30
0.0
 10
10.7783440192
 20
8.6990880525
 30
0.0
 10
10.7938867039
 20
8.6891366605
 30
0.0
 10
10.8098486765
 20
8.6799343802
 30
0.0
 10
10.8261910157
 20
8.6715036587
 30
0.0
 10
10.8428738836
 20
8.663865067
 30
0.0
 10
10.8598566149
 20
8.6570372575
 30
0.0
 10
10.877097805
 20
8.6510369199
 30
0.0
 10
10.8945554459
 20
8.6458786995
 30
0.0
 10
10.9121868715
 20
8.641575264
 30
0.0
 10
10.9299493797
 20
8.6381369848
 30
0.0
 10
10.9477989191
 20
8.6355725387
 30
0.0
 10
10.9597493299
 20
8.634447523
 30
0.0
 10
10.9657236042
 20
8.6340332057
 30
0.0
  0
SPLINE
  5
3BA
100
AcDbEntity
  8
0
100
AcDbSpline
 62
7
  6
CONTINUOUS
 70
0
 71
3
 72
23
 73
19
 74
0
 42
0.0000001
 43
0.0000001
 44
0.0000000001
 40
0.0
 40
0.0
 40
0.0
 40
0.0
 40
0.2172471601
 40
0.4070102767
 40
0.4915661039
 40
0.5692258022
 40
0.6399963659
 40
0.7039081539
 40
0.7610196406
 40
0.8114258866
 40
0.8553029595
 40
0.8929666695
 40
0.9249658416
 40
0.9522516935
 40
0.9646330693
 40
0.9765043033
 40
0.9881812345
 40
1.0
 40
1.0
 40
1.0
 40
1.0
 10
11.6537133323
 20
7.6467580627
 30
0.0
 10
11.6529281026
 20
7.6470086478
 30
0.0
 10
11.6514631824
 20
7.6474979611
 30
0.0
 10
11.6497162153
 20
7.6481527752
 30
0.0
 10
11.648484225
 20
7.6486684787
 30
0.0
 10
11.6476788364
 20
7.6490331488
 30
0.0
 10
11.6469564625
 20
7.6493902458
 30
0.0
 10
11.646317683
 20
7.6497392859
 30
0.0
 10
11.6457630734
 20
7.6500796994
 30
0.0
 10
11.6452931235
 20
7.6504108189
 30
0.0
 10
11.6449082387
 20
7.6507320408
 30
0.0
 10
11.644608714
 20
7.6510432866
 30
0.0
 10
11.64439487
 20
7.6513446334
 30
0.0
 10
11.6442861342
 20
7.6515973782
 30
0.0
 10
11.6442503032
 20
7.6517903638
 30
0.0
 10
11.6442472897
 20
7.6519273014
 30
0.0
 10
11.6442675542
 20
7.6520606104
 30
0.0
 10
11.644296242
 20
7.6521455508
 30
0.0
 10
11.6443140092
 20
7.6521867216
 30
0.0
  0
SPLINE
  5
3BB
100
AcDbEntity
  8
0
100
AcDbSpline
 62
7
  6
CONTINUOUS
 70
0
 71
3
 72
29
 73
25
 74
0
 42
0.0000001
 43
0.0000001
 44
0.0000000001
 40
0.0
 40
0.0
 40
0.0
 40
0.0
 40
0.0299955707
 40
0.0601341012
 40
0.0904147696
 40
0.1208391943
 40
0.1514056704
 40
0.1821117599
 40
0.2129536982
 40
0.2439264653
 40
0.2750239154
 40
0.3062387983
 40
0.3689708652
 40
0.4320621834
 40
0.495423861
 40
0.5589580715
 40
0.622561333
 40
0.6861279198
 40
0.7495532943
 40
0.8127375392
 40
0.8755886559
 40
0.9380257833
 40
0.9690758425
 40
1.0
 40
1.0
 40
1.0
 40
1.0
 10
10.2958864701
 20
7.6680146616
 30
0.0
 10
10.2960234107
 20
7.6623053806
 30
0.0
 10
10.2965829727
 20
7.6508644698
 30
0.0
 10
10.2982689837
 20
7.6337264018
 30
0.0
 10
10.3007998999
 20
7.61660971
 30
0.0
 10
10.3041694651
 20
7.5995553428
 30
0.0
 10
10.3083699031
 20
7.5826029869
 30
0.0
 10
10.3133912366
 20
7.5657925293
 30
0.0
 10
10.3192216421
 20
7.5491633426
 30
0.0
 10
10.3258473371
 20
7.5327545338
 30
0.0
 10
10.3332530008
 20
7.516604205
 30
0.0
 10
10.3441598154
 20
7.4954343437
 30
0.0
 10
10.3596585377
 20
7.4698141199
 30
0.0
 10
10.3810177868
 20
7.4407531551
 30
0.0
 10
10.404973078
 20
7.4135868364
 30
0.0
 10
10.4312991839
 20
7.3885705734
 30
0.0
 10
10.4597501433
 20
7.365937604
 30
0.0
 10
10.4900599069
 20
7.3458994774
 30
0.0
 10
10.5219452073
 20
7.3286437552
 30
0.0
 10
10.5551086739
 20
7.3143319011
 30
0.0
 10
10.5892384101
 20
7.3030987184
 30
0.0
 10
10.6182818386
 20
7.2963775842
 30
0.0
 10
10.6416787525
 20
7.2926404186
 30
0.0
 10
10.6534093686
 20
7.2913201335
 30
0.0
 10
10.6592739497
 20
7.2907986735
 30
0.0
  0
SPLINE
  5
3BC
100
AcDbEntity
  8
0
100
AcDbSpline
 62
7
  6
CONTINUOUS
 70
0
 71
3
 72
35
 73
31
 74
0
 42
0.0000001
 43
0.0000001
 44
0.0000000001
 40
0.0
 40
0.0
 40
0.0
 40
0.0
 40
0.0142631179
 40
0.0287576597
 40
0.0437033953
 40
0.0592990852
 40
0.0673983746
 40
0.0757224584
 40
0.0931080489
 40
0.1115792029
 40
0.1312300921
 40
0.1521344091
 40
0.1743481968
 40
0.1979130711
 40
0.2228583015
 40
0.2492031319
 40
0.2769580971
 40
0.3061265914
 40
0.3367056687
 40
0.3686870874
 40
0.4020578099
 40
0.4368006946
 40
0.4728948373
 40
0.5103160209
 40
0.549036984
 40
0.630252927
 40
0.7162762879
 40
0.8068026254
 40
0.9014974222
 40
1.0
 40
1.0
 40
1.0
 40
1.0
 10
13.3014986089
 20
8.3460535265
 30
0.0
 10
13.3024252601
 20
8.3459892698
 30
0.0
 10
13.3042872291
 20
8.345734721
 30
0.0
 10
13.3070397016
 20
8.3449817223
 30
0.0
 10
13.3097568661
 20
8.3438588485
 30
0.0
 10
13.3119607473
 20
8.3426329687
 30
0.0
 10
13.313699329
 20
8.3414804128
 30
0.0
 10
13.3154723899
 20
8.3401735987
 30
0.0
 10
13.3176637777
 20
8.3383026331
 30
0.0
 10
13.3202102965
 20
8.3357319604
 30
0.0
 10
13.322709198
 20
8.3328068757
 30
0.0
 10
13.3251581386
 20
8.3295306895
 30
0.0
 10
13.3275550124
 20
8.3259068329
 30
0.0
 10
13.3298974732
 20
8.3219390825
 30
0.0
 10
13.3321832241
 20
8.3176316034
 30
0.0
 10
13.3344098801
 20
8.3129889233
 30
0.0
 10
13.3365751247
 20
8.3080159768
 30
0.0
 10
13.3386766223
 20
8.3027180697
 30
0.0
 10
13.3407121215
 20
8.2971008951
 30
0.0
 10
13.3426793945
 20
8.2911705095
 30
0.0
 10
13.3445763014
 20
8.2849333326
 30
0.0
 10
13.3464007567
 20
8.2783961319
 30
0.0
 10
13.3481507517
 20
8.2715660189
 30
0.0
 10
13.3498243907
 20
8.2644504227
 30
0.0
 10
13.3519860138
 20
8.2544326549
 30
0.0
 10
13.3544701956
 20
8.2412489876
 30
0.0
 10
13.3570748003
 20
8.2246632221
 30
0.0
 10
13.3593366128
 20
8.207141937
 30
0.0
 10
13.3612455203
 20
8.1887618038
 30
0.0
 10
13.3622585143
 20
8.1762195915
 30
0.0
 10
13.3627080508
 20
8.1698204447
 30
0.0
  0
SPLINE
  5
3BD
100
AcDbEntity
  8
0
100
AcDbSpline
 62
7
  6
CONTINUOUS
 70
0
 71
3
 72
27
 73
23
 74
0
 42
0.0000001
 43
0.0000001
 44
0.0000000001
 40
0.0
 40
0.0
 40
0.0
 40
0.0
 40
0.0851715051
 40
0.1679655127
 40
0.2482051258
 40
0.3257220336
 40
0.4003575199
 40
0.4719636514
 40
0.5404043147
 40
0.6055565839
 40
0.6673125196
 40
0.7255815023
 40
0.7802927213
 40
0.8313988563
 40
0.8555947215
 40
0.8788849979
 40
0.9012726572
 40
0.922763608
 40
0.9433675443
 40
0.9630972183
 40
0.9819682756
 40
1.0
 40
1.0
 40
1.0
 40
1.0
 10
13.3400089214
 20
7.8420058989
 30
0.0
 10
13.3390147858
 20
7.8373034443
 30
0.0
 10
13.3369815643
 20
7.8280449634
 30
0.0
 10
13.3337484351
 20
7.8144158489
 30
0.0
 10
13.3303808145
 20
7.801264685
 30
0.0
 10
13.3268869514
 20
7.7886234645
 30
0.0
 10
13.32327539
 20
7.7765228608
 30
0.0
 10
13.3195549847
 20
7.7649922072
 30
0.0
 10
13.3157348462
 20
7.7540594142
 30
0.0
 10
13.3118243182
 20
7.7437508949
 30
0.0
 10
13.3078329496
 20
7.7340915038
 30
0.0
 10
13.3037704692
 20
7.7251043408
 30
0.0
 10
13.2996467591
 20
7.7168110382
 30
0.0
 10
13.2961058266
 20
7.7103819564
 30
0.0
 10
13.2932428102
 20
7.7056107537
 30
0.0
 10
13.29112573
 20
7.7022835892
 30
0.0
 10
13.289000848
 20
7.6991440584
 30
0.0
 10
13.28686935
 20
7.696194036
 30
0.0
 10
13.2847325143
 20
7.6934352197
 30
0.0
 10
13.2825915101
 20
7.6908692767
 30
0.0
 10
13.2804477826
 20
7.6884978817
 30
0.0
 10
13.2789849839
 20
7.6870144456
 30
0.0
 10
13.278253096
 20
7.6863074962
 30
0.0
  0
SPLINE
  5
3BE
100
AcDbEntity
  8
0
100
AcDbSpline
 62
7
  6
CONTINUOUS
 70
0
 71
3
 72
37
 73
33
 74
0
 42
0.0000001
 43
0.0000001
 44
0.0000000001
 40
0.0
 40
0.0
 40
0.0
 40
0.0
 40
0.0305823789
 40
0.061238444
 40
0.0919672018
 40
0.1227706306
 40
0.1536480246
 40
0.184598576
 40
0.215620692
 40
0.2467120793
 40
0.2778698216
 40
0.3090903718
 40
0.340369601
 40
0.3717028424
 40
0.4030849357
 40
0.434510275
 40
0.4974490089
 40
0.5604847741
 40
0.5920304863
 40
0.6235795815
 40
0.6551249456
 40
0.6866594993
 40
0.718176259
 40
0.7496683985
 40
0.7811293113
 40
0.8125526864
 40
0.8439325247
 40
0.8752632484
 40
0.9065398174
 40
0.9377570712
 40
0.968912393
 40
1.0
 40
1.0
 40
1.0
 40
1.0
 10
10.6496495961
 20
7.2738797801
 30
0.0
 10
10.6437165357
 20
7.2742912393
 30
0.0
 10
10.6318545915
 20
7.2754118761
 30
0.0
 10
10.6141476043
 20
7.2779759484
 30
0.0
 10
10.5965461873
 20
7.2814192944
 30
0.0
 10
10.5790935257
 20
7.2857332864
 30
0.0
 10
10.5618313292
 20
7.2909077021
 30
0.0
 10
10.544801281
 20
7.2969299835
 30
0.0
 10
10.5280443553
 20
7.3037855886
 30
0.0
 10
10.5116009033
 20
7.3114579821
 30
0.0
 10
10.4955105146
 20
7.3199286667
 30
0.0
 10
10.479811946
 20
7.3291772395
 30
0.0
 10
10.4645429594
 20
7.3391814169
 30
0.0
 10
10.44974039
 20
7.3499169871
 30
0.0
 10
10.4354395454
 20
7.3613584363
 30
0.0
 10
10.4170805367
 20
7.3775231872
 30
0.0
 10
10.3955570825
 20
7.3993546042
 30
0.0
 10
10.3761565923
 20
7.4231223256
 30
0.0
 10
10.3620107411
 20
7.4431698666
 30
0.0
 10
10.3521099959
 20
7.458692746
 30
0.0
 10
10.342946498
 20
7.4746589965
 30
0.0
 10
10.3345419945
 20
7.491030546
 30
0.0
 10
10.3269168206
 20
7.5077678888
 30
0.0
 10
10.3200893373
 20
7.5248307619
 30
0.0
 10
10.3140759727
 20
7.5421780699
 30
0.0
 10
10.3088912129
 20
7.5597680498
 30
0.0
 10
10.3045475537
 20
7.5775583499
 30
0.0
 10
10.3010554825
 20
7.5955061714
 30
0.0
 10
10.2984234804
 20
7.6135681842
 30
0.0
 10
10.2966577396
 20
7.6317012364
 30
0.0
 10
10.2957627597
 20
7.6498608742
 30
0.0
 10
10.2957479215
 20
7.6619706877
 30
0.0
 10
10.2958864701
 20
7.6680146616
 30
0.0
  0
SPLINE
  5
3BF
100
AcDbEntity
  8
0
100
AcDbSpline
 62
7
  6
CONTINUOUS
 70
0
 71
3
 72
40
 73
36
 74
0
 42
0.0000001
 43
0.0000001
 44
0.0000000001
 40
0.0
 40
0.0
 40
0.0
 40
0.0
 40
0.0311444623
 40
0.0624429464
 40
0.0938877347
 40
0.1254702907
 40
0.1571779705
 40
0.188996169
 40
0.2209078941
 40
0.2528943766
 40
0.2849353707
 40
0.3170095775
 40
0.3490950548
 40
0.3811696427
 40
0.4132113916
 40
0.4451989867
 40
0.4771121643
 40
0.5089321125
 40
0.5406418522
 40
0.5722265907
 40
0.603674042
 40
0.6349747068
 40
0.6661221049
 40
0.6971129533
 40
0.727947284
 40
0.7586284939
 40
0.7891633219
 40
0.8195617482
 40
0.8498368162
 40
0.8800043756
 40
0.9100827498
 40
0.9400923353
 40
0.9550810224
 40
0.9700608656
 40
1.0
 40
1.0
 40
1.0
 40
1.0
 10
11.5207694579
 20
9.3763454822
 30
0.0
 10
11.5174555279
 20
9.376575304
 30
0.0
 10
11.5108256383
 20
9.3772786717
 30
0.0
 10
11.5009612069
 20
9.3790503826
 30
0.0
 10
11.4912024014
 20
9.3815321269
 30
0.0
 10
11.4816020038
 20
9.3847103931
 30
0.0
 10
11.4722109553
 20
9.3885682611
 30
0.0
 10
11.4630793695
 20
9.3930850337
 30
0.0
 10
11.4542558876
 20
9.3982366006
 30
0.0
 10
11.4457875258
 20
9.403995446
 30
0.0
 10
11.4377194043
 20
9.4103308457
 30
0.0
 10
11.4300945137
 20
9.4172090103
 30
0.0
 10
11.4229534889
 20
9.4245932705
 30
0.0
 10
11.4163343932
 20
9.4324442679
 30
0.0
 10
11.4102725155
 20
9.4407201619
 30
0.0
 10
11.4048001861
 20
9.4493768531
 30
0.0
 10
11.3999466061
 20
9.4583682159
 30
0.0
 10
11.3957376927
 20
9.4676463407
 30
0.0
 10
11.3921959414
 20
9.4771617864
 30
0.0
 10
11.3893403062
 20
9.4868638401
 30
0.0
 10
11.387186098
 20
9.4967007836
 30
0.0
 10
11.3857449009
 20
9.5066201654
 30
0.0
 10
11.3850245085
 20
9.5165690762
 30
0.0
 10
11.3850288786
 20
9.5264944275
 30
0.0
 10
11.3857581056
 20
9.5363432322
 30
0.0
 10
11.3872084135
 20
9.5460628864
 30
0.0
 10
11.389372172
 20
9.555601447
 30
0.0
 10
11.3922379372
 20
9.5649079182
 30
0.0
 10
11.3957904798
 20
9.5739324934
 30
0.0
 10
11.400010957
 20
9.5826269449
 30
0.0
 10
11.4048766502
 20
9.5909444426
 30
0.0
 10
11.4094502086
 20
9.5975283046
 30
0.0
 10
11.4134023797
 20
9.6025606676
 30
0.0
 10
11.4175430634
 20
9.6074288306
 30
0.0
 10
11.4208604893
 20
9.6108945308
 30
0.0
 10
11.4231573021
 20
9.6131130883
 30
0.0
  0
SPLINE
  5
3C0
100
AcDbEntity
  8
0
100
AcDbSpline
 62
7
  6
CONTINUOUS
 70
0
 71
3
 72
40
 73
36
 74
0
 42
0.0000001
 43
0.0000001
 44
0.0000000001
 40
0.0
 40
0.0
 40
0.0
 40
0.0
 40
0.0311444623
 40
0.0624429464
 40
0.0938877347
 40
0.1254702907
 40
0.1571779705
 40
0.188996169
 40
0.2209078941
 40
0.2528943766
 40
0.2849353707
 40
0.3170095775
 40
0.3490950548
 40
0.3811696427
 40
0.4132113916
 40
0.4451989867
 40
0.4771121643
 40
0.5089321125
 40
0.5406418522
 40
0.5722265907
 40
0.603674042
 40
0.6349747068
 40
0.6661221049
 40
0.6971129533
 40
0.727947284
 40
0.7586284939
 40
0.7891633219
 40
0.8195617482
 40
0.8498368162
 40
0.8800043756
 40
0.9100827498
 40
0.9400923353
 40
0.9550810224
 40
0.9700608656
 40
1.0
 40
1.0
 40
1.0
 40
1.0
 10
10.9170656656
 20
6.6402096826
 30
0.0
 10
10.9137517356
 20
6.6404395044
 30
0.0
 10
10.9071218459
 20
6.6411428721
 30
0.0
 10
10.8972574146
 20
6.642914583
 30
0.0
 10
10.887498609
 20
6.6453963274
 30
0.0
 10
10.8778982115
 20
6.6485745935
 30
0.0
 10
10.868507163
 20
6.6524324615
 30
0.0
 10
10.8593755772
 20
6.6569492341
 30
0.0
 10
10.8505520952
 20
6.662100801
 30
0.0
 10
10.8420837334
 20
6.6678596464
 30
0.0
 10
10.8340156119
 20
6.6741950461
 30
0.0
 10
10.8263907214
 20
6.6810732107
 30
0.0
 10
10.8192496965
 20
6.6884574709
 30
0.0
 10
10.8126306009
 20
6.6963084683
 30
0.0
 10
10.8065687231
 20
6.7045843623
 30
0.0
 10
10.8010963937
 20
6.7132410536
 30
0.0
 10
10.7962428138
 20
6.7222324163
 30
0.0
 10
10.7920339004
 20
6.7315105411
 30
0.0
 10
10.788492149
 20
6.7410259868
 30
0.0
 10
10.7856365139
 20
6.7507280405
 30
0.0
 10
10.7834823056
 20
6.760564984
 30
0.0
 10
10.7820411086
 20
6.7704843659
 30
0.0
 10
10.7813207161
 20
6.7804332766
 30
0.0
 10
10.7813250863
 20
6.7903586279
 30
0.0
 10
10.7820543133
 20
6.8002074326
 30
0.0
 10
10.7835046212
 20
6.8099270868
 30
0.0
 10
10.7856683797
 20
6.8194656474
 30
0.0
 10
10.7885341448
 20
6.8287721186
 30
0.0
 10
10.7920866875
 20
6.8377966938
 30
0.0
 10
10.7963071647
 20
6.8464911453
 30
0.0
 10
10.8011728579
 20
6.8548086431
 30
0.0
 10
10.8057464163
 20
6.861392505
 30
0.0
 10
10.8096985873
 20
6.8664248681
 30
0.0
 10
10.8138392711
 20
6.871293031
 30
0.0
 10
10.8171566969
 20
6.8747587313
 30
0.0
 10
10.8194535098
 20
6.8769772887
 30
0.0
  0
SPLINE
  5
3C1
100
AcDbEntity
  8
0
100
AcDbSpline
 62
7
  6
CONTINUOUS
 70
0
 71
3
 72
41
 73
37
 74
0
 42
0.0000001
 43
0.0000001
 44
0.0000000001
 40
0.0
 40
0.0
 40
0.0
 40
0.0
 40
0.0311445478
 40
0.0624424446
 40
0.0938872679
 40
0.125469566
 40
0.1571770992
 40
0.1889951145
 40
0.2209066667
 40
0.2528929719
 40
0.2849337877
 40
0.3170078142
 40
0.3490931102
 40
0.381167517
 40
0.4132090858
 40
0.4451965025
 40
0.4771095029
 40
0.5089292747
 40
0.5406388381
 40
0.5722233999
 40
0.6036706736
 40
0.63497116
 40
0.6661183793
 40
0.6971090497
 40
0.7279432042
 40
0.7586242401
 40
0.7891588962
 40
0.8195571523
 40
0.8498320512
 40
0.8649308901
 40
0.8800050513
 40
0.9100832572
 40
0.940092674
 40
0.9550812744
 40
0.9700610349
 40
1.0
 40
1.0
 40
1.0
 40
1.0
 10
12.8189738279
 20
9.1573636041
 30
0.0
 10
12.8139969904
 20
9.157708749
 30
0.0
 10
12.8040403714
 20
9.158765029
 30
0.0
 10
12.7892261591
 20
9.1614257971
 30
0.0
 10
12.7745706053
 20
9.1651527724
 30
0.0
 10
12.7601528975
 20
9.1699258659
 30
0.0
 10
12.7460496059
 20
9.1757195204
 30
0.0
 10
12.7323359675
 20
9.1825027355
 30
0.0
 10
12.719085036
 20
9.1902392643
 30
0.0
 10
12.7063674202
 20
9.1988877986
 30
0.0
 10
12.6942508795
 20
9.2084021901
 30
0.0
 10
12.6827999758
 20
9.2187316947
 30
0.0
 10
12.6720757313
 20
9.2298212407
 30
0.0
 10
12.6621353067
 20
9.2416117201
 30
0.0
 10
12.6530316999
 20
9.2540403001
 30
0.0
 10
12.644813466
 20
9.2670407546
 30
0.0
 10
12.6375244602
 20
9.2805438135
 30
0.0
 10
12.6312036056
 20
9.2944775272
 30
0.0
 10
12.6258846862
 20
9.3087676453
 30
0.0
 10
12.621596167
 20
9.3233380073
 30
0.0
 10
12.6183610407
 20
9.3381109429
 30
0.0
 10
12.6161967026
 20
9.3530076804
 30
0.0
 10
12.615114855
 20
9.3679487621
 30
0.0
 10
12.6151214371
 20
9.3828544589
 30
0.0
 10
12.6162165944
 20
9.3976452065
 30
0.0
 10
12.6183946422
 20
9.412241969
 30
0.0
 10
12.6216441887
 20
9.4265668753
 30
0.0
 10
12.6259478079
 20
9.4405428345
 30
0.0
 10
12.6303984393
 20
9.4518485816
 30
0.0
 10
12.6344599431
 20
9.4606405171
 30
0.0
 10
12.6388429847
 20
9.4692413358
 30
0.0
 10
12.6449286905
 20
9.4796444286
 30
0.0
 10
12.6517970586
 20
9.4895316688
 30
0.0
 10
12.6577323988
 20
9.4970891851
 30
0.0
 10
12.6639507986
 20
9.5044000843
 30
0.0
 10
12.6689328672
 20
9.5096047888
 30
0.0
 10
12.6723821796
 20
9.5129365717
 30
0.0
  0
SPLINE
  5
3C2
100
AcDbEntity
  8
0
100
AcDbSpline
 62
7
  6
CONTINUOUS
 70
0
 71
3
 72
28
 73
24
 74
0
 42
0.0000001
 43
0.0000001
 44
0.0000000001
 40
0.0
 40
0.0
 40
0.0
 40
0.0
 40
0.0720528113
 40
0.1393672893
 40
0.2023901006
 40
0.2616992519
 40
0.31800479
 40
0.3453058943
 40
0.3721835303
 40
0.3987610338
 40
0.4251663941
 40
0.4515303432
 40
0.4779842306
 40
0.50465803
 40
0.5316781778
 40
0.5591658718
 40
0.5872358081
 40
0.6455153691
 40
0.7073002497
 40
0.773206541
 40
0.8437231007
 40
0.9192264539
 40
1.0
 40
1.0
 40
1.0
 40
1.0
 10
13.5270872247
 20
8.4018782703
 30
0.0
 10
13.5285107247
 20
8.4032030477
 30
0.0
 10
13.5313556304
 20
8.4056702379
 30
0.0
 10
13.535771459
 20
8.4088969383
 30
0.0
 10
13.5401808418
 20
8.4115133899
 30
0.0
 10
13.544578639
 20
8.4135138094
 30
0.0
 10
13.54826915
 20
8.4146746662
 30
0.0
 10
13.5511915247
 20
8.4152769877
 30
0.0
 10
13.5533532787
 20
8.4155684784
 30
0.0
 10
13.5555061645
 20
8.4157038941
 30
0.0
 10
13.5576493945
 20
8.4156831357
 30
0.0
 10
13.5597820682
 20
8.4155062315
 30
0.0
 10
13.561903318
 20
8.4151732544
 30
0.0
 10
13.5640122737
 20
8.4146843178
 30
0.0
 10
13.5661081012
 20
8.4140397562
 30
0.0
 10
13.5681900871
 20
8.4132398783
 30
0.0
 10
13.5709809784
 20
8.4119509564
 30
0.0
 10
13.5744430745
 20
8.4099305704
 30
0.0
 10
13.5784722622
 20
8.4069227548
 30
0.0
 10
13.582425484
 20
8.4033074649
 30
0.0
 10
13.586298773
 20
8.3990905489
 30
0.0
 10
13.5900887361
 20
8.3942780335
 30
0.0
 10
13.5924750114
 20
8.3907965656
 30
0.0
 10
13.5936566467
 20
8.3889646648
 30
0.0
  0
SPLINE
  5
3C3
100
AcDbEntity
  8
0
100
AcDbSpline
 62
7
  6
CONTINUOUS
 70
0
 71
3
 72
11
 73
7
 74
0
 42
0.0000001
 43
0.0000001
 44
0.0000000001
 40
0.0
 40
0.0
 40
0.0
 40
0.0
 40
0.245144829
 40
0.4922613912
 40
0.7432715589
 40
1.0
 40
1.0
 40
1.0
 40
1.0
 10
13.5195042186
 20
8.3807201101
 30
0.0
 10
13.5203365026
 20
8.3806623851
 30
0.0
 10
13.5220033742
 20
8.3804684133
 30
0.0
 10
13.5244815155
 20
8.3799444987
 30
0.0
 10
13.5269398949
 20
8.3791877448
 30
0.0
 10
13.5285433025
 20
8.3785371809
 30
0.0
 10
13.5293388974
 20
8.3781760865
 30
0.0
  0
SPLINE
  5
3C4
100
AcDbEntity
  8
0
100
AcDbSpline
 62
7
  6
CONTINUOUS
 70
0
 71
3
 72
11
 73
7
 74
0
 42
0.0000001
 43
0.0000001
 44
0.0000000001
 40
0.0
 40
0.0
 40
0.0
 40
0.0
 40
0.2484877807
 40
0.4980102913
 40
0.7485296458
 40
1.0
 40
1.0
 40
1.0
 40
1.0
 10
11.5207695586
 20
7.6891835602
 30
0.0
 10
11.52721033
 20
7.6887368912
 30
0.0
 10
11.540094623
 20
7.6874461349
 30
0.0
 10
11.5593045576
 20
7.6843382362
 30
0.0
 10
11.5783693209
 20
7.6800683254
 30
0.0
 10
11.5909139775
 20
7.6764659313
 30
0.0
 10
11.5971384677
 20
7.6744796255
 30
0.0
  0
SPLINE
  5
3C5
100
AcDbEntity
  8
0
100
AcDbSpline
 62
7
  6
CONTINUOUS
 70
0
 71
3
 72
39
 73
35
 74
0
 42
0.0000001
 43
0.0000001
 44
0.0000000001
 40
0.0
 40
0.0
 40
0.0
 40
0.0
 40
0.0311450358
 40
0.0624431015
 40
0.0938883488
 40
0.125470987
 40
0.1571788833
 40
0.1889972585
 40
0.2209091728
 40
0.2528958412
 40
0.2849370206
 40
0.3170114108
 40
0.3490970703
 40
0.3811718405
 40
0.4132137728
 40
0.4452015525
 40
0.4771149148
 40
0.508935047
 40
0.5406449693
 40
0.5722298884
 40
0.6036775183
 40
0.6349783596
 40
0.6661259323
 40
0.6971169539
 40
0.7279514572
 40
0.75863284
 40
0.7891678413
 40
0.8195664415
 40
0.8498416836
 40
0.8800094166
 40
0.9100879635
 40
0.9400977204
 40
0.9700606957
 40
1.0
 40
1.0
 40
1.0
 40
1.0
 10
12.1244731351
 20
8.5032992509
 30
0.0
 10
12.1156280054
 20
8.5039126627
 30
0.0
 10
12.0979326025
 20
8.5057899236
 30
0.0
 10
12.0716040266
 20
8.5105188237
 30
0.0
 10
12.0455574558
 20
8.5171425652
 30
0.0
 10
12.0199335544
 20
8.5256255715
 30
0.0
 10
11.9948684607
 20
8.5359223422
 30
0.0
 10
11.9704958748
 20
8.5479778179
 30
0.0
 10
11.9469456359
 20
8.561727571
 30
0.0
 10
11.9243432382
 20
8.5770981958
 30
0.0
 10
11.9028091049
 20
8.5940076693
 30
0.0
 10
11.8824579758
 20
8.6123658019
 30
0.0
 10
11.8633983001
 20
8.632074716
 30
0.0
 10
11.8457316661
 20
8.6530293616
 30
0.0
 10
11.8295522655
 20
8.6751180709
 30
0.0
 10
11.8149463955
 20
8.6982231459
 30
0.0
 10
11.8019920051
 20
8.7222214795
 30
0.0
 10
11.790758268
 20
8.7469851965
 30
0.0
 10
11.7813052214
 20
8.7723823322
 30
0.0
 10
11.7736834514
 20
8.7982775299
 30
0.0
 10
11.7679338207
 20
8.8245327505
 30
0.0
 10
11.7640872468
 20
8.8510079982
 30
0.0
 10
11.7621645301
 20
8.8775620561
 30
0.0
 10
11.7621762366
 20
8.9040532295
 30
0.0
 10
11.7641226153
 20
8.9303400942
 30
0.0
 10
11.767993586
 20
8.9562822481
 30
0.0
 10
11.7737687865
 20
8.9817410568
 30
0.0
 10
11.7814176641
 20
9.0065803976
 30
0.0
 10
11.7908996096
 20
9.0306673792
 30
0.0
 10
11.8021642026
 20
9.0538731067
 30
0.0
 10
11.8151512963
 20
9.0760732174
 30
0.0
 10
11.8297919605
 20
9.0971491882
 30
0.0
 10
11.8460064605
 20
9.1169866898
 30
0.0
 10
11.8578127587
 20
9.1293203884
 30
0.0
 10
11.863943055
 20
9.1352418031
 30
0.0
  0
SPLINE
  5
3C6
100
AcDbEntity
  8
0
100
AcDbSpline
 62
7
  6
CONTINUOUS
 70
0
 71
3
 72
11
 73
7
 74
0
 42
0.0000001
 43
0.0000001
 44
0.0000000001
 40
0.0
 40
0.0
 40
0.0
 40
0.0
 40
0.2450996118
 40
0.4921897316
 40
0.7432089715
 40
1.0
 40
1.0
 40
1.0
 40
1.0
 10
13.4599367394
 20
7.5217831692
 30
0.0
 10
13.4607730302
 20
7.5217251664
 30
0.0
 10
13.4624589006
 20
7.5216873714
 30
0.0
 10
13.4649979646
 20
7.5218668182
 30
0.0
 10
13.4675497103
 20
7.5222817455
 30
0.0
 10
13.4692356028
 20
7.522709364
 30
0.0
 10
13.4700774208
 20
7.5229598254
 30
0.0
  0
SPLINE
  5
3C7
100
AcDbEntity
  8
0
100
AcDbSpline
 62
7
  6
CONTINUOUS
 70
0
 71
3
 72
41
 73
37
 74
0
 42
0.0000001
 43
0.0000001
 44
0.0000000001
 40
0.0
 40
0.0
 40
0.0
 40
0.0
 40
0.0311445478
 40
0.0624424446
 40
0.0938872679
 40
0.125469566
 40
0.1571770992
 40
0.1889951145
 40
0.2209066667
 40
0.2528929719
 40
0.2849337877
 40
0.3170078142
 40
0.3490931102
 40
0.381167517
 40
0.4132090858
 40
0.4451965025
 40
0.4771095029
 40
0.5089292747
 40
0.5406388381
 40
0.5722233999
 40
0.6036706736
 40
0.63497116
 40
0.6661183793
 40
0.6971090497
 40
0.7279432042
 40
0.7586242401
 40
0.7891588962
 40
0.8195571523
 40
0.8498320512
 40
0.8649308901
 40
0.8800050513
 40
0.9100832572
 40
0.940092674
 40
0.9550812744
 40
0.9700610349
 40
1.0
 40
1.0
 40
1.0
 40
1.0
 10
8.9552702938
 20
9.4253123543
 30
0.0
 10
8.9502934563
 20
9.4256574991
 30
0.0
 10
8.9403368374
 20
9.4267137791
 30
0.0
 10
8.925522625
 20
9.4293745472
 30
0.0
 10
8.9108670712
 20
9.4331015226
 30
0.0
 10
8.8964493635
 20
9.4378746161
 30
0.0
 10
8.8823460718
 20
9.4436682705
 30
0.0
 10
8.8686324334
 20
9.4504514857
 30
0.0
 10
8.8553815019
 20
9.4581880145
 30
0.0
 10
8.8426638861
 20
9.4668365488
 30
0.0
 10
8.8305473454
 20
9.4763509402
 30
0.0
 10
8.8190964418
 20
9.4866804448
 30
0.0
 10
8.8083721972
 20
9.4977699909
 30
0.0
 10
8.7984317726
 20
9.5095604703
 30
0.0
 10
8.7893281658
 20
9.5219890503
 30
0.0
 10
8.781109932
 20
9.5349895048
 30
0.0
 10
8.7738209261
 20
9.5484925637
 30
0.0
 10
8.7675000715
 20
9.5624262774
 30
0.0
 10
8.7621811521
 20
9.5767163955
 30
0.0
 10
8.757892633
 20
9.5912867574
 30
0.0
 10
8.7546575066
 20
9.606059693
 30
0.0
 10
8.7524931686
 20
9.6209564306
 30
0.0
 10
8.7514113209
 20
9.6358975123
 30
0.0
 10
8.751417903
 20
9.650803209
 30
0.0
 10
8.7525130603
 20
9.6655939566
 30
0.0
 10
8.7546911081
 20
9.6801907191
 30
0.0
 10
8.7579406546
 20
9.6945156255
 30
0.0
 10
8.7622442739
 20
9.7084915846
 30
0.0
 10
8.7666949052
 20
9.7197973318
 30
0.0
 10
8.770756409
 20
9.7285892672
 30
0.0
 10
8.7751394507
 20
9.737190086
 30
0.0
 10
8.7812251564
 20
9.7475931788
 30
0.0
 10
8.7880935245
 20
9.757480419
 30
0.0
 10
8.7940288647
 20
9.7650379353
 30
0.0
 10
8.8002472645
 20
9.7723488345
 30
0.0
 10
8.8052293331
 20
9.777553539
 30
0.0
 10
8.8086786455
 20
9.7808853219
 30
0.0
  0
SPLINE
  5
3C8
100
AcDbEntity
  8
0
100
AcDbSpline
 62
7
  6
CONTINUOUS
 70
0
 71
3
 72
16
 73
12
 74
0
 42
0.0000001
 43
0.0000001
 44
0.0000000001
 40
0.0
 40
0.0
 40
0.0
 40
0.0
 40
0.1504820041
 40
0.2917480643
 40
0.4244939849
 40
0.4879688087
 40
0.5496752018
 40
0.6683418057
 40
0.7818820064
 40
0.8918564741
 40
1.0
 40
1.0
 40
1.0
 40
1.0
 10
13.278253096
 20
7.6863074962
 30
0.0
 10
13.2773032348
 20
7.6853900006
 30
0.0
 10
13.2754047463
 20
7.6836684869
 30
0.0
 10
13.2724651643
 20
7.6813742944
 30
0.0
 10
13.2699821413
 20
7.6797517196
 30
0.0
 10
13.2680021662
 20
7.6786529585
 30
0.0
 10
13.2660804952
 20
7.6777096341
 30
0.0
 10
13.2636775542
 20
7.6767564863
 30
0.0
 10
13.2607682883
 20
7.6759824019
 30
0.0
 10
13.2578754522
 20
7.6755958794
 30
0.0
 10
13.2559543692
 20
7.6755980067
 30
0.0
 10
13.2550075832
 20
7.6756636596
 30
0.0
  0
SPLINE
  5
3C9
100
AcDbEntity
  8
0
100
AcDbSpline
 62
7
  6
CONTINUOUS
 70
0
 71
3
 72
21
 73
17
 74
0
 42
0.0000001
 43
0.0000001
 44
0.0000000001
 40
0.0
 40
0.0
 40
0.0
 40
0.0
 40
0.0616532317
 40
0.1233294843
 40
0.1850515407
 40
0.2468416642
 40
0.3087213449
 40
0.3707111025
 40
0.432830246
 40
0.4950966374
 40
0.5575265756
 40
0.6201345674
 40
0.6829331401
 40
0.7459332076
 40
0.8725262003
 40
1.0
 40
1.0
 40
1.0
 40
1.0
 10
12.9655654762
 20
9.2094113594
 30
0.0
 10
12.96319762
 20
9.2071241838
 30
0.0
 10
12.9583369558
 20
9.2026754468
 30
0.0
 10
12.950696386
 20
9.1964025503
 30
0.0
 10
12.9427240478
 20
9.1905442594
 30
0.0
 10
12.9344402637
 20
9.1851156445
 30
0.0
 10
12.925865864
 20
9.1801302717
 30
0.0
 10
12.9170224912
 20
9.1756006758
 30
0.0
 10
12.9079323962
 20
9.1715382999
 30
0.0
 10
12.8986184992
 20
9.1679533483
 30
0.0
 10
12.8891042617
 20
9.1648547829
 30
0.0
 10
12.8794137111
 20
9.1622504304
 30
0.0
 10
12.8695709705
 20
9.1601468189
 30
0.0
 10
12.8562587543
 20
9.1580134657
 30
0.0
 10
12.8393543562
 20
9.1566274623
 30
0.0
 10
12.8257642394
 20
9.1568926875
 30
0.0
 10
12.8189738279
 20
9.1573636041
 30
0.0
  0
SPLINE
  5
3CA
100
AcDbEntity
  8
0
100
AcDbSpline
 62
7
  6
CONTINUOUS
 70
0
 71
3
 72
21
 73
17
 74
0
 42
0.0000001
 43
0.0000001
 44
0.0000000001
 40
0.0
 40
0.0
 40
0.0
 40
0.0
 40
0.0616532317
 40
0.1233294843
 40
0.1850515407
 40
0.2468416642
 40
0.3087213449
 40
0.3707111025
 40
0.432830246
 40
0.4950966374
 40
0.5575265756
 40
0.6201345674
 40
0.6829331401
 40
0.7459332076
 40
0.8725262003
 40
1.0
 40
1.0
 40
1.0
 40
1.0
 10
9.1018619421
 20
9.4773601095
 30
0.0
 10
9.0994940859
 20
9.475072934
 30
0.0
 10
9.0946334217
 20
9.470624197
 30
0.0
 10
9.0869928519
 20
9.4643513004
 30
0.0
 10
9.0790205137
 20
9.4584930096
 30
0.0
 10
9.0707367296
 20
9.4530643947
 30
0.0
 10
9.0621623299
 20
9.4480790219
 30
0.0
 10
9.0533189571
 20
9.443549426
 30
0.0
 10
9.0442288621
 20
9.43948705
 30
0.0
 10
9.0349149651
 20
9.4359020985
 30
0.0
 10
9.0254007276
 20
9.4328035331
 30
0.0
 10
9.015710177
 20
9.4301991805
 30
0.0
 10
9.0058674364
 20
9.4280955691
 30
0.0
 10
8.9925552203
 20
9.4259622159
 30
0.0
 10
8.9756508221
 20
9.4245762125
 30
0.0
 10
8.9620607053
 20
9.4248414377
 30
0.0
 10
8.9552702938
 20
9.4253123543
 30
0.0
  0
SPLINE
  5
3CB
100
AcDbEntity
  8
0
100
AcDbSpline
 62
7
  6
CONTINUOUS
 70
0
 71
3
 72
21
 73
17
 74
0
 42
0.0000001
 43
0.0000001
 44
0.0000000001
 40
0.0
 40
0.0
 40
0.0
 40
0.0
 40
0.0616532317
 40
0.1233294843
 40
0.1850515407
 40
0.2468416642
 40
0.3087213449
 40
0.3707111025
 40
0.432830246
 40
0.4950966374
 40
0.5575265756
 40
0.6201345674
 40
0.6829331401
 40
0.7459332076
 40
0.8725262003
 40
1.0
 40
1.0
 40
1.0
 40
1.0
 10
9.1018619421
 20
6.8210639299
 30
0.0
 10
9.0994940859
 20
6.8187767543
 30
0.0
 10
9.0946334217
 20
6.8143280173
 30
0.0
 10
9.0869928519
 20
6.8080551207
 30
0.0
 10
9.0790205137
 20
6.8021968299
 30
0.0
 10
9.0707367296
 20
6.796768215
 30
0.0
 10
9.0621623299
 20
6.7917828422
 30
0.0
 10
9.0533189571
 20
6.7872532463
 30
0.0
 10
9.0442288621
 20
6.7831908704
 30
0.0
 10
9.0349149651
 20
6.7796059188
 30
0.0
 10
9.0254007276
 20
6.7765073534
 30
0.0
 10
9.015710177
 20
6.7739030009
 30
0.0
 10
9.0058674364
 20
6.7717993894
 30
0.0
 10
8.9925552203
 20
6.7696660362
 30
0.0
 10
8.9756508221
 20
6.7682800328
 30
0.0
 10
8.9620607053
 20
6.768545258
 30
0.0
 10
8.9552702938
 20
6.7690161746
 30
0.0
  0
SPLINE
  5
3CC
100
AcDbEntity
  8
0
100
AcDbSpline
 62
7
  6
CONTINUOUS
 70
0
 71
3
 72
21
 73
17
 74
0
 42
0.0000001
 43
0.0000001
 44
0.0000000001
 40
0.0
 40
0.0
 40
0.0
 40
0.0
 40
0.0616532317
 40
0.1233294843
 40
0.1850515407
 40
0.2468416642
 40
0.3087213449
 40
0.3707111025
 40
0.432830246
 40
0.4950966374
 40
0.5575265756
 40
0.6201345674
 40
0.6829331401
 40
0.7459332076
 40
0.8725262003
 40
1.0
 40
1.0
 40
1.0
 40
1.0
 10
12.9655654762
 20
6.5531151797
 30
0.0
 10
12.96319762
 20
6.5508280042
 30
0.0
 10
12.9583369558
 20
6.5463792671
 30
0.0
 10
12.950696386
 20
6.5401063706
 30
0.0
 10
12.9427240478
 20
6.5342480797
 30
0.0
 10
12.9344402637
 20
6.5288194649
 30
0.0
 10
12.925865864
 20
6.523834092
 30
0.0
 10
12.9170224912
 20
6.5193044961
 30
0.0
 10
12.9079323962
 20
6.5152421202
 30
0.0
 10
12.8986184992
 20
6.5116571686
 30
0.0
 10
12.8891042617
 20
6.5085586033
 30
0.0
 10
12.8794137111
 20
6.5059542507
 30
0.0
 10
12.8695709705
 20
6.5038506392
 30
0.0
 10
12.8562587543
 20
6.501717286
 30
0.0
 10
12.8393543562
 20
6.5003312826
 30
0.0
 10
12.8257642394
 20
6.5005965078
 30
0.0
 10
12.8189738279
 20
6.5010674244
 30
0.0
  0
SPLINE
  5
3CD
100
AcDbEntity
  8
0
100
AcDbSpline
 62
7
  6
CONTINUOUS
 70
0
 71
3
 72
39
 73
35
 74
0
 42
0.0000001
 43
0.0000001
 44
0.0000000001
 40
0.0
 40
0.0
 40
0.0
 40
0.0
 40
0.0312475243
 40
0.0626613395
 40
0.0942339988
 40
0.1259531805
 40
0.1578034817
 40
0.1897663412
 40
0.221820614
 40
0.2539430943
 40
0.2861090718
 40
0.3182929135
 40
0.3504686522
 40
0.3826105723
 40
0.4146937841
 40
0.4466947819
 40
0.4785919739
 40
0.5103661731
 40
0.5420010453
 40
0.5734835066
 40
0.6048040648
 40
0.6359570842
 40
0.6669409748
 40
0.6977582947
 40
0.7284157603
 40
0.7589241505
 40
0.7892981024
 40
0.8195557989
 40
0.8497185491
 40
0.8798102658
 40
0.9098568529
 40
0.9398855195
 40
0.9699240426
 40
1.0
 40
1.0
 40
1.0
 40
1.0
 10
10.3133619884
 20
7.0588529582
 30
0.0
 10
10.3037827222
 20
7.0595172826
 30
0.0
 10
10.2846176986
 20
7.0616120439
 30
0.0
 10
10.2561378985
 20
7.0670032049
 30
0.0
 10
10.228018647
 20
7.0746174317
 30
0.0
 10
10.2004389698
 20
7.084405661
 30
0.0
 10
10.1735713074
 20
7.0963050135
 30
0.0
 10
10.1475839478
 20
7.110239275
 30
0.0
 10
10.1226390189
 20
7.1261194748
 30
0.0
 10
10.0988917432
 20
7.1438445817
 30
0.0
 10
10.0764894208
 20
7.1633022415
 30
0.0
 10
10.055570537
 20
7.1843695341
 30
0.0
 10
10.0362639524
 20
7.2069138396
 30
0.0
 10
10.0186882222
 20
7.230793771
 30
0.0
 10
10.0029509546
 20
7.2558600932
 30
0.0
 10
9.9891482396
 20
7.2819566638
 30
0.0
 10
9.9773641169
 20
7.308921383
 30
0.0
 10
9.9676702305
 20
7.3365872101
 30
0.0
 10
9.9601254789
 20
7.3647831352
 30
0.0
 10
9.9547757525
 20
7.3933351621
 30
0.0
 10
9.9516536475
 20
7.422067277
 30
0.0
 10
9.9507783607
 20
7.4508024493
 30
0.0
 10
9.9521556034
 20
7.4793636071
 30
0.0
 10
9.9557775612
 20
7.507574612
 30
0.0
 10
9.9616228611
 20
7.53526124
 30
0.0
 10
9.9696566197
 20
7.5622521794
 30
0.0
 10
9.9798306257
 20
7.5883800048
 30
0.0
 10
9.9920835205
 20
7.6134821669
 30
0.0
 10
10.0063410382
 20
7.6374019653
 30
0.0
 10
10.0225163457
 20
7.6599896192
 30
0.0
 10
10.0405102816
 20
7.68110305
 30
0.0
 10
10.0602127956
 20
7.7006094371
 30
0.0
 10
10.081500063
 20
7.7183838739
 30
0.0
 10
10.0966515646
 20
7.728997362
 30
0.0
 10
10.1044381303
 20
7.7339761843
 30
0.0
  0
SPLINE
  5
3CE
100
AcDbEntity
  8
0
100
AcDbSpline
 62
7
  6
CONTINUOUS
 70
0
 71
3
 72
15
 73
11
 74
0
 42
0.0000001
 43
0.0000001
 44
0.0000000001
 40
0.0
 40
0.0
 40
0.0
 40
0.0
 40
0.1232692266
 40
0.2468892321
 40
0.3709474279
 40
0.4955201355
 40
0.6206706306
 40
0.7464481644
 40
0.8728846424
 40
1.0
 40
1.0
 40
1.0
 40
1.0
 10
10.5222858464
 20
7.1109414048
 30
0.0
 10
10.5147056106
 20
7.1060945122
 30
0.0
 10
10.4991175071
 20
7.0970059795
 30
0.0
 10
10.4746670523
 20
7.0853103673
 30
0.0
 10
10.4492581886
 20
7.0756019141
 30
0.0
 10
10.4230433981
 20
7.067940645
 30
0.0
 10
10.3961778657
 20
7.062372512
 30
0.0
 10
10.3688209242
 20
7.0589313928
 30
0.0
 10
10.3411373009
 20
7.0576377494
 30
0.0
 10
10.3226178363
 20
7.058211063
 30
0.0
 10
10.3133619884
 20
7.0588529582
 30
0.0
  0
SPLINE
  5
3CF
100
AcDbEntity
  8
0
100
AcDbSpline
 62
7
  6
CONTINUOUS
 70
0
 71
3
 72
15
 73
11
 74
0
 42
0.0000001
 43
0.0000001
 44
0.0000000001
 40
0.0
 40
0.0
 40
0.0
 40
0.0
 40
0.1233171305
 40
0.2468171932
 40
0.3706749987
 40
0.4950495698
 40
0.6200773368
 40
0.7458670832
 40
0.8724927373
 40
1.0
 40
1.0
 40
1.0
 40
1.0
 10
11.6183816137
 20
9.4110030494
 30
0.0
 10
11.6152287587
 20
9.4079576162
 30
0.0
 10
11.6085846849
 20
9.4021971862
 30
0.0
 10
11.5977409149
 20
9.3946698507
 30
0.0
 10
11.5861214425
 20
9.3883244062
 30
0.0
 10
11.5738452126
 20
9.3832260492
 30
0.0
 10
11.5610360429
 20
9.3794254432
 30
0.0
 10
11.5478229748
 20
9.3769605638
 30
0.0
 10
11.5343408862
 20
9.3758553916
 30
0.0
 10
11.5252910527
 20
9.3760319085
 30
0.0
 10
11.5207694579
 20
9.3763454822
 30
0.0
  0
SPLINE
  5
3D0
100
AcDbEntity
  8
0
100
AcDbSpline
 62
7
  6
CONTINUOUS
 70
0
 71
3
 72
15
 73
11
 74
0
 42
0.0000001
 43
0.0000001
 44
0.0000000001
 40
0.0
 40
0.0
 40
0.0
 40
0.0
 40
0.1233171305
 40
0.2468171932
 40
0.3706749987
 40
0.4950495698
 40
0.6200773368
 40
0.7458670832
 40
0.8724927373
 40
1.0
 40
1.0
 40
1.0
 40
1.0
 10
11.0146778214
 20
6.6748672498
 30
0.0
 10
11.0115249664
 20
6.6718218166
 30
0.0
 10
11.0048808926
 20
6.6660613866
 30
0.0
 10
10.9940371226
 20
6.6585340511
 30
0.0
 10
10.9824176501
 20
6.6521886066
 30
0.0
 10
10.9701414203
 20
6.6470902496
 30
0.0
 10
10.9573322505
 20
6.6432896436
 30
0.0
 10
10.9441191825
 20
6.6408247642
 30
0.0
 10
10.9306370938
 20
6.639719592
 30
0.0
 10
10.9215872603
 20
6.639896109
 30
0.0
 10
10.9170656656
 20
6.6402096826
 30
0.0
  0
SPLINE
  5
3D1
100
AcDbEntity
  8
0
100
AcDbSpline
 62
7
  6
CONTINUOUS
 70
0
 71
3
 72
39
 73
35
 74
0
 42
0.0000001
 43
0.0000001
 44
0.0000000001
 40
0.0
 40
0.0
 40
0.0
 40
0.0
 40
0.0311445376
 40
0.062443355
 40
0.09388824
 40
0.1254709996
 40
0.1571788478
 40
0.1889972257
 40
0.2209091305
 40
0.2528957945
 40
0.2849369709
 40
0.3170113586
 40
0.3490970145
 40
0.3811717799
 40
0.4132137068
 40
0.4452014824
 40
0.4771148435
 40
0.5089349783
 40
0.5406449062
 40
0.5722298317
 40
0.6036774666
 40
0.6349783114
 40
0.6661258871
 40
0.6971169127
 40
0.7279514223
 40
0.7586328137
 40
0.7891678252
 40
0.8195664354
 40
0.8498416851
 40
0.8800094226
 40
0.9100879711
 40
0.9400977272
 40
0.9700606997
 40
1.0
 40
1.0
 40
1.0
 40
1.0
 10
9.4681768403
 20
7.2994785525
 30
0.0
 10
9.4652285203
 20
7.2996830192
 30
0.0
 10
9.459330051
 20
7.3003087951
 30
0.0
 10
9.4505538869
 20
7.3018850347
 30
0.0
 10
9.4418716881
 20
7.3040929969
 30
0.0
 10
9.4333304313
 20
7.3069206161
 30
0.0
 10
9.4249754216
 20
7.3103528701
 30
0.0
 10
9.4168512492
 20
7.3143713301
 30
0.0
 10
9.4090011881
 20
7.3189545534
 30
0.0
 10
9.4014670685
 20
7.3240780592
 30
0.0
 10
9.394289035
 20
7.3297145158
 30
0.0
 10
9.3875053363
 20
7.3358338606
 30
0.0
 10
9.3811521202
 20
7.3424034654
 30
0.0
 10
9.375263248
 20
7.3493883122
 30
0.0
 10
9.3698701148
 20
7.3567511776
 30
0.0
 10
9.3650014845
 20
7.3644528291
 30
0.0
 10
9.3606833376
 20
7.3724522311
 30
0.0
 10
9.356938734
 20
7.3807067611
 30
0.0
 10
9.3537876902
 20
7.3891724333
 30
0.0
 10
9.3512470738
 20
7.3978041299
 30
0.0
 10
9.3493305044
 20
7.4065558367
 30
0.0
 10
9.348048284
 20
7.4153808873
 30
0.0
 10
9.3474073429
 20
7.4242322097
 30
0.0
 10
9.3474111994
 20
7.4330625737
 30
0.0
 10
9.3480599371
 20
7.4418248396
 30
0.0
 10
9.3493501997
 20
7.4504722074
 30
0.0
 10
9.3512752033
 20
7.4589584656
 30
0.0
 10
9.3538247675
 20
7.4672382388
 30
0.0
 10
9.3569853587
 20
7.4752672279
 30
0.0
 10
9.3607401649
 20
7.4830024695
 30
0.0
 10
9.3650691335
 20
7.4904025115
 30
0.0
 10
9.3699492844
 20
7.4974278509
 30
0.0
 10
9.3753540509
 20
7.5040403685
 30
0.0
 10
9.379289421
 20
7.5081516362
 30
0.0
 10
9.3813328382
 20
7.510125443
 30
0.0
  0
SPLINE
  5
3D2
100
AcDbEntity
  8
0
100
AcDbSpline
 62
7
  6
CONTINUOUS
 70
0
 71
3
 72
54
 73
50
 74
0
 42
0.0000001
 43
0.0000001
 44
0.0000000001
 40
0.0
 40
0.0
 40
0.0
 40
0.0
 40
0.0159350282
 40
0.031912276
 40
0.047928297
 40
0.0639793452
 40
0.0961621312
 40
0.1284348913
 40
0.1607617064
 40
0.1931064142
 40
0.2254339368
 40
0.2577112028
 40
0.2899080233
 40
0.3219975812
 40
0.3539568489
 40
0.38576689
 40
0.4174129911
 40
0.4488848302
 40
0.4801765794
 40
0.511286987
 40
0.5422194802
 40
0.5729822336
 40
0.6035882369
 40
0.6188416993
 40
0.6340630877
 40
0.6492553517
 40
0.6644217401
 40
0.679565773
 40
0.6946912025
 40
0.7098020347
 40
0.7249025003
 40
0.7399969902
 40
0.7550900588
 40
0.7701863972
 40
0.7852907582
 40
0.8004079162
 40
0.8155426454
 40
0.830699654
 40
0.8458835005
 40
0.8610985656
 40
0.8763489986
 40
0.8916386445
 40
0.9069709827
 40
0.9223490738
 40
0.9377755703
 40
0.9532526303
 40
0.9687815708
 40
0.9843643329
 40
1.0
 40
1.0
 40
1.0
 40
1.0
 10
11.444400448
 20
7.001038267
 30
0.0
 10
11.4393557688
 20
7.0026480817
 30
0.0
 10
11.4293279363
 20
7.0061122047
 30
0.0
 10
11.4145293821
 20
7.0120148181
 30
0.0
 10
11.3999852918
 20
7.0186145511
 30
0.0
 10
11.3809634903
 20
7.0283245028
 30
0.0
 10
11.3579881421
 20
7.0421077298
 30
0.0
 10
11.3319618765
 20
7.061071335
 30
0.0
 10
11.3076548471
 20
7.0822755784
 30
0.0
 10
11.2852511063
 20
7.1055046893
 30
0.0
 10
11.2649072905
 20
7.1305350651
 30
0.0
 10
11.2467568332
 20
7.1571381041
 30
0.0
 10
11.230910646
 20
7.1850831313
 30
0.0
 10
11.2174595114
 20
7.214139631
 30
0.0
 10
11.2064759839
 20
7.2440785629
 30
0.0
 10
11.1980161633
 20
7.274673065
 30
0.0
 10
11.1921215384
 20
7.3056987619
 30
0.0
 10
11.1888201738
 20
7.3369335211
 30
0.0
 10
11.1881276499
 20
7.3681570834
 30
0.0
 10
11.1900476579
 20
7.3991502818
 30
0.0
 10
11.1945722868
 20
7.4296950258
 30
0.0
 10
11.2016805689
 20
7.4595712491
 30
0.0
 10
11.2097414415
 20
7.4837623329
 30
0.0
 10
11.2174415126
 20
7.5025487779
 30
0.0
 10
11.2238287206
 20
7.5163206456
 30
0.0
 10
11.2308252279
 20
7.5297603552
 30
0.0
 10
11.23842164
 20
7.5428408131
 30
0.0
 10
11.246607294
 20
7.5555345049
 30
0.0
 10
11.2553702777
 20
7.5678141873
 30
0.0
 10
11.2646974401
 20
7.57965272
 30
0.0
 10
11.2745743288
 20
7.5910231654
 30
0.0
 10
11.2849850122
 20
7.6018989506
 30
0.0
 10
11.2959121165
 20
7.6122538978
 30
0.0
 10
11.3073367973
 20
7.6220622965
 30
0.0
 10
11.3192386179
 20
7.6312990891
 30
0.0
 10
11.3315955172
 20
7.6399400154
 30
0.0
 10
11.3443838527
 20
7.6479616805
 30
0.0
 10
11.3575783759
 20
7.6553416989
 30
0.0
 10
11.3711521716
 20
7.6620589672
 30
0.0
 10
11.3850767475
 20
7.6680937385
 30
0.0
 10
11.3993220915
 20
7.6734277642
 30
0.0
 10
11.4138567222
 20
7.6780444657
 30
0.0
 10
11.4286477443
 20
7.6819291889
 30
0.0
 10
11.4436610122
 20
7.6850692628
 30
0.0
 10
11.4588612841
 20
7.6874541049
 30
0.0
 10
11.4742122058
 20
7.6890753289
 30
0.0
 10
11.4896770542
 20
7.6899271435
 30
0.0
 10
11.5052174153
 20
7.6900058243
 30
0.0
 10
11.5155861793
 20
7.6895430288
 30
0.0
 10
11.5207695586
 20
7.6891835602
 30
0.0
  0
SPLINE
  5
3D3
100
AcDbEntity
  8
0
100
AcDbSpline
 62
7
  6
CONTINUOUS
 70
0
 71
3
 72
11
 73
7
 74
0
 42
0.0000001
 43
0.0000001
 44
0.0000000001
 40
0.0
 40
0.0
 40
0.0
 40
0.0
 40
0.2863696648
 40
0.5483991569
 40
0.7862706034
 40
1.0
 40
1.0
 40
1.0
 40
1.0
 10
11.6663896852
 20
7.6433553476
 30
0.0
 10
11.6651699896
 20
7.6436429908
 30
0.0
 10
11.6628374166
 20
7.6442073598
 30
0.0
 10
11.6595054544
 20
7.6450662575
 30
0.0
 10
11.6564962243
 20
7.6459016738
 30
0.0
 10
11.6546043424
 20
7.6464737205
 30
0.0
 10
11.6537133323
 20
7.6467580627
 30
0.0
  0
SPLINE
  5
3D4
100
AcDbEntity
  8
0
100
AcDbSpline
 62
7
  6
CONTINUOUS
 70
0
 71
3
 72
23
 73
19
 74
0
 42
0.0000001
 43
0.0000001
 44
0.0000000001
 40
0.0
 40
0.0
 40
0.0
 40
0.0
 40
0.0626385331
 40
0.1250694065
 40
0.1873187813
 40
0.2494179403
 40
0.3114035096
 40
0.3733175098
 40
0.4352071647
 40
0.4971243775
 40
0.5591247722
 40
0.6212662262
 40
0.6836068282
 40
0.7462023362
 40
0.8091031215
 40
0.8723514625
 40
0.9359776585
 40
1.0
 40
1.0
 40
1.0
 40
1.0
 10
10.018791447
 20
8.9635268482
 30
0.0
 10
10.0177875311
 20
8.9605651073
 30
0.0
 10
10.0155834862
 20
8.9547167904
 30
0.0
 10
10.0116869015
 20
8.9462072521
 30
0.0
 10
10.0072104403
 20
8.938017675
 30
0.0
 10
10.0021618714
 20
8.9301938967
 30
0.0
 10
9.9965515031
 20
8.9227829955
 30
0.0
 10
9.9903931774
 20
8.9158340374
 30
0.0
 10
9.9837049891
 20
8.9093975706
 30
0.0
 10
9.9765101564
 20
8.9035251777
 30
0.0
 10
9.9688378695
 20
8.8982686778
 30
0.0
 10
9.9607240675
 20
8.8936790515
 30
0.0
 10
9.9522120518
 20
8.8898050497
 30
0.0
 10
9.9433527727
 20
8.8866915495
 30
0.0
 10
9.9342048428
 20
8.8843776792
 30
0.0
 10
9.9248335395
 20
8.8828950374
 30
0.0
 10
9.9153111946
 20
8.8822657515
 30
0.0
 10
9.9089300053
 20
8.8824225536
 30
0.0
 10
9.9057413165
 20
8.8826436899
 30
0.0
  0
SPLINE
  5
3D5
100
AcDbEntity
  8
0
100
AcDbSpline
 62
7
  6
CONTINUOUS
 70
0
 71
3
 72
11
 73
7
 74
0
 42
0.0000001
 43
0.0000001
 44
0.0000000001
 40
0.0
 40
0.0
 40
0.0
 40
0.0
 40
0.2492876154
 40
0.4989562893
 40
0.7491490386
 40
1.0
 40
1.0
 40
1.0
 40
1.0
 10
10.682157277
 20
9.2412984077
 30
0.0
 10
10.6772731293
 20
9.2354919834
 30
0.0
 10
10.6678987529
 20
9.223525818
 30
0.0
 10
10.6551060959
 20
9.2046298099
 30
0.0
 10
10.6436255938
 20
9.184854078
 30
0.0
 10
10.6368881391
 20
9.1711573397
 30
0.0
 10
10.6337540209
 20
9.1641952212
 30
0.0
  0
SPLINE
  5
3D6
100
AcDbEntity
  8
0
100
AcDbSpline
 62
7
  6
CONTINUOUS
 70
0
 71
3
 72
21
 73
17
 74
0
 42
0.0000001
 43
0.0000001
 44
0.0000000001
 40
0.0
 40
0.0
 40
0.0
 40
0.0
 40
0.061600122
 40
0.1232559648
 40
0.1849843649
 40
0.2468015442
 40
0.3087229487
 40
0.3707631364
 40
0.4329356706
 40
0.4952529836
 40
0.5577263108
 40
0.6203655612
 40
0.6831792563
 40
0.7461748017
 40
0.8726989307
 40
1.0
 40
1.0
 40
1.0
 40
1.0
 10
11.2010384925
 20
8.7045604802
 30
0.0
 10
11.1969806963
 20
8.7013744256
 30
0.0
 10
11.1887092741
 20
8.6951905376
 30
0.0
 10
11.1758720698
 20
8.6865070574
 30
0.0
 10
11.1626241906
 20
8.6784284072
 30
0.0
 10
11.1489918562
 20
8.6709707006
 30
0.0
 10
11.1350016116
 20
8.6641484528
 30
0.0
 10
11.1206808677
 20
8.6579749277
 30
0.0
 10
11.1060575902
 20
8.6524622
 30
0.0
 10
11.0911603555
 20
8.6476210679
 30
0.0
 10
11.0760182809
 20
8.6434608911
 30
0.0
 10
11.060661038
 20
8.6399898004
 30
0.0
 10
11.0451182762
 20
8.6372145921
 30
0.0
 10
11.0241608258
 20
8.6344455384
 30
0.0
 10
10.997643195
 20
8.632754608
 30
0.0
 10
10.9763597763
 20
8.6332955846
 30
0.0
 10
10.9657236042
 20
8.6340332057
 30
0.0
  0
SPLINE
  5
3D7
100
AcDbEntity
  8
0
100
AcDbSpline
 62
7
  6
CONTINUOUS
 70
0
 71
3
 72
23
 73
19
 74
0
 42
0.0000001
 43
0.0000001
 44
0.0000000001
 40
0.0
 40
0.0
 40
0.0
 40
0.0
 40
0.061648207
 40
0.1233194435
 40
0.1850364781
 40
0.246821566
 40
0.3086962095
 40
0.3706809219
 40
0.4327950039
 40
0.4950563343
 40
0.5574811813
 40
0.6200840763
 40
0.6828775913
 40
0.74587233
 40
0.8090769749
 40
0.8724966936
 40
0.9361387049
 40
1.0
 40
1.0
 40
1.0
 40
1.0
 10
11.1775957457
 20
8.6795351037
 30
0.0
 10
11.1733874719
 20
8.6754702211
 30
0.0
 10
11.1647488708
 20
8.6675636841
 30
0.0
 10
11.1511696749
 20
8.6564151607
 30
0.0
 10
11.1370007996
 20
8.6460035561
 30
0.0
 10
11.1222784455
 20
8.6363555428
 30
0.0
 10
11.1070395981
 20
8.6274952716
 30
0.0
 10
11.0913226953
 20
8.6194450731
 30
0.0
 10
11.0751673267
 20
8.6122252029
 30
0.0
 10
11.0586141977
 20
8.6058538334
 30
0.0
 10
11.0417050242
 20
8.6003469443
 30
0.0
 10
11.0244824027
 20
8.5957183608
 30
0.0
 10
11.0069897134
 20
8.5919796909
 30
0.0
 10
10.9892709718
 20
8.589140316
 30
0.0
 10
10.9713709143
 20
8.587207388
 30
0.0
 10
10.9533342425
 20
8.5861855581
 30
0.0
 10
10.9352071953
 20
8.5860775569
 30
0.0
 10
10.9231120656
 20
8.586613924
 30
0.0
 10
10.9170656656
 20
8.5870332433
 30
0.0
  0
SPLINE
  5
3D8
100
AcDbEntity
  8
0
100
AcDbSpline
 62
7
  6
CONTINUOUS
 70
0
 71
3
 72
23
 73
19
 74
0
 42
0.0000001
 43
0.0000001
 44
0.0000000001
 40
0.0
 40
0.0
 40
0.0
 40
0.0
 40
0.061648207
 40
0.1233194435
 40
0.1850364781
 40
0.246821566
 40
0.3086962095
 40
0.3706809219
 40
0.4327950039
 40
0.4950563343
 40
0.5574811813
 40
0.6200840763
 40
0.6828775913
 40
0.74587233
 40
0.8090769749
 40
0.8724966936
 40
0.9361387049
 40
1.0
 40
1.0
 40
1.0
 40
1.0
 10
12.3850032153
 20
8.5958011113
 30
0.0
 10
12.3807949414
 20
8.5917362287
 30
0.0
 10
12.3721563403
 20
8.5838296917
 30
0.0
 10
12.3585771445
 20
8.5726811683
 30
0.0
 10
12.3444082691
 20
8.5622695637
 30
0.0
 10
12.329685915
 20
8.5526215503
 30
0.0
 10
12.3144470676
 20
8.5437612792
 30
0.0
 10
12.2987301649
 20
8.5357110807
 30
0.0
 10
12.2825747962
 20
8.5284912105
 30
0.0
 10
12.2660216672
 20
8.522119841
 30
0.0
 10
12.2491124937
 20
8.5166129519
 30
0.0
 10
12.2318898722
 20
8.5119843683
 30
0.0
 10
12.2143971829
 20
8.5082456985
 30
0.0
 10
12.1966784413
 20
8.5054063236
 30
0.0
 10
12.1787783839
 20
8.5034733956
 30
0.0
 10
12.1607417121
 20
8.5024515657
 30
0.0
 10
12.1426146649
 20
8.5023435645
 30
0.0
 10
12.1305195352
 20
8.5028799316
 30
0.0
 10
12.1244731351
 20
8.5032992509
 30
0.0
  0
SPLINE
  5
3D9
100
AcDbEntity
  8
0
100
AcDbSpline
 62
7
  6
CONTINUOUS
 70
0
 71
3
 72
11
 73
7
 74
0
 42
0.0000001
 43
0.0000001
 44
0.0000000001
 40
0.0
 40
0.0
 40
0.0
 40
0.0
 40
0.2479949629
 40
0.4972670712
 40
0.7479140011
 40
1.0
 40
1.0
 40
1.0
 40
1.0
 10
10.3159125572
 20
7.7858513147
 30
0.0
 10
10.3125981463
 20
7.7764955186
 30
0.0
 10
10.3067673762
 20
7.7574359248
 30
0.0
 10
10.3004977633
 20
7.7281300192
 30
0.0
 10
10.2967214356
 20
7.6982351946
 30
0.0
 10
10.2958867794
 20
7.6781039323
 30
0.0
 10
10.2958864701
 20
7.6680146616
 30
0.0
  0
SPLINE
  5
3DA
100
AcDbEntity
  8
0
100
AcDbSpline
 62
7
  6
CONTINUOUS
 70
0
 71
3
 72
28
 73
24
 74
0
 42
0.0000001
 43
0.0000001
 44
0.0000000001
 40
0.0
 40
0.0
 40
0.0
 40
0.0
 40
0.0251929832
 40
0.0504530316
 40
0.0758429633
 40
0.1014236008
 40
0.127252846
 40
0.1533849429
 40
0.1798698069
 40
0.2067524696
 40
0.2340728345
 40
0.2618653725
 40
0.3189570871
 40
0.3782153885
 40
0.4397204732
 40
0.5034733423
 40
0.5694041133
 40
0.637380066
 40
0.707213548
 40
0.7786738692
 40
0.8514935942
 40
0.9253755024
 40
1.0
 40
1.0
 40
1.0
 40
1.0
 10
10.7554489806
 20
8.7485896737
 30
0.0
 10
10.758004734
 20
8.7485596215
 30
0.0
 10
10.7631267953
 20
8.748673806
 30
0.0
 10
10.7707956491
 20
8.7493674864
 30
0.0
 10
10.7784395186
 20
8.7505820974
 30
0.0
 10
10.7860417845
 20
8.752315092
 30
0.0
 10
10.7935865829
 20
8.7545626352
 30
0.0
 10
10.8010580273
 20
8.7573199192
 30
0.0
 10
10.8084404548
 20
8.7605811156
 30
0.0
 10
10.8157184132
 20
8.7643391626
 30
0.0
 10
10.8228768759
 20
8.7685863226
 30
0.0
 10
10.8323251564
 20
8.7749450697
 30
0.0
 10
10.8437610734
 20
8.7841083289
 30
0.0
 10
10.8566387638
 20
8.7967878034
 30
0.0
 10
10.8686929372
 20
8.8111445592
 30
0.0
 10
10.8798240522
 20
8.8270580845
 30
0.0
 10
10.8899413531
 20
8.844396671
 30
0.0
 10
10.8989612901
 20
8.8630165211
 30
0.0
 10
10.9068092619
 20
8.8827632592
 30
0.0
 10
10.9134199886
 20
8.9034730411
 30
0.0
 10
10.9187384367
 20
8.9249743883
 30
0.0
 10
10.9227200171
 20
8.9470876245
 30
0.0
 10
10.9244550643
 20
8.962065563
 30
0.0
 10
10.9250939118
 20
8.9696095186
 30
0.0
  0
SPLINE
  5
3DB
100
AcDbEntity
  8
0
100
AcDbSpline
 62
7
  6
CONTINUOUS
 70
0
 71
3
 72
41
 73
37
 74
0
 42
0.0000001
 43
0.0000001
 44
0.0000000001
 40
0.0
 40
0.0
 40
0.0
 40
0.0
 40
0.0311445478
 40
0.0624424446
 40
0.0938872679
 40
0.125469566
 40
0.1571770992
 40
0.1889951145
 40
0.2209066667
 40
0.2528929719
 40
0.2849337877
 40
0.3170078142
 40
0.3490931102
 40
0.381167517
 40
0.4132090858
 40
0.4451965025
 40
0.4771095029
 40
0.5089292747
 40
0.5406388381
 40
0.5722233999
 40
0.6036706736
 40
0.63497116
 40
0.6661183793
 40
0.6971090497
 40
0.7279432042
 40
0.7586242401
 40
0.7891588962
 40
0.8195571523
 40
0.8498320512
 40
0.8649308901
 40
0.8800050513
 40
0.9100832572
 40
0.940092674
 40
0.9550812744
 40
0.9700610349
 40
1.0
 40
1.0
 40
1.0
 40
1.0
 10
8.9552702938
 20
6.7690161746
 30
0.0
 10
8.9502934563
 20
6.7693613195
 30
0.0
 10
8.9403368374
 20
6.7704175994
 30
0.0
 10
8.925522625
 20
6.7730783676
 30
0.0
 10
8.9108670712
 20
6.7768053429
 30
0.0
 10
8.8964493635
 20
6.7815784364
 30
0.0
 10
8.8823460718
 20
6.7873720908
 30
0.0
 10
8.8686324334
 20
6.794155306
 30
0.0
 10
8.8553815019
 20
6.8018918348
 30
0.0
 10
8.8426638861
 20
6.8105403691
 30
0.0
 10
8.8305473454
 20
6.8200547606
 30
0.0
 10
8.8190964418
 20
6.8303842652
 30
0.0
 10
8.8083721972
 20
6.8414738112
 30
0.0
 10
8.7984317726
 20
6.8532642906
 30
0.0
 10
8.7893281658
 20
6.8656928706
 30
0.0
 10
8.781109932
 20
6.8786933251
 30
0.0
 10
8.7738209261
 20
6.892196384
 30
0.0
 10
8.7675000715
 20
6.9061300977
 30
0.0
 10
8.7621811521
 20
6.9204202158
 30
0.0
 10
8.757892633
 20
6.9349905778
 30
0.0
 10
8.7546575066
 20
6.9497635134
 30
0.0
 10
8.7524931686
 20
6.9646602509
 30
0.0
 10
8.7514113209
 20
6.9796013326
 30
0.0
 10
8.751417903
 20
6.9945070294
 30
0.0
 10
8.7525130603
 20
7.0092977769
 30
0.0
 10
8.7546911081
 20
7.0238945394
 30
0.0
 10
8.7579406546
 20
7.0382194458
 30
0.0
 10
8.7622442739
 20
7.052195405
 30
0.0
 10
8.7666949052
 20
7.0635011521
 30
0.0
 10
8.770756409
 20
7.0722930875
 30
0.0
 10
8.7751394507
 20
7.0808939063
 30
0.0
 10
8.7812251564
 20
7.0912969991
 30
0.0
 10
8.7880935245
 20
7.1011842393
 30
0.0
 10
8.7940288647
 20
7.1087417556
 30
0.0
 10
8.8002472645
 20
7.1160526548
 30
0.0
 10
8.8052293331
 20
7.1212573593
 30
0.0
 10
8.8086786455
 20
7.1245891422
 30
0.0
  0
SPLINE
  5
3DC
100
AcDbEntity
  8
0
100
AcDbSpline
 62
7
  6
CONTINUOUS
 70
0
 71
3
 72
30
 73
26
 74
0
 42
0.0000001
 43
0.0000001
 44
0.0000000001
 40
0.0
 40
0.0
 40
0.0
 40
0.0
 40
0.0731382943
 40
0.1462921865
 40
0.2190205633
 40
0.2908930016
 40
0.3615014998
 40
0.4304736801
 40
0.4974853491
 40
0.5622736498
 40
0.5937808949
 40
0.624669042
 40
0.6845364121
 40
0.7135375836
 40
0.7419229438
 40
0.769711588
 40
0.7969305602
 40
0.8236147385
 40
0.8498072538
 40
0.8755593944
 40
0.9009301435
 40
0.9259854069
 40
0.9507970846
 40
0.9754419001
 40
1.0
 40
1.0
 40
1.0
 40
1.0
 10
10.9250939118
 20
8.9696095186
 30
0.0
 10
10.9258313254
 20
8.9783174115
 30
0.0
 10
10.9266864234
 20
8.9957937612
 30
0.0
 10
10.9261196406
 20
9.021978376
 30
0.0
 10
10.923712918
 20
9.0479081616
 30
0.0
 10
10.9194926906
 20
9.0732973468
 30
0.0
 10
10.9135056045
 20
9.0978684002
 30
0.0
 10
10.9058172834
 20
9.1213531112
 30
0.0
 10
10.8965124759
 20
9.1434942789
 30
0.0
 10
10.8874102457
 20
9.1607869297
 30
0.0
 10
10.8793991521
 20
9.173707106
 30
0.0
 10
10.8711061328
 20
9.1857387893
 30
0.0
 10
10.8621075971
 20
9.1969052995
 30
0.0
 10
10.8524376316
 20
9.2070516762
 30
0.0
 10
10.8450018518
 20
9.214009403
 30
0.0
 10
10.8373277938
 20
9.2203748733
 30
0.0
 10
10.8294361818
 20
9.2261307496
 30
0.0
 10
10.8213487432
 20
9.231260951
 30
0.0
 10
10.8130877004
 20
9.2357511612
 30
0.0
 10
10.8046757873
 20
9.2395887441
 30
0.0
 10
10.7961361765
 20
9.2427628181
 30
0.0
 10
10.7874925672
 20
9.2452643636
 30
0.0
 10
10.7787687942
 20
9.2470862091
 30
0.0
 10
10.7699898996
 20
9.2482230883
 30
0.0
 10
10.7641113467
 20
9.2485223248
 30
0.0
 10
10.7611771814
 20
9.2485568743
 30
0.0
  0
SPLINE
  5
3DD
100
AcDbEntity
  8
0
100
AcDbSpline
 62
7
  6
CONTINUOUS
 70
0
 71
3
 72
23
 73
19
 74
0
 42
0.0000001
 43
0.0000001
 44
0.0000000001
 40
0.0
 40
0.0
 40
0.0
 40
0.0
 40
0.0755963493
 40
0.1466389404
 40
0.2134644447
 40
0.2765130444
 40
0.3363250756
 40
0.3935451244
 40
0.4489211068
 40
0.5032859965
 40
0.5575238004
 40
0.612525131
 40
0.6691411996
 40
0.728147006
 40
0.7902177883
 40
0.855922422
 40
0.9257258939
 40
1.0
 40
1.0
 40
1.0
 40
1.0
 10
13.5259427222
 20
7.4966862825
 30
0.0
 10
13.5246420127
 20
7.4954298935
 30
0.0
 10
13.522042323
 20
7.4930700104
 30
0.0
 10
13.5180190427
 20
7.4899173598
 30
0.0
 10
13.5140004809
 20
7.4872695799
 30
0.0
 10
13.5099903274
 20
7.4851306736
 30
0.0
 10
13.5059919442
 20
7.4835044678
 30
0.0
 10
13.5020094283
 20
7.482395036
 30
0.0
 10
13.4980480254
 20
7.4818061953
 30
0.0
 10
13.4941143266
 20
7.4817408443
 30
0.0
 10
13.4902158832
 20
7.4821998135
 30
0.0
 10
13.4863602808
 20
7.4831818964
 30
0.0
 10
13.4825540163
 20
7.4846836102
 30
0.0
 10
13.4788022055
 20
7.4867007338
 30
0.0
 10
13.4751085707
 20
7.4892285174
 30
0.0
 10
13.4714761582
 20
7.4922626694
 30
0.0
 10
13.4679078567
 20
7.4957986517
 30
0.0
 10
13.4656463426
 20
7.4984039696
 30
0.0
 10
13.4645252538
 20
7.4997824167
 30
0.0
  0
SPLINE
  5
3DE
100
AcDbEntity
  8
0
100
AcDbSpline
 62
7
  6
CONTINUOUS
 70
0
 71
3
 72
39
 73
35
 74
0
 42
0.0000001
 43
0.0000001
 44
0.0000000001
 40
0.0
 40
0.0
 40
0.0
 40
0.0
 40
0.0311450358
 40
0.0624431015
 40
0.0938883488
 40
0.125470987
 40
0.1571788833
 40
0.1889972585
 40
0.2209091728
 40
0.2528958412
 40
0.2849370206
 40
0.3170114108
 40
0.3490970703
 40
0.3811718405
 40
0.4132137728
 40
0.4452015525
 40
0.4771149148
 40
0.508935047
 40
0.5406449693
 40
0.5722298884
 40
0.6036775183
 40
0.6349783596
 40
0.6661259323
 40
0.6971169539
 40
0.7279514572
 40
0.75863284
 40
0.7891678413
 40
0.8195664415
 40
0.8498416836
 40
0.8800094166
 40
0.9100879635
 40
0.9400977204
 40
0.9700606957
 40
1.0
 40
1.0
 40
1.0
 40
1.0
 10
10.9170656656
 20
8.5870332433
 30
0.0
 10
10.9082205359
 20
8.5876466551
 30
0.0
 10
10.890525133
 20
8.589523916
 30
0.0
 10
10.8641965571
 20
8.5942528161
 30
0.0
 10
10.8381499863
 20
8.6008765577
 30
0.0
 10
10.8125260848
 20
8.6093595639
 30
0.0
 10
10.7874609911
 20
8.6196563347
 30
0.0
 10
10.7630884053
 20
8.6317118104
 30
0.0
 10
10.7395381663
 20
8.6454615634
 30
0.0
 10
10.7169357686
 20
8.6608321883
 30
0.0
 10
10.6954016353
 20
8.6777416617
 30
0.0
 10
10.6750505062
 20
8.6960997943
 30
0.0
 10
10.6559908306
 20
8.7158087084
 30
0.0
 10
10.6383241966
 20
8.736763354
 30
0.0
 10
10.622144796
 20
8.7588520633
 30
0.0
 10
10.6075389259
 20
8.7819571383
 30
0.0
 10
10.5945845355
 20
8.805955472
 30
0.0
 10
10.5833507985
 20
8.8307191889
 30
0.0
 10
10.5738977518
 20
8.8561163246
 30
0.0
 10
10.5662759818
 20
8.8820115223
 30
0.0
 10
10.5605263511
 20
8.908266743
 30
0.0
 10
10.5566797772
 20
8.9347419907
 30
0.0
 10
10.5547570606
 20
8.9612960485
 30
0.0
 10
10.554768767
 20
8.987787222
 30
0.0
 10
10.5567151457
 20
9.0140740866
 30
0.0
 10
10.5605861165
 20
9.0400162405
 30
0.0
 10
10.5663613169
 20
9.0654750493
 30
0.0
 10
10.5740101946
 20
9.09031439
 30
0.0
 10
10.5834921401
 20
9.1144013716
 30
0.0
 10
10.594756733
 20
9.1376070991
 30
0.0
 10
10.6077438267
 20
9.1598072098
 30
0.0
 10
10.622384491
 20
9.1808831807
 30
0.0
 10
10.638598991
 20
9.2007206822
 30
0.0
 10
10.6504052891
 20
9.2130543808
 30
0.0
 10
10.6565355855
 20
9.2189757955
 30
0.0
  0
SPLINE
  5
3DF
100
AcDbEntity
  8
0
100
AcDbSpline
 62
7
  6
CONTINUOUS
 70
0
 71
3
 72
15
 73
11
 74
0
 42
0.0000001
 43
0.0000001
 44
0.0000000001
 40
0.0
 40
0.0
 40
0.0
 40
0.0
 40
0.1233171364
 40
0.2468171961
 40
0.3706749962
 40
0.495049573
 40
0.6200773082
 40
0.7458671136
 40
0.8724927176
 40
1.0
 40
1.0
 40
1.0
 40
1.0
 10
9.5550208424
 20
7.330313133
 30
0.0
 10
9.5522158004
 20
7.3276036466
 30
0.0
 10
9.5463047043
 20
7.3224786291
 30
0.0
 10
9.5366571922
 20
7.3157816157
 30
0.0
 10
9.5263195393
 20
7.3101361188
 30
0.0
 10
9.5153975627
 20
7.3056001647
 30
0.0
 10
9.5040014373
 20
7.3022187882
 30
0.0
 10
9.492245965
 20
7.3000257988
 30
0.0
 10
9.4802511448
 20
7.2990425268
 30
0.0
 10
9.4721996387
 20
7.2991995705
 30
0.0
 10
9.4681768403
 20
7.2994785525
 30
0.0
  0
SPLINE
  5
3E0
100
AcDbEntity
  8
0
100
AcDbSpline
 62
4
  6
CONTINUOUS
 70
0
 71
3
 72
350
 73
346
 74
0
 42
0.0000001
 43
0.0000001
 44
0.0000000001
 40
0.0
 40
0.0
 40
0.0
 40
0.0
 40
0.015625
 40
0.0234375
 40
0.03125
 40
0.0390625
 40
0.046875
 40
0.05078125
 40
0.0546875
 40
0.056640625
 40
0.05859375
 40
0.060546875
 40
0.0615234375
 40
0.0620117188
 40
0.0625
 40
0.0629882812
 40
0.0634765625
 40
0.064453125
 40
0.06640625
 40
0.068359375
 40
0.0703125
 40
0.07421875
 40
0.078125
 40
0.0859375
 40
0.09375
 40
0.1015625
 40
0.109375
 40
0.11328125
 40
0.1171875
 40
0.119140625
 40
0.12109375
 40
0.123046875
 40
0.1240234375
 40
0.1245117188
 40
0.125
 40
0.1254882812
 40
0.1259765625
 40
0.126953125
 40
0.12890625
 40
0.130859375
 40
0.1328125
 40
0.13671875
 40
0.140625
 40
0.1484375
 40
0.15625
 40
0.1640625
 40
0.16796875
 40
0.171875
 40
0.17578125
 40
0.1796875
 40
0.181640625
 40
0.18359375
 40
0.185546875
 40
0.1865234375
 40
0.1870117188
 40
0.1875
 40
0.1879882812
 40
0.1884765625
 40
0.189453125
 40
0.19140625
 40
0.193359375
 40
0.1953125
 40
0.19921875
 40
0.203125
 40
0.20703125
 40
0.2109375
 40
0.21875
 40
0.2265625
 40
0.23046875
 40
0.234375
 40
0.23828125
 40
0.2421875
 40
0.244140625
 40
0.24609375
 40
0.2470703125
 40
0.248046875
 40
0.2490234375
 40
0.2495117188
 40
0.2497558594
 40
0.25
 40
0.2502441406
 40
0.2504882812
 40
0.2509765625
 40
0.251953125
 40
0.2529296875
 40
0.25390625
 40
0.255859375
 40
0.2578125
 40
0.26171875
 40
0.265625
 40
0.26953125
 40
0.2734375
 40
0.28125
 40
0.2890625
 40
0.29296875
 40
0.296875
 40
0.30078125
 40
0.3046875
 40
0.306640625
 40
0.30859375
 40
0.3095703125
 40
0.310546875
 40
0.3115234375
 40
0.3120117188
 40
0.3122558594
 40
0.3125
 40
0.3127441406
 40
0.3129882812
 40
0.3134765625
 40
0.314453125
 40
0.3154296875
 40
0.31640625
 40
0.318359375
 40
0.3203125
 40
0.32421875
 40
0.328125
 40
0.33203125
 40
0.3359375
 40
0.34375
 40
0.3515625
 40
0.35546875
 40
0.359375
 40
0.36328125
 40
0.3671875
 40
0.369140625
 40
0.37109375
 40
0.3720703125
 40
0.373046875
 40
0.3740234375
 40
0.3745117188
 40
0.3747558594
 40
0.375
 40
0.3752441406
 40
0.3754882812
 40
0.3759765625
 40
0.376953125
 40
0.3779296875
 40
0.37890625
 40
0.380859375
 40
0.3828125
 40
0.38671875
 40
0.390625
 40
0.39453125
 40
0.3984375
 40
0.40625
 40
0.4140625
 40
0.41796875
 40
0.421875
 40
0.42578125
 40
0.4296875
 40
0.431640625
 40
0.43359375
 40
0.4345703125
 40
0.435546875
 40
0.4365234375
 40
0.4370117188
 40
0.4372558594
 40
0.4375
 40
0.4377441406
 40
0.4379882812
 40
0.4384765625
 40
0.439453125
 40
0.4404296875
 40
0.44140625
 40
0.443359375
 40
0.4453125
 40
0.44921875
 40
0.453125
 40
0.45703125
 40
0.4609375
 40
0.46875
 40
0.4765625
 40
0.48046875
 40
0.484375
 40
0.48828125
 40
0.4921875
 40
0.494140625
 40
0.49609375
 40
0.4970703125
 40
0.498046875
 40
0.4990234375
 40
0.4995117188
 40
0.4997558594
 40
0.5
 40
0.5002441406
 40
0.5004882812
 40
0.5009765625
 40
0.501953125
 40
0.5029296875
 40
0.50390625
 40
0.505859375
 40
0.5078125
 40
0.51171875
 40
0.515625
 40
0.51953125
 40
0.5234375
 40
0.53125
 40
0.5390625
 40
0.54296875
 40
0.546875
 40
0.55078125
 40
0.5546875
 40
0.556640625
 40
0.55859375
 40
0.5595703125
 40
0.560546875
 40
0.5615234375
 40
0.5620117188
 40
0.5622558594
 40
0.5625
 40
0.5627441406
 40
0.5629882812
 40
0.5634765625
 40
0.564453125
 40
0.5654296875
 40
0.56640625
 40
0.568359375
 40
0.5703125
 40
0.57421875
 40
0.578125
 40
0.58203125
 40
0.5859375
 40
0.59375
 40
0.6015625
 40
0.60546875
 40
0.609375
 40
0.61328125
 40
0.6171875
 40
0.619140625
 40
0.62109375
 40
0.6220703125
 40
0.623046875
 40
0.6240234375
 40
0.6245117188
 40
0.6247558594
 40
0.625
 40
0.6252441406
 40
0.6254882812
 40
0.6259765625
 40
0.626953125
 40
0.6279296875
 40
0.62890625
 40
0.630859375
 40
0.6328125
 40
0.63671875
 40
0.640625
 40
0.64453125
 40
0.6484375
 40
0.65625
 40
0.6640625
 40
0.66796875
 40
0.671875
 40
0.67578125
 40
0.6796875
 40
0.681640625
 40
0.68359375
 40
0.6845703125
 40
0.685546875
 40
0.6865234375
 40
0.6870117188
 40
0.6875
 40
0.6879882812
 40
0.6884765625
 40
0.689453125
 40
0.6904296875
 40
0.69140625
 40
0.693359375
 40
0.6953125
 40
0.69921875
 40
0.703125
 40
0.70703125
 40
0.7109375
 40
0.71875
 40
0.7265625
 40
0.734375
 40
0.73828125
 40
0.7421875
 40
0.744140625
 40
0.74609375
 40
0.748046875
 40
0.7490234375
 40
0.7495117188
 40
0.75
 40
0.7504882812
 40
0.7509765625
 40
0.751953125
 40
0.75390625
 40
0.755859375
 40
0.7578125
 40
0.76171875
 40
0.765625
 40
0.7734375
 40
0.78125
 40
0.7890625
 40
0.796875
 40
0.80078125
 40
0.8046875
 40
0.806640625
 40
0.80859375
 40
0.810546875
 40
0.8115234375
 40
0.8125
 40
0.8134765625
 40
0.814453125
 40
0.81640625
 40
0.818359375
 40
0.8203125
 40
0.82421875
 40
0.828125
 40
0.8359375
 40
0.84375
 40
0.8515625
 40
0.859375
 40
0.86328125
 40
0.8671875
 40
0.87109375
 40
0.873046875
 40
0.8740234375
 40
0.875
 40
0.8759765625
 40
0.876953125
 40
0.87890625
 40
0.8828125
 40
0.88671875
 40
0.890625
 40
0.8984375
 40
0.90625
 40
0.9140625
 40
0.921875
 40
0.92578125
 40
0.9296875
 40
0.93359375
 40
0.935546875
 40
0.9365234375
 40
0.9375
 40
0.9384765625
 40
0.939453125
 40
0.94140625
 40
0.9453125
 40
0.94921875
 40
0.953125
 40
0.9609375
 40
0.96875
 40
0.984375
 40
1.0
 40
1.0
 40
1.0
 40
1.0
 10
13.7155016346
 20
9.8670286169
 30
0.0
 10
13.7154193176
 20
9.8700822917
 30
0.0
 10
13.7152958421
 20
9.8746628039
 30
0.0
 10
13.7151312078
 20
9.8807701532
 30
0.0
 10
13.7150077328
 20
9.8853506662
 30
0.0
 10
13.7148842552
 20
9.889931175
 30
0.0
 10
13.7147813651
 20
9.8937482789
 30
0.0
 10
13.7146990355
 20
9.8968019323
 30
0.0
 10
13.7146476192
 20
9.8987105333
 30
0.0
 10
13.7146063953
 20
9.9002372592
 30
0.0
 10
13.7145757262
 20
9.9013827279
 30
0.0
 10
13.7145493768
 20
9.9023359352
 30
0.0
 10
13.7145324863
 20
9.9030058297
 30
0.0
 10
13.7145204081
 20
9.9033844897
 30
0.0
 10
13.7145181848
 20
9.9036801384
 30
0.0
 10
13.7144898331
 20
9.9039312408
 30
0.0
 10
13.7144611447
 20
9.9042815823
 30
0.0
 10
13.7144066938
 20
9.9048874403
 30
0.0
 10
13.7143311267
 20
9.9057567367
 30
0.0
 10
13.7142394959
 20
9.9067982723
 30
0.0
 10
13.7141176535
 20
9.9081875523
 30
0.0
 10
13.7139652368
 20
9.9099239585
 30
0.0
 10
13.7137214336
 20
9.9127023168
 30
0.0
 10
13.7134166578
 20
9.9161752271
 30
0.0
 10
13.7130509367
 20
9.9203427371
 30
0.0
 10
13.7126852107
 20
9.9245102369
 30
0.0
 10
13.712380447
 20
9.9279831728
 30
0.0
 10
13.7121366195
 20
9.9307614801
 30
0.0
 10
13.7119842647
 20
9.9324980159
 30
0.0
 10
13.7118622952
 20
9.9338870299
 30
0.0
 10
13.7117710527
 20
9.934929378
 30
0.0
 10
13.7116942709
 20
9.9357961324
 30
0.0
 10
13.7116419883
 20
9.9364065282
 30
0.0
 10
13.7116098256
 20
9.936749599
 30
0.0
 10
13.711592146
 20
9.9370230348
 30
0.0
 10
13.7115498403
 20
9.937234803
 30
0.0
 10
13.7115020226
 20
9.937538671
 30
0.0
 10
13.7114143395
 20
9.938060418
 30
0.0
 10
13.7112911703
 20
9.9388110104
 30
0.0
 10
13.7111424716
 20
9.9397094786
 30
0.0
 10
13.7109445195
 20
9.9409082196
 30
0.0
 10
13.7106969723
 20
9.9424063775
 30
0.0
 10
13.7103009566
 20
9.9448035801
 30
0.0
 10
13.7098059165
 20
9.947800032
 30
0.0
 10
13.709211877
 20
9.9513957959
 30
0.0
 10
13.7087168426
 20
9.9543922623
 30
0.0
 10
13.7083208143
 20
9.9567894331
 30
0.0
 10
13.7080237962
 20
9.9585873204
 30
0.0
 10
13.7077267661
 20
9.9603851719
 30
0.0
 10
13.7074792783
 20
9.9618834931
 30
0.0
 10
13.7072812047
 20
9.9630819001
 30
0.0
 10
13.7071328772
 20
9.9639813881
 30
0.0
 10
13.7070085465
 20
9.9647287899
 30
0.0
 10
13.7069229369
 20
9.9652562327
 30
0.0
 10
13.7068717968
 20
9.9655509746
 30
0.0
 10
13.7068396964
 20
9.9657907755
 30
0.0
 10
13.7067836876
 20
9.9659589251
 30
0.0
 10
13.7067173486
 20
9.9662081174
 30
0.0
 10
13.7065973699
 20
9.9666325592
 30
0.0
 10
13.7064280032
 20
9.9672449926
 30
0.0
 10
13.7062238935
 20
9.9679773069
 30
0.0
 10
13.7059520511
 20
9.9689546362
 30
0.0
 10
13.7056121439
 20
9.9701759854
 30
0.0
 10
13.7052042998
 20
9.9716417384
 30
0.0
 10
13.7047964439
 20
9.9731074555
 30
0.0
 10
13.7042526401
 20
9.9750617576
 30
0.0
 10
13.7035728839
 20
9.9775046308
 30
0.0
 10
13.7028931283
 20
9.9799475058
 30
0.0
 10
13.7023493236
 20
9.9819018051
 30
0.0
 10
13.7019414703
 20
9.9833675307
 30
0.0
 10
13.7015336162
 20
9.9848332519
 30
0.0
 10
13.7011937403
 20
9.9860547002
 30
0.0
 10
13.7009218338
 20
9.9870318273
 30
0.0
 10
13.7007519056
 20
9.9876426037
 30
0.0
 10
13.7006159325
 20
9.98813106
 30
0.0
 10
13.700514036
 20
9.9884978536
 30
0.0
 10
13.7004288574
 20
9.988802079
 30
0.0
 10
13.7003697521
 20
9.9890178547
 30
0.0
 10
13.7003351661
 20
9.9891367553
 30
0.0
 10
13.700311513
 20
9.9892383249
 30
0.0
 10
13.7002791199
 20
9.9892925176
 30
0.0
 10
13.7002389777
 20
9.9893813001
 30
0.0
 10
13.7001673085
 20
9.9895289699
 30
0.0
 10
13.7000656666
 20
9.9897439522
 30
0.0
 10
13.6999433784
 20
9.990000208
 30
0.0
 10
13.6997804384
 20
9.9903424841
 30
0.0
 10
13.6995767255
 20
9.9907701233
 30
0.0
 10
13.6992508061
 20
9.9914544611
 30
0.0
 10
13.6988433995
 20
9.9923098438
 30
0.0
 10
13.6983545147
 20
9.99333632
 30
0.0
 10
13.6978656291
 20
9.9943627916
 30
0.0
 10
13.6972137819
 20
9.9957314221
 30
0.0
 10
13.6963989729
 20
9.9974422096
 30
0.0
 10
13.6955841638
 20
9.9991529974
 30
0.0
 10
13.6949323166
 20
10.0005216273
 30
0.0
 10
13.6944434313
 20
10.0015481008
 30
0.0
 10
13.6939545453
 20
10.0025745698
 30
0.0
 10
13.6935471425
 20
10.003429975
 30
0.0
 10
13.6932212153
 20
10.0041142669
 30
0.0
 10
13.6930175221
 20
10.0045420229
 30
0.0
 10
13.6928545417
 20
10.0048840591
 30
0.0
 10
13.6927323771
 20
10.0051410479
 30
0.0
 10
13.6926303486
 20
10.0053537367
 30
0.0
 10
13.6925593694
 20
10.0055055009
 30
0.0
 10
13.6925181217
 20
10.0055877231
 30
0.0
 10
13.6924891242
 20
10.005662067
 30
0.0
 10
13.692452718
 20
10.0056879521
 30
0.0
 10
13.6924067606
 20
10.0057393687
 30
0.0
 10
13.6923251312
 20
10.0058214722
 30
0.0
 10
13.6922091472
 20
10.0059428803
 30
0.0
 10
13.6920696969
 20
10.0060868076
 30
0.0
 10
13.6918838573
 20
10.0062793263
 30
0.0
 10
13.6916515257
 20
10.0065197638
 30
0.0
 10
13.691279813
 20
10.0069045817
 30
0.0
 10
13.690815166
 20
10.0073855637
 30
0.0
 10
13.6902575922
 20
10.0079627594
 30
0.0
 10
13.6897000177
 20
10.0085399504
 30
0.0
 10
13.6889565853
 20
10.0093095401
 30
0.0
 10
13.6880272947
 20
10.0102715266
 30
0.0
 10
13.6870980041
 20
10.0112335136
 30
0.0
 10
13.6863545716
 20
10.0120031026
 30
0.0
 10
13.6857969974
 20
10.0125802956
 30
0.0
 10
13.6852394226
 20
10.0131574838
 30
0.0
 10
13.6847747786
 20
10.0136384891
 30
0.0
 10
13.6844030599
 20
10.0140232594
 30
0.0
 10
13.6841707435
 20
10.0142638181
 30
0.0
 10
13.6839848725
 20
10.0144560882
 30
0.0
 10
13.6838455181
 20
10.014600775
 30
0.0
 10
13.6837292343
 20
10.0147198069
 30
0.0
 10
13.68364814
 20
10.0148061523
 30
0.0
 10
13.6836013252
 20
10.0148507722
 30
0.0
 10
13.6835675529
 20
10.0148975346
 30
0.0
 10
13.6835286627
 20
10.0148934671
 30
0.0
 10
13.6834785942
 20
10.0149057738
 30
0.0
 10
13.6833901427
 20
10.0149190497
 30
0.0
 10
13.6832642182
 20
10.0149423342
 30
0.0
 10
13.6831129227
 20
10.014968427
 30
0.0
 10
13.6829112604
 20
10.0150038631
 30
0.0
 10
13.6826591602
 20
10.015047937
 30
0.0
 10
13.6822558124
 20
10.015118579
 30
0.0
 10
13.6817516233
 20
10.015206839
 30
0.0
 10
13.6811465983
 20
10.0153127692
 30
0.0
 10
13.6805415727
 20
10.0154186946
 30
0.0
 10
13.6797348722
 20
10.0155599301
 30
0.0
 10
13.6787264965
 20
10.0157364739
 30
0.0
 10
13.6777181208
 20
10.015913018
 30
0.0
 10
13.6769114202
 20
10.0160542529
 30
0.0
 10
13.6763063948
 20
10.0161601803
 30
0.0
 10
13.6757013691
 20
10.0162661027
 30
0.0
 10
13.6751971822
 20
10.016354387
 30
0.0
 10
13.67479383
 20
10.0164249795
 30
0.0
 10
13.6745417408
 20
10.0164691794
 30
0.0
 10
13.674340056
 20
10.0165043569
 30
0.0
 10
13.6741888291
 20
10.0165312396
 30
0.0
 10
13.67406269
 20
10.0165520527
 30
0.0
 10
13.6739746217
 20
10.0165697405
 30
0.0
 10
13.6739239392
 20
10.0165749783
 30
0.0
 10
13.6738869352
 20
10.0165926243
 30
0.0
 10
13.6738460784
 20
10.0165578343
 30
0.0
 10
13.6737929465
 20
10.0165297379
 30
0.0
 10
13.6736993397
 20
10.0164720473
 30
0.0
 10
13.6735659429
 20
10.0163940876
 30
0.0
 10
13.6734057267
 20
10.0162986289
 30
0.0
 10
13.6731921541
 20
10.0161720168
 30
0.0
 10
13.6729251715
 20
10.0160135235
 30
0.0
 10
13.6724980087
 20
10.0157600617
 30
0.0
 10
13.671964052
 20
10.0154431907
 30
0.0
 10
13.6713233053
 20
10.0150629643
 30
0.0
 10
13.6706825583
 20
10.0146827329
 30
0.0
 10
13.6698282291
 20
10.0141757595
 30
0.0
 10
13.6687603175
 20
10.013542042
 30
0.0
 10
13.6676924059
 20
10.0129083249
 30
0.0
 10
13.6668380767
 20
10.0124013508
 30
0.0
 10
13.6661973297
 20
10.0120211214
 30
0.0
 10
13.6655565828
 20
10.0116408873
 30
0.0
 10
13.6650226268
 20
10.0113240403
 30
0.0
 10
13.6645954627
 20
10.0110705297
 30
0.0
 10
13.6643284834
 20
10.0109121607
 30
0.0
 10
13.664114904
 20
10.0107852934
 30
0.0
 10
13.6639547082
 20
10.010690614
 30
0.0
 10
13.6638212478
 20
10.0106102162
 30
0.0
 10
13.6637277545
 20
10.0105568781
 30
0.0
 10
13.6636744408
 20
10.0105218079
 30
0.0
 10
13.6636341425
 20
10.0105084391
 30
0.0
 10
13.663595041
 20
10.0104456308
 30
0.0
 10
13.6635424881
 20
10.0103791314
 30
0.0
 10
13.6634507152
 20
10.0102547226
 30
0.0
 10
13.6633195094
 20
10.0100811966
 30
0.0
 10
13.6631621059
 20
10.0098711672
 30
0.0
 10
13.6629522193
 20
10.0095917562
 30
0.0
 10
13.6626898664
 20
10.0092422773
 30
0.0
 10
13.6622700987
 20
10.0086832313
 30
0.0
 10
13.6617453901
 20
10.0079843825
 30
0.0
 10
13.6611157394
 20
10.0071457816
 30
0.0
 10
13.6604860888
 20
10.0063071761
 30
0.0
 10
13.6596465547
 20
10.005189037
 30
0.0
 10
13.658597137
 20
10.0037913625
 30
0.0
 10
13.6575477193
 20
10.0023936884
 30
0.0
 10
13.6567081851
 20
10.0012755486
 30
0.0
 10
13.6560785344
 20
10.000436945
 30
0.0
 10
13.655448884
 20
9.9995983369
 30
0.0
 10
13.6549241746
 20
9.9988995106
 30
0.0
 10
13.6545044087
 20
9.9983404187
 30
0.0
 10
13.6542420511
 20
9.9979910566
 30
0.0
 10
13.6540321741
 20
9.9977114059
 30
0.0
 10
13.6538747416
 20
9.9975021086
 30
0.0
 10
13.6537436263
 20
9.9973262922
 30
0.0
 10
13.6536516918
 20
9.997205972
 30
0.0
 10
13.6535993979
 20
9.9971329218
 30
0.0
 10
13.6535595009
 20
9.9970902355
 30
0.0
 10
13.6535221906
 20
9.9970012915
 30
0.0
 10
13.6534715412
 20
9.9968988347
 30
0.0
 10
13.6533833252
 20
9.9967120176
 30
0.0
 10
13.6532570826
 20
9.9964490663
 30
0.0
 10
13.6531056855
 20
9.9961318425
 30
0.0
 10
13.6529037899
 20
9.995709465
 30
0.0
 10
13.6526514316
 20
9.995181292
 30
0.0
 10
13.6522476521
 20
9.9943363276
 30
0.0
 10
13.6517429299
 20
9.9932800835
 30
0.0
 10
13.6511372623
 20
9.9920126071
 30
0.0
 10
13.6505315949
 20
9.9907451263
 30
0.0
 10
13.6497240383
 20
9.9890551534
 30
0.0
 10
13.6487145926
 20
9.9869426867
 30
0.0
 10
13.6477051469
 20
9.9848302204
 30
0.0
 10
13.6468975903
 20
9.983140247
 30
0.0
 10
13.6462919228
 20
9.9818727679
 30
0.0
 10
13.6456862558
 20
9.9806052849
 30
0.0
 10
13.6451815317
 20
9.9795490613
 30
0.0
 10
13.6447777559
 20
9.9787040551
 30
0.0
 10
13.6445253883
 20
9.9781759885
 30
0.0
 10
13.6443235118
 20
9.9777533924
 30
0.0
 10
13.6441720561
 20
9.9774368365
 30
0.0
 10
13.6440459969
 20
9.9771717957
 30
0.0
 10
13.6439574536
 20
9.9769887087
 30
0.0
 10
13.6439073287
 20
9.9768802753
 30
0.0
 10
13.6438684074
 20
9.9768096895
 30
0.0
 10
13.6438345611
 20
9.976698053
 30
0.0
 10
13.6437876624
 20
9.9765635233
 30
0.0
 10
13.6437064146
 20
9.9763214249
 30
0.0
 10
13.6435899152
 20
9.9759790579
 30
0.0
 10
13.6434503003
 20
9.9755667246
 30
0.0
 10
13.6432640828
 20
9.9750174682
 30
0.0
 10
13.6430313329
 20
9.9743307193
 30
0.0
 10
13.6426589208
 20
9.9732320208
 30
0.0
 10
13.6421934099
 20
9.9718586134
 30
0.0
 10
13.6416347949
 20
9.9702105392
 30
0.0
 10
13.6410761805
 20
9.9685624611
 30
0.0
 10
13.6403313611
 20
9.966365025
 30
0.0
 10
13.6394003368
 20
9.9636182295
 30
0.0
 10
13.6384693126
 20
9.9608714337
 30
0.0
 10
13.6377244931
 20
9.9586739981
 30
0.0
 10
13.637165879
 20
9.9570259186
 30
0.0
 10
13.636607263
 20
9.9553778495
 30
0.0
 10
13.6361417552
 20
9.9540044264
 30
0.0
 10
13.6357693367
 20
9.95290576
 30
0.0
 10
13.6355366031
 20
9.9522189292
 30
0.0
 10
13.6353503522
 20
9.9516698409
 30
0.0
 10
13.635210839
 20
9.9512569943
 30
0.0
 10
13.6350940217
 20
9.9509162333
 30
0.0
 10
13.6350018155
 20
9.9506362729
 30
0.0
 10
13.6349292515
 20
9.9504463907
 30
0.0
 10
13.6348697013
 20
9.9501798317
 30
0.0
 10
13.6347857551
 20
9.949851204
 30
0.0
 10
13.634682382
 20
9.9494312298
 30
0.0
 10
13.6345576667
 20
9.9489311942
 30
0.0
 10
13.6343916128
 20
9.9482631062
 30
0.0
 10
13.6341839656
 20
9.9474284666
 30
0.0
 10
13.6338517747
 20
9.9460927804
 30
0.0
 10
13.6334365207
 20
9.9444232628
 30
0.0
 10
13.6329382225
 20
9.942419803
 30
0.0
 10
13.6324399226
 20
9.9404163535
 30
0.0
 10
13.6317755234
 20
9.9377450839
 30
0.0
 10
13.6309450237
 20
9.934405999
 30
0.0
 10
13.6299484262
 20
9.9303990922
 30
0.0
 10
13.629117922
 20
9.9270600168
 30
0.0
 10
13.6284535326
 20
9.9243887263
 30
0.0
 10
13.6280382575
 20
9.9227192383
 30
0.0
 10
13.62770611
 20
9.921383491
 30
0.0
 10
13.6274568006
 20
9.92038211
 30
0.0
 10
13.6272496752
 20
9.9195462596
 30
0.0
 10
13.6271034464
 20
9.9189638456
 30
0.0
 10
13.6270218248
 20
9.918626851
 30
0.0
 10
13.62695515
 20
9.9183858988
 30
0.0
 10
13.6269093404
 20
9.9180998647
 30
0.0
 10
13.626840983
 20
9.917734211
 30
0.0
 10
13.6267247484
 20
9.9170869903
 30
0.0
 10
13.6265569261
 20
9.9161662198
 30
0.0
 10
13.6263562982
 20
9.9150596557
 30
0.0
 10
13.6260885292
 20
9.9135848095
 30
0.0
 10
13.6257539088
 20
9.9117410557
 30
0.0
 10
13.6252184655
 20
9.9087911592
 30
0.0
 10
13.6245491784
 20
9.9051037514
 30
0.0
 10
13.6237460281
 20
9.9006788757
 30
0.0
 10
13.6229428737
 20
9.8962540049
 30
0.0
 10
13.6222735966
 20
9.8925665849
 30
0.0
 10
13.6217381333
 20
9.8896167127
 30
0.0
 10
13.6214035637
 20
9.8877728971
 30
0.0
 10
13.6211356906
 20
9.8862981777
 30
0.0
 10
13.6209353808
 20
9.8851912263
 30
0.0
 10
13.6207665632
 20
9.8842716675
 30
0.0
 10
13.6206357543
 20
9.8835295147
 30
0.0
 10
13.6205260477
 20
9.8829906768
 30
0.0
 10
13.6204606184
 20
9.8823839853
 30
0.0
 10
13.6203579127
 20
9.8815987654
 30
0.0
 10
13.6202348371
 20
9.8806091085
 30
0.0
 10
13.620084875
 20
9.8794250009
 30
0.0
 10
13.6198857189
 20
9.8778449751
 30
0.0
 10
13.6196365021
 20
9.8758703591
 30
0.0
 10
13.6192379069
 20
9.872710741
 30
0.0
 10
13.6187396122
 20
9.8687612973
 30
0.0
 10
13.6181416742
 20
9.8640219346
 30
0.0
 10
13.6175437549
 20
9.8592825666
 30
0.0
 10
13.6170454136
 20
9.8553331361
 30
0.0
 10
13.6166469117
 20
9.8521734914
 30
0.0
 10
13.6163475668
 20
9.8498040332
 30
0.0
 10
13.6160996032
 20
9.8478286089
 30
0.0
 10
13.6159231036
 20
9.8464475306
 30
0.0
 10
13.6158268139
 20
9.8456556593
 30
0.0
 10
13.6157417306
 20
9.8450693158
 30
0.0
 10
13.615705828
 20
9.8444540746
 30
0.0
 10
13.6156408032
 20
9.8436438329
 30
0.0
 10
13.6155350023
 20
9.8422212135
 30
0.0
 10
13.6153796796
 20
9.8401913554
 30
0.0
 10
13.615195081
 20
9.8377544748
 30
0.0
 10
13.6149483245
 20
9.8345056677
 30
0.0
 10
13.6146400949
 20
9.8304445326
 30
0.0
 10
13.6142701202
 20
9.8255712256
 30
0.0
 10
13.6139001964
 20
9.8206979005
 30
0.0
 10
13.6135918396
 20
9.8166368105
 30
0.0
 10
13.6133453375
 20
9.8133879132
 30
0.0
 10
13.6131599632
 20
9.8109513078
 30
0.0
 10
13.6130070671
 20
9.8089205886
 30
0.0
 10
13.6128969344
 20
9.8074995065
 30
0.0
 10
13.6128388502
 20
9.8066868017
 30
0.0
 10
13.612781628
 20
9.8060791263
 30
0.0
 10
13.6127766178
 20
9.805464367
 30
0.0
 10
13.6127517253
 20
9.8046471588
 30
0.0
 10
13.6127166489
 20
9.8032158933
 30
0.0
 10
13.6126621034
 20
9.8011718302
 30
0.0
 10
13.6125985478
 20
9.7987186969
 30
0.0
 10
13.6125131437
 20
9.7954479424
 30
0.0
 10
13.6124066156
 20
9.7913594685
 30
0.0
 10
13.6122360438
 20
9.7848179275
 30
0.0
 10
13.6120228728
 20
9.7766409952
 30
0.0
 10
13.6118523227
 20
9.7700994512
 30
0.0
 10
13.6117670493
 20
9.766828679
 30
0.0
  0
SPLINE
  5
3E1
100
AcDbEntity
  8
0
100
AcDbSpline
 62
4
  6
CONTINUOUS
 70
0
 71
3
 72
350
 73
346
 74
0
 42
0.0000001
 43
0.0000001
 44
0.0000000001
 40
0.0
 40
0.0
 40
0.0
 40
0.0
 40
0.015625
 40
0.0234375
 40
0.03125
 40
0.0390625
 40
0.046875
 40
0.05078125
 40
0.0546875
 40
0.056640625
 40
0.05859375
 40
0.060546875
 40
0.0615234375
 40
0.0620117188
 40
0.0625
 40
0.0629882812
 40
0.0634765625
 40
0.064453125
 40
0.06640625
 40
0.068359375
 40
0.0703125
 40
0.07421875
 40
0.078125
 40
0.0859375
 40
0.09375
 40
0.1015625
 40
0.109375
 40
0.11328125
 40
0.1171875
 40
0.119140625
 40
0.12109375
 40
0.123046875
 40
0.1240234375
 40
0.1245117188
 40
0.125
 40
0.1254882812
 40
0.1259765625
 40
0.126953125
 40
0.12890625
 40
0.130859375
 40
0.1328125
 40
0.13671875
 40
0.140625
 40
0.1484375
 40
0.15625
 40
0.1640625
 40
0.16796875
 40
0.171875
 40
0.17578125
 40
0.1796875
 40
0.181640625
 40
0.18359375
 40
0.185546875
 40
0.1865234375
 40
0.1870117188
 40
0.1875
 40
0.1879882812
 40
0.1884765625
 40
0.189453125
 40
0.19140625
 40
0.193359375
 40
0.1953125
 40
0.19921875
 40
0.203125
 40
0.20703125
 40
0.2109375
 40
0.21875
 40
0.2265625
 40
0.23046875
 40
0.234375
 40
0.23828125
 40
0.2421875
 40
0.244140625
 40
0.24609375
 40
0.2470703125
 40
0.248046875
 40
0.2490234375
 40
0.2495117188
 40
0.2497558594
 40
0.25
 40
0.2502441406
 40
0.2504882812
 40
0.2509765625
 40
0.251953125
 40
0.2529296875
 40
0.25390625
 40
0.255859375
 40
0.2578125
 40
0.26171875
 40
0.265625
 40
0.26953125
 40
0.2734375
 40
0.28125
 40
0.2890625
 40
0.29296875
 40
0.296875
 40
0.30078125
 40
0.3046875
 40
0.306640625
 40
0.30859375
 40
0.3095703125
 40
0.310546875
 40
0.3115234375
 40
0.3120117188
 40
0.3122558594
 40
0.3125
 40
0.3127441406
 40
0.3129882812
 40
0.3134765625
 40
0.314453125
 40
0.3154296875
 40
0.31640625
 40
0.318359375
 40
0.3203125
 40
0.32421875
 40
0.328125
 40
0.33203125
 40
0.3359375
 40
0.34375
 40
0.3515625
 40
0.35546875
 40
0.359375
 40
0.36328125
 40
0.3671875
 40
0.369140625
 40
0.37109375
 40
0.3720703125
 40
0.373046875
 40
0.3740234375
 40
0.3745117188
 40
0.3747558594
 40
0.375
 40
0.3752441406
 40
0.3754882812
 40
0.3759765625
 40
0.376953125
 40
0.3779296875
 40
0.37890625
 40
0.380859375
 40
0.3828125
 40
0.38671875
 40
0.390625
 40
0.39453125
 40
0.3984375
 40
0.40625
 40
0.4140625
 40
0.41796875
 40
0.421875
 40
0.42578125
 40
0.4296875
 40
0.431640625
 40
0.43359375
 40
0.4345703125
 40
0.435546875
 40
0.4365234375
 40
0.4370117188
 40
0.4372558594
 40
0.4375
 40
0.4377441406
 40
0.4379882812
 40
0.4384765625
 40
0.439453125
 40
0.4404296875
 40
0.44140625
 40
0.443359375
 40
0.4453125
 40
0.44921875
 40
0.453125
 40
0.45703125
 40
0.4609375
 40
0.46875
 40
0.4765625
 40
0.48046875
 40
0.484375
 40
0.48828125
 40
0.4921875
 40
0.494140625
 40
0.49609375
 40
0.4970703125
 40
0.498046875
 40
0.4990234375
 40
0.4995117188
 40
0.4997558594
 40
0.5
 40
0.5002441406
 40
0.5004882812
 40
0.5009765625
 40
0.501953125
 40
0.5029296875
 40
0.50390625
 40
0.505859375
 40
0.5078125
 40
0.51171875
 40
0.515625
 40
0.51953125
 40
0.5234375
 40
0.53125
 40
0.5390625
 40
0.54296875
 40
0.546875
 40
0.55078125
 40
0.5546875
 40
0.556640625
 40
0.55859375
 40
0.5595703125
 40
0.560546875
 40
0.5615234375
 40
0.5620117188
 40
0.5622558594
 40
0.5625
 40
0.5627441406
 40
0.5629882812
 40
0.5634765625
 40
0.564453125
 40
0.5654296875
 40
0.56640625
 40
0.568359375
 40
0.5703125
 40
0.57421875
 40
0.578125
 40
0.58203125
 40
0.5859375
 40
0.59375
 40
0.6015625
 40
0.60546875
 40
0.609375
 40
0.61328125
 40
0.6171875
 40
0.619140625
 40
0.62109375
 40
0.6220703125
 40
0.623046875
 40
0.6240234375
 40
0.6245117188
 40
0.6247558594
 40
0.625
 40
0.6252441406
 40
0.6254882812
 40
0.6259765625
 40
0.626953125
 40
0.6279296875
 40
0.62890625
 40
0.630859375
 40
0.6328125
 40
0.63671875
 40
0.640625
 40
0.64453125
 40
0.6484375
 40
0.65625
 40
0.6640625
 40
0.66796875
 40
0.671875
 40
0.67578125
 40
0.6796875
 40
0.681640625
 40
0.68359375
 40
0.6845703125
 40
0.685546875
 40
0.6865234375
 40
0.6870117188
 40
0.6875
 40
0.6879882812
 40
0.6884765625
 40
0.689453125
 40
0.6904296875
 40
0.69140625
 40
0.693359375
 40
0.6953125
 40
0.69921875
 40
0.703125
 40
0.70703125
 40
0.7109375
 40
0.71875
 40
0.7265625
 40
0.734375
 40
0.73828125
 40
0.7421875
 40
0.744140625
 40
0.74609375
 40
0.748046875
 40
0.7490234375
 40
0.7495117188
 40
0.75
 40
0.7504882812
 40
0.7509765625
 40
0.751953125
 40
0.75390625
 40
0.755859375
 40
0.7578125
 40
0.76171875
 40
0.765625
 40
0.7734375
 40
0.78125
 40
0.7890625
 40
0.796875
 40
0.80078125
 40
0.8046875
 40
0.806640625
 40
0.80859375
 40
0.810546875
 40
0.8115234375
 40
0.8125
 40
0.8134765625
 40
0.814453125
 40
0.81640625
 40
0.818359375
 40
0.8203125
 40
0.82421875
 40
0.828125
 40
0.8359375
 40
0.84375
 40
0.8515625
 40
0.859375
 40
0.86328125
 40
0.8671875
 40
0.87109375
 40
0.873046875
 40
0.8740234375
 40
0.875
 40
0.8759765625
 40
0.876953125
 40
0.87890625
 40
0.8828125
 40
0.88671875
 40
0.890625
 40
0.8984375
 40
0.90625
 40
0.9140625
 40
0.921875
 40
0.92578125
 40
0.9296875
 40
0.93359375
 40
0.935546875
 40
0.9365234375
 40
0.9375
 40
0.9384765625
 40
0.939453125
 40
0.94140625
 40
0.9453125
 40
0.94921875
 40
0.953125
 40
0.9609375
 40
0.96875
 40
0.984375
 40
1.0
 40
1.0
 40
1.0
 40
1.0
 10
13.6117670493
 20
9.7668286959
 30
0.0
 10
13.6118493663
 20
9.7637750212
 30
0.0
 10
13.6119728418
 20
9.7591945089
 30
0.0
 10
13.6121374761
 20
9.7530871597
 30
0.0
 10
13.6122609511
 20
9.7485066467
 30
0.0
 10
13.6123844286
 20
9.7439261379
 30
0.0
 10
13.6124873188
 20
9.740109034
 30
0.0
 10
13.6125696484
 20
9.7370553806
 30
0.0
 10
13.6126210647
 20
9.7351467796
 30
0.0
 10
13.6126622886
 20
9.7336200537
 30
0.0
 10
13.6126929576
 20
9.7324745849
 30
0.0
 10
13.612719307
 20
9.7315213777
 30
0.0
 10
13.6127361976
 20
9.7308514832
 30
0.0
 10
13.6127482758
 20
9.7304728232
 30
0.0
 10
13.612750499
 20
9.7301771745
 30
0.0
 10
13.6127788508
 20
9.7299260721
 30
0.0
 10
13.6128075391
 20
9.7295757306
 30
0.0
 10
13.6128619901
 20
9.7289698726
 30
0.0
 10
13.6129375572
 20
9.7281005762
 30
0.0
 10
13.6130291879
 20
9.7270590406
 30
0.0
 10
13.6131510304
 20
9.7256697606
 30
0.0
 10
13.6133034471
 20
9.7239333544
 30
0.0
 10
13.6135472502
 20
9.7211549961
 30
0.0
 10
13.6138520261
 20
9.7176820857
 30
0.0
 10
13.6142177472
 20
9.7135145758
 30
0.0
 10
13.6145834731
 20
9.709347076
 30
0.0
 10
13.6148882369
 20
9.7058741401
 30
0.0
 10
13.6151320644
 20
9.7030958328
 30
0.0
 10
13.6152844191
 20
9.701359297
 30
0.0
 10
13.6154063887
 20
9.699970283
 30
0.0
 10
13.6154976312
 20
9.6989279349
 30
0.0
 10
13.6155744129
 20
9.6980611805
 30
0.0
 10
13.6156266955
 20
9.6974507847
 30
0.0
 10
13.6156588582
 20
9.6971077139
 30
0.0
 10
13.6156765379
 20
9.6968342781
 30
0.0
 10
13.6157188435
 20
9.6966225099
 30
0.0
 10
13.6157666612
 20
9.6963186418
 30
0.0
 10
13.6158543443
 20
9.6957968949
 30
0.0
 10
13.6159775136
 20
9.6950463025
 30
0.0
 10
13.6161262123
 20
9.6941478343
 30
0.0
 10
13.6163241643
 20
9.6929490933
 30
0.0
 10
13.6165717116
 20
9.6914509354
 30
0.0
 10
13.6169677273
 20
9.6890537328
 30
0.0
 10
13.6174627674
 20
9.6860572808
 30
0.0
 10
13.6180568069
 20
9.6824615169
 30
0.0
 10
13.6185518413
 20
9.6794650505
 30
0.0
 10
13.6189478696
 20
9.6770678798
 30
0.0
 10
13.6192448877
 20
9.6752699925
 30
0.0
 10
13.6195419177
 20
9.673472141
 30
0.0
 10
13.6197894056
 20
9.6719738198
 30
0.0
 10
13.6199874792
 20
9.6707754127
 30
0.0
 10
13.6201358066
 20
9.6698759248
 30
0.0
 10
13.6202601374
 20
9.669128523
 30
0.0
 10
13.620345747
 20
9.6686010802
 30
0.0
 10
13.620396887
 20
9.6683063383
 30
0.0
 10
13.6204289874
 20
9.6680665374
 30
0.0
 10
13.6204849963
 20
9.6678983878
 30
0.0
 10
13.6205513352
 20
9.6676491955
 30
0.0
 10
13.620671314
 20
9.6672247537
 30
0.0
 10
13.6208406807
 20
9.6666123203
 30
0.0
 10
13.6210447903
 20
9.665880006
 30
0.0
 10
13.6213166327
 20
9.6649026767
 30
0.0
 10
13.62165654
 20
9.6636813275
 30
0.0
 10
13.622064384
 20
9.6622155745
 30
0.0
 10
13.62247224
 20
9.6607498573
 30
0.0
 10
13.6230160438
 20
9.6587955553
 30
0.0
 10
13.6236958
 20
9.656352682
 30
0.0
 10
13.6243755556
 20
9.653909807
 30
0.0
 10
13.6249193603
 20
9.6519555078
 30
0.0
 10
13.6253272136
 20
9.6504897822
 30
0.0
 10
13.6257350677
 20
9.649024061
 30
0.0
 10
13.6260749435
 20
9.6478026127
 30
0.0
 10
13.62634685
 20
9.6468254856
 30
0.0
 10
13.6265167783
 20
9.6462147092
 30
0.0
 10
13.6266527513
 20
9.6457262529
 30
0.0
 10
13.6267546479
 20
9.6453594593
 30
0.0
 10
13.6268398265
 20
9.6450552338
 30
0.0
 10
13.6268989317
 20
9.6448394582
 30
0.0
 10
13.6269335178
 20
9.6447205576
 30
0.0
 10
13.6269571709
 20
9.644618988
 30
0.0
 10
13.626989564
 20
9.6445647953
 30
0.0
 10
13.6270297061
 20
9.6444760128
 30
0.0
 10
13.6271013753
 20
9.644328343
 30
0.0
 10
13.6272030173
 20
9.6441133607
 30
0.0
 10
13.6273253055
 20
9.6438571049
 30
0.0
 10
13.6274882454
 20
9.6435148287
 30
0.0
 10
13.6276919584
 20
9.6430871896
 30
0.0
 10
13.6280178778
 20
9.6424028518
 30
0.0
 10
13.6284252844
 20
9.6415474691
 30
0.0
 10
13.6289141691
 20
9.6405209929
 30
0.0
 10
13.6294030547
 20
9.6394945213
 30
0.0
 10
13.6300549019
 20
9.6381258908
 30
0.0
 10
13.630869711
 20
9.6364151033
 30
0.0
 10
13.63168452
 20
9.6347043154
 30
0.0
 10
13.6323363673
 20
9.6333356856
 30
0.0
 10
13.6328252526
 20
9.632309212
 30
0.0
 10
13.6333141386
 20
9.6312827431
 30
0.0
 10
13.6337215414
 20
9.6304273379
 30
0.0
 10
13.6340474685
 20
9.629743046
 30
0.0
 10
13.6342511618
 20
9.62931529
 30
0.0
 10
13.6344141421
 20
9.6289732538
 30
0.0
 10
13.6345363068
 20
9.628716265
 30
0.0
 10
13.6346383352
 20
9.6285035762
 30
0.0
 10
13.6347093145
 20
9.628351812
 30
0.0
 10
13.6347505621
 20
9.6282695898
 30
0.0
 10
13.6347795597
 20
9.6281952459
 30
0.0
 10
13.6348159659
 20
9.6281693607
 30
0.0
 10
13.6348619232
 20
9.6281179442
 30
0.0
 10
13.6349435527
 20
9.6280358407
 30
0.0
 10
13.6350595367
 20
9.6279144326
 30
0.0
 10
13.635198987
 20
9.6277705053
 30
0.0
 10
13.6353848265
 20
9.6275779866
 30
0.0
 10
13.6356171582
 20
9.6273375491
 30
0.0
 10
13.6359888709
 20
9.6269527312
 30
0.0
 10
13.6364535179
 20
9.6264717492
 30
0.0
 10
13.6370110917
 20
9.6258945535
 30
0.0
 10
13.6375686662
 20
9.6253173625
 30
0.0
 10
13.6383120986
 20
9.6245477728
 30
0.0
 10
13.6392413892
 20
9.6235857863
 30
0.0
 10
13.6401706798
 20
9.6226237993
 30
0.0
 10
13.6409141123
 20
9.6218542103
 30
0.0
 10
13.6414716865
 20
9.6212770173
 30
0.0
 10
13.6420292612
 20
9.6206998291
 30
0.0
 10
13.6424939053
 20
9.6202188238
 30
0.0
 10
13.642865624
 20
9.6198340535
 30
0.0
 10
13.6430979404
 20
9.6195934948
 30
0.0
 10
13.6432838113
 20
9.6194012247
 30
0.0
 10
13.6434231658
 20
9.6192565379
 30
0.0
 10
13.6435394496
 20
9.619137506
 30
0.0
 10
13.6436205438
 20
9.6190511606
 30
0.0
 10
13.6436673587
 20
9.6190065407
 30
0.0
 10
13.643701131
 20
9.6189597783
 30
0.0
 10
13.6437400212
 20
9.6189638458
 30
0.0
 10
13.6437900896
 20
9.6189515391
 30
0.0
 10
13.6438785412
 20
9.6189382632
 30
0.0
 10
13.6440044657
 20
9.6189149787
 30
0.0
 10
13.6441557612
 20
9.6188888859
 30
0.0
 10
13.6443574235
 20
9.6188534498
 30
0.0
 10
13.6446095237
 20
9.6188093758
 30
0.0
 10
13.6450128715
 20
9.6187387339
 30
0.0
 10
13.6455170606
 20
9.6186504739
 30
0.0
 10
13.6461220856
 20
9.6185445436
 30
0.0
 10
13.6467271111
 20
9.6184386183
 30
0.0
 10
13.6475338117
 20
9.6182973828
 30
0.0
 10
13.6485421874
 20
9.618120839
 30
0.0
 10
13.6495505631
 20
9.6179442949
 30
0.0
 10
13.6503572637
 20
9.61780306
 30
0.0
 10
13.650962289
 20
9.6176971326
 30
0.0
 10
13.6515673148
 20
9.6175912102
 30
0.0
 10
13.6520715017
 20
9.6175029259
 30
0.0
 10
13.6524748538
 20
9.6174323334
 30
0.0
 10
13.6527269431
 20
9.6173881335
 30
0.0
 10
13.6529286279
 20
9.617352956
 30
0.0
 10
13.6530798547
 20
9.6173260733
 30
0.0
 10
13.6532059939
 20
9.6173052602
 30
0.0
 10
13.6532940622
 20
9.6172875724
 30
0.0
 10
13.6533447447
 20
9.6172823346
 30
0.0
 10
13.6533817487
 20
9.6172646886
 30
0.0
 10
13.6534226055
 20
9.6172994786
 30
0.0
 10
13.6534757373
 20
9.617327575
 30
0.0
 10
13.6535693442
 20
9.6173852655
 30
0.0
 10
13.6537027409
 20
9.6174632253
 30
0.0
 10
13.6538629571
 20
9.617558684
 30
0.0
 10
13.6540765298
 20
9.6176852961
 30
0.0
 10
13.6543435124
 20
9.6178437894
 30
0.0
 10
13.6547706752
 20
9.6180972512
 30
0.0
 10
13.6553046319
 20
9.6184141221
 30
0.0
 10
13.6559453785
 20
9.6187943485
 30
0.0
 10
13.6565861256
 20
9.61917458
 30
0.0
 10
13.6574404548
 20
9.6196815534
 30
0.0
 10
13.6585083664
 20
9.6203152709
 30
0.0
 10
13.659576278
 20
9.620948988
 30
0.0
 10
13.6604306072
 20
9.6214559621
 30
0.0
 10
13.6610713542
 20
9.6218361915
 30
0.0
 10
13.661712101
 20
9.6222164256
 30
0.0
 10
13.6622460571
 20
9.6225332726
 30
0.0
 10
13.6626732212
 20
9.6227867832
 30
0.0
 10
13.6629402005
 20
9.6229451522
 30
0.0
 10
13.6631537798
 20
9.6230720194
 30
0.0
 10
13.6633139757
 20
9.6231666989
 30
0.0
 10
13.663447436
 20
9.6232470967
 30
0.0
 10
13.6635409294
 20
9.6233004348
 30
0.0
 10
13.6635942431
 20
9.6233355049
 30
0.0
 10
13.6636345414
 20
9.6233488738
 30
0.0
 10
13.6636736429
 20
9.6234116821
 30
0.0
 10
13.6637261957
 20
9.6234781815
 30
0.0
 10
13.6638179686
 20
9.6236025903
 30
0.0
 10
13.6639491745
 20
9.6237761163
 30
0.0
 10
13.664106578
 20
9.6239861457
 30
0.0
 10
13.6643164645
 20
9.6242655567
 30
0.0
 10
13.6645788175
 20
9.6246150356
 30
0.0
 10
13.6649985852
 20
9.6251740816
 30
0.0
 10
13.6655232937
 20
9.6258729304
 30
0.0
 10
13.6661529444
 20
9.6267115312
 30
0.0
 10
13.666782595
 20
9.6275501368
 30
0.0
 10
13.6676221292
 20
9.6286682759
 30
0.0
 10
13.6686715469
 20
9.6300659504
 30
0.0
 10
13.6697209646
 20
9.6314636245
 30
0.0
 10
13.6705604988
 20
9.6325817643
 30
0.0
 10
13.6711901494
 20
9.6334203679
 30
0.0
 10
13.6718197999
 20
9.634258976
 30
0.0
 10
13.6723445093
 20
9.6349578023
 30
0.0
 10
13.6727642752
 20
9.6355168942
 30
0.0
 10
13.6730266327
 20
9.6358662563
 30
0.0
 10
13.6732365098
 20
9.636145907
 30
0.0
 10
13.6733939422
 20
9.6363552043
 30
0.0
 10
13.6735250575
 20
9.6365310207
 30
0.0
 10
13.6736169921
 20
9.6366513409
 30
0.0
 10
13.6736692859
 20
9.6367243911
 30
0.0
 10
13.673709183
 20
9.6367670774
 30
0.0
 10
13.6737464933
 20
9.6368560214
 30
0.0
 10
13.6737971427
 20
9.6369584782
 30
0.0
 10
13.6738853586
 20
9.6371452953
 30
0.0
 10
13.6740116013
 20
9.6374082466
 30
0.0
 10
13.6741629983
 20
9.6377254704
 30
0.0
 10
13.674364894
 20
9.6381478478
 30
0.0
 10
13.6746172522
 20
9.6386760209
 30
0.0
 10
13.6750210318
 20
9.6395209853
 30
0.0
 10
13.675525754
 20
9.6405772294
 30
0.0
 10
13.6761314216
 20
9.6418447058
 30
0.0
 10
13.676737089
 20
9.6431121866
 30
0.0
 10
13.6775446456
 20
9.6448021595
 30
0.0
 10
13.6785540913
 20
9.6469146262
 30
0.0
 10
13.679563537
 20
9.6490270925
 30
0.0
 10
13.6803710935
 20
9.6507170659
 30
0.0
 10
13.6809767611
 20
9.651984545
 30
0.0
 10
13.6815824281
 20
9.653252028
 30
0.0
 10
13.6820871521
 20
9.6543082516
 30
0.0
 10
13.682490928
 20
9.6551532578
 30
0.0
 10
13.6827432956
 20
9.6556813244
 30
0.0
 10
13.682945172
 20
9.6561039205
 30
0.0
 10
13.6830966277
 20
9.6564204764
 30
0.0
 10
13.683222687
 20
9.6566855172
 30
0.0
 10
13.6833112303
 20
9.6568686042
 30
0.0
 10
13.6833613552
 20
9.6569770376
 30
0.0
 10
13.6834002765
 20
9.6570476234
 30
0.0
 10
13.6834341228
 20
9.6571592599
 30
0.0
 10
13.6834810214
 20
9.6572937896
 30
0.0
 10
13.6835622692
 20
9.657535888
 30
0.0
 10
13.6836787687
 20
9.657878255
 30
0.0
 10
13.6838183835
 20
9.6582905883
 30
0.0
 10
13.6840046011
 20
9.6588398447
 30
0.0
 10
13.6842373509
 20
9.6595265936
 30
0.0
 10
13.6846097631
 20
9.6606252921
 30
0.0
 10
13.685075274
 20
9.6619986995
 30
0.0
 10
13.6856338889
 20
9.6636467737
 30
0.0
 10
13.6861925034
 20
9.6652948518
 30
0.0
 10
13.6869373228
 20
9.6674922879
 30
0.0
 10
13.687868347
 20
9.6702390834
 30
0.0
 10
13.6887993712
 20
9.6729858792
 30
0.0
 10
13.6895441907
 20
9.6751833148
 30
0.0
 10
13.6901028049
 20
9.6768313943
 30
0.0
 10
13.6906614208
 20
9.6784794634
 30
0.0
 10
13.6911269286
 20
9.6798528865
 30
0.0
 10
13.6914993471
 20
9.6809515529
 30
0.0
 10
13.6917320808
 20
9.6816383837
 30
0.0
 10
13.6919183316
 20
9.682187472
 30
0.0
 10
13.6920578448
 20
9.6826003186
 30
0.0
 10
13.6921746622
 20
9.6829410796
 30
0.0
 10
13.6922668683
 20
9.68322104
 30
0.0
 10
13.6923394323
 20
9.6834109222
 30
0.0
 10
13.6923989826
 20
9.6836774811
 30
0.0
 10
13.6924829288
 20
9.6840061089
 30
0.0
 10
13.6925863019
 20
9.684426083
 30
0.0
 10
13.6927110172
 20
9.6849261187
 30
0.0
 10
13.6928770711
 20
9.6855942067
 30
0.0
 10
13.6930847183
 20
9.6864288462
 30
0.0
 10
13.6934169092
 20
9.6877645325
 30
0.0
 10
13.6938321631
 20
9.6894340501
 30
0.0
 10
13.6943304613
 20
9.6914375099
 30
0.0
 10
13.6948287613
 20
9.6934409593
 30
0.0
 10
13.6954931605
 20
9.696112229
 30
0.0
 10
13.6963236602
 20
9.6994513139
 30
0.0
 10
13.6973202577
 20
9.7034582207
 30
0.0
 10
13.6981507619
 20
9.7067972961
 30
0.0
 10
13.6988151513
 20
9.7094685866
 30
0.0
 10
13.6992304264
 20
9.7111380746
 30
0.0
 10
13.6995625738
 20
9.7124738219
 30
0.0
 10
13.6998118832
 20
9.7134752029
 30
0.0
 10
13.7000190087
 20
9.7143110533
 30
0.0
 10
13.7001652375
 20
9.7148934673
 30
0.0
 10
13.7002468591
 20
9.7152304619
 30
0.0
 10
13.7003135338
 20
9.7154714141
 30
0.0
 10
13.7003593434
 20
9.7157574482
 30
0.0
 10
13.7004277009
 20
9.7161231019
 30
0.0
 10
13.7005439355
 20
9.7167703226
 30
0.0
 10
13.7007117578
 20
9.7176910931
 30
0.0
 10
13.7009123857
 20
9.7187976572
 30
0.0
 10
13.7011801546
 20
9.7202725034
 30
0.0
 10
13.701514775
 20
9.7221162572
 30
0.0
 10
13.7020502183
 20
9.7250661537
 30
0.0
 10
13.7027195054
 20
9.7287535615
 30
0.0
 10
13.7035226558
 20
9.7331784372
 30
0.0
 10
13.7043258101
 20
9.737603308
 30
0.0
 10
13.7049950872
 20
9.7412907279
 30
0.0
 10
13.7055305505
 20
9.7442406002
 30
0.0
 10
13.7058651202
 20
9.7460844158
 30
0.0
 10
13.7061329932
 20
9.7475591352
 30
0.0
 10
13.706333303
 20
9.7486660866
 30
0.0
 10
13.7065021207
 20
9.7495856454
 30
0.0
 10
13.7066329295
 20
9.7503277981
 30
0.0
 10
13.7067426362
 20
9.7508666361
 30
0.0
 10
13.7068080655
 20
9.7514733276
 30
0.0
 10
13.7069107712
 20
9.7522585475
 30
0.0
 10
13.7070338468
 20
9.7532482044
 30
0.0
 10
13.7071838089
 20
9.754432312
 30
0.0
 10
13.707382965
 20
9.7560123378
 30
0.0
 10
13.7076321818
 20
9.7579869538
 30
0.0
 10
13.708030777
 20
9.7611465719
 30
0.0
 10
13.7085290717
 20
9.7650960156
 30
0.0
 10
13.7091270097
 20
9.7698353783
 30
0.0
 10
13.709724929
 20
9.7745747463
 30
0.0
 10
13.7102232703
 20
9.7785241768
 30
0.0
 10
13.7106217721
 20
9.7816838214
 30
0.0
 10
13.7109211171
 20
9.7840532797
 30
0.0
 10
13.7111690807
 20
9.786028704
 30
0.0
 10
13.7113455803
 20
9.7874097823
 30
0.0
 10
13.7114418699
 20
9.7882016535
 30
0.0
 10
13.7115269533
 20
9.7887879971
 30
0.0
 10
13.7115628558
 20
9.7894032383
 30
0.0
 10
13.7116278807
 20
9.79021348
 30
0.0
 10
13.7117336815
 20
9.7916360994
 30
0.0
 10
13.7118890043
 20
9.7936659575
 30
0.0
 10
13.7120736028
 20
9.7961028381
 30
0.0
 10
13.7123203593
 20
9.7993516452
 30
0.0
 10
13.712628589
 20
9.8034127803
 30
0.0
 10
13.7129985636
 20
9.8082860873
 30
0.0
 10
13.7133684874
 20
9.8131594124
 30
0.0
 10
13.7136768442
 20
9.8172205023
 30
0.0
 10
13.7139233464
 20
9.8204693997
 30
0.0
 10
13.7141087207
 20
9.8229060051
 30
0.0
 10
13.7142616168
 20
9.8249367243
 30
0.0
 10
13.7143717495
 20
9.8263578064
 30
0.0
 10
13.7144298336
 20
9.8271705112
 30
0.0
 10
13.7144870558
 20
9.8277781866
 30
0.0
 10
13.7144920661
 20
9.8283929459
 30
0.0
 10
13.7145169586
 20
9.8292101541
 30
0.0
 10
13.714552035
 20
9.8306414196
 30
0.0
 10
13.7146065804
 20
9.8326854827
 30
0.0
 10
13.7146701361
 20
9.835138616
 30
0.0
 10
13.7147555402
 20
9.8384093705
 30
0.0
 10
13.7148620683
 20
9.8424978444
 30
0.0
 10
13.7150326401
 20
9.8490393854
 30
0.0
 10
13.7152458111
 20
9.8572163177
 30
0.0
 10
13.7154163612
 20
9.8637578617
 30
0.0
 10
13.7155016346
 20
9.8670286339
 30
0.0
  0
ENDSEC
  0
SECTION
  2
OBJECTS
  0
DICTIONARY
  5
C
100
AcDbDictionary
280
0
281
1
  3
ACAD_GROUP
350
D
  3
ACAD_MLINESTYLE
350
17
  3
ACAD_LAYOUT
350
1A
  3
ACAD_PLOTSETTINGS
350
19
  3
ACAD_PLOTSTYLENAME
350
E
  3
ACAD_IMAGE_DICT
350
       3E3
  3
ACAD_IMAGE_VARS
350
       3E4
  3
ACAD_TABLESTYLE
350
       3E5
  0
IMAGEDEF_REACTOR
  5
3E2
100
AcDbRasterImageDefReactor
 90
2
330
26F
  0
DICTIONARY
  5
D
102
{ACAD_REACTORS
330
C
102
}
100
AcDbDictionary
280
0
281
1
  0
ACDBDICTIONARYWDFLT
  5
E
102
{ACAD_REACTORS
330
C
102
}
100
AcDbDictionary
281
1
  3
Normal
350
F
100
AcDbDictionaryWithDefault
340
F
  0
DICTIONARY
  5
3E3
330
C
100
AcDbDictionary
281
1
  3
CKC_assy_2_img_1
350
       3E8
  0
RASTERVARIABLES
  5
3E4
330
C
100
AcDbRasterVariables
 90
0
 70
0
 71
1
 72
5
  0
DICTIONARY
  5
17
102
{ACAD_REACTORS
330
C
102
}
100
AcDbDictionary
280
0
281
1
  3
Standard
350
18
  0
DICTIONARY
  5
3E5
330
C
100
AcDbDictionary
281
1
  3
Standard
350
       3E9
  3
Standard1
350
       3EA
  0
DICTIONARY
  5
19
102
{ACAD_REACTORS
330
C
102
}
100
AcDbDictionary
281
1
  0
DICTIONARY
  5
1A
102
{ACAD_REACTORS
330
C
102
}
100
AcDbDictionary
281
1
  3
Model
350
3E6
  3
Layout1
350
3E7
  0
ACDBPLACEHOLDER
  5
F
102
{ACAD_REACTORS
330
E
102
}
  0
MLINESTYLE
  5
18
102
{ACAD_REACTORS
330
17
102
}
100
AcDbMlineStyle
  2
STANDARD
 70
0
  3

 62
256
 51
90.0
 52
90.0
 71
2
 49
0.5
 62
256
  6
BYLAYER
 49
-0.5
 62
256
  6
BYLAYER
  0
LAYOUT
  5
3E6
102
{ACAD_REACTORS
330
1A
102
}
100
AcDbPlotSettings
  1

  2
none_device
  4
ANSI_C_(22.00_x_17.00_Inches)
  6

 40
0.0
 41
0.0
 42
0.0
 43
0.0
 44
558.8
 45
431.8
 46
0.0
 47
0.0
 48
0.0
 49
0.0
140
0.0
141
0.0
142
1.0
143
1.0
 70
1024
 72
0
 73
0
 74
0
  7

 75
0
147
1.0
148
0.0
149
0.0
100
AcDbLayout
  1
Model
 70
0
 71
0
 10
0.0
 20
0.0
 11
22.0
 21
17.0
 12
0.0
 22
0.0
 32
0.0
 14
0.0
 24
0.0
 34
0.0
 15
0.0
 25
0.0
 35
0.0
146
0.0
 13
0.0
 23
0.0
 33
0.0
 16
1.0
 26
0.0
 36
0.0
 17
0.0
 27
1.0
 37
0.0
 76
0
330
20F
345
0
346
0
  0
LAYOUT
  5
3E7
102
{ACAD_REACTORS
330
1A
102
}
100
AcDbPlotSettings
  1

  2
none_device
  4
ANSI_C_(22.00_x_17.00_Inches)
  6

 40
0.0
 41
0.0
 42
0.0
 43
0.0
 44
558.8
 45
431.8
 46
0.0
 47
0.0
 48
0.0
 49
0.0
140
0.0
141
0.0
142
1.0
143
1.0
 70
0
 72
0
 73
0
 74
0
  7

 75
0
147
1.0
148
0.0
149
0.0
100
AcDbLayout
  1
Layout1
 70
0
 71
1
 10
0.0
 20
0.0
 11
22.0
 21
17.0
 12
0.0
 22
0.0
 32
0.0
 14
0.0
 24
0.0
 34
0.0
 15
0.0
 25
0.0
 35
0.0
146
0.0
 13
0.0
 23
0.0
 33
0.0
 16
1.0
 26
0.0
 36
0.0
 17
0.0
 27
1.0
 37
0.0
 76
0
330
210
345
0
346
0
  0
IMAGEDEF
  5
3E8
102
{ACAD_REACTORS
330
3E3
330
3E2
102
}
100
AcDbRasterImageDef
 90
0
  1
CKC_assy_2_img_1.png
 10
369.0
 20
92.0
 11
0.0066666667
 21
0.0066666667
280
1
281
0
  0
TABLESTYLE
  5
3E9
102
{ACAD_REACTORS
330
3E5
330
272
102
}
330
3E5
100
AcDbTableStyle
  3
Standard
 70
0
 71
0
 40
0.06
 41
0.06
280
1
281
1
  7
Standard
140
0.18
170
1
 62
0
 63
7
283
0
  7
Standard
140
0.18
170
1
 62
0
 63
7
283
0
  7
Standard
140
0.18
170
1
 62
0
 63
7
283
0
  0
TABLESTYLE
  5
3EA
102
{ACAD_REACTORS
330
3E5
330
271
102
}
330
3E5
100
AcDbTableStyle
  3
Standard1
 70
1
 71
0
 40
0.06
 41
0.06
280
1
281
1
  7
Standard
140
0.18
170
1
 62
0
 63
7
283
0
  7
Standard
140
0.18
170
1
 62
0
 63
7
283
0
  7
Standard
140
0.18
170
1
 62
0
 63
7
283
0
  0
ENDSEC
  0
EOF
