999
DXF file: CK4_assy_2.dxf
999
Pro/ENGINEER 2014200 by Parametric Technology Corporation
  0
SECTION
  2
HEADER
  9
$ACADVER
  1
AC1021
  9
$DWGCODEPAGE
  3
ANSI_1252
  9
$EXTMAX
 10
22.0
 20
17.0
 30
0.0
  9
$EXTMIN
 10
0.0
 20
0.0
 30
0.0
  9
$LIMMIN
 10
0.0
 20
0.0
  9
$LIMMAX
 10
22.0
 20
17.0
  9
$VIEWCTR
 10
11.0
 20
8.5
  9
$VIEWSIZE
 40
17.0
  9
$CLAYER
  8
0
  9
$LTSCALE
 40
1.21
  9
$CELTYPE
  6
BYLAYER
  9
$DIMSCALE
 40
1.0
  9
$DIMASZ
 40
0.1875
  9
$DIMEXO
 40
0.0625
  9
$DIMDLI
 40
0.836
  9
$DIMEXE
 40
0.125
  9
$DIMCEN
 40
0.198
  9
$DIMLFAC
 40
1.0
  9
$DIMBLK
  1
_FILLED
  9
$DIMTXT
 40
0.1
  9
$DIMTOL
 70
0
  9
$DIMLIM
 70
0
  9
$DIMTFAC
 40
1.0
  9
$DIMGAP
 40
0.09
  9
$DIMDSEP
 70
46
  9
$AUNITS
 70
0
  9
$PDMODE
 70
3
  9
$PDSIZE
 40
0.3125
  9
$HANDSEED
  5
31B
  9
$TILEMODE
 70
1
  9
$MEASUREMENT
 70
0
  9
$INSUNITS
 70
1
  0
ENDSEC
  0
SECTION
  2
CLASSES
  0
CLASS
  1
ACDBDICTIONARYWDFLT
  2
AcDbDictionaryWithDefault
  3
AutoCAD 2000
 90
0
 91
1
280
0
281
0
  0
CLASS
  1
ACDBPLACEHOLDER
  2
AcDbPlaceHolder
  3
AutoCAD 2000
 90
0
 91
1
280
0
281
0
  0
CLASS
  1
LAYOUT
  2
AcDbLayout
  3
AutoCAD 2000
 90
0
 91
0
280
0
281
0
  0
CLASS
  1
RASTERVARIABLES
  2
AcDbRasterVariables
  3
ISM
 90
0
 91
1
280
0
281
0
  0
CLASS
  1
IMAGEDEF
  2
AcDbRasterImageDef
  3
ISM
 90
0
 91
1
280
0
281
0
  0
CLASS
  1
IMAGEDEF_REACTOR
  2
AcDbRasterImageDefReactor
  3
ISM
 90
0
 91
1
280
0
281
0
  0
CLASS
  1
IMAGE
  2
AcDbRasterImage
  3
ISM
 90
127
 91
1
280
0
281
1
  0
CLASS
  1
TABLESTYLE
  2
AcDbTableStyle
  3
ObjectDBX Classes
 90
2047
 91
1
280
0
281
0
  0
CLASS
  1
ACAD_TABLE
  2
AcDbTable
  3
ObjectDBX Classes
 90
1025
 91
2
280
0
281
1
  0
ENDSEC
  0
SECTION
  2
TABLES
  0
TABLE
  2
VPORT
  5
8
100
AcDbSymbolTable
 70
2
  0
VPORT
  5
1F4
100
AcDbSymbolTableRecord
100
AcDbViewportTableRecord
  2
*ACTIVE
 70
0
 10
0.0
 20
0.0
 11
1.0
 21
1.0
 12
11.0
 22
8.5
 13
0.0
 23
0.0
 14
1.0
 24
1.0
 15
0.0
 25
0.0
 16
0.0
 26
0.0
 36
1.0
 17
0.0
 27
0.0
 37
0.0
 40
17.0
 41
1.2941176471
 42
50.0
 43
0.0
 44
0.0
 50
0.0
 51
0.0
 71
0
 72
100
 73
1
 74
1
 75
0
 76
0
 77
0
 78
0
  0
ENDTAB
  0
TABLE
  2
LTYPE
  5
5
100
AcDbSymbolTable
 70
6
  0
LTYPE
  5
14
100
AcDbSymbolTableRecord
100
AcDbLinetypeTableRecord
  2
BYBLOCK
 70
0
  3

 72
65
 73
0
 40
0.0
  0
LTYPE
  5
15
100
AcDbSymbolTableRecord
100
AcDbLinetypeTableRecord
  2
BYLAYER
 70
0
  3

 72
65
 73
0
 40
0.0
  0
LTYPE
  5
16
100
AcDbSymbolTableRecord
100
AcDbLinetypeTableRecord
  2
CONTINUOUS
 70
64
  3
Solid line
 72
65
 73
0
 40
0.0
  0
LTYPE
  5
1F5
100
AcDbSymbolTableRecord
100
AcDbLinetypeTableRecord
  2
CENTER
 70
64
  3
____ _ ____ _ ____ _ ____ _ ____ _ ____ _ ____
 72
65
 73
4
 40
0.6
 49
0.375
 74
0
 49
-0.075
 74
0
 49
0.075
 74
0
 49
-0.075
 74
0
  0
LTYPE
  5
1F6
100
AcDbSymbolTableRecord
100
AcDbLinetypeTableRecord
  2
HIDDEN
 70
64
  3
- - - - - - - - - - - - - - - - - - - -
 72
65
 73
2
 40
0.2
 49
0.1
 74
0
 49
-0.1
 74
0
  0
LTYPE
  5
1F7
100
AcDbSymbolTableRecord
100
AcDbLinetypeTableRecord
  2
PHANTOM
 70
64
  3
_____ _ _ _____ _ _ _____ _ _ _____
 72
65
 73
6
 40
0.8
 49
0.45
 74
0
 49
-0.05
 74
0
 49
0.1
 74
0
 49
-0.05
 74
0
 49
0.1
 74
0
 49
-0.05
 74
0
  0
LTYPE
  5
1F8
100
AcDbSymbolTableRecord
100
AcDbLinetypeTableRecord
  2
DOT
 70
64
  3
. . . . . . . . . . . . . . . . . . . .
 72
65
 73
2
 40
0.2
 49
0.1
 74
0
 49
-0.1
 74
0
  0
LTYPE
  5
1F9
100
AcDbSymbolTableRecord
100
AcDbLinetypeTableRecord
  2
DASHED
 70
64
  3
- - - - - - - - - - - - - - - - - - - -
 72
65
 73
2
 40
0.2
 49
0.1
 74
0
 49
-0.1
 74
0
  0
ENDTAB
  0
TABLE
  2
LAYER
  5
2
100
AcDbSymbolTable
 70
36
  0
LAYER
  5
10
100
AcDbSymbolTableRecord
100
AcDbLayerTableRecord
  2
0
 70
0
 62
7
  6
CONTINUOUS
370
-3
390
F
  0
LAYER
  5
1FA
100
AcDbSymbolTableRecord
100
AcDbLayerTableRecord
  2
DEFAULT_1
 70
0
 62
7
  6
CENTER
370
-3
390
F
  0
LAYER
  5
1FB
100
AcDbSymbolTableRecord
100
AcDbLayerTableRecord
  2
DEFAULT_2
 70
0
 62
8
  6
HIDDEN
370
-3
390
F
  0
LAYER
  5
1FC
100
AcDbSymbolTableRecord
100
AcDbLayerTableRecord
  2
DEFAULT_3
 70
0
 62
7
  6
PHANTOM
370
-3
390
F
  0
LAYER
  5
1FD
100
AcDbSymbolTableRecord
100
AcDbLayerTableRecord
  2
01___PRT_ALL_DTM_PLN
 70
0
 62
7
  6
CONTINUOUS
370
-3
390
F
  0
LAYER
  5
1FE
100
AcDbSymbolTableRecord
100
AcDbLayerTableRecord
  2
01___PRT_DEF_DTM_PLN
 70
0
 62
7
  6
CONTINUOUS
370
-3
390
F
  0
LAYER
  5
1FF
100
AcDbSymbolTableRecord
100
AcDbLayerTableRecord
  2
02___PRT_ALL_AXES
 70
0
 62
7
  6
CONTINUOUS
370
-3
390
F
  0
LAYER
  5
200
100
AcDbSymbolTableRecord
100
AcDbLayerTableRecord
  2
03___PRT_ALL_CURVES
 70
0
 62
7
  6
CONTINUOUS
370
-3
390
F
  0
LAYER
  5
201
100
AcDbSymbolTableRecord
100
AcDbLayerTableRecord
  2
04___PRT_ALL_DTM_PNT
 70
0
 62
7
  6
CONTINUOUS
370
-3
390
F
  0
LAYER
  5
202
100
AcDbSymbolTableRecord
100
AcDbLayerTableRecord
  2
05___PRT_ALL_DTM_CSYS
 70
0
 62
7
  6
CONTINUOUS
370
-3
390
F
  0
LAYER
  5
203
100
AcDbSymbolTableRecord
100
AcDbLayerTableRecord
  2
05___PRT_DEF_DTM_CSYS
 70
0
 62
7
  6
CONTINUOUS
370
-3
390
F
  0
LAYER
  5
204
100
AcDbSymbolTableRecord
100
AcDbLayerTableRecord
  2
06___PRT_ALL_SURFS
 70
0
 62
7
  6
CONTINUOUS
370
-3
390
F
  0
LAYER
  5
205
100
AcDbSymbolTableRecord
100
AcDbLayerTableRecord
  2
DATUM_PLANES
 70
0
 62
7
  6
CONTINUOUS
370
-3
390
F
  0
LAYER
  5
206
100
AcDbSymbolTableRecord
100
AcDbLayerTableRecord
  2
DIMENSIONS
 70
0
 62
7
  6
CONTINUOUS
370
-3
390
F
  0
LAYER
  5
207
100
AcDbSymbolTableRecord
100
AcDbLayerTableRecord
  2
PARAMETERDIMENSIONS
 70
0
 62
7
  6
CONTINUOUS
370
-3
390
F
  0
LAYER
  5
208
100
AcDbSymbolTableRecord
100
AcDbLayerTableRecord
  2
PLANE
 70
0
 62
7
  6
CONTINUOUS
370
-3
390
F
  0
LAYER
  5
209
100
AcDbSymbolTableRecord
100
AcDbLayerTableRecord
  2
PORT_AREAS
 70
0
 62
7
  6
CONTINUOUS
370
-3
390
F
  0
LAYER
  5
20A
100
AcDbSymbolTableRecord
100
AcDbLayerTableRecord
  2
SUNNBOMCOSMETIC
 70
0
 62
7
  6
CONTINUOUS
370
-3
390
F
  0
LAYER
  5
20B
100
AcDbSymbolTableRecord
100
AcDbLayerTableRecord
  2
SUNNBOMSTAMPING
 70
0
 62
7
  6
CONTINUOUS
370
-3
390
F
  0
LAYER
  5
20C
100
AcDbSymbolTableRecord
100
AcDbLayerTableRecord
  2
THREADS
 70
0
 62
7
  6
CONTINUOUS
370
-3
390
F
  0
ENDTAB
  0
TABLE
  2
STYLE
  5
3
100
AcDbSymbolTable
 70
1
  0
STYLE
  5
11
100
AcDbSymbolTableRecord
100
AcDbTextStyleTableRecord
  2
STANDARD
 70
0
 40
0.0
 41
0.8
 50
0.0
 71
0
 42
0.2
  3
txt
  4

  0
STYLE
  5
20D
100
AcDbSymbolTableRecord
100
AcDbTextStyleTableRecord
  2
TEXTSTYLE_1
 70
0
 40
0.0
 41
0.8
 50
0.0
 71
0
 42
0.2
  3
gdt
  4

  0
ENDTAB
  0
TABLE
  2
VIEW
  5
6
100
AcDbSymbolTable
 70
0
  0
ENDTAB
  0
TABLE
  2
UCS
  5
7
100
AcDbSymbolTable
 70
0
  0
ENDTAB
  0
TABLE
  2
APPID
  5
9
100
AcDbSymbolTable
 70
1
  0
APPID
  5
20E
100
AcDbSymbolTableRecord
100
AcDbRegAppTableRecord
  2
ACAD
 70
0
  0
ENDTAB
  0
TABLE
  2
BLOCK_RECORD
  5
1
100
AcDbSymbolTable
 70
0
  0
BLOCK_RECORD
  5
20F
100
AcDbSymbolTableRecord
100
AcDbBlockTableRecord
  2
*Model_Space
  0
BLOCK_RECORD
  5
210
100
AcDbSymbolTableRecord
100
AcDbBlockTableRecord
  2
*Paper_Space
  0
BLOCK_RECORD
  5
211
100
AcDbSymbolTableRecord
100
AcDbBlockTableRecord
  2
SUN_FIRST_THIRD_ANGLE_BL0
  0
BLOCK_RECORD
  5
212
100
AcDbSymbolTableRecord
100
AcDbBlockTableRecord
  2
*T1
  0
BLOCK_RECORD
  5
213
100
AcDbSymbolTableRecord
100
AcDbBlockTableRecord
  2
*T2
  0
ENDTAB
  0
TABLE
  2
DIMSTYLE
  5
A
100
AcDbSymbolTable
 70
1
100
AcDbDimStyleTable
 71
0
  0
DIMSTYLE
105
214
100
AcDbSymbolTableRecord
100
AcDbDimStyleTableRecord
  2
STANDARD
 70
0
  3

  4

 40
1.0
 41
0.1875
 42
0.0625
 43
0.38
 44
0.125
 45
0.0
 46
0.0
 47
0.001
 48
0.001
140
0.1
141
0.09
142
0.0
143
25.4
144
1.0
145
0.0
146
1.0
147
0.09
 71
0.0
 72
0.0
 73
1
 74
1
 75
0
 76
0
 77
0
 78
4
170
0
171
2
172
0
173
0
174
0
175
0
176
0
177
0
178
0
270
2
271
3
272
3
273
2
274
2
275
0
280
0
281
0
282
0
283
1
284
4
285
0
286
0
287
3
288
0
340
11
278
46
  0
ENDTAB
  0
ENDSEC
  0
SECTION
  2
BLOCKS
  0
BLOCK
  5
20
100
AcDbEntity
  8
0
100
AcDbBlockBegin
  2
*Model_Space
 70
0
 10
0.0
 20
0.0
 30
0.0
  3
*Model_Space
  1

  0
ENDBLK
  5
21
100
AcDbEntity
  8
0
100
AcDbBlockEnd
  0
BLOCK
  5
1C
100
AcDbEntity
  8
0
100
AcDbBlockBegin
  2
*Paper_Space
 70
0
 10
0.0
 20
0.0
 30
0.0
  3
*Paper_Space
  1

  0
ENDBLK
  5
1D
100
AcDbEntity
  8
0
100
AcDbBlockEnd
  0
BLOCK
  5
215
100
AcDbEntity
  8
0
100
AcDbBlockBegin
 62
2
  6
CONTINUOUS
  2
SUN_FIRST_THIRD_ANGLE_BL0
 70
64
 10
20.4816717061
 20
1.2289683772
  3
SUN_FIRST_THIRD_ANGLE_BL0
  1

  0
TEXT
  5
216
100
AcDbEntity
  8
0
100
AcDbText
 62
2
  6
CONTINUOUS
 10
19.4750896608
 20
1.4136269581
  7
STANDARD
 40
0.08
  1
FIRST ANGLE
 41
0.8
 72
0
100
AcDbText
  0
TEXT
  5
217
100
AcDbEntity
  8
0
100
AcDbText
 62
2
  6
CONTINUOUS
 10
20.7842537513
 20
1.4047600029
  7
STANDARD
 40
0.08
  1
THIRD ANGLE
 41
0.8
 72
0
100
AcDbText
  0
LINE
  5
218
100
AcDbEntity
  8
0
100
AcDbLine
 62
7
  6
CONTINUOUS
 10
19.4767170086
 20
1.1727031207
 11
19.6334271527
 21
1.1717972817
  0
LINE
  5
219
100
AcDbEntity
  8
0
100
AcDbLine
 62
7
  6
CONTINUOUS
 10
19.6596964832
 20
1.1717972817
 11
19.6950230232
 21
1.171593082
  0
LINE
  5
21A
100
AcDbEntity
  8
0
100
AcDbLine
 62
7
  6
CONTINUOUS
 10
19.7194818561
 20
1.1708914427
 11
19.8852396156
 21
1.1699333054
  0
LINE
  5
21B
100
AcDbEntity
  8
0
100
AcDbLine
 62
7
  6
CONTINUOUS
 10
19.4758111696
 20
1.2723454088
 11
19.88525039
 21
1.3511534004
  0
LINE
  5
21C
100
AcDbEntity
  8
0
100
AcDbLine
 62
7
  6
CONTINUOUS
 10
19.88525039
 20
1.3511534004
 11
19.8831348489
 21
0.9851647912
  0
LINE
  5
21D
100
AcDbEntity
  8
0
100
AcDbLine
 62
7
  6
CONTINUOUS
 10
19.8831348489
 20
0.9851647912
 11
19.4767170086
 21
1.0658141206
  0
LINE
  5
21E
100
AcDbEntity
  8
0
100
AcDbLine
 62
7
  6
CONTINUOUS
 10
19.4767170086
 20
1.0658141206
 11
19.4779056764
 21
1.2714536432
  0
CIRCLE
  5
21F
100
AcDbEntity
  8
0
100
AcDbCircle
 62
7
  6
CONTINUOUS
 10
20.2068232291
 20
1.1717972817
 40
0.175742101
  0
CIRCLE
  5
220
100
AcDbEntity
  8
0
100
AcDbCircle
 62
7
  6
CONTINUOUS
 10
20.2068232291
 20
1.1717972817
 40
0.1005522074
  0
LINE
  5
221
100
AcDbEntity
  8
0
100
AcDbLine
 62
7
  6
CONTINUOUS
 10
20.2077290681
 20
1.3756110529
 11
20.2071171714
 21
1.2379342989
  0
LINE
  5
222
100
AcDbEntity
  8
0
100
AcDbLine
 62
7
  6
CONTINUOUS
 10
20.2077290681
 20
1.2016899681
 11
20.2074674401
 21
1.1428236749
  0
LINE
  5
223
100
AcDbEntity
  8
0
100
AcDbLine
 62
7
  6
CONTINUOUS
 10
20.208634907
 20
1.101141841
 11
20.2080230104
 21
0.963465087
  0
LINE
  5
224
100
AcDbEntity
  8
0
100
AcDbLine
 62
7
  6
CONTINUOUS
 10
20.0066328138
 20
1.1745147986
 11
20.1443095678
 21
1.1739029019
  0
LINE
  5
225
100
AcDbEntity
  8
0
100
AcDbLine
 62
7
  6
CONTINUOUS
 10
20.1832714155
 20
1.1727031207
 11
20.238153505
 21
1.172335442
  0
LINE
  5
226
100
AcDbEntity
  8
0
100
AcDbLine
 62
7
  6
CONTINUOUS
 10
20.2756669918
 20
1.1717972817
 11
20.407916871
 21
1.1712095044
  0
CIRCLE
  5
227
100
AcDbEntity
  8
0
100
AcDbCircle
 62
7
  6
CONTINUOUS
 10
20.7509457401
 20
1.1693297793
 40
0.1722024983
  0
CIRCLE
  5
228
100
AcDbEntity
  8
0
100
AcDbCircle
 62
7
  6
CONTINUOUS
 10
20.7509457401
 20
1.1693297793
 40
0.0985164967
  0
LINE
  5
229
100
AcDbEntity
  8
0
100
AcDbLine
 62
7
  6
CONTINUOUS
 10
20.7169767782
 20
1.170462078
 11
20.7825395137
 21
1.1682766535
  0
LINE
  5
22A
100
AcDbEntity
  8
0
100
AcDbLine
 62
7
  6
CONTINUOUS
 10
20.8177513651
 20
1.1693297793
 11
20.947965719
 21
1.1693297793
  0
LINE
  5
22B
100
AcDbEntity
  8
0
100
AcDbLine
 62
7
  6
CONTINUOUS
 10
20.6875370113
 20
1.170462078
 11
20.5573226574
 21
1.170462078
  0
LINE
  5
22C
100
AcDbEntity
  8
0
100
AcDbLine
 62
7
  6
CONTINUOUS
 10
20.7486811426
 20
1.1987695462
 11
20.7486811426
 21
1.1432869085
  0
LINE
  5
22D
100
AcDbEntity
  8
0
100
AcDbLine
 62
7
  6
CONTINUOUS
 10
20.7498134414
 20
1.1059210505
 11
20.7498134414
 21
0.9757066966
  0
LINE
  5
22E
100
AcDbEntity
  8
0
100
AcDbLine
 62
7
  6
CONTINUOUS
 10
20.7486811426
 20
1.2338708068
 11
20.7486811426
 21
1.3640851607
  0
LINE
  5
22F
100
AcDbEntity
  8
0
100
AcDbLine
 62
7
  6
CONTINUOUS
 10
21.0702539817
 20
1.2701043662
 11
21.4790138229
 21
1.3448360823
  0
LINE
  5
230
100
AcDbEntity
  8
0
100
AcDbLine
 62
7
  6
CONTINUOUS
 10
21.4790138229
 20
1.3448360823
 11
21.4790138229
 21
0.9779712941
  0
LINE
  5
231
100
AcDbEntity
  8
0
100
AcDbLine
 62
7
  6
CONTINUOUS
 10
21.4790138229
 20
0.9779712941
 11
21.069121683
 21
1.0617614
  0
LINE
  5
232
100
AcDbEntity
  8
0
100
AcDbLine
 62
7
  6
CONTINUOUS
 10
21.0702539817
 20
1.2701043662
 11
21.069121683
 21
1.0617614
  0
LINE
  5
233
100
AcDbEntity
  8
0
100
AcDbLine
 62
7
  6
CONTINUOUS
 10
21.4790138229
 20
1.1693297793
 11
21.3159628059
 21
1.1693297793
  0
LINE
  5
234
100
AcDbEntity
  8
0
100
AcDbLine
 62
7
  6
CONTINUOUS
 10
21.2876553377
 20
1.1693297793
 11
21.2502894796
 21
1.1693297793
  0
LINE
  5
235
100
AcDbEntity
  8
0
100
AcDbLine
 62
7
  6
CONTINUOUS
 10
21.2208497126
 20
1.1659328831
 11
21.0713862804
 21
1.1659328831
  0
LINE
  5
236
100
AcDbEntity
  8
0
100
AcDbLine
 62
7
  6
CONTINUOUS
 10
20.4796138713
 20
1.5284908897
 11
20.4766766948
 21
0.9294458646
  0
ENDBLK
  5
237
100
AcDbEntity
  8
0
  6
BYBLOCK
 62
0
100
AcDbBlockEnd
  0
BLOCK
  5
238
100
AcDbEntity
  8
0
100
AcDbBlockBegin
  2
*T1
 70
1
 10
0.0
 20
0.0
  3
*T1
  1

  0
LINE
  5
239
100
AcDbEntity
  8
0
100
AcDbLine
 62
2
  6
CONTINUOUS
 10
9.275
 20
0.0
 11
-0.0
 21
0.0
  0
LINE
  5
23A
100
AcDbEntity
  8
0
100
AcDbLine
 62
2
  6
CONTINUOUS
 10
9.275
 20
0.0
 11
9.275
 21
1.25
  0
LINE
  5
23B
100
AcDbEntity
  8
0
100
AcDbLine
 62
2
  6
CONTINUOUS
 10
9.275
 20
0.625
 11
-0.0
 21
0.625
  0
LINE
  5
23C
100
AcDbEntity
  8
0
100
AcDbLine
 62
2
  6
CONTINUOUS
 10
9.275
 20
1.25
 11
-0.0
 21
1.25
  0
LINE
  5
23D
100
AcDbEntity
  8
0
100
AcDbLine
 62
2
  6
CONTINUOUS
 10
6.8
 20
0.0
 11
6.8
 21
1.25
  0
LINE
  5
23E
100
AcDbEntity
  8
0
100
AcDbLine
 62
2
  6
CONTINUOUS
 10
6.4
 20
0.0
 11
6.4
 21
0.625
  0
LINE
  5
23F
100
AcDbEntity
  8
0
100
AcDbLine
 62
2
  6
CONTINUOUS
 10
5.9
 20
0.0
 11
5.9
 21
0.625
  0
LINE
  5
240
100
AcDbEntity
  8
0
100
AcDbLine
 62
2
  6
CONTINUOUS
 10
5.2
 20
0.0
 11
5.2
 21
0.625
  0
LINE
  5
241
100
AcDbEntity
  8
0
100
AcDbLine
 62
2
  6
CONTINUOUS
 10
4.1
 20
0.0
 11
4.1
 21
1.25
  0
LINE
  5
242
100
AcDbEntity
  8
0
100
AcDbLine
 62
2
  6
CONTINUOUS
 10
-0.0
 20
0.0
 11
-0.0
 21
1.25
  0
MTEXT
  5
243
100
AcDbEntity
  8
0
100
AcDbMText
 62
2
  6
CONTINUOUS
  7
STANDARD
 71
2
 72
1
 10
6.6
 20
0.325
 30
0.0
 11
1.0
 21
0.0
 31
0.0
 44
0.9
  1
2
 40
0.125
 41
0.2
  0
MTEXT
  5
244
100
AcDbEntity
  8
0
100
AcDbMText
 62
2
  6
CONTINUOUS
  7
STANDARD
 71
2
 72
1
 10
6.15
 20
0.325
 30
0.0
 11
1.0
 21
0.0
 31
0.0
 44
0.9
  1
C
 40
0.125
 41
0.2
  0
MTEXT
  5
245
100
AcDbEntity
  8
0
100
AcDbMText
 62
2
  6
CONTINUOUS
  7
STANDARD
 71
2
 72
1
 10
5.55
 20
0.325
 30
0.0
 11
1.0
 21
0.0
 31
0.0
 44
0.9
  1
1.000
 40
0.125
 41
1.0
  0
MTEXT
  5
246
100
AcDbEntity
  8
0
100
AcDbMText
 62
2
  6
CONTINUOUS
  7
STANDARD
 71
2
 72
1
 10
4.65
 20
0.325
 30
0.0
 11
1.0
 21
0.0
 31
0.0
 44
0.9
  1
Jun-14-24
 40
0.125
 41
1.8
  0
MTEXT
  5
247
100
AcDbEntity
  8
0
100
AcDbMText
 62
2
  6
CONTINUOUS
  7
STANDARD
 71
2
 72
1
 10
2.05
 20
0.4625
 30
0.0
 11
1.0
 21
0.0
 31
0.0
 44
0.9
  1
T-16A Sandwich ISO 07\POn A with reverse flow check
 40
0.125
 41
5.6
  0
MTEXT
  5
248
100
AcDbEntity
  8
0
100
AcDbMText
 62
2
  6
CONTINUOUS
  7
STANDARD
 71
1
 72
1
 10
6.45
 20
0.5625
 30
0.0
 11
1.0
 21
0.0
 31
0.0
 44
0.9
  1
SHEET
 40
0.06
 41
0.48
  0
MTEXT
  5
249
100
AcDbEntity
  8
0
100
AcDbMText
 62
2
  6
CONTINUOUS
  7
STANDARD
 71
1
 72
1
 10
5.95
 20
0.5625
 30
0.0
 11
1.0
 21
0.0
 31
0.0
 44
0.9
  1
DWG SIZE
 40
0.06
 41
0.768
  0
MTEXT
  5
24A
100
AcDbEntity
  8
0
100
AcDbMText
 62
2
  6
CONTINUOUS
  7
STANDARD
 71
1
 72
1
 10
5.25
 20
0.5625
 30
0.0
 11
1.0
 21
0.0
 31
0.0
 44
0.9
  1
SCALE
 40
0.06
 41
0.48
  0
MTEXT
  5
24B
100
AcDbEntity
  8
0
100
AcDbMText
 62
2
  6
CONTINUOUS
  7
STANDARD
 71
1
 72
1
 10
4.15
 20
0.5625
 30
0.0
 11
1.0
 21
0.0
 31
0.0
 44
0.9
  1
DATE
 40
0.06
 41
0.384
  0
MTEXT
  5
24C
100
AcDbEntity
  8
0
100
AcDbMText
 62
2
  6
CONTINUOUS
  7
STANDARD
 71
1
 72
1
 10
0.05
 20
0.5625
 30
0.0
 11
1.0
 21
0.0
 31
0.0
 44
0.9
  1
DESCRIPTION
 40
0.06
 41
1.056
  0
MTEXT
  5
24D
100
AcDbEntity
  8
0
100
AcDbMText
 62
2
  6
CONTINUOUS
  7
STANDARD
 71
2
 72
1
 10
5.45
 20
1.0375
 30
0.0
 11
1.0
 21
0.0
 31
0.0
 44
0.9
  1
ALL DIMENSIONS IN INCH\PVIEWS ARE THIRD ANGLE
 40
0.12
 41
4.224
  0
MTEXT
  5
24E
100
AcDbEntity
  8
0
100
AcDbMText
 62
2
  6
CONTINUOUS
  7
STANDARD
 71
2
 72
1
 10
2.05
 20
0.95
 30
0.0
 11
1.0
 21
0.0
 31
0.0
 44
0.9
  1
CK4
 40
0.125
 41
0.6
  0
MTEXT
  5
24F
100
AcDbEntity
  8
0
100
AcDbMText
 62
2
  6
CONTINUOUS
  7
STANDARD
 71
1
 72
1
 10
0.05
 20
1.1875
 30
0.0
 11
1.0
 21
0.0
 31
0.0
 44
0.9
  1
MODEL
 40
0.06
 41
0.48
  0
ENDBLK
  5
250
100
AcDbEntity
  8
0
  6
BYBLOCK
 62
0
100
AcDbBlockEnd
  0
BLOCK
  5
251
100
AcDbEntity
  8
0
100
AcDbBlockBegin
  2
*T2
 70
1
 10
0.0
 20
0.0
  3
*T2
  1

  0
LINE
  5
252
100
AcDbEntity
  8
0
100
AcDbLine
 62
2
  6
CONTINUOUS
 10
0.0
 20
0.0
 11
9.055
 21
0.0
  0
LINE
  5
253
100
AcDbEntity
  8
0
100
AcDbLine
 62
2
  6
CONTINUOUS
 10
0.0
 20
0.0
 11
0.0
 21
-2.594
  0
LINE
  5
254
100
AcDbEntity
  8
0
100
AcDbLine
 62
2
  6
CONTINUOUS
 10
0.0
 20
-0.344
 11
9.055
 21
-0.344
  0
LINE
  5
255
100
AcDbEntity
  8
0
100
AcDbLine
 62
2
  6
CONTINUOUS
 10
0.0
 20
-0.594
 11
9.055
 21
-0.594
  0
LINE
  5
256
100
AcDbEntity
  8
0
100
AcDbLine
 62
2
  6
CONTINUOUS
 10
0.0
 20
-0.844
 11
9.055
 21
-0.844
  0
LINE
  5
257
100
AcDbEntity
  8
0
100
AcDbLine
 62
2
  6
CONTINUOUS
 10
0.0
 20
-1.094
 11
9.055
 21
-1.094
  0
LINE
  5
258
100
AcDbEntity
  8
0
100
AcDbLine
 62
2
  6
CONTINUOUS
 10
0.0
 20
-1.344
 11
9.055
 21
-1.344
  0
LINE
  5
259
100
AcDbEntity
  8
0
100
AcDbLine
 62
2
  6
CONTINUOUS
 10
0.0
 20
-1.594
 11
9.055
 21
-1.594
  0
LINE
  5
25A
100
AcDbEntity
  8
0
100
AcDbLine
 62
2
  6
CONTINUOUS
 10
0.0
 20
-1.844
 11
9.055
 21
-1.844
  0
LINE
  5
25B
100
AcDbEntity
  8
0
100
AcDbLine
 62
2
  6
CONTINUOUS
 10
0.0
 20
-2.094
 11
9.055
 21
-2.094
  0
LINE
  5
25C
100
AcDbEntity
  8
0
100
AcDbLine
 62
2
  6
CONTINUOUS
 10
0.0
 20
-2.344
 11
9.055
 21
-2.344
  0
LINE
  5
25D
100
AcDbEntity
  8
0
100
AcDbLine
 62
2
  6
CONTINUOUS
 10
0.0
 20
-2.594
 11
9.055
 21
-2.594
  0
LINE
  5
25E
100
AcDbEntity
  8
0
100
AcDbLine
 62
2
  6
CONTINUOUS
 10
3.055
 20
0.0
 11
3.055
 21
-2.594
  0
LINE
  5
25F
100
AcDbEntity
  8
0
100
AcDbLine
 62
2
  6
CONTINUOUS
 10
9.055
 20
0.0
 11
9.055
 21
-2.594
  0
MTEXT
  5
260
100
AcDbEntity
  8
0
100
AcDbMText
 62
2
  6
CONTINUOUS
  7
STANDARD
 71
2
 72
1
 10
1.5275
 20
-0.0995
 30
0.0
 11
1.0
 21
0.0
 31
0.0
 44
0.9
  1
Technical Data
 40
0.145
 41
3.248
  0
MTEXT
  5
261
100
AcDbEntity
  8
0
100
AcDbMText
 62
2
  6
CONTINUOUS
  7
STANDARD
 71
2
 72
1
 10
4.555
 20
-0.0995
 30
0.0
 11
1.0
 21
0.0
 31
0.0
 44
0.9
  1
U.S. Units
 40
0.145
 41
2.32
  0
MTEXT
  5
262
100
AcDbEntity
  8
0
100
AcDbMText
 62
2
  6
CONTINUOUS
  7
STANDARD
 71
2
 72
1
 10
7.555
 20
-0.0995
 30
0.0
 11
1.0
 21
0.0
 31
0.0
 44
0.9
  1
Metric Units
 40
0.145
 41
2.784
  0
MTEXT
  5
263
100
AcDbEntity
  8
0
100
AcDbMText
 62
2
  6
CONTINUOUS
  7
STANDARD
 71
2
 72
1
 10
1.5275
 20
-0.4065
 30
0.0
 11
1.0
 21
0.0
 31
0.0
 44
0.9
  1
Cavity
 40
0.125
 41
1.2
  0
MTEXT
  5
264
100
AcDbEntity
  8
0
100
AcDbMText
 62
2
  6
CONTINUOUS
  7
STANDARD
 71
2
 72
1
 10
6.055
 20
-0.4065
 30
0.0
 11
1.0
 21
0.0
 31
0.0
 44
0.9
  1
T-16A
 40
0.125
 41
1.0
  0
MTEXT
  5
265
100
AcDbEntity
  8
0
100
AcDbMText
 62
2
  6
CONTINUOUS
  7
STANDARD
 71
2
 72
1
 10
1.5275
 20
-0.6565
 30
0.0
 11
1.0
 21
0.0
 31
0.0
 44
0.9
  1
Body Features
 40
0.125
 41
2.6
  0
MTEXT
  5
266
100
AcDbEntity
  8
0
100
AcDbMText
 62
2
  6
CONTINUOUS
  7
STANDARD
 71
2
 72
1
 10
6.055
 20
-0.6565
 30
0.0
 11
1.0
 21
0.0
 31
0.0
 44
0.9
  1
On A with reverse flow check
 40
0.125
 41
5.6
  0
MTEXT
  5
267
100
AcDbEntity
  8
0
100
AcDbMText
 62
2
  6
CONTINUOUS
  7
STANDARD
 71
2
 72
1
 10
1.5275
 20
-0.9065
 30
0.0
 11
1.0
 21
0.0
 31
0.0
 44
0.9
  1
Body Type
 40
0.125
 41
1.8
  0
MTEXT
  5
268
100
AcDbEntity
  8
0
100
AcDbMText
 62
2
  6
CONTINUOUS
  7
STANDARD
 71
2
 72
1
 10
6.055
 20
-0.9065
 30
0.0
 11
1.0
 21
0.0
 31
0.0
 44
0.9
  1
Sandwich
 40
0.125
 41
1.6
  0
MTEXT
  5
269
100
AcDbEntity
  8
0
100
AcDbMText
 62
2
  6
CONTINUOUS
  7
STANDARD
 71
2
 72
1
 10
1.5275
 20
-1.1565
 30
0.0
 11
1.0
 21
0.0
 31
0.0
 44
0.9
  1
Interface
 40
0.125
 41
1.8
  0
MTEXT
  5
26A
100
AcDbEntity
  8
0
100
AcDbMText
 62
2
  6
CONTINUOUS
  7
STANDARD
 71
2
 72
1
 10
6.055
 20
-1.1565
 30
0.0
 11
1.0
 21
0.0
 31
0.0
 44
0.9
  1
ISO 07
 40
0.125
 41
1.2
  0
MTEXT
  5
26B
100
AcDbEntity
  8
0
100
AcDbMText
 62
2
  6
CONTINUOUS
  7
STANDARD
 71
2
 72
1
 10
1.5275
 20
-1.4065
 30
0.0
 11
1.0
 21
0.0
 31
0.0
 44
0.9
  1
Open Cavity Quantity
 40
0.125
 41
4.0
  0
MTEXT
  5
26C
100
AcDbEntity
  8
0
100
AcDbMText
 62
2
  6
CONTINUOUS
  7
STANDARD
 71
2
 72
1
 10
6.055
 20
-1.4065
 30
0.0
 11
1.0
 21
0.0
 31
0.0
 44
0.9
  1
1
 40
0.125
 41
0.2
  0
MTEXT
  5
26D
100
AcDbEntity
  8
0
100
AcDbMText
 62
2
  6
CONTINUOUS
  7
STANDARD
 71
2
 72
1
 10
1.5275
 20
-1.6565
 30
0.0
 11
1.0
 21
0.0
 31
0.0
 44
0.9
  1
Stack Height
 40
0.125
 41
2.4
  0
MTEXT
  5
26E
100
AcDbEntity
  8
0
100
AcDbMText
 62
2
  6
CONTINUOUS
  7
STANDARD
 71
2
 72
1
 10
4.555
 20
-1.6565
 30
0.0
 11
1.0
 21
0.0
 31
0.0
 44
0.9
  1
3.52 in.
 40
0.125
 41
1.6
  0
MTEXT
  5
26F
100
AcDbEntity
  8
0
100
AcDbMText
 62
2
  6
CONTINUOUS
  7
STANDARD
 71
2
 72
1
 10
7.555
 20
-1.6565
 30
0.0
 11
1.0
 21
0.0
 31
0.0
 44
0.9
  1
90 mm
 40
0.125
 41
1.0
  0
MTEXT
  5
270
100
AcDbEntity
  8
0
100
AcDbMText
 62
2
  6
CONTINUOUS
  7
STANDARD
 71
2
 72
1
 10
1.5275
 20
-1.9065
 30
0.0
 11
1.0
 21
0.0
 31
0.0
 44
0.9
  1
Weight
 40
0.125
 41
1.2
  0
MTEXT
  5
271
100
AcDbEntity
  8
0
100
AcDbMText
 62
2
  6
CONTINUOUS
  7
STANDARD
 71
2
 72
1
 10
4.555
 20
-1.9065
 30
0.0
 11
1.0
 21
0.0
 31
0.0
 44
0.9
  1
6.437 lb.
 40
0.125
 41
1.8
  0
MTEXT
  5
272
100
AcDbEntity
  8
0
100
AcDbMText
 62
2
  6
CONTINUOUS
  7
STANDARD
 71
2
 72
1
 10
7.555
 20
-1.9065
 30
0.0
 11
1.0
 21
0.0
 31
0.0
 44
0.9
  1
2,920 kg.
 40
0.125
 41
1.8
  0
MTEXT
  5
273
100
AcDbEntity
  8
0
100
AcDbMText
 62
2
  6
CONTINUOUS
  7
STANDARD
 71
2
 72
1
 10
1.5275
 20
-2.1565
 30
0.0
 11
1.0
 21
0.0
 31
0.0
 44
0.9
  1
Seal Plate Included (see notes)
 40
0.125
 41
6.2
  0
MTEXT
  5
274
100
AcDbEntity
  8
0
100
AcDbMText
 62
2
  6
CONTINUOUS
  7
STANDARD
 71
2
 72
1
 10
6.055
 20
-2.1565
 30
0.0
 11
1.0
 21
0.0
 31
0.0
 44
0.9
  1
Yes
 40
0.125
 41
0.6
  0
MTEXT
  5
275
100
AcDbEntity
  8
0
100
AcDbMText
 62
2
  6
CONTINUOUS
  7
STANDARD
 71
2
 72
1
 10
1.5275
 20
-2.4065
 30
0.0
 11
1.0
 21
0.0
 31
0.0
 44
0.9
  1
Includes integral cartridge(s)
 40
0.125
 41
6.0
  0
MTEXT
  5
276
100
AcDbEntity
  8
0
100
AcDbMText
 62
2
  6
CONTINUOUS
  7
STANDARD
 71
2
 72
1
 10
6.055
 20
-2.4065
 30
0.0
 11
1.0
 21
0.0
 31
0.0
 44
0.9
  1
Yes (see Included Components)
 40
0.125
 41
5.8
  0
ENDBLK
  5
277
100
AcDbEntity
  8
0
  6
BYBLOCK
 62
0
100
AcDbBlockEnd
  0
ENDSEC
  0
SECTION
  2
ENTITIES
  0
IMAGE
  5
278
100
AcDbEntity
  8
0
100
AcDbRasterImage
 62
7
  6
CONTINUOUS
 10
19.2297077316
 20
0.3094318264
 30
0.0
 11
0.0066666667
 21
0.0
 31
0.0
 12
0.0
 22
0.0066666667
 32
0.0
 13
369.0
 23
92.0
340
       318
 70
9
280
0
281
50
282
50
283
0
360
       312
 71
1
 91
2
 14
-0.5
 24
-0.5
 14
368.5
 24
91.5
  0
INSERT
  5
279
100
AcDbEntity
  8
0
100
AcDbBlockReference
 62
2
  6
CONTINUOUS
  2
SUN_FIRST_THIRD_ANGLE_BL0
 10
20.4816717061
 20
1.2289683772
  0
ACAD_TABLE
  5
27A
100
AcDbEntity
  8
0
 62
2
  6
CONTINUOUS
100
AcDbBlockReference
  2
*T1
 10
12.42375
 20
0.30125
 30
0.0
100
AcDbTable
342
       31A
343
212
 11
1.0
 21
0.0
 31
0.0
 90
6
 91
4
 92
6
 93
20
 94
0
 95
0
 96
0
 70
1
 41
0.0
141
0.525
141
0.1
141
0.525
141
0.1
142
4.1
142
1.1
142
0.7
142
0.5
142
0.4
142
2.475
171
1
172
0
173
0
174
0
175
1
176
1
 91
33
178
0
145
0.0
301
CELL_VALUE
 90
4
  1
T-16A Sandwich ISO 07\POn A with reverse flow check
304
ACVALUE_END
170
2
140
0.125
171
1
172
0
173
0
174
0
175
1
176
1
 91
33
178
0
145
0.0
301
CELL_VALUE
 90
4
  1
Jun-14-24
304
ACVALUE_END
170
5
140
0.125
171
1
172
0
173
0
174
0
175
1
176
1
 91
33
178
0
145
0.0
301
CELL_VALUE
 90
4
  1
1.000
304
ACVALUE_END
170
5
140
0.125
171
1
172
0
173
0
174
0
175
1
176
1
 91
33
178
0
145
0.0
301
CELL_VALUE
 90
4
  1
C
304
ACVALUE_END
170
5
140
0.125
171
1
172
0
173
0
174
0
175
1
176
1
 91
33
178
0
145
0.0
301
CELL_VALUE
 90
4
  1
2
304
ACVALUE_END
170
5
140
0.125
171
1
172
0
173
0
174
0
175
1
176
1
 91
33
178
0
145
0.0
301
CELL_VALUE
 90
4
  1
 
304
ACVALUE_END
170
1
140
0.125
171
1
172
0
173
0
174
0
175
1
176
1
 91
33
178
0
145
0.0
301
CELL_VALUE
 90
4
  1
DESCRIPTION
304
ACVALUE_END
170
1
140
0.06
171
1
172
0
173
0
174
0
175
1
176
1
 91
33
178
0
145
0.0
301
CELL_VALUE
 90
4
  1
DATE
304
ACVALUE_END
170
1
140
0.06
171
1
172
0
173
0
174
0
175
1
176
1
 91
33
178
0
145
0.0
301
CELL_VALUE
 90
4
  1
SCALE
304
ACVALUE_END
170
1
140
0.06
171
1
172
0
173
0
174
0
175
1
176
1
 91
33
178
0
145
0.0
301
CELL_VALUE
 90
4
  1
DWG SIZE
304
ACVALUE_END
170
1
140
0.06
171
1
172
0
173
0
174
0
175
1
176
1
 91
33
178
0
145
0.0
301
CELL_VALUE
 90
4
  1
SHEET
304
ACVALUE_END
170
1
140
0.06
171
1
172
0
173
0
174
0
175
1
176
1
 91
33
178
0
145
0.0
301
CELL_VALUE
 90
4
  1
 
304
ACVALUE_END
170
1
140
0.125
171
1
172
0
173
0
174
0
175
1
176
1
 91
33
178
0
145
0.0
301
CELL_VALUE
 90
4
  1
CK4
304
ACVALUE_END
170
5
140
0.125
171
1
172
0
173
0
174
0
175
4
176
1
 91
33
178
0
145
0.0
301
CELL_VALUE
 90
4
  1
ALL DIMENSIONS IN INCH\PVIEWS ARE THIRD ANGLE
304
ACVALUE_END
170
5
140
0.12
171
1
172
0
173
1
174
0
175
1
176
1
 91
1
178
0
145
0.0
170
1
171
1
172
0
173
1
174
0
175
1
176
1
 91
1
178
0
145
0.0
170
1
171
1
172
0
173
1
174
0
175
1
176
1
 91
1
178
0
145
0.0
170
5
171
1
172
0
173
0
174
0
175
1
176
1
 91
33
178
0
145
0.0
301
CELL_VALUE
 90
4
  1
 
304
ACVALUE_END
170
1
140
0.125
171
1
172
0
173
0
174
0
175
1
176
1
 91
33
178
0
145
0.0
301
CELL_VALUE
 90
4
  1
MODEL
304
ACVALUE_END
170
1
140
0.06
171
1
172
0
173
0
174
0
175
1
176
1
 91
33
178
0
145
0.0
301
CELL_VALUE
 90
4
  1
 
304
ACVALUE_END
170
1
140
0.125
171
1
172
0
173
0
174
0
175
1
176
1
 91
33
178
0
145
0.0
301
CELL_VALUE
 90
4
  1
 
304
ACVALUE_END
170
1
140
0.125
171
1
172
0
173
0
174
0
175
1
176
1
 91
33
178
0
145
0.0
301
CELL_VALUE
 90
4
  1
 
304
ACVALUE_END
170
1
140
0.125
171
1
172
0
173
0
174
0
175
1
176
1
 91
33
178
0
145
0.0
301
CELL_VALUE
 90
4
  1
 
304
ACVALUE_END
170
1
140
0.125
171
1
172
0
173
0
174
0
175
1
176
1
 91
33
178
0
145
0.0
301
CELL_VALUE
 90
4
  1
 
304
ACVALUE_END
170
1
140
0.125
  0
ACAD_TABLE
  5
27B
100
AcDbEntity
  8
0
 62
2
  6
CONTINUOUS
100
AcDbBlockReference
  2
*T2
 10
12.4237499994
 20
16.47875
 30
0.0
100
AcDbTable
342
       319
343
213
 11
1.0
 21
0.0
 31
0.0
 90
22
 91
10
 92
3
 93
16
 94
0
 95
0
 96
0
 41
0.028
141
0.344
141
0.25
141
0.25
141
0.25
141
0.25
141
0.25
141
0.25
141
0.25
141
0.25
141
0.25
142
3.055
142
3.0
142
3.0
171
1
172
0
173
0
174
0
175
1
176
1
 91
33
178
0
145
0.0
301
CELL_VALUE
 90
4
  1
Technical Data
304
ACVALUE_END
170
5
140
0.145
171
1
172
0
173
0
174
0
175
1
176
1
 91
33
178
0
145
0.0
301
CELL_VALUE
 90
4
  1
U.S. Units
304
ACVALUE_END
170
5
140
0.145
171
1
172
0
173
0
174
0
175
1
176
1
 91
33
178
0
145
0.0
301
CELL_VALUE
 90
4
  1
Metric Units
304
ACVALUE_END
170
5
140
0.145
171
1
172
0
173
0
174
0
175
1
176
1
 91
33
178
0
145
0.0
301
CELL_VALUE
 90
4
  1
Cavity
304
ACVALUE_END
170
5
140
0.125
171
1
172
0
173
0
174
0
175
2
176
1
 91
33
178
0
145
0.0
301
CELL_VALUE
 90
4
  1
T-16A
304
ACVALUE_END
170
5
140
0.125
171
1
172
0
173
1
174
0
175
1
176
1
 91
1
178
0
145
0.0
170
1
171
1
172
0
173
0
174
0
175
1
176
1
 91
33
178
0
145
0.0
301
CELL_VALUE
 90
4
  1
Body Features
304
ACVALUE_END
170
5
140
0.125
171
1
172
0
173
0
174
0
175
2
176
1
 91
33
178
0
145
0.0
301
CELL_VALUE
 90
4
  1
On A with reverse flow check
304
ACVALUE_END
170
5
140
0.125
171
1
172
0
173
1
174
0
175
1
176
1
 91
1
178
0
145
0.0
170
1
171
1
172
0
173
0
174
0
175
1
176
1
 91
33
178
0
145
0.0
301
CELL_VALUE
 90
4
  1
Body Type
304
ACVALUE_END
170
5
140
0.125
171
1
172
0
173
0
174
0
175
2
176
1
 91
33
178
0
145
0.0
301
CELL_VALUE
 90
4
  1
Sandwich
304
ACVALUE_END
170
5
140
0.125
171
1
172
0
173
1
174
0
175
1
176
1
 91
1
178
0
145
0.0
170
1
171
1
172
0
173
0
174
0
175
1
176
1
 91
33
178
0
145
0.0
301
CELL_VALUE
 90
4
  1
Interface
304
ACVALUE_END
170
5
140
0.125
171
1
172
0
173
0
174
0
175
2
176
1
 91
33
178
0
145
0.0
301
CELL_VALUE
 90
4
  1
ISO 07
304
ACVALUE_END
170
5
140
0.125
171
1
172
0
173
1
174
0
175
1
176
1
 91
1
178
0
145
0.0
170
1
171
1
172
0
173
0
174
0
175
1
176
1
 91
33
178
0
145
0.0
301
CELL_VALUE
 90
4
  1
Open Cavity Quantity
304
ACVALUE_END
170
5
140
0.125
171
1
172
0
173
0
174
0
175
2
176
1
 91
33
178
0
145
0.0
301
CELL_VALUE
 90
4
  1
1
304
ACVALUE_END
170
5
140
0.125
171
1
172
0
173
1
174
0
175
1
176
1
 91
1
178
0
145
0.0
170
1
171
1
172
0
173
0
174
0
175
1
176
1
 91
33
178
0
145
0.0
301
CELL_VALUE
 90
4
  1
Stack Height
304
ACVALUE_END
170
5
140
0.125
171
1
172
0
173
0
174
0
175
1
176
1
 91
33
178
0
145
0.0
301
CELL_VALUE
 90
4
  1
3.52 in.
304
ACVALUE_END
170
5
140
0.125
171
1
172
0
173
0
174
0
175
1
176
1
 91
33
178
0
145
0.0
301
CELL_VALUE
 90
4
  1
90 mm
304
ACVALUE_END
170
5
140
0.125
171
1
172
0
173
0
174
0
175
1
176
1
 91
33
178
0
145
0.0
301
CELL_VALUE
 90
4
  1
Weight
304
ACVALUE_END
170
5
140
0.125
171
1
172
0
173
0
174
0
175
1
176
1
 91
33
178
0
145
0.0
301
CELL_VALUE
 90
4
  1
6.437 lb.
304
ACVALUE_END
170
5
140
0.125
171
1
172
0
173
0
174
0
175
1
176
1
 91
33
178
0
145
0.0
301
CELL_VALUE
 90
4
  1
2,920 kg.
304
ACVALUE_END
170
5
140
0.125
171
1
172
0
173
0
174
0
175
1
176
1
 91
33
178
0
145
0.0
301
CELL_VALUE
 90
4
  1
Seal Plate Included (see notes)
304
ACVALUE_END
170
5
140
0.125
171
1
172
0
173
0
174
0
175
2
176
1
 91
33
178
0
145
0.0
301
CELL_VALUE
 90
4
  1
Yes
304
ACVALUE_END
170
5
140
0.125
171
1
172
0
173
1
174
0
175
1
176
1
 91
1
178
0
145
0.0
170
1
171
1
172
0
173
0
174
0
175
1
176
1
 91
33
178
0
145
0.0
301
CELL_VALUE
 90
4
  1
Includes integral cartridge(s)
304
ACVALUE_END
170
5
140
0.125
171
1
172
0
173
0
174
0
175
2
176
1
 91
33
178
0
145
0.0
301
CELL_VALUE
 90
4
  1
Yes (see Included Components)
304
ACVALUE_END
170
5
140
0.125
171
1
172
0
173
1
174
0
175
1
176
1
 91
1
178
0
145
0.0
170
1
  0
MTEXT
  5
27C
100
AcDbEntity
  8
0
100
AcDbMText
 62
2
  6
CONTINUOUS
  7
STANDARD
 71
1
 72
1
 10
0.52125
 20
5.75995
 30
0.0
 11
1.0
 21
0.0
 31
0.0
 44
0.6
  3
Notes\P \P1. Stack height value in technical\P   data table includes seal retainer\P   plate.\P2. Important: Carefully consider\P   the maximum system pressure. The\P   pressure rating of the manifold is\P   dependent on the manifold material,\P   wi
  3
th the port type/size a secondary\P   consideration. Manifolds\P   constructed of aluminum are not\P   rated for pressures higher than\P   3000 psi (210 bar), regardless of\P   the port type/size specified.\P3. This drawing is for reference\P   only.
  1
 It is generated by an\P   automated process and does not fall\P   under Sun's document control\P   process.\P4. Items without balloons are\P   shipped loose.
 40
0.1
 41
3.04
  0
LINE
  5
27D
100
AcDbEntity
  8
0
100
AcDbLine
 62
7
  6
CONTINUOUS
 10
0.30125
 20
0.30125
 11
0.30125
 21
16.69875
  0
LINE
  5
27E
100
AcDbEntity
  8
0
100
AcDbLine
 62
7
  6
CONTINUOUS
 10
0.30125
 20
0.30125
 11
21.69875
 21
0.30125
  0
LINE
  5
27F
100
AcDbEntity
  8
0
100
AcDbLine
 62
7
  6
CONTINUOUS
 10
0.30125
 20
16.69875
 11
21.69875
 21
16.69875
  0
LINE
  5
280
100
AcDbEntity
  8
0
100
AcDbLine
 62
7
  6
CONTINUOUS
 10
21.69875
 20
0.30125
 11
21.69875
 21
16.69875
  0
LINE
  5
281
100
AcDbEntity
  8
0
100
AcDbLine
 62
7
  6
CONTINUOUS
 10
7.3814086605
 20
8.0671636143
 11
7.3670879805
 21
8.101570337
  0
LINE
  5
282
100
AcDbEntity
  8
0
100
AcDbLine
 62
7
  6
CONTINUOUS
 10
7.4527450325
 20
9.2231361914
 11
7.4438193327
 21
9.2080028031
  0
LINE
  5
283
100
AcDbEntity
  8
0
100
AcDbLine
 62
7
  6
CONTINUOUS
 10
8.2084606047
 20
6.8159623646
 11
8.1825851289
 21
6.8477776144
  0
LINE
  5
284
100
AcDbEntity
  8
0
100
AcDbLine
 62
7
  6
CONTINUOUS
 10
8.1148371137
 20
9.435426307
 11
8.1148371137
 21
7.2244219596
  0
LINE
  5
285
100
AcDbEntity
  8
0
100
AcDbLine
 62
7
  6
CONTINUOUS
 10
8.1367574324
 20
9.4255997101
 11
8.1367574324
 21
7.2145953628
  0
LINE
  5
286
100
AcDbEntity
  8
0
100
AcDbLine
 62
7
  6
CONTINUOUS
 10
8.8185655166
 20
10.6280824305
 11
8.2522699133
 21
10.0810828495
  0
LINE
  5
287
100
AcDbEntity
  8
0
100
AcDbLine
 62
7
  6
CONTINUOUS
 10
8.848509219
 20
10.65594953
 11
8.2822136157
 21
10.108949949
  0
LINE
  5
288
100
AcDbEntity
  8
0
100
AcDbLine
 62
7
  6
CONTINUOUS
 10
8.849882302
 20
10.657251639
 11
8.848509219
 21
10.65594953
  0
LINE
  5
289
100
AcDbEntity
  8
0
100
AcDbLine
 62
7
  6
CONTINUOUS
 10
8.8198641999
 20
10.6293137615
 11
8.8185655166
 21
10.6280824305
  0
LINE
  5
28A
100
AcDbEntity
  8
0
100
AcDbLine
 62
7
  6
CONTINUOUS
 10
8.8185655166
 20
10.6280824305
 11
8.8484971559
 21
10.6559624914
  0
LINE
  5
28B
100
AcDbEntity
  8
0
100
AcDbLine
 62
7
  6
CONTINUOUS
 10
8.2522699133
 20
10.0810828495
 11
8.2822136157
 21
10.108949949
  0
LINE
  5
28C
100
AcDbEntity
  8
0
100
AcDbLine
 62
7
  6
CONTINUOUS
 10
8.09864596
 20
7.9078328029
 11
8.0715554809
 21
7.9729201172
  0
LINE
  5
28D
100
AcDbEntity
  8
0
100
AcDbLine
 62
7
  6
CONTINUOUS
 10
8.1148371137
 20
7.2244219596
 11
8.1367574324
 21
7.2145953628
  0
LINE
  5
28E
100
AcDbEntity
  8
0
100
AcDbLine
 62
7
  6
CONTINUOUS
 10
10.0977140515
 20
10.7800895324
 11
9.2060831943
 21
9.9188402088
  0
LINE
  5
28F
100
AcDbEntity
  8
0
100
AcDbLine
 62
7
  6
CONTINUOUS
 10
13.7942312562
 20
6.2199104676
 11
9.2060831943
 21
6.5380996165
  0
LINE
  5
290
100
AcDbEntity
  8
0
100
AcDbLine
 62
7
  6
CONTINUOUS
 10
9.2060831943
 20
9.9188402088
 11
9.2060831943
 21
6.5380996165
  0
LINE
  5
291
100
AcDbEntity
  8
0
100
AcDbLine
 62
7
  6
CONTINUOUS
 10
9.2060831943
 20
6.7276748464
 11
8.2433321704
 21
6.7944418567
  0
LINE
  5
292
100
AcDbEntity
  8
0
100
AcDbLine
 62
7
  6
CONTINUOUS
 10
8.1367574324
 20
7.2145953628
 11
9.2060831943
 21
7.1404373693
  0
LINE
  5
293
100
AcDbEntity
  8
0
100
AcDbLine
 62
7
  6
CONTINUOUS
 10
12.9232176119
 20
6.9986413641
 11
12.919102273
 21
6.9988540674
  0
LINE
  5
294
100
AcDbEntity
  8
0
100
AcDbLine
 62
7
  6
CONTINUOUS
 10
12.9149869379
 20
7.2490667854
 11
12.919102281
 21
7.248854082
  0
LINE
  5
295
100
AcDbEntity
  8
0
100
AcDbLine
 62
7
  6
CONTINUOUS
 10
8.0962986453
 20
7.9134724378
 11
7.4376049565
 21
7.9591530003
  0
LINE
  5
296
100
AcDbEntity
  8
0
100
AcDbLine
 62
7
  6
CONTINUOUS
 10
8.09143312
 20
7.9251623004
 11
7.4274636574
 21
7.971208739
  0
LINE
  5
297
100
AcDbEntity
  8
0
100
AcDbLine
 62
7
  6
CONTINUOUS
 10
8.0110979203
 20
8.4010544361
 11
7.3408297481
 21
8.4475376918
  0
LINE
  5
298
100
AcDbEntity
  8
0
100
AcDbLine
 62
7
  6
CONTINUOUS
 10
8.0110979203
 20
8.4447574002
 11
7.3408297481
 21
8.4912406558
  0
LINE
  5
299
100
AcDbEntity
  8
0
100
AcDbLine
 62
7
  6
CONTINUOUS
 10
8.1148371137
 20
9.435426307
 11
8.1367574324
 21
9.4255997101
  0
LINE
  5
29A
100
AcDbEntity
  8
0
100
AcDbLine
 62
7
  6
CONTINUOUS
 10
8.0977318296
 20
9.0884502237
 11
7.4274636574
 21
9.1349334793
  0
LINE
  5
29B
100
AcDbEntity
  8
0
100
AcDbLine
 62
7
  6
CONTINUOUS
 10
8.1078731287
 20
9.120097449
 11
7.4376049565
 21
9.1665807046
  0
LINE
  5
29C
100
AcDbEntity
  8
0
100
AcDbLine
 62
7
  6
CONTINUOUS
 10
8.1148371137
 20
9.2989945297
 11
7.610872775
 21
9.3339445753
  0
LINE
  5
29D
100
AcDbEntity
  8
0
100
AcDbLine
 62
7
  6
CONTINUOUS
 10
8.1367574324
 20
9.4255997101
 11
9.2060831943
 21
9.3514417167
  0
LINE
  5
29E
100
AcDbEntity
  8
0
100
AcDbLine
 62
7
  6
CONTINUOUS
 10
14.6858621134
 20
10.4619003835
 11
13.7942312562
 21
9.60065106
  0
LINE
  5
29F
100
AcDbEntity
  8
0
100
AcDbLine
 62
7
  6
CONTINUOUS
 10
13.7942312562
 20
9.60065106
 11
9.2060831943
 21
9.9188402088
  0
LINE
  5
2A0
100
AcDbEntity
  8
0
100
AcDbLine
 62
7
  6
CONTINUOUS
 10
8.2822136157
 20
10.108949949
 11
9.3278276884
 21
10.0364363668
  0
LINE
  5
2A1
100
AcDbEntity
  8
0
100
AcDbLine
 62
7
  6
CONTINUOUS
 10
8.848509219
 20
10.65594953
 11
9.8941232917
 21
10.5834359478
  0
LINE
  5
2A2
100
AcDbEntity
  8
0
100
AcDbLine
 62
7
  6
CONTINUOUS
 10
9.913924279
 20
10.602562234
 11
8.8873906642
 21
10.673752582
  0
LINE
  5
2A3
100
AcDbEntity
  8
0
100
AcDbLine
 62
7
  6
CONTINUOUS
 10
10.0977140515
 20
10.7800895324
 11
14.6858621134
 21
10.4619003835
  0
LINE
  5
2A4
100
AcDbEntity
  8
0
100
AcDbLine
 62
7
  6
CONTINUOUS
 10
13.7942312562
 20
9.60065106
 11
13.7942312562
 21
6.2199104676
  0
LINE
  5
2A5
100
AcDbEntity
  8
0
100
AcDbLine
 62
7
  6
CONTINUOUS
 10
14.6858621134
 20
10.4619003835
 11
14.6858621134
 21
7.0811597912
  0
LINE
  5
2A6
100
AcDbEntity
  8
0
100
AcDbLine
 62
7
  6
CONTINUOUS
 10
14.6858621134
 20
7.0811597912
 11
13.7942312562
 21
6.2199104676
  0
ARC
  5
2A7
100
AcDbEntity
  8
0
100
AcDbCircle
 62
7
  6
CONTINUOUS
 10
9.9222717809
 20
8.469277106
 40
2.5815354668
100
AcDbArc
 50
179.5125250425
 51
179.99951577
  0
ARC
  5
2A8
100
AcDbEntity
  8
0
100
AcDbCircle
 62
7
  6
CONTINUOUS
 10
10.5925399528
 20
8.4227938504
 40
2.5815354664
100
AcDbArc
 50
179.5125250425
 51
179.99951577
  0
ARC
  5
2A9
100
AcDbEntity
  8
0
100
AcDbCircle
 62
7
  6
CONTINUOUS
 10
10.539775761
 20
8.4227923675
 40
2.5287712747
100
AcDbArc
 50
179.9994720695
 51
180.4925344881
  0
ARC
  5
2AA
100
AcDbEntity
  8
0
100
AcDbCircle
 62
7
  6
CONTINUOUS
 10
9.8584447911
 20
8.469228124
 40
2.5177084779
100
AcDbArc
 50
179.9983888061
 51
180.4936177515
  0
ARC
  5
2AB
100
AcDbEntity
  8
0
100
AcDbCircle
 62
7
  6
CONTINUOUS
 10
9.1872998574
 20
8.7567485099
 40
1.1389400836
100
AcDbArc
 50
161.3961041614
 51
163.067960475
  0
ARC
  5
2AC
100
AcDbEntity
  8
0
100
AcDbCircle
 62
7
  6
CONTINUOUS
 10
8.5170316852
 20
8.8032317655
 40
1.1389400837
100
AcDbArc
 50
161.3961041614
 51
163.0679604749
  0
ARC
  5
2AD
100
AcDbEntity
  8
0
100
AcDbCircle
 62
7
  6
CONTINUOUS
 10
9.0381838413
 20
8.8064016646
 40
0.9817754668
100
AcDbArc
 50
160.1496508775
 51
161.3661695203
  0
ARC
  5
2AE
100
AcDbEntity
  8
0
100
AcDbCircle
 62
7
  6
CONTINUOUS
 10
8.1622368348
 20
8.3927299994
 40
0.8459821674
100
AcDbArc
 50
200.1086079514
 51
202.6172519511
  0
SPLINE
  5
2AF
100
AcDbEntity
  8
0
100
AcDbSpline
 62
7
  6
CONTINUOUS
 70
0
 71
3
 72
28
 73
24
 74
0
 42
0.0000001
 43
0.0000001
 44
0.0000000001
 40
0.0
 40
0.0
 40
0.0
 40
0.0
 40
0.071269768
 40
0.1436270056
 40
0.2165562453
 40
0.2895605788
 40
0.3621294568
 40
0.4337603613
 40
0.5039584106
 40
0.5722416114
 40
0.6381455359
 40
0.7012278535
 40
0.7610737182
 40
0.7896634876
 40
0.8173039055
 40
0.8439540179
 40
0.8695746796
 40
0.894131234
 40
0.9175919541
 40
0.9399290863
 40
0.9611204116
 40
0.9811476488
 40
1.0
 40
1.0
 40
1.0
 40
1.0
 10
7.3141378866
 20
8.4949909878
 30
0.0
 10
7.3141378866
 20
8.5123513504
 30
0.0
 10
7.314544785
 20
8.5473381367
 30
0.0
 10
7.3163264786
 20
8.6000622203
 30
0.0
 10
7.3192735092
 20
8.653157392
 30
0.0
 10
7.3233632345
 20
8.7062283992
 30
0.0
 10
7.3285659741
 20
8.7588841858
 30
0.0
 10
7.3348428373
 20
8.8107344118
 30
0.0
 10
7.3421470123
 20
8.8613956921
 30
0.0
 10
7.3504239334
 20
8.9104933772
 30
0.0
 10
7.3596116253
 20
8.9576647724
 30
0.0
 10
7.3696413891
 20
9.0025610891
 30
0.0
 10
7.3787720681
 20
9.038328845
 30
0.0
 10
7.3864699557
 20
9.0655366925
 30
0.0
 10
7.3923180842
 20
9.0848609057
 30
0.0
 10
7.3983174609
 20
9.1033799853
 30
0.0
 10
7.404457653
 20
9.1210596796
 30
0.0
 10
7.410726739
 20
9.1378674904
 30
0.0
 10
7.4171131698
 20
9.1537725241
 30
0.0
 10
7.423605426
 20
9.1687454667
 30
0.0
 10
7.4301908693
 20
9.1827592474
 30
0.0
 10
7.4368579261
 20
9.1957878007
 30
0.0
 10
7.4414892926
 20
9.2040521939
 30
0.0
 10
7.4438222586
 20
9.2080076197
 30
0.0
  0
SPLINE
  5
2B0
100
AcDbEntity
  8
0
100
AcDbSpline
 62
7
  6
CONTINUOUS
 70
0
 71
3
 72
9
 73
5
 74
0
 42
0.0000001
 43
0.0000001
 44
0.0000000001
 40
0.0
 40
0.0
 40
0.0
 40
0.0
 40
0.4850642138
 40
1.0
 40
1.0
 40
1.0
 40
1.0
 10
7.4376049565
 20
7.9591530003
 30
0.0
 10
7.4358321272
 20
7.9609839735
 30
0.0
 10
7.4323203075
 20
7.9648987525
 30
0.0
 10
7.4290736056
 20
7.969034321
 30
0.0
 10
7.4274636574
 20
7.971208739
 30
0.0
  0
SPLINE
  5
2B1
100
AcDbEntity
  8
0
100
AcDbSpline
 62
7
  6
CONTINUOUS
 70
0
 71
3
 72
9
 73
5
 74
0
 42
0.0000001
 43
0.0000001
 44
0.0000000001
 40
0.0
 40
0.0
 40
0.0
 40
0.0
 40
0.504469944
 40
1.0
 40
1.0
 40
1.0
 40
1.0
 10
7.4274636574
 20
7.971208739
 30
0.0
 10
7.4189607638
 20
7.9870102764
 30
0.0
 10
7.4027371626
 20
8.0186790481
 30
0.0
 10
7.3880902131
 20
8.0511158429
 30
0.0
 10
7.3813153805
 20
8.0673878566
 30
0.0
  0
SPLINE
  5
2B2
100
AcDbEntity
  8
0
100
AcDbSpline
 62
7
  6
CONTINUOUS
 70
0
 71
3
 72
23
 73
19
 74
0
 42
0.0000001
 43
0.0000001
 44
0.0000000001
 40
0.0
 40
0.0
 40
0.0
 40
0.0
 40
0.0655220833
 40
0.1317350022
 40
0.198384438
 40
0.2652433141
 40
0.3320760983
 40
0.3986442063
 40
0.4647126857
 40
0.5300488065
 40
0.5944224475
 40
0.657608303
 40
0.7193866903
 40
0.7795445221
 40
0.8378751102
 40
0.894182563
 40
0.9482875983
 40
1.0
 40
1.0
 40
1.0
 40
1.0
 10
8.0110979203
 20
8.4447574002
 30
0.0
 10
8.0112186291
 20
8.4589855451
 30
0.0
 10
8.0116946445
 20
8.4875903665
 30
0.0
 10
8.0130915266
 20
8.5306501856
 30
0.0
 10
8.0151714142
 20
8.5739731409
 30
0.0
 10
8.0179261437
 20
8.6173932546
 30
0.0
 10
8.0213450849
 20
8.660748418
 30
0.0
 10
8.0254157551
 20
8.70387487
 30
0.0
 10
8.0301225506
 20
8.7466096134
 30
0.0
 10
8.0354475274
 20
8.7887915128
 30
0.0
 10
8.0413708412
 20
8.8302613995
 30
0.0
 10
8.0478697073
 20
8.8708628625
 30
0.0
 10
8.0549196037
 20
8.9104428457
 30
0.0
 10
8.0624939489
 20
8.9488518883
 30
0.0
 10
8.0705634552
 20
8.9859451899
 30
0.0
 10
8.079098117
 20
9.0215843744
 30
0.0
 10
8.0880652721
 20
9.0556330977
 30
0.0
 10
8.0944591896
 20
9.0777078963
 30
0.0
 10
8.0977318296
 20
9.0884502237
 30
0.0
  0
SPLINE
  5
2B3
100
AcDbEntity
  8
0
100
AcDbSpline
 62
7
  6
CONTINUOUS
 70
0
 71
3
 72
23
 73
19
 74
0
 42
0.0000001
 43
0.0000001
 44
0.0000000001
 40
0.0
 40
0.0
 40
0.0
 40
0.0
 40
0.0422038277
 40
0.0875756138
 40
0.1360714213
 40
0.1876239221
 40
0.2421471086
 40
0.2995374938
 40
0.3596783106
 40
0.4224385039
 40
0.4876776752
 40
0.5552440984
 40
0.6249778968
 40
0.6967069719
 40
0.7702568586
 40
0.8454534704
 40
0.9221099368
 40
1.0
 40
1.0
 40
1.0
 40
1.0
 10
7.3670904236
 20
8.1015646536
 30
0.0
 10
7.3649331878
 20
8.1067474482
 30
0.0
 10
7.3607463258
 20
8.1176239238
 30
0.0
 10
7.3550033119
 20
8.1347934754
 30
0.0
 10
7.3495842217
 20
8.1533667975
 30
0.0
 10
7.3445041109
 20
8.1732935859
 30
0.0
 10
7.3397771214
 20
8.1945204139
 30
0.0
 10
7.3354160841
 20
8.2169898519
 30
0.0
 10
7.331433464
 20
8.240640944
 30
0.0
 10
7.3278398595
 20
8.2654094257
 30
0.0
 10
7.3246457487
 20
8.2912279321
 30
0.0
 10
7.321859485
 20
8.318026242
 30
0.0
 10
7.3194894172
 20
8.3457309406
 30
0.0
 10
7.3175413987
 20
8.3742662009
 30
0.0
 10
7.3160214751
 20
8.4035550135
 30
0.0
 10
7.3149334203
 20
8.4335188533
 30
0.0
 10
7.3142809467
 20
8.4640726651
 30
0.0
 10
7.3141378866
 20
8.4846302889
 30
0.0
 10
7.3141378866
 20
8.4949909878
 30
0.0
  0
SPLINE
  5
2B4
100
AcDbEntity
  8
0
100
AcDbSpline
 62
7
  6
CONTINUOUS
 70
0
 71
3
 72
21
 73
17
 74
0
 42
0.0000001
 43
0.0000001
 44
0.0000000001
 40
0.0
 40
0.0
 40
0.0
 40
0.0
 40
0.0444927596
 40
0.0909381327
 40
0.1904915443
 40
0.2439767958
 40
0.3000709477
 40
0.358828482
 40
0.4202648727
 40
0.4843561101
 40
0.5510455427
 40
0.6202510982
 40
0.6918683133
 40
0.7657809558
 40
0.8418629978
 40
1.0
 40
1.0
 40
1.0
 40
1.0
 10
7.4523385926
 20
9.2224466169
 30
0.0
 10
7.4538182185
 20
9.2249587703
 30
0.0
 10
7.4570336388
 20
9.2299830578
 30
0.0
 10
7.4644777097
 20
9.2400125662
 30
0.0
 10
7.4732923921
 20
9.2497159463
 30
0.0
 10
7.4832879082
 20
9.2590954757
 30
0.0
 10
7.4916985988
 20
9.266239803
 30
0.0
 10
7.5008287625
 20
9.2733220046
 30
0.0
 10
7.510660077
 20
9.2803391404
 30
0.0
 10
7.5211674149
 20
9.2872891568
 30
0.0
 10
7.5323221653
 20
9.294170607
 30
0.0
 10
7.544092496
 20
9.3009825809
 30
0.0
 10
7.5564442813
 20
9.3077254552
 30
0.0
 10
7.5693426508
 20
9.3143996335
 30
0.0
 10
7.5874556454
 20
9.3233238633
 30
0.0
 10
7.6014014654
 20
9.3297406574
 30
0.0
 10
7.610872775
 20
9.3339445753
 30
0.0
  0
SPLINE
  5
2B5
100
AcDbEntity
  8
0
100
AcDbSpline
 62
7
  6
CONTINUOUS
 70
0
 71
3
 72
22
 73
18
 74
0
 42
0.0000001
 43
0.0000001
 44
0.0000000001
 40
0.0
 40
0.0
 40
0.0
 40
0.0
 40
0.0425667084
 40
0.0882126665
 40
0.1368977556
 40
0.1885603965
 40
0.2431229095
 40
0.300490937
 40
0.36055813
 40
0.423204885
 40
0.4883026322
 40
0.555712489
 40
0.6252884672
 40
0.6968734305
 40
0.7703055389
 40
0.8454236634
 40
1.0
 40
1.0
 40
1.0
 40
1.0
 10
8.0715534907
 20
7.9729248749
 30
0.0
 10
8.0691842368
 20
7.9786174362
 30
0.0
 10
8.0645798889
 20
7.9905429094
 30
0.0
 10
8.0582412449
 20
8.0093378236
 30
0.0
 10
8.0522445175
 20
8.0296221866
 30
0.0
 10
8.0466046754
 20
8.0513449112
 30
0.0
 10
8.0413364891
 20
8.0744521387
 30
0.0
 10
8.0364529294
 20
8.0988860208
 30
0.0
 10
8.0319670682
 20
8.1245852733
 30
0.0
 10
8.027889859
 20
8.1514852549
 30
0.0
 10
8.0242322958
 20
8.1795182551
 30
0.0
 10
8.0210032244
 20
8.2086137538
 30
0.0
 10
8.0182115304
 20
8.2386981882
 30
0.0
 10
8.0158637728
 20
8.2696952775
 30
0.0
 10
8.0139663607
 20
8.3015274558
 30
0.0
 10
8.0120249999
 20
8.3453945714
 30
0.0
 10
8.0112910381
 20
8.3786643921
 30
0.0
 10
8.0110979203
 20
8.4010544361
 30
0.0
  0
SPLINE
  5
2B6
100
AcDbEntity
  8
0
100
AcDbSpline
 62
7
  6
CONTINUOUS
 70
0
 71
3
 72
9
 73
5
 74
0
 42
0.0000001
 43
0.0000001
 44
0.0000000001
 40
0.0
 40
0.0
 40
0.0
 40
0.0
 40
0.5208663434
 40
1.0
 40
1.0
 40
1.0
 40
1.0
 10
8.0986459305
 20
7.9078328745
 30
0.0
 10
8.1011258883
 20
7.9018745322
 30
0.0
 10
8.1061704118
 20
7.8905500139
 30
0.0
 10
8.1118888027
 20
7.8795459873
 30
0.0
 10
8.1148213848
 20
7.8743841158
 30
0.0
  0
SPLINE
  5
2B7
100
AcDbEntity
  8
0
100
AcDbSpline
 62
7
  6
CONTINUOUS
 70
0
 71
3
 72
21
 73
17
 74
0
 42
0.0000001
 43
0.0000001
 44
0.0000000001
 40
0.0
 40
0.0
 40
0.0
 40
0.0
 40
0.0641106561
 40
0.1289995237
 40
0.1944328088
 40
0.2602056545
 40
0.3919272462
 40
0.5224620605
 40
0.5867595568
 40
0.6501325827
 40
0.7123787701
 40
0.7733000928
 40
0.8327044162
 40
0.8904063687
 40
0.9462277621
 40
1.0
 40
1.0
 40
1.0
 40
1.0
 10
8.0320740274
 20
8.402464089
 30
0.0
 10
8.0320740274
 20
8.4173102581
 30
0.0
 10
8.032310795
 20
8.4471832941
 30
0.0
 10
8.0333556446
 20
8.4921977766
 30
0.0
 10
8.0350903707
 20
8.5375763222
 30
0.0
 10
8.0383161234
 20
8.5983790854
 30
0.0
 10
8.0440080908
 20
8.674139159
 30
0.0
 10
8.0518879909
 20
8.7493600201
 30
0.0
 10
8.0594775648
 20
8.8086713024
 30
0.0
 10
8.0657410847
 20
8.8522041257
 30
0.0
 10
8.0725817768
 20
8.8948583732
 30
0.0
 10
8.0799764464
 20
8.9364871279
 30
0.0
 10
8.0878992428
 20
8.9769469568
 30
0.0
 10
8.0963226335
 20
9.01609859
 30
0.0
 10
8.1052176585
 20
9.0538069909
 30
0.0
 10
8.1115661721
 20
9.0783813644
 30
0.0
 10
8.1148215737
 20
9.0904003883
 30
0.0
  0
SPLINE
  5
2B8
100
AcDbEntity
  8
0
100
AcDbSpline
 62
7
  6
CONTINUOUS
 70
0
 71
3
 72
23
 73
19
 74
0
 42
0.0000001
 43
0.0000001
 44
0.0000000001
 40
0.0
 40
0.0
 40
0.0
 40
0.0
 40
0.077890855
 40
0.1545459806
 40
0.229740815
 40
0.303290243
 40
0.3750194895
 40
0.4447529984
 40
0.5123189487
 40
0.5775579973
 40
0.640318159
 40
0.7004591998
 40
0.7578496422
 40
0.8123733807
 40
0.8639261152
 40
0.9124228034
 40
0.9577949463
 40
1.0
 40
1.0
 40
1.0
 40
1.0
 10
8.0320740274
 20
8.402464089
 30
0.0
 10
8.0320740274
 20
8.389438088
 30
0.0
 10
8.0322538567
 20
8.3635923456
 30
0.0
 10
8.0330741688
 20
8.3251793092
 30
0.0
 10
8.034442073
 20
8.2875082166
 30
0.0
 10
8.0363529183
 20
8.2506855396
 30
0.0
 10
8.038801944
 20
8.2148100049
 30
0.0
 10
8.0417815742
 20
8.1799786834
 30
0.0
 10
8.0452845085
 20
8.1462869622
 30
0.0
 10
8.0493000771
 20
8.1138270264
 30
0.0
 10
8.05381803
 20
8.0826871201
 30
0.0
 10
8.0588248634
 20
8.0529519701
 30
0.0
 10
8.0643077135
 20
8.0247023875
 30
0.0
 10
8.0702502979
 20
7.9980149759
 30
0.0
 10
8.0766372565
 20
7.9729619809
 30
0.0
 10
8.083449854
 20
7.9496104838
 30
0.0
 10
8.090670353
 20
7.9280238898
 30
0.0
 10
8.0959337707
 20
7.9143491049
 30
0.0
 10
8.0986459305
 20
7.9078328745
 30
0.0
  0
SPLINE
  5
2B9
100
AcDbEntity
  8
0
100
AcDbSpline
 62
7
  6
CONTINUOUS
 70
0
 71
3
 72
21
 73
17
 74
0
 42
0.0000001
 43
0.0000001
 44
0.0000000001
 40
0.0
 40
0.0
 40
0.0
 40
0.0
 40
0.1231148182
 40
0.1848365872
 40
0.2466810291
 40
0.3086591547
 40
0.3707809215
 40
0.4330545768
 40
0.4954844484
 40
0.5580716205
 40
0.6208134974
 40
0.6837034837
 40
0.74673283
 40
0.8098904081
 40
0.8731636211
 40
1.0
 40
1.0
 40
1.0
 40
1.0
 10
7.3408297481
 20
8.4912406558
 30
0.0
 10
7.3371731513
 20
8.5180012977
 30
0.0
 10
7.3326802213
 20
8.5583287469
 30
0.0
 10
7.3290983868
 20
8.6123346115
 30
0.0
 10
7.3277187214
 20
8.6530245078
 30
0.0
 10
7.3277487008
 20
8.6938260784
 30
0.0
 10
7.3292737654
 20
8.7346943934
 30
0.0
 10
7.3323605133
 20
8.7755745066
 30
0.0
 10
7.337047185
 20
8.8164052932
 30
0.0
 10
7.3433401418
 20
8.8571233968
 30
0.0
 10
7.3512158915
 20
8.8976675595
 30
0.0
 10
7.3606203526
 20
8.9379834823
 30
0.0
 10
7.3714734882
 20
8.9780271618
 30
0.0
 10
7.3836794143
 20
9.0177667145
 30
0.0
 10
7.4016270026
 20
9.0703575431
 30
0.0
 10
7.4167690491
 20
9.1092450003
 30
0.0
 10
7.4274636574
 20
9.1349334793
 30
0.0
  0
SPLINE
  5
2BA
100
AcDbEntity
  8
0
100
AcDbSpline
 62
7
  6
CONTINUOUS
 70
0
 71
3
 72
11
 73
7
 74
0
 42
0.0000001
 43
0.0000001
 44
0.0000000001
 40
0.0
 40
0.0
 40
0.0
 40
0.0
 40
0.2449834843
 40
0.4916133658
 40
0.7423206808
 40
1.0
 40
1.0
 40
1.0
 40
1.0
 10
7.4376049565
 20
9.1665807046
 30
0.0
 10
7.4375481719
 20
9.1699901239
 30
0.0
 10
7.4377316268
 20
9.1768413415
 30
0.0
 10
7.4389893969
 20
9.1871131768
 30
0.0
 10
7.4413192435
 20
9.1973791839
 30
0.0
 10
7.4436064382
 20
9.2040918916
 30
0.0
 10
7.4449370369
 20
9.2074225421
 30
0.0
  0
SPLINE
  5
2BB
100
AcDbEntity
  8
0
100
AcDbSpline
 62
7
  6
CONTINUOUS
 70
0
 71
3
 72
9
 73
5
 74
0
 42
0.0000001
 43
0.0000001
 44
0.0000000001
 40
0.0
 40
0.0
 40
0.0
 40
0.0
 40
0.4913831396
 40
1.0
 40
1.0
 40
1.0
 40
1.0
 10
7.4449370369
 20
9.2074225421
 30
0.0
 10
7.4459555098
 20
9.2099719039
 30
0.0
 10
7.448233875
 20
9.2150799713
 30
0.0
 10
7.450896499
 20
9.2199981869
 30
0.0
 10
7.4523385926
 20
9.2224466169
 30
0.0
  0
SPLINE
  5
2BC
100
AcDbEntity
  8
0
100
AcDbSpline
 62
7
  6
CONTINUOUS
 70
0
 71
3
 72
15
 73
11
 74
0
 42
0.0000001
 43
0.0000001
 44
0.0000000001
 40
0.0
 40
0.0
 40
0.0
 40
0.0
 40
0.1323785568
 40
0.2621205453
 40
0.3893506458
 40
0.5143462513
 40
0.637494461
 40
0.7592247889
 40
0.8799452996
 40
1.0
 40
1.0
 40
1.0
 40
1.0
 10
7.3678235314
 20
8.1018806725
 30
0.0
 10
7.3625044249
 20
8.1164402423
 30
0.0
 10
7.3528201158
 20
8.1455903992
 30
0.0
 10
7.3413612028
 20
8.1897547238
 30
0.0
 10
7.3332857762
 20
8.2337882348
 30
0.0
 10
7.3286307856
 20
8.2775373577
 30
0.0
 10
7.327286933
 20
8.3208658351
 30
0.0
 10
7.3290230056
 20
8.3636743199
 30
0.0
 10
7.3335295918
 20
8.4059084332
 30
0.0
 10
7.3381642605
 20
8.4337349868
 30
0.0
 10
7.3408297481
 20
8.4475376918
 30
0.0
  0
SPLINE
  5
2BD
100
AcDbEntity
  8
0
100
AcDbSpline
 62
7
  6
CONTINUOUS
 70
0
 71
3
 72
34
 73
30
 74
0
 42
0.0000001
 43
0.0000001
 44
0.0000000001
 40
0.0
 40
0.0
 40
0.0
 40
0.0
 40
0.0720758803
 40
0.1452582832
 40
0.2190139057
 40
0.2928034859
 40
0.3660875637
 40
0.4023732036
 40
0.4383325936
 40
0.4739004571
 40
0.5090124462
 40
0.5436053
 40
0.5776170068
 40
0.6109869715
 40
0.6436561972
 40
0.675567461
 40
0.7066654921
 40
0.7368971657
 40
0.7662117105
 40
0.7945609446
 40
0.8218995355
 40
0.8481852698
 40
0.8733793763
 40
0.8974469093
 40
0.9203572131
 40
0.9420845098
 40
0.9626086008
 40
0.9819157745
 40
1.0
 40
1.0
 40
1.0
 40
1.0
 10
14.1902240777
 20
8.2927804799
 30
0.0
 10
14.1902240777
 20
8.3152521056
 30
0.0
 10
14.1907643833
 20
8.3605419389
 30
0.0
 10
14.1931296081
 20
8.4287899275
 30
0.0
 10
14.1970396704
 20
8.4975023507
 30
0.0
 10
14.2024642921
 20
8.5661433008
 30
0.0
 10
14.2082301839
 20
8.6230243315
 30
0.0
 10
14.2135750103
 20
8.6680819314
 30
0.0
 10
14.217919277
 20
8.7014144348
 30
0.0
 10
14.2226036236
 20
8.7343312681
 30
0.0
 10
14.2276189282
 20
8.766768294
 30
0.0
 10
14.2329553733
 20
8.7986622536
 30
0.0
 10
14.2386025244
 20
8.8299509655
 30
0.0
 10
14.2445493371
 20
8.860573431
 30
0.0
 10
14.2507841715
 20
8.8904699639
 30
0.0
 10
14.2572948196
 20
8.9195823073
 30
0.0
 10
14.2640685336
 20
8.9478537454
 30
0.0
 10
14.2710920478
 20
8.9752292148
 30
0.0
 10
14.2783516073
 20
9.0016554161
 30
0.0
 10
14.2858329909
 20
9.0270809294
 30
0.0
 10
14.2935215341
 20
9.0514563243
 30
0.0
 10
14.3014021705
 20
9.0747342585
 30
0.0
 10
14.3094594633
 20
9.0968695777
 30
0.0
 10
14.3176776381
 20
9.1178194111
 30
0.0
 10
14.3260406421
 20
9.1375433002
 30
0.0
 10
14.3345321342
 20
9.156003232
 30
0.0
 10
14.3431357139
 20
9.1731640084
 30
0.0
 10
14.3518344804
 20
9.1889924132
 30
0.0
 10
14.3578843011
 20
9.1989633247
 30
0.0
 10
14.3609304489
 20
9.2037078863
 30
0.0
  0
SPLINE
  5
2BE
100
AcDbEntity
  8
0
100
AcDbSpline
 62
7
  6
CONTINUOUS
 70
0
 71
3
 72
23
 73
19
 74
0
 42
0.0000001
 43
0.0000001
 44
0.0000000001
 40
0.0
 40
0.0
 40
0.0
 40
0.0
 40
0.0861847268
 40
0.1686708985
 40
0.2474947935
 40
0.3227100419
 40
0.3943886295
 40
0.4626254599
 40
0.5275403081
 40
0.5892833514
 40
0.6480380759
 40
0.704027316
 40
0.7575162555
 40
0.8088171479
 40
0.8582897584
 40
0.906340895
 40
0.953418078
 40
1.0
 40
1.0
 40
1.0
 40
1.0
 10
14.3609304489
 20
9.2037078863
 30
0.0
 10
14.3626744716
 20
9.2064243083
 30
0.0
 10
14.3661654859
 20
9.2116912386
 30
0.0
 10
14.3715360954
 20
9.2192491342
 30
0.0
 10
14.3769220941
 20
9.2262856266
 30
0.0
 10
14.3823196605
 20
9.2327957799
 30
0.0
 10
14.387725282
 20
9.2387750243
 30
0.0
 10
14.3931352992
 20
9.2442192571
 30
0.0
 10
14.3985463432
 20
9.24912456
 30
0.0
 10
14.4039549317
 20
9.2534874935
 30
0.0
 10
14.4093578793
 20
9.2573046593
 30
0.0
 10
14.4147518606
 20
9.2605730777
 30
0.0
 10
14.4201337309
 20
9.2632896203
 30
0.0
 10
14.4255000542
 20
9.2654515254
 30
0.0
 10
14.4308471723
 20
9.267055802
 30
0.0
 10
14.4361710837
 20
9.2681000147
 30
0.0
 10
14.4414662679
 20
9.2685818983
 30
0.0
 10
14.4449817981
 20
9.2685272968
 30
0.0
 10
14.4467223654
 20
9.2684065877
 30
0.0
  0
SPLINE
  5
2BF
100
AcDbEntity
  8
0
100
AcDbSpline
 62
7
  6
CONTINUOUS
 70
0
 71
3
 72
15
 73
11
 74
0
 42
0.0000001
 43
0.0000001
 44
0.0000000001
 40
0.0
 40
0.0
 40
0.0
 40
0.0
 40
0.1273482789
 40
0.2538606571
 40
0.3795878378
 40
0.5046051156
 40
0.629017439
 40
0.7529533823
 40
0.8765605864
 40
1.0
 40
1.0
 40
1.0
 40
1.0
 10
9.772115762
 20
9.5173635106
 30
0.0
 10
9.772115762
 20
9.5108651855
 30
0.0
 10
9.7714953014
 20
9.4979022064
 30
0.0
 10
9.7686893699
 20
9.4787070603
 30
0.0
 10
9.7640366484
 20
9.4599942066
 30
0.0
 10
9.7575791656
 20
9.4419386553
 30
0.0
 10
9.7493761459
 20
9.4247069137
 30
0.0
 10
9.7395024208
 20
9.4084580792
 30
0.0
 10
9.7280507985
 20
9.3933444047
 30
0.0
 10
9.7194282987
 20
9.3841120969
 30
0.0
 10
9.7148978271
 20
9.3797359674
 30
0.0
  0
SPLINE
  5
2C0
100
AcDbEntity
  8
0
100
AcDbSpline
 62
7
  6
CONTINUOUS
 70
0
 71
3
 72
15
 73
11
 74
0
 42
0.0000001
 43
0.0000001
 44
0.0000000001
 40
0.0
 40
0.0
 40
0.0
 40
0.0
 40
0.1273482789
 40
0.2538606571
 40
0.3795878378
 40
0.5046051156
 40
0.629017439
 40
0.7529533823
 40
0.8765605864
 40
1.0
 40
1.0
 40
1.0
 40
1.0
 10
13.6358194113
 20
9.2494147524
 30
0.0
 10
13.6358194113
 20
9.2429164274
 30
0.0
 10
13.6351989506
 20
9.2299534482
 30
0.0
 10
13.6323930191
 20
9.2107583021
 30
0.0
 10
13.6277402976
 20
9.1920454484
 30
0.0
 10
13.6212828148
 20
9.1739898971
 30
0.0
 10
13.6130797951
 20
9.1567581555
 30
0.0
 10
13.60320607
 20
9.140509321
 30
0.0
 10
13.5917544477
 20
9.1253956465
 30
0.0
 10
13.5831319479
 20
9.1161633388
 30
0.0
 10
13.5786014764
 20
9.1117872093
 30
0.0
  0
SPLINE
  5
2C1
100
AcDbEntity
  8
0
100
AcDbSpline
 62
7
  6
CONTINUOUS
 70
0
 71
3
 72
15
 73
11
 74
0
 42
0.0000001
 43
0.0000001
 44
0.0000000001
 40
0.0
 40
0.0
 40
0.0
 40
0.0
 40
0.1273482789
 40
0.2538606571
 40
0.3795878378
 40
0.5046051156
 40
0.629017439
 40
0.7529533823
 40
0.8765605864
 40
1.0
 40
1.0
 40
1.0
 40
1.0
 10
13.6358194113
 20
6.5911866307
 30
0.0
 10
13.6358194113
 20
6.5846883057
 30
0.0
 10
13.6351989506
 20
6.5717253265
 30
0.0
 10
13.6323930191
 20
6.5525301804
 30
0.0
 10
13.6277402976
 20
6.5338173267
 30
0.0
 10
13.6212828148
 20
6.5157617754
 30
0.0
 10
13.6130797951
 20
6.4985300338
 30
0.0
 10
13.60320607
 20
6.4822811993
 30
0.0
 10
13.5917544477
 20
6.4671675248
 30
0.0
 10
13.5831319479
 20
6.457935217
 30
0.0
 10
13.5786014764
 20
6.4535590875
 30
0.0
  0
SPLINE
  5
2C2
100
AcDbEntity
  8
0
100
AcDbSpline
 62
7
  6
CONTINUOUS
 70
0
 71
3
 72
15
 73
11
 74
0
 42
0.0000001
 43
0.0000001
 44
0.0000000001
 40
0.0
 40
0.0
 40
0.0
 40
0.0
 40
0.1273482789
 40
0.2538606571
 40
0.3795878378
 40
0.5046051156
 40
0.629017439
 40
0.7529533823
 40
0.8765605864
 40
1.0
 40
1.0
 40
1.0
 40
1.0
 10
9.772115762
 20
6.8591353888
 30
0.0
 10
9.772115762
 20
6.8526370638
 30
0.0
 10
9.7714953014
 20
6.8396740847
 30
0.0
 10
9.7686893699
 20
6.8204789386
 30
0.0
 10
9.7640366484
 20
6.8017660849
 30
0.0
 10
9.7575791656
 20
6.7837105336
 30
0.0
 10
9.7493761459
 20
6.7664787919
 30
0.0
 10
9.7395024208
 20
6.7502299574
 30
0.0
 10
9.7280507985
 20
6.7351162829
 30
0.0
 10
9.7194282987
 20
6.7258839752
 30
0.0
 10
9.7148978271
 20
6.7215078457
 30
0.0
  0
SPLINE
  5
2C3
100
AcDbEntity
  8
0
100
AcDbSpline
 62
7
  6
CONTINUOUS
 70
0
 71
3
 72
15
 73
11
 74
0
 42
0.0000001
 43
0.0000001
 44
0.0000000001
 40
0.0
 40
0.0
 40
0.0
 40
0.0
 40
0.1273482808
 40
0.2538605196
 40
0.3795878971
 40
0.5046050835
 40
0.6290174393
 40
0.7529533827
 40
0.8765605876
 40
1.0
 40
1.0
 40
1.0
 40
1.0
 10
11.0012565013
 20
9.4929756352
 30
0.0
 10
11.0012565013
 20
9.4886485615
 30
0.0
 10
11.0008433589
 20
9.480016839
 30
0.0
 10
10.9989749522
 20
9.4672352654
 30
0.0
 10
10.9958768221
 20
9.4547748403
 30
0.0
 10
10.9915769464
 20
9.4427520911
 30
0.0
 10
10.9861147958
 20
9.4312778864
 30
0.0
 10
10.9795401429
 20
9.4204581773
 30
0.0
 10
10.9719147907
 20
9.410394357
 30
0.0
 10
10.966173299
 20
9.4042467759
 30
0.0
 10
10.9631565731
 20
9.4013328168
 30
0.0
  0
SPLINE
  5
2C4
100
AcDbEntity
  8
0
100
AcDbSpline
 62
7
  6
CONTINUOUS
 70
0
 71
3
 72
15
 73
11
 74
0
 42
0.0000001
 43
0.0000001
 44
0.0000000001
 40
0.0
 40
0.0
 40
0.0
 40
0.0
 40
0.1273482808
 40
0.2538605196
 40
0.3795878971
 40
0.5046050835
 40
0.6290174393
 40
0.7529533827
 40
0.8765605876
 40
1.0
 40
1.0
 40
1.0
 40
1.0
 10
11.6059260344
 20
6.6711069188
 30
0.0
 10
11.6059260344
 20
6.6667798451
 30
0.0
 10
11.605512892
 20
6.6581481226
 30
0.0
 10
11.6036444853
 20
6.645366549
 30
0.0
 10
11.6005463552
 20
6.632906124
 30
0.0
 10
11.5962464795
 20
6.6208833747
 30
0.0
 10
11.5907843289
 20
6.60940917
 30
0.0
 10
11.584209676
 20
6.5985894609
 30
0.0
 10
11.5765843237
 20
6.5885256407
 30
0.0
 10
11.5708428321
 20
6.5823780596
 30
0.0
 10
11.5678261061
 20
6.5794641005
 30
0.0
  0
SPLINE
  5
2C5
100
AcDbEntity
  8
0
100
AcDbSpline
 62
7
  6
CONTINUOUS
 70
0
 71
3
 72
15
 73
11
 74
0
 42
0.0000001
 43
0.0000001
 44
0.0000000001
 40
0.0
 40
0.0
 40
0.0
 40
0.0
 40
0.1273473901
 40
0.2538608346
 40
0.3795878351
 40
0.5046051039
 40
0.6290174461
 40
0.7529533848
 40
0.8765605883
 40
1.0
 40
1.0
 40
1.0
 40
1.0
 10
12.5568800004
 20
9.3242394547
 30
0.0
 10
12.5568800004
 20
9.3218372517
 30
0.0
 10
12.5566506329
 20
9.3170452565
 30
0.0
 10
12.5556133936
 20
9.3099494305
 30
0.0
 10
12.5538934182
 20
9.3030318822
 30
0.0
 10
12.5515063031
 20
9.2963573329
 30
0.0
 10
12.5484739256
 20
9.2899873113
 30
0.0
 10
12.5448239343
 20
9.2839806411
 30
0.0
 10
12.5405906412
 20
9.2783936072
 30
0.0
 10
12.5374031953
 20
9.2749807114
 30
0.0
 10
12.5357284284
 20
9.273362997
 30
0.0
  0
SPLINE
  5
2C6
100
AcDbEntity
  8
0
100
AcDbSpline
 62
7
  6
CONTINUOUS
 70
0
 71
3
 72
15
 73
11
 74
0
 42
0.0000001
 43
0.0000001
 44
0.0000000001
 40
0.0
 40
0.0
 40
0.0
 40
0.0
 40
0.1273473901
 40
0.2538608346
 40
0.3795878351
 40
0.5046051039
 40
0.6290174461
 40
0.7529533848
 40
0.8765605883
 40
1.0
 40
1.0
 40
1.0
 40
1.0
 10
10.3400802543
 20
6.8197469175
 30
0.0
 10
10.3400802543
 20
6.8173447145
 30
0.0
 10
10.3398508868
 20
6.8125527193
 30
0.0
 10
10.3388136475
 20
6.8054568933
 30
0.0
 10
10.3370936721
 20
6.7985393451
 30
0.0
 10
10.334706557
 20
6.7918647957
 30
0.0
 10
10.3316741795
 20
6.7854947741
 30
0.0
 10
10.3280241883
 20
6.7794881039
 30
0.0
 10
10.3237908952
 20
6.7739010701
 30
0.0
 10
10.3206034492
 20
6.7704881742
 30
0.0
 10
10.3189286823
 20
6.7688704598
 30
0.0
  0
SPLINE
  5
2C7
100
AcDbEntity
  8
0
100
AcDbSpline
 62
7
  6
CONTINUOUS
 70
0
 71
3
 72
39
 73
35
 74
0
 42
0.0000001
 43
0.0000001
 44
0.0000000001
 40
0.0
 40
0.0
 40
0.0
 40
0.0
 40
0.0309163428
 40
0.046432028
 40
0.0619831643
 40
0.0931854683
 40
0.1245187232
 40
0.1402331306
 40
0.1559758169
 40
0.187534796
 40
0.2191848339
 40
0.2509097254
 40
0.2826925781
 40
0.3145162218
 40
0.3463635732
 40
0.3782179442
 40
0.410063294
 40
0.441884426
 40
0.473667136
 40
0.5053983158
 40
0.5686359209
 40
0.6315404283
 40
0.662859004
 40
0.6940725826
 40
0.725176493
 40
0.7561672606
 40
0.787042601
 40
0.8178014192
 40
0.8484438205
 40
0.8789711284
 40
0.9093859095
 40
0.9396920014
 40
0.9698945427
 40
1.0
 40
1.0
 40
1.0
 40
1.0
 10
10.2647380354
 20
9.3003579458
 30
0.0
 10
10.2719007402
 20
9.2998612105
 30
0.0
 10
10.2826367985
 20
9.2987383385
 30
0.0
 10
10.2968588748
 20
9.2965025691
 30
0.0
 10
10.311061784
 20
9.2937678913
 30
0.0
 10
10.3286848813
 20
9.2894291969
 30
0.0
 10
10.3460124895
 20
9.2839053439
 30
0.0
 10
10.3596714186
 20
9.2787924659
 30
0.0
 10
10.3732037729
 20
9.2732144178
 30
0.0
 10
10.3898067036
 20
9.2654014965
 30
0.0
 10
10.409127212
 20
9.2547511647
 30
0.0
 10
10.427784601
 20
9.2428806279
 30
0.0
 10
10.4457061318
 20
9.2298581507
 30
0.0
 10
10.4628267372
 20
9.215755199
 30
0.0
 10
10.479088062
 20
9.2006457494
 30
0.0
 10
10.494438468
 20
9.1846052763
 30
0.0
 10
10.5088326665
 20
9.1677098951
 30
0.0
 10
10.5222311649
 20
9.1500360003
 30
0.0
 10
10.5346003259
 20
9.1316586107
 30
0.0
 10
10.5496610099
 20
9.1063521521
 30
0.0
 10
10.5657878849
 20
9.0733387137
 30
0.0
 10
10.5782129925
 20
9.0388658751
 30
0.0
 10
10.5858494149
 20
9.0107414561
 30
0.0
 10
10.5904140915
 20
8.9894690237
 30
0.0
 10
10.5938160578
 20
8.9680576464
 30
0.0
 10
10.5960506163
 20
8.9465719416
 30
0.0
 10
10.5971145097
 20
8.9250767755
 30
0.0
 10
10.5970062247
 20
8.9036363552
 30
0.0
 10
10.5957258384
 20
8.8823147603
 30
0.0
 10
10.59327504
 20
8.861176056
 30
0.0
 10
10.5896572242
 20
8.8402846352
 30
0.0
 10
10.584877446
 20
8.8197050229
 30
0.0
 10
10.5789431773
 20
8.7995035161
 30
0.0
 10
10.5742154229
 20
8.7863096934
 30
0.0
 10
10.5716627372
 20
8.7798007655
 30
0.0
  0
SPLINE
  5
2C8
100
AcDbEntity
  8
0
100
AcDbSpline
 62
7
  6
CONTINUOUS
 70
0
 71
3
 72
42
 73
38
 74
0
 42
0.0000001
 43
0.0000001
 44
0.0000000001
 40
0.0
 40
0.0
 40
0.0
 40
0.0
 40
0.0310020086
 40
0.0465587428
 40
0.0621498275
 40
0.0934296797
 40
0.1248381306
 40
0.1563652519
 40
0.1879990782
 40
0.2197258868
 40
0.2515304732
 40
0.2833964504
 40
0.3153065551
 40
0.3472429558
 40
0.3791875567
 40
0.4111222949
 40
0.4430294242
 40
0.4748917851
 40
0.5066930573
 40
0.5384179946
 40
0.5700526403
 40
0.6015845233
 40
0.6330028334
 40
0.6642985764
 40
0.6954647085
 40
0.7264962481
 40
0.7573903649
 40
0.7881464444
 40
0.8187661266
 40
0.8492533149
 40
0.8644511719
 40
0.8796183998
 40
0.9098612253
 40
0.939996465
 40
0.9550297482
 40
0.9700409467
 40
1.0
 40
1.0
 40
1.0
 40
1.0
 10
11.4702134478
 20
9.1931881765
 30
0.0
 10
11.4776040256
 20
9.1926756382
 30
0.0
 10
11.4886818053
 20
9.1915310097
 30
0.0
 10
11.5033619367
 20
9.1892687498
 30
0.0
 10
11.5180247989
 20
9.1865086886
 30
0.0
 10
11.5362280001
 20
9.1821383684
 30
0.0
 10
11.5577444636
 20
9.175458467
 30
0.0
 10
11.5788625792
 20
9.1673693538
 30
0.0
 10
11.5994869775
 20
9.157910294
 30
0.0
 10
11.6195259701
 20
9.1471267931
 30
0.0
 10
11.6388910732
 20
9.135070389
 30
0.0
 10
11.6574976824
 20
9.1217982041
 30
0.0
 10
11.6752653708
 20
9.1073725279
 30
0.0
 10
11.6921182212
 20
9.0918603711
 30
0.0
 10
11.7079850823
 20
9.075333017
 30
0.0
 10
11.7227997802
 20
9.0578655737
 30
0.0
 10
11.7365012825
 20
9.0395365362
 30
0.0
 10
11.74903382
 20
9.020427361
 30
0.0
 10
11.7603469728
 20
9.0006220615
 30
0.0
 10
11.7703957246
 20
8.980206823
 30
0.0
 10
11.7791404934
 20
8.9592696418
 30
0.0
 10
11.7865471418
 20
8.9378999881
 30
0.0
 10
11.7925869763
 20
8.916188491
 30
0.0
 10
11.7972367359
 20
8.8942266444
 30
0.0
 10
11.8004785809
 20
8.8721065363
 30
0.0
 10
11.8023000742
 20
8.8499205703
 30
0.0
 10
11.8026941909
 20
8.8277612879
 30
0.0
 10
11.8016592449
 20
8.8057208651
 30
0.0
 10
11.7991991488
 20
8.7838918432
 30
0.0
 10
11.7959651255
 20
8.7659321715
 30
0.0
 10
11.7926759131
 20
8.7517652227
 30
0.0
 10
11.7889300397
 20
8.737772536
 30
0.0
 10
11.7833856417
 20
8.7205772305
 30
0.0
 10
11.7767001451
 20
8.7038268118
 30
0.0
 10
11.7706897702
 20
8.6907594772
 30
0.0
 10
11.7642534072
 20
8.6779444059
 30
0.0
 10
11.7589348201
 20
8.6685936287
 30
0.0
 10
11.7551809963
 20
8.6624976024
 30
0.0
  0
SPLINE
  5
2C9
100
AcDbEntity
  8
0
100
AcDbSpline
 62
7
  6
CONTINUOUS
 70
0
 71
3
 72
39
 73
35
 74
0
 42
0.0000001
 43
0.0000001
 44
0.0000000001
 40
0.0
 40
0.0
 40
0.0
 40
0.0
 40
0.0309163428
 40
0.046432028
 40
0.0619831643
 40
0.0931854683
 40
0.1245187232
 40
0.1402331306
 40
0.1559758169
 40
0.187534796
 40
0.2191848339
 40
0.2509097254
 40
0.2826925781
 40
0.3145162218
 40
0.3463635732
 40
0.3782179442
 40
0.410063294
 40
0.441884426
 40
0.473667136
 40
0.5053983158
 40
0.5686359209
 40
0.6315404283
 40
0.662859004
 40
0.6940725826
 40
0.725176493
 40
0.7561672606
 40
0.787042601
 40
0.8178014192
 40
0.8484438205
 40
0.8789711284
 40
0.9093859095
 40
0.9396920014
 40
0.9698945427
 40
1.0
 40
1.0
 40
1.0
 40
1.0
 10
10.8655439147
 20
7.6880965575
 30
0.0
 10
10.8727066195
 20
7.6875998223
 30
0.0
 10
10.8834426777
 20
7.6864769502
 30
0.0
 10
10.8976647541
 20
7.6842411808
 30
0.0
 10
10.9118676633
 20
7.6815065031
 30
0.0
 10
10.9294907606
 20
7.6771678086
 30
0.0
 10
10.9468183688
 20
7.6716439556
 30
0.0
 10
10.9604772979
 20
7.6665310776
 30
0.0
 10
10.9740096522
 20
7.6609530295
 30
0.0
 10
10.9906125829
 20
7.6531401083
 30
0.0
 10
11.0099330913
 20
7.6424897765
 30
0.0
 10
11.0285904802
 20
7.6306192396
 30
0.0
 10
11.046512011
 20
7.6175967624
 30
0.0
 10
11.0636326165
 20
7.6034938107
 30
0.0
 10
11.0798939413
 20
7.5883843612
 30
0.0
 10
11.0952443473
 20
7.572343888
 30
0.0
 10
11.1096385458
 20
7.5554485068
 30
0.0
 10
11.1230370441
 20
7.5377746121
 30
0.0
 10
11.1354062052
 20
7.5193972224
 30
0.0
 10
11.1504668892
 20
7.4940907639
 30
0.0
 10
11.1665937641
 20
7.4610773254
 30
0.0
 10
11.1790188718
 20
7.4266044869
 30
0.0
 10
11.1866552942
 20
7.3984800678
 30
0.0
 10
11.1912199707
 20
7.3772076355
 30
0.0
 10
11.1946219371
 20
7.3557962582
 30
0.0
 10
11.1968564956
 20
7.3343105533
 30
0.0
 10
11.197920389
 20
7.3128153872
 30
0.0
 10
11.197812104
 20
7.2913749669
 30
0.0
 10
11.1965317177
 20
7.2700533721
 30
0.0
 10
11.1940809193
 20
7.2489146678
 30
0.0
 10
11.1904631034
 20
7.228023247
 30
0.0
 10
11.1856833253
 20
7.2074436346
 30
0.0
 10
11.1797490566
 20
7.1872421279
 30
0.0
 10
11.1750213022
 20
7.1740483051
 30
0.0
 10
11.1724686165
 20
7.1675393772
 30
0.0
  0
SPLINE
  5
2CA
100
AcDbEntity
  8
0
100
AcDbSpline
 62
7
  6
CONTINUOUS
 70
0
 71
3
 72
47
 73
43
 74
0
 42
0.0000001
 43
0.0000001
 44
0.0000000001
 40
0.0
 40
0.0
 40
0.0
 40
0.0
 40
0.0313485912
 40
0.0628834054
 40
0.0945938583
 40
0.1264629749
 40
0.1584694223
 40
0.1905879287
 40
0.2227901908
 40
0.255045819
 40
0.287323268
 40
0.319590751
 40
0.3518171326
 40
0.3839727494
 40
0.416030151
 40
0.4479647867
 40
0.4797556143
 40
0.5113856033
 40
0.5428421708
 40
0.5741175381
 40
0.605208977
 40
0.6361189579
 40
0.6668551925
 40
0.6974305445
 40
0.7278628003
 40
0.7581742942
 40
0.7732968166
 40
0.7883993328
 40
0.8034856416
 40
0.8185597044
 40
0.8336255965
 40
0.8486874882
 40
0.8637496164
 40
0.8788162279
 40
0.893891564
 40
0.9089798232
 40
0.9240851029
 40
0.9392113882
 40
0.9543625094
 40
0.9695420891
 40
0.9847535356
 40
1.0
 40
1.0
 40
1.0
 40
1.0
 10
12.0748829957
 20
7.5806588424
 30
0.0
 10
12.0846356057
 20
7.5799824966
 30
0.0
 10
12.1041489909
 20
7.5777535553
 30
0.0
 10
12.1330865543
 20
7.571845885
 30
0.0
 10
12.1615626971
 20
7.5634134604
 30
0.0
 10
12.1893507489
 20
7.5525277342
 30
0.0
 10
12.2162350859
 20
7.5392804822
 30
0.0
 10
12.2420084065
 20
7.5237823021
 30
0.0
 10
12.2664746925
 20
7.5061610577
 30
0.0
 10
12.2894504781
 20
7.486560394
 30
0.0
 10
12.3107661031
 20
7.4651378431
 30
0.0
 10
12.3302665705
 20
7.4420630077
 30
0.0
 10
12.347812365
 20
7.417515928
 30
0.0
 10
12.3632799255
 20
7.391685369
 30
0.0
 10
12.3765618407
 20
7.364767184
 30
0.0
 10
12.3875670482
 20
7.3369629038
 30
0.0
 10
12.3962209884
 20
7.3084784299
 30
0.0
 10
12.4024654564
 20
7.2795227549
 30
0.0
 10
12.4062585508
 20
7.2503068713
 30
0.0
 10
12.4075747472
 20
7.2210427597
 30
0.0
 10
12.4064048365
 20
7.1919424008
 30
0.0
 10
12.4027558368
 20
7.1632167923
 30
0.0
 10
12.3966511853
 20
7.1350751664
 30
0.0
 10
12.3881305565
 20
7.1077233888
 30
0.0
 10
12.377251271
 20
7.0813650408
 30
0.0
 10
12.3662682812
 20
7.0603696805
 30
0.0
 10
12.356388426
 20
7.0442767242
 30
0.0
 10
12.3484476736
 20
7.0325823823
 30
0.0
 10
12.3399854354
 20
7.0212788682
 30
0.0
 10
12.3310163431
 20
7.0103878174
 30
0.0
 10
12.3215563497
 20
6.999930595
 30
0.0
 10
12.3116223743
 20
6.9899277445
 30
0.0
 10
12.301232232
 20
6.9803992241
 30
0.0
 10
12.2904048348
 20
6.9713640772
 30
0.0
 10
12.2791600229
 20
6.9628405297
 30
0.0
 10
12.2675184922
 20
6.9548460266
 30
0.0
 10
12.2555019592
 20
6.9473969167
 30
0.0
 10
12.2431329528
 20
6.9405086069
 30
0.0
 10
12.2304348275
 20
6.9341955621
 30
0.0
 10
12.2174316913
 20
6.928470942
 30
0.0
 10
12.2041488342
 20
6.923346985
 30
0.0
 10
12.1951341371
 20
6.9203421778
 30
0.0
 10
12.1905899999
 20
6.918943242
 30
0.0
  0
SPLINE
  5
2CB
100
AcDbEntity
  8
0
100
AcDbSpline
 62
7
  6
CONTINUOUS
 70
0
 71
3
 72
32
 73
28
 74
0
 42
0.0000001
 43
0.0000001
 44
0.0000000001
 40
0.0
 40
0.0
 40
0.0
 40
0.0
 40
0.0309641636
 40
0.0620715323
 40
0.0933126533
 40
0.1246825002
 40
0.1561701128
 40
0.1877636948
 40
0.2194496284
 40
0.2512128955
 40
0.2830374749
 40
0.3149065958
 40
0.3786810649
 40
0.442429386
 40
0.5060215593
 40
0.5693411579
 40
0.6322904858
 40
0.6947944691
 40
0.7568034948
 40
0.7876285683
 40
0.8183239933
 40
0.8488915218
 40
0.8793347416
 40
0.9096590843
 40
0.9398717808
 40
0.9699818387
 40
1.0
 40
1.0
 40
1.0
 40
1.0
 10
12.4815377815
 20
8.8497948145
 30
0.0
 10
12.4841651979
 20
8.8496126026
 30
0.0
 10
12.4894215425
 20
8.8490699038
 30
0.0
 10
12.4972503418
 20
8.8477312871
 30
0.0
 10
12.5050079979
 20
8.8458726787
 30
0.0
 10
12.5126590663
 20
8.843503997
 30
0.0
 10
12.5201698147
 20
8.8406372661
 30
0.0
 10
12.5275072673
 20
8.8372872776
 30
0.0
 10
12.5346399013
 20
8.8334710349
 30
0.0
 10
12.5415375565
 20
8.8292077035
 30
0.0
 10
12.5481720291
 20
8.8245179666
 30
0.0
 10
12.5566311086
 20
8.8177271664
 30
0.0
 10
12.5664151098
 20
8.8082905985
 30
0.0
 10
12.5767113141
 20
8.7956632955
 30
0.0
 10
12.5854268919
 20
8.7819425724
 30
0.0
 10
12.5924434175
 20
8.767356326
 30
0.0
 10
12.5976712443
 20
8.7521351628
 30
0.0
 10
12.6010456341
 20
8.7365139629
 30
0.0
 10
12.6022815464
 20
8.7233243192
 30
0.0
 10
12.6023079284
 20
8.7128119083
 30
0.0
 10
12.6018497692
 20
8.7049874311
 30
0.0
 10
12.6009148169
 20
8.6972384339
 30
0.0
 10
12.599505795
 20
8.6895934012
 30
0.0
 10
12.59762677
 20
8.6820811781
 30
0.0
 10
12.5952832839
 20
8.6747301829
 30
0.0
 10
12.5924826112
 20
8.6675691533
 30
0.0
 10
12.5903129092
 20
8.66293311
 30
0.0
 10
12.589155281
 20
8.6606573579
 30
0.0
  0
SPLINE
  5
2CC
100
AcDbEntity
  8
0
100
AcDbSpline
 62
7
  6
CONTINUOUS
 70
0
 71
3
 72
41
 73
37
 74
0
 42
0.0000001
 43
0.0000001
 44
0.0000000001
 40
0.0
 40
0.0
 40
0.0
 40
0.0
 40
0.0314064655
 40
0.0630250839
 40
0.0948402601
 40
0.1268267233
 40
0.1589536143
 40
0.1750630723
 40
0.1911939105
 40
0.2234913208
 40
0.2558145956
 40
0.2719775982
 40
0.2881321922
 40
0.3203895522
 40
0.3525595511
 40
0.3846105834
 40
0.4165155395
 40
0.4482524079
 40
0.4798047464
 40
0.5111620435
 40
0.5423199928
 40
0.5732806826
 40
0.6040526925
 40
0.634651074
 40
0.6650971843
 40
0.6954183289
 40
0.7256471694
 40
0.7558208483
 40
0.7859798153
 40
0.816166353
 40
0.8464228323
 40
0.8767897704
 40
0.9073038293
 40
0.9379959091
 40
0.968888971
 40
1.0
 40
1.0
 40
1.0
 40
1.0
 10
12.919102281
 20
7.248854082
 30
0.0
 10
12.9230929249
 20
7.2485773299
 30
0.0
 10
12.9310784706
 20
7.2476117821
 30
0.0
 10
12.942883713
 20
7.2449632884
 30
0.0
 10
12.9544415131
 20
7.2411409813
 30
0.0
 10
12.965632315
 20
7.236190724
 30
0.0
 10
12.9745545934
 20
7.2311768513
 30
0.0
 10
12.9814034789
 20
7.226665917
 30
0.0
 10
12.9880522644
 20
7.221827773
 30
0.0
 10
12.9959401342
 20
7.2152030004
 30
0.0
 10
13.0031922064
 20
7.2078825662
 30
0.0
 10
13.0085780759
 20
7.2016520236
 30
0.0
 10
13.0136724655
 20
7.1951917331
 30
0.0
 10
13.0194796076
 20
7.1867107361
 30
0.0
 10
13.0254973929
 20
7.1759783955
 30
0.0
 10
13.0305176157
 20
7.1647935192
 30
0.0
 10
13.0345032155
 20
7.1532580816
 30
0.0
 10
13.0374260211
 20
7.141473987
 30
0.0
 10
13.0392656911
 20
7.1295434357
 30
0.0
 10
13.0400095429
 20
7.1175684552
 30
0.0
 10
13.0396522888
 20
7.1056507904
 30
0.0
 10
13.0381959665
 20
7.0938917734
 30
0.0
 10
13.0356499983
 20
7.0823922102
 30
0.0
 10
13.032031398
 20
7.0712522121
 30
0.0
 10
13.0273651072
 20
7.0605709281
 30
0.0
 10
13.0216844369
 20
7.0504461274
 30
0.0
 10
13.015031573
 20
7.040973594
 30
0.0
 10
13.0074581045
 20
7.0322462853
 30
0.0
 10
12.9990254779
 20
7.0243532496
 30
0.0
 10
12.9898053018
 20
7.0173783052
 30
0.0
 10
12.9798794369
 20
7.0113985063
 30
0.0
 10
12.969339708
 20
7.0064824678
 30
0.0
 10
12.9582874549
 20
7.0026886202
 30
0.0
 10
12.9468318574
 20
7.0000636368
 30
0.0
 10
12.9350907214
 20
6.9986405651
 30
0.0
 10
12.9271779189
 20
6.9985065388
 30
0.0
 10
12.923217613
 20
6.9986413339
 30
0.0
  0
SPLINE
  5
2CD
100
AcDbEntity
  8
0
100
AcDbSpline
 62
7
  6
CONTINUOUS
 70
0
 71
3
 72
40
 73
36
 74
0
 42
0.0000001
 43
0.0000001
 44
0.0000000001
 40
0.0
 40
0.0
 40
0.0
 40
0.0
 40
0.0071626229
 40
0.0146567641
 40
0.0224900299
 40
0.0306686382
 40
0.0391976632
 40
0.0480809304
 40
0.057320739
 40
0.0669183362
 40
0.0768740602
 40
0.0871873292
 40
0.0978569438
 40
0.1088808796
 40
0.1319798546
 40
0.1564577669
 40
0.1822792814
 40
0.2094023218
 40
0.2377788737
 40
0.2673557011
 40
0.2980749227
 40
0.3298744798
 40
0.3626885204
 40
0.3964477562
 40
0.4310798366
 40
0.466509658
 40
0.5026596479
 40
0.539450022
 40
0.5767990774
 40
0.6146234699
 40
0.69135667
 40
0.7689611838
 40
0.8467369066
 40
0.9239815346
 40
1.0
 40
1.0
 40
1.0
 40
1.0
 10
8.2522699133
 20
10.0810828495
 30
0.0
 10
8.2511196946
 20
10.0799718235
 30
0.0
 10
8.2488207818
 20
10.0776411106
 30
0.0
 10
8.2454513099
 20
10.0739164099
 30
0.0
 10
8.2420860964
 20
10.0698875644
 30
0.0
 10
8.2387273498
 20
10.0655571795
 30
0.0
 10
8.2353768984
 20
10.0609278196
 30
0.0
 10
8.2320367235
 20
10.0560021268
 30
0.0
 10
8.2287087011
 20
10.0507830297
 30
0.0
 10
8.2253948449
 20
10.0452736174
 30
0.0
 10
8.2220971687
 20
10.0394771621
 30
0.0
 10
8.2188175779
 20
10.0333971481
 30
0.0
 10
8.2155580739
 20
10.0270371628
 30
0.0
 10
8.2111729983
 20
10.0180484851
 30
0.0
 10
8.2057679242
 20
10.0061302344
 30
0.0
 10
8.1994894259
 20
9.9909905103
 30
0.0
 10
8.1933366349
 20
9.9748342656
 30
0.0
 10
8.1873244395
 20
9.9577001973
 30
0.0
 10
8.1814673794
 20
9.9396291929
 30
0.0
 10
8.175779635
 20
9.9206645493
 30
0.0
 10
8.1702749818
 20
9.9008517382
 30
0.0
 10
8.1649667566
 20
9.8802383165
 30
0.0
 10
8.1598678154
 20
9.8588738066
 30
0.0
 10
8.1549904893
 20
9.8368095739
 30
0.0
 10
8.1503465781
 20
9.814098685
 30
0.0
 10
8.1459473156
 20
9.7907957731
 30
0.0
 10
8.1418033453
 20
9.7669569055
 30
0.0
 10
8.1379246893
 20
9.742639471
 30
0.0
 10
8.1343206724
 20
9.7179019673
 30
0.0
 10
8.1298721717
 20
9.6842783344
 30
0.0
 10
8.1250666603
 20
9.6416397126
 30
0.0
 10
8.1205404555
 20
9.5900092783
 30
0.0
 10
8.1172714506
 20
9.5381693448
 30
0.0
 10
8.1152909724
 20
9.4866189134
 30
0.0
 10
8.1148371137
 20
9.4523987668
 30
0.0
 10
8.1148371137
 20
9.435426307
 30
0.0
  0
SPLINE
  5
2CE
100
AcDbEntity
  8
0
100
AcDbSpline
 62
7
  6
CONTINUOUS
 70
0
 71
3
 72
32
 73
28
 74
0
 42
0.0000001
 43
0.0000001
 44
0.0000000001
 40
0.0
 40
0.0
 40
0.0
 40
0.0
 40
0.0851787614
 40
0.1685807002
 40
0.2498832653
 40
0.3287741212
 40
0.4049545312
 40
0.4781407237
 40
0.5480664211
 40
0.5817295925
 40
0.6144870438
 40
0.6463116105
 40
0.6771777326
 40
0.7070617063
 40
0.7359416555
 40
0.7637979445
 40
0.7906130811
 40
0.8163723145
 40
0.8410635061
 40
0.8646779434
 40
0.8872102421
 40
0.9086594218
 40
0.9290289468
 40
0.948328137
 40
0.9665725098
 40
0.9837856371
 40
1.0
 40
1.0
 40
1.0
 40
1.0
 10
8.1148371137
 20
7.2244219596
 30
0.0
 10
8.1148371137
 20
7.2134198481
 30
0.0
 10
8.1150245923
 20
7.1916445977
 30
0.0
 10
8.1158844665
 20
7.1593781437
 30
0.0
 10
8.117316602
 20
7.1279447714
 30
0.0
 10
8.1193147997
 20
7.0974768672
 30
0.0
 10
8.1218703819
 20
7.0681025355
 30
0.0
 10
8.1249723707
 20
7.0399454244
 30
0.0
 10
8.128038934
 20
7.0173161934
 30
0.0
 10
8.1307684602
 20
6.9999173104
 30
0.0
 10
8.1329175199
 20
6.9874102792
 30
0.0
 10
8.1351920895
 20
6.9752928442
 30
0.0
 10
8.1375898042
 20
6.963577727
 30
0.0
 10
8.1401080882
 20
6.9522772405
 30
0.0
 10
8.1427443106
 20
6.9414032476
 30
0.0
 10
8.1454956325
 20
6.9309671507
 30
0.0
 10
8.1483592004
 20
6.9209798845
 30
0.0
 10
8.1513319209
 20
6.9114518861
 30
0.0
 10
8.154410741
 20
6.9023931076
 30
0.0
 10
8.1575923363
 20
6.893812962
 30
0.0
 10
8.160873485
 20
6.8857203666
 30
0.0
 10
8.1642506698
 20
6.8781236533
 30
0.0
 10
8.167720555
 20
6.871030651
 30
0.0
 10
8.1712794822
 20
6.8644485815
 30
0.0
 10
8.1749241485
 20
6.8583840801
 30
0.0
 10
8.1786506658
 20
6.8528435051
 30
0.0
 10
8.1812637659
 20
6.8494023207
 30
0.0
 10
8.1825852216
 20
6.8477775245
 30
0.0
  0
SPLINE
  5
2CF
100
AcDbEntity
  8
0
100
AcDbSpline
 62
7
  6
CONTINUOUS
 70
0
 71
3
 72
14
 73
10
 74
0
 42
0.0000001
 43
0.0000001
 44
0.0000000001
 40
0.0
 40
0.0
 40
0.0
 40
0.0
 40
0.1435551927
 40
0.2814392143
 40
0.4137964579
 40
0.5408022623
 40
0.6626667313
 40
0.7796368178
 40
1.0
 40
1.0
 40
1.0
 40
1.0
 10
14.3521217265
 20
9.1890234693
 30
0.0
 10
14.3534908877
 20
9.1906299296
 30
0.0
 10
14.3562289837
 20
9.1937340799
 30
0.0
 10
14.3604233075
 20
9.1981435909
 30
0.0
 10
14.3646193075
 20
9.202209416
 30
0.0
 10
14.3688148877
 20
9.2059294018
 30
0.0
 10
14.3730086885
 20
9.2093021541
 30
0.0
 10
14.3784850158
 20
9.2132540458
 30
0.0
 10
14.3827483881
 20
9.2158205391
 30
0.0
 10
14.3856321541
 20
9.2172977634
 30
0.0
  0
SPLINE
  5
2D0
100
AcDbEntity
  8
0
100
AcDbSpline
 62
7
  6
CONTINUOUS
 70
0
 71
3
 72
14
 73
10
 74
0
 42
0.0000001
 43
0.0000001
 44
0.0000000001
 40
0.0
 40
0.0
 40
0.0
 40
0.0
 40
0.1438057479
 40
0.2818638942
 40
0.4143200077
 40
0.5413522251
 40
0.6631721669
 40
0.7800325097
 40
1.0
 40
1.0
 40
1.0
 40
1.0
 10
14.2554050722
 20
7.8004283816
 30
0.0
 10
14.2565526445
 20
7.7986124912
 30
0.0
 10
14.2588629679
 20
7.7950913096
 30
0.0
 10
14.2624520791
 20
7.7900474852
 30
0.0
 10
14.2660918035
 20
7.7853529281
 30
0.0
 10
14.2697802008
 20
7.7810101001
 30
0.0
 10
14.2735162306
 20
7.7770207615
 30
0.0
 10
14.2784574875
 20
7.7722728131
 30
0.0
 10
14.2823788139
 20
7.7690933653
 30
0.0
 10
14.2850684595
 20
7.7672059918
 30
0.0
  0
SPLINE
  5
2D1
100
AcDbEntity
  8
0
100
AcDbSpline
 62
7
  6
CONTINUOUS
 70
0
 71
3
 72
11
 73
7
 74
0
 42
0.0000001
 43
0.0000001
 44
0.0000000001
 40
0.0
 40
0.0
 40
0.0
 40
0.0
 40
0.2551202155
 40
0.5058795429
 40
0.7536854892
 40
1.0
 40
1.0
 40
1.0
 40
1.0
 10
14.2734799474
 20
7.7771541097
 30
0.0
 10
14.274642369
 20
7.7766876538
 30
0.0
 10
14.2769820113
 20
7.7758461894
 30
0.0
 10
14.2805529667
 20
7.7748629023
 30
0.0
 10
14.2841478786
 20
7.7741718775
 30
0.0
 10
14.2865622937
 20
7.7739061575
 30
0.0
 10
14.2877686842
 20
7.7738225008
 30
0.0
  0
SPLINE
  5
2D2
100
AcDbEntity
  8
0
100
AcDbSpline
 62
7
  6
CONTINUOUS
 70
0
 71
3
 72
23
 73
19
 74
0
 42
0.0000001
 43
0.0000001
 44
0.0000000001
 40
0.0
 40
0.0
 40
0.0
 40
0.0
 40
0.0465826925
 40
0.0936606178
 40
0.1417124373
 40
0.1911856464
 40
0.2424870301
 40
0.2959763415
 40
0.3519658195
 40
0.4107206475
 40
0.4724636507
 40
0.5373783237
 40
0.6056148364
 40
0.6772929785
 40
0.7525076465
 40
0.8313308449
 40
0.913816196
 40
1.0
 40
1.0
 40
1.0
 40
1.0
 10
14.3385184425
 20
7.7081540725
 30
0.0
 10
14.3367779476
 20
7.7082747767
 30
0.0
 10
14.3332886807
 20
7.7087059479
 30
0.0
 10
14.3281109188
 20
7.7099140659
 30
0.0
 10
14.3229823217
 20
7.7116830488
 30
0.0
 10
14.3179080444
 20
7.7140098918
 30
0.0
 10
14.3128917127
 20
7.7168916298
 30
0.0
 10
14.3079365378
 20
7.7203247976
 30
0.0
 10
14.3030455396
 20
7.7243061843
 30
0.0
 10
14.2982214026
 20
7.7288322599
 30
0.0
 10
14.2934670065
 20
7.7338996127
 30
0.0
 10
14.2887850394
 20
7.7395044396
 30
0.0
 10
14.2841784724
 20
7.7456428522
 30
0.0
 10
14.2796501038
 20
7.752310507
 30
0.0
 10
14.2752029882
 20
7.7595028346
 30
0.0
 10
14.2708399768
 20
7.7672148264
 30
0.0
 10
14.2665641691
 20
7.7754410658
 30
0.0
 10
14.2638336778
 20
7.7811390203
 30
0.0
 10
14.2624813516
 20
7.7840699489
 30
0.0
  0
SPLINE
  5
2D3
100
AcDbEntity
  8
0
100
AcDbSpline
 62
7
  6
CONTINUOUS
 70
0
 71
3
 72
29
 73
25
 74
0
 42
0.0000001
 43
0.0000001
 44
0.0000000001
 40
0.0
 40
0.0
 40
0.0
 40
0.0
 40
0.0199324943
 40
0.0407079174
 40
0.0623259141
 40
0.0847836558
 40
0.1080764105
 40
0.1321974303
 40
0.1571384547
 40
0.1828895346
 40
0.2094394896
 40
0.2367756916
 40
0.2648844882
 40
0.2937509628
 40
0.3536914418
 40
0.4164604419
 40
0.4819062334
 40
0.5498650188
 40
0.6201622389
 40
0.6926137344
 40
0.7670267818
 40
0.8432011136
 40
0.9209297294
 40
1.0
 40
1.0
 40
1.0
 40
1.0
 10
14.2624813516
 20
7.7840699489
 30
0.0
 10
14.2610423568
 20
7.7871887163
 30
0.0
 10
14.2582022413
 20
7.7936040726
 30
0.0
 10
14.2541299516
 20
7.8035432774
 30
0.0
 10
14.250160365
 20
7.8139907735
 30
0.0
 10
14.246296382
 20
7.8249387472
 30
0.0
 10
14.2425409266
 20
7.8363791935
 30
0.0
 10
14.2388967122
 20
7.8483036584
 30
0.0
 10
14.2353665229
 20
7.8607033516
 30
0.0
 10
14.2319529122
 20
7.8735691013
 30
0.0
 10
14.2286584948
 20
7.8868913964
 30
0.0
 10
14.2254856633
 20
7.9006603657
 30
0.0
 10
14.2224368204
 20
7.9148658282
 30
0.0
 10
14.2184904872
 20
7.9346228676
 30
0.0
 10
14.213900805
 20
7.960339064
 30
0.0
 10
14.2089879366
 20
7.9923901937
 30
0.0
 10
14.2046180065
 20
8.0259135559
 30
0.0
 10
14.2008041736
 20
8.0608096774
 30
0.0
 10
14.1975579853
 20
8.0969751939
 30
0.0
 10
14.1948892567
 20
8.1343028317
 30
0.0
 10
14.1928060658
 20
8.1726818342
 30
0.0
 10
14.1913147309
 20
8.2119983056
 30
0.0
 10
14.190419785
 20
8.2521354149
 30
0.0
 10
14.1902240777
 20
8.2791552129
 30
0.0
 10
14.1902240777
 20
8.2927804799
 30
0.0
  0
SPLINE
  5
2D4
100
AcDbEntity
  8
0
100
AcDbSpline
 62
7
  6
CONTINUOUS
 70
0
 71
3
 72
11
 73
7
 74
0
 42
0.0000001
 43
0.0000001
 44
0.0000000001
 40
0.0
 40
0.0
 40
0.0
 40
0.0
 40
0.2553606545
 40
0.5061573516
 40
0.7538600043
 40
1.0
 40
1.0
 40
1.0
 40
1.0
 10
14.3724255112
 20
9.2089550308
 30
0.0
 10
14.3736704596
 20
9.2092731907
 30
0.0
 10
14.3761626238
 20
9.2098125951
 30
0.0
 10
14.3799253572
 20
9.2103235175
 30
0.0
 10
14.383670799
 20
9.2105271672
 30
0.0
 10
14.3861581437
 20
9.2104578033
 30
0.0
 10
14.3873937388
 20
9.2103721213
 30
0.0
  0
SPLINE
  5
2D5
100
AcDbEntity
  8
0
100
AcDbSpline
 62
7
  6
CONTINUOUS
 70
0
 71
3
 72
18
 73
14
 74
0
 42
0.0000001
 43
0.0000001
 44
0.0000000001
 40
0.0
 40
0.0
 40
0.0
 40
0.0
 40
0.0544328977
 40
0.1090825819
 40
0.164163178
 40
0.2198832571
 40
0.3339856861
 40
0.4529288702
 40
0.5146466453
 40
0.5780414074
 40
0.7103382159
 40
0.8507568709
 40
1.0
 40
1.0
 40
1.0
 40
1.0
 10
8.8873906628
 20
10.6737525614
 30
0.0
 10
8.8866276971
 20
10.6738054738
 30
0.0
 10
8.8850947887
 20
10.6738615275
 30
0.0
 10
8.8827876679
 20
10.67379555
 30
0.0
 10
8.880471441
 20
10.6735795802
 30
0.0
 10
8.8773481199
 20
10.6730882276
 30
0.0
 10
8.8734059441
 20
10.672085549
 30
0.0
 10
8.8695273708
 20
10.6706092599
 30
0.0
 10
8.866425041
 20
10.6691457173
 30
0.0
 10
8.863233126
 20
10.6674423041
 30
0.0
 10
8.8592294466
 20
10.6649249844
 30
0.0
 10
8.8544853347
 20
10.6613601201
 30
0.0
 10
8.8514172881
 20
10.6586802112
 30
0.0
 10
8.849882302
 20
10.6572516283
 30
0.0
  0
SPLINE
  5
2D6
100
AcDbEntity
  8
0
100
AcDbSpline
 62
7
  6
CONTINUOUS
 70
0
 71
3
 72
18
 73
14
 74
0
 42
0.0000001
 43
0.0000001
 44
0.0000000001
 40
0.0
 40
0.0
 40
0.0
 40
0.0
 40
0.1492435137
 40
0.2896566257
 40
0.4219550777
 40
0.485351101
 40
0.547069549
 40
0.6660129848
 40
0.7801156501
 40
0.8358360225
 40
0.8909169124
 40
0.9455668623
 40
1.0
 40
1.0
 40
1.0
 40
1.0
 10
8.2084606058
 20
6.8159623722
 30
0.0
 10
8.2097836987
 20
6.814335572
 30
0.0
 10
8.2124523828
 20
6.8112578509
 30
0.0
 10
8.2166590036
 20
6.8070723281
 30
0.0
 10
8.2202768237
 20
6.8040264525
 30
0.0
 10
8.2232030797
 20
6.8018987004
 30
0.0
 10
8.2260737072
 20
6.8000209054
 30
0.0
 10
8.2297113821
 20
6.7980233509
 30
0.0
 10
8.2334774272
 20
6.7964861126
 30
0.0
 10
8.2365030318
 20
6.7955683158
 30
0.0
 10
8.2387672853
 20
6.7950346845
 30
0.0
 10
8.2410432247
 20
6.7946508737
 30
0.0
 10
8.2425692028
 20
6.7944947898
 30
0.0
 10
8.2433321718
 20
6.7944418772
 30
0.0
  0
SPLINE
  5
2D7
100
AcDbEntity
  8
0
100
AcDbSpline
 62
7
  6
CONTINUOUS
 70
0
 71
3
 72
41
 73
37
 74
0
 42
0.0000001
 43
0.0000001
 44
0.0000000001
 40
0.0
 40
0.0
 40
0.0
 40
0.0
 40
0.029942123
 40
0.0449237706
 40
0.0599145177
 40
0.0899291716
 40
0.1200145961
 40
0.1350933574
 40
0.1501974726
 40
0.1804849654
 40
0.2108989488
 40
0.2414525624
 40
0.2721557217
 40
0.3030149378
 40
0.3340332219
 40
0.3652100719
 40
0.3965415365
 40
0.4280203507
 40
0.4596361361
 40
0.4913756582
 40
0.5232231336
 40
0.5551605782
 40
0.5871681905
 40
0.6192247616
 40
0.6513081064
 40
0.6833955071
 40
0.7154641657
 40
0.7474916563
 40
0.7794563734
 40
0.811337967
 40
0.843117763
 40
0.8747791516
 40
0.9063079641
 40
0.9376927517
 40
0.9689251728
 40
1.0
 40
1.0
 40
1.0
 40
1.0
 10
9.421712974
 20
9.6832596469
 30
0.0
 10
9.4252133914
 20
9.6866408136
 30
0.0
 10
9.4306703028
 20
9.6915077395
 30
0.0
 10
9.438312623
 20
9.6975465214
 30
0.0
 10
9.4461983316
 20
9.7032847913
 30
0.0
 10
9.4564878802
 20
9.7098742179
 30
0.0
 10
9.4672777417
 20
9.7156380533
 30
0.0
 10
9.4761765719
 20
9.7197384979
 30
0.0
 10
9.4852592536
 20
9.7235004028
 30
0.0
 10
9.496911912
 20
9.7275455708
 30
0.0
 10
9.5112720697
 20
9.7313155802
 30
0.0
 10
9.5259455788
 20
9.7339863843
 30
0.0
 10
9.5408511229
 20
9.7355432417
 30
0.0
 10
9.5559068212
 20
9.7359778455
 30
0.0
 10
9.5710298324
 20
9.7352879832
 30
0.0
 10
9.586137036
 20
9.7334776398
 30
0.0
 10
9.6011454239
 20
9.7305569404
 30
0.0
 10
9.6159725673
 20
9.7265420944
 30
0.0
 10
9.6305370591
 20
9.7214553
 30
0.0
 10
9.6447589556
 20
9.7153246184
 30
0.0
 10
9.658560209
 20
9.7081838181
 30
0.0
 10
9.6718650895
 20
9.7000721884
 30
0.0
 10
9.6846005957
 20
9.6910343239
 30
0.0
 10
9.6966968497
 20
9.6811198812
 30
0.0
 10
9.7080874763
 20
9.6703833077
 30
0.0
 10
9.7187099627
 20
9.6588835456
 30
0.0
 10
9.7285059984
 20
9.6466837114
 30
0.0
 10
9.737421792
 20
9.6338507529
 30
0.0
 10
9.7454083635
 20
9.6204550864
 30
0.0
 10
9.7524218123
 20
9.6065702124
 30
0.0
 10
9.7584235547
 20
9.5922723264
 30
0.0
 10
9.7633805399
 20
9.5776398711
 30
0.0
 10
9.7672654222
 20
9.5627532439
 30
0.0
 10
9.7700567326
 20
9.5476938723
 30
0.0
 10
9.7717389686
 20
9.5325455715
 30
0.0
 10
9.772115762
 20
9.5224143639
 30
0.0
 10
9.772115762
 20
9.5173635106
 30
0.0
  0
SPLINE
  5
2D8
100
AcDbEntity
  8
0
100
AcDbSpline
 62
7
  6
CONTINUOUS
 70
0
 71
3
 72
41
 73
37
 74
0
 42
0.0000001
 43
0.0000001
 44
0.0000000001
 40
0.0
 40
0.0
 40
0.0
 40
0.0
 40
0.029942123
 40
0.0449237706
 40
0.0599145177
 40
0.0899291716
 40
0.1200145961
 40
0.1350933574
 40
0.1501974726
 40
0.1804849654
 40
0.2108989488
 40
0.2414525624
 40
0.2721557217
 40
0.3030149378
 40
0.3340332219
 40
0.3652100719
 40
0.3965415365
 40
0.4280203507
 40
0.4596361361
 40
0.4913756582
 40
0.5232231336
 40
0.5551605782
 40
0.5871681905
 40
0.6192247616
 40
0.6513081064
 40
0.6833955071
 40
0.7154641657
 40
0.7474916563
 40
0.7794563734
 40
0.811337967
 40
0.843117763
 40
0.8747791516
 40
0.9063079641
 40
0.9376927517
 40
0.9689251728
 40
1.0
 40
1.0
 40
1.0
 40
1.0
 10
13.2854166233
 20
9.4153108887
 30
0.0
 10
13.2889170407
 20
9.4186920555
 30
0.0
 10
13.294373952
 20
9.4235589813
 30
0.0
 10
13.3020162722
 20
9.4295977632
 30
0.0
 10
13.3099019808
 20
9.4353360331
 30
0.0
 10
13.3201915294
 20
9.4419254597
 30
0.0
 10
13.3309813909
 20
9.4476892951
 30
0.0
 10
13.3398802212
 20
9.4517897397
 30
0.0
 10
13.3489629028
 20
9.4555516447
 30
0.0
 10
13.3606155613
 20
9.4595968126
 30
0.0
 10
13.374975719
 20
9.463366822
 30
0.0
 10
13.3896492281
 20
9.4660376262
 30
0.0
 10
13.4045547722
 20
9.4675944836
 30
0.0
 10
13.4196104705
 20
9.4680290874
 30
0.0
 10
13.4347334816
 20
9.467339225
 30
0.0
 10
13.4498406853
 20
9.4655288817
 30
0.0
 10
13.4648490732
 20
9.4626081822
 30
0.0
 10
13.4796762166
 20
9.4585933363
 30
0.0
 10
13.4942407083
 20
9.4535065418
 30
0.0
 10
13.5084626049
 20
9.4473758603
 30
0.0
 10
13.5222638582
 20
9.44023506
 30
0.0
 10
13.5355687387
 20
9.4321234302
 30
0.0
 10
13.548304245
 20
9.4230855658
 30
0.0
 10
13.560400499
 20
9.4131711231
 30
0.0
 10
13.5717911255
 20
9.4024345495
 30
0.0
 10
13.5824136119
 20
9.3909347874
 30
0.0
 10
13.5922096476
 20
9.3787349533
 30
0.0
 10
13.6011254412
 20
9.3659019948
 30
0.0
 10
13.6091120128
 20
9.3525063283
 30
0.0
 10
13.6161254616
 20
9.3386214542
 30
0.0
 10
13.6221272039
 20
9.3243235682
 30
0.0
 10
13.6270841892
 20
9.309691113
 30
0.0
 10
13.6309690714
 20
9.2948044858
 30
0.0
 10
13.6337603819
 20
9.2797451141
 30
0.0
 10
13.6354426178
 20
9.2645968133
 30
0.0
 10
13.6358194113
 20
9.2544656057
 30
0.0
 10
13.6358194113
 20
9.2494147524
 30
0.0
  0
SPLINE
  5
2D9
100
AcDbEntity
  8
0
100
AcDbSpline
 62
7
  6
CONTINUOUS
 70
0
 71
3
 72
41
 73
37
 74
0
 42
0.0000001
 43
0.0000001
 44
0.0000000001
 40
0.0
 40
0.0
 40
0.0
 40
0.0
 40
0.029942123
 40
0.0449237706
 40
0.0599145177
 40
0.0899291716
 40
0.1200145961
 40
0.1350933574
 40
0.1501974726
 40
0.1804849654
 40
0.2108989488
 40
0.2414525624
 40
0.2721557217
 40
0.3030149378
 40
0.3340332219
 40
0.3652100719
 40
0.3965415365
 40
0.4280203507
 40
0.4596361361
 40
0.4913756582
 40
0.5232231336
 40
0.5551605782
 40
0.5871681905
 40
0.6192247616
 40
0.6513081064
 40
0.6833955071
 40
0.7154641657
 40
0.7474916563
 40
0.7794563734
 40
0.811337967
 40
0.843117763
 40
0.8747791516
 40
0.9063079641
 40
0.9376927517
 40
0.9689251728
 40
1.0
 40
1.0
 40
1.0
 40
1.0
 10
13.2854166233
 20
6.757082767
 30
0.0
 10
13.2889170407
 20
6.7604639337
 30
0.0
 10
13.294373952
 20
6.7653308596
 30
0.0
 10
13.3020162722
 20
6.7713696415
 30
0.0
 10
13.3099019808
 20
6.7771079114
 30
0.0
 10
13.3201915294
 20
6.783697338
 30
0.0
 10
13.3309813909
 20
6.7894611734
 30
0.0
 10
13.3398802212
 20
6.793561618
 30
0.0
 10
13.3489629028
 20
6.797323523
 30
0.0
 10
13.3606155613
 20
6.8013686909
 30
0.0
 10
13.374975719
 20
6.8051387003
 30
0.0
 10
13.3896492281
 20
6.8078095045
 30
0.0
 10
13.4045547722
 20
6.8093663619
 30
0.0
 10
13.4196104705
 20
6.8098009657
 30
0.0
 10
13.4347334816
 20
6.8091111033
 30
0.0
 10
13.4498406853
 20
6.8073007599
 30
0.0
 10
13.4648490732
 20
6.8043800605
 30
0.0
 10
13.4796762166
 20
6.8003652145
 30
0.0
 10
13.4942407083
 20
6.7952784201
 30
0.0
 10
13.5084626049
 20
6.7891477385
 30
0.0
 10
13.5222638582
 20
6.7820069382
 30
0.0
 10
13.5355687387
 20
6.7738953085
 30
0.0
 10
13.548304245
 20
6.7648574441
 30
0.0
 10
13.560400499
 20
6.7549430013
 30
0.0
 10
13.5717911255
 20
6.7442064278
 30
0.0
 10
13.5824136119
 20
6.7327066657
 30
0.0
 10
13.5922096476
 20
6.7205068315
 30
0.0
 10
13.6011254412
 20
6.7076738731
 30
0.0
 10
13.6091120128
 20
6.6942782066
 30
0.0
 10
13.6161254616
 20
6.6803933325
 30
0.0
 10
13.6221272039
 20
6.6660954465
 30
0.0
 10
13.6270841892
 20
6.6514629912
 30
0.0
 10
13.6309690714
 20
6.636576364
 30
0.0
 10
13.6337603819
 20
6.6215169924
 30
0.0
 10
13.6354426178
 20
6.6063686916
 30
0.0
 10
13.6358194113
 20
6.596237484
 30
0.0
 10
13.6358194113
 20
6.5911866307
 30
0.0
  0
SPLINE
  5
2DA
100
AcDbEntity
  8
0
100
AcDbSpline
 62
7
  6
CONTINUOUS
 70
0
 71
3
 72
23
 73
19
 74
0
 42
0.0000001
 43
0.0000001
 44
0.0000000001
 40
0.0
 40
0.0
 40
0.0
 40
0.0
 40
0.0622034662
 40
0.1242633821
 40
0.1862159921
 40
0.2481003945
 40
0.3099578874
 40
0.3718311636
 40
0.4337634628
 40
0.4957977042
 40
0.5579754809
 40
0.6203360494
 40
0.6829152855
 40
0.7457445903
 40
0.8088508508
 40
0.8722528466
 40
0.9359688438
 40
1.0
 40
1.0
 40
1.0
 40
1.0
 10
12.3739202819
 20
8.7889322564
 30
0.0
 10
12.3751525681
 20
8.7913547769
 30
0.0
 10
12.377784542
 20
8.7961098473
 30
0.0
 10
12.3822222498
 20
8.8029375007
 30
0.0
 10
12.3871285679
 20
8.8094197859
 30
0.0
 10
12.3924841309
 20
8.8155244067
 30
0.0
 10
12.398267484
 20
8.8212206564
 30
0.0
 10
12.4044546145
 20
8.8264789168
 30
0.0
 10
12.4110190255
 20
8.8312711232
 30
0.0
 10
12.4179317448
 20
8.8355709545
 30
0.0
 10
12.4251613718
 20
8.8393541412
 30
0.0
 10
12.4326741678
 20
8.8425987527
 30
0.0
 10
12.4404341832
 20
8.8452854806
 30
0.0
 10
12.4484034741
 20
8.8473980065
 30
0.0
 10
12.4565422322
 20
8.8489230763
 30
0.0
 10
12.4648095247
 20
8.8498510578
 30
0.0
 10
12.4731623306
 20
8.8501755422
 30
0.0
 10
12.4787466974
 20
8.8499883768
 30
0.0
 10
12.4815377815
 20
8.8497948145
 30
0.0
  0
SPLINE
  5
2DB
100
AcDbEntity
  8
0
100
AcDbSpline
 62
7
  6
CONTINUOUS
 70
0
 71
3
 72
11
 73
7
 74
0
 42
0.0000001
 43
0.0000001
 44
0.0000000001
 40
0.0
 40
0.0
 40
0.0
 40
0.0
 40
0.2478035322
 40
0.4970064759
 40
0.7477169691
 40
1.0
 40
1.0
 40
1.0
 40
1.0
 10
11.9591759618
 20
7.5675655731
 30
0.0
 10
11.9684175589
 20
7.5704106459
 30
0.0
 10
11.9872327485
 20
7.5752482169
 30
0.0
 10
12.0160828708
 20
7.5798638258
 30
0.0
 10
12.0454090533
 20
7.5818202495
 30
0.0
 10
12.0650621675
 20
7.5813399192
 30
0.0
 10
12.0748829957
 20
7.5806588424
 30
0.0
  0
SPLINE
  5
2DC
100
AcDbEntity
  8
0
100
AcDbSpline
 62
7
  6
CONTINUOUS
 70
0
 71
3
 72
41
 73
37
 74
0
 42
0.0000001
 43
0.0000001
 44
0.0000000001
 40
0.0
 40
0.0
 40
0.0
 40
0.0
 40
0.029942123
 40
0.0449237706
 40
0.0599145177
 40
0.0899291716
 40
0.1200145961
 40
0.1350933574
 40
0.1501974726
 40
0.1804849654
 40
0.2108989488
 40
0.2414525624
 40
0.2721557217
 40
0.3030149378
 40
0.3340332219
 40
0.3652100719
 40
0.3965415365
 40
0.4280203507
 40
0.4596361361
 40
0.4913756582
 40
0.5232231336
 40
0.5551605782
 40
0.5871681905
 40
0.6192247616
 40
0.6513081064
 40
0.6833955071
 40
0.7154641657
 40
0.7474916563
 40
0.7794563734
 40
0.811337967
 40
0.843117763
 40
0.8747791516
 40
0.9063079641
 40
0.9376927517
 40
0.9689251728
 40
1.0
 40
1.0
 40
1.0
 40
1.0
 10
9.421712974
 20
7.0250315251
 30
0.0
 10
9.4252133914
 20
7.0284126919
 30
0.0
 10
9.4306703028
 20
7.0332796178
 30
0.0
 10
9.438312623
 20
7.0393183997
 30
0.0
 10
9.4461983316
 20
7.0450566696
 30
0.0
 10
9.4564878802
 20
7.0516460961
 30
0.0
 10
9.4672777417
 20
7.0574099315
 30
0.0
 10
9.4761765719
 20
7.0615103761
 30
0.0
 10
9.4852592536
 20
7.0652722811
 30
0.0
 10
9.496911912
 20
7.069317449
 30
0.0
 10
9.5112720697
 20
7.0730874585
 30
0.0
 10
9.5259455788
 20
7.0757582626
 30
0.0
 10
9.5408511229
 20
7.07731512
 30
0.0
 10
9.5559068212
 20
7.0777497238
 30
0.0
 10
9.5710298324
 20
7.0770598615
 30
0.0
 10
9.586137036
 20
7.0752495181
 30
0.0
 10
9.6011454239
 20
7.0723288186
 30
0.0
 10
9.6159725673
 20
7.0683139727
 30
0.0
 10
9.6305370591
 20
7.0632271783
 30
0.0
 10
9.6447589556
 20
7.0570964967
 30
0.0
 10
9.658560209
 20
7.0499556964
 30
0.0
 10
9.6718650895
 20
7.0418440667
 30
0.0
 10
9.6846005957
 20
7.0328062022
 30
0.0
 10
9.6966968497
 20
7.0228917595
 30
0.0
 10
9.7080874763
 20
7.012155186
 30
0.0
 10
9.7187099627
 20
7.0006554239
 30
0.0
 10
9.7285059984
 20
6.9884555897
 30
0.0
 10
9.737421792
 20
6.9756226312
 30
0.0
 10
9.7454083635
 20
6.9622269647
 30
0.0
 10
9.7524218123
 20
6.9483420907
 30
0.0
 10
9.7584235547
 20
6.9340442046
 30
0.0
 10
9.7633805399
 20
6.9194117494
 30
0.0
 10
9.7672654222
 20
6.9045251222
 30
0.0
 10
9.7700567326
 20
6.8894657505
 30
0.0
 10
9.7717389686
 20
6.8743174498
 30
0.0
 10
9.772115762
 20
6.8641862422
 30
0.0
 10
9.772115762
 20
6.8591353888
 30
0.0
  0
SPLINE
  5
2DD
100
AcDbEntity
  8
0
100
AcDbSpline
 62
7
  6
CONTINUOUS
 70
0
 71
3
 72
40
 73
36
 74
0
 42
0.0000001
 43
0.0000001
 44
0.0000000001
 40
0.0
 40
0.0
 40
0.0
 40
0.0
 40
0.0299422973
 40
0.0449240327
 40
0.059914866
 40
0.089929696
 40
0.1200152967
 40
0.1501925739
 40
0.180480241
 40
0.2108943975
 40
0.2414481839
 40
0.2721515165
 40
0.3030109074
 40
0.3340293686
 40
0.3652063985
 40
0.3965380456
 40
0.4280170434
 40
0.4596330122
 40
0.4913727167
 40
0.5232203738
 40
0.5551580001
 40
0.587165795
 40
0.6192225506
 40
0.6513060818
 40
0.6833936709
 40
0.7154625181
 40
0.7474901959
 40
0.7794550985
 40
0.8113368727
 40
0.8431168595
 40
0.8747783985
 40
0.906307485
 40
0.9376922173
 40
0.9689252845
 40
1.0
 40
1.0
 40
1.0
 40
1.0
 10
10.7679312563
 20
9.6034418533
 30
0.0
 10
10.7702621025
 20
9.6056932976
 30
0.0
 10
10.7738957147
 20
9.6089340937
 30
0.0
 10
10.7789845778
 20
9.6129551713
 30
0.0
 10
10.7842354411
 20
9.61677618
 30
0.0
 10
10.7910872066
 20
9.6211640113
 30
0.0
 10
10.7997140631
 20
9.6257724957
 30
0.0
 10
10.8087030475
 20
9.6297020332
 30
0.0
 10
10.8180042928
 20
9.6329308466
 30
0.0
 10
10.8275666119
 20
9.6354413193
 30
0.0
 10
10.8373373045
 20
9.6372197331
 30
0.0
 10
10.8472625802
 20
9.6382564314
 30
0.0
 10
10.857287821
 20
9.6385458392
 30
0.0
 10
10.8673578911
 20
9.6380864934
 30
0.0
 10
10.8774174357
 20
9.6368810424
 30
0.0
 10
10.8874111821
 20
9.6349362257
 30
0.0
 10
10.8972842413
 20
9.6322628366
 30
0.0
 10
10.9069824063
 20
9.6288756597
 30
0.0
 10
10.9164524447
 20
9.6247933824
 30
0.0
 10
10.9256423872
 20
9.6200384915
 30
0.0
 10
10.9345018076
 20
9.6146371492
 30
0.0
 10
10.9429820965
 20
9.6086190496
 30
0.0
 10
10.9510367237
 20
9.6020172569
 30
0.0
 10
10.9586214906
 20
9.594868025
 30
0.0
 10
10.9656947699
 20
9.5872106008
 30
0.0
 10
10.9722177305
 20
9.5790870105
 30
0.0
 10
10.9781545549
 20
9.5705418349
 30
0.0
 10
10.9834726292
 20
9.5616219647
 30
0.0
 10
10.9881427266
 20
9.5523763432
 30
0.0
 10
10.992139145
 20
9.5428557081
 30
0.0
 10
10.9954399056
 20
9.5331122869
 30
0.0
 10
10.9980267381
 20
9.5231996355
 30
0.0
 10
10.9998854564
 20
9.5131719162
 30
0.0
 10
11.001005585
 20
9.5030850099
 30
0.0
 10
11.0012565013
 20
9.4963388519
 30
0.0
 10
11.0012565013
 20
9.4929756352
 30
0.0
  0
SPLINE
  5
2DE
100
AcDbEntity
  8
0
100
AcDbSpline
 62
7
  6
CONTINUOUS
 70
0
 71
3
 72
25
 73
21
 74
0
 42
0.0000001
 43
0.0000001
 44
0.0000000001
 40
0.0
 40
0.0
 40
0.0
 40
0.0
 40
0.0624814452
 40
0.0936533995
 40
0.1247812343
 40
0.1869108774
 40
0.2489165562
 40
0.279891012
 40
0.3108500585
 40
0.3727334696
 40
0.4346258913
 40
0.4965776217
 40
0.5586401823
 40
0.620864836
 40
0.6833008624
 40
0.7459936624
 40
0.8089827593
 40
0.8723002443
 40
0.9359680195
 40
1.0
 40
1.0
 40
1.0
 40
1.0
 10
10.5586192129
 20
7.486705336
 30
0.0
 10
10.5616106563
 20
7.4943330238
 30
0.0
 10
10.5664947099
 20
7.5056155768
 30
0.0
 10
10.5737871859
 20
7.5202663117
 30
0.0
 10
10.5815784285
 20
7.5346062578
 30
0.0
 10
10.5922651981
 20
7.5519585149
 30
0.0
 10
10.6041936696
 20
7.5684583174
 30
0.0
 10
10.6144474826
 20
7.5810722729
 30
0.0
 10
10.6251633073
 20
7.5932746933
 30
0.0
 10
10.639424426
 20
7.6077394734
 30
0.0
 10
10.6578475116
 20
7.623706846
 30
0.0
 10
10.677503699
 20
7.6381713891
 30
0.0
 10
10.6983025301
 20
7.6510226808
 30
0.0
 10
10.7201410478
 20
7.6621569671
 30
0.0
 10
10.7429026088
 20
7.6714784687
 30
0.0
 10
10.7664574558
 20
7.6789022086
 30
0.0
 10
10.790663258
 20
7.6843566534
 30
0.0
 10
10.8153674642
 20
7.6877859792
 30
0.0
 10
10.8404061865
 20
7.6891527029
 30
0.0
 10
10.8571673975
 20
7.688677471
 30
0.0
 10
10.8655439147
 20
7.6880965575
 30
0.0
  0
SPLINE
  5
2DF
100
AcDbEntity
  8
0
100
AcDbSpline
 62
7
  6
CONTINUOUS
 70
0
 71
3
 72
40
 73
36
 74
0
 42
0.0000001
 43
0.0000001
 44
0.0000000001
 40
0.0
 40
0.0
 40
0.0
 40
0.0
 40
0.0299422973
 40
0.0449240327
 40
0.059914866
 40
0.089929696
 40
0.1200152967
 40
0.1501925739
 40
0.180480241
 40
0.2108943975
 40
0.2414481839
 40
0.2721515165
 40
0.3030109074
 40
0.3340293686
 40
0.3652063985
 40
0.3965380456
 40
0.4280170434
 40
0.4596330122
 40
0.4913727167
 40
0.5232203738
 40
0.5551580001
 40
0.587165795
 40
0.6192225506
 40
0.6513060818
 40
0.6833936709
 40
0.7154625181
 40
0.7474901959
 40
0.7794550985
 40
0.8113368727
 40
0.8431168595
 40
0.8747783985
 40
0.906307485
 40
0.9376922173
 40
0.9689252845
 40
1.0
 40
1.0
 40
1.0
 40
1.0
 10
11.3726007894
 20
6.7815731369
 30
0.0
 10
11.3749316356
 20
6.7838245812
 30
0.0
 10
11.3785652477
 20
6.7870653774
 30
0.0
 10
11.3836541108
 20
6.791086455
 30
0.0
 10
11.3889049741
 20
6.7949074637
 30
0.0
 10
11.3957567397
 20
6.7992952949
 30
0.0
 10
11.4043835962
 20
6.8039037793
 30
0.0
 10
11.4133725806
 20
6.8078333168
 30
0.0
 10
11.4226738259
 20
6.8110621302
 30
0.0
 10
11.432236145
 20
6.8135726029
 30
0.0
 10
11.4420068376
 20
6.8153510167
 30
0.0
 10
11.4519321132
 20
6.816387715
 30
0.0
 10
11.4619573541
 20
6.8166771228
 30
0.0
 10
11.4720274242
 20
6.816217777
 30
0.0
 10
11.4820869687
 20
6.815012326
 30
0.0
 10
11.4920807152
 20
6.8130675094
 30
0.0
 10
11.5019537744
 20
6.8103941202
 30
0.0
 10
11.5116519393
 20
6.8070069434
 30
0.0
 10
11.5211219778
 20
6.8029246661
 30
0.0
 10
11.5303119202
 20
6.7981697752
 30
0.0
 10
11.5391713407
 20
6.7927684328
 30
0.0
 10
11.5476516296
 20
6.7867503332
 30
0.0
 10
11.5557062568
 20
6.7801485405
 30
0.0
 10
11.5632910237
 20
6.7729993086
 30
0.0
 10
11.5703643029
 20
6.7653418844
 30
0.0
 10
11.5768872636
 20
6.7572182941
 30
0.0
 10
11.5828240879
 20
6.7486731186
 30
0.0
 10
11.5881421622
 20
6.7397532483
 30
0.0
 10
11.5928122597
 20
6.7305076268
 30
0.0
 10
11.596808678
 20
6.7209869917
 30
0.0
 10
11.6001094386
 20
6.7112435705
 30
0.0
 10
11.6026962712
 20
6.7013309191
 30
0.0
 10
11.6045549894
 20
6.6913031998
 30
0.0
 10
11.6056751181
 20
6.6812162935
 30
0.0
 10
11.6059260344
 20
6.6744701356
 30
0.0
 10
11.6059260344
 20
6.6711069188
 30
0.0
  0
SPLINE
  5
2E0
100
AcDbEntity
  8
0
100
AcDbSpline
 62
7
  6
CONTINUOUS
 70
0
 71
3
 72
27
 73
23
 74
0
 42
0.0000001
 43
0.0000001
 44
0.0000000001
 40
0.0
 40
0.0
 40
0.0
 40
0.0
 40
0.0620093166
 40
0.0929795436
 40
0.1239296729
 40
0.1857786125
 40
0.2476020707
 40
0.2785206069
 40
0.309446961
 40
0.3713327701
 40
0.4333059221
 40
0.4954023549
 40
0.5576560001
 40
0.6200981123
 40
0.6827566608
 40
0.7141793349
 40
0.7456647764
 40
0.8088242662
 40
0.8722591674
 40
0.9040872338
 40
0.935988674
 40
1.0
 40
1.0
 40
1.0
 40
1.0
 10
11.1852458992
 20
9.0490698798
 30
0.0
 10
11.1888856377
 20
9.0549806371
 30
0.0
 10
11.1946448574
 20
9.0636631108
 30
0.0
 10
11.202893877
 20
9.0748196993
 30
0.0
 10
11.2115073054
 20
9.0856751824
 30
0.0
 10
11.2229556685
 20
9.0986763505
 30
0.0
 10
11.2352665427
 20
9.1108592092
 30
0.0
 10
11.2455978341
 20
9.1200778218
 30
0.0
 10
11.2562458498
 20
9.1289395433
 30
0.0
 10
11.2701315138
 20
9.1393288444
 30
0.0
 10
11.2876331907
 20
9.1506287916
 30
0.0
 10
11.305908569
 20
9.1607156057
 30
0.0
 10
11.3248822236
 20
9.1695431876
 30
0.0
 10
11.3444749059
 20
9.1770710586
 30
0.0
 10
11.3612360272
 20
9.1822278579
 30
0.0
 10
11.3748661541
 20
9.1856724228
 30
0.0
 10
11.3886599806
 20
9.1886653776
 30
0.0
 10
11.4061355862
 20
9.1915385163
 30
0.0
 10
11.4238023356
 20
9.1932375209
 30
0.0
 10
11.438024821
 20
9.1938926809
 30
0.0
 10
11.4523252255
 20
9.1940774027
 30
0.0
 10
11.4630649824
 20
9.1936839243
 30
0.0
 10
11.4702134478
 20
9.1931881765
 30
0.0
  0
SPLINE
  5
2E1
100
AcDbEntity
  8
0
100
AcDbSpline
 62
7
  6
CONTINUOUS
 70
0
 71
3
 72
39
 73
35
 74
0
 42
0.0000001
 43
0.0000001
 44
0.0000000001
 40
0.0
 40
0.0
 40
0.0
 40
0.0
 40
0.0299424796
 40
0.0599093277
 40
0.0899243268
 40
0.1200100989
 40
0.1501875564
 40
0.1804754082
 40
0.2108897438
 40
0.2414437065
 40
0.2721472214
 40
0.3030068034
 40
0.334025452
 40
0.3652026597
 40
0.3965344836
 40
0.4280136674
 40
0.4596298279
 40
0.4913697183
 40
0.5232175588
 40
0.5551553757
 40
0.587163368
 40
0.6192203146
 40
0.6513040285
 40
0.6833918015
 40
0.7154608406
 40
0.7474887097
 40
0.7794537919
 40
0.8113357643
 40
0.8431159187
 40
0.8747776681
 40
0.9063070433
 40
0.9376914486
 40
0.9689258945
 40
1.0
 40
1.0
 40
1.0
 40
1.0
 10
12.4273471346
 20
9.3855659136
 30
0.0
 10
12.4286411277
 20
9.3868158256
 30
0.0
 10
12.4313308477
 20
9.3892147951
 30
0.0
 10
12.4356402256
 20
9.3924829459
 30
0.0
 10
12.4402023398
 20
9.3954044771
 30
0.0
 10
12.4449917077
 20
9.3979629956
 30
0.0
 10
12.4499820051
 20
9.4001445114
 30
0.0
 10
12.4551456963
 20
9.4019370124
 30
0.0
 10
12.4604543139
 20
9.4033307182
 30
0.0
 10
12.4658786112
 20
9.4043180272
 30
0.0
 10
12.4713887269
 20
9.404893573
 30
0.0
 10
12.4769543418
 20
9.4050542331
 30
0.0
 10
12.4825448421
 20
9.404799205
 30
0.0
 10
12.4881294978
 20
9.4041299819
 30
0.0
 10
12.4936776274
 20
9.4030503074
 30
0.0
 10
12.4991587587
 20
9.4015661594
 30
0.0
 10
12.5045427893
 20
9.3996857235
 30
0.0
 10
12.5098001736
 20
9.3974194004
 30
0.0
 10
12.5149020644
 20
9.3947796797
 30
0.0
 10
12.5198204681
 20
9.3917810814
 30
0.0
 10
12.5245283842
 20
9.3884400685
 30
0.0
 10
12.528999981
 20
9.3847750037
 30
0.0
 10
12.533210736
 20
9.3808060322
 30
0.0
 10
12.5371375431
 20
9.376554942
 30
0.0
 10
12.5407588392
 20
9.3720450559
 30
0.0
 10
12.5440547181
 20
9.3673011097
 30
0.0
 10
12.5470070964
 20
9.3623491515
 30
0.0
 10
12.5495997497
 20
9.3572163543
 30
0.0
 10
12.5518184186
 20
9.3519308844
 30
0.0
 10
12.5536508719
 20
9.3465217191
 30
0.0
 10
12.5550869393
 20
9.3410186259
 30
0.0
 10
12.5561188687
 20
9.3354515964
 30
0.0
 10
12.5567406719
 20
9.3298517501
 30
0.0
 10
12.5568800004
 20
9.3261065306
 30
0.0
 10
12.5568800004
 20
9.3242394547
 30
0.0
  0
SPLINE
  5
2E2
100
AcDbEntity
  8
0
100
AcDbSpline
 62
7
  6
CONTINUOUS
 70
0
 71
3
 72
25
 73
21
 74
0
 42
0.0000001
 43
0.0000001
 44
0.0000000001
 40
0.0
 40
0.0
 40
0.0
 40
0.0
 40
0.0624814452
 40
0.0936533995
 40
0.1247812343
 40
0.1869108774
 40
0.2489165562
 40
0.279891012
 40
0.3108500585
 40
0.3727334696
 40
0.4346258913
 40
0.4965776217
 40
0.5586401823
 40
0.620864836
 40
0.6833008624
 40
0.7459936624
 40
0.8089827593
 40
0.8723002443
 40
0.9359680195
 40
1.0
 40
1.0
 40
1.0
 40
1.0
 10
9.9578133336
 20
9.0989667243
 30
0.0
 10
9.960804777
 20
9.106594412
 30
0.0
 10
9.9656888306
 20
9.1178769651
 30
0.0
 10
9.9729813066
 20
9.1325276999
 30
0.0
 10
9.9807725492
 20
9.1468676461
 30
0.0
 10
9.9914593188
 20
9.1642199031
 30
0.0
 10
10.0033877903
 20
9.1807197057
 30
0.0
 10
10.0136416032
 20
9.1933336611
 30
0.0
 10
10.024357428
 20
9.2055360816
 30
0.0
 10
10.0386185467
 20
9.2200008616
 30
0.0
 10
10.0570416323
 20
9.2359682343
 30
0.0
 10
10.0766978197
 20
9.2504327774
 30
0.0
 10
10.0974966508
 20
9.2632840691
 30
0.0
 10
10.1193351685
 20
9.2744183553
 30
0.0
 10
10.1420967295
 20
9.2837398569
 30
0.0
 10
10.1656515765
 20
9.2911635969
 30
0.0
 10
10.1898573788
 20
9.2966180417
 30
0.0
 10
10.2145615849
 20
9.3000473674
 30
0.0
 10
10.2396003072
 20
9.3014140912
 30
0.0
 10
10.2563615183
 20
9.3009388592
 30
0.0
 10
10.2647380354
 20
9.3003579458
 30
0.0
  0
SPLINE
  5
2E3
100
AcDbEntity
  8
0
100
AcDbSpline
 62
7
  6
CONTINUOUS
 70
0
 71
3
 72
39
 73
35
 74
0
 42
0.0000001
 43
0.0000001
 44
0.0000000001
 40
0.0
 40
0.0
 40
0.0
 40
0.0
 40
0.0299424796
 40
0.0599093277
 40
0.0899243268
 40
0.1200100989
 40
0.1501875564
 40
0.1804754082
 40
0.2108897438
 40
0.2414437065
 40
0.2721472214
 40
0.3030068034
 40
0.334025452
 40
0.3652026597
 40
0.3965344836
 40
0.4280136674
 40
0.4596298279
 40
0.4913697183
 40
0.5232175588
 40
0.5551553757
 40
0.587163368
 40
0.6192203146
 40
0.6513040285
 40
0.6833918015
 40
0.7154608406
 40
0.7474887097
 40
0.7794537919
 40
0.8113357643
 40
0.8431159187
 40
0.8747776681
 40
0.9063070433
 40
0.9376914486
 40
0.9689258945
 40
1.0
 40
1.0
 40
1.0
 40
1.0
 10
10.2105473885
 20
6.8810733764
 30
0.0
 10
10.2118413816
 20
6.8823232884
 30
0.0
 10
10.2145311016
 20
6.8847222579
 30
0.0
 10
10.2188404795
 20
6.8879904087
 30
0.0
 10
10.2234025937
 20
6.8909119399
 30
0.0
 10
10.2281919616
 20
6.8934704584
 30
0.0
 10
10.233182259
 20
6.8956519742
 30
0.0
 10
10.2383459503
 20
6.8974444752
 30
0.0
 10
10.2436545678
 20
6.898838181
 30
0.0
 10
10.2490788651
 20
6.89982549
 30
0.0
 10
10.2545889808
 20
6.9004010358
 30
0.0
 10
10.2601545958
 20
6.9005616959
 30
0.0
 10
10.265745096
 20
6.9003066678
 30
0.0
 10
10.2713297517
 20
6.8996374447
 30
0.0
 10
10.2768778813
 20
6.8985577702
 30
0.0
 10
10.2823590126
 20
6.8970736222
 30
0.0
 10
10.2877430433
 20
6.8951931863
 30
0.0
 10
10.2930004275
 20
6.8929268632
 30
0.0
 10
10.2981023183
 20
6.8902871425
 30
0.0
 10
10.3030207221
 20
6.8872885442
 30
0.0
 10
10.3077286381
 20
6.8839475313
 30
0.0
 10
10.3122002349
 20
6.8802824666
 30
0.0
 10
10.3164109899
 20
6.876313495
 30
0.0
 10
10.320337797
 20
6.8720624048
 30
0.0
 10
10.3239590931
 20
6.8675525187
 30
0.0
 10
10.3272549721
 20
6.8628085725
 30
0.0
 10
10.3302073503
 20
6.8578566144
 30
0.0
 10
10.3328000036
 20
6.8527238171
 30
0.0
 10
10.3350186725
 20
6.8474383472
 30
0.0
 10
10.3368511258
 20
6.8420291819
 30
0.0
 10
10.3382871933
 20
6.8365260887
 30
0.0
 10
10.3393191226
 20
6.8309590592
 30
0.0
 10
10.3399409258
 20
6.8253592129
 30
0.0
 10
10.3400802543
 20
6.8216139934
 30
0.0
 10
10.3400802543
 20
6.8197469175
 30
0.0
  0
SPLINE
  5
2E4
100
AcDbEntity
  8
0
100
AcDbSpline
 62
7
  6
CONTINUOUS
 70
0
 71
3
 72
15
 73
11
 74
0
 42
0.0000001
 43
0.0000001
 44
0.0000000001
 40
0.0
 40
0.0
 40
0.0
 40
0.0
 40
0.1273482789
 40
0.2538606571
 40
0.3795878378
 40
0.5046051156
 40
0.629017439
 40
0.7529533823
 40
0.8765605864
 40
1.0
 40
1.0
 40
1.0
 40
1.0
 10
9.3644950392
 20
6.887403982
 30
0.0
 10
9.3644950392
 20
6.893902307
 30
0.0
 10
9.3651154998
 20
6.9068652862
 30
0.0
 10
9.3679214313
 20
6.9260604322
 30
0.0
 10
9.3725741528
 20
6.9447732859
 30
0.0
 10
9.3790316356
 20
6.9628288372
 30
0.0
 10
9.3872346553
 20
6.9800605789
 30
0.0
 10
9.3971083804
 20
6.9963094134
 30
0.0
 10
9.4085600027
 20
7.0114230879
 30
0.0
 10
9.4171825025
 20
7.0206553956
 30
0.0
 10
9.421712974
 20
7.0250315251
 30
0.0
  0
SPLINE
  5
2E5
100
AcDbEntity
  8
0
100
AcDbSpline
 62
7
  6
CONTINUOUS
 70
0
 71
3
 72
15
 73
11
 74
0
 42
0.0000001
 43
0.0000001
 44
0.0000000001
 40
0.0
 40
0.0
 40
0.0
 40
0.0
 40
0.1273482789
 40
0.2538606571
 40
0.3795878378
 40
0.5046051156
 40
0.629017439
 40
0.7529533823
 40
0.8765605864
 40
1.0
 40
1.0
 40
1.0
 40
1.0
 10
9.3644950392
 20
9.5456321037
 30
0.0
 10
9.3644950392
 20
9.5521304287
 30
0.0
 10
9.3651154998
 20
9.5650934079
 30
0.0
 10
9.3679214313
 20
9.584288554
 30
0.0
 10
9.3725741528
 20
9.6030014077
 30
0.0
 10
9.3790316356
 20
9.621056959
 30
0.0
 10
9.3872346553
 20
9.6382887006
 30
0.0
 10
9.3971083804
 20
9.6545375351
 30
0.0
 10
9.4085600027
 20
9.6696512096
 30
0.0
 10
9.4171825025
 20
9.6788835174
 30
0.0
 10
9.421712974
 20
9.6832596469
 30
0.0
  0
SPLINE
  5
2E6
100
AcDbEntity
  8
0
100
AcDbSpline
 62
7
  6
CONTINUOUS
 70
0
 71
3
 72
15
 73
11
 74
0
 42
0.0000001
 43
0.0000001
 44
0.0000000001
 40
0.0
 40
0.0
 40
0.0
 40
0.0
 40
0.1273482808
 40
0.2538605196
 40
0.3795878971
 40
0.5046050835
 40
0.6290174393
 40
0.7529533827
 40
0.8765605876
 40
1.0
 40
1.0
 40
1.0
 40
1.0
 10
10.729831328
 20
9.5117990349
 30
0.0
 10
10.729831328
 20
9.5161261087
 30
0.0
 10
10.7302444704
 20
9.5247578312
 30
0.0
 10
10.7321128772
 20
9.5375394047
 30
0.0
 10
10.7352110072
 20
9.5499998298
 30
0.0
 10
10.7395108829
 20
9.562022579
 30
0.0
 10
10.7449730336
 20
9.5734967838
 30
0.0
 10
10.7515476865
 20
9.5843164929
 30
0.0
 10
10.7591730387
 20
9.5943803131
 30
0.0
 10
10.7649145303
 20
9.6005278942
 30
0.0
 10
10.7679312563
 20
9.6034418533
 30
0.0
  0
SPLINE
  5
2E7
100
AcDbEntity
  8
0
100
AcDbSpline
 62
7
  6
CONTINUOUS
 70
0
 71
3
 72
15
 73
11
 74
0
 42
0.0000001
 43
0.0000001
 44
0.0000000001
 40
0.0
 40
0.0
 40
0.0
 40
0.0
 40
0.1273482808
 40
0.2538605196
 40
0.3795878971
 40
0.5046050835
 40
0.6290174393
 40
0.7529533827
 40
0.8765605876
 40
1.0
 40
1.0
 40
1.0
 40
1.0
 10
11.3345008611
 20
6.6899303185
 30
0.0
 10
11.3345008611
 20
6.6942573923
 30
0.0
 10
11.3349140035
 20
6.7028891148
 30
0.0
 10
11.3367824102
 20
6.7156706884
 30
0.0
 10
11.3398805403
 20
6.7281311134
 30
0.0
 10
11.344180416
 20
6.7401538627
 30
0.0
 10
11.3496425666
 20
6.7516280674
 30
0.0
 10
11.3562172196
 20
6.7624477765
 30
0.0
 10
11.3638425718
 20
6.7725115967
 30
0.0
 10
11.3695840634
 20
6.7786591778
 30
0.0
 10
11.3726007894
 20
6.7815731369
 30
0.0
  0
SPLINE
  5
2E8
100
AcDbEntity
  8
0
100
AcDbSpline
 62
7
  6
CONTINUOUS
 70
0
 71
3
 72
15
 73
11
 74
0
 42
0.0000001
 43
0.0000001
 44
0.0000000001
 40
0.0
 40
0.0
 40
0.0
 40
0.0
 40
0.1273473901
 40
0.2538608346
 40
0.3795878351
 40
0.5046051039
 40
0.6290174461
 40
0.7529533848
 40
0.8765605883
 40
1.0
 40
1.0
 40
1.0
 40
1.0
 10
12.4061955626
 20
9.3346894559
 30
0.0
 10
12.4061955626
 20
9.337091659
 30
0.0
 10
12.40642493
 20
9.3418836541
 30
0.0
 10
12.4074621694
 20
9.3489794801
 30
0.0
 10
12.4091821447
 20
9.3558970284
 30
0.0
 10
12.4115692599
 20
9.3625715777
 30
0.0
 10
12.4146016374
 20
9.3689415994
 30
0.0
 10
12.4182516286
 20
9.3749482696
 30
0.0
 10
12.4224849217
 20
9.3805353034
 30
0.0
 10
12.4256723677
 20
9.3839481993
 30
0.0
 10
12.4273471346
 20
9.3855659136
 30
0.0
  0
SPLINE
  5
2E9
100
AcDbEntity
  8
0
100
AcDbSpline
 62
7
  6
CONTINUOUS
 70
0
 71
3
 72
15
 73
11
 74
0
 42
0.0000001
 43
0.0000001
 44
0.0000000001
 40
0.0
 40
0.0
 40
0.0
 40
0.0
 40
0.1273473901
 40
0.2538608346
 40
0.3795878351
 40
0.5046051039
 40
0.6290174461
 40
0.7529533848
 40
0.8765605883
 40
1.0
 40
1.0
 40
1.0
 40
1.0
 10
10.1893958165
 20
6.8301969188
 30
0.0
 10
10.1893958165
 20
6.8325991218
 30
0.0
 10
10.189625184
 20
6.8373911169
 30
0.0
 10
10.1906624233
 20
6.844486943
 30
0.0
 10
10.1923823987
 20
6.8514044912
 30
0.0
 10
10.1947695138
 20
6.8580790406
 30
0.0
 10
10.1978018913
 20
6.8644490622
 30
0.0
 10
10.2014518825
 20
6.8704557324
 30
0.0
 10
10.2056851756
 20
6.8760427662
 30
0.0
 10
10.2088726216
 20
6.8794556621
 30
0.0
 10
10.2105473885
 20
6.8810733764
 30
0.0
  0
SPLINE
  5
2EA
100
AcDbEntity
  8
0
100
AcDbSpline
 62
7
  6
CONTINUOUS
 70
0
 71
3
 72
39
 73
35
 74
0
 42
0.0000001
 43
0.0000001
 44
0.0000000001
 40
0.0
 40
0.0
 40
0.0
 40
0.0
 40
0.0309163426
 40
0.0464320277
 40
0.0619831639
 40
0.0931854677
 40
0.1245187226
 40
0.1402331298
 40
0.1559758161
 40
0.1875347952
 40
0.219184833
 40
0.2509097244
 40
0.2826925771
 40
0.3145162208
 40
0.3463635722
 40
0.3782179432
 40
0.4100632931
 40
0.4418844251
 40
0.4736671352
 40
0.505398315
 40
0.5686359202
 40
0.6315404277
 40
0.6628590035
 40
0.6940725822
 40
0.7251764926
 40
0.7561672603
 40
0.7870426008
 40
0.817801419
 40
0.8484438203
 40
0.8789711283
 40
0.9093859094
 40
0.9396920013
 40
0.9698945427
 40
1.0
 40
1.0
 40
1.0
 40
1.0
 10
10.2647380634
 20
8.5784095429
 30
0.0
 10
10.2575753584
 20
8.5789062782
 30
0.0
 10
10.2468392995
 20
8.5800291475
 30
0.0
 10
10.2326172225
 20
8.5822649158
 30
0.0
 10
10.2184143126
 20
8.5849995928
 30
0.0
 10
10.2007912143
 20
8.5893382858
 30
0.0
 10
10.183463605
 20
8.5948621377
 30
0.0
 10
10.1698046751
 20
8.5999750149
 30
0.0
 10
10.1562723198
 20
8.6055530622
 30
0.0
 10
10.1396693879
 20
8.6133659826
 30
0.0
 10
10.1203488781
 20
8.6240163135
 30
0.0
 10
10.1016914877
 20
8.6358868496
 30
0.0
 10
10.0837699555
 20
8.6489093263
 30
0.0
 10
10.0666493485
 20
8.6630122777
 30
0.0
 10
10.0503880223
 20
8.678121727
 30
0.0
 10
10.0350376149
 20
8.6941622
 30
0.0
 10
10.020643415
 20
8.7110575812
 30
0.0
 10
10.0072449154
 20
8.7287314762
 30
0.0
 10
9.994875753
 20
8.7471088661
 30
0.0
 10
9.9798150675
 20
8.7724153251
 30
0.0
 10
9.9636881908
 20
8.8054287645
 30
0.0
 10
9.9512630816
 20
8.8399016041
 30
0.0
 10
9.9436266582
 20
8.8680260242
 30
0.0
 10
9.9390619809
 20
8.8892984573
 30
0.0
 10
9.935660014
 20
8.9107098354
 30
0.0
 10
9.933425455
 20
8.9321955411
 30
0.0
 10
9.9323615612
 20
8.9536907082
 30
0.0
 10
9.9324698459
 20
8.9751311293
 30
0.0
 10
9.933750232
 20
8.9964527251
 30
0.0
 10
9.9362010303
 20
9.0175914303
 30
0.0
 10
9.9398188461
 20
9.038482852
 30
0.0
 10
9.9445986244
 20
9.0590624652
 30
0.0
 10
9.9505328932
 20
9.0792639728
 30
0.0
 10
9.9552606478
 20
9.0924577961
 30
0.0
 10
9.9578133336
 20
9.0989667243
 30
0.0
  0
SPLINE
  5
2EB
100
AcDbEntity
  8
0
100
AcDbSpline
 62
7
  6
CONTINUOUS
 70
0
 71
3
 72
42
 73
38
 74
0
 42
0.0000001
 43
0.0000001
 44
0.0000000001
 40
0.0
 40
0.0
 40
0.0
 40
0.0
 40
0.0310020087
 40
0.0465587429
 40
0.0621498277
 40
0.0934296799
 40
0.1248381309
 40
0.1563652522
 40
0.1879990785
 40
0.2197258872
 40
0.2515304735
 40
0.2833964508
 40
0.3153065555
 40
0.3472429561
 40
0.3791875571
 40
0.4111222953
 40
0.4430294246
 40
0.4748917855
 40
0.5066930576
 40
0.5384179949
 40
0.5700526406
 40
0.6015845236
 40
0.6330028336
 40
0.6642985766
 40
0.6954647087
 40
0.7264962482
 40
0.757390365
 40
0.7881464445
 40
0.8187661267
 40
0.849253315
 40
0.8644511719
 40
0.8796183999
 40
0.9098612253
 40
0.939996465
 40
0.9550297482
 40
0.9700409467
 40
1.0
 40
1.0
 40
1.0
 40
1.0
 10
11.470213437
 20
8.518379306
 30
0.0
 10
11.4628228592
 20
8.5188918443
 30
0.0
 10
11.4517450798
 20
8.5200364738
 30
0.0
 10
11.4370649487
 20
8.5222987342
 30
0.0
 10
11.4224020867
 20
8.5250587957
 30
0.0
 10
11.4041988858
 20
8.5294291164
 30
0.0
 10
11.3826824228
 20
8.5361090183
 30
0.0
 10
11.3615643077
 20
8.544198132
 30
0.0
 10
11.34093991
 20
8.5536571922
 30
0.0
 10
11.3209009179
 20
8.5644406934
 30
0.0
 10
11.3015358153
 20
8.5764970978
 30
0.0
 10
11.2829292067
 20
8.5897692829
 30
0.0
 10
11.2651615189
 20
8.6041949593
 30
0.0
 10
11.2483086691
 20
8.6197071162
 30
0.0
 10
11.2324418085
 20
8.6362344704
 30
0.0
 10
11.2176271112
 20
8.6537019136
 30
0.0
 10
11.2039256094
 20
8.6720309511
 30
0.0
 10
11.1913930724
 20
8.6911401262
 30
0.0
 10
11.1800799201
 20
8.7109454255
 30
0.0
 10
11.1700311687
 20
8.7313606639
 30
0.0
 10
11.1612864004
 20
8.7522978449
 30
0.0
 10
11.1538797524
 20
8.7736674984
 30
0.0
 10
11.1478399183
 20
8.7953789951
 30
0.0
 10
11.143190159
 20
8.8173408414
 30
0.0
 10
11.1399483143
 20
8.8394609493
 30
0.0
 10
11.1381268212
 20
8.8616469149
 30
0.0
 10
11.1377327047
 20
8.883806197
 30
0.0
 10
11.1387676508
 20
8.9058466194
 30
0.0
 10
11.141227747
 20
8.9276756409
 30
0.0
 10
11.1444617704
 20
8.9456353124
 30
0.0
 10
11.1477509828
 20
8.9598022609
 30
0.0
 10
11.1514968562
 20
8.9737949474
 30
0.0
 10
11.1570412542
 20
8.9909902526
 30
0.0
 10
11.1637267506
 20
9.007740671
 30
0.0
 10
11.1697371255
 20
9.0208080054
 30
0.0
 10
11.1761734884
 20
9.0336230765
 30
0.0
 10
11.1814920754
 20
9.0429738535
 30
0.0
 10
11.1852458992
 20
9.0490698798
 30
0.0
  0
SPLINE
  5
2EC
100
AcDbEntity
  8
0
100
AcDbSpline
 62
7
  6
CONTINUOUS
 70
0
 71
3
 72
39
 73
35
 74
0
 42
0.0000001
 43
0.0000001
 44
0.0000000001
 40
0.0
 40
0.0
 40
0.0
 40
0.0
 40
0.0309163434
 40
0.0464320288
 40
0.0619831651
 40
0.0931854694
 40
0.1245187246
 40
0.1402331321
 40
0.1559758185
 40
0.1875347978
 40
0.2191848359
 40
0.2509097275
 40
0.2826925802
 40
0.314516224
 40
0.3463635753
 40
0.3782179462
 40
0.410063296
 40
0.4418844279
 40
0.4736671378
 40
0.5053983175
 40
0.5686359223
 40
0.6315404294
 40
0.662859005
 40
0.6940725835
 40
0.7251764937
 40
0.7561672612
 40
0.7870426015
 40
0.8178014196
 40
0.8484438208
 40
0.8789711287
 40
0.9093859096
 40
0.9396920015
 40
0.9698945428
 40
1.0
 40
1.0
 40
1.0
 40
1.0
 10
10.865543858
 20
6.9661481577
 30
0.0
 10
10.8583811537
 20
6.9666448929
 30
0.0
 10
10.8476450966
 20
6.9677677706
 30
0.0
 10
10.8334230216
 20
6.9700035423
 30
0.0
 10
10.8192201137
 20
6.9727382214
 30
0.0
 10
10.8015970186
 20
6.977076919
 30
0.0
 10
10.7842694125
 20
6.9826007741
 30
0.0
 10
10.7706104852
 20
6.9877136538
 30
0.0
 10
10.7570781327
 20
6.9932917035
 30
0.0
 10
10.7404752043
 20
7.0011046265
 30
0.0
 10
10.7211546989
 20
7.0117549601
 30
0.0
 10
10.7024973129
 20
7.0236254983
 30
0.0
 10
10.684575785
 20
7.0366479766
 30
0.0
 10
10.6674551825
 20
7.0507509291
 30
0.0
 10
10.6511938607
 20
7.0658603791
 30
0.0
 10
10.6358434575
 20
7.0819008524
 30
0.0
 10
10.6214492617
 20
7.0987962336
 30
0.0
 10
10.6080507661
 20
7.116470128
 30
0.0
 10
10.5956816075
 20
7.1348475171
 30
0.0
 10
10.5806209267
 20
7.1601539746
 30
0.0
 10
10.5644940554
 20
7.1931674113
 30
0.0
 10
10.5520689509
 20
7.2276402477
 30
0.0
 10
10.5444325305
 20
7.2557646647
 30
0.0
 10
10.5398678553
 20
7.2770370954
 30
0.0
 10
10.5364658902
 20
7.298448471
 30
0.0
 10
10.5342313327
 20
7.3199341741
 30
0.0
 10
10.5331674401
 20
7.3414293385
 30
0.0
 10
10.5332757257
 20
7.3628697569
 30
0.0
 10
10.5345561125
 20
7.38419135
 30
0.0
 10
10.5370069111
 20
7.4053300524
 30
0.0
 10
10.540624727
 20
7.4262214714
 30
0.0
 10
10.545404505
 20
7.446801082
 30
0.0
 10
10.5513387733
 20
7.467002587
 30
0.0
 10
10.5560665274
 20
7.4801964087
 30
0.0
 10
10.5586192129
 20
7.486705336
 30
0.0
  0
SPLINE
  5
2ED
100
AcDbEntity
  8
0
100
AcDbSpline
 62
7
  6
CONTINUOUS
 70
0
 71
3
 72
11
 73
7
 74
0
 42
0.0000001
 43
0.0000001
 44
0.0000000001
 40
0.0
 40
0.0
 40
0.0
 40
0.0
 40
0.2496595996
 40
0.4996085788
 40
0.7497616057
 40
1.0
 40
1.0
 40
1.0
 40
1.0
 10
12.4024626475
 20
7.2760316935
 30
0.0
 10
12.3986115346
 20
7.2838098293
 30
0.0
 10
12.3914953474
 20
7.299675517
 30
0.0
 10
12.3826646303
 20
7.3242252646
 30
0.0
 10
12.3757344502
 20
7.3493987786
 30
0.0
 10
12.3724240494
 20
7.3664980929
 30
0.0
 10
12.3711087865
 20
7.3750975253
 30
0.0
  0
SPLINE
  5
2EE
100
AcDbEntity
  8
0
100
AcDbSpline
 62
7
  6
CONTINUOUS
 70
0
 71
3
 72
47
 73
43
 74
0
 42
0.0000001
 43
0.0000001
 44
0.0000000001
 40
0.0
 40
0.0
 40
0.0
 40
0.0
 40
0.031348591
 40
0.0628834052
 40
0.094593858
 40
0.1264629745
 40
0.1584694218
 40
0.1905879282
 40
0.2227901903
 40
0.2550458185
 40
0.2873232675
 40
0.3195907505
 40
0.3518171321
 40
0.3839727489
 40
0.4160301506
 40
0.4479647864
 40
0.479755614
 40
0.511385603
 40
0.5428421706
 40
0.5741175379
 40
0.6052089768
 40
0.6361189578
 40
0.6668551924
 40
0.6974305444
 40
0.7278628003
 40
0.7581742942
 40
0.7732968166
 40
0.7883993328
 40
0.8034856416
 40
0.8185597044
 40
0.8336255966
 40
0.8486874882
 40
0.8637496164
 40
0.8788162279
 40
0.893891564
 40
0.9089798232
 40
0.9240851029
 40
0.9392113882
 40
0.9543625094
 40
0.9695420891
 40
0.9847535356
 40
1.0
 40
1.0
 40
1.0
 40
1.0
 10
12.0748829808
 20
6.9058499721
 30
0.0
 10
12.0651303707
 20
6.9065263179
 30
0.0
 10
12.045616985
 20
6.9087552568
 30
0.0
 10
12.0166794211
 20
6.9146629268
 30
0.0
 10
11.9882032775
 20
6.9230953501
 30
0.0
 10
11.9604152249
 20
6.9339810755
 30
0.0
 10
11.9335308871
 20
6.9472283266
 30
0.0
 10
11.9077575656
 20
6.962726506
 30
0.0
 10
11.8832912786
 20
6.9803477499
 30
0.0
 10
11.860315492
 20
6.9999484131
 30
0.0
 10
11.838999866
 20
7.0213709637
 30
0.0
 10
11.8194993977
 20
7.0444457989
 30
0.0
 10
11.8019536022
 20
7.0689928785
 30
0.0
 10
11.7864860407
 20
7.0948234376
 30
0.0
 10
11.7732041246
 20
7.1217416227
 30
0.0
 10
11.7621989162
 20
7.1495459032
 30
0.0
 10
11.7535449753
 20
7.1780303773
 30
0.0
 10
11.7473005065
 20
7.2069860528
 30
0.0
 10
11.7435074114
 20
7.2362019367
 30
0.0
 10
11.7421912144
 20
7.2654660488
 30
0.0
 10
11.7433611246
 20
7.2945664082
 30
0.0
 10
11.7470101239
 20
7.3232920173
 30
0.0
 10
11.753114775
 20
7.3514336438
 30
0.0
 10
11.7616354036
 20
7.3787854219
 30
0.0
 10
11.7725146889
 20
7.4051437705
 30
0.0
 10
11.7834976787
 20
7.4261391313
 30
0.0
 10
11.7933775338
 20
7.442232088
 30
0.0
 10
11.8013182862
 20
7.4539264302
 30
0.0
 10
11.8097805244
 20
7.4652299445
 30
0.0
 10
11.8187496168
 20
7.4761209956
 30
0.0
 10
11.8282096102
 20
7.4865782183
 30
0.0
 10
11.8381435857
 20
7.4965810689
 30
0.0
 10
11.8485337281
 20
7.5061095896
 30
0.0
 10
11.8593611254
 20
7.5151447367
 30
0.0
 10
11.8706059375
 20
7.5236682844
 30
0.0
 10
11.8822474683
 20
7.5316627877
 30
0.0
 10
11.8942640015
 20
7.5391118978
 30
0.0
 10
11.9066330081
 20
7.5460002077
 30
0.0
 10
11.9193311335
 20
7.5523132527
 30
0.0
 10
11.93233427
 20
7.5580378729
 30
0.0
 10
11.9456171272
 20
7.56316183
 30
0.0
 10
11.9546318244
 20
7.5661666372
 30
0.0
 10
11.9591759618
 20
7.5675655731
 30
0.0
  0
SPLINE
  5
2EF
100
AcDbEntity
  8
0
100
AcDbSpline
 62
7
  6
CONTINUOUS
 70
0
 71
3
 72
32
 73
28
 74
0
 42
0.0000001
 43
0.0000001
 44
0.0000000001
 40
0.0
 40
0.0
 40
0.0
 40
0.0
 40
0.0309641638
 40
0.0620715326
 40
0.0933126536
 40
0.1246825007
 40
0.1561701133
 40
0.1877636954
 40
0.219449629
 40
0.2512128962
 40
0.2830374756
 40
0.3149065965
 40
0.3786810656
 40
0.4424293866
 40
0.5060215598
 40
0.5693411584
 40
0.6322904861
 40
0.6947944694
 40
0.7568034949
 40
0.7876285685
 40
0.8183239934
 40
0.8488915219
 40
0.8793347416
 40
0.9096590843
 40
0.9398717808
 40
0.9699818387
 40
1.0
 40
1.0
 40
1.0
 40
1.0
 10
12.4815377752
 20
8.5997947999
 30
0.0
 10
12.4789103588
 20
8.5999770118
 30
0.0
 10
12.4736540145
 20
8.6005197112
 30
0.0
 10
12.4658252154
 20
8.6018583283
 30
0.0
 10
12.4580675595
 20
8.6037169369
 30
0.0
 10
12.4504164914
 20
8.6060856191
 30
0.0
 10
12.4429057433
 20
8.6089523502
 30
0.0
 10
12.435568291
 20
8.6123023389
 30
0.0
 10
12.4284356573
 20
8.6161185818
 30
0.0
 10
12.4215380024
 20
8.6203819134
 30
0.0
 10
12.4149035301
 20
8.6250716504
 30
0.0
 10
12.4064444511
 20
8.6318624507
 30
0.0
 10
12.3966604504
 20
8.6412990187
 30
0.0
 10
12.3863642467
 20
8.6539263217
 30
0.0
 10
12.3776486695
 20
8.6676470447
 30
0.0
 10
12.3706321444
 20
8.6822332908
 30
0.0
 10
12.365404318
 20
8.6974544537
 30
0.0
 10
12.3620299285
 20
8.7130756533
 30
0.0
 10
12.3607940165
 20
8.7262652966
 30
0.0
 10
12.3607676346
 20
8.7367777073
 30
0.0
 10
12.3612257938
 20
8.7446021843
 30
0.0
 10
12.3621607462
 20
8.7523511812
 30
0.0
 10
12.3635697681
 20
8.7599962137
 30
0.0
 10
12.3654487931
 20
8.7675084367
 30
0.0
 10
12.3677922791
 20
8.7748594317
 30
0.0
 10
12.3705929519
 20
8.7820204611
 30
0.0
 10
12.3727626538
 20
8.7866565043
 30
0.0
 10
12.3739202819
 20
8.7889322564
 30
0.0
  0
SPLINE
  5
2F0
100
AcDbEntity
  8
0
100
AcDbSpline
 62
7
  6
CONTINUOUS
 70
0
 71
3
 72
41
 73
37
 74
0
 42
0.0000001
 43
0.0000001
 44
0.0000000001
 40
0.0
 40
0.0
 40
0.0
 40
0.0
 40
0.0314064652
 40
0.0630250836
 40
0.0948402597
 40
0.1268267227
 40
0.1589536137
 40
0.1750630717
 40
0.1911939098
 40
0.2234913202
 40
0.255814595
 40
0.2719775976
 40
0.2881321916
 40
0.3203895516
 40
0.3525595505
 40
0.3846105829
 40
0.416515539
 40
0.4482524074
 40
0.479804746
 40
0.5111620432
 40
0.5423199925
 40
0.5732806823
 40
0.6040526922
 40
0.6346510738
 40
0.665097184
 40
0.6954183286
 40
0.7256471691
 40
0.755820848
 40
0.785979815
 40
0.8161663527
 40
0.8464228321
 40
0.8767897702
 40
0.9073038291
 40
0.937995909
 40
0.9688889709
 40
1.0
 40
1.0
 40
1.0
 40
1.0
 10
12.919102273
 20
6.9988540674
 30
0.0
 10
12.915111629
 20
6.9991308195
 30
0.0
 10
12.9071260829
 20
7.0000963658
 30
0.0
 10
12.8953208401
 20
7.0027448594
 30
0.0
 10
12.8837630395
 20
7.0065671657
 30
0.0
 10
12.872572237
 20
7.0115174226
 30
0.0
 10
12.8636499581
 20
7.016531295
 30
0.0
 10
12.8568010722
 20
7.0210422291
 30
0.0
 10
12.8501522863
 20
7.025880373
 30
0.0
 10
12.842264416
 20
7.0325051454
 30
0.0
 10
12.8350123433
 20
7.0398255795
 30
0.0
 10
12.8296264734
 20
7.0460561222
 30
0.0
 10
12.8245320833
 20
7.0525164127
 30
0.0
 10
12.8187249408
 20
7.0609974097
 30
0.0
 10
12.8127071549
 20
7.0717297504
 30
0.0
 10
12.8076869317
 20
7.082914627
 30
0.0
 10
12.8037013315
 20
7.0944500648
 30
0.0
 10
12.8007785255
 20
7.1062341598
 30
0.0
 10
12.7989388552
 20
7.1181647114
 30
0.0
 10
12.7981950032
 20
7.1301396923
 30
0.0
 10
12.7985522571
 20
7.1420573575
 30
0.0
 10
12.8000085793
 20
7.1538163749
 30
0.0
 10
12.8025545475
 20
7.1653159385
 30
0.0
 10
12.8061731478
 20
7.1764559369
 30
0.0
 10
12.8108394387
 20
7.1871372213
 30
0.0
 10
12.8165201092
 20
7.1972620223
 30
0.0
 10
12.8231729733
 20
7.206734556
 30
0.0
 10
12.8307464422
 20
7.2154618648
 30
0.0
 10
12.839179069
 20
7.2233549007
 30
0.0
 10
12.8483992455
 20
7.2303298453
 30
0.0
 10
12.8583251108
 20
7.2363096442
 30
0.0
 10
12.8688648402
 20
7.2412256827
 30
0.0
 10
12.8799170937
 20
7.2450195301
 30
0.0
 10
12.8913726916
 20
7.2476445133
 30
0.0
 10
12.903113828
 20
7.2490675847
 30
0.0
 10
12.9110266308
 20
7.2492016108
 30
0.0
 10
12.9149869368
 20
7.2490668157
 30
0.0
  0
SPLINE
  5
2F1
100
AcDbEntity
  8
0
100
AcDbSpline
 62
7
  6
CONTINUOUS
 70
0
 71
3
 72
23
 73
19
 74
0
 42
0.0000001
 43
0.0000001
 44
0.0000000001
 40
0.0
 40
0.0
 40
0.0
 40
0.0
 40
0.0616190503
 40
0.1235660476
 40
0.1858105984
 40
0.248316272
 40
0.3110396295
 40
0.37393133
 40
0.4369377393
 40
0.5000022047
 40
0.5630665794
 40
0.6260727068
 40
0.6889639344
 40
0.7516866007
 40
0.814191456
 40
0.876434995
 40
0.9383806769
 40
1.0
 40
1.0
 40
1.0
 40
1.0
 10
12.4883208492
 20
9.4039292873
 30
0.0
 10
12.4885885557
 20
9.4017975166
 30
0.0
 10
12.4893040355
 20
9.3975429759
 30
0.0
 10
12.4909014503
 20
9.3912571199
 30
0.0
 10
12.4930148545
 20
9.3850923927
 30
0.0
 10
12.495628956
 20
9.3790934279
 30
0.0
 10
12.4987250354
 20
9.3733028595
 30
0.0
 10
12.5022809397
 20
9.3677620404
 30
0.0
 10
12.5062712486
 20
9.362510484
 30
0.0
 10
12.5106674669
 20
9.3575856619
 30
0.0
 10
12.5154382142
 20
9.3530227186
 30
0.0
 10
12.5205494533
 20
9.3488542341
 30
0.0
 10
12.5259647117
 20
9.3451099788
 30
0.0
 10
12.5316453663
 20
9.3418167055
 30
0.0
 10
12.5375508498
 20
9.3389979783
 30
0.0
 10
12.5436391867
 20
9.3366739603
 30
0.0
 10
12.5498663484
 20
9.3348614361
 30
0.0
 10
12.5540937519
 20
9.3340001627
 30
0.0
 10
12.5562150757
 20
9.3336593703
 30
0.0
  0
SPLINE
  5
2F2
100
AcDbEntity
  8
0
100
AcDbSpline
 62
7
  6
CONTINUOUS
 70
0
 71
3
 72
23
 73
19
 74
0
 42
0.0000001
 43
0.0000001
 44
0.0000000001
 40
0.0
 40
0.0
 40
0.0
 40
0.0
 40
0.0616190503
 40
0.1235660476
 40
0.1858105984
 40
0.248316272
 40
0.3110396295
 40
0.37393133
 40
0.4369377393
 40
0.5000022047
 40
0.5630665794
 40
0.6260727068
 40
0.6889639344
 40
0.7516866007
 40
0.814191456
 40
0.876434995
 40
0.9383806769
 40
1.0
 40
1.0
 40
1.0
 40
1.0
 10
10.2715211031
 20
6.8994367501
 30
0.0
 10
10.2717888096
 20
6.8973049794
 30
0.0
 10
10.2725042894
 20
6.8930504388
 30
0.0
 10
10.2741017042
 20
6.8867645827
 30
0.0
 10
10.2762151084
 20
6.8805998555
 30
0.0
 10
10.2788292099
 20
6.8746008907
 30
0.0
 10
10.2819252893
 20
6.8688103223
 30
0.0
 10
10.2854811936
 20
6.8632695032
 30
0.0
 10
10.2894715025
 20
6.8580179469
 30
0.0
 10
10.2938677208
 20
6.8530931247
 30
0.0
 10
10.2986384681
 20
6.8485301814
 30
0.0
 10
10.3037497072
 20
6.844361697
 30
0.0
 10
10.3091649656
 20
6.8406174416
 30
0.0
 10
10.3148456202
 20
6.8373241683
 30
0.0
 10
10.3207511037
 20
6.8345054412
 30
0.0
 10
10.3268394406
 20
6.8321814231
 30
0.0
 10
10.3330666023
 20
6.8303688989
 30
0.0
 10
10.3372940058
 20
6.8295076255
 30
0.0
 10
10.3394153296
 20
6.8291668331
 30
0.0
  0
SPLINE
  5
2F3
100
AcDbEntity
  8
0
100
AcDbSpline
 62
7
  6
CONTINUOUS
 70
0
 71
3
 72
15
 73
11
 74
0
 42
0.0000001
 43
0.0000001
 44
0.0000000001
 40
0.0
 40
0.0
 40
0.0
 40
0.0
 40
0.1273482789
 40
0.2538606571
 40
0.3795878378
 40
0.5046051156
 40
0.629017439
 40
0.7529533823
 40
0.8765605864
 40
1.0
 40
1.0
 40
1.0
 40
1.0
 10
13.2281986884
 20
6.6194552238
 30
0.0
 10
13.2281986884
 20
6.6259535489
 30
0.0
 10
13.2288191491
 20
6.638916528
 30
0.0
 10
13.2316250805
 20
6.6581116741
 30
0.0
 10
13.2362778021
 20
6.6768245278
 30
0.0
 10
13.2427352849
 20
6.6948800791
 30
0.0
 10
13.2509383045
 20
6.7121118207
 30
0.0
 10
13.2608120297
 20
6.7283606552
 30
0.0
 10
13.272263652
 20
6.7434743297
 30
0.0
 10
13.2808861517
 20
6.7527066375
 30
0.0
 10
13.2854166233
 20
6.757082767
 30
0.0
  0
SPLINE
  5
2F4
100
AcDbEntity
  8
0
100
AcDbSpline
 62
7
  6
CONTINUOUS
 70
0
 71
3
 72
27
 73
23
 74
0
 42
0.0000001
 43
0.0000001
 44
0.0000000001
 40
0.0
 40
0.0
 40
0.0
 40
0.0
 40
0.0235896231
 40
0.0479882348
 40
0.0731726028
 40
0.0991179021
 40
0.1257976712
 40
0.1531841018
 40
0.1812480577
 40
0.2099591279
 40
0.2691945802
 40
0.3306273029
 40
0.3939784764
 40
0.4589570133
 40
0.5252616403
 40
0.5925829213
 40
0.6606052612
 40
0.7290088479
 40
0.7974715709
 40
0.8656711034
 40
0.9332859892
 40
1.0
 40
1.0
 40
1.0
 40
1.0
 10
14.2098481771
 20
7.9876583465
 30
0.0
 10
14.2117480412
 20
7.9928004809
 30
0.0
 10
14.2155102008
 20
8.0032992988
 30
0.0
 10
14.220957304
 20
8.019408322
 30
0.0
 10
14.2262983587
 20
8.0361284297
 30
0.0
 10
14.2315265576
 20
8.0534386026
 30
0.0
 10
14.2366353685
 20
8.0713171588
 30
0.0
 10
14.2416183218
 20
8.0897416698
 30
0.0
 10
14.2464691656
 20
8.108689047
 30
0.0
 10
14.2528186397
 20
8.1348904277
 30
0.0
 10
14.2603644713
 20
8.1687775955
 30
0.0
 10
14.2687091023
 20
8.2107222926
 30
0.0
 10
14.2763925208
 20
8.2541489951
 30
0.0
 10
14.283375892
 20
8.298839733
 30
0.0
 10
14.2896238993
 20
8.3445703822
 30
0.0
 10
14.2951050065
 20
8.3911114481
 30
0.0
 10
14.2997915665
 20
8.4382293442
 30
0.0
 10
14.3036599649
 20
8.485687557
 30
0.0
 10
14.3066907478
 20
8.5332478557
 30
0.0
 10
14.3088687057
 20
8.5806714337
 30
0.0
 10
14.3101830103
 20
8.6277201545
 30
0.0
 10
14.3104815654
 20
8.6589369429
 30
0.0
 10
14.3104815654
 20
8.6744402994
 30
0.0
  0
SPLINE
  5
2F5
100
AcDbEntity
  8
0
100
AcDbSpline
 62
7
  6
CONTINUOUS
 70
0
 71
3
 72
31
 73
27
 74
0
 42
0.0000001
 43
0.0000001
 44
0.0000000001
 40
0.0
 40
0.0
 40
0.0
 40
0.0
 40
0.0204092422
 40
0.0418846722
 40
0.0644078249
 40
0.0879562147
 40
0.1125037546
 40
0.1380212042
 40
0.1644764851
 40
0.1918348888
 40
0.2200593151
 40
0.2491105193
 40
0.2789472732
 40
0.3095264774
 40
0.3408033572
 40
0.372731617
 40
0.4052635422
 40
0.4383501099
 40
0.5059843793
 40
0.5752224321
 40
0.6456380421
 40
0.7167955708
 40
0.7882535098
 40
0.8595679649
 40
0.9302958768
 40
1.0
 40
1.0
 40
1.0
 40
1.0
 10
14.2304192963
 20
7.8799563619
 30
0.0
 10
14.2329240042
 20
7.8849421253
 30
0.0
 10
14.2378920924
 20
7.8952612768
 30
0.0
 10
14.2450593592
 20
7.9113469562
 30
0.0
 10
14.2521216021
 20
7.9284116066
 30
0.0
 10
14.2590669958
 20
7.9464269946
 30
0.0
 10
14.2658840539
 20
7.9653635579
 30
0.0
 10
14.272561436
 20
7.9851900815
 30
0.0
 10
14.2790880245
 20
8.005873878
 30
0.0
 10
14.2854529641
 20
8.0273807924
 30
0.0
 10
14.2916456796
 20
8.0496752778
 30
0.0
 10
14.2976558669
 20
8.0727204753
 30
0.0
 10
14.3034735148
 20
8.0964782714
 30
0.0
 10
14.3090889617
 20
8.120909347
 30
0.0
 10
14.3144928798
 20
8.1459732612
 30
0.0
 10
14.3196762683
 20
8.1716285155
 30
0.0
 10
14.3246305433
 20
8.1978326631
 30
0.0
 10
14.3309658843
 20
8.2337074069
 30
0.0
 10
14.3382392423
 20
8.2796030319
 30
0.0
 10
14.3458714369
 20
8.3357601555
 30
0.0
 10
14.3524192497
 20
8.3930235735
 30
0.0
 10
14.3578391257
 20
8.4510141149
 30
0.0
 10
14.3620950273
 20
8.5093480078
 30
0.0
 10
14.3651587854
 20
8.5676391345
 30
0.0
 10
14.3670102005
 20
8.6255014533
 30
0.0
 10
14.3674321947
 20
8.6638944234
 30
0.0
 10
14.3674321947
 20
8.6829503863
 30
0.0
  0
SPLINE
  5
2F6
100
AcDbEntity
  8
0
100
AcDbSpline
 62
7
  6
CONTINUOUS
 70
0
 71
3
 72
52
 73
48
 74
0
 42
0.0000001
 43
0.0000001
 44
0.0000000001
 40
0.0
 40
0.0
 40
0.0
 40
0.0
 40
0.0053769263
 40
0.0108199586
 40
0.0163926443
 40
0.022153823
 40
0.0281562146
 40
0.0344457226
 40
0.0410613986
 40
0.0480358202
 40
0.0553957002
 40
0.0631626125
 40
0.0713536499
 40
0.0799821175
 40
0.0890580168
 40
0.0985886122
 40
0.1085787199
 40
0.1190311632
 40
0.129946904
 40
0.141325423
 40
0.1531647374
 40
0.1654617345
 40
0.1782121113
 40
0.1914106792
 40
0.2050512521
 40
0.2191269314
 40
0.2336299624
 40
0.2485520028
 40
0.2796155241
 40
0.312239082
 40
0.3463350056
 40
0.3818082224
 40
0.4185571014
 40
0.4564741964
 40
0.4954469179
 40
0.5353581571
 40
0.5760868764
 40
0.6175086767
 40
0.6594963486
 40
0.7019204135
 40
0.7446496571
 40
0.7875516566
 40
0.8304933151
 40
0.8733413582
 40
0.9159629422
 40
0.9582259596
 40
1.0
 40
1.0
 40
1.0
 40
1.0
 10
14.2877686842
 20
7.7738225008
 30
0.0
 10
14.289493465
 20
7.7737028964
 30
0.0
 10
14.2929814195
 20
7.7736630689
 30
0.0
 10
14.2982350357
 20
7.7742053324
 30
0.0
 10
14.303517978
 20
7.7753474639
 30
0.0
 10
14.308823855
 20
7.7770866553
 30
0.0
 10
14.3141482679
 20
7.7794195833
 30
0.0
 10
14.3194871349
 20
7.7823427327
 30
0.0
 10
14.3248367971
 20
7.7858525764
 30
0.0
 10
14.3301936639
 20
7.7899455419
 30
0.0
 10
14.3355541268
 20
7.7946178949
 30
0.0
 10
14.3409144178
 20
7.799865695
 30
0.0
 10
14.3462706927
 20
7.8056846209
 30
0.0
 10
14.3516189078
 20
7.8120700151
 30
0.0
 10
14.3569550099
 20
7.8190167243
 30
0.0
 10
14.3622747625
 20
7.8265192046
 30
0.0
 10
14.3675739963
 20
7.8345713805
 30
0.0
 10
14.3728483771
 20
7.8431667732
 30
0.0
 10
14.3780936964
 20
7.852298375
 30
0.0
 10
14.3833055921
 20
7.8619587778
 30
0.0
 10
14.388479868
 20
7.8721400633
 30
0.0
 10
14.3936121818
 20
7.8828339202
 30
0.0
 10
14.3986983832
 20
7.8940315519
 30
0.0
 10
14.4037341827
 20
7.9057237777
 30
0.0
 10
14.4087155015
 20
7.9179009589
 30
0.0
 10
14.4136381196
 20
7.930553079
 30
0.0
 10
14.4184980808
 20
7.9436697062
 30
0.0
 10
14.4249758225
 20
7.9620097714
 30
0.0
 10
14.4328695781
 20
7.9860256391
 30
0.0
 10
14.4419074426
 20
8.0161435188
 30
0.0
 10
14.4506029301
 20
8.047834621
 30
0.0
 10
14.458927072
 20
8.0809942814
 30
0.0
 10
14.4668521225
 20
8.1155131783
 30
0.0
 10
14.4743516872
 20
8.1512773233
 30
0.0
 10
14.4814008004
 20
8.1881685716
 30
0.0
 10
14.4879760092
 20
8.2260649958
 30
0.0
 10
14.4940554492
 20
8.2648413093
 30
0.0
 10
14.4996189153
 20
8.3043692862
 30
0.0
 10
14.5046479271
 20
8.3445181934
 30
0.0
 10
14.5091257892
 20
8.3851552276
 30
0.0
 10
14.5130376449
 20
8.4261459587
 30
0.0
 10
14.5163705263
 20
8.4673547795
 30
0.0
 10
14.5191133934
 20
8.5086453544
 30
0.0
 10
14.5212571781
 20
8.5498810783
 30
0.0
 10
14.5227947997
 20
8.5909255362
 30
0.0
 10
14.5237212124
 20
8.6316428432
 30
0.0
 10
14.5239307702
 20
8.6586649466
 30
0.0
 10
14.5239307702
 20
8.6720971732
 30
0.0
  0
SPLINE
  5
2F7
100
AcDbEntity
  8
0
100
AcDbSpline
 62
7
  6
CONTINUOUS
 70
0
 71
3
 72
55
 73
51
 74
0
 42
0.0000001
 43
0.0000001
 44
0.0000000001
 40
0.0
 40
0.0
 40
0.0
 40
0.0
 40
0.0063500056
 40
0.0124194692
 40
0.0182724982
 40
0.0239813371
 40
0.0296243591
 40
0.035282924
 40
0.0410376765
 40
0.0469649669
 40
0.0531341378
 40
0.0596058447
 40
0.0664316555
 40
0.073654237
 40
0.0813082702
 40
0.0894213367
 40
0.0980149859
 40
0.1071056549
 40
0.1167054151
 40
0.1268227647
 40
0.1374630189
 40
0.1486289618
 40
0.1603210113
 40
0.1725377059
 40
0.1852758038
 40
0.1985305726
 40
0.2122959309
 40
0.2265645422
 40
0.2413280351
 40
0.2565769474
 40
0.2723009917
 40
0.2884889383
 40
0.3051288513
 40
0.3222080064
 40
0.3576292022
 40
0.3946388599
 40
0.4331135553
 40
0.4729220113
 40
0.5139260724
 40
0.5559816017
 40
0.5989393262
 40
0.6426456464
 40
0.6869434243
 40
0.7316727582
 40
0.7766717434
 40
0.8217772415
 40
0.8668255828
 40
0.9116535103
 40
0.9560983296
 40
1.0
 40
1.0
 40
1.0
 40
1.0
 10
14.2850684595
 20
7.7672059918
 30
0.0
 10
14.286824785
 20
7.7659735461
 30
0.0
 10
14.2903724401
 20
7.7637174286
 30
0.0
 10
14.2959056775
 20
7.7609525707
 30
0.0
 10
14.3015117079
 20
7.7588973447
 30
0.0
 10
14.3071833014
 20
7.7575572674
 30
0.0
 10
14.3129123205
 20
7.7569358554
 30
0.0
 10
14.3186894781
 20
7.7570345652
 30
0.0
 10
14.3245055458
 20
7.757852359
 30
0.0
 10
14.3303523331
 20
7.75938592
 30
0.0
 10
14.3362230054
 20
7.761630987
 30
0.0
 10
14.3421121003
 20
7.7645825563
 30
0.0
 10
14.3480147764
 20
7.7682359463
 30
0.0
 10
14.3539266597
 20
7.7725862627
 30
0.0
 10
14.3598432133
 20
7.7776287623
 30
0.0
 10
14.3657598329
 20
7.7833583193
 30
0.0
 10
14.371671652
 20
7.7897694586
 30
0.0
 10
14.3775735751
 20
7.7968561853
 30
0.0
 10
14.3834604325
 20
7.8046118541
 30
0.0
 10
14.3893267839
 20
7.8130292691
 30
0.0
 10
14.3951672906
 20
7.8221004828
 30
0.0
 10
14.4009763647
 20
7.8318169888
 30
0.0
 10
14.4067485826
 20
7.8421695449
 30
0.0
 10
14.4124783622
 20
7.8531483304
 30
0.0
 10
14.418160243
 20
7.864742853
 30
0.0
 10
14.4237887415
 20
7.8769420217
 30
0.0
 10
14.429358405
 20
7.8897341411
 30
0.0
 10
14.434863891
 20
7.9031069121
 30
0.0
 10
14.4402998066
 20
7.9170474833
 30
0.0
 10
14.4456609591
 20
7.9315424146
 30
0.0
 10
14.4509420784
 20
7.9465777482
 30
0.0
 10
14.456138103
 20
7.9621389666
 30
0.0
 10
14.4612439794
 20
7.9782110742
 30
0.0
 10
14.4680071688
 20
8.000573117
 30
0.0
 10
14.4761820887
 20
8.0296955431
 30
0.0
 10
14.4854414389
 20
8.0660106901
 30
0.0
 10
14.4942293275
 20
8.103965845
 30
0.0
 10
14.5025115367
 20
8.1434143498
 30
0.0
 10
14.5102557933
 20
8.1842039715
 30
0.0
 10
14.5174319539
 20
8.2261771294
 30
0.0
 10
14.5240121013
 20
8.2691716326
 30
0.0
 10
14.5299706549
 20
8.3130212902
 30
0.0
 10
14.5352844682
 20
8.3575565736
 30
0.0
 10
14.5399329137
 20
8.4026052788
 30
0.0
 10
14.5438979641
 20
8.4479932025
 30
0.0
 10
14.5471642535
 20
8.4935448126
 30
0.0
 10
14.5497191562
 20
8.5390839633
 30
0.0
 10
14.5515527914
 20
8.5844344992
 30
0.0
 10
14.5526581434
 20
8.6294209804
 30
0.0
 10
14.5529085432
 20
8.6592728768
 30
0.0
 10
14.5529085432
 20
8.6741067921
 30
0.0
  0
SPLINE
  5
2F8
100
AcDbEntity
  8
0
100
AcDbSpline
 62
7
  6
CONTINUOUS
 70
0
 71
3
 72
52
 73
48
 74
0
 42
0.0000001
 43
0.0000001
 44
0.0000000001
 40
0.0
 40
0.0
 40
0.0
 40
0.0
 40
0.0055413434
 40
0.0112929221
 40
0.017297616
 40
0.023592359
 40
0.0302084797
 40
0.0371719929
 40
0.0445043224
 40
0.0522227002
 40
0.0603409053
 40
0.0688695604
 40
0.0778167644
 40
0.0871882497
 40
0.0969879015
 40
0.1072177993
 40
0.1178786472
 40
0.1289697339
 40
0.1404892984
 40
0.1524344372
 40
0.1648014238
 40
0.1775855828
 40
0.1907815772
 40
0.2043832622
 40
0.2183839481
 40
0.2327762442
 40
0.2475523016
 40
0.2627036541
 40
0.2940956821
 40
0.3268764186
 40
0.3609627979
 40
0.3962659815
 40
0.4326919851
 40
0.4701422433
 40
0.5085141313
 40
0.5477014571
 40
0.5875949316
 40
0.6280826243
 40
0.6690504086
 40
0.7103824004
 40
0.751961391
 40
0.7936692784
 40
0.8353874952
 40
0.8769974375
 40
0.9183808901
 40
0.9594204611
 40
1.0
 40
1.0
 40
1.0
 40
1.0
 10
14.3241121665
 20
7.7115908798
 30
0.0
 10
14.3259651933
 20
7.7120384814
 30
0.0
 10
14.3296969257
 20
7.7131450372
 30
0.0
 10
14.3352243492
 20
7.7153697754
 30
0.0
 10
14.340768504
 20
7.7181831766
 30
0.0
 10
14.3463250435
 20
7.7215816488
 30
0.0
 10
14.351890602
 20
7.7255620805
 30
0.0
 10
14.3574617385
 20
7.73012089
 30
0.0
 10
14.3630347906
 20
7.7352545729
 30
0.0
 10
14.3686061967
 20
7.7409591106
 30
0.0
 10
14.3741720535
 20
7.7472303516
 30
0.0
 10
14.3797285979
 20
7.7540635829
 30
0.0
 10
14.3852717538
 20
7.7614538452
 30
0.0
 10
14.3907976217
 20
7.7693956193
 30
0.0
 10
14.3963020348
 20
7.7778830837
 30
0.0
 10
14.4017810275
 20
7.7869098833
 30
0.0
 10
14.4072304057
 20
7.796469335
 30
0.0
 10
14.4126461895
 20
7.8065542545
 30
0.0
 10
14.4180242009
 20
7.8171571191
 30
0.0
 10
14.4233604812
 20
7.828269937
 30
0.0
 10
14.4286508987
 20
7.8398843757
 30
0.0
 10
14.4338915414
 20
7.8519916632
 30
0.0
 10
14.4390783453
 20
7.8645826895
 30
0.0
 10
14.4442074644
 20
7.8776479323
 30
0.0
 10
14.449274921
 20
7.8911775382
 30
0.0
 10
14.4542769437
 20
7.9051612634
 30
0.0
 10
14.4592096851
 20
7.9195885565
 30
0.0
 10
14.465766852
 20
7.9396390767
 30
0.0
 10
14.4737480059
 20
7.9657378927
 30
0.0
 10
14.4828817594
 20
7.9982861628
 30
0.0
 10
14.4916535222
 20
8.0323249878
 30
0.0
 10
14.5000365495
 20
8.0677512922
 30
0.0
 10
14.508005262
 20
8.1044579717
 30
0.0
 10
14.5155353648
 20
8.1423339128
 30
0.0
 10
14.5226039091
 20
8.1812644344
 30
0.0
 10
14.5291893634
 20
8.2211316194
 30
0.0
 10
14.5352716773
 20
8.261814687
 30
0.0
 10
14.5408323406
 20
8.3031903627
 30
0.0
 10
14.5458544391
 20
8.3451332571
 30
0.0
 10
14.5503227044
 20
8.3875162498
 30
0.0
 10
14.55422356
 20
8.4302108779
 30
0.0
 10
14.5575451619
 20
8.4730877272
 30
0.0
 10
14.5602774343
 20
8.5160168311
 30
0.0
 10
14.5624120999
 20
8.5588680515
 30
0.0
 10
14.5639427064
 20
8.6015115313
 30
0.0
 10
14.5648646431
 20
8.6438178884
 30
0.0
 10
14.5650730283
 20
8.6718967058
 30
0.0
 10
14.5650730283
 20
8.6858567831
 30
0.0
  0
SPLINE
  5
2F9
100
AcDbEntity
  8
0
100
AcDbSpline
 62
7
  6
CONTINUOUS
 70
0
 71
3
 72
41
 73
37
 74
0
 42
0.0000001
 43
0.0000001
 44
0.0000000001
 40
0.0
 40
0.0
 40
0.0
 40
0.0
 40
0.0071626665
 40
0.0146567922
 40
0.0224900003
 40
0.030668562
 40
0.0391975872
 40
0.048080862
 40
0.0573206522
 40
0.0669182435
 40
0.0768739335
 40
0.0871871924
 40
0.097856799
 40
0.1088807011
 40
0.1319796455
 40
0.1564575358
 40
0.182279017
 40
0.2094019974
 40
0.2377784932
 40
0.2673552866
 40
0.2980744788
 40
0.329873988
 40
0.3626879607
 40
0.3964471366
 40
0.4310791754
 40
0.4665089551
 40
0.502658886
 40
0.5394491939
 40
0.57679819
 40
0.6146225315
 40
0.6528374746
 40
0.691357142
 40
0.7689615337
 40
0.8467371347
 40
0.923981719
 40
1.0
 40
1.0
 40
1.0
 40
1.0
 10
8.2822136157
 20
10.108949949
 30
0.0
 10
8.2809962375
 20
10.107774052
 30
0.0
 10
8.2785631026
 20
10.1053072649
 30
0.0
 10
8.2749969166
 20
10.1013651155
 30
0.0
 10
8.2714352629
 20
10.0971010715
 30
0.0
 10
8.2678804363
 20
10.0925178932
 30
0.0
 10
8.2643343877
 20
10.0876182664
 30
0.0
 10
8.2607992063
 20
10.0824050052
 30
0.0
 10
8.2572768787
 20
10.0768812165
 30
0.0
 10
8.2537695775
 20
10.0710501547
 30
0.0
 10
8.2502793687
 20
10.0649153086
 30
0.0
 10
8.2468083205
 20
10.0584803385
 30
0.0
 10
8.2433585289
 20
10.0517490537
 30
0.0
 10
8.2387174363
 20
10.0422356213
 30
0.0
 10
8.2329968209
 20
10.0296215729
 30
0.0
 10
8.2263517828
 20
10.0135979782
 30
0.0
 10
8.2198397941
 20
9.9964985228
 30
0.0
 10
8.2134765967
 20
9.9783641695
 30
0.0
 10
8.2072775943
 20
9.9592381788
 30
0.0
 10
8.2012578009
 20
9.9391663663
 30
0.0
 10
8.1954317901
 20
9.918196866
 30
0.0
 10
8.1898136701
 20
9.8963800239
 30
0.0
 10
8.1844170426
 20
9.8737682531
 30
0.0
 10
8.1792549717
 20
9.8504159058
 30
0.0
 10
8.1743399519
 20
9.8263791412
 30
0.0
 10
8.1696838659
 20
9.8017157889
 30
0.0
 10
8.1652979689
 20
9.7764852008
 30
0.0
 10
8.1611928621
 20
9.7507481024
 30
0.0
 10
8.1573784632
 20
9.724566441
 30
0.0
 10
8.153864001
 20
9.6980032573
 30
0.0
 10
8.150657921
 20
9.6711224599
 30
0.0
 10
8.1467954211
 20
9.6348560962
 30
0.0
 10
8.1427937649
 20
9.5892071471
 30
0.0
 10
8.139333881
 20
9.5343409563
 30
0.0
 10
8.1372377883
 20
9.4797809359
 30
0.0
 10
8.1367574324
 20
9.443563013
 30
0.0
 10
8.1367574324
 20
9.4255997101
 30
0.0
  0
SPLINE
  5
2FA
100
AcDbEntity
  8
0
100
AcDbSpline
 62
7
  6
CONTINUOUS
 70
0
 71
3
 72
20
 73
16
 74
0
 42
0.0000001
 43
0.0000001
 44
0.0000000001
 40
0.0
 40
0.0
 40
0.0
 40
0.0
 40
0.0511043106
 40
0.1040378232
 40
0.1587453512
 40
0.2151674695
 40
0.2732411531
 40
0.3328998586
 40
0.3940737401
 40
0.4566901361
 40
0.5206735587
 40
0.5859458807
 40
0.720031874
 40
0.8582814038
 40
1.0
 40
1.0
 40
1.0
 40
1.0
 10
14.2807006305
 20
9.0093453409
 30
0.0
 10
14.2819272497
 20
9.0037402456
 30
0.0
 10
14.2843070645
 20
8.9923034811
 30
0.0
 10
14.2876098615
 20
8.9747880892
 30
0.0
 10
14.2907051146
 20
8.956628882
 30
0.0
 10
14.2935885586
 20
8.9378508485
 30
0.0
 10
14.2962561787
 20
8.9184797063
 30
0.0
 10
14.2987042709
 20
8.8985420362
 30
0.0
 10
14.3009294761
 20
8.8780651957
 30
0.0
 10
14.3029286746
 20
8.8570772969
 30
0.0
 10
14.3046991308
 20
8.8356071291
 30
0.0
 10
14.3067699056
 20
8.8061124065
 30
0.0
 10
14.3087546188
 20
8.7682558181
 30
0.0
 10
14.3101731151
 20
8.7217862688
 30
0.0
 10
14.3104815654
 20
8.6903517713
 30
0.0
 10
14.3104815654
 20
8.6744402994
 30
0.0
  0
SPLINE
  5
2FB
100
AcDbEntity
  8
0
100
AcDbSpline
 62
7
  6
CONTINUOUS
 70
0
 71
3
 72
23
 73
19
 74
0
 42
0.0000001
 43
0.0000001
 44
0.0000000001
 40
0.0
 40
0.0
 40
0.0
 40
0.0
 40
0.0451954313
 40
0.0931320271
 40
0.1437509192
 40
0.1969796421
 40
0.2527338735
 40
0.3109188505
 40
0.3714305069
 40
0.4341564234
 40
0.4989766367
 40
0.5657643592
 40
0.6343866173
 40
0.7047047596
 40
0.7765754402
 40
0.8498497068
 40
0.9243773869
 40
1.0
 40
1.0
 40
1.0
 40
1.0
 10
14.3159389143
 20
9.1131825893
 30
0.0
 10
14.3180441694
 20
9.1069774353
 30
0.0
 10
14.3221299029
 20
9.0941041797
 30
0.0
 10
14.327758528
 20
9.0740338104
 30
0.0
 10
14.3330570482
 20
9.0526719224
 30
0.0
 10
14.3380132225
 20
9.0300667688
 30
0.0
 10
14.342615732
 20
9.0062690056
 30
0.0
 10
14.3468540083
 20
8.9813322485
 30
0.0
 10
14.350718327
 20
8.9553127193
 30
0.0
 10
14.3541998155
 20
8.9282691605
 30
0.0
 10
14.3572904805
 20
8.9002626721
 30
0.0
 10
14.3599832237
 20
8.8713565694
 30
0.0
 10
14.3622718594
 20
8.8416162442
 30
0.0
 10
14.3641511436
 20
8.8111089608
 30
0.0
 10
14.3656167309
 20
8.7799038609
 30
0.0
 10
14.3666652957
 20
8.7480713634
 30
0.0
 10
14.3672943469
 20
8.7156838471
 30
0.0
 10
14.3674321947
 20
8.6939143631
 30
0.0
 10
14.3674321947
 20
8.6829503863
 30
0.0
  0
SPLINE
  5
2FC
100
AcDbEntity
  8
0
100
AcDbSpline
 62
7
  6
CONTINUOUS
 70
0
 71
3
 72
47
 73
43
 74
0
 42
0.0000001
 43
0.0000001
 44
0.0000000001
 40
0.0
 40
0.0
 40
0.0
 40
0.0
 40
0.0063158944
 40
0.0126706987
 40
0.0191025405
 40
0.0256481038
 40
0.0323419949
 40
0.0392163426
 40
0.0536142003
 40
0.0611949286
 40
0.0690567122
 40
0.0772178282
 40
0.085694234
 40
0.0944996561
 40
0.1036457719
 40
0.1131425741
 40
0.1229983584
 40
0.1332199859
 40
0.143813125
 40
0.154782166
 40
0.1661305357
 40
0.1899729244
 40
0.2153524459
 40
0.2422683277
 40
0.2707106507
 40
0.3006617104
 40
0.3320970374
 40
0.3649863634
 40
0.3992943158
 40
0.4349808893
 40
0.4720019157
 40
0.510309527
 40
0.5498524616
 40
0.5905762737
 40
0.6324236593
 40
0.6753347239
 40
0.7192471435
 40
0.7640962803
 40
0.8098156495
 40
0.8563367705
 40
0.9035889553
 40
1.0
 40
1.0
 40
1.0
 40
1.0
 10
14.3873937388
 20
9.2103721213
 30
0.0
 10
14.388610674
 20
9.2102877334
 30
0.0
 10
14.3910462896
 20
9.2100188044
 30
0.0
 10
14.3946724115
 20
9.2093178412
 30
0.0
 10
14.3982743135
 20
9.2083193963
 30
0.0
 10
14.4018498485
 20
9.2070241326
 30
0.0
 10
14.4053976442
 20
9.2054328997
 30
0.0
 10
14.410161399
 20
9.2028793113
 30
0.0
 10
14.4147957519
 20
9.1997532695
 30
0.0
 10
14.4192806642
 20
9.1961307256
 30
0.0
 10
14.4226682457
 20
9.1930764494
 30
0.0
 10
14.4260196971
 20
9.1897335881
 30
0.0
 10
14.4293341105
 20
9.186103261
 30
0.0
 10
14.4326101422
 20
9.1821870534
 30
0.0
 10
14.4358466371
 20
9.177986589
 30
0.0
 10
14.4390422802
 20
9.1735035368
 30
0.0
 10
14.4421958664
 20
9.1687397409
 30
0.0
 10
14.4453061813
 20
9.1636971412
 30
0.0
 10
14.4483719174
 20
9.1583777511
 30
0.0
 10
14.4513919487
 20
9.1527837509
 30
0.0
 10
14.4554224758
 20
9.1448305631
 30
0.0
 10
14.4603238122
 20
9.134203243
 30
0.0
 10
14.4659106473
 20
9.1205965068
 30
0.0
 10
14.4712867287
 20
9.1059552259
 30
0.0
 10
14.4764432403
 20
9.0903032756
 30
0.0
 10
14.4813717022
 20
9.0736659132
 30
0.0
 10
14.4860639836
 20
9.0560702588
 30
0.0
 10
14.4905123004
 20
9.0375450473
 30
0.0
 10
14.4947092391
 20
9.0181206082
 30
0.0
 10
14.4986478148
 20
8.9978288103
 30
0.0
 10
14.5023214822
 20
8.9767029994
 30
0.0
 10
14.5057241157
 20
8.9547779159
 30
0.0
 10
14.5088500276
 20
8.9320896404
 30
0.0
 10
14.5116940229
 20
8.9086755415
 30
0.0
 10
14.5142513683
 20
8.8845742006
 30
0.0
 10
14.516517792
 20
8.8598253339
 30
0.0
 10
14.5184895053
 20
8.8344697495
 30
0.0
 10
14.520163245
 20
8.8085492442
 30
0.0
 10
14.5215362043
 20
8.7821065844
 30
0.0
 10
14.5226061022
 20
8.7551854057
 30
0.0
 10
14.5236329146
 20
8.7184667946
 30
0.0
 10
14.5239307702
 20
8.6907180905
 30
0.0
 10
14.5239307702
 20
8.6720971732
 30
0.0
  0
SPLINE
  5
2FD
100
AcDbEntity
  8
0
100
AcDbSpline
 62
7
  6
CONTINUOUS
 70
0
 71
3
 72
54
 73
50
 74
0
 42
0.0000001
 43
0.0000001
 44
0.0000000001
 40
0.0
 40
0.0
 40
0.0
 40
0.0
 40
0.007605328
 40
0.0149537423
 40
0.0220833385
 40
0.0290363538
 40
0.035858632
 40
0.0425989746
 40
0.0493081449
 40
0.0560376716
 40
0.0628385737
 40
0.0697601599
 40
0.0768489806
 40
0.084148032
 40
0.0916963668
 40
0.0995287462
 40
0.1076758145
 40
0.1161641734
 40
0.1250166595
 40
0.1342527964
 40
0.1438889173
 40
0.153938741
 40
0.1644135096
 40
0.1753223109
 40
0.1866724444
 40
0.1984694007
 40
0.2107173301
 40
0.2234189899
 40
0.2365759656
 40
0.2501888807
 40
0.2642572721
 40
0.278779966
 40
0.3091781916
 40
0.3413606336
 40
0.3752932669
 40
0.4109337468
 40
0.4482324864
 40
0.4871334954
 40
0.5275750614
 40
0.5694903004
 40
0.6128076449
 40
0.6574512933
 40
0.7033416067
 40
0.7503954247
 40
0.7985263824
 40
0.8476454125
 40
0.8976600152
 40
0.9484777976
 40
1.0
 40
1.0
 40
1.0
 40
1.0
 10
14.3856321541
 20
9.2172977634
 30
0.0
 10
14.3870320701
 20
9.2180148777
 30
0.0
 10
14.3898327964
 20
9.2193336255
 30
0.0
 10
14.3940997517
 20
9.2209738651
 30
0.0
 10
14.3983528874
 20
9.2222381973
 30
0.0
 10
14.4025895893
 20
9.2231253768
 30
0.0
 10
14.4068074093
 20
9.2236343434
 30
0.0
 10
14.4110035838
 20
9.2237643368
 30
0.0
 10
14.4151752383
 20
9.2235151615
 30
0.0
 10
14.4193194333
 20
9.2228868067
 30
0.0
 10
14.4234333423
 20
9.2218800415
 30
0.0
 10
14.4275142937
 20
9.2204957963
 30
0.0
 10
14.4315598536
 20
9.2187353955
 30
0.0
 10
14.4355678896
 20
9.2166004411
 30
0.0
 10
14.439536351
 20
9.2140924591
 30
0.0
 10
14.4434634858
 20
9.2112133003
 30
0.0
 10
14.4473474964
 20
9.207964683
 30
0.0
 10
14.4511866869
 20
9.2043484994
 30
0.0
 10
14.454979414
 20
9.2003667536
 30
0.0
 10
14.4587238935
 20
9.1960214625
 30
0.0
 10
14.4624185133
 20
9.1913149253
 30
0.0
 10
14.4660614822
 20
9.1862494704
 30
0.0
 10
14.4696510928
 20
9.1808276628
 30
0.0
 10
14.4731856478
 20
9.1750522361
 30
0.0
 10
14.4766633417
 20
9.1689260543
 30
0.0
 10
14.4800825454
 20
9.1624522382
 30
0.0
 10
14.4834414812
 20
9.1556340199
 30
0.0
 10
14.4867384906
 20
9.1484748575
 30
0.0
 10
14.4899719307
 20
9.1409783777
 30
0.0
 10
14.4931400889
 20
9.1331483687
 30
0.0
 10
14.4962414688
 20
9.1249888171
 30
0.0
 10
14.5003479473
 20
9.1135000739
 30
0.0
 10
14.5052869567
 20
9.0983341632
 30
0.0
 10
14.510836227
 20
9.0791573522
 30
0.0
 10
14.5160832273
 20
9.0587743889
 30
0.0
 10
14.5210171195
 20
9.0372268771
 30
0.0
 10
14.5256276765
 20
9.0145585822
 30
0.0
 10
14.5299053307
 20
8.990815742
 30
0.0
 10
14.5338411947
 20
8.9660468337
 30
0.0
 10
14.5374270934
 20
8.9403025022
 30
0.0
 10
14.5406555858
 20
8.9136354353
 30
0.0
 10
14.543519968
 20
8.8861002406
 30
0.0
 10
14.5460142892
 20
8.8577533265
 30
0.0
 10
14.5481333624
 20
8.8286527871
 30
0.0
 10
14.549872787
 20
8.798858245
 30
0.0
 10
14.5512289265
 20
8.7684309028
 30
0.0
 10
14.5521990115
 20
8.7374328884
 30
0.0
 10
14.5527809341
 20
8.705928147
 30
0.0
 10
14.5529085432
 20
8.6847623912
 30
0.0
 10
14.5529085432
 20
8.6741067921
 30
0.0
  0
SPLINE
  5
2FE
100
AcDbEntity
  8
0
100
AcDbSpline
 62
7
  6
CONTINUOUS
 70
0
 71
3
 72
38
 73
34
 74
0
 42
0.0000001
 43
0.0000001
 44
0.0000000001
 40
0.0
 40
0.0
 40
0.0
 40
0.0
 40
0.0064200652
 40
0.0129970787
 40
0.0267161779
 40
0.0413427044
 40
0.0570190964
 40
0.0738556127
 40
0.0919352649
 40
0.1113186008
 40
0.1320478014
 40
0.1541502551
 40
0.1776412982
 40
0.2025262039
 40
0.2288019256
 40
0.2564584372
 40
0.2854796099
 40
0.3158440265
 40
0.3475257148
 40
0.3804945733
 40
0.4147167405
 40
0.4501550706
 40
0.4867693913
 40
0.5245166624
 40
0.5633513174
 40
0.6032254646
 40
0.6440889626
 40
0.6858896741
 40
0.7285736311
 40
0.772085086
 40
0.8163668739
 40
0.9070030163
 40
1.0
 40
1.0
 40
1.0
 40
1.0
 10
14.431755148
 20
9.2670791681
 30
0.0
 10
14.4329794361
 20
9.2666026747
 30
0.0
 10
14.4354245412
 20
9.2655498052
 30
0.0
 10
14.4402924736
 20
9.2630544639
 30
0.0
 10
14.4463230696
 20
9.2591843533
 30
0.0
 10
14.4533202659
 20
9.2534856483
 30
0.0
 10
14.4601746675
 20
9.2466790188
 30
0.0
 10
14.4668789776
 20
9.2387760991
 30
0.0
 10
14.4734267642
 20
9.2297881243
 30
0.0
 10
14.4798104611
 20
9.2197275033
 30
0.0
 10
14.4860222362
 20
9.2086080117
 30
0.0
 10
14.4920539094
 20
9.1964449674
 30
0.0
 10
14.49789719
 20
9.1832552924
 30
0.0
 10
14.5035438899
 20
9.169057567
 30
0.0
 10
14.5089859473
 20
9.1538719532
 30
0.0
 10
14.5142154665
 20
9.1377201414
 30
0.0
 10
14.5192248413
 20
9.1206253368
 30
0.0
 10
14.524006769
 20
9.1026121977
 30
0.0
 10
14.5285542195
 20
9.0837067629
 30
0.0
 10
14.5328605032
 20
9.0639364237
 30
0.0
 10
14.5369193155
 20
9.0433298814
 30
0.0
 10
14.5407246779
 20
9.0219170747
 30
0.0
 10
14.5442709697
 20
8.9997291394
 30
0.0
 10
14.5475529967
 20
8.9767983719
 30
0.0
 10
14.5505659299
 20
8.9531581623
 30
0.0
 10
14.5533053123
 20
8.9288429424
 30
0.0
 10
14.555767127
 20
8.9038881451
 30
0.0
 10
14.557947762
 20
8.8783301436
 30
0.0
 10
14.5598439793
 20
8.8522062071
 30
0.0
 10
14.5614530269
 20
8.8255543777
 30
0.0
 10
14.5632259293
 20
8.7890845153
 30
0.0
 10
14.5646931935
 20
8.7424651102
 30
0.0
 10
14.5650730283
 20
8.7048868664
 30
0.0
 10
14.5650730283
 20
8.6858567831
 30
0.0
  0
SPLINE
  5
2FF
100
AcDbEntity
  8
0
100
AcDbSpline
 62
7
  6
CONTINUOUS
 70
0
 71
3
 72
47
 73
43
 74
0
 42
0.0000001
 43
0.0000001
 44
0.0000000001
 40
0.0
 40
0.0
 40
0.0
 40
0.0
 40
0.0063158953
 40
0.0126706964
 40
0.0191025413
 40
0.0256481068
 40
0.0323419887
 40
0.0392163511
 40
0.0536141938
 40
0.0611949453
 40
0.0690567093
 40
0.0772178306
 40
0.0856942536
 40
0.094499648
 40
0.1036457893
 40
0.1131425899
 40
0.1229983503
 40
0.1332200167
 40
0.1438131323
 40
0.1547821683
 40
0.1661305713
 40
0.1899729423
 40
0.2153524409
 40
0.2422683478
 40
0.2707106917
 40
0.3006617255
 40
0.3320970385
 40
0.3649863926
 40
0.3992943516
 40
0.4349809011
 40
0.4720019229
 40
0.5103095575
 40
0.5498524869
 40
0.5905762826
 40
0.6324236706
 40
0.6753347453
 40
0.7192471563
 40
0.7640962954
 40
0.8098156376
 40
0.856336788
 40
0.9035890146
 40
1.0
 40
1.0
 40
1.0
 40
1.0
 10
14.4467223654
 20
9.2684065877
 30
0.0
 10
14.4480440919
 20
9.2683149253
 30
0.0
 10
14.4506894373
 20
9.2680228188
 30
0.0
 10
14.4546278157
 20
9.2672615318
 30
0.0
 10
14.4585398763
 20
9.2661770848
 30
0.0
 10
14.4624232984
 20
9.2647702753
 30
0.0
 10
14.4662766169
 20
9.2630420538
 30
0.0
 10
14.4714505503
 20
9.2602685159
 30
0.0
 10
14.4764840167
 20
9.2568733459
 30
0.0
 10
14.4813550865
 20
9.25293881
 30
0.0
 10
14.4850344053
 20
9.2496215578
 30
0.0
 10
14.4886744463
 20
9.2459908287
 30
0.0
 10
14.4922742465
 20
9.2420478741
 30
0.0
 10
14.4958324169
 20
9.2377944636
 30
0.0
 10
14.4993475792
 20
9.2332322692
 30
0.0
 10
14.5028184061
 20
9.2283631802
 30
0.0
 10
14.5062435775
 20
9.2231891821
 30
0.0
 10
14.509621684
 20
9.2177123356
 30
0.0
 10
14.5129514412
 20
9.2119349009
 30
0.0
 10
14.5162315316
 20
9.205859194
 30
0.0
 10
14.5206091039
 20
9.1972211322
 30
0.0
 10
14.5259325199
 20
9.1856786941
 30
0.0
 10
14.5320004514
 20
9.1709002733
 30
0.0
 10
14.5378394604
 20
9.154998206
 30
0.0
 10
14.5434399943
 20
9.1379984417
 30
0.0
 10
14.5487928643
 20
9.1199284263
 30
0.0
 10
14.5538892092
 20
9.1008175951
 30
0.0
 10
14.5587205606
 20
9.0806971497
 30
0.0
 10
14.5632788995
 20
9.0596000486
 30
0.0
 10
14.5675566404
 20
9.0375609088
 30
0.0
 10
14.5715466534
 20
9.014615933
 30
0.0
 10
14.5752422779
 20
8.9908028521
 30
0.0
 10
14.5786373684
 20
8.9661608648
 30
0.0
 10
14.5817262696
 20
8.9407305576
 30
0.0
 10
14.5845038296
 20
8.9145538248
 30
0.0
 10
14.5869654089
 20
8.887673805
 30
0.0
 10
14.5891069134
 20
8.8601348236
 30
0.0
 10
14.590924782
 20
8.8319822828
 30
0.0
 10
14.5924159679
 20
8.8032626161
 30
0.0
 10
14.5935779922
 20
8.7740232163
 30
0.0
 10
14.5946932272
 20
8.7341427237
 30
0.0
 10
14.5950167302
 20
8.7040045524
 30
0.0
 10
14.5950167302
 20
8.6837801803
 30
0.0
  0
SPLINE
  5
300
100
AcDbEntity
  8
0
100
AcDbSpline
 62
7
  6
CONTINUOUS
 70
0
 71
3
 72
15
 73
11
 74
0
 42
0.0000001
 43
0.0000001
 44
0.0000000001
 40
0.0
 40
0.0
 40
0.0
 40
0.0
 40
0.1273482789
 40
0.2538606571
 40
0.3795878378
 40
0.5046051156
 40
0.629017439
 40
0.7529533823
 40
0.8765605864
 40
1.0
 40
1.0
 40
1.0
 40
1.0
 10
13.2281986884
 20
9.2776833456
 30
0.0
 10
13.2281986884
 20
9.2841816706
 30
0.0
 10
13.2288191491
 20
9.2971446497
 30
0.0
 10
13.2316250805
 20
9.3163397958
 30
0.0
 10
13.2362778021
 20
9.3350526495
 30
0.0
 10
13.2427352849
 20
9.3531082008
 30
0.0
 10
13.2509383045
 20
9.3703399424
 30
0.0
 10
13.2608120297
 20
9.3865887769
 30
0.0
 10
13.272263652
 20
9.4017024514
 30
0.0
 10
13.2808861517
 20
9.4109347592
 30
0.0
 10
13.2854166233
 20
9.4153108887
 30
0.0
  0
SPLINE
  5
301
100
AcDbEntity
  8
0
100
AcDbSpline
 62
7
  6
CONTINUOUS
 70
0
 71
3
 72
41
 73
37
 74
0
 42
0.0000001
 43
0.0000001
 44
0.0000000001
 40
0.0
 40
0.0
 40
0.0
 40
0.0
 40
0.029942123
 40
0.0449237706
 40
0.0599145177
 40
0.0899291716
 40
0.1200145961
 40
0.1350933574
 40
0.1501974726
 40
0.1804849654
 40
0.2108989488
 40
0.2414525624
 40
0.2721557217
 40
0.3030149378
 40
0.3340332219
 40
0.3652100719
 40
0.3965415365
 40
0.4280203507
 40
0.4596361361
 40
0.4913756582
 40
0.5232231336
 40
0.5551605782
 40
0.5871681905
 40
0.6192247616
 40
0.6513081064
 40
0.6833955071
 40
0.7154641657
 40
0.7474916563
 40
0.7794563734
 40
0.811337967
 40
0.843117763
 40
0.8747791516
 40
0.9063079641
 40
0.9376927517
 40
0.9689251728
 40
1.0
 40
1.0
 40
1.0
 40
1.0
 10
9.7148978271
 20
9.3797359674
 30
0.0
 10
9.7113974097
 20
9.3763548006
 30
0.0
 10
9.7059404984
 20
9.3714878748
 30
0.0
 10
9.6982981782
 20
9.3654490929
 30
0.0
 10
9.6904124696
 20
9.359710823
 30
0.0
 10
9.680122921
 20
9.3531213964
 30
0.0
 10
9.6693330595
 20
9.347357561
 30
0.0
 10
9.6604342293
 20
9.3432571164
 30
0.0
 10
9.6513515476
 20
9.3394952114
 30
0.0
 10
9.6396988892
 20
9.3354500435
 30
0.0
 10
9.6253387315
 20
9.3316800341
 30
0.0
 10
9.6106652224
 20
9.3290092299
 30
0.0
 10
9.5957596783
 20
9.3274523725
 30
0.0
 10
9.58070398
 20
9.3270177687
 30
0.0
 10
9.5655809688
 20
9.3277076311
 30
0.0
 10
9.5504737652
 20
9.3295179745
 30
0.0
 10
9.5354653773
 20
9.3324386739
 30
0.0
 10
9.5206382338
 20
9.3364535198
 30
0.0
 10
9.5060737421
 20
9.3415403143
 30
0.0
 10
9.4918518456
 20
9.3476709959
 30
0.0
 10
9.4780505922
 20
9.3548117962
 30
0.0
 10
9.4647457117
 20
9.3629234259
 30
0.0
 10
9.4520102055
 20
9.3719612903
 30
0.0
 10
9.4399139514
 20
9.3818757331
 30
0.0
 10
9.4285233249
 20
9.3926123066
 30
0.0
 10
9.4179008385
 20
9.4041120687
 30
0.0
 10
9.4081048028
 20
9.4163119028
 30
0.0
 10
9.3991890092
 20
9.4291448613
 30
0.0
 10
9.3912024377
 20
9.4425405278
 30
0.0
 10
9.3841889888
 20
9.4564254019
 30
0.0
 10
9.3781872465
 20
9.4707232879
 30
0.0
 10
9.3732302613
 20
9.4853557431
 30
0.0
 10
9.369345379
 20
9.5002423704
 30
0.0
 10
9.3665540686
 20
9.515301742
 30
0.0
 10
9.3648718326
 20
9.5304500428
 30
0.0
 10
9.3644950392
 20
9.5405812504
 30
0.0
 10
9.3644950392
 20
9.5456321037
 30
0.0
  0
SPLINE
  5
302
100
AcDbEntity
  8
0
100
AcDbSpline
 62
7
  6
CONTINUOUS
 70
0
 71
3
 72
41
 73
37
 74
0
 42
0.0000001
 43
0.0000001
 44
0.0000000001
 40
0.0
 40
0.0
 40
0.0
 40
0.0
 40
0.029942123
 40
0.0449237706
 40
0.0599145177
 40
0.0899291716
 40
0.1200145961
 40
0.1350933574
 40
0.1501974726
 40
0.1804849654
 40
0.2108989488
 40
0.2414525624
 40
0.2721557217
 40
0.3030149378
 40
0.3340332219
 40
0.3652100719
 40
0.3965415365
 40
0.4280203507
 40
0.4596361361
 40
0.4913756582
 40
0.5232231336
 40
0.5551605782
 40
0.5871681905
 40
0.6192247616
 40
0.6513081064
 40
0.6833955071
 40
0.7154641657
 40
0.7474916563
 40
0.7794563734
 40
0.811337967
 40
0.843117763
 40
0.8747791516
 40
0.9063079641
 40
0.9376927517
 40
0.9689251728
 40
1.0
 40
1.0
 40
1.0
 40
1.0
 10
13.5786014764
 20
9.1117872093
 30
0.0
 10
13.575101059
 20
9.1084060425
 30
0.0
 10
13.5696441477
 20
9.1035391166
 30
0.0
 10
13.5620018275
 20
9.0975003347
 30
0.0
 10
13.5541161188
 20
9.0917620648
 30
0.0
 10
13.5438265702
 20
9.0851726382
 30
0.0
 10
13.5330367087
 20
9.0794088029
 30
0.0
 10
13.5241378785
 20
9.0753083583
 30
0.0
 10
13.5150551968
 20
9.0715464533
 30
0.0
 10
13.5034025384
 20
9.0675012854
 30
0.0
 10
13.4890423807
 20
9.0637312759
 30
0.0
 10
13.4743688716
 20
9.0610604718
 30
0.0
 10
13.4594633275
 20
9.0595036144
 30
0.0
 10
13.4444076292
 20
9.0590690106
 30
0.0
 10
13.4292846181
 20
9.0597588729
 30
0.0
 10
13.4141774144
 20
9.0615692163
 30
0.0
 10
13.3991690265
 20
9.0644899158
 30
0.0
 10
13.3843418831
 20
9.0685047617
 30
0.0
 10
13.3697773913
 20
9.0735915561
 30
0.0
 10
13.3555554948
 20
9.0797222377
 30
0.0
 10
13.3417542415
 20
9.086863038
 30
0.0
 10
13.3284493609
 20
9.0949746677
 30
0.0
 10
13.3157138547
 20
9.1040125322
 30
0.0
 10
13.3036176007
 20
9.1139269749
 30
0.0
 10
13.2922269741
 20
9.1246635484
 30
0.0
 10
13.2816044878
 20
9.1361633105
 30
0.0
 10
13.2718084521
 20
9.1483631447
 30
0.0
 10
13.2628926585
 20
9.1611961032
 30
0.0
 10
13.2549060869
 20
9.1745917697
 30
0.0
 10
13.2478926381
 20
9.1884766437
 30
0.0
 10
13.2418908957
 20
9.2027745297
 30
0.0
 10
13.2369339105
 20
9.217406985
 30
0.0
 10
13.2330490283
 20
9.2322936122
 30
0.0
 10
13.2302577178
 20
9.2473529839
 30
0.0
 10
13.2285754819
 20
9.2625012846
 30
0.0
 10
13.2281986884
 20
9.2726324922
 30
0.0
 10
13.2281986884
 20
9.2776833456
 30
0.0
  0
SPLINE
  5
303
100
AcDbEntity
  8
0
100
AcDbSpline
 62
7
  6
CONTINUOUS
 70
0
 71
3
 72
23
 73
19
 74
0
 42
0.0000001
 43
0.0000001
 44
0.0000000001
 40
0.0
 40
0.0
 40
0.0
 40
0.0
 40
0.0622034661
 40
0.1242633819
 40
0.1862159919
 40
0.2481003942
 40
0.309957887
 40
0.3718311631
 40
0.4337634623
 40
0.4957977037
 40
0.5579754804
 40
0.6203360489
 40
0.682915285
 40
0.7457445899
 40
0.8088508505
 40
0.8722528464
 40
0.9359688438
 40
1.0
 40
1.0
 40
1.0
 40
1.0
 10
12.589155281
 20
8.6606573579
 30
0.0
 10
12.5879229948
 20
8.6582348372
 30
0.0
 10
12.5852910208
 20
8.6534797666
 30
0.0
 10
12.5808533128
 20
8.6466521129
 30
0.0
 10
12.5759469943
 20
8.6401698274
 30
0.0
 10
12.570591431
 20
8.6340652064
 30
0.0
 10
12.5648080776
 20
8.6283689565
 30
0.0
 10
12.5586209467
 20
8.623110696
 30
0.0
 10
12.5520565353
 20
8.6183184895
 30
0.0
 10
12.5451438155
 20
8.6140186582
 30
0.0
 10
12.5379141881
 20
8.6102354715
 30
0.0
 10
12.5304013916
 20
8.6069908601
 30
0.0
 10
12.5226413757
 20
8.6043041323
 30
0.0
 10
12.5146720844
 20
8.6021916066
 30
0.0
 10
12.5065333258
 20
8.6006665371
 30
0.0
 10
12.4982660329
 20
8.599738556
 30
0.0
 10
12.4899132265
 20
8.599414072
 30
0.0
 10
12.4843288595
 20
8.5996012375
 30
0.0
 10
12.4815377752
 20
8.5997947999
 30
0.0
  0
SPLINE
  5
304
100
AcDbEntity
  8
0
100
AcDbSpline
 62
7
  6
CONTINUOUS
 70
0
 71
3
 72
41
 73
37
 74
0
 42
0.0000001
 43
0.0000001
 44
0.0000000001
 40
0.0
 40
0.0
 40
0.0
 40
0.0
 40
0.029942123
 40
0.0449237706
 40
0.0599145177
 40
0.0899291716
 40
0.1200145961
 40
0.1350933574
 40
0.1501974726
 40
0.1804849654
 40
0.2108989488
 40
0.2414525624
 40
0.2721557217
 40
0.3030149378
 40
0.3340332219
 40
0.3652100719
 40
0.3965415365
 40
0.4280203507
 40
0.4596361361
 40
0.4913756582
 40
0.5232231336
 40
0.5551605782
 40
0.5871681905
 40
0.6192247616
 40
0.6513081064
 40
0.6833955071
 40
0.7154641657
 40
0.7474916563
 40
0.7794563734
 40
0.811337967
 40
0.843117763
 40
0.8747791516
 40
0.9063079641
 40
0.9376927517
 40
0.9689251728
 40
1.0
 40
1.0
 40
1.0
 40
1.0
 10
13.5786014764
 20
6.4535590875
 30
0.0
 10
13.575101059
 20
6.4501779208
 30
0.0
 10
13.5696441477
 20
6.4453109949
 30
0.0
 10
13.5620018275
 20
6.439272213
 30
0.0
 10
13.5541161188
 20
6.4335339431
 30
0.0
 10
13.5438265702
 20
6.4269445165
 30
0.0
 10
13.5330367087
 20
6.4211806811
 30
0.0
 10
13.5241378785
 20
6.4170802365
 30
0.0
 10
13.5150551968
 20
6.4133183315
 30
0.0
 10
13.5034025384
 20
6.4092731636
 30
0.0
 10
13.4890423807
 20
6.4055031542
 30
0.0
 10
13.4743688716
 20
6.4028323501
 30
0.0
 10
13.4594633275
 20
6.4012754927
 30
0.0
 10
13.4444076292
 20
6.4008408888
 30
0.0
 10
13.4292846181
 20
6.4015307512
 30
0.0
 10
13.4141774144
 20
6.4033410946
 30
0.0
 10
13.3991690265
 20
6.406261794
 30
0.0
 10
13.3843418831
 20
6.41027664
 30
0.0
 10
13.3697773913
 20
6.4153634344
 30
0.0
 10
13.3555554948
 20
6.421494116
 30
0.0
 10
13.3417542415
 20
6.4286349163
 30
0.0
 10
13.3284493609
 20
6.436746546
 30
0.0
 10
13.3157138547
 20
6.4457844104
 30
0.0
 10
13.3036176007
 20
6.4556988532
 30
0.0
 10
13.2922269741
 20
6.4664354267
 30
0.0
 10
13.2816044878
 20
6.4779351888
 30
0.0
 10
13.2718084521
 20
6.490135023
 30
0.0
 10
13.2628926585
 20
6.5029679814
 30
0.0
 10
13.2549060869
 20
6.5163636479
 30
0.0
 10
13.2478926381
 20
6.530248522
 30
0.0
 10
13.2418908957
 20
6.544546408
 30
0.0
 10
13.2369339105
 20
6.5591788633
 30
0.0
 10
13.2330490283
 20
6.5740654905
 30
0.0
 10
13.2302577178
 20
6.5891248621
 30
0.0
 10
13.2285754819
 20
6.6042731629
 30
0.0
 10
13.2281986884
 20
6.6144043705
 30
0.0
 10
13.2281986884
 20
6.6194552238
 30
0.0
  0
SPLINE
  5
305
100
AcDbEntity
  8
0
100
AcDbSpline
 62
7
  6
CONTINUOUS
 70
0
 71
3
 72
11
 73
7
 74
0
 42
0.0000001
 43
0.0000001
 44
0.0000000001
 40
0.0
 40
0.0
 40
0.0
 40
0.0
 40
0.2478035324
 40
0.4970064762
 40
0.7477169692
 40
1.0
 40
1.0
 40
1.0
 40
1.0
 10
12.1905899999
 20
6.918943242
 30
0.0
 10
12.1813484039
 20
6.9160981695
 30
0.0
 10
12.1625332167
 20
6.911260599
 30
0.0
 10
12.1336830982
 20
6.9066449902
 30
0.0
 10
12.1043569195
 20
6.9046885659
 30
0.0
 10
12.0847038077
 20
6.9051688954
 30
0.0
 10
12.0748829808
 20
6.9058499721
 30
0.0
  0
SPLINE
  5
306
100
AcDbEntity
  8
0
100
AcDbSpline
 62
7
  6
CONTINUOUS
 70
0
 71
3
 72
41
 73
37
 74
0
 42
0.0000001
 43
0.0000001
 44
0.0000000001
 40
0.0
 40
0.0
 40
0.0
 40
0.0
 40
0.029942123
 40
0.0449237706
 40
0.0599145177
 40
0.0899291716
 40
0.1200145961
 40
0.1350933574
 40
0.1501974726
 40
0.1804849654
 40
0.2108989488
 40
0.2414525624
 40
0.2721557217
 40
0.3030149378
 40
0.3340332219
 40
0.3652100719
 40
0.3965415365
 40
0.4280203507
 40
0.4596361361
 40
0.4913756582
 40
0.5232231336
 40
0.5551605782
 40
0.5871681905
 40
0.6192247616
 40
0.6513081064
 40
0.6833955071
 40
0.7154641657
 40
0.7474916563
 40
0.7794563734
 40
0.811337967
 40
0.843117763
 40
0.8747791516
 40
0.9063079641
 40
0.9376927517
 40
0.9689251728
 40
1.0
 40
1.0
 40
1.0
 40
1.0
 10
9.7148978271
 20
6.7215078457
 30
0.0
 10
9.7113974097
 20
6.7181266789
 30
0.0
 10
9.7059404984
 20
6.713259753
 30
0.0
 10
9.6982981782
 20
6.7072209712
 30
0.0
 10
9.6904124696
 20
6.7014827013
 30
0.0
 10
9.680122921
 20
6.6948932747
 30
0.0
 10
9.6693330595
 20
6.6891294393
 30
0.0
 10
9.6604342293
 20
6.6850289947
 30
0.0
 10
9.6513515476
 20
6.6812670897
 30
0.0
 10
9.6396988892
 20
6.6772219218
 30
0.0
 10
9.6253387315
 20
6.6734519124
 30
0.0
 10
9.6106652224
 20
6.6707811082
 30
0.0
 10
9.5957596783
 20
6.6692242508
 30
0.0
 10
9.58070398
 20
6.668789647
 30
0.0
 10
9.5655809688
 20
6.6694795093
 30
0.0
 10
9.5504737652
 20
6.6712898527
 30
0.0
 10
9.5354653773
 20
6.6742105522
 30
0.0
 10
9.5206382338
 20
6.6782253981
 30
0.0
 10
9.5060737421
 20
6.6833121926
 30
0.0
 10
9.4918518456
 20
6.6894428741
 30
0.0
 10
9.4780505922
 20
6.6965836744
 30
0.0
 10
9.4647457117
 20
6.7046953041
 30
0.0
 10
9.4520102055
 20
6.7137331686
 30
0.0
 10
9.4399139514
 20
6.7236476113
 30
0.0
 10
9.4285233249
 20
6.7343841849
 30
0.0
 10
9.4179008385
 20
6.7458839469
 30
0.0
 10
9.4081048028
 20
6.7580837811
 30
0.0
 10
9.3991890092
 20
6.7709167396
 30
0.0
 10
9.3912024377
 20
6.7843124061
 30
0.0
 10
9.3841889888
 20
6.7981972802
 30
0.0
 10
9.3781872465
 20
6.8124951662
 30
0.0
 10
9.3732302613
 20
6.8271276214
 30
0.0
 10
9.369345379
 20
6.8420142486
 30
0.0
 10
9.3665540686
 20
6.8570736203
 30
0.0
 10
9.3648718326
 20
6.872221921
 30
0.0
 10
9.3644950392
 20
6.8823531286
 30
0.0
 10
9.3644950392
 20
6.887403982
 30
0.0
  0
SPLINE
  5
307
100
AcDbEntity
  8
0
100
AcDbSpline
 62
7
  6
CONTINUOUS
 70
0
 71
3
 72
25
 73
21
 74
0
 42
0.0000001
 43
0.0000001
 44
0.0000000001
 40
0.0
 40
0.0
 40
0.0
 40
0.0
 40
0.062481445
 40
0.0936533992
 40
0.1247812338
 40
0.1869108767
 40
0.2489165552
 40
0.2798910108
 40
0.3108500572
 40
0.372733468
 40
0.4346258895
 40
0.4965776198
 40
0.5586401804
 40
0.6208648341
 40
0.6833008606
 40
0.7459936608
 40
0.8089827581
 40
0.8723002435
 40
0.9359680192
 40
1.0
 40
1.0
 40
1.0
 40
1.0
 10
11.1724686165
 20
7.1675393772
 30
0.0
 10
11.1694771727
 20
7.1599116884
 30
0.0
 10
11.1645931183
 20
7.1486291338
 30
0.0
 10
11.1573006411
 20
7.133978397
 30
0.0
 10
11.1495093972
 20
7.1196384489
 30
0.0
 10
11.1388226256
 20
7.1022861898
 30
0.0
 10
11.1268941518
 20
7.0857863853
 30
0.0
 10
11.1166403369
 20
7.0731724285
 30
0.0
 10
11.10592451
 20
7.060970007
 30
0.0
 10
11.0916633885
 20
7.0465052257
 30
0.0
 10
11.0732402991
 20
7.0305378521
 30
0.0
 10
11.0535841076
 20
7.0160733086
 30
0.0
 10
11.0327852723
 20
7.0032220171
 30
0.0
 10
11.0109467502
 20
6.9920877317
 30
0.0
 10
10.9881851847
 20
6.9827662315
 30
0.0
 10
10.9646303333
 20
6.9753424936
 30
0.0
 10
10.9404245266
 20
6.9698880516
 30
0.0
 10
10.9157203162
 20
6.9664587291
 30
0.0
 10
10.8906815898
 20
6.9650920099
 30
0.0
 10
10.8739203764
 20
6.9655672442
 30
0.0
 10
10.865543858
 20
6.9661481577
 30
0.0
  0
SPLINE
  5
308
100
AcDbEntity
  8
0
100
AcDbSpline
 62
7
  6
CONTINUOUS
 70
0
 71
3
 72
40
 73
36
 74
0
 42
0.0000001
 43
0.0000001
 44
0.0000000001
 40
0.0
 40
0.0
 40
0.0
 40
0.0
 40
0.0299422973
 40
0.0449240327
 40
0.059914866
 40
0.089929696
 40
0.1200152967
 40
0.1501925739
 40
0.180480241
 40
0.2108943975
 40
0.2414481839
 40
0.2721515165
 40
0.3030109074
 40
0.3340293686
 40
0.3652063985
 40
0.3965380456
 40
0.4280170434
 40
0.4596330122
 40
0.4913727167
 40
0.5232203738
 40
0.5551580001
 40
0.587165795
 40
0.6192225506
 40
0.6513060818
 40
0.6833936709
 40
0.7154625181
 40
0.7474901959
 40
0.7794550985
 40
0.8113368727
 40
0.8431168595
 40
0.8747783985
 40
0.906307485
 40
0.9376922173
 40
0.9689252845
 40
1.0
 40
1.0
 40
1.0
 40
1.0
 10
10.9631565731
 20
9.4013328168
 30
0.0
 10
10.9608257269
 20
9.3990813725
 30
0.0
 10
10.9571921147
 20
9.3958405764
 30
0.0
 10
10.9521032516
 20
9.3918194988
 30
0.0
 10
10.9468523883
 20
9.3879984901
 30
0.0
 10
10.9400006227
 20
9.3836106589
 30
0.0
 10
10.9313737663
 20
9.3790021744
 30
0.0
 10
10.9223847819
 20
9.375072637
 30
0.0
 10
10.9130835365
 20
9.3718438235
 30
0.0
 10
10.9035212174
 20
9.3693333508
 30
0.0
 10
10.8937505248
 20
9.367554937
 30
0.0
 10
10.8838252492
 20
9.3665182388
 30
0.0
 10
10.8738000084
 20
9.3662288309
 30
0.0
 10
10.8637299382
 20
9.3666881767
 30
0.0
 10
10.8536703937
 20
9.3678936277
 30
0.0
 10
10.8436766472
 20
9.3698384444
 30
0.0
 10
10.8338035881
 20
9.3725118335
 30
0.0
 10
10.8241054231
 20
9.3758990104
 30
0.0
 10
10.8146353846
 20
9.3799812877
 30
0.0
 10
10.8054454422
 20
9.3847361786
 30
0.0
 10
10.7965860217
 20
9.3901375209
 30
0.0
 10
10.7881057329
 20
9.3961556205
 30
0.0
 10
10.7800511056
 20
9.4027574133
 30
0.0
 10
10.7724663387
 20
9.4099066452
 30
0.0
 10
10.7653930595
 20
9.4175640693
 30
0.0
 10
10.7588700989
 20
9.4256876597
 30
0.0
 10
10.7529332745
 20
9.4342328352
 30
0.0
 10
10.7476152002
 20
9.4431527055
 30
0.0
 10
10.7429451028
 20
9.4523983269
 30
0.0
 10
10.7389486844
 20
9.4619189621
 30
0.0
 10
10.7356479238
 20
9.4716623832
 30
0.0
 10
10.7330610913
 20
9.4815750347
 30
0.0
 10
10.731202373
 20
9.491602754
 30
0.0
 10
10.7300822444
 20
9.5016896602
 30
0.0
 10
10.729831328
 20
9.5084358182
 30
0.0
 10
10.729831328
 20
9.5117990349
 30
0.0
  0
SPLINE
  5
309
100
AcDbEntity
  8
0
100
AcDbSpline
 62
7
  6
CONTINUOUS
 70
0
 71
3
 72
32
 73
28
 74
0
 42
0.0000001
 43
0.0000001
 44
0.0000000001
 40
0.0
 40
0.0
 40
0.0
 40
0.0
 40
0.0851788256
 40
0.1685805939
 40
0.2498831809
 40
0.3287739947
 40
0.4049543857
 40
0.4781405615
 40
0.5480662501
 40
0.581729445
 40
0.6144868725
 40
0.6463114519
 40
0.6771775691
 40
0.7070615392
 40
0.7359415075
 40
0.763797774
 40
0.790612955
 40
0.8163721473
 40
0.8410634064
 40
0.8646777882
 40
0.8872101701
 40
0.9086592878
 40
0.9290289006
 40
0.9483280334
 40
0.9665724873
 40
0.9837855716
 40
1.0
 40
1.0
 40
1.0
 40
1.0
 10
8.1367574324
 20
7.2145953628
 30
0.0
 10
8.1367574324
 20
7.2029509387
 30
0.0
 10
8.1369558544
 20
7.1799044625
 30
0.0
 10
8.1378659313
 20
7.1457543028
 30
0.0
 10
8.1393816709
 20
7.1124858746
 30
0.0
 10
8.1414965232
 20
7.0802392579
 30
0.0
 10
8.144201298
 20
7.0491500619
 30
0.0
 10
8.1474843747
 20
7.0193491424
 30
0.0
 10
8.1507299691
 20
6.995398817
 30
0.0
 10
8.1536188252
 20
6.9769841844
 30
0.0
 10
8.1558933585
 20
6.9637469922
 30
0.0
 10
8.1583007053
 20
6.9509221407
 30
0.0
 10
8.1608384003
 20
6.938523094
 30
0.0
 10
8.1635037018
 20
6.9265628833
 30
0.0
 10
8.1662938142
 20
6.9150540637
 30
0.0
 10
8.1692057736
 20
6.9040087055
 30
0.0
 10
8.1722364873
 20
6.8934383761
 30
0.0
 10
8.1753827871
 20
6.8833541328
 30
0.0
 10
8.1786413028
 20
6.8737664905
 30
0.0
 10
8.1820086868
 20
6.8646854396
 30
0.0
 10
8.1854813294
 20
6.8561203784
 30
0.0
 10
8.1890557325
 20
6.8480801786
 30
0.0
 10
8.1927281223
 20
6.8405730577
 30
0.0
 10
8.1964948815
 20
6.8336067433
 30
0.0
 10
8.2003522561
 20
6.8271881579
 30
0.0
 10
8.2042963878
 20
6.8213241479
 30
0.0
 10
8.2070619931
 20
6.8176820272
 30
0.0
 10
8.2084606058
 20
6.8159623722
 30
0.0
  0
SPLINE
  5
30A
100
AcDbEntity
  8
0
100
AcDbSpline
 62
7
  6
CONTINUOUS
 70
0
 71
3
 72
27
 73
23
 74
0
 42
0.0000001
 43
0.0000001
 44
0.0000000001
 40
0.0
 40
0.0
 40
0.0
 40
0.0
 40
0.0620093166
 40
0.0929795435
 40
0.1239296728
 40
0.1857786124
 40
0.2476020705
 40
0.2785206067
 40
0.3094469608
 40
0.3713327698
 40
0.4333059218
 40
0.4954023546
 40
0.5576559997
 40
0.620098112
 40
0.6827566605
 40
0.7141793346
 40
0.7456647762
 40
0.808824266
 40
0.8722591673
 40
0.9040872338
 40
0.9359886739
 40
1.0
 40
1.0
 40
1.0
 40
1.0
 10
11.7551809963
 20
8.6624976024
 30
0.0
 10
11.7515412577
 20
8.6565868449
 30
0.0
 10
11.7457820378
 20
8.6479043709
 30
0.0
 10
11.7375330179
 20
8.6367477821
 30
0.0
 10
11.7289195892
 20
8.6258922987
 30
0.0
 10
11.7174712257
 20
8.6128911303
 30
0.0
 10
11.705160351
 20
8.6007082713
 30
0.0
 10
11.6948290592
 20
8.5914896585
 30
0.0
 10
11.6841810431
 20
8.5826279368
 30
0.0
 10
11.6702953785
 20
8.5722386355
 30
0.0
 10
11.6527937008
 20
8.5609386882
 30
0.0
 10
11.6345183218
 20
8.5508518741
 30
0.0
 10
11.6155446665
 20
8.5420242923
 30
0.0
 10
11.5959519834
 20
8.5344964214
 30
0.0
 10
11.5791908614
 20
8.5293396223
 30
0.0
 10
11.565560734
 20
8.5258950576
 30
0.0
 10
11.5517669069
 20
8.5229021031
 30
0.0
 10
11.5342913008
 20
8.5200289648
 30
0.0
 10
11.5166245507
 20
8.5183299606
 30
0.0
 10
11.5024020648
 20
8.517674801
 30
0.0
 10
11.4881016599
 20
8.5174900796
 30
0.0
 10
11.4773619026
 20
8.5178835582
 30
0.0
 10
11.470213437
 20
8.518379306
 30
0.0
  0
SPLINE
  5
30B
100
AcDbEntity
  8
0
100
AcDbSpline
 62
7
  6
CONTINUOUS
 70
0
 71
3
 72
40
 73
36
 74
0
 42
0.0000001
 43
0.0000001
 44
0.0000000001
 40
0.0
 40
0.0
 40
0.0
 40
0.0
 40
0.0299422973
 40
0.0449240327
 40
0.059914866
 40
0.089929696
 40
0.1200152967
 40
0.1501925739
 40
0.180480241
 40
0.2108943975
 40
0.2414481839
 40
0.2721515165
 40
0.3030109074
 40
0.3340293686
 40
0.3652063985
 40
0.3965380456
 40
0.4280170434
 40
0.4596330122
 40
0.4913727167
 40
0.5232203738
 40
0.5551580001
 40
0.587165795
 40
0.6192225506
 40
0.6513060818
 40
0.6833936709
 40
0.7154625181
 40
0.7474901959
 40
0.7794550985
 40
0.8113368727
 40
0.8431168595
 40
0.8747783985
 40
0.906307485
 40
0.9376922173
 40
0.9689252845
 40
1.0
 40
1.0
 40
1.0
 40
1.0
 10
11.5678261061
 20
6.5794641005
 30
0.0
 10
11.5654952599
 20
6.5772126562
 30
0.0
 10
11.5618616478
 20
6.57397186
 30
0.0
 10
11.5567727847
 20
6.5699507824
 30
0.0
 10
11.5515219214
 20
6.5661297737
 30
0.0
 10
11.5446701558
 20
6.5617419425
 30
0.0
 10
11.5360432993
 20
6.5571334581
 30
0.0
 10
11.5270543149
 20
6.5532039206
 30
0.0
 10
11.5177530696
 20
6.5499751072
 30
0.0
 10
11.5081907505
 20
6.5474646344
 30
0.0
 10
11.4984200579
 20
6.5456862207
 30
0.0
 10
11.4884947823
 20
6.5446495224
 30
0.0
 10
11.4784695414
 20
6.5443601146
 30
0.0
 10
11.4683994713
 20
6.5448194604
 30
0.0
 10
11.4583399268
 20
6.5460249113
 30
0.0
 10
11.4483461803
 20
6.547969728
 30
0.0
 10
11.4384731211
 20
6.5506431172
 30
0.0
 10
11.4287749562
 20
6.554030294
 30
0.0
 10
11.4193049177
 20
6.5581125713
 30
0.0
 10
11.4101149753
 20
6.5628674622
 30
0.0
 10
11.4012555548
 20
6.5682688045
 30
0.0
 10
11.3927752659
 20
6.5742869041
 30
0.0
 10
11.3847206387
 20
6.5808886969
 30
0.0
 10
11.3771358718
 20
6.5880379288
 30
0.0
 10
11.3700625926
 20
6.595695353
 30
0.0
 10
11.3635396319
 20
6.6038189433
 30
0.0
 10
11.3576028076
 20
6.6123641188
 30
0.0
 10
11.3522847333
 20
6.6212839891
 30
0.0
 10
11.3476146358
 20
6.6305296106
 30
0.0
 10
11.3436182175
 20
6.6400502457
 30
0.0
 10
11.3403174569
 20
6.6497936669
 30
0.0
 10
11.3377306243
 20
6.6597063183
 30
0.0
 10
11.3358719061
 20
6.6697340376
 30
0.0
 10
11.3347517774
 20
6.6798209439
 30
0.0
 10
11.3345008611
 20
6.6865671018
 30
0.0
 10
11.3345008611
 20
6.6899303185
 30
0.0
  0
SPLINE
  5
30C
100
AcDbEntity
  8
0
100
AcDbSpline
 62
7
  6
CONTINUOUS
 70
0
 71
3
 72
25
 73
21
 74
0
 42
0.0000001
 43
0.0000001
 44
0.0000000001
 40
0.0
 40
0.0
 40
0.0
 40
0.0
 40
0.0624814453
 40
0.0936533997
 40
0.1247812345
 40
0.1869108778
 40
0.2489165568
 40
0.2798910126
 40
0.3108500591
 40
0.3727334703
 40
0.4346258921
 40
0.4965776226
 40
0.5586401833
 40
0.620864837
 40
0.6833008633
 40
0.7459936632
 40
0.8089827599
 40
0.8723002447
 40
0.9359680196
 40
1.0
 40
1.0
 40
1.0
 40
1.0
 10
10.5716627372
 20
8.7798007655
 30
0.0
 10
10.568671294
 20
8.7721730783
 30
0.0
 10
10.5637872408
 20
8.760890526
 30
0.0
 10
10.5564947654
 20
8.7462397921
 30
0.0
 10
10.5487035234
 20
8.7318998469
 30
0.0
 10
10.5380167548
 20
8.7145475909
 30
0.0
 10
10.5260882844
 20
8.6980477893
 30
0.0
 10
10.5158344724
 20
8.6854338344
 30
0.0
 10
10.5051186487
 20
8.6732314146
 30
0.0
 10
10.4908575315
 20
8.6587666351
 30
0.0
 10
10.4724344477
 20
8.6427992629
 30
0.0
 10
10.4527782623
 20
8.62833472
 30
0.0
 10
10.4319794333
 20
8.6154834282
 30
0.0
 10
10.4101409178
 20
8.6043491416
 30
0.0
 10
10.387379359
 20
8.5950276393
 30
0.0
 10
10.3638245143
 20
8.5876038983
 30
0.0
 10
10.3396187142
 20
8.5821494521
 30
0.0
 10
10.3149145102
 20
8.5787201248
 30
0.0
 10
10.2898757898
 20
8.5773533988
 30
0.0
 10
10.2731145799
 20
8.5778286296
 30
0.0
 10
10.2647380634
 20
8.5784095429
 30
0.0
  0
SPLINE
  5
30D
100
AcDbEntity
  8
0
100
AcDbSpline
 62
7
  6
CONTINUOUS
 70
0
 71
3
 72
39
 73
35
 74
0
 42
0.0000001
 43
0.0000001
 44
0.0000000001
 40
0.0
 40
0.0
 40
0.0
 40
0.0
 40
0.0299424796
 40
0.0599093277
 40
0.0899243268
 40
0.1200100989
 40
0.1501875564
 40
0.1804754082
 40
0.2108897438
 40
0.2414437065
 40
0.2721472214
 40
0.3030068034
 40
0.334025452
 40
0.3652026597
 40
0.3965344836
 40
0.4280136674
 40
0.4596298279
 40
0.4913697183
 40
0.5232175588
 40
0.5551553757
 40
0.587163368
 40
0.6192203146
 40
0.6513040285
 40
0.6833918015
 40
0.7154608406
 40
0.7474887097
 40
0.7794537919
 40
0.8113357643
 40
0.8431159187
 40
0.8747776681
 40
0.9063070433
 40
0.9376914486
 40
0.9689258945
 40
1.0
 40
1.0
 40
1.0
 40
1.0
 10
12.5357284284
 20
9.273362997
 30
0.0
 10
12.5344344352
 20
9.272113085
 30
0.0
 10
12.5317447152
 20
9.2697141155
 30
0.0
 10
12.5274353374
 20
9.2664459648
 30
0.0
 10
12.5228732232
 20
9.2635244336
 30
0.0
 10
12.5180838553
 20
9.2609659151
 30
0.0
 10
12.5130935578
 20
9.2587843992
 30
0.0
 10
12.5079298666
 20
9.2569918983
 30
0.0
 10
12.5026212491
 20
9.2555981925
 30
0.0
 10
12.4971969517
 20
9.2546108835
 30
0.0
 10
12.491686836
 20
9.2540353377
 30
0.0
 10
12.4861212211
 20
9.2538746775
 30
0.0
 10
12.4805307209
 20
9.2541297057
 30
0.0
 10
12.4749460652
 20
9.2547989288
 30
0.0
 10
12.4693979355
 20
9.2558786032
 30
0.0
 10
12.4639168043
 20
9.2573627512
 30
0.0
 10
12.4585327736
 20
9.2592431871
 30
0.0
 10
12.4532753894
 20
9.2615095103
 30
0.0
 10
12.4481734986
 20
9.2641492309
 30
0.0
 10
12.4432550948
 20
9.2671478293
 30
0.0
 10
12.4385471788
 20
9.2704888422
 30
0.0
 10
12.4340755819
 20
9.2741539069
 30
0.0
 10
12.429864827
 20
9.2781228784
 30
0.0
 10
12.4259380198
 20
9.2823739686
 30
0.0
 10
12.4223167238
 20
9.2868838547
 30
0.0
 10
12.4190208448
 20
9.291627801
 30
0.0
 10
12.4160684665
 20
9.2965797591
 30
0.0
 10
12.4134758132
 20
9.3017125563
 30
0.0
 10
12.4112571444
 20
9.3069980262
 30
0.0
 10
12.4094246911
 20
9.3124071915
 30
0.0
 10
12.4079886236
 20
9.3179102847
 30
0.0
 10
12.4069566942
 20
9.3234773142
 30
0.0
 10
12.406334891
 20
9.3290771605
 30
0.0
 10
12.4061955626
 20
9.33282238
 30
0.0
 10
12.4061955626
 20
9.3346894559
 30
0.0
  0
SPLINE
  5
30E
100
AcDbEntity
  8
0
100
AcDbSpline
 62
7
  6
CONTINUOUS
 70
0
 71
3
 72
39
 73
35
 74
0
 42
0.0000001
 43
0.0000001
 44
0.0000000001
 40
0.0
 40
0.0
 40
0.0
 40
0.0
 40
0.0299424796
 40
0.0599093277
 40
0.0899243268
 40
0.1200100989
 40
0.1501875564
 40
0.1804754082
 40
0.2108897438
 40
0.2414437065
 40
0.2721472214
 40
0.3030068034
 40
0.334025452
 40
0.3652026597
 40
0.3965344836
 40
0.4280136674
 40
0.4596298279
 40
0.4913697183
 40
0.5232175588
 40
0.5551553757
 40
0.587163368
 40
0.6192203146
 40
0.6513040285
 40
0.6833918015
 40
0.7154608406
 40
0.7474887097
 40
0.7794537919
 40
0.8113357643
 40
0.8431159187
 40
0.8747776681
 40
0.9063070433
 40
0.9376914486
 40
0.9689258945
 40
1.0
 40
1.0
 40
1.0
 40
1.0
 10
10.3189286823
 20
6.7688704598
 30
0.0
 10
10.3176346891
 20
6.7676205479
 30
0.0
 10
10.3149449692
 20
6.7652215783
 30
0.0
 10
10.3106355913
 20
6.7619534276
 30
0.0
 10
10.3060734771
 20
6.7590318964
 30
0.0
 10
10.3012841092
 20
6.7564733779
 30
0.0
 10
10.2962938117
 20
6.754291862
 30
0.0
 10
10.2911301205
 20
6.7524993611
 30
0.0
 10
10.285821503
 20
6.7511056553
 30
0.0
 10
10.2803972056
 20
6.7501183463
 30
0.0
 10
10.2748870899
 20
6.7495428005
 30
0.0
 10
10.269321475
 20
6.7493821404
 30
0.0
 10
10.2637309748
 20
6.7496371685
 30
0.0
 10
10.2581463191
 20
6.7503063916
 30
0.0
 10
10.2525981894
 20
6.751386066
 30
0.0
 10
10.2471170582
 20
6.752870214
 30
0.0
 10
10.2417330275
 20
6.75475065
 30
0.0
 10
10.2364756433
 20
6.7570169731
 30
0.0
 10
10.2313737525
 20
6.7596566938
 30
0.0
 10
10.2264553487
 20
6.7626552921
 30
0.0
 10
10.2217474327
 20
6.765996305
 30
0.0
 10
10.2172758359
 20
6.7696613697
 30
0.0
 10
10.2130650809
 20
6.7736303412
 30
0.0
 10
10.2091382737
 20
6.7778814314
 30
0.0
 10
10.2055169777
 20
6.7823913176
 30
0.0
 10
10.2022210987
 20
6.7871352638
 30
0.0
 10
10.1992687204
 20
6.7920872219
 30
0.0
 10
10.1966760671
 20
6.7972200192
 30
0.0
 10
10.1944573983
 20
6.802505489
 30
0.0
 10
10.192624945
 20
6.8079146543
 30
0.0
 10
10.1911888775
 20
6.8134177475
 30
0.0
 10
10.1901569481
 20
6.818984777
 30
0.0
 10
10.1895351449
 20
6.8245846234
 30
0.0
 10
10.1893958165
 20
6.8283298429
 30
0.0
 10
10.1893958165
 20
6.8301969188
 30
0.0
  0
SPLINE
  5
30F
100
AcDbEntity
  8
0
100
AcDbSpline
 62
7
  6
CONTINUOUS
 70
0
 71
3
 72
53
 73
49
 74
0
 42
0.0000001
 43
0.0000001
 44
0.0000000001
 40
0.0
 40
0.0
 40
0.0
 40
0.0
 40
0.0417740478
 40
0.0840369835
 40
0.1266585592
 40
0.1695065657
 40
0.2124481957
 40
0.2553501644
 40
0.2980793779
 40
0.3405034127
 40
0.3824910553
 40
0.4239128269
 40
0.4646415185
 40
0.5045527309
 40
0.5435254266
 40
0.5814424966
 40
0.6181913512
 40
0.6536645436
 40
0.6877604426
 40
0.7203839756
 40
0.7361162401
 40
0.7514482063
 40
0.7663702194
 40
0.7808732533
 40
0.7949489098
 40
0.808589482
 40
0.8217880323
 40
0.8345384043
 40
0.8468353889
 40
0.8586746951
 40
0.8700532057
 40
0.8809689358
 40
0.8914213732
 40
0.9014114696
 40
0.9109420597
 40
0.9200179488
 40
0.9286464106
 40
0.9368374402
 40
0.9446043453
 40
0.9519642202
 40
0.9589386335
 40
0.9655543067
 40
0.9718438059
 40
0.9778461959
 40
0.9836073668
 40
0.9891800504
 40
0.9946230772
 40
1.0
 40
1.0
 40
1.0
 40
1.0
 10
14.5950167302
 20
8.6837801803
 30
0.0
 10
14.5950167302
 20
8.6691912762
 30
0.0
 10
14.5947891282
 20
8.6398422731
 30
0.0
 10
14.5937829376
 20
8.595618749
 30
0.0
 10
14.5921129116
 20
8.5510399176
 30
0.0
 10
14.5897845209
 20
8.5062533315
 30
0.0
 10
14.5868054623
 20
8.4614071789
 30
0.0
 10
14.5831855819
 20
8.4166498181
 30
0.0
 10
14.5789368715
 20
8.3721293275
 30
0.0
 10
14.5740734154
 20
8.3279929908
 30
0.0
 10
14.5686113497
 20
8.2843868141
 30
0.0
 10
14.5625688074
 20
8.2414550362
 30
0.0
 10
14.5559658601
 20
8.1993396481
 30
0.0
 10
14.5488244529
 20
8.1581799167
 30
0.0
 10
14.5411683327
 20
8.1181119193
 30
0.0
 10
14.5330229725
 20
8.0792680763
 30
0.0
 10
14.524415485
 20
8.0417767298
 30
0.0
 10
14.5153745473
 20
8.0057616012
 30
0.0
 10
14.5059302591
 20
7.9713417198
 30
0.0
 10
14.4976532508
 20
7.9437585966
 30
0.0
 10
14.4908400691
 20
7.9225852855
 30
0.0
 10
14.4857109724
 20
7.9073658317
 30
0.0
 10
14.4805050698
 20
7.8926269757
 30
0.0
 10
14.4752266606
 20
7.8783808661
 30
0.0
 10
14.4698801225
 20
7.8646392597
 30
0.0
 10
14.4644698754
 20
7.8514134854
 30
0.0
 10
14.459000423
 20
7.8387144324
 30
0.0
 10
14.4534762528
 20
7.8265525583
 30
0.0
 10
14.447901983
 20
7.8149378436
 30
0.0
 10
14.4422821468
 20
7.8038798362
 30
0.0
 10
14.4366214489
 20
7.7933875659
 30
0.0
 10
14.430924446
 20
7.7834696337
 30
0.0
 10
14.4251958865
 20
7.7741340813
 30
0.0
 10
14.4194403239
 20
7.7653885274
 30
0.0
 10
14.4136624866
 20
7.7572399988
 30
0.0
 10
14.4078668817
 20
7.7496951049
 30
0.0
 10
14.4020581286
 20
7.742759857
 30
0.0
 10
14.3962406174
 20
7.7364398592
 30
0.0
 10
14.3904187442
 20
7.7307401684
 30
0.0
 10
14.3845966893
 20
7.7256654715
 30
0.0
 10
14.3787785302
 20
7.7212200656
 30
0.0
 10
14.3729682105
 20
7.7174079757
 30
0.0
 10
14.3671695981
 20
7.7142331287
 30
0.0
 10
14.3613867032
 20
7.711699291
 30
0.0
 10
14.3556239225
 20
7.7098103628
 30
0.0
 10
14.3498860661
 20
7.7085698544
 30
0.0
 10
14.3441800519
 20
7.7079809326
 30
0.0
 10
14.3403917456
 20
7.7080241581
 30
0.0
 10
14.3385184425
 20
7.7081540725
 30
0.0
  0
SPLINE
  5
310
100
AcDbEntity
  8
0
100
AcDbSpline
 62
4
  6
CONTINUOUS
 70
0
 71
3
 72
69
 73
65
 74
0
 42
0.0000001
 43
0.0000001
 44
0.0000000001
 40
0.0
 40
0.0
 40
0.0
 40
0.0
 40
0.03125
 40
0.046875
 40
0.0625
 40
0.078125
 40
0.09375
 40
0.109375
 40
0.125
 40
0.140625
 40
0.15625
 40
0.171875
 40
0.1875
 40
0.203125
 40
0.21875
 40
0.234375
 40
0.25
 40
0.265625
 40
0.28125
 40
0.296875
 40
0.3125
 40
0.328125
 40
0.34375
 40
0.359375
 40
0.375
 40
0.390625
 40
0.40625
 40
0.421875
 40
0.4375
 40
0.453125
 40
0.46875
 40
0.484375
 40
0.5
 40
0.515625
 40
0.53125
 40
0.546875
 40
0.5625
 40
0.578125
 40
0.59375
 40
0.609375
 40
0.625
 40
0.640625
 40
0.65625
 40
0.671875
 40
0.6875
 40
0.703125
 40
0.71875
 40
0.734375
 40
0.75
 40
0.765625
 40
0.78125
 40
0.796875
 40
0.8125
 40
0.828125
 40
0.84375
 40
0.859375
 40
0.875
 40
0.890625
 40
0.90625
 40
0.921875
 40
0.9375
 40
0.953125
 40
0.96875
 40
1.0
 40
1.0
 40
1.0
 40
1.0
 10
9.5683054006
 20
9.5266681777
 30
0.0
 10
9.5684617473
 20
9.526672665
 30
0.0
 10
9.568696678
 20
9.5266773039
 30
0.0
 10
9.569008276
 20
9.5266918569
 30
0.0
 10
9.5692460819
 20
9.526681852
 30
0.0
 10
9.5694682798
 20
9.5267513422
 30
0.0
 10
9.5696952054
 20
9.5267981721
 30
0.0
 10
9.5699188279
 20
9.5268561477
 30
0.0
 10
9.5701509354
 20
9.5268922011
 30
0.0
 10
9.5703524062
 20
9.5270047975
 30
0.0
 10
9.5705627867
 20
9.5270955542
 30
0.0
 10
9.5707681652
 20
9.5271971271
 30
0.0
 10
9.5709846418
 20
9.5272772747
 30
0.0
 10
9.5711617278
 20
9.527432307
 30
0.0
 10
9.5713504888
 20
9.5275662588
 30
0.0
 10
9.5715319402
 20
9.5277096481
 30
0.0
 10
9.5717309549
 20
9.5278363679
 30
0.0
 10
9.5718670261
 20
9.528020328
 30
0.0
 10
9.5720211517
 20
9.5281880741
 30
0.0
 10
9.572166003
 20
9.5283634361
 30
0.0
 10
9.5723298972
 20
9.5285245486
 30
0.0
 10
9.5724268941
 20
9.5287350429
 30
0.0
 10
9.5725431365
 20
9.5289316651
 30
0.0
 10
9.5726492943
 20
9.529134394
 30
0.0
 10
9.572776545
 20
9.5293265682
 30
0.0
 10
9.5728295085
 20
9.5295548544
 30
0.0
 10
9.5729037788
 20
9.5297729563
 30
0.0
 10
9.5729671091
 20
9.5299956831
 30
0.0
 10
9.5730528926
 20
9.5302100947
 30
0.0
 10
9.573059803
 20
9.5304531425
 30
0.0
 10
9.5730893025
 20
9.5306885455
 30
0.0
 10
9.5731073185
 20
9.5309258912
 30
0.0
 10
9.5731486794
 20
9.5311631112
 30
0.0
 10
9.5731081441
 20
9.5313988913
 30
0.0
 10
9.573090955
 20
9.531635239
 30
0.0
 10
9.5730622775
 20
9.531870756
 30
0.0
 10
9.5730562073
 20
9.5321090285
 30
0.0
 10
9.572971196
 20
9.5323371097
 30
0.0
 10
9.5729086586
 20
9.5325683756
 30
0.0
 10
9.5728351668
 20
9.5327970939
 30
0.0
 10
9.5727830188
 20
9.5330328181
 30
0.0
 10
9.5726564498
 20
9.5332430664
 30
0.0
 10
9.5725511034
 20
9.5334607527
 30
0.0
 10
9.5724352874
 20
9.5336741631
 30
0.0
 10
9.572340127
 20
9.5338972391
 30
0.0
 10
9.5721728137
 20
9.5340859283
 30
0.0
 10
9.5720257713
 20
9.5342848867
 30
0.0
 10
9.5718697984
 20
9.5344771549
 30
0.0
 10
9.5717292768
 20
9.5346859148
 30
0.0
 10
9.5715358801
 20
9.5348353981
 30
0.0
 10
9.5713574454
 20
9.5350018982
 30
0.0
 10
9.571172038
 20
9.5351596075
 30
0.0
 10
9.5709995593
 20
9.5353354632
 30
0.0
 10
9.5707823383
 20
9.5354475244
 30
0.0
 10
9.5705776547
 20
9.5355779616
 30
0.0
 10
9.5703675637
 20
9.5356986894
 30
0.0
 10
9.5701665646
 20
9.535839879
 30
0.0
 10
9.5699346054
 20
9.535908931
 30
0.0
 10
9.5697113529
 20
9.5359986759
 30
0.0
 10
9.5694842338
 20
9.5360777868
 30
0.0
 10
9.5692638743
 20
9.5361787407
 30
0.0
 10
9.569020343
 20
9.5362029568
 30
0.0
 10
9.568703765
 20
9.5362621704
 30
0.0
 10
9.5684645022
 20
9.5363005223
 30
0.0
 10
9.5683054002
 20
9.5363274366
 30
0.0
  0
SPLINE
  5
311
100
AcDbEntity
  8
0
100
AcDbSpline
 62
4
  6
CONTINUOUS
 70
0
 71
3
 72
69
 73
65
 74
0
 42
0.0000001
 43
0.0000001
 44
0.0000000001
 40
0.0
 40
0.0
 40
0.0
 40
0.0
 40
0.03125
 40
0.046875
 40
0.0625
 40
0.078125
 40
0.09375
 40
0.109375
 40
0.125
 40
0.140625
 40
0.15625
 40
0.171875
 40
0.1875
 40
0.203125
 40
0.21875
 40
0.234375
 40
0.25
 40
0.265625
 40
0.28125
 40
0.296875
 40
0.3125
 40
0.328125
 40
0.34375
 40
0.359375
 40
0.375
 40
0.390625
 40
0.40625
 40
0.421875
 40
0.4375
 40
0.453125
 40
0.46875
 40
0.484375
 40
0.5
 40
0.515625
 40
0.53125
 40
0.546875
 40
0.5625
 40
0.578125
 40
0.59375
 40
0.609375
 40
0.625
 40
0.640625
 40
0.65625
 40
0.671875
 40
0.6875
 40
0.703125
 40
0.71875
 40
0.734375
 40
0.75
 40
0.765625
 40
0.78125
 40
0.796875
 40
0.8125
 40
0.828125
 40
0.84375
 40
0.859375
 40
0.875
 40
0.890625
 40
0.90625
 40
0.921875
 40
0.9375
 40
0.953125
 40
0.96875
 40
1.0
 40
1.0
 40
1.0
 40
1.0
 10
9.5683054006
 20
9.5363274366
 30
0.0
 10
9.5681490539
 20
9.5363229493
 30
0.0
 10
9.5679141232
 20
9.5363183104
 30
0.0
 10
9.5676025252
 20
9.5363037573
 30
0.0
 10
9.5673647193
 20
9.5363137623
 30
0.0
 10
9.5671425214
 20
9.5362442721
 30
0.0
 10
9.5669155957
 20
9.5361974421
 30
0.0
 10
9.5666919732
 20
9.5361394666
 30
0.0
 10
9.5664598658
 20
9.5361034132
 30
0.0
 10
9.566258395
 20
9.5359908167
 30
0.0
 10
9.5660480145
 20
9.5359000601
 30
0.0
 10
9.565842636
 20
9.5357984872
 30
0.0
 10
9.5656261594
 20
9.5357183396
 30
0.0
 10
9.5654490734
 20
9.5355633072
 30
0.0
 10
9.5652603124
 20
9.5354293555
 30
0.0
 10
9.565078861
 20
9.5352859662
 30
0.0
 10
9.5648798463
 20
9.5351592464
 30
0.0
 10
9.5647437751
 20
9.5349752862
 30
0.0
 10
9.5645896495
 20
9.5348075402
 30
0.0
 10
9.5644447982
 20
9.5346321782
 30
0.0
 10
9.564280904
 20
9.5344710657
 30
0.0
 10
9.5641839071
 20
9.5342605714
 30
0.0
 10
9.5640676647
 20
9.5340639492
 30
0.0
 10
9.5639615069
 20
9.5338612203
 30
0.0
 10
9.5638342562
 20
9.5336690461
 30
0.0
 10
9.5637812927
 20
9.5334407599
 30
0.0
 10
9.5637070224
 20
9.533222658
 30
0.0
 10
9.5636436921
 20
9.5329999311
 30
0.0
 10
9.5635579086
 20
9.5327855196
 30
0.0
 10
9.5635509982
 20
9.5325424718
 30
0.0
 10
9.5635214987
 20
9.5323070687
 30
0.0
 10
9.5635034827
 20
9.5320697231
 30
0.0
 10
9.5634621218
 20
9.5318325031
 30
0.0
 10
9.5635026571
 20
9.531596723
 30
0.0
 10
9.5635198462
 20
9.5313603752
 30
0.0
 10
9.5635485237
 20
9.5311248583
 30
0.0
 10
9.5635545939
 20
9.5308865858
 30
0.0
 10
9.5636396052
 20
9.5306585046
 30
0.0
 10
9.5637021426
 20
9.5304272386
 30
0.0
 10
9.5637756344
 20
9.5301985203
 30
0.0
 10
9.5638277824
 20
9.5299627962
 30
0.0
 10
9.5639543514
 20
9.5297525478
 30
0.0
 10
9.5640596978
 20
9.5295348616
 30
0.0
 10
9.5641755138
 20
9.5293214512
 30
0.0
 10
9.5642706742
 20
9.5290983751
 30
0.0
 10
9.5644379875
 20
9.528909686
 30
0.0
 10
9.5645850298
 20
9.5287107275
 30
0.0
 10
9.5647410028
 20
9.5285184594
 30
0.0
 10
9.5648815244
 20
9.5283096995
 30
0.0
 10
9.5650749211
 20
9.5281602162
 30
0.0
 10
9.5652533558
 20
9.5279937161
 30
0.0
 10
9.5654387632
 20
9.5278360067
 30
0.0
 10
9.5656112419
 20
9.5276601511
 30
0.0
 10
9.5658284629
 20
9.5275480898
 30
0.0
 10
9.5660331465
 20
9.5274176526
 30
0.0
 10
9.5662432375
 20
9.5272969248
 30
0.0
 10
9.5664442366
 20
9.5271557353
 30
0.0
 10
9.5666761958
 20
9.5270866833
 30
0.0
 10
9.5668994483
 20
9.5269969384
 30
0.0
 10
9.5671265674
 20
9.5269178274
 30
0.0
 10
9.5673469269
 20
9.5268168735
 30
0.0
 10
9.5675904582
 20
9.5267926575
 30
0.0
 10
9.5679070362
 20
9.5267334439
 30
0.0
 10
9.568146299
 20
9.5266950919
 30
0.0
 10
9.568305401
 20
9.5266681777
 30
0.0
  0
ENDSEC
  0
SECTION
  2
OBJECTS
  0
DICTIONARY
  5
C
100
AcDbDictionary
280
0
281
1
  3
ACAD_GROUP
350
D
  3
ACAD_MLINESTYLE
350
17
  3
ACAD_LAYOUT
350
1A
  3
ACAD_PLOTSETTINGS
350
19
  3
ACAD_PLOTSTYLENAME
350
E
  3
ACAD_IMAGE_DICT
350
       313
  3
ACAD_IMAGE_VARS
350
       314
  3
ACAD_TABLESTYLE
350
       315
  0
IMAGEDEF_REACTOR
  5
312
100
AcDbRasterImageDefReactor
 90
2
330
278
  0
DICTIONARY
  5
D
102
{ACAD_REACTORS
330
C
102
}
100
AcDbDictionary
280
0
281
1
  0
ACDBDICTIONARYWDFLT
  5
E
102
{ACAD_REACTORS
330
C
102
}
100
AcDbDictionary
281
1
  3
Normal
350
F
100
AcDbDictionaryWithDefault
340
F
  0
DICTIONARY
  5
313
330
C
100
AcDbDictionary
281
1
  3
CK4_assy_2_img_1
350
       318
  0
RASTERVARIABLES
  5
314
330
C
100
AcDbRasterVariables
 90
0
 70
0
 71
1
 72
5
  0
DICTIONARY
  5
17
102
{ACAD_REACTORS
330
C
102
}
100
AcDbDictionary
280
0
281
1
  3
Standard
350
18
  0
DICTIONARY
  5
315
330
C
100
AcDbDictionary
281
1
  3
Standard
350
       319
  3
Standard1
350
       31A
  0
DICTIONARY
  5
19
102
{ACAD_REACTORS
330
C
102
}
100
AcDbDictionary
281
1
  0
DICTIONARY
  5
1A
102
{ACAD_REACTORS
330
C
102
}
100
AcDbDictionary
281
1
  3
Model
350
316
  3
Layout1
350
317
  0
ACDBPLACEHOLDER
  5
F
102
{ACAD_REACTORS
330
E
102
}
  0
MLINESTYLE
  5
18
102
{ACAD_REACTORS
330
17
102
}
100
AcDbMlineStyle
  2
STANDARD
 70
0
  3

 62
256
 51
90.0
 52
90.0
 71
2
 49
0.5
 62
256
  6
BYLAYER
 49
-0.5
 62
256
  6
BYLAYER
  0
LAYOUT
  5
316
102
{ACAD_REACTORS
330
1A
102
}
100
AcDbPlotSettings
  1

  2
none_device
  4
ANSI_C_(22.00_x_17.00_Inches)
  6

 40
0.0
 41
0.0
 42
0.0
 43
0.0
 44
558.8
 45
431.8
 46
0.0
 47
0.0
 48
0.0
 49
0.0
140
0.0
141
0.0
142
1.0
143
1.0
 70
1024
 72
0
 73
0
 74
0
  7

 75
0
147
1.0
148
0.0
149
0.0
100
AcDbLayout
  1
Model
 70
0
 71
0
 10
0.0
 20
0.0
 11
22.0
 21
17.0
 12
0.0
 22
0.0
 32
0.0
 14
0.0
 24
0.0
 34
0.0
 15
0.0
 25
0.0
 35
0.0
146
0.0
 13
0.0
 23
0.0
 33
0.0
 16
1.0
 26
0.0
 36
0.0
 17
0.0
 27
1.0
 37
0.0
 76
0
330
20F
345
0
346
0
  0
LAYOUT
  5
317
102
{ACAD_REACTORS
330
1A
102
}
100
AcDbPlotSettings
  1

  2
none_device
  4
ANSI_C_(22.00_x_17.00_Inches)
  6

 40
0.0
 41
0.0
 42
0.0
 43
0.0
 44
558.8
 45
431.8
 46
0.0
 47
0.0
 48
0.0
 49
0.0
140
0.0
141
0.0
142
1.0
143
1.0
 70
0
 72
0
 73
0
 74
0
  7

 75
0
147
1.0
148
0.0
149
0.0
100
AcDbLayout
  1
Layout1
 70
0
 71
1
 10
0.0
 20
0.0
 11
22.0
 21
17.0
 12
0.0
 22
0.0
 32
0.0
 14
0.0
 24
0.0
 34
0.0
 15
0.0
 25
0.0
 35
0.0
146
0.0
 13
0.0
 23
0.0
 33
0.0
 16
1.0
 26
0.0
 36
0.0
 17
0.0
 27
1.0
 37
0.0
 76
0
330
210
345
0
346
0
  0
IMAGEDEF
  5
318
102
{ACAD_REACTORS
330
313
330
312
102
}
100
AcDbRasterImageDef
 90
0
  1
CK4_assy_2_img_1.png
 10
369.0
 20
92.0
 11
0.0066666667
 21
0.0066666667
280
1
281
0
  0
TABLESTYLE
  5
319
102
{ACAD_REACTORS
330
315
330
27B
102
}
330
315
100
AcDbTableStyle
  3
Standard
 70
0
 71
0
 40
0.06
 41
0.06
280
1
281
1
  7
Standard
140
0.18
170
1
 62
0
 63
7
283
0
  7
Standard
140
0.18
170
1
 62
0
 63
7
283
0
  7
Standard
140
0.18
170
1
 62
0
 63
7
283
0
  0
TABLESTYLE
  5
31A
102
{ACAD_REACTORS
330
315
330
27A
102
}
330
315
100
AcDbTableStyle
  3
Standard1
 70
1
 71
0
 40
0.06
 41
0.06
280
1
281
1
  7
Standard
140
0.18
170
1
 62
0
 63
7
283
0
  7
Standard
140
0.18
170
1
 62
0
 63
7
283
0
  7
Standard
140
0.18
170
1
 62
0
 63
7
283
0
  0
ENDSEC
  0
EOF
