999
DXF file: CJ5_assy_2.dxf
999
Pro/ENGINEER 2014200 by Parametric Technology Corporation
  0
SECTION
  2
HEADER
  9
$ACADVER
  1
AC1021
  9
$DWGCODEPAGE
  3
ANSI_1252
  9
$EXTMAX
 10
22.0
 20
17.0
 30
0.0
  9
$EXTMIN
 10
0.0
 20
0.0
 30
0.0
  9
$LIMMIN
 10
0.0
 20
0.0
  9
$LIMMAX
 10
22.0
 20
17.0
  9
$VIEWCTR
 10
11.0
 20
8.5
  9
$VIEWSIZE
 40
17.0
  9
$CLAYER
  8
0
  9
$LTSCALE
 40
1.21
  9
$CELTYPE
  6
BYLAYER
  9
$DIMSCALE
 40
1.0
  9
$DIMASZ
 40
0.1875
  9
$DIMEXO
 40
0.0625
  9
$DIMDLI
 40
0.836
  9
$DIMEXE
 40
0.125
  9
$DIMCEN
 40
0.198
  9
$DIMLFAC
 40
1.0
  9
$DIMBLK
  1
_FILLED
  9
$DIMTXT
 40
0.1
  9
$DIMTOL
 70
0
  9
$DIMLIM
 70
0
  9
$DIMTFAC
 40
1.0
  9
$DIMGAP
 40
0.09
  9
$DIMDSEP
 70
46
  9
$AUNITS
 70
0
  9
$PDMODE
 70
3
  9
$PDSIZE
 40
0.3125
  9
$HANDSEED
  5
3D2
  9
$TILEMODE
 70
1
  9
$MEASUREMENT
 70
0
  9
$INSUNITS
 70
1
  0
ENDSEC
  0
SECTION
  2
CLASSES
  0
CLASS
  1
ACDBDICTIONARYWDFLT
  2
AcDbDictionaryWithDefault
  3
AutoCAD 2000
 90
0
 91
1
280
0
281
0
  0
CLASS
  1
ACDBPLACEHOLDER
  2
AcDbPlaceHolder
  3
AutoCAD 2000
 90
0
 91
1
280
0
281
0
  0
CLASS
  1
LAYOUT
  2
AcDbLayout
  3
AutoCAD 2000
 90
0
 91
0
280
0
281
0
  0
CLASS
  1
RASTERVARIABLES
  2
AcDbRasterVariables
  3
ISM
 90
0
 91
1
280
0
281
0
  0
CLASS
  1
IMAGEDEF
  2
AcDbRasterImageDef
  3
ISM
 90
0
 91
1
280
0
281
0
  0
CLASS
  1
IMAGEDEF_REACTOR
  2
AcDbRasterImageDefReactor
  3
ISM
 90
0
 91
1
280
0
281
0
  0
CLASS
  1
IMAGE
  2
AcDbRasterImage
  3
ISM
 90
127
 91
1
280
0
281
1
  0
CLASS
  1
TABLESTYLE
  2
AcDbTableStyle
  3
ObjectDBX Classes
 90
2047
 91
1
280
0
281
0
  0
CLASS
  1
ACAD_TABLE
  2
AcDbTable
  3
ObjectDBX Classes
 90
1025
 91
2
280
0
281
1
  0
ENDSEC
  0
SECTION
  2
TABLES
  0
TABLE
  2
VPORT
  5
8
100
AcDbSymbolTable
 70
2
  0
VPORT
  5
1F4
100
AcDbSymbolTableRecord
100
AcDbViewportTableRecord
  2
*ACTIVE
 70
0
 10
0.0
 20
0.0
 11
1.0
 21
1.0
 12
11.0
 22
8.5
 13
0.0
 23
0.0
 14
1.0
 24
1.0
 15
0.0
 25
0.0
 16
0.0
 26
0.0
 36
1.0
 17
0.0
 27
0.0
 37
0.0
 40
17.0
 41
1.2941176471
 42
50.0
 43
0.0
 44
0.0
 50
0.0
 51
0.0
 71
0
 72
100
 73
1
 74
1
 75
0
 76
0
 77
0
 78
0
  0
ENDTAB
  0
TABLE
  2
LTYPE
  5
5
100
AcDbSymbolTable
 70
6
  0
LTYPE
  5
14
100
AcDbSymbolTableRecord
100
AcDbLinetypeTableRecord
  2
BYBLOCK
 70
0
  3

 72
65
 73
0
 40
0.0
  0
LTYPE
  5
15
100
AcDbSymbolTableRecord
100
AcDbLinetypeTableRecord
  2
BYLAYER
 70
0
  3

 72
65
 73
0
 40
0.0
  0
LTYPE
  5
16
100
AcDbSymbolTableRecord
100
AcDbLinetypeTableRecord
  2
CONTINUOUS
 70
64
  3
Solid line
 72
65
 73
0
 40
0.0
  0
LTYPE
  5
1F5
100
AcDbSymbolTableRecord
100
AcDbLinetypeTableRecord
  2
CENTER
 70
64
  3
____ _ ____ _ ____ _ ____ _ ____ _ ____ _ ____
 72
65
 73
4
 40
0.6
 49
0.375
 74
0
 49
-0.075
 74
0
 49
0.075
 74
0
 49
-0.075
 74
0
  0
LTYPE
  5
1F6
100
AcDbSymbolTableRecord
100
AcDbLinetypeTableRecord
  2
HIDDEN
 70
64
  3
- - - - - - - - - - - - - - - - - - - -
 72
65
 73
2
 40
0.2
 49
0.1
 74
0
 49
-0.1
 74
0
  0
LTYPE
  5
1F7
100
AcDbSymbolTableRecord
100
AcDbLinetypeTableRecord
  2
PHANTOM
 70
64
  3
_____ _ _ _____ _ _ _____ _ _ _____
 72
65
 73
6
 40
0.8
 49
0.45
 74
0
 49
-0.05
 74
0
 49
0.1
 74
0
 49
-0.05
 74
0
 49
0.1
 74
0
 49
-0.05
 74
0
  0
LTYPE
  5
1F8
100
AcDbSymbolTableRecord
100
AcDbLinetypeTableRecord
  2
DOT
 70
64
  3
. . . . . . . . . . . . . . . . . . . .
 72
65
 73
2
 40
0.2
 49
0.1
 74
0
 49
-0.1
 74
0
  0
LTYPE
  5
1F9
100
AcDbSymbolTableRecord
100
AcDbLinetypeTableRecord
  2
DASHED
 70
64
  3
- - - - - - - - - - - - - - - - - - - -
 72
65
 73
2
 40
0.2
 49
0.1
 74
0
 49
-0.1
 74
0
  0
ENDTAB
  0
TABLE
  2
LAYER
  5
2
100
AcDbSymbolTable
 70
36
  0
LAYER
  5
10
100
AcDbSymbolTableRecord
100
AcDbLayerTableRecord
  2
0
 70
0
 62
7
  6
CONTINUOUS
370
-3
390
F
  0
LAYER
  5
1FA
100
AcDbSymbolTableRecord
100
AcDbLayerTableRecord
  2
DEFAULT_1
 70
0
 62
7
  6
CENTER
370
-3
390
F
  0
LAYER
  5
1FB
100
AcDbSymbolTableRecord
100
AcDbLayerTableRecord
  2
DEFAULT_2
 70
0
 62
8
  6
HIDDEN
370
-3
390
F
  0
LAYER
  5
1FC
100
AcDbSymbolTableRecord
100
AcDbLayerTableRecord
  2
DEFAULT_3
 70
0
 62
7
  6
PHANTOM
370
-3
390
F
  0
LAYER
  5
1FD
100
AcDbSymbolTableRecord
100
AcDbLayerTableRecord
  2
01___PRT_ALL_DTM_PLN
 70
0
 62
7
  6
CONTINUOUS
370
-3
390
F
  0
LAYER
  5
1FE
100
AcDbSymbolTableRecord
100
AcDbLayerTableRecord
  2
01___PRT_DEF_DTM_PLN
 70
0
 62
7
  6
CONTINUOUS
370
-3
390
F
  0
LAYER
  5
1FF
100
AcDbSymbolTableRecord
100
AcDbLayerTableRecord
  2
02___PRT_ALL_AXES
 70
0
 62
7
  6
CONTINUOUS
370
-3
390
F
  0
LAYER
  5
200
100
AcDbSymbolTableRecord
100
AcDbLayerTableRecord
  2
03___PRT_ALL_CURVES
 70
0
 62
7
  6
CONTINUOUS
370
-3
390
F
  0
LAYER
  5
201
100
AcDbSymbolTableRecord
100
AcDbLayerTableRecord
  2
04___PRT_ALL_DTM_PNT
 70
0
 62
7
  6
CONTINUOUS
370
-3
390
F
  0
LAYER
  5
202
100
AcDbSymbolTableRecord
100
AcDbLayerTableRecord
  2
05___PRT_ALL_DTM_CSYS
 70
0
 62
7
  6
CONTINUOUS
370
-3
390
F
  0
LAYER
  5
203
100
AcDbSymbolTableRecord
100
AcDbLayerTableRecord
  2
05___PRT_DEF_DTM_CSYS
 70
0
 62
7
  6
CONTINUOUS
370
-3
390
F
  0
LAYER
  5
204
100
AcDbSymbolTableRecord
100
AcDbLayerTableRecord
  2
06___PRT_ALL_SURFS
 70
0
 62
7
  6
CONTINUOUS
370
-3
390
F
  0
LAYER
  5
205
100
AcDbSymbolTableRecord
100
AcDbLayerTableRecord
  2
DATUM_PLANES
 70
0
 62
7
  6
CONTINUOUS
370
-3
390
F
  0
LAYER
  5
206
100
AcDbSymbolTableRecord
100
AcDbLayerTableRecord
  2
PORT_AREAS
 70
0
 62
7
  6
CONTINUOUS
370
-3
390
F
  0
LAYER
  5
207
100
AcDbSymbolTableRecord
100
AcDbLayerTableRecord
  2
SUNNBOMCOSMETIC
 70
0
 62
7
  6
CONTINUOUS
370
-3
390
F
  0
LAYER
  5
208
100
AcDbSymbolTableRecord
100
AcDbLayerTableRecord
  2
SUNNBOMSTAMPING
 70
0
 62
7
  6
CONTINUOUS
370
-3
390
F
  0
LAYER
  5
209
100
AcDbSymbolTableRecord
100
AcDbLayerTableRecord
  2
THREADS
 70
0
 62
7
  6
CONTINUOUS
370
-3
390
F
  0
ENDTAB
  0
TABLE
  2
STYLE
  5
3
100
AcDbSymbolTable
 70
1
  0
STYLE
  5
11
100
AcDbSymbolTableRecord
100
AcDbTextStyleTableRecord
  2
STANDARD
 70
0
 40
0.0
 41
0.8
 50
0.0
 71
0
 42
0.2
  3
txt
  4

  0
STYLE
  5
20A
100
AcDbSymbolTableRecord
100
AcDbTextStyleTableRecord
  2
TEXTSTYLE_1
 70
0
 40
0.0
 41
0.8
 50
0.0
 71
0
 42
0.2
  3
gdt
  4

  0
ENDTAB
  0
TABLE
  2
VIEW
  5
6
100
AcDbSymbolTable
 70
0
  0
ENDTAB
  0
TABLE
  2
UCS
  5
7
100
AcDbSymbolTable
 70
0
  0
ENDTAB
  0
TABLE
  2
APPID
  5
9
100
AcDbSymbolTable
 70
1
  0
APPID
  5
20B
100
AcDbSymbolTableRecord
100
AcDbRegAppTableRecord
  2
ACAD
 70
0
  0
ENDTAB
  0
TABLE
  2
BLOCK_RECORD
  5
1
100
AcDbSymbolTable
 70
0
  0
BLOCK_RECORD
  5
20C
100
AcDbSymbolTableRecord
100
AcDbBlockTableRecord
  2
*Model_Space
  0
BLOCK_RECORD
  5
20D
100
AcDbSymbolTableRecord
100
AcDbBlockTableRecord
  2
*Paper_Space
  0
BLOCK_RECORD
  5
20E
100
AcDbSymbolTableRecord
100
AcDbBlockTableRecord
  2
SUN_FIRST_THIRD_ANGLE_BL0
  0
BLOCK_RECORD
  5
20F
100
AcDbSymbolTableRecord
100
AcDbBlockTableRecord
  2
*T1
  0
BLOCK_RECORD
  5
210
100
AcDbSymbolTableRecord
100
AcDbBlockTableRecord
  2
*T2
  0
ENDTAB
  0
TABLE
  2
DIMSTYLE
  5
A
100
AcDbSymbolTable
 70
1
100
AcDbDimStyleTable
 71
0
  0
DIMSTYLE
105
211
100
AcDbSymbolTableRecord
100
AcDbDimStyleTableRecord
  2
STANDARD
 70
0
  3

  4

 40
1.0
 41
0.1875
 42
0.0625
 43
0.38
 44
0.125
 45
0.0
 46
0.0
 47
0.001
 48
0.001
140
0.1
141
0.09
142
0.0
143
25.4
144
1.0
145
0.0
146
1.0
147
0.09
 71
0.0
 72
0.0
 73
1
 74
1
 75
0
 76
0
 77
0
 78
4
170
0
171
2
172
0
173
0
174
0
175
0
176
0
177
0
178
0
270
2
271
3
272
3
273
2
274
2
275
0
280
0
281
0
282
0
283
1
284
4
285
0
286
0
287
3
288
0
340
11
278
46
  0
ENDTAB
  0
ENDSEC
  0
SECTION
  2
BLOCKS
  0
BLOCK
  5
20
100
AcDbEntity
  8
0
100
AcDbBlockBegin
  2
*Model_Space
 70
0
 10
0.0
 20
0.0
 30
0.0
  3
*Model_Space
  1

  0
ENDBLK
  5
21
100
AcDbEntity
  8
0
100
AcDbBlockEnd
  0
BLOCK
  5
1C
100
AcDbEntity
  8
0
100
AcDbBlockBegin
  2
*Paper_Space
 70
0
 10
0.0
 20
0.0
 30
0.0
  3
*Paper_Space
  1

  0
ENDBLK
  5
1D
100
AcDbEntity
  8
0
100
AcDbBlockEnd
  0
BLOCK
  5
212
100
AcDbEntity
  8
0
100
AcDbBlockBegin
 62
2
  6
CONTINUOUS
  2
SUN_FIRST_THIRD_ANGLE_BL0
 70
64
 10
20.4816717061
 20
1.2289683772
  3
SUN_FIRST_THIRD_ANGLE_BL0
  1

  0
TEXT
  5
213
100
AcDbEntity
  8
0
100
AcDbText
 62
2
  6
CONTINUOUS
 10
19.4750896608
 20
1.4136269581
  7
STANDARD
 40
0.08
  1
FIRST ANGLE
 41
0.8
 72
0
100
AcDbText
  0
TEXT
  5
214
100
AcDbEntity
  8
0
100
AcDbText
 62
2
  6
CONTINUOUS
 10
20.7842537513
 20
1.4047600029
  7
STANDARD
 40
0.08
  1
THIRD ANGLE
 41
0.8
 72
0
100
AcDbText
  0
LINE
  5
215
100
AcDbEntity
  8
0
100
AcDbLine
 62
7
  6
CONTINUOUS
 10
19.4767170086
 20
1.1727031207
 11
19.6334271527
 21
1.1717972817
  0
LINE
  5
216
100
AcDbEntity
  8
0
100
AcDbLine
 62
7
  6
CONTINUOUS
 10
19.6596964832
 20
1.1717972817
 11
19.6950230232
 21
1.171593082
  0
LINE
  5
217
100
AcDbEntity
  8
0
100
AcDbLine
 62
7
  6
CONTINUOUS
 10
19.7194818561
 20
1.1708914427
 11
19.8852396156
 21
1.1699333054
  0
LINE
  5
218
100
AcDbEntity
  8
0
100
AcDbLine
 62
7
  6
CONTINUOUS
 10
19.4758111696
 20
1.2723454088
 11
19.88525039
 21
1.3511534004
  0
LINE
  5
219
100
AcDbEntity
  8
0
100
AcDbLine
 62
7
  6
CONTINUOUS
 10
19.88525039
 20
1.3511534004
 11
19.8831348489
 21
0.9851647912
  0
LINE
  5
21A
100
AcDbEntity
  8
0
100
AcDbLine
 62
7
  6
CONTINUOUS
 10
19.8831348489
 20
0.9851647912
 11
19.4767170086
 21
1.0658141206
  0
LINE
  5
21B
100
AcDbEntity
  8
0
100
AcDbLine
 62
7
  6
CONTINUOUS
 10
19.4767170086
 20
1.0658141206
 11
19.4779056764
 21
1.2714536432
  0
CIRCLE
  5
21C
100
AcDbEntity
  8
0
100
AcDbCircle
 62
7
  6
CONTINUOUS
 10
20.2068232291
 20
1.1717972817
 40
0.175742101
  0
CIRCLE
  5
21D
100
AcDbEntity
  8
0
100
AcDbCircle
 62
7
  6
CONTINUOUS
 10
20.2068232291
 20
1.1717972817
 40
0.1005522074
  0
LINE
  5
21E
100
AcDbEntity
  8
0
100
AcDbLine
 62
7
  6
CONTINUOUS
 10
20.2077290681
 20
1.3756110529
 11
20.2071171714
 21
1.2379342989
  0
LINE
  5
21F
100
AcDbEntity
  8
0
100
AcDbLine
 62
7
  6
CONTINUOUS
 10
20.2077290681
 20
1.2016899681
 11
20.2074674401
 21
1.1428236749
  0
LINE
  5
220
100
AcDbEntity
  8
0
100
AcDbLine
 62
7
  6
CONTINUOUS
 10
20.208634907
 20
1.101141841
 11
20.2080230104
 21
0.963465087
  0
LINE
  5
221
100
AcDbEntity
  8
0
100
AcDbLine
 62
7
  6
CONTINUOUS
 10
20.0066328138
 20
1.1745147986
 11
20.1443095678
 21
1.1739029019
  0
LINE
  5
222
100
AcDbEntity
  8
0
100
AcDbLine
 62
7
  6
CONTINUOUS
 10
20.1832714155
 20
1.1727031207
 11
20.238153505
 21
1.172335442
  0
LINE
  5
223
100
AcDbEntity
  8
0
100
AcDbLine
 62
7
  6
CONTINUOUS
 10
20.2756669918
 20
1.1717972817
 11
20.407916871
 21
1.1712095044
  0
CIRCLE
  5
224
100
AcDbEntity
  8
0
100
AcDbCircle
 62
7
  6
CONTINUOUS
 10
20.7509457401
 20
1.1693297793
 40
0.1722024983
  0
CIRCLE
  5
225
100
AcDbEntity
  8
0
100
AcDbCircle
 62
7
  6
CONTINUOUS
 10
20.7509457401
 20
1.1693297793
 40
0.0985164967
  0
LINE
  5
226
100
AcDbEntity
  8
0
100
AcDbLine
 62
7
  6
CONTINUOUS
 10
20.7169767782
 20
1.170462078
 11
20.7825395137
 21
1.1682766535
  0
LINE
  5
227
100
AcDbEntity
  8
0
100
AcDbLine
 62
7
  6
CONTINUOUS
 10
20.8177513651
 20
1.1693297793
 11
20.947965719
 21
1.1693297793
  0
LINE
  5
228
100
AcDbEntity
  8
0
100
AcDbLine
 62
7
  6
CONTINUOUS
 10
20.6875370113
 20
1.170462078
 11
20.5573226574
 21
1.170462078
  0
LINE
  5
229
100
AcDbEntity
  8
0
100
AcDbLine
 62
7
  6
CONTINUOUS
 10
20.7486811426
 20
1.1987695462
 11
20.7486811426
 21
1.1432869085
  0
LINE
  5
22A
100
AcDbEntity
  8
0
100
AcDbLine
 62
7
  6
CONTINUOUS
 10
20.7498134414
 20
1.1059210505
 11
20.7498134414
 21
0.9757066966
  0
LINE
  5
22B
100
AcDbEntity
  8
0
100
AcDbLine
 62
7
  6
CONTINUOUS
 10
20.7486811426
 20
1.2338708068
 11
20.7486811426
 21
1.3640851607
  0
LINE
  5
22C
100
AcDbEntity
  8
0
100
AcDbLine
 62
7
  6
CONTINUOUS
 10
21.0702539817
 20
1.2701043662
 11
21.4790138229
 21
1.3448360823
  0
LINE
  5
22D
100
AcDbEntity
  8
0
100
AcDbLine
 62
7
  6
CONTINUOUS
 10
21.4790138229
 20
1.3448360823
 11
21.4790138229
 21
0.9779712941
  0
LINE
  5
22E
100
AcDbEntity
  8
0
100
AcDbLine
 62
7
  6
CONTINUOUS
 10
21.4790138229
 20
0.9779712941
 11
21.069121683
 21
1.0617614
  0
LINE
  5
22F
100
AcDbEntity
  8
0
100
AcDbLine
 62
7
  6
CONTINUOUS
 10
21.0702539817
 20
1.2701043662
 11
21.069121683
 21
1.0617614
  0
LINE
  5
230
100
AcDbEntity
  8
0
100
AcDbLine
 62
7
  6
CONTINUOUS
 10
21.4790138229
 20
1.1693297793
 11
21.3159628059
 21
1.1693297793
  0
LINE
  5
231
100
AcDbEntity
  8
0
100
AcDbLine
 62
7
  6
CONTINUOUS
 10
21.2876553377
 20
1.1693297793
 11
21.2502894796
 21
1.1693297793
  0
LINE
  5
232
100
AcDbEntity
  8
0
100
AcDbLine
 62
7
  6
CONTINUOUS
 10
21.2208497126
 20
1.1659328831
 11
21.0713862804
 21
1.1659328831
  0
LINE
  5
233
100
AcDbEntity
  8
0
100
AcDbLine
 62
7
  6
CONTINUOUS
 10
20.4796138713
 20
1.5284908897
 11
20.4766766948
 21
0.9294458646
  0
ENDBLK
  5
234
100
AcDbEntity
  8
0
  6
BYBLOCK
 62
0
100
AcDbBlockEnd
  0
BLOCK
  5
235
100
AcDbEntity
  8
0
100
AcDbBlockBegin
  2
*T1
 70
1
 10
0.0
 20
0.0
  3
*T1
  1

  0
LINE
  5
236
100
AcDbEntity
  8
0
100
AcDbLine
 62
2
  6
CONTINUOUS
 10
9.275
 20
0.0
 11
-0.0
 21
0.0
  0
LINE
  5
237
100
AcDbEntity
  8
0
100
AcDbLine
 62
2
  6
CONTINUOUS
 10
9.275
 20
0.0
 11
9.275
 21
1.25
  0
LINE
  5
238
100
AcDbEntity
  8
0
100
AcDbLine
 62
2
  6
CONTINUOUS
 10
9.275
 20
0.625
 11
-0.0
 21
0.625
  0
LINE
  5
239
100
AcDbEntity
  8
0
100
AcDbLine
 62
2
  6
CONTINUOUS
 10
9.275
 20
1.25
 11
-0.0
 21
1.25
  0
LINE
  5
23A
100
AcDbEntity
  8
0
100
AcDbLine
 62
2
  6
CONTINUOUS
 10
6.8
 20
0.0
 11
6.8
 21
1.25
  0
LINE
  5
23B
100
AcDbEntity
  8
0
100
AcDbLine
 62
2
  6
CONTINUOUS
 10
6.4
 20
0.0
 11
6.4
 21
0.625
  0
LINE
  5
23C
100
AcDbEntity
  8
0
100
AcDbLine
 62
2
  6
CONTINUOUS
 10
5.9
 20
0.0
 11
5.9
 21
0.625
  0
LINE
  5
23D
100
AcDbEntity
  8
0
100
AcDbLine
 62
2
  6
CONTINUOUS
 10
5.2
 20
0.0
 11
5.2
 21
0.625
  0
LINE
  5
23E
100
AcDbEntity
  8
0
100
AcDbLine
 62
2
  6
CONTINUOUS
 10
4.1
 20
0.0
 11
4.1
 21
1.25
  0
LINE
  5
23F
100
AcDbEntity
  8
0
100
AcDbLine
 62
2
  6
CONTINUOUS
 10
-0.0
 20
0.0
 11
-0.0
 21
1.25
  0
MTEXT
  5
240
100
AcDbEntity
  8
0
100
AcDbMText
 62
2
  6
CONTINUOUS
  7
STANDARD
 71
2
 72
1
 10
6.6
 20
0.325
 30
0.0
 11
1.0
 21
0.0
 31
0.0
 44
0.9
  1
2
 40
0.125
 41
0.2
  0
MTEXT
  5
241
100
AcDbEntity
  8
0
100
AcDbMText
 62
2
  6
CONTINUOUS
  7
STANDARD
 71
2
 72
1
 10
6.15
 20
0.325
 30
0.0
 11
1.0
 21
0.0
 31
0.0
 44
0.9
  1
C
 40
0.125
 41
0.2
  0
MTEXT
  5
242
100
AcDbEntity
  8
0
100
AcDbMText
 62
2
  6
CONTINUOUS
  7
STANDARD
 71
2
 72
1
 10
5.55
 20
0.325
 30
0.0
 11
1.0
 21
0.0
 31
0.0
 44
0.9
  1
1.000
 40
0.125
 41
1.0
  0
MTEXT
  5
243
100
AcDbEntity
  8
0
100
AcDbMText
 62
2
  6
CONTINUOUS
  7
STANDARD
 71
2
 72
1
 10
4.65
 20
0.325
 30
0.0
 11
1.0
 21
0.0
 31
0.0
 44
0.9
  1
Jan-07-22
 40
0.125
 41
1.8
  0
MTEXT
  5
244
100
AcDbEntity
  8
0
100
AcDbMText
 62
2
  6
CONTINUOUS
  7
STANDARD
 71
2
 72
1
 10
2.05
 20
0.4625
 30
0.0
 11
1.0
 21
0.0
 31
0.0
 44
0.9
  1
T-3A Sandwich ISO 05 - X&Y\POn B with reverse flow check
 40
0.125
 41
5.6
  0
MTEXT
  5
245
100
AcDbEntity
  8
0
100
AcDbMText
 62
2
  6
CONTINUOUS
  7
STANDARD
 71
1
 72
1
 10
6.45
 20
0.5625
 30
0.0
 11
1.0
 21
0.0
 31
0.0
 44
0.9
  1
SHEET
 40
0.06
 41
0.48
  0
MTEXT
  5
246
100
AcDbEntity
  8
0
100
AcDbMText
 62
2
  6
CONTINUOUS
  7
STANDARD
 71
1
 72
1
 10
5.95
 20
0.5625
 30
0.0
 11
1.0
 21
0.0
 31
0.0
 44
0.9
  1
DWG SIZE
 40
0.06
 41
0.768
  0
MTEXT
  5
247
100
AcDbEntity
  8
0
100
AcDbMText
 62
2
  6
CONTINUOUS
  7
STANDARD
 71
1
 72
1
 10
5.25
 20
0.5625
 30
0.0
 11
1.0
 21
0.0
 31
0.0
 44
0.9
  1
SCALE
 40
0.06
 41
0.48
  0
MTEXT
  5
248
100
AcDbEntity
  8
0
100
AcDbMText
 62
2
  6
CONTINUOUS
  7
STANDARD
 71
1
 72
1
 10
4.15
 20
0.5625
 30
0.0
 11
1.0
 21
0.0
 31
0.0
 44
0.9
  1
DATE
 40
0.06
 41
0.384
  0
MTEXT
  5
249
100
AcDbEntity
  8
0
100
AcDbMText
 62
2
  6
CONTINUOUS
  7
STANDARD
 71
1
 72
1
 10
0.05
 20
0.5625
 30
0.0
 11
1.0
 21
0.0
 31
0.0
 44
0.9
  1
DESCRIPTION
 40
0.06
 41
1.056
  0
MTEXT
  5
24A
100
AcDbEntity
  8
0
100
AcDbMText
 62
2
  6
CONTINUOUS
  7
STANDARD
 71
2
 72
1
 10
5.45
 20
1.0375
 30
0.0
 11
1.0
 21
0.0
 31
0.0
 44
0.9
  1
ALL DIMENSIONS IN INCH\PVIEWS ARE THIRD ANGLE
 40
0.12
 41
4.224
  0
MTEXT
  5
24B
100
AcDbEntity
  8
0
100
AcDbMText
 62
2
  6
CONTINUOUS
  7
STANDARD
 71
2
 72
1
 10
2.05
 20
0.95
 30
0.0
 11
1.0
 21
0.0
 31
0.0
 44
0.9
  1
CJ5
 40
0.125
 41
0.6
  0
MTEXT
  5
24C
100
AcDbEntity
  8
0
100
AcDbMText
 62
2
  6
CONTINUOUS
  7
STANDARD
 71
1
 72
1
 10
0.05
 20
1.1875
 30
0.0
 11
1.0
 21
0.0
 31
0.0
 44
0.9
  1
MODEL
 40
0.06
 41
0.48
  0
ENDBLK
  5
24D
100
AcDbEntity
  8
0
  6
BYBLOCK
 62
0
100
AcDbBlockEnd
  0
BLOCK
  5
24E
100
AcDbEntity
  8
0
100
AcDbBlockBegin
  2
*T2
 70
1
 10
0.0
 20
0.0
  3
*T2
  1

  0
LINE
  5
24F
100
AcDbEntity
  8
0
100
AcDbLine
 62
2
  6
CONTINUOUS
 10
0.0
 20
0.0
 11
9.055
 21
0.0
  0
LINE
  5
250
100
AcDbEntity
  8
0
100
AcDbLine
 62
2
  6
CONTINUOUS
 10
0.0
 20
0.0
 11
0.0
 21
-2.094
  0
LINE
  5
251
100
AcDbEntity
  8
0
100
AcDbLine
 62
2
  6
CONTINUOUS
 10
0.0
 20
-0.344
 11
9.055
 21
-0.344
  0
LINE
  5
252
100
AcDbEntity
  8
0
100
AcDbLine
 62
2
  6
CONTINUOUS
 10
0.0
 20
-0.594
 11
9.055
 21
-0.594
  0
LINE
  5
253
100
AcDbEntity
  8
0
100
AcDbLine
 62
2
  6
CONTINUOUS
 10
0.0
 20
-0.844
 11
9.055
 21
-0.844
  0
LINE
  5
254
100
AcDbEntity
  8
0
100
AcDbLine
 62
2
  6
CONTINUOUS
 10
0.0
 20
-1.094
 11
9.055
 21
-1.094
  0
LINE
  5
255
100
AcDbEntity
  8
0
100
AcDbLine
 62
2
  6
CONTINUOUS
 10
0.0
 20
-1.344
 11
9.055
 21
-1.344
  0
LINE
  5
256
100
AcDbEntity
  8
0
100
AcDbLine
 62
2
  6
CONTINUOUS
 10
0.0
 20
-1.594
 11
9.055
 21
-1.594
  0
LINE
  5
257
100
AcDbEntity
  8
0
100
AcDbLine
 62
2
  6
CONTINUOUS
 10
0.0
 20
-1.844
 11
9.055
 21
-1.844
  0
LINE
  5
258
100
AcDbEntity
  8
0
100
AcDbLine
 62
2
  6
CONTINUOUS
 10
0.0
 20
-2.094
 11
9.055
 21
-2.094
  0
LINE
  5
259
100
AcDbEntity
  8
0
100
AcDbLine
 62
2
  6
CONTINUOUS
 10
3.055
 20
0.0
 11
3.055
 21
-2.094
  0
LINE
  5
25A
100
AcDbEntity
  8
0
100
AcDbLine
 62
2
  6
CONTINUOUS
 10
9.055
 20
0.0
 11
9.055
 21
-2.094
  0
MTEXT
  5
25B
100
AcDbEntity
  8
0
100
AcDbMText
 62
2
  6
CONTINUOUS
  7
STANDARD
 71
2
 72
1
 10
1.5275
 20
-0.0995
 30
0.0
 11
1.0
 21
0.0
 31
0.0
 44
0.9
  1
Technical Data
 40
0.145
 41
3.248
  0
MTEXT
  5
25C
100
AcDbEntity
  8
0
100
AcDbMText
 62
2
  6
CONTINUOUS
  7
STANDARD
 71
2
 72
1
 10
4.555
 20
-0.0995
 30
0.0
 11
1.0
 21
0.0
 31
0.0
 44
0.9
  1
U.S. Units
 40
0.145
 41
2.32
  0
MTEXT
  5
25D
100
AcDbEntity
  8
0
100
AcDbMText
 62
2
  6
CONTINUOUS
  7
STANDARD
 71
2
 72
1
 10
7.555
 20
-0.0995
 30
0.0
 11
1.0
 21
0.0
 31
0.0
 44
0.9
  1
Metric Units
 40
0.145
 41
2.784
  0
MTEXT
  5
25E
100
AcDbEntity
  8
0
100
AcDbMText
 62
2
  6
CONTINUOUS
  7
STANDARD
 71
2
 72
1
 10
1.5275
 20
-0.4065
 30
0.0
 11
1.0
 21
0.0
 31
0.0
 44
0.9
  1
Cavity
 40
0.125
 41
1.2
  0
MTEXT
  5
25F
100
AcDbEntity
  8
0
100
AcDbMText
 62
2
  6
CONTINUOUS
  7
STANDARD
 71
2
 72
1
 10
6.055
 20
-0.4065
 30
0.0
 11
1.0
 21
0.0
 31
0.0
 44
0.9
  1
T-3A
 40
0.125
 41
0.8
  0
MTEXT
  5
260
100
AcDbEntity
  8
0
100
AcDbMText
 62
2
  6
CONTINUOUS
  7
STANDARD
 71
2
 72
1
 10
1.5275
 20
-0.6565
 30
0.0
 11
1.0
 21
0.0
 31
0.0
 44
0.9
  1
Body Features
 40
0.125
 41
2.6
  0
MTEXT
  5
261
100
AcDbEntity
  8
0
100
AcDbMText
 62
2
  6
CONTINUOUS
  7
STANDARD
 71
2
 72
1
 10
6.055
 20
-0.6565
 30
0.0
 11
1.0
 21
0.0
 31
0.0
 44
0.9
  1
On B with reverse flow check
 40
0.125
 41
5.6
  0
MTEXT
  5
262
100
AcDbEntity
  8
0
100
AcDbMText
 62
2
  6
CONTINUOUS
  7
STANDARD
 71
2
 72
1
 10
1.5275
 20
-0.9065
 30
0.0
 11
1.0
 21
0.0
 31
0.0
 44
0.9
  1
Body Type
 40
0.125
 41
1.8
  0
MTEXT
  5
263
100
AcDbEntity
  8
0
100
AcDbMText
 62
2
  6
CONTINUOUS
  7
STANDARD
 71
2
 72
1
 10
6.055
 20
-0.9065
 30
0.0
 11
1.0
 21
0.0
 31
0.0
 44
0.9
  1
Sandwich
 40
0.125
 41
1.6
  0
MTEXT
  5
264
100
AcDbEntity
  8
0
100
AcDbMText
 62
2
  6
CONTINUOUS
  7
STANDARD
 71
2
 72
1
 10
1.5275
 20
-1.1565
 30
0.0
 11
1.0
 21
0.0
 31
0.0
 44
0.9
  1
Interface
 40
0.125
 41
1.8
  0
MTEXT
  5
265
100
AcDbEntity
  8
0
100
AcDbMText
 62
2
  6
CONTINUOUS
  7
STANDARD
 71
2
 72
1
 10
6.055
 20
-1.1565
 30
0.0
 11
1.0
 21
0.0
 31
0.0
 44
0.9
  1
ISO 05 - X&Y
 40
0.125
 41
2.4
  0
MTEXT
  5
266
100
AcDbEntity
  8
0
100
AcDbMText
 62
2
  6
CONTINUOUS
  7
STANDARD
 71
2
 72
1
 10
1.5275
 20
-1.4065
 30
0.0
 11
1.0
 21
0.0
 31
0.0
 44
0.9
  1
Open Cavity Quantity
 40
0.125
 41
4.0
  0
MTEXT
  5
267
100
AcDbEntity
  8
0
100
AcDbMText
 62
2
  6
CONTINUOUS
  7
STANDARD
 71
2
 72
1
 10
6.055
 20
-1.4065
 30
0.0
 11
1.0
 21
0.0
 31
0.0
 44
0.9
  1
1
 40
0.125
 41
0.2
  0
MTEXT
  5
268
100
AcDbEntity
  8
0
100
AcDbMText
 62
2
  6
CONTINUOUS
  7
STANDARD
 71
2
 72
1
 10
1.5275
 20
-1.6565
 30
0.0
 11
1.0
 21
0.0
 31
0.0
 44
0.9
  1
Stack Height
 40
0.125
 41
2.4
  0
MTEXT
  5
269
100
AcDbEntity
  8
0
100
AcDbMText
 62
2
  6
CONTINUOUS
  7
STANDARD
 71
2
 72
1
 10
4.555
 20
-1.6565
 30
0.0
 11
1.0
 21
0.0
 31
0.0
 44
0.9
  1
2.49 in.
 40
0.125
 41
1.6
  0
MTEXT
  5
26A
100
AcDbEntity
  8
0
100
AcDbMText
 62
2
  6
CONTINUOUS
  7
STANDARD
 71
2
 72
1
 10
7.555
 20
-1.6565
 30
0.0
 11
1.0
 21
0.0
 31
0.0
 44
0.9
  1
63 mm
 40
0.125
 41
1.0
  0
MTEXT
  5
26B
100
AcDbEntity
  8
0
100
AcDbMText
 62
2
  6
CONTINUOUS
  7
STANDARD
 71
2
 72
1
 10
1.5275
 20
-1.9065
 30
0.0
 11
1.0
 21
0.0
 31
0.0
 44
0.9
  1
Weight
 40
0.125
 41
1.2
  0
MTEXT
  5
26C
100
AcDbEntity
  8
0
100
AcDbMText
 62
2
  6
CONTINUOUS
  7
STANDARD
 71
2
 72
1
 10
4.555
 20
-1.9065
 30
0.0
 11
1.0
 21
0.0
 31
0.0
 44
0.9
  1
2.733 lb.
 40
0.125
 41
1.8
  0
MTEXT
  5
26D
100
AcDbEntity
  8
0
100
AcDbMText
 62
2
  6
CONTINUOUS
  7
STANDARD
 71
2
 72
1
 10
7.555
 20
-1.9065
 30
0.0
 11
1.0
 21
0.0
 31
0.0
 44
0.9
  1
1,240 kg.
 40
0.125
 41
1.8
  0
ENDBLK
  5
26E
100
AcDbEntity
  8
0
  6
BYBLOCK
 62
0
100
AcDbBlockEnd
  0
ENDSEC
  0
SECTION
  2
ENTITIES
  0
IMAGE
  5
26F
100
AcDbEntity
  8
0
100
AcDbRasterImage
 62
7
  6
CONTINUOUS
 10
19.2297077316
 20
0.3094318264
 30
0.0
 11
0.0066666667
 21
0.0
 31
0.0
 12
0.0
 22
0.0066666667
 32
0.0
 13
369.0
 23
92.0
340
       3CF
 70
9
280
0
281
50
282
50
283
0
360
       3C9
 71
1
 91
2
 14
-0.5
 24
-0.5
 14
368.5
 24
91.5
  0
INSERT
  5
270
100
AcDbEntity
  8
0
100
AcDbBlockReference
 62
2
  6
CONTINUOUS
  2
SUN_FIRST_THIRD_ANGLE_BL0
 10
20.4816717061
 20
1.2289683772
  0
ACAD_TABLE
  5
271
100
AcDbEntity
  8
0
 62
2
  6
CONTINUOUS
100
AcDbBlockReference
  2
*T1
 10
12.42375
 20
0.30125
 30
0.0
100
AcDbTable
342
       3D1
343
20F
 11
1.0
 21
0.0
 31
0.0
 90
6
 91
4
 92
6
 93
20
 94
0
 95
0
 96
0
 70
1
 41
0.0
141
0.525
141
0.1
141
0.525
141
0.1
142
4.1
142
1.1
142
0.7
142
0.5
142
0.4
142
2.475
171
1
172
0
173
0
174
0
175
1
176
1
 91
33
178
0
145
0.0
301
CELL_VALUE
 90
4
  1
T-3A Sandwich ISO 05 - X&Y\POn B with reverse flow check
304
ACVALUE_END
170
2
140
0.125
171
1
172
0
173
0
174
0
175
1
176
1
 91
33
178
0
145
0.0
301
CELL_VALUE
 90
4
  1
Jan-07-22
304
ACVALUE_END
170
5
140
0.125
171
1
172
0
173
0
174
0
175
1
176
1
 91
33
178
0
145
0.0
301
CELL_VALUE
 90
4
  1
1.000
304
ACVALUE_END
170
5
140
0.125
171
1
172
0
173
0
174
0
175
1
176
1
 91
33
178
0
145
0.0
301
CELL_VALUE
 90
4
  1
C
304
ACVALUE_END
170
5
140
0.125
171
1
172
0
173
0
174
0
175
1
176
1
 91
33
178
0
145
0.0
301
CELL_VALUE
 90
4
  1
2
304
ACVALUE_END
170
5
140
0.125
171
1
172
0
173
0
174
0
175
1
176
1
 91
33
178
0
145
0.0
301
CELL_VALUE
 90
4
  1
 
304
ACVALUE_END
170
1
140
0.125
171
1
172
0
173
0
174
0
175
1
176
1
 91
33
178
0
145
0.0
301
CELL_VALUE
 90
4
  1
DESCRIPTION
304
ACVALUE_END
170
1
140
0.06
171
1
172
0
173
0
174
0
175
1
176
1
 91
33
178
0
145
0.0
301
CELL_VALUE
 90
4
  1
DATE
304
ACVALUE_END
170
1
140
0.06
171
1
172
0
173
0
174
0
175
1
176
1
 91
33
178
0
145
0.0
301
CELL_VALUE
 90
4
  1
SCALE
304
ACVALUE_END
170
1
140
0.06
171
1
172
0
173
0
174
0
175
1
176
1
 91
33
178
0
145
0.0
301
CELL_VALUE
 90
4
  1
DWG SIZE
304
ACVALUE_END
170
1
140
0.06
171
1
172
0
173
0
174
0
175
1
176
1
 91
33
178
0
145
0.0
301
CELL_VALUE
 90
4
  1
SHEET
304
ACVALUE_END
170
1
140
0.06
171
1
172
0
173
0
174
0
175
1
176
1
 91
33
178
0
145
0.0
301
CELL_VALUE
 90
4
  1
 
304
ACVALUE_END
170
1
140
0.125
171
1
172
0
173
0
174
0
175
1
176
1
 91
33
178
0
145
0.0
301
CELL_VALUE
 90
4
  1
CJ5
304
ACVALUE_END
170
5
140
0.125
171
1
172
0
173
0
174
0
175
4
176
1
 91
33
178
0
145
0.0
301
CELL_VALUE
 90
4
  1
ALL DIMENSIONS IN INCH\PVIEWS ARE THIRD ANGLE
304
ACVALUE_END
170
5
140
0.12
171
1
172
0
173
1
174
0
175
1
176
1
 91
1
178
0
145
0.0
170
1
171
1
172
0
173
1
174
0
175
1
176
1
 91
1
178
0
145
0.0
170
1
171
1
172
0
173
1
174
0
175
1
176
1
 91
1
178
0
145
0.0
170
5
171
1
172
0
173
0
174
0
175
1
176
1
 91
33
178
0
145
0.0
301
CELL_VALUE
 90
4
  1
 
304
ACVALUE_END
170
1
140
0.125
171
1
172
0
173
0
174
0
175
1
176
1
 91
33
178
0
145
0.0
301
CELL_VALUE
 90
4
  1
MODEL
304
ACVALUE_END
170
1
140
0.06
171
1
172
0
173
0
174
0
175
1
176
1
 91
33
178
0
145
0.0
301
CELL_VALUE
 90
4
  1
 
304
ACVALUE_END
170
1
140
0.125
171
1
172
0
173
0
174
0
175
1
176
1
 91
33
178
0
145
0.0
301
CELL_VALUE
 90
4
  1
 
304
ACVALUE_END
170
1
140
0.125
171
1
172
0
173
0
174
0
175
1
176
1
 91
33
178
0
145
0.0
301
CELL_VALUE
 90
4
  1
 
304
ACVALUE_END
170
1
140
0.125
171
1
172
0
173
0
174
0
175
1
176
1
 91
33
178
0
145
0.0
301
CELL_VALUE
 90
4
  1
 
304
ACVALUE_END
170
1
140
0.125
171
1
172
0
173
0
174
0
175
1
176
1
 91
33
178
0
145
0.0
301
CELL_VALUE
 90
4
  1
 
304
ACVALUE_END
170
1
140
0.125
  0
ACAD_TABLE
  5
272
100
AcDbEntity
  8
0
 62
2
  6
CONTINUOUS
100
AcDbBlockReference
  2
*T2
 10
12.4237499994
 20
16.47875
 30
0.0
100
AcDbTable
342
       3D0
343
210
 11
1.0
 21
0.0
 31
0.0
 90
22
 91
8
 92
3
 93
16
 94
0
 95
0
 96
0
 41
0.028
141
0.344
141
0.25
141
0.25
141
0.25
141
0.25
141
0.25
141
0.25
141
0.25
142
3.055
142
3.0
142
3.0
171
1
172
0
173
0
174
0
175
1
176
1
 91
33
178
0
145
0.0
301
CELL_VALUE
 90
4
  1
Technical Data
304
ACVALUE_END
170
5
140
0.145
171
1
172
0
173
0
174
0
175
1
176
1
 91
33
178
0
145
0.0
301
CELL_VALUE
 90
4
  1
U.S. Units
304
ACVALUE_END
170
5
140
0.145
171
1
172
0
173
0
174
0
175
1
176
1
 91
33
178
0
145
0.0
301
CELL_VALUE
 90
4
  1
Metric Units
304
ACVALUE_END
170
5
140
0.145
171
1
172
0
173
0
174
0
175
1
176
1
 91
33
178
0
145
0.0
301
CELL_VALUE
 90
4
  1
Cavity
304
ACVALUE_END
170
5
140
0.125
171
1
172
0
173
0
174
0
175
2
176
1
 91
33
178
0
145
0.0
301
CELL_VALUE
 90
4
  1
T-3A
304
ACVALUE_END
170
5
140
0.125
171
1
172
0
173
1
174
0
175
1
176
1
 91
1
178
0
145
0.0
170
1
171
1
172
0
173
0
174
0
175
1
176
1
 91
33
178
0
145
0.0
301
CELL_VALUE
 90
4
  1
Body Features
304
ACVALUE_END
170
5
140
0.125
171
1
172
0
173
0
174
0
175
2
176
1
 91
33
178
0
145
0.0
301
CELL_VALUE
 90
4
  1
On B with reverse flow check
304
ACVALUE_END
170
5
140
0.125
171
1
172
0
173
1
174
0
175
1
176
1
 91
1
178
0
145
0.0
170
1
171
1
172
0
173
0
174
0
175
1
176
1
 91
33
178
0
145
0.0
301
CELL_VALUE
 90
4
  1
Body Type
304
ACVALUE_END
170
5
140
0.125
171
1
172
0
173
0
174
0
175
2
176
1
 91
33
178
0
145
0.0
301
CELL_VALUE
 90
4
  1
Sandwich
304
ACVALUE_END
170
5
140
0.125
171
1
172
0
173
1
174
0
175
1
176
1
 91
1
178
0
145
0.0
170
1
171
1
172
0
173
0
174
0
175
1
176
1
 91
33
178
0
145
0.0
301
CELL_VALUE
 90
4
  1
Interface
304
ACVALUE_END
170
5
140
0.125
171
1
172
0
173
0
174
0
175
2
176
1
 91
33
178
0
145
0.0
301
CELL_VALUE
 90
4
  1
ISO 05 - X&Y
304
ACVALUE_END
170
5
140
0.125
171
1
172
0
173
1
174
0
175
1
176
1
 91
1
178
0
145
0.0
170
1
171
1
172
0
173
0
174
0
175
1
176
1
 91
33
178
0
145
0.0
301
CELL_VALUE
 90
4
  1
Open Cavity Quantity
304
ACVALUE_END
170
5
140
0.125
171
1
172
0
173
0
174
0
175
2
176
1
 91
33
178
0
145
0.0
301
CELL_VALUE
 90
4
  1
1
304
ACVALUE_END
170
5
140
0.125
171
1
172
0
173
1
174
0
175
1
176
1
 91
1
178
0
145
0.0
170
1
171
1
172
0
173
0
174
0
175
1
176
1
 91
33
178
0
145
0.0
301
CELL_VALUE
 90
4
  1
Stack Height
304
ACVALUE_END
170
5
140
0.125
171
1
172
0
173
0
174
0
175
1
176
1
 91
33
178
0
145
0.0
301
CELL_VALUE
 90
4
  1
2.49 in.
304
ACVALUE_END
170
5
140
0.125
171
1
172
0
173
0
174
0
175
1
176
1
 91
33
178
0
145
0.0
301
CELL_VALUE
 90
4
  1
63 mm
304
ACVALUE_END
170
5
140
0.125
171
1
172
0
173
0
174
0
175
1
176
1
 91
33
178
0
145
0.0
301
CELL_VALUE
 90
4
  1
Weight
304
ACVALUE_END
170
5
140
0.125
171
1
172
0
173
0
174
0
175
1
176
1
 91
33
178
0
145
0.0
301
CELL_VALUE
 90
4
  1
2.733 lb.
304
ACVALUE_END
170
5
140
0.125
171
1
172
0
173
0
174
0
175
1
176
1
 91
33
178
0
145
0.0
301
CELL_VALUE
 90
4
  1
1,240 kg.
304
ACVALUE_END
170
5
140
0.125
  0
MTEXT
  5
273
100
AcDbEntity
  8
0
100
AcDbMText
 62
2
  6
CONTINUOUS
  7
STANDARD
 71
1
 72
1
 10
0.52125
 20
5.75995
 30
0.0
 11
1.0
 21
0.0
 31
0.0
 44
0.6
  3
Notes\P \P1. Stack height value in technical\P   data table includes seal retainer\P   plate.\P2. This installation requires a\P   retainer and seal kit which are\P   purchased separately. See "Related\P   Accessories" section.\P3. Important: Careful
  3
ly consider\P   the maximum system pressure. The\P   pressure rating of the manifold is\P   dependent on the manifold material,\P   with the port type/size a secondary\P   consideration. Manifolds\P   constructed of aluminum are not\P   rated for pre
  1
ssures higher than\P   3000 psi (210 bar), regardless of\P   the port type/size specified.
 40
0.1
 41
3.04
  0
LINE
  5
274
100
AcDbEntity
  8
0
100
AcDbLine
 62
7
  6
CONTINUOUS
 10
0.30125
 20
0.30125
 11
0.30125
 21
16.69875
  0
LINE
  5
275
100
AcDbEntity
  8
0
100
AcDbLine
 62
7
  6
CONTINUOUS
 10
0.30125
 20
0.30125
 11
21.69875
 21
0.30125
  0
LINE
  5
276
100
AcDbEntity
  8
0
100
AcDbLine
 62
7
  6
CONTINUOUS
 10
0.30125
 20
16.69875
 11
21.69875
 21
16.69875
  0
LINE
  5
277
100
AcDbEntity
  8
0
100
AcDbLine
 62
7
  6
CONTINUOUS
 10
21.69875
 20
0.30125
 11
21.69875
 21
16.69875
  0
LINE
  5
278
100
AcDbEntity
  8
0
100
AcDbLine
 62
7
  6
CONTINUOUS
 10
9.6391439838
 20
10.893551794
 11
10.0677479687
 21
11.3075514769
  0
LINE
  5
279
100
AcDbEntity
  8
0
100
AcDbLine
 62
7
  6
CONTINUOUS
 10
9.6690876862
 20
10.9214188936
 11
10.0976916711
 21
11.3354185765
  0
LINE
  5
27A
100
AcDbEntity
  8
0
100
AcDbLine
 62
7
  6
CONTINUOUS
 10
10.0677479687
 20
11.3075514769
 11
10.0686827588
 21
11.3084376199
  0
LINE
  5
27B
100
AcDbEntity
  8
0
100
AcDbLine
 62
7
  6
CONTINUOUS
 10
10.0976916711
 20
11.3354185765
 11
10.0985503217
 21
11.3362323731
  0
LINE
  5
27C
100
AcDbEntity
  8
0
100
AcDbLine
 62
7
  6
CONTINUOUS
 10
10.0976842495
 20
11.3354265515
 11
10.0677479687
 21
11.3075514769
  0
LINE
  5
27D
100
AcDbEntity
  8
0
100
AcDbLine
 62
7
  6
CONTINUOUS
 10
9.6690876862
 20
10.9214188936
 11
9.6391439838
 21
10.893551794
  0
LINE
  5
27E
100
AcDbEntity
  8
0
100
AcDbLine
 62
7
  6
CONTINUOUS
 10
10.7577722942
 20
5.6848667134
 11
10.7769901836
 21
5.675373444
  0
LINE
  5
27F
100
AcDbEntity
  8
0
100
AcDbLine
 62
7
  6
CONTINUOUS
 10
9.6400787739
 20
6.132570457
 11
9.6699452003
 21
6.1047766119
  0
LINE
  5
280
100
AcDbEntity
  8
0
100
AcDbLine
 62
7
  6
CONTINUOUS
 10
9.9123325121
 20
6.0426331589
 11
11.4819620728
 21
5.9337789791
  0
LINE
  5
281
100
AcDbEntity
  8
0
100
AcDbLine
 62
7
  6
CONTINUOUS
 10
9.9043091283
 20
6.0648268672
 11
11.473938689
 21
5.9559726874
  0
LINE
  5
282
100
AcDbEntity
  8
0
100
AcDbLine
 62
7
  6
CONTINUOUS
 10
9.4770924947
 20
10.0456339738
 11
9.6263661901
 21
10.1898212999
  0
LINE
  5
283
100
AcDbEntity
  8
0
100
AcDbLine
 62
7
  6
CONTINUOUS
 10
11.8919072035
 20
6.3757185334
 11
9.4770924947
 21
6.5431865023
  0
LINE
  5
284
100
AcDbEntity
  8
0
100
AcDbLine
 62
7
  6
CONTINUOUS
 10
9.9123325121
 20
6.0426331589
 11
9.9043091283
 21
6.0648268672
  0
LINE
  5
285
100
AcDbEntity
  8
0
100
AcDbLine
 62
7
  6
CONTINUOUS
 10
9.4770924947
 20
10.0456339738
 11
9.4770924947
 21
6.5431865023
  0
LINE
  5
286
100
AcDbEntity
  8
0
100
AcDbLine
 62
7
  6
CONTINUOUS
 10
9.9123325121
 20
10.812375367
 11
9.9043091283
 21
10.7746816705
  0
LINE
  5
287
100
AcDbEntity
  8
0
100
AcDbLine
 62
7
  6
CONTINUOUS
 10
9.6263661901
 20
6.5328343364
 11
9.6263661901
 21
6.1585767954
  0
LINE
  5
288
100
AcDbEntity
  8
0
100
AcDbLine
 62
7
  6
CONTINUOUS
 10
9.6263661901
 20
10.1140435062
 11
9.6263661901
 21
10.8684315987
  0
LINE
  5
289
100
AcDbEntity
  8
0
100
AcDbLine
 62
7
  6
CONTINUOUS
 10
9.9043091283
 20
10.7746816705
 11
9.9043091283
 21
10.0202935781
  0
LINE
  5
28A
100
AcDbEntity
  8
0
100
AcDbLine
 62
7
  6
CONTINUOUS
 10
9.9043091283
 20
6.0648268672
 11
9.9043091283
 21
6.5135589281
  0
LINE
  5
28B
100
AcDbEntity
  8
0
100
AcDbLine
 62
7
  6
CONTINUOUS
 10
12.3318782397
 20
11.1804772117
 11
11.9032742547
 21
10.7664775288
  0
LINE
  5
28C
100
AcDbEntity
  8
0
100
AcDbLine
 62
7
  6
CONTINUOUS
 10
12.3618219421
 20
11.1484569065
 11
11.9332179571
 21
10.7344572236
  0
LINE
  5
28D
100
AcDbEntity
  8
0
100
AcDbLine
 62
7
  6
CONTINUOUS
 10
12.3618219421
 20
10.394068814
 11
11.9332179571
 21
9.9800691312
  0
LINE
  5
28E
100
AcDbEntity
  8
0
100
AcDbLine
 62
4
  6
CONTINUOUS
 10
12.4711437522
 20
7.7238967406
 11
12.5022020113
 21
7.7176744971
  0
LINE
  5
28F
100
AcDbEntity
  8
0
100
AcDbLine
 62
7
  6
CONTINUOUS
 10
11.4819620728
 20
5.9337789791
 11
11.473938689
 21
5.9559726874
  0
LINE
  5
290
100
AcDbEntity
  8
0
100
AcDbLine
 62
7
  6
CONTINUOUS
 10
10.6495720171
 20
5.9915054255
 11
10.6495720171
 21
5.8215463751
  0
LINE
  5
291
100
AcDbEntity
  8
0
100
AcDbLine
 62
7
  6
CONTINUOUS
 10
10.8009919566
 20
5.9810044171
 11
10.8009919566
 21
5.675286195
  0
LINE
  5
292
100
AcDbEntity
  8
0
100
AcDbLine
 62
7
  6
CONTINUOUS
 10
12.5229075053
 20
10.487665529
 11
11.8919072035
 21
9.8781660049
  0
LINE
  5
293
100
AcDbEntity
  8
0
100
AcDbLine
 62
4
  6
CONTINUOUS
 10
12.4711437522
 20
7.9919411673
 11
12.5022020113
 21
7.9857189238
  0
LINE
  5
294
100
AcDbEntity
  8
0
100
AcDbLine
 62
7
  6
CONTINUOUS
 10
10.8404647345
 20
5.9782669706
 11
10.8404647345
 21
5.6650699012
  0
LINE
  5
295
100
AcDbEntity
  8
0
100
AcDbLine
 62
7
  6
CONTINUOUS
 10
11.4819620728
 20
10.7035211872
 11
11.473938689
 21
10.6658274908
  0
LINE
  5
296
100
AcDbEntity
  8
0
100
AcDbLine
 62
4
  6
CONTINUOUS
 10
12.4866728818
 20
8.3908966856
 11
12.478908317
 21
8.3906411355
  0
LINE
  5
297
100
AcDbEntity
  8
0
100
AcDbLine
 62
4
  6
CONTINUOUS
 10
12.4866728818
 20
8.4778300132
 11
12.4944374465
 21
8.4780855633
  0
LINE
  5
298
100
AcDbEntity
  8
0
100
AcDbLine
 62
4
  6
CONTINUOUS
 10
12.4711437522
 20
8.0716300509
 11
12.5022020113
 21
8.0654078074
  0
LINE
  5
299
100
AcDbEntity
  8
0
100
AcDbLine
 62
4
  6
CONTINUOUS
 10
12.2278540556
 20
8.0756968973
 11
12.2256356077
 21
8.0763138187
  0
LINE
  5
29A
100
AcDbEntity
  8
0
100
AcDbLine
 62
4
  6
CONTINUOUS
 10
12.0383986751
 20
8.579884268
 11
12.0694569342
 21
8.5767667882
  0
LINE
  5
29B
100
AcDbEntity
  8
0
100
AcDbLine
 62
4
  6
CONTINUOUS
 10
12.1894009729
 20
8.4939190949
 11
12.2189802678
 21
8.4893730592
  0
LINE
  5
29C
100
AcDbEntity
  8
0
100
AcDbLine
 62
7
  6
CONTINUOUS
 10
11.4055712091
 20
5.9390767035
 11
11.4055712091
 21
5.6258796341
  0
LINE
  5
29D
100
AcDbEntity
  8
0
100
AcDbLine
 62
7
  6
CONTINUOUS
 10
11.4594920113
 20
5.9353372832
 11
11.4594920113
 21
5.6296190611
  0
LINE
  5
29E
100
AcDbEntity
  8
0
100
AcDbLine
 62
7
  6
CONTINUOUS
 10
11.473938689
 20
10.6658274908
 11
11.473938689
 21
9.9114393983
  0
LINE
  5
29F
100
AcDbEntity
  8
0
100
AcDbLine
 62
7
  6
CONTINUOUS
 10
11.473938689
 20
5.9559726874
 11
11.473938689
 21
6.4047047484
  0
LINE
  5
2A0
100
AcDbEntity
  8
0
100
AcDbLine
 62
4
  6
CONTINUOUS
 10
12.2189802678
 20
8.9861349152
 11
12.2234171617
 21
8.9904206259
  0
LINE
  5
2A1
100
AcDbEntity
  8
0
100
AcDbLine
 62
4
  6
CONTINUOUS
 10
12.2012326908
 20
8.9110365196
 11
12.2056695852
 21
8.9153222307
  0
LINE
  5
2A2
100
AcDbEntity
  8
0
100
AcDbLine
 62
4
  6
CONTINUOUS
 10
12.2278540556
 20
8.9036333287
 11
12.2012326908
 21
8.8779190634
  0
LINE
  5
2A3
100
AcDbEntity
  8
0
100
AcDbLine
 62
4
  6
CONTINUOUS
 10
12.0383986751
 20
8.6847562125
 11
12.0694569342
 21
8.7147561888
  0
LINE
  5
2A4
100
AcDbEntity
  8
0
100
AcDbLine
 62
4
  6
CONTINUOUS
 10
12.2012326908
 20
8.8199635117
 11
12.2278540556
 21
8.845677777
  0
LINE
  5
2A5
100
AcDbEntity
  8
0
100
AcDbLine
 62
4
  6
CONTINUOUS
 10
12.1967957965
 20
8.7825603445
 11
12.2278540556
 21
8.8125603208
  0
LINE
  5
2A6
100
AcDbEntity
  8
0
100
AcDbLine
 62
4
  6
CONTINUOUS
 10
12.0650200403
 20
8.6525149334
 11
12.0428355695
 21
8.6310863788
  0
LINE
  5
2A7
100
AcDbEntity
  8
0
100
AcDbLine
 62
4
  6
CONTINUOUS
 10
12.1967957965
 20
8.7246047927
 11
12.2278540556
 21
8.7546047691
  0
LINE
  5
2A8
100
AcDbEntity
  8
0
100
AcDbLine
 62
7
  6
CONTINUOUS
 10
11.8731785464
 20
5.9773297036
 11
11.8731785464
 21
5.7366889741
  0
LINE
  5
2A9
100
AcDbEntity
  8
0
100
AcDbLine
 62
7
  6
CONTINUOUS
 10
11.8876265707
 20
5.985031019
 11
11.8876265707
 21
5.7506446947
  0
LINE
  5
2AA
100
AcDbEntity
  8
0
100
AcDbLine
 62
7
  6
CONTINUOUS
 10
11.8919072035
 20
9.8781660049
 11
11.8919072035
 21
6.3757185334
  0
LINE
  5
2AB
100
AcDbEntity
  8
0
100
AcDbLine
 62
4
  6
CONTINUOUS
 10
12.0383986751
 20
8.4474144296
 11
12.0694569342
 21
8.4774144059
  0
LINE
  5
2AC
100
AcDbEntity
  8
0
100
AcDbLine
 62
4
  6
CONTINUOUS
 10
12.1967957965
 20
8.6004143287
 11
12.2278540556
 21
8.6304143051
  0
LINE
  5
2AD
100
AcDbEntity
  8
0
100
AcDbLine
 62
4
  6
CONTINUOUS
 10
12.2167618199
 20
8.5700238364
 11
12.1967957965
 21
8.5507381376
  0
LINE
  5
2AE
100
AcDbEntity
  8
0
100
AcDbLine
 62
4
  6
CONTINUOUS
 10
12.0383986751
 20
8.3811795173
 11
12.0694569342
 21
8.4111794936
  0
LINE
  5
2AF
100
AcDbEntity
  8
0
100
AcDbLine
 62
4
  6
CONTINUOUS
 10
12.1111637395
 20
8.4500852976
 11
12.1333482103
 21
8.4715138522
  0
LINE
  5
2B0
100
AcDbEntity
  8
0
100
AcDbLine
 62
4
  6
CONTINUOUS
 10
12.1990142437
 20
8.4480090279
 11
12.2167618199
 21
8.4651518712
  0
LINE
  5
2B1
100
AcDbEntity
  8
0
100
AcDbLine
 62
4
  6
CONTINUOUS
 10
12.5099665761
 20
8.724907757
 11
12.4672614698
 21
8.6836577895
  0
LINE
  5
2B2
100
AcDbEntity
  8
0
100
AcDbLine
 62
4
  6
CONTINUOUS
 10
12.0428355695
 20
7.9659774505
 11
12.0383986751
 21
7.9782504605
  0
LINE
  5
2B3
100
AcDbEntity
  8
0
100
AcDbLine
 62
4
  6
CONTINUOUS
 10
12.0428355695
 20
8.0570504445
 11
12.0383986751
 21
8.0693234546
  0
LINE
  5
2B4
100
AcDbEntity
  8
0
100
AcDbLine
 62
4
  6
CONTINUOUS
 10
12.0650200403
 20
8.1364345508
 11
12.0694569342
 21
8.1241615403
  0
LINE
  5
2B5
100
AcDbEntity
  8
0
100
AcDbLine
 62
7
  6
CONTINUOUS
 10
11.9332179571
 20
10.7344572236
 11
11.9332179571
 21
9.9800691312
  0
LINE
  5
2B6
100
AcDbEntity
  8
0
100
AcDbLine
 62
7
  6
CONTINUOUS
 10
11.9332179571
 20
6.0246024203
 11
11.9332179571
 21
6.4156216597
  0
LINE
  5
2B7
100
AcDbEntity
  8
0
100
AcDbLine
 62
4
  6
CONTINUOUS
 10
12.0383986751
 20
8.3811795173
 11
12.0383986751
 21
8.3315033261
  0
LINE
  5
2B8
100
AcDbEntity
  8
0
100
AcDbLine
 62
4
  6
CONTINUOUS
 10
12.0383986751
 20
7.9147752983
 11
12.0383986751
 21
7.8650991348
  0
LINE
  5
2B9
100
AcDbEntity
  8
0
100
AcDbLine
 62
4
  6
CONTINUOUS
 10
12.0383986751
 20
7.9782504605
 11
12.0383986751
 21
8.0196472911
  0
LINE
  5
2BA
100
AcDbEntity
  8
0
100
AcDbLine
 62
4
  6
CONTINUOUS
 10
12.0383986751
 20
8.0693234546
 11
12.0383986751
 21
8.094161564
  0
LINE
  5
2BB
100
AcDbEntity
  8
0
100
AcDbLine
 62
4
  6
CONTINUOUS
 10
12.0383986751
 20
8.157636671
 11
12.0383986751
 21
8.1907541133
  0
LINE
  5
2BC
100
AcDbEntity
  8
0
100
AcDbLine
 62
4
  6
CONTINUOUS
 10
12.0383986751
 20
8.6433593957
 11
12.0383986751
 21
8.6847562125
  0
LINE
  5
2BD
100
AcDbEntity
  8
0
100
AcDbLine
 62
4
  6
CONTINUOUS
 10
12.0472724638
 20
8.5774165381
 11
12.0472724638
 21
8.5332599299
  0
LINE
  5
2BE
100
AcDbEntity
  8
0
100
AcDbLine
 62
4
  6
CONTINUOUS
 10
12.0561462526
 20
7.8988007003
 11
12.0561462526
 21
7.9319181427
  0
LINE
  5
2BF
100
AcDbEntity
  8
0
100
AcDbLine
 62
4
  6
CONTINUOUS
 10
12.0561462526
 20
8.3652048917
 11
12.0561462526
 21
8.3983223617
  0
LINE
  5
2C0
100
AcDbEntity
  8
0
100
AcDbLine
 62
4
  6
CONTINUOUS
 10
12.0694569342
 20
8.7147561888
 11
12.0694569342
 21
8.6733593721
  0
LINE
  5
2C1
100
AcDbEntity
  8
0
100
AcDbLine
 62
4
  6
CONTINUOUS
 10
12.0694569342
 20
8.5105318759
 11
12.0694569342
 21
8.4442969636
  0
LINE
  5
2C2
100
AcDbEntity
  8
0
100
AcDbLine
 62
4
  6
CONTINUOUS
 10
12.0694569342
 20
8.4111794936
 11
12.0694569342
 21
8.3615033025
  0
LINE
  5
2C3
100
AcDbEntity
  8
0
100
AcDbLine
 62
4
  6
CONTINUOUS
 10
12.0694569342
 20
8.2207540897
 11
12.0694569342
 21
8.1876366473
  0
LINE
  5
2C4
100
AcDbEntity
  8
0
100
AcDbLine
 62
4
  6
CONTINUOUS
 10
12.0694569342
 20
8.1241615403
 11
12.0694569342
 21
8.0993234309
  0
LINE
  5
2C5
100
AcDbEntity
  8
0
100
AcDbLine
 62
4
  6
CONTINUOUS
 10
12.0694569342
 20
8.0496472674
 11
12.0694569342
 21
8.0082504369
  0
LINE
  5
2C6
100
AcDbEntity
  8
0
100
AcDbLine
 62
4
  6
CONTINUOUS
 10
12.0694569342
 20
7.9447752746
 11
12.0694569342
 21
7.8950991111
  0
LINE
  5
2C7
100
AcDbEntity
  8
0
100
AcDbLine
 62
4
  6
CONTINUOUS
 10
12.1067268451
 20
8.3492070027
 11
12.1067268451
 21
8.3243689002
  0
LINE
  5
2C8
100
AcDbEntity
  8
0
100
AcDbLine
 62
4
  6
CONTINUOUS
 10
12.1067268451
 20
8.2746927229
 11
12.1067268451
 21
8.2415752667
  0
LINE
  5
2C9
100
AcDbEntity
  8
0
100
AcDbLine
 62
4
  6
CONTINUOUS
 10
12.1067268451
 20
8.3961233989
 11
12.1067268451
 21
8.4292408567
  0
LINE
  5
2CA
100
AcDbEntity
  8
0
100
AcDbLine
 62
4
  6
CONTINUOUS
 10
12.0517093577
 20
8.7638482645
 11
12.0457934988
 21
8.7139773715
  0
LINE
  5
2CB
100
AcDbEntity
  8
0
100
AcDbLine
 62
4
  6
CONTINUOUS
 10
12.2056695852
 20
8.9153222307
 11
12.2189802678
 21
8.9861349152
  0
LINE
  5
2CC
100
AcDbEntity
  8
0
100
AcDbLine
 62
4
  6
CONTINUOUS
 10
12.0694569342
 20
8.6733593721
 11
12.0650200403
 21
8.6525149334
  0
LINE
  5
2CD
100
AcDbEntity
  8
0
100
AcDbLine
 62
4
  6
CONTINUOUS
 10
12.1990142437
 20
8.9668492157
 11
12.1967957965
 21
8.9564269953
  0
LINE
  5
2CE
100
AcDbEntity
  8
0
100
AcDbLine
 62
4
  6
CONTINUOUS
 10
12.0383986751
 20
8.1907541133
 11
12.0428355695
 21
8.2115985456
  0
LINE
  5
2CF
100
AcDbEntity
  8
0
100
AcDbLine
 62
4
  6
CONTINUOUS
 10
12.2012326908
 20
8.8779190634
 11
12.1967957965
 21
8.8570746243
  0
LINE
  5
2D0
100
AcDbEntity
  8
0
100
AcDbLine
 62
4
  6
CONTINUOUS
 10
12.1067268451
 20
8.4292408567
 11
12.1111637395
 21
8.4500852976
  0
LINE
  5
2D1
100
AcDbEntity
  8
0
100
AcDbLine
 62
4
  6
CONTINUOUS
 10
12.0383986751
 20
8.094161564
 11
12.0428355695
 21
8.1150059962
  0
LINE
  5
2D2
100
AcDbEntity
  8
0
100
AcDbLine
 62
4
  6
CONTINUOUS
 10
12.2278540556
 20
8.9450301489
 11
12.2256356077
 21
8.9346079286
  0
LINE
  5
2D3
100
AcDbEntity
  8
0
100
AcDbLine
 62
4
  6
CONTINUOUS
 10
12.2278540556
 20
8.8125603208
 11
12.1967957965
 21
8.7246047927
  0
LINE
  5
2D4
100
AcDbEntity
  8
0
100
AcDbLine
 62
4
  6
CONTINUOUS
 10
12.2189802678
 20
8.5390492227
 11
12.1967957965
 21
8.4927825582
  0
LINE
  5
2D5
100
AcDbEntity
  8
0
100
AcDbLine
 62
4
  6
CONTINUOUS
 10
12.0694569342
 20
8.5767667882
 11
12.0383986751
 21
8.5136493419
  0
LINE
  5
2D6
100
AcDbEntity
  8
0
100
AcDbLine
 62
4
  6
CONTINUOUS
 10
12.2278540556
 20
8.4261899852
 11
12.1967957965
 21
8.3961900089
  0
LINE
  5
2D7
100
AcDbEntity
  8
0
100
AcDbLine
 62
4
  6
CONTINUOUS
 10
12.1111637395
 20
8.3120958901
 11
12.1377851042
 21
8.3378101554
  0
LINE
  5
2D8
100
AcDbEntity
  8
0
100
AcDbLine
 62
4
  6
CONTINUOUS
 10
12.1967957965
 20
8.3630725113
 11
12.2189802678
 21
8.3845010663
  0
LINE
  5
2D9
100
AcDbEntity
  8
0
100
AcDbLine
 62
4
  6
CONTINUOUS
 10
12.1244744225
 20
8.2918355673
 11
12.1377851042
 21
8.3046926992
  0
LINE
  5
2DA
100
AcDbEntity
  8
0
100
AcDbLine
 62
4
  6
CONTINUOUS
 10
12.0428355695
 20
8.2115985456
 11
12.0650200403
 21
8.2330271002
  0
LINE
  5
2DB
100
AcDbEntity
  8
0
100
AcDbLine
 62
4
  6
CONTINUOUS
 10
12.2167618199
 20
8.3437212125
 11
12.212324926
 21
8.3394355018
  0
LINE
  5
2DC
100
AcDbEntity
  8
0
100
AcDbLine
 62
4
  6
CONTINUOUS
 10
12.1111637395
 20
8.2293022428
 11
12.1200375277
 21
8.2378736646
  0
LINE
  5
2DD
100
AcDbEntity
  8
0
100
AcDbLine
 62
4
  6
CONTINUOUS
 10
12.4970256342
 20
8.5892522202
 11
12.4944374465
 21
8.5867522227
  0
LINE
  5
2DE
100
AcDbEntity
  8
0
100
AcDbLine
 62
4
  6
CONTINUOUS
 10
12.1990142437
 20
8.290701094
 11
12.2056695852
 21
8.2971296606
  0
LINE
  5
2DF
100
AcDbEntity
  8
0
100
AcDbLine
 62
4
  6
CONTINUOUS
 10
12.0428355695
 20
8.1150059962
 11
12.0650200403
 21
8.1364345508
  0
LINE
  5
2E0
100
AcDbEntity
  8
0
100
AcDbLine
 62
4
  6
CONTINUOUS
 10
12.4814965056
 20
8.5162966812
 11
12.4763201289
 21
8.511296685
  0
LINE
  5
2E1
100
AcDbEntity
  8
0
100
AcDbLine
 62
4
  6
CONTINUOUS
 10
12.1967957965
 20
8.2388820749
 11
12.2145433739
 21
8.2560249193
  0
LINE
  5
2E2
100
AcDbEntity
  8
0
100
AcDbLine
 62
4
  6
CONTINUOUS
 10
12.2189802678
 20
8.2271931876
 11
12.1990142437
 21
8.2079074881
  0
LINE
  5
2E3
100
AcDbEntity
  8
0
100
AcDbLine
 62
4
  6
CONTINUOUS
 10
12.0650200403
 20
8.0784789991
 11
12.0428355695
 21
8.0570504445
  0
LINE
  5
2E4
100
AcDbEntity
  8
0
100
AcDbLine
 62
4
  6
CONTINUOUS
 10
12.0383986751
 20
8.0196472911
 11
12.0694569342
 21
8.0496472674
  0
LINE
  5
2E5
100
AcDbEntity
  8
0
100
AcDbLine
 62
4
  6
CONTINUOUS
 10
12.1967957965
 20
8.1560884138
 11
12.2189802678
 21
8.1775169689
  0
LINE
  5
2E6
100
AcDbEntity
  8
0
100
AcDbLine
 62
4
  6
CONTINUOUS
 10
12.1990142437
 20
8.125113827
 11
12.2278540556
 21
8.1529709478
  0
LINE
  5
2E7
100
AcDbEntity
  8
0
100
AcDbLine
 62
4
  6
CONTINUOUS
 10
12.0650200403
 20
7.9874060051
 11
12.0428355695
 21
7.9659774505
  0
LINE
  5
2E8
100
AcDbEntity
  8
0
100
AcDbLine
 62
4
  6
CONTINUOUS
 10
12.5099665761
 20
8.724907757
 11
12.4911071869
 21
8.7395117047
  0
LINE
  5
2E9
100
AcDbEntity
  8
0
100
AcDbLine
 62
4
  6
CONTINUOUS
 10
12.0650200403
 20
8.2330271002
 11
12.0694569342
 21
8.2207540897
  0
LINE
  5
2EA
100
AcDbEntity
  8
0
100
AcDbLine
 62
4
  6
CONTINUOUS
 10
12.1967957965
 20
7.888388987
 11
12.1990142437
 21
7.8822525096
  0
LINE
  5
2EB
100
AcDbEntity
  8
0
100
AcDbLine
 62
4
  6
CONTINUOUS
 10
12.1067268451
 20
8.2415752667
 11
12.1111637395
 21
8.2293022428
  0
LINE
  5
2EC
100
AcDbEntity
  8
0
100
AcDbLine
 62
4
  6
CONTINUOUS
 10
12.2167618199
 20
7.9490714611
 11
12.2189802678
 21
7.9429349844
  0
LINE
  5
2ED
100
AcDbEntity
  8
0
100
AcDbLine
 62
4
  6
CONTINUOUS
 10
12.1067268451
 20
8.3243689002
 11
12.1111637395
 21
8.3120958901
  0
LINE
  5
2EE
100
AcDbEntity
  8
0
100
AcDbLine
 62
4
  6
CONTINUOUS
 10
12.2167618199
 20
8.0235857892
 11
12.2189802678
 21
8.0174493125
  0
LINE
  5
2EF
100
AcDbEntity
  8
0
100
AcDbLine
 62
4
  6
CONTINUOUS
 10
12.0428355695
 20
8.6310863788
 11
12.0383986751
 21
8.6433593957
  0
LINE
  5
2F0
100
AcDbEntity
  8
0
100
AcDbLine
 62
4
  6
CONTINUOUS
 10
12.1333482103
 20
8.4715138522
 11
12.1377851042
 21
8.4592408331
  0
LINE
  5
2F1
100
AcDbEntity
  8
0
100
AcDbLine
 62
4
  6
CONTINUOUS
 10
12.0517093577
 20
7.8006822171
 11
12.0457934988
 21
7.839124544
  0
LINE
  5
2F2
100
AcDbEntity
  8
0
100
AcDbLine
 62
4
  6
CONTINUOUS
 10
12.0576252172
 20
8.7254059346
 11
12.0517093577
 21
8.7638482645
  0
LINE
  5
2F3
100
AcDbEntity
  8
0
100
AcDbLine
 62
4
  6
CONTINUOUS
 10
12.1244744225
 20
8.2587181111
 11
12.1244744225
 21
8.2918355673
  0
LINE
  5
2F4
100
AcDbEntity
  8
0
100
AcDbLine
 62
4
  6
CONTINUOUS
 10
12.1377851042
 20
8.4592408331
 11
12.1377851042
 21
8.4261233752
  0
LINE
  5
2F5
100
AcDbEntity
  8
0
100
AcDbLine
 62
4
  6
CONTINUOUS
 10
12.1377851042
 20
8.3046926992
 11
12.1377851042
 21
8.2550165081
  0
LINE
  5
2F6
100
AcDbEntity
  8
0
100
AcDbLine
 62
4
  6
CONTINUOUS
 10
12.1894009729
 20
8.5104778161
 11
12.1894009729
 21
8.4939190949
  0
LINE
  5
2F7
100
AcDbEntity
  8
0
100
AcDbLine
 62
4
  6
CONTINUOUS
 10
12.1967957965
 20
8.9564269953
 11
12.1967957965
 21
8.9233095366
  0
LINE
  5
2F8
100
AcDbEntity
  8
0
100
AcDbLine
 62
4
  6
CONTINUOUS
 10
12.1967957965
 20
8.8570746243
 11
12.1967957965
 21
8.8322365218
  0
LINE
  5
2F9
100
AcDbEntity
  8
0
100
AcDbLine
 62
4
  6
CONTINUOUS
 10
12.1967957965
 20
8.1974852444
 11
12.1967957965
 21
8.1560884138
  0
LINE
  5
2FA
100
AcDbEntity
  8
0
100
AcDbLine
 62
4
  6
CONTINUOUS
 10
12.1967957965
 20
7.9215064293
 11
12.1967957965
 21
7.888388987
  0
LINE
  5
2FB
100
AcDbEntity
  8
0
100
AcDbLine
 62
4
  6
CONTINUOUS
 10
12.1967957965
 20
7.9629032046
 11
12.1967957965
 21
7.9960207575
  0
LINE
  5
2FC
100
AcDbEntity
  8
0
100
AcDbLine
 62
4
  6
CONTINUOUS
 10
12.1967957965
 20
8.0981328621
 11
12.1967957965
 21
8.1146915833
  0
LINE
  5
2FD
100
AcDbEntity
  8
0
100
AcDbLine
 62
4
  6
CONTINUOUS
 10
12.1967957965
 20
8.2388820749
 11
12.1967957965
 21
8.2719995172
  0
LINE
  5
2FE
100
AcDbEntity
  8
0
100
AcDbLine
 62
4
  6
CONTINUOUS
 10
12.1967957965
 20
8.3961900089
 11
12.1967957965
 21
8.4293074512
  0
LINE
  5
2FF
100
AcDbEntity
  8
0
100
AcDbLine
 62
4
  6
CONTINUOUS
 10
12.2078880321
 20
8.2827137948
 11
12.2078880321
 21
8.2495963524
  0
LINE
  5
300
100
AcDbEntity
  8
0
100
AcDbLine
 62
4
  6
CONTINUOUS
 10
12.2189802678
 20
8.6218428838
 11
12.2189802678
 21
8.5804460532
  0
LINE
  5
301
100
AcDbEntity
  8
0
100
AcDbLine
 62
4
  6
CONTINUOUS
 10
12.2189802678
 20
8.4507360063
 11
12.2189802678
 21
8.4176185639
  0
LINE
  5
302
100
AcDbEntity
  8
0
100
AcDbLine
 62
4
  6
CONTINUOUS
 10
12.2189802678
 20
8.3845010663
 11
12.2189802678
 21
8.351383624
  0
LINE
  5
303
100
AcDbEntity
  8
0
100
AcDbLine
 62
4
  6
CONTINUOUS
 10
12.2189802678
 20
8.0174493125
 11
12.2189802678
 21
7.9843317596
  0
LINE
  5
304
100
AcDbEntity
  8
0
100
AcDbLine
 62
4
  6
CONTINUOUS
 10
12.2189802678
 20
7.9429349844
 11
12.2189802678
 21
7.909817542
  0
LINE
  5
305
100
AcDbEntity
  8
0
100
AcDbLine
 62
4
  6
CONTINUOUS
 10
12.2189802678
 20
8.2685899629
 11
12.2189802678
 21
8.3099867935
  0
LINE
  5
306
100
AcDbEntity
  8
0
100
AcDbLine
 62
4
  6
CONTINUOUS
 10
12.2278540556
 20
8.9781476067
 11
12.2278540556
 21
8.9450301489
  0
LINE
  5
307
100
AcDbEntity
  8
0
100
AcDbLine
 62
4
  6
CONTINUOUS
 10
12.2278540556
 20
8.078456675
 11
12.2278540556
 21
8.0756968973
  0
LINE
  5
308
100
AcDbEntity
  8
0
100
AcDbLine
 62
4
  6
CONTINUOUS
 10
12.2071485498
 20
7.8983889794
 11
12.2086275144
 21
7.9329349919
  0
LINE
  5
309
100
AcDbEntity
  8
0
100
AcDbLine
 62
4
  6
CONTINUOUS
 10
12.0576252172
 20
7.850553107
 11
12.0517093577
 21
7.8006822171
  0
LINE
  5
30A
100
AcDbEntity
  8
0
100
AcDbLine
 62
4
  6
CONTINUOUS
 10
12.1967957965
 20
8.4293074512
 11
12.1990142437
 21
8.4480090279
  0
LINE
  5
30B
100
AcDbEntity
  8
0
100
AcDbLine
 62
4
  6
CONTINUOUS
 10
12.1967957965
 20
8.2719995172
 11
12.1990142437
 21
8.290701094
  0
LINE
  5
30C
100
AcDbEntity
  8
0
100
AcDbLine
 62
4
  6
CONTINUOUS
 10
12.2086275144
 20
7.9329349919
 11
12.2101064791
 21
7.9426428951
  0
LINE
  5
30D
100
AcDbEntity
  8
0
100
AcDbLine
 62
4
  6
CONTINUOUS
 10
12.2056695852
 20
7.8886810762
 11
12.2071485498
 21
7.8983889794
  0
LINE
  5
30E
100
AcDbEntity
  8
0
100
AcDbLine
 62
4
  6
CONTINUOUS
 10
12.0694569342
 20
8.0993234309
 11
12.0650200403
 21
8.0784789991
  0
LINE
  5
30F
100
AcDbEntity
  8
0
100
AcDbLine
 62
4
  6
CONTINUOUS
 10
12.0694569342
 20
8.0082504369
 11
12.0650200403
 21
7.9874060051
  0
LINE
  5
310
100
AcDbEntity
  8
0
100
AcDbLine
 62
4
  6
CONTINUOUS
 10
12.1200375277
 20
8.2378736646
 11
12.1244744225
 21
8.2587181111
  0
LINE
  5
311
100
AcDbEntity
  8
0
100
AcDbLine
 62
4
  6
CONTINUOUS
 10
12.2189802678
 20
8.5804460532
 11
12.2167618199
 21
8.5700238364
  0
LINE
  5
312
100
AcDbEntity
  8
0
100
AcDbLine
 62
4
  6
CONTINUOUS
 10
12.1990142437
 20
8.2079074881
 11
12.1967957965
 21
8.1974852444
  0
LINE
  5
313
100
AcDbEntity
  8
0
100
AcDbLine
 62
4
  6
CONTINUOUS
 10
12.1967957965
 20
8.1146915833
 11
12.1990142437
 21
8.125113827
  0
LINE
  5
314
100
AcDbEntity
  8
0
100
AcDbLine
 62
4
  6
CONTINUOUS
 10
12.1967957965
 20
7.9960207575
 11
12.1990142437
 21
8.006442946
  0
LINE
  5
315
100
AcDbEntity
  8
0
100
AcDbLine
 62
4
  6
CONTINUOUS
 10
12.1990142437
 20
7.9319286178
 11
12.1967957965
 21
7.9215064293
  0
LINE
  5
316
100
AcDbEntity
  8
0
100
AcDbLine
 62
4
  6
CONTINUOUS
 10
12.2189802678
 20
7.909817542
 11
12.2167618199
 21
7.8993953529
  0
LINE
  5
317
100
AcDbEntity
  8
0
100
AcDbLine
 62
4
  6
CONTINUOUS
 10
12.2189802678
 20
8.351383624
 11
12.2167618199
 21
8.3437212125
  0
LINE
  5
318
100
AcDbEntity
  8
0
100
AcDbLine
 62
4
  6
CONTINUOUS
 10
12.2145433739
 20
8.2560249193
 11
12.2189802678
 21
8.2685899629
  0
LINE
  5
319
100
AcDbEntity
  8
0
100
AcDbLine
 62
4
  6
CONTINUOUS
 10
12.5099665761
 20
8.724907757
 11
12.4911071869
 21
8.6738702649
  0
LINE
  5
31A
100
AcDbEntity
  8
0
100
AcDbLine
 62
4
  6
CONTINUOUS
 10
12.478908317
 20
8.4630855751
 11
12.4866728818
 21
8.4778300132
  0
LINE
  5
31B
100
AcDbEntity
  8
0
100
AcDbLine
 62
4
  6
CONTINUOUS
 10
12.0383986751
 20
7.9147752983
 11
12.0694569342
 21
7.9447752746
  0
LINE
  5
31C
100
AcDbEntity
  8
0
100
AcDbLine
 62
4
  6
CONTINUOUS
 10
12.5022020113
 20
8.36243001
 11
12.4711437522
 21
8.3324300336
  0
LINE
  5
31D
100
AcDbEntity
  8
0
100
AcDbLine
 62
4
  6
CONTINUOUS
 10
12.1967957965
 20
8.0484566986
 11
12.2189802678
 21
8.0698852537
  0
LINE
  5
31E
100
AcDbEntity
  8
0
100
AcDbLine
 62
4
  6
CONTINUOUS
 10
12.2256356077
 20
8.0763138187
 11
12.2278540556
 21
8.078456675
  0
LINE
  5
31F
100
AcDbEntity
  8
0
100
AcDbLine
 62
4
  6
CONTINUOUS
 10
12.1990142437
 20
8.006442946
 11
12.2167618199
 21
8.0235857892
  0
LINE
  5
320
100
AcDbEntity
  8
0
100
AcDbLine
 62
4
  6
CONTINUOUS
 10
12.2101064791
 20
7.9426428951
 11
12.2167618199
 21
7.9490714611
  0
LINE
  5
321
100
AcDbEntity
  8
0
100
AcDbLine
 62
4
  6
CONTINUOUS
 10
12.1990142437
 20
7.8822525096
 11
12.2056695852
 21
7.8886810762
  0
LINE
  5
322
100
AcDbEntity
  8
0
100
AcDbLine
 62
4
  6
CONTINUOUS
 10
12.478908317
 20
8.3906411355
 11
12.4737319406
 21
8.4001300274
  0
LINE
  5
323
100
AcDbEntity
  8
0
100
AcDbLine
 62
4
  6
CONTINUOUS
 10
12.4763201289
 20
8.511296685
 11
12.4737319406
 21
8.5160411308
  0
LINE
  5
324
100
AcDbEntity
  8
0
100
AcDbLine
 62
4
  6
CONTINUOUS
 10
12.4944374465
 20
8.4780855633
 11
12.4996138237
 21
8.468596672
  0
LINE
  5
325
100
AcDbEntity
  8
0
100
AcDbLine
 62
4
  6
CONTINUOUS
 10
12.1967957965
 20
8.8322365218
 11
12.2012326908
 21
8.8199635117
  0
LINE
  5
326
100
AcDbEntity
  8
0
100
AcDbLine
 62
4
  6
CONTINUOUS
 10
12.1967957965
 20
8.9233095366
 11
12.2012326908
 21
8.9110365196
  0
LINE
  5
327
100
AcDbEntity
  8
0
100
AcDbLine
 62
4
  6
CONTINUOUS
 10
12.2234171617
 20
8.9904206259
 11
12.2278540556
 21
8.9781476067
  0
LINE
  5
328
100
AcDbEntity
  8
0
100
AcDbLine
 62
4
  6
CONTINUOUS
 10
12.2056695852
 20
8.2971296606
 11
12.2078880321
 21
8.2827137948
  0
LINE
  5
329
100
AcDbEntity
  8
0
100
AcDbLine
 62
4
  6
CONTINUOUS
 10
12.2167618199
 20
8.4651518712
 11
12.2189802678
 21
8.4507360063
  0
LINE
  5
32A
100
AcDbEntity
  8
0
100
AcDbLine
 62
7
  6
CONTINUOUS
 10
12.3618219421
 20
11.1484569065
 11
12.3618219421
 21
10.394068814
  0
LINE
  5
32B
100
AcDbEntity
  8
0
100
AcDbLine
 62
7
  6
CONTINUOUS
 10
12.3618219421
 20
6.4386021031
 11
12.3618219421
 21
6.8296213425
  0
LINE
  5
32C
100
AcDbEntity
  8
0
100
AcDbLine
 62
7
  6
CONTINUOUS
 10
12.3745997358
 20
6.8419637442
 11
12.3745997358
 21
6.4637222985
  0
LINE
  5
32D
100
AcDbEntity
  8
0
100
AcDbLine
 62
7
  6
CONTINUOUS
 10
12.3745997358
 20
10.4191890094
 11
12.3745997358
 21
11.1735771018
  0
LINE
  5
32E
100
AcDbEntity
  8
0
100
AcDbLine
 62
4
  6
CONTINUOUS
 10
12.4672614698
 20
8.6836577895
 11
12.4672614698
 21
7.5245467552
  0
LINE
  5
32F
100
AcDbEntity
  8
0
100
AcDbLine
 62
4
  6
CONTINUOUS
 10
12.4711437522
 20
8.3324300336
 11
12.4711437522
 21
8.2744744819
  0
LINE
  5
330
100
AcDbEntity
  8
0
100
AcDbLine
 62
4
  6
CONTINUOUS
 10
12.4711437522
 20
7.8687856199
 11
12.4711437522
 21
7.8108300682
  0
LINE
  5
331
100
AcDbEntity
  8
0
100
AcDbLine
 62
4
  6
CONTINUOUS
 10
12.4711437522
 20
7.5790078613
 11
12.4711437522
 21
7.636963413
  0
LINE
  5
332
100
AcDbEntity
  8
0
100
AcDbLine
 62
4
  6
CONTINUOUS
 10
12.4711437522
 20
8.4121189172
 11
12.4711437522
 21
8.4266078052
  0
LINE
  5
333
100
AcDbEntity
  8
0
100
AcDbLine
 62
4
  6
CONTINUOUS
 10
12.4711437522
 20
8.5280300207
 11
12.4711437522
 21
8.5425189086
  0
LINE
  5
334
100
AcDbEntity
  8
0
100
AcDbLine
 62
4
  6
CONTINUOUS
 10
12.4814965056
 20
7.9874522718
 11
12.4814965056
 21
7.943985608
  0
LINE
  5
335
100
AcDbEntity
  8
0
100
AcDbLine
 62
4
  6
CONTINUOUS
 10
12.4866728818
 20
7.6519634012
 11
12.4866728818
 21
7.6157411814
  0
LINE
  5
336
100
AcDbEntity
  8
0
100
AcDbLine
 62
4
  6
CONTINUOUS
 10
12.5022020113
 20
8.4566077815
 11
12.5022020113
 21
8.4421188936
  0
LINE
  5
337
100
AcDbEntity
  8
0
100
AcDbLine
 62
4
  6
CONTINUOUS
 10
12.5022020113
 20
7.6669633894
 11
12.5022020113
 21
7.6090078377
  0
LINE
  5
338
100
AcDbEntity
  8
0
100
AcDbLine
 62
4
  6
CONTINUOUS
 10
12.5022020113
 20
8.558029997
 11
12.5022020113
 21
8.5725188849
  0
LINE
  5
339
100
AcDbEntity
  8
0
100
AcDbLine
 62
7
  6
CONTINUOUS
 10
12.5229075053
 20
10.487665529
 11
12.5229075053
 21
6.9852180575
  0
LINE
  5
33A
100
AcDbEntity
  8
0
100
AcDbLine
 62
4
  6
CONTINUOUS
 10
12.4711437522
 20
8.5425189086
 11
12.4737319406
 21
8.5595077946
  0
LINE
  5
33B
100
AcDbEntity
  8
0
100
AcDbLine
 62
4
  6
CONTINUOUS
 10
12.4918492589
 20
8.5770077814
 11
12.4840846932
 21
8.5260411226
  0
LINE
  5
33C
100
AcDbEntity
  8
0
100
AcDbLine
 62
4
  6
CONTINUOUS
 10
12.4711437522
 20
8.4266078052
 11
12.4737319406
 21
8.4435966912
  0
LINE
  5
33D
100
AcDbEntity
  8
0
100
AcDbLine
 62
4
  6
CONTINUOUS
 10
12.4996138237
 20
8.5410411117
 11
12.5022020113
 21
8.558029997
  0
LINE
  5
33E
100
AcDbEntity
  8
0
100
AcDbLine
 62
4
  6
CONTINUOUS
 10
12.5022020113
 20
8.4421188936
 11
12.4996138237
 21
8.4251300082
  0
LINE
  5
33F
100
AcDbEntity
  8
0
100
AcDbLine
 62
4
  6
CONTINUOUS
 10
12.4737319406
 20
8.5595077946
 11
12.478908317
 21
8.5789966785
  0
LINE
  5
340
100
AcDbEntity
  8
0
100
AcDbLine
 62
4
  6
CONTINUOUS
 10
12.4944374465
 20
8.5867522227
 11
12.4918492589
 21
8.5770077814
  0
LINE
  5
341
100
AcDbEntity
  8
0
100
AcDbLine
 62
4
  6
CONTINUOUS
 10
12.4840846932
 20
8.5260411226
 11
12.4814965056
 21
8.5162966812
  0
LINE
  5
342
100
AcDbEntity
  8
0
100
AcDbLine
 62
4
  6
CONTINUOUS
 10
12.4737319406
 20
8.4435966912
 11
12.478908317
 21
8.4630855751
  0
LINE
  5
343
100
AcDbEntity
  8
0
100
AcDbLine
 62
4
  6
CONTINUOUS
 10
12.4970256342
 20
8.5312966685
 11
12.4996138237
 21
8.5410411117
  0
LINE
  5
344
100
AcDbEntity
  8
0
100
AcDbLine
 62
4
  6
CONTINUOUS
 10
12.4996138237
 20
8.4251300082
 11
12.4944374465
 21
8.4056411236
  0
LINE
  5
345
100
AcDbEntity
  8
0
100
AcDbLine
 62
4
  6
CONTINUOUS
 10
12.5022020113
 20
8.1378522471
 11
12.4711437522
 21
8.0716300509
  0
LINE
  5
346
100
AcDbEntity
  8
0
100
AcDbLine
 62
4
  6
CONTINUOUS
 10
12.4944374465
 20
8.4056411236
 11
12.4866728818
 21
8.3908966856
  0
LINE
  5
347
100
AcDbEntity
  8
0
100
AcDbLine
 62
4
  6
CONTINUOUS
 10
12.5022020113
 20
7.8987855962
 11
12.4711437522
 21
7.8687856199
  0
LINE
  5
348
100
AcDbEntity
  8
0
100
AcDbLine
 62
7
  6
CONTINUOUS
 10
11.8919072035
 20
9.8781660049
 11
9.4770924947
 21
10.0456339738
  0
LINE
  5
349
100
AcDbEntity
  8
0
100
AcDbLine
 62
7
  6
CONTINUOUS
 10
11.473938689
 20
9.9114393983
 11
9.9043091283
 21
10.0202935781
  0
LINE
  5
34A
100
AcDbEntity
  8
0
100
AcDbLine
 62
4
  6
CONTINUOUS
 10
12.4996138237
 20
8.5845077754
 11
12.4970256342
 21
8.5892522202
  0
LINE
  5
34B
100
AcDbEntity
  8
0
100
AcDbLine
 62
4
  6
CONTINUOUS
 10
12.4737319406
 20
8.4001300274
 11
12.4711437522
 21
8.4121189172
  0
LINE
  5
34C
100
AcDbEntity
  8
0
100
AcDbLine
 62
4
  6
CONTINUOUS
 10
12.4737319406
 20
8.5160411308
 11
12.4711437522
 21
8.5280300207
  0
LINE
  5
34D
100
AcDbEntity
  8
0
100
AcDbLine
 62
4
  6
CONTINUOUS
 10
12.4996138237
 20
8.468596672
 11
12.5022020113
 21
8.4566077815
  0
LINE
  5
34E
100
AcDbEntity
  8
0
100
AcDbLine
 62
4
  6
CONTINUOUS
 10
12.5022020113
 20
8.5725188849
 11
12.4996138237
 21
8.5845077754
  0
LINE
  5
34F
100
AcDbEntity
  8
0
100
AcDbLine
 62
4
  6
CONTINUOUS
 10
12.5022020113
 20
7.9857189238
 11
12.4711437522
 21
7.9194967276
  0
LINE
  5
350
100
AcDbEntity
  8
0
100
AcDbLine
 62
4
  6
CONTINUOUS
 10
12.5022020113
 20
7.7901189368
 11
12.4711437522
 21
7.7238967406
  0
LINE
  5
351
100
AcDbEntity
  8
0
100
AcDbLine
 62
4
  6
CONTINUOUS
 10
12.4711437522
 20
7.636963413
 11
12.5022020113
 21
7.6669633894
  0
LINE
  5
352
100
AcDbEntity
  8
0
100
AcDbLine
 62
7
  6
CONTINUOUS
 10
12.5229075053
 20
6.9852180575
 11
11.8919072035
 21
6.3757185334
  0
LINE
  5
353
100
AcDbEntity
  8
0
100
AcDbLine
 62
7
  6
CONTINUOUS
 10
12.3745997358
 20
10.4979507077
 11
12.5229075053
 21
10.487665529
  0
LINE
  5
354
100
AcDbEntity
  8
0
100
AcDbLine
 62
7
  6
CONTINUOUS
 10
11.473938689
 20
10.6658274908
 11
9.9043091283
 21
10.7746816705
  0
LINE
  5
355
100
AcDbEntity
  8
0
100
AcDbLine
 62
7
  6
CONTINUOUS
 10
11.9032742547
 20
10.7664775288
 11
11.9332179571
 21
10.7344572236
  0
LINE
  5
356
100
AcDbEntity
  8
0
100
AcDbLine
 62
7
  6
CONTINUOUS
 10
11.9332179571
 20
6.0246024203
 11
12.3618219421
 21
6.4386021031
  0
LINE
  5
357
100
AcDbEntity
  8
0
100
AcDbLine
 62
7
  6
CONTINUOUS
 10
11.4819620728
 20
10.7035211872
 11
9.9123325121
 21
10.812375367
  0
LINE
  5
358
100
AcDbEntity
  8
0
100
AcDbLine
 62
7
  6
CONTINUOUS
 10
11.932283167
 20
6.0237162773
 11
11.9332179571
 21
6.0246024203
  0
LINE
  5
359
100
AcDbEntity
  8
0
100
AcDbLine
 62
7
  6
CONTINUOUS
 10
11.932283167
 20
6.0237162773
 11
11.9024167406
 21
5.9959224322
  0
LINE
  5
35A
100
AcDbEntity
  8
0
100
AcDbLine
 62
7
  6
CONTINUOUS
 10
11.7908824148
 20
5.6905258179
 11
11.7602084043
 21
5.675373444
  0
LINE
  5
35B
100
AcDbEntity
  8
0
100
AcDbLine
 62
7
  6
CONTINUOUS
 10
10.5190038531
 20
11.3983749181
 11
12.0886334138
 21
11.2895207383
  0
LINE
  5
35C
100
AcDbEntity
  8
0
100
AcDbLine
 62
7
  6
CONTINUOUS
 10
12.3318782397
 20
11.1804772117
 11
12.3618219421
 21
11.1484569065
  0
LINE
  5
35D
100
AcDbEntity
  8
0
100
AcDbLine
 62
7
  6
CONTINUOUS
 10
12.360887152
 20
11.1995834402
 11
12.3310207256
 21
11.2273772852
  0
ARC
  5
35E
100
AcDbEntity
  8
0
100
AcDbCircle
 62
7
  6
CONTINUOUS
 10
11.2796388165
 20
7.8323925188
 40
2.210103635
100
AcDbArc
 50
273.2665005552
 51
274.6677615151
  0
ARC
  5
35F
100
AcDbEntity
  8
0
100
AcDbCircle
 62
7
  6
CONTINUOUS
 10
11.0596642429
 20
6.5933566349
 40
0.9538158545
100
AcDbArc
 50
254.2644742826
 51
256.7139235525
  0
ARC
  5
360
100
AcDbEntity
  8
0
100
AcDbCircle
 62
7
  6
CONTINUOUS
 10
11.4520014131
 20
6.375421019
 40
0.7641475746
100
AcDbArc
 50
293.7608747297
 51
296.3085175792
  0
ARC
  5
361
100
AcDbEntity
  8
0
100
AcDbCircle
 62
7
  6
CONTINUOUS
 10
11.4637487697
 20
6.7130639143
 40
0.0724996682
100
AcDbArc
 50
85.9797199949
 51
99.7451927659
  0
ARC
  5
362
100
AcDbEntity
  8
0
100
AcDbCircle
 62
7
  6
CONTINUOUS
 10
11.4739145819
 20
6.7036555743
 40
0.0724996089
100
AcDbArc
 50
265.9797251441
 51
279.7451958713
  0
SPLINE
  5
363
100
AcDbEntity
  8
0
100
AcDbSpline
 62
7
  6
CONTINUOUS
 70
0
 71
3
 72
9
 73
5
 74
0
 42
0.0000001
 43
0.0000001
 44
0.0000000001
 40
0.0
 40
0.0
 40
0.0
 40
0.0
 40
0.2426770998
 40
1.0
 40
1.0
 40
1.0
 40
1.0
 10
11.8809963041
 20
5.743625658
 30
0.0
 10
11.8803881136
 20
5.7430381911
 30
0.0
 10
11.8778550622
 20
5.7406453099
 30
0.0
 10
11.8752193485
 20
5.7383618404
 30
0.0
 10
11.8731785464
 20
5.7366889741
 30
0.0
  0
SPLINE
  5
364
100
AcDbEntity
  8
0
100
AcDbSpline
 62
7
  6
CONTINUOUS
 70
0
 71
3
 72
9
 73
5
 74
0
 42
0.0000001
 43
0.0000001
 44
0.0000000001
 40
0.0
 40
0.0
 40
0.0
 40
0.0
 40
0.2426666479
 40
1.0
 40
1.0
 40
1.0
 40
1.0
 10
11.8876265707
 20
5.7506446947
 30
0.0
 10
11.8871189429
 20
5.7500509218
 30
0.0
 10
11.8849952471
 20
5.7476313373
 30
0.0
 10
11.8827498387
 20
5.7453194425
 30
0.0
 10
11.8809963041
 20
5.743625658
 30
0.0
  0
SPLINE
  5
365
100
AcDbEntity
  8
0
100
AcDbSpline
 62
7
  6
CONTINUOUS
 70
0
 71
3
 72
9
 73
5
 74
0
 42
0.0000001
 43
0.0000001
 44
0.0000000001
 40
0.0
 40
0.0
 40
0.0
 40
0.0
 40
0.504378312
 40
1.0
 40
1.0
 40
1.0
 40
1.0
 10
11.8731785464
 20
5.7366889741
 30
0.0
 10
11.8596747961
 20
5.7282801203
 30
0.0
 10
11.8325619587
 20
5.7121454643
 30
0.0
 10
11.8046891622
 20
5.6973482695
 30
0.0
 10
11.7906750243
 20
5.6904234272
 30
0.0
  0
SPLINE
  5
366
100
AcDbEntity
  8
0
100
AcDbSpline
 62
7
  6
CONTINUOUS
 70
0
 71
3
 72
47
 73
43
 74
0
 42
0.0000001
 43
0.0000001
 44
0.0000000001
 40
0.0
 40
0.0
 40
0.0
 40
0.0
 40
0.0099874638
 40
0.0204476834
 40
0.0313771515
 40
0.0427708334
 40
0.0546218702
 40
0.0669225517
 40
0.0796641282
 40
0.0928362942
 40
0.1204271347
 40
0.1495984091
 40
0.1802407165
 40
0.2122338314
 40
0.2454489836
 40
0.2797497839
 40
0.3149929168
 40
0.3510298084
 40
0.3877071885
 40
0.4248680172
 40
0.4623527228
 40
0.4999997959
 40
0.5376468789
 40
0.575131606
 40
0.6122924455
 40
0.6489698269
 40
0.6850067267
 40
0.7202498875
 40
0.7545507276
 40
0.7877659112
 40
0.8197590481
 40
0.8504013805
 40
0.8795726993
 40
0.9071635849
 40
0.9203357726
 40
0.933077377
 40
0.9453780958
 40
0.9572291635
 40
0.968622847
 40
0.9795522717
 40
0.9900124597
 40
1.0
 40
1.0
 40
1.0
 40
1.0
 10
11.7602122897
 20
5.6753753987
 30
0.0
 10
11.7572217553
 20
5.6738981209
 30
0.0
 10
11.7510480489
 20
5.6709762051
 30
0.0
 10
11.7414458505
 20
5.6667767614
 30
0.0
 10
11.7312976724
 20
5.6626639266
 30
0.0
 10
11.7206152245
 20
5.6586427169
 30
0.0
 10
11.7094108488
 20
5.6547174116
 30
0.0
 10
11.6976973481
 20
5.6508926925
 30
0.0
 10
11.6854880922
 20
5.6471731218
 30
0.0
 10
11.6683002633
 20
5.64228359
 30
0.0
 10
11.6456699511
 20
5.6364881085
 30
0.0
 10
11.6171786727
 20
5.6301194362
 30
0.0
 10
11.5870786238
 20
5.6242639123
 30
0.0
 10
11.5555086175
 20
5.6189485706
 30
0.0
 10
11.5226139596
 20
5.6141984143
 30
0.0
 10
11.4885463085
 20
5.6100358821
 30
0.0
 10
11.4534628499
 20
5.6064801541
 30
0.0
 10
11.4175255291
 20
5.6035479837
 30
0.0
 10
11.3809002681
 20
5.6012531991
 30
0.0
 10
11.3437562357
 20
5.5996062517
 30
0.0
 10
11.3062650117
 20
5.5986150156
 30
0.0
 10
11.2685997715
 20
5.5982841591
 30
0.0
 10
11.2309345239
 20
5.5986149989
 30
0.0
 10
11.1934432855
 20
5.5996062189
 30
0.0
 10
11.156299241
 20
5.6012531496
 30
0.0
 10
11.1196739722
 20
5.6035479181
 30
0.0
 10
11.0837366375
 20
5.6064800716
 30
0.0
 10
11.048653152
 20
5.6100357851
 30
0.0
 10
11.0145854658
 20
5.6141983025
 30
0.0
 10
10.9816907744
 20
5.6189484455
 30
0.0
 10
10.950120739
 20
5.6242637714
 30
0.0
 10
10.9200206561
 20
5.630119281
 30
0.0
 10
10.8915293365
 20
5.6364879437
 30
0.0
 10
10.8688989825
 20
5.6422834117
 30
0.0
 10
10.8517111181
 20
5.647172934
 30
0.0
 10
10.8395018313
 20
5.6508925033
 30
0.0
 10
10.8277882992
 20
5.6547172296
 30
0.0
 10
10.8165838998
 20
5.6586425375
 30
0.0
 10
10.8059014491
 20
5.6626637289
 30
0.0
 10
10.795753277
 20
5.6667765127
 30
0.0
 10
10.7861510611
 20
5.6709759181
 30
0.0
 10
10.7799773399
 20
5.6738978387
 30
0.0
 10
10.7769867868
 20
5.6753751363
 30
0.0
  0
SPLINE
  5
367
100
AcDbEntity
  8
0
100
AcDbSpline
 62
7
  6
CONTINUOUS
 70
0
 71
3
 72
23
 73
19
 74
0
 42
0.0000001
 43
0.0000001
 44
0.0000000001
 40
0.0
 40
0.0
 40
0.0
 40
0.0
 40
0.0436203086
 40
0.0892268542
 40
0.137068591
 40
0.187353676
 40
0.2402538462
 40
0.2958872461
 40
0.3543311569
 40
0.4156094827
 40
0.4797102731
 40
0.5465788188
 40
0.6161346312
 40
0.6882694307
 40
0.7628606873
 40
0.8397744221
 40
0.9188692703
 40
1.0
 40
1.0
 40
1.0
 40
1.0
 10
10.7579805273
 20
5.6847638865
 30
0.0
 10
10.7556705917
 20
5.685904455
 30
0.0
 10
10.751033468
 20
5.6884195515
 30
0.0
 10
10.7442061785
 20
5.6927806036
 30
0.0
 10
10.7373697896
 20
5.6978228901
 30
0.0
 10
10.7305282399
 20
5.7035538224
 30
0.0
 10
10.7236871417
 20
5.7099774732
 30
0.0
 10
10.7168496012
 20
5.7170890456
 30
0.0
 10
10.7100213421
 20
5.7248798576
 30
0.0
 10
10.703205098
 20
5.7333332601
 30
0.0
 10
10.6964059295
 20
5.742429166
 30
0.0
 10
10.6896260792
 20
5.7521415479
 30
0.0
 10
10.6828694124
 20
5.762442096
 30
0.0
 10
10.6761375253
 20
5.7732990501
 30
0.0
 10
10.6694328083
 20
5.7846799036
 30
0.0
 10
10.6627561591
 20
5.7965509861
 30
0.0
 10
10.6561086667
 20
5.8088788251
 30
0.0
 10
10.6517495487
 20
5.8172782422
 30
0.0
 10
10.6495720171
 20
5.8215463751
 30
0.0
  0
SPLINE
  5
368
100
AcDbEntity
  8
0
100
AcDbSpline
 62
7
  6
CONTINUOUS
 70
0
 71
3
 72
21
 73
17
 74
0
 42
0.0000001
 43
0.0000001
 44
0.0000000001
 40
0.0
 40
0.0
 40
0.0
 40
0.0
 40
0.1230212981
 40
0.1847065752
 40
0.2465215318
 40
0.3084771567
 40
0.3705832678
 40
0.432847904
 40
0.4952752623
 40
0.5578663069
 40
0.6206183946
 40
0.6835249868
 40
0.7465773451
 40
0.8097643485
 40
0.8730733734
 40
1.0
 40
1.0
 40
1.0
 40
1.0
 10
11.4055712091
 20
5.6258796341
 30
0.0
 10
11.382492028
 20
5.621332278
 30
0.0
 10
11.3476595865
 20
5.6153598716
 30
0.0
 10
11.3008883715
 20
5.6094497243
 30
0.0
 10
11.2655770629
 20
5.6061225103
 30
0.0
 10
11.2300926201
 20
5.6039881026
 30
0.0
 10
11.1944678991
 20
5.6031173663
 30
0.0
 10
11.1587446876
 20
5.6035662615
 30
0.0
 10
11.1229710659
 20
5.6053682602
 30
0.0
 10
11.0871985397
 20
5.6085315462
 30
0.0
 10
11.0514785997
 20
5.6130404968
 30
0.0
 10
11.0158589864
 20
5.6188547385
 30
0.0
 10
10.9803808469
 20
5.6259124526
 30
0.0
 10
10.9450766561
 20
5.6341381423
 30
0.0
 10
10.89823273
 20
5.6465576944
 30
0.0
 10
10.8634723203
 20
5.6573454887
 30
0.0
 10
10.8404647345
 20
5.6650699012
 30
0.0
  0
SPLINE
  5
369
100
AcDbEntity
  8
0
100
AcDbSpline
 62
7
  6
CONTINUOUS
 70
0
 71
3
 72
11
 73
7
 74
0
 42
0.0000001
 43
0.0000001
 44
0.0000000001
 40
0.0
 40
0.0
 40
0.0
 40
0.0
 40
0.2465919593
 40
0.494712682
 40
0.7454424776
 40
1.0
 40
1.0
 40
1.0
 40
1.0
 10
10.8009919566
 20
5.675286195
 30
0.0
 10
10.7990495437
 20
5.6752313603
 30
0.0
 10
10.795148234
 20
5.6752387068
 30
0.0
 10
10.7892825427
 20
5.6756222286
 30
0.0
 10
10.7833924707
 20
5.676400511
 30
0.0
 10
10.7794860136
 20
5.6771900589
 30
0.0
 10
10.7775345685
 20
5.6776545202
 30
0.0
  0
SPLINE
  5
36A
100
AcDbEntity
  8
0
100
AcDbSpline
 62
7
  6
CONTINUOUS
 70
0
 71
3
 72
10
 73
6
 74
0
 42
0.0000001
 43
0.0000001
 44
0.0000000001
 40
0.0
 40
0.0
 40
0.0
 40
0.0
 40
0.2418255986
 40
0.4885199497
 40
1.0
 40
1.0
 40
1.0
 40
1.0
 10
10.7775345685
 20
5.6776545202
 30
0.0
 10
10.7759000511
 20
5.67804355
 30
0.0
 10
10.7726197407
 20
5.6789244105
 30
0.0
 10
10.7660208404
 20
5.6811067158
 30
0.0
 10
10.761166962
 20
5.6831905322
 30
0.0
 10
10.7579805273
 20
5.6847638865
 30
0.0
  0
LINE
  5
36B
100
AcDbEntity
  8
0
100
AcDbLine
 62
7
  6
CONTINUOUS
 10
11.7598920661
 20
5.6760463972
 11
11.7591629521
 21
5.6757265096
  0
SPLINE
  5
36C
100
AcDbEntity
  8
0
100
AcDbSpline
 62
7
  6
CONTINUOUS
 70
0
 71
3
 72
15
 73
11
 74
0
 42
0.0000001
 43
0.0000001
 44
0.0000000001
 40
0.0
 40
0.0
 40
0.0
 40
0.0
 40
0.1321602046
 40
0.2618009952
 40
0.3890353631
 40
0.5141096583
 40
0.6373677171
 40
0.75919507
 40
0.8799649792
 40
1.0
 40
1.0
 40
1.0
 40
1.0
 10
11.7591629521
 20
5.6757265096
 30
0.0
 10
11.7467818487
 20
5.6703027675
 30
0.0
 10
11.7219410848
 20
5.6602557783
 30
0.0
 10
11.6841470217
 20
5.6477223409
 30
0.0
 10
11.6462762522
 20
5.6380050514
 30
0.0
 10
11.6084498766
 20
5.6311365472
 30
0.0
 10
11.5707824906
 20
5.6270367187
 30
0.0
 10
11.5333669087
 20
5.6255300309
 30
0.0
 10
11.496266072
 20
5.6263768785
 30
0.0
 10
11.4717016526
 20
5.6283362285
 30
0.0
 10
11.4594920113
 20
5.6296190611
 30
0.0
  0
SPLINE
  5
36D
100
AcDbEntity
  8
0
100
AcDbSpline
 62
7
  6
CONTINUOUS
 70
0
 71
3
 72
83
 73
79
 74
0
 42
0.0000001
 43
0.0000001
 44
0.0000000001
 40
0.0
 40
0.0
 40
0.0
 40
0.0
 40
0.003980149
 40
0.0081240919
 40
0.0124359835
 40
0.0169193603
 40
0.0215772246
 40
0.0264119606
 40
0.0314252324
 40
0.0366182158
 40
0.0419916195
 40
0.0475457334
 40
0.0532805161
 40
0.0591955185
 40
0.0715625327
 40
0.0846382143
 40
0.0984095328
 40
0.1128601134
 40
0.1279706583
 40
0.1437192718
 40
0.1600817502
 40
0.1770318183
 40
0.1945413264
 40
0.2125804203
 40
0.2311176863
 40
0.2501203005
 40
0.269554164
 40
0.2893840224
 40
0.3095735802
 40
0.3300856048
 40
0.3508820422
 40
0.3719241252
 40
0.4145864312
 40
0.4577527569
 40
0.5010975799
 40
0.5442936399
 40
0.5870151259
 40
0.6080976714
 40
0.6289416876
 40
0.6495082871
 40
0.6697592834
 40
0.6896572915
 40
0.7091658343
 40
0.7282494515
 40
0.7468738239
 40
0.7650058946
 40
0.78261399
 40
0.7996679565
 40
0.8161393115
 40
0.8320014232
 40
0.8472297058
 40
0.8618018332
 40
0.8756980061
 40
0.8889012771
 40
0.9013979681
 40
0.9131781873
 40
0.9187980573
 40
0.924237173
 40
0.9294957148
 40
0.9345742409
 40
0.9394737433
 40
0.9441957547
 40
0.948742307
 40
0.9531161074
 40
0.9573205402
 40
0.9613597705
 40
0.9652388909
 40
0.9689639409
 40
0.9725421207
 40
0.975981843
 40
0.9792928682
 40
0.9824864417
 40
0.9855753029
 40
0.9885737828
 40
0.9914977139
 40
0.9943643205
 40
0.9971920042
 40
1.0
 40
1.0
 40
1.0
 40
1.0
 10
11.5717561665
 20
10.8982556647
 30
0.0
 10
11.5706866726
 20
10.8972226128
 30
0.0
 10
11.5684551011
 20
10.8951638062
 30
0.0
 10
11.5649120394
 20
10.8921567486
 30
0.0
 10
11.561108789
 20
10.8891712342
 30
0.0
 10
11.557047438
 20
10.886208898
 30
0.0
 10
11.5527299975
 20
10.8832710956
 30
0.0
 10
11.5481585541
 20
10.8803592823
 30
0.0
 10
11.5433353987
 20
10.8774748235
 30
0.0
 10
11.5382629271
 20
10.8746192051
 30
0.0
 10
11.5329436858
 20
10.8717938508
 30
0.0
 10
11.5273803497
 20
10.8690001485
 30
0.0
 10
11.5215756786
 20
10.8662395219
 30
0.0
 10
11.513396456
 20
10.8625497477
 30
0.0
 10
11.5025809734
 20
10.8580407801
 30
0.0
 10
11.4888747718
 20
10.8528608352
 30
0.0
 10
11.4742822332
 20
10.8478448731
 30
0.0
 10
11.458832727
 20
10.8430030744
 30
0.0
 10
11.4425571836
 20
10.8383452834
 30
0.0
 10
11.425488343
 20
10.8338809756
 30
0.0
 10
11.4076605768
 20
10.8296192405
 30
0.0
 10
11.3891098295
 20
10.8255687597
 30
0.0
 10
11.369873531
 20
10.8217377858
 30
0.0
 10
11.3499905219
 20
10.8181341274
 30
0.0
 10
11.3295009741
 20
10.8147651193
 30
0.0
 10
11.308446302
 20
10.8116376186
 30
0.0
 10
11.2868690712
 20
10.8087579911
 30
0.0
 10
11.2648129118
 20
10.8061320991
 30
0.0
 10
11.2423224277
 20
10.8037652886
 30
0.0
 10
11.2194431236
 20
10.8016623789
 30
0.0
 10
11.196221248
 20
10.799827615
 30
0.0
 10
11.1647213037
 20
10.7977343765
 30
0.0
 10
11.1248370689
 20
10.795819993
 30
0.0
 10
11.0765890437
 20
10.7946460638
 30
0.0
 10
11.028127204
 20
10.7945949266
 30
0.0
 10
10.9798435908
 20
10.7956670304
 30
0.0
 10
10.939907024
 20
10.7974968971
 30
0.0
 10
10.9083475842
 20
10.7995230512
 30
0.0
 10
10.8850684419
 20
10.8013086273
 30
0.0
 10
10.8621233785
 20
10.803363073
 30
0.0
 10
10.8395587721
 20
10.8056822348
 30
0.0
 10
10.8174202752
 20
10.8082613868
 30
0.0
 10
10.7957526629
 20
10.8110952842
 30
0.0
 10
10.7745997553
 20
10.8141781641
 30
0.0
 10
10.7540043185
 20
10.8175037507
 30
0.0
 10
10.7340079768
 20
10.8210652689
 30
0.0
 10
10.7146511295
 20
10.8248554656
 30
0.0
 10
10.6959728693
 20
10.8288666211
 30
0.0
 10
10.6780108975
 20
10.8330905692
 30
0.0
 10
10.6608014341
 20
10.8375187052
 30
0.0
 10
10.6443791396
 20
10.8421420054
 30
0.0
 10
10.6287770319
 20
10.8469510589
 30
0.0
 10
10.6140264431
 20
10.8519360859
 30
0.0
 10
10.6001568289
 20
10.8570869856
 30
0.0
 10
10.5871960557
 20
10.862393321
 30
0.0
 10
10.5770201039
 20
10.8670055332
 30
0.0
 10
10.5693641723
 20
10.8707739217
 30
0.0
 10
10.563955829
 20
10.8735879563
 30
0.0
 10
10.5587933052
 20
10.8764327248
 30
0.0
 10
10.5538791728
 20
10.8793068396
 30
0.0
 10
10.5492159045
 20
10.8822088983
 30
0.0
 10
10.5448057951
 20
10.8851374111
 30
0.0
 10
10.5406510711
 20
10.8880910014
 30
0.0
 10
10.5367537763
 20
10.8910681907
 30
0.0
 10
10.5331158481
 20
10.8940675501
 30
0.0
 10
10.5297391273
 20
10.8970876864
 30
0.0
 10
10.5266252589
 20
10.900127122
 30
0.0
 10
10.5237758761
 20
10.9031845162
 30
0.0
 10
10.5211924152
 20
10.9062584298
 30
0.0
 10
10.5188762593
 20
10.9093474866
 30
0.0
 10
10.5168287503
 20
10.9124503276
 30
0.0
 10
10.5150510414
 20
10.9155654973
 30
0.0
 10
10.513544385
 20
10.9186916035
 30
0.0
 10
10.5123098125
 20
10.9218270937
 30
0.0
 10
10.5113483405
 20
10.9249703315
 30
0.0
 10
10.5106608973
 20
10.9281196533
 30
0.0
 10
10.5102480748
 20
10.9312728257
 30
0.0
 10
10.5101562052
 20
10.9333793994
 30
0.0
 10
10.510156201
 20
10.9344284412
 30
0.0
  0
SPLINE
  5
36E
100
AcDbEntity
  8
0
100
AcDbSpline
 62
7
  6
CONTINUOUS
 70
0
 71
3
 72
41
 73
37
 74
0
 42
0.0000001
 43
0.0000001
 44
0.0000000001
 40
0.0
 40
0.0
 40
0.0
 40
0.0
 40
0.0311443777
 40
0.0624425595
 40
0.0938872477
 40
0.1254696093
 40
0.1571771289
 40
0.1889951561
 40
0.2209067114
 40
0.2528930218
 40
0.2849338418
 40
0.3170078727
 40
0.349093173
 40
0.3811675842
 40
0.4132091572
 40
0.4451965775
 40
0.4771095803
 40
0.5089293526
 40
0.5406389143
 40
0.5722234721
 40
0.6036707398
 40
0.6349712184
 40
0.6661184287
 40
0.6971090895
 40
0.7279432343
 40
0.7586242609
 40
0.7891589086
 40
0.8195571576
 40
0.8498320512
 40
0.8649308888
 40
0.8800050477
 40
0.9100832517
 40
0.9400926686
 40
0.9550812681
 40
0.9700610312
 40
1.0
 40
1.0
 40
1.0
 40
1.0
 10
11.5596286883
 20
9.3124777147
 30
0.0
 10
11.5629426421
 20
9.3122478912
 30
0.0
 10
11.5695725571
 20
9.3115445247
 30
0.0
 10
11.5794370324
 20
9.3097727916
 30
0.0
 10
11.5891958739
 20
9.3072910417
 30
0.0
 10
11.5987963155
 20
9.3041127431
 30
0.0
 10
11.6081874006
 20
9.3002548474
 30
0.0
 10
11.61731902
 20
9.2957380352
 30
0.0
 10
11.6261425305
 20
9.290586425
 30
0.0
 10
11.6346109155
 20
9.284827531
 30
0.0
 10
11.6426790549
 20
9.2784920795
 30
0.0
 10
11.6503039582
 20
9.2716138611
 30
0.0
 10
11.6574449919
 20
9.2642295465
 30
0.0
 10
11.6640640933
 20
9.2563784947
 30
0.0
 10
11.6701259715
 20
9.2481025447
 30
0.0
 10
11.6755982942
 20
9.2394457954
 30
0.0
 10
11.6804518581
 20
9.2304543724
 30
0.0
 10
11.6846607449
 20
9.2211761865
 30
0.0
 10
11.6882024593
 20
9.2116606804
 30
0.0
 10
11.6910580476
 20
9.2019585687
 30
0.0
 10
11.6932122004
 20
9.1921215708
 30
0.0
 10
11.6946533347
 20
9.1822021396
 30
0.0
 10
11.6953736591
 20
9.1722531846
 30
0.0
 10
11.6953692191
 20
9.162327796
 30
0.0
 10
11.694639918
 20
9.152478954
 30
0.0
 10
11.6931895415
 20
9.1427592871
 30
0.0
 10
11.6910256753
 20
9.1332206481
 30
0.0
 10
11.6881599224
 20
9.123914371
 30
0.0
 10
11.6851962882
 20
9.1163861323
 30
0.0
 10
11.6824917722
 20
9.1105317886
 30
0.0
 10
11.6795731553
 20
9.1048047049
 30
0.0
 10
11.6755207546
 20
9.0978775365
 30
0.0
 10
11.6709471961
 20
9.0912938691
 30
0.0
 10
11.6669949323
 20
9.0862615123
 30
0.0
 10
11.6628541876
 20
9.0813933721
 30
0.0
 10
11.6595366864
 20
9.0779277124
 30
0.0
 10
11.657239851
 20
9.0757091581
 30
0.0
  0
SPLINE
  5
36F
100
AcDbEntity
  8
0
100
AcDbSpline
 62
7
  6
CONTINUOUS
 70
0
 71
3
 72
41
 73
37
 74
0
 42
0.0000001
 43
0.0000001
 44
0.0000000001
 40
0.0
 40
0.0
 40
0.0
 40
0.0
 40
0.0311443777
 40
0.0624425595
 40
0.0938872477
 40
0.1254696093
 40
0.1571771289
 40
0.1889951561
 40
0.2209067114
 40
0.2528930218
 40
0.2849338418
 40
0.3170078727
 40
0.349093173
 40
0.3811675842
 40
0.4132091572
 40
0.4451965775
 40
0.4771095803
 40
0.5089293526
 40
0.5406389143
 40
0.5722234721
 40
0.6036707398
 40
0.6349712184
 40
0.6661184287
 40
0.6971090895
 40
0.7279432343
 40
0.7586242609
 40
0.7891589086
 40
0.8195571576
 40
0.8498320512
 40
0.8649308888
 40
0.8800050477
 40
0.9100832517
 40
0.9400926686
 40
0.9550812681
 40
0.9700610312
 40
1.0
 40
1.0
 40
1.0
 40
1.0
 10
9.8093710963
 20
9.4338584909
 30
0.0
 10
9.8126850501
 20
9.4336286675
 30
0.0
 10
9.8193149651
 20
9.432925301
 30
0.0
 10
9.8291794404
 20
9.4311535679
 30
0.0
 10
9.8389382819
 20
9.4286718179
 30
0.0
 10
9.8485387234
 20
9.4254935194
 30
0.0
 10
9.8579298086
 20
9.4216356237
 30
0.0
 10
9.867061428
 20
9.4171188114
 30
0.0
 10
9.8758849385
 20
9.4119672013
 30
0.0
 10
9.8843533235
 20
9.4062083073
 30
0.0
 10
9.8924214629
 20
9.3998728558
 30
0.0
 10
9.9000463662
 20
9.3929946374
 30
0.0
 10
9.9071873999
 20
9.3856103228
 30
0.0
 10
9.9138065013
 20
9.3777592709
 30
0.0
 10
9.9198683795
 20
9.369483321
 30
0.0
 10
9.9253407022
 20
9.3608265717
 30
0.0
 10
9.930194266
 20
9.3518351487
 30
0.0
 10
9.9344031529
 20
9.3425569628
 30
0.0
 10
9.9379448672
 20
9.3330414567
 30
0.0
 10
9.9408004556
 20
9.3233393449
 30
0.0
 10
9.9429546083
 20
9.3135023471
 30
0.0
 10
9.9443957427
 20
9.3035829159
 30
0.0
 10
9.9451160671
 20
9.2936339609
 30
0.0
 10
9.945111627
 20
9.2837085723
 30
0.0
 10
9.944382326
 20
9.2738597302
 30
0.0
 10
9.9429319495
 20
9.2641400634
 30
0.0
 10
9.9407680833
 20
9.2546014244
 30
0.0
 10
9.9379023304
 20
9.2452951472
 30
0.0
 10
9.9349386962
 20
9.2377669085
 30
0.0
 10
9.9322341802
 20
9.2319125648
 30
0.0
 10
9.9293155633
 20
9.2261854812
 30
0.0
 10
9.9252631626
 20
9.2192583127
 30
0.0
 10
9.9206896041
 20
9.2126746453
 30
0.0
 10
9.9167373403
 20
9.2076422886
 30
0.0
 10
9.9125965956
 20
9.2027741484
 30
0.0
 10
9.9092790944
 20
9.1993084887
 30
0.0
 10
9.906982259
 20
9.1970899344
 30
0.0
  0
SPLINE
  5
370
100
AcDbEntity
  8
0
100
AcDbSpline
 62
7
  6
CONTINUOUS
 70
0
 71
3
 72
41
 73
37
 74
0
 42
0.0000001
 43
0.0000001
 44
0.0000000001
 40
0.0
 40
0.0
 40
0.0
 40
0.0
 40
0.0311443777
 40
0.0624425595
 40
0.0938872477
 40
0.1254696093
 40
0.1571771289
 40
0.1889951561
 40
0.2209067114
 40
0.2528930218
 40
0.2849338418
 40
0.3170078727
 40
0.349093173
 40
0.3811675842
 40
0.4132091572
 40
0.4451965775
 40
0.4771095803
 40
0.5089293526
 40
0.5406389143
 40
0.5722234721
 40
0.6036707398
 40
0.6349712184
 40
0.6661184287
 40
0.6971090895
 40
0.7279432343
 40
0.7586242609
 40
0.7891589086
 40
0.8195571576
 40
0.8498320512
 40
0.8649308888
 40
0.8800050477
 40
0.9100832517
 40
0.9400926686
 40
0.9550812681
 40
0.9700610312
 40
1.0
 40
1.0
 40
1.0
 40
1.0
 10
9.8093710963
 20
7.3812659884
 30
0.0
 10
9.8126850501
 20
7.381036165
 30
0.0
 10
9.8193149651
 20
7.3803327985
 30
0.0
 10
9.8291794404
 20
7.3785610654
 30
0.0
 10
9.8389382819
 20
7.3760793155
 30
0.0
 10
9.8485387234
 20
7.3729010169
 30
0.0
 10
9.8579298086
 20
7.3690431212
 30
0.0
 10
9.867061428
 20
7.364526309
 30
0.0
 10
9.8758849385
 20
7.3593746988
 30
0.0
 10
9.8843533235
 20
7.3536158048
 30
0.0
 10
9.8924214629
 20
7.3472803533
 30
0.0
 10
9.9000463662
 20
7.3404021349
 30
0.0
 10
9.9071873999
 20
7.3330178203
 30
0.0
 10
9.9138065013
 20
7.3251667685
 30
0.0
 10
9.9198683795
 20
7.3168908185
 30
0.0
 10
9.9253407022
 20
7.3082340692
 30
0.0
 10
9.930194266
 20
7.2992426462
 30
0.0
 10
9.9344031529
 20
7.2899644603
 30
0.0
 10
9.9379448672
 20
7.2804489542
 30
0.0
 10
9.9408004556
 20
7.2707468424
 30
0.0
 10
9.9429546083
 20
7.2609098446
 30
0.0
 10
9.9443957427
 20
7.2509904134
 30
0.0
 10
9.9451160671
 20
7.2410414584
 30
0.0
 10
9.945111627
 20
7.2311160698
 30
0.0
 10
9.944382326
 20
7.2212672278
 30
0.0
 10
9.9429319495
 20
7.2115475609
 30
0.0
 10
9.9407680833
 20
7.2020089219
 30
0.0
 10
9.9379023304
 20
7.1927026448
 30
0.0
 10
9.9349386962
 20
7.1851744061
 30
0.0
 10
9.9322341802
 20
7.1793200624
 30
0.0
 10
9.9293155633
 20
7.1735929787
 30
0.0
 10
9.9252631626
 20
7.1666658103
 30
0.0
 10
9.9206896041
 20
7.1600821429
 30
0.0
 10
9.9167373403
 20
7.1550497861
 30
0.0
 10
9.9125965956
 20
7.1501816459
 30
0.0
 10
9.9092790944
 20
7.1467159862
 30
0.0
 10
9.906982259
 20
7.1444974319
 30
0.0
  0
SPLINE
  5
371
100
AcDbEntity
  8
0
100
AcDbSpline
 62
7
  6
CONTINUOUS
 70
0
 71
3
 72
41
 73
37
 74
0
 42
0.0000001
 43
0.0000001
 44
0.0000000001
 40
0.0
 40
0.0
 40
0.0
 40
0.0
 40
0.0311443777
 40
0.0624425595
 40
0.0938872477
 40
0.1254696093
 40
0.1571771289
 40
0.1889951561
 40
0.2209067114
 40
0.2528930218
 40
0.2849338418
 40
0.3170078727
 40
0.349093173
 40
0.3811675842
 40
0.4132091572
 40
0.4451965775
 40
0.4771095803
 40
0.5089293526
 40
0.5406389143
 40
0.5722234721
 40
0.6036707398
 40
0.6349712184
 40
0.6661184287
 40
0.6971090895
 40
0.7279432343
 40
0.7586242609
 40
0.7891589086
 40
0.8195571576
 40
0.8498320512
 40
0.8649308888
 40
0.8800050477
 40
0.9100832517
 40
0.9400926686
 40
0.9550812681
 40
0.9700610312
 40
1.0
 40
1.0
 40
1.0
 40
1.0
 10
11.5596286883
 20
7.2598852122
 30
0.0
 10
11.5629426421
 20
7.2596553887
 30
0.0
 10
11.5695725571
 20
7.2589520222
 30
0.0
 10
11.5794370324
 20
7.2571802891
 30
0.0
 10
11.5891958739
 20
7.2546985392
 30
0.0
 10
11.5987963155
 20
7.2515202406
 30
0.0
 10
11.6081874006
 20
7.2476623449
 30
0.0
 10
11.61731902
 20
7.2431455327
 30
0.0
 10
11.6261425305
 20
7.2379939225
 30
0.0
 10
11.6346109155
 20
7.2322350285
 30
0.0
 10
11.6426790549
 20
7.225899577
 30
0.0
 10
11.6503039582
 20
7.2190213586
 30
0.0
 10
11.6574449919
 20
7.211637044
 30
0.0
 10
11.6640640933
 20
7.2037859922
 30
0.0
 10
11.6701259715
 20
7.1955100423
 30
0.0
 10
11.6755982942
 20
7.1868532929
 30
0.0
 10
11.6804518581
 20
7.1778618699
 30
0.0
 10
11.6846607449
 20
7.168583684
 30
0.0
 10
11.6882024593
 20
7.1590681779
 30
0.0
 10
11.6910580476
 20
7.1493660662
 30
0.0
 10
11.6932122004
 20
7.1395290683
 30
0.0
 10
11.6946533347
 20
7.1296096371
 30
0.0
 10
11.6953736591
 20
7.1196606821
 30
0.0
 10
11.6953692191
 20
7.1097352935
 30
0.0
 10
11.694639918
 20
7.0998864515
 30
0.0
 10
11.6931895415
 20
7.0901667846
 30
0.0
 10
11.6910256753
 20
7.0806281456
 30
0.0
 10
11.6881599224
 20
7.0713218685
 30
0.0
 10
11.6851962882
 20
7.0637936298
 30
0.0
 10
11.6824917722
 20
7.0579392861
 30
0.0
 10
11.6795731553
 20
7.0522122024
 30
0.0
 10
11.6755207546
 20
7.045285034
 30
0.0
 10
11.6709471961
 20
7.0387013666
 30
0.0
 10
11.6669949323
 20
7.0336690098
 30
0.0
 10
11.6628541876
 20
7.0288008696
 30
0.0
 10
11.6595366864
 20
7.0253352099
 30
0.0
 10
11.657239851
 20
7.0231166556
 30
0.0
  0
SPLINE
  5
372
100
AcDbEntity
  8
0
100
AcDbSpline
 62
7
  6
CONTINUOUS
 70
0
 71
3
 72
37
 73
33
 74
0
 42
0.0000001
 43
0.0000001
 44
0.0000000001
 40
0.0
 40
0.0
 40
0.0
 40
0.0
 40
0.0311467573
 40
0.0624481077
 40
0.0938952645
 40
0.125480423
 40
0.1571906467
 40
0.189011416
 40
0.2209257215
 40
0.2529147894
 40
0.2849583708
 40
0.3170351623
 40
0.381163081
 40
0.4451600481
 40
0.4770758024
 40
0.508898317
 40
0.5406106103
 40
0.5721978896
 40
0.6036478697
 40
0.6349510521
 40
0.6661009568
 40
0.6970942988
 40
0.7279311085
 40
0.7586147837
 40
0.7891520652
 40
0.819552936
 40
0.8498304416
 40
0.8800004329
 40
0.9100812331
 40
0.9400932378
 40
0.9700584557
 40
1.0
 40
1.0
 40
1.0
 40
1.0
 10
9.9001679967
 20
9.805721768
 30
0.0
 10
9.9023851348
 20
9.805568009
 30
0.0
 10
9.9068208076
 20
9.8050974174
 30
0.0
 10
9.9134205121
 20
9.8039120852
 30
0.0
 10
9.9199495601
 20
9.8022516742
 30
0.0
 10
9.9263726089
 20
9.8001252957
 30
0.0
 10
9.9326556039
 20
9.7975442195
 30
0.0
 10
9.9387650025
 20
9.7945223198
 30
0.0
 10
9.9446682802
 20
9.7910756957
 30
0.0
 10
9.9503339106
 20
9.7872228317
 30
0.0
 10
9.9557319551
 20
9.7829839977
 30
0.0
 10
9.9625314169
 20
9.7768506047
 30
0.0
 10
9.9702194039
 20
9.7683400356
 30
0.0
 10
9.9766709619
 20
9.7588712671
 30
0.0
 10
9.9810032113
 20
9.7508453028
 30
0.0
 10
9.9838192648
 20
9.7446376641
 30
0.0
 10
9.9861887823
 20
9.7382714881
 30
0.0
 10
9.9880993069
 20
9.7317804023
 30
0.0
 10
9.9895405375
 20
9.7251990889
 30
0.0
 10
9.9905047393
 20
9.7185626179
 30
0.0
 10
9.9909866928
 20
9.7119063932
 30
0.0
 10
9.9909837468
 20
9.7052659317
 30
0.0
 10
9.9904958374
 20
9.6986766853
 30
0.0
 10
9.989525496
 20
9.6921738484
 30
0.0
 10
9.9880778286
 20
9.6857921714
 30
0.0
 10
9.9861604947
 20
9.679565775
 30
0.0
 10
9.9837836731
 20
9.6735279701
 30
0.0
 10
9.9809600011
 20
9.6677110668
 30
0.0
 10
9.9777045529
 20
9.6621462402
 30
0.0
 10
9.9740346048
 20
9.6568632031
 30
0.0
 10
9.9699701501
 20
9.6518906098
 30
0.0
 10
9.9670106877
 20
9.6487989729
 30
0.0
 10
9.965474023
 20
9.6473146723
 30
0.0
  0
SPLINE
  5
373
100
AcDbEntity
  8
0
100
AcDbSpline
 62
7
  6
CONTINUOUS
 70
0
 71
3
 72
37
 73
33
 74
0
 42
0.0000001
 43
0.0000001
 44
0.0000000001
 40
0.0
 40
0.0
 40
0.0
 40
0.0
 40
0.0311467573
 40
0.0624481077
 40
0.0938952645
 40
0.125480423
 40
0.1571906467
 40
0.189011416
 40
0.2209257215
 40
0.2529147894
 40
0.2849583708
 40
0.3170351623
 40
0.381163081
 40
0.4451600481
 40
0.4770758024
 40
0.508898317
 40
0.5406106103
 40
0.5721978896
 40
0.6036478697
 40
0.6349510521
 40
0.6661009568
 40
0.6970942988
 40
0.7279311085
 40
0.7586147837
 40
0.7891520652
 40
0.819552936
 40
0.8498304416
 40
0.8800004329
 40
0.9100812331
 40
0.9400932378
 40
0.9700584557
 40
1.0
 40
1.0
 40
1.0
 40
1.0
 10
9.9001679967
 20
6.9079440023
 30
0.0
 10
9.9023851348
 20
6.9077902433
 30
0.0
 10
9.9068208076
 20
6.9073196516
 30
0.0
 10
9.9134205121
 20
6.9061343195
 30
0.0
 10
9.9199495601
 20
6.9044739084
 30
0.0
 10
9.9263726089
 20
6.9023475299
 30
0.0
 10
9.9326556039
 20
6.8997664538
 30
0.0
 10
9.9387650025
 20
6.8967445541
 30
0.0
 10
9.9446682802
 20
6.89329793
 30
0.0
 10
9.9503339106
 20
6.889445066
 30
0.0
 10
9.9557319551
 20
6.885206232
 30
0.0
 10
9.9625314169
 20
6.879072839
 30
0.0
 10
9.9702194039
 20
6.8705622699
 30
0.0
 10
9.9766709619
 20
6.8610935014
 30
0.0
 10
9.9810032113
 20
6.853067537
 30
0.0
 10
9.9838192648
 20
6.8468598984
 30
0.0
 10
9.9861887823
 20
6.8404937224
 30
0.0
 10
9.9880993069
 20
6.8340026366
 30
0.0
 10
9.9895405375
 20
6.8274213232
 30
0.0
 10
9.9905047393
 20
6.8207848522
 30
0.0
 10
9.9909866928
 20
6.8141286275
 30
0.0
 10
9.9909837468
 20
6.807488166
 30
0.0
 10
9.9904958374
 20
6.8008989196
 30
0.0
 10
9.989525496
 20
6.7943960827
 30
0.0
 10
9.9880778286
 20
6.7880144057
 30
0.0
 10
9.9861604947
 20
6.7817880093
 30
0.0
 10
9.9837836731
 20
6.7757502044
 30
0.0
 10
9.9809600011
 20
6.7699333011
 30
0.0
 10
9.9777045529
 20
6.7643684745
 30
0.0
 10
9.9740346048
 20
6.7590854374
 30
0.0
 10
9.9699701501
 20
6.7541128441
 30
0.0
 10
9.9670106877
 20
6.7510212072
 30
0.0
 10
9.965474023
 20
6.7495369066
 30
0.0
  0
SPLINE
  5
374
100
AcDbEntity
  8
0
100
AcDbSpline
 62
7
  6
CONTINUOUS
 70
0
 71
3
 72
23
 73
19
 74
0
 42
0.0000001
 43
0.0000001
 44
0.0000000001
 40
0.0
 40
0.0
 40
0.0
 40
0.0
 40
0.0639322493
 40
0.1275597834
 40
0.1908824063
 40
0.2539228123
 40
0.3167008245
 40
0.3792442508
 40
0.4415853293
 40
0.5037599246
 40
0.5658068489
 40
0.6277668185
 40
0.6896816698
 40
0.7515932794
 40
0.8135426371
 40
0.875569174
 40
0.9377101699
 40
1.0
 40
1.0
 40
1.0
 40
1.0
 10
11.2155190756
 20
6.8457019417
 30
0.0
 10
11.2155190756
 20
6.8439946834
 30
0.0
 10
11.2153990628
 20
6.8405870446
 30
0.0
 10
11.2148571568
 20
6.8355144057
 30
0.0
 10
11.2139567576
 20
6.8305168784
 30
0.0
 10
11.2127033558
 20
6.8256194563
 30
0.0
 10
11.211104087
 20
6.8208457174
 30
0.0
 10
11.2091682136
 20
6.8162185172
 30
0.0
 10
11.2069067319
 20
6.811759495
 30
0.0
 10
11.2043322375
 20
6.8074890626
 30
0.0
 10
11.201458775
 20
6.8034262857
 30
0.0
 10
11.1983016806
 20
6.7995887977
 30
0.0
 10
11.1948774392
 20
6.7959927286
 30
0.0
 10
11.1912034509
 20
6.7926527294
 30
0.0
 10
11.1872979186
 20
6.7895819957
 30
0.0
 10
11.1831796119
 20
6.786792201
 30
0.0
 10
11.1788681911
 20
6.7842937182
 30
0.0
 10
11.1758817222
 20
6.7828298497
 30
0.0
 10
11.1743638767
 20
6.7821493788
 30
0.0
  0
SPLINE
  5
375
100
AcDbEntity
  8
0
100
AcDbSpline
 62
7
  6
CONTINUOUS
 70
0
 71
3
 72
30
 73
26
 74
0
 42
0.0000001
 43
0.0000001
 44
0.0000000001
 40
0.0
 40
0.0
 40
0.0
 40
0.0
 40
0.0309903631
 40
0.0621247618
 40
0.0933923433
 40
0.1247889304
 40
0.1563036207
 40
0.1879245701
 40
0.251398538
 40
0.3151187112
 40
0.3789478298
 40
0.4427450767
 40
0.5063751454
 40
0.5697157965
 40
0.6326643202
 40
0.6951426837
 40
0.7571013587
 40
0.787894281
 40
0.8185532488
 40
0.849081165
 40
0.8794830174
 40
0.9097658514
 40
0.9399387071
 40
0.9700125134
 40
1.0
 40
1.0
 40
1.0
 40
1.0
 10
11.4688316727
 20
9.6831629485
 30
0.0
 10
11.4704900439
 20
9.68304794
 30
0.0
 10
11.4738077842
 20
9.6827055138
 30
0.0
 10
11.4787492821
 20
9.6818611292
 30
0.0
 10
11.4836459701
 20
9.6806886558
 30
0.0
 10
11.4884753424
 20
9.6791941563
 30
0.0
 10
11.4932162191
 20
9.6773847206
 30
0.0
 10
11.4993973185
 20
9.674561686
 30
0.0
 10
11.5067969778
 20
9.6702913249
 30
0.0
 10
11.5149879927
 20
9.6640927222
 30
0.0
 10
11.5223719908
 20
9.6569265389
 30
0.0
 10
11.5288298671
 20
9.6489227062
 30
0.0
 10
11.5342621606
 20
9.640221302
 30
0.0
 10
11.5385875109
 20
9.6309702518
 30
0.0
 10
11.5417428741
 20
9.6213222374
 30
0.0
 10
11.5436832582
 20
9.6114345338
 30
0.0
 10
11.5442657029
 20
9.6031044533
 30
0.0
 10
11.5441011748
 20
9.5964829637
 30
0.0
 10
11.54366541
 20
9.59156484
 30
0.0
 10
11.5429183843
 20
9.5867056502
 30
0.0
 10
11.5418627101
 20
9.5819246057
 30
0.0
 10
11.5405020183
 20
9.5772410733
 30
0.0
 10
11.5388409924
 20
9.5726740397
 30
0.0
 10
11.5368856789
 20
9.5682425481
 30
0.0
 10
11.5353883688
 20
9.5653865917
 30
0.0
 10
11.5345934455
 20
9.5639881787
 30
0.0
  0
SPLINE
  5
376
100
AcDbEntity
  8
0
100
AcDbSpline
 62
7
  6
CONTINUOUS
 70
0
 71
3
 72
40
 73
36
 74
0
 42
0.0000001
 43
0.0000001
 44
0.0000000001
 40
0.0
 40
0.0
 40
0.0
 40
0.0
 40
0.0313813651
 40
0.0471508371
 40
0.0629673107
 40
0.0947285236
 40
0.1266535939
 40
0.1587178908
 40
0.1908923523
 40
0.2231448551
 40
0.2554413351
 40
0.2877469717
 40
0.3200272834
 40
0.3522491397
 40
0.3843816669
 40
0.4163970429
 40
0.4482711828
 40
0.479984318
 40
0.5115214776
 40
0.5428728727
 40
0.5740341856
 40
0.605006759
 40
0.635797675
 40
0.6664197082
 40
0.6968911344
 40
0.7272353737
 40
0.7574804489
 40
0.787658245
 40
0.8178035688
 40
0.8479530195
 40
0.8781437022
 40
0.908411829
 40
0.9387912983
 40
0.9693122383
 40
1.0
 40
1.0
 40
1.0
 40
1.0
 10
11.4688316895
 20
6.7853851824
 30
0.0
 10
11.4711490171
 20
6.7852244751
 30
0.0
 10
11.4746222293
 20
6.7848190704
 30
0.0
 10
11.4792044246
 20
6.7839597393
 30
0.0
 10
11.4837701341
 20
6.7828848215
 30
0.0
 10
11.4894011537
 20
6.7811451393
 30
0.0
 10
11.4959663764
 20
6.7784502821
 30
0.0
 10
11.5022944724
 20
6.7751706734
 30
0.0
 10
11.5083317463
 20
6.7713373516
 30
0.0
 10
11.5140284038
 20
6.7669858956
 30
0.0
 10
11.5193383764
 20
6.7621559367
 30
0.0
 10
11.5242197605
 20
6.756890543
 30
0.0
 10
11.5286349574
 20
6.7512356478
 30
0.0
 10
11.5325507816
 20
6.7452395084
 30
0.0
 10
11.5359384829
 20
6.7389522149
 30
0.0
 10
11.5387737213
 20
6.7324252558
 30
0.0
 10
11.5410365068
 20
6.7257111412
 30
0.0
 10
11.5427111245
 20
6.718863083
 30
0.0
 10
11.5437860574
 20
6.7119347236
 30
0.0
 10
11.544253923
 20
6.7049799046
 30
0.0
 10
11.5441114296
 20
6.6980524636
 30
0.0
 10
11.5433593622
 20
6.6912060461
 30
0.0
 10
11.5420025984
 20
6.6844939177
 30
0.0
 10
11.5400501551
 20
6.6779687633
 30
0.0
 10
11.5375152615
 20
6.6716824586
 30
0.0
 10
11.5344154498
 20
6.6656858015
 30
0.0
 10
11.5307726518
 20
6.6600281929
 30
0.0
 10
11.5266132853
 20
6.6547572594
 30
0.0
 10
11.5219683093
 20
6.6499184158
 30
0.0
 10
11.5168732378
 20
6.645554371
 30
0.0
 10
11.5113680499
 20
6.6417045832
 30
0.0
 10
11.5054971282
 20
6.6384046998
 30
0.0
 10
11.4993086521
 20
6.6356859245
 30
0.0
 10
11.4928555125
 20
6.6335746645
 30
0.0
 10
11.4884248016
 20
6.6325885658
 30
0.0
 10
11.4861863635
 20
6.6322021163
 30
0.0
  0
SPLINE
  5
377
100
AcDbEntity
  8
0
100
AcDbSpline
 62
7
  6
CONTINUOUS
 70
0
 71
3
 72
24
 73
20
 74
0
 42
0.0000001
 43
0.0000001
 44
0.0000000001
 40
0.0
 40
0.0
 40
0.0
 40
0.0
 40
0.0639211483
 40
0.1275610973
 40
0.1909251558
 40
0.254026558
 40
0.3168811242
 40
0.3795097285
 40
0.4419368169
 40
0.5041903399
 40
0.566301104
 40
0.628302225
 40
0.6902284967
 40
0.7211791137
 40
0.7521245071
 40
0.8140089496
 40
0.8759265377
 40
0.937912348
 40
1.0
 40
1.0
 40
1.0
 40
1.0
 10
11.5329483257
 20
8.1528020941
 30
0.0
 10
11.5329483257
 20
8.1483616032
 30
0.0
 10
11.5326647862
 20
8.1394974551
 30
0.0
 10
11.5313841339
 20
8.1262872657
 30
0.0
 10
11.5292546076
 20
8.1132441221
 30
0.0
 10
11.5262857271
 20
8.1004221174
 30
0.0
 10
11.5224905153
 20
8.087873193
 30
0.0
 10
11.5178857198
 20
8.0756481987
 30
0.0
 10
11.5124914734
 20
8.0637962263
 30
0.0
 10
11.5063312679
 20
8.0523645215
 30
0.0
 10
11.4994316251
 20
8.0413981291
 30
0.0
 10
11.4918223233
 20
8.0309401468
 30
0.0
 10
11.4849145141
 20
8.022679922
 30
0.0
 10
11.4790690739
 20
8.0163676736
 30
0.0
 10
11.4730166927
 20
8.0102576461
 30
0.0
 10
11.4650695466
 20
8.0030054465
 30
0.0
 10
11.4549674011
 20
7.9949576829
 30
0.0
 10
11.4443400138
 20
7.9875933365
 30
0.0
 10
11.436939297
 20
7.9831608121
 30
0.0
 10
11.4331681482
 20
7.9810676207
 30
0.0
  0
SPLINE
  5
378
100
AcDbEntity
  8
0
100
AcDbSpline
 62
7
  6
CONTINUOUS
 70
0
 71
3
 72
37
 73
33
 74
0
 42
0.0000001
 43
0.0000001
 44
0.0000000001
 40
0.0
 40
0.0
 40
0.0
 40
0.0
 40
0.0150442308
 40
0.0300697768
 40
0.0450785951
 40
0.0600768301
 40
0.0750696994
 40
0.0900618083
 40
0.1050580211
 40
0.1200629757
 40
0.1501073399
 40
0.180233896
 40
0.2104665444
 40
0.2408228596
 40
0.2713145348
 40
0.3019481522
 40
0.332726076
 40
0.3636473328
 40
0.4258737306
 40
0.4571967767
 40
0.4886396493
 40
0.5518278083
 40
0.5835779282
 40
0.6154118659
 40
0.6792720672
 40
0.7433481191
 40
0.7754503399
 40
0.8075738275
 40
0.8718151533
 40
0.9039287149
 40
0.936011941
 40
1.0
 40
1.0
 40
1.0
 40
1.0
 10
10.5529126813
 20
7.9381840462
 30
0.0
 10
10.5540999173
 20
7.9401580643
 30
0.0
 10
10.5565741469
 20
7.9440437816
 30
0.0
 10
10.5605759459
 20
7.9496711474
 30
0.0
 10
10.564855906
 20
7.9550812071
 30
0.0
 10
10.5694024217
 20
7.960262496
 30
0.0
 10
10.5742032358
 20
7.9652054859
 30
0.0
 10
10.5792454158
 20
7.9699014101
 30
0.0
 10
10.5845153365
 20
7.9743432242
 30
0.0
 10
10.5918283737
 20
7.9799204032
 30
0.0
 10
10.601475772
 20
7.9862336346
 30
0.0
 10
10.6137248707
 20
7.9927204439
 30
0.0
 10
10.6265414838
 20
7.9981197612
 30
0.0
 10
10.6398176972
 20
8.0024404657
 30
0.0
 10
10.6534545059
 20
8.0057027517
 30
0.0
 10
10.6673612397
 20
8.0079341167
 30
0.0
 10
10.6814572816
 20
8.0091668714
 30
0.0
 10
10.7004404547
 20
8.0095268237
 30
0.0
 10
10.7194987521
 20
8.0080231037
 30
0.0
 10
10.7383759599
 20
8.0048240766
 30
0.0
 10
10.7571835172
 20
8.0005155881
 30
0.0
 10
10.7756639161
 20
7.9946278959
 30
0.0
 10
10.7936459116
 20
7.9873006214
 30
0.0
 10
10.8113221323
 20
7.9790151588
 30
0.0
 10
10.8326599972
 20
7.9669616303
 30
0.0
 10
10.85273148
 20
7.9528300894
 30
0.0
 10
10.8679143246
 20
7.9403518234
 30
0.0
 10
10.8824710434
 20
7.927112348
 30
0.0
 10
10.8960050165
 20
7.9127782713
 30
0.0
 10
10.9083391098
 20
7.8974501289
 30
0.0
 10
10.9198015319
 20
7.8815096366
 30
0.0
 10
10.9273826997
 20
7.8688529023
 30
0.0
 10
10.9319014978
 20
7.8601594978
 30
0.0
  0
SPLINE
  5
379
100
AcDbEntity
  8
0
100
AcDbSpline
 62
7
  6
CONTINUOUS
 70
0
 71
3
 72
23
 73
19
 74
0
 42
0.0000001
 43
0.0000001
 44
0.0000000001
 40
0.0
 40
0.0
 40
0.0
 40
0.0
 40
0.0639093797
 40
0.1275503806
 40
0.1909256508
 40
0.254048088
 40
0.3169309857
 40
0.3795928235
 40
0.442055125
 40
0.5043426703
 40
0.5664829645
 40
0.6285057938
 40
0.6904427245
 40
0.7523265668
 40
0.8141908258
 40
0.8760691456
 40
0.9379947667
 40
1.0
 40
1.0
 40
1.0
 40
1.0
 10
10.9423972627
 20
8.5859229908
 30
0.0
 10
10.9423972627
 20
8.581960742
 30
0.0
 10
10.9421550387
 20
8.5740506781
 30
0.0
 10
10.9410611348
 20
8.5622570509
 30
0.0
 10
10.9392415467
 20
8.5506022272
 30
0.0
 10
10.9367036125
 20
8.5391306457
 30
0.0
 10
10.9334571988
 20
8.5278850123
 30
0.0
 10
10.9295151374
 20
8.5169073724
 30
0.0
 10
10.9248928606
 20
8.5062385063
 30
0.0
 10
10.9196084434
 20
8.495917883
 30
0.0
 10
10.9136824629
 20
8.4859834595
 30
0.0
 10
10.9071378768
 20
8.4764715476
 30
0.0
 10
10.8999998996
 20
8.4674166835
 30
0.0
 10
10.8922958512
 20
8.4588515007
 30
0.0
 10
10.8840550787
 20
8.4508066629
 30
0.0
 10
10.8753085798
 20
8.4433106406
 30
0.0
 10
10.8660897205
 20
8.4363901353
 30
0.0
 10
10.8596556989
 20
8.4321788574
 30
0.0
 10
10.8563735254
 20
8.4301775634
 30
0.0
  0
SPLINE
  5
37A
100
AcDbEntity
  8
0
100
AcDbSpline
 62
7
  6
CONTINUOUS
 70
0
 71
3
 72
39
 73
35
 74
0
 42
0.0000001
 43
0.0000001
 44
0.0000000001
 40
0.0
 40
0.0
 40
0.0
 40
0.0
 40
0.0298604547
 40
0.0597582476
 40
0.0897237596
 40
0.1197832373
 40
0.1499595504
 40
0.1802708155
 40
0.2107302861
 40
0.2413463319
 40
0.2721227203
 40
0.3030590562
 40
0.3341513253
 40
0.3653924718
 40
0.3967729611
 40
0.4282812948
 40
0.4599044601
 40
0.4916283084
 40
0.5234378624
 40
0.5553175605
 40
0.5872514454
 40
0.6192233083
 40
0.6512167985
 40
0.6832155086
 40
0.7152030445
 40
0.7471630915
 40
0.7790794857
 40
0.8109363002
 40
0.8427179549
 40
0.8744093611
 40
0.9059961088
 40
0.937464709
 40
0.9688028963
 40
1.0
 40
1.0
 40
1.0
 40
1.0
 10
10.1692925436
 20
7.4943185993
 30
0.0
 10
10.1728304008
 20
7.4976111053
 30
0.0
 10
10.1802135075
 20
7.503883038
 30
0.0
 10
10.1920990218
 20
7.5122590835
 30
0.0
 10
10.2047137325
 20
7.5195565782
 30
0.0
 10
10.2179619795
 20
7.5257337585
 30
0.0
 10
10.2317460076
 20
7.5307631212
 30
0.0
 10
10.2459666639
 20
7.5346291553
 30
0.0
 10
10.2605257567
 20
7.5373279289
 30
0.0
 10
10.275327604
 20
7.5388656881
 30
0.0
 10
10.2902803012
 20
7.5392574708
 30
0.0
 10
10.305296557
 20
7.5385256049
 30
0.0
 10
10.3202941765
 20
7.5366982852
 30
0.0
 10
10.3351962371
 20
7.5338082684
 30
0.0
 10
10.3499310242
 20
7.5298917365
 30
0.0
 10
10.3644317864
 20
7.5249873462
 30
0.0
 10
10.378636367
 20
7.5191354678
 30
0.0
 10
10.3924867583
 20
7.5123776037
 30
0.0
 10
10.405928615
 20
7.5047559715
 30
0.0
 10
10.4189107583
 20
7.4963132343
 30
0.0
 10
10.4313846878
 20
7.4870923572
 30
0.0
 10
10.4433041206
 20
7.4771365756
 30
0.0
 10
10.4546245656
 20
7.4664894567
 30
0.0
 10
10.4653029433
 20
7.4551950451
 30
0.0
 10
10.4752972562
 20
7.4432980779
 30
0.0
 10
10.484566318
 20
7.4308442629
 30
0.0
 10
10.4930695474
 20
7.4178806119
 30
0.0
 10
10.5007668356
 20
7.4044558193
 30
0.0
 10
10.5076184956
 20
7.3906206912
 30
0.0
 10
10.51358531
 20
7.376428567
 30
0.0
 10
10.5186286745
 20
7.3619359077
 30
0.0
 10
10.5227109172
 20
7.3472023447
 30
0.0
 10
10.5257955708
 20
7.3322927331
 30
0.0
 10
10.527167418
 20
7.3222551168
 30
0.0
 10
10.5276746747
 20
7.3172314139
 30
0.0
  0
SPLINE
  5
37B
100
AcDbEntity
  8
0
100
AcDbSpline
 62
7
  6
CONTINUOUS
 70
0
 71
3
 72
34
 73
30
 74
0
 42
0.0000001
 43
0.0000001
 44
0.0000000001
 40
0.0
 40
0.0
 40
0.0
 40
0.0
 40
0.0324863023
 40
0.0649541014
 40
0.097386296
 40
0.1297702484
 40
0.1620921035
 40
0.1943400046
 40
0.2265032341
 40
0.2585726601
 40
0.2905407624
 40
0.3224016371
 40
0.3541509812
 40
0.3857860774
 40
0.4173057852
 40
0.4487103654
 40
0.4800013332
 40
0.5111813741
 40
0.5422543328
 40
0.5732249611
 40
0.6040987593
 40
0.6348819868
 40
0.6655815723
 40
0.6962048755
 40
0.7572357181
 40
0.8180597997
 40
0.8787470535
 40
0.9393695033
 40
1.0
 40
1.0
 40
1.0
 40
1.0
 10
10.1692925436
 20
8.9994594325
 30
0.0
 10
10.1667606152
 20
9.0021669507
 30
0.0
 10
10.161849806
 20
9.0077245482
 30
0.0
 10
10.1549692416
 20
9.016457817
 30
0.0
 10
10.1485978341
 20
9.025555358
 30
0.0
 10
10.1427563489
 20
9.034982151
 30
0.0
 10
10.1374620168
 20
9.0447027917
 30
0.0
 10
10.1327288924
 20
9.0546807587
 30
0.0
 10
10.1285677865
 20
9.0648793134
 30
0.0
 10
10.1249863262
 20
9.0752617167
 30
0.0
 10
10.1219891482
 20
9.0857916492
 30
0.0
 10
10.1195780945
 20
9.096433496
 30
0.0
 10
10.117752446
 20
9.1071525986
 30
0.0
 10
10.1165091535
 20
9.1179154566
 30
0.0
 10
10.115843068
 20
9.1286898767
 30
0.0
 10
10.1157472658
 20
9.139445072
 30
0.0
 10
10.1162132933
 20
9.1501517003
 30
0.0
 10
10.1172313931
 20
9.1607818875
 30
0.0
 10
10.118790674
 20
9.1713092219
 30
0.0
 10
10.120879379
 20
9.1817086906
 30
0.0
 10
10.1234850713
 20
9.191956637
 30
0.0
 10
10.1265946649
 20
9.2020305778
 30
0.0
 10
10.1301948297
 20
9.211909584
 30
0.0
 10
10.1356232445
 20
9.2247776137
 30
0.0
 10
10.143568124
 20
9.2402911609
 30
0.0
 10
10.1548474669
 20
9.2578404893
 30
0.0
 10
10.1677479964
 20
9.2741769892
 30
0.0
 10
10.182148279
 20
9.2891740929
 30
0.0
 10
10.1926675136
 20
9.2982007586
 30
0.0
 10
10.1981289567
 20
9.3024477285
 30
0.0
  0
SPLINE
  5
37C
100
AcDbEntity
  8
0
100
AcDbSpline
 62
7
  6
CONTINUOUS
 70
0
 71
3
 72
31
 73
27
 74
0
 42
0.0000001
 43
0.0000001
 44
0.0000000001
 40
0.0
 40
0.0
 40
0.0
 40
0.0
 40
0.0845018864
 40
0.1673015137
 40
0.2480803514
 40
0.3265309791
 40
0.4023585407
 40
0.4752830689
 40
0.5450416236
 40
0.6113908386
 40
0.6432179316
 40
0.6741119642
 40
0.7040492763
 40
0.7330084091
 40
0.7609696608
 40
0.7879158976
 40
0.8138321693
 40
0.8387065946
 40
0.8625300827
 40
0.8852973281
 40
0.9070067049
 40
0.9276614334
 40
0.9472697474
 40
0.9658463297
 40
0.9834128909
 40
1.0
 40
1.0
 40
1.0
 40
1.0
 10
12.0886334138
 20
11.2895207383
 30
0.0
 10
12.0957544312
 20
11.2890268941
 30
0.0
 10
12.1098447118
 20
11.2879241683
 30
0.0
 10
12.1307042053
 20
11.285902138
 30
0.0
 10
12.1510130283
 20
11.283535406
 30
0.0
 10
12.1706858461
 20
11.2808340389
 30
0.0
 10
12.1896401474
 20
11.2778095153
 30
0.0
 10
12.2077965166
 20
11.2744747166
 30
0.0
 10
12.2250787764
 20
11.2708438028
 30
0.0
 10
12.2388770299
 20
11.2675400909
 30
0.0
 10
12.2494176969
 20
11.2647512517
 30
0.0
 10
12.2569507403
 20
11.2626244533
 30
0.0
 10
12.2642133607
 20
11.2604356757
 30
0.0
 10
12.2711979687
 20
11.258187264
 30
0.0
 10
12.277897247
 20
11.255881528
 30
0.0
 10
12.2843042057
 20
11.2535209595
 30
0.0
 10
12.2904121487
 20
11.2511079723
 30
0.0
 10
12.2962147295
 20
11.2486451654
 30
0.0
 10
12.3017059046
 20
11.2461350448
 30
0.0
 10
12.3068800065
 20
11.2435802928
 30
0.0
 10
12.3117316739
 20
11.240983483
 30
0.0
 10
12.3162559532
 20
11.2383473438
 30
0.0
 10
12.3204481771
 20
11.2356744871
 30
0.0
 10
12.3243041677
 20
11.2329675907
 30
0.0
 10
12.3278198034
 20
11.2302293839
 30
0.0
 10
12.3299953829
 20
11.228331478
 30
0.0
 10
12.3310211004
 20
11.2273769325
 30
0.0
  0
SPLINE
  5
37D
100
AcDbEntity
  8
0
100
AcDbSpline
 62
7
  6
CONTINUOUS
 70
0
 71
3
 72
31
 73
27
 74
0
 42
0.0000001
 43
0.0000001
 44
0.0000000001
 40
0.0
 40
0.0
 40
0.0
 40
0.0
 40
0.0323316697
 40
0.0646503942
 40
0.0969413451
 40
0.1291961562
 40
0.1935370969
 40
0.2576197215
 40
0.2895543843
 40
0.321403858
 40
0.3531633541
 40
0.3848291385
 40
0.4478532341
 40
0.5104834984
 40
0.5727243452
 40
0.6345924633
 40
0.6654021068
 40
0.6961292285
 40
0.7267783478
 40
0.7573544888
 40
0.8182956353
 40
0.8790127827
 40
0.9093092032
 40
0.9395683553
 40
0.969796772
 40
1.0
 40
1.0
 40
1.0
 40
1.0
 10
10.4025186244
 20
9.2276408506
 30
0.0
 10
10.4046960264
 20
9.2253124559
 30
0.0
 10
10.4089376999
 20
9.2205501259
 30
0.0
 10
10.4149437239
 20
9.2131099445
 30
0.0
 10
10.4205779763
 20
9.2053932662
 30
0.0
 10
10.4275690005
 20
9.1947760243
 30
0.0
 10
10.4353152197
 20
9.1809262342
 30
0.0
 10
10.441686169
 20
9.1664275211
 30
0.0
 10
10.445923573
 20
9.1545492432
 30
0.0
 10
10.4486672417
 20
9.145533368
 30
0.0
 10
10.4509777022
 20
9.1364242717
 30
0.0
 10
10.4534762251
 20
9.1242056156
 30
0.0
 10
10.4555240409
 20
9.1088055731
 30
0.0
 10
10.45627684
 20
9.0902695214
 30
0.0
 10
10.4553608479
 20
9.0718557088
 30
0.0
 10
10.4532447829
 20
9.0567063157
 30
0.0
 10
10.4507699808
 20
9.0447898193
 30
0.0
 10
10.4485345821
 20
9.035976484
 30
0.0
 10
10.4459257026
 20
9.0272905048
 30
0.0
 10
10.4419657381
 20
9.0159112545
 30
0.0
 10
10.4361250522
 20
9.002062969
 30
0.0
 10
10.4291438643
 20
8.9887848129
 30
0.0
 10
10.4229208432
 20
8.9785709898
 30
0.0
 10
10.4179456005
 20
8.9711264911
 30
0.0
 10
10.4126691247
 20
8.9639041596
 30
0.0
 10
10.4089553669
 20
8.959241968
 30
0.0
 10
10.4070518236
 20
8.9569517624
 30
0.0
  0
SPLINE
  5
37E
100
AcDbEntity
  8
0
100
AcDbSpline
 62
7
  6
CONTINUOUS
 70
0
 71
3
 72
38
 73
34
 74
0
 42
0.0000001
 43
0.0000001
 44
0.0000000001
 40
0.0
 40
0.0
 40
0.0
 40
0.0
 40
0.0761046641
 40
0.1533640483
 40
0.2310948216
 40
0.3086067003
 40
0.3852122514
 40
0.4229638358
 40
0.4602362653
 40
0.4969478561
 40
0.5330186181
 40
0.5683704813
 40
0.6029275452
 40
0.6366163848
 40
0.6693663861
 40
0.7011100002
 40
0.7317830596
 40
0.7613251954
 40
0.7896802916
 40
0.8167968902
 40
0.8426287416
 40
0.8671355573
 40
0.8902838957
 40
0.9120481469
 40
0.93241198
 40
0.9420674557
 40
0.9513720099
 40
0.9603271661
 40
0.9689354415
 40
0.977200892
 40
0.9851288747
 40
0.9927259556
 40
1.0
 40
1.0
 40
1.0
 40
1.0
 10
11.4819620728
 20
5.9337789791
 30
0.0
 10
11.4928852427
 20
5.9330214547
 30
0.0
 10
11.5149190396
 20
5.9317937078
 30
0.0
 10
11.5481559042
 20
5.9308008092
 30
0.0
 10
11.5816099322
 20
5.9306469828
 30
0.0
 10
11.6149630002
 20
5.9313337457
 30
0.0
 10
11.6425418107
 20
5.9326069742
 30
0.0
 10
11.6643101873
 20
5.934046867
 30
0.0
 10
11.6803355451
 20
5.9353251776
 30
0.0
 10
11.6961007755
 20
5.9368039582
 30
0.0
 10
11.7115684195
 20
5.9384796838
 30
0.0
 10
11.7267016915
 20
5.9403483344
 30
0.0
 10
11.741464612
 20
5.9424054435
 30
0.0
 10
11.7558220901
 20
5.9446460898
 30
0.0
 10
11.769740017
 20
5.9470648933
 30
0.0
 10
11.7831853399
 20
5.9496560556
 30
0.0
 10
11.7961261389
 20
5.9524133729
 30
0.0
 10
11.8085317192
 20
5.9553302393
 30
0.0
 10
11.8203726964
 20
5.9583996489
 30
0.0
 10
11.8316210584
 20
5.9616142424
 30
0.0
 10
11.8422502463
 20
5.9649663312
 30
0.0
 10
11.8522352183
 20
5.9684479011
 30
0.0
 10
11.8615526379
 20
5.9720506518
 30
0.0
 10
11.8701805738
 20
5.9757660179
 30
0.0
 10
11.8768937984
 20
5.9790037385
 30
0.0
 10
11.8818944066
 20
5.9816512101
 30
0.0
 10
11.8853932283
 20
5.9836241778
 30
0.0
 10
11.8887052263
 20
5.9856186006
 30
0.0
 10
11.8918284513
 20
5.9876334142
 30
0.0
 10
11.8947611325
 20
5.9896674329
 30
0.0
 10
11.8975015921
 20
5.9917195665
 30
0.0
 10
11.9000480707
 20
5.9937885518
 30
0.0
 10
11.9016496054
 20
5.9952085817
 30
0.0
 10
11.9024157453
 20
5.9959215139
 30
0.0
  0
SPLINE
  5
37F
100
AcDbEntity
  8
0
100
AcDbSpline
 62
7
  6
CONTINUOUS
 70
0
 71
3
 72
17
 73
13
 74
0
 42
0.0000001
 43
0.0000001
 44
0.0000000001
 40
0.0
 40
0.0
 40
0.0
 40
0.0
 40
0.1480462993
 40
0.2876827587
 40
0.4195864073
 40
0.482921265
 40
0.5446654422
 40
0.6639005876
 40
0.7785650347
 40
0.8900650858
 40
0.9451345438
 40
1.0
 40
1.0
 40
1.0
 40
1.0
 10
12.3618219421
 20
6.4386021031
 30
0.0
 10
12.3628497984
 20
6.4395949361
 30
0.0
 10
12.3647868765
 20
6.4415883413
 30
0.0
 10
12.3673913749
 20
6.4446949568
 30
0.0
 10
12.3692594989
 20
6.4473385753
 30
0.0
 10
12.3705460516
 20
6.4494604933
 30
0.0
 10
12.3716696463
 20
6.4515347855
 30
0.0
 10
12.3728372728
 20
6.4541452068
 30
0.0
 10
12.3738528178
 20
6.4573283485
 30
0.0
 10
12.37436386
 20
6.4600021839
 30
0.0
 10
12.3745660957
 20
6.4621311791
 30
0.0
 10
12.3745997363
 20
6.4631926945
 30
0.0
 10
12.3745997358
 20
6.4637222985
 30
0.0
  0
SPLINE
  5
380
100
AcDbEntity
  8
0
100
AcDbSpline
 62
7
  6
CONTINUOUS
 70
0
 71
3
 72
18
 73
14
 74
0
 42
0.0000001
 43
0.0000001
 44
0.0000000001
 40
0.0
 40
0.0
 40
0.0
 40
0.0
 40
0.0548627003
 40
0.1099292984
 40
0.1654013502
 40
0.22147558
 40
0.3361333207
 40
0.4553633897
 40
0.5171049197
 40
0.5804365965
 40
0.7123310206
 40
0.851957275
 40
1.0
 40
1.0
 40
1.0
 40
1.0
 10
11.5901561778
 20
10.9344290507
 30
0.0
 10
11.5901561808
 20
10.9336664139
 30
0.0
 10
11.5901077872
 20
10.9321378656
 30
0.0
 10
11.589890186
 20
10.9298475402
 30
0.0
 10
11.589527531
 20
10.9275584883
 30
0.0
 10
11.5888460579
 20
10.9244870939
 30
0.0
 10
11.5876183719
 20
10.9206375704
 30
0.0
 10
11.5859369037
 20
10.9168789311
 30
0.0
 10
11.5843189419
 20
10.9138918339
 30
0.0
 10
11.5824663075
 20
10.9108362796
 30
0.0
 10
11.5797762349
 20
10.9070294909
 30
0.0
 10
11.5760257807
 20
10.9025559103
 30
0.0
 10
11.5732363319
 20
10.8996853948
 30
0.0
 10
11.5717561665
 20
10.8982556647
 30
0.0
  0
SPLINE
  5
381
100
AcDbEntity
  8
0
100
AcDbSpline
 62
7
  6
CONTINUOUS
 70
0
 71
3
 72
29
 73
25
 74
0
 42
0.0000001
 43
0.0000001
 44
0.0000000001
 40
0.0
 40
0.0
 40
0.0
 40
0.0
 40
0.0338093456
 40
0.0672075002
 40
0.1329224266
 40
0.1974211652
 40
0.2609182435
 40
0.323583691
 40
0.3855605255
 40
0.4469774916
 40
0.5079610452
 40
0.5686448838
 40
0.6291767664
 40
0.6897235974
 40
0.7200688483
 40
0.7504912166
 40
0.7810174156
 40
0.8116760689
 40
0.8424955176
 40
0.8735052301
 40
0.9047338213
 40
0.9362088868
 40
0.9679566392
 40
1.0
 40
1.0
 40
1.0
 40
1.0
 10
10.8471562847
 20
8.7404501625
 30
0.0
 10
10.8471551581
 20
8.7379803176
 30
0.0
 10
10.8471860871
 20
8.7330705307
 30
0.0
 10
10.8474024868
 20
8.723362366
 30
0.0
 10
10.847988795
 20
8.7114212997
 30
0.0
 10
10.8492825838
 20
8.6973247955
 30
0.0
 10
10.8512185214
 20
8.6835258264
 30
0.0
 10
10.8538454671
 20
8.6700281174
 30
0.0
 10
10.8572088824
 20
8.6568503713
 30
0.0
 10
10.861353132
 20
8.6440246027
 30
0.0
 10
10.8663222324
 20
8.6315953697
 30
0.0
 10
10.8721601409
 20
8.6196195207
 30
0.0
 10
10.8789090275
 20
8.608167737
 30
0.0
 10
10.8853225689
 20
8.5991356464
 30
0.0
 10
10.890934792
 20
8.59227341
 30
0.0
 10
10.8953957865
 20
8.5873122935
 30
0.0
 10
10.9001070241
 20
8.5825558338
 30
0.0
 10
10.9050698319
 20
8.5780190986
 30
0.0
 10
10.9102840709
 20
8.5737177871
 30
0.0
 10
10.9157482023
 20
8.5696681619
 30
0.0
 10
10.9214589233
 20
8.5658867392
 30
0.0
 10
10.9274110029
 20
8.5623898787
 30
0.0
 10
10.9335968931
 20
8.5591939986
 30
0.0
 10
10.9378502774
 20
8.5572833067
 30
0.0
 10
10.940010924
 20
8.5563826846
 30
0.0
  0
SPLINE
  5
382
100
AcDbEntity
  8
0
100
AcDbSpline
 62
7
  6
CONTINUOUS
 70
0
 71
3
 72
17
 73
13
 74
0
 42
0.0000001
 43
0.0000001
 44
0.0000000001
 40
0.0
 40
0.0
 40
0.0
 40
0.0
 40
0.0548654642
 40
0.1099349219
 40
0.2214349039
 40
0.3360992195
 40
0.4553348124
 40
0.517079118
 40
0.5804139608
 40
0.7123167483
 40
0.8519524535
 40
1.0
 40
1.0
 40
1.0
 40
1.0
 10
9.6263661954
 20
10.8684315987
 30
0.0
 10
9.6263661913
 20
10.8689612027
 30
0.0
 10
9.6263998184
 20
10.870022719
 30
0.0
 10
9.626602065
 20
10.8721517132
 30
0.0
 10
9.6271131131
 20
10.8748255441
 30
0.0
 10
9.6281286405
 20
10.878008695
 30
0.0
 10
9.629296289
 20
10.8806191114
 30
0.0
 10
9.6304198769
 20
10.8826934133
 30
0.0
 10
9.6317064304
 20
10.8848153228
 30
0.0
 10
9.6335745418
 20
10.8874589305
 30
0.0
 10
9.6361790326
 20
10.8905655484
 30
0.0
 10
9.6381161188
 20
10.8925589526
 30
0.0
 10
9.6391439838
 20
10.893551794
 30
0.0
  0
SPLINE
  5
383
100
AcDbEntity
  8
0
100
AcDbSpline
 62
7
  6
CONTINUOUS
 70
0
 71
3
 72
18
 73
14
 74
0
 42
0.0000001
 43
0.0000001
 44
0.0000000001
 40
0.0
 40
0.0
 40
0.0
 40
0.0
 40
0.1492378719
 40
0.2896551254
 40
0.4219619721
 40
0.4853618993
 40
0.5470839706
 40
0.6660306019
 40
0.7801313525
 40
0.8358490322
 40
0.8909261152
 40
0.9455716555
 40
1.0
 40
1.0
 40
1.0
 40
1.0
 10
12.3608871374
 20
11.1995834391
 30
0.0
 10
12.3619886375
 20
11.1985583782
 30
0.0
 10
12.3640645042
 20
11.1965002589
 30
0.0
 10
12.3668592021
 20
11.1932872039
 30
0.0
 10
12.3688656386
 20
11.1905499228
 30
0.0
 10
12.3702475276
 20
11.1883517463
 30
0.0
 10
12.3714528525
 20
11.1862053862
 30
0.0
 10
12.3727060387
 20
11.1835037515
 30
0.0
 10
12.3736224369
 20
11.1807323417
 30
0.0
 10
12.3741308884
 20
11.178521276
 30
0.0
 10
12.3744013193
 20
11.1768741015
 30
0.0
 10
12.3745636171
 20
11.1752259374
 30
0.0
 10
12.3745997262
 20
11.1741258705
 30
0.0
 10
12.3745997305
 20
11.1735771018
 30
0.0
  0
SPLINE
  5
384
100
AcDbEntity
  8
0
100
AcDbSpline
 62
7
  6
CONTINUOUS
 70
0
 71
3
 72
38
 73
34
 74
0
 42
0.0000001
 43
0.0000001
 44
0.0000000001
 40
0.0
 40
0.0
 40
0.0
 40
0.0
 40
0.0072740444
 40
0.0148711253
 40
0.022799108
 40
0.0310645585
 40
0.0396728339
 40
0.0486279901
 40
0.0579325443
 40
0.06758802
 40
0.0879518531
 40
0.1097161043
 40
0.1328644427
 40
0.1573712584
 40
0.1832031098
 40
0.2103197084
 40
0.2386748046
 40
0.2682169404
 40
0.2988899998
 40
0.3306336139
 40
0.3633836152
 40
0.3970724548
 40
0.4316295187
 40
0.4669813819
 40
0.5030521439
 40
0.5397637347
 40
0.5770361642
 40
0.6147877486
 40
0.6913932997
 40
0.7689051784
 40
0.8466359517
 40
0.9238953359
 40
1.0
 40
1.0
 40
1.0
 40
1.0
 10
10.0985501806
 20
11.3362323832
 30
0.0
 10
10.0993163205
 20
11.3369453155
 30
0.0
 10
10.1009178552
 20
11.3383653454
 30
0.0
 10
10.1034643338
 20
11.3404343307
 30
0.0
 10
10.1062047933
 20
11.3424864643
 30
0.0
 10
10.1091374746
 20
11.344520483
 30
0.0
 10
10.1122606996
 20
11.3465352966
 30
0.0
 10
10.1155726975
 20
11.3485297194
 30
0.0
 10
10.1190715193
 20
11.3505026871
 30
0.0
 10
10.1240721275
 20
11.3531501587
 30
0.0
 10
10.1307853521
 20
11.3563878792
 30
0.0
 10
10.139413288
 20
11.3601032453
 30
0.0
 10
10.1487307076
 20
11.3637059961
 30
0.0
 10
10.1587156796
 20
11.367187566
 30
0.0
 10
10.1693448675
 20
11.3705396548
 30
0.0
 10
10.1805932295
 20
11.3737542483
 30
0.0
 10
10.1924342067
 20
11.3768236579
 30
0.0
 10
10.204839787
 20
11.3797405242
 30
0.0
 10
10.217780586
 20
11.3824978416
 30
0.0
 10
10.2312259089
 20
11.3850890039
 30
0.0
 10
10.2451438358
 20
11.3875078074
 30
0.0
 10
10.2595013139
 20
11.3897484537
 30
0.0
 10
10.2742642344
 20
11.3918055628
 30
0.0
 10
10.2893975063
 20
11.3936742134
 30
0.0
 10
10.3048651504
 20
11.395349939
 30
0.0
 10
10.3206303808
 20
11.3968287196
 30
0.0
 10
10.3366557386
 20
11.3981070302
 30
0.0
 10
10.3584241152
 20
11.399546923
 30
0.0
 10
10.3860029257
 20
11.4008201515
 30
0.0
 10
10.4193559937
 20
11.4015069144
 30
0.0
 10
10.4528100217
 20
11.401353088
 30
0.0
 10
10.4860468863
 20
11.4003601894
 30
0.0
 10
10.5080806832
 20
11.3991324425
 30
0.0
 10
10.5190038531
 20
11.3983749181
 30
0.0
  0
SPLINE
  5
385
100
AcDbEntity
  8
0
100
AcDbSpline
 62
7
  6
CONTINUOUS
 70
0
 71
3
 72
15
 73
11
 74
0
 42
0.0000001
 43
0.0000001
 44
0.0000000001
 40
0.0
 40
0.0
 40
0.0
 40
0.0
 40
0.1233171152
 40
0.2468171801
 40
0.3706749982
 40
0.4950495769
 40
0.6200773723
 40
0.7458670578
 40
0.8724927841
 40
1.0
 40
1.0
 40
1.0
 40
1.0
 10
11.4620175256
 20
9.277821098
 30
0.0
 10
11.4651703567
 20
9.2808664739
 30
0.0
 10
11.4718144144
 20
9.2866267513
 30
0.0
 10
11.4826581119
 20
9.2941538909
 30
0.0
 10
11.4942774911
 20
9.3004991515
 30
0.0
 10
11.5065535925
 20
9.3055973727
 30
0.0
 10
11.5193626122
 20
9.3093978761
 30
0.0
 10
11.5325755201
 20
9.3118626769
 30
0.0
 10
11.546057436
 20
9.3129678025
 30
0.0
 10
11.5551071534
 20
9.3127912842
 30
0.0
 10
11.5596286883
 20
9.3124777147
 30
0.0
  0
SPLINE
  5
386
100
AcDbEntity
  8
0
100
AcDbSpline
 62
7
  6
CONTINUOUS
 70
0
 71
3
 72
31
 73
27
 74
0
 42
0.0000001
 43
0.0000001
 44
0.0000000001
 40
0.0
 40
0.0
 40
0.0
 40
0.0
 40
0.0165871091
 40
0.0341536703
 40
0.0527302526
 40
0.0723385666
 40
0.0929932951
 40
0.1147026719
 40
0.1374699173
 40
0.1612934054
 40
0.1861678307
 40
0.2120841024
 40
0.2390303392
 40
0.2669915909
 40
0.2959507237
 40
0.3258880358
 40
0.3567820684
 40
0.3886091614
 40
0.4549583764
 40
0.5247169311
 40
0.5976414593
 40
0.6734690209
 40
0.7519196486
 40
0.8326984863
 40
0.9154981136
 40
1.0
 40
1.0
 40
1.0
 40
1.0
 10
9.6699448255
 20
6.1047769647
 30
0.0
 10
9.670970543
 20
6.1038224192
 30
0.0
 10
9.6731461224
 20
6.1019245133
 30
0.0
 10
9.6766617581
 20
6.0991863065
 30
0.0
 10
9.6805177488
 20
6.0964794101
 30
0.0
 10
9.6847099727
 20
6.0938065533
 30
0.0
 10
9.689234252
 20
6.0911704142
 30
0.0
 10
9.6940859194
 20
6.0885736044
 30
0.0
 10
9.6992600212
 20
6.0860188524
 30
0.0
 10
9.7047511964
 20
6.0835087318
 30
0.0
 10
9.7105537772
 20
6.0810459249
 30
0.0
 10
9.7166617202
 20
6.0786329377
 30
0.0
 10
9.7230686789
 20
6.0762723692
 30
0.0
 10
9.7297679572
 20
6.0739666332
 30
0.0
 10
9.7367525652
 20
6.0717182215
 30
0.0
 10
9.7440151856
 20
6.0695294439
 30
0.0
 10
9.751548229
 20
6.0674026455
 30
0.0
 10
9.7620888959
 20
6.0646138063
 30
0.0
 10
9.7758871494
 20
6.0613100944
 30
0.0
 10
9.7931694093
 20
6.0576791806
 30
0.0
 10
9.8113257785
 20
6.0543443819
 30
0.0
 10
9.8302800798
 20
6.0513198583
 30
0.0
 10
9.8499528976
 20
6.0486184912
 30
0.0
 10
9.8702617206
 20
6.0462517592
 30
0.0
 10
9.8911212141
 20
6.0442297289
 30
0.0
 10
9.9052114947
 20
6.0431270031
 30
0.0
 10
9.9123325121
 20
6.0426331589
 30
0.0
  0
SPLINE
  5
387
100
AcDbEntity
  8
0
100
AcDbSpline
 62
7
  6
CONTINUOUS
 70
0
 71
3
 72
15
 73
11
 74
0
 42
0.0000001
 43
0.0000001
 44
0.0000000001
 40
0.0
 40
0.0
 40
0.0
 40
0.0
 40
0.1233171152
 40
0.2468171801
 40
0.3706749982
 40
0.4950495769
 40
0.6200773723
 40
0.7458670578
 40
0.8724927841
 40
1.0
 40
1.0
 40
1.0
 40
1.0
 10
9.7117599335
 20
9.3992018742
 30
0.0
 10
9.7149127647
 20
9.4022472502
 30
0.0
 10
9.7215568224
 20
9.4080075276
 30
0.0
 10
9.7324005198
 20
9.4155346672
 30
0.0
 10
9.7440198991
 20
9.4218799278
 30
0.0
 10
9.7562960005
 20
9.426978149
 30
0.0
 10
9.7691050202
 20
9.4307786524
 30
0.0
 10
9.7823179281
 20
9.4332434532
 30
0.0
 10
9.795799844
 20
9.4343485788
 30
0.0
 10
9.8048495614
 20
9.4341720604
 30
0.0
 10
9.8093710963
 20
9.4338584909
 30
0.0
  0
SPLINE
  5
388
100
AcDbEntity
  8
0
100
AcDbSpline
 62
7
  6
CONTINUOUS
 70
0
 71
3
 72
17
 73
13
 74
0
 42
0.0000001
 43
0.0000001
 44
0.0000000001
 40
0.0
 40
0.0
 40
0.0
 40
0.0
 40
0.0544313482
 40
0.1090799532
 40
0.2198254431
 40
0.3339327209
 40
0.4528856996
 40
0.514611354
 40
0.5780150295
 40
0.7103287903
 40
0.8507543788
 40
1.0
 40
1.0
 40
1.0
 40
1.0
 10
9.6263661901
 20
6.1585767954
 30
0.0
 10
9.6263661906
 20
6.1580280269
 30
0.0
 10
9.6264023224
 20
6.1569279241
 30
0.0
 10
9.6266195566
 20
6.1547210987
 30
0.0
 10
9.6271688932
 20
6.1519487354
 30
0.0
 10
9.628259901
 20
6.1486504125
 30
0.0
 10
9.6295130581
 20
6.1459484698
 30
0.0
 10
9.6307183979
 20
6.1438021566
 30
0.0
 10
9.6321003062
 20
6.1416039834
 30
0.0
 10
9.6341067019
 20
6.1388666734
 30
0.0
 10
9.6369014458
 20
6.1356536621
 30
0.0
 10
9.6389772783
 20
6.1335955104
 30
0.0
 10
9.6400787781
 20
6.1325704573
 30
0.0
  0
SPLINE
  5
389
100
AcDbEntity
  8
0
100
AcDbSpline
 62
7
  6
CONTINUOUS
 70
0
 71
3
 72
15
 73
11
 74
0
 42
0.0000001
 43
0.0000001
 44
0.0000000001
 40
0.0
 40
0.0
 40
0.0
 40
0.0
 40
0.1233171152
 40
0.2468171801
 40
0.3706749982
 40
0.4950495769
 40
0.6200773723
 40
0.7458670578
 40
0.8724927841
 40
1.0
 40
1.0
 40
1.0
 40
1.0
 10
9.7117599335
 20
7.3466093718
 30
0.0
 10
9.7149127647
 20
7.3496547477
 30
0.0
 10
9.7215568224
 20
7.3554150251
 30
0.0
 10
9.7324005198
 20
7.3629421647
 30
0.0
 10
9.7440198991
 20
7.3692874253
 30
0.0
 10
9.7562960005
 20
7.3743856465
 30
0.0
 10
9.7691050202
 20
7.3781861499
 30
0.0
 10
9.7823179281
 20
7.3806509507
 30
0.0
 10
9.795799844
 20
7.3817560763
 30
0.0
 10
9.8048495614
 20
7.381579558
 30
0.0
 10
9.8093710963
 20
7.3812659884
 30
0.0
  0
SPLINE
  5
38A
100
AcDbEntity
  8
0
100
AcDbSpline
 62
7
  6
CONTINUOUS
 70
0
 71
3
 72
15
 73
11
 74
0
 42
0.0000001
 43
0.0000001
 44
0.0000000001
 40
0.0
 40
0.0
 40
0.0
 40
0.0
 40
0.1233171152
 40
0.2468171801
 40
0.3706749982
 40
0.4950495769
 40
0.6200773723
 40
0.7458670578
 40
0.8724927841
 40
1.0
 40
1.0
 40
1.0
 40
1.0
 10
11.4620175256
 20
7.2252285955
 30
0.0
 10
11.4651703567
 20
7.2282739714
 30
0.0
 10
11.4718144144
 20
7.2340342488
 30
0.0
 10
11.4826581119
 20
7.2415613884
 30
0.0
 10
11.4942774911
 20
7.247906649
 30
0.0
 10
11.5065535925
 20
7.2530048702
 30
0.0
 10
11.5193626122
 20
7.2568053736
 30
0.0
 10
11.5325755201
 20
7.2592701744
 30
0.0
 10
11.546057436
 20
7.2603753
 30
0.0
 10
11.5551071534
 20
7.2601987817
 30
0.0
 10
11.5596286883
 20
7.2598852122
 30
0.0
  0
SPLINE
  5
38B
100
AcDbEntity
  8
0
100
AcDbSpline
 62
7
  6
CONTINUOUS
 70
0
 71
3
 72
15
 73
11
 74
0
 42
0.0000001
 43
0.0000001
 44
0.0000000001
 40
0.0
 40
0.0
 40
0.0
 40
0.0
 40
0.1233171217
 40
0.2468171833
 40
0.3706749954
 40
0.4950495965
 40
0.6200773092
 40
0.7458671694
 40
0.8724927499
 40
1.0
 40
1.0
 40
1.0
 40
1.0
 10
9.8348619704
 20
9.7825347977
 30
0.0
 10
9.836971346
 20
9.7845722932
 30
0.0
 10
9.841416483
 20
9.7884262
 30
0.0
 10
9.8486713567
 20
9.7934622326
 30
0.0
 10
9.856445211
 20
9.7977075229
 30
0.0
 10
9.8646584545
 20
9.80111846
 30
0.0
 10
9.873228242
 20
9.8036611876
 30
0.0
 10
9.8820682489
 20
9.8053102656
 30
0.0
 10
9.8910882388
 20
9.8060496601
 30
0.0
 10
9.8971428919
 20
9.8059315598
 30
0.0
 10
9.9001679967
 20
9.805721768
 30
0.0
  0
SPLINE
  5
38C
100
AcDbEntity
  8
0
100
AcDbSpline
 62
7
  6
CONTINUOUS
 70
0
 71
3
 72
15
 73
11
 74
0
 42
0.0000001
 43
0.0000001
 44
0.0000000001
 40
0.0
 40
0.0
 40
0.0
 40
0.0
 40
0.1233171217
 40
0.2468171833
 40
0.3706749954
 40
0.4950495965
 40
0.6200773092
 40
0.7458671694
 40
0.8724927499
 40
1.0
 40
1.0
 40
1.0
 40
1.0
 10
9.8348619704
 20
6.884757032
 30
0.0
 10
9.836971346
 20
6.8867945274
 30
0.0
 10
9.841416483
 20
6.8906484343
 30
0.0
 10
9.8486713567
 20
6.8956844669
 30
0.0
 10
9.856445211
 20
6.8999297572
 30
0.0
 10
9.8646584545
 20
6.9033406943
 30
0.0
 10
9.873228242
 20
6.9058834219
 30
0.0
 10
9.8820682489
 20
6.9075324999
 30
0.0
 10
9.8910882388
 20
6.9082718944
 30
0.0
 10
9.8971428919
 20
6.9081537941
 30
0.0
 10
9.9001679967
 20
6.9079440023
 30
0.0
  0
SPLINE
  5
38D
100
AcDbEntity
  8
0
100
AcDbSpline
 62
7
  6
CONTINUOUS
 70
0
 71
3
 72
28
 73
24
 74
0
 42
0.0000001
 43
0.0000001
 44
0.0000000001
 40
0.0
 40
0.0
 40
0.0
 40
0.0
 40
0.0300384355
 40
0.0601726698
 40
0.0904132896
 40
0.1207690284
 40
0.1818214156
 40
0.2433930137
 40
0.3054854882
 40
0.368071106
 40
0.4310942778
 40
0.494474064
 40
0.558107145
 40
0.6218721513
 40
0.6856353195
 40
0.7492575203
 40
0.812603423
 40
0.8441500786
 40
0.8755840747
 40
0.9068941579
 40
0.9380701107
 40
0.9691086177
 40
1.0
 40
1.0
 40
1.0
 40
1.0
 10
11.1006742653
 20
6.920073142
 30
0.0
 10
11.1021443988
 20
6.9207322229
 30
0.0
 10
11.1051341368
 20
6.9219550442
 30
0.0
 10
11.1097363045
 20
6.923493627
 30
0.0
 10
11.1144452965
 20
6.9247351296
 30
0.0
 10
11.1208515362
 20
6.9259916183
 30
0.0
 10
11.1290404323
 20
6.9267998313
 30
0.0
 10
11.1389687231
 20
6.9265431759
 30
0.0
 10
11.1488737042
 20
6.9250691561
 30
0.0
 10
11.1586050329
 20
6.922397937
 30
0.0
 10
11.1680143861
 20
6.9185646867
 30
0.0
 10
11.1769542215
 20
6.9136195658
 30
0.0
 10
11.1852794118
 20
6.9076290585
 30
0.0
 10
11.1928487169
 20
6.9006769825
 30
0.0
 10
11.1995273863
 20
6.8928649784
 30
0.0
 10
11.205189973
 20
6.8843148109
 30
0.0
 10
11.2089761074
 20
6.8766748062
 30
0.0
 10
11.2113914176
 20
6.8703402636
 30
0.0
 10
11.2128858832
 20
6.8655049505
 30
0.0
 10
11.214056948
 20
6.8606018938
 30
0.0
 10
11.2148984612
 20
6.8556529909
 30
0.0
 10
11.215405508
 20
6.8506814875
 30
0.0
 10
11.2155190756
 20
6.847358801
 30
0.0
 10
11.2155190756
 20
6.8457019417
 30
0.0
  0
SPLINE
  5
38E
100
AcDbEntity
  8
0
100
AcDbSpline
 62
7
  6
CONTINUOUS
 70
0
 71
3
 72
28
 73
24
 74
0
 42
0.0000001
 43
0.0000001
 44
0.0000000001
 40
0.0
 40
0.0
 40
0.0
 40
0.0
 40
0.0604214348
 40
0.0907133446
 40
0.1210616914
 40
0.1819327302
 40
0.2430740793
 40
0.2737596283
 40
0.304521935
 40
0.366274252
 40
0.4283560402
 40
0.4907740055
 40
0.5535264032
 40
0.6166021466
 40
0.6482615387
 40
0.6799931468
 40
0.7117925947
 40
0.7436549493
 40
0.8075319032
 40
0.871586388
 40
0.903668731
 40
0.9357727248
 40
1.0
 40
1.0
 40
1.0
 40
1.0
 10
10.1648130509
 20
9.2702102798
 30
0.0
 10
10.1695095867
 20
9.2724481777
 30
0.0
 10
10.1766870106
 20
9.2755521657
 30
0.0
 10
10.1864689839
 20
9.2791581294
 30
0.0
 10
10.1964143468
 20
9.2824136813
 30
0.0
 10
10.2091017489
 20
9.2857997613
 30
0.0
 10
10.222035417
 20
9.2882348565
 30
0.0
 10
10.232504439
 20
9.2895989413
 30
0.0
 10
10.243070012
 20
9.290569808
 30
0.0
 10
10.2563875804
 20
9.2910270168
 30
0.0
 10
10.2724254053
 20
9.2903381817
 30
0.0
 10
10.2884470082
 20
9.2883884133
 30
0.0
 10
10.3043480484
 20
9.2851611975
 30
0.0
 10
10.3173942263
 20
9.2814048749
 30
0.0
 10
10.3276586486
 20
9.2777621834
 30
0.0
 10
10.3352670429
 20
9.2747079494
 30
0.0
 10
10.3427600334
 20
9.2713377355
 30
0.0
 10
10.3525837849
 20
9.2664241423
 30
0.0
 10
10.3644985879
 20
9.2595101594
 30
0.0
 10
10.3758126743
 20
9.251618188
 30
0.0
 10
10.384457374
 20
9.2447436999
 30
0.0
 10
10.3928170012
 20
9.2375035235
 30
0.0
 10
10.3987413874
 20
9.2316800502
 30
0.0
 10
10.4025186244
 20
9.2276408506
 30
0.0
  0
SPLINE
  5
38F
100
AcDbEntity
  8
0
100
AcDbSpline
 62
7
  6
CONTINUOUS
 70
0
 71
3
 72
23
 73
19
 74
0
 42
0.0000001
 43
0.0000001
 44
0.0000000001
 40
0.0
 40
0.0
 40
0.0
 40
0.0
 40
0.062089563
 40
0.1240614725
 40
0.1859519163
 40
0.2477991338
 40
0.3096426992
 40
0.3715226772
 40
0.4334789787
 40
0.4955505731
 40
0.5577745897
 40
0.6201854795
 40
0.6828142098
 40
0.7456880317
 40
0.8088294738
 40
0.8722535057
 40
0.9359787617
 40
1.0
 40
1.0
 40
1.0
 40
1.0
 10
11.4030699
 20
9.6482869004
 30
0.0
 10
11.403873278
 20
9.6497001868
 30
0.0
 10
11.4055761665
 20
9.6524698774
 30
0.0
 10
11.4084098507
 20
9.6564336004
 30
0.0
 10
11.4115095471
 20
9.660185096
 30
0.0
 10
11.4148629071
 20
9.6637070189
 30
0.0
 10
11.4184565309
 20
9.666983096
 30
0.0
 10
11.4222756841
 20
9.6699978752
 30
0.0
 10
11.4263044414
 20
9.6727369044
 30
0.0
 10
11.4305257147
 20
9.6751867976
 30
0.0
 10
11.4349212983
 20
9.6773353576
 30
0.0
 10
11.4394718979
 20
9.6791717615
 30
0.0
 10
11.4441572628
 20
9.6806866141
 30
0.0
 10
11.448956304
 20
9.6818720157
 30
0.0
 10
11.4538471021
 20
9.6827216364
 30
0.0
 10
11.4588073757
 20
9.6832310458
 30
0.0
 10
11.4638137325
 20
9.6833972436
 30
0.0
 10
11.4671594453
 20
9.6832789178
 30
0.0
 10
11.4688316727
 20
9.6831629485
 30
0.0
  0
SPLINE
  5
390
100
AcDbEntity
  8
0
100
AcDbSpline
 62
7
  6
CONTINUOUS
 70
0
 71
3
 72
31
 73
27
 74
0
 42
0.0000001
 43
0.0000001
 44
0.0000000001
 40
0.0
 40
0.0
 40
0.0
 40
0.0
 40
0.0301841157
 40
0.0603929884
 40
0.0906335668
 40
0.1209126011
 40
0.1815984624
 40
0.2425155732
 40
0.2730831516
 40
0.3037260216
 40
0.3344492741
 40
0.3652575182
 40
0.4271296825
 40
0.489384246
 40
0.5520368041
 40
0.6150898878
 40
0.6467721784
 40
0.6785486885
 40
0.710415101
 40
0.7423660372
 40
0.8064755525
 40
0.8708318296
 40
0.9030884914
 40
0.9353759017
 40
0.9676849566
 40
1.0
 40
1.0
 40
1.0
 40
1.0
 10
10.4464263289
 20
8.9812222296
 30
0.0
 10
10.4440061217
 20
8.9793402093
 30
0.0
 10
10.4390825541
 20
8.9756776734
 30
0.0
 10
10.4314658024
 20
8.9705027126
 30
0.0
 10
10.4236257464
 20
8.9656537188
 30
0.0
 10
10.4128842857
 20
8.9596321105
 30
0.0
 10
10.3989497236
 20
8.9529651401
 30
0.0
 10
10.3844614924
 20
8.9475216352
 30
0.0
 10
10.3725850218
 20
8.9439287864
 30
0.0
 10
10.3635338161
 20
8.9416202505
 30
0.0
 10
10.3543652477
 20
8.9397098464
 30
0.0
 10
10.3419894394
 20
8.93770153
 30
0.0
 10
10.3262980661
 20
8.9362299744
 30
0.0
 10
10.3073005907
 20
8.9361811568
 30
0.0
 10
10.2882589987
 20
8.9378924875
 30
0.0
 10
10.2725150688
 20
8.9408099869
 30
0.0
 10
10.2600744459
 20
8.9440436413
 30
0.0
 10
10.2508268695
 20
8.9469253103
 30
0.0
 10
10.2417029041
 20
8.9502577843
 30
0.0
 10
10.2297238085
 20
8.9553024555
 30
0.0
 10
10.2151846911
 20
8.9627189231
 30
0.0
 10
10.2014180655
 20
8.9715454564
 30
0.0
 10
10.190947865
 20
8.9794136457
 30
0.0
 10
10.1833835688
 20
8.985709886
 30
0.0
 10
10.1761383994
 20
8.9923789512
 30
0.0
 10
10.1715344304
 20
8.9970620703
 30
0.0
 10
10.1692925436
 20
8.9994594325
 30
0.0
  0
SPLINE
  5
391
100
AcDbEntity
  8
0
100
AcDbSpline
 62
7
  6
CONTINUOUS
 70
0
 71
3
 72
40
 73
36
 74
0
 42
0.0000001
 43
0.0000001
 44
0.0000000001
 40
0.0
 40
0.0
 40
0.0
 40
0.0
 40
0.029970057
 40
0.0600246656
 40
0.0901780769
 40
0.1204426314
 40
0.135622057
 40
0.1508329279
 40
0.1813483462
 40
0.2119989884
 40
0.2427882809
 40
0.2737173013
 40
0.304784799
 40
0.3359872462
 40
0.3673189159
 40
0.3987719846
 40
0.4303366594
 40
0.4620013257
 40
0.4937527177
 40
0.5255761088
 40
0.5574555226
 40
0.5893739636
 40
0.6213136673
 40
0.6532563685
 40
0.685183586
 40
0.717076922
 40
0.7489183729
 40
0.7806906469
 40
0.8123774827
 40
0.8439639705
 40
0.8754368398
 40
0.9067847946
 40
0.9379986363
 40
0.9690718179
 40
1.0
 40
1.0
 40
1.0
 40
1.0
 10
11.2031263442
 20
8.3543295785
 30
0.0
 10
11.2071599773
 20
8.356568463
 30
0.0
 10
11.215399428
 20
8.3607694544
 30
0.0
 10
11.2281855532
 20
8.3662008696
 30
0.0
 10
11.2413596909
 20
8.3707501031
 30
0.0
 10
11.2526030218
 20
8.3737882075
 30
0.0
 10
11.2617301503
 20
8.3757624522
 30
0.0
 10
11.2709567678
 20
8.3774341741
 30
0.0
 10
11.2826257435
 20
8.3789448523
 30
0.0
 10
11.2967633148
 20
8.3798245622
 30
0.0
 10
11.3109919587
 20
8.3797705288
 30
0.0
 10
11.3252505148
 20
8.3787833822
 30
0.0
 10
11.3394782695
 20
8.3768674585
 30
0.0
 10
11.3536144716
 20
8.3740306574
 30
0.0
 10
11.3675986686
 20
8.3702844669
 30
0.0
 10
11.381370826
 20
8.3656439479
 30
0.0
 10
11.3948715142
 20
8.3601277334
 30
0.0
 10
11.4080420885
 20
8.3537580245
 30
0.0
 10
11.4208248859
 20
8.3465605844
 30
0.0
 10
11.4331634345
 20
8.3385647264
 30
0.0
 10
11.4450026776
 20
8.3298032937
 30
0.0
 10
11.4562892134
 20
8.3203126243
 30
0.0
 10
11.4669715496
 20
8.3101325001
 30
0.0
 10
11.4770003709
 20
8.2993060742
 30
0.0
 10
11.4863288187
 20
8.2878797732
 30
0.0
 10
11.4949127781
 20
8.2759031705
 30
0.0
 10
11.5027111708
 20
8.2634288283
 30
0.0
 10
11.5096862451
 20
8.2505121057
 30
0.0
 10
11.515803864
 20
8.2372109295
 30
0.0
 10
11.5210337733
 20
8.2235855379
 30
0.0
 10
11.52534987
 20
8.2096981533
 30
0.0
 10
11.5287304043
 20
8.1956127629
 30
0.0
 10
11.5311582357
 20
8.1813943486
 30
0.0
 10
11.5326209076
 20
8.1671099785
 30
0.0
 10
11.5329483257
 20
8.157562908
 30
0.0
 10
11.5329483257
 20
8.1528020941
 30
0.0
  0
SPLINE
  5
392
100
AcDbEntity
  8
0
100
AcDbSpline
 62
7
  6
CONTINUOUS
 70
0
 71
3
 72
21
 73
17
 74
0
 42
0.0000001
 43
0.0000001
 44
0.0000000001
 40
0.0
 40
0.0
 40
0.0
 40
0.0
 40
0.1277586775
 40
0.2546098213
 40
0.317714259
 40
0.3805934396
 40
0.4432537192
 40
0.5057045962
 40
0.5679589778
 40
0.6300332555
 40
0.6919471379
 40
0.7537234166
 40
0.8153880999
 40
0.8769680294
 40
0.9384965184
 40
1.0
 40
1.0
 40
1.0
 40
1.0
 10
10.1168806109
 20
7.344216481
 30
0.0
 10
10.1161755583
 20
7.3511990888
 30
0.0
 10
10.1154509737
 20
7.3651934902
 30
0.0
 10
10.1163411745
 20
7.3826575274
 30
0.0
 10
10.1181633812
 20
7.3964323116
 30
0.0
 10
10.1200843972
 20
7.4066209759
 30
0.0
 10
10.1225644686
 20
7.4166511791
 30
0.0
 10
10.125603847
 20
7.4264906557
 30
0.0
 10
10.129200395
 20
7.436106257
 30
0.0
 10
10.133349397
 20
7.4454646708
 30
0.0
 10
10.1380433791
 20
7.4545325884
 30
0.0
 10
10.1432719614
 20
7.4632771215
 30
0.0
 10
10.1490217316
 20
7.4716660177
 30
0.0
 10
10.1552764029
 20
7.4796685266
 30
0.0
 10
10.1620163232
 20
7.4872545424
 30
0.0
 10
10.1668193327
 20
7.4920169062
 30
0.0
 10
10.1692925436
 20
7.4943185993
 30
0.0
  0
SPLINE
  5
393
100
AcDbEntity
  8
0
100
AcDbSpline
 62
7
  6
CONTINUOUS
 70
0
 71
3
 72
40
 73
36
 74
0
 42
0.0000001
 43
0.0000001
 44
0.0000000001
 40
0.0
 40
0.0
 40
0.0
 40
0.0
 40
0.0299503828
 40
0.059978175
 40
0.0900993204
 40
0.1203278748
 40
0.1354885488
 40
0.1506803595
 40
0.1811572624
 40
0.2117703887
 40
0.2425244577
 40
0.2734216446
 40
0.304461585
 40
0.335641417
 40
0.3669558607
 40
0.3983973291
 40
0.4299560702
 40
0.4616203361
 40
0.4933765774
 40
0.5252096619
 40
0.5571031135
 40
0.5890393727
 40
0.621000074
 40
0.6529663397
 40
0.6849190875
 40
0.7168393483
 40
0.7487085915
 40
0.7805090537
 40
0.8122240617
 40
0.8438383596
 40
0.8753383862
 40
0.9067126357
 40
0.9379516972
 40
0.9690489999
 40
1.0
 40
1.0
 40
1.0
 40
1.0
 10
10.6324010523
 20
8.7691324949
 30
0.0
 10
10.6360961892
 20
8.7713855918
 30
0.0
 10
10.6436614342
 20
8.7756323968
 30
0.0
 10
10.6554505479
 20
8.7811820257
 30
0.0
 10
10.6676414025
 20
8.7858958744
 30
0.0
 10
10.6780794311
 20
8.7891077851
 30
0.0
 10
10.686570942
 20
8.7912418242
 30
0.0
 10
10.6951665512
 20
8.7930871886
 30
0.0
 10
10.7060587359
 20
8.7948399773
 30
0.0
 10
10.7192853648
 20
8.7960475188
 30
0.0
 10
10.7326243014
 20
8.7963571744
 30
0.0
 10
10.7460153183
 20
8.7957678981
 30
0.0
 10
10.7593985293
 20
8.7942825555
 30
0.0
 10
10.7727139595
 20
8.7919077487
 30
0.0
 10
10.7859019197
 20
8.7886538396
 30
0.0
 10
10.798903165
 20
8.7845349162
 30
0.0
 10
10.8116591154
 20
8.7795687672
 30
0.0
 10
10.8241120656
 20
8.7737768495
 30
0.0
 10
10.8362054054
 20
8.7671842478
 30
0.0
 10
10.8478838456
 20
8.7598196257
 30
0.0
 10
10.8590936518
 20
8.7517151645
 30
0.0
 10
10.8697828849
 20
8.7429064886
 30
0.0
 10
10.8799016491
 20
8.7334325728
 30
0.0
 10
10.8894023438
 20
8.7233356319
 30
0.0
 10
10.8982399197
 20
8.712660988
 30
0.0
 10
10.9063721348
 20
8.7014569142
 30
0.0
 10
10.9137598096
 20
8.6897744538
 30
0.0
 10
10.9203670738
 20
8.6776672132
 30
0.0
 10
10.9261616088
 20
8.6651911268
 30
0.0
 10
10.9311148641
 20
8.6524042049
 30
0.0
 10
10.9352022845
 20
8.6393662191
 30
0.0
 10
10.9384034514
 20
8.6261385066
 30
0.0
 10
10.9407023254
 20
8.6127832366
 30
0.0
 10
10.9420872412
 20
8.5993645012
 30
0.0
 10
10.9423972627
 20
8.5903954542
 30
0.0
 10
10.9423972627
 20
8.5859229908
 30
0.0
  0
SPLINE
  5
394
100
AcDbEntity
  8
0
100
AcDbSpline
 62
7
  6
CONTINUOUS
 70
0
 71
3
 72
25
 73
21
 74
0
 42
0.0000001
 43
0.0000001
 44
0.0000000001
 40
0.0
 40
0.0
 40
0.0
 40
0.0
 40
0.0641591057
 40
0.1281766049
 40
0.192030858
 40
0.2557001834
 40
0.3191632293
 40
0.3823993364
 40
0.445389063
 40
0.5081152745
 40
0.570564188
 40
0.6327264501
 40
0.6945983202
 40
0.7254310293
 40
0.7561928565
 40
0.81750039
 40
0.8785495329
 40
0.9089905759
 40
0.9393791868
 40
1.0
 40
1.0
 40
1.0
 40
1.0
 10
10.55687308
 20
7.7685551439
 30
0.0
 10
10.5551244565
 20
7.7719192003
 30
0.0
 10
10.5517876159
 20
7.7787227195
 30
0.0
 10
10.5472876837
 20
7.7891448936
 30
0.0
 10
10.5433258413
 20
7.7997530073
 30
0.0
 10
10.5399313839
 20
7.8105220361
 30
0.0
 10
10.5371339382
 20
7.8214240994
 30
0.0
 10
10.5349632941
 20
7.8324275957
 30
0.0
 10
10.5334487414
 20
7.8434969901
 30
0.0
 10
10.5326183643
 20
7.8545924986
 30
0.0
 10
10.5324981947
 20
7.8656701431
 30
0.0
 10
10.5331110637
 20
7.876681223
 30
0.0
 10
10.5342497781
 20
7.8857700179
 30
0.0
 10
10.5355442126
 20
7.8929517399
 30
0.0
 10
10.5370914059
 20
7.9000491506
 30
0.0
 10
10.539506446
 20
7.9087784504
 30
0.0
 10
10.542569425
 20
7.91728241
 30
0.0
 10
10.5454002401
 20
7.9239068264
 30
0.0
 10
10.5484761371
 20
7.9303926129
 30
0.0
 10
10.5510663788
 20
7.935114198
 30
0.0
 10
10.5529126813
 20
7.9381840462
 30
0.0
  0
SPLINE
  5
395
100
AcDbEntity
  8
0
100
AcDbSpline
 62
7
  6
CONTINUOUS
 70
0
 71
3
 72
39
 73
35
 74
0
 42
0.0000001
 43
0.0000001
 44
0.0000000001
 40
0.0
 40
0.0
 40
0.0
 40
0.0
 40
0.007175745
 40
0.0146740737
 40
0.0225036116
 40
0.030671472
 40
0.0391835578
 40
0.0480444976
 40
0.0572573741
 40
0.0668240337
 40
0.0767454382
 40
0.0870215229
 40
0.1086328224
 40
0.1316444885
 40
0.1560318876
 40
0.1817621643
 40
0.2087953062
 40
0.2370851424
 40
0.2665800902
 40
0.2972237176
 40
0.3289551842
 40
0.3617097517
 40
0.3954191818
 40
0.4300120556
 40
0.4654140508
 40
0.5015483063
 40
0.5383357156
 40
0.5756951801
 40
0.6135438541
 40
0.6903688654
 40
0.7681254679
 40
0.8461157008
 40
0.9236385661
 40
1.0
 40
1.0
 40
1.0
 40
1.0
 10
11.9032742547
 20
10.7664775288
 30
0.0
 10
11.9025296638
 20
10.7657583091
 30
0.0
 10
11.9009699768
 20
10.7643254938
 30
0.0
 10
11.8984824282
 20
10.7622378793
 30
0.0
 10
11.8957979329
 20
10.7601667971
 30
0.0
 10
11.8929182344
 20
10.758113637
 30
0.0
 10
11.8898450554
 20
10.7560794959
 30
0.0
 10
11.8865801475
 20
10.7540655713
 30
0.0
 10
11.8831254364
 20
10.7520729953
 30
0.0
 10
11.879482981
 20
10.7501029411
 30
0.0
 10
11.8756549261
 20
10.7481566173
 30
0.0
 10
11.870214695
 20
10.7455507972
 30
0.0
 10
11.8629584543
 20
10.7423702785
 30
0.0
 10
11.8536905661
 20
10.7387276927
 30
0.0
 10
11.8437433785
 20
10.73520645
 30
0.0
 10
11.8331406563
 20
10.7318150559
 30
0.0
 10
11.8219075989
 20
10.7285617002
 30
0.0
 10
11.810071058
 20
10.7254542676
 30
0.0
 10
11.7976593576
 20
10.722500301
 30
0.0
 10
11.7847022518
 20
10.719706981
 30
0.0
 10
11.7712308464
 20
10.7170810754
 30
0.0
 10
11.7572775068
 20
10.7146289538
 30
0.0
 10
11.7428757685
 20
10.7123565688
 30
0.0
 10
11.7280602613
 20
10.7102694419
 30
0.0
 10
11.7128666299
 20
10.7083726231
 30
0.0
 10
11.6973314346
 20
10.7066707059
 30
0.0
 10
11.6814920694
 20
10.7051678246
 30
0.0
 10
11.6653866278
 20
10.7038676042
 30
0.0
 10
11.6435017133
 20
10.7024012679
 30
0.0
 10
11.6157672659
 20
10.7011012694
 30
0.0
 10
11.5822187139
 20
10.7003924829
 30
0.0
 10
11.54856212
 20
10.7005343882
 30
0.0
 10
11.5151214251
 20
10.7015255662
 30
0.0
 10
11.4929521405
 20
10.7027590234
 30
0.0
 10
11.4819620728
 20
10.7035211872
 30
0.0
  0
SPLINE
  5
396
100
AcDbEntity
  8
0
100
AcDbSpline
 62
7
  6
CONTINUOUS
 70
0
 71
3
 72
39
 73
35
 74
0
 42
0.0000001
 43
0.0000001
 44
0.0000000001
 40
0.0
 40
0.0
 40
0.0
 40
0.0
 40
0.0071758079
 40
0.0146741357
 40
0.022503624
 40
0.030671441
 40
0.0391835297
 40
0.0480445027
 40
0.0572573755
 40
0.0668240442
 40
0.0767454363
 40
0.0870215068
 40
0.1086328144
 40
0.1316444976
 40
0.1560319006
 40
0.1817621503
 40
0.2087952904
 40
0.2370851496
 40
0.2665801077
 40
0.2972237102
 40
0.3289551658
 40
0.3617097536
 40
0.3954191975
 40
0.4300120549
 40
0.4654140374
 40
0.501548304
 40
0.5383357251
 40
0.5756951818
 40
0.6135438486
 40
0.6903688691
 40
0.7681254643
 40
0.846115686
 40
0.9236386402
 40
1.0
 40
1.0
 40
1.0
 40
1.0
 10
11.9332179571
 20
10.7344572236
 30
0.0
 10
11.9324062593
 20
10.7336731836
 30
0.0
 10
11.9307060136
 20
10.73211124
 30
0.0
 10
11.9279942966
 20
10.7298354939
 30
0.0
 10
11.9250678901
 20
10.7275777905
 30
0.0
 10
11.9219286972
 20
10.7253396131
 30
0.0
 10
11.9185785757
 20
10.7231221633
 30
0.0
 10
11.9150194402
 20
10.7209267519
 30
0.0
 10
11.9112534046
 20
10.7187545979
 30
0.0
 10
11.9072826995
 20
10.7166070215
 30
0.0
 10
11.9031096787
 20
10.7144853005
 30
0.0
 10
11.8971791992
 20
10.7116446497
 30
0.0
 10
11.8892690508
 20
10.708177515
 30
0.0
 10
11.8791659683
 20
10.7042066777
 30
0.0
 10
11.8683223771
 20
10.7003681168
 30
0.0
 10
11.8567641844
 20
10.6966710929
 30
0.0
 10
11.8445188464
 20
10.6931245573
 30
0.0
 10
11.8316156337
 20
10.6897371004
 30
0.0
 10
11.8180854346
 20
10.6865169379
 30
0.0
 10
11.8039606888
 20
10.6834718856
 30
0.0
 10
11.7892752935
 20
10.6806093391
 30
0.0
 10
11.774064526
 20
10.6779362482
 30
0.0
 10
11.7583649528
 20
10.6754590904
 30
0.0
 10
11.7422143307
 20
10.6731838729
 30
0.0
 10
11.7256515093
 20
10.6711161137
 30
0.0
 10
11.7087163379
 20
10.6692608304
 30
0.0
 10
11.6914495849
 20
10.6676225226
 30
0.0
 10
11.6738927817
 20
10.6662051269
 30
0.0
 10
11.6500356815
 20
10.6646066415
 30
0.0
 10
11.6198019091
 20
10.6631895062
 30
0.0
 10
11.5832300881
 20
10.6624168342
 30
0.0
 10
11.546540476
 20
10.6625715345
 30
0.0
 10
11.5100862296
 20
10.6636520318
 30
0.0
 10
11.4859191291
 20
10.6649966444
 30
0.0
 10
11.473938689
 20
10.6658274908
 30
0.0
  0
SPLINE
  5
397
100
AcDbEntity
  8
0
100
AcDbSpline
 62
7
  6
CONTINUOUS
 70
0
 71
3
 72
83
 73
79
 74
0
 42
0.0000001
 43
0.0000001
 44
0.0000000001
 40
0.0
 40
0.0
 40
0.0
 40
0.0
 40
0.003980149
 40
0.0081240919
 40
0.0124359835
 40
0.0169193603
 40
0.0215772246
 40
0.0264119606
 40
0.0314252324
 40
0.0366182158
 40
0.0419916195
 40
0.0475457334
 40
0.0532805161
 40
0.0591955185
 40
0.0715625327
 40
0.0846382143
 40
0.0984095328
 40
0.1128601134
 40
0.1279706583
 40
0.1437192718
 40
0.1600817502
 40
0.1770318183
 40
0.1945413264
 40
0.2125804203
 40
0.2311176863
 40
0.2501203005
 40
0.269554164
 40
0.2893840224
 40
0.3095735802
 40
0.3300856048
 40
0.3508820422
 40
0.3719241252
 40
0.4145864312
 40
0.4577527569
 40
0.5010975799
 40
0.5442936399
 40
0.5870151259
 40
0.6080976714
 40
0.6289416876
 40
0.6495082871
 40
0.6697592834
 40
0.6896572915
 40
0.7091658343
 40
0.7282494515
 40
0.7468738239
 40
0.7650058946
 40
0.78261399
 40
0.7996679565
 40
0.8161393115
 40
0.8320014232
 40
0.8472297058
 40
0.8618018332
 40
0.8756980061
 40
0.8889012771
 40
0.9013979681
 40
0.9131781873
 40
0.9187980573
 40
0.924237173
 40
0.9294957148
 40
0.9345742409
 40
0.9394737433
 40
0.9441957547
 40
0.948742307
 40
0.9531161074
 40
0.9573205402
 40
0.9613597705
 40
0.9652388909
 40
0.9689639409
 40
0.9725421207
 40
0.975981843
 40
0.9792928682
 40
0.9824864417
 40
0.9855753029
 40
0.9885737828
 40
0.9914977139
 40
0.9943643205
 40
0.9971920042
 40
1.0
 40
1.0
 40
1.0
 40
1.0
 10
10.5285562123
 20
10.9706018272
 30
0.0
 10
10.5296257062
 20
10.9716348791
 30
0.0
 10
10.5318572777
 20
10.9736936856
 30
0.0
 10
10.5354003394
 20
10.9767007433
 30
0.0
 10
10.5392035897
 20
10.9796862576
 30
0.0
 10
10.5432649408
 20
10.9826485939
 30
0.0
 10
10.5475823813
 20
10.9855863963
 30
0.0
 10
10.5521538247
 20
10.9884982096
 30
0.0
 10
10.5569769801
 20
10.9913826684
 30
0.0
 10
10.5620494516
 20
10.9942382868
 30
0.0
 10
10.567368693
 20
10.9970636411
 30
0.0
 10
10.5729320291
 20
10.9998573434
 30
0.0
 10
10.5787367001
 20
11.00261797
 30
0.0
 10
10.5869159228
 20
11.0063077442
 30
0.0
 10
10.5977314054
 20
11.0108167118
 30
0.0
 10
10.611437607
 20
11.0159966567
 30
0.0
 10
10.6260301456
 20
11.0210126188
 30
0.0
 10
10.6414796518
 20
11.0258544175
 30
0.0
 10
10.6577551952
 20
11.0305122085
 30
0.0
 10
10.6748240358
 20
11.0349765162
 30
0.0
 10
10.692651802
 20
11.0392382513
 30
0.0
 10
10.7112025492
 20
11.0432887322
 30
0.0
 10
10.7304388478
 20
11.0471197061
 30
0.0
 10
10.7503218569
 20
11.0507233645
 30
0.0
 10
10.7708114047
 20
11.0540923725
 30
0.0
 10
10.7918660768
 20
11.0572198733
 30
0.0
 10
10.8134433076
 20
11.0600995008
 30
0.0
 10
10.835499467
 20
11.0627253928
 30
0.0
 10
10.8579899511
 20
11.0650922033
 30
0.0
 10
10.8808692552
 20
11.067195113
 30
0.0
 10
10.9040911307
 20
11.0690298768
 30
0.0
 10
10.9355910751
 20
11.0711231154
 30
0.0
 10
10.9754753099
 20
11.0730374989
 30
0.0
 10
11.023723335
 20
11.0742114281
 30
0.0
 10
11.0721851747
 20
11.0742625653
 30
0.0
 10
11.1204687879
 20
11.0731904615
 30
0.0
 10
11.1604053548
 20
11.0713605948
 30
0.0
 10
11.1919647946
 20
11.0693344407
 30
0.0
 10
11.2152439368
 20
11.0675488645
 30
0.0
 10
11.2381890002
 20
11.0654944189
 30
0.0
 10
11.2607536067
 20
11.0631752571
 30
0.0
 10
11.2828921036
 20
11.0605961051
 30
0.0
 10
11.3045597159
 20
11.0577622077
 30
0.0
 10
11.3257126235
 20
11.0546793278
 30
0.0
 10
11.3463080602
 20
11.0513537412
 30
0.0
 10
11.366304402
 20
11.047792223
 30
0.0
 10
11.3856612493
 20
11.0440020263
 30
0.0
 10
11.4043395094
 20
11.0399908708
 30
0.0
 10
11.4223014813
 20
11.0357669227
 30
0.0
 10
11.4395109446
 20
11.0313387866
 30
0.0
 10
11.4559332392
 20
11.0267154865
 30
0.0
 10
11.4715353468
 20
11.0219064329
 30
0.0
 10
11.4862859357
 20
11.016921406
 30
0.0
 10
11.5001555499
 20
11.0117705063
 30
0.0
 10
11.513116323
 20
11.0064641709
 30
0.0
 10
11.5232922749
 20
11.0018519587
 30
0.0
 10
11.5309482065
 20
10.9980835702
 30
0.0
 10
11.5363565497
 20
10.9952695356
 30
0.0
 10
11.5415190735
 20
10.9924247671
 30
0.0
 10
11.5464332059
 20
10.9895506523
 30
0.0
 10
11.5510964743
 20
10.9866485936
 30
0.0
 10
11.5555065837
 20
10.9837200808
 30
0.0
 10
11.5596613077
 20
10.9807664905
 30
0.0
 10
11.5635586025
 20
10.9777893012
 30
0.0
 10
11.5671965307
 20
10.9747899418
 30
0.0
 10
11.5705732514
 20
10.9717698055
 30
0.0
 10
11.5736871198
 20
10.9687303699
 30
0.0
 10
11.5765365027
 20
10.9656729757
 30
0.0
 10
11.5791199636
 20
10.962599062
 30
0.0
 10
11.5814361195
 20
10.9595100053
 30
0.0
 10
11.5834836285
 20
10.9564071643
 30
0.0
 10
11.5852613373
 20
10.9532919945
 30
0.0
 10
11.5867679938
 20
10.9501658884
 30
0.0
 10
11.5880025663
 20
10.9470303982
 30
0.0
 10
11.5889640383
 20
10.9438871603
 30
0.0
 10
11.5896514815
 20
10.9407378386
 30
0.0
 10
11.5900643039
 20
10.9375846662
 30
0.0
 10
11.5901561736
 20
10.9354780925
 30
0.0
 10
11.5901561778
 20
10.9344290507
 30
0.0
  0
SPLINE
  5
398
100
AcDbEntity
  8
0
100
AcDbSpline
 62
7
  6
CONTINUOUS
 70
0
 71
3
 72
53
 73
49
 74
0
 42
0.0000001
 43
0.0000001
 44
0.0000000001
 40
0.0
 40
0.0
 40
0.0
 40
0.0
 40
0.0527848368
 40
0.1048063877
 40
0.1559447945
 40
0.2060908895
 40
0.2551345126
 40
0.3029700154
 40
0.3494956547
 40
0.3946138133
 40
0.4382317231
 40
0.4802619925
 40
0.5206231304
 40
0.5592401772
 40
0.5960455137
 40
0.6309799343
 40
0.6639937277
 40
0.6950481335
 40
0.7241173308
 40
0.7379047206
 40
0.7511934666
 40
0.7639854289
 40
0.7762837289
 40
0.7880933188
 40
0.799421028
 40
0.8102756762
 40
0.8206687401
 40
0.830614312
 40
0.8401296363
 40
0.8492356466
 40
0.8579570837
 40
0.8663232307
 40
0.8743681403
 40
0.8821308159
 40
0.8896555052
 40
0.8969912663
 40
0.9041915074
 40
0.9113130476
 40
0.918414751
 40
0.9255560501
 40
0.9327952996
 40
0.9401883408
 40
0.94778714
 40
0.9637757048
 40
0.9722567975
 40
0.9811039228
 40
0.9903442134
 40
1.0
 40
1.0
 40
1.0
 40
1.0
 10
9.9123325121
 20
10.812375367
 30
0.0
 10
9.9069309794
 20
10.8127499645
 30
0.0
 10
9.8962108727
 20
10.8135659125
 30
0.0
 10
9.8802785826
 20
10.8150015915
 30
0.0
 10
9.864637685
 20
10.8166376209
 30
0.0
 10
9.8493261436
 20
10.818469941
 30
0.0
 10
9.834380574
 20
10.8204941803
 30
0.0
 10
9.8198370105
 20
10.8227054039
 30
0.0
 10
9.8057304161
 20
10.8250982444
 30
0.0
 10
9.7920947035
 20
10.8276669045
 30
0.0
 10
9.7789626452
 20
10.8304051601
 30
0.0
 10
9.7663657655
 20
10.8333063555
 30
0.0
 10
9.7543342733
 20
10.8363634455
 30
0.0
 10
9.7428969924
 20
10.8395690136
 30
0.0
 10
9.7320812654
 20
10.8429153002
 30
0.0
 10
9.7219128885
 20
10.8463941887
 30
0.0
 10
9.712415938
 20
10.8499972847
 30
0.0
 10
9.7036130577
 20
10.8537159123
 30
0.0
 10
9.696756676
 20
10.8569584499
 30
0.0
 10
9.6916441505
 20
10.8596111702
 30
0.0
 10
9.688064039
 20
10.8615888853
 30
0.0
 10
9.6846723576
 20
10.8635887008
 30
0.0
 10
9.6814711358
 20
10.8656095215
 30
0.0
 10
9.6784622585
 20
10.8676501383
 30
0.0
 10
9.6756474825
 20
10.8697093459
 30
0.0
 10
9.6730285079
 20
10.8717860263
 30
0.0
 10
9.6706068414
 20
10.8738789503
 30
0.0
 10
9.6683839313
 20
10.8759869804
 30
0.0
 10
9.6663611422
 20
10.8781089976
 30
0.0
 10
9.6645396583
 20
10.8802438116
 30
0.0
 10
9.6629207007
 20
10.8823903596
 30
0.0
 10
9.6615053475
 20
10.8845474976
 30
0.0
 10
9.6602946035
 20
10.8867140694
 30
0.0
 10
9.6592895581
 20
10.8888889402
 30
0.0
 10
9.65849107
 20
10.8910707944
 30
0.0
 10
9.657900034
 20
10.8932582645
 30
0.0
 10
9.6575172274
 20
10.895449814
 30
0.0
 10
9.6573430656
 20
10.8976437447
 30
0.0
 10
9.6573779056
 20
10.8998382836
 30
0.0
 10
9.6576216576
 20
10.9020316179
 30
0.0
 10
9.6580739158
 20
10.9042219767
 30
0.0
 10
9.658734266
 20
10.9064078138
 30
0.0
 10
9.6599103935
 20
10.9093634335
 30
0.0
 10
9.661498269
 20
10.9122611452
 30
0.0
 10
9.6634376582
 20
10.9150767992
 30
0.0
 10
9.6651244609
 20
10.9172198417
 30
0.0
 10
9.667013117
 20
10.9193504151
 30
0.0
 10
9.6683752926
 20
10.9207307743
 30
0.0
 10
9.6690876862
 20
10.9214188936
 30
0.0
  0
SPLINE
  5
399
100
AcDbEntity
  8
0
100
AcDbSpline
 62
7
  6
CONTINUOUS
 70
0
 71
3
 72
37
 73
33
 74
0
 42
0.0000001
 43
0.0000001
 44
0.0000000001
 40
0.0
 40
0.0
 40
0.0
 40
0.0
 40
0.015044231
 40
0.0300697771
 40
0.0450785955
 40
0.0600768306
 40
0.0750696999
 40
0.0900618088
 40
0.1050580216
 40
0.1200629762
 40
0.1501073404
 40
0.1802338964
 40
0.2104665447
 40
0.2408228597
 40
0.2713145348
 40
0.3019481521
 40
0.3327260758
 40
0.3636473325
 40
0.42587373
 40
0.4571967761
 40
0.4886396486
 40
0.5518278075
 40
0.5835779275
 40
0.6154118652
 40
0.6792720666
 40
0.7433481185
 40
0.7754503394
 40
0.8075738271
 40
0.871815153
 40
0.9039287147
 40
0.9360119409
 40
1.0
 40
1.0
 40
1.0
 40
1.0
 10
10.9358619099
 20
7.69053062
 30
0.0
 10
10.9346746738
 20
7.6885566018
 30
0.0
 10
10.9322004455
 20
7.6846708833
 30
0.0
 10
10.9281986484
 20
7.6790435155
 30
0.0
 10
10.9239186886
 20
7.6736334549
 30
0.0
 10
10.9193721736
 20
7.6684521649
 30
0.0
 10
10.9145713602
 20
7.6635091737
 30
0.0
 10
10.9095291808
 20
7.6588132483
 30
0.0
 10
10.9042592606
 20
7.654371433
 30
0.0
 10
10.8969462239
 20
7.6487942524
 30
0.0
 10
10.8872988261
 20
7.6424810191
 30
0.0
 10
10.8750497276
 20
7.6359942075
 30
0.0
 10
10.8622331146
 20
7.6305948881
 30
0.0
 10
10.8489569009
 20
7.6262741817
 30
0.0
 10
10.8353200918
 20
7.623011894
 30
0.0
 10
10.8214133575
 20
7.6207805274
 30
0.0
 10
10.8073173148
 20
7.6195477713
 30
0.0
 10
10.7883341407
 20
7.6191878174
 30
0.0
 10
10.7692758421
 20
7.620691536
 30
0.0
 10
10.7503986329
 20
7.6238905621
 30
0.0
 10
10.7315910743
 20
7.6281990497
 30
0.0
 10
10.713110674
 20
7.6340867414
 30
0.0
 10
10.6951286771
 20
7.6414140155
 30
0.0
 10
10.6774524549
 20
7.6496994779
 30
0.0
 10
10.6561145883
 20
7.6617530064
 30
0.0
 10
10.6360431039
 20
7.6758845476
 30
0.0
 10
10.6208602581
 20
7.6883628141
 30
0.0
 10
10.606303538
 20
7.70160229
 30
0.0
 10
10.5927695638
 20
7.7159363674
 30
0.0
 10
10.5804354696
 20
7.7312645106
 30
0.0
 10
10.5689730466
 20
7.7472050038
 30
0.0
 10
10.5613918783
 20
7.7598617388
 30
0.0
 10
10.55687308
 20
7.7685551439
 30
0.0
  0
SPLINE
  5
39A
100
AcDbEntity
  8
0
100
AcDbSpline
 62
7
  6
CONTINUOUS
 70
0
 71
3
 72
39
 73
35
 74
0
 42
0.0000001
 43
0.0000001
 44
0.0000000001
 40
0.0
 40
0.0
 40
0.0
 40
0.0
 40
0.095831508
 40
0.1891003626
 40
0.2792401393
 40
0.322966854
 40
0.3657106043
 40
0.4074088094
 40
0.4480014003
 40
0.4874310569
 40
0.5256432279
 40
0.5625865995
 40
0.5982133935
 40
0.6324794928
 40
0.6653451047
 40
0.6967751404
 40
0.7267396127
 40
0.7552146497
 40
0.7821831777
 40
0.8076359328
 40
0.8315732026
 40
0.8540063928
 40
0.8749604139
 40
0.8944770491
 40
0.9126186046
 40
0.9294729087
 40
0.9451592017
 40
0.9598337631
 40
0.9668558019
 40
0.9737028514
 40
0.9804062781
 40
0.9869996942
 40
0.9935186393
 40
1.0
 40
1.0
 40
1.0
 40
1.0
 10
9.9043091283
 20
10.7746816705
 30
0.0
 10
9.894541853
 20
10.7753590334
 30
0.0
 10
9.8752825502
 20
10.7769104593
 30
0.0
 10
9.8469052026
 20
10.7798719657
 30
0.0
 10
9.8238897133
 20
10.7828587586
 30
0.0
 10
9.8060470639
 20
10.7855473972
 30
0.0
 10
9.7931272172
 20
10.7876818381
 30
0.0
 10
9.7805555793
 20
10.7899509946
 30
0.0
 10
9.7683531318
 20
10.7923510856
 30
0.0
 10
9.7565402497
 20
10.7948780426
 30
0.0
 10
9.7451366502
 20
10.7975276407
 30
0.0
 10
9.7341613535
 20
10.8002954224
 30
0.0
 10
9.7236326456
 20
10.80317671
 30
0.0
 10
9.7135680606
 20
10.8061666892
 30
0.0
 10
9.7039843279
 20
10.8092603268
 30
0.0
 10
9.6948973435
 20
10.8124524124
 30
0.0
 10
9.6863221576
 20
10.8157376367
 30
0.0
 10
9.6782729076
 20
10.8191104969
 30
0.0
 10
9.6707628025
 20
10.8225653829
 30
0.0
 10
9.6638041142
 20
10.8260966524
 30
0.0
 10
9.6574080943
 20
10.8296985448
 30
0.0
 10
9.6515849908
 20
10.8333653424
 30
0.0
 10
9.6463440701
 20
10.8370914557
 30
0.0
 10
9.6416935554
 20
10.8408714301
 30
0.0
 10
9.6376408463
 20
10.8447001099
 30
0.0
 10
9.6341926391
 20
10.8485730506
 30
0.0
 10
9.6313555955
 20
10.8524852908
 30
0.0
 10
9.629479036
 20
10.8558241488
 30
0.0
 10
9.6283092677
 20
10.858497597
 30
0.0
 10
9.6276010337
 20
10.8604784035
 30
0.0
 10
9.6270496273
 20
10.8624631062
 30
0.0
 10
9.626655468
 20
10.8644509067
 30
0.0
 10
9.6264188613
 20
10.8664406404
 30
0.0
 10
9.6263662006
 20
10.8677694231
 30
0.0
 10
9.6263661954
 20
10.8684315987
 30
0.0
  0
SPLINE
  5
39B
100
AcDbEntity
  8
0
100
AcDbSpline
 62
7
  6
CONTINUOUS
 70
0
 71
3
 72
37
 73
33
 74
0
 42
0.0000001
 43
0.0000001
 44
0.0000000001
 40
0.0
 40
0.0
 40
0.0
 40
0.0
 40
0.0311467573
 40
0.0624481077
 40
0.0938952645
 40
0.125480423
 40
0.1571906467
 40
0.189011416
 40
0.2209257215
 40
0.2529147894
 40
0.2849583708
 40
0.3170351623
 40
0.381163081
 40
0.4451600481
 40
0.4770758024
 40
0.508898317
 40
0.5406106103
 40
0.5721978896
 40
0.6036478697
 40
0.6349510521
 40
0.6661009568
 40
0.6970942988
 40
0.7279311085
 40
0.7586147837
 40
0.7891520652
 40
0.819552936
 40
0.8498304416
 40
0.8800004329
 40
0.9100812331
 40
0.9400932378
 40
0.9700584557
 40
1.0
 40
1.0
 40
1.0
 40
1.0
 10
9.9001679967
 20
9.6241277019
 30
0.0
 10
9.8979508585
 20
9.624281461
 30
0.0
 10
9.8935151857
 20
9.6247520526
 30
0.0
 10
9.8869154812
 20
9.6259373848
 30
0.0
 10
9.8803864333
 20
9.6275977958
 30
0.0
 10
9.8739633844
 20
9.6297241743
 30
0.0
 10
9.8676803895
 20
9.6323052505
 30
0.0
 10
9.8615709908
 20
9.6353271502
 30
0.0
 10
9.8556677131
 20
9.6387737743
 30
0.0
 10
9.8500020828
 20
9.6426266383
 30
0.0
 10
9.8446040382
 20
9.6468654723
 30
0.0
 10
9.8378045764
 20
9.6529988653
 30
0.0
 10
9.8301165895
 20
9.6615094344
 30
0.0
 10
9.8236650314
 20
9.6709782028
 30
0.0
 10
9.819332782
 20
9.6790041672
 30
0.0
 10
9.8165167285
 20
9.6852118059
 30
0.0
 10
9.814147211
 20
9.6915779819
 30
0.0
 10
9.8122366865
 20
9.6980690676
 30
0.0
 10
9.8107954558
 20
9.7046503811
 30
0.0
 10
9.809831254
 20
9.7112868521
 30
0.0
 10
9.8093493005
 20
9.7179430768
 30
0.0
 10
9.8093522466
 20
9.7245835383
 30
0.0
 10
9.8098401559
 20
9.7311727847
 30
0.0
 10
9.8108104973
 20
9.7376756216
 30
0.0
 10
9.8122581647
 20
9.7440572986
 30
0.0
 10
9.8141754987
 20
9.750283695
 30
0.0
 10
9.8165523203
 20
9.7563214999
 30
0.0
 10
9.8193759923
 20
9.7621384032
 30
0.0
 10
9.8226314404
 20
9.7677032298
 30
0.0
 10
9.8263013885
 20
9.7729862669
 30
0.0
 10
9.8303658433
 20
9.7779588602
 30
0.0
 10
9.8333253056
 20
9.7810504971
 30
0.0
 10
9.8348619704
 20
9.7825347977
 30
0.0
  0
SPLINE
  5
39C
100
AcDbEntity
  8
0
100
AcDbSpline
 62
7
  6
CONTINUOUS
 70
0
 71
3
 72
34
 73
30
 74
0
 42
0.0000001
 43
0.0000001
 44
0.0000000001
 40
0.0
 40
0.0
 40
0.0
 40
0.0
 40
0.0324863023
 40
0.0649541013
 40
0.097386296
 40
0.1297702484
 40
0.1620921035
 40
0.1943400046
 40
0.2265032342
 40
0.2585726603
 40
0.2905407627
 40
0.3224016374
 40
0.3541509817
 40
0.3857860779
 40
0.4173057858
 40
0.4487103661
 40
0.4800013339
 40
0.5111813748
 40
0.5422543335
 40
0.5732249619
 40
0.6040987601
 40
0.6348819876
 40
0.665581573
 40
0.6962048762
 40
0.7572357187
 40
0.8180598001
 40
0.8787470538
 40
0.9393695035
 40
1.0
 40
1.0
 40
1.0
 40
1.0
 10
10.4752627243
 20
9.2842105432
 30
0.0
 10
10.4777946529
 20
9.2815030248
 30
0.0
 10
10.4827054642
 20
9.2759454286
 30
0.0
 10
10.4895860302
 20
9.2672121599
 30
0.0
 10
10.495957439
 20
9.2581146188
 30
0.0
 10
10.5017989257
 20
9.2486878259
 30
0.0
 10
10.5070932592
 20
9.238967185
 30
0.0
 10
10.5118263851
 20
9.2289892178
 30
0.0
 10
10.5159874923
 20
9.2187906627
 30
0.0
 10
10.5195689538
 20
9.2084082589
 30
0.0
 10
10.522566133
 20
9.197878326
 30
0.0
 10
10.5249771878
 20
9.1872364786
 30
0.0
 10
10.5268028373
 20
9.1765173753
 30
0.0
 10
10.5280461307
 20
9.1657545166
 30
0.0
 10
10.528712217
 20
9.1549800957
 30
0.0
 10
10.5288080199
 20
9.1442248996
 30
0.0
 10
10.5283419931
 20
9.1335182704
 30
0.0
 10
10.5273238939
 20
9.1228880824
 30
0.0
 10
10.5257646134
 20
9.1123607471
 30
0.0
 10
10.5236759089
 20
9.1019612776
 30
0.0
 10
10.5210702168
 20
9.0917133303
 30
0.0
 10
10.5179606234
 20
9.0816393887
 30
0.0
 10
10.5143604588
 20
9.0717603816
 30
0.0
 10
10.5089320441
 20
9.0588923508
 30
0.0
 10
10.5009871645
 20
9.0433788023
 30
0.0
 10
10.4897078212
 20
9.0258294723
 30
0.0
 10
10.4768072911
 20
9.0094929711
 30
0.0
 10
10.4624070076
 20
8.9944958662
 30
0.0
 10
10.4518877723
 20
8.9854691998
 30
0.0
 10
10.4464263289
 20
8.9812222296
 30
0.0
  0
SPLINE
  5
39D
100
AcDbEntity
  8
0
100
AcDbSpline
 62
7
  6
CONTINUOUS
 70
0
 71
3
 72
39
 73
35
 74
0
 42
0.0000001
 43
0.0000001
 44
0.0000000001
 40
0.0
 40
0.0
 40
0.0
 40
0.0
 40
0.0761048505
 40
0.1533644273
 40
0.2310953879
 40
0.3086074378
 40
0.385213133
 40
0.4229647759
 40
0.4602372533
 40
0.4969488802
 40
0.5330196652
 40
0.5683715375
 40
0.6029285954
 40
0.6366174131
 40
0.6693673757
 40
0.7011109337
 40
0.731783919
 40
0.7613259621
 40
0.7896809469
 40
0.8167974154
 40
0.8426291179
 40
0.8671357663
 40
0.8902839198
 40
0.9120479695
 40
0.9224060488
 40
0.9324129352
 40
0.9420682978
 40
0.951372736
 40
0.9603277737
 40
0.9689359288
 40
0.9772012578
 40
0.9851291183
 40
0.992726077
 40
1.0
 40
1.0
 40
1.0
 40
1.0
 10
11.473938689
 20
5.9559726874
 30
0.0
 10
11.4858462968
 20
5.955146892
 30
0.0
 10
11.5098658645
 20
5.9538084981
 30
0.0
 10
11.5460981628
 20
5.9527261252
 30
0.0
 10
11.582567193
 20
5.9525584511
 30
0.0
 10
11.6189261564
 20
5.9533071296
 30
0.0
 10
11.6489904587
 20
5.9546951295
 30
0.0
 10
11.6727206643
 20
5.9562648126
 30
0.0
 10
11.6901902666
 20
5.9576583467
 30
0.0
 10
11.7073762926
 20
5.9592704191
 30
0.0
 10
11.7242379067
 20
5.9610971871
 30
0.0
 10
11.7407350076
 20
5.9631342681
 30
0.0
 10
11.7568283728
 20
5.9653767931
 30
0.0
 10
11.7724797486
 20
5.9678193971
 30
0.0
 10
11.7876519515
 20
5.9704562151
 30
0.0
 10
11.8023089496
 20
5.9732809261
 30
0.0
 10
11.816415946
 20
5.9762867669
 30
0.0
 10
11.8299394797
 20
5.979466536
 30
0.0
 10
11.842847516
 20
5.9828125961
 30
0.0
 10
11.8551095244
 20
5.9863169248
 30
0.0
 10
11.8666965302
 20
5.9899711391
 30
0.0
 10
11.8775813113
 20
5.9937665063
 30
0.0
 10
11.887738164
 20
5.9976939649
 30
0.0
 10
11.8957023344
 20
6.0011233942
 30
0.0
 10
11.9016829062
 20
6.003933711
 30
0.0
 10
11.9058974747
 20
6.0060337894
 30
0.0
 10
11.9099129693
 20
6.0081598377
 30
0.0
 10
11.9137270356
 20
6.0103106059
 30
0.0
 10
11.9173374418
 20
6.0124847878
 30
0.0
 10
11.920742059
 20
6.0146811915
 30
0.0
 10
11.923938958
 20
6.0168985324
 30
0.0
 10
11.9269263092
 20
6.0191356199
 30
0.0
 10
11.929702195
 20
6.0213910776
 30
0.0
 10
11.931448003
 20
6.022939091
 30
0.0
 10
11.9322831584
 20
6.0237162779
 30
0.0
  0
SPLINE
  5
39E
100
AcDbEntity
  8
0
100
AcDbSpline
 62
7
  6
CONTINUOUS
 70
0
 71
3
 72
40
 73
36
 74
0
 42
0.0000001
 43
0.0000001
 44
0.0000000001
 40
0.0
 40
0.0
 40
0.0
 40
0.0
 40
0.0313813643
 40
0.047150836
 40
0.0629673095
 40
0.094728522
 40
0.1266535921
 40
0.1587178887
 40
0.19089235
 40
0.2231448527
 40
0.2554413326
 40
0.2877469693
 40
0.320027281
 40
0.3522491374
 40
0.3843816648
 40
0.4163970411
 40
0.4482711811
 40
0.4799843166
 40
0.5115214764
 40
0.5428728717
 40
0.5740341848
 40
0.6050067585
 40
0.6357976746
 40
0.6664197079
 40
0.6968911342
 40
0.7272353737
 40
0.757480449
 40
0.7876582451
 40
0.8178035689
 40
0.8479530196
 40
0.8781437022
 40
0.908411829
 40
0.9387912984
 40
0.9693122383
 40
1.0
 40
1.0
 40
1.0
 40
1.0
 10
11.4688316727
 20
6.631334365
 30
0.0
 10
11.466514345
 20
6.6314950722
 30
0.0
 10
11.4630411325
 20
6.6319004747
 30
0.0
 10
11.4584589367
 20
6.6327598049
 30
0.0
 10
11.4538932268
 20
6.6338347221
 30
0.0
 10
11.4482622064
 20
6.6355744031
 30
0.0
 10
11.4416969827
 20
6.6382692593
 30
0.0
 10
11.4353688857
 20
6.641548867
 30
0.0
 10
11.4293316107
 20
6.645382188
 30
0.0
 10
11.4236349521
 20
6.6497336434
 30
0.0
 10
11.4183249783
 20
6.6545636018
 30
0.0
 10
11.4134435931
 20
6.6598289952
 30
0.0
 10
11.409028395
 20
6.6654838902
 30
0.0
 10
11.4051125697
 20
6.6714800296
 30
0.0
 10
11.4017248673
 20
6.6777673231
 30
0.0
 10
11.3988896278
 20
6.6842942824
 30
0.0
 10
11.3966268413
 20
6.6910083972
 30
0.0
 10
11.3949522227
 20
6.6978564558
 30
0.0
 10
11.3938772889
 20
6.7047848157
 30
0.0
 10
11.3934094226
 20
6.7117396352
 30
0.0
 10
11.3935519154
 20
6.7186670768
 30
0.0
 10
11.3943039822
 20
6.7255134949
 30
0.0
 10
11.3956607455
 20
6.732225624
 30
0.0
 10
11.3976131885
 20
6.7387507791
 30
0.0
 10
11.4001480818
 20
6.7450370845
 30
0.0
 10
11.4032478933
 20
6.7510337422
 30
0.0
 10
11.4068906912
 20
6.7566913515
 30
0.0
 10
11.4110500578
 20
6.7619622856
 30
0.0
 10
11.4156950339
 20
6.7668011298
 30
0.0
 10
11.4207901056
 20
6.7711651751
 30
0.0
 10
11.4262952938
 20
6.7750149635
 30
0.0
 10
11.4321662158
 20
6.7783148472
 30
0.0
 10
11.4383546924
 20
6.7810336228
 30
0.0
 10
11.4448078324
 20
6.7831448831
 30
0.0
 10
11.4492385437
 20
6.7841309819
 30
0.0
 10
11.4514769819
 20
6.7845174314
 30
0.0
  0
SPLINE
  5
39F
100
AcDbEntity
  8
0
100
AcDbSpline
 62
7
  6
CONTINUOUS
 70
0
 71
3
 72
23
 73
19
 74
0
 42
0.0000001
 43
0.0000001
 44
0.0000000001
 40
0.0
 40
0.0
 40
0.0
 40
0.0
 40
0.0639093773
 40
0.1275503771
 40
0.190925646
 40
0.2540480827
 40
0.3169309798
 40
0.3795928173
 40
0.4420551187
 40
0.5043426642
 40
0.5664829588
 40
0.6285057886
 40
0.69044272
 40
0.7523265631
 40
0.814190823
 40
0.8760691437
 40
0.9379947658
 40
1.0
 40
1.0
 40
1.0
 40
1.0
 10
10.5463773113
 20
8.6133871713
 30
0.0
 10
10.5463773113
 20
8.6173494177
 30
0.0
 10
10.546619546
 20
8.6252594768
 30
0.0
 10
10.5477134547
 20
8.6370530964
 30
0.0
 10
10.5495330461
 20
8.6487079128
 30
0.0
 10
10.5520709845
 20
8.6601794866
 30
0.0
 10
10.5553174004
 20
8.6714251123
 30
0.0
 10
10.5592594637
 20
8.6824027446
 30
0.0
 10
10.5638817415
 20
8.6930716032
 30
0.0
 10
10.5691661588
 20
8.7033922192
 30
0.0
 10
10.5750921386
 20
8.7133266357
 30
0.0
 10
10.5816367233
 20
8.7228385408
 30
0.0
 10
10.5887746984
 20
8.7318933986
 30
0.0
 10
10.5964787439
 20
8.7404585755
 30
0.0
 10
10.6047195129
 20
8.748503408
 30
0.0
 10
10.6134660078
 20
8.7559994254
 30
0.0
 10
10.6226848623
 20
8.7629199265
 30
0.0
 10
10.6291188806
 20
8.7671312019
 30
0.0
 10
10.6324010523
 20
8.7691324949
 30
0.0
  0
SPLINE
  5
3A0
100
AcDbEntity
  8
0
100
AcDbSpline
 62
7
  6
CONTINUOUS
 70
0
 71
3
 72
41
 73
37
 74
0
 42
0.0000001
 43
0.0000001
 44
0.0000000001
 40
0.0
 40
0.0
 40
0.0
 40
0.0
 40
0.0311443777
 40
0.0624425595
 40
0.0938872477
 40
0.1254696093
 40
0.1571771289
 40
0.1889951561
 40
0.2209067114
 40
0.2528930218
 40
0.2849338418
 40
0.3170078727
 40
0.349093173
 40
0.3811675842
 40
0.4132091572
 40
0.4451965775
 40
0.4771095803
 40
0.5089293526
 40
0.5406389143
 40
0.5722234721
 40
0.6036707398
 40
0.6349712184
 40
0.6661184287
 40
0.6971090895
 40
0.7279432343
 40
0.7586242609
 40
0.7891589086
 40
0.8195571576
 40
0.8498320512
 40
0.8649308888
 40
0.8800050477
 40
0.9100832517
 40
0.9400926686
 40
0.9550812681
 40
0.9700610312
 40
1.0
 40
1.0
 40
1.0
 40
1.0
 10
9.8093710963
 20
9.1624333177
 30
0.0
 10
9.8060571424
 20
9.1626631411
 30
0.0
 10
9.7994272274
 20
9.1633665076
 30
0.0
 10
9.7895627521
 20
9.1651382407
 30
0.0
 10
9.7798039107
 20
9.1676199907
 30
0.0
 10
9.7702034691
 20
9.1707982892
 30
0.0
 10
9.7608123839
 20
9.1746561849
 30
0.0
 10
9.7516807646
 20
9.1791729972
 30
0.0
 10
9.742857254
 20
9.1843246073
 30
0.0
 10
9.734388869
 20
9.1900835013
 30
0.0
 10
9.7263207297
 20
9.1964189528
 30
0.0
 10
9.7186958263
 20
9.2032971712
 30
0.0
 10
9.7115547926
 20
9.2106814858
 30
0.0
 10
9.7049356912
 20
9.2185325377
 30
0.0
 10
9.698873813
 20
9.2268084876
 30
0.0
 10
9.6934014903
 20
9.2354652369
 30
0.0
 10
9.6885479265
 20
9.2444566599
 30
0.0
 10
9.6843390397
 20
9.2537348458
 30
0.0
 10
9.6807973253
 20
9.2632503519
 30
0.0
 10
9.6779417369
 20
9.2729524637
 30
0.0
 10
9.6757875842
 20
9.2827894615
 30
0.0
 10
9.6743464498
 20
9.2927088927
 30
0.0
 10
9.6736261254
 20
9.3026578477
 30
0.0
 10
9.6736305655
 20
9.3125832363
 30
0.0
 10
9.6743598665
 20
9.3224320783
 30
0.0
 10
9.6758102431
 20
9.3321517452
 30
0.0
 10
9.6779741092
 20
9.3416903842
 30
0.0
 10
9.6808398621
 20
9.3509966614
 30
0.0
 10
9.6838034963
 20
9.3585249
 30
0.0
 10
9.6865080124
 20
9.3643792438
 30
0.0
 10
9.6894266292
 20
9.3701063274
 30
0.0
 10
9.69347903
 20
9.3770334959
 30
0.0
 10
9.6980525884
 20
9.3836171633
 30
0.0
 10
9.7020048523
 20
9.38864952
 30
0.0
 10
9.7061455969
 20
9.3935176602
 30
0.0
 10
9.7094630982
 20
9.3969833199
 30
0.0
 10
9.7117599335
 20
9.3992018742
 30
0.0
  0
SPLINE
  5
3A1
100
AcDbEntity
  8
0
100
AcDbSpline
 62
7
  6
CONTINUOUS
 70
0
 71
3
 72
18
 73
14
 74
0
 42
0.0000001
 43
0.0000001
 44
0.0000000001
 40
0.0
 40
0.0
 40
0.0
 40
0.0
 40
0.0548627003
 40
0.1099292984
 40
0.1654013502
 40
0.22147558
 40
0.3361333207
 40
0.4553633897
 40
0.5171049197
 40
0.5804365965
 40
0.7123310206
 40
0.851957275
 40
1.0
 40
1.0
 40
1.0
 40
1.0
 10
10.510156201
 20
10.9344284412
 30
0.0
 10
10.510156198
 20
10.935191078
 30
0.0
 10
10.5102045916
 20
10.9367196263
 30
0.0
 10
10.5104221928
 20
10.9390099517
 30
0.0
 10
10.5107848477
 20
10.9412990036
 30
0.0
 10
10.5114663209
 20
10.944370398
 30
0.0
 10
10.5126940069
 20
10.9482199215
 30
0.0
 10
10.514375475
 20
10.9519785608
 30
0.0
 10
10.5159934368
 20
10.954965658
 30
0.0
 10
10.5178460713
 20
10.9580212123
 30
0.0
 10
10.5205361438
 20
10.9618280009
 30
0.0
 10
10.5242865981
 20
10.9663015815
 30
0.0
 10
10.5270760468
 20
10.9691720971
 30
0.0
 10
10.5285562123
 20
10.9706018272
 30
0.0
  0
SPLINE
  5
3A2
100
AcDbEntity
  8
0
100
AcDbSpline
 62
7
  6
CONTINUOUS
 70
0
 71
3
 72
11
 73
7
 74
0
 42
0.0000001
 43
0.0000001
 44
0.0000000001
 40
0.0
 40
0.0
 40
0.0
 40
0.0
 40
0.2267943571
 40
0.4675040028
 40
0.7246032856
 40
1.0
 40
1.0
 40
1.0
 40
1.0
 10
10.5132769769
 20
10.9194891596
 30
0.0
 10
10.5140418118
 20
10.9213223957
 30
0.0
 10
10.51586921
 20
10.9250002078
 30
0.0
 10
10.5193338391
 20
10.9303312962
 30
0.0
 10
10.5235848631
 20
10.9356157821
 30
0.0
 10
10.5268213194
 20
10.9389823474
 30
0.0
 10
10.5285562123
 20
10.9406581253
 30
0.0
  0
SPLINE
  5
3A3
100
AcDbEntity
  8
0
100
AcDbSpline
 62
7
  6
CONTINUOUS
 70
0
 71
3
 72
17
 73
13
 74
0
 42
0.0000001
 43
0.0000001
 44
0.0000000001
 40
0.0
 40
0.0
 40
0.0
 40
0.0
 40
0.0549451117
 40
0.110051919
 40
0.1655290668
 40
0.2215806282
 40
0.3361374369
 40
0.4552424818
 40
0.5801808735
 40
0.7120477433
 40
0.8517509089
 40
1.0
 40
1.0
 40
1.0
 40
1.0
 10
10.5231601067
 20
10.9039599911
 30
0.0
 10
10.5231488825
 20
10.9047148744
 30
0.0
 10
10.5231749582
 20
10.9062280356
 30
0.0
 10
10.523359852
 20
10.9084964015
 30
0.0
 10
10.5236905434
 20
10.9107636345
 30
0.0
 10
10.5243299593
 20
10.9138053453
 30
0.0
 10
10.5255069733
 20
10.9176188679
 30
0.0
 10
10.527491145
 20
10.9221393913
 30
0.0
 10
10.5300526583
 20
10.9266344571
 30
0.0
 10
10.533187012
 20
10.9310995328
 30
0.0
 10
10.5368893829
 20
10.9355306475
 30
0.0
 10
10.539648128
 20
10.9383720938
 30
0.0
 10
10.5411132488
 20
10.9397872919
 30
0.0
  0
SPLINE
  5
3A4
100
AcDbEntity
  8
0
100
AcDbSpline
 62
7
  6
CONTINUOUS
 70
0
 71
3
 72
15
 73
11
 74
0
 42
0.0000001
 43
0.0000001
 44
0.0000000001
 40
0.0
 40
0.0
 40
0.0
 40
0.0
 40
0.1095695356
 40
0.2219574595
 40
0.3380813355
 40
0.4587616882
 40
0.5847201178
 40
0.7165803158
 40
0.8548670813
 40
1.0
 40
1.0
 40
1.0
 40
1.0
 10
10.534205005
 20
10.8930790646
 30
0.0
 10
10.5344209849
 20
10.8942906659
 30
0.0
 10
10.5349845629
 20
10.8967241993
 30
0.0
 10
10.5361982955
 20
10.9003280266
 30
0.0
 10
10.5377871062
 20
10.9039196777
 30
0.0
 10
10.5397488187
 20
10.9074961199
 30
0.0
 10
10.5420814707
 20
10.9110551476
 30
0.0
 10
10.5447829078
 20
10.9145946337
 30
0.0
 10
10.5478507373
 20
10.918112138
 30
0.0
 10
10.5500829748
 20
10.920384539
 30
0.0
 10
10.5512554705
 20
10.921517083
 30
0.0
  0
SPLINE
  5
3A5
100
AcDbEntity
  8
0
100
AcDbSpline
 62
7
  6
CONTINUOUS
 70
0
 71
3
 72
78
 73
74
 74
0
 42
0.0000001
 43
0.0000001
 44
0.0000000001
 40
0.0
 40
0.0
 40
0.0
 40
0.0
 40
0.002990361
 40
0.0060754443
 40
0.0092672267
 40
0.0125763257
 40
0.0160120973
 40
0.019582636
 40
0.0232949402
 40
0.0271549958
 40
0.0311678269
 40
0.0353376831
 40
0.0396680412
 40
0.0441617175
 40
0.0488209817
 40
0.0536475196
 40
0.0586425891
 40
0.0638070224
 40
0.0746447308
 40
0.0861609516
 40
0.0983506539
 40
0.111204918
 40
0.124711517
 40
0.1388553657
 40
0.1536188633
 40
0.1689821477
 40
0.1849233413
 40
0.2014187623
 40
0.2184430876
 40
0.2359694796
 40
0.2539697237
 40
0.272414365
 40
0.2912728155
 40
0.3105134428
 40
0.3301036699
 40
0.3500100849
 40
0.3701985299
 40
0.3906341803
 40
0.432104291
 40
0.4741326227
 40
0.5164255371
 40
0.5586870085
 40
0.6006212906
 40
0.6419356045
 40
0.662270623
 40
0.6823435858
 40
0.7021199379
 40
0.7215658167
 40
0.7406481576
 40
0.7593347838
 40
0.7775944908
 40
0.7953971446
 40
0.8127138056
 40
0.8295168439
 40
0.8457800463
 40
0.8614787502
 40
0.8765900171
 40
0.8910928187
 40
0.9049682227
 40
0.9181996396
 40
0.9307731449
 40
0.9426778796
 40
0.9539064966
 40
0.959266389
 40
0.9644564712
 40
0.9694771012
 40
0.9743290519
 40
0.9790134716
 40
0.9835319984
 40
0.9878868983
 40
0.9920809499
 40
0.9961173855
 40
1.0
 40
1.0
 40
1.0
 40
1.0
 10
11.5870747367
 20
10.9193945759
 30
0.0
 10
11.5866527746
 20
10.9204124828
 30
0.0
 10
11.5857193831
 20
10.9224497394
 30
0.0
 10
11.5840877477
 20
10.9254521951
 30
0.0
 10
11.5822054921
 20
10.9284438775
 30
0.0
 10
11.5800738063
 20
10.9314233215
 30
0.0
 10
11.5776937202
 20
10.9343892807
 30
0.0
 10
11.5750664986
 20
10.9373405406
 30
0.0
 10
11.5721933907
 20
10.9402758399
 30
0.0
 10
11.5690757376
 20
10.9431938897
 30
0.0
 10
11.5657150417
 20
10.9460934793
 30
0.0
 10
11.562112819
 20
10.9489732781
 30
0.0
 10
11.5582707542
 20
10.9518320272
 30
0.0
 10
11.5541906303
 20
10.9546684611
 30
0.0
 10
11.5498742999
 20
10.9574812412
 30
0.0
 10
11.5453237915
 20
10.9602691303
 30
0.0
 10
11.5405411871
 20
10.9630308504
 30
0.0
 10
11.5337482656
 20
10.9667361813
 30
0.0
 10
11.5246806562
 20
10.9712825893
 30
0.0
 10
11.513080381
 20
10.9765293575
 30
0.0
 10
11.5006134961
 20
10.9816418143
 30
0.0
 10
11.4873031872
 20
10.9866104025
 30
0.0
 10
11.4731740073
 20
10.9914258296
 30
0.0
 10
11.4582522004
 20
10.9960790361
 30
0.0
 10
11.4425655272
 20
11.0005612451
 30
0.0
 10
11.4261432481
 20
11.0048640071
 30
0.0
 10
11.4090160407
 20
11.0089792072
 30
0.0
 10
11.3912159268
 20
11.0128990756
 30
0.0
 10
11.3727762091
 20
11.0166162034
 30
0.0
 10
11.3537314152
 20
11.0201235753
 30
0.0
 10
11.3341172269
 20
11.0234145789
 30
0.0
 10
11.3139704
 20
11.0264830038
 30
0.0
 10
11.2933286949
 20
11.0293230538
 30
0.0
 10
11.2722308132
 20
11.0319293699
 30
0.0
 10
11.2507163193
 20
11.0342970469
 30
0.0
 10
11.2288255724
 20
11.0364216138
 30
0.0
 10
11.2065995952
 20
11.0382990863
 30
0.0
 10
11.1764271709
 20
11.0404786523
 30
0.0
 10
11.1381815479
 20
11.0425543273
 30
0.0
 10
11.0918482406
 20
11.0440047531
 30
0.0
 10
11.0452023749
 20
11.0444155366
 30
0.0
 10
10.9985936303
 20
11.0437836059
 30
0.0
 10
10.9523714083
 20
11.0421137103
 30
0.0
 10
10.91426541
 20
11.0398562252
 30
0.0
 10
10.8842411739
 20
11.0375326577
 30
0.0
 10
10.8621524074
 20
11.035549846
 30
0.0
 10
10.840416378
 20
11.0333215885
 30
0.0
 10
10.8190738224
 20
11.0308520503
 30
0.0
 10
10.7981647741
 20
11.0281458992
 30
0.0
 10
10.7777284333
 20
11.0252082432
 30
0.0
 10
10.7578031137
 20
11.0220446243
 30
0.0
 10
10.7384261654
 20
11.0186610031
 30
0.0
 10
10.7196338951
 20
11.0150637662
 30
0.0
 10
10.7014614943
 20
11.0112597112
 30
0.0
 10
10.6839429803
 20
11.0072560198
 30
0.0
 10
10.6671111305
 20
11.0030602431
 30
0.0
 10
10.6509974038
 20
10.9986802991
 30
0.0
 10
10.6356318736
 20
10.9941244626
 30
0.0
 10
10.6210431667
 20
10.989401324
 30
0.0
 10
10.6072584341
 20
10.984519772
 30
0.0
 10
10.5943031677
 20
10.9794889605
 30
0.0
 10
10.5822014912
 20
10.9743183295
 30
0.0
 10
10.5727045222
 20
10.9698341014
 30
0.0
 10
10.5655611222
 20
10.9661758622
 30
0.0
 10
10.5605140918
 20
10.9634458873
 30
0.0
 10
10.5556966063
 20
10.9606882446
 30
0.0
 10
10.5511108796
 20
10.9579042365
 30
0.0
 10
10.5467590436
 20
10.9550951527
 30
0.0
 10
10.5426431072
 20
10.952262225
 30
0.0
 10
10.5387649058
 20
10.9494067538
 30
0.0
 10
10.5351262475
 20
10.9465299452
 30
0.0
 10
10.5317289866
 20
10.9436333022
 30
0.0
 10
10.5295852374
 20
10.9416520873
 30
0.0
 10
10.5285562123
 20
10.9406581253
 30
0.0
  0
SPLINE
  5
3A6
100
AcDbEntity
  8
0
100
AcDbSpline
 62
7
  6
CONTINUOUS
 70
0
 71
3
 72
83
 73
79
 74
0
 42
0.0000001
 43
0.0000001
 44
0.0000000001
 40
0.0
 40
0.0
 40
0.0
 40
0.0
 40
0.00280919
 40
0.0056343149
 40
0.0084948101
 40
0.0114093331
 40
0.0143954331
 40
0.0174692717
 40
0.0206455294
 40
0.0239372984
 40
0.0273561234
 40
0.0309120935
 40
0.0346138709
 40
0.0384689
 40
0.0424834551
 40
0.0466627809
 40
0.051011249
 40
0.0555323611
 40
0.0602289501
 40
0.0651031852
 40
0.0701566497
 40
0.0753904666
 40
0.0808052389
 40
0.0864012071
 40
0.0981352048
 40
0.1105880847
 40
0.1237502219
 40
0.1376081515
 40
0.1521451
 40
0.1673413987
 40
0.1831748041
 40
0.1996207692
 40
0.2166526889
 40
0.2342420961
 40
0.252358831
 40
0.2709711813
 40
0.2900460302
 40
0.309548995
 40
0.3294445469
 40
0.3496961231
 40
0.3702662311
 40
0.3911165668
 40
0.4122081232
 40
0.454955189
 40
0.4981859409
 40
0.5415733302
 40
0.5847887724
 40
0.6275053713
 40
0.6485761
 40
0.6694019398
 40
0.689943947
 40
0.7101638933
 40
0.7300243696
 40
0.7494888956
 40
0.7685220441
 40
0.7870895502
 40
0.805158429
 40
0.8226971036
 40
0.8396755534
 40
0.8560654812
 40
0.8718404728
 40
0.886976192
 40
0.9014506127
 40
0.9152443121
 40
0.9283408127
 40
0.940726994
 40
0.9466509388
 40
0.9523942176
 40
0.9579563799
 40
0.9633373826
 40
0.9685375022
 40
0.9735574522
 40
0.9783984015
 40
0.9830620227
 40
0.9875507131
 40
0.9918674766
 40
0.9960158501
 40
1.0
 40
1.0
 40
1.0
 40
1.0
 10
11.5771510948
 20
10.903886205
 30
0.0
 10
11.5771684764
 20
10.9049108409
 30
0.0
 10
11.5771136558
 20
10.9069685672
 30
0.0
 10
11.5767620186
 20
10.9100511104
 30
0.0
 10
11.5761414108
 20
10.913130242
 30
0.0
 10
11.5752524652
 20
10.9162037767
 30
0.0
 10
11.5740959454
 20
10.9192700189
 30
0.0
 10
11.5726729189
 20
10.9223273706
 30
0.0
 10
11.570984356
 20
10.92537429
 30
0.0
 10
11.5690314354
 20
10.9284093676
 30
0.0
 10
11.5668153606
 20
10.9314312376
 30
0.0
 10
11.5643373385
 20
10.9344384896
 30
0.0
 10
11.5615987783
 20
10.9374298311
 30
0.0
 10
11.5586010534
 20
10.9404038449
 30
0.0
 10
11.555345716
 20
10.9433591746
 30
0.0
 10
11.5518344188
 20
10.9462944567
 30
0.0
 10
11.5480688799
 20
10.9492082367
 30
0.0
 10
11.5440510211
 20
10.9520991755
 30
0.0
 10
11.5397828165
 20
10.9549658186
 30
0.0
 10
11.5352664041
 20
10.9578067653
 30
0.0
 10
11.5305040533
 20
10.9606206419
 30
0.0
 10
11.525498124
 20
10.9634059818
 30
0.0
 10
11.5202511452
 20
10.9661614819
 30
0.0
 10
11.5128193307
 20
10.9698522241
 30
0.0
 10
11.5029349046
 20
10.9743698998
 30
0.0
 10
11.4903376964
 20
10.9795678387
 30
0.0
 10
11.4768488032
 20
10.9846144316
 30
0.0
 10
11.4624954075
 20
10.9894994265
 30
0.0
 10
11.4473062407
 20
10.9942128921
 30
0.0
 10
11.4313118843
 20
10.998745209
 30
0.0
 10
11.4145445917
 20
11.003087123
 30
0.0
 10
11.3970382422
 20
11.0072297705
 30
0.0
 10
11.3788282443
 20
11.0111646868
 30
0.0
 10
11.3599514562
 20
11.0148838306
 30
0.0
 10
11.3404461097
 20
11.018379597
 30
0.0
 10
11.3203517351
 20
11.0216448476
 30
0.0
 10
11.299709074
 20
11.0246729185
 30
0.0
 10
11.278559988
 20
11.0274576274
 30
0.0
 10
11.2569473723
 20
11.0299932873
 30
0.0
 10
11.2349150681
 20
11.0322747192
 30
0.0
 10
11.2125077902
 20
11.0342972655
 30
0.0
 10
11.1897709717
 20
11.0360568308
 30
0.0
 10
11.1589408253
 20
11.0380562138
 30
0.0
 10
11.1199201676
 20
11.0398675988
 30
0.0
 10
11.0727362013
 20
11.0409413457
 30
0.0
 10
11.0253690046
 20
11.0409156883
 30
0.0
 10
10.9782029294
 20
11.0397908132
 30
0.0
 10
10.9392085786
 20
11.0379370121
 30
0.0
 10
10.9084083397
 20
11.0359039642
 30
0.0
 10
10.8857003107
 20
11.0341197084
 30
0.0
 10
10.8633260931
 20
11.0320728341
 30
0.0
 10
10.8413310493
 20
11.0297674889
 30
0.0
 10
10.8197598185
 20
11.0272083824
 30
0.0
 10
10.7986561613
 20
11.0244007296
 30
0.0
 10
10.7780628818
 20
11.0213502677
 30
0.0
 10
10.7580217362
 20
11.0180632277
 30
0.0
 10
10.7385733528
 20
11.0145463229
 30
0.0
 10
10.7197571476
 20
11.0108067337
 30
0.0
 10
10.7016112343
 20
11.0068520963
 30
0.0
 10
10.6841723378
 20
11.0026904982
 30
0.0
 10
10.6674757219
 20
10.9983304442
 30
0.0
 10
10.6515551087
 20
10.9937808412
 30
0.0
 10
10.636442625
 20
10.989050972
 30
0.0
 10
10.6221686241
 20
10.9841504764
 30
0.0
 10
10.6087619197
 20
10.9790893374
 30
0.0
 10
10.5981829836
 20
10.9746834002
 30
0.0
 10
10.5901828842
 20
10.9710777416
 30
0.0
 10
10.5845055569
 20
10.9683799979
 30
0.0
 10
10.5790644306
 20
10.9656498551
 30
0.0
 10
10.5738622091
 20
10.9628887146
 30
0.0
 10
10.5689015247
 20
10.9600979218
 30
0.0
 10
10.5641848678
 20
10.957278892
 30
0.0
 10
10.5597145929
 20
10.9544330692
 30
0.0
 10
10.5554929443
 20
10.9515617919
 30
0.0
 10
10.5515219633
 20
10.9486664888
 30
0.0
 10
10.5478036307
 20
10.945748484
 30
0.0
 10
10.5443399937
 20
10.942809393
 30
0.0
 10
10.5421586168
 20
10.9407970399
 30
0.0
 10
10.5411132488
 20
10.9397872919
 30
0.0
  0
SPLINE
  5
3A7
100
AcDbEntity
  8
0
100
AcDbSpline
 62
7
  6
CONTINUOUS
 70
0
 71
3
 72
79
 73
75
 74
0
 42
0.0000001
 43
0.0000001
 44
0.0000000001
 40
0.0
 40
0.0
 40
0.0
 40
0.0
 40
0.002840086
 40
0.0057370529
 40
0.0087073361
 40
0.0117660373
 40
0.0149268543
 40
0.0182019827
 40
0.0216021935
 40
0.0251368926
 40
0.028814171
 40
0.0326409979
 40
0.0366232459
 40
0.0407658459
 40
0.0450729115
 40
0.0495477463
 40
0.0541930345
 40
0.0590108363
 40
0.0640026637
 40
0.0691695995
 40
0.0800301408
 40
0.0915938085
 40
0.1038559925
 40
0.1168077826
 40
0.1304366315
 40
0.1447268525
 40
0.1596600048
 40
0.1752151874
 40
0.1913693167
 40
0.2080973504
 40
0.2253724703
 40
0.2431662296
 40
0.261448698
 40
0.2801886094
 40
0.2993534813
 40
0.3189097229
 40
0.3388227328
 40
0.3590570178
 40
0.3795762949
 40
0.421320544
 40
0.4637537855
 40
0.5065669439
 40
0.5494473419
 40
0.5920816744
 40
0.6341589509
 40
0.6548932689
 40
0.67537428
 40
0.6955650916
 40
0.7154295294
 40
0.7349322275
 40
0.7540387247
 40
0.772715569
 40
0.790930442
 40
0.8086522681
 40
0.8258513279
 40
0.842499388
 40
0.8585698605
 40
0.8740379778
 40
0.8888809635
 40
0.9030782505
 40
0.9166117489
 40
0.9294661941
 40
0.9416295371
 40
0.9530934402
 40
0.9585619938
 40
0.9638546516
 40
0.9689717278
 40
0.9739139666
 40
0.9786825285
 40
0.9832790704
 40
0.9877059309
 40
0.9919660098
 40
0.9960627018
 40
1.0
 40
1.0
 40
1.0
 40
1.0
 10
11.5660916029
 20
10.8931668705
 30
0.0
 10
11.5659120988
 20
10.8941596826
 30
0.0
 10
11.5654652855
 20
10.8961508914
 30
0.0
 10
11.5645469225
 20
10.8991077621
 30
0.0
 10
11.5633757568
 20
10.9020576217
 30
0.0
 10
11.5619528078
 20
10.904998749
 30
0.0
 10
11.5602789613
 20
10.9079297902
 30
0.0
 10
11.5583553479
 20
10.9108494433
 30
0.0
 10
11.5561830553
 20
10.9137564212
 30
0.0
 10
11.5537632347
 20
10.9166494251
 30
0.0
 10
11.5510971951
 20
10.9195272446
 30
0.0
 10
11.5481862153
 20
10.9223885488
 30
0.0
 10
11.5450317591
 20
10.925232087
 30
0.0
 10
11.5416353611
 20
10.9280565756
 30
0.0
 10
11.5379986297
 20
10.930860666
 30
0.0
 10
11.5341233568
 20
10.9336431115
 30
0.0
 10
11.5300113782
 20
10.9364025583
 30
0.0
 10
11.5256646856
 20
10.9391376975
 30
0.0
 10
11.5210853809
 20
10.9418472844
 30
0.0
 10
11.5145636121
 20
10.9454847131
 30
0.0
 10
11.5058328605
 20
10.949947214
 30
0.0
 10
11.4946339798
 20
10.9550940231
 30
0.0
 10
11.4825667241
 20
10.9601082012
 30
0.0
 10
11.4696544938
 20
10.9649799713
 30
0.0
 10
11.4559221142
 20
10.969699826
 30
0.0
 10
11.4413961881
 20
10.9742584975
 30
0.0
 10
11.4261049105
 20
10.9786470126
 30
0.0
 10
11.4100780442
 20
10.9828567357
 30
0.0
 10
11.3933468312
 20
10.9868793744
 30
0.0
 10
11.3759439181
 20
10.9907069995
 30
0.0
 10
11.3579032879
 20
10.9943320598
 30
0.0
 10
11.3392601976
 20
10.9977474099
 30
0.0
 10
11.320051104
 20
11.0009463266
 30
0.0
 10
11.3003135814
 20
11.0039225076
 30
0.0
 10
11.2800862447
 20
11.0066700877
 30
0.0
 10
11.2594086748
 20
11.0091836514
 30
0.0
 10
11.2383213568
 20
11.0114582488
 30
0.0
 10
11.2168655401
 20
11.013489434
 30
0.0
 10
11.1876562238
 20
11.0158812774
 30
0.0
 10
11.1505338796
 20
11.018226563
 30
0.0
 10
11.1054529363
 20
11.0200047004
 30
0.0
 10
11.0599393613
 20
11.0207480643
 30
0.0
 10
11.0143492706
 20
11.020450814
 30
0.0
 10
10.9690393774
 20
11.0191152559
 30
0.0
 10
10.931629289
 20
11.0171365127
 30
0.0
 10
10.902114621
 20
11.0150348451
 30
0.0
 10
10.8803761547
 20
11.0132157039
 30
0.0
 10
10.8589701965
 20
11.0111496813
 30
0.0
 10
10.8379386186
 20
11.0088408235
 30
0.0
 10
10.8173225992
 20
11.0062936843
 30
0.0
 10
10.7971624901
 20
11.003513276
 30
0.0
 10
10.7774977478
 20
11.0005050672
 30
0.0
 10
10.7583668453
 20
10.9972749877
 30
0.0
 10
10.7398071966
 20
10.9938294057
 30
0.0
 10
10.7218550885
 20
10.9901751114
 30
0.0
 10
10.7045456066
 20
10.9863193023
 30
0.0
 10
10.6879125555
 20
10.9822695751
 30
0.0
 10
10.6719883813
 20
10.9780339199
 30
0.0
 10
10.6568041132
 20
10.9736206836
 30
0.0
 10
10.6423892904
 20
10.9690385547
 30
0.0
 10
10.6287719185
 20
10.9642965353
 30
0.0
 10
10.6159782801
 20
10.9594039279
 30
0.0
 10
10.6040332403
 20
10.9543703115
 30
0.0
 10
10.5946631633
 20
10.9500002127
 30
0.0
 10
10.5876192785
 20
10.9464326829
 30
0.0
 10
10.5826460721
 20
10.9437700849
 30
0.0
 10
10.5779016297
 20
10.9410796492
 30
0.0
 10
10.5733882356
 20
10.9383626827
 30
0.0
 10
10.5691080717
 20
10.9356205196
 30
0.0
 10
10.5650632072
 20
10.9328544067
 30
0.0
 10
10.5612555263
 20
10.9300656724
 30
0.0
 10
10.5576868711
 20
10.9272555458
 30
0.0
 10
10.5543591384
 20
10.9244255424
 30
0.0
 10
10.5522614787
 20
10.9224888123
 30
0.0
 10
10.5512554705
 20
10.921517083
 30
0.0
  0
SPLINE
  5
3A8
100
AcDbEntity
  8
0
100
AcDbSpline
 62
7
  6
CONTINUOUS
 70
0
 71
3
 72
39
 73
35
 74
0
 42
0.0000001
 43
0.0000001
 44
0.0000000001
 40
0.0
 40
0.0
 40
0.0
 40
0.0
 40
0.0243162265
 40
0.0498983265
 40
0.0766883682
 40
0.104622415
 40
0.1336312102
 40
0.163640763
 40
0.1945728644
 40
0.2263455535
 40
0.2588735494
 40
0.2920686576
 40
0.325840159
 40
0.3600951863
 40
0.3947390924
 40
0.4296758119
 40
0.4648082191
 40
0.5000384828
 40
0.5352684204
 40
0.5703998503
 40
0.6053349449
 40
0.639976584
 40
0.6742287104
 40
0.7079966874
 40
0.7411876609
 40
0.7737109273
 40
0.80547831
 40
0.8364045487
 40
0.8664077062
 40
0.8954095999
 40
0.9233362688
 40
0.9501184895
 40
0.9756923629
 40
1.0
 40
1.0
 40
1.0
 40
1.0
 10
11.4464081914
 20
10.8395460756
 30
0.0
 10
11.4402058427
 20
10.8414661123
 30
0.0
 10
11.4274143833
 20
10.8452019296
 30
0.0
 10
11.4076030456
 20
10.8503885911
 30
0.0
 10
11.386725454
 20
10.8552887608
 30
0.0
 10
11.3648439008
 20
10.8598876017
 30
0.0
 10
11.3420233973
 20
10.8641712667
 30
0.0
 10
11.3183319211
 20
10.8681268391
 30
0.0
 10
11.2938400664
 20
10.8717424024
 30
0.0
 10
11.2686208602
 20
10.8750070671
 30
0.0
 10
11.2427495256
 20
10.8779110048
 30
0.0
 10
11.2163032539
 20
10.8804454761
 30
0.0
 10
11.1893609685
 20
10.8826028561
 30
0.0
 10
11.1620030865
 20
10.884376656
 30
0.0
 10
11.1343112746
 20
10.885761542
 30
0.0
 10
11.1063682039
 20
10.8867533504
 30
0.0
 10
11.0782573002
 20
10.8873490997
 30
0.0
 10
11.0500624938
 20
10.8875469993
 30
0.0
 10
11.0218679671
 20
10.8873464542
 30
0.0
 10
10.9937579015
 20
10.8867480671
 30
0.0
 10
10.9658162248
 20
10.8857536367
 30
0.0
 10
10.9381263589
 20
10.8843661523
 30
0.0
 10
10.9107709689
 20
10.8825897854
 30
0.0
 10
10.8838317145
 20
10.8804298776
 30
0.0
 10
10.8573890032
 20
10.8778929254
 30
0.0
 10
10.8315217482
 20
10.874986561
 30
0.0
 10
10.8063071282
 20
10.8717195314
 30
0.0
 10
10.7818203526
 20
10.8681016719
 30
0.0
 10
10.758134433
 20
10.8641438792
 30
0.0
 10
10.7353199467
 20
10.8598580764
 30
0.0
 10
10.7134448528
 20
10.8552571868
 30
0.0
 10
10.692574143
 20
10.8503550631
 30
0.0
 10
10.672770088
 20
10.8451665511
 30
0.0
 10
10.6599836714
 20
10.8414294755
 30
0.0
 10
10.6537839132
 20
10.8395088267
 30
0.0
  0
SPLINE
  5
3A9
100
AcDbEntity
  8
0
100
AcDbSpline
 62
7
  6
CONTINUOUS
 70
0
 71
3
 72
39
 73
35
 74
0
 42
0.0000001
 43
0.0000001
 44
0.0000000001
 40
0.0
 40
0.0
 40
0.0
 40
0.0
 40
0.0298604547
 40
0.0597582477
 40
0.0897237596
 40
0.1197832372
 40
0.1499595502
 40
0.1802708152
 40
0.2107302856
 40
0.2413463313
 40
0.2721227196
 40
0.3030590554
 40
0.3341513243
 40
0.3653924707
 40
0.39677296
 40
0.4282812936
 40
0.459904459
 40
0.4916283072
 40
0.5234378613
 40
0.5553175594
 40
0.5872514443
 40
0.6192233073
 40
0.6512167975
 40
0.6832155077
 40
0.7152030436
 40
0.7471630907
 40
0.7790794851
 40
0.8109362997
 40
0.8427179545
 40
0.8744093607
 40
0.9059961086
 40
0.9374647088
 40
0.9688028962
 40
1.0
 40
1.0
 40
1.0
 40
1.0
 10
10.4752627591
 20
7.1671293128
 30
0.0
 10
10.4717249017
 20
7.1638368067
 30
0.0
 10
10.4643417973
 20
7.1575648705
 30
0.0
 10
10.4524562827
 20
7.149188824
 30
0.0
 10
10.4398415727
 20
7.1418913268
 30
0.0
 10
10.4265933258
 20
7.1357141446
 30
0.0
 10
10.4128092977
 20
7.1306847799
 30
0.0
 10
10.3985886411
 20
7.126818744
 30
0.0
 10
10.384029548
 20
7.1241199687
 30
0.0
 10
10.3692277002
 20
7.122582208
 30
0.0
 10
10.3542750024
 20
7.1221904239
 30
0.0
 10
10.3392587458
 20
7.1229222885
 30
0.0
 10
10.3242611254
 20
7.124749607
 30
0.0
 10
10.3093590639
 20
7.1276396229
 30
0.0
 10
10.2946242759
 20
7.131556154
 30
0.0
 10
10.2801235126
 20
7.1364605436
 30
0.0
 10
10.2659189309
 20
7.1423124214
 30
0.0
 10
10.2520685387
 20
7.1490702852
 30
0.0
 10
10.2386266808
 20
7.1566919171
 30
0.0
 10
10.2256445366
 20
7.1651346541
 30
0.0
 10
10.213170606
 20
7.1743555311
 30
0.0
 10
10.2012511722
 20
7.1843113128
 30
0.0
 10
10.1899307262
 20
7.1949584318
 30
0.0
 10
10.1792523476
 20
7.2062528437
 30
0.0
 10
10.1692580338
 20
7.2181498112
 30
0.0
 10
10.1599889712
 20
7.2306036267
 30
0.0
 10
10.1514857411
 20
7.2435672781
 30
0.0
 10
10.1437884522
 20
7.2569920713
 30
0.0
 10
10.1369367916
 20
7.2708272
 30
0.0
 10
10.1309699766
 20
7.2850193249
 30
0.0
 10
10.1259266117
 20
7.2995119849
 30
0.0
 10
10.1218443687
 20
7.3142455486
 30
0.0
 10
10.1187597148
 20
7.329155161
 30
0.0
 10
10.1173878676
 20
7.3391927778
 30
0.0
 10
10.1168806109
 20
7.344216481
 30
0.0
  0
SPLINE
  5
3AA
100
AcDbEntity
  8
0
100
AcDbSpline
 62
7
  6
CONTINUOUS
 70
0
 71
3
 72
33
 73
29
 74
0
 42
0.0000001
 43
0.0000001
 44
0.0000000001
 40
0.0
 40
0.0
 40
0.0
 40
0.0
 40
0.0267359696
 40
0.0543154964
 40
0.0826926931
 40
0.1118194563
 40
0.1416456403
 40
0.1721192242
 40
0.2031865291
 40
0.2347923842
 40
0.2668802669
 40
0.2993924517
 40
0.3654526822
 40
0.4324946813
 40
0.5000294038
 40
0.5675631579
 40
0.6346022641
 40
0.700657702
 40
0.7331667961
 40
0.7652511249
 40
0.7968529788
 40
0.8279158533
 40
0.858384581
 40
0.888205484
 40
0.9173265681
 40
0.9456977118
 40
0.9732708167
 40
1.0
 40
1.0
 40
1.0
 40
1.0
 10
11.3549448911
 20
10.8191207168
 30
0.0
 10
11.3496060118
 20
10.8203043991
 30
0.0
 10
11.3387364688
 20
10.8226049117
 30
0.0
 10
11.3221290061
 20
10.8258135311
 30
0.0
 10
11.304988679
 20
10.8288291581
 30
0.0
 10
11.2873491071
 20
10.8316458272
 30
0.0
 10
11.2692447965
 20
10.8342579829
 30
0.0
 10
11.2507112083
 20
10.8366604861
 30
0.0
 10
11.2317846385
 20
10.838848606
 30
0.0
 10
11.212502166
 20
10.8408180195
 30
0.0
 10
11.1929015338
 20
10.8425648671
 30
0.0
 10
11.1662538112
 20
10.8446033018
 30
0.0
 10
11.1324326113
 20
10.8465644923
 30
0.0
 10
11.0914154247
 20
10.8479760231
 30
0.0
 10
11.0500751904
 20
10.848446544
 30
0.0
 10
11.0087355899
 20
10.8479723283
 30
0.0
 10
10.9677203002
 20
10.8465571322
 30
0.0
 10
10.9339014837
 20
10.8445929041
 30
0.0
 10
10.9072562906
 20
10.8425520709
 30
0.0
 10
10.8876580012
 20
10.8408034635
 30
0.0
 10
10.8683781695
 20
10.8388323206
 30
0.0
 10
10.8494545312
 20
10.8366425082
 30
0.0
 10
10.8309241622
 20
10.8342383479
 30
0.0
 10
10.8128233544
 20
10.8316245669
 30
0.0
 10
10.7951875585
 20
10.828806317
 30
0.0
 10
10.7780512709
 20
10.8257891577
 30
0.0
 10
10.7614481061
 20
10.8225790586
 30
0.0
 10
10.7505815374
 20
10.8202775383
 30
0.0
 10
10.7452441878
 20
10.8190933695
 30
0.0
  0
SPLINE
  5
3AB
100
AcDbEntity
  8
0
100
AcDbSpline
 62
7
  6
CONTINUOUS
 70
0
 71
3
 72
23
 73
19
 74
0
 42
0.0000001
 43
0.0000001
 44
0.0000000001
 40
0.0
 40
0.0
 40
0.0
 40
0.0
 40
0.063932252
 40
0.1275597873
 40
0.1908824116
 40
0.253922818
 40
0.3167008308
 40
0.3792442572
 40
0.4415853357
 40
0.5037599308
 40
0.5658068546
 40
0.6277668236
 40
0.6896816742
 40
0.7515932829
 40
0.8135426397
 40
0.8755691757
 40
0.9377101707
 40
1.0
 40
1.0
 40
1.0
 40
1.0
 10
11.059519068
 20
6.8565205422
 30
0.0
 10
11.059519068
 20
6.8582278013
 30
0.0
 10
11.0596390768
 20
6.8616354419
 30
0.0
 10
11.0601809799
 20
6.8667080837
 30
0.0
 10
11.0610813783
 20
6.8717056136
 30
0.0
 10
11.0623347783
 20
6.8766030386
 30
0.0
 10
11.0639340462
 20
6.8813767803
 30
0.0
 10
11.0658699189
 20
6.8860039832
 30
0.0
 10
11.0681314002
 20
6.8904630083
 30
0.0
 10
11.0707058946
 20
6.8947334433
 30
0.0
 10
11.0735793575
 20
6.8987962228
 30
0.0
 10
11.0767364525
 20
6.9026337132
 30
0.0
 10
11.0801606947
 20
6.9062297844
 30
0.0
 10
11.0838346842
 20
6.9095697857
 30
0.0
 10
11.0877402179
 20
6.9126405212
 30
0.0
 10
11.0918585262
 20
6.9154303175
 30
0.0
 10
11.0961699489
 20
6.9179288016
 30
0.0
 10
11.099156419
 20
6.9193926708
 30
0.0
 10
11.1006742653
 20
6.920073142
 30
0.0
  0
SPLINE
  5
3AC
100
AcDbEntity
  8
0
100
AcDbSpline
 62
7
  6
CONTINUOUS
 70
0
 71
3
 72
41
 73
37
 74
0
 42
0.0000001
 43
0.0000001
 44
0.0000000001
 40
0.0
 40
0.0
 40
0.0
 40
0.0
 40
0.0311443777
 40
0.0624425595
 40
0.0938872477
 40
0.1254696093
 40
0.1571771289
 40
0.1889951561
 40
0.2209067114
 40
0.2528930218
 40
0.2849338418
 40
0.3170078727
 40
0.349093173
 40
0.3811675842
 40
0.4132091572
 40
0.4451965775
 40
0.4771095803
 40
0.5089293526
 40
0.5406389143
 40
0.5722234721
 40
0.6036707398
 40
0.6349712184
 40
0.6661184287
 40
0.6971090895
 40
0.7279432343
 40
0.7586242609
 40
0.7891589086
 40
0.8195571576
 40
0.8498320512
 40
0.8649308888
 40
0.8800050477
 40
0.9100832517
 40
0.9400926686
 40
0.9550812681
 40
0.9700610312
 40
1.0
 40
1.0
 40
1.0
 40
1.0
 10
9.8093710963
 20
7.1098408152
 30
0.0
 10
9.8060571424
 20
7.1100706387
 30
0.0
 10
9.7994272274
 20
7.1107740051
 30
0.0
 10
9.7895627521
 20
7.1125457382
 30
0.0
 10
9.7798039107
 20
7.1150274882
 30
0.0
 10
9.7702034691
 20
7.1182057867
 30
0.0
 10
9.7608123839
 20
7.1220636824
 30
0.0
 10
9.7516807646
 20
7.1265804947
 30
0.0
 10
9.742857254
 20
7.1317321048
 30
0.0
 10
9.734388869
 20
7.1374909988
 30
0.0
 10
9.7263207297
 20
7.1438264503
 30
0.0
 10
9.7186958263
 20
7.1507046687
 30
0.0
 10
9.7115547926
 20
7.1580889834
 30
0.0
 10
9.7049356912
 20
7.1659400352
 30
0.0
 10
9.698873813
 20
7.1742159851
 30
0.0
 10
9.6934014903
 20
7.1828727344
 30
0.0
 10
9.6885479265
 20
7.1918641574
 30
0.0
 10
9.6843390397
 20
7.2011423433
 30
0.0
 10
9.6807973253
 20
7.2106578494
 30
0.0
 10
9.6779417369
 20
7.2203599612
 30
0.0
 10
9.6757875842
 20
7.2301969591
 30
0.0
 10
9.6743464498
 20
7.2401163902
 30
0.0
 10
9.6736261254
 20
7.2500653452
 30
0.0
 10
9.6736305655
 20
7.2599907338
 30
0.0
 10
9.6743598665
 20
7.2698395759
 30
0.0
 10
9.6758102431
 20
7.2795592428
 30
0.0
 10
9.6779741092
 20
7.2890978817
 30
0.0
 10
9.6808398621
 20
7.2984041589
 30
0.0
 10
9.6838034963
 20
7.3059323976
 30
0.0
 10
9.6865080124
 20
7.3117867413
 30
0.0
 10
9.6894266292
 20
7.3175138249
 30
0.0
 10
9.69347903
 20
7.3244409934
 30
0.0
 10
9.6980525884
 20
7.3310246608
 30
0.0
 10
9.7020048523
 20
7.3360570176
 30
0.0
 10
9.7061455969
 20
7.3409251577
 30
0.0
 10
9.7094630982
 20
7.3443908175
 30
0.0
 10
9.7117599335
 20
7.3466093718
 30
0.0
  0
SPLINE
  5
3AD
100
AcDbEntity
  8
0
100
AcDbSpline
 62
7
  6
CONTINUOUS
 70
0
 71
3
 72
30
 73
26
 74
0
 42
0.0000001
 43
0.0000001
 44
0.0000000001
 40
0.0
 40
0.0
 40
0.0
 40
0.0
 40
0.0309903636
 40
0.0621247631
 40
0.0933923447
 40
0.1247889322
 40
0.1563036228
 40
0.1879245724
 40
0.2513985405
 40
0.3151187138
 40
0.3789478324
 40
0.4427450791
 40
0.5063751475
 40
0.5697157983
 40
0.6326643216
 40
0.6951426848
 40
0.7571013595
 40
0.7878942816
 40
0.8185532493
 40
0.8490811653
 40
0.8794830176
 40
0.9097658516
 40
0.9399387072
 40
0.9700125135
 40
1.0
 40
1.0
 40
1.0
 40
1.0
 10
11.4688316573
 20
9.529112131
 30
0.0
 10
11.4671732863
 20
9.5292271395
 30
0.0
 10
11.4638555464
 20
9.5295695672
 30
0.0
 10
11.4589140491
 20
9.5304139532
 30
0.0
 10
11.4540173616
 20
9.531586427
 30
0.0
 10
11.44918799
 20
9.5330809273
 30
0.0
 10
11.4444471141
 20
9.5348903637
 30
0.0
 10
11.4382660157
 20
9.537713399
 30
0.0
 10
11.4308663577
 20
9.5419837609
 30
0.0
 10
11.4226753445
 20
9.5481823641
 30
0.0
 10
11.4152913479
 20
9.5553485476
 30
0.0
 10
11.4088334732
 20
9.5633523802
 30
0.0
 10
11.4034011811
 20
9.5720537841
 30
0.0
 10
11.399075832
 20
9.5813048337
 30
0.0
 10
11.3959204699
 20
9.5909528474
 30
0.0
 10
11.3939800866
 20
9.6008405502
 30
0.0
 10
11.3933976425
 20
9.6091706298
 30
0.0
 10
11.3935621708
 20
9.6157921188
 30
0.0
 10
11.3939979358
 20
9.620710242
 30
0.0
 10
11.3947449616
 20
9.6255694313
 30
0.0
 10
11.3958006358
 20
9.6303504753
 30
0.0
 10
11.3971613276
 20
9.6350340072
 30
0.0
 10
11.3988223534
 20
9.6396010403
 30
0.0
 10
11.4007776668
 20
9.6440325314
 30
0.0
 10
11.4022749767
 20
9.6468884875
 30
0.0
 10
11.4030699
 20
9.6482869004
 30
0.0
  0
SPLINE
  5
3AE
100
AcDbEntity
  8
0
100
AcDbSpline
 62
7
  6
CONTINUOUS
 70
0
 71
3
 72
17
 73
13
 74
0
 42
0.0000001
 43
0.0000001
 44
0.0000000001
 40
0.0
 40
0.0
 40
0.0
 40
0.0
 40
0.0548653882
 40
0.109934811
 40
0.2214348207
 40
0.3360992423
 40
0.4553349631
 40
0.5170793242
 40
0.5804142098
 40
0.7123170268
 40
0.8519526575
 40
1.0
 40
1.0
 40
1.0
 40
1.0
 10
12.3745997305
 20
10.4191886378
 30
0.0
 10
12.3745997268
 20
10.4186590413
 30
0.0
 10
12.3745660849
 20
10.4175975402
 30
0.0
 10
12.3743638126
 20
10.4154685768
 30
0.0
 10
12.3738527398
 20
10.4127947855
 30
0.0
 10
12.3728371951
 20
10.4096116826
 30
0.0
 10
12.3716695423
 20
10.4070013055
 30
0.0
 10
12.3705459564
 20
10.4049270344
 30
0.0
 10
12.3692594093
 20
10.4028051569
 30
0.0
 10
12.3673913138
 20
10.4001615891
 30
0.0
 10
12.3647868528
 20
10.3970550172
 30
0.0
 10
12.3628497925
 20
10.3950616413
 30
0.0
 10
12.3618219421
 20
10.394068814
 30
0.0
  0
SPLINE
  5
3AF
100
AcDbEntity
  8
0
100
AcDbSpline
 62
7
  6
CONTINUOUS
 70
0
 71
3
 72
17
 73
13
 74
0
 42
0.0000001
 43
0.0000001
 44
0.0000000001
 40
0.0
 40
0.0
 40
0.0
 40
0.0
 40
0.0548654642
 40
0.1099349219
 40
0.2214349039
 40
0.3360992195
 40
0.4553348124
 40
0.517079118
 40
0.5804139608
 40
0.7123167483
 40
0.8519524535
 40
1.0
 40
1.0
 40
1.0
 40
1.0
 10
12.3745997305
 20
11.1735771018
 30
0.0
 10
12.3745997346
 20
11.1730474978
 30
0.0
 10
12.3745661075
 20
11.1719859816
 30
0.0
 10
12.3743638609
 20
11.1698569873
 30
0.0
 10
12.3738528128
 20
11.1671831565
 30
0.0
 10
12.3728372854
 20
11.1640000055
 30
0.0
 10
12.3716696369
 20
11.1613895891
 30
0.0
 10
12.370546049
 20
11.1593152872
 30
0.0
 10
12.3692594955
 20
11.1571933777
 30
0.0
 10
12.3673913841
 20
11.1545497701
 30
0.0
 10
12.3647868933
 20
11.1514431522
 30
0.0
 10
12.3628498071
 20
11.1494497479
 30
0.0
 10
12.3618219421
 20
11.1484569065
 30
0.0
  0
SPLINE
  5
3B0
100
AcDbEntity
  8
0
100
AcDbSpline
 62
7
  6
CONTINUOUS
 70
0
 71
3
 72
23
 73
19
 74
0
 42
0.0000001
 43
0.0000001
 44
0.0000000001
 40
0.0
 40
0.0
 40
0.0
 40
0.0
 40
0.0749618611
 40
0.1455678041
 40
0.2121589218
 40
0.2751620139
 40
0.3350968437
 40
0.3925819213
 40
0.4483281136
 40
0.5031224735
 40
0.5577971527
 40
0.6131904492
 40
0.6701060365
 40
0.7292779135
 40
0.7913516063
 40
0.8568774527
 40
0.9263095509
 40
1.0
 40
1.0
 40
1.0
 40
1.0
 10
12.3310211004
 20
11.2273769325
 30
0.0
 10
12.3320144248
 20
11.2264525326
 30
0.0
 10
12.3338882481
 20
11.2245966218
 30
0.0
 10
12.3364166812
 20
11.2217012158
 30
0.0
 10
12.3385726974
 20
11.2187828119
 30
0.0
 10
12.3403532291
 20
11.2158440653
 30
0.0
 10
12.3417551501
 20
11.21288747
 30
0.0
 10
12.3427754794
 20
11.2099161374
 30
0.0
 10
12.3434111696
 20
11.2069338254
 30
0.0
 10
12.3436601442
 20
11.2039453015
 30
0.0
 10
12.3435212515
 20
11.2009559799
 30
0.0
 10
12.3429952119
 20
11.1979713767
 30
0.0
 10
12.3420837845
 20
11.1949965087
 30
0.0
 10
12.3407899436
 20
11.1920353966
 30
0.0
 10
12.3391166108
 20
11.1890913122
 30
0.0
 10
12.3370668646
 20
11.1861668028
 30
0.0
 10
12.3346438477
 20
11.1832646862
 30
0.0
 10
12.3328376513
 20
11.1814039322
 30
0.0
 10
12.3318782397
 20
11.1804772117
 30
0.0
  0
SPLINE
  5
3B1
100
AcDbEntity
  8
0
100
AcDbSpline
 62
7
  6
CONTINUOUS
 70
0
 71
3
 72
15
 73
11
 74
0
 42
0.0000001
 43
0.0000001
 44
0.0000000001
 40
0.0
 40
0.0
 40
0.0
 40
0.0
 40
0.1233171152
 40
0.2468171801
 40
0.3706749982
 40
0.4950495769
 40
0.6200773723
 40
0.7458670578
 40
0.8724927841
 40
1.0
 40
1.0
 40
1.0
 40
1.0
 10
11.657239851
 20
9.0757091581
 30
0.0
 10
11.6540870198
 20
9.0726637822
 30
0.0
 10
11.6474429622
 20
9.0669035047
 30
0.0
 10
11.6365992647
 20
9.0593763652
 30
0.0
 10
11.6249798855
 20
9.0530311046
 30
0.0
 10
11.612703784
 20
9.0479328834
 30
0.0
 10
11.5998947643
 20
9.04413238
 30
0.0
 10
11.5866818564
 20
9.0416675791
 30
0.0
 10
11.5731999406
 20
9.0405624536
 30
0.0
 10
11.5641502232
 20
9.0407389719
 30
0.0
 10
11.5596286883
 20
9.0410525414
 30
0.0
  0
SPLINE
  5
3B2
100
AcDbEntity
  8
0
100
AcDbSpline
 62
7
  6
CONTINUOUS
 70
0
 71
3
 72
37
 73
33
 74
0
 42
0.0000001
 43
0.0000001
 44
0.0000000001
 40
0.0
 40
0.0
 40
0.0
 40
0.0
 40
0.0311467573
 40
0.0624481077
 40
0.0938952645
 40
0.125480423
 40
0.1571906467
 40
0.189011416
 40
0.2209257215
 40
0.2529147894
 40
0.2849583708
 40
0.3170351623
 40
0.381163081
 40
0.4451600481
 40
0.4770758024
 40
0.508898317
 40
0.5406106103
 40
0.5721978896
 40
0.6036478697
 40
0.6349510521
 40
0.6661009568
 40
0.6970942988
 40
0.7279311085
 40
0.7586147837
 40
0.7891520652
 40
0.819552936
 40
0.8498304416
 40
0.8800004329
 40
0.9100812331
 40
0.9400932378
 40
0.9700584557
 40
1.0
 40
1.0
 40
1.0
 40
1.0
 10
9.9001679967
 20
6.7263499362
 30
0.0
 10
9.8979508585
 20
6.7265036953
 30
0.0
 10
9.8935151857
 20
6.7269742869
 30
0.0
 10
9.8869154812
 20
6.7281596191
 30
0.0
 10
9.8803864333
 20
6.7298200301
 30
0.0
 10
9.8739633844
 20
6.7319464086
 30
0.0
 10
9.8676803895
 20
6.7345274848
 30
0.0
 10
9.8615709908
 20
6.7375493845
 30
0.0
 10
9.8556677131
 20
6.7409960086
 30
0.0
 10
9.8500020828
 20
6.7448488726
 30
0.0
 10
9.8446040382
 20
6.7490877066
 30
0.0
 10
9.8378045764
 20
6.7552210996
 30
0.0
 10
9.8301165895
 20
6.7637316687
 30
0.0
 10
9.8236650314
 20
6.7732004371
 30
0.0
 10
9.819332782
 20
6.7812264015
 30
0.0
 10
9.8165167285
 20
6.7874340402
 30
0.0
 10
9.814147211
 20
6.7938002162
 30
0.0
 10
9.8122366865
 20
6.8002913019
 30
0.0
 10
9.8107954558
 20
6.8068726154
 30
0.0
 10
9.809831254
 20
6.8135090864
 30
0.0
 10
9.8093493005
 20
6.8201653111
 30
0.0
 10
9.8093522466
 20
6.8268057726
 30
0.0
 10
9.8098401559
 20
6.8333950189
 30
0.0
 10
9.8108104973
 20
6.8398978559
 30
0.0
 10
9.8122581647
 20
6.8462795329
 30
0.0
 10
9.8141754987
 20
6.8525059293
 30
0.0
 10
9.8165523203
 20
6.8585437342
 30
0.0
 10
9.8193759923
 20
6.8643606375
 30
0.0
 10
9.8226314404
 20
6.8699254641
 30
0.0
 10
9.8263013885
 20
6.8752085012
 30
0.0
 10
9.8303658433
 20
6.8801810945
 30
0.0
 10
9.8333253056
 20
6.8832727314
 30
0.0
 10
9.8348619704
 20
6.884757032
 30
0.0
  0
SPLINE
  5
3B3
100
AcDbEntity
  8
0
100
AcDbSpline
 62
7
  6
CONTINUOUS
 70
0
 71
3
 72
31
 73
27
 74
0
 42
0.0000001
 43
0.0000001
 44
0.0000000001
 40
0.0
 40
0.0
 40
0.0
 40
0.0
 40
0.0165871972
 40
0.034153845
 40
0.052730511
 40
0.0723389048
 40
0.0929937081
 40
0.1147031542
 40
0.1374704627
 40
0.1612940074
 40
0.1861684824
 40
0.2120847967
 40
0.2390310689
 40
0.2669923487
 40
0.2959515022
 40
0.3258888278
 40
0.3567828667
 40
0.3886099588
 40
0.4549591512
 40
0.5247176568
 40
0.5976421114
 40
0.6734695769
 40
0.7519200885
 40
0.8326987929
 40
0.9154982726
 40
1.0
 40
1.0
 40
1.0
 40
1.0
 10
9.6400787781
 20
6.1325704573
 30
0.0
 10
9.6411969414
 20
6.1315298973
 30
0.0
 10
9.6435685984
 20
6.1294609703
 30
0.0
 10
9.6474010799
 20
6.1264760221
 30
0.0
 10
9.6516045844
 20
6.1235252061
 30
0.0
 10
9.6561746189
 20
6.1206114974
 30
0.0
 10
9.661106629
 20
6.117737815
 30
0.0
 10
9.6663955268
 20
6.1149070062
 30
0.0
 10
9.6720359123
 20
6.1121220452
 30
0.0
 10
9.6780219412
 20
6.1093857376
 30
0.0
 10
9.6843474353
 20
6.1067010072
 30
0.0
 10
9.6910058064
 20
6.104070586
 30
0.0
 10
9.6979901361
 20
6.1014973069
 30
0.0
 10
9.7052931251
 20
6.0989838015
 30
0.0
 10
9.7129071536
 20
6.0965327859
 30
0.0
 10
9.7208242449
 20
6.094146778
 30
0.0
 10
9.7290361257
 20
6.0918283344
 30
0.0
 10
9.7405266566
 20
6.088788194
 30
0.0
 10
9.7555683232
 20
6.0851867859
 30
0.0
 10
9.7744079472
 20
6.0812286913
 30
0.0
 10
9.7942004425
 20
6.0775933944
 30
0.0
 10
9.814862768
 20
6.0742963311
 30
0.0
 10
9.8363083525
 20
6.0713515434
 30
0.0
 10
9.8584472501
 20
6.0687715441
 30
0.0
 10
9.881186437
 20
6.0665673068
 30
0.0
 10
9.8965464218
 20
6.0653652127
 30
0.0
 10
9.9043091283
 20
6.0648268672
 30
0.0
  0
SPLINE
  5
3B4
100
AcDbEntity
  8
0
100
AcDbSpline
 62
7
  6
CONTINUOUS
 70
0
 71
3
 72
15
 73
11
 74
0
 42
0.0000001
 43
0.0000001
 44
0.0000000001
 40
0.0
 40
0.0
 40
0.0
 40
0.0
 40
0.1233171152
 40
0.2468171801
 40
0.3706749982
 40
0.4950495769
 40
0.6200773723
 40
0.7458670578
 40
0.8724927841
 40
1.0
 40
1.0
 40
1.0
 40
1.0
 10
9.906982259
 20
9.1970899344
 30
0.0
 10
9.9038294278
 20
9.1940445584
 30
0.0
 10
9.8971853701
 20
9.188284281
 30
0.0
 10
9.8863416727
 20
9.1807571414
 30
0.0
 10
9.8747222934
 20
9.1744118808
 30
0.0
 10
9.862446192
 20
9.1693136596
 30
0.0
 10
9.8496371723
 20
9.1655131562
 30
0.0
 10
9.8364242644
 20
9.1630483554
 30
0.0
 10
9.8229423486
 20
9.1619432298
 30
0.0
 10
9.8138926312
 20
9.1621197482
 30
0.0
 10
9.8093710963
 20
9.1624333177
 30
0.0
  0
LINE
  5
3B5
100
AcDbEntity
  8
0
100
AcDbLine
 62
7
  6
CONTINUOUS
 10
10.8474430865
 20
8.7597825413
 11
10.8471562847
 21
8.7404501625
  0
SPLINE
  5
3B6
100
AcDbEntity
  8
0
100
AcDbSpline
 62
7
  6
CONTINUOUS
 70
0
 71
3
 72
15
 73
11
 74
0
 42
0.0000001
 43
0.0000001
 44
0.0000000001
 40
0.0
 40
0.0
 40
0.0
 40
0.0
 40
0.1233171152
 40
0.2468171801
 40
0.3706749982
 40
0.4950495769
 40
0.6200773723
 40
0.7458670578
 40
0.8724927841
 40
1.0
 40
1.0
 40
1.0
 40
1.0
 10
9.906982259
 20
7.1444974319
 30
0.0
 10
9.9038294278
 20
7.141452056
 30
0.0
 10
9.8971853701
 20
7.1356917785
 30
0.0
 10
9.8863416727
 20
7.128164639
 30
0.0
 10
9.8747222934
 20
7.1218193783
 30
0.0
 10
9.862446192
 20
7.1167211572
 30
0.0
 10
9.8496371723
 20
7.1129206538
 30
0.0
 10
9.8364242644
 20
7.1104558529
 30
0.0
 10
9.8229423486
 20
7.1093507273
 30
0.0
 10
9.8138926312
 20
7.1095272457
 30
0.0
 10
9.8093710963
 20
7.1098408152
 30
0.0
  0
SPLINE
  5
3B7
100
AcDbEntity
  8
0
100
AcDbSpline
 62
7
  6
CONTINUOUS
 70
0
 71
3
 72
15
 73
11
 74
0
 42
0.0000001
 43
0.0000001
 44
0.0000000001
 40
0.0
 40
0.0
 40
0.0
 40
0.0
 40
0.1233171152
 40
0.2468171801
 40
0.3706749982
 40
0.4950495769
 40
0.6200773723
 40
0.7458670578
 40
0.8724927841
 40
1.0
 40
1.0
 40
1.0
 40
1.0
 10
11.657239851
 20
7.0231166556
 30
0.0
 10
11.6540870198
 20
7.0200712797
 30
0.0
 10
11.6474429622
 20
7.0143110022
 30
0.0
 10
11.6365992647
 20
7.0067838627
 30
0.0
 10
11.6249798855
 20
7.0004386021
 30
0.0
 10
11.612703784
 20
6.9953403809
 30
0.0
 10
11.5998947643
 20
6.9915398775
 30
0.0
 10
11.5866818564
 20
6.9890750766
 30
0.0
 10
11.5731999406
 20
6.9879699511
 30
0.0
 10
11.5641502232
 20
6.9881464694
 30
0.0
 10
11.5596286883
 20
6.9884600389
 30
0.0
  0
SPLINE
  5
3B8
100
AcDbEntity
  8
0
100
AcDbSpline
 62
7
  6
CONTINUOUS
 70
0
 71
3
 72
15
 73
11
 74
0
 42
0.0000001
 43
0.0000001
 44
0.0000000001
 40
0.0
 40
0.0
 40
0.0
 40
0.0
 40
0.1233171217
 40
0.2468171833
 40
0.3706749954
 40
0.4950495965
 40
0.6200773092
 40
0.7458671694
 40
0.8724927499
 40
1.0
 40
1.0
 40
1.0
 40
1.0
 10
9.965474023
 20
9.6473146723
 30
0.0
 10
9.9633646473
 20
9.6452771768
 30
0.0
 10
9.9589195103
 20
9.6414232699
 30
0.0
 10
9.9516646366
 20
9.6363872374
 30
0.0
 10
9.9438907824
 20
9.6321419471
 30
0.0
 10
9.9356775388
 20
9.62873101
 30
0.0
 10
9.9271077513
 20
9.6261882824
 30
0.0
 10
9.9182677444
 20
9.6245392044
 30
0.0
 10
9.9092477545
 20
9.6237998099
 30
0.0
 10
9.9031931014
 20
9.6239179102
 30
0.0
 10
9.9001679967
 20
9.6241277019
 30
0.0
  0
SPLINE
  5
3B9
100
AcDbEntity
  8
0
100
AcDbSpline
 62
7
  6
CONTINUOUS
 70
0
 71
3
 72
41
 73
37
 74
0
 42
0.0000001
 43
0.0000001
 44
0.0000000001
 40
0.0
 40
0.0
 40
0.0
 40
0.0
 40
0.0311443777
 40
0.0624425595
 40
0.0938872477
 40
0.1254696093
 40
0.1571771289
 40
0.1889951561
 40
0.2209067114
 40
0.2528930218
 40
0.2849338418
 40
0.3170078727
 40
0.349093173
 40
0.3811675842
 40
0.4132091572
 40
0.4451965775
 40
0.4771095803
 40
0.5089293526
 40
0.5406389143
 40
0.5722234721
 40
0.6036707398
 40
0.6349712184
 40
0.6661184287
 40
0.6971090895
 40
0.7279432343
 40
0.7586242609
 40
0.7891589086
 40
0.8195571576
 40
0.8498320512
 40
0.8649308888
 40
0.8800050477
 40
0.9100832517
 40
0.9400926686
 40
0.9550812681
 40
0.9700610312
 40
1.0
 40
1.0
 40
1.0
 40
1.0
 10
11.5596286883
 20
9.0410525414
 30
0.0
 10
11.5563147344
 20
9.0412823649
 30
0.0
 10
11.5496848195
 20
9.0419857313
 30
0.0
 10
11.5398203441
 20
9.0437574645
 30
0.0
 10
11.5300615027
 20
9.0462392144
 30
0.0
 10
11.5204610611
 20
9.049417513
 30
0.0
 10
11.5110699759
 20
9.0532754087
 30
0.0
 10
11.5019383566
 20
9.0577922209
 30
0.0
 10
11.493114846
 20
9.0629438311
 30
0.0
 10
11.484646461
 20
9.0687027251
 30
0.0
 10
11.4765783217
 20
9.0750381765
 30
0.0
 10
11.4689534183
 20
9.0819163949
 30
0.0
 10
11.4618123846
 20
9.0893007096
 30
0.0
 10
11.4551932833
 20
9.0971517614
 30
0.0
 10
11.449131405
 20
9.1054277113
 30
0.0
 10
11.4436590823
 20
9.1140844607
 30
0.0
 10
11.4388055185
 20
9.1230758836
 30
0.0
 10
11.4345966317
 20
9.1323540696
 30
0.0
 10
11.4310549173
 20
9.1418695756
 30
0.0
 10
11.4281993289
 20
9.1515716874
 30
0.0
 10
11.4260451762
 20
9.1614086853
 30
0.0
 10
11.4246040418
 20
9.1713281164
 30
0.0
 10
11.4238837174
 20
9.1812770714
 30
0.0
 10
11.4238881575
 20
9.1912024601
 30
0.0
 10
11.4246174585
 20
9.2010513021
 30
0.0
 10
11.4260678351
 20
9.210770969
 30
0.0
 10
11.4282317012
 20
9.2203096079
 30
0.0
 10
11.4310974541
 20
9.2296158851
 30
0.0
 10
11.4340610883
 20
9.2371441238
 30
0.0
 10
11.4367656044
 20
9.2429984675
 30
0.0
 10
11.4396842212
 20
9.2487255512
 30
0.0
 10
11.443736622
 20
9.2556527196
 30
0.0
 10
11.4483101804
 20
9.262236387
 30
0.0
 10
11.4522624443
 20
9.2672687438
 30
0.0
 10
11.4564031889
 20
9.2721368839
 30
0.0
 10
11.4597206902
 20
9.2756025437
 30
0.0
 10
11.4620175256
 20
9.277821098
 30
0.0
  0
SPLINE
  5
3BA
100
AcDbEntity
  8
0
100
AcDbSpline
 62
7
  6
CONTINUOUS
 70
0
 71
3
 72
15
 73
11
 74
0
 42
0.0000001
 43
0.0000001
 44
0.0000000001
 40
0.0
 40
0.0
 40
0.0
 40
0.0
 40
0.1233171217
 40
0.2468171833
 40
0.3706749954
 40
0.4950495965
 40
0.6200773092
 40
0.7458671694
 40
0.8724927499
 40
1.0
 40
1.0
 40
1.0
 40
1.0
 10
9.965474023
 20
6.7495369066
 30
0.0
 10
9.9633646473
 20
6.7474994111
 30
0.0
 10
9.9589195103
 20
6.7436455042
 30
0.0
 10
9.9516646366
 20
6.7386094717
 30
0.0
 10
9.9438907824
 20
6.7343641813
 30
0.0
 10
9.9356775388
 20
6.7309532443
 30
0.0
 10
9.9271077513
 20
6.7284105167
 30
0.0
 10
9.9182677444
 20
6.7267614387
 30
0.0
 10
9.9092477545
 20
6.7260220442
 30
0.0
 10
9.9031931014
 20
6.7261401445
 30
0.0
 10
9.9001679967
 20
6.7263499362
 30
0.0
  0
SPLINE
  5
3BB
100
AcDbEntity
  8
0
100
AcDbSpline
 62
7
  6
CONTINUOUS
 70
0
 71
3
 72
28
 73
24
 74
0
 42
0.0000001
 43
0.0000001
 44
0.0000000001
 40
0.0
 40
0.0
 40
0.0
 40
0.0
 40
0.0300384354
 40
0.0601726696
 40
0.0904132893
 40
0.1207690279
 40
0.1818214147
 40
0.2433930121
 40
0.305485486
 40
0.368071103
 40
0.431094274
 40
0.4944740596
 40
0.55810714
 40
0.621872146
 40
0.6856353143
 40
0.7492575155
 40
0.812603419
 40
0.8441500752
 40
0.875584072
 40
0.9068941559
 40
0.9380701097
 40
0.9691086175
 40
1.0
 40
1.0
 40
1.0
 40
1.0
 10
11.1743638767
 20
6.7821493788
 30
0.0
 10
11.1728937435
 20
6.781490298
 30
0.0
 10
11.1699040062
 20
6.780267477
 30
0.0
 10
11.1653018396
 20
6.7787288945
 30
0.0
 10
11.1605928487
 20
6.7774873919
 30
0.0
 10
11.1541866106
 20
6.7762309033
 30
0.0
 10
11.1459977165
 20
6.7754226899
 30
0.0
 10
11.1360694281
 20
6.7756793442
 30
0.0
 10
11.1261644492
 20
6.7771533624
 30
0.0
 10
11.1164331224
 20
6.7798245793
 30
0.0
 10
11.1070237708
 20
6.783657827
 30
0.0
 10
11.0980839366
 20
6.7886029449
 30
0.0
 10
11.0897587468
 20
6.7945934488
 30
0.0
 10
11.0821894417
 20
6.8015455212
 30
0.0
 10
11.0755107715
 20
6.8093575215
 30
0.0
 10
11.0698481833
 20
6.8179076852
 30
0.0
 10
11.0660620469
 20
6.8255476869
 30
0.0
 10
11.0636467347
 20
6.8318822272
 30
0.0
 10
11.0621522674
 20
6.8367175386
 30
0.0
 10
11.0609812008
 20
6.8416205937
 30
0.0
 10
11.0601396853
 20
6.8465694953
 30
0.0
 10
11.0596326364
 20
6.8515409974
 30
0.0
 10
11.059519068
 20
6.8548636832
 30
0.0
 10
11.059519068
 20
6.8565205422
 30
0.0
  0
SPLINE
  5
3BC
100
AcDbEntity
  8
0
100
AcDbSpline
 62
7
  6
CONTINUOUS
 70
0
 71
3
 72
31
 73
27
 74
0
 42
0.0000001
 43
0.0000001
 44
0.0000000001
 40
0.0
 40
0.0
 40
0.0
 40
0.0
 40
0.0301841158
 40
0.0603929886
 40
0.0906335671
 40
0.1209126014
 40
0.1815984628
 40
0.2425155737
 40
0.2730831521
 40
0.3037260221
 40
0.3344492746
 40
0.3652575188
 40
0.4271296831
 40
0.4893842465
 40
0.5520368045
 40
0.6150898881
 40
0.6467721786
 40
0.6785486887
 40
0.7104151011
 40
0.7423660372
 40
0.8064755524
 40
0.8708318295
 40
0.9030884912
 40
0.9353759015
 40
0.9676849565
 40
1.0
 40
1.0
 40
1.0
 40
1.0
 10
10.1981289567
 20
9.3024477285
 30
0.0
 10
10.2005491637
 20
9.3043297487
 30
0.0
 10
10.2054727309
 20
9.3079922842
 30
0.0
 10
10.2130894819
 20
9.3131672447
 30
0.0
 10
10.2209295372
 20
9.3180162382
 30
0.0
 10
10.231670997
 20
9.3240378461
 30
0.0
 10
10.2456055579
 20
9.3307048162
 30
0.0
 10
10.2600937878
 20
9.336148321
 30
0.0
 10
10.2719702573
 20
9.3397411699
 30
0.0
 10
10.2810214622
 20
9.3420497059
 30
0.0
 10
10.2901900298
 20
9.3439601102
 30
0.0
 10
10.302565837
 20
9.3459684269
 30
0.0
 10
10.3182572089
 20
9.3474399831
 30
0.0
 10
10.3372546828
 20
9.3474888018
 30
0.0
 10
10.3562962732
 20
9.3457774724
 30
0.0
 10
10.372040202
 20
9.3428599744
 30
0.0
 10
10.3844808241
 20
9.3396263212
 30
0.0
 10
10.3937284
 20
9.3367446532
 30
0.0
 10
10.4028523649
 20
9.3334121802
 30
0.0
 10
10.41483146
 20
9.3283675105
 30
0.0
 10
10.4293705769
 20
9.320951045
 30
0.0
 10
10.4431372022
 20
9.3121245139
 30
0.0
 10
10.4536074028
 20
9.3042563264
 30
0.0
 10
10.4611716991
 20
9.2979600875
 30
0.0
 10
10.4684168687
 20
9.2912910238
 30
0.0
 10
10.4730208376
 20
9.2866079053
 30
0.0
 10
10.4752627243
 20
9.2842105432
 30
0.0
  0
SPLINE
  5
3BD
100
AcDbEntity
  8
0
100
AcDbSpline
 62
7
  6
CONTINUOUS
 70
0
 71
3
 72
23
 73
19
 74
0
 42
0.0000001
 43
0.0000001
 44
0.0000000001
 40
0.0
 40
0.0
 40
0.0
 40
0.0
 40
0.0620895627
 40
0.1240614719
 40
0.1859519154
 40
0.2477991326
 40
0.3096426977
 40
0.3715226754
 40
0.4334789768
 40
0.4955505712
 40
0.5577745877
 40
0.6201854776
 40
0.6828142081
 40
0.7456880303
 40
0.8088294727
 40
0.8722535051
 40
0.9359787616
 40
1.0
 40
1.0
 40
1.0
 40
1.0
 10
11.5345934455
 20
9.5639881787
 30
0.0
 10
11.5337900673
 20
9.562574892
 30
0.0
 10
11.5320871785
 20
9.5598052009
 30
0.0
 10
11.5292534937
 20
9.5558414773
 30
0.0
 10
11.5261537965
 20
9.5520899811
 30
0.0
 10
11.5228004356
 20
9.5485680577
 30
0.0
 10
11.5192068111
 20
9.5452919801
 30
0.0
 10
11.5153876568
 20
9.5422772006
 30
0.0
 10
11.5113588986
 20
9.5395381712
 30
0.0
 10
11.5071376242
 20
9.537088278
 30
0.0
 10
11.5027420394
 20
9.5349397181
 30
0.0
 10
11.4981914387
 20
9.5331033144
 30
0.0
 10
11.4935060726
 20
9.5315884622
 30
0.0
 10
11.4887070303
 20
9.5304030611
 30
0.0
 10
11.4838162311
 20
9.529553441
 30
0.0
 10
11.4788559564
 20
9.5290440325
 30
0.0
 10
11.4738495986
 20
9.5288778356
 30
0.0
 10
11.4705038851
 20
9.5289961616
 30
0.0
 10
11.4688316573
 20
9.529112131
 30
0.0
  0
SPLINE
  5
3BE
100
AcDbEntity
  8
0
100
AcDbSpline
 62
7
  6
CONTINUOUS
 70
0
 71
3
 72
39
 73
35
 74
0
 42
0.0000001
 43
0.0000001
 44
0.0000000001
 40
0.0
 40
0.0
 40
0.0
 40
0.0
 40
0.0958316688
 40
0.1891006705
 40
0.2792405767
 40
0.3229673483
 40
0.3657111495
 40
0.4074093993
 40
0.4480020282
 40
0.4874317158
 40
0.5256439104
 40
0.562587298
 40
0.5982141002
 40
0.6324801996
 40
0.6653458035
 40
0.696775823
 40
0.726740271
 40
0.7552152757
 40
0.7821837636
 40
0.8076364714
 40
0.8315736871
 40
0.8540068174
 40
0.874960774
 40
0.8944773415
 40
0.9126188285
 40
0.9294730659
 40
0.9451592976
 40
0.9598338074
 40
0.9668558258
 40
0.9737028593
 40
0.9804062749
 40
0.9869996857
 40
0.9935186317
 40
1.0
 40
1.0
 40
1.0
 40
1.0
 10
9.9043091283
 20
10.0202935781
 30
0.0
 10
9.8945418248
 20
10.0209709429
 30
0.0
 10
9.8752824674
 20
10.0225223738
 30
0.0
 10
9.8469050412
 20
10.0254838914
 30
0.0
 10
9.8238894908
 20
10.0284706966
 30
0.0
 10
9.8060467965
 20
10.0311593467
 30
0.0
 10
9.7931269195
 20
10.0332937969
 30
0.0
 10
9.7805552538
 20
10.0355629633
 30
0.0
 10
9.7683527812
 20
10.0379630649
 30
0.0
 10
9.7565398768
 20
10.0404900331
 30
0.0
 10
9.745136258
 20
10.0431396429
 30
0.0
 10
9.7341609453
 20
10.045907437
 30
0.0
 10
9.7236322246
 20
10.0487887374
 30
0.0
 10
9.7135676303
 20
10.0517787298
 30
0.0
 10
9.7039838917
 20
10.054872381
 30
0.0
 10
9.6948969051
 20
10.0580644804
 30
0.0
 10
9.6863217206
 20
10.0613497189
 30
0.0
 10
9.6782724759
 20
10.0647225936
 30
0.0
 10
9.6707623799
 20
10.0681774941
 30
0.0
 10
9.6638037046
 20
10.0717087783
 30
0.0
 10
9.6574077017
 20
10.0753106855
 30
0.0
 10
9.6515846191
 20
10.0789774979
 30
0.0
 10
9.6463437233
 20
10.0827036259
 30
0.0
 10
9.6416932375
 20
10.086483615
 30
0.0
 10
9.6376405612
 20
10.0903123095
 30
0.0
 10
9.6341923909
 20
10.0941852648
 30
0.0
 10
9.6313553883
 20
10.0980975195
 30
0.0
 10
9.6294788672
 20
10.101436389
 30
0.0
 10
9.6283091319
 20
10.1041098458
 30
0.0
 10
9.627600923
 20
10.1060906588
 30
0.0
 10
9.6270495428
 20
10.108075368
 30
0.0
 10
9.6266554107
 20
10.1100631749
 30
0.0
 10
9.6264188321
 20
10.1120529147
 30
0.0
 10
9.6263661908
 20
10.1133817007
 30
0.0
 10
9.6263661954
 20
10.1140438778
 30
0.0
  0
SPLINE
  5
3BF
100
AcDbEntity
  8
0
100
AcDbSpline
 62
7
  6
CONTINUOUS
 70
0
 71
3
 72
39
 73
35
 74
0
 42
0.0000001
 43
0.0000001
 44
0.0000000001
 40
0.0
 40
0.0
 40
0.0
 40
0.0
 40
0.0071758079
 40
0.0146741357
 40
0.022503624
 40
0.030671441
 40
0.0391835297
 40
0.0480445027
 40
0.0572573755
 40
0.0668240442
 40
0.0767454363
 40
0.0870215068
 40
0.1086328144
 40
0.1316444976
 40
0.1560319006
 40
0.1817621503
 40
0.2087952904
 40
0.2370851496
 40
0.2665801077
 40
0.2972237102
 40
0.3289551658
 40
0.3617097536
 40
0.3954191975
 40
0.4300120549
 40
0.4654140374
 40
0.501548304
 40
0.5383357251
 40
0.5756951818
 40
0.6135438486
 40
0.6903688691
 40
0.7681254643
 40
0.846115686
 40
0.9236386402
 40
1.0
 40
1.0
 40
1.0
 40
1.0
 10
11.9332179571
 20
9.9800691312
 30
0.0
 10
11.9324062593
 20
9.9792850912
 30
0.0
 10
11.9307060136
 20
9.9777231475
 30
0.0
 10
11.9279942966
 20
9.9754474014
 30
0.0
 10
11.9250678901
 20
9.973189698
 30
0.0
 10
11.9219286972
 20
9.9709515207
 30
0.0
 10
11.9185785757
 20
9.9687340709
 30
0.0
 10
11.9150194402
 20
9.9665386594
 30
0.0
 10
11.9112534046
 20
9.9643665054
 30
0.0
 10
11.9072826995
 20
9.9622189291
 30
0.0
 10
11.9031096787
 20
9.9600972081
 30
0.0
 10
11.8971791992
 20
9.9572565572
 30
0.0
 10
11.8892690508
 20
9.9537894225
 30
0.0
 10
11.8791659683
 20
9.9498185852
 30
0.0
 10
11.8683223771
 20
9.9459800244
 30
0.0
 10
11.8567641844
 20
9.9422830004
 30
0.0
 10
11.8445188464
 20
9.9387364648
 30
0.0
 10
11.8316156337
 20
9.935349008
 30
0.0
 10
11.8180854346
 20
9.9321288455
 30
0.0
 10
11.8039606888
 20
9.9290837931
 30
0.0
 10
11.7892752935
 20
9.9262212467
 30
0.0
 10
11.774064526
 20
9.9235481558
 30
0.0
 10
11.7583649528
 20
9.921070998
 30
0.0
 10
11.7422143307
 20
9.9187957804
 30
0.0
 10
11.7256515093
 20
9.9167280213
 30
0.0
 10
11.7087163379
 20
9.9148727379
 30
0.0
 10
11.6914495849
 20
9.9132344301
 30
0.0
 10
11.6738927817
 20
9.9118170344
 30
0.0
 10
11.6500356815
 20
9.9102185491
 30
0.0
 10
11.6198019091
 20
9.9088014137
 30
0.0
 10
11.5832300881
 20
9.9080287418
 30
0.0
 10
11.546540476
 20
9.908183442
 30
0.0
 10
11.5100862296
 20
9.9092639393
 30
0.0
 10
11.4859191291
 20
9.910608552
 30
0.0
 10
11.473938689
 20
9.9114393983
 30
0.0
  0
SPLINE
  5
3C0
100
AcDbEntity
  8
0
100
AcDbSpline
 62
7
  6
CONTINUOUS
 70
0
 71
3
 72
21
 73
17
 74
0
 42
0.0000001
 43
0.0000001
 44
0.0000000001
 40
0.0
 40
0.0
 40
0.0
 40
0.0
 40
0.1277586773
 40
0.254609821
 40
0.3177142587
 40
0.3805934393
 40
0.443253719
 40
0.5057045961
 40
0.5679589778
 40
0.6300332555
 40
0.6919471381
 40
0.7537234168
 40
0.8153881001
 40
0.8769680297
 40
0.9384965186
 40
1.0
 40
1.0
 40
1.0
 40
1.0
 10
10.5276746747
 20
7.3172314139
 30
0.0
 10
10.5283797271
 20
7.3102488071
 30
0.0
 10
10.5291043117
 20
7.2962544078
 30
0.0
 10
10.5282141114
 20
7.2787903732
 30
0.0
 10
10.5263919055
 20
7.2650155909
 30
0.0
 10
10.5244708903
 20
7.2548269281
 30
0.0
 10
10.5219908198
 20
7.2447967263
 30
0.0
 10
10.5189514424
 20
7.2349572508
 30
0.0
 10
10.5153548957
 20
7.2253416506
 30
0.0
 10
10.5112058951
 20
7.2159832379
 30
0.0
 10
10.5065119146
 20
7.2069153211
 30
0.0
 10
10.501283334
 20
7.1981707888
 30
0.0
 10
10.4955335655
 20
7.1897818932
 30
0.0
 10
10.4892788962
 20
7.1817793846
 30
0.0
 10
10.482538978
 20
7.174193369
 30
0.0
 10
10.4777359696
 20
7.1694310056
 30
0.0
 10
10.4752627591
 20
7.1671293128
 30
0.0
  0
SPLINE
  5
3C1
100
AcDbEntity
  8
0
100
AcDbSpline
 62
7
  6
CONTINUOUS
 70
0
 71
3
 72
40
 73
36
 74
0
 42
0.0000001
 43
0.0000001
 44
0.0000000001
 40
0.0
 40
0.0
 40
0.0
 40
0.0
 40
0.0299503828
 40
0.0599781752
 40
0.0900993207
 40
0.1203278753
 40
0.1354885494
 40
0.1506803602
 40
0.1811572633
 40
0.2117703899
 40
0.2425244592
 40
0.2734216465
 40
0.3044615872
 40
0.3356414197
 40
0.3669558638
 40
0.3983973327
 40
0.4299560742
 40
0.4616203405
 40
0.4933765822
 40
0.525209667
 40
0.5571031189
 40
0.5890393784
 40
0.6210000798
 40
0.6529663456
 40
0.6849190933
 40
0.7168393539
 40
0.7487085969
 40
0.7805090586
 40
0.8122240662
 40
0.8438383635
 40
0.8753383893
 40
0.906712638
 40
0.9379516985
 40
0.9690490003
 40
1.0
 40
1.0
 40
1.0
 40
1.0
 10
10.8563735254
 20
8.4301775634
 30
0.0
 10
10.8526783876
 20
8.4279244659
 30
0.0
 10
10.8451131407
 20
8.42367766
 30
0.0
 10
10.833324024
 20
8.41812803
 30
0.0
 10
10.8211331662
 20
8.4134141807
 30
0.0
 10
10.8106951349
 20
8.4102022698
 30
0.0
 10
10.8022036217
 20
8.4080682308
 30
0.0
 10
10.7936080102
 20
8.4062228667
 30
0.0
 10
10.7827158227
 20
8.4044700785
 30
0.0
 10
10.7694891903
 20
8.4032625382
 30
0.0
 10
10.7561502504
 20
8.4029528841
 30
0.0
 10
10.7427592302
 20
8.4035421624
 30
0.0
 10
10.7293760161
 20
8.4050275075
 30
0.0
 10
10.7160605829
 20
8.4074023171
 30
0.0
 10
10.7028726199
 20
8.4106562293
 30
0.0
 10
10.6898713722
 20
8.4147751564
 30
0.0
 10
10.6771154196
 20
8.4197413093
 30
0.0
 10
10.6646624675
 20
8.4255332313
 30
0.0
 10
10.6525691262
 20
8.4321258375
 30
0.0
 10
10.6408906849
 20
8.4394904644
 30
0.0
 10
10.6296808782
 20
8.4475949306
 30
0.0
 10
10.6189916449
 20
8.4564036117
 30
0.0
 10
10.6088728811
 20
8.4658775329
 30
0.0
 10
10.5993721873
 20
8.4759744792
 30
0.0
 10
10.5905346128
 20
8.4866491286
 30
0.0
 10
10.5824023997
 20
8.4978532078
 30
0.0
 10
10.5750147275
 20
8.5095356736
 30
0.0
 10
10.5684074664
 20
8.5216429195
 30
0.0
 10
10.5626129351
 20
8.5341190109
 30
0.0
 10
10.557659684
 20
8.5469059378
 30
0.0
 10
10.5535722685
 20
8.5599439282
 30
0.0
 10
10.550371107
 20
8.573171645
 30
0.0
 10
10.5480722388
 20
8.5865269189
 30
0.0
 10
10.54668733
 20
8.599945658
 30
0.0
 10
10.5463773113
 20
8.6089147069
 30
0.0
 10
10.5463773113
 20
8.6133871713
 30
0.0
  0
SPLINE
  5
3C2
100
AcDbEntity
  8
0
100
AcDbSpline
 62
7
  6
CONTINUOUS
 70
0
 71
3
 72
24
 73
20
 74
0
 42
0.0000001
 43
0.0000001
 44
0.0000000001
 40
0.0
 40
0.0
 40
0.0
 40
0.0
 40
0.0639211479
 40
0.1275610967
 40
0.1909251551
 40
0.2540265571
 40
0.3168811233
 40
0.3795097274
 40
0.4419368158
 40
0.5041903389
 40
0.566301103
 40
0.6283022242
 40
0.690228496
 40
0.721179113
 40
0.7521245065
 40
0.8140089491
 40
0.8759265374
 40
0.9379123479
 40
1.0
 40
1.0
 40
1.0
 40
1.0
 10
11.103346166
 20
8.1825951235
 30
0.0
 10
11.103346166
 20
8.1870356141
 30
0.0
 10
11.1036297076
 20
8.1958997613
 30
0.0
 10
11.1049103606
 20
8.2091099494
 30
0.0
 10
11.1070398876
 20
8.2221530916
 30
0.0
 10
11.1100087688
 20
8.2349750949
 30
0.0
 10
11.113803981
 20
8.247524018
 30
0.0
 10
11.1184087769
 20
8.2597490109
 30
0.0
 10
11.1238030234
 20
8.271600982
 30
0.0
 10
11.1299632289
 20
8.2830326854
 30
0.0
 10
11.1368628717
 20
8.2939990765
 30
0.0
 10
11.1444721732
 20
8.3044570577
 30
0.0
 10
11.151379982
 20
8.3127172815
 30
0.0
 10
11.1572254219
 20
8.3190295293
 30
0.0
 10
11.1632778027
 20
8.3251395561
 30
0.0
 10
11.1712249483
 20
8.3323917548
 30
0.0
 10
11.181327093
 20
8.3404395176
 30
0.0
 10
11.1919544795
 20
8.3478038633
 30
0.0
 10
11.1993551957
 20
8.3522363872
 30
0.0
 10
11.2031263442
 20
8.3543295785
 30
0.0
  0
SPLINE
  5
3C3
100
AcDbEntity
  8
0
100
AcDbSpline
 62
7
  6
CONTINUOUS
 70
0
 71
3
 72
40
 73
36
 74
0
 42
0.0000001
 43
0.0000001
 44
0.0000000001
 40
0.0
 40
0.0
 40
0.0
 40
0.0
 40
0.029970057
 40
0.0600246656
 40
0.0901780769
 40
0.1204426315
 40
0.1356220571
 40
0.150832928
 40
0.1813483464
 40
0.2119989886
 40
0.2427882812
 40
0.2737173016
 40
0.3047847994
 40
0.3359872467
 40
0.3673189164
 40
0.3987719852
 40
0.4303366601
 40
0.4620013264
 40
0.4937527185
 40
0.5255761097
 40
0.5574555235
 40
0.5893739646
 40
0.6213136683
 40
0.6532563695
 40
0.6851835869
 40
0.717076923
 40
0.7489183737
 40
0.7806906477
 40
0.8123774834
 40
0.8439639711
 40
0.8754368403
 40
0.906784795
 40
0.9379986366
 40
0.9690718179
 40
1.0
 40
1.0
 40
1.0
 40
1.0
 10
11.4331681482
 20
7.9810676207
 30
0.0
 10
11.4291345149
 20
7.9788287362
 30
0.0
 10
11.4208950639
 20
7.9746277446
 30
0.0
 10
11.4081089381
 20
7.9691963292
 30
0.0
 10
11.3949347998
 20
7.9646470956
 30
0.0
 10
11.3836914684
 20
7.9616089912
 30
0.0
 10
11.3745643396
 20
7.9596347466
 30
0.0
 10
11.3653377217
 20
7.9579630246
 30
0.0
 10
11.3536687454
 20
7.9564523466
 30
0.0
 10
11.3395311735
 20
7.9555726369
 30
0.0
 10
11.325302529
 20
7.9556266706
 30
0.0
 10
11.3110439724
 20
7.9566138175
 30
0.0
 10
11.2968162171
 20
7.9585297417
 30
0.0
 10
11.2826800145
 20
7.9613665433
 30
0.0
 10
11.268695817
 20
7.9651127344
 30
0.0
 10
11.2549236592
 20
7.969753254
 30
0.0
 10
11.2414229706
 20
7.9752694691
 30
0.0
 10
11.228252396
 20
7.9816391788
 30
0.0
 10
11.2154695983
 20
7.9888366198
 30
0.0
 10
11.2031310495
 20
7.9968324785
 30
0.0
 10
11.1912918063
 20
8.0055939122
 30
0.0
 10
11.1800052705
 20
8.0150845825
 30
0.0
 10
11.1693229343
 20
8.0252647076
 30
0.0
 10
11.1592941132
 20
8.0360911345
 30
0.0
 10
11.1499656657
 20
8.0475174364
 30
0.0
 10
11.1413817066
 20
8.0594940401
 30
0.0
 10
11.1335833144
 20
8.0719683832
 30
0.0
 10
11.1266082407
 20
8.0848851067
 30
0.0
 10
11.1204906224
 20
8.0981862839
 30
0.0
 10
11.1152607138
 20
8.1118116764
 30
0.0
 10
11.110944618
 20
8.1256990618
 30
0.0
 10
11.1075640846
 20
8.1397844529
 30
0.0
 10
11.1051362543
 20
8.1540028679
 30
0.0
 10
11.1036735836
 20
8.1682872387
 30
0.0
 10
11.103346166
 20
8.1778343095
 30
0.0
 10
11.103346166
 20
8.1825951235
 30
0.0
  0
SPLINE
  5
3C4
100
AcDbEntity
  8
0
100
AcDbSpline
 62
7
  6
CONTINUOUS
 70
0
 71
3
 72
25
 73
21
 74
0
 42
0.0000001
 43
0.0000001
 44
0.0000000001
 40
0.0
 40
0.0
 40
0.0
 40
0.0
 40
0.0641591054
 40
0.1281766044
 40
0.1920308572
 40
0.2557001824
 40
0.3191632281
 40
0.3823993352
 40
0.4453890617
 40
0.5081152733
 40
0.5705641868
 40
0.6327264491
 40
0.6945983194
 40
0.7254310286
 40
0.7561928559
 40
0.8175003896
 40
0.8785495329
 40
0.9089905759
 40
0.939379187
 40
1.0
 40
1.0
 40
1.0
 40
1.0
 10
10.9319014978
 20
7.8601594978
 30
0.0
 10
10.933650121
 20
7.8567954419
 30
0.0
 10
10.936986961
 20
7.8499919239
 30
0.0
 10
10.9414868926
 20
7.8395697516
 30
0.0
 10
10.9454487346
 20
7.8289616397
 30
0.0
 10
10.9488431918
 20
7.8181926126
 30
0.0
 10
10.9516406375
 20
7.8072905512
 30
0.0
 10
10.9538112818
 20
7.7962870568
 30
0.0
 10
10.955325835
 20
7.7852176642
 30
0.0
 10
10.9561562128
 20
7.7741221575
 30
0.0
 10
10.9562763834
 20
7.7630445148
 30
0.0
 10
10.9556635156
 20
7.7520334366
 30
0.0
 10
10.9545248025
 20
7.7429446429
 30
0.0
 10
10.9532303691
 20
7.7357629218
 30
0.0
 10
10.9516831771
 20
7.7286655121
 30
0.0
 10
10.9492681386
 20
7.7199362132
 30
0.0
 10
10.9462051615
 20
7.7114322544
 30
0.0
 10
10.9433743482
 20
7.7048078385
 30
0.0
 10
10.9402984528
 20
7.6983220524
 30
0.0
 10
10.9377082121
 20
7.6936004678
 30
0.0
 10
10.9358619099
 20
7.69053062
 30
0.0
  0
SPLINE
  5
3C5
100
AcDbEntity
  8
0
100
AcDbSpline
 62
7
  6
CONTINUOUS
 70
0
 71
3
 72
41
 73
37
 74
0
 42
0.0000001
 43
0.0000001
 44
0.0000000001
 40
0.0
 40
0.0
 40
0.0
 40
0.0
 40
0.0311443777
 40
0.0624425595
 40
0.0938872477
 40
0.1254696093
 40
0.1571771289
 40
0.1889951561
 40
0.2209067114
 40
0.2528930218
 40
0.2849338418
 40
0.3170078727
 40
0.349093173
 40
0.3811675842
 40
0.4132091572
 40
0.4451965775
 40
0.4771095803
 40
0.5089293526
 40
0.5406389143
 40
0.5722234721
 40
0.6036707398
 40
0.6349712184
 40
0.6661184287
 40
0.6971090895
 40
0.7279432343
 40
0.7586242609
 40
0.7891589086
 40
0.8195571576
 40
0.8498320512
 40
0.8649308888
 40
0.8800050477
 40
0.9100832517
 40
0.9400926686
 40
0.9550812681
 40
0.9700610312
 40
1.0
 40
1.0
 40
1.0
 40
1.0
 10
11.5596286883
 20
6.9884600389
 30
0.0
 10
11.5563147344
 20
6.9886898624
 30
0.0
 10
11.5496848195
 20
6.9893932289
 30
0.0
 10
11.5398203441
 20
6.991164962
 30
0.0
 10
11.5300615027
 20
6.9936467119
 30
0.0
 10
11.5204610611
 20
6.9968250105
 30
0.0
 10
11.5110699759
 20
7.0006829062
 30
0.0
 10
11.5019383566
 20
7.0051997184
 30
0.0
 10
11.493114846
 20
7.0103513286
 30
0.0
 10
11.484646461
 20
7.0161102226
 30
0.0
 10
11.4765783217
 20
7.0224456741
 30
0.0
 10
11.4689534183
 20
7.0293238925
 30
0.0
 10
11.4618123846
 20
7.0367082071
 30
0.0
 10
11.4551932833
 20
7.0445592589
 30
0.0
 10
11.449131405
 20
7.0528352088
 30
0.0
 10
11.4436590823
 20
7.0614919582
 30
0.0
 10
11.4388055185
 20
7.0704833811
 30
0.0
 10
11.4345966317
 20
7.0797615671
 30
0.0
 10
11.4310549173
 20
7.0892770732
 30
0.0
 10
11.4281993289
 20
7.0989791849
 30
0.0
 10
11.4260451762
 20
7.1088161828
 30
0.0
 10
11.4246040418
 20
7.118735614
 30
0.0
 10
11.4238837174
 20
7.128684569
 30
0.0
 10
11.4238881575
 20
7.1386099576
 30
0.0
 10
11.4246174585
 20
7.1484587996
 30
0.0
 10
11.4260678351
 20
7.1581784665
 30
0.0
 10
11.4282317012
 20
7.1677171055
 30
0.0
 10
11.4310974541
 20
7.1770233826
 30
0.0
 10
11.4340610883
 20
7.1845516213
 30
0.0
 10
11.4367656044
 20
7.190405965
 30
0.0
 10
11.4396842212
 20
7.1961330487
 30
0.0
 10
11.443736622
 20
7.2030602171
 30
0.0
 10
11.4483101804
 20
7.2096438845
 30
0.0
 10
11.4522624443
 20
7.2146762413
 30
0.0
 10
11.4564031889
 20
7.2195443815
 30
0.0
 10
11.4597206902
 20
7.2230100412
 30
0.0
 10
11.4620175256
 20
7.2252285955
 30
0.0
  0
SPLINE
  5
3C6
100
AcDbEntity
  8
0
100
AcDbSpline
 62
4
  6
CONTINUOUS
 70
0
 71
3
 72
289
 73
285
 74
0
 42
0.0000001
 43
0.0000001
 44
0.0000000001
 40
0.0
 40
0.0
 40
0.0
 40
0.0
 40
0.015625
 40
0.0234375
 40
0.03125
 40
0.0390625
 40
0.046875
 40
0.05078125
 40
0.0546875
 40
0.056640625
 40
0.05859375
 40
0.060546875
 40
0.0615234375
 40
0.0620117188
 40
0.0625
 40
0.0629882812
 40
0.0634765625
 40
0.064453125
 40
0.06640625
 40
0.068359375
 40
0.0703125
 40
0.07421875
 40
0.078125
 40
0.0859375
 40
0.09375
 40
0.1015625
 40
0.109375
 40
0.11328125
 40
0.1171875
 40
0.119140625
 40
0.12109375
 40
0.123046875
 40
0.1240234375
 40
0.1245117188
 40
0.125
 40
0.1254882812
 40
0.1259765625
 40
0.126953125
 40
0.12890625
 40
0.130859375
 40
0.1328125
 40
0.13671875
 40
0.140625
 40
0.1484375
 40
0.15625
 40
0.1640625
 40
0.171875
 40
0.17578125
 40
0.1796875
 40
0.181640625
 40
0.18359375
 40
0.185546875
 40
0.1865234375
 40
0.1870117188
 40
0.1875
 40
0.1879882812
 40
0.1884765625
 40
0.189453125
 40
0.19140625
 40
0.193359375
 40
0.1953125
 40
0.19921875
 40
0.203125
 40
0.2109375
 40
0.21875
 40
0.2265625
 40
0.234375
 40
0.23828125
 40
0.2421875
 40
0.24609375
 40
0.248046875
 40
0.2490234375
 40
0.25
 40
0.2509765625
 40
0.251953125
 40
0.25390625
 40
0.2578125
 40
0.26171875
 40
0.265625
 40
0.2734375
 40
0.28125
 40
0.2890625
 40
0.296875
 40
0.30078125
 40
0.3046875
 40
0.30859375
 40
0.310546875
 40
0.3115234375
 40
0.3125
 40
0.3134765625
 40
0.314453125
 40
0.31640625
 40
0.3203125
 40
0.32421875
 40
0.328125
 40
0.3359375
 40
0.34375
 40
0.3515625
 40
0.359375
 40
0.36328125
 40
0.3671875
 40
0.37109375
 40
0.373046875
 40
0.3740234375
 40
0.375
 40
0.3759765625
 40
0.376953125
 40
0.37890625
 40
0.3828125
 40
0.38671875
 40
0.390625
 40
0.3984375
 40
0.40625
 40
0.4140625
 40
0.421875
 40
0.4296875
 40
0.43359375
 40
0.435546875
 40
0.4375
 40
0.439453125
 40
0.44140625
 40
0.4453125
 40
0.453125
 40
0.4609375
 40
0.46875
 40
0.4765625
 40
0.484375
 40
0.48828125
 40
0.4921875
 40
0.49609375
 40
0.498046875
 40
0.4990234375
 40
0.5
 40
0.5009765625
 40
0.501953125
 40
0.50390625
 40
0.5078125
 40
0.51171875
 40
0.515625
 40
0.5234375
 40
0.53125
 40
0.5390625
 40
0.546875
 40
0.55078125
 40
0.5546875
 40
0.55859375
 40
0.560546875
 40
0.5615234375
 40
0.5625
 40
0.5634765625
 40
0.564453125
 40
0.56640625
 40
0.5703125
 40
0.57421875
 40
0.578125
 40
0.5859375
 40
0.59375
 40
0.6015625
 40
0.609375
 40
0.61328125
 40
0.6171875
 40
0.619140625
 40
0.62109375
 40
0.623046875
 40
0.6240234375
 40
0.6245117188
 40
0.625
 40
0.6254882812
 40
0.6259765625
 40
0.626953125
 40
0.62890625
 40
0.630859375
 40
0.6328125
 40
0.63671875
 40
0.640625
 40
0.6484375
 40
0.65625
 40
0.6640625
 40
0.671875
 40
0.67578125
 40
0.6796875
 40
0.681640625
 40
0.68359375
 40
0.685546875
 40
0.6865234375
 40
0.6870117188
 40
0.6875
 40
0.6879882812
 40
0.6884765625
 40
0.689453125
 40
0.69140625
 40
0.693359375
 40
0.6953125
 40
0.69921875
 40
0.703125
 40
0.7109375
 40
0.71875
 40
0.7265625
 40
0.734375
 40
0.73828125
 40
0.7421875
 40
0.744140625
 40
0.74609375
 40
0.748046875
 40
0.7490234375
 40
0.7495117188
 40
0.75
 40
0.7504882812
 40
0.7509765625
 40
0.751953125
 40
0.75390625
 40
0.755859375
 40
0.7578125
 40
0.76171875
 40
0.765625
 40
0.7734375
 40
0.78125
 40
0.7890625
 40
0.796875
 40
0.80078125
 40
0.8046875
 40
0.806640625
 40
0.80859375
 40
0.810546875
 40
0.8115234375
 40
0.8120117188
 40
0.8125
 40
0.8129882812
 40
0.8134765625
 40
0.814453125
 40
0.81640625
 40
0.818359375
 40
0.8203125
 40
0.82421875
 40
0.828125
 40
0.8359375
 40
0.84375
 40
0.8515625
 40
0.85546875
 40
0.859375
 40
0.86328125
 40
0.8671875
 40
0.869140625
 40
0.87109375
 40
0.873046875
 40
0.8740234375
 40
0.8745117188
 40
0.875
 40
0.8754882812
 40
0.8759765625
 40
0.876953125
 40
0.87890625
 40
0.880859375
 40
0.8828125
 40
0.88671875
 40
0.890625
 40
0.89453125
 40
0.8984375
 40
0.90625
 40
0.9140625
 40
0.91796875
 40
0.921875
 40
0.92578125
 40
0.9296875
 40
0.931640625
 40
0.93359375
 40
0.935546875
 40
0.9365234375
 40
0.9370117188
 40
0.9375
 40
0.9379882812
 40
0.9384765625
 40
0.939453125
 40
0.94140625
 40
0.943359375
 40
0.9453125
 40
0.94921875
 40
0.953125
 40
0.95703125
 40
0.9609375
 40
0.96875
 40
0.9765625
 40
0.984375
 40
1.0
 40
1.0
 40
1.0
 40
1.0
 10
12.212324926
 20
9.0563732755
 30
0.0
 10
12.2114853919
 20
9.055255136
 30
0.0
 10
12.2102260906
 20
9.0535779271
 30
0.0
 10
12.2085470223
 20
9.0513416476
 30
0.0
 10
12.207287721
 20
9.0496644403
 30
0.0
 10
12.2060284201
 20
9.0479872242
 30
0.0
 10
12.2049790012
 20
9.0465895716
 30
0.0
 10
12.2041394695
 20
9.0454713878
 30
0.0
 10
12.2036147544
 20
9.0447726635
 30
0.0
 10
12.2031950002
 20
9.0442133622
 30
0.0
 10
12.2028801353
 20
9.0437947676
 30
0.0
 10
12.2026179047
 20
9.0434431349
 30
0.0
 10
12.2024340356
 20
9.0432024944
 30
0.0
 10
12.202329448
 20
9.043056394
 30
0.0
 10
12.2022496538
 20
9.0429710215
 30
0.0
 10
12.2021750332
 20
9.0427931334
 30
0.0
 10
12.2020737345
 20
9.0425882198
 30
0.0
 10
12.2018973025
 20
9.0422145856
 30
0.0
 10
12.2016448173
 20
9.0416886831
 30
0.0
 10
12.2013420232
 20
9.0410542355
 30
0.0
 10
12.2009382319
 20
9.0402094805
 30
0.0
 10
12.2004335154
 20
9.0391531344
 30
0.0
 10
12.1996259563
 20
9.0374632056
 30
0.0
 10
12.1986165119
 20
9.035350717
 30
0.0
 10
12.1974051764
 20
9.0328157659
 30
0.0
 10
12.1961938425
 20
9.030280798
 30
0.0
 10
12.1951843943
 20
9.0281683513
 30
0.0
 10
12.1943768426
 20
9.0264783387
 30
0.0
 10
12.1938721074
 20
9.0254222056
 30
0.0
 10
12.1934683545
 20
9.0245770135
 30
0.0
 10
12.1931654432
 20
9.0239439015
 30
0.0
 10
12.1929133247
 20
9.02341382
 30
0.0
 10
12.192736238
 20
9.023047646
 30
0.0
 10
12.1926359883
 20
9.0228307793
 30
0.0
 10
12.1925581456
 20
9.0226896075
 30
0.0
 10
12.192490453
 20
9.0224663346
 30
0.0
 10
12.1923966558
 20
9.0221972752
 30
0.0
 10
12.1922341602
 20
9.0217130784
 30
0.0
 10
12.1920011612
 20
9.0210283444
 30
0.0
 10
12.1917219316
 20
9.0202036777
 30
0.0
 10
12.1913494965
 20
9.0191051651
 30
0.0
 10
12.1908839967
 20
9.0177316672
 30
0.0
 10
12.1901391725
 20
9.0155342702
 30
0.0
 10
12.1892081507
 20
9.0127874551
 30
0.0
 10
12.1880909206
 20
9.0094913083
 30
0.0
 10
12.1869736927
 20
9.0061951463
 30
0.0
 10
12.1860426653
 20
9.0034483692
 30
0.0
 10
12.1852978522
 20
9.0012508961
 30
0.0
 10
12.1848323242
 20
8.9998775919
 30
0.0
 10
12.1844599471
 20
8.9987786817
 30
0.0
 10
12.1841805403
 20
8.9979552295
 30
0.0
 10
12.1839480956
 20
8.9972666959
 30
0.0
 10
12.1837846105
 20
8.9967892819
 30
0.0
 10
12.1836923987
 20
8.9965093547
 30
0.0
 10
12.1836198361
 20
8.9963194642
 30
0.0
 10
12.1835602844
 20
8.9960529136
 30
0.0
 10
12.1834763439
 20
8.9957242527
 30
0.0
 10
12.1833315624
 20
8.9951366374
 30
0.0
 10
12.1831236262
 20
8.9943037006
 30
0.0
 10
12.1828745759
 20
8.9933013884
 30
0.0
 10
12.1825423436
 20
8.9919659459
 30
0.0
 10
12.1821271099
 20
8.9902963093
 30
0.0
 10
12.1814627041
 20
8.9876250775
 30
0.0
 10
12.180632209
 20
8.9842859711
 30
0.0
 10
12.1796356044
 20
8.9802790833
 30
0.0
 10
12.1786390221
 20
8.9762721428
 30
0.0
 10
12.1778084715
 20
8.9729331679
 30
0.0
 10
12.1771441766
 20
8.9702616732
 30
0.0
 10
12.1766455578
 20
8.9682589112
 30
0.0
 10
12.1762313069
 20
8.9665872104
 30
0.0
 10
12.1759388493
 20
8.9654223824
 30
0.0
 10
12.175775606
 20
8.9647483931
 30
0.0
 10
12.1756422566
 20
8.9642664888
 30
0.0
 10
12.1755506374
 20
8.9636944205
 30
0.0
 10
12.1754139225
 20
8.9629631131
 30
0.0
 10
12.1751814532
 20
8.9616686718
 30
0.0
 10
12.1748458087
 20
8.9598271308
 30
0.0
 10
12.1744445529
 20
8.9576140025
 30
0.0
 10
12.1739090149
 20
8.9546643105
 30
0.0
 10
12.1732397756
 20
8.9509768003
 30
0.0
 10
12.1724366043
 20
8.946551966
 30
0.0
 10
12.1716334762
 20
8.9421270525
 30
0.0
 10
12.1709641291
 20
8.9384397405
 30
0.0
 10
12.1704288067
 20
8.9354896521
 30
0.0
 10
12.1700268931
 20
8.9332777325
 30
0.0
 10
12.1696933067
 20
8.9314324102
 30
0.0
 10
12.1694571633
 20
8.9301447193
 30
0.0
 10
12.1693263352
 20
8.929402596
 30
0.0
 10
12.1692166334
 20
8.9288637507
 30
0.0
 10
12.1691511993
 20
8.9282570665
 30
0.0
 10
12.1690485128
 20
8.9274718172
 30
0.0
 10
12.1688760056
 20
8.926086606
 30
0.0
 10
12.1686258055
 20
8.9241134968
 30
0.0
 10
12.1683271754
 20
8.9217432986
 30
0.0
 10
12.1679284394
 20
8.9185838963
 30
0.0
 10
12.1674302138
 20
8.9146343467
 30
0.0
 10
12.1668322536
 20
8.9098950181
 30
0.0
 10
12.1662343403
 20
8.9051556409
 30
0.0
 10
12.1657359975
 20
8.9012062127
 30
0.0
 10
12.1653374958
 20
8.8980465677
 30
0.0
 10
12.1650381509
 20
8.8956771095
 30
0.0
 10
12.1647901873
 20
8.8937016852
 30
0.0
 10
12.1646136877
 20
8.8923206069
 30
0.0
 10
12.164517398
 20
8.8915287357
 30
0.0
 10
12.1644323147
 20
8.8909423921
 30
0.0
 10
12.1643964121
 20
8.8903271509
 30
0.0
 10
12.1643313872
 20
8.8895169092
 30
0.0
 10
12.1642255864
 20
8.8880942898
 30
0.0
 10
12.1640702636
 20
8.8860644318
 30
0.0
 10
12.1638856654
 20
8.883627551
 30
0.0
 10
12.1636389072
 20
8.8803787442
 30
0.0
 10
12.1633306903
 20
8.8763176074
 30
0.0
 10
12.1629606631
 20
8.8714443075
 30
0.0
 10
12.1625909342
 20
8.8665709559
 30
0.0
 10
12.1622201791
 20
8.8616977466
 30
0.0
 10
12.1619143884
 20
8.8576363078
 30
0.0
 10
12.1616941229
 20
8.8547941436
 30
0.0
 10
12.1615779546
 20
8.853168734
 30
0.0
 10
12.1614635101
 20
8.8519533831
 30
0.0
 10
12.1614534896
 20
8.8507238652
 30
0.0
 10
12.1614037047
 20
8.8490894496
 30
0.0
 10
12.161333552
 20
8.8462269199
 30
0.0
 10
12.1612244595
 20
8.8421387951
 30
0.0
 10
12.161097355
 20
8.8372325318
 30
0.0
 10
12.1609692236
 20
8.8323263974
 30
0.0
 10
12.160841393
 20
8.8274202611
 30
0.0
 10
12.1607347206
 20
8.8233317132
 30
0.0
 10
12.1606495849
 20
8.8200611181
 30
0.0
 10
12.1605852147
 20
8.8176075027
 30
0.0
 10
12.1605332167
 20
8.8155649521
 30
0.0
 10
12.1604935928
 20
8.8141309887
 30
0.0
 10
12.1604759865
 20
8.8133181046
 30
0.0
 10
12.1604485953
 20
8.8126900644
 30
0.0
 10
12.1604754322
 20
8.8121322711
 30
0.0
 10
12.1604922994
 20
8.8113640437
 30
0.0
 10
12.1605306299
 20
8.8100310622
 30
0.0
 10
12.1605807802
 20
8.8081208343
 30
0.0
 10
12.1606429328
 20
8.8058311157
 30
0.0
 10
12.1607251139
 20
8.8027772646
 30
0.0
 10
12.1608280781
 20
8.7989602598
 30
0.0
 10
12.1609515267
 20
8.7943797104
 30
0.0
 10
12.1610750287
 20
8.789799241
 30
0.0
 10
12.1611778594
 20
8.7859820363
 30
0.0
 10
12.1612603075
 20
8.7829285849
 30
0.0
 10
12.1613216456
 20
8.7806376473
 30
0.0
 10
12.1613743444
 20
8.7787312328
 30
0.0
 10
12.1614081255
 20
8.7773914437
 30
0.0
 10
12.1614322819
 20
8.7766341238
 30
0.0
 10
12.1614367284
 20
8.7760428265
 30
0.0
 10
12.1614934318
 20
8.7755406216
 30
0.0
 10
12.1615508085
 20
8.7748399386
 30
0.0
 10
12.1616597105
 20
8.7736282226
 30
0.0
 10
12.1618108447
 20
8.7718896298
 30
0.0
 10
12.1619941062
 20
8.7698065587
 30
0.0
 10
12.162237791
 20
8.7670279985
 30
0.0
 10
12.1625426249
 20
8.7635551872
 30
0.0
 10
12.1629083273
 20
8.7593876453
 30
0.0
 10
12.1632740583
 20
8.7552201541
 30
0.0
 10
12.1635788208
 20
8.7517472162
 30
0.0
 10
12.1638226485
 20
8.7489689092
 30
0.0
 10
12.1639750032
 20
8.7472323733
 30
0.0
 10
12.1640969727
 20
8.7458433593
 30
0.0
 10
12.1641882153
 20
8.7448010112
 30
0.0
 10
12.164264997
 20
8.7439342568
 30
0.0
 10
12.1643172796
 20
8.743323861
 30
0.0
 10
12.1643494423
 20
8.7429807902
 30
0.0
 10
12.164367122
 20
8.7427073544
 30
0.0
 10
12.1644094276
 20
8.7424955862
 30
0.0
 10
12.1644572453
 20
8.7421917182
 30
0.0
 10
12.1645449284
 20
8.7416699712
 30
0.0
 10
12.1646680977
 20
8.7409193788
 30
0.0
 10
12.1648167963
 20
8.7400209106
 30
0.0
 10
12.1650147484
 20
8.7388221696
 30
0.0
 10
12.1652622957
 20
8.7373240117
 30
0.0
 10
12.1656583113
 20
8.734926809
 30
0.0
 10
12.1661533516
 20
8.7319303575
 30
0.0
 10
12.1667473905
 20
8.7283345918
 30
0.0
 10
12.1673414341
 20
8.7247388389
 30
0.0
 10
12.1678364627
 20
8.7217423554
 30
0.0
 10
12.1682325017
 20
8.7193452167
 30
0.0
 10
12.1684799897
 20
8.7178468962
 30
0.0
 10
12.1686780633
 20
8.716648489
 30
0.0
 10
12.1688263907
 20
8.7157490011
 30
0.0
 10
12.1689507215
 20
8.7150015993
 30
0.0
 10
12.1690363311
 20
8.7144741565
 30
0.0
 10
12.1690874711
 20
8.7141794146
 30
0.0
 10
12.1691195715
 20
8.7139396137
 30
0.0
 10
12.1691755804
 20
8.7137714641
 30
0.0
 10
12.1692419193
 20
8.7135222718
 30
0.0
 10
12.169361898
 20
8.71309783
 30
0.0
 10
12.1695312648
 20
8.7124853966
 30
0.0
 10
12.1697353744
 20
8.7117530823
 30
0.0
 10
12.1700072169
 20
8.7107757531
 30
0.0
 10
12.1703471239
 20
8.7095544033
 30
0.0
 10
12.1708909171
 20
8.7076000693
 30
0.0
 10
12.1715706785
 20
8.7051572121
 30
0.0
 10
12.1723863833
 20
8.7022257553
 30
0.0
 10
12.173202092
 20
8.6992943146
 30
0.0
 10
12.1738818436
 20
8.6968514175
 30
0.0
 10
12.1744256566
 20
8.6948971633
 30
0.0
 10
12.1747655131
 20
8.6936756105
 30
0.0
 10
12.1750374592
 20
8.6926986979
 30
0.0
 10
12.1752412522
 20
8.6919651108
 30
0.0
 10
12.1754116095
 20
8.6913566599
 30
0.0
 10
12.17552982
 20
8.6909251086
 30
0.0
 10
12.1755989921
 20
8.6906873074
 30
0.0
 10
12.1756462983
 20
8.6904841681
 30
0.0
 10
12.1757110845
 20
8.6903757828
 30
0.0
 10
12.1757913688
 20
8.6901982177
 30
0.0
 10
12.1759347072
 20
8.6899028781
 30
0.0
 10
12.1761379911
 20
8.6894729135
 30
0.0
 10
12.1763825676
 20
8.688960402
 30
0.0
 10
12.1767084474
 20
8.6882758497
 30
0.0
 10
12.1771158733
 20
8.6874205714
 30
0.0
 10
12.1777677121
 20
8.6860518958
 30
0.0
 10
12.1785825253
 20
8.6843411309
 30
0.0
 10
12.1795602946
 20
8.6822881765
 30
0.0
 10
12.1805380669
 20
8.6802352405
 30
0.0
 10
12.1813528724
 20
8.6785244296
 30
0.0
 10
12.1820047267
 20
8.677155846
 30
0.0
 10
12.1824121132
 20
8.6763003339
 30
0.0
 10
12.1827380739
 20
8.6756162615
 30
0.0
 10
12.1829824033
 20
8.6751022838
 30
0.0
 10
12.1831864602
 20
8.6746769064
 30
0.0
 10
12.1833284187
 20
8.6743733779
 30
0.0
 10
12.1834109139
 20
8.6742089335
 30
0.0
 10
12.183468909
 20
8.6740602458
 30
0.0
 10
12.1835417214
 20
8.6740084754
 30
0.0
 10
12.1836336361
 20
8.6739056424
 30
0.0
 10
12.183796895
 20
8.6737414354
 30
0.0
 10
12.1840288631
 20
8.6734986192
 30
0.0
 10
12.1843077636
 20
8.6732107645
 30
0.0
 10
12.1846794427
 20
8.6728257272
 30
0.0
 10
12.1851441061
 20
8.6723448521
 30
0.0
 10
12.1858875314
 20
8.6715752163
 30
0.0
 10
12.1868168255
 20
8.6706132522
 30
0.0
 10
12.1879319731
 20
8.6694588613
 30
0.0
 10
12.1888612638
 20
8.6684968747
 30
0.0
 10
12.1896046965
 20
8.6677272886
 30
0.0
 10
12.1901622698
 20
8.6671500859
 30
0.0
 10
12.1907198482
 20
8.666572934
 30
0.0
 10
12.1911844809
 20
8.6660918158
 30
0.0
 10
12.1915562228
 20
8.6657072758
 30
0.0
 10
12.1918349317
 20
8.6654179021
 30
0.0
 10
12.1920674993
 20
8.6651798384
 30
0.0
 10
12.1922296878
 20
8.6650071475
 30
0.0
 10
12.1923233176
 20
8.6649179078
 30
0.0
 10
12.1923908621
 20
8.664824383
 30
0.0
 10
12.1924686425
 20
8.664832518
 30
0.0
 10
12.1925687794
 20
8.6648079046
 30
0.0
 10
12.1927456825
 20
8.6647813527
 30
0.0
 10
12.1929975314
 20
8.6647347837
 30
0.0
 10
12.1933001224
 20
8.6646825981
 30
0.0
 10
12.1937034471
 20
8.6646117259
 30
0.0
 10
12.1942076475
 20
8.6645235788
 30
0.0
 10
12.1948126689
 20
8.6644176123
 30
0.0
 10
12.1954176954
 20
8.6643116966
 30
0.0
 10
12.1962243956
 20
8.6641704579
 30
0.0
 10
12.1972327716
 20
8.6639939162
 30
0.0
 10
12.1982411471
 20
8.6638173699
 30
0.0
 10
12.1990478479
 20
8.6636761384
 30
0.0
 10
12.1996528725
 20
8.663570201
 30
0.0
 10
12.200257901
 20
8.663464316
 30
0.0
 10
12.2007620794
 20
8.6633759152
 30
0.0
 10
12.201165449
 20
8.6633055603
 30
0.0
 10
12.2014679028
 20
8.6632517949
 30
0.0
 10
12.2017201811
 20
8.6632101688
 30
0.0
 10
12.2018963176
 20
8.6631747931
 30
0.0
 10
12.2019976827
 20
8.6631643176
 30
0.0
 10
12.2020716906
 20
8.6631290256
 30
0.0
 10
12.2021534043
 20
8.6631986056
 30
0.0
 10
12.202259668
 20
8.6632547985
 30
0.0
 10
12.2024468818
 20
8.6633701796
 30
0.0
 10
12.2027136754
 20
8.6635260992
 30
0.0
 10
12.203034108
 20
8.6637170167
 30
0.0
 10
12.2034612535
 20
8.6639702411
 30
0.0
 10
12.203995219
 20
8.6642872288
 30
0.0
 10
12.2046359632
 20
8.664667418
 30
0.0
 10
12.2052767112
 20
8.6650476597
 30
0.0
 10
12.2061310406
 20
8.6655546303
 30
0.0
 10
12.2071989528
 20
8.6661883498
 30
0.0
 10
12.2084804472
 20
8.6669488105
 30
0.0
 10
12.2101891065
 20
8.667962759
 30
0.0
 10
12.2114706009
 20
8.6687232202
 30
0.0
 10
12.2123249306
 20
8.6692301944
 30
0.0
  0
SPLINE
  5
3C7
100
AcDbEntity
  8
0
100
AcDbSpline
 62
4
  6
CONTINUOUS
 70
0
 71
3
 72
289
 73
285
 74
0
 42
0.0000001
 43
0.0000001
 44
0.0000000001
 40
0.0
 40
0.0
 40
0.0
 40
0.0
 40
0.015625
 40
0.0234375
 40
0.03125
 40
0.0390625
 40
0.046875
 40
0.05078125
 40
0.0546875
 40
0.056640625
 40
0.05859375
 40
0.060546875
 40
0.0615234375
 40
0.0620117188
 40
0.0625
 40
0.0629882812
 40
0.0634765625
 40
0.064453125
 40
0.06640625
 40
0.068359375
 40
0.0703125
 40
0.07421875
 40
0.078125
 40
0.0859375
 40
0.09375
 40
0.1015625
 40
0.109375
 40
0.11328125
 40
0.1171875
 40
0.119140625
 40
0.12109375
 40
0.123046875
 40
0.1240234375
 40
0.1245117188
 40
0.125
 40
0.1254882812
 40
0.1259765625
 40
0.126953125
 40
0.12890625
 40
0.130859375
 40
0.1328125
 40
0.13671875
 40
0.140625
 40
0.1484375
 40
0.15625
 40
0.1640625
 40
0.171875
 40
0.17578125
 40
0.1796875
 40
0.181640625
 40
0.18359375
 40
0.185546875
 40
0.1865234375
 40
0.1870117188
 40
0.1875
 40
0.1879882812
 40
0.1884765625
 40
0.189453125
 40
0.19140625
 40
0.193359375
 40
0.1953125
 40
0.19921875
 40
0.203125
 40
0.2109375
 40
0.21875
 40
0.2265625
 40
0.234375
 40
0.23828125
 40
0.2421875
 40
0.24609375
 40
0.248046875
 40
0.2490234375
 40
0.25
 40
0.2509765625
 40
0.251953125
 40
0.25390625
 40
0.2578125
 40
0.26171875
 40
0.265625
 40
0.2734375
 40
0.28125
 40
0.2890625
 40
0.296875
 40
0.30078125
 40
0.3046875
 40
0.30859375
 40
0.310546875
 40
0.3115234375
 40
0.3125
 40
0.3134765625
 40
0.314453125
 40
0.31640625
 40
0.3203125
 40
0.32421875
 40
0.328125
 40
0.3359375
 40
0.34375
 40
0.3515625
 40
0.359375
 40
0.36328125
 40
0.3671875
 40
0.37109375
 40
0.373046875
 40
0.3740234375
 40
0.375
 40
0.3759765625
 40
0.376953125
 40
0.37890625
 40
0.3828125
 40
0.38671875
 40
0.390625
 40
0.3984375
 40
0.40625
 40
0.4140625
 40
0.421875
 40
0.4296875
 40
0.43359375
 40
0.435546875
 40
0.4375
 40
0.439453125
 40
0.44140625
 40
0.4453125
 40
0.453125
 40
0.4609375
 40
0.46875
 40
0.4765625
 40
0.484375
 40
0.48828125
 40
0.4921875
 40
0.49609375
 40
0.498046875
 40
0.4990234375
 40
0.5
 40
0.5009765625
 40
0.501953125
 40
0.50390625
 40
0.5078125
 40
0.51171875
 40
0.515625
 40
0.5234375
 40
0.53125
 40
0.5390625
 40
0.546875
 40
0.55078125
 40
0.5546875
 40
0.55859375
 40
0.560546875
 40
0.5615234375
 40
0.5625
 40
0.5634765625
 40
0.564453125
 40
0.56640625
 40
0.5703125
 40
0.57421875
 40
0.578125
 40
0.5859375
 40
0.59375
 40
0.6015625
 40
0.609375
 40
0.61328125
 40
0.6171875
 40
0.619140625
 40
0.62109375
 40
0.623046875
 40
0.6240234375
 40
0.6245117188
 40
0.625
 40
0.6254882812
 40
0.6259765625
 40
0.626953125
 40
0.62890625
 40
0.630859375
 40
0.6328125
 40
0.63671875
 40
0.640625
 40
0.6484375
 40
0.65625
 40
0.6640625
 40
0.671875
 40
0.67578125
 40
0.6796875
 40
0.681640625
 40
0.68359375
 40
0.685546875
 40
0.6865234375
 40
0.6870117188
 40
0.6875
 40
0.6879882812
 40
0.6884765625
 40
0.689453125
 40
0.69140625
 40
0.693359375
 40
0.6953125
 40
0.69921875
 40
0.703125
 40
0.7109375
 40
0.71875
 40
0.7265625
 40
0.734375
 40
0.73828125
 40
0.7421875
 40
0.744140625
 40
0.74609375
 40
0.748046875
 40
0.7490234375
 40
0.7495117188
 40
0.75
 40
0.7504882812
 40
0.7509765625
 40
0.751953125
 40
0.75390625
 40
0.755859375
 40
0.7578125
 40
0.76171875
 40
0.765625
 40
0.7734375
 40
0.78125
 40
0.7890625
 40
0.796875
 40
0.80078125
 40
0.8046875
 40
0.806640625
 40
0.80859375
 40
0.810546875
 40
0.8115234375
 40
0.8120117188
 40
0.8125
 40
0.8129882812
 40
0.8134765625
 40
0.814453125
 40
0.81640625
 40
0.818359375
 40
0.8203125
 40
0.82421875
 40
0.828125
 40
0.8359375
 40
0.84375
 40
0.8515625
 40
0.85546875
 40
0.859375
 40
0.86328125
 40
0.8671875
 40
0.869140625
 40
0.87109375
 40
0.873046875
 40
0.8740234375
 40
0.8745117188
 40
0.875
 40
0.8754882812
 40
0.8759765625
 40
0.876953125
 40
0.87890625
 40
0.880859375
 40
0.8828125
 40
0.88671875
 40
0.890625
 40
0.89453125
 40
0.8984375
 40
0.90625
 40
0.9140625
 40
0.91796875
 40
0.921875
 40
0.92578125
 40
0.9296875
 40
0.931640625
 40
0.93359375
 40
0.935546875
 40
0.9365234375
 40
0.9370117188
 40
0.9375
 40
0.9379882812
 40
0.9384765625
 40
0.939453125
 40
0.94140625
 40
0.943359375
 40
0.9453125
 40
0.94921875
 40
0.953125
 40
0.95703125
 40
0.9609375
 40
0.96875
 40
0.9765625
 40
0.984375
 40
1.0
 40
1.0
 40
1.0
 40
1.0
 10
12.212324926
 20
8.66923019
 30
0.0
 10
12.2131644602
 20
8.6703483295
 30
0.0
 10
12.2144237614
 20
8.6720255384
 30
0.0
 10
12.2161028297
 20
8.6742618179
 30
0.0
 10
12.2173621311
 20
8.6759390252
 30
0.0
 10
12.2186214319
 20
8.6776162413
 30
0.0
 10
12.2196708508
 20
8.6790138939
 30
0.0
 10
12.2205103825
 20
8.6801320777
 30
0.0
 10
12.2210350977
 20
8.680830802
 30
0.0
 10
12.2214548518
 20
8.6813901033
 30
0.0
 10
12.2217697167
 20
8.681808698
 30
0.0
 10
12.2220319473
 20
8.6821603307
 30
0.0
 10
12.2222158164
 20
8.6824009711
 30
0.0
 10
12.2223204041
 20
8.6825470715
 30
0.0
 10
12.2224001982
 20
8.6826324441
 30
0.0
 10
12.2224748188
 20
8.6828103321
 30
0.0
 10
12.2225761175
 20
8.6830152457
 30
0.0
 10
12.2227525495
 20
8.6833888799
 30
0.0
 10
12.2230050347
 20
8.6839147824
 30
0.0
 10
12.2233078289
 20
8.68454923
 30
0.0
 10
12.2237116201
 20
8.685393985
 30
0.0
 10
12.2242163367
 20
8.6864503311
 30
0.0
 10
12.2250238957
 20
8.6881402599
 30
0.0
 10
12.2260333402
 20
8.6902527485
 30
0.0
 10
12.2272446756
 20
8.6927876996
 30
0.0
 10
12.2284560096
 20
8.6953226675
 30
0.0
 10
12.2294654577
 20
8.6974351142
 30
0.0
 10
12.2302730094
 20
8.6991251268
 30
0.0
 10
12.2307777446
 20
8.7001812599
 30
0.0
 10
12.2311814975
 20
8.701026452
 30
0.0
 10
12.2314844089
 20
8.701659564
 30
0.0
 10
12.2317365274
 20
8.7021896455
 30
0.0
 10
12.231913614
 20
8.7025558195
 30
0.0
 10
12.2320138638
 20
8.7027726862
 30
0.0
 10
12.2320917064
 20
8.702913858
 30
0.0
 10
12.232159399
 20
8.7031371309
 30
0.0
 10
12.2322531963
 20
8.7034061903
 30
0.0
 10
12.2324156919
 20
8.7038903872
 30
0.0
 10
12.2326486908
 20
8.7045751211
 30
0.0
 10
12.2329279205
 20
8.7053997878
 30
0.0
 10
12.2333003556
 20
8.7064983004
 30
0.0
 10
12.2337658553
 20
8.7078717983
 30
0.0
 10
12.2345106796
 20
8.7100691953
 30
0.0
 10
12.2354417014
 20
8.7128160104
 30
0.0
 10
12.2365589315
 20
8.7161121572
 30
0.0
 10
12.2376761594
 20
8.7194083192
 30
0.0
 10
12.2386071867
 20
8.7221550963
 30
0.0
 10
12.2393519999
 20
8.7243525694
 30
0.0
 10
12.2398175279
 20
8.7257258737
 30
0.0
 10
12.240189905
 20
8.7268247838
 30
0.0
 10
12.2404693118
 20
8.727648236
 30
0.0
 10
12.2407017565
 20
8.7283367696
 30
0.0
 10
12.2408652416
 20
8.7288141836
 30
0.0
 10
12.2409574534
 20
8.7290941108
 30
0.0
 10
12.241030016
 20
8.7292840013
 30
0.0
 10
12.2410895676
 20
8.7295505519
 30
0.0
 10
12.2411735082
 20
8.7298792128
 30
0.0
 10
12.2413182897
 20
8.7304668281
 30
0.0
 10
12.2415262259
 20
8.7312997649
 30
0.0
 10
12.2417752761
 20
8.7323020771
 30
0.0
 10
12.2421075084
 20
8.7336375196
 30
0.0
 10
12.2425227422
 20
8.7353071562
 30
0.0
 10
12.243187148
 20
8.737978388
 30
0.0
 10
12.2440176431
 20
8.7413174944
 30
0.0
 10
12.2450142476
 20
8.7453243823
 30
0.0
 10
12.24601083
 20
8.7493313227
 30
0.0
 10
12.2468413806
 20
8.7526702976
 30
0.0
 10
12.2475056755
 20
8.7553417924
 30
0.0
 10
12.2480042942
 20
8.7573445543
 30
0.0
 10
12.2484185451
 20
8.7590162552
 30
0.0
 10
12.2487110027
 20
8.7601810831
 30
0.0
 10
12.248874246
 20
8.7608550724
 30
0.0
 10
12.2490075954
 20
8.7613369767
 30
0.0
 10
12.2490992147
 20
8.761909045
 30
0.0
 10
12.2492359296
 20
8.7626403524
 30
0.0
 10
12.2494683988
 20
8.7639347937
 30
0.0
 10
12.2498040434
 20
8.7657763347
 30
0.0
 10
12.2502052992
 20
8.767989463
 30
0.0
 10
12.2507408372
 20
8.770939155
 30
0.0
 10
12.2514100765
 20
8.7746266652
 30
0.0
 10
12.2522132477
 20
8.7790514995
 30
0.0
 10
12.2530163758
 20
8.7834764131
 30
0.0
 10
12.253685723
 20
8.787163725
 30
0.0
 10
12.2542210453
 20
8.7901138134
 30
0.0
 10
12.254622959
 20
8.792325733
 30
0.0
 10
12.2549565454
 20
8.7941710554
 30
0.0
 10
12.2551926888
 20
8.7954587462
 30
0.0
 10
12.2553235168
 20
8.7962008696
 30
0.0
 10
12.2554332187
 20
8.7967397149
 30
0.0
 10
12.2554986527
 20
8.797346399
 30
0.0
 10
12.2556013393
 20
8.7981316483
 30
0.0
 10
12.2557738464
 20
8.7995168595
 30
0.0
 10
12.2560240465
 20
8.8014899687
 30
0.0
 10
12.2563226766
 20
8.8038601669
 30
0.0
 10
12.2567214126
 20
8.8070195692
 30
0.0
 10
12.2572196382
 20
8.8109691188
 30
0.0
 10
12.2578175984
 20
8.8157084474
 30
0.0
 10
12.2584155118
 20
8.8204478246
 30
0.0
 10
12.2589138546
 20
8.8243972528
 30
0.0
 10
12.2593123562
 20
8.8275568978
 30
0.0
 10
12.2596117012
 20
8.829926356
 30
0.0
 10
12.2598596648
 20
8.8319017803
 30
0.0
 10
12.2600361644
 20
8.8332828586
 30
0.0
 10
12.260132454
 20
8.8340747299
 30
0.0
 10
12.2602175373
 20
8.8346610734
 30
0.0
 10
12.2602534399
 20
8.8352763146
 30
0.0
 10
12.2603184648
 20
8.8360865563
 30
0.0
 10
12.2604242656
 20
8.8375091757
 30
0.0
 10
12.2605795884
 20
8.8395390338
 30
0.0
 10
12.2607641867
 20
8.8419759145
 30
0.0
 10
12.2610109448
 20
8.8452247213
 30
0.0
 10
12.2613191618
 20
8.8492858581
 30
0.0
 10
12.261689189
 20
8.854159158
 30
0.0
 10
12.2620589179
 20
8.8590325096
 30
0.0
 10
12.262429673
 20
8.8639057189
 30
0.0
 10
12.2627354636
 20
8.8679671577
 30
0.0
 10
12.2629557292
 20
8.8708093219
 30
0.0
 10
12.2630718975
 20
8.8724347315
 30
0.0
 10
12.2631863419
 20
8.8736500824
 30
0.0
 10
12.2631963624
 20
8.8748796003
 30
0.0
 10
12.2632461474
 20
8.876514016
 30
0.0
 10
12.2633163
 20
8.8793765456
 30
0.0
 10
12.2634253925
 20
8.8834646704
 30
0.0
 10
12.2635524971
 20
8.8883709337
 30
0.0
 10
12.2636806284
 20
8.8932770681
 30
0.0
 10
12.263808459
 20
8.8981832044
 30
0.0
 10
12.2639151314
 20
8.9022717523
 30
0.0
 10
12.2640002671
 20
8.9055423474
 30
0.0
 10
12.2640646374
 20
8.9079959628
 30
0.0
 10
12.2641166353
 20
8.9100385134
 30
0.0
 10
12.2641562593
 20
8.9114724768
 30
0.0
 10
12.2641738655
 20
8.9122853609
 30
0.0
 10
12.2642012567
 20
8.9129134011
 30
0.0
 10
12.2641744198
 20
8.9134711944
 30
0.0
 10
12.2641575527
 20
8.9142394218
 30
0.0
 10
12.2641192222
 20
8.9155724033
 30
0.0
 10
12.2640690718
 20
8.9174826312
 30
0.0
 10
12.2640069192
 20
8.9197723499
 30
0.0
 10
12.2639247382
 20
8.9228262009
 30
0.0
 10
12.2638217739
 20
8.9266432057
 30
0.0
 10
12.2636983253
 20
8.9312237551
 30
0.0
 10
12.2635748233
 20
8.9358042246
 30
0.0
 10
12.2634719926
 20
8.9396214292
 30
0.0
 10
12.2633895445
 20
8.9426748806
 30
0.0
 10
12.2633282065
 20
8.9449658182
 30
0.0
 10
12.2632755077
 20
8.9468722327
 30
0.0
 10
12.2632417266
 20
8.9482120218
 30
0.0
 10
12.2632175701
 20
8.9489693417
 30
0.0
 10
12.2632131237
 20
8.9495606391
 30
0.0
 10
12.2631564202
 20
8.9500628439
 30
0.0
 10
12.2630990435
 20
8.9507635269
 30
0.0
 10
12.2629901415
 20
8.9519752429
 30
0.0
 10
12.2628390074
 20
8.9537138357
 30
0.0
 10
12.2626557458
 20
8.9557969069
 30
0.0
 10
12.2624120611
 20
8.958575467
 30
0.0
 10
12.2621072271
 20
8.9620482784
 30
0.0
 10
12.2617415247
 20
8.9662158202
 30
0.0
 10
12.2613757937
 20
8.9703833114
 30
0.0
 10
12.2610710312
 20
8.9738562493
 30
0.0
 10
12.2608272036
 20
8.9766345563
 30
0.0
 10
12.2606748488
 20
8.9783710922
 30
0.0
 10
12.2605528793
 20
8.9797601062
 30
0.0
 10
12.2604616368
 20
8.9808024543
 30
0.0
 10
12.260384855
 20
8.9816692087
 30
0.0
 10
12.2603325724
 20
8.9822796045
 30
0.0
 10
12.2603004097
 20
8.9826226753
 30
0.0
 10
12.2602827301
 20
8.9828961111
 30
0.0
 10
12.2602404244
 20
8.9831078793
 30
0.0
 10
12.2601926067
 20
8.9834117474
 30
0.0
 10
12.2601049236
 20
8.9839334943
 30
0.0
 10
12.2599817544
 20
8.9846840868
 30
0.0
 10
12.2598330557
 20
8.9855825549
 30
0.0
 10
12.2596351036
 20
8.9867812959
 30
0.0
 10
12.2593875564
 20
8.9882794538
 30
0.0
 10
12.2589915407
 20
8.9906766565
 30
0.0
 10
12.2584965004
 20
8.993673108
 30
0.0
 10
12.2579024615
 20
8.9972688737
 30
0.0
 10
12.257308418
 20
9.0008646266
 30
0.0
 10
12.2568133894
 20
9.0038611101
 30
0.0
 10
12.2564173504
 20
9.0062582488
 30
0.0
 10
12.2561698624
 20
9.0077565693
 30
0.0
 10
12.2559717888
 20
9.0089549765
 30
0.0
 10
12.2558234613
 20
9.0098544644
 30
0.0
 10
12.2556991305
 20
9.0106018662
 30
0.0
 10
12.255613521
 20
9.011129309
 30
0.0
 10
12.2555623809
 20
9.0114240509
 30
0.0
 10
12.2555302805
 20
9.0116638518
 30
0.0
 10
12.2554742717
 20
9.0118320014
 30
0.0
 10
12.2554079327
 20
9.0120811937
 30
0.0
 10
12.255287954
 20
9.0125056355
 30
0.0
 10
12.2551185872
 20
9.0131180689
 30
0.0
 10
12.2549144776
 20
9.0138503832
 30
0.0
 10
12.2546426352
 20
9.0148277124
 30
0.0
 10
12.2543027281
 20
9.0160490622
 30
0.0
 10
12.253758935
 20
9.0180033962
 30
0.0
 10
12.2530791735
 20
9.0204462534
 30
0.0
 10
12.2522634688
 20
9.0233777102
 30
0.0
 10
12.25144776
 20
9.0263091509
 30
0.0
 10
12.2507680085
 20
9.0287520481
 30
0.0
 10
12.2502241955
 20
9.0307063022
 30
0.0
 10
12.2498843389
 20
9.031927855
 30
0.0
 10
12.2496123928
 20
9.0329047676
 30
0.0
 10
12.2494085998
 20
9.0336383547
 30
0.0
 10
12.2492382425
 20
9.0342468056
 30
0.0
 10
12.2491200321
 20
9.0346783569
 30
0.0
 10
12.2490508599
 20
9.0349161581
 30
0.0
 10
12.2490035537
 20
9.0351192974
 30
0.0
 10
12.2489387676
 20
9.0352276827
 30
0.0
 10
12.2488584832
 20
9.0354052478
 30
0.0
 10
12.2487151448
 20
9.0357005874
 30
0.0
 10
12.2485118609
 20
9.036130552
 30
0.0
 10
12.2482672845
 20
9.0366430635
 30
0.0
 10
12.2479414046
 20
9.0373276158
 30
0.0
 10
12.2475339788
 20
9.0381828941
 30
0.0
 10
12.2468821399
 20
9.0395515697
 30
0.0
 10
12.2460673267
 20
9.0412623347
 30
0.0
 10
12.2450895575
 20
9.043315289
 30
0.0
 10
12.2441117851
 20
9.045368225
 30
0.0
 10
12.2432969797
 20
9.0470790359
 30
0.0
 10
12.2426451253
 20
9.0484476195
 30
0.0
 10
12.2422377389
 20
9.0493031316
 30
0.0
 10
12.2419117781
 20
9.049987204
 30
0.0
 10
12.2416674488
 20
9.0505011817
 30
0.0
 10
12.2414633919
 20
9.0509265591
 30
0.0
 10
12.2413214334
 20
9.0512300876
 30
0.0
 10
12.2412389381
 20
9.051394532
 30
0.0
 10
12.2411809431
 20
9.0515432197
 30
0.0
 10
12.2411081307
 20
9.0515949901
 30
0.0
 10
12.2410162159
 20
9.0516978231
 30
0.0
 10
12.240852957
 20
9.0518620302
 30
0.0
 10
12.240620989
 20
9.0521048463
 30
0.0
 10
12.2403420885
 20
9.052392701
 30
0.0
 10
12.2399704093
 20
9.0527777383
 30
0.0
 10
12.239505746
 20
9.0532586135
 30
0.0
 10
12.2387623206
 20
9.0540282493
 30
0.0
 10
12.2378330266
 20
9.0549902133
 30
0.0
 10
12.236717879
 20
9.0561446042
 30
0.0
 10
12.2357885883
 20
9.0571065908
 30
0.0
 10
12.2350451555
 20
9.0578761769
 30
0.0
 10
12.2344875822
 20
9.0584533796
 30
0.0
 10
12.2339300038
 20
9.0590305315
 30
0.0
 10
12.2334653711
 20
9.0595116497
 30
0.0
 10
12.2330936293
 20
9.0598961898
 30
0.0
 10
12.2328149204
 20
9.0601855634
 30
0.0
 10
12.2325823528
 20
9.0604236271
 30
0.0
 10
12.2324201642
 20
9.060596318
 30
0.0
 10
12.2323265345
 20
9.0606855577
 30
0.0
 10
12.23225899
 20
9.0607790825
 30
0.0
 10
12.2321812095
 20
9.0607709475
 30
0.0
 10
12.2320810726
 20
9.0607955609
 30
0.0
 10
12.2319041696
 20
9.0608221128
 30
0.0
 10
12.2316523206
 20
9.0608686818
 30
0.0
 10
12.2313497296
 20
9.0609208674
 30
0.0
 10
12.230946405
 20
9.0609917396
 30
0.0
 10
12.2304422045
 20
9.0610798867
 30
0.0
 10
12.2298371831
 20
9.0611858532
 30
0.0
 10
12.2292321566
 20
9.0612917689
 30
0.0
 10
12.2284254564
 20
9.0614330076
 30
0.0
 10
12.2274170805
 20
9.0616095493
 30
0.0
 10
12.226408705
 20
9.0617860956
 30
0.0
 10
12.2256020041
 20
9.0619273271
 30
0.0
 10
12.2249969795
 20
9.0620332645
 30
0.0
 10
12.224391951
 20
9.0621391495
 30
0.0
 10
12.2238877726
 20
9.0622275503
 30
0.0
 10
12.2234844031
 20
9.0622979052
 30
0.0
 10
12.2231819493
 20
9.0623516706
 30
0.0
 10
12.2229296709
 20
9.0623932967
 30
0.0
 10
12.2227535344
 20
9.0624286724
 30
0.0
 10
12.2226521693
 20
9.0624391479
 30
0.0
 10
12.2225781614
 20
9.06247444
 30
0.0
 10
12.2224964478
 20
9.0624048599
 30
0.0
 10
12.222390184
 20
9.062348667
 30
0.0
 10
12.2222029702
 20
9.0622332859
 30
0.0
 10
12.2219361766
 20
9.0620773663
 30
0.0
 10
12.2216157441
 20
9.0618864488
 30
0.0
 10
12.2211885985
 20
9.0616332244
 30
0.0
 10
12.2206546331
 20
9.0613162367
 30
0.0
 10
12.2200138889
 20
9.0609360475
 30
0.0
 10
12.2193731408
 20
9.0605558058
 30
0.0
 10
12.2185188115
 20
9.0600488352
 30
0.0
 10
12.2174508993
 20
9.0594151157
 30
0.0
 10
12.2161694049
 20
9.058654655
 30
0.0
 10
12.2144607456
 20
9.0576407065
 30
0.0
 10
12.2131792511
 20
9.0568802453
 30
0.0
 10
12.2123249215
 20
9.0563732711
 30
0.0
  0
ELLIPSE
  5
3C8
100
AcDbEntity
  8
0
100
AcDbEllipse
 62
7
  6
CONTINUOUS
 10
11.137519071
 20
9.5074074401
 30
0.0
 11
0.0826981549
 21
-0.0243039721
 31
0.0
 40
0.8653115208
 41
0.0
 42
6.2831853072
  0
ENDSEC
  0
SECTION
  2
OBJECTS
  0
DICTIONARY
  5
C
100
AcDbDictionary
280
0
281
1
  3
ACAD_GROUP
350
D
  3
ACAD_MLINESTYLE
350
17
  3
ACAD_LAYOUT
350
1A
  3
ACAD_PLOTSETTINGS
350
19
  3
ACAD_PLOTSTYLENAME
350
E
  3
ACAD_IMAGE_DICT
350
       3CA
  3
ACAD_IMAGE_VARS
350
       3CB
  3
ACAD_TABLESTYLE
350
       3CC
  0
IMAGEDEF_REACTOR
  5
3C9
100
AcDbRasterImageDefReactor
 90
2
330
26F
  0
DICTIONARY
  5
D
102
{ACAD_REACTORS
330
C
102
}
100
AcDbDictionary
280
0
281
1
  0
ACDBDICTIONARYWDFLT
  5
E
102
{ACAD_REACTORS
330
C
102
}
100
AcDbDictionary
281
1
  3
Normal
350
F
100
AcDbDictionaryWithDefault
340
F
  0
DICTIONARY
  5
3CA
330
C
100
AcDbDictionary
281
1
  3
CJ5_assy_2_img_1
350
       3CF
  0
RASTERVARIABLES
  5
3CB
330
C
100
AcDbRasterVariables
 90
0
 70
0
 71
1
 72
5
  0
DICTIONARY
  5
17
102
{ACAD_REACTORS
330
C
102
}
100
AcDbDictionary
280
0
281
1
  3
Standard
350
18
  0
DICTIONARY
  5
3CC
330
C
100
AcDbDictionary
281
1
  3
Standard
350
       3D0
  3
Standard1
350
       3D1
  0
DICTIONARY
  5
19
102
{ACAD_REACTORS
330
C
102
}
100
AcDbDictionary
281
1
  0
DICTIONARY
  5
1A
102
{ACAD_REACTORS
330
C
102
}
100
AcDbDictionary
281
1
  3
Model
350
3CD
  3
Layout1
350
3CE
  0
ACDBPLACEHOLDER
  5
F
102
{ACAD_REACTORS
330
E
102
}
  0
MLINESTYLE
  5
18
102
{ACAD_REACTORS
330
17
102
}
100
AcDbMlineStyle
  2
STANDARD
 70
0
  3

 62
256
 51
90.0
 52
90.0
 71
2
 49
0.5
 62
256
  6
BYLAYER
 49
-0.5
 62
256
  6
BYLAYER
  0
LAYOUT
  5
3CD
102
{ACAD_REACTORS
330
1A
102
}
100
AcDbPlotSettings
  1

  2
none_device
  4
ANSI_C_(22.00_x_17.00_Inches)
  6

 40
0.0
 41
0.0
 42
0.0
 43
0.0
 44
558.8
 45
431.8
 46
0.0
 47
0.0
 48
0.0
 49
0.0
140
0.0
141
0.0
142
1.0
143
1.0
 70
1024
 72
0
 73
0
 74
0
  7

 75
0
147
1.0
148
0.0
149
0.0
100
AcDbLayout
  1
Model
 70
0
 71
0
 10
0.0
 20
0.0
 11
22.0
 21
17.0
 12
0.0
 22
0.0
 32
0.0
 14
0.0
 24
0.0
 34
0.0
 15
0.0
 25
0.0
 35
0.0
146
0.0
 13
0.0
 23
0.0
 33
0.0
 16
1.0
 26
0.0
 36
0.0
 17
0.0
 27
1.0
 37
0.0
 76
0
330
20C
345
0
346
0
  0
LAYOUT
  5
3CE
102
{ACAD_REACTORS
330
1A
102
}
100
AcDbPlotSettings
  1

  2
none_device
  4
ANSI_C_(22.00_x_17.00_Inches)
  6

 40
0.0
 41
0.0
 42
0.0
 43
0.0
 44
558.8
 45
431.8
 46
0.0
 47
0.0
 48
0.0
 49
0.0
140
0.0
141
0.0
142
1.0
143
1.0
 70
0
 72
0
 73
0
 74
0
  7

 75
0
147
1.0
148
0.0
149
0.0
100
AcDbLayout
  1
Layout1
 70
0
 71
1
 10
0.0
 20
0.0
 11
22.0
 21
17.0
 12
0.0
 22
0.0
 32
0.0
 14
0.0
 24
0.0
 34
0.0
 15
0.0
 25
0.0
 35
0.0
146
0.0
 13
0.0
 23
0.0
 33
0.0
 16
1.0
 26
0.0
 36
0.0
 17
0.0
 27
1.0
 37
0.0
 76
0
330
20D
345
0
346
0
  0
IMAGEDEF
  5
3CF
102
{ACAD_REACTORS
330
3CA
330
3C9
102
}
100
AcDbRasterImageDef
 90
0
  1
CJ5_assy_2_img_1.png
 10
369.0
 20
92.0
 11
0.0066666667
 21
0.0066666667
280
1
281
0
  0
TABLESTYLE
  5
3D0
102
{ACAD_REACTORS
330
3CC
330
272
102
}
330
3CC
100
AcDbTableStyle
  3
Standard
 70
0
 71
0
 40
0.06
 41
0.06
280
1
281
1
  7
Standard
140
0.18
170
1
 62
0
 63
7
283
0
  7
Standard
140
0.18
170
1
 62
0
 63
7
283
0
  7
Standard
140
0.18
170
1
 62
0
 63
7
283
0
  0
TABLESTYLE
  5
3D1
102
{ACAD_REACTORS
330
3CC
330
271
102
}
330
3CC
100
AcDbTableStyle
  3
Standard1
 70
1
 71
0
 40
0.06
 41
0.06
280
1
281
1
  7
Standard
140
0.18
170
1
 62
0
 63
7
283
0
  7
Standard
140
0.18
170
1
 62
0
 63
7
283
0
  7
Standard
140
0.18
170
1
 62
0
 63
7
283
0
  0
ENDSEC
  0
EOF
