999
DXF file: CJ2_assy_2.dxf
999
Pro/ENGINEER 2014200 by Parametric Technology Corporation
  0
SECTION
  2
HEADER
  9
$ACADVER
  1
AC1021
  9
$DWGCODEPAGE
  3
ANSI_1252
  9
$EXTMAX
 10
22.0
 20
17.0
 30
0.0
  9
$EXTMIN
 10
0.0
 20
0.0
 30
0.0
  9
$LIMMIN
 10
0.0
 20
0.0
  9
$LIMMAX
 10
22.0
 20
17.0
  9
$VIEWCTR
 10
11.0
 20
8.5
  9
$VIEWSIZE
 40
17.0
  9
$CLAYER
  8
0
  9
$LTSCALE
 40
1.21
  9
$CELTYPE
  6
BYLAYER
  9
$DIMSCALE
 40
1.0
  9
$DIMASZ
 40
0.1875
  9
$DIMEXO
 40
0.0625
  9
$DIMDLI
 40
0.836
  9
$DIMEXE
 40
0.125
  9
$DIMCEN
 40
0.198
  9
$DIMLFAC
 40
1.0
  9
$DIMBLK
  1
_FILLED
  9
$DIMTXT
 40
0.1
  9
$DIMTOL
 70
0
  9
$DIMLIM
 70
0
  9
$DIMTFAC
 40
1.0
  9
$DIMGAP
 40
0.09
  9
$DIMDSEP
 70
46
  9
$AUNITS
 70
0
  9
$PDMODE
 70
3
  9
$PDSIZE
 40
0.3125
  9
$HANDSEED
  5
3BE
  9
$TILEMODE
 70
1
  9
$MEASUREMENT
 70
0
  9
$INSUNITS
 70
1
  0
ENDSEC
  0
SECTION
  2
CLASSES
  0
CLASS
  1
ACDBDICTIONARYWDFLT
  2
AcDbDictionaryWithDefault
  3
AutoCAD 2000
 90
0
 91
1
280
0
281
0
  0
CLASS
  1
ACDBPLACEHOLDER
  2
AcDbPlaceHolder
  3
AutoCAD 2000
 90
0
 91
1
280
0
281
0
  0
CLASS
  1
LAYOUT
  2
AcDbLayout
  3
AutoCAD 2000
 90
0
 91
0
280
0
281
0
  0
CLASS
  1
RASTERVARIABLES
  2
AcDbRasterVariables
  3
ISM
 90
0
 91
1
280
0
281
0
  0
CLASS
  1
IMAGEDEF
  2
AcDbRasterImageDef
  3
ISM
 90
0
 91
1
280
0
281
0
  0
CLASS
  1
IMAGEDEF_REACTOR
  2
AcDbRasterImageDefReactor
  3
ISM
 90
0
 91
1
280
0
281
0
  0
CLASS
  1
IMAGE
  2
AcDbRasterImage
  3
ISM
 90
127
 91
1
280
0
281
1
  0
CLASS
  1
TABLESTYLE
  2
AcDbTableStyle
  3
ObjectDBX Classes
 90
2047
 91
1
280
0
281
0
  0
CLASS
  1
ACAD_TABLE
  2
AcDbTable
  3
ObjectDBX Classes
 90
1025
 91
2
280
0
281
1
  0
ENDSEC
  0
SECTION
  2
TABLES
  0
TABLE
  2
VPORT
  5
8
100
AcDbSymbolTable
 70
2
  0
VPORT
  5
1F4
100
AcDbSymbolTableRecord
100
AcDbViewportTableRecord
  2
*ACTIVE
 70
0
 10
0.0
 20
0.0
 11
1.0
 21
1.0
 12
11.0
 22
8.5
 13
0.0
 23
0.0
 14
1.0
 24
1.0
 15
0.0
 25
0.0
 16
0.0
 26
0.0
 36
1.0
 17
0.0
 27
0.0
 37
0.0
 40
17.0
 41
1.2941176471
 42
50.0
 43
0.0
 44
0.0
 50
0.0
 51
0.0
 71
0
 72
100
 73
1
 74
1
 75
0
 76
0
 77
0
 78
0
  0
ENDTAB
  0
TABLE
  2
LTYPE
  5
5
100
AcDbSymbolTable
 70
6
  0
LTYPE
  5
14
100
AcDbSymbolTableRecord
100
AcDbLinetypeTableRecord
  2
BYBLOCK
 70
0
  3

 72
65
 73
0
 40
0.0
  0
LTYPE
  5
15
100
AcDbSymbolTableRecord
100
AcDbLinetypeTableRecord
  2
BYLAYER
 70
0
  3

 72
65
 73
0
 40
0.0
  0
LTYPE
  5
16
100
AcDbSymbolTableRecord
100
AcDbLinetypeTableRecord
  2
CONTINUOUS
 70
64
  3
Solid line
 72
65
 73
0
 40
0.0
  0
LTYPE
  5
1F5
100
AcDbSymbolTableRecord
100
AcDbLinetypeTableRecord
  2
CENTER
 70
64
  3
____ _ ____ _ ____ _ ____ _ ____ _ ____ _ ____
 72
65
 73
4
 40
0.6
 49
0.375
 74
0
 49
-0.075
 74
0
 49
0.075
 74
0
 49
-0.075
 74
0
  0
LTYPE
  5
1F6
100
AcDbSymbolTableRecord
100
AcDbLinetypeTableRecord
  2
HIDDEN
 70
64
  3
- - - - - - - - - - - - - - - - - - - -
 72
65
 73
2
 40
0.2
 49
0.1
 74
0
 49
-0.1
 74
0
  0
LTYPE
  5
1F7
100
AcDbSymbolTableRecord
100
AcDbLinetypeTableRecord
  2
PHANTOM
 70
64
  3
_____ _ _ _____ _ _ _____ _ _ _____
 72
65
 73
6
 40
0.8
 49
0.45
 74
0
 49
-0.05
 74
0
 49
0.1
 74
0
 49
-0.05
 74
0
 49
0.1
 74
0
 49
-0.05
 74
0
  0
LTYPE
  5
1F8
100
AcDbSymbolTableRecord
100
AcDbLinetypeTableRecord
  2
DOT
 70
64
  3
. . . . . . . . . . . . . . . . . . . .
 72
65
 73
2
 40
0.2
 49
0.1
 74
0
 49
-0.1
 74
0
  0
LTYPE
  5
1F9
100
AcDbSymbolTableRecord
100
AcDbLinetypeTableRecord
  2
DASHED
 70
64
  3
- - - - - - - - - - - - - - - - - - - -
 72
65
 73
2
 40
0.2
 49
0.1
 74
0
 49
-0.1
 74
0
  0
ENDTAB
  0
TABLE
  2
LAYER
  5
2
100
AcDbSymbolTable
 70
36
  0
LAYER
  5
10
100
AcDbSymbolTableRecord
100
AcDbLayerTableRecord
  2
0
 70
0
 62
7
  6
CONTINUOUS
370
-3
390
F
  0
LAYER
  5
1FA
100
AcDbSymbolTableRecord
100
AcDbLayerTableRecord
  2
DEFAULT_1
 70
0
 62
7
  6
CENTER
370
-3
390
F
  0
LAYER
  5
1FB
100
AcDbSymbolTableRecord
100
AcDbLayerTableRecord
  2
DEFAULT_2
 70
0
 62
8
  6
HIDDEN
370
-3
390
F
  0
LAYER
  5
1FC
100
AcDbSymbolTableRecord
100
AcDbLayerTableRecord
  2
DEFAULT_3
 70
0
 62
7
  6
PHANTOM
370
-3
390
F
  0
LAYER
  5
1FD
100
AcDbSymbolTableRecord
100
AcDbLayerTableRecord
  2
01___PRT_ALL_DTM_PLN
 70
0
 62
7
  6
CONTINUOUS
370
-3
390
F
  0
LAYER
  5
1FE
100
AcDbSymbolTableRecord
100
AcDbLayerTableRecord
  2
01___PRT_DEF_DTM_PLN
 70
0
 62
7
  6
CONTINUOUS
370
-3
390
F
  0
LAYER
  5
1FF
100
AcDbSymbolTableRecord
100
AcDbLayerTableRecord
  2
02___PRT_ALL_AXES
 70
0
 62
7
  6
CONTINUOUS
370
-3
390
F
  0
LAYER
  5
200
100
AcDbSymbolTableRecord
100
AcDbLayerTableRecord
  2
03___PRT_ALL_CURVES
 70
0
 62
7
  6
CONTINUOUS
370
-3
390
F
  0
LAYER
  5
201
100
AcDbSymbolTableRecord
100
AcDbLayerTableRecord
  2
04___PRT_ALL_DTM_PNT
 70
0
 62
7
  6
CONTINUOUS
370
-3
390
F
  0
LAYER
  5
202
100
AcDbSymbolTableRecord
100
AcDbLayerTableRecord
  2
05___PRT_ALL_DTM_CSYS
 70
0
 62
7
  6
CONTINUOUS
370
-3
390
F
  0
LAYER
  5
203
100
AcDbSymbolTableRecord
100
AcDbLayerTableRecord
  2
05___PRT_DEF_DTM_CSYS
 70
0
 62
7
  6
CONTINUOUS
370
-3
390
F
  0
LAYER
  5
204
100
AcDbSymbolTableRecord
100
AcDbLayerTableRecord
  2
06___PRT_ALL_SURFS
 70
0
 62
7
  6
CONTINUOUS
370
-3
390
F
  0
LAYER
  5
205
100
AcDbSymbolTableRecord
100
AcDbLayerTableRecord
  2
DATUM_PLANES
 70
0
 62
7
  6
CONTINUOUS
370
-3
390
F
  0
LAYER
  5
206
100
AcDbSymbolTableRecord
100
AcDbLayerTableRecord
  2
PORT_AREAS
 70
0
 62
7
  6
CONTINUOUS
370
-3
390
F
  0
LAYER
  5
207
100
AcDbSymbolTableRecord
100
AcDbLayerTableRecord
  2
SUNNBOMCOSMETIC
 70
0
 62
7
  6
CONTINUOUS
370
-3
390
F
  0
LAYER
  5
208
100
AcDbSymbolTableRecord
100
AcDbLayerTableRecord
  2
SUNNBOMSTAMPING
 70
0
 62
7
  6
CONTINUOUS
370
-3
390
F
  0
LAYER
  5
209
100
AcDbSymbolTableRecord
100
AcDbLayerTableRecord
  2
THREADS
 70
0
 62
7
  6
CONTINUOUS
370
-3
390
F
  0
ENDTAB
  0
TABLE
  2
STYLE
  5
3
100
AcDbSymbolTable
 70
1
  0
STYLE
  5
11
100
AcDbSymbolTableRecord
100
AcDbTextStyleTableRecord
  2
STANDARD
 70
0
 40
0.0
 41
0.8
 50
0.0
 71
0
 42
0.2
  3
txt
  4

  0
STYLE
  5
20A
100
AcDbSymbolTableRecord
100
AcDbTextStyleTableRecord
  2
TEXTSTYLE_1
 70
0
 40
0.0
 41
0.8
 50
0.0
 71
0
 42
0.2
  3
gdt
  4

  0
ENDTAB
  0
TABLE
  2
VIEW
  5
6
100
AcDbSymbolTable
 70
0
  0
ENDTAB
  0
TABLE
  2
UCS
  5
7
100
AcDbSymbolTable
 70
0
  0
ENDTAB
  0
TABLE
  2
APPID
  5
9
100
AcDbSymbolTable
 70
1
  0
APPID
  5
20B
100
AcDbSymbolTableRecord
100
AcDbRegAppTableRecord
  2
ACAD
 70
0
  0
ENDTAB
  0
TABLE
  2
BLOCK_RECORD
  5
1
100
AcDbSymbolTable
 70
0
  0
BLOCK_RECORD
  5
20C
100
AcDbSymbolTableRecord
100
AcDbBlockTableRecord
  2
*Model_Space
  0
BLOCK_RECORD
  5
20D
100
AcDbSymbolTableRecord
100
AcDbBlockTableRecord
  2
*Paper_Space
  0
BLOCK_RECORD
  5
20E
100
AcDbSymbolTableRecord
100
AcDbBlockTableRecord
  2
SUN_FIRST_THIRD_ANGLE_BL0
  0
BLOCK_RECORD
  5
20F
100
AcDbSymbolTableRecord
100
AcDbBlockTableRecord
  2
*T1
  0
BLOCK_RECORD
  5
210
100
AcDbSymbolTableRecord
100
AcDbBlockTableRecord
  2
*T2
  0
ENDTAB
  0
TABLE
  2
DIMSTYLE
  5
A
100
AcDbSymbolTable
 70
1
100
AcDbDimStyleTable
 71
0
  0
DIMSTYLE
105
211
100
AcDbSymbolTableRecord
100
AcDbDimStyleTableRecord
  2
STANDARD
 70
0
  3

  4

 40
1.0
 41
0.1875
 42
0.0625
 43
0.38
 44
0.125
 45
0.0
 46
0.0
 47
0.001
 48
0.001
140
0.1
141
0.09
142
0.0
143
25.4
144
1.0
145
0.0
146
1.0
147
0.09
 71
0.0
 72
0.0
 73
1
 74
1
 75
0
 76
0
 77
0
 78
4
170
0
171
2
172
0
173
0
174
0
175
0
176
0
177
0
178
0
270
2
271
3
272
3
273
2
274
2
275
0
280
0
281
0
282
0
283
1
284
4
285
0
286
0
287
3
288
0
340
11
278
46
  0
ENDTAB
  0
ENDSEC
  0
SECTION
  2
BLOCKS
  0
BLOCK
  5
20
100
AcDbEntity
  8
0
100
AcDbBlockBegin
  2
*Model_Space
 70
0
 10
0.0
 20
0.0
 30
0.0
  3
*Model_Space
  1

  0
ENDBLK
  5
21
100
AcDbEntity
  8
0
100
AcDbBlockEnd
  0
BLOCK
  5
1C
100
AcDbEntity
  8
0
100
AcDbBlockBegin
  2
*Paper_Space
 70
0
 10
0.0
 20
0.0
 30
0.0
  3
*Paper_Space
  1

  0
ENDBLK
  5
1D
100
AcDbEntity
  8
0
100
AcDbBlockEnd
  0
BLOCK
  5
212
100
AcDbEntity
  8
0
100
AcDbBlockBegin
 62
2
  6
CONTINUOUS
  2
SUN_FIRST_THIRD_ANGLE_BL0
 70
64
 10
20.4816717061
 20
1.2289683772
  3
SUN_FIRST_THIRD_ANGLE_BL0
  1

  0
TEXT
  5
213
100
AcDbEntity
  8
0
100
AcDbText
 62
2
  6
CONTINUOUS
 10
19.4750896608
 20
1.4136269581
  7
STANDARD
 40
0.08
  1
FIRST ANGLE
 41
0.8
 72
0
100
AcDbText
  0
TEXT
  5
214
100
AcDbEntity
  8
0
100
AcDbText
 62
2
  6
CONTINUOUS
 10
20.7842537513
 20
1.4047600029
  7
STANDARD
 40
0.08
  1
THIRD ANGLE
 41
0.8
 72
0
100
AcDbText
  0
LINE
  5
215
100
AcDbEntity
  8
0
100
AcDbLine
 62
7
  6
CONTINUOUS
 10
19.4767170086
 20
1.1727031207
 11
19.6334271527
 21
1.1717972817
  0
LINE
  5
216
100
AcDbEntity
  8
0
100
AcDbLine
 62
7
  6
CONTINUOUS
 10
19.6596964832
 20
1.1717972817
 11
19.6950230232
 21
1.171593082
  0
LINE
  5
217
100
AcDbEntity
  8
0
100
AcDbLine
 62
7
  6
CONTINUOUS
 10
19.7194818561
 20
1.1708914427
 11
19.8852396156
 21
1.1699333054
  0
LINE
  5
218
100
AcDbEntity
  8
0
100
AcDbLine
 62
7
  6
CONTINUOUS
 10
19.4758111696
 20
1.2723454088
 11
19.88525039
 21
1.3511534004
  0
LINE
  5
219
100
AcDbEntity
  8
0
100
AcDbLine
 62
7
  6
CONTINUOUS
 10
19.88525039
 20
1.3511534004
 11
19.8831348489
 21
0.9851647912
  0
LINE
  5
21A
100
AcDbEntity
  8
0
100
AcDbLine
 62
7
  6
CONTINUOUS
 10
19.8831348489
 20
0.9851647912
 11
19.4767170086
 21
1.0658141206
  0
LINE
  5
21B
100
AcDbEntity
  8
0
100
AcDbLine
 62
7
  6
CONTINUOUS
 10
19.4767170086
 20
1.0658141206
 11
19.4779056764
 21
1.2714536432
  0
CIRCLE
  5
21C
100
AcDbEntity
  8
0
100
AcDbCircle
 62
7
  6
CONTINUOUS
 10
20.2068232291
 20
1.1717972817
 40
0.175742101
  0
CIRCLE
  5
21D
100
AcDbEntity
  8
0
100
AcDbCircle
 62
7
  6
CONTINUOUS
 10
20.2068232291
 20
1.1717972817
 40
0.1005522074
  0
LINE
  5
21E
100
AcDbEntity
  8
0
100
AcDbLine
 62
7
  6
CONTINUOUS
 10
20.2077290681
 20
1.3756110529
 11
20.2071171714
 21
1.2379342989
  0
LINE
  5
21F
100
AcDbEntity
  8
0
100
AcDbLine
 62
7
  6
CONTINUOUS
 10
20.2077290681
 20
1.2016899681
 11
20.2074674401
 21
1.1428236749
  0
LINE
  5
220
100
AcDbEntity
  8
0
100
AcDbLine
 62
7
  6
CONTINUOUS
 10
20.208634907
 20
1.101141841
 11
20.2080230104
 21
0.963465087
  0
LINE
  5
221
100
AcDbEntity
  8
0
100
AcDbLine
 62
7
  6
CONTINUOUS
 10
20.0066328138
 20
1.1745147986
 11
20.1443095678
 21
1.1739029019
  0
LINE
  5
222
100
AcDbEntity
  8
0
100
AcDbLine
 62
7
  6
CONTINUOUS
 10
20.1832714155
 20
1.1727031207
 11
20.238153505
 21
1.172335442
  0
LINE
  5
223
100
AcDbEntity
  8
0
100
AcDbLine
 62
7
  6
CONTINUOUS
 10
20.2756669918
 20
1.1717972817
 11
20.407916871
 21
1.1712095044
  0
CIRCLE
  5
224
100
AcDbEntity
  8
0
100
AcDbCircle
 62
7
  6
CONTINUOUS
 10
20.7509457401
 20
1.1693297793
 40
0.1722024983
  0
CIRCLE
  5
225
100
AcDbEntity
  8
0
100
AcDbCircle
 62
7
  6
CONTINUOUS
 10
20.7509457401
 20
1.1693297793
 40
0.0985164967
  0
LINE
  5
226
100
AcDbEntity
  8
0
100
AcDbLine
 62
7
  6
CONTINUOUS
 10
20.7169767782
 20
1.170462078
 11
20.7825395137
 21
1.1682766535
  0
LINE
  5
227
100
AcDbEntity
  8
0
100
AcDbLine
 62
7
  6
CONTINUOUS
 10
20.8177513651
 20
1.1693297793
 11
20.947965719
 21
1.1693297793
  0
LINE
  5
228
100
AcDbEntity
  8
0
100
AcDbLine
 62
7
  6
CONTINUOUS
 10
20.6875370113
 20
1.170462078
 11
20.5573226574
 21
1.170462078
  0
LINE
  5
229
100
AcDbEntity
  8
0
100
AcDbLine
 62
7
  6
CONTINUOUS
 10
20.7486811426
 20
1.1987695462
 11
20.7486811426
 21
1.1432869085
  0
LINE
  5
22A
100
AcDbEntity
  8
0
100
AcDbLine
 62
7
  6
CONTINUOUS
 10
20.7498134414
 20
1.1059210505
 11
20.7498134414
 21
0.9757066966
  0
LINE
  5
22B
100
AcDbEntity
  8
0
100
AcDbLine
 62
7
  6
CONTINUOUS
 10
20.7486811426
 20
1.2338708068
 11
20.7486811426
 21
1.3640851607
  0
LINE
  5
22C
100
AcDbEntity
  8
0
100
AcDbLine
 62
7
  6
CONTINUOUS
 10
21.0702539817
 20
1.2701043662
 11
21.4790138229
 21
1.3448360823
  0
LINE
  5
22D
100
AcDbEntity
  8
0
100
AcDbLine
 62
7
  6
CONTINUOUS
 10
21.4790138229
 20
1.3448360823
 11
21.4790138229
 21
0.9779712941
  0
LINE
  5
22E
100
AcDbEntity
  8
0
100
AcDbLine
 62
7
  6
CONTINUOUS
 10
21.4790138229
 20
0.9779712941
 11
21.069121683
 21
1.0617614
  0
LINE
  5
22F
100
AcDbEntity
  8
0
100
AcDbLine
 62
7
  6
CONTINUOUS
 10
21.0702539817
 20
1.2701043662
 11
21.069121683
 21
1.0617614
  0
LINE
  5
230
100
AcDbEntity
  8
0
100
AcDbLine
 62
7
  6
CONTINUOUS
 10
21.4790138229
 20
1.1693297793
 11
21.3159628059
 21
1.1693297793
  0
LINE
  5
231
100
AcDbEntity
  8
0
100
AcDbLine
 62
7
  6
CONTINUOUS
 10
21.2876553377
 20
1.1693297793
 11
21.2502894796
 21
1.1693297793
  0
LINE
  5
232
100
AcDbEntity
  8
0
100
AcDbLine
 62
7
  6
CONTINUOUS
 10
21.2208497126
 20
1.1659328831
 11
21.0713862804
 21
1.1659328831
  0
LINE
  5
233
100
AcDbEntity
  8
0
100
AcDbLine
 62
7
  6
CONTINUOUS
 10
20.4796138713
 20
1.5284908897
 11
20.4766766948
 21
0.9294458646
  0
ENDBLK
  5
234
100
AcDbEntity
  8
0
  6
BYBLOCK
 62
0
100
AcDbBlockEnd
  0
BLOCK
  5
235
100
AcDbEntity
  8
0
100
AcDbBlockBegin
  2
*T1
 70
1
 10
0.0
 20
0.0
  3
*T1
  1

  0
LINE
  5
236
100
AcDbEntity
  8
0
100
AcDbLine
 62
2
  6
CONTINUOUS
 10
9.275
 20
0.0
 11
-0.0
 21
0.0
  0
LINE
  5
237
100
AcDbEntity
  8
0
100
AcDbLine
 62
2
  6
CONTINUOUS
 10
9.275
 20
0.0
 11
9.275
 21
1.25
  0
LINE
  5
238
100
AcDbEntity
  8
0
100
AcDbLine
 62
2
  6
CONTINUOUS
 10
9.275
 20
0.625
 11
-0.0
 21
0.625
  0
LINE
  5
239
100
AcDbEntity
  8
0
100
AcDbLine
 62
2
  6
CONTINUOUS
 10
9.275
 20
1.25
 11
-0.0
 21
1.25
  0
LINE
  5
23A
100
AcDbEntity
  8
0
100
AcDbLine
 62
2
  6
CONTINUOUS
 10
6.8
 20
0.0
 11
6.8
 21
1.25
  0
LINE
  5
23B
100
AcDbEntity
  8
0
100
AcDbLine
 62
2
  6
CONTINUOUS
 10
6.4
 20
0.0
 11
6.4
 21
0.625
  0
LINE
  5
23C
100
AcDbEntity
  8
0
100
AcDbLine
 62
2
  6
CONTINUOUS
 10
5.9
 20
0.0
 11
5.9
 21
0.625
  0
LINE
  5
23D
100
AcDbEntity
  8
0
100
AcDbLine
 62
2
  6
CONTINUOUS
 10
5.2
 20
0.0
 11
5.2
 21
0.625
  0
LINE
  5
23E
100
AcDbEntity
  8
0
100
AcDbLine
 62
2
  6
CONTINUOUS
 10
4.1
 20
0.0
 11
4.1
 21
1.25
  0
LINE
  5
23F
100
AcDbEntity
  8
0
100
AcDbLine
 62
2
  6
CONTINUOUS
 10
-0.0
 20
0.0
 11
-0.0
 21
1.25
  0
MTEXT
  5
240
100
AcDbEntity
  8
0
100
AcDbMText
 62
2
  6
CONTINUOUS
  7
STANDARD
 71
2
 72
1
 10
6.6
 20
0.325
 30
0.0
 11
1.0
 21
0.0
 31
0.0
 44
0.9
  1
2
 40
0.125
 41
0.2
  0
MTEXT
  5
241
100
AcDbEntity
  8
0
100
AcDbMText
 62
2
  6
CONTINUOUS
  7
STANDARD
 71
2
 72
1
 10
6.15
 20
0.325
 30
0.0
 11
1.0
 21
0.0
 31
0.0
 44
0.9
  1
C
 40
0.125
 41
0.2
  0
MTEXT
  5
242
100
AcDbEntity
  8
0
100
AcDbMText
 62
2
  6
CONTINUOUS
  7
STANDARD
 71
2
 72
1
 10
5.55
 20
0.325
 30
0.0
 11
1.0
 21
0.0
 31
0.0
 44
0.9
  1
1.000
 40
0.125
 41
1.0
  0
MTEXT
  5
243
100
AcDbEntity
  8
0
100
AcDbMText
 62
2
  6
CONTINUOUS
  7
STANDARD
 71
2
 72
1
 10
4.65
 20
0.325
 30
0.0
 11
1.0
 21
0.0
 31
0.0
 44
0.9
  1
Apr-28-21
 40
0.125
 41
1.8
  0
MTEXT
  5
244
100
AcDbEntity
  8
0
100
AcDbMText
 62
2
  6
CONTINUOUS
  7
STANDARD
 71
2
 72
1
 10
2.05
 20
0.4625
 30
0.0
 11
1.0
 21
0.0
 31
0.0
 44
0.9
  1
T-3A Sandwich ISO 05 - X&Y\PA to T, check T to B
 40
0.125
 41
5.2
  0
MTEXT
  5
245
100
AcDbEntity
  8
0
100
AcDbMText
 62
2
  6
CONTINUOUS
  7
STANDARD
 71
1
 72
1
 10
6.45
 20
0.5625
 30
0.0
 11
1.0
 21
0.0
 31
0.0
 44
0.9
  1
SHEET
 40
0.06
 41
0.48
  0
MTEXT
  5
246
100
AcDbEntity
  8
0
100
AcDbMText
 62
2
  6
CONTINUOUS
  7
STANDARD
 71
1
 72
1
 10
5.95
 20
0.5625
 30
0.0
 11
1.0
 21
0.0
 31
0.0
 44
0.9
  1
DWG SIZE
 40
0.06
 41
0.768
  0
MTEXT
  5
247
100
AcDbEntity
  8
0
100
AcDbMText
 62
2
  6
CONTINUOUS
  7
STANDARD
 71
1
 72
1
 10
5.25
 20
0.5625
 30
0.0
 11
1.0
 21
0.0
 31
0.0
 44
0.9
  1
SCALE
 40
0.06
 41
0.48
  0
MTEXT
  5
248
100
AcDbEntity
  8
0
100
AcDbMText
 62
2
  6
CONTINUOUS
  7
STANDARD
 71
1
 72
1
 10
4.15
 20
0.5625
 30
0.0
 11
1.0
 21
0.0
 31
0.0
 44
0.9
  1
DATE
 40
0.06
 41
0.384
  0
MTEXT
  5
249
100
AcDbEntity
  8
0
100
AcDbMText
 62
2
  6
CONTINUOUS
  7
STANDARD
 71
1
 72
1
 10
0.05
 20
0.5625
 30
0.0
 11
1.0
 21
0.0
 31
0.0
 44
0.9
  1
DESCRIPTION
 40
0.06
 41
1.056
  0
MTEXT
  5
24A
100
AcDbEntity
  8
0
100
AcDbMText
 62
2
  6
CONTINUOUS
  7
STANDARD
 71
2
 72
1
 10
5.45
 20
1.0375
 30
0.0
 11
1.0
 21
0.0
 31
0.0
 44
0.9
  1
ALL DIMENSIONS IN INCH\PVIEWS ARE THIRD ANGLE
 40
0.12
 41
4.224
  0
MTEXT
  5
24B
100
AcDbEntity
  8
0
100
AcDbMText
 62
2
  6
CONTINUOUS
  7
STANDARD
 71
2
 72
1
 10
2.05
 20
0.95
 30
0.0
 11
1.0
 21
0.0
 31
0.0
 44
0.9
  1
CJ2
 40
0.125
 41
0.6
  0
MTEXT
  5
24C
100
AcDbEntity
  8
0
100
AcDbMText
 62
2
  6
CONTINUOUS
  7
STANDARD
 71
1
 72
1
 10
0.05
 20
1.1875
 30
0.0
 11
1.0
 21
0.0
 31
0.0
 44
0.9
  1
MODEL
 40
0.06
 41
0.48
  0
ENDBLK
  5
24D
100
AcDbEntity
  8
0
  6
BYBLOCK
 62
0
100
AcDbBlockEnd
  0
BLOCK
  5
24E
100
AcDbEntity
  8
0
100
AcDbBlockBegin
  2
*T2
 70
1
 10
0.0
 20
0.0
  3
*T2
  1

  0
LINE
  5
24F
100
AcDbEntity
  8
0
100
AcDbLine
 62
2
  6
CONTINUOUS
 10
0.0
 20
0.0
 11
9.055
 21
0.0
  0
LINE
  5
250
100
AcDbEntity
  8
0
100
AcDbLine
 62
2
  6
CONTINUOUS
 10
0.0
 20
0.0
 11
0.0
 21
-2.344
  0
LINE
  5
251
100
AcDbEntity
  8
0
100
AcDbLine
 62
2
  6
CONTINUOUS
 10
0.0
 20
-0.344
 11
9.055
 21
-0.344
  0
LINE
  5
252
100
AcDbEntity
  8
0
100
AcDbLine
 62
2
  6
CONTINUOUS
 10
0.0
 20
-0.594
 11
9.055
 21
-0.594
  0
LINE
  5
253
100
AcDbEntity
  8
0
100
AcDbLine
 62
2
  6
CONTINUOUS
 10
0.0
 20
-0.844
 11
9.055
 21
-0.844
  0
LINE
  5
254
100
AcDbEntity
  8
0
100
AcDbLine
 62
2
  6
CONTINUOUS
 10
0.0
 20
-1.094
 11
9.055
 21
-1.094
  0
LINE
  5
255
100
AcDbEntity
  8
0
100
AcDbLine
 62
2
  6
CONTINUOUS
 10
0.0
 20
-1.344
 11
9.055
 21
-1.344
  0
LINE
  5
256
100
AcDbEntity
  8
0
100
AcDbLine
 62
2
  6
CONTINUOUS
 10
0.0
 20
-1.594
 11
9.055
 21
-1.594
  0
LINE
  5
257
100
AcDbEntity
  8
0
100
AcDbLine
 62
2
  6
CONTINUOUS
 10
0.0
 20
-1.844
 11
9.055
 21
-1.844
  0
LINE
  5
258
100
AcDbEntity
  8
0
100
AcDbLine
 62
2
  6
CONTINUOUS
 10
0.0
 20
-2.094
 11
9.055
 21
-2.094
  0
LINE
  5
259
100
AcDbEntity
  8
0
100
AcDbLine
 62
2
  6
CONTINUOUS
 10
0.0
 20
-2.344
 11
9.055
 21
-2.344
  0
LINE
  5
25A
100
AcDbEntity
  8
0
100
AcDbLine
 62
2
  6
CONTINUOUS
 10
3.055
 20
0.0
 11
3.055
 21
-2.344
  0
LINE
  5
25B
100
AcDbEntity
  8
0
100
AcDbLine
 62
2
  6
CONTINUOUS
 10
9.055
 20
0.0
 11
9.055
 21
-2.344
  0
MTEXT
  5
25C
100
AcDbEntity
  8
0
100
AcDbMText
 62
2
  6
CONTINUOUS
  7
STANDARD
 71
2
 72
1
 10
1.5275
 20
-0.0995
 30
0.0
 11
1.0
 21
0.0
 31
0.0
 44
0.9
  1
Technical Data
 40
0.145
 41
3.248
  0
MTEXT
  5
25D
100
AcDbEntity
  8
0
100
AcDbMText
 62
2
  6
CONTINUOUS
  7
STANDARD
 71
2
 72
1
 10
4.555
 20
-0.0995
 30
0.0
 11
1.0
 21
0.0
 31
0.0
 44
0.9
  1
U.S. Units
 40
0.145
 41
2.32
  0
MTEXT
  5
25E
100
AcDbEntity
  8
0
100
AcDbMText
 62
2
  6
CONTINUOUS
  7
STANDARD
 71
2
 72
1
 10
7.555
 20
-0.0995
 30
0.0
 11
1.0
 21
0.0
 31
0.0
 44
0.9
  1
Metric Units
 40
0.145
 41
2.784
  0
MTEXT
  5
25F
100
AcDbEntity
  8
0
100
AcDbMText
 62
2
  6
CONTINUOUS
  7
STANDARD
 71
2
 72
1
 10
1.5275
 20
-0.4065
 30
0.0
 11
1.0
 21
0.0
 31
0.0
 44
0.9
  1
Cavity
 40
0.125
 41
1.2
  0
MTEXT
  5
260
100
AcDbEntity
  8
0
100
AcDbMText
 62
2
  6
CONTINUOUS
  7
STANDARD
 71
2
 72
1
 10
6.055
 20
-0.4065
 30
0.0
 11
1.0
 21
0.0
 31
0.0
 44
0.9
  1
T-3A
 40
0.125
 41
0.8
  0
MTEXT
  5
261
100
AcDbEntity
  8
0
100
AcDbMText
 62
2
  6
CONTINUOUS
  7
STANDARD
 71
2
 72
1
 10
1.5275
 20
-0.6565
 30
0.0
 11
1.0
 21
0.0
 31
0.0
 44
0.9
  1
Body Features
 40
0.125
 41
2.6
  0
MTEXT
  5
262
100
AcDbEntity
  8
0
100
AcDbMText
 62
2
  6
CONTINUOUS
  7
STANDARD
 71
2
 72
1
 10
6.055
 20
-0.6565
 30
0.0
 11
1.0
 21
0.0
 31
0.0
 44
0.9
  1
A to T, check T to B
 40
0.125
 41
4.0
  0
MTEXT
  5
263
100
AcDbEntity
  8
0
100
AcDbMText
 62
2
  6
CONTINUOUS
  7
STANDARD
 71
2
 72
1
 10
1.5275
 20
-0.9065
 30
0.0
 11
1.0
 21
0.0
 31
0.0
 44
0.9
  1
Body Type
 40
0.125
 41
1.8
  0
MTEXT
  5
264
100
AcDbEntity
  8
0
100
AcDbMText
 62
2
  6
CONTINUOUS
  7
STANDARD
 71
2
 72
1
 10
6.055
 20
-0.9065
 30
0.0
 11
1.0
 21
0.0
 31
0.0
 44
0.9
  1
Sandwich
 40
0.125
 41
1.6
  0
MTEXT
  5
265
100
AcDbEntity
  8
0
100
AcDbMText
 62
2
  6
CONTINUOUS
  7
STANDARD
 71
2
 72
1
 10
1.5275
 20
-1.1565
 30
0.0
 11
1.0
 21
0.0
 31
0.0
 44
0.9
  1
Interface
 40
0.125
 41
1.8
  0
MTEXT
  5
266
100
AcDbEntity
  8
0
100
AcDbMText
 62
2
  6
CONTINUOUS
  7
STANDARD
 71
2
 72
1
 10
6.055
 20
-1.1565
 30
0.0
 11
1.0
 21
0.0
 31
0.0
 44
0.9
  1
ISO 05 - X&Y
 40
0.125
 41
2.4
  0
MTEXT
  5
267
100
AcDbEntity
  8
0
100
AcDbMText
 62
2
  6
CONTINUOUS
  7
STANDARD
 71
2
 72
1
 10
1.5275
 20
-1.4065
 30
0.0
 11
1.0
 21
0.0
 31
0.0
 44
0.9
  1
Open Cavity Quantity
 40
0.125
 41
4.0
  0
MTEXT
  5
268
100
AcDbEntity
  8
0
100
AcDbMText
 62
2
  6
CONTINUOUS
  7
STANDARD
 71
2
 72
1
 10
6.055
 20
-1.4065
 30
0.0
 11
1.0
 21
0.0
 31
0.0
 44
0.9
  1
1
 40
0.125
 41
0.2
  0
MTEXT
  5
269
100
AcDbEntity
  8
0
100
AcDbMText
 62
2
  6
CONTINUOUS
  7
STANDARD
 71
2
 72
1
 10
1.5275
 20
-1.6565
 30
0.0
 11
1.0
 21
0.0
 31
0.0
 44
0.9
  1
Stack Height
 40
0.125
 41
2.4
  0
MTEXT
  5
26A
100
AcDbEntity
  8
0
100
AcDbMText
 62
2
  6
CONTINUOUS
  7
STANDARD
 71
2
 72
1
 10
4.555
 20
-1.6565
 30
0.0
 11
1.0
 21
0.0
 31
0.0
 44
0.9
  1
2.49 in.
 40
0.125
 41
1.6
  0
MTEXT
  5
26B
100
AcDbEntity
  8
0
100
AcDbMText
 62
2
  6
CONTINUOUS
  7
STANDARD
 71
2
 72
1
 10
7.555
 20
-1.6565
 30
0.0
 11
1.0
 21
0.0
 31
0.0
 44
0.9
  1
63 mm
 40
0.125
 41
1.0
  0
MTEXT
  5
26C
100
AcDbEntity
  8
0
100
AcDbMText
 62
2
  6
CONTINUOUS
  7
STANDARD
 71
2
 72
1
 10
1.5275
 20
-1.9065
 30
0.0
 11
1.0
 21
0.0
 31
0.0
 44
0.9
  1
Weight
 40
0.125
 41
1.2
  0
MTEXT
  5
26D
100
AcDbEntity
  8
0
100
AcDbMText
 62
2
  6
CONTINUOUS
  7
STANDARD
 71
2
 72
1
 10
4.555
 20
-1.9065
 30
0.0
 11
1.0
 21
0.0
 31
0.0
 44
0.9
  1
2.574 lb.
 40
0.125
 41
1.8
  0
MTEXT
  5
26E
100
AcDbEntity
  8
0
100
AcDbMText
 62
2
  6
CONTINUOUS
  7
STANDARD
 71
2
 72
1
 10
7.555
 20
-1.9065
 30
0.0
 11
1.0
 21
0.0
 31
0.0
 44
0.9
  1
1,167 kg.
 40
0.125
 41
1.8
  0
MTEXT
  5
26F
100
AcDbEntity
  8
0
100
AcDbMText
 62
2
  6
CONTINUOUS
  7
STANDARD
 71
2
 72
1
 10
1.5275
 20
-2.1565
 30
0.0
 11
1.0
 21
0.0
 31
0.0
 44
0.9
  1
Includes integral cartridge(s)
 40
0.125
 41
6.0
  0
MTEXT
  5
270
100
AcDbEntity
  8
0
100
AcDbMText
 62
2
  6
CONTINUOUS
  7
STANDARD
 71
2
 72
1
 10
6.055
 20
-2.1565
 30
0.0
 11
1.0
 21
0.0
 31
0.0
 44
0.9
  1
Yes (see Included Components)
 40
0.125
 41
5.8
  0
ENDBLK
  5
271
100
AcDbEntity
  8
0
  6
BYBLOCK
 62
0
100
AcDbBlockEnd
  0
ENDSEC
  0
SECTION
  2
ENTITIES
  0
IMAGE
  5
272
100
AcDbEntity
  8
0
100
AcDbRasterImage
 62
7
  6
CONTINUOUS
 10
19.2297077316
 20
0.3094318264
 30
0.0
 11
0.0066666667
 21
0.0
 31
0.0
 12
0.0
 22
0.0066666667
 32
0.0
 13
369.0
 23
92.0
340
       3BB
 70
9
280
0
281
50
282
50
283
0
360
       3B5
 71
1
 91
2
 14
-0.5
 24
-0.5
 14
368.5
 24
91.5
  0
INSERT
  5
273
100
AcDbEntity
  8
0
100
AcDbBlockReference
 62
2
  6
CONTINUOUS
  2
SUN_FIRST_THIRD_ANGLE_BL0
 10
20.4816717061
 20
1.2289683772
  0
ACAD_TABLE
  5
274
100
AcDbEntity
  8
0
 62
2
  6
CONTINUOUS
100
AcDbBlockReference
  2
*T1
 10
12.42375
 20
0.30125
 30
0.0
100
AcDbTable
342
       3BD
343
20F
 11
1.0
 21
0.0
 31
0.0
 90
6
 91
4
 92
6
 93
20
 94
0
 95
0
 96
0
 70
1
 41
0.0
141
0.525
141
0.1
141
0.525
141
0.1
142
4.1
142
1.1
142
0.7
142
0.5
142
0.4
142
2.475
171
1
172
0
173
0
174
0
175
1
176
1
 91
33
178
0
145
0.0
301
CELL_VALUE
 90
4
  1
T-3A Sandwich ISO 05 - X&Y\PA to T, check T to B
304
ACVALUE_END
170
2
140
0.125
171
1
172
0
173
0
174
0
175
1
176
1
 91
33
178
0
145
0.0
301
CELL_VALUE
 90
4
  1
Apr-28-21
304
ACVALUE_END
170
5
140
0.125
171
1
172
0
173
0
174
0
175
1
176
1
 91
33
178
0
145
0.0
301
CELL_VALUE
 90
4
  1
1.000
304
ACVALUE_END
170
5
140
0.125
171
1
172
0
173
0
174
0
175
1
176
1
 91
33
178
0
145
0.0
301
CELL_VALUE
 90
4
  1
C
304
ACVALUE_END
170
5
140
0.125
171
1
172
0
173
0
174
0
175
1
176
1
 91
33
178
0
145
0.0
301
CELL_VALUE
 90
4
  1
2
304
ACVALUE_END
170
5
140
0.125
171
1
172
0
173
0
174
0
175
1
176
1
 91
33
178
0
145
0.0
301
CELL_VALUE
 90
4
  1
 
304
ACVALUE_END
170
1
140
0.125
171
1
172
0
173
0
174
0
175
1
176
1
 91
33
178
0
145
0.0
301
CELL_VALUE
 90
4
  1
DESCRIPTION
304
ACVALUE_END
170
1
140
0.06
171
1
172
0
173
0
174
0
175
1
176
1
 91
33
178
0
145
0.0
301
CELL_VALUE
 90
4
  1
DATE
304
ACVALUE_END
170
1
140
0.06
171
1
172
0
173
0
174
0
175
1
176
1
 91
33
178
0
145
0.0
301
CELL_VALUE
 90
4
  1
SCALE
304
ACVALUE_END
170
1
140
0.06
171
1
172
0
173
0
174
0
175
1
176
1
 91
33
178
0
145
0.0
301
CELL_VALUE
 90
4
  1
DWG SIZE
304
ACVALUE_END
170
1
140
0.06
171
1
172
0
173
0
174
0
175
1
176
1
 91
33
178
0
145
0.0
301
CELL_VALUE
 90
4
  1
SHEET
304
ACVALUE_END
170
1
140
0.06
171
1
172
0
173
0
174
0
175
1
176
1
 91
33
178
0
145
0.0
301
CELL_VALUE
 90
4
  1
 
304
ACVALUE_END
170
1
140
0.125
171
1
172
0
173
0
174
0
175
1
176
1
 91
33
178
0
145
0.0
301
CELL_VALUE
 90
4
  1
CJ2
304
ACVALUE_END
170
5
140
0.125
171
1
172
0
173
0
174
0
175
4
176
1
 91
33
178
0
145
0.0
301
CELL_VALUE
 90
4
  1
ALL DIMENSIONS IN INCH\PVIEWS ARE THIRD ANGLE
304
ACVALUE_END
170
5
140
0.12
171
1
172
0
173
1
174
0
175
1
176
1
 91
1
178
0
145
0.0
170
1
171
1
172
0
173
1
174
0
175
1
176
1
 91
1
178
0
145
0.0
170
1
171
1
172
0
173
1
174
0
175
1
176
1
 91
1
178
0
145
0.0
170
5
171
1
172
0
173
0
174
0
175
1
176
1
 91
33
178
0
145
0.0
301
CELL_VALUE
 90
4
  1
 
304
ACVALUE_END
170
1
140
0.125
171
1
172
0
173
0
174
0
175
1
176
1
 91
33
178
0
145
0.0
301
CELL_VALUE
 90
4
  1
MODEL
304
ACVALUE_END
170
1
140
0.06
171
1
172
0
173
0
174
0
175
1
176
1
 91
33
178
0
145
0.0
301
CELL_VALUE
 90
4
  1
 
304
ACVALUE_END
170
1
140
0.125
171
1
172
0
173
0
174
0
175
1
176
1
 91
33
178
0
145
0.0
301
CELL_VALUE
 90
4
  1
 
304
ACVALUE_END
170
1
140
0.125
171
1
172
0
173
0
174
0
175
1
176
1
 91
33
178
0
145
0.0
301
CELL_VALUE
 90
4
  1
 
304
ACVALUE_END
170
1
140
0.125
171
1
172
0
173
0
174
0
175
1
176
1
 91
33
178
0
145
0.0
301
CELL_VALUE
 90
4
  1
 
304
ACVALUE_END
170
1
140
0.125
171
1
172
0
173
0
174
0
175
1
176
1
 91
33
178
0
145
0.0
301
CELL_VALUE
 90
4
  1
 
304
ACVALUE_END
170
1
140
0.125
  0
ACAD_TABLE
  5
275
100
AcDbEntity
  8
0
 62
2
  6
CONTINUOUS
100
AcDbBlockReference
  2
*T2
 10
12.4237499994
 20
16.47875
 30
0.0
100
AcDbTable
342
       3BC
343
210
 11
1.0
 21
0.0
 31
0.0
 90
22
 91
9
 92
3
 93
16
 94
0
 95
0
 96
0
 41
0.028
141
0.344
141
0.25
141
0.25
141
0.25
141
0.25
141
0.25
141
0.25
141
0.25
141
0.25
142
3.055
142
3.0
142
3.0
171
1
172
0
173
0
174
0
175
1
176
1
 91
33
178
0
145
0.0
301
CELL_VALUE
 90
4
  1
Technical Data
304
ACVALUE_END
170
5
140
0.145
171
1
172
0
173
0
174
0
175
1
176
1
 91
33
178
0
145
0.0
301
CELL_VALUE
 90
4
  1
U.S. Units
304
ACVALUE_END
170
5
140
0.145
171
1
172
0
173
0
174
0
175
1
176
1
 91
33
178
0
145
0.0
301
CELL_VALUE
 90
4
  1
Metric Units
304
ACVALUE_END
170
5
140
0.145
171
1
172
0
173
0
174
0
175
1
176
1
 91
33
178
0
145
0.0
301
CELL_VALUE
 90
4
  1
Cavity
304
ACVALUE_END
170
5
140
0.125
171
1
172
0
173
0
174
0
175
2
176
1
 91
33
178
0
145
0.0
301
CELL_VALUE
 90
4
  1
T-3A
304
ACVALUE_END
170
5
140
0.125
171
1
172
0
173
1
174
0
175
1
176
1
 91
1
178
0
145
0.0
170
1
171
1
172
0
173
0
174
0
175
1
176
1
 91
33
178
0
145
0.0
301
CELL_VALUE
 90
4
  1
Body Features
304
ACVALUE_END
170
5
140
0.125
171
1
172
0
173
0
174
0
175
2
176
1
 91
33
178
0
145
0.0
301
CELL_VALUE
 90
4
  1
A to T, check T to B
304
ACVALUE_END
170
5
140
0.125
171
1
172
0
173
1
174
0
175
1
176
1
 91
1
178
0
145
0.0
170
1
171
1
172
0
173
0
174
0
175
1
176
1
 91
33
178
0
145
0.0
301
CELL_VALUE
 90
4
  1
Body Type
304
ACVALUE_END
170
5
140
0.125
171
1
172
0
173
0
174
0
175
2
176
1
 91
33
178
0
145
0.0
301
CELL_VALUE
 90
4
  1
Sandwich
304
ACVALUE_END
170
5
140
0.125
171
1
172
0
173
1
174
0
175
1
176
1
 91
1
178
0
145
0.0
170
1
171
1
172
0
173
0
174
0
175
1
176
1
 91
33
178
0
145
0.0
301
CELL_VALUE
 90
4
  1
Interface
304
ACVALUE_END
170
5
140
0.125
171
1
172
0
173
0
174
0
175
2
176
1
 91
33
178
0
145
0.0
301
CELL_VALUE
 90
4
  1
ISO 05 - X&Y
304
ACVALUE_END
170
5
140
0.125
171
1
172
0
173
1
174
0
175
1
176
1
 91
1
178
0
145
0.0
170
1
171
1
172
0
173
0
174
0
175
1
176
1
 91
33
178
0
145
0.0
301
CELL_VALUE
 90
4
  1
Open Cavity Quantity
304
ACVALUE_END
170
5
140
0.125
171
1
172
0
173
0
174
0
175
2
176
1
 91
33
178
0
145
0.0
301
CELL_VALUE
 90
4
  1
1
304
ACVALUE_END
170
5
140
0.125
171
1
172
0
173
1
174
0
175
1
176
1
 91
1
178
0
145
0.0
170
1
171
1
172
0
173
0
174
0
175
1
176
1
 91
33
178
0
145
0.0
301
CELL_VALUE
 90
4
  1
Stack Height
304
ACVALUE_END
170
5
140
0.125
171
1
172
0
173
0
174
0
175
1
176
1
 91
33
178
0
145
0.0
301
CELL_VALUE
 90
4
  1
2.49 in.
304
ACVALUE_END
170
5
140
0.125
171
1
172
0
173
0
174
0
175
1
176
1
 91
33
178
0
145
0.0
301
CELL_VALUE
 90
4
  1
63 mm
304
ACVALUE_END
170
5
140
0.125
171
1
172
0
173
0
174
0
175
1
176
1
 91
33
178
0
145
0.0
301
CELL_VALUE
 90
4
  1
Weight
304
ACVALUE_END
170
5
140
0.125
171
1
172
0
173
0
174
0
175
1
176
1
 91
33
178
0
145
0.0
301
CELL_VALUE
 90
4
  1
2.574 lb.
304
ACVALUE_END
170
5
140
0.125
171
1
172
0
173
0
174
0
175
1
176
1
 91
33
178
0
145
0.0
301
CELL_VALUE
 90
4
  1
1,167 kg.
304
ACVALUE_END
170
5
140
0.125
171
1
172
0
173
0
174
0
175
1
176
1
 91
33
178
0
145
0.0
301
CELL_VALUE
 90
4
  1
Includes integral cartridge(s)
304
ACVALUE_END
170
5
140
0.125
171
1
172
0
173
0
174
0
175
2
176
1
 91
33
178
0
145
0.0
301
CELL_VALUE
 90
4
  1
Yes (see Included Components)
304
ACVALUE_END
170
5
140
0.125
171
1
172
0
173
1
174
0
175
1
176
1
 91
1
178
0
145
0.0
170
1
  0
MTEXT
  5
276
100
AcDbEntity
  8
0
100
AcDbMText
 62
2
  6
CONTINUOUS
  7
STANDARD
 71
1
 72
1
 10
0.52125
 20
5.75995
 30
0.0
 11
1.0
 21
0.0
 31
0.0
 44
0.6
  3
Notes\P \P1. Stack height value in technical\P   data table includes seal retainer\P   plate.\P2. This installation requires a\P   retainer and seal kit which are\P   purchased separately. See "Related\P   Accessories" section.\P3. Important: Careful
  3
ly consider\P   the maximum system pressure. The\P   pressure rating of the manifold is\P   dependent on the manifold material,\P   with the port type/size a secondary\P   consideration. Manifolds\P   constructed of aluminum are not\P   rated for pre
  1
ssures higher than\P   3000 psi (210 bar), regardless of\P   the port type/size specified.
 40
0.1
 41
3.04
  0
LINE
  5
277
100
AcDbEntity
  8
0
100
AcDbLine
 62
7
  6
CONTINUOUS
 10
0.30125
 20
0.30125
 11
0.30125
 21
16.69875
  0
LINE
  5
278
100
AcDbEntity
  8
0
100
AcDbLine
 62
7
  6
CONTINUOUS
 10
0.30125
 20
0.30125
 11
21.69875
 21
0.30125
  0
LINE
  5
279
100
AcDbEntity
  8
0
100
AcDbLine
 62
7
  6
CONTINUOUS
 10
0.30125
 20
16.69875
 11
21.69875
 21
16.69875
  0
LINE
  5
27A
100
AcDbEntity
  8
0
100
AcDbLine
 62
7
  6
CONTINUOUS
 10
21.69875
 20
0.30125
 11
21.69875
 21
16.69875
  0
LINE
  5
27B
100
AcDbEntity
  8
0
100
AcDbLine
 62
7
  6
CONTINUOUS
 10
9.6391439838
 20
10.7686264977
 11
10.0677479687
 21
11.1826261805
  0
LINE
  5
27C
100
AcDbEntity
  8
0
100
AcDbLine
 62
7
  6
CONTINUOUS
 10
9.6690876862
 20
10.7964935973
 11
10.0976916711
 21
11.2104932801
  0
LINE
  5
27D
100
AcDbEntity
  8
0
100
AcDbLine
 62
7
  6
CONTINUOUS
 10
10.0677479687
 20
11.1826261805
 11
10.0686827588
 21
11.1835123235
  0
LINE
  5
27E
100
AcDbEntity
  8
0
100
AcDbLine
 62
7
  6
CONTINUOUS
 10
10.0976916711
 20
11.2104932801
 11
10.0985503217
 21
11.2113070767
  0
LINE
  5
27F
100
AcDbEntity
  8
0
100
AcDbLine
 62
7
  6
CONTINUOUS
 10
10.0976842495
 20
11.2105012552
 11
10.0677479687
 21
11.1826261805
  0
LINE
  5
280
100
AcDbEntity
  8
0
100
AcDbLine
 62
7
  6
CONTINUOUS
 10
9.6690876862
 20
10.7964935973
 11
9.6391439838
 21
10.7686264977
  0
LINE
  5
281
100
AcDbEntity
  8
0
100
AcDbLine
 62
7
  6
CONTINUOUS
 10
10.3297952663
 20
5.8097920097
 11
10.3490131557
 21
5.8002987403
  0
LINE
  5
282
100
AcDbEntity
  8
0
100
AcDbLine
 62
7
  6
CONTINUOUS
 10
11.8919072035
 20
6.1001091272
 11
9.4770924947
 21
6.267577096
  0
LINE
  5
283
100
AcDbEntity
  8
0
100
AcDbLine
 62
7
  6
CONTINUOUS
 10
9.4770924947
 20
9.7690583087
 11
9.6263661901
 21
9.9132456348
  0
LINE
  5
284
100
AcDbEntity
  8
0
100
AcDbLine
 62
7
  6
CONTINUOUS
 10
9.4770924947
 20
9.7690583087
 11
9.4770924947
 21
6.267577096
  0
LINE
  5
285
100
AcDbEntity
  8
0
100
AcDbLine
 62
7
  6
CONTINUOUS
 10
9.9123325121
 20
10.6874500706
 11
9.9043091283
 21
10.6497563742
  0
LINE
  5
286
100
AcDbEntity
  8
0
100
AcDbLine
 62
7
  6
CONTINUOUS
 10
9.6263661901
 20
9.8374678411
 11
9.6263661901
 21
10.7435063024
  0
LINE
  5
287
100
AcDbEntity
  8
0
100
AcDbLine
 62
7
  6
CONTINUOUS
 10
9.9043091283
 20
10.6497563742
 11
9.9043091283
 21
9.7437179129
  0
LINE
  5
288
100
AcDbEntity
  8
0
100
AcDbLine
 62
7
  6
CONTINUOUS
 10
12.3318782397
 20
11.0555519153
 11
11.9032742547
 21
10.6415522325
  0
LINE
  5
289
100
AcDbEntity
  8
0
100
AcDbLine
 62
7
  6
CONTINUOUS
 10
12.3618219421
 20
11.0235316101
 11
11.9332179571
 21
10.6095319273
  0
LINE
  5
28A
100
AcDbEntity
  8
0
100
AcDbLine
 62
7
  6
CONTINUOUS
 10
10.2215949892
 20
6.2159456727
 11
10.2215949892
 21
5.9464716714
  0
LINE
  5
28B
100
AcDbEntity
  8
0
100
AcDbLine
 62
7
  6
CONTINUOUS
 10
10.3730149287
 20
6.1846149327
 11
10.3730149287
 21
5.8002114913
  0
LINE
  5
28C
100
AcDbEntity
  8
0
100
AcDbLine
 62
7
  6
CONTINUOUS
 10
10.4124877066
 20
6.1743986389
 11
10.4124877066
 21
5.7899951976
  0
LINE
  5
28D
100
AcDbEntity
  8
0
100
AcDbLine
 62
4
  6
CONTINUOUS
 10
11.9281418396
 20
8.1109104534
 11
11.9203772748
 21
8.1106549033
  0
LINE
  5
28E
100
AcDbEntity
  8
0
100
AcDbLine
 62
7
  6
CONTINUOUS
 10
12.3618219421
 20
10.1174931489
 11
11.9332179571
 21
9.703493466
  0
LINE
  5
28F
100
AcDbEntity
  8
0
100
AcDbLine
 62
4
  6
CONTINUOUS
 10
11.9281418396
 20
8.197843781
 11
11.9359064043
 21
8.1980993311
  0
LINE
  5
290
100
AcDbEntity
  8
0
100
AcDbLine
 62
4
  6
CONTINUOUS
 10
12.3893569938
 20
8.0223220507
 11
12.3582987347
 21
8.0254395305
  0
LINE
  5
291
100
AcDbEntity
  8
0
100
AcDbLine
 62
4
  6
CONTINUOUS
 10
12.238354696
 20
8.1082872237
 11
12.2087754011
 21
8.1128332595
  0
LINE
  5
292
100
AcDbEntity
  8
0
100
AcDbLine
 62
7
  6
CONTINUOUS
 10
10.9775941812
 20
6.1352083718
 11
10.9775941812
 21
5.7508049305
  0
LINE
  5
293
100
AcDbEntity
  8
0
100
AcDbLine
 62
7
  6
CONTINUOUS
 10
12.5229075053
 20
10.2110898639
 11
11.8919072035
 21
9.6015903398
  0
LINE
  5
294
100
AcDbEntity
  8
0
100
AcDbLine
 62
7
  6
CONTINUOUS
 10
11.0315149835
 20
6.1389477988
 11
11.0315149835
 21
5.7545443574
  0
LINE
  5
295
100
AcDbEntity
  8
0
100
AcDbLine
 62
7
  6
CONTINUOUS
 10
11.4819620728
 20
10.5785958909
 11
11.473938689
 21
10.5409021944
  0
LINE
  5
296
100
AcDbEntity
  8
0
100
AcDbLine
 62
4
  6
CONTINUOUS
 10
11.9436709691
 20
8.5171104157
 11
11.91261271
 21
8.5233326592
  0
LINE
  5
297
100
AcDbEntity
  8
0
100
AcDbLine
 62
4
  6
CONTINUOUS
 10
11.9048481453
 20
7.8638327096
 11
11.9237075344
 21
7.8492287619
  0
LINE
  5
298
100
AcDbEntity
  8
0
100
AcDbLine
 62
7
  6
CONTINUOUS
 10
11.4452015185
 20
6.1310882717
 11
11.4452015185
 21
5.8616142704
  0
LINE
  5
299
100
AcDbEntity
  8
0
100
AcDbLine
 62
4
  6
CONTINUOUS
 10
11.9436709691
 20
8.9517770536
 11
11.91261271
 21
8.9217770772
  0
LINE
  5
29A
100
AcDbEntity
  8
0
100
AcDbLine
 62
4
  6
CONTINUOUS
 10
11.9436709691
 20
8.5967992993
 11
11.91261271
 21
8.6030215428
  0
LINE
  5
29B
100
AcDbEntity
  8
0
100
AcDbLine
 62
4
  6
CONTINUOUS
 10
12.1999016133
 20
8.5265094214
 11
12.2021200612
 21
8.5258924999
  0
LINE
  5
29C
100
AcDbEntity
  8
0
100
AcDbLine
 62
7
  6
CONTINUOUS
 10
11.4596495429
 20
6.1300862978
 11
11.4596495429
 21
5.8755699911
  0
LINE
  5
29D
100
AcDbEntity
  8
0
100
AcDbLine
 62
7
  6
CONTINUOUS
 10
11.473938689
 20
10.5409021944
 11
11.473938689
 21
9.6348637332
  0
LINE
  5
29E
100
AcDbEntity
  8
0
100
AcDbLine
 62
4
  6
CONTINUOUS
 10
11.91261271
 20
8.6899548703
 11
11.9436709691
 21
8.7199548467
  0
LINE
  5
29F
100
AcDbEntity
  8
0
100
AcDbLine
 62
4
  6
CONTINUOUS
 10
11.9436709691
 20
8.864843726
 11
11.91261271
 21
8.8710659695
  0
LINE
  5
2A0
100
AcDbEntity
  8
0
100
AcDbLine
 62
4
  6
CONTINUOUS
 10
11.9152008977
 20
8.0042326912
 11
11.9177890872
 21
7.9994882464
  0
LINE
  5
2A1
100
AcDbEntity
  8
0
100
AcDbLine
 62
4
  6
CONTINUOUS
 10
11.9384945924
 20
8.0774437816
 11
11.9410827808
 21
8.0726993358
  0
LINE
  5
2A2
100
AcDbEntity
  8
0
100
AcDbLine
 62
4
  6
CONTINUOUS
 10
11.9203772748
 20
8.1106549033
 11
11.9152008977
 21
8.1201437946
  0
LINE
  5
2A3
100
AcDbEntity
  8
0
100
AcDbLine
 62
4
  6
CONTINUOUS
 10
11.91261271
 20
8.7986215298
 11
11.9436709691
 21
8.864843726
  0
LINE
  5
2A4
100
AcDbEntity
  8
0
100
AcDbLine
 62
4
  6
CONTINUOUS
 10
11.91261271
 20
8.6030215428
 11
11.9436709691
 21
8.6692437389
  0
LINE
  5
2A5
100
AcDbEntity
  8
0
100
AcDbLine
 62
4
  6
CONTINUOUS
 10
11.91261271
 20
8.4508882195
 11
11.9436709691
 21
8.5171104157
  0
LINE
  5
2A6
100
AcDbEntity
  8
0
100
AcDbLine
 62
4
  6
CONTINUOUS
 10
12.2287414252
 20
8.7199538091
 11
12.2220860837
 21
8.7135252424
  0
LINE
  5
2A7
100
AcDbEntity
  8
0
100
AcDbLine
 62
4
  6
CONTINUOUS
 10
12.2176491898
 20
8.6595634236
 11
12.210993849
 21
8.6531348576
  0
LINE
  5
2A8
100
AcDbEntity
  8
0
100
AcDbLine
 62
4
  6
CONTINUOUS
 10
12.2287414252
 20
8.5957633727
 11
12.210993849
 21
8.5786205294
  0
LINE
  5
2A9
100
AcDbEntity
  8
0
100
AcDbLine
 62
4
  6
CONTINUOUS
 10
12.2309598724
 20
8.5537496201
 11
12.2087754011
 21
8.532321065
  0
LINE
  5
2AA
100
AcDbEntity
  8
0
100
AcDbLine
 62
4
  6
CONTINUOUS
 10
12.2021200612
 20
8.5258924999
 11
12.1999016133
 21
8.5237496437
  0
LINE
  5
2AB
100
AcDbEntity
  8
0
100
AcDbLine
 62
4
  6
CONTINUOUS
 10
12.3893569938
 20
8.6874310204
 11
12.3582987347
 21
8.6574310441
  0
LINE
  5
2AC
100
AcDbEntity
  8
0
100
AcDbLine
 62
4
  6
CONTINUOUS
 10
11.91261271
 20
8.2263104566
 11
11.9436709691
 21
8.256310433
  0
LINE
  5
2AD
100
AcDbEntity
  8
0
100
AcDbLine
 62
4
  6
CONTINUOUS
 10
12.3627356286
 20
8.6148003136
 11
12.3849200994
 21
8.6362288682
  0
LINE
  5
2AE
100
AcDbEntity
  8
0
100
AcDbLine
 62
4
  6
CONTINUOUS
 10
12.2287414252
 20
8.4770924916
 11
12.1999016133
 21
8.4492353708
  0
LINE
  5
2AF
100
AcDbEntity
  8
0
100
AcDbLine
 62
4
  6
CONTINUOUS
 10
11.9359064043
 20
8.1980993311
 11
11.9410827808
 21
8.1886104392
  0
LINE
  5
2B0
100
AcDbEntity
  8
0
100
AcDbLine
 62
4
  6
CONTINUOUS
 10
12.2043385072
 20
7.6117856928
 11
12.1999016133
 21
7.6240587119
  0
LINE
  5
2B1
100
AcDbEntity
  8
0
100
AcDbLine
 62
4
  6
CONTINUOUS
 10
11.91261271
 20
8.0162215816
 11
11.9152008977
 21
8.0042326912
  0
LINE
  5
2B2
100
AcDbEntity
  8
0
100
AcDbLine
 62
4
  6
CONTINUOUS
 10
11.9152008977
 20
8.1201437946
 11
11.91261271
 21
8.1321326851
  0
LINE
  5
2B3
100
AcDbEntity
  8
0
100
AcDbLine
 62
4
  6
CONTINUOUS
 10
11.9410827808
 20
8.0726993358
 11
11.9436709691
 21
8.0607104459
  0
LINE
  5
2B4
100
AcDbEntity
  8
0
100
AcDbLine
 62
4
  6
CONTINUOUS
 10
11.9410827808
 20
8.1886104392
 11
11.9436709691
 21
8.1766215494
  0
LINE
  5
2B5
100
AcDbEntity
  8
0
100
AcDbLine
 62
7
  6
CONTINUOUS
 10
11.8919072035
 20
9.6015903398
 11
11.8919072035
 21
6.1001091272
  0
LINE
  5
2B6
100
AcDbEntity
  8
0
100
AcDbLine
 62
4
  6
CONTINUOUS
 10
11.91261271
 20
8.0307104696
 11
11.91261271
 21
8.0162215816
  0
LINE
  5
2B7
100
AcDbEntity
  8
0
100
AcDbLine
 62
4
  6
CONTINUOUS
 10
11.91261271
 20
8.1321326851
 11
11.91261271
 21
8.146621573
  0
LINE
  5
2B8
100
AcDbEntity
  8
0
100
AcDbLine
 62
4
  6
CONTINUOUS
 10
11.91261271
 20
8.9217770772
 11
11.91261271
 21
8.9797326289
  0
LINE
  5
2B9
100
AcDbEntity
  8
0
100
AcDbLine
 62
4
  6
CONTINUOUS
 10
11.9281418396
 20
8.9367770654
 11
11.9281418396
 21
8.9729992852
  0
LINE
  5
2BA
100
AcDbEntity
  8
0
100
AcDbLine
 62
7
  6
CONTINUOUS
 10
11.9332179571
 20
10.6095319273
 11
11.9332179571
 21
9.703493466
  0
LINE
  5
2BB
100
AcDbEntity
  8
0
100
AcDbLine
 62
4
  6
CONTINUOUS
 10
11.9333182158
 20
8.6012881948
 11
11.9333182158
 21
8.6447548586
  0
LINE
  5
2BC
100
AcDbEntity
  8
0
100
AcDbLine
 62
4
  6
CONTINUOUS
 10
11.9436709691
 20
9.0097326053
 11
11.9436709691
 21
8.9517770536
  0
LINE
  5
2BD
100
AcDbEntity
  8
0
100
AcDbLine
 62
4
  6
CONTINUOUS
 10
11.9436709691
 20
8.1766215494
 11
11.9436709691
 21
8.1621326614
  0
LINE
  5
2BE
100
AcDbEntity
  8
0
100
AcDbLine
 62
4
  6
CONTINUOUS
 10
11.9436709691
 20
8.0607104459
 11
11.9436709691
 21
8.046221558
  0
LINE
  5
2BF
100
AcDbEntity
  8
0
100
AcDbLine
 62
4
  6
CONTINUOUS
 10
11.9436709691
 20
8.256310433
 11
11.9436709691
 21
8.3142659847
  0
LINE
  5
2C0
100
AcDbEntity
  8
0
100
AcDbLine
 62
4
  6
CONTINUOUS
 10
11.9436709691
 20
8.7199548467
 11
11.9436709691
 21
8.7779103984
  0
LINE
  5
2C1
100
AcDbEntity
  8
0
100
AcDbLine
 62
4
  6
CONTINUOUS
 10
11.9475532515
 20
7.9050826771
 11
11.9475532515
 21
9.0641937114
  0
LINE
  5
2C2
100
AcDbEntity
  8
0
100
AcDbLine
 62
4
  6
CONTINUOUS
 10
11.91261271
 20
8.146621573
 11
11.9152008977
 21
8.1636104584
  0
LINE
  5
2C3
100
AcDbEntity
  8
0
100
AcDbLine
 62
4
  6
CONTINUOUS
 10
11.9152008977
 20
8.0476993549
 11
11.91261271
 21
8.0307104696
  0
LINE
  5
2C4
100
AcDbEntity
  8
0
100
AcDbLine
 62
4
  6
CONTINUOUS
 10
11.9436709691
 20
8.1621326614
 11
11.9410827808
 21
8.1451437754
  0
LINE
  5
2C5
100
AcDbEntity
  8
0
100
AcDbLine
 62
4
  6
CONTINUOUS
 10
11.9229654624
 20
8.0117326852
 11
11.9307300281
 21
8.062699344
  0
LINE
  5
2C6
100
AcDbEntity
  8
0
100
AcDbLine
 62
4
  6
CONTINUOUS
 10
11.9436709691
 20
8.046221558
 11
11.9410827808
 21
8.029232672
  0
LINE
  5
2C7
100
AcDbEntity
  8
0
100
AcDbLine
 62
4
  6
CONTINUOUS
 10
11.9152008977
 20
8.1636104584
 11
11.9203772748
 21
8.183099343
  0
LINE
  5
2C8
100
AcDbEntity
  8
0
100
AcDbLine
 62
4
  6
CONTINUOUS
 10
11.9410827808
 20
8.1451437754
 11
11.9359064043
 21
8.1256548915
  0
LINE
  5
2C9
100
AcDbEntity
  8
0
100
AcDbLine
 62
4
  6
CONTINUOUS
 10
11.9177890872
 20
8.0574437981
 11
11.9152008977
 21
8.0476993549
  0
LINE
  5
2CA
100
AcDbEntity
  8
0
100
AcDbLine
 62
4
  6
CONTINUOUS
 10
11.9307300281
 20
8.062699344
 11
11.9333182158
 21
8.0724437854
  0
LINE
  5
2CB
100
AcDbEntity
  8
0
100
AcDbLine
 62
4
  6
CONTINUOUS
 10
11.9203772748
 20
8.0019882438
 11
11.9229654624
 21
8.0117326852
  0
LINE
  5
2CC
100
AcDbEntity
  8
0
100
AcDbLine
 62
4
  6
CONTINUOUS
 10
11.9410827808
 20
8.029232672
 11
11.9359064043
 21
8.0097437881
  0
LINE
  5
2CD
100
AcDbEntity
  8
0
100
AcDbLine
 62
4
  6
CONTINUOUS
 10
11.9048481453
 20
7.8638327096
 11
11.9237075344
 21
7.9148702016
  0
LINE
  5
2CE
100
AcDbEntity
  8
0
100
AcDbLine
 62
4
  6
CONTINUOUS
 10
11.9203772748
 20
8.183099343
 11
11.9281418396
 21
8.197843781
  0
LINE
  5
2CF
100
AcDbEntity
  8
0
100
AcDbLine
 62
4
  6
CONTINUOUS
 10
11.9359064043
 20
8.1256548915
 11
11.9281418396
 21
8.1109104534
  0
LINE
  5
2D0
100
AcDbEntity
  8
0
100
AcDbLine
 62
4
  6
CONTINUOUS
 10
12.2309598724
 20
8.4461179048
 11
12.2087754011
 21
8.4246893498
  0
LINE
  5
2D1
100
AcDbEntity
  8
0
100
AcDbLine
 62
4
  6
CONTINUOUS
 10
12.3893569938
 20
8.5825590276
 11
12.3582987347
 21
8.5525590512
  0
LINE
  5
2D2
100
AcDbEntity
  8
0
100
AcDbLine
 62
4
  6
CONTINUOUS
 10
12.2087754011
 20
8.375013131
 11
12.2287414252
 21
8.3942988305
  0
LINE
  5
2D3
100
AcDbEntity
  8
0
100
AcDbLine
 62
4
  6
CONTINUOUS
 10
12.3627356286
 20
8.5237273195
 11
12.3849200994
 21
8.5451558741
  0
LINE
  5
2D4
100
AcDbEntity
  8
0
100
AcDbLine
 62
4
  6
CONTINUOUS
 10
12.2309598724
 20
8.3633242437
 11
12.213212295
 21
8.3461813994
  0
LINE
  5
2D5
100
AcDbEntity
  8
0
100
AcDbLine
 62
4
  6
CONTINUOUS
 10
11.9333182158
 20
8.0724437854
 11
11.9384945924
 21
8.0774437816
  0
LINE
  5
2D6
100
AcDbEntity
  8
0
100
AcDbLine
 62
4
  6
CONTINUOUS
 10
12.3849200994
 20
8.4872003224
 11
12.3627356286
 21
8.4657717678
  0
LINE
  5
2D7
100
AcDbEntity
  8
0
100
AcDbLine
 62
4
  6
CONTINUOUS
 10
12.2287414252
 20
8.3115052247
 11
12.2220860837
 21
8.3050766581
  0
LINE
  5
2D8
100
AcDbEntity
  8
0
100
AcDbLine
 62
4
  6
CONTINUOUS
 10
11.9177890872
 20
7.9994882464
 11
11.9203772748
 21
8.0019882438
  0
LINE
  5
2D9
100
AcDbEntity
  8
0
100
AcDbLine
 62
4
  6
CONTINUOUS
 10
12.2988443525
 20
8.3599009305
 11
12.2944074586
 21
8.3556152199
  0
LINE
  5
2DA
100
AcDbEntity
  8
0
100
AcDbLine
 62
4
  6
CONTINUOUS
 10
12.210993849
 20
8.2584851062
 11
12.2154307429
 21
8.2627708168
  0
LINE
  5
2DB
100
AcDbEntity
  8
0
100
AcDbLine
 62
4
  6
CONTINUOUS
 10
12.3849200994
 20
8.3906077731
 11
12.3627356286
 21
8.3691792185
  0
LINE
  5
2DC
100
AcDbEntity
  8
0
100
AcDbLine
 62
4
  6
CONTINUOUS
 10
12.2309598724
 20
8.2391338074
 11
12.2087754011
 21
8.2177052523
  0
LINE
  5
2DD
100
AcDbEntity
  8
0
100
AcDbLine
 62
4
  6
CONTINUOUS
 10
12.1999016133
 20
8.1760163334
 11
12.2309598724
 21
8.2060163098
  0
LINE
  5
2DE
100
AcDbEntity
  8
0
100
AcDbLine
 62
4
  6
CONTINUOUS
 10
12.3165919294
 20
8.2859707666
 11
12.2899705647
 21
8.2602565013
  0
LINE
  5
2DF
100
AcDbEntity
  8
0
100
AcDbLine
 62
4
  6
CONTINUOUS
 10
12.2899705647
 20
8.3099326925
 11
12.2966259064
 21
8.2998025244
  0
LINE
  5
2E0
100
AcDbEntity
  8
0
100
AcDbLine
 62
4
  6
CONTINUOUS
 10
12.3210288238
 20
8.3233739338
 11
12.2988443525
 21
8.3599009305
  0
LINE
  5
2E1
100
AcDbEntity
  8
0
100
AcDbLine
 62
4
  6
CONTINUOUS
 10
12.2309598724
 20
7.6788967821
 11
12.2265229781
 21
7.6911697991
  0
LINE
  5
2E2
100
AcDbEntity
  8
0
100
AcDbLine
 62
4
  6
CONTINUOUS
 10
12.2309598724
 20
7.7699697969
 11
12.2265229781
 21
7.782242807
  0
LINE
  5
2E3
100
AcDbEntity
  8
0
100
AcDbLine
 62
4
  6
CONTINUOUS
 10
12.1999016133
 20
7.6240587119
 11
12.1999016133
 21
7.6571761698
  0
LINE
  5
2E4
100
AcDbEntity
  8
0
100
AcDbLine
 62
4
  6
CONTINUOUS
 10
12.1999016133
 20
8.5237496437
 11
12.1999016133
 21
8.5265094214
  0
LINE
  5
2E5
100
AcDbEntity
  8
0
100
AcDbLine
 62
4
  6
CONTINUOUS
 10
12.2087754011
 20
8.3336163558
 11
12.2087754011
 21
8.2922195252
  0
LINE
  5
2E6
100
AcDbEntity
  8
0
100
AcDbLine
 62
4
  6
CONTINUOUS
 10
12.2087754011
 20
7.9803634349
 11
12.2087754011
 21
8.0217602654
  0
LINE
  5
2E7
100
AcDbEntity
  8
0
100
AcDbLine
 62
4
  6
CONTINUOUS
 10
12.2087754011
 20
8.1514703124
 11
12.2087754011
 21
8.1845877547
  0
LINE
  5
2E8
100
AcDbEntity
  8
0
100
AcDbLine
 62
4
  6
CONTINUOUS
 10
12.2087754011
 20
8.2177052523
 11
12.2087754011
 21
8.2508226947
  0
LINE
  5
2E9
100
AcDbEntity
  8
0
100
AcDbLine
 62
4
  6
CONTINUOUS
 10
12.2087754011
 20
8.5847570062
 11
12.2087754011
 21
8.617874559
  0
LINE
  5
2EA
100
AcDbEntity
  8
0
100
AcDbLine
 62
4
  6
CONTINUOUS
 10
12.2087754011
 20
8.6592713343
 11
12.2087754011
 21
8.6923887766
  0
LINE
  5
2EB
100
AcDbEntity
  8
0
100
AcDbLine
 62
4
  6
CONTINUOUS
 10
12.2198676368
 20
8.3194925239
 11
12.2198676368
 21
8.3526099662
  0
LINE
  5
2EC
100
AcDbEntity
  8
0
100
AcDbLine
 62
4
  6
CONTINUOUS
 10
12.2309598724
 20
8.6393031141
 11
12.2309598724
 21
8.6061855612
  0
LINE
  5
2ED
100
AcDbEntity
  8
0
100
AcDbLine
 62
4
  6
CONTINUOUS
 10
12.2309598724
 20
8.5040734566
 11
12.2309598724
 21
8.4875147354
  0
LINE
  5
2EE
100
AcDbEntity
  8
0
100
AcDbLine
 62
4
  6
CONTINUOUS
 10
12.2309598724
 20
8.3633242437
 11
12.2309598724
 21
8.3302068014
  0
LINE
  5
2EF
100
AcDbEntity
  8
0
100
AcDbLine
 62
4
  6
CONTINUOUS
 10
12.2309598724
 20
8.2060163098
 11
12.2309598724
 21
8.1728988674
  0
LINE
  5
2F0
100
AcDbEntity
  8
0
100
AcDbLine
 62
4
  6
CONTINUOUS
 10
12.2309598724
 20
7.6457793234
 11
12.2309598724
 21
7.6788967821
  0
LINE
  5
2F1
100
AcDbEntity
  8
0
100
AcDbLine
 62
4
  6
CONTINUOUS
 10
12.2309598724
 20
7.7451316944
 11
12.2309598724
 21
7.7699697969
  0
LINE
  5
2F2
100
AcDbEntity
  8
0
100
AcDbLine
 62
4
  6
CONTINUOUS
 10
12.2309598724
 20
8.4047210743
 11
12.2309598724
 21
8.4461179048
  0
LINE
  5
2F3
100
AcDbEntity
  8
0
100
AcDbLine
 62
4
  6
CONTINUOUS
 10
12.2309598724
 20
8.6806998894
 11
12.2309598724
 21
8.7138173317
  0
LINE
  5
2F4
100
AcDbEntity
  8
0
100
AcDbLine
 62
4
  6
CONTINUOUS
 10
12.238354696
 20
8.0917285026
 11
12.238354696
 21
8.1082872237
  0
LINE
  5
2F5
100
AcDbEntity
  8
0
100
AcDbLine
 62
4
  6
CONTINUOUS
 10
12.2899705647
 20
8.334770788
 11
12.2899705647
 21
8.3099326925
  0
LINE
  5
2F6
100
AcDbEntity
  8
0
100
AcDbLine
 62
4
  6
CONTINUOUS
 10
12.2899705647
 20
8.1388258236
 11
12.2899705647
 21
8.1719432815
  0
LINE
  5
2F7
100
AcDbEntity
  8
0
100
AcDbLine
 62
4
  6
CONTINUOUS
 10
12.2206071191
 20
8.7038173393
 11
12.2191281544
 21
8.6692713267
  0
LINE
  5
2F8
100
AcDbEntity
  8
0
100
AcDbLine
 62
4
  6
CONTINUOUS
 10
12.2309598724
 20
8.3302068014
 11
12.2287414252
 21
8.3115052247
  0
LINE
  5
2F9
100
AcDbEntity
  8
0
100
AcDbLine
 62
4
  6
CONTINUOUS
 10
12.2309598724
 20
8.1728988674
 11
12.2287414252
 21
8.1541972907
  0
LINE
  5
2FA
100
AcDbEntity
  8
0
100
AcDbLine
 62
4
  6
CONTINUOUS
 10
12.2220860837
 20
8.7135252424
 11
12.2206071191
 21
8.7038173393
  0
LINE
  5
2FB
100
AcDbEntity
  8
0
100
AcDbLine
 62
4
  6
CONTINUOUS
 10
12.2191281544
 20
8.6692713267
 11
12.2176491898
 21
8.6595634236
  0
LINE
  5
2FC
100
AcDbEntity
  8
0
100
AcDbLine
 62
4
  6
CONTINUOUS
 10
12.2087754011
 20
8.6923887766
 11
12.210993849
 21
8.7028109658
  0
LINE
  5
2FD
100
AcDbEntity
  8
0
100
AcDbLine
 62
4
  6
CONTINUOUS
 10
12.2287414252
 20
8.6702777009
 11
12.2309598724
 21
8.6806998894
  0
LINE
  5
2FE
100
AcDbEntity
  8
0
100
AcDbLine
 62
4
  6
CONTINUOUS
 10
12.2309598724
 20
8.6061855612
 11
12.2287414252
 21
8.5957633727
  0
LINE
  5
2FF
100
AcDbEntity
  8
0
100
AcDbLine
 62
4
  6
CONTINUOUS
 10
12.2309598724
 20
8.4875147354
 11
12.2287414252
 21
8.4770924916
  0
LINE
  5
300
100
AcDbEntity
  8
0
100
AcDbLine
 62
4
  6
CONTINUOUS
 10
12.2287414252
 20
8.3942988305
 11
12.2309598724
 21
8.4047210743
  0
LINE
  5
301
100
AcDbEntity
  8
0
100
AcDbLine
 62
4
  6
CONTINUOUS
 10
12.2087754011
 20
8.0217602654
 11
12.210993849
 21
8.0321824822
  0
LINE
  5
302
100
AcDbEntity
  8
0
100
AcDbLine
 62
4
  6
CONTINUOUS
 10
12.2087754011
 20
8.2508226947
 11
12.210993849
 21
8.2584851062
  0
LINE
  5
303
100
AcDbEntity
  8
0
100
AcDbLine
 62
4
  6
CONTINUOUS
 10
12.213212295
 20
8.3461813994
 11
12.2087754011
 21
8.3336163558
  0
LINE
  5
304
100
AcDbEntity
  8
0
100
AcDbLine
 62
4
  6
CONTINUOUS
 10
12.2087754011
 20
8.063157096
 11
12.2309598724
 21
8.1094237604
  0
LINE
  5
305
100
AcDbEntity
  8
0
100
AcDbLine
 62
4
  6
CONTINUOUS
 10
11.9048481453
 20
7.8638327096
 11
11.9475532515
 21
7.9050826771
  0
LINE
  5
306
100
AcDbEntity
  8
0
100
AcDbLine
 62
4
  6
CONTINUOUS
 10
12.2287414252
 20
8.1541972907
 11
12.210993849
 21
8.1370544474
  0
LINE
  5
307
100
AcDbEntity
  8
0
100
AcDbLine
 62
4
  6
CONTINUOUS
 10
12.3893569938
 20
8.2210268014
 11
12.3582987347
 21
8.191026825
  0
LINE
  5
308
100
AcDbEntity
  8
0
100
AcDbLine
 62
4
  6
CONTINUOUS
 10
12.3165919294
 20
8.1479813591
 11
12.2944074586
 21
8.1265528045
  0
LINE
  5
309
100
AcDbEntity
  8
0
100
AcDbLine
 62
4
  6
CONTINUOUS
 10
12.210993849
 20
8.0321824822
 11
12.2309598724
 21
8.0514681811
  0
LINE
  5
30A
100
AcDbEntity
  8
0
100
AcDbLine
 62
4
  6
CONTINUOUS
 10
12.3893569938
 20
8.1547918891
 11
12.3582987347
 21
8.1247919127
  0
LINE
  5
30B
100
AcDbEntity
  8
0
100
AcDbLine
 62
4
  6
CONTINUOUS
 10
12.2309598724
 20
8.0017919899
 11
12.1999016133
 21
7.9717920136
  0
LINE
  5
30C
100
AcDbEntity
  8
0
100
AcDbLine
 62
7
  6
CONTINUOUS
 10
11.8919072035
 20
9.6015903398
 11
9.4770924947
 21
9.7690583087
  0
LINE
  5
30D
100
AcDbEntity
  8
0
100
AcDbLine
 62
7
  6
CONTINUOUS
 10
11.473938689
 20
9.6348637332
 11
9.9043091283
 21
9.7437179129
  0
LINE
  5
30E
100
AcDbEntity
  8
0
100
AcDbLine
 62
4
  6
CONTINUOUS
 10
12.2944074586
 20
8.1265528045
 11
12.2899705647
 21
8.1388258236
  0
LINE
  5
30F
100
AcDbEntity
  8
0
100
AcDbLine
 62
4
  6
CONTINUOUS
 10
12.3849200994
 20
7.9711199399
 11
12.3893569938
 21
7.9588469229
  0
LINE
  5
310
100
AcDbEntity
  8
0
100
AcDbLine
 62
4
  6
CONTINUOUS
 10
12.3210288238
 20
8.2736977565
 11
12.3165919294
 21
8.2859707666
  0
LINE
  5
311
100
AcDbEntity
  8
0
100
AcDbLine
 62
4
  6
CONTINUOUS
 10
12.210993849
 20
8.5786205294
 11
12.2087754011
 21
8.5847570062
  0
LINE
  5
312
100
AcDbEntity
  8
0
100
AcDbLine
 62
4
  6
CONTINUOUS
 10
12.210993849
 20
8.6531348576
 11
12.2087754011
 21
8.6592713343
  0
LINE
  5
313
100
AcDbEntity
  8
0
100
AcDbLine
 62
4
  6
CONTINUOUS
 10
12.2309598724
 20
8.7138173317
 11
12.2287414252
 21
8.7199538091
  0
LINE
  5
314
100
AcDbEntity
  8
0
100
AcDbLine
 62
4
  6
CONTINUOUS
 10
12.3627356286
 20
8.3691792185
 11
12.3582987347
 21
8.381452229
  0
LINE
  5
315
100
AcDbEntity
  8
0
100
AcDbLine
 62
4
  6
CONTINUOUS
 10
12.3627356286
 20
8.4657717678
 11
12.3582987347
 21
8.4780447783
  0
LINE
  5
316
100
AcDbEntity
  8
0
100
AcDbLine
 62
4
  6
CONTINUOUS
 10
12.210993849
 20
8.1370544474
 11
12.2087754011
 21
8.1514703124
  0
LINE
  5
317
100
AcDbEntity
  8
0
100
AcDbLine
 62
4
  6
CONTINUOUS
 10
12.2220860837
 20
8.3050766581
 11
12.2198676368
 21
8.3194925239
  0
LINE
  5
318
100
AcDbEntity
  8
0
100
AcDbLine
 62
4
  6
CONTINUOUS
 10
12.3701304517
 20
7.876800384
 11
12.3760463112
 21
7.8383580541
  0
LINE
  5
319
100
AcDbEntity
  8
0
100
AcDbLine
 62
4
  6
CONTINUOUS
 10
12.3210288238
 20
8.3813294856
 11
12.3210288238
 21
8.3233739338
  0
LINE
  5
31A
100
AcDbEntity
  8
0
100
AcDbLine
 62
4
  6
CONTINUOUS
 10
12.3210288238
 20
8.2019432578
 11
12.3210288238
 21
8.1688258
  0
LINE
  5
31B
100
AcDbEntity
  8
0
100
AcDbLine
 62
4
  6
CONTINUOUS
 10
12.3210288238
 20
8.2488596541
 11
12.3210288238
 21
8.2736977565
  0
LINE
  5
31C
100
AcDbEntity
  8
0
100
AcDbLine
 62
4
  6
CONTINUOUS
 10
12.3582987347
 20
7.8874501299
 11
12.3582987347
 21
7.9288469466
  0
LINE
  5
31D
100
AcDbEntity
  8
0
100
AcDbLine
 62
4
  6
CONTINUOUS
 10
12.3582987347
 20
8.0916744428
 11
12.3582987347
 21
8.1579093551
  0
LINE
  5
31E
100
AcDbEntity
  8
0
100
AcDbLine
 62
4
  6
CONTINUOUS
 10
12.3582987347
 20
8.191026825
 11
12.3582987347
 21
8.2407030162
  0
LINE
  5
31F
100
AcDbEntity
  8
0
100
AcDbLine
 62
4
  6
CONTINUOUS
 10
12.3582987347
 20
8.381452229
 11
12.3582987347
 21
8.4145696713
  0
LINE
  5
320
100
AcDbEntity
  8
0
100
AcDbLine
 62
4
  6
CONTINUOUS
 10
12.3582987347
 20
8.4780447783
 11
12.3582987347
 21
8.5028828877
  0
LINE
  5
321
100
AcDbEntity
  8
0
100
AcDbLine
 62
4
  6
CONTINUOUS
 10
12.3582987347
 20
8.5525590512
 11
12.3582987347
 21
8.5939558818
  0
LINE
  5
322
100
AcDbEntity
  8
0
100
AcDbLine
 62
4
  6
CONTINUOUS
 10
12.3582987347
 20
8.6574310441
 11
12.3582987347
 21
8.7071072076
  0
LINE
  5
323
100
AcDbEntity
  8
0
100
AcDbLine
 62
7
  6
CONTINUOUS
 10
12.3618219421
 20
11.0235316101
 11
12.3618219421
 21
10.1174931489
  0
LINE
  5
324
100
AcDbEntity
  8
0
100
AcDbLine
 62
4
  6
CONTINUOUS
 10
12.3716094163
 20
8.7034056183
 11
12.3716094163
 21
8.670288176
  0
LINE
  5
325
100
AcDbEntity
  8
0
100
AcDbLine
 62
4
  6
CONTINUOUS
 10
12.3716094163
 20
8.237001427
 11
12.3716094163
 21
8.203883957
  0
LINE
  5
326
100
AcDbEntity
  8
0
100
AcDbLine
 62
7
  6
CONTINUOUS
 10
12.3745997358
 20
10.1426133442
 11
12.3745997358
 21
11.0486518055
  0
LINE
  5
327
100
AcDbEntity
  8
0
100
AcDbLine
 62
4
  6
CONTINUOUS
 10
12.380483205
 20
8.0247897805
 11
12.380483205
 21
8.0689463887
  0
LINE
  5
328
100
AcDbEntity
  8
0
100
AcDbLine
 62
4
  6
CONTINUOUS
 10
12.3893569938
 20
8.6239558581
 11
12.3893569938
 21
8.5825590276
  0
LINE
  5
329
100
AcDbEntity
  8
0
100
AcDbLine
 62
4
  6
CONTINUOUS
 10
12.3893569938
 20
8.5328828641
 11
12.3893569938
 21
8.5080447547
  0
LINE
  5
32A
100
AcDbEntity
  8
0
100
AcDbLine
 62
4
  6
CONTINUOUS
 10
12.3893569938
 20
8.4445696477
 11
12.3893569938
 21
8.4114522053
  0
LINE
  5
32B
100
AcDbEntity
  8
0
100
AcDbLine
 62
4
  6
CONTINUOUS
 10
12.3893569938
 20
7.9588469229
 11
12.3893569938
 21
7.9174501062
  0
LINE
  5
32C
100
AcDbEntity
  8
0
100
AcDbLine
 62
4
  6
CONTINUOUS
 10
12.3893569938
 20
8.2210268014
 11
12.3893569938
 21
8.2707029925
  0
LINE
  5
32D
100
AcDbEntity
  8
0
100
AcDbLine
 62
4
  6
CONTINUOUS
 10
12.3893569938
 20
8.6874310204
 11
12.3893569938
 21
8.7371071839
  0
LINE
  5
32E
100
AcDbEntity
  8
0
100
AcDbLine
 62
4
  6
CONTINUOUS
 10
12.3701304517
 20
8.7516532116
 11
12.3760463112
 21
8.8015241016
  0
LINE
  5
32F
100
AcDbEntity
  8
0
100
AcDbLine
 62
4
  6
CONTINUOUS
 10
12.3760463112
 20
7.8383580541
 11
12.3819621701
 21
7.8882289471
  0
LINE
  5
330
100
AcDbEntity
  8
0
100
AcDbLine
 62
4
  6
CONTINUOUS
 10
12.2220860837
 20
7.686884088
 11
12.2087754011
 21
7.6160714034
  0
LINE
  5
331
100
AcDbEntity
  8
0
100
AcDbLine
 62
4
  6
CONTINUOUS
 10
12.2944074586
 20
8.3556152199
 11
12.2899705647
 21
8.334770788
  0
LINE
  5
332
100
AcDbEntity
  8
0
100
AcDbLine
 62
4
  6
CONTINUOUS
 10
12.3582987347
 20
8.5939558818
 11
12.3627356286
 21
8.6148003136
  0
LINE
  5
333
100
AcDbEntity
  8
0
100
AcDbLine
 62
4
  6
CONTINUOUS
 10
12.3582987347
 20
8.5028828877
 11
12.3627356286
 21
8.5237273195
  0
LINE
  5
334
100
AcDbEntity
  8
0
100
AcDbLine
 62
4
  6
CONTINUOUS
 10
12.1999016133
 20
7.6571761698
 11
12.2021200612
 21
7.6675983901
  0
LINE
  5
335
100
AcDbEntity
  8
0
100
AcDbLine
 62
4
  6
CONTINUOUS
 10
12.3893569938
 20
8.5080447547
 11
12.3849200994
 21
8.4872003224
  0
LINE
  5
336
100
AcDbEntity
  8
0
100
AcDbLine
 62
4
  6
CONTINUOUS
 10
12.3210288238
 20
8.1688258
 11
12.3165919294
 21
8.1479813591
  0
LINE
  5
337
100
AcDbEntity
  8
0
100
AcDbLine
 62
4
  6
CONTINUOUS
 10
12.2265229781
 20
7.7242872552
 11
12.2309598724
 21
7.7451316944
  0
LINE
  5
338
100
AcDbEntity
  8
0
100
AcDbLine
 62
4
  6
CONTINUOUS
 10
12.3893569938
 20
8.4114522053
 11
12.3849200994
 21
8.3906077731
  0
LINE
  5
339
100
AcDbEntity
  8
0
100
AcDbLine
 62
4
  6
CONTINUOUS
 10
12.2287414252
 20
7.6353571029
 11
12.2309598724
 21
7.6457793234
  0
LINE
  5
33A
100
AcDbEntity
  8
0
100
AcDbLine
 62
4
  6
CONTINUOUS
 10
12.3582987347
 20
7.9288469466
 11
12.3627356286
 21
7.9496913853
  0
LINE
  5
33B
100
AcDbEntity
  8
0
100
AcDbLine
 62
4
  6
CONTINUOUS
 10
12.1999016133
 20
7.7896459979
 11
12.2309598724
 21
7.8776015259
  0
LINE
  5
33C
100
AcDbEntity
  8
0
100
AcDbLine
 62
4
  6
CONTINUOUS
 10
12.3582987347
 20
8.0254395305
 11
12.3893569938
 21
8.0885569768
  0
LINE
  5
33D
100
AcDbEntity
  8
0
100
AcDbLine
 62
4
  6
CONTINUOUS
 10
12.2309598724
 20
7.8776015259
 11
12.1999016133
 21
7.8476015496
  0
LINE
  5
33E
100
AcDbEntity
  8
0
100
AcDbLine
 62
4
  6
CONTINUOUS
 10
12.3627356286
 20
7.9496913853
 11
12.3849200994
 21
7.9711199399
  0
LINE
  5
33F
100
AcDbEntity
  8
0
100
AcDbLine
 62
4
  6
CONTINUOUS
 10
12.2309598724
 20
7.8196459742
 11
12.1999016133
 21
7.7896459979
  0
LINE
  5
340
100
AcDbEntity
  8
0
100
AcDbLine
 62
4
  6
CONTINUOUS
 10
12.2265229781
 20
7.782242807
 11
12.1999016133
 21
7.7565285417
  0
LINE
  5
341
100
AcDbEntity
  8
0
100
AcDbLine
 62
4
  6
CONTINUOUS
 10
12.3893569938
 20
7.9174501062
 11
12.3582987347
 21
7.8874501299
  0
LINE
  5
342
100
AcDbEntity
  8
0
100
AcDbLine
 62
4
  6
CONTINUOUS
 10
12.1999016133
 20
7.69857299
 11
12.2265229781
 21
7.7242872552
  0
LINE
  5
343
100
AcDbEntity
  8
0
100
AcDbLine
 62
4
  6
CONTINUOUS
 10
12.2265229781
 20
7.6911697991
 11
12.2220860837
 21
7.686884088
  0
LINE
  5
344
100
AcDbEntity
  8
0
100
AcDbLine
 62
4
  6
CONTINUOUS
 10
12.2087754011
 20
7.6160714034
 11
12.2043385072
 21
7.6117856928
  0
LINE
  5
345
100
AcDbEntity
  8
0
100
AcDbLine
 62
4
  6
CONTINUOUS
 10
12.3849200994
 20
8.5451558741
 11
12.3893569938
 21
8.5328828641
  0
LINE
  5
346
100
AcDbEntity
  8
0
100
AcDbLine
 62
4
  6
CONTINUOUS
 10
12.3849200994
 20
8.6362288682
 11
12.3893569938
 21
8.6239558581
  0
LINE
  5
347
100
AcDbEntity
  8
0
100
AcDbLine
 62
4
  6
CONTINUOUS
 10
12.3760463112
 20
8.8015241016
 11
12.3819621701
 21
8.7630817747
  0
LINE
  5
348
100
AcDbEntity
  8
0
100
AcDbLine
 62
7
  6
CONTINUOUS
 10
12.5229075053
 20
10.2110898639
 11
12.5229075053
 21
6.7096086512
  0
LINE
  5
349
100
AcDbEntity
  8
0
100
AcDbLine
 62
7
  6
CONTINUOUS
 10
12.3745997358
 20
10.2213750426
 11
12.5229075053
 21
10.2110898639
  0
LINE
  5
34A
100
AcDbEntity
  8
0
100
AcDbLine
 62
7
  6
CONTINUOUS
 10
11.473938689
 20
10.5409021944
 11
9.9043091283
 21
10.6497563742
  0
LINE
  5
34B
100
AcDbEntity
  8
0
100
AcDbLine
 62
7
  6
CONTINUOUS
 10
11.4819620728
 20
10.5785958909
 11
9.9123325121
 21
10.6874500706
  0
LINE
  5
34C
100
AcDbEntity
  8
0
100
AcDbLine
 62
7
  6
CONTINUOUS
 10
11.9032742547
 20
10.6415522325
 11
11.9332179571
 21
10.6095319273
  0
LINE
  5
34D
100
AcDbEntity
  8
0
100
AcDbLine
 62
7
  6
CONTINUOUS
 10
12.5229075053
 20
6.7096086512
 11
11.8919072035
 21
6.1001091272
  0
LINE
  5
34E
100
AcDbEntity
  8
0
100
AcDbLine
 62
7
  6
CONTINUOUS
 10
11.3629053869
 20
5.8154511142
 11
11.3322313764
 21
5.8002987403
  0
LINE
  5
34F
100
AcDbEntity
  8
0
100
AcDbLine
 62
7
  6
CONTINUOUS
 10
10.5190038531
 20
11.2734496217
 11
12.0886334138
 21
11.164595442
  0
LINE
  5
350
100
AcDbEntity
  8
0
100
AcDbLine
 62
7
  6
CONTINUOUS
 10
12.3318782397
 20
11.0555519153
 11
12.3618219421
 21
11.0235316101
  0
LINE
  5
351
100
AcDbEntity
  8
0
100
AcDbLine
 62
7
  6
CONTINUOUS
 10
12.360887152
 20
11.0746581438
 11
12.3310207256
 21
11.1024519889
  0
ARC
  5
352
100
AcDbEntity
  8
0
100
AcDbCircle
 62
7
  6
CONTINUOUS
 10
10.8516617886
 20
7.9573178151
 40
2.210103635
100
AcDbArc
 50
273.2665005552
 51
274.6677615151
  0
ARC
  5
353
100
AcDbEntity
  8
0
100
AcDbCircle
 62
7
  6
CONTINUOUS
 10
10.8516617886
 20
8.3417212564
 40
2.210103635
100
AcDbArc
 50
273.2665005552
 51
274.6677615151
  0
ARC
  5
354
100
AcDbEntity
  8
0
100
AcDbCircle
 62
7
  6
CONTINUOUS
 10
11.602500124
 20
5.2233025984
 40
1.0790876534
100
AcDbArc
 50
120.0063975162
 51
121.9471599745
  0
ARC
  5
355
100
AcDbEntity
  8
0
100
AcDbCircle
 62
7
  6
CONTINUOUS
 10
10.6316872151
 20
7.1026853725
 40
0.9538158545
100
AcDbArc
 50
254.2644742826
 51
256.7139235525
  0
ARC
  5
356
100
AcDbEntity
  8
0
100
AcDbCircle
 62
7
  6
CONTINUOUS
 10
10.6316872151
 20
6.7182819312
 40
0.9538158545
100
AcDbArc
 50
254.2644742826
 51
256.7139235525
  0
ARC
  5
357
100
AcDbEntity
  8
0
100
AcDbCircle
 62
7
  6
CONTINUOUS
 10
9.5436877454
 20
5.7617826945
 40
0.930897781
100
AcDbArc
 50
27.0147483869
 51
28.5298929157
  0
ARC
  5
358
100
AcDbEntity
  8
0
100
AcDbCircle
 62
7
  6
CONTINUOUS
 10
11.0240243853
 20
6.5003463154
 40
0.7641475746
100
AcDbArc
 50
293.7608747297
 51
296.3085175792
  0
ARC
  5
359
100
AcDbEntity
  8
0
100
AcDbCircle
 62
7
  6
CONTINUOUS
 10
10.6611315747
 20
8.6376236518
 40
0.2191262223
100
AcDbArc
 50
159.7371881691
 51
165.8030090462
  0
SPLINE
  5
35A
100
AcDbEntity
  8
0
100
AcDbSpline
 62
7
  6
CONTINUOUS
 70
0
 71
3
 72
9
 73
5
 74
0
 42
0.0000001
 43
0.0000001
 44
0.0000000001
 40
0.0
 40
0.0
 40
0.0
 40
0.0
 40
0.2426770998
 40
1.0
 40
1.0
 40
1.0
 40
1.0
 10
11.4530192762
 20
5.8685509544
 30
0.0
 10
11.4524110858
 20
5.8679634874
 30
0.0
 10
11.4498780344
 20
5.8655706063
 30
0.0
 10
11.4472423206
 20
5.8632871368
 30
0.0
 10
11.4452015185
 20
5.8616142704
 30
0.0
  0
SPLINE
  5
35B
100
AcDbEntity
  8
0
100
AcDbSpline
 62
7
  6
CONTINUOUS
 70
0
 71
3
 72
9
 73
5
 74
0
 42
0.0000001
 43
0.0000001
 44
0.0000000001
 40
0.0
 40
0.0
 40
0.0
 40
0.0
 40
0.2426666479
 40
1.0
 40
1.0
 40
1.0
 40
1.0
 10
11.4596495429
 20
5.8755699911
 30
0.0
 10
11.4591419151
 20
5.8749762181
 30
0.0
 10
11.4570182193
 20
5.8725566337
 30
0.0
 10
11.4547728109
 20
5.8702447389
 30
0.0
 10
11.4530192762
 20
5.8685509544
 30
0.0
  0
SPLINE
  5
35C
100
AcDbEntity
  8
0
100
AcDbSpline
 62
7
  6
CONTINUOUS
 70
0
 71
3
 72
9
 73
5
 74
0
 42
0.0000001
 43
0.0000001
 44
0.0000000001
 40
0.0
 40
0.0
 40
0.0
 40
0.0
 40
0.504378312
 40
1.0
 40
1.0
 40
1.0
 40
1.0
 10
11.4452015185
 20
5.8616142704
 30
0.0
 10
11.4316977683
 20
5.8532054166
 30
0.0
 10
11.4045849309
 20
5.8370707607
 30
0.0
 10
11.3767121344
 20
5.8222735659
 30
0.0
 10
11.3626979964
 20
5.8153487235
 30
0.0
  0
SPLINE
  5
35D
100
AcDbEntity
  8
0
100
AcDbSpline
 62
7
  6
CONTINUOUS
 70
0
 71
3
 72
47
 73
43
 74
0
 42
0.0000001
 43
0.0000001
 44
0.0000000001
 40
0.0
 40
0.0
 40
0.0
 40
0.0
 40
0.0099874638
 40
0.0204476834
 40
0.0313771515
 40
0.0427708334
 40
0.0546218702
 40
0.0669225517
 40
0.0796641282
 40
0.0928362942
 40
0.1204271347
 40
0.1495984091
 40
0.1802407165
 40
0.2122338314
 40
0.2454489836
 40
0.2797497839
 40
0.3149929168
 40
0.3510298084
 40
0.3877071885
 40
0.4248680172
 40
0.4623527228
 40
0.4999997959
 40
0.5376468789
 40
0.575131606
 40
0.6122924455
 40
0.6489698269
 40
0.6850067267
 40
0.7202498875
 40
0.7545507276
 40
0.7877659112
 40
0.8197590481
 40
0.8504013805
 40
0.8795726993
 40
0.9071635849
 40
0.9203357726
 40
0.933077377
 40
0.9453780958
 40
0.9572291635
 40
0.968622847
 40
0.9795522717
 40
0.9900124597
 40
1.0
 40
1.0
 40
1.0
 40
1.0
 10
11.3322352618
 20
5.800300695
 30
0.0
 10
11.3292447275
 20
5.7988234172
 30
0.0
 10
11.3230710211
 20
5.7959015014
 30
0.0
 10
11.3134688227
 20
5.7917020577
 30
0.0
 10
11.3033206446
 20
5.787589223
 30
0.0
 10
11.2926381966
 20
5.7835680132
 30
0.0
 10
11.2814338209
 20
5.779642708
 30
0.0
 10
11.2697203203
 20
5.7758179889
 30
0.0
 10
11.2575110643
 20
5.7720984181
 30
0.0
 10
11.2403232355
 20
5.7672088863
 30
0.0
 10
11.2176929232
 20
5.7614134048
 30
0.0
 10
11.1892016449
 20
5.7550447325
 30
0.0
 10
11.1591015959
 20
5.7491892086
 30
0.0
 10
11.1275315897
 20
5.743873867
 30
0.0
 10
11.0946369317
 20
5.7391237106
 30
0.0
 10
11.0605692806
 20
5.7349611785
 30
0.0
 10
11.0254858221
 20
5.7314054505
 30
0.0
 10
10.9895485012
 20
5.7284732801
 30
0.0
 10
10.9529232403
 20
5.7261784955
 30
0.0
 10
10.9157792078
 20
5.724531548
 30
0.0
 10
10.8782879839
 20
5.723540312
 30
0.0
 10
10.8406227436
 20
5.7232094554
 30
0.0
 10
10.802957496
 20
5.7235402953
 30
0.0
 10
10.7654662576
 20
5.7245315153
 30
0.0
 10
10.7283222131
 20
5.726178446
 30
0.0
 10
10.6916969444
 20
5.7284732145
 30
0.0
 10
10.6557596097
 20
5.731405368
 30
0.0
 10
10.6206761241
 20
5.7349610814
 30
0.0
 10
10.5866084379
 20
5.7391235988
 30
0.0
 10
10.5537137466
 20
5.7438737419
 30
0.0
 10
10.5221437112
 20
5.7491890678
 30
0.0
 10
10.4920436283
 20
5.7550445774
 30
0.0
 10
10.4635523087
 20
5.76141324
 30
0.0
 10
10.4409219547
 20
5.7672087081
 30
0.0
 10
10.4237340902
 20
5.7720982303
 30
0.0
 10
10.4115248035
 20
5.7758177997
 30
0.0
 10
10.3998112714
 20
5.779642526
 30
0.0
 10
10.388606872
 20
5.7835678338
 30
0.0
 10
10.3779244212
 20
5.7875890252
 30
0.0
 10
10.3677762492
 20
5.7917018091
 30
0.0
 10
10.3581740332
 20
5.7959012144
 30
0.0
 10
10.352000312
 20
5.798823135
 30
0.0
 10
10.349009759
 20
5.8003004327
 30
0.0
  0
SPLINE
  5
35E
100
AcDbEntity
  8
0
100
AcDbSpline
 62
7
  6
CONTINUOUS
 70
0
 71
3
 72
23
 73
19
 74
0
 42
0.0000001
 43
0.0000001
 44
0.0000000001
 40
0.0
 40
0.0
 40
0.0
 40
0.0
 40
0.0436203086
 40
0.0892268542
 40
0.137068591
 40
0.187353676
 40
0.2402538462
 40
0.2958872461
 40
0.3543311569
 40
0.4156094827
 40
0.4797102731
 40
0.5465788188
 40
0.6161346312
 40
0.6882694307
 40
0.7628606873
 40
0.8397744221
 40
0.9188692703
 40
1.0
 40
1.0
 40
1.0
 40
1.0
 10
10.3300034995
 20
5.8096891828
 30
0.0
 10
10.3276935638
 20
5.8108297514
 30
0.0
 10
10.3230564401
 20
5.8133448479
 30
0.0
 10
10.3162291507
 20
5.8177058999
 30
0.0
 10
10.3093927618
 20
5.8227481864
 30
0.0
 10
10.3025512121
 20
5.8284791188
 30
0.0
 10
10.2957101139
 20
5.8349027696
 30
0.0
 10
10.2888725734
 20
5.842014342
 30
0.0
 10
10.2820443142
 20
5.849805154
 30
0.0
 10
10.2752280701
 20
5.8582585565
 30
0.0
 10
10.2684289016
 20
5.8673544623
 30
0.0
 10
10.2616490514
 20
5.8770668443
 30
0.0
 10
10.2548923845
 20
5.8873673924
 30
0.0
 10
10.2481604975
 20
5.8982243464
 30
0.0
 10
10.2414557805
 20
5.9096052
 30
0.0
 10
10.2347791313
 20
5.9214762824
 30
0.0
 10
10.2281316388
 20
5.9338041215
 30
0.0
 10
10.2237725208
 20
5.9422035386
 30
0.0
 10
10.2215949892
 20
5.9464716714
 30
0.0
  0
SPLINE
  5
35F
100
AcDbEntity
  8
0
100
AcDbSpline
 62
7
  6
CONTINUOUS
 70
0
 71
3
 72
21
 73
17
 74
0
 42
0.0000001
 43
0.0000001
 44
0.0000000001
 40
0.0
 40
0.0
 40
0.0
 40
0.0
 40
0.1230212981
 40
0.1847065752
 40
0.2465215318
 40
0.3084771567
 40
0.3705832678
 40
0.432847904
 40
0.4952752623
 40
0.5578663069
 40
0.6206183946
 40
0.6835249868
 40
0.7465773451
 40
0.8097643485
 40
0.8730733734
 40
1.0
 40
1.0
 40
1.0
 40
1.0
 10
10.9775941812
 20
5.7508049305
 30
0.0
 10
10.9545150002
 20
5.7462575743
 30
0.0
 10
10.9196825587
 20
5.740285168
 30
0.0
 10
10.8729113437
 20
5.7343750206
 30
0.0
 10
10.8376000351
 20
5.7310478066
 30
0.0
 10
10.8021155923
 20
5.728913399
 30
0.0
 10
10.7664908712
 20
5.7280426626
 30
0.0
 10
10.7307676597
 20
5.7284915578
 30
0.0
 10
10.694994038
 20
5.7302935566
 30
0.0
 10
10.6592215118
 20
5.7334568425
 30
0.0
 10
10.6235015719
 20
5.7379657931
 30
0.0
 10
10.5878819585
 20
5.7437800349
 30
0.0
 10
10.552403819
 20
5.750837749
 30
0.0
 10
10.5170996283
 20
5.7590634387
 30
0.0
 10
10.4702557021
 20
5.7714829907
 30
0.0
 10
10.4354952924
 20
5.7822707851
 30
0.0
 10
10.4124877066
 20
5.7899951976
 30
0.0
  0
SPLINE
  5
360
100
AcDbEntity
  8
0
100
AcDbSpline
 62
7
  6
CONTINUOUS
 70
0
 71
3
 72
10
 73
6
 74
0
 42
0.0000001
 43
0.0000001
 44
0.0000000001
 40
0.0
 40
0.0
 40
0.0
 40
0.0
 40
0.5008171201
 40
0.7506395088
 40
1.0
 40
1.0
 40
1.0
 40
1.0
 10
10.9775941812
 20
6.1352083718
 30
0.0
 10
10.9553127588
 20
6.1426889871
 30
0.0
 10
10.9216571918
 20
6.1531605648
 30
0.0
 10
10.8763170005
 20
6.1652917544
 30
0.0
 10
10.8535152128
 20
6.1706870813
 30
0.0
 10
10.8420863416
 20
6.1732035484
 30
0.0
  0
SPLINE
  5
361
100
AcDbEntity
  8
0
100
AcDbSpline
 62
7
  6
CONTINUOUS
 70
0
 71
3
 72
10
 73
6
 74
0
 42
0.0000001
 43
0.0000001
 44
0.0000000001
 40
0.0
 40
0.0
 40
0.0
 40
0.0
 40
0.2507195404
 40
0.5009342074
 40
1.0
 40
1.0
 40
1.0
 40
1.0
 10
10.5479955385
 20
6.1935988137
 30
0.0
 10
10.5365901446
 20
6.1926694494
 30
0.0
 10
10.5138307304
 20
6.1904423347
 30
0.0
 10
10.4685585251
 20
6.1846112418
 30
0.0
 10
10.4348361044
 20
6.1788020068
 30
0.0
 10
10.4124877066
 20
6.1743986389
 30
0.0
  0
SPLINE
  5
362
100
AcDbEntity
  8
0
100
AcDbSpline
 62
7
  6
CONTINUOUS
 70
0
 71
3
 72
11
 73
7
 74
0
 42
0.0000001
 43
0.0000001
 44
0.0000000001
 40
0.0
 40
0.0
 40
0.0
 40
0.0
 40
0.2465919593
 40
0.494712682
 40
0.7454424776
 40
1.0
 40
1.0
 40
1.0
 40
1.0
 10
10.3730149287
 20
5.8002114913
 30
0.0
 10
10.3710725159
 20
5.8001566567
 30
0.0
 10
10.3671712061
 20
5.8001640031
 30
0.0
 10
10.3613055149
 20
5.800547525
 30
0.0
 10
10.3554154429
 20
5.8013258074
 30
0.0
 10
10.3515089858
 20
5.8021153552
 30
0.0
 10
10.3495575407
 20
5.8025798166
 30
0.0
  0
SPLINE
  5
363
100
AcDbEntity
  8
0
100
AcDbSpline
 62
7
  6
CONTINUOUS
 70
0
 71
3
 72
10
 73
6
 74
0
 42
0.0000001
 43
0.0000001
 44
0.0000000001
 40
0.0
 40
0.0
 40
0.0
 40
0.0
 40
0.2418255986
 40
0.4885199497
 40
1.0
 40
1.0
 40
1.0
 40
1.0
 10
10.3495575407
 20
5.8025798166
 30
0.0
 10
10.3479230232
 20
5.8029688463
 30
0.0
 10
10.3446427129
 20
5.8038497069
 30
0.0
 10
10.3380438125
 20
5.8060320122
 30
0.0
 10
10.3331899341
 20
5.8081158285
 30
0.0
 10
10.3300034995
 20
5.8096891828
 30
0.0
  0
LINE
  5
364
100
AcDbEntity
  8
0
100
AcDbLine
 62
7
  6
CONTINUOUS
 10
11.3319150382
 20
5.8009716936
 11
11.3311859242
 21
5.800651806
  0
SPLINE
  5
365
100
AcDbEntity
  8
0
100
AcDbSpline
 62
7
  6
CONTINUOUS
 70
0
 71
3
 72
15
 73
11
 74
0
 42
0.0000001
 43
0.0000001
 44
0.0000000001
 40
0.0
 40
0.0
 40
0.0
 40
0.0
 40
0.1321602046
 40
0.2618009952
 40
0.3890353631
 40
0.5141096583
 40
0.6373677171
 40
0.75919507
 40
0.8799649792
 40
1.0
 40
1.0
 40
1.0
 40
1.0
 10
11.3311859242
 20
5.800651806
 30
0.0
 10
11.3188048208
 20
5.7952280638
 30
0.0
 10
11.293964057
 20
5.7851810747
 30
0.0
 10
11.2561699938
 20
5.7726476373
 30
0.0
 10
11.2182992244
 20
5.7629303477
 30
0.0
 10
11.1804728487
 20
5.7560618436
 30
0.0
 10
11.1428054628
 20
5.7519620151
 30
0.0
 10
11.1053898809
 20
5.7504553272
 30
0.0
 10
11.0682890442
 20
5.7513021749
 30
0.0
 10
11.0437246248
 20
5.7532615249
 30
0.0
 10
11.0315149835
 20
5.7545443574
 30
0.0
  0
SPLINE
  5
366
100
AcDbEntity
  8
0
100
AcDbSpline
 62
7
  6
CONTINUOUS
 70
0
 71
3
 72
83
 73
79
 74
0
 42
0.0000001
 43
0.0000001
 44
0.0000000001
 40
0.0
 40
0.0
 40
0.0
 40
0.0
 40
0.0039801597
 40
0.0081241011
 40
0.0124359827
 40
0.0169193525
 40
0.0215772196
 40
0.0264119586
 40
0.031425229
 40
0.0366182129
 40
0.0419916121
 40
0.0475457279
 40
0.0532805095
 40
0.0591955088
 40
0.0715625207
 40
0.0846382028
 40
0.0984095218
 40
0.1128600995
 40
0.1279706368
 40
0.1437192468
 40
0.1600817256
 40
0.1770317945
 40
0.1945412999
 40
0.2125803859
 40
0.2311176466
 40
0.2501202605
 40
0.2695541245
 40
0.2893839808
 40
0.3095735319
 40
0.330085551
 40
0.3508819872
 40
0.3719240699
 40
0.4145863693
 40
0.4577526899
 40
0.5010975086
 40
0.544293566
 40
0.5870150496
 40
0.6080975911
 40
0.6289416064
 40
0.6495082092
 40
0.6697592088
 40
0.689657215
 40
0.7091657527
 40
0.7282493694
 40
0.746873748
 40
0.7650058256
 40
0.7826139217
 40
0.7996678828
 40
0.8161392372
 40
0.8320013567
 40
0.8472296488
 40
0.8618017808
 40
0.8756979498
 40
0.88890122
 40
0.9013979191
 40
0.913178149
 40
0.9187980119
 40
0.9242371416
 40
0.9294956774
 40
0.934574209
 40
0.9394737161
 40
0.9441957227
 40
0.9487422872
 40
0.9531160827
 40
0.9573205216
 40
0.9613597549
 40
0.9652388727
 40
0.9689639318
 40
0.9725421085
 40
0.975981836
 40
0.9792928628
 40
0.9824864354
 40
0.9855753015
 40
0.9885737802
 40
0.9914977137
 40
0.9943643206
 40
0.9971920041
 40
1.0
 40
1.0
 40
1.0
 40
1.0
 10
11.680977711
 20
10.8788302852
 30
0.0
 10
11.6799082143
 20
10.8777972307
 30
0.0
 10
11.6776766411
 20
10.8757384211
 30
0.0
 10
11.6741335803
 20
10.8727313632
 30
0.0
 10
11.6703303333
 20
10.8697458563
 30
0.0
 10
11.666268988
 20
10.8667835215
 30
0.0
 10
11.6619515471
 20
10.8638457211
 30
0.0
 10
11.6573801035
 20
10.8609339056
 30
0.0
 10
11.6525569493
 20
10.8580494438
 30
0.0
 10
11.6474844768
 20
10.8551938318
 30
0.0
 10
11.6421652392
 20
10.8523684727
 30
0.0
 10
11.6366019027
 20
10.8495747752
 30
0.0
 10
11.6307972337
 20
10.8468141472
 30
0.0
 10
11.6226180148
 20
10.8431243716
 30
0.0
 10
11.6118025343
 20
10.8386154053
 30
0.0
 10
11.5980963336
 20
10.8334354617
 30
0.0
 10
11.5835037959
 20
10.8284195018
 30
0.0
 10
11.5680542942
 20
10.8235777041
 30
0.0
 10
11.5517787582
 20
10.8189199096
 30
0.0
 10
11.5347099226
 20
10.8144556021
 30
0.0
 10
11.5168821578
 20
10.8101938688
 30
0.0
 10
11.4983314117
 20
10.8061433902
 30
0.0
 10
11.4790951177
 20
10.8023124176
 30
0.0
 10
11.4592121166
 20
10.798708755
 30
0.0
 10
11.4387225753
 20
10.7953397452
 30
0.0
 10
11.417667906
 20
10.7922122461
 30
0.0
 10
11.3960906768
 20
10.7893326212
 30
0.0
 10
11.3740345215
 20
10.7867067307
 30
0.0
 10
11.3515440445
 20
10.7843399161
 30
0.0
 10
11.328664747
 20
10.7822370022
 30
0.0
 10
11.3054428753
 20
10.7804022392
 30
0.0
 10
11.2739429354
 20
10.778309005
 30
0.0
 10
11.2340587075
 20
10.7763946189
 30
0.0
 10
11.185810691
 20
10.7752206791
 30
0.0
 10
11.1373488584
 20
10.7751695536
 30
0.0
 10
11.089065251
 20
10.7762416424
 30
0.0
 10
11.0491286895
 20
10.7780715086
 30
0.0
 10
11.0175692544
 20
10.780097667
 30
0.0
 10
10.9942901139
 20
10.7818832405
 30
0.0
 10
10.971345049
 20
10.7839376799
 30
0.0
 10
10.9487804415
 20
10.7862568368
 30
0.0
 10
10.9266419473
 20
10.7888359896
 30
0.0
 10
10.9049743394
 20
10.7916698901
 30
0.0
 10
10.8838214325
 20
10.7947527684
 30
0.0
 10
10.8632259912
 20
10.798078349
 30
0.0
 10
10.8432296444
 20
10.8016398618
 30
0.0
 10
10.823872797
 20
10.8054300572
 30
0.0
 10
10.8051945407
 20
10.809441216
 30
0.0
 10
10.787232569
 20
10.8136651635
 30
0.0
 10
10.7700230988
 20
10.8180932941
 30
0.0
 10
10.7536007953
 20
10.8227165892
 30
0.0
 10
10.7379986835
 20
10.8275256393
 30
0.0
 10
10.7232480967
 20
10.8325106696
 30
0.0
 10
10.7093784817
 20
10.8376615687
 30
0.0
 10
10.6964177022
 20
10.8429679034
 30
0.0
 10
10.686241738
 20
10.8475800986
 30
0.0
 10
10.6785858097
 20
10.8513485073
 30
0.0
 10
10.6731774552
 20
10.8541625205
 30
0.0
 10
10.6680149342
 20
10.857007304
 30
0.0
 10
10.6631007967
 20
10.8598814122
 30
0.0
 10
10.6584375217
 20
10.862783464
 30
0.0
 10
10.6540274175
 20
10.8657119919
 30
0.0
 10
10.6498726778
 20
10.8686655612
 30
0.0
 10
10.6459753889
 20
10.8716427663
 30
0.0
 10
10.6423374522
 20
10.8746421168
 30
0.0
 10
10.6389607248
 20
10.8776622498
 30
0.0
 10
10.6358468636
 20
10.8807016969
 30
0.0
 10
10.6329974601
 20
10.8837590735
 30
0.0
 10
10.6304140094
 20
10.8868330011
 30
0.0
 10
10.6280978401
 20
10.8899220486
 30
0.0
 10
10.626050326
 20
10.8930248895
 30
0.0
 10
10.6242726248
 20
10.8961400651
 30
0.0
 10
10.6227659444
 20
10.899266161
 30
0.0
 10
10.6215313852
 20
10.9024016588
 30
0.0
 10
10.6205698956
 20
10.9055448911
 30
0.0
 10
10.6198824498
 20
10.9086942139
 30
0.0
 10
10.6194696321
 20
10.9118473862
 30
0.0
 10
10.6193777467
 20
10.913953959
 30
0.0
 10
10.6193777417
 20
10.9150030008
 30
0.0
  0
SPLINE
  5
367
100
AcDbEntity
  8
0
100
AcDbSpline
 62
7
  6
CONTINUOUS
 70
0
 71
3
 72
41
 73
37
 74
0
 42
0.0000001
 43
0.0000001
 44
0.0000000001
 40
0.0
 40
0.0
 40
0.0
 40
0.0
 40
0.031144444
 40
0.0624425093
 40
0.0938872508
 40
0.1254695847
 40
0.1571771078
 40
0.1889951283
 40
0.2209066801
 40
0.2528929859
 40
0.2849338014
 40
0.3170078274
 40
0.3490931225
 40
0.3811675283
 40
0.4132090962
 40
0.4451965119
 40
0.4771095115
 40
0.5089292827
 40
0.5406388458
 40
0.5722234075
 40
0.6036706813
 40
0.6349711679
 40
0.6661183875
 40
0.6971090579
 40
0.7279432122
 40
0.7586242475
 40
0.7891589026
 40
0.8195571573
 40
0.8498320547
 40
0.8649308931
 40
0.8800050545
 40
0.9100832586
 40
0.9400926739
 40
0.9550812746
 40
0.9700610358
 40
1.0
 40
1.0
 40
1.0
 40
1.0
 10
11.5596286883
 20
9.0359021071
 30
0.0
 10
11.5629426399
 20
9.0356722838
 30
0.0
 10
11.5695725315
 20
9.0349689245
 30
0.0
 10
11.5794369785
 20
9.0331971916
 30
0.0
 10
11.5891957868
 20
9.0307154658
 30
0.0
 10
11.5987962054
 20
9.027537178
 30
0.0
 10
11.6081872659
 20
9.0236793064
 30
0.0
 10
11.6173188636
 20
9.0191625162
 30
0.0
 10
11.6261423546
 20
9.0140109327
 30
0.0
 10
11.6346107224
 20
9.008252067
 30
0.0
 10
11.6426788474
 20
9.0019166463
 30
0.0
 10
11.6503037395
 20
8.9950384608
 30
0.0
 10
11.6574447655
 20
8.9876541811
 30
0.0
 10
11.6640638632
 20
8.9798031663
 30
0.0
 10
11.6701257427
 20
8.971527255
 30
0.0
 10
11.6755980723
 20
8.9628705457
 30
0.0
 10
11.6804516497
 20
8.9538791639
 30
0.0
 10
11.6846605569
 20
8.944601019
 30
0.0
 10
11.6882022978
 20
8.9350855528
 30
0.0
 10
11.691057918
 20
8.9253834788
 30
0.0
 10
11.6932121071
 20
8.9155465159
 30
0.0
 10
11.6946532818
 20
8.9056271165
 30
0.0
 10
11.6953736497
 20
8.8956781899
 30
0.0
 10
11.6953692557
 20
8.8857528261
 30
0.0
 10
11.6946400029
 20
8.8759040053
 30
0.0
 10
11.6931896773
 20
8.8661843559
 30
0.0
 10
11.6910258631
 20
8.8566457313
 30
0.0
 10
11.6881601709
 20
8.8473394614
 30
0.0
 10
11.6851965709
 20
8.8398112337
 30
0.0
 10
11.682492126
 20
8.8339568759
 30
0.0
 10
11.6795735206
 20
8.8282298061
 30
0.0
 10
11.6755211954
 20
8.8213026196
 30
0.0
 10
11.6709476692
 20
8.8147189587
 30
0.0
 10
11.6669954952
 20
8.809686554
 30
0.0
 10
11.6628547539
 20
8.8048184352
 30
0.0
 10
11.6595373149
 20
8.8013527365
 30
0.0
 10
11.6572404944
 20
8.7991341804
 30
0.0
  0
SPLINE
  5
368
100
AcDbEntity
  8
0
100
AcDbSpline
 62
7
  6
CONTINUOUS
 70
0
 71
3
 72
41
 73
37
 74
0
 42
0.0000001
 43
0.0000001
 44
0.0000000001
 40
0.0
 40
0.0
 40
0.0
 40
0.0
 40
0.031144444
 40
0.0624425093
 40
0.0938872508
 40
0.1254695847
 40
0.1571771078
 40
0.1889951283
 40
0.2209066801
 40
0.2528929859
 40
0.2849338014
 40
0.3170078274
 40
0.3490931225
 40
0.3811675283
 40
0.4132090962
 40
0.4451965119
 40
0.4771095115
 40
0.5089292827
 40
0.5406388458
 40
0.5722234075
 40
0.6036706813
 40
0.6349711679
 40
0.6661183875
 40
0.6971090579
 40
0.7279432122
 40
0.7586242475
 40
0.7891589026
 40
0.8195571573
 40
0.8498320547
 40
0.8649308931
 40
0.8800050545
 40
0.9100832586
 40
0.9400926739
 40
0.9550812746
 40
0.9700610358
 40
1.0
 40
1.0
 40
1.0
 40
1.0
 10
9.8093710963
 20
9.1572828834
 30
0.0
 10
9.8126850479
 20
9.15705306
 30
0.0
 10
9.8193149395
 20
9.1563497008
 30
0.0
 10
9.8291793865
 20
9.1545779679
 30
0.0
 10
9.8389381948
 20
9.1520962421
 30
0.0
 10
9.8485386134
 20
9.1489179542
 30
0.0
 10
9.8579296739
 20
9.1450600827
 30
0.0
 10
9.8670612715
 20
9.1405432924
 30
0.0
 10
9.8758847626
 20
9.135391709
 30
0.0
 10
9.8843531304
 20
9.1296328432
 30
0.0
 10
9.8924212554
 20
9.1232974226
 30
0.0
 10
9.9000461475
 20
9.116419237
 30
0.0
 10
9.9071871734
 20
9.1090349574
 30
0.0
 10
9.9138062712
 20
9.1011839425
 30
0.0
 10
9.9198681507
 20
9.0929080313
 30
0.0
 10
9.9253404803
 20
9.084251322
 30
0.0
 10
9.9301940577
 20
9.0752599402
 30
0.0
 10
9.9344029649
 20
9.0659817953
 30
0.0
 10
9.9379447057
 20
9.0564663291
 30
0.0
 10
9.940800326
 20
9.046764255
 30
0.0
 10
9.9429545151
 20
9.0369272921
 30
0.0
 10
9.9443956898
 20
9.0270078928
 30
0.0
 10
9.9451160577
 20
9.0170589661
 30
0.0
 10
9.9451116637
 20
9.0071336023
 30
0.0
 10
9.9443824109
 20
8.9972847816
 30
0.0
 10
9.9429320853
 20
8.9875651321
 30
0.0
 10
9.940768271
 20
8.9780265075
 30
0.0
 10
9.9379025789
 20
8.9687202376
 30
0.0
 10
9.9349389788
 20
8.96119201
 30
0.0
 10
9.932234534
 20
8.9553376521
 30
0.0
 10
9.9293159286
 20
8.9496105824
 30
0.0
 10
9.9252636034
 20
8.9426833958
 30
0.0
 10
9.9206900772
 20
8.936099735
 30
0.0
 10
9.9167379031
 20
8.9310673303
 30
0.0
 10
9.9125971618
 20
8.9261992115
 30
0.0
 10
9.9092797229
 20
8.9227335128
 30
0.0
 10
9.9069829024
 20
8.9205149566
 30
0.0
  0
SPLINE
  5
369
100
AcDbEntity
  8
0
100
AcDbSpline
 62
7
  6
CONTINUOUS
 70
0
 71
3
 72
41
 73
37
 74
0
 42
0.0000001
 43
0.0000001
 44
0.0000000001
 40
0.0
 40
0.0
 40
0.0
 40
0.0
 40
0.031144444
 40
0.0624425093
 40
0.0938872508
 40
0.1254695847
 40
0.1571771078
 40
0.1889951283
 40
0.2209066801
 40
0.2528929859
 40
0.2849338014
 40
0.3170078274
 40
0.3490931225
 40
0.3811675283
 40
0.4132090962
 40
0.4451965119
 40
0.4771095115
 40
0.5089292827
 40
0.5406388458
 40
0.5722234075
 40
0.6036706813
 40
0.6349711679
 40
0.6661183875
 40
0.6971090579
 40
0.7279432122
 40
0.7586242475
 40
0.7891589026
 40
0.8195571573
 40
0.8498320547
 40
0.8649308931
 40
0.8800050545
 40
0.9100832586
 40
0.9400926739
 40
0.9550812746
 40
0.9700610358
 40
1.0
 40
1.0
 40
1.0
 40
1.0
 10
9.8093710963
 20
7.1046902657
 30
0.0
 10
9.8126850479
 20
7.1044604424
 30
0.0
 10
9.8193149395
 20
7.1037570832
 30
0.0
 10
9.8291793865
 20
7.1019853503
 30
0.0
 10
9.8389381948
 20
7.0995036244
 30
0.0
 10
9.8485386134
 20
7.0963253366
 30
0.0
 10
9.8579296739
 20
7.092467465
 30
0.0
 10
9.8670612715
 20
7.0879506748
 30
0.0
 10
9.8758847626
 20
7.0827990913
 30
0.0
 10
9.8843531304
 20
7.0770402256
 30
0.0
 10
9.8924212554
 20
7.0707048049
 30
0.0
 10
9.9000461475
 20
7.0638266194
 30
0.0
 10
9.9071871734
 20
7.0564423398
 30
0.0
 10
9.9138062712
 20
7.0485913249
 30
0.0
 10
9.9198681507
 20
7.0403154136
 30
0.0
 10
9.9253404803
 20
7.0316587044
 30
0.0
 10
9.9301940577
 20
7.0226673225
 30
0.0
 10
9.9344029649
 20
7.0133891777
 30
0.0
 10
9.9379447057
 20
7.0038737114
 30
0.0
 10
9.940800326
 20
6.9941716374
 30
0.0
 10
9.9429545151
 20
6.9843346745
 30
0.0
 10
9.9443956898
 20
6.9744152751
 30
0.0
 10
9.9451160577
 20
6.9644663485
 30
0.0
 10
9.9451116637
 20
6.9545409847
 30
0.0
 10
9.9443824109
 20
6.944692164
 30
0.0
 10
9.9429320853
 20
6.9349725145
 30
0.0
 10
9.940768271
 20
6.9254338899
 30
0.0
 10
9.9379025789
 20
6.91612762
 30
0.0
 10
9.9349389788
 20
6.9085993923
 30
0.0
 10
9.932234534
 20
6.9027450345
 30
0.0
 10
9.9293159286
 20
6.8970179648
 30
0.0
 10
9.9252636034
 20
6.8900907782
 30
0.0
 10
9.9206900772
 20
6.8835071173
 30
0.0
 10
9.9167379031
 20
6.8784747127
 30
0.0
 10
9.9125971618
 20
6.8736065938
 30
0.0
 10
9.9092797229
 20
6.8701408952
 30
0.0
 10
9.9069829024
 20
6.867922339
 30
0.0
  0
SPLINE
  5
36A
100
AcDbEntity
  8
0
100
AcDbSpline
 62
7
  6
CONTINUOUS
 70
0
 71
3
 72
41
 73
37
 74
0
 42
0.0000001
 43
0.0000001
 44
0.0000000001
 40
0.0
 40
0.0
 40
0.0
 40
0.0
 40
0.031144444
 40
0.0624425093
 40
0.0938872508
 40
0.1254695847
 40
0.1571771078
 40
0.1889951283
 40
0.2209066801
 40
0.2528929859
 40
0.2849338014
 40
0.3170078274
 40
0.3490931225
 40
0.3811675283
 40
0.4132090962
 40
0.4451965119
 40
0.4771095115
 40
0.5089292827
 40
0.5406388458
 40
0.5722234075
 40
0.6036706813
 40
0.6349711679
 40
0.6661183875
 40
0.6971090579
 40
0.7279432122
 40
0.7586242475
 40
0.7891589026
 40
0.8195571573
 40
0.8498320547
 40
0.8649308931
 40
0.8800050545
 40
0.9100832586
 40
0.9400926739
 40
0.9550812746
 40
0.9700610358
 40
1.0
 40
1.0
 40
1.0
 40
1.0
 10
11.5596286883
 20
6.9833094895
 30
0.0
 10
11.5629426399
 20
6.9830796661
 30
0.0
 10
11.5695725315
 20
6.9823763069
 30
0.0
 10
11.5794369785
 20
6.980604574
 30
0.0
 10
11.5891957868
 20
6.9781228482
 30
0.0
 10
11.5987962054
 20
6.9749445603
 30
0.0
 10
11.6081872659
 20
6.9710866888
 30
0.0
 10
11.6173188636
 20
6.9665698985
 30
0.0
 10
11.6261423546
 20
6.9614183151
 30
0.0
 10
11.6346107224
 20
6.9556594493
 30
0.0
 10
11.6426788474
 20
6.9493240287
 30
0.0
 10
11.6503037395
 20
6.9424458431
 30
0.0
 10
11.6574447655
 20
6.9350615635
 30
0.0
 10
11.6640638632
 20
6.9272105486
 30
0.0
 10
11.6701257427
 20
6.9189346374
 30
0.0
 10
11.6755980723
 20
6.9102779281
 30
0.0
 10
11.6804516497
 20
6.9012865463
 30
0.0
 10
11.6846605569
 20
6.8920084014
 30
0.0
 10
11.6882022978
 20
6.8824929352
 30
0.0
 10
11.691057918
 20
6.8727908611
 30
0.0
 10
11.6932121071
 20
6.8629538982
 30
0.0
 10
11.6946532818
 20
6.8530344989
 30
0.0
 10
11.6953736497
 20
6.8430855722
 30
0.0
 10
11.6953692557
 20
6.8331602084
 30
0.0
 10
11.6946400029
 20
6.8233113877
 30
0.0
 10
11.6931896773
 20
6.8135917382
 30
0.0
 10
11.6910258631
 20
6.8040531136
 30
0.0
 10
11.6881601709
 20
6.7947468437
 30
0.0
 10
11.6851965709
 20
6.7872186161
 30
0.0
 10
11.682492126
 20
6.7813642582
 30
0.0
 10
11.6795735206
 20
6.7756371885
 30
0.0
 10
11.6755211954
 20
6.7687100019
 30
0.0
 10
11.6709476692
 20
6.7621263411
 30
0.0
 10
11.6669954952
 20
6.7570939364
 30
0.0
 10
11.6628547539
 20
6.7522258176
 30
0.0
 10
11.6595373149
 20
6.7487601189
 30
0.0
 10
11.6572404944
 20
6.7465415627
 30
0.0
  0
SPLINE
  5
36B
100
AcDbEntity
  8
0
100
AcDbSpline
 62
7
  6
CONTINUOUS
 70
0
 71
3
 72
37
 73
33
 74
0
 42
0.0000001
 43
0.0000001
 44
0.0000000001
 40
0.0
 40
0.0
 40
0.0
 40
0.0
 40
0.0311464763
 40
0.0624483004
 40
0.0938952738
 40
0.1254804953
 40
0.1571907415
 40
0.1890115257
 40
0.2209258547
 40
0.252914932
 40
0.2849585264
 40
0.317035338
 40
0.3491234252
 40
0.381200621
 40
0.4451976236
 40
0.5088978732
 40
0.5406101981
 40
0.5721975056
 40
0.6036475114
 40
0.634950721
 40
0.6661006564
 40
0.6970940303
 40
0.7279308694
 40
0.7586145731
 40
0.7891518852
 40
0.8195527902
 40
0.8498303302
 40
0.8800003491
 40
0.9100811696
 40
0.9400931924
 40
0.9700584311
 40
1.0
 40
1.0
 40
1.0
 40
1.0
 10
9.9001679967
 20
9.5136912312
 30
0.0
 10
9.9020077255
 20
9.5135636456
 30
0.0
 10
9.9056883851
 20
9.5131731451
 30
0.0
 10
9.9111647174
 20
9.5121895943
 30
0.0
 10
9.9165824337
 20
9.5108117968
 30
0.0
 10
9.9219121757
 20
9.5090473809
 30
0.0
 10
9.9271257128
 20
9.5069056537
 30
0.0
 10
9.9321951989
 20
9.504398126
 30
0.0
 10
9.9370936359
 20
9.5015381793
 30
0.0
 10
9.9417949228
 20
9.4983411028
 30
0.0
 10
9.9462740268
 20
9.4948239386
 30
0.0
 10
9.9505070344
 20
9.4910055145
 30
0.0
 10
9.9544715567
 20
9.486905909
 30
0.0
 10
9.9593660754
 20
9.4811006549
 30
0.0
 10
9.9647114518
 20
9.4732574681
 30
0.0
 10
9.9689220754
 20
9.4647743485
 30
0.0
 10
9.9715467804
 20
9.4577222894
 30
0.0
 10
9.9731322061
 20
9.4523359324
 30
0.0
 10
9.9743281148
 20
9.446874907
 30
0.0
 10
9.9751282275
 20
9.4413680585
 30
0.0
 10
9.975528176
 20
9.4358448307
 30
0.0
 10
9.9755257619
 20
9.4303346766
 30
0.0
 10
9.9751209289
 20
9.4248670193
 30
0.0
 10
9.9743157863
 20
9.4194710604
 30
0.0
 10
9.9731145718
 20
9.4141756341
 30
0.0
 10
9.9715236384
 20
9.4090090526
 30
0.0
 10
9.969551425
 20
9.4039989595
 30
0.0
 10
9.9672084094
 20
9.3991721708
 30
0.0
 10
9.9645071163
 20
9.3945545488
 30
0.0
 10
9.9614618892
 20
9.3901707403
 30
0.0
 10
9.9580893068
 20
9.386044529
 30
0.0
 10
9.9556336274
 20
9.3834791008
 30
0.0
 10
9.954358532
 20
9.3822474456
 30
0.0
  0
SPLINE
  5
36C
100
AcDbEntity
  8
0
100
AcDbSpline
 62
7
  6
CONTINUOUS
 70
0
 71
3
 72
37
 73
33
 74
0
 42
0.0000001
 43
0.0000001
 44
0.0000000001
 40
0.0
 40
0.0
 40
0.0
 40
0.0
 40
0.0311464763
 40
0.0624483004
 40
0.0938952738
 40
0.1254804953
 40
0.1571907415
 40
0.1890115257
 40
0.2209258547
 40
0.252914932
 40
0.2849585264
 40
0.317035338
 40
0.3491234252
 40
0.381200621
 40
0.4451976236
 40
0.5088978732
 40
0.5406101981
 40
0.5721975056
 40
0.6036475114
 40
0.634950721
 40
0.6661006564
 40
0.6970940303
 40
0.7279308694
 40
0.7586145731
 40
0.7891518852
 40
0.8195527902
 40
0.8498303302
 40
0.8800003491
 40
0.9100811696
 40
0.9400931924
 40
0.9700584311
 40
1.0
 40
1.0
 40
1.0
 40
1.0
 10
11.4688316727
 20
6.5071262701
 30
0.0
 10
11.4706714016
 20
6.5069986844
 30
0.0
 10
11.4743520611
 20
6.5066081839
 30
0.0
 10
11.4798283934
 20
6.5056246332
 30
0.0
 10
11.4852461098
 20
6.5042468357
 30
0.0
 10
11.4905758518
 20
6.5024824198
 30
0.0
 10
11.4957893889
 20
6.5003406926
 30
0.0
 10
11.5008588749
 20
6.4978331649
 30
0.0
 10
11.505757312
 20
6.4949732181
 30
0.0
 10
11.5104585989
 20
6.4917761417
 30
0.0
 10
11.5149377029
 20
6.4882589774
 30
0.0
 10
11.5191707105
 20
6.4844405533
 30
0.0
 10
11.5231352327
 20
6.4803409479
 30
0.0
 10
11.5280297514
 20
6.4745356938
 30
0.0
 10
11.5333751278
 20
6.466692507
 30
0.0
 10
11.5375857514
 20
6.4582093873
 30
0.0
 10
11.5402104565
 20
6.4511573283
 30
0.0
 10
11.5417958822
 20
6.4457709713
 30
0.0
 10
11.5429917908
 20
6.4403099459
 30
0.0
 10
11.5437919036
 20
6.4348030973
 30
0.0
 10
11.5441918521
 20
6.4292798696
 30
0.0
 10
11.544189438
 20
6.4237697155
 30
0.0
 10
11.543784605
 20
6.4183020582
 30
0.0
 10
11.5429794624
 20
6.4129060993
 30
0.0
 10
11.5417782479
 20
6.4076106729
 30
0.0
 10
11.5401873145
 20
6.4024440915
 30
0.0
 10
11.5382151011
 20
6.3974339984
 30
0.0
 10
11.5358720855
 20
6.3926072097
 30
0.0
 10
11.5331707923
 20
6.3879895877
 30
0.0
 10
11.5301255652
 20
6.3836057791
 30
0.0
 10
11.5267529828
 20
6.3794795678
 30
0.0
 10
11.5242973035
 20
6.3769141397
 30
0.0
 10
11.5230222081
 20
6.3756824845
 30
0.0
  0
SPLINE
  5
36D
100
AcDbEntity
  8
0
100
AcDbSpline
 62
7
  6
CONTINUOUS
 70
0
 71
3
 72
23
 73
19
 74
0
 42
0.0000001
 43
0.0000001
 44
0.0000000001
 40
0.0
 40
0.0
 40
0.0
 40
0.0
 40
0.0639228344
 40
0.1274926123
 40
0.1907214599
 40
0.2536373878
 40
0.3162731844
 40
0.3786701471
 40
0.4408741443
 40
0.5029344612
 40
0.5649017618
 40
0.6268265877
 40
0.688757973
 40
0.7507422569
 40
0.8128222118
 40
0.8750364441
 40
0.9374191406
 40
1.0
 40
1.0
 40
1.0
 40
1.0
 10
11.2193678723
 20
9.2251555989
 30
0.0
 10
11.2193678723
 20
9.2232854217
 30
0.0
 10
11.2192167795
 20
9.2195535644
 30
0.0
 10
11.218534562
 20
9.21400948
 30
0.0
 10
11.2174036717
 20
9.2085689275
 30
0.0
 10
11.2158346882
 20
9.203266793
 30
0.0
 10
11.213841708
 20
9.1981351755
 30
0.0
 10
11.2114422057
 20
9.1932038604
 30
0.0
 10
11.2086562964
 20
9.1884997715
 30
0.0
 10
11.2055062781
 20
9.1840468896
 30
0.0
 10
11.2020160388
 20
9.179866211
 30
0.0
 10
11.1982105789
 20
9.1759758134
 30
0.0
 10
11.1941155581
 20
9.1723910151
 30
0.0
 10
11.189756912
 20
9.1691245963
 30
0.0
 10
11.1851606055
 20
9.1661870568
 30
0.0
 10
11.1803522798
 20
9.1635868285
 30
0.0
 10
11.1753576234
 20
9.1613306892
 30
0.0
 10
11.1719253461
 20
9.1600613057
 30
0.0
 10
11.1701873565
 20
9.1594854212
 30
0.0
  0
SPLINE
  5
36E
100
AcDbEntity
  8
0
100
AcDbSpline
 62
7
  6
CONTINUOUS
 70
0
 71
3
 72
15
 73
11
 74
0
 42
0.0000001
 43
0.0000001
 44
0.0000000001
 40
0.0
 40
0.0
 40
0.0
 40
0.0
 40
0.1274668783
 40
0.2540031245
 40
0.3796794973
 40
0.5045999223
 40
0.6289086575
 40
0.7527792656
 40
0.8764072231
 40
1.0
 40
1.0
 40
1.0
 40
1.0
 10
11.2129646855
 20
6.5693033665
 30
0.0
 10
11.2129646855
 20
6.5666251801
 30
0.0
 10
11.2126792062
 20
6.5612837211
 30
0.0
 10
11.2113878808
 20
6.5533960839
 30
0.0
 10
11.2092496883
 20
6.5457489913
 30
0.0
 10
11.2062888781
 20
6.5384316405
 30
0.0
 10
11.2025395654
 20
6.5315281072
 30
0.0
 10
11.1980446374
 20
6.5251177658
 30
0.0
 10
11.1928570698
 20
6.5192751691
 30
0.0
 10
11.1889759446
 20
6.5158027112
 30
0.0
 10
11.1869447932
 20
6.51418477
 30
0.0
  0
SPLINE
  5
36F
100
AcDbEntity
  8
0
100
AcDbSpline
 62
7
  6
CONTINUOUS
 70
0
 71
3
 72
43
 73
39
 74
0
 42
0.0000001
 43
0.0000001
 44
0.0000000001
 40
0.0
 40
0.0
 40
0.0
 40
0.0
 40
0.0311443364
 40
0.0467769219
 40
0.0624468161
 40
0.0938913892
 40
0.1254733586
 40
0.1571805862
 40
0.1889982872
 40
0.220909526
 40
0.2528955166
 40
0.2849360176
 40
0.3170097295
 40
0.3490947114
 40
0.381168805
 40
0.3971972275
 40
0.4132147438
 40
0.4452018497
 40
0.4771145407
 40
0.5089340043
 40
0.540643261
 40
0.5722275176
 40
0.6036744878
 40
0.6349746725
 40
0.6661215921
 40
0.6971119647
 40
0.7279458234
 40
0.7586265654
 40
0.789160929
 40
0.819558894
 40
0.8498335028
 40
0.8649321969
 40
0.8800062137
 40
0.9100841298
 40
0.9400932566
 40
0.9550817128
 40
0.9700613271
 40
1.0
 40
1.0
 40
1.0
 40
1.0
 10
11.3181472462
 20
8.1026608757
 30
0.0
 10
11.323312785
 20
8.1023026444
 30
0.0
 10
11.3310552324
 20
8.1014812198
 30
0.0
 10
11.3413069305
 20
8.0998304885
 30
0.0
 10
11.3515423485
 20
8.0978038931
 30
0.0
 10
11.3642341126
 20
8.0945763672
 30
0.0
 10
11.3791981928
 20
8.0896223591
 30
0.0
 10
11.3938362477
 20
8.0836090479
 30
0.0
 10
11.4080697943
 20
8.0765686727
 30
0.0
 10
11.4218231152
 20
8.0685388422
 30
0.0
 10
11.4350229013
 20
8.0595624263
 30
0.0
 10
11.4475988122
 20
8.0496873487
 30
0.0
 10
11.4594839123
 20
8.0389661773
 30
0.0
 10
11.4706145828
 20
8.0274564431
 30
0.0
 10
11.4792150977
 20
8.0172552139
 30
0.0
 10
11.4856612252
 20
8.0087623287
 30
0.0
 10
11.491805044
 20
8.0000659623
 30
0.0
 10
11.4989107725
 20
7.9888255094
 30
0.0
 10
11.5064759844
 20
7.9748107601
 30
0.0
 10
11.5130365515
 20
7.9603487278
 30
0.0
 10
11.5185571432
 20
7.9455168571
 30
0.0
 10
11.5230082868
 20
7.9303940948
 30
0.0
 10
11.5263660994
 20
7.9150610825
 30
0.0
 10
11.5286125313
 20
7.8995995709
 30
0.0
 10
11.5297354354
 20
7.8840920315
 30
0.0
 10
11.5297286475
 20
7.8686212154
 30
0.0
 10
11.5285920164
 20
7.8532697029
 30
0.0
 10
11.5263314419
 20
7.8381195259
 30
0.0
 10
11.5229587466
 20
7.8232515078
 30
0.0
 10
11.5184920191
 20
7.8087456607
 30
0.0
 10
11.5138726897
 20
7.7970112639
 30
0.0
 10
11.5096572496
 20
7.7878859777
 30
0.0
 10
11.5051080568
 20
7.7789590646
 30
0.0
 10
11.4987916753
 20
7.7681615297
 30
0.0
 10
11.4916629379
 20
7.7578994145
 30
0.0
 10
11.485502622
 20
7.7500553309
 30
0.0
 10
11.4790484769
 20
7.7424672445
 30
0.0
 10
11.4738775624
 20
7.7370651784
 30
0.0
 10
11.4702974846
 20
7.7336070701
 30
0.0
  0
SPLINE
  5
370
100
AcDbEntity
  8
0
100
AcDbSpline
 62
7
  6
CONTINUOUS
 70
0
 71
3
 72
33
 73
29
 74
0
 42
0.0000001
 43
0.0000001
 44
0.0000000001
 40
0.0
 40
0.0
 40
0.0
 40
0.0
 40
0.0298518511
 40
0.0597127876
 40
0.0896207424
 40
0.1196085882
 40
0.149704271
 40
0.1799292376
 40
0.2102983746
 40
0.2408203833
 40
0.271498574
 40
0.3023318322
 40
0.3333155937
 40
0.3644427311
 40
0.4270609066
 40
0.4585600726
 40
0.4901611877
 40
0.5536002126
 40
0.5854374234
 40
0.6173301026
 40
0.6812157639
 40
0.7451849298
 40
0.7771814668
 40
0.8091635562
 40
0.8730139547
 40
0.904878346
 40
0.9366776328
 40
1.0
 40
1.0
 40
1.0
 40
1.0
 10
10.1549279849
 20
7.2061769992
 30
0.0
 10
10.1579244087
 20
7.2095401954
 30
0.0
 10
10.1642589154
 20
7.2159726958
 30
0.0
 10
10.174675021
 20
7.2246299065
 30
0.0
 10
10.1859071408
 20
7.2322360728
 30
0.0
 10
10.197845915
 20
7.2387477554
 30
0.0
 10
10.2103798928
 20
7.2441426599
 30
0.0
 10
10.2233983209
 20
7.2484157277
 30
0.0
 10
10.2367950215
 20
7.2515769996
 30
0.0
 10
10.2504706342
 20
7.2536483362
 30
0.0
 10
10.264334078
 20
7.2546603798
 30
0.0
 10
10.2783027109
 20
7.254649843
 30
0.0
 10
10.2923034841
 20
7.2536568938
 30
0.0
 10
10.3109570999
 20
7.2510754032
 30
0.0
 10
10.3293986415
 20
7.2466948408
 30
0.0
 10
10.3474068996
 20
7.2407075053
 30
0.0
 10
10.3651639465
 20
7.2336656314
 30
0.0
 10
10.3823589313
 20
7.2251503879
 30
0.0
 10
10.3988446156
 20
7.2153180193
 30
0.0
 10
10.4148636488
 20
7.2046184126
 30
0.0
 10
10.4338742142
 20
7.1897295223
 30
0.0
 10
10.4513295006
 20
7.1730226455
 30
0.0
 10
10.4642487876
 20
7.158666264
 30
0.0
 10
10.4764201911
 20
7.1436949827
 30
0.0
 10
10.4874263427
 20
7.1278296219
 30
0.0
 10
10.4971114847
 20
7.111194712
 30
0.0
 10
10.5058438938
 20
7.094131956
 30
0.0
 10
10.5113075774
 20
7.080813816
 30
0.0
 10
10.5143951777
 20
7.0717716062
 30
0.0
  0
SPLINE
  5
371
100
AcDbEntity
  8
0
100
AcDbSpline
 62
7
  6
CONTINUOUS
 70
0
 71
3
 72
30
 73
26
 74
0
 42
0.0000001
 43
0.0000001
 44
0.0000000001
 40
0.0
 40
0.0
 40
0.0
 40
0.0
 40
0.0306894099
 40
0.0614987175
 40
0.0924219386
 40
0.123455652
 40
0.1545926869
 40
0.185825379
 40
0.2171448534
 40
0.2485413964
 40
0.2800046657
 40
0.3115238401
 40
0.3430878799
 40
0.3746857349
 40
0.4379214849
 40
0.5011651338
 40
0.5643387837
 40
0.6273731168
 40
0.6588262648
 40
0.6902228244
 40
0.7528091698
 40
0.8151064025
 40
0.8770837855
 40
0.9387189113
 40
1.0
 40
1.0
 40
1.0
 40
1.0
 10
10.3222776428
 20
9.0816129736
 30
0.0
 10
10.3256600388
 20
9.0813784036
 30
0.0
 10
10.3324262098
 20
9.0807155026
 30
0.0
 10
10.3425211751
 20
9.0791495399
 30
0.0
 10
10.3525508099
 20
9.0770163281
 30
0.0
 10
10.3624827152
 20
9.0743253909
 30
0.0
 10
10.3722862253
 20
9.071088423
 30
0.0
 10
10.3819315953
 20
9.0673196425
 30
0.0
 10
10.3913906351
 20
9.0630353264
 30
0.0
 10
10.4006367454
 20
9.0582535868
 30
0.0
 10
10.4096450906
 20
9.0529940608
 30
0.0
 10
10.4183925799
 20
9.0472777107
 30
0.0
 10
10.4268582687
 20
9.0411262648
 30
0.0
 10
10.4377452096
 20
9.0323740667
 30
0.0
 10
10.450554993
 20
9.0204618172
 30
0.0
 10
10.4645250616
 20
9.0048076311
 30
0.0
 10
10.4770096721
 20
8.9879742062
 30
0.0
 10
10.4861239119
 20
8.9731027952
 30
0.0
 10
10.4926080216
 20
8.9607952141
 30
0.0
 10
10.4985372333
 20
8.9482656508
 30
0.0
 10
10.5049206122
 20
8.9321992338
 30
0.0
 10
10.5109089638
 20
8.9124181056
 30
0.0
 10
10.515200384
 20
8.8923074299
 30
0.0
 10
10.51778217
 20
8.8720216264
 30
0.0
 10
10.5183604658
 20
8.8584352155
 30
0.0
 10
10.5183604658
 20
8.8516649725
 30
0.0
  0
SPLINE
  5
372
100
AcDbEntity
  8
0
100
AcDbSpline
 62
7
  6
CONTINUOUS
 70
0
 71
3
 72
17
 73
13
 74
0
 42
0.0000001
 43
0.0000001
 44
0.0000000001
 40
0.0
 40
0.0
 40
0.0
 40
0.0
 40
0.1230656758
 40
0.1848569659
 40
0.2468070923
 40
0.3711462161
 40
0.4960544091
 40
0.5587133675
 40
0.6214897113
 40
0.7473363616
 40
0.8735346769
 40
1.0
 40
1.0
 40
1.0
 40
1.0
 10
10.3222776428
 20
8.6489057694
 30
0.0
 10
10.317570592
 20
8.6492322044
 30
0.0
 10
10.310515548
 20
8.6500028293
 30
0.0
 10
10.3011832155
 20
8.6515776189
 30
0.0
 10
10.2918703899
 20
8.6535219502
 30
0.0
 10
10.280338824
 20
8.6566320525
 30
0.0
 10
10.2690491372
 20
8.6606108313
 30
0.0
 10
10.2601853272
 20
8.6642978878
 30
0.0
 10
10.2514295789
 20
8.6683215621
 30
0.0
 10
10.2407416489
 20
8.673954951
 30
0.0
 10
10.2284049792
 20
8.6816183883
 30
0.0
 10
10.2205421177
 20
8.6872920693
 30
0.0
 10
10.2167083069
 20
8.6902605335
 30
0.0
  0
SPLINE
  5
373
100
AcDbEntity
  8
0
100
AcDbSpline
 62
7
  6
CONTINUOUS
 70
0
 71
3
 72
33
 73
29
 74
0
 42
0.0000001
 43
0.0000001
 44
0.0000000001
 40
0.0
 40
0.0
 40
0.0
 40
0.0
 40
0.0636581512
 40
0.1269444188
 40
0.1898740469
 40
0.252470082
 40
0.3147667115
 40
0.3768090347
 40
0.4077614758
 40
0.4386727386
 40
0.4695517327
 40
0.5004080877
 40
0.531251961
 40
0.5620941389
 40
0.592945971
 40
0.6238191382
 40
0.654725538
 40
0.6856772245
 40
0.7166861993
 40
0.7477641285
 40
0.7789221489
 40
0.8101707119
 40
0.8415192953
 40
0.872976175
 40
0.9045483741
 40
0.9362405368
 40
0.9680580091
 40
1.0
 40
1.0
 40
1.0
 40
1.0
 10
10.5183604658
 20
8.8516649725
 30
0.0
 10
10.5183604658
 20
8.8449342498
 30
0.0
 10
10.5177930266
 20
8.8315048525
 30
0.0
 10
10.5152208593
 20
8.8115702278
 30
0.0
 10
10.5109378084
 20
8.7920445813
 30
0.0
 10
10.5049548128
 20
8.7730796516
 30
0.0
 10
10.4972911198
 20
8.754830544
 30
0.0
 10
10.4895175024
 20
8.7403365118
 30
0.0
 10
10.4824945994
 20
8.7292718309
 30
0.0
 10
10.4768336476
 20
8.7212597961
 30
0.0
 10
10.4707829105
 20
8.7135509317
 30
0.0
 10
10.4643505497
 20
8.7061667049
 30
0.0
 10
10.4575461747
 20
8.6991290497
 30
0.0
 10
10.4503807096
 20
8.6924599017
 30
0.0
 10
10.4428665476
 20
8.6861812064
 30
0.0
 10
10.435017699
 20
8.6803147095
 30
0.0
 10
10.4268499022
 20
8.6748817756
 30
0.0
 10
10.4183806618
 20
8.669903232
 30
0.0
 10
10.4096293164
 20
8.6653991546
 30
0.0
 10
10.4006171075
 20
8.6613885817
 30
0.0
 10
10.3913671716
 20
8.6578892453
 30
0.0
 10
10.3819044686
 20
8.6549173534
 30
0.0
 10
10.372255708
 20
8.6524873082
 30
0.0
 10
10.3624491931
 20
8.650611439
 30
0.0
 10
10.3525147756
 20
8.6492997778
 30
0.0
 10
10.3424831968
 20
8.6485596857
 30
0.0
 10
10.3323869412
 20
8.6483961007
 30
0.0
 10
10.3256468506
 20
8.648672114
 30
0.0
 10
10.3222776428
 20
8.6489057694
 30
0.0
  0
SPLINE
  5
374
100
AcDbEntity
  8
0
100
AcDbSpline
 62
7
  6
CONTINUOUS
 70
0
 71
3
 72
31
 73
27
 74
0
 42
0.0000001
 43
0.0000001
 44
0.0000000001
 40
0.0
 40
0.0
 40
0.0
 40
0.0
 40
0.0845018864
 40
0.1673015137
 40
0.2480803514
 40
0.3265309791
 40
0.4023585407
 40
0.4752830689
 40
0.5450416236
 40
0.6113908386
 40
0.6432179316
 40
0.6741119642
 40
0.7040492763
 40
0.7330084091
 40
0.7609696608
 40
0.7879158976
 40
0.8138321693
 40
0.8387065946
 40
0.8625300827
 40
0.8852973281
 40
0.9070067049
 40
0.9276614334
 40
0.9472697474
 40
0.9658463297
 40
0.9834128909
 40
1.0
 40
1.0
 40
1.0
 40
1.0
 10
12.0886334138
 20
11.164595442
 30
0.0
 10
12.0957544312
 20
11.1641015977
 30
0.0
 10
12.1098447118
 20
11.162998872
 30
0.0
 10
12.1307042053
 20
11.1609768417
 30
0.0
 10
12.1510130283
 20
11.1586101096
 30
0.0
 10
12.1706858461
 20
11.1559087425
 30
0.0
 10
12.1896401474
 20
11.152884219
 30
0.0
 10
12.2077965166
 20
11.1495494202
 30
0.0
 10
12.2250787764
 20
11.1459185064
 30
0.0
 10
12.2388770299
 20
11.1426147946
 30
0.0
 10
12.2494176969
 20
11.1398259554
 30
0.0
 10
12.2569507403
 20
11.137699157
 30
0.0
 10
12.2642133607
 20
11.1355103793
 30
0.0
 10
12.2711979687
 20
11.1332619676
 30
0.0
 10
12.277897247
 20
11.1309562316
 30
0.0
 10
12.2843042057
 20
11.1285956631
 30
0.0
 10
12.2904121487
 20
11.126182676
 30
0.0
 10
12.2962147295
 20
11.123719869
 30
0.0
 10
12.3017059046
 20
11.1212097484
 30
0.0
 10
12.3068800065
 20
11.1186549965
 30
0.0
 10
12.3117316739
 20
11.1160581867
 30
0.0
 10
12.3162559532
 20
11.1134220475
 30
0.0
 10
12.3204481771
 20
11.1107491908
 30
0.0
 10
12.3243041677
 20
11.1080422944
 30
0.0
 10
12.3278198034
 20
11.1053040875
 30
0.0
 10
12.3299953829
 20
11.1034061816
 30
0.0
 10
12.3310211004
 20
11.1024516362
 30
0.0
  0
SPLINE
  5
375
100
AcDbEntity
  8
0
100
AcDbSpline
 62
7
  6
CONTINUOUS
 70
0
 71
3
 72
17
 73
13
 74
0
 42
0.0000001
 43
0.0000001
 44
0.0000000001
 40
0.0
 40
0.0
 40
0.0
 40
0.0
 40
0.0548654642
 40
0.1099349219
 40
0.2214349039
 40
0.3360992195
 40
0.4553348124
 40
0.517079118
 40
0.5804139608
 40
0.7123167483
 40
0.8519524535
 40
1.0
 40
1.0
 40
1.0
 40
1.0
 10
9.6263661954
 20
10.7435063024
 30
0.0
 10
9.6263661913
 20
10.7440359064
 30
0.0
 10
9.6263998184
 20
10.7450974226
 30
0.0
 10
9.626602065
 20
10.7472264168
 30
0.0
 10
9.6271131131
 20
10.7499002477
 30
0.0
 10
9.6281286405
 20
10.7530833987
 30
0.0
 10
9.629296289
 20
10.755693815
 30
0.0
 10
9.6304198769
 20
10.757768117
 30
0.0
 10
9.6317064304
 20
10.7598900264
 30
0.0
 10
9.6335745418
 20
10.7625336341
 30
0.0
 10
9.6361790326
 20
10.765640252
 30
0.0
 10
9.6381161188
 20
10.7676336563
 30
0.0
 10
9.6391439838
 20
10.7686264977
 30
0.0
  0
SPLINE
  5
376
100
AcDbEntity
  8
0
100
AcDbSpline
 62
7
  6
CONTINUOUS
 70
0
 71
3
 72
18
 73
14
 74
0
 42
0.0000001
 43
0.0000001
 44
0.0000000001
 40
0.0
 40
0.0
 40
0.0
 40
0.0
 40
0.1492378719
 40
0.2896551254
 40
0.4219619721
 40
0.4853618993
 40
0.5470839706
 40
0.6660306019
 40
0.7801313525
 40
0.8358490322
 40
0.8909261152
 40
0.9455716555
 40
1.0
 40
1.0
 40
1.0
 40
1.0
 10
12.3608871374
 20
11.0746581427
 30
0.0
 10
12.3619886375
 20
11.0736330819
 30
0.0
 10
12.3640645042
 20
11.0715749625
 30
0.0
 10
12.3668592021
 20
11.0683619075
 30
0.0
 10
12.3688656386
 20
11.0656246264
 30
0.0
 10
12.3702475276
 20
11.0634264499
 30
0.0
 10
12.3714528525
 20
11.0612800899
 30
0.0
 10
12.3727060387
 20
11.0585784552
 30
0.0
 10
12.3736224369
 20
11.0558070454
 30
0.0
 10
12.3741308884
 20
11.0535959796
 30
0.0
 10
12.3744013193
 20
11.0519488051
 30
0.0
 10
12.3745636171
 20
11.050300641
 30
0.0
 10
12.3745997262
 20
11.0492005741
 30
0.0
 10
12.3745997305
 20
11.0486518055
 30
0.0
  0
SPLINE
  5
377
100
AcDbEntity
  8
0
100
AcDbSpline
 62
7
  6
CONTINUOUS
 70
0
 71
3
 72
39
 73
35
 74
0
 42
0.0000001
 43
0.0000001
 44
0.0000000001
 40
0.0
 40
0.0
 40
0.0
 40
0.0
 40
0.0072740346
 40
0.0148711053
 40
0.0227990772
 40
0.0310645166
 40
0.0396727804
 40
0.0486279245
 40
0.0579324661
 40
0.0675879288
 40
0.0775949117
 40
0.0879530835
 40
0.1097173054
 40
0.1328656125
 40
0.1573723951
 40
0.1832042117
 40
0.2103207738
 40
0.2386758317
 40
0.2682179276
 40
0.2988909456
 40
0.3306345169
 40
0.3633844741
 40
0.3970732682
 40
0.4316302855
 40
0.466982101
 40
0.5030528143
 40
0.5397643556
 40
0.5770367348
 40
0.6147882682
 40
0.691393716
 40
0.7689054902
 40
0.8466361586
 40
0.9238954386
 40
1.0
 40
1.0
 40
1.0
 40
1.0
 10
10.0985501806
 20
11.2113070869
 30
0.0
 10
10.0993163205
 20
11.2120200192
 30
0.0
 10
10.1009178552
 20
11.213440049
 30
0.0
 10
10.1034643338
 20
11.2155090344
 30
0.0
 10
10.1062047933
 20
11.2175611679
 30
0.0
 10
10.1091374746
 20
11.2195951869
 30
0.0
 10
10.1122606994
 20
11.2216099993
 30
0.0
 10
10.115572698
 20
11.2236044268
 30
0.0
 10
10.1190715174
 20
11.2255773759
 30
0.0
 10
10.1227551104
 20
11.2275276485
 30
0.0
 10
10.1266213172
 20
11.229454098
 30
0.0
 10
10.1321075463
 20
11.2320320637
 30
0.0
 10
10.1394134004
 20
11.2351779545
 30
0.0
 10
10.1487306748
 20
11.2387806981
 30
0.0
 10
10.1587156891
 20
11.2422622701
 30
0.0
 10
10.1693448648
 20
11.2456143583
 30
0.0
 10
10.1805932303
 20
11.248828952
 30
0.0
 10
10.1924342065
 20
11.2518983615
 30
0.0
 10
10.2048397871
 20
11.2548152279
 30
0.0
 10
10.217780586
 20
11.2575725453
 30
0.0
 10
10.2312259089
 20
11.2601637075
 30
0.0
 10
10.2451438358
 20
11.2625825111
 30
0.0
 10
10.2595013139
 20
11.2648231573
 30
0.0
 10
10.2742642344
 20
11.2668802665
 30
0.0
 10
10.2893975063
 20
11.268748917
 30
0.0
 10
10.3048651504
 20
11.2704246426
 30
0.0
 10
10.3206303808
 20
11.2719034233
 30
0.0
 10
10.3366557386
 20
11.2731817339
 30
0.0
 10
10.3584241152
 20
11.2746216267
 30
0.0
 10
10.3860029257
 20
11.2758948552
 30
0.0
 10
10.4193559937
 20
11.2765816181
 30
0.0
 10
10.4528100217
 20
11.2764277917
 30
0.0
 10
10.4860468863
 20
11.275434893
 30
0.0
 10
10.5080806832
 20
11.2742071461
 30
0.0
 10
10.5190038531
 20
11.2734496217
 30
0.0
  0
SPLINE
  5
378
100
AcDbEntity
  8
0
100
AcDbSpline
 62
7
  6
CONTINUOUS
 70
0
 71
3
 72
18
 73
14
 74
0
 42
0.0000001
 43
0.0000001
 44
0.0000000001
 40
0.0
 40
0.0
 40
0.0
 40
0.0
 40
0.0548627134
 40
0.1099293262
 40
0.1654013673
 40
0.2214755976
 40
0.336133279
 40
0.4553633673
 40
0.5171049701
 40
0.5804366861
 40
0.7123309727
 40
0.8519568969
 40
1.0
 40
1.0
 40
1.0
 40
1.0
 10
11.6993777262
 20
10.9150037322
 30
0.0
 10
11.6993777299
 20
10.9142410941
 30
0.0
 10
11.6993293346
 20
10.9127125431
 30
0.0
 10
11.6991117327
 20
10.9104222145
 30
0.0
 10
11.6987490899
 20
10.9081331571
 30
0.0
 10
11.6980676134
 20
10.9050617595
 30
0.0
 10
11.6968399346
 20
10.9012122284
 30
0.0
 10
11.6951584642
 20
10.8974535824
 30
0.0
 10
11.6935404986
 20
10.8944664797
 30
0.0
 10
11.6916878663
 20
10.8914109183
 30
0.0
 10
11.6889977915
 20
10.8876041301
 30
0.0
 10
11.6852473382
 20
10.8831305392
 30
0.0
 10
11.6824578824
 20
10.8802600211
 30
0.0
 10
11.680977711
 20
10.8788302852
 30
0.0
  0
SPLINE
  5
379
100
AcDbEntity
  8
0
100
AcDbSpline
 62
7
  6
CONTINUOUS
 70
0
 71
3
 72
19
 73
15
 74
0
 42
0.0000001
 43
0.0000001
 44
0.0000000001
 40
0.0
 40
0.0
 40
0.0
 40
0.0
 40
0.0616584454
 40
0.1233399317
 40
0.185067215
 40
0.2468625626
 40
0.3087474945
 40
0.3707425066
 40
0.4328668994
 40
0.4951385746
 40
0.6201443393
 40
0.7459117862
 40
0.8725152911
 40
1.0
 40
1.0
 40
1.0
 40
1.0
 10
11.4620168821
 20
9.0012448606
 30
0.0
 10
11.4635935804
 20
9.0027678328
 30
0.0
 10
11.4668301708
 20
9.0057301439
 30
0.0
 10
11.4719178418
 20
9.0099071083
 30
0.0
 10
11.4772264525
 20
9.0138079637
 30
0.0
 10
11.4827424062
 20
9.0174227605
 30
0.0
 10
11.4884519014
 20
9.0207423961
 30
0.0
 10
11.4943404652
 20
9.0237585008
 30
0.0
 10
11.5003934673
 20
9.0264635838
 30
0.0
 10
11.5086717073
 20
9.0296500165
 30
0.0
 10
11.5193627147
 20
9.0328223904
 30
0.0
 10
11.5325751716
 20
9.0352869945
 30
0.0
 10
11.5460573545
 20
9.0363922081
 30
0.0
 10
11.5551071164
 20
9.0362156792
 30
0.0
 10
11.5596286883
 20
9.0359021071
 30
0.0
  0
SPLINE
  5
37A
100
AcDbEntity
  8
0
100
AcDbSpline
 62
7
  6
CONTINUOUS
 70
0
 71
3
 72
19
 73
15
 74
0
 42
0.0000001
 43
0.0000001
 44
0.0000000001
 40
0.0
 40
0.0
 40
0.0
 40
0.0
 40
0.0616584454
 40
0.1233399317
 40
0.185067215
 40
0.2468625626
 40
0.3087474945
 40
0.3707425066
 40
0.4328668994
 40
0.4951385746
 40
0.6201443393
 40
0.7459117862
 40
0.8725152911
 40
1.0
 40
1.0
 40
1.0
 40
1.0
 10
9.7117592901
 20
9.1226256368
 30
0.0
 10
9.7133359884
 20
9.1241486091
 30
0.0
 10
9.7165725788
 20
9.1271109202
 30
0.0
 10
9.7216602498
 20
9.1312878845
 30
0.0
 10
9.7269688605
 20
9.1351887399
 30
0.0
 10
9.7324848142
 20
9.1388035368
 30
0.0
 10
9.7381943094
 20
9.1421231724
 30
0.0
 10
9.7440828732
 20
9.145139277
 30
0.0
 10
9.7501358753
 20
9.14784436
 30
0.0
 10
9.7584141153
 20
9.1510307928
 30
0.0
 10
9.7691051227
 20
9.1542031667
 30
0.0
 10
9.7823175796
 20
9.1566677708
 30
0.0
 10
9.7957997625
 20
9.1577729843
 30
0.0
 10
9.8048495244
 20
9.1575964554
 30
0.0
 10
9.8093710963
 20
9.1572828834
 30
0.0
  0
SPLINE
  5
37B
100
AcDbEntity
  8
0
100
AcDbSpline
 62
7
  6
CONTINUOUS
 70
0
 71
3
 72
19
 73
15
 74
0
 42
0.0000001
 43
0.0000001
 44
0.0000000001
 40
0.0
 40
0.0
 40
0.0
 40
0.0
 40
0.0616584454
 40
0.1233399317
 40
0.185067215
 40
0.2468625626
 40
0.3087474945
 40
0.3707425066
 40
0.4328668994
 40
0.4951385746
 40
0.6201443393
 40
0.7459117862
 40
0.8725152911
 40
1.0
 40
1.0
 40
1.0
 40
1.0
 10
9.7117592901
 20
7.0700330192
 30
0.0
 10
9.7133359884
 20
7.0715559915
 30
0.0
 10
9.7165725788
 20
7.0745183026
 30
0.0
 10
9.7216602498
 20
7.0786952669
 30
0.0
 10
9.7269688605
 20
7.0825961223
 30
0.0
 10
9.7324848142
 20
7.0862109192
 30
0.0
 10
9.7381943094
 20
7.0895305548
 30
0.0
 10
9.7440828732
 20
7.0925466594
 30
0.0
 10
9.7501358753
 20
7.0952517424
 30
0.0
 10
9.7584141153
 20
7.0984381751
 30
0.0
 10
9.7691051227
 20
7.101610549
 30
0.0
 10
9.7823175796
 20
7.1040751532
 30
0.0
 10
9.7957997625
 20
7.1051803667
 30
0.0
 10
9.8048495244
 20
7.1050038378
 30
0.0
 10
9.8093710963
 20
7.1046902657
 30
0.0
  0
SPLINE
  5
37C
100
AcDbEntity
  8
0
100
AcDbSpline
 62
7
  6
CONTINUOUS
 70
0
 71
3
 72
19
 73
15
 74
0
 42
0.0000001
 43
0.0000001
 44
0.0000000001
 40
0.0
 40
0.0
 40
0.0
 40
0.0
 40
0.0616584454
 40
0.1233399317
 40
0.185067215
 40
0.2468625626
 40
0.3087474945
 40
0.3707425066
 40
0.4328668994
 40
0.4951385746
 40
0.6201443393
 40
0.7459117862
 40
0.8725152911
 40
1.0
 40
1.0
 40
1.0
 40
1.0
 10
11.4620168821
 20
6.9486522429
 30
0.0
 10
11.4635935804
 20
6.9501752152
 30
0.0
 10
11.4668301708
 20
6.9531375263
 30
0.0
 10
11.4719178418
 20
6.9573144906
 30
0.0
 10
11.4772264525
 20
6.961215346
 30
0.0
 10
11.4827424062
 20
6.9648301429
 30
0.0
 10
11.4884519014
 20
6.9681497785
 30
0.0
 10
11.4943404652
 20
6.9711658831
 30
0.0
 10
11.5003934673
 20
6.9738709661
 30
0.0
 10
11.5086717073
 20
6.9770573989
 30
0.0
 10
11.5193627147
 20
6.9802297728
 30
0.0
 10
11.5325751716
 20
6.9826943769
 30
0.0
 10
11.5460573545
 20
6.9837995904
 30
0.0
 10
11.5551071164
 20
6.9836230615
 30
0.0
 10
11.5596286883
 20
6.9833094895
 30
0.0
  0
SPLINE
  5
37D
100
AcDbEntity
  8
0
100
AcDbSpline
 62
7
  6
CONTINUOUS
 70
0
 71
3
 72
15
 73
11
 74
0
 42
0.0000001
 43
0.0000001
 44
0.0000000001
 40
0.0
 40
0.0
 40
0.0
 40
0.0
 40
0.1233171388
 40
0.2468172051
 40
0.3706750009
 40
0.4950496043
 40
0.6200772562
 40
0.7458671573
 40
0.8724928759
 40
1.0
 40
1.0
 40
1.0
 40
1.0
 10
9.8459774613
 20
9.4944505789
 30
0.0
 10
9.8477278045
 20
9.4961412911
 30
0.0
 10
9.8514163278
 20
9.4993392814
 30
0.0
 10
9.8574363706
 20
9.5035181861
 30
0.0
 10
9.8638870585
 20
9.5070409452
 30
0.0
 10
9.870702354
 20
9.5098713612
 30
0.0
 10
9.8778135141
 20
9.5119813392
 30
0.0
 10
9.8851489104
 20
9.5133497575
 30
0.0
 10
9.8926336573
 20
9.5139633123
 30
0.0
 10
9.8976577811
 20
9.5138653152
 30
0.0
 10
9.9001679967
 20
9.5136912312
 30
0.0
  0
SPLINE
  5
37E
100
AcDbEntity
  8
0
100
AcDbSpline
 62
7
  6
CONTINUOUS
 70
0
 71
3
 72
15
 73
11
 74
0
 42
0.0000001
 43
0.0000001
 44
0.0000000001
 40
0.0
 40
0.0
 40
0.0
 40
0.0
 40
0.1233171388
 40
0.2468172051
 40
0.3706750009
 40
0.4950496043
 40
0.6200772562
 40
0.7458671573
 40
0.8724928759
 40
1.0
 40
1.0
 40
1.0
 40
1.0
 10
11.4146411373
 20
6.4878856178
 30
0.0
 10
11.4163914806
 20
6.48957633
 30
0.0
 10
11.4200800038
 20
6.4927743203
 30
0.0
 10
11.4261000467
 20
6.496953225
 30
0.0
 10
11.4325507346
 20
6.5004759841
 30
0.0
 10
11.4393660301
 20
6.5033064001
 30
0.0
 10
11.4464771902
 20
6.505416378
 30
0.0
 10
11.4538125865
 20
6.5067847964
 30
0.0
 10
11.4612973333
 20
6.5073983512
 30
0.0
 10
11.4663214571
 20
6.5073003541
 30
0.0
 10
11.4688316727
 20
6.5071262701
 30
0.0
  0
SPLINE
  5
37F
100
AcDbEntity
  8
0
100
AcDbSpline
 62
7
  6
CONTINUOUS
 70
0
 71
3
 72
27
 73
23
 74
0
 42
0.0000001
 43
0.0000001
 44
0.0000000001
 40
0.0
 40
0.0
 40
0.0
 40
0.0
 40
0.0603500151
 40
0.1211276651
 40
0.182364828
 40
0.2440723153
 40
0.3062409009
 40
0.3688420132
 40
0.4318277885
 40
0.4951311969
 40
0.5586660315
 40
0.6223272967
 40
0.6541818075
 40
0.686021824
 40
0.7495607392
 40
0.812834918
 40
0.8443482371
 40
0.8757485748
 40
0.9070232993
 40
0.9381607953
 40
0.9691561489
 40
1.0
 40
1.0
 40
1.0
 40
1.0
 10
11.1048507853
 20
9.3021782438
 30
0.0
 10
11.1078945898
 20
9.3031868112
 30
0.0
 10
11.1141312724
 20
9.3048455924
 30
0.0
 10
11.123740384
 20
9.306238235
 30
0.0
 10
11.1335178497
 20
9.3065422449
 30
0.0
 10
11.1433419367
 20
9.3057603732
 30
0.0
 10
11.1530938919
 20
9.3039021055
 30
0.0
 10
11.1626534358
 20
9.3009829298
 30
0.0
 10
11.1718979316
 20
9.2970257226
 30
0.0
 10
11.180701225
 20
9.2920621206
 30
0.0
 10
11.1889321663
 20
9.2861361569
 30
0.0
 10
11.1952042074
 20
9.2804423585
 30
0.0
 10
11.1998012514
 20
9.2754722403
 30
0.0
 10
11.2040925842
 20
9.2702442634
 30
0.0
 10
11.2088453552
 20
9.2632554321
 30
0.0
 10
11.2126849773
 20
9.25574312
 30
0.0
 10
11.2151446527
 20
9.2495015621
 30
0.0
 10
11.2166704212
 20
9.2447313395
 30
0.0
 10
11.2178685819
 20
9.2398891375
 30
0.0
 10
11.2187310001
 20
9.2349976458
 30
0.0
 10
11.2192512628
 20
9.2300812291
 30
0.0
 10
11.2193678723
 20
9.2267944105
 30
0.0
 10
11.2193678723
 20
9.2251555989
 30
0.0
  0
SPLINE
  5
380
100
AcDbEntity
  8
0
100
AcDbSpline
 62
7
  6
CONTINUOUS
 70
0
 71
3
 72
37
 73
33
 74
0
 42
0.0000001
 43
0.0000001
 44
0.0000000001
 40
0.0
 40
0.0
 40
0.0
 40
0.0
 40
0.0299275843
 40
0.0599050909
 40
0.0899532139
 40
0.1200910513
 40
0.150335706
 40
0.1807019422
 40
0.2112018936
 40
0.241844836
 40
0.2726370285
 40
0.3035816382
 40
0.3346787316
 40
0.3659253127
 40
0.3973154189
 40
0.4288402695
 40
0.4604884829
 40
0.4922463275
 40
0.55598992
 40
0.619961667
 40
0.65200027
 40
0.6840341188
 40
0.7160421708
 40
0.74800384
 40
0.7798993862
 40
0.8117103091
 40
0.8434196445
 40
0.8750123422
 40
0.9064758349
 40
0.9377987983
 40
0.9689764634
 40
1.0
 40
1.0
 40
1.0
 40
1.0
 10
11.0880933487
 20
6.6348863053
 30
0.0
 10
11.0894507186
 20
6.6359675366
 30
0.0
 10
11.0922517022
 20
6.6380287055
 30
0.0
 10
11.0966801573
 20
6.6407937355
 30
0.0
 10
11.1013165767
 20
6.6432207805
 30
0.0
 10
11.1061369359
 20
6.6452973333
 30
0.0
 10
11.1111166913
 20
6.6470130229
 30
0.0
 10
11.1162304196
 20
6.6483592255
 30
0.0
 10
11.121452077
 20
6.6493292153
 30
0.0
 10
11.1267550927
 20
6.6499181541
 30
0.0
 10
11.132112505
 20
6.6501231465
 30
0.0
 10
11.1374970983
 20
6.6499432521
 30
0.0
 10
11.1428815404
 20
6.6493794514
 30
0.0
 10
11.1482385059
 20
6.648434652
 30
0.0
 10
11.1535408301
 20
6.6471136464
 30
0.0
 10
11.1587615462
 20
6.6454231924
 30
0.0
 10
11.1638744055
 20
6.6433717101
 30
0.0
 10
11.1705192137
 20
6.6401661691
 30
0.0
 10
11.1784240998
 20
6.6353109071
 30
0.0
 10
11.1856228406
 20
6.629434479
 30
0.0
 10
11.1908812735
 20
6.6241862931
 30
0.0
 10
11.1945568004
 20
6.619993698
 30
0.0
 10
11.197941805
 20
6.6155691147
 30
0.0
 10
11.2010191919
 20
6.6109348408
 30
0.0
 10
11.2037731208
 20
6.6061144913
 30
0.0
 10
11.2061894558
 20
6.6011325818
 30
0.0
 10
11.2082557479
 20
6.5960144943
 30
0.0
 10
11.2099613395
 20
6.590786304
 30
0.0
 10
11.2112973698
 20
6.5854747614
 30
0.0
 10
11.2122570542
 20
6.5801068071
 30
0.0
 10
11.2128351941
 20
6.5747103547
 30
0.0
 10
11.2129646855
 20
6.5711022875
 30
0.0
 10
11.2129646855
 20
6.5693033665
 30
0.0
  0
SPLINE
  5
381
100
AcDbEntity
  8
0
100
AcDbSpline
 62
7
  6
CONTINUOUS
 70
0
 71
3
 72
23
 73
19
 74
0
 42
0.0000001
 43
0.0000001
 44
0.0000000001
 40
0.0
 40
0.0
 40
0.0
 40
0.0
 40
0.0616482149
 40
0.1233194547
 40
0.1850364846
 40
0.2468215689
 40
0.3086962155
 40
0.3706809299
 40
0.4327950056
 40
0.4950563252
 40
0.557481176
 40
0.6200840805
 40
0.6828775566
 40
0.7458723664
 40
0.8090769636
 40
0.8724964899
 40
0.9361392081
 40
1.0
 40
1.0
 40
1.0
 40
1.0
 10
11.1659970077
 20
8.0486391443
 30
0.0
 10
11.1684546479
 20
8.0510130553
 30
0.0
 10
11.1734995833
 20
8.0556305388
 30
0.0
 10
11.1814298683
 20
8.0621413263
 30
0.0
 10
11.1897045113
 20
8.0682217717
 30
0.0
 10
11.1983023827
 20
8.0738562907
 30
0.0
 10
11.2072018988
 20
8.0790307545
 30
0.0
 10
11.2163806165
 20
8.0837321064
 30
0.0
 10
11.2258153938
 20
8.087948555
 30
0.0
 10
11.2354824569
 20
8.0916695007
 30
0.0
 10
11.2453574619
 20
8.0948855674
 30
0.0
 10
11.2554155272
 20
8.0975886772
 30
0.0
 10
11.2656313136
 20
8.0997720881
 30
0.0
 10
11.275979112
 20
8.1014303158
 30
0.0
 10
11.2864327935
 20
8.1025591634
 30
0.0
 10
11.2969662943
 20
8.1031559256
 30
0.0
 10
11.3075525497
 20
8.1032189854
 30
0.0
 10
11.3146161567
 20
8.1029057576
 30
0.0
 10
11.3181472462
 20
8.1026608757
 30
0.0
  0
SPLINE
  5
382
100
AcDbEntity
  8
0
100
AcDbSpline
 62
7
  6
CONTINUOUS
 70
0
 71
3
 72
22
 73
18
 74
0
 42
0.0000001
 43
0.0000001
 44
0.0000000001
 40
0.0
 40
0.0
 40
0.0
 40
0.0
 40
0.1283265849
 40
0.1922023319
 40
0.2558499487
 40
0.3192537794
 40
0.3824003234
 40
0.445279029
 40
0.5078831785
 40
0.5702108707
 40
0.6322660283
 40
0.6940593367
 40
0.7556089467
 40
0.8169408384
 40
0.8780886793
 40
0.9390929743
 40
1.0
 40
1.0
 40
1.0
 40
1.0
 10
10.1301601078
 20
7.0365248433
 30
0.0
 10
10.1276756988
 20
7.0438005735
 30
0.0
 10
10.1244803734
 20
7.0548904227
 30
0.0
 10
10.1214024115
 20
7.069911844
 30
0.0
 10
10.1197160828
 20
7.0812318454
 30
0.0
 10
10.1186747865
 20
7.0925853821
 30
0.0
 10
10.1183032738
 20
7.1039350645
 30
0.0
 10
10.1186252572
 20
7.1152388472
 30
0.0
 10
10.1196623332
 20
7.1264508944
 30
0.0
 10
10.121433124
 20
7.1375213483
 30
0.0
 10
10.1239522038
 20
7.1483966487
 30
0.0
 10
10.1272289731
 20
7.1590200172
 30
0.0
 10
10.1312665494
 20
7.1693322942
 30
0.0
 10
10.1360606684
 20
7.1792729765
 30
0.0
 10
10.1415991407
 20
7.1887819232
 30
0.0
 10
10.1478603649
 20
7.1977998683
 30
0.0
 10
10.1525005818
 20
7.2034524739
 30
0.0
 10
10.1549279849
 20
7.2061769992
 30
0.0
  0
SPLINE
  5
383
100
AcDbEntity
  8
0
100
AcDbSpline
 62
7
  6
CONTINUOUS
 70
0
 71
3
 72
25
 73
21
 74
0
 42
0.0000001
 43
0.0000001
 44
0.0000000001
 40
0.0
 40
0.0
 40
0.0
 40
0.0
 40
0.0625454978
 40
0.093746665
 40
0.1249015801
 40
0.1870780614
 40
0.249119259
 40
0.2801067661
 40
0.3110757115
 40
0.3729687289
 40
0.4348575355
 40
0.49679339
 40
0.5588297076
 40
0.6210205344
 40
0.6834186651
 40
0.7460734629
 40
0.8090284848
 40
0.8723195722
 40
0.9359714633
 40
1.0
 40
1.0
 40
1.0
 40
1.0
 10
10.140066833
 20
8.9578258856
 30
0.0
 10
10.1417767535
 20
8.9624528527
 30
0.0
 10
10.1445796255
 20
8.96930307
 30
0.0
 10
10.1487869952
 20
8.9782117046
 30
0.0
 10
10.1532954105
 20
8.9869395187
 30
0.0
 10
10.159503917
 20
8.9975173815
 30
0.0
 10
10.1664673034
 20
9.0075991534
 30
0.0
 10
10.1724724802
 20
9.0153202564
 30
0.0
 10
10.1787601395
 20
9.0227977589
 30
0.0
 10
10.1871514344
 20
9.0316787487
 30
0.0
 10
10.1980305934
 20
9.0415087039
 30
0.0
 10
10.2096760397
 20
9.050437911
 30
0.0
 10
10.2220359289
 20
9.0583937393
 30
0.0
 10
10.2350498028
 20
9.065306918
 30
0.0
 10
10.248647641
 20
9.0711125946
 30
0.0
 10
10.2627500079
 20
9.0757524444
 30
0.0
 10
10.2772682975
 20
9.0791767195
 30
0.0
 10
10.2921062402
 20
9.0813460693
 30
0.0
 10
10.3071593033
 20
9.082233649
 30
0.0
 10
10.3172399648
 20
9.0819623378
 30
0.0
 10
10.3222776428
 20
9.0816129736
 30
0.0
  0
SPLINE
  5
384
100
AcDbEntity
  8
0
100
AcDbSpline
 62
7
  6
CONTINUOUS
 70
0
 71
3
 72
35
 73
31
 74
0
 42
0.0000001
 43
0.0000001
 44
0.0000000001
 40
0.0
 40
0.0
 40
0.0
 40
0.0
 40
0.0315195713
 40
0.0629726105
 40
0.1256340032
 40
0.1879632911
 40
0.2190070986
 40
0.2499645463
 40
0.3116159383
 40
0.3729980177
 40
0.403632035
 40
0.4342440801
 40
0.4648557222
 40
0.4954913887
 40
0.5261778662
 40
0.5569435124
 40
0.5878171427
 40
0.618826297
 40
0.6499950081
 40
0.6813411039
 40
0.7128730728
 40
0.7445871334
 40
0.7764649801
 40
0.8084726959
 40
0.8405616873
 40
0.8726718564
 40
0.904736309
 40
0.936687049
 40
0.9684602006
 40
1.0
 40
1.0
 40
1.0
 40
1.0
 10
10.7563923843
 20
7.3209860343
 30
0.0
 10
10.7550531432
 20
7.3248003347
 30
0.0
 10
10.7525668871
 20
7.3324891137
 30
0.0
 10
10.7483769297
 20
7.348053564
 30
0.0
 10
10.7446108272
 20
7.3677978877
 30
0.0
 10
10.7428335362
 20
7.387766877
 30
0.0
 10
10.7426236451
 20
7.4037176911
 30
0.0
 10
10.7432204737
 20
7.4195716071
 30
0.0
 10
10.7454817621
 20
7.4392297802
 30
0.0
 10
10.7498005199
 20
7.4585019448
 30
0.0
 10
10.7545003122
 20
7.4735184797
 30
0.0
 10
10.7586521943
 20
7.4845511281
 30
0.0
 10
10.7634387582
 20
7.4953239161
 30
0.0
 10
10.7688662231
 20
7.5057997877
 30
0.0
 10
10.7749401812
 20
7.5159381069
 30
0.0
 10
10.7816648084
 20
7.5256947807
 30
0.0
 10
10.7890415887
 20
7.5350217354
 30
0.0
 10
10.7970676904
 20
7.5438668752
 30
0.0
 10
10.8057339781
 20
7.552174402
 30
0.0
 10
10.8150227548
 20
7.5598857751
 30
0.0
 10
10.8249054876
 20
7.566941458
 30
0.0
 10
10.8353408914
 20
7.5732835437
 30
0.0
 10
10.8462738518
 20
7.5788591696
 30
0.0
 10
10.8576356905
 20
7.5836243737
 30
0.0
 10
10.8693460987
 20
7.5875478176
 30
0.0
 10
10.8813167382
 20
7.5906136545
 30
0.0
 10
10.8934559453
 20
7.5928229247
 30
0.0
 10
10.9056741007
 20
7.5941931444
 30
0.0
 10
10.9178873137
 20
7.59475625
 30
0.0
 10
10.9260124055
 20
7.5946217151
 30
0.0
 10
10.9300532177
 20
7.5944339018
 30
0.0
  0
SPLINE
  5
385
100
AcDbEntity
  8
0
100
AcDbSpline
 62
7
  6
CONTINUOUS
 70
0
 71
3
 72
15
 73
11
 74
0
 42
0.0000001
 43
0.0000001
 44
0.0000000001
 40
0.0
 40
0.0
 40
0.0
 40
0.0
 40
0.1258740744
 40
0.2514014095
 40
0.376622841
 40
0.5015856233
 40
0.6263430447
 40
0.750953953
 40
0.8754831205
 40
1.0
 40
1.0
 40
1.0
 40
1.0
 10
10.4555662158
 20
8.7135129431
 30
0.0
 10
10.4570169263
 20
8.7174386697
 30
0.0
 10
10.4601439985
 20
8.7251967441
 30
0.0
 10
10.4655110871
 20
8.7365185821
 30
0.0
 10
10.4715401068
 20
8.7474684686
 30
0.0
 10
10.4782206084
 20
8.7580034322
 30
0.0
 10
10.4855400305
 20
8.7680802442
 30
0.0
 10
10.4934832233
 20
8.777654939
 30
0.0
 10
10.5020313369
 20
8.786682326
 30
0.0
 10
10.5081193459
 20
8.792306139
 30
0.0
 10
10.5112542944
 20
8.7950102666
 30
0.0
  0
SPLINE
  5
386
100
AcDbEntity
  8
0
100
AcDbSpline
 62
7
  6
CONTINUOUS
 70
0
 71
3
 72
41
 73
37
 74
0
 42
0.0000001
 43
0.0000001
 44
0.0000000001
 40
0.0
 40
0.0
 40
0.0
 40
0.0
 40
0.031144444
 40
0.0624425093
 40
0.0938872508
 40
0.1254695847
 40
0.1571771078
 40
0.1889951283
 40
0.2209066801
 40
0.2528929859
 40
0.2849338014
 40
0.3170078274
 40
0.3490931225
 40
0.3811675283
 40
0.4132090962
 40
0.4451965119
 40
0.4771095115
 40
0.5089292827
 40
0.5406388458
 40
0.5722234075
 40
0.6036706813
 40
0.6349711679
 40
0.6661183875
 40
0.6971090579
 40
0.7279432122
 40
0.7586242475
 40
0.7891589026
 40
0.8195571573
 40
0.8498320547
 40
0.8649308931
 40
0.8800050545
 40
0.9100832586
 40
0.9400926739
 40
0.9550812746
 40
0.9700610358
 40
1.0
 40
1.0
 40
1.0
 40
1.0
 10
9.8093710963
 20
6.8332650925
 30
0.0
 10
9.8060571446
 20
6.8334949158
 30
0.0
 10
9.799427253
 20
6.834198275
 30
0.0
 10
9.789562806
 20
6.8359700079
 30
0.0
 10
9.7798039977
 20
6.8384517338
 30
0.0
 10
9.7702035791
 20
6.8416300216
 30
0.0
 10
9.7608125186
 20
6.8454878932
 30
0.0
 10
9.751680921
 20
6.8500046834
 30
0.0
 10
9.74285743
 20
6.8551562669
 30
0.0
 10
9.7343890621
 20
6.8609151326
 30
0.0
 10
9.7263209371
 20
6.8672505533
 30
0.0
 10
9.718696045
 20
6.8741287388
 30
0.0
 10
9.7115550191
 20
6.8815130184
 30
0.0
 10
9.7049359213
 20
6.8893640333
 30
0.0
 10
9.6988740418
 20
6.8976399446
 30
0.0
 10
9.6934017122
 20
6.9062966538
 30
0.0
 10
9.6885481348
 20
6.9152880357
 30
0.0
 10
9.6843392276
 20
6.9245661805
 30
0.0
 10
9.6807974868
 20
6.9340816468
 30
0.0
 10
9.6779418666
 20
6.9437837208
 30
0.0
 10
9.6757876774
 20
6.9536206837
 30
0.0
 10
9.6743465027
 20
6.9635400831
 30
0.0
 10
9.6736261348
 20
6.9734890097
 30
0.0
 10
9.6736305288
 20
6.9834143735
 30
0.0
 10
9.6743597816
 20
6.9932631943
 30
0.0
 10
9.6758101072
 20
7.0029828437
 30
0.0
 10
9.6779739215
 20
7.0125214683
 30
0.0
 10
9.6808396137
 20
7.0218277382
 30
0.0
 10
9.6838032137
 20
7.0293559659
 30
0.0
 10
9.6865076585
 20
7.0352103237
 30
0.0
 10
9.6894262639
 20
7.0409373934
 30
0.0
 10
9.6934785892
 20
7.04786458
 30
0.0
 10
9.6980521153
 20
7.0544482409
 30
0.0
 10
9.7020042894
 20
7.0594806455
 30
0.0
 10
9.7061450307
 20
7.0643487644
 30
0.0
 10
9.7094624697
 20
7.067814463
 30
0.0
 10
9.7117592901
 20
7.0700330192
 30
0.0
  0
SPLINE
  5
387
100
AcDbEntity
  8
0
100
AcDbSpline
 62
7
  6
CONTINUOUS
 70
0
 71
3
 72
83
 73
79
 74
0
 42
0.0000001
 43
0.0000001
 44
0.0000000001
 40
0.0
 40
0.0
 40
0.0
 40
0.0
 40
0.0039801597
 40
0.0081241011
 40
0.0124359827
 40
0.0169193525
 40
0.0215772196
 40
0.0264119586
 40
0.031425229
 40
0.0366182129
 40
0.0419916121
 40
0.0475457279
 40
0.0532805095
 40
0.0591955088
 40
0.0715625207
 40
0.0846382028
 40
0.0984095218
 40
0.1128600995
 40
0.1279706368
 40
0.1437192468
 40
0.1600817256
 40
0.1770317945
 40
0.1945412999
 40
0.2125803859
 40
0.2311176466
 40
0.2501202605
 40
0.2695541245
 40
0.2893839808
 40
0.3095735319
 40
0.330085551
 40
0.3508819872
 40
0.3719240699
 40
0.4145863693
 40
0.4577526899
 40
0.5010975086
 40
0.544293566
 40
0.5870150496
 40
0.6080975911
 40
0.6289416064
 40
0.6495082092
 40
0.6697592088
 40
0.689657215
 40
0.7091657527
 40
0.7282493694
 40
0.746873748
 40
0.7650058256
 40
0.7826139217
 40
0.7996678828
 40
0.8161392372
 40
0.8320013567
 40
0.8472296488
 40
0.8618017808
 40
0.8756979498
 40
0.88890122
 40
0.9013979191
 40
0.913178149
 40
0.9187980119
 40
0.9242371416
 40
0.9294956774
 40
0.934574209
 40
0.9394737161
 40
0.9441957227
 40
0.9487422872
 40
0.9531160827
 40
0.9573205216
 40
0.9613597549
 40
0.9652388727
 40
0.9689639318
 40
0.9725421085
 40
0.975981836
 40
0.9792928628
 40
0.9824864354
 40
0.9855753015
 40
0.9885737802
 40
0.9914977137
 40
0.9943643206
 40
0.9971920041
 40
1.0
 40
1.0
 40
1.0
 40
1.0
 10
10.6377777568
 20
10.9511764478
 30
0.0
 10
10.6388472536
 20
10.9522095023
 30
0.0
 10
10.6410788268
 20
10.9542683119
 30
0.0
 10
10.6446218875
 20
10.9572753698
 30
0.0
 10
10.6484251346
 20
10.9602608767
 30
0.0
 10
10.6524864798
 20
10.9632232115
 30
0.0
 10
10.6568039208
 20
10.9661610119
 30
0.0
 10
10.6613753644
 20
10.9690728274
 30
0.0
 10
10.6661985186
 20
10.9719572893
 30
0.0
 10
10.6712709911
 20
10.9748129012
 30
0.0
 10
10.6765902286
 20
10.9776382603
 30
0.0
 10
10.6821535652
 20
10.9804319578
 30
0.0
 10
10.6879582342
 20
10.9831925858
 30
0.0
 10
10.6961374531
 20
10.9868823614
 30
0.0
 10
10.7069529335
 20
10.9913913277
 30
0.0
 10
10.7206591343
 20
10.9965712713
 30
0.0
 10
10.735251672
 20
11.0015872312
 30
0.0
 10
10.7507011736
 20
11.0064290289
 30
0.0
 10
10.7669767097
 20
11.0110868234
 30
0.0
 10
10.7840455453
 20
11.0155511309
 30
0.0
 10
10.80187331
 20
11.0198128642
 30
0.0
 10
10.8204240562
 20
11.0238633428
 30
0.0
 10
10.8396603501
 20
11.0276943154
 30
0.0
 10
10.8595433513
 20
11.031297978
 30
0.0
 10
10.8800328925
 20
11.0346669878
 30
0.0
 10
10.9010875619
 20
11.0377944869
 30
0.0
 10
10.9226647911
 20
11.0406741118
 30
0.0
 10
10.9447209464
 20
11.0433000023
 30
0.0
 10
10.9672114234
 20
11.0456668169
 30
0.0
 10
10.9900907208
 20
11.0477697308
 30
0.0
 10
11.0133125926
 20
11.0496044938
 30
0.0
 10
11.0448125325
 20
11.051697728
 30
0.0
 10
11.0846967604
 20
11.0536121141
 30
0.0
 10
11.1329447769
 20
11.0547860539
 30
0.0
 10
11.1814066095
 20
11.0548371794
 30
0.0
 10
11.2296902168
 20
11.0537650906
 30
0.0
 10
11.2696267784
 20
11.0519352244
 30
0.0
 10
11.3011862134
 20
11.049909066
 30
0.0
 10
11.324465354
 20
11.0481234925
 30
0.0
 10
11.3474104188
 20
11.0460690531
 30
0.0
 10
11.3699750264
 20
11.0437498962
 30
0.0
 10
11.3921135206
 20
11.0411707434
 30
0.0
 10
11.4137811284
 20
11.0383368429
 30
0.0
 10
11.4349340353
 20
11.0352539646
 30
0.0
 10
11.4555294766
 20
11.031928384
 30
0.0
 10
11.4755258235
 20
11.0283668712
 30
0.0
 10
11.4948826709
 20
11.0245766758
 30
0.0
 10
11.5135609272
 20
11.020565517
 30
0.0
 10
11.5315228988
 20
11.0163415695
 30
0.0
 10
11.548732369
 20
11.0119134389
 30
0.0
 10
11.5651546725
 20
11.0072901438
 30
0.0
 10
11.5807567844
 20
11.0024810937
 30
0.0
 10
11.5955073711
 20
10.9974960634
 30
0.0
 10
11.6093769862
 20
10.9923451643
 30
0.0
 10
11.6223377656
 20
10.9870388296
 30
0.0
 10
11.6325137299
 20
10.9824266344
 30
0.0
 10
11.6401696581
 20
10.9786582257
 30
0.0
 10
11.6455780126
 20
10.9758442125
 30
0.0
 10
11.6507405337
 20
10.972999429
 30
0.0
 10
11.6556546712
 20
10.9701253208
 30
0.0
 10
11.6603179461
 20
10.967223269
 30
0.0
 10
11.6647280504
 20
10.9642947411
 30
0.0
 10
11.6688827901
 20
10.9613411718
 30
0.0
 10
11.672780079
 20
10.9583639667
 30
0.0
 10
11.6764180157
 20
10.9553646162
 30
0.0
 10
11.6797947431
 20
10.9523444832
 30
0.0
 10
11.6829086043
 20
10.9493050361
 30
0.0
 10
11.6857580077
 20
10.9462476595
 30
0.0
 10
11.6883414585
 20
10.9431737319
 30
0.0
 10
11.6906576277
 20
10.9400846844
 30
0.0
 10
11.6927051419
 20
10.9369818435
 30
0.0
 10
11.694482843
 20
10.9338666679
 30
0.0
 10
11.6959895234
 20
10.930740572
 30
0.0
 10
11.6972240826
 20
10.9276050742
 30
0.0
 10
11.6981855723
 20
10.9244618419
 30
0.0
 10
11.698873018
 20
10.9213125191
 30
0.0
 10
11.6992858358
 20
10.9181593468
 30
0.0
 10
11.6993777211
 20
10.916052774
 30
0.0
 10
11.6993777262
 20
10.9150037322
 30
0.0
  0
SPLINE
  5
388
100
AcDbEntity
  8
0
100
AcDbSpline
 62
7
  6
CONTINUOUS
 70
0
 71
3
 72
17
 73
13
 74
0
 42
0.0000001
 43
0.0000001
 44
0.0000000001
 40
0.0
 40
0.0
 40
0.0
 40
0.0
 40
0.0548653882
 40
0.109934811
 40
0.2214348207
 40
0.3360992423
 40
0.4553349631
 40
0.5170793242
 40
0.5804142098
 40
0.7123170268
 40
0.8519526575
 40
1.0
 40
1.0
 40
1.0
 40
1.0
 10
12.3745997305
 20
10.1426129726
 30
0.0
 10
12.3745997268
 20
10.1420833761
 30
0.0
 10
12.3745660849
 20
10.1410218751
 30
0.0
 10
12.3743638126
 20
10.1388929117
 30
0.0
 10
12.3738527398
 20
10.1362191204
 30
0.0
 10
12.3728371951
 20
10.1330360175
 30
0.0
 10
12.3716695423
 20
10.1304256404
 30
0.0
 10
12.3705459564
 20
10.1283513693
 30
0.0
 10
12.3692594093
 20
10.1262294918
 30
0.0
 10
12.3673913138
 20
10.123585924
 30
0.0
 10
12.3647868528
 20
10.1204793521
 30
0.0
 10
12.3628497925
 20
10.1184859762
 30
0.0
 10
12.3618219421
 20
10.1174931489
 30
0.0
  0
SPLINE
  5
389
100
AcDbEntity
  8
0
100
AcDbSpline
 62
7
  6
CONTINUOUS
 70
0
 71
3
 72
17
 73
13
 74
0
 42
0.0000001
 43
0.0000001
 44
0.0000000001
 40
0.0
 40
0.0
 40
0.0
 40
0.0
 40
0.0548654642
 40
0.1099349219
 40
0.2214349039
 40
0.3360992195
 40
0.4553348124
 40
0.517079118
 40
0.5804139608
 40
0.7123167483
 40
0.8519524535
 40
1.0
 40
1.0
 40
1.0
 40
1.0
 10
12.3745997305
 20
11.0486518055
 30
0.0
 10
12.3745997346
 20
11.0481222014
 30
0.0
 10
12.3745661075
 20
11.0470606852
 30
0.0
 10
12.3743638609
 20
11.044931691
 30
0.0
 10
12.3738528128
 20
11.0422578601
 30
0.0
 10
12.3728372854
 20
11.0390747092
 30
0.0
 10
12.3716696369
 20
11.0364642928
 30
0.0
 10
12.370546049
 20
11.0343899909
 30
0.0
 10
12.3692594955
 20
11.0322680814
 30
0.0
 10
12.3673913841
 20
11.0296244737
 30
0.0
 10
12.3647868933
 20
11.0265178558
 30
0.0
 10
12.3628498071
 20
11.0245244515
 30
0.0
 10
12.3618219421
 20
11.0235316101
 30
0.0
  0
SPLINE
  5
38A
100
AcDbEntity
  8
0
100
AcDbSpline
 62
7
  6
CONTINUOUS
 70
0
 71
3
 72
41
 73
37
 74
0
 42
0.0000001
 43
0.0000001
 44
0.0000000001
 40
0.0
 40
0.0
 40
0.0
 40
0.0
 40
0.031144444
 40
0.0624425093
 40
0.0938872508
 40
0.1254695847
 40
0.1571771078
 40
0.1889951283
 40
0.2209066801
 40
0.2528929859
 40
0.2849338014
 40
0.3170078274
 40
0.3490931225
 40
0.3811675283
 40
0.4132090962
 40
0.4451965119
 40
0.4771095115
 40
0.5089292827
 40
0.5406388458
 40
0.5722234075
 40
0.6036706813
 40
0.6349711679
 40
0.6661183875
 40
0.6971090579
 40
0.7279432122
 40
0.7586242475
 40
0.7891589026
 40
0.8195571573
 40
0.8498320547
 40
0.8649308931
 40
0.8800050545
 40
0.9100832586
 40
0.9400926739
 40
0.9550812746
 40
0.9700610358
 40
1.0
 40
1.0
 40
1.0
 40
1.0
 10
11.5596286883
 20
6.7118843162
 30
0.0
 10
11.5563147367
 20
6.7121141395
 30
0.0
 10
11.549684845
 20
6.7128174988
 30
0.0
 10
11.539820398
 20
6.7145892317
 30
0.0
 10
11.5300615897
 20
6.7170709575
 30
0.0
 10
11.5204611711
 20
6.7202492453
 30
0.0
 10
11.5110701106
 20
6.7241071169
 30
0.0
 10
11.501938513
 20
6.7286239071
 30
0.0
 10
11.493115022
 20
6.7337754906
 30
0.0
 10
11.4846466541
 20
6.7395343563
 30
0.0
 10
11.4765785291
 20
6.745869777
 30
0.0
 10
11.468953637
 20
6.7527479625
 30
0.0
 10
11.4618126111
 20
6.7601322422
 30
0.0
 10
11.4551935133
 20
6.767983257
 30
0.0
 10
11.4491316338
 20
6.7762591683
 30
0.0
 10
11.4436593042
 20
6.7849158776
 30
0.0
 10
11.4388057268
 20
6.7939072594
 30
0.0
 10
11.4345968196
 20
6.8031854043
 30
0.0
 10
11.4310550788
 20
6.8127008705
 30
0.0
 10
11.4281994586
 20
6.8224029445
 30
0.0
 10
11.4260452694
 20
6.8322399074
 30
0.0
 10
11.4246040947
 20
6.8421593068
 30
0.0
 10
11.4238837269
 20
6.8521082334
 30
0.0
 10
11.4238881208
 20
6.8620335972
 30
0.0
 10
11.4246173737
 20
6.871882418
 30
0.0
 10
11.4260676992
 20
6.8816020674
 30
0.0
 10
11.4282315135
 20
6.891140692
 30
0.0
 10
11.4310972057
 20
6.9004469619
 30
0.0
 10
11.4340608057
 20
6.9079751896
 30
0.0
 10
11.4367652505
 20
6.9138295474
 30
0.0
 10
11.4396838559
 20
6.9195566172
 30
0.0
 10
11.4437361812
 20
6.9264838037
 30
0.0
 10
11.4483097073
 20
6.9330674646
 30
0.0
 10
11.4522618814
 20
6.9380998693
 30
0.0
 10
11.4564026227
 20
6.9429679881
 30
0.0
 10
11.4597200617
 20
6.9464336868
 30
0.0
 10
11.4620168821
 20
6.9486522429
 30
0.0
  0
SPLINE
  5
38B
100
AcDbEntity
  8
0
100
AcDbSpline
 62
7
  6
CONTINUOUS
 70
0
 71
3
 72
23
 73
19
 74
0
 42
0.0000001
 43
0.0000001
 44
0.0000000001
 40
0.0
 40
0.0
 40
0.0
 40
0.0
 40
0.0749618611
 40
0.1455678041
 40
0.2121589218
 40
0.2751620139
 40
0.3350968437
 40
0.3925819213
 40
0.4483281136
 40
0.5031224735
 40
0.5577971527
 40
0.6131904492
 40
0.6701060365
 40
0.7292779135
 40
0.7913516063
 40
0.8568774527
 40
0.9263095509
 40
1.0
 40
1.0
 40
1.0
 40
1.0
 10
12.3310211004
 20
11.1024516362
 30
0.0
 10
12.3320144248
 20
11.1015272362
 30
0.0
 10
12.3338882481
 20
11.0996713254
 30
0.0
 10
12.3364166812
 20
11.0967759194
 30
0.0
 10
12.3385726974
 20
11.0938575155
 30
0.0
 10
12.3403532291
 20
11.0909187689
 30
0.0
 10
12.3417551501
 20
11.0879621736
 30
0.0
 10
12.3427754794
 20
11.0849908411
 30
0.0
 10
12.3434111696
 20
11.082008529
 30
0.0
 10
12.3436601442
 20
11.0790200051
 30
0.0
 10
12.3435212515
 20
11.0760306835
 30
0.0
 10
12.3429952119
 20
11.0730460803
 30
0.0
 10
12.3420837845
 20
11.0700712123
 30
0.0
 10
12.3407899436
 20
11.0671101003
 30
0.0
 10
12.3391166108
 20
11.0641660158
 30
0.0
 10
12.3370668646
 20
11.0612415064
 30
0.0
 10
12.3346438477
 20
11.0583393899
 30
0.0
 10
12.3328376513
 20
11.0564786358
 30
0.0
 10
12.3318782397
 20
11.0555519153
 30
0.0
  0
SPLINE
  5
38C
100
AcDbEntity
  8
0
100
AcDbSpline
 62
7
  6
CONTINUOUS
 70
0
 71
3
 72
18
 73
14
 74
0
 42
0.0000001
 43
0.0000001
 44
0.0000000001
 40
0.0
 40
0.0
 40
0.0
 40
0.0
 40
0.0548627134
 40
0.1099293262
 40
0.1654013673
 40
0.2214755976
 40
0.336133279
 40
0.4553633673
 40
0.5171049701
 40
0.5804366861
 40
0.7123309727
 40
0.8519568969
 40
1.0
 40
1.0
 40
1.0
 40
1.0
 10
10.6193777417
 20
10.9150030008
 30
0.0
 10
10.619377738
 20
10.9157656389
 30
0.0
 10
10.6194261332
 20
10.9172941899
 30
0.0
 10
10.6196437352
 20
10.9195845185
 30
0.0
 10
10.6200063779
 20
10.9218735759
 30
0.0
 10
10.6206878545
 20
10.9249449735
 30
0.0
 10
10.6219155333
 20
10.9287945046
 30
0.0
 10
10.6235970036
 20
10.9325531506
 30
0.0
 10
10.6252149693
 20
10.9355402533
 30
0.0
 10
10.6270676016
 20
10.9385958147
 30
0.0
 10
10.6297576764
 20
10.9424026029
 30
0.0
 10
10.6335081297
 20
10.9468761938
 30
0.0
 10
10.6362975854
 20
10.9497467119
 30
0.0
 10
10.6377777568
 20
10.9511764478
 30
0.0
  0
SPLINE
  5
38D
100
AcDbEntity
  8
0
100
AcDbSpline
 62
7
  6
CONTINUOUS
 70
0
 71
3
 72
11
 73
7
 74
0
 42
0.0000001
 43
0.0000001
 44
0.0000000001
 40
0.0
 40
0.0
 40
0.0
 40
0.0
 40
0.227130956
 40
0.4680315577
 40
0.7250493261
 40
1.0
 40
1.0
 40
1.0
 40
1.0
 10
10.6226751156
 20
10.899515265
 30
0.0
 10
10.6234458347
 20
10.9013120146
 30
0.0
 10
10.6252729783
 20
10.9049152064
 30
0.0
 10
10.6287064605
 20
10.9101397624
 30
0.0
 10
10.6328958228
 20
10.9153196207
 30
0.0
 10
10.6360755025
 20
10.9186225665
 30
0.0
 10
10.6377777568
 20
10.920266818
 30
0.0
  0
SPLINE
  5
38E
100
AcDbEntity
  8
0
100
AcDbSpline
 62
7
  6
CONTINUOUS
 70
0
 71
3
 72
18
 73
14
 74
0
 42
0.0000001
 43
0.0000001
 44
0.0000000001
 40
0.0
 40
0.0
 40
0.0
 40
0.0
 40
0.0548091863
 40
0.109852031
 40
0.1653249698
 40
0.2214194026
 40
0.3361557189
 40
0.4554793604
 40
0.5172611142
 40
0.5806236009
 40
0.7125381871
 40
0.852108276
 40
1.0
 40
1.0
 40
1.0
 40
1.0
 10
10.6323798158
 20
10.8844759471
 30
0.0
 10
10.6323877925
 20
10.8852124738
 30
0.0
 10
10.6324500451
 20
10.8866885808
 30
0.0
 10
10.6326818647
 20
10.8888995728
 30
0.0
 10
10.633052206
 20
10.8911092492
 30
0.0
 10
10.6337353059
 20
10.8940743989
 30
0.0
 10
10.634948155
 20
10.8977900287
 30
0.0
 10
10.6365933435
 20
10.9014177899
 30
0.0
 10
10.6381700731
 20
10.9043012632
 30
0.0
 10
10.6399714362
 20
10.907250383
 30
0.0
 10
10.6425803511
 20
10.9109245015
 30
0.0
 10
10.6462096408
 20
10.9152430124
 30
0.0
 10
10.6489052834
 20
10.918015184
 30
0.0
 10
10.6503347933
 20
10.9193959846
 30
0.0
  0
SPLINE
  5
38F
100
AcDbEntity
  8
0
100
AcDbSpline
 62
7
  6
CONTINUOUS
 70
0
 71
3
 72
15
 73
11
 74
0
 42
0.0000001
 43
0.0000001
 44
0.0000000001
 40
0.0
 40
0.0
 40
0.0
 40
0.0
 40
0.1096799534
 40
0.2222793216
 40
0.3386385036
 40
0.4595089762
 40
0.5855525328
 40
0.7173426822
 40
0.8553624675
 40
1.0
 40
1.0
 40
1.0
 40
1.0
 10
10.6435972444
 20
10.8735804857
 30
0.0
 10
10.6438370287
 20
10.8747550023
 30
0.0
 10
10.6444404526
 20
10.8771127802
 30
0.0
 10
10.6456893226
 20
10.8806019171
 30
0.0
 10
10.6472899347
 20
10.8840793113
 30
0.0
 10
10.6492403857
 20
10.8875422277
 30
0.0
 10
10.6515388929
 20
10.8909886861
 30
0.0
 10
10.6541835326
 20
10.894416723
 30
0.0
 10
10.6571721109
 20
10.8978240946
 30
0.0
 10
10.6593400095
 20
10.9000275126
 30
0.0
 10
10.6604770151
 20
10.9011257757
 30
0.0
  0
SPLINE
  5
390
100
AcDbEntity
  8
0
100
AcDbSpline
 62
7
  6
CONTINUOUS
 70
0
 71
3
 72
41
 73
37
 74
0
 42
0.0000001
 43
0.0000001
 44
0.0000000001
 40
0.0
 40
0.0
 40
0.0
 40
0.0
 40
0.031144444
 40
0.0624425093
 40
0.0938872508
 40
0.1254695847
 40
0.1571771078
 40
0.1889951283
 40
0.2209066801
 40
0.2528929859
 40
0.2849338014
 40
0.3170078274
 40
0.3490931225
 40
0.3811675283
 40
0.4132090962
 40
0.4451965119
 40
0.4771095115
 40
0.5089292827
 40
0.5406388458
 40
0.5722234075
 40
0.6036706813
 40
0.6349711679
 40
0.6661183875
 40
0.6971090579
 40
0.7279432122
 40
0.7586242475
 40
0.7891589026
 40
0.8195571573
 40
0.8498320547
 40
0.8649308931
 40
0.8800050545
 40
0.9100832586
 40
0.9400926739
 40
0.9550812746
 40
0.9700610358
 40
1.0
 40
1.0
 40
1.0
 40
1.0
 10
11.5596286883
 20
8.7644769338
 30
0.0
 10
11.5563147367
 20
8.7647067572
 30
0.0
 10
11.549684845
 20
8.7654101164
 30
0.0
 10
11.539820398
 20
8.7671818493
 30
0.0
 10
11.5300615897
 20
8.7696635751
 30
0.0
 10
11.5204611711
 20
8.772841863
 30
0.0
 10
11.5110701106
 20
8.7766997345
 30
0.0
 10
11.501938513
 20
8.7812165248
 30
0.0
 10
11.493115022
 20
8.7863681082
 30
0.0
 10
11.4846466541
 20
8.792126974
 30
0.0
 10
11.4765785291
 20
8.7984623946
 30
0.0
 10
11.468953637
 20
8.8053405802
 30
0.0
 10
11.4618126111
 20
8.8127248598
 30
0.0
 10
11.4551935133
 20
8.8205758747
 30
0.0
 10
11.4491316338
 20
8.8288517859
 30
0.0
 10
11.4436593042
 20
8.8375084952
 30
0.0
 10
11.4388057268
 20
8.846499877
 30
0.0
 10
11.4345968196
 20
8.8557780219
 30
0.0
 10
11.4310550788
 20
8.8652934881
 30
0.0
 10
11.4281994586
 20
8.8749955622
 30
0.0
 10
11.4260452694
 20
8.8848325251
 30
0.0
 10
11.4246040947
 20
8.8947519244
 30
0.0
 10
11.4238837269
 20
8.9047008511
 30
0.0
 10
11.4238881208
 20
8.9146262149
 30
0.0
 10
11.4246173737
 20
8.9244750356
 30
0.0
 10
11.4260676992
 20
8.9341946851
 30
0.0
 10
11.4282315135
 20
8.9437333097
 30
0.0
 10
11.4310972057
 20
8.9530395796
 30
0.0
 10
11.4340608057
 20
8.9605678072
 30
0.0
 10
11.4367652505
 20
8.9664221651
 30
0.0
 10
11.4396838559
 20
8.9721492348
 30
0.0
 10
11.4437361812
 20
8.9790764214
 30
0.0
 10
11.4483097073
 20
8.9856600822
 30
0.0
 10
11.4522618814
 20
8.9906924869
 30
0.0
 10
11.4564026227
 20
8.9955606057
 30
0.0
 10
11.4597200617
 20
8.9990263044
 30
0.0
 10
11.4620168821
 20
9.0012448606
 30
0.0
  0
SPLINE
  5
391
100
AcDbEntity
  8
0
100
AcDbSpline
 62
7
  6
CONTINUOUS
 70
0
 71
3
 72
39
 73
35
 74
0
 42
0.0000001
 43
0.0000001
 44
0.0000000001
 40
0.0
 40
0.0
 40
0.0
 40
0.0
 40
0.0958316688
 40
0.1891006705
 40
0.2792405767
 40
0.3229673483
 40
0.3657111495
 40
0.4074093993
 40
0.4480020282
 40
0.4874317158
 40
0.5256439104
 40
0.562587298
 40
0.5982141002
 40
0.6324801996
 40
0.6653458035
 40
0.696775823
 40
0.726740271
 40
0.7552152757
 40
0.7821837636
 40
0.8076364714
 40
0.8315736871
 40
0.8540068174
 40
0.874960774
 40
0.8944773415
 40
0.9126188285
 40
0.9294730659
 40
0.9451592976
 40
0.9598338074
 40
0.9668558258
 40
0.9737028593
 40
0.9804062749
 40
0.9869996857
 40
0.9935186317
 40
1.0
 40
1.0
 40
1.0
 40
1.0
 10
9.9043091283
 20
9.7437179129
 30
0.0
 10
9.8945418248
 20
9.7443952777
 30
0.0
 10
9.8752824674
 20
9.7459467086
 30
0.0
 10
9.8469050412
 20
9.7489082263
 30
0.0
 10
9.8238894908
 20
9.7518950314
 30
0.0
 10
9.8060467965
 20
9.7545836816
 30
0.0
 10
9.7931269195
 20
9.7567181318
 30
0.0
 10
9.7805552538
 20
9.7589872982
 30
0.0
 10
9.7683527812
 20
9.7613873998
 30
0.0
 10
9.7565398768
 20
9.763914368
 30
0.0
 10
9.745136258
 20
9.7665639778
 30
0.0
 10
9.7341609453
 20
9.7693317719
 30
0.0
 10
9.7236322246
 20
9.7722130722
 30
0.0
 10
9.7135676303
 20
9.7752030647
 30
0.0
 10
9.7039838917
 20
9.7782967159
 30
0.0
 10
9.6948969051
 20
9.7814888153
 30
0.0
 10
9.6863217206
 20
9.7847740538
 30
0.0
 10
9.6782724759
 20
9.7881469284
 30
0.0
 10
9.6707623799
 20
9.791601829
 30
0.0
 10
9.6638037046
 20
9.7951331132
 30
0.0
 10
9.6574077017
 20
9.7987350204
 30
0.0
 10
9.6515846191
 20
9.8024018328
 30
0.0
 10
9.6463437233
 20
9.8061279607
 30
0.0
 10
9.6416932375
 20
9.8099079499
 30
0.0
 10
9.6376405612
 20
9.8137366443
 30
0.0
 10
9.6341923909
 20
9.8176095996
 30
0.0
 10
9.6313553883
 20
9.8215218543
 30
0.0
 10
9.6294788672
 20
9.8248607239
 30
0.0
 10
9.6283091319
 20
9.8275341806
 30
0.0
 10
9.627600923
 20
9.8295149937
 30
0.0
 10
9.6270495428
 20
9.8314997028
 30
0.0
 10
9.6266554107
 20
9.8334875097
 30
0.0
 10
9.6264188321
 20
9.8354772495
 30
0.0
 10
9.6263661908
 20
9.8368060355
 30
0.0
 10
9.6263661954
 20
9.8374682127
 30
0.0
  0
SPLINE
  5
392
100
AcDbEntity
  8
0
100
AcDbSpline
 62
7
  6
CONTINUOUS
 70
0
 71
3
 72
39
 73
35
 74
0
 42
0.0000001
 43
0.0000001
 44
0.0000000001
 40
0.0
 40
0.0
 40
0.0
 40
0.0
 40
0.0071758079
 40
0.0146741357
 40
0.022503624
 40
0.030671441
 40
0.0391835297
 40
0.0480445027
 40
0.0572573755
 40
0.0668240442
 40
0.0767454363
 40
0.0870215068
 40
0.1086328144
 40
0.1316444976
 40
0.1560319006
 40
0.1817621503
 40
0.2087952904
 40
0.2370851496
 40
0.2665801077
 40
0.2972237102
 40
0.3289551658
 40
0.3617097536
 40
0.3954191975
 40
0.4300120549
 40
0.4654140374
 40
0.501548304
 40
0.5383357251
 40
0.5756951818
 40
0.6135438486
 40
0.6903688691
 40
0.7681254643
 40
0.846115686
 40
0.9236386402
 40
1.0
 40
1.0
 40
1.0
 40
1.0
 10
11.9332179571
 20
9.703493466
 30
0.0
 10
11.9324062593
 20
9.702709426
 30
0.0
 10
11.9307060136
 20
9.7011474824
 30
0.0
 10
11.9279942966
 20
9.6988717363
 30
0.0
 10
11.9250678901
 20
9.6966140329
 30
0.0
 10
11.9219286972
 20
9.6943758555
 30
0.0
 10
11.9185785757
 20
9.6921584057
 30
0.0
 10
11.9150194402
 20
9.6899629943
 30
0.0
 10
11.9112534046
 20
9.6877908403
 30
0.0
 10
11.9072826995
 20
9.6856432639
 30
0.0
 10
11.9031096787
 20
9.6835215429
 30
0.0
 10
11.8971791992
 20
9.6806808921
 30
0.0
 10
11.8892690508
 20
9.6772137574
 30
0.0
 10
11.8791659683
 20
9.6732429201
 30
0.0
 10
11.8683223771
 20
9.6694043592
 30
0.0
 10
11.8567641844
 20
9.6657073353
 30
0.0
 10
11.8445188464
 20
9.6621607997
 30
0.0
 10
11.8316156337
 20
9.6587733428
 30
0.0
 10
11.8180854346
 20
9.6555531803
 30
0.0
 10
11.8039606888
 20
9.652508128
 30
0.0
 10
11.7892752935
 20
9.6496455815
 30
0.0
 10
11.774064526
 20
9.6469724906
 30
0.0
 10
11.7583649528
 20
9.6444953328
 30
0.0
 10
11.7422143307
 20
9.6422201153
 30
0.0
 10
11.7256515093
 20
9.6401523561
 30
0.0
 10
11.7087163379
 20
9.6382970728
 30
0.0
 10
11.6914495849
 20
9.636658765
 30
0.0
 10
11.6738927817
 20
9.6352413693
 30
0.0
 10
11.6500356815
 20
9.6336428839
 30
0.0
 10
11.6198019091
 20
9.6322257486
 30
0.0
 10
11.5832300881
 20
9.6314530766
 30
0.0
 10
11.546540476
 20
9.6316077769
 30
0.0
 10
11.5100862296
 20
9.6326882742
 30
0.0
 10
11.4859191291
 20
9.6340328868
 30
0.0
 10
11.473938689
 20
9.6348637332
 30
0.0
  0
SPLINE
  5
393
100
AcDbEntity
  8
0
100
AcDbSpline
 62
7
  6
CONTINUOUS
 70
0
 71
3
 72
78
 73
74
 74
0
 42
0.0000001
 43
0.0000001
 44
0.0000000001
 40
0.0
 40
0.0
 40
0.0
 40
0.0
 40
0.0030029391
 40
0.0061025022
 40
0.0093103823
 40
0.0126369647
 40
0.0160913474
 40
0.0196814118
 40
0.0234139802
 40
0.0272948291
 40
0.0313288584
 40
0.0355201718
 40
0.0398721097
 40
0.044387421
 40
0.0490682416
 40
0.0539161981
 40
0.0589324903
 40
0.0641178484
 40
0.0749964183
 40
0.0865518234
 40
0.0987787405
 40
0.1116680506
 40
0.1252073666
 40
0.1393814598
 40
0.1541726195
 40
0.1695609278
 40
0.1855244771
 40
0.2020395475
 40
0.2190807936
 40
0.2366213912
 40
0.2546331634
 40
0.2730866833
 40
0.2919513943
 40
0.3111957215
 40
0.3307871661
 40
0.3506923903
 40
0.3708773077
 40
0.3913071832
 40
0.4327594257
 40
0.4747621618
 40
0.5170226914
 40
0.5592459872
 40
0.601137362
 40
0.6424051156
 40
0.6627158365
 40
0.6827640048
 40
0.7025151991
 40
0.7219357041
 40
0.7409925954
 40
0.7596538251
 40
0.7778883146
 40
0.7956660674
 40
0.8129582787
 40
0.8297374351
 40
0.8459774354
 40
0.8616537341
 40
0.8767435129
 40
0.8912258404
 40
0.9050818746
 40
0.9182951136
 40
0.9308517236
 40
0.9427409113
 40
0.9539553843
 40
0.959308742
 40
0.9644926556
 40
0.9695074891
 40
0.9743540117
 40
0.9790333789
 40
0.9835472157
 40
0.9878977805
 40
0.992087852
 40
0.9961206633
 40
1.0
 40
1.0
 40
1.0
 40
1.0
 10
11.6960817878
 20
10.8995119236
 30
0.0
 10
11.6956458823
 20
10.9005283814
 30
0.0
 10
11.6946848188
 20
10.902562477
 30
0.0
 10
11.6930134765
 20
10.9055592137
 30
0.0
 10
11.6910923887
 20
10.9085450211
 30
0.0
 10
11.6889226645
 20
10.9115183863
 30
0.0
 10
11.6865054118
 20
10.9144781189
 30
0.0
 10
11.6838418796
 20
10.9174229995
 30
0.0
 10
11.6809332904
 20
10.9203517269
 30
0.0
 10
11.6777810625
 20
10.9232630921
 30
0.0
 10
11.6743866483
 20
10.9261558185
 30
0.0
 10
11.6707515988
 20
10.9290286049
 30
0.0
 10
11.6668776245
 20
10.931880228
 30
0.0
 10
11.6627664746
 20
10.9347093522
 30
0.0
 10
11.6584200602
 20
10.9375147249
 30
0.0
 10
11.6538403909
 20
10.9402950707
 30
0.0
 10
11.6490295523
 20
10.9430491003
 30
0.0
 10
11.6422003348
 20
10.946743546
 30
0.0
 10
11.6330899705
 20
10.9512761136
 30
0.0
 10
11.6214420334
 20
10.9565066571
 30
0.0
 10
11.608931351
 20
10.9616025643
 30
0.0
 10
11.5955811241
 20
10.9665543209
 30
0.0
 10
11.581415917
 20
10.9713526804
 30
0.0
 10
11.5664619884
 20
10.9759886478
 30
0.0
 10
11.5507470987
 20
10.980453511
 30
0.0
 10
11.5343004781
 20
10.9847388662
 30
0.0
 10
11.5171527623
 20
10.9888366399
 30
0.0
 10
11.4993359356
 20
10.9927391252
 30
0.0
 10
11.4808832551
 20
10.9964389755
 30
0.0
 10
11.4618291788
 20
10.9999292242
 30
0.0
 10
11.4422093033
 20
11.0032032934
 30
0.0
 10
11.4220603013
 20
11.0062550256
 30
0.0
 10
11.4014198466
 20
11.009078683
 30
0.0
 10
11.380326536
 20
11.0116689531
 30
0.0
 10
11.3588198147
 20
11.0140209602
 30
0.0
 10
11.3369399203
 20
11.0161302722
 30
0.0
 10
11.314727753
 20
11.0179929562
 30
0.0
 10
11.2845791196
 20
11.0201532846
 30
0.0
 10
11.2463696052
 20
11.0222064271
 30
0.0
 10
11.2000866532
 20
11.0236324323
 30
0.0
 10
11.153499315
 20
11.0240213775
 30
0.0
 10
11.1069559093
 20
11.0233703485
 30
0.0
 10
11.060804431
 20
11.0216842583
 30
0.0
 10
11.0227601662
 20
11.019415626
 30
0.0
 10
10.9927869174
 20
11.0170846513
 30
0.0
 10
10.9707371488
 20
11.0150971127
 30
0.0
 10
10.949040381
 20
11.0128648816
 30
0.0
 10
10.927737166
 20
11.0103921332
 30
0.0
 10
10.9068673554
 20
11.0076835287
 30
0.0
 10
10.8864699769
 20
11.0047441614
 30
0.0
 10
10.8665831737
 20
11.0015795556
 30
0.0
 10
10.847244121
 20
10.9981956659
 30
0.0
 10
10.8284889545
 20
10.9945988683
 30
0.0
 10
10.810352707
 20
10.9907959342
 30
0.0
 10
10.7928692432
 20
10.9867940209
 30
0.0
 10
10.7760711863
 20
10.9826006567
 30
0.0
 10
10.7599898429
 20
10.9782237447
 30
0.0
 10
10.7446551487
 20
10.973671524
 30
0.0
 10
10.7300956027
 20
10.9689525546
 30
0.0
 10
10.7163382299
 20
10.9640756899
 30
0.0
 10
10.7034083977
 20
10.9590500617
 30
0.0
 10
10.6913301198
 20
10.9538850691
 30
0.0
 10
10.6818512645
 20
10.9494060212
 30
0.0
 10
10.6747212369
 20
10.9457521547
 30
0.0
 10
10.6696834354
 20
10.9430254621
 30
0.0
 10
10.6648745941
 20
10.9402711933
 30
0.0
 10
10.6602969236
 20
10.9374906306
 30
0.0
 10
10.6559525407
 20
10.9346850741
 30
0.0
 10
10.6518434518
 20
10.9318557455
 30
0.0
 10
10.6479714861
 20
10.9290039424
 30
0.0
 10
10.6443384368
 20
10.926130868
 30
0.0
 10
10.6409461506
 20
10.9232380075
 30
0.0
 10
10.6388054
 20
10.9212594452
 30
0.0
 10
10.6377777568
 20
10.920266818
 30
0.0
  0
SPLINE
  5
394
100
AcDbEntity
  8
0
100
AcDbSpline
 62
7
  6
CONTINUOUS
 70
0
 71
3
 72
83
 73
79
 74
0
 42
0.0000001
 43
0.0000001
 44
0.0000000001
 40
0.0
 40
0.0
 40
0.0
 40
0.0
 40
0.0028076051
 40
0.0056374432
 40
0.0085086061
 40
0.011439311
 40
0.0144465613
 40
0.0175459608
 40
0.0207515986
 40
0.0240759845
 40
0.0275301483
 40
0.0311236432
 40
0.0348647071
 40
0.0387603714
 40
0.0428165344
 40
0.0470381655
 40
0.0514293118
 40
0.0559932697
 40
0.0607326547
 40
0.0656494282
 40
0.0707450617
 40
0.0760204839
 40
0.0814762127
 40
0.0871123778
 40
0.0989241083
 40
0.1114506551
 40
0.1246819352
 40
0.1386041285
 40
0.1532001774
 40
0.1684502007
 40
0.1843318155
 40
0.2008203994
 40
0.2178893052
 40
0.235510047
 40
0.2536524812
 40
0.2722849566
 40
0.2913744503
 40
0.3108866887
 40
0.3307862649
 40
0.3510367627
 40
0.3716008667
 40
0.3924404668
 40
0.4135167597
 40
0.4562205954
 40
0.4993927952
 40
0.542708396
 40
0.5858410396
 40
0.6284661464
 40
0.6494886112
 40
0.6702649148
 40
0.6907564122
 40
0.7109251716
 40
0.7307340813
 40
0.750146965
 40
0.7691286872
 40
0.7876452648
 40
0.805663988
 40
0.8231535524
 40
0.8400842104
 40
0.8564279153
 40
0.8721584899
 40
0.8872518233
 40
0.9016861065
 40
0.9154421215
 40
0.9285035664
 40
0.9408574746
 40
0.9467663649
 40
0.9524953371
 40
0.9580439468
 40
0.9634121569
 40
0.9686002591
 40
0.9736089642
 40
0.9784394477
 40
0.9830933724
 40
0.9875731194
 40
0.9918816849
 40
0.9960225969
 40
1.0
 40
1.0
 40
1.0
 40
1.0
 10
11.6863753444
 20
10.884503679
 30
0.0
 10
11.6863634681
 20
10.8855268716
 30
0.0
 10
11.6862500264
 20
10.8875814175
 30
0.0
 10
11.6858122161
 20
10.8906550313
 30
0.0
 10
11.6851070309
 20
10.8937246486
 30
0.0
 10
11.6841350659
 20
10.8967881075
 30
0.0
 10
11.682897269
 20
10.899843819
 30
0.0
 10
11.6813946097
 20
10.9028901924
 30
0.0
 10
11.6796281265
 20
10.9059257399
 30
0.0
 10
11.6775990329
 20
10.9089491093
 30
0.0
 10
11.6753084537
 20
10.9119588808
 30
0.0
 10
11.67275772
 20
10.9149537488
 30
0.0
 10
11.6699481679
 20
10.9179323538
 30
0.0
 10
11.6668812233
 20
10.9208933104
 30
0.0
 10
11.6635584801
 20
10.9238353057
 30
0.0
 10
11.6599815499
 20
10.9267568952
 30
0.0
 10
11.6561522474
 20
10.9296567374
 30
0.0
 10
11.6520724608
 20
10.9325334229
 30
0.0
 10
11.6477442029
 20
10.9353855288
 30
0.0
 10
11.6431696495
 20
10.9382117086
 30
0.0
 10
11.6383510467
 20
10.9410105095
 30
0.0
 10
11.6332908197
 20
10.9437805807
 30
0.0
 10
11.6279914783
 20
10.9465205567
 30
0.0
 10
11.6204927961
 20
10.9501892825
 30
0.0
 10
11.610530176
 20
10.954679161
 30
0.0
 10
11.5978463855
 20
10.9598445014
 30
0.0
 10
11.5842788639
 20
10.9648579171
 30
0.0
 10
11.5698548167
 20
10.9697092668
 30
0.0
 10
11.5546029941
 20
10.9743887406
 30
0.0
 10
11.5385539658
 20
10.9788868416
 30
0.0
 10
11.5217399364
 20
10.983194433
 30
0.0
 10
11.5041947016
 20
10.9873027559
 30
0.0
 10
11.4859535681
 20
10.9912034563
 30
0.0
 10
11.4670532792
 20
10.9948886102
 30
0.0
 10
11.447531928
 20
10.9983507283
 30
0.0
 10
11.4274288735
 20
11.0015827747
 30
0.0
 10
11.4067846605
 20
11.0045781797
 30
0.0
 10
11.3856409397
 20
11.0073308565
 30
0.0
 10
11.3640403826
 20
11.0098352196
 30
0.0
 10
11.3420265861
 20
11.0120861874
 30
0.0
 10
11.3196439963
 20
11.0140791828
 30
0.0
 10
11.2969377601
 20
11.0158101856
 30
0.0
 10
11.2661590453
 20
11.0177725494
 30
0.0
 10
11.2272151785
 20
11.0195409137
 30
0.0
 10
11.1801369812
 20
11.0205684745
 30
0.0
 10
11.1328911732
 20
11.0205020411
 30
0.0
 10
11.0858591627
 20
11.0193421867
 30
0.0
 10
11.0469832131
 20
11.0174640192
 30
0.0
 10
11.0162817123
 20
11.0154145004
 30
0.0
 10
10.9936497991
 20
11.0136195891
 30
0.0
 10
10.9713525562
 20
11.0115636215
 30
0.0
 10
10.9494349615
 20
11.0092507397
 30
0.0
 10
10.9279412683
 20
11.0066856427
 30
0.0
 10
10.9069148526
 20
11.0038735416
 30
0.0
 10
10.8863981419
 20
11.0008201495
 30
0.0
 10
10.8664325273
 20
10.9975316688
 30
0.0
 10
10.8470582802
 20
10.9940147786
 30
0.0
 10
10.8283144629
 20
10.9902766217
 30
0.0
 10
10.810238843
 20
10.9863248014
 30
0.0
 10
10.7928678152
 20
10.9821673528
 30
0.0
 10
10.7762363299
 20
10.9778127274
 30
0.0
 10
10.7603778078
 20
10.9732697728
 30
0.0
 10
10.7453240837
 20
10.9685477109
 30
0.0
 10
10.7311052327
 20
10.9636561226
 30
0.0
 10
10.7177498122
 20
10.9586049151
 30
0.0
 10
10.7072109818
 20
10.9542082706
 30
0.0
 10
10.6992408149
 20
10.9506105514
 30
0.0
 10
10.6935843571
 20
10.94791883
 30
0.0
 10
10.6881629629
 20
10.9451949104
 30
0.0
 10
10.6829793157
 20
10.9424401784
 30
0.0
 10
10.6780360176
 20
10.9396559835
 30
0.0
 10
10.6733355445
 20
10.9368437119
 30
0.0
 10
10.6688802266
 20
10.9340048087
 30
0.0
 10
10.6646722922
 20
10.9311406023
 30
0.0
 10
10.66071377
 20
10.9282525087
 30
0.0
 10
10.6570066171
 20
10.9253418468
 30
0.0
 10
10.6535528645
 20
10.9224102078
 30
0.0
 10
10.6513774296
 20
10.920403094
 30
0.0
 10
10.6503347933
 20
10.9193959846
 30
0.0
  0
SPLINE
  5
395
100
AcDbEntity
  8
0
100
AcDbSpline
 62
7
  6
CONTINUOUS
 70
0
 71
3
 72
79
 73
75
 74
0
 42
0.0000001
 43
0.0000001
 44
0.0000000001
 40
0.0
 40
0.0
 40
0.0
 40
0.0
 40
0.0028500611
 40
0.0057614025
 40
0.008750017
 40
0.0118305513
 40
0.0150162322
 40
0.0183187951
 40
0.021748594
 40
0.0253146242
 40
0.0290246277
 40
0.0328852551
 40
0.0369020825
 40
0.0410798077
 40
0.0454223092
 40
0.0499327037
 40
0.0546135158
 40
0.0594666411
 40
0.0644934802
 40
0.0696949935
 40
0.0806230315
 40
0.0922514236
 40
0.1045750639
 40
0.1175846559
 40
0.1312673505
 40
0.145607231
 40
0.1605856897
 40
0.1761817127
 40
0.1923721347
 40
0.2091318673
 40
0.2264340784
 40
0.2442503412
 40
0.2625507642
 40
0.2813041401
 40
0.3004780662
 40
0.3200390527
 40
0.3399526172
 40
0.3601833964
 40
0.3806952524
 40
0.422413571
 40
0.4648072867
 40
0.5075688954
 40
0.5503874232
 40
0.5929513677
 40
0.6349516098
 40
0.6556455141
 40
0.6760851704
 40
0.6962339262
 40
0.7160558465
 40
0.7355158043
 40
0.754579575
 40
0.7732139384
 40
0.7913868017
 40
0.8090673122
 40
0.8262259668
 40
0.8428347418
 40
0.8588672477
 40
0.8742989081
 40
0.8891071283
 40
0.9032715108
 40
0.9167741215
 40
0.9295998354
 40
0.941736728
 40
0.9531765649
 40
0.9586340041
 40
0.9639161706
 40
0.969023383
 40
0.9739563887
 40
0.978716347
 40
0.9833049132
 40
0.9877244184
 40
0.9919777501
 40
0.9960682865
 40
1.0
 40
1.0
 40
1.0
 40
1.0
 10
11.6751563688
 20
10.8735895433
 30
0.0
 10
11.6749537592
 20
10.8745807126
 30
0.0
 10
11.6744608433
 20
10.8765682313
 30
0.0
 10
11.6734757261
 20
10.8795168946
 30
0.0
 10
11.6722391611
 20
10.8824581833
 30
0.0
 10
11.6707521336
 20
10.8853903965
 30
0.0
 10
11.6690155653
 20
10.8883122152
 30
0.0
 10
11.6670306044
 20
10.8912223706
 30
0.0
 10
11.66479831
 20
10.894119558
 30
0.0
 10
11.6623198884
 20
10.8970025238
 30
0.0
 10
11.6595966308
 20
10.8998700407
 30
0.0
 10
11.6566298342
 20
10.9027207814
 30
0.0
 10
11.6534209965
 20
10.9055535256
 30
0.0
 10
11.6499716415
 20
10.9083669585
 30
0.0
 10
11.6462834193
 20
10.91115977
 30
0.0
 10
11.6423581274
 20
10.9139307082
 30
0.0
 10
11.638197612
 20
10.9166784138
 30
0.0
 10
11.6338038966
 20
10.9194016178
 30
0.0
 10
11.6291790807
 20
10.9220990508
 30
0.0
 10
11.622598753
 20
10.9257191635
 30
0.0
 10
11.6137991109
 20
10.9301597091
 30
0.0
 10
11.602523499
 20
10.9352807632
 30
0.0
 10
11.5903857726
 20
10.9402686341
 30
0.0
 10
11.5774093769
 20
10.9451136324
 30
0.0
 10
11.5636191733
 20
10.9498063397
 30
0.0
 10
11.5490417749
 20
10.95433758
 30
0.0
 10
11.5337053621
 20
10.9586984715
 30
0.0
 10
11.5176396605
 20
10.9628804634
 30
0.0
 10
11.5008758589
 20
10.966875357
 30
0.0
 10
11.4834465332
 20
10.9706753118
 30
0.0
 10
11.465385575
 20
10.9742728666
 30
0.0
 10
11.4467281289
 20
10.9776609556
 30
0.0
 10
11.4275105242
 20
10.9808329394
 30
0.0
 10
11.4077701934
 20
10.9837825971
 30
0.0
 10
11.3875455928
 20
10.9865041426
 30
0.0
 10
11.3668761278
 20
10.9889922339
 30
0.0
 10
11.3458020931
 20
10.9912419896
 30
0.0
 10
11.324364536
 20
10.9932490337
 30
0.0
 10
11.2951886432
 20
10.9956093274
 30
0.0
 10
11.2581189028
 20
10.997917594
 30
0.0
 10
11.2131130807
 20
10.9996554811
 30
0.0
 10
11.1676886427
 20
11.000362681
 30
0.0
 10
11.1221994826
 20
11.0000336519
 30
0.0
 10
11.0769999972
 20
10.9986709533
 30
0.0
 10
11.0396868589
 20
10.9966734236
 30
0.0
 10
11.0102526707
 20
10.9945591388
 30
0.0
 10
10.9885760144
 20
10.9927318851
 30
0.0
 10
10.9672324292
 20
10.9906589897
 30
0.0
 10
10.9462634864
 20
10.9883444945
 30
0.0
 10
10.9257100644
 20
10.9857929457
 30
0.0
 10
10.9056122189
 20
10.983009343
 30
0.0
 10
10.8860091156
 20
10.979999138
 30
0.0
 10
10.8669389425
 20
10.9767682367
 30
0.0
 10
10.8484388344
 20
10.9733229828
 30
0.0
 10
10.8305448051
 20
10.9696701366
 30
0.0
 10
10.8132916761
 20
10.9658168625
 30
0.0
 10
10.7967129975
 20
10.9617707177
 30
0.0
 10
10.7808409703
 20
10.9575396511
 30
0.0
 10
10.765706388
 20
10.9531319649
 30
0.0
 10
10.7513385661
 20
10.9485562992
 30
0.0
 10
10.7377652987
 20
10.9438216042
 30
0.0
 10
10.7250126708
 20
10.9389371265
 30
0.0
 10
10.7131053614
 20
10.9339123883
 30
0.0
 10
10.7037644878
 20
10.9295504756
 30
0.0
 10
10.6967421513
 20
10.9259898726
 30
0.0
 10
10.6917838072
 20
10.9233324778
 30
0.0
 10
10.6870532858
 20
10.9206473863
 30
0.0
 10
10.6825528539
 20
10.9179358992
 30
0.0
 10
10.6782846785
 20
10.91519934
 30
0.0
 10
10.6742508137
 20
10.9124389484
 30
0.0
 10
10.6704531304
 20
10.9096560442
 30
0.0
 10
10.6668934587
 20
10.9068518486
 30
0.0
 10
10.6635736829
 20
10.9040278691
 30
0.0
 10
10.6614808154
 20
10.9020953724
 30
0.0
 10
10.6604770151
 20
10.9011257757
 30
0.0
  0
SPLINE
  5
396
100
AcDbEntity
  8
0
100
AcDbSpline
 62
7
  6
CONTINUOUS
 70
0
 71
3
 72
39
 73
35
 74
0
 42
0.0000001
 43
0.0000001
 44
0.0000000001
 40
0.0
 40
0.0
 40
0.0
 40
0.0
 40
0.0243908567
 40
0.0500341142
 40
0.0768720927
 40
0.1048412742
 40
0.133872962
 40
0.1638938477
 40
0.1948265105
 40
0.226589871
 40
0.2590996098
 40
0.2922685643
 40
0.3260071072
 40
0.3602235139
 40
0.3948243212
 40
0.4297146802
 40
0.4647987056
 40
0.4999798224
 40
0.5351611104
 40
0.5702456486
 40
0.60513686
 40
0.6397388561
 40
0.6739567836
 40
0.7076971739
 40
0.7408682953
 40
0.7733805126
 40
0.8051466537
 40
0.8360823888
 40
0.8661066261
 40
0.8951419315
 40
0.9231149811
 40
0.9499570613
 40
0.9756046348
 40
1.0
 40
1.0
 40
1.0
 40
1.0
 10
11.5540486741
 20
10.8196418515
 30
0.0
 10
11.5478492916
 20
10.8215425152
 30
0.0
 10
11.535069982
 20
10.8252405714
 30
0.0
 10
11.5152873094
 20
10.8303757678
 30
0.0
 10
11.4944551182
 20
10.8352266097
 30
0.0
 10
11.472634858
 20
10.8397785804
 30
0.0
 10
11.4498906236
 20
10.8440181324
 30
0.0
 10
11.426289393
 20
10.8479326306
 30
0.0
 10
11.4019006888
 20
10.8515104189
 30
0.0
 10
11.3767963988
 20
10.8547408464
 30
0.0
 10
11.351050546
 20
10.8576143005
 30
0.0
 10
11.3247390671
 20
10.8601222338
 30
0.0
 10
11.2979395835
 20
10.8622571883
 30
0.0
 10
11.2707311684
 20
10.8640128171
 30
0.0
 10
11.243194111
 20
10.8653839019
 30
0.0
 10
11.2154096772
 20
10.8663663682
 30
0.0
 10
11.1874598676
 20
10.8669572967
 30
0.0
 10
11.159427174
 20
10.8671549316
 30
0.0
 10
11.1313943344
 20
10.8669586857
 30
0.0
 10
11.1034440871
 20
10.866369142
 30
0.0
 10
11.0756589253
 20
10.865388052
 30
0.0
 10
11.0481208521
 20
10.8640183309
 30
0.0
 10
11.0209111362
 20
10.8622640494
 30
0.0
 10
10.994110071
 20
10.8601304215
 30
0.0
 10
10.9677967344
 20
10.8576237904
 30
0.0
 10
10.9420487532
 20
10.8547516102
 30
0.0
 10
10.9169420706
 20
10.8515224246
 30
0.0
 10
10.8925507168
 20
10.8479458424
 30
0.0
 10
10.8689465873
 20
10.8440325111
 30
0.0
 10
10.8461992133
 20
10.8397940831
 30
0.0
 10
10.8243755823
 20
10.8352431903
 30
0.0
 10
10.8035397993
 20
10.8303933769
 30
0.0
 10
10.7837533242
 20
10.8252591568
 30
0.0
 10
10.7709713827
 20
10.821561761
 30
0.0
 10
10.7647706472
 20
10.8196614216
 30
0.0
  0
SPLINE
  5
397
100
AcDbEntity
  8
0
100
AcDbSpline
 62
7
  6
CONTINUOUS
 70
0
 71
3
 72
33
 73
29
 74
0
 42
0.0000001
 43
0.0000001
 44
0.0000000001
 40
0.0
 40
0.0
 40
0.0
 40
0.0
 40
0.0268180753
 40
0.054464053
 40
0.0828927162
 40
0.112056681
 40
0.1419066274
 40
0.1723914755
 40
0.203458534
 40
0.2350536467
 40
0.2671213788
 40
0.2996051649
 40
0.3655886281
 40
0.4325353959
 40
0.4999666169
 40
0.5673989353
 40
0.6343489851
 40
0.7003378846
 40
0.7328251811
 40
0.7648969416
 40
0.7964965909
 40
0.8275686828
 40
0.8580590488
 40
0.8879149844
 40
0.9170853941
 40
0.9455209404
 40
0.9731742212
 40
1.0
 40
1.0
 40
1.0
 40
1.0
 10
11.4618274154
 20
10.7992445576
 30
0.0
 10
11.4565130519
 20
10.8004072557
 30
0.0
 10
11.4456978092
 20
10.8026669317
 30
0.0
 10
11.4291803073
 20
10.8058191595
 30
0.0
 10
11.4121444605
 20
10.8087813608
 30
0.0
 10
11.3946230426
 20
10.8115478027
 30
0.0
 10
11.3766496683
 20
10.8141131438
 30
0.0
 10
11.3582588509
 20
10.8164724211
 30
0.0
 10
11.3394859042
 20
10.8186210724
 30
0.0
 10
11.3203668979
 20
10.8205549502
 30
0.0
 10
11.3009385302
 20
10.8222703457
 30
0.0
 10
11.2745346207
 20
10.8242720581
 30
0.0
 10
11.2410321504
 20
10.8261986389
 30
0.0
 10
11.200408914
 20
10.8275868529
 30
0.0
 10
11.1594706555
 20
10.8280521671
 30
0.0
 10
11.118531684
 20
10.8275910506
 30
0.0
 10
11.0779063136
 20
10.8262070014
 30
0.0
 10
11.0444011614
 20
10.8242838708
 30
0.0
 10
11.0179944055
 20
10.8222848897
 30
0.0
 10
10.9985634028
 20
10.8205714914
 30
0.0
 10
10.9794414256
 20
10.8186395789
 30
0.0
 10
10.9606651779
 20
10.8164928569
 30
0.0
 10
10.9422707358
 20
10.8141354694
 30
0.0
 10
10.92429342
 20
10.8115719752
 30
0.0
 10
10.9067677514
 20
10.8088073335
 30
0.0
 10
10.8897273532
 20
10.8058468821
 30
0.0
 10
10.873205008
 20
10.8026963502
 30
0.0
 10
10.8623864187
 20
10.8004378111
 30
0.0
 10
10.857070333
 20
10.7992756738
 30
0.0
  0
SPLINE
  5
398
100
AcDbEntity
  8
0
100
AcDbSpline
 62
7
  6
CONTINUOUS
 70
0
 71
3
 72
43
 73
39
 74
0
 42
0.0000001
 43
0.0000001
 44
0.0000000001
 40
0.0
 40
0.0
 40
0.0
 40
0.0
 40
0.0311443364
 40
0.0467769219
 40
0.0624468161
 40
0.0938913892
 40
0.1254733586
 40
0.1571805862
 40
0.1889982872
 40
0.220909526
 40
0.2528955166
 40
0.2849360176
 40
0.3170097295
 40
0.3490947114
 40
0.381168805
 40
0.3971972275
 40
0.4132147438
 40
0.4452018497
 40
0.4771145407
 40
0.5089340043
 40
0.540643261
 40
0.5722275176
 40
0.6036744878
 40
0.6349746725
 40
0.6661215921
 40
0.6971119647
 40
0.7279458234
 40
0.7586265654
 40
0.789160929
 40
0.819558894
 40
0.8498335028
 40
0.8649321969
 40
0.8800062137
 40
0.9100841298
 40
0.9400932566
 40
0.9550817128
 40
0.9700613271
 40
1.0
 40
1.0
 40
1.0
 40
1.0
 10
11.3181472462
 20
7.6795853387
 30
0.0
 10
11.3129817074
 20
7.67994357
 30
0.0
 10
11.30523926
 20
7.6807649946
 30
0.0
 10
11.2949875619
 20
7.6824157259
 30
0.0
 10
11.2847521439
 20
7.6844423213
 30
0.0
 10
11.2720603798
 20
7.6876698472
 30
0.0
 10
11.2570962996
 20
7.6926238553
 30
0.0
 10
11.2424582447
 20
7.6986371665
 30
0.0
 10
11.228224698
 20
7.7056775417
 30
0.0
 10
11.2144713771
 20
7.7137073722
 30
0.0
 10
11.2012715911
 20
7.722683788
 30
0.0
 10
11.1886956802
 20
7.7325588657
 30
0.0
 10
11.17681058
 20
7.7432800371
 30
0.0
 10
11.1656799096
 20
7.7547897713
 30
0.0
 10
11.1570793947
 20
7.7649910005
 30
0.0
 10
11.1506332671
 20
7.7734838857
 30
0.0
 10
11.1444894484
 20
7.7821802521
 30
0.0
 10
11.1373837198
 20
7.793420705
 30
0.0
 10
11.1298185079
 20
7.8074354543
 30
0.0
 10
11.1232579408
 20
7.8218974866
 30
0.0
 10
11.1177373492
 20
7.8367293573
 30
0.0
 10
11.1132862056
 20
7.8518521196
 30
0.0
 10
11.109928393
 20
7.8671851319
 30
0.0
 10
11.1076819611
 20
7.8826466435
 30
0.0
 10
11.106559057
 20
7.8981541829
 30
0.0
 10
11.1065658448
 20
7.913624999
 30
0.0
 10
11.107702476
 20
7.9289765115
 30
0.0
 10
11.1099630504
 20
7.9441266885
 30
0.0
 10
11.1133357458
 20
7.9589947066
 30
0.0
 10
11.1178024733
 20
7.9735005537
 30
0.0
 10
11.1224218027
 20
7.9852349505
 30
0.0
 10
11.1266372427
 20
7.9943602367
 30
0.0
 10
11.1311864355
 20
8.0032871498
 30
0.0
 10
11.1375028171
 20
8.0140846847
 30
0.0
 10
11.1446315545
 20
8.0243467999
 30
0.0
 10
11.1507918703
 20
8.0321908835
 30
0.0
 10
11.1572460154
 20
8.0397789699
 30
0.0
 10
11.16241693
 20
8.045181036
 30
0.0
 10
11.1659970077
 20
8.0486391443
 30
0.0
  0
SPLINE
  5
399
100
AcDbEntity
  8
0
100
AcDbSpline
 62
7
  6
CONTINUOUS
 70
0
 71
3
 72
40
 73
36
 74
0
 42
0.0000001
 43
0.0000001
 44
0.0000000001
 40
0.0
 40
0.0
 40
0.0
 40
0.0
 40
0.0184654375
 40
0.0374139449
 40
0.0568872153
 40
0.0769154301
 40
0.0975098243
 40
0.1186794001
 40
0.1404377517
 40
0.1628060442
 40
0.1858059912
 40
0.2094611118
 40
0.2337972689
 40
0.2588416377
 40
0.2846271505
 40
0.311189408
 40
0.3668102961
 40
0.4261028357
 40
0.4895832946
 40
0.5231014691
 40
0.5579386254
 40
0.5942157081
 40
0.6320697653
 40
0.6716533933
 40
0.7131289679
 40
0.7566505401
 40
0.8023213455
 40
0.850104881
 40
0.8747015518
 40
0.8996630075
 40
0.9248623647
 40
0.9501294626
 40
0.9752534222
 40
0.9876907109
 40
1.0
 40
1.0
 40
1.0
 40
1.0
 10
10.1261946884
 20
8.8788577707
 30
0.0
 10
10.1277202932
 20
8.8803402251
 30
0.0
 10
10.130863781
 20
8.8832904184
 30
0.0
 10
10.1357805162
 20
8.8876246194
 30
0.0
 10
10.1409546919
 20
8.8919349151
 30
0.0
 10
10.1463850087
 20
8.8962303717
 30
0.0
 10
10.1520768405
 20
8.900506672
 30
0.0
 10
10.1580329498
 20
8.9047594075
 30
0.0
 10
10.1642569874
 20
8.9089849193
 30
0.0
 10
10.1707527905
 20
8.9131818967
 30
0.0
 10
10.1775251972
 20
8.917349834
 30
0.0
 10
10.1845805322
 20
8.9214870093
 30
0.0
 10
10.1919266929
 20
8.9255901603
 30
0.0
 10
10.1995721313
 20
8.929657028
 30
0.0
 10
10.2075273532
 20
8.9336837597
 30
0.0
 10
10.2187354934
 20
8.9390783084
 30
0.0
 10
10.233632547
 20
8.9457010764
 30
0.0
 10
10.2527327474
 20
8.9533000507
 30
0.0
 10
10.2697227633
 20
8.9592764422
 30
0.0
 10
10.2842001324
 20
8.9638696901
 30
0.0
 10
10.2957668189
 20
8.9672652384
 30
0.0
 10
10.3078894841
 20
8.9705291162
 30
0.0
 10
10.3206171784
 20
8.9736357238
 30
0.0
 10
10.3340037622
 20
8.9765514589
 30
0.0
 10
10.3481049972
 20
8.9792314914
 30
0.0
 10
10.3629704232
 20
8.9816154952
 30
0.0
 10
10.3786248603
 20
8.9836222578
 30
0.0
 10
10.3921696809
 20
8.984879577
 30
0.0
 10
10.4033616627
 20
8.9855901985
 30
0.0
 10
10.4119667062
 20
8.9859563515
 30
0.0
 10
10.4206550523
 20
8.9861326402
 30
0.0
 10
10.4293639439
 20
8.986103833
 30
0.0
 10
10.4365997773
 20
8.9858972211
 30
0.0
 10
10.4423383465
 20
8.9856197614
 30
0.0
 10
10.4451837963
 20
8.9854426991
 30
0.0
 10
10.4465984011
 20
8.9853440098
 30
0.0
  0
SPLINE
  5
39A
100
AcDbEntity
  8
0
100
AcDbSpline
 62
7
  6
CONTINUOUS
 70
0
 71
3
 72
19
 73
15
 74
0
 42
0.0000001
 43
0.0000001
 44
0.0000000001
 40
0.0
 40
0.0
 40
0.0
 40
0.0
 40
0.0616584454
 40
0.1233399317
 40
0.185067215
 40
0.2468625626
 40
0.3087474945
 40
0.3707425066
 40
0.4328668994
 40
0.4951385746
 40
0.6201443393
 40
0.7459117862
 40
0.8725152911
 40
1.0
 40
1.0
 40
1.0
 40
1.0
 10
11.6572404944
 20
8.7991341804
 30
0.0
 10
11.6556637961
 20
8.7976112081
 30
0.0
 10
11.6524272057
 20
8.794648897
 30
0.0
 10
11.6473395347
 20
8.7904719327
 30
0.0
 10
11.642030924
 20
8.7865710773
 30
0.0
 10
11.6365149703
 20
8.7829562804
 30
0.0
 10
11.6308054752
 20
8.7796366448
 30
0.0
 10
11.6249169113
 20
8.7766205402
 30
0.0
 10
11.6188639092
 20
8.7739154572
 30
0.0
 10
11.6105856693
 20
8.7707290244
 30
0.0
 10
11.5998946618
 20
8.7675566505
 30
0.0
 10
11.5866822049
 20
8.7650920464
 30
0.0
 10
11.573200022
 20
8.7639868329
 30
0.0
 10
11.5641502602
 20
8.7641633618
 30
0.0
 10
11.5596286883
 20
8.7644769338
 30
0.0
  0
SPLINE
  5
39B
100
AcDbEntity
  8
0
100
AcDbSpline
 62
7
  6
CONTINUOUS
 70
0
 71
3
 72
19
 73
15
 74
0
 42
0.0000001
 43
0.0000001
 44
0.0000000001
 40
0.0
 40
0.0
 40
0.0
 40
0.0
 40
0.0616584454
 40
0.1233399317
 40
0.185067215
 40
0.2468625626
 40
0.3087474945
 40
0.3707425066
 40
0.4328668994
 40
0.4951385746
 40
0.6201443393
 40
0.7459117862
 40
0.8725152911
 40
1.0
 40
1.0
 40
1.0
 40
1.0
 10
9.9069829024
 20
8.9205149566
 30
0.0
 10
9.9054062041
 20
8.9189919844
 30
0.0
 10
9.9021696137
 20
8.9160296733
 30
0.0
 10
9.8970819427
 20
8.9118527089
 30
0.0
 10
9.891773332
 20
8.9079518535
 30
0.0
 10
9.8862573783
 20
8.9043370567
 30
0.0
 10
9.8805478831
 20
8.9010174211
 30
0.0
 10
9.8746593193
 20
8.8980013164
 30
0.0
 10
9.8686063172
 20
8.8952962334
 30
0.0
 10
9.8603280772
 20
8.8921098007
 30
0.0
 10
9.8496370698
 20
8.8889374268
 30
0.0
 10
9.8364246129
 20
8.8864728227
 30
0.0
 10
9.82294243
 20
8.8853676091
 30
0.0
 10
9.8138926681
 20
8.885544138
 30
0.0
 10
9.8093710963
 20
8.8858577101
 30
0.0
  0
SPLINE
  5
39C
100
AcDbEntity
  8
0
100
AcDbSpline
 62
7
  6
CONTINUOUS
 70
0
 71
3
 72
13
 73
9
 74
0
 42
0.0000001
 43
0.0000001
 44
0.0000000001
 40
0.0
 40
0.0
 40
0.0
 40
0.0
 40
0.135310159
 40
0.2682819096
 40
0.3985273576
 40
0.5257408207
 40
0.7700954513
 40
1.0
 40
1.0
 40
1.0
 40
1.0
 10
10.4465984011
 20
8.9853440098
 30
0.0
 10
10.4481760265
 20
8.9852350709
 30
0.0
 10
10.4513022967
 20
8.9849933163
 30
0.0
 10
10.4559397464
 20
8.9845581742
 30
0.0
 10
10.4604753265
 20
8.9840565888
 30
0.0
 10
10.4662927869
 20
8.9833114968
 30
0.0
 10
10.4732412705
 20
8.9822374536
 30
0.0
 10
10.478685771
 20
8.9811906961
 30
0.0
 10
10.4813138938
 20
8.9806316929
 30
0.0
  0
SPLINE
  5
39D
100
AcDbEntity
  8
0
100
AcDbSpline
 62
7
  6
CONTINUOUS
 70
0
 71
3
 72
33
 73
29
 74
0
 42
0.0000001
 43
0.0000001
 44
0.0000000001
 40
0.0
 40
0.0
 40
0.0
 40
0.0
 40
0.029851851
 40
0.0597127873
 40
0.0896207422
 40
0.1196085882
 40
0.1497042713
 40
0.1799292382
 40
0.2102983755
 40
0.2408203845
 40
0.2714985756
 40
0.302331834
 40
0.3333155958
 40
0.3644427334
 40
0.4270609091
 40
0.4585600752
 40
0.4901611903
 40
0.5536002152
 40
0.5854374259
 40
0.6173301049
 40
0.6812157659
 40
0.7451849315
 40
0.7771814683
 40
0.8091635574
 40
0.8730139556
 40
0.9048783466
 40
0.9366776332
 40
1.0
 40
1.0
 40
1.0
 40
1.0
 10
10.4896272634
 20
6.902119405
 30
0.0
 10
10.4866308399
 20
6.8987562092
 30
0.0
 10
10.4802963262
 20
6.8923237173
 30
0.0
 10
10.4698802212
 20
6.8836665092
 30
0.0
 10
10.4586480989
 20
6.8760603492
 30
0.0
 10
10.4467093241
 20
6.8695486715
 30
0.0
 10
10.4341753459
 20
6.864153772
 30
0.0
 10
10.4211569181
 20
6.8598807087
 30
0.0
 10
10.4077602181
 20
6.8567194411
 30
0.0
 10
10.3940846066
 20
6.8546481083
 30
0.0
 10
10.3802211642
 20
6.8536360682
 30
0.0
 10
10.366252533
 20
6.853646608
 30
0.0
 10
10.3522517617
 20
6.8546395599
 30
0.0
 10
10.3335981487
 20
6.8572210535
 30
0.0
 10
10.31515661
 20
6.8616016183
 30
0.0
 10
10.297148355
 20
6.8675889554
 30
0.0
 10
10.2793913113
 20
6.8746308307
 30
0.0
 10
10.2621963296
 20
6.8831460749
 30
0.0
 10
10.2457106484
 20
6.8929784438
 30
0.0
 10
10.2296916183
 20
6.9036780504
 30
0.0
 10
10.2106810565
 20
6.9185669401
 30
0.0
 10
10.1932257735
 20
6.9352738157
 30
0.0
 10
10.180306489
 20
6.949630196
 30
0.0
 10
10.1681350878
 20
6.9646014757
 30
0.0
 10
10.1571289383
 20
6.9804668348
 30
0.0
 10
10.1474437981
 20
6.9971017427
 30
0.0
 10
10.1387113904
 20
7.0141644965
 30
0.0
 10
10.1332477076
 20
7.0274826348
 30
0.0
 10
10.1301601078
 20
7.0365248433
 30
0.0
  0
SPLINE
  5
39E
100
AcDbEntity
  8
0
100
AcDbSpline
 62
7
  6
CONTINUOUS
 70
0
 71
3
 72
19
 73
15
 74
0
 42
0.0000001
 43
0.0000001
 44
0.0000000001
 40
0.0
 40
0.0
 40
0.0
 40
0.0
 40
0.0616584454
 40
0.1233399317
 40
0.185067215
 40
0.2468625626
 40
0.3087474945
 40
0.3707425066
 40
0.4328668994
 40
0.4951385746
 40
0.6201443393
 40
0.7459117862
 40
0.8725152911
 40
1.0
 40
1.0
 40
1.0
 40
1.0
 10
9.9069829024
 20
6.867922339
 30
0.0
 10
9.9054062041
 20
6.8663993667
 30
0.0
 10
9.9021696137
 20
6.8634370557
 30
0.0
 10
9.8970819427
 20
6.8592600913
 30
0.0
 10
9.891773332
 20
6.8553592359
 30
0.0
 10
9.8862573783
 20
6.851744439
 30
0.0
 10
9.8805478831
 20
6.8484248034
 30
0.0
 10
9.8746593193
 20
6.8454086988
 30
0.0
 10
9.8686063172
 20
6.8427036158
 30
0.0
 10
9.8603280772
 20
6.8395171831
 30
0.0
 10
9.8496370698
 20
6.8363448092
 30
0.0
 10
9.8364246129
 20
6.833880205
 30
0.0
 10
9.82294243
 20
6.8327749915
 30
0.0
 10
9.8138926681
 20
6.8329515204
 30
0.0
 10
9.8093710963
 20
6.8332650925
 30
0.0
  0
SPLINE
  5
39F
100
AcDbEntity
  8
0
100
AcDbSpline
 62
7
  6
CONTINUOUS
 70
0
 71
3
 72
41
 73
37
 74
0
 42
0.0000001
 43
0.0000001
 44
0.0000000001
 40
0.0
 40
0.0
 40
0.0
 40
0.0
 40
0.031144444
 40
0.0624425093
 40
0.0938872508
 40
0.1254695847
 40
0.1571771078
 40
0.1889951283
 40
0.2209066801
 40
0.2528929859
 40
0.2849338014
 40
0.3170078274
 40
0.3490931225
 40
0.3811675283
 40
0.4132090962
 40
0.4451965119
 40
0.4771095115
 40
0.5089292827
 40
0.5406388458
 40
0.5722234075
 40
0.6036706813
 40
0.6349711679
 40
0.6661183875
 40
0.6971090579
 40
0.7279432122
 40
0.7586242475
 40
0.7891589026
 40
0.8195571573
 40
0.8498320547
 40
0.8649308931
 40
0.8800050545
 40
0.9100832586
 40
0.9400926739
 40
0.9550812746
 40
0.9700610358
 40
1.0
 40
1.0
 40
1.0
 40
1.0
 10
9.8093710963
 20
8.8858577101
 30
0.0
 10
9.8060571446
 20
8.8860875334
 30
0.0
 10
9.799427253
 20
8.8867908927
 30
0.0
 10
9.789562806
 20
8.8885626256
 30
0.0
 10
9.7798039977
 20
8.8910443514
 30
0.0
 10
9.7702035791
 20
8.8942226392
 30
0.0
 10
9.7608125186
 20
8.8980805108
 30
0.0
 10
9.751680921
 20
8.902597301
 30
0.0
 10
9.74285743
 20
8.9077488845
 30
0.0
 10
9.7343890621
 20
8.9135077502
 30
0.0
 10
9.7263209371
 20
8.9198431709
 30
0.0
 10
9.718696045
 20
8.9267213564
 30
0.0
 10
9.7115550191
 20
8.9341056361
 30
0.0
 10
9.7049359213
 20
8.9419566509
 30
0.0
 10
9.6988740418
 20
8.9502325622
 30
0.0
 10
9.6934017122
 20
8.9588892715
 30
0.0
 10
9.6885481348
 20
8.9678806533
 30
0.0
 10
9.6843392276
 20
8.9771587982
 30
0.0
 10
9.6807974868
 20
8.9866742644
 30
0.0
 10
9.6779418666
 20
8.9963763384
 30
0.0
 10
9.6757876774
 20
9.0062133013
 30
0.0
 10
9.6743465027
 20
9.0161327007
 30
0.0
 10
9.6736261348
 20
9.0260816273
 30
0.0
 10
9.6736305288
 20
9.0360069911
 30
0.0
 10
9.6743597816
 20
9.0458558119
 30
0.0
 10
9.6758101072
 20
9.0555754613
 30
0.0
 10
9.6779739215
 20
9.0651140859
 30
0.0
 10
9.6808396137
 20
9.0744203558
 30
0.0
 10
9.6838032137
 20
9.0819485835
 30
0.0
 10
9.6865076585
 20
9.0878029413
 30
0.0
 10
9.6894262639
 20
9.0935300111
 30
0.0
 10
9.6934785892
 20
9.1004571976
 30
0.0
 10
9.6980521153
 20
9.1070408585
 30
0.0
 10
9.7020042894
 20
9.1120732632
 30
0.0
 10
9.7061450307
 20
9.116941382
 30
0.0
 10
9.7094624697
 20
9.1204070807
 30
0.0
 10
9.7117592901
 20
9.1226256368
 30
0.0
  0
SPLINE
  5
3A0
100
AcDbEntity
  8
0
100
AcDbSpline
 62
7
  6
CONTINUOUS
 70
0
 71
3
 72
19
 73
15
 74
0
 42
0.0000001
 43
0.0000001
 44
0.0000000001
 40
0.0
 40
0.0
 40
0.0
 40
0.0
 40
0.0616584454
 40
0.1233399317
 40
0.185067215
 40
0.2468625626
 40
0.3087474945
 40
0.3707425066
 40
0.4328668994
 40
0.4951385746
 40
0.6201443393
 40
0.7459117862
 40
0.8725152911
 40
1.0
 40
1.0
 40
1.0
 40
1.0
 10
11.6572404944
 20
6.7465415627
 30
0.0
 10
11.6556637961
 20
6.7450185905
 30
0.0
 10
11.6524272057
 20
6.7420562794
 30
0.0
 10
11.6473395347
 20
6.737879315
 30
0.0
 10
11.642030924
 20
6.7339784596
 30
0.0
 10
11.6365149703
 20
6.7303636628
 30
0.0
 10
11.6308054752
 20
6.7270440272
 30
0.0
 10
11.6249169113
 20
6.7240279225
 30
0.0
 10
11.6188639092
 20
6.7213228395
 30
0.0
 10
11.6105856693
 20
6.7181364068
 30
0.0
 10
11.5998946618
 20
6.7149640329
 30
0.0
 10
11.5866822049
 20
6.7124994288
 30
0.0
 10
11.573200022
 20
6.7113942152
 30
0.0
 10
11.5641502602
 20
6.7115707441
 30
0.0
 10
11.5596286883
 20
6.7118843162
 30
0.0
  0
SPLINE
  5
3A1
100
AcDbEntity
  8
0
100
AcDbSpline
 62
7
  6
CONTINUOUS
 70
0
 71
3
 72
37
 73
33
 74
0
 42
0.0000001
 43
0.0000001
 44
0.0000000001
 40
0.0
 40
0.0
 40
0.0
 40
0.0
 40
0.0311464763
 40
0.0624483004
 40
0.0938952738
 40
0.1254804953
 40
0.1571907415
 40
0.1890115257
 40
0.2209258547
 40
0.252914932
 40
0.2849585264
 40
0.317035338
 40
0.3491234252
 40
0.381200621
 40
0.4451976236
 40
0.5088978732
 40
0.5406101981
 40
0.5721975056
 40
0.6036475114
 40
0.634950721
 40
0.6661006564
 40
0.6970940303
 40
0.7279308694
 40
0.7586145731
 40
0.7891518852
 40
0.8195527902
 40
0.8498303302
 40
0.8800003491
 40
0.9100811696
 40
0.9400931924
 40
0.9700584311
 40
1.0
 40
1.0
 40
1.0
 40
1.0
 10
9.9001679967
 20
9.3630067934
 30
0.0
 10
9.8983282678
 20
9.363134379
 30
0.0
 10
9.8946476082
 20
9.3635248795
 30
0.0
 10
9.8891712759
 20
9.3645084302
 30
0.0
 10
9.8837535596
 20
9.3658862277
 30
0.0
 10
9.8784238176
 20
9.3676506436
 30
0.0
 10
9.8732102805
 20
9.3697923708
 30
0.0
 10
9.8681407944
 20
9.3722998985
 30
0.0
 10
9.8632423574
 20
9.3751598453
 30
0.0
 10
9.8585410705
 20
9.3783569217
 30
0.0
 10
9.8540619665
 20
9.381874086
 30
0.0
 10
9.8498289589
 20
9.3856925101
 30
0.0
 10
9.8458644366
 20
9.3897921156
 30
0.0
 10
9.840969918
 20
9.3955973696
 30
0.0
 10
9.8356245416
 20
9.4034405564
 30
0.0
 10
9.831413918
 20
9.4119236761
 30
0.0
 10
9.8287892129
 20
9.4189757351
 30
0.0
 10
9.8272037872
 20
9.4243620921
 30
0.0
 10
9.8260078786
 20
9.4298231176
 30
0.0
 10
9.8252077658
 20
9.4353299661
 30
0.0
 10
9.8248078173
 20
9.4408531938
 30
0.0
 10
9.8248102314
 20
9.446363348
 30
0.0
 10
9.8252150644
 20
9.4518310053
 30
0.0
 10
9.826020207
 20
9.4572269642
 30
0.0
 10
9.8272214215
 20
9.4625223905
 30
0.0
 10
9.8288123549
 20
9.4676889719
 30
0.0
 10
9.8307845683
 20
9.472699065
 30
0.0
 10
9.8331275839
 20
9.4775258537
 30
0.0
 10
9.835828877
 20
9.4821434757
 30
0.0
 10
9.8388741041
 20
9.4865272843
 30
0.0
 10
9.8422466865
 20
9.4906534956
 30
0.0
 10
9.8447023659
 20
9.4932189238
 30
0.0
 10
9.8459774613
 20
9.4944505789
 30
0.0
  0
SPLINE
  5
3A2
100
AcDbEntity
  8
0
100
AcDbSpline
 62
7
  6
CONTINUOUS
 70
0
 71
3
 72
15
 73
11
 74
0
 42
0.0000001
 43
0.0000001
 44
0.0000000001
 40
0.0
 40
0.0
 40
0.0
 40
0.0
 40
0.1233171388
 40
0.2468172051
 40
0.3706750009
 40
0.4950496043
 40
0.6200772562
 40
0.7458671573
 40
0.8724928759
 40
1.0
 40
1.0
 40
1.0
 40
1.0
 10
9.954358532
 20
9.3822474456
 30
0.0
 10
9.9526081888
 20
9.3805567334
 30
0.0
 10
9.9489196655
 20
9.3773587432
 30
0.0
 10
9.9428996227
 20
9.3731798384
 30
0.0
 10
9.9364489348
 20
9.3696570794
 30
0.0
 10
9.9296336393
 20
9.3668266634
 30
0.0
 10
9.9225224792
 20
9.3647166854
 30
0.0
 10
9.9151870829
 20
9.363348267
 30
0.0
 10
9.907702336
 20
9.3627347123
 30
0.0
 10
9.9026782123
 20
9.3628327093
 30
0.0
 10
9.9001679967
 20
9.3630067934
 30
0.0
  0
SPLINE
  5
3A3
100
AcDbEntity
  8
0
100
AcDbSpline
 62
7
  6
CONTINUOUS
 70
0
 71
3
 72
15
 73
11
 74
0
 42
0.0000001
 43
0.0000001
 44
0.0000000001
 40
0.0
 40
0.0
 40
0.0
 40
0.0
 40
0.1233171388
 40
0.2468172051
 40
0.3706750009
 40
0.4950496043
 40
0.6200772562
 40
0.7458671573
 40
0.8724928759
 40
1.0
 40
1.0
 40
1.0
 40
1.0
 10
11.5230222081
 20
6.3756824845
 30
0.0
 10
11.5212718649
 20
6.3739917723
 30
0.0
 10
11.5175833416
 20
6.370793782
 30
0.0
 10
11.5115632987
 20
6.3666148773
 30
0.0
 10
11.5051126109
 20
6.3630921182
 30
0.0
 10
11.4982973154
 20
6.3602617022
 30
0.0
 10
11.4911861552
 20
6.3581517242
 30
0.0
 10
11.483850759
 20
6.3567833059
 30
0.0
 10
11.4763660121
 20
6.3561697511
 30
0.0
 10
11.4713418883
 20
6.3562677482
 30
0.0
 10
11.4688316727
 20
6.3564418322
 30
0.0
  0
SPLINE
  5
3A4
100
AcDbEntity
  8
0
100
AcDbSpline
 62
7
  6
CONTINUOUS
 70
0
 71
3
 72
27
 73
23
 74
0
 42
0.0000001
 43
0.0000001
 44
0.0000000001
 40
0.0
 40
0.0
 40
0.0
 40
0.0
 40
0.0603500156
 40
0.1211276664
 40
0.1823648303
 40
0.2440723188
 40
0.3062409059
 40
0.3688420198
 40
0.4318277968
 40
0.4951312066
 40
0.5586660425
 40
0.6223273084
 40
0.6541818194
 40
0.6860218358
 40
0.7495607502
 40
0.8128349272
 40
0.844348245
 40
0.8757485812
 40
0.907023304
 40
0.9381607978
 40
0.9691561496
 40
1.0
 40
1.0
 40
1.0
 40
1.0
 10
11.1701873565
 20
9.1594854212
 30
0.0
 10
11.1671435504
 20
9.1584768533
 30
0.0
 10
11.1609068644
 20
9.1568180714
 30
0.0
 10
11.1512977476
 20
9.1554254289
 30
0.0
 10
11.1415202765
 20
9.1551214203
 30
0.0
 10
11.1316961843
 20
9.1559032944
 30
0.0
 10
11.1219442242
 20
9.1577615657
 30
0.0
 10
11.1123846759
 20
9.1606807461
 30
0.0
 10
11.1031401765
 20
9.1646379589
 30
0.0
 10
11.0943368805
 20
9.1696015674
 30
0.0
 10
11.0861059377
 20
9.1755275385
 30
0.0
 10
11.0798338966
 20
9.1812213436
 30
0.0
 10
11.0752368532
 20
9.1861914674
 30
0.0
 10
11.0709455218
 20
9.19141945
 30
0.0
 10
11.0661927535
 20
9.1984082883
 30
0.0
 10
11.0623531359
 20
9.2059206075
 30
0.0
 10
11.0598934649
 20
9.2121621707
 30
0.0
 10
11.0583677004
 20
9.216932397
 30
0.0
 10
11.057169544
 20
9.2217746025
 30
0.0
 10
11.0563071309
 20
9.2266660974
 30
0.0
 10
11.0557868735
 20
9.231582517
 30
0.0
 10
11.0556702658
 20
9.2348693372
 30
0.0
 10
11.0556702658
 20
9.2365081496
 30
0.0
  0
SPLINE
  5
3A5
100
AcDbEntity
  8
0
100
AcDbSpline
 62
7
  6
CONTINUOUS
 70
0
 71
3
 72
37
 73
33
 74
0
 42
0.0000001
 43
0.0000001
 44
0.0000000001
 40
0.0
 40
0.0
 40
0.0
 40
0.0
 40
0.0299275843
 40
0.0599050909
 40
0.0899532139
 40
0.1200910513
 40
0.150335706
 40
0.1807019423
 40
0.2112018937
 40
0.2418448361
 40
0.2726370286
 40
0.3035816384
 40
0.3346787317
 40
0.3659253129
 40
0.3973154191
 40
0.4288402698
 40
0.4604884832
 40
0.4922463278
 40
0.5559899204
 40
0.6199616674
 40
0.6520002705
 40
0.6840341192
 40
0.7160421713
 40
0.7480038404
 40
0.7798993866
 40
0.8117103094
 40
0.8434196448
 40
0.8750123424
 40
0.9064758351
 40
0.9377987984
 40
0.9689764634
 40
1.0
 40
1.0
 40
1.0
 40
1.0
 10
11.1869447932
 20
6.51418477
 30
0.0
 10
11.1855874233
 20
6.5131035387
 30
0.0
 10
11.1827864397
 20
6.5110423698
 30
0.0
 10
11.1783579844
 20
6.5082773398
 30
0.0
 10
11.1737215649
 20
6.5058502947
 30
0.0
 10
11.1689012057
 20
6.5037737419
 30
0.0
 10
11.1639214501
 20
6.5020580523
 30
0.0
 10
11.1588077218
 20
6.5007118497
 30
0.0
 10
11.1535860643
 20
6.49974186
 30
0.0
 10
11.1482830485
 20
6.4991529212
 30
0.0
 10
11.142925636
 20
6.4989479289
 30
0.0
 10
11.1375410427
 20
6.4991278234
 30
0.0
 10
11.1321566004
 20
6.4996916242
 30
0.0
 10
11.1267996349
 20
6.5006364236
 30
0.0
 10
11.1214973106
 20
6.5019574293
 30
0.0
 10
11.1162765944
 20
6.5036478834
 30
0.0
 10
11.1111637351
 20
6.5056993659
 30
0.0
 10
11.1045189268
 20
6.508904907
 30
0.0
 10
11.0966140407
 20
6.5137601693
 30
0.0
 10
11.0894152998
 20
6.5196365976
 30
0.0
 10
11.0841568669
 20
6.5248847838
 30
0.0
 10
11.0804813401
 20
6.529077379
 30
0.0
 10
11.0770963356
 20
6.5335019625
 30
0.0
 10
11.0740189487
 20
6.5381362366
 30
0.0
 10
11.07126502
 20
6.5429565862
 30
0.0
 10
11.0688486851
 20
6.5479384959
 30
0.0
 10
11.0667823931
 20
6.5530565835
 30
0.0
 10
11.0650768016
 20
6.558284774
 30
0.0
 10
11.0637407715
 20
6.5635963167
 30
0.0
 10
11.0627810873
 20
6.5689642712
 30
0.0
 10
11.0622029476
 20
6.5743607236
 30
0.0
 10
11.0620734563
 20
6.5779687909
 30
0.0
 10
11.0620734563
 20
6.5797677119
 30
0.0
  0
SPLINE
  5
3A6
100
AcDbEntity
  8
0
100
AcDbSpline
 62
7
  6
CONTINUOUS
 70
0
 71
3
 72
39
 73
35
 74
0
 42
0.0000001
 43
0.0000001
 44
0.0000000001
 40
0.0
 40
0.0
 40
0.0
 40
0.0
 40
0.007175745
 40
0.0146740737
 40
0.0225036116
 40
0.030671472
 40
0.0391835578
 40
0.0480444976
 40
0.0572573741
 40
0.0668240337
 40
0.0767454382
 40
0.0870215229
 40
0.1086328224
 40
0.1316444885
 40
0.1560318876
 40
0.1817621643
 40
0.2087953062
 40
0.2370851424
 40
0.2665800902
 40
0.2972237176
 40
0.3289551842
 40
0.3617097517
 40
0.3954191818
 40
0.4300120556
 40
0.4654140508
 40
0.5015483063
 40
0.5383357156
 40
0.5756951801
 40
0.6135438541
 40
0.6903688654
 40
0.7681254679
 40
0.8461157008
 40
0.9236385661
 40
1.0
 40
1.0
 40
1.0
 40
1.0
 10
11.9032742547
 20
10.6415522325
 30
0.0
 10
11.9025296638
 20
10.6408330128
 30
0.0
 10
11.9009699768
 20
10.6394001975
 30
0.0
 10
11.8984824282
 20
10.6373125829
 30
0.0
 10
11.8957979329
 20
10.6352415007
 30
0.0
 10
11.8929182344
 20
10.6331883407
 30
0.0
 10
11.8898450554
 20
10.6311541996
 30
0.0
 10
11.8865801475
 20
10.629140275
 30
0.0
 10
11.8831254364
 20
10.6271476989
 30
0.0
 10
11.879482981
 20
10.6251776447
 30
0.0
 10
11.8756549261
 20
10.623231321
 30
0.0
 10
11.870214695
 20
10.6206255008
 30
0.0
 10
11.8629584543
 20
10.6174449822
 30
0.0
 10
11.8536905661
 20
10.6138023964
 30
0.0
 10
11.8437433785
 20
10.6102811537
 30
0.0
 10
11.8331406563
 20
10.6068897596
 30
0.0
 10
11.8219075989
 20
10.6036364039
 30
0.0
 10
11.810071058
 20
10.6005289713
 30
0.0
 10
11.7976593576
 20
10.5975750046
 30
0.0
 10
11.7847022518
 20
10.5947816847
 30
0.0
 10
11.7712308464
 20
10.592155779
 30
0.0
 10
11.7572775068
 20
10.5897036575
 30
0.0
 10
11.7428757685
 20
10.5874312725
 30
0.0
 10
11.7280602613
 20
10.5853441455
 30
0.0
 10
11.7128666299
 20
10.5834473268
 30
0.0
 10
11.6973314346
 20
10.5817454095
 30
0.0
 10
11.6814920694
 20
10.5802425283
 30
0.0
 10
11.6653866278
 20
10.5789423078
 30
0.0
 10
11.6435017133
 20
10.5774759716
 30
0.0
 10
11.6157672659
 20
10.5761759731
 30
0.0
 10
11.5822187139
 20
10.5754671865
 30
0.0
 10
11.54856212
 20
10.5756090919
 30
0.0
 10
11.5151214251
 20
10.5766002699
 30
0.0
 10
11.4929521405
 20
10.5778337271
 30
0.0
 10
11.4819620728
 20
10.5785958909
 30
0.0
  0
SPLINE
  5
3A7
100
AcDbEntity
  8
0
100
AcDbSpline
 62
7
  6
CONTINUOUS
 70
0
 71
3
 72
23
 73
19
 74
0
 42
0.0000001
 43
0.0000001
 44
0.0000000001
 40
0.0
 40
0.0
 40
0.0
 40
0.0
 40
0.0616482149
 40
0.1233194547
 40
0.1850364846
 40
0.2468215689
 40
0.3086962155
 40
0.3706809299
 40
0.4327950056
 40
0.4950563252
 40
0.557481176
 40
0.6200840805
 40
0.6828775566
 40
0.7458723664
 40
0.8090769636
 40
0.8724964899
 40
0.9361392081
 40
1.0
 40
1.0
 40
1.0
 40
1.0
 10
11.4702974846
 20
7.7336070701
 30
0.0
 10
11.4678398444
 20
7.7312331591
 30
0.0
 10
11.4627949091
 20
7.7266156756
 30
0.0
 10
11.4548646241
 20
7.7201048881
 30
0.0
 10
11.4465899811
 20
7.7140244427
 30
0.0
 10
11.4379921097
 20
7.7083899237
 30
0.0
 10
11.4290925936
 20
7.7032154599
 30
0.0
 10
11.4199138758
 20
7.698514108
 30
0.0
 10
11.4104790986
 20
7.6942976594
 30
0.0
 10
11.4008120355
 20
7.6905767137
 30
0.0
 10
11.3909370304
 20
7.687360647
 30
0.0
 10
11.3808789651
 20
7.6846575372
 30
0.0
 10
11.3706631787
 20
7.6824741263
 30
0.0
 10
11.3603153803
 20
7.6808158986
 30
0.0
 10
11.3498616989
 20
7.6796870509
 30
0.0
 10
11.339328198
 20
7.6790902888
 30
0.0
 10
11.3287419426
 20
7.679027229
 30
0.0
 10
11.3216783357
 20
7.6793404568
 30
0.0
 10
11.3181472462
 20
7.6795853387
 30
0.0
  0
SPLINE
  5
3A8
100
AcDbEntity
  8
0
100
AcDbSpline
 62
7
  6
CONTINUOUS
 70
0
 71
3
 72
39
 73
35
 74
0
 42
0.0000001
 43
0.0000001
 44
0.0000000001
 40
0.0
 40
0.0
 40
0.0
 40
0.0
 40
0.0071758079
 40
0.0146741357
 40
0.022503624
 40
0.030671441
 40
0.0391835297
 40
0.0480445027
 40
0.0572573755
 40
0.0668240442
 40
0.0767454363
 40
0.0870215068
 40
0.1086328144
 40
0.1316444976
 40
0.1560319006
 40
0.1817621503
 40
0.2087952904
 40
0.2370851496
 40
0.2665801077
 40
0.2972237102
 40
0.3289551658
 40
0.3617097536
 40
0.3954191975
 40
0.4300120549
 40
0.4654140374
 40
0.501548304
 40
0.5383357251
 40
0.5756951818
 40
0.6135438486
 40
0.6903688691
 40
0.7681254643
 40
0.846115686
 40
0.9236386402
 40
1.0
 40
1.0
 40
1.0
 40
1.0
 10
11.9332179571
 20
10.6095319273
 30
0.0
 10
11.9324062593
 20
10.6087478873
 30
0.0
 10
11.9307060136
 20
10.6071859436
 30
0.0
 10
11.9279942966
 20
10.6049101976
 30
0.0
 10
11.9250678901
 20
10.6026524941
 30
0.0
 10
11.9219286972
 20
10.6004143168
 30
0.0
 10
11.9185785757
 20
10.598196867
 30
0.0
 10
11.9150194402
 20
10.5960014556
 30
0.0
 10
11.9112534046
 20
10.5938293015
 30
0.0
 10
11.9072826995
 20
10.5916817252
 30
0.0
 10
11.9031096787
 20
10.5895600042
 30
0.0
 10
11.8971791992
 20
10.5867193533
 30
0.0
 10
11.8892690508
 20
10.5832522187
 30
0.0
 10
11.8791659683
 20
10.5792813813
 30
0.0
 10
11.8683223771
 20
10.5754428205
 30
0.0
 10
11.8567641844
 20
10.5717457965
 30
0.0
 10
11.8445188464
 20
10.5681992609
 30
0.0
 10
11.8316156337
 20
10.5648118041
 30
0.0
 10
11.8180854346
 20
10.5615916416
 30
0.0
 10
11.8039606888
 20
10.5585465892
 30
0.0
 10
11.7892752935
 20
10.5556840428
 30
0.0
 10
11.774064526
 20
10.5530109519
 30
0.0
 10
11.7583649528
 20
10.5505337941
 30
0.0
 10
11.7422143307
 20
10.5482585765
 30
0.0
 10
11.7256515093
 20
10.5461908174
 30
0.0
 10
11.7087163379
 20
10.544335534
 30
0.0
 10
11.6914495849
 20
10.5426972262
 30
0.0
 10
11.6738927817
 20
10.5412798305
 30
0.0
 10
11.6500356815
 20
10.5396813452
 30
0.0
 10
11.6198019091
 20
10.5382642098
 30
0.0
 10
11.5832300881
 20
10.5374915379
 30
0.0
 10
11.546540476
 20
10.5376462381
 30
0.0
 10
11.5100862296
 20
10.5387267354
 30
0.0
 10
11.4859191291
 20
10.5400713481
 30
0.0
 10
11.473938689
 20
10.5409021944
 30
0.0
  0
SPLINE
  5
3A9
100
AcDbEntity
  8
0
100
AcDbSpline
 62
7
  6
CONTINUOUS
 70
0
 71
3
 72
22
 73
18
 74
0
 42
0.0000001
 43
0.0000001
 44
0.0000000001
 40
0.0
 40
0.0
 40
0.0
 40
0.0
 40
0.1283265858
 40
0.1922023332
 40
0.2558499502
 40
0.3192537811
 40
0.3824003251
 40
0.4452790307
 40
0.50788318
 40
0.570210872
 40
0.6322660292
 40
0.6940593372
 40
0.7556089469
 40
0.8169408382
 40
0.8780886789
 40
0.9390929738
 40
1.0
 40
1.0
 40
1.0
 40
1.0
 10
10.5143951777
 20
7.0717716062
 30
0.0
 10
10.5168795875
 20
7.0644958736
 30
0.0
 10
10.5200749138
 20
7.0534060206
 30
0.0
 10
10.5231528761
 20
7.0383845942
 30
0.0
 10
10.5248392047
 20
7.0270645889
 30
0.0
 10
10.5258805003
 20
7.0157110484
 30
0.0
 10
10.5262520119
 20
7.0043613623
 30
0.0
 10
10.5259300268
 20
6.9930575759
 30
0.0
 10
10.5248929487
 20
6.9818455252
 30
0.0
 10
10.5231221551
 20
6.970775068
 30
0.0
 10
10.5206030721
 20
6.9598997647
 30
0.0
 10
10.517326299
 20
6.9492763936
 30
0.0
 10
10.5132887185
 20
6.9389641145
 30
0.0
 10
10.5084945947
 20
6.9290234305
 30
0.0
 10
10.5029561173
 20
6.9195144827
 30
0.0
 10
10.4966948871
 20
6.9104965373
 30
0.0
 10
10.4920546673
 20
6.9048439312
 30
0.0
 10
10.4896272634
 20
6.902119405
 30
0.0
  0
SPLINE
  5
3AA
100
AcDbEntity
  8
0
100
AcDbSpline
 62
7
  6
CONTINUOUS
 70
0
 71
3
 72
53
 73
49
 74
0
 42
0.0000001
 43
0.0000001
 44
0.0000000001
 40
0.0
 40
0.0
 40
0.0
 40
0.0
 40
0.0527848368
 40
0.1048063877
 40
0.1559447945
 40
0.2060908895
 40
0.2551345126
 40
0.3029700154
 40
0.3494956547
 40
0.3946138133
 40
0.4382317231
 40
0.4802619925
 40
0.5206231304
 40
0.5592401772
 40
0.5960455137
 40
0.6309799343
 40
0.6639937277
 40
0.6950481335
 40
0.7241173308
 40
0.7379047206
 40
0.7511934666
 40
0.7639854289
 40
0.7762837289
 40
0.7880933188
 40
0.799421028
 40
0.8102756762
 40
0.8206687401
 40
0.830614312
 40
0.8401296363
 40
0.8492356466
 40
0.8579570837
 40
0.8663232307
 40
0.8743681403
 40
0.8821308159
 40
0.8896555052
 40
0.8969912663
 40
0.9041915074
 40
0.9113130476
 40
0.918414751
 40
0.9255560501
 40
0.9327952996
 40
0.9401883408
 40
0.94778714
 40
0.9637757048
 40
0.9722567975
 40
0.9811039228
 40
0.9903442134
 40
1.0
 40
1.0
 40
1.0
 40
1.0
 10
9.9123325121
 20
10.6874500706
 30
0.0
 10
9.9069309794
 20
10.6878246682
 30
0.0
 10
9.8962108727
 20
10.6886406161
 30
0.0
 10
9.8802785826
 20
10.6900762952
 30
0.0
 10
9.864637685
 20
10.6917123246
 30
0.0
 10
9.8493261436
 20
10.6935446446
 30
0.0
 10
9.834380574
 20
10.695568884
 30
0.0
 10
9.8198370105
 20
10.6977801075
 30
0.0
 10
9.8057304161
 20
10.7001729481
 30
0.0
 10
9.7920947035
 20
10.7027416081
 30
0.0
 10
9.7789626452
 20
10.7054798637
 30
0.0
 10
9.7663657655
 20
10.7083810591
 30
0.0
 10
9.7543342733
 20
10.7114381491
 30
0.0
 10
9.7428969924
 20
10.7146437173
 30
0.0
 10
9.7320812654
 20
10.7179900039
 30
0.0
 10
9.7219128885
 20
10.7214688923
 30
0.0
 10
9.712415938
 20
10.7250719884
 30
0.0
 10
9.7036130577
 20
10.728790616
 30
0.0
 10
9.696756676
 20
10.7320331536
 30
0.0
 10
9.6916441505
 20
10.7346858738
 30
0.0
 10
9.688064039
 20
10.736663589
 30
0.0
 10
9.6846723576
 20
10.7386634045
 30
0.0
 10
9.6814711358
 20
10.7406842251
 30
0.0
 10
9.6784622585
 20
10.742724842
 30
0.0
 10
9.6756474825
 20
10.7447840495
 30
0.0
 10
9.6730285079
 20
10.7468607299
 30
0.0
 10
9.6706068414
 20
10.7489536539
 30
0.0
 10
9.6683839313
 20
10.7510616841
 30
0.0
 10
9.6663611422
 20
10.7531837013
 30
0.0
 10
9.6645396583
 20
10.7553185153
 30
0.0
 10
9.6629207007
 20
10.7574650632
 30
0.0
 10
9.6615053475
 20
10.7596222013
 30
0.0
 10
9.6602946035
 20
10.761788773
 30
0.0
 10
9.6592895581
 20
10.7639636439
 30
0.0
 10
9.65849107
 20
10.766145498
 30
0.0
 10
9.657900034
 20
10.7683329681
 30
0.0
 10
9.6575172274
 20
10.7705245176
 30
0.0
 10
9.6573430656
 20
10.7727184483
 30
0.0
 10
9.6573779056
 20
10.7749129872
 30
0.0
 10
9.6576216576
 20
10.7771063215
 30
0.0
 10
9.6580739158
 20
10.7792966804
 30
0.0
 10
9.658734266
 20
10.7814825174
 30
0.0
 10
9.6599103935
 20
10.7844381371
 30
0.0
 10
9.661498269
 20
10.7873358488
 30
0.0
 10
9.6634376582
 20
10.7901515028
 30
0.0
 10
9.6651244609
 20
10.7922945453
 30
0.0
 10
9.667013117
 20
10.7944251187
 30
0.0
 10
9.6683752926
 20
10.7958054779
 30
0.0
 10
9.6690876862
 20
10.7964935973
 30
0.0
  0
SPLINE
  5
3AB
100
AcDbEntity
  8
0
100
AcDbSpline
 62
7
  6
CONTINUOUS
 70
0
 71
3
 72
11
 73
7
 74
0
 42
0.0000001
 43
0.0000001
 44
0.0000000001
 40
0.0
 40
0.0
 40
0.0
 40
0.0
 40
0.2521533635
 40
0.5028249466
 40
0.7520761247
 40
1.0
 40
1.0
 40
1.0
 40
1.0
 10
10.1261948198
 20
8.8788617547
 30
0.0
 10
10.1261948198
 20
8.8856334359
 30
0.0
 10
10.1267699905
 20
8.8991443118
 30
0.0
 10
10.1293742472
 20
8.9191980902
 30
0.0
 10
10.1337099363
 20
8.9388343875
 30
0.0
 10
10.137758857
 20
8.9515806076
 30
0.0
 10
10.140066833
 20
8.9578258856
 30
0.0
  0
SPLINE
  5
3AC
100
AcDbEntity
  8
0
100
AcDbSpline
 62
7
  6
CONTINUOUS
 70
0
 71
3
 72
39
 73
35
 74
0
 42
0.0000001
 43
0.0000001
 44
0.0000000001
 40
0.0
 40
0.0
 40
0.0
 40
0.0
 40
0.095831508
 40
0.1891003626
 40
0.2792401393
 40
0.322966854
 40
0.3657106043
 40
0.4074088094
 40
0.4480014003
 40
0.4874310569
 40
0.5256432279
 40
0.5625865995
 40
0.5982133935
 40
0.6324794928
 40
0.6653451047
 40
0.6967751404
 40
0.7267396127
 40
0.7552146497
 40
0.7821831777
 40
0.8076359328
 40
0.8315732026
 40
0.8540063928
 40
0.8749604139
 40
0.8944770491
 40
0.9126186046
 40
0.9294729087
 40
0.9451592017
 40
0.9598337631
 40
0.9668558019
 40
0.9737028514
 40
0.9804062781
 40
0.9869996942
 40
0.9935186393
 40
1.0
 40
1.0
 40
1.0
 40
1.0
 10
9.9043091283
 20
10.6497563742
 30
0.0
 10
9.894541853
 20
10.650433737
 30
0.0
 10
9.8752825502
 20
10.6519851629
 30
0.0
 10
9.8469052026
 20
10.6549466694
 30
0.0
 10
9.8238897133
 20
10.6579334622
 30
0.0
 10
9.8060470639
 20
10.6606221008
 30
0.0
 10
9.7931272172
 20
10.6627565418
 30
0.0
 10
9.7805555793
 20
10.6650256982
 30
0.0
 10
9.7683531318
 20
10.6674257893
 30
0.0
 10
9.7565402497
 20
10.6699527463
 30
0.0
 10
9.7451366502
 20
10.6726023443
 30
0.0
 10
9.7341613535
 20
10.6753701261
 30
0.0
 10
9.7236326456
 20
10.6782514137
 30
0.0
 10
9.7135680606
 20
10.6812413929
 30
0.0
 10
9.7039843279
 20
10.6843350305
 30
0.0
 10
9.6948973435
 20
10.687527116
 30
0.0
 10
9.6863221576
 20
10.6908123403
 30
0.0
 10
9.6782729076
 20
10.6941852005
 30
0.0
 10
9.6707628025
 20
10.6976400865
 30
0.0
 10
9.6638041142
 20
10.701171356
 30
0.0
 10
9.6574080943
 20
10.7047732485
 30
0.0
 10
9.6515849908
 20
10.7084400461
 30
0.0
 10
9.6463440701
 20
10.7121661593
 30
0.0
 10
9.6416935554
 20
10.7159461337
 30
0.0
 10
9.6376408463
 20
10.7197748136
 30
0.0
 10
9.6341926391
 20
10.7236477543
 30
0.0
 10
9.6313555955
 20
10.7275599944
 30
0.0
 10
9.629479036
 20
10.7308988524
 30
0.0
 10
9.6283092677
 20
10.7335723006
 30
0.0
 10
9.6276010337
 20
10.7355531071
 30
0.0
 10
9.6270496273
 20
10.7375378098
 30
0.0
 10
9.626655468
 20
10.7395256104
 30
0.0
 10
9.6264188613
 20
10.7415153441
 30
0.0
 10
9.6263662006
 20
10.7428441268
 30
0.0
 10
9.6263661954
 20
10.7435063024
 30
0.0
  0
SPLINE
  5
3AD
100
AcDbEntity
  8
0
100
AcDbSpline
 62
7
  6
CONTINUOUS
 70
0
 71
3
 72
37
 73
33
 74
0
 42
0.0000001
 43
0.0000001
 44
0.0000000001
 40
0.0
 40
0.0
 40
0.0
 40
0.0
 40
0.0311464763
 40
0.0624483004
 40
0.0938952738
 40
0.1254804953
 40
0.1571907415
 40
0.1890115257
 40
0.2209258547
 40
0.252914932
 40
0.2849585264
 40
0.317035338
 40
0.3491234252
 40
0.381200621
 40
0.4451976236
 40
0.5088978732
 40
0.5406101981
 40
0.5721975056
 40
0.6036475114
 40
0.634950721
 40
0.6661006564
 40
0.6970940303
 40
0.7279308694
 40
0.7586145731
 40
0.7891518852
 40
0.8195527902
 40
0.8498303302
 40
0.8800003491
 40
0.9100811696
 40
0.9400931924
 40
0.9700584311
 40
1.0
 40
1.0
 40
1.0
 40
1.0
 10
11.4688316727
 20
6.3564418322
 30
0.0
 10
11.4669919438
 20
6.3565694179
 30
0.0
 10
11.4633112843
 20
6.3569599184
 30
0.0
 10
11.457834952
 20
6.3579434691
 30
0.0
 10
11.4524172357
 20
6.3593212666
 30
0.0
 10
11.4470874936
 20
6.3610856825
 30
0.0
 10
11.4418739566
 20
6.3632274097
 30
0.0
 10
11.4368044705
 20
6.3657349374
 30
0.0
 10
11.4319060334
 20
6.3685948841
 30
0.0
 10
11.4272047466
 20
6.3717919606
 30
0.0
 10
11.4227256426
 20
6.3753091249
 30
0.0
 10
11.418492635
 20
6.379127549
 30
0.0
 10
11.4145281127
 20
6.3832271544
 30
0.0
 10
11.409633594
 20
6.3890324085
 30
0.0
 10
11.4042882176
 20
6.3968755953
 30
0.0
 10
11.400077594
 20
6.405358715
 30
0.0
 10
11.397452889
 20
6.412410774
 30
0.0
 10
11.3958674632
 20
6.417797131
 30
0.0
 10
11.3946715546
 20
6.4232581564
 30
0.0
 10
11.3938714418
 20
6.428765005
 30
0.0
 10
11.3934714934
 20
6.4342882327
 30
0.0
 10
11.3934739075
 20
6.4397983868
 30
0.0
 10
11.3938787405
 20
6.4452660441
 30
0.0
 10
11.3946838831
 20
6.450662003
 30
0.0
 10
11.3958850976
 20
6.4559574293
 30
0.0
 10
11.397476031
 20
6.4611240108
 30
0.0
 10
11.3994482443
 20
6.4661341039
 30
0.0
 10
11.40179126
 20
6.4709608926
 30
0.0
 10
11.4044925531
 20
6.4755785146
 30
0.0
 10
11.4075377802
 20
6.4799623231
 30
0.0
 10
11.4109103626
 20
6.4840885344
 30
0.0
 10
11.413366042
 20
6.4866539626
 30
0.0
 10
11.4146411373
 20
6.4878856178
 30
0.0
  0
SPLINE
  5
3AE
100
AcDbEntity
  8
0
100
AcDbSpline
 62
7
  6
CONTINUOUS
 70
0
 71
3
 72
23
 73
19
 74
0
 42
0.0000001
 43
0.0000001
 44
0.0000000001
 40
0.0
 40
0.0
 40
0.0
 40
0.0
 40
0.0631363107
 40
0.1263201169
 40
0.1895154735
 40
0.2526882347
 40
0.3158064652
 40
0.3788407156
 40
0.441764184
 40
0.5045527925
 40
0.567185197
 40
0.6296427627
 40
0.6919095372
 40
0.7539720815
 40
0.8158198067
 40
0.8774434229
 40
0.93883909
 40
1.0
 40
1.0
 40
1.0
 40
1.0
 10
10.2167083069
 20
8.6902605335
 30
0.0
 10
10.2131065337
 20
8.6930493343
 30
0.0
 10
10.2060756206
 20
8.6988596044
 30
0.0
 10
10.1960912594
 20
8.7082136596
 30
0.0
 10
10.1866933239
 20
8.7181606802
 30
0.0
 10
10.1779102753
 20
8.728647846
 30
0.0
 10
10.1697655988
 20
8.7396233932
 30
0.0
 10
10.162279159
 20
8.7510362544
 30
0.0
 10
10.155467405
 20
8.7628365028
 30
0.0
 10
10.1493438698
 20
8.7749754488
 30
0.0
 10
10.1439195599
 20
8.7874057159
 30
0.0
 10
10.1392033241
 20
8.8000812327
 30
0.0
 10
10.1352021985
 20
8.8129571644
 30
0.0
 10
10.1319216164
 20
8.8259898303
 30
0.0
 10
10.1293658628
 20
8.8391364594
 30
0.0
 10
10.1275377712
 20
8.8523553911
 30
0.0
 10
10.1264397208
 20
8.865604765
 30
0.0
 10
10.1261948198
 20
8.8744490418
 30
0.0
 10
10.1261948198
 20
8.8788617547
 30
0.0
  0
SPLINE
  5
3AF
100
AcDbEntity
  8
0
100
AcDbSpline
 62
7
  6
CONTINUOUS
 70
0
 71
3
 72
23
 73
19
 74
0
 42
0.0000001
 43
0.0000001
 44
0.0000000001
 40
0.0
 40
0.0
 40
0.0
 40
0.0
 40
0.0639228286
 40
0.127492604
 40
0.1907214485
 40
0.253637375
 40
0.3162731702
 40
0.3786701326
 40
0.4408741298
 40
0.5029344474
 40
0.5649017491
 40
0.6268265765
 40
0.6887579636
 40
0.7507422494
 40
0.8128222062
 40
0.8750364405
 40
0.9374191389
 40
1.0
 40
1.0
 40
1.0
 40
1.0
 10
11.0556702658
 20
9.2365081496
 30
0.0
 10
11.0556702658
 20
9.2383783248
 30
0.0
 10
11.0558213704
 20
9.242110178
 30
0.0
 10
11.056503592
 20
9.247654256
 30
0.0
 10
11.0576344862
 20
9.2530948021
 30
0.0
 10
11.0592034737
 20
9.2583969297
 30
0.0
 10
11.0611964563
 20
9.2635285406
 30
0.0
 10
11.0635959603
 20
9.268459849
 30
0.0
 10
11.0663818703
 20
9.2731639315
 30
0.0
 10
11.0695318885
 20
9.2776168072
 30
0.0
 10
11.0730221268
 20
9.28179748
 30
0.0
 10
11.0768275849
 20
9.2856878722
 30
0.0
 10
11.0809226034
 20
9.2892726656
 30
0.0
 10
11.0852812464
 20
9.2925390801
 30
0.0
 10
11.0898775494
 20
9.2954766157
 30
0.0
 10
11.0946858711
 20
9.2980768409
 30
0.0
 10
11.0996805232
 20
9.3003329776
 30
0.0
 10
11.1031127973
 20
9.3016023599
 30
0.0
 10
11.1048507853
 20
9.3021782438
 30
0.0
  0
SPLINE
  5
3B0
100
AcDbEntity
  8
0
100
AcDbSpline
 62
7
  6
CONTINUOUS
 70
0
 71
3
 72
15
 73
11
 74
0
 42
0.0000001
 43
0.0000001
 44
0.0000000001
 40
0.0
 40
0.0
 40
0.0
 40
0.0
 40
0.127466878
 40
0.254003124
 40
0.3796794968
 40
0.5045999218
 40
0.628908657
 40
0.7527792653
 40
0.8764072229
 40
1.0
 40
1.0
 40
1.0
 40
1.0
 10
11.0620734563
 20
6.5797677119
 30
0.0
 10
11.0620734563
 20
6.5824458982
 30
0.0
 10
11.0623589361
 20
6.5877873569
 30
0.0
 10
11.0636502616
 20
6.5956749937
 30
0.0
 10
11.0657884542
 20
6.6033220859
 30
0.0
 10
11.0687492644
 20
6.6106394362
 30
0.0
 10
11.0724985771
 20
6.6175429691
 30
0.0
 10
11.076993505
 20
6.6239533101
 30
0.0
 10
11.0821810724
 20
6.6297959065
 30
0.0
 10
11.0860621974
 20
6.6332683643
 30
0.0
 10
11.0880933487
 20
6.6348863053
 30
0.0
  0
SPLINE
  5
3B1
100
AcDbEntity
  8
0
100
AcDbSpline
 62
4
  6
CONTINUOUS
 70
0
 71
3
 72
301
 73
297
 74
0
 42
0.0000001
 43
0.0000001
 44
0.0000000001
 40
0.0
 40
0.0
 40
0.0
 40
0.0
 40
0.015625
 40
0.0234375
 40
0.03125
 40
0.0390625
 40
0.046875
 40
0.05078125
 40
0.0546875
 40
0.056640625
 40
0.05859375
 40
0.060546875
 40
0.0615234375
 40
0.0620117188
 40
0.0625
 40
0.0629882812
 40
0.0634765625
 40
0.064453125
 40
0.06640625
 40
0.068359375
 40
0.0703125
 40
0.07421875
 40
0.078125
 40
0.0859375
 40
0.09375
 40
0.1015625
 40
0.109375
 40
0.11328125
 40
0.1171875
 40
0.119140625
 40
0.12109375
 40
0.123046875
 40
0.1240234375
 40
0.1245117188
 40
0.125
 40
0.1254882812
 40
0.1259765625
 40
0.126953125
 40
0.12890625
 40
0.130859375
 40
0.1328125
 40
0.13671875
 40
0.140625
 40
0.1484375
 40
0.15625
 40
0.1640625
 40
0.171875
 40
0.17578125
 40
0.1796875
 40
0.181640625
 40
0.18359375
 40
0.185546875
 40
0.1865234375
 40
0.1870117188
 40
0.1875
 40
0.1879882812
 40
0.1884765625
 40
0.189453125
 40
0.19140625
 40
0.193359375
 40
0.1953125
 40
0.19921875
 40
0.203125
 40
0.2109375
 40
0.21875
 40
0.2265625
 40
0.234375
 40
0.23828125
 40
0.2421875
 40
0.24609375
 40
0.248046875
 40
0.2490234375
 40
0.25
 40
0.2509765625
 40
0.251953125
 40
0.25390625
 40
0.2578125
 40
0.26171875
 40
0.265625
 40
0.2734375
 40
0.28125
 40
0.2890625
 40
0.296875
 40
0.30078125
 40
0.3046875
 40
0.30859375
 40
0.310546875
 40
0.3115234375
 40
0.3125
 40
0.3134765625
 40
0.314453125
 40
0.31640625
 40
0.3203125
 40
0.32421875
 40
0.328125
 40
0.3359375
 40
0.34375
 40
0.3515625
 40
0.359375
 40
0.36328125
 40
0.3671875
 40
0.37109375
 40
0.373046875
 40
0.3740234375
 40
0.375
 40
0.3759765625
 40
0.376953125
 40
0.37890625
 40
0.3828125
 40
0.38671875
 40
0.390625
 40
0.3984375
 40
0.40625
 40
0.4140625
 40
0.421875
 40
0.42578125
 40
0.4296875
 40
0.43359375
 40
0.435546875
 40
0.4375
 40
0.439453125
 40
0.44140625
 40
0.4453125
 40
0.44921875
 40
0.453125
 40
0.4609375
 40
0.46875
 40
0.4765625
 40
0.484375
 40
0.48828125
 40
0.4921875
 40
0.49609375
 40
0.498046875
 40
0.4990234375
 40
0.5
 40
0.5009765625
 40
0.501953125
 40
0.50390625
 40
0.5078125
 40
0.51171875
 40
0.515625
 40
0.5234375
 40
0.53125
 40
0.5390625
 40
0.546875
 40
0.55078125
 40
0.5546875
 40
0.556640625
 40
0.55859375
 40
0.560546875
 40
0.5615234375
 40
0.5625
 40
0.5634765625
 40
0.564453125
 40
0.56640625
 40
0.568359375
 40
0.5703125
 40
0.57421875
 40
0.578125
 40
0.5859375
 40
0.59375
 40
0.6015625
 40
0.609375
 40
0.61328125
 40
0.6171875
 40
0.619140625
 40
0.62109375
 40
0.623046875
 40
0.6240234375
 40
0.6245117188
 40
0.625
 40
0.6254882812
 40
0.6259765625
 40
0.626953125
 40
0.62890625
 40
0.630859375
 40
0.6328125
 40
0.63671875
 40
0.640625
 40
0.6484375
 40
0.65625
 40
0.6640625
 40
0.671875
 40
0.67578125
 40
0.6796875
 40
0.681640625
 40
0.68359375
 40
0.685546875
 40
0.6865234375
 40
0.6870117188
 40
0.6875
 40
0.6879882812
 40
0.6884765625
 40
0.689453125
 40
0.69140625
 40
0.693359375
 40
0.6953125
 40
0.69921875
 40
0.703125
 40
0.7109375
 40
0.71875
 40
0.7265625
 40
0.73046875
 40
0.734375
 40
0.73828125
 40
0.7421875
 40
0.744140625
 40
0.74609375
 40
0.748046875
 40
0.7490234375
 40
0.7495117188
 40
0.75
 40
0.7504882812
 40
0.7509765625
 40
0.751953125
 40
0.75390625
 40
0.755859375
 40
0.7578125
 40
0.76171875
 40
0.765625
 40
0.76953125
 40
0.7734375
 40
0.78125
 40
0.7890625
 40
0.79296875
 40
0.796875
 40
0.80078125
 40
0.8046875
 40
0.806640625
 40
0.80859375
 40
0.810546875
 40
0.8115234375
 40
0.8120117188
 40
0.8125
 40
0.8129882812
 40
0.8134765625
 40
0.814453125
 40
0.81640625
 40
0.818359375
 40
0.8203125
 40
0.82421875
 40
0.828125
 40
0.83203125
 40
0.8359375
 40
0.84375
 40
0.8515625
 40
0.85546875
 40
0.859375
 40
0.86328125
 40
0.8671875
 40
0.869140625
 40
0.87109375
 40
0.8720703125
 40
0.873046875
 40
0.8740234375
 40
0.8745117188
 40
0.875
 40
0.8754882812
 40
0.8759765625
 40
0.876953125
 40
0.8779296875
 40
0.87890625
 40
0.880859375
 40
0.8828125
 40
0.88671875
 40
0.890625
 40
0.89453125
 40
0.8984375
 40
0.90625
 40
0.9140625
 40
0.91796875
 40
0.921875
 40
0.92578125
 40
0.9296875
 40
0.931640625
 40
0.93359375
 40
0.9345703125
 40
0.935546875
 40
0.9365234375
 40
0.9370117188
 40
0.9375
 40
0.9379882812
 40
0.9384765625
 40
0.939453125
 40
0.9404296875
 40
0.94140625
 40
0.943359375
 40
0.9453125
 40
0.94921875
 40
0.953125
 40
0.95703125
 40
0.9609375
 40
0.96875
 40
0.9765625
 40
0.984375
 40
1.0
 40
1.0
 40
1.0
 40
1.0
 10
12.2154307429
 20
7.9329761286
 30
0.0
 10
12.2145912087
 20
7.9318579892
 30
0.0
 10
12.2133319075
 20
7.9301807803
 30
0.0
 10
12.2116528392
 20
7.9279445008
 30
0.0
 10
12.2103935378
 20
7.9262672935
 30
0.0
 10
12.209134237
 20
7.9245900773
 30
0.0
 10
12.208084818
 20
7.9231924248
 30
0.0
 10
12.2072452864
 20
7.922074241
 30
0.0
 10
12.2067205712
 20
7.9213755167
 30
0.0
 10
12.2063008171
 20
7.9208162153
 30
0.0
 10
12.2059859522
 20
7.9203976207
 30
0.0
 10
12.2057237216
 20
7.920045988
 30
0.0
 10
12.2055398524
 20
7.9198053476
 30
0.0
 10
12.2054352648
 20
7.9196592471
 30
0.0
 10
12.2053554707
 20
7.9195738746
 30
0.0
 10
12.2052808501
 20
7.9193959866
 30
0.0
 10
12.2051795514
 20
7.919191073
 30
0.0
 10
12.2050031194
 20
7.9188174387
 30
0.0
 10
12.2047506341
 20
7.9182915362
 30
0.0
 10
12.20444784
 20
7.9176570886
 30
0.0
 10
12.2040440488
 20
7.9168123337
 30
0.0
 10
12.2035393322
 20
7.9157559876
 30
0.0
 10
12.2027317732
 20
7.9140660588
 30
0.0
 10
12.2017223287
 20
7.9119535702
 30
0.0
 10
12.2005109933
 20
7.909418619
 30
0.0
 10
12.1992996593
 20
7.9068836512
 30
0.0
 10
12.1982902112
 20
7.9047712045
 30
0.0
 10
12.1974826595
 20
7.9030811919
 30
0.0
 10
12.1969779243
 20
7.9020250588
 30
0.0
 10
12.1965741714
 20
7.9011798666
 30
0.0
 10
12.19627126
 20
7.9005467547
 30
0.0
 10
12.1960191415
 20
7.9000166732
 30
0.0
 10
12.1958420549
 20
7.8996504992
 30
0.0
 10
12.1957418051
 20
7.8994336324
 30
0.0
 10
12.1956639624
 20
7.8992924607
 30
0.0
 10
12.1955962699
 20
7.8990691878
 30
0.0
 10
12.1955024726
 20
7.8988001284
 30
0.0
 10
12.195339977
 20
7.8983159315
 30
0.0
 10
12.1951069781
 20
7.8976311975
 30
0.0
 10
12.1948277484
 20
7.8968065309
 30
0.0
 10
12.1944553133
 20
7.8957080182
 30
0.0
 10
12.1939898136
 20
7.8943345204
 30
0.0
 10
12.1932449893
 20
7.8921371234
 30
0.0
 10
12.1923139675
 20
7.8893903082
 30
0.0
 10
12.1911967374
 20
7.8860941615
 30
0.0
 10
12.1900795095
 20
7.8827979994
 30
0.0
 10
12.1891484822
 20
7.8800512224
 30
0.0
 10
12.188403669
 20
7.8778537492
 30
0.0
 10
12.187938141
 20
7.876480445
 30
0.0
 10
12.1875657639
 20
7.8753815349
 30
0.0
 10
12.1872863571
 20
7.8745580826
 30
0.0
 10
12.1870539124
 20
7.8738695491
 30
0.0
 10
12.1868904273
 20
7.8733921351
 30
0.0
 10
12.1867982155
 20
7.8731122079
 30
0.0
 10
12.1867256529
 20
7.8729223174
 30
0.0
 10
12.1866661013
 20
7.8726557667
 30
0.0
 10
12.1865821607
 20
7.8723271058
 30
0.0
 10
12.1864373792
 20
7.8717394906
 30
0.0
 10
12.186229443
 20
7.8709065537
 30
0.0
 10
12.1859803927
 20
7.8699042415
 30
0.0
 10
12.1856481605
 20
7.868568799
 30
0.0
 10
12.1852329267
 20
7.8668991625
 30
0.0
 10
12.1845685209
 20
7.8642279307
 30
0.0
 10
12.1837380258
 20
7.8608888243
 30
0.0
 10
12.1827414213
 20
7.8568819364
 30
0.0
 10
12.1817448389
 20
7.852874996
 30
0.0
 10
12.1809142883
 20
7.849536021
 30
0.0
 10
12.1802499934
 20
7.8468645263
 30
0.0
 10
12.1797513747
 20
7.8448617644
 30
0.0
 10
12.1793371237
 20
7.8431900635
 30
0.0
 10
12.1790446661
 20
7.8420252355
 30
0.0
 10
12.1788814229
 20
7.8413512462
 30
0.0
 10
12.1787480735
 20
7.8408693419
 30
0.0
 10
12.1786564542
 20
7.8402972737
 30
0.0
 10
12.1785197393
 20
7.8395659662
 30
0.0
 10
12.1782872701
 20
7.8382715249
 30
0.0
 10
12.1779516255
 20
7.836429984
 30
0.0
 10
12.1775503697
 20
7.8342168557
 30
0.0
 10
12.1770148317
 20
7.8312671636
 30
0.0
 10
12.1763455924
 20
7.8275796535
 30
0.0
 10
12.1755424212
 20
7.8231548192
 30
0.0
 10
12.1747392931
 20
7.8187299056
 30
0.0
 10
12.1740699459
 20
7.8150425936
 30
0.0
 10
12.1735346236
 20
7.8120925053
 30
0.0
 10
12.1731327099
 20
7.8098805857
 30
0.0
 10
12.1727991235
 20
7.8080352633
 30
0.0
 10
12.1725629801
 20
7.8067475725
 30
0.0
 10
12.1724321521
 20
7.8060054491
 30
0.0
 10
12.1723224502
 20
7.8054666038
 30
0.0
 10
12.1722570161
 20
7.8048599196
 30
0.0
 10
12.1721543296
 20
7.8040746704
 30
0.0
 10
12.1719818224
 20
7.8026894592
 30
0.0
 10
12.1717316224
 20
7.80071635
 30
0.0
 10
12.1714329923
 20
7.7983461518
 30
0.0
 10
12.1710342563
 20
7.7951867494
 30
0.0
 10
12.1705360307
 20
7.7912371999
 30
0.0
 10
12.1699380705
 20
7.7864978712
 30
0.0
 10
12.1693401571
 20
7.781758494
 30
0.0
 10
12.1688418143
 20
7.7778090658
 30
0.0
 10
12.1684433127
 20
7.7746494209
 30
0.0
 10
12.1681439677
 20
7.7722799627
 30
0.0
 10
12.1678960041
 20
7.7703045384
 30
0.0
 10
12.1677195045
 20
7.76892346
 30
0.0
 10
12.1676232149
 20
7.7681315888
 30
0.0
 10
12.1675381315
 20
7.7675452452
 30
0.0
 10
12.167502229
 20
7.7669300041
 30
0.0
 10
12.1674372041
 20
7.7661197624
 30
0.0
 10
12.1673314033
 20
7.764697143
 30
0.0
 10
12.1671760806
 20
7.7626672849
 30
0.0
 10
12.1669914818
 20
7.7602304042
 30
0.0
 10
12.166744726
 20
7.7569815971
 30
0.0
 10
12.1664364913
 20
7.7529204627
 30
0.0
 10
12.1660665379
 20
7.7480471528
 30
0.0
 10
12.1656965352
 20
7.7431738384
 30
0.0
 10
12.1653884235
 20
7.7391127152
 30
0.0
 10
12.1651414215
 20
7.7358638857
 30
0.0
 10
12.1649575736
 20
7.7334270732
 30
0.0
 10
12.1647999021
 20
7.7313970018
 30
0.0
 10
12.1646837789
 20
7.7297715862
 30
0.0
 10
12.1645693232
 20
7.7285562368
 30
0.0
 10
12.164559314
 20
7.7273267173
 30
0.0
 10
12.1645094839
 20
7.7256923078
 30
0.0
 10
12.1644597139
 20
7.7236475977
 30
0.0
 10
12.1643946319
 20
7.7211946725
 30
0.0
 10
12.1643097273
 20
7.7179238514
 30
0.0
 10
12.164202956
 20
7.7138354143
 30
0.0
 10
12.1640750984
 20
7.7089292427
 30
0.0
 10
12.163947194
 20
7.7040231164
 30
0.0
 10
12.1638405394
 20
7.6999345661
 30
0.0
 10
12.1637554014
 20
7.6966639713
 30
0.0
 10
12.1636910316
 20
7.6942103558
 30
0.0
 10
12.1636390335
 20
7.6921678053
 30
0.0
 10
12.1635994096
 20
7.6907338418
 30
0.0
 10
12.1635818034
 20
7.6899209578
 30
0.0
 10
12.1635544122
 20
7.6892929176
 30
0.0
 10
12.1635812491
 20
7.6887351242
 30
0.0
 10
12.1635981162
 20
7.6879668969
 30
0.0
 10
12.1636364467
 20
7.6866339154
 30
0.0
 10
12.1636865971
 20
7.6847236875
 30
0.0
 10
12.1637487497
 20
7.6824339687
 30
0.0
 10
12.1638309309
 20
7.6793801181
 30
0.0
 10
12.1639338935
 20
7.6755631103
 30
0.0
 10
12.1640573491
 20
7.670982573
 30
0.0
 10
12.1641808249
 20
7.6664020589
 30
0.0
 10
12.1642837371
 20
7.6625849932
 30
0.0
 10
12.164366019
 20
7.6595312584
 30
0.0
 10
12.1644175571
 20
7.6576228649
 30
0.0
 10
12.164458531
 20
7.6560957129
 30
0.0
 10
12.1644899638
 20
7.6549515463
 30
0.0
 10
12.1645139235
 20
7.6539942647
 30
0.0
 10
12.1645381025
 20
7.6532369834
 30
0.0
 10
12.1645425434
 20
7.6526456764
 30
0.0
 10
12.1645992524
 20
7.6521434812
 30
0.0
 10
12.1646566065
 20
7.6514427596
 30
0.0
 10
12.1647345634
 20
7.6505775376
 30
0.0
 10
12.1648254303
 20
7.6495346998
 30
0.0
 10
12.1649475228
 20
7.648145846
 30
0.0
 10
12.1650998177
 20
7.6464092321
 30
0.0
 10
12.1653436687
 20
7.6436309554
 30
0.0
 10
12.1656484211
 20
7.6401580051
 30
0.0
 10
12.1660141497
 20
7.635990508
 30
0.0
 10
12.1663798736
 20
7.6318230047
 30
0.0
 10
12.1666846378
 20
7.6283500697
 30
0.0
 10
12.1669284653
 20
7.6255717623
 30
0.0
 10
12.1670808201
 20
7.6238352265
 30
0.0
 10
12.1672027896
 20
7.6224462124
 30
0.0
 10
12.1672940321
 20
7.6214038644
 30
0.0
 10
12.1673708139
 20
7.62053711
 30
0.0
 10
12.1674230965
 20
7.6199267141
 30
0.0
 10
12.1674552592
 20
7.6195836434
 30
0.0
 10
12.1674729388
 20
7.6193102076
 30
0.0
 10
12.1675152445
 20
7.6190984393
 30
0.0
 10
12.1675630622
 20
7.6187945713
 30
0.0
 10
12.1676507453
 20
7.6182728244
 30
0.0
 10
12.1677739145
 20
7.6175222319
 30
0.0
 10
12.1679226132
 20
7.6166237637
 30
0.0
 10
12.1681205653
 20
7.6154250228
 30
0.0
 10
12.1683681125
 20
7.6139268649
 30
0.0
 10
12.1687641282
 20
7.6115296622
 30
0.0
 10
12.1692591685
 20
7.6085332107
 30
0.0
 10
12.1698532074
 20
7.604937445
 30
0.0
 10
12.1704472509
 20
7.6013416921
 30
0.0
 10
12.1709422795
 20
7.5983452086
 30
0.0
 10
12.1713383185
 20
7.5959480699
 30
0.0
 10
12.1715858065
 20
7.5944497493
 30
0.0
 10
12.1717838801
 20
7.5932513422
 30
0.0
 10
12.1719322076
 20
7.5923518542
 30
0.0
 10
12.1720565383
 20
7.5916044524
 30
0.0
 10
12.1721421479
 20
7.5910770096
 30
0.0
 10
12.172193288
 20
7.5907822678
 30
0.0
 10
12.1722253884
 20
7.5905424668
 30
0.0
 10
12.1722813972
 20
7.5903743172
 30
0.0
 10
12.1723477362
 20
7.590125125
 30
0.0
 10
12.1724677149
 20
7.5897006831
 30
0.0
 10
12.1726370816
 20
7.5890882497
 30
0.0
 10
12.1728411913
 20
7.5883559355
 30
0.0
 10
12.1731130337
 20
7.5873786063
 30
0.0
 10
12.1734529408
 20
7.5861572564
 30
0.0
 10
12.1739967339
 20
7.5842029225
 30
0.0
 10
12.1746764953
 20
7.5817600647
 30
0.0
 10
12.1754922005
 20
7.5788286104
 30
0.0
 10
12.1761719564
 20
7.5763857356
 30
0.0
 10
12.1767157616
 20
7.5744314391
 30
0.0
 10
12.1771236132
 20
7.5729657045
 30
0.0
 10
12.1775314736
 20
7.5715000172
 30
0.0
 10
12.17787133
 20
7.5702784636
 30
0.0
 10
12.1781432761
 20
7.5693015511
 30
0.0
 10
12.1783470691
 20
7.5685679639
 30
0.0
 10
12.1785174264
 20
7.567959513
 30
0.0
 10
12.1786356368
 20
7.5675279618
 30
0.0
 10
12.178704809
 20
7.5672901606
 30
0.0
 10
12.1787521152
 20
7.5670870213
 30
0.0
 10
12.1788169013
 20
7.5669786359
 30
0.0
 10
12.1788971857
 20
7.5668010709
 30
0.0
 10
12.1790405241
 20
7.5665057313
 30
0.0
 10
12.179243808
 20
7.5660757666
 30
0.0
 10
12.1794883844
 20
7.5655632551
 30
0.0
 10
12.1798142642
 20
7.5648787027
 30
0.0
 10
12.1802216902
 20
7.5640234253
 30
0.0
 10
12.1807105688
 20
7.5629969153
 30
0.0
 10
12.181199456
 20
7.5619704526
 30
0.0
 10
12.1818513027
 20
7.5606018191
 30
0.0
 10
12.1826661121
 20
7.5588910336
 30
0.0
 10
12.1834809208
 20
7.5571802438
 30
0.0
 10
12.1841327685
 20
7.555811617
 30
0.0
 10
12.1846216524
 20
7.5547851342
 30
0.0
 10
12.1851105437
 20
7.5537586999
 30
0.0
 10
12.18551793
 20
7.552903187
 30
0.0
 10
12.1858438908
 20
7.5522191147
 30
0.0
 10
12.1860882201
 20
7.551705137
 30
0.0
 10
12.186292277
 20
7.5512797595
 30
0.0
 10
12.1864342355
 20
7.5509762311
 30
0.0
 10
12.1865167307
 20
7.5508117866
 30
0.0
 10
12.1865747258
 20
7.550663099
 30
0.0
 10
12.1866475382
 20
7.5506113286
 30
0.0
 10
12.186739453
 20
7.5505084955
 30
0.0
 10
12.1869027119
 20
7.5503442885
 30
0.0
 10
12.1871346799
 20
7.5501014724
 30
0.0
 10
12.1874135804
 20
7.5498136177
 30
0.0
 10
12.1877852595
 20
7.5494285803
 30
0.0
 10
12.188249923
 20
7.5489477059
 30
0.0
 10
12.1888074915
 20
7.5483704757
 30
0.0
 10
12.1893650674
 20
7.5477932938
 30
0.0
 10
12.1901084994
 20
7.5470237011
 30
0.0
 10
12.1910377902
 20
7.5460617159
 30
0.0
 10
12.1919670807
 20
7.5450997292
 30
0.0
 10
12.1927105131
 20
7.544330139
 30
0.0
 10
12.1932680877
 20
7.5437529498
 30
0.0
 10
12.193825661
 20
7.543175747
 30
0.0
 10
12.1942903097
 20
7.5426947873
 30
0.0
 10
12.194662019
 20
7.5423099239
 30
0.0
 10
12.1948943592
 20
7.5420696022
 30
0.0
 10
12.1950801812
 20
7.5418768457
 30
0.0
 10
12.1952196853
 20
7.5417336448
 30
0.0
 10
12.195335501
 20
7.5416099639
 30
0.0
 10
12.1954291351
 20
7.5415207683
 30
0.0
 10
12.1954966785
 20
7.5414272325
 30
0.0
 10
12.1955744601
 20
7.5414353785
 30
0.0
 10
12.1956745926
 20
7.5414107211
 30
0.0
 10
12.1958009851
 20
7.5413920856
 30
0.0
 10
12.195952131
 20
7.5413645069
 30
0.0
 10
12.1961538423
 20
7.5413295572
 30
0.0
 10
12.1964059186
 20
7.5412852463
 30
0.0
 10
12.1968092759
 20
7.5412146974
 30
0.0
 10
12.1973134603
 20
7.5411263917
 30
0.0
 10
12.1979184868
 20
7.5410204762
 30
0.0
 10
12.198523512
 20
7.5409145469
 30
0.0
 10
12.1993302126
 20
7.5407733127
 30
0.0
 10
12.2003385883
 20
7.5405967682
 30
0.0
 10
12.2013469641
 20
7.5404202248
 30
0.0
 10
12.2021536646
 20
7.5402789887
 30
0.0
 10
12.2027586902
 20
7.5401730653
 30
0.0
 10
12.2033637148
 20
7.5400671277
 30
0.0
 10
12.2038679052
 20
7.5399788905
 30
0.0
 10
12.2042712503
 20
7.539908202
 30
0.0
 10
12.2045233575
 20
7.5398642465
 30
0.0
 10
12.2047250054
 20
7.5398285672
 30
0.0
 10
12.2048763449
 20
7.5398032174
 30
0.0
 10
12.2050021317
 20
7.5397776084
 30
0.0
 10
12.2051035001
 20
7.5397671783
 30
0.0
 10
12.2051775072
 20
7.5397318749
 30
0.0
 10
12.2052592217
 20
7.5398014664
 30
0.0
 10
12.2053654821
 20
7.5398576138
 30
0.0
 10
12.2054992313
 20
7.5399403695
 30
0.0
 10
12.2056593349
 20
7.5400342954
 30
0.0
 10
12.2058729445
 20
7.5401614094
 30
0.0
 10
12.2061399093
 20
7.5403196584
 30
0.0
 10
12.2065670793
 20
7.5405732164
 30
0.0
 10
12.2071010328
 20
7.5408900405
 30
0.0
 10
12.2077417808
 20
7.5412702823
 30
0.0
 10
12.2083825278
 20
7.54165051
 30
0.0
 10
12.2092368576
 20
7.5421574851
 30
0.0
 10
12.2103047696
 20
7.5427912024
 30
0.0
 10
12.211586264
 20
7.5435516638
 30
0.0
 10
12.2132949233
 20
7.5445656121
 30
0.0
 10
12.2145764178
 20
7.5453260734
 30
0.0
 10
12.2154307474
 20
7.5458330476
 30
0.0
  0
SPLINE
  5
3B2
100
AcDbEntity
  8
0
100
AcDbSpline
 62
4
  6
CONTINUOUS
 70
0
 71
3
 72
301
 73
297
 74
0
 42
0.0000001
 43
0.0000001
 44
0.0000000001
 40
0.0
 40
0.0
 40
0.0
 40
0.0
 40
0.015625
 40
0.0234375
 40
0.03125
 40
0.0390625
 40
0.046875
 40
0.05078125
 40
0.0546875
 40
0.056640625
 40
0.05859375
 40
0.060546875
 40
0.0615234375
 40
0.0620117188
 40
0.0625
 40
0.0629882812
 40
0.0634765625
 40
0.064453125
 40
0.06640625
 40
0.068359375
 40
0.0703125
 40
0.07421875
 40
0.078125
 40
0.0859375
 40
0.09375
 40
0.1015625
 40
0.109375
 40
0.11328125
 40
0.1171875
 40
0.119140625
 40
0.12109375
 40
0.123046875
 40
0.1240234375
 40
0.1245117188
 40
0.125
 40
0.1254882812
 40
0.1259765625
 40
0.126953125
 40
0.12890625
 40
0.130859375
 40
0.1328125
 40
0.13671875
 40
0.140625
 40
0.1484375
 40
0.15625
 40
0.1640625
 40
0.171875
 40
0.17578125
 40
0.1796875
 40
0.181640625
 40
0.18359375
 40
0.185546875
 40
0.1865234375
 40
0.1870117188
 40
0.1875
 40
0.1879882812
 40
0.1884765625
 40
0.189453125
 40
0.19140625
 40
0.193359375
 40
0.1953125
 40
0.19921875
 40
0.203125
 40
0.2109375
 40
0.21875
 40
0.2265625
 40
0.234375
 40
0.23828125
 40
0.2421875
 40
0.24609375
 40
0.248046875
 40
0.2490234375
 40
0.25
 40
0.2509765625
 40
0.251953125
 40
0.25390625
 40
0.2578125
 40
0.26171875
 40
0.265625
 40
0.2734375
 40
0.28125
 40
0.2890625
 40
0.296875
 40
0.30078125
 40
0.3046875
 40
0.30859375
 40
0.310546875
 40
0.3115234375
 40
0.3125
 40
0.3134765625
 40
0.314453125
 40
0.31640625
 40
0.3203125
 40
0.32421875
 40
0.328125
 40
0.3359375
 40
0.34375
 40
0.3515625
 40
0.359375
 40
0.36328125
 40
0.3671875
 40
0.37109375
 40
0.373046875
 40
0.3740234375
 40
0.375
 40
0.3759765625
 40
0.376953125
 40
0.37890625
 40
0.3828125
 40
0.38671875
 40
0.390625
 40
0.3984375
 40
0.40625
 40
0.4140625
 40
0.421875
 40
0.42578125
 40
0.4296875
 40
0.43359375
 40
0.435546875
 40
0.4375
 40
0.439453125
 40
0.44140625
 40
0.4453125
 40
0.44921875
 40
0.453125
 40
0.4609375
 40
0.46875
 40
0.4765625
 40
0.484375
 40
0.48828125
 40
0.4921875
 40
0.49609375
 40
0.498046875
 40
0.4990234375
 40
0.5
 40
0.5009765625
 40
0.501953125
 40
0.50390625
 40
0.5078125
 40
0.51171875
 40
0.515625
 40
0.5234375
 40
0.53125
 40
0.5390625
 40
0.546875
 40
0.55078125
 40
0.5546875
 40
0.556640625
 40
0.55859375
 40
0.560546875
 40
0.5615234375
 40
0.5625
 40
0.5634765625
 40
0.564453125
 40
0.56640625
 40
0.568359375
 40
0.5703125
 40
0.57421875
 40
0.578125
 40
0.5859375
 40
0.59375
 40
0.6015625
 40
0.609375
 40
0.61328125
 40
0.6171875
 40
0.619140625
 40
0.62109375
 40
0.623046875
 40
0.6240234375
 40
0.6245117188
 40
0.625
 40
0.6254882812
 40
0.6259765625
 40
0.626953125
 40
0.62890625
 40
0.630859375
 40
0.6328125
 40
0.63671875
 40
0.640625
 40
0.6484375
 40
0.65625
 40
0.6640625
 40
0.671875
 40
0.67578125
 40
0.6796875
 40
0.681640625
 40
0.68359375
 40
0.685546875
 40
0.6865234375
 40
0.6870117188
 40
0.6875
 40
0.6879882812
 40
0.6884765625
 40
0.689453125
 40
0.69140625
 40
0.693359375
 40
0.6953125
 40
0.69921875
 40
0.703125
 40
0.7109375
 40
0.71875
 40
0.7265625
 40
0.73046875
 40
0.734375
 40
0.73828125
 40
0.7421875
 40
0.744140625
 40
0.74609375
 40
0.748046875
 40
0.7490234375
 40
0.7495117188
 40
0.75
 40
0.7504882812
 40
0.7509765625
 40
0.751953125
 40
0.75390625
 40
0.755859375
 40
0.7578125
 40
0.76171875
 40
0.765625
 40
0.76953125
 40
0.7734375
 40
0.78125
 40
0.7890625
 40
0.79296875
 40
0.796875
 40
0.80078125
 40
0.8046875
 40
0.806640625
 40
0.80859375
 40
0.810546875
 40
0.8115234375
 40
0.8120117188
 40
0.8125
 40
0.8129882812
 40
0.8134765625
 40
0.814453125
 40
0.81640625
 40
0.818359375
 40
0.8203125
 40
0.82421875
 40
0.828125
 40
0.83203125
 40
0.8359375
 40
0.84375
 40
0.8515625
 40
0.85546875
 40
0.859375
 40
0.86328125
 40
0.8671875
 40
0.869140625
 40
0.87109375
 40
0.8720703125
 40
0.873046875
 40
0.8740234375
 40
0.8745117188
 40
0.875
 40
0.8754882812
 40
0.8759765625
 40
0.876953125
 40
0.8779296875
 40
0.87890625
 40
0.880859375
 40
0.8828125
 40
0.88671875
 40
0.890625
 40
0.89453125
 40
0.8984375
 40
0.90625
 40
0.9140625
 40
0.91796875
 40
0.921875
 40
0.92578125
 40
0.9296875
 40
0.931640625
 40
0.93359375
 40
0.9345703125
 40
0.935546875
 40
0.9365234375
 40
0.9370117188
 40
0.9375
 40
0.9379882812
 40
0.9384765625
 40
0.939453125
 40
0.9404296875
 40
0.94140625
 40
0.943359375
 40
0.9453125
 40
0.94921875
 40
0.953125
 40
0.95703125
 40
0.9609375
 40
0.96875
 40
0.9765625
 40
0.984375
 40
1.0
 40
1.0
 40
1.0
 40
1.0
 10
12.2154307429
 20
7.5458330432
 30
0.0
 10
12.216270277
 20
7.5469511826
 30
0.0
 10
12.2175295783
 20
7.5486283915
 30
0.0
 10
12.2192086466
 20
7.550864671
 30
0.0
 10
12.2204679479
 20
7.5525418783
 30
0.0
 10
12.2217272488
 20
7.5542190945
 30
0.0
 10
12.2227766677
 20
7.555616747
 30
0.0
 10
12.2236161994
 20
7.5567349308
 30
0.0
 10
12.2241409145
 20
7.5574336551
 30
0.0
 10
12.2245606687
 20
7.5579929565
 30
0.0
 10
12.2248755335
 20
7.5584115511
 30
0.0
 10
12.2251377642
 20
7.5587631838
 30
0.0
 10
12.2253216333
 20
7.5590038242
 30
0.0
 10
12.2254262209
 20
7.5591499247
 30
0.0
 10
12.2255060151
 20
7.5592352972
 30
0.0
 10
12.2255806357
 20
7.5594131853
 30
0.0
 10
12.2256819344
 20
7.5596180989
 30
0.0
 10
12.2258583664
 20
7.5599917331
 30
0.0
 10
12.2261108516
 20
7.5605176356
 30
0.0
 10
12.2264136457
 20
7.5611520832
 30
0.0
 10
12.226817437
 20
7.5619968381
 30
0.0
 10
12.2273221535
 20
7.5630531842
 30
0.0
 10
12.2281297126
 20
7.564743113
 30
0.0
 10
12.229139157
 20
7.5668556017
 30
0.0
 10
12.2303504925
 20
7.5693905528
 30
0.0
 10
12.2315618264
 20
7.5719255206
 30
0.0
 10
12.2325712746
 20
7.5740379674
 30
0.0
 10
12.2333788262
 20
7.57572798
 30
0.0
 10
12.2338835615
 20
7.576784113
 30
0.0
 10
12.2342873144
 20
7.5776293052
 30
0.0
 10
12.2345902257
 20
7.5782624171
 30
0.0
 10
12.2348423442
 20
7.5787924986
 30
0.0
 10
12.2350194309
 20
7.5791586726
 30
0.0
 10
12.2351196806
 20
7.5793755394
 30
0.0
 10
12.2351975233
 20
7.5795167111
 30
0.0
 10
12.2352652159
 20
7.579739984
 30
0.0
 10
12.2353590131
 20
7.5800090435
 30
0.0
 10
12.2355215087
 20
7.5804932403
 30
0.0
 10
12.2357545077
 20
7.5811779743
 30
0.0
 10
12.2360337373
 20
7.5820026409
 30
0.0
 10
12.2364061724
 20
7.5831011536
 30
0.0
 10
12.2368716722
 20
7.5844746515
 30
0.0
 10
12.2376164964
 20
7.5866720484
 30
0.0
 10
12.2385475182
 20
7.5894188636
 30
0.0
 10
12.2396647483
 20
7.5927150104
 30
0.0
 10
12.2407819762
 20
7.5960111724
 30
0.0
 10
12.2417130036
 20
7.5987579494
 30
0.0
 10
12.2424578167
 20
7.6009554226
 30
0.0
 10
12.2429233447
 20
7.6023287268
 30
0.0
 10
12.2432957218
 20
7.6034276369
 30
0.0
 10
12.2435751286
 20
7.6042510892
 30
0.0
 10
12.2438075733
 20
7.6049396227
 30
0.0
 10
12.2439710584
 20
7.6054170367
 30
0.0
 10
12.2440632702
 20
7.605696964
 30
0.0
 10
12.2441358328
 20
7.6058868544
 30
0.0
 10
12.2441953845
 20
7.6061534051
 30
0.0
 10
12.244279325
 20
7.606482066
 30
0.0
 10
12.2444241065
 20
7.6070696812
 30
0.0
 10
12.2446320427
 20
7.6079026181
 30
0.0
 10
12.244881093
 20
7.6089049303
 30
0.0
 10
12.2452133253
 20
7.6102403728
 30
0.0
 10
12.245628559
 20
7.6119100094
 30
0.0
 10
12.2462929648
 20
7.6145812412
 30
0.0
 10
12.2471234599
 20
7.6179203475
 30
0.0
 10
12.2481200645
 20
7.6219272354
 30
0.0
 10
12.2491166468
 20
7.6259341759
 30
0.0
 10
12.2499471974
 20
7.6292731508
 30
0.0
 10
12.2506114923
 20
7.6319446455
 30
0.0
 10
12.2511101111
 20
7.6339474074
 30
0.0
 10
12.251524362
 20
7.6356191083
 30
0.0
 10
12.2518168196
 20
7.6367839363
 30
0.0
 10
12.2519800629
 20
7.6374579256
 30
0.0
 10
12.2521134123
 20
7.6379398299
 30
0.0
 10
12.2522050315
 20
7.6385118981
 30
0.0
 10
12.2523417464
 20
7.6392432056
 30
0.0
 10
12.2525742157
 20
7.6405376469
 30
0.0
 10
12.2529098602
 20
7.6423791878
 30
0.0
 10
12.253311116
 20
7.6445923162
 30
0.0
 10
12.253846654
 20
7.6475420082
 30
0.0
 10
12.2545158933
 20
7.6512295183
 30
0.0
 10
12.2553190646
 20
7.6556543526
 30
0.0
 10
12.2561221927
 20
7.6600792662
 30
0.0
 10
12.2567915398
 20
7.6637665782
 30
0.0
 10
12.2573268622
 20
7.6667166665
 30
0.0
 10
12.2577287758
 20
7.6689285861
 30
0.0
 10
12.2580623622
 20
7.6707739085
 30
0.0
 10
12.2582985056
 20
7.6720615994
 30
0.0
 10
12.2584293337
 20
7.6728037227
 30
0.0
 10
12.2585390355
 20
7.673342568
 30
0.0
 10
12.2586044696
 20
7.6739492522
 30
0.0
 10
12.2587071561
 20
7.6747345014
 30
0.0
 10
12.2588796633
 20
7.6761197127
 30
0.0
 10
12.2591298634
 20
7.6780928218
 30
0.0
 10
12.2594284934
 20
7.6804630201
 30
0.0
 10
12.2598272295
 20
7.6836224224
 30
0.0
 10
12.2603254551
 20
7.6875719719
 30
0.0
 10
12.2609234153
 20
7.6923113006
 30
0.0
 10
12.2615213286
 20
7.6970506778
 30
0.0
 10
12.2620196714
 20
7.701000106
 30
0.0
 10
12.2624181731
 20
7.704159751
 30
0.0
 10
12.262717518
 20
7.7065292091
 30
0.0
 10
12.2629654816
 20
7.7085046335
 30
0.0
 10
12.2631419812
 20
7.7098857118
 30
0.0
 10
12.2632382709
 20
7.710677583
 30
0.0
 10
12.2633233542
 20
7.7112639266
 30
0.0
 10
12.2633592568
 20
7.7118791677
 30
0.0
 10
12.2634242816
 20
7.7126894095
 30
0.0
 10
12.2635300825
 20
7.7141120288
 30
0.0
 10
12.2636854052
 20
7.7161418869
 30
0.0
 10
12.2638700039
 20
7.7185787676
 30
0.0
 10
12.2641167597
 20
7.7218275748
 30
0.0
 10
12.2644249945
 20
7.7258887091
 30
0.0
 10
12.2647949479
 20
7.730762019
 30
0.0
 10
12.2651649505
 20
7.7356353335
 30
0.0
 10
12.2654730622
 20
7.7396964566
 30
0.0
 10
12.2657200642
 20
7.7429452862
 30
0.0
 10
12.2659039121
 20
7.7453820986
 30
0.0
 10
12.2660615837
 20
7.74741217
 30
0.0
 10
12.2661777068
 20
7.7490375856
 30
0.0
 10
12.2662921625
 20
7.7502529351
 30
0.0
 10
12.2663021717
 20
7.7514824545
 30
0.0
 10
12.2663520019
 20
7.753116864
 30
0.0
 10
12.2664017719
 20
7.7551615741
 30
0.0
 10
12.2664668539
 20
7.7576144993
 30
0.0
 10
12.2665517584
 20
7.7608853204
 30
0.0
 10
12.2666585297
 20
7.7649737575
 30
0.0
 10
12.2667863874
 20
7.7698799291
 30
0.0
 10
12.2669142917
 20
7.7747860554
 30
0.0
 10
12.2670209463
 20
7.7788746057
 30
0.0
 10
12.2671060844
 20
7.7821452005
 30
0.0
 10
12.2671704541
 20
7.784598816
 30
0.0
 10
12.2672224522
 20
7.7866413666
 30
0.0
 10
12.2672620761
 20
7.78807533
 30
0.0
 10
12.2672796824
 20
7.788888214
 30
0.0
 10
12.2673070736
 20
7.7895162542
 30
0.0
 10
12.2672802367
 20
7.7900740476
 30
0.0
 10
12.2672633695
 20
7.7908422749
 30
0.0
 10
12.267225039
 20
7.7921752564
 30
0.0
 10
12.2671748887
 20
7.7940854843
 30
0.0
 10
12.2671127361
 20
7.7963752031
 30
0.0
 10
12.2670305548
 20
7.7994290537
 30
0.0
 10
12.2669275923
 20
7.8032460615
 30
0.0
 10
12.2668041366
 20
7.8078265988
 30
0.0
 10
12.2666806609
 20
7.812407113
 30
0.0
 10
12.2665777486
 20
7.8162241787
 30
0.0
 10
12.2664954667
 20
7.8192779134
 30
0.0
 10
12.2664439287
 20
7.8211863069
 30
0.0
 10
12.2664029548
 20
7.8227134589
 30
0.0
 10
12.2663715219
 20
7.8238576255
 30
0.0
 10
12.2663475623
 20
7.8248149071
 30
0.0
 10
12.2663233832
 20
7.8255721885
 30
0.0
 10
12.2663189424
 20
7.8261634954
 30
0.0
 10
12.2662622333
 20
7.8266656906
 30
0.0
 10
12.2662048792
 20
7.8273664122
 30
0.0
 10
12.2661269224
 20
7.8282316343
 30
0.0
 10
12.2660360554
 20
7.8292744721
 30
0.0
 10
12.265913963
 20
7.8306633258
 30
0.0
 10
12.2657616681
 20
7.8323999397
 30
0.0
 10
12.2655178171
 20
7.8351782164
 30
0.0
 10
12.2652130646
 20
7.8386511668
 30
0.0
 10
12.264847336
 20
7.8428186639
 30
0.0
 10
12.2644816121
 20
7.8469861671
 30
0.0
 10
12.2641768479
 20
7.8504591021
 30
0.0
 10
12.2639330204
 20
7.8532374096
 30
0.0
 10
12.2637806657
 20
7.8549739453
 30
0.0
 10
12.2636586961
 20
7.8563629594
 30
0.0
 10
12.2635674536
 20
7.8574053074
 30
0.0
 10
12.2634906719
 20
7.8582720618
 30
0.0
 10
12.2634383893
 20
7.8588824577
 30
0.0
 10
12.2634062266
 20
7.8592255284
 30
0.0
 10
12.2633885469
 20
7.8594989642
 30
0.0
 10
12.2633462413
 20
7.8597107325
 30
0.0
 10
12.2632984236
 20
7.8600146005
 30
0.0
 10
12.2632107405
 20
7.8605363475
 30
0.0
 10
12.2630875712
 20
7.8612869399
 30
0.0
 10
12.2629388726
 20
7.8621854081
 30
0.0
 10
12.2627409205
 20
7.863384149
 30
0.0
 10
12.2624933732
 20
7.864882307
 30
0.0
 10
12.2620973576
 20
7.8672795096
 30
0.0
 10
12.2616023173
 20
7.8702759611
 30
0.0
 10
12.2610082784
 20
7.8738717268
 30
0.0
 10
12.2604142348
 20
7.8774674798
 30
0.0
 10
12.2599192062
 20
7.8804639632
 30
0.0
 10
12.2595231672
 20
7.8828611019
 30
0.0
 10
12.2592756792
 20
7.8843594225
 30
0.0
 10
12.2590776056
 20
7.8855578296
 30
0.0
 10
12.2589292782
 20
7.8864573176
 30
0.0
 10
12.2588049474
 20
7.8872047194
 30
0.0
 10
12.2587193378
 20
7.8877321622
 30
0.0
 10
12.2586681978
 20
7.888026904
 30
0.0
 10
12.2586360974
 20
7.888266705
 30
0.0
 10
12.2585800885
 20
7.8884348546
 30
0.0
 10
12.2585137496
 20
7.8886840468
 30
0.0
 10
12.2583937708
 20
7.8891084887
 30
0.0
 10
12.2582244041
 20
7.8897209221
 30
0.0
 10
12.2580202945
 20
7.8904532364
 30
0.0
 10
12.257748452
 20
7.8914305656
 30
0.0
 10
12.257408545
 20
7.8926519154
 30
0.0
 10
12.2568647518
 20
7.8946062493
 30
0.0
 10
12.2561849905
 20
7.8970491071
 30
0.0
 10
12.2553692853
 20
7.8999805614
 30
0.0
 10
12.2546895293
 20
7.9024234362
 30
0.0
 10
12.2541457242
 20
7.9043777327
 30
0.0
 10
12.2537378725
 20
7.9058434673
 30
0.0
 10
12.2533300122
 20
7.9073091546
 30
0.0
 10
12.2529901558
 20
7.9085307083
 30
0.0
 10
12.2527182097
 20
7.9095076207
 30
0.0
 10
12.2525144167
 20
7.9102412079
 30
0.0
 10
12.2523440594
 20
7.9108496588
 30
0.0
 10
12.2522258489
 20
7.9112812101
 30
0.0
 10
12.2521566768
 20
7.9115190112
 30
0.0
 10
12.2521093706
 20
7.9117221506
 30
0.0
 10
12.2520445844
 20
7.9118305359
 30
0.0
 10
12.2519643001
 20
7.9120081009
 30
0.0
 10
12.2518209617
 20
7.9123034406
 30
0.0
 10
12.2516176778
 20
7.9127334052
 30
0.0
 10
12.2513731013
 20
7.9132459167
 30
0.0
 10
12.2510472215
 20
7.9139304691
 30
0.0
 10
12.2506397955
 20
7.9147857465
 30
0.0
 10
12.250150917
 20
7.9158122566
 30
0.0
 10
12.2496620297
 20
7.9168387192
 30
0.0
 10
12.2490101831
 20
7.9182073527
 30
0.0
 10
12.2481953737
 20
7.9199181383
 30
0.0
 10
12.247380565
 20
7.9216289281
 30
0.0
 10
12.2467287172
 20
7.9229975548
 30
0.0
 10
12.2462398333
 20
7.9240240376
 30
0.0
 10
12.245750942
 20
7.925050472
 30
0.0
 10
12.2453435557
 20
7.9259059848
 30
0.0
 10
12.245017595
 20
7.9265900572
 30
0.0
 10
12.2447732656
 20
7.9271040348
 30
0.0
 10
12.2445692087
 20
7.9275294123
 30
0.0
 10
12.2444272502
 20
7.9278329408
 30
0.0
 10
12.244344755
 20
7.9279973852
 30
0.0
 10
12.2442867599
 20
7.9281460729
 30
0.0
 10
12.2442139475
 20
7.9281978432
 30
0.0
 10
12.2441220328
 20
7.9283006763
 30
0.0
 10
12.2439587739
 20
7.9284648833
 30
0.0
 10
12.2437268058
 20
7.9287076995
 30
0.0
 10
12.2434479053
 20
7.9289955541
 30
0.0
 10
12.2430762262
 20
7.9293805916
 30
0.0
 10
12.2426115627
 20
7.9298614659
 30
0.0
 10
12.2420539942
 20
7.9304386962
 30
0.0
 10
12.2414964183
 20
7.931015878
 30
0.0
 10
12.2407529864
 20
7.9317854707
 30
0.0
 10
12.2398236956
 20
7.9327474559
 30
0.0
 10
12.238894405
 20
7.9337094426
 30
0.0
 10
12.2381509726
 20
7.9344790328
 30
0.0
 10
12.237593398
 20
7.935056222
 30
0.0
 10
12.2370358247
 20
7.9356334249
 30
0.0
 10
12.2365711761
 20
7.9361143845
 30
0.0
 10
12.2361994667
 20
7.9364992479
 30
0.0
 10
12.2359671265
 20
7.9367395697
 30
0.0
 10
12.2357813045
 20
7.9369323261
 30
0.0
 10
12.2356418005
 20
7.937075527
 30
0.0
 10
12.2355259848
 20
7.9371992079
 30
0.0
 10
12.2354323506
 20
7.9372884035
 30
0.0
 10
12.2353648072
 20
7.9373819394
 30
0.0
 10
12.2352870256
 20
7.9373737933
 30
0.0
 10
12.2351868932
 20
7.9373984508
 30
0.0
 10
12.2350605006
 20
7.9374170862
 30
0.0
 10
12.2349093547
 20
7.9374446649
 30
0.0
 10
12.2347076434
 20
7.9374796146
 30
0.0
 10
12.2344555671
 20
7.9375239255
 30
0.0
 10
12.2340522099
 20
7.9375944744
 30
0.0
 10
12.2335480254
 20
7.9376827801
 30
0.0
 10
12.2329429989
 20
7.9377886956
 30
0.0
 10
12.2323379738
 20
7.9378946249
 30
0.0
 10
12.2315312731
 20
7.9380358591
 30
0.0
 10
12.2305228974
 20
7.9382124036
 30
0.0
 10
12.2295145217
 20
7.938388947
 30
0.0
 10
12.2287078212
 20
7.9385301832
 30
0.0
 10
12.2281027955
 20
7.9386361066
 30
0.0
 10
12.2274977709
 20
7.9387420441
 30
0.0
 10
12.2269935805
 20
7.9388302813
 30
0.0
 10
12.2265902354
 20
7.9389009698
 30
0.0
 10
12.2263381282
 20
7.9389449253
 30
0.0
 10
12.2261364803
 20
7.9389806046
 30
0.0
 10
12.2259851408
 20
7.9390059544
 30
0.0
 10
12.225859354
 20
7.9390315634
 30
0.0
 10
12.2257579856
 20
7.9390419935
 30
0.0
 10
12.2256839786
 20
7.9390772969
 30
0.0
 10
12.225602264
 20
7.9390077054
 30
0.0
 10
12.2254960037
 20
7.938951558
 30
0.0
 10
12.2253622545
 20
7.9388688023
 30
0.0
 10
12.2252021508
 20
7.9387748764
 30
0.0
 10
12.2249885412
 20
7.9386477624
 30
0.0
 10
12.2247215765
 20
7.9384895134
 30
0.0
 10
12.2242944064
 20
7.9382359554
 30
0.0
 10
12.223760453
 20
7.9379191313
 30
0.0
 10
12.2231197049
 20
7.9375388895
 30
0.0
 10
12.2224789579
 20
7.9371586619
 30
0.0
 10
12.2216246282
 20
7.9366516867
 30
0.0
 10
12.2205567162
 20
7.9360179695
 30
0.0
 10
12.2192752217
 20
7.935257508
 30
0.0
 10
12.2175665624
 20
7.9342435597
 30
0.0
 10
12.216285068
 20
7.9334830984
 30
0.0
 10
12.2154307383
 20
7.9329761243
 30
0.0
  0
ELLIPSE
  5
3B3
100
AcDbEntity
  8
0
100
AcDbEllipse
 62
7
  6
CONTINUOUS
 10
10.7443872889
 20
8.3230793064
 30
0.0
 11
0.1452710177
 21
-0.1423816558
 31
0.0
 40
0.9327919899
 41
0.0
 42
6.2831853072
  0
ELLIPSE
  5
3B4
100
AcDbEntity
  8
0
100
AcDbEllipse
 62
7
  6
CONTINUOUS
 10
10.7443872889
 20
7.5377815981
 30
0.0
 11
-0.0601758288
 21
0.2100866896
 31
0.0
 40
0.8883046911
 41
0.0
 42
6.2831853072
  0
ENDSEC
  0
SECTION
  2
OBJECTS
  0
DICTIONARY
  5
C
100
AcDbDictionary
280
0
281
1
  3
ACAD_GROUP
350
D
  3
ACAD_MLINESTYLE
350
17
  3
ACAD_LAYOUT
350
1A
  3
ACAD_PLOTSETTINGS
350
19
  3
ACAD_PLOTSTYLENAME
350
E
  3
ACAD_IMAGE_DICT
350
       3B6
  3
ACAD_IMAGE_VARS
350
       3B7
  3
ACAD_TABLESTYLE
350
       3B8
  0
IMAGEDEF_REACTOR
  5
3B5
100
AcDbRasterImageDefReactor
 90
2
330
272
  0
DICTIONARY
  5
D
102
{ACAD_REACTORS
330
C
102
}
100
AcDbDictionary
280
0
281
1
  0
ACDBDICTIONARYWDFLT
  5
E
102
{ACAD_REACTORS
330
C
102
}
100
AcDbDictionary
281
1
  3
Normal
350
F
100
AcDbDictionaryWithDefault
340
F
  0
DICTIONARY
  5
3B6
330
C
100
AcDbDictionary
281
1
  3
CJ2_assy_2_img_1
350
       3BB
  0
RASTERVARIABLES
  5
3B7
330
C
100
AcDbRasterVariables
 90
0
 70
0
 71
1
 72
5
  0
DICTIONARY
  5
17
102
{ACAD_REACTORS
330
C
102
}
100
AcDbDictionary
280
0
281
1
  3
Standard
350
18
  0
DICTIONARY
  5
3B8
330
C
100
AcDbDictionary
281
1
  3
Standard
350
       3BC
  3
Standard1
350
       3BD
  0
DICTIONARY
  5
19
102
{ACAD_REACTORS
330
C
102
}
100
AcDbDictionary
281
1
  0
DICTIONARY
  5
1A
102
{ACAD_REACTORS
330
C
102
}
100
AcDbDictionary
281
1
  3
Model
350
3B9
  3
Layout1
350
3BA
  0
ACDBPLACEHOLDER
  5
F
102
{ACAD_REACTORS
330
E
102
}
  0
MLINESTYLE
  5
18
102
{ACAD_REACTORS
330
17
102
}
100
AcDbMlineStyle
  2
STANDARD
 70
0
  3

 62
256
 51
90.0
 52
90.0
 71
2
 49
0.5
 62
256
  6
BYLAYER
 49
-0.5
 62
256
  6
BYLAYER
  0
LAYOUT
  5
3B9
102
{ACAD_REACTORS
330
1A
102
}
100
AcDbPlotSettings
  1

  2
none_device
  4
ANSI_C_(22.00_x_17.00_Inches)
  6

 40
0.0
 41
0.0
 42
0.0
 43
0.0
 44
558.8
 45
431.8
 46
0.0
 47
0.0
 48
0.0
 49
0.0
140
0.0
141
0.0
142
1.0
143
1.0
 70
1024
 72
0
 73
0
 74
0
  7

 75
0
147
1.0
148
0.0
149
0.0
100
AcDbLayout
  1
Model
 70
0
 71
0
 10
0.0
 20
0.0
 11
22.0
 21
17.0
 12
0.0
 22
0.0
 32
0.0
 14
0.0
 24
0.0
 34
0.0
 15
0.0
 25
0.0
 35
0.0
146
0.0
 13
0.0
 23
0.0
 33
0.0
 16
1.0
 26
0.0
 36
0.0
 17
0.0
 27
1.0
 37
0.0
 76
0
330
20C
345
0
346
0
  0
LAYOUT
  5
3BA
102
{ACAD_REACTORS
330
1A
102
}
100
AcDbPlotSettings
  1

  2
none_device
  4
ANSI_C_(22.00_x_17.00_Inches)
  6

 40
0.0
 41
0.0
 42
0.0
 43
0.0
 44
558.8
 45
431.8
 46
0.0
 47
0.0
 48
0.0
 49
0.0
140
0.0
141
0.0
142
1.0
143
1.0
 70
0
 72
0
 73
0
 74
0
  7

 75
0
147
1.0
148
0.0
149
0.0
100
AcDbLayout
  1
Layout1
 70
0
 71
1
 10
0.0
 20
0.0
 11
22.0
 21
17.0
 12
0.0
 22
0.0
 32
0.0
 14
0.0
 24
0.0
 34
0.0
 15
0.0
 25
0.0
 35
0.0
146
0.0
 13
0.0
 23
0.0
 33
0.0
 16
1.0
 26
0.0
 36
0.0
 17
0.0
 27
1.0
 37
0.0
 76
0
330
20D
345
0
346
0
  0
IMAGEDEF
  5
3BB
102
{ACAD_REACTORS
330
3B6
330
3B5
102
}
100
AcDbRasterImageDef
 90
0
  1
CJ2_assy_2_img_1.png
 10
369.0
 20
92.0
 11
0.0066666667
 21
0.0066666667
280
1
281
0
  0
TABLESTYLE
  5
3BC
102
{ACAD_REACTORS
330
3B8
330
275
102
}
330
3B8
100
AcDbTableStyle
  3
Standard
 70
0
 71
0
 40
0.06
 41
0.06
280
1
281
1
  7
Standard
140
0.18
170
1
 62
0
 63
7
283
0
  7
Standard
140
0.18
170
1
 62
0
 63
7
283
0
  7
Standard
140
0.18
170
1
 62
0
 63
7
283
0
  0
TABLESTYLE
  5
3BD
102
{ACAD_REACTORS
330
3B8
330
274
102
}
330
3B8
100
AcDbTableStyle
  3
Standard1
 70
1
 71
0
 40
0.06
 41
0.06
280
1
281
1
  7
Standard
140
0.18
170
1
 62
0
 63
7
283
0
  7
Standard
140
0.18
170
1
 62
0
 63
7
283
0
  7
Standard
140
0.18
170
1
 62
0
 63
7
283
0
  0
ENDSEC
  0
EOF
