999
DXF file: CBP_assy_2.dxf
999
Pro/ENGINEER 2014200 by Parametric Technology Corporation
  0
SECTION
  2
HEADER
  9
$ACADVER
  1
AC1021
  9
$DWGCODEPAGE
  3
ANSI_1252
  9
$EXTMAX
 10
22.0
 20
17.0
 30
0.0
  9
$EXTMIN
 10
0.0
 20
0.0
 30
0.0
  9
$LIMMIN
 10
0.0
 20
0.0
  9
$LIMMAX
 10
22.0
 20
17.0
  9
$VIEWCTR
 10
11.0
 20
8.5
  9
$VIEWSIZE
 40
17.0
  9
$CLAYER
  8
0
  9
$LTSCALE
 40
1.21
  9
$CELTYPE
  6
BYLAYER
  9
$DIMSCALE
 40
1.0
  9
$DIMASZ
 40
0.1875
  9
$DIMEXO
 40
0.0625
  9
$DIMDLI
 40
0.836
  9
$DIMEXE
 40
0.125
  9
$DIMCEN
 40
0.198
  9
$DIMLFAC
 40
1.0
  9
$DIMBLK
  1
_FILLED
  9
$DIMTXT
 40
0.1
  9
$DIMTOL
 70
0
  9
$DIMLIM
 70
0
  9
$DIMTFAC
 40
1.0
  9
$DIMGAP
 40
0.09
  9
$DIMDSEP
 70
46
  9
$AUNITS
 70
0
  9
$PDMODE
 70
3
  9
$PDSIZE
 40
0.3125
  9
$HANDSEED
  5
2DB
  9
$TILEMODE
 70
1
  9
$MEASUREMENT
 70
0
  9
$INSUNITS
 70
1
  0
ENDSEC
  0
SECTION
  2
CLASSES
  0
CLASS
  1
ACDBDICTIONARYWDFLT
  2
AcDbDictionaryWithDefault
  3
AutoCAD 2000
 90
0
 91
1
280
0
281
0
  0
CLASS
  1
ACDBPLACEHOLDER
  2
AcDbPlaceHolder
  3
AutoCAD 2000
 90
0
 91
1
280
0
281
0
  0
CLASS
  1
LAYOUT
  2
AcDbLayout
  3
AutoCAD 2000
 90
0
 91
0
280
0
281
0
  0
CLASS
  1
RASTERVARIABLES
  2
AcDbRasterVariables
  3
ISM
 90
0
 91
1
280
0
281
0
  0
CLASS
  1
IMAGEDEF
  2
AcDbRasterImageDef
  3
ISM
 90
0
 91
1
280
0
281
0
  0
CLASS
  1
IMAGEDEF_REACTOR
  2
AcDbRasterImageDefReactor
  3
ISM
 90
0
 91
1
280
0
281
0
  0
CLASS
  1
IMAGE
  2
AcDbRasterImage
  3
ISM
 90
127
 91
1
280
0
281
1
  0
CLASS
  1
TABLESTYLE
  2
AcDbTableStyle
  3
ObjectDBX Classes
 90
2047
 91
1
280
0
281
0
  0
CLASS
  1
ACAD_TABLE
  2
AcDbTable
  3
ObjectDBX Classes
 90
1025
 91
2
280
0
281
1
  0
ENDSEC
  0
SECTION
  2
TABLES
  0
TABLE
  2
VPORT
  5
8
100
AcDbSymbolTable
 70
2
  0
VPORT
  5
1F4
100
AcDbSymbolTableRecord
100
AcDbViewportTableRecord
  2
*ACTIVE
 70
0
 10
0.0
 20
0.0
 11
1.0
 21
1.0
 12
11.0
 22
8.5
 13
0.0
 23
0.0
 14
1.0
 24
1.0
 15
0.0
 25
0.0
 16
0.0
 26
0.0
 36
1.0
 17
0.0
 27
0.0
 37
0.0
 40
17.0
 41
1.2941176471
 42
50.0
 43
0.0
 44
0.0
 50
0.0
 51
0.0
 71
0
 72
100
 73
1
 74
1
 75
0
 76
0
 77
0
 78
0
  0
ENDTAB
  0
TABLE
  2
LTYPE
  5
5
100
AcDbSymbolTable
 70
6
  0
LTYPE
  5
14
100
AcDbSymbolTableRecord
100
AcDbLinetypeTableRecord
  2
BYBLOCK
 70
0
  3

 72
65
 73
0
 40
0.0
  0
LTYPE
  5
15
100
AcDbSymbolTableRecord
100
AcDbLinetypeTableRecord
  2
BYLAYER
 70
0
  3

 72
65
 73
0
 40
0.0
  0
LTYPE
  5
16
100
AcDbSymbolTableRecord
100
AcDbLinetypeTableRecord
  2
CONTINUOUS
 70
64
  3
Solid line
 72
65
 73
0
 40
0.0
  0
LTYPE
  5
1F5
100
AcDbSymbolTableRecord
100
AcDbLinetypeTableRecord
  2
CENTER
 70
64
  3
____ _ ____ _ ____ _ ____ _ ____ _ ____ _ ____
 72
65
 73
4
 40
0.6
 49
0.375
 74
0
 49
-0.075
 74
0
 49
0.075
 74
0
 49
-0.075
 74
0
  0
LTYPE
  5
1F6
100
AcDbSymbolTableRecord
100
AcDbLinetypeTableRecord
  2
HIDDEN
 70
64
  3
- - - - - - - - - - - - - - - - - - - -
 72
65
 73
2
 40
0.2
 49
0.1
 74
0
 49
-0.1
 74
0
  0
LTYPE
  5
1F7
100
AcDbSymbolTableRecord
100
AcDbLinetypeTableRecord
  2
PHANTOM
 70
64
  3
_____ _ _ _____ _ _ _____ _ _ _____
 72
65
 73
6
 40
0.8
 49
0.45
 74
0
 49
-0.05
 74
0
 49
0.1
 74
0
 49
-0.05
 74
0
 49
0.1
 74
0
 49
-0.05
 74
0
  0
LTYPE
  5
1F8
100
AcDbSymbolTableRecord
100
AcDbLinetypeTableRecord
  2
DOT
 70
64
  3
. . . . . . . . . . . . . . . . . . . .
 72
65
 73
2
 40
0.2
 49
0.1
 74
0
 49
-0.1
 74
0
  0
LTYPE
  5
1F9
100
AcDbSymbolTableRecord
100
AcDbLinetypeTableRecord
  2
DASHED
 70
64
  3
- - - - - - - - - - - - - - - - - - - -
 72
65
 73
2
 40
0.2
 49
0.1
 74
0
 49
-0.1
 74
0
  0
ENDTAB
  0
TABLE
  2
LAYER
  5
2
100
AcDbSymbolTable
 70
36
  0
LAYER
  5
10
100
AcDbSymbolTableRecord
100
AcDbLayerTableRecord
  2
0
 70
0
 62
7
  6
CONTINUOUS
370
-3
390
F
  0
LAYER
  5
1FA
100
AcDbSymbolTableRecord
100
AcDbLayerTableRecord
  2
DEFAULT_1
 70
0
 62
7
  6
CENTER
370
-3
390
F
  0
LAYER
  5
1FB
100
AcDbSymbolTableRecord
100
AcDbLayerTableRecord
  2
DEFAULT_2
 70
0
 62
8
  6
HIDDEN
370
-3
390
F
  0
LAYER
  5
1FC
100
AcDbSymbolTableRecord
100
AcDbLayerTableRecord
  2
DEFAULT_3
 70
0
 62
7
  6
PHANTOM
370
-3
390
F
  0
LAYER
  5
1FD
100
AcDbSymbolTableRecord
100
AcDbLayerTableRecord
  2
DATUM_PLANES
 70
0
 62
7
  6
CONTINUOUS
370
-3
390
F
  0
LAYER
  5
1FE
100
AcDbSymbolTableRecord
100
AcDbLayerTableRecord
  2
DIMENSIONS
 70
0
 62
7
  6
CONTINUOUS
370
-3
390
F
  0
LAYER
  5
1FF
100
AcDbSymbolTableRecord
100
AcDbLayerTableRecord
  2
DTM_500001
 70
0
 62
7
  6
CONTINUOUS
370
-3
390
F
  0
LAYER
  5
200
100
AcDbSymbolTableRecord
100
AcDbLayerTableRecord
  2
PARAMETERDIMENSIONS
 70
0
 62
7
  6
CONTINUOUS
370
-3
390
F
  0
LAYER
  5
201
100
AcDbSymbolTableRecord
100
AcDbLayerTableRecord
  2
PORT_AREAS
 70
0
 62
7
  6
CONTINUOUS
370
-3
390
F
  0
LAYER
  5
202
100
AcDbSymbolTableRecord
100
AcDbLayerTableRecord
  2
SUNNBOMCOSMETIC
 70
0
 62
7
  6
CONTINUOUS
370
-3
390
F
  0
LAYER
  5
203
100
AcDbSymbolTableRecord
100
AcDbLayerTableRecord
  2
SUNNBOMSTAMPING
 70
0
 62
7
  6
CONTINUOUS
370
-3
390
F
  0
LAYER
  5
204
100
AcDbSymbolTableRecord
100
AcDbLayerTableRecord
  2
THREADS
 70
0
 62
7
  6
CONTINUOUS
370
-3
390
F
  0
ENDTAB
  0
TABLE
  2
STYLE
  5
3
100
AcDbSymbolTable
 70
1
  0
STYLE
  5
11
100
AcDbSymbolTableRecord
100
AcDbTextStyleTableRecord
  2
STANDARD
 70
0
 40
0.0
 41
0.8
 50
0.0
 71
0
 42
0.2
  3
txt
  4

  0
STYLE
  5
205
100
AcDbSymbolTableRecord
100
AcDbTextStyleTableRecord
  2
TEXTSTYLE_1
 70
0
 40
0.0
 41
0.8
 50
0.0
 71
0
 42
0.2
  3
gdt
  4

  0
ENDTAB
  0
TABLE
  2
VIEW
  5
6
100
AcDbSymbolTable
 70
0
  0
ENDTAB
  0
TABLE
  2
UCS
  5
7
100
AcDbSymbolTable
 70
0
  0
ENDTAB
  0
TABLE
  2
APPID
  5
9
100
AcDbSymbolTable
 70
1
  0
APPID
  5
206
100
AcDbSymbolTableRecord
100
AcDbRegAppTableRecord
  2
ACAD
 70
0
  0
ENDTAB
  0
TABLE
  2
BLOCK_RECORD
  5
1
100
AcDbSymbolTable
 70
0
  0
BLOCK_RECORD
  5
207
100
AcDbSymbolTableRecord
100
AcDbBlockTableRecord
  2
*Model_Space
  0
BLOCK_RECORD
  5
208
100
AcDbSymbolTableRecord
100
AcDbBlockTableRecord
  2
*Paper_Space
  0
BLOCK_RECORD
  5
209
100
AcDbSymbolTableRecord
100
AcDbBlockTableRecord
  2
SUN_FIRST_THIRD_ANGLE_BL0
  0
BLOCK_RECORD
  5
20A
100
AcDbSymbolTableRecord
100
AcDbBlockTableRecord
  2
*T1
  0
BLOCK_RECORD
  5
20B
100
AcDbSymbolTableRecord
100
AcDbBlockTableRecord
  2
*T2
  0
ENDTAB
  0
TABLE
  2
DIMSTYLE
  5
A
100
AcDbSymbolTable
 70
1
100
AcDbDimStyleTable
 71
0
  0
DIMSTYLE
105
20C
100
AcDbSymbolTableRecord
100
AcDbDimStyleTableRecord
  2
STANDARD
 70
0
  3

  4

 40
1.0
 41
0.1875
 42
0.0625
 43
0.38
 44
0.125
 45
0.0
 46
0.0
 47
0.001
 48
0.001
140
0.1
141
0.09
142
0.0
143
25.4
144
1.0
145
0.0
146
1.0
147
0.09
 71
0.0
 72
0.0
 73
1
 74
1
 75
0
 76
0
 77
0
 78
4
170
0
171
2
172
0
173
0
174
0
175
0
176
0
177
0
178
0
270
2
271
3
272
3
273
2
274
2
275
0
280
0
281
0
282
0
283
1
284
4
285
0
286
0
287
3
288
0
340
11
278
46
  0
ENDTAB
  0
ENDSEC
  0
SECTION
  2
BLOCKS
  0
BLOCK
  5
20
100
AcDbEntity
  8
0
100
AcDbBlockBegin
  2
*Model_Space
 70
0
 10
0.0
 20
0.0
 30
0.0
  3
*Model_Space
  1

  0
ENDBLK
  5
21
100
AcDbEntity
  8
0
100
AcDbBlockEnd
  0
BLOCK
  5
1C
100
AcDbEntity
  8
0
100
AcDbBlockBegin
  2
*Paper_Space
 70
0
 10
0.0
 20
0.0
 30
0.0
  3
*Paper_Space
  1

  0
ENDBLK
  5
1D
100
AcDbEntity
  8
0
100
AcDbBlockEnd
  0
BLOCK
  5
20D
100
AcDbEntity
  8
0
100
AcDbBlockBegin
 62
2
  6
CONTINUOUS
  2
SUN_FIRST_THIRD_ANGLE_BL0
 70
64
 10
20.4816717061
 20
1.2289683772
  3
SUN_FIRST_THIRD_ANGLE_BL0
  1

  0
TEXT
  5
20E
100
AcDbEntity
  8
0
100
AcDbText
 62
2
  6
CONTINUOUS
 10
19.4750896608
 20
1.4136269581
  7
STANDARD
 40
0.08
  1
FIRST ANGLE
 41
0.8
 72
0
100
AcDbText
  0
TEXT
  5
20F
100
AcDbEntity
  8
0
100
AcDbText
 62
2
  6
CONTINUOUS
 10
20.7842537513
 20
1.4047600029
  7
STANDARD
 40
0.08
  1
THIRD ANGLE
 41
0.8
 72
0
100
AcDbText
  0
LINE
  5
210
100
AcDbEntity
  8
0
100
AcDbLine
 62
7
  6
CONTINUOUS
 10
19.4767170086
 20
1.1727031207
 11
19.6334271527
 21
1.1717972817
  0
LINE
  5
211
100
AcDbEntity
  8
0
100
AcDbLine
 62
7
  6
CONTINUOUS
 10
19.6596964832
 20
1.1717972817
 11
19.6950230232
 21
1.171593082
  0
LINE
  5
212
100
AcDbEntity
  8
0
100
AcDbLine
 62
7
  6
CONTINUOUS
 10
19.7194818561
 20
1.1708914427
 11
19.8852396156
 21
1.1699333054
  0
LINE
  5
213
100
AcDbEntity
  8
0
100
AcDbLine
 62
7
  6
CONTINUOUS
 10
19.4758111696
 20
1.2723454088
 11
19.88525039
 21
1.3511534004
  0
LINE
  5
214
100
AcDbEntity
  8
0
100
AcDbLine
 62
7
  6
CONTINUOUS
 10
19.88525039
 20
1.3511534004
 11
19.8831348489
 21
0.9851647912
  0
LINE
  5
215
100
AcDbEntity
  8
0
100
AcDbLine
 62
7
  6
CONTINUOUS
 10
19.8831348489
 20
0.9851647912
 11
19.4767170086
 21
1.0658141206
  0
LINE
  5
216
100
AcDbEntity
  8
0
100
AcDbLine
 62
7
  6
CONTINUOUS
 10
19.4767170086
 20
1.0658141206
 11
19.4779056764
 21
1.2714536432
  0
CIRCLE
  5
217
100
AcDbEntity
  8
0
100
AcDbCircle
 62
7
  6
CONTINUOUS
 10
20.2068232291
 20
1.1717972817
 40
0.175742101
  0
CIRCLE
  5
218
100
AcDbEntity
  8
0
100
AcDbCircle
 62
7
  6
CONTINUOUS
 10
20.2068232291
 20
1.1717972817
 40
0.1005522074
  0
LINE
  5
219
100
AcDbEntity
  8
0
100
AcDbLine
 62
7
  6
CONTINUOUS
 10
20.2077290681
 20
1.3756110529
 11
20.2071171714
 21
1.2379342989
  0
LINE
  5
21A
100
AcDbEntity
  8
0
100
AcDbLine
 62
7
  6
CONTINUOUS
 10
20.2077290681
 20
1.2016899681
 11
20.2074674401
 21
1.1428236749
  0
LINE
  5
21B
100
AcDbEntity
  8
0
100
AcDbLine
 62
7
  6
CONTINUOUS
 10
20.208634907
 20
1.101141841
 11
20.2080230104
 21
0.963465087
  0
LINE
  5
21C
100
AcDbEntity
  8
0
100
AcDbLine
 62
7
  6
CONTINUOUS
 10
20.0066328138
 20
1.1745147986
 11
20.1443095678
 21
1.1739029019
  0
LINE
  5
21D
100
AcDbEntity
  8
0
100
AcDbLine
 62
7
  6
CONTINUOUS
 10
20.1832714155
 20
1.1727031207
 11
20.238153505
 21
1.172335442
  0
LINE
  5
21E
100
AcDbEntity
  8
0
100
AcDbLine
 62
7
  6
CONTINUOUS
 10
20.2756669918
 20
1.1717972817
 11
20.407916871
 21
1.1712095044
  0
CIRCLE
  5
21F
100
AcDbEntity
  8
0
100
AcDbCircle
 62
7
  6
CONTINUOUS
 10
20.7509457401
 20
1.1693297793
 40
0.1722024983
  0
CIRCLE
  5
220
100
AcDbEntity
  8
0
100
AcDbCircle
 62
7
  6
CONTINUOUS
 10
20.7509457401
 20
1.1693297793
 40
0.0985164967
  0
LINE
  5
221
100
AcDbEntity
  8
0
100
AcDbLine
 62
7
  6
CONTINUOUS
 10
20.7169767782
 20
1.170462078
 11
20.7825395137
 21
1.1682766535
  0
LINE
  5
222
100
AcDbEntity
  8
0
100
AcDbLine
 62
7
  6
CONTINUOUS
 10
20.8177513651
 20
1.1693297793
 11
20.947965719
 21
1.1693297793
  0
LINE
  5
223
100
AcDbEntity
  8
0
100
AcDbLine
 62
7
  6
CONTINUOUS
 10
20.6875370113
 20
1.170462078
 11
20.5573226574
 21
1.170462078
  0
LINE
  5
224
100
AcDbEntity
  8
0
100
AcDbLine
 62
7
  6
CONTINUOUS
 10
20.7486811426
 20
1.1987695462
 11
20.7486811426
 21
1.1432869085
  0
LINE
  5
225
100
AcDbEntity
  8
0
100
AcDbLine
 62
7
  6
CONTINUOUS
 10
20.7498134414
 20
1.1059210505
 11
20.7498134414
 21
0.9757066966
  0
LINE
  5
226
100
AcDbEntity
  8
0
100
AcDbLine
 62
7
  6
CONTINUOUS
 10
20.7486811426
 20
1.2338708068
 11
20.7486811426
 21
1.3640851607
  0
LINE
  5
227
100
AcDbEntity
  8
0
100
AcDbLine
 62
7
  6
CONTINUOUS
 10
21.0702539817
 20
1.2701043662
 11
21.4790138229
 21
1.3448360823
  0
LINE
  5
228
100
AcDbEntity
  8
0
100
AcDbLine
 62
7
  6
CONTINUOUS
 10
21.4790138229
 20
1.3448360823
 11
21.4790138229
 21
0.9779712941
  0
LINE
  5
229
100
AcDbEntity
  8
0
100
AcDbLine
 62
7
  6
CONTINUOUS
 10
21.4790138229
 20
0.9779712941
 11
21.069121683
 21
1.0617614
  0
LINE
  5
22A
100
AcDbEntity
  8
0
100
AcDbLine
 62
7
  6
CONTINUOUS
 10
21.0702539817
 20
1.2701043662
 11
21.069121683
 21
1.0617614
  0
LINE
  5
22B
100
AcDbEntity
  8
0
100
AcDbLine
 62
7
  6
CONTINUOUS
 10
21.4790138229
 20
1.1693297793
 11
21.3159628059
 21
1.1693297793
  0
LINE
  5
22C
100
AcDbEntity
  8
0
100
AcDbLine
 62
7
  6
CONTINUOUS
 10
21.2876553377
 20
1.1693297793
 11
21.2502894796
 21
1.1693297793
  0
LINE
  5
22D
100
AcDbEntity
  8
0
100
AcDbLine
 62
7
  6
CONTINUOUS
 10
21.2208497126
 20
1.1659328831
 11
21.0713862804
 21
1.1659328831
  0
LINE
  5
22E
100
AcDbEntity
  8
0
100
AcDbLine
 62
7
  6
CONTINUOUS
 10
20.4796138713
 20
1.5284908897
 11
20.4766766948
 21
0.9294458646
  0
ENDBLK
  5
22F
100
AcDbEntity
  8
0
  6
BYBLOCK
 62
0
100
AcDbBlockEnd
  0
BLOCK
  5
230
100
AcDbEntity
  8
0
100
AcDbBlockBegin
  2
*T1
 70
1
 10
0.0
 20
0.0
  3
*T1
  1

  0
LINE
  5
231
100
AcDbEntity
  8
0
100
AcDbLine
 62
2
  6
CONTINUOUS
 10
9.275
 20
0.0
 11
-0.0
 21
0.0
  0
LINE
  5
232
100
AcDbEntity
  8
0
100
AcDbLine
 62
2
  6
CONTINUOUS
 10
9.275
 20
0.0
 11
9.275
 21
1.25
  0
LINE
  5
233
100
AcDbEntity
  8
0
100
AcDbLine
 62
2
  6
CONTINUOUS
 10
9.275
 20
0.625
 11
-0.0
 21
0.625
  0
LINE
  5
234
100
AcDbEntity
  8
0
100
AcDbLine
 62
2
  6
CONTINUOUS
 10
9.275
 20
1.25
 11
-0.0
 21
1.25
  0
LINE
  5
235
100
AcDbEntity
  8
0
100
AcDbLine
 62
2
  6
CONTINUOUS
 10
6.8
 20
0.0
 11
6.8
 21
1.25
  0
LINE
  5
236
100
AcDbEntity
  8
0
100
AcDbLine
 62
2
  6
CONTINUOUS
 10
6.4
 20
0.0
 11
6.4
 21
0.625
  0
LINE
  5
237
100
AcDbEntity
  8
0
100
AcDbLine
 62
2
  6
CONTINUOUS
 10
5.9
 20
0.0
 11
5.9
 21
0.625
  0
LINE
  5
238
100
AcDbEntity
  8
0
100
AcDbLine
 62
2
  6
CONTINUOUS
 10
5.2
 20
0.0
 11
5.2
 21
0.625
  0
LINE
  5
239
100
AcDbEntity
  8
0
100
AcDbLine
 62
2
  6
CONTINUOUS
 10
4.1
 20
0.0
 11
4.1
 21
1.25
  0
LINE
  5
23A
100
AcDbEntity
  8
0
100
AcDbLine
 62
2
  6
CONTINUOUS
 10
-0.0
 20
0.0
 11
-0.0
 21
1.25
  0
MTEXT
  5
23B
100
AcDbEntity
  8
0
100
AcDbMText
 62
2
  6
CONTINUOUS
  7
STANDARD
 71
2
 72
1
 10
6.6
 20
0.325
 30
0.0
 11
1.0
 21
0.0
 31
0.0
 44
0.9
  1
2
 40
0.125
 41
0.2
  0
MTEXT
  5
23C
100
AcDbEntity
  8
0
100
AcDbMText
 62
2
  6
CONTINUOUS
  7
STANDARD
 71
2
 72
1
 10
6.15
 20
0.325
 30
0.0
 11
1.0
 21
0.0
 31
0.0
 44
0.9
  1
C
 40
0.125
 41
0.2
  0
MTEXT
  5
23D
100
AcDbEntity
  8
0
100
AcDbMText
 62
2
  6
CONTINUOUS
  7
STANDARD
 71
2
 72
1
 10
5.55
 20
0.325
 30
0.0
 11
1.0
 21
0.0
 31
0.0
 44
0.9
  1
1.000
 40
0.125
 41
1.0
  0
MTEXT
  5
23E
100
AcDbEntity
  8
0
100
AcDbMText
 62
2
  6
CONTINUOUS
  7
STANDARD
 71
2
 72
1
 10
4.65
 20
0.325
 30
0.0
 11
1.0
 21
0.0
 31
0.0
 44
0.9
  1
Oct-22-19
 40
0.125
 41
1.8
  0
MTEXT
  5
23F
100
AcDbEntity
  8
0
100
AcDbMText
 62
2
  6
CONTINUOUS
  7
STANDARD
 71
2
 72
1
 10
2.05
 20
0.4625
 30
0.0
 11
1.0
 21
0.0
 31
0.0
 44
0.9
  1
T-3A Sandwich ISO 05\PP to T
 40
0.125
 41
4.0
  0
MTEXT
  5
240
100
AcDbEntity
  8
0
100
AcDbMText
 62
2
  6
CONTINUOUS
  7
STANDARD
 71
1
 72
1
 10
6.45
 20
0.5625
 30
0.0
 11
1.0
 21
0.0
 31
0.0
 44
0.9
  1
SHEET
 40
0.06
 41
0.48
  0
MTEXT
  5
241
100
AcDbEntity
  8
0
100
AcDbMText
 62
2
  6
CONTINUOUS
  7
STANDARD
 71
1
 72
1
 10
5.95
 20
0.5625
 30
0.0
 11
1.0
 21
0.0
 31
0.0
 44
0.9
  1
DWG SIZE
 40
0.06
 41
0.768
  0
MTEXT
  5
242
100
AcDbEntity
  8
0
100
AcDbMText
 62
2
  6
CONTINUOUS
  7
STANDARD
 71
1
 72
1
 10
5.25
 20
0.5625
 30
0.0
 11
1.0
 21
0.0
 31
0.0
 44
0.9
  1
SCALE
 40
0.06
 41
0.48
  0
MTEXT
  5
243
100
AcDbEntity
  8
0
100
AcDbMText
 62
2
  6
CONTINUOUS
  7
STANDARD
 71
1
 72
1
 10
4.15
 20
0.5625
 30
0.0
 11
1.0
 21
0.0
 31
0.0
 44
0.9
  1
DATE
 40
0.06
 41
0.384
  0
MTEXT
  5
244
100
AcDbEntity
  8
0
100
AcDbMText
 62
2
  6
CONTINUOUS
  7
STANDARD
 71
1
 72
1
 10
0.05
 20
0.5625
 30
0.0
 11
1.0
 21
0.0
 31
0.0
 44
0.9
  1
DESCRIPTION
 40
0.06
 41
1.056
  0
MTEXT
  5
245
100
AcDbEntity
  8
0
100
AcDbMText
 62
2
  6
CONTINUOUS
  7
STANDARD
 71
2
 72
1
 10
5.45
 20
1.0375
 30
0.0
 11
1.0
 21
0.0
 31
0.0
 44
0.9
  1
ALL DIMENSIONS IN INCH\PVIEWS ARE THIRD ANGLE
 40
0.12
 41
4.224
  0
MTEXT
  5
246
100
AcDbEntity
  8
0
100
AcDbMText
 62
2
  6
CONTINUOUS
  7
STANDARD
 71
2
 72
1
 10
2.05
 20
0.95
 30
0.0
 11
1.0
 21
0.0
 31
0.0
 44
0.9
  1
CBP
 40
0.125
 41
0.6
  0
MTEXT
  5
247
100
AcDbEntity
  8
0
100
AcDbMText
 62
2
  6
CONTINUOUS
  7
STANDARD
 71
1
 72
1
 10
0.05
 20
1.1875
 30
0.0
 11
1.0
 21
0.0
 31
0.0
 44
0.9
  1
MODEL
 40
0.06
 41
0.48
  0
ENDBLK
  5
248
100
AcDbEntity
  8
0
  6
BYBLOCK
 62
0
100
AcDbBlockEnd
  0
BLOCK
  5
249
100
AcDbEntity
  8
0
100
AcDbBlockBegin
  2
*T2
 70
1
 10
0.0
 20
0.0
  3
*T2
  1

  0
LINE
  5
24A
100
AcDbEntity
  8
0
100
AcDbLine
 62
2
  6
CONTINUOUS
 10
0.0
 20
0.0
 11
9.055
 21
0.0
  0
LINE
  5
24B
100
AcDbEntity
  8
0
100
AcDbLine
 62
2
  6
CONTINUOUS
 10
0.0
 20
0.0
 11
0.0
 21
-2.094
  0
LINE
  5
24C
100
AcDbEntity
  8
0
100
AcDbLine
 62
2
  6
CONTINUOUS
 10
0.0
 20
-0.344
 11
9.055
 21
-0.344
  0
LINE
  5
24D
100
AcDbEntity
  8
0
100
AcDbLine
 62
2
  6
CONTINUOUS
 10
0.0
 20
-0.594
 11
9.055
 21
-0.594
  0
LINE
  5
24E
100
AcDbEntity
  8
0
100
AcDbLine
 62
2
  6
CONTINUOUS
 10
0.0
 20
-0.844
 11
9.055
 21
-0.844
  0
LINE
  5
24F
100
AcDbEntity
  8
0
100
AcDbLine
 62
2
  6
CONTINUOUS
 10
0.0
 20
-1.094
 11
9.055
 21
-1.094
  0
LINE
  5
250
100
AcDbEntity
  8
0
100
AcDbLine
 62
2
  6
CONTINUOUS
 10
0.0
 20
-1.344
 11
9.055
 21
-1.344
  0
LINE
  5
251
100
AcDbEntity
  8
0
100
AcDbLine
 62
2
  6
CONTINUOUS
 10
0.0
 20
-1.594
 11
9.055
 21
-1.594
  0
LINE
  5
252
100
AcDbEntity
  8
0
100
AcDbLine
 62
2
  6
CONTINUOUS
 10
0.0
 20
-1.844
 11
9.055
 21
-1.844
  0
LINE
  5
253
100
AcDbEntity
  8
0
100
AcDbLine
 62
2
  6
CONTINUOUS
 10
0.0
 20
-2.094
 11
9.055
 21
-2.094
  0
LINE
  5
254
100
AcDbEntity
  8
0
100
AcDbLine
 62
2
  6
CONTINUOUS
 10
3.055
 20
0.0
 11
3.055
 21
-2.094
  0
LINE
  5
255
100
AcDbEntity
  8
0
100
AcDbLine
 62
2
  6
CONTINUOUS
 10
9.055
 20
0.0
 11
9.055
 21
-2.094
  0
MTEXT
  5
256
100
AcDbEntity
  8
0
100
AcDbMText
 62
2
  6
CONTINUOUS
  7
STANDARD
 71
2
 72
1
 10
1.5275
 20
-0.0995
 30
0.0
 11
1.0
 21
0.0
 31
0.0
 44
0.9
  1
Technical Data
 40
0.145
 41
3.248
  0
MTEXT
  5
257
100
AcDbEntity
  8
0
100
AcDbMText
 62
2
  6
CONTINUOUS
  7
STANDARD
 71
2
 72
1
 10
4.555
 20
-0.0995
 30
0.0
 11
1.0
 21
0.0
 31
0.0
 44
0.9
  1
U.S. Units
 40
0.145
 41
2.32
  0
MTEXT
  5
258
100
AcDbEntity
  8
0
100
AcDbMText
 62
2
  6
CONTINUOUS
  7
STANDARD
 71
2
 72
1
 10
7.555
 20
-0.0995
 30
0.0
 11
1.0
 21
0.0
 31
0.0
 44
0.9
  1
Metric Units
 40
0.145
 41
2.784
  0
MTEXT
  5
259
100
AcDbEntity
  8
0
100
AcDbMText
 62
2
  6
CONTINUOUS
  7
STANDARD
 71
2
 72
1
 10
1.5275
 20
-0.4065
 30
0.0
 11
1.0
 21
0.0
 31
0.0
 44
0.9
  1
Cavity
 40
0.125
 41
1.2
  0
MTEXT
  5
25A
100
AcDbEntity
  8
0
100
AcDbMText
 62
2
  6
CONTINUOUS
  7
STANDARD
 71
2
 72
1
 10
6.055
 20
-0.4065
 30
0.0
 11
1.0
 21
0.0
 31
0.0
 44
0.9
  1
T-3A
 40
0.125
 41
0.8
  0
MTEXT
  5
25B
100
AcDbEntity
  8
0
100
AcDbMText
 62
2
  6
CONTINUOUS
  7
STANDARD
 71
2
 72
1
 10
1.5275
 20
-0.6565
 30
0.0
 11
1.0
 21
0.0
 31
0.0
 44
0.9
  1
Body Features
 40
0.125
 41
2.6
  0
MTEXT
  5
25C
100
AcDbEntity
  8
0
100
AcDbMText
 62
2
  6
CONTINUOUS
  7
STANDARD
 71
2
 72
1
 10
6.055
 20
-0.6565
 30
0.0
 11
1.0
 21
0.0
 31
0.0
 44
0.9
  1
P to T
 40
0.125
 41
1.2
  0
MTEXT
  5
25D
100
AcDbEntity
  8
0
100
AcDbMText
 62
2
  6
CONTINUOUS
  7
STANDARD
 71
2
 72
1
 10
1.5275
 20
-0.9065
 30
0.0
 11
1.0
 21
0.0
 31
0.0
 44
0.9
  1
Body Type
 40
0.125
 41
1.8
  0
MTEXT
  5
25E
100
AcDbEntity
  8
0
100
AcDbMText
 62
2
  6
CONTINUOUS
  7
STANDARD
 71
2
 72
1
 10
6.055
 20
-0.9065
 30
0.0
 11
1.0
 21
0.0
 31
0.0
 44
0.9
  1
Sandwich
 40
0.125
 41
1.6
  0
MTEXT
  5
25F
100
AcDbEntity
  8
0
100
AcDbMText
 62
2
  6
CONTINUOUS
  7
STANDARD
 71
2
 72
1
 10
1.5275
 20
-1.1565
 30
0.0
 11
1.0
 21
0.0
 31
0.0
 44
0.9
  1
Interface
 40
0.125
 41
1.8
  0
MTEXT
  5
260
100
AcDbEntity
  8
0
100
AcDbMText
 62
2
  6
CONTINUOUS
  7
STANDARD
 71
2
 72
1
 10
6.055
 20
-1.1565
 30
0.0
 11
1.0
 21
0.0
 31
0.0
 44
0.9
  1
ISO 05
 40
0.125
 41
1.2
  0
MTEXT
  5
261
100
AcDbEntity
  8
0
100
AcDbMText
 62
2
  6
CONTINUOUS
  7
STANDARD
 71
2
 72
1
 10
1.5275
 20
-1.4065
 30
0.0
 11
1.0
 21
0.0
 31
0.0
 44
0.9
  1
Open Cavity Quantity
 40
0.125
 41
4.0
  0
MTEXT
  5
262
100
AcDbEntity
  8
0
100
AcDbMText
 62
2
  6
CONTINUOUS
  7
STANDARD
 71
2
 72
1
 10
6.055
 20
-1.4065
 30
0.0
 11
1.0
 21
0.0
 31
0.0
 44
0.9
  1
1
 40
0.125
 41
0.2
  0
MTEXT
  5
263
100
AcDbEntity
  8
0
100
AcDbMText
 62
2
  6
CONTINUOUS
  7
STANDARD
 71
2
 72
1
 10
1.5275
 20
-1.6565
 30
0.0
 11
1.0
 21
0.0
 31
0.0
 44
0.9
  1
Stack Height
 40
0.125
 41
2.4
  0
MTEXT
  5
264
100
AcDbEntity
  8
0
100
AcDbMText
 62
2
  6
CONTINUOUS
  7
STANDARD
 71
2
 72
1
 10
4.555
 20
-1.6565
 30
0.0
 11
1.0
 21
0.0
 31
0.0
 44
0.9
  1
1.94 in.
 40
0.125
 41
1.6
  0
MTEXT
  5
265
100
AcDbEntity
  8
0
100
AcDbMText
 62
2
  6
CONTINUOUS
  7
STANDARD
 71
2
 72
1
 10
7.555
 20
-1.6565
 30
0.0
 11
1.0
 21
0.0
 31
0.0
 44
0.9
  1
49 mm
 40
0.125
 41
1.0
  0
MTEXT
  5
266
100
AcDbEntity
  8
0
100
AcDbMText
 62
2
  6
CONTINUOUS
  7
STANDARD
 71
2
 72
1
 10
1.5275
 20
-1.9065
 30
0.0
 11
1.0
 21
0.0
 31
0.0
 44
0.9
  1
Weight
 40
0.125
 41
1.2
  0
MTEXT
  5
267
100
AcDbEntity
  8
0
100
AcDbMText
 62
2
  6
CONTINUOUS
  7
STANDARD
 71
2
 72
1
 10
4.555
 20
-1.9065
 30
0.0
 11
1.0
 21
0.0
 31
0.0
 44
0.9
  1
1.556 lb.
 40
0.125
 41
1.8
  0
MTEXT
  5
268
100
AcDbEntity
  8
0
100
AcDbMText
 62
2
  6
CONTINUOUS
  7
STANDARD
 71
2
 72
1
 10
7.555
 20
-1.9065
 30
0.0
 11
1.0
 21
0.0
 31
0.0
 44
0.9
  1
0,706 kg.
 40
0.125
 41
1.8
  0
ENDBLK
  5
269
100
AcDbEntity
  8
0
  6
BYBLOCK
 62
0
100
AcDbBlockEnd
  0
ENDSEC
  0
SECTION
  2
ENTITIES
  0
IMAGE
  5
26A
100
AcDbEntity
  8
0
100
AcDbRasterImage
 62
7
  6
CONTINUOUS
 10
19.2297077316
 20
0.3094318264
 30
0.0
 11
0.0066666667
 21
0.0
 31
0.0
 12
0.0
 22
0.0066666667
 32
0.0
 13
369.0
 23
92.0
340
       2D8
 70
9
280
0
281
50
282
50
283
0
360
       2D2
 71
1
 91
2
 14
-0.5
 24
-0.5
 14
368.5
 24
91.5
  0
INSERT
  5
26B
100
AcDbEntity
  8
0
100
AcDbBlockReference
 62
2
  6
CONTINUOUS
  2
SUN_FIRST_THIRD_ANGLE_BL0
 10
20.4816717061
 20
1.2289683772
  0
ACAD_TABLE
  5
26C
100
AcDbEntity
  8
0
 62
2
  6
CONTINUOUS
100
AcDbBlockReference
  2
*T1
 10
12.42375
 20
0.30125
 30
0.0
100
AcDbTable
342
       2DA
343
20A
 11
1.0
 21
0.0
 31
0.0
 90
6
 91
4
 92
6
 93
20
 94
0
 95
0
 96
0
 70
1
 41
0.0
141
0.525
141
0.1
141
0.525
141
0.1
142
4.1
142
1.1
142
0.7
142
0.5
142
0.4
142
2.475
171
1
172
0
173
0
174
0
175
1
176
1
 91
33
178
0
145
0.0
301
CELL_VALUE
 90
4
  1
T-3A Sandwich ISO 05\PP to T
304
ACVALUE_END
170
2
140
0.125
171
1
172
0
173
0
174
0
175
1
176
1
 91
33
178
0
145
0.0
301
CELL_VALUE
 90
4
  1
Oct-22-19
304
ACVALUE_END
170
5
140
0.125
171
1
172
0
173
0
174
0
175
1
176
1
 91
33
178
0
145
0.0
301
CELL_VALUE
 90
4
  1
1.000
304
ACVALUE_END
170
5
140
0.125
171
1
172
0
173
0
174
0
175
1
176
1
 91
33
178
0
145
0.0
301
CELL_VALUE
 90
4
  1
C
304
ACVALUE_END
170
5
140
0.125
171
1
172
0
173
0
174
0
175
1
176
1
 91
33
178
0
145
0.0
301
CELL_VALUE
 90
4
  1
2
304
ACVALUE_END
170
5
140
0.125
171
1
172
0
173
0
174
0
175
1
176
1
 91
33
178
0
145
0.0
301
CELL_VALUE
 90
4
  1
 
304
ACVALUE_END
170
1
140
0.125
171
1
172
0
173
0
174
0
175
1
176
1
 91
33
178
0
145
0.0
301
CELL_VALUE
 90
4
  1
DESCRIPTION
304
ACVALUE_END
170
1
140
0.06
171
1
172
0
173
0
174
0
175
1
176
1
 91
33
178
0
145
0.0
301
CELL_VALUE
 90
4
  1
DATE
304
ACVALUE_END
170
1
140
0.06
171
1
172
0
173
0
174
0
175
1
176
1
 91
33
178
0
145
0.0
301
CELL_VALUE
 90
4
  1
SCALE
304
ACVALUE_END
170
1
140
0.06
171
1
172
0
173
0
174
0
175
1
176
1
 91
33
178
0
145
0.0
301
CELL_VALUE
 90
4
  1
DWG SIZE
304
ACVALUE_END
170
1
140
0.06
171
1
172
0
173
0
174
0
175
1
176
1
 91
33
178
0
145
0.0
301
CELL_VALUE
 90
4
  1
SHEET
304
ACVALUE_END
170
1
140
0.06
171
1
172
0
173
0
174
0
175
1
176
1
 91
33
178
0
145
0.0
301
CELL_VALUE
 90
4
  1
 
304
ACVALUE_END
170
1
140
0.125
171
1
172
0
173
0
174
0
175
1
176
1
 91
33
178
0
145
0.0
301
CELL_VALUE
 90
4
  1
CBP
304
ACVALUE_END
170
5
140
0.125
171
1
172
0
173
0
174
0
175
4
176
1
 91
33
178
0
145
0.0
301
CELL_VALUE
 90
4
  1
ALL DIMENSIONS IN INCH\PVIEWS ARE THIRD ANGLE
304
ACVALUE_END
170
5
140
0.12
171
1
172
0
173
1
174
0
175
1
176
1
 91
1
178
0
145
0.0
170
1
171
1
172
0
173
1
174
0
175
1
176
1
 91
1
178
0
145
0.0
170
1
171
1
172
0
173
1
174
0
175
1
176
1
 91
1
178
0
145
0.0
170
5
171
1
172
0
173
0
174
0
175
1
176
1
 91
33
178
0
145
0.0
301
CELL_VALUE
 90
4
  1
 
304
ACVALUE_END
170
1
140
0.125
171
1
172
0
173
0
174
0
175
1
176
1
 91
33
178
0
145
0.0
301
CELL_VALUE
 90
4
  1
MODEL
304
ACVALUE_END
170
1
140
0.06
171
1
172
0
173
0
174
0
175
1
176
1
 91
33
178
0
145
0.0
301
CELL_VALUE
 90
4
  1
 
304
ACVALUE_END
170
1
140
0.125
171
1
172
0
173
0
174
0
175
1
176
1
 91
33
178
0
145
0.0
301
CELL_VALUE
 90
4
  1
 
304
ACVALUE_END
170
1
140
0.125
171
1
172
0
173
0
174
0
175
1
176
1
 91
33
178
0
145
0.0
301
CELL_VALUE
 90
4
  1
 
304
ACVALUE_END
170
1
140
0.125
171
1
172
0
173
0
174
0
175
1
176
1
 91
33
178
0
145
0.0
301
CELL_VALUE
 90
4
  1
 
304
ACVALUE_END
170
1
140
0.125
171
1
172
0
173
0
174
0
175
1
176
1
 91
33
178
0
145
0.0
301
CELL_VALUE
 90
4
  1
 
304
ACVALUE_END
170
1
140
0.125
  0
ACAD_TABLE
  5
26D
100
AcDbEntity
  8
0
 62
2
  6
CONTINUOUS
100
AcDbBlockReference
  2
*T2
 10
12.4237499994
 20
16.47875
 30
0.0
100
AcDbTable
342
       2D9
343
20B
 11
1.0
 21
0.0
 31
0.0
 90
22
 91
8
 92
3
 93
16
 94
0
 95
0
 96
0
 41
0.028
141
0.344
141
0.25
141
0.25
141
0.25
141
0.25
141
0.25
141
0.25
141
0.25
142
3.055
142
3.0
142
3.0
171
1
172
0
173
0
174
0
175
1
176
1
 91
33
178
0
145
0.0
301
CELL_VALUE
 90
4
  1
Technical Data
304
ACVALUE_END
170
5
140
0.145
171
1
172
0
173
0
174
0
175
1
176
1
 91
33
178
0
145
0.0
301
CELL_VALUE
 90
4
  1
U.S. Units
304
ACVALUE_END
170
5
140
0.145
171
1
172
0
173
0
174
0
175
1
176
1
 91
33
178
0
145
0.0
301
CELL_VALUE
 90
4
  1
Metric Units
304
ACVALUE_END
170
5
140
0.145
171
1
172
0
173
0
174
0
175
1
176
1
 91
33
178
0
145
0.0
301
CELL_VALUE
 90
4
  1
Cavity
304
ACVALUE_END
170
5
140
0.125
171
1
172
0
173
0
174
0
175
2
176
1
 91
33
178
0
145
0.0
301
CELL_VALUE
 90
4
  1
T-3A
304
ACVALUE_END
170
5
140
0.125
171
1
172
0
173
1
174
0
175
1
176
1
 91
1
178
0
145
0.0
170
1
171
1
172
0
173
0
174
0
175
1
176
1
 91
33
178
0
145
0.0
301
CELL_VALUE
 90
4
  1
Body Features
304
ACVALUE_END
170
5
140
0.125
171
1
172
0
173
0
174
0
175
2
176
1
 91
33
178
0
145
0.0
301
CELL_VALUE
 90
4
  1
P to T
304
ACVALUE_END
170
5
140
0.125
171
1
172
0
173
1
174
0
175
1
176
1
 91
1
178
0
145
0.0
170
1
171
1
172
0
173
0
174
0
175
1
176
1
 91
33
178
0
145
0.0
301
CELL_VALUE
 90
4
  1
Body Type
304
ACVALUE_END
170
5
140
0.125
171
1
172
0
173
0
174
0
175
2
176
1
 91
33
178
0
145
0.0
301
CELL_VALUE
 90
4
  1
Sandwich
304
ACVALUE_END
170
5
140
0.125
171
1
172
0
173
1
174
0
175
1
176
1
 91
1
178
0
145
0.0
170
1
171
1
172
0
173
0
174
0
175
1
176
1
 91
33
178
0
145
0.0
301
CELL_VALUE
 90
4
  1
Interface
304
ACVALUE_END
170
5
140
0.125
171
1
172
0
173
0
174
0
175
2
176
1
 91
33
178
0
145
0.0
301
CELL_VALUE
 90
4
  1
ISO 05
304
ACVALUE_END
170
5
140
0.125
171
1
172
0
173
1
174
0
175
1
176
1
 91
1
178
0
145
0.0
170
1
171
1
172
0
173
0
174
0
175
1
176
1
 91
33
178
0
145
0.0
301
CELL_VALUE
 90
4
  1
Open Cavity Quantity
304
ACVALUE_END
170
5
140
0.125
171
1
172
0
173
0
174
0
175
2
176
1
 91
33
178
0
145
0.0
301
CELL_VALUE
 90
4
  1
1
304
ACVALUE_END
170
5
140
0.125
171
1
172
0
173
1
174
0
175
1
176
1
 91
1
178
0
145
0.0
170
1
171
1
172
0
173
0
174
0
175
1
176
1
 91
33
178
0
145
0.0
301
CELL_VALUE
 90
4
  1
Stack Height
304
ACVALUE_END
170
5
140
0.125
171
1
172
0
173
0
174
0
175
1
176
1
 91
33
178
0
145
0.0
301
CELL_VALUE
 90
4
  1
1.94 in.
304
ACVALUE_END
170
5
140
0.125
171
1
172
0
173
0
174
0
175
1
176
1
 91
33
178
0
145
0.0
301
CELL_VALUE
 90
4
  1
49 mm
304
ACVALUE_END
170
5
140
0.125
171
1
172
0
173
0
174
0
175
1
176
1
 91
33
178
0
145
0.0
301
CELL_VALUE
 90
4
  1
Weight
304
ACVALUE_END
170
5
140
0.125
171
1
172
0
173
0
174
0
175
1
176
1
 91
33
178
0
145
0.0
301
CELL_VALUE
 90
4
  1
1.556 lb.
304
ACVALUE_END
170
5
140
0.125
171
1
172
0
173
0
174
0
175
1
176
1
 91
33
178
0
145
0.0
301
CELL_VALUE
 90
4
  1
0,706 kg.
304
ACVALUE_END
170
5
140
0.125
  0
MTEXT
  5
26E
100
AcDbEntity
  8
0
100
AcDbMText
 62
2
  6
CONTINUOUS
  7
STANDARD
 71
1
 72
1
 10
0.52125
 20
5.75995
 30
0.0
 11
1.0
 21
0.0
 31
0.0
 44
0.6
  3
Notes\P \P1. Important: Carefully consider\P   the maximum system pressure. The\P   pressure rating of the manifold is\P   dependent on the manifold material,\P   with the port type/size a secondary\P   consideration. Manifolds\P   constructed of alu
  1
minum are not\P   rated for pressures higher than\P   3000 psi (210 bar), regardless of\P   the port type/size specified.
 40
0.1
 41
3.04
  0
LINE
  5
26F
100
AcDbEntity
  8
0
100
AcDbLine
 62
7
  6
CONTINUOUS
 10
0.30125
 20
0.30125
 11
0.30125
 21
16.69875
  0
LINE
  5
270
100
AcDbEntity
  8
0
100
AcDbLine
 62
7
  6
CONTINUOUS
 10
0.30125
 20
0.30125
 11
21.69875
 21
0.30125
  0
LINE
  5
271
100
AcDbEntity
  8
0
100
AcDbLine
 62
7
  6
CONTINUOUS
 10
0.30125
 20
16.69875
 11
21.69875
 21
16.69875
  0
LINE
  5
272
100
AcDbEntity
  8
0
100
AcDbLine
 62
7
  6
CONTINUOUS
 10
21.69875
 20
0.30125
 11
21.69875
 21
16.69875
  0
LINE
  5
273
100
AcDbEntity
  8
0
100
AcDbLine
 62
7
  6
CONTINUOUS
 10
9.7038486916
 20
10.3559527231
 11
10.0030432609
 21
10.6449525017
  0
LINE
  5
274
100
AcDbEntity
  8
0
100
AcDbLine
 62
7
  6
CONTINUOUS
 10
9.733792394
 20
10.3838198227
 11
10.0329869633
 21
10.6728196013
  0
LINE
  5
275
100
AcDbEntity
  8
0
100
AcDbLine
 62
7
  6
CONTINUOUS
 10
10.0030432609
 20
10.6449525017
 11
10.003978051
 21
10.6458386447
  0
LINE
  5
276
100
AcDbEntity
  8
0
100
AcDbLine
 62
7
  6
CONTINUOUS
 10
10.0329869633
 20
10.6728196013
 11
10.0338455078
 21
10.6736333186
  0
LINE
  5
277
100
AcDbEntity
  8
0
100
AcDbLine
 62
7
  6
CONTINUOUS
 10
10.0329795417
 20
10.6728275763
 11
10.0030432609
 21
10.6449525017
  0
LINE
  5
278
100
AcDbEntity
  8
0
100
AcDbLine
 62
7
  6
CONTINUOUS
 10
9.733792394
 20
10.3838198227
 11
9.7038486916
 21
10.3559527231
  0
LINE
  5
279
100
AcDbEntity
  8
0
100
AcDbLine
 62
7
  6
CONTINUOUS
 10
9.5417972026
 20
6.4286631636
 11
11.9566119114
 21
6.2611951948
  0
LINE
  5
27A
100
AcDbEntity
  8
0
100
AcDbLine
 62
7
  6
CONTINUOUS
 10
9.5417972026
 20
9.3264408142
 11
9.691070898
 21
9.4706281403
  0
LINE
  5
27B
100
AcDbEntity
  8
0
100
AcDbLine
 62
7
  6
CONTINUOUS
 10
9.5417972026
 20
9.3264408142
 11
9.5417972026
 21
6.4286631636
  0
LINE
  5
27C
100
AcDbEntity
  8
0
100
AcDbLine
 62
7
  6
CONTINUOUS
 10
9.691070898
 20
9.3948503466
 11
9.691070898
 21
10.3308325278
  0
LINE
  5
27D
100
AcDbEntity
  8
0
100
AcDbLine
 62
7
  6
CONTINUOUS
 10
9.9770372199
 20
10.274776296
 11
9.9690138362
 21
10.2370825996
  0
LINE
  5
27E
100
AcDbEntity
  8
0
100
AcDbLine
 62
7
  6
CONTINUOUS
 10
9.9690138362
 20
10.2370825996
 11
9.9690138362
 21
9.3011004184
  0
LINE
  5
27F
100
AcDbEntity
  8
0
100
AcDbLine
 62
7
  6
CONTINUOUS
 10
12.2671735318
 20
10.5178782365
 11
11.9679789626
 21
10.2288784579
  0
LINE
  5
280
100
AcDbEntity
  8
0
100
AcDbLine
 62
7
  6
CONTINUOUS
 10
12.2971172342
 20
10.4858579313
 11
11.997922665
 21
10.1968581527
  0
LINE
  5
281
100
AcDbEntity
  8
0
100
AcDbLine
 62
7
  6
CONTINUOUS
 10
11.5466667807
 20
10.1659221163
 11
11.5386433969
 21
10.1282284198
  0
LINE
  5
282
100
AcDbEntity
  8
0
100
AcDbLine
 62
7
  6
CONTINUOUS
 10
12.2971172342
 20
9.5498757502
 11
11.997922665
 21
9.2608759715
  0
LINE
  5
283
100
AcDbEntity
  8
0
100
AcDbLine
 62
7
  6
CONTINUOUS
 10
11.9566119114
 20
9.1589728453
 11
12.4582027974
 21
9.6434724651
  0
LINE
  5
284
100
AcDbEntity
  8
0
100
AcDbLine
 62
7
  6
CONTINUOUS
 10
11.5386433969
 20
10.1282284198
 11
11.5386433969
 21
9.1922462387
  0
LINE
  5
285
100
AcDbEntity
  8
0
100
AcDbLine
 62
7
  6
CONTINUOUS
 10
9.5417972026
 20
9.3264408142
 11
11.9566119114
 21
9.1589728453
  0
LINE
  5
286
100
AcDbEntity
  8
0
100
AcDbLine
 62
7
  6
CONTINUOUS
 10
11.5386433969
 20
9.1922462387
 11
9.9690138362
 21
9.3011004184
  0
LINE
  5
287
100
AcDbEntity
  8
0
100
AcDbLine
 62
7
  6
CONTINUOUS
 10
11.9566119114
 20
9.1589728453
 11
11.9566119114
 21
6.2611951948
  0
LINE
  5
288
100
AcDbEntity
  8
0
100
AcDbLine
 62
7
  6
CONTINUOUS
 10
11.997922665
 20
10.1968581527
 11
11.997922665
 21
9.2608759715
  0
LINE
  5
289
100
AcDbEntity
  8
0
100
AcDbLine
 62
7
  6
CONTINUOUS
 10
12.3098950279
 20
9.6537576439
 11
12.4582027974
 21
9.6434724651
  0
LINE
  5
28A
100
AcDbEntity
  8
0
100
AcDbLine
 62
7
  6
CONTINUOUS
 10
12.2971172342
 20
10.4858579313
 11
12.2971172342
 21
9.5498757502
  0
LINE
  5
28B
100
AcDbEntity
  8
0
100
AcDbLine
 62
7
  6
CONTINUOUS
 10
12.3098950279
 20
9.5749959455
 11
12.3098950279
 21
10.5109781266
  0
LINE
  5
28C
100
AcDbEntity
  8
0
100
AcDbLine
 62
7
  6
CONTINUOUS
 10
12.4582027974
 20
6.7456948146
 11
12.4582027974
 21
9.6434724651
  0
LINE
  5
28D
100
AcDbEntity
  8
0
100
AcDbLine
 62
7
  6
CONTINUOUS
 10
11.5386433969
 20
10.1282284198
 11
9.9690138362
 21
10.2370825996
  0
LINE
  5
28E
100
AcDbEntity
  8
0
100
AcDbLine
 62
7
  6
CONTINUOUS
 10
11.5466667807
 20
10.1659221163
 11
9.9770372199
 21
10.274776296
  0
LINE
  5
28F
100
AcDbEntity
  8
0
100
AcDbLine
 62
7
  6
CONTINUOUS
 10
11.9679789626
 20
10.2288784579
 11
11.997922665
 21
10.1968581527
  0
LINE
  5
290
100
AcDbEntity
  8
0
100
AcDbLine
 62
7
  6
CONTINUOUS
 10
11.9566119114
 20
6.2611951948
 11
12.4582027974
 21
6.7456948146
  0
LINE
  5
291
100
AcDbEntity
  8
0
100
AcDbLine
 62
7
  6
CONTINUOUS
 10
10.4542991452
 20
10.7357759429
 11
12.023928706
 21
10.6269217631
  0
LINE
  5
292
100
AcDbEntity
  8
0
100
AcDbLine
 62
7
  6
CONTINUOUS
 10
12.2671735318
 20
10.5178782365
 11
12.2971172342
 21
10.4858579313
  0
LINE
  5
293
100
AcDbEntity
  8
0
100
AcDbLine
 62
7
  6
CONTINUOUS
 10
12.2961824441
 20
10.536984465
 11
12.2663160177
 21
10.56477831
  0
SPLINE
  5
294
100
AcDbEntity
  8
0
100
AcDbSpline
 62
7
  6
CONTINUOUS
 70
0
 71
3
 72
56
 73
52
 74
0
 42
0.0000001
 43
0.0000001
 44
0.0000000001
 40
0.0
 40
0.0
 40
0.0
 40
0.0
 40
0.0314490832
 40
0.0472849053
 40
0.0631822688
 40
0.0951458114
 40
0.1112167178
 40
0.127338339
 40
0.1435054354
 40
0.1597127686
 40
0.175954892
 40
0.1922261879
 40
0.2085208122
 40
0.2248325014
 40
0.2574732833
 40
0.2737981108
 40
0.2901144962
 40
0.322688419
 40
0.3551544646
 40
0.3713370075
 40
0.3874758424
 40
0.4195946949
 40
0.4514854697
 40
0.4673413555
 40
0.4831310165
 40
0.5144959062
 40
0.5455817839
 40
0.5610255482
 40
0.5764016574
 40
0.6069506298
 40
0.6372633477
 40
0.6523468329
 40
0.6673852231
 40
0.6823844167
 40
0.6973505166
 40
0.7122901825
 40
0.727210385
 40
0.7421182012
 40
0.7570209777
 40
0.7719260624
 40
0.7868407993
 40
0.8167175482
 40
0.8317035856
 40
0.846726677
 40
0.8617927689
 40
0.8769075777
 40
0.9072911306
 40
0.9379178985
 40
0.9533373822
 40
0.9688287985
 40
1.0
 40
1.0
 40
1.0
 40
1.0
 10
10.1165003323
 20
8.0871798839
 30
0.0
 10
10.1245916799
 20
8.0866186102
 30
0.0
 10
10.1367261529
 20
8.0851757149
 30
0.0
 10
10.1527311913
 20
8.0820925061
 30
0.0
 10
10.1686999572
 20
8.0782148872
 30
0.0
 10
10.1844320539
 20
8.0731824899
 30
0.0
 10
10.1998021067
 20
8.0670441048
 30
0.0
 10
10.2111608899
 20
8.0618816986
 30
0.0
 10
10.2222984039
 20
8.0561810521
 30
0.0
 10
10.233187021
 20
8.0499553258
 30
0.0
 10
10.243800287
 20
8.0432207606
 30
0.0
 10
10.2541112037
 20
8.0359926897
 30
0.0
 10
10.2640944246
 20
8.0282884211
 30
0.0
 10
10.2769365571
 20
8.0174077783
 30
0.0
 10
10.2890252904
 20
8.0056507549
 30
0.0
 10
10.3002681179
 20
7.9931121143
 30
0.0
 10
10.3109160083
 20
7.9800859255
 30
0.0
 10
10.3230712175
 20
7.9629453521
 30
0.0
 10
10.3335860257
 20
7.9447916409
 30
0.0
 10
10.3409419145
 20
7.9297832527
 30
0.0
 10
10.3475571465
 20
7.9145316313
 30
0.0
 10
10.354452048
 20
7.8950110089
 30
0.0
 10
10.3594600863
 20
7.8749976479
 30
0.0
 10
10.3622910726
 20
7.858852253
 30
0.0
 10
10.3643255799
 20
7.8427241013
 30
0.0
 10
10.3654001337
 20
7.8225405275
 30
0.0
 10
10.3644940815
 20
7.8024368095
 30
0.0
 10
10.3625853166
 20
7.7865797522
 30
0.0
 10
10.3599072396
 20
7.7709749562
 30
0.0
 10
10.3551212387
 20
7.7518675423
 30
0.0
 10
10.3484325859
 20
7.7334191631
 30
0.0
 10
10.3419967623
 20
7.7192172759
 30
0.0
 10
10.3366464696
 20
7.7088771704
 30
0.0
 10
10.3307800076
 20
7.6988562898
 30
0.0
 10
10.3244104619
 20
7.6891777341
 30
0.0
 10
10.3175530164
 20
7.6798638228
 30
0.0
 10
10.3102247157
 20
7.6709350887
 30
0.0
 10
10.302441742
 20
7.6624125746
 30
0.0
 10
10.2942223478
 20
7.6543158836
 30
0.0
 10
10.2855856479
 20
7.646662532
 30
0.0
 10
10.2735357275
 20
7.6370709456
 30
0.0
 10
10.2607240239
 20
7.628434408
 30
0.0
 10
10.247274004
 20
7.6208318601
 30
0.0
 10
10.2368637842
 20
7.6156455683
 30
0.0
 10
10.2261677486
 20
7.6109943326
 30
0.0
 10
10.2115345722
 20
7.6055144308
 30
0.0
 10
10.1926359603
 20
7.6000610416
 30
0.0
 10
10.1732044927
 20
7.5965456979
 30
0.0
 10
10.1574132245
 20
7.5949008357
 30
0.0
 10
10.1414204788
 20
7.5940394661
 30
0.0
 10
10.1293630602
 20
7.5942872865
 30
0.0
 10
10.1213431877
 20
7.5948433209
 30
0.0
  0
SPLINE
  5
295
100
AcDbEntity
  8
0
100
AcDbSpline
 62
7
  6
CONTINUOUS
 70
0
 71
3
 72
56
 73
52
 74
0
 42
0.0000001
 43
0.0000001
 44
0.0000000001
 40
0.0
 40
0.0
 40
0.0
 40
0.0
 40
0.0314490833
 40
0.0472849055
 40
0.0631822691
 40
0.0951458118
 40
0.1112167181
 40
0.1273383393
 40
0.1435054358
 40
0.1597127689
 40
0.1759548923
 40
0.1922261882
 40
0.2085208125
 40
0.2248325017
 40
0.2574732836
 40
0.2737981111
 40
0.2901144966
 40
0.3226884195
 40
0.3551544653
 40
0.3713370083
 40
0.3874758434
 40
0.4195946961
 40
0.451485471
 40
0.4673413568
 40
0.4831310177
 40
0.5144959071
 40
0.5455817842
 40
0.5610255482
 40
0.5764016572
 40
0.6069506292
 40
0.6372633472
 40
0.6523468328
 40
0.6673852237
 40
0.6823844181
 40
0.697350519
 40
0.712290186
 40
0.7272103893
 40
0.7421182058
 40
0.757020982
 40
0.771926066
 40
0.7868408021
 40
0.8167175492
 40
0.8317035856
 40
0.8467266761
 40
0.8617927671
 40
0.8769075752
 40
0.9072911269
 40
0.9379178942
 40
0.9533373788
 40
0.968828797
 40
1.0
 40
1.0
 40
1.0
 40
1.0
 10
10.1213432771
 20
7.5948433126
 30
0.0
 10
10.1132519294
 20
7.5954045863
 30
0.0
 10
10.1011174564
 20
7.5968474816
 30
0.0
 10
10.0851124179
 20
7.5999306904
 30
0.0
 10
10.069143652
 20
7.6038083093
 30
0.0
 10
10.0534115552
 20
7.6088407066
 30
0.0
 10
10.0380415024
 20
7.6149790917
 30
0.0
 10
10.0266827193
 20
7.620141498
 30
0.0
 10
10.0155452052
 20
7.6258421444
 30
0.0
 10
10.0046565882
 20
7.6320678708
 30
0.0
 10
9.9940433222
 20
7.638802436
 30
0.0
 10
9.9837324055
 20
7.6460305069
 30
0.0
 10
9.9737491846
 20
7.6537347756
 30
0.0
 10
9.9609070521
 20
7.6646154183
 30
0.0
 10
9.9488183188
 20
7.6763724417
 30
0.0
 10
9.9375754913
 20
7.6889110824
 30
0.0
 10
9.9269276008
 20
7.7019372712
 30
0.0
 10
9.9147723916
 20
7.7190778447
 30
0.0
 10
9.9042575834
 20
7.7372315561
 30
0.0
 10
9.8969016946
 20
7.7522399444
 30
0.0
 10
9.8902864625
 20
7.7674915659
 30
0.0
 10
9.8833915611
 20
7.7870121884
 30
0.0
 10
9.8783835229
 20
7.8070255495
 30
0.0
 10
9.8755525366
 20
7.8231709444
 30
0.0
 10
9.8735180294
 20
7.8392990961
 30
0.0
 10
9.8724434756
 20
7.8594826696
 30
0.0
 10
9.8733495279
 20
7.8795863873
 30
0.0
 10
9.8752582928
 20
7.8954434443
 30
0.0
 10
9.8779363697
 20
7.91104824
 30
0.0
 10
9.8827223706
 20
7.9301556539
 30
0.0
 10
9.8894110234
 20
7.9486040331
 30
0.0
 10
9.8958468471
 20
7.9628059206
 30
0.0
 10
9.9011971401
 20
7.9731460265
 30
0.0
 10
9.9070636024
 20
7.9831669076
 30
0.0
 10
9.9134331485
 20
7.9928454639
 30
0.0
 10
9.9202905947
 20
8.0021593757
 30
0.0
 10
9.9276188959
 20
8.0110881101
 30
0.0
 10
9.9354018697
 20
8.0196106244
 30
0.0
 10
9.9436212639
 20
8.0277073151
 30
0.0
 10
9.9522579637
 20
8.0353606662
 30
0.0
 10
9.9643078835
 20
8.0449522521
 30
0.0
 10
9.9771195864
 20
8.0535887889
 30
0.0
 10
9.9905696055
 20
8.0611913364
 30
0.0
 10
10.0009798245
 20
8.0663776279
 30
0.0
 10
10.0116758596
 20
8.0710288634
 30
0.0
 10
10.0263090352
 20
8.0765087649
 30
0.0
 10
10.0452076464
 20
8.0819621543
 30
0.0
 10
10.0646391137
 20
8.0854774983
 30
0.0
 10
10.0804303826
 20
8.0871223606
 30
0.0
 10
10.0964231293
 20
8.0879837301
 30
0.0
 10
10.1084805488
 20
8.0877359099
 30
0.0
 10
10.1165004218
 20
8.0871798755
 30
0.0
  0
SPLINE
  5
296
100
AcDbEntity
  8
0
100
AcDbSpline
 62
7
  6
CONTINUOUS
 70
0
 71
3
 72
56
 73
52
 74
0
 42
0.0000001
 43
0.0000001
 44
0.0000000001
 40
0.0
 40
0.0
 40
0.0
 40
0.0
 40
0.0314490832
 40
0.0472849053
 40
0.0631822688
 40
0.0951458114
 40
0.1112167178
 40
0.127338339
 40
0.1435054354
 40
0.1597127686
 40
0.175954892
 40
0.1922261879
 40
0.2085208122
 40
0.2248325014
 40
0.2574732833
 40
0.2737981108
 40
0.2901144962
 40
0.322688419
 40
0.3551544646
 40
0.3713370075
 40
0.3874758424
 40
0.4195946949
 40
0.4514854697
 40
0.4673413555
 40
0.4831310165
 40
0.5144959062
 40
0.5455817839
 40
0.5610255482
 40
0.5764016574
 40
0.6069506298
 40
0.6372633477
 40
0.6523468329
 40
0.6673852231
 40
0.6823844167
 40
0.6973505166
 40
0.7122901825
 40
0.727210385
 40
0.7421182012
 40
0.7570209777
 40
0.7719260624
 40
0.7868407993
 40
0.8167175482
 40
0.8317035856
 40
0.846726677
 40
0.8617927689
 40
0.8769075777
 40
0.9072911306
 40
0.9379178985
 40
0.9533373822
 40
0.9688287985
 40
1.0
 40
1.0
 40
1.0
 40
1.0
 10
11.1123699357
 20
7.1120776486
 30
0.0
 10
11.1204612834
 20
7.1115163749
 30
0.0
 10
11.1325957563
 20
7.1100734796
 30
0.0
 10
11.1486007947
 20
7.1069902708
 30
0.0
 10
11.1645695606
 20
7.1031126519
 30
0.0
 10
11.1803016573
 20
7.0980802546
 30
0.0
 10
11.1956717102
 20
7.0919418695
 30
0.0
 10
11.2070304933
 20
7.0867794632
 30
0.0
 10
11.2181680073
 20
7.0810788168
 30
0.0
 10
11.2290566244
 20
7.0748530905
 30
0.0
 10
11.2396698904
 20
7.0681185253
 30
0.0
 10
11.2499808071
 20
7.0608904544
 30
0.0
 10
11.259964028
 20
7.0531861857
 30
0.0
 10
11.2728061605
 20
7.042305543
 30
0.0
 10
11.2848948938
 20
7.0305485196
 30
0.0
 10
11.2961377213
 20
7.018009879
 30
0.0
 10
11.3067856117
 20
7.0049836902
 30
0.0
 10
11.3189408209
 20
6.9878431168
 30
0.0
 10
11.3294556292
 20
6.9696894055
 30
0.0
 10
11.3368115179
 20
6.9546810174
 30
0.0
 10
11.3434267499
 20
6.939429396
 30
0.0
 10
11.3503216514
 20
6.9199087736
 30
0.0
 10
11.3553296897
 20
6.8998954126
 30
0.0
 10
11.358160676
 20
6.8837500177
 30
0.0
 10
11.3601951833
 20
6.867621866
 30
0.0
 10
11.3612697372
 20
6.8474382922
 30
0.0
 10
11.3603636849
 20
6.8273345742
 30
0.0
 10
11.35845492
 20
6.8114775169
 30
0.0
 10
11.355776843
 20
6.7958727209
 30
0.0
 10
11.3509908421
 20
6.776765307
 30
0.0
 10
11.3443021893
 20
6.7583169278
 30
0.0
 10
11.3378663657
 20
6.7441150406
 30
0.0
 10
11.332516073
 20
6.7337749351
 30
0.0
 10
11.326649611
 20
6.7237540545
 30
0.0
 10
11.3202800654
 20
6.7140754988
 30
0.0
 10
11.3134226198
 20
6.7047615875
 30
0.0
 10
11.3060943191
 20
6.6958328534
 30
0.0
 10
11.2983113454
 20
6.6873103393
 30
0.0
 10
11.2900919513
 20
6.6792136483
 30
0.0
 10
11.2814552513
 20
6.6715602967
 30
0.0
 10
11.2694053309
 20
6.6619687103
 30
0.0
 10
11.2565936273
 20
6.6533321727
 30
0.0
 10
11.2431436074
 20
6.6457296248
 30
0.0
 10
11.2327333876
 20
6.640543333
 30
0.0
 10
11.222037352
 20
6.6358920973
 30
0.0
 10
11.2074041756
 20
6.6304121955
 30
0.0
 10
11.1885055637
 20
6.6249588063
 30
0.0
 10
11.1690740961
 20
6.6214434626
 30
0.0
 10
11.1532828279
 20
6.6197986004
 30
0.0
 10
11.1372900822
 20
6.6189372308
 30
0.0
 10
11.1252326636
 20
6.6191850512
 30
0.0
 10
11.1172127911
 20
6.6197410856
 30
0.0
  0
SPLINE
  5
297
100
AcDbEntity
  8
0
100
AcDbSpline
 62
7
  6
CONTINUOUS
 70
0
 71
3
 72
56
 73
52
 74
0
 42
0.0000001
 43
0.0000001
 44
0.0000000001
 40
0.0
 40
0.0
 40
0.0
 40
0.0
 40
0.0314490833
 40
0.0472849055
 40
0.0631822691
 40
0.0951458118
 40
0.1112167181
 40
0.1273383393
 40
0.1435054358
 40
0.1597127689
 40
0.1759548923
 40
0.1922261882
 40
0.2085208125
 40
0.2248325017
 40
0.2574732836
 40
0.2737981111
 40
0.2901144966
 40
0.3226884195
 40
0.3551544653
 40
0.3713370083
 40
0.3874758434
 40
0.4195946961
 40
0.451485471
 40
0.4673413568
 40
0.4831310177
 40
0.5144959071
 40
0.5455817842
 40
0.5610255482
 40
0.5764016572
 40
0.6069506292
 40
0.6372633472
 40
0.6523468328
 40
0.6673852237
 40
0.6823844181
 40
0.697350519
 40
0.712290186
 40
0.7272103893
 40
0.7421182058
 40
0.757020982
 40
0.771926066
 40
0.7868408021
 40
0.8167175492
 40
0.8317035856
 40
0.8467266761
 40
0.8617927671
 40
0.8769075752
 40
0.9072911269
 40
0.9379178942
 40
0.9533373788
 40
0.968828797
 40
1.0
 40
1.0
 40
1.0
 40
1.0
 10
11.1172128805
 20
6.6197410773
 30
0.0
 10
11.1091215328
 20
6.6203023509
 30
0.0
 10
11.0969870598
 20
6.6217452463
 30
0.0
 10
11.0809820213
 20
6.6248284551
 30
0.0
 10
11.0650132554
 20
6.628706074
 30
0.0
 10
11.0492811586
 20
6.6337384713
 30
0.0
 10
11.0339111058
 20
6.6398768564
 30
0.0
 10
11.0225523227
 20
6.6450392627
 30
0.0
 10
11.0114148087
 20
6.6507399091
 30
0.0
 10
11.0005261916
 20
6.6569656355
 30
0.0
 10
10.9899129256
 20
6.6637002007
 30
0.0
 10
10.9796020089
 20
6.6709282716
 30
0.0
 10
10.969618788
 20
6.6786325402
 30
0.0
 10
10.9567766555
 20
6.689513183
 30
0.0
 10
10.9446879222
 20
6.7012702064
 30
0.0
 10
10.9334450947
 20
6.713808847
 30
0.0
 10
10.9227972042
 20
6.7268350359
 30
0.0
 10
10.910641995
 20
6.7439756094
 30
0.0
 10
10.9001271868
 20
6.7621293208
 30
0.0
 10
10.892771298
 20
6.7771377091
 30
0.0
 10
10.8861560659
 20
6.7923893306
 30
0.0
 10
10.8792611645
 20
6.8119099531
 30
0.0
 10
10.8742531263
 20
6.8319233142
 30
0.0
 10
10.87142214
 20
6.8480687091
 30
0.0
 10
10.8693876328
 20
6.8641968608
 30
0.0
 10
10.868313079
 20
6.8843804343
 30
0.0
 10
10.8692191313
 20
6.904484152
 30
0.0
 10
10.8711278962
 20
6.920341209
 30
0.0
 10
10.8738059731
 20
6.9359460047
 30
0.0
 10
10.878591974
 20
6.9550534186
 30
0.0
 10
10.8852806268
 20
6.9735017978
 30
0.0
 10
10.8917164505
 20
6.9877036853
 30
0.0
 10
10.8970667435
 20
6.9980437912
 30
0.0
 10
10.9029332058
 20
7.0080646723
 30
0.0
 10
10.9093027519
 20
7.0177432286
 30
0.0
 10
10.9161601981
 20
7.0270571404
 30
0.0
 10
10.9234884993
 20
7.0359858748
 30
0.0
 10
10.9312714731
 20
7.0445083891
 30
0.0
 10
10.9394908673
 20
7.0526050798
 30
0.0
 10
10.9481275671
 20
7.0602584309
 30
0.0
 10
10.9601774869
 20
7.0698500168
 30
0.0
 10
10.9729891898
 20
7.0784865536
 30
0.0
 10
10.9864392089
 20
7.0860891011
 30
0.0
 10
10.996849428
 20
7.0912753926
 30
0.0
 10
11.007545463
 20
7.0959266281
 30
0.0
 10
11.0221786387
 20
7.1014065296
 30
0.0
 10
11.0410772498
 20
7.106859919
 30
0.0
 10
11.0605087172
 20
7.1103752629
 30
0.0
 10
11.076299986
 20
7.1120201253
 30
0.0
 10
11.0922927328
 20
7.1128814948
 30
0.0
 10
11.1043501522
 20
7.1126336746
 30
0.0
 10
11.1123700252
 20
7.1120776402
 30
0.0
  0
SPLINE
  5
298
100
AcDbEntity
  8
0
100
AcDbSpline
 62
7
  6
CONTINUOUS
 70
0
 71
3
 72
56
 73
52
 74
0
 42
0.0000001
 43
0.0000001
 44
0.0000000001
 40
0.0
 40
0.0
 40
0.0
 40
0.0
 40
0.0314490832
 40
0.0472849053
 40
0.0631822688
 40
0.0951458114
 40
0.1112167178
 40
0.127338339
 40
0.1435054354
 40
0.1597127686
 40
0.175954892
 40
0.1922261879
 40
0.2085208122
 40
0.2248325014
 40
0.2574732833
 40
0.2737981108
 40
0.2901144962
 40
0.322688419
 40
0.3551544646
 40
0.3713370075
 40
0.3874758424
 40
0.4195946949
 40
0.4514854697
 40
0.4673413555
 40
0.4831310165
 40
0.5144959062
 40
0.5455817839
 40
0.5610255482
 40
0.5764016574
 40
0.6069506298
 40
0.6372633477
 40
0.6523468329
 40
0.6673852231
 40
0.6823844167
 40
0.6973505166
 40
0.7122901825
 40
0.727210385
 40
0.7421182012
 40
0.7570209777
 40
0.7719260624
 40
0.7868407993
 40
0.8167175482
 40
0.8317035856
 40
0.846726677
 40
0.8617927689
 40
0.8769075777
 40
0.9072911306
 40
0.9379178985
 40
0.9533373822
 40
0.9688287985
 40
1.0
 40
1.0
 40
1.0
 40
1.0
 10
10.6902602896
 20
7.6552236846
 30
0.0
 10
10.6983516373
 20
7.6546624109
 30
0.0
 10
10.7104861102
 20
7.6532195156
 30
0.0
 10
10.7264911486
 20
7.6501363068
 30
0.0
 10
10.7424599145
 20
7.646258688
 30
0.0
 10
10.7581920112
 20
7.6412262906
 30
0.0
 10
10.7735620641
 20
7.6350879056
 30
0.0
 10
10.7849208472
 20
7.6299254993
 30
0.0
 10
10.7960583612
 20
7.6242248529
 30
0.0
 10
10.8069469783
 20
7.6179991265
 30
0.0
 10
10.8175602443
 20
7.6112645614
 30
0.0
 10
10.827871161
 20
7.6040364905
 30
0.0
 10
10.8378543819
 20
7.5963322218
 30
0.0
 10
10.8506965144
 20
7.5854515791
 30
0.0
 10
10.8627852477
 20
7.5736945557
 30
0.0
 10
10.8740280752
 20
7.5611559151
 30
0.0
 10
10.8846759656
 20
7.5481297262
 30
0.0
 10
10.8968311748
 20
7.5309891529
 30
0.0
 10
10.907345983
 20
7.5128354416
 30
0.0
 10
10.9147018718
 20
7.4978270534
 30
0.0
 10
10.9213171038
 20
7.4825754321
 30
0.0
 10
10.9282120053
 20
7.4630548097
 30
0.0
 10
10.9332200436
 20
7.4430414486
 30
0.0
 10
10.9360510299
 20
7.4268960538
 30
0.0
 10
10.9380855372
 20
7.410767902
 30
0.0
 10
10.939160091
 20
7.3905843283
 30
0.0
 10
10.9382540388
 20
7.3704806103
 30
0.0
 10
10.9363452739
 20
7.3546235529
 30
0.0
 10
10.9336671969
 20
7.339018757
 30
0.0
 10
10.928881196
 20
7.319911343
 30
0.0
 10
10.9221925432
 20
7.3014629639
 30
0.0
 10
10.9157567196
 20
7.2872610766
 30
0.0
 10
10.9104064269
 20
7.2769209711
 30
0.0
 10
10.9045399649
 20
7.2669000906
 30
0.0
 10
10.8981704193
 20
7.2572215349
 30
0.0
 10
10.8913129737
 20
7.2479076236
 30
0.0
 10
10.883984673
 20
7.2389788895
 30
0.0
 10
10.8762016993
 20
7.2304563754
 30
0.0
 10
10.8679823052
 20
7.2223596844
 30
0.0
 10
10.8593456052
 20
7.2147063327
 30
0.0
 10
10.8472956848
 20
7.2051147463
 30
0.0
 10
10.8344839812
 20
7.1964782088
 30
0.0
 10
10.8210339613
 20
7.1888756608
 30
0.0
 10
10.8106237415
 20
7.1836893691
 30
0.0
 10
10.7999277059
 20
7.1790381334
 30
0.0
 10
10.7852945295
 20
7.1735582316
 30
0.0
 10
10.7663959176
 20
7.1681048423
 30
0.0
 10
10.74696445
 20
7.1645894986
 30
0.0
 10
10.7311731818
 20
7.1629446364
 30
0.0
 10
10.7151804361
 20
7.1620832668
 30
0.0
 10
10.7031230175
 20
7.1623310873
 30
0.0
 10
10.695103145
 20
7.1628871217
 30
0.0
  0
SPLINE
  5
299
100
AcDbEntity
  8
0
100
AcDbSpline
 62
7
  6
CONTINUOUS
 70
0
 71
3
 72
56
 73
52
 74
0
 42
0.0000001
 43
0.0000001
 44
0.0000000001
 40
0.0
 40
0.0
 40
0.0
 40
0.0
 40
0.0314490833
 40
0.0472849055
 40
0.0631822691
 40
0.0951458118
 40
0.1112167181
 40
0.1273383393
 40
0.1435054358
 40
0.1597127689
 40
0.1759548923
 40
0.1922261882
 40
0.2085208125
 40
0.2248325017
 40
0.2574732836
 40
0.2737981111
 40
0.2901144966
 40
0.3226884195
 40
0.3551544653
 40
0.3713370083
 40
0.3874758434
 40
0.4195946961
 40
0.451485471
 40
0.4673413568
 40
0.4831310177
 40
0.5144959071
 40
0.5455817842
 40
0.5610255482
 40
0.5764016572
 40
0.6069506292
 40
0.6372633472
 40
0.6523468328
 40
0.6673852237
 40
0.6823844181
 40
0.697350519
 40
0.712290186
 40
0.7272103893
 40
0.7421182058
 40
0.757020982
 40
0.771926066
 40
0.7868408021
 40
0.8167175492
 40
0.8317035856
 40
0.8467266761
 40
0.8617927671
 40
0.8769075752
 40
0.9072911269
 40
0.9379178942
 40
0.9533373788
 40
0.968828797
 40
1.0
 40
1.0
 40
1.0
 40
1.0
 10
10.6951032344
 20
7.1628871133
 30
0.0
 10
10.6870118867
 20
7.163448387
 30
0.0
 10
10.6748774137
 20
7.1648912823
 30
0.0
 10
10.6588723752
 20
7.1679744912
 30
0.0
 10
10.6429036093
 20
7.17185211
 30
0.0
 10
10.6271715125
 20
7.1768845074
 30
0.0
 10
10.6118014597
 20
7.1830228925
 30
0.0
 10
10.6004426766
 20
7.1881852988
 30
0.0
 10
10.5893051626
 20
7.1938859452
 30
0.0
 10
10.5784165455
 20
7.2001116715
 30
0.0
 10
10.5678032795
 20
7.2068462367
 30
0.0
 10
10.5574923628
 20
7.2140743076
 30
0.0
 10
10.5475091419
 20
7.2217785763
 30
0.0
 10
10.5346670094
 20
7.232659219
 30
0.0
 10
10.5225782761
 20
7.2444162424
 30
0.0
 10
10.5113354486
 20
7.2569548831
 30
0.0
 10
10.5006875581
 20
7.269981072
 30
0.0
 10
10.4885323489
 20
7.2871216455
 30
0.0
 10
10.4780175407
 20
7.3052753568
 30
0.0
 10
10.4706616519
 20
7.3202837451
 30
0.0
 10
10.4640464198
 20
7.3355353666
 30
0.0
 10
10.4571515184
 20
7.3550559891
 30
0.0
 10
10.4521434802
 20
7.3750693503
 30
0.0
 10
10.4493124939
 20
7.3912147452
 30
0.0
 10
10.4472779867
 20
7.4073428969
 30
0.0
 10
10.4462034329
 20
7.4275264703
 30
0.0
 10
10.4471094852
 20
7.4476301881
 30
0.0
 10
10.4490182501
 20
7.4634872451
 30
0.0
 10
10.451696327
 20
7.4790920408
 30
0.0
 10
10.4564823279
 20
7.4981994546
 30
0.0
 10
10.4631709807
 20
7.5166478339
 30
0.0
 10
10.4696068044
 20
7.5308497214
 30
0.0
 10
10.4749570974
 20
7.5411898273
 30
0.0
 10
10.4808235597
 20
7.5512107084
 30
0.0
 10
10.4871931058
 20
7.5608892647
 30
0.0
 10
10.494050552
 20
7.5702031765
 30
0.0
 10
10.5013788532
 20
7.5791319109
 30
0.0
 10
10.509161827
 20
7.5876544252
 30
0.0
 10
10.5173812212
 20
7.5957511159
 30
0.0
 10
10.526017921
 20
7.603404467
 30
0.0
 10
10.5380678408
 20
7.6129960528
 30
0.0
 10
10.5508795437
 20
7.6216325897
 30
0.0
 10
10.5643295628
 20
7.6292351372
 30
0.0
 10
10.5747397818
 20
7.6344214286
 30
0.0
 10
10.5854358169
 20
7.6390726641
 30
0.0
 10
10.6000689926
 20
7.6445525656
 30
0.0
 10
10.6189676037
 20
7.650005955
 30
0.0
 10
10.638399071
 20
7.653521299
 30
0.0
 10
10.6541903399
 20
7.6551661614
 30
0.0
 10
10.6701830867
 20
7.6560275308
 30
0.0
 10
10.6822405061
 20
7.6557797107
 30
0.0
 10
10.6902603791
 20
7.6552236763
 30
0.0
  0
SPLINE
  5
29A
100
AcDbEntity
  8
0
100
AcDbSpline
 62
7
  6
CONTINUOUS
 70
0
 71
3
 72
56
 73
52
 74
0
 42
0.0000001
 43
0.0000001
 44
0.0000000001
 40
0.0
 40
0.0
 40
0.0
 40
0.0
 40
0.0314490832
 40
0.0472849053
 40
0.0631822688
 40
0.0951458114
 40
0.1112167178
 40
0.127338339
 40
0.1435054354
 40
0.1597127686
 40
0.175954892
 40
0.1922261879
 40
0.2085208122
 40
0.2248325014
 40
0.2574732833
 40
0.2737981108
 40
0.2901144962
 40
0.322688419
 40
0.3551544646
 40
0.3713370075
 40
0.3874758424
 40
0.4195946949
 40
0.4514854697
 40
0.4673413555
 40
0.4831310165
 40
0.5144959062
 40
0.5455817839
 40
0.5610255482
 40
0.5764016574
 40
0.6069506298
 40
0.6372633477
 40
0.6523468329
 40
0.6673852231
 40
0.6823844167
 40
0.6973505166
 40
0.7122901825
 40
0.727210385
 40
0.7421182012
 40
0.7570209777
 40
0.7719260624
 40
0.7868407993
 40
0.8167175482
 40
0.8317035856
 40
0.846726677
 40
0.8617927689
 40
0.8769075777
 40
0.9072911306
 40
0.9379178985
 40
0.9533373822
 40
0.9688287985
 40
1.0
 40
1.0
 40
1.0
 40
1.0
 10
10.6902602896
 20
8.4395553067
 30
0.0
 10
10.6983516373
 20
8.4389940331
 30
0.0
 10
10.7104861102
 20
8.4375511378
 30
0.0
 10
10.7264911486
 20
8.4344679289
 30
0.0
 10
10.7424599145
 20
8.4305903101
 30
0.0
 10
10.7581920112
 20
8.4255579128
 30
0.0
 10
10.7735620641
 20
8.4194195277
 30
0.0
 10
10.7849208472
 20
8.4142571214
 30
0.0
 10
10.7960583612
 20
8.408556475
 30
0.0
 10
10.8069469783
 20
8.4023307487
 30
0.0
 10
10.8175602443
 20
8.3955961835
 30
0.0
 10
10.827871161
 20
8.3883681126
 30
0.0
 10
10.8378543819
 20
8.3806638439
 30
0.0
 10
10.8506965144
 20
8.3697832012
 30
0.0
 10
10.8627852477
 20
8.3580261778
 30
0.0
 10
10.8740280752
 20
8.3454875372
 30
0.0
 10
10.8846759656
 20
8.3324613483
 30
0.0
 10
10.8968311748
 20
8.315320775
 30
0.0
 10
10.907345983
 20
8.2971670637
 30
0.0
 10
10.9147018718
 20
8.2821586756
 30
0.0
 10
10.9213171038
 20
8.2669070542
 30
0.0
 10
10.9282120053
 20
8.2473864318
 30
0.0
 10
10.9332200436
 20
8.2273730708
 30
0.0
 10
10.9360510299
 20
8.2112276759
 30
0.0
 10
10.9380855372
 20
8.1950995241
 30
0.0
 10
10.939160091
 20
8.1749159504
 30
0.0
 10
10.9382540388
 20
8.1548122324
 30
0.0
 10
10.9363452739
 20
8.1389551751
 30
0.0
 10
10.9336671969
 20
8.1233503791
 30
0.0
 10
10.928881196
 20
8.1042429652
 30
0.0
 10
10.9221925432
 20
8.085794586
 30
0.0
 10
10.9157567196
 20
8.0715926987
 30
0.0
 10
10.9104064269
 20
8.0612525933
 30
0.0
 10
10.9045399649
 20
8.0512317127
 30
0.0
 10
10.8981704193
 20
8.041553157
 30
0.0
 10
10.8913129737
 20
8.0322392457
 30
0.0
 10
10.883984673
 20
8.0233105116
 30
0.0
 10
10.8762016993
 20
8.0147879975
 30
0.0
 10
10.8679823052
 20
8.0066913065
 30
0.0
 10
10.8593456052
 20
7.9990379549
 30
0.0
 10
10.8472956848
 20
7.9894463685
 30
0.0
 10
10.8344839812
 20
7.9808098309
 30
0.0
 10
10.8210339613
 20
7.9732072829
 30
0.0
 10
10.8106237415
 20
7.9680209912
 30
0.0
 10
10.7999277059
 20
7.9633697555
 30
0.0
 10
10.7852945295
 20
7.9578898537
 30
0.0
 10
10.7663959176
 20
7.9524364645
 30
0.0
 10
10.74696445
 20
7.9489211208
 30
0.0
 10
10.7311731818
 20
7.9472762586
 30
0.0
 10
10.7151804361
 20
7.9464148889
 30
0.0
 10
10.7031230175
 20
7.9466627094
 30
0.0
 10
10.695103145
 20
7.9472187438
 30
0.0
  0
SPLINE
  5
29B
100
AcDbEntity
  8
0
100
AcDbSpline
 62
7
  6
CONTINUOUS
 70
0
 71
3
 72
56
 73
52
 74
0
 42
0.0000001
 43
0.0000001
 44
0.0000000001
 40
0.0
 40
0.0
 40
0.0
 40
0.0
 40
0.0314490833
 40
0.0472849055
 40
0.0631822691
 40
0.0951458118
 40
0.1112167181
 40
0.1273383393
 40
0.1435054358
 40
0.1597127689
 40
0.1759548923
 40
0.1922261882
 40
0.2085208125
 40
0.2248325017
 40
0.2574732836
 40
0.2737981111
 40
0.2901144966
 40
0.3226884195
 40
0.3551544653
 40
0.3713370083
 40
0.3874758434
 40
0.4195946961
 40
0.451485471
 40
0.4673413568
 40
0.4831310177
 40
0.5144959071
 40
0.5455817842
 40
0.5610255482
 40
0.5764016572
 40
0.6069506292
 40
0.6372633472
 40
0.6523468328
 40
0.6673852237
 40
0.6823844181
 40
0.697350519
 40
0.712290186
 40
0.7272103893
 40
0.7421182058
 40
0.757020982
 40
0.771926066
 40
0.7868408021
 40
0.8167175492
 40
0.8317035856
 40
0.8467266761
 40
0.8617927671
 40
0.8769075752
 40
0.9072911269
 40
0.9379178942
 40
0.9533373788
 40
0.968828797
 40
1.0
 40
1.0
 40
1.0
 40
1.0
 10
10.6951032344
 20
7.9472187355
 30
0.0
 10
10.6870118867
 20
7.9477800091
 30
0.0
 10
10.6748774137
 20
7.9492229045
 30
0.0
 10
10.6588723752
 20
7.9523061133
 30
0.0
 10
10.6429036093
 20
7.9561837322
 30
0.0
 10
10.6271715125
 20
7.9612161295
 30
0.0
 10
10.6118014597
 20
7.9673545146
 30
0.0
 10
10.6004426766
 20
7.9725169209
 30
0.0
 10
10.5893051626
 20
7.9782175673
 30
0.0
 10
10.5784165455
 20
7.9844432937
 30
0.0
 10
10.5678032795
 20
7.9911778589
 30
0.0
 10
10.5574923628
 20
7.9984059298
 30
0.0
 10
10.5475091419
 20
8.0061101984
 30
0.0
 10
10.5346670094
 20
8.0169908412
 30
0.0
 10
10.5225782761
 20
8.0287478646
 30
0.0
 10
10.5113354486
 20
8.0412865052
 30
0.0
 10
10.5006875581
 20
8.0543126941
 30
0.0
 10
10.4885323489
 20
8.0714532676
 30
0.0
 10
10.4780175407
 20
8.089606979
 30
0.0
 10
10.4706616519
 20
8.1046153672
 30
0.0
 10
10.4640464198
 20
8.1198669888
 30
0.0
 10
10.4571515184
 20
8.1393876113
 30
0.0
 10
10.4521434802
 20
8.1594009724
 30
0.0
 10
10.4493124939
 20
8.1755463673
 30
0.0
 10
10.4472779867
 20
8.191674519
 30
0.0
 10
10.4462034329
 20
8.2118580925
 30
0.0
 10
10.4471094852
 20
8.2319618102
 30
0.0
 10
10.4490182501
 20
8.2478188672
 30
0.0
 10
10.451696327
 20
8.2634236629
 30
0.0
 10
10.4564823279
 20
8.2825310768
 30
0.0
 10
10.4631709807
 20
8.300979456
 30
0.0
 10
10.4696068044
 20
8.3151813435
 30
0.0
 10
10.4749570974
 20
8.3255214494
 30
0.0
 10
10.4808235597
 20
8.3355423305
 30
0.0
 10
10.4871931058
 20
8.3452208868
 30
0.0
 10
10.494050552
 20
8.3545347986
 30
0.0
 10
10.5013788532
 20
8.363463533
 30
0.0
 10
10.509161827
 20
8.3719860473
 30
0.0
 10
10.5173812212
 20
8.380082738
 30
0.0
 10
10.526017921
 20
8.3877360891
 30
0.0
 10
10.5380678408
 20
8.397327675
 30
0.0
 10
10.5508795437
 20
8.4059642118
 30
0.0
 10
10.5643295628
 20
8.4135667593
 30
0.0
 10
10.5747397818
 20
8.4187530508
 30
0.0
 10
10.5854358169
 20
8.4234042862
 30
0.0
 10
10.6000689926
 20
8.4288841878
 30
0.0
 10
10.6189676037
 20
8.4343375772
 30
0.0
 10
10.638399071
 20
8.4378529211
 30
0.0
 10
10.6541903399
 20
8.4394977835
 30
0.0
 10
10.6701830867
 20
8.4403591529
 30
0.0
 10
10.6822405061
 20
8.4401113328
 30
0.0
 10
10.6902603791
 20
8.4395552984
 30
0.0
  0
SPLINE
  5
29C
100
AcDbEntity
  8
0
100
AcDbSpline
 62
7
  6
CONTINUOUS
 70
0
 71
3
 72
56
 73
52
 74
0
 42
0.0000001
 43
0.0000001
 44
0.0000000001
 40
0.0
 40
0.0
 40
0.0
 40
0.0
 40
0.0314490832
 40
0.0472849053
 40
0.0631822688
 40
0.0951458114
 40
0.1112167178
 40
0.127338339
 40
0.1435054354
 40
0.1597127686
 40
0.175954892
 40
0.1922261879
 40
0.2085208122
 40
0.2248325014
 40
0.2574732833
 40
0.2737981108
 40
0.2901144962
 40
0.322688419
 40
0.3551544646
 40
0.3713370075
 40
0.3874758424
 40
0.4195946949
 40
0.4514854697
 40
0.4673413555
 40
0.4831310165
 40
0.5144959062
 40
0.5455817839
 40
0.5610255482
 40
0.5764016574
 40
0.6069506298
 40
0.6372633477
 40
0.6523468329
 40
0.6673852231
 40
0.6823844167
 40
0.6973505166
 40
0.7122901825
 40
0.727210385
 40
0.7421182012
 40
0.7570209777
 40
0.7719260624
 40
0.7868407993
 40
0.8167175482
 40
0.8317035856
 40
0.846726677
 40
0.8617927689
 40
0.8769075777
 40
0.9072911306
 40
0.9379178985
 40
0.9533373822
 40
0.9688287985
 40
1.0
 40
1.0
 40
1.0
 40
1.0
 10
11.1123699357
 20
8.924154536
 30
0.0
 10
11.1204612834
 20
8.9235932624
 30
0.0
 10
11.1325957563
 20
8.9221503671
 30
0.0
 10
11.1486007947
 20
8.9190671582
 30
0.0
 10
11.1645695606
 20
8.9151895394
 30
0.0
 10
11.1803016573
 20
8.9101571421
 30
0.0
 10
11.1956717102
 20
8.904018757
 30
0.0
 10
11.2070304933
 20
8.8988563507
 30
0.0
 10
11.2181680073
 20
8.8931557043
 30
0.0
 10
11.2290566244
 20
8.8869299779
 30
0.0
 10
11.2396698904
 20
8.8801954128
 30
0.0
 10
11.2499808071
 20
8.8729673419
 30
0.0
 10
11.259964028
 20
8.8652630732
 30
0.0
 10
11.2728061605
 20
8.8543824305
 30
0.0
 10
11.2848948938
 20
8.8426254071
 30
0.0
 10
11.2961377213
 20
8.8300867665
 30
0.0
 10
11.3067856117
 20
8.8170605776
 30
0.0
 10
11.3189408209
 20
8.7999200043
 30
0.0
 10
11.3294556292
 20
8.781766293
 30
0.0
 10
11.3368115179
 20
8.7667579049
 30
0.0
 10
11.3434267499
 20
8.7515062835
 30
0.0
 10
11.3503216514
 20
8.7319856611
 30
0.0
 10
11.3553296897
 20
8.7119723001
 30
0.0
 10
11.358160676
 20
8.6958269052
 30
0.0
 10
11.3601951833
 20
8.6796987534
 30
0.0
 10
11.3612697372
 20
8.6595151797
 30
0.0
 10
11.3603636849
 20
8.6394114617
 30
0.0
 10
11.35845492
 20
8.6235544044
 30
0.0
 10
11.355776843
 20
8.6079496084
 30
0.0
 10
11.3509908421
 20
8.5888421944
 30
0.0
 10
11.3443021893
 20
8.5703938153
 30
0.0
 10
11.3378663657
 20
8.556191928
 30
0.0
 10
11.332516073
 20
8.5458518225
 30
0.0
 10
11.326649611
 20
8.535830942
 30
0.0
 10
11.3202800654
 20
8.5261523863
 30
0.0
 10
11.3134226198
 20
8.516838475
 30
0.0
 10
11.3060943191
 20
8.5079097409
 30
0.0
 10
11.2983113454
 20
8.4993872268
 30
0.0
 10
11.2900919513
 20
8.4912905358
 30
0.0
 10
11.2814552513
 20
8.4836371842
 30
0.0
 10
11.2694053309
 20
8.4740455977
 30
0.0
 10
11.2565936273
 20
8.4654090602
 30
0.0
 10
11.2431436074
 20
8.4578065122
 30
0.0
 10
11.2327333876
 20
8.4526202205
 30
0.0
 10
11.222037352
 20
8.4479689848
 30
0.0
 10
11.2074041756
 20
8.442489083
 30
0.0
 10
11.1885055637
 20
8.4370356937
 30
0.0
 10
11.1690740961
 20
8.4335203501
 30
0.0
 10
11.1532828279
 20
8.4318754879
 30
0.0
 10
11.1372900822
 20
8.4310141182
 30
0.0
 10
11.1252326636
 20
8.4312619387
 30
0.0
 10
11.1172127911
 20
8.4318179731
 30
0.0
  0
SPLINE
  5
29D
100
AcDbEntity
  8
0
100
AcDbSpline
 62
7
  6
CONTINUOUS
 70
0
 71
3
 72
56
 73
52
 74
0
 42
0.0000001
 43
0.0000001
 44
0.0000000001
 40
0.0
 40
0.0
 40
0.0
 40
0.0
 40
0.0314490833
 40
0.0472849055
 40
0.0631822691
 40
0.0951458118
 40
0.1112167181
 40
0.1273383393
 40
0.1435054358
 40
0.1597127689
 40
0.1759548923
 40
0.1922261882
 40
0.2085208125
 40
0.2248325017
 40
0.2574732836
 40
0.2737981111
 40
0.2901144966
 40
0.3226884195
 40
0.3551544653
 40
0.3713370083
 40
0.3874758434
 40
0.4195946961
 40
0.451485471
 40
0.4673413568
 40
0.4831310177
 40
0.5144959071
 40
0.5455817842
 40
0.5610255482
 40
0.5764016572
 40
0.6069506292
 40
0.6372633472
 40
0.6523468328
 40
0.6673852237
 40
0.6823844181
 40
0.697350519
 40
0.712290186
 40
0.7272103893
 40
0.7421182058
 40
0.757020982
 40
0.771926066
 40
0.7868408021
 40
0.8167175492
 40
0.8317035856
 40
0.8467266761
 40
0.8617927671
 40
0.8769075752
 40
0.9072911269
 40
0.9379178942
 40
0.9533373788
 40
0.968828797
 40
1.0
 40
1.0
 40
1.0
 40
1.0
 10
11.1172128805
 20
8.4318179648
 30
0.0
 10
11.1091215328
 20
8.4323792384
 30
0.0
 10
11.0969870598
 20
8.4338221337
 30
0.0
 10
11.0809820213
 20
8.4369053426
 30
0.0
 10
11.0650132554
 20
8.4407829615
 30
0.0
 10
11.0492811586
 20
8.4458153588
 30
0.0
 10
11.0339111058
 20
8.4519537439
 30
0.0
 10
11.0225523227
 20
8.4571161502
 30
0.0
 10
11.0114148087
 20
8.4628167966
 30
0.0
 10
11.0005261916
 20
8.469042523
 30
0.0
 10
10.9899129256
 20
8.4757770882
 30
0.0
 10
10.9796020089
 20
8.483005159
 30
0.0
 10
10.969618788
 20
8.4907094277
 30
0.0
 10
10.9567766555
 20
8.5015900705
 30
0.0
 10
10.9446879222
 20
8.5133470939
 30
0.0
 10
10.9334450947
 20
8.5258857345
 30
0.0
 10
10.9227972042
 20
8.5389119234
 30
0.0
 10
10.910641995
 20
8.5560524969
 30
0.0
 10
10.9001271868
 20
8.5742062083
 30
0.0
 10
10.892771298
 20
8.5892145965
 30
0.0
 10
10.8861560659
 20
8.6044662181
 30
0.0
 10
10.8792611645
 20
8.6239868405
 30
0.0
 10
10.8742531263
 20
8.6440002017
 30
0.0
 10
10.87142214
 20
8.6601455966
 30
0.0
 10
10.8693876328
 20
8.6762737483
 30
0.0
 10
10.868313079
 20
8.6964573218
 30
0.0
 10
10.8692191313
 20
8.7165610395
 30
0.0
 10
10.8711278962
 20
8.7324180965
 30
0.0
 10
10.8738059731
 20
8.7480228922
 30
0.0
 10
10.878591974
 20
8.7671303061
 30
0.0
 10
10.8852806268
 20
8.7855786853
 30
0.0
 10
10.8917164505
 20
8.7997805728
 30
0.0
 10
10.8970667435
 20
8.8101206787
 30
0.0
 10
10.9029332058
 20
8.8201415598
 30
0.0
 10
10.9093027519
 20
8.8298201161
 30
0.0
 10
10.9161601981
 20
8.8391340279
 30
0.0
 10
10.9234884993
 20
8.8480627623
 30
0.0
 10
10.9312714731
 20
8.8565852766
 30
0.0
 10
10.9394908673
 20
8.8646819673
 30
0.0
 10
10.9481275671
 20
8.8723353184
 30
0.0
 10
10.9601774869
 20
8.8819269043
 30
0.0
 10
10.9729891898
 20
8.8905634411
 30
0.0
 10
10.9864392089
 20
8.8981659886
 30
0.0
 10
10.996849428
 20
8.9033522801
 30
0.0
 10
11.007545463
 20
8.9080035155
 30
0.0
 10
11.0221786387
 20
8.9134834171
 30
0.0
 10
11.0410772498
 20
8.9189368065
 30
0.0
 10
11.0605087172
 20
8.9224521504
 30
0.0
 10
11.076299986
 20
8.9240970128
 30
0.0
 10
11.0922927328
 20
8.9249583822
 30
0.0
 10
11.1043501522
 20
8.9247105621
 30
0.0
 10
11.1123700252
 20
8.9241545277
 30
0.0
  0
SPLINE
  5
29E
100
AcDbEntity
  8
0
100
AcDbSpline
 62
7
  6
CONTINUOUS
 70
0
 71
3
 72
86
 73
82
 74
0
 42
0.0000001
 43
0.0000001
 44
0.0000000001
 40
0.0
 40
0.0
 40
0.0
 40
0.0
 40
0.0039801735
 40
0.0081241171
 40
0.0124359931
 40
0.016919361
 40
0.0215772361
 40
0.0264119817
 40
0.0314252561
 40
0.0366182449
 40
0.0419916453
 40
0.0475457694
 40
0.0532805541
 40
0.0591955582
 40
0.0652900785
 40
0.0715630739
 40
0.0846387684
 40
0.0984101018
 40
0.112860694
 40
0.1279712428
 40
0.1437198619
 40
0.1600823544
 40
0.1770324406
 40
0.1945419645
 40
0.2125810668
 40
0.2311183398
 40
0.2501209668
 40
0.2695548486
 40
0.289384725
 40
0.3095742955
 40
0.3300863312
 40
0.3508827821
 40
0.3719248818
 40
0.3931732491
 40
0.4145879914
 40
0.4577543474
 40
0.501099203
 40
0.5442952951
 40
0.5657359749
 40
0.587017582
 40
0.6081001434
 40
0.6289441761
 40
0.6495107926
 40
0.6697618048
 40
0.6896598276
 40
0.709168385
 40
0.7282520204
 40
0.7468764117
 40
0.7650084972
 40
0.7826166038
 40
0.7996705814
 40
0.8161419537
 40
0.8320040874
 40
0.8472323859
 40
0.8618045214
 40
0.8757007003
 40
0.8889039845
 40
0.9014006969
 40
0.9073810972
 40
0.9131815075
 40
0.9188013673
 40
0.9242405009
 40
0.9294990443
 40
0.9345775709
 40
0.9394770909
 40
0.9441990928
 40
0.9487456636
 40
0.9531194621
 40
0.9573238984
 40
0.9613631411
 40
0.9652422549
 40
0.9689673208
 40
0.9725454977
 40
0.9759852252
 40
0.9824864215
 40
0.9855752926
 40
0.9885737717
 40
0.9914977072
 40
0.9943643167
 40
0.9971920017
 40
1.0
 40
1.0
 40
1.0
 40
1.0
 10
11.3684338923
 20
10.431762318
 30
0.0
 10
11.3673643927
 20
10.4307292606
 30
0.0
 10
11.3651328175
 20
10.4286704479
 30
0.0
 10
11.3615897568
 20
10.4256633894
 30
0.0
 10
11.3577865121
 20
10.4226778888
 30
0.0
 10
11.3537251711
 20
10.4197155546
 30
0.0
 10
11.3494077282
 20
10.4167777558
 30
0.0
 10
11.3448362837
 20
10.4138659367
 30
0.0
 10
11.340013129
 20
10.4109814728
 30
0.0
 10
11.3349406547
 20
10.4081258654
 30
0.0
 10
11.3296214195
 20
10.4053005021
 30
0.0
 10
11.3240580791
 20
10.4025068058
 30
0.0
 10
11.3182534157
 20
10.3997461905
 30
0.0
 10
11.3122103561
 20
10.3970200122
 30
0.0
 10
11.3059319153
 20
10.3943296736
 30
0.0
 10
11.2971289915
 20
10.3907424525
 30
0.0
 10
11.2855524087
 20
10.3863674904
 30
0.0
 10
11.2709599976
 20
10.3813515326
 30
0.0
 10
11.2555104554
 20
10.3765097356
 30
0.0
 10
11.2392349304
 20
10.3718519408
 30
0.0
 10
11.2221660936
 20
10.3673876298
 30
0.0
 10
11.204338329
 20
10.3631258965
 30
0.0
 10
11.1857875786
 20
10.3590754192
 30
0.0
 10
11.16655128
 20
10.3552444484
 30
0.0
 10
11.1466682768
 20
10.3516407871
 30
0.0
 10
11.1261787365
 20
10.3482717747
 30
0.0
 10
11.105124068
 20
10.3451442728
 30
0.0
 10
11.0835468367
 20
10.3422646489
 30
0.0
 10
11.0614906766
 20
10.3396387605
 30
0.0
 10
11.0390001975
 20
10.3372719497
 30
0.0
 10
11.0161208932
 20
10.3351690315
 30
0.0
 10
10.9928990442
 20
10.3333342819
 30
0.0
 10
10.969381642
 20
10.3317714414
 30
0.0
 10
10.9456162286
 20
10.3304836629
 30
0.0
 10
10.9135789561
 20
10.3291334635
 30
0.0
 10
10.8732666782
 20
10.3281527366
 30
0.0
 10
10.8248051522
 20
10.3281016025
 30
0.0
 10
10.7844700965
 20
10.3289970896
 30
0.0
 10
10.7523967876
 20
10.3302792328
 30
0.0
 10
10.7285914287
 20
10.3315166841
 30
0.0
 10
10.7050253689
 20
10.3330297128
 30
0.0
 10
10.6817462499
 20
10.3348152704
 30
0.0
 10
10.6588011812
 20
10.3368697186
 30
0.0
 10
10.6362365773
 20
10.3391888784
 30
0.0
 10
10.6140980817
 20
10.3417680307
 30
0.0
 10
10.5924304701
 20
10.3446019283
 30
0.0
 10
10.5712775604
 20
10.3476848048
 30
0.0
 10
10.550682121
 20
10.3510103877
 30
0.0
 10
10.5306857794
 20
10.3545719056
 30
0.0
 10
10.5113289349
 20
10.3583621032
 30
0.0
 10
10.4926506763
 20
10.3623732602
 30
0.0
 10
10.4746887
 20
10.3665972056
 30
0.0
 10
10.45747923
 20
10.3710253354
 30
0.0
 10
10.4410569282
 20
10.375648634
 30
0.0
 10
10.4254548363
 20
10.3804576885
 30
0.0
 10
10.4107042073
 20
10.3854427208
 30
0.0
 10
10.3968347419
 20
10.3905936107
 30
0.0
 10
10.3858791179
 20
10.3950788433
 30
0.0
 10
10.3775851306
 20
10.3987504831
 30
0.0
 10
10.3716933979
 20
10.4014987382
 30
0.0
 10
10.3660419534
 20
10.4042805751
 30
0.0
 10
10.3606336057
 20
10.4070945694
 30
0.0
 10
10.3554710805
 20
10.4099393484
 30
0.0
 10
10.3505569523
 20
10.4128134729
 30
0.0
 10
10.3458936688
 20
10.4157155056
 30
0.0
 10
10.3414835737
 20
10.4186440496
 30
0.0
 10
10.3373288317
 20
10.4215976117
 30
0.0
 10
10.3334315427
 20
10.4245748143
 30
0.0
 10
10.3297936155
 20
10.4275741785
 30
0.0
 10
10.3264168796
 20
10.4305942896
 30
0.0
 10
10.3233030214
 20
10.4336337715
 30
0.0
 10
10.3204536503
 20
10.4366910734
 30
0.0
 10
10.31787006
 20
10.4397652274
 30
0.0
 10
10.3148392034
 20
10.443807332
 30
0.0
 10
10.3122655501
 20
10.447958428
 30
0.0
 10
10.3102221474
 20
10.4521981397
 30
0.0
 10
10.3089875504
 20
10.4553337338
 30
0.0
 10
10.3080260761
 20
10.4584769421
 30
0.0
 10
10.3073386195
 20
10.4616262696
 30
0.0
 10
10.3069258201
 20
10.4647794423
 30
0.0
 10
10.3068339239
 20
10.4668860146
 30
0.0
 10
10.3068339192
 20
10.4679350564
 30
0.0
  0
SPLINE
  5
29F
100
AcDbEntity
  8
0
100
AcDbSpline
 62
7
  6
CONTINUOUS
 70
0
 71
3
 72
15
 73
11
 74
0
 42
0.0000001
 43
0.0000001
 44
0.0000000001
 40
0.0
 40
0.0
 40
0.0
 40
0.0
 40
0.1273482789
 40
0.2538606571
 40
0.3795878378
 40
0.5046051156
 40
0.629017439
 40
0.7529533823
 40
0.8765605864
 40
1.0
 40
1.0
 40
1.0
 40
1.0
 10
10.0097883044
 20
8.8709100191
 30
0.0
 10
10.0097883044
 20
8.8665829353
 30
0.0
 10
10.0093751541
 20
8.8579511885
 30
0.0
 10
10.0075067495
 20
8.8451695865
 30
0.0
 10
10.0044086102
 20
8.8327091318
 30
0.0
 10
10.0001087224
 20
8.8206863595
 30
0.0
 10
9.9946465221
 20
8.8092121429
 30
0.0
 10
9.9880718378
 20
8.7983924214
 30
0.0
 10
9.9804464685
 20
8.7883285765
 30
0.0
 10
9.9747049461
 20
8.7821809972
 30
0.0
 10
9.9716882103
 20
8.7792670342
 30
0.0
  0
SPLINE
  5
2A0
100
AcDbEntity
  8
0
100
AcDbSpline
 62
7
  6
CONTINUOUS
 70
0
 71
3
 72
15
 73
11
 74
0
 42
0.0000001
 43
0.0000001
 44
0.0000000001
 40
0.0
 40
0.0
 40
0.0
 40
0.0
 40
0.1273482789
 40
0.2538606571
 40
0.3795878378
 40
0.5046051156
 40
0.629017439
 40
0.7529533823
 40
0.8765605864
 40
1.0
 40
1.0
 40
1.0
 40
1.0
 10
10.0097883044
 20
6.8192833724
 30
0.0
 10
10.0097883044
 20
6.8149562887
 30
0.0
 10
10.0093751541
 20
6.8063245419
 30
0.0
 10
10.0075067495
 20
6.7935429399
 30
0.0
 10
10.0044086102
 20
6.7810824852
 30
0.0
 10
10.0001087224
 20
6.7690597129
 30
0.0
 10
9.9946465221
 20
6.7575854963
 30
0.0
 10
9.9880718378
 20
6.7467657748
 30
0.0
 10
9.9804464685
 20
6.7367019299
 30
0.0
 10
9.9747049461
 20
6.7305543506
 30
0.0
 10
9.9716882103
 20
6.7276403875
 30
0.0
  0
SPLINE
  5
2A1
100
AcDbEntity
  8
0
100
AcDbSpline
 62
7
  6
CONTINUOUS
 70
0
 71
3
 72
15
 73
11
 74
0
 42
0.0000001
 43
0.0000001
 44
0.0000000001
 40
0.0
 40
0.0
 40
0.0
 40
0.0
 40
0.1273482789
 40
0.2538606571
 40
0.3795878378
 40
0.5046051156
 40
0.629017439
 40
0.7529533823
 40
0.8765605864
 40
1.0
 40
1.0
 40
1.0
 40
1.0
 10
11.7600458964
 20
6.6979025962
 30
0.0
 10
11.7600458964
 20
6.6935755124
 30
0.0
 10
11.7596327461
 20
6.6849437657
 30
0.0
 10
11.7577643415
 20
6.6721621636
 30
0.0
 10
11.7546662023
 20
6.6597017089
 30
0.0
 10
11.7503663144
 20
6.6476789366
 30
0.0
 10
11.7449041141
 20
6.63620472
 30
0.0
 10
11.7383294299
 20
6.6253849985
 30
0.0
 10
11.7307040605
 20
6.6153211536
 30
0.0
 10
11.7249625381
 20
6.6091735743
 30
0.0
 10
11.7219458023
 20
6.6062596113
 30
0.0
  0
SPLINE
  5
2A2
100
AcDbEntity
  8
0
100
AcDbSpline
 62
7
  6
CONTINUOUS
 70
0
 71
3
 72
15
 73
11
 74
0
 42
0.0000001
 43
0.0000001
 44
0.0000000001
 40
0.0
 40
0.0
 40
0.0
 40
0.0
 40
0.1273482789
 40
0.2538606571
 40
0.3795878378
 40
0.5046051156
 40
0.629017439
 40
0.7529533823
 40
0.8765605864
 40
1.0
 40
1.0
 40
1.0
 40
1.0
 10
11.7600458964
 20
8.7495292428
 30
0.0
 10
11.7600458964
 20
8.7452021591
 30
0.0
 10
11.7596327461
 20
8.7365704123
 30
0.0
 10
11.7577643415
 20
8.7237888103
 30
0.0
 10
11.7546662023
 20
8.7113283555
 30
0.0
 10
11.7503663144
 20
8.6993055832
 30
0.0
 10
11.7449041141
 20
8.6878313667
 30
0.0
 10
11.7383294299
 20
8.6770116451
 30
0.0
 10
11.7307040605
 20
8.6669478002
 30
0.0
 10
11.7249625381
 20
8.6608002209
 30
0.0
 10
11.7219458023
 20
8.6578862579
 30
0.0
  0
SPLINE
  5
2A3
100
AcDbEntity
  8
0
100
AcDbSpline
 62
7
  6
CONTINUOUS
 70
0
 71
3
 72
42
 73
38
 74
0
 42
0.0000001
 43
0.0000001
 44
0.0000000001
 40
0.0
 40
0.0
 40
0.0
 40
0.0
 40
0.0310747671
 40
0.0466741744
 40
0.0623120752
 40
0.0936967636
 40
0.1252253831
 40
0.1568866086
 40
0.188666231
 40
0.2205476529
 40
0.2525121971
 40
0.2845395151
 40
0.3166080013
 40
0.3486952303
 40
0.3807784043
 40
0.4128348061
 40
0.4448422504
 40
0.4767795287
 40
0.5086268395
 40
0.5403661985
 40
0.5719818222
 40
0.603460476
 40
0.6347917816
 40
0.665968474
 40
0.6969866017
 40
0.7278456627
 40
0.7585486678
 40
0.7891021282
 40
0.8195159588
 40
0.8498032991
 40
0.8649073391
 40
0.8799860234
 40
0.9100712949
 40
0.940085795
 40
0.9550764649
 40
0.9700580337
 40
1.0
 40
1.0
 40
1.0
 40
1.0
 10
11.3049611705
 20
6.8620992587
 30
0.0
 10
11.3049611705
 20
6.8665875795
 30
0.0
 10
11.3047102833
 20
6.8733324074
 30
0.0
 10
11.3038816974
 20
6.8822957182
 30
0.0
 10
11.3027206826
 20
6.8912676121
 30
0.0
 10
11.3006510347
 20
6.9024338057
 30
0.0
 10
11.2971988668
 20
6.9156621881
 30
0.0
 10
11.2927939802
 20
6.92866499
 30
0.0
 10
11.2874607049
 20
6.9413704115
 30
0.0
 10
11.281228406
 20
6.9537088438
 30
0.0
 10
11.2741313696
 20
6.9656125519
 30
0.0
 10
11.2662086071
 20
6.9770162292
 30
0.0
 10
11.2575036423
 20
6.9878573005
 30
0.0
 10
11.2480642751
 20
6.9980762753
 30
0.0
 10
11.2379423211
 20
7.0076170668
 30
0.0
 10
11.2271933299
 20
7.0164272977
 30
0.0
 10
11.2158762834
 20
7.0244585845
 30
0.0
 10
11.2040532762
 20
7.0316668011
 30
0.0
 10
11.1917891785
 20
7.0380123192
 30
0.0
 10
11.1791512851
 20
7.0434602248
 30
0.0
 10
11.1662089511
 20
7.0479805108
 30
0.0
 10
11.1530332159
 20
7.0515482415
 30
0.0
 10
11.1396964197
 20
7.0541436915
 30
0.0
 10
11.1262718101
 20
7.0557524566
 30
0.0
 10
11.1128331497
 20
7.0563655395
 30
0.0
 10
11.0994543008
 20
7.055979399
 30
0.0
 10
11.0862088775
 20
7.0545960009
 30
0.0
 10
11.0731696408
 20
7.0522227261
 30
0.0
 10
11.0604088489
 20
7.048872676
 30
0.0
 10
11.0500540047
 20
7.0452780976
 30
0.0
 10
11.041982897
 20
7.0419352367
 30
0.0
 10
11.0340751701
 20
7.038291523
 30
0.0
 10
11.0244870151
 20
7.0331697042
 30
0.0
 10
11.0153434374
 20
7.0273142519
 30
0.0
 10
11.008335994
 20
7.0222151166
 30
0.0
 10
11.0015448014
 20
7.0168489766
 30
0.0
 10
10.9966956275
 20
7.0125241503
 30
0.0
 10
10.9935850649
 20
7.0095195771
 30
0.0
  0
SPLINE
  5
2A4
100
AcDbEntity
  8
0
100
AcDbSpline
 62
7
  6
CONTINUOUS
 70
0
 71
3
 72
42
 73
38
 74
0
 42
0.0000001
 43
0.0000001
 44
0.0000000001
 40
0.0
 40
0.0
 40
0.0
 40
0.0
 40
0.0310747671
 40
0.0466741744
 40
0.0623120752
 40
0.0936967636
 40
0.1252253831
 40
0.1568866086
 40
0.188666231
 40
0.2205476529
 40
0.2525121971
 40
0.2845395151
 40
0.3166080013
 40
0.3486952303
 40
0.3807784043
 40
0.4128348061
 40
0.4448422504
 40
0.4767795287
 40
0.5086268395
 40
0.5403661985
 40
0.5719818222
 40
0.603460476
 40
0.6347917816
 40
0.665968474
 40
0.6969866017
 40
0.7278456627
 40
0.7585486678
 40
0.7891021282
 40
0.8195159588
 40
0.8498032991
 40
0.8649073391
 40
0.8799860234
 40
0.9100712949
 40
0.940085795
 40
0.9550764649
 40
0.9700580337
 40
1.0
 40
1.0
 40
1.0
 40
1.0
 10
10.8828515244
 20
7.4052452947
 30
0.0
 10
10.8828515244
 20
7.4097336156
 30
0.0
 10
10.8826006372
 20
7.4164784435
 30
0.0
 10
10.8817720513
 20
7.4254417543
 30
0.0
 10
10.8806110365
 20
7.4344136482
 30
0.0
 10
10.8785413886
 20
7.4455798418
 30
0.0
 10
10.8750892207
 20
7.4588082241
 30
0.0
 10
10.8706843341
 20
7.471811026
 30
0.0
 10
10.8653510588
 20
7.4845164475
 30
0.0
 10
10.8591187599
 20
7.4968548799
 30
0.0
 10
10.8520217235
 20
7.5087585879
 30
0.0
 10
10.8440989609
 20
7.5201622652
 30
0.0
 10
10.8353939961
 20
7.5310033365
 30
0.0
 10
10.825954629
 20
7.5412223113
 30
0.0
 10
10.815832675
 20
7.5507631029
 30
0.0
 10
10.8050836838
 20
7.5595733338
 30
0.0
 10
10.7937666373
 20
7.5676046206
 30
0.0
 10
10.7819436301
 20
7.5748128372
 30
0.0
 10
10.7696795324
 20
7.5811583553
 30
0.0
 10
10.757041639
 20
7.5866062609
 30
0.0
 10
10.7440993049
 20
7.5911265469
 30
0.0
 10
10.7309235698
 20
7.5946942776
 30
0.0
 10
10.7175867736
 20
7.5972897275
 30
0.0
 10
10.704162164
 20
7.5988984926
 30
0.0
 10
10.6907235036
 20
7.5995115756
 30
0.0
 10
10.6773446547
 20
7.599125435
 30
0.0
 10
10.6640992314
 20
7.597742037
 30
0.0
 10
10.6510599947
 20
7.5953687621
 30
0.0
 10
10.6382992028
 20
7.592018712
 30
0.0
 10
10.6279443586
 20
7.5884241337
 30
0.0
 10
10.6198732509
 20
7.5850812728
 30
0.0
 10
10.611965524
 20
7.581437559
 30
0.0
 10
10.602377369
 20
7.5763157403
 30
0.0
 10
10.5932337913
 20
7.570460288
 30
0.0
 10
10.5862263479
 20
7.5653611526
 30
0.0
 10
10.5794351553
 20
7.5599950126
 30
0.0
 10
10.5745859814
 20
7.5556701864
 30
0.0
 10
10.5714754188
 20
7.5526656131
 30
0.0
  0
SPLINE
  5
2A5
100
AcDbEntity
  8
0
100
AcDbSpline
 62
7
  6
CONTINUOUS
 70
0
 71
3
 72
31
 73
27
 74
0
 42
0.0000001
 43
0.0000001
 44
0.0000000001
 40
0.0
 40
0.0
 40
0.0
 40
0.0
 40
0.0845018904
 40
0.167301158
 40
0.2480799795
 40
0.3265304606
 40
0.4023579462
 40
0.475282401
 40
0.5450409099
 40
0.6113901015
 40
0.6432172375
 40
0.6741112302
 40
0.7040486061
 40
0.7330077048
 40
0.7609690412
 40
0.7879152504
 40
0.8138316265
 40
0.8387060317
 40
0.8625296419
 40
0.8852968756
 40
0.9070063887
 40
0.927661115
 40
0.9472695745
 40
0.9658461645
 40
0.9834128737
 40
1.0
 40
1.0
 40
1.0
 40
1.0
 10
12.023928706
 20
10.6269217631
 30
0.0
 10
12.0310497101
 20
10.6264279198
 30
0.0
 10
12.0451399341
 20
10.6253252004
 30
0.0
 10
12.0659993565
 20
10.6233031752
 30
0.0
 10
12.0863080978
 20
10.6209364594
 30
0.0
 10
12.1059808586
 20
10.6182351031
 30
0.0
 10
12.1249351004
 20
10.6152105971
 30
0.0
 10
12.1430914201
 20
10.6118758148
 30
0.0
 10
12.1603736384
 20
10.6082449241
 30
0.0
 10
12.1741718636
 20
10.6049412207
 30
0.0
 10
12.1847125162
 20
10.6021524143
 30
0.0
 10
12.192245548
 20
10.6000256094
 30
0.0
 10
12.1995081624
 20
10.5978368647
 30
0.0
 10
12.2064927624
 20
10.5955884424
 30
0.0
 10
12.2131920415
 20
10.5932827438
 30
0.0
 10
12.2195989956
 20
10.5909221612
 30
0.0
 10
12.225706947
 20
10.5885092159
 30
0.0
 10
12.231509526
 20
10.5860463912
 30
0.0
 10
12.2370007181
 20
10.5835363166
 30
0.0
 10
12.2421748201
 20
10.5809815433
 30
0.0
 10
12.2470265143
 20
10.5783847832
 30
0.0
 10
12.2515507947
 20
10.5757486195
 30
0.0
 10
12.2557430563
 20
10.5730758152
 30
0.0
 10
12.2595990485
 20
10.5703688928
 30
0.0
 10
12.2631147315
 20
10.567630737
 30
0.0
 10
12.2652903147
 20
10.5657328215
 30
0.0
 10
12.2663160348
 20
10.5647782806
 30
0.0
  0
SPLINE
  5
2A6
100
AcDbEntity
  8
0
100
AcDbSpline
 62
7
  6
CONTINUOUS
 70
0
 71
3
 72
41
 73
37
 74
0
 42
0.0000001
 43
0.0000001
 44
0.0000000001
 40
0.0
 40
0.0
 40
0.0
 40
0.0
 40
0.029942123
 40
0.0449237706
 40
0.0599145177
 40
0.0899291716
 40
0.1200145961
 40
0.1350933574
 40
0.1501974726
 40
0.1804849654
 40
0.2108989488
 40
0.2414525624
 40
0.2721557217
 40
0.3030149378
 40
0.3340332219
 40
0.3652100719
 40
0.3965415365
 40
0.4280203507
 40
0.4596361361
 40
0.4913756582
 40
0.5232231336
 40
0.5551605782
 40
0.5871681905
 40
0.6192247616
 40
0.6513081064
 40
0.6833955071
 40
0.7154641657
 40
0.7474916563
 40
0.7794563734
 40
0.811337967
 40
0.843117763
 40
0.8747791516
 40
0.9063079641
 40
0.9376927517
 40
0.9689251728
 40
1.0
 40
1.0
 40
1.0
 40
1.0
 10
9.7764632252
 20
8.9813764037
 30
0.0
 10
9.7787940719
 20
8.9836278441
 30
0.0
 10
9.7824277024
 20
8.986868617
 30
0.0
 10
9.7875165459
 20
8.9908897016
 30
0.0
 10
9.7927674562
 20
8.9947106823
 30
0.0
 10
9.7996190276
 20
8.9990984284
 30
0.0
 10
9.8068037459
 20
9.0029364326
 30
0.0
 10
9.8127292702
 20
9.0056668234
 30
0.0
 10
9.818777217
 20
9.0081717886
 30
0.0
 10
9.8265364517
 20
9.0108653719
 30
0.0
 10
9.8360985472
 20
9.0133757337
 30
0.0
 10
9.8458692962
 20
9.0151541601
 30
0.0
 10
9.8557945518
 20
9.0161908353
 30
0.0
 10
9.8658197917
 20
9.0164802279
 30
0.0
 10
9.8758898536
 20
9.0160208646
 30
0.0
 10
9.8859493897
 20
9.014815399
 30
0.0
 10
9.8959431267
 20
9.012870573
 30
0.0
 10
9.9058161772
 20
9.0101971803
 30
0.0
 10
9.915514334
 20
9.0068100021
 30
0.0
 10
9.9249843646
 20
9.0027277236
 30
0.0
 10
9.9341742987
 20
8.9979728305
 30
0.0
 10
9.9430337097
 20
8.9925714846
 30
0.0
 10
9.9515139875
 20
8.9865533806
 30
0.0
 10
9.9595686022
 20
8.9799515834
 30
0.0
 10
9.9671533559
 20
8.9728023484
 30
0.0
 10
9.9742266229
 20
8.9651449239
 30
0.0
 10
9.9807495755
 20
8.9570213376
 30
0.0
 10
9.9866863954
 20
8.9484761686
 30
0.0
 10
9.992004468
 20
8.9395563054
 30
0.0
 10
9.9966745607
 20
8.9303106902
 30
0.0
 10
10.0006709815
 20
8.9207900599
 30
0.0
 10
10.0039717229
 20
8.9110466478
 30
0.0
 10
10.0065585757
 20
8.9011339884
 30
0.0
 10
10.0084172445
 20
8.8911063026
 30
0.0
 10
10.0095374064
 20
8.8810194009
 30
0.0
 10
10.0097883044
 20
8.874273265
 30
0.0
 10
10.0097883044
 20
8.8709100191
 30
0.0
  0
SPLINE
  5
2A7
100
AcDbEntity
  8
0
100
AcDbSpline
 62
7
  6
CONTINUOUS
 70
0
 71
3
 72
41
 73
37
 74
0
 42
0.0000001
 43
0.0000001
 44
0.0000000001
 40
0.0
 40
0.0
 40
0.0
 40
0.0
 40
0.029942123
 40
0.0449237706
 40
0.0599145177
 40
0.0899291716
 40
0.1200145961
 40
0.1350933574
 40
0.1501974726
 40
0.1804849654
 40
0.2108989488
 40
0.2414525624
 40
0.2721557217
 40
0.3030149378
 40
0.3340332219
 40
0.3652100719
 40
0.3965415365
 40
0.4280203507
 40
0.4596361361
 40
0.4913756582
 40
0.5232231336
 40
0.5551605782
 40
0.5871681905
 40
0.6192247616
 40
0.6513081064
 40
0.6833955071
 40
0.7154641657
 40
0.7474916563
 40
0.7794563734
 40
0.811337967
 40
0.843117763
 40
0.8747791516
 40
0.9063079641
 40
0.9376927517
 40
0.9689251728
 40
1.0
 40
1.0
 40
1.0
 40
1.0
 10
9.7764632252
 20
6.929749757
 30
0.0
 10
9.7787940719
 20
6.9320011975
 30
0.0
 10
9.7824277024
 20
6.9352419704
 30
0.0
 10
9.7875165459
 20
6.939263055
 30
0.0
 10
9.7927674562
 20
6.9430840357
 30
0.0
 10
9.7996190276
 20
6.9474717818
 30
0.0
 10
9.8068037459
 20
6.951309786
 30
0.0
 10
9.8127292702
 20
6.9540401768
 30
0.0
 10
9.818777217
 20
6.9565451419
 30
0.0
 10
9.8265364517
 20
6.9592387253
 30
0.0
 10
9.8360985472
 20
6.9617490871
 30
0.0
 10
9.8458692962
 20
6.9635275135
 30
0.0
 10
9.8557945518
 20
6.9645641887
 30
0.0
 10
9.8658197917
 20
6.9648535813
 30
0.0
 10
9.8758898536
 20
6.964394218
 30
0.0
 10
9.8859493897
 20
6.9631887523
 30
0.0
 10
9.8959431267
 20
6.9612439264
 30
0.0
 10
9.9058161772
 20
6.9585705337
 30
0.0
 10
9.915514334
 20
6.9551833554
 30
0.0
 10
9.9249843646
 20
6.951101077
 30
0.0
 10
9.9341742987
 20
6.9463461839
 30
0.0
 10
9.9430337097
 20
6.940944838
 30
0.0
 10
9.9515139875
 20
6.934926734
 30
0.0
 10
9.9595686022
 20
6.9283249368
 30
0.0
 10
9.9671533559
 20
6.9211757018
 30
0.0
 10
9.9742266229
 20
6.9135182773
 30
0.0
 10
9.9807495755
 20
6.905394691
 30
0.0
 10
9.9866863954
 20
6.896849522
 30
0.0
 10
9.992004468
 20
6.8879296588
 30
0.0
 10
9.9966745607
 20
6.8786840436
 30
0.0
 10
10.0006709815
 20
6.8691634133
 30
0.0
 10
10.0039717229
 20
6.8594200012
 30
0.0
 10
10.0065585757
 20
6.8495073418
 30
0.0
 10
10.0084172445
 20
6.8394796559
 30
0.0
 10
10.0095374064
 20
6.8293927543
 30
0.0
 10
10.0097883044
 20
6.8226466184
 30
0.0
 10
10.0097883044
 20
6.8192833724
 30
0.0
  0
SPLINE
  5
2A8
100
AcDbEntity
  8
0
100
AcDbSpline
 62
7
  6
CONTINUOUS
 70
0
 71
3
 72
41
 73
37
 74
0
 42
0.0000001
 43
0.0000001
 44
0.0000000001
 40
0.0
 40
0.0
 40
0.0
 40
0.0
 40
0.029942123
 40
0.0449237706
 40
0.0599145177
 40
0.0899291716
 40
0.1200145961
 40
0.1350933574
 40
0.1501974726
 40
0.1804849654
 40
0.2108989488
 40
0.2414525624
 40
0.2721557217
 40
0.3030149378
 40
0.3340332219
 40
0.3652100719
 40
0.3965415365
 40
0.4280203507
 40
0.4596361361
 40
0.4913756582
 40
0.5232231336
 40
0.5551605782
 40
0.5871681905
 40
0.6192247616
 40
0.6513081064
 40
0.6833955071
 40
0.7154641657
 40
0.7474916563
 40
0.7794563734
 40
0.811337967
 40
0.843117763
 40
0.8747791516
 40
0.9063079641
 40
0.9376927517
 40
0.9689251728
 40
1.0
 40
1.0
 40
1.0
 40
1.0
 10
11.5267208172
 20
6.8083689808
 30
0.0
 10
11.5290516639
 20
6.8106204212
 30
0.0
 10
11.5326852944
 20
6.8138611941
 30
0.0
 10
11.5377741379
 20
6.8178822787
 30
0.0
 10
11.5430250482
 20
6.8217032594
 30
0.0
 10
11.5498766197
 20
6.8260910055
 30
0.0
 10
11.5570613379
 20
6.8299290097
 30
0.0
 10
11.5629868623
 20
6.8326594005
 30
0.0
 10
11.5690348091
 20
6.8351643657
 30
0.0
 10
11.5767940437
 20
6.8378579491
 30
0.0
 10
11.5863561392
 20
6.8403683108
 30
0.0
 10
11.5961268882
 20
6.8421467372
 30
0.0
 10
11.6060521438
 20
6.8431834124
 30
0.0
 10
11.6160773837
 20
6.843472805
 30
0.0
 10
11.6261474456
 20
6.8430134417
 30
0.0
 10
11.6362069817
 20
6.8418079761
 30
0.0
 10
11.6462007187
 20
6.8398631501
 30
0.0
 10
11.6560737692
 20
6.8371897575
 30
0.0
 10
11.665771926
 20
6.8338025792
 30
0.0
 10
11.6752419566
 20
6.8297203007
 30
0.0
 10
11.6844318907
 20
6.8249654076
 30
0.0
 10
11.6932913017
 20
6.8195640617
 30
0.0
 10
11.7017715795
 20
6.8135459577
 30
0.0
 10
11.7098261942
 20
6.8069441605
 30
0.0
 10
11.7174109479
 20
6.7997949255
 30
0.0
 10
11.7244842149
 20
6.792137501
 30
0.0
 10
11.7310071676
 20
6.7840139148
 30
0.0
 10
11.7369439874
 20
6.7754687457
 30
0.0
 10
11.74226206
 20
6.7665488825
 30
0.0
 10
11.7469321527
 20
6.7573032673
 30
0.0
 10
11.7509285735
 20
6.747782637
 30
0.0
 10
11.7542293149
 20
6.7380392249
 30
0.0
 10
11.7568161678
 20
6.7281265655
 30
0.0
 10
11.7586748366
 20
6.7180988797
 30
0.0
 10
11.7597949984
 20
6.708011978
 30
0.0
 10
11.7600458964
 20
6.7012658421
 30
0.0
 10
11.7600458964
 20
6.6979025962
 30
0.0
  0
SPLINE
  5
2A9
100
AcDbEntity
  8
0
100
AcDbSpline
 62
7
  6
CONTINUOUS
 70
0
 71
3
 72
41
 73
37
 74
0
 42
0.0000001
 43
0.0000001
 44
0.0000000001
 40
0.0
 40
0.0
 40
0.0
 40
0.0
 40
0.029942123
 40
0.0449237706
 40
0.0599145177
 40
0.0899291716
 40
0.1200145961
 40
0.1350933574
 40
0.1501974726
 40
0.1804849654
 40
0.2108989488
 40
0.2414525624
 40
0.2721557217
 40
0.3030149378
 40
0.3340332219
 40
0.3652100719
 40
0.3965415365
 40
0.4280203507
 40
0.4596361361
 40
0.4913756582
 40
0.5232231336
 40
0.5551605782
 40
0.5871681905
 40
0.6192247616
 40
0.6513081064
 40
0.6833955071
 40
0.7154641657
 40
0.7474916563
 40
0.7794563734
 40
0.811337967
 40
0.843117763
 40
0.8747791516
 40
0.9063079641
 40
0.9376927517
 40
0.9689251728
 40
1.0
 40
1.0
 40
1.0
 40
1.0
 10
11.5267208172
 20
8.8599956274
 30
0.0
 10
11.5290516639
 20
8.8622470678
 30
0.0
 10
11.5326852944
 20
8.8654878407
 30
0.0
 10
11.5377741379
 20
8.8695089253
 30
0.0
 10
11.5430250482
 20
8.873329906
 30
0.0
 10
11.5498766197
 20
8.8777176522
 30
0.0
 10
11.5570613379
 20
8.8815556563
 30
0.0
 10
11.5629868623
 20
8.8842860471
 30
0.0
 10
11.5690348091
 20
8.8867910123
 30
0.0
 10
11.5767940437
 20
8.8894845957
 30
0.0
 10
11.5863561392
 20
8.8919949574
 30
0.0
 10
11.5961268882
 20
8.8937733838
 30
0.0
 10
11.6060521438
 20
8.894810059
 30
0.0
 10
11.6160773837
 20
8.8950994516
 30
0.0
 10
11.6261474456
 20
8.8946400883
 30
0.0
 10
11.6362069817
 20
8.8934346227
 30
0.0
 10
11.6462007187
 20
8.8914897967
 30
0.0
 10
11.6560737692
 20
8.8888164041
 30
0.0
 10
11.665771926
 20
8.8854292258
 30
0.0
 10
11.6752419566
 20
8.8813469473
 30
0.0
 10
11.6844318907
 20
8.8765920542
 30
0.0
 10
11.6932913017
 20
8.8711907084
 30
0.0
 10
11.7017715795
 20
8.8651726043
 30
0.0
 10
11.7098261942
 20
8.8585708071
 30
0.0
 10
11.7174109479
 20
8.8514215721
 30
0.0
 10
11.7244842149
 20
8.8437641476
 30
0.0
 10
11.7310071676
 20
8.8356405614
 30
0.0
 10
11.7369439874
 20
8.8270953923
 30
0.0
 10
11.74226206
 20
8.8181755291
 30
0.0
 10
11.7469321527
 20
8.8089299139
 30
0.0
 10
11.7509285735
 20
8.7994092836
 30
0.0
 10
11.7542293149
 20
8.7896658715
 30
0.0
 10
11.7568161678
 20
8.7797532121
 30
0.0
 10
11.7586748366
 20
8.7697255263
 30
0.0
 10
11.7597949984
 20
8.7596386246
 30
0.0
 10
11.7600458964
 20
8.7528924887
 30
0.0
 10
11.7600458964
 20
8.7495292428
 30
0.0
  0
SPLINE
  5
2AA
100
AcDbEntity
  8
0
100
AcDbSpline
 62
7
  6
CONTINUOUS
 70
0
 71
3
 72
21
 73
17
 74
0
 42
0.0000001
 43
0.0000001
 44
0.0000000001
 40
0.0
 40
0.0
 40
0.0
 40
0.0
 40
0.0617147806
 40
0.1234506635
 40
0.1852285505
 40
0.2470689066
 40
0.3089915473
 40
0.3710154718
 40
0.4331586569
 40
0.4954378562
 40
0.5578685009
 40
0.620464496
 40
0.6832380525
 40
0.7462000245
 40
0.8726823634
 40
1.0
 40
1.0
 40
1.0
 40
1.0
 10
10.8320054236
 20
7.2829451716
 30
0.0
 10
10.8340187145
 20
7.2848898616
 30
0.0
 10
10.837946625
 20
7.2888843092
 30
0.0
 10
10.8435236147
 20
7.2951721507
 30
0.0
 10
10.8487739932
 20
7.3017427524
 30
0.0
 10
10.8536854056
 20
7.3085807822
 30
0.0
 10
10.8582466119
 20
7.3156704973
 30
0.0
 10
10.862447106
 20
7.3229955165
 30
0.0
 10
10.8662771765
 20
7.3305389689
 30
0.0
 10
10.8697280131
 20
7.3382834404
 30
0.0
 10
10.8727917061
 20
7.3462110711
 30
0.0
 10
10.8754611693
 20
7.3543035318
 30
0.0
 10
10.8777302862
 20
7.3625423832
 30
0.0
 10
10.8802184995
 20
7.3737121873
 30
0.0
 10
10.8823002989
 20
7.3879518927
 30
0.0
 10
10.8828515244
 20
7.3994706764
 30
0.0
 10
10.8828515244
 20
7.4052452947
 30
0.0
  0
SPLINE
  5
2AB
100
AcDbEntity
  8
0
100
AcDbSpline
 62
7
  6
CONTINUOUS
 70
0
 71
3
 72
21
 73
17
 74
0
 42
0.0000001
 43
0.0000001
 44
0.0000000001
 40
0.0
 40
0.0
 40
0.0
 40
0.0
 40
0.0617147806
 40
0.1234506635
 40
0.1852285505
 40
0.2470689066
 40
0.3089915473
 40
0.3710154718
 40
0.4331586569
 40
0.4954378562
 40
0.5578685009
 40
0.620464496
 40
0.6832380525
 40
0.7462000245
 40
0.8726823634
 40
1.0
 40
1.0
 40
1.0
 40
1.0
 10
11.2541150697
 20
6.7397991356
 30
0.0
 10
11.2561283606
 20
6.7417438255
 30
0.0
 10
11.2600562711
 20
6.7457382732
 30
0.0
 10
11.2656332608
 20
6.7520261147
 30
0.0
 10
11.2708836393
 20
6.7585967163
 30
0.0
 10
11.2757950517
 20
6.7654347462
 30
0.0
 10
11.280356258
 20
6.7725244612
 30
0.0
 10
11.2845567521
 20
6.7798494804
 30
0.0
 10
11.2883868226
 20
6.7873929328
 30
0.0
 10
11.2918376592
 20
6.7951374044
 30
0.0
 10
11.2949013522
 20
6.803065035
 30
0.0
 10
11.2975708155
 20
6.8111574957
 30
0.0
 10
11.2998399323
 20
6.8193963472
 30
0.0
 10
11.3023281456
 20
6.8305661513
 30
0.0
 10
11.304409945
 20
6.8448058566
 30
0.0
 10
11.3049611705
 20
6.8563246403
 30
0.0
 10
11.3049611705
 20
6.8620992587
 30
0.0
  0
SPLINE
  5
2AC
100
AcDbEntity
  8
0
100
AcDbSpline
 62
7
  6
CONTINUOUS
 70
0
 71
3
 72
18
 73
14
 74
0
 42
0.0000001
 43
0.0000001
 44
0.0000000001
 40
0.0
 40
0.0
 40
0.0
 40
0.0
 40
0.0548621106
 40
0.1099281304
 40
0.165399556
 40
0.2214731722
 40
0.2783387379
 40
0.3361775111
 40
0.4554063056
 40
0.5804414047
 40
0.7123341351
 40
0.8519581983
 40
1.0
 40
1.0
 40
1.0
 40
1.0
 10
11.3868339112
 20
10.467935742
 30
0.0
 10
11.3868339146
 20
10.4671731044
 30
0.0
 10
11.3867855171
 20
10.4656445565
 30
0.0
 10
11.3865679012
 20
10.4633542189
 30
0.0
 10
11.3862052908
 20
10.4610652028
 30
0.0
 10
11.3856978229
 20
10.4587783437
 30
0.0
 10
11.3850457113
 20
10.4564942126
 30
0.0
 10
11.3839731086
 20
10.4534226727
 30
0.0
 10
11.3822548102
 20
10.4495810021
 30
0.0
 10
11.3796394463
 20
10.4450439694
 30
0.0
 10
11.376454059
 20
10.4405362971
 30
0.0
 10
11.3727034945
 20
10.4360625281
 30
0.0
 10
11.3699140661
 20
10.4331920562
 30
0.0
 10
11.3684338923
 20
10.431762318
 30
0.0
  0
SPLINE
  5
2AD
100
AcDbEntity
  8
0
100
AcDbSpline
 62
7
  6
CONTINUOUS
 70
0
 71
3
 72
39
 73
35
 74
0
 42
0.0000001
 43
0.0000001
 44
0.0000000001
 40
0.0
 40
0.0
 40
0.0
 40
0.0
 40
0.0072740609
 40
0.0148710987
 40
0.0227990055
 40
0.0310644039
 40
0.0396726832
 40
0.0486278341
 40
0.0579323608
 40
0.0675878247
 40
0.0775947766
 40
0.0879529422
 40
0.1097171419
 40
0.1328654483
 40
0.1573722348
 40
0.1832040234
 40
0.2103205583
 40
0.2386756272
 40
0.2682177396
 40
0.2988907408
 40
0.3306342899
 40
0.3633842613
 40
0.3970730791
 40
0.4316300925
 40
0.466981898
 40
0.5030526247
 40
0.5397641902
 40
0.5770365759
 40
0.614788113
 40
0.6913935957
 40
0.7689053926
 40
0.8466360797
 40
0.9238954807
 40
1.0
 40
1.0
 40
1.0
 40
1.0
 10
10.0338453853
 20
10.6736333275
 30
0.0
 10
10.0346115264
 20
10.6743462645
 30
0.0
 10
10.0362130563
 20
10.6757662992
 30
0.0
 10
10.038759525
 20
10.677835282
 30
0.0
 10
10.0414999705
 20
10.6798874024
 30
0.0
 10
10.0444326359
 20
10.6819214231
 30
0.0
 10
10.0475558599
 20
10.6839362338
 30
0.0
 10
10.0508678554
 20
10.6859306703
 30
0.0
 10
10.0543666693
 20
10.6879036298
 30
0.0
 10
10.0580502626
 20
10.6898538904
 30
0.0
 10
10.061916459
 20
10.6917803515
 30
0.0
 10
10.0674026826
 20
10.6943583132
 30
0.0
 10
10.0747085287
 20
10.6975042172
 30
0.0
 10
10.0840258039
 20
10.7011069594
 30
0.0
 10
10.0940108176
 20
10.704588531
 30
0.0
 10
10.1046399857
 20
10.7079406285
 30
0.0
 10
10.1158883452
 20
10.7111552324
 30
0.0
 10
10.1277293251
 20
10.7142246413
 30
0.0
 10
10.1401349114
 20
10.7171415053
 30
0.0
 10
10.153075709
 20
10.7198988307
 30
0.0
 10
10.1665210299
 20
10.7224900045
 30
0.0
 10
10.1804389632
 20
10.7249088079
 30
0.0
 10
10.194796451
 20
10.7271494501
 30
0.0
 10
10.2095593761
 20
10.7292065656
 30
0.0
 10
10.224692651
 20
10.7310752263
 30
0.0
 10
10.2401603032
 20
10.7327509538
 30
0.0
 10
10.2559255449
 20
10.734229729
 30
0.0
 10
10.2719509117
 20
10.7355080437
 30
0.0
 10
10.2937193001
 20
10.7369479481
 30
0.0
 10
10.3212981275
 20
10.7382211681
 30
0.0
 10
10.3546512154
 20
10.7389079426
 30
0.0
 10
10.3881052762
 20
10.7387541126
 30
0.0
 10
10.421342164
 20
10.7377612152
 30
0.0
 10
10.4433759784
 20
10.7365334671
 30
0.0
 10
10.4542991452
 20
10.7357759429
 30
0.0
  0
SPLINE
  5
2AE
100
AcDbEntity
  8
0
100
AcDbSpline
 62
7
  6
CONTINUOUS
 70
0
 71
3
 72
18
 73
14
 74
0
 42
0.0000001
 43
0.0000001
 44
0.0000000001
 40
0.0
 40
0.0
 40
0.0
 40
0.0
 40
0.1492378719
 40
0.2896551254
 40
0.4219619721
 40
0.4853618993
 40
0.5470839706
 40
0.6660306019
 40
0.7801313525
 40
0.8358490322
 40
0.8909261152
 40
0.9455716555
 40
1.0
 40
1.0
 40
1.0
 40
1.0
 10
12.2961824295
 20
10.5369844639
 30
0.0
 10
12.2972839296
 20
10.535959403
 30
0.0
 10
12.2993597964
 20
10.5339012837
 30
0.0
 10
12.3021544942
 20
10.5306882287
 30
0.0
 10
12.3041609308
 20
10.5279509476
 30
0.0
 10
12.3055428197
 20
10.5257527711
 30
0.0
 10
12.3067481446
 20
10.523606411
 30
0.0
 10
12.3080013308
 20
10.5209047764
 30
0.0
 10
12.3089177291
 20
10.5181333666
 30
0.0
 10
12.3094261805
 20
10.5159223008
 30
0.0
 10
12.3096966115
 20
10.5142751263
 30
0.0
 10
12.3098589092
 20
10.5126269622
 30
0.0
 10
12.3098950183
 20
10.5115268953
 30
0.0
 10
12.3098950226
 20
10.5109781266
 30
0.0
  0
SPLINE
  5
2AF
100
AcDbEntity
  8
0
100
AcDbSpline
 62
7
  6
CONTINUOUS
 70
0
 71
3
 72
18
 73
14
 74
0
 42
0.0000001
 43
0.0000001
 44
0.0000000001
 40
0.0
 40
0.0
 40
0.0
 40
0.0
 40
0.0548626042
 40
0.1099291913
 40
0.1654012498
 40
0.2214754883
 40
0.3361338268
 40
0.4553632043
 40
0.5171042913
 40
0.5804358326
 40
0.7123317444
 40
0.8519601708
 40
1.0
 40
1.0
 40
1.0
 40
1.0
 10
9.6910709033
 20
10.3308325278
 30
0.0
 10
9.6910708992
 20
10.3313621318
 30
0.0
 10
9.6911045097
 20
10.3324236154
 30
0.0
 10
9.6912556611
 20
10.3340141025
 30
0.0
 10
9.6915075092
 20
10.3356037082
 30
0.0
 10
9.691980735
 20
10.337736616
 30
0.0
 10
9.692833362
 20
10.3404098518
 30
0.0
 10
9.6940009951
 20
10.3430200107
 30
0.0
 10
9.6951245851
 20
10.3450943481
 30
0.0
 10
9.6964111381
 20
10.3472162483
 30
0.0
 10
9.6982792497
 20
10.3498598608
 30
0.0
 10
9.7008837405
 20
10.352966477
 30
0.0
 10
9.7028208267
 20
10.3549598817
 30
0.0
 10
9.7038486916
 20
10.3559527231
 30
0.0
  0
SPLINE
  5
2B0
100
AcDbEntity
  8
0
100
AcDbSpline
 62
7
  6
CONTINUOUS
 70
0
 71
3
 72
42
 73
38
 74
0
 42
0.0000001
 43
0.0000001
 44
0.0000000001
 40
0.0
 40
0.0
 40
0.0
 40
0.0
 40
0.0310747671
 40
0.0466741744
 40
0.0623120752
 40
0.0936967636
 40
0.1252253831
 40
0.1568866086
 40
0.188666231
 40
0.2205476529
 40
0.2525121971
 40
0.2845395151
 40
0.3166080013
 40
0.3486952303
 40
0.3807784043
 40
0.4128348061
 40
0.4448422504
 40
0.4767795287
 40
0.5086268395
 40
0.5403661985
 40
0.5719818222
 40
0.603460476
 40
0.6347917816
 40
0.665968474
 40
0.6969866017
 40
0.7278456627
 40
0.7585486678
 40
0.7891021282
 40
0.8195159588
 40
0.8498032991
 40
0.8649073391
 40
0.8799860234
 40
0.9100712949
 40
0.940085795
 40
0.9550764649
 40
0.9700580337
 40
1.0
 40
1.0
 40
1.0
 40
1.0
 10
10.520629318
 20
7.43036549
 30
0.0
 10
10.520629318
 20
7.4258771692
 30
0.0
 10
10.5208802052
 20
7.4191323413
 30
0.0
 10
10.5217087911
 20
7.4101690305
 30
0.0
 10
10.5228698059
 20
7.4011971366
 30
0.0
 10
10.5249394538
 20
7.390030943
 30
0.0
 10
10.5283916217
 20
7.3768025606
 30
0.0
 10
10.5327965083
 20
7.3637997587
 30
0.0
 10
10.5381297836
 20
7.3510943372
 30
0.0
 10
10.5443620825
 20
7.3387559049
 30
0.0
 10
10.5514591189
 20
7.3268521968
 30
0.0
 10
10.5593818814
 20
7.3154485195
 30
0.0
 10
10.5680868462
 20
7.3046074482
 30
0.0
 10
10.5775262134
 20
7.2943884734
 30
0.0
 10
10.5876481674
 20
7.2848476819
 30
0.0
 10
10.5983971586
 20
7.276037451
 30
0.0
 10
10.6097142051
 20
7.2680061641
 30
0.0
 10
10.6215372123
 20
7.2607979476
 30
0.0
 10
10.63380131
 20
7.2544524295
 30
0.0
 10
10.6464392034
 20
7.2490045239
 30
0.0
 10
10.6593815374
 20
7.2444842379
 30
0.0
 10
10.6725572726
 20
7.2409165072
 30
0.0
 10
10.6858940688
 20
7.2383210572
 30
0.0
 10
10.6993186784
 20
7.2367122921
 30
0.0
 10
10.7127573388
 20
7.2360992091
 30
0.0
 10
10.7261361877
 20
7.2364853497
 30
0.0
 10
10.739381611
 20
7.2378687478
 30
0.0
 10
10.7524208477
 20
7.2402420226
 30
0.0
 10
10.7651816396
 20
7.2435920727
 30
0.0
 10
10.7755364838
 20
7.2471866511
 30
0.0
 10
10.7836075915
 20
7.250529512
 30
0.0
 10
10.7915153184
 20
7.2541732257
 30
0.0
 10
10.8011034734
 20
7.2592950445
 30
0.0
 10
10.8102470511
 20
7.2651504967
 30
0.0
 10
10.8172544945
 20
7.2702496321
 30
0.0
 10
10.8240456871
 20
7.2756157721
 30
0.0
 10
10.828894861
 20
7.2799405984
 30
0.0
 10
10.8320054236
 20
7.2829451716
 30
0.0
  0
SPLINE
  5
2B1
100
AcDbEntity
  8
0
100
AcDbSpline
 62
7
  6
CONTINUOUS
 70
0
 71
3
 72
40
 73
36
 74
0
 42
0.0000001
 43
0.0000001
 44
0.0000000001
 40
0.0
 40
0.0
 40
0.0
 40
0.0
 40
0.0071757996
 40
0.0146741187
 40
0.022503598
 40
0.0306714055
 40
0.0391834843
 40
0.0480444471
 40
0.0572573092
 40
0.0668239668
 40
0.0767453474
 40
0.087021406
 40
0.0976514315
 40
0.1086338464
 40
0.1316455029
 40
0.1560328777
 40
0.1817630977
 40
0.2087962065
 40
0.2370860329
 40
0.2665809568
 40
0.2972245239
 40
0.3289559428
 40
0.3617104926
 40
0.3954198975
 40
0.4300127148
 40
0.4654146563
 40
0.5015488811
 40
0.5383362596
 40
0.575695673
 40
0.6135442961
 40
0.6903692276
 40
0.7681257327
 40
0.8461158642
 40
0.9236387286
 40
1.0
 40
1.0
 40
1.0
 40
1.0
 10
11.9679789626
 20
10.2288784579
 30
0.0
 10
11.9672343651
 20
10.2281592319
 30
0.0
 10
11.9656746731
 20
10.2267264089
 30
0.0
 10
11.9631871247
 20
10.2246387912
 30
0.0
 10
11.9605026344
 20
10.2225677246
 30
0.0
 10
11.9576229482
 20
10.2205145699
 30
0.0
 10
11.9545497701
 20
10.2184804293
 30
0.0
 10
11.9512848564
 20
10.2164665049
 30
0.0
 10
11.9478301466
 20
10.2144739167
 30
0.0
 10
11.9441876858
 20
10.2125038692
 30
0.0
 10
11.9403596375
 20
10.2105575599
 30
0.0
 10
11.9363483009
 20
10.2086361048
 30
0.0
 10
11.9321560417
 20
10.2067406794
 30
0.0
 10
11.9262359991
 20
10.2042101824
 30
0.0
 10
11.9183951762
 20
10.2011286229
 30
0.0
 10
11.9084481116
 20
10.1976073842
 30
0.0
 10
11.8978453604
 20
10.1942159805
 30
0.0
 10
11.886612314
 20
10.1909626253
 30
0.0
 10
11.8747757639
 20
10.1878551982
 30
0.0
 10
11.8623640621
 20
10.1849012358
 30
0.0
 10
11.8494069617
 20
10.1821079078
 30
0.0
 10
11.8359355592
 20
10.1794819985
 30
0.0
 10
11.8219822151
 20
10.1770298831
 30
0.0
 10
11.8075804733
 20
10.1747575037
 30
0.0
 10
11.7927649693
 20
10.1726703708
 30
0.0
 10
11.7775713411
 20
10.1707735464
 30
0.0
 10
11.7620361439
 20
10.1690716331
 30
0.0
 10
11.7461967759
 20
10.1675687588
 30
0.0
 10
11.730091335
 20
10.1662685345
 30
0.0
 10
11.7082064218
 20
10.1648021906
 30
0.0
 10
11.6804719745
 20
10.1635022051
 30
0.0
 10
11.6469234241
 20
10.1627934073
 30
0.0
 10
11.61326682
 20
10.162935319
 30
0.0
 10
11.5798261245
 20
10.1639264952
 30
0.0
 10
11.5576568377
 20
10.1651599532
 30
0.0
 10
11.5466667807
 20
10.1659221163
 30
0.0
  0
SPLINE
  5
2B2
100
AcDbEntity
  8
0
100
AcDbSpline
 62
7
  6
CONTINUOUS
 70
0
 71
3
 72
41
 73
37
 74
0
 42
0.0000001
 43
0.0000001
 44
0.0000000001
 40
0.0
 40
0.0
 40
0.0
 40
0.0
 40
0.0071757878
 40
0.0146740945
 40
0.0225035609
 40
0.0306713549
 40
0.0391834197
 40
0.0480443679
 40
0.0572572149
 40
0.0668238567
 40
0.076745221
 40
0.0870212626
 40
0.0976512706
 40
0.1086336674
 40
0.131645286
 40
0.1560326206
 40
0.1817627982
 40
0.2087958624
 40
0.2370856423
 40
0.2665805176
 40
0.2972240341
 40
0.3289554007
 40
0.3617098966
 40
0.3954192459
 40
0.4300120062
 40
0.4654138894
 40
0.5015480547
 40
0.5383353725
 40
0.5756947244
 40
0.6135432851
 40
0.6517967806
 40
0.6903697378
 40
0.7681261148
 40
0.8461161177
 40
0.9236388544
 40
1.0
 40
1.0
 40
1.0
 40
1.0
 10
11.997922665
 20
10.1968581527
 30
0.0
 10
11.9971109671
 20
10.1960741127
 30
0.0
 10
11.9954107215
 20
10.1945121691
 30
0.0
 10
11.9926990045
 20
10.192236423
 30
0.0
 10
11.9897725979
 20
10.1899787195
 30
0.0
 10
11.9866334051
 20
10.1877405422
 30
0.0
 10
11.9832832836
 20
10.1855230924
 30
0.0
 10
11.979724148
 20
10.1833276807
 30
0.0
 10
11.9759581126
 20
10.1811555279
 30
0.0
 10
11.9719874068
 20
10.179007947
 30
0.0
 10
11.9678143891
 20
10.1768862435
 30
0.0
 10
11.9634415657
 20
10.1747916341
 30
0.0
 10
11.9588715158
 20
10.1727254
 30
0.0
 10
11.952417981
 20
10.169966864
 30
0.0
 10
11.9438705723
 20
10.1666076058
 30
0.0
 10
11.9330271152
 20
10.1627690462
 30
0.0
 10
11.9214688835
 20
10.1590720218
 30
0.0
 10
11.9092235567
 20
10.1555254863
 30
0.0
 10
11.8963203408
 20
10.1521380295
 30
0.0
 10
11.8827901427
 20
10.148917867
 30
0.0
 10
11.8686653966
 20
10.1458728147
 30
0.0
 10
11.8539800014
 20
10.1430102682
 30
0.0
 10
11.8387692338
 20
10.1403371773
 30
0.0
 10
11.8230696607
 20
10.1378600195
 30
0.0
 10
11.8069190386
 20
10.135584802
 30
0.0
 10
11.7903562169
 20
10.1335170425
 30
0.0
 10
11.7734210468
 20
10.1316617603
 30
0.0
 10
11.7561542887
 20
10.1300234482
 30
0.0
 10
11.7385975053
 20
10.1286060691
 30
0.0
 10
11.7207929712
 20
10.1274130628
 30
0.0
 10
11.7027835148
 20
10.1264472977
 30
0.0
 10
11.6784918344
 20
10.1254632617
 30
0.0
 10
11.6479346863
 20
10.1248177938
 30
0.0
 10
11.6112452133
 20
10.1249724554
 30
0.0
 10
11.5747909292
 20
10.1260529631
 30
0.0
 10
11.550623837
 20
10.1273975735
 30
0.0
 10
11.5386433969
 20
10.1282284198
 30
0.0
  0
SPLINE
  5
2B3
100
AcDbEntity
  8
0
100
AcDbSpline
 62
7
  6
CONTINUOUS
 70
0
 71
3
 72
54
 73
50
 74
0
 42
0.0000001
 43
0.0000001
 44
0.0000000001
 40
0.0
 40
0.0
 40
0.0
 40
0.0
 40
0.052784991
 40
0.1048060923
 40
0.1559445044
 40
0.2060905216
 40
0.2551340321
 40
0.3029694639
 40
0.3494949945
 40
0.3946130603
 40
0.438230921
 40
0.4802611185
 40
0.5206221511
 40
0.559239105
 40
0.5960444107
 40
0.6309787921
 40
0.663992489
 40
0.6950468015
 40
0.709831479
 40
0.7241178387
 40
0.7379051855
 40
0.751193962
 40
0.7639858374
 40
0.7762841535
 40
0.7880937245
 40
0.7994213683
 40
0.8102760565
 40
0.8206690605
 40
0.830614617
 40
0.8401299511
 40
0.8492359035
 40
0.8579573592
 40
0.8663234793
 40
0.8743683592
 40
0.8821310443
 40
0.8896557027
 40
0.8969914552
 40
0.9041916844
 40
0.9113132101
 40
0.9184149027
 40
0.9255561887
 40
0.9327954181
 40
0.9401884307
 40
0.9477872381
 40
0.9637758035
 40
0.972256837
 40
0.9811038595
 40
0.9903441354
 40
1.0
 40
1.0
 40
1.0
 40
1.0
 10
9.9770372199
 20
10.274776296
 30
0.0
 10
9.9716356614
 20
10.2751508954
 30
0.0
 10
9.9609155646
 20
10.2759668396
 30
0.0
 10
9.9449832748
 20
10.2774025231
 30
0.0
 10
9.9293424011
 20
10.2790385493
 30
0.0
 10
9.9140308501
 20
10.2808708714
 30
0.0
 10
9.8990852787
 20
10.2828951074
 30
0.0
 10
9.8845417176
 20
10.2851063302
 30
0.0
 10
9.8704351251
 20
10.287499175
 30
0.0
 10
9.8567994129
 20
10.2900678378
 30
0.0
 10
9.8436673498
 20
10.2928060855
 30
0.0
 10
9.8310704686
 20
10.2957072803
 30
0.0
 10
9.8190389833
 20
10.2987643755
 30
0.0
 10
9.8076017019
 20
10.3019699492
 30
0.0
 10
9.7967859797
 20
10.3053162268
 30
0.0
 10
9.7866175569
 20
10.3087951135
 30
0.0
 10
9.7771207535
 20
10.3123982045
 30
0.0
 10
9.7696675788
 20
10.3155465443
 30
0.0
 10
9.764065796
 20
10.318127884
 30
0.0
 10
9.7601152889
 20
10.3200577709
 30
0.0
 10
9.75634886
 20
10.3220121243
 30
0.0
 10
9.7527687382
 20
10.3239897936
 30
0.0
 10
9.7493770709
 20
10.325989645
 30
0.0
 10
9.7461758405
 20
10.3280104458
 30
0.0
 10
9.7431669599
 20
10.330051059
 30
0.0
 10
9.7403522009
 20
10.3321102919
 30
0.0
 10
9.7377332027
 20
10.3341869388
 30
0.0
 10
9.7353115524
 20
10.3362798861
 30
0.0
 10
9.7330886435
 20
10.3383879145
 30
0.0
 10
9.7310658352
 20
10.3405099133
 30
0.0
 10
9.7292443812
 20
10.3426447553
 30
0.0
 10
9.7276253964
 20
10.3447912797
 30
0.0
 10
9.7262100507
 20
10.3469484256
 30
0.0
 10
9.7249993271
 20
10.3491150067
 30
0.0
 10
9.7239942448
 20
10.3512898603
 30
0.0
 10
9.7231957899
 20
10.3534717287
 30
0.0
 10
9.7226047389
 20
10.355659192
 30
0.0
 10
9.722221922
 20
10.357850742
 30
0.0
 10
9.7220477907
 20
10.3600446746
 30
0.0
 10
9.7220825988
 20
10.3622392137
 30
0.0
 10
9.7223263682
 20
10.364432547
 30
0.0
 10
9.7227786277
 20
10.366622902
 30
0.0
 10
9.7234389596
 20
10.3688087453
 30
0.0
 10
9.724615113
 20
10.3717643592
 30
0.0
 10
9.7262029756
 20
10.3746620777
 30
0.0
 10
9.7281423642
 20
10.37747772
 30
0.0
 10
9.7298291492
 20
10.3796207596
 30
0.0
 10
9.7317178094
 20
10.3817513315
 30
0.0
 10
9.7330799934
 20
10.3831316965
 30
0.0
 10
9.733792394
 20
10.3838198227
 30
0.0
  0
SPLINE
  5
2B4
100
AcDbEntity
  8
0
100
AcDbSpline
 62
7
  6
CONTINUOUS
 70
0
 71
3
 72
40
 73
36
 74
0
 42
0.0000001
 43
0.0000001
 44
0.0000000001
 40
0.0
 40
0.0
 40
0.0
 40
0.0
 40
0.0958313241
 40
0.1890999997
 40
0.2345965946
 40
0.2792415226
 40
0.3229681534
 40
0.3657118216
 40
0.4074099467
 40
0.4480024597
 40
0.4874320406
 40
0.5256441383
 40
0.5625874389
 40
0.5982141646
 40
0.6324801981
 40
0.6653457469
 40
0.6967757223
 40
0.7267401371
 40
0.7552151195
 40
0.7821835957
 40
0.807636302
 40
0.8315735259
 40
0.854006673
 40
0.8749606539
 40
0.8944772516
 40
0.9126187723
 40
0.9294730441
 40
0.945159307
 40
0.9598338401
 40
0.9668558655
 40
0.9737029019
 40
0.9804063157
 40
0.9869997191
 40
0.9935186517
 40
1.0
 40
1.0
 40
1.0
 40
1.0
 10
9.9690138362
 20
10.2370825996
 30
0.0
 10
9.9592465609
 20
10.2377599624
 30
0.0
 10
9.9399873573
 20
10.2393114162
 30
0.0
 10
9.9161464326
 20
10.2417993544
 30
0.0
 10
9.8975491264
 20
10.2440977866
 30
0.0
 10
9.8839981956
 20
10.2459522285
 30
0.0
 10
9.8707517621
 20
10.2479483397
 30
0.0
 10
9.8578319276
 20
10.2500827637
 30
0.0
 10
9.8452602865
 20
10.2523519246
 30
0.0
 10
9.8330578398
 20
10.2547520144
 30
0.0
 10
9.8212449576
 20
10.2572789717
 30
0.0
 10
9.8098413581
 20
10.2599285697
 30
0.0
 10
9.7988660613
 20
10.2626963515
 30
0.0
 10
9.7883373534
 20
10.2655776391
 30
0.0
 10
9.7782727685
 20
10.2685676183
 30
0.0
 10
9.7686890358
 20
10.2716612559
 30
0.0
 10
9.7596020514
 20
10.2748533414
 30
0.0
 10
9.7510268655
 20
10.2781385657
 30
0.0
 10
9.7429776155
 20
10.2815114259
 30
0.0
 10
9.7354675104
 20
10.2849663119
 30
0.0
 10
9.7285088221
 20
10.2884975814
 30
0.0
 10
9.7221128022
 20
10.2920994739
 30
0.0
 10
9.7162896987
 20
10.2957662715
 30
0.0
 10
9.711048778
 20
10.2994923847
 30
0.0
 10
9.7063982633
 20
10.3032723592
 30
0.0
 10
9.7023455542
 20
10.307101039
 30
0.0
 10
9.698897347
 20
10.3109739797
 30
0.0
 10
9.6960603034
 20
10.3148862198
 30
0.0
 10
9.6941837438
 20
10.3182250778
 30
0.0
 10
9.6930139756
 20
10.320898526
 30
0.0
 10
9.6923057416
 20
10.3228793325
 30
0.0
 10
9.6917543352
 20
10.3248640352
 30
0.0
 10
9.6913601759
 20
10.3268518358
 30
0.0
 10
9.6911235692
 20
10.3288415695
 30
0.0
 10
9.6910709085
 20
10.3301703522
 30
0.0
 10
9.6910709033
 20
10.3308325278
 30
0.0
  0
SPLINE
  5
2B5
100
AcDbEntity
  8
0
100
AcDbSpline
 62
7
  6
CONTINUOUS
 70
0
 71
3
 72
15
 73
11
 74
0
 42
0.0000001
 43
0.0000001
 44
0.0000000001
 40
0.0
 40
0.0
 40
0.0
 40
0.0
 40
0.1273482789
 40
0.2538606571
 40
0.3795878378
 40
0.5046051156
 40
0.629017439
 40
0.7529533823
 40
0.8765605864
 40
1.0
 40
1.0
 40
1.0
 40
1.0
 10
9.7383631311
 20
8.8897334188
 30
0.0
 10
9.7383631311
 20
8.8940605025
 30
0.0
 10
9.7387762815
 20
8.9026922493
 30
0.0
 10
9.7406446861
 20
8.9154738513
 30
0.0
 10
9.7437428253
 20
8.927934306
 30
0.0
 10
9.7480427131
 20
8.9399570783
 30
0.0
 10
9.7535049134
 20
8.9514312949
 30
0.0
 10
9.7600795977
 20
8.9622510164
 30
0.0
 10
9.7677049671
 20
8.9723148613
 30
0.0
 10
9.7734464894
 20
8.9784624406
 30
0.0
 10
9.7764632252
 20
8.9813764037
 30
0.0
  0
SPLINE
  5
2B6
100
AcDbEntity
  8
0
100
AcDbSpline
 62
7
  6
CONTINUOUS
 70
0
 71
3
 72
41
 73
37
 74
0
 42
0.0000001
 43
0.0000001
 44
0.0000000001
 40
0.0
 40
0.0
 40
0.0
 40
0.0
 40
0.029942123
 40
0.0449237706
 40
0.0599145177
 40
0.0899291716
 40
0.1200145961
 40
0.1350933574
 40
0.1501974726
 40
0.1804849654
 40
0.2108989488
 40
0.2414525624
 40
0.2721557217
 40
0.3030149378
 40
0.3340332219
 40
0.3652100719
 40
0.3965415365
 40
0.4280203507
 40
0.4596361361
 40
0.4913756582
 40
0.5232231336
 40
0.5551605782
 40
0.5871681905
 40
0.6192247616
 40
0.6513081064
 40
0.6833955071
 40
0.7154641657
 40
0.7474916563
 40
0.7794563734
 40
0.811337967
 40
0.843117763
 40
0.8747791516
 40
0.9063079641
 40
0.9376927517
 40
0.9689251728
 40
1.0
 40
1.0
 40
1.0
 40
1.0
 10
9.9716882103
 20
8.7792670342
 30
0.0
 10
9.9693573637
 20
8.7770155937
 30
0.0
 10
9.9657237331
 20
8.7737748208
 30
0.0
 10
9.9606348896
 20
8.7697537362
 30
0.0
 10
9.9553839794
 20
8.7659327555
 30
0.0
 10
9.9485324079
 20
8.7615450094
 30
0.0
 10
9.9413476897
 20
8.7577070052
 30
0.0
 10
9.9354221653
 20
8.7549766144
 30
0.0
 10
9.9293742185
 20
8.7524716493
 30
0.0
 10
9.9216149839
 20
8.7497780659
 30
0.0
 10
9.9120528883
 20
8.7472677041
 30
0.0
 10
9.9022821394
 20
8.7454892777
 30
0.0
 10
9.8923568837
 20
8.7444526025
 30
0.0
 10
9.8823316438
 20
8.7441632099
 30
0.0
 10
9.8722615819
 20
8.7446225732
 30
0.0
 10
9.8622020458
 20
8.7458280389
 30
0.0
 10
9.8522083089
 20
8.7477728648
 30
0.0
 10
9.8423352584
 20
8.7504462575
 30
0.0
 10
9.8326371016
 20
8.7538334358
 30
0.0
 10
9.823167071
 20
8.7579157142
 30
0.0
 10
9.8139771368
 20
8.7626706073
 30
0.0
 10
9.8051177259
 20
8.7680719532
 30
0.0
 10
9.796637448
 20
8.7740900572
 30
0.0
 10
9.7885828334
 20
8.7806918544
 30
0.0
 10
9.7809980797
 20
8.7878410894
 30
0.0
 10
9.7739248127
 20
8.7954985139
 30
0.0
 10
9.76740186
 20
8.8036221002
 30
0.0
 10
9.7614650401
 20
8.8121672692
 30
0.0
 10
9.7561469676
 20
8.8210871324
 30
0.0
 10
9.7514768749
 20
8.8303327476
 30
0.0
 10
9.747480454
 20
8.8398533779
 30
0.0
 10
9.7441797127
 20
8.84959679
 30
0.0
 10
9.7415928598
 20
8.8595094494
 30
0.0
 10
9.739734191
 20
8.8695371353
 30
0.0
 10
9.7386140292
 20
8.8796240369
 30
0.0
 10
9.7383631311
 20
8.8863701728
 30
0.0
 10
9.7383631311
 20
8.8897334188
 30
0.0
  0
SPLINE
  5
2B7
100
AcDbEntity
  8
0
100
AcDbSpline
 62
7
  6
CONTINUOUS
 70
0
 71
3
 72
15
 73
11
 74
0
 42
0.0000001
 43
0.0000001
 44
0.0000000001
 40
0.0
 40
0.0
 40
0.0
 40
0.0
 40
0.1273482789
 40
0.2538606571
 40
0.3795878378
 40
0.5046051156
 40
0.629017439
 40
0.7529533823
 40
0.8765605864
 40
1.0
 40
1.0
 40
1.0
 40
1.0
 10
9.7383631311
 20
6.8381067721
 30
0.0
 10
9.7383631311
 20
6.8424338559
 30
0.0
 10
9.7387762815
 20
6.8510656027
 30
0.0
 10
9.7406446861
 20
6.8638472047
 30
0.0
 10
9.7437428253
 20
6.8763076594
 30
0.0
 10
9.7480427131
 20
6.8883304317
 30
0.0
 10
9.7535049134
 20
6.8998046483
 30
0.0
 10
9.7600795977
 20
6.9106243698
 30
0.0
 10
9.7677049671
 20
6.9206882147
 30
0.0
 10
9.7734464894
 20
6.926835794
 30
0.0
 10
9.7764632252
 20
6.929749757
 30
0.0
  0
SPLINE
  5
2B8
100
AcDbEntity
  8
0
100
AcDbSpline
 62
7
  6
CONTINUOUS
 70
0
 71
3
 72
41
 73
37
 74
0
 42
0.0000001
 43
0.0000001
 44
0.0000000001
 40
0.0
 40
0.0
 40
0.0
 40
0.0
 40
0.029942123
 40
0.0449237706
 40
0.0599145177
 40
0.0899291716
 40
0.1200145961
 40
0.1350933574
 40
0.1501974726
 40
0.1804849654
 40
0.2108989488
 40
0.2414525624
 40
0.2721557217
 40
0.3030149378
 40
0.3340332219
 40
0.3652100719
 40
0.3965415365
 40
0.4280203507
 40
0.4596361361
 40
0.4913756582
 40
0.5232231336
 40
0.5551605782
 40
0.5871681905
 40
0.6192247616
 40
0.6513081064
 40
0.6833955071
 40
0.7154641657
 40
0.7474916563
 40
0.7794563734
 40
0.811337967
 40
0.843117763
 40
0.8747791516
 40
0.9063079641
 40
0.9376927517
 40
0.9689251728
 40
1.0
 40
1.0
 40
1.0
 40
1.0
 10
9.9716882103
 20
6.7276403875
 30
0.0
 10
9.9693573637
 20
6.7253889471
 30
0.0
 10
9.9657237331
 20
6.7221481742
 30
0.0
 10
9.9606348896
 20
6.7181270896
 30
0.0
 10
9.9553839794
 20
6.7143061089
 30
0.0
 10
9.9485324079
 20
6.7099183628
 30
0.0
 10
9.9413476897
 20
6.7060803586
 30
0.0
 10
9.9354221653
 20
6.7033499678
 30
0.0
 10
9.9293742185
 20
6.7008450026
 30
0.0
 10
9.9216149839
 20
6.6981514193
 30
0.0
 10
9.9120528883
 20
6.6956410575
 30
0.0
 10
9.9022821394
 20
6.6938626311
 30
0.0
 10
9.8923568837
 20
6.6928259559
 30
0.0
 10
9.8823316438
 20
6.6925365633
 30
0.0
 10
9.8722615819
 20
6.6929959266
 30
0.0
 10
9.8622020458
 20
6.6942013922
 30
0.0
 10
9.8522083089
 20
6.6961462182
 30
0.0
 10
9.8423352584
 20
6.6988196109
 30
0.0
 10
9.8326371016
 20
6.7022067891
 30
0.0
 10
9.823167071
 20
6.7062890676
 30
0.0
 10
9.8139771368
 20
6.7110439607
 30
0.0
 10
9.8051177259
 20
6.7164453066
 30
0.0
 10
9.796637448
 20
6.7224634106
 30
0.0
 10
9.7885828334
 20
6.7290652078
 30
0.0
 10
9.7809980797
 20
6.7362144428
 30
0.0
 10
9.7739248127
 20
6.7438718673
 30
0.0
 10
9.76740186
 20
6.7519954536
 30
0.0
 10
9.7614650401
 20
6.7605406226
 30
0.0
 10
9.7561469676
 20
6.7694604858
 30
0.0
 10
9.7514768749
 20
6.778706101
 30
0.0
 10
9.747480454
 20
6.7882267313
 30
0.0
 10
9.7441797127
 20
6.7979701434
 30
0.0
 10
9.7415928598
 20
6.8078828028
 30
0.0
 10
9.739734191
 20
6.8179104886
 30
0.0
 10
9.7386140292
 20
6.8279973903
 30
0.0
 10
9.7383631311
 20
6.8347435262
 30
0.0
 10
9.7383631311
 20
6.8381067721
 30
0.0
  0
SPLINE
  5
2B9
100
AcDbEntity
  8
0
100
AcDbSpline
 62
7
  6
CONTINUOUS
 70
0
 71
3
 72
41
 73
37
 74
0
 42
0.0000001
 43
0.0000001
 44
0.0000000001
 40
0.0
 40
0.0
 40
0.0
 40
0.0
 40
0.029942123
 40
0.0449237706
 40
0.0599145177
 40
0.0899291716
 40
0.1200145961
 40
0.1350933574
 40
0.1501974726
 40
0.1804849654
 40
0.2108989488
 40
0.2414525624
 40
0.2721557217
 40
0.3030149378
 40
0.3340332219
 40
0.3652100719
 40
0.3965415365
 40
0.4280203507
 40
0.4596361361
 40
0.4913756582
 40
0.5232231336
 40
0.5551605782
 40
0.5871681905
 40
0.6192247616
 40
0.6513081064
 40
0.6833955071
 40
0.7154641657
 40
0.7474916563
 40
0.7794563734
 40
0.811337967
 40
0.843117763
 40
0.8747791516
 40
0.9063079641
 40
0.9376927517
 40
0.9689251728
 40
1.0
 40
1.0
 40
1.0
 40
1.0
 10
11.7219458023
 20
6.6062596113
 30
0.0
 10
11.7196149557
 20
6.6040081709
 30
0.0
 10
11.7159813252
 20
6.6007673979
 30
0.0
 10
11.7108924816
 20
6.5967463133
 30
0.0
 10
11.7056415714
 20
6.5929253326
 30
0.0
 10
11.6987899999
 20
6.5885375865
 30
0.0
 10
11.6916052817
 20
6.5846995824
 30
0.0
 10
11.6856797573
 20
6.5819691915
 30
0.0
 10
11.6796318105
 20
6.5794642264
 30
0.0
 10
11.6718725759
 20
6.576770643
 30
0.0
 10
11.6623104803
 20
6.5742602813
 30
0.0
 10
11.6525397314
 20
6.5724818548
 30
0.0
 10
11.6426144757
 20
6.5714451796
 30
0.0
 10
11.6325892359
 20
6.571155787
 30
0.0
 10
11.6225191739
 20
6.5716151504
 30
0.0
 10
11.6124596379
 20
6.572820616
 30
0.0
 10
11.6024659009
 20
6.5747654419
 30
0.0
 10
11.5925928504
 20
6.5774388346
 30
0.0
 10
11.5828946936
 20
6.5808260129
 30
0.0
 10
11.573424663
 20
6.5849082914
 30
0.0
 10
11.5642347289
 20
6.5896631844
 30
0.0
 10
11.5553753179
 20
6.5950645303
 30
0.0
 10
11.5468950401
 20
6.6010826344
 30
0.0
 10
11.5388404254
 20
6.6076844315
 30
0.0
 10
11.5312556717
 20
6.6148336665
 30
0.0
 10
11.5241824047
 20
6.622491091
 30
0.0
 10
11.517659452
 20
6.6306146773
 30
0.0
 10
11.5117226321
 20
6.6391598463
 30
0.0
 10
11.5064045596
 20
6.6480797096
 30
0.0
 10
11.5017344669
 20
6.6573253248
 30
0.0
 10
11.497738046
 20
6.666845955
 30
0.0
 10
11.4944373047
 20
6.6765893672
 30
0.0
 10
11.4918504518
 20
6.6865020265
 30
0.0
 10
11.489991783
 20
6.6965297124
 30
0.0
 10
11.4888716212
 20
6.7066166141
 30
0.0
 10
11.4886207232
 20
6.7133627499
 30
0.0
 10
11.4886207232
 20
6.7167259959
 30
0.0
  0
SPLINE
  5
2BA
100
AcDbEntity
  8
0
100
AcDbSpline
 62
7
  6
CONTINUOUS
 70
0
 71
3
 72
15
 73
11
 74
0
 42
0.0000001
 43
0.0000001
 44
0.0000000001
 40
0.0
 40
0.0
 40
0.0
 40
0.0
 40
0.1273482789
 40
0.2538606571
 40
0.3795878378
 40
0.5046051156
 40
0.629017439
 40
0.7529533823
 40
0.8765605864
 40
1.0
 40
1.0
 40
1.0
 40
1.0
 10
11.4886207232
 20
6.7167259959
 30
0.0
 10
11.4886207232
 20
6.7210530796
 30
0.0
 10
11.4890338735
 20
6.7296848264
 30
0.0
 10
11.4909022781
 20
6.7424664284
 30
0.0
 10
11.4940004173
 20
6.7549268831
 30
0.0
 10
11.4983003052
 20
6.7669496554
 30
0.0
 10
11.5037625054
 20
6.778423872
 30
0.0
 10
11.5103371897
 20
6.7892435936
 30
0.0
 10
11.5179625591
 20
6.7993074384
 30
0.0
 10
11.5237040814
 20
6.8054550178
 30
0.0
 10
11.5267208172
 20
6.8083689808
 30
0.0
  0
SPLINE
  5
2BB
100
AcDbEntity
  8
0
100
AcDbSpline
 62
7
  6
CONTINUOUS
 70
0
 71
3
 72
41
 73
37
 74
0
 42
0.0000001
 43
0.0000001
 44
0.0000000001
 40
0.0
 40
0.0
 40
0.0
 40
0.0
 40
0.029942123
 40
0.0449237706
 40
0.0599145177
 40
0.0899291716
 40
0.1200145961
 40
0.1350933574
 40
0.1501974726
 40
0.1804849654
 40
0.2108989488
 40
0.2414525624
 40
0.2721557217
 40
0.3030149378
 40
0.3340332219
 40
0.3652100719
 40
0.3965415365
 40
0.4280203507
 40
0.4596361361
 40
0.4913756582
 40
0.5232231336
 40
0.5551605782
 40
0.5871681905
 40
0.6192247616
 40
0.6513081064
 40
0.6833955071
 40
0.7154641657
 40
0.7474916563
 40
0.7794563734
 40
0.811337967
 40
0.843117763
 40
0.8747791516
 40
0.9063079641
 40
0.9376927517
 40
0.9689251728
 40
1.0
 40
1.0
 40
1.0
 40
1.0
 10
11.7219458023
 20
8.6578862579
 30
0.0
 10
11.7196149557
 20
8.6556348175
 30
0.0
 10
11.7159813252
 20
8.6523940445
 30
0.0
 10
11.7108924816
 20
8.6483729599
 30
0.0
 10
11.7056415714
 20
8.6445519793
 30
0.0
 10
11.6987899999
 20
8.6401642331
 30
0.0
 10
11.6916052817
 20
8.636326229
 30
0.0
 10
11.6856797573
 20
8.6335958381
 30
0.0
 10
11.6796318105
 20
8.631090873
 30
0.0
 10
11.6718725759
 20
8.6283972896
 30
0.0
 10
11.6623104803
 20
8.6258869279
 30
0.0
 10
11.6525397314
 20
8.6241085014
 30
0.0
 10
11.6426144757
 20
8.6230718262
 30
0.0
 10
11.6325892359
 20
8.6227824337
 30
0.0
 10
11.6225191739
 20
8.623241797
 30
0.0
 10
11.6124596379
 20
8.6244472626
 30
0.0
 10
11.6024659009
 20
8.6263920885
 30
0.0
 10
11.5925928504
 20
8.6290654812
 30
0.0
 10
11.5828946936
 20
8.6324526595
 30
0.0
 10
11.573424663
 20
8.636534938
 30
0.0
 10
11.5642347289
 20
8.6412898311
 30
0.0
 10
11.5553753179
 20
8.6466911769
 30
0.0
 10
11.5468950401
 20
8.652709281
 30
0.0
 10
11.5388404254
 20
8.6593110781
 30
0.0
 10
11.5312556717
 20
8.6664603131
 30
0.0
 10
11.5241824047
 20
8.6741177376
 30
0.0
 10
11.517659452
 20
8.6822413239
 30
0.0
 10
11.5117226321
 20
8.6907864929
 30
0.0
 10
11.5064045596
 20
8.6997063562
 30
0.0
 10
11.5017344669
 20
8.7089519714
 30
0.0
 10
11.497738046
 20
8.7184726016
 30
0.0
 10
11.4944373047
 20
8.7282160138
 30
0.0
 10
11.4918504518
 20
8.7381286731
 30
0.0
 10
11.489991783
 20
8.748156359
 30
0.0
 10
11.4888716212
 20
8.7582432607
 30
0.0
 10
11.4886207232
 20
8.7649893965
 30
0.0
 10
11.4886207232
 20
8.7683526425
 30
0.0
  0
SPLINE
  5
2BC
100
AcDbEntity
  8
0
100
AcDbSpline
 62
7
  6
CONTINUOUS
 70
0
 71
3
 72
21
 73
17
 74
0
 42
0.0000001
 43
0.0000001
 44
0.0000000001
 40
0.0
 40
0.0
 40
0.0
 40
0.0
 40
0.0617147806
 40
0.1234506635
 40
0.1852285505
 40
0.2470689066
 40
0.3089915473
 40
0.3710154718
 40
0.4331586569
 40
0.4954378562
 40
0.5578685009
 40
0.620464496
 40
0.6832380525
 40
0.7462000245
 40
0.8726823634
 40
1.0
 40
1.0
 40
1.0
 40
1.0
 10
10.5714754188
 20
7.5526656131
 30
0.0
 10
10.5694621279
 20
7.5507209232
 30
0.0
 10
10.5655342174
 20
7.5467264755
 30
0.0
 10
10.5599572277
 20
7.540438634
 30
0.0
 10
10.5547068492
 20
7.5338680323
 30
0.0
 10
10.5497954368
 20
7.5270300025
 30
0.0
 10
10.5452342305
 20
7.5199402875
 30
0.0
 10
10.5410337364
 20
7.5126152683
 30
0.0
 10
10.5372036659
 20
7.5050718158
 30
0.0
 10
10.5337528293
 20
7.4973273443
 30
0.0
 10
10.5306891363
 20
7.4893997137
 30
0.0
 10
10.5280196731
 20
7.481307253
 30
0.0
 10
10.5257505562
 20
7.4730684015
 30
0.0
 10
10.5232623429
 20
7.4618985974
 30
0.0
 10
10.5211805435
 20
7.447658892
 30
0.0
 10
10.520629318
 20
7.4361401084
 30
0.0
 10
10.520629318
 20
7.43036549
 30
0.0
  0
SPLINE
  5
2BD
100
AcDbEntity
  8
0
100
AcDbSpline
 62
7
  6
CONTINUOUS
 70
0
 71
3
 72
21
 73
17
 74
0
 42
0.0000001
 43
0.0000001
 44
0.0000000001
 40
0.0
 40
0.0
 40
0.0
 40
0.0
 40
0.0617147806
 40
0.1234506635
 40
0.1852285505
 40
0.2470689066
 40
0.3089915473
 40
0.3710154718
 40
0.4331586569
 40
0.4954378562
 40
0.5578685009
 40
0.620464496
 40
0.6832380525
 40
0.7462000245
 40
0.8726823634
 40
1.0
 40
1.0
 40
1.0
 40
1.0
 10
10.9935850649
 20
7.0095195771
 30
0.0
 10
10.991571774
 20
7.0075748871
 30
0.0
 10
10.9876438635
 20
7.0035804394
 30
0.0
 10
10.9820668738
 20
6.997292598
 30
0.0
 10
10.9768164953
 20
6.9907219963
 30
0.0
 10
10.9719050829
 20
6.9838839665
 30
0.0
 10
10.9673438766
 20
6.9767942514
 30
0.0
 10
10.9631433825
 20
6.9694692322
 30
0.0
 10
10.959313312
 20
6.9619257798
 30
0.0
 10
10.9558624754
 20
6.9541813083
 30
0.0
 10
10.9527987824
 20
6.9462536776
 30
0.0
 10
10.9501293192
 20
6.9381612169
 30
0.0
 10
10.9478602023
 20
6.9299223654
 30
0.0
 10
10.945371989
 20
6.9187525614
 30
0.0
 10
10.9432901896
 20
6.904512856
 30
0.0
 10
10.9427389641
 20
6.8929940723
 30
0.0
 10
10.9427389641
 20
6.887219454
 30
0.0
  0
SPLINE
  5
2BE
100
AcDbEntity
  8
0
100
AcDbSpline
 62
7
  6
CONTINUOUS
 70
0
 71
3
 72
86
 73
82
 74
0
 42
0.0000001
 43
0.0000001
 44
0.0000000001
 40
0.0
 40
0.0
 40
0.0
 40
0.0
 40
0.0039801735
 40
0.0081241171
 40
0.0124359931
 40
0.016919361
 40
0.0215772361
 40
0.0264119817
 40
0.0314252561
 40
0.0366182449
 40
0.0419916453
 40
0.0475457694
 40
0.0532805541
 40
0.0591955582
 40
0.0652900785
 40
0.0715630739
 40
0.0846387684
 40
0.0984101018
 40
0.112860694
 40
0.1279712428
 40
0.1437198619
 40
0.1600823544
 40
0.1770324406
 40
0.1945419645
 40
0.2125810668
 40
0.2311183398
 40
0.2501209668
 40
0.2695548486
 40
0.289384725
 40
0.3095742955
 40
0.3300863312
 40
0.3508827821
 40
0.3719248818
 40
0.3931732491
 40
0.4145879914
 40
0.4577543474
 40
0.501099203
 40
0.5442952951
 40
0.5657359749
 40
0.587017582
 40
0.6081001434
 40
0.6289441761
 40
0.6495107926
 40
0.6697618048
 40
0.6896598276
 40
0.709168385
 40
0.7282520204
 40
0.7468764117
 40
0.7650084972
 40
0.7826166038
 40
0.7996705814
 40
0.8161419537
 40
0.8320040874
 40
0.8472323859
 40
0.8618045214
 40
0.8757007003
 40
0.8889039845
 40
0.9014006969
 40
0.9073810972
 40
0.9131815075
 40
0.9188013673
 40
0.9242405009
 40
0.9294990443
 40
0.9345775709
 40
0.9394770909
 40
0.9441990928
 40
0.9487456636
 40
0.9531194621
 40
0.9573238984
 40
0.9613631411
 40
0.9652422549
 40
0.9689673208
 40
0.9725454977
 40
0.9759852252
 40
0.9824864215
 40
0.9855752926
 40
0.9885737717
 40
0.9914977072
 40
0.9943643167
 40
0.9971920017
 40
1.0
 40
1.0
 40
1.0
 40
1.0
 10
10.3252339381
 20
10.5041084805
 30
0.0
 10
10.3263034377
 20
10.5051415378
 30
0.0
 10
10.3285350129
 20
10.5072003505
 30
0.0
 10
10.3320780735
 20
10.5102074091
 30
0.0
 10
10.3358813183
 20
10.5131929097
 30
0.0
 10
10.3399426592
 20
10.5161552439
 30
0.0
 10
10.3442601021
 20
10.5190930427
 30
0.0
 10
10.3488315467
 20
10.5220048617
 30
0.0
 10
10.3536547013
 20
10.5248893256
 30
0.0
 10
10.3587271756
 20
10.5277449331
 30
0.0
 10
10.3640464108
 20
10.5305702964
 30
0.0
 10
10.3696097513
 20
10.5333639927
 30
0.0
 10
10.3754144147
 20
10.536124608
 30
0.0
 10
10.3814574743
 20
10.5388507863
 30
0.0
 10
10.3877359151
 20
10.5415411249
 30
0.0
 10
10.3965388388
 20
10.5451283459
 30
0.0
 10
10.4081154217
 20
10.5495033081
 30
0.0
 10
10.4227078327
 20
10.5545192659
 30
0.0
 10
10.4381573749
 20
10.5593610629
 30
0.0
 10
10.4544329
 20
10.5640188577
 30
0.0
 10
10.4715017367
 20
10.5684831686
 30
0.0
 10
10.4893295014
 20
10.5727449019
 30
0.0
 10
10.5078802518
 20
10.5767953792
 30
0.0
 10
10.5271165503
 20
10.58062635
 30
0.0
 10
10.5469995536
 20
10.5842300113
 30
0.0
 10
10.5674890938
 20
10.5875990237
 30
0.0
 10
10.5885437623
 20
10.5907265257
 30
0.0
 10
10.6101209936
 20
10.5936061496
 30
0.0
 10
10.6321771537
 20
10.5962320379
 30
0.0
 10
10.6546676328
 20
10.5985988488
 30
0.0
 10
10.6775469372
 20
10.600701767
 30
0.0
 10
10.7007687862
 20
10.6025365165
 30
0.0
 10
10.7242861884
 20
10.604099357
 30
0.0
 10
10.7480516018
 20
10.6053871356
 30
0.0
 10
10.7800888743
 20
10.606737335
 30
0.0
 10
10.8204011522
 20
10.6077180618
 30
0.0
 10
10.8688626782
 20
10.607769196
 30
0.0
 10
10.9091977339
 20
10.6068737088
 30
0.0
 10
10.9412710428
 20
10.6055915657
 30
0.0
 10
10.9650764017
 20
10.6043541143
 30
0.0
 10
10.9886424615
 20
10.6028410856
 30
0.0
 10
11.0119215804
 20
10.6010555281
 30
0.0
 10
11.0348666492
 20
10.5990010798
 30
0.0
 10
11.057431253
 20
10.5966819201
 30
0.0
 10
11.0795697486
 20
10.5941027677
 30
0.0
 10
11.1012373603
 20
10.5912688701
 30
0.0
 10
11.12239027
 20
10.5881859937
 30
0.0
 10
11.1429857093
 20
10.5848604107
 30
0.0
 10
11.162982051
 20
10.5812988929
 30
0.0
 10
11.1823388955
 20
10.5775086952
 30
0.0
 10
11.201017154
 20
10.5734975382
 30
0.0
 10
11.2189791304
 20
10.5692735928
 30
0.0
 10
11.2361886003
 20
10.5648454631
 30
0.0
 10
11.2526109021
 20
10.5602221644
 30
0.0
 10
11.2682129941
 20
10.55541311
 30
0.0
 10
11.282963623
 20
10.5504280776
 30
0.0
 10
11.2968330885
 20
10.5452771878
 30
0.0
 10
11.3077887124
 20
10.5407919551
 30
0.0
 10
11.3160826998
 20
10.5371203153
 30
0.0
 10
11.3219744325
 20
10.5343720603
 30
0.0
 10
11.3276258769
 20
10.5315902234
 30
0.0
 10
11.3330342247
 20
10.5287762291
 30
0.0
 10
11.3381967498
 20
10.52593145
 30
0.0
 10
11.3431108781
 20
10.5230573256
 30
0.0
 10
11.3477741616
 20
10.5201552928
 30
0.0
 10
11.3521842567
 20
10.5172267489
 30
0.0
 10
11.3563389987
 20
10.5142731868
 30
0.0
 10
11.3602362876
 20
10.5112959841
 30
0.0
 10
11.3638742148
 20
10.50829662
 30
0.0
 10
11.3672509507
 20
10.5052765089
 30
0.0
 10
11.370364809
 20
10.502237027
 30
0.0
 10
11.3732141801
 20
10.4991797251
 30
0.0
 10
11.3757977703
 20
10.496105571
 30
0.0
 10
11.378828627
 20
10.4920634665
 30
0.0
 10
11.3814022802
 20
10.4879123705
 30
0.0
 10
11.383445683
 20
10.4836726587
 30
0.0
 10
11.38468028
 20
10.4805370647
 30
0.0
 10
11.3856417542
 20
10.4773938564
 30
0.0
 10
11.3863292109
 20
10.4742445289
 30
0.0
 10
11.3867420103
 20
10.4710913562
 30
0.0
 10
11.3868339065
 20
10.4689847839
 30
0.0
 10
11.3868339112
 20
10.467935742
 30
0.0
  0
SPLINE
  5
2BF
100
AcDbEntity
  8
0
100
AcDbSpline
 62
7
  6
CONTINUOUS
 70
0
 71
3
 72
11
 73
7
 74
0
 42
0.0000001
 43
0.0000001
 44
0.0000000001
 40
0.0
 40
0.0
 40
0.0
 40
0.0
 40
0.2754423147
 40
0.5325480653
 40
0.7732385181
 40
1.0
 40
1.0
 40
1.0
 40
1.0
 10
10.3252339381
 20
10.4741647786
 30
0.0
 10
10.3234957705
 20
10.4724858375
 30
0.0
 10
10.3202536351
 20
10.4691129095
 30
0.0
 10
10.3159964875
 20
10.4638179323
 30
0.0
 10
10.3125288272
 20
10.4584761681
 30
0.0
 10
10.3107014697
 20
10.4547908797
 30
0.0
 10
10.30993727
 20
10.4529539865
 30
0.0
  0
SPLINE
  5
2C0
100
AcDbEntity
  8
0
100
AcDbSpline
 62
7
  6
CONTINUOUS
 70
0
 71
3
 72
82
 73
78
 74
0
 42
0.0000001
 43
0.0000001
 44
0.0000000001
 40
0.0
 40
0.0
 40
0.0
 40
0.0
 40
0.0038827397
 40
0.007919288
 40
0.0121134458
 40
0.0164684671
 40
0.0209871443
 40
0.0256717358
 40
0.0305238584
 40
0.0355446763
 40
0.0407349504
 40
0.0460950486
 40
0.0516250518
 40
0.057324678
 40
0.069229918
 40
0.0818039712
 40
0.0950359668
 40
0.1089119922
 40
0.1234154618
 40
0.1385274301
 40
0.1542268532
 40
0.1704907972
 40
0.1872946114
 40
0.2046120705
 40
0.2224155274
 40
0.2406760401
 40
0.259363484
 40
0.278446651
 40
0.2978933477
 40
0.3176705022
 40
0.3377442568
 40
0.358080055
 40
0.3786427239
 40
0.399396566
 40
0.4413322026
 40
0.4835948666
 40
0.5258887756
 40
0.5679178692
 40
0.5887415204
 40
0.6093891874
 40
0.6298249799
 40
0.6500134921
 40
0.6699198954
 40
0.6895100271
 40
0.7087504744
 40
0.7276086634
 40
0.7460529545
 40
0.7640527535
 40
0.7815786079
 40
0.7986023121
 40
0.8150970252
 40
0.8310374098
 40
0.8463997892
 40
0.8611623013
 40
0.8753050902
 40
0.8888105378
 40
0.9016635599
 40
0.9138519522
 40
0.9253668143
 40
0.9308702173
 40
0.9362037271
 40
0.9413674162
 40
0.9463617565
 40
0.9511875537
 40
0.955846057
 40
0.9603390004
 40
0.9646686003
 40
0.9688377147
 40
0.9728498216
 40
0.9767091464
 40
0.9804207629
 40
0.9839906244
 40
0.9874257504
 40
0.9907342572
 40
0.9939254786
 40
0.9970100693
 40
1.0
 40
1.0
 40
1.0
 40
1.0
 10
10.3252339381
 20
10.4741647786
 30
0.0
 10
10.3262630165
 20
10.4751587921
 30
0.0
 10
10.3284068729
 20
10.4771401046
 30
0.0
 10
10.3318043035
 20
10.4800368792
 30
0.0
 10
10.335443148
 20
10.4829138011
 30
0.0
 10
10.3393215511
 20
10.4857693926
 30
0.0
 10
10.3434377209
 20
10.4886024423
 30
0.0
 10
10.3477898164
 20
10.4914116473
 30
0.0
 10
10.3523758168
 20
10.4941957831
 30
0.0
 10
10.3571936032
 20
10.4969535351
 30
0.0
 10
10.3622409402
 20
10.4996836069
 30
0.0
 10
10.3675154643
 20
10.5023847699
 30
0.0
 10
10.3730147532
 20
10.5050557448
 30
0.0
 10
10.3807561472
 20
10.5086270947
 30
0.0
 10
10.3909849783
 20
10.512997246
 30
0.0
 10
10.4039409698
 20
10.518028219
 30
0.0
 10
10.4177266728
 20
10.5229099405
 30
0.0
 10
10.4323163603
 20
10.5276332229
 30
0.0
 10
10.4476829515
 20
10.532189179
 30
0.0
 10
10.4637977872
 20
10.5365692211
 30
0.0
 10
10.4806307874
 20
10.5407650832
 30
0.0
 10
10.4981504927
 20
10.5447688419
 30
0.0
 10
10.5163241298
 20
10.5485729321
 30
0.0
 10
10.535117672
 20
10.5521701774
 30
0.0
 10
10.5544959135
 20
10.5555537892
 30
0.0
 10
10.574422543
 20
10.5587173813
 30
0.0
 10
10.5948602128
 20
10.56165498
 30
0.0
 10
10.6157706045
 20
10.5643610406
 30
0.0
 10
10.637114503
 20
10.5668304649
 30
0.0
 10
10.6588518749
 20
10.5690585962
 30
0.0
 10
10.6809419504
 20
10.5710412341
 30
0.0
 10
10.7033432825
 20
10.5727746291
 30
0.0
 10
10.7260138789
 20
10.5742555386
 30
0.0
 10
10.7566483256
 20
10.5758952159
 30
0.0
 10
10.7953007881
 20
10.5772909763
 30
0.0
 10
10.8419116549
 20
10.5779222915
 30
0.0
 10
10.8885594133
 20
10.5775107244
 30
0.0
 10
10.9272897269
 20
10.5762977696
 30
0.0
 10
10.9580232023
 20
10.574803656
 30
0.0
 10
10.9807946127
 20
10.5734300913
 30
0.0
 10
11.0033146397
 20
10.5718028089
 30
0.0
 10
11.0255410662
 20
10.5699248484
 30
0.0
 10
11.0474321861
 20
10.5677997572
 30
0.0
 10
11.0689469399
 20
10.5654315448
 30
0.0
 10
11.0900449745
 20
10.5628246779
 30
0.0
 10
11.1106867208
 20
10.5599840716
 30
0.0
 10
11.1308334714
 20
10.5569150788
 30
0.0
 10
11.1504474598
 20
10.5536234948
 30
0.0
 10
11.1694919303
 20
10.5501155341
 30
0.0
 10
11.1879312041
 20
10.5463978185
 30
0.0
 10
11.2057307481
 20
10.542477363
 30
0.0
 10
11.2228572495
 20
10.5383615659
 30
0.0
 10
11.2392786879
 20
10.5340582043
 30
0.0
 10
11.2549643925
 20
10.529575402
 30
0.0
 10
11.2698851102
 20
10.5249216155
 30
0.0
 10
11.2840130443
 20
10.5201056092
 30
0.0
 10
11.297322025
 20
10.5151364344
 30
0.0
 10
11.3097872437
 20
10.5100234269
 30
0.0
 10
11.3195955376
 20
10.505586241
 30
0.0
 10
11.3269931905
 20
10.5019637667
 30
0.0
 10
11.3322323145
 20
10.4992579954
 30
0.0
 10
11.3372438447
 20
10.4965234889
 30
0.0
 10
11.3420254835
 20
10.4937615392
 30
0.0
 10
11.3465749998
 20
10.4909733957
 30
0.0
 10
11.3508902861
 20
10.4881603382
 30
0.0
 10
11.3549693677
 20
10.485323687
 30
0.0
 10
11.3588103285
 20
10.4824646737
 30
0.0
 10
11.362411427
 20
10.4795846365
 30
0.0
 10
11.3657709853
 20
10.4766848324
 30
0.0
 10
11.3688874318
 20
10.4737665255
 30
0.0
 10
11.3717593489
 20
10.470831028
 30
0.0
 10
11.3743853214
 20
10.4678795416
 30
0.0
 10
11.3767641215
 20
10.4649133594
 30
0.0
 10
11.3788945371
 20
10.4619337312
 30
0.0
 10
11.3807754348
 20
10.458941827
 30
0.0
 10
11.3824057292
 20
10.4559391884
 30
0.0
 10
11.3833381806
 20
10.4539018247
 30
0.0
 10
11.3837596609
 20
10.4528838665
 30
0.0
  0
SPLINE
  5
2C1
100
AcDbEntity
  8
0
100
AcDbSpline
 62
7
  6
CONTINUOUS
 70
0
 71
3
 72
85
 73
81
 74
0
 42
0.0000001
 43
0.0000001
 44
0.0000000001
 40
0.0
 40
0.0
 40
0.0
 40
0.0
 40
0.0039840568
 40
0.0081322999
 40
0.0124489024
 40
0.0169374245
 40
0.0216008839
 40
0.0264416595
 40
0.0314614128
 40
0.0366613259
 40
0.0420420983
 40
0.0476040282
 40
0.0533470588
 40
0.0592707354
 40
0.0716563533
 40
0.0847522466
 40
0.098545291
 40
0.1130190048
 40
0.1281539743
 40
0.1439281896
 40
0.1603173154
 40
0.1772949332
 40
0.1948327433
 40
0.2129007378
 40
0.231467354
 40
0.2504996099
 40
0.2699632373
 40
0.2898228099
 40
0.3100418596
 40
0.3305829873
 40
0.3514079692
 40
0.372477861
 40
0.3937531075
 40
0.4151936457
 40
0.4584076626
 40
0.5017938239
 40
0.5450235881
 40
0.5664778638
 40
0.5877707123
 40
0.608862027
 40
0.629712202
 40
0.6502822335
 40
0.6705338225
 40
0.6904294807
 40
0.7099326441
 40
0.7290077853
 40
0.7476205252
 40
0.7657377542
 40
0.7833277608
 40
0.8003603749
 40
0.8168071291
 40
0.8326414234
 40
0.8478387185
 40
0.862376765
 40
0.876235876
 40
0.8893992716
 40
0.9018534906
 40
0.9078117707
 40
0.9135894949
 40
0.9191861983
 40
0.9246017234
 40
0.9298362824
 40
0.9348905302
 40
0.9397655258
 40
0.9444628941
 40
0.9489847887
 40
0.9533340168
 40
0.9575141224
 40
0.9615294188
 40
0.9653851835
 40
0.9690876724
 40
0.9726443077
 40
0.9760637765
 40
0.9825294176
 40
0.9856037105
 40
0.9885901777
 40
0.9915049847
 40
0.9943656572
 40
0.9971908533
 40
1.0
 40
1.0
 40
1.0
 40
1.0
 10
10.3377909746
 20
10.4732939452
 30
0.0
 10
10.3388362994
 20
10.4743036515
 30
0.0
 10
10.3410175736
 20
10.4763159169
 30
0.0
 10
10.3444810322
 20
10.4792548755
 30
0.0
 10
10.3481991584
 20
10.4821727342
 30
0.0
 10
10.3521699048
 20
10.485067905
 30
0.0
 10
10.3563913087
 20
10.4879390525
 30
0.0
 10
10.3608613171
 20
10.4907847553
 30
0.0
 10
10.3655776821
 20
10.4936036713
 30
0.0
 10
10.3705380577
 20
10.4963943333
 30
0.0
 10
10.3757399393
 20
10.4991553678
 30
0.0
 10
10.3811807129
 20
10.5018853922
 30
0.0
 10
10.3868576639
 20
10.5045830283
 30
0.0
 10
10.3948572201
 20
10.5081885506
 30
0.0
 10
10.405435436
 20
10.5125943171
 30
0.0
 10
10.4188412215
 20
10.5176552762
 30
0.0
 10
10.4331142327
 20
10.5225556083
 30
0.0
 10
10.4482256546
 20
10.5272853398
 30
0.0
 10
10.4641451444
 20
10.5318348288
 30
0.0
 10
10.4808405885
 20
10.5361947842
 30
0.0
 10
10.498278269
 20
10.5403563044
 30
0.0
 10
10.5164229202
 20
10.5443108879
 30
0.0
 10
10.5352378191
 20
10.548050455
 30
0.0
 10
10.5546848631
 20
10.5515673652
 30
0.0
 10
10.5747246495
 20
10.5548544315
 30
0.0
 10
10.5953165557
 20
10.5579049421
 30
0.0
 10
10.6164188255
 20
10.5607126719
 30
0.0
 10
10.6379886597
 20
10.5632718905
 30
0.0
 10
10.6599823055
 20
10.565577375
 30
0.0
 10
10.6823551442
 20
10.5676244192
 30
0.0
 10
10.7050617848
 20
10.5694088457
 30
0.0
 10
10.72805614
 20
10.5709270118
 30
0.0
 10
10.7512915867
 20
10.5721758479
 30
0.0
 10
10.7826113351
 20
10.5734817021
 30
0.0
 10
10.822016307
 20
10.5744219289
 30
0.0
 10
10.8693810222
 20
10.5744483224
 30
0.0
 10
10.9087977729
 20
10.5735521133
 30
0.0
 10
10.9401361562
 20
10.5722814023
 30
0.0
 10
10.9633922571
 20
10.5710585476
 30
0.0
 10
10.986411769
 20
10.569566093
 30
0.0
 10
11.0091480199
 20
10.5678070588
 30
0.0
 10
11.0315548642
 20
10.5657850397
 30
0.0
 10
11.0535868398
 20
10.5635041577
 30
0.0
 10
11.0751992459
 20
10.5609690636
 30
0.0
 10
11.0963482414
 20
10.5581849315
 30
0.0
 10
11.1169909349
 20
10.5551574471
 30
0.0
 10
11.1370854708
 20
10.5518927919
 30
0.0
 10
11.1565911143
 20
10.5483976322
 30
0.0
 10
11.1754683367
 20
10.544679105
 30
0.0
 10
11.1936789026
 20
10.5407448038
 30
0.0
 10
11.2111859552
 20
10.5366027709
 30
0.0
 10
11.227954092
 20
10.5322614706
 30
0.0
 10
11.2439494475
 20
10.5277297707
 30
0.0
 10
11.259139745
 20
10.5230169234
 30
0.0
 10
11.2734944651
 20
10.5181325297
 30
0.0
 10
11.2869846249
 20
10.5130865419
 30
0.0
 10
11.2976352618
 20
10.5086929856
 30
0.0
 10
11.3056941408
 20
10.5050968316
 30
0.0
 10
11.3114160764
 20
10.5024055431
 30
0.0
 10
11.3169023844
 20
10.4996816374
 30
0.0
 10
11.3221503119
 20
10.4969264503
 30
0.0
 10
11.3271572117
 20
10.4941413512
 30
0.0
 10
11.3319205935
 20
10.491327778
 30
0.0
 10
11.3364380465
 20
10.4884870736
 30
0.0
 10
11.3407073375
 20
10.4856206963
 30
0.0
 10
11.3447263243
 20
10.4827300272
 30
0.0
 10
11.3484929962
 20
10.4798164693
 30
0.0
 10
11.3520055026
 20
10.4768814633
 30
0.0
 10
11.3552620375
 20
10.4739263548
 30
0.0
 10
11.358261027
 20
10.4709525632
 30
0.0
 10
11.3610008413
 20
10.4679615247
 30
0.0
 10
11.3634802906
 20
10.4649542478
 30
0.0
 10
11.3663823605
 20
10.4609998654
 30
0.0
 10
11.3688349433
 20
10.4569392297
 30
0.0
 10
11.3707663187
 20
10.4527941209
 30
0.0
 10
11.3719243238
 20
10.4497279639
 30
0.0
 10
11.372814792
 20
10.4466546442
 30
0.0
 10
11.3734369021
 20
10.4435756687
 30
0.0
 10
11.3737901016
 20
10.4404932891
 30
0.0
 10
11.3738459874
 20
10.4384356175
 30
0.0
 10
11.3738291289
 20
10.4374110071
 30
0.0
  0
SPLINE
  5
2C2
100
AcDbEntity
  8
0
100
AcDbSpline
 62
7
  6
CONTINUOUS
 70
0
 71
3
 72
83
 73
79
 74
0
 42
0.0000001
 43
0.0000001
 44
0.0000000001
 40
0.0
 40
0.0
 40
0.0
 40
0.0
 40
0.0039373465
 40
0.0080340658
 40
0.0122941574
 40
0.0167210391
 40
0.0213176243
 40
0.0260862384
 40
0.0310285221
 40
0.0361456513
 40
0.0414383557
 40
0.0469069665
 40
0.0525514964
 40
0.058371569
 40
0.070535053
 40
0.0833896548
 40
0.0969233159
 40
0.111120768
 40
0.1259639371
 40
0.1414322551
 40
0.1575029351
 40
0.174151199
 40
0.1913504654
 40
0.2090725124
 40
0.2272876148
 40
0.245964685
 40
0.2650714004
 40
0.2845743177
 40
0.3044389794
 40
0.3246300124
 40
0.3451112335
 40
0.3658457529
 40
0.3867960684
 40
0.4079241594
 40
0.4505588294
 40
0.4934395094
 40
0.536252882
 40
0.5786862618
 40
0.5996640201
 40
0.6204313255
 40
0.6409505937
 40
0.6611848443
 40
0.6810977931
 40
0.7006539486
 40
0.7198187112
 40
0.7385584829
 40
0.7568407798
 40
0.774634339
 40
0.791909238
 40
0.8086370254
 40
0.8247908713
 40
0.840345737
 40
0.8552785499
 40
0.8695684175
 40
0.8831968852
 40
0.896148257
 40
0.9084099975
 40
0.9199732149
 40
0.9254915723
 40
0.9308339772
 40
0.9360006603
 40
0.940992264
 40
0.9458098112
 40
0.9504548589
 40
0.9549294578
 40
0.9592362686
 40
0.9633786445
 40
0.9673606494
 40
0.9711872469
 40
0.9748643115
 40
0.9783987888
 40
0.9817988096
 40
0.9850737489
 40
0.9882343966
 40
0.9912929558
 40
0.9942631104
 40
0.9971599834
 40
1.0
 40
1.0
 40
1.0
 40
1.0
 10
10.3479331963
 20
10.4550237363
 30
0.0
 10
10.3489392247
 20
10.4559954851
 30
0.0
 10
10.3510369198
 20
10.4579322491
 30
0.0
 10
10.3543647037
 20
10.4607622937
 30
0.0
 10
10.3579334121
 20
10.4635724451
 30
0.0
 10
10.3617411474
 20
10.4663612137
 30
0.0
 10
10.3657860843
 20
10.4691273619
 30
0.0
 10
10.3700663297
 20
10.4718695641
 30
0.0
 10
10.3745798067
 20
10.4745865743
 30
0.0
 10
10.3793243451
 20
10.4772770377
 30
0.0
 10
10.3842976387
 20
10.4799396575
 30
0.0
 10
10.3894972671
 20
10.4825731661
 30
0.0
 10
10.3949207339
 20
10.4851762664
 30
0.0
 10
10.402559611
 20
10.4886561133
 30
0.0
 10
10.412657332
 20
10.4929110782
 30
0.0
 10
10.4254510946
 20
10.4978037263
 30
0.0
 10
10.4390687938
 20
10.5025457946
 30
0.0
 10
10.4534839032
 20
10.5071279713
 30
0.0
 10
10.4686684961
 20
10.5115412438
 30
0.0
 10
10.4845930128
 20
10.515776925
 30
0.0
 10
10.5012264207
 20
10.5198266711
 30
0.0
 10
10.5185362646
 20
10.5236824997
 30
0.0
 10
10.5364887443
 20
10.527336809
 30
0.0
 10
10.55504878
 20
10.5307823918
 30
0.0
 10
10.5741800813
 20
10.5340124606
 30
0.0
 10
10.5938452248
 20
10.5370206539
 30
0.0
 10
10.6140057341
 20
10.5398010463
 30
0.0
 10
10.6346221568
 20
10.5423481611
 30
0.0
 10
10.6556541411
 20
10.5446569785
 30
0.0
 10
10.6770605118
 20
10.5467229548
 30
0.0
 10
10.6987993584
 20
10.5485420283
 30
0.0
 10
10.7208281053
 20
10.550110613
 30
0.0
 10
10.7431036533
 20
10.551425645
 30
0.0
 10
10.7731645253
 20
10.5528415892
 30
0.0
 10
10.8110359915
 20
10.5539575997
 30
0.0
 10
10.8566266325
 20
10.554254695
 30
0.0
 10
10.9021406732
 20
10.5535110424
 30
0.0
 10
10.9398504945
 20
10.5520235839
 30
0.0
 10
10.9697057607
 20
10.5503119148
 30
0.0
 10
10.9917720392
 20
10.5487789705
 30
0.0
 10
11.0135544426
 20
10.5469950911
 30
0.0
 10
11.035010356
 20
10.5449637663
 30
0.0
 10
11.0560977631
 20
10.5426890016
 30
0.0
 10
11.0767753833
 20
10.5401752732
 30
0.0
 10
11.0970027384
 20
10.5374275275
 30
0.0
 10
11.1167402413
 20
10.5344511743
 30
0.0
 10
11.1359492753
 20
10.5312520807
 30
0.0
 10
11.1545922689
 20
10.5278365507
 30
0.0
 10
11.1726327684
 20
10.5242113146
 30
0.0
 10
11.1900355125
 20
10.520383515
 30
0.0
 10
11.2067665104
 20
10.5163606944
 30
0.0
 10
11.2227931173
 20
10.5121507873
 30
0.0
 10
11.2380840976
 20
10.5077620906
 30
0.0
 10
11.2526096987
 20
10.5032032469
 30
0.0
 10
11.2663416919
 20
10.4984832223
 30
0.0
 10
11.2792535485
 20
10.4936112681
 30
0.0
 10
11.2913201656
 20
10.4885969368
 30
0.0
 10
11.3007944175
 20
10.4842425623
 30
0.0
 10
11.3079234348
 20
10.4806870009
 30
0.0
 10
11.3129609531
 20
10.478032462
 30
0.0
 10
11.3177703726
 20
10.4753497319
 30
0.0
 10
11.3223493912
 20
10.4726401173
 30
0.0
 10
11.3266957685
 20
10.4699048737
 30
0.0
 10
11.3308074319
 20
10.4671453564
 30
0.0
 10
11.3346823892
 20
10.4643628512
 30
0.0
 10
11.3383187668
 20
10.4615586595
 30
0.0
 10
11.3417148415
 20
10.4587341292
 30
0.0
 10
11.3448689313
 20
10.4558905035
 30
0.0
 10
11.3477795448
 20
10.4530291298
 30
0.0
 10
11.3504452308
 20
10.4501512614
 30
0.0
 10
11.3528646426
 20
10.4472581669
 30
0.0
 10
11.3550365723
 20
10.444351149
 30
0.0
 10
11.3569597739
 20
10.4414314234
 30
0.0
 10
11.3586332026
 20
10.4385003189
 30
0.0
 10
11.3600557628
 20
10.4355591473
 30
0.0
 10
11.3612264696
 20
10.4326092177
 30
0.0
 10
11.3621444262
 20
10.4296523045
 30
0.0
 10
11.3625909353
 20
10.4276610693
 30
0.0
 10
11.3627702841
 20
10.4266682462
 30
0.0
  0
SPLINE
  5
2C3
100
AcDbEntity
  8
0
100
AcDbSpline
 62
7
  6
CONTINUOUS
 70
0
 71
3
 72
39
 73
35
 74
0
 42
0.0000001
 43
0.0000001
 44
0.0000000001
 40
0.0
 40
0.0
 40
0.0
 40
0.0
 40
0.0243161181
 40
0.0498980726
 40
0.0766879351
 40
0.1046217723
 40
0.1336303314
 40
0.1636396257
 40
0.1945714505
 40
0.2263438496
 40
0.258871547
 40
0.2920663529
 40
0.3258375534
 40
0.3600922864
 40
0.39473591
 40
0.4296723641
 40
0.4648045281
 40
0.5000345765
 40
0.5352643316
 40
0.5703956171
 40
0.6053306105
 40
0.6399721964
 40
0.6742243222
 40
0.7079923554
 40
0.7411834459
 40
0.7737068935
 40
0.8054745248
 40
0.8364010823
 40
0.8664046309
 40
0.8954069896
 40
0.9233341986
 40
0.9501170348
 40
0.9756915987
 40
1.0
 40
1.0
 40
1.0
 40
1.0
 10
10.4505825416
 20
10.3730529254
 30
0.0
 10
10.456784756
 20
10.3749729115
 30
0.0
 10
10.4695759266
 20
10.3787086385
 30
0.0
 10
10.4893868036
 20
10.3838951795
 30
0.0
 10
10.5102638858
 20
10.3887952433
 30
0.0
 10
10.5321448855
 20
10.3933939924
 30
0.0
 10
10.554964796
 20
10.397677581
 30
0.0
 10
10.5786556448
 20
10.4016330931
 30
0.0
 10
10.6031468427
 20
10.405248613
 30
0.0
 10
10.6283653679
 20
10.4085132516
 30
0.0
 10
10.6542360028
 20
10.4114171813
 30
0.0
 10
10.6806815619
 20
10.4139516631
 30
0.0
 10
10.7076231271
 20
10.4161090724
 30
0.0
 10
10.7349802876
 20
10.4178829206
 30
0.0
 10
10.7626713822
 20
10.4192678741
 30
0.0
 10
10.790613746
 20
10.4202597692
 30
0.0
 10
10.818723959
 20
10.4208556243
 30
0.0
 10
10.846918097
 20
10.4210536485
 30
0.0
 10
10.8751119836
 20
10.4208532467
 30
0.0
 10
10.9032214432
 20
10.4202550211
 30
0.0
 10
10.931162554
 20
10.4192607698
 30
0.0
 10
10.9588518996
 20
10.4178734815
 30
0.0
 10
10.9862068203
 20
10.4160973268
 30
0.0
 10
11.0131456619
 20
10.4139376464
 30
0.0
 10
11.0395880215
 20
10.4114009357
 30
0.0
 10
11.065454991
 20
10.4084948259
 30
0.0
 10
11.0906693956
 20
10.4052280626
 30
0.0
 10
11.1151560302
 20
10.40161048
 30
0.0
 10
11.138841887
 20
10.3976529733
 30
0.0
 10
11.1616563918
 20
10.3933674643
 30
0.0
 10
11.1835315887
 20
10.388766875
 30
0.0
 10
11.2044024881
 20
10.3838650551
 30
0.0
 10
11.2242068235
 20
10.3786768544
 30
0.0
 10
11.2369934618
 20
10.3749399905
 30
0.0
 10
11.2431933503
 20
10.3730194588
 30
0.0
  0
SPLINE
  5
2C4
100
AcDbEntity
  8
0
100
AcDbSpline
 62
7
  6
CONTINUOUS
 70
0
 71
3
 72
33
 73
29
 74
0
 42
0.0000001
 43
0.0000001
 44
0.0000000001
 40
0.0
 40
0.0
 40
0.0
 40
0.0
 40
0.026735131
 40
0.0543137645
 40
0.0826900411
 40
0.1118158457
 40
0.1416410257
 40
0.1721135907
 40
0.2031798844
 40
0.234784738
 40
0.2668716277
 40
0.2993828514
 40
0.3654413131
 40
0.4324818091
 40
0.5000153979
 40
0.567548479
 40
0.6345874616
 40
0.70064341
 40
0.733153016
 40
0.7652380489
 40
0.7968408052
 40
0.8279047726
 40
0.8583747947
 40
0.8881972172
 40
0.917320049
 40
0.9456931439
 40
0.973268412
 40
1.0
 40
1.0
 40
1.0
 40
1.0
 10
10.5420375051
 20
10.3526256567
 30
0.0
 10
10.5473758203
 20
10.3538092649
 30
0.0
 10
10.5582442073
 20
10.3561096505
 30
0.0
 10
10.5748499021
 20
10.3593181172
 30
0.0
 10
10.5919883984
 20
10.3623336197
 30
0.0
 10
10.6096260798
 20
10.3651502016
 30
0.0
 10
10.627728444
 20
10.36776232
 30
0.0
 10
10.6462600442
 20
10.3701648257
 30
0.0
 10
10.6651845994
 20
10.3723529834
 30
0.0
 10
10.6844650381
 20
10.374322473
 30
0.0
 10
10.7040636243
 20
10.3760694478
 30
0.0
 10
10.7307086287
 20
10.3781081122
 30
0.0
 10
10.7645264864
 20
10.380069685
 30
0.0
 10
10.8055397811
 20
10.3814818537
 30
0.0
 10
10.8468763409
 20
10.381953171
 30
0.0
 10
10.888212569
 20
10.3814799171
 30
0.0
 10
10.9292248702
 20
10.3800658333
 30
0.0
 10
10.9630414793
 20
10.3781026645
 30
0.0
 10
10.9896851595
 20
10.3760627451
 30
0.0
 10
11.0092825199
 20
10.3743148522
 30
0.0
 10
11.0285615748
 20
10.372344455
 30
0.0
 10
11.0474845929
 20
10.3701554075
 30
0.0
 10
11.0660145078
 20
10.3677520344
 30
0.0
 10
11.0841150404
 20
10.3651390691
 30
0.0
 10
11.1017507441
 20
10.3623216598
 30
0.0
 10
11.1188871216
 20
10.3593053499
 30
0.0
 10
11.1354905642
 20
10.3560961041
 30
0.0
 10
11.1463573982
 20
10.353795203
 30
0.0
 10
11.1516949135
 20
10.3526113347
 30
0.0
  0
SPLINE
  5
2C5
100
AcDbEntity
  8
0
100
AcDbSpline
 62
7
  6
CONTINUOUS
 70
0
 71
3
 72
18
 73
14
 74
0
 42
0.0000001
 43
0.0000001
 44
0.0000000001
 40
0.0
 40
0.0
 40
0.0
 40
0.0
 40
0.1482674521
 40
0.2879714977
 40
0.4198269339
 40
0.5447460248
 40
0.663828616
 40
0.7216017764
 40
0.7784165309
 40
0.8344623871
 40
0.8899374719
 40
0.9450468509
 40
1.0
 40
1.0
 40
1.0
 40
1.0
 10
10.3377909746
 20
10.4732939452
 30
0.0
 10
10.3363232313
 20
10.4718762139
 30
0.0
 10
10.3335598506
 20
10.4690296727
 30
0.0
 10
10.3298521746
 20
10.4645903234
 30
0.0
 10
10.3267145779
 20
10.4601167486
 30
0.0
 10
10.324152059
 20
10.4556135819
 30
0.0
 10
10.3224826898
 20
10.4518003434
 30
0.0
 10
10.3214520326
 20
10.4487522197
 30
0.0
 10
10.3208323219
 20
10.4464854648
 30
0.0
 10
10.3203585454
 20
10.444216082
 30
0.0
 10
10.3200309143
 20
10.4419446635
 30
0.0
 10
10.3198495569
 20
10.4396720719
 30
0.0
 10
10.3198262069
 20
10.4381561965
 30
0.0
 10
10.3198388788
 20
10.4373999676
 30
0.0
  0
SPLINE
  5
2C6
100
AcDbEntity
  8
0
100
AcDbSpline
 62
7
  6
CONTINUOUS
 70
0
 71
3
 72
15
 73
11
 74
0
 42
0.0000001
 43
0.0000001
 44
0.0000000001
 40
0.0
 40
0.0
 40
0.0
 40
0.0
 40
0.145038067
 40
0.2832734922
 40
0.4151204232
 40
0.5410963594
 40
0.6618145698
 40
0.7779841754
 40
0.890411782
 40
1.0
 40
1.0
 40
1.0
 40
1.0
 10
10.3479331963
 20
10.4550237363
 30
0.0
 10
10.3467676359
 20
10.4538978913
 30
0.0
 10
10.344547962
 20
10.4516389835
 30
0.0
 10
10.3414955692
 20
10.4481430415
 30
0.0
 10
10.3388051262
 20
10.4446253854
 30
0.0
 10
10.3364789659
 20
10.4410884087
 30
0.0
 10
10.334519207
 20
10.4375341969
 30
0.0
 10
10.332927761
 20
10.4339649269
 30
0.0
 10
10.3317067972
 20
10.430383555
 30
0.0
 10
10.3311351107
 20
10.427964834
 30
0.0
 10
10.3309143206
 20
10.4267604748
 30
0.0
  0
SPLINE
  5
2C7
100
AcDbEntity
  8
0
100
AcDbSpline
 62
7
  6
CONTINUOUS
 70
0
 71
3
 72
18
 73
14
 74
0
 42
0.0000001
 43
0.0000001
 44
0.0000000001
 40
0.0
 40
0.0
 40
0.0
 40
0.0
 40
0.0548621106
 40
0.1099281304
 40
0.165399556
 40
0.2214731722
 40
0.2783387379
 40
0.3361775111
 40
0.4554063056
 40
0.5804414047
 40
0.7123341351
 40
0.8519581983
 40
1.0
 40
1.0
 40
1.0
 40
1.0
 10
10.3068339192
 20
10.4679350564
 30
0.0
 10
10.3068339157
 20
10.4686976941
 30
0.0
 10
10.3068823133
 20
10.470226242
 30
0.0
 10
10.3070999292
 20
10.4725165796
 30
0.0
 10
10.3074625396
 20
10.4748055956
 30
0.0
 10
10.3079700075
 20
10.4770924548
 30
0.0
 10
10.3086221191
 20
10.4793765859
 30
0.0
 10
10.3096947217
 20
10.4824481257
 30
0.0
 10
10.3114130202
 20
10.4862897964
 30
0.0
 10
10.3140283841
 20
10.4908268291
 30
0.0
 10
10.3172137714
 20
10.4953345013
 30
0.0
 10
10.3209643358
 20
10.4998082703
 30
0.0
 10
10.3237537643
 20
10.5026787423
 30
0.0
 10
10.3252339381
 20
10.5041084805
 30
0.0
  0
SPLINE
  5
2C8
100
AcDbEntity
  8
0
100
AcDbSpline
 62
7
  6
CONTINUOUS
 70
0
 71
3
 72
40
 73
36
 74
0
 42
0.0000001
 43
0.0000001
 44
0.0000000001
 40
0.0
 40
0.0
 40
0.0
 40
0.0
 40
0.0958313936
 40
0.1891002636
 40
0.2345968559
 40
0.2792418231
 40
0.3229685191
 40
0.3657121987
 40
0.4074103657
 40
0.4480029213
 40
0.4874324913
 40
0.5256446262
 40
0.5625879545
 40
0.5982146421
 40
0.632480706
 40
0.6653462654
 40
0.6967761768
 40
0.726740613
 40
0.7552155871
 40
0.7821839784
 40
0.8076366943
 40
0.8315738914
 40
0.8540069425
 40
0.8749609194
 40
0.8944774765
 40
0.9126189061
 40
0.9294731629
 40
0.9451593854
 40
0.9598338584
 40
0.9668558876
 40
0.9737029112
 40
0.9804063068
 40
0.9869997133
 40
0.9935186461
 40
1.0
 40
1.0
 40
1.0
 40
1.0
 10
9.9690138362
 20
9.3011004184
 30
0.0
 10
9.9592465453
 20
9.3017777824
 30
0.0
 10
9.9399872984
 20
9.3033292423
 30
0.0
 10
9.916146326
 20
9.3058171802
 30
0.0
 10
9.8975489812
 20
9.3081156262
 30
0.0
 10
9.8839980286
 20
9.3099700718
 30
0.0
 10
9.8707515715
 20
9.3119661839
 30
0.0
 10
9.8578317157
 20
9.3141006229
 30
0.0
 10
9.845260054
 20
9.3163697867
 30
0.0
 10
9.8330575891
 20
9.3187698788
 30
0.0
 10
9.821244693
 20
9.3212968554
 30
0.0
 10
9.8098410779
 20
9.3239464551
 30
0.0
 10
9.7988657688
 20
9.3267142397
 30
0.0
 10
9.7883370556
 20
9.3295955511
 30
0.0
 10
9.7782724609
 20
9.33258553
 30
0.0
 10
9.7686887223
 20
9.3356791711
 30
0.0
 10
9.7596017425
 20
9.3388712846
 30
0.0
 10
9.7510265529
 20
9.3421565061
 30
0.0
 10
9.7429773038
 20
9.3455293704
 30
0.0
 10
9.7354672148
 20
9.3489842877
 30
0.0
 10
9.7285085283
 20
9.3525155519
 30
0.0
 10
9.7221125163
 20
9.3561174492
 30
0.0
 10
9.7162894422
 20
9.3597842799
 30
0.0
 10
9.7110485277
 20
9.3635103856
 30
0.0
 10
9.706398028
 20
9.3672903669
 30
0.0
 10
9.7023453628
 20
9.3711190778
 30
0.0
 10
9.6988971656
 20
9.3749920117
 30
0.0
 10
9.6960601422
 20
9.3789042607
 30
0.0
 10
9.6941836417
 20
9.3822431426
 30
0.0
 10
9.6930138703
 20
9.384916584
 30
0.0
 10
9.6923056537
 20
9.3868973969
 30
0.0
 10
9.6917542898
 20
9.3888821096
 30
0.0
 10
9.6913601251
 20
9.3908699089
 30
0.0
 10
9.6911235402
 20
9.3928596489
 30
0.0
 10
9.6910709056
 20
9.3941884342
 30
0.0
 10
9.691070909
 20
9.3948506109
 30
0.0
  0
SPLINE
  5
2C9
100
AcDbEntity
  8
0
100
AcDbSpline
 62
7
  6
CONTINUOUS
 70
0
 71
3
 72
41
 73
37
 74
0
 42
0.0000001
 43
0.0000001
 44
0.0000000001
 40
0.0
 40
0.0
 40
0.0
 40
0.0
 40
0.0071758425
 40
0.0146741453
 40
0.0225035656
 40
0.0306713257
 40
0.0391834036
 40
0.0480443729
 40
0.0572572157
 40
0.0668238661
 40
0.0767452117
 40
0.087021259
 40
0.0976512753
 40
0.1086336553
 40
0.1316452786
 40
0.1560326285
 40
0.1817628121
 40
0.2087958578
 40
0.2370856249
 40
0.2665805114
 40
0.2972240455
 40
0.3289554128
 40
0.3617098907
 40
0.3954192316
 40
0.4300120033
 40
0.4654138991
 40
0.5015480605
 40
0.5383353682
 40
0.5756947176
 40
0.6135432851
 40
0.6517967846
 40
0.6903697386
 40
0.7681261117
 40
0.8461161118
 40
0.923638923
 40
1.0
 40
1.0
 40
1.0
 40
1.0
 10
11.997922665
 20
9.2608759715
 30
0.0
 10
11.9971109609
 20
9.2600919256
 30
0.0
 10
11.995410711
 20
9.2585299749
 30
0.0
 10
11.9926989945
 20
9.2562542268
 30
0.0
 10
11.9897725931
 20
9.2539965384
 30
0.0
 10
11.9866334113
 20
9.2517583638
 30
0.0
 10
11.983283288
 20
9.2495409166
 30
0.0
 10
11.9797241492
 20
9.2473455012
 30
0.0
 10
11.9759581146
 20
9.2451733387
 30
0.0
 10
11.971987404
 20
9.2430257714
 30
0.0
 10
11.9678143918
 20
9.2409040587
 30
0.0
 10
11.963441567
 20
9.2388094538
 30
0.0
 10
11.9588715165
 20
9.2367432222
 30
0.0
 10
11.9524179867
 20
9.233984676
 30
0.0
 10
11.9438705747
 20
9.2306254243
 30
0.0
 10
11.9330271129
 20
9.2267868661
 30
0.0
 10
11.9214688797
 20
9.2230898451
 30
0.0
 10
11.9092235587
 20
9.219543304
 30
0.0
 10
11.8963203469
 20
9.2161558436
 30
0.0
 10
11.8827901454
 20
9.212935684
 30
0.0
 10
11.8686653935
 20
9.2098906365
 30
0.0
 10
11.8539799981
 20
9.2070280911
 30
0.0
 10
11.8387692357
 20
9.2043549943
 30
0.0
 10
11.8230696654
 20
9.2018778332
 30
0.0
 10
11.8069190403
 20
9.1996026193
 30
0.0
 10
11.7903562147
 20
9.1975348654
 30
0.0
 10
11.773421045
 20
9.1956795819
 30
0.0
 10
11.7561542899
 20
9.1940412651
 30
0.0
 10
11.7385975076
 20
9.1926238834
 30
0.0
 10
11.7207929719
 20
9.1914308807
 30
0.0
 10
11.7027835141
 20
9.1904651202
 30
0.0
 10
11.6784918343
 20
9.189481081
 30
0.0
 10
11.6479346878
 20
9.188835608
 30
0.0
 10
11.6112452041
 20
9.1889902771
 30
0.0
 10
11.5747909194
 20
9.1900707815
 30
0.0
 10
11.5506238262
 20
9.1914153931
 30
0.0
 10
11.5386433969
 20
9.1922462387
 30
0.0
  0
SPLINE
  5
2CA
100
AcDbEntity
  8
0
100
AcDbSpline
 62
7
  6
CONTINUOUS
 70
0
 71
3
 72
42
 73
38
 74
0
 42
0.0000001
 43
0.0000001
 44
0.0000000001
 40
0.0
 40
0.0
 40
0.0
 40
0.0
 40
0.0310747671
 40
0.0466741744
 40
0.0623120752
 40
0.0936967636
 40
0.1252253831
 40
0.1568866086
 40
0.188666231
 40
0.2205476529
 40
0.2525121971
 40
0.2845395151
 40
0.3166080013
 40
0.3486952303
 40
0.3807784043
 40
0.4128348061
 40
0.4448422504
 40
0.4767795287
 40
0.5086268395
 40
0.5403661985
 40
0.5719818222
 40
0.603460476
 40
0.6347917816
 40
0.665968474
 40
0.6969866017
 40
0.7278456627
 40
0.7585486678
 40
0.7891021282
 40
0.8195159588
 40
0.8498032991
 40
0.8649073391
 40
0.8799860234
 40
0.9100712949
 40
0.940085795
 40
0.9550764649
 40
0.9700580337
 40
1.0
 40
1.0
 40
1.0
 40
1.0
 10
10.9427389641
 20
6.887219454
 30
0.0
 10
10.9427389641
 20
6.8827311331
 30
0.0
 10
10.9429898513
 20
6.8759863052
 30
0.0
 10
10.9438184372
 20
6.8670229944
 30
0.0
 10
10.944979452
 20
6.8580511005
 30
0.0
 10
10.9470490999
 20
6.8468849069
 30
0.0
 10
10.9505012678
 20
6.8336565245
 30
0.0
 10
10.9549061544
 20
6.8206537226
 30
0.0
 10
10.9602394297
 20
6.8079483012
 30
0.0
 10
10.9664717286
 20
6.7956098688
 30
0.0
 10
10.973568765
 20
6.7837061608
 30
0.0
 10
10.9814915276
 20
6.7723024835
 30
0.0
 10
10.9901964924
 20
6.7614614122
 30
0.0
 10
10.9996358595
 20
6.7512424373
 30
0.0
 10
11.0097578135
 20
6.7417016458
 30
0.0
 10
11.0205068047
 20
6.7328914149
 30
0.0
 10
11.0318238512
 20
6.7248601281
 30
0.0
 10
11.0436468584
 20
6.7176519115
 30
0.0
 10
11.0559109561
 20
6.7113063934
 30
0.0
 10
11.0685488495
 20
6.7058584878
 30
0.0
 10
11.0814911836
 20
6.7013382018
 30
0.0
 10
11.0946669187
 20
6.6977704711
 30
0.0
 10
11.1080037149
 20
6.6951750211
 30
0.0
 10
11.1214283245
 20
6.6935662561
 30
0.0
 10
11.1348669849
 20
6.6929531731
 30
0.0
 10
11.1482458338
 20
6.6933393137
 30
0.0
 10
11.1614912571
 20
6.6947227117
 30
0.0
 10
11.1745304938
 20
6.6970959866
 30
0.0
 10
11.1872912857
 20
6.7004460367
 30
0.0
 10
11.1976461299
 20
6.704040615
 30
0.0
 10
11.2057172376
 20
6.7073834759
 30
0.0
 10
11.2136249645
 20
6.7110271896
 30
0.0
 10
11.2232131195
 20
6.7161490084
 30
0.0
 10
11.2323566972
 20
6.7220044607
 30
0.0
 10
11.2393641406
 20
6.7271035961
 30
0.0
 10
11.2461553332
 20
6.7324697361
 30
0.0
 10
11.2510045071
 20
6.7367945623
 30
0.0
 10
11.2541150697
 20
6.7397991356
 30
0.0
  0
SPLINE
  5
2CB
100
AcDbEntity
  8
0
100
AcDbSpline
 62
7
  6
CONTINUOUS
 70
0
 71
3
 72
23
 73
19
 74
0
 42
0.0000001
 43
0.0000001
 44
0.0000000001
 40
0.0
 40
0.0
 40
0.0
 40
0.0
 40
0.0749625009
 40
0.1455684839
 40
0.2121600745
 40
0.2751631548
 40
0.3350982506
 40
0.3925832742
 40
0.4483295117
 40
0.5031237972
 40
0.5577983643
 40
0.613191491
 40
0.670106811
 40
0.729278715
 40
0.7913522906
 40
0.8568775564
 40
0.9263090861
 40
1.0
 40
1.0
 40
1.0
 40
1.0
 10
12.2663160348
 20
10.5647782806
 30
0.0
 10
12.2673093799
 20
10.5638538682
 30
0.0
 10
12.2691832736
 20
10.5619979761
 30
0.0
 10
12.2717117214
 20
10.559102511
 30
0.0
 10
12.2738678324
 20
10.5561841248
 30
0.0
 10
12.2756483634
 20
10.5532453275
 30
0.0
 10
12.2770503737
 20
10.5502887377
 30
0.0
 10
12.2780706901
 20
10.5473173665
 30
0.0
 10
12.2787064585
 20
10.544335045
 30
0.0
 10
12.2789554141
 20
10.5413464946
 30
0.0
 10
12.2788165771
 20
10.538357151
 30
0.0
 10
12.2782905235
 20
10.5353725321
 30
0.0
 10
12.2773791308
 20
10.5323976328
 30
0.0
 10
12.2760852674
 20
10.5294365051
 30
0.0
 10
12.274411944
 20
10.5264923957
 30
0.0
 10
12.2723621944
 20
10.5235678773
 30
0.0
 10
12.2699391738
 20
10.5206657362
 30
0.0
 10
12.268132958
 20
10.5188049711
 30
0.0
 10
12.2671735318
 20
10.5178782365
 30
0.0
  0
SPLINE
  5
2CC
100
AcDbEntity
  8
0
100
AcDbSpline
 62
7
  6
CONTINUOUS
 70
0
 71
3
 72
18
 73
14
 74
0
 42
0.0000001
 43
0.0000001
 44
0.0000000001
 40
0.0
 40
0.0
 40
0.0
 40
0.0
 40
0.0548626042
 40
0.1099291913
 40
0.1654012498
 40
0.2214754883
 40
0.3361338268
 40
0.4553632043
 40
0.5171042913
 40
0.5804358326
 40
0.7123317444
 40
0.8519601708
 40
1.0
 40
1.0
 40
1.0
 40
1.0
 10
12.3098950226
 20
10.5109781266
 30
0.0
 10
12.3098950267
 20
10.5104485226
 30
0.0
 10
12.3098614162
 20
10.509387039
 30
0.0
 10
12.3097102648
 20
10.5077965518
 30
0.0
 10
12.3094584167
 20
10.5062069462
 30
0.0
 10
12.3089851908
 20
10.5040740384
 30
0.0
 10
12.3081325639
 20
10.5014008026
 30
0.0
 10
12.3069649308
 20
10.4987906437
 30
0.0
 10
12.3058413407
 20
10.4967163062
 30
0.0
 10
12.3045547878
 20
10.4945944061
 30
0.0
 10
12.3026866762
 20
10.4919507936
 30
0.0
 10
12.3000821854
 20
10.4888441774
 30
0.0
 10
12.2981450992
 20
10.4868507727
 30
0.0
 10
12.2971172342
 20
10.4858579313
 30
0.0
  0
SPLINE
  5
2CD
100
AcDbEntity
  8
0
100
AcDbSpline
 62
7
  6
CONTINUOUS
 70
0
 71
3
 72
18
 73
14
 74
0
 42
0.0000001
 43
0.0000001
 44
0.0000000001
 40
0.0
 40
0.0
 40
0.0
 40
0.0
 40
0.054862568
 40
0.1099291209
 40
0.1654011893
 40
0.2214754292
 40
0.336133642
 40
0.4553634706
 40
0.5171047465
 40
0.5804363458
 40
0.712331634
 40
0.8519592464
 40
1.0
 40
1.0
 40
1.0
 40
1.0
 10
12.3098950169
 20
9.5749956812
 30
0.0
 10
12.3098950141
 20
9.5744660823
 30
0.0
 10
12.3098614011
 20
9.5734046094
 30
0.0
 10
12.3097102439
 20
9.5718141376
 30
0.0
 10
12.3094583749
 20
9.5702245501
 30
0.0
 10
12.3089851299
 20
9.5680916687
 30
0.0
 10
12.3081325153
 20
9.5654184521
 30
0.0
 10
12.3069648549
 20
9.562808328
 30
0.0
 10
12.3058412724
 20
9.5607340037
 30
0.0
 10
12.3045547238
 20
9.5586121312
 30
0.0
 10
12.3026866317
 20
9.555968558
 30
0.0
 10
12.3000821706
 20
9.5528619713
 30
0.0
 10
12.2981450963
 20
9.5508685887
 30
0.0
 10
12.2971172342
 20
9.5498757502
 30
0.0
  0
SPLINE
  5
2CE
100
AcDbEntity
  8
0
100
AcDbSpline
 62
7
  6
CONTINUOUS
 70
0
 71
3
 72
15
 73
11
 74
0
 42
0.0000001
 43
0.0000001
 44
0.0000000001
 40
0.0
 40
0.0
 40
0.0
 40
0.0
 40
0.1273482789
 40
0.2538606571
 40
0.3795878378
 40
0.5046051156
 40
0.629017439
 40
0.7529533823
 40
0.8765605864
 40
1.0
 40
1.0
 40
1.0
 40
1.0
 10
11.4886207232
 20
8.7683526425
 30
0.0
 10
11.4886207232
 20
8.7726797262
 30
0.0
 10
11.4890338735
 20
8.781311473
 30
0.0
 10
11.4909022781
 20
8.794093075
 30
0.0
 10
11.4940004173
 20
8.8065535297
 30
0.0
 10
11.4983003052
 20
8.818576302
 30
0.0
 10
11.5037625054
 20
8.8300505186
 30
0.0
 10
11.5103371897
 20
8.8408702402
 30
0.0
 10
11.5179625591
 20
8.850934085
 30
0.0
 10
11.5237040814
 20
8.8570816644
 30
0.0
 10
11.5267208172
 20
8.8599956274
 30
0.0
  0
ELLIPSE
  5
2CF
100
AcDbEntity
  8
0
100
AcDbEllipse
 62
7
  6
CONTINUOUS
 10
10.1261783414
 20
7.8493376756
 30
0.0
 11
0.2027294607
 21
-0.0298127838
 31
0.0
 40
0.8847685175
 41
0.0
 42
6.2831853072
  0
ELLIPSE
  5
2D0
100
AcDbEntity
  8
0
100
AcDbEllipse
 62
7
  6
CONTINUOUS
 10
10.7005483295
 20
8.2034118931
 30
0.0
 11
-0.1569028638
 21
0.1666520575
 31
0.0
 40
0.7643028659
 41
0.0
 42
6.2831853072
  0
ELLIPSE
  5
2D1
100
AcDbEntity
  8
0
100
AcDbEllipse
 62
7
  6
CONTINUOUS
 10
11.125042159
 20
8.6854614803
 30
0.0
 11
-0.1569028638
 21
0.1666520575
 31
0.0
 40
0.7643028659
 41
0.0
 42
6.2831853072
  0
ENDSEC
  0
SECTION
  2
OBJECTS
  0
DICTIONARY
  5
C
100
AcDbDictionary
280
0
281
1
  3
ACAD_GROUP
350
D
  3
ACAD_MLINESTYLE
350
17
  3
ACAD_LAYOUT
350
1A
  3
ACAD_PLOTSETTINGS
350
19
  3
ACAD_PLOTSTYLENAME
350
E
  3
ACAD_IMAGE_DICT
350
       2D3
  3
ACAD_IMAGE_VARS
350
       2D4
  3
ACAD_TABLESTYLE
350
       2D5
  0
IMAGEDEF_REACTOR
  5
2D2
100
AcDbRasterImageDefReactor
 90
2
330
26A
  0
DICTIONARY
  5
D
102
{ACAD_REACTORS
330
C
102
}
100
AcDbDictionary
280
0
281
1
  0
ACDBDICTIONARYWDFLT
  5
E
102
{ACAD_REACTORS
330
C
102
}
100
AcDbDictionary
281
1
  3
Normal
350
F
100
AcDbDictionaryWithDefault
340
F
  0
DICTIONARY
  5
2D3
330
C
100
AcDbDictionary
281
1
  3
CBP_assy_2_img_1
350
       2D8
  0
RASTERVARIABLES
  5
2D4
330
C
100
AcDbRasterVariables
 90
0
 70
0
 71
1
 72
5
  0
DICTIONARY
  5
17
102
{ACAD_REACTORS
330
C
102
}
100
AcDbDictionary
280
0
281
1
  3
Standard
350
18
  0
DICTIONARY
  5
2D5
330
C
100
AcDbDictionary
281
1
  3
Standard
350
       2D9
  3
Standard1
350
       2DA
  0
DICTIONARY
  5
19
102
{ACAD_REACTORS
330
C
102
}
100
AcDbDictionary
281
1
  0
DICTIONARY
  5
1A
102
{ACAD_REACTORS
330
C
102
}
100
AcDbDictionary
281
1
  3
Model
350
2D6
  3
Layout1
350
2D7
  0
ACDBPLACEHOLDER
  5
F
102
{ACAD_REACTORS
330
E
102
}
  0
MLINESTYLE
  5
18
102
{ACAD_REACTORS
330
17
102
}
100
AcDbMlineStyle
  2
STANDARD
 70
0
  3

 62
256
 51
90.0
 52
90.0
 71
2
 49
0.5
 62
256
  6
BYLAYER
 49
-0.5
 62
256
  6
BYLAYER
  0
LAYOUT
  5
2D6
102
{ACAD_REACTORS
330
1A
102
}
100
AcDbPlotSettings
  1

  2
none_device
  4
ANSI_C_(22.00_x_17.00_Inches)
  6

 40
0.0
 41
0.0
 42
0.0
 43
0.0
 44
558.8
 45
431.8
 46
0.0
 47
0.0
 48
0.0
 49
0.0
140
0.0
141
0.0
142
1.0
143
1.0
 70
1024
 72
0
 73
0
 74
0
  7

 75
0
147
1.0
148
0.0
149
0.0
100
AcDbLayout
  1
Model
 70
0
 71
0
 10
0.0
 20
0.0
 11
22.0
 21
17.0
 12
0.0
 22
0.0
 32
0.0
 14
0.0
 24
0.0
 34
0.0
 15
0.0
 25
0.0
 35
0.0
146
0.0
 13
0.0
 23
0.0
 33
0.0
 16
1.0
 26
0.0
 36
0.0
 17
0.0
 27
1.0
 37
0.0
 76
0
330
207
345
0
346
0
  0
LAYOUT
  5
2D7
102
{ACAD_REACTORS
330
1A
102
}
100
AcDbPlotSettings
  1

  2
none_device
  4
ANSI_C_(22.00_x_17.00_Inches)
  6

 40
0.0
 41
0.0
 42
0.0
 43
0.0
 44
558.8
 45
431.8
 46
0.0
 47
0.0
 48
0.0
 49
0.0
140
0.0
141
0.0
142
1.0
143
1.0
 70
0
 72
0
 73
0
 74
0
  7

 75
0
147
1.0
148
0.0
149
0.0
100
AcDbLayout
  1
Layout1
 70
0
 71
1
 10
0.0
 20
0.0
 11
22.0
 21
17.0
 12
0.0
 22
0.0
 32
0.0
 14
0.0
 24
0.0
 34
0.0
 15
0.0
 25
0.0
 35
0.0
146
0.0
 13
0.0
 23
0.0
 33
0.0
 16
1.0
 26
0.0
 36
0.0
 17
0.0
 27
1.0
 37
0.0
 76
0
330
208
345
0
346
0
  0
IMAGEDEF
  5
2D8
102
{ACAD_REACTORS
330
2D3
330
2D2
102
}
100
AcDbRasterImageDef
 90
0
  1
CBP_assy_2_img_1.png
 10
369.0
 20
92.0
 11
0.0066666667
 21
0.0066666667
280
1
281
0
  0
TABLESTYLE
  5
2D9
102
{ACAD_REACTORS
330
2D5
330
26D
102
}
330
2D5
100
AcDbTableStyle
  3
Standard
 70
0
 71
0
 40
0.06
 41
0.06
280
1
281
1
  7
Standard
140
0.18
170
1
 62
0
 63
7
283
0
  7
Standard
140
0.18
170
1
 62
0
 63
7
283
0
  7
Standard
140
0.18
170
1
 62
0
 63
7
283
0
  0
TABLESTYLE
  5
2DA
102
{ACAD_REACTORS
330
2D5
330
26C
102
}
330
2D5
100
AcDbTableStyle
  3
Standard1
 70
1
 71
0
 40
0.06
 41
0.06
280
1
281
1
  7
Standard
140
0.18
170
1
 62
0
 63
7
283
0
  7
Standard
140
0.18
170
1
 62
0
 63
7
283
0
  7
Standard
140
0.18
170
1
 62
0
 63
7
283
0
  0
ENDSEC
  0
EOF
