999
DXF file: CBJ_assy_2.dxf
999
Pro/ENGINEER 2014200 by Parametric Technology Corporation
  0
SECTION
  2
HEADER
  9
$ACADVER
  1
AC1021
  9
$DWGCODEPAGE
  3
ANSI_1252
  9
$EXTMAX
 10
22.0
 20
17.0
 30
0.0
  9
$EXTMIN
 10
0.0
 20
0.0
 30
0.0
  9
$LIMMIN
 10
0.0
 20
0.0
  9
$LIMMAX
 10
22.0
 20
17.0
  9
$VIEWCTR
 10
11.0
 20
8.5
  9
$VIEWSIZE
 40
17.0
  9
$CLAYER
  8
0
  9
$LTSCALE
 40
1.21
  9
$CELTYPE
  6
BYLAYER
  9
$DIMSCALE
 40
1.0
  9
$DIMASZ
 40
0.1875
  9
$DIMEXO
 40
0.0625
  9
$DIMDLI
 40
0.836
  9
$DIMEXE
 40
0.125
  9
$DIMCEN
 40
0.198
  9
$DIMLFAC
 40
1.0
  9
$DIMBLK
  1
_FILLED
  9
$DIMTXT
 40
0.1
  9
$DIMTOL
 70
0
  9
$DIMLIM
 70
0
  9
$DIMTFAC
 40
1.0
  9
$DIMGAP
 40
0.09
  9
$DIMDSEP
 70
46
  9
$AUNITS
 70
0
  9
$PDMODE
 70
3
  9
$PDSIZE
 40
0.3125
  9
$HANDSEED
  5
406
  9
$TILEMODE
 70
1
  9
$MEASUREMENT
 70
0
  9
$INSUNITS
 70
1
  0
ENDSEC
  0
SECTION
  2
CLASSES
  0
CLASS
  1
ACDBDICTIONARYWDFLT
  2
AcDbDictionaryWithDefault
  3
AutoCAD 2000
 90
0
 91
1
280
0
281
0
  0
CLASS
  1
ACDBPLACEHOLDER
  2
AcDbPlaceHolder
  3
AutoCAD 2000
 90
0
 91
1
280
0
281
0
  0
CLASS
  1
LAYOUT
  2
AcDbLayout
  3
AutoCAD 2000
 90
0
 91
0
280
0
281
0
  0
CLASS
  1
RASTERVARIABLES
  2
AcDbRasterVariables
  3
ISM
 90
0
 91
1
280
0
281
0
  0
CLASS
  1
IMAGEDEF
  2
AcDbRasterImageDef
  3
ISM
 90
0
 91
1
280
0
281
0
  0
CLASS
  1
IMAGEDEF_REACTOR
  2
AcDbRasterImageDefReactor
  3
ISM
 90
0
 91
1
280
0
281
0
  0
CLASS
  1
IMAGE
  2
AcDbRasterImage
  3
ISM
 90
127
 91
1
280
0
281
1
  0
CLASS
  1
TABLESTYLE
  2
AcDbTableStyle
  3
ObjectDBX Classes
 90
2047
 91
1
280
0
281
0
  0
CLASS
  1
ACAD_TABLE
  2
AcDbTable
  3
ObjectDBX Classes
 90
1025
 91
2
280
0
281
1
  0
ENDSEC
  0
SECTION
  2
TABLES
  0
TABLE
  2
VPORT
  5
8
100
AcDbSymbolTable
 70
2
  0
VPORT
  5
1F4
100
AcDbSymbolTableRecord
100
AcDbViewportTableRecord
  2
*ACTIVE
 70
0
 10
0.0
 20
0.0
 11
1.0
 21
1.0
 12
11.0
 22
8.5
 13
0.0
 23
0.0
 14
1.0
 24
1.0
 15
0.0
 25
0.0
 16
0.0
 26
0.0
 36
1.0
 17
0.0
 27
0.0
 37
0.0
 40
17.0
 41
1.2941176471
 42
50.0
 43
0.0
 44
0.0
 50
0.0
 51
0.0
 71
0
 72
100
 73
1
 74
1
 75
0
 76
0
 77
0
 78
0
  0
ENDTAB
  0
TABLE
  2
LTYPE
  5
5
100
AcDbSymbolTable
 70
6
  0
LTYPE
  5
14
100
AcDbSymbolTableRecord
100
AcDbLinetypeTableRecord
  2
BYBLOCK
 70
0
  3

 72
65
 73
0
 40
0.0
  0
LTYPE
  5
15
100
AcDbSymbolTableRecord
100
AcDbLinetypeTableRecord
  2
BYLAYER
 70
0
  3

 72
65
 73
0
 40
0.0
  0
LTYPE
  5
16
100
AcDbSymbolTableRecord
100
AcDbLinetypeTableRecord
  2
CONTINUOUS
 70
64
  3
Solid line
 72
65
 73
0
 40
0.0
  0
LTYPE
  5
1F5
100
AcDbSymbolTableRecord
100
AcDbLinetypeTableRecord
  2
CENTER
 70
64
  3
____ _ ____ _ ____ _ ____ _ ____ _ ____ _ ____
 72
65
 73
4
 40
0.6
 49
0.375
 74
0
 49
-0.075
 74
0
 49
0.075
 74
0
 49
-0.075
 74
0
  0
LTYPE
  5
1F6
100
AcDbSymbolTableRecord
100
AcDbLinetypeTableRecord
  2
HIDDEN
 70
64
  3
- - - - - - - - - - - - - - - - - - - -
 72
65
 73
2
 40
0.2
 49
0.1
 74
0
 49
-0.1
 74
0
  0
LTYPE
  5
1F7
100
AcDbSymbolTableRecord
100
AcDbLinetypeTableRecord
  2
PHANTOM
 70
64
  3
_____ _ _ _____ _ _ _____ _ _ _____
 72
65
 73
6
 40
0.8
 49
0.45
 74
0
 49
-0.05
 74
0
 49
0.1
 74
0
 49
-0.05
 74
0
 49
0.1
 74
0
 49
-0.05
 74
0
  0
LTYPE
  5
1F8
100
AcDbSymbolTableRecord
100
AcDbLinetypeTableRecord
  2
DOT
 70
64
  3
. . . . . . . . . . . . . . . . . . . .
 72
65
 73
2
 40
0.2
 49
0.1
 74
0
 49
-0.1
 74
0
  0
LTYPE
  5
1F9
100
AcDbSymbolTableRecord
100
AcDbLinetypeTableRecord
  2
DASHED
 70
64
  3
- - - - - - - - - - - - - - - - - - - -
 72
65
 73
2
 40
0.2
 49
0.1
 74
0
 49
-0.1
 74
0
  0
ENDTAB
  0
TABLE
  2
LAYER
  5
2
100
AcDbSymbolTable
 70
36
  0
LAYER
  5
10
100
AcDbSymbolTableRecord
100
AcDbLayerTableRecord
  2
0
 70
0
 62
7
  6
CONTINUOUS
370
-3
390
F
  0
LAYER
  5
1FA
100
AcDbSymbolTableRecord
100
AcDbLayerTableRecord
  2
DEFAULT_1
 70
0
 62
7
  6
CENTER
370
-3
390
F
  0
LAYER
  5
1FB
100
AcDbSymbolTableRecord
100
AcDbLayerTableRecord
  2
DEFAULT_2
 70
0
 62
8
  6
HIDDEN
370
-3
390
F
  0
LAYER
  5
1FC
100
AcDbSymbolTableRecord
100
AcDbLayerTableRecord
  2
DEFAULT_3
 70
0
 62
7
  6
PHANTOM
370
-3
390
F
  0
LAYER
  5
1FD
100
AcDbSymbolTableRecord
100
AcDbLayerTableRecord
  2
DATUM_PLANES
 70
0
 62
7
  6
CONTINUOUS
370
-3
390
F
  0
LAYER
  5
1FE
100
AcDbSymbolTableRecord
100
AcDbLayerTableRecord
  2
PORT_AREAS
 70
0
 62
7
  6
CONTINUOUS
370
-3
390
F
  0
LAYER
  5
1FF
100
AcDbSymbolTableRecord
100
AcDbLayerTableRecord
  2
SUNNBOMCOSMETIC
 70
0
 62
7
  6
CONTINUOUS
370
-3
390
F
  0
LAYER
  5
200
100
AcDbSymbolTableRecord
100
AcDbLayerTableRecord
  2
SUNNBOMSTAMPING
 70
0
 62
7
  6
CONTINUOUS
370
-3
390
F
  0
LAYER
  5
201
100
AcDbSymbolTableRecord
100
AcDbLayerTableRecord
  2
THREADS
 70
0
 62
7
  6
CONTINUOUS
370
-3
390
F
  0
ENDTAB
  0
TABLE
  2
STYLE
  5
3
100
AcDbSymbolTable
 70
1
  0
STYLE
  5
11
100
AcDbSymbolTableRecord
100
AcDbTextStyleTableRecord
  2
STANDARD
 70
0
 40
0.0
 41
0.8
 50
0.0
 71
0
 42
0.2
  3
txt
  4

  0
STYLE
  5
202
100
AcDbSymbolTableRecord
100
AcDbTextStyleTableRecord
  2
TEXTSTYLE_1
 70
0
 40
0.0
 41
0.8
 50
0.0
 71
0
 42
0.2
  3
gdt
  4

  0
ENDTAB
  0
TABLE
  2
VIEW
  5
6
100
AcDbSymbolTable
 70
0
  0
ENDTAB
  0
TABLE
  2
UCS
  5
7
100
AcDbSymbolTable
 70
0
  0
ENDTAB
  0
TABLE
  2
APPID
  5
9
100
AcDbSymbolTable
 70
1
  0
APPID
  5
203
100
AcDbSymbolTableRecord
100
AcDbRegAppTableRecord
  2
ACAD
 70
0
  0
ENDTAB
  0
TABLE
  2
BLOCK_RECORD
  5
1
100
AcDbSymbolTable
 70
0
  0
BLOCK_RECORD
  5
204
100
AcDbSymbolTableRecord
100
AcDbBlockTableRecord
  2
*Model_Space
  0
BLOCK_RECORD
  5
205
100
AcDbSymbolTableRecord
100
AcDbBlockTableRecord
  2
*Paper_Space
  0
BLOCK_RECORD
  5
206
100
AcDbSymbolTableRecord
100
AcDbBlockTableRecord
  2
SUN_FIRST_THIRD_ANGLE_BL0
  0
BLOCK_RECORD
  5
207
100
AcDbSymbolTableRecord
100
AcDbBlockTableRecord
  2
*T1
  0
BLOCK_RECORD
  5
208
100
AcDbSymbolTableRecord
100
AcDbBlockTableRecord
  2
*T2
  0
ENDTAB
  0
TABLE
  2
DIMSTYLE
  5
A
100
AcDbSymbolTable
 70
1
100
AcDbDimStyleTable
 71
0
  0
DIMSTYLE
105
209
100
AcDbSymbolTableRecord
100
AcDbDimStyleTableRecord
  2
STANDARD
 70
0
  3

  4

 40
1.0
 41
0.1875
 42
0.0625
 43
0.38
 44
0.125
 45
0.0
 46
0.0
 47
0.001
 48
0.001
140
0.1
141
0.09
142
0.0
143
25.4
144
1.0
145
0.0
146
1.0
147
0.09
 71
0.0
 72
0.0
 73
1
 74
1
 75
0
 76
0
 77
0
 78
4
170
0
171
2
172
0
173
0
174
0
175
0
176
0
177
0
178
0
270
2
271
3
272
3
273
2
274
2
275
0
280
0
281
0
282
0
283
1
284
4
285
0
286
0
287
3
288
0
340
11
278
46
  0
ENDTAB
  0
ENDSEC
  0
SECTION
  2
BLOCKS
  0
BLOCK
  5
20
100
AcDbEntity
  8
0
100
AcDbBlockBegin
  2
*Model_Space
 70
0
 10
0.0
 20
0.0
 30
0.0
  3
*Model_Space
  1

  0
ENDBLK
  5
21
100
AcDbEntity
  8
0
100
AcDbBlockEnd
  0
BLOCK
  5
1C
100
AcDbEntity
  8
0
100
AcDbBlockBegin
  2
*Paper_Space
 70
0
 10
0.0
 20
0.0
 30
0.0
  3
*Paper_Space
  1

  0
ENDBLK
  5
1D
100
AcDbEntity
  8
0
100
AcDbBlockEnd
  0
BLOCK
  5
20A
100
AcDbEntity
  8
0
100
AcDbBlockBegin
 62
2
  6
CONTINUOUS
  2
SUN_FIRST_THIRD_ANGLE_BL0
 70
64
 10
20.4816717061
 20
1.2289683772
  3
SUN_FIRST_THIRD_ANGLE_BL0
  1

  0
TEXT
  5
20B
100
AcDbEntity
  8
0
100
AcDbText
 62
2
  6
CONTINUOUS
 10
19.4750896608
 20
1.4136269581
  7
STANDARD
 40
0.08
  1
FIRST ANGLE
 41
0.8
 72
0
100
AcDbText
  0
TEXT
  5
20C
100
AcDbEntity
  8
0
100
AcDbText
 62
2
  6
CONTINUOUS
 10
20.7842537513
 20
1.4047600029
  7
STANDARD
 40
0.08
  1
THIRD ANGLE
 41
0.8
 72
0
100
AcDbText
  0
LINE
  5
20D
100
AcDbEntity
  8
0
100
AcDbLine
 62
7
  6
CONTINUOUS
 10
19.4767170086
 20
1.1727031207
 11
19.6334271527
 21
1.1717972817
  0
LINE
  5
20E
100
AcDbEntity
  8
0
100
AcDbLine
 62
7
  6
CONTINUOUS
 10
19.6596964832
 20
1.1717972817
 11
19.6950230232
 21
1.171593082
  0
LINE
  5
20F
100
AcDbEntity
  8
0
100
AcDbLine
 62
7
  6
CONTINUOUS
 10
19.7194818561
 20
1.1708914427
 11
19.8852396156
 21
1.1699333054
  0
LINE
  5
210
100
AcDbEntity
  8
0
100
AcDbLine
 62
7
  6
CONTINUOUS
 10
19.4758111696
 20
1.2723454088
 11
19.88525039
 21
1.3511534004
  0
LINE
  5
211
100
AcDbEntity
  8
0
100
AcDbLine
 62
7
  6
CONTINUOUS
 10
19.88525039
 20
1.3511534004
 11
19.8831348489
 21
0.9851647912
  0
LINE
  5
212
100
AcDbEntity
  8
0
100
AcDbLine
 62
7
  6
CONTINUOUS
 10
19.8831348489
 20
0.9851647912
 11
19.4767170086
 21
1.0658141206
  0
LINE
  5
213
100
AcDbEntity
  8
0
100
AcDbLine
 62
7
  6
CONTINUOUS
 10
19.4767170086
 20
1.0658141206
 11
19.4779056764
 21
1.2714536432
  0
CIRCLE
  5
214
100
AcDbEntity
  8
0
100
AcDbCircle
 62
7
  6
CONTINUOUS
 10
20.2068232291
 20
1.1717972817
 40
0.175742101
  0
CIRCLE
  5
215
100
AcDbEntity
  8
0
100
AcDbCircle
 62
7
  6
CONTINUOUS
 10
20.2068232291
 20
1.1717972817
 40
0.1005522074
  0
LINE
  5
216
100
AcDbEntity
  8
0
100
AcDbLine
 62
7
  6
CONTINUOUS
 10
20.2077290681
 20
1.3756110529
 11
20.2071171714
 21
1.2379342989
  0
LINE
  5
217
100
AcDbEntity
  8
0
100
AcDbLine
 62
7
  6
CONTINUOUS
 10
20.2077290681
 20
1.2016899681
 11
20.2074674401
 21
1.1428236749
  0
LINE
  5
218
100
AcDbEntity
  8
0
100
AcDbLine
 62
7
  6
CONTINUOUS
 10
20.208634907
 20
1.101141841
 11
20.2080230104
 21
0.963465087
  0
LINE
  5
219
100
AcDbEntity
  8
0
100
AcDbLine
 62
7
  6
CONTINUOUS
 10
20.0066328138
 20
1.1745147986
 11
20.1443095678
 21
1.1739029019
  0
LINE
  5
21A
100
AcDbEntity
  8
0
100
AcDbLine
 62
7
  6
CONTINUOUS
 10
20.1832714155
 20
1.1727031207
 11
20.238153505
 21
1.172335442
  0
LINE
  5
21B
100
AcDbEntity
  8
0
100
AcDbLine
 62
7
  6
CONTINUOUS
 10
20.2756669918
 20
1.1717972817
 11
20.407916871
 21
1.1712095044
  0
CIRCLE
  5
21C
100
AcDbEntity
  8
0
100
AcDbCircle
 62
7
  6
CONTINUOUS
 10
20.7509457401
 20
1.1693297793
 40
0.1722024983
  0
CIRCLE
  5
21D
100
AcDbEntity
  8
0
100
AcDbCircle
 62
7
  6
CONTINUOUS
 10
20.7509457401
 20
1.1693297793
 40
0.0985164967
  0
LINE
  5
21E
100
AcDbEntity
  8
0
100
AcDbLine
 62
7
  6
CONTINUOUS
 10
20.7169767782
 20
1.170462078
 11
20.7825395137
 21
1.1682766535
  0
LINE
  5
21F
100
AcDbEntity
  8
0
100
AcDbLine
 62
7
  6
CONTINUOUS
 10
20.8177513651
 20
1.1693297793
 11
20.947965719
 21
1.1693297793
  0
LINE
  5
220
100
AcDbEntity
  8
0
100
AcDbLine
 62
7
  6
CONTINUOUS
 10
20.6875370113
 20
1.170462078
 11
20.5573226574
 21
1.170462078
  0
LINE
  5
221
100
AcDbEntity
  8
0
100
AcDbLine
 62
7
  6
CONTINUOUS
 10
20.7486811426
 20
1.1987695462
 11
20.7486811426
 21
1.1432869085
  0
LINE
  5
222
100
AcDbEntity
  8
0
100
AcDbLine
 62
7
  6
CONTINUOUS
 10
20.7498134414
 20
1.1059210505
 11
20.7498134414
 21
0.9757066966
  0
LINE
  5
223
100
AcDbEntity
  8
0
100
AcDbLine
 62
7
  6
CONTINUOUS
 10
20.7486811426
 20
1.2338708068
 11
20.7486811426
 21
1.3640851607
  0
LINE
  5
224
100
AcDbEntity
  8
0
100
AcDbLine
 62
7
  6
CONTINUOUS
 10
21.0702539817
 20
1.2701043662
 11
21.4790138229
 21
1.3448360823
  0
LINE
  5
225
100
AcDbEntity
  8
0
100
AcDbLine
 62
7
  6
CONTINUOUS
 10
21.4790138229
 20
1.3448360823
 11
21.4790138229
 21
0.9779712941
  0
LINE
  5
226
100
AcDbEntity
  8
0
100
AcDbLine
 62
7
  6
CONTINUOUS
 10
21.4790138229
 20
0.9779712941
 11
21.069121683
 21
1.0617614
  0
LINE
  5
227
100
AcDbEntity
  8
0
100
AcDbLine
 62
7
  6
CONTINUOUS
 10
21.0702539817
 20
1.2701043662
 11
21.069121683
 21
1.0617614
  0
LINE
  5
228
100
AcDbEntity
  8
0
100
AcDbLine
 62
7
  6
CONTINUOUS
 10
21.4790138229
 20
1.1693297793
 11
21.3159628059
 21
1.1693297793
  0
LINE
  5
229
100
AcDbEntity
  8
0
100
AcDbLine
 62
7
  6
CONTINUOUS
 10
21.2876553377
 20
1.1693297793
 11
21.2502894796
 21
1.1693297793
  0
LINE
  5
22A
100
AcDbEntity
  8
0
100
AcDbLine
 62
7
  6
CONTINUOUS
 10
21.2208497126
 20
1.1659328831
 11
21.0713862804
 21
1.1659328831
  0
LINE
  5
22B
100
AcDbEntity
  8
0
100
AcDbLine
 62
7
  6
CONTINUOUS
 10
20.4796138713
 20
1.5284908897
 11
20.4766766948
 21
0.9294458646
  0
ENDBLK
  5
22C
100
AcDbEntity
  8
0
  6
BYBLOCK
 62
0
100
AcDbBlockEnd
  0
BLOCK
  5
22D
100
AcDbEntity
  8
0
100
AcDbBlockBegin
  2
*T1
 70
1
 10
0.0
 20
0.0
  3
*T1
  1

  0
LINE
  5
22E
100
AcDbEntity
  8
0
100
AcDbLine
 62
2
  6
CONTINUOUS
 10
9.275
 20
0.0
 11
-0.0
 21
0.0
  0
LINE
  5
22F
100
AcDbEntity
  8
0
100
AcDbLine
 62
2
  6
CONTINUOUS
 10
9.275
 20
0.0
 11
9.275
 21
1.25
  0
LINE
  5
230
100
AcDbEntity
  8
0
100
AcDbLine
 62
2
  6
CONTINUOUS
 10
9.275
 20
0.625
 11
-0.0
 21
0.625
  0
LINE
  5
231
100
AcDbEntity
  8
0
100
AcDbLine
 62
2
  6
CONTINUOUS
 10
9.275
 20
1.25
 11
-0.0
 21
1.25
  0
LINE
  5
232
100
AcDbEntity
  8
0
100
AcDbLine
 62
2
  6
CONTINUOUS
 10
6.8
 20
0.0
 11
6.8
 21
1.25
  0
LINE
  5
233
100
AcDbEntity
  8
0
100
AcDbLine
 62
2
  6
CONTINUOUS
 10
6.4
 20
0.0
 11
6.4
 21
0.625
  0
LINE
  5
234
100
AcDbEntity
  8
0
100
AcDbLine
 62
2
  6
CONTINUOUS
 10
5.9
 20
0.0
 11
5.9
 21
0.625
  0
LINE
  5
235
100
AcDbEntity
  8
0
100
AcDbLine
 62
2
  6
CONTINUOUS
 10
5.2
 20
0.0
 11
5.2
 21
0.625
  0
LINE
  5
236
100
AcDbEntity
  8
0
100
AcDbLine
 62
2
  6
CONTINUOUS
 10
4.1
 20
0.0
 11
4.1
 21
1.25
  0
LINE
  5
237
100
AcDbEntity
  8
0
100
AcDbLine
 62
2
  6
CONTINUOUS
 10
-0.0
 20
0.0
 11
-0.0
 21
1.25
  0
MTEXT
  5
238
100
AcDbEntity
  8
0
100
AcDbMText
 62
2
  6
CONTINUOUS
  7
STANDARD
 71
2
 72
1
 10
6.6
 20
0.325
 30
0.0
 11
1.0
 21
0.0
 31
0.0
 44
0.9
  1
2
 40
0.125
 41
0.2
  0
MTEXT
  5
239
100
AcDbEntity
  8
0
100
AcDbMText
 62
2
  6
CONTINUOUS
  7
STANDARD
 71
2
 72
1
 10
6.15
 20
0.325
 30
0.0
 11
1.0
 21
0.0
 31
0.0
 44
0.9
  1
C
 40
0.125
 41
0.2
  0
MTEXT
  5
23A
100
AcDbEntity
  8
0
100
AcDbMText
 62
2
  6
CONTINUOUS
  7
STANDARD
 71
2
 72
1
 10
5.55
 20
0.325
 30
0.0
 11
1.0
 21
0.0
 31
0.0
 44
0.9
  1
2.000
 40
0.125
 41
1.0
  0
MTEXT
  5
23B
100
AcDbEntity
  8
0
100
AcDbMText
 62
2
  6
CONTINUOUS
  7
STANDARD
 71
2
 72
1
 10
4.65
 20
0.325
 30
0.0
 11
1.0
 21
0.0
 31
0.0
 44
0.9
  1
Sep-06-20
 40
0.125
 41
1.8
  0
MTEXT
  5
23C
100
AcDbEntity
  8
0
100
AcDbMText
 62
2
  6
CONTINUOUS
  7
STANDARD
 71
2
 72
1
 10
2.05
 20
0.4625
 30
0.0
 11
1.0
 21
0.0
 31
0.0
 44
0.9
  1
T-2A Sandwich ISO 05\P(See Technical Data for Body Features)
 40
0.125
 41
7.6
  0
MTEXT
  5
23D
100
AcDbEntity
  8
0
100
AcDbMText
 62
2
  6
CONTINUOUS
  7
STANDARD
 71
1
 72
1
 10
6.45
 20
0.5625
 30
0.0
 11
1.0
 21
0.0
 31
0.0
 44
0.9
  1
SHEET
 40
0.06
 41
0.48
  0
MTEXT
  5
23E
100
AcDbEntity
  8
0
100
AcDbMText
 62
2
  6
CONTINUOUS
  7
STANDARD
 71
1
 72
1
 10
5.95
 20
0.5625
 30
0.0
 11
1.0
 21
0.0
 31
0.0
 44
0.9
  1
DWG SIZE
 40
0.06
 41
0.768
  0
MTEXT
  5
23F
100
AcDbEntity
  8
0
100
AcDbMText
 62
2
  6
CONTINUOUS
  7
STANDARD
 71
1
 72
1
 10
5.25
 20
0.5625
 30
0.0
 11
1.0
 21
0.0
 31
0.0
 44
0.9
  1
SCALE
 40
0.06
 41
0.48
  0
MTEXT
  5
240
100
AcDbEntity
  8
0
100
AcDbMText
 62
2
  6
CONTINUOUS
  7
STANDARD
 71
1
 72
1
 10
4.15
 20
0.5625
 30
0.0
 11
1.0
 21
0.0
 31
0.0
 44
0.9
  1
DATE
 40
0.06
 41
0.384
  0
MTEXT
  5
241
100
AcDbEntity
  8
0
100
AcDbMText
 62
2
  6
CONTINUOUS
  7
STANDARD
 71
1
 72
1
 10
0.05
 20
0.5625
 30
0.0
 11
1.0
 21
0.0
 31
0.0
 44
0.9
  1
DESCRIPTION
 40
0.06
 41
1.056
  0
MTEXT
  5
242
100
AcDbEntity
  8
0
100
AcDbMText
 62
2
  6
CONTINUOUS
  7
STANDARD
 71
2
 72
1
 10
5.45
 20
1.0375
 30
0.0
 11
1.0
 21
0.0
 31
0.0
 44
0.9
  1
ALL DIMENSIONS IN INCH\PVIEWS ARE THIRD ANGLE
 40
0.12
 41
4.224
  0
MTEXT
  5
243
100
AcDbEntity
  8
0
100
AcDbMText
 62
2
  6
CONTINUOUS
  7
STANDARD
 71
2
 72
1
 10
2.05
 20
0.95
 30
0.0
 11
1.0
 21
0.0
 31
0.0
 44
0.9
  1
CBJ
 40
0.125
 41
0.6
  0
MTEXT
  5
244
100
AcDbEntity
  8
0
100
AcDbMText
 62
2
  6
CONTINUOUS
  7
STANDARD
 71
1
 72
1
 10
0.05
 20
1.1875
 30
0.0
 11
1.0
 21
0.0
 31
0.0
 44
0.9
  1
MODEL
 40
0.06
 41
0.48
  0
ENDBLK
  5
245
100
AcDbEntity
  8
0
  6
BYBLOCK
 62
0
100
AcDbBlockEnd
  0
BLOCK
  5
246
100
AcDbEntity
  8
0
100
AcDbBlockBegin
  2
*T2
 70
1
 10
0.0
 20
0.0
  3
*T2
  1

  0
LINE
  5
247
100
AcDbEntity
  8
0
100
AcDbLine
 62
2
  6
CONTINUOUS
 10
0.0
 20
0.0
 11
9.055
 21
0.0
  0
LINE
  5
248
100
AcDbEntity
  8
0
100
AcDbLine
 62
2
  6
CONTINUOUS
 10
0.0
 20
0.0
 11
0.0
 21
-2.344
  0
LINE
  5
249
100
AcDbEntity
  8
0
100
AcDbLine
 62
2
  6
CONTINUOUS
 10
0.0
 20
-0.344
 11
9.055
 21
-0.344
  0
LINE
  5
24A
100
AcDbEntity
  8
0
100
AcDbLine
 62
2
  6
CONTINUOUS
 10
0.0
 20
-0.594
 11
9.055
 21
-0.594
  0
LINE
  5
24B
100
AcDbEntity
  8
0
100
AcDbLine
 62
2
  6
CONTINUOUS
 10
0.0
 20
-0.844
 11
9.055
 21
-0.844
  0
LINE
  5
24C
100
AcDbEntity
  8
0
100
AcDbLine
 62
2
  6
CONTINUOUS
 10
0.0
 20
-1.094
 11
9.055
 21
-1.094
  0
LINE
  5
24D
100
AcDbEntity
  8
0
100
AcDbLine
 62
2
  6
CONTINUOUS
 10
0.0
 20
-1.344
 11
9.055
 21
-1.344
  0
LINE
  5
24E
100
AcDbEntity
  8
0
100
AcDbLine
 62
2
  6
CONTINUOUS
 10
0.0
 20
-1.594
 11
9.055
 21
-1.594
  0
LINE
  5
24F
100
AcDbEntity
  8
0
100
AcDbLine
 62
2
  6
CONTINUOUS
 10
0.0
 20
-1.844
 11
9.055
 21
-1.844
  0
LINE
  5
250
100
AcDbEntity
  8
0
100
AcDbLine
 62
2
  6
CONTINUOUS
 10
0.0
 20
-2.094
 11
9.055
 21
-2.094
  0
LINE
  5
251
100
AcDbEntity
  8
0
100
AcDbLine
 62
2
  6
CONTINUOUS
 10
0.0
 20
-2.344
 11
9.055
 21
-2.344
  0
LINE
  5
252
100
AcDbEntity
  8
0
100
AcDbLine
 62
2
  6
CONTINUOUS
 10
3.055
 20
0.0
 11
3.055
 21
-2.344
  0
LINE
  5
253
100
AcDbEntity
  8
0
100
AcDbLine
 62
2
  6
CONTINUOUS
 10
9.055
 20
0.0
 11
9.055
 21
-2.344
  0
MTEXT
  5
254
100
AcDbEntity
  8
0
100
AcDbMText
 62
2
  6
CONTINUOUS
  7
STANDARD
 71
2
 72
1
 10
1.5275
 20
-0.0995
 30
0.0
 11
1.0
 21
0.0
 31
0.0
 44
0.9
  1
Technical Data
 40
0.145
 41
3.248
  0
MTEXT
  5
255
100
AcDbEntity
  8
0
100
AcDbMText
 62
2
  6
CONTINUOUS
  7
STANDARD
 71
2
 72
1
 10
4.555
 20
-0.0995
 30
0.0
 11
1.0
 21
0.0
 31
0.0
 44
0.9
  1
U.S. Units
 40
0.145
 41
2.32
  0
MTEXT
  5
256
100
AcDbEntity
  8
0
100
AcDbMText
 62
2
  6
CONTINUOUS
  7
STANDARD
 71
2
 72
1
 10
7.555
 20
-0.0995
 30
0.0
 11
1.0
 21
0.0
 31
0.0
 44
0.9
  1
Metric Units
 40
0.145
 41
2.784
  0
MTEXT
  5
257
100
AcDbEntity
  8
0
100
AcDbMText
 62
2
  6
CONTINUOUS
  7
STANDARD
 71
2
 72
1
 10
1.5275
 20
-0.4065
 30
0.0
 11
1.0
 21
0.0
 31
0.0
 44
0.9
  1
Cavity
 40
0.125
 41
1.2
  0
MTEXT
  5
258
100
AcDbEntity
  8
0
100
AcDbMText
 62
2
  6
CONTINUOUS
  7
STANDARD
 71
2
 72
1
 10
6.055
 20
-0.4065
 30
0.0
 11
1.0
 21
0.0
 31
0.0
 44
0.9
  1
T-2A
 40
0.125
 41
0.8
  0
MTEXT
  5
259
100
AcDbEntity
  8
0
100
AcDbMText
 62
2
  6
CONTINUOUS
  7
STANDARD
 71
2
 72
1
 10
1.5275
 20
-0.6565
 30
0.0
 11
1.0
 21
0.0
 31
0.0
 44
0.9
  1
Body Features
 40
0.125
 41
2.6
  0
MTEXT
  5
25A
100
AcDbEntity
  8
0
100
AcDbMText
 62
2
  6
CONTINUOUS
  7
STANDARD
 71
2
 72
1
 10
6.055
 20
-0.6565
 30
0.0
 11
1.0
 21
0.0
 31
0.0
 44
0.9
  1
Meter in with restrictive compensator and LS shuttle
 40
0.125
 41
10.4
  0
MTEXT
  5
25B
100
AcDbEntity
  8
0
100
AcDbMText
 62
2
  6
CONTINUOUS
  7
STANDARD
 71
2
 72
1
 10
1.5275
 20
-0.9065
 30
0.0
 11
1.0
 21
0.0
 31
0.0
 44
0.9
  1
Body Type
 40
0.125
 41
1.8
  0
MTEXT
  5
25C
100
AcDbEntity
  8
0
100
AcDbMText
 62
2
  6
CONTINUOUS
  7
STANDARD
 71
2
 72
1
 10
6.055
 20
-0.9065
 30
0.0
 11
1.0
 21
0.0
 31
0.0
 44
0.9
  1
Sandwich
 40
0.125
 41
1.6
  0
MTEXT
  5
25D
100
AcDbEntity
  8
0
100
AcDbMText
 62
2
  6
CONTINUOUS
  7
STANDARD
 71
2
 72
1
 10
1.5275
 20
-1.1565
 30
0.0
 11
1.0
 21
0.0
 31
0.0
 44
0.9
  1
Interface
 40
0.125
 41
1.8
  0
MTEXT
  5
25E
100
AcDbEntity
  8
0
100
AcDbMText
 62
2
  6
CONTINUOUS
  7
STANDARD
 71
2
 72
1
 10
6.055
 20
-1.1565
 30
0.0
 11
1.0
 21
0.0
 31
0.0
 44
0.9
  1
ISO 05
 40
0.125
 41
1.2
  0
MTEXT
  5
25F
100
AcDbEntity
  8
0
100
AcDbMText
 62
2
  6
CONTINUOUS
  7
STANDARD
 71
2
 72
1
 10
1.5275
 20
-1.4065
 30
0.0
 11
1.0
 21
0.0
 31
0.0
 44
0.9
  1
Open Cavity Quantity
 40
0.125
 41
4.0
  0
MTEXT
  5
260
100
AcDbEntity
  8
0
100
AcDbMText
 62
2
  6
CONTINUOUS
  7
STANDARD
 71
2
 72
1
 10
6.055
 20
-1.4065
 30
0.0
 11
1.0
 21
0.0
 31
0.0
 44
0.9
  1
1
 40
0.125
 41
0.2
  0
MTEXT
  5
261
100
AcDbEntity
  8
0
100
AcDbMText
 62
2
  6
CONTINUOUS
  7
STANDARD
 71
2
 72
1
 10
1.5275
 20
-1.6565
 30
0.0
 11
1.0
 21
0.0
 31
0.0
 44
0.9
  1
Stack Height
 40
0.125
 41
2.4
  0
MTEXT
  5
262
100
AcDbEntity
  8
0
100
AcDbMText
 62
2
  6
CONTINUOUS
  7
STANDARD
 71
2
 72
1
 10
4.555
 20
-1.6565
 30
0.0
 11
1.0
 21
0.0
 31
0.0
 44
0.9
  1
2.49 in.
 40
0.125
 41
1.6
  0
MTEXT
  5
263
100
AcDbEntity
  8
0
100
AcDbMText
 62
2
  6
CONTINUOUS
  7
STANDARD
 71
2
 72
1
 10
7.555
 20
-1.6565
 30
0.0
 11
1.0
 21
0.0
 31
0.0
 44
0.9
  1
63 mm
 40
0.125
 41
1.0
  0
MTEXT
  5
264
100
AcDbEntity
  8
0
100
AcDbMText
 62
2
  6
CONTINUOUS
  7
STANDARD
 71
2
 72
1
 10
1.5275
 20
-1.9065
 30
0.0
 11
1.0
 21
0.0
 31
0.0
 44
0.9
  1
Weight
 40
0.125
 41
1.2
  0
MTEXT
  5
265
100
AcDbEntity
  8
0
100
AcDbMText
 62
2
  6
CONTINUOUS
  7
STANDARD
 71
2
 72
1
 10
4.555
 20
-1.9065
 30
0.0
 11
1.0
 21
0.0
 31
0.0
 44
0.9
  1
2.411 lb.
 40
0.125
 41
1.8
  0
MTEXT
  5
266
100
AcDbEntity
  8
0
100
AcDbMText
 62
2
  6
CONTINUOUS
  7
STANDARD
 71
2
 72
1
 10
7.555
 20
-1.9065
 30
0.0
 11
1.0
 21
0.0
 31
0.0
 44
0.9
  1
1,094 kg.
 40
0.125
 41
1.8
  0
MTEXT
  5
267
100
AcDbEntity
  8
0
100
AcDbMText
 62
2
  6
CONTINUOUS
  7
STANDARD
 71
2
 72
1
 10
1.5275
 20
-2.1565
 30
0.0
 11
1.0
 21
0.0
 31
0.0
 44
0.9
  1
Seal Plate Included (see notes)
 40
0.125
 41
6.2
  0
MTEXT
  5
268
100
AcDbEntity
  8
0
100
AcDbMText
 62
2
  6
CONTINUOUS
  7
STANDARD
 71
2
 72
1
 10
6.055
 20
-2.1565
 30
0.0
 11
1.0
 21
0.0
 31
0.0
 44
0.9
  1
Yes
 40
0.125
 41
0.6
  0
ENDBLK
  5
269
100
AcDbEntity
  8
0
  6
BYBLOCK
 62
0
100
AcDbBlockEnd
  0
ENDSEC
  0
SECTION
  2
ENTITIES
  0
IMAGE
  5
26A
100
AcDbEntity
  8
0
100
AcDbRasterImage
 62
7
  6
CONTINUOUS
 10
19.2297077316
 20
0.3094318264
 30
0.0
 11
0.0066666667
 21
0.0
 31
0.0
 12
0.0
 22
0.0066666667
 32
0.0
 13
369.0
 23
92.0
340
       403
 70
9
280
0
281
50
282
50
283
0
360
       3FD
 71
1
 91
2
 14
-0.5
 24
-0.5
 14
368.5
 24
91.5
  0
INSERT
  5
26B
100
AcDbEntity
  8
0
100
AcDbBlockReference
 62
2
  6
CONTINUOUS
  2
SUN_FIRST_THIRD_ANGLE_BL0
 10
20.4816717061
 20
1.2289683772
  0
ACAD_TABLE
  5
26C
100
AcDbEntity
  8
0
 62
2
  6
CONTINUOUS
100
AcDbBlockReference
  2
*T1
 10
12.42375
 20
0.30125
 30
0.0
100
AcDbTable
342
       405
343
207
 11
1.0
 21
0.0
 31
0.0
 90
6
 91
4
 92
6
 93
20
 94
0
 95
0
 96
0
 70
1
 41
0.0
141
0.525
141
0.1
141
0.525
141
0.1
142
4.1
142
1.1
142
0.7
142
0.5
142
0.4
142
2.475
171
1
172
0
173
0
174
0
175
1
176
1
 91
33
178
0
145
0.0
301
CELL_VALUE
 90
4
  1
T-2A Sandwich ISO 05\P(See Technical Data for Body Features)
304
ACVALUE_END
170
2
140
0.125
171
1
172
0
173
0
174
0
175
1
176
1
 91
33
178
0
145
0.0
301
CELL_VALUE
 90
4
  1
Sep-06-20
304
ACVALUE_END
170
5
140
0.125
171
1
172
0
173
0
174
0
175
1
176
1
 91
33
178
0
145
0.0
301
CELL_VALUE
 90
4
  1
2.000
304
ACVALUE_END
170
5
140
0.125
171
1
172
0
173
0
174
0
175
1
176
1
 91
33
178
0
145
0.0
301
CELL_VALUE
 90
4
  1
C
304
ACVALUE_END
170
5
140
0.125
171
1
172
0
173
0
174
0
175
1
176
1
 91
33
178
0
145
0.0
301
CELL_VALUE
 90
4
  1
2
304
ACVALUE_END
170
5
140
0.125
171
1
172
0
173
0
174
0
175
1
176
1
 91
33
178
0
145
0.0
301
CELL_VALUE
 90
4
  1
 
304
ACVALUE_END
170
1
140
0.125
171
1
172
0
173
0
174
0
175
1
176
1
 91
33
178
0
145
0.0
301
CELL_VALUE
 90
4
  1
DESCRIPTION
304
ACVALUE_END
170
1
140
0.06
171
1
172
0
173
0
174
0
175
1
176
1
 91
33
178
0
145
0.0
301
CELL_VALUE
 90
4
  1
DATE
304
ACVALUE_END
170
1
140
0.06
171
1
172
0
173
0
174
0
175
1
176
1
 91
33
178
0
145
0.0
301
CELL_VALUE
 90
4
  1
SCALE
304
ACVALUE_END
170
1
140
0.06
171
1
172
0
173
0
174
0
175
1
176
1
 91
33
178
0
145
0.0
301
CELL_VALUE
 90
4
  1
DWG SIZE
304
ACVALUE_END
170
1
140
0.06
171
1
172
0
173
0
174
0
175
1
176
1
 91
33
178
0
145
0.0
301
CELL_VALUE
 90
4
  1
SHEET
304
ACVALUE_END
170
1
140
0.06
171
1
172
0
173
0
174
0
175
1
176
1
 91
33
178
0
145
0.0
301
CELL_VALUE
 90
4
  1
 
304
ACVALUE_END
170
1
140
0.125
171
1
172
0
173
0
174
0
175
1
176
1
 91
33
178
0
145
0.0
301
CELL_VALUE
 90
4
  1
CBJ
304
ACVALUE_END
170
5
140
0.125
171
1
172
0
173
0
174
0
175
4
176
1
 91
33
178
0
145
0.0
301
CELL_VALUE
 90
4
  1
ALL DIMENSIONS IN INCH\PVIEWS ARE THIRD ANGLE
304
ACVALUE_END
170
5
140
0.12
171
1
172
0
173
1
174
0
175
1
176
1
 91
1
178
0
145
0.0
170
1
171
1
172
0
173
1
174
0
175
1
176
1
 91
1
178
0
145
0.0
170
1
171
1
172
0
173
1
174
0
175
1
176
1
 91
1
178
0
145
0.0
170
5
171
1
172
0
173
0
174
0
175
1
176
1
 91
33
178
0
145
0.0
301
CELL_VALUE
 90
4
  1
 
304
ACVALUE_END
170
1
140
0.125
171
1
172
0
173
0
174
0
175
1
176
1
 91
33
178
0
145
0.0
301
CELL_VALUE
 90
4
  1
MODEL
304
ACVALUE_END
170
1
140
0.06
171
1
172
0
173
0
174
0
175
1
176
1
 91
33
178
0
145
0.0
301
CELL_VALUE
 90
4
  1
 
304
ACVALUE_END
170
1
140
0.125
171
1
172
0
173
0
174
0
175
1
176
1
 91
33
178
0
145
0.0
301
CELL_VALUE
 90
4
  1
 
304
ACVALUE_END
170
1
140
0.125
171
1
172
0
173
0
174
0
175
1
176
1
 91
33
178
0
145
0.0
301
CELL_VALUE
 90
4
  1
 
304
ACVALUE_END
170
1
140
0.125
171
1
172
0
173
0
174
0
175
1
176
1
 91
33
178
0
145
0.0
301
CELL_VALUE
 90
4
  1
 
304
ACVALUE_END
170
1
140
0.125
171
1
172
0
173
0
174
0
175
1
176
1
 91
33
178
0
145
0.0
301
CELL_VALUE
 90
4
  1
 
304
ACVALUE_END
170
1
140
0.125
  0
ACAD_TABLE
  5
26D
100
AcDbEntity
  8
0
 62
2
  6
CONTINUOUS
100
AcDbBlockReference
  2
*T2
 10
12.4237499994
 20
16.47875
 30
0.0
100
AcDbTable
342
       404
343
208
 11
1.0
 21
0.0
 31
0.0
 90
22
 91
9
 92
3
 93
16
 94
0
 95
0
 96
0
 41
0.028
141
0.344
141
0.25
141
0.25
141
0.25
141
0.25
141
0.25
141
0.25
141
0.25
141
0.25
142
3.055
142
3.0
142
3.0
171
1
172
0
173
0
174
0
175
1
176
1
 91
33
178
0
145
0.0
301
CELL_VALUE
 90
4
  1
Technical Data
304
ACVALUE_END
170
5
140
0.145
171
1
172
0
173
0
174
0
175
1
176
1
 91
33
178
0
145
0.0
301
CELL_VALUE
 90
4
  1
U.S. Units
304
ACVALUE_END
170
5
140
0.145
171
1
172
0
173
0
174
0
175
1
176
1
 91
33
178
0
145
0.0
301
CELL_VALUE
 90
4
  1
Metric Units
304
ACVALUE_END
170
5
140
0.145
171
1
172
0
173
0
174
0
175
1
176
1
 91
33
178
0
145
0.0
301
CELL_VALUE
 90
4
  1
Cavity
304
ACVALUE_END
170
5
140
0.125
171
1
172
0
173
0
174
0
175
2
176
1
 91
33
178
0
145
0.0
301
CELL_VALUE
 90
4
  1
T-2A
304
ACVALUE_END
170
5
140
0.125
171
1
172
0
173
1
174
0
175
1
176
1
 91
1
178
0
145
0.0
170
1
171
1
172
0
173
0
174
0
175
1
176
1
 91
33
178
0
145
0.0
301
CELL_VALUE
 90
4
  1
Body Features
304
ACVALUE_END
170
5
140
0.125
171
1
172
0
173
0
174
0
175
2
176
1
 91
33
178
0
145
0.0
301
CELL_VALUE
 90
4
  1
Meter in with restrictive compensator and LS shuttle
304
ACVALUE_END
170
5
140
0.125
171
1
172
0
173
1
174
0
175
1
176
1
 91
1
178
0
145
0.0
170
1
171
1
172
0
173
0
174
0
175
1
176
1
 91
33
178
0
145
0.0
301
CELL_VALUE
 90
4
  1
Body Type
304
ACVALUE_END
170
5
140
0.125
171
1
172
0
173
0
174
0
175
2
176
1
 91
33
178
0
145
0.0
301
CELL_VALUE
 90
4
  1
Sandwich
304
ACVALUE_END
170
5
140
0.125
171
1
172
0
173
1
174
0
175
1
176
1
 91
1
178
0
145
0.0
170
1
171
1
172
0
173
0
174
0
175
1
176
1
 91
33
178
0
145
0.0
301
CELL_VALUE
 90
4
  1
Interface
304
ACVALUE_END
170
5
140
0.125
171
1
172
0
173
0
174
0
175
2
176
1
 91
33
178
0
145
0.0
301
CELL_VALUE
 90
4
  1
ISO 05
304
ACVALUE_END
170
5
140
0.125
171
1
172
0
173
1
174
0
175
1
176
1
 91
1
178
0
145
0.0
170
1
171
1
172
0
173
0
174
0
175
1
176
1
 91
33
178
0
145
0.0
301
CELL_VALUE
 90
4
  1
Open Cavity Quantity
304
ACVALUE_END
170
5
140
0.125
171
1
172
0
173
0
174
0
175
2
176
1
 91
33
178
0
145
0.0
301
CELL_VALUE
 90
4
  1
1
304
ACVALUE_END
170
5
140
0.125
171
1
172
0
173
1
174
0
175
1
176
1
 91
1
178
0
145
0.0
170
1
171
1
172
0
173
0
174
0
175
1
176
1
 91
33
178
0
145
0.0
301
CELL_VALUE
 90
4
  1
Stack Height
304
ACVALUE_END
170
5
140
0.125
171
1
172
0
173
0
174
0
175
1
176
1
 91
33
178
0
145
0.0
301
CELL_VALUE
 90
4
  1
2.49 in.
304
ACVALUE_END
170
5
140
0.125
171
1
172
0
173
0
174
0
175
1
176
1
 91
33
178
0
145
0.0
301
CELL_VALUE
 90
4
  1
63 mm
304
ACVALUE_END
170
5
140
0.125
171
1
172
0
173
0
174
0
175
1
176
1
 91
33
178
0
145
0.0
301
CELL_VALUE
 90
4
  1
Weight
304
ACVALUE_END
170
5
140
0.125
171
1
172
0
173
0
174
0
175
1
176
1
 91
33
178
0
145
0.0
301
CELL_VALUE
 90
4
  1
2.411 lb.
304
ACVALUE_END
170
5
140
0.125
171
1
172
0
173
0
174
0
175
1
176
1
 91
33
178
0
145
0.0
301
CELL_VALUE
 90
4
  1
1,094 kg.
304
ACVALUE_END
170
5
140
0.125
171
1
172
0
173
0
174
0
175
1
176
1
 91
33
178
0
145
0.0
301
CELL_VALUE
 90
4
  1
Seal Plate Included (see notes)
304
ACVALUE_END
170
5
140
0.125
171
1
172
0
173
0
174
0
175
2
176
1
 91
33
178
0
145
0.0
301
CELL_VALUE
 90
4
  1
Yes
304
ACVALUE_END
170
5
140
0.125
171
1
172
0
173
1
174
0
175
1
176
1
 91
1
178
0
145
0.0
170
1
  0
MTEXT
  5
26E
100
AcDbEntity
  8
0
100
AcDbMText
 62
2
  6
CONTINUOUS
  7
STANDARD
 71
1
 72
1
 10
0.52125
 20
5.75995
 30
0.0
 11
1.0
 21
0.0
 31
0.0
 44
0.6
  3
Notes\P \P1. Stack height value in technical\P   data table includes seal retainer\P   plate.\P2. Important: Carefully consider\P   the maximum system pressure. The\P   pressure rating of the manifold is\P   dependent on the manifold material,\P   wi
  3
th the port type/size a secondary\P   consideration. Manifolds\P   constructed of aluminum are not\P   rated for pressures higher than\P   3000 psi (210 bar), regardless of\P   the port type/size specified.\P3. Items without balloons are\P   shipped 
  1
loose.
 40
0.1
 41
3.04
  0
LINE
  5
26F
100
AcDbEntity
  8
0
100
AcDbLine
 62
7
  6
CONTINUOUS
 10
0.30125
 20
0.30125
 11
0.30125
 21
16.69875
  0
LINE
  5
270
100
AcDbEntity
  8
0
100
AcDbLine
 62
7
  6
CONTINUOUS
 10
0.30125
 20
0.30125
 11
21.69875
 21
0.30125
  0
LINE
  5
271
100
AcDbEntity
  8
0
100
AcDbLine
 62
7
  6
CONTINUOUS
 10
0.30125
 20
16.69875
 11
21.69875
 21
16.69875
  0
LINE
  5
272
100
AcDbEntity
  8
0
100
AcDbLine
 62
7
  6
CONTINUOUS
 10
21.69875
 20
0.30125
 11
21.69875
 21
16.69875
  0
LINE
  5
273
100
AcDbEntity
  8
0
100
AcDbLine
 62
7
  6
CONTINUOUS
 10
7.5492646163
 20
5.8941862695
 11
7.5054239791
 21
5.9138394633
  0
LINE
  5
274
100
AcDbEntity
  8
0
100
AcDbLine
 62
7
  6
CONTINUOUS
 10
8.2138216242
 20
5.1835420766
 11
8.2298683917
 21
5.13915466
  0
LINE
  5
275
100
AcDbEntity
  8
0
100
AcDbLine
 62
7
  6
CONTINUOUS
 10
7.5054239791
 20
5.9138394633
 11
7.5054239791
 21
9.1129859895
  0
LINE
  5
276
100
AcDbEntity
  8
0
100
AcDbLine
 62
7
  6
CONTINUOUS
 10
7.5492646163
 20
5.8941862695
 11
7.5492646163
 21
9.0933327957
  0
LINE
  5
277
100
AcDbEntity
  8
0
100
AcDbLine
 62
7
  6
CONTINUOUS
 10
8.1120334909
 20
10.580279824
 11
9.6649466033
 21
12.0802787942
  0
LINE
  5
278
100
AcDbEntity
  8
0
100
AcDbLine
 62
7
  6
CONTINUOUS
 10
11.3691275132
 20
4.9214463005
 11
9.021387709
 21
5.0842626089
  0
LINE
  5
279
100
AcDbEntity
  8
0
100
AcDbLine
 62
7
  6
CONTINUOUS
 10
8.7859831948
 20
5.1005879674
 11
8.2298683917
 21
5.13915466
  0
LINE
  5
27A
100
AcDbEntity
  8
0
100
AcDbLine
 62
7
  6
CONTINUOUS
 10
11.3530807456
 20
4.9658337171
 11
9.1002941709
 21
5.1220649967
  0
LINE
  5
27B
100
AcDbEntity
  8
0
100
AcDbLine
 62
7
  6
CONTINUOUS
 10
8.6971096284
 20
5.1500259397
 11
8.2138216242
 21
5.1835420766
  0
LINE
  5
27C
100
AcDbEntity
  8
0
100
AcDbLine
 62
7
  6
CONTINUOUS
 10
8.2138216242
 20
9.7118026186
 11
8.2298683917
 21
9.7871900115
  0
LINE
  5
27D
100
AcDbEntity
  8
0
100
AcDbLine
 62
7
  6
CONTINUOUS
 10
8.4371246059
 20
10.3056859739
 11
7.7088084328
 21
9.6021865309
  0
LINE
  5
27E
100
AcDbEntity
  8
0
100
AcDbLine
 62
7
  6
CONTINUOUS
 10
12.0176377535
 20
5.58430354
 11
12.0935719258
 21
5.5956503225
  0
LINE
  5
27F
100
AcDbEntity
  8
0
100
AcDbLine
 62
7
  6
CONTINUOUS
 10
8.1120334909
 20
10.580279824
 11
8.1120334909
 21
9.9916720514
  0
LINE
  5
280
100
AcDbEntity
  8
0
100
AcDbLine
 62
7
  6
CONTINUOUS
 10
8.2298683917
 20
9.7871900115
 11
8.9581845648
 21
10.4906894545
  0
LINE
  5
281
100
AcDbEntity
  8
0
100
AcDbLine
 62
7
  6
CONTINUOUS
 10
12.9416629085
 20
5.5354893483
 11
12.3750432774
 21
5.5747845532
  0
LINE
  5
282
100
AcDbEntity
  8
0
100
AcDbLine
 62
4
  6
CONTINUOUS
 10
10.2461297087
 20
5.7013625419
 11
10.188174157
 21
5.719870661
  0
LINE
  5
283
100
AcDbEntity
  8
0
100
AcDbLine
 62
4
  6
CONTINUOUS
 10
10.188174157
 20
5.719870661
 11
10.1495371179
 21
5.7515279247
  0
LINE
  5
284
100
AcDbEntity
  8
0
100
AcDbLine
 62
4
  6
CONTINUOUS
 10
10.3040852604
 20
5.7118321987
 11
10.2461297087
 21
5.7013625419
  0
LINE
  5
285
100
AcDbEntity
  8
0
100
AcDbLine
 62
4
  6
CONTINUOUS
 10
10.1688556444
 20
5.9675214992
 11
10.188174157
 21
5.9661817558
  0
LINE
  5
286
100
AcDbEntity
  8
0
100
AcDbLine
 62
4
  6
CONTINUOUS
 10
10.2847667409
 20
6.0753941408
 11
10.3234037765
 21
6.0727146533
  0
LINE
  5
287
100
AcDbEntity
  8
0
100
AcDbLine
 62
4
  6
CONTINUOUS
 10
10.3620408122
 20
6.1714573813
 11
10.1302186053
 21
6.2599787456
  0
LINE
  5
288
100
AcDbEntity
  8
0
100
AcDbLine
 62
4
  6
CONTINUOUS
 10
10.1495371179
 20
5.9833501315
 11
10.1688556444
 21
5.9675214992
  0
LINE
  5
289
100
AcDbEntity
  8
0
100
AcDbLine
 62
4
  6
CONTINUOUS
 10
10.3234037765
 20
5.8408924464
 11
10.3427222943
 21
5.8250638147
  0
LINE
  5
28A
100
AcDbEntity
  8
0
100
AcDbLine
 62
4
  6
CONTINUOUS
 10
10.3234037765
 20
6.0727146533
 11
10.3427222943
 21
6.0568860216
  0
LINE
  5
28B
100
AcDbEntity
  8
0
100
AcDbLine
 62
4
  6
CONTINUOUS
 10
10.1302186053
 20
6.2599787456
 11
10.3620408122
 21
6.3163462606
  0
LINE
  5
28C
100
AcDbEntity
  8
0
100
AcDbLine
 62
4
  6
CONTINUOUS
 10
10.1302186053
 20
6.4193565128
 11
10.3620408122
 21
6.4032795881
  0
LINE
  5
28D
100
AcDbEntity
  8
0
100
AcDbLine
 62
4
  6
CONTINUOUS
 10
10.2074926696
 20
6.5299086417
 11
10.1495371179
 21
6.5339278728
  0
LINE
  5
28E
100
AcDbEntity
  8
0
100
AcDbLine
 62
4
  6
CONTINUOUS
 10
10.3234037765
 20
6.536359067
 11
10.2654482283
 21
6.5403782979
  0
LINE
  5
28F
100
AcDbEntity
  8
0
100
AcDbLine
 62
4
  6
CONTINUOUS
 10
10.2268111961
 20
6.5140800094
 11
10.2074926696
 21
6.5299086417
  0
LINE
  5
290
100
AcDbEntity
  8
0
100
AcDbLine
 62
4
  6
CONTINUOUS
 10
10.1495371179
 20
5.7515279247
 11
10.1302186053
 21
5.7818454439
  0
LINE
  5
291
100
AcDbEntity
  8
0
100
AcDbLine
 62
4
  6
CONTINUOUS
 10
10.1302186053
 20
6.0136676508
 11
10.1495371179
 21
5.9833501315
  0
LINE
  5
292
100
AcDbEntity
  8
0
100
AcDbLine
 62
4
  6
CONTINUOUS
 10
10.3427222943
 20
5.8250638147
 11
10.3620408122
 21
5.7947462951
  0
LINE
  5
293
100
AcDbEntity
  8
0
100
AcDbLine
 62
4
  6
CONTINUOUS
 10
10.3620408122
 20
6.5047018036
 11
10.3234037765
 21
6.536359067
  0
LINE
  5
294
100
AcDbEntity
  8
0
100
AcDbLine
 62
4
  6
CONTINUOUS
 10
10.3427222943
 20
6.0568860216
 11
10.3620408122
 21
6.026568502
  0
LINE
  5
295
100
AcDbEntity
  8
0
100
AcDbLine
 62
4
  6
CONTINUOUS
 10
10.1302186053
 20
6.5207787283
 11
10.1302186053
 21
6.4193565128
  0
LINE
  5
296
100
AcDbEntity
  8
0
100
AcDbLine
 62
4
  6
CONTINUOUS
 10
10.1302186053
 20
6.0426454266
 11
10.1302186053
 21
6.0136676508
  0
LINE
  5
297
100
AcDbEntity
  8
0
100
AcDbLine
 62
4
  6
CONTINUOUS
 10
10.1302186053
 20
5.7818454439
 11
10.1302186053
 21
5.8108232198
  0
LINE
  5
298
100
AcDbEntity
  8
0
100
AcDbLine
 62
4
  6
CONTINUOUS
 10
10.2268111961
 20
6.4126577939
 11
10.2268111961
 21
6.5140800094
  0
LINE
  5
299
100
AcDbEntity
  8
0
100
AcDbLine
 62
4
  6
CONTINUOUS
 10
10.2847667409
 20
6.2057941322
 11
10.2847667409
 21
6.2927274597
  0
LINE
  5
29A
100
AcDbEntity
  8
0
100
AcDbLine
 62
4
  6
CONTINUOUS
 10
10.3620408122
 20
6.026568502
 11
10.3620408122
 21
5.9975907261
  0
LINE
  5
29B
100
AcDbEntity
  8
0
100
AcDbLine
 62
4
  6
CONTINUOUS
 10
10.3620408122
 20
5.7947462951
 11
10.3620408122
 21
5.7657685193
  0
LINE
  5
29C
100
AcDbEntity
  8
0
100
AcDbLine
 62
4
  6
CONTINUOUS
 10
10.3620408122
 20
6.4032795881
 11
10.3620408122
 21
6.5047018036
  0
LINE
  5
29D
100
AcDbEntity
  8
0
100
AcDbLine
 62
4
  6
CONTINUOUS
 10
11.5791074018
 20
7.8064015402
 11
11.8109296087
 21
7.7903246155
  0
LINE
  5
29E
100
AcDbEntity
  8
0
100
AcDbLine
 62
7
  6
CONTINUOUS
 10
7.5492646163
 20
9.0933327957
 11
7.5054239791
 21
9.1129859895
  0
LINE
  5
29F
100
AcDbEntity
  8
0
100
AcDbLine
 62
7
  6
CONTINUOUS
 10
11.3530807456
 20
4.9658337171
 11
11.3691275132
 21
4.9214463005
  0
LINE
  5
2A0
100
AcDbEntity
  8
0
100
AcDbLine
 62
7
  6
CONTINUOUS
 10
8.3134674529
 20
6.7671546693
 11
8.1201627417
 21
6.5804366452
  0
LINE
  5
2A1
100
AcDbEntity
  8
0
100
AcDbLine
 62
7
  6
CONTINUOUS
 10
11.3691275132
 20
9.569481652
 11
12.0974436863
 21
10.272981095
  0
LINE
  5
2A2
100
AcDbEntity
  8
0
100
AcDbLine
 62
7
  6
CONTINUOUS
 10
9.0442646855
 20
7.138399688
 11
8.8509599742
 21
6.951681664
  0
LINE
  5
2A3
100
AcDbEntity
  8
0
100
AcDbLine
 62
7
  6
CONTINUOUS
 10
9.1586835763
 20
7.130464711
 11
8.965378865
 21
6.9437466869
  0
LINE
  5
2A4
100
AcDbEntity
  8
0
100
AcDbLine
 62
4
  6
CONTINUOUS
 10
11.5791074018
 20
8.5018681607
 11
11.8109296087
 21
8.5582356757
  0
LINE
  5
2A5
100
AcDbEntity
  8
0
100
AcDbLine
 62
4
  6
CONTINUOUS
 10
11.6177444409
 20
8.3253220178
 11
11.6563814661
 21
8.322642531
  0
LINE
  5
2A6
100
AcDbEntity
  8
0
100
AcDbLine
 62
4
  6
CONTINUOUS
 10
11.7529740569
 20
8.2145215966
 11
11.8109296087
 21
8.1960134775
  0
LINE
  5
2A7
100
AcDbEntity
  8
0
100
AcDbLine
 62
7
  6
CONTINUOUS
 10
11.3530807456
 20
9.4940942591
 11
11.3691275132
 21
9.569481652
  0
LINE
  5
2A8
100
AcDbEntity
  8
0
100
AcDbLine
 62
7
  6
CONTINUOUS
 10
14.4945760209
 20
11.7453428565
 11
12.9416629085
 21
10.2453438863
  0
LINE
  5
2A9
100
AcDbEntity
  8
0
100
AcDbLine
 62
4
  6
CONTINUOUS
 10
13.6482384639
 20
10.6767027727
 11
13.6404738992
 21
10.6692027786
  0
LINE
  5
2AA
100
AcDbEntity
  8
0
100
AcDbLine
 62
4
  6
CONTINUOUS
 10
13.7025904173
 20
10.7292027313
 11
13.7103549821
 21
10.7367027254
  0
LINE
  5
2AB
100
AcDbEntity
  8
0
100
AcDbLine
 62
4
  6
CONTINUOUS
 10
14.1257591974
 20
11.1379524091
 11
14.1568174565
 21
11.1679523854
  0
LINE
  5
2AC
100
AcDbEntity
  8
0
100
AcDbLine
 62
4
  6
CONTINUOUS
 10
14.1257591974
 20
11.0220413056
 11
14.1451706093
 21
11.0407912909
  0
LINE
  5
2AD
100
AcDbEntity
  8
0
100
AcDbLine
 62
7
  6
CONTINUOUS
 10
12.0176377535
 20
8.7834500662
 11
12.0935719258
 21
8.7947968487
  0
LINE
  5
2AE
100
AcDbEntity
  8
0
100
AcDbLine
 62
4
  6
CONTINUOUS
 10
13.5665256806
 20
7.9743195025
 11
13.5709625726
 21
7.9730856284
  0
LINE
  5
2AF
100
AcDbEntity
  8
0
100
AcDbLine
 62
4
  6
CONTINUOUS
 10
11.8109296087
 20
8.4133467965
 11
11.5791074018
 21
8.5018681607
  0
LINE
  5
2B0
100
AcDbEntity
  8
0
100
AcDbLine
 62
4
  6
CONTINUOUS
 10
11.6177444409
 20
8.2094109144
 11
11.5984259144
 21
8.2252395467
  0
LINE
  5
2B1
100
AcDbEntity
  8
0
100
AcDbLine
 62
4
  6
CONTINUOUS
 10
11.7143370248
 20
8.2461788597
 11
11.7529740569
 21
8.2145215966
  0
LINE
  5
2B2
100
AcDbEntity
  8
0
100
AcDbLine
 62
4
  6
CONTINUOUS
 10
11.6563814661
 20
8.322642531
 11
11.6756999926
 21
8.3068138987
  0
LINE
  5
2B3
100
AcDbEntity
  8
0
100
AcDbLine
 62
4
  6
CONTINUOUS
 10
11.5984259144
 20
8.2252395467
 11
11.5791074018
 21
8.255557066
  0
LINE
  5
2B4
100
AcDbEntity
  8
0
100
AcDbLine
 62
4
  6
CONTINUOUS
 10
11.5791074018
 20
7.7339571005
 11
11.5791074018
 21
7.8788459798
  0
LINE
  5
2B5
100
AcDbEntity
  8
0
100
AcDbLine
 62
4
  6
CONTINUOUS
 10
11.5791074018
 20
8.255557066
 11
11.5791074018
 21
8.2845348418
  0
LINE
  5
2B6
100
AcDbEntity
  8
0
100
AcDbLine
 62
4
  6
CONTINUOUS
 10
11.6950185052
 20
7.9867186209
 11
11.6950185052
 21
8.0736519485
  0
LINE
  5
2B7
100
AcDbEntity
  8
0
100
AcDbLine
 62
4
  6
CONTINUOUS
 10
11.5791074018
 20
8.2845348418
 11
11.5984259144
 21
8.3121728743
  0
LINE
  5
2B8
100
AcDbEntity
  8
0
100
AcDbLine
 62
4
  6
CONTINUOUS
 10
10.1495371179
 20
6.0702834591
 11
10.1302186053
 21
6.0426454266
  0
LINE
  5
2B9
100
AcDbEntity
  8
0
100
AcDbLine
 62
4
  6
CONTINUOUS
 10
13.9432919253
 20
10.8071544124
 11
13.9665856196
 21
10.8296543947
  0
LINE
  5
2BA
100
AcDbEntity
  8
0
100
AcDbLine
 62
4
  6
CONTINUOUS
 10
14.1568174565
 20
10.9361301786
 11
14.1257591974
 21
10.9061302022
  0
LINE
  5
2BB
100
AcDbEntity
  8
0
100
AcDbLine
 62
4
  6
CONTINUOUS
 10
13.7103549821
 20
10.5048805185
 11
13.7025904173
 21
10.4973805245
  0
LINE
  5
2BC
100
AcDbEntity
  8
0
100
AcDbLine
 62
4
  6
CONTINUOUS
 10
13.6482384639
 20
10.4448805659
 11
13.6404738992
 21
10.4373805718
  0
LINE
  5
2BD
100
AcDbEntity
  8
0
100
AcDbLine
 62
4
  6
CONTINUOUS
 10
13.7530600884
 20
10.546130486
 11
13.7841183474
 21
10.5761304624
  0
LINE
  5
2BE
100
AcDbEntity
  8
0
100
AcDbLine
 62
4
  6
CONTINUOUS
 10
14.0015261611
 20
10.7861302968
 11
14.0325844201
 21
10.8161302732
  0
LINE
  5
2BF
100
AcDbEntity
  8
0
100
AcDbLine
 62
4
  6
CONTINUOUS
 10
13.5628282522
 20
10.3334028557
 11
14.1839934339
 21
10.9334023827
  0
LINE
  5
2C0
100
AcDbEntity
  8
0
100
AcDbLine
 62
7
  6
CONTINUOUS
 10
12.0935719258
 20
8.7947968487
 11
12.8218880989
 21
9.4982962917
  0
LINE
  5
2C1
100
AcDbEntity
  8
0
100
AcDbLine
 62
7
  6
CONTINUOUS
 10
9.8894808089
 20
6.6578577718
 11
9.6961760976
 21
6.4711397478
  0
LINE
  5
2C2
100
AcDbEntity
  8
0
100
AcDbLine
 62
7
  6
CONTINUOUS
 10
9.9466902543
 20
6.5548006172
 11
9.753385543
 21
6.3680825931
  0
LINE
  5
2C3
100
AcDbEntity
  8
0
100
AcDbLine
 62
4
  6
CONTINUOUS
 10
11.5984259144
 20
8.3121728743
 11
11.6177444409
 21
8.3253220178
  0
LINE
  5
2C4
100
AcDbEntity
  8
0
100
AcDbLine
 62
4
  6
CONTINUOUS
 10
13.8490079229
 20
8.7649126763
 11
13.8312603548
 21
8.7588089929
  0
LINE
  5
2C5
100
AcDbEntity
  8
0
100
AcDbLine
 62
4
  6
CONTINUOUS
 10
13.30474892
 20
7.0789838671
 11
13.3284123559
 21
7.0576843807
  0
LINE
  5
2C6
100
AcDbEntity
  8
0
100
AcDbLine
 62
4
  6
CONTINUOUS
 10
11.6756999926
 20
8.3068138987
 11
11.7143370248
 21
8.2461788597
  0
LINE
  5
2C7
100
AcDbEntity
  8
0
100
AcDbLine
 62
4
  6
CONTINUOUS
 10
11.7336555374
 20
8.4476835474
 11
11.7336555374
 21
8.5346168749
  0
LINE
  5
2C8
100
AcDbEntity
  8
0
100
AcDbLine
 62
4
  6
CONTINUOUS
 10
11.8109296087
 20
8.1960134775
 11
11.8109296087
 21
8.311924581
  0
LINE
  5
2C9
100
AcDbEntity
  8
0
100
AcDbLine
 62
7
  6
CONTINUOUS
 10
12.0176377535
 20
8.7834500662
 11
12.0176377535
 21
5.58430354
  0
LINE
  5
2CA
100
AcDbEntity
  8
0
100
AcDbLine
 62
4
  6
CONTINUOUS
 10
10.2074926696
 20
5.9793309004
 11
10.2654482283
 21
6.0622449963
  0
LINE
  5
2CB
100
AcDbEntity
  8
0
100
AcDbLine
 62
4
  6
CONTINUOUS
 10
10.1302186053
 20
5.8108232198
 11
10.1495371179
 21
5.8384612522
  0
LINE
  5
2CC
100
AcDbEntity
  8
0
100
AcDbLine
 62
4
  6
CONTINUOUS
 10
10.3620408122
 20
5.9975907261
 11
10.3427222943
 21
5.969952694
  0
LINE
  5
2CD
100
AcDbEntity
  8
0
100
AcDbLine
 62
4
  6
CONTINUOUS
 10
10.3620408122
 20
5.7657685193
 11
10.3427222943
 21
5.7381304872
  0
LINE
  5
2CE
100
AcDbEntity
  8
0
100
AcDbLine
 62
7
  6
CONTINUOUS
 10
8.2138216242
 20
9.7118026186
 11
11.3530807456
 21
9.4940942591
  0
LINE
  5
2CF
100
AcDbEntity
  8
0
100
AcDbLine
 62
7
  6
CONTINUOUS
 10
12.0935719258
 20
8.7947968487
 11
12.0935719258
 21
5.5956503225
  0
LINE
  5
2D0
100
AcDbEntity
  8
0
100
AcDbLine
 62
7
  6
CONTINUOUS
 10
9.9466902543
 20
5.7109486593
 11
9.753385543
 21
5.5242306353
  0
LINE
  5
2D1
100
AcDbEntity
  8
0
100
AcDbLine
 62
7
  6
CONTINUOUS
 10
9.8894808089
 20
5.6158264817
 11
9.6961760976
 21
5.4291084576
  0
LINE
  5
2D2
100
AcDbEntity
  8
0
100
AcDbLine
 62
4
  6
CONTINUOUS
 10
10.1495371179
 20
6.5339278728
 11
10.1302186053
 21
6.5207787283
  0
LINE
  5
2D3
100
AcDbEntity
  8
0
100
AcDbLine
 62
4
  6
CONTINUOUS
 10
10.2654482283
 20
6.5403782979
 11
10.2268111961
 21
6.5140800094
  0
LINE
  5
2D4
100
AcDbEntity
  8
0
100
AcDbLine
 62
7
  6
CONTINUOUS
 10
8.2298683917
 20
9.7871900115
 11
11.3691275132
 21
9.569481652
  0
LINE
  5
2D5
100
AcDbEntity
  8
0
100
AcDbLine
 62
4
  6
CONTINUOUS
 10
13.7972441585
 20
7.5988543806
 11
13.8209075926
 21
7.577554889
  0
LINE
  5
2D6
100
AcDbEntity
  8
0
100
AcDbLine
 62
4
  6
CONTINUOUS
 10
13.2810854799
 20
8.3708898244
 11
13.2988330564
 21
8.3880326679
  0
LINE
  5
2D7
100
AcDbEntity
  8
0
100
AcDbLine
 62
4
  6
CONTINUOUS
 10
13.7632279707
 20
8.8366037358
 11
13.7647069297
 21
8.8380323006
  0
LINE
  5
2D8
100
AcDbEntity
  8
0
100
AcDbLine
 62
4
  6
CONTINUOUS
 10
10.1688556444
 20
6.0834326027
 11
10.1495371179
 21
6.0702834591
  0
LINE
  5
2D9
100
AcDbEntity
  8
0
100
AcDbLine
 62
4
  6
CONTINUOUS
 10
10.2654482283
 20
6.0622449963
 11
10.2847667409
 21
6.0753941408
  0
LINE
  5
2DA
100
AcDbEntity
  8
0
100
AcDbLine
 62
4
  6
CONTINUOUS
 10
10.188174157
 20
5.9661817558
 11
10.2074926696
 21
5.9793309004
  0
LINE
  5
2DB
100
AcDbEntity
  8
0
100
AcDbLine
 62
4
  6
CONTINUOUS
 10
13.559130848
 20
8.4076388353
 11
13.5502570639
 21
8.4156261474
  0
LINE
  5
2DC
100
AcDbEntity
  8
0
100
AcDbLine
 62
7
  6
CONTINUOUS
 10
12.8218880989
 20
9.4982962917
 11
12.8218880989
 21
6.2991497654
  0
LINE
  5
2DD
100
AcDbEntity
  8
0
100
AcDbLine
 62
7
  6
CONTINUOUS
 10
12.9416629085
 20
10.2453438863
 11
12.9416629085
 21
5.5354893483
  0
LINE
  5
2DE
100
AcDbEntity
  8
0
100
AcDbLine
 62
4
  6
CONTINUOUS
 10
13.6404738992
 20
10.6692027786
 11
13.6327093344
 21
10.6423842719
  0
LINE
  5
2DF
100
AcDbEntity
  8
0
100
AcDbLine
 62
4
  6
CONTINUOUS
 10
13.6948258526
 20
10.7023842246
 11
13.7025904173
 21
10.7292027313
  0
LINE
  5
2E0
100
AcDbEntity
  8
0
100
AcDbLine
 62
4
  6
CONTINUOUS
 10
13.6560030287
 20
10.4716990778
 11
13.6482384639
 21
10.4448805659
  0
LINE
  5
2E1
100
AcDbEntity
  8
0
100
AcDbLine
 62
4
  6
CONTINUOUS
 10
13.7181195469
 20
10.5316990304
 11
13.7103549821
 21
10.5048805185
  0
LINE
  5
2E2
100
AcDbEntity
  8
0
100
AcDbLine
 62
4
  6
CONTINUOUS
 10
13.6567425321
 20
8.6675117821
 11
13.6345580571
 21
8.6460832235
  0
LINE
  5
2E3
100
AcDbEntity
  8
0
100
AcDbLine
 62
4
  6
CONTINUOUS
 10
13.4674350298
 20
8.4846547657
 11
13.4896195048
 21
8.5060833243
  0
LINE
  5
2E4
100
AcDbEntity
  8
0
100
AcDbLine
 62
4
  6
CONTINUOUS
 10
13.559130848
 20
8.5732261299
 11
13.5768784161
 21
8.5903689654
  0
LINE
  5
2E5
100
AcDbEntity
  8
0
100
AcDbLine
 62
4
  6
CONTINUOUS
 10
13.5946260139
 20
8.6075118294
 11
13.6123735821
 21
8.6246546649
  0
LINE
  5
2E6
100
AcDbEntity
  8
0
100
AcDbLine
 62
4
  6
CONTINUOUS
 10
13.791328282
 20
8.7975116415
 11
13.8090759094
 21
8.8146545342
  0
LINE
  5
2E7
100
AcDbEntity
  8
0
100
AcDbLine
 62
4
  6
CONTINUOUS
 10
13.8312603548
 20
8.8360830642
 11
13.8490079229
 21
8.8532258996
  0
LINE
  5
2E8
100
AcDbEntity
  8
0
100
AcDbLine
 62
4
  6
CONTINUOUS
 10
13.6434318412
 20
8.5718609939
 11
13.6611794093
 21
8.5890038294
  0
LINE
  5
2E9
100
AcDbEntity
  8
0
100
AcDbLine
 62
4
  6
CONTINUOUS
 10
13.8090759094
 20
8.6490672396
 11
13.791328282
 21
8.6319243469
  0
LINE
  5
2EA
100
AcDbEntity
  8
0
100
AcDbLine
 62
4
  6
CONTINUOUS
 10
13.7366066184
 20
8.5790672757
 11
13.7277328344
 21
8.570495858
  0
LINE
  5
2EB
100
AcDbEntity
  8
0
100
AcDbLine
 62
4
  6
CONTINUOUS
 10
13.6611794093
 20
8.5062101821
 11
13.6434318412
 21
8.4890673467
  0
LINE
  5
2EC
100
AcDbEntity
  8
0
100
AcDbLine
 62
4
  6
CONTINUOUS
 10
13.5768784161
 20
8.4247816708
 11
13.559130848
 21
8.4076388353
  0
LINE
  5
2ED
100
AcDbEntity
  8
0
100
AcDbLine
 62
4
  6
CONTINUOUS
 10
13.2766485856
 20
8.1347819064
 11
13.2943961625
 21
8.1519247504
  0
LINE
  5
2EE
100
AcDbEntity
  8
0
100
AcDbLine
 62
4
  6
CONTINUOUS
 10
13.3298913136
 20
8.1862104356
 11
13.3432020009
 21
8.1990675729
  0
LINE
  5
2EF
100
AcDbEntity
  8
0
100
AcDbLine
 62
4
  6
CONTINUOUS
 10
13.6833638843
 20
8.5276387407
 11
13.7055483593
 21
8.5490672994
  0
LINE
  5
2F0
100
AcDbEntity
  8
0
100
AcDbLine
 62
4
  6
CONTINUOUS
 10
13.8312603548
 20
8.6704957696
 11
13.8490079229
 21
8.6876386051
  0
LINE
  5
2F1
100
AcDbEntity
  8
0
100
AcDbLine
 62
4
  6
CONTINUOUS
 10
13.5118039798
 20
8.3067288247
 11
13.5206777639
 21
8.3153002424
  0
LINE
  5
2F2
100
AcDbEntity
  8
0
100
AcDbLine
 62
4
  6
CONTINUOUS
 10
10.3427222943
 20
5.969952694
 11
10.3040852604
 21
5.9436544056
  0
LINE
  5
2F3
100
AcDbEntity
  8
0
100
AcDbLine
 62
4
  6
CONTINUOUS
 10
10.1495371179
 20
5.8384612522
 11
10.1688556444
 21
5.8516103958
  0
LINE
  5
2F4
100
AcDbEntity
  8
0
100
AcDbLine
 62
4
  6
CONTINUOUS
 10
10.3427222943
 20
5.7381304872
 11
10.3040852604
 21
5.7118321987
  0
LINE
  5
2F5
100
AcDbEntity
  8
0
100
AcDbLine
 62
7
  6
CONTINUOUS
 10
8.9581845648
 20
10.4906894545
 11
12.0974436863
 21
10.272981095
  0
LINE
  5
2F6
100
AcDbEntity
  8
0
100
AcDbLine
 62
7
  6
CONTINUOUS
 10
12.9416629085
 20
10.2453438863
 11
8.1120334909
 21
10.580279824
  0
LINE
  5
2F7
100
AcDbEntity
  8
0
100
AcDbLine
 62
4
  6
CONTINUOUS
 10
13.6434318412
 20
8.4890673467
 11
13.6345580571
 21
8.4970546587
  0
LINE
  5
2F8
100
AcDbEntity
  8
0
100
AcDbLine
 62
4
  6
CONTINUOUS
 10
13.3032699503
 20
8.2267310909
 11
13.2722116912
 21
8.2960834899
  0
LINE
  5
2F9
100
AcDbEntity
  8
0
100
AcDbLine
 62
4
  6
CONTINUOUS
 10
13.3624285424
 20
7.2671679389
 11
13.3713023302
 21
7.242621904
  0
LINE
  5
2FA
100
AcDbEntity
  8
0
100
AcDbLine
 62
4
  6
CONTINUOUS
 10
13.2722116912
 20
8.1470549251
 11
13.2766485856
 21
8.1347819064
  0
LINE
  5
2FB
100
AcDbEntity
  8
0
100
AcDbLine
 62
4
  6
CONTINUOUS
 10
13.6049787677
 20
7.2696312727
 11
13.5961049836
 21
7.2941773146
  0
LINE
  5
2FC
100
AcDbEntity
  8
0
100
AcDbLine
 62
4
  6
CONTINUOUS
 10
13.4141923063
 20
7.3171678983
 11
13.4319398893
 21
7.1024885412
  0
LINE
  5
2FD
100
AcDbEntity
  8
0
100
AcDbLine
 62
4
  6
CONTINUOUS
 10
13.2722116912
 20
8.2960834899
 11
13.2722116912
 21
8.329200946
  0
LINE
  5
2FE
100
AcDbEntity
  8
0
100
AcDbLine
 62
4
  6
CONTINUOUS
 10
13.3032699503
 20
8.1936136313
 11
13.3032699503
 21
8.2267310909
  0
LINE
  5
2FF
100
AcDbEntity
  8
0
100
AcDbLine
 62
4
  6
CONTINUOUS
 10
13.3210175259
 20
8.4094612211
 11
13.3210175259
 21
8.2107564739
  0
LINE
  5
300
100
AcDbEntity
  8
0
100
AcDbLine
 62
4
  6
CONTINUOUS
 10
13.3402440748
 20
7.0139171806
 11
13.3402440748
 21
7.2457393874
  0
LINE
  5
301
100
AcDbEntity
  8
0
100
AcDbLine
 62
4
  6
CONTINUOUS
 10
13.3520757849
 20
8.2407564502
 11
13.3520757849
 21
8.4394611975
  0
LINE
  5
302
100
AcDbEntity
  8
0
100
AcDbLine
 62
4
  6
CONTINUOUS
 10
13.3698233605
 20
8.2247818332
 11
13.3698233605
 21
8.4566040401
  0
LINE
  5
303
100
AcDbEntity
  8
0
100
AcDbLine
 62
4
  6
CONTINUOUS
 10
13.3713023302
 20
7.242621904
 11
13.3713023302
 21
7.0770346129
  0
LINE
  5
304
100
AcDbEntity
  8
0
100
AcDbLine
 62
4
  6
CONTINUOUS
 10
13.5628282522
 20
10.6521583902
 11
13.545239697
 21
10.4944006277
  0
LINE
  5
305
100
AcDbEntity
  8
0
100
AcDbLine
 62
4
  6
CONTINUOUS
 10
13.6327093344
 20
10.6423842719
 11
13.628827052
 21
10.6193157484
  0
LINE
  5
306
100
AcDbEntity
  8
0
100
AcDbLine
 62
4
  6
CONTINUOUS
 10
13.6598853111
 20
10.4947675926
 11
13.6560030287
 21
10.4716990778
  0
LINE
  5
307
100
AcDbEntity
  8
0
100
AcDbLine
 62
4
  6
CONTINUOUS
 10
13.6870612878
 20
10.6562471914
 11
13.6948258526
 21
10.7023842246
  0
LINE
  5
308
100
AcDbEntity
  8
0
100
AcDbLine
 62
4
  6
CONTINUOUS
 10
13.7258841117
 20
10.5778360584
 11
13.7181195469
 21
10.5316990304
  0
LINE
  5
309
100
AcDbEntity
  8
0
100
AcDbLine
 62
4
  6
CONTINUOUS
 10
13.2722116912
 20
8.329200946
 11
13.2810854799
 21
8.3708898244
  0
LINE
  5
30A
100
AcDbEntity
  8
0
100
AcDbLine
 62
4
  6
CONTINUOUS
 10
13.2943961625
 20
8.1519247504
 11
13.3032699503
 21
8.1936136313
  0
LINE
  5
30B
100
AcDbEntity
  8
0
100
AcDbLine
 62
4
  6
CONTINUOUS
 10
13.3432020009
 20
8.1990675729
 11
13.3520757849
 21
8.2407564502
  0
LINE
  5
30C
100
AcDbEntity
  8
0
100
AcDbLine
 62
4
  6
CONTINUOUS
 10
13.5103250182
 20
7.920033828
 11
13.5280725946
 21
7.9371766715
  0
LINE
  5
30D
100
AcDbEntity
  8
0
100
AcDbLine
 62
4
  6
CONTINUOUS
 10
13.5532149934
 20
7.9614623652
 11
13.5665256806
 21
7.9743195025
  0
LINE
  5
30E
100
AcDbEntity
  8
0
100
AcDbLine
 62
4
  6
CONTINUOUS
 10
13.5532149934
 20
7.8455512618
 11
13.5753994647
 21
7.8669798168
  0
LINE
  5
30F
100
AcDbEntity
  8
0
100
AcDbLine
 62
4
  6
CONTINUOUS
 10
13.5753994647
 20
7.7510687134
 11
13.5532149934
 21
7.7296401583
  0
LINE
  5
310
100
AcDbEntity
  8
0
100
AcDbLine
 62
4
  6
CONTINUOUS
 10
13.5280725946
 20
7.7053544646
 11
13.5103250182
 21
7.6882116211
  0
LINE
  5
311
100
AcDbEntity
  8
0
100
AcDbLine
 62
4
  6
CONTINUOUS
 10
13.6020208317
 20
7.7767829809
 11
13.6153315152
 21
7.7896401146
  0
LINE
  5
312
100
AcDbEntity
  8
0
100
AcDbLine
 62
4
  6
CONTINUOUS
 10
13.5709625726
 20
7.9730856284
 11
13.5798363567
 21
7.954059173
  0
LINE
  5
313
100
AcDbEntity
  8
0
100
AcDbLine
 62
4
  6
CONTINUOUS
 10
13.3210175259
 20
8.2107564739
 11
13.3298913136
 21
8.1862104356
  0
LINE
  5
314
100
AcDbEntity
  8
0
100
AcDbLine
 62
4
  6
CONTINUOUS
 10
13.5103250182
 20
7.6882116211
 11
13.5014512295
 21
7.7127576585
  0
LINE
  5
315
100
AcDbEntity
  8
0
100
AcDbLine
 62
4
  6
CONTINUOUS
 10
13.6567425131
 20
7.3196312142
 11
13.647868729
 21
7.3441772561
  0
LINE
  5
316
100
AcDbEntity
  8
0
100
AcDbLine
 62
4
  6
CONTINUOUS
 10
13.2988330564
 20
8.3880326679
 11
13.3032699503
 21
8.3757596436
  0
LINE
  5
317
100
AcDbEntity
  8
0
100
AcDbLine
 62
4
  6
CONTINUOUS
 10
13.670053204
 20
7.5643105619
 11
13.6789269881
 21
7.5397645235
  0
LINE
  5
318
100
AcDbEntity
  8
0
100
AcDbLine
 62
4
  6
CONTINUOUS
 10
13.5753994647
 20
7.8669798168
 11
13.5842732561
 21
7.8424337855
  0
LINE
  5
319
100
AcDbEntity
  8
0
100
AcDbLine
 62
4
  6
CONTINUOUS
 10
13.7188590313
 20
7.6114533737
 11
13.7277328153
 21
7.5869073353
  0
LINE
  5
31A
100
AcDbEntity
  8
0
100
AcDbLine
 62
4
  6
CONTINUOUS
 10
13.4896195048
 20
8.5060833243
 11
13.4940563969
 21
8.4938102982
  0
LINE
  5
31B
100
AcDbEntity
  8
0
100
AcDbLine
 62
4
  6
CONTINUOUS
 10
13.3698233605
 20
8.4566040401
 11
13.4008816196
 21
8.2547818096
  0
LINE
  5
31C
100
AcDbEntity
  8
0
100
AcDbLine
 62
4
  6
CONTINUOUS
 10
13.5118039798
 20
8.527511883
 11
13.5251146708
 21
8.3747817293
  0
LINE
  5
31D
100
AcDbEntity
  8
0
100
AcDbLine
 62
4
  6
CONTINUOUS
 10
13.4008816196
 20
8.2547818096
 11
13.4008816196
 21
8.4866040165
  0
LINE
  5
31E
100
AcDbEntity
  8
0
100
AcDbLine
 62
4
  6
CONTINUOUS
 10
13.4674350404
 20
7.1367742264
 11
13.4674350404
 21
7.3685964332
  0
LINE
  5
31F
100
AcDbEntity
  8
0
100
AcDbLine
 62
4
  6
CONTINUOUS
 10
13.4674350298
 20
8.3190674711
 11
13.4674350298
 21
8.550889678
  0
LINE
  5
320
100
AcDbEntity
  8
0
100
AcDbLine
 62
4
  6
CONTINUOUS
 10
13.4940563969
 20
8.4938102982
 11
13.4940563969
 21
8.3447817386
  0
LINE
  5
321
100
AcDbEntity
  8
0
100
AcDbLine
 62
4
  6
CONTINUOUS
 10
13.5014512295
 20
7.7127576585
 11
13.5014512295
 21
7.8783449497
  0
LINE
  5
322
100
AcDbEntity
  8
0
100
AcDbLine
 62
4
  6
CONTINUOUS
 10
13.5029301915
 20
7.1710599116
 11
13.5029301915
 21
7.4028821185
  0
LINE
  5
323
100
AcDbEntity
  8
0
100
AcDbLine
 62
4
  6
CONTINUOUS
 10
13.5502570639
 20
8.4156261474
 11
13.5502570639
 21
8.5480959772
  0
LINE
  5
324
100
AcDbEntity
  8
0
100
AcDbLine
 62
4
  6
CONTINUOUS
 10
13.5532149934
 20
7.7296401583
 11
13.5532149934
 21
7.9614623652
  0
LINE
  5
325
100
AcDbEntity
  8
0
100
AcDbLine
 62
4
  6
CONTINUOUS
 10
13.5628282522
 20
10.6521583902
 11
13.5628282522
 21
10.3334028557
  0
LINE
  5
326
100
AcDbEntity
  8
0
100
AcDbLine
 62
4
  6
CONTINUOUS
 10
13.5768784161
 20
8.6566038777
 11
13.5768784161
 21
8.4247816708
  0
LINE
  5
327
100
AcDbEntity
  8
0
100
AcDbLine
 62
4
  6
CONTINUOUS
 10
13.5798363567
 20
7.954059173
 11
13.5798363567
 21
7.9043829818
  0
LINE
  5
328
100
AcDbEntity
  8
0
100
AcDbLine
 62
4
  6
CONTINUOUS
 10
13.5842732561
 20
7.8424337855
 11
13.5842732561
 21
7.7927575979
  0
LINE
  5
329
100
AcDbEntity
  8
0
100
AcDbLine
 62
4
  6
CONTINUOUS
 10
13.5946260139
 20
8.4419245349
 11
13.5946260139
 21
8.6075118294
  0
LINE
  5
32A
100
AcDbEntity
  8
0
100
AcDbLine
 62
4
  6
CONTINUOUS
 10
13.5961049836
 20
7.2941773146
 11
13.5961049836
 21
7.4597646057
  0
LINE
  5
32B
100
AcDbEntity
  8
0
100
AcDbLine
 62
4
  6
CONTINUOUS
 10
13.6153315002
 20
8.6109530596
 11
13.6153315002
 21
8.5778356035
  0
LINE
  5
32C
100
AcDbEntity
  8
0
100
AcDbLine
 62
4
  6
CONTINUOUS
 10
13.6242052993
 20
7.8313289919
 11
13.6242052993
 21
8.0300337392
  0
LINE
  5
32D
100
AcDbEntity
  8
0
100
AcDbLine
 62
4
  6
CONTINUOUS
 10
13.628827052
 20
10.6193157484
 11
13.628827052
 21
10.5999972358
  0
LINE
  5
32E
100
AcDbEntity
  8
0
100
AcDbLine
 62
4
  6
CONTINUOUS
 10
13.6345580571
 20
8.4970546587
 11
13.6345580571
 21
8.5467308481
  0
LINE
  5
32F
100
AcDbEntity
  8
0
100
AcDbLine
 62
4
  6
CONTINUOUS
 10
13.647868729
 20
7.3441772561
 11
13.647868729
 21
7.5097645472
  0
LINE
  5
330
100
AcDbEntity
  8
0
100
AcDbLine
 62
4
  6
CONTINUOUS
 10
13.6598853111
 20
10.5334046282
 11
13.6598853111
 21
10.4947675926
  0
LINE
  5
331
100
AcDbEntity
  8
0
100
AcDbLine
 62
4
  6
CONTINUOUS
 10
13.6611794093
 20
8.5062101821
 11
13.6611794093
 21
8.6386800205
  0
LINE
  5
332
100
AcDbEntity
  8
0
100
AcDbLine
 62
4
  6
CONTINUOUS
 10
13.6789269775
 20
8.6889403121
 11
13.6789269775
 21
8.5399117474
  0
LINE
  5
333
100
AcDbEntity
  8
0
100
AcDbLine
 62
4
  6
CONTINUOUS
 10
13.6789269881
 20
7.5397645235
 11
13.6789269881
 21
7.3741772324
  0
LINE
  5
334
100
AcDbEntity
  8
0
100
AcDbLine
 62
4
  6
CONTINUOUS
 10
13.6966745562
 20
7.3582026083
 11
13.6966745562
 21
7.5900248151
  0
LINE
  5
335
100
AcDbEntity
  8
0
100
AcDbLine
 62
4
  6
CONTINUOUS
 10
13.7055483593
 20
8.5490672994
 11
13.7055483593
 21
8.7146545939
  0
LINE
  5
336
100
AcDbEntity
  8
0
100
AcDbLine
 62
4
  6
CONTINUOUS
 10
13.6831790054
 20
10.5945416427
 11
13.6870612878
 21
10.6562471914
  0
LINE
  5
337
100
AcDbEntity
  8
0
100
AcDbLine
 62
4
  6
CONTINUOUS
 10
13.729766394
 20
10.6395416072
 11
13.7258841117
 21
10.5778360584
  0
LINE
  5
338
100
AcDbEntity
  8
0
100
AcDbLine
 62
4
  6
CONTINUOUS
 10
13.3964447308
 20
7.0682028488
 11
13.4141923063
 21
7.3171678983
  0
LINE
  5
339
100
AcDbEntity
  8
0
100
AcDbLine
 62
4
  6
CONTINUOUS
 10
13.5206777639
 20
8.3153002424
 11
13.5384253321
 21
8.5532261361
  0
LINE
  5
33A
100
AcDbEntity
  8
0
100
AcDbLine
 62
4
  6
CONTINUOUS
 10
13.5014512295
 20
7.8783449497
 11
13.5103250182
 21
7.920033828
  0
LINE
  5
33B
100
AcDbEntity
  8
0
100
AcDbLine
 62
4
  6
CONTINUOUS
 10
13.3713023302
 20
7.0770346129
 11
13.3624285424
 21
7.035345732
  0
LINE
  5
33C
100
AcDbEntity
  8
0
100
AcDbLine
 62
4
  6
CONTINUOUS
 10
13.5798363567
 20
7.9043829818
 11
13.5709625726
 21
7.8626941079
  0
LINE
  5
33D
100
AcDbEntity
  8
0
100
AcDbLine
 62
4
  6
CONTINUOUS
 10
13.7868914048
 20
8.7766672119
 11
13.791328282
 21
8.7975116415
  0
LINE
  5
33E
100
AcDbEntity
  8
0
100
AcDbLine
 62
4
  6
CONTINUOUS
 10
13.5842732561
 20
7.7927575979
 11
13.5753994647
 21
7.7510687134
  0
LINE
  5
33F
100
AcDbEntity
  8
0
100
AcDbLine
 62
4
  6
CONTINUOUS
 10
13.8268234775
 20
8.8152386346
 11
13.8312603548
 21
8.8360830642
  0
LINE
  5
340
100
AcDbEntity
  8
0
100
AcDbLine
 62
4
  6
CONTINUOUS
 10
13.6153315152
 20
7.7896401146
 11
13.6242052993
 21
7.8313289919
  0
LINE
  5
341
100
AcDbEntity
  8
0
100
AcDbLine
 62
4
  6
CONTINUOUS
 10
13.5502570639
 20
8.5480959772
 11
13.559130848
 21
8.5732261299
  0
LINE
  5
342
100
AcDbEntity
  8
0
100
AcDbLine
 62
4
  6
CONTINUOUS
 10
13.6345580571
 20
8.5467308481
 11
13.6434318412
 21
8.5718609939
  0
LINE
  5
343
100
AcDbEntity
  8
0
100
AcDbLine
 62
4
  6
CONTINUOUS
 10
13.3284123559
 20
7.1459976075
 11
13.30474892
 21
7.0789838671
  0
LINE
  5
344
100
AcDbEntity
  8
0
100
AcDbLine
 62
4
  6
CONTINUOUS
 10
13.3402440748
 20
7.2457393874
 11
13.3624285424
 21
7.2671679389
  0
LINE
  5
345
100
AcDbEntity
  8
0
100
AcDbLine
 62
4
  6
CONTINUOUS
 10
13.4496874574
 20
7.3514535835
 11
13.4851826086
 21
7.3857392687
  0
LINE
  5
346
100
AcDbEntity
  8
0
100
AcDbLine
 62
4
  6
CONTINUOUS
 10
13.5029301915
 20
7.4028821185
 11
13.5295515586
 21
7.4285963859
  0
LINE
  5
347
100
AcDbEntity
  8
0
100
AcDbLine
 62
4
  6
CONTINUOUS
 10
13.6049787677
 20
7.5014534795
 11
13.6227263358
 21
7.518596315
  0
LINE
  5
348
100
AcDbEntity
  8
0
100
AcDbLine
 62
4
  6
CONTINUOUS
 10
13.6567425131
 20
7.551453421
 11
13.670053204
 21
7.5643105619
  0
LINE
  5
349
100
AcDbEntity
  8
0
100
AcDbLine
 62
4
  6
CONTINUOUS
 10
13.6966745562
 20
7.5900248151
 11
13.7188590313
 21
7.6114533737
  0
LINE
  5
34A
100
AcDbEntity
  8
0
100
AcDbLine
 62
4
  6
CONTINUOUS
 10
13.7528752381
 20
7.6443105084
 11
13.7794965904
 21
7.6700247616
  0
LINE
  5
34B
100
AcDbEntity
  8
0
100
AcDbLine
 62
4
  6
CONTINUOUS
 10
13.7706228063
 20
7.5621009754
 11
13.7528752381
 21
7.54495814
  0
LINE
  5
34C
100
AcDbEntity
  8
0
100
AcDbLine
 62
4
  6
CONTINUOUS
 10
13.5206777745
 20
7.3206725998
 11
13.5029301915
 21
7.30352975
  0
LINE
  5
34D
100
AcDbEntity
  8
0
100
AcDbLine
 62
4
  6
CONTINUOUS
 10
13.4023605893
 20
7.1401520489
 11
13.4260240234
 21
7.1630091724
  0
LINE
  5
34E
100
AcDbEntity
  8
0
100
AcDbLine
 62
4
  6
CONTINUOUS
 10
13.7188590313
 20
7.3796311669
 11
13.6966745562
 21
7.3582026083
  0
LINE
  5
34F
100
AcDbEntity
  8
0
100
AcDbLine
 62
4
  6
CONTINUOUS
 10
13.670053204
 20
7.3324883551
 11
13.6567425131
 21
7.3196312142
  0
LINE
  5
350
100
AcDbEntity
  8
0
100
AcDbLine
 62
4
  6
CONTINUOUS
 10
13.6227263358
 20
7.2867741081
 11
13.6049787677
 21
7.2696312727
  0
LINE
  5
351
100
AcDbEntity
  8
0
100
AcDbLine
 62
4
  6
CONTINUOUS
 10
13.3624285424
 20
7.035345732
 11
13.3402440748
 21
7.0139171806
  0
LINE
  5
352
100
AcDbEntity
  8
0
100
AcDbLine
 62
4
  6
CONTINUOUS
 10
13.5029301915
 20
7.1710599116
 11
13.5295515586
 21
7.1967741791
  0
LINE
  5
353
100
AcDbEntity
  8
0
100
AcDbLine
 62
4
  6
CONTINUOUS
 10
13.7528752381
 20
7.4124883015
 11
13.7794965904
 21
7.4382025547
  0
LINE
  5
354
100
AcDbEntity
  8
0
100
AcDbLine
 62
4
  6
CONTINUOUS
 10
13.8312603548
 20
8.7588089929
 11
13.8268234775
 21
8.7655624504
  0
LINE
  5
355
100
AcDbEntity
  8
0
100
AcDbLine
 62
4
  6
CONTINUOUS
 10
13.8534448002
 20
8.7581592188
 11
13.8490079229
 21
8.7649126763
  0
LINE
  5
356
100
AcDbEntity
  8
0
100
AcDbLine
 62
4
  6
CONTINUOUS
 10
13.6789269775
 20
8.5399117474
 11
13.6833638843
 21
8.5276387407
  0
LINE
  5
357
100
AcDbEntity
  8
0
100
AcDbLine
 62
4
  6
CONTINUOUS
 10
13.7277328344
 20
8.570495858
 11
13.7232959275
 21
8.5827688646
  0
LINE
  5
358
100
AcDbEntity
  8
0
100
AcDbLine
 62
4
  6
CONTINUOUS
 10
13.791328282
 20
8.6319243469
 11
13.7868914048
 21
8.6441973822
  0
LINE
  5
359
100
AcDbEntity
  8
0
100
AcDbLine
 62
4
  6
CONTINUOUS
 10
13.6123735821
 20
8.6246546649
 11
13.6153315002
 21
8.6109530596
  0
LINE
  5
35A
100
AcDbEntity
  8
0
100
AcDbLine
 62
4
  6
CONTINUOUS
 10
13.6611794093
 20
8.6386800205
 11
13.6567425321
 21
8.6675117821
  0
LINE
  5
35B
100
AcDbEntity
  8
0
100
AcDbLine
 62
4
  6
CONTINUOUS
 10
13.6870612878
 20
10.540336088
 11
13.6831790054
 21
10.5945416427
  0
LINE
  5
35C
100
AcDbEntity
  8
0
100
AcDbLine
 62
4
  6
CONTINUOUS
 10
13.7258841117
 20
10.6937471619
 11
13.729766394
 21
10.6395416072
  0
LINE
  5
35D
100
AcDbEntity
  8
0
100
AcDbLine
 62
4
  6
CONTINUOUS
 10
13.7232959275
 20
8.5827688646
 11
13.7232959275
 21
8.7980323417
  0
LINE
  5
35E
100
AcDbEntity
  8
0
100
AcDbLine
 62
4
  6
CONTINUOUS
 10
13.7277328153
 20
7.5869073353
 11
13.7277328153
 21
7.4213200442
  0
LINE
  5
35F
100
AcDbEntity
  8
0
100
AcDbLine
 62
4
  6
CONTINUOUS
 10
13.7528752381
 20
7.4124883015
 11
13.7528752381
 21
7.6443105084
  0
LINE
  5
360
100
AcDbEntity
  8
0
100
AcDbLine
 62
4
  6
CONTINUOUS
 10
13.7530600884
 20
10.7779526929
 11
13.7530600884
 21
10.546130486
  0
LINE
  5
361
100
AcDbEntity
  8
0
100
AcDbLine
 62
4
  6
CONTINUOUS
 10
13.7632279707
 20
8.6047815289
 11
13.7632279707
 21
8.7703688235
  0
LINE
  5
362
100
AcDbEntity
  8
0
100
AcDbLine
 62
4
  6
CONTINUOUS
 10
13.7632279707
 20
8.8200450008
 11
13.7632279707
 21
8.8366037358
  0
LINE
  5
363
100
AcDbEntity
  8
0
100
AcDbLine
 62
4
  6
CONTINUOUS
 10
13.7868914048
 20
8.6441973822
 11
13.7868914048
 21
8.7766672119
  0
LINE
  5
364
100
AcDbEntity
  8
0
100
AcDbLine
 62
4
  6
CONTINUOUS
 10
13.8268234775
 20
8.7655624504
 11
13.8268234775
 21
8.8152386346
  0
LINE
  5
365
100
AcDbEntity
  8
0
100
AcDbLine
 62
4
  6
CONTINUOUS
 10
13.8534448002
 20
8.7084830294
 11
13.8534448002
 21
8.7581592188
  0
LINE
  5
366
100
AcDbEntity
  8
0
100
AcDbLine
 62
4
  6
CONTINUOUS
 10
14.0015261611
 20
11.0179525037
 11
14.0015261611
 21
10.7861302968
  0
LINE
  5
367
100
AcDbEntity
  8
0
100
AcDbLine
 62
4
  6
CONTINUOUS
 10
13.8928222542
 20
10.6811303796
 11
13.9122336662
 21
10.9317025717
  0
LINE
  5
368
100
AcDbEntity
  8
0
100
AcDbLine
 62
4
  6
CONTINUOUS
 10
13.9355273605
 20
10.7223803471
 11
13.9549387724
 21
10.9729525392
  0
LINE
  5
369
100
AcDbEntity
  8
0
100
AcDbLine
 62
4
  6
CONTINUOUS
 10
14.0791718088
 20
10.8611302377
 11
14.0985832207
 21
11.1117024298
  0
LINE
  5
36A
100
AcDbEntity
  8
0
100
AcDbLine
 62
4
  6
CONTINUOUS
 10
13.7647069297
 20
8.8380323006
 11
13.7632279707
 21
8.8200450008
  0
LINE
  5
36B
100
AcDbEntity
  8
0
100
AcDbLine
 62
4
  6
CONTINUOUS
 10
13.8490079229
 20
8.6876386051
 11
13.8534448002
 21
8.7084830294
  0
LINE
  5
36C
100
AcDbEntity
  8
0
100
AcDbLine
 62
4
  6
CONTINUOUS
 10
13.5961049836
 20
7.4597646057
 11
13.6049787677
 21
7.5014534795
  0
LINE
  5
36D
100
AcDbEntity
  8
0
100
AcDbLine
 62
4
  6
CONTINUOUS
 10
13.647868729
 20
7.5097645472
 11
13.6567425131
 21
7.551453421
  0
LINE
  5
36E
100
AcDbEntity
  8
0
100
AcDbLine
 62
4
  6
CONTINUOUS
 10
13.6789269881
 20
7.3741772324
 11
13.670053204
 21
7.3324883551
  0
LINE
  5
36F
100
AcDbEntity
  8
0
100
AcDbLine
 62
4
  6
CONTINUOUS
 10
13.7277328153
 20
7.4213200442
 11
13.7188590313
 21
7.3796311669
  0
LINE
  5
370
100
AcDbEntity
  8
0
100
AcDbLine
 62
4
  6
CONTINUOUS
 10
13.8209075926
 20
7.577554889
 11
13.7972441585
 21
7.5105411539
  0
LINE
  5
371
100
AcDbEntity
  8
0
100
AcDbLine
 62
7
  6
CONTINUOUS
 10
12.0935719258
 20
5.5956503225
 11
12.8218880989
 21
6.2991497654
  0
LINE
  5
372
100
AcDbEntity
  8
0
100
AcDbLine
 62
4
  6
CONTINUOUS
 10
13.8268234775
 20
8.6827688049
 11
13.8312603548
 21
8.6704957696
  0
LINE
  5
373
100
AcDbEntity
  8
0
100
AcDbLine
 62
4
  6
CONTINUOUS
 10
13.8490079229
 20
8.8532258996
 11
13.8534448002
 21
8.8409528592
  0
LINE
  5
374
100
AcDbEntity
  8
0
100
AcDbLine
 62
4
  6
CONTINUOUS
 10
13.6327093344
 20
10.4491990955
 11
13.6249447696
 21
10.4803361353
  0
LINE
  5
375
100
AcDbEntity
  8
0
100
AcDbLine
 62
4
  6
CONTINUOUS
 10
13.5628282522
 20
10.6521583902
 11
13.5804168074
 21
10.5283791091
  0
LINE
  5
376
100
AcDbEntity
  8
0
100
AcDbLine
 62
4
  6
CONTINUOUS
 10
13.8734108423
 20
10.8942026012
 11
13.8928222542
 21
10.6811303796
  0
LINE
  5
377
100
AcDbEntity
  8
0
100
AcDbLine
 62
4
  6
CONTINUOUS
 10
13.9549387724
 20
10.9729525392
 11
13.9743501844
 21
10.7598803175
  0
LINE
  5
378
100
AcDbEntity
  8
0
100
AcDbLine
 62
4
  6
CONTINUOUS
 10
14.0597603968
 20
11.0742024593
 11
14.0791718088
 21
10.8611302377
  0
LINE
  5
379
100
AcDbEntity
  8
0
100
AcDbLine
 62
4
  6
CONTINUOUS
 10
14.1257591974
 20
10.9061302022
 11
14.1257591974
 21
11.1379524091
  0
LINE
  5
37A
100
AcDbEntity
  8
0
100
AcDbLine
 62
7
  6
CONTINUOUS
 10
12.6185036452
 20
5.809949224
 11
11.8901874721
 21
5.106449781
  0
LINE
  5
37B
100
AcDbEntity
  8
0
100
AcDbLine
 62
4
  6
CONTINUOUS
 10
13.6404738992
 20
10.4373805718
 11
13.6327093344
 21
10.4491990955
  0
LINE
  5
37C
100
AcDbEntity
  8
0
100
AcDbLine
 62
4
  6
CONTINUOUS
 10
13.6327093344
 20
10.5844287202
 11
13.6560030287
 21
10.5489731438
  0
LINE
  5
37D
100
AcDbEntity
  8
0
100
AcDbLine
 62
4
  6
CONTINUOUS
 10
13.7025904173
 20
10.4973805245
 11
13.6948258526
 21
10.5091990482
  0
LINE
  5
37E
100
AcDbEntity
  8
0
100
AcDbLine
 62
4
  6
CONTINUOUS
 10
13.628827052
 20
10.5999972358
 11
13.6327093344
 21
10.5844287202
  0
LINE
  5
37F
100
AcDbEntity
  8
0
100
AcDbLine
 62
4
  6
CONTINUOUS
 10
13.6560030287
 20
10.5489731438
 11
13.6598853111
 21
10.5334046282
  0
LINE
  5
380
100
AcDbEntity
  8
0
100
AcDbLine
 62
4
  6
CONTINUOUS
 10
13.6598853111
 20
10.6493157248
 11
13.6560030287
 21
10.6648842542
  0
LINE
  5
381
100
AcDbEntity
  8
0
100
AcDbLine
 62
4
  6
CONTINUOUS
 10
13.6948258526
 20
10.5091990482
 11
13.6870612878
 21
10.540336088
  0
LINE
  5
382
100
AcDbEntity
  8
0
100
AcDbLine
 62
4
  6
CONTINUOUS
 10
13.7181195469
 20
10.7248842069
 11
13.7258841117
 21
10.6937471619
  0
LINE
  5
383
100
AcDbEntity
  8
0
100
AcDbLine
 62
7
  6
CONTINUOUS
 10
14.4945760209
 20
11.7453428565
 11
14.4945760209
 21
7.0354883184
  0
LINE
  5
384
100
AcDbEntity
  8
0
100
AcDbLine
 62
7
  6
CONTINUOUS
 10
14.4945760209
 20
7.0354883184
 11
12.9416629085
 21
5.5354893483
  0
LINE
  5
385
100
AcDbEntity
  8
0
100
AcDbLine
 62
7
  6
CONTINUOUS
 10
9.6649466033
 20
12.0802787942
 11
14.4945760209
 21
11.7453428565
  0
LINE
  5
386
100
AcDbEntity
  8
0
100
AcDbLine
 62
4
  6
CONTINUOUS
 10
13.6560030287
 20
10.6648842542
 11
13.6482384639
 21
10.6767027727
  0
LINE
  5
387
100
AcDbEntity
  8
0
100
AcDbLine
 62
4
  6
CONTINUOUS
 10
13.7103549821
 20
10.7367027254
 11
13.7181195469
 21
10.7248842069
  0
ARC
  5
388
100
AcDbEntity
  8
0
100
AcDbCircle
 62
7
  6
CONTINUOUS
 10
9.0166591852
 20
6.1059262721
 40
1.0326887078
100
AcDbArc
 50
25.7640228377
 51
32.3073428428
  0
ARC
  5
389
100
AcDbEntity
  8
0
100
AcDbCircle
 62
7
  6
CONTINUOUS
 10
8.9929843653
 20
6.0903368548
 40
1.0326887078
100
AcDbArc
 50
205.7640228377
 51
212.3073428428
  0
ARC
  5
38A
100
AcDbEntity
  8
0
100
AcDbCircle
 62
7
  6
CONTINUOUS
 10
8.8233544739
 20
5.9192082481
 40
1.0326887078
100
AcDbArc
 50
25.7640228377
 51
32.3073428428
  0
ARC
  5
38B
100
AcDbEntity
  8
0
100
AcDbCircle
 62
7
  6
CONTINUOUS
 10
8.9745686611
 20
6.0162477061
 40
0.9584534212
100
AcDbArc
 50
262.590107291
 51
266.0275106487
  0
ARC
  5
38C
100
AcDbEntity
  8
0
100
AcDbCircle
 62
7
  6
CONTINUOUS
 10
8.8417701781
 20
5.9932973967
 40
0.9584534213
100
AcDbArc
 50
82.590107291
 51
86.0275106487
  0
ARC
  5
38D
100
AcDbEntity
  8
0
100
AcDbCircle
 62
7
  6
CONTINUOUS
 10
9.0352718303
 20
6.1819915884
 40
0.9564683598
100
AcDbArc
 50
82.5865392113
 51
86.0310787285
  0
ARC
  5
38E
100
AcDbEntity
  8
0
100
AcDbCircle
 62
7
  6
CONTINUOUS
 10
9.0359596777
 20
6.1919091872
 40
0.9465269363
100
AcDbArc
 50
86.0310634489
 51
89.4972694561
  0
ARC
  5
38F
100
AcDbEntity
  8
0
100
AcDbCircle
 62
7
  6
CONTINUOUS
 10
8.9736838728
 20
6.0043539397
 40
0.9465269363
100
AcDbArc
 50
266.0310634489
 51
269.4972694561
  0
ARC
  5
390
100
AcDbEntity
  8
0
100
AcDbCircle
 62
7
  6
CONTINUOUS
 10
8.8426549664
 20
6.0051911632
 40
0.9465269363
100
AcDbArc
 50
86.0310634489
 51
89.4972694561
  0
ARC
  5
391
100
AcDbEntity
  8
0
100
AcDbCircle
 62
7
  6
CONTINUOUS
 10
11.2111389214
 20
9.0255469262
 40
0.896110191
100
AcDbArc
 50
266.0036768661
 51
275.5257515524
  0
ARC
  5
392
100
AcDbEntity
  8
0
100
AcDbCircle
 62
7
  6
CONTINUOUS
 10
9.1804004773
 20
6.1070543777
 40
0.8626121738
100
AcDbArc
 50
325.2870362755
 51
332.6649360488
  0
ARC
  5
393
100
AcDbEntity
  8
0
100
AcDbCircle
 62
7
  6
CONTINUOUS
 10
8.8292430732
 20
6.0892087492
 40
0.8626121738
100
AcDbArc
 50
145.2870362755
 51
152.6649360488
  0
ARC
  5
394
100
AcDbEntity
  8
0
100
AcDbCircle
 62
7
  6
CONTINUOUS
 10
8.9870957661
 20
5.9203363537
 40
0.8626121738
100
AcDbArc
 50
325.2870362755
 51
332.6649360488
  0
ARC
  5
395
100
AcDbEntity
  8
0
100
AcDbCircle
 62
7
  6
CONTINUOUS
 10
11.2191878252
 20
9.0372357332
 40
0.8568259112
100
AcDbArc
 50
266.0065180643
 51
275.0452256393
  0
ARC
  5
396
100
AcDbEntity
  8
0
100
AcDbCircle
 62
7
  6
CONTINUOUS
 10
11.2293414453
 20
9.0495241338
 40
0.8405703533
100
AcDbArc
 50
266.0106885213
 51
274.2940346133
  0
ARC
  5
397
100
AcDbEntity
  8
0
100
AcDbCircle
 62
7
  6
CONTINUOUS
 10
9.0980548177
 20
6.3248725091
 40
0.7629750947
100
AcDbArc
 50
111.6288285503
 51
121.4456599223
  0
ARC
  5
398
100
AcDbEntity
  8
0
100
AcDbCircle
 62
7
  6
CONTINUOUS
 10
8.8578981926
 20
5.997889809
 40
0.4633363032
100
AcDbArc
 50
85.9606232332
 51
98.6882155999
  0
SPLINE
  5
399
100
AcDbEntity
  8
0
100
AcDbSpline
 62
7
  6
CONTINUOUS
 70
0
 71
3
 72
20
 73
16
 74
0
 42
0.0000001
 43
0.0000001
 44
0.0000000001
 40
0.0
 40
0.0
 40
0.0
 40
0.0
 40
0.1328004115
 40
0.2663282989
 40
0.3994288484
 40
0.4652765799
 40
0.530307737
 40
0.5942626159
 40
0.6569131493
 40
0.7180845183
 40
0.777666975
 40
0.8356165293
 40
0.89194577
 40
0.9467129545
 40
1.0
 40
1.0
 40
1.0
 40
1.0
 10
9.9466902543
 20
5.7109486593
 30
0.0
 10
9.9506849704
 20
5.7481867916
 30
0.0
 10
9.9580241614
 20
5.8229419363
 30
0.0
 10
9.9665475688
 20
5.9352745157
 30
0.0
 10
9.9711327414
 20
6.0289408233
 30
0.0
 10
9.9730180222
 20
6.103366133
 30
0.0
 10
9.9734975866
 20
6.1583129202
 30
0.0
 10
9.9730336881
 20
6.2123581954
 30
0.0
 10
9.9716390898
 20
6.265298637
 30
0.0
 10
9.9693514063
 20
6.3169736675
 30
0.0
 10
9.9662281045
 20
6.3672765437
 30
0.0
 10
9.9623397284
 20
6.4161560925
 30
0.0
 10
9.9577628836
 20
6.4636116566
 30
0.0
 10
9.9525742784
 20
6.5096808908
 30
0.0
 10
9.9487054182
 20
6.5399085654
 30
0.0
 10
9.9466902543
 20
6.5548006172
 30
0.0
  0
SPLINE
  5
39A
100
AcDbEntity
  8
0
100
AcDbSpline
 62
7
  6
CONTINUOUS
 70
0
 71
3
 72
22
 73
18
 74
0
 42
0.0000001
 43
0.0000001
 44
0.0000000001
 40
0.0
 40
0.0
 40
0.0
 40
0.0
 40
0.0578967657
 40
0.1168069543
 40
0.1767552214
 40
0.2377418336
 40
0.2997235166
 40
0.3626077374
 40
0.4262490722
 40
0.4904549483
 40
0.5550006938
 40
0.619651431
 40
0.684185502
 40
0.7484135876
 40
0.8121898087
 40
0.87541344
 40
1.0
 40
1.0
 40
1.0
 40
1.0
 10
9.8894808089
 20
6.6578577718
 30
0.0
 10
9.8769738538
 20
6.66918009
 30
0.0
 10
9.8515608753
 20
6.6918249564
 30
0.0
 10
9.8125305156
 20
6.7254354285
 30
0.0
 10
9.7721990686
 20
6.7589022951
 30
0.0
 10
9.7305203412
 20
6.7921318296
 30
0.0
 10
9.6874809322
 20
6.8250091166
 30
0.0
 10
9.6431122019
 20
6.8573998101
 30
0.0
 10
9.5974960506
 20
6.8891577311
 30
0.0
 10
9.5507647379
 20
6.9201359619
 30
0.0
 10
9.5030924768
 20
6.9502005866
 30
0.0
 10
9.4546798915
 20
6.9792437878
 30
0.0
 10
9.4057346847
 20
7.007193152
 30
0.0
 10
9.3564532602
 20
7.0340151757
 30
0.0
 10
9.3070068122
 20
7.0597132291
 30
0.0
 10
9.2413655701
 20
7.0923632773
 30
0.0
 10
9.1917782686
 20
7.1155420221
 30
0.0
 10
9.1586835763
 20
7.130464711
 30
0.0
  0
SPLINE
  5
39B
100
AcDbEntity
  8
0
100
AcDbSpline
 62
7
  6
CONTINUOUS
 70
0
 71
3
 72
15
 73
11
 74
0
 42
0.0000001
 43
0.0000001
 44
0.0000000001
 40
0.0
 40
0.0
 40
0.0
 40
0.0
 40
0.1024584527
 40
0.2125880165
 40
0.3308751456
 40
0.4568384937
 40
0.5888694915
 40
0.7247080792
 40
0.8622415245
 40
1.0
 40
1.0
 40
1.0
 40
1.0
 10
9.0442646855
 20
7.138399688
 30
0.0
 10
9.0185778538
 20
7.1272368951
 30
0.0
 10
8.9654432836
 20
7.103699998
 30
0.0
 10
8.8832969194
 20
7.0658432771
 30
0.0
 10
8.7959569165
 20
7.0239315059
 30
0.0
 10
8.7039211014
 20
6.9779960138
 30
0.0
 10
8.6083016962
 20
6.928523668
 30
0.0
 10
8.5105340526
 20
6.8763423509
 30
0.0
 10
8.4119598684
 20
6.822362727
 30
0.0
 10
8.3462729378
 20
6.7856437612
 30
0.0
 10
8.3134674529
 20
6.7671546693
 30
0.0
  0
SPLINE
  5
39C
100
AcDbEntity
  8
0
100
AcDbSpline
 62
7
  6
CONTINUOUS
 70
0
 71
3
 72
19
 73
15
 74
0
 42
0.0000001
 43
0.0000001
 44
0.0000000001
 40
0.0
 40
0.0
 40
0.0
 40
0.0
 40
0.1307120058
 40
0.2609274796
 40
0.3901030586
 40
0.4540952429
 40
0.5175741002
 40
0.5804574383
 40
0.6426735877
 40
0.7041657136
 40
0.7648943282
 40
0.8248381704
 40
0.8839936707
 40
1.0
 40
1.0
 40
1.0
 40
1.0
 10
8.0629532963
 20
6.4853144676
 30
0.0
 10
8.0605747478
 20
6.4485925212
 30
0.0
 10
8.0562602146
 20
6.3752589213
 30
0.0
 10
8.051357494
 20
6.2655400773
 30
0.0
 10
8.0487863425
 20
6.1745302571
 30
0.0
 10
8.0477431872
 20
6.1022840408
 30
0.0
 10
8.047479921
 20
6.048694016
 30
0.0
 10
8.0477382715
 20
5.9956039844
 30
0.0
 10
8.0485137174
 20
5.9430783577
 30
0.0
 10
8.0497933719
 20
5.8911694104
 30
0.0
 10
8.0515569761
 20
5.8399147985
 30
0.0
 10
8.0537784325
 20
5.7893364369
 30
0.0
 10
8.0572871901
 20
5.7232403658
 30
0.0
 10
8.0605419666
 20
5.6740322284
 30
0.0
 10
8.0629532963
 20
5.6414625098
 30
0.0
  0
SPLINE
  5
39D
100
AcDbEntity
  8
0
100
AcDbSpline
 62
7
  6
CONTINUOUS
 70
0
 71
3
 72
20
 73
16
 74
0
 42
0.0000001
 43
0.0000001
 44
0.0000000001
 40
0.0
 40
0.0
 40
0.0
 40
0.0
 40
0.1211307331
 40
0.1823722093
 40
0.2440519433
 40
0.306144724
 40
0.3686116131
 40
0.431400697
 40
0.4944489689
 40
0.5576855291
 40
0.6210361123
 40
0.6844280695
 40
0.7477944304
 40
0.8742260548
 40
1.0
 40
1.0
 40
1.0
 40
1.0
 10
8.1201627417
 20
5.5384053551
 30
0.0
 10
8.1478242011
 20
5.5166491482
 30
0.0
 10
8.1897767222
 20
5.4842786094
 30
0.0
 10
8.2465936707
 20
5.4418588158
 30
0.0
 10
8.2900256827
 20
5.4101871265
 30
0.0
 10
8.334119624
 20
5.3788252877
 30
0.0
 10
8.3788611591
 20
5.3478247742
 30
0.0
 10
8.4242212536
 20
5.3172371459
 30
0.0
 10
8.470156931
 20
5.2871111494
 30
0.0
 10
8.5166131747
 20
5.2574897423
 30
0.0
 10
8.563525871
 20
5.2284068504
 30
0.0
 10
8.6108262968
 20
5.1998858954
 30
0.0
 10
8.6742680628
 20
5.1626522601
 30
0.0
 10
8.7541208149
 20
5.1175886085
 30
0.0
 10
8.8186404296
 20
5.0828484542
 30
0.0
 10
8.8509599742
 20
5.065798416
 30
0.0
  0
SPLINE
  5
39E
100
AcDbEntity
  8
0
100
AcDbSpline
 62
7
  6
CONTINUOUS
 70
0
 71
3
 72
15
 73
11
 74
0
 42
0.0000001
 43
0.0000001
 44
0.0000000001
 40
0.0
 40
0.0
 40
0.0
 40
0.0
 40
0.1128128095
 40
0.2295619381
 40
0.3503742132
 40
0.4750618339
 40
0.6031113476
 40
0.7337873939
 40
0.866309134
 40
1.0
 40
1.0
 40
1.0
 40
1.0
 10
8.965378865
 20
5.0578634389
 30
0.0
 10
8.993297594
 20
5.0709377062
 30
0.0
 10
9.0500153666
 20
5.0977434418
 30
0.0
 10
9.1362635986
 20
5.1393236896
 30
0.0
 10
9.2250763191
 20
5.1830495946
 30
0.0
 10
9.3162745417
 20
5.2289132284
 30
0.0
 10
9.4094901209
 20
5.2767567856
 30
0.0
 10
9.5042366057
 20
5.3262988477
 30
0.0
 10
9.600010186
 20
5.3771978365
 30
0.0
 10
9.664054505
 20
5.4117038369
 30
0.0
 10
9.6961760976
 20
5.4291084576
 30
0.0
  0
SPLINE
  5
39F
100
AcDbEntity
  8
0
100
AcDbSpline
 62
7
  6
CONTINUOUS
 70
0
 71
3
 72
30
 73
26
 74
0
 42
0.0000001
 43
0.0000001
 44
0.0000000001
 40
0.0
 40
0.0
 40
0.0
 40
0.0
 40
0.0303183119
 40
0.0607491934
 40
0.0912952833
 40
0.1219577768
 40
0.1527365242
 40
0.1836299159
 40
0.2146350542
 40
0.2457476273
 40
0.2769622159
 40
0.3082721402
 40
0.3396697415
 40
0.3711462202
 40
0.4026920455
 40
0.4342967909
 40
0.4976177896
 40
0.5610366104
 40
0.6244552206
 40
0.6877757811
 40
0.7509045122
 40
0.8137562436
 40
0.8762577099
 40
0.9383521684
 40
1.0
 40
1.0
 40
1.0
 40
1.0
 10
9.3548685789
 20
5.8689436971
 30
0.0
 10
9.3564544155
 20
5.8773374646
 30
0.0
 10
9.3591590847
 20
5.8942494055
 30
0.0
 10
9.3617976791
 20
5.9198490678
 30
0.0
 10
9.3630195283
 20
5.9456530991
 30
0.0
 10
9.3628197365
 20
5.9715829154
 30
0.0
 10
9.3611999939
 20
5.9975608158
 30
0.0
 10
9.3581644639
 20
6.0235085958
 30
0.0
 10
9.3537229952
 20
6.0493483159
 30
0.0
 10
9.3478885545
 20
6.0750022438
 30
0.0
 10
9.340679063
 20
6.1003933329
 30
0.0
 10
9.3321160996
 20
6.1254452638
 30
0.0
 10
9.322225448
 20
6.1500827986
 30
0.0
 10
9.3110371469
 20
6.1742317937
 30
0.0
 10
9.2985840724
 20
6.197820277
 30
0.0
 10
9.280337061
 20
6.2284426647
 30
0.0
 10
9.2545605253
 20
6.2649615729
 30
0.0
 10
9.2192891908
 20
6.3054125633
 30
0.0
 10
9.1800703332
 20
6.3420531316
 30
0.0
 10
9.137375298
 20
6.3744410896
 30
0.0
 10
9.0917142207
 20
6.4021889733
 30
0.0
 10
9.0436340855
 20
6.4249629657
 30
0.0
 10
8.9937079405
 20
6.4424891421
 30
0.0
 10
8.9425418405
 20
6.454554426
 30
0.0
 10
8.9078645953
 20
6.4588768007
 30
0.0
 10
8.8905367832
 20
6.4600784886
 30
0.0
  0
SPLINE
  5
3A0
100
AcDbEntity
  8
0
100
AcDbSpline
 62
7
  6
CONTINUOUS
 70
0
 71
3
 72
20
 73
16
 74
0
 42
0.0000001
 43
0.0000001
 44
0.0000000001
 40
0.0
 40
0.0
 40
0.0
 40
0.0
 40
0.1257739452
 40
0.2522055696
 40
0.3155719305
 40
0.3789638877
 40
0.442314471
 40
0.5055510312
 40
0.5685993031
 40
0.631388387
 40
0.6938552761
 40
0.7559480567
 40
0.8176277907
 40
0.8788692669
 40
1.0
 40
1.0
 40
1.0
 40
1.0
 10
9.6961760976
 20
6.4711397478
 30
0.0
 10
9.663856553
 20
6.488189786
 30
0.0
 10
9.5993369383
 20
6.5229299404
 30
0.0
 10
9.5194841861
 20
6.5679935919
 30
0.0
 10
9.4560424201
 20
6.6052272273
 30
0.0
 10
9.4087419943
 20
6.6337481823
 30
0.0
 10
9.361829298
 20
6.6628310741
 30
0.0
 10
9.3153730543
 20
6.6924524812
 30
0.0
 10
9.2694373769
 20
6.7225784777
 30
0.0
 10
9.2240772825
 20
6.7531661061
 30
0.0
 10
9.1793357473
 20
6.7841666196
 30
0.0
 10
9.1352418061
 20
6.8155284583
 30
0.0
 10
9.091809794
 20
6.8472001476
 30
0.0
 10
9.0349928455
 20
6.8896199413
 30
0.0
 10
8.9930403245
 20
6.92199048
 30
0.0
 10
8.965378865
 20
6.9437466869
 30
0.0
  0
SPLINE
  5
3A1
100
AcDbEntity
  8
0
100
AcDbSpline
 62
7
  6
CONTINUOUS
 70
0
 71
3
 72
15
 73
11
 74
0
 42
0.0000001
 43
0.0000001
 44
0.0000000001
 40
0.0
 40
0.0
 40
0.0
 40
0.0
 40
0.133690866
 40
0.2662126062
 40
0.3968886525
 40
0.5249381662
 40
0.6496257869
 40
0.770438062
 40
0.8871871906
 40
1.0
 40
1.0
 40
1.0
 40
1.0
 10
8.8509599742
 20
6.951681664
 30
0.0
 10
8.8188383816
 20
6.9342770432
 30
0.0
 10
8.7547940626
 20
6.8997710428
 30
0.0
 10
8.6590204823
 20
6.848872054
 30
0.0
 10
8.5642739974
 20
6.7993299919
 30
0.0
 10
8.4710584182
 20
6.7514864346
 30
0.0
 10
8.3798601957
 20
6.7056228009
 30
0.0
 10
8.2910474752
 20
6.6618968959
 30
0.0
 10
8.2047992432
 20
6.6203166481
 30
0.0
 10
8.1480814706
 20
6.5935109125
 30
0.0
 10
8.1201627417
 20
6.5804366452
 30
0.0
  0
SPLINE
  5
3A2
100
AcDbEntity
  8
0
100
AcDbSpline
 62
7
  6
CONTINUOUS
 70
0
 71
3
 72
39
 73
35
 74
0
 42
0.0000001
 43
0.0000001
 44
0.0000000001
 40
0.0
 40
0.0
 40
0.0
 40
0.0
 40
0.0311906258
 40
0.0621707346
 40
0.0929497601
 40
0.123545077
 40
0.1539815281
 40
0.1842904939
 40
0.2145086433
 40
0.2446765224
 40
0.2748367844
 40
0.3050324069
 40
0.3353048923
 40
0.3656924447
 40
0.396228478
 40
0.4269402625
 40
0.4578478785
 40
0.4889636214
 40
0.5202915953
 40
0.5518277474
 40
0.5835602121
 40
0.6154698183
 40
0.6475309915
 40
0.6797127301
 40
0.7119797328
 40
0.7442937573
 40
0.7766148914
 40
0.8089029758
 40
0.8411190331
 40
0.8732265561
 40
0.9051928987
 40
0.936990446
 40
0.9685976493
 40
1.0
 40
1.0
 40
1.0
 40
1.0
 10
8.8905367832
 20
6.8184369914
 30
0.0
 10
8.863455453
 20
6.820315088
 30
0.0
 10
8.809254314
 20
6.8214301945
 30
0.0
 10
8.7284782041
 20
6.8150763394
 30
0.0
 10
8.6492447873
 20
6.8007508076
 30
0.0
 10
8.5723288093
 20
6.7785879425
 30
0.0
 10
8.4984708984
 20
6.7487989991
 30
0.0
 10
8.428386298
 20
6.7116693236
 30
0.0
 10
8.3627533854
 20
6.6675561096
 30
0.0
 10
8.3022079051
 20
6.6168849889
 30
0.0
 10
8.24733611
 20
6.5601458808
 30
0.0
 10
8.198668836
 20
6.4978880713
 30
0.0
 10
8.1566761119
 20
6.4307146027
 30
0.0
 10
8.1217624959
 20
6.3592760447
 30
0.0
 10
8.0942632213
 20
6.2842638442
 30
0.0
 10
8.0744411347
 20
6.2064033048
 30
0.0
 10
8.0624844243
 20
6.1264463377
 30
0.0
 10
8.0585051302
 20
6.0451641052
 30
0.0
 10
8.0625383798
 20
5.9633395403
 30
0.0
 10
8.074542334
 20
5.8817598894
 30
0.0
 10
8.0943988195
 20
5.8012092847
 30
0.0
 10
8.1219146328
 20
5.7224613445
 30
0.0
 10
8.1568234941
 20
5.6462719479
 30
0.0
 10
8.1987886596
 20
5.5733721472
 30
0.0
 10
8.2474061607
 20
5.5044613066
 30
0.0
 10
8.302208641
 20
5.4402005615
 30
0.0
 10
8.3626697959
 20
5.3812065802
 30
0.0
 10
8.4282093576
 20
5.3280457644
 30
0.0
 10
8.4981984655
 20
5.2812289213
 30
0.0
 10
8.571965932
 20
5.2412063888
 30
0.0
 10
8.6488033015
 20
5.2083638553
 30
0.0
 10
8.7279760196
 20
5.1830183649
 30
0.0
 10
8.8087135892
 20
5.1654163611
 30
0.0
 10
8.8632716224
 20
5.158935317
 30
0.0
 10
8.8905367832
 20
5.1570444717
 30
0.0
  0
SPLINE
  5
3A3
100
AcDbEntity
  8
0
100
AcDbSpline
 62
7
  6
CONTINUOUS
 70
0
 71
3
 72
39
 73
35
 74
0
 42
0.0000001
 43
0.0000001
 44
0.0000000001
 40
0.0
 40
0.0
 40
0.0
 40
0.0
 40
0.0311906258
 40
0.0621707346
 40
0.0929497601
 40
0.123545077
 40
0.1539815281
 40
0.1842904939
 40
0.2145086433
 40
0.2446765224
 40
0.2748367844
 40
0.3050324069
 40
0.3353048923
 40
0.3656924447
 40
0.396228478
 40
0.4269402625
 40
0.4578478785
 40
0.4889636214
 40
0.5202915953
 40
0.5518277474
 40
0.5835602121
 40
0.6154698183
 40
0.6475309915
 40
0.6797127301
 40
0.7119797328
 40
0.7442937573
 40
0.7766148914
 40
0.8089029758
 40
0.8411190331
 40
0.8732265561
 40
0.9051928987
 40
0.936990446
 40
0.9685976493
 40
1.0
 40
1.0
 40
1.0
 40
1.0
 10
8.8905367832
 20
5.1570444717
 30
0.0
 10
8.9176181134
 20
5.1551663751
 30
0.0
 10
8.9718192524
 20
5.1540512686
 30
0.0
 10
9.0525953624
 20
5.1604051237
 30
0.0
 10
9.1318287792
 20
5.1747306555
 30
0.0
 10
9.2087447572
 20
5.1968935206
 30
0.0
 10
9.2826026681
 20
5.226682464
 30
0.0
 10
9.3526872685
 20
5.2638121395
 30
0.0
 10
9.418320181
 20
5.3079253534
 30
0.0
 10
9.4788656613
 20
5.3585964742
 30
0.0
 10
9.5337374565
 20
5.4153355823
 30
0.0
 10
9.5824047304
 20
5.4775933918
 30
0.0
 10
9.6243974545
 20
5.5447668604
 30
0.0
 10
9.6593110705
 20
5.6162054184
 30
0.0
 10
9.6868103452
 20
5.6912176189
 30
0.0
 10
9.7066324318
 20
5.7690781583
 30
0.0
 10
9.7185891421
 20
5.8490351254
 30
0.0
 10
9.7225684363
 20
5.9303173579
 30
0.0
 10
9.7185351867
 20
6.0121419228
 30
0.0
 10
9.7065312324
 20
6.0937215737
 30
0.0
 10
9.686674747
 20
6.1742721784
 30
0.0
 10
9.6591589337
 20
6.2530201186
 30
0.0
 10
9.6242500723
 20
6.3292095152
 30
0.0
 10
9.5822849069
 20
6.4021093159
 30
0.0
 10
9.5336674058
 20
6.4710201565
 30
0.0
 10
9.4788649255
 20
6.5352809016
 30
0.0
 10
9.4184037706
 20
6.5942748829
 30
0.0
 10
9.3528642089
 20
6.6474356987
 30
0.0
 10
9.282875101
 20
6.6942525418
 30
0.0
 10
9.2091076345
 20
6.7342750743
 30
0.0
 10
9.1322702649
 20
6.7671176078
 30
0.0
 10
9.0530975468
 20
6.7924630982
 30
0.0
 10
8.9723599772
 20
6.810065102
 30
0.0
 10
8.917801944
 20
6.8165461461
 30
0.0
 10
8.8905367832
 20
6.8184369914
 30
0.0
  0
SPLINE
  5
3A4
100
AcDbEntity
  8
0
100
AcDbSpline
 62
7
  6
CONTINUOUS
 70
0
 71
3
 72
37
 73
33
 74
0
 42
0.0000001
 43
0.0000001
 44
0.0000000001
 40
0.0
 40
0.0
 40
0.0
 40
0.0
 40
0.0639255209
 40
0.095758495
 40
0.1274928194
 40
0.1591329586
 40
0.1906840857
 40
0.222149845
 40
0.253533431
 40
0.2848390884
 40
0.3160723155
 40
0.3472391331
 40
0.378346097
 40
0.4094000351
 40
0.4404082624
 40
0.4713785515
 40
0.502318888
 40
0.5332376357
 40
0.5641432482
 40
0.5950443157
 40
0.62594949
 40
0.6568672829
 40
0.6878062306
 40
0.71877461
 40
0.7497804899
 40
0.8119190971
 40
0.8430825256
 40
0.8743119988
 40
0.9056134183
 40
0.9369921978
 40
0.9684530036
 40
1.0
 40
1.0
 40
1.0
 40
1.0
 10
8.8905367832
 20
5.5154029745
 30
0.0
 10
8.9041338365
 20
5.5144600157
 30
0.0
 10
8.9245776
 20
5.513923854
 30
0.0
 10
8.9517455662
 20
5.5149916127
 30
0.0
 10
8.9719818155
 20
5.5166795193
 30
0.0
 10
8.9920636247
 20
5.5192510009
 30
0.0
 10
9.0119551716
 20
5.5227024682
 30
0.0
 10
9.0316194477
 20
5.527026402
 30
0.0
 10
9.0510193965
 20
5.5322149369
 30
0.0
 10
9.0701180003
 20
5.5382593519
 30
0.0
 10
9.0888798392
 20
5.545146821
 30
0.0
 10
9.1072693464
 20
5.5528656682
 30
0.0
 10
9.125252164
 20
5.5614009102
 30
0.0
 10
9.1427947949
 20
5.5707360711
 30
0.0
 10
9.1598635585
 20
5.5808548787
 30
0.0
 10
9.1764271508
 20
5.5917369873
 30
0.0
 10
9.1924540126
 20
5.6033627486
 30
0.0
 10
9.2079138905
 20
5.6157104126
 30
0.0
 10
9.2227784783
 20
5.6287559511
 30
0.0
 10
9.2370188059
 20
5.6424760506
 30
0.0
 10
9.2506089561
 20
5.6568439783
 30
0.0
 10
9.2635232583
 20
5.6718330389
 30
0.0
 10
9.2757367138
 20
5.6874153636
 30
0.0
 10
9.2872278987
 20
5.7035614604
 30
0.0
 10
9.3015635954
 20
5.7258127674
 30
0.0
 10
9.3143660659
 20
5.7490706804
 30
0.0
 10
9.3255476855
 20
5.7731606082
 30
0.0
 10
9.3331279029
 20
5.7916513245
 30
0.0
 10
9.3398766382
 20
5.810509516
 30
0.0
 10
9.3457817076
 20
5.8297004868
 30
0.0
 10
9.3508327707
 20
5.8491872862
 30
0.0
 10
9.3536198849
 20
5.8623344113
 30
0.0
 10
9.3548685789
 20
5.8689436971
 30
0.0
  0
SPLINE
  5
3A5
100
AcDbEntity
  8
0
100
AcDbSpline
 62
7
  6
CONTINUOUS
 70
0
 71
3
 72
32
 73
28
 74
0
 42
0.0000001
 43
0.0000001
 44
0.0000000001
 40
0.0
 40
0.0
 40
0.0
 40
0.0
 40
0.0639647083
 40
0.0958248486
 40
0.127590285
 40
0.1908376923
 40
0.2537544266
 40
0.2851043331
 40
0.3163827656
 40
0.3475950482
 40
0.3787469343
 40
0.4408795626
 40
0.5028485987
 40
0.5337974249
 40
0.5647275463
 40
0.5956467486
 40
0.6265628182
 40
0.6574836926
 40
0.6884171832
 40
0.7193710009
 40
0.7503528027
 40
0.7813699017
 40
0.8124294195
 40
0.8746876817
 40
0.9371922596
 40
0.9685577178
 40
1.0
 40
1.0
 40
1.0
 40
1.0
 10
8.9423005495
 20
5.6064657131
 30
0.0
 10
8.9541632203
 20
5.6056430341
 30
0.0
 10
8.9719970487
 20
5.6051413749
 30
0.0
 10
8.9957072902
 20
5.6059572254
 30
0.0
 10
9.019230806
 20
5.6077565719
 30
0.0
 10
9.0483418881
 20
5.6118428818
 30
0.0
 10
9.076925239
 20
5.6183763599
 30
0.0
 10
9.0992999421
 20
5.6250374301
 30
0.0
 10
9.1157942847
 20
5.6307353513
 30
0.0
 10
9.1319916683
 20
5.6371301313
 30
0.0
 10
9.1531331445
 20
5.6465628281
 30
0.0
 10
9.1786983463
 20
5.6600429292
 30
0.0
 10
9.2029455811
 20
5.6757022311
 30
0.0
 10
9.2214207763
 20
5.6894514921
 30
0.0
 10
9.2347947357
 20
5.7003579165
 30
0.0
 10
9.2476676233
 20
5.7118418409
 30
0.0
 10
9.2600173404
 20
5.7238842862
 30
0.0
 10
9.2718222041
 20
5.7364648918
 30
0.0
 10
9.2830629201
 20
5.7495612487
 30
0.0
 10
9.2937194761
 20
5.7631516138
 30
0.0
 10
9.3037735518
 20
5.7772125164
 30
0.0
 10
9.3132089152
 20
5.7917196568
 30
0.0
 10
9.3249488611
 20
5.811637586
 30
0.0
 10
9.3380014827
 20
5.8375420865
 30
0.0
 10
9.3487680312
 20
5.8645377594
 30
0.0
 10
9.3559828837
 20
5.8866940926
 30
0.0
 10
9.35911834
 20
5.8979459154
 30
0.0
 10
9.3605668204
 20
5.903608781
 30
0.0
  0
SPLINE
  5
3A6
100
AcDbEntity
  8
0
100
AcDbSpline
 62
7
  6
CONTINUOUS
 70
0
 71
3
 72
54
 73
50
 74
0
 42
0.0000001
 43
0.0000001
 44
0.0000000001
 40
0.0
 40
0.0
 40
0.0
 40
0.0
 40
0.0307234007
 40
0.0460255543
 40
0.0612882243
 40
0.0765144661
 40
0.0917076377
 40
0.1068713492
 40
0.1220093879
 40
0.1522160627
 40
0.1823713962
 40
0.1974457683
 40
0.2125211807
 40
0.2276022554
 40
0.2426936189
 40
0.2577997772
 40
0.2729251064
 40
0.2880738318
 40
0.3032499091
 40
0.3184571128
 40
0.3336988624
 40
0.3489783123
 40
0.3642982842
 40
0.3796612115
 40
0.3950692138
 40
0.4105239232
 40
0.4260266415
 40
0.4415782316
 40
0.4571791336
 40
0.4885206957
 40
0.5200549711
 40
0.5358950872
 40
0.5517788331
 40
0.5677039212
 40
0.5836678141
 40
0.5996676034
 40
0.6157001116
 40
0.647841996
 40
0.6800711258
 40
0.7123549831
 40
0.7446593452
 40
0.7769494295
 40
0.8091909165
 40
0.8413508562
 40
0.8733987416
 40
0.9053080184
 40
0.9370544393
 40
0.968624364
 40
1.0
 40
1.0
 40
1.0
 40
1.0
 10
8.7879074401
 20
6.4559114488
 30
0.0
 10
8.7739174946
 20
6.4537674626
 30
0.0
 10
8.7530918125
 20
6.449572402
 30
0.0
 10
8.7258736527
 20
6.4420418009
 30
0.0
 10
8.7058256488
 20
6.4354523926
 30
0.0
 10
8.6861632396
 20
6.4279301595
 30
0.0
 10
8.6669270419
 20
6.419489055
 30
0.0
 10
8.648156325
 20
6.410147907
 30
0.0
 10
8.6238243257
 20
6.3965303954
 30
0.0
 10
8.5947416562
 20
6.3773481117
 30
0.0
 10
8.5676925899
 20
6.3554368858
 30
0.0
 10
8.5474399565
 20
6.3364077349
 30
0.0
 10
8.5329650735
 20
6.3214079092
 30
0.0
 10
8.5192358983
 20
6.3057128774
 30
0.0
 10
8.5062817411
 20
6.2893541138
 30
0.0
 10
8.49412834
 20
6.272366978
 30
0.0
 10
8.4828022449
 20
6.2547859721
 30
0.0
 10
8.4723264324
 20
6.2366482977
 30
0.0
 10
8.4627225281
 20
6.2179918428
 30
0.0
 10
8.4540116005
 20
6.1988550803
 30
0.0
 10
8.4462102358
 20
6.1792786374
 30
0.0
 10
8.4393362473
 20
6.1593027305
 30
0.0
 10
8.4334028835
 20
6.138969459
 30
0.0
 10
8.4284226436
 20
6.118321111
 30
0.0
 10
8.4244066752
 20
6.0974006474
 30
0.0
 10
8.421361812
 20
6.076251918
 30
0.0
 10
8.4192960982
 20
6.0549189275
 30
0.0
 10
8.4182124264
 20
6.0334458242
 30
0.0
 10
8.4180803741
 20
6.0046486992
 30
0.0
 10
8.4203897062
 20
5.9685178629
 30
0.0
 10
8.4259537648
 20
5.9326334797
 30
0.0
 10
8.4323256567
 20
5.9041895701
 30
0.0
 10
8.4380678278
 20
5.8829959224
 30
0.0
 10
8.4447524264
 20
5.8620210004
 30
0.0
 10
8.4523670507
 20
5.8413086115
 30
0.0
 10
8.4608944595
 20
5.8209010177
 30
0.0
 10
8.4734674139
 20
5.7941365074
 30
0.0
 10
8.4913780151
 20
5.7616584338
 30
0.0
 10
8.5161717512
 20
5.7246106153
 30
0.0
 10
8.5440828337
 20
5.6897530828
 30
0.0
 10
8.5748781472
 20
5.6573774152
 30
0.0
 10
8.6083019422
 20
5.6277521238
 30
0.0
 10
8.6440764841
 20
5.6011237182
 30
0.0
 10
8.6819046587
 20
5.5777139838
 30
0.0
 10
8.7214723461
 20
5.5577177132
 30
0.0
 10
8.762450136
 20
5.5413025371
 30
0.0
 10
8.8044994751
 20
5.5286035365
 30
0.0
 10
8.8472652404
 20
5.5197306229
 30
0.0
 10
8.8761176749
 20
5.5164029431
 30
0.0
 10
8.8905367832
 20
5.5154029745
 30
0.0
  0
SPLINE
  5
3A7
100
AcDbEntity
  8
0
100
AcDbSpline
 62
7
  6
CONTINUOUS
 70
0
 71
3
 72
57
 73
53
 74
0
 42
0.0000001
 43
0.0000001
 44
0.0000000001
 40
0.0
 40
0.0
 40
0.0
 40
0.0
 40
0.0153168373
 40
0.0305938366
 40
0.0610308166
 40
0.0913444105
 40
0.1064681233
 40
0.1215721811
 40
0.1366607158
 40
0.1517379897
 40
0.1668084058
 40
0.1818763597
 40
0.1969463296
 40
0.2120227445
 40
0.2271099672
 40
0.2422123145
 40
0.2573339009
 40
0.2724787338
 40
0.2876505899
 40
0.3028529907
 40
0.3180892604
 40
0.3333623506
 40
0.3486749595
 40
0.3640294434
 40
0.3794277586
 40
0.3948715857
 40
0.4103621457
 40
0.4259003152
 40
0.4571133759
 40
0.4885179592
 40
0.5042939318
 40
0.5201148139
 40
0.5359788383
 40
0.5518839717
 40
0.583800611
 40
0.6158498325
 40
0.6319196432
 40
0.6480125331
 40
0.664124721
 40
0.6802523367
 40
0.7125307967
 40
0.7286804265
 40
0.7448291243
 40
0.7771001471
 40
0.7932213329
 40
0.8093253346
 40
0.8414594855
 40
0.8734810981
 40
0.9053650493
 40
0.9370883339
 40
0.9686398338
 40
1.0
 40
1.0
 40
1.0
 40
1.0
 10
8.8199169996
 20
6.4597738073
 30
0.0
 10
8.8137788537
 20
6.4583829784
 30
0.0
 10
8.8015802967
 20
6.4553222512
 30
0.0
 10
8.7775589987
 20
6.4480953958
 30
0.0
 10
8.7482985794
 20
6.4370131359
 30
0.0
 10
8.7202656516
 20
6.4232563239
 30
0.0
 10
8.6987613146
 20
6.4107342487
 30
0.0
 10
8.6831272377
 20
6.4006062418
 30
0.0
 10
8.6680083639
 20
6.3897574273
 30
0.0
 10
8.6534352716
 20
6.3782078576
 30
0.0
 10
8.6394364558
 20
6.3659814565
 30
0.0
 10
8.6260396651
 20
6.3531025072
 30
0.0
 10
8.6132724016
 20
6.3395958636
 30
0.0
 10
8.601158886
 20
6.3254895179
 30
0.0
 10
8.5897241557
 20
6.3108106819
 30
0.0
 10
8.5789907609
 20
6.2955888225
 30
0.0
 10
8.5689793282
 20
6.2798546598
 30
0.0
 10
8.5597111135
 20
6.2636386856
 30
0.0
 10
8.5512032539
 20
6.2469739471
 30
0.0
 10
8.5434731759
 20
6.2298932641
 30
0.0
 10
8.5365367549
 20
6.2124304727
 30
0.0
 10
8.5304064563
 20
6.1946207974
 30
0.0
 10
8.5250959101
 20
6.1764991555
 30
0.0
 10
8.5206147744
 20
6.1581019247
 30
0.0
 10
8.5169717147
 20
6.1394656415
 30
0.0
 10
8.5141751711
 20
6.1206273048
 30
0.0
 10
8.5122290775
 20
6.1016241697
 30
0.0
 10
8.5107728338
 20
6.0760830134
 30
0.0
 10
8.5111050321
 20
6.043924759
 30
0.0
 10
8.5142896537
 20
6.0118260286
 30
0.0
 10
8.5185259599
 20
5.9862805723
 30
0.0
 10
8.5225513612
 20
5.9671922203
 30
0.0
 10
8.527410386
 20
5.9482441601
 30
0.0
 10
8.534997072
 20
5.9231922314
 30
0.0
 10
8.5465201667
 20
5.8924170933
 30
0.0
 10
8.5606379234
 20
5.8626685452
 30
0.0
 10
8.57343246
 20
5.8395859589
 30
0.0
 10
8.5837716399
 20
5.8226502536
 30
0.0
 10
8.5948229363
 20
5.8061416518
 30
0.0
 10
8.6104813298
 20
5.7847419982
 30
0.0
 10
8.6274752642
 20
5.764326614
 30
0.0
 10
8.6456951162
 20
5.7450273055
 30
0.0
 10
8.6646985784
 20
5.7265034333
 30
0.0
 10
8.6848351787
 20
5.709189578
 30
0.0
 10
8.7059758046
 20
5.6931976272
 30
0.0
 10
8.7277206744
 20
5.6781350271
 30
0.0
 10
8.7559910728
 20
5.6610711515
 30
0.0
 10
8.7914150538
 20
5.6435748719
 30
0.0
 10
8.8280401572
 20
5.6292083251
 30
0.0
 10
8.8655767466
 20
5.6180846323
 30
0.0
 10
8.9037224098
 20
5.6102961454
 30
0.0
 10
8.9294454153
 20
5.6073572197
 30
0.0
 10
8.9423005495
 20
5.6064657131
 30
0.0
  0
SPLINE
  5
3A8
100
AcDbEntity
  8
0
100
AcDbSpline
 62
7
  6
CONTINUOUS
 70
0
 71
3
 72
19
 73
15
 74
0
 42
0.0000001
 43
0.0000001
 44
0.0000000001
 40
0.0
 40
0.0
 40
0.0
 40
0.0
 40
0.1160063293
 40
0.1751618296
 40
0.2351056719
 40
0.2958342864
 40
0.3573264123
 40
0.4195425617
 40
0.4824258998
 40
0.5459047571
 40
0.6098969414
 40
0.7390725205
 40
0.8692879942
 40
1.0
 40
1.0
 40
1.0
 40
1.0
 10
9.753385543
 20
5.5242306353
 30
0.0
 10
9.7509742133
 20
5.5568003539
 30
0.0
 10
9.7477194369
 20
5.6060084913
 30
0.0
 10
9.7442106792
 20
5.6721045625
 30
0.0
 10
9.7419892229
 20
5.7226829241
 30
0.0
 10
9.7402256186
 20
5.773937536
 30
0.0
 10
9.7389459641
 20
5.8258464832
 30
0.0
 10
9.7381705183
 20
5.87837211
 30
0.0
 10
9.7379121678
 20
5.9314621416
 30
0.0
 10
9.738175434
 20
5.9850521663
 30
0.0
 10
9.7392185892
 20
6.0572983826
 30
0.0
 10
9.7417897407
 20
6.1483082029
 30
0.0
 10
9.7466924613
 20
6.2580270469
 30
0.0
 10
9.7510069946
 20
6.3313606467
 30
0.0
 10
9.753385543
 20
6.3680825931
 30
0.0
  0
SPLINE
  5
3A9
100
AcDbEntity
  8
0
100
AcDbSpline
 62
7
  6
CONTINUOUS
 70
0
 71
3
 72
37
 73
33
 74
0
 42
0.0000001
 43
0.0000001
 44
0.0000000001
 40
0.0
 40
0.0
 40
0.0
 40
0.0
 40
0.0958321372
 40
0.1891019121
 40
0.2792425465
 40
0.3657115305
 40
0.4074101378
 40
0.4480031117
 40
0.4874331589
 40
0.5256456456
 40
0.5625894675
 40
0.5982165282
 40
0.6324830688
 40
0.665348975
 40
0.6967793974
 40
0.7267441687
 40
0.7552196034
 40
0.7821883904
 40
0.8076415214
 40
0.8315791003
 40
0.8540125631
 40
0.8749669375
 40
0.894483817
 40
0.9126256757
 40
0.9294802133
 40
0.9451667887
 40
0.9598415117
 40
0.9737025915
 40
0.9804060739
 40
0.98699956
 40
0.9935185817
 40
1.0
 40
1.0
 40
1.0
 40
1.0
 10
10.0300504217
 20
11.7449418204
 30
0.0
 10
10.0227315163
 20
11.7454493882
 30
0.0
 10
10.0082999585
 20
11.7466119248
 30
0.0
 10
9.9870358261
 20
11.7488310358
 30
0.0
 10
9.9665446486
 20
11.7514904043
 30
0.0
 10
9.9500326378
 20
11.7540886997
 30
0.0
 10
9.9373180792
 20
11.756383564
 30
0.0
 10
9.9281743913
 20
11.7581820426
 30
0.0
 10
9.9193226282
 20
11.7600755517
 30
0.0
 10
9.9107775493
 20
11.7620609931
 30
0.0
 10
9.9025534065
 20
11.7641349434
 30
0.0
 10
9.8946639102
 20
11.7662940097
 30
0.0
 10
9.8871221865
 20
11.7685344574
 30
0.0
 10
9.8799407845
 20
11.7708526349
 30
0.0
 10
9.8731316047
 20
11.7732445383
 30
0.0
 10
9.8667059344
 20
11.7757062738
 30
0.0
 10
9.8606743522
 20
11.7782336317
 30
0.0
 10
9.8550467807
 20
11.780822506
 30
0.0
 10
9.8498323848
 20
11.783468571
 30
0.0
 10
9.8450396184
 20
11.7861675788
 30
0.0
 10
9.8406761622
 20
11.788915231
 30
0.0
 10
9.8367489271
 20
11.7917072987
 30
0.0
 10
9.8332641327
 20
11.7945397576
 30
0.0
 10
9.8302272464
 20
11.7974087172
 30
0.0
 10
9.8276434109
 20
11.8003107301
 30
0.0
 10
9.8255173273
 20
11.8032426556
 30
0.0
 10
9.823854325
 20
11.8062009547
 30
0.0
 10
9.8228476527
 20
11.8087141672
 30
0.0
 10
9.8222907535
 20
11.8107190218
 30
0.0
 10
9.8219953549
 20
11.8122085745
 30
0.0
 10
9.821818002
 20
11.8136995288
 30
0.0
 10
9.8217785203
 20
11.8146952308
 30
0.0
 10
9.8217785157
 20
11.8151914195
 30
0.0
  0
SPLINE
  5
3AA
100
AcDbEntity
  8
0
100
AcDbSpline
 62
7
  6
CONTINUOUS
 70
0
 71
3
 72
37
 73
33
 74
0
 42
0.0000001
 43
0.0000001
 44
0.0000000001
 40
0.0
 40
0.0
 40
0.0
 40
0.0
 40
0.0958321372
 40
0.1891019121
 40
0.2792425465
 40
0.3657115305
 40
0.4074101378
 40
0.4480031117
 40
0.4874331589
 40
0.5256456456
 40
0.5625894675
 40
0.5982165282
 40
0.6324830688
 40
0.665348975
 40
0.6967793974
 40
0.7267441687
 40
0.7552196034
 40
0.7821883904
 40
0.8076415214
 40
0.8315791003
 40
0.8540125631
 40
0.8749669375
 40
0.894483817
 40
0.9126256757
 40
0.9294802133
 40
0.9451667887
 40
0.9598415117
 40
0.9737025915
 40
0.9804060739
 40
0.98699956
 40
0.9935185817
 40
1.0
 40
1.0
 40
1.0
 40
1.0
 10
13.5305656058
 20
11.5021802679
 30
0.0
 10
13.5232467003
 20
11.5026878357
 30
0.0
 10
13.5088151425
 20
11.5038503722
 30
0.0
 10
13.4875510101
 20
11.5060694833
 30
0.0
 10
13.4670598326
 20
11.5087288518
 30
0.0
 10
13.4505478218
 20
11.5113271471
 30
0.0
 10
13.4378332632
 20
11.5136220114
 30
0.0
 10
13.4286895753
 20
11.5154204901
 30
0.0
 10
13.4198378122
 20
11.5173139992
 30
0.0
 10
13.4112927333
 20
11.5192994405
 30
0.0
 10
13.4030685905
 20
11.5213733909
 30
0.0
 10
13.3951790942
 20
11.5235324571
 30
0.0
 10
13.3876373705
 20
11.5257729049
 30
0.0
 10
13.3804559685
 20
11.5280910824
 30
0.0
 10
13.3736467887
 20
11.5304829858
 30
0.0
 10
13.3672211184
 20
11.5329447212
 30
0.0
 10
13.3611895362
 20
11.5354720792
 30
0.0
 10
13.3555619647
 20
11.5380609535
 30
0.0
 10
13.3503475688
 20
11.5407070185
 30
0.0
 10
13.3455548025
 20
11.5434060263
 30
0.0
 10
13.3411913462
 20
11.5461536785
 30
0.0
 10
13.3372641111
 20
11.5489457462
 30
0.0
 10
13.3337793167
 20
11.5517782051
 30
0.0
 10
13.3307424305
 20
11.5546471646
 30
0.0
 10
13.3281585949
 20
11.5575491775
 30
0.0
 10
13.3260325114
 20
11.560481103
 30
0.0
 10
13.324369509
 20
11.5634394021
 30
0.0
 10
13.3233628368
 20
11.5659526146
 30
0.0
 10
13.3228059375
 20
11.5679574692
 30
0.0
 10
13.322510539
 20
11.5694470219
 30
0.0
 10
13.322333186
 20
11.5709379763
 30
0.0
 10
13.3222937043
 20
11.5719336782
 30
0.0
 10
13.3222936998
 20
11.5724298669
 30
0.0
  0
SPLINE
  5
3AB
100
AcDbEntity
  8
0
100
AcDbSpline
 62
7
  6
CONTINUOUS
 70
0
 71
3
 72
37
 73
33
 74
0
 42
0.0000001
 43
0.0000001
 44
0.0000000001
 40
0.0
 40
0.0
 40
0.0
 40
0.0
 40
0.0958321372
 40
0.1891019121
 40
0.2792425465
 40
0.3657115305
 40
0.4074101378
 40
0.4480031117
 40
0.4874331589
 40
0.5256456456
 40
0.5625894675
 40
0.5982165282
 40
0.6324830688
 40
0.665348975
 40
0.6967793974
 40
0.7267441687
 40
0.7552196034
 40
0.7821883904
 40
0.8076415214
 40
0.8315791003
 40
0.8540125631
 40
0.8749669375
 40
0.894483817
 40
0.9126256757
 40
0.9294802133
 40
0.9451667887
 40
0.9598415117
 40
0.9737025915
 40
0.9804060739
 40
0.98699956
 40
0.9935185817
 40
1.0
 40
1.0
 40
1.0
 40
1.0
 10
12.4311031874
 20
10.4401810601
 30
0.0
 10
12.423784282
 20
10.4406886279
 30
0.0
 10
12.4093527242
 20
10.4418511644
 30
0.0
 10
12.3880885918
 20
10.4440702755
 30
0.0
 10
12.3675974143
 20
10.446729644
 30
0.0
 10
12.3510854035
 20
10.4493279393
 30
0.0
 10
12.3383708449
 20
10.4516228036
 30
0.0
 10
12.329227157
 20
10.4534212822
 30
0.0
 10
12.3203753939
 20
10.4553147913
 30
0.0
 10
12.311830315
 20
10.4573002327
 30
0.0
 10
12.3036061722
 20
10.459374183
 30
0.0
 10
12.2957166759
 20
10.4615332493
 30
0.0
 10
12.2881749522
 20
10.4637736971
 30
0.0
 10
12.2809935502
 20
10.4660918746
 30
0.0
 10
12.2741843704
 20
10.468483778
 30
0.0
 10
12.2677587001
 20
10.4709455134
 30
0.0
 10
12.2617271179
 20
10.4734728713
 30
0.0
 10
12.2560995464
 20
10.4760617457
 30
0.0
 10
12.2508851505
 20
10.4787078106
 30
0.0
 10
12.2460923842
 20
10.4814068184
 30
0.0
 10
12.2417289279
 20
10.4841544707
 30
0.0
 10
12.2378016928
 20
10.4869465384
 30
0.0
 10
12.2343168984
 20
10.4897789973
 30
0.0
 10
12.2312800121
 20
10.4926479568
 30
0.0
 10
12.2286961766
 20
10.4955499697
 30
0.0
 10
12.226570093
 20
10.4984818952
 30
0.0
 10
12.2249070907
 20
10.5014401943
 30
0.0
 10
12.2239004184
 20
10.5039534068
 30
0.0
 10
12.2233435192
 20
10.5059582614
 30
0.0
 10
12.2230481206
 20
10.5074478141
 30
0.0
 10
12.2228707677
 20
10.5089387684
 30
0.0
 10
12.222831286
 20
10.5099344704
 30
0.0
 10
12.2228312814
 20
10.5104306591
 30
0.0
  0
SPLINE
  5
3AC
100
AcDbEntity
  8
0
100
AcDbSpline
 62
7
  6
CONTINUOUS
 70
0
 71
3
 72
37
 73
33
 74
0
 42
0.0000001
 43
0.0000001
 44
0.0000000001
 40
0.0
 40
0.0
 40
0.0
 40
0.0
 40
0.0958321372
 40
0.1891019121
 40
0.2792425465
 40
0.3657115305
 40
0.4074101378
 40
0.4480031117
 40
0.4874331589
 40
0.5256456456
 40
0.5625894675
 40
0.5982165282
 40
0.6324830688
 40
0.665348975
 40
0.6967793974
 40
0.7267441687
 40
0.7552196034
 40
0.7821883904
 40
0.8076415214
 40
0.8315791003
 40
0.8540125631
 40
0.8749669375
 40
0.894483817
 40
0.9126256757
 40
0.9294802133
 40
0.9451667887
 40
0.9598415117
 40
0.9737025915
 40
0.9804060739
 40
0.98699956
 40
0.9935185817
 40
1.0
 40
1.0
 40
1.0
 40
1.0
 10
8.9305880034
 20
10.6829426126
 30
0.0
 10
8.923269098
 20
10.6834501804
 30
0.0
 10
8.9088375402
 20
10.684612717
 30
0.0
 10
8.8875734078
 20
10.686831828
 30
0.0
 10
8.8670822303
 20
10.6894911965
 30
0.0
 10
8.8505702195
 20
10.6920894918
 30
0.0
 10
8.8378556609
 20
10.6943843562
 30
0.0
 10
8.828711973
 20
10.6961828348
 30
0.0
 10
8.8198602098
 20
10.6980763439
 30
0.0
 10
8.811315131
 20
10.7000617853
 30
0.0
 10
8.8030909882
 20
10.7021357356
 30
0.0
 10
8.7952014918
 20
10.7042948019
 30
0.0
 10
8.7876597682
 20
10.7065352496
 30
0.0
 10
8.7804783661
 20
10.7088534271
 30
0.0
 10
8.7736691863
 20
10.7112453305
 30
0.0
 10
8.7672435161
 20
10.713707066
 30
0.0
 10
8.7612119339
 20
10.7162344239
 30
0.0
 10
8.7555843623
 20
10.7188232982
 30
0.0
 10
8.7503699665
 20
10.7214693632
 30
0.0
 10
8.7455772001
 20
10.724168371
 30
0.0
 10
8.7412137439
 20
10.7269160232
 30
0.0
 10
8.7372865088
 20
10.7297080909
 30
0.0
 10
8.7338017143
 20
10.7325405498
 30
0.0
 10
8.7307648281
 20
10.7354095093
 30
0.0
 10
8.7281809926
 20
10.7383115223
 30
0.0
 10
8.726054909
 20
10.7412434478
 30
0.0
 10
8.7243919066
 20
10.7442017468
 30
0.0
 10
8.7233852344
 20
10.7467149594
 30
0.0
 10
8.7228283352
 20
10.748719814
 30
0.0
 10
8.7225329366
 20
10.7502093666
 30
0.0
 10
8.7223555836
 20
10.751700321
 30
0.0
 10
8.722316102
 20
10.7526960229
 30
0.0
 10
8.7223160974
 20
10.7531922116
 30
0.0
  0
SPLINE
  5
3AD
100
AcDbEntity
  8
0
100
AcDbSpline
 62
7
  6
CONTINUOUS
 70
0
 71
3
 72
40
 73
36
 74
0
 42
0.0000001
 43
0.0000001
 44
0.0000000001
 40
0.0
 40
0.0
 40
0.0
 40
0.0
 40
0.0958311543
 40
0.1890995249
 40
0.2345960918
 40
0.2792409737
 40
0.3229675312
 40
0.3657111172
 40
0.4074091695
 40
0.4480016895
 40
0.4874311725
 40
0.5256432638
 40
0.5625865635
 40
0.59821323
 40
0.6324793167
 40
0.6653448472
 40
0.6967748399
 40
0.7267393025
 40
0.7552143125
 40
0.7821828541
 40
0.8076356007
 40
0.8315729248
 40
0.854006115
 40
0.8749601885
 40
0.8944769077
 40
0.9126184546
 40
0.9294728641
 40
0.9451591887
 40
0.9598337678
 40
0.9668558273
 40
0.9737029096
 40
0.9804063172
 40
0.9869997239
 40
0.9935186631
 40
1.0
 40
1.0
 40
1.0
 40
1.0
 10
10.9510418968
 20
11.5725515268
 30
0.0
 10
10.9396337573
 20
11.573342684
 30
0.0
 10
10.9171390986
 20
11.5751547682
 30
0.0
 10
10.8892930034
 20
11.5780606809
 30
0.0
 10
10.8675714257
 20
11.5807452176
 30
0.0
 10
10.8517439827
 20
11.5829112142
 30
0.0
 10
10.8362721931
 20
11.5852426423
 30
0.0
 10
10.8211818768
 20
11.5877356414
 30
0.0
 10
10.8064982415
 20
11.5903860187
 30
0.0
 10
10.7922458183
 20
11.5931892807
 30
0.0
 10
10.7784484085
 20
11.5961407775
 30
0.0
 10
10.7651290324
 20
11.5992354777
 30
0.0
 10
10.7523099085
 20
11.6024682207
 30
0.0
 10
10.7400124004
 20
11.605833568
 30
0.0
 10
10.7282569749
 20
11.6093258185
 30
0.0
 10
10.7170631861
 20
11.6129391825
 30
0.0
 10
10.7064495935
 20
11.6166675158
 30
0.0
 10
10.6964337716
 20
11.6205046297
 30
0.0
 10
10.6870322417
 20
11.6244441181
 30
0.0
 10
10.6782604227
 20
11.6284793919
 30
0.0
 10
10.6701326602
 20
11.6326039081
 30
0.0
 10
10.6626620756
 20
11.6368108764
 30
0.0
 10
10.6558606687
 20
11.6410936912
 30
0.0
 10
10.6497392362
 20
11.6454457691
 30
0.0
 10
10.6443073704
 20
11.6498607308
 30
0.0
 10
10.6395737966
 20
11.6543326512
 30
0.0
 10
10.635546196
 20
11.6588561841
 30
0.0
 10
10.6322324853
 20
11.6634256757
 30
0.0
 10
10.630040617
 20
11.6673254465
 30
0.0
 10
10.6286742838
 20
11.6704480236
 30
0.0
 10
10.6278469756
 20
11.6727615792
 30
0.0
 10
10.6272029433
 20
11.6750797177
 30
0.0
 10
10.6267425351
 20
11.677401457
 30
0.0
 10
10.6264660831
 20
11.6797254509
 30
0.0
 10
10.62640456
 20
11.6812774671
 30
0.0
 10
10.6264045526
 20
11.6820508856
 30
0.0
  0
SPLINE
  5
3AE
100
AcDbEntity
  8
0
100
AcDbSpline
 62
7
  6
CONTINUOUS
 70
0
 71
3
 72
85
 73
81
 74
0
 42
0.0000001
 43
0.0000001
 44
0.0000000001
 40
0.0
 40
0.0
 40
0.0
 40
0.0
 40
0.0039765789
 40
0.0081592884
 40
0.012553997
 40
0.0171652268
 40
0.0219963394
 40
0.0270495873
 40
0.0323258371
 40
0.0378250742
 40
0.0435464663
 40
0.0494883859
 40
0.0556486958
 40
0.0620245693
 40
0.0686127272
 40
0.0754094922
 40
0.0896115798
 40
0.1045949336
 40
0.1203191135
 40
0.1367408161
 40
0.153814839
 40
0.1714948125
 40
0.1897338063
 40
0.2084848925
 40
0.2277015038
 40
0.2473376956
 40
0.2673484789
 40
0.2876899289
 40
0.308319208
 40
0.3291947688
 40
0.3502762996
 40
0.3929011542
 40
0.4358952881
 40
0.478975991
 40
0.5218742481
 40
0.5643315829
 40
0.6060967719
 40
0.6266428338
 40
0.6469233514
 40
0.6669076097
 40
0.6865647933
 40
0.7058639871
 40
0.7247740419
 40
0.7432636198
 40
0.7613011629
 40
0.7788548507
 40
0.7958927526
 40
0.8123828142
 40
0.8282930202
 40
0.843591643
 40
0.858247427
 40
0.8722300303
 40
0.8855105415
 40
0.8980621308
 40
0.904057305
 40
0.9098616734
 40
0.9154729639
 40
0.9208892798
 40
0.9261091529
 40
0.9311316708
 40
0.9359565367
 40
0.9405841677
 40
0.9450159084
 40
0.9492541037
 40
0.9533023188
 40
0.9571656218
 40
0.9608507168
 40
0.9643663366
 40
0.9677235157
 40
0.9709358269
 40
0.9740197739
 40
0.9769948514
 40
0.9798836072
 40
0.9827114343
 40
0.9855060199
 40
0.9882965963
 40
0.9911129119
 40
0.9939842011
 40
0.9969380887
 40
1.0
 40
1.0
 40
1.0
 40
1.0
 10
12.0733786816
 20
11.3269811516
 30
0.0
 10
12.0724737777
 20
11.3261070815
 30
0.0
 10
12.0705648642
 20
11.3243670912
 30
0.0
 10
12.0674960639
 20
11.321843315
 30
0.0
 10
12.0641536342
 20
11.3193432277
 30
0.0
 10
12.0605407699
 20
11.3168689325
 30
0.0
 10
12.0566607472
 20
11.3144220685
 30
0.0
 10
12.052517019
 20
11.3120045301
 30
0.0
 10
12.0481135188
 20
11.3096179196
 30
0.0
 10
12.0434544071
 20
11.3072640554
 30
0.0
 10
12.0385441535
 20
11.3049446584
 30
0.0
 10
12.033387526
 20
11.3026612496
 30
0.0
 10
12.0279894499
 20
11.3004155256
 30
0.0
 10
12.0223551586
 20
11.2982089039
 30
0.0
 10
12.0164900421
 20
11.2960428295
 30
0.0
 10
12.0082484551
 20
11.293168583
 30
0.0
 10
11.9974039572
 20
11.2896982017
 30
0.0
 10
11.9837462197
 20
11.2857739248
 30
0.0
 10
11.9693089294
 20
11.2820397153
 30
0.0
 10
11.9541422563
 20
11.2785029843
 30
0.0
 10
11.9382967931
 20
11.2751701104
 30
0.0
 10
11.9218233377
 20
11.2720464701
 30
0.0
 10
11.9047724124
 20
11.269136484
 30
0.0
 10
11.8871939486
 20
11.2664436586
 30
0.0
 10
11.8691370076
 20
11.2639707336
 30
0.0
 10
11.8506495736
 20
11.2617197459
 30
0.0
 10
11.8317784084
 20
11.2596920561
 30
0.0
 10
11.8125689528
 20
11.2578884787
 30
0.0
 10
11.7930652807
 20
11.2563093709
 30
0.0
 10
11.773310047
 20
11.254954602
 30
0.0
 10
11.7465922368
 20
11.2534413814
 30
0.0
 10
11.7128570967
 20
11.2521168388
 30
0.0
 10
11.6721420141
 20
11.2514120324
 30
0.0
 10
11.6313346624
 20
11.2515750082
 30
0.0
 10
11.5907095881
 20
11.2525921687
 30
0.0
 10
11.5505309046
 20
11.2544483992
 30
0.0
 10
11.5174572327
 20
11.2566925769
 30
0.0
 10
11.4914199465
 20
11.2589028808
 30
0.0
 10
11.4722691227
 20
11.2607515411
 30
0.0
 10
11.4534212353
 20
11.2627976224
 30
0.0
 10
11.4349081939
 20
11.2650386083
 30
0.0
 10
11.4167622478
 20
11.2674718366
 30
0.0
 10
11.399016004
 20
11.2700944722
 30
0.0
 10
11.3817025222
 20
11.2729035043
 30
0.0
 10
11.3648553721
 20
11.2758957132
 30
0.0
 10
11.3485086642
 20
11.2790676016
 30
0.0
 10
11.3326971035
 20
11.2824154076
 30
0.0
 10
11.3174559808
 20
11.2859350258
 30
0.0
 10
11.302821163
 20
11.2896219504
 30
0.0
 10
11.2888290624
 20
11.293471284
 30
0.0
 10
11.2755165661
 20
11.2974776271
 30
0.0
 10
11.2629208452
 20
11.3016350345
 30
0.0
 10
11.2510795127
 20
11.3059370382
 30
0.0
 10
11.2417335916
 20
11.3096918349
 30
0.0
 10
11.2346714075
 20
11.3127720656
 30
0.0
 10
11.2296686064
 20
11.3150785406
 30
0.0
 10
11.2248829883
 20
11.317415606
 30
0.0
 10
11.2203191339
 20
11.319782121
 30
0.0
 10
11.215981625
 20
11.3221769748
 30
0.0
 10
11.211874925
 20
11.324598929
 30
0.0
 10
11.2080034095
 20
11.3270466991
 30
0.0
 10
11.2043714281
 20
11.3295190794
 30
0.0
 10
11.200983124
 20
11.3320146729
 30
0.0
 10
11.1978425691
 20
11.3345321432
 30
0.0
 10
11.1949537596
 20
11.3370701911
 30
0.0
 10
11.1923204103
 20
11.3396273311
 30
0.0
 10
11.1899462596
 20
11.3422022655
 30
0.0
 10
11.1878348571
 20
11.3447936038
 30
0.0
 10
11.1859895346
 20
11.3473998823
 30
0.0
 10
11.1844138024
 20
11.3500197987
 30
0.0
 10
11.1831107966
 20
11.3526517484
 30
0.0
 10
11.182083736
 20
11.3552940976
 30
0.0
 10
11.1813358277
 20
11.3579449447
 30
0.0
 10
11.1808696433
 20
11.3606019447
 30
0.0
 10
11.1806878163
 20
11.3632624986
 30
0.0
 10
11.1807919906
 20
11.365923643
 30
0.0
 10
11.1811831447
 20
11.3685823634
 30
0.0
 10
11.1818618425
 20
11.3712357384
 30
0.0
 10
11.1828273583
 20
11.3738809496
 30
0.0
 10
11.1836454651
 20
11.3756027758
 30
0.0
 10
11.1840979362
 20
11.3764593434
 30
0.0
  0
SPLINE
  5
3AF
100
AcDbEntity
  8
0
100
AcDbSpline
 62
7
  6
CONTINUOUS
 70
0
 71
3
 72
84
 73
80
 74
0
 42
0.0000001
 43
0.0000001
 44
0.0000000001
 40
0.0
 40
0.0
 40
0.0
 40
0.0
 40
0.0040079854
 40
0.0081948549
 40
0.0125653254
 40
0.0171232376
 40
0.021871733
 40
0.0268132691
 40
0.0319495229
 40
0.037281354
 40
0.0428091417
 40
0.0485327321
 40
0.0605637557
 40
0.0733655869
 40
0.0869230701
 40
0.1012164646
 40
0.1162222878
 40
0.1319138698
 40
0.1482617807
 40
0.1652343426
 40
0.1827979766
 40
0.2009174506
 40
0.2195562103
 40
0.2386766211
 40
0.2582401382
 40
0.2782075257
 40
0.2985390211
 40
0.3191944596
 40
0.3401334216
 40
0.3613153298
 40
0.3826995455
 40
0.4259118093
 40
0.4694475326
 40
0.5129864199
 40
0.5562126576
 40
0.5988158792
 40
0.6197889654
 40
0.6404928467
 40
0.6608906644
 40
0.6809460711
 40
0.7006233187
 40
0.7198872708
 40
0.7387034759
 40
0.7570382902
 40
0.7748589239
 40
0.7921335753
 40
0.8088316176
 40
0.8249237109
 40
0.8403820398
 40
0.8551806221
 40
0.8692955556
 40
0.8827054521
 40
0.8953920065
 40
0.9014595568
 40
0.9073411525
 40
0.9130356427
 40
0.9185422957
 40
0.9238607591
 40
0.9289910706
 40
0.933933848
 40
0.9386902519
 40
0.9432620416
 40
0.9476518002
 40
0.9518629144
 40
0.9558996973
 40
0.9597676475
 40
0.9634734623
 40
0.967025235
 40
0.9704327154
 40
0.9737073412
 40
0.9768624372
 40
0.9799133484
 40
0.9828773528
 40
0.9857736249
 40
0.9886229884
 40
0.9914474959
 40
0.9942699523
 40
0.997113293
 40
1.0
 40
1.0
 40
1.0
 40
1.0
 10
13.0085996552
 20
11.0445488219
 30
0.0
 10
13.0076907763
 20
11.0436709123
 30
0.0
 10
13.0057875911
 20
11.0419218952
 30
0.0
 10
13.0027534001
 20
11.0393730046
 30
0.0
 10
12.999480549
 20
11.0368440838
 30
0.0
 10
12.9959711907
 20
11.0343368616
 30
0.0
 10
12.992227534
 20
11.0318526371
 30
0.0
 10
12.9882518025
 20
11.029392813
 30
0.0
 10
12.9840464067
 20
11.0269587759
 30
0.0
 10
12.9796140027
 20
11.0245518443
 30
0.0
 10
12.9749573372
 20
11.0221734433
 30
0.0
 10
12.9683428984
 20
11.0189890628
 30
0.0
 10
12.9595252707
 20
11.0151007484
 30
0.0
 10
12.9482693195
 20
11.0106438606
 30
0.0
 10
12.9361971684
 20
11.0063315665
 30
0.0
 10
12.9233390995
 20
11.0021733304
 30
0.0
 10
12.9097269537
 20
10.9981781831
 30
0.0
 10
12.8953943286
 20
10.9943546809
 30
0.0
 10
12.8803763148
 20
10.9907107743
 30
0.0
 10
12.8647093086
 20
10.987253906
 30
0.0
 10
12.8484308283
 20
10.9839910009
 30
0.0
 10
12.8315793746
 20
10.9809283656
 30
0.0
 10
12.8141942573
 20
10.9780717629
 30
0.0
 10
12.7963154386
 20
10.9754264504
 30
0.0
 10
12.7779834138
 20
10.9729970981
 30
0.0
 10
12.759239081
 20
10.9707878386
 30
0.0
 10
12.740123619
 20
10.9688023361
 30
0.0
 10
12.7206783925
 20
10.9670437119
 30
0.0
 10
12.7009448741
 20
10.9655145923
 30
0.0
 10
12.6809645066
 20
10.9642171503
 30
0.0
 10
12.6539571902
 20
10.9627936154
 30
0.0
 10
12.61988233
 20
10.9616097523
 30
0.0
 10
12.5788046928
 20
10.9611326513
 30
0.0
 10
12.5377223246
 20
10.9615932519
 30
0.0
 10
12.4969552199
 20
10.9629842578
 30
0.0
 10
12.4633345051
 20
10.9649175667
 30
0.0
 10
12.4368381187
 20
10.9669269308
 30
0.0
 10
12.4173425298
 20
10.9686491593
 30
0.0
 10
12.3981583849
 20
10.9705911093
 30
0.0
 10
12.3793230832
 20
10.9727492843
 30
0.0
 10
12.3608736537
 20
10.9751197445
 30
0.0
 10
12.3428466922
 20
10.9776982408
 30
0.0
 10
12.3252783448
 20
10.980480181
 30
0.0
 10
12.3082042588
 20
10.9834605487
 30
0.0
 10
12.2916595571
 20
10.9866340006
 30
0.0
 10
12.2756787831
 20
10.9899948238
 30
0.0
 10
12.2602958282
 20
10.9935368607
 30
0.0
 10
12.2455438879
 20
10.9972536131
 30
0.0
 10
12.2314553672
 20
11.0011381911
 30
0.0
 10
12.2180617958
 20
11.0051832431
 30
0.0
 10
12.2053936774
 20
11.0093810738
 30
0.0
 10
12.1934806424
 20
11.0137236083
 30
0.0
 10
12.1840708516
 20
11.0175099927
 30
0.0
 10
12.1769499562
 20
11.0206129338
 30
0.0
 10
12.1718952682
 20
11.0229363328
 30
0.0
 10
12.1670501657
 20
11.0252894304
 30
0.0
 10
12.162417721
 20
11.0276710227
 30
0.0
 10
12.1580009168
 20
11.0300798678
 30
0.0
 10
12.1538026784
 20
11.0325148042
 30
0.0
 10
12.1498257613
 20
11.0349745363
 30
0.0
 10
12.1460728195
 20
11.0374577839
 30
0.0
 10
12.1425464529
 20
11.0399633474
 30
0.0
 10
12.1392490542
 20
11.0424898831
 30
0.0
 10
12.1361829253
 20
11.0450360995
 30
0.0
 10
12.1333503221
 20
11.0476007861
 30
0.0
 10
12.1307532569
 20
11.0501825862
 30
0.0
 10
12.1283936949
 20
11.0527802385
 30
0.0
 10
12.1262735743
 20
11.0553925397
 30
0.0
 10
12.1243945709
 20
11.0580181414
 30
0.0
 10
12.1227584061
 20
11.0606557998
 30
0.0
 10
12.1213667862
 20
11.0633042377
 30
0.0
 10
12.1202211423
 20
11.0659619984
 30
0.0
 10
12.1193230304
 20
11.0686276271
 30
0.0
 10
12.1186738581
 20
11.0712994624
 30
0.0
 10
12.1182746365
 20
11.073975637
 30
0.0
 10
12.1181263816
 20
11.0766541571
 30
0.0
 10
12.1182296484
 20
11.0793329573
 30
0.0
 10
12.1185844118
 20
11.0820096623
 30
0.0
 10
12.1189847008
 20
11.0837742506
 30
0.0
 10
12.1192244296
 20
11.0846522331
 30
0.0
  0
SPLINE
  5
3B0
100
AcDbEntity
  8
0
100
AcDbSpline
 62
7
  6
CONTINUOUS
 70
0
 71
3
 72
85
 73
81
 74
0
 42
0.0000001
 43
0.0000001
 44
0.0000000001
 40
0.0
 40
0.0
 40
0.0
 40
0.0
 40
0.0039765618
 40
0.0081592788
 40
0.0125540112
 40
0.0171652652
 40
0.0219963814
 40
0.0270496251
 40
0.0323258883
 40
0.0378251275
 40
0.0435465372
 40
0.0494884707
 40
0.05564878
 40
0.0620246737
 40
0.0754090559
 40
0.0896111655
 40
0.1045945498
 40
0.1203187502
 40
0.1367404747
 40
0.1538145254
 40
0.1714945123
 40
0.1897335266
 40
0.2084846456
 40
0.2277012594
 40
0.2473374622
 40
0.2673482829
 40
0.287689724
 40
0.3083190088
 40
0.3291946059
 40
0.3502761112
 40
0.3929010003
 40
0.4358951274
 40
0.4789758068
 40
0.5218740522
 40
0.5643313789
 40
0.6060965496
 40
0.6266426014
 40
0.6469231102
 40
0.6669073507
 40
0.6865645363
 40
0.7058637032
 40
0.7247737562
 40
0.7432633257
 40
0.7613008422
 40
0.7788545376
 40
0.7958924156
 40
0.8123824644
 40
0.8282926717
 40
0.8435912687
 40
0.8582470459
 40
0.8722296409
 40
0.885510133
 40
0.8918788491
 40
0.898062223
 40
0.9040573874
 40
0.9098617493
 40
0.9154730368
 40
0.9208893404
 40
0.9261092059
 40
0.9311317231
 40
0.9359565721
 40
0.9405841984
 40
0.9450159381
 40
0.9492541131
 40
0.9533023284
 40
0.9571656259
 40
0.9608507038
 40
0.964366326
 40
0.9677234934
 40
0.9709357978
 40
0.9740197454
 40
0.976994814
 40
0.97988357
 40
0.9827113962
 40
0.9855059839
 40
0.9882965637
 40
0.9911128905
 40
0.9939841884
 40
0.9969380778
 40
1.0
 40
1.0
 40
1.0
 40
1.0
 10
11.6530568793
 20
10.9209814431
 30
0.0
 10
11.6521519791
 20
10.9201073766
 30
0.0
 10
11.6502430653
 20
10.9183673904
 30
0.0
 10
11.6471742589
 20
10.9158436137
 30
0.0
 10
11.6438318209
 20
10.9133435066
 30
0.0
 10
11.6402189379
 20
10.9108692082
 30
0.0
 10
11.6363389091
 20
10.9084223385
 30
0.0
 10
11.6321951773
 20
10.9060047959
 30
0.0
 10
11.6277916652
 20
10.903618198
 30
0.0
 10
11.6231325513
 20
10.9012643132
 30
0.0
 10
11.6182222816
 20
10.8989449208
 30
0.0
 10
11.6130656429
 20
10.8966615177
 30
0.0
 10
11.6076675573
 20
10.8944157589
 30
0.0
 10
11.600031009
 20
10.8914250847
 30
0.0
 10
11.5899115899
 20
10.8878042135
 30
0.0
 10
11.5770821088
 20
10.8836984338
 30
0.0
 10
11.5634242124
 20
10.8797741775
 30
0.0
 10
11.548986933
 20
10.8760399638
 30
0.0
 10
11.5338202258
 20
10.8725032233
 30
0.0
 10
11.5179747423
 20
10.8691703466
 30
0.0
 10
11.50150126
 20
10.8660467223
 30
0.0
 10
11.4844503113
 20
10.8631367293
 30
0.0
 10
11.466871827
 20
10.8604438974
 30
0.0
 10
11.4488148656
 20
10.8579709878
 30
0.0
 10
11.4303274117
 20
10.8557200006
 30
0.0
 10
11.411456231
 20
10.8536923045
 30
0.0
 10
11.3922467593
 20
10.8518887413
 30
0.0
 10
11.3727430729
 20
10.8503096356
 30
0.0
 10
11.3529878302
 20
10.8489548634
 30
0.0
 10
11.3262699995
 20
10.847441661
 30
0.0
 10
11.2925348524
 20
10.8461171145
 30
0.0
 10
11.2518197602
 20
10.8454123215
 30
0.0
 10
11.2110124141
 20
10.8455753091
 30
0.0
 10
11.1703873459
 20
10.846592479
 30
0.0
 10
11.130208667
 20
10.8484487167
 30
0.0
 10
11.0971350006
 20
10.850692899
 30
0.0
 10
11.0710977219
 20
10.8529032138
 30
0.0
 10
11.0519469064
 20
10.8547518772
 30
0.0
 10
11.0330990232
 20
10.8567979595
 30
0.0
 10
11.0145859932
 20
10.8590389566
 30
0.0
 10
10.9964400517
 20
10.8614721817
 30
0.0
 10
10.9786938173
 20
10.8640948253
 30
0.0
 10
10.9613803451
 20
10.8669038647
 30
0.0
 10
10.9445331997
 20
10.8698960693
 30
0.0
 10
10.9281865051
 20
10.8730679719
 30
0.0
 10
10.9123749505
 20
10.8764157784
 30
0.0
 10
10.8971338367
 20
10.8799353959
 30
0.0
 10
10.88249903
 20
10.8836223384
 30
0.0
 10
10.8685069451
 20
10.8874716671
 30
0.0
 10
10.855194426
 20
10.8914780107
 30
0.0
 10
10.8425988399
 20
10.8956354488
 30
0.0
 10
10.8325960197
 20
10.8992693554
 30
0.0
 10
10.8249877968
 20
10.902255632
 30
0.0
 10
10.8195646495
 20
10.9044977169
 30
0.0
 10
10.8143493355
 20
10.9067724868
 30
0.0
 10
10.8093465528
 20
10.9090789662
 30
0.0
 10
10.8045609308
 20
10.9114160157
 30
0.0
 10
10.7999970906
 20
10.9137825441
 30
0.0
 10
10.7956595967
 20
10.9161774131
 30
0.0
 10
10.7915528909
 20
10.9185993438
 30
0.0
 10
10.7876813997
 20
10.9210471415
 30
0.0
 10
10.7840494282
 20
10.9235195238
 30
0.0
 10
10.7806611173
 20
10.9260150967
 30
0.0
 10
10.7775206001
 20
10.9285326048
 30
0.0
 10
10.774631789
 20
10.9310706381
 30
0.0
 10
10.7719984408
 20
10.9336277721
 30
0.0
 10
10.7696243357
 20
10.9362027399
 30
0.0
 10
10.7675129155
 20
10.9387940532
 30
0.0
 10
10.7656676234
 20
10.9414003497
 30
0.0
 10
10.7640919204
 20
10.9440202754
 30
0.0
 10
10.7627888924
 20
10.9466522109
 30
0.0
 10
10.7617618963
 20
10.9492945836
 30
0.0
 10
10.7610139822
 20
10.9519454242
 30
0.0
 10
10.7605478043
 20
10.9546024289
 30
0.0
 10
10.7603660341
 20
10.9572629875
 30
0.0
 10
10.7604701913
 20
10.9599241381
 30
0.0
 10
10.7608613983
 20
10.9625828601
 30
0.0
 10
10.7615401134
 20
10.9652362364
 30
0.0
 10
10.7625056331
 20
10.967881455
 30
0.0
 10
10.7633237675
 20
10.9696032732
 30
0.0
 10
10.7637762462
 20
10.9704598409
 30
0.0
  0
SPLINE
  5
3B1
100
AcDbEntity
  8
0
100
AcDbSpline
 62
7
  6
CONTINUOUS
 70
0
 71
3
 72
39
 73
35
 74
0
 42
0.0000001
 43
0.0000001
 44
0.0000000001
 40
0.0
 40
0.0
 40
0.0
 40
0.0
 40
0.0306730466
 40
0.0614497887
 40
0.0923258225
 40
0.1232995021
 40
0.1543663057
 40
0.185521462
 40
0.2167593041
 40
0.2480733921
 40
0.2794566283
 40
0.310901285
 40
0.3423990901
 40
0.3739413052
 40
0.405518803
 40
0.4371221471
 40
0.4687416723
 40
0.5003675737
 40
0.5319899931
 40
0.5635991029
 40
0.5951851887
 40
0.6267387358
 40
0.6582505174
 40
0.6897116734
 40
0.7211137882
 40
0.7524489668
 40
0.78370991
 40
0.814889997
 40
0.84598331
 40
0.8769847454
 40
0.9078901327
 40
0.9386955846
 40
0.9694001122
 40
1.0
 40
1.0
 40
1.0
 40
1.0
 10
8.2298683917
 20
5.13915466
 30
0.0
 10
8.2179960342
 20
5.1399780108
 30
0.0
 10
8.1942475541
 20
5.1422099588
 30
0.0
 10
8.1587745094
 20
5.1472894923
 30
0.0
 10
8.1234721845
 20
5.1540947525
 30
0.0
 10
8.0884271153
 20
5.1626086876
 30
0.0
 10
8.0537230326
 20
5.1728111184
 30
0.0
 10
8.0194437006
 20
5.1846772872
 30
0.0
 10
7.9856715665
 20
5.198178548
 30
0.0
 10
7.9524879249
 20
5.213282348
 30
0.0
 10
7.9199726469
 20
5.2299522847
 30
0.0
 10
7.8882040145
 20
5.2481482359
 30
0.0
 10
7.8572584725
 20
5.2678263308
 30
0.0
 10
7.8272104833
 20
5.2889391514
 30
0.0
 10
7.7981323619
 20
5.3114358566
 30
0.0
 10
7.7700941126
 20
5.3352623048
 30
0.0
 10
7.743163237
 20
5.3603611471
 30
0.0
 10
7.7174045243
 20
5.3866719246
 30
0.0
 10
7.6928799699
 20
5.4141312994
 30
0.0
 10
7.669648616
 20
5.4426731847
 30
0.0
 10
7.6477664322
 20
5.4722289129
 30
0.0
 10
7.6272860907
 20
5.502727332
 30
0.0
 10
7.6082568826
 20
5.5340950213
 30
0.0
 10
7.5907246388
 20
5.5662564888
 30
0.0
 10
7.5747316183
 20
5.5991343423
 30
0.0
 10
7.5603163955
 20
5.6326494624
 30
0.0
 10
7.5475136686
 20
5.6667211601
 30
0.0
 10
7.5363543062
 20
5.7012674228
 30
0.0
 10
7.5268652284
 20
5.7362050868
 30
0.0
 10
7.5190693681
 20
5.7714501126
 30
0.0
 10
7.5129856783
 20
5.8069174174
 30
0.0
 10
7.5086285356
 20
5.8425222719
 30
0.0
 10
7.5060089941
 20
5.8781773584
 30
0.0
 10
7.5054239791
 20
5.9019669752
 30
0.0
 10
7.5054239791
 20
5.9138394633
 30
0.0
  0
SPLINE
  5
3B2
100
AcDbEntity
  8
0
100
AcDbSpline
 62
7
  6
CONTINUOUS
 70
0
 71
3
 72
25
 73
21
 74
0
 42
0.0000001
 43
0.0000001
 44
0.0000000001
 40
0.0
 40
0.0
 40
0.0
 40
0.0
 40
0.0637762839
 40
0.1273436975
 40
0.190700085
 40
0.2538536198
 40
0.2853583847
 40
0.3168148883
 40
0.3795831508
 40
0.4421738332
 40
0.5045991695
 40
0.5668730861
 40
0.6290109869
 40
0.6910296434
 40
0.7220023556
 40
0.7529520811
 40
0.814787183
 40
0.8765598236
 40
0.9382904646
 40
1.0
 40
1.0
 40
1.0
 40
1.0
 10
7.5054239791
 20
9.1129859895
 30
0.0
 10
7.5054239791
 20
9.1245575217
 30
0.0
 10
7.5059778559
 20
9.1476665896
 30
0.0
 10
7.5084777016
 20
9.1821897141
 30
0.0
 10
7.5126399262
 20
9.2164387895
 30
0.0
 10
7.517489601
 20
9.2447084258
 30
0.0
 10
7.5221904145
 20
9.2671046282
 30
0.0
 10
7.5274270035
 20
9.289309806
 30
0.0
 10
7.5349854897
 20
9.3167531852
 30
0.0
 10
7.5456632668
 20
9.3491228772
 30
0.0
 10
7.5579179745
 20
9.380833458
 30
0.0
 10
7.5717214175
 20
9.4118113931
 30
0.0
 10
7.5870415547
 20
9.441984899
 30
0.0
 10
7.6010498589
 20
9.4664132032
 30
0.0
 10
7.6129761624
 20
9.4854804411
 30
0.0
 10
7.6253672848
 20
9.5042090109
 30
0.0
 10
7.6417342908
 20
9.5269964244
 30
0.0
 10
7.6627355946
 20
9.5532785734
 30
0.0
 10
7.6850436369
 20
9.5784299938
 30
0.0
 10
7.700755262
 20
9.5944077774
 30
0.0
 10
7.708808443
 20
9.6021865203
 30
0.0
  0
SPLINE
  5
3B3
100
AcDbEntity
  8
0
100
AcDbSpline
 62
7
  6
CONTINUOUS
 70
0
 71
3
 72
23
 73
19
 74
0
 42
0.0000001
 43
0.0000001
 44
0.0000000001
 40
0.0
 40
0.0
 40
0.0
 40
0.0
 40
0.086391373
 40
0.1704196618
 40
0.2517472519
 40
0.3300812511
 40
0.4051776498
 40
0.4768461429
 40
0.5449517227
 40
0.6094144145
 40
0.670207192
 40
0.7273527741
 40
0.7809191837
 40
0.8310146304
 40
0.8777832034
 40
0.9213997618
 40
0.9620647483
 40
1.0
 40
1.0
 40
1.0
 40
1.0
 10
11.0403215769
 20
7.7811924756
 30
0.0
 10
11.034434633
 20
7.7796843208
 30
0.0
 10
11.0227688974
 20
7.7769106941
 30
0.0
 10
11.0053976667
 20
7.7734493058
 30
0.0
 10
10.9884656808
 20
7.7707461634
 30
0.0
 10
10.9720627792
 20
7.7687973501
 30
0.0
 10
10.9562700002
 20
7.7675877639
 30
0.0
 10
10.941158389
 20
7.7670923251
 30
0.0
 10
10.9267876577
 20
7.7672774731
 30
0.0
 10
10.9132056143
 20
7.7681028525
 30
0.0
 10
10.9004480688
 20
7.7695231267
 30
0.0
 10
10.8885392335
 20
7.7714897474
 30
0.0
 10
10.8774925349
 20
7.773952584
 30
0.0
 10
10.8673116403
 20
7.7768613848
 30
0.0
 10
10.8579917907
 20
7.7801668783
 30
0.0
 10
10.8495208447
 20
7.7838219973
 30
0.0
 10
10.8418818556
 20
7.7877818616
 30
0.0
 10
10.8371736997
 20
7.7906934406
 30
0.0
 10
10.8349645496
 20
7.7921902735
 30
0.0
  0
SPLINE
  5
3B4
100
AcDbEntity
  8
0
100
AcDbSpline
 62
7
  6
CONTINUOUS
 70
0
 71
3
 72
30
 73
26
 74
0
 42
0.0000001
 43
0.0000001
 44
0.0000000001
 40
0.0
 40
0.0
 40
0.0
 40
0.0
 40
0.0905544326
 40
0.179353471
 40
0.2655685985
 40
0.3484650147
 40
0.4274366322
 40
0.5020170434
 40
0.5718849599
 40
0.6368609164
 40
0.6675006362
 40
0.6969104312
 40
0.7251040409
 40
0.7521021656
 40
0.7779331737
 40
0.802631355
 40
0.8262393663
 40
0.8488050923
 40
0.8703851893
 40
0.8910418802
 40
0.9298502241
 40
0.9481874895
 40
0.9659256729
 40
0.9831619953
 40
1.0
 40
1.0
 40
1.0
 40
1.0
 10
9.8989122973
 20
7.4406872651
 30
0.0
 10
9.8955675052
 20
7.4427732757
 30
0.0
 10
9.8890429516
 20
7.447068299
 30
0.0
 10
9.8797155443
 20
7.4539062536
 30
0.0
 10
9.8710129879
 20
7.4610079571
 30
0.0
 10
9.8630207072
 20
7.4682789754
 30
0.0
 10
9.8558035277
 20
7.4756256419
 30
0.0
 10
9.8494057833
 20
7.4829590242
 30
0.0
 10
9.8438530637
 20
7.4901972383
 30
0.0
 10
9.8398620251
 20
7.4962024448
 30
0.0
 10
9.837110264
 20
7.500899425
 30
0.0
 10
9.8352984922
 20
7.5042878594
 30
0.0
 10
9.8336958407
 20
7.5076048823
 30
0.0
 10
9.8322995696
 20
7.5108450349
 30
0.0
 10
9.8311064774
 20
7.5140033112
 30
0.0
 10
9.8301131599
 20
7.5170753453
 30
0.0
 10
9.8293159282
 20
7.5200572321
 30
0.0
 10
9.8287109812
 20
7.5229454895
 30
0.0
 10
9.8282944534
 20
7.5257374506
 30
0.0
 10
9.8279912758
 20
7.5292538517
 30
0.0
 10
9.8280291258
 20
7.5326538624
 30
0.0
 10
9.8284343586
 20
7.535891073
 30
0.0
 10
9.8289018832
 20
7.5381668749
 30
0.0
 10
9.8295349763
 20
7.5403342149
 30
0.0
 10
9.8300704804
 20
7.5417197958
 30
0.0
 10
9.8303643765
 20
7.5423912778
 30
0.0
  0
SPLINE
  5
3B5
100
AcDbEntity
  8
0
100
AcDbSpline
 62
7
  6
CONTINUOUS
 70
0
 71
3
 72
23
 73
19
 74
0
 42
0.0000001
 43
0.0000001
 44
0.0000000001
 40
0.0
 40
0.0
 40
0.0
 40
0.0
 40
0.061574522
 40
0.1233374655
 40
0.1852794273
 40
0.2473891112
 40
0.3096536811
 40
0.3720589034
 40
0.4345892527
 40
0.4972280758
 40
0.5599577405
 40
0.6227597996
 40
0.6856151619
 40
0.7485042633
 40
0.8114072408
 40
0.8743041075
 40
0.9371749287
 40
1.0
 40
1.0
 40
1.0
 40
1.0
 10
9.2834313439
 20
7.0716500522
 30
0.0
 10
9.2970580716
 20
7.0687994029
 30
0.0
 10
9.3242193055
 20
7.0624266458
 30
0.0
 10
9.3645098821
 20
7.0509033106
 30
0.0
 10
9.4043190544
 20
7.037428267
 30
0.0
 10
9.44354791
 20
7.0220348835
 30
0.0
 10
9.4821005414
 20
7.0047609484
 30
0.0
 10
9.5198822763
 20
6.9856489318
 30
0.0
 10
9.5568004504
 20
6.964745769
 30
0.0
 10
9.5927644853
 20
6.9421027872
 30
0.0
 10
9.6276861433
 20
6.9177755623
 30
0.0
 10
9.6614797601
 20
6.8918238224
 30
0.0
 10
9.694062437
 20
6.8643112801
 30
0.0
 10
9.7253542556
 20
6.8353054375
 30
0.0
 10
9.755278395
 20
6.8048775395
 30
0.0
 10
9.7837616106
 20
6.7731019714
 30
0.0
 10
9.8107333176
 20
6.7400576808
 30
0.0
 10
9.8276722422
 20
6.7172232587
 30
0.0
 10
9.8358680623
 20
6.7056217535
 30
0.0
  0
SPLINE
  5
3B6
100
AcDbEntity
  8
0
100
AcDbSpline
 62
7
  6
CONTINUOUS
 70
0
 71
3
 72
21
 73
17
 74
0
 42
0.0000001
 43
0.0000001
 44
0.0000000001
 40
0.0
 40
0.0
 40
0.0
 40
0.0
 40
0.0636419202
 40
0.1271471448
 40
0.1905097719
 40
0.2537246316
 40
0.3796733097
 40
0.5049889641
 40
0.5674161856
 40
0.6296821257
 40
0.6917876211
 40
0.7537343859
 40
0.8155250521
 40
0.8771631415
 40
0.9386530361
 40
1.0
 40
1.0
 40
1.0
 40
1.0
 10
9.9576809044
 20
6.4628916815
 30
0.0
 10
9.9609293524
 20
6.4528653169
 30
0.0
 10
9.9670618038
 20
6.4327162137
 30
0.0
 10
9.9751592207
 20
6.4022169031
 30
0.0
 10
9.9821353074
 20
6.3715133764
 30
0.0
 10
9.989917883
 20
6.3304163957
 30
0.0
 10
9.9968090935
 20
6.2787448871
 30
0.0
 10
9.9998740353
 20
6.2268354997
 30
0.0
 10
10.0000045121
 20
6.1854247478
 30
0.0
 10
9.9989461006
 20
6.1545003793
 30
0.0
 10
9.9967329199
 20
6.1237172574
 30
0.0
 10
9.9933678744
 20
6.0931176902
 30
0.0
 10
9.9888557828
 20
6.0627443805
 30
0.0
 10
9.9832028145
 20
6.0326393676
 30
0.0
 10
9.9764168452
 20
6.002845132
 30
0.0
 10
9.9711375939
 20
5.9831934206
 30
0.0
 10
9.9683122979
 20
5.9734347666
 30
0.0
  0
SPLINE
  5
3B7
100
AcDbEntity
  8
0
100
AcDbSpline
 62
7
  6
CONTINUOUS
 70
0
 71
3
 72
49
 73
45
 74
0
 42
0.0000001
 43
0.0000001
 44
0.0000000001
 40
0.0
 40
0.0
 40
0.0
 40
0.0
 40
0.0055575652
 40
0.0111779989
 40
0.0169219414
 40
0.0228458413
 40
0.0290005862
 40
0.0354310054
 40
0.0421754419
 40
0.0492662547
 40
0.0567303348
 40
0.0645894055
 40
0.0728610837
 40
0.081559144
 40
0.0906940366
 40
0.1002736841
 40
0.1103033552
 40
0.1207863534
 40
0.131724296
 40
0.1431169483
 40
0.1549629335
 40
0.167259542
 40
0.1931868013
 40
0.2208582139
 40
0.2502183164
 40
0.281200247
 40
0.3137274299
 40
0.3477148798
 40
0.3830701696
 40
0.4196941701
 40
0.4574819135
 40
0.4963233105
 40
0.5361037302
 40
0.5767045149
 40
0.6180036379
 40
0.6598762574
 40
0.7021952159
 40
0.7448315601
 40
0.7876550186
 40
0.8305347645
 40
0.873339678
 40
0.9159378915
 40
0.9582026976
 40
1.0
 40
1.0
 40
1.0
 40
1.0
 10
10.383778511
 20
11.8151921137
 30
0.0
 10
10.3837785174
 20
11.814496973
 30
0.0
 10
10.3837006815
 20
11.8130976193
 30
0.0
 10
10.3833514521
 20
11.8110060451
 30
0.0
 10
10.3827701852
 20
11.8089191401
 30
0.0
 10
10.3819580477
 20
11.8068393343
 30
0.0
 10
10.3809164536
 20
11.8047682653
 30
0.0
 10
10.3796466687
 20
11.8027075954
 30
0.0
 10
10.378150247
 20
11.8006586797
 30
0.0
 10
10.3764286335
 20
11.7986228988
 30
0.0
 10
10.3744833067
 20
11.7966016914
 30
0.0
 10
10.3723159909
 20
11.7945963619
 30
0.0
 10
10.3699283786
 20
11.7926084196
 30
0.0
 10
10.3673223969
 20
11.7906393228
 30
0.0
 10
10.3645001544
 20
11.7886905027
 30
0.0
 10
10.3614638441
 20
11.7867635602
 30
0.0
 10
10.3582159348
 20
11.7848599376
 30
0.0
 10
10.3547590219
 20
11.7829811561
 30
0.0
 10
10.3510958621
 20
11.781128781
 30
0.0
 10
10.3472294476
 20
11.7793042303
 30
0.0
 10
10.343162878
 20
11.7775090194
 30
0.0
 10
10.3373756289
 20
11.7751141025
 30
0.0
 10
10.3296575436
 20
11.7722147145
 30
0.0
 10
10.3198113311
 20
11.768933526
 30
0.0
 10
10.3092553094
 20
11.7658025348
 30
0.0
 10
10.298023859
 20
11.7628320644
 30
0.0
 10
10.2861534327
 20
11.7600319418
 30
0.0
 10
10.2736827139
 20
11.7574114441
 30
0.0
 10
10.2606523875
 20
11.7549792689
 30
0.0
 10
10.2471050355
 20
11.7527434545
 30
0.0
 10
10.2330849653
 20
11.7507113929
 30
0.0
 10
10.2186380466
 20
11.7488898098
 30
0.0
 10
10.2038115658
 20
11.7472847451
 30
0.0
 10
10.1886540758
 20
11.7459014896
 30
0.0
 10
10.173215225
 20
11.7447446072
 30
0.0
 10
10.157545585
 20
11.7438179229
 30
0.0
 10
10.1416964887
 20
11.7431245121
 30
0.0
 10
10.1257198727
 20
11.7426666528
 30
0.0
 10
10.1096680808
 20
11.7424458454
 30
0.0
 10
10.0935936958
 20
11.7424628267
 30
0.0
 10
10.0775494978
 20
11.7427175661
 30
0.0
 10
10.061587743
 20
11.7432091678
 30
0.0
 10
10.0457611639
 20
11.7439360858
 30
0.0
 10
10.035265905
 20
11.7445801254
 30
0.0
 10
10.0300504217
 20
11.7449418204
 30
0.0
  0
SPLINE
  5
3B8
100
AcDbEntity
  8
0
100
AcDbSpline
 62
7
  6
CONTINUOUS
 70
0
 71
3
 72
49
 73
45
 74
0
 42
0.0000001
 43
0.0000001
 44
0.0000000001
 40
0.0
 40
0.0
 40
0.0
 40
0.0
 40
0.0055575652
 40
0.0111779989
 40
0.0169219414
 40
0.0228458413
 40
0.0290005862
 40
0.0354310054
 40
0.0421754419
 40
0.0492662547
 40
0.0567303348
 40
0.0645894055
 40
0.0728610837
 40
0.081559144
 40
0.0906940366
 40
0.1002736841
 40
0.1103033552
 40
0.1207863534
 40
0.131724296
 40
0.1431169483
 40
0.1549629335
 40
0.167259542
 40
0.1931868013
 40
0.2208582139
 40
0.2502183164
 40
0.281200247
 40
0.3137274299
 40
0.3477148798
 40
0.3830701696
 40
0.4196941701
 40
0.4574819135
 40
0.4963233105
 40
0.5361037302
 40
0.5767045149
 40
0.6180036379
 40
0.6598762574
 40
0.7021952159
 40
0.7448315601
 40
0.7876550186
 40
0.8305347645
 40
0.873339678
 40
0.9159378915
 40
0.9582026976
 40
1.0
 40
1.0
 40
1.0
 40
1.0
 10
13.8842936951
 20
11.5724305612
 30
0.0
 10
13.8842937015
 20
11.5717354205
 30
0.0
 10
13.8842158655
 20
11.5703360668
 30
0.0
 10
13.8838666361
 20
11.5682444925
 30
0.0
 10
13.8832853692
 20
11.5661575876
 30
0.0
 10
13.8824732317
 20
11.5640777817
 30
0.0
 10
13.8814316376
 20
11.5620067127
 30
0.0
 10
13.8801618527
 20
11.5599460429
 30
0.0
 10
13.8786654311
 20
11.5578971271
 30
0.0
 10
13.8769438175
 20
11.5558613463
 30
0.0
 10
13.8749984907
 20
11.5538401389
 30
0.0
 10
13.8728311749
 20
11.5518348093
 30
0.0
 10
13.8704435627
 20
11.549846867
 30
0.0
 10
13.867837581
 20
11.5478777703
 30
0.0
 10
13.8650153385
 20
11.5459289501
 30
0.0
 10
13.8619790281
 20
11.5440020076
 30
0.0
 10
13.8587311188
 20
11.5420983851
 30
0.0
 10
13.8552742059
 20
11.5402196036
 30
0.0
 10
13.8516110461
 20
11.5383672285
 30
0.0
 10
13.8477446317
 20
11.5365426778
 30
0.0
 10
13.843678062
 20
11.5347474669
 30
0.0
 10
13.8378908129
 20
11.53235255
 30
0.0
 10
13.8301727276
 20
11.5294531619
 30
0.0
 10
13.8203265151
 20
11.5261719734
 30
0.0
 10
13.8097704934
 20
11.5230409822
 30
0.0
 10
13.798539043
 20
11.5200705119
 30
0.0
 10
13.7866686168
 20
11.5172703892
 30
0.0
 10
13.7741978979
 20
11.5146498915
 30
0.0
 10
13.7611675715
 20
11.5122177163
 30
0.0
 10
13.7476202196
 20
11.5099819019
 30
0.0
 10
13.7336001494
 20
11.5079498403
 30
0.0
 10
13.7191532306
 20
11.5061282573
 30
0.0
 10
13.7043267499
 20
11.5045231925
 30
0.0
 10
13.6891692598
 20
11.5031399371
 30
0.0
 10
13.673730409
 20
11.5019830547
 30
0.0
 10
13.658060769
 20
11.5010563704
 30
0.0
 10
13.6422116727
 20
11.5003629595
 30
0.0
 10
13.6262350568
 20
11.4999051002
 30
0.0
 10
13.6101832648
 20
11.4996842928
 30
0.0
 10
13.5941088798
 20
11.4997012741
 30
0.0
 10
13.5780646818
 20
11.4999560135
 30
0.0
 10
13.562102927
 20
11.5004476153
 30
0.0
 10
13.546276348
 20
11.5011745333
 30
0.0
 10
13.535781089
 20
11.5018185729
 30
0.0
 10
13.5305656058
 20
11.5021802679
 30
0.0
  0
SPLINE
  5
3B9
100
AcDbEntity
  8
0
100
AcDbSpline
 62
7
  6
CONTINUOUS
 70
0
 71
3
 72
49
 73
45
 74
0
 42
0.0000001
 43
0.0000001
 44
0.0000000001
 40
0.0
 40
0.0
 40
0.0
 40
0.0
 40
0.0055575652
 40
0.0111779989
 40
0.0169219414
 40
0.0228458413
 40
0.0290005862
 40
0.0354310054
 40
0.0421754419
 40
0.0492662547
 40
0.0567303348
 40
0.0645894055
 40
0.0728610837
 40
0.081559144
 40
0.0906940366
 40
0.1002736841
 40
0.1103033552
 40
0.1207863534
 40
0.131724296
 40
0.1431169483
 40
0.1549629335
 40
0.167259542
 40
0.1931868013
 40
0.2208582139
 40
0.2502183164
 40
0.281200247
 40
0.3137274299
 40
0.3477148798
 40
0.3830701696
 40
0.4196941701
 40
0.4574819135
 40
0.4963233105
 40
0.5361037302
 40
0.5767045149
 40
0.6180036379
 40
0.6598762574
 40
0.7021952159
 40
0.7448315601
 40
0.7876550186
 40
0.8305347645
 40
0.873339678
 40
0.9159378915
 40
0.9582026976
 40
1.0
 40
1.0
 40
1.0
 40
1.0
 10
12.7848312767
 20
10.5104313534
 30
0.0
 10
12.7848312831
 20
10.5097362127
 30
0.0
 10
12.7847534472
 20
10.508336859
 30
0.0
 10
12.7844042178
 20
10.5062452847
 30
0.0
 10
12.7838229509
 20
10.5041583798
 30
0.0
 10
12.7830108134
 20
10.5020785739
 30
0.0
 10
12.7819692193
 20
10.5000075049
 30
0.0
 10
12.7806994344
 20
10.4979468351
 30
0.0
 10
12.7792030127
 20
10.4958979193
 30
0.0
 10
12.7774813992
 20
10.4938621385
 30
0.0
 10
12.7755360724
 20
10.491840931
 30
0.0
 10
12.7733687566
 20
10.4898356015
 30
0.0
 10
12.7709811444
 20
10.4878476592
 30
0.0
 10
12.7683751626
 20
10.4858785625
 30
0.0
 10
12.7655529201
 20
10.4839297423
 30
0.0
 10
12.7625166098
 20
10.4820027998
 30
0.0
 10
12.7592687005
 20
10.4800991772
 30
0.0
 10
12.7558117876
 20
10.4782203958
 30
0.0
 10
12.7521486278
 20
10.4763680207
 30
0.0
 10
12.7482822133
 20
10.4745434699
 30
0.0
 10
12.7442156437
 20
10.472748259
 30
0.0
 10
12.7384283946
 20
10.4703533422
 30
0.0
 10
12.7307103093
 20
10.4674539541
 30
0.0
 10
12.7208640968
 20
10.4641727656
 30
0.0
 10
12.7103080751
 20
10.4610417744
 30
0.0
 10
12.6990766247
 20
10.4580713041
 30
0.0
 10
12.6872061985
 20
10.4552711814
 30
0.0
 10
12.6747354796
 20
10.4526506837
 30
0.0
 10
12.6617051532
 20
10.4502185085
 30
0.0
 10
12.6481578012
 20
10.4479826941
 30
0.0
 10
12.634137731
 20
10.4459506325
 30
0.0
 10
12.6196908123
 20
10.4441290494
 30
0.0
 10
12.6048643315
 20
10.4425239847
 30
0.0
 10
12.5897068415
 20
10.4411407293
 30
0.0
 10
12.5742679907
 20
10.4399838469
 30
0.0
 10
12.5585983507
 20
10.4390571626
 30
0.0
 10
12.5427492544
 20
10.4383637517
 30
0.0
 10
12.5267726384
 20
10.4379058924
 30
0.0
 10
12.5107208465
 20
10.437685085
 30
0.0
 10
12.4946464615
 20
10.4377020663
 30
0.0
 10
12.4786022635
 20
10.4379568057
 30
0.0
 10
12.4626405087
 20
10.4384484075
 30
0.0
 10
12.4468139296
 20
10.4391753254
 30
0.0
 10
12.4363186707
 20
10.4398193651
 30
0.0
 10
12.4311031874
 20
10.4401810601
 30
0.0
  0
SPLINE
  5
3BA
100
AcDbEntity
  8
0
100
AcDbSpline
 62
7
  6
CONTINUOUS
 70
0
 71
3
 72
49
 73
45
 74
0
 42
0.0000001
 43
0.0000001
 44
0.0000000001
 40
0.0
 40
0.0
 40
0.0
 40
0.0
 40
0.0055575652
 40
0.0111779989
 40
0.0169219414
 40
0.0228458413
 40
0.0290005862
 40
0.0354310054
 40
0.0421754419
 40
0.0492662547
 40
0.0567303348
 40
0.0645894055
 40
0.0728610837
 40
0.081559144
 40
0.0906940366
 40
0.1002736841
 40
0.1103033552
 40
0.1207863534
 40
0.131724296
 40
0.1431169483
 40
0.1549629335
 40
0.167259542
 40
0.1931868013
 40
0.2208582139
 40
0.2502183164
 40
0.281200247
 40
0.3137274299
 40
0.3477148798
 40
0.3830701696
 40
0.4196941701
 40
0.4574819135
 40
0.4963233105
 40
0.5361037302
 40
0.5767045149
 40
0.6180036379
 40
0.6598762574
 40
0.7021952159
 40
0.7448315601
 40
0.7876550186
 40
0.8305347645
 40
0.873339678
 40
0.9159378915
 40
0.9582026976
 40
1.0
 40
1.0
 40
1.0
 40
1.0
 10
9.2843160927
 20
10.7531929059
 30
0.0
 10
9.2843160991
 20
10.7524977652
 30
0.0
 10
9.2842382632
 20
10.7510984115
 30
0.0
 10
9.2838890337
 20
10.7490068373
 30
0.0
 10
9.2833077669
 20
10.7469199323
 30
0.0
 10
9.2824956293
 20
10.7448401265
 30
0.0
 10
9.2814540353
 20
10.7427690574
 30
0.0
 10
9.2801842504
 20
10.7407083876
 30
0.0
 10
9.2786878287
 20
10.7386594719
 30
0.0
 10
9.2769662151
 20
10.736623691
 30
0.0
 10
9.2750208884
 20
10.7346024836
 30
0.0
 10
9.2728535726
 20
10.7325971541
 30
0.0
 10
9.2704659603
 20
10.7306092117
 30
0.0
 10
9.2678599786
 20
10.728640115
 30
0.0
 10
9.2650377361
 20
10.7266912948
 30
0.0
 10
9.2620014258
 20
10.7247643524
 30
0.0
 10
9.2587535165
 20
10.7228607298
 30
0.0
 10
9.2552966035
 20
10.7209819483
 30
0.0
 10
9.2516334438
 20
10.7191295732
 30
0.0
 10
9.2477670293
 20
10.7173050225
 30
0.0
 10
9.2437004596
 20
10.7155098116
 30
0.0
 10
9.2379132106
 20
10.7131148947
 30
0.0
 10
9.2301951252
 20
10.7102155067
 30
0.0
 10
9.2203489127
 20
10.7069343182
 30
0.0
 10
9.2097928911
 20
10.703803327
 30
0.0
 10
9.1985614406
 20
10.7008328566
 30
0.0
 10
9.1866910144
 20
10.6980327339
 30
0.0
 10
9.1742202955
 20
10.6954122362
 30
0.0
 10
9.1611899692
 20
10.6929800611
 30
0.0
 10
9.1476426172
 20
10.6907442467
 30
0.0
 10
9.133622547
 20
10.6887121851
 30
0.0
 10
9.1191756283
 20
10.686890602
 30
0.0
 10
9.1043491475
 20
10.6852855372
 30
0.0
 10
9.0891916575
 20
10.6839022818
 30
0.0
 10
9.0737528066
 20
10.6827453994
 30
0.0
 10
9.0580831667
 20
10.6818187151
 30
0.0
 10
9.0422340703
 20
10.6811253043
 30
0.0
 10
9.0262574544
 20
10.6806674449
 30
0.0
 10
9.0102056624
 20
10.6804466375
 30
0.0
 10
8.9941312774
 20
10.6804636189
 30
0.0
 10
8.9780870795
 20
10.6807183583
 30
0.0
 10
8.9621253247
 20
10.68120996
 30
0.0
 10
8.9462987456
 20
10.681936878
 30
0.0
 10
8.9358034867
 20
10.6825809176
 30
0.0
 10
8.9305880034
 20
10.6829426126
 30
0.0
  0
SPLINE
  5
3BB
100
AcDbEntity
  8
0
100
AcDbSpline
 62
7
  6
CONTINUOUS
 70
0
 71
3
 72
52
 73
48
 74
0
 42
0.0000001
 43
0.0000001
 44
0.0000000001
 40
0.0
 40
0.0
 40
0.0
 40
0.0
 40
0.0055575452
 40
0.0111779602
 40
0.016921892
 40
0.0228457496
 40
0.0290005038
 40
0.0354308807
 40
0.0421752804
 40
0.0492661157
 40
0.0567301063
 40
0.0645891986
 40
0.0728608365
 40
0.0815588357
 40
0.0906937562
 40
0.1002733096
 40
0.1103029755
 40
0.1207859477
 40
0.131723822
 40
0.1431164636
 40
0.1549623956
 40
0.1672589551
 40
0.1800022198
 40
0.1931874697
 40
0.2068088674
 40
0.2208599029
 40
0.2353332361
 40
0.2502207925
 40
0.2812025981
 40
0.313729699
 40
0.3477170677
 40
0.3830722204
 40
0.4196960739
 40
0.4574836961
 40
0.4963249807
 40
0.5361052622
 40
0.5767059089
 40
0.618004903
 40
0.659877388
 40
0.7021961977
 40
0.7448323876
 40
0.7876557529
 40
0.8305352907
 40
0.8733400548
 40
0.9159384692
 40
0.9582021833
 40
1.0
 40
1.0
 40
1.0
 40
1.0
 10
11.5024045373
 20
11.6820520003
 30
0.0
 10
11.5024045476
 20
11.6809684716
 30
0.0
 10
11.5022832515
 20
11.6787872719
 30
0.0
 10
11.5017388988
 20
11.675527091
 30
0.0
 10
11.5008328238
 20
11.672274211
 30
0.0
 10
11.4995670116
 20
11.6690323417
 30
0.0
 10
11.4979433755
 20
11.6658041702
 30
0.0
 10
11.4959641872
 20
11.6625921405
 30
0.0
 10
11.4936317008
 20
11.6593984386
 30
0.0
 10
11.4909481306
 20
11.656225289
 30
0.0
 10
11.4879159879
 20
11.6530747151
 30
0.0
 10
11.4845376989
 20
11.6499490324
 30
0.0
 10
11.4808161013
 20
11.6468503694
 30
0.0
 10
11.4767541246
 20
11.643781072
 30
0.0
 10
11.4723550094
 20
11.6407434693
 30
0.0
 10
11.4676222895
 20
11.6377398451
 30
0.0
 10
11.4625596957
 20
11.6347726676
 30
0.0
 10
11.4571713398
 20
11.631844175
 30
0.0
 10
11.4514615137
 20
11.6289568215
 30
0.0
 10
11.445434851
 20
11.626112878
 30
0.0
 10
11.4390962227
 20
11.623314661
 30
0.0
 10
11.4324507599
 20
11.6205644967
 30
0.0
 10
11.4255038824
 20
11.6178645469
 30
0.0
 10
11.4182612221
 20
11.6152171238
 30
0.0
 10
11.4107287005
 20
11.6126243036
 30
0.0
 10
11.4029124536
 20
11.61008828
 30
0.0
 10
11.3948188583
 20
11.6076110934
 30
0.0
 10
11.3835158799
 20
11.6043459366
 30
0.0
 10
11.3687371133
 20
11.6004373944
 30
0.0
 10
11.3502345439
 20
11.5960727818
 30
0.0
 10
11.3307961593
 20
11.5919881812
 30
0.0
 10
11.310485555
 20
11.5881970929
 30
0.0
 10
11.289369048
 20
11.5847120764
 30
0.0
 10
11.2675157
 20
11.581544664
 30
0.0
 10
11.2449970094
 20
11.5787053382
 30
0.0
 10
11.2218866919
 20
11.5762034878
 30
0.0
 10
11.1982604253
 20
11.5740473769
 30
0.0
 10
11.1741955933
 20
11.5722441274
 30
0.0
 10
11.149771027
 20
11.5707996951
 30
0.0
 10
11.1250667437
 20
11.5697188507
 30
0.0
 10
11.1001636842
 20
11.5690051655
 30
0.0
 10
11.0751434571
 20
11.5686610018
 30
0.0
 10
11.0500880131
 20
11.56868748
 30
0.0
 10
11.0250795647
 20
11.5690845365
 30
0.0
 10
11.0001997953
 20
11.569850812
 30
0.0
 10
10.9755305966
 20
11.5709838473
 30
0.0
 10
10.9591714964
 20
11.5719877372
 30
0.0
 10
10.9510418968
 20
11.5725515268
 30
0.0
  0
SPLINE
  5
3BC
100
AcDbEntity
  8
0
100
AcDbSpline
 62
7
  6
CONTINUOUS
 70
0
 71
3
 72
10
 73
6
 74
0
 42
0.0000001
 43
0.0000001
 44
0.0000000001
 40
0.0
 40
0.0
 40
0.0
 40
0.0
 40
0.472503413
 40
0.7288255938
 40
1.0
 40
1.0
 40
1.0
 40
1.0
 10
12.0823832593
 20
11.3385503313
 30
0.0
 10
12.0813010495
 20
11.3365016128
 30
0.0
 10
12.0793085587
 20
11.3335058775
 30
0.0
 10
12.0761416393
 20
11.3297600873
 30
0.0
 10
12.0743351043
 20
11.327904985
 30
0.0
 10
12.0733786816
 20
11.3269811516
 30
0.0
  0
SPLINE
  5
3BD
100
AcDbEntity
  8
0
100
AcDbSpline
 62
7
  6
CONTINUOUS
 70
0
 71
3
 72
14
 73
10
 74
0
 42
0.0000001
 43
0.0000001
 44
0.0000000001
 40
0.0
 40
0.0
 40
0.0
 40
0.0
 40
0.1101696287
 40
0.2234342463
 40
0.3404521234
 40
0.4618145306
 40
0.7194765822
 40
0.8567312853
 40
1.0
 40
1.0
 40
1.0
 40
1.0
 10
13.0219747939
 20
11.0651961816
 30
0.0
 10
13.0217340466
 20
11.064314469
 30
0.0
 10
13.021167443
 20
11.0625467863
 30
0.0
 10
13.0200863326
 20
11.0599343846
 30
0.0
 10
13.0187644638
 20
11.0573305412
 30
0.0
 10
13.0166402681
 20
11.0538025224
 30
0.0
 10
13.0140602883
 20
11.0503670886
 30
0.0
 10
13.0110911131
 20
11.0470310931
 30
0.0
 10
13.0094545511
 20
11.045374588
 30
0.0
 10
13.0085996552
 20
11.0445488219
 30
0.0
  0
SPLINE
  5
3BE
100
AcDbEntity
  8
0
100
AcDbSpline
 62
7
  6
CONTINUOUS
 70
0
 71
3
 72
10
 73
6
 74
0
 42
0.0000001
 43
0.0000001
 44
0.0000000001
 40
0.0
 40
0.0
 40
0.0
 40
0.0
 40
0.4725054798
 40
0.7288278498
 40
1.0
 40
1.0
 40
1.0
 40
1.0
 10
11.6620613471
 20
10.9325504197
 30
0.0
 10
11.6609791354
 20
10.9305017319
 30
0.0
 10
11.6589866545
 20
10.9275060458
 30
0.0
 10
11.655819776
 20
10.9237603224
 30
0.0
 10
11.654013279
 20
10.9219052543
 30
0.0
 10
11.6530568793
 20
10.9209814431
 30
0.0
  0
SPLINE
  5
3BF
100
AcDbEntity
  8
0
100
AcDbSpline
 62
7
  6
CONTINUOUS
 70
0
 71
3
 72
26
 73
22
 74
0
 42
0.0000001
 43
0.0000001
 44
0.0000000001
 40
0.0
 40
0.0
 40
0.0
 40
0.0
 40
0.0616472054
 40
0.0924807933
 40
0.1233230004
 40
0.1850390268
 40
0.2468231059
 40
0.2777501805
 40
0.3087022513
 40
0.3706859567
 40
0.4327990279
 40
0.4950593422
 40
0.5574831714
 40
0.6200850439
 40
0.6828775467
 40
0.714351265
 40
0.7458764659
 40
0.8090800769
 40
0.8724988328
 40
0.9361396088
 40
1.0
 40
1.0
 40
1.0
 40
1.0
 10
11.8901874619
 20
5.1064497916
 30
0.0
 10
11.8817708991
 20
5.0983200505
 30
0.0
 10
11.8688131885
 20
5.0864604164
 30
0.0
 10
11.8509204073
 20
5.0713633721
 30
0.0
 10
11.8326180655
 20
5.0567436635
 30
0.0
 10
11.8089976266
 20
5.0393867965
 30
0.0
 10
11.7844676512
 20
5.0233116617
 30
0.0
 10
11.7643324853
 20
5.0112411823
 30
0.0
 10
11.7438494387
 20
4.9996936795
 30
0.0
 10
11.7176411369
 20
4.9862697
 30
0.0
 10
11.6853307309
 20
4.9718302101
 30
0.0
 10
11.6522244264
 20
4.9590874284
 30
0.0
 10
11.6184060287
 20
4.948073648
 30
0.0
 10
11.5839611578
 20
4.9388165461
 30
0.0
 10
11.5548282146
 20
4.9325900794
 30
0.0
 10
11.5313001465
 20
4.9285067855
 30
0.0
 10
11.5075975492
 20
4.9250189828
 30
0.0
 10
11.477737651
 20
4.9217945422
 30
0.0
 10
11.4416647216
 20
4.9197509446
 30
0.0
 10
11.405410544
 20
4.9195349133
 30
0.0
 10
11.3812203325
 20
4.9206076606
 30
0.0
 10
11.3691275132
 20
4.9214463005
 30
0.0
  0
SPLINE
  5
3C0
100
AcDbEntity
  8
0
100
AcDbSpline
 62
7
  6
CONTINUOUS
 70
0
 71
3
 72
67
 73
63
 74
0
 42
0.0000001
 43
0.0000001
 44
0.0000000001
 40
0.0
 40
0.0
 40
0.0
 40
0.0
 40
0.015545255
 40
0.0311349806
 40
0.0467671964
 40
0.0624417766
 40
0.0781576032
 40
0.0939133291
 40
0.1097075489
 40
0.1255386048
 40
0.1414046609
 40
0.1573037218
 40
0.173233624
 40
0.1891920581
 40
0.2051765798
 40
0.2211846185
 40
0.2372134949
 40
0.253260432
 40
0.2853922796
 40
0.3175611975
 40
0.3497428257
 40
0.3819125698
 40
0.3979876875
 40
0.4140507397
 40
0.4300987899
 40
0.4461289711
 40
0.4621384982
 40
0.4781246852
 40
0.4940849546
 40
0.510016851
 40
0.5259180577
 40
0.5417864031
 40
0.5576198722
 40
0.5734166256
 40
0.5891750024
 40
0.6048935286
 40
0.6205709346
 40
0.6362061576
 40
0.6517983486
 40
0.6673468835
 40
0.6828513642
 40
0.698311623
 40
0.7137277338
 40
0.7291000052
 40
0.7444289808
 40
0.7597154504
 40
0.7749604379
 40
0.7901651965
 40
0.8053312139
 40
0.8204601998
 40
0.8355540758
 40
0.8506149728
 40
0.8656452151
 40
0.8806473078
 40
0.8956239329
 40
0.9105779151
 40
0.9255122163
 40
0.9404299785
 40
0.9553342943
 40
0.9702283807
 40
0.9851162985
 40
1.0
 40
1.0
 40
1.0
 40
1.0
 10
10.2529426447
 20
9.2168423604
 30
0.0
 10
10.2656507132
 20
9.2159610528
 30
0.0
 10
10.2910734277
 20
9.2137319647
 30
0.0
 10
10.3291121821
 20
9.2090045666
 30
0.0
 10
10.3670611572
 20
9.2028937619
 30
0.0
 10
10.4048680441
 20
9.1954074508
 30
0.0
 10
10.44248255
 20
9.1865550625
 30
0.0
 10
10.4798538184
 20
9.1763479265
 30
0.0
 10
10.5169313762
 20
9.1647991979
 30
0.0
 10
10.5536652012
 20
9.1519239989
 30
0.0
 10
10.590005663
 20
9.1377392351
 30
0.0
 10
10.6259035878
 20
9.122263496
 30
0.0
 10
10.6613104559
 20
9.1055173258
 30
0.0
 10
10.6961783747
 20
9.0875229946
 30
0.0
 10
10.7304601387
 20
9.0683043299
 30
0.0
 10
10.7641092567
 20
9.0478871416
 30
0.0
 10
10.797080675
 20
9.0262984008
 30
0.0
 10
10.840092987
 20
8.9959804608
 30
0.0
 10
10.8919363082
 20
8.9553028178
 30
0.0
 10
10.9507117526
 20
8.9023324411
 30
0.0
 10
11.0057689608
 20
8.8454639557
 30
0.0
 10
11.0483187034
 20
8.7950615171
 30
0.0
 10
11.0802138814
 20
8.7531022311
 30
0.0
 10
11.103027047
 20
8.7208630757
 30
0.0
 10
11.1247042037
 20
8.6878939702
 30
0.0
 10
11.1452165904
 20
8.6542390239
 30
0.0
 10
11.1645366127
 20
8.6199438913
 30
0.0
 10
11.1826385624
 20
8.5850549958
 30
0.0
 10
11.1994982254
 20
8.5496195162
 30
0.0
 10
11.2150931503
 20
8.5136853801
 30
0.0
 10
11.2294027607
 20
8.4773012323
 30
0.0
 10
11.2424080971
 20
8.4405162411
 30
0.0
 10
11.2540920144
 20
8.4033801105
 30
0.0
 10
11.264439343
 20
8.3659430376
 30
0.0
 10
11.2734365946
 20
8.3282555421
 30
0.0
 10
11.2810721286
 20
8.2903684542
 30
0.0
 10
11.2873363493
 20
8.2523328643
 30
0.0
 10
11.2922213799
 20
8.2141999783
 30
0.0
 10
11.2957211999
 20
8.1760210863
 30
0.0
 10
11.2978318682
 20
8.1378474997
 30
0.0
 10
11.298551174
 20
8.0997304405
 30
0.0
 10
11.297878744
 20
8.0617209939
 30
0.0
 10
11.2958162831
 20
8.0238700245
 30
0.0
 10
11.2923672135
 20
7.9862281063
 30
0.0
 10
11.287536747
 20
7.9488454695
 30
0.0
 10
11.2813321409
 20
7.9117718898
 30
0.0
 10
11.2737623281
 20
7.8750566591
 30
0.0
 10
11.264837962
 20
7.8387485351
 30
0.0
 10
11.2545716785
 20
7.8028956024
 30
0.0
 10
11.2429777229
 20
7.767545285
 30
0.0
 10
11.2300719761
 20
7.7327443008
 30
0.0
 10
11.2158722106
 20
7.698538496
 30
0.0
 10
11.200397729
 20
7.6649729024
 30
0.0
 10
11.1836693707
 20
7.6320916926
 30
0.0
 10
11.1657097556
 20
7.5999379978
 30
0.0
 10
11.146542953
 20
7.568553996
 30
0.0
 10
11.1261944544
 20
7.5379808484
 30
0.0
 10
11.1046913918
 20
7.508258601
 30
0.0
 10
11.0820624165
 20
7.4794262422
 30
0.0
 10
11.0583369617
 20
7.4515210643
 30
0.0
 10
11.0335471191
 20
7.4245807485
 30
0.0
 10
11.0163307717
 20
7.4072849649
 30
0.0
 10
11.0075583976
 20
7.3988115017
 30
0.0
  0
SPLINE
  5
3C1
100
AcDbEntity
  8
0
100
AcDbSpline
 62
7
  6
CONTINUOUS
 70
0
 71
3
 72
25
 73
21
 74
0
 42
0.0000001
 43
0.0000001
 44
0.0000000001
 40
0.0
 40
0.0
 40
0.0
 40
0.0
 40
0.0615283513
 40
0.1230835013
 40
0.1846907185
 40
0.2463760353
 40
0.3081637536
 40
0.370077345
 40
0.432138711
 40
0.4943681182
 40
0.5567839332
 40
0.6194024506
 40
0.6822377528
 40
0.7137430707
 40
0.7453067562
 40
0.8086083873
 40
0.8721544223
 40
0.9040228859
 40
0.9359546725
 40
1.0
 40
1.0
 40
1.0
 40
1.0
 10
9.5069057159
 20
8.9524013861
 30
0.0
 10
9.5189308081
 20
8.9640167339
 30
0.0
 10
9.543616772
 20
8.9866097524
 30
0.0
 10
9.5824240091
 20
9.0184666443
 30
0.0
 10
9.6229218292
 20
9.0482192861
 30
0.0
 10
9.66500891
 20
9.0757924227
 30
0.0
 10
9.708582085
 20
9.1011175769
 30
0.0
 10
9.7535337673
 20
9.1241311662
 30
0.0
 10
9.7997531068
 20
9.1447751741
 30
0.0
 10
9.84712581
 20
9.1629971984
 30
0.0
 10
9.8955348348
 20
9.1787506699
 30
0.0
 10
9.9448592763
 20
9.1919948061
 30
0.0
 10
9.9865893317
 20
9.2009041827
 30
0.0
 10
10.0203012034
 20
9.2067481554
 30
0.0
 10
10.054277749
 20
9.211741254
 30
0.0
 10
10.097093998
 20
9.2163576446
 30
0.0
 10
10.1401720613
 20
9.2187921746
 30
0.0
 10
10.1747726875
 20
9.2194341979
 30
0.0
 10
10.2095134631
 20
9.2192033109
 30
0.0
 10
10.2355815904
 20
9.2180463536
 30
0.0
 10
10.2529426447
 20
9.2168423604
 30
0.0
  0
SPLINE
  5
3C2
100
AcDbEntity
  8
0
100
AcDbSpline
 62
7
  6
CONTINUOUS
 70
0
 71
3
 72
16
 73
12
 74
0
 42
0.0000001
 43
0.0000001
 44
0.0000000001
 40
0.0
 40
0.0
 40
0.0
 40
0.0
 40
0.2350252323
 40
0.3592482443
 40
0.4867302067
 40
0.616186013
 40
0.7460593637
 40
0.810615762
 40
0.8746099663
 40
0.9378149423
 40
1.0
 40
1.0
 40
1.0
 40
1.0
 10
11.2773704458
 20
7.8942950292
 30
0.0
 10
11.2602652327
 20
7.8826803
 30
0.0
 10
11.2336214395
 20
7.8656357784
 30
0.0
 10
11.1964406679
 20
7.8443827399
 30
0.0
 10
11.1667070833
 20
7.8288604873
 30
0.0
 10
11.1358875117
 20
7.8144084061
 30
0.0
 10
11.109534622
 20
7.8035395796
 30
0.0
 10
11.0881921067
 20
7.7957005555
 30
0.0
 10
11.0722020817
 20
7.7903182242
 30
0.0
 10
11.0562646859
 20
7.7854550129
 30
0.0
 10
11.0456210311
 20
7.7825501236
 30
0.0
 10
11.0403215769
 20
7.7811924756
 30
0.0
  0
SPLINE
  5
3C3
100
AcDbEntity
  8
0
100
AcDbSpline
 62
7
  6
CONTINUOUS
 70
0
 71
3
 72
35
 73
31
 74
0
 42
0.0000001
 43
0.0000001
 44
0.0000000001
 40
0.0
 40
0.0
 40
0.0
 40
0.0
 40
0.0153977024
 40
0.0309903011
 40
0.04695542
 40
0.0634590115
 40
0.0806531179
 40
0.0986736798
 40
0.1176410391
 40
0.1376600214
 40
0.1588217013
 40
0.1812040267
 40
0.2048737051
 40
0.2298862716
 40
0.2562879426
 40
0.2841141939
 40
0.3133921144
 40
0.3441374047
 40
0.3763569307
 40
0.4100451943
 40
0.4451853461
 40
0.4817481939
 40
0.5196893784
 40
0.558951022
 40
0.5994591407
 40
0.6411229568
 40
0.7274645629
 40
0.8169373806
 40
0.9082624629
 40
1.0
 40
1.0
 40
1.0
 40
1.0
 10
10.0523267115
 20
7.4260268785
 30
0.0
 10
10.0519833171
 20
7.4252428548
 30
0.0
 10
10.0512000375
 20
7.4237034779
 30
0.0
 10
10.0497553497
 20
7.4215232641
 30
0.0
 10
10.0480391981
 20
7.4194688289
 30
0.0
 10
10.0460530669
 20
7.4175445487
 30
0.0
 10
10.043798059
 20
7.4157543097
 30
0.0
 10
10.0412749715
 20
7.4141024596
 30
0.0
 10
10.0384844091
 20
7.4125937054
 30
0.0
 10
10.0354268908
 20
7.4112332509
 30
0.0
 10
10.0321030263
 20
7.4100268769
 30
0.0
 10
10.0285136759
 20
7.4089808722
 30
0.0
 10
10.0246601317
 20
7.4081020968
 30
0.0
 10
10.0205442488
 20
7.4073978702
 30
0.0
 10
10.0161686844
 20
7.4068759659
 30
0.0
 10
10.0115369858
 20
7.4065445255
 30
0.0
 10
10.0066539038
 20
7.4064119602
 30
0.0
 10
10.0015254492
 20
7.4064868843
 30
0.0
 10
9.9961592456
 20
7.4067779257
 30
0.0
 10
9.9905646328
 20
7.4072936545
 30
0.0
 10
9.9847529258
 20
7.4080422818
 30
0.0
 10
9.9787376384
 20
7.4090316164
 30
0.0
 10
9.9725345872
 20
7.4102686097
 30
0.0
 10
9.9661621487
 20
7.4117592766
 30
0.0
 10
9.9596411938
 20
7.4135083443
 30
0.0
 10
9.9506739163
 20
7.416221182
 30
0.0
 10
9.9392736567
 20
7.4202693701
 30
0.0
 10
9.9256031318
 20
7.4260922013
 30
0.0
 10
9.9120470871
 20
7.4328763915
 30
0.0
 10
9.9032392784
 20
7.4379887031
 30
0.0
 10
9.8989122973
 20
7.4406872651
 30
0.0
  0
SPLINE
  5
3C4
100
AcDbEntity
  8
0
100
AcDbSpline
 62
7
  6
CONTINUOUS
 70
0
 71
3
 72
75
 73
71
 74
0
 42
0.0000001
 43
0.0000001
 44
0.0000000001
 40
0.0
 40
0.0
 40
0.0
 40
0.0
 40
0.015621716
 40
0.0234134808
 40
0.0311917548
 40
0.046707698
 40
0.0621719741
 40
0.0698857163
 40
0.077587098
 40
0.0929526092
 40
0.108272135
 40
0.1235485658
 40
0.1387852287
 40
0.1539858624
 40
0.1691545803
 40
0.1842958303
 40
0.1994143495
 40
0.2145151159
 40
0.229603296
 40
0.2446841907
 40
0.2597631785
 40
0.2748456585
 40
0.2899369924
 40
0.3050424473
 40
0.3201671401
 40
0.3353159831
 40
0.3504936335
 40
0.3657044451
 40
0.3809524252
 40
0.396241195
 40
0.4115739557
 40
0.4269534595
 40
0.4423819858
 40
0.4578613221
 40
0.473392752
 40
0.4889770468
 40
0.5046144633
 40
0.5203047464
 40
0.5360471374
 40
0.5518403855
 40
0.5676827648
 40
0.5835720946
 40
0.5995057629
 40
0.6154807543
 40
0.6314936799
 40
0.6475408108
 40
0.6636181132
 40
0.6797212868
 40
0.6958458032
 40
0.7119869467
 40
0.7281398565
 40
0.7442995687
 40
0.7604610603
 40
0.7766192926
 40
0.7927692555
 40
0.8089060112
 40
0.8250247369
 40
0.8411207679
 40
0.8571896385
 40
0.8652130985
 40
0.8732282066
 40
0.8892303561
 40
0.905193538
 40
0.9211144735
 40
0.9369902483
 40
0.9528184232
 40
0.9685968094
 40
0.9764674147
 40
0.9843252894
 40
1.0
 40
1.0
 40
1.0
 40
1.0
 10
10.2458852786
 20
9.2253868662
 30
0.0
 10
10.2285602326
 20
9.2265883622
 30
0.0
 10
10.2025439224
 20
9.2277560594
 30
0.0
 10
10.1678666313
 20
9.2280311963
 30
0.0
 10
10.1333099952
 20
9.2274526312
 30
0.0
 10
10.090265937
 20
9.2251324572
 30
0.0
 10
10.0474619922
 20
9.2206771951
 30
0.0
 10
10.0134727275
 20
9.2158394805
 30
0.0
 10
9.9797243864
 20
9.2101659237
 30
0.0
 10
9.9379192083
 20
9.2014996038
 30
0.0
 10
9.8884582218
 20
9.1885939033
 30
0.0
 10
9.8398570981
 20
9.1732206408
 30
0.0
 10
9.7922338345
 20
9.1554168574
 30
0.0
 10
9.7457030683
 20
9.1352253568
 30
0.0
 10
9.7003770855
 20
9.112694746
 30
0.0
 10
9.6563652051
 20
9.0878792771
 30
0.0
 10
9.6137736046
 20
9.06083873
 30
0.0
 10
9.5727050359
 20
9.0316382656
 30
0.0
 10
9.5332585807
 20
9.0003482707
 30
0.0
 10
9.4955294065
 20
8.967044187
 30
0.0
 10
9.4596085347
 20
8.9318063288
 30
0.0
 10
9.4255826011
 20
8.8947197012
 30
0.0
 10
9.3935336585
 20
8.8558737759
 30
0.0
 10
9.3635389767
 20
8.8153622725
 30
0.0
 10
9.3356708556
 20
8.7732829287
 30
0.0
 10
9.3099964504
 20
8.729737262
 30
0.0
 10
9.2865776102
 20
8.6848303209
 30
0.0
 10
9.2654707297
 20
8.638670429
 30
0.0
 10
9.2467266154
 20
8.5913689208
 30
0.0
 10
9.2303903448
 20
8.5430398774
 30
0.0
 10
9.2165011791
 20
8.4937998388
 30
0.0
 10
9.2050924723
 20
8.4437675213
 30
0.0
 10
9.1961915937
 20
8.3930635304
 30
0.0
 10
9.1898198656
 20
8.34181007
 30
0.0
 10
9.1859925151
 20
8.2901306478
 30
0.0
 10
9.184718641
 20
8.2381497789
 30
0.0
 10
9.1860011939
 20
8.1859926871
 30
0.0
 10
9.1898369522
 20
8.1337850027
 30
0.0
 10
9.1962165522
 20
8.0816524598
 30
0.0
 10
9.2051245131
 20
8.0297205949
 30
0.0
 10
9.2165392765
 20
7.9781144472
 30
0.0
 10
9.2304332592
 20
7.9269582597
 30
0.0
 10
9.2467729207
 20
7.8763751827
 30
0.0
 10
9.2655188448
 20
7.8264869798
 30
0.0
 10
9.2866258345
 20
7.7774137372
 30
0.0
 10
9.310043003
 20
7.7292735679
 30
0.0
 10
9.3357139156
 20
7.6821823348
 30
0.0
 10
9.3635767256
 20
7.6362533739
 30
0.0
 10
9.3935643227
 20
7.5915972237
 30
0.0
 10
9.4256044936
 20
7.5483213615
 30
0.0
 10
9.4596200953
 20
7.506529946
 30
0.0
 10
9.4955292388
 20
7.466323569
 30
0.0
 10
9.5332454869
 20
7.4277990136
 30
0.0
 10
9.5726780422
 20
7.3910490111
 30
0.0
 10
9.6137320002
 20
7.3561620199
 30
0.0
 10
9.6563085024
 20
7.3232220549
 30
0.0
 10
9.7003052482
 20
7.2923083351
 30
0.0
 10
9.7456157122
 20
7.2634956569
 30
0.0
 10
9.7843993243
 20
7.2412818171
 30
0.0
 10
9.8159738491
 20
7.2246295617
 30
0.0
 10
9.8478605375
 20
7.2087488821
 30
0.0
 10
9.8883295333
 20
7.1903290547
 30
0.0
 10
9.9377787302
 20
7.1705605429
 30
0.0
 10
9.9879710522
 20
7.1531859575
 30
0.0
 10
10.0387852583
 20
7.1382474346
 30
0.0
 10
10.0900983714
 20
7.1257811848
 30
0.0
 10
10.1332097492
 20
7.1174706826
 30
0.0
 10
10.1678231141
 20
7.1120888513
 30
0.0
 10
10.2024415225
 20
7.1075604966
 30
0.0
 10
10.2285014597
 20
7.1051113002
 30
0.0
 10
10.2458852786
 20
7.1039057283
 30
0.0
  0
SPLINE
  5
3C5
100
AcDbEntity
  8
0
100
AcDbSpline
 62
7
  6
CONTINUOUS
 70
0
 71
3
 72
34
 73
30
 74
0
 42
0.0000001
 43
0.0000001
 44
0.0000000001
 40
0.0
 40
0.0
 40
0.0
 40
0.0
 40
0.0981095564
 40
0.1934632659
 40
0.2847388896
 40
0.3709526323
 40
0.411958779
 40
0.4514970927
 40
0.4895405315
 40
0.526078301
 40
0.5611131309
 40
0.5946584371
 40
0.6267375728
 40
0.6573811393
 40
0.6866266322
 40
0.7145174372
 40
0.7411017662
 40
0.7664332589
 40
0.7905700371
 40
0.8135756234
 40
0.8564563021
 40
0.8765076295
 40
0.8957430365
 40
0.9142594173
 40
0.9321622557
 40
0.9495643603
 40
0.9665863315
 40
0.9833547349
 40
1.0
 40
1.0
 40
1.0
 40
1.0
 10
9.9799313692
 20
7.5189456837
 30
0.0
 10
9.9834013632
 20
7.5167815898
 30
0.0
 10
9.990168915
 20
7.5123924532
 30
0.0
 10
9.9998845076
 20
7.5055703788
 30
0.0
 10
10.0089351126
 20
7.4986785502
 30
0.0
 10
10.0159504776
 20
7.4928657009
 30
0.0
 10
10.0211494775
 20
7.4882511208
 30
0.0
 10
10.02476908
 20
7.4848839679
 30
0.0
 10
10.0281718486
 20
7.4815592634
 30
0.0
 10
10.0313568632
 20
7.4782824247
 30
0.0
 10
10.0343243514
 20
7.4750578471
 30
0.0
 10
10.0370755245
 20
7.4718890949
 30
0.0
 10
10.0396122071
 20
7.4687789702
 30
0.0
 10
10.0419367791
 20
7.4657297182
 30
0.0
 10
10.0440518526
 20
7.4627430385
 30
0.0
 10
10.0459602779
 20
7.4598203017
 30
0.0
 10
10.0476649452
 20
7.4569625072
 30
0.0
 10
10.04916865
 20
7.4541705378
 30
0.0
 10
10.050474361
 20
7.4514447984
 30
0.0
 10
10.0519204728
 20
7.4479811639
 30
0.0
 10
10.0530320104
 20
7.4445649282
 30
0.0
 10
10.0537648257
 20
7.4412169383
 30
0.0
 10
10.0541150431
 20
7.4388309297
 30
0.0
 10
10.0542795564
 20
7.4365146113
 30
0.0
 10
10.054259806
 20
7.4342687312
 30
0.0
 10
10.0540567226
 20
7.4320943407
 30
0.0
 10
10.0536712292
 20
7.429992624
 30
0.0
 10
10.0531043128
 20
7.4279652322
 30
0.0
 10
10.0526050719
 20
7.4266624194
 30
0.0
 10
10.0523267115
 20
7.4260268785
 30
0.0
  0
SPLINE
  5
3C6
100
AcDbEntity
  8
0
100
AcDbSpline
 62
7
  6
CONTINUOUS
 70
0
 71
3
 72
37
 73
33
 74
0
 42
0.0000001
 43
0.0000001
 44
0.0000000001
 40
0.0
 40
0.0
 40
0.0
 40
0.0
 40
0.0958321372
 40
0.1891019121
 40
0.2792425465
 40
0.3657115305
 40
0.4074101378
 40
0.4480031117
 40
0.4874331589
 40
0.5256456456
 40
0.5625894675
 40
0.5982165282
 40
0.6324830688
 40
0.665348975
 40
0.6967793974
 40
0.7267441687
 40
0.7552196034
 40
0.7821883904
 40
0.8076415214
 40
0.8315791003
 40
0.8540125631
 40
0.8749669375
 40
0.894483817
 40
0.9126256757
 40
0.9294802133
 40
0.9451667887
 40
0.9598415117
 40
0.9737025915
 40
0.9804060739
 40
0.98699956
 40
0.9935185817
 40
1.0
 40
1.0
 40
1.0
 40
1.0
 10
13.6760217891
 20
11.6426801602
 30
0.0
 10
13.6833406945
 20
11.6421725924
 30
0.0
 10
13.6977722523
 20
11.6410100559
 30
0.0
 10
13.7190363847
 20
11.6387909448
 30
0.0
 10
13.7395275622
 20
11.6361315763
 30
0.0
 10
13.756039573
 20
11.633533281
 30
0.0
 10
13.7687541316
 20
11.6312384167
 30
0.0
 10
13.7778978195
 20
11.6294399381
 30
0.0
 10
13.7867495826
 20
11.627546429
 30
0.0
 10
13.7952946615
 20
11.6255609876
 30
0.0
 10
13.8035188043
 20
11.6234870373
 30
0.0
 10
13.8114083006
 20
11.621327971
 30
0.0
 10
13.8189500243
 20
11.6190875232
 30
0.0
 10
13.8261314263
 20
11.6167693457
 30
0.0
 10
13.8329406061
 20
11.6143774423
 30
0.0
 10
13.8393662764
 20
11.6119157069
 30
0.0
 10
13.8453978586
 20
11.609388349
 30
0.0
 10
13.8510254301
 20
11.6067994746
 30
0.0
 10
13.856239826
 20
11.6041534097
 30
0.0
 10
13.8610325924
 20
11.6014544019
 30
0.0
 10
13.8653960486
 20
11.5987067496
 30
0.0
 10
13.8693232837
 20
11.5959146819
 30
0.0
 10
13.8728080781
 20
11.593082223
 30
0.0
 10
13.8758449644
 20
11.5902132635
 30
0.0
 10
13.8784287999
 20
11.5873112506
 30
0.0
 10
13.8805548835
 20
11.5843793251
 30
0.0
 10
13.8822178859
 20
11.581421026
 30
0.0
 10
13.8832245581
 20
11.5789078135
 30
0.0
 10
13.8837814573
 20
11.5769029589
 30
0.0
 10
13.8840768559
 20
11.5754134062
 30
0.0
 10
13.8842542088
 20
11.5739224519
 30
0.0
 10
13.8842936905
 20
11.5729267499
 30
0.0
 10
13.8842936951
 20
11.5724305612
 30
0.0
  0
SPLINE
  5
3C7
100
AcDbEntity
  8
0
100
AcDbSpline
 62
7
  6
CONTINUOUS
 70
0
 71
3
 72
49
 73
45
 74
0
 42
0.0000001
 43
0.0000001
 44
0.0000000001
 40
0.0
 40
0.0
 40
0.0
 40
0.0
 40
0.0149632871
 40
0.0299431293
 40
0.0449416751
 40
0.0599609775
 40
0.075002993
 40
0.0900695646
 40
0.1051624177
 40
0.1202831538
 40
0.1354332365
 40
0.1506139954
 40
0.1658266116
 40
0.1810721179
 40
0.1963513961
 40
0.2116651667
 40
0.2270139977
 40
0.2423982924
 40
0.2578182948
 40
0.2732740904
 40
0.2887655995
 40
0.3042925901
 40
0.3354470913
 40
0.3667368919
 40
0.3981546952
 40
0.4296910207
 40
0.461334389
 40
0.4930715346
 40
0.5248876408
 40
0.5567665947
 40
0.5886912589
 40
0.620643755
 40
0.6526057543
 40
0.6845587747
 40
0.7164844788
 40
0.7483649711
 40
0.7801830899
 40
0.8119226896
 40
0.8435689126
 40
0.8751084465
 40
0.9065297455
 40
0.9378233426
 40
0.9689816044
 40
1.0
 40
1.0
 40
1.0
 40
1.0
 10
9.7490859862
 20
9.1212637428
 30
0.0
 10
9.7429689624
 20
9.1121251719
 30
0.0
 10
9.7310531182
 20
9.0936179878
 30
0.0
 10
9.7141681418
 20
9.065223784
 30
0.0
 10
9.6982809542
 20
9.0362120759
 30
0.0
 10
9.6834094313
 20
9.0066158796
 30
0.0
 10
9.6695701865
 20
8.9764681299
 30
0.0
 10
9.6567787562
 20
8.9458025619
 30
0.0
 10
9.6450492624
 20
8.9146535258
 30
0.0
 10
9.6343950275
 20
8.8830557792
 30
0.0
 10
9.624827749
 20
8.8510447265
 30
0.0
 10
9.6163582119
 20
8.8186561288
 30
0.0
 10
9.6089958946
 20
8.7859262021
 30
0.0
 10
9.6027488624
 20
8.7528915712
 30
0.0
 10
9.5976243052
 20
8.719589132
 30
0.0
 10
9.593627716
 20
8.6860561526
 30
0.0
 10
9.5907636769
 20
8.6523300998
 30
0.0
 10
9.5890353664
 20
8.618448691
 30
0.0
 10
9.5884445773
 20
8.5844497685
 30
0.0
 10
9.5889921476
 20
8.5503714607
 30
0.0
 10
9.5906772983
 20
8.5162513883
 30
0.0
 10
9.5944422001
 20
8.4707074294
 30
0.0
 10
9.601990157
 20
8.4138582747
 30
0.0
 10
9.6155268673
 20
8.3461695304
 30
0.0
 10
9.6334925959
 20
8.2792278025
 30
0.0
 10
9.6558065676
 20
8.2133339261
 30
0.0
 10
9.682368823
 20
8.1487814615
 30
0.0
 10
9.713060471
 20
8.0858586332
 30
0.0
 10
9.7477442822
 20
8.024846197
 30
0.0
 10
9.786265232
 20
7.9660164059
 30
0.0
 10
9.8284512177
 20
7.9096317474
 30
0.0
 10
9.8741138531
 20
7.8559438227
 30
0.0
 10
9.9230492921
 20
7.8051922255
 30
0.0
 10
9.9750391379
 20
7.7576034946
 30
0.0
 10
10.0298513793
 20
7.713390082
 30
0.0
 10
10.0872414135
 20
7.6727493944
 30
0.0
 10
10.1469531638
 20
7.6358629633
 30
0.0
 10
10.2087202079
 20
7.6028956315
 30
0.0
 10
10.2722669227
 20
7.5739948272
 30
0.0
 10
10.3373098092
 20
7.5492899021
 30
0.0
 10
10.4035583063
 20
7.5288914571
 30
0.0
 10
10.470717641
 20
7.5128910406
 30
0.0
 10
10.5384841317
 20
7.5013605992
 30
0.0
 10
10.5839784278
 20
7.4966771259
 30
0.0
 10
10.6067199802
 20
7.4950999939
 30
0.0
  0
SPLINE
  5
3C8
100
AcDbEntity
  8
0
100
AcDbSpline
 62
7
  6
CONTINUOUS
 70
0
 71
3
 72
37
 73
33
 74
0
 42
0.0000001
 43
0.0000001
 44
0.0000000001
 40
0.0
 40
0.0
 40
0.0
 40
0.0
 40
0.0958321372
 40
0.1891019121
 40
0.2792425465
 40
0.3657115305
 40
0.4074101378
 40
0.4480031117
 40
0.4874331589
 40
0.5256456456
 40
0.5625894675
 40
0.5982165282
 40
0.6324830688
 40
0.665348975
 40
0.6967793974
 40
0.7267441687
 40
0.7552196034
 40
0.7821883904
 40
0.8076415214
 40
0.8315791003
 40
0.8540125631
 40
0.8749669375
 40
0.894483817
 40
0.9126256757
 40
0.9294802133
 40
0.9451667887
 40
0.9598415117
 40
0.9737025915
 40
0.9804060739
 40
0.98699956
 40
0.9935185817
 40
1.0
 40
1.0
 40
1.0
 40
1.0
 10
9.0760441867
 20
10.823442505
 30
0.0
 10
9.0833630921
 20
10.8229349372
 30
0.0
 10
9.0977946499
 20
10.8217724006
 30
0.0
 10
9.1190587824
 20
10.8195532895
 30
0.0
 10
9.1395499599
 20
10.8168939211
 30
0.0
 10
9.1560619707
 20
10.8142956257
 30
0.0
 10
9.1687765292
 20
10.8120007614
 30
0.0
 10
9.1779202172
 20
10.8102022828
 30
0.0
 10
9.1867719803
 20
10.8083087737
 30
0.0
 10
9.1953170591
 20
10.8063233323
 30
0.0
 10
9.2035412019
 20
10.804249382
 30
0.0
 10
9.2114306983
 20
10.8020903157
 30
0.0
 10
9.2189724219
 20
10.7998498679
 30
0.0
 10
9.226153824
 20
10.7975316904
 30
0.0
 10
9.2329630038
 20
10.7951397871
 30
0.0
 10
9.2393886741
 20
10.7926780516
 30
0.0
 10
9.2454202562
 20
10.7901506937
 30
0.0
 10
9.2510478278
 20
10.7875618194
 30
0.0
 10
9.2562622237
 20
10.7849157544
 30
0.0
 10
9.26105499
 20
10.7822167466
 30
0.0
 10
9.2654184463
 20
10.7794690943
 30
0.0
 10
9.2693456814
 20
10.7766770267
 30
0.0
 10
9.2728304758
 20
10.7738445678
 30
0.0
 10
9.275867362
 20
10.7709756082
 30
0.0
 10
9.2784511976
 20
10.7680735953
 30
0.0
 10
9.2805772811
 20
10.7651416698
 30
0.0
 10
9.2822402835
 20
10.7621833707
 30
0.0
 10
9.2832469557
 20
10.7596701582
 30
0.0
 10
9.283803855
 20
10.7576653036
 30
0.0
 10
9.2840992535
 20
10.7561757509
 30
0.0
 10
9.2842766065
 20
10.7546847966
 30
0.0
 10
9.2843160881
 20
10.7536890946
 30
0.0
 10
9.2843160927
 20
10.7531929059
 30
0.0
  0
SPLINE
  5
3C9
100
AcDbEntity
  8
0
100
AcDbSpline
 62
7
  6
CONTINUOUS
 70
0
 71
3
 72
45
 73
41
 74
0
 42
0.0000001
 43
0.0000001
 44
0.0000000001
 40
0.0
 40
0.0
 40
0.0
 40
0.0
 40
0.0123469404
 40
0.0243143819
 40
0.0359572031
 40
0.0473297813
 40
0.0584861782
 40
0.0694771615
 40
0.0803511445
 40
0.0911534995
 40
0.1019251523
 40
0.1127041659
 40
0.1235252825
 40
0.1344185864
 40
0.1454108578
 40
0.1565264284
 40
0.1791989858
 40
0.2025753081
 40
0.2267497521
 40
0.2517878688
 40
0.2777333934
 40
0.3046140066
 40
0.3324470685
 40
0.3612398583
 40
0.3909980649
 40
0.4217197412
 40
0.4534053842
 40
0.4860528195
 40
0.519659328
 40
0.5542265458
 40
0.5897536787
 40
0.6262444135
 40
0.6637053071
 40
0.7021424473
 40
0.7415687859
 40
0.781998485
 40
0.8234487383
 40
0.8659451541
 40
0.9095139388
 40
1.0
 40
1.0
 40
1.0
 40
1.0
 10
10.815893509
 20
7.8101594479
 30
0.0
 10
10.8150749763
 20
7.8112825424
 30
0.0
 10
10.813536643
 20
7.8135491052
 30
0.0
 10
10.8115014891
 20
7.8170510956
 30
0.0
 10
10.8097678395
 20
7.8205902012
 30
0.0
 10
10.8083261601
 20
7.8241595966
 30
0.0
 10
10.8071671039
 20
7.8277534326
 30
0.0
 10
10.8062808204
 20
7.8313661945
 30
0.0
 10
10.8056582431
 20
7.8349930612
 30
0.0
 10
10.805290627
 20
7.838629595
 30
0.0
 10
10.8051689118
 20
7.8422717638
 30
0.0
 10
10.8052848549
 20
7.8459160567
 30
0.0
 10
10.8056305632
 20
7.8495593362
 30
0.0
 10
10.8061979703
 20
7.8531988079
 30
0.0
 10
10.8069795985
 20
7.8568321559
 30
0.0
 10
10.8083068172
 20
7.8616967407
 30
0.0
 10
10.8104814538
 20
7.8677643805
 30
0.0
 10
10.8138239752
 20
7.8749373405
 30
0.0
 10
10.817870389
 20
7.8820446101
 30
0.0
 10
10.8225792302
 20
7.8890802115
 30
0.0
 10
10.8279133273
 20
7.8960408266
 30
0.0
 10
10.8338395337
 20
7.9029242852
 30
0.0
 10
10.8403283082
 20
7.9097292828
 30
0.0
 10
10.8473528219
 20
7.9164562838
 30
0.0
 10
10.8548899441
 20
7.9231052372
 30
0.0
 10
10.8629181854
 20
7.9296784476
 30
0.0
 10
10.8714195143
 20
7.9361772752
 30
0.0
 10
10.8803775967
 20
7.9426044701
 30
0.0
 10
10.8897782982
 20
7.9489633312
 30
0.0
 10
10.8996099705
 20
7.9552565582
 30
0.0
 10
10.9098623289
 20
7.9614884553
 30
0.0
 10
10.9205273956
 20
7.9676627765
 30
0.0
 10
10.9315989737
 20
7.9737835093
 30
0.0
 10
10.9430723465
 20
7.9798557355
 30
0.0
 10
10.9549449699
 20
7.9858836865
 30
0.0
 10
10.9672158534
 20
7.9918724735
 30
0.0
 10
10.9798858958
 20
7.9978276804
 30
0.0
 10
10.9929582307
 20
8.0037543735
 30
0.0
 10
11.0111608846
 20
8.0117276662
 30
0.0
 10
11.0250913191
 20
8.0175297337
 30
0.0
 10
11.0345329062
 20
8.0213489008
 30
0.0
  0
SPLINE
  5
3CA
100
AcDbEntity
  8
0
100
AcDbSpline
 62
7
  6
CONTINUOUS
 70
0
 71
3
 72
26
 73
22
 74
0
 42
0.0000001
 43
0.0000001
 44
0.0000000001
 40
0.0
 40
0.0
 40
0.0
 40
0.0
 40
0.0616472087
 40
0.0924807976
 40
0.1233230054
 40
0.1850390322
 40
0.2468231106
 40
0.2777501846
 40
0.3087022546
 40
0.3706859579
 40
0.4327990268
 40
0.4950593387
 40
0.5574831658
 40
0.6200850367
 40
0.6828775384
 40
0.7143512564
 40
0.7458764573
 40
0.8090800689
 40
0.8724988264
 40
0.9361396051
 40
1.0
 40
1.0
 40
1.0
 40
1.0
 10
8.4371226194
 20
10.3056840346
 30
0.0
 10
8.445539189
 20
10.3138138516
 30
0.0
 10
8.4584969146
 20
10.3256735974
 30
0.0
 10
8.4763897246
 20
10.3407707861
 30
0.0
 10
8.4946921007
 20
10.3553906355
 30
0.0
 10
8.5183125927
 20
10.3727476717
 30
0.0
 10
8.5428426344
 20
10.388822966
 30
0.0
 10
8.5629778607
 20
10.4008935665
 30
0.0
 10
8.5834609724
 20
10.412441186
 30
0.0
 10
8.6096693642
 20
10.4258653028
 30
0.0
 10
8.6419798907
 20
10.440304943
 30
0.0
 10
8.6750863272
 20
10.4530478597
 30
0.0
 10
8.7089048675
 20
10.4640617592
 30
0.0
 10
8.7433498899
 20
10.4733189637
 30
0.0
 10
8.7724829659
 20
10.4795455016
 30
0.0
 10
8.7960111436
 20
10.4836288439
 30
0.0
 10
8.8197138527
 20
10.4871166892
 30
0.0
 10
8.8495738941
 20
10.4903411719
 30
0.0
 10
8.8856469991
 20
10.4923848022
 30
0.0
 10
8.9219013549
 20
10.4926008481
 30
0.0
 10
8.9460916859
 20
10.4915280985
 30
0.0
 10
8.9581845648
 20
10.4906894545
 30
0.0
  0
SPLINE
  5
3CB
100
AcDbEntity
  8
0
100
AcDbSpline
 62
7
  6
CONTINUOUS
 70
0
 71
3
 72
26
 73
22
 74
0
 42
0.0000001
 43
0.0000001
 44
0.0000000001
 40
0.0
 40
0.0
 40
0.0
 40
0.0
 40
0.0616472054
 40
0.0924807933
 40
0.1233230004
 40
0.1850390268
 40
0.2468231059
 40
0.2777501805
 40
0.3087022513
 40
0.3706859567
 40
0.4327990279
 40
0.4950593422
 40
0.5574831714
 40
0.6200850439
 40
0.6828775467
 40
0.714351265
 40
0.7458764659
 40
0.8090800769
 40
0.8724988328
 40
0.9361396088
 40
1.0
 40
1.0
 40
1.0
 40
1.0
 10
7.708808443
 20
9.6021865203
 30
0.0
 10
7.7172250058
 20
9.6103162615
 30
0.0
 10
7.7301827164
 20
9.6221758955
 30
0.0
 10
7.7480754976
 20
9.6372729398
 30
0.0
 10
7.7663778394
 20
9.6518926485
 30
0.0
 10
7.7899982783
 20
9.6692495155
 30
0.0
 10
7.8145282537
 20
9.6853246503
 30
0.0
 10
7.8346634196
 20
9.6973951297
 30
0.0
 10
7.8551464662
 20
9.7089426325
 30
0.0
 10
7.881354768
 20
9.7223666119
 30
0.0
 10
7.913665174
 20
9.7368061018
 30
0.0
 10
7.9467714785
 20
9.7495488836
 30
0.0
 10
7.9805898763
 20
9.760562664
 30
0.0
 10
8.0150347471
 20
9.7698197658
 30
0.0
 10
8.0441676903
 20
9.7760462325
 30
0.0
 10
8.0676957584
 20
9.7801295265
 30
0.0
 10
8.0913983557
 20
9.7836173292
 30
0.0
 10
8.1212582539
 20
9.7868417697
 30
0.0
 10
8.1573311833
 20
9.7888853674
 30
0.0
 10
8.1935853609
 20
9.7891013987
 30
0.0
 10
8.2177755724
 20
9.7880286514
 30
0.0
 10
8.2298683917
 20
9.7871900115
 30
0.0
  0
SPLINE
  5
3CC
100
AcDbEntity
  8
0
100
AcDbSpline
 62
7
  6
CONTINUOUS
 70
0
 71
3
 72
26
 73
22
 74
0
 42
0.0000001
 43
0.0000001
 44
0.0000000001
 40
0.0
 40
0.0
 40
0.0
 40
0.0
 40
0.0616472487
 40
0.1233175237
 40
0.1850335947
 40
0.2468177207
 40
0.308691404
 40
0.370675155
 40
0.4327882706
 40
0.4950486303
 40
0.5574725121
 40
0.6200744238
 40
0.6514488032
 40
0.6828722578
 40
0.7143460212
 40
0.745871221
 40
0.8090747815
 40
0.8724939711
 40
0.9042883305
 40
0.9361389869
 40
1.0
 40
1.0
 40
1.0
 40
1.0
 10
11.0075583835
 20
7.3988115164
 30
0.0
 10
10.9954385735
 20
7.387104648
 30
0.0
 10
10.9705593625
 20
7.36433389
 30
0.0
 10
10.9314512723
 20
7.3322261983
 30
0.0
 10
10.8906449359
 20
7.3022407936
 30
0.0
 10
10.8482445926
 20
7.2744545089
 30
0.0
 10
10.8043567328
 20
7.2489369481
 30
0.0
 10
10.7590920456
 20
7.2257524244
 30
0.0
 10
10.7125646334
 20
7.2049592509
 30
0.0
 10
10.6648915088
 20
7.1866096686
 30
0.0
 10
10.6161936625
 20
7.1707499428
 30
0.0
 10
10.5748880779
 20
7.1596492161
 30
0.0
 10
10.5414616907
 20
7.1520484639
 30
0.0
 10
10.5161925447
 20
7.1469873835
 30
0.0
 10
10.4907605522
 20
7.1425734884
 30
0.0
 10
10.4566289318
 20
7.1375512353
 30
0.0
 10
10.4136309084
 20
7.1329078724
 30
0.0
 10
10.3703791736
 20
7.130457743
 30
0.0
 10
10.3356503733
 20
7.1298100079
 30
0.0
 10
10.3007962405
 20
7.1300391891
 30
0.0
 10
10.2746458735
 20
7.1311988374
 30
0.0
 10
10.2572320568
 20
7.1324064897
 30
0.0
  0
SPLINE
  5
3CD
100
AcDbEntity
  8
0
100
AcDbSpline
 62
7
  6
CONTINUOUS
 70
0
 71
3
 72
23
 73
19
 74
0
 42
0.0000001
 43
0.0000001
 44
0.0000000001
 40
0.0
 40
0.0
 40
0.0
 40
0.0
 40
0.0616213622
 40
0.1233265961
 40
0.1851247141
 40
0.2470242303
 40
0.3090331208
 40
0.3711588027
 40
0.4334080656
 40
0.49578708
 40
0.5583013488
 40
0.6209556095
 40
0.6837540418
 40
0.7467001495
 40
0.8097958941
 40
0.8730435661
 40
0.9364470172
 40
1.0
 40
1.0
 40
1.0
 40
1.0
 10
11.1591303036
 20
7.5899416413
 30
0.0
 10
11.1488360871
 20
7.5842295088
 30
0.0
 10
11.1280196106
 20
7.5731784168
 30
0.0
 10
11.0961821257
 20
7.5577567222
 30
0.0
 10
11.0637489047
 20
7.5434971248
 30
0.0
 10
11.0307599291
 20
7.5304173998
 30
0.0
 10
10.9972552724
 20
7.5185331738
 30
0.0
 10
10.9632756935
 20
7.5078590628
 30
0.0
 10
10.9288625493
 20
7.4984079937
 30
0.0
 10
10.89405774
 20
7.4901913411
 30
0.0
 10
10.8589035797
 20
7.4832192797
 30
0.0
 10
10.8234428753
 20
7.4775000812
 30
0.0
 10
10.7877187247
 20
7.4730407375
 30
0.0
 10
10.7517746528
 20
7.4698467962
 30
0.0
 10
10.7156544727
 20
7.467921827
 30
0.0
 10
10.6794014773
 20
7.4672683629
 30
0.0
 10
10.643061017
 20
7.4678872859
 30
0.0
 10
10.6188327479
 20
7.4691458976
 30
0.0
 10
10.6067199802
 20
7.4699859209
 30
0.0
  0
SPLINE
  5
3CE
100
AcDbEntity
  8
0
100
AcDbSpline
 62
7
  6
CONTINUOUS
 70
0
 71
3
 72
42
 73
38
 74
0
 42
0.0000001
 43
0.0000001
 44
0.0000000001
 40
0.0
 40
0.0
 40
0.0
 40
0.0
 40
0.0151898649
 40
0.0304072888
 40
0.0456525174
 40
0.0609257176
 40
0.0915536402
 40
0.1222935251
 40
0.1377063513
 40
0.1531465093
 40
0.1841046723
 40
0.2151667656
 40
0.2463278078
 40
0.2775817631
 40
0.3089216145
 40
0.3403394451
 40
0.3718265274
 40
0.4033734189
 40
0.4349700629
 40
0.4666058941
 40
0.4982699494
 40
0.5299509792
 40
0.5616375629
 40
0.5933182235
 40
0.624981544
 40
0.6566162827
 40
0.6882114877
 40
0.7197566086
 40
0.7512416066
 40
0.7826570606
 40
0.8139942656
 40
0.8452453405
 40
0.8764032694
 40
0.9074621423
 40
0.9384167552
 40
0.9692638679
 40
1.0
 40
1.0
 40
1.0
 40
1.0
 10
10.3013240301
 20
9.2122062404
 30
0.0
 10
10.3003924684
 20
9.2046962218
 30
0.0
 10
10.2987299526
 20
9.1896366696
 30
0.0
 10
10.2968410648
 20
9.1669686473
 30
0.0
 10
10.2955558528
 20
9.1442165126
 30
0.0
 10
10.2946476808
 20
9.1137640133
 30
0.0
 10
10.2950294748
 20
9.0755644447
 30
0.0
 10
10.2974253678
 20
9.0373689138
 30
0.0
 10
10.3005443498
 20
9.0068392784
 30
0.0
 10
10.3044707844
 20
8.9762933528
 30
0.0
 10
10.3108809646
 20
8.9382197689
 30
0.0
 10
10.3209408683
 20
8.8928796371
 30
0.0
 10
10.3333473807
 20
8.8479713152
 30
0.0
 10
10.3480655804
 20
8.8036211804
 30
0.0
 10
10.3650542345
 20
8.7599530373
 30
0.0
 10
10.3842657375
 20
8.7170890449
 30
0.0
 10
10.4056462925
 20
8.6751490358
 30
0.0
 10
10.4291360482
 20
8.6342502754
 30
0.0
 10
10.4546692708
 20
8.5945071131
 30
0.0
 10
10.4821745172
 20
8.5560306648
 30
0.0
 10
10.5115748389
 20
8.5189285032
 30
0.0
 10
10.5427880018
 20
8.483304363
 30
0.0
 10
10.5757267137
 20
8.4492578518
 30
0.0
 10
10.6102988676
 20
8.4168841737
 30
0.0
 10
10.6464077973
 20
8.3862738645
 30
0.0
 10
10.683952546
 20
8.3575125405
 30
0.0
 10
10.7228281467
 20
8.3306806597
 30
0.0
 10
10.7629259141
 20
8.3058532993
 30
0.0
 10
10.8041337437
 20
8.2830999407
 30
0.0
 10
10.8463364206
 20
8.2624842736
 30
0.0
 10
10.889415951
 20
8.2440640148
 30
0.0
 10
10.9332518672
 20
8.2278907863
 30
0.0
 10
10.9777216469
 20
8.2140098611
 30
0.0
 10
11.0227007407
 20
8.2024603012
 30
0.0
 10
11.0680639701
 20
8.1932742838
 30
0.0
 10
11.1136825723
 20
8.1864780486
 30
0.0
 10
11.1442397359
 20
8.183547402
 30
0.0
 10
11.1595157538
 20
8.1824880066
 30
0.0
  0
SPLINE
  5
3CF
100
AcDbEntity
  8
0
100
AcDbSpline
 62
7
  6
CONTINUOUS
 70
0
 71
3
 72
23
 73
19
 74
0
 42
0.0000001
 43
0.0000001
 44
0.0000000001
 40
0.0
 40
0.0
 40
0.0
 40
0.0
 40
0.0615933602
 40
0.1232602155
 40
0.1850131597
 40
0.2468641961
 40
0.3088246537
 40
0.3709051321
 40
0.4331154254
 40
0.4954644457
 40
0.5579602073
 40
0.6206097416
 40
0.6834190263
 40
0.746393255
 40
0.8095360868
 40
0.8728498861
 40
0.9363395398
 40
1.0
 40
1.0
 40
1.0
 40
1.0
 10
11.2051908263
 20
7.6760585627
 30
0.0
 10
11.1945904234
 20
7.6690404293
 30
0.0
 10
11.1730782153
 20
7.6554411761
 30
0.0
 10
11.1399615707
 20
7.6364049211
 30
0.0
 10
11.1060284644
 20
7.6187484326
 30
0.0
 10
11.0713324947
 20
7.6024997905
 30
0.0
 10
11.0359275932
 20
7.587684071
 30
0.0
 10
10.9998690067
 20
7.5743243392
 30
0.0
 10
10.9632128845
 20
7.5624414811
 30
0.0
 10
10.9260163814
 20
7.5520539278
 30
0.0
 10
10.8883374781
 20
7.5431777643
 30
0.0
 10
10.8502348739
 20
7.5358268762
 30
0.0
 10
10.8117679201
 20
7.5300126566
 30
0.0
 10
10.7729965645
 20
7.5257440814
 30
0.0
 10
10.7339813779
 20
7.5230277846
 30
0.0
 10
10.6947824358
 20
7.5218679103
 30
0.0
 10
10.6554622293
 20
7.5222664254
 30
0.0
 10
10.629242281
 20
7.5235686359
 30
0.0
 10
10.6161340149
 20
7.5244776972
 30
0.0
  0
SPLINE
  5
3D0
100
AcDbEntity
  8
0
100
AcDbSpline
 62
7
  6
CONTINUOUS
 70
0
 71
3
 72
23
 73
19
 74
0
 42
0.0000001
 43
0.0000001
 44
0.0000000001
 40
0.0
 40
0.0
 40
0.0
 40
0.0
 40
0.0616179165
 40
0.1233190955
 40
0.1851128229
 40
0.2470078829
 40
0.3090125034
 40
0.3711343423
 40
0.4333804157
 40
0.4957570992
 40
0.5582700818
 40
0.6209242642
 40
0.6837239823
 40
0.7466728512
 40
0.8097728866
 40
0.8730265352
 40
0.9364377492
 40
1.0
 40
1.0
 40
1.0
 40
1.0
 10
11.221015376
 20
7.7110126785
 30
0.0
 10
11.2110994086
 20
7.7054257248
 30
0.0
 10
11.1910423757
 20
7.6946153323
 30
0.0
 10
11.1603511337
 20
7.6795256483
 30
0.0
 10
11.1290716572
 20
7.6655692499
 30
0.0
 10
11.0972433246
 20
7.6527639822
 30
0.0
 10
11.0649056639
 20
7.6411254682
 30
0.0
 10
11.032098892
 20
7.6306683028
 30
0.0
 10
10.9988638023
 20
7.6214054875
 30
0.0
 10
10.965241769
 20
7.613348371
 30
0.0
 10
10.9312745653
 20
7.6065071632
 30
0.0
 10
10.8970044634
 20
7.6008901766
 30
0.0
 10
10.8624740381
 20
7.5965043985
 30
0.0
 10
10.8277262892
 20
7.5933554361
 30
0.0
 10
10.7928045032
 20
7.5914468651
 30
0.0
 10
10.7577514503
 20
7.5907812597
 30
0.0
 10
10.7226119644
 20
7.591359541
 30
0.0
 10
10.6991840505
 20
7.5925721065
 30
0.0
 10
10.6874714556
 20
7.5933843777
 30
0.0
  0
SPLINE
  5
3D1
100
AcDbEntity
  8
0
100
AcDbSpline
 62
7
  6
CONTINUOUS
 70
0
 71
3
 72
23
 73
19
 74
0
 42
0.0000001
 43
0.0000001
 44
0.0000000001
 40
0.0
 40
0.0
 40
0.0
 40
0.0
 40
0.0615905639
 40
0.1232475272
 40
0.1849853266
 40
0.24681778
 40
0.3087579964
 40
0.3708182752
 40
0.4330100087
 40
0.4953436076
 40
0.5578284534
 40
0.6204728116
 40
0.6832837095
 40
0.7462672134
 40
0.8094278556
 40
0.8727683219
 40
0.9362939026
 40
1.0
 40
1.0
 40
1.0
 40
1.0
 10
11.2711630904
 20
7.8644968204
 30
0.0
 10
11.2612886045
 20
7.8574304489
 30
0.0
 10
11.2412116177
 20
7.8437276586
 30
0.0
 10
11.2101972351
 20
7.8245193667
 30
0.0
 10
11.1783209351
 20
7.8066788346
 30
0.0
 10
11.1456387352
 20
7.7902373899
 30
0.0
 10
11.1122070198
 20
7.7752232966
 30
0.0
 10
11.0780836933
 20
7.7616626217
 30
0.0
 10
11.0433278237
 20
7.7495787872
 30
0.0
 10
11.0079996049
 20
7.7389925964
 30
0.0
 10
10.9721601722
 20
7.7299223512
 30
0.0
 10
10.9358715464
 20
7.7223837939
 30
0.0
 10
10.8991965373
 20
7.7163898095
 30
0.0
 10
10.8621985881
 20
7.7119507409
 30
0.0
 10
10.8249419012
 20
7.7090743015
 30
0.0
 10
10.7874902576
 20
7.7077652605
 30
0.0
 10
10.7499098737
 20
7.7080260958
 30
0.0
 10
10.7248474921
 20
7.7092443253
 30
0.0
 10
10.7123180634
 20
7.7101132441
 30
0.0
  0
SPLINE
  5
3D2
100
AcDbEntity
  8
0
100
AcDbSpline
 62
7
  6
CONTINUOUS
 70
0
 71
3
 72
58
 73
54
 74
0
 42
0.0000001
 43
0.0000001
 44
0.0000000001
 40
0.0
 40
0.0
 40
0.0
 40
0.0
 40
0.0149695455
 40
0.0299420609
 40
0.0449204982
 40
0.059907776
 40
0.0749067584
 40
0.0899202409
 40
0.1049509353
 40
0.1200014503
 40
0.1350742787
 40
0.150171786
 40
0.1652961915
 40
0.1804495603
 40
0.1956337941
 40
0.2108506146
 40
0.2261015611
 40
0.2413879831
 40
0.2567110273
 40
0.2720716407
 40
0.2874705642
 40
0.3029083254
 40
0.318385245
 40
0.333901433
 40
0.3494567859
 40
0.365050997
 40
0.3806835538
 40
0.3963537409
 40
0.4120606521
 40
0.4278031898
 40
0.4435800729
 40
0.4593898495
 40
0.4752308986
 40
0.4911014424
 40
0.5069995587
 40
0.5229231849
 40
0.538870134
 40
0.5548381057
 40
0.5708246935
 40
0.5868274027
 40
0.618866142
 40
0.6509377162
 40
0.6830201787
 40
0.7150913727
 40
0.7471293591
 40
0.77911284
 40
0.8110215741
 40
0.8428367796
 40
0.8745415125
 40
0.9061210211
 40
0.9375630975
 40
0.9688580653
 40
1.0
 40
1.0
 40
1.0
 40
1.0
 10
9.5069057301
 20
8.9524013715
 30
0.0
 10
9.4980772937
 20
8.9438737343
 30
0.0
 10
9.480750789
 20
8.9264690202
 30
0.0
 10
9.4558006867
 20
8.8993613585
 30
0.0
 10
9.431920549
 20
8.8712867161
 30
0.0
 10
9.4091428704
 20
8.842283069
 30
0.0
 10
9.3874980079
 20
8.8123889932
 30
0.0
 10
9.3670147824
 20
8.781644571
 30
0.0
 10
9.3477206176
 20
8.7500908229
 30
0.0
 10
9.3296413239
 20
8.7177699018
 30
0.0
 10
9.3128009096
 20
8.6847250702
 30
0.0
 10
9.2972219674
 20
8.651000426
 30
0.0
 10
9.2829252893
 20
8.6166410415
 30
0.0
 10
9.2699298373
 20
8.5816928712
 30
0.0
 10
9.2582530862
 20
8.5462025569
 30
0.0
 10
9.2479105614
 20
8.510217537
 30
0.0
 10
9.2389159628
 20
8.4737859056
 30
0.0
 10
9.2312814315
 20
8.4369562926
 30
0.0
 10
9.2250170442
 20
8.3997779185
 30
0.0
 10
9.2201310863
 20
8.3623004443
 30
0.0
 10
9.2166302101
 20
8.3245739065
 30
0.0
 10
9.2145189336
 20
8.2866487048
 30
0.0
 10
9.2138000367
 20
8.2485754794
 30
0.0
 10
9.214474592
 20
8.2104050717
 30
0.0
 10
9.2165415201
 20
8.1721884485
 30
0.0
 10
9.2199980667
 20
8.1339766316
 30
0.0
 10
9.2248397002
 20
8.0958206524
 30
0.0
 10
9.2310597755
 20
8.0577714316
 30
0.0
 10
9.2386500349
 20
8.0198797705
 30
0.0
 10
9.2476003908
 20
7.9821962705
 30
0.0
 10
9.2578987271
 20
7.9447711988
 30
0.0
 10
9.2695313769
 20
7.9076545352
 30
0.0
 10
9.2824828157
 20
7.8708958353
 30
0.0
 10
9.2967356126
 20
7.8345441172
 30
0.0
 10
9.3122708495
 20
7.7986479431
 30
0.0
 10
9.3290677464
 20
7.7632552293
 30
0.0
 10
9.3471038012
 20
7.7284131307
 30
0.0
 10
9.3663549604
 20
7.6941683438
 30
0.0
 10
9.3867958237
 20
7.6605660708
 30
0.0
 10
9.415607572
 20
7.6166676892
 30
0.0
 10
9.4544571603
 20
7.5636283361
 30
0.0
 10
9.5053362316
 20
7.503280209
 30
0.0
 10
9.5602282985
 20
7.44651815
 30
0.0
 10
9.618839528
 20
7.3936468352
 30
0.0
 10
9.680857875
 20
7.3449475388
 30
0.0
 10
9.7459527699
 20
7.3006801103
 30
0.0
 10
9.8137774662
 20
7.2610807973
 30
0.0
 10
9.8839705277
 20
7.2263610296
 30
0.0
 10
9.9561580019
 20
7.1967062671
 30
0.0
 10
10.0299548383
 20
7.1722752182
 30
0.0
 10
10.1049689815
 20
7.1531988517
 30
0.0
 10
10.1807952888
 20
7.1395796497
 30
0.0
 10
10.231758076
 20
7.1341731163
 30
0.0
 10
10.2572320568
 20
7.1324064897
 30
0.0
  0
SPLINE
  5
3D3
100
AcDbEntity
  8
0
100
AcDbSpline
 62
7
  6
CONTINUOUS
 70
0
 71
3
 72
46
 73
42
 74
0
 42
0.0000001
 43
0.0000001
 44
0.0000000001
 40
0.0
 40
0.0
 40
0.0
 40
0.0
 40
0.0149724479
 40
0.0299638594
 40
0.0449761713
 40
0.0600112242
 40
0.0750707548
 40
0.0901563826
 40
0.1052696126
 40
0.1204118187
 40
0.1355842464
 40
0.1507880042
 40
0.1660240574
 40
0.1812932325
 40
0.1965962026
 40
0.2119334982
 40
0.242708263
 40
0.2736229573
 40
0.3046763993
 40
0.335865064
 40
0.3671831726
 40
0.3986228156
 40
0.4301741061
 40
0.4618253602
 40
0.4935633003
 40
0.5253732792
 40
0.5572395201
 40
0.5891453686
 40
0.6210735553
 40
0.6530064647
 40
0.684926408
 40
0.7168158974
 40
0.7486579174
 40
0.7804361908
 40
0.8121354368
 40
0.8437416179
 40
0.8752421763
 40
0.9066262255
 40
0.9378848587
 40
0.9690108723
 40
1.0
 40
1.0
 40
1.0
 40
1.0
 10
9.7034647697
 20
9.0977426575
 30
0.0
 10
9.6977675239
 20
9.0882778312
 30
0.0
 10
9.6866944929
 20
9.069136113
 30
0.0
 10
9.6710811646
 20
9.0398462519
 30
0.0
 10
9.6564701062
 20
9.0099918857
 30
0.0
 10
9.6428770622
 20
8.9796055455
 30
0.0
 10
9.6303167459
 20
8.9487195744
 30
0.0
 10
9.618802386
 20
8.9173672025
 30
0.0
 10
9.608346477
 20
8.8855819522
 30
0.0
 10
9.5989601381
 20
8.8533979164
 30
0.0
 10
9.5906533545
 20
8.8208495898
 30
0.0
 10
9.5834351811
 20
8.787971819
 30
0.0
 10
9.5773130957
 20
8.7547998472
 30
0.0
 10
9.5722938855
 20
8.7213692959
 30
0.0
 10
9.5683827251
 20
8.6877155413
 30
0.0
 10
9.5646469349
 20
8.6425486079
 30
0.0
 10
9.562774633
 20
8.5857013572
 30
0.0
 10
9.5650028359
 20
8.5172611623
 30
0.0
 10
9.5716925619
 20
8.4488044976
 30
0.0
 10
9.5828148872
 20
8.3806263968
 30
0.0
 10
9.5983216964
 20
8.313018095
 30
0.0
 10
9.6181462382
 20
8.2462690037
 30
0.0
 10
9.6422033275
 20
8.1806646229
 30
0.0
 10
9.6703897391
 20
8.1164855698
 30
0.0
 10
9.7025846032
 20
8.0540063082
 30
0.0
 10
9.7386499691
 20
7.9934940172
 30
0.0
 10
9.7784313937
 20
7.9352074585
 30
0.0
 10
9.8217585986
 20
7.8793958831
 30
0.0
 10
9.868446193
 20
7.8262979766
 30
0.0
 10
9.9182944598
 20
7.7761408497
 30
0.0
 10
9.9710901718
 20
7.7291390403
 30
0.0
 10
10.0266075322
 20
7.6854936318
 30
0.0
 10
10.084609131
 20
7.6453914017
 30
0.0
 10
10.1448469477
 20
7.6090040286
 30
0.0
 10
10.2070634085
 20
7.5764873639
 30
0.0
 10
10.2709924431
 20
7.5479807638
 30
0.0
 10
10.3363607074
 20
7.5236064694
 30
0.0
 10
10.4028883592
 20
7.5034690586
 30
0.0
 10
10.4702917118
 20
7.4876551516
 30
0.0
 10
10.5382786796
 20
7.476232882
 30
0.0
 10
10.5839098094
 20
7.4715678116
 30
0.0
 10
10.6067199802
 20
7.4699859209
 30
0.0
  0
SPLINE
  5
3D4
100
AcDbEntity
  8
0
100
AcDbSpline
 62
7
  6
CONTINUOUS
 70
0
 71
3
 72
49
 73
45
 74
0
 42
0.0000001
 43
0.0000001
 44
0.0000000001
 40
0.0
 40
0.0
 40
0.0
 40
0.0
 40
0.0149596625
 40
0.0299342722
 40
0.044926103
 40
0.059937339
 40
0.0749700682
 40
0.0900262728
 40
0.1051078144
 40
0.1202164344
 40
0.1353537367
 40
0.1505211869
 40
0.1657201054
 40
0.1809516562
 40
0.1962168525
 40
0.2115165416
 40
0.2268514106
 40
0.2422219817
 40
0.257628606
 40
0.2730714736
 40
0.2885506017
 40
0.3040658455
 40
0.3351989523
 40
0.3664707788
 40
0.3978744558
 40
0.4294007993
 40
0.4610384973
 40
0.4927743263
 40
0.5245933945
 40
0.556479406
 40
0.5884149444
 40
0.6203817687
 40
0.6523611184
 40
0.6843340255
 40
0.7162816285
 40
0.7481854858
 40
0.7800278837
 40
0.8117921354
 40
0.8434628681
 40
0.8750262963
 40
0.9064704545
 40
0.9377855309
 40
0.968963612
 40
1.0
 40
1.0
 40
1.0
 40
1.0
 10
9.7907544395
 20
9.1401942314
 30
0.0
 10
9.784422493
 20
9.131311966
 30
0.0
 10
9.7720724852
 20
9.1133077773
 30
0.0
 10
9.7545248953
 20
9.0856370838
 30
0.0
 10
9.7379653968
 20
9.0573199244
 30
0.0
 10
9.722413366
 20
9.0283892258
 30
0.0
 10
9.7078863836
 20
8.9988781488
 30
0.0
 10
9.6944013543
 20
8.9688204826
 30
0.0
 10
9.6819735159
 20
8.938250808
 30
0.0
 10
9.6706172391
 20
8.9072041485
 30
0.0
 10
9.6603455381
 20
8.8757161327
 30
0.0
 10
9.6511700472
 20
8.8438229258
 30
0.0
 10
9.6431014995
 20
8.8115610577
 30
0.0
 10
9.6361488918
 20
8.7789676008
 30
0.0
 10
9.630320355
 20
8.7460799048
 30
0.0
 10
9.6256225023
 20
8.7129357114
 30
0.0
 10
9.6220606164
 20
8.6795730422
 30
0.0
 10
9.6196389644
 20
8.6460301562
 30
0.0
 10
9.6183600621
 20
8.6123455067
 30
0.0
 10
9.6182255496
 20
8.578557844
 30
0.0
 10
9.6192355224
 20
8.5447054427
 30
0.0
 10
9.6221092862
 20
8.4994880273
 30
0.0
 10
9.6285642726
 20
8.4429923106
 30
0.0
 10
9.6408287864
 20
8.3756488288
 30
0.0
 10
9.6575645203
 20
8.3089783768
 30
0.0
 10
9.6786942536
 20
8.2432883625
 30
0.0
 10
9.7041208343
 20
8.1788790381
 30
0.0
 10
9.7337274798
 20
8.1160454574
 30
0.0
 10
9.7673783415
 20
8.0550752466
 30
0.0
 10
9.8049190706
 20
7.9962475129
 30
0.0
 10
9.8461775894
 20
7.9398315438
 30
0.0
 10
9.8909648657
 20
7.886085605
 30
0.0
 10
9.9390757717
 20
7.835255766
 30
0.0
 10
9.9902900188
 20
7.7875747945
 30
0.0
 10
10.0443731131
 20
7.7432610513
 30
0.0
 10
10.1010774542
 20
7.7025175225
 30
0.0
 10
10.1601434678
 20
7.6655309158
 30
0.0
 10
10.2213007837
 20
7.6324708066
 30
0.0
 10
10.2842694284
 20
7.603488873
 30
0.0
 10
10.3487611974
 20
7.5787181843
 30
0.0
 10
10.4144805261
 20
7.5582725135
 30
0.0
 10
10.4811274188
 20
7.5422460118
 30
0.0
 10
10.5483926938
 20
7.5307126131
 30
0.0
 10
10.5935573679
 20
7.526043393
 30
0.0
 10
10.6161340149
 20
7.5244776972
 30
0.0
  0
SPLINE
  5
3D5
100
AcDbEntity
  8
0
100
AcDbSpline
 62
7
  6
CONTINUOUS
 70
0
 71
3
 72
44
 73
40
 74
0
 42
0.0000001
 43
0.0000001
 44
0.0000000001
 40
0.0
 40
0.0
 40
0.0
 40
0.0
 40
0.0149712365
 40
0.0299611461
 40
0.0449716942
 40
0.0600047495
 40
0.0750620728
 40
0.090145317
 40
0.1052560094
 40
0.1203955564
 40
0.135565229
 40
0.150766162
 40
0.1812613433
 40
0.2118916551
 40
0.2426609055
 40
0.2735704768
 40
0.3046193347
 40
0.3358040771
 40
0.3671190233
 40
0.3985563353
 40
0.4301061716
 40
0.4617568693
 40
0.4934951487
 40
0.5253063383
 40
0.5571746162
 40
0.5890832649
 40
0.6210149365
 40
0.6529519244
 40
0.6848764396
 40
0.7167708875
 40
0.7486181417
 40
0.780401814
 40
0.8121065153
 40
0.8437181055
 40
0.875223934
 40
0.9066130286
 40
0.9378764193
 40
0.9690068451
 40
1.0
 40
1.0
 40
1.0
 40
1.0
 10
9.8263889155
 20
9.155029597
 30
0.0
 10
9.82087093
 20
9.1459871605
 30
0.0
 10
9.8101429498
 20
9.1276966967
 30
0.0
 10
9.7950062302
 20
9.0997002456
 30
0.0
 10
9.7808305793
 20
9.0711558503
 30
0.0
 10
9.7676317597
 20
9.0420945923
 30
0.0
 10
9.7554236497
 20
9.0125477862
 30
0.0
 10
9.744219648
 20
8.9825472112
 30
0.0
 10
9.7340316335
 20
8.9521252184
 30
0.0
 10
9.7248706473
 20
8.9213146872
 30
0.0
 10
9.7167465388
 20
8.8901483382
 30
0.0
 10
9.7072992176
 20
8.8481239851
 30
0.0
 10
9.6981294432
 20
8.794857276
 30
0.0
 10
9.6914011217
 20
8.7301378587
 30
0.0
 10
9.6889629189
 20
8.6648210335
 30
0.0
 10
9.6908252856
 20
8.5991900448
 30
0.0
 10
9.6969795819
 20
8.5335269482
 30
0.0
 10
9.707398886
 20
8.4681145079
 30
0.0
 10
9.7220379216
 20
8.4032341553
 30
0.0
 10
9.7408333138
 20
8.339165018
 30
0.0
 10
9.7637038268
 20
8.2761826592
 30
0.0
 10
9.790550759
 20
8.2145579297
 30
0.0
 10
9.821258366
 20
8.1545558116
 30
0.0
 10
9.85569436
 20
8.0964342936
 30
0.0
 10
9.8937104759
 20
8.0404432732
 30
0.0
 10
9.9351431095
 20
7.986823497
 30
0.0
 10
9.9798140003
 20
7.9358055232
 30
0.0
 10
10.0275309897
 20
7.8876087306
 30
0.0
 10
10.0780888645
 20
7.8424404007
 30
0.0
 10
10.1312702263
 20
7.8004948309
 30
0.0
 10
10.1868464195
 20
7.7619525071
 30
0.0
 10
10.2445785011
 20
7.7269793316
 30
0.0
 10
10.3042182687
 20
7.6957259204
 30
0.0
 10
10.36550927
 20
7.6683269213
 30
0.0
 10
10.4281880165
 20
7.6449004731
 30
0.0
 10
10.4919847217
 20
7.6255476356
 30
0.0
 10
10.5566258646
 20
7.6103521177
 30
0.0
 10
10.6218297986
 20
7.599379744
 30
0.0
 10
10.6655943713
 20
7.5949015586
 30
0.0
 10
10.6874714556
 20
7.5933843777
 30
0.0
  0
SPLINE
  5
3D6
100
AcDbEntity
  8
0
100
AcDbSpline
 62
7
  6
CONTINUOUS
 70
0
 71
3
 72
48
 73
44
 74
0
 42
0.0000001
 43
0.0000001
 44
0.0000000001
 40
0.0
 40
0.0
 40
0.0
 40
0.0
 40
0.0149572555
 40
0.0299273356
 40
0.0449126643
 40
0.0599155845
 40
0.0749383468
 40
0.0899831026
 40
0.1050518854
 40
0.1201466096
 40
0.1352690557
 40
0.1504208622
 40
0.1656035238
 40
0.1808183745
 40
0.1960665941
 40
0.2113491936
 40
0.2266670148
 40
0.242020732
 40
0.2574108386
 40
0.2728376599
 40
0.303797302
 40
0.3349033594
 40
0.3661521788
 40
0.3975374762
 40
0.4290504857
 40
0.4606801474
 40
0.4924133296
 40
0.5242350798
 40
0.5561289014
 40
0.5880770515
 40
0.6200608528
 40
0.6520610169
 40
0.6840579756
 40
0.7160322154
 40
0.7479646116
 40
0.7798367574
 40
0.8116312841
 40
0.8433321682
 40
0.8749250252
 40
0.9063973589
 40
0.9377389177
 40
0.9689414349
 40
1.0
 40
1.0
 40
1.0
 40
1.0
 10
9.9814472663
 20
9.1997109641
 30
0.0
 10
9.9753238561
 20
9.1917521324
 30
0.0
 10
9.9633634849
 20
9.1756007532
 30
0.0
 10
9.9463170469
 20
9.1507207568
 30
0.0
 10
9.9301768734
 20
9.1252067502
 30
0.0
 10
9.9149625684
 20
9.0990892608
 30
0.0
 10
9.9006918276
 20
9.0723992262
 30
0.0
 10
9.8873817574
 20
9.0451681708
 30
0.0
 10
9.8750479748
 20
9.0174283927
 30
0.0
 10
9.8637050663
 20
8.9892127314
 30
0.0
 10
9.8533665702
 20
8.9605545465
 30
0.0
 10
9.8440444962
 20
8.9314878387
 30
0.0
 10
9.8357500946
 20
8.9020469427
 30
0.0
 10
9.8284929863
 20
8.8722667633
 30
0.0
 10
9.8222818063
 20
8.842182527
 30
0.0
 10
9.8171239584
 20
8.8118298421
 30
0.0
 10
9.8130253456
 20
8.7812446253
 30
0.0
 10
9.8099910352
 20
8.7504631677
 30
0.0
 10
9.8080244041
 20
8.7195214529
 30
0.0
 10
9.8068275784
 20
8.6780569169
 30
0.0
 10
9.8080191963
 20
8.6259996926
 30
0.0
 10
9.8137261042
 20
8.5635643099
 30
0.0
 10
9.8236837673
 20
8.5013741353
 30
0.0
 10
9.8378446989
 20
8.4397251275
 30
0.0
 10
9.8561414766
 20
8.3789080788
 30
0.0
 10
9.8784872405
 20
8.3192104712
 30
0.0
 10
9.9047760706
 20
8.2609142744
 30
0.0
 10
9.9348834668
 20
8.2042948511
 30
0.0
 10
9.9686669277
 20
8.1496195956
 30
0.0
 10
10.0059666692
 20
8.097146724
 30
0.0
 10
10.046606364
 20
8.0471240613
 30
0.0
 10
10.0903939697
 20
7.9997878868
 30
0.0
 10
10.1371226274
 20
7.9553618329
 30
0.0
 10
10.1865715889
 20
7.9140557909
 30
0.0
 10
10.238507295
 20
7.8760649655
 30
0.0
 10
10.2926844653
 20
7.8415689647
 30
0.0
 10
10.3488472502
 20
7.8107309563
 30
0.0
 10
10.4067303944
 20
7.783696908
 30
0.0
 10
10.4660605732
 20
7.7605948765
 30
0.0
 10
10.5265572615
 20
7.7415343375
 30
0.0
 10
10.5879355539
 20
7.7266058558
 30
0.0
 10
10.6499016798
 20
7.7158804867
 30
0.0
 10
10.6915162012
 20
7.7115558582
 30
0.0
 10
10.7123180634
 20
7.7101132441
 30
0.0
  0
SPLINE
  5
3D7
100
AcDbEntity
  8
0
100
AcDbSpline
 62
7
  6
CONTINUOUS
 70
0
 71
3
 72
41
 73
37
 74
0
 42
0.0000001
 43
0.0000001
 44
0.0000000001
 40
0.0
 40
0.0
 40
0.0
 40
0.0
 40
0.030391768
 40
0.0456307145
 40
0.0608977364
 40
0.0915136667
 40
0.1222422429
 40
0.1376497369
 40
0.1530847951
 40
0.1840334797
 40
0.2150871936
 40
0.2462410453
 40
0.2774890638
 40
0.3088242724
 40
0.3402387709
 40
0.3717238263
 40
0.4032699695
 40
0.4348670978
 40
0.4665045827
 40
0.4981713808
 40
0.5298561488
 40
0.5615473594
 40
0.5932334197
 40
0.6249027891
 40
0.6565440974
 40
0.6881462618
 40
0.7196986015
 40
0.7511909497
 40
0.7826137621
 40
0.813958217
 40
0.8452163243
 40
0.8763809768
 40
0.9074461593
 40
0.9384066634
 40
0.9692590432
 40
1.0
 40
1.0
 40
1.0
 40
1.0
 10
10.2513443835
 20
9.2169554353
 30
0.0
 10
10.2492485931
 20
9.2011686067
 30
0.0
 10
10.2467443279
 20
9.1773741856
 30
0.0
 10
10.2446846336
 20
9.1455275321
 30
0.0
 10
10.2434737705
 20
9.1135189358
 30
0.0
 10
10.2435636752
 20
9.0733544105
 30
0.0
 10
10.2457840185
 20
9.0331777404
 30
0.0
 10
10.2488319336
 20
9.0010554172
 30
0.0
 10
10.2527340037
 20
8.9689094793
 30
0.0
 10
10.2592010317
 20
8.9288305984
 30
0.0
 10
10.2694682521
 20
8.881086873
 30
0.0
 10
10.2822203285
 20
8.8337830427
 30
0.0
 10
10.2974210414
 20
8.78705356
 30
0.0
 10
10.3150273694
 20
8.7410301735
 30
0.0
 10
10.3349894783
 20
8.6958429142
 30
0.0
 10
10.3572509036
 20
8.6516193673
 30
0.0
 10
10.3817486998
 20
8.6084844124
 30
0.0
 10
10.4084136205
 20
8.5665598471
 30
0.0
 10
10.4371703133
 20
8.5259640523
 30
0.0
 10
10.4679375313
 20
8.4868116588
 30
0.0
 10
10.5006283622
 20
8.4492132253
 30
0.0
 10
10.5351504724
 20
8.4132749287
 30
0.0
 10
10.5714063661
 20
8.3790982656
 30
0.0
 10
10.6092936592
 20
8.3467797675
 30
0.0
 10
10.6487053674
 20
8.3164107297
 30
0.0
 10
10.6895302031
 20
8.2880769506
 30
0.0
 10
10.7316528898
 20
8.2618584914
 30
0.0
 10
10.7749544878
 20
8.2378294524
 30
0.0
 10
10.8193127266
 20
8.2160577679
 30
0.0
 10
10.8646023519
 20
8.1966050019
 30
0.0
 10
10.9106954571
 20
8.1795262111
 30
0.0
 10
10.9574619222
 20
8.1648696944
 30
0.0
 10
11.0047694803
 20
8.1526770768
 30
0.0
 10
11.0524851133
 20
8.1429827263
 30
0.0
 10
11.1004720873
 20
8.135814526
 30
0.0
 10
11.1326168998
 20
8.1327273597
 30
0.0
 10
11.1486866134
 20
8.1316129213
 30
0.0
  0
SPLINE
  5
3D8
100
AcDbEntity
  8
0
100
AcDbSpline
 62
7
  6
CONTINUOUS
 70
0
 71
3
 72
43
 73
39
 74
0
 42
0.0000001
 43
0.0000001
 44
0.0000000001
 40
0.0
 40
0.0
 40
0.0
 40
0.0
 40
0.0304254354
 40
0.045680892
 40
0.0609641457
 40
0.0916115332
 40
0.1223697284
 40
0.1377911729
 40
0.1532395688
 40
0.1842130162
 40
0.2152885977
 40
0.2464611945
 40
0.2777246725
 40
0.3090719548
 40
0.340495102
 40
0.3719854001
 40
0.4035334531
 40
0.4351292824
 40
0.4667624291
 40
0.4984220609
 40
0.5300970813
 40
0.5617762411
 40
0.5934482502
 40
0.6251018896
 40
0.6567261232
 40
0.6883102085
 40
0.7198438043
 40
0.7355897806
 40
0.7513194977
 40
0.7827232233
 40
0.8140488832
 40
0.8452887683
 40
0.8764360157
 40
0.9074848545
 40
0.9384301721
 40
0.9538641067
 40
0.9692714338
 40
1.0
 40
1.0
 40
1.0
 40
1.0
 10
10.3287539001
 20
9.2084856907
 30
0.0
 10
10.3271419213
 20
9.1938393526
 30
0.0
 10
10.3253083302
 20
9.1717788709
 30
0.0
 10
10.3240305093
 20
9.142279718
 30
0.0
 10
10.3235286035
 20
9.1126489106
 30
0.0
 10
10.3243638522
 20
9.075500571
 30
0.0
 10
10.3271389809
 20
9.0383797281
 30
0.0
 10
10.3305168065
 20
9.0087226417
 30
0.0
 10
10.334672577
 20
8.9790592955
 30
0.0
 10
10.3413128692
 20
8.9421018848
 30
0.0
 10
10.3515583027
 20
8.8981138226
 30
0.0
 10
10.3640598045
 20
8.8545664238
 30
0.0
 10
10.3787827544
 20
8.8115802773
 30
0.0
 10
10.3956865679
 20
8.7692734637
 30
0.0
 10
10.4147246366
 20
8.7277624436
 30
0.0
 10
10.4358445029
 20
8.6871614139
 30
0.0
 10
10.4589879922
 20
8.6475820838
 30
0.0
 10
10.4840913745
 20
8.609133346
 30
0.0
 10
10.5110855409
 20
8.5719209874
 30
0.0
 10
10.5398961842
 20
8.5360473915
 30
0.0
 10
10.5704440037
 20
8.5016112562
 30
0.0
 10
10.6026449276
 20
8.468707333
 30
0.0
 10
10.6364103597
 20
8.4374261558
 30
0.0
 10
10.6716473515
 20
8.4078538351
 30
0.0
 10
10.7082591198
 20
8.380071668
 30
0.0
 10
10.7461443283
 20
8.3541564922
 30
0.0
 10
10.7787072084
 20
8.3341650905
 30
0.0
 10
10.8052897374
 20
8.3191753939
 30
0.0
 10
10.832180235
 20
8.3048789947
 30
0.0
 10
10.8663871464
 20
8.2882969863
 30
0.0
 10
10.9082950454
 20
8.2705080503
 30
0.0
 10
10.9509269524
 20
8.2548874016
 30
0.0
 10
10.9941651538
 20
8.2414783544
 30
0.0
 10
11.0378900389
 20
8.2303180595
 30
0.0
 10
11.0746670704
 20
8.2229105332
 30
0.0
 10
11.1042100762
 20
8.2181398222
 30
0.0
 10
11.1337617788
 20
8.2141480368
 30
0.0
 10
11.1560166075
 20
8.2120183364
 30
0.0
 10
11.170862532
 20
8.2109887681
 30
0.0
  0
SPLINE
  5
3D9
100
AcDbEntity
  8
0
100
AcDbSpline
 62
7
  6
CONTINUOUS
 70
0
 71
3
 72
39
 73
35
 74
0
 42
0.0000001
 43
0.0000001
 44
0.0000000001
 40
0.0
 40
0.0
 40
0.0
 40
0.0
 40
0.0307310966
 40
0.0615520536
 40
0.0924602898
 40
0.1234525706
 40
0.1545250331
 40
0.1856732159
 40
0.2168921019
 40
0.2481761611
 40
0.2795193885
 40
0.3109153488
 40
0.3423572303
 40
0.3738378954
 40
0.4053499283
 40
0.436885688
 40
0.4684373688
 40
0.4999970534
 40
0.5315567656
 40
0.5631085276
 40
0.5946444213
 40
0.6261566408
 40
0.6576375443
 40
0.6890797132
 40
0.7204760075
 40
0.7518196146
 40
0.7831040965
 40
0.8143234419
 40
0.8454721246
 40
0.8765451141
 40
0.9075379348
 40
0.9384468358
 40
0.9692682055
 40
1.0
 40
1.0
 40
1.0
 40
1.0
 10
10.4741575232
 20
9.1776201477
 30
0.0
 10
10.475346187
 20
9.1650932539
 30
0.0
 10
10.4782755893
 20
9.14005148
 30
0.0
 10
10.4843026682
 20
9.1026641344
 30
0.0
 10
10.4919576117
 20
9.0654659958
 30
0.0
 10
10.5012253539
 20
9.0285306626
 30
0.0
 10
10.5120878288
 20
8.991930033
 30
0.0
 10
10.5245237501
 20
8.9557356523
 30
0.0
 10
10.5385087483
 20
8.9200181688
 30
0.0
 10
10.5540154831
 20
8.884847334
 30
0.0
 10
10.5710136998
 20
8.8502918529
 30
0.0
 10
10.5894701442
 20
8.8164191909
 30
0.0
 10
10.6093487138
 20
8.7832954683
 30
0.0
 10
10.6306105785
 20
8.7509853648
 30
0.0
 10
10.6532142566
 20
8.7195520083
 30
0.0
 10
10.6771155593
 20
8.6890567569
 30
0.0
 10
10.7022677752
 20
8.6595591349
 30
0.0
 10
10.7286217923
 20
8.6311167486
 30
0.0
 10
10.7561261911
 20
8.603785188
 30
0.0
 10
10.784727224
 20
8.577617798
 30
0.0
 10
10.8143690213
 20
8.5526656599
 30
0.0
 10
10.8449937145
 20
8.5289775189
 30
0.0
 10
10.8765415429
 20
8.5065997001
 30
0.0
 10
10.9089508715
 20
8.4855758771
 30
0.0
 10
10.9421584058
 20
8.4659471018
 30
0.0
 10
10.9760993166
 20
8.4477517449
 30
0.0
 10
11.0107073562
 20
8.4310254262
 30
0.0
 10
11.0459149194
 20
8.4158007857
 30
0.0
 10
11.0816532446
 20
8.4021075765
 30
0.0
 10
11.1178525633
 20
8.389972599
 30
0.0
 10
11.1544421621
 20
8.3794196302
 30
0.0
 10
11.1913507284
 20
8.3704693412
 30
0.0
 10
11.2285053103
 20
8.3631391845
 30
0.0
 10
11.2534298505
 20
8.3593362737
 30
0.0
 10
11.2659078357
 20
8.3577105227
 30
0.0
  0
SPLINE
  5
3DA
100
AcDbEntity
  8
0
100
AcDbSpline
 62
7
  6
CONTINUOUS
 70
0
 71
3
 72
11
 73
7
 74
0
 42
0.0000001
 43
0.0000001
 44
0.0000000001
 40
0.0
 40
0.0
 40
0.0
 40
0.0
 40
0.2729438435
 40
0.5293324825
 40
0.771050114
 40
1.0
 40
1.0
 40
1.0
 40
1.0
 10
10.8349645496
 20
7.7921902735
 30
0.0
 10
10.8329817113
 20
7.7935337664
 30
0.0
 10
10.8292316944
 20
7.7962844963
 30
0.0
 10
10.8241164012
 20
7.800725174
 30
0.0
 10
10.8196727174
 20
7.805314361
 30
0.0
 10
10.817076829
 20
7.808535835
 30
0.0
 10
10.815893509
 20
7.8101594479
 30
0.0
  0
SPLINE
  5
3DB
100
AcDbEntity
  8
0
100
AcDbSpline
 62
7
  6
CONTINUOUS
 70
0
 71
3
 72
84
 73
80
 74
0
 42
0.0000001
 43
0.0000001
 44
0.0000000001
 40
0.0
 40
0.0
 40
0.0
 40
0.0
 40
0.0040079864
 40
0.0081948582
 40
0.0125653312
 40
0.0171232449
 40
0.0218717413
 40
0.0268132783
 40
0.0319495333
 40
0.0372813657
 40
0.0428091546
 40
0.0485327463
 40
0.0605637721
 40
0.0733656055
 40
0.0869230907
 40
0.1012164871
 40
0.1162223121
 40
0.1319138957
 40
0.148261808
 40
0.1652343713
 40
0.1827980064
 40
0.2009174814
 40
0.2195562419
 40
0.2386766535
 40
0.2582401711
 40
0.278207559
 40
0.2985390546
 40
0.3191944932
 40
0.3401334553
 40
0.3613153634
 40
0.3826995789
 40
0.4259118419
 40
0.469447564
 40
0.5129864497
 40
0.5562126857
 40
0.5988159053
 40
0.6197889904
 40
0.6404928705
 40
0.6608906871
 40
0.6809460926
 40
0.700623339
 40
0.7198872898
 40
0.7387034937
 40
0.7570383068
 40
0.7748589393
 40
0.7921335895
 40
0.8088316306
 40
0.8249237228
 40
0.8403820505
 40
0.8551806317
 40
0.8692955641
 40
0.8827054595
 40
0.895392013
 40
0.9014595628
 40
0.9073411581
 40
0.9130356478
 40
0.9185423004
 40
0.9238607634
 40
0.9289910745
 40
0.9339338516
 40
0.9386902552
 40
0.9432620445
 40
0.9476518028
 40
0.9518629167
 40
0.9558996993
 40
0.9597676493
 40
0.9634734638
 40
0.9670252363
 40
0.9704327165
 40
0.9737073422
 40
0.976862438
 40
0.979913349
 40
0.9828773534
 40
0.9857736253
 40
0.9886229887
 40
0.9914474962
 40
0.9942699525
 40
0.9971132931
 40
1.0
 40
1.0
 40
1.0
 40
1.0
 10
12.1325995858
 20
11.1052996123
 30
0.0
 10
12.1335084648
 20
11.1061775221
 30
0.0
 10
12.1354116515
 20
11.1079265392
 30
0.0
 10
12.1384458454
 20
11.110475429
 30
0.0
 10
12.1417186994
 20
11.1130043491
 30
0.0
 10
12.1452280597
 20
11.1155115711
 30
0.0
 10
12.1489717176
 20
11.1179957955
 30
0.0
 10
12.1529474502
 20
11.1204556193
 30
0.0
 10
12.1571528473
 20
11.1228896561
 30
0.0
 10
12.1615852527
 20
11.1252965873
 30
0.0
 10
12.1662419195
 20
11.1276749879
 30
0.0
 10
12.17285636
 20
11.1308593679
 30
0.0
 10
12.1816739897
 20
11.1347476817
 30
0.0
 10
12.192929943
 20
11.1392045688
 30
0.0
 10
12.205002096
 20
11.1435168621
 30
0.0
 10
12.2178601666
 20
11.1476750975
 30
0.0
 10
12.231472314
 20
11.151670244
 30
0.0
 10
12.2458049405
 20
11.1554937455
 30
0.0
 10
12.2608229555
 20
11.1591376513
 30
0.0
 10
12.2764899626
 20
11.1625945188
 30
0.0
 10
12.2927684438
 20
11.1658574231
 30
0.0
 10
12.309619898
 20
11.1689200576
 30
0.0
 10
12.3270050157
 20
11.1717766596
 30
0.0
 10
12.3448838348
 20
11.1744219713
 30
0.0
 10
12.3632158597
 20
11.1768513229
 30
0.0
 10
12.3819601924
 20
11.1790605817
 30
0.0
 10
12.4010756541
 20
11.1810460835
 30
0.0
 10
12.4205208804
 20
11.182804707
 30
0.0
 10
12.4402543983
 20
11.1843338259
 30
0.0
 10
12.4602347651
 20
11.1856312673
 30
0.0
 10
12.4872420805
 20
11.1870548013
 30
0.0
 10
12.521316939
 20
11.1882386635
 30
0.0
 10
12.5623945741
 20
11.1887157635
 30
0.0
 10
12.6034769397
 20
11.1882551619
 30
0.0
 10
12.6442440415
 20
11.1868641552
 30
0.0
 10
12.6778647539
 20
11.1849308457
 30
0.0
 10
12.7043611382
 20
11.1829214812
 30
0.0
 10
12.7238567254
 20
11.1811992525
 30
0.0
 10
12.7430408687
 20
11.1792573022
 30
0.0
 10
12.7618761688
 20
11.177099127
 30
0.0
 10
12.7803255965
 20
11.1747286666
 30
0.0
 10
12.7983525564
 20
11.1721501702
 30
0.0
 10
12.8159209021
 20
11.1693682299
 30
0.0
 10
12.8329949864
 20
11.166387862
 30
0.0
 10
12.8495396864
 20
11.1632144102
 30
0.0
 10
12.8655204589
 20
11.1598535869
 30
0.0
 10
12.8809034122
 20
11.15631155
 30
0.0
 10
12.8956553509
 20
11.1525947976
 30
0.0
 10
12.90974387
 20
11.1487102197
 30
0.0
 10
12.92313744
 20
11.1446651678
 30
0.0
 10
12.935805557
 20
11.1404673372
 30
0.0
 10
12.9477185906
 20
11.1361248028
 30
0.0
 10
12.9571283803
 20
11.1323384185
 30
0.0
 10
12.9642492749
 20
11.1292354776
 30
0.0
 10
12.9693039623
 20
11.1269120787
 30
0.0
 10
12.9741490642
 20
11.1245589812
 30
0.0
 10
12.9787815084
 20
11.122177389
 30
0.0
 10
12.983198312
 20
11.119768544
 30
0.0
 10
12.98739655
 20
11.1173336076
 30
0.0
 10
12.9913734666
 20
11.1148738757
 30
0.0
 10
12.9951264079
 20
11.1123906282
 30
0.0
 10
12.998652774
 20
11.1098850648
 30
0.0
 10
13.0019501723
 20
11.1073585293
 30
0.0
 10
13.0050163009
 20
11.104812313
 30
0.0
 10
13.0078489037
 20
11.1022476265
 30
0.0
 10
13.0104459685
 20
11.0996658265
 30
0.0
 10
13.0128055302
 20
11.0970681744
 30
0.0
 10
13.0149256505
 20
11.0944558734
 30
0.0
 10
13.0168046537
 20
11.0918302718
 30
0.0
 10
13.0184408182
 20
11.0891926136
 30
0.0
 10
13.0198324379
 20
11.0865441758
 30
0.0
 10
13.0209780816
 20
11.0838864152
 30
0.0
 10
13.0218761935
 20
11.0812207867
 30
0.0
 10
13.0225253657
 20
11.0785489516
 30
0.0
 10
13.0229245871
 20
11.0758727771
 30
0.0
 10
13.023072842
 20
11.0731942572
 30
0.0
 10
13.0229695751
 20
11.0705154571
 30
0.0
 10
13.0226148117
 20
11.0678387523
 30
0.0
 10
13.0222145227
 20
11.0660741641
 30
0.0
 10
13.0219747939
 20
11.0651961816
 30
0.0
  0
SPLINE
  5
3DC
100
AcDbEntity
  8
0
100
AcDbSpline
 62
7
  6
CONTINUOUS
 70
0
 71
3
 72
76
 73
72
 74
0
 42
0.0000001
 43
0.0000001
 44
0.0000000001
 40
0.0
 40
0.0
 40
0.0
 40
0.0
 40
0.0156747225
 40
0.0235325474
 40
0.0314031326
 40
0.0471815238
 40
0.0630096701
 40
0.0709422968
 40
0.0788865451
 40
0.0948074601
 40
0.1107706215
 40
0.1267727505
 40
0.1428102138
 40
0.1588790639
 40
0.1749750748
 40
0.1910937806
 40
0.2072305163
 40
0.2233804589
 40
0.2395386705
 40
0.2557001411
 40
0.2718598323
 40
0.2880127214
 40
0.3041538447
 40
0.3202783411
 40
0.3363814948
 40
0.3524587772
 40
0.3685058876
 40
0.3845187926
 40
0.4004937633
 40
0.4164274113
 40
0.4323167209
 40
0.4481590804
 40
0.4639523087
 40
0.4796946798
 40
0.495384943
 40
0.5110223396
 40
0.5266066146
 40
0.542138025
 40
0.5576173419
 40
0.5730458487
 40
0.588425333
 40
0.6037580741
 40
0.6190468241
 40
0.6342947845
 40
0.6495055768
 40
0.6646832082
 40
0.6798320326
 40
0.6949567066
 40
0.7100621427
 40
0.7251534575
 40
0.7402359181
 40
0.7553148863
 40
0.7703957614
 40
0.7854839222
 40
0.8005846694
 40
0.8157031697
 40
0.830844401
 40
0.8460131002
 40
0.8612137149
 40
0.8764503584
 40
0.8917267696
 40
0.9070462756
 40
0.9147237278
 40
0.9224129996
 40
0.9301143737
 40
0.9378281062
 40
0.9532923541
 40
0.9688083027
 40
0.976586557
 40
0.9843782719
 40
1.0
 40
1.0
 40
1.0
 40
1.0
 10
10.2345385099
 20
9.2567734835
 30
0.0
 10
10.2526163601
 20
9.2555197804
 30
0.0
 10
10.2797166565
 20
9.2529728233
 30
0.0
 10
10.3157170596
 20
9.2482636698
 30
0.0
 10
10.3517122801
 20
9.2426669839
 30
0.0
 10
10.3965443535
 20
9.2340248499
 30
0.0
 10
10.4409807275
 20
9.2232291607
 30
0.0
 10
10.4762699129
 20
9.2133103959
 30
0.0
 10
10.5114162924
 20
9.2025256017
 30
0.0
 10
10.5549455383
 20
9.1874576124
 30
0.0
 10
10.6063687749
 20
9.1668998312
 30
0.0
 10
10.6568965195
 20
9.1439017335
 30
0.0
 10
10.7064064005
 20
9.1185189591
 30
0.0
 10
10.7547794602
 20
9.0908126166
 30
0.0
 10
10.8018992201
 20
9.0608494652
 30
0.0
 10
10.847652289
 20
9.0287016701
 30
0.0
 10
10.8919285493
 20
8.9944466544
 30
0.0
 10
10.9346214404
 20
8.9581669007
 30
0.0
 10
10.9756282081
 20
8.9199497565
 30
0.0
 10
11.0148501519
 20
8.8798872241
 30
0.0
 10
11.0521928613
 20
8.8380757396
 30
0.0
 10
11.0875664417
 20
8.794615943
 30
0.0
 10
11.1208857298
 20
8.7496124362
 30
0.0
 10
11.1520704977
 20
8.7031735334
 30
0.0
 10
11.1810456455
 20
8.6554110014
 30
0.0
 10
11.2077413803
 20
8.6064397918
 30
0.0
 10
11.2320933904
 20
8.5563777691
 30
0.0
 10
11.2540429974
 20
8.5053454261
 30
0.0
 10
11.273537294
 20
8.4534655937
 30
0.0
 10
11.2905292725
 20
8.4008631481
 30
0.0
 10
11.3049779377
 20
8.3476647117
 30
0.0
 10
11.3168484064
 20
8.2939983505
 30
0.0
 10
11.3261119921
 20
8.2399932678
 30
0.0
 10
11.3327462754
 20
8.1857794951
 30
0.0
 10
11.3367351595
 20
8.1314875816
 30
0.0
 10
11.3380689108
 20
8.0772482808
 30
0.0
 10
11.3367441848
 20
8.0231922378
 30
0.0
 10
11.3327640442
 20
7.9694496753
 30
0.0
 10
11.326137947
 20
7.9161500796
 30
0.0
 10
11.3168817264
 20
7.8634218902
 30
0.0
 10
11.3050175561
 20
7.8113921901
 30
0.0
 10
11.2905739001
 20
7.7601863999
 30
0.0
 10
11.2735854477
 20
7.7099279739
 30
0.0
 10
11.2540930331
 20
7.6607381019
 30
0.0
 10
11.2321435399
 20
7.6127354145
 30
0.0
 10
11.2077897914
 20
7.5660356947
 30
0.0
 10
11.1810904247
 20
7.5207515961
 30
0.0
 10
11.1521097538
 20
7.4769923653
 30
0.0
 10
11.1209176183
 20
7.4348635723
 30
0.0
 10
11.0875892082
 20
7.3944668557
 30
0.0
 10
11.0522048833
 20
7.3558996726
 30
0.0
 10
11.0148499776
 20
7.3192550605
 30
0.0
 10
10.9756145913
 20
7.2846214095
 30
0.0
 10
10.9345933708
 20
7.2520822463
 30
0.0
 10
10.8918852779
 20
7.2217160305
 30
0.0
 10
10.847593345
 20
7.1935959637
 30
0.0
 10
10.8018244304
 20
7.1677898132
 30
0.0
 10
10.7546889298
 20
7.1443597452
 30
0.0
 10
10.7063006084
 20
7.1233621868
 30
0.0
 10
10.6567759479
 20
7.1048476256
 30
0.0
 10
10.6062352583
 20
7.0888607499
 30
0.0
 10
10.5634012829
 20
7.0776843996
 30
0.0
 10
10.5287555434
 20
7.0700406978
 30
0.0
 10
10.5025731009
 20
7.0649561441
 30
0.0
 10
10.4762293017
 20
7.0605273472
 30
0.0
 10
10.4408832902
 20
7.0554965326
 30
0.0
 10
10.396370434
 20
7.0508633773
 30
0.0
 10
10.3516079905
 20
7.0484505982
 30
0.0
 10
10.3156718142
 20
7.0478489456
 30
0.0
 10
10.2796101618
 20
7.0481350409
 30
0.0
 10
10.252555241
 20
7.049349371
 30
0.0
 10
10.2345385099
 20
7.0505988356
 30
0.0
  0
SPLINE
  5
3DD
100
AcDbEntity
  8
0
100
AcDbSpline
 62
7
  6
CONTINUOUS
 70
0
 71
3
 72
39
 73
35
 74
0
 42
0.0000001
 43
0.0000001
 44
0.0000000001
 40
0.0
 40
0.0
 40
0.0
 40
0.0
 40
0.0173215504
 40
0.0344402876
 40
0.0515567626
 40
0.0688646786
 40
0.0865459811
 40
0.1047666013
 40
0.1236750666
 40
0.1434016763
 40
0.1640603116
 40
0.1857492852
 40
0.2085544131
 40
0.2325500507
 40
0.2578019541
 40
0.2843678209
 40
0.3122992188
 40
0.3416416018
 40
0.3724352721
 40
0.4047143356
 40
0.438507087
 40
0.4738330499
 40
0.5107030568
 40
0.5491141458
 40
0.5890474173
 40
0.6304643961
 40
0.6732994158
 40
0.717456612
 40
0.762804736
 40
0.8091718045
 40
0.8563444513
 40
0.9040676018
 40
0.952058301
 40
1.0
 40
1.0
 40
1.0
 40
1.0
 10
9.8303643765
 20
7.5423912778
 30
0.0
 10
9.8307450849
 20
7.543261105
 30
0.0
 10
9.831601165
 20
7.5449493099
 30
0.0
 10
9.8331680417
 20
7.547308691
 30
0.0
 10
9.8349980273
 20
7.5494696514
 30
0.0
 10
9.837083408
 20
7.5514299561
 30
0.0
 10
9.8394171821
 20
7.5531885228
 30
0.0
 10
9.8419930277
 20
7.5547445433
 30
0.0
 10
9.8448054474
 20
7.5560974421
 30
0.0
 10
9.8478497626
 20
7.5572466655
 30
0.0
 10
9.8511220426
 20
7.5581914223
 30
0.0
 10
9.8546189929
 20
7.5589307545
 30
0.0
 10
9.8583378605
 20
7.5594632504
 30
0.0
 10
9.8622763357
 20
7.5597872916
 30
0.0
 10
9.8664324493
 20
7.5599007514
 30
0.0
 10
9.870804495
 20
7.5598012832
 30
0.0
 10
9.8753908865
 20
7.5594860668
 30
0.0
 10
9.8801900693
 20
7.5589520462
 30
0.0
 10
9.885200309
 20
7.5581958069
 30
0.0
 10
9.8904195447
 20
7.5572137158
 30
0.0
 10
9.8958450618
 20
7.556002003
 30
0.0
 10
9.9014732384
 20
7.5545568199
 30
0.0
 10
9.9072990677
 20
7.5528745485
 30
0.0
 10
9.9133156939
 20
7.550951907
 30
0.0
 10
9.9195138583
 20
7.5487864242
 30
0.0
 10
9.9258811699
 20
7.5463767436
 30
0.0
 10
9.9324014461
 20
7.5437232394
 30
0.0
 10
9.9390539755
 20
7.5408285934
 30
0.0
 10
9.945812937
 20
7.5376983922
 30
0.0
 10
9.9526470215
 20
7.5343418093
 30
0.0
 10
9.9595193022
 20
7.5307721504
 30
0.0
 10
9.9663881404
 20
7.5270070003
 30
0.0
 10
9.9732076233
 20
7.5230682715
 30
0.0
 10
9.9777015212
 20
7.5203363492
 30
0.0
 10
9.9799313692
 20
7.5189456837
 30
0.0
  0
SPLINE
  5
3DE
100
AcDbEntity
  8
0
100
AcDbSpline
 62
7
  6
CONTINUOUS
 70
0
 71
3
 72
39
 73
35
 74
0
 42
0.0000001
 43
0.0000001
 44
0.0000000001
 40
0.0
 40
0.0
 40
0.0
 40
0.0
 40
0.0306729027
 40
0.0614498476
 40
0.0923258199
 40
0.1232994902
 40
0.1543663149
 40
0.1855214594
 40
0.2167593029
 40
0.2480733926
 40
0.2794566298
 40
0.3109012849
 40
0.3423990884
 40
0.3739413052
 40
0.4055188049
 40
0.437122147
 40
0.4687416705
 40
0.5003675737
 40
0.5319899949
 40
0.5635991029
 40
0.5951851868
 40
0.6267387359
 40
0.6582505191
 40
0.6897116734
 40
0.7211137867
 40
0.7524489664
 40
0.7837099113
 40
0.8148899995
 40
0.8459833007
 40
0.8769847573
 40
0.9078901352
 40
0.9386955258
 40
0.9694002558
 40
1.0
 40
1.0
 40
1.0
 40
1.0
 10
11.3530807456
 20
9.4940942591
 30
0.0
 10
11.3639716038
 20
9.4933389755
 30
0.0
 10
11.3857568947
 20
9.4912915123
 30
0.0
 10
11.4182975043
 20
9.4866319187
 30
0.0
 10
11.450681549
 20
9.4803892124
 30
0.0
 10
11.4828295432
 20
9.4725791054
 30
0.0
 10
11.5146647486
 20
9.4632200531
 30
0.0
 10
11.5461103249
 20
9.4523348188
 30
0.0
 10
11.5770906365
 20
9.4399496897
 30
0.0
 10
11.6075311054
 20
9.4260944832
 30
0.0
 10
11.6373584308
 20
9.4108025487
 30
0.0
 10
11.6665008535
 20
9.3941107953
 30
0.0
 10
11.6948882491
 20
9.3760594537
 30
0.0
 10
11.7224522882
 20
9.3566919811
 30
0.0
 10
11.7491265887
 20
9.3360549636
 30
0.0
 10
11.7748469908
 20
9.3141981493
 30
0.0
 10
11.7995516072
 20
9.2911741753
 30
0.0
 10
11.823180962
 20
9.2670384484
 30
0.0
 10
11.8456781249
 20
9.2418490215
 30
0.0
 10
11.8669889878
 20
9.2156665743
 30
0.0
 10
11.8870622647
 20
9.1885541369
 30
0.0
 10
11.9058496067
 20
9.1605769472
 30
0.0
 10
11.9233057109
 20
9.1318023047
 30
0.0
 10
11.9393885905
 20
9.1022995023
 30
0.0
 10
11.9540595223
 20
9.072139554
 30
0.0
 10
11.9672831343
 20
9.0413950369
 30
0.0
 10
11.9790274891
 20
9.0101399254
 30
0.0
 10
11.9892643162
 20
8.9784494818
 30
0.0
 10
11.9979689656
 20
8.9463999954
 30
0.0
 10
12.005120391
 20
8.9140685634
 30
0.0
 10
12.0107011541
 20
8.8815332389
 30
0.0
 10
12.0146981174
 20
8.8488716731
 30
0.0
 10
12.0171010781
 20
8.8161640726
 30
0.0
 10
12.0176377535
 20
8.7943410441
 30
0.0
 10
12.0176377535
 20
8.7834500662
 30
0.0
  0
SPLINE
  5
3DF
100
AcDbEntity
  8
0
100
AcDbSpline
 62
7
  6
CONTINUOUS
 70
0
 71
3
 72
76
 73
72
 74
0
 42
0.0000001
 43
0.0000001
 44
0.0000000001
 40
0.0
 40
0.0
 40
0.0
 40
0.0
 40
0.0156747225
 40
0.0235325474
 40
0.0314031326
 40
0.0471815238
 40
0.0630096701
 40
0.0709422968
 40
0.0788865451
 40
0.0948074601
 40
0.1107706215
 40
0.1267727505
 40
0.1428102138
 40
0.1588790639
 40
0.1749750748
 40
0.1910937806
 40
0.2072305163
 40
0.2233804589
 40
0.2395386705
 40
0.2557001411
 40
0.2718598323
 40
0.2880127214
 40
0.3041538447
 40
0.3202783411
 40
0.3363814948
 40
0.3524587772
 40
0.3685058876
 40
0.3845187926
 40
0.4004937633
 40
0.4164274113
 40
0.4323167209
 40
0.4481590804
 40
0.4639523087
 40
0.4796946798
 40
0.495384943
 40
0.5110223396
 40
0.5266066146
 40
0.542138025
 40
0.5576173419
 40
0.5730458487
 40
0.588425333
 40
0.6037580741
 40
0.6190468241
 40
0.6342947845
 40
0.6495055768
 40
0.6646832082
 40
0.6798320326
 40
0.6949567066
 40
0.7100621427
 40
0.7251534575
 40
0.7402359181
 40
0.7553148863
 40
0.7703957614
 40
0.7854839222
 40
0.8005846694
 40
0.8157031697
 40
0.830844401
 40
0.8460131002
 40
0.8612137149
 40
0.8764503584
 40
0.8917267696
 40
0.9070462756
 40
0.9147237278
 40
0.9224129996
 40
0.9301143737
 40
0.9378281062
 40
0.9532923541
 40
0.9688083027
 40
0.976586557
 40
0.9843782719
 40
1.0
 40
1.0
 40
1.0
 40
1.0
 10
10.2345385099
 20
7.0505988356
 30
0.0
 10
10.2164606597
 20
7.0518525388
 30
0.0
 10
10.1893603632
 20
7.0543994959
 30
0.0
 10
10.1533599601
 20
7.0591086494
 30
0.0
 10
10.1173647396
 20
7.0647053352
 30
0.0
 10
10.0725326663
 20
7.0733474693
 30
0.0
 10
10.0280962923
 20
7.0841431584
 30
0.0
 10
9.9928071068
 20
7.0940619233
 30
0.0
 10
9.9576607273
 20
7.1048467175
 30
0.0
 10
9.9141314814
 20
7.1199147068
 30
0.0
 10
9.8627082448
 20
7.140472488
 30
0.0
 10
9.8121805002
 20
7.1634705856
 30
0.0
 10
9.7626706192
 20
7.18885336
 30
0.0
 10
9.7142975595
 20
7.2165597026
 30
0.0
 10
9.6671777997
 20
7.2465228539
 30
0.0
 10
9.6214247307
 20
7.278670649
 30
0.0
 10
9.5771484704
 20
7.3129256648
 30
0.0
 10
9.5344555793
 20
7.3492054185
 30
0.0
 10
9.4934488117
 20
7.3874225626
 30
0.0
 10
9.4542268678
 20
7.4274850951
 30
0.0
 10
9.4168841584
 20
7.4692965795
 30
0.0
 10
9.381510578
 20
7.5127563762
 30
0.0
 10
9.3481912899
 20
7.5577598829
 30
0.0
 10
9.317006522
 20
7.6041987857
 30
0.0
 10
9.2880313742
 20
7.6519613178
 30
0.0
 10
9.2613356394
 20
7.7009325273
 30
0.0
 10
9.2369836293
 20
7.75099455
 30
0.0
 10
9.2150340223
 20
7.8020268931
 30
0.0
 10
9.1955397257
 20
7.8539067255
 30
0.0
 10
9.1785477472
 20
7.906509171
 30
0.0
 10
9.164099082
 20
7.9597076074
 30
0.0
 10
9.1522286134
 20
8.0133739686
 30
0.0
 10
9.1429650277
 20
8.0673790514
 30
0.0
 10
9.1363307443
 20
8.121592824
 30
0.0
 10
9.1323418602
 20
8.1758847376
 30
0.0
 10
9.1310081089
 20
8.2301240384
 30
0.0
 10
9.1323328349
 20
8.2841800813
 30
0.0
 10
9.1363129755
 20
8.3379226438
 30
0.0
 10
9.1429390728
 20
8.3912222395
 30
0.0
 10
9.1521952933
 20
8.443950429
 30
0.0
 10
9.1640594636
 20
8.495980129
 30
0.0
 10
9.1785031196
 20
8.5471859193
 30
0.0
 10
9.195491572
 20
8.5974443452
 30
0.0
 10
9.2149839866
 20
8.6466342173
 30
0.0
 10
9.2369334798
 20
8.6946369047
 30
0.0
 10
9.2612872283
 20
8.7413366244
 30
0.0
 10
9.2879865951
 20
8.7866207231
 30
0.0
 10
9.316967266
 20
8.8303799539
 30
0.0
 10
9.3481594015
 20
8.8725087468
 30
0.0
 10
9.3814878115
 20
8.9129054635
 30
0.0
 10
9.4168721364
 20
8.9514726466
 30
0.0
 10
9.4542270422
 20
8.9881172587
 30
0.0
 10
9.4934624285
 20
9.0227509096
 30
0.0
 10
9.5344836489
 20
9.0552900728
 30
0.0
 10
9.5771917418
 20
9.0856562887
 30
0.0
 10
9.6214836748
 20
9.1137763555
 30
0.0
 10
9.6672525893
 20
9.1395825059
 30
0.0
 10
9.71438809
 20
9.1630125739
 30
0.0
 10
9.7627764114
 20
9.1840101324
 30
0.0
 10
9.8123010718
 20
9.2025246935
 30
0.0
 10
9.8628417614
 20
9.2185115692
 30
0.0
 10
9.9056757369
 20
9.2296879195
 30
0.0
 10
9.9403214763
 20
9.2373316214
 30
0.0
 10
9.9665039189
 20
9.242416175
 30
0.0
 10
9.992847718
 20
9.246844972
 30
0.0
 10
10.0281937295
 20
9.2518757865
 30
0.0
 10
10.0727065857
 20
9.2565089418
 30
0.0
 10
10.1174690292
 20
9.2589217209
 30
0.0
 10
10.1534052055
 20
9.2595233736
 30
0.0
 10
10.1894668579
 20
9.2592372782
 30
0.0
 10
10.2165217787
 20
9.2580229481
 30
0.0
 10
10.2345385099
 20
9.2567734835
 30
0.0
  0
SPLINE
  5
3E0
100
AcDbEntity
  8
0
100
AcDbSpline
 62
7
  6
CONTINUOUS
 70
0
 71
3
 72
45
 73
41
 74
0
 42
0.0000001
 43
0.0000001
 44
0.0000000001
 40
0.0
 40
0.0
 40
0.0
 40
0.0
 40
0.0309573159
 40
0.0620483458
 40
0.0932690642
 40
0.1246127218
 40
0.1560709882
 40
0.1876336536
 40
0.2192889396
 40
0.2510236574
 40
0.2828234249
 40
0.3146728874
 40
0.3465559522
 40
0.3784560289
 40
0.410356276
 40
0.4422398495
 40
0.4740901517
 40
0.5058910774
 40
0.5376272549
 40
0.5692842798
 40
0.6008489379
 40
0.6323094152
 40
0.663655491
 40
0.6948787119
 40
0.7259725439
 40
0.7569324982
 40
0.7877562292
 40
0.8184436002
 40
0.8337387346
 40
0.8490007566
 40
0.8642302792
 40
0.8794280497
 40
0.8945949556
 40
0.9097320095
 40
0.9248403597
 40
0.9399212722
 40
0.9549761372
 40
0.9700064564
 40
0.9850138396
 40
1.0
 40
1.0
 40
1.0
 40
1.0
 10
9.1488379771
 20
7.1413472125
 30
0.0
 10
9.168150247
 20
7.1400079021
 30
0.0
 10
9.2067835437
 20
7.1360876748
 30
0.0
 10
9.2643590835
 20
7.1265465437
 30
0.0
 10
9.3214629905
 20
7.1133705427
 30
0.0
 10
9.3778590594
 20
7.0966138536
 30
0.0
 10
9.4333177502
 20
7.0763452804
 30
0.0
 10
9.4876124462
 20
7.0526478243
 30
0.0
 10
9.5405215597
 20
7.0256184963
 30
0.0
 10
9.5918291057
 20
6.9953678455
 30
0.0
 10
9.6413256629
 20
6.9620195346
 30
0.0
 10
9.688809203
 20
6.9257098391
 30
0.0
 10
9.7340859133
 20
6.8865870906
 30
0.0
 10
9.776970975
 20
6.8448110667
 30
0.0
 10
9.817289312
 20
6.8005523453
 30
0.0
 10
9.8548762996
 20
6.7539916132
 30
0.0
 10
9.8895784312
 20
6.7053189344
 30
0.0
 10
9.9212539414
 20
6.6547329812
 30
0.0
 10
9.9497733796
 20
6.60244023
 30
0.0
 10
9.9750201414
 20
6.5486541289
 30
0.0
 10
9.9968909528
 20
6.493594238
 30
0.0
 10
10.0152962772
 20
6.4374853305
 30
0.0
 10
10.0301606864
 20
6.3805564998
 30
0.0
 10
10.0414231646
 20
6.3230401833
 30
0.0
 10
10.0490373861
 20
6.2651714126
 30
0.0
 10
10.0529718236
 20
6.2071861629
 30
0.0
 10
10.0532102157
 20
6.1493229962
 30
0.0
 10
10.0503238212
 20
6.1013437967
 30
0.0
 10
10.0461676966
 20
6.0632661335
 30
0.0
 10
10.0421364021
 20
6.0349140342
 30
0.0
 10
10.0371917613
 20
6.0067689677
 30
0.0
 10
10.0313387885
 20
5.9788593385
 30
0.0
 10
10.0245835679
 20
5.951213764
 30
0.0
 10
10.0169328063
 20
5.9238605356
 30
0.0
 10
10.0083945557
 20
5.8968275701
 30
0.0
 10
9.9989772744
 20
5.8701425863
 30
0.0
 10
9.9886908355
 20
5.843832823
 30
0.0
 10
9.9775455063
 20
5.8179251607
 30
0.0
 10
9.9655529988
 20
5.7924464233
 30
0.0
 10
9.9569951194
 20
5.7757518744
 30
0.0
 10
9.9525795566
 20
5.7674859778
 30
0.0
  0
SPLINE
  5
3E1
100
AcDbEntity
  8
0
100
AcDbSpline
 62
7
  6
CONTINUOUS
 70
0
 71
3
 72
39
 73
35
 74
0
 42
0.0000001
 43
0.0000001
 44
0.0000000001
 40
0.0
 40
0.0
 40
0.0
 40
0.0
 40
0.0306730466
 40
0.0614497887
 40
0.0923258225
 40
0.1232995021
 40
0.1543663057
 40
0.185521462
 40
0.2167593041
 40
0.2480733921
 40
0.2794566283
 40
0.310901285
 40
0.3423990901
 40
0.3739413052
 40
0.405518803
 40
0.4371221471
 40
0.4687416723
 40
0.5003675737
 40
0.5319899931
 40
0.5635991029
 40
0.5951851887
 40
0.6267387358
 40
0.6582505174
 40
0.6897116734
 40
0.7211137882
 40
0.7524489668
 40
0.78370991
 40
0.814889997
 40
0.84598331
 40
0.8769847454
 40
0.9078901327
 40
0.9386955846
 40
0.9694001122
 40
1.0
 40
1.0
 40
1.0
 40
1.0
 10
11.3691275132
 20
9.569481652
 30
0.0
 10
11.3809998707
 20
9.5686583012
 30
0.0
 10
11.4047483508
 20
9.5664263532
 30
0.0
 10
11.4402213955
 20
9.5613468197
 30
0.0
 10
11.4755237204
 20
9.5545415594
 30
0.0
 10
11.5105687896
 20
9.5460276243
 30
0.0
 10
11.5452728723
 20
9.5358251936
 30
0.0
 10
11.5795522043
 20
9.5239590248
 30
0.0
 10
11.6133243384
 20
9.5104577639
 30
0.0
 10
11.64650798
 20
9.4953539639
 30
0.0
 10
11.6790232581
 20
9.4786840273
 30
0.0
 10
11.7107918904
 20
9.4604880761
 30
0.0
 10
11.7417374324
 20
9.4408099811
 30
0.0
 10
11.7717854216
 20
9.4196971606
 30
0.0
 10
11.800863543
 20
9.3972004554
 30
0.0
 10
11.8289017923
 20
9.3733740072
 30
0.0
 10
11.8558326679
 20
9.3482751649
 30
0.0
 10
11.8815913806
 20
9.3219643874
 30
0.0
 10
11.906115935
 20
9.2945050126
 30
0.0
 10
11.9293472889
 20
9.2659631273
 30
0.0
 10
11.9512294727
 20
9.236407399
 30
0.0
 10
11.9717098143
 20
9.2059089799
 30
0.0
 10
11.9907390223
 20
9.1745412906
 30
0.0
 10
12.0082712661
 20
9.1423798232
 30
0.0
 10
12.0242642866
 20
9.1095019697
 30
0.0
 10
12.0386795094
 20
9.0759868496
 30
0.0
 10
12.0514822363
 20
9.0419151518
 30
0.0
 10
12.0626415987
 20
9.0073688891
 30
0.0
 10
12.0721306765
 20
8.9724312251
 30
0.0
 10
12.0799265368
 20
8.9371861994
 30
0.0
 10
12.0860102266
 20
8.9017188945
 30
0.0
 10
12.0903673693
 20
8.8661140401
 30
0.0
 10
12.0929869108
 20
8.8304589536
 30
0.0
 10
12.0935719258
 20
8.8066693368
 30
0.0
 10
12.0935719258
 20
8.7947968487
 30
0.0
  0
SPLINE
  5
3E2
100
AcDbEntity
  8
0
100
AcDbSpline
 62
7
  6
CONTINUOUS
 70
0
 71
3
 72
26
 73
22
 74
0
 42
0.0000001
 43
0.0000001
 44
0.0000000001
 40
0.0
 40
0.0
 40
0.0
 40
0.0
 40
0.0617962693
 40
0.123557293
 40
0.1853137814
 40
0.2470965119
 40
0.3089358714
 40
0.370861405
 40
0.4329013815
 40
0.495082383
 40
0.5574289266
 40
0.6199631235
 40
0.6513103267
 40
0.6827114775
 40
0.7141685452
 40
0.7456832722
 40
0.8088848405
 40
0.8723332366
 40
0.9041551958
 40
0.936041719
 40
1.0
 40
1.0
 40
1.0
 40
1.0
 10
8.4256320528
 20
6.8299648922
 30
0.0
 10
8.4361057146
 20
6.8431992095
 30
0.0
 10
8.4578729301
 20
6.8690186947
 30
0.0
 10
8.4928544662
 20
6.9056377565
 30
0.0
 10
8.5300404522
 20
6.9400135457
 30
0.0
 10
8.5693042353
 20
6.9720284966
 30
0.0
 10
8.6105141797
 20
7.0015755273
 30
0.0
 10
8.6535315791
 20
7.028555226
 30
0.0
 10
8.6982116909
 20
7.0528770071
 30
0.0
 10
8.7444045455
 20
7.0744593183
 30
0.0
 10
8.7919536477
 20
7.0932294771
 30
0.0
 10
8.8325463617
 20
7.1064658946
 30
0.0
 10
8.8655274231
 20
7.1155922568
 30
0.0
 10
8.8905233014
 20
7.1217060626
 30
0.0
 10
8.9157359422
 20
7.1270771984
 30
0.0
 10
8.949642776
 20
7.1332483092
 30
0.0
 10
8.9924713558
 20
7.1390806836
 30
0.0
 10
9.0356524975
 20
7.1423804633
 30
0.0
 10
9.0703669636
 20
7.1435043017
 30
0.0
 10
9.1052377412
 20
7.1436153678
 30
0.0
 10
9.1314120146
 20
7.1425557071
 30
0.0
 10
9.1488379771
 20
7.1413472125
 30
0.0
  0
SPLINE
  5
3E3
100
AcDbEntity
  8
0
100
AcDbSpline
 62
7
  6
CONTINUOUS
 70
0
 71
3
 72
85
 73
81
 74
0
 42
0.0000001
 43
0.0000001
 44
0.0000000001
 40
0.0
 40
0.0
 40
0.0
 40
0.0
 40
0.0039765786
 40
0.0081592872
 40
0.0125539951
 40
0.0171652245
 40
0.0219963368
 40
0.0270495842
 40
0.0323258337
 40
0.0378250703
 40
0.0435464621
 40
0.0494883812
 40
0.0556486908
 40
0.0620245639
 40
0.0686127215
 40
0.0754094861
 40
0.0896115731
 40
0.1045949263
 40
0.1203191057
 40
0.1367408078
 40
0.1538148303
 40
0.1714948035
 40
0.1897337969
 40
0.2084848829
 40
0.227701494
 40
0.2473376857
 40
0.2673484689
 40
0.2876899188
 40
0.3083191979
 40
0.3291947588
 40
0.3502762895
 40
0.3929011444
 40
0.4358952785
 40
0.4789759819
 40
0.5218742394
 40
0.5643315748
 40
0.6060967644
 40
0.6266428266
 40
0.6469233445
 40
0.6669076032
 40
0.6865647871
 40
0.7058639812
 40
0.7247740363
 40
0.7432636145
 40
0.761301158
 40
0.7788548461
 40
0.7958927484
 40
0.8123828103
 40
0.8282930167
 40
0.8435916398
 40
0.8582474241
 40
0.8722300278
 40
0.8855105393
 40
0.8980621288
 40
0.9040573032
 40
0.9098616718
 40
0.9154729624
 40
0.9208892783
 40
0.9261091516
 40
0.9311316696
 40
0.9359565356
 40
0.9405841667
 40
0.9450159075
 40
0.9492541029
 40
0.9533023181
 40
0.9571656212
 40
0.9608507163
 40
0.9643663361
 40
0.9677235153
 40
0.9709358266
 40
0.9740197737
 40
0.9769948512
 40
0.979883607
 40
0.9827114341
 40
0.9855060198
 40
0.9882965962
 40
0.9911129118
 40
0.9939842011
 40
0.9969380887
 40
1.0
 40
1.0
 40
1.0
 40
1.0
 10
11.1931025089
 20
11.3880285174
 30
0.0
 10
11.1940074127
 20
11.3889025875
 30
0.0
 10
11.1959163257
 20
11.3906425778
 30
0.0
 10
11.198985125
 20
11.3931663543
 30
0.0
 10
11.2023275538
 20
11.3956664418
 30
0.0
 10
11.2059404176
 20
11.3981407371
 30
0.0
 10
11.2098204399
 20
11.400587601
 30
0.0
 10
11.2139641677
 20
11.4030051396
 30
0.0
 10
11.2183676674
 20
11.4053917502
 30
0.0
 10
11.2230267787
 20
11.4077456145
 30
0.0
 10
11.2279370318
 20
11.4100650117
 30
0.0
 10
11.2330936589
 20
11.4123484205
 30
0.0
 10
11.2384917347
 20
11.4145941447
 30
0.0
 10
11.2441260257
 20
11.4168007665
 30
0.0
 10
11.2499911418
 20
11.418966841
 30
0.0
 10
11.2582327283
 20
11.4218410876
 30
0.0
 10
11.2690772257
 20
11.4253114691
 30
0.0
 10
11.2827349627
 20
11.4292357463
 30
0.0
 10
11.2971722525
 20
11.432969956
 30
0.0
 10
11.3123389253
 20
11.4365066872
 30
0.0
 10
11.3281843882
 20
11.4398395614
 30
0.0
 10
11.3446578433
 20
11.4429632019
 30
0.0
 10
11.3617087684
 20
11.4458731882
 30
0.0
 10
11.3792872321
 20
11.4485660139
 30
0.0
 10
11.397344173
 20
11.4510389391
 30
0.0
 10
11.415831607
 20
11.453289927
 30
0.0
 10
11.4347027722
 20
11.455317617
 30
0.0
 10
11.4539122279
 20
11.4571211946
 30
0.0
 10
11.4734159
 20
11.4587003026
 30
0.0
 10
11.4931711339
 20
11.4600550717
 30
0.0
 10
11.5198889444
 20
11.4615682926
 30
0.0
 10
11.5536240849
 20
11.4628928354
 30
0.0
 10
11.5943391681
 20
11.4635976421
 30
0.0
 10
11.6351465205
 20
11.4634346666
 30
0.0
 10
11.6757715955
 20
11.4624175063
 30
0.0
 10
11.7159502799
 20
11.4605612761
 30
0.0
 10
11.7490239525
 20
11.4583170985
 30
0.0
 10
11.7750612393
 20
11.4561067946
 30
0.0
 10
11.7942120635
 20
11.4542581344
 30
0.0
 10
11.8130599515
 20
11.4522120532
 30
0.0
 10
11.8315729933
 20
11.4499710673
 30
0.0
 10
11.8497189398
 20
11.4475378391
 30
0.0
 10
11.8674651841
 20
11.4449152035
 30
0.0
 10
11.8847786664
 20
11.4421061715
 30
0.0
 10
11.9016258169
 20
11.4391139626
 30
0.0
 10
11.9179725253
 20
11.4359420742
 30
0.0
 10
11.9337840865
 20
11.4325942683
 30
0.0
 10
11.9490252096
 20
11.42907465
 30
0.0
 10
11.9636600279
 20
11.4253877255
 30
0.0
 10
11.9776521289
 20
11.4215383918
 30
0.0
 10
11.9909646256
 20
11.4175320487
 30
0.0
 10
12.003560347
 20
11.4133746412
 30
0.0
 10
12.0154016798
 20
11.4090726376
 30
0.0
 10
12.0247476013
 20
11.4053178408
 30
0.0
 10
12.0318097856
 20
11.40223761
 30
0.0
 10
12.0368125869
 20
11.399931135
 30
0.0
 10
12.0415982051
 20
11.3975940696
 30
0.0
 10
12.0461620598
 20
11.3952275546
 30
0.0
 10
12.0504995688
 20
11.3928327007
 30
0.0
 10
12.0546062689
 20
11.3904107465
 30
0.0
 10
12.0584777846
 20
11.3879629764
 30
0.0
 10
12.0621097661
 20
11.3854905961
 30
0.0
 10
12.0654980704
 20
11.3829950026
 30
0.0
 10
12.0686386254
 20
11.3804775322
 30
0.0
 10
12.071527435
 20
11.3779394843
 30
0.0
 10
12.0741607844
 20
11.3753823443
 30
0.0
 10
12.0765349352
 20
11.3728074098
 30
0.0
 10
12.0786463379
 20
11.3702160714
 30
0.0
 10
12.0804916605
 20
11.3676097929
 30
0.0
 10
12.0820673927
 20
11.3649898765
 30
0.0
 10
12.0833703986
 20
11.3623579268
 30
0.0
 10
12.0843974592
 20
11.3597155775
 30
0.0
 10
12.0851453676
 20
11.3570647303
 30
0.0
 10
12.0856115521
 20
11.3544077303
 30
0.0
 10
12.0857933791
 20
11.3517471763
 30
0.0
 10
12.0856892049
 20
11.349086032
 30
0.0
 10
12.0852980508
 20
11.3464273115
 30
0.0
 10
12.084619353
 20
11.3437739364
 30
0.0
 10
12.0836538372
 20
11.3411287252
 30
0.0
 10
12.0828357304
 20
11.339406899
 30
0.0
 10
12.0823832593
 20
11.3385503313
 30
0.0
  0
SPLINE
  5
3E4
100
AcDbEntity
  8
0
100
AcDbSpline
 62
7
  6
CONTINUOUS
 70
0
 71
3
 72
41
 73
37
 74
0
 42
0.0000001
 43
0.0000001
 44
0.0000000001
 40
0.0
 40
0.0
 40
0.0
 40
0.0
 40
0.0318705743
 40
0.063634638
 40
0.0952908034
 40
0.1268435451
 40
0.1425832863
 40
0.158298473
 40
0.1896552613
 40
0.2209221107
 40
0.2521055347
 40
0.283212946
 40
0.3142525389
 40
0.3452332193
 40
0.3761645126
 40
0.4070564619
 40
0.4379195303
 40
0.4687644916
 40
0.4996023129
 40
0.5304440338
 40
0.5613006525
 40
0.5921830111
 40
0.6231016779
 40
0.6540668322
 40
0.6850881586
 40
0.7161747543
 40
0.7473350336
 40
0.7785766416
 40
0.8099063908
 40
0.8413301516
 40
0.8570801326
 40
0.8728554293
 40
0.9044812253
 40
0.936212405
 40
0.9680527092
 40
1.0
 40
1.0
 40
1.0
 40
1.0
 10
12.0176377535
 20
5.58430354
 30
0.0
 10
12.0176377535
 20
5.5734495611
 30
0.0
 10
12.0171065178
 20
5.55177405
 30
0.0
 10
12.0147088098
 20
5.5193973126
 30
0.0
 10
12.0107168397
 20
5.4872868133
 30
0.0
 10
12.0060659233
 20
5.4607925698
 30
0.0
 10
12.0015582765
 20
5.4398111722
 30
0.0
 10
11.9965373908
 20
5.4190153162
 30
0.0
 10
11.9892911396
 20
5.3933258278
 30
0.0
 10
11.9790565158
 20
5.36304785
 30
0.0
 10
11.9673132748
 20
5.3334132268
 30
0.0
 10
11.954089736
 20
5.3044939553
 30
0.0
 10
11.9394177549
 20
5.2763596286
 30
0.0
 10
11.9233326881
 20
5.2490781335
 30
0.0
 10
11.9058732572
 20
5.2227152841
 30
0.0
 10
11.8870814759
 20
5.1973347299
 30
0.0
 10
11.8670027033
 20
5.172997663
 30
0.0
 10
11.8456853677
 20
5.1497627781
 30
0.0
 10
11.8231808569
 20
5.1276861399
 30
0.0
 10
11.7995434036
 20
5.1068210557
 30
0.0
 10
11.7748300805
 20
5.087217794
 30
0.0
 10
11.7491005198
 20
5.0689236001
 30
0.0
 10
11.7224167768
 20
5.0519825913
 30
0.0
 10
11.6948431901
 20
5.0364356571
 30
0.0
 10
11.6664463217
 20
5.0223201869
 30
0.0
 10
11.6372946692
 20
5.0096701441
 30
0.0
 10
11.6074585674
 20
4.9985160001
 30
0.0
 10
11.5770098155
 20
4.9888846244
 30
0.0
 10
11.5460223642
 20
4.9807992011
 30
0.0
 10
11.5198313251
 20
4.9753696524
 30
0.0
 10
11.4986878723
 20
4.9718152256
 30
0.0
 10
11.4773935232
 20
4.968784286
 30
0.0
 10
11.4505765657
 20
4.9659931479
 30
0.0
 10
11.4181896019
 20
4.9642473017
 30
0.0
 10
11.3856469605
 20
4.9641064768
 30
0.0
 10
11.3639347817
 20
4.9650809872
 30
0.0
 10
11.3530807456
 20
4.9658337171
 30
0.0
  0
SPLINE
  5
3E5
100
AcDbEntity
  8
0
100
AcDbSpline
 62
7
  6
CONTINUOUS
 70
0
 71
3
 72
25
 73
21
 74
0
 42
0.0000001
 43
0.0000001
 44
0.0000000001
 40
0.0
 40
0.0
 40
0.0
 40
0.0
 40
0.0637762839
 40
0.1273436975
 40
0.190700085
 40
0.2538536198
 40
0.2853583847
 40
0.3168148883
 40
0.3795831508
 40
0.4421738332
 40
0.5045991695
 40
0.5668730861
 40
0.6290109869
 40
0.6910296434
 40
0.7220023556
 40
0.7529520811
 40
0.814787183
 40
0.8765598236
 40
0.9382904646
 40
1.0
 40
1.0
 40
1.0
 40
1.0
 10
12.0935719258
 20
5.5956503225
 30
0.0
 10
12.0935719258
 20
5.5840787902
 30
0.0
 10
12.093018049
 20
5.5609697223
 30
0.0
 10
12.0905182033
 20
5.5264465978
 30
0.0
 10
12.0863559787
 20
5.4921975225
 30
0.0
 10
12.0815063039
 20
5.4639278862
 30
0.0
 10
12.0768054904
 20
5.4415316838
 30
0.0
 10
12.0715689014
 20
5.419326506
 30
0.0
 10
12.0640104152
 20
5.3918831268
 30
0.0
 10
12.0533326381
 20
5.3595134348
 30
0.0
 10
12.0410779304
 20
5.3278028539
 30
0.0
 10
12.0272744874
 20
5.2968249189
 30
0.0
 10
12.0119543502
 20
5.2666514129
 30
0.0
 10
11.997946046
 20
5.2422231088
 30
0.0
 10
11.9860197425
 20
5.2231558708
 30
0.0
 10
11.9736286201
 20
5.2044273011
 30
0.0
 10
11.9572616141
 20
5.1816398875
 30
0.0
 10
11.9362603103
 20
5.1553577386
 30
0.0
 10
11.913952268
 20
5.1302063182
 30
0.0
 10
11.8982406429
 20
5.1142285345
 30
0.0
 10
11.8901874619
 20
5.1064497916
 30
0.0
  0
SPLINE
  5
3E6
100
AcDbEntity
  8
0
100
AcDbSpline
 62
7
  6
CONTINUOUS
 70
0
 71
3
 72
49
 73
45
 74
0
 42
0.0000001
 43
0.0000001
 44
0.0000000001
 40
0.0
 40
0.0
 40
0.0
 40
0.0
 40
0.0055575652
 40
0.0111779989
 40
0.0169219414
 40
0.0228458413
 40
0.0290005862
 40
0.0354310054
 40
0.0421754419
 40
0.0492662547
 40
0.0567303348
 40
0.0645894055
 40
0.0728610837
 40
0.081559144
 40
0.0906940366
 40
0.1002736841
 40
0.1103033552
 40
0.1207863534
 40
0.131724296
 40
0.1431169483
 40
0.1549629335
 40
0.167259542
 40
0.1931868013
 40
0.2208582139
 40
0.2502183164
 40
0.281200247
 40
0.3137274299
 40
0.3477148798
 40
0.3830701696
 40
0.4196941701
 40
0.4574819135
 40
0.4963233105
 40
0.5361037302
 40
0.5767045149
 40
0.6180036379
 40
0.6598762574
 40
0.7021952159
 40
0.7448315601
 40
0.7876550186
 40
0.8305347645
 40
0.873339678
 40
0.9159378915
 40
0.9582026976
 40
1.0
 40
1.0
 40
1.0
 40
1.0
 10
9.8217785157
 20
11.8151914195
 30
0.0
 10
9.8217785093
 20
11.8158865602
 30
0.0
 10
9.8218563453
 20
11.8172859139
 30
0.0
 10
9.8222055747
 20
11.8193774881
 30
0.0
 10
9.8227868416
 20
11.8214643931
 30
0.0
 10
9.8235989791
 20
11.8235441989
 30
0.0
 10
9.8246405732
 20
11.8256152679
 30
0.0
 10
9.8259103581
 20
11.8276759378
 30
0.0
 10
9.8274067797
 20
11.8297248535
 30
0.0
 10
9.8291283933
 20
11.8317606344
 30
0.0
 10
9.8310737201
 20
11.8337818418
 30
0.0
 10
9.8332410359
 20
11.8357871713
 30
0.0
 10
9.8356286481
 20
11.8377751136
 30
0.0
 10
9.8382346298
 20
11.8397442104
 30
0.0
 10
9.8410568723
 20
11.8416930305
 30
0.0
 10
9.8440931827
 20
11.843619973
 30
0.0
 10
9.847341092
 20
11.8455235956
 30
0.0
 10
9.8507980049
 20
11.8474023771
 30
0.0
 10
9.8544611647
 20
11.8492547522
 30
0.0
 10
9.8583275791
 20
11.8510793029
 30
0.0
 10
9.8623941488
 20
11.8528745138
 30
0.0
 10
9.8681813979
 20
11.8552694307
 30
0.0
 10
9.8758994832
 20
11.8581688187
 30
0.0
 10
9.8857456957
 20
11.8614500072
 30
0.0
 10
9.8963017174
 20
11.8645809984
 30
0.0
 10
9.9075331678
 20
11.8675514688
 30
0.0
 10
9.919403594
 20
11.8703515915
 30
0.0
 10
9.9318743129
 20
11.8729720891
 30
0.0
 10
9.9449046393
 20
11.8754042643
 30
0.0
 10
9.9584519912
 20
11.8776400787
 30
0.0
 10
9.9724720614
 20
11.8796721403
 30
0.0
 10
9.9869189802
 20
11.8814937234
 30
0.0
 10
10.0017454609
 20
11.8830987881
 30
0.0
 10
10.016902951
 20
11.8844820436
 30
0.0
 10
10.0323418018
 20
11.885638926
 30
0.0
 10
10.0480114418
 20
11.8865656103
 30
0.0
 10
10.0638605381
 20
11.8872590211
 30
0.0
 10
10.079837154
 20
11.8877168804
 30
0.0
 10
10.095888946
 20
11.8879376879
 30
0.0
 10
10.111963331
 20
11.8879207065
 30
0.0
 10
10.128007529
 20
11.8876659671
 30
0.0
 10
10.1439692838
 20
11.8871743654
 30
0.0
 10
10.1597958628
 20
11.8864474474
 30
0.0
 10
10.1702911218
 20
11.8858034078
 30
0.0
 10
10.175506605
 20
11.8854417128
 30
0.0
  0
SPLINE
  5
3E7
100
AcDbEntity
  8
0
100
AcDbSpline
 62
7
  6
CONTINUOUS
 70
0
 71
3
 72
37
 73
33
 74
0
 42
0.0000001
 43
0.0000001
 44
0.0000000001
 40
0.0
 40
0.0
 40
0.0
 40
0.0
 40
0.0958321372
 40
0.1891019121
 40
0.2792425465
 40
0.3657115305
 40
0.4074101378
 40
0.4480031117
 40
0.4874331589
 40
0.5256456456
 40
0.5625894675
 40
0.5982165282
 40
0.6324830688
 40
0.665348975
 40
0.6967793974
 40
0.7267441687
 40
0.7552196034
 40
0.7821883904
 40
0.8076415214
 40
0.8315791003
 40
0.8540125631
 40
0.8749669375
 40
0.894483817
 40
0.9126256757
 40
0.9294802133
 40
0.9451667887
 40
0.9598415117
 40
0.9737025915
 40
0.9804060739
 40
0.98699956
 40
0.9935185817
 40
1.0
 40
1.0
 40
1.0
 40
1.0
 10
10.175506605
 20
11.8854417128
 30
0.0
 10
10.1828255105
 20
11.884934145
 30
0.0
 10
10.1972570683
 20
11.8837716084
 30
0.0
 10
10.2185212007
 20
11.8815524974
 30
0.0
 10
10.2390123782
 20
11.8788931289
 30
0.0
 10
10.255524389
 20
11.8762948335
 30
0.0
 10
10.2682389476
 20
11.8739999692
 30
0.0
 10
10.2773826355
 20
11.8722014906
 30
0.0
 10
10.2862343986
 20
11.8703079815
 30
0.0
 10
10.2947794775
 20
11.8683225401
 30
0.0
 10
10.3030036203
 20
11.8662485898
 30
0.0
 10
10.3108931166
 20
11.8640895235
 30
0.0
 10
10.3184348403
 20
11.8618490758
 30
0.0
 10
10.3256162423
 20
11.8595308983
 30
0.0
 10
10.3324254221
 20
11.8571389949
 30
0.0
 10
10.3388510924
 20
11.8546772594
 30
0.0
 10
10.3448826746
 20
11.8521499015
 30
0.0
 10
10.3505102461
 20
11.8495610272
 30
0.0
 10
10.355724642
 20
11.8469149622
 30
0.0
 10
10.3605174083
 20
11.8442159544
 30
0.0
 10
10.3648808646
 20
11.8414683022
 30
0.0
 10
10.3688080997
 20
11.8386762345
 30
0.0
 10
10.3722928941
 20
11.8358437756
 30
0.0
 10
10.3753297803
 20
11.832974816
 30
0.0
 10
10.3779136159
 20
11.8300728031
 30
0.0
 10
10.3800396994
 20
11.8271408776
 30
0.0
 10
10.3817027018
 20
11.8241825786
 30
0.0
 10
10.382709374
 20
11.821669366
 30
0.0
 10
10.3832662733
 20
11.8196645114
 30
0.0
 10
10.3835616719
 20
11.8181749587
 30
0.0
 10
10.3837390248
 20
11.8166840044
 30
0.0
 10
10.3837785065
 20
11.8156883024
 30
0.0
 10
10.383778511
 20
11.8151921137
 30
0.0
  0
SPLINE
  5
3E8
100
AcDbEntity
  8
0
100
AcDbSpline
 62
7
  6
CONTINUOUS
 70
0
 71
3
 72
39
 73
35
 74
0
 42
0.0000001
 43
0.0000001
 44
0.0000000001
 40
0.0
 40
0.0
 40
0.0
 40
0.0
 40
0.0306729027
 40
0.0614498476
 40
0.0923258199
 40
0.1232994902
 40
0.1543663149
 40
0.1855214594
 40
0.2167593029
 40
0.2480733926
 40
0.2794566298
 40
0.3109012849
 40
0.3423990884
 40
0.3739413052
 40
0.4055188049
 40
0.437122147
 40
0.4687416705
 40
0.5003675737
 40
0.5319899949
 40
0.5635991029
 40
0.5951851868
 40
0.6267387359
 40
0.6582505191
 40
0.6897116734
 40
0.7211137867
 40
0.7524489664
 40
0.7837099113
 40
0.8148899995
 40
0.8459833007
 40
0.8769847573
 40
0.9078901352
 40
0.9386955258
 40
0.9694002558
 40
1.0
 40
1.0
 40
1.0
 40
1.0
 10
8.2138216242
 20
5.1835420766
 30
0.0
 10
8.202930766
 20
5.1842973602
 30
0.0
 10
8.1811454751
 20
5.1863448234
 30
0.0
 10
8.1486048655
 20
5.191004417
 30
0.0
 10
8.1162208208
 20
5.1972471233
 30
0.0
 10
8.0840728266
 20
5.2050572303
 30
0.0
 10
8.0522376212
 20
5.2144162826
 30
0.0
 10
8.0207920449
 20
5.2253015169
 30
0.0
 10
7.9898117333
 20
5.2376866461
 30
0.0
 10
7.9593712644
 20
5.2515418525
 30
0.0
 10
7.929543939
 20
5.266833787
 30
0.0
 10
7.9004015163
 20
5.2835255404
 30
0.0
 10
7.8720141206
 20
5.301576882
 30
0.0
 10
7.8444500816
 20
5.3209443546
 30
0.0
 10
7.8177757811
 20
5.3415813721
 30
0.0
 10
7.792055379
 20
5.3634381864
 30
0.0
 10
7.7673507626
 20
5.3864621604
 30
0.0
 10
7.7437214078
 20
5.4105978873
 30
0.0
 10
7.7212242449
 20
5.4357873142
 30
0.0
 10
7.699913382
 20
5.4619697614
 30
0.0
 10
7.6798401051
 20
5.4890821988
 30
0.0
 10
7.6610527631
 20
5.5170593885
 30
0.0
 10
7.6435966589
 20
5.545834031
 30
0.0
 10
7.6275137793
 20
5.5753368334
 30
0.0
 10
7.6128428475
 20
5.6054967817
 30
0.0
 10
7.5996192355
 20
5.6362412988
 30
0.0
 10
7.5878748807
 20
5.6674964103
 30
0.0
 10
7.5776380536
 20
5.6991868539
 30
0.0
 10
7.5689334042
 20
5.7312363403
 30
0.0
 10
7.5617819788
 20
5.7635677723
 30
0.0
 10
7.5562012157
 20
5.7961030968
 30
0.0
 10
7.5522042524
 20
5.8287646626
 30
0.0
 10
7.5498012917
 20
5.8614722631
 30
0.0
 10
7.5492646163
 20
5.8832952916
 30
0.0
 10
7.5492646163
 20
5.8941862695
 30
0.0
  0
SPLINE
  5
3E9
100
AcDbEntity
  8
0
100
AcDbSpline
 62
7
  6
CONTINUOUS
 70
0
 71
3
 72
49
 73
45
 74
0
 42
0.0000001
 43
0.0000001
 44
0.0000000001
 40
0.0
 40
0.0
 40
0.0
 40
0.0
 40
0.0055575652
 40
0.0111779989
 40
0.0169219414
 40
0.0228458413
 40
0.0290005862
 40
0.0354310054
 40
0.0421754419
 40
0.0492662547
 40
0.0567303348
 40
0.0645894055
 40
0.0728610837
 40
0.081559144
 40
0.0906940366
 40
0.1002736841
 40
0.1103033552
 40
0.1207863534
 40
0.131724296
 40
0.1431169483
 40
0.1549629335
 40
0.167259542
 40
0.1931868013
 40
0.2208582139
 40
0.2502183164
 40
0.281200247
 40
0.3137274299
 40
0.3477148798
 40
0.3830701696
 40
0.4196941701
 40
0.4574819135
 40
0.4963233105
 40
0.5361037302
 40
0.5767045149
 40
0.6180036379
 40
0.6598762574
 40
0.7021952159
 40
0.7448315601
 40
0.7876550186
 40
0.8305347645
 40
0.873339678
 40
0.9159378915
 40
0.9582026976
 40
1.0
 40
1.0
 40
1.0
 40
1.0
 10
13.3222936998
 20
11.5724298669
 30
0.0
 10
13.3222936934
 20
11.5731250076
 30
0.0
 10
13.3223715293
 20
11.5745243613
 30
0.0
 10
13.3227207587
 20
11.5766159356
 30
0.0
 10
13.3233020256
 20
11.5787028405
 30
0.0
 10
13.3241141631
 20
11.5807826464
 30
0.0
 10
13.3251557572
 20
11.5828537154
 30
0.0
 10
13.3264255421
 20
11.5849143853
 30
0.0
 10
13.3279219638
 20
11.586963301
 30
0.0
 10
13.3296435773
 20
11.5889990818
 30
0.0
 10
13.3315889041
 20
11.5910202893
 30
0.0
 10
13.3337562199
 20
11.5930256188
 30
0.0
 10
13.3361438322
 20
11.5950135611
 30
0.0
 10
13.3387498139
 20
11.5969826578
 30
0.0
 10
13.3415720564
 20
11.598931478
 30
0.0
 10
13.3446083667
 20
11.6008584205
 30
0.0
 10
13.347856276
 20
11.6027620431
 30
0.0
 10
13.3513131889
 20
11.6046408245
 30
0.0
 10
13.3549763487
 20
11.6064931996
 30
0.0
 10
13.3588427632
 20
11.6083177504
 30
0.0
 10
13.3629093328
 20
11.6101129613
 30
0.0
 10
13.3686965819
 20
11.6125078781
 30
0.0
 10
13.3764146672
 20
11.6154072662
 30
0.0
 10
13.3862608797
 20
11.6186884547
 30
0.0
 10
13.3968169014
 20
11.6218194459
 30
0.0
 10
13.4080483518
 20
11.6247899162
 30
0.0
 10
13.4199187781
 20
11.6275900389
 30
0.0
 10
13.4323894969
 20
11.6302105366
 30
0.0
 10
13.4454198233
 20
11.6326427118
 30
0.0
 10
13.4589671753
 20
11.6348785262
 30
0.0
 10
13.4729872455
 20
11.6369105878
 30
0.0
 10
13.4874341642
 20
11.6387321709
 30
0.0
 10
13.502260645
 20
11.6403372356
 30
0.0
 10
13.517418135
 20
11.641720491
 30
0.0
 10
13.5328569858
 20
11.6428773734
 30
0.0
 10
13.5485266258
 20
11.6438040577
 30
0.0
 10
13.5643757221
 20
11.6444974686
 30
0.0
 10
13.5803523381
 20
11.6449553279
 30
0.0
 10
13.5964041301
 20
11.6451761353
 30
0.0
 10
13.6124785151
 20
11.645159154
 30
0.0
 10
13.628522713
 20
11.6449044146
 30
0.0
 10
13.6444844678
 20
11.6444128128
 30
0.0
 10
13.6603110469
 20
11.6436858949
 30
0.0
 10
13.6708063058
 20
11.6430418552
 30
0.0
 10
13.6760217891
 20
11.6426801602
 30
0.0
  0
SPLINE
  5
3EA
100
AcDbEntity
  8
0
100
AcDbSpline
 62
7
  6
CONTINUOUS
 70
0
 71
3
 72
49
 73
45
 74
0
 42
0.0000001
 43
0.0000001
 44
0.0000000001
 40
0.0
 40
0.0
 40
0.0
 40
0.0
 40
0.0055575652
 40
0.0111779989
 40
0.0169219414
 40
0.0228458413
 40
0.0290005862
 40
0.0354310054
 40
0.0421754419
 40
0.0492662547
 40
0.0567303348
 40
0.0645894055
 40
0.0728610837
 40
0.081559144
 40
0.0906940366
 40
0.1002736841
 40
0.1103033552
 40
0.1207863534
 40
0.131724296
 40
0.1431169483
 40
0.1549629335
 40
0.167259542
 40
0.1931868013
 40
0.2208582139
 40
0.2502183164
 40
0.281200247
 40
0.3137274299
 40
0.3477148798
 40
0.3830701696
 40
0.4196941701
 40
0.4574819135
 40
0.4963233105
 40
0.5361037302
 40
0.5767045149
 40
0.6180036379
 40
0.6598762574
 40
0.7021952159
 40
0.7448315601
 40
0.7876550186
 40
0.8305347645
 40
0.873339678
 40
0.9159378915
 40
0.9582026976
 40
1.0
 40
1.0
 40
1.0
 40
1.0
 10
12.2228312814
 20
10.5104306591
 30
0.0
 10
12.222831275
 20
10.5111257998
 30
0.0
 10
12.222909111
 20
10.5125251535
 30
0.0
 10
12.2232583404
 20
10.5146167278
 30
0.0
 10
12.2238396073
 20
10.5167036327
 30
0.0
 10
12.2246517448
 20
10.5187834386
 30
0.0
 10
12.2256933389
 20
10.5208545076
 30
0.0
 10
12.2269631238
 20
10.5229151774
 30
0.0
 10
12.2284595454
 20
10.5249640932
 30
0.0
 10
12.230181159
 20
10.526999874
 30
0.0
 10
12.2321264858
 20
10.5290210814
 30
0.0
 10
12.2342938016
 20
10.531026411
 30
0.0
 10
12.2366814138
 20
10.5330143533
 30
0.0
 10
12.2392873955
 20
10.53498345
 30
0.0
 10
12.242109638
 20
10.5369322702
 30
0.0
 10
12.2451459484
 20
10.5388592127
 30
0.0
 10
12.2483938577
 20
10.5407628352
 30
0.0
 10
12.2518507706
 20
10.5426416167
 30
0.0
 10
12.2555139304
 20
10.5444939918
 30
0.0
 10
12.2593803448
 20
10.5463185425
 30
0.0
 10
12.2634469145
 20
10.5481137534
 30
0.0
 10
12.2692341636
 20
10.5505086703
 30
0.0
 10
12.2769522489
 20
10.5534080584
 30
0.0
 10
12.2867984614
 20
10.5566892469
 30
0.0
 10
12.2973544831
 20
10.5598202381
 30
0.0
 10
12.3085859335
 20
10.5627907084
 30
0.0
 10
12.3204563597
 20
10.5655908311
 30
0.0
 10
12.3329270786
 20
10.5682113288
 30
0.0
 10
12.345957405
 20
10.570643504
 30
0.0
 10
12.3595047569
 20
10.5728793184
 30
0.0
 10
12.3735248271
 20
10.57491138
 30
0.0
 10
12.3879717459
 20
10.576732963
 30
0.0
 10
12.4027982266
 20
10.5783380278
 30
0.0
 10
12.4179557167
 20
10.5797212832
 30
0.0
 10
12.4333945675
 20
10.5808781656
 30
0.0
 10
12.4490642075
 20
10.5818048499
 30
0.0
 10
12.4649133038
 20
10.5824982608
 30
0.0
 10
12.4808899198
 20
10.5829561201
 30
0.0
 10
12.4969417117
 20
10.5831769275
 30
0.0
 10
12.5130160967
 20
10.5831599462
 30
0.0
 10
12.5290602947
 20
10.5829052068
 30
0.0
 10
12.5450220495
 20
10.582413605
 30
0.0
 10
12.5608486285
 20
10.581686687
 30
0.0
 10
12.5713438875
 20
10.5810426474
 30
0.0
 10
12.5765593707
 20
10.5806809524
 30
0.0
  0
SPLINE
  5
3EB
100
AcDbEntity
  8
0
100
AcDbSpline
 62
7
  6
CONTINUOUS
 70
0
 71
3
 72
85
 73
81
 74
0
 42
0.0000001
 43
0.0000001
 44
0.0000000001
 40
0.0
 40
0.0
 40
0.0
 40
0.0
 40
0.0039765613
 40
0.0081592774
 40
0.0125540088
 40
0.0171652623
 40
0.0219963781
 40
0.0270496213
 40
0.032325884
 40
0.0378251227
 40
0.0435465318
 40
0.0494884649
 40
0.0556487738
 40
0.0620246669
 40
0.0754090484
 40
0.0896111571
 40
0.1045945407
 40
0.1203187405
 40
0.1367404644
 40
0.1538145145
 40
0.1714945011
 40
0.189733515
 40
0.2084846336
 40
0.2277012472
 40
0.2473374499
 40
0.2673482704
 40
0.2876897114
 40
0.3083189962
 40
0.3291945934
 40
0.3502760986
 40
0.392900988
 40
0.4358951155
 40
0.4789757954
 40
0.5218740414
 40
0.5643313688
 40
0.6060965402
 40
0.6266425923
 40
0.6469231016
 40
0.6669073425
 40
0.6865645285
 40
0.7058636957
 40
0.7247737492
 40
0.7432633191
 40
0.7613008361
 40
0.7788545318
 40
0.7958924103
 40
0.8123824595
 40
0.8282926672
 40
0.8435912646
 40
0.8582470422
 40
0.8722296377
 40
0.8855101302
 40
0.8918788464
 40
0.8980622205
 40
0.9040573851
 40
0.9098617471
 40
0.9154730348
 40
0.9208893386
 40
0.9261092043
 40
0.9311317216
 40
0.9359565708
 40
0.9405841972
 40
0.9450159371
 40
0.9492541122
 40
0.9533023275
 40
0.9571656252
 40
0.9608507032
 40
0.9643663255
 40
0.9677234929
 40
0.9709357974
 40
0.9740197451
 40
0.9769948138
 40
0.9798835698
 40
0.982711396
 40
0.9855059838
 40
0.9882965636
 40
0.9911128904
 40
0.9939841884
 40
0.9969380778
 40
1.0
 40
1.0
 40
1.0
 40
1.0
 10
10.7727807077
 20
10.9820288103
 30
0.0
 10
10.7736856079
 20
10.9829028768
 30
0.0
 10
10.7755945211
 20
10.984642863
 30
0.0
 10
10.7786633262
 20
10.9871666401
 30
0.0
 10
10.7820057631
 20
10.9896667474
 30
0.0
 10
10.7856186454
 20
10.9921410459
 30
0.0
 10
10.7894986737
 20
10.9945879156
 30
0.0
 10
10.793642405
 20
10.9970054583
 30
0.0
 10
10.7980459166
 20
10.9993920564
 30
0.0
 10
10.8027050298
 20
11.0017459413
 30
0.0
 10
10.807615299
 20
11.0040653339
 30
0.0
 10
10.8127719372
 20
11.0063487371
 30
0.0
 10
10.8181700224
 20
11.0085944961
 30
0.0
 10
10.8258065701
 20
11.0115851704
 30
0.0
 10
10.8359259885
 20
11.0152060419
 30
0.0
 10
10.8487554688
 20
11.0193118218
 30
0.0
 10
10.8624133646
 20
11.0232360785
 30
0.0
 10
10.8768506434
 20
11.0269702924
 30
0.0
 10
10.8920173502
 20
11.0305070332
 30
0.0
 10
10.9078628332
 20
11.0338399103
 30
0.0
 10
10.9243363152
 20
11.0369635349
 30
0.0
 10
10.9413872636
 20
11.0398735282
 30
0.0
 10
10.9589657478
 20
11.0425663603
 30
0.0
 10
10.9770227091
 20
11.0450392702
 30
0.0
 10
10.9955101629
 20
11.0472902577
 30
0.0
 10
11.0143813437
 20
11.0493179541
 30
0.0
 10
11.0335908155
 20
11.0511215174
 30
0.0
 10
11.053094502
 20
11.0527006234
 30
0.0
 10
11.0728497449
 20
11.0540553959
 30
0.0
 10
11.0995675759
 20
11.0555685986
 30
0.0
 10
11.1333027235
 20
11.0568931454
 30
0.0
 10
11.1740178165
 20
11.0575979388
 30
0.0
 10
11.2148251635
 20
11.0574349515
 30
0.0
 10
11.2554502326
 20
11.056417782
 30
0.0
 10
11.2956289125
 20
11.0545615445
 30
0.0
 10
11.3287025798
 20
11.0523173623
 30
0.0
 10
11.3547398592
 20
11.0501070477
 30
0.0
 10
11.3738906753
 20
11.0482583843
 30
0.0
 10
11.3927385591
 20
11.0462123021
 30
0.0
 10
11.4112515896
 20
11.0439713051
 30
0.0
 10
11.4293975317
 20
11.04153808
 30
0.0
 10
11.4471437667
 20
11.0389154365
 30
0.0
 10
11.4644572395
 20
11.0361063972
 30
0.0
 10
11.4813043855
 20
11.0331141926
 30
0.0
 10
11.4976510807
 20
11.02994229
 30
0.0
 10
11.5134626358
 20
11.0265944835
 30
0.0
 10
11.5287037501
 20
11.023074866
 30
0.0
 10
11.5433385575
 20
11.0193879235
 30
0.0
 10
11.5573306429
 20
11.0155385948
 30
0.0
 10
11.5706431625
 20
11.0115322512
 30
0.0
 10
11.5832387491
 20
11.007374813
 30
0.0
 10
11.5932415697
 20
11.0037409064
 30
0.0
 10
11.600849793
 20
11.0007546298
 30
0.0
 10
11.6062729405
 20
10.9985125448
 30
0.0
 10
11.6114882547
 20
10.996237775
 30
0.0
 10
11.6164910376
 20
10.9939312955
 30
0.0
 10
11.6212766599
 20
10.991594246
 30
0.0
 10
11.6258405003
 20
10.9892277175
 30
0.0
 10
11.6301779944
 20
10.9868328485
 30
0.0
 10
11.6342847004
 20
10.9844109178
 30
0.0
 10
11.6381561918
 20
10.98196312
 30
0.0
 10
11.6417881634
 20
10.9794907377
 30
0.0
 10
11.6451764745
 20
10.9769951647
 30
0.0
 10
11.6483169919
 20
10.9744776566
 30
0.0
 10
11.6512058032
 20
10.9719396232
 30
0.0
 10
11.6538391515
 20
10.9693824892
 30
0.0
 10
11.6562132568
 20
10.9668075214
 30
0.0
 10
11.6583246771
 20
10.964216208
 30
0.0
 10
11.6601699693
 20
10.9616099114
 30
0.0
 10
11.6617456724
 20
10.9589899857
 30
0.0
 10
11.6630487005
 20
10.9563580502
 30
0.0
 10
11.6640756967
 20
10.9537156774
 30
0.0
 10
11.6648236109
 20
10.9510648367
 30
0.0
 10
11.6652897888
 20
10.948407832
 30
0.0
 10
11.6654715591
 20
10.9457472734
 30
0.0
 10
11.6653674019
 20
10.9430861227
 30
0.0
 10
11.664976195
 20
10.9404274006
 30
0.0
 10
11.6642974799
 20
10.9377740243
 30
0.0
 10
11.6633319602
 20
10.9351288056
 30
0.0
 10
11.6625138258
 20
10.9334069874
 30
0.0
 10
11.6620613471
 20
10.9325504197
 30
0.0
  0
SPLINE
  5
3EC
100
AcDbEntity
  8
0
100
AcDbSpline
 62
7
  6
CONTINUOUS
 70
0
 71
3
 72
41
 73
37
 74
0
 42
0.0000001
 43
0.0000001
 44
0.0000000001
 40
0.0
 40
0.0
 40
0.0
 40
0.0
 40
0.0318705743
 40
0.063634638
 40
0.0952908034
 40
0.1268435451
 40
0.1425832863
 40
0.158298473
 40
0.1896552613
 40
0.2209221107
 40
0.2521055347
 40
0.283212946
 40
0.3142525389
 40
0.3452332193
 40
0.3761645126
 40
0.4070564619
 40
0.4379195303
 40
0.4687644916
 40
0.4996023129
 40
0.5304440338
 40
0.5613006525
 40
0.5921830111
 40
0.6231016779
 40
0.6540668322
 40
0.6850881586
 40
0.7161747543
 40
0.7473350336
 40
0.7785766416
 40
0.8099063908
 40
0.8413301516
 40
0.8570801326
 40
0.8728554293
 40
0.9044812253
 40
0.936212405
 40
0.9680527092
 40
1.0
 40
1.0
 40
1.0
 40
1.0
 10
7.5492646163
 20
9.0933327957
 30
0.0
 10
7.5492646163
 20
9.1041867746
 30
0.0
 10
7.549795852
 20
9.1258622857
 30
0.0
 10
7.55219356
 20
9.1582390231
 30
0.0
 10
7.5561855301
 20
9.1903495224
 30
0.0
 10
7.5608364465
 20
9.2168437659
 30
0.0
 10
7.5653440933
 20
9.2378251635
 30
0.0
 10
7.570364979
 20
9.2586210195
 30
0.0
 10
7.5776112302
 20
9.2843105079
 30
0.0
 10
7.587845854
 20
9.3145884857
 30
0.0
 10
7.599589095
 20
9.3442231089
 30
0.0
 10
7.6128126338
 20
9.3731423804
 30
0.0
 10
7.6274846149
 20
9.4012767071
 30
0.0
 10
7.6435696817
 20
9.4285582022
 30
0.0
 10
7.6610291126
 20
9.4549210516
 30
0.0
 10
7.6798208939
 20
9.4803016058
 30
0.0
 10
7.6998996665
 20
9.5046386727
 30
0.0
 10
7.7212170021
 20
9.5278735576
 30
0.0
 10
7.7437215128
 20
9.5499501958
 30
0.0
 10
7.7673589662
 20
9.57081528
 30
0.0
 10
7.7920722893
 20
9.5904185417
 30
0.0
 10
7.81780185
 20
9.6087127356
 30
0.0
 10
7.844485593
 20
9.6256537444
 30
0.0
 10
7.8720591797
 20
9.6412006786
 30
0.0
 10
7.9004560481
 20
9.6553161488
 30
0.0
 10
7.9296077006
 20
9.6679661916
 30
0.0
 10
7.9594438024
 20
9.6791203356
 30
0.0
 10
7.9898925543
 20
9.6887517113
 30
0.0
 10
8.0208800056
 20
9.6968371346
 30
0.0
 10
8.0470710447
 20
9.7022666833
 30
0.0
 10
8.0682144974
 20
9.7058211101
 30
0.0
 10
8.0895088466
 20
9.7088520497
 30
0.0
 10
8.1163258041
 20
9.7116431878
 30
0.0
 10
8.1487127679
 20
9.713389034
 30
0.0
 10
8.1812554093
 20
9.7135298589
 30
0.0
 10
8.2029675881
 20
9.7125553485
 30
0.0
 10
8.2138216242
 20
9.7118026186
 30
0.0
  0
SPLINE
  5
3ED
100
AcDbEntity
  8
0
100
AcDbSpline
 62
7
  6
CONTINUOUS
 70
0
 71
3
 72
49
 73
45
 74
0
 42
0.0000001
 43
0.0000001
 44
0.0000000001
 40
0.0
 40
0.0
 40
0.0
 40
0.0
 40
0.0055575652
 40
0.0111779989
 40
0.0169219414
 40
0.0228458413
 40
0.0290005862
 40
0.0354310054
 40
0.0421754419
 40
0.0492662547
 40
0.0567303348
 40
0.0645894055
 40
0.0728610837
 40
0.081559144
 40
0.0906940366
 40
0.1002736841
 40
0.1103033552
 40
0.1207863534
 40
0.131724296
 40
0.1431169483
 40
0.1549629335
 40
0.167259542
 40
0.1931868013
 40
0.2208582139
 40
0.2502183164
 40
0.281200247
 40
0.3137274299
 40
0.3477148798
 40
0.3830701696
 40
0.4196941701
 40
0.4574819135
 40
0.4963233105
 40
0.5361037302
 40
0.5767045149
 40
0.6180036379
 40
0.6598762574
 40
0.7021952159
 40
0.7448315601
 40
0.7876550186
 40
0.8305347645
 40
0.873339678
 40
0.9159378915
 40
0.9582026976
 40
1.0
 40
1.0
 40
1.0
 40
1.0
 10
8.7223160974
 20
10.7531922116
 30
0.0
 10
8.722316091
 20
10.7538873524
 30
0.0
 10
8.7223939269
 20
10.755286706
 30
0.0
 10
8.7227431564
 20
10.7573782803
 30
0.0
 10
8.7233244233
 20
10.7594651853
 30
0.0
 10
8.7241365608
 20
10.7615449911
 30
0.0
 10
8.7251781548
 20
10.7636160601
 30
0.0
 10
8.7264479398
 20
10.76567673
 30
0.0
 10
8.7279443614
 20
10.7677256457
 30
0.0
 10
8.729665975
 20
10.7697614266
 30
0.0
 10
8.7316113017
 20
10.771782634
 30
0.0
 10
8.7337786175
 20
10.7737879635
 30
0.0
 10
8.7361662298
 20
10.7757759058
 30
0.0
 10
8.7387722115
 20
10.7777450026
 30
0.0
 10
8.741594454
 20
10.7796938227
 30
0.0
 10
8.7446307643
 20
10.7816207652
 30
0.0
 10
8.7478786736
 20
10.7835243878
 30
0.0
 10
8.7513355866
 20
10.7854031692
 30
0.0
 10
8.7549987464
 20
10.7872555444
 30
0.0
 10
8.7588651608
 20
10.7890800951
 30
0.0
 10
8.7629317305
 20
10.790875306
 30
0.0
 10
8.7687189795
 20
10.7932702228
 30
0.0
 10
8.7764370649
 20
10.7961696109
 30
0.0
 10
8.7862832774
 20
10.7994507994
 30
0.0
 10
8.796839299
 20
10.8025817906
 30
0.0
 10
8.8080707495
 20
10.805552261
 30
0.0
 10
8.8199411757
 20
10.8083523836
 30
0.0
 10
8.8324118946
 20
10.8109728813
 30
0.0
 10
8.8454422209
 20
10.8134050565
 30
0.0
 10
8.8589895729
 20
10.8156408709
 30
0.0
 10
8.8730096431
 20
10.8176729325
 30
0.0
 10
8.8874565619
 20
10.8194945156
 30
0.0
 10
8.9022830426
 20
10.8210995803
 30
0.0
 10
8.9174405326
 20
10.8224828357
 30
0.0
 10
8.9328793835
 20
10.8236397182
 30
0.0
 10
8.9485490235
 20
10.8245664025
 30
0.0
 10
8.9643981198
 20
10.8252598133
 30
0.0
 10
8.9803747357
 20
10.8257176726
 30
0.0
 10
8.9964265277
 20
10.82593848
 30
0.0
 10
9.0125009127
 20
10.8259214987
 30
0.0
 10
9.0285451107
 20
10.8256667593
 30
0.0
 10
9.0445068655
 20
10.8251751576
 30
0.0
 10
9.0603334445
 20
10.8244482396
 30
0.0
 10
9.0708287035
 20
10.8238042
 30
0.0
 10
9.0760441867
 20
10.823442505
 30
0.0
  0
SPLINE
  5
3EE
100
AcDbEntity
  8
0
100
AcDbSpline
 62
7
  6
CONTINUOUS
 70
0
 71
3
 72
75
 73
71
 74
0
 42
0.0000001
 43
0.0000001
 44
0.0000000001
 40
0.0
 40
0.0
 40
0.0
 40
0.0
 40
0.0156747106
 40
0.0235325853
 40
0.0314031906
 40
0.0471815768
 40
0.0630097517
 40
0.0788855265
 40
0.094806462
 40
0.1107696439
 40
0.1267717934
 40
0.1347869015
 40
0.1428103615
 40
0.1588792321
 40
0.1749752631
 40
0.1910939888
 40
0.2072307445
 40
0.2233807074
 40
0.2395389397
 40
0.2557004313
 40
0.2718601435
 40
0.2880130533
 40
0.3041541968
 40
0.3202787132
 40
0.3363818868
 40
0.3524591892
 40
0.3685063201
 40
0.3845192457
 40
0.4004942371
 40
0.4164279054
 40
0.4323172352
 40
0.4481596145
 40
0.4639528626
 40
0.4796952536
 40
0.4953855367
 40
0.5110229532
 40
0.526607248
 40
0.5421386779
 40
0.5576180142
 40
0.5730465405
 40
0.5884260443
 40
0.603758805
 40
0.6190475748
 40
0.6342955549
 40
0.6495063665
 40
0.6646840169
 40
0.6798328599
 40
0.6949575527
 40
0.7100630076
 40
0.7251543415
 40
0.7402368215
 40
0.7553158093
 40
0.770396704
 40
0.7854848841
 40
0.8005856505
 40
0.8157041697
 40
0.8308454197
 40
0.8460141376
 40
0.8612147713
 40
0.8764514342
 40
0.891727865
 40
0.9070473908
 40
0.922412902
 40
0.9301142837
 40
0.9378280259
 40
0.953292302
 40
0.9688082452
 40
0.9765865192
 40
0.984378284
 40
1.0
 40
1.0
 40
1.0
 40
1.0
 10
10.2458852786
 20
9.2253868662
 30
0.0
 10
10.2632690975
 20
9.2241812942
 30
0.0
 10
10.2893290348
 20
9.2217320978
 30
0.0
 10
10.3239474432
 20
9.2172037431
 30
0.0
 10
10.3585608081
 20
9.2118219119
 30
0.0
 10
10.4016721859
 20
9.2035114096
 30
0.0
 10
10.4529852989
 20
9.1910451598
 30
0.0
 10
10.5037995051
 20
9.176106637
 30
0.0
 10
10.5539918271
 20
9.1587320515
 30
0.0
 10
10.603441024
 20
9.1389635397
 30
0.0
 10
10.6439100198
 20
9.1205437123
 30
0.0
 10
10.6757967082
 20
9.1046630327
 30
0.0
 10
10.707371233
 20
9.0880107774
 30
0.0
 10
10.7461548451
 20
9.0657969375
 30
0.0
 10
10.7914653091
 20
9.0369842594
 30
0.0
 10
10.8354620549
 20
9.0060705396
 30
0.0
 10
10.8780385571
 20
8.9731305746
 30
0.0
 10
10.9190925151
 20
8.9382435834
 30
0.0
 10
10.9585250704
 20
8.9014935809
 30
0.0
 10
10.9962413185
 20
8.8629690255
 30
0.0
 10
11.032150462
 20
8.8227626484
 30
0.0
 10
11.0661660636
 20
8.7809712329
 30
0.0
 10
11.0982062346
 20
8.7376953707
 30
0.0
 10
11.1281938317
 20
8.6930392206
 30
0.0
 10
11.1560566417
 20
8.6471102597
 30
0.0
 10
11.1817275543
 20
8.6000190265
 30
0.0
 10
11.2051447228
 20
8.5518788572
 30
0.0
 10
11.2262517124
 20
8.5028056147
 30
0.0
 10
11.2449976366
 20
8.4529174118
 30
0.0
 10
11.2613372981
 20
8.4023343347
 30
0.0
 10
11.2752312807
 20
8.3511781472
 30
0.0
 10
11.2866460441
 20
8.2995719995
 30
0.0
 10
11.2955540051
 20
8.2476401346
 30
0.0
 10
11.3019336051
 20
8.1955075917
 30
0.0
 10
11.3057693633
 20
8.1432999074
 30
0.0
 10
11.3070519163
 20
8.0911428155
 30
0.0
 10
11.3057780422
 20
8.0391619466
 30
0.0
 10
11.3019506917
 20
7.9874825245
 30
0.0
 10
11.2955789636
 20
7.9362290641
 30
0.0
 10
11.2866780849
 20
7.8855250732
 30
0.0
 10
11.2752693782
 20
7.8354927557
 30
0.0
 10
11.2613802125
 20
7.786252717
 30
0.0
 10
11.2450439418
 20
7.7379236736
 30
0.0
 10
11.2262998275
 20
7.6906221655
 30
0.0
 10
11.2051929471
 20
7.6444622735
 30
0.0
 10
11.1817741068
 20
7.5995553325
 30
0.0
 10
11.1560997017
 20
7.5560096658
 30
0.0
 10
11.1282315806
 20
7.513930322
 30
0.0
 10
11.0982368988
 20
7.4734188185
 30
0.0
 10
11.0661879562
 20
7.4345728933
 30
0.0
 10
11.0321620226
 20
7.3974862657
 30
0.0
 10
10.9962411507
 20
7.3622484074
 30
0.0
 10
10.9585119766
 20
7.3289443237
 30
0.0
 10
10.9190655214
 20
7.2976543288
 30
0.0
 10
10.8779969526
 20
7.2684538645
 30
0.0
 10
10.8354053521
 20
7.2414133173
 30
0.0
 10
10.7913934718
 20
7.2165978484
 30
0.0
 10
10.746067489
 20
7.1940672377
 30
0.0
 10
10.6995367228
 20
7.173875737
 30
0.0
 10
10.6519134592
 20
7.1560719537
 30
0.0
 10
10.6033123355
 20
7.1406986912
 30
0.0
 10
10.553851349
 20
7.1277929907
 30
0.0
 10
10.5120461709
 20
7.1191266708
 30
0.0
 10
10.4782978298
 20
7.1134531139
 30
0.0
 10
10.4443085651
 20
7.1086153994
 30
0.0
 10
10.4015046203
 20
7.1041601373
 30
0.0
 10
10.3584605621
 20
7.1018399633
 30
0.0
 10
10.323903926
 20
7.1012613981
 30
0.0
 10
10.2892266349
 20
7.1015365351
 30
0.0
 10
10.2632103247
 20
7.1027042322
 30
0.0
 10
10.2458852786
 20
7.1039057283
 30
0.0
  0
SPLINE
  5
3EF
100
AcDbEntity
  8
0
100
AcDbSpline
 62
7
  6
CONTINUOUS
 70
0
 71
3
 72
52
 73
48
 74
0
 42
0.0000001
 43
0.0000001
 44
0.0000000001
 40
0.0
 40
0.0
 40
0.0
 40
0.0
 40
0.0055575452
 40
0.0111779602
 40
0.016921892
 40
0.0228457496
 40
0.0290005038
 40
0.0354308807
 40
0.0421752804
 40
0.0492661157
 40
0.0567301063
 40
0.0645891986
 40
0.0728608365
 40
0.0815588357
 40
0.0906937562
 40
0.1002733096
 40
0.1103029755
 40
0.1207859477
 40
0.131723822
 40
0.1431164636
 40
0.1549623956
 40
0.1672589551
 40
0.1800022198
 40
0.1931874697
 40
0.2068088674
 40
0.2208599029
 40
0.2353332361
 40
0.2502207925
 40
0.2812025981
 40
0.313729699
 40
0.3477170677
 40
0.3830722204
 40
0.4196960739
 40
0.4574836961
 40
0.4963249807
 40
0.5361052622
 40
0.5767059089
 40
0.618004903
 40
0.659877388
 40
0.7021961977
 40
0.7448323876
 40
0.7876557529
 40
0.8305352907
 40
0.8733400548
 40
0.9159384692
 40
0.9582021833
 40
1.0
 40
1.0
 40
1.0
 40
1.0
 10
10.6264045526
 20
11.6820508856
 30
0.0
 10
10.6264045423
 20
11.6831344143
 30
0.0
 10
10.6265258384
 20
11.685315614
 30
0.0
 10
10.6270701911
 20
11.6885757949
 30
0.0
 10
10.6279762661
 20
11.6918286749
 30
0.0
 10
10.6292420783
 20
11.6950705442
 30
0.0
 10
10.6308657144
 20
11.6982987157
 30
0.0
 10
10.6328449027
 20
11.7015107453
 30
0.0
 10
10.6351773891
 20
11.7047044473
 30
0.0
 10
10.6378609593
 20
11.7078775969
 30
0.0
 10
10.640893102
 20
11.7110281707
 30
0.0
 10
10.644271391
 20
11.7141538535
 30
0.0
 10
10.6479929886
 20
11.7172525165
 30
0.0
 10
10.6520549653
 20
11.7203218139
 30
0.0
 10
10.6564540805
 20
11.7233594165
 30
0.0
 10
10.6611868004
 20
11.7263630407
 30
0.0
 10
10.6662493942
 20
11.7293302182
 30
0.0
 10
10.6716377501
 20
11.7322587109
 30
0.0
 10
10.6773475762
 20
11.7351460643
 30
0.0
 10
10.6833742389
 20
11.7379900079
 30
0.0
 10
10.6897128672
 20
11.7407882249
 30
0.0
 10
10.69635833
 20
11.7435383892
 30
0.0
 10
10.7033052075
 20
11.746238339
 30
0.0
 10
10.7105478678
 20
11.7488857621
 30
0.0
 10
10.7180803894
 20
11.7514785823
 30
0.0
 10
10.7258966363
 20
11.7540146059
 30
0.0
 10
10.7339902316
 20
11.7564917925
 30
0.0
 10
10.74529321
 20
11.7597569493
 30
0.0
 10
10.7600719766
 20
11.7636654915
 30
0.0
 10
10.778574546
 20
11.7680301041
 30
0.0
 10
10.7980129306
 20
11.7721147047
 30
0.0
 10
10.8183235349
 20
11.7759057929
 30
0.0
 10
10.8394400419
 20
11.7793908095
 30
0.0
 10
10.8612933899
 20
11.7825582218
 30
0.0
 10
10.8838120805
 20
11.7853975477
 30
0.0
 10
10.906922398
 20
11.787899398
 30
0.0
 10
10.9305486646
 20
11.7900555089
 30
0.0
 10
10.9546134966
 20
11.7918587584
 30
0.0
 10
10.9790380629
 20
11.7933031907
 30
0.0
 10
11.0037423462
 20
11.7943840352
 30
0.0
 10
11.0286454057
 20
11.7950977203
 30
0.0
 10
11.0536656328
 20
11.795441884
 30
0.0
 10
11.0787210768
 20
11.7954154058
 30
0.0
 10
11.1037295252
 20
11.7950183494
 30
0.0
 10
11.1286092946
 20
11.7942520739
 30
0.0
 10
11.1532784933
 20
11.7931190386
 30
0.0
 10
11.1696375935
 20
11.7921151487
 30
0.0
 10
11.1777671931
 20
11.7915513591
 30
0.0
  0
SPLINE
  5
3F0
100
AcDbEntity
  8
0
100
AcDbSpline
 62
7
  6
CONTINUOUS
 70
0
 71
3
 72
10
 73
6
 74
0
 42
0.0000001
 43
0.0000001
 44
0.0000000001
 40
0.0
 40
0.0
 40
0.0
 40
0.0
 40
0.4725034134
 40
0.7288255919
 40
1.0
 40
1.0
 40
1.0
 40
1.0
 10
11.1840979362
 20
11.3764593434
 30
0.0
 10
11.1851801454
 20
11.3785080609
 30
0.0
 10
11.187172635
 20
11.3815037947
 30
0.0
 10
11.1903395527
 20
11.3852495831
 30
0.0
 10
11.1921460867
 20
11.3871046845
 30
0.0
 10
11.1931025089
 20
11.3880285174
 30
0.0
  0
SPLINE
  5
3F1
100
AcDbEntity
  8
0
100
AcDbSpline
 62
7
  6
CONTINUOUS
 70
0
 71
3
 72
23
 73
19
 74
0
 42
0.0000001
 43
0.0000001
 44
0.0000000001
 40
0.0
 40
0.0
 40
0.0
 40
0.0
 40
0.0616004251
 40
0.1232790378
 40
0.185047009
 40
0.2469149622
 40
0.3088928947
 40
0.3709901228
 40
0.4332152408
 40
0.4955760581
 40
0.5580795716
 40
0.6207318951
 40
0.6835382494
 40
0.7465031696
 40
0.8096296771
 40
0.8729199433
 40
0.9363784823
 40
1.0
 40
1.0
 40
1.0
 40
1.0
 10
11.1848455437
 20
7.635077417
 30
0.0
 10
11.1742969625
 20
7.6285317862
 30
0.0
 10
11.1529203617
 20
7.6158555035
 30
0.0
 10
11.1200976667
 20
7.5981317712
 30
0.0
 10
11.0865432544
 20
7.581711362
 30
0.0
 10
11.0523055872
 20
7.5666181457
 30
0.0
 10
11.0174332645
 20
7.5528735645
 30
0.0
 10
10.9819760888
 20
7.5404970902
 30
0.0
 10
10.9459845634
 20
7.5295063641
 30
0.0
 10
10.9095099625
 20
7.5199171061
 30
0.0
 10
10.8726043004
 20
7.5117428281
 30
0.0
 10
10.8353201614
 20
7.5049951729
 30
0.0
 10
10.7977106293
 20
7.4996838012
 30
0.0
 10
10.7598293281
 20
7.4958161796
 30
0.0
 10
10.7217303693
 20
7.4933977462
 30
0.0
 10
10.6834673575
 20
7.4924319555
 30
0.0
 10
10.6450961399
 20
7.4929202977
 30
0.0
 10
10.6195109929
 20
7.4942129342
 30
0.0
 10
10.6067199802
 20
7.4950999939
 30
0.0
  0
SPLINE
  5
3F2
100
AcDbEntity
  8
0
100
AcDbSpline
 62
7
  6
CONTINUOUS
 70
0
 71
3
 72
15
 73
11
 74
0
 42
0.0000001
 43
0.0000001
 44
0.0000000001
 40
0.0
 40
0.0
 40
0.0
 40
0.0
 40
0.1025303719
 40
0.2100124176
 40
0.3229468406
 40
0.4419953052
 40
0.5680173564
 40
0.7021197903
 40
0.8456570398
 40
1.0
 40
1.0
 40
1.0
 40
1.0
 10
11.0345329062
 20
8.0213489008
 30
0.0
 10
11.0433353467
 20
8.02490953
 30
0.0
 10
11.0614356057
 20
8.0320299352
 30
0.0
 10
11.0894491909
 20
8.0425085158
 30
0.0
 10
11.1190596156
 20
8.0530738835
 30
0.0
 10
11.1504377089
 20
8.0637844574
 30
0.0
 10
11.1838110542
 20
8.0747092703
 30
0.0
 10
11.2194717869
 20
8.085928054
 30
0.0
 10
11.2577612175
 20
8.0975229065
 30
0.0
 10
11.2842444155
 20
8.1052489947
 30
0.0
 10
11.29798522
 20
8.1091859085
 30
0.0
  0
SPLINE
  5
3F3
100
AcDbEntity
  8
0
100
AcDbSpline
 62
7
  6
CONTINUOUS
 70
0
 71
3
 72
14
 73
10
 74
0
 42
0.0000001
 43
0.0000001
 44
0.0000000001
 40
0.0
 40
0.0
 40
0.0
 40
0.0
 40
0.1101696192
 40
0.223434231
 40
0.3404521077
 40
0.4618145196
 40
0.7194765865
 40
0.8567312924
 40
1.0
 40
1.0
 40
1.0
 40
1.0
 10
12.1192244296
 20
11.0846522331
 30
0.0
 10
12.1194651771
 20
11.0855339467
 30
0.0
 10
12.1200317814
 20
11.0873016311
 30
0.0
 10
12.1211128932
 20
11.0899140352
 30
0.0
 10
12.122434764
 20
11.0925178811
 30
0.0
 10
12.1245589629
 20
11.0960459032
 30
0.0
 10
12.1271389464
 20
11.0994813401
 30
0.0
 10
12.1301081252
 20
11.1028173387
 30
0.0
 10
12.131744689
 20
11.1044738454
 30
0.0
 10
12.1325995858
 20
11.1052996123
 30
0.0
  0
SPLINE
  5
3F4
100
AcDbEntity
  8
0
100
AcDbSpline
 62
7
  6
CONTINUOUS
 70
0
 71
3
 72
40
 73
36
 74
0
 42
0.0000001
 43
0.0000001
 44
0.0000000001
 40
0.0
 40
0.0
 40
0.0
 40
0.0
 40
0.0958311543
 40
0.1890995249
 40
0.2345960918
 40
0.2792409737
 40
0.3229675312
 40
0.3657111172
 40
0.4074091695
 40
0.4480016895
 40
0.4874311725
 40
0.5256432638
 40
0.5625865635
 40
0.59821323
 40
0.6324793167
 40
0.6653448472
 40
0.6967748399
 40
0.7267393025
 40
0.7552143125
 40
0.7821828541
 40
0.8076356007
 40
0.8315729248
 40
0.854006115
 40
0.8749601885
 40
0.8944769077
 40
0.9126184546
 40
0.9294728641
 40
0.9451591887
 40
0.9598337678
 40
0.9668558273
 40
0.9737029096
 40
0.9804063172
 40
0.9869997239
 40
0.9935186631
 40
1.0
 40
1.0
 40
1.0
 40
1.0
 10
11.1777671931
 20
11.7915513591
 30
0.0
 10
11.1891753326
 20
11.7907602019
 30
0.0
 10
11.2116699913
 20
11.7889481177
 30
0.0
 10
11.2395160865
 20
11.7860422049
 30
0.0
 10
11.2612376642
 20
11.7833576683
 30
0.0
 10
11.2770651072
 20
11.7811916717
 30
0.0
 10
11.2925368968
 20
11.7788602436
 30
0.0
 10
11.3076272131
 20
11.7763672445
 30
0.0
 10
11.3223108484
 20
11.7737168671
 30
0.0
 10
11.3365632716
 20
11.7709136052
 30
0.0
 10
11.3503606814
 20
11.7679621084
 30
0.0
 10
11.3636800575
 20
11.7648674081
 30
0.0
 10
11.3764991814
 20
11.7616346652
 30
0.0
 10
11.3887966895
 20
11.7582693178
 30
0.0
 10
11.400552115
 20
11.7547770673
 30
0.0
 10
11.4117459038
 20
11.7511637034
 30
0.0
 10
11.4223594964
 20
11.7474353701
 30
0.0
 10
11.4323753183
 20
11.7435982562
 30
0.0
 10
11.4417768482
 20
11.7396587678
 30
0.0
 10
11.4505486672
 20
11.735623494
 30
0.0
 10
11.4586764297
 20
11.7314989778
 30
0.0
 10
11.4661470143
 20
11.7272920095
 30
0.0
 10
11.4729484212
 20
11.7230091947
 30
0.0
 10
11.4790698537
 20
11.7186571167
 30
0.0
 10
11.4845017195
 20
11.7142421551
 30
0.0
 10
11.4892352933
 20
11.7097702346
 30
0.0
 10
11.4932628939
 20
11.7052467018
 30
0.0
 10
11.4965766046
 20
11.7006772102
 30
0.0
 10
11.4987684729
 20
11.6967774394
 30
0.0
 10
11.5001348061
 20
11.6936548623
 30
0.0
 10
11.5009621143
 20
11.6913413067
 30
0.0
 10
11.5016061466
 20
11.6890231681
 30
0.0
 10
11.5020665548
 20
11.6867014289
 30
0.0
 10
11.5023430068
 20
11.684377435
 30
0.0
 10
11.5024045299
 20
11.6828254188
 30
0.0
 10
11.5024045373
 20
11.6820520003
 30
0.0
  0
SPLINE
  5
3F5
100
AcDbEntity
  8
0
100
AcDbSpline
 62
7
  6
CONTINUOUS
 70
0
 71
3
 72
10
 73
6
 74
0
 42
0.0000001
 43
0.0000001
 44
0.0000000001
 40
0.0
 40
0.0
 40
0.0
 40
0.0
 40
0.4725054803
 40
0.7288278476
 40
1.0
 40
1.0
 40
1.0
 40
1.0
 10
10.7637762462
 20
10.9704598409
 30
0.0
 10
10.7648584572
 20
10.9725085273
 30
0.0
 10
10.7668509366
 20
10.9755042117
 30
0.0
 10
10.7700178129
 20
10.9792499328
 30
0.0
 10
10.7718243087
 20
10.9811049997
 30
0.0
 10
10.7727807077
 20
10.9820288103
 30
0.0
  0
SPLINE
  5
3F6
100
AcDbEntity
  8
0
100
AcDbSpline
 62
7
  6
CONTINUOUS
 70
0
 71
3
 72
25
 73
21
 74
0
 42
0.0000001
 43
0.0000001
 44
0.0000000001
 40
0.0
 40
0.0
 40
0.0
 40
0.0
 40
0.0637762802
 40
0.1273436913
 40
0.1907000773
 40
0.2538536116
 40
0.2853583766
 40
0.3168148804
 40
0.3795831441
 40
0.4421738281
 40
0.5045991665
 40
0.5668730853
 40
0.6290109882
 40
0.6910296467
 40
0.7220023597
 40
0.7529520858
 40
0.8147871883
 40
0.8765598284
 40
0.9382904678
 40
1.0
 40
1.0
 40
1.0
 40
1.0
 10
12.8218880989
 20
6.2991497654
 30
0.0
 10
12.8218880989
 20
6.2875782929
 30
0.0
 10
12.8213342278
 20
6.264469344
 30
0.0
 10
12.8188344079
 20
6.2299463961
 30
0.0
 10
12.8146722262
 20
6.1956974937
 30
0.0
 10
12.8098226013
 20
6.1674279977
 30
0.0
 10
12.8051218361
 20
6.1450319045
 30
0.0
 10
12.7998853006
 20
6.1228268333
 30
0.0
 10
12.7923268916
 20
6.095383583
 30
0.0
 10
12.7816492231
 20
6.0630140374
 30
0.0
 10
12.7693946392
 20
6.0313035935
 30
0.0
 10
12.7555913349
 20
6.0003257848
 30
0.0
 10
12.7402713505
 20
5.9701523937
 30
0.0
 10
12.7262631849
 20
5.9457241748
 30
0.0
 10
12.7143369984
 20
5.9266569982
 30
0.0
 10
12.7019459971
 20
5.9079284852
 30
0.0
 10
12.68557915
 20
5.8851411337
 30
0.0
 10
12.6645780476
 20
5.8588590438
 30
0.0
 10
12.6422702166
 20
5.8337076666
 30
0.0
 10
12.6265587382
 20
5.8177299004
 30
0.0
 10
12.6185056317
 20
5.8099511633
 30
0.0
  0
SPLINE
  5
3F7
100
AcDbEntity
  8
0
100
AcDbSpline
 62
7
  6
CONTINUOUS
 70
0
 71
3
 72
39
 73
35
 74
0
 42
0.0000001
 43
0.0000001
 44
0.0000000001
 40
0.0
 40
0.0
 40
0.0
 40
0.0
 40
0.0307552198
 40
0.0615967985
 40
0.0925220407
 40
0.1235276568
 40
0.1546097957
 40
0.1857640711
 40
0.2169855908
 40
0.2482690022
 40
0.2796085315
 40
0.3109980187
 40
0.3424309631
 40
0.3739005752
 40
0.4053998182
 40
0.4369214525
 40
0.4684580911
 40
0.5000022492
 40
0.5315463887
 40
0.5630829704
 40
0.5946045094
 40
0.6261036206
 40
0.6575730652
 40
0.6890058064
 40
0.7203950564
 40
0.7517343176
 40
0.7830174307
 40
0.8142386215
 40
0.8453925448
 40
0.8764743125
 40
0.9074795085
 40
0.9384043807
 40
0.9692455306
 40
1.0
 40
1.0
 40
1.0
 40
1.0
 10
10.5051611804
 20
9.1678560212
 30
0.0
 10
10.5065184009
 20
9.1560181223
 30
0.0
 10
10.5097393857
 20
9.1323636762
 30
0.0
 10
10.5160672806
 20
9.0970708065
 30
0.0
 10
10.5238870906
 20
9.0619782543
 30
0.0
 10
10.533184174
 20
9.0271516478
 30
0.0
 10
10.543941355
 20
8.9926550648
 30
0.0
 10
10.5561388036
 20
8.9585522859
 30
0.0
 10
10.569753923
 20
8.9249062487
 30
0.0
 10
10.5847615038
 20
8.8917790592
 30
0.0
 10
10.6011338412
 20
8.8592318866
 30
0.0
 10
10.6188407362
 20
8.82732485
 30
0.0
 10
10.6378494056
 20
8.7961168195
 30
0.0
 10
10.6581247272
 20
8.7656653994
 30
0.0
 10
10.6796293063
 20
8.736026843
 30
0.0
 10
10.7023234284
 20
8.7072558741
 30
0.0
 10
10.7261651327
 20
8.6794055687
 30
0.0
 10
10.7511104055
 20
8.6525273493
 30
0.0
 10
10.7771132438
 20
8.6266708971
 30
0.0
 10
10.8041255956
 20
8.6018839169
 30
0.0
 10
10.8320975669
 20
8.5782121495
 30
0.0
 10
10.8609775431
 20
8.5556993369
 30
0.0
 10
10.8907122352
 20
8.5343870978
 30
0.0
 10
10.9212467012
 20
8.5143147321
 30
0.0
 10
10.95252457
 20
8.4955193073
 30
0.0
 10
10.9844881339
 20
8.4780356062
 30
0.0
 10
11.0170783736
 20
8.4618959267
 30
0.0
 10
11.0502350963
 20
8.4471300374
 30
0.0
 10
11.0838970946
 20
8.433765246
 30
0.0
 10
11.1180022528
 20
8.4218263436
 30
0.0
 10
11.1524875308
 20
8.4113353243
 30
0.0
 10
11.1872894703
 20
8.4023115927
 30
0.0
 10
11.2223428641
 20
8.3947720027
 30
0.0
 10
11.245871887
 20
8.3907382883
 30
0.0
 10
11.2576557315
 20
8.3889742089
 30
0.0
  0
SPLINE
  5
3F8
100
AcDbEntity
  8
0
100
AcDbSpline
 62
7
  6
CONTINUOUS
 70
0
 71
3
 72
39
 73
35
 74
0
 42
0.0000001
 43
0.0000001
 44
0.0000000001
 40
0.0
 40
0.0
 40
0.0
 40
0.0
 40
0.0306730466
 40
0.0614497887
 40
0.0923258225
 40
0.1232995021
 40
0.1543663057
 40
0.185521462
 40
0.2167593041
 40
0.2480733921
 40
0.2794566283
 40
0.310901285
 40
0.3423990901
 40
0.3739413052
 40
0.405518803
 40
0.4371221471
 40
0.4687416723
 40
0.5003675737
 40
0.5319899931
 40
0.5635991029
 40
0.5951851887
 40
0.6267387358
 40
0.6582505174
 40
0.6897116734
 40
0.7211137882
 40
0.7524489668
 40
0.78370991
 40
0.814889997
 40
0.84598331
 40
0.8769847454
 40
0.9078901327
 40
0.9386955846
 40
0.9694001122
 40
1.0
 40
1.0
 40
1.0
 40
1.0
 10
12.0974436863
 20
10.272981095
 30
0.0
 10
12.1093160438
 20
10.2721577442
 30
0.0
 10
12.1330645239
 20
10.2699257961
 30
0.0
 10
12.1685375686
 20
10.2648462627
 30
0.0
 10
12.2038398935
 20
10.2580410024
 30
0.0
 10
12.2388849627
 20
10.2495270673
 30
0.0
 10
12.2735890454
 20
10.2393246366
 30
0.0
 10
12.3078683774
 20
10.2274584678
 30
0.0
 10
12.3416405115
 20
10.2139572069
 30
0.0
 10
12.3748241531
 20
10.1988534069
 30
0.0
 10
12.4073394311
 20
10.1821834703
 30
0.0
 10
12.4391080635
 20
10.1639875191
 30
0.0
 10
12.4700536055
 20
10.1443094241
 30
0.0
 10
12.5001015947
 20
10.1231966035
 30
0.0
 10
12.5291797161
 20
10.1006998984
 30
0.0
 10
12.5572179654
 20
10.0768734501
 30
0.0
 10
12.5841488409
 20
10.0517746079
 30
0.0
 10
12.6099075537
 20
10.0254638304
 30
0.0
 10
12.6344321081
 20
9.9980044555
 30
0.0
 10
12.657663462
 20
9.9694625703
 30
0.0
 10
12.6795456458
 20
9.939906842
 30
0.0
 10
12.7000259873
 20
9.9094084229
 30
0.0
 10
12.7190551954
 20
9.8780407336
 30
0.0
 10
12.7365874392
 20
9.8458792661
 30
0.0
 10
12.7525804597
 20
9.8130014127
 30
0.0
 10
12.7669956825
 20
9.7794862926
 30
0.0
 10
12.7797984094
 20
9.7454145948
 30
0.0
 10
12.7909577718
 20
9.7108683321
 30
0.0
 10
12.8004468496
 20
9.6759306681
 30
0.0
 10
12.8082427099
 20
9.6406856424
 30
0.0
 10
12.8143263997
 20
9.6052183375
 30
0.0
 10
12.8186835424
 20
9.5696134831
 30
0.0
 10
12.8213030839
 20
9.5339583966
 30
0.0
 10
12.8218880989
 20
9.5101687797
 30
0.0
 10
12.8218880989
 20
9.4982962917
 30
0.0
  0
SPLINE
  5
3F9
100
AcDbEntity
  8
0
100
AcDbSpline
 62
7
  6
CONTINUOUS
 70
0
 71
3
 72
37
 73
33
 74
0
 42
0.0000001
 43
0.0000001
 44
0.0000000001
 40
0.0
 40
0.0
 40
0.0
 40
0.0
 40
0.0958321372
 40
0.1891019121
 40
0.2792425465
 40
0.3657115305
 40
0.4074101378
 40
0.4480031117
 40
0.4874331589
 40
0.5256456456
 40
0.5625894675
 40
0.5982165282
 40
0.6324830688
 40
0.665348975
 40
0.6967793974
 40
0.7267441687
 40
0.7552196034
 40
0.7821883904
 40
0.8076415214
 40
0.8315791003
 40
0.8540125631
 40
0.8749669375
 40
0.894483817
 40
0.9126256757
 40
0.9294802133
 40
0.9451667887
 40
0.9598415117
 40
0.9737025915
 40
0.9804060739
 40
0.98699956
 40
0.9935185817
 40
1.0
 40
1.0
 40
1.0
 40
1.0
 10
12.5765593707
 20
10.5806809524
 30
0.0
 10
12.5838782762
 20
10.5801733846
 30
0.0
 10
12.598309834
 20
10.5790108481
 30
0.0
 10
12.6195739664
 20
10.576791737
 30
0.0
 10
12.6400651439
 20
10.5741323685
 30
0.0
 10
12.6565771547
 20
10.5715340732
 30
0.0
 10
12.6692917133
 20
10.5692392089
 30
0.0
 10
12.6784354012
 20
10.5674407302
 30
0.0
 10
12.6872871643
 20
10.5655472211
 30
0.0
 10
12.6958322432
 20
10.5635617798
 30
0.0
 10
12.704056386
 20
10.5614878294
 30
0.0
 10
12.7119458823
 20
10.5593287632
 30
0.0
 10
12.719487606
 20
10.5570883154
 30
0.0
 10
12.726669008
 20
10.5547701379
 30
0.0
 10
12.7334781878
 20
10.5523782345
 30
0.0
 10
12.7399038581
 20
10.5499164991
 30
0.0
 10
12.7459354403
 20
10.5473891411
 30
0.0
 10
12.7515630118
 20
10.5448002668
 30
0.0
 10
12.7567774077
 20
10.5421542018
 30
0.0
 10
12.761570174
 20
10.539455194
 30
0.0
 10
12.7659336303
 20
10.5367075418
 30
0.0
 10
12.7698608654
 20
10.5339154741
 30
0.0
 10
12.7733456598
 20
10.5310830152
 30
0.0
 10
12.776382546
 20
10.5282140557
 30
0.0
 10
12.7789663816
 20
10.5253120428
 30
0.0
 10
12.7810924651
 20
10.5223801173
 30
0.0
 10
12.7827554675
 20
10.5194218182
 30
0.0
 10
12.7837621397
 20
10.5169086057
 30
0.0
 10
12.784319039
 20
10.5149037511
 30
0.0
 10
12.7846144376
 20
10.5134141984
 30
0.0
 10
12.7847917905
 20
10.511923244
 30
0.0
 10
12.7848312722
 20
10.5109275421
 30
0.0
 10
12.7848312767
 20
10.5104313534
 30
0.0
  0
SPLINE
  5
3FA
100
AcDbEntity
  8
0
100
AcDbSpline
 62
7
  6
CONTINUOUS
 70
0
 71
3
 72
19
 73
15
 74
0
 42
0.0000001
 43
0.0000001
 44
0.0000000001
 40
0.0
 40
0.0
 40
0.0
 40
0.0
 40
0.0622793678
 40
0.1246479326
 40
0.1870939617
 40
0.2496052497
 40
0.3747503664
 40
0.5000018783
 40
0.6252531483
 40
0.7503975425
 40
0.812908302
 40
0.8753536779
 40
0.9377214888
 40
1.0
 40
1.0
 40
1.0
 40
1.0
 10
11.0925539178
 20
8.7347805349
 30
0.0
 10
11.0859525844
 20
8.7383712707
 30
0.0
 10
11.0728772922
 20
8.7458127859
 30
0.0
 10
11.0536948691
 20
8.7577249486
 30
0.0
 10
11.0349577656
 20
8.7703772274
 30
0.0
 10
11.0106046923
 20
8.788209288
 30
0.0
 10
10.981433686
 20
8.8122416656
 30
0.0
 10
10.9487053484
 20
8.8436612719
 30
0.0
 10
10.918450421
 20
8.8774690756
 30
0.0
 10
10.8954538577
 20
8.9074631937
 30
0.0
 10
10.8784851312
 20
8.9324252269
 30
0.0
 10
10.8664966024
 20
8.9515935285
 30
0.0
 10
10.8552631669
 20
8.9711808356
 30
0.0
 10
10.8482840341
 20
8.9845084493
 30
0.0
 10
10.8449265817
 20
8.9912313166
 30
0.0
  0
SPLINE
  5
3FB
100
AcDbEntity
  8
0
100
AcDbSpline
 62
4
  6
CONTINUOUS
 70
0
 71
3
 72
314
 73
310
 74
0
 42
0.0000001
 43
0.0000001
 44
0.0000000001
 40
0.0
 40
0.0
 40
0.0
 40
0.0
 40
0.015625
 40
0.0234375
 40
0.03125
 40
0.0390625
 40
0.046875
 40
0.05078125
 40
0.0546875
 40
0.056640625
 40
0.05859375
 40
0.060546875
 40
0.0615234375
 40
0.0625
 40
0.0634765625
 40
0.064453125
 40
0.06640625
 40
0.068359375
 40
0.0703125
 40
0.07421875
 40
0.078125
 40
0.0859375
 40
0.09375
 40
0.1015625
 40
0.109375
 40
0.11328125
 40
0.1171875
 40
0.119140625
 40
0.12109375
 40
0.123046875
 40
0.1240234375
 40
0.1245117188
 40
0.125
 40
0.1254882812
 40
0.1259765625
 40
0.126953125
 40
0.12890625
 40
0.130859375
 40
0.1328125
 40
0.13671875
 40
0.140625
 40
0.1484375
 40
0.15625
 40
0.1640625
 40
0.171875
 40
0.17578125
 40
0.1796875
 40
0.181640625
 40
0.18359375
 40
0.185546875
 40
0.1865234375
 40
0.1870117188
 40
0.1875
 40
0.1879882812
 40
0.1884765625
 40
0.189453125
 40
0.19140625
 40
0.193359375
 40
0.1953125
 40
0.19921875
 40
0.203125
 40
0.2109375
 40
0.21875
 40
0.2265625
 40
0.23046875
 40
0.234375
 40
0.23828125
 40
0.2421875
 40
0.244140625
 40
0.24609375
 40
0.248046875
 40
0.2490234375
 40
0.2495117188
 40
0.25
 40
0.2504882812
 40
0.2509765625
 40
0.251953125
 40
0.25390625
 40
0.255859375
 40
0.2578125
 40
0.26171875
 40
0.265625
 40
0.26953125
 40
0.2734375
 40
0.28125
 40
0.2890625
 40
0.29296875
 40
0.296875
 40
0.30078125
 40
0.3046875
 40
0.306640625
 40
0.30859375
 40
0.310546875
 40
0.3115234375
 40
0.3120117188
 40
0.3125
 40
0.3129882812
 40
0.3134765625
 40
0.314453125
 40
0.31640625
 40
0.318359375
 40
0.3203125
 40
0.32421875
 40
0.328125
 40
0.33203125
 40
0.3359375
 40
0.34375
 40
0.3515625
 40
0.35546875
 40
0.359375
 40
0.36328125
 40
0.3671875
 40
0.369140625
 40
0.37109375
 40
0.3720703125
 40
0.373046875
 40
0.3740234375
 40
0.3745117188
 40
0.375
 40
0.3754882812
 40
0.3759765625
 40
0.376953125
 40
0.3779296875
 40
0.37890625
 40
0.380859375
 40
0.3828125
 40
0.38671875
 40
0.390625
 40
0.39453125
 40
0.3984375
 40
0.40625
 40
0.4140625
 40
0.41796875
 40
0.421875
 40
0.42578125
 40
0.4296875
 40
0.431640625
 40
0.43359375
 40
0.4345703125
 40
0.435546875
 40
0.4365234375
 40
0.4370117188
 40
0.4372558594
 40
0.4375
 40
0.4377441406
 40
0.4379882812
 40
0.4384765625
 40
0.439453125
 40
0.4404296875
 40
0.44140625
 40
0.443359375
 40
0.4453125
 40
0.44921875
 40
0.453125
 40
0.45703125
 40
0.4609375
 40
0.46875
 40
0.4765625
 40
0.48046875
 40
0.484375
 40
0.48828125
 40
0.4921875
 40
0.494140625
 40
0.49609375
 40
0.4970703125
 40
0.498046875
 40
0.4990234375
 40
0.4995117188
 40
0.5
 40
0.5004882812
 40
0.5009765625
 40
0.501953125
 40
0.5029296875
 40
0.50390625
 40
0.505859375
 40
0.5078125
 40
0.51171875
 40
0.515625
 40
0.51953125
 40
0.5234375
 40
0.53125
 40
0.5390625
 40
0.546875
 40
0.55078125
 40
0.5546875
 40
0.556640625
 40
0.55859375
 40
0.560546875
 40
0.5615234375
 40
0.5620117188
 40
0.5625
 40
0.5629882812
 40
0.5634765625
 40
0.564453125
 40
0.56640625
 40
0.568359375
 40
0.5703125
 40
0.57421875
 40
0.578125
 40
0.5859375
 40
0.59375
 40
0.6015625
 40
0.609375
 40
0.61328125
 40
0.6171875
 40
0.619140625
 40
0.62109375
 40
0.623046875
 40
0.6240234375
 40
0.6245117188
 40
0.625
 40
0.6254882812
 40
0.6259765625
 40
0.626953125
 40
0.62890625
 40
0.630859375
 40
0.6328125
 40
0.63671875
 40
0.640625
 40
0.6484375
 40
0.65625
 40
0.6640625
 40
0.671875
 40
0.67578125
 40
0.6796875
 40
0.681640625
 40
0.68359375
 40
0.685546875
 40
0.6865234375
 40
0.6870117188
 40
0.6875
 40
0.6879882812
 40
0.6884765625
 40
0.689453125
 40
0.69140625
 40
0.693359375
 40
0.6953125
 40
0.69921875
 40
0.703125
 40
0.7109375
 40
0.71875
 40
0.7265625
 40
0.734375
 40
0.73828125
 40
0.7421875
 40
0.744140625
 40
0.74609375
 40
0.748046875
 40
0.7490234375
 40
0.75
 40
0.7509765625
 40
0.751953125
 40
0.75390625
 40
0.755859375
 40
0.7578125
 40
0.76171875
 40
0.765625
 40
0.7734375
 40
0.78125
 40
0.7890625
 40
0.796875
 40
0.80078125
 40
0.8046875
 40
0.80859375
 40
0.810546875
 40
0.8115234375
 40
0.8125
 40
0.8134765625
 40
0.814453125
 40
0.81640625
 40
0.8203125
 40
0.82421875
 40
0.828125
 40
0.8359375
 40
0.84375
 40
0.8515625
 40
0.859375
 40
0.86328125
 40
0.8671875
 40
0.87109375
 40
0.873046875
 40
0.8740234375
 40
0.875
 40
0.8759765625
 40
0.876953125
 40
0.87890625
 40
0.8828125
 40
0.88671875
 40
0.890625
 40
0.8984375
 40
0.90625
 40
0.9140625
 40
0.921875
 40
0.92578125
 40
0.9296875
 40
0.93359375
 40
0.935546875
 40
0.9365234375
 40
0.9375
 40
0.9384765625
 40
0.939453125
 40
0.94140625
 40
0.9453125
 40
0.94921875
 40
0.953125
 40
0.9609375
 40
0.96875
 40
0.984375
 40
1.0
 40
1.0
 40
1.0
 40
1.0
 10
13.2311260451
 20
8.2067216098
 30
0.0
 10
13.2312906792
 20
8.2006142603
 30
0.0
 10
13.2315376307
 20
8.1914532366
 30
0.0
 10
13.2318668979
 20
8.1792385359
 30
0.0
 10
13.232113852
 20
8.1700775167
 30
0.0
 10
13.232360792
 20
8.1609164735
 30
0.0
 10
13.2325666193
 20
8.1532823457
 30
0.0
 10
13.2327311827
 20
8.1471748757
 30
0.0
 10
13.2328342589
 20
8.1433580889
 30
0.0
 10
13.2329162067
 20
8.1403037847
 30
0.0
 10
13.2329790724
 20
8.1380154516
 30
0.0
 10
13.2330269916
 20
8.1361008885
 30
0.0
 10
13.2330753498
 20
8.1345863257
 30
0.0
 10
13.2330842315
 20
8.1334037118
 30
0.0
 10
13.2331976496
 20
8.1323993213
 30
0.0
 10
13.2333123578
 20
8.1309978783
 30
0.0
 10
13.2334682715
 20
8.1292674341
 30
0.0
 10
13.2336500054
 20
8.1271817585
 30
0.0
 10
13.2338941903
 20
8.124404051
 30
0.0
 10
13.2341987801
 20
8.1209308232
 30
0.0
 10
13.2346864821
 20
8.1153742698
 30
0.0
 10
13.2352959869
 20
8.1084283691
 30
0.0
 10
13.2360274442
 20
8.1000933749
 30
0.0
 10
13.236758892
 20
8.0917583684
 30
0.0
 10
13.2373684204
 20
8.0848124983
 30
0.0
 10
13.2378560753
 20
8.0792558835
 30
0.0
 10
13.2381607849
 20
8.075782812
 30
0.0
 10
13.2384047239
 20
8.0730047838
 30
0.0
 10
13.238587209
 20
8.0709200877
 30
0.0
 10
13.2387407725
 20
8.0691865789
 30
0.0
 10
13.2388453377
 20
8.0679657872
 30
0.0
 10
13.2389096631
 20
8.0672796457
 30
0.0
 10
13.2389450224
 20
8.0667327741
 30
0.0
 10
13.2390296337
 20
8.0663092376
 30
0.0
 10
13.2391252691
 20
8.0657015016
 30
0.0
 10
13.2393006353
 20
8.0646580077
 30
0.0
 10
13.2395469738
 20
8.0631568228
 30
0.0
 10
13.2398443711
 20
8.0613598864
 30
0.0
 10
13.2402402753
 20
8.0589624045
 30
0.0
 10
13.2407353698
 20
8.0559660887
 30
0.0
 10
13.2415274011
 20
8.0511716833
 30
0.0
 10
13.2425174817
 20
8.0451787804
 30
0.0
 10
13.2437055594
 20
8.0379872489
 30
0.0
 10
13.2448936466
 20
8.0307957431
 30
0.0
 10
13.2458837038
 20
8.0248027761
 30
0.0
 10
13.2466757818
 20
8.0200084988
 30
0.0
 10
13.2471707578
 20
8.0170118576
 30
0.0
 10
13.247566905
 20
8.0146150434
 30
0.0
 10
13.2478635599
 20
8.0128160674
 30
0.0
 10
13.2481122214
 20
8.0113212638
 30
0.0
 10
13.2482834406
 20
8.0102663782
 30
0.0
 10
13.2483857207
 20
8.0096768946
 30
0.0
 10
13.2484499215
 20
8.0091972926
 30
0.0
 10
13.2485619392
 20
8.0088609934
 30
0.0
 10
13.2486946171
 20
8.0083626089
 30
0.0
 10
13.2489345745
 20
8.0075137253
 30
0.0
 10
13.249273308
 20
8.0062888584
 30
0.0
 10
13.2496815273
 20
8.0048242299
 30
0.0
 10
13.2502252122
 20
8.0028695715
 30
0.0
 10
13.2509050263
 20
8.0004268718
 30
0.0
 10
13.2519926126
 20
7.9965182039
 30
0.0
 10
13.2533521353
 20
7.9916324884
 30
0.0
 10
13.2549835457
 20
7.9857695798
 30
0.0
 10
13.2563430575
 20
7.9808838302
 30
0.0
 10
13.2574306679
 20
7.9769752372
 30
0.0
 10
13.2582463711
 20
7.9740437679
 30
0.0
 10
13.2590620919
 20
7.9711123933
 30
0.0
 10
13.2597418047
 20
7.9686692861
 30
0.0
 10
13.2602856969
 20
7.9667154612
 30
0.0
 10
13.2606932829
 20
7.9652482869
 30
0.0
 10
13.2610339975
 20
7.964031385
 30
0.0
 10
13.2612704184
 20
7.9631682825
 30
0.0
 10
13.2614087627
 20
7.9626926801
 30
0.0
 10
13.2615033751
 20
7.9622864015
 30
0.0
 10
13.2616329474
 20
7.9620696308
 30
0.0
 10
13.2617935161
 20
7.9617145007
 30
0.0
 10
13.2620801928
 20
7.9611238215
 30
0.0
 10
13.2624867607
 20
7.9602638922
 30
0.0
 10
13.2629759135
 20
7.9592388693
 30
0.0
 10
13.2636276732
 20
7.9578697644
 30
0.0
 10
13.2644425252
 20
7.9561592095
 30
0.0
 10
13.2654202823
 20
7.9541061895
 30
0.0
 10
13.2663980568
 20
7.9520532642
 30
0.0
 10
13.2677017501
 20
7.9493159973
 30
0.0
 10
13.2693313689
 20
7.9458944261
 30
0.0
 10
13.2709609863
 20
7.9424728465
 30
0.0
 10
13.2722646818
 20
7.939735593
 30
0.0
 10
13.2732424496
 20
7.9376826274
 30
0.0
 10
13.2742202321
 20
7.9356297587
 30
0.0
 10
13.2750350048
 20
7.9339187329
 30
0.0
 10
13.2756869263
 20
7.9325505883
 30
0.0
 10
13.276175585
 20
7.931522633
 30
0.0
 10
13.2765836988
 20
7.9306718781
 30
0.0
 10
13.2768676158
 20
7.9300648211
 30
0.0
 10
13.2770326062
 20
7.9297359323
 30
0.0
 10
13.2771485964
 20
7.9294385569
 30
0.0
 10
13.2772942212
 20
7.9293350161
 30
0.0
 10
13.2774780507
 20
7.92912935
 30
0.0
 10
13.2778045685
 20
7.928800936
 30
0.0
 10
13.2782685045
 20
7.9283153037
 30
0.0
 10
13.2788263056
 20
7.9277395944
 30
0.0
 10
13.2795696638
 20
7.9269695195
 30
0.0
 10
13.2804989908
 20
7.9260077709
 30
0.0
 10
13.2816141278
 20
7.9248533103
 30
0.0
 10
13.2827292796
 20
7.9236989466
 30
0.0
 10
13.2842161435
 20
7.9221597612
 30
0.0
 10
13.2860747251
 20
7.9202357908
 30
0.0
 10
13.2879333062
 20
7.9183118174
 30
0.0
 10
13.289420171
 20
7.9167726369
 30
0.0
 10
13.2905353202
 20
7.9156182586
 30
0.0
 10
13.2916504667
 20
7.9144638529
 30
0.0
 10
13.2925797641
 20
7.9135019336
 30
0.0
 10
13.2933231827
 20
7.9127322067
 30
0.0
 10
13.2937878632
 20
7.9122515633
 30
0.0
 10
13.2941595072
 20
7.9118660504
 30
0.0
 10
13.2944385153
 20
7.9115796486
 30
0.0
 10
13.2946701467
 20
7.9113322868
 30
0.0
 10
13.294857415
 20
7.9111538955
 30
0.0
 10
13.2949925018
 20
7.9109668239
 30
0.0
 10
13.295148065
 20
7.9109831159
 30
0.0
 10
13.2953483299
 20
7.9109338011
 30
0.0
 10
13.295601115
 20
7.9108965302
 30
0.0
 10
13.2959034068
 20
7.9108413728
 30
0.0
 10
13.2963068294
 20
7.9107714734
 30
0.0
 10
13.296810982
 20
7.9106828515
 30
0.0
 10
13.2976176965
 20
7.9105417538
 30
0.0
 10
13.2986260654
 20
7.9103651425
 30
0.0
 10
13.2998361184
 20
7.9101533114
 30
0.0
 10
13.3010461687
 20
7.9099414529
 30
0.0
 10
13.30265957
 20
7.9096589844
 30
0.0
 10
13.3046763214
 20
7.9093058956
 30
0.0
 10
13.3066930728
 20
7.9089528076
 30
0.0
 10
13.308306474
 20
7.908670338
 30
0.0
 10
13.3095165247
 20
7.9084584831
 30
0.0
 10
13.3107265761
 20
7.9082466383
 30
0.0
 10
13.31173495
 20
7.9080700697
 30
0.0
 10
13.3125416543
 20
7.9079288848
 30
0.0
 10
13.3130458328
 20
7.9078404849
 30
0.0
 10
13.3134492023
 20
7.9077701298
 30
0.0
 10
13.3137516561
 20
7.9077163645
 30
0.0
 10
13.3140039344
 20
7.9076747383
 30
0.0
 10
13.314180071
 20
7.9076393626
 30
0.0
 10
13.314281436
 20
7.9076288871
 30
0.0
 10
13.314355444
 20
7.9075935951
 30
0.0
 10
13.3144371576
 20
7.9076631751
 30
0.0
 10
13.3145434213
 20
7.907719368
 30
0.0
 10
13.314730635
 20
7.907834749
 30
0.0
 10
13.3149974285
 20
7.9079906685
 30
0.0
 10
13.3153178609
 20
7.9081815858
 30
0.0
 10
13.3157450062
 20
7.9084348102
 30
0.0
 10
13.3162789714
 20
7.9087517967
 30
0.0
 10
13.317133297
 20
7.9092587203
 30
0.0
 10
13.3182012104
 20
7.9098924622
 30
0.0
 10
13.3194827037
 20
7.910652915
 30
0.0
 10
13.3207641977
 20
7.9114133778
 30
0.0
 10
13.3224728562
 20
7.9124273248
 30
0.0
 10
13.3246086794
 20
7.9136947594
 30
0.0
 10
13.3267445025
 20
7.9149621947
 30
0.0
 10
13.3284531611
 20
7.9159761405
 30
0.0
 10
13.3297346548
 20
7.9167366069
 30
0.0
 10
13.3310161492
 20
7.9174970465
 30
0.0
 10
13.3320840592
 20
7.9181308294
 30
0.0
 10
13.3329383917
 20
7.9186376695
 30
0.0
 10
13.3334723393
 20
7.9189548684
 30
0.0
 10
13.3338995208
 20
7.9192076568
 30
0.0
 10
13.3342198426
 20
7.9193999061
 30
0.0
 10
13.3344869821
 20
7.9195516582
 30
0.0
 10
13.3347002347
 20
7.9196920245
 30
0.0
 10
13.3348614285
 20
7.9197454785
 30
0.0
 10
13.3350178341
 20
7.9199967333
 30
0.0
 10
13.3352280474
 20
7.9202626452
 30
0.0
 10
13.3354902402
 20
7.920618741
 30
0.0
 10
13.3358051171
 20
7.9210359092
 30
0.0
 10
13.3362248673
 20
7.9215956774
 30
0.0
 10
13.3367495844
 20
7.9222941743
 30
0.0
 10
13.3375891153
 20
7.9234124474
 30
0.0
 10
13.3386385346
 20
7.9248100562
 30
0.0
 10
13.3398978353
 20
7.9264872864
 30
0.0
 10
13.3411571367
 20
7.9281644899
 30
0.0
 10
13.342836205
 20
7.9304007711
 30
0.0
 10
13.3449350406
 20
7.9331961153
 30
0.0
 10
13.3474536423
 20
7.936550548
 30
0.0
 10
13.3495524801
 20
7.9393458531
 30
0.0
 10
13.3512315435
 20
7.9415822206
 30
0.0
 10
13.3522809738
 20
7.9429796692
 30
0.0
 10
13.3531204821
 20
7.9440982719
 30
0.0
 10
13.3537502118
 20
7.9449354612
 30
0.0
 10
13.3542746731
 20
7.9456387266
 30
0.0
 10
13.3546424113
 20
7.9461200074
 30
0.0
 10
13.3548515866
 20
7.9464122084
 30
0.0
 10
13.3550111749
 20
7.9465829534
 30
0.0
 10
13.3551604161
 20
7.9469387295
 30
0.0
 10
13.3553630135
 20
7.9473485567
 30
0.0
 10
13.3557158774
 20
7.9480958251
 30
0.0
 10
13.3562208479
 20
7.9491476301
 30
0.0
 10
13.3568264362
 20
7.9504165253
 30
0.0
 10
13.3576340187
 20
7.9521060353
 30
0.0
 10
13.3586434518
 20
7.9542187275
 30
0.0
 10
13.3602585699
 20
7.957598585
 30
0.0
 10
13.3622774588
 20
7.9618235623
 30
0.0
 10
13.3647001297
 20
7.9668934645
 30
0.0
 10
13.3671227976
 20
7.9719634002
 30
0.0
 10
13.3691416938
 20
7.9761882937
 30
0.0
 10
13.3707567972
 20
7.9795683189
 30
0.0
 10
13.3717662677
 20
7.981680585
 30
0.0
 10
13.3725737735
 20
7.9833709693
 30
0.0
 10
13.3731795962
 20
7.9846371932
 30
0.0
 10
13.3736838332
 20
7.9856973562
 30
0.0
 10
13.3740380065
 20
7.9864297042
 30
0.0
 10
13.374238506
 20
7.9868634378
 30
0.0
 10
13.3743941913
 20
7.9871457812
 30
0.0
 10
13.3745295765
 20
7.9875923271
 30
0.0
 10
13.374717171
 20
7.9881304459
 30
0.0
 10
13.3750421621
 20
7.9890988396
 30
0.0
 10
13.3755081601
 20
7.9904683076
 30
0.0
 10
13.3760666194
 20
7.9921176408
 30
0.0
 10
13.3768114896
 20
7.9943146661
 30
0.0
 10
13.3777424891
 20
7.9970616619
 30
0.0
 10
13.3792321376
 20
8.0014564558
 30
0.0
 10
13.3810941812
 20
8.0069500861
 30
0.0
 10
13.3833286414
 20
8.0135423797
 30
0.0
 10
13.3855630972
 20
8.0201347037
 30
0.0
 10
13.3874251519
 20
8.0256282578
 30
0.0
 10
13.3889147782
 20
8.0300232042
 30
0.0
 10
13.3898458342
 20
8.0327698126
 30
0.0
 10
13.3905905884
 20
8.0349676328
 30
0.0
 10
13.391149402
 20
8.0366145373
 30
0.0
 10
13.3916142914
 20
8.0379916044
 30
0.0
 10
13.3919412616
 20
8.0389464324
 30
0.0
 10
13.3921256852
 20
8.0395062869
 30
0.0
 10
13.3922708104
 20
8.0398860678
 30
0.0
 10
13.3923899137
 20
8.0404191691
 30
0.0
 10
13.3925577948
 20
8.041076491
 30
0.0
 10
13.3928473578
 20
8.0422517215
 30
0.0
 10
13.3932632302
 20
8.0439175952
 30
0.0
 10
13.3937613307
 20
8.0459222196
 30
0.0
 10
13.3944257953
 20
8.0485931045
 30
0.0
 10
13.3952562628
 20
8.0519323776
 30
0.0
 10
13.396585074
 20
8.0572748419
 30
0.0
 10
13.398246067
 20
8.0639530488
 30
0.0
 10
13.4002392648
 20
8.0719668489
 30
0.0
 10
13.4022324714
 20
8.0799806393
 30
0.0
 10
13.4038934424
 20
8.0866588705
 30
0.0
 10
13.4052222977
 20
8.0920012863
 30
0.0
 10
13.4060526533
 20
8.0953406827
 30
0.0
 10
13.4067173475
 20
8.0980113145
 30
0.0
 10
13.4072147464
 20
8.1000167122
 30
0.0
 10
13.4076328141
 20
8.1016801665
 30
0.0
 10
13.4079592644
 20
8.1030282231
 30
0.0
 10
13.4082259723
 20
8.1039920122
 30
0.0
 10
13.4084092017
 20
8.1051361682
 30
0.0
 10
13.4086826677
 20
8.1065987051
 30
0.0
 10
13.4090144955
 20
8.1084484926
 30
0.0
 10
13.4094169713
 20
8.1106589852
 30
0.0
 10
13.4099521098
 20
8.1136095402
 30
0.0
 10
13.4106215451
 20
8.1172966276
 30
0.0
 10
13.4116923557
 20
8.1231965853
 30
0.0
 10
13.4130309644
 20
8.1305713243
 30
0.0
 10
13.4146372651
 20
8.1394210834
 30
0.0
 10
13.4162435325
 20
8.1482708861
 30
0.0
 10
13.4175822241
 20
8.155645516
 30
0.0
 10
13.4186528691
 20
8.1615456919
 30
0.0
 10
13.4194566964
 20
8.1659695312
 30
0.0
 10
13.4201238692
 20
8.169660176
 30
0.0
 10
13.420596156
 20
8.1722355577
 30
0.0
 10
13.4208578121
 20
8.1737198044
 30
0.0
 10
13.4210772158
 20
8.174797495
 30
0.0
 10
13.4212080839
 20
8.1760108633
 30
0.0
 10
13.421413457
 20
8.1775813618
 30
0.0
 10
13.4217584713
 20
8.1803517843
 30
0.0
 10
13.4222588715
 20
8.1842980026
 30
0.0
 10
13.4228561316
 20
8.1890383991
 30
0.0
 10
13.4236536037
 20
8.1953572037
 30
0.0
 10
13.4246500549
 20
8.2032563028
 30
0.0
 10
13.4258459753
 20
8.2127349601
 30
0.0
 10
13.427041802
 20
8.2222137145
 30
0.0
 10
13.4280384876
 20
8.2301125709
 30
0.0
 10
13.4288354909
 20
8.2364318609
 30
0.0
 10
13.4294341808
 20
8.2411707772
 30
0.0
 10
13.429930108
 20
8.2451216259
 30
0.0
 10
13.4302831072
 20
8.2478837825
 30
0.0
 10
13.4304756865
 20
8.249467525
 30
0.0
 10
13.4306458531
 20
8.2506402121
 30
0.0
 10
13.4307176583
 20
8.2518706944
 30
0.0
 10
13.430847708
 20
8.2534911779
 30
0.0
 10
13.4310593097
 20
8.2563364166
 30
0.0
 10
13.4313699551
 20
8.2603961328
 30
0.0
 10
13.4317391523
 20
8.2652698942
 30
0.0
 10
13.4322326653
 20
8.2717675083
 30
0.0
 10
13.4328491246
 20
8.2798897784
 30
0.0
 10
13.4335890739
 20
8.2896363925
 30
0.0
 10
13.4343289215
 20
8.2993830428
 30
0.0
 10
13.4349456351
 20
8.3075052226
 30
0.0
 10
13.4354386394
 20
8.3140030172
 30
0.0
 10
13.4358093879
 20
8.3188762281
 30
0.0
 10
13.4361151802
 20
8.3229376665
 30
0.0
 10
13.4363354455
 20
8.3257798308
 30
0.0
 10
13.4364516139
 20
8.3274052404
 30
0.0
 10
13.4365660583
 20
8.3286205911
 30
0.0
 10
13.4365760788
 20
8.3298501097
 30
0.0
 10
13.4366258637
 20
8.331484526
 30
0.0
 10
13.4366960166
 20
8.334347057
 30
0.0
 10
13.4368051075
 20
8.3384351832
 30
0.0
 10
13.4369322188
 20
8.3433414499
 30
0.0
 10
13.437103027
 20
8.3498829589
 30
0.0
 10
13.4373160831
 20
8.3580599067
 30
0.0
 10
13.4376572268
 20
8.3711429888
 30
0.0
 10
13.4380835688
 20
8.3874968532
 30
0.0
 10
13.438424669
 20
8.4005799412
 30
0.0
 10
13.4385952158
 20
8.4071214856
 30
0.0
  0
SPLINE
  5
3FC
100
AcDbEntity
  8
0
100
AcDbSpline
 62
4
  6
CONTINUOUS
 70
0
 71
3
 72
314
 73
310
 74
0
 42
0.0000001
 43
0.0000001
 44
0.0000000001
 40
0.0
 40
0.0
 40
0.0
 40
0.0
 40
0.015625
 40
0.0234375
 40
0.03125
 40
0.0390625
 40
0.046875
 40
0.05078125
 40
0.0546875
 40
0.056640625
 40
0.05859375
 40
0.060546875
 40
0.0615234375
 40
0.0625
 40
0.0634765625
 40
0.064453125
 40
0.06640625
 40
0.068359375
 40
0.0703125
 40
0.07421875
 40
0.078125
 40
0.0859375
 40
0.09375
 40
0.1015625
 40
0.109375
 40
0.11328125
 40
0.1171875
 40
0.119140625
 40
0.12109375
 40
0.123046875
 40
0.1240234375
 40
0.1245117188
 40
0.125
 40
0.1254882812
 40
0.1259765625
 40
0.126953125
 40
0.12890625
 40
0.130859375
 40
0.1328125
 40
0.13671875
 40
0.140625
 40
0.1484375
 40
0.15625
 40
0.1640625
 40
0.171875
 40
0.17578125
 40
0.1796875
 40
0.181640625
 40
0.18359375
 40
0.185546875
 40
0.1865234375
 40
0.1870117188
 40
0.1875
 40
0.1879882812
 40
0.1884765625
 40
0.189453125
 40
0.19140625
 40
0.193359375
 40
0.1953125
 40
0.19921875
 40
0.203125
 40
0.2109375
 40
0.21875
 40
0.2265625
 40
0.23046875
 40
0.234375
 40
0.23828125
 40
0.2421875
 40
0.244140625
 40
0.24609375
 40
0.248046875
 40
0.2490234375
 40
0.2495117188
 40
0.25
 40
0.2504882812
 40
0.2509765625
 40
0.251953125
 40
0.25390625
 40
0.255859375
 40
0.2578125
 40
0.26171875
 40
0.265625
 40
0.26953125
 40
0.2734375
 40
0.28125
 40
0.2890625
 40
0.29296875
 40
0.296875
 40
0.30078125
 40
0.3046875
 40
0.306640625
 40
0.30859375
 40
0.310546875
 40
0.3115234375
 40
0.3120117188
 40
0.3125
 40
0.3129882812
 40
0.3134765625
 40
0.314453125
 40
0.31640625
 40
0.318359375
 40
0.3203125
 40
0.32421875
 40
0.328125
 40
0.33203125
 40
0.3359375
 40
0.34375
 40
0.3515625
 40
0.35546875
 40
0.359375
 40
0.36328125
 40
0.3671875
 40
0.369140625
 40
0.37109375
 40
0.3720703125
 40
0.373046875
 40
0.3740234375
 40
0.3745117188
 40
0.375
 40
0.3754882812
 40
0.3759765625
 40
0.376953125
 40
0.3779296875
 40
0.37890625
 40
0.380859375
 40
0.3828125
 40
0.38671875
 40
0.390625
 40
0.39453125
 40
0.3984375
 40
0.40625
 40
0.4140625
 40
0.41796875
 40
0.421875
 40
0.42578125
 40
0.4296875
 40
0.431640625
 40
0.43359375
 40
0.4345703125
 40
0.435546875
 40
0.4365234375
 40
0.4370117188
 40
0.4372558594
 40
0.4375
 40
0.4377441406
 40
0.4379882812
 40
0.4384765625
 40
0.439453125
 40
0.4404296875
 40
0.44140625
 40
0.443359375
 40
0.4453125
 40
0.44921875
 40
0.453125
 40
0.45703125
 40
0.4609375
 40
0.46875
 40
0.4765625
 40
0.48046875
 40
0.484375
 40
0.48828125
 40
0.4921875
 40
0.494140625
 40
0.49609375
 40
0.4970703125
 40
0.498046875
 40
0.4990234375
 40
0.4995117188
 40
0.5
 40
0.5004882812
 40
0.5009765625
 40
0.501953125
 40
0.5029296875
 40
0.50390625
 40
0.505859375
 40
0.5078125
 40
0.51171875
 40
0.515625
 40
0.51953125
 40
0.5234375
 40
0.53125
 40
0.5390625
 40
0.546875
 40
0.55078125
 40
0.5546875
 40
0.556640625
 40
0.55859375
 40
0.560546875
 40
0.5615234375
 40
0.5620117188
 40
0.5625
 40
0.5629882812
 40
0.5634765625
 40
0.564453125
 40
0.56640625
 40
0.568359375
 40
0.5703125
 40
0.57421875
 40
0.578125
 40
0.5859375
 40
0.59375
 40
0.6015625
 40
0.609375
 40
0.61328125
 40
0.6171875
 40
0.619140625
 40
0.62109375
 40
0.623046875
 40
0.6240234375
 40
0.6245117188
 40
0.625
 40
0.6254882812
 40
0.6259765625
 40
0.626953125
 40
0.62890625
 40
0.630859375
 40
0.6328125
 40
0.63671875
 40
0.640625
 40
0.6484375
 40
0.65625
 40
0.6640625
 40
0.671875
 40
0.67578125
 40
0.6796875
 40
0.681640625
 40
0.68359375
 40
0.685546875
 40
0.6865234375
 40
0.6870117188
 40
0.6875
 40
0.6879882812
 40
0.6884765625
 40
0.689453125
 40
0.69140625
 40
0.693359375
 40
0.6953125
 40
0.69921875
 40
0.703125
 40
0.7109375
 40
0.71875
 40
0.7265625
 40
0.734375
 40
0.73828125
 40
0.7421875
 40
0.744140625
 40
0.74609375
 40
0.748046875
 40
0.7490234375
 40
0.75
 40
0.7509765625
 40
0.751953125
 40
0.75390625
 40
0.755859375
 40
0.7578125
 40
0.76171875
 40
0.765625
 40
0.7734375
 40
0.78125
 40
0.7890625
 40
0.796875
 40
0.80078125
 40
0.8046875
 40
0.80859375
 40
0.810546875
 40
0.8115234375
 40
0.8125
 40
0.8134765625
 40
0.814453125
 40
0.81640625
 40
0.8203125
 40
0.82421875
 40
0.828125
 40
0.8359375
 40
0.84375
 40
0.8515625
 40
0.859375
 40
0.86328125
 40
0.8671875
 40
0.87109375
 40
0.873046875
 40
0.8740234375
 40
0.875
 40
0.8759765625
 40
0.876953125
 40
0.87890625
 40
0.8828125
 40
0.88671875
 40
0.890625
 40
0.8984375
 40
0.90625
 40
0.9140625
 40
0.921875
 40
0.92578125
 40
0.9296875
 40
0.93359375
 40
0.935546875
 40
0.9365234375
 40
0.9375
 40
0.9384765625
 40
0.939453125
 40
0.94140625
 40
0.9453125
 40
0.94921875
 40
0.953125
 40
0.9609375
 40
0.96875
 40
0.984375
 40
1.0
 40
1.0
 40
1.0
 40
1.0
 10
13.4385952158
 20
8.4071214518
 30
0.0
 10
13.4384305817
 20
8.4132288013
 30
0.0
 10
13.4381836302
 20
8.4223898249
 30
0.0
 10
13.4378543631
 20
8.4346045256
 30
0.0
 10
13.437607409
 20
8.4437655448
 30
0.0
 10
13.437360469
 20
8.4529265881
 30
0.0
 10
13.4371546417
 20
8.4605607159
 30
0.0
 10
13.4369900783
 20
8.4666681859
 30
0.0
 10
13.4368870021
 20
8.4704849727
 30
0.0
 10
13.4368050542
 20
8.4735392769
 30
0.0
 10
13.4367421886
 20
8.47582761
 30
0.0
 10
13.4366942693
 20
8.4777421731
 30
0.0
 10
13.4366459112
 20
8.4792567359
 30
0.0
 10
13.4366370295
 20
8.4804393498
 30
0.0
 10
13.4365236114
 20
8.4814437403
 30
0.0
 10
13.4364089032
 20
8.4828451833
 30
0.0
 10
13.4362529895
 20
8.4845756275
 30
0.0
 10
13.4360712556
 20
8.4866613031
 30
0.0
 10
13.4358270707
 20
8.4894390106
 30
0.0
 10
13.4355224809
 20
8.4929122383
 30
0.0
 10
13.4350347789
 20
8.4984687917
 30
0.0
 10
13.434425274
 20
8.5054146925
 30
0.0
 10
13.4336938168
 20
8.5137496867
 30
0.0
 10
13.4329623689
 20
8.5220846932
 30
0.0
 10
13.4323528405
 20
8.5290305632
 30
0.0
 10
13.4318651856
 20
8.5345871781
 30
0.0
 10
13.4315604761
 20
8.5380602496
 30
0.0
 10
13.431316537
 20
8.5408382777
 30
0.0
 10
13.431134052
 20
8.5429229738
 30
0.0
 10
13.4309804885
 20
8.5446564827
 30
0.0
 10
13.4308759233
 20
8.5458772744
 30
0.0
 10
13.4308115979
 20
8.5465634158
 30
0.0
 10
13.4307762386
 20
8.5471102874
 30
0.0
 10
13.4306916273
 20
8.547533824
 30
0.0
 10
13.4305959919
 20
8.54814156
 30
0.0
 10
13.4304206257
 20
8.5491850539
 30
0.0
 10
13.4301742872
 20
8.5506862388
 30
0.0
 10
13.4298768898
 20
8.5524831752
 30
0.0
 10
13.4294809857
 20
8.554880657
 30
0.0
 10
13.4289858912
 20
8.5578769729
 30
0.0
 10
13.4281938599
 20
8.5626713782
 30
0.0
 10
13.4272037793
 20
8.5686642812
 30
0.0
 10
13.4260157015
 20
8.5758558126
 30
0.0
 10
13.4248276144
 20
8.5830473185
 30
0.0
 10
13.4238375572
 20
8.5890402854
 30
0.0
 10
13.4230454792
 20
8.5938345628
 30
0.0
 10
13.4225505032
 20
8.5968312039
 30
0.0
 10
13.422154356
 20
8.5992280182
 30
0.0
 10
13.4218577011
 20
8.6010269942
 30
0.0
 10
13.4216090395
 20
8.6025217977
 30
0.0
 10
13.4214378204
 20
8.6035766833
 30
0.0
 10
13.4213355403
 20
8.604166167
 30
0.0
 10
13.4212713395
 20
8.6046457689
 30
0.0
 10
13.4211593218
 20
8.6049820681
 30
0.0
 10
13.4210266439
 20
8.6054804526
 30
0.0
 10
13.4207866864
 20
8.6063293363
 30
0.0
 10
13.4204479529
 20
8.6075542031
 30
0.0
 10
13.4200397337
 20
8.6090188317
 30
0.0
 10
13.4194960488
 20
8.6109734901
 30
0.0
 10
13.4188162347
 20
8.6134161898
 30
0.0
 10
13.4177286484
 20
8.6173248576
 30
0.0
 10
13.4163691257
 20
8.6222105732
 30
0.0
 10
13.4147377153
 20
8.6280734818
 30
0.0
 10
13.4133782034
 20
8.6329592314
 30
0.0
 10
13.4122905931
 20
8.6368678244
 30
0.0
 10
13.4114748898
 20
8.6397992936
 30
0.0
 10
13.4106591691
 20
8.6427306682
 30
0.0
 10
13.4099794563
 20
8.6451737755
 30
0.0
 10
13.4094355641
 20
8.6471276004
 30
0.0
 10
13.4090279781
 20
8.6485947747
 30
0.0
 10
13.4086872635
 20
8.6498116766
 30
0.0
 10
13.4084508426
 20
8.6506747791
 30
0.0
 10
13.4083124983
 20
8.6511503814
 30
0.0
 10
13.4082178859
 20
8.6515566601
 30
0.0
 10
13.4080883136
 20
8.6517734308
 30
0.0
 10
13.4079277449
 20
8.6521285608
 30
0.0
 10
13.4076410681
 20
8.6527192401
 30
0.0
 10
13.4072345003
 20
8.6535791693
 30
0.0
 10
13.4067453474
 20
8.6546041923
 30
0.0
 10
13.4060935878
 20
8.6559732971
 30
0.0
 10
13.4052787358
 20
8.6576838521
 30
0.0
 10
13.4043009787
 20
8.6597368721
 30
0.0
 10
13.4033232042
 20
8.6617897974
 30
0.0
 10
13.4020195109
 20
8.6645270643
 30
0.0
 10
13.4003898921
 20
8.6679486355
 30
0.0
 10
13.3987602747
 20
8.6713702151
 30
0.0
 10
13.3974565791
 20
8.6741074686
 30
0.0
 10
13.3964788114
 20
8.6761604342
 30
0.0
 10
13.3955010288
 20
8.6782133029
 30
0.0
 10
13.3946862562
 20
8.6799243287
 30
0.0
 10
13.3940343347
 20
8.6812924733
 30
0.0
 10
13.393545676
 20
8.6823204286
 30
0.0
 10
13.3931375622
 20
8.6831711835
 30
0.0
 10
13.3928536451
 20
8.6837782405
 30
0.0
 10
13.3926886547
 20
8.6841071293
 30
0.0
 10
13.3925726646
 20
8.6844045047
 30
0.0
 10
13.3924270398
 20
8.6845080455
 30
0.0
 10
13.3922432103
 20
8.6847137115
 30
0.0
 10
13.3919166925
 20
8.6850421256
 30
0.0
 10
13.3914527564
 20
8.6855277579
 30
0.0
 10
13.3908949554
 20
8.6861034672
 30
0.0
 10
13.3901515972
 20
8.6868735421
 30
0.0
 10
13.3892222702
 20
8.6878352907
 30
0.0
 10
13.3881071332
 20
8.6889897513
 30
0.0
 10
13.3869919814
 20
8.6901441149
 30
0.0
 10
13.3855051175
 20
8.6916833003
 30
0.0
 10
13.3836465359
 20
8.6936072707
 30
0.0
 10
13.3817879548
 20
8.6955312442
 30
0.0
 10
13.38030109
 20
8.6970704247
 30
0.0
 10
13.3791859407
 20
8.698224803
 30
0.0
 10
13.3780707942
 20
8.6993792087
 30
0.0
 10
13.3771414969
 20
8.700341128
 30
0.0
 10
13.3763980782
 20
8.7011108548
 30
0.0
 10
13.3759333977
 20
8.7015914983
 30
0.0
 10
13.3755617538
 20
8.7019770112
 30
0.0
 10
13.3752827457
 20
8.702263413
 30
0.0
 10
13.3750511143
 20
8.7025107747
 30
0.0
 10
13.3748638459
 20
8.702689166
 30
0.0
 10
13.3747287592
 20
8.7028762377
 30
0.0
 10
13.374573196
 20
8.7028599456
 30
0.0
 10
13.3743729311
 20
8.7029092605
 30
0.0
 10
13.3741201459
 20
8.7029465314
 30
0.0
 10
13.3738178542
 20
8.7030016888
 30
0.0
 10
13.3734144316
 20
8.7030715882
 30
0.0
 10
13.3729102789
 20
8.70316021
 30
0.0
 10
13.3721035645
 20
8.7033013077
 30
0.0
 10
13.3710951956
 20
8.7034779191
 30
0.0
 10
13.3698851425
 20
8.7036897502
 30
0.0
 10
13.3686750923
 20
8.7039016087
 30
0.0
 10
13.3670616909
 20
8.7041840772
 30
0.0
 10
13.3650449396
 20
8.7045371659
 30
0.0
 10
13.3630281882
 20
8.7048902539
 30
0.0
 10
13.361414787
 20
8.7051727236
 30
0.0
 10
13.3602047363
 20
8.7053845785
 30
0.0
 10
13.3589946848
 20
8.7055964233
 30
0.0
 10
13.3579863109
 20
8.7057729919
 30
0.0
 10
13.3571796067
 20
8.7059141768
 30
0.0
 10
13.3566754282
 20
8.7060025767
 30
0.0
 10
13.3562720586
 20
8.7060729317
 30
0.0
 10
13.3559696049
 20
8.7061266971
 30
0.0
 10
13.3557173265
 20
8.7061683232
 30
0.0
 10
13.35554119
 20
8.7062036989
 30
0.0
 10
13.3554398249
 20
8.7062141744
 30
0.0
 10
13.355365817
 20
8.7062494665
 30
0.0
 10
13.3552841034
 20
8.7061798864
 30
0.0
 10
13.3551778397
 20
8.7061236936
 30
0.0
 10
13.354990626
 20
8.7060083126
 30
0.0
 10
13.3547238325
 20
8.7058523931
 30
0.0
 10
13.3544034001
 20
8.7056614757
 30
0.0
 10
13.3539762547
 20
8.7054082514
 30
0.0
 10
13.3534422896
 20
8.7050912649
 30
0.0
 10
13.352587964
 20
8.7045843413
 30
0.0
 10
13.3515200506
 20
8.7039505994
 30
0.0
 10
13.3502385573
 20
8.7031901466
 30
0.0
 10
13.3489570632
 20
8.7024296838
 30
0.0
 10
13.3472484048
 20
8.7014157368
 30
0.0
 10
13.3451125816
 20
8.7001483022
 30
0.0
 10
13.3429767585
 20
8.6988808668
 30
0.0
 10
13.3412680999
 20
8.697866921
 30
0.0
 10
13.3399866062
 20
8.6971064547
 30
0.0
 10
13.3387051118
 20
8.696346015
 30
0.0
 10
13.3376372018
 20
8.6957122322
 30
0.0
 10
13.3367828693
 20
8.6952053921
 30
0.0
 10
13.3362489217
 20
8.6948881932
 30
0.0
 10
13.3358217402
 20
8.6946354048
 30
0.0
 10
13.3355014184
 20
8.6944431555
 30
0.0
 10
13.3352342788
 20
8.6942914034
 30
0.0
 10
13.3350210263
 20
8.694151037
 30
0.0
 10
13.3348598324
 20
8.694097583
 30
0.0
 10
13.3347034269
 20
8.6938463283
 30
0.0
 10
13.3344932136
 20
8.6935804164
 30
0.0
 10
13.3342310208
 20
8.6932243205
 30
0.0
 10
13.3339161438
 20
8.6928071524
 30
0.0
 10
13.3334963937
 20
8.6922473841
 30
0.0
 10
13.3329716766
 20
8.6915488873
 30
0.0
 10
13.3321321456
 20
8.6904306141
 30
0.0
 10
13.3310827264
 20
8.6890330054
 30
0.0
 10
13.3298234256
 20
8.6873557751
 30
0.0
 10
13.3285641242
 20
8.6856785717
 30
0.0
 10
13.326885056
 20
8.6834422905
 30
0.0
 10
13.3247862204
 20
8.6806469462
 30
0.0
 10
13.3222676187
 20
8.6772925135
 30
0.0
 10
13.3201687808
 20
8.6744972085
 30
0.0
 10
13.3184897175
 20
8.6722608409
 30
0.0
 10
13.3174402871
 20
8.6708633923
 30
0.0
 10
13.3166007789
 20
8.6697447896
 30
0.0
 10
13.3159710491
 20
8.6689076004
 30
0.0
 10
13.3154465879
 20
8.668204335
 30
0.0
 10
13.3150788496
 20
8.6677230541
 30
0.0
 10
13.3148696744
 20
8.6674308532
 30
0.0
 10
13.3147100861
 20
8.6672601082
 30
0.0
 10
13.3145608449
 20
8.6669043321
 30
0.0
 10
13.3143582475
 20
8.6664945049
 30
0.0
 10
13.3140053835
 20
8.6657472364
 30
0.0
 10
13.313500413
 20
8.6646954314
 30
0.0
 10
13.3128948248
 20
8.6634265362
 30
0.0
 10
13.3120872423
 20
8.6617370263
 30
0.0
 10
13.3110778092
 20
8.6596243341
 30
0.0
 10
13.3094626911
 20
8.6562444765
 30
0.0
 10
13.3074438022
 20
8.6520194993
 30
0.0
 10
13.3050211313
 20
8.6469495971
 30
0.0
 10
13.3025984634
 20
8.6418796613
 30
0.0
 10
13.3005795671
 20
8.6376547679
 30
0.0
 10
13.2989644637
 20
8.6342747427
 30
0.0
 10
13.2979549933
 20
8.6321624765
 30
0.0
 10
13.2971474875
 20
8.6304720922
 30
0.0
 10
13.2965416648
 20
8.6292058683
 30
0.0
 10
13.2960374278
 20
8.6281457053
 30
0.0
 10
13.2956832545
 20
8.6274133574
 30
0.0
 10
13.295482755
 20
8.6269796238
 30
0.0
 10
13.2953270696
 20
8.6266972803
 30
0.0
 10
13.2951916845
 20
8.6262507345
 30
0.0
 10
13.29500409
 20
8.6257126157
 30
0.0
 10
13.2946790988
 20
8.624744222
 30
0.0
 10
13.2942131009
 20
8.623374754
 30
0.0
 10
13.2936546416
 20
8.6217254207
 30
0.0
 10
13.2929097714
 20
8.6195283955
 30
0.0
 10
13.2919787719
 20
8.6167813997
 30
0.0
 10
13.2904891234
 20
8.6123866057
 30
0.0
 10
13.2886270798
 20
8.6068929755
 30
0.0
 10
13.2863926196
 20
8.6003006819
 30
0.0
 10
13.2841581638
 20
8.5937083578
 30
0.0
 10
13.2822961091
 20
8.5882148037
 30
0.0
 10
13.2808064828
 20
8.5838198574
 30
0.0
 10
13.2798754268
 20
8.581073249
 30
0.0
 10
13.2791306725
 20
8.5788754287
 30
0.0
 10
13.2785718589
 20
8.5772285242
 30
0.0
 10
13.2781069696
 20
8.5758514572
 30
0.0
 10
13.2777799994
 20
8.5748966291
 30
0.0
 10
13.2775955758
 20
8.5743367747
 30
0.0
 10
13.2774504506
 20
8.5739569937
 30
0.0
 10
13.2773313473
 20
8.5734238925
 30
0.0
 10
13.2771634661
 20
8.5727665706
 30
0.0
 10
13.2768739031
 20
8.5715913401
 30
0.0
 10
13.2764580307
 20
8.5699254664
 30
0.0
 10
13.2759599302
 20
8.567920842
 30
0.0
 10
13.2752954657
 20
8.565249957
 30
0.0
 10
13.2744649981
 20
8.561910684
 30
0.0
 10
13.2731361869
 20
8.5565682196
 30
0.0
 10
13.2714751939
 20
8.5498900128
 30
0.0
 10
13.2694819961
 20
8.5418762126
 30
0.0
 10
13.2674887895
 20
8.5338624222
 30
0.0
 10
13.2658278186
 20
8.5271841911
 30
0.0
 10
13.2644989633
 20
8.5218417753
 30
0.0
 10
13.2636686077
 20
8.5185023789
 30
0.0
 10
13.2630039134
 20
8.515831747
 30
0.0
 10
13.2625065146
 20
8.5138263494
 30
0.0
 10
13.2620884469
 20
8.5121628951
 30
0.0
 10
13.2617619965
 20
8.5108148384
 30
0.0
 10
13.2614952887
 20
8.5098510493
 30
0.0
 10
13.2613120592
 20
8.5087068933
 30
0.0
 10
13.2610385932
 20
8.5072443565
 30
0.0
 10
13.2607067654
 20
8.5053945689
 30
0.0
 10
13.2603042897
 20
8.5031840764
 30
0.0
 10
13.2597691512
 20
8.5002335213
 30
0.0
 10
13.2590997159
 20
8.4965464339
 30
0.0
 10
13.2580289053
 20
8.4906464762
 30
0.0
 10
13.2566902965
 20
8.4832717373
 30
0.0
 10
13.2550839959
 20
8.4744219782
 30
0.0
 10
13.2534777284
 20
8.4655721754
 30
0.0
 10
13.2521390369
 20
8.4581975456
 30
0.0
 10
13.2510683918
 20
8.4522973697
 30
0.0
 10
13.2502645646
 20
8.4478735303
 30
0.0
 10
13.2495973917
 20
8.4441828856
 30
0.0
 10
13.249125105
 20
8.4416075039
 30
0.0
 10
13.2488634489
 20
8.4401232572
 30
0.0
 10
13.2486440452
 20
8.4390455666
 30
0.0
 10
13.248513177
 20
8.4378321982
 30
0.0
 10
13.248307804
 20
8.4362616997
 30
0.0
 10
13.2479627896
 20
8.4334912773
 30
0.0
 10
13.2474623895
 20
8.4295450589
 30
0.0
 10
13.2468651293
 20
8.4248046625
 30
0.0
 10
13.2460676573
 20
8.4184858578
 30
0.0
 10
13.2450712061
 20
8.4105867588
 30
0.0
 10
13.2438752857
 20
8.4011081014
 30
0.0
 10
13.242679459
 20
8.3916293471
 30
0.0
 10
13.2416827734
 20
8.3837304906
 30
0.0
 10
13.2408857701
 20
8.3774112007
 30
0.0
 10
13.2402870802
 20
8.3726722843
 30
0.0
 10
13.239791153
 20
8.3687214357
 30
0.0
 10
13.2394381538
 20
8.3659592791
 30
0.0
 10
13.2392455745
 20
8.3643755366
 30
0.0
 10
13.2390754078
 20
8.3632028494
 30
0.0
 10
13.2390036027
 20
8.3619723671
 30
0.0
 10
13.2388735529
 20
8.3603518837
 30
0.0
 10
13.2386619513
 20
8.3575066449
 30
0.0
 10
13.2383513059
 20
8.3534469288
 30
0.0
 10
13.2379821087
 20
8.3485731674
 30
0.0
 10
13.2374885957
 20
8.3420755532
 30
0.0
 10
13.2368721364
 20
8.3339532832
 30
0.0
 10
13.2361321871
 20
8.324206669
 30
0.0
 10
13.2353923395
 20
8.3144600188
 30
0.0
 10
13.2347756259
 20
8.306337839
 30
0.0
 10
13.2342826216
 20
8.2998400443
 30
0.0
 10
13.233911873
 20
8.2949668335
 30
0.0
 10
13.2336060808
 20
8.2909053951
 30
0.0
 10
13.2333858154
 20
8.2880632308
 30
0.0
 10
13.2332696471
 20
8.2864378212
 30
0.0
 10
13.2331552027
 20
8.2852224705
 30
0.0
 10
13.2331451822
 20
8.2839929518
 30
0.0
 10
13.2330953973
 20
8.2823585356
 30
0.0
 10
13.2330252444
 20
8.2794960046
 30
0.0
 10
13.2329161535
 20
8.2754078784
 30
0.0
 10
13.2327890422
 20
8.2705016117
 30
0.0
 10
13.2326182339
 20
8.2639601027
 30
0.0
 10
13.2324051778
 20
8.2557831549
 30
0.0
 10
13.2320640341
 20
8.2427000728
 30
0.0
 10
13.2316376922
 20
8.2263462083
 30
0.0
 10
13.2312965919
 20
8.2132631204
 30
0.0
 10
13.2311260451
 20
8.2067215759
 30
0.0
  0
ENDSEC
  0
SECTION
  2
OBJECTS
  0
DICTIONARY
  5
C
100
AcDbDictionary
280
0
281
1
  3
ACAD_GROUP
350
D
  3
ACAD_MLINESTYLE
350
17
  3
ACAD_LAYOUT
350
1A
  3
ACAD_PLOTSETTINGS
350
19
  3
ACAD_PLOTSTYLENAME
350
E
  3
ACAD_IMAGE_DICT
350
       3FE
  3
ACAD_IMAGE_VARS
350
       3FF
  3
ACAD_TABLESTYLE
350
       400
  0
IMAGEDEF_REACTOR
  5
3FD
100
AcDbRasterImageDefReactor
 90
2
330
26A
  0
DICTIONARY
  5
D
102
{ACAD_REACTORS
330
C
102
}
100
AcDbDictionary
280
0
281
1
  0
ACDBDICTIONARYWDFLT
  5
E
102
{ACAD_REACTORS
330
C
102
}
100
AcDbDictionary
281
1
  3
Normal
350
F
100
AcDbDictionaryWithDefault
340
F
  0
DICTIONARY
  5
3FE
330
C
100
AcDbDictionary
281
1
  3
CBJ_assy_2_img_1
350
       403
  0
RASTERVARIABLES
  5
3FF
330
C
100
AcDbRasterVariables
 90
0
 70
0
 71
1
 72
5
  0
DICTIONARY
  5
17
102
{ACAD_REACTORS
330
C
102
}
100
AcDbDictionary
280
0
281
1
  3
Standard
350
18
  0
DICTIONARY
  5
400
330
C
100
AcDbDictionary
281
1
  3
Standard
350
       404
  3
Standard1
350
       405
  0
DICTIONARY
  5
19
102
{ACAD_REACTORS
330
C
102
}
100
AcDbDictionary
281
1
  0
DICTIONARY
  5
1A
102
{ACAD_REACTORS
330
C
102
}
100
AcDbDictionary
281
1
  3
Model
350
401
  3
Layout1
350
402
  0
ACDBPLACEHOLDER
  5
F
102
{ACAD_REACTORS
330
E
102
}
  0
MLINESTYLE
  5
18
102
{ACAD_REACTORS
330
17
102
}
100
AcDbMlineStyle
  2
STANDARD
 70
0
  3

 62
256
 51
90.0
 52
90.0
 71
2
 49
0.5
 62
256
  6
BYLAYER
 49
-0.5
 62
256
  6
BYLAYER
  0
LAYOUT
  5
401
102
{ACAD_REACTORS
330
1A
102
}
100
AcDbPlotSettings
  1

  2
none_device
  4
ANSI_C_(22.00_x_17.00_Inches)
  6

 40
0.0
 41
0.0
 42
0.0
 43
0.0
 44
558.8
 45
431.8
 46
0.0
 47
0.0
 48
0.0
 49
0.0
140
0.0
141
0.0
142
1.0
143
1.0
 70
1024
 72
0
 73
0
 74
0
  7

 75
0
147
1.0
148
0.0
149
0.0
100
AcDbLayout
  1
Model
 70
0
 71
0
 10
0.0
 20
0.0
 11
22.0
 21
17.0
 12
0.0
 22
0.0
 32
0.0
 14
0.0
 24
0.0
 34
0.0
 15
0.0
 25
0.0
 35
0.0
146
0.0
 13
0.0
 23
0.0
 33
0.0
 16
1.0
 26
0.0
 36
0.0
 17
0.0
 27
1.0
 37
0.0
 76
0
330
204
345
0
346
0
  0
LAYOUT
  5
402
102
{ACAD_REACTORS
330
1A
102
}
100
AcDbPlotSettings
  1

  2
none_device
  4
ANSI_C_(22.00_x_17.00_Inches)
  6

 40
0.0
 41
0.0
 42
0.0
 43
0.0
 44
558.8
 45
431.8
 46
0.0
 47
0.0
 48
0.0
 49
0.0
140
0.0
141
0.0
142
1.0
143
1.0
 70
0
 72
0
 73
0
 74
0
  7

 75
0
147
1.0
148
0.0
149
0.0
100
AcDbLayout
  1
Layout1
 70
0
 71
1
 10
0.0
 20
0.0
 11
22.0
 21
17.0
 12
0.0
 22
0.0
 32
0.0
 14
0.0
 24
0.0
 34
0.0
 15
0.0
 25
0.0
 35
0.0
146
0.0
 13
0.0
 23
0.0
 33
0.0
 16
1.0
 26
0.0
 36
0.0
 17
0.0
 27
1.0
 37
0.0
 76
0
330
205
345
0
346
0
  0
IMAGEDEF
  5
403
102
{ACAD_REACTORS
330
3FE
330
3FD
102
}
100
AcDbRasterImageDef
 90
0
  1
CBJ_assy_2_img_1.png
 10
369.0
 20
92.0
 11
0.0066666667
 21
0.0066666667
280
1
281
0
  0
TABLESTYLE
  5
404
102
{ACAD_REACTORS
330
400
330
26D
102
}
330
400
100
AcDbTableStyle
  3
Standard
 70
0
 71
0
 40
0.06
 41
0.06
280
1
281
1
  7
Standard
140
0.18
170
1
 62
0
 63
7
283
0
  7
Standard
140
0.18
170
1
 62
0
 63
7
283
0
  7
Standard
140
0.18
170
1
 62
0
 63
7
283
0
  0
TABLESTYLE
  5
405
102
{ACAD_REACTORS
330
400
330
26C
102
}
330
400
100
AcDbTableStyle
  3
Standard1
 70
1
 71
0
 40
0.06
 41
0.06
280
1
281
1
  7
Standard
140
0.18
170
1
 62
0
 63
7
283
0
  7
Standard
140
0.18
170
1
 62
0
 63
7
283
0
  7
Standard
140
0.18
170
1
 62
0
 63
7
283
0
  0
ENDSEC
  0
EOF
