999
DXF file: CB5_assy_2.dxf
999
Pro/ENGINEER 2014200 by Parametric Technology Corporation
  0
SECTION
  2
HEADER
  9
$ACADVER
  1
AC1021
  9
$DWGCODEPAGE
  3
ANSI_1252
  9
$EXTMAX
 10
22.0
 20
17.0
 30
0.0
  9
$EXTMIN
 10
0.0
 20
0.0
 30
0.0
  9
$LIMMIN
 10
0.0
 20
0.0
  9
$LIMMAX
 10
22.0
 20
17.0
  9
$VIEWCTR
 10
11.0
 20
8.5
  9
$VIEWSIZE
 40
17.0
  9
$CLAYER
  8
0
  9
$LTSCALE
 40
1.21
  9
$CELTYPE
  6
BYLAYER
  9
$DIMSCALE
 40
1.0
  9
$DIMASZ
 40
0.1875
  9
$DIMEXO
 40
0.0625
  9
$DIMDLI
 40
0.836
  9
$DIMEXE
 40
0.125
  9
$DIMCEN
 40
0.198
  9
$DIMLFAC
 40
1.0
  9
$DIMBLK
  1
_FILLED
  9
$DIMTXT
 40
0.1
  9
$DIMTOL
 70
0
  9
$DIMLIM
 70
0
  9
$DIMTFAC
 40
1.0
  9
$DIMGAP
 40
0.09
  9
$DIMDSEP
 70
46
  9
$AUNITS
 70
0
  9
$PDMODE
 70
3
  9
$PDSIZE
 40
0.3125
  9
$HANDSEED
  5
3AC
  9
$TILEMODE
 70
1
  9
$MEASUREMENT
 70
0
  9
$INSUNITS
 70
1
  0
ENDSEC
  0
SECTION
  2
CLASSES
  0
CLASS
  1
ACDBDICTIONARYWDFLT
  2
AcDbDictionaryWithDefault
  3
AutoCAD 2000
 90
0
 91
1
280
0
281
0
  0
CLASS
  1
ACDBPLACEHOLDER
  2
AcDbPlaceHolder
  3
AutoCAD 2000
 90
0
 91
1
280
0
281
0
  0
CLASS
  1
LAYOUT
  2
AcDbLayout
  3
AutoCAD 2000
 90
0
 91
0
280
0
281
0
  0
CLASS
  1
RASTERVARIABLES
  2
AcDbRasterVariables
  3
ISM
 90
0
 91
1
280
0
281
0
  0
CLASS
  1
IMAGEDEF
  2
AcDbRasterImageDef
  3
ISM
 90
0
 91
1
280
0
281
0
  0
CLASS
  1
IMAGEDEF_REACTOR
  2
AcDbRasterImageDefReactor
  3
ISM
 90
0
 91
1
280
0
281
0
  0
CLASS
  1
IMAGE
  2
AcDbRasterImage
  3
ISM
 90
127
 91
1
280
0
281
1
  0
CLASS
  1
TABLESTYLE
  2
AcDbTableStyle
  3
ObjectDBX Classes
 90
2047
 91
1
280
0
281
0
  0
CLASS
  1
ACAD_TABLE
  2
AcDbTable
  3
ObjectDBX Classes
 90
1025
 91
2
280
0
281
1
  0
ENDSEC
  0
SECTION
  2
TABLES
  0
TABLE
  2
VPORT
  5
8
100
AcDbSymbolTable
 70
2
  0
VPORT
  5
1F4
100
AcDbSymbolTableRecord
100
AcDbViewportTableRecord
  2
*ACTIVE
 70
0
 10
0.0
 20
0.0
 11
1.0
 21
1.0
 12
11.0
 22
8.5
 13
0.0
 23
0.0
 14
1.0
 24
1.0
 15
0.0
 25
0.0
 16
0.0
 26
0.0
 36
1.0
 17
0.0
 27
0.0
 37
0.0
 40
17.0
 41
1.2941176471
 42
50.0
 43
0.0
 44
0.0
 50
0.0
 51
0.0
 71
0
 72
100
 73
1
 74
1
 75
0
 76
0
 77
0
 78
0
  0
ENDTAB
  0
TABLE
  2
LTYPE
  5
5
100
AcDbSymbolTable
 70
6
  0
LTYPE
  5
14
100
AcDbSymbolTableRecord
100
AcDbLinetypeTableRecord
  2
BYBLOCK
 70
0
  3

 72
65
 73
0
 40
0.0
  0
LTYPE
  5
15
100
AcDbSymbolTableRecord
100
AcDbLinetypeTableRecord
  2
BYLAYER
 70
0
  3

 72
65
 73
0
 40
0.0
  0
LTYPE
  5
16
100
AcDbSymbolTableRecord
100
AcDbLinetypeTableRecord
  2
CONTINUOUS
 70
64
  3
Solid line
 72
65
 73
0
 40
0.0
  0
LTYPE
  5
1F5
100
AcDbSymbolTableRecord
100
AcDbLinetypeTableRecord
  2
CENTER
 70
64
  3
____ _ ____ _ ____ _ ____ _ ____ _ ____ _ ____
 72
65
 73
4
 40
0.6
 49
0.375
 74
0
 49
-0.075
 74
0
 49
0.075
 74
0
 49
-0.075
 74
0
  0
LTYPE
  5
1F6
100
AcDbSymbolTableRecord
100
AcDbLinetypeTableRecord
  2
HIDDEN
 70
64
  3
- - - - - - - - - - - - - - - - - - - -
 72
65
 73
2
 40
0.2
 49
0.1
 74
0
 49
-0.1
 74
0
  0
LTYPE
  5
1F7
100
AcDbSymbolTableRecord
100
AcDbLinetypeTableRecord
  2
PHANTOM
 70
64
  3
_____ _ _ _____ _ _ _____ _ _ _____
 72
65
 73
6
 40
0.8
 49
0.45
 74
0
 49
-0.05
 74
0
 49
0.1
 74
0
 49
-0.05
 74
0
 49
0.1
 74
0
 49
-0.05
 74
0
  0
LTYPE
  5
1F8
100
AcDbSymbolTableRecord
100
AcDbLinetypeTableRecord
  2
DOT
 70
64
  3
. . . . . . . . . . . . . . . . . . . .
 72
65
 73
2
 40
0.2
 49
0.1
 74
0
 49
-0.1
 74
0
  0
LTYPE
  5
1F9
100
AcDbSymbolTableRecord
100
AcDbLinetypeTableRecord
  2
DASHED
 70
64
  3
- - - - - - - - - - - - - - - - - - - -
 72
65
 73
2
 40
0.2
 49
0.1
 74
0
 49
-0.1
 74
0
  0
ENDTAB
  0
TABLE
  2
LAYER
  5
2
100
AcDbSymbolTable
 70
36
  0
LAYER
  5
10
100
AcDbSymbolTableRecord
100
AcDbLayerTableRecord
  2
0
 70
0
 62
7
  6
CONTINUOUS
370
-3
390
F
  0
LAYER
  5
1FA
100
AcDbSymbolTableRecord
100
AcDbLayerTableRecord
  2
DEFAULT_1
 70
0
 62
7
  6
CENTER
370
-3
390
F
  0
LAYER
  5
1FB
100
AcDbSymbolTableRecord
100
AcDbLayerTableRecord
  2
DEFAULT_2
 70
0
 62
8
  6
HIDDEN
370
-3
390
F
  0
LAYER
  5
1FC
100
AcDbSymbolTableRecord
100
AcDbLayerTableRecord
  2
DEFAULT_3
 70
0
 62
7
  6
PHANTOM
370
-3
390
F
  0
LAYER
  5
1FD
100
AcDbSymbolTableRecord
100
AcDbLayerTableRecord
  2
01___PRT_ALL_DTM_PLN
 70
0
 62
7
  6
CONTINUOUS
370
-3
390
F
  0
LAYER
  5
1FE
100
AcDbSymbolTableRecord
100
AcDbLayerTableRecord
  2
01___PRT_DEF_DTM_PLN
 70
0
 62
7
  6
CONTINUOUS
370
-3
390
F
  0
LAYER
  5
1FF
100
AcDbSymbolTableRecord
100
AcDbLayerTableRecord
  2
02___PRT_ALL_AXES
 70
0
 62
7
  6
CONTINUOUS
370
-3
390
F
  0
LAYER
  5
200
100
AcDbSymbolTableRecord
100
AcDbLayerTableRecord
  2
03___PRT_ALL_CURVES
 70
0
 62
7
  6
CONTINUOUS
370
-3
390
F
  0
LAYER
  5
201
100
AcDbSymbolTableRecord
100
AcDbLayerTableRecord
  2
04___PRT_ALL_DTM_PNT
 70
0
 62
7
  6
CONTINUOUS
370
-3
390
F
  0
LAYER
  5
202
100
AcDbSymbolTableRecord
100
AcDbLayerTableRecord
  2
05___PRT_ALL_DTM_CSYS
 70
0
 62
7
  6
CONTINUOUS
370
-3
390
F
  0
LAYER
  5
203
100
AcDbSymbolTableRecord
100
AcDbLayerTableRecord
  2
05___PRT_DEF_DTM_CSYS
 70
0
 62
7
  6
CONTINUOUS
370
-3
390
F
  0
LAYER
  5
204
100
AcDbSymbolTableRecord
100
AcDbLayerTableRecord
  2
06___PRT_ALL_SURFS
 70
0
 62
7
  6
CONTINUOUS
370
-3
390
F
  0
LAYER
  5
205
100
AcDbSymbolTableRecord
100
AcDbLayerTableRecord
  2
DATUM_PLANES
 70
0
 62
7
  6
CONTINUOUS
370
-3
390
F
  0
LAYER
  5
206
100
AcDbSymbolTableRecord
100
AcDbLayerTableRecord
  2
PORT_AREAS
 70
0
 62
7
  6
CONTINUOUS
370
-3
390
F
  0
LAYER
  5
207
100
AcDbSymbolTableRecord
100
AcDbLayerTableRecord
  2
SUNNBOMCOSMETIC
 70
0
 62
7
  6
CONTINUOUS
370
-3
390
F
  0
LAYER
  5
208
100
AcDbSymbolTableRecord
100
AcDbLayerTableRecord
  2
SUNNBOMSTAMPING
 70
0
 62
7
  6
CONTINUOUS
370
-3
390
F
  0
LAYER
  5
209
100
AcDbSymbolTableRecord
100
AcDbLayerTableRecord
  2
THREADS
 70
0
 62
7
  6
CONTINUOUS
370
-3
390
F
  0
ENDTAB
  0
TABLE
  2
STYLE
  5
3
100
AcDbSymbolTable
 70
1
  0
STYLE
  5
11
100
AcDbSymbolTableRecord
100
AcDbTextStyleTableRecord
  2
STANDARD
 70
0
 40
0.0
 41
0.8
 50
0.0
 71
0
 42
0.2
  3
txt
  4

  0
STYLE
  5
20A
100
AcDbSymbolTableRecord
100
AcDbTextStyleTableRecord
  2
TEXTSTYLE_1
 70
0
 40
0.0
 41
0.8
 50
0.0
 71
0
 42
0.2
  3
gdt
  4

  0
ENDTAB
  0
TABLE
  2
VIEW
  5
6
100
AcDbSymbolTable
 70
0
  0
ENDTAB
  0
TABLE
  2
UCS
  5
7
100
AcDbSymbolTable
 70
0
  0
ENDTAB
  0
TABLE
  2
APPID
  5
9
100
AcDbSymbolTable
 70
1
  0
APPID
  5
20B
100
AcDbSymbolTableRecord
100
AcDbRegAppTableRecord
  2
ACAD
 70
0
  0
ENDTAB
  0
TABLE
  2
BLOCK_RECORD
  5
1
100
AcDbSymbolTable
 70
0
  0
BLOCK_RECORD
  5
20C
100
AcDbSymbolTableRecord
100
AcDbBlockTableRecord
  2
*Model_Space
  0
BLOCK_RECORD
  5
20D
100
AcDbSymbolTableRecord
100
AcDbBlockTableRecord
  2
*Paper_Space
  0
BLOCK_RECORD
  5
20E
100
AcDbSymbolTableRecord
100
AcDbBlockTableRecord
  2
SUN_FIRST_THIRD_ANGLE_BL0
  0
BLOCK_RECORD
  5
20F
100
AcDbSymbolTableRecord
100
AcDbBlockTableRecord
  2
*T1
  0
BLOCK_RECORD
  5
210
100
AcDbSymbolTableRecord
100
AcDbBlockTableRecord
  2
*T2
  0
ENDTAB
  0
TABLE
  2
DIMSTYLE
  5
A
100
AcDbSymbolTable
 70
1
100
AcDbDimStyleTable
 71
0
  0
DIMSTYLE
105
211
100
AcDbSymbolTableRecord
100
AcDbDimStyleTableRecord
  2
STANDARD
 70
0
  3

  4

 40
1.0
 41
0.1875
 42
0.0625
 43
0.38
 44
0.125
 45
0.0
 46
0.0
 47
0.001
 48
0.001
140
0.1
141
0.09
142
0.0
143
25.4
144
1.0
145
0.0
146
1.0
147
0.09
 71
0.0
 72
0.0
 73
1
 74
1
 75
0
 76
0
 77
0
 78
4
170
0
171
2
172
0
173
0
174
0
175
0
176
0
177
0
178
0
270
2
271
3
272
3
273
2
274
2
275
0
280
0
281
0
282
0
283
1
284
4
285
0
286
0
287
3
288
0
340
11
278
46
  0
ENDTAB
  0
ENDSEC
  0
SECTION
  2
BLOCKS
  0
BLOCK
  5
20
100
AcDbEntity
  8
0
100
AcDbBlockBegin
  2
*Model_Space
 70
0
 10
0.0
 20
0.0
 30
0.0
  3
*Model_Space
  1

  0
ENDBLK
  5
21
100
AcDbEntity
  8
0
100
AcDbBlockEnd
  0
BLOCK
  5
1C
100
AcDbEntity
  8
0
100
AcDbBlockBegin
  2
*Paper_Space
 70
0
 10
0.0
 20
0.0
 30
0.0
  3
*Paper_Space
  1

  0
ENDBLK
  5
1D
100
AcDbEntity
  8
0
100
AcDbBlockEnd
  0
BLOCK
  5
212
100
AcDbEntity
  8
0
100
AcDbBlockBegin
 62
2
  6
CONTINUOUS
  2
SUN_FIRST_THIRD_ANGLE_BL0
 70
64
 10
20.4816717061
 20
1.2289683772
  3
SUN_FIRST_THIRD_ANGLE_BL0
  1

  0
TEXT
  5
213
100
AcDbEntity
  8
0
100
AcDbText
 62
2
  6
CONTINUOUS
 10
19.4750896608
 20
1.4136269581
  7
STANDARD
 40
0.08
  1
FIRST ANGLE
 41
0.8
 72
0
100
AcDbText
  0
TEXT
  5
214
100
AcDbEntity
  8
0
100
AcDbText
 62
2
  6
CONTINUOUS
 10
20.7842537513
 20
1.4047600029
  7
STANDARD
 40
0.08
  1
THIRD ANGLE
 41
0.8
 72
0
100
AcDbText
  0
LINE
  5
215
100
AcDbEntity
  8
0
100
AcDbLine
 62
7
  6
CONTINUOUS
 10
19.4767170086
 20
1.1727031207
 11
19.6334271527
 21
1.1717972817
  0
LINE
  5
216
100
AcDbEntity
  8
0
100
AcDbLine
 62
7
  6
CONTINUOUS
 10
19.6596964832
 20
1.1717972817
 11
19.6950230232
 21
1.171593082
  0
LINE
  5
217
100
AcDbEntity
  8
0
100
AcDbLine
 62
7
  6
CONTINUOUS
 10
19.7194818561
 20
1.1708914427
 11
19.8852396156
 21
1.1699333054
  0
LINE
  5
218
100
AcDbEntity
  8
0
100
AcDbLine
 62
7
  6
CONTINUOUS
 10
19.4758111696
 20
1.2723454088
 11
19.88525039
 21
1.3511534004
  0
LINE
  5
219
100
AcDbEntity
  8
0
100
AcDbLine
 62
7
  6
CONTINUOUS
 10
19.88525039
 20
1.3511534004
 11
19.8831348489
 21
0.9851647912
  0
LINE
  5
21A
100
AcDbEntity
  8
0
100
AcDbLine
 62
7
  6
CONTINUOUS
 10
19.8831348489
 20
0.9851647912
 11
19.4767170086
 21
1.0658141206
  0
LINE
  5
21B
100
AcDbEntity
  8
0
100
AcDbLine
 62
7
  6
CONTINUOUS
 10
19.4767170086
 20
1.0658141206
 11
19.4779056764
 21
1.2714536432
  0
CIRCLE
  5
21C
100
AcDbEntity
  8
0
100
AcDbCircle
 62
7
  6
CONTINUOUS
 10
20.2068232291
 20
1.1717972817
 40
0.175742101
  0
CIRCLE
  5
21D
100
AcDbEntity
  8
0
100
AcDbCircle
 62
7
  6
CONTINUOUS
 10
20.2068232291
 20
1.1717972817
 40
0.1005522074
  0
LINE
  5
21E
100
AcDbEntity
  8
0
100
AcDbLine
 62
7
  6
CONTINUOUS
 10
20.2077290681
 20
1.3756110529
 11
20.2071171714
 21
1.2379342989
  0
LINE
  5
21F
100
AcDbEntity
  8
0
100
AcDbLine
 62
7
  6
CONTINUOUS
 10
20.2077290681
 20
1.2016899681
 11
20.2074674401
 21
1.1428236749
  0
LINE
  5
220
100
AcDbEntity
  8
0
100
AcDbLine
 62
7
  6
CONTINUOUS
 10
20.208634907
 20
1.101141841
 11
20.2080230104
 21
0.963465087
  0
LINE
  5
221
100
AcDbEntity
  8
0
100
AcDbLine
 62
7
  6
CONTINUOUS
 10
20.0066328138
 20
1.1745147986
 11
20.1443095678
 21
1.1739029019
  0
LINE
  5
222
100
AcDbEntity
  8
0
100
AcDbLine
 62
7
  6
CONTINUOUS
 10
20.1832714155
 20
1.1727031207
 11
20.238153505
 21
1.172335442
  0
LINE
  5
223
100
AcDbEntity
  8
0
100
AcDbLine
 62
7
  6
CONTINUOUS
 10
20.2756669918
 20
1.1717972817
 11
20.407916871
 21
1.1712095044
  0
CIRCLE
  5
224
100
AcDbEntity
  8
0
100
AcDbCircle
 62
7
  6
CONTINUOUS
 10
20.7509457401
 20
1.1693297793
 40
0.1722024983
  0
CIRCLE
  5
225
100
AcDbEntity
  8
0
100
AcDbCircle
 62
7
  6
CONTINUOUS
 10
20.7509457401
 20
1.1693297793
 40
0.0985164967
  0
LINE
  5
226
100
AcDbEntity
  8
0
100
AcDbLine
 62
7
  6
CONTINUOUS
 10
20.7169767782
 20
1.170462078
 11
20.7825395137
 21
1.1682766535
  0
LINE
  5
227
100
AcDbEntity
  8
0
100
AcDbLine
 62
7
  6
CONTINUOUS
 10
20.8177513651
 20
1.1693297793
 11
20.947965719
 21
1.1693297793
  0
LINE
  5
228
100
AcDbEntity
  8
0
100
AcDbLine
 62
7
  6
CONTINUOUS
 10
20.6875370113
 20
1.170462078
 11
20.5573226574
 21
1.170462078
  0
LINE
  5
229
100
AcDbEntity
  8
0
100
AcDbLine
 62
7
  6
CONTINUOUS
 10
20.7486811426
 20
1.1987695462
 11
20.7486811426
 21
1.1432869085
  0
LINE
  5
22A
100
AcDbEntity
  8
0
100
AcDbLine
 62
7
  6
CONTINUOUS
 10
20.7498134414
 20
1.1059210505
 11
20.7498134414
 21
0.9757066966
  0
LINE
  5
22B
100
AcDbEntity
  8
0
100
AcDbLine
 62
7
  6
CONTINUOUS
 10
20.7486811426
 20
1.2338708068
 11
20.7486811426
 21
1.3640851607
  0
LINE
  5
22C
100
AcDbEntity
  8
0
100
AcDbLine
 62
7
  6
CONTINUOUS
 10
21.0702539817
 20
1.2701043662
 11
21.4790138229
 21
1.3448360823
  0
LINE
  5
22D
100
AcDbEntity
  8
0
100
AcDbLine
 62
7
  6
CONTINUOUS
 10
21.4790138229
 20
1.3448360823
 11
21.4790138229
 21
0.9779712941
  0
LINE
  5
22E
100
AcDbEntity
  8
0
100
AcDbLine
 62
7
  6
CONTINUOUS
 10
21.4790138229
 20
0.9779712941
 11
21.069121683
 21
1.0617614
  0
LINE
  5
22F
100
AcDbEntity
  8
0
100
AcDbLine
 62
7
  6
CONTINUOUS
 10
21.0702539817
 20
1.2701043662
 11
21.069121683
 21
1.0617614
  0
LINE
  5
230
100
AcDbEntity
  8
0
100
AcDbLine
 62
7
  6
CONTINUOUS
 10
21.4790138229
 20
1.1693297793
 11
21.3159628059
 21
1.1693297793
  0
LINE
  5
231
100
AcDbEntity
  8
0
100
AcDbLine
 62
7
  6
CONTINUOUS
 10
21.2876553377
 20
1.1693297793
 11
21.2502894796
 21
1.1693297793
  0
LINE
  5
232
100
AcDbEntity
  8
0
100
AcDbLine
 62
7
  6
CONTINUOUS
 10
21.2208497126
 20
1.1659328831
 11
21.0713862804
 21
1.1659328831
  0
LINE
  5
233
100
AcDbEntity
  8
0
100
AcDbLine
 62
7
  6
CONTINUOUS
 10
20.4796138713
 20
1.5284908897
 11
20.4766766948
 21
0.9294458646
  0
ENDBLK
  5
234
100
AcDbEntity
  8
0
  6
BYBLOCK
 62
0
100
AcDbBlockEnd
  0
BLOCK
  5
235
100
AcDbEntity
  8
0
100
AcDbBlockBegin
  2
*T1
 70
1
 10
0.0
 20
0.0
  3
*T1
  1

  0
LINE
  5
236
100
AcDbEntity
  8
0
100
AcDbLine
 62
2
  6
CONTINUOUS
 10
9.275
 20
0.0
 11
-0.0
 21
0.0
  0
LINE
  5
237
100
AcDbEntity
  8
0
100
AcDbLine
 62
2
  6
CONTINUOUS
 10
9.275
 20
0.0
 11
9.275
 21
1.25
  0
LINE
  5
238
100
AcDbEntity
  8
0
100
AcDbLine
 62
2
  6
CONTINUOUS
 10
9.275
 20
0.625
 11
-0.0
 21
0.625
  0
LINE
  5
239
100
AcDbEntity
  8
0
100
AcDbLine
 62
2
  6
CONTINUOUS
 10
9.275
 20
1.25
 11
-0.0
 21
1.25
  0
LINE
  5
23A
100
AcDbEntity
  8
0
100
AcDbLine
 62
2
  6
CONTINUOUS
 10
6.8
 20
0.0
 11
6.8
 21
1.25
  0
LINE
  5
23B
100
AcDbEntity
  8
0
100
AcDbLine
 62
2
  6
CONTINUOUS
 10
6.4
 20
0.0
 11
6.4
 21
0.625
  0
LINE
  5
23C
100
AcDbEntity
  8
0
100
AcDbLine
 62
2
  6
CONTINUOUS
 10
5.9
 20
0.0
 11
5.9
 21
0.625
  0
LINE
  5
23D
100
AcDbEntity
  8
0
100
AcDbLine
 62
2
  6
CONTINUOUS
 10
5.2
 20
0.0
 11
5.2
 21
0.625
  0
LINE
  5
23E
100
AcDbEntity
  8
0
100
AcDbLine
 62
2
  6
CONTINUOUS
 10
4.1
 20
0.0
 11
4.1
 21
1.25
  0
LINE
  5
23F
100
AcDbEntity
  8
0
100
AcDbLine
 62
2
  6
CONTINUOUS
 10
-0.0
 20
0.0
 11
-0.0
 21
1.25
  0
MTEXT
  5
240
100
AcDbEntity
  8
0
100
AcDbMText
 62
2
  6
CONTINUOUS
  7
STANDARD
 71
2
 72
1
 10
6.6
 20
0.325
 30
0.0
 11
1.0
 21
0.0
 31
0.0
 44
0.9
  1
2
 40
0.125
 41
0.2
  0
MTEXT
  5
241
100
AcDbEntity
  8
0
100
AcDbMText
 62
2
  6
CONTINUOUS
  7
STANDARD
 71
2
 72
1
 10
6.15
 20
0.325
 30
0.0
 11
1.0
 21
0.0
 31
0.0
 44
0.9
  1
C
 40
0.125
 41
0.2
  0
MTEXT
  5
242
100
AcDbEntity
  8
0
100
AcDbMText
 62
2
  6
CONTINUOUS
  7
STANDARD
 71
2
 72
1
 10
5.55
 20
0.325
 30
0.0
 11
1.0
 21
0.0
 31
0.0
 44
0.9
  1
1.000
 40
0.125
 41
1.0
  0
MTEXT
  5
243
100
AcDbEntity
  8
0
100
AcDbMText
 62
2
  6
CONTINUOUS
  7
STANDARD
 71
2
 72
1
 10
4.65
 20
0.325
 30
0.0
 11
1.0
 21
0.0
 31
0.0
 44
0.9
  1
Jul-17-23
 40
0.125
 41
1.8
  0
MTEXT
  5
244
100
AcDbEntity
  8
0
100
AcDbMText
 62
2
  6
CONTINUOUS
  7
STANDARD
 71
2
 72
1
 10
2.05
 20
0.4625
 30
0.0
 11
1.0
 21
0.0
 31
0.0
 44
0.9
  1
T-3A Sandwich ISO 05\POn B with reverse flow check
 40
0.125
 41
5.6
  0
MTEXT
  5
245
100
AcDbEntity
  8
0
100
AcDbMText
 62
2
  6
CONTINUOUS
  7
STANDARD
 71
1
 72
1
 10
6.45
 20
0.5625
 30
0.0
 11
1.0
 21
0.0
 31
0.0
 44
0.9
  1
SHEET
 40
0.06
 41
0.48
  0
MTEXT
  5
246
100
AcDbEntity
  8
0
100
AcDbMText
 62
2
  6
CONTINUOUS
  7
STANDARD
 71
1
 72
1
 10
5.95
 20
0.5625
 30
0.0
 11
1.0
 21
0.0
 31
0.0
 44
0.9
  1
DWG SIZE
 40
0.06
 41
0.768
  0
MTEXT
  5
247
100
AcDbEntity
  8
0
100
AcDbMText
 62
2
  6
CONTINUOUS
  7
STANDARD
 71
1
 72
1
 10
5.25
 20
0.5625
 30
0.0
 11
1.0
 21
0.0
 31
0.0
 44
0.9
  1
SCALE
 40
0.06
 41
0.48
  0
MTEXT
  5
248
100
AcDbEntity
  8
0
100
AcDbMText
 62
2
  6
CONTINUOUS
  7
STANDARD
 71
1
 72
1
 10
4.15
 20
0.5625
 30
0.0
 11
1.0
 21
0.0
 31
0.0
 44
0.9
  1
DATE
 40
0.06
 41
0.384
  0
MTEXT
  5
249
100
AcDbEntity
  8
0
100
AcDbMText
 62
2
  6
CONTINUOUS
  7
STANDARD
 71
1
 72
1
 10
0.05
 20
0.5625
 30
0.0
 11
1.0
 21
0.0
 31
0.0
 44
0.9
  1
DESCRIPTION
 40
0.06
 41
1.056
  0
MTEXT
  5
24A
100
AcDbEntity
  8
0
100
AcDbMText
 62
2
  6
CONTINUOUS
  7
STANDARD
 71
2
 72
1
 10
5.45
 20
1.0375
 30
0.0
 11
1.0
 21
0.0
 31
0.0
 44
0.9
  1
ALL DIMENSIONS IN INCH\PVIEWS ARE THIRD ANGLE
 40
0.12
 41
4.224
  0
MTEXT
  5
24B
100
AcDbEntity
  8
0
100
AcDbMText
 62
2
  6
CONTINUOUS
  7
STANDARD
 71
2
 72
1
 10
2.05
 20
0.95
 30
0.0
 11
1.0
 21
0.0
 31
0.0
 44
0.9
  1
CB5
 40
0.125
 41
0.6
  0
MTEXT
  5
24C
100
AcDbEntity
  8
0
100
AcDbMText
 62
2
  6
CONTINUOUS
  7
STANDARD
 71
1
 72
1
 10
0.05
 20
1.1875
 30
0.0
 11
1.0
 21
0.0
 31
0.0
 44
0.9
  1
MODEL
 40
0.06
 41
0.48
  0
ENDBLK
  5
24D
100
AcDbEntity
  8
0
  6
BYBLOCK
 62
0
100
AcDbBlockEnd
  0
BLOCK
  5
24E
100
AcDbEntity
  8
0
100
AcDbBlockBegin
  2
*T2
 70
1
 10
0.0
 20
0.0
  3
*T2
  1

  0
LINE
  5
24F
100
AcDbEntity
  8
0
100
AcDbLine
 62
2
  6
CONTINUOUS
 10
0.0
 20
0.0
 11
9.055
 21
0.0
  0
LINE
  5
250
100
AcDbEntity
  8
0
100
AcDbLine
 62
2
  6
CONTINUOUS
 10
0.0
 20
0.0
 11
0.0
 21
-2.344
  0
LINE
  5
251
100
AcDbEntity
  8
0
100
AcDbLine
 62
2
  6
CONTINUOUS
 10
0.0
 20
-0.344
 11
9.055
 21
-0.344
  0
LINE
  5
252
100
AcDbEntity
  8
0
100
AcDbLine
 62
2
  6
CONTINUOUS
 10
0.0
 20
-0.594
 11
9.055
 21
-0.594
  0
LINE
  5
253
100
AcDbEntity
  8
0
100
AcDbLine
 62
2
  6
CONTINUOUS
 10
0.0
 20
-0.844
 11
9.055
 21
-0.844
  0
LINE
  5
254
100
AcDbEntity
  8
0
100
AcDbLine
 62
2
  6
CONTINUOUS
 10
0.0
 20
-1.094
 11
9.055
 21
-1.094
  0
LINE
  5
255
100
AcDbEntity
  8
0
100
AcDbLine
 62
2
  6
CONTINUOUS
 10
0.0
 20
-1.344
 11
9.055
 21
-1.344
  0
LINE
  5
256
100
AcDbEntity
  8
0
100
AcDbLine
 62
2
  6
CONTINUOUS
 10
0.0
 20
-1.594
 11
9.055
 21
-1.594
  0
LINE
  5
257
100
AcDbEntity
  8
0
100
AcDbLine
 62
2
  6
CONTINUOUS
 10
0.0
 20
-1.844
 11
9.055
 21
-1.844
  0
LINE
  5
258
100
AcDbEntity
  8
0
100
AcDbLine
 62
2
  6
CONTINUOUS
 10
0.0
 20
-2.094
 11
9.055
 21
-2.094
  0
LINE
  5
259
100
AcDbEntity
  8
0
100
AcDbLine
 62
2
  6
CONTINUOUS
 10
0.0
 20
-2.344
 11
9.055
 21
-2.344
  0
LINE
  5
25A
100
AcDbEntity
  8
0
100
AcDbLine
 62
2
  6
CONTINUOUS
 10
3.055
 20
0.0
 11
3.055
 21
-2.344
  0
LINE
  5
25B
100
AcDbEntity
  8
0
100
AcDbLine
 62
2
  6
CONTINUOUS
 10
9.055
 20
0.0
 11
9.055
 21
-2.344
  0
MTEXT
  5
25C
100
AcDbEntity
  8
0
100
AcDbMText
 62
2
  6
CONTINUOUS
  7
STANDARD
 71
2
 72
1
 10
1.5275
 20
-0.0995
 30
0.0
 11
1.0
 21
0.0
 31
0.0
 44
0.9
  1
Technical Data
 40
0.145
 41
3.248
  0
MTEXT
  5
25D
100
AcDbEntity
  8
0
100
AcDbMText
 62
2
  6
CONTINUOUS
  7
STANDARD
 71
2
 72
1
 10
4.555
 20
-0.0995
 30
0.0
 11
1.0
 21
0.0
 31
0.0
 44
0.9
  1
U.S. Units
 40
0.145
 41
2.32
  0
MTEXT
  5
25E
100
AcDbEntity
  8
0
100
AcDbMText
 62
2
  6
CONTINUOUS
  7
STANDARD
 71
2
 72
1
 10
7.555
 20
-0.0995
 30
0.0
 11
1.0
 21
0.0
 31
0.0
 44
0.9
  1
Metric Units
 40
0.145
 41
2.784
  0
MTEXT
  5
25F
100
AcDbEntity
  8
0
100
AcDbMText
 62
2
  6
CONTINUOUS
  7
STANDARD
 71
2
 72
1
 10
1.5275
 20
-0.4065
 30
0.0
 11
1.0
 21
0.0
 31
0.0
 44
0.9
  1
Cavity
 40
0.125
 41
1.2
  0
MTEXT
  5
260
100
AcDbEntity
  8
0
100
AcDbMText
 62
2
  6
CONTINUOUS
  7
STANDARD
 71
2
 72
1
 10
6.055
 20
-0.4065
 30
0.0
 11
1.0
 21
0.0
 31
0.0
 44
0.9
  1
T-3A
 40
0.125
 41
0.8
  0
MTEXT
  5
261
100
AcDbEntity
  8
0
100
AcDbMText
 62
2
  6
CONTINUOUS
  7
STANDARD
 71
2
 72
1
 10
1.5275
 20
-0.6565
 30
0.0
 11
1.0
 21
0.0
 31
0.0
 44
0.9
  1
Body Features
 40
0.125
 41
2.6
  0
MTEXT
  5
262
100
AcDbEntity
  8
0
100
AcDbMText
 62
2
  6
CONTINUOUS
  7
STANDARD
 71
2
 72
1
 10
6.055
 20
-0.6565
 30
0.0
 11
1.0
 21
0.0
 31
0.0
 44
0.9
  1
On B with reverse flow check
 40
0.125
 41
5.6
  0
MTEXT
  5
263
100
AcDbEntity
  8
0
100
AcDbMText
 62
2
  6
CONTINUOUS
  7
STANDARD
 71
2
 72
1
 10
1.5275
 20
-0.9065
 30
0.0
 11
1.0
 21
0.0
 31
0.0
 44
0.9
  1
Body Type
 40
0.125
 41
1.8
  0
MTEXT
  5
264
100
AcDbEntity
  8
0
100
AcDbMText
 62
2
  6
CONTINUOUS
  7
STANDARD
 71
2
 72
1
 10
6.055
 20
-0.9065
 30
0.0
 11
1.0
 21
0.0
 31
0.0
 44
0.9
  1
Sandwich
 40
0.125
 41
1.6
  0
MTEXT
  5
265
100
AcDbEntity
  8
0
100
AcDbMText
 62
2
  6
CONTINUOUS
  7
STANDARD
 71
2
 72
1
 10
1.5275
 20
-1.1565
 30
0.0
 11
1.0
 21
0.0
 31
0.0
 44
0.9
  1
Interface
 40
0.125
 41
1.8
  0
MTEXT
  5
266
100
AcDbEntity
  8
0
100
AcDbMText
 62
2
  6
CONTINUOUS
  7
STANDARD
 71
2
 72
1
 10
6.055
 20
-1.1565
 30
0.0
 11
1.0
 21
0.0
 31
0.0
 44
0.9
  1
ISO 05
 40
0.125
 41
1.2
  0
MTEXT
  5
267
100
AcDbEntity
  8
0
100
AcDbMText
 62
2
  6
CONTINUOUS
  7
STANDARD
 71
2
 72
1
 10
1.5275
 20
-1.4065
 30
0.0
 11
1.0
 21
0.0
 31
0.0
 44
0.9
  1
Open Cavity Quantity
 40
0.125
 41
4.0
  0
MTEXT
  5
268
100
AcDbEntity
  8
0
100
AcDbMText
 62
2
  6
CONTINUOUS
  7
STANDARD
 71
2
 72
1
 10
6.055
 20
-1.4065
 30
0.0
 11
1.0
 21
0.0
 31
0.0
 44
0.9
  1
1
 40
0.125
 41
0.2
  0
MTEXT
  5
269
100
AcDbEntity
  8
0
100
AcDbMText
 62
2
  6
CONTINUOUS
  7
STANDARD
 71
2
 72
1
 10
1.5275
 20
-1.6565
 30
0.0
 11
1.0
 21
0.0
 31
0.0
 44
0.9
  1
Stack Height
 40
0.125
 41
2.4
  0
MTEXT
  5
26A
100
AcDbEntity
  8
0
100
AcDbMText
 62
2
  6
CONTINUOUS
  7
STANDARD
 71
2
 72
1
 10
4.555
 20
-1.6565
 30
0.0
 11
1.0
 21
0.0
 31
0.0
 44
0.9
  1
2.49 in.
 40
0.125
 41
1.6
  0
MTEXT
  5
26B
100
AcDbEntity
  8
0
100
AcDbMText
 62
2
  6
CONTINUOUS
  7
STANDARD
 71
2
 72
1
 10
7.555
 20
-1.6565
 30
0.0
 11
1.0
 21
0.0
 31
0.0
 44
0.9
  1
63 mm
 40
0.125
 41
1.0
  0
MTEXT
  5
26C
100
AcDbEntity
  8
0
100
AcDbMText
 62
2
  6
CONTINUOUS
  7
STANDARD
 71
2
 72
1
 10
1.5275
 20
-1.9065
 30
0.0
 11
1.0
 21
0.0
 31
0.0
 44
0.9
  1
Weight
 40
0.125
 41
1.2
  0
MTEXT
  5
26D
100
AcDbEntity
  8
0
100
AcDbMText
 62
2
  6
CONTINUOUS
  7
STANDARD
 71
2
 72
1
 10
4.555
 20
-1.9065
 30
0.0
 11
1.0
 21
0.0
 31
0.0
 44
0.9
  1
2.818 lb.
 40
0.125
 41
1.8
  0
MTEXT
  5
26E
100
AcDbEntity
  8
0
100
AcDbMText
 62
2
  6
CONTINUOUS
  7
STANDARD
 71
2
 72
1
 10
7.555
 20
-1.9065
 30
0.0
 11
1.0
 21
0.0
 31
0.0
 44
0.9
  1
1,278 kg.
 40
0.125
 41
1.8
  0
MTEXT
  5
26F
100
AcDbEntity
  8
0
100
AcDbMText
 62
2
  6
CONTINUOUS
  7
STANDARD
 71
2
 72
1
 10
1.5275
 20
-2.1565
 30
0.0
 11
1.0
 21
0.0
 31
0.0
 44
0.9
  1
Seal Plate Included (see notes)
 40
0.125
 41
6.2
  0
MTEXT
  5
270
100
AcDbEntity
  8
0
100
AcDbMText
 62
2
  6
CONTINUOUS
  7
STANDARD
 71
2
 72
1
 10
6.055
 20
-2.1565
 30
0.0
 11
1.0
 21
0.0
 31
0.0
 44
0.9
  1
Yes
 40
0.125
 41
0.6
  0
ENDBLK
  5
271
100
AcDbEntity
  8
0
  6
BYBLOCK
 62
0
100
AcDbBlockEnd
  0
ENDSEC
  0
SECTION
  2
ENTITIES
  0
IMAGE
  5
272
100
AcDbEntity
  8
0
100
AcDbRasterImage
 62
7
  6
CONTINUOUS
 10
19.2297077316
 20
0.3094318264
 30
0.0
 11
0.0066666667
 21
0.0
 31
0.0
 12
0.0
 22
0.0066666667
 32
0.0
 13
369.0
 23
92.0
340
       3A9
 70
9
280
0
281
50
282
50
283
0
360
       3A3
 71
1
 91
2
 14
-0.5
 24
-0.5
 14
368.5
 24
91.5
  0
INSERT
  5
273
100
AcDbEntity
  8
0
100
AcDbBlockReference
 62
2
  6
CONTINUOUS
  2
SUN_FIRST_THIRD_ANGLE_BL0
 10
20.4816717061
 20
1.2289683772
  0
ACAD_TABLE
  5
274
100
AcDbEntity
  8
0
 62
2
  6
CONTINUOUS
100
AcDbBlockReference
  2
*T1
 10
12.42375
 20
0.30125
 30
0.0
100
AcDbTable
342
       3AB
343
20F
 11
1.0
 21
0.0
 31
0.0
 90
6
 91
4
 92
6
 93
20
 94
0
 95
0
 96
0
 70
1
 41
0.0
141
0.525
141
0.1
141
0.525
141
0.1
142
4.1
142
1.1
142
0.7
142
0.5
142
0.4
142
2.475
171
1
172
0
173
0
174
0
175
1
176
1
 91
33
178
0
145
0.0
301
CELL_VALUE
 90
4
  1
T-3A Sandwich ISO 05\POn B with reverse flow check
304
ACVALUE_END
170
2
140
0.125
171
1
172
0
173
0
174
0
175
1
176
1
 91
33
178
0
145
0.0
301
CELL_VALUE
 90
4
  1
Jul-17-23
304
ACVALUE_END
170
5
140
0.125
171
1
172
0
173
0
174
0
175
1
176
1
 91
33
178
0
145
0.0
301
CELL_VALUE
 90
4
  1
1.000
304
ACVALUE_END
170
5
140
0.125
171
1
172
0
173
0
174
0
175
1
176
1
 91
33
178
0
145
0.0
301
CELL_VALUE
 90
4
  1
C
304
ACVALUE_END
170
5
140
0.125
171
1
172
0
173
0
174
0
175
1
176
1
 91
33
178
0
145
0.0
301
CELL_VALUE
 90
4
  1
2
304
ACVALUE_END
170
5
140
0.125
171
1
172
0
173
0
174
0
175
1
176
1
 91
33
178
0
145
0.0
301
CELL_VALUE
 90
4
  1
 
304
ACVALUE_END
170
1
140
0.125
171
1
172
0
173
0
174
0
175
1
176
1
 91
33
178
0
145
0.0
301
CELL_VALUE
 90
4
  1
DESCRIPTION
304
ACVALUE_END
170
1
140
0.06
171
1
172
0
173
0
174
0
175
1
176
1
 91
33
178
0
145
0.0
301
CELL_VALUE
 90
4
  1
DATE
304
ACVALUE_END
170
1
140
0.06
171
1
172
0
173
0
174
0
175
1
176
1
 91
33
178
0
145
0.0
301
CELL_VALUE
 90
4
  1
SCALE
304
ACVALUE_END
170
1
140
0.06
171
1
172
0
173
0
174
0
175
1
176
1
 91
33
178
0
145
0.0
301
CELL_VALUE
 90
4
  1
DWG SIZE
304
ACVALUE_END
170
1
140
0.06
171
1
172
0
173
0
174
0
175
1
176
1
 91
33
178
0
145
0.0
301
CELL_VALUE
 90
4
  1
SHEET
304
ACVALUE_END
170
1
140
0.06
171
1
172
0
173
0
174
0
175
1
176
1
 91
33
178
0
145
0.0
301
CELL_VALUE
 90
4
  1
 
304
ACVALUE_END
170
1
140
0.125
171
1
172
0
173
0
174
0
175
1
176
1
 91
33
178
0
145
0.0
301
CELL_VALUE
 90
4
  1
CB5
304
ACVALUE_END
170
5
140
0.125
171
1
172
0
173
0
174
0
175
4
176
1
 91
33
178
0
145
0.0
301
CELL_VALUE
 90
4
  1
ALL DIMENSIONS IN INCH\PVIEWS ARE THIRD ANGLE
304
ACVALUE_END
170
5
140
0.12
171
1
172
0
173
1
174
0
175
1
176
1
 91
1
178
0
145
0.0
170
1
171
1
172
0
173
1
174
0
175
1
176
1
 91
1
178
0
145
0.0
170
1
171
1
172
0
173
1
174
0
175
1
176
1
 91
1
178
0
145
0.0
170
5
171
1
172
0
173
0
174
0
175
1
176
1
 91
33
178
0
145
0.0
301
CELL_VALUE
 90
4
  1
 
304
ACVALUE_END
170
1
140
0.125
171
1
172
0
173
0
174
0
175
1
176
1
 91
33
178
0
145
0.0
301
CELL_VALUE
 90
4
  1
MODEL
304
ACVALUE_END
170
1
140
0.06
171
1
172
0
173
0
174
0
175
1
176
1
 91
33
178
0
145
0.0
301
CELL_VALUE
 90
4
  1
 
304
ACVALUE_END
170
1
140
0.125
171
1
172
0
173
0
174
0
175
1
176
1
 91
33
178
0
145
0.0
301
CELL_VALUE
 90
4
  1
 
304
ACVALUE_END
170
1
140
0.125
171
1
172
0
173
0
174
0
175
1
176
1
 91
33
178
0
145
0.0
301
CELL_VALUE
 90
4
  1
 
304
ACVALUE_END
170
1
140
0.125
171
1
172
0
173
0
174
0
175
1
176
1
 91
33
178
0
145
0.0
301
CELL_VALUE
 90
4
  1
 
304
ACVALUE_END
170
1
140
0.125
171
1
172
0
173
0
174
0
175
1
176
1
 91
33
178
0
145
0.0
301
CELL_VALUE
 90
4
  1
 
304
ACVALUE_END
170
1
140
0.125
  0
ACAD_TABLE
  5
275
100
AcDbEntity
  8
0
 62
2
  6
CONTINUOUS
100
AcDbBlockReference
  2
*T2
 10
12.4237499994
 20
16.47875
 30
0.0
100
AcDbTable
342
       3AA
343
210
 11
1.0
 21
0.0
 31
0.0
 90
22
 91
9
 92
3
 93
16
 94
0
 95
0
 96
0
 41
0.028
141
0.344
141
0.25
141
0.25
141
0.25
141
0.25
141
0.25
141
0.25
141
0.25
141
0.25
142
3.055
142
3.0
142
3.0
171
1
172
0
173
0
174
0
175
1
176
1
 91
33
178
0
145
0.0
301
CELL_VALUE
 90
4
  1
Technical Data
304
ACVALUE_END
170
5
140
0.145
171
1
172
0
173
0
174
0
175
1
176
1
 91
33
178
0
145
0.0
301
CELL_VALUE
 90
4
  1
U.S. Units
304
ACVALUE_END
170
5
140
0.145
171
1
172
0
173
0
174
0
175
1
176
1
 91
33
178
0
145
0.0
301
CELL_VALUE
 90
4
  1
Metric Units
304
ACVALUE_END
170
5
140
0.145
171
1
172
0
173
0
174
0
175
1
176
1
 91
33
178
0
145
0.0
301
CELL_VALUE
 90
4
  1
Cavity
304
ACVALUE_END
170
5
140
0.125
171
1
172
0
173
0
174
0
175
2
176
1
 91
33
178
0
145
0.0
301
CELL_VALUE
 90
4
  1
T-3A
304
ACVALUE_END
170
5
140
0.125
171
1
172
0
173
1
174
0
175
1
176
1
 91
1
178
0
145
0.0
170
1
171
1
172
0
173
0
174
0
175
1
176
1
 91
33
178
0
145
0.0
301
CELL_VALUE
 90
4
  1
Body Features
304
ACVALUE_END
170
5
140
0.125
171
1
172
0
173
0
174
0
175
2
176
1
 91
33
178
0
145
0.0
301
CELL_VALUE
 90
4
  1
On B with reverse flow check
304
ACVALUE_END
170
5
140
0.125
171
1
172
0
173
1
174
0
175
1
176
1
 91
1
178
0
145
0.0
170
1
171
1
172
0
173
0
174
0
175
1
176
1
 91
33
178
0
145
0.0
301
CELL_VALUE
 90
4
  1
Body Type
304
ACVALUE_END
170
5
140
0.125
171
1
172
0
173
0
174
0
175
2
176
1
 91
33
178
0
145
0.0
301
CELL_VALUE
 90
4
  1
Sandwich
304
ACVALUE_END
170
5
140
0.125
171
1
172
0
173
1
174
0
175
1
176
1
 91
1
178
0
145
0.0
170
1
171
1
172
0
173
0
174
0
175
1
176
1
 91
33
178
0
145
0.0
301
CELL_VALUE
 90
4
  1
Interface
304
ACVALUE_END
170
5
140
0.125
171
1
172
0
173
0
174
0
175
2
176
1
 91
33
178
0
145
0.0
301
CELL_VALUE
 90
4
  1
ISO 05
304
ACVALUE_END
170
5
140
0.125
171
1
172
0
173
1
174
0
175
1
176
1
 91
1
178
0
145
0.0
170
1
171
1
172
0
173
0
174
0
175
1
176
1
 91
33
178
0
145
0.0
301
CELL_VALUE
 90
4
  1
Open Cavity Quantity
304
ACVALUE_END
170
5
140
0.125
171
1
172
0
173
0
174
0
175
2
176
1
 91
33
178
0
145
0.0
301
CELL_VALUE
 90
4
  1
1
304
ACVALUE_END
170
5
140
0.125
171
1
172
0
173
1
174
0
175
1
176
1
 91
1
178
0
145
0.0
170
1
171
1
172
0
173
0
174
0
175
1
176
1
 91
33
178
0
145
0.0
301
CELL_VALUE
 90
4
  1
Stack Height
304
ACVALUE_END
170
5
140
0.125
171
1
172
0
173
0
174
0
175
1
176
1
 91
33
178
0
145
0.0
301
CELL_VALUE
 90
4
  1
2.49 in.
304
ACVALUE_END
170
5
140
0.125
171
1
172
0
173
0
174
0
175
1
176
1
 91
33
178
0
145
0.0
301
CELL_VALUE
 90
4
  1
63 mm
304
ACVALUE_END
170
5
140
0.125
171
1
172
0
173
0
174
0
175
1
176
1
 91
33
178
0
145
0.0
301
CELL_VALUE
 90
4
  1
Weight
304
ACVALUE_END
170
5
140
0.125
171
1
172
0
173
0
174
0
175
1
176
1
 91
33
178
0
145
0.0
301
CELL_VALUE
 90
4
  1
2.818 lb.
304
ACVALUE_END
170
5
140
0.125
171
1
172
0
173
0
174
0
175
1
176
1
 91
33
178
0
145
0.0
301
CELL_VALUE
 90
4
  1
1,278 kg.
304
ACVALUE_END
170
5
140
0.125
171
1
172
0
173
0
174
0
175
1
176
1
 91
33
178
0
145
0.0
301
CELL_VALUE
 90
4
  1
Seal Plate Included (see notes)
304
ACVALUE_END
170
5
140
0.125
171
1
172
0
173
0
174
0
175
2
176
1
 91
33
178
0
145
0.0
301
CELL_VALUE
 90
4
  1
Yes
304
ACVALUE_END
170
5
140
0.125
171
1
172
0
173
1
174
0
175
1
176
1
 91
1
178
0
145
0.0
170
1
  0
MTEXT
  5
276
100
AcDbEntity
  8
0
100
AcDbMText
 62
2
  6
CONTINUOUS
  7
STANDARD
 71
1
 72
1
 10
0.52125
 20
5.75995
 30
0.0
 11
1.0
 21
0.0
 31
0.0
 44
0.6
  3
Notes\P \P1. Stack height value in technical\P   data table includes seal retainer\P   plate.\P2. Important: Carefully consider\P   the maximum system pressure. The\P   pressure rating of the manifold is\P   dependent on the manifold material,\P   wi
  3
th the port type/size a secondary\P   consideration. Manifolds\P   constructed of aluminum are not\P   rated for pressures higher than\P   3000 psi (210 bar), regardless of\P   the port type/size specified.\P3. This drawing is for reference\P   only.
  1
 It is generated by an\P   automated process and does not fall\P   under Sun's document control\P   process.\P4. Items without balloons are\P   shipped loose.
 40
0.1
 41
3.04
  0
LINE
  5
277
100
AcDbEntity
  8
0
100
AcDbLine
 62
7
  6
CONTINUOUS
 10
0.30125
 20
0.30125
 11
0.30125
 21
16.69875
  0
LINE
  5
278
100
AcDbEntity
  8
0
100
AcDbLine
 62
7
  6
CONTINUOUS
 10
0.30125
 20
0.30125
 11
21.69875
 21
0.30125
  0
LINE
  5
279
100
AcDbEntity
  8
0
100
AcDbLine
 62
7
  6
CONTINUOUS
 10
0.30125
 20
16.69875
 11
21.69875
 21
16.69875
  0
LINE
  5
27A
100
AcDbEntity
  8
0
100
AcDbLine
 62
7
  6
CONTINUOUS
 10
21.69875
 20
0.30125
 11
21.69875
 21
16.69875
  0
LINE
  5
27B
100
AcDbEntity
  8
0
100
AcDbLine
 62
7
  6
CONTINUOUS
 10
9.6381780579
 20
10.8931023247
 11
10.0667820429
 21
11.3071020076
  0
LINE
  5
27C
100
AcDbEntity
  8
0
100
AcDbLine
 62
7
  6
CONTINUOUS
 10
9.6681217603
 20
10.9209694243
 11
10.0967257453
 21
11.3349691071
  0
LINE
  5
27D
100
AcDbEntity
  8
0
100
AcDbLine
 62
7
  6
CONTINUOUS
 10
10.0667820429
 20
11.3071020076
 11
10.067716833
 21
11.3079881506
  0
LINE
  5
27E
100
AcDbEntity
  8
0
100
AcDbLine
 62
7
  6
CONTINUOUS
 10
10.0967257453
 20
11.3349691071
 11
10.0975843959
 21
11.3357829037
  0
LINE
  5
27F
100
AcDbEntity
  8
0
100
AcDbLine
 62
7
  6
CONTINUOUS
 10
10.0967183237
 20
11.3349770822
 11
10.0667820429
 21
11.3071020076
  0
LINE
  5
280
100
AcDbEntity
  8
0
100
AcDbLine
 62
7
  6
CONTINUOUS
 10
9.6681217603
 20
10.9209694243
 11
9.6381780579
 21
10.8931023247
  0
LINE
  5
281
100
AcDbEntity
  8
0
100
AcDbLine
 62
7
  6
CONTINUOUS
 10
10.7577722942
 20
5.6853161827
 11
10.7769901836
 21
5.6758229133
  0
LINE
  5
282
100
AcDbEntity
  8
0
100
AcDbLine
 62
7
  6
CONTINUOUS
 10
9.6400787739
 20
6.1320540005
 11
9.6699452003
 21
6.1042601554
  0
LINE
  5
283
100
AcDbEntity
  8
0
100
AcDbLine
 62
7
  6
CONTINUOUS
 10
9.9123325121
 20
6.0421167023
 11
11.4819620728
 21
5.9332625226
  0
LINE
  5
284
100
AcDbEntity
  8
0
100
AcDbLine
 62
7
  6
CONTINUOUS
 10
9.9043091283
 20
6.0643104106
 11
11.473938689
 21
5.9554562309
  0
LINE
  5
285
100
AcDbEntity
  8
0
100
AcDbLine
 62
7
  6
CONTINUOUS
 10
9.4770924947
 20
9.7427826932
 11
9.6254002642
 21
9.8860370065
  0
LINE
  5
286
100
AcDbEntity
  8
0
100
AcDbLine
 62
7
  6
CONTINUOUS
 10
11.8919072035
 20
6.67657093
 11
9.4770924947
 21
6.8440388988
  0
LINE
  5
287
100
AcDbEntity
  8
0
100
AcDbLine
 62
7
  6
CONTINUOUS
 10
9.9123325121
 20
6.0421167023
 11
9.9043091283
 21
6.0643104106
  0
LINE
  5
288
100
AcDbEntity
  8
0
100
AcDbLine
 62
7
  6
CONTINUOUS
 10
9.4770924947
 20
6.8440388988
 11
9.4770924947
 21
9.7427826932
  0
LINE
  5
289
100
AcDbEntity
  8
0
100
AcDbLine
 62
7
  6
CONTINUOUS
 10
9.9113665862
 20
10.8119258976
 11
9.9033432024
 21
10.7742322012
  0
LINE
  5
28A
100
AcDbEntity
  8
0
100
AcDbLine
 62
7
  6
CONTINUOUS
 10
9.6254002642
 20
9.8112592128
 11
9.6254002642
 21
10.8679821294
  0
LINE
  5
28B
100
AcDbEntity
  8
0
100
AcDbLine
 62
7
  6
CONTINUOUS
 10
9.6263661901
 20
6.8336867329
 11
9.6263661901
 21
6.1580603388
  0
LINE
  5
28C
100
AcDbEntity
  8
0
100
AcDbLine
 62
7
  6
CONTINUOUS
 10
9.9033432024
 20
10.7742322012
 11
9.9033432024
 21
9.7175092846
  0
LINE
  5
28D
100
AcDbEntity
  8
0
100
AcDbLine
 62
7
  6
CONTINUOUS
 10
9.9043091283
 20
6.0643104106
 11
9.9043091283
 21
6.8144113247
  0
LINE
  5
28E
100
AcDbEntity
  8
0
100
AcDbLine
 62
7
  6
CONTINUOUS
 10
12.3309123138
 20
11.1800277423
 11
11.9023083289
 21
10.7660280595
  0
LINE
  5
28F
100
AcDbEntity
  8
0
100
AcDbLine
 62
7
  6
CONTINUOUS
 10
12.3608560162
 20
11.1480074371
 11
11.9322520313
 21
10.7340077543
  0
LINE
  5
290
100
AcDbEntity
  8
0
100
AcDbLine
 62
4
  6
CONTINUOUS
 10
12.4690732282
 20
7.4789329846
 11
12.5001314873
 21
7.4727107411
  0
LINE
  5
291
100
AcDbEntity
  8
0
100
AcDbLine
 62
4
  6
CONTINUOUS
 10
12.4690732282
 20
7.7469774113
 11
12.5001314873
 21
7.7407551678
  0
LINE
  5
292
100
AcDbEntity
  8
0
100
AcDbLine
 62
7
  6
CONTINUOUS
 10
11.4819620728
 20
5.9332625226
 11
11.473938689
 21
5.9554562309
  0
LINE
  5
293
100
AcDbEntity
  8
0
100
AcDbLine
 62
7
  6
CONTINUOUS
 10
10.6495720171
 20
5.990988969
 11
10.6495720171
 21
5.8219958444
  0
LINE
  5
294
100
AcDbEntity
  8
0
100
AcDbLine
 62
7
  6
CONTINUOUS
 10
10.8009919566
 20
5.9804879605
 11
10.8009919566
 21
5.6757356643
  0
LINE
  5
295
100
AcDbEntity
  8
0
100
AcDbLine
 62
7
  6
CONTINUOUS
 10
12.3608560162
 20
10.0912845206
 11
11.9322520313
 21
9.6772848377
  0
LINE
  5
296
100
AcDbEntity
  8
0
100
AcDbLine
 62
4
  6
CONTINUOUS
 10
12.4846023578
 20
8.1459329296
 11
12.476837793
 21
8.1456773795
  0
LINE
  5
297
100
AcDbEntity
  8
0
100
AcDbLine
 62
4
  6
CONTINUOUS
 10
12.4846023578
 20
8.2328662571
 11
12.4923669225
 21
8.2331218073
  0
LINE
  5
298
100
AcDbEntity
  8
0
100
AcDbLine
 62
4
  6
CONTINUOUS
 10
12.4690732282
 20
7.8266662949
 11
12.5001314873
 21
7.8204440514
  0
LINE
  5
299
100
AcDbEntity
  8
0
100
AcDbLine
 62
7
  6
CONTINUOUS
 10
10.8404647345
 20
5.9777505141
 11
10.8404647345
 21
5.6655193706
  0
LINE
  5
29A
100
AcDbEntity
  8
0
100
AcDbLine
 62
7
  6
CONTINUOUS
 10
11.4809961469
 20
10.7030717179
 11
11.4729727631
 21
10.6653780214
  0
LINE
  5
29B
100
AcDbEntity
  8
0
100
AcDbLine
 62
7
  6
CONTINUOUS
 10
11.8919072035
 20
9.5753147243
 11
12.5229075053
 21
10.1848142483
  0
LINE
  5
29C
100
AcDbEntity
  8
0
100
AcDbLine
 62
4
  6
CONTINUOUS
 10
12.073856842
 20
8.6126519417
 11
12.1049151018
 21
8.6095344619
  0
LINE
  5
29D
100
AcDbEntity
  8
0
100
AcDbLine
 62
7
  6
CONTINUOUS
 10
11.4055712091
 20
5.938560247
 11
11.4055712091
 21
5.6263291035
  0
LINE
  5
29E
100
AcDbEntity
  8
0
100
AcDbLine
 62
7
  6
CONTINUOUS
 10
11.4594920113
 20
5.9348208266
 11
11.4594920113
 21
5.6300685304
  0
LINE
  5
29F
100
AcDbEntity
  8
0
100
AcDbLine
 62
7
  6
CONTINUOUS
 10
11.4729727631
 20
10.6653780214
 11
11.4729727631
 21
9.6086551048
  0
LINE
  5
2A0
100
AcDbEntity
  8
0
100
AcDbLine
 62
7
  6
CONTINUOUS
 10
11.473938689
 20
5.9554562309
 11
11.473938689
 21
6.7055571449
  0
LINE
  5
2A1
100
AcDbEntity
  8
0
100
AcDbLine
 62
4
  6
CONTINUOUS
 10
12.2633122267
 20
9.0347874519
 11
12.2477830968
 21
9.0197874634
  0
LINE
  5
2A2
100
AcDbEntity
  8
0
100
AcDbLine
 62
4
  6
CONTINUOUS
 10
12.2477830968
 20
8.9618319104
 11
12.2322539669
 21
8.9468319219
  0
LINE
  5
2A3
100
AcDbEntity
  8
0
100
AcDbLine
 62
4
  6
CONTINUOUS
 10
12.2322539669
 20
8.9178541454
 11
12.2633122267
 21
8.9478541224
  0
LINE
  5
2A4
100
AcDbEntity
  8
0
100
AcDbLine
 62
4
  6
CONTINUOUS
 10
12.073856842
 20
8.7175238885
 11
12.1049151018
 21
8.7475238656
  0
LINE
  5
2A5
100
AcDbEntity
  8
0
100
AcDbLine
 62
4
  6
CONTINUOUS
 10
12.2633122267
 20
8.8898985694
 11
12.2322539669
 21
8.8598985924
  0
LINE
  5
2A6
100
AcDbEntity
  8
0
100
AcDbLine
 62
4
  6
CONTINUOUS
 10
12.2633122267
 20
8.8609207929
 11
12.2322539669
 21
8.8309208159
  0
LINE
  5
2A7
100
AcDbEntity
  8
0
100
AcDbLine
 62
4
  6
CONTINUOUS
 10
12.1004782078
 20
8.6852826087
 11
12.0782937365
 21
8.6638540536
  0
LINE
  5
2A8
100
AcDbEntity
  8
0
100
AcDbLine
 62
4
  6
CONTINUOUS
 10
12.2633122267
 20
8.8029652399
 11
12.2322539669
 21
8.7729652629
  0
LINE
  5
2A9
100
AcDbEntity
  8
0
100
AcDbLine
 62
7
  6
CONTINUOUS
 10
11.8731785464
 20
5.9768132471
 11
11.8731785464
 21
5.7371384434
  0
LINE
  5
2AA
100
AcDbEntity
  8
0
100
AcDbLine
 62
7
  6
CONTINUOUS
 10
11.8876265707
 20
5.9845145625
 11
11.8876265707
 21
5.7510941641
  0
LINE
  5
2AB
100
AcDbEntity
  8
0
100
AcDbLine
 62
7
  6
CONTINUOUS
 10
11.8919072035
 20
9.5753147243
 11
11.8919072035
 21
6.67657093
  0
LINE
  5
2AC
100
AcDbEntity
  8
0
100
AcDbLine
 62
4
  6
CONTINUOUS
 10
12.2322539669
 20
8.6570541568
 11
12.2633122267
 21
8.6870541339
  0
LINE
  5
2AD
100
AcDbEntity
  8
0
100
AcDbLine
 62
4
  6
CONTINUOUS
 10
12.073856842
 20
8.4801821004
 11
12.1049151018
 21
8.5101820774
  0
LINE
  5
2AE
100
AcDbEntity
  8
0
100
AcDbLine
 62
4
  6
CONTINUOUS
 10
12.2322539669
 20
8.5990986038
 11
12.2477830968
 21
8.6140985923
  0
LINE
  5
2AF
100
AcDbEntity
  8
0
100
AcDbLine
 62
4
  6
CONTINUOUS
 10
12.146621908
 20
8.4911323223
 11
12.1688063793
 21
8.5125608774
  0
LINE
  5
2B0
100
AcDbEntity
  8
0
100
AcDbLine
 62
4
  6
CONTINUOUS
 10
12.073856842
 20
8.4139471866
 11
12.1049151018
 21
8.4439471636
  0
LINE
  5
2B1
100
AcDbEntity
  8
0
100
AcDbLine
 62
4
  6
CONTINUOUS
 10
12.2322539669
 20
8.5517682355
 11
12.2477830968
 21
8.566768224
  0
LINE
  5
2B2
100
AcDbEntity
  8
0
100
AcDbLine
 62
4
  6
CONTINUOUS
 10
12.2477830968
 20
8.508812671
 11
12.216724837
 21
8.478812694
  0
LINE
  5
2B3
100
AcDbEntity
  8
0
100
AcDbLine
 62
4
  6
CONTINUOUS
 10
12.1421850136
 20
8.390254025
 11
12.1732432733
 21
8.4202540021
  0
LINE
  5
2B4
100
AcDbEntity
  8
0
100
AcDbLine
 62
4
  6
CONTINUOUS
 10
12.2322539669
 20
8.4551756472
 11
12.2477830968
 21
8.4701756357
  0
LINE
  5
2B5
100
AcDbEntity
  8
0
100
AcDbLine
 62
4
  6
CONTINUOUS
 10
12.0782937365
 20
7.9987451105
 11
12.073856842
 21
8.0110181208
  0
LINE
  5
2B6
100
AcDbEntity
  8
0
100
AcDbLine
 62
4
  6
CONTINUOUS
 10
12.0782937365
 20
8.0898181066
 11
12.073856842
 21
8.1020911169
  0
LINE
  5
2B7
100
AcDbEntity
  8
0
100
AcDbLine
 62
7
  6
CONTINUOUS
 10
11.9322520313
 20
10.7340077543
 11
11.9322520313
 21
9.6772848377
  0
LINE
  5
2B8
100
AcDbEntity
  8
0
100
AcDbLine
 62
7
  6
CONTINUOUS
 10
11.9332179571
 20
6.0240859637
 11
11.9332179571
 21
6.7164740562
  0
LINE
  5
2B9
100
AcDbEntity
  8
0
100
AcDbLine
 62
4
  6
CONTINUOUS
 10
12.073856842
 20
8.4139471866
 11
12.073856842
 21
8.3642709943
  0
LINE
  5
2BA
100
AcDbEntity
  8
0
100
AcDbLine
 62
4
  6
CONTINUOUS
 10
12.073856842
 20
7.9475429571
 11
12.073856842
 21
7.8978667925
  0
LINE
  5
2BB
100
AcDbEntity
  8
0
100
AcDbLine
 62
4
  6
CONTINUOUS
 10
12.073856842
 20
8.0110181208
 11
12.073856842
 21
8.0524149523
  0
LINE
  5
2BC
100
AcDbEntity
  8
0
100
AcDbLine
 62
4
  6
CONTINUOUS
 10
12.073856842
 20
8.1020911169
 11
12.073856842
 21
8.1269292269
  0
LINE
  5
2BD
100
AcDbEntity
  8
0
100
AcDbLine
 62
4
  6
CONTINUOUS
 10
12.073856842
 20
8.1904043353
 11
12.073856842
 21
8.2235217784
  0
LINE
  5
2BE
100
AcDbEntity
  8
0
100
AcDbLine
 62
4
  6
CONTINUOUS
 10
12.073856842
 20
8.6761270709
 11
12.073856842
 21
8.7175238885
  0
LINE
  5
2BF
100
AcDbEntity
  8
0
100
AcDbLine
 62
4
  6
CONTINUOUS
 10
12.0827306309
 20
8.6101842118
 11
12.0827306309
 21
8.5660276026
  0
LINE
  5
2C0
100
AcDbEntity
  8
0
100
AcDbLine
 62
4
  6
CONTINUOUS
 10
12.0916044198
 20
7.9315683588
 11
12.0916044198
 21
7.9646858019
  0
LINE
  5
2C1
100
AcDbEntity
  8
0
100
AcDbLine
 62
4
  6
CONTINUOUS
 10
12.0916044198
 20
8.3979725606
 11
12.0916044198
 21
8.4310900313
  0
LINE
  5
2C2
100
AcDbEntity
  8
0
100
AcDbLine
 62
4
  6
CONTINUOUS
 10
12.1049151018
 20
8.7475238656
 11
12.1049151018
 21
8.7061270479
  0
LINE
  5
2C3
100
AcDbEntity
  8
0
100
AcDbLine
 62
4
  6
CONTINUOUS
 10
12.1049151018
 20
8.5432995481
 11
12.1049151018
 21
8.4770646343
  0
LINE
  5
2C4
100
AcDbEntity
  8
0
100
AcDbLine
 62
4
  6
CONTINUOUS
 10
12.1049151018
 20
8.4439471636
 11
12.1049151018
 21
8.3942709713
  0
LINE
  5
2C5
100
AcDbEntity
  8
0
100
AcDbLine
 62
4
  6
CONTINUOUS
 10
12.1049151018
 20
8.2535217554
 11
12.1049151018
 21
8.2204043123
  0
LINE
  5
2C6
100
AcDbEntity
  8
0
100
AcDbLine
 62
4
  6
CONTINUOUS
 10
12.1049151018
 20
8.1569292039
 11
12.1049151018
 21
8.1320910939
  0
LINE
  5
2C7
100
AcDbEntity
  8
0
100
AcDbLine
 62
4
  6
CONTINUOUS
 10
12.1049151018
 20
8.0824149293
 11
12.1049151018
 21
8.0410180979
  0
LINE
  5
2C8
100
AcDbEntity
  8
0
100
AcDbLine
 62
4
  6
CONTINUOUS
 10
12.1049151018
 20
7.9775429342
 11
12.1049151018
 21
7.9278667695
  0
LINE
  5
2C9
100
AcDbEntity
  8
0
100
AcDbLine
 62
4
  6
CONTINUOUS
 10
12.0871675249
 20
8.7966159424
 11
12.0812516658
 21
8.7467450483
  0
LINE
  5
2CA
100
AcDbEntity
  8
0
100
AcDbLine
 62
4
  6
CONTINUOUS
 10
12.1049151018
 20
8.7061270479
 11
12.1004782078
 21
8.6852826087
  0
LINE
  5
2CB
100
AcDbEntity
  8
0
100
AcDbLine
 62
4
  6
CONTINUOUS
 10
12.073856842
 20
8.2235217784
 11
12.0782937365
 21
8.2443662111
  0
LINE
  5
2CC
100
AcDbEntity
  8
0
100
AcDbLine
 62
4
  6
CONTINUOUS
 10
12.1049151018
 20
8.6095344619
 11
12.073856842
 21
8.5464170141
  0
LINE
  5
2CD
100
AcDbEntity
  8
0
100
AcDbLine
 62
4
  6
CONTINUOUS
 10
12.1688063793
 20
8.366292106
 11
12.1621510374
 21
8.359863539
  0
LINE
  5
2CE
100
AcDbEntity
  8
0
100
AcDbLine
 62
4
  6
CONTINUOUS
 10
12.1532772495
 20
8.3430127429
 11
12.146621908
 21
8.3365841763
  0
LINE
  5
2CF
100
AcDbEntity
  8
0
100
AcDbLine
 62
4
  6
CONTINUOUS
 10
12.2633122267
 20
8.4272200712
 11
12.2322539669
 21
8.3972200942
  0
LINE
  5
2D0
100
AcDbEntity
  8
0
100
AcDbLine
 62
4
  6
CONTINUOUS
 10
12.0782937365
 20
8.2443662111
 11
12.1004782078
 21
8.2657947662
  0
LINE
  5
2D1
100
AcDbEntity
  8
0
100
AcDbLine
 62
4
  6
CONTINUOUS
 10
12.1599325914
 20
8.316323853
 11
12.1732432733
 21
8.3291809853
  0
LINE
  5
2D2
100
AcDbEntity
  8
0
100
AcDbLine
 62
4
  6
CONTINUOUS
 10
12.2477830968
 20
8.3735830473
 11
12.2322539669
 21
8.3585830588
  0
LINE
  5
2D3
100
AcDbEntity
  8
0
100
AcDbLine
 62
4
  6
CONTINUOUS
 10
12.146621908
 20
8.2537905272
 11
12.1554956964
 21
8.2623619491
  0
LINE
  5
2D4
100
AcDbEntity
  8
0
100
AcDbLine
 62
4
  6
CONTINUOUS
 10
12.0782937365
 20
8.1477736596
 11
12.1004782078
 21
8.1692022147
  0
LINE
  5
2D5
100
AcDbEntity
  8
0
100
AcDbLine
 62
4
  6
CONTINUOUS
 10
12.2322539669
 20
8.2619904705
 11
12.2426067202
 21
8.2719904628
  0
LINE
  5
2D6
100
AcDbEntity
  8
0
100
AcDbLine
 62
4
  6
CONTINUOUS
 10
12.1004782078
 20
8.1112466617
 11
12.0782937365
 21
8.0898181066
  0
LINE
  5
2D7
100
AcDbEntity
  8
0
100
AcDbLine
 62
4
  6
CONTINUOUS
 10
12.5078960521
 20
8.479944001
 11
12.4651909458
 21
8.4386940335
  0
LINE
  5
2D8
100
AcDbEntity
  8
0
100
AcDbLine
 62
4
  6
CONTINUOUS
 10
12.073856842
 20
8.0524149523
 11
12.1049151018
 21
8.0824149293
  0
LINE
  5
2D9
100
AcDbEntity
  8
0
100
AcDbLine
 62
4
  6
CONTINUOUS
 10
12.2477830968
 20
8.219034906
 11
12.2322539669
 21
8.2040349175
  0
LINE
  5
2DA
100
AcDbEntity
  8
0
100
AcDbLine
 62
4
  6
CONTINUOUS
 10
12.2477830968
 20
8.1803978706
 11
12.2322539669
 21
8.1653978821
  0
LINE
  5
2DB
100
AcDbEntity
  8
0
100
AcDbLine
 62
4
  6
CONTINUOUS
 10
12.1004782078
 20
8.0201736656
 11
12.0782937365
 21
7.9987451105
  0
LINE
  5
2DC
100
AcDbEntity
  8
0
100
AcDbLine
 62
4
  6
CONTINUOUS
 10
12.5078960521
 20
8.479944001
 11
12.4890366629
 21
8.4945479487
  0
LINE
  5
2DD
100
AcDbEntity
  8
0
100
AcDbLine
 62
4
  6
CONTINUOUS
 10
12.1004782078
 20
8.1692022147
 11
12.1049151018
 21
8.1569292039
  0
LINE
  5
2DE
100
AcDbEntity
  8
0
100
AcDbLine
 62
4
  6
CONTINUOUS
 10
12.1004782078
 20
8.2657947662
 11
12.1049151018
 21
8.2535217554
  0
LINE
  5
2DF
100
AcDbEntity
  8
0
100
AcDbLine
 62
4
  6
CONTINUOUS
 10
12.1421850136
 20
8.2660635513
 11
12.146621908
 21
8.2537905272
  0
LINE
  5
2E0
100
AcDbEntity
  8
0
100
AcDbLine
 62
4
  6
CONTINUOUS
 10
12.146621908
 20
8.3365841763
 11
12.1421850136
 21
8.3488572005
  0
LINE
  5
2E1
100
AcDbEntity
  8
0
100
AcDbLine
 62
4
  6
CONTINUOUS
 10
12.1621510374
 20
8.359863539
 11
12.1577141434
 21
8.3721365498
  0
LINE
  5
2E2
100
AcDbEntity
  8
0
100
AcDbLine
 62
4
  6
CONTINUOUS
 10
12.0782937365
 20
8.6638540536
 11
12.073856842
 21
8.6761270709
  0
LINE
  5
2E3
100
AcDbEntity
  8
0
100
AcDbLine
 62
4
  6
CONTINUOUS
 10
12.1688063793
 20
8.5125608774
 11
12.1732432733
 21
8.5002878579
  0
LINE
  5
2E4
100
AcDbEntity
  8
0
100
AcDbLine
 62
4
  6
CONTINUOUS
 10
12.0871675249
 20
7.8334498734
 11
12.0812516658
 21
7.8718922011
  0
LINE
  5
2E5
100
AcDbEntity
  8
0
100
AcDbLine
 62
4
  6
CONTINUOUS
 10
12.0930833845
 20
8.7581736116
 11
12.0871675249
 21
8.7966159424
  0
LINE
  5
2E6
100
AcDbEntity
  8
0
100
AcDbLine
 62
4
  6
CONTINUOUS
 10
12.1421850136
 20
8.2991810082
 11
12.1421850136
 21
8.2660635513
  0
LINE
  5
2E7
100
AcDbEntity
  8
0
100
AcDbLine
 62
4
  6
CONTINUOUS
 10
12.1421850136
 20
8.3488572005
 11
12.1421850136
 21
8.390254025
  0
LINE
  5
2E8
100
AcDbEntity
  8
0
100
AcDbLine
 62
4
  6
CONTINUOUS
 10
12.1421850136
 20
8.4371704223
 11
12.1421850136
 21
8.4702878809
  0
LINE
  5
2E9
100
AcDbEntity
  8
0
100
AcDbLine
 62
4
  6
CONTINUOUS
 10
12.1577141434
 20
8.363857189
 11
12.1577141434
 21
8.4052540136
  0
LINE
  5
2EA
100
AcDbEntity
  8
0
100
AcDbLine
 62
4
  6
CONTINUOUS
 10
12.1599325914
 20
8.2832063961
 11
12.1599325914
 21
8.316323853
  0
LINE
  5
2EB
100
AcDbEntity
  8
0
100
AcDbLine
 62
4
  6
CONTINUOUS
 10
12.1732432733
 20
8.5002878579
 11
12.1732432733
 21
8.4671703993
  0
LINE
  5
2EC
100
AcDbEntity
  8
0
100
AcDbLine
 62
4
  6
CONTINUOUS
 10
12.1732432733
 20
8.4202540021
 11
12.1732432733
 21
8.395415899
  0
LINE
  5
2ED
100
AcDbEntity
  8
0
100
AcDbLine
 62
4
  6
CONTINUOUS
 10
12.1732432733
 20
8.3291809853
 11
12.1732432733
 21
8.279504793
  0
LINE
  5
2EE
100
AcDbEntity
  8
0
100
AcDbLine
 62
4
  6
CONTINUOUS
 10
12.216724837
 20
8.478812694
 11
12.216724837
 21
8.5174497294
  0
LINE
  5
2EF
100
AcDbEntity
  8
0
100
AcDbLine
 62
4
  6
CONTINUOUS
 10
12.2322539669
 20
8.1653978821
 11
12.2322539669
 21
8.1074423291
  0
LINE
  5
2F0
100
AcDbEntity
  8
0
100
AcDbLine
 62
4
  6
CONTINUOUS
 10
12.2322539669
 20
7.9915312231
 11
12.2322539669
 21
7.9335756701
  0
LINE
  5
2F1
100
AcDbEntity
  8
0
100
AcDbLine
 62
4
  6
CONTINUOUS
 10
12.2322539669
 20
7.8369830817
 11
12.2322539669
 21
7.8949386347
  0
LINE
  5
2F2
100
AcDbEntity
  8
0
100
AcDbLine
 62
4
  6
CONTINUOUS
 10
12.2322539669
 20
8.2040349175
 11
12.2322539669
 21
8.2619904705
  0
LINE
  5
2F3
100
AcDbEntity
  8
0
100
AcDbLine
 62
4
  6
CONTINUOUS
 10
12.2322539669
 20
8.3972200942
 11
12.2322539669
 21
8.4551756472
  0
LINE
  5
2F4
100
AcDbEntity
  8
0
100
AcDbLine
 62
4
  6
CONTINUOUS
 10
12.2322539669
 20
8.4938126825
 11
12.2322539669
 21
8.5517682355
  0
LINE
  5
2F5
100
AcDbEntity
  8
0
100
AcDbLine
 62
4
  6
CONTINUOUS
 10
12.2322539669
 20
8.8598985924
 11
12.2322539669
 21
8.9178541454
  0
LINE
  5
2F6
100
AcDbEntity
  8
0
100
AcDbLine
 62
4
  6
CONTINUOUS
 10
12.2322539669
 20
8.9468319219
 11
12.2322539669
 21
9.0047874749
  0
LINE
  5
2F7
100
AcDbEntity
  8
0
100
AcDbLine
 62
4
  6
CONTINUOUS
 10
12.2400185319
 20
7.902438629
 11
12.2400185319
 21
7.844483076
  0
LINE
  5
2F8
100
AcDbEntity
  8
0
100
AcDbLine
 62
4
  6
CONTINUOUS
 10
12.2426067202
 20
8.2719904628
 11
12.2426067202
 21
8.2140349098
  0
LINE
  5
2F9
100
AcDbEntity
  8
0
100
AcDbLine
 62
4
  6
CONTINUOUS
 10
12.2477830968
 20
9.0197874634
 11
12.2477830968
 21
8.9618319104
  0
LINE
  5
2FA
100
AcDbEntity
  8
0
100
AcDbLine
 62
4
  6
CONTINUOUS
 10
12.2477830968
 20
8.4701756357
 11
12.2477830968
 21
8.4122200827
  0
LINE
  5
2FB
100
AcDbEntity
  8
0
100
AcDbLine
 62
4
  6
CONTINUOUS
 10
12.2477830968
 20
8.3735830473
 11
12.2477830968
 21
8.3156274943
  0
LINE
  5
2FC
100
AcDbEntity
  8
0
100
AcDbLine
 62
4
  6
CONTINUOUS
 10
12.2477830968
 20
8.0065312116
 11
12.2477830968
 21
7.9485756586
  0
LINE
  5
2FD
100
AcDbEntity
  8
0
100
AcDbLine
 62
4
  6
CONTINUOUS
 10
12.2477830968
 20
7.9099386233
 11
12.2477830968
 21
7.8519830702
  0
LINE
  5
2FE
100
AcDbEntity
  8
0
100
AcDbLine
 62
4
  6
CONTINUOUS
 10
12.2477830968
 20
8.219034906
 11
12.2477830968
 21
8.2576719413
  0
LINE
  5
2FF
100
AcDbEntity
  8
0
100
AcDbLine
 62
4
  6
CONTINUOUS
 10
12.2477830968
 20
8.6140985923
 11
12.2477830968
 21
8.6720541454
  0
LINE
  5
300
100
AcDbEntity
  8
0
100
AcDbLine
 62
4
  6
CONTINUOUS
 10
12.2555476618
 20
8.0599126853
 11
12.2555476618
 21
8.0454237971
  0
LINE
  5
301
100
AcDbEntity
  8
0
100
AcDbLine
 62
4
  6
CONTINUOUS
 10
12.2633122267
 20
8.8609207929
 11
12.2633122267
 21
8.8029652399
  0
LINE
  5
302
100
AcDbEntity
  8
0
100
AcDbLine
 62
4
  6
CONTINUOUS
 10
12.2633122267
 20
8.9768318989
 11
12.2633122267
 21
9.0347874519
  0
LINE
  5
303
100
AcDbEntity
  8
0
100
AcDbLine
 62
4
  6
CONTINUOUS
 10
12.1732432733
 20
8.395415899
 11
12.1725037901
 21
8.3864222522
  0
LINE
  5
304
100
AcDbEntity
  8
0
100
AcDbLine
 62
4
  6
CONTINUOUS
 10
12.0930833845
 20
7.8833207645
 11
12.0871675249
 21
7.8334498734
  0
LINE
  5
305
100
AcDbEntity
  8
0
100
AcDbLine
 62
4
  6
CONTINUOUS
 10
12.1725037901
 20
8.3864222522
 11
12.1688063793
 21
8.366292106
  0
LINE
  5
306
100
AcDbEntity
  8
0
100
AcDbLine
 62
4
  6
CONTINUOUS
 10
12.1421850136
 20
8.4702878809
 11
12.146621908
 21
8.4911323223
  0
LINE
  5
307
100
AcDbEntity
  8
0
100
AcDbLine
 62
4
  6
CONTINUOUS
 10
12.073856842
 20
8.1269292269
 11
12.0782937365
 21
8.1477736596
  0
LINE
  5
308
100
AcDbEntity
  8
0
100
AcDbLine
 62
4
  6
CONTINUOUS
 10
12.1049151018
 20
8.1320910939
 11
12.1004782078
 21
8.1112466617
  0
LINE
  5
309
100
AcDbEntity
  8
0
100
AcDbLine
 62
4
  6
CONTINUOUS
 10
12.1577141434
 20
8.363857189
 11
12.1532772495
 21
8.3430127429
  0
LINE
  5
30A
100
AcDbEntity
  8
0
100
AcDbLine
 62
4
  6
CONTINUOUS
 10
12.1049151018
 20
8.0410180979
 11
12.1004782078
 21
8.0201736656
  0
LINE
  5
30B
100
AcDbEntity
  8
0
100
AcDbLine
 62
4
  6
CONTINUOUS
 10
12.1554956964
 20
8.2623619491
 11
12.1599325914
 21
8.2832063961
  0
LINE
  5
30C
100
AcDbEntity
  8
0
100
AcDbLine
 62
4
  6
CONTINUOUS
 10
12.2322539669
 20
8.1074423291
 11
12.2477830968
 21
8.1224423176
  0
LINE
  5
30D
100
AcDbEntity
  8
0
100
AcDbLine
 62
4
  6
CONTINUOUS
 10
12.073856842
 20
7.9475429571
 11
12.1049151018
 21
7.9775429342
  0
LINE
  5
30E
100
AcDbEntity
  8
0
100
AcDbLine
 62
4
  6
CONTINUOUS
 10
12.4949551102
 20
8.3442884642
 11
12.4923669225
 21
8.3417884667
  0
LINE
  5
30F
100
AcDbEntity
  8
0
100
AcDbLine
 62
4
  6
CONTINUOUS
 10
12.2322539669
 20
8.0688052938
 11
12.2633122267
 21
8.0988052708
  0
LINE
  5
310
100
AcDbEntity
  8
0
100
AcDbLine
 62
4
  6
CONTINUOUS
 10
12.4794259816
 20
8.2713329252
 11
12.4742496049
 21
8.266332929
  0
LINE
  5
311
100
AcDbEntity
  8
0
100
AcDbLine
 62
4
  6
CONTINUOUS
 10
12.2322539669
 20
8.0301682584
 11
12.2477830968
 21
8.0451682469
  0
LINE
  5
312
100
AcDbEntity
  8
0
100
AcDbLine
 62
4
  6
CONTINUOUS
 10
12.2477830968
 20
8.0065312116
 11
12.2322539669
 21
7.9915312231
  0
LINE
  5
313
100
AcDbEntity
  8
0
100
AcDbLine
 62
4
  6
CONTINUOUS
 10
12.2477830968
 20
7.9099386233
 11
12.2400185319
 21
7.902438629
  0
LINE
  5
314
100
AcDbEntity
  8
0
100
AcDbLine
 62
4
  6
CONTINUOUS
 10
12.5001314873
 20
8.117466254
 11
12.4690732282
 21
8.0874662776
  0
LINE
  5
315
100
AcDbEntity
  8
0
100
AcDbLine
 62
4
  6
CONTINUOUS
 10
12.2400185319
 20
7.844483076
 11
12.2322539669
 21
7.8369830817
  0
LINE
  5
316
100
AcDbEntity
  8
0
100
AcDbLine
 62
7
  6
CONTINUOUS
 10
11.8919072035
 20
9.5753147243
 11
9.4770924947
 21
9.7427826932
  0
LINE
  5
317
100
AcDbEntity
  8
0
100
AcDbLine
 62
7
  6
CONTINUOUS
 10
11.4729727631
 20
9.6086551048
 11
9.9033432024
 21
9.7175092846
  0
LINE
  5
318
100
AcDbEntity
  8
0
100
AcDbLine
 62
4
  6
CONTINUOUS
 10
12.476837793
 20
8.1456773795
 11
12.4716614166
 21
8.1551662714
  0
LINE
  5
319
100
AcDbEntity
  8
0
100
AcDbLine
 62
4
  6
CONTINUOUS
 10
12.4742496049
 20
8.266332929
 11
12.4716614166
 21
8.2710773748
  0
LINE
  5
31A
100
AcDbEntity
  8
0
100
AcDbLine
 62
4
  6
CONTINUOUS
 10
12.4923669225
 20
8.2331218073
 11
12.4975432997
 21
8.223632916
  0
LINE
  5
31B
100
AcDbEntity
  8
0
100
AcDbLine
 62
4
  6
CONTINUOUS
 10
12.4975432997
 20
8.3395440194
 11
12.4949551102
 21
8.3442884642
  0
LINE
  5
31C
100
AcDbEntity
  8
0
100
AcDbLine
 62
7
  6
CONTINUOUS
 10
12.3608560162
 20
11.1480074371
 11
12.3608560162
 21
10.0912845206
  0
LINE
  5
31D
100
AcDbEntity
  8
0
100
AcDbLine
 62
7
  6
CONTINUOUS
 10
12.3618219421
 20
6.4380856466
 11
12.3618219421
 21
7.1304737391
  0
LINE
  5
31E
100
AcDbEntity
  8
0
100
AcDbLine
 62
7
  6
CONTINUOUS
 10
12.3736338099
 20
10.1164047159
 11
12.3736338099
 21
11.1731276325
  0
LINE
  5
31F
100
AcDbEntity
  8
0
100
AcDbLine
 62
7
  6
CONTINUOUS
 10
12.3745997358
 20
7.1428161407
 11
12.3745997358
 21
6.4632058419
  0
LINE
  5
320
100
AcDbEntity
  8
0
100
AcDbLine
 62
4
  6
CONTINUOUS
 10
12.4651909458
 20
8.4386940335
 11
12.4651909458
 21
7.2795829992
  0
LINE
  5
321
100
AcDbEntity
  8
0
100
AcDbLine
 62
4
  6
CONTINUOUS
 10
12.4690732282
 20
8.0874662776
 11
12.4690732282
 21
8.0295107259
  0
LINE
  5
322
100
AcDbEntity
  8
0
100
AcDbLine
 62
4
  6
CONTINUOUS
 10
12.4690732282
 20
7.6238218639
 11
12.4690732282
 21
7.5658663122
  0
LINE
  5
323
100
AcDbEntity
  8
0
100
AcDbLine
 62
4
  6
CONTINUOUS
 10
12.4690732282
 20
7.3340441053
 11
12.4690732282
 21
7.391999657
  0
LINE
  5
324
100
AcDbEntity
  8
0
100
AcDbLine
 62
4
  6
CONTINUOUS
 10
12.4690732282
 20
8.1671551612
 11
12.4690732282
 21
8.1816440492
  0
LINE
  5
325
100
AcDbEntity
  8
0
100
AcDbLine
 62
4
  6
CONTINUOUS
 10
12.4690732282
 20
8.2830662647
 11
12.4690732282
 21
8.2975551526
  0
LINE
  5
326
100
AcDbEntity
  8
0
100
AcDbLine
 62
4
  6
CONTINUOUS
 10
12.4794259816
 20
7.7424885158
 11
12.4794259816
 21
7.699021852
  0
LINE
  5
327
100
AcDbEntity
  8
0
100
AcDbLine
 62
4
  6
CONTINUOUS
 10
12.4846023578
 20
7.4069996452
 11
12.4846023578
 21
7.3707774254
  0
LINE
  5
328
100
AcDbEntity
  8
0
100
AcDbLine
 62
4
  6
CONTINUOUS
 10
12.5001314873
 20
8.2116440255
 11
12.5001314873
 21
8.1971551376
  0
LINE
  5
329
100
AcDbEntity
  8
0
100
AcDbLine
 62
4
  6
CONTINUOUS
 10
12.5001314873
 20
7.4219996334
 11
12.5001314873
 21
7.3640440817
  0
LINE
  5
32A
100
AcDbEntity
  8
0
100
AcDbLine
 62
4
  6
CONTINUOUS
 10
12.5001314873
 20
8.313066241
 11
12.5001314873
 21
8.3275551289
  0
LINE
  5
32B
100
AcDbEntity
  8
0
100
AcDbLine
 62
7
  6
CONTINUOUS
 10
12.5229075053
 20
10.1848142483
 11
12.5229075053
 21
7.286070454
  0
LINE
  5
32C
100
AcDbEntity
  8
0
100
AcDbLine
 62
4
  6
CONTINUOUS
 10
12.4690732282
 20
8.2975551526
 11
12.4716614166
 21
8.3145440386
  0
LINE
  5
32D
100
AcDbEntity
  8
0
100
AcDbLine
 62
4
  6
CONTINUOUS
 10
12.4897787349
 20
8.3320440253
 11
12.4820141692
 21
8.2810773666
  0
LINE
  5
32E
100
AcDbEntity
  8
0
100
AcDbLine
 62
4
  6
CONTINUOUS
 10
12.4690732282
 20
8.1816440492
 11
12.4716614166
 21
8.1986329352
  0
LINE
  5
32F
100
AcDbEntity
  8
0
100
AcDbLine
 62
4
  6
CONTINUOUS
 10
12.4975432997
 20
8.2960773556
 11
12.5001314873
 21
8.313066241
  0
LINE
  5
330
100
AcDbEntity
  8
0
100
AcDbLine
 62
4
  6
CONTINUOUS
 10
12.5001314873
 20
8.1971551376
 11
12.4975432997
 21
8.1801662522
  0
LINE
  5
331
100
AcDbEntity
  8
0
100
AcDbLine
 62
4
  6
CONTINUOUS
 10
12.4716614166
 20
8.3145440386
 11
12.476837793
 21
8.3340329225
  0
LINE
  5
332
100
AcDbEntity
  8
0
100
AcDbLine
 62
4
  6
CONTINUOUS
 10
12.4923669225
 20
8.3417884667
 11
12.4897787349
 21
8.3320440253
  0
LINE
  5
333
100
AcDbEntity
  8
0
100
AcDbLine
 62
4
  6
CONTINUOUS
 10
12.4820141692
 20
8.2810773666
 11
12.4794259816
 21
8.2713329252
  0
LINE
  5
334
100
AcDbEntity
  8
0
100
AcDbLine
 62
4
  6
CONTINUOUS
 10
12.4716614166
 20
8.1986329352
 11
12.476837793
 21
8.2181218191
  0
LINE
  5
335
100
AcDbEntity
  8
0
100
AcDbLine
 62
4
  6
CONTINUOUS
 10
12.4949551102
 20
8.2863329125
 11
12.4975432997
 21
8.2960773556
  0
LINE
  5
336
100
AcDbEntity
  8
0
100
AcDbLine
 62
4
  6
CONTINUOUS
 10
12.4975432997
 20
8.1801662522
 11
12.4923669225
 21
8.1606773676
  0
LINE
  5
337
100
AcDbEntity
  8
0
100
AcDbLine
 62
4
  6
CONTINUOUS
 10
12.5078960521
 20
8.479944001
 11
12.4890366629
 21
8.4289065089
  0
LINE
  5
338
100
AcDbEntity
  8
0
100
AcDbLine
 62
4
  6
CONTINUOUS
 10
12.476837793
 20
8.2181218191
 11
12.4846023578
 21
8.2328662571
  0
LINE
  5
339
100
AcDbEntity
  8
0
100
AcDbLine
 62
4
  6
CONTINUOUS
 10
12.4923669225
 20
8.1606773676
 11
12.4846023578
 21
8.1459329296
  0
LINE
  5
33A
100
AcDbEntity
  8
0
100
AcDbLine
 62
4
  6
CONTINUOUS
 10
12.4716614166
 20
8.1551662714
 11
12.4690732282
 21
8.1671551612
  0
LINE
  5
33B
100
AcDbEntity
  8
0
100
AcDbLine
 62
4
  6
CONTINUOUS
 10
12.4716614166
 20
8.2710773748
 11
12.4690732282
 21
8.2830662647
  0
LINE
  5
33C
100
AcDbEntity
  8
0
100
AcDbLine
 62
4
  6
CONTINUOUS
 10
12.4975432997
 20
8.223632916
 11
12.5001314873
 21
8.2116440255
  0
LINE
  5
33D
100
AcDbEntity
  8
0
100
AcDbLine
 62
4
  6
CONTINUOUS
 10
12.5001314873
 20
8.3275551289
 11
12.4975432997
 21
8.3395440194
  0
LINE
  5
33E
100
AcDbEntity
  8
0
100
AcDbLine
 62
4
  6
CONTINUOUS
 10
12.5001314873
 20
7.8928884911
 11
12.4690732282
 21
7.8266662949
  0
LINE
  5
33F
100
AcDbEntity
  8
0
100
AcDbLine
 62
4
  6
CONTINUOUS
 10
12.5001314873
 20
7.7407551678
 11
12.4690732282
 21
7.6745329716
  0
LINE
  5
340
100
AcDbEntity
  8
0
100
AcDbLine
 62
4
  6
CONTINUOUS
 10
12.5001314873
 20
7.5451551808
 11
12.4690732282
 21
7.4789329846
  0
LINE
  5
341
100
AcDbEntity
  8
0
100
AcDbLine
 62
4
  6
CONTINUOUS
 10
12.5001314873
 20
7.6538218402
 11
12.4690732282
 21
7.6238218639
  0
LINE
  5
342
100
AcDbEntity
  8
0
100
AcDbLine
 62
4
  6
CONTINUOUS
 10
12.4690732282
 20
7.391999657
 11
12.5001314873
 21
7.4219996334
  0
LINE
  5
343
100
AcDbEntity
  8
0
100
AcDbLine
 62
7
  6
CONTINUOUS
 10
11.8919072035
 20
6.67657093
 11
12.5229075053
 21
7.286070454
  0
LINE
  5
344
100
AcDbEntity
  8
0
100
AcDbLine
 62
7
  6
CONTINUOUS
 10
12.5229075053
 20
10.1848142483
 11
12.3736338099
 21
10.1951664143
  0
LINE
  5
345
100
AcDbEntity
  8
0
100
AcDbLine
 62
7
  6
CONTINUOUS
 10
11.4729727631
 20
10.6653780214
 11
9.9033432024
 21
10.7742322012
  0
LINE
  5
346
100
AcDbEntity
  8
0
100
AcDbLine
 62
7
  6
CONTINUOUS
 10
11.9023083289
 20
10.7660280595
 11
11.9322520313
 21
10.7340077543
  0
LINE
  5
347
100
AcDbEntity
  8
0
100
AcDbLine
 62
7
  6
CONTINUOUS
 10
11.9332179571
 20
6.0240859637
 11
12.3618219421
 21
6.4380856466
  0
LINE
  5
348
100
AcDbEntity
  8
0
100
AcDbLine
 62
7
  6
CONTINUOUS
 10
11.4809961469
 20
10.7030717179
 11
9.9113665862
 21
10.8119258976
  0
LINE
  5
349
100
AcDbEntity
  8
0
100
AcDbLine
 62
7
  6
CONTINUOUS
 10
11.932283167
 20
6.0231998207
 11
11.9332179571
 21
6.0240859637
  0
LINE
  5
34A
100
AcDbEntity
  8
0
100
AcDbLine
 62
7
  6
CONTINUOUS
 10
11.932283167
 20
6.0231998207
 11
11.9024167406
 21
5.9954059757
  0
LINE
  5
34B
100
AcDbEntity
  8
0
100
AcDbLine
 62
7
  6
CONTINUOUS
 10
11.7908824148
 20
5.6909752872
 11
11.7602084043
 21
5.6758229133
  0
LINE
  5
34C
100
AcDbEntity
  8
0
100
AcDbLine
 62
7
  6
CONTINUOUS
 10
10.5180379272
 20
11.3979254487
 11
12.0876674879
 21
11.289071269
  0
LINE
  5
34D
100
AcDbEntity
  8
0
100
AcDbLine
 62
7
  6
CONTINUOUS
 10
12.3309123138
 20
11.1800277423
 11
12.3608560162
 21
11.1480074371
  0
LINE
  5
34E
100
AcDbEntity
  8
0
100
AcDbLine
 62
7
  6
CONTINUOUS
 10
12.3599212261
 20
11.1991339708
 11
12.3300547997
 21
11.2269278159
  0
ARC
  5
34F
100
AcDbEntity
  8
0
100
AcDbCircle
 62
7
  6
CONTINUOUS
 10
11.2796388165
 20
7.8328419881
 40
2.210103635
100
AcDbArc
 50
273.2665005552
 51
274.6677615151
  0
ARC
  5
350
100
AcDbEntity
  8
0
100
AcDbCircle
 62
7
  6
CONTINUOUS
 10
11.0596642429
 20
6.5938061042
 40
0.9538158545
100
AcDbArc
 50
254.2644742826
 51
256.7139235525
  0
ARC
  5
351
100
AcDbEntity
  8
0
100
AcDbCircle
 62
7
  6
CONTINUOUS
 10
11.4520014131
 20
6.3758704883
 40
0.7641475746
100
AcDbArc
 50
293.7608747297
 51
296.3085175792
  0
ARC
  5
352
100
AcDbEntity
  8
0
100
AcDbCircle
 62
7
  6
CONTINUOUS
 10
10.249972425
 20
9.0840262004
 40
0.2021623769
100
AcDbArc
 50
320.790673685
 51
325.5737985047
  0
ARC
  5
353
100
AcDbEntity
  8
0
100
AcDbCircle
 62
7
  6
CONTINUOUS
 10
10.3400600967
 20
9.0248502382
 40
0.0944220938
100
AcDbArc
 50
311.8702386677
 51
324.2878968261
  0
SPLINE
  5
354
100
AcDbEntity
  8
0
100
AcDbSpline
 62
7
  6
CONTINUOUS
 70
0
 71
3
 72
9
 73
5
 74
0
 42
0.0000001
 43
0.0000001
 44
0.0000000001
 40
0.0
 40
0.0
 40
0.0
 40
0.0
 40
0.2426770998
 40
1.0
 40
1.0
 40
1.0
 40
1.0
 10
11.8809963041
 20
5.7440751274
 30
0.0
 10
11.8803881136
 20
5.7434876604
 30
0.0
 10
11.8778550622
 20
5.7410947793
 30
0.0
 10
11.8752193485
 20
5.7388113098
 30
0.0
 10
11.8731785464
 20
5.7371384434
 30
0.0
  0
SPLINE
  5
355
100
AcDbEntity
  8
0
100
AcDbSpline
 62
7
  6
CONTINUOUS
 70
0
 71
3
 72
9
 73
5
 74
0
 42
0.0000001
 43
0.0000001
 44
0.0000000001
 40
0.0
 40
0.0
 40
0.0
 40
0.0
 40
0.2426666479
 40
1.0
 40
1.0
 40
1.0
 40
1.0
 10
11.8876265707
 20
5.7510941641
 30
0.0
 10
11.8871189429
 20
5.7505003911
 30
0.0
 10
11.8849952471
 20
5.7480808067
 30
0.0
 10
11.8827498387
 20
5.7457689118
 30
0.0
 10
11.8809963041
 20
5.7440751274
 30
0.0
  0
SPLINE
  5
356
100
AcDbEntity
  8
0
100
AcDbSpline
 62
7
  6
CONTINUOUS
 70
0
 71
3
 72
9
 73
5
 74
0
 42
0.0000001
 43
0.0000001
 44
0.0000000001
 40
0.0
 40
0.0
 40
0.0
 40
0.0
 40
0.504378312
 40
1.0
 40
1.0
 40
1.0
 40
1.0
 10
11.8731785464
 20
5.7371384434
 30
0.0
 10
11.8596747961
 20
5.7287295896
 30
0.0
 10
11.8325619587
 20
5.7125949337
 30
0.0
 10
11.8046891622
 20
5.6977977389
 30
0.0
 10
11.7906750243
 20
5.6908728965
 30
0.0
  0
SPLINE
  5
357
100
AcDbEntity
  8
0
100
AcDbSpline
 62
7
  6
CONTINUOUS
 70
0
 71
3
 72
47
 73
43
 74
0
 42
0.0000001
 43
0.0000001
 44
0.0000000001
 40
0.0
 40
0.0
 40
0.0
 40
0.0
 40
0.0099874638
 40
0.0204476834
 40
0.0313771515
 40
0.0427708334
 40
0.0546218702
 40
0.0669225517
 40
0.0796641282
 40
0.0928362942
 40
0.1204271347
 40
0.1495984091
 40
0.1802407165
 40
0.2122338314
 40
0.2454489836
 40
0.2797497839
 40
0.3149929168
 40
0.3510298084
 40
0.3877071885
 40
0.4248680172
 40
0.4623527228
 40
0.4999997959
 40
0.5376468789
 40
0.575131606
 40
0.6122924455
 40
0.6489698269
 40
0.6850067267
 40
0.7202498875
 40
0.7545507276
 40
0.7877659112
 40
0.8197590481
 40
0.8504013805
 40
0.8795726993
 40
0.9071635849
 40
0.9203357726
 40
0.933077377
 40
0.9453780958
 40
0.9572291635
 40
0.968622847
 40
0.9795522717
 40
0.9900124597
 40
1.0
 40
1.0
 40
1.0
 40
1.0
 10
11.7602122897
 20
5.675824868
 30
0.0
 10
11.7572217553
 20
5.6743475902
 30
0.0
 10
11.7510480489
 20
5.6714256744
 30
0.0
 10
11.7414458505
 20
5.6672262307
 30
0.0
 10
11.7312976724
 20
5.663113396
 30
0.0
 10
11.7206152245
 20
5.6590921862
 30
0.0
 10
11.7094108488
 20
5.655166881
 30
0.0
 10
11.6976973481
 20
5.6513421619
 30
0.0
 10
11.6854880922
 20
5.6476225911
 30
0.0
 10
11.6683002633
 20
5.6427330593
 30
0.0
 10
11.6456699511
 20
5.6369375778
 30
0.0
 10
11.6171786727
 20
5.6305689055
 30
0.0
 10
11.5870786238
 20
5.6247133816
 30
0.0
 10
11.5555086175
 20
5.61939804
 30
0.0
 10
11.5226139596
 20
5.6146478836
 30
0.0
 10
11.4885463085
 20
5.6104853515
 30
0.0
 10
11.4534628499
 20
5.6069296235
 30
0.0
 10
11.4175255291
 20
5.6039974531
 30
0.0
 10
11.3809002681
 20
5.6017026685
 30
0.0
 10
11.3437562357
 20
5.600055721
 30
0.0
 10
11.3062650117
 20
5.599064485
 30
0.0
 10
11.2685997715
 20
5.5987336284
 30
0.0
 10
11.2309345239
 20
5.5990644683
 30
0.0
 10
11.1934432855
 20
5.6000556882
 30
0.0
 10
11.156299241
 20
5.6017026189
 30
0.0
 10
11.1196739722
 20
5.6039973875
 30
0.0
 10
11.0837366375
 20
5.6069295409
 30
0.0
 10
11.048653152
 20
5.6104852544
 30
0.0
 10
11.0145854658
 20
5.6146477718
 30
0.0
 10
10.9816907744
 20
5.6193979149
 30
0.0
 10
10.950120739
 20
5.6247132407
 30
0.0
 10
10.9200206561
 20
5.6305687503
 30
0.0
 10
10.8915293365
 20
5.636937413
 30
0.0
 10
10.8688989825
 20
5.6427328811
 30
0.0
 10
10.8517111181
 20
5.6476224033
 30
0.0
 10
10.8395018313
 20
5.6513419726
 30
0.0
 10
10.8277882992
 20
5.655166699
 30
0.0
 10
10.8165838998
 20
5.6590920068
 30
0.0
 10
10.8059014491
 20
5.6631131982
 30
0.0
 10
10.795753277
 20
5.6672259821
 30
0.0
 10
10.7861510611
 20
5.6714253874
 30
0.0
 10
10.7799773399
 20
5.674347308
 30
0.0
 10
10.7769867868
 20
5.6758246057
 30
0.0
  0
SPLINE
  5
358
100
AcDbEntity
  8
0
100
AcDbSpline
 62
7
  6
CONTINUOUS
 70
0
 71
3
 72
23
 73
19
 74
0
 42
0.0000001
 43
0.0000001
 44
0.0000000001
 40
0.0
 40
0.0
 40
0.0
 40
0.0
 40
0.0436203086
 40
0.0892268542
 40
0.137068591
 40
0.187353676
 40
0.2402538462
 40
0.2958872461
 40
0.3543311569
 40
0.4156094827
 40
0.4797102731
 40
0.5465788188
 40
0.6161346312
 40
0.6882694307
 40
0.7628606873
 40
0.8397744221
 40
0.9188692703
 40
1.0
 40
1.0
 40
1.0
 40
1.0
 10
10.7579805273
 20
5.6852133558
 30
0.0
 10
10.7556705917
 20
5.6863539244
 30
0.0
 10
10.751033468
 20
5.6888690209
 30
0.0
 10
10.7442061785
 20
5.6932300729
 30
0.0
 10
10.7373697896
 20
5.6982723594
 30
0.0
 10
10.7305282399
 20
5.7040032917
 30
0.0
 10
10.7236871417
 20
5.7104269426
 30
0.0
 10
10.7168496012
 20
5.717538515
 30
0.0
 10
10.7100213421
 20
5.725329327
 30
0.0
 10
10.703205098
 20
5.7337827294
 30
0.0
 10
10.6964059295
 20
5.7428786353
 30
0.0
 10
10.6896260792
 20
5.7525910173
 30
0.0
 10
10.6828694124
 20
5.7628915654
 30
0.0
 10
10.6761375253
 20
5.7737485194
 30
0.0
 10
10.6694328083
 20
5.785129373
 30
0.0
 10
10.6627561591
 20
5.7970004554
 30
0.0
 10
10.6561086667
 20
5.8093282945
 30
0.0
 10
10.6517495487
 20
5.8177277116
 30
0.0
 10
10.6495720171
 20
5.8219958444
 30
0.0
  0
SPLINE
  5
359
100
AcDbEntity
  8
0
100
AcDbSpline
 62
7
  6
CONTINUOUS
 70
0
 71
3
 72
21
 73
17
 74
0
 42
0.0000001
 43
0.0000001
 44
0.0000000001
 40
0.0
 40
0.0
 40
0.0
 40
0.0
 40
0.1230212981
 40
0.1847065752
 40
0.2465215318
 40
0.3084771567
 40
0.3705832678
 40
0.432847904
 40
0.4952752623
 40
0.5578663069
 40
0.6206183946
 40
0.6835249868
 40
0.7465773451
 40
0.8097643485
 40
0.8730733734
 40
1.0
 40
1.0
 40
1.0
 40
1.0
 10
11.4055712091
 20
5.6263291035
 30
0.0
 10
11.382492028
 20
5.6217817473
 30
0.0
 10
11.3476595865
 20
5.615809341
 30
0.0
 10
11.3008883715
 20
5.6098991936
 30
0.0
 10
11.2655770629
 20
5.6065719796
 30
0.0
 10
11.2300926201
 20
5.604437572
 30
0.0
 10
11.1944678991
 20
5.6035668356
 30
0.0
 10
11.1587446876
 20
5.6040157308
 30
0.0
 10
11.1229710659
 20
5.6058177296
 30
0.0
 10
11.0871985397
 20
5.6089810155
 30
0.0
 10
11.0514785997
 20
5.6134899661
 30
0.0
 10
11.0158589864
 20
5.6193042079
 30
0.0
 10
10.9803808469
 20
5.626361922
 30
0.0
 10
10.9450766561
 20
5.6345876117
 30
0.0
 10
10.89823273
 20
5.6470071637
 30
0.0
 10
10.8634723203
 20
5.6577949581
 30
0.0
 10
10.8404647345
 20
5.6655193706
 30
0.0
  0
SPLINE
  5
35A
100
AcDbEntity
  8
0
100
AcDbSpline
 62
7
  6
CONTINUOUS
 70
0
 71
3
 72
11
 73
7
 74
0
 42
0.0000001
 43
0.0000001
 44
0.0000000001
 40
0.0
 40
0.0
 40
0.0
 40
0.0
 40
0.2465919593
 40
0.494712682
 40
0.7454424776
 40
1.0
 40
1.0
 40
1.0
 40
1.0
 10
10.8009919566
 20
5.6757356643
 30
0.0
 10
10.7990495437
 20
5.6756808297
 30
0.0
 10
10.795148234
 20
5.6756881761
 30
0.0
 10
10.7892825427
 20
5.676071698
 30
0.0
 10
10.7833924707
 20
5.6768499803
 30
0.0
 10
10.7794860136
 20
5.6776395282
 30
0.0
 10
10.7775345685
 20
5.6781039896
 30
0.0
  0
SPLINE
  5
35B
100
AcDbEntity
  8
0
100
AcDbSpline
 62
7
  6
CONTINUOUS
 70
0
 71
3
 72
10
 73
6
 74
0
 42
0.0000001
 43
0.0000001
 44
0.0000000001
 40
0.0
 40
0.0
 40
0.0
 40
0.0
 40
0.2418255986
 40
0.4885199497
 40
1.0
 40
1.0
 40
1.0
 40
1.0
 10
10.7775345685
 20
5.6781039896
 30
0.0
 10
10.7759000511
 20
5.6784930193
 30
0.0
 10
10.7726197407
 20
5.6793738799
 30
0.0
 10
10.7660208404
 20
5.6815561852
 30
0.0
 10
10.761166962
 20
5.6836400015
 30
0.0
 10
10.7579805273
 20
5.6852133558
 30
0.0
  0
LINE
  5
35C
100
AcDbEntity
  8
0
100
AcDbLine
 62
7
  6
CONTINUOUS
 10
11.7598920661
 20
5.6764958666
 11
11.7591629521
 21
5.676175979
  0
SPLINE
  5
35D
100
AcDbEntity
  8
0
100
AcDbSpline
 62
7
  6
CONTINUOUS
 70
0
 71
3
 72
15
 73
11
 74
0
 42
0.0000001
 43
0.0000001
 44
0.0000000001
 40
0.0
 40
0.0
 40
0.0
 40
0.0
 40
0.1321602046
 40
0.2618009952
 40
0.3890353631
 40
0.5141096583
 40
0.6373677171
 40
0.75919507
 40
0.8799649792
 40
1.0
 40
1.0
 40
1.0
 40
1.0
 10
11.7591629521
 20
5.676175979
 30
0.0
 10
11.7467818487
 20
5.6707522368
 30
0.0
 10
11.7219410848
 20
5.6607052477
 30
0.0
 10
11.6841470217
 20
5.6481718103
 30
0.0
 10
11.6462762522
 20
5.6384545207
 30
0.0
 10
11.6084498766
 20
5.6315860165
 30
0.0
 10
11.5707824906
 20
5.6274861881
 30
0.0
 10
11.5333669087
 20
5.6259795002
 30
0.0
 10
11.496266072
 20
5.6268263479
 30
0.0
 10
11.4717016526
 20
5.6287856979
 30
0.0
 10
11.4594920113
 20
5.6300685304
 30
0.0
  0
SPLINE
  5
35E
100
AcDbEntity
  8
0
100
AcDbSpline
 62
7
  6
CONTINUOUS
 70
0
 71
3
 72
41
 73
37
 74
0
 42
0.0000001
 43
0.0000001
 44
0.0000000001
 40
0.0
 40
0.0
 40
0.0
 40
0.0
 40
0.0311443777
 40
0.0624425595
 40
0.0938872477
 40
0.1254696093
 40
0.1571771289
 40
0.1889951561
 40
0.2209067114
 40
0.2528930218
 40
0.2849338418
 40
0.3170078727
 40
0.349093173
 40
0.3811675842
 40
0.4132091572
 40
0.4451965775
 40
0.4771095803
 40
0.5089293526
 40
0.5406389143
 40
0.5722234721
 40
0.6036707398
 40
0.6349712184
 40
0.6661184287
 40
0.6971090895
 40
0.7279432343
 40
0.7586242609
 40
0.7891589086
 40
0.8195571576
 40
0.8498320512
 40
0.8649308888
 40
0.8800050477
 40
0.9100832517
 40
0.9400926686
 40
0.9550812681
 40
0.9700610312
 40
1.0
 40
1.0
 40
1.0
 40
1.0
 10
11.5596286883
 20
9.3109954023
 30
0.0
 10
11.5629426421
 20
9.3107655788
 30
0.0
 10
11.5695725571
 20
9.3100622123
 30
0.0
 10
11.5794370324
 20
9.3082904792
 30
0.0
 10
11.5891958739
 20
9.3058087293
 30
0.0
 10
11.5987963155
 20
9.3026304307
 30
0.0
 10
11.6081874006
 20
9.298772535
 30
0.0
 10
11.61731902
 20
9.2942557228
 30
0.0
 10
11.6261425305
 20
9.2891041126
 30
0.0
 10
11.6346109155
 20
9.2833452186
 30
0.0
 10
11.6426790549
 20
9.2770097671
 30
0.0
 10
11.6503039582
 20
9.2701315487
 30
0.0
 10
11.6574449919
 20
9.2627472341
 30
0.0
 10
11.6640640933
 20
9.2548961823
 30
0.0
 10
11.6701259715
 20
9.2466202323
 30
0.0
 10
11.6755982942
 20
9.237963483
 30
0.0
 10
11.6804518581
 20
9.22897206
 30
0.0
 10
11.6846607449
 20
9.2196938741
 30
0.0
 10
11.6882024593
 20
9.210178368
 30
0.0
 10
11.6910580476
 20
9.2004762563
 30
0.0
 10
11.6932122004
 20
9.1906392584
 30
0.0
 10
11.6946533347
 20
9.1807198272
 30
0.0
 10
11.6953736591
 20
9.1707708722
 30
0.0
 10
11.6953692191
 20
9.1608454836
 30
0.0
 10
11.694639918
 20
9.1509966416
 30
0.0
 10
11.6931895415
 20
9.1412769747
 30
0.0
 10
11.6910256753
 20
9.1317383357
 30
0.0
 10
11.6881599224
 20
9.1224320586
 30
0.0
 10
11.6851962882
 20
9.1149038199
 30
0.0
 10
11.6824917722
 20
9.1090494762
 30
0.0
 10
11.6795731553
 20
9.1033223925
 30
0.0
 10
11.6755207546
 20
9.0963952241
 30
0.0
 10
11.6709471961
 20
9.0898115567
 30
0.0
 10
11.6669949323
 20
9.0847791999
 30
0.0
 10
11.6628541876
 20
9.0799110597
 30
0.0
 10
11.6595366864
 20
9.0764454
 30
0.0
 10
11.657239851
 20
9.0742268457
 30
0.0
  0
SPLINE
  5
35F
100
AcDbEntity
  8
0
100
AcDbSpline
 62
7
  6
CONTINUOUS
 70
0
 71
3
 72
41
 73
37
 74
0
 42
0.0000001
 43
0.0000001
 44
0.0000000001
 40
0.0
 40
0.0
 40
0.0
 40
0.0
 40
0.0311443777
 40
0.0624425595
 40
0.0938872477
 40
0.1254696093
 40
0.1571771289
 40
0.1889951561
 40
0.2209067114
 40
0.2528930218
 40
0.2849338418
 40
0.3170078727
 40
0.349093173
 40
0.3811675842
 40
0.4132091572
 40
0.4451965775
 40
0.4771095803
 40
0.5089293526
 40
0.5406389143
 40
0.5722234721
 40
0.6036707398
 40
0.6349712184
 40
0.6661184287
 40
0.6971090895
 40
0.7279432343
 40
0.7586242609
 40
0.7891589086
 40
0.8195571576
 40
0.8498320512
 40
0.8649308888
 40
0.8800050477
 40
0.9100832517
 40
0.9400926686
 40
0.9550812681
 40
0.9700610312
 40
1.0
 40
1.0
 40
1.0
 40
1.0
 10
9.8093710963
 20
9.4323761785
 30
0.0
 10
9.8126850501
 20
9.432146355
 30
0.0
 10
9.8193149651
 20
9.4314429886
 30
0.0
 10
9.8291794404
 20
9.4296712555
 30
0.0
 10
9.8389382819
 20
9.4271895055
 30
0.0
 10
9.8485387234
 20
9.424011207
 30
0.0
 10
9.8579298086
 20
9.4201533113
 30
0.0
 10
9.867061428
 20
9.415636499
 30
0.0
 10
9.8758849385
 20
9.4104848889
 30
0.0
 10
9.8843533235
 20
9.4047259949
 30
0.0
 10
9.8924214629
 20
9.3983905434
 30
0.0
 10
9.9000463662
 20
9.391512325
 30
0.0
 10
9.9071873999
 20
9.3841280103
 30
0.0
 10
9.9138065013
 20
9.3762769585
 30
0.0
 10
9.9198683795
 20
9.3680010086
 30
0.0
 10
9.9253407022
 20
9.3593442593
 30
0.0
 10
9.930194266
 20
9.3503528363
 30
0.0
 10
9.9344031529
 20
9.3410746504
 30
0.0
 10
9.9379448672
 20
9.3315591443
 30
0.0
 10
9.9408004556
 20
9.3218570325
 30
0.0
 10
9.9429546083
 20
9.3120200346
 30
0.0
 10
9.9443957427
 20
9.3021006035
 30
0.0
 10
9.9451160671
 20
9.2921516485
 30
0.0
 10
9.945111627
 20
9.2822262599
 30
0.0
 10
9.944382326
 20
9.2723774178
 30
0.0
 10
9.9429319495
 20
9.2626577509
 30
0.0
 10
9.9407680833
 20
9.253119112
 30
0.0
 10
9.9379023304
 20
9.2438128348
 30
0.0
 10
9.9349386962
 20
9.2362845961
 30
0.0
 10
9.9322341802
 20
9.2304302524
 30
0.0
 10
9.9293155633
 20
9.2247031688
 30
0.0
 10
9.9252631626
 20
9.2177760003
 30
0.0
 10
9.9206896041
 20
9.2111923329
 30
0.0
 10
9.9167373403
 20
9.2061599761
 30
0.0
 10
9.9125965956
 20
9.201291836
 30
0.0
 10
9.9092790944
 20
9.1978261763
 30
0.0
 10
9.906982259
 20
9.1956076219
 30
0.0
  0
SPLINE
  5
360
100
AcDbEntity
  8
0
100
AcDbSpline
 62
7
  6
CONTINUOUS
 70
0
 71
3
 72
41
 73
37
 74
0
 42
0.0000001
 43
0.0000001
 44
0.0000000001
 40
0.0
 40
0.0
 40
0.0
 40
0.0
 40
0.0311443777
 40
0.0624425595
 40
0.0938872477
 40
0.1254696093
 40
0.1571771289
 40
0.1889951561
 40
0.2209067114
 40
0.2528930218
 40
0.2849338418
 40
0.3170078727
 40
0.349093173
 40
0.3811675842
 40
0.4132091572
 40
0.4451965775
 40
0.4771095803
 40
0.5089293526
 40
0.5406389143
 40
0.5722234721
 40
0.6036707398
 40
0.6349712184
 40
0.6661184287
 40
0.6971090895
 40
0.7279432343
 40
0.7586242609
 40
0.7891589086
 40
0.8195571576
 40
0.8498320512
 40
0.8649308888
 40
0.8800050477
 40
0.9100832517
 40
0.9400926686
 40
0.9550812681
 40
0.9700610312
 40
1.0
 40
1.0
 40
1.0
 40
1.0
 10
9.8093710963
 20
7.3807495319
 30
0.0
 10
9.8126850501
 20
7.3805197084
 30
0.0
 10
9.8193149651
 20
7.379816342
 30
0.0
 10
9.8291794404
 20
7.3780446089
 30
0.0
 10
9.8389382819
 20
7.3755628589
 30
0.0
 10
9.8485387234
 20
7.3723845604
 30
0.0
 10
9.8579298086
 20
7.3685266647
 30
0.0
 10
9.867061428
 20
7.3640098524
 30
0.0
 10
9.8758849385
 20
7.3588582423
 30
0.0
 10
9.8843533235
 20
7.3530993483
 30
0.0
 10
9.8924214629
 20
7.3467638968
 30
0.0
 10
9.9000463662
 20
7.3398856784
 30
0.0
 10
9.9071873999
 20
7.3325013637
 30
0.0
 10
9.9138065013
 20
7.3246503119
 30
0.0
 10
9.9198683795
 20
7.316374362
 30
0.0
 10
9.9253407022
 20
7.3077176126
 30
0.0
 10
9.930194266
 20
7.2987261897
 30
0.0
 10
9.9344031529
 20
7.2894480037
 30
0.0
 10
9.9379448672
 20
7.2799324977
 30
0.0
 10
9.9408004556
 20
7.2702303859
 30
0.0
 10
9.9429546083
 20
7.260393388
 30
0.0
 10
9.9443957427
 20
7.2504739569
 30
0.0
 10
9.9451160671
 20
7.2405250019
 30
0.0
 10
9.945111627
 20
7.2305996133
 30
0.0
 10
9.944382326
 20
7.2207507712
 30
0.0
 10
9.9429319495
 20
7.2110311043
 30
0.0
 10
9.9407680833
 20
7.2014924654
 30
0.0
 10
9.9379023304
 20
7.1921861882
 30
0.0
 10
9.9349386962
 20
7.1846579495
 30
0.0
 10
9.9322341802
 20
7.1788036058
 30
0.0
 10
9.9293155633
 20
7.1730765221
 30
0.0
 10
9.9252631626
 20
7.1661493537
 30
0.0
 10
9.9206896041
 20
7.1595656863
 30
0.0
 10
9.9167373403
 20
7.1545333295
 30
0.0
 10
9.9125965956
 20
7.1496651894
 30
0.0
 10
9.9092790944
 20
7.1461995296
 30
0.0
 10
9.906982259
 20
7.1439809753
 30
0.0
  0
SPLINE
  5
361
100
AcDbEntity
  8
0
100
AcDbSpline
 62
7
  6
CONTINUOUS
 70
0
 71
3
 72
41
 73
37
 74
0
 42
0.0000001
 43
0.0000001
 44
0.0000000001
 40
0.0
 40
0.0
 40
0.0
 40
0.0
 40
0.0311443777
 40
0.0624425595
 40
0.0938872477
 40
0.1254696093
 40
0.1571771289
 40
0.1889951561
 40
0.2209067114
 40
0.2528930218
 40
0.2849338418
 40
0.3170078727
 40
0.349093173
 40
0.3811675842
 40
0.4132091572
 40
0.4451965775
 40
0.4771095803
 40
0.5089293526
 40
0.5406389143
 40
0.5722234721
 40
0.6036707398
 40
0.6349712184
 40
0.6661184287
 40
0.6971090895
 40
0.7279432343
 40
0.7586242609
 40
0.7891589086
 40
0.8195571576
 40
0.8498320512
 40
0.8649308888
 40
0.8800050477
 40
0.9100832517
 40
0.9400926686
 40
0.9550812681
 40
0.9700610312
 40
1.0
 40
1.0
 40
1.0
 40
1.0
 10
11.5596286883
 20
7.2593687556
 30
0.0
 10
11.5629426421
 20
7.2591389322
 30
0.0
 10
11.5695725571
 20
7.2584355657
 30
0.0
 10
11.5794370324
 20
7.2566638326
 30
0.0
 10
11.5891958739
 20
7.2541820826
 30
0.0
 10
11.5987963155
 20
7.2510037841
 30
0.0
 10
11.6081874006
 20
7.2471458884
 30
0.0
 10
11.61731902
 20
7.2426290761
 30
0.0
 10
11.6261425305
 20
7.237477466
 30
0.0
 10
11.6346109155
 20
7.231718572
 30
0.0
 10
11.6426790549
 20
7.2253831205
 30
0.0
 10
11.6503039582
 20
7.2185049021
 30
0.0
 10
11.6574449919
 20
7.2111205875
 30
0.0
 10
11.6640640933
 20
7.2032695357
 30
0.0
 10
11.6701259715
 20
7.1949935857
 30
0.0
 10
11.6755982942
 20
7.1863368364
 30
0.0
 10
11.6804518581
 20
7.1773454134
 30
0.0
 10
11.6846607449
 20
7.1680672275
 30
0.0
 10
11.6882024593
 20
7.1585517214
 30
0.0
 10
11.6910580476
 20
7.1488496096
 30
0.0
 10
11.6932122004
 20
7.1390126118
 30
0.0
 10
11.6946533347
 20
7.1290931806
 30
0.0
 10
11.6953736591
 20
7.1191442256
 30
0.0
 10
11.6953692191
 20
7.109218837
 30
0.0
 10
11.694639918
 20
7.099369995
 30
0.0
 10
11.6931895415
 20
7.0896503281
 30
0.0
 10
11.6910256753
 20
7.0801116891
 30
0.0
 10
11.6881599224
 20
7.0708054119
 30
0.0
 10
11.6851962882
 20
7.0632771733
 30
0.0
 10
11.6824917722
 20
7.0574228295
 30
0.0
 10
11.6795731553
 20
7.0516957459
 30
0.0
 10
11.6755207546
 20
7.0447685775
 30
0.0
 10
11.6709471961
 20
7.0381849101
 30
0.0
 10
11.6669949323
 20
7.0331525533
 30
0.0
 10
11.6628541876
 20
7.0282844131
 30
0.0
 10
11.6595366864
 20
7.0248187534
 30
0.0
 10
11.657239851
 20
7.0226001991
 30
0.0
  0
SPLINE
  5
362
100
AcDbEntity
  8
0
100
AcDbSpline
 62
7
  6
CONTINUOUS
 70
0
 71
3
 72
23
 73
19
 74
0
 42
0.0000001
 43
0.0000001
 44
0.0000000001
 40
0.0
 40
0.0
 40
0.0
 40
0.0
 40
0.0639093797
 40
0.1275503806
 40
0.1909256508
 40
0.254048088
 40
0.3169309857
 40
0.3795928235
 40
0.442055125
 40
0.5043426703
 40
0.5664829645
 40
0.6285057938
 40
0.6904427245
 40
0.7523265668
 40
0.8141908258
 40
0.8760691456
 40
0.9379947667
 40
1.0
 40
1.0
 40
1.0
 40
1.0
 10
10.9423972627
 20
8.5844404481
 30
0.0
 10
10.9423972627
 20
8.5804781993
 30
0.0
 10
10.9421550387
 20
8.5725681354
 30
0.0
 10
10.9410611348
 20
8.5607745082
 30
0.0
 10
10.9392415467
 20
8.5491196845
 30
0.0
 10
10.9367036125
 20
8.537648103
 30
0.0
 10
10.9334571988
 20
8.5264024696
 30
0.0
 10
10.9295151374
 20
8.5154248297
 30
0.0
 10
10.9248928606
 20
8.5047559636
 30
0.0
 10
10.9196084434
 20
8.4944353403
 30
0.0
 10
10.9136824629
 20
8.4845009168
 30
0.0
 10
10.9071378768
 20
8.4749890049
 30
0.0
 10
10.8999998996
 20
8.4659341408
 30
0.0
 10
10.8922958512
 20
8.457368958
 30
0.0
 10
10.8840550787
 20
8.4493241202
 30
0.0
 10
10.8753085798
 20
8.4418280979
 30
0.0
 10
10.8660897205
 20
8.4349075926
 30
0.0
 10
10.8596556989
 20
8.4306963147
 30
0.0
 10
10.8563735254
 20
8.4286950207
 30
0.0
  0
SPLINE
  5
363
100
AcDbEntity
  8
0
100
AcDbSpline
 62
7
  6
CONTINUOUS
 70
0
 71
3
 72
24
 73
20
 74
0
 42
0.0000001
 43
0.0000001
 44
0.0000000001
 40
0.0
 40
0.0
 40
0.0
 40
0.0
 40
0.0639211483
 40
0.1275610973
 40
0.1909251558
 40
0.254026558
 40
0.3168811242
 40
0.3795097285
 40
0.4419368169
 40
0.5041903399
 40
0.566301104
 40
0.628302225
 40
0.6902284967
 40
0.7211791137
 40
0.7521245071
 40
0.8140089496
 40
0.8759265377
 40
0.937912348
 40
1.0
 40
1.0
 40
1.0
 40
1.0
 10
11.5329483257
 20
8.1513197817
 30
0.0
 10
11.5329483257
 20
8.1468792908
 30
0.0
 10
11.5326647862
 20
8.1380151427
 30
0.0
 10
11.5313841339
 20
8.1248049532
 30
0.0
 10
11.5292546076
 20
8.1117618097
 30
0.0
 10
11.5262857271
 20
8.098939805
 30
0.0
 10
11.5224905153
 20
8.0863908806
 30
0.0
 10
11.5178857198
 20
8.0741658863
 30
0.0
 10
11.5124914734
 20
8.0623139138
 30
0.0
 10
11.5063312679
 20
8.0508822091
 30
0.0
 10
11.4994316251
 20
8.0399158167
 30
0.0
 10
11.4918223233
 20
8.0294578343
 30
0.0
 10
11.4849145141
 20
8.0211976096
 30
0.0
 10
11.4790690739
 20
8.0148853612
 30
0.0
 10
11.4730166927
 20
8.0087753337
 30
0.0
 10
11.4650695466
 20
8.0015231341
 30
0.0
 10
11.4549674011
 20
7.9934753705
 30
0.0
 10
11.4443400138
 20
7.986111024
 30
0.0
 10
11.436939297
 20
7.9816784997
 30
0.0
 10
11.4331681482
 20
7.9795853083
 30
0.0
  0
SPLINE
  5
364
100
AcDbEntity
  8
0
100
AcDbSpline
 62
7
  6
CONTINUOUS
 70
0
 71
3
 72
83
 73
79
 74
0
 42
0.0000001
 43
0.0000001
 44
0.0000000001
 40
0.0
 40
0.0
 40
0.0
 40
0.0
 40
0.003980149
 40
0.0081240919
 40
0.0124359835
 40
0.0169193603
 40
0.0215772246
 40
0.0264119606
 40
0.0314252324
 40
0.0366182158
 40
0.0419916195
 40
0.0475457334
 40
0.0532805161
 40
0.0591955185
 40
0.0715625327
 40
0.0846382143
 40
0.0984095328
 40
0.1128601134
 40
0.1279706583
 40
0.1437192718
 40
0.1600817502
 40
0.1770318183
 40
0.1945413264
 40
0.2125804203
 40
0.2311176863
 40
0.2501203005
 40
0.269554164
 40
0.2893840224
 40
0.3095735802
 40
0.3300856048
 40
0.3508820422
 40
0.3719241252
 40
0.4145864312
 40
0.4577527569
 40
0.5010975799
 40
0.5442936399
 40
0.5870151259
 40
0.6080976714
 40
0.6289416876
 40
0.6495082871
 40
0.6697592834
 40
0.6896572915
 40
0.7091658343
 40
0.7282494515
 40
0.7468738239
 40
0.7650058946
 40
0.78261399
 40
0.7996679565
 40
0.8161393115
 40
0.8320014232
 40
0.8472297058
 40
0.8618018332
 40
0.8756980061
 40
0.8889012771
 40
0.9013979681
 40
0.9131781873
 40
0.9187980573
 40
0.924237173
 40
0.9294957148
 40
0.9345742409
 40
0.9394737433
 40
0.9441957547
 40
0.948742307
 40
0.9531161074
 40
0.9573205402
 40
0.9613597705
 40
0.9652388909
 40
0.9689639409
 40
0.9725421207
 40
0.975981843
 40
0.9792928682
 40
0.9824864417
 40
0.9855753029
 40
0.9885737828
 40
0.9914977139
 40
0.9943643205
 40
0.9971920042
 40
1.0
 40
1.0
 40
1.0
 40
1.0
 10
11.5717561665
 20
10.8977392081
 30
0.0
 10
11.5706866726
 20
10.8967061563
 30
0.0
 10
11.5684551011
 20
10.8946473497
 30
0.0
 10
11.5649120394
 20
10.891640292
 30
0.0
 10
11.561108789
 20
10.8886547777
 30
0.0
 10
11.557047438
 20
10.8856924414
 30
0.0
 10
11.5527299975
 20
10.8827546391
 30
0.0
 10
11.5481585541
 20
10.8798428258
 30
0.0
 10
11.5433353987
 20
10.876958367
 30
0.0
 10
11.5382629271
 20
10.8741027486
 30
0.0
 10
11.5329436858
 20
10.8712773942
 30
0.0
 10
11.5273803497
 20
10.8684836919
 30
0.0
 10
11.5215756786
 20
10.8657230654
 30
0.0
 10
11.513396456
 20
10.8620332911
 30
0.0
 10
11.5025809734
 20
10.8575243236
 30
0.0
 10
11.4888747718
 20
10.8523443786
 30
0.0
 10
11.4742822332
 20
10.8473284166
 30
0.0
 10
11.458832727
 20
10.8424866178
 30
0.0
 10
11.4425571836
 20
10.8378288268
 30
0.0
 10
11.425488343
 20
10.8333645191
 30
0.0
 10
11.4076605768
 20
10.829102784
 30
0.0
 10
11.3891098295
 20
10.8250523031
 30
0.0
 10
11.369873531
 20
10.8212213292
 30
0.0
 10
11.3499905219
 20
10.8176176708
 30
0.0
 10
11.3295009741
 20
10.8142486628
 30
0.0
 10
11.308446302
 20
10.811121162
 30
0.0
 10
11.2868690712
 20
10.8082415345
 30
0.0
 10
11.2648129118
 20
10.8056156426
 30
0.0
 10
11.2423224277
 20
10.8032488321
 30
0.0
 10
11.2194431236
 20
10.8011459224
 30
0.0
 10
11.196221248
 20
10.7993111585
 30
0.0
 10
11.1647213037
 20
10.79721792
 30
0.0
 10
11.1248370689
 20
10.7953035364
 30
0.0
 10
11.0765890437
 20
10.7941296072
 30
0.0
 10
11.028127204
 20
10.7940784701
 30
0.0
 10
10.9798435908
 20
10.7951505739
 30
0.0
 10
10.939907024
 20
10.7969804405
 30
0.0
 10
10.9083475842
 20
10.7990065947
 30
0.0
 10
10.8850684419
 20
10.8007921708
 30
0.0
 10
10.8621233785
 20
10.8028466165
 30
0.0
 10
10.8395587721
 20
10.8051657782
 30
0.0
 10
10.8174202752
 20
10.8077449303
 30
0.0
 10
10.7957526629
 20
10.8105788277
 30
0.0
 10
10.7745997553
 20
10.8136617076
 30
0.0
 10
10.7540043185
 20
10.8169872941
 30
0.0
 10
10.7340079768
 20
10.8205488124
 30
0.0
 10
10.7146511295
 20
10.824339009
 30
0.0
 10
10.6959728693
 20
10.8283501646
 30
0.0
 10
10.6780108975
 20
10.8325741127
 30
0.0
 10
10.6608014341
 20
10.8370022487
 30
0.0
 10
10.6443791396
 20
10.8416255489
 30
0.0
 10
10.6287770319
 20
10.8464346024
 30
0.0
 10
10.6140264431
 20
10.8514196293
 30
0.0
 10
10.6001568289
 20
10.856570529
 30
0.0
 10
10.5871960557
 20
10.8618768644
 30
0.0
 10
10.5770201039
 20
10.8664890767
 30
0.0
 10
10.5693641723
 20
10.8702574652
 30
0.0
 10
10.563955829
 20
10.8730714998
 30
0.0
 10
10.5587933052
 20
10.8759162683
 30
0.0
 10
10.5538791728
 20
10.8787903831
 30
0.0
 10
10.5492159045
 20
10.8816924417
 30
0.0
 10
10.5448057951
 20
10.8846209545
 30
0.0
 10
10.5406510711
 20
10.8875745449
 30
0.0
 10
10.5367537763
 20
10.8905517341
 30
0.0
 10
10.5331158481
 20
10.8935510935
 30
0.0
 10
10.5297391273
 20
10.8965712299
 30
0.0
 10
10.5266252589
 20
10.8996106655
 30
0.0
 10
10.5237758761
 20
10.9026680597
 30
0.0
 10
10.5211924152
 20
10.9057419733
 30
0.0
 10
10.5188762593
 20
10.9088310301
 30
0.0
 10
10.5168287503
 20
10.911933871
 30
0.0
 10
10.5150510414
 20
10.9150490408
 30
0.0
 10
10.513544385
 20
10.9181751469
 30
0.0
 10
10.5123098125
 20
10.9213106371
 30
0.0
 10
10.5113483405
 20
10.924453875
 30
0.0
 10
10.5106608973
 20
10.9276031967
 30
0.0
 10
10.5102480748
 20
10.9307563692
 30
0.0
 10
10.5101562052
 20
10.9328629429
 30
0.0
 10
10.510156201
 20
10.9339119847
 30
0.0
  0
SPLINE
  5
365
100
AcDbEntity
  8
0
100
AcDbSpline
 62
7
  6
CONTINUOUS
 70
0
 71
3
 72
15
 73
11
 74
0
 42
0.0000001
 43
0.0000001
 44
0.0000000001
 40
0.0
 40
0.0
 40
0.0
 40
0.0
 40
0.1267077352
 40
0.2531993994
 40
0.3793054889
 40
0.5048776623
 40
0.6297985955
 40
0.7539855628
 40
0.8773900043
 40
1.0
 40
1.0
 40
1.0
 40
1.0
 10
10.4025186244
 20
9.2271243941
 30
0.0
 10
10.4070053133
 20
9.2223265523
 30
0.0
 10
10.415497534
 20
9.2122832819
 30
0.0
 10
10.4266505399
 20
9.196050266
 30
0.0
 10
10.4361088195
 20
9.1788402178
 30
0.0
 10
10.4437911562
 20
9.1608571837
 30
0.0
 10
10.4496499026
 20
9.1423053588
 30
0.0
 10
10.4536662948
 20
9.1233849029
 30
0.0
 10
10.4558474457
 20
9.1042894881
 30
0.0
 10
10.4560976289
 20
9.0915160319
 30
0.0
 10
10.4559264055
 20
9.0851619351
 30
0.0
  0
SPLINE
  5
366
100
AcDbEntity
  8
0
100
AcDbSpline
 62
7
  6
CONTINUOUS
 70
0
 71
3
 72
18
 73
14
 74
0
 42
0.0000001
 43
0.0000001
 44
0.0000000001
 40
0.0
 40
0.0
 40
0.0
 40
0.0
 40
0.1358452859
 40
0.2032014429
 40
0.2701127193
 40
0.4023542688
 40
0.5320432094
 40
0.595703681
 40
0.6583935066
 40
0.7199412006
 40
0.7801293894
 40
0.8951825459
 40
1.0
 40
1.0
 40
1.0
 40
1.0
 10
10.4559264055
 20
9.0851619351
 30
0.0
 10
10.455775513
 20
9.0795623159
 30
0.0
 10
10.4552023584
 20
9.0711902306
 30
0.0
 10
10.4537586418
 20
9.0601437764
 30
0.0
 10
10.4518932227
 20
9.0493108195
 30
0.0
 10
10.4487913522
 20
9.0360948249
 30
0.0
 10
10.4447039431
 20
9.0232912434
 30
0.0
 10
10.4409191585
 20
9.0134327901
 30
0.0
 10
10.4378724488
 20
9.006306865
 30
0.0
 10
10.4346272028
 20
8.999427264
 30
0.0
 10
10.4301462677
 20
8.9907500901
 30
0.0
 10
10.4243211771
 20
8.9807676748
 30
0.0
 10
10.4192523581
 20
8.9732426249
 30
0.0
 10
10.4167270828
 20
8.9697348588
 30
0.0
  0
SPLINE
  5
367
100
AcDbEntity
  8
0
100
AcDbSpline
 62
7
  6
CONTINUOUS
 70
0
 71
3
 72
15
 73
11
 74
0
 42
0.0000001
 43
0.0000001
 44
0.0000000001
 40
0.0
 40
0.0
 40
0.0
 40
0.0
 40
0.1227151371
 40
0.2462142017
 40
0.3704746988
 40
0.4954376841
 40
0.6210108348
 40
0.7470685169
 40
0.8734560293
 40
1.0
 40
1.0
 40
1.0
 40
1.0
 10
10.2642600077
 20
9.2901204428
 30
0.0
 10
10.2706258905
 20
9.2898501884
 30
0.0
 10
10.2833812085
 20
9.2887154638
 30
0.0
 10
10.3023245896
 20
9.2852207983
 30
0.0
 10
10.3209657916
 20
9.2799119963
 30
0.0
 10
10.3391107285
 20
9.2727953818
 30
0.0
 10
10.3565605862
 20
9.2639034634
 30
0.0
 10
10.3731145113
 20
9.2532977584
 30
0.0
 10
10.3885741021
 20
9.2410731749
 30
0.0
 10
10.3980308582
 20
9.2319233879
 30
0.0
 10
10.4025186244
 20
9.2271243941
 30
0.0
  0
SPLINE
  5
368
100
AcDbEntity
  8
0
100
AcDbSpline
 62
7
  6
CONTINUOUS
 70
0
 71
3
 72
16
 73
12
 74
0
 42
0.0000001
 43
0.0000001
 44
0.0000000001
 40
0.0
 40
0.0
 40
0.0
 40
0.0
 40
0.1148349555
 40
0.2340846624
 40
0.3566701734
 40
0.4189813622
 40
0.4818701497
 40
0.6091338187
 40
0.7380928256
 40
0.8684571922
 40
1.0
 40
1.0
 40
1.0
 40
1.0
 10
10.1646927188
 20
9.2694530973
 30
0.0
 10
10.1682372467
 20
9.2711532246
 30
0.0
 10
10.1755584893
 20
9.2744229139
 30
0.0
 10
10.1869742059
 20
9.2787722911
 30
0.0
 10
10.196910062
 20
9.2819071995
 30
0.0
 10
10.2051071957
 20
9.2840932599
 30
0.0
 10
10.2135232369
 20
9.2860645148
 30
0.0
 10
10.2242716959
 20
9.2880589079
 30
0.0
 10
10.2374190787
 20
9.2896477374
 30
0.0
 10
10.2507877295
 20
9.290396134
 30
0.0
 10
10.2597609248
 20
9.290311445
 30
0.0
 10
10.2642600077
 20
9.2901204428
 30
0.0
  0
SPLINE
  5
369
100
AcDbEntity
  8
0
100
AcDbSpline
 62
7
  6
CONTINUOUS
 70
0
 71
3
 72
31
 73
27
 74
0
 42
0.0000001
 43
0.0000001
 44
0.0000000001
 40
0.0
 40
0.0
 40
0.0
 40
0.0
 40
0.0845018864
 40
0.1673015137
 40
0.2480803514
 40
0.3265309791
 40
0.4023585407
 40
0.4752830689
 40
0.5450416236
 40
0.6113908386
 40
0.6432179316
 40
0.6741119642
 40
0.7040492763
 40
0.7330084091
 40
0.7609696608
 40
0.7879158976
 40
0.8138321693
 40
0.8387065946
 40
0.8625300827
 40
0.8852973281
 40
0.9070067049
 40
0.9276614334
 40
0.9472697474
 40
0.9658463297
 40
0.9834128909
 40
1.0
 40
1.0
 40
1.0
 40
1.0
 10
12.0876674879
 20
11.289071269
 30
0.0
 10
12.0947885053
 20
11.2885774248
 30
0.0
 10
12.1088787859
 20
11.287474699
 30
0.0
 10
12.1297382794
 20
11.2854526687
 30
0.0
 10
12.1500471024
 20
11.2830859367
 30
0.0
 10
12.1697199202
 20
11.2803845695
 30
0.0
 10
12.1886742215
 20
11.277360046
 30
0.0
 10
12.2068305907
 20
11.2740252472
 30
0.0
 10
12.2241128506
 20
11.2703943334
 30
0.0
 10
12.2379111041
 20
11.2670906216
 30
0.0
 10
12.248451771
 20
11.2643017824
 30
0.0
 10
12.2559848144
 20
11.262174984
 30
0.0
 10
12.2632474348
 20
11.2599862064
 30
0.0
 10
12.2702320428
 20
11.2577377946
 30
0.0
 10
12.2769313211
 20
11.2554320586
 30
0.0
 10
12.2833382798
 20
11.2530714901
 30
0.0
 10
12.2894462228
 20
11.250658503
 30
0.0
 10
12.2952488036
 20
11.248195696
 30
0.0
 10
12.3007399788
 20
11.2456855755
 30
0.0
 10
12.3059140806
 20
11.2431308235
 30
0.0
 10
12.310765748
 20
11.2405340137
 30
0.0
 10
12.3152900273
 20
11.2378978745
 30
0.0
 10
12.3194822512
 20
11.2352250178
 30
0.0
 10
12.3233382419
 20
11.2325181214
 30
0.0
 10
12.3268538776
 20
11.2297799145
 30
0.0
 10
12.329029457
 20
11.2278820086
 30
0.0
 10
12.3300551745
 20
11.2269274632
 30
0.0
  0
SPLINE
  5
36A
100
AcDbEntity
  8
0
100
AcDbSpline
 62
7
  6
CONTINUOUS
 70
0
 71
3
 72
38
 73
34
 74
0
 42
0.0000001
 43
0.0000001
 44
0.0000000001
 40
0.0
 40
0.0
 40
0.0
 40
0.0
 40
0.0761046641
 40
0.1533640483
 40
0.2310948216
 40
0.3086067003
 40
0.3852122514
 40
0.4229638358
 40
0.4602362653
 40
0.4969478561
 40
0.5330186181
 40
0.5683704813
 40
0.6029275452
 40
0.6366163848
 40
0.6693663861
 40
0.7011100002
 40
0.7317830596
 40
0.7613251954
 40
0.7896802916
 40
0.8167968902
 40
0.8426287416
 40
0.8671355573
 40
0.8902838957
 40
0.9120481469
 40
0.93241198
 40
0.9420674557
 40
0.9513720099
 40
0.9603271661
 40
0.9689354415
 40
0.977200892
 40
0.9851288747
 40
0.9927259556
 40
1.0
 40
1.0
 40
1.0
 40
1.0
 10
11.4819620728
 20
5.9332625226
 30
0.0
 10
11.4928852427
 20
5.9325049982
 30
0.0
 10
11.5149190396
 20
5.9312772513
 30
0.0
 10
11.5481559042
 20
5.9302843526
 30
0.0
 10
11.5816099322
 20
5.9301305262
 30
0.0
 10
11.6149630002
 20
5.9308172891
 30
0.0
 10
11.6425418107
 20
5.9320905176
 30
0.0
 10
11.6643101873
 20
5.9335304104
 30
0.0
 10
11.6803355451
 20
5.934808721
 30
0.0
 10
11.6961007755
 20
5.9362875017
 30
0.0
 10
11.7115684195
 20
5.9379632273
 30
0.0
 10
11.7267016915
 20
5.9398318778
 30
0.0
 10
11.741464612
 20
5.941888987
 30
0.0
 10
11.7558220901
 20
5.9441296332
 30
0.0
 10
11.769740017
 20
5.9465484367
 30
0.0
 10
11.7831853399
 20
5.949139599
 30
0.0
 10
11.7961261389
 20
5.9518969164
 30
0.0
 10
11.8085317192
 20
5.9548137828
 30
0.0
 10
11.8203726964
 20
5.9578831923
 30
0.0
 10
11.8316210584
 20
5.9610977859
 30
0.0
 10
11.8422502463
 20
5.9644498747
 30
0.0
 10
11.8522352183
 20
5.9679314446
 30
0.0
 10
11.8615526379
 20
5.9715341953
 30
0.0
 10
11.8701805738
 20
5.9752495614
 30
0.0
 10
11.8768937984
 20
5.9784872819
 30
0.0
 10
11.8818944066
 20
5.9811347536
 30
0.0
 10
11.8853932283
 20
5.9831077213
 30
0.0
 10
11.8887052263
 20
5.9851021441
 30
0.0
 10
11.8918284513
 20
5.9871169576
 30
0.0
 10
11.8947611325
 20
5.9891509764
 30
0.0
 10
11.8975015921
 20
5.9912031099
 30
0.0
 10
11.9000480707
 20
5.9932720953
 30
0.0
 10
11.9016496054
 20
5.9946921251
 30
0.0
 10
11.9024157453
 20
5.9954050574
 30
0.0
  0
SPLINE
  5
36B
100
AcDbEntity
  8
0
100
AcDbSpline
 62
7
  6
CONTINUOUS
 70
0
 71
3
 72
17
 73
13
 74
0
 42
0.0000001
 43
0.0000001
 44
0.0000000001
 40
0.0
 40
0.0
 40
0.0
 40
0.0
 40
0.1480462993
 40
0.2876827587
 40
0.4195864073
 40
0.482921265
 40
0.5446654422
 40
0.6639005876
 40
0.7785650347
 40
0.8900650858
 40
0.9451345438
 40
1.0
 40
1.0
 40
1.0
 40
1.0
 10
12.3618219421
 20
6.4380856466
 30
0.0
 10
12.3628497984
 20
6.4390784796
 30
0.0
 10
12.3647868765
 20
6.4410718848
 30
0.0
 10
12.3673913749
 20
6.4441785003
 30
0.0
 10
12.3692594989
 20
6.4468221187
 30
0.0
 10
12.3705460516
 20
6.4489440367
 30
0.0
 10
12.3716696463
 20
6.451018329
 30
0.0
 10
12.3728372728
 20
6.4536287502
 30
0.0
 10
12.3738528178
 20
6.456811892
 30
0.0
 10
12.37436386
 20
6.4594857273
 30
0.0
 10
12.3745660957
 20
6.4616147225
 30
0.0
 10
12.3745997363
 20
6.462676238
 30
0.0
 10
12.3745997358
 20
6.4632058419
 30
0.0
  0
SPLINE
  5
36C
100
AcDbEntity
  8
0
100
AcDbSpline
 62
7
  6
CONTINUOUS
 70
0
 71
3
 72
15
 73
11
 74
0
 42
0.0000001
 43
0.0000001
 44
0.0000000001
 40
0.0
 40
0.0
 40
0.0
 40
0.0
 40
0.1233171152
 40
0.2468171801
 40
0.3706749982
 40
0.4950495769
 40
0.6200773723
 40
0.7458670578
 40
0.8724927841
 40
1.0
 40
1.0
 40
1.0
 40
1.0
 10
11.4620175256
 20
9.2763387856
 30
0.0
 10
11.4651703567
 20
9.2793841615
 30
0.0
 10
11.4718144144
 20
9.2851444389
 30
0.0
 10
11.4826581119
 20
9.2926715785
 30
0.0
 10
11.4942774911
 20
9.2990168391
 30
0.0
 10
11.5065535925
 20
9.3041150603
 30
0.0
 10
11.5193626122
 20
9.3079155637
 30
0.0
 10
11.5325755201
 20
9.3103803645
 30
0.0
 10
11.546057436
 20
9.3114854901
 30
0.0
 10
11.5551071534
 20
9.3113089718
 30
0.0
 10
11.5596286883
 20
9.3109954023
 30
0.0
  0
SPLINE
  5
36D
100
AcDbEntity
  8
0
100
AcDbSpline
 62
7
  6
CONTINUOUS
 70
0
 71
3
 72
15
 73
11
 74
0
 42
0.0000001
 43
0.0000001
 44
0.0000000001
 40
0.0
 40
0.0
 40
0.0
 40
0.0
 40
0.1233171152
 40
0.2468171801
 40
0.3706749982
 40
0.4950495769
 40
0.6200773723
 40
0.7458670578
 40
0.8724927841
 40
1.0
 40
1.0
 40
1.0
 40
1.0
 10
9.7117599335
 20
9.3977195618
 30
0.0
 10
9.7149127647
 20
9.4007649377
 30
0.0
 10
9.7215568224
 20
9.4065252152
 30
0.0
 10
9.7324005198
 20
9.4140523547
 30
0.0
 10
9.7440198991
 20
9.4203976154
 30
0.0
 10
9.7562960005
 20
9.4254958365
 30
0.0
 10
9.7691050202
 20
9.4292963399
 30
0.0
 10
9.7823179281
 20
9.4317611408
 30
0.0
 10
9.795799844
 20
9.4328662664
 30
0.0
 10
9.8048495614
 20
9.432689748
 30
0.0
 10
9.8093710963
 20
9.4323761785
 30
0.0
  0
SPLINE
  5
36E
100
AcDbEntity
  8
0
100
AcDbSpline
 62
7
  6
CONTINUOUS
 70
0
 71
3
 72
15
 73
11
 74
0
 42
0.0000001
 43
0.0000001
 44
0.0000000001
 40
0.0
 40
0.0
 40
0.0
 40
0.0
 40
0.1233171152
 40
0.2468171801
 40
0.3706749982
 40
0.4950495769
 40
0.6200773723
 40
0.7458670578
 40
0.8724927841
 40
1.0
 40
1.0
 40
1.0
 40
1.0
 10
9.7117599335
 20
7.3460929152
 30
0.0
 10
9.7149127647
 20
7.3491382911
 30
0.0
 10
9.7215568224
 20
7.3548985686
 30
0.0
 10
9.7324005198
 20
7.3624257081
 30
0.0
 10
9.7440198991
 20
7.3687709688
 30
0.0
 10
9.7562960005
 20
7.3738691899
 30
0.0
 10
9.7691050202
 20
7.3776696933
 30
0.0
 10
9.7823179281
 20
7.3801344942
 30
0.0
 10
9.795799844
 20
7.3812396197
 30
0.0
 10
9.8048495614
 20
7.3810631014
 30
0.0
 10
9.8093710963
 20
7.3807495319
 30
0.0
  0
SPLINE
  5
36F
100
AcDbEntity
  8
0
100
AcDbSpline
 62
7
  6
CONTINUOUS
 70
0
 71
3
 72
15
 73
11
 74
0
 42
0.0000001
 43
0.0000001
 44
0.0000000001
 40
0.0
 40
0.0
 40
0.0
 40
0.0
 40
0.1233171152
 40
0.2468171801
 40
0.3706749982
 40
0.4950495769
 40
0.6200773723
 40
0.7458670578
 40
0.8724927841
 40
1.0
 40
1.0
 40
1.0
 40
1.0
 10
11.4620175256
 20
7.224712139
 30
0.0
 10
11.4651703567
 20
7.2277575149
 30
0.0
 10
11.4718144144
 20
7.2335177923
 30
0.0
 10
11.4826581119
 20
7.2410449319
 30
0.0
 10
11.4942774911
 20
7.2473901925
 30
0.0
 10
11.5065535925
 20
7.2524884137
 30
0.0
 10
11.5193626122
 20
7.2562889171
 30
0.0
 10
11.5325755201
 20
7.2587537179
 30
0.0
 10
11.546057436
 20
7.2598588435
 30
0.0
 10
11.5551071534
 20
7.2596823252
 30
0.0
 10
11.5596286883
 20
7.2593687556
 30
0.0
  0
SPLINE
  5
370
100
AcDbEntity
  8
0
100
AcDbSpline
 62
7
  6
CONTINUOUS
 70
0
 71
3
 72
40
 73
36
 74
0
 42
0.0000001
 43
0.0000001
 44
0.0000000001
 40
0.0
 40
0.0
 40
0.0
 40
0.0
 40
0.0299503828
 40
0.059978175
 40
0.0900993204
 40
0.1203278748
 40
0.1354885488
 40
0.1506803595
 40
0.1811572624
 40
0.2117703887
 40
0.2425244577
 40
0.2734216446
 40
0.304461585
 40
0.335641417
 40
0.3669558607
 40
0.3983973291
 40
0.4299560702
 40
0.4616203361
 40
0.4933765774
 40
0.5252096619
 40
0.5571031135
 40
0.5890393727
 40
0.621000074
 40
0.6529663397
 40
0.6849190875
 40
0.7168393483
 40
0.7487085915
 40
0.7805090537
 40
0.8122240617
 40
0.8438383596
 40
0.8753383862
 40
0.9067126357
 40
0.9379516972
 40
0.9690489999
 40
1.0
 40
1.0
 40
1.0
 40
1.0
 10
10.6324010523
 20
8.7676499521
 30
0.0
 10
10.6360961892
 20
8.7699030491
 30
0.0
 10
10.6436614342
 20
8.7741498541
 30
0.0
 10
10.6554505479
 20
8.779699483
 30
0.0
 10
10.6676414025
 20
8.7844133317
 30
0.0
 10
10.6780794311
 20
8.7876252424
 30
0.0
 10
10.686570942
 20
8.7897592815
 30
0.0
 10
10.6951665512
 20
8.7916046459
 30
0.0
 10
10.7060587359
 20
8.7933574346
 30
0.0
 10
10.7192853648
 20
8.7945649761
 30
0.0
 10
10.7326243014
 20
8.7948746317
 30
0.0
 10
10.7460153183
 20
8.7942853554
 30
0.0
 10
10.7593985293
 20
8.7928000128
 30
0.0
 10
10.7727139595
 20
8.790425206
 30
0.0
 10
10.7859019197
 20
8.7871712969
 30
0.0
 10
10.798903165
 20
8.7830523734
 30
0.0
 10
10.8116591153
 20
8.7780862245
 30
0.0
 10
10.8241120656
 20
8.7722943068
 30
0.0
 10
10.8362054054
 20
8.7657017051
 30
0.0
 10
10.8478838456
 20
8.758337083
 30
0.0
 10
10.8590936518
 20
8.7502326218
 30
0.0
 10
10.8697828849
 20
8.7414239459
 30
0.0
 10
10.8799016491
 20
8.7319500301
 30
0.0
 10
10.8894023438
 20
8.7218530892
 30
0.0
 10
10.8982399197
 20
8.7111784453
 30
0.0
 10
10.9063721348
 20
8.6999743715
 30
0.0
 10
10.9137598096
 20
8.6882919111
 30
0.0
 10
10.9203670738
 20
8.6761846705
 30
0.0
 10
10.9261616088
 20
8.6637085841
 30
0.0
 10
10.9311148641
 20
8.6509216622
 30
0.0
 10
10.9352022845
 20
8.6378836764
 30
0.0
 10
10.9384034514
 20
8.6246559639
 30
0.0
 10
10.9407023254
 20
8.6113006939
 30
0.0
 10
10.9420872412
 20
8.5978819585
 30
0.0
 10
10.9423972627
 20
8.5889129115
 30
0.0
 10
10.9423972627
 20
8.5844404481
 30
0.0
  0
SPLINE
  5
371
100
AcDbEntity
  8
0
100
AcDbSpline
 62
7
  6
CONTINUOUS
 70
0
 71
3
 72
29
 73
25
 74
0
 42
0.0000001
 43
0.0000001
 44
0.0000000001
 40
0.0
 40
0.0
 40
0.0
 40
0.0
 40
0.0320433659
 40
0.0637911156
 40
0.0952661837
 40
0.1264947862
 40
0.1575045004
 40
0.1883239628
 40
0.2189826277
 40
0.2495088347
 40
0.2799312217
 40
0.3102764743
 40
0.3708233275
 40
0.4313552323
 40
0.4920390925
 40
0.5530226586
 40
0.6144396446
 40
0.6764164941
 40
0.7390819087
 40
0.8025789464
 40
0.8670776385
 40
0.9327925256
 40
0.9661906697
 40
1.0
 40
1.0
 40
1.0
 40
1.0
 10
10.9400106274
 20
8.554900266
 30
0.0
 10
10.9378499894
 20
8.5558008915
 30
0.0
 10
10.9335966212
 20
8.5577115856
 30
0.0
 10
10.9274107576
 20
8.5609074727
 30
0.0
 10
10.9214587025
 20
8.5644043352
 30
0.0
 10
10.9157480041
 20
8.5681857572
 30
0.0
 10
10.9102838962
 20
8.572235383
 30
0.0
 10
10.9050696771
 20
8.5765366898
 30
0.0
 10
10.9001068896
 20
8.5810734212
 30
0.0
 10
10.8953956701
 20
8.5858298744
 30
0.0
 10
10.8909346934
 20
8.5907909828
 30
0.0
 10
10.8853224918
 20
8.5976532065
 30
0.0
 10
10.8789089746
 20
8.6066852776
 30
0.0
 10
10.8721601113
 20
8.6181370343
 30
0.0
 10
10.8663222215
 20
8.6301128525
 30
0.0
 10
10.8613531351
 20
8.6425420522
 30
0.0
 10
10.857208896
 20
8.6553677854
 30
0.0
 10
10.8538454871
 20
8.6685454911
 30
0.0
 10
10.8512185436
 20
8.6820431542
 30
0.0
 10
10.8492826051
 20
8.6958420721
 30
0.0
 10
10.8479888112
 20
8.709938524
 30
0.0
 10
10.8474024972
 20
8.7218795471
 30
0.0
 10
10.8471860916
 20
8.7315876779
 30
0.0
 10
10.8471551593
 20
8.7364974481
 30
0.0
 10
10.8471562844
 20
8.7389672845
 30
0.0
  0
SPLINE
  5
372
100
AcDbEntity
  8
0
100
AcDbSpline
 62
7
  6
CONTINUOUS
 70
0
 71
3
 72
40
 73
36
 74
0
 42
0.0000001
 43
0.0000001
 44
0.0000000001
 40
0.0
 40
0.0
 40
0.0
 40
0.0
 40
0.029970057
 40
0.0600246656
 40
0.0901780769
 40
0.1204426314
 40
0.135622057
 40
0.1508329279
 40
0.1813483462
 40
0.2119989884
 40
0.2427882809
 40
0.2737173013
 40
0.304784799
 40
0.3359872462
 40
0.3673189159
 40
0.3987719846
 40
0.4303366594
 40
0.4620013257
 40
0.4937527177
 40
0.5255761088
 40
0.5574555226
 40
0.5893739636
 40
0.6213136673
 40
0.6532563685
 40
0.685183586
 40
0.717076922
 40
0.7489183729
 40
0.7806906469
 40
0.8123774827
 40
0.8439639705
 40
0.8754368398
 40
0.9067847946
 40
0.9379986363
 40
0.9690718179
 40
1.0
 40
1.0
 40
1.0
 40
1.0
 10
11.2031263442
 20
8.3528472661
 30
0.0
 10
11.2071599773
 20
8.3550861506
 30
0.0
 10
11.215399428
 20
8.359287142
 30
0.0
 10
11.2281855532
 20
8.3647185572
 30
0.0
 10
11.2413596909
 20
8.3692677907
 30
0.0
 10
11.2526030218
 20
8.3723058951
 30
0.0
 10
11.2617301503
 20
8.3742801398
 30
0.0
 10
11.2709567678
 20
8.3759518617
 30
0.0
 10
11.2826257435
 20
8.3774625399
 30
0.0
 10
11.2967633148
 20
8.3783422498
 30
0.0
 10
11.3109919587
 20
8.3782882164
 30
0.0
 10
11.3252505148
 20
8.3773010698
 30
0.0
 10
11.3394782695
 20
8.3753851461
 30
0.0
 10
11.3536144716
 20
8.372548345
 30
0.0
 10
11.3675986686
 20
8.3688021544
 30
0.0
 10
11.381370826
 20
8.3641616355
 30
0.0
 10
11.3948715142
 20
8.358645421
 30
0.0
 10
11.4080420885
 20
8.3522757121
 30
0.0
 10
11.4208248859
 20
8.345078272
 30
0.0
 10
11.4331634345
 20
8.337082414
 30
0.0
 10
11.4450026776
 20
8.3283209813
 30
0.0
 10
11.4562892134
 20
8.3188303118
 30
0.0
 10
11.4669715496
 20
8.3086501877
 30
0.0
 10
11.4770003709
 20
8.2978237618
 30
0.0
 10
11.4863288187
 20
8.2863974608
 30
0.0
 10
11.4949127781
 20
8.2744208581
 30
0.0
 10
11.5027111708
 20
8.2619465159
 30
0.0
 10
11.5096862451
 20
8.2490297933
 30
0.0
 10
11.515803864
 20
8.2357286171
 30
0.0
 10
11.5210337733
 20
8.2221032255
 30
0.0
 10
11.52534987
 20
8.2082158408
 30
0.0
 10
11.5287304043
 20
8.1941304505
 30
0.0
 10
11.5311582357
 20
8.1799120362
 30
0.0
 10
11.5326209076
 20
8.1656276661
 30
0.0
 10
11.5329483257
 20
8.1560805956
 30
0.0
 10
11.5329483257
 20
8.1513197817
 30
0.0
  0
SPLINE
  5
373
100
AcDbEntity
  8
0
100
AcDbSpline
 62
7
  6
CONTINUOUS
 70
0
 71
3
 72
18
 73
14
 74
0
 42
0.0000001
 43
0.0000001
 44
0.0000000001
 40
0.0
 40
0.0
 40
0.0
 40
0.0
 40
0.0548627003
 40
0.1099292984
 40
0.1654013502
 40
0.22147558
 40
0.3361333207
 40
0.4553633897
 40
0.5171049197
 40
0.5804365965
 40
0.7123310206
 40
0.851957275
 40
1.0
 40
1.0
 40
1.0
 40
1.0
 10
11.5901561778
 20
10.9339125941
 30
0.0
 10
11.5901561808
 20
10.9331499574
 30
0.0
 10
11.5901077872
 20
10.931621409
 30
0.0
 10
11.589890186
 20
10.9293310837
 30
0.0
 10
11.589527531
 20
10.9270420318
 30
0.0
 10
11.5888460579
 20
10.9239706374
 30
0.0
 10
11.5876183719
 20
10.9201211139
 30
0.0
 10
11.5859369037
 20
10.9163624745
 30
0.0
 10
11.5843189419
 20
10.9133753773
 30
0.0
 10
11.5824663075
 20
10.910319823
 30
0.0
 10
11.5797762349
 20
10.9065130344
 30
0.0
 10
11.5760257807
 20
10.9020394538
 30
0.0
 10
11.5732363319
 20
10.8991689382
 30
0.0
 10
11.5717561665
 20
10.8977392081
 30
0.0
  0
SPLINE
  5
374
100
AcDbEntity
  8
0
100
AcDbSpline
 62
7
  6
CONTINUOUS
 70
0
 71
3
 72
31
 73
27
 74
0
 42
0.0000001
 43
0.0000001
 44
0.0000000001
 40
0.0
 40
0.0
 40
0.0
 40
0.0
 40
0.0165871091
 40
0.0341536703
 40
0.0527302526
 40
0.0723385666
 40
0.0929932951
 40
0.1147026719
 40
0.1374699173
 40
0.1612934054
 40
0.1861678307
 40
0.2120841024
 40
0.2390303392
 40
0.2669915909
 40
0.2959507237
 40
0.3258880358
 40
0.3567820684
 40
0.3886091614
 40
0.4549583764
 40
0.5247169311
 40
0.5976414593
 40
0.6734690209
 40
0.7519196486
 40
0.8326984863
 40
0.9154981136
 40
1.0
 40
1.0
 40
1.0
 40
1.0
 10
9.6699448255
 20
6.1042605081
 30
0.0
 10
9.670970543
 20
6.1033059627
 30
0.0
 10
9.6731461224
 20
6.1014080568
 30
0.0
 10
9.6766617581
 20
6.0986698499
 30
0.0
 10
9.6805177488
 20
6.0959629535
 30
0.0
 10
9.6847099727
 20
6.0932900968
 30
0.0
 10
9.689234252
 20
6.0906539576
 30
0.0
 10
9.6940859194
 20
6.0880571478
 30
0.0
 10
9.6992600212
 20
6.0855023959
 30
0.0
 10
9.7047511964
 20
6.0829922753
 30
0.0
 10
9.7105537772
 20
6.0805294683
 30
0.0
 10
9.7166617202
 20
6.0781164812
 30
0.0
 10
9.7230686789
 20
6.0757559127
 30
0.0
 10
9.7297679572
 20
6.0734501767
 30
0.0
 10
9.7367525652
 20
6.071201765
 30
0.0
 10
9.7440151856
 20
6.0690129873
 30
0.0
 10
9.751548229
 20
6.0668861889
 30
0.0
 10
9.7620888959
 20
6.0640973497
 30
0.0
 10
9.7758871494
 20
6.0607936379
 30
0.0
 10
9.7931694093
 20
6.0571627241
 30
0.0
 10
9.8113257785
 20
6.0538279253
 30
0.0
 10
9.8302800798
 20
6.0508034018
 30
0.0
 10
9.8499528976
 20
6.0481020346
 30
0.0
 10
9.8702617206
 20
6.0457353026
 30
0.0
 10
9.8911212141
 20
6.0437132723
 30
0.0
 10
9.9052114947
 20
6.0426105465
 30
0.0
 10
9.9123325121
 20
6.0421167023
 30
0.0
  0
SPLINE
  5
375
100
AcDbEntity
  8
0
100
AcDbSpline
 62
7
  6
CONTINUOUS
 70
0
 71
3
 72
17
 73
13
 74
0
 42
0.0000001
 43
0.0000001
 44
0.0000000001
 40
0.0
 40
0.0
 40
0.0
 40
0.0
 40
0.0544313482
 40
0.1090799532
 40
0.2198254431
 40
0.3339327209
 40
0.4528856996
 40
0.514611354
 40
0.5780150295
 40
0.7103287903
 40
0.8507543788
 40
1.0
 40
1.0
 40
1.0
 40
1.0
 10
9.6263661901
 20
6.1580603388
 30
0.0
 10
9.6263661906
 20
6.1575115704
 30
0.0
 10
9.6264023224
 20
6.1564114676
 30
0.0
 10
9.6266195566
 20
6.1542046422
 30
0.0
 10
9.6271688932
 20
6.1514322788
 30
0.0
 10
9.628259901
 20
6.148133956
 30
0.0
 10
9.6295130581
 20
6.1454320132
 30
0.0
 10
9.6307183979
 20
6.1432857001
 30
0.0
 10
9.6321003062
 20
6.1410875269
 30
0.0
 10
9.6341067019
 20
6.1383502169
 30
0.0
 10
9.6369014458
 20
6.1351372055
 30
0.0
 10
9.6389772783
 20
6.1330790539
 30
0.0
 10
9.6400787781
 20
6.1320540008
 30
0.0
  0
SPLINE
  5
376
100
AcDbEntity
  8
0
100
AcDbSpline
 62
7
  6
CONTINUOUS
 70
0
 71
3
 72
17
 73
13
 74
0
 42
0.0000001
 43
0.0000001
 44
0.0000000001
 40
0.0
 40
0.0
 40
0.0
 40
0.0
 40
0.0548654562
 40
0.1099349142
 40
0.2214349653
 40
0.3360994124
 40
0.4553345578
 40
0.517078735
 40
0.5804135927
 40
0.7123172413
 40
0.8519537007
 40
1.0
 40
1.0
 40
1.0
 40
1.0
 10
9.6254002642
 20
10.8679821294
 30
0.0
 10
9.6254002637
 20
10.8685117333
 30
0.0
 10
9.6254339043
 20
10.8695732488
 30
0.0
 10
9.62563614
 20
10.871702244
 30
0.0
 10
9.6261471822
 20
10.8743760793
 30
0.0
 10
9.6271627272
 20
10.8775592211
 30
0.0
 10
9.6283303537
 20
10.8801696423
 30
0.0
 10
9.6294539484
 20
10.8822439346
 30
0.0
 10
9.6307405011
 20
10.8843658526
 30
0.0
 10
9.6326086251
 20
10.887009471
 30
0.0
 10
9.6352131235
 20
10.8901160865
 30
0.0
 10
9.6371502016
 20
10.8921094917
 30
0.0
 10
9.6381780579
 20
10.8931023247
 30
0.0
  0
SPLINE
  5
377
100
AcDbEntity
  8
0
100
AcDbSpline
 62
7
  6
CONTINUOUS
 70
0
 71
3
 72
38
 73
34
 74
0
 42
0.0000001
 43
0.0000001
 44
0.0000000001
 40
0.0
 40
0.0
 40
0.0
 40
0.0
 40
0.0072740444
 40
0.0148711253
 40
0.022799108
 40
0.0310645585
 40
0.0396728339
 40
0.0486279901
 40
0.0579325443
 40
0.06758802
 40
0.0879518531
 40
0.1097161043
 40
0.1328644427
 40
0.1573712584
 40
0.1832031098
 40
0.2103197084
 40
0.2386748046
 40
0.2682169404
 40
0.2988899998
 40
0.3306336139
 40
0.3633836152
 40
0.3970724548
 40
0.4316295187
 40
0.4669813819
 40
0.5030521439
 40
0.5397637347
 40
0.5770361642
 40
0.6147877486
 40
0.6913932997
 40
0.7689051784
 40
0.8466359517
 40
0.9238953359
 40
1.0
 40
1.0
 40
1.0
 40
1.0
 10
10.0975842547
 20
11.3357829139
 30
0.0
 10
10.0983503946
 20
11.3364958462
 30
0.0
 10
10.0999519293
 20
11.337915876
 30
0.0
 10
10.1024984079
 20
11.3399848614
 30
0.0
 10
10.1052388675
 20
11.3420369949
 30
0.0
 10
10.1081715487
 20
11.3440710137
 30
0.0
 10
10.1112947737
 20
11.3460858272
 30
0.0
 10
10.1146067717
 20
11.34808025
 30
0.0
 10
10.1181055934
 20
11.3500532177
 30
0.0
 10
10.1231062016
 20
11.3527006894
 30
0.0
 10
10.1298194262
 20
11.3559384099
 30
0.0
 10
10.1384473621
 20
11.359653776
 30
0.0
 10
10.1477647817
 20
11.3632565267
 30
0.0
 10
10.1577497537
 20
11.3667380966
 30
0.0
 10
10.1683789416
 20
11.3700901854
 30
0.0
 10
10.1796273036
 20
11.373304779
 30
0.0
 10
10.1914682808
 20
11.3763741885
 30
0.0
 10
10.2038738611
 20
11.3792910549
 30
0.0
 10
10.2168146601
 20
11.3820483723
 30
0.0
 10
10.230259983
 20
11.3846395346
 30
0.0
 10
10.2441779099
 20
11.3870583381
 30
0.0
 10
10.258535388
 20
11.3892989843
 30
0.0
 10
10.2732983085
 20
11.3913560935
 30
0.0
 10
10.2884315805
 20
11.393224744
 30
0.0
 10
10.3038992245
 20
11.3949004696
 30
0.0
 10
10.3196644549
 20
11.3963792503
 30
0.0
 10
10.3356898127
 20
11.3976575609
 30
0.0
 10
10.3574581893
 20
11.3990974537
 30
0.0
 10
10.3850369998
 20
11.4003706822
 30
0.0
 10
10.4183900678
 20
11.4010574451
 30
0.0
 10
10.4518440958
 20
11.4009036187
 30
0.0
 10
10.4850809604
 20
11.39991072
 30
0.0
 10
10.5071147573
 20
11.3986829731
 30
0.0
 10
10.5180379272
 20
11.3979254487
 30
0.0
  0
SPLINE
  5
378
100
AcDbEntity
  8
0
100
AcDbSpline
 62
7
  6
CONTINUOUS
 70
0
 71
3
 72
17
 73
13
 74
0
 42
0.0000001
 43
0.0000001
 44
0.0000000001
 40
0.0
 40
0.0
 40
0.0
 40
0.0
 40
0.1492456212
 40
0.2896712097
 40
0.4219849705
 40
0.485388646
 40
0.5471143004
 40
0.6660672791
 40
0.7801745569
 40
0.8909200468
 40
0.9455686518
 40
1.0
 40
1.0
 40
1.0
 40
1.0
 10
12.3599212219
 20
11.1991339705
 30
0.0
 10
12.3610227217
 20
11.1981089174
 30
0.0
 10
12.3630985542
 20
11.1960507658
 30
0.0
 10
12.3658932981
 20
11.1928377544
 30
0.0
 10
12.3678996938
 20
11.1901004444
 30
0.0
 10
12.3692816021
 20
11.1879022712
 30
0.0
 10
12.3704869419
 20
11.1857559581
 30
0.0
 10
12.371740099
 20
11.1830540153
 30
0.0
 10
12.3728311068
 20
11.1797556925
 30
0.0
 10
12.3733804434
 20
11.1769833291
 30
0.0
 10
12.3735976776
 20
11.1747765037
 30
0.0
 10
12.3736338094
 20
11.1736764009
 30
0.0
 10
12.3736338099
 20
11.1731276325
 30
0.0
  0
SPLINE
  5
379
100
AcDbEntity
  8
0
100
AcDbSpline
 62
7
  6
CONTINUOUS
 70
0
 71
3
 72
39
 73
35
 74
0
 42
0.0000001
 43
0.0000001
 44
0.0000000001
 40
0.0
 40
0.0
 40
0.0
 40
0.0
 40
0.0761048505
 40
0.1533644273
 40
0.2310953879
 40
0.3086074378
 40
0.385213133
 40
0.4229647759
 40
0.4602372533
 40
0.4969488802
 40
0.5330196652
 40
0.5683715375
 40
0.6029285954
 40
0.6366174131
 40
0.6693673757
 40
0.7011109337
 40
0.731783919
 40
0.7613259621
 40
0.7896809469
 40
0.8167974154
 40
0.8426291179
 40
0.8671357663
 40
0.8902839198
 40
0.9120479695
 40
0.9224060488
 40
0.9324129352
 40
0.9420682978
 40
0.951372736
 40
0.9603277737
 40
0.9689359288
 40
0.9772012578
 40
0.9851291183
 40
0.992726077
 40
1.0
 40
1.0
 40
1.0
 40
1.0
 10
11.473938689
 20
5.9554562309
 30
0.0
 10
11.4858462968
 20
5.9546304355
 30
0.0
 10
11.5098658645
 20
5.9532920416
 30
0.0
 10
11.5460981628
 20
5.9522096687
 30
0.0
 10
11.582567193
 20
5.9520419946
 30
0.0
 10
11.6189261564
 20
5.952790673
 30
0.0
 10
11.6489904587
 20
5.954178673
 30
0.0
 10
11.6727206643
 20
5.955748356
 30
0.0
 10
11.6901902666
 20
5.9571418901
 30
0.0
 10
11.7073762926
 20
5.9587539626
 30
0.0
 10
11.7242379067
 20
5.9605807305
 30
0.0
 10
11.7407350076
 20
5.9626178115
 30
0.0
 10
11.7568283728
 20
5.9648603366
 30
0.0
 10
11.7724797486
 20
5.9673029405
 30
0.0
 10
11.7876519515
 20
5.9699397586
 30
0.0
 10
11.8023089496
 20
5.9727644695
 30
0.0
 10
11.816415946
 20
5.9757703103
 30
0.0
 10
11.8299394797
 20
5.9789500795
 30
0.0
 10
11.842847516
 20
5.9822961396
 30
0.0
 10
11.8551095244
 20
5.9858004683
 30
0.0
 10
11.8666965302
 20
5.9894546825
 30
0.0
 10
11.8775813113
 20
5.9932500497
 30
0.0
 10
11.887738164
 20
5.9971775083
 30
0.0
 10
11.8957023344
 20
6.0006069377
 30
0.0
 10
11.9016829062
 20
6.0034172544
 30
0.0
 10
11.9058974747
 20
6.0055173328
 30
0.0
 10
11.9099129693
 20
6.0076433811
 30
0.0
 10
11.9137270356
 20
6.0097941494
 30
0.0
 10
11.9173374418
 20
6.0119683313
 30
0.0
 10
11.920742059
 20
6.014164735
 30
0.0
 10
11.923938958
 20
6.0163820758
 30
0.0
 10
11.9269263092
 20
6.0186191634
 30
0.0
 10
11.929702195
 20
6.020874621
 30
0.0
 10
11.931448003
 20
6.0224226345
 30
0.0
 10
11.9322831584
 20
6.0231998214
 30
0.0
  0
SPLINE
  5
37A
100
AcDbEntity
  8
0
100
AcDbSpline
 62
7
  6
CONTINUOUS
 70
0
 71
3
 72
83
 73
79
 74
0
 42
0.0000001
 43
0.0000001
 44
0.0000000001
 40
0.0
 40
0.0
 40
0.0
 40
0.0
 40
0.003980149
 40
0.0081240919
 40
0.0124359835
 40
0.0169193603
 40
0.0215772246
 40
0.0264119606
 40
0.0314252324
 40
0.0366182158
 40
0.0419916195
 40
0.0475457334
 40
0.0532805161
 40
0.0591955185
 40
0.0715625327
 40
0.0846382143
 40
0.0984095328
 40
0.1128601134
 40
0.1279706583
 40
0.1437192718
 40
0.1600817502
 40
0.1770318183
 40
0.1945413264
 40
0.2125804203
 40
0.2311176863
 40
0.2501203005
 40
0.269554164
 40
0.2893840224
 40
0.3095735802
 40
0.3300856048
 40
0.3508820422
 40
0.3719241252
 40
0.4145864312
 40
0.4577527569
 40
0.5010975799
 40
0.5442936399
 40
0.5870151259
 40
0.6080976714
 40
0.6289416876
 40
0.6495082871
 40
0.6697592834
 40
0.6896572915
 40
0.7091658343
 40
0.7282494515
 40
0.7468738239
 40
0.7650058946
 40
0.78261399
 40
0.7996679565
 40
0.8161393115
 40
0.8320014232
 40
0.8472297058
 40
0.8618018332
 40
0.8756980061
 40
0.8889012771
 40
0.9013979681
 40
0.9131781873
 40
0.9187980573
 40
0.924237173
 40
0.9294957148
 40
0.9345742409
 40
0.9394737433
 40
0.9441957547
 40
0.948742307
 40
0.9531161074
 40
0.9573205402
 40
0.9613597705
 40
0.9652388909
 40
0.9689639409
 40
0.9725421207
 40
0.975981843
 40
0.9792928682
 40
0.9824864417
 40
0.9855753029
 40
0.9885737828
 40
0.9914977139
 40
0.9943643205
 40
0.9971920042
 40
1.0
 40
1.0
 40
1.0
 40
1.0
 10
10.5285562123
 20
10.9700853707
 30
0.0
 10
10.5296257062
 20
10.9711184225
 30
0.0
 10
10.5318572777
 20
10.9731772291
 30
0.0
 10
10.5354003394
 20
10.9761842868
 30
0.0
 10
10.5392035897
 20
10.9791698011
 30
0.0
 10
10.5432649408
 20
10.9821321374
 30
0.0
 10
10.5475823813
 20
10.9850699397
 30
0.0
 10
10.5521538247
 20
10.987981753
 30
0.0
 10
10.5569769801
 20
10.9908662119
 30
0.0
 10
10.5620494516
 20
10.9937218303
 30
0.0
 10
10.567368693
 20
10.9965471846
 30
0.0
 10
10.5729320291
 20
10.9993408869
 30
0.0
 10
10.5787367001
 20
11.0021015134
 30
0.0
 10
10.5869159228
 20
11.0057912877
 30
0.0
 10
10.5977314054
 20
11.0103002553
 30
0.0
 10
10.611437607
 20
11.0154802002
 30
0.0
 10
10.6260301456
 20
11.0204961622
 30
0.0
 10
10.6414796518
 20
11.025337961
 30
0.0
 10
10.6577551952
 20
11.029995752
 30
0.0
 10
10.6748240358
 20
11.0344600597
 30
0.0
 10
10.692651802
 20
11.0387217948
 30
0.0
 10
10.7112025492
 20
11.0427722757
 30
0.0
 10
10.7304388478
 20
11.0466032496
 30
0.0
 10
10.7503218569
 20
11.050206908
 30
0.0
 10
10.7708114047
 20
11.053575916
 30
0.0
 10
10.7918660768
 20
11.0567034168
 30
0.0
 10
10.8134433076
 20
11.0595830443
 30
0.0
 10
10.835499467
 20
11.0622089362
 30
0.0
 10
10.8579899511
 20
11.0645757467
 30
0.0
 10
10.8808692552
 20
11.0666786564
 30
0.0
 10
10.9040911307
 20
11.0685134203
 30
0.0
 10
10.9355910751
 20
11.0706066588
 30
0.0
 10
10.9754753099
 20
11.0725210424
 30
0.0
 10
11.023723335
 20
11.0736949716
 30
0.0
 10
11.0721851747
 20
11.0737461088
 30
0.0
 10
11.1204687879
 20
11.0726740049
 30
0.0
 10
11.1604053548
 20
11.0708441383
 30
0.0
 10
11.1919647946
 20
11.0688179841
 30
0.0
 10
11.2152439368
 20
11.067032408
 30
0.0
 10
11.2381890002
 20
11.0649779623
 30
0.0
 10
11.2607536067
 20
11.0626588006
 30
0.0
 10
11.2828921036
 20
11.0600796485
 30
0.0
 10
11.3045597159
 20
11.0572457511
 30
0.0
 10
11.3257126235
 20
11.0541628712
 30
0.0
 10
11.3463080602
 20
11.0508372847
 30
0.0
 10
11.366304402
 20
11.0472757664
 30
0.0
 10
11.3856612493
 20
11.0434855698
 30
0.0
 10
11.4043395094
 20
11.0394744142
 30
0.0
 10
11.4223014813
 20
11.0352504661
 30
0.0
 10
11.4395109446
 20
11.0308223301
 30
0.0
 10
11.4559332392
 20
11.0261990299
 30
0.0
 10
11.4715353468
 20
11.0213899764
 30
0.0
 10
11.4862859357
 20
11.0164049495
 30
0.0
 10
11.5001555499
 20
11.0112540498
 30
0.0
 10
11.513116323
 20
11.0059477144
 30
0.0
 10
11.5232922749
 20
11.0013355021
 30
0.0
 10
11.5309482065
 20
10.9975671137
 30
0.0
 10
11.5363565497
 20
10.994753079
 30
0.0
 10
11.5415190735
 20
10.9919083105
 30
0.0
 10
11.5464332059
 20
10.9890341957
 30
0.0
 10
11.5510964743
 20
10.9861321371
 30
0.0
 10
11.5555065837
 20
10.9832036243
 30
0.0
 10
11.5596613077
 20
10.9802500339
 30
0.0
 10
11.5635586025
 20
10.9772728447
 30
0.0
 10
11.5671965307
 20
10.9742734853
 30
0.0
 10
11.5705732514
 20
10.971253349
 30
0.0
 10
11.5736871198
 20
10.9682139133
 30
0.0
 10
11.5765365027
 20
10.9651565191
 30
0.0
 10
11.5791199636
 20
10.9620826055
 30
0.0
 10
11.5814361195
 20
10.9589935487
 30
0.0
 10
11.5834836285
 20
10.9558907078
 30
0.0
 10
11.5852613373
 20
10.952775538
 30
0.0
 10
11.5867679938
 20
10.9496494319
 30
0.0
 10
11.5880025663
 20
10.9465139417
 30
0.0
 10
11.5889640383
 20
10.9433707038
 30
0.0
 10
11.5896514815
 20
10.9402213821
 30
0.0
 10
11.5900643039
 20
10.9370682096
 30
0.0
 10
11.5901561736
 20
10.9349616359
 30
0.0
 10
11.5901561778
 20
10.9339125941
 30
0.0
  0
SPLINE
  5
37B
100
AcDbEntity
  8
0
100
AcDbSpline
 62
7
  6
CONTINUOUS
 70
0
 71
3
 72
39
 73
35
 74
0
 42
0.0000001
 43
0.0000001
 44
0.0000000001
 40
0.0
 40
0.0
 40
0.0
 40
0.0
 40
0.007175745
 40
0.0146740737
 40
0.0225036116
 40
0.030671472
 40
0.0391835578
 40
0.0480444976
 40
0.0572573741
 40
0.0668240337
 40
0.0767454382
 40
0.0870215229
 40
0.1086328224
 40
0.1316444885
 40
0.1560318876
 40
0.1817621643
 40
0.2087953062
 40
0.2370851424
 40
0.2665800902
 40
0.2972237176
 40
0.3289551842
 40
0.3617097517
 40
0.3954191818
 40
0.4300120556
 40
0.4654140508
 40
0.5015483063
 40
0.5383357156
 40
0.5756951801
 40
0.6135438541
 40
0.6903688654
 40
0.7681254679
 40
0.8461157008
 40
0.9236385661
 40
1.0
 40
1.0
 40
1.0
 40
1.0
 10
11.9023083289
 20
10.7660280595
 30
0.0
 10
11.9015637379
 20
10.7653088398
 30
0.0
 10
11.9000040509
 20
10.7638760245
 30
0.0
 10
11.8975165023
 20
10.7617884099
 30
0.0
 10
11.894832007
 20
10.7597173277
 30
0.0
 10
11.8919523085
 20
10.7576641677
 30
0.0
 10
11.8888791296
 20
10.7556300266
 30
0.0
 10
11.8856142216
 20
10.753616102
 30
0.0
 10
11.8821595105
 20
10.7516235259
 30
0.0
 10
11.8785170551
 20
10.7496534718
 30
0.0
 10
11.8746890002
 20
10.747707148
 30
0.0
 10
11.8692487691
 20
10.7451013278
 30
0.0
 10
11.8619925284
 20
10.7419208092
 30
0.0
 10
11.8527246403
 20
10.7382782234
 30
0.0
 10
11.8427774526
 20
10.7347569807
 30
0.0
 10
11.8321747304
 20
10.7313655866
 30
0.0
 10
11.820941673
 20
10.7281122309
 30
0.0
 10
11.8091051321
 20
10.7250047983
 30
0.0
 10
11.7966934317
 20
10.7220508317
 30
0.0
 10
11.783736326
 20
10.7192575117
 30
0.0
 10
11.7702649205
 20
10.716631606
 30
0.0
 10
11.7563115809
 20
10.7141794845
 30
0.0
 10
11.7419098426
 20
10.7119070995
 30
0.0
 10
11.7270943354
 20
10.7098199725
 30
0.0
 10
11.711900704
 20
10.7079231538
 30
0.0
 10
11.6963655088
 20
10.7062212365
 30
0.0
 10
11.6805261436
 20
10.7047183553
 30
0.0
 10
11.6644207019
 20
10.7034181348
 30
0.0
 10
11.6425357874
 20
10.7019517986
 30
0.0
 10
11.61480134
 20
10.7006518001
 30
0.0
 10
11.581252788
 20
10.6999430135
 30
0.0
 10
11.5475961941
 20
10.7000849189
 30
0.0
 10
11.5141554993
 20
10.7010760969
 30
0.0
 10
11.4919862146
 20
10.7023095541
 30
0.0
 10
11.4809961469
 20
10.7030717179
 30
0.0
  0
SPLINE
  5
37C
100
AcDbEntity
  8
0
100
AcDbSpline
 62
7
  6
CONTINUOUS
 70
0
 71
3
 72
39
 73
35
 74
0
 42
0.0000001
 43
0.0000001
 44
0.0000000001
 40
0.0
 40
0.0
 40
0.0
 40
0.0
 40
0.007175745
 40
0.0146740737
 40
0.0225036116
 40
0.030671472
 40
0.0391835578
 40
0.0480444976
 40
0.0572573741
 40
0.0668240337
 40
0.0767454382
 40
0.0870215229
 40
0.1086328224
 40
0.1316444885
 40
0.1560318876
 40
0.1817621643
 40
0.2087953062
 40
0.2370851424
 40
0.2665800902
 40
0.2972237176
 40
0.3289551842
 40
0.3617097517
 40
0.3954191818
 40
0.4300120556
 40
0.4654140508
 40
0.5015483063
 40
0.5383357156
 40
0.5756951801
 40
0.6135438541
 40
0.6903688654
 40
0.7681254679
 40
0.8461157008
 40
0.9236385661
 40
1.0
 40
1.0
 40
1.0
 40
1.0
 10
11.9322520313
 20
10.7340077543
 30
0.0
 10
11.9314403405
 20
10.7332237212
 30
0.0
 10
11.9297401004
 20
10.7316617859
 30
0.0
 10
11.9270283832
 20
10.7293860433
 30
0.0
 10
11.9241019711
 20
10.7271283228
 30
0.0
 10
11.9209627649
 20
10.7248901397
 30
0.0
 10
11.9176126425
 20
10.7226726893
 30
0.0
 10
11.9140535131
 20
10.7204772773
 30
0.0
 10
11.9102874763
 20
10.7183051377
 30
0.0
 10
11.9063167765
 20
10.7161575496
 30
0.0
 10
11.9021437515
 20
10.7140358304
 30
0.0
 10
11.8962132669
 20
10.7111951834
 30
0.0
 10
11.8883031208
 20
10.7077280483
 30
0.0
 10
11.8782000451
 20
10.7037572062
 30
0.0
 10
11.8673564539
 20
10.6999186422
 30
0.0
 10
11.8557982539
 20
10.6962216283
 30
0.0
 10
11.8435529152
 20
10.6926750923
 30
0.0
 10
11.8306497092
 20
10.6892876294
 30
0.0
 10
11.8171195125
 20
10.6860674623
 30
0.0
 10
11.8029947607
 20
10.6830224187
 30
0.0
 10
11.7883093622
 20
10.6801598762
 30
0.0
 10
11.7730985996
 20
10.6774867786
 30
0.0
 10
11.7573990302
 20
10.6750096148
 30
0.0
 10
11.7412484046
 20
10.6727344037
 30
0.0
 10
11.7246855798
 20
10.6706666507
 30
0.0
 10
11.7077504105
 20
10.668811363
 30
0.0
 10
11.6904836607
 20
10.6671730477
 30
0.0
 10
11.6729268565
 20
10.6657556562
 30
0.0
 10
11.649069755
 20
10.6641571792
 30
0.0
 10
11.6188359824
 20
10.6627400297
 30
0.0
 10
11.5822641597
 20
10.6619673699
 30
0.0
 10
11.5455745588
 20
10.6621220632
 30
0.0
 10
11.5091203129
 20
10.6632025625
 30
0.0
 10
11.4849532148
 20
10.6645471743
 30
0.0
 10
11.4729727631
 20
10.6653780214
 30
0.0
  0
SPLINE
  5
37D
100
AcDbEntity
  8
0
100
AcDbSpline
 62
7
  6
CONTINUOUS
 70
0
 71
3
 72
15
 73
11
 74
0
 42
0.0000001
 43
0.0000001
 44
0.0000000001
 40
0.0
 40
0.0
 40
0.0
 40
0.0
 40
0.1233171152
 40
0.2468171801
 40
0.3706749982
 40
0.4950495769
 40
0.6200773723
 40
0.7458670578
 40
0.8724927841
 40
1.0
 40
1.0
 40
1.0
 40
1.0
 10
11.657239851
 20
9.0742268457
 30
0.0
 10
11.6540870198
 20
9.0711814698
 30
0.0
 10
11.6474429622
 20
9.0654211923
 30
0.0
 10
11.6365992647
 20
9.0578940528
 30
0.0
 10
11.6249798855
 20
9.0515487921
 30
0.0
 10
11.612703784
 20
9.046450571
 30
0.0
 10
11.5998947643
 20
9.0426500676
 30
0.0
 10
11.5866818564
 20
9.0401852667
 30
0.0
 10
11.5731999406
 20
9.0390801411
 30
0.0
 10
11.5641502232
 20
9.0392566595
 30
0.0
 10
11.5596286883
 20
9.039570229
 30
0.0
  0
SPLINE
  5
37E
100
AcDbEntity
  8
0
100
AcDbSpline
 62
7
  6
CONTINUOUS
 70
0
 71
3
 72
15
 73
11
 74
0
 42
0.0000001
 43
0.0000001
 44
0.0000000001
 40
0.0
 40
0.0
 40
0.0
 40
0.0
 40
0.1233171152
 40
0.2468171801
 40
0.3706749982
 40
0.4950495769
 40
0.6200773723
 40
0.7458670578
 40
0.8724927841
 40
1.0
 40
1.0
 40
1.0
 40
1.0
 10
9.906982259
 20
9.1956076219
 30
0.0
 10
9.9038294278
 20
9.192562246
 30
0.0
 10
9.8971853701
 20
9.1868019686
 30
0.0
 10
9.8863416727
 20
9.179274829
 30
0.0
 10
9.8747222934
 20
9.1729295684
 30
0.0
 10
9.862446192
 20
9.1678313472
 30
0.0
 10
9.8496371723
 20
9.1640308438
 30
0.0
 10
9.8364242644
 20
9.161566043
 30
0.0
 10
9.8229423486
 20
9.1604609174
 30
0.0
 10
9.8138926312
 20
9.1606374357
 30
0.0
 10
9.8093710963
 20
9.1609510053
 30
0.0
  0
SPLINE
  5
37F
100
AcDbEntity
  8
0
100
AcDbSpline
 62
7
  6
CONTINUOUS
 70
0
 71
3
 72
15
 73
11
 74
0
 42
0.0000001
 43
0.0000001
 44
0.0000000001
 40
0.0
 40
0.0
 40
0.0
 40
0.0
 40
0.1233171152
 40
0.2468171801
 40
0.3706749982
 40
0.4950495769
 40
0.6200773723
 40
0.7458670578
 40
0.8724927841
 40
1.0
 40
1.0
 40
1.0
 40
1.0
 10
9.906982259
 20
7.1439809753
 30
0.0
 10
9.9038294278
 20
7.1409355994
 30
0.0
 10
9.8971853701
 20
7.135175322
 30
0.0
 10
9.8863416727
 20
7.1276481824
 30
0.0
 10
9.8747222934
 20
7.1213029218
 30
0.0
 10
9.862446192
 20
7.1162047006
 30
0.0
 10
9.8496371723
 20
7.1124041972
 30
0.0
 10
9.8364242644
 20
7.1099393964
 30
0.0
 10
9.8229423486
 20
7.1088342708
 30
0.0
 10
9.8138926312
 20
7.1090107891
 30
0.0
 10
9.8093710963
 20
7.1093243586
 30
0.0
  0
SPLINE
  5
380
100
AcDbEntity
  8
0
100
AcDbSpline
 62
7
  6
CONTINUOUS
 70
0
 71
3
 72
41
 73
37
 74
0
 42
0.0000001
 43
0.0000001
 44
0.0000000001
 40
0.0
 40
0.0
 40
0.0
 40
0.0
 40
0.0311443777
 40
0.0624425595
 40
0.0938872477
 40
0.1254696093
 40
0.1571771289
 40
0.1889951561
 40
0.2209067114
 40
0.2528930218
 40
0.2849338418
 40
0.3170078727
 40
0.349093173
 40
0.3811675842
 40
0.4132091572
 40
0.4451965775
 40
0.4771095803
 40
0.5089293526
 40
0.5406389143
 40
0.5722234721
 40
0.6036707398
 40
0.6349712184
 40
0.6661184287
 40
0.6971090895
 40
0.7279432343
 40
0.7586242609
 40
0.7891589086
 40
0.8195571576
 40
0.8498320512
 40
0.8649308888
 40
0.8800050477
 40
0.9100832517
 40
0.9400926686
 40
0.9550812681
 40
0.9700610312
 40
1.0
 40
1.0
 40
1.0
 40
1.0
 10
11.5596286883
 20
9.039570229
 30
0.0
 10
11.5563147344
 20
9.0398000525
 30
0.0
 10
11.5496848195
 20
9.0405034189
 30
0.0
 10
11.5398203441
 20
9.042275152
 30
0.0
 10
11.5300615027
 20
9.044756902
 30
0.0
 10
11.5204610611
 20
9.0479352005
 30
0.0
 10
11.5110699759
 20
9.0517930962
 30
0.0
 10
11.5019383566
 20
9.0563099085
 30
0.0
 10
11.493114846
 20
9.0614615186
 30
0.0
 10
11.484646461
 20
9.0672204126
 30
0.0
 10
11.4765783217
 20
9.0735558641
 30
0.0
 10
11.4689534183
 20
9.0804340825
 30
0.0
 10
11.4618123846
 20
9.0878183972
 30
0.0
 10
11.4551932833
 20
9.095669449
 30
0.0
 10
11.449131405
 20
9.1039453989
 30
0.0
 10
11.4436590823
 20
9.1126021483
 30
0.0
 10
11.4388055185
 20
9.1215935712
 30
0.0
 10
11.4345966317
 20
9.1308717571
 30
0.0
 10
11.4310549173
 20
9.1403872632
 30
0.0
 10
11.4281993289
 20
9.150089375
 30
0.0
 10
11.4260451762
 20
9.1599263729
 30
0.0
 10
11.4246040418
 20
9.169845804
 30
0.0
 10
11.4238837174
 20
9.179794759
 30
0.0
 10
11.4238881575
 20
9.1897201476
 30
0.0
 10
11.4246174585
 20
9.1995689897
 30
0.0
 10
11.4260678351
 20
9.2092886566
 30
0.0
 10
11.4282317012
 20
9.2188272955
 30
0.0
 10
11.4310974541
 20
9.2281335727
 30
0.0
 10
11.4340610883
 20
9.2356618114
 30
0.0
 10
11.4367656044
 20
9.2415161551
 30
0.0
 10
11.4396842212
 20
9.2472432387
 30
0.0
 10
11.443736622
 20
9.2541704072
 30
0.0
 10
11.4483101804
 20
9.2607540746
 30
0.0
 10
11.4522624443
 20
9.2657864314
 30
0.0
 10
11.4564031889
 20
9.2706545715
 30
0.0
 10
11.4597206902
 20
9.2741202313
 30
0.0
 10
11.4620175256
 20
9.2763387856
 30
0.0
  0
SPLINE
  5
381
100
AcDbEntity
  8
0
100
AcDbSpline
 62
7
  6
CONTINUOUS
 70
0
 71
3
 72
15
 73
11
 74
0
 42
0.0000001
 43
0.0000001
 44
0.0000000001
 40
0.0
 40
0.0
 40
0.0
 40
0.0
 40
0.1233171152
 40
0.2468171801
 40
0.3706749982
 40
0.4950495769
 40
0.6200773723
 40
0.7458670578
 40
0.8724927841
 40
1.0
 40
1.0
 40
1.0
 40
1.0
 10
11.657239851
 20
7.0226001991
 30
0.0
 10
11.6540870198
 20
7.0195548232
 30
0.0
 10
11.6474429622
 20
7.0137945457
 30
0.0
 10
11.6365992647
 20
7.0062674062
 30
0.0
 10
11.6249798855
 20
6.9999221455
 30
0.0
 10
11.612703784
 20
6.9948239244
 30
0.0
 10
11.5998947643
 20
6.991023421
 30
0.0
 10
11.5866818564
 20
6.9885586201
 30
0.0
 10
11.5731999406
 20
6.9874534945
 30
0.0
 10
11.5641502232
 20
6.9876300129
 30
0.0
 10
11.5596286883
 20
6.9879435824
 30
0.0
  0
SPLINE
  5
382
100
AcDbEntity
  8
0
100
AcDbSpline
 62
7
  6
CONTINUOUS
 70
0
 71
3
 72
41
 73
37
 74
0
 42
0.0000001
 43
0.0000001
 44
0.0000000001
 40
0.0
 40
0.0
 40
0.0
 40
0.0
 40
0.0311443777
 40
0.0624425595
 40
0.0938872477
 40
0.1254696093
 40
0.1571771289
 40
0.1889951561
 40
0.2209067114
 40
0.2528930218
 40
0.2849338418
 40
0.3170078727
 40
0.349093173
 40
0.3811675842
 40
0.4132091572
 40
0.4451965775
 40
0.4771095803
 40
0.5089293526
 40
0.5406389143
 40
0.5722234721
 40
0.6036707398
 40
0.6349712184
 40
0.6661184287
 40
0.6971090895
 40
0.7279432343
 40
0.7586242609
 40
0.7891589086
 40
0.8195571576
 40
0.8498320512
 40
0.8649308888
 40
0.8800050477
 40
0.9100832517
 40
0.9400926686
 40
0.9550812681
 40
0.9700610312
 40
1.0
 40
1.0
 40
1.0
 40
1.0
 10
9.8093710963
 20
7.1093243586
 30
0.0
 10
9.8060571424
 20
7.1095541821
 30
0.0
 10
9.7994272274
 20
7.1102575486
 30
0.0
 10
9.7895627521
 20
7.1120292817
 30
0.0
 10
9.7798039107
 20
7.1145110316
 30
0.0
 10
9.7702034691
 20
7.1176893302
 30
0.0
 10
9.7608123839
 20
7.1215472259
 30
0.0
 10
9.7516807646
 20
7.1260640381
 30
0.0
 10
9.742857254
 20
7.1312156483
 30
0.0
 10
9.734388869
 20
7.1369745423
 30
0.0
 10
9.7263207297
 20
7.1433099938
 30
0.0
 10
9.7186958263
 20
7.1501882122
 30
0.0
 10
9.7115547926
 20
7.1575725268
 30
0.0
 10
9.7049356912
 20
7.1654235786
 30
0.0
 10
9.698873813
 20
7.1736995286
 30
0.0
 10
9.6934014903
 20
7.1823562779
 30
0.0
 10
9.6885479265
 20
7.1913477009
 30
0.0
 10
9.6843390397
 20
7.2006258868
 30
0.0
 10
9.6807973253
 20
7.2101413929
 30
0.0
 10
9.6779417369
 20
7.2198435046
 30
0.0
 10
9.6757875842
 20
7.2296805025
 30
0.0
 10
9.6743464498
 20
7.2395999337
 30
0.0
 10
9.6736261254
 20
7.2495488887
 30
0.0
 10
9.6736305655
 20
7.2594742773
 30
0.0
 10
9.6743598665
 20
7.2693231193
 30
0.0
 10
9.6758102431
 20
7.2790427862
 30
0.0
 10
9.6779741092
 20
7.2885814252
 30
0.0
 10
9.6808398621
 20
7.2978877023
 30
0.0
 10
9.6838034963
 20
7.305415941
 30
0.0
 10
9.6865080124
 20
7.3112702847
 30
0.0
 10
9.6894266292
 20
7.3169973684
 30
0.0
 10
9.69347903
 20
7.3239245368
 30
0.0
 10
9.6980525884
 20
7.3305082042
 30
0.0
 10
9.7020048523
 20
7.335540561
 30
0.0
 10
9.7061455969
 20
7.3404087012
 30
0.0
 10
9.7094630982
 20
7.3438743609
 30
0.0
 10
9.7117599335
 20
7.3460929152
 30
0.0
  0
SPLINE
  5
383
100
AcDbEntity
  8
0
100
AcDbSpline
 62
7
  6
CONTINUOUS
 70
0
 71
3
 72
40
 73
36
 74
0
 42
0.0000001
 43
0.0000001
 44
0.0000000001
 40
0.0
 40
0.0
 40
0.0
 40
0.0
 40
0.0299503828
 40
0.0599781752
 40
0.0900993207
 40
0.1203278753
 40
0.1354885494
 40
0.1506803602
 40
0.1811572634
 40
0.21177039
 40
0.2425244593
 40
0.2734216466
 40
0.3044615874
 40
0.3356414198
 40
0.366955864
 40
0.3983973329
 40
0.4299560745
 40
0.4616203408
 40
0.4933765825
 40
0.5252096673
 40
0.5571031193
 40
0.5890393787
 40
0.6210000802
 40
0.6529663459
 40
0.6849190936
 40
0.7168393543
 40
0.7487085972
 40
0.7805090589
 40
0.8122240664
 40
0.8438383637
 40
0.8753383895
 40
0.9067126381
 40
0.9379516986
 40
0.9690490003
 40
1.0
 40
1.0
 40
1.0
 40
1.0
 10
10.8563735254
 20
8.4286950207
 30
0.0
 10
10.8526783876
 20
8.4264419232
 30
0.0
 10
10.8451131405
 20
8.4221951172
 30
0.0
 10
10.8333240236
 20
8.4166454872
 30
0.0
 10
10.8211331657
 20
8.4119316378
 30
0.0
 10
10.8106951342
 20
8.4087197269
 30
0.0
 10
10.8022036208
 20
8.4065856879
 30
0.0
 10
10.7936080092
 20
8.4047403238
 30
0.0
 10
10.7827158215
 20
8.4029875357
 30
0.0
 10
10.769489189
 20
8.4017799954
 30
0.0
 10
10.7561502488
 20
8.4014703414
 30
0.0
 10
10.7427592284
 20
8.4020596198
 30
0.0
 10
10.7293760141
 20
8.403544965
 30
0.0
 10
10.7160605807
 20
8.4059197748
 30
0.0
 10
10.7028726176
 20
8.4091736873
 30
0.0
 10
10.6898713697
 20
8.4132926146
 30
0.0
 10
10.677115417
 20
8.4182587677
 30
0.0
 10
10.6646624648
 20
8.4240506899
 30
0.0
 10
10.6525691234
 20
8.4306432964
 30
0.0
 10
10.6408906821
 20
8.4380079237
 30
0.0
 10
10.6296808753
 20
8.4461123901
 30
0.0
 10
10.618991642
 20
8.4549210716
 30
0.0
 10
10.6088728782
 20
8.4643949931
 30
0.0
 10
10.5993721844
 20
8.4744919397
 30
0.0
 10
10.5905346101
 20
8.4851665894
 30
0.0
 10
10.582402397
 20
8.496370669
 30
0.0
 10
10.575014725
 20
8.5080531351
 30
0.0
 10
10.5684074641
 20
8.5201603813
 30
0.0
 10
10.562612933
 20
8.5326364731
 30
0.0
 10
10.5576596822
 20
8.5454234003
 30
0.0
 10
10.553572267
 20
8.558461391
 30
0.0
 10
10.5503711058
 20
8.571689108
 30
0.0
 10
10.548072238
 20
8.5850443821
 30
0.0
 10
10.5466873297
 20
8.5984631214
 30
0.0
 10
10.5463773111
 20
8.6074321705
 30
0.0
 10
10.5463773111
 20
8.6119046349
 30
0.0
  0
SPLINE
  5
384
100
AcDbEntity
  8
0
100
AcDbSpline
 62
7
  6
CONTINUOUS
 70
0
 71
3
 72
39
 73
35
 74
0
 42
0.0000001
 43
0.0000001
 44
0.0000000001
 40
0.0
 40
0.0
 40
0.0
 40
0.0
 40
0.0958316688
 40
0.1891006705
 40
0.2792405767
 40
0.3229673483
 40
0.3657111495
 40
0.4074093993
 40
0.4480020282
 40
0.4874317158
 40
0.5256439104
 40
0.562587298
 40
0.5982141002
 40
0.6324801996
 40
0.6653458035
 40
0.696775823
 40
0.726740271
 40
0.7552152757
 40
0.7821837636
 40
0.8076364714
 40
0.8315736871
 40
0.8540068174
 40
0.874960774
 40
0.8944773415
 40
0.9126188285
 40
0.9294730659
 40
0.9451592976
 40
0.9598338074
 40
0.9668558258
 40
0.9737028593
 40
0.9804062749
 40
0.9869996857
 40
0.9935186317
 40
1.0
 40
1.0
 40
1.0
 40
1.0
 10
9.9033432024
 20
9.7175092846
 30
0.0
 10
9.8935758989
 20
9.7181866494
 30
0.0
 10
9.8743165415
 20
9.7197380803
 30
0.0
 10
9.8459391153
 20
9.722699598
 30
0.0
 10
9.8229235649
 20
9.7256864031
 30
0.0
 10
9.8050808706
 20
9.7283750533
 30
0.0
 10
9.7921609936
 20
9.7305095035
 30
0.0
 10
9.7795893279
 20
9.7327786698
 30
0.0
 10
9.7673868553
 20
9.7351787714
 30
0.0
 10
9.7555739509
 20
9.7377057396
 30
0.0
 10
9.7441703322
 20
9.7403553495
 30
0.0
 10
9.7331950194
 20
9.7431231435
 30
0.0
 10
9.7226662987
 20
9.7460044439
 30
0.0
 10
9.7126017044
 20
9.7489944363
 30
0.0
 10
9.7030179658
 20
9.7520880875
 30
0.0
 10
9.6939309792
 20
9.755280187
 30
0.0
 10
9.6853557948
 20
9.7585654255
 30
0.0
 10
9.67730655
 20
9.7619383001
 30
0.0
 10
9.669796454
 20
9.7653932007
 30
0.0
 10
9.6628377788
 20
9.7689244849
 30
0.0
 10
9.6564417758
 20
9.772526392
 30
0.0
 10
9.6506186932
 20
9.7761932044
 30
0.0
 10
9.6453777974
 20
9.7799193324
 30
0.0
 10
9.6407273116
 20
9.7836993215
 30
0.0
 10
9.6366746353
 20
9.787528016
 30
0.0
 10
9.6332264651
 20
9.7914009713
 30
0.0
 10
9.6303894624
 20
9.795313226
 30
0.0
 10
9.6285129413
 20
9.7986520956
 30
0.0
 10
9.627343206
 20
9.8013255523
 30
0.0
 10
9.6266349972
 20
9.8033063654
 30
0.0
 10
9.626083617
 20
9.8052910745
 30
0.0
 10
9.6256894848
 20
9.8072788814
 30
0.0
 10
9.6254529062
 20
9.8092686212
 30
0.0
 10
9.6254002649
 20
9.8105974072
 30
0.0
 10
9.6254002695
 20
9.8112595844
 30
0.0
  0
SPLINE
  5
385
100
AcDbEntity
  8
0
100
AcDbSpline
 62
7
  6
CONTINUOUS
 70
0
 71
3
 72
40
 73
36
 74
0
 42
0.0000001
 43
0.0000001
 44
0.0000000001
 40
0.0
 40
0.0
 40
0.0
 40
0.0
 40
0.029970057
 40
0.0600246656
 40
0.0901780769
 40
0.1204426315
 40
0.135622057
 40
0.150832928
 40
0.1813483463
 40
0.2119989885
 40
0.2427882811
 40
0.2737173015
 40
0.3047847993
 40
0.3359872465
 40
0.3673189162
 40
0.398771985
 40
0.4303366598
 40
0.4620013262
 40
0.4937527182
 40
0.5255761094
 40
0.5574555232
 40
0.5893739642
 40
0.621313668
 40
0.6532563691
 40
0.6851835866
 40
0.7170769226
 40
0.7489183734
 40
0.7806906474
 40
0.8123774831
 40
0.8439639709
 40
0.8754368401
 40
0.9067847948
 40
0.9379986364
 40
0.9690718178
 40
1.0
 40
1.0
 40
1.0
 40
1.0
 10
11.4331681482
 20
7.9795853083
 30
0.0
 10
11.4291345149
 20
7.9773464238
 30
0.0
 10
11.420895064
 20
7.9731454323
 30
0.0
 10
11.4081089385
 20
7.9677140169
 30
0.0
 10
11.3949348003
 20
7.9631647833
 30
0.0
 10
11.3836914691
 20
7.960126679
 30
0.0
 10
11.3745643403
 20
7.9581524343
 30
0.0
 10
11.3653377226
 20
7.9564807124
 30
0.0
 10
11.3536687465
 20
7.9549700343
 30
0.0
 10
11.3395311747
 20
7.9540903245
 30
0.0
 10
11.3253025305
 20
7.9541443582
 30
0.0
 10
11.311043974
 20
7.9551315049
 30
0.0
 10
11.2968162189
 20
7.957047429
 30
0.0
 10
11.2826800164
 20
7.9598842304
 30
0.0
 10
11.2686958191
 20
7.9636304213
 30
0.0
 10
11.2549236614
 20
7.9682709408
 30
0.0
 10
11.241422973
 20
7.9737871557
 30
0.0
 10
11.2282523985
 20
7.9801568651
 30
0.0
 10
11.2154696008
 20
7.9873543058
 30
0.0
 10
11.2031310521
 20
7.9953501643
 30
0.0
 10
11.191291809
 20
8.0041115977
 30
0.0
 10
11.1800052731
 20
8.0136022677
 30
0.0
 10
11.169322937
 20
8.0237823926
 30
0.0
 10
11.1592941158
 20
8.0346088191
 30
0.0
 10
11.1499656682
 20
8.0460351208
 30
0.0
 10
11.141381709
 20
8.0580117241
 30
0.0
 10
11.1335833166
 20
8.070486067
 30
0.0
 10
11.1266082427
 20
8.0834027902
 30
0.0
 10
11.1204906242
 20
8.0967039671
 30
0.0
 10
11.1152607155
 20
8.1103293592
 30
0.0
 10
11.1109446194
 20
8.1242167444
 30
0.0
 10
11.1075640857
 20
8.1383021353
 30
0.0
 10
11.105136255
 20
8.1525205501
 30
0.0
 10
11.1036735841
 20
8.1668049207
 30
0.0
 10
11.1033461658
 20
8.1763519913
 30
0.0
 10
11.1033461658
 20
8.1811128054
 30
0.0
  0
SPLINE
  5
386
100
AcDbEntity
  8
0
100
AcDbSpline
 62
7
  6
CONTINUOUS
 70
0
 71
3
 72
18
 73
14
 74
0
 42
0.0000001
 43
0.0000001
 44
0.0000000001
 40
0.0
 40
0.0
 40
0.0
 40
0.0
 40
0.0548627003
 40
0.1099292984
 40
0.1654013502
 40
0.22147558
 40
0.3361333207
 40
0.4553633897
 40
0.5171049197
 40
0.5804365965
 40
0.7123310206
 40
0.851957275
 40
1.0
 40
1.0
 40
1.0
 40
1.0
 10
10.510156201
 20
10.9339119847
 30
0.0
 10
10.510156198
 20
10.9346746215
 30
0.0
 10
10.5102045916
 20
10.9362031698
 30
0.0
 10
10.5104221928
 20
10.9384934951
 30
0.0
 10
10.5107848477
 20
10.940782547
 30
0.0
 10
10.5114663209
 20
10.9438539414
 30
0.0
 10
10.5126940069
 20
10.9477034649
 30
0.0
 10
10.514375475
 20
10.9514621043
 30
0.0
 10
10.5159934368
 20
10.9544492015
 30
0.0
 10
10.5178460713
 20
10.9575047558
 30
0.0
 10
10.5205361438
 20
10.9613115444
 30
0.0
 10
10.5242865981
 20
10.965785125
 30
0.0
 10
10.5270760468
 20
10.9686556406
 30
0.0
 10
10.5285562123
 20
10.9700853707
 30
0.0
  0
SPLINE
  5
387
100
AcDbEntity
  8
0
100
AcDbSpline
 62
7
  6
CONTINUOUS
 70
0
 71
3
 72
11
 73
7
 74
0
 42
0.0000001
 43
0.0000001
 44
0.0000000001
 40
0.0
 40
0.0
 40
0.0
 40
0.0
 40
0.2271557975
 40
0.4680705325
 40
0.7250829483
 40
1.0
 40
1.0
 40
1.0
 40
1.0
 10
10.5134667774
 20
10.9184549362
 30
0.0
 10
10.5142378938
 20
10.9202489947
 30
0.0
 10
10.5160649554
 20
10.9238466918
 30
0.0
 10
10.5194960901
 20
10.9290634082
 30
0.0
 10
10.5236808828
 20
10.9342355586
 30
0.0
 10
10.5268563683
 20
10.9375338176
 30
0.0
 10
10.5285562123
 20
10.9391757409
 30
0.0
  0
SPLINE
  5
388
100
AcDbEntity
  8
0
100
AcDbSpline
 62
7
  6
CONTINUOUS
 70
0
 71
3
 72
39
 73
35
 74
0
 42
0.0000001
 43
0.0000001
 44
0.0000000001
 40
0.0
 40
0.0
 40
0.0
 40
0.0
 40
0.0071758079
 40
0.0146741357
 40
0.022503624
 40
0.030671441
 40
0.0391835297
 40
0.0480445027
 40
0.0572573755
 40
0.0668240442
 40
0.0767454363
 40
0.0870215068
 40
0.1086328144
 40
0.1316444976
 40
0.1560319006
 40
0.1817621503
 40
0.2087952904
 40
0.2370851496
 40
0.2665801077
 40
0.2972237102
 40
0.3289551658
 40
0.3617097536
 40
0.3954191975
 40
0.4300120549
 40
0.4654140374
 40
0.501548304
 40
0.5383357251
 40
0.5756951818
 40
0.6135438486
 40
0.6903688691
 40
0.7681254643
 40
0.846115686
 40
0.9236386402
 40
1.0
 40
1.0
 40
1.0
 40
1.0
 10
11.9322520313
 20
9.6772848377
 30
0.0
 10
11.9314403334
 20
9.6765007977
 30
0.0
 10
11.9297400878
 20
9.6749388541
 30
0.0
 10
11.9270283707
 20
9.672663108
 30
0.0
 10
11.9241019642
 20
9.6704054046
 30
0.0
 10
11.9209627713
 20
9.6681672272
 30
0.0
 10
11.9176126499
 20
9.6659497774
 30
0.0
 10
11.9140535143
 20
9.663754366
 30
0.0
 10
11.9102874787
 20
9.661582212
 30
0.0
 10
11.9063167737
 20
9.6594346356
 30
0.0
 10
11.9021437528
 20
9.6573129146
 30
0.0
 10
11.8962132733
 20
9.6544722637
 30
0.0
 10
11.888303125
 20
9.6510051291
 30
0.0
 10
11.8782000424
 20
9.6470342918
 30
0.0
 10
11.8673564512
 20
9.6431957309
 30
0.0
 10
11.8557982585
 20
9.6394987069
 30
0.0
 10
11.8435529205
 20
9.6359521713
 30
0.0
 10
11.8306497078
 20
9.6325647145
 30
0.0
 10
11.8171195087
 20
9.629344552
 30
0.0
 10
11.8029947629
 20
9.6262994997
 30
0.0
 10
11.7883093676
 20
9.6234369532
 30
0.0
 10
11.7730986001
 20
9.6207638623
 30
0.0
 10
11.757399027
 20
9.6182867045
 30
0.0
 10
11.7412484048
 20
9.6160114869
 30
0.0
 10
11.7246855834
 20
9.6139437278
 30
0.0
 10
11.707750412
 20
9.6120884444
 30
0.0
 10
11.6904836591
 20
9.6104501366
 30
0.0
 10
11.6729268558
 20
9.609032741
 30
0.0
 10
11.6490697556
 20
9.6074342556
 30
0.0
 10
11.6188359832
 20
9.6060171203
 30
0.0
 10
11.5822641623
 20
9.6052444483
 30
0.0
 10
11.5455745501
 20
9.6053991486
 30
0.0
 10
11.5091203037
 20
9.6064796459
 30
0.0
 10
11.4849532032
 20
9.6078242585
 30
0.0
 10
11.4729727631
 20
9.6086551048
 30
0.0
  0
SPLINE
  5
389
100
AcDbEntity
  8
0
100
AcDbSpline
 62
7
  6
CONTINUOUS
 70
0
 71
3
 72
18
 73
14
 74
0
 42
0.0000001
 43
0.0000001
 44
0.0000000001
 40
0.0
 40
0.0
 40
0.0
 40
0.0
 40
0.0548040346
 40
0.1098446758
 40
0.1653178532
 40
0.2214144058
 40
0.336158769
 40
0.4554916953
 40
0.5172773583
 40
0.580642835
 40
0.7125594465
 40
0.852124038
 40
1.0
 40
1.0
 40
1.0
 40
1.0
 10
10.5231587108
 20
10.9034233002
 30
0.0
 10
10.5231674783
 20
10.9041590473
 30
0.0
 10
10.523231217
 20
10.9056335812
 30
0.0
 10
10.5234649689
 20
10.9078421414
 30
0.0
 10
10.5238369401
 20
10.9100493782
 30
0.0
 10
10.5245218133
 20
10.9130112838
 30
0.0
 10
10.5257361172
 20
10.9167227689
 30
0.0
 10
10.5273816934
 20
10.9203464761
 30
0.0
 10
10.5289581755
 20
10.923226762
 30
0.0
 10
10.530758855
 20
10.9261725791
 30
0.0
 10
10.5333661097
 20
10.9298425842
 30
0.0
 10
10.5369922933
 20
10.9341563339
 30
0.0
 10
10.5396852524
 20
10.9369255689
 30
0.0
 10
10.5411132488
 20
10.9383049075
 30
0.0
  0
SPLINE
  5
38A
100
AcDbEntity
  8
0
100
AcDbSpline
 62
7
  6
CONTINUOUS
 70
0
 71
3
 72
15
 73
11
 74
0
 42
0.0000001
 43
0.0000001
 44
0.0000000001
 40
0.0
 40
0.0
 40
0.0
 40
0.0
 40
0.1096692286
 40
0.2222500573
 40
0.3385892297
 40
0.4594438762
 40
0.5854806906
 40
0.7172772955
 40
0.8553201665
 40
1.0
 40
1.0
 40
1.0
 40
1.0
 10
10.5343604459
 20
10.8924142905
 30
0.0
 10
10.5345983017
 20
10.8935919357
 30
0.0
 10
10.5351985163
 20
10.8959560988
 30
0.0
 10
10.5364446122
 20
10.8994548813
 30
0.0
 10
10.5380443837
 20
10.9029418836
 30
0.0
 10
10.5399959053
 20
10.9064143469
 30
0.0
 10
10.54229738
 20
10.9098702728
 30
0.0
 10
10.5449468653
 20
10.9133076844
 30
0.0
 10
10.5479421516
 20
10.9167243215
 30
0.0
 10
10.5501154761
 20
10.9189335485
 30
0.0
 10
10.5512554705
 20
10.9200346986
 30
0.0
  0
SPLINE
  5
38B
100
AcDbEntity
  8
0
100
AcDbSpline
 62
7
  6
CONTINUOUS
 70
0
 71
3
 72
41
 73
37
 74
0
 42
0.0000001
 43
0.0000001
 44
0.0000000001
 40
0.0
 40
0.0
 40
0.0
 40
0.0
 40
0.0311443777
 40
0.0624425595
 40
0.0938872477
 40
0.1254696093
 40
0.1571771289
 40
0.1889951561
 40
0.2209067114
 40
0.2528930218
 40
0.2849338418
 40
0.3170078727
 40
0.349093173
 40
0.3811675842
 40
0.4132091572
 40
0.4451965775
 40
0.4771095803
 40
0.5089293526
 40
0.5406389143
 40
0.5722234721
 40
0.6036707398
 40
0.6349712184
 40
0.6661184287
 40
0.6971090895
 40
0.7279432343
 40
0.7586242609
 40
0.7891589086
 40
0.8195571576
 40
0.8498320512
 40
0.8649308888
 40
0.8800050477
 40
0.9100832517
 40
0.9400926686
 40
0.9550812681
 40
0.9700610312
 40
1.0
 40
1.0
 40
1.0
 40
1.0
 10
9.8093710963
 20
9.1609510053
 30
0.0
 10
9.8060571424
 20
9.1611808287
 30
0.0
 10
9.7994272274
 20
9.1618841952
 30
0.0
 10
9.7895627521
 20
9.1636559283
 30
0.0
 10
9.7798039107
 20
9.1661376782
 30
0.0
 10
9.7702034691
 20
9.1693159768
 30
0.0
 10
9.7608123839
 20
9.1731738725
 30
0.0
 10
9.7516807646
 20
9.1776906847
 30
0.0
 10
9.742857254
 20
9.1828422949
 30
0.0
 10
9.734388869
 20
9.1886011889
 30
0.0
 10
9.7263207297
 20
9.1949366404
 30
0.0
 10
9.7186958263
 20
9.2018148588
 30
0.0
 10
9.7115547926
 20
9.2091991734
 30
0.0
 10
9.7049356912
 20
9.2170502252
 30
0.0
 10
9.698873813
 20
9.2253261752
 30
0.0
 10
9.6934014903
 20
9.2339829245
 30
0.0
 10
9.6885479265
 20
9.2429743475
 30
0.0
 10
9.6843390397
 20
9.2522525334
 30
0.0
 10
9.6807973253
 20
9.2617680395
 30
0.0
 10
9.6779417369
 20
9.2714701513
 30
0.0
 10
9.6757875842
 20
9.2813071491
 30
0.0
 10
9.6743464498
 20
9.2912265803
 30
0.0
 10
9.6736261254
 20
9.3011755353
 30
0.0
 10
9.6736305655
 20
9.3111009239
 30
0.0
 10
9.6743598665
 20
9.3209497659
 30
0.0
 10
9.6758102431
 20
9.3306694328
 30
0.0
 10
9.6779741092
 20
9.3402080718
 30
0.0
 10
9.6808398621
 20
9.3495143489
 30
0.0
 10
9.6838034963
 20
9.3570425876
 30
0.0
 10
9.6865080124
 20
9.3628969314
 30
0.0
 10
9.6894266292
 20
9.368624015
 30
0.0
 10
9.69347903
 20
9.3755511834
 30
0.0
 10
9.6980525884
 20
9.3821348508
 30
0.0
 10
9.7020048523
 20
9.3871672076
 30
0.0
 10
9.7061455969
 20
9.3920353478
 30
0.0
 10
9.7094630982
 20
9.3955010075
 30
0.0
 10
9.7117599335
 20
9.3977195618
 30
0.0
  0
SPLINE
  5
38C
100
AcDbEntity
  8
0
100
AcDbSpline
 62
7
  6
CONTINUOUS
 70
0
 71
3
 72
78
 73
74
 74
0
 42
0.0000001
 43
0.0000001
 44
0.0000000001
 40
0.0
 40
0.0
 40
0.0
 40
0.0
 40
0.0030029392
 40
0.0061025005
 40
0.0093103854
 40
0.012636963
 40
0.0160913489
 40
0.019681417
 40
0.0234139787
 40
0.0272948353
 40
0.0313288613
 40
0.0355201739
 40
0.03987212
 40
0.0443874213
 40
0.0490682494
 40
0.053916208
 40
0.0589324926
 40
0.0641178621
 40
0.0749964261
 40
0.086551827
 40
0.0987787527
 40
0.1116680702
 40
0.1252073806
 40
0.1393814671
 40
0.1541726326
 40
0.1695609507
 40
0.1855244961
 40
0.202039559
 40
0.2190808072
 40
0.2366214142
 40
0.2546331855
 40
0.2730866983
 40
0.2919514087
 40
0.311195743
 40
0.3307871889
 40
0.3506924076
 40
0.3708773231
 40
0.3913072026
 40
0.4327594435
 40
0.4747621794
 40
0.5170227074
 40
0.5592460036
 40
0.6011373744
 40
0.6424051308
 40
0.6627158476
 40
0.6827640129
 40
0.702515211
 40
0.7219357179
 40
0.7409926045
 40
0.7596538295
 40
0.7778883222
 40
0.795666079
 40
0.8129582861
 40
0.8297374372
 40
0.8459774386
 40
0.8616537427
 40
0.8767435187
 40
0.8912258412
 40
0.9050818748
 40
0.9182951186
 40
0.9308517274
 40
0.9427409118
 40
0.9539553828
 40
0.9593087429
 40
0.9644926585
 40
0.9695074905
 40
0.9743540133
 40
0.9790333742
 40
0.9835472104
 40
0.9878977831
 40
0.9920878639
 40
0.9961206752
 40
1.0
 40
1.0
 40
1.0
 40
1.0
 10
11.5868602341
 20
10.9184208609
 30
0.0
 10
11.5864243256
 20
10.9194373174
 30
0.0
 10
11.5854632645
 20
10.9214714129
 30
0.0
 10
11.5837919299
 20
10.9244681558
 30
0.0
 10
11.5818708247
 20
10.927453951
 30
0.0
 10
11.5797011162
 20
10.9304273287
 30
0.0
 10
11.5772838543
 20
10.9333870555
 30
0.0
 10
11.5746203156
 20
10.9363319294
 30
0.0
 10
11.5717117392
 20
10.9392606723
 30
0.0
 10
11.568559497
 20
10.9421720209
 30
0.0
 10
11.5651650892
 20
10.9450647562
 30
0.0
 10
11.5615300397
 20
10.9479375455
 30
0.0
 10
11.5576560558
 20
10.9507891533
 30
0.0
 10
11.5535449168
 20
10.953618297
 30
0.0
 10
11.5491984938
 20
10.9564236564
 30
0.0
 10
11.5446188235
 20
10.9592040012
 30
0.0
 10
11.5398079896
 20
10.9619580435
 30
0.0
 10
11.5329787618
 20
10.9656524684
 30
0.0
 10
11.5238684051
 20
10.9701850509
 30
0.0
 10
11.5122204687
 20
10.975415595
 30
0.0
 10
11.4997097796
 20
10.9805114968
 30
0.0
 10
11.486359547
 20
10.9854632481
 30
0.0
 10
11.4721943436
 20
10.9902616119
 30
0.0
 10
11.4572404192
 20
10.994897584
 30
0.0
 10
11.4415255252
 20
10.9993624437
 30
0.0
 10
11.4250788984
 20
11.003647791
 30
0.0
 10
11.4079311844
 20
11.007745568
 30
0.0
 10
11.3901143626
 20
11.0116480586
 30
0.0
 10
11.3716616807
 20
11.0153479081
 30
0.0
 10
11.3526075991
 20
11.018838148
 30
0.0
 10
11.3329877236
 20
11.0221122179
 30
0.0
 10
11.3128387261
 20
11.025163956
 30
0.0
 10
11.292198272
 20
11.0279876148
 30
0.0
 10
11.271104958
 20
11.0305778769
 30
0.0
 10
11.2495982356
 20
11.0329298814
 30
0.0
 10
11.2277183445
 20
11.0350391993
 30
0.0
 10
11.2055061789
 20
11.0369018869
 30
0.0
 10
11.1753575451
 20
11.0390622051
 30
0.0
 10
11.1371480308
 20
11.0411153515
 30
0.0
 10
11.0908650808
 20
11.0425413578
 30
0.0
 10
11.0442777439
 20
11.0429302959
 30
0.0
 10
10.9977343406
 20
11.0422792762
 30
0.0
 10
10.9515828639
 20
11.0405931725
 30
0.0
 10
10.9135386008
 20
11.0383245535
 30
0.0
 10
10.8835653547
 20
11.0359935705
 30
0.0
 10
10.8615155879
 20
11.0340060293
 30
0.0
 10
10.8398188189
 20
11.0317738044
 30
0.0
 10
10.8185156036
 20
11.0293010577
 30
0.0
 10
10.7976457967
 20
11.0265924489
 30
0.0
 10
10.7772484213
 20
11.0236530782
 30
0.0
 10
10.7573616169
 20
11.0204884763
 30
0.0
 10
10.7380225627
 20
11.0171045904
 30
0.0
 10
10.7192673993
 20
11.0135077892
 30
0.0
 10
10.7011311559
 20
11.0097048521
 30
0.0
 10
10.6836476918
 20
11.00570294
 30
0.0
 10
10.6668496323
 20
11.0015095811
 30
0.0
 10
10.6507682908
 20
10.9971326664
 30
0.0
 10
10.6354336008
 20
10.9925804435
 30
0.0
 10
10.6208740556
 20
10.9878614734
 30
0.0
 10
10.60711668
 20
10.9829846138
 30
0.0
 10
10.5941868486
 20
10.9779589841
 30
0.0
 10
10.5821085742
 20
10.9727939898
 30
0.0
 10
10.5726297204
 20
10.9683149418
 30
0.0
 10
10.5654996911
 20
10.964661077
 30
0.0
 10
10.5604618881
 20
10.9619343851
 30
0.0
 10
10.5556530492
 20
10.9591801117
 30
0.0
 10
10.5510753785
 20
10.956399555
 30
0.0
 10
10.5467309986
 20
10.9535939985
 30
0.0
 10
10.5426219093
 20
10.9507646698
 30
0.0
 10
10.5387499382
 20
10.947912864
 30
0.0
 10
10.5351168864
 20
10.9450397827
 30
0.0
 10
10.5317246003
 20
10.9421469237
 30
0.0
 10
10.5295838523
 20
10.940168365
 30
0.0
 10
10.5285562123
 20
10.9391757409
 30
0.0
  0
SPLINE
  5
38D
100
AcDbEntity
  8
0
100
AcDbSpline
 62
7
  6
CONTINUOUS
 70
0
 71
3
 72
82
 73
78
 74
0
 42
0.0000001
 43
0.0000001
 44
0.0000000001
 40
0.0
 40
0.0
 40
0.0
 40
0.0
 40
0.0028076193
 40
0.0056373311
 40
0.0085082354
 40
0.0114385563
 40
0.0144453174
 40
0.017544125
 40
0.0207490904
 40
0.0240727349
 40
0.0275260895
 40
0.0311187388
 40
0.0348589089
 40
0.0387536552
 40
0.042808884
 40
0.0470295522
 40
0.0514197453
 40
0.0559827339
 40
0.0607211558
 40
0.0656369805
 40
0.0707316554
 40
0.0760061533
 40
0.0814609585
 40
0.0870962204
 40
0.0989062054
 40
0.11143111
 40
0.1246608512
 40
0.1385816058
 40
0.1531763293
 40
0.1684251543
 40
0.184305706
 40
0.2007933505
 40
0.2178614341
 40
0.2354814795
 40
0.2536233514
 40
0.2722553976
 40
0.2913445814
 40
0.3108566235
 40
0.330756122
 40
0.3510066635
 40
0.371570925
 40
0.3924107854
 40
0.4134874367
 40
0.4561922817
 40
0.4993658362
 40
0.542683089
 40
0.5858176299
 40
0.6284448318
 40
0.6494684019
 40
0.6702458349
 40
0.6907384819
 40
0.7109084089
 40
0.7307184997
 40
0.7501325624
 40
0.769115453
 40
0.7876331872
 40
0.805653054
 40
0.8231437431
 40
0.8400754896
 40
0.8564202431
 40
0.8721518261
 40
0.8872461268
 40
0.9016813289
 40
0.9154382011
 40
0.9285004414
 40
0.9408550839
 40
0.9524930259
 40
0.9580419439
 40
0.9634104495
 40
0.9685988244
 40
0.9736077869
 40
0.9784385048
 40
0.9830926486
 40
0.9875726072
 40
0.9918813702
 40
0.9960224538
 40
1.0
 40
1.0
 40
1.0
 40
1.0
 10
11.5771540528
 20
10.9033898427
 30
0.0
 10
11.5771428344
 20
10.9044130686
 30
0.0
 10
11.5770307243
 20
10.9064676888
 30
0.0
 10
11.5765948465
 20
10.9095415065
 30
0.0
 10
11.575891556
 20
10.9126113375
 30
0.0
 10
11.5749214754
 20
10.9156750318
 30
0.0
 10
11.5736854875
 20
10.9187309742
 30
0.0
 10
11.5721846335
 20
10.9217776036
 30
0.0
 10
11.5704198978
 20
10.9248134076
 30
0.0
 10
11.5683925084
 20
10.9278370351
 30
0.0
 10
11.5661036205
 20
10.9308470947
 30
0.0
 10
11.5635545056
 20
10.9338422279
 30
0.0
 10
11.56074656
 20
10.9368211319
 30
0.0
 10
11.5576811689
 20
10.9397823832
 30
0.0
 10
11.5543599329
 20
10.9427246695
 30
0.0
 10
11.5507844904
 20
10.9456465873
 30
0.0
 10
11.5469566093
 20
10.9485467269
 30
0.0
 10
11.5428782206
 20
10.9514237456
 30
0.0
 10
11.5385513109
 20
10.9542761812
 30
0.0
 10
11.5339780573
 20
10.9571026816
 30
0.0
 10
11.5291607271
 20
10.9599018439
 30
0.0
 10
11.5241017114
 20
10.9626722417
 30
0.0
 10
11.5188035496
 20
10.965412579
 30
0.0
 10
11.5113063701
 20
10.9690817986
 30
0.0
 10
11.5013455066
 20
10.973572311
 30
0.0
 10
11.4886636517
 20
10.9787383826
 30
0.0
 10
11.4750978875
 20
10.9837525433
 30
0.0
 10
11.4606754257
 20
10.9886046553
 30
0.0
 10
11.445425012
 20
10.9932849001
 30
0.0
 10
11.4293772077
 20
10.9977837758
 30
0.0
 10
11.4125642167
 20
11.002092136
 30
0.0
 10
11.3950198452
 20
11.0062012297
 30
0.0
 10
11.3767794077
 20
11.0101027051
 30
0.0
 10
11.3578796448
 20
11.01378863
 30
0.0
 10
11.3383586457
 20
11.0172515076
 30
0.0
 10
11.3182557739
 20
11.0204842967
 30
0.0
 10
11.2976115855
 20
11.0234804352
 30
0.0
 10
11.276467739
 20
11.0262338377
 30
0.0
 10
11.2548669061
 20
11.028738911
 30
0.0
 10
11.2328526846
 20
11.0309905642
 30
0.0
 10
11.2104695286
 20
11.0329842197
 30
0.0
 10
11.1877625958
 20
11.0347158637
 30
0.0
 10
11.1569827152
 20
11.036679068
 30
0.0
 10
11.1180371095
 20
11.0384484028
 30
0.0
 10
11.070956518
 20
11.0394769913
 30
0.0
 10
11.0237079656
 20
11.0394114922
 30
0.0
 10
10.9766729264
 20
11.0382524097
 30
0.0
 10
10.937794302
 20
11.036374797
 30
0.0
 10
10.9070905712
 20
11.0343256519
 30
0.0
 10
10.8844569415
 20
11.0325309763
 30
0.0
 10
10.862157964
 20
11.0304752097
 30
0.0
 10
10.8402386214
 20
11.0281624969
 30
0.0
 10
10.8187431759
 20
11.0255975398
 30
0.0
 10
10.7977150166
 20
11.0227855386
 30
0.0
 10
10.7771965815
 20
11.0197322088
 30
0.0
 10
10.7572292663
 20
11.0164437574
 30
0.0
 10
10.737853346
 20
11.0129268667
 30
0.0
 10
10.7191078927
 20
11.009188682
 30
0.0
 10
10.7010306871
 20
11.0052367966
 30
0.0
 10
10.6836581326
 20
11.0010792516
 30
0.0
 10
10.6670251801
 20
10.9967245016
 30
0.0
 10
10.6511652601
 20
10.9921813978
 30
0.0
 10
10.636110195
 20
10.9874591625
 30
0.0
 10
10.6218901457
 20
10.9825673736
 30
0.0
 10
10.6085334171
 20
10.9775159324
 30
0.0
 10
10.5960667802
 20
10.9723150383
 30
0.0
 10
10.5862904595
 20
10.9677961286
 30
0.0
 10
10.5789441968
 20
10.9641052834
 30
0.0
 10
10.573760124
 20
10.9613503911
 30
0.0
 10
10.5688164373
 20
10.958566046
 30
0.0
 10
10.5641155986
 20
10.9557536253
 30
0.0
 10
10.5596599452
 20
10.9529145679
 30
0.0
 10
10.5554517023
 20
10.9500502008
 30
0.0
 10
10.5514928939
 20
10.947161943
 30
0.0
 10
10.5477854862
 20
10.9442511082
 30
0.0
 10
10.5443315103
 20
10.9413193021
 30
0.0
 10
10.5421559437
 20
10.9393120735
 30
0.0
 10
10.5411132488
 20
10.9383049075
 30
0.0
  0
SPLINE
  5
38E
100
AcDbEntity
  8
0
100
AcDbSpline
 62
7
  6
CONTINUOUS
 70
0
 71
3
 72
41
 73
37
 74
0
 42
0.0000001
 43
0.0000001
 44
0.0000000001
 40
0.0
 40
0.0
 40
0.0
 40
0.0
 40
0.0311443777
 40
0.0624425595
 40
0.0938872477
 40
0.1254696093
 40
0.1571771289
 40
0.1889951561
 40
0.2209067114
 40
0.2528930218
 40
0.2849338418
 40
0.3170078727
 40
0.349093173
 40
0.3811675842
 40
0.4132091572
 40
0.4451965775
 40
0.4771095803
 40
0.5089293526
 40
0.5406389143
 40
0.5722234721
 40
0.6036707398
 40
0.6349712184
 40
0.6661184287
 40
0.6971090895
 40
0.7279432343
 40
0.7586242609
 40
0.7891589086
 40
0.8195571576
 40
0.8498320512
 40
0.8649308888
 40
0.8800050477
 40
0.9100832517
 40
0.9400926686
 40
0.9550812681
 40
0.9700610312
 40
1.0
 40
1.0
 40
1.0
 40
1.0
 10
11.5596286883
 20
6.9879435824
 30
0.0
 10
11.5563147344
 20
6.9881734059
 30
0.0
 10
11.5496848195
 20
6.9888767723
 30
0.0
 10
11.5398203441
 20
6.9906485054
 30
0.0
 10
11.5300615027
 20
6.9931302554
 30
0.0
 10
11.5204610611
 20
6.9963085539
 30
0.0
 10
11.5110699759
 20
7.0001664496
 30
0.0
 10
11.5019383566
 20
7.0046832619
 30
0.0
 10
11.493114846
 20
7.009834872
 30
0.0
 10
11.484646461
 20
7.015593766
 30
0.0
 10
11.4765783217
 20
7.0219292175
 30
0.0
 10
11.4689534183
 20
7.0288074359
 30
0.0
 10
11.4618123846
 20
7.0361917506
 30
0.0
 10
11.4551932833
 20
7.0440428024
 30
0.0
 10
11.449131405
 20
7.0523187523
 30
0.0
 10
11.4436590823
 20
7.0609755016
 30
0.0
 10
11.4388055185
 20
7.0699669246
 30
0.0
 10
11.4345966317
 20
7.0792451105
 30
0.0
 10
11.4310549173
 20
7.0887606166
 30
0.0
 10
11.4281993289
 20
7.0984627284
 30
0.0
 10
11.4260451762
 20
7.1082997263
 30
0.0
 10
11.4246040418
 20
7.1182191574
 30
0.0
 10
11.4238837174
 20
7.1281681124
 30
0.0
 10
11.4238881575
 20
7.138093501
 30
0.0
 10
11.4246174585
 20
7.1479423431
 30
0.0
 10
11.4260678351
 20
7.15766201
 30
0.0
 10
11.4282317012
 20
7.1672006489
 30
0.0
 10
11.4310974541
 20
7.1765069261
 30
0.0
 10
11.4340610883
 20
7.1840351648
 30
0.0
 10
11.4367656044
 20
7.1898895085
 30
0.0
 10
11.4396842212
 20
7.1956165921
 30
0.0
 10
11.443736622
 20
7.2025437606
 30
0.0
 10
11.4483101804
 20
7.209127428
 30
0.0
 10
11.4522624443
 20
7.2141597847
 30
0.0
 10
11.4564031889
 20
7.2190279249
 30
0.0
 10
11.4597206902
 20
7.2224935846
 30
0.0
 10
11.4620175256
 20
7.224712139
 30
0.0
  0
SPLINE
  5
38F
100
AcDbEntity
  8
0
100
AcDbSpline
 62
7
  6
CONTINUOUS
 70
0
 71
3
 72
79
 73
75
 74
0
 42
0.0000001
 43
0.0000001
 44
0.0000000001
 40
0.0
 40
0.0
 40
0.0
 40
0.0
 40
0.0028501657
 40
0.0057616544
 40
0.0087504545
 40
0.0118312083
 40
0.0150171379
 40
0.0183199742
 40
0.0217500671
 40
0.025316408
 40
0.0290267355
 40
0.0328876971
 40
0.0369048661
 40
0.0410829379
 40
0.0454257889
 40
0.0499365338
 40
0.0546176957
 40
0.0594711689
 40
0.0644983525
 40
0.0697002059
 40
0.0806289076
 40
0.0922579358
 40
0.1045821797
 40
0.1175923393
 40
0.1312755623
 40
0.14561593
 40
0.1605948329
 40
0.1761912561
 40
0.1923820336
 40
0.2091420764
 40
0.2264445524
 40
0.244261035
 40
0.2625616331
 40
0.2813151398
 40
0.3004891534
 40
0.3200501851
 40
0.3399637536
 40
0.3601944969
 40
0.3807062785
 40
0.4224243393
 40
0.4648176638
 40
0.5075787632
 40
0.5503966805
 40
0.5929599308
 40
0.6349594137
 40
0.6556529197
 40
0.6760921686
 40
0.6962405101
 40
0.7160620117
 40
0.7355215487
 40
0.7545848986
 40
0.7732188437
 40
0.7913912935
 40
0.8090713972
 40
0.8262296541
 40
0.8428380423
 40
0.8588701745
 40
0.8743014761
 40
0.8891093541
 40
0.9032734128
 40
0.9167757195
 40
0.9296011506
 40
0.9417377829
 40
0.953177383
 40
0.9586347129
 40
0.9639167761
 40
0.9690238914
 40
0.9739568062
 40
0.9787166799
 40
0.9833051676
 40
0.9877246004
 40
0.9919778657
 40
0.9960683414
 40
1.0
 40
1.0
 40
1.0
 40
1.0
 10
11.5659331849
 20
10.8925064814
 30
0.0
 10
11.5657303481
 20
10.8934976343
 30
0.0
 10
11.565236979
 20
10.8954851159
 30
0.0
 10
11.5642512062
 20
10.8984336978
 30
0.0
 10
11.5630139989
 20
10.9013749016
 30
0.0
 10
11.5615263421
 20
10.9043070266
 30
0.0
 10
11.5597891579
 20
10.9072287541
 30
0.0
 10
11.5578035946
 20
10.9101388156
 30
0.0
 10
11.5555707111
 20
10.9130359062
 30
0.0
 10
11.5530917141
 20
10.9159187729
 30
0.0
 10
11.5503678948
 20
10.918786188
 30
0.0
 10
11.5474005503
 20
10.9216368244
 30
0.0
 10
11.5441911788
 20
10.9244694619
 30
0.0
 10
11.540741304
 20
10.9272827856
 30
0.0
 10
11.5370525766
 20
10.9300754858
 30
0.0
 10
11.5331267938
 20
10.9328463104
 30
0.0
 10
11.5289658023
 20
10.9355939
 30
0.0
 10
11.5245716256
 20
10.9383169863
 30
0.0
 10
11.5199463633
 20
10.9410142994
 30
0.0
 10
11.5133654614
 20
10.9446342413
 30
0.0
 10
11.504565144
 20
10.9490745703
 30
0.0
 10
11.49328878
 20
10.9541953704
 30
0.0
 10
11.481150363
 20
10.9591829819
 30
0.0
 10
11.4681733389
 20
10.9640277163
 30
0.0
 10
11.4543825692
 20
10.9687201562
 30
0.0
 10
11.4398046672
 20
10.9732511262
 30
0.0
 10
11.4244678133
 20
10.9776117455
 30
0.0
 10
11.4084017323
 20
10.9817934643
 30
0.0
 10
11.3916376129
 20
10.9857880846
 30
0.0
 10
11.3742080301
 20
10.989587767
 30
0.0
 10
11.3561468745
 20
10.993185051
 30
0.0
 10
11.3374892898
 20
10.9965728717
 30
0.0
 10
11.3182716039
 20
10.9997445903
 30
0.0
 10
11.2985312479
 20
11.0026939871
 30
0.0
 10
11.2783066767
 20
11.0054152763
 30
0.0
 10
11.2576372937
 20
11.0079031171
 30
0.0
 10
11.236563392
 20
11.0101526284
 30
0.0
 10
11.2151260166
 20
11.012159435
 30
0.0
 10
11.1859504553
 20
11.0145194185
 30
0.0
 10
11.1488812356
 20
11.016827321
 30
0.0
 10
11.103876156
 20
11.0185648124
 30
0.0
 10
11.058452598
 20
11.0192716569
 30
0.0
 10
11.0129644336
 20
11.0189423154
 30
0.0
 10
10.9677660368
 20
11.0175793503
 30
0.0
 10
10.9304538541
 20
11.0155816361
 30
0.0
 10
10.9010204588
 20
11.0134672274
 30
0.0
 10
10.8793444114
 20
11.0116398941
 30
0.0
 10
10.8580014407
 20
11.0095669313
 30
0.0
 10
10.8370331148
 20
11.0072523809
 30
0.0
 10
10.8164803092
 20
11.0047007889
 30
0.0
 10
10.7963830768
 20
11.001917155
 30
0.0
 10
10.7767805804
 20
10.9989069306
 30
0.0
 10
10.7577110052
 20
10.9956760214
 30
0.0
 10
10.7392114833
 20
10.9922307709
 30
0.0
 10
10.7213180257
 20
10.9885779391
 30
0.0
 10
10.7040654515
 20
10.9847246901
 30
0.0
 10
10.687487308
 20
10.9806785808
 30
0.0
 10
10.6716157941
 20
10.9764475595
 30
0.0
 10
10.6564817009
 20
10.972039928
 30
0.0
 10
10.6421143416
 20
10.9674643261
 30
0.0
 10
10.6285415083
 20
10.9627297034
 30
0.0
 10
10.6157892841
 20
10.9578453057
 30
0.0
 10
10.603882346
 20
10.9528206551
 30
0.0
 10
10.5945417598
 20
10.948458823
 30
0.0
 10
10.5875196354
 20
10.9448982882
 30
0.0
 10
10.5825614376
 20
10.9422409447
 30
0.0
 10
10.5778310532
 20
10.9395559059
 30
0.0
 10
10.5733307489
 20
10.9368444727
 30
0.0
 10
10.5690626916
 20
10.9341079687
 30
0.0
 10
10.565028935
 20
10.9313476334
 30
0.0
 10
10.5612313501
 20
10.9285647866
 30
0.0
 10
10.5576717669
 20
10.9257606495
 30
0.0
 10
10.5543520694
 20
10.9229367293
 30
0.0
 10
10.5522592491
 20
10.9210042743
 30
0.0
 10
10.5512554705
 20
10.9200346986
 30
0.0
  0
SPLINE
  5
390
100
AcDbEntity
  8
0
100
AcDbSpline
 62
7
  6
CONTINUOUS
 70
0
 71
3
 72
39
 73
35
 74
0
 42
0.0000001
 43
0.0000001
 44
0.0000000001
 40
0.0
 40
0.0
 40
0.0
 40
0.0
 40
0.0243951409
 40
0.0500426235
 40
0.07688474
 40
0.1048579446
 40
0.1338935145
 40
0.1639181152
 40
0.1948543009
 40
0.2266209675
 40
0.2591337719
 40
0.2923055285
 40
0.3260465875
 40
0.3602652029
 40
0.3948678909
 40
0.4297597834
 40
0.4648449767
 40
0.5000268785
 40
0.5352085528
 40
0.5702930644
 40
0.6051838233
 40
0.6397849297
 40
0.6740015209
 40
0.7077401205
 40
0.7409089912
 40
0.7734184942
 40
0.8051814561
 40
0.8361135482
 40
0.8661336826
 40
0.8951644317
 40
0.9231324817
 40
0.9499691327
 40
0.975610865
 40
1.0
 40
1.0
 40
1.0
 40
1.0
 10
11.4447728674
 20
10.8385674078
 30
0.0
 10
11.4385718921
 20
10.8404679319
 30
0.0
 10
11.425789407
 20
10.8441656824
 30
0.0
 10
11.4060020136
 20
10.8493003754
 30
0.0
 10
11.3851651428
 20
10.8541506278
 30
0.0
 10
11.3633402668
 20
10.8587019226
 30
0.0
 10
11.3405915031
 20
10.8629407125
 30
0.0
 10
11.3169858525
 20
10.8668543629
 30
0.0
 10
11.2925928605
 20
10.8704312186
 30
0.0
 10
11.2674844376
 20
10.87366063
 30
0.0
 10
11.2417346292
 20
10.8765329861
 30
0.0
 10
11.2154193946
 20
10.8790397417
 30
0.0
 10
11.1886163769
 20
10.8811734413
 30
0.0
 10
11.1614046708
 20
10.8829277406
 30
0.0
 10
11.1338645866
 20
10.8842974248
 30
0.0
 10
11.1060774102
 20
10.8852784229
 30
0.0
 10
11.0781251618
 20
10.8858678195
 30
0.0
 10
11.0500903519
 20
10.8860638631
 30
0.0
 10
11.0220557362
 20
10.8858659713
 30
0.0
 10
10.9941040699
 20
10.8852747319
 30
0.0
 10
10.9663178618
 20
10.8842919018
 30
0.0
 10
10.9387791294
 20
10.8829204017
 30
0.0
 10
10.9115691547
 20
10.8811643082
 30
0.0
 10
10.8847682429
 20
10.8790288414
 30
0.0
 10
10.8584554826
 20
10.8765203509
 30
0.0
 10
10.8327085095
 20
10.8736462973
 30
0.0
 10
10.8076032743
 20
10.8704152312
 30
0.0
 10
10.7832138131
 20
10.8668367683
 30
0.0
 10
10.7596120257
 20
10.8629215631
 30
0.0
 10
10.7368674459
 20
10.8586812755
 30
0.0
 10
10.7150470618
 20
10.8541285446
 30
0.0
 10
10.6942149774
 20
10.8492769219
 30
0.0
 10
10.6744326501
 20
10.8441409289
 30
0.0
 10
10.6616536718
 20
10.8404422981
 30
0.0
 10
10.6554544987
 20
10.8385413429
 30
0.0
  0
SPLINE
  5
391
100
AcDbEntity
  8
0
100
AcDbSpline
 62
7
  6
CONTINUOUS
 70
0
 71
3
 72
31
 73
27
 74
0
 42
0.0000001
 43
0.0000001
 44
0.0000000001
 40
0.0
 40
0.0
 40
0.0
 40
0.0
 40
0.0268229867
 40
0.0544737275
 40
0.0829069615
 40
0.1120753112
 40
0.1419294562
 40
0.1724182715
 40
0.2034890325
 40
0.2350875876
 40
0.2996439091
 40
0.3656321317
 40
0.4325822839
 40
0.5000153799
 40
0.5674479697
 40
0.6343966103
 40
0.7003823296
 40
0.764935176
 40
0.7965316401
 40
0.8276000882
 40
0.8580863645
 40
0.8879377419
 40
0.9171031237
 40
0.9455331952
 40
0.973180573
 40
1.0
 40
1.0
 40
1.0
 40
1.0
 10
11.3525240907
 20
10.8181713727
 30
0.0
 10
11.3472082589
 20
10.8193338516
 30
0.0
 10
11.3363901038
 20
10.8215930692
 30
0.0
 10
11.3198682895
 20
10.8247445667
 30
0.0
 10
11.3028282197
 20
10.8277059857
 30
0.0
 10
11.2853026753
 20
10.8304715798
 30
0.0
 10
11.2673252772
 20
10.8330359985
 30
0.0
 10
11.2489305662
 20
10.8353942853
 30
0.0
 10
11.2301538467
 20
10.8375419184
 30
0.0
 10
11.204474386
 20
10.8401373355
 30
0.0
 10
11.1716866753
 20
10.8428157902
 30
0.0
 10
11.1316841572
 20
10.8451134159
 30
0.0
 10
11.0910557246
 20
10.8464987697
 30
0.0
 10
11.0501133937
 20
10.8469611337
 30
0.0
 10
11.0091713911
 20
10.8464968369
 30
0.0
 10
10.9685439416
 20
10.8451095626
 30
0.0
 10
10.9285430534
 20
10.8428100519
 30
0.0
 10
10.895757112
 20
10.840130037
 30
0.0
 10
10.8700793818
 20
10.8375333922
 30
0.0
 10
10.8513041812
 20
10.8353848739
 30
0.0
 10
10.8329111397
 20
10.8330257186
 30
0.0
 10
10.8149355592
 20
10.8304604432
 30
0.0
 10
10.7974119727
 20
10.8276940214
 30
0.0
 10
10.780373997
 20
10.8247317995
 30
0.0
 10
10.7638544139
 20
10.8215795229
 30
0.0
 10
10.753037804
 20
10.8193197749
 30
0.0
 10
10.7477227675
 20
10.8181570395
 30
0.0
  0
SPLINE
  5
392
100
AcDbEntity
  8
0
100
AcDbSpline
 62
7
  6
CONTINUOUS
 70
0
 71
3
 72
28
 73
24
 74
0
 42
0.0000001
 43
0.0000001
 44
0.0000000001
 40
0.0
 40
0.0
 40
0.0
 40
0.0
 40
0.0252941746
 40
0.0508253894
 40
0.0766362101
 40
0.1027657447
 40
0.1292492483
 40
0.1561178453
 40
0.1833984907
 40
0.2111137228
 40
0.2678998402
 40
0.3265893177
 40
0.3566665004
 40
0.3872253972
 40
0.4497499812
 40
0.5140924676
 40
0.5801212012
 40
0.6476638578
 40
0.7165138733
 40
0.7864366172
 40
0.8571757018
 40
0.9284572947
 40
1.0
 40
1.0
 40
1.0
 40
1.0
 10
10.4058629987
 20
8.9571166794
 30
0.0
 10
10.4040307364
 20
8.9560707483
 30
0.0
 10
10.4002828711
 20
8.9540827665
 30
0.0
 10
10.3944610528
 20
8.9514344874
 30
0.0
 10
10.3884268486
 20
8.9491121829
 30
0.0
 10
10.382192373
 20
8.9471204998
 30
0.0
 10
10.3757697568
 20
8.9454632122
 30
0.0
 10
10.3691716455
 20
8.9441433724
 30
0.0
 10
10.3624107374
 20
8.943163544
 30
0.0
 10
10.353123035
 20
8.9423058951
 30
0.0
 10
10.3411606374
 20
8.9421123145
 30
0.0
 10
10.3290395695
 20
8.9430573817
 30
0.0
 10
10.3191860833
 20
8.9444786978
 30
0.0
 10
10.3090875637
 20
8.9463777631
 30
0.0
 10
10.2963443858
 20
8.9496083032
 30
0.0
 10
10.2810884589
 20
8.9547660023
 30
0.0
 10
10.2658679169
 20
8.9611939667
 30
0.0
 10
10.2508006958
 20
8.9688418652
 30
0.0
 10
10.2360027059
 20
8.9776503442
 30
0.0
 10
10.2215881969
 20
8.9875510395
 30
0.0
 10
10.207668372
 20
8.9984673997
 30
0.0
 10
10.194351276
 20
9.0103142667
 30
0.0
 10
10.1859462446
 20
9.0187690079
 30
0.0
 10
10.1818703911
 20
9.0231275228
 30
0.0
  0
SPLINE
  5
393
100
AcDbEntity
  8
0
100
AcDbSpline
 62
7
  6
CONTINUOUS
 70
0
 71
3
 72
15
 73
11
 74
0
 42
0.0000001
 43
0.0000001
 44
0.0000000001
 40
0.0
 40
0.0
 40
0.0
 40
0.0
 40
0.1259313555
 40
0.2529605076
 40
0.3804007893
 40
0.507555004
 40
0.6337333528
 40
0.7582711965
 40
0.8805468409
 40
1.0
 40
1.0
 40
1.0
 40
1.0
 10
10.1355341286
 20
9.0485441952
 30
0.0
 10
10.139176768
 20
9.0429290961
 30
0.0
 10
10.1469051545
 20
9.0319112779
 30
0.0
 10
10.159659806
 20
9.0162041044
 30
0.0
 10
10.1735192698
 20
9.0013722525
 30
0.0
 10
10.1883410835
 20
8.9875685471
 30
0.0
 10
10.20397387
 20
8.9749339208
 30
0.0
 10
10.2202584574
 20
8.9635975179
 30
0.0
 10
10.2370273493
 20
8.9536760753
 30
0.0
 10
10.2485696708
 20
8.9479973521
 30
0.0
 10
10.2543767738
 20
8.9454311828
 30
0.0
  0
SPLINE
  5
394
100
AcDbEntity
  8
0
100
AcDbSpline
 62
7
  6
CONTINUOUS
 70
0
 71
3
 72
15
 73
11
 74
0
 42
0.0000001
 43
0.0000001
 44
0.0000000001
 40
0.0
 40
0.0
 40
0.0
 40
0.0
 40
0.116348202
 40
0.2359261366
 40
0.3584303914
 40
0.4834874226
 40
0.6106659172
 40
0.739489151
 40
0.8694440555
 40
1.0
 40
1.0
 40
1.0
 40
1.0
 10
10.1161288483
 20
9.1445663826
 30
0.0
 10
10.1172257666
 20
9.1392583492
 30
0.0
 10
10.119893214
 20
9.1285821896
 30
0.0
 10
10.1251696923
 20
9.1127247137
 30
0.0
 10
10.1317367802
 20
9.0969164262
 30
0.0
 10
10.139541029
 20
9.0812853869
 30
0.0
 10
10.1485195122
 20
9.0659565548
 30
0.0
 10
10.1586000022
 20
9.0510529474
 30
0.0
 10
10.169700711
 20
9.036694779
 30
0.0
 10
10.1777161791
 20
9.0275698304
 30
0.0
 10
10.1818703911
 20
9.0231275228
 30
0.0
  0
SPLINE
  5
395
100
AcDbEntity
  8
0
100
AcDbSpline
 62
7
  6
CONTINUOUS
 70
0
 71
3
 72
24
 73
20
 74
0
 42
0.0000001
 43
0.0000001
 44
0.0000000001
 40
0.0
 40
0.0
 40
0.0
 40
0.0
 40
0.0639211479
 40
0.1275610968
 40
0.1909251552
 40
0.2540265573
 40
0.3168811235
 40
0.3795097277
 40
0.4419368161
 40
0.5041903391
 40
0.5663011032
 40
0.6283022244
 40
0.6902284962
 40
0.7211791132
 40
0.7521245067
 40
0.8140089492
 40
0.8759265374
 40
0.9379123479
 40
1.0
 40
1.0
 40
1.0
 40
1.0
 10
11.1033461658
 20
8.1811128054
 30
0.0
 10
11.1033461658
 20
8.185553296
 30
0.0
 10
11.1036297073
 20
8.1944174435
 30
0.0
 10
11.1049103599
 20
8.207627632
 30
0.0
 10
11.1070398867
 20
8.2206707746
 30
0.0
 10
11.1100087677
 20
8.2334927784
 30
0.0
 10
11.1138039798
 20
8.2460417019
 30
0.0
 10
11.1184087755
 20
8.2582666952
 30
0.0
 10
11.123803022
 20
8.2701186667
 30
0.0
 10
11.1299632275
 20
8.2815503706
 30
0.0
 10
11.1368628703
 20
8.2925167621
 30
0.0
 10
11.1444721719
 20
8.3029747437
 30
0.0
 10
11.1513799808
 20
8.3112349677
 30
0.0
 10
11.1572254208
 20
8.3175472157
 30
0.0
 10
11.1632778018
 20
8.3236572427
 30
0.0
 10
11.1712249475
 20
8.3309094417
 30
0.0
 10
11.1813270925
 20
8.3389572048
 30
0.0
 10
11.1919544792
 20
8.3463215507
 30
0.0
 10
11.1993551956
 20
8.3507540748
 30
0.0
 10
11.2031263442
 20
8.3528472661
 30
0.0
  0
SPLINE
  5
396
100
AcDbEntity
  8
0
100
AcDbSpline
 62
7
  6
CONTINUOUS
 70
0
 71
3
 72
31
 73
27
 74
0
 42
0.0000001
 43
0.0000001
 44
0.0000000001
 40
0.0
 40
0.0
 40
0.0
 40
0.0
 40
0.0165871972
 40
0.034153845
 40
0.052730511
 40
0.0723389048
 40
0.0929937081
 40
0.1147031542
 40
0.1374704627
 40
0.1612940074
 40
0.1861684824
 40
0.2120847967
 40
0.2390310689
 40
0.2669923487
 40
0.2959515022
 40
0.3258888278
 40
0.3567828667
 40
0.3886099588
 40
0.4549591512
 40
0.5247176568
 40
0.5976421114
 40
0.6734695769
 40
0.7519200885
 40
0.8326987929
 40
0.9154982726
 40
1.0
 40
1.0
 40
1.0
 40
1.0
 10
9.6400787781
 20
6.1320540008
 30
0.0
 10
9.6411969414
 20
6.1310134407
 30
0.0
 10
9.6435685984
 20
6.1289445137
 30
0.0
 10
9.6474010799
 20
6.1259595656
 30
0.0
 10
9.6516045844
 20
6.1230087496
 30
0.0
 10
9.6561746189
 20
6.1200950408
 30
0.0
 10
9.661106629
 20
6.1172213584
 30
0.0
 10
9.6663955268
 20
6.1143905496
 30
0.0
 10
9.6720359123
 20
6.1116055887
 30
0.0
 10
9.6780219412
 20
6.108869281
 30
0.0
 10
9.6843474353
 20
6.1061845506
 30
0.0
 10
9.6910058064
 20
6.1035541294
 30
0.0
 10
9.6979901361
 20
6.1009808504
 30
0.0
 10
9.7052931251
 20
6.0984673449
 30
0.0
 10
9.7129071536
 20
6.0960163293
 30
0.0
 10
9.7208242449
 20
6.0936303215
 30
0.0
 10
9.7290361257
 20
6.0913118779
 30
0.0
 10
9.7405266566
 20
6.0882717375
 30
0.0
 10
9.7555683232
 20
6.0846703293
 30
0.0
 10
9.7744079472
 20
6.0807122347
 30
0.0
 10
9.7942004425
 20
6.0770769378
 30
0.0
 10
9.814862768
 20
6.0737798745
 30
0.0
 10
9.8363083525
 20
6.0708350868
 30
0.0
 10
9.8584472501
 20
6.0682550875
 30
0.0
 10
9.881186437
 20
6.0660508503
 30
0.0
 10
9.8965464218
 20
6.0648487562
 30
0.0
 10
9.9043091283
 20
6.0643104106
 30
0.0
  0
LINE
  5
397
100
AcDbEntity
  8
0
100
AcDbLine
 62
7
  6
CONTINUOUS
 10
10.8471562844
 20
8.7389672845
 11
10.8474430867
 21
8.758300005
  0
SPLINE
  5
398
100
AcDbEntity
  8
0
100
AcDbSpline
 62
7
  6
CONTINUOUS
 70
0
 71
3
 72
53
 73
49
 74
0
 42
0.0000001
 43
0.0000001
 44
0.0000000001
 40
0.0
 40
0.0
 40
0.0
 40
0.0
 40
0.0527848368
 40
0.1048063877
 40
0.1559447945
 40
0.2060908895
 40
0.2551345126
 40
0.3029700154
 40
0.3494956547
 40
0.3946138133
 40
0.4382317231
 40
0.4802619925
 40
0.5206231304
 40
0.5592401772
 40
0.5960455137
 40
0.6309799343
 40
0.6639937277
 40
0.6950481335
 40
0.7241173308
 40
0.7379047206
 40
0.7511934666
 40
0.7639854289
 40
0.7762837289
 40
0.7880933188
 40
0.799421028
 40
0.8102756762
 40
0.8206687401
 40
0.830614312
 40
0.8401296363
 40
0.8492356466
 40
0.8579570837
 40
0.8663232307
 40
0.8743681403
 40
0.8821308159
 40
0.8896555052
 40
0.8969912663
 40
0.9041915074
 40
0.9113130476
 40
0.918414751
 40
0.9255560501
 40
0.9327952996
 40
0.9401883408
 40
0.94778714
 40
0.9637757048
 40
0.9722567975
 40
0.9811039228
 40
0.9903442134
 40
1.0
 40
1.0
 40
1.0
 40
1.0
 10
9.9113665862
 20
10.8119258976
 30
0.0
 10
9.9059650536
 20
10.8123004952
 30
0.0
 10
9.8952449468
 20
10.8131164431
 30
0.0
 10
9.8793126567
 20
10.8145521222
 30
0.0
 10
9.8636717591
 20
10.8161881516
 30
0.0
 10
9.8483602177
 20
10.8180204717
 30
0.0
 10
9.8334146482
 20
10.820044711
 30
0.0
 10
9.8188710846
 20
10.8222559345
 30
0.0
 10
9.8047644902
 20
10.8246487751
 30
0.0
 10
9.7911287777
 20
10.8272174351
 30
0.0
 10
9.7779967193
 20
10.8299556907
 30
0.0
 10
9.7653998396
 20
10.8328568861
 30
0.0
 10
9.7533683474
 20
10.8359139762
 30
0.0
 10
9.7419310665
 20
10.8391195443
 30
0.0
 10
9.7311153395
 20
10.8424658309
 30
0.0
 10
9.7209469626
 20
10.8459447193
 30
0.0
 10
9.7114500121
 20
10.8495478154
 30
0.0
 10
9.7026471318
 20
10.853266443
 30
0.0
 10
9.6957907501
 20
10.8565089806
 30
0.0
 10
9.6906782246
 20
10.8591617009
 30
0.0
 10
9.6870981131
 20
10.861139416
 30
0.0
 10
9.6837064317
 20
10.8631392315
 30
0.0
 10
9.6805052099
 20
10.8651600521
 30
0.0
 10
9.6774963326
 20
10.867200669
 30
0.0
 10
9.6746815567
 20
10.8692598765
 30
0.0
 10
9.672062582
 20
10.871336557
 30
0.0
 10
9.6696409155
 20
10.8734294809
 30
0.0
 10
9.6674180055
 20
10.8755375111
 30
0.0
 10
9.6653952163
 20
10.8776595283
 30
0.0
 10
9.6635737324
 20
10.8797943423
 30
0.0
 10
9.6619547748
 20
10.8819408902
 30
0.0
 10
9.6605394216
 20
10.8840980283
 30
0.0
 10
9.6593286776
 20
10.8862646
 30
0.0
 10
9.6583236323
 20
10.8884394709
 30
0.0
 10
9.6575251442
 20
10.890621325
 30
0.0
 10
9.6569341081
 20
10.8928087951
 30
0.0
 10
9.6565513015
 20
10.8950003446
 30
0.0
 10
9.6563771397
 20
10.8971942753
 30
0.0
 10
9.6564119797
 20
10.8993888142
 30
0.0
 10
9.6566557317
 20
10.9015821486
 30
0.0
 10
9.65710799
 20
10.9037725074
 30
0.0
 10
9.6577683401
 20
10.9059583444
 30
0.0
 10
9.6589444676
 20
10.9089139641
 30
0.0
 10
9.6605323432
 20
10.9118116759
 30
0.0
 10
9.6624717323
 20
10.9146273299
 30
0.0
 10
9.664158535
 20
10.9167703723
 30
0.0
 10
9.6660471911
 20
10.9189009457
 30
0.0
 10
9.6674093667
 20
10.9202813049
 30
0.0
 10
9.6681217603
 20
10.9209694243
 30
0.0
  0
SPLINE
  5
399
100
AcDbEntity
  8
0
100
AcDbSpline
 62
7
  6
CONTINUOUS
 70
0
 71
3
 72
17
 73
13
 74
0
 42
0.0000001
 43
0.0000001
 44
0.0000000001
 40
0.0
 40
0.0
 40
0.0
 40
0.0
 40
0.0548653882
 40
0.109934811
 40
0.2214348207
 40
0.3360992423
 40
0.4553349631
 40
0.5170793242
 40
0.5804142098
 40
0.7123170268
 40
0.8519526575
 40
1.0
 40
1.0
 40
1.0
 40
1.0
 10
12.3736338046
 20
10.1164043443
 30
0.0
 10
12.3736338009
 20
10.1158747478
 30
0.0
 10
12.373600159
 20
10.1148132468
 30
0.0
 10
12.3733978867
 20
10.1126842834
 30
0.0
 10
12.3728868139
 20
10.110010492
 30
0.0
 10
12.3718712692
 20
10.1068273892
 30
0.0
 10
12.3707036164
 20
10.1042170121
 30
0.0
 10
12.3695800306
 20
10.102142741
 30
0.0
 10
12.3682934834
 20
10.1000208634
 30
0.0
 10
12.3664253879
 20
10.0973772956
 30
0.0
 10
12.3638209269
 20
10.0942707238
 30
0.0
 10
12.3618838666
 20
10.0922773479
 30
0.0
 10
12.3608560162
 20
10.0912845206
 30
0.0
  0
SPLINE
  5
39A
100
AcDbEntity
  8
0
100
AcDbSpline
 62
7
  6
CONTINUOUS
 70
0
 71
3
 72
17
 73
13
 74
0
 42
0.0000001
 43
0.0000001
 44
0.0000000001
 40
0.0
 40
0.0
 40
0.0
 40
0.0
 40
0.0548654562
 40
0.1099349142
 40
0.2214349653
 40
0.3360994124
 40
0.4553345578
 40
0.517078735
 40
0.5804135927
 40
0.7123172413
 40
0.8519537007
 40
1.0
 40
1.0
 40
1.0
 40
1.0
 10
12.3736338099
 20
11.1731276325
 30
0.0
 10
12.3736338104
 20
11.1725980285
 30
0.0
 10
12.3736001698
 20
11.1715365131
 30
0.0
 10
12.3733979341
 20
11.1694075179
 30
0.0
 10
12.372886892
 20
11.1667336825
 30
0.0
 10
12.3718713469
 20
11.1635505408
 30
0.0
 10
12.3707037204
 20
11.1609401195
 30
0.0
 10
12.3695801257
 20
11.1588658273
 30
0.0
 10
12.368293573
 20
11.1567439093
 30
0.0
 10
12.366425449
 20
11.1541002908
 30
0.0
 10
12.3638209506
 20
11.1509936753
 30
0.0
 10
12.3618838725
 20
11.1490002701
 30
0.0
 10
12.3608560162
 20
11.1480074371
 30
0.0
  0
SPLINE
  5
39B
100
AcDbEntity
  8
0
100
AcDbSpline
 62
7
  6
CONTINUOUS
 70
0
 71
3
 72
39
 73
35
 74
0
 42
0.0000001
 43
0.0000001
 44
0.0000000001
 40
0.0
 40
0.0
 40
0.0
 40
0.0
 40
0.0958315389
 40
0.189100319
 40
0.2792401463
 40
0.322966852
 40
0.3657106176
 40
0.4074087938
 40
0.4480014133
 40
0.4874310649
 40
0.5256432078
 40
0.562586629
 40
0.5982133843
 40
0.6324794799
 40
0.6653451443
 40
0.6967751132
 40
0.7267396176
 40
0.755214681
 40
0.7821831415
 40
0.8076359589
 40
0.8315732145
 40
0.854006362
 40
0.8749604508
 40
0.8944770435
 40
0.9126185912
 40
0.9294729355
 40
0.9451591913
 40
0.9598337656
 40
0.9668557926
 40
0.9737028587
 40
0.9804062836
 40
0.9869996927
 40
0.9935186416
 40
1.0
 40
1.0
 40
1.0
 40
1.0
 10
9.9033432024
 20
10.7742322012
 30
0.0
 10
9.893575924
 20
10.7749095642
 30
0.0
 10
9.8743166257
 20
10.7764609885
 30
0.0
 10
9.8459392779
 20
10.7794224985
 30
0.0
 10
9.8229237921
 20
10.782409291
 30
0.0
 10
9.8050811369
 20
10.7850979294
 30
0.0
 10
9.7921612914
 20
10.7872323634
 30
0.0
 10
9.7795896545
 20
10.7895015332
 30
0.0
 10
9.7673872054
 20
10.7919016124
 30
0.0
 10
9.7555743241
 20
10.7944285712
 30
0.0
 10
9.7441707257
 20
10.7970781807
 30
0.0
 10
9.733195426
 20
10.7998459435
 30
0.0
 10
9.7226667211
 20
10.8027272451
 30
0.0
 10
9.7126021362
 20
10.8057172269
 30
0.0
 10
9.7030183987
 20
10.8088108441
 30
0.0
 10
9.6939314213
 20
10.812002955
 30
0.0
 10
9.6853562323
 20
10.8152881675
 30
0.0
 10
9.6773069779
 20
10.8186610162
 30
0.0
 10
9.6697968839
 20
10.8221159307
 30
0.0
 10
9.6628381849
 20
10.8256471739
 30
0.0
 10
9.6564421662
 20
10.8292490714
 30
0.0
 10
9.6506190759
 20
10.8329158902
 30
0.0
 10
9.6453781336
 20
10.83664197
 30
0.0
 10
9.6407276329
 20
10.8404219666
 30
0.0
 10
9.6366749318
 20
10.8442506501
 30
0.0
 10
9.6332266952
 20
10.8481235667
 30
0.0
 10
9.6303896896
 20
10.8520358346
 30
0.0
 10
9.6285130997
 20
10.8553746722
 30
0.0
 10
9.6273433592
 20
10.8580481344
 30
0.0
 10
9.626635098
 20
10.8600289308
 30
0.0
 10
9.6260836956
 20
10.8620136368
 30
0.0
 10
9.6256895603
 20
10.8640014409
 30
0.0
 10
9.6254529314
 20
10.8659911706
 30
0.0
 10
9.6254002648
 20
10.867319954
 30
0.0
 10
9.6254002642
 20
10.8679821294
 30
0.0
  0
SPLINE
  5
39C
100
AcDbEntity
  8
0
100
AcDbSpline
 62
7
  6
CONTINUOUS
 70
0
 71
3
 72
23
 73
19
 74
0
 42
0.0000001
 43
0.0000001
 44
0.0000000001
 40
0.0
 40
0.0
 40
0.0
 40
0.0
 40
0.0749618611
 40
0.1455678041
 40
0.2121589218
 40
0.2751620139
 40
0.3350968437
 40
0.3925819213
 40
0.4483281136
 40
0.5031224735
 40
0.5577971527
 40
0.6131904492
 40
0.6701060365
 40
0.7292779135
 40
0.7913516063
 40
0.8568774527
 40
0.9263095509
 40
1.0
 40
1.0
 40
1.0
 40
1.0
 10
12.3300551745
 20
11.2269274632
 30
0.0
 10
12.3310484989
 20
11.2260030632
 30
0.0
 10
12.3329223223
 20
11.2241471524
 30
0.0
 10
12.3354507553
 20
11.2212517464
 30
0.0
 10
12.3376067715
 20
11.2183333425
 30
0.0
 10
12.3393873033
 20
11.2153945959
 30
0.0
 10
12.3407892242
 20
11.2124380006
 30
0.0
 10
12.3418095535
 20
11.2094666681
 30
0.0
 10
12.3424452437
 20
11.206484356
 30
0.0
 10
12.3426942184
 20
11.2034958321
 30
0.0
 10
12.3425553256
 20
11.2005065105
 30
0.0
 10
12.342029286
 20
11.1975219073
 30
0.0
 10
12.3411178586
 20
11.1945470393
 30
0.0
 10
12.3398240177
 20
11.1915859273
 30
0.0
 10
12.338150685
 20
11.1886418428
 30
0.0
 10
12.3361009387
 20
11.1857173334
 30
0.0
 10
12.3336779219
 20
11.1828152169
 30
0.0
 10
12.3318717255
 20
11.1809544629
 30
0.0
 10
12.3309123138
 20
11.1800277423
 30
0.0
  0
SPLINE
  5
39D
100
AcDbEntity
  8
0
100
AcDbSpline
 62
7
  6
CONTINUOUS
 70
0
 71
3
 72
23
 73
19
 74
0
 42
0.0000001
 43
0.0000001
 44
0.0000000001
 40
0.0
 40
0.0
 40
0.0
 40
0.0
 40
0.0639093771
 40
0.1275503769
 40
0.1909256457
 40
0.2540480824
 40
0.3169309794
 40
0.3795928169
 40
0.4420551183
 40
0.5043426639
 40
0.5664829584
 40
0.6285057883
 40
0.6904427197
 40
0.7523265629
 40
0.8141908228
 40
0.8760691436
 40
0.9379947657
 40
1.0
 40
1.0
 40
1.0
 40
1.0
 10
10.5463773111
 20
8.6119046349
 30
0.0
 10
10.5463773111
 20
8.6158668812
 30
0.0
 10
10.5466195464
 20
8.62377694
 30
0.0
 10
10.5477134555
 20
8.6355705592
 30
0.0
 10
10.549533047
 20
8.6472253751
 30
0.0
 10
10.5520709857
 20
8.6586969484
 30
0.0
 10
10.5553174017
 20
8.6699425737
 30
0.0
 10
10.5592594651
 20
8.6809202055
 30
0.0
 10
10.563881743
 20
8.6915890636
 30
0.0
 10
10.5691661602
 20
8.7019096792
 30
0.0
 10
10.5750921401
 20
8.7118440952
 30
0.0
 10
10.5816367247
 20
8.7213559999
 30
0.0
 10
10.5887746996
 20
8.7304108573
 30
0.0
 10
10.596478745
 20
8.7389760339
 30
0.0
 10
10.6047195138
 20
8.747020866
 30
0.0
 10
10.6134660084
 20
8.7545168832
 30
0.0
 10
10.6226848627
 20
8.761437384
 30
0.0
 10
10.6291188807
 20
8.7656486593
 30
0.0
 10
10.6324010523
 20
8.7676499521
 30
0.0
  0
SPLINE
  5
39E
100
AcDbEntity
  8
0
100
AcDbSpline
 62
4
  6
CONTINUOUS
 70
0
 71
3
 72
281
 73
277
 74
0
 42
0.0000001
 43
0.0000001
 44
0.0000000001
 40
0.0
 40
0.0
 40
0.0
 40
0.0
 40
0.015625
 40
0.0234375
 40
0.03125
 40
0.0390625
 40
0.046875
 40
0.05078125
 40
0.0546875
 40
0.056640625
 40
0.05859375
 40
0.060546875
 40
0.0615234375
 40
0.0620117188
 40
0.0625
 40
0.0629882812
 40
0.0634765625
 40
0.064453125
 40
0.06640625
 40
0.068359375
 40
0.0703125
 40
0.07421875
 40
0.078125
 40
0.0859375
 40
0.09375
 40
0.1015625
 40
0.109375
 40
0.11328125
 40
0.1171875
 40
0.119140625
 40
0.12109375
 40
0.123046875
 40
0.1240234375
 40
0.1245117188
 40
0.125
 40
0.1254882812
 40
0.1259765625
 40
0.126953125
 40
0.12890625
 40
0.130859375
 40
0.1328125
 40
0.13671875
 40
0.140625
 40
0.1484375
 40
0.15625
 40
0.1640625
 40
0.171875
 40
0.17578125
 40
0.1796875
 40
0.181640625
 40
0.18359375
 40
0.185546875
 40
0.1865234375
 40
0.1870117188
 40
0.1875
 40
0.1879882812
 40
0.1884765625
 40
0.189453125
 40
0.19140625
 40
0.193359375
 40
0.1953125
 40
0.19921875
 40
0.203125
 40
0.2109375
 40
0.21875
 40
0.2265625
 40
0.234375
 40
0.23828125
 40
0.2421875
 40
0.24609375
 40
0.248046875
 40
0.2490234375
 40
0.25
 40
0.2509765625
 40
0.251953125
 40
0.25390625
 40
0.2578125
 40
0.26171875
 40
0.265625
 40
0.2734375
 40
0.28125
 40
0.2890625
 40
0.296875
 40
0.30078125
 40
0.3046875
 40
0.30859375
 40
0.310546875
 40
0.3115234375
 40
0.3125
 40
0.3134765625
 40
0.314453125
 40
0.31640625
 40
0.3203125
 40
0.32421875
 40
0.328125
 40
0.3359375
 40
0.34375
 40
0.3515625
 40
0.359375
 40
0.3671875
 40
0.37109375
 40
0.373046875
 40
0.375
 40
0.376953125
 40
0.37890625
 40
0.3828125
 40
0.390625
 40
0.3984375
 40
0.40625
 40
0.4140625
 40
0.421875
 40
0.4296875
 40
0.43359375
 40
0.435546875
 40
0.4375
 40
0.439453125
 40
0.44140625
 40
0.4453125
 40
0.453125
 40
0.4609375
 40
0.46875
 40
0.4765625
 40
0.484375
 40
0.48828125
 40
0.4921875
 40
0.49609375
 40
0.498046875
 40
0.4990234375
 40
0.5
 40
0.5009765625
 40
0.501953125
 40
0.50390625
 40
0.5078125
 40
0.51171875
 40
0.515625
 40
0.5234375
 40
0.53125
 40
0.5390625
 40
0.546875
 40
0.55078125
 40
0.5546875
 40
0.55859375
 40
0.560546875
 40
0.5615234375
 40
0.5625
 40
0.5634765625
 40
0.564453125
 40
0.56640625
 40
0.5703125
 40
0.57421875
 40
0.578125
 40
0.5859375
 40
0.59375
 40
0.6015625
 40
0.609375
 40
0.61328125
 40
0.6171875
 40
0.619140625
 40
0.62109375
 40
0.623046875
 40
0.6240234375
 40
0.6245117188
 40
0.625
 40
0.6254882812
 40
0.6259765625
 40
0.626953125
 40
0.62890625
 40
0.630859375
 40
0.6328125
 40
0.63671875
 40
0.640625
 40
0.6484375
 40
0.65625
 40
0.6640625
 40
0.671875
 40
0.67578125
 40
0.6796875
 40
0.681640625
 40
0.68359375
 40
0.685546875
 40
0.6865234375
 40
0.6870117188
 40
0.6875
 40
0.6879882812
 40
0.6884765625
 40
0.689453125
 40
0.69140625
 40
0.693359375
 40
0.6953125
 40
0.69921875
 40
0.703125
 40
0.7109375
 40
0.71875
 40
0.7265625
 40
0.734375
 40
0.73828125
 40
0.7421875
 40
0.744140625
 40
0.74609375
 40
0.748046875
 40
0.7490234375
 40
0.7495117188
 40
0.75
 40
0.7504882812
 40
0.7509765625
 40
0.751953125
 40
0.75390625
 40
0.755859375
 40
0.7578125
 40
0.76171875
 40
0.765625
 40
0.7734375
 40
0.78125
 40
0.7890625
 40
0.796875
 40
0.80078125
 40
0.8046875
 40
0.806640625
 40
0.80859375
 40
0.810546875
 40
0.8115234375
 40
0.8120117188
 40
0.8125
 40
0.8129882812
 40
0.8134765625
 40
0.814453125
 40
0.81640625
 40
0.818359375
 40
0.8203125
 40
0.82421875
 40
0.828125
 40
0.8359375
 40
0.84375
 40
0.8515625
 40
0.859375
 40
0.86328125
 40
0.8671875
 40
0.869140625
 40
0.87109375
 40
0.873046875
 40
0.8740234375
 40
0.8745117188
 40
0.875
 40
0.8754882812
 40
0.8759765625
 40
0.876953125
 40
0.87890625
 40
0.880859375
 40
0.8828125
 40
0.88671875
 40
0.890625
 40
0.8984375
 40
0.90625
 40
0.9140625
 40
0.921875
 40
0.92578125
 40
0.9296875
 40
0.931640625
 40
0.93359375
 40
0.935546875
 40
0.9365234375
 40
0.9370117188
 40
0.9375
 40
0.9379882812
 40
0.9384765625
 40
0.939453125
 40
0.94140625
 40
0.943359375
 40
0.9453125
 40
0.94921875
 40
0.953125
 40
0.9609375
 40
0.96875
 40
0.9765625
 40
0.984375
 40
1.0
 40
1.0
 40
1.0
 40
1.0
 10
12.2477830968
 20
9.0777430164
 30
0.0
 10
12.2470290242
 20
9.0767386995
 30
0.0
 10
12.2458979153
 20
9.0752322244
 30
0.0
 10
12.24438977
 20
9.0732235901
 30
0.0
 10
12.243258661
 20
9.0717171164
 30
0.0
 10
12.2421275525
 20
9.0702106348
 30
0.0
 10
12.2411849606
 20
9.0689552583
 30
0.0
 10
12.2404308902
 20
9.0679509016
 30
0.0
 10
12.2399595891
 20
9.0673233049
 30
0.0
 10
12.2395825645
 20
9.0668209384
 30
0.0
 10
12.2392997517
 20
9.0664449552
 30
0.0
 10
12.2390642152
 20
9.0661291174
 30
0.0
 10
12.2388990633
 20
9.0659129733
 30
0.0
 10
12.2388051223
 20
9.0657817453
 30
0.0
 10
12.2387334509
 20
9.0657050634
 30
0.0
 10
12.2386664264
 20
9.0655452838
 30
0.0
 10
12.2385754396
 20
9.0653612296
 30
0.0
 10
12.2384169677
 20
9.06502563
 30
0.0
 10
12.2381901846
 20
9.0645532625
 30
0.0
 10
12.2379182138
 20
9.0639833993
 30
0.0
 10
12.237555527
 20
9.0632246374
 30
0.0
 10
12.2371021888
 20
9.0622758235
 30
0.0
 10
12.2363768363
 20
9.0607579234
 30
0.0
 10
12.2354701497
 20
9.0588604784
 30
0.0
 10
12.2343821238
 20
9.0565835762
 30
0.0
 10
12.2332940993
 20
9.0543066589
 30
0.0
 10
12.2323874093
 20
9.0524092516
 30
0.0
 10
12.2316620635
 20
9.0508912762
 30
0.0
 10
12.2312087085
 20
9.0499426537
 30
0.0
 10
12.2308460562
 20
9.049183499
 30
0.0
 10
12.2305739801
 20
9.0486148356
 30
0.0
 10
12.2303475263
 20
9.0481387145
 30
0.0
 10
12.2301884665
 20
9.0478098157
 30
0.0
 10
12.2300984218
 20
9.0476150251
 30
0.0
 10
12.2300285032
 20
9.0474882242
 30
0.0
 10
12.2299677015
 20
9.0472876796
 30
0.0
 10
12.2298834525
 20
9.0470460095
 30
0.0
 10
12.2297374984
 20
9.0466111021
 30
0.0
 10
12.2295282178
 20
9.0459960716
 30
0.0
 10
12.2292774128
 20
9.045255353
 30
0.0
 10
12.2289428902
 20
9.044268665
 30
0.0
 10
12.2285247767
 20
9.0430349843
 30
0.0
 10
12.2278557728
 20
9.0410612744
 30
0.0
 10
12.2270195257
 20
9.0385940751
 30
0.0
 10
12.2260160255
 20
9.0356334641
 30
0.0
 10
12.2250125274
 20
9.0326728395
 30
0.0
 10
12.2241762753
 20
9.0302056744
 30
0.0
 10
12.2235072814
 20
9.0282318961
 30
0.0
 10
12.2230891425
 20
9.0269983893
 30
0.0
 10
12.222754672
 20
9.0260113442
 30
0.0
 10
12.2225037078
 20
9.0252717164
 30
0.0
 10
12.2222949252
 20
9.0246532731
 30
0.0
 10
12.2221480823
 20
9.0242244581
 30
0.0
 10
12.2220652573
 20
9.0239730265
 30
0.0
 10
12.2220000813
 20
9.0238024662
 30
0.0
 10
12.2219465918
 20
9.0235630494
 30
0.0
 10
12.2218711961
 20
9.023267845
 30
0.0
 10
12.2217411528
 20
9.0227400469
 30
0.0
 10
12.2215543838
 20
9.0219919
 30
0.0
 10
12.2213306859
 20
9.0210916195
 30
0.0
 10
12.2210322737
 20
9.0198921203
 30
0.0
 10
12.2206593092
 20
9.0183924467
 30
0.0
 10
12.2200625376
 20
9.0159931366
 30
0.0
 10
12.2193165838
 20
9.0129939392
 30
0.0
 10
12.21842143
 20
9.0093949381
 30
0.0
 10
12.2175262962
 20
9.0057958897
 30
0.0
 10
12.2167802926
 20
9.0027968103
 30
0.0
 10
12.2161836206
 20
9.0003972641
 30
0.0
 10
12.2157357594
 20
8.9985983761
 30
0.0
 10
12.2153636777
 20
8.9970968483
 30
0.0
 10
12.2151009912
 20
8.9960505956
 30
0.0
 10
12.2149543655
 20
8.995445216
 30
0.0
 10
12.2148345906
 20
8.9950123678
 30
0.0
 10
12.2147522979
 20
8.9944985341
 30
0.0
 10
12.2146295001
 20
8.9938416711
 30
0.0
 10
12.2144206953
 20
8.9926789992
 30
0.0
 10
12.2141192182
 20
8.9910249205
 30
0.0
 10
12.2137588088
 20
8.9890370806
 30
0.0
 10
12.2132777866
 20
8.9863876566
 30
0.0
 10
12.2126766734
 20
8.9830755217
 30
0.0
 10
12.2119552621
 20
8.9791011195
 30
0.0
 10
12.2112338896
 20
8.9751266461
 30
0.0
 10
12.2106326795
 20
8.9718146892
 30
0.0
 10
12.2101518511
 20
8.9691649092
 30
0.0
 10
12.2097908508
 20
8.967178155
 30
0.0
 10
12.2094912223
 20
8.9655206798
 30
0.0
 10
12.2092791174
 20
8.9643640712
 30
0.0
 10
12.2091616072
 20
8.9636974933
 30
0.0
 10
12.2090630726
 20
8.9632135005
 30
0.0
 10
12.2090042995
 20
8.9626685746
 30
0.0
 10
12.2089120661
 20
8.9619632609
 30
0.0
 10
12.2087571195
 20
8.9607190592
 30
0.0
 10
12.2085323888
 20
8.9589468054
 30
0.0
 10
12.2082641585
 20
8.9568178847
 30
0.0
 10
12.2079060109
 20
8.9539800989
 30
0.0
 10
12.2074585137
 20
8.9504325929
 30
0.0
 10
12.2069213792
 20
8.9461757369
 30
0.0
 10
12.2063844961
 20
8.9419187143
 30
0.0
 10
12.2058467452
 20
8.9376622068
 30
0.0
 10
12.2054013029
 20
8.9341135392
 30
0.0
 10
12.2050842376
 20
8.9316325603
 30
0.0
 10
12.2049112622
 20
8.9302100371
 30
0.0
 10
12.2047584179
 20
8.9291567252
 30
0.0
 10
12.2046939223
 20
8.9280515016
 30
0.0
 10
12.204577111
 20
8.9265959775
 30
0.0
 10
12.2043870503
 20
8.9240403737
 30
0.0
 10
12.2041080229
 20
8.920393923
 30
0.0
 10
12.203776427
 20
8.9160162885
 30
0.0
 10
12.2034439027
 20
8.9116391697
 30
0.0
 10
12.203111855
 20
8.9072618818
 30
0.0
 10
12.2027788295
 20
8.9028847546
 30
0.0
 10
12.2025041701
 20
8.8992367539
 30
0.0
 10
12.2023063265
 20
8.8966839119
 30
0.0
 10
12.2022019837
 20
8.8952239631
 30
0.0
 10
12.2020991893
 20
8.8941323305
 30
0.0
 10
12.2020901888
 20
8.8930279731
 30
0.0
 10
12.2020454718
 20
8.8915599351
 30
0.0
 10
12.2019824605
 20
8.8889888006
 30
0.0
 10
12.2018844732
 20
8.8853168321
 30
0.0
 10
12.2017703074
 20
8.8809100087
 30
0.0
 10
12.2016552193
 20
8.8765033011
 30
0.0
 10
12.2015404015
 20
8.8720965917
 30
0.0
 10
12.2014445879
 20
8.8684242432
 30
0.0
 10
12.2013681187
 20
8.8654865829
 30
0.0
 10
12.2013103011
 20
8.8632827367
 30
0.0
 10
12.2012635964
 20
8.8614481103
 30
0.0
 10
12.201228006
 20
8.8601601192
 30
0.0
 10
12.201212192
 20
8.8594299838
 30
0.0
 10
12.2011875892
 20
8.8588658759
 30
0.0
 10
12.2012116941
 20
8.8583648639
 30
0.0
 10
12.2012268443
 20
8.8576748393
 30
0.0
 10
12.2012612729
 20
8.8564775505
 30
0.0
 10
12.2013063181
 20
8.8547617769
 30
0.0
 10
12.2013621438
 20
8.8527051433
 30
0.0
 10
12.2014359591
 20
8.8499621633
 30
0.0
 10
12.201528442
 20
8.8465337157
 30
0.0
 10
12.2016393239
 20
8.8424194497
 30
0.0
 10
12.2017502539
 20
8.8383052555
 30
0.0
 10
12.2018426168
 20
8.8348766285
 30
0.0
 10
12.201916672
 20
8.8321340074
 30
0.0
 10
12.201971766
 20
8.830076279
 30
0.0
 10
12.2020191003
 20
8.8283639306
 30
0.0
 10
12.2020494426
 20
8.8271605272
 30
0.0
 10
12.20207114
 20
8.8264802997
 30
0.0
 10
12.2020751338
 20
8.8259491943
 30
0.0
 10
12.202126065
 20
8.8254981121
 30
0.0
 10
12.202177601
 20
8.8248687561
 30
0.0
 10
12.2022754172
 20
8.8237803884
 30
0.0
 10
12.2024111664
 20
8.8222187781
 30
0.0
 10
12.2025757726
 20
8.820347756
 30
0.0
 10
12.2027946512
 20
8.8178520433
 30
0.0
 10
12.2030684541
 20
8.8147327516
 30
0.0
 10
12.2033969293
 20
8.8109894505
 30
0.0
 10
12.2037254302
 20
8.8072461948
 30
0.0
 10
12.203999169
 20
8.8041267894
 30
0.0
 10
12.2042181759
 20
8.801631304
 30
0.0
 10
12.2043550215
 20
8.8000715412
 30
0.0
 10
12.2044645749
 20
8.7988239238
 30
0.0
 10
12.2045465293
 20
8.797887683
 30
0.0
 10
12.204615495
 20
8.797109161
 30
0.0
 10
12.2046624554
 20
8.7965609013
 30
0.0
 10
12.204691344
 20
8.7962527539
 30
0.0
 10
12.2047072239
 20
8.7960071529
 30
0.0
 10
12.204745223
 20
8.7958169419
 30
0.0
 10
12.204788173
 20
8.7955440065
 30
0.0
 10
12.2048669303
 20
8.7950753715
 30
0.0
 10
12.2049775614
 20
8.7944011867
 30
0.0
 10
12.2051111231
 20
8.7935941793
 30
0.0
 10
12.2052889244
 20
8.7925174659
 30
0.0
 10
12.2055112722
 20
8.791171815
 30
0.0
 10
12.2058669749
 20
8.7890186389
 30
0.0
 10
12.2063116219
 20
8.7863272154
 30
0.0
 10
12.2068451897
 20
8.7830974856
 30
0.0
 10
12.2073787618
 20
8.7798677673
 30
0.0
 10
12.2078233983
 20
8.777176315
 30
0.0
 10
12.2081791219
 20
8.7750231964
 30
0.0
 10
12.2084014166
 20
8.7736773995
 30
0.0
 10
12.208579327
 20
8.7726009859
 30
0.0
 10
12.2087125552
 20
8.7717930625
 30
0.0
 10
12.2088242296
 20
8.7711217435
 30
0.0
 10
12.2089011244
 20
8.7706479925
 30
0.0
 10
12.2089470586
 20
8.7703832543
 30
0.0
 10
12.2089758913
 20
8.7701678642
 30
0.0
 10
12.2090261987
 20
8.7700168316
 30
0.0
 10
12.2090857845
 20
8.7697930063
 30
0.0
 10
12.2091935499
 20
8.7694117711
 30
0.0
 10
12.2093456757
 20
8.7688616812
 30
0.0
 10
12.2095290077
 20
8.7682039138
 30
0.0
 10
12.2097731775
 20
8.7673260732
 30
0.0
 10
12.2100784833
 20
8.7662290524
 30
0.0
 10
12.2105669203
 20
8.7644736625
 30
0.0
 10
12.2111774845
 20
8.7622794794
 30
0.0
 10
12.2119101534
 20
8.7596464343
 30
0.0
 10
12.212642826
 20
8.7570134037
 30
0.0
 10
12.2132533813
 20
8.7548191846
 30
0.0
 10
12.2137418361
 20
8.7530638665
 30
0.0
 10
12.2140470965
 20
8.7519666633
 30
0.0
 10
12.2142913594
 20
8.751089197
 30
0.0
 10
12.214474407
 20
8.7504302863
 30
0.0
 10
12.2146274226
 20
8.7498837735
 30
0.0
 10
12.2147335996
 20
8.7494961526
 30
0.0
 10
12.2147957303
 20
8.7492825587
 30
0.0
 10
12.2148382209
 20
8.7491000983
 30
0.0
 10
12.2148964121
 20
8.7490027462
 30
0.0
 10
12.2149685237
 20
8.7488432566
 30
0.0
 10
12.2150972708
 20
8.7485779815
 30
0.0
 10
12.2152798611
 20
8.7481917857
 30
0.0
 10
12.2154995406
 20
8.747731446
 30
0.0
 10
12.215792247
 20
8.7471165787
 30
0.0
 10
12.2161581984
 20
8.7463483646
 30
0.0
 10
12.2167436824
 20
8.7451190153
 30
0.0
 10
12.2174755506
 20
8.7435824
 30
0.0
 10
12.2183537865
 20
8.741738429
 30
0.0
 10
12.2192320251
 20
8.7398944745
 30
0.0
 10
12.2199638863
 20
8.7383578179
 30
0.0
 10
12.2205493843
 20
8.7371285512
 30
0.0
 10
12.2209153002
 20
8.7363601271
 30
0.0
 10
12.2212080793
 20
8.7357456908
 30
0.0
 10
12.2214275369
 20
8.7352840342
 30
0.0
 10
12.2216108215
 20
8.7349019587
 30
0.0
 10
12.2217383292
 20
8.7346293283
 30
0.0
 10
12.2218124267
 20
8.7344816237
 30
0.0
 10
12.221864518
 20
8.7343480719
 30
0.0
 10
12.2219299184
 20
8.7343015716
 30
0.0
 10
12.2220124766
 20
8.7342092066
 30
0.0
 10
12.2221591163
 20
8.7340617152
 30
0.0
 10
12.2223674708
 20
8.7338436169
 30
0.0
 10
12.2226179803
 20
8.7335850648
 30
0.0
 10
12.2229518238
 20
8.7332392228
 30
0.0
 10
12.2233691861
 20
8.7328072991
 30
0.0
 10
12.2240369335
 20
8.7321160093
 30
0.0
 10
12.2248716288
 20
8.7312519703
 30
0.0
 10
12.2258732582
 20
8.7302150899
 30
0.0
 10
12.2268748897
 20
8.7291782267
 30
0.0
 10
12.2277095796
 20
8.7283141449
 30
0.0
 10
12.2283773378
 20
8.7276229407
 30
0.0
 10
12.2287946726
 20
8.7271907994
 30
0.0
 10
12.2291285725
 20
8.726845404
 30
0.0
 10
12.2293789098
 20
8.7265854876
 30
0.0
 10
12.2295878029
 20
8.7263716579
 30
0.0
 10
12.2297334812
 20
8.7262165463
 30
0.0
 10
12.2298175798
 20
8.7261363909
 30
0.0
 10
12.2298782485
 20
8.7260523865
 30
0.0
 10
12.2299481112
 20
8.7260596935
 30
0.0
 10
12.2300380545
 20
8.7260375856
 30
0.0
 10
12.2301969495
 20
8.7260137366
 30
0.0
 10
12.2304231612
 20
8.7259719082
 30
0.0
 10
12.2306949495
 20
8.7259250349
 30
0.0
 10
12.2310572172
 20
8.7258613773
 30
0.0
 10
12.2315100917
 20
8.7257822025
 30
0.0
 10
12.2322346687
 20
8.7256553007
 30
0.0
 10
12.2331403976
 20
8.7254967502
 30
0.0
 10
12.2342272688
 20
8.7253064545
 30
0.0
 10
12.2353141416
 20
8.7251161766
 30
0.0
 10
12.2362198666
 20
8.7249575815
 30
0.0
 10
12.2369444513
 20
8.7248307688
 30
0.0
 10
12.2373973062
 20
8.7247513677
 30
0.0
 10
12.2377596142
 20
8.7246881746
 30
0.0
 10
12.2380312793
 20
8.7246398823
 30
0.0
 10
12.2382578766
 20
8.7246024936
 30
0.0
 10
12.2384160831
 20
8.724570719
 30
0.0
 10
12.2385071295
 20
8.7245613098
 30
0.0
 10
12.2385736037
 20
8.7245296104
 30
0.0
 10
12.2386469992
 20
8.7245921075
 30
0.0
 10
12.2387424457
 20
8.7246425801
 30
0.0
 10
12.2389106018
 20
8.7247462159
 30
0.0
 10
12.2391502368
 20
8.7248862634
 30
0.0
 10
12.2394380505
 20
8.7250577462
 30
0.0
 10
12.2398217141
 20
8.7252851934
 30
0.0
 10
12.2403013238
 20
8.725569912
 30
0.0
 10
12.2410686825
 20
8.7260252329
 30
0.0
 10
12.2420278865
 20
8.7265944626
 30
0.0
 10
12.243178929
 20
8.7272775046
 30
0.0
 10
12.2443299721
 20
8.7279605555
 30
0.0
 10
12.2458646959
 20
8.728871287
 30
0.0
 10
12.2470157389
 20
8.7295543363
 30
0.0
 10
12.2477831009
 20
8.7300097023
 30
0.0
  0
SPLINE
  5
39F
100
AcDbEntity
  8
0
100
AcDbSpline
 62
4
  6
CONTINUOUS
 70
0
 71
3
 72
281
 73
277
 74
0
 42
0.0000001
 43
0.0000001
 44
0.0000000001
 40
0.0
 40
0.0
 40
0.0
 40
0.0
 40
0.015625
 40
0.0234375
 40
0.03125
 40
0.0390625
 40
0.046875
 40
0.05078125
 40
0.0546875
 40
0.056640625
 40
0.05859375
 40
0.060546875
 40
0.0615234375
 40
0.0620117188
 40
0.0625
 40
0.0629882812
 40
0.0634765625
 40
0.064453125
 40
0.06640625
 40
0.068359375
 40
0.0703125
 40
0.07421875
 40
0.078125
 40
0.0859375
 40
0.09375
 40
0.1015625
 40
0.109375
 40
0.11328125
 40
0.1171875
 40
0.119140625
 40
0.12109375
 40
0.123046875
 40
0.1240234375
 40
0.1245117188
 40
0.125
 40
0.1254882812
 40
0.1259765625
 40
0.126953125
 40
0.12890625
 40
0.130859375
 40
0.1328125
 40
0.13671875
 40
0.140625
 40
0.1484375
 40
0.15625
 40
0.1640625
 40
0.171875
 40
0.17578125
 40
0.1796875
 40
0.181640625
 40
0.18359375
 40
0.185546875
 40
0.1865234375
 40
0.1870117188
 40
0.1875
 40
0.1879882812
 40
0.1884765625
 40
0.189453125
 40
0.19140625
 40
0.193359375
 40
0.1953125
 40
0.19921875
 40
0.203125
 40
0.2109375
 40
0.21875
 40
0.2265625
 40
0.234375
 40
0.23828125
 40
0.2421875
 40
0.24609375
 40
0.248046875
 40
0.2490234375
 40
0.25
 40
0.2509765625
 40
0.251953125
 40
0.25390625
 40
0.2578125
 40
0.26171875
 40
0.265625
 40
0.2734375
 40
0.28125
 40
0.2890625
 40
0.296875
 40
0.30078125
 40
0.3046875
 40
0.30859375
 40
0.310546875
 40
0.3115234375
 40
0.3125
 40
0.3134765625
 40
0.314453125
 40
0.31640625
 40
0.3203125
 40
0.32421875
 40
0.328125
 40
0.3359375
 40
0.34375
 40
0.3515625
 40
0.359375
 40
0.3671875
 40
0.37109375
 40
0.373046875
 40
0.375
 40
0.376953125
 40
0.37890625
 40
0.3828125
 40
0.390625
 40
0.3984375
 40
0.40625
 40
0.4140625
 40
0.421875
 40
0.4296875
 40
0.43359375
 40
0.435546875
 40
0.4375
 40
0.439453125
 40
0.44140625
 40
0.4453125
 40
0.453125
 40
0.4609375
 40
0.46875
 40
0.4765625
 40
0.484375
 40
0.48828125
 40
0.4921875
 40
0.49609375
 40
0.498046875
 40
0.4990234375
 40
0.5
 40
0.5009765625
 40
0.501953125
 40
0.50390625
 40
0.5078125
 40
0.51171875
 40
0.515625
 40
0.5234375
 40
0.53125
 40
0.5390625
 40
0.546875
 40
0.55078125
 40
0.5546875
 40
0.55859375
 40
0.560546875
 40
0.5615234375
 40
0.5625
 40
0.5634765625
 40
0.564453125
 40
0.56640625
 40
0.5703125
 40
0.57421875
 40
0.578125
 40
0.5859375
 40
0.59375
 40
0.6015625
 40
0.609375
 40
0.61328125
 40
0.6171875
 40
0.619140625
 40
0.62109375
 40
0.623046875
 40
0.6240234375
 40
0.6245117188
 40
0.625
 40
0.6254882812
 40
0.6259765625
 40
0.626953125
 40
0.62890625
 40
0.630859375
 40
0.6328125
 40
0.63671875
 40
0.640625
 40
0.6484375
 40
0.65625
 40
0.6640625
 40
0.671875
 40
0.67578125
 40
0.6796875
 40
0.681640625
 40
0.68359375
 40
0.685546875
 40
0.6865234375
 40
0.6870117188
 40
0.6875
 40
0.6879882812
 40
0.6884765625
 40
0.689453125
 40
0.69140625
 40
0.693359375
 40
0.6953125
 40
0.69921875
 40
0.703125
 40
0.7109375
 40
0.71875
 40
0.7265625
 40
0.734375
 40
0.73828125
 40
0.7421875
 40
0.744140625
 40
0.74609375
 40
0.748046875
 40
0.7490234375
 40
0.7495117188
 40
0.75
 40
0.7504882812
 40
0.7509765625
 40
0.751953125
 40
0.75390625
 40
0.755859375
 40
0.7578125
 40
0.76171875
 40
0.765625
 40
0.7734375
 40
0.78125
 40
0.7890625
 40
0.796875
 40
0.80078125
 40
0.8046875
 40
0.806640625
 40
0.80859375
 40
0.810546875
 40
0.8115234375
 40
0.8120117188
 40
0.8125
 40
0.8129882812
 40
0.8134765625
 40
0.814453125
 40
0.81640625
 40
0.818359375
 40
0.8203125
 40
0.82421875
 40
0.828125
 40
0.8359375
 40
0.84375
 40
0.8515625
 40
0.859375
 40
0.86328125
 40
0.8671875
 40
0.869140625
 40
0.87109375
 40
0.873046875
 40
0.8740234375
 40
0.8745117188
 40
0.875
 40
0.8754882812
 40
0.8759765625
 40
0.876953125
 40
0.87890625
 40
0.880859375
 40
0.8828125
 40
0.88671875
 40
0.890625
 40
0.8984375
 40
0.90625
 40
0.9140625
 40
0.921875
 40
0.92578125
 40
0.9296875
 40
0.931640625
 40
0.93359375
 40
0.935546875
 40
0.9365234375
 40
0.9370117188
 40
0.9375
 40
0.9379882812
 40
0.9384765625
 40
0.939453125
 40
0.94140625
 40
0.943359375
 40
0.9453125
 40
0.94921875
 40
0.953125
 40
0.9609375
 40
0.96875
 40
0.9765625
 40
0.984375
 40
1.0
 40
1.0
 40
1.0
 40
1.0
 10
12.2477830968
 20
8.7300096984
 30
0.0
 10
12.2485371694
 20
8.7310140152
 30
0.0
 10
12.2496682784
 20
8.7325204904
 30
0.0
 10
12.2511764236
 20
8.7345291247
 30
0.0
 10
12.2523075326
 20
8.7360355983
 30
0.0
 10
12.2534386412
 20
8.73754208
 30
0.0
 10
12.254381233
 20
8.7387974565
 30
0.0
 10
12.2551353034
 20
8.7398018132
 30
0.0
 10
12.2556066045
 20
8.7404294099
 30
0.0
 10
12.2559836291
 20
8.7409317764
 30
0.0
 10
12.2562664419
 20
8.7413077596
 30
0.0
 10
12.2565019784
 20
8.7416235974
 30
0.0
 10
12.2566671303
 20
8.7418397415
 30
0.0
 10
12.2567610713
 20
8.7419709695
 30
0.0
 10
12.2568327427
 20
8.7420476514
 30
0.0
 10
12.2568997672
 20
8.742207431
 30
0.0
 10
12.2569907541
 20
8.7423914852
 30
0.0
 10
12.2571492259
 20
8.7427270848
 30
0.0
 10
12.2573760091
 20
8.7431994523
 30
0.0
 10
12.2576479798
 20
8.7437693154
 30
0.0
 10
12.2580106666
 20
8.7445280774
 30
0.0
 10
12.2584640048
 20
8.7454768913
 30
0.0
 10
12.2591893573
 20
8.7469947914
 30
0.0
 10
12.2600960439
 20
8.7488922363
 30
0.0
 10
12.2611840698
 20
8.7511691386
 30
0.0
 10
12.2622720943
 20
8.7534460559
 30
0.0
 10
12.2631787843
 20
8.7553434632
 30
0.0
 10
12.2639041301
 20
8.7568614386
 30
0.0
 10
12.2643574852
 20
8.7578100611
 30
0.0
 10
12.2647201374
 20
8.7585692158
 30
0.0
 10
12.2649922135
 20
8.7591378792
 30
0.0
 10
12.2652186673
 20
8.7596140003
 30
0.0
 10
12.2653777271
 20
8.7599428991
 30
0.0
 10
12.2654677718
 20
8.7601376897
 30
0.0
 10
12.2655376904
 20
8.7602644906
 30
0.0
 10
12.2655984921
 20
8.7604650352
 30
0.0
 10
12.2656827411
 20
8.7607067053
 30
0.0
 10
12.2658286953
 20
8.7611416127
 30
0.0
 10
12.2660379758
 20
8.7617566432
 30
0.0
 10
12.2662887808
 20
8.7624973618
 30
0.0
 10
12.2666233034
 20
8.7634840498
 30
0.0
 10
12.267041417
 20
8.7647177305
 30
0.0
 10
12.2677104208
 20
8.7666914404
 30
0.0
 10
12.2685466679
 20
8.7691586397
 30
0.0
 10
12.2695501681
 20
8.7721192507
 30
0.0
 10
12.2705536662
 20
8.7750798753
 30
0.0
 10
12.2713899183
 20
8.7775470404
 30
0.0
 10
12.2720589122
 20
8.7795208187
 30
0.0
 10
12.2724770511
 20
8.7807543255
 30
0.0
 10
12.2728115216
 20
8.7817413706
 30
0.0
 10
12.2730624858
 20
8.7824809983
 30
0.0
 10
12.2732712684
 20
8.7830994417
 30
0.0
 10
12.2734181114
 20
8.7835282566
 30
0.0
 10
12.2735009363
 20
8.7837796883
 30
0.0
 10
12.2735661123
 20
8.7839502486
 30
0.0
 10
12.2736196018
 20
8.7841896653
 30
0.0
 10
12.2736949975
 20
8.7844848698
 30
0.0
 10
12.2738250408
 20
8.7850126679
 30
0.0
 10
12.2740118099
 20
8.7857608148
 30
0.0
 10
12.2742355077
 20
8.7866610952
 30
0.0
 10
12.2745339199
 20
8.7878605945
 30
0.0
 10
12.2749068844
 20
8.7893602681
 30
0.0
 10
12.275503656
 20
8.7917595782
 30
0.0
 10
12.2762496098
 20
8.7947587756
 30
0.0
 10
12.2771447636
 20
8.7983577767
 30
0.0
 10
12.2780398975
 20
8.8019568251
 30
0.0
 10
12.278785901
 20
8.8049559045
 30
0.0
 10
12.279382573
 20
8.8073554507
 30
0.0
 10
12.2798304342
 20
8.8091543387
 30
0.0
 10
12.2802025159
 20
8.8106558664
 30
0.0
 10
12.2804652024
 20
8.8117021192
 30
0.0
 10
12.2806118281
 20
8.8123074988
 30
0.0
 10
12.280731603
 20
8.812740347
 30
0.0
 10
12.2808138957
 20
8.8132541807
 30
0.0
 10
12.2809366936
 20
8.8139110437
 30
0.0
 10
12.2811454983
 20
8.8150737156
 30
0.0
 10
12.2814469754
 20
8.8167277943
 30
0.0
 10
12.2818073848
 20
8.8187156342
 30
0.0
 10
12.282288407
 20
8.8213650582
 30
0.0
 10
12.2828895202
 20
8.8246771931
 30
0.0
 10
12.2836109315
 20
8.8286515953
 30
0.0
 10
12.284332304
 20
8.8326260686
 30
0.0
 10
12.2849335141
 20
8.8359380256
 30
0.0
 10
12.2854143425
 20
8.8385878056
 30
0.0
 10
12.2857753428
 20
8.8405745598
 30
0.0
 10
12.2860749714
 20
8.842232035
 30
0.0
 10
12.2862870762
 20
8.8433886436
 30
0.0
 10
12.2864045864
 20
8.8440552215
 30
0.0
 10
12.286503121
 20
8.8445392142
 30
0.0
 10
12.2865618941
 20
8.8450841402
 30
0.0
 10
12.2866541276
 20
8.8457894539
 30
0.0
 10
12.2868090741
 20
8.8470336556
 30
0.0
 10
12.2870338048
 20
8.8488059094
 30
0.0
 10
12.2873020351
 20
8.8509348301
 30
0.0
 10
12.2876601827
 20
8.8537726159
 30
0.0
 10
12.28810768
 20
8.8573201219
 30
0.0
 10
12.2886448144
 20
8.8615769779
 30
0.0
 10
12.2891816975
 20
8.8658340004
 30
0.0
 10
12.2897194484
 20
8.870090508
 30
0.0
 10
12.2901648907
 20
8.8736391756
 30
0.0
 10
12.290481956
 20
8.8761201545
 30
0.0
 10
12.2906549314
 20
8.8775426777
 30
0.0
 10
12.2908077757
 20
8.8785959895
 30
0.0
 10
12.2908722713
 20
8.8797012132
 30
0.0
 10
12.2909890826
 20
8.8811567373
 30
0.0
 10
12.2911791434
 20
8.8837123411
 30
0.0
 10
12.2914581707
 20
8.8873587918
 30
0.0
 10
12.2917897666
 20
8.8917364263
 30
0.0
 10
12.2921222909
 20
8.8961135451
 30
0.0
 10
12.2924543387
 20
8.900490833
 30
0.0
 10
12.2927873641
 20
8.9048679602
 30
0.0
 10
12.2930620235
 20
8.9085159609
 30
0.0
 10
12.2932598671
 20
8.9110688029
 30
0.0
 10
12.2933642099
 20
8.9125287516
 30
0.0
 10
12.2934670043
 20
8.9136203843
 30
0.0
 10
12.2934760048
 20
8.9147247417
 30
0.0
 10
12.2935207218
 20
8.9161927797
 30
0.0
 10
12.2935837332
 20
8.9187639142
 30
0.0
 10
12.2936817205
 20
8.9224358826
 30
0.0
 10
12.2937958862
 20
8.9268427061
 30
0.0
 10
12.2939109743
 20
8.9312494137
 30
0.0
 10
12.2940257922
 20
8.9356561231
 30
0.0
 10
12.2941216057
 20
8.9393284716
 30
0.0
 10
12.2941980749
 20
8.9422661319
 30
0.0
 10
12.2942558925
 20
8.9444699781
 30
0.0
 10
12.2943025972
 20
8.9463046044
 30
0.0
 10
12.2943381876
 20
8.9475925956
 30
0.0
 10
12.2943540016
 20
8.9483227309
 30
0.0
 10
12.2943786045
 20
8.9488868389
 30
0.0
 10
12.2943544995
 20
8.9493878509
 30
0.0
 10
12.2943393493
 20
8.9500778755
 30
0.0
 10
12.2943049207
 20
8.9512751643
 30
0.0
 10
12.2942598755
 20
8.9529909379
 30
0.0
 10
12.2942040498
 20
8.9550475715
 30
0.0
 10
12.2941302345
 20
8.9577905515
 30
0.0
 10
12.2940377516
 20
8.9612189991
 30
0.0
 10
12.2939268697
 20
8.9653332651
 30
0.0
 10
12.2938159397
 20
8.9694474593
 30
0.0
 10
12.2937235768
 20
8.9728760863
 30
0.0
 10
12.2936495216
 20
8.9756187074
 30
0.0
 10
12.2935944276
 20
8.9776764358
 30
0.0
 10
12.2935470933
 20
8.9793887842
 30
0.0
 10
12.293516751
 20
8.9805921876
 30
0.0
 10
12.2934950536
 20
8.9812724151
 30
0.0
 10
12.2934910598
 20
8.9818035205
 30
0.0
 10
12.2934401286
 20
8.9822546027
 30
0.0
 10
12.2933885926
 20
8.9828839587
 30
0.0
 10
12.2932907764
 20
8.9839723264
 30
0.0
 10
12.2931550272
 20
8.9855339367
 30
0.0
 10
12.292990421
 20
8.9874049588
 30
0.0
 10
12.2927715425
 20
8.9899006715
 30
0.0
 10
12.2924977395
 20
8.9930199632
 30
0.0
 10
12.2921692643
 20
8.9967632643
 30
0.0
 10
12.2918407634
 20
9.00050652
 30
0.0
 10
12.2915670246
 20
9.0036259254
 30
0.0
 10
12.2913480177
 20
9.0061214108
 30
0.0
 10
12.2912111721
 20
9.0076811736
 30
0.0
 10
12.2911016187
 20
9.008928791
 30
0.0
 10
12.2910196643
 20
9.0098650318
 30
0.0
 10
12.2909506987
 20
9.0106435537
 30
0.0
 10
12.2909037383
 20
9.0111918135
 30
0.0
 10
12.2908748496
 20
9.0114999609
 30
0.0
 10
12.2908589697
 20
9.0117455619
 30
0.0
 10
12.2908209706
 20
9.0119357729
 30
0.0
 10
12.2907780206
 20
9.0122087083
 30
0.0
 10
12.2906992633
 20
9.0126773433
 30
0.0
 10
12.2905886322
 20
9.0133515281
 30
0.0
 10
12.2904550705
 20
9.0141585355
 30
0.0
 10
12.2902772692
 20
9.0152352489
 30
0.0
 10
12.2900549214
 20
9.0165808998
 30
0.0
 10
12.2896992187
 20
9.0187340759
 30
0.0
 10
12.2892545718
 20
9.0214254994
 30
0.0
 10
12.2887210039
 20
9.0246552292
 30
0.0
 10
12.2881874318
 20
9.0278849475
 30
0.0
 10
12.2877427953
 20
9.0305763997
 30
0.0
 10
12.2873870717
 20
9.0327295184
 30
0.0
 10
12.287164777
 20
9.0340753153
 30
0.0
 10
12.2869868666
 20
9.0351517289
 30
0.0
 10
12.2868536384
 20
9.0359596523
 30
0.0
 10
12.286741964
 20
9.0366309713
 30
0.0
 10
12.2866650692
 20
9.0371047223
 30
0.0
 10
12.286619135
 20
9.0373694605
 30
0.0
 10
12.2865903023
 20
9.0375848506
 30
0.0
 10
12.286539995
 20
9.0377358831
 30
0.0
 10
12.2864804091
 20
9.0379597085
 30
0.0
 10
12.2863726438
 20
9.0383409437
 30
0.0
 10
12.2862205179
 20
9.0388910336
 30
0.0
 10
12.2860371859
 20
9.039548801
 30
0.0
 10
12.2857930161
 20
9.0404266416
 30
0.0
 10
12.2854877103
 20
9.0415236624
 30
0.0
 10
12.2849992734
 20
9.0432790523
 30
0.0
 10
12.2843887091
 20
9.0454732354
 30
0.0
 10
12.2836560402
 20
9.0481062805
 30
0.0
 10
12.2829233677
 20
9.0507393111
 30
0.0
 10
12.2823128124
 20
9.0529335302
 30
0.0
 10
12.2818243575
 20
9.0546888483
 30
0.0
 10
12.2815190972
 20
9.0557860514
 30
0.0
 10
12.2812748342
 20
9.0566635178
 30
0.0
 10
12.2810917866
 20
9.0573224285
 30
0.0
 10
12.2809387711
 20
9.0578689413
 30
0.0
 10
12.280832594
 20
9.0582565622
 30
0.0
 10
12.2807704633
 20
9.0584701561
 30
0.0
 10
12.2807279727
 20
9.0586526165
 30
0.0
 10
12.2806697816
 20
9.0587499686
 30
0.0
 10
12.2805976699
 20
9.0589094582
 30
0.0
 10
12.2804689228
 20
9.0591747333
 30
0.0
 10
12.2802863325
 20
9.0595609291
 30
0.0
 10
12.280066653
 20
9.0600212688
 30
0.0
 10
12.2797739466
 20
9.0606361361
 30
0.0
 10
12.2794079952
 20
9.0614043501
 30
0.0
 10
12.2788225112
 20
9.0626336995
 30
0.0
 10
12.278090643
 20
9.0641703148
 30
0.0
 10
12.2772124072
 20
9.0660142858
 30
0.0
 10
12.2763341685
 20
9.0678582403
 30
0.0
 10
12.2756023073
 20
9.0693948969
 30
0.0
 10
12.2750168093
 20
9.0706241636
 30
0.0
 10
12.2746508934
 20
9.0713925876
 30
0.0
 10
12.2743581143
 20
9.072007024
 30
0.0
 10
12.2741386567
 20
9.0724686805
 30
0.0
 10
12.2739553721
 20
9.0728507561
 30
0.0
 10
12.2738278645
 20
9.0731233865
 30
0.0
 10
12.273753767
 20
9.0732710911
 30
0.0
 10
12.2737016756
 20
9.0734046429
 30
0.0
 10
12.2736362752
 20
9.0734511432
 30
0.0
 10
12.2735537171
 20
9.0735435082
 30
0.0
 10
12.2734070773
 20
9.0736909996
 30
0.0
 10
12.2731987228
 20
9.0739090979
 30
0.0
 10
12.2729482133
 20
9.07416765
 30
0.0
 10
12.2726143698
 20
9.0745134919
 30
0.0
 10
12.2721970075
 20
9.0749454157
 30
0.0
 10
12.2715292602
 20
9.0756367055
 30
0.0
 10
12.2706945648
 20
9.0765007445
 30
0.0
 10
12.2696929354
 20
9.0775376249
 30
0.0
 10
12.2686913039
 20
9.0785744881
 30
0.0
 10
12.267856614
 20
9.0794385699
 30
0.0
 10
12.2671888558
 20
9.0801297741
 30
0.0
 10
12.266771521
 20
9.0805619154
 30
0.0
 10
12.2664376211
 20
9.0809073108
 30
0.0
 10
12.2661872838
 20
9.0811672272
 30
0.0
 10
12.2659783907
 20
9.0813810569
 30
0.0
 10
12.2658327124
 20
9.0815361685
 30
0.0
 10
12.2657486138
 20
9.0816163239
 30
0.0
 10
12.2656879451
 20
9.0817003282
 30
0.0
 10
12.2656180824
 20
9.0816930213
 30
0.0
 10
12.2655281391
 20
9.0817151292
 30
0.0
 10
12.2653692441
 20
9.0817389782
 30
0.0
 10
12.2651430325
 20
9.0817808066
 30
0.0
 10
12.2648712441
 20
9.0818276799
 30
0.0
 10
12.2645089765
 20
9.0818913375
 30
0.0
 10
12.2640561019
 20
9.0819705123
 30
0.0
 10
12.2633315249
 20
9.0820974141
 30
0.0
 10
12.262425796
 20
9.0822559646
 30
0.0
 10
12.2613389248
 20
9.0824462603
 30
0.0
 10
12.260252052
 20
9.0826365382
 30
0.0
 10
12.259346327
 20
9.0827951333
 30
0.0
 10
12.2586217423
 20
9.082921946
 30
0.0
 10
12.2581688874
 20
9.0830013471
 30
0.0
 10
12.2578065794
 20
9.0830645402
 30
0.0
 10
12.2575349143
 20
9.0831128325
 30
0.0
 10
12.257308317
 20
9.0831502212
 30
0.0
 10
12.2571501105
 20
9.0831819958
 30
0.0
 10
12.2570590641
 20
9.0831914049
 30
0.0
 10
12.2569925899
 20
9.0832231044
 30
0.0
 10
12.2569191944
 20
9.0831606073
 30
0.0
 10
12.2568237479
 20
9.0831101347
 30
0.0
 10
12.2566555918
 20
9.0830064989
 30
0.0
 10
12.2564159568
 20
9.0828664514
 30
0.0
 10
12.2561281431
 20
9.0826949686
 30
0.0
 10
12.2557444795
 20
9.0824675214
 30
0.0
 10
12.2552648698
 20
9.0821828028
 30
0.0
 10
12.2544975112
 20
9.0817274819
 30
0.0
 10
12.2535383071
 20
9.0811582522
 30
0.0
 10
12.2523872647
 20
9.0804752102
 30
0.0
 10
12.2512362216
 20
9.0797921593
 30
0.0
 10
12.2497014977
 20
9.0788814278
 30
0.0
 10
12.2485504547
 20
9.0781983785
 30
0.0
 10
12.2477830927
 20
9.0777430125
 30
0.0
  0
ELLIPSE
  5
3A0
100
AcDbEntity
  8
0
100
AcDbEllipse
 62
7
  6
CONTINUOUS
 10
10.3222776428
 20
7.329241635
 30
0.0
 11
-0.1539707482
 21
0.1626695654
 31
0.0
 40
0.8456173891
 41
0.0
 42
6.2831853072
  0
ELLIPSE
  5
3A1
100
AcDbEntity
  8
0
100
AcDbEllipse
 62
7
  6
CONTINUOUS
 10
10.7443872889
 20
7.8138408643
 30
0.0
 11
0.1855501703
 21
-0.1328421676
 31
0.0
 40
0.7689335103
 41
0.0
 42
6.2831853072
  0
ELLIPSE
  5
3A2
100
AcDbEntity
  8
0
100
AcDbEllipse
 62
7
  6
CONTINUOUS
 10
10.3222776428
 20
9.1413185225
 30
0.0
 11
0.1585719937
 21
0.1361409918
 31
0.0
 40
0.9712406307
 41
0.0
 42
6.2831853072
  0
ENDSEC
  0
SECTION
  2
OBJECTS
  0
DICTIONARY
  5
C
100
AcDbDictionary
280
0
281
1
  3
ACAD_GROUP
350
D
  3
ACAD_MLINESTYLE
350
17
  3
ACAD_LAYOUT
350
1A
  3
ACAD_PLOTSETTINGS
350
19
  3
ACAD_PLOTSTYLENAME
350
E
  3
ACAD_IMAGE_DICT
350
       3A4
  3
ACAD_IMAGE_VARS
350
       3A5
  3
ACAD_TABLESTYLE
350
       3A6
  0
IMAGEDEF_REACTOR
  5
3A3
100
AcDbRasterImageDefReactor
 90
2
330
272
  0
DICTIONARY
  5
D
102
{ACAD_REACTORS
330
C
102
}
100
AcDbDictionary
280
0
281
1
  0
ACDBDICTIONARYWDFLT
  5
E
102
{ACAD_REACTORS
330
C
102
}
100
AcDbDictionary
281
1
  3
Normal
350
F
100
AcDbDictionaryWithDefault
340
F
  0
DICTIONARY
  5
3A4
330
C
100
AcDbDictionary
281
1
  3
CB5_assy_2_img_1
350
       3A9
  0
RASTERVARIABLES
  5
3A5
330
C
100
AcDbRasterVariables
 90
0
 70
0
 71
1
 72
5
  0
DICTIONARY
  5
17
102
{ACAD_REACTORS
330
C
102
}
100
AcDbDictionary
280
0
281
1
  3
Standard
350
18
  0
DICTIONARY
  5
3A6
330
C
100
AcDbDictionary
281
1
  3
Standard
350
       3AA
  3
Standard1
350
       3AB
  0
DICTIONARY
  5
19
102
{ACAD_REACTORS
330
C
102
}
100
AcDbDictionary
281
1
  0
DICTIONARY
  5
1A
102
{ACAD_REACTORS
330
C
102
}
100
AcDbDictionary
281
1
  3
Model
350
3A7
  3
Layout1
350
3A8
  0
ACDBPLACEHOLDER
  5
F
102
{ACAD_REACTORS
330
E
102
}
  0
MLINESTYLE
  5
18
102
{ACAD_REACTORS
330
17
102
}
100
AcDbMlineStyle
  2
STANDARD
 70
0
  3

 62
256
 51
90.0
 52
90.0
 71
2
 49
0.5
 62
256
  6
BYLAYER
 49
-0.5
 62
256
  6
BYLAYER
  0
LAYOUT
  5
3A7
102
{ACAD_REACTORS
330
1A
102
}
100
AcDbPlotSettings
  1

  2
none_device
  4
ANSI_C_(22.00_x_17.00_Inches)
  6

 40
0.0
 41
0.0
 42
0.0
 43
0.0
 44
558.8
 45
431.8
 46
0.0
 47
0.0
 48
0.0
 49
0.0
140
0.0
141
0.0
142
1.0
143
1.0
 70
1024
 72
0
 73
0
 74
0
  7

 75
0
147
1.0
148
0.0
149
0.0
100
AcDbLayout
  1
Model
 70
0
 71
0
 10
0.0
 20
0.0
 11
22.0
 21
17.0
 12
0.0
 22
0.0
 32
0.0
 14
0.0
 24
0.0
 34
0.0
 15
0.0
 25
0.0
 35
0.0
146
0.0
 13
0.0
 23
0.0
 33
0.0
 16
1.0
 26
0.0
 36
0.0
 17
0.0
 27
1.0
 37
0.0
 76
0
330
20C
345
0
346
0
  0
LAYOUT
  5
3A8
102
{ACAD_REACTORS
330
1A
102
}
100
AcDbPlotSettings
  1

  2
none_device
  4
ANSI_C_(22.00_x_17.00_Inches)
  6

 40
0.0
 41
0.0
 42
0.0
 43
0.0
 44
558.8
 45
431.8
 46
0.0
 47
0.0
 48
0.0
 49
0.0
140
0.0
141
0.0
142
1.0
143
1.0
 70
0
 72
0
 73
0
 74
0
  7

 75
0
147
1.0
148
0.0
149
0.0
100
AcDbLayout
  1
Layout1
 70
0
 71
1
 10
0.0
 20
0.0
 11
22.0
 21
17.0
 12
0.0
 22
0.0
 32
0.0
 14
0.0
 24
0.0
 34
0.0
 15
0.0
 25
0.0
 35
0.0
146
0.0
 13
0.0
 23
0.0
 33
0.0
 16
1.0
 26
0.0
 36
0.0
 17
0.0
 27
1.0
 37
0.0
 76
0
330
20D
345
0
346
0
  0
IMAGEDEF
  5
3A9
102
{ACAD_REACTORS
330
3A4
330
3A3
102
}
100
AcDbRasterImageDef
 90
0
  1
CB5_assy_2_img_1.png
 10
369.0
 20
92.0
 11
0.0066666667
 21
0.0066666667
280
1
281
0
  0
TABLESTYLE
  5
3AA
102
{ACAD_REACTORS
330
3A6
330
275
102
}
330
3A6
100
AcDbTableStyle
  3
Standard
 70
0
 71
0
 40
0.06
 41
0.06
280
1
281
1
  7
Standard
140
0.18
170
1
 62
0
 63
7
283
0
  7
Standard
140
0.18
170
1
 62
0
 63
7
283
0
  7
Standard
140
0.18
170
1
 62
0
 63
7
283
0
  0
TABLESTYLE
  5
3AB
102
{ACAD_REACTORS
330
3A6
330
274
102
}
330
3A6
100
AcDbTableStyle
  3
Standard1
 70
1
 71
0
 40
0.06
 41
0.06
280
1
281
1
  7
Standard
140
0.18
170
1
 62
0
 63
7
283
0
  7
Standard
140
0.18
170
1
 62
0
 63
7
283
0
  7
Standard
140
0.18
170
1
 62
0
 63
7
283
0
  0
ENDSEC
  0
EOF
