999
DXF file: CB4_assy_2.dxf
999
Pro/ENGINEER 2014200 by Parametric Technology Corporation
  0
SECTION
  2
HEADER
  9
$ACADVER
  1
AC1021
  9
$DWGCODEPAGE
  3
ANSI_1252
  9
$EXTMAX
 10
22.0
 20
17.0
 30
0.0
  9
$EXTMIN
 10
0.0
 20
0.0
 30
0.0
  9
$LIMMIN
 10
0.0
 20
0.0
  9
$LIMMAX
 10
22.0
 20
17.0
  9
$VIEWCTR
 10
11.0
 20
8.5
  9
$VIEWSIZE
 40
17.0
  9
$CLAYER
  8
0
  9
$LTSCALE
 40
1.21
  9
$CELTYPE
  6
BYLAYER
  9
$DIMSCALE
 40
1.0
  9
$DIMASZ
 40
0.1875
  9
$DIMEXO
 40
0.0625
  9
$DIMDLI
 40
0.836
  9
$DIMEXE
 40
0.125
  9
$DIMCEN
 40
0.198
  9
$DIMLFAC
 40
1.0
  9
$DIMBLK
  1
_FILLED
  9
$DIMTXT
 40
0.1
  9
$DIMTOL
 70
0
  9
$DIMLIM
 70
0
  9
$DIMTFAC
 40
1.0
  9
$DIMGAP
 40
0.09
  9
$DIMDSEP
 70
46
  9
$AUNITS
 70
0
  9
$PDMODE
 70
3
  9
$PDSIZE
 40
0.3125
  9
$HANDSEED
  5
3C6
  9
$TILEMODE
 70
1
  9
$MEASUREMENT
 70
0
  9
$INSUNITS
 70
1
  0
ENDSEC
  0
SECTION
  2
CLASSES
  0
CLASS
  1
ACDBDICTIONARYWDFLT
  2
AcDbDictionaryWithDefault
  3
AutoCAD 2000
 90
0
 91
1
280
0
281
0
  0
CLASS
  1
ACDBPLACEHOLDER
  2
AcDbPlaceHolder
  3
AutoCAD 2000
 90
0
 91
1
280
0
281
0
  0
CLASS
  1
LAYOUT
  2
AcDbLayout
  3
AutoCAD 2000
 90
0
 91
0
280
0
281
0
  0
CLASS
  1
RASTERVARIABLES
  2
AcDbRasterVariables
  3
ISM
 90
0
 91
1
280
0
281
0
  0
CLASS
  1
IMAGEDEF
  2
AcDbRasterImageDef
  3
ISM
 90
0
 91
1
280
0
281
0
  0
CLASS
  1
IMAGEDEF_REACTOR
  2
AcDbRasterImageDefReactor
  3
ISM
 90
0
 91
1
280
0
281
0
  0
CLASS
  1
IMAGE
  2
AcDbRasterImage
  3
ISM
 90
127
 91
1
280
0
281
1
  0
CLASS
  1
TABLESTYLE
  2
AcDbTableStyle
  3
ObjectDBX Classes
 90
2047
 91
1
280
0
281
0
  0
CLASS
  1
ACAD_TABLE
  2
AcDbTable
  3
ObjectDBX Classes
 90
1025
 91
2
280
0
281
1
  0
ENDSEC
  0
SECTION
  2
TABLES
  0
TABLE
  2
VPORT
  5
8
100
AcDbSymbolTable
 70
2
  0
VPORT
  5
1F4
100
AcDbSymbolTableRecord
100
AcDbViewportTableRecord
  2
*ACTIVE
 70
0
 10
0.0
 20
0.0
 11
1.0
 21
1.0
 12
11.0
 22
8.5
 13
0.0
 23
0.0
 14
1.0
 24
1.0
 15
0.0
 25
0.0
 16
0.0
 26
0.0
 36
1.0
 17
0.0
 27
0.0
 37
0.0
 40
17.0
 41
1.2941176471
 42
50.0
 43
0.0
 44
0.0
 50
0.0
 51
0.0
 71
0
 72
100
 73
1
 74
1
 75
0
 76
0
 77
0
 78
0
  0
ENDTAB
  0
TABLE
  2
LTYPE
  5
5
100
AcDbSymbolTable
 70
6
  0
LTYPE
  5
14
100
AcDbSymbolTableRecord
100
AcDbLinetypeTableRecord
  2
BYBLOCK
 70
0
  3

 72
65
 73
0
 40
0.0
  0
LTYPE
  5
15
100
AcDbSymbolTableRecord
100
AcDbLinetypeTableRecord
  2
BYLAYER
 70
0
  3

 72
65
 73
0
 40
0.0
  0
LTYPE
  5
16
100
AcDbSymbolTableRecord
100
AcDbLinetypeTableRecord
  2
CONTINUOUS
 70
64
  3
Solid line
 72
65
 73
0
 40
0.0
  0
LTYPE
  5
1F5
100
AcDbSymbolTableRecord
100
AcDbLinetypeTableRecord
  2
CENTER
 70
64
  3
____ _ ____ _ ____ _ ____ _ ____ _ ____ _ ____
 72
65
 73
4
 40
0.6
 49
0.375
 74
0
 49
-0.075
 74
0
 49
0.075
 74
0
 49
-0.075
 74
0
  0
LTYPE
  5
1F6
100
AcDbSymbolTableRecord
100
AcDbLinetypeTableRecord
  2
HIDDEN
 70
64
  3
- - - - - - - - - - - - - - - - - - - -
 72
65
 73
2
 40
0.2
 49
0.1
 74
0
 49
-0.1
 74
0
  0
LTYPE
  5
1F7
100
AcDbSymbolTableRecord
100
AcDbLinetypeTableRecord
  2
PHANTOM
 70
64
  3
_____ _ _ _____ _ _ _____ _ _ _____
 72
65
 73
6
 40
0.8
 49
0.45
 74
0
 49
-0.05
 74
0
 49
0.1
 74
0
 49
-0.05
 74
0
 49
0.1
 74
0
 49
-0.05
 74
0
  0
LTYPE
  5
1F8
100
AcDbSymbolTableRecord
100
AcDbLinetypeTableRecord
  2
DOT
 70
64
  3
. . . . . . . . . . . . . . . . . . . .
 72
65
 73
2
 40
0.2
 49
0.1
 74
0
 49
-0.1
 74
0
  0
LTYPE
  5
1F9
100
AcDbSymbolTableRecord
100
AcDbLinetypeTableRecord
  2
DASHED
 70
64
  3
- - - - - - - - - - - - - - - - - - - -
 72
65
 73
2
 40
0.2
 49
0.1
 74
0
 49
-0.1
 74
0
  0
ENDTAB
  0
TABLE
  2
LAYER
  5
2
100
AcDbSymbolTable
 70
36
  0
LAYER
  5
10
100
AcDbSymbolTableRecord
100
AcDbLayerTableRecord
  2
0
 70
0
 62
7
  6
CONTINUOUS
370
-3
390
F
  0
LAYER
  5
1FA
100
AcDbSymbolTableRecord
100
AcDbLayerTableRecord
  2
DEFAULT_1
 70
0
 62
7
  6
CENTER
370
-3
390
F
  0
LAYER
  5
1FB
100
AcDbSymbolTableRecord
100
AcDbLayerTableRecord
  2
DEFAULT_2
 70
0
 62
8
  6
HIDDEN
370
-3
390
F
  0
LAYER
  5
1FC
100
AcDbSymbolTableRecord
100
AcDbLayerTableRecord
  2
DEFAULT_3
 70
0
 62
7
  6
PHANTOM
370
-3
390
F
  0
LAYER
  5
1FD
100
AcDbSymbolTableRecord
100
AcDbLayerTableRecord
  2
01___PRT_ALL_DTM_PLN
 70
0
 62
7
  6
CONTINUOUS
370
-3
390
F
  0
LAYER
  5
1FE
100
AcDbSymbolTableRecord
100
AcDbLayerTableRecord
  2
01___PRT_DEF_DTM_PLN
 70
0
 62
7
  6
CONTINUOUS
370
-3
390
F
  0
LAYER
  5
1FF
100
AcDbSymbolTableRecord
100
AcDbLayerTableRecord
  2
02___PRT_ALL_AXES
 70
0
 62
7
  6
CONTINUOUS
370
-3
390
F
  0
LAYER
  5
200
100
AcDbSymbolTableRecord
100
AcDbLayerTableRecord
  2
03___PRT_ALL_CURVES
 70
0
 62
7
  6
CONTINUOUS
370
-3
390
F
  0
LAYER
  5
201
100
AcDbSymbolTableRecord
100
AcDbLayerTableRecord
  2
04___PRT_ALL_DTM_PNT
 70
0
 62
7
  6
CONTINUOUS
370
-3
390
F
  0
LAYER
  5
202
100
AcDbSymbolTableRecord
100
AcDbLayerTableRecord
  2
05___PRT_ALL_DTM_CSYS
 70
0
 62
7
  6
CONTINUOUS
370
-3
390
F
  0
LAYER
  5
203
100
AcDbSymbolTableRecord
100
AcDbLayerTableRecord
  2
05___PRT_DEF_DTM_CSYS
 70
0
 62
7
  6
CONTINUOUS
370
-3
390
F
  0
LAYER
  5
204
100
AcDbSymbolTableRecord
100
AcDbLayerTableRecord
  2
06___PRT_ALL_SURFS
 70
0
 62
7
  6
CONTINUOUS
370
-3
390
F
  0
LAYER
  5
205
100
AcDbSymbolTableRecord
100
AcDbLayerTableRecord
  2
DATUM_PLANES
 70
0
 62
7
  6
CONTINUOUS
370
-3
390
F
  0
LAYER
  5
206
100
AcDbSymbolTableRecord
100
AcDbLayerTableRecord
  2
PORT_AREAS
 70
0
 62
7
  6
CONTINUOUS
370
-3
390
F
  0
LAYER
  5
207
100
AcDbSymbolTableRecord
100
AcDbLayerTableRecord
  2
SUNNBOMCOSMETIC
 70
0
 62
7
  6
CONTINUOUS
370
-3
390
F
  0
LAYER
  5
208
100
AcDbSymbolTableRecord
100
AcDbLayerTableRecord
  2
SUNNBOMSTAMPING
 70
0
 62
7
  6
CONTINUOUS
370
-3
390
F
  0
LAYER
  5
209
100
AcDbSymbolTableRecord
100
AcDbLayerTableRecord
  2
THREADS
 70
0
 62
7
  6
CONTINUOUS
370
-3
390
F
  0
ENDTAB
  0
TABLE
  2
STYLE
  5
3
100
AcDbSymbolTable
 70
1
  0
STYLE
  5
11
100
AcDbSymbolTableRecord
100
AcDbTextStyleTableRecord
  2
STANDARD
 70
0
 40
0.0
 41
0.8
 50
0.0
 71
0
 42
0.2
  3
txt
  4

  0
STYLE
  5
20A
100
AcDbSymbolTableRecord
100
AcDbTextStyleTableRecord
  2
TEXTSTYLE_1
 70
0
 40
0.0
 41
0.8
 50
0.0
 71
0
 42
0.2
  3
gdt
  4

  0
ENDTAB
  0
TABLE
  2
VIEW
  5
6
100
AcDbSymbolTable
 70
0
  0
ENDTAB
  0
TABLE
  2
UCS
  5
7
100
AcDbSymbolTable
 70
0
  0
ENDTAB
  0
TABLE
  2
APPID
  5
9
100
AcDbSymbolTable
 70
1
  0
APPID
  5
20B
100
AcDbSymbolTableRecord
100
AcDbRegAppTableRecord
  2
ACAD
 70
0
  0
ENDTAB
  0
TABLE
  2
BLOCK_RECORD
  5
1
100
AcDbSymbolTable
 70
0
  0
BLOCK_RECORD
  5
20C
100
AcDbSymbolTableRecord
100
AcDbBlockTableRecord
  2
*Model_Space
  0
BLOCK_RECORD
  5
20D
100
AcDbSymbolTableRecord
100
AcDbBlockTableRecord
  2
*Paper_Space
  0
BLOCK_RECORD
  5
20E
100
AcDbSymbolTableRecord
100
AcDbBlockTableRecord
  2
SUN_FIRST_THIRD_ANGLE_BL0
  0
BLOCK_RECORD
  5
20F
100
AcDbSymbolTableRecord
100
AcDbBlockTableRecord
  2
*T1
  0
BLOCK_RECORD
  5
210
100
AcDbSymbolTableRecord
100
AcDbBlockTableRecord
  2
*T2
  0
ENDTAB
  0
TABLE
  2
DIMSTYLE
  5
A
100
AcDbSymbolTable
 70
1
100
AcDbDimStyleTable
 71
0
  0
DIMSTYLE
105
211
100
AcDbSymbolTableRecord
100
AcDbDimStyleTableRecord
  2
STANDARD
 70
0
  3

  4

 40
1.0
 41
0.1875
 42
0.0625
 43
0.38
 44
0.125
 45
0.0
 46
0.0
 47
0.001
 48
0.001
140
0.1
141
0.09
142
0.0
143
25.4
144
1.0
145
0.0
146
1.0
147
0.09
 71
0.0
 72
0.0
 73
1
 74
1
 75
0
 76
0
 77
0
 78
4
170
0
171
2
172
0
173
0
174
0
175
0
176
0
177
0
178
0
270
2
271
3
272
3
273
2
274
2
275
0
280
0
281
0
282
0
283
1
284
4
285
0
286
0
287
3
288
0
340
11
278
46
  0
ENDTAB
  0
ENDSEC
  0
SECTION
  2
BLOCKS
  0
BLOCK
  5
20
100
AcDbEntity
  8
0
100
AcDbBlockBegin
  2
*Model_Space
 70
0
 10
0.0
 20
0.0
 30
0.0
  3
*Model_Space
  1

  0
ENDBLK
  5
21
100
AcDbEntity
  8
0
100
AcDbBlockEnd
  0
BLOCK
  5
1C
100
AcDbEntity
  8
0
100
AcDbBlockBegin
  2
*Paper_Space
 70
0
 10
0.0
 20
0.0
 30
0.0
  3
*Paper_Space
  1

  0
ENDBLK
  5
1D
100
AcDbEntity
  8
0
100
AcDbBlockEnd
  0
BLOCK
  5
212
100
AcDbEntity
  8
0
100
AcDbBlockBegin
 62
2
  6
CONTINUOUS
  2
SUN_FIRST_THIRD_ANGLE_BL0
 70
64
 10
20.4816717061
 20
1.2289683772
  3
SUN_FIRST_THIRD_ANGLE_BL0
  1

  0
TEXT
  5
213
100
AcDbEntity
  8
0
100
AcDbText
 62
2
  6
CONTINUOUS
 10
19.4750896608
 20
1.4136269581
  7
STANDARD
 40
0.08
  1
FIRST ANGLE
 41
0.8
 72
0
100
AcDbText
  0
TEXT
  5
214
100
AcDbEntity
  8
0
100
AcDbText
 62
2
  6
CONTINUOUS
 10
20.7842537513
 20
1.4047600029
  7
STANDARD
 40
0.08
  1
THIRD ANGLE
 41
0.8
 72
0
100
AcDbText
  0
LINE
  5
215
100
AcDbEntity
  8
0
100
AcDbLine
 62
7
  6
CONTINUOUS
 10
19.4767170086
 20
1.1727031207
 11
19.6334271527
 21
1.1717972817
  0
LINE
  5
216
100
AcDbEntity
  8
0
100
AcDbLine
 62
7
  6
CONTINUOUS
 10
19.6596964832
 20
1.1717972817
 11
19.6950230232
 21
1.171593082
  0
LINE
  5
217
100
AcDbEntity
  8
0
100
AcDbLine
 62
7
  6
CONTINUOUS
 10
19.7194818561
 20
1.1708914427
 11
19.8852396156
 21
1.1699333054
  0
LINE
  5
218
100
AcDbEntity
  8
0
100
AcDbLine
 62
7
  6
CONTINUOUS
 10
19.4758111696
 20
1.2723454088
 11
19.88525039
 21
1.3511534004
  0
LINE
  5
219
100
AcDbEntity
  8
0
100
AcDbLine
 62
7
  6
CONTINUOUS
 10
19.88525039
 20
1.3511534004
 11
19.8831348489
 21
0.9851647912
  0
LINE
  5
21A
100
AcDbEntity
  8
0
100
AcDbLine
 62
7
  6
CONTINUOUS
 10
19.8831348489
 20
0.9851647912
 11
19.4767170086
 21
1.0658141206
  0
LINE
  5
21B
100
AcDbEntity
  8
0
100
AcDbLine
 62
7
  6
CONTINUOUS
 10
19.4767170086
 20
1.0658141206
 11
19.4779056764
 21
1.2714536432
  0
CIRCLE
  5
21C
100
AcDbEntity
  8
0
100
AcDbCircle
 62
7
  6
CONTINUOUS
 10
20.2068232291
 20
1.1717972817
 40
0.175742101
  0
CIRCLE
  5
21D
100
AcDbEntity
  8
0
100
AcDbCircle
 62
7
  6
CONTINUOUS
 10
20.2068232291
 20
1.1717972817
 40
0.1005522074
  0
LINE
  5
21E
100
AcDbEntity
  8
0
100
AcDbLine
 62
7
  6
CONTINUOUS
 10
20.2077290681
 20
1.3756110529
 11
20.2071171714
 21
1.2379342989
  0
LINE
  5
21F
100
AcDbEntity
  8
0
100
AcDbLine
 62
7
  6
CONTINUOUS
 10
20.2077290681
 20
1.2016899681
 11
20.2074674401
 21
1.1428236749
  0
LINE
  5
220
100
AcDbEntity
  8
0
100
AcDbLine
 62
7
  6
CONTINUOUS
 10
20.208634907
 20
1.101141841
 11
20.2080230104
 21
0.963465087
  0
LINE
  5
221
100
AcDbEntity
  8
0
100
AcDbLine
 62
7
  6
CONTINUOUS
 10
20.0066328138
 20
1.1745147986
 11
20.1443095678
 21
1.1739029019
  0
LINE
  5
222
100
AcDbEntity
  8
0
100
AcDbLine
 62
7
  6
CONTINUOUS
 10
20.1832714155
 20
1.1727031207
 11
20.238153505
 21
1.172335442
  0
LINE
  5
223
100
AcDbEntity
  8
0
100
AcDbLine
 62
7
  6
CONTINUOUS
 10
20.2756669918
 20
1.1717972817
 11
20.407916871
 21
1.1712095044
  0
CIRCLE
  5
224
100
AcDbEntity
  8
0
100
AcDbCircle
 62
7
  6
CONTINUOUS
 10
20.7509457401
 20
1.1693297793
 40
0.1722024983
  0
CIRCLE
  5
225
100
AcDbEntity
  8
0
100
AcDbCircle
 62
7
  6
CONTINUOUS
 10
20.7509457401
 20
1.1693297793
 40
0.0985164967
  0
LINE
  5
226
100
AcDbEntity
  8
0
100
AcDbLine
 62
7
  6
CONTINUOUS
 10
20.7169767782
 20
1.170462078
 11
20.7825395137
 21
1.1682766535
  0
LINE
  5
227
100
AcDbEntity
  8
0
100
AcDbLine
 62
7
  6
CONTINUOUS
 10
20.8177513651
 20
1.1693297793
 11
20.947965719
 21
1.1693297793
  0
LINE
  5
228
100
AcDbEntity
  8
0
100
AcDbLine
 62
7
  6
CONTINUOUS
 10
20.6875370113
 20
1.170462078
 11
20.5573226574
 21
1.170462078
  0
LINE
  5
229
100
AcDbEntity
  8
0
100
AcDbLine
 62
7
  6
CONTINUOUS
 10
20.7486811426
 20
1.1987695462
 11
20.7486811426
 21
1.1432869085
  0
LINE
  5
22A
100
AcDbEntity
  8
0
100
AcDbLine
 62
7
  6
CONTINUOUS
 10
20.7498134414
 20
1.1059210505
 11
20.7498134414
 21
0.9757066966
  0
LINE
  5
22B
100
AcDbEntity
  8
0
100
AcDbLine
 62
7
  6
CONTINUOUS
 10
20.7486811426
 20
1.2338708068
 11
20.7486811426
 21
1.3640851607
  0
LINE
  5
22C
100
AcDbEntity
  8
0
100
AcDbLine
 62
7
  6
CONTINUOUS
 10
21.0702539817
 20
1.2701043662
 11
21.4790138229
 21
1.3448360823
  0
LINE
  5
22D
100
AcDbEntity
  8
0
100
AcDbLine
 62
7
  6
CONTINUOUS
 10
21.4790138229
 20
1.3448360823
 11
21.4790138229
 21
0.9779712941
  0
LINE
  5
22E
100
AcDbEntity
  8
0
100
AcDbLine
 62
7
  6
CONTINUOUS
 10
21.4790138229
 20
0.9779712941
 11
21.069121683
 21
1.0617614
  0
LINE
  5
22F
100
AcDbEntity
  8
0
100
AcDbLine
 62
7
  6
CONTINUOUS
 10
21.0702539817
 20
1.2701043662
 11
21.069121683
 21
1.0617614
  0
LINE
  5
230
100
AcDbEntity
  8
0
100
AcDbLine
 62
7
  6
CONTINUOUS
 10
21.4790138229
 20
1.1693297793
 11
21.3159628059
 21
1.1693297793
  0
LINE
  5
231
100
AcDbEntity
  8
0
100
AcDbLine
 62
7
  6
CONTINUOUS
 10
21.2876553377
 20
1.1693297793
 11
21.2502894796
 21
1.1693297793
  0
LINE
  5
232
100
AcDbEntity
  8
0
100
AcDbLine
 62
7
  6
CONTINUOUS
 10
21.2208497126
 20
1.1659328831
 11
21.0713862804
 21
1.1659328831
  0
LINE
  5
233
100
AcDbEntity
  8
0
100
AcDbLine
 62
7
  6
CONTINUOUS
 10
20.4796138713
 20
1.5284908897
 11
20.4766766948
 21
0.9294458646
  0
ENDBLK
  5
234
100
AcDbEntity
  8
0
  6
BYBLOCK
 62
0
100
AcDbBlockEnd
  0
BLOCK
  5
235
100
AcDbEntity
  8
0
100
AcDbBlockBegin
  2
*T1
 70
1
 10
0.0
 20
0.0
  3
*T1
  1

  0
LINE
  5
236
100
AcDbEntity
  8
0
100
AcDbLine
 62
2
  6
CONTINUOUS
 10
9.275
 20
0.0
 11
-0.0
 21
0.0
  0
LINE
  5
237
100
AcDbEntity
  8
0
100
AcDbLine
 62
2
  6
CONTINUOUS
 10
9.275
 20
0.0
 11
9.275
 21
1.25
  0
LINE
  5
238
100
AcDbEntity
  8
0
100
AcDbLine
 62
2
  6
CONTINUOUS
 10
9.275
 20
0.625
 11
-0.0
 21
0.625
  0
LINE
  5
239
100
AcDbEntity
  8
0
100
AcDbLine
 62
2
  6
CONTINUOUS
 10
9.275
 20
1.25
 11
-0.0
 21
1.25
  0
LINE
  5
23A
100
AcDbEntity
  8
0
100
AcDbLine
 62
2
  6
CONTINUOUS
 10
6.8
 20
0.0
 11
6.8
 21
1.25
  0
LINE
  5
23B
100
AcDbEntity
  8
0
100
AcDbLine
 62
2
  6
CONTINUOUS
 10
6.4
 20
0.0
 11
6.4
 21
0.625
  0
LINE
  5
23C
100
AcDbEntity
  8
0
100
AcDbLine
 62
2
  6
CONTINUOUS
 10
5.9
 20
0.0
 11
5.9
 21
0.625
  0
LINE
  5
23D
100
AcDbEntity
  8
0
100
AcDbLine
 62
2
  6
CONTINUOUS
 10
5.2
 20
0.0
 11
5.2
 21
0.625
  0
LINE
  5
23E
100
AcDbEntity
  8
0
100
AcDbLine
 62
2
  6
CONTINUOUS
 10
4.1
 20
0.0
 11
4.1
 21
1.25
  0
LINE
  5
23F
100
AcDbEntity
  8
0
100
AcDbLine
 62
2
  6
CONTINUOUS
 10
-0.0
 20
0.0
 11
-0.0
 21
1.25
  0
MTEXT
  5
240
100
AcDbEntity
  8
0
100
AcDbMText
 62
2
  6
CONTINUOUS
  7
STANDARD
 71
2
 72
1
 10
6.6
 20
0.325
 30
0.0
 11
1.0
 21
0.0
 31
0.0
 44
0.9
  1
2
 40
0.125
 41
0.2
  0
MTEXT
  5
241
100
AcDbEntity
  8
0
100
AcDbMText
 62
2
  6
CONTINUOUS
  7
STANDARD
 71
2
 72
1
 10
6.15
 20
0.325
 30
0.0
 11
1.0
 21
0.0
 31
0.0
 44
0.9
  1
C
 40
0.125
 41
0.2
  0
MTEXT
  5
242
100
AcDbEntity
  8
0
100
AcDbMText
 62
2
  6
CONTINUOUS
  7
STANDARD
 71
2
 72
1
 10
5.55
 20
0.325
 30
0.0
 11
1.0
 21
0.0
 31
0.0
 44
0.9
  1
1.000
 40
0.125
 41
1.0
  0
MTEXT
  5
243
100
AcDbEntity
  8
0
100
AcDbMText
 62
2
  6
CONTINUOUS
  7
STANDARD
 71
2
 72
1
 10
4.65
 20
0.325
 30
0.0
 11
1.0
 21
0.0
 31
0.0
 44
0.9
  1
Feb-20-20
 40
0.125
 41
1.8
  0
MTEXT
  5
244
100
AcDbEntity
  8
0
100
AcDbMText
 62
2
  6
CONTINUOUS
  7
STANDARD
 71
2
 72
1
 10
2.05
 20
0.4625
 30
0.0
 11
1.0
 21
0.0
 31
0.0
 44
0.9
  1
T-3A Sandwich ISO 05\POn A  with reverse flow check
 40
0.125
 41
5.8
  0
MTEXT
  5
245
100
AcDbEntity
  8
0
100
AcDbMText
 62
2
  6
CONTINUOUS
  7
STANDARD
 71
1
 72
1
 10
6.45
 20
0.5625
 30
0.0
 11
1.0
 21
0.0
 31
0.0
 44
0.9
  1
SHEET
 40
0.06
 41
0.48
  0
MTEXT
  5
246
100
AcDbEntity
  8
0
100
AcDbMText
 62
2
  6
CONTINUOUS
  7
STANDARD
 71
1
 72
1
 10
5.95
 20
0.5625
 30
0.0
 11
1.0
 21
0.0
 31
0.0
 44
0.9
  1
DWG SIZE
 40
0.06
 41
0.768
  0
MTEXT
  5
247
100
AcDbEntity
  8
0
100
AcDbMText
 62
2
  6
CONTINUOUS
  7
STANDARD
 71
1
 72
1
 10
5.25
 20
0.5625
 30
0.0
 11
1.0
 21
0.0
 31
0.0
 44
0.9
  1
SCALE
 40
0.06
 41
0.48
  0
MTEXT
  5
248
100
AcDbEntity
  8
0
100
AcDbMText
 62
2
  6
CONTINUOUS
  7
STANDARD
 71
1
 72
1
 10
4.15
 20
0.5625
 30
0.0
 11
1.0
 21
0.0
 31
0.0
 44
0.9
  1
DATE
 40
0.06
 41
0.384
  0
MTEXT
  5
249
100
AcDbEntity
  8
0
100
AcDbMText
 62
2
  6
CONTINUOUS
  7
STANDARD
 71
1
 72
1
 10
0.05
 20
0.5625
 30
0.0
 11
1.0
 21
0.0
 31
0.0
 44
0.9
  1
DESCRIPTION
 40
0.06
 41
1.056
  0
MTEXT
  5
24A
100
AcDbEntity
  8
0
100
AcDbMText
 62
2
  6
CONTINUOUS
  7
STANDARD
 71
2
 72
1
 10
5.45
 20
1.0375
 30
0.0
 11
1.0
 21
0.0
 31
0.0
 44
0.9
  1
ALL DIMENSIONS IN INCH\PVIEWS ARE THIRD ANGLE
 40
0.12
 41
4.224
  0
MTEXT
  5
24B
100
AcDbEntity
  8
0
100
AcDbMText
 62
2
  6
CONTINUOUS
  7
STANDARD
 71
2
 72
1
 10
2.05
 20
0.95
 30
0.0
 11
1.0
 21
0.0
 31
0.0
 44
0.9
  1
CB4
 40
0.125
 41
0.6
  0
MTEXT
  5
24C
100
AcDbEntity
  8
0
100
AcDbMText
 62
2
  6
CONTINUOUS
  7
STANDARD
 71
1
 72
1
 10
0.05
 20
1.1875
 30
0.0
 11
1.0
 21
0.0
 31
0.0
 44
0.9
  1
MODEL
 40
0.06
 41
0.48
  0
ENDBLK
  5
24D
100
AcDbEntity
  8
0
  6
BYBLOCK
 62
0
100
AcDbBlockEnd
  0
BLOCK
  5
24E
100
AcDbEntity
  8
0
100
AcDbBlockBegin
  2
*T2
 70
1
 10
0.0
 20
0.0
  3
*T2
  1

  0
LINE
  5
24F
100
AcDbEntity
  8
0
100
AcDbLine
 62
2
  6
CONTINUOUS
 10
0.0
 20
0.0
 11
9.055
 21
0.0
  0
LINE
  5
250
100
AcDbEntity
  8
0
100
AcDbLine
 62
2
  6
CONTINUOUS
 10
0.0
 20
0.0
 11
0.0
 21
-2.094
  0
LINE
  5
251
100
AcDbEntity
  8
0
100
AcDbLine
 62
2
  6
CONTINUOUS
 10
0.0
 20
-0.344
 11
9.055
 21
-0.344
  0
LINE
  5
252
100
AcDbEntity
  8
0
100
AcDbLine
 62
2
  6
CONTINUOUS
 10
0.0
 20
-0.594
 11
9.055
 21
-0.594
  0
LINE
  5
253
100
AcDbEntity
  8
0
100
AcDbLine
 62
2
  6
CONTINUOUS
 10
0.0
 20
-0.844
 11
9.055
 21
-0.844
  0
LINE
  5
254
100
AcDbEntity
  8
0
100
AcDbLine
 62
2
  6
CONTINUOUS
 10
0.0
 20
-1.094
 11
9.055
 21
-1.094
  0
LINE
  5
255
100
AcDbEntity
  8
0
100
AcDbLine
 62
2
  6
CONTINUOUS
 10
0.0
 20
-1.344
 11
9.055
 21
-1.344
  0
LINE
  5
256
100
AcDbEntity
  8
0
100
AcDbLine
 62
2
  6
CONTINUOUS
 10
0.0
 20
-1.594
 11
9.055
 21
-1.594
  0
LINE
  5
257
100
AcDbEntity
  8
0
100
AcDbLine
 62
2
  6
CONTINUOUS
 10
0.0
 20
-1.844
 11
9.055
 21
-1.844
  0
LINE
  5
258
100
AcDbEntity
  8
0
100
AcDbLine
 62
2
  6
CONTINUOUS
 10
0.0
 20
-2.094
 11
9.055
 21
-2.094
  0
LINE
  5
259
100
AcDbEntity
  8
0
100
AcDbLine
 62
2
  6
CONTINUOUS
 10
3.055
 20
0.0
 11
3.055
 21
-2.094
  0
LINE
  5
25A
100
AcDbEntity
  8
0
100
AcDbLine
 62
2
  6
CONTINUOUS
 10
9.055
 20
0.0
 11
9.055
 21
-2.094
  0
MTEXT
  5
25B
100
AcDbEntity
  8
0
100
AcDbMText
 62
2
  6
CONTINUOUS
  7
STANDARD
 71
2
 72
1
 10
1.5275
 20
-0.0995
 30
0.0
 11
1.0
 21
0.0
 31
0.0
 44
0.9
  1
Technical Data
 40
0.145
 41
3.248
  0
MTEXT
  5
25C
100
AcDbEntity
  8
0
100
AcDbMText
 62
2
  6
CONTINUOUS
  7
STANDARD
 71
2
 72
1
 10
4.555
 20
-0.0995
 30
0.0
 11
1.0
 21
0.0
 31
0.0
 44
0.9
  1
U.S. Units
 40
0.145
 41
2.32
  0
MTEXT
  5
25D
100
AcDbEntity
  8
0
100
AcDbMText
 62
2
  6
CONTINUOUS
  7
STANDARD
 71
2
 72
1
 10
7.555
 20
-0.0995
 30
0.0
 11
1.0
 21
0.0
 31
0.0
 44
0.9
  1
Metric Units
 40
0.145
 41
2.784
  0
MTEXT
  5
25E
100
AcDbEntity
  8
0
100
AcDbMText
 62
2
  6
CONTINUOUS
  7
STANDARD
 71
2
 72
1
 10
1.5275
 20
-0.4065
 30
0.0
 11
1.0
 21
0.0
 31
0.0
 44
0.9
  1
Cavity
 40
0.125
 41
1.2
  0
MTEXT
  5
25F
100
AcDbEntity
  8
0
100
AcDbMText
 62
2
  6
CONTINUOUS
  7
STANDARD
 71
2
 72
1
 10
6.055
 20
-0.4065
 30
0.0
 11
1.0
 21
0.0
 31
0.0
 44
0.9
  1
T-3A
 40
0.125
 41
0.8
  0
MTEXT
  5
260
100
AcDbEntity
  8
0
100
AcDbMText
 62
2
  6
CONTINUOUS
  7
STANDARD
 71
2
 72
1
 10
1.5275
 20
-0.6565
 30
0.0
 11
1.0
 21
0.0
 31
0.0
 44
0.9
  1
Body Features
 40
0.125
 41
2.6
  0
MTEXT
  5
261
100
AcDbEntity
  8
0
100
AcDbMText
 62
2
  6
CONTINUOUS
  7
STANDARD
 71
2
 72
1
 10
6.055
 20
-0.6565
 30
0.0
 11
1.0
 21
0.0
 31
0.0
 44
0.9
  1
On A  with reverse flow check
 40
0.125
 41
5.8
  0
MTEXT
  5
262
100
AcDbEntity
  8
0
100
AcDbMText
 62
2
  6
CONTINUOUS
  7
STANDARD
 71
2
 72
1
 10
1.5275
 20
-0.9065
 30
0.0
 11
1.0
 21
0.0
 31
0.0
 44
0.9
  1
Body Type
 40
0.125
 41
1.8
  0
MTEXT
  5
263
100
AcDbEntity
  8
0
100
AcDbMText
 62
2
  6
CONTINUOUS
  7
STANDARD
 71
2
 72
1
 10
6.055
 20
-0.9065
 30
0.0
 11
1.0
 21
0.0
 31
0.0
 44
0.9
  1
Sandwich
 40
0.125
 41
1.6
  0
MTEXT
  5
264
100
AcDbEntity
  8
0
100
AcDbMText
 62
2
  6
CONTINUOUS
  7
STANDARD
 71
2
 72
1
 10
1.5275
 20
-1.1565
 30
0.0
 11
1.0
 21
0.0
 31
0.0
 44
0.9
  1
Interface
 40
0.125
 41
1.8
  0
MTEXT
  5
265
100
AcDbEntity
  8
0
100
AcDbMText
 62
2
  6
CONTINUOUS
  7
STANDARD
 71
2
 72
1
 10
6.055
 20
-1.1565
 30
0.0
 11
1.0
 21
0.0
 31
0.0
 44
0.9
  1
ISO 05
 40
0.125
 41
1.2
  0
MTEXT
  5
266
100
AcDbEntity
  8
0
100
AcDbMText
 62
2
  6
CONTINUOUS
  7
STANDARD
 71
2
 72
1
 10
1.5275
 20
-1.4065
 30
0.0
 11
1.0
 21
0.0
 31
0.0
 44
0.9
  1
Open Cavity Quantity
 40
0.125
 41
4.0
  0
MTEXT
  5
267
100
AcDbEntity
  8
0
100
AcDbMText
 62
2
  6
CONTINUOUS
  7
STANDARD
 71
2
 72
1
 10
6.055
 20
-1.4065
 30
0.0
 11
1.0
 21
0.0
 31
0.0
 44
0.9
  1
1
 40
0.125
 41
0.2
  0
MTEXT
  5
268
100
AcDbEntity
  8
0
100
AcDbMText
 62
2
  6
CONTINUOUS
  7
STANDARD
 71
2
 72
1
 10
1.5275
 20
-1.6565
 30
0.0
 11
1.0
 21
0.0
 31
0.0
 44
0.9
  1
Stack Height
 40
0.125
 41
2.4
  0
MTEXT
  5
269
100
AcDbEntity
  8
0
100
AcDbMText
 62
2
  6
CONTINUOUS
  7
STANDARD
 71
2
 72
1
 10
4.555
 20
-1.6565
 30
0.0
 11
1.0
 21
0.0
 31
0.0
 44
0.9
  1
2.49 in.
 40
0.125
 41
1.6
  0
MTEXT
  5
26A
100
AcDbEntity
  8
0
100
AcDbMText
 62
2
  6
CONTINUOUS
  7
STANDARD
 71
2
 72
1
 10
7.555
 20
-1.6565
 30
0.0
 11
1.0
 21
0.0
 31
0.0
 44
0.9
  1
63 mm
 40
0.125
 41
1.0
  0
MTEXT
  5
26B
100
AcDbEntity
  8
0
100
AcDbMText
 62
2
  6
CONTINUOUS
  7
STANDARD
 71
2
 72
1
 10
1.5275
 20
-1.9065
 30
0.0
 11
1.0
 21
0.0
 31
0.0
 44
0.9
  1
Weight
 40
0.125
 41
1.2
  0
MTEXT
  5
26C
100
AcDbEntity
  8
0
100
AcDbMText
 62
2
  6
CONTINUOUS
  7
STANDARD
 71
2
 72
1
 10
4.555
 20
-1.9065
 30
0.0
 11
1.0
 21
0.0
 31
0.0
 44
0.9
  1
2.814 lb.
 40
0.125
 41
1.8
  0
MTEXT
  5
26D
100
AcDbEntity
  8
0
100
AcDbMText
 62
2
  6
CONTINUOUS
  7
STANDARD
 71
2
 72
1
 10
7.555
 20
-1.9065
 30
0.0
 11
1.0
 21
0.0
 31
0.0
 44
0.9
  1
1,276 kg.
 40
0.125
 41
1.8
  0
ENDBLK
  5
26E
100
AcDbEntity
  8
0
  6
BYBLOCK
 62
0
100
AcDbBlockEnd
  0
ENDSEC
  0
SECTION
  2
ENTITIES
  0
IMAGE
  5
26F
100
AcDbEntity
  8
0
100
AcDbRasterImage
 62
7
  6
CONTINUOUS
 10
19.2297077316
 20
0.3094318264
 30
0.0
 11
0.0066666667
 21
0.0
 31
0.0
 12
0.0
 22
0.0066666667
 32
0.0
 13
369.0
 23
92.0
340
       3C3
 70
9
280
0
281
50
282
50
283
0
360
       3BD
 71
1
 91
2
 14
-0.5
 24
-0.5
 14
368.5
 24
91.5
  0
INSERT
  5
270
100
AcDbEntity
  8
0
100
AcDbBlockReference
 62
2
  6
CONTINUOUS
  2
SUN_FIRST_THIRD_ANGLE_BL0
 10
20.4816717061
 20
1.2289683772
  0
ACAD_TABLE
  5
271
100
AcDbEntity
  8
0
 62
2
  6
CONTINUOUS
100
AcDbBlockReference
  2
*T1
 10
12.42375
 20
0.30125
 30
0.0
100
AcDbTable
342
       3C5
343
20F
 11
1.0
 21
0.0
 31
0.0
 90
6
 91
4
 92
6
 93
20
 94
0
 95
0
 96
0
 70
1
 41
0.0
141
0.525
141
0.1
141
0.525
141
0.1
142
4.1
142
1.1
142
0.7
142
0.5
142
0.4
142
2.475
171
1
172
0
173
0
174
0
175
1
176
1
 91
33
178
0
145
0.0
301
CELL_VALUE
 90
4
  1
T-3A Sandwich ISO 05\POn A  with reverse flow check
304
ACVALUE_END
170
2
140
0.125
171
1
172
0
173
0
174
0
175
1
176
1
 91
33
178
0
145
0.0
301
CELL_VALUE
 90
4
  1
Feb-20-20
304
ACVALUE_END
170
5
140
0.125
171
1
172
0
173
0
174
0
175
1
176
1
 91
33
178
0
145
0.0
301
CELL_VALUE
 90
4
  1
1.000
304
ACVALUE_END
170
5
140
0.125
171
1
172
0
173
0
174
0
175
1
176
1
 91
33
178
0
145
0.0
301
CELL_VALUE
 90
4
  1
C
304
ACVALUE_END
170
5
140
0.125
171
1
172
0
173
0
174
0
175
1
176
1
 91
33
178
0
145
0.0
301
CELL_VALUE
 90
4
  1
2
304
ACVALUE_END
170
5
140
0.125
171
1
172
0
173
0
174
0
175
1
176
1
 91
33
178
0
145
0.0
301
CELL_VALUE
 90
4
  1
 
304
ACVALUE_END
170
1
140
0.125
171
1
172
0
173
0
174
0
175
1
176
1
 91
33
178
0
145
0.0
301
CELL_VALUE
 90
4
  1
DESCRIPTION
304
ACVALUE_END
170
1
140
0.06
171
1
172
0
173
0
174
0
175
1
176
1
 91
33
178
0
145
0.0
301
CELL_VALUE
 90
4
  1
DATE
304
ACVALUE_END
170
1
140
0.06
171
1
172
0
173
0
174
0
175
1
176
1
 91
33
178
0
145
0.0
301
CELL_VALUE
 90
4
  1
SCALE
304
ACVALUE_END
170
1
140
0.06
171
1
172
0
173
0
174
0
175
1
176
1
 91
33
178
0
145
0.0
301
CELL_VALUE
 90
4
  1
DWG SIZE
304
ACVALUE_END
170
1
140
0.06
171
1
172
0
173
0
174
0
175
1
176
1
 91
33
178
0
145
0.0
301
CELL_VALUE
 90
4
  1
SHEET
304
ACVALUE_END
170
1
140
0.06
171
1
172
0
173
0
174
0
175
1
176
1
 91
33
178
0
145
0.0
301
CELL_VALUE
 90
4
  1
 
304
ACVALUE_END
170
1
140
0.125
171
1
172
0
173
0
174
0
175
1
176
1
 91
33
178
0
145
0.0
301
CELL_VALUE
 90
4
  1
CB4
304
ACVALUE_END
170
5
140
0.125
171
1
172
0
173
0
174
0
175
4
176
1
 91
33
178
0
145
0.0
301
CELL_VALUE
 90
4
  1
ALL DIMENSIONS IN INCH\PVIEWS ARE THIRD ANGLE
304
ACVALUE_END
170
5
140
0.12
171
1
172
0
173
1
174
0
175
1
176
1
 91
1
178
0
145
0.0
170
1
171
1
172
0
173
1
174
0
175
1
176
1
 91
1
178
0
145
0.0
170
1
171
1
172
0
173
1
174
0
175
1
176
1
 91
1
178
0
145
0.0
170
5
171
1
172
0
173
0
174
0
175
1
176
1
 91
33
178
0
145
0.0
301
CELL_VALUE
 90
4
  1
 
304
ACVALUE_END
170
1
140
0.125
171
1
172
0
173
0
174
0
175
1
176
1
 91
33
178
0
145
0.0
301
CELL_VALUE
 90
4
  1
MODEL
304
ACVALUE_END
170
1
140
0.06
171
1
172
0
173
0
174
0
175
1
176
1
 91
33
178
0
145
0.0
301
CELL_VALUE
 90
4
  1
 
304
ACVALUE_END
170
1
140
0.125
171
1
172
0
173
0
174
0
175
1
176
1
 91
33
178
0
145
0.0
301
CELL_VALUE
 90
4
  1
 
304
ACVALUE_END
170
1
140
0.125
171
1
172
0
173
0
174
0
175
1
176
1
 91
33
178
0
145
0.0
301
CELL_VALUE
 90
4
  1
 
304
ACVALUE_END
170
1
140
0.125
171
1
172
0
173
0
174
0
175
1
176
1
 91
33
178
0
145
0.0
301
CELL_VALUE
 90
4
  1
 
304
ACVALUE_END
170
1
140
0.125
171
1
172
0
173
0
174
0
175
1
176
1
 91
33
178
0
145
0.0
301
CELL_VALUE
 90
4
  1
 
304
ACVALUE_END
170
1
140
0.125
  0
ACAD_TABLE
  5
272
100
AcDbEntity
  8
0
 62
2
  6
CONTINUOUS
100
AcDbBlockReference
  2
*T2
 10
12.4237499994
 20
16.47875
 30
0.0
100
AcDbTable
342
       3C4
343
210
 11
1.0
 21
0.0
 31
0.0
 90
22
 91
8
 92
3
 93
16
 94
0
 95
0
 96
0
 41
0.028
141
0.344
141
0.25
141
0.25
141
0.25
141
0.25
141
0.25
141
0.25
141
0.25
142
3.055
142
3.0
142
3.0
171
1
172
0
173
0
174
0
175
1
176
1
 91
33
178
0
145
0.0
301
CELL_VALUE
 90
4
  1
Technical Data
304
ACVALUE_END
170
5
140
0.145
171
1
172
0
173
0
174
0
175
1
176
1
 91
33
178
0
145
0.0
301
CELL_VALUE
 90
4
  1
U.S. Units
304
ACVALUE_END
170
5
140
0.145
171
1
172
0
173
0
174
0
175
1
176
1
 91
33
178
0
145
0.0
301
CELL_VALUE
 90
4
  1
Metric Units
304
ACVALUE_END
170
5
140
0.145
171
1
172
0
173
0
174
0
175
1
176
1
 91
33
178
0
145
0.0
301
CELL_VALUE
 90
4
  1
Cavity
304
ACVALUE_END
170
5
140
0.125
171
1
172
0
173
0
174
0
175
2
176
1
 91
33
178
0
145
0.0
301
CELL_VALUE
 90
4
  1
T-3A
304
ACVALUE_END
170
5
140
0.125
171
1
172
0
173
1
174
0
175
1
176
1
 91
1
178
0
145
0.0
170
1
171
1
172
0
173
0
174
0
175
1
176
1
 91
33
178
0
145
0.0
301
CELL_VALUE
 90
4
  1
Body Features
304
ACVALUE_END
170
5
140
0.125
171
1
172
0
173
0
174
0
175
2
176
1
 91
33
178
0
145
0.0
301
CELL_VALUE
 90
4
  1
On A  with reverse flow check
304
ACVALUE_END
170
5
140
0.125
171
1
172
0
173
1
174
0
175
1
176
1
 91
1
178
0
145
0.0
170
1
171
1
172
0
173
0
174
0
175
1
176
1
 91
33
178
0
145
0.0
301
CELL_VALUE
 90
4
  1
Body Type
304
ACVALUE_END
170
5
140
0.125
171
1
172
0
173
0
174
0
175
2
176
1
 91
33
178
0
145
0.0
301
CELL_VALUE
 90
4
  1
Sandwich
304
ACVALUE_END
170
5
140
0.125
171
1
172
0
173
1
174
0
175
1
176
1
 91
1
178
0
145
0.0
170
1
171
1
172
0
173
0
174
0
175
1
176
1
 91
33
178
0
145
0.0
301
CELL_VALUE
 90
4
  1
Interface
304
ACVALUE_END
170
5
140
0.125
171
1
172
0
173
0
174
0
175
2
176
1
 91
33
178
0
145
0.0
301
CELL_VALUE
 90
4
  1
ISO 05
304
ACVALUE_END
170
5
140
0.125
171
1
172
0
173
1
174
0
175
1
176
1
 91
1
178
0
145
0.0
170
1
171
1
172
0
173
0
174
0
175
1
176
1
 91
33
178
0
145
0.0
301
CELL_VALUE
 90
4
  1
Open Cavity Quantity
304
ACVALUE_END
170
5
140
0.125
171
1
172
0
173
0
174
0
175
2
176
1
 91
33
178
0
145
0.0
301
CELL_VALUE
 90
4
  1
1
304
ACVALUE_END
170
5
140
0.125
171
1
172
0
173
1
174
0
175
1
176
1
 91
1
178
0
145
0.0
170
1
171
1
172
0
173
0
174
0
175
1
176
1
 91
33
178
0
145
0.0
301
CELL_VALUE
 90
4
  1
Stack Height
304
ACVALUE_END
170
5
140
0.125
171
1
172
0
173
0
174
0
175
1
176
1
 91
33
178
0
145
0.0
301
CELL_VALUE
 90
4
  1
2.49 in.
304
ACVALUE_END
170
5
140
0.125
171
1
172
0
173
0
174
0
175
1
176
1
 91
33
178
0
145
0.0
301
CELL_VALUE
 90
4
  1
63 mm
304
ACVALUE_END
170
5
140
0.125
171
1
172
0
173
0
174
0
175
1
176
1
 91
33
178
0
145
0.0
301
CELL_VALUE
 90
4
  1
Weight
304
ACVALUE_END
170
5
140
0.125
171
1
172
0
173
0
174
0
175
1
176
1
 91
33
178
0
145
0.0
301
CELL_VALUE
 90
4
  1
2.814 lb.
304
ACVALUE_END
170
5
140
0.125
171
1
172
0
173
0
174
0
175
1
176
1
 91
33
178
0
145
0.0
301
CELL_VALUE
 90
4
  1
1,276 kg.
304
ACVALUE_END
170
5
140
0.125
  0
MTEXT
  5
273
100
AcDbEntity
  8
0
100
AcDbMText
 62
2
  6
CONTINUOUS
  7
STANDARD
 71
1
 72
1
 10
0.52125
 20
5.75995
 30
0.0
 11
1.0
 21
0.0
 31
0.0
 44
0.6
  3
Notes\P \P1. Important: Carefully consider\P   the maximum system pressure. The\P   pressure rating of the manifold is\P   dependent on the manifold material,\P   with the port type/size a secondary\P   consideration. Manifolds\P   constructed of alu
  1
minum are not\P   rated for pressures higher than\P   3000 psi (210 bar), regardless of\P   the port type/size specified.\P2. Items without balloons are\P   shipped loose.
 40
0.1
 41
3.04
  0
LINE
  5
274
100
AcDbEntity
  8
0
100
AcDbLine
 62
7
  6
CONTINUOUS
 10
0.30125
 20
0.30125
 11
0.30125
 21
16.69875
  0
LINE
  5
275
100
AcDbEntity
  8
0
100
AcDbLine
 62
7
  6
CONTINUOUS
 10
0.30125
 20
0.30125
 11
21.69875
 21
0.30125
  0
LINE
  5
276
100
AcDbEntity
  8
0
100
AcDbLine
 62
7
  6
CONTINUOUS
 10
0.30125
 20
16.69875
 11
21.69875
 21
16.69875
  0
LINE
  5
277
100
AcDbEntity
  8
0
100
AcDbLine
 62
7
  6
CONTINUOUS
 10
21.69875
 20
0.30125
 11
21.69875
 21
16.69875
  0
LINE
  5
278
100
AcDbEntity
  8
0
100
AcDbLine
 62
7
  6
CONTINUOUS
 10
9.6381780579
 20
10.999085212
 11
10.0667820429
 21
11.4130848949
  0
LINE
  5
279
100
AcDbEntity
  8
0
100
AcDbLine
 62
7
  6
CONTINUOUS
 10
9.6681217603
 20
11.0269523116
 11
10.0967257453
 21
11.4409519944
  0
LINE
  5
27A
100
AcDbEntity
  8
0
100
AcDbLine
 62
7
  6
CONTINUOUS
 10
10.0667820429
 20
11.4130848949
 11
10.067716833
 21
11.4139710379
  0
LINE
  5
27B
100
AcDbEntity
  8
0
100
AcDbLine
 62
7
  6
CONTINUOUS
 10
10.0967257453
 20
11.4409519944
 11
10.0975843959
 21
11.441765791
  0
LINE
  5
27C
100
AcDbEntity
  8
0
100
AcDbLine
 62
7
  6
CONTINUOUS
 10
10.0967183237
 20
11.4409599695
 11
10.0667820429
 21
11.4130848949
  0
LINE
  5
27D
100
AcDbEntity
  8
0
100
AcDbLine
 62
7
  6
CONTINUOUS
 10
9.6681217603
 20
11.0269523116
 11
9.6381780579
 21
10.999085212
  0
LINE
  5
27E
100
AcDbEntity
  8
0
100
AcDbLine
 62
7
  6
CONTINUOUS
 10
10.5393291896
 20
5.5793332954
 11
10.558547079
 21
5.569840026
  0
LINE
  5
27F
100
AcDbEntity
  8
0
100
AcDbLine
 62
7
  6
CONTINUOUS
 10
9.6400787739
 20
6.2380368878
 11
9.6699452003
 21
6.2102430427
  0
LINE
  5
280
100
AcDbEntity
  8
0
100
AcDbLine
 62
7
  6
CONTINUOUS
 10
9.9123325121
 20
6.1480995896
 11
11.4819620728
 21
6.0392454099
  0
LINE
  5
281
100
AcDbEntity
  8
0
100
AcDbLine
 62
7
  6
CONTINUOUS
 10
9.9043091283
 20
6.170293298
 11
11.473938689
 21
6.0614391182
  0
LINE
  5
282
100
AcDbEntity
  8
0
100
AcDbLine
 62
7
  6
CONTINUOUS
 10
9.6254002642
 20
9.9920198938
 11
9.4770924947
 21
9.8487655805
  0
LINE
  5
283
100
AcDbEntity
  8
0
100
AcDbLine
 62
7
  6
CONTINUOUS
 10
9.9123325121
 20
6.1480995896
 11
9.9043091283
 21
6.170293298
  0
LINE
  5
284
100
AcDbEntity
  8
0
100
AcDbLine
 62
7
  6
CONTINUOUS
 10
9.9113665862
 20
10.9179087849
 11
9.9033432024
 21
10.8802150885
  0
LINE
  5
285
100
AcDbEntity
  8
0
100
AcDbLine
 62
7
  6
CONTINUOUS
 10
11.8919072035
 20
6.7825538173
 11
9.4770924947
 21
6.9500217862
  0
LINE
  5
286
100
AcDbEntity
  8
0
100
AcDbLine
 62
7
  6
CONTINUOUS
 10
9.4770924947
 20
6.9500217862
 11
9.4770924947
 21
9.8487655805
  0
LINE
  5
287
100
AcDbEntity
  8
0
100
AcDbLine
 62
7
  6
CONTINUOUS
 10
9.6254002642
 20
9.9172421001
 11
9.6254002642
 21
10.9739650167
  0
LINE
  5
288
100
AcDbEntity
  8
0
100
AcDbLine
 62
7
  6
CONTINUOUS
 10
9.6263661901
 20
6.9396696202
 11
9.6263661901
 21
6.2640432261
  0
LINE
  5
289
100
AcDbEntity
  8
0
100
AcDbLine
 62
7
  6
CONTINUOUS
 10
9.9033432024
 20
10.8802150885
 11
9.9033432024
 21
9.8234921719
  0
LINE
  5
28A
100
AcDbEntity
  8
0
100
AcDbLine
 62
7
  6
CONTINUOUS
 10
9.9043091283
 20
6.170293298
 11
9.9043091283
 21
6.920394212
  0
LINE
  5
28B
100
AcDbEntity
  8
0
100
AcDbLine
 62
7
  6
CONTINUOUS
 10
12.3309123138
 20
11.2860106297
 11
11.9023083289
 21
10.8720109468
  0
LINE
  5
28C
100
AcDbEntity
  8
0
100
AcDbLine
 62
7
  6
CONTINUOUS
 10
12.3608560162
 20
11.2539903245
 11
11.9322520313
 21
10.8399906416
  0
LINE
  5
28D
100
AcDbEntity
  8
0
100
AcDbLine
 62
7
  6
CONTINUOUS
 10
10.4311289126
 20
6.1004163984
 11
10.4311289126
 21
5.7160129571
  0
LINE
  5
28E
100
AcDbEntity
  8
0
100
AcDbLine
 62
7
  6
CONTINUOUS
 10
10.582548852
 20
5.9541562183
 11
10.582548852
 21
5.569752777
  0
LINE
  5
28F
100
AcDbEntity
  8
0
100
AcDbLine
 62
7
  6
CONTINUOUS
 10
10.6220216299
 20
5.9439399246
 11
10.6220216299
 21
5.5595364833
  0
LINE
  5
290
100
AcDbEntity
  8
0
100
AcDbLine
 62
7
  6
CONTINUOUS
 10
12.3608560162
 20
10.1972674079
 11
11.9322520313
 21
9.783267725
  0
LINE
  5
291
100
AcDbEntity
  8
0
100
AcDbLine
 62
7
  6
CONTINUOUS
 10
12.5229075053
 20
10.2907971357
 11
11.8919072035
 21
9.6812976116
  0
LINE
  5
292
100
AcDbEntity
  8
0
100
AcDbLine
 62
7
  6
CONTINUOUS
 10
11.4819620728
 20
6.0392454099
 11
11.473938689
 21
6.0614391182
  0
LINE
  5
293
100
AcDbEntity
  8
0
100
AcDbLine
 62
7
  6
CONTINUOUS
 10
11.4809961469
 20
10.8090546052
 11
11.4729727631
 21
10.7713609087
  0
LINE
  5
294
100
AcDbEntity
  8
0
100
AcDbLine
 62
4
  6
CONTINUOUS
 10
11.9281418396
 20
8.51613476
 11
11.9203772748
 21
8.5158792098
  0
LINE
  5
295
100
AcDbEntity
  8
0
100
AcDbLine
 62
7
  6
CONTINUOUS
 10
11.1871281045
 20
5.9047496575
 11
11.1871281045
 21
5.5203462162
  0
LINE
  5
296
100
AcDbEntity
  8
0
100
AcDbLine
 62
7
  6
CONTINUOUS
 10
11.2410489068
 20
5.9084890844
 11
11.2410489068
 21
5.5240856431
  0
LINE
  5
297
100
AcDbEntity
  8
0
100
AcDbLine
 62
4
  6
CONTINUOUS
 10
11.9436709691
 20
9.3570013601
 11
11.91261271
 21
9.3270013837
  0
LINE
  5
298
100
AcDbEntity
  8
0
100
AcDbLine
 62
4
  6
CONTINUOUS
 10
11.91261271
 20
9.0951791769
 11
11.9436709691
 21
9.1251791532
  0
LINE
  5
299
100
AcDbEntity
  8
0
100
AcDbLine
 62
4
  6
CONTINUOUS
 10
11.9281418396
 20
8.6030680875
 11
11.9359064043
 21
8.6033236377
  0
LINE
  5
29A
100
AcDbEntity
  8
0
100
AcDbLine
 62
4
  6
CONTINUOUS
 10
12.3893569938
 20
8.4024322621
 11
12.3582987347
 21
8.4055497419
  0
LINE
  5
29B
100
AcDbEntity
  8
0
100
AcDbLine
 62
4
  6
CONTINUOUS
 10
12.238354696
 20
8.4883974352
 11
12.2087754011
 21
8.4929434709
  0
LINE
  5
29C
100
AcDbEntity
  8
0
100
AcDbLine
 62
7
  6
CONTINUOUS
 10
11.4729727631
 20
10.7713609087
 11
11.4729727631
 21
9.7146379922
  0
LINE
  5
29D
100
AcDbEntity
  8
0
100
AcDbLine
 62
7
  6
CONTINUOUS
 10
11.473938689
 20
6.0614391182
 11
11.473938689
 21
6.8115400322
  0
LINE
  5
29E
100
AcDbEntity
  8
0
100
AcDbLine
 62
4
  6
CONTINUOUS
 10
12.2287414252
 20
9.1000640205
 11
12.2220860837
 21
9.0936354539
  0
LINE
  5
29F
100
AcDbEntity
  8
0
100
AcDbLine
 62
4
  6
CONTINUOUS
 10
12.2176491898
 20
9.039673635
 11
12.210993849
 21
9.033245069
  0
LINE
  5
2A0
100
AcDbEntity
  8
0
100
AcDbLine
 62
4
  6
CONTINUOUS
 10
12.3143734825
 20
8.7053348748
 11
12.2899705647
 21
8.7066015604
  0
LINE
  5
2A1
100
AcDbEntity
  8
0
100
AcDbLine
 62
4
  6
CONTINUOUS
 10
11.9048481453
 20
8.2690570161
 11
11.9237075344
 21
8.2544530684
  0
LINE
  5
2A2
100
AcDbEntity
  8
0
100
AcDbLine
 62
7
  6
CONTINUOUS
 10
11.6547354419
 20
6.0155589974
 11
11.6547354419
 21
5.6311555561
  0
LINE
  5
2A3
100
AcDbEntity
  8
0
100
AcDbLine
 62
7
  6
CONTINUOUS
 10
11.6691834662
 20
6.0295147181
 11
11.6691834662
 21
5.6451112768
  0
LINE
  5
2A4
100
AcDbEntity
  8
0
100
AcDbLine
 62
4
  6
CONTINUOUS
 10
11.91261271
 20
9.2038458363
 11
11.9436709691
 21
9.2700680325
  0
LINE
  5
2A5
100
AcDbEntity
  8
0
100
AcDbLine
 62
4
  6
CONTINUOUS
 10
11.91261271
 20
9.0082458493
 11
11.9436709691
 21
9.0744680455
  0
LINE
  5
2A6
100
AcDbEntity
  8
0
100
AcDbLine
 62
4
  6
CONTINUOUS
 10
11.91261271
 20
8.856112526
 11
11.9436709691
 21
8.9223347222
  0
LINE
  5
2A7
100
AcDbEntity
  8
0
100
AcDbLine
 62
4
  6
CONTINUOUS
 10
12.2287414252
 20
8.9758735842
 11
12.210993849
 21
8.9587307409
  0
LINE
  5
2A8
100
AcDbEntity
  8
0
100
AcDbLine
 62
4
  6
CONTINUOUS
 10
11.91261271
 20
8.6315347631
 11
11.9436709691
 21
8.6615347395
  0
LINE
  5
2A9
100
AcDbEntity
  8
0
100
AcDbLine
 62
4
  6
CONTINUOUS
 10
12.2309598724
 20
8.9338598315
 11
12.2087754011
 21
8.9124312765
  0
LINE
  5
2AA
100
AcDbEntity
  8
0
100
AcDbLine
 62
4
  6
CONTINUOUS
 10
12.2021200612
 20
8.9060027114
 11
12.1999016133
 21
8.9038598552
  0
LINE
  5
2AB
100
AcDbEntity
  8
0
100
AcDbLine
 62
4
  6
CONTINUOUS
 10
12.3893569938
 20
9.0675412318
 11
12.3582987347
 21
9.0375412555
  0
LINE
  5
2AC
100
AcDbEntity
  8
0
100
AcDbLine
 62
4
  6
CONTINUOUS
 10
12.3627356286
 20
8.994910525
 11
12.3849200994
 21
9.0163390796
  0
LINE
  5
2AD
100
AcDbEntity
  8
0
100
AcDbLine
 62
4
  6
CONTINUOUS
 10
12.2287414252
 20
8.8572027031
 11
12.1999016133
 21
8.8293455823
  0
LINE
  5
2AE
100
AcDbEntity
  8
0
100
AcDbLine
 62
4
  6
CONTINUOUS
 10
12.2309598724
 20
8.8262281163
 11
12.2087754011
 21
8.8047995612
  0
LINE
  5
2AF
100
AcDbEntity
  8
0
100
AcDbLine
 62
4
  6
CONTINUOUS
 10
12.3893569938
 20
8.962669239
 11
12.3582987347
 21
8.9326692627
  0
LINE
  5
2B0
100
AcDbEntity
  8
0
100
AcDbLine
 62
4
  6
CONTINUOUS
 10
12.2087754011
 20
8.7551233425
 11
12.2287414252
 21
8.774409042
  0
LINE
  5
2B1
100
AcDbEntity
  8
0
100
AcDbLine
 62
4
  6
CONTINUOUS
 10
12.3627356286
 20
8.903837531
 11
12.3849200994
 21
8.9252660856
  0
LINE
  5
2B2
100
AcDbEntity
  8
0
100
AcDbLine
 62
4
  6
CONTINUOUS
 10
11.9333182158
 20
8.4776680919
 11
11.9384945924
 21
8.4826680881
  0
LINE
  5
2B3
100
AcDbEntity
  8
0
100
AcDbLine
 62
4
  6
CONTINUOUS
 10
12.2309598724
 20
8.7434344552
 11
12.213212295
 21
8.7262916108
  0
LINE
  5
2B4
100
AcDbEntity
  8
0
100
AcDbLine
 62
4
  6
CONTINUOUS
 10
12.3849200994
 20
8.8673105339
 11
12.3627356286
 21
8.8458819793
  0
LINE
  5
2B5
100
AcDbEntity
  8
0
100
AcDbLine
 62
4
  6
CONTINUOUS
 10
11.9436709691
 20
8.9223347222
 11
11.91261271
 21
8.9285569657
  0
LINE
  5
2B6
100
AcDbEntity
  8
0
100
AcDbLine
 62
4
  6
CONTINUOUS
 10
11.9436709691
 20
9.0020236058
 11
11.91261271
 21
9.0082458493
  0
LINE
  5
2B7
100
AcDbEntity
  8
0
100
AcDbLine
 62
7
  6
CONTINUOUS
 10
11.8919072035
 20
6.7825538173
 11
11.8919072035
 21
9.6812976116
  0
LINE
  5
2B8
100
AcDbEntity
  8
0
100
AcDbLine
 62
4
  6
CONTINUOUS
 10
11.91261271
 20
8.4359347761
 11
11.91261271
 21
8.4214458882
  0
LINE
  5
2B9
100
AcDbEntity
  8
0
100
AcDbLine
 62
4
  6
CONTINUOUS
 10
11.91261271
 20
8.5373569916
 11
11.91261271
 21
8.5518458795
  0
LINE
  5
2BA
100
AcDbEntity
  8
0
100
AcDbLine
 62
4
  6
CONTINUOUS
 10
11.91261271
 20
9.3270013837
 11
11.91261271
 21
9.3849569354
  0
LINE
  5
2BB
100
AcDbEntity
  8
0
100
AcDbLine
 62
4
  6
CONTINUOUS
 10
11.9281418396
 20
9.3420013719
 11
11.9281418396
 21
9.3782235917
  0
LINE
  5
2BC
100
AcDbEntity
  8
0
100
AcDbLine
 62
4
  6
CONTINUOUS
 10
11.91261271
 20
8.5518458795
 11
11.9152008977
 21
8.5688347649
  0
LINE
  5
2BD
100
AcDbEntity
  8
0
100
AcDbLine
 62
4
  6
CONTINUOUS
 10
11.9152008977
 20
8.4529236615
 11
11.91261271
 21
8.4359347761
  0
LINE
  5
2BE
100
AcDbEntity
  8
0
100
AcDbLine
 62
4
  6
CONTINUOUS
 10
11.9436709691
 20
8.567356968
 11
11.9410827808
 21
8.5503680819
  0
LINE
  5
2BF
100
AcDbEntity
  8
0
100
AcDbLine
 62
4
  6
CONTINUOUS
 10
11.9229654624
 20
8.4169569918
 11
11.9307300281
 21
8.4679236505
  0
LINE
  5
2C0
100
AcDbEntity
  8
0
100
AcDbLine
 62
4
  6
CONTINUOUS
 10
11.9152008977
 20
8.5688347649
 11
11.9203772748
 21
8.5883236495
  0
LINE
  5
2C1
100
AcDbEntity
  8
0
100
AcDbLine
 62
4
  6
CONTINUOUS
 10
11.9177890872
 20
8.4626681046
 11
11.9152008977
 21
8.4529236615
  0
LINE
  5
2C2
100
AcDbEntity
  8
0
100
AcDbLine
 62
4
  6
CONTINUOUS
 10
11.9410827808
 20
8.5503680819
 11
11.9359064043
 21
8.530879198
  0
LINE
  5
2C3
100
AcDbEntity
  8
0
100
AcDbLine
 62
4
  6
CONTINUOUS
 10
11.9307300281
 20
8.4679236505
 11
11.9333182158
 21
8.4776680919
  0
LINE
  5
2C4
100
AcDbEntity
  8
0
100
AcDbLine
 62
4
  6
CONTINUOUS
 10
11.9203772748
 20
8.4072125504
 11
11.9229654624
 21
8.4169569918
  0
LINE
  5
2C5
100
AcDbEntity
  8
0
100
AcDbLine
 62
4
  6
CONTINUOUS
 10
11.9410827808
 20
8.4344569785
 11
11.9359064043
 21
8.4149680946
  0
LINE
  5
2C6
100
AcDbEntity
  8
0
100
AcDbLine
 62
4
  6
CONTINUOUS
 10
11.9048481453
 20
8.2690570161
 11
11.9237075344
 21
8.3200945082
  0
LINE
  5
2C7
100
AcDbEntity
  8
0
100
AcDbLine
 62
4
  6
CONTINUOUS
 10
11.9203772748
 20
8.5883236495
 11
11.9281418396
 21
8.6030680875
  0
LINE
  5
2C8
100
AcDbEntity
  8
0
100
AcDbLine
 62
4
  6
CONTINUOUS
 10
11.9359064043
 20
8.530879198
 11
11.9281418396
 21
8.51613476
  0
LINE
  5
2C9
100
AcDbEntity
  8
0
100
AcDbLine
 62
4
  6
CONTINUOUS
 10
11.9177890872
 20
8.4047125529
 11
11.9203772748
 21
8.4072125504
  0
LINE
  5
2CA
100
AcDbEntity
  8
0
100
AcDbLine
 62
4
  6
CONTINUOUS
 10
12.2287414252
 20
8.6916154361
 11
12.2220860837
 21
8.6851868695
  0
LINE
  5
2CB
100
AcDbEntity
  8
0
100
AcDbLine
 62
4
  6
CONTINUOUS
 10
12.3210288238
 20
8.7504004665
 11
12.3054996942
 21
8.7354004783
  0
LINE
  5
2CC
100
AcDbEntity
  8
0
100
AcDbLine
 62
4
  6
CONTINUOUS
 10
12.210993849
 20
8.6385953176
 11
12.2154307429
 21
8.6428810283
  0
LINE
  5
2CD
100
AcDbEntity
  8
0
100
AcDbLine
 62
4
  6
CONTINUOUS
 10
12.3849200994
 20
8.7707179845
 11
12.3627356286
 21
8.7492894299
  0
LINE
  5
2CE
100
AcDbEntity
  8
0
100
AcDbLine
 62
4
  6
CONTINUOUS
 10
12.2309598724
 20
8.6192440188
 11
12.2087754011
 21
8.5978154638
  0
LINE
  5
2CF
100
AcDbEntity
  8
0
100
AcDbLine
 62
4
  6
CONTINUOUS
 10
12.3099365881
 20
8.6679317075
 11
12.3165919294
 21
8.674360274
  0
LINE
  5
2D0
100
AcDbEntity
  8
0
100
AcDbLine
 62
4
  6
CONTINUOUS
 10
12.1999016133
 20
8.5561265449
 11
12.2309598724
 21
8.5861265212
  0
LINE
  5
2D1
100
AcDbEntity
  8
0
100
AcDbLine
 62
4
  6
CONTINUOUS
 10
11.9048481453
 20
8.2690570161
 11
11.9475532515
 21
8.3103069836
  0
LINE
  5
2D2
100
AcDbEntity
  8
0
100
AcDbLine
 62
4
  6
CONTINUOUS
 10
12.2944074586
 20
8.644652345
 11
12.3010628003
 21
8.6510809118
  0
LINE
  5
2D3
100
AcDbEntity
  8
0
100
AcDbLine
 62
4
  6
CONTINUOUS
 10
12.2287414252
 20
8.5343075022
 11
12.210993849
 21
8.5171646589
  0
LINE
  5
2D4
100
AcDbEntity
  8
0
100
AcDbLine
 62
4
  6
CONTINUOUS
 10
12.3210288238
 20
8.6206904264
 11
12.2899705647
 21
8.5906904501
  0
LINE
  5
2D5
100
AcDbEntity
  8
0
100
AcDbLine
 62
4
  6
CONTINUOUS
 10
12.3893569938
 20
8.6011370128
 11
12.3582987347
 21
8.5711370365
  0
LINE
  5
2D6
100
AcDbEntity
  8
0
100
AcDbLine
 62
4
  6
CONTINUOUS
 10
12.3165919294
 20
8.5198121314
 11
12.2944074586
 21
8.4983835768
  0
LINE
  5
2D7
100
AcDbEntity
  8
0
100
AcDbLine
 62
4
  6
CONTINUOUS
 10
12.210993849
 20
8.4122926937
 11
12.2309598724
 21
8.4315783925
  0
LINE
  5
2D8
100
AcDbEntity
  8
0
100
AcDbLine
 62
4
  6
CONTINUOUS
 10
12.1999016133
 20
8.9066196328
 11
12.2021200612
 21
8.9060027114
  0
LINE
  5
2D9
100
AcDbEntity
  8
0
100
AcDbLine
 62
4
  6
CONTINUOUS
 10
11.9152008977
 20
8.4094569977
 11
11.9177890872
 21
8.4047125529
  0
LINE
  5
2DA
100
AcDbEntity
  8
0
100
AcDbLine
 62
4
  6
CONTINUOUS
 10
11.9384945924
 20
8.4826680881
 11
11.9410827808
 21
8.4779236423
  0
LINE
  5
2DB
100
AcDbEntity
  8
0
100
AcDbLine
 62
4
  6
CONTINUOUS
 10
11.9203772748
 20
8.5158792098
 11
11.9152008977
 21
8.5253681011
  0
LINE
  5
2DC
100
AcDbEntity
  8
0
100
AcDbLine
 62
4
  6
CONTINUOUS
 10
11.9359064043
 20
8.6033236377
 11
11.9410827808
 21
8.5938347457
  0
LINE
  5
2DD
100
AcDbEntity
  8
0
100
AcDbLine
 62
4
  6
CONTINUOUS
 10
11.91261271
 20
8.4214458882
 11
11.9152008977
 21
8.4094569977
  0
LINE
  5
2DE
100
AcDbEntity
  8
0
100
AcDbLine
 62
4
  6
CONTINUOUS
 10
11.9152008977
 20
8.5253681011
 11
11.91261271
 21
8.5373569916
  0
LINE
  5
2DF
100
AcDbEntity
  8
0
100
AcDbLine
 62
4
  6
CONTINUOUS
 10
11.9410827808
 20
8.4779236423
 11
11.9436709691
 21
8.4659347524
  0
LINE
  5
2E0
100
AcDbEntity
  8
0
100
AcDbLine
 62
7
  6
CONTINUOUS
 10
11.9322520313
 20
10.8399906416
 11
11.9322520313
 21
9.783267725
  0
LINE
  5
2E1
100
AcDbEntity
  8
0
100
AcDbLine
 62
7
  6
CONTINUOUS
 10
11.9332179571
 20
6.1300688511
 11
11.9332179571
 21
6.8224569435
  0
LINE
  5
2E2
100
AcDbEntity
  8
0
100
AcDbLine
 62
4
  6
CONTINUOUS
 10
11.9333182158
 20
9.0065125013
 11
11.9333182158
 21
9.0499791651
  0
LINE
  5
2E3
100
AcDbEntity
  8
0
100
AcDbLine
 62
4
  6
CONTINUOUS
 10
11.9436709691
 20
9.4149569118
 11
11.9436709691
 21
9.3570013601
  0
LINE
  5
2E4
100
AcDbEntity
  8
0
100
AcDbLine
 62
4
  6
CONTINUOUS
 10
11.9436709691
 20
8.5818458559
 11
11.9436709691
 21
8.567356968
  0
LINE
  5
2E5
100
AcDbEntity
  8
0
100
AcDbLine
 62
4
  6
CONTINUOUS
 10
11.9436709691
 20
8.4659347524
 11
11.9436709691
 21
8.4514458645
  0
LINE
  5
2E6
100
AcDbEntity
  8
0
100
AcDbLine
 62
4
  6
CONTINUOUS
 10
11.9436709691
 20
8.6615347395
 11
11.9436709691
 21
8.7194902912
  0
LINE
  5
2E7
100
AcDbEntity
  8
0
100
AcDbLine
 62
4
  6
CONTINUOUS
 10
11.9436709691
 20
9.1251791532
 11
11.9436709691
 21
9.1831347049
  0
LINE
  5
2E8
100
AcDbEntity
  8
0
100
AcDbLine
 62
4
  6
CONTINUOUS
 10
11.9475532515
 20
8.3103069836
 11
11.9475532515
 21
9.4694180179
  0
LINE
  5
2E9
100
AcDbEntity
  8
0
100
AcDbLine
 62
4
  6
CONTINUOUS
 10
11.9436709691
 20
8.4514458645
 11
11.9410827808
 21
8.4344569785
  0
LINE
  5
2EA
100
AcDbEntity
  8
0
100
AcDbLine
 62
4
  6
CONTINUOUS
 10
12.2220860837
 20
9.0936354539
 11
12.2206071191
 21
9.0839275507
  0
LINE
  5
2EB
100
AcDbEntity
  8
0
100
AcDbLine
 62
4
  6
CONTINUOUS
 10
12.2191281544
 20
9.0493815382
 11
12.2176491898
 21
9.039673635
  0
LINE
  5
2EC
100
AcDbEntity
  8
0
100
AcDbLine
 62
4
  6
CONTINUOUS
 10
12.2087754011
 20
9.0724989881
 11
12.210993849
 21
9.0829211773
  0
LINE
  5
2ED
100
AcDbEntity
  8
0
100
AcDbLine
 62
4
  6
CONTINUOUS
 10
12.2287414252
 20
9.0503879123
 11
12.2309598724
 21
9.0608101008
  0
LINE
  5
2EE
100
AcDbEntity
  8
0
100
AcDbLine
 62
4
  6
CONTINUOUS
 10
12.2309598724
 20
8.9862957726
 11
12.2287414252
 21
8.9758735842
  0
LINE
  5
2EF
100
AcDbEntity
  8
0
100
AcDbLine
 62
4
  6
CONTINUOUS
 10
12.2309598724
 20
8.8676249468
 11
12.2287414252
 21
8.8572027031
  0
LINE
  5
2F0
100
AcDbEntity
  8
0
100
AcDbLine
 62
4
  6
CONTINUOUS
 10
12.2287414252
 20
8.774409042
 11
12.2309598724
 21
8.7848312857
  0
LINE
  5
2F1
100
AcDbEntity
  8
0
100
AcDbLine
 62
4
  6
CONTINUOUS
 10
12.2087754011
 20
8.6309329061
 11
12.210993849
 21
8.6385953176
  0
LINE
  5
2F2
100
AcDbEntity
  8
0
100
AcDbLine
 62
4
  6
CONTINUOUS
 10
12.213212295
 20
8.7262916108
 11
12.2087754011
 21
8.7137265672
  0
LINE
  5
2F3
100
AcDbEntity
  8
0
100
AcDbLine
 62
4
  6
CONTINUOUS
 10
12.2087754011
 20
8.4432673074
 11
12.2309598724
 21
8.4895339719
  0
LINE
  5
2F4
100
AcDbEntity
  8
0
100
AcDbLine
 62
4
  6
CONTINUOUS
 10
12.3893569938
 20
8.5349021005
 11
12.3582987347
 21
8.5049021242
  0
LINE
  5
2F5
100
AcDbEntity
  8
0
100
AcDbLine
 62
4
  6
CONTINUOUS
 10
12.2309598724
 20
8.3819022014
 11
12.1999016133
 21
8.351902225
  0
LINE
  5
2F6
100
AcDbEntity
  8
0
100
AcDbLine
 62
4
  6
CONTINUOUS
 10
12.2309598724
 20
8.2577117374
 11
12.1999016133
 21
8.227711761
  0
LINE
  5
2F7
100
AcDbEntity
  8
0
100
AcDbLine
 62
4
  6
CONTINUOUS
 10
12.3627356286
 20
8.3298015968
 11
12.3849200994
 21
8.3512301514
  0
LINE
  5
2F8
100
AcDbEntity
  8
0
100
AcDbLine
 62
4
  6
CONTINUOUS
 10
12.2309598724
 20
8.1997561856
 11
12.1999016133
 21
8.1697562093
  0
LINE
  5
2F9
100
AcDbEntity
  8
0
100
AcDbLine
 62
4
  6
CONTINUOUS
 10
12.2265229781
 20
8.1623530184
 11
12.1999016133
 21
8.1366387531
  0
LINE
  5
2FA
100
AcDbEntity
  8
0
100
AcDbLine
 62
4
  6
CONTINUOUS
 10
12.3893569938
 20
8.2975603176
 11
12.3582987347
 21
8.2675603413
  0
LINE
  5
2FB
100
AcDbEntity
  8
0
100
AcDbLine
 62
4
  6
CONTINUOUS
 10
12.1999016133
 20
8.0786832014
 11
12.2265229781
 21
8.1043974667
  0
LINE
  5
2FC
100
AcDbEntity
  8
0
100
AcDbLine
 62
4
  6
CONTINUOUS
 10
11.9436709691
 20
9.2700680325
 11
11.91261271
 21
9.276290276
  0
LINE
  5
2FD
100
AcDbEntity
  8
0
100
AcDbLine
 62
4
  6
CONTINUOUS
 10
12.2043385072
 20
7.9918959042
 11
12.1999016133
 21
8.0041689234
  0
LINE
  5
2FE
100
AcDbEntity
  8
0
100
AcDbLine
 62
4
  6
CONTINUOUS
 10
12.2309598724
 20
8.0590069936
 11
12.2265229781
 21
8.0712800105
  0
LINE
  5
2FF
100
AcDbEntity
  8
0
100
AcDbLine
 62
4
  6
CONTINUOUS
 10
12.2309598724
 20
8.1500800083
 11
12.2265229781
 21
8.1623530184
  0
LINE
  5
300
100
AcDbEntity
  8
0
100
AcDbLine
 62
4
  6
CONTINUOUS
 10
11.9410827808
 20
8.5938347457
 11
11.9436709691
 21
8.5818458559
  0
LINE
  5
301
100
AcDbEntity
  8
0
100
AcDbLine
 62
4
  6
CONTINUOUS
 10
12.1999016133
 20
8.0041689234
 11
12.1999016133
 21
8.0372863812
  0
LINE
  5
302
100
AcDbEntity
  8
0
100
AcDbLine
 62
4
  6
CONTINUOUS
 10
12.1999016133
 20
8.9038598552
 11
12.1999016133
 21
8.9066196328
  0
LINE
  5
303
100
AcDbEntity
  8
0
100
AcDbLine
 62
4
  6
CONTINUOUS
 10
12.2087754011
 20
8.7137265672
 11
12.2087754011
 21
8.6723297366
  0
LINE
  5
304
100
AcDbEntity
  8
0
100
AcDbLine
 62
4
  6
CONTINUOUS
 10
12.2087754011
 20
8.3604736463
 11
12.2087754011
 21
8.4018704769
  0
LINE
  5
305
100
AcDbEntity
  8
0
100
AcDbLine
 62
4
  6
CONTINUOUS
 10
12.2087754011
 20
8.5315805238
 11
12.2087754011
 21
8.5646979662
  0
LINE
  5
306
100
AcDbEntity
  8
0
100
AcDbLine
 62
4
  6
CONTINUOUS
 10
12.2087754011
 20
8.5978154638
 11
12.2087754011
 21
8.6309329061
  0
LINE
  5
307
100
AcDbEntity
  8
0
100
AcDbLine
 62
4
  6
CONTINUOUS
 10
12.2087754011
 20
8.9648672176
 11
12.2087754011
 21
8.9979847705
  0
LINE
  5
308
100
AcDbEntity
  8
0
100
AcDbLine
 62
4
  6
CONTINUOUS
 10
12.2087754011
 20
9.0393815458
 11
12.2087754011
 21
9.0724989881
  0
LINE
  5
309
100
AcDbEntity
  8
0
100
AcDbLine
 62
4
  6
CONTINUOUS
 10
12.2198676368
 20
8.6996027353
 11
12.2198676368
 21
8.7327201777
  0
LINE
  5
30A
100
AcDbEntity
  8
0
100
AcDbLine
 62
4
  6
CONTINUOUS
 10
12.2309598724
 20
9.0194133255
 11
12.2309598724
 21
8.9862957726
  0
LINE
  5
30B
100
AcDbEntity
  8
0
100
AcDbLine
 62
4
  6
CONTINUOUS
 10
12.2309598724
 20
8.884183668
 11
12.2309598724
 21
8.8676249468
  0
LINE
  5
30C
100
AcDbEntity
  8
0
100
AcDbLine
 62
4
  6
CONTINUOUS
 10
12.2309598724
 20
8.7434344552
 11
12.2309598724
 21
8.7103170129
  0
LINE
  5
30D
100
AcDbEntity
  8
0
100
AcDbLine
 62
4
  6
CONTINUOUS
 10
12.2309598724
 20
8.5861265212
 11
12.2309598724
 21
8.5530090789
  0
LINE
  5
30E
100
AcDbEntity
  8
0
100
AcDbLine
 62
4
  6
CONTINUOUS
 10
12.2309598724
 20
8.0258895348
 11
12.2309598724
 21
8.0590069936
  0
LINE
  5
30F
100
AcDbEntity
  8
0
100
AcDbLine
 62
4
  6
CONTINUOUS
 10
12.2309598724
 20
8.1252419059
 11
12.2309598724
 21
8.1500800083
  0
LINE
  5
310
100
AcDbEntity
  8
0
100
AcDbLine
 62
4
  6
CONTINUOUS
 10
12.2309598724
 20
8.7848312857
 11
12.2309598724
 21
8.8262281163
  0
LINE
  5
311
100
AcDbEntity
  8
0
100
AcDbLine
 62
4
  6
CONTINUOUS
 10
12.2309598724
 20
9.0608101008
 11
12.2309598724
 21
9.0939275431
  0
LINE
  5
312
100
AcDbEntity
  8
0
100
AcDbLine
 62
4
  6
CONTINUOUS
 10
12.238354696
 20
8.471838714
 11
12.238354696
 21
8.4883974352
  0
LINE
  5
313
100
AcDbEntity
  8
0
100
AcDbLine
 62
4
  6
CONTINUOUS
 10
12.2899705647
 20
8.510656596
 11
12.2899705647
 21
8.5437740539
  0
LINE
  5
314
100
AcDbEntity
  8
0
100
AcDbLine
 62
4
  6
CONTINUOUS
 10
12.2899705647
 20
8.5906904501
 11
12.2899705647
 21
8.6155285526
  0
LINE
  5
315
100
AcDbEntity
  8
0
100
AcDbLine
 62
4
  6
CONTINUOUS
 10
12.3054996942
 20
8.6056904383
 11
12.3054996942
 21
8.6470872619
  0
LINE
  5
316
100
AcDbEntity
  8
0
100
AcDbLine
 62
4
  6
CONTINUOUS
 10
12.3143734825
 20
8.7632904265
 11
12.3143734825
 21
8.7053348748
  0
LINE
  5
317
100
AcDbEntity
  8
0
100
AcDbLine
 62
4
  6
CONTINUOUS
 10
12.3210288238
 20
8.6620872501
 11
12.3210288238
 21
8.6206904264
  0
LINE
  5
318
100
AcDbEntity
  8
0
100
AcDbLine
 62
4
  6
CONTINUOUS
 10
12.3210288238
 20
8.5737740302
 11
12.3210288238
 21
8.5406565723
  0
LINE
  5
319
100
AcDbEntity
  8
0
100
AcDbLine
 62
4
  6
CONTINUOUS
 10
12.3582987347
 20
8.2675603413
 11
12.3582987347
 21
8.308957158
  0
LINE
  5
31A
100
AcDbEntity
  8
0
100
AcDbLine
 62
4
  6
CONTINUOUS
 10
12.3582987347
 20
8.4717846542
 11
12.3582987347
 21
8.5380195665
  0
LINE
  5
31B
100
AcDbEntity
  8
0
100
AcDbLine
 62
4
  6
CONTINUOUS
 10
12.3582987347
 20
8.5711370365
 11
12.3582987347
 21
8.6208132276
  0
LINE
  5
31C
100
AcDbEntity
  8
0
100
AcDbLine
 62
4
  6
CONTINUOUS
 10
12.3582987347
 20
8.7615624404
 11
12.3582987347
 21
8.7946798828
  0
LINE
  5
31D
100
AcDbEntity
  8
0
100
AcDbLine
 62
4
  6
CONTINUOUS
 10
12.3582987347
 20
8.8581549898
 11
12.3582987347
 21
8.8829930992
  0
LINE
  5
31E
100
AcDbEntity
  8
0
100
AcDbLine
 62
4
  6
CONTINUOUS
 10
12.3582987347
 20
8.9326692627
 11
12.3582987347
 21
8.9740660932
  0
LINE
  5
31F
100
AcDbEntity
  8
0
100
AcDbLine
 62
4
  6
CONTINUOUS
 10
12.3582987347
 20
9.0375412555
 11
12.3582987347
 21
9.087217419
  0
LINE
  5
320
100
AcDbEntity
  8
0
100
AcDbLine
 62
7
  6
CONTINUOUS
 10
12.3608560162
 20
11.2539903245
 11
12.3608560162
 21
10.1972674079
  0
LINE
  5
321
100
AcDbEntity
  8
0
100
AcDbLine
 62
7
  6
CONTINUOUS
 10
12.3618219421
 20
6.5440685339
 11
12.3618219421
 21
7.2364566264
  0
LINE
  5
322
100
AcDbEntity
  8
0
100
AcDbLine
 62
4
  6
CONTINUOUS
 10
12.3716094163
 20
9.0835158298
 11
12.3716094163
 21
9.0503983875
  0
LINE
  5
323
100
AcDbEntity
  8
0
100
AcDbLine
 62
4
  6
CONTINUOUS
 10
12.3716094163
 20
8.6171116384
 11
12.3716094163
 21
8.5839941684
  0
LINE
  5
324
100
AcDbEntity
  8
0
100
AcDbLine
 62
7
  6
CONTINUOUS
 10
12.3736338099
 20
10.2223876032
 11
12.3736338099
 21
11.2791105198
  0
LINE
  5
325
100
AcDbEntity
  8
0
100
AcDbLine
 62
7
  6
CONTINUOUS
 10
12.3745997358
 20
7.248799028
 11
12.3745997358
 21
6.5691887293
  0
LINE
  5
326
100
AcDbEntity
  8
0
100
AcDbLine
 62
4
  6
CONTINUOUS
 10
12.2206071191
 20
9.0839275507
 11
12.2191281544
 21
9.0493815382
  0
LINE
  5
327
100
AcDbEntity
  8
0
100
AcDbLine
 62
4
  6
CONTINUOUS
 10
12.2899705647
 20
8.6155285526
 11
12.2907100479
 21
8.6245221991
  0
LINE
  5
328
100
AcDbEntity
  8
0
100
AcDbLine
 62
4
  6
CONTINUOUS
 10
12.2309598724
 20
8.7103170129
 11
12.2287414252
 21
8.6916154361
  0
LINE
  5
329
100
AcDbEntity
  8
0
100
AcDbLine
 62
4
  6
CONTINUOUS
 10
12.2309598724
 20
8.5530090789
 11
12.2287414252
 21
8.5343075022
  0
LINE
  5
32A
100
AcDbEntity
  8
0
100
AcDbLine
 62
4
  6
CONTINUOUS
 10
12.3701304517
 20
9.1317634231
 11
12.3760463112
 21
9.181634313
  0
LINE
  5
32B
100
AcDbEntity
  8
0
100
AcDbLine
 62
4
  6
CONTINUOUS
 10
12.2907100479
 20
8.6245221991
 11
12.2944074586
 21
8.644652345
  0
LINE
  5
32C
100
AcDbEntity
  8
0
100
AcDbLine
 62
4
  6
CONTINUOUS
 10
12.2220860837
 20
8.0669942994
 11
12.2087754011
 21
7.9961816149
  0
LINE
  5
32D
100
AcDbEntity
  8
0
100
AcDbLine
 62
4
  6
CONTINUOUS
 10
12.2087754011
 20
8.4018704769
 11
12.210993849
 21
8.4122926937
  0
LINE
  5
32E
100
AcDbEntity
  8
0
100
AcDbLine
 62
4
  6
CONTINUOUS
 10
12.3582987347
 20
8.9740660932
 11
12.3627356286
 21
8.994910525
  0
LINE
  5
32F
100
AcDbEntity
  8
0
100
AcDbLine
 62
4
  6
CONTINUOUS
 10
12.3054996942
 20
8.6470872619
 11
12.3099365881
 21
8.6679317075
  0
LINE
  5
330
100
AcDbEntity
  8
0
100
AcDbLine
 62
4
  6
CONTINUOUS
 10
12.3582987347
 20
8.8829930992
 11
12.3627356286
 21
8.903837531
  0
LINE
  5
331
100
AcDbEntity
  8
0
100
AcDbLine
 62
4
  6
CONTINUOUS
 10
12.1999016133
 20
8.0372863812
 11
12.2021200612
 21
8.0477086015
  0
LINE
  5
332
100
AcDbEntity
  8
0
100
AcDbLine
 62
4
  6
CONTINUOUS
 10
12.3893569938
 20
8.8881549661
 11
12.3849200994
 21
8.8673105339
  0
LINE
  5
333
100
AcDbEntity
  8
0
100
AcDbLine
 62
4
  6
CONTINUOUS
 10
12.2265229781
 20
8.1043974667
 11
12.2309598724
 21
8.1252419059
  0
LINE
  5
334
100
AcDbEntity
  8
0
100
AcDbLine
 62
4
  6
CONTINUOUS
 10
12.3210288238
 20
8.5406565723
 11
12.3165919294
 21
8.5198121314
  0
LINE
  5
335
100
AcDbEntity
  8
0
100
AcDbLine
 62
4
  6
CONTINUOUS
 10
12.3893569938
 20
8.7915624168
 11
12.3849200994
 21
8.7707179845
  0
LINE
  5
336
100
AcDbEntity
  8
0
100
AcDbLine
 62
4
  6
CONTINUOUS
 10
12.2287414252
 20
8.0154673144
 11
12.2309598724
 21
8.0258895348
  0
LINE
  5
337
100
AcDbEntity
  8
0
100
AcDbLine
 62
4
  6
CONTINUOUS
 10
12.3582987347
 20
8.308957158
 11
12.3627356286
 21
8.3298015968
  0
LINE
  5
338
100
AcDbEntity
  8
0
100
AcDbLine
 62
4
  6
CONTINUOUS
 10
12.1999016133
 20
8.1697562093
 11
12.2309598724
 21
8.2577117374
  0
LINE
  5
339
100
AcDbEntity
  8
0
100
AcDbLine
 62
4
  6
CONTINUOUS
 10
12.3582987347
 20
8.4055497419
 11
12.3893569938
 21
8.4686671882
  0
LINE
  5
33A
100
AcDbEntity
  8
0
100
AcDbLine
 62
4
  6
CONTINUOUS
 10
12.2265229781
 20
8.0712800105
 11
12.2220860837
 21
8.0669942994
  0
LINE
  5
33B
100
AcDbEntity
  8
0
100
AcDbLine
 62
4
  6
CONTINUOUS
 10
12.2087754011
 20
7.9961816149
 11
12.2043385072
 21
7.9918959042
  0
LINE
  5
33C
100
AcDbEntity
  8
0
100
AcDbLine
 62
7
  6
CONTINUOUS
 10
11.8919072035
 20
9.6812976116
 11
9.4770924947
 21
9.8487655805
  0
LINE
  5
33D
100
AcDbEntity
  8
0
100
AcDbLine
 62
7
  6
CONTINUOUS
 10
11.4729727631
 20
9.7146379922
 11
9.9033432024
 21
9.8234921719
  0
LINE
  5
33E
100
AcDbEntity
  8
0
100
AcDbLine
 62
4
  6
CONTINUOUS
 10
12.2944074586
 20
8.4983835768
 11
12.2899705647
 21
8.510656596
  0
LINE
  5
33F
100
AcDbEntity
  8
0
100
AcDbLine
 62
4
  6
CONTINUOUS
 10
12.3849200994
 20
8.3512301514
 11
12.3893569938
 21
8.3389571344
  0
LINE
  5
340
100
AcDbEntity
  8
0
100
AcDbLine
 62
4
  6
CONTINUOUS
 10
12.3010628003
 20
8.6510809118
 11
12.3054996942
 21
8.6388079013
  0
LINE
  5
341
100
AcDbEntity
  8
0
100
AcDbLine
 62
4
  6
CONTINUOUS
 10
12.210993849
 20
8.9587307409
 11
12.2087754011
 21
8.9648672176
  0
LINE
  5
342
100
AcDbEntity
  8
0
100
AcDbLine
 62
4
  6
CONTINUOUS
 10
12.3165919294
 20
8.674360274
 11
12.3210288238
 21
8.6620872501
  0
LINE
  5
343
100
AcDbEntity
  8
0
100
AcDbLine
 62
4
  6
CONTINUOUS
 10
12.210993849
 20
9.033245069
 11
12.2087754011
 21
9.0393815458
  0
LINE
  5
344
100
AcDbEntity
  8
0
100
AcDbLine
 62
4
  6
CONTINUOUS
 10
12.2309598724
 20
9.0939275431
 11
12.2287414252
 21
9.1000640205
  0
LINE
  5
345
100
AcDbEntity
  8
0
100
AcDbLine
 62
4
  6
CONTINUOUS
 10
12.3627356286
 20
8.7492894299
 11
12.3582987347
 21
8.7615624404
  0
LINE
  5
346
100
AcDbEntity
  8
0
100
AcDbLine
 62
4
  6
CONTINUOUS
 10
12.210993849
 20
8.5171646589
 11
12.2087754011
 21
8.5315805238
  0
LINE
  5
347
100
AcDbEntity
  8
0
100
AcDbLine
 62
4
  6
CONTINUOUS
 10
12.2220860837
 20
8.6851868695
 11
12.2198676368
 21
8.6996027353
  0
LINE
  5
348
100
AcDbEntity
  8
0
100
AcDbLine
 62
4
  6
CONTINUOUS
 10
12.3701304517
 20
8.2569105955
 11
12.3760463112
 21
8.2184682656
  0
LINE
  5
349
100
AcDbEntity
  8
0
100
AcDbLine
 62
4
  6
CONTINUOUS
 10
12.380483205
 20
8.404899992
 11
12.380483205
 21
8.4490566002
  0
LINE
  5
34A
100
AcDbEntity
  8
0
100
AcDbLine
 62
4
  6
CONTINUOUS
 10
12.3893569938
 20
9.0040660696
 11
12.3893569938
 21
8.962669239
  0
LINE
  5
34B
100
AcDbEntity
  8
0
100
AcDbLine
 62
4
  6
CONTINUOUS
 10
12.3893569938
 20
8.9129930755
 11
12.3893569938
 21
8.8881549661
  0
LINE
  5
34C
100
AcDbEntity
  8
0
100
AcDbLine
 62
4
  6
CONTINUOUS
 10
12.3893569938
 20
8.8246798591
 11
12.3893569938
 21
8.7915624168
  0
LINE
  5
34D
100
AcDbEntity
  8
0
100
AcDbLine
 62
4
  6
CONTINUOUS
 10
12.3893569938
 20
8.3389571344
 11
12.3893569938
 21
8.2975603176
  0
LINE
  5
34E
100
AcDbEntity
  8
0
100
AcDbLine
 62
4
  6
CONTINUOUS
 10
12.3893569938
 20
8.6011370128
 11
12.3893569938
 21
8.650813204
  0
LINE
  5
34F
100
AcDbEntity
  8
0
100
AcDbLine
 62
4
  6
CONTINUOUS
 10
12.3893569938
 20
9.0675412318
 11
12.3893569938
 21
9.1172173953
  0
LINE
  5
350
100
AcDbEntity
  8
0
100
AcDbLine
 62
7
  6
CONTINUOUS
 10
12.5229075053
 20
10.2907971357
 11
12.5229075053
 21
7.3920533413
  0
LINE
  5
351
100
AcDbEntity
  8
0
100
AcDbLine
 62
4
  6
CONTINUOUS
 10
12.3760463112
 20
8.2184682656
 11
12.3819621701
 21
8.2683391586
  0
LINE
  5
352
100
AcDbEntity
  8
0
100
AcDbLine
 62
4
  6
CONTINUOUS
 10
12.3627356286
 20
8.8458819793
 11
12.3582987347
 21
8.8581549898
  0
LINE
  5
353
100
AcDbEntity
  8
0
100
AcDbLine
 62
4
  6
CONTINUOUS
 10
12.3849200994
 20
8.9252660856
 11
12.3893569938
 21
8.9129930755
  0
LINE
  5
354
100
AcDbEntity
  8
0
100
AcDbLine
 62
4
  6
CONTINUOUS
 10
12.3849200994
 20
9.0163390796
 11
12.3893569938
 21
9.0040660696
  0
LINE
  5
355
100
AcDbEntity
  8
0
100
AcDbLine
 62
4
  6
CONTINUOUS
 10
12.3760463112
 20
9.181634313
 11
12.3819621701
 21
9.1431919861
  0
LINE
  5
356
100
AcDbEntity
  8
0
100
AcDbLine
 62
7
  6
CONTINUOUS
 10
12.5229075053
 20
7.3920533413
 11
11.8919072035
 21
6.7825538173
  0
LINE
  5
357
100
AcDbEntity
  8
0
100
AcDbLine
 62
7
  6
CONTINUOUS
 10
12.5229075053
 20
10.2907971357
 11
12.3736338099
 21
10.3011493016
  0
LINE
  5
358
100
AcDbEntity
  8
0
100
AcDbLine
 62
7
  6
CONTINUOUS
 10
11.9332179571
 20
6.1300688511
 11
12.3618219421
 21
6.5440685339
  0
LINE
  5
359
100
AcDbEntity
  8
0
100
AcDbLine
 62
7
  6
CONTINUOUS
 10
11.932283167
 20
6.1291827081
 11
11.9332179571
 21
6.1300688511
  0
LINE
  5
35A
100
AcDbEntity
  8
0
100
AcDbLine
 62
7
  6
CONTINUOUS
 10
11.932283167
 20
6.1291827081
 11
11.9024167406
 21
6.101388863
  0
LINE
  5
35B
100
AcDbEntity
  8
0
100
AcDbLine
 62
7
  6
CONTINUOUS
 10
11.4729727631
 20
10.7713609087
 11
9.9033432024
 21
10.8802150885
  0
LINE
  5
35C
100
AcDbEntity
  8
0
100
AcDbLine
 62
7
  6
CONTINUOUS
 10
11.4809961469
 20
10.8090546052
 11
9.9113665862
 21
10.9179087849
  0
LINE
  5
35D
100
AcDbEntity
  8
0
100
AcDbLine
 62
7
  6
CONTINUOUS
 10
11.9023083289
 20
10.8720109468
 11
11.9322520313
 21
10.8399906416
  0
LINE
  5
35E
100
AcDbEntity
  8
0
100
AcDbLine
 62
7
  6
CONTINUOUS
 10
11.5724393102
 20
5.5849923999
 11
11.5417652997
 21
5.569840026
  0
LINE
  5
35F
100
AcDbEntity
  8
0
100
AcDbLine
 62
7
  6
CONTINUOUS
 10
12.3309123138
 20
11.2860106297
 11
12.3608560162
 21
11.2539903245
  0
LINE
  5
360
100
AcDbEntity
  8
0
100
AcDbLine
 62
7
  6
CONTINUOUS
 10
10.5180379272
 20
11.5039083361
 11
12.0876674879
 21
11.3950541563
  0
LINE
  5
361
100
AcDbEntity
  8
0
100
AcDbLine
 62
7
  6
CONTINUOUS
 10
12.3599212261
 20
11.3051168581
 11
12.3300547997
 21
11.3329107032
  0
ARC
  5
362
100
AcDbEntity
  8
0
100
AcDbCircle
 62
7
  6
CONTINUOUS
 10
11.061195712
 20
7.7268591008
 40
2.2101036351
100
AcDbArc
 50
273.2665005552
 51
274.6677615151
  0
ARC
  5
363
100
AcDbEntity
  8
0
100
AcDbCircle
 62
7
  6
CONTINUOUS
 10
11.061195712
 20
8.1112625421
 40
2.210103635
100
AcDbArc
 50
273.2665005552
 51
274.6677615151
  0
ARC
  5
364
100
AcDbEntity
  8
0
100
AcDbCircle
 62
7
  6
CONTINUOUS
 10
10.809095624
 20
5.5908924427
 40
0.965474286
100
AcDbArc
 50
27.0203908239
 51
27.7058535396
  0
ARC
  5
365
100
AcDbEntity
  8
0
100
AcDbCircle
 62
7
  6
CONTINUOUS
 10
10.8412211384
 20
6.8722266582
 40
0.9538158545
100
AcDbArc
 50
254.2644742826
 51
256.7139235525
  0
ARC
  5
366
100
AcDbEntity
  8
0
100
AcDbCircle
 62
7
  6
CONTINUOUS
 10
10.8412211384
 20
6.4878232169
 40
0.9538158545
100
AcDbArc
 50
254.2644742826
 51
256.7139235525
  0
ARC
  5
367
100
AcDbEntity
  8
0
100
AcDbCircle
 62
7
  6
CONTINUOUS
 10
11.2335583086
 20
6.269887601
 40
0.7641475746
100
AcDbArc
 50
293.7608747297
 51
296.3085175792
  0
ARC
  5
368
100
AcDbEntity
  8
0
100
AcDbCircle
 62
7
  6
CONTINUOUS
 10
10.5234420657
 20
6.0185875675
 40
0.1234321701
100
AcDbArc
 50
131.266737784
 51
133.9610988913
  0
SPLINE
  5
369
100
AcDbEntity
  8
0
100
AcDbSpline
 62
7
  6
CONTINUOUS
 70
0
 71
3
 72
9
 73
5
 74
0
 42
0.0000001
 43
0.0000001
 44
0.0000000001
 40
0.0
 40
0.0
 40
0.0
 40
0.0
 40
0.2426666479
 40
1.0
 40
1.0
 40
1.0
 40
1.0
 10
10.4311289126
 20
6.1004163984
 30
0.0
 10
10.4316365404
 20
6.1010101714
 30
0.0
 10
10.4337602362
 20
6.1034297558
 30
0.0
 10
10.4360056446
 20
6.1057416507
 30
0.0
 10
10.4377591792
 20
6.1074354352
 30
0.0
  0
SPLINE
  5
36A
100
AcDbEntity
  8
0
100
AcDbSpline
 62
7
  6
CONTINUOUS
 70
0
 71
3
 72
9
 73
5
 74
0
 42
0.0000001
 43
0.0000001
 44
0.0000000001
 40
0.0
 40
0.0
 40
0.0
 40
0.0
 40
0.2426770998
 40
1.0
 40
1.0
 40
1.0
 40
1.0
 10
11.6625531995
 20
5.63809224
 30
0.0
 10
11.6619450091
 20
5.6375047731
 30
0.0
 10
11.6594119577
 20
5.635111892
 30
0.0
 10
11.6567762439
 20
5.6328284225
 30
0.0
 10
11.6547354419
 20
5.6311555561
 30
0.0
  0
SPLINE
  5
36B
100
AcDbEntity
  8
0
100
AcDbSpline
 62
7
  6
CONTINUOUS
 70
0
 71
3
 72
9
 73
5
 74
0
 42
0.0000001
 43
0.0000001
 44
0.0000000001
 40
0.0
 40
0.0
 40
0.0
 40
0.0
 40
0.2426666479
 40
1.0
 40
1.0
 40
1.0
 40
1.0
 10
11.6691834662
 20
5.6451112768
 30
0.0
 10
11.6686758384
 20
5.6445175038
 30
0.0
 10
11.6665521426
 20
5.6420979194
 30
0.0
 10
11.6643067342
 20
5.6397860245
 30
0.0
 10
11.6625531995
 20
5.63809224
 30
0.0
  0
SPLINE
  5
36C
100
AcDbEntity
  8
0
100
AcDbSpline
 62
7
  6
CONTINUOUS
 70
0
 71
3
 72
9
 73
5
 74
0
 42
0.0000001
 43
0.0000001
 44
0.0000000001
 40
0.0
 40
0.0
 40
0.0
 40
0.0
 40
0.504378312
 40
1.0
 40
1.0
 40
1.0
 40
1.0
 10
11.6547354419
 20
5.6311555561
 30
0.0
 10
11.6412316916
 20
5.6227467023
 30
0.0
 10
11.6141188542
 20
5.6066120463
 30
0.0
 10
11.5862460577
 20
5.5918148516
 30
0.0
 10
11.5722319198
 20
5.5848900092
 30
0.0
  0
SPLINE
  5
36D
100
AcDbEntity
  8
0
100
AcDbSpline
 62
7
  6
CONTINUOUS
 70
0
 71
3
 72
47
 73
43
 74
0
 42
0.0000001
 43
0.0000001
 44
0.0000000001
 40
0.0
 40
0.0
 40
0.0
 40
0.0
 40
0.0099874638
 40
0.0204476834
 40
0.0313771515
 40
0.0427708334
 40
0.0546218702
 40
0.0669225517
 40
0.0796641282
 40
0.0928362942
 40
0.1204271347
 40
0.1495984091
 40
0.1802407165
 40
0.2122338314
 40
0.2454489836
 40
0.2797497839
 40
0.3149929168
 40
0.3510298084
 40
0.3877071885
 40
0.4248680172
 40
0.4623527228
 40
0.4999997959
 40
0.5376468789
 40
0.575131606
 40
0.6122924455
 40
0.6489698269
 40
0.6850067267
 40
0.7202498875
 40
0.7545507276
 40
0.7877659112
 40
0.8197590481
 40
0.8504013805
 40
0.8795726993
 40
0.9071635849
 40
0.9203357726
 40
0.933077377
 40
0.9453780958
 40
0.9572291635
 40
0.968622847
 40
0.9795522717
 40
0.9900124597
 40
1.0
 40
1.0
 40
1.0
 40
1.0
 10
11.5417691852
 20
5.5698419807
 30
0.0
 10
11.5387786508
 20
5.5683647029
 30
0.0
 10
11.5326049444
 20
5.5654427871
 30
0.0
 10
11.523002746
 20
5.5612433434
 30
0.0
 10
11.5128545679
 20
5.5571305087
 30
0.0
 10
11.5021721199
 20
5.5531092989
 30
0.0
 10
11.4909677443
 20
5.5491839937
 30
0.0
 10
11.4792542436
 20
5.5453592746
 30
0.0
 10
11.4670449877
 20
5.5416397038
 30
0.0
 10
11.4498571588
 20
5.536750172
 30
0.0
 10
11.4272268465
 20
5.5309546905
 30
0.0
 10
11.3987355682
 20
5.5245860182
 30
0.0
 10
11.3686355192
 20
5.5187304943
 30
0.0
 10
11.337065513
 20
5.5134151526
 30
0.0
 10
11.304170855
 20
5.5086649963
 30
0.0
 10
11.270103204
 20
5.5045024641
 30
0.0
 10
11.2350197454
 20
5.5009467361
 30
0.0
 10
11.1990824245
 20
5.4980145658
 30
0.0
 10
11.1624571636
 20
5.4957197811
 30
0.0
 10
11.1253131311
 20
5.4940728337
 30
0.0
 10
11.0878219072
 20
5.4930815977
 30
0.0
 10
11.0501566669
 20
5.4927507411
 30
0.0
 10
11.0124914194
 20
5.493081581
 30
0.0
 10
10.9750001809
 20
5.4940728009
 30
0.0
 10
10.9378561365
 20
5.4957197316
 30
0.0
 10
10.9012308677
 20
5.4980145002
 30
0.0
 10
10.865293533
 20
5.5009466536
 30
0.0
 10
10.8302100475
 20
5.5045023671
 30
0.0
 10
10.7961423612
 20
5.5086648845
 30
0.0
 10
10.7632476699
 20
5.5134150275
 30
0.0
 10
10.7316776345
 20
5.5187303534
 30
0.0
 10
10.7015775516
 20
5.524585863
 30
0.0
 10
10.673086232
 20
5.5309545257
 30
0.0
 10
10.650455878
 20
5.5367499937
 30
0.0
 10
10.6332680135
 20
5.541639516
 30
0.0
 10
10.6210587268
 20
5.5453590853
 30
0.0
 10
10.6093451947
 20
5.5491838117
 30
0.0
 10
10.5981407953
 20
5.5531091195
 30
0.0
 10
10.5874583445
 20
5.5571303109
 30
0.0
 10
10.5773101725
 20
5.5612430948
 30
0.0
 10
10.5677079565
 20
5.5654425001
 30
0.0
 10
10.5615342353
 20
5.5683644207
 30
0.0
 10
10.5585436823
 20
5.5698417184
 30
0.0
  0
SPLINE
  5
36E
100
AcDbEntity
  8
0
100
AcDbSpline
 62
7
  6
CONTINUOUS
 70
0
 71
3
 72
23
 73
19
 74
0
 42
0.0000001
 43
0.0000001
 44
0.0000000001
 40
0.0
 40
0.0
 40
0.0
 40
0.0
 40
0.0436203086
 40
0.0892268542
 40
0.137068591
 40
0.187353676
 40
0.2402538462
 40
0.2958872461
 40
0.3543311569
 40
0.4156094827
 40
0.4797102731
 40
0.5465788188
 40
0.6161346312
 40
0.6882694307
 40
0.7628606873
 40
0.8397744221
 40
0.9188692703
 40
1.0
 40
1.0
 40
1.0
 40
1.0
 10
10.5395374228
 20
5.5792304685
 30
0.0
 10
10.5372274872
 20
5.5803710371
 30
0.0
 10
10.5325903635
 20
5.5828861336
 30
0.0
 10
10.525763074
 20
5.5872471856
 30
0.0
 10
10.5189266851
 20
5.5922894721
 30
0.0
 10
10.5120851354
 20
5.5980204044
 30
0.0
 10
10.5052440372
 20
5.6044440553
 30
0.0
 10
10.4984064967
 20
5.6115556277
 30
0.0
 10
10.4915782375
 20
5.6193464397
 30
0.0
 10
10.4847619934
 20
5.6277998421
 30
0.0
 10
10.4779628249
 20
5.636895748
 30
0.0
 10
10.4711829747
 20
5.64660813
 30
0.0
 10
10.4644263078
 20
5.6569086781
 30
0.0
 10
10.4576944208
 20
5.6677656321
 30
0.0
 10
10.4509897038
 20
5.6791464857
 30
0.0
 10
10.4443130546
 20
5.6910175681
 30
0.0
 10
10.4376655621
 20
5.7033454072
 30
0.0
 10
10.4333064441
 20
5.7117448243
 30
0.0
 10
10.4311289126
 20
5.7160129571
 30
0.0
  0
SPLINE
  5
36F
100
AcDbEntity
  8
0
100
AcDbSpline
 62
7
  6
CONTINUOUS
 70
0
 71
3
 72
9
 73
5
 74
0
 42
0.0000001
 43
0.0000001
 44
0.0000000001
 40
0.0
 40
0.0
 40
0.0
 40
0.0
 40
0.2426770998
 40
1.0
 40
1.0
 40
1.0
 40
1.0
 10
11.6625531995
 20
6.0224956814
 30
0.0
 10
11.6619450091
 20
6.0219082145
 30
0.0
 10
11.6594119577
 20
6.0195153333
 30
0.0
 10
11.6567762439
 20
6.0172318638
 30
0.0
 10
11.6547354419
 20
6.0155589974
 30
0.0
  0
SPLINE
  5
370
100
AcDbEntity
  8
0
100
AcDbSpline
 62
7
  6
CONTINUOUS
 70
0
 71
3
 72
52
 73
48
 74
0
 42
0.0000001
 43
0.0000001
 44
0.0000000001
 40
0.0
 40
0.0
 40
0.0
 40
0.0
 40
0.0126679066
 40
0.0258798917
 40
0.0396241405
 40
0.0538866405
 40
0.0686524727
 40
0.0839053132
 40
0.1157990876
 40
0.1494160733
 40
0.1845883408
 40
0.2211351086
 40
0.2588650638
 40
0.2975781303
 40
0.3370669589
 40
0.3771185488
 40
0.4175160077
 40
0.4580399964
 40
0.4984702566
 40
0.5385872205
 40
0.5781735066
 40
0.6170154285
 40
0.654904757
 40
0.69164021
 40
0.727028972
 40
0.7608886356
 40
0.7930493004
 40
0.808443837
 40
0.8233565932
 40
0.837770665
 40
0.8516708679
 40
0.8650428298
 40
0.87787401
 40
0.8901537419
 40
0.9018726874
 40
0.9130242713
 40
0.923604202
 40
0.9336106871
 40
0.9430459944
 40
0.9519158989
 40
0.9602310068
 40
0.9680082705
 40
0.97527121
 40
0.9820524327
 40
0.9883951785
 40
0.994354593
 40
1.0
 40
1.0
 40
1.0
 40
1.0
 10
11.4908794432
 20
6.0386424612
 30
0.0
 10
11.4868661178
 20
6.0371588306
 30
0.0
 10
11.4786259805
 20
6.034238151
 30
0.0
 10
11.4659058895
 20
6.0300726397
 30
0.0
 10
11.4525806691
 20
6.0260355671
 30
0.0
 10
11.4386698321
 20
6.0221324725
 30
0.0
 10
11.4241934416
 20
6.0183692775
 30
0.0
 10
11.4038619511
 20
6.0134727496
 30
0.0
 10
11.3771811104
 20
6.0077661743
 30
0.0
 10
11.3437231211
 20
6.0016543682
 30
0.0
 10
11.3085580436
 20
5.9962171745
 30
0.0
 10
11.2718902921
 20
5.9914865517
 30
0.0
 10
11.2339327554
 20
5.987490477
 30
0.0
 10
11.1949060524
 20
5.9842526502
 30
0.0
 10
11.155037121
 20
5.9817922131
 30
0.0
 10
11.1145579093
 20
5.9801235592
 30
0.0
 10
11.0737039456
 20
5.9792565374
 30
0.0
 10
11.0327129496
 20
5.9791963827
 30
0.0
 10
10.9918234564
 20
5.9799433938
 30
0.0
 10
10.9512734028
 20
5.9814930847
 30
0.0
 10
10.9112987428
 20
5.9838363553
 30
0.0
 10
10.8721320388
 20
5.9869595029
 30
0.0
 10
10.834001038
 20
5.9908439746
 30
0.0
 10
10.7971274059
 20
5.9954667881
 30
0.0
 10
10.7617252751
 20
6.0008006659
 30
0.0
 10
10.7280004434
 20
6.0068142141
 30
0.0
 10
10.701077978
 20
6.012440764
 30
0.0
 10
10.6805390012
 20
6.0172758255
 30
0.0
 10
10.6658981132
 20
6.0209961762
 30
0.0
 10
10.6518166156
 20
6.0248582144
 30
0.0
 10
10.6383148364
 20
6.0288559459
 30
0.0
 10
10.6254123965
 20
6.0329838183
 30
0.0
 10
10.61312797
 20
6.0372358023
 30
0.0
 10
10.6014792071
 20
6.0416053685
 30
0.0
 10
10.5904830163
 20
6.0460866174
 30
0.0
 10
10.5801551045
 20
6.0506727834
 30
0.0
 10
10.5705101565
 20
6.0553571263
 30
0.0
 10
10.5615620832
 20
6.0601334453
 30
0.0
 10
10.5533232852
 20
6.0649945187
 30
0.0
 10
10.5458053233
 20
6.0699338208
 30
0.0
 10
10.5390188494
 20
6.0749450699
 30
0.0
 10
10.5329728622
 20
6.0800213086
 30
0.0
 10
10.5276761134
 20
6.0851569954
 30
0.0
 10
10.5231364427
 20
6.0903463028
 30
0.0
 10
10.5193606383
 20
6.0955840024
 30
0.0
 10
10.5163574427
 20
6.1008640413
 30
0.0
 10
10.514840787
 20
6.1044921918
 30
0.0
 10
10.5142269816
 20
6.1062975208
 30
0.0
  0
SPLINE
  5
371
100
AcDbEntity
  8
0
100
AcDbSpline
 62
7
  6
CONTINUOUS
 70
0
 71
3
 72
9
 73
5
 74
0
 42
0.0000001
 43
0.0000001
 44
0.0000000001
 40
0.0
 40
0.0
 40
0.0
 40
0.0
 40
0.2575156145
 40
1.0
 40
1.0
 40
1.0
 40
1.0
 10
11.6625531995
 20
6.0224956814
 30
0.0
 10
11.6631494479
 20
6.0230716131
 30
0.0
 10
11.6654403353
 20
6.0253332101
 30
0.0
 10
11.6676302962
 20
6.0276979731
 30
0.0
 10
11.6691834662
 20
6.0295147181
 30
0.0
  0
SPLINE
  5
372
100
AcDbEntity
  8
0
100
AcDbSpline
 62
7
  6
CONTINUOUS
 70
0
 71
3
 72
23
 73
19
 74
0
 42
0.0000001
 43
0.0000001
 44
0.0000000001
 40
0.0
 40
0.0
 40
0.0
 40
0.0
 40
0.0584073772
 40
0.1170342735
 40
0.1759467791
 40
0.2352254393
 40
0.2949566481
 40
0.3552309857
 40
0.416138177
 40
0.4777587845
 40
0.5401587954
 40
0.6033848824
 40
0.6674604979
 40
0.7323867655
 40
0.7981445902
 40
0.864698137
 40
0.9320021467
 40
1.0
 40
1.0
 40
1.0
 40
1.0
 10
11.6547354419
 20
6.0155589974
 30
0.0
 10
11.6462884128
 20
6.0164465029
 30
0.0
 10
11.6293299678
 20
6.0179313177
 30
0.0
 10
11.6037689253
 20
6.0191964527
 30
0.0
 10
11.5780493892
 20
6.0194140744
 30
0.0
 10
11.5521836122
 20
6.0184963952
 30
0.0
 10
11.5261899225
 20
6.0163633686
 30
0.0
 10
11.5000938711
 20
6.0129479756
 30
0.0
 10
11.4739274618
 20
6.0081996034
 30
0.0
 10
11.4477272593
 20
6.0020912082
 30
0.0
 10
11.4215317765
 20
5.9946216111
 30
0.0
 10
11.3953793017
 20
5.9858135511
 30
0.0
 10
11.3693046965
 20
5.9757139252
 30
0.0
 10
11.3433371702
 20
5.9643898021
 30
0.0
 10
11.317500086
 20
5.9519209247
 30
0.0
 10
11.2918096461
 20
5.9383958703
 30
0.0
 10
11.2662760963
 20
5.9239074033
 30
0.0
 10
11.2494426954
 20
5.9137159392
 30
0.0
 10
11.2410489068
 20
5.9084890844
 30
0.0
  0
SPLINE
  5
373
100
AcDbEntity
  8
0
100
AcDbSpline
 62
7
  6
CONTINUOUS
 70
0
 71
3
 72
21
 73
17
 74
0
 42
0.0000001
 43
0.0000001
 44
0.0000000001
 40
0.0
 40
0.0
 40
0.0
 40
0.0
 40
0.1230212981
 40
0.1847065752
 40
0.2465215318
 40
0.3084771567
 40
0.3705832678
 40
0.432847904
 40
0.4952752623
 40
0.5578663069
 40
0.6206183946
 40
0.6835249868
 40
0.7465773451
 40
0.8097643485
 40
0.8730733734
 40
1.0
 40
1.0
 40
1.0
 40
1.0
 10
11.1871281045
 20
5.5203462162
 30
0.0
 10
11.1640489235
 20
5.51579886
 30
0.0
 10
11.129216482
 20
5.5098264537
 30
0.0
 10
11.082445267
 20
5.5039163063
 30
0.0
 10
11.0471339584
 20
5.5005890923
 30
0.0
 10
11.0116495156
 20
5.4984546847
 30
0.0
 10
10.9760247946
 20
5.4975839483
 30
0.0
 10
10.9403015831
 20
5.4980328435
 30
0.0
 10
10.9045279614
 20
5.4998348423
 30
0.0
 10
10.8687554351
 20
5.5029981282
 30
0.0
 10
10.8330354952
 20
5.5075070788
 30
0.0
 10
10.7974158819
 20
5.5133213206
 30
0.0
 10
10.7619377423
 20
5.5203790346
 30
0.0
 10
10.7266335516
 20
5.5286047244
 30
0.0
 10
10.6797896254
 20
5.5410242764
 30
0.0
 10
10.6450292157
 20
5.5518120708
 30
0.0
 10
10.6220216299
 20
5.5595364833
 30
0.0
  0
SPLINE
  5
374
100
AcDbEntity
  8
0
100
AcDbSpline
 62
7
  6
CONTINUOUS
 70
0
 71
3
 72
21
 73
17
 74
0
 42
0.0000001
 43
0.0000001
 44
0.0000000001
 40
0.0
 40
0.0
 40
0.0
 40
0.0
 40
0.1269266266
 40
0.1902356515
 40
0.253422655
 40
0.3164750132
 40
0.3793816055
 40
0.4421336932
 40
0.5047247377
 40
0.567152096
 40
0.6294167323
 40
0.6915228434
 40
0.7534784683
 40
0.8152934248
 40
0.8769787019
 40
1.0
 40
1.0
 40
1.0
 40
1.0
 10
11.1871281045
 20
5.9047496575
 30
0.0
 10
11.1641205187
 20
5.91247407
 30
0.0
 10
11.129360109
 20
5.9232618644
 30
0.0
 10
11.0825161829
 20
5.9356814164
 30
0.0
 10
11.0472119921
 20
5.9439071061
 30
0.0
 10
11.0117338526
 20
5.9509648202
 30
0.0
 10
10.9761142392
 20
5.956779062
 30
0.0
 10
10.9403942993
 20
5.9612880126
 30
0.0
 10
10.9046217731
 20
5.9644512985
 30
0.0
 10
10.8688481514
 20
5.9662532972
 30
0.0
 10
10.8331249399
 20
5.9667021924
 30
0.0
 10
10.7975002189
 20
5.9658314561
 30
0.0
 10
10.7620157761
 20
5.9636970485
 30
0.0
 10
10.7267044674
 20
5.9603698345
 30
0.0
 10
10.6799332525
 20
5.9544596871
 30
0.0
 10
10.645100811
 20
5.9484872808
 30
0.0
 10
10.6220216299
 20
5.9439399246
 30
0.0
  0
SPLINE
  5
375
100
AcDbEntity
  8
0
100
AcDbSpline
 62
7
  6
CONTINUOUS
 70
0
 71
3
 72
11
 73
7
 74
0
 42
0.0000001
 43
0.0000001
 44
0.0000000001
 40
0.0
 40
0.0
 40
0.0
 40
0.0
 40
0.2465919593
 40
0.494712682
 40
0.7454424776
 40
1.0
 40
1.0
 40
1.0
 40
1.0
 10
10.582548852
 20
5.569752777
 30
0.0
 10
10.5806064392
 20
5.5696979424
 30
0.0
 10
10.5767051294
 20
5.5697052888
 30
0.0
 10
10.5708394382
 20
5.5700888107
 30
0.0
 10
10.5649493662
 20
5.570867093
 30
0.0
 10
10.5610429091
 20
5.5716566409
 30
0.0
 10
10.559091464
 20
5.5721211023
 30
0.0
  0
SPLINE
  5
376
100
AcDbEntity
  8
0
100
AcDbSpline
 62
7
  6
CONTINUOUS
 70
0
 71
3
 72
10
 73
6
 74
0
 42
0.0000001
 43
0.0000001
 44
0.0000000001
 40
0.0
 40
0.0
 40
0.0
 40
0.0
 40
0.2418255986
 40
0.4885199497
 40
1.0
 40
1.0
 40
1.0
 40
1.0
 10
10.559091464
 20
5.5721211023
 30
0.0
 10
10.5574569465
 20
5.572510132
 30
0.0
 10
10.5541766362
 20
5.5733909926
 30
0.0
 10
10.5475777359
 20
5.5755732979
 30
0.0
 10
10.5427238575
 20
5.5776571142
 30
0.0
 10
10.5395374228
 20
5.5792304685
 30
0.0
  0
SPLINE
  5
377
100
AcDbEntity
  8
0
100
AcDbSpline
 62
7
  6
CONTINUOUS
 70
0
 71
3
 72
24
 73
20
 74
0
 42
0.0000001
 43
0.0000001
 44
0.0000000001
 40
0.0
 40
0.0
 40
0.0
 40
0.0
 40
0.0904093442
 40
0.1775324522
 40
0.261055269
 40
0.3406843232
 40
0.4161626246
 40
0.4872996212
 40
0.5212074966
 40
0.554003791
 40
0.6162841328
 40
0.674312422
 40
0.7283967603
 40
0.7789822486
 40
0.8266236806
 40
0.8719378747
 40
0.9155548406
 40
0.9580697821
 40
1.0
 40
1.0
 40
1.0
 40
1.0
 10
10.582548852
 20
5.9541562183
 30
0.0
 10
10.5795133186
 20
5.9601061022
 30
0.0
 10
10.5734393366
 20
5.9717324253
 30
0.0
 10
10.564113837
 20
5.9886171956
 30
0.0
 10
10.5547335563
 20
6.0045547948
 30
0.0
 10
10.5453015274
 20
6.0194540815
 30
0.0
 10
10.5358226482
 20
6.0332271326
 30
0.0
 10
10.5277667933
 20
6.0438641378
 30
0.0
 10
10.5212898878
 20
6.0517245548
 30
0.0
 10
10.5150173221
 20
6.0588998662
 30
0.0
 10
10.5071781196
 20
6.0670671785
 30
0.0
 10
10.497591594
 20
6.0756948887
 30
0.0
 10
10.4880028755
 20
6.082969796
 30
0.0
 10
10.47842405
 20
6.0889096618
 30
0.0
 10
10.4688684748
 20
6.0935547451
 30
0.0
 10
10.459349871
 20
6.096963233
 30
0.0
 10
10.4498813817
 20
6.0992094502
 30
0.0
 10
10.4404752755
 20
6.1003797323
 30
0.0
 10
10.4342255053
 20
6.1005038158
 30
0.0
 10
10.4311289126
 20
6.1004163984
 30
0.0
  0
LINE
  5
378
100
AcDbEntity
  8
0
100
AcDbLine
 62
7
  6
CONTINUOUS
 10
11.5414489615
 20
5.5705129793
 11
11.5407198475
 21
5.5701930916
  0
SPLINE
  5
379
100
AcDbEntity
  8
0
100
AcDbSpline
 62
7
  6
CONTINUOUS
 70
0
 71
3
 72
15
 73
11
 74
0
 42
0.0000001
 43
0.0000001
 44
0.0000000001
 40
0.0
 40
0.0
 40
0.0
 40
0.0
 40
0.1321602046
 40
0.2618009952
 40
0.3890353631
 40
0.5141096583
 40
0.6373677171
 40
0.75919507
 40
0.8799649792
 40
1.0
 40
1.0
 40
1.0
 40
1.0
 10
11.5407198475
 20
5.5701930916
 30
0.0
 10
11.5283387441
 20
5.5647693495
 30
0.0
 10
11.5034979803
 20
5.5547223603
 30
0.0
 10
11.4657039171
 20
5.542188923
 30
0.0
 10
11.4278331477
 20
5.5324716334
 30
0.0
 10
11.390006772
 20
5.5256031292
 30
0.0
 10
11.3523393861
 20
5.5215033008
 30
0.0
 10
11.3149238042
 20
5.5199966129
 30
0.0
 10
11.2778229675
 20
5.5208434606
 30
0.0
 10
11.2532585481
 20
5.5228028105
 30
0.0
 10
11.2410489068
 20
5.5240856431
 30
0.0
  0
SPLINE
  5
37A
100
AcDbEntity
  8
0
100
AcDbSpline
 62
7
  6
CONTINUOUS
 70
0
 71
3
 72
83
 73
79
 74
0
 42
0.0000001
 43
0.0000001
 44
0.0000000001
 40
0.0
 40
0.0
 40
0.0
 40
0.0
 40
0.003980149
 40
0.0081240919
 40
0.0124359835
 40
0.0169193603
 40
0.0215772246
 40
0.0264119606
 40
0.0314252324
 40
0.0366182158
 40
0.0419916195
 40
0.0475457334
 40
0.0532805161
 40
0.0591955185
 40
0.0715625327
 40
0.0846382143
 40
0.0984095328
 40
0.1128601134
 40
0.1279706583
 40
0.1437192718
 40
0.1600817502
 40
0.1770318183
 40
0.1945413264
 40
0.2125804203
 40
0.2311176863
 40
0.2501203005
 40
0.269554164
 40
0.2893840224
 40
0.3095735802
 40
0.3300856048
 40
0.3508820422
 40
0.3719241252
 40
0.4145864312
 40
0.4577527569
 40
0.5010975799
 40
0.5442936399
 40
0.5870151259
 40
0.6080976714
 40
0.6289416876
 40
0.6495082871
 40
0.6697592834
 40
0.6896572915
 40
0.7091658343
 40
0.7282494515
 40
0.7468738239
 40
0.7650058946
 40
0.78261399
 40
0.7996679565
 40
0.8161393115
 40
0.8320014232
 40
0.8472297058
 40
0.8618018332
 40
0.8756980061
 40
0.8889012771
 40
0.9013979681
 40
0.9131781873
 40
0.9187980573
 40
0.924237173
 40
0.9294957148
 40
0.9345742409
 40
0.9394737433
 40
0.9441957547
 40
0.948742307
 40
0.9531161074
 40
0.9573205402
 40
0.9613597705
 40
0.9652388909
 40
0.9689639409
 40
0.9725421207
 40
0.975981843
 40
0.9792928682
 40
0.9824864417
 40
0.9855753029
 40
0.9885737828
 40
0.9914977139
 40
0.9943643205
 40
0.9971920042
 40
1.0
 40
1.0
 40
1.0
 40
1.0
 10
11.790199271
 20
11.2147219442
 30
0.0
 10
11.7891297771
 20
11.2136888923
 30
0.0
 10
11.7868982056
 20
11.2116300858
 30
0.0
 10
11.7833551439
 20
11.2086230281
 30
0.0
 10
11.7795518935
 20
11.2056375138
 30
0.0
 10
11.7754905425
 20
11.2026751775
 30
0.0
 10
11.771173102
 20
11.1997373751
 30
0.0
 10
11.7666016586
 20
11.1968255618
 30
0.0
 10
11.7617785032
 20
11.193941103
 30
0.0
 10
11.7567060317
 20
11.1910854846
 30
0.0
 10
11.7513867903
 20
11.1882601303
 30
0.0
 10
11.7458234542
 20
11.185466428
 30
0.0
 10
11.7400187831
 20
11.1827058014
 30
0.0
 10
11.7318395605
 20
11.1790160272
 30
0.0
 10
11.7210240779
 20
11.1745070596
 30
0.0
 10
11.7073178763
 20
11.1693271147
 30
0.0
 10
11.6927253377
 20
11.1643111526
 30
0.0
 10
11.6772758315
 20
11.1594693539
 30
0.0
 10
11.6610002881
 20
11.1548115629
 30
0.0
 10
11.6439314475
 20
11.1503472551
 30
0.0
 10
11.6261036813
 20
11.1460855201
 30
0.0
 10
11.607552934
 20
11.1420350392
 30
0.0
 10
11.5883166355
 20
11.1382040653
 30
0.0
 10
11.5684336264
 20
11.1346004069
 30
0.0
 10
11.5479440786
 20
11.1312313989
 30
0.0
 10
11.5268894065
 20
11.1281038981
 30
0.0
 10
11.5053121757
 20
11.1252242706
 30
0.0
 10
11.4832560163
 20
11.1225983786
 30
0.0
 10
11.4607655322
 20
11.1202315681
 30
0.0
 10
11.4378862281
 20
11.1181286584
 30
0.0
 10
11.4146643526
 20
11.1162938946
 30
0.0
 10
11.3831644082
 20
11.114200656
 30
0.0
 10
11.3432801734
 20
11.1122862725
 30
0.0
 10
11.2950321483
 20
11.1111123433
 30
0.0
 10
11.2465703086
 20
11.1110612061
 30
0.0
 10
11.1982866954
 20
11.1121333099
 30
0.0
 10
11.1583501285
 20
11.1139631766
 30
0.0
 10
11.1267906887
 20
11.1159893307
 30
0.0
 10
11.1035115465
 20
11.1177749069
 30
0.0
 10
11.0805664831
 20
11.1198293525
 30
0.0
 10
11.0580018766
 20
11.1221485143
 30
0.0
 10
11.0358633797
 20
11.1247276663
 30
0.0
 10
11.0141957674
 20
11.1275615637
 30
0.0
 10
10.9930428598
 20
11.1306444436
 30
0.0
 10
10.9724474231
 20
11.1339700302
 30
0.0
 10
10.9524510813
 20
11.1375315484
 30
0.0
 10
10.933094234
 20
11.1413217451
 30
0.0
 10
10.9144159739
 20
11.1453329006
 30
0.0
 10
10.896454002
 20
11.1495568487
 30
0.0
 10
10.8792445387
 20
11.1539849848
 30
0.0
 10
10.8628222441
 20
11.1586082849
 30
0.0
 10
10.8472201365
 20
11.1634173385
 30
0.0
 10
10.8324695476
 20
11.1684023654
 30
0.0
 10
10.8185999334
 20
11.1735532651
 30
0.0
 10
10.8056391602
 20
11.1788596005
 30
0.0
 10
10.7954632084
 20
11.1834718127
 30
0.0
 10
10.7878072768
 20
11.1872402012
 30
0.0
 10
10.7823989336
 20
11.1900542358
 30
0.0
 10
10.7772364098
 20
11.1928990043
 30
0.0
 10
10.7723222774
 20
11.1957731191
 30
0.0
 10
10.767659009
 20
11.1986751778
 30
0.0
 10
10.7632488996
 20
11.2016036906
 30
0.0
 10
10.7590941756
 20
11.2045572809
 30
0.0
 10
10.7551968808
 20
11.2075344702
 30
0.0
 10
10.7515589526
 20
11.2105338296
 30
0.0
 10
10.7481822319
 20
11.2135539659
 30
0.0
 10
10.7450683635
 20
11.2165934015
 30
0.0
 10
10.7422189806
 20
11.2196507957
 30
0.0
 10
10.7396355197
 20
11.2227247094
 30
0.0
 10
10.7373193638
 20
11.2258137661
 30
0.0
 10
10.7352718548
 20
11.2289166071
 30
0.0
 10
10.733494146
 20
11.2320317769
 30
0.0
 10
10.7319874895
 20
11.235157883
 30
0.0
 10
10.730752917
 20
11.2382933732
 30
0.0
 10
10.729791445
 20
11.2414366111
 30
0.0
 10
10.7291040018
 20
11.2445859328
 30
0.0
 10
10.7286911794
 20
11.2477391052
 30
0.0
 10
10.7285993097
 20
11.2498456789
 30
0.0
 10
10.7285993055
 20
11.2508947207
 30
0.0
  0
SPLINE
  5
37B
100
AcDbEntity
  8
0
100
AcDbSpline
 62
7
  6
CONTINUOUS
 70
0
 71
3
 72
41
 73
37
 74
0
 42
0.0000001
 43
0.0000001
 44
0.0000000001
 40
0.0
 40
0.0
 40
0.0
 40
0.0
 40
0.0311443777
 40
0.0624425595
 40
0.0938872477
 40
0.1254696093
 40
0.1571771289
 40
0.1889951561
 40
0.2209067114
 40
0.2528930218
 40
0.2849338418
 40
0.3170078727
 40
0.349093173
 40
0.3811675842
 40
0.4132091572
 40
0.4451965775
 40
0.4771095803
 40
0.5089293526
 40
0.5406389143
 40
0.5722234721
 40
0.6036707398
 40
0.6349712184
 40
0.6661184287
 40
0.6971090895
 40
0.7279432343
 40
0.7586242609
 40
0.7891589086
 40
0.8195571576
 40
0.8498320512
 40
0.8649308888
 40
0.8800050477
 40
0.9100832517
 40
0.9400926686
 40
0.9550812681
 40
0.9700610312
 40
1.0
 40
1.0
 40
1.0
 40
1.0
 10
11.5596286883
 20
9.4169782896
 30
0.0
 10
11.5629426421
 20
9.4167484661
 30
0.0
 10
11.5695725571
 20
9.4160450996
 30
0.0
 10
11.5794370324
 20
9.4142733665
 30
0.0
 10
11.5891958739
 20
9.4117916166
 30
0.0
 10
11.5987963155
 20
9.408613318
 30
0.0
 10
11.6081874006
 20
9.4047554223
 30
0.0
 10
11.61731902
 20
9.4002386101
 30
0.0
 10
11.6261425305
 20
9.3950869999
 30
0.0
 10
11.6346109155
 20
9.3893281059
 30
0.0
 10
11.6426790549
 20
9.3829926544
 30
0.0
 10
11.6503039582
 20
9.376114436
 30
0.0
 10
11.6574449919
 20
9.3687301214
 30
0.0
 10
11.6640640933
 20
9.3608790696
 30
0.0
 10
11.6701259715
 20
9.3526031196
 30
0.0
 10
11.6755982942
 20
9.3439463703
 30
0.0
 10
11.6804518581
 20
9.3349549473
 30
0.0
 10
11.6846607449
 20
9.3256767614
 30
0.0
 10
11.6882024593
 20
9.3161612553
 30
0.0
 10
11.6910580476
 20
9.3064591436
 30
0.0
 10
11.6932122004
 20
9.2966221457
 30
0.0
 10
11.6946533347
 20
9.2867027145
 30
0.0
 10
11.6953736591
 20
9.2767537595
 30
0.0
 10
11.6953692191
 20
9.2668283709
 30
0.0
 10
11.694639918
 20
9.2569795289
 30
0.0
 10
11.6931895415
 20
9.247259862
 30
0.0
 10
11.6910256753
 20
9.237721223
 30
0.0
 10
11.6881599224
 20
9.2284149459
 30
0.0
 10
11.6851962882
 20
9.2208867072
 30
0.0
 10
11.6824917722
 20
9.2150323635
 30
0.0
 10
11.6795731553
 20
9.2093052798
 30
0.0
 10
11.6755207546
 20
9.2023781114
 30
0.0
 10
11.6709471961
 20
9.195794444
 30
0.0
 10
11.6669949323
 20
9.1907620872
 30
0.0
 10
11.6628541876
 20
9.185893947
 30
0.0
 10
11.6595366864
 20
9.1824282873
 30
0.0
 10
11.657239851
 20
9.180209733
 30
0.0
  0
SPLINE
  5
37C
100
AcDbEntity
  8
0
100
AcDbSpline
 62
7
  6
CONTINUOUS
 70
0
 71
3
 72
41
 73
37
 74
0
 42
0.0000001
 43
0.0000001
 44
0.0000000001
 40
0.0
 40
0.0
 40
0.0
 40
0.0
 40
0.0311443777
 40
0.0624425595
 40
0.0938872477
 40
0.1254696093
 40
0.1571771289
 40
0.1889951561
 40
0.2209067114
 40
0.2528930218
 40
0.2849338418
 40
0.3170078727
 40
0.349093173
 40
0.3811675842
 40
0.4132091572
 40
0.4451965775
 40
0.4771095803
 40
0.5089293526
 40
0.5406389143
 40
0.5722234721
 40
0.6036707398
 40
0.6349712184
 40
0.6661184287
 40
0.6971090895
 40
0.7279432343
 40
0.7586242609
 40
0.7891589086
 40
0.8195571576
 40
0.8498320512
 40
0.8649308888
 40
0.8800050477
 40
0.9100832517
 40
0.9400926686
 40
0.9550812681
 40
0.9700610312
 40
1.0
 40
1.0
 40
1.0
 40
1.0
 10
9.8093710963
 20
9.5383590658
 30
0.0
 10
9.8126850501
 20
9.5381292424
 30
0.0
 10
9.8193149651
 20
9.5374258759
 30
0.0
 10
9.8291794404
 20
9.5356541428
 30
0.0
 10
9.8389382819
 20
9.5331723928
 30
0.0
 10
9.8485387234
 20
9.5299940943
 30
0.0
 10
9.8579298086
 20
9.5261361986
 30
0.0
 10
9.867061428
 20
9.5216193863
 30
0.0
 10
9.8758849385
 20
9.5164677762
 30
0.0
 10
9.8843533235
 20
9.5107088822
 30
0.0
 10
9.8924214629
 20
9.5043734307
 30
0.0
 10
9.9000463662
 20
9.4974952123
 30
0.0
 10
9.9071873999
 20
9.4901108977
 30
0.0
 10
9.9138065013
 20
9.4822598458
 30
0.0
 10
9.9198683795
 20
9.4739838959
 30
0.0
 10
9.9253407022
 20
9.4653271466
 30
0.0
 10
9.930194266
 20
9.4563357236
 30
0.0
 10
9.9344031529
 20
9.4470575377
 30
0.0
 10
9.9379448672
 20
9.4375420316
 30
0.0
 10
9.9408004556
 20
9.4278399198
 30
0.0
 10
9.9429546083
 20
9.418002922
 30
0.0
 10
9.9443957427
 20
9.4080834908
 30
0.0
 10
9.9451160671
 20
9.3981345358
 30
0.0
 10
9.945111627
 20
9.3882091472
 30
0.0
 10
9.944382326
 20
9.3783603052
 30
0.0
 10
9.9429319495
 20
9.3686406383
 30
0.0
 10
9.9407680833
 20
9.3591019993
 30
0.0
 10
9.9379023304
 20
9.3497957221
 30
0.0
 10
9.9349386962
 20
9.3422674835
 30
0.0
 10
9.9322341802
 20
9.3364131397
 30
0.0
 10
9.9293155633
 20
9.3306860561
 30
0.0
 10
9.9252631626
 20
9.3237588876
 30
0.0
 10
9.9206896041
 20
9.3171752202
 30
0.0
 10
9.9167373403
 20
9.3121428635
 30
0.0
 10
9.9125965956
 20
9.3072747233
 30
0.0
 10
9.9092790944
 20
9.3038090636
 30
0.0
 10
9.906982259
 20
9.3015905093
 30
0.0
  0
SPLINE
  5
37D
100
AcDbEntity
  8
0
100
AcDbSpline
 62
7
  6
CONTINUOUS
 70
0
 71
3
 72
41
 73
37
 74
0
 42
0.0000001
 43
0.0000001
 44
0.0000000001
 40
0.0
 40
0.0
 40
0.0
 40
0.0
 40
0.0311443777
 40
0.0624425595
 40
0.0938872477
 40
0.1254696093
 40
0.1571771289
 40
0.1889951561
 40
0.2209067114
 40
0.2528930218
 40
0.2849338418
 40
0.3170078727
 40
0.349093173
 40
0.3811675842
 40
0.4132091572
 40
0.4451965775
 40
0.4771095803
 40
0.5089293526
 40
0.5406389143
 40
0.5722234721
 40
0.6036707398
 40
0.6349712184
 40
0.6661184287
 40
0.6971090895
 40
0.7279432343
 40
0.7586242609
 40
0.7891589086
 40
0.8195571576
 40
0.8498320512
 40
0.8649308888
 40
0.8800050477
 40
0.9100832517
 40
0.9400926686
 40
0.9550812681
 40
0.9700610312
 40
1.0
 40
1.0
 40
1.0
 40
1.0
 10
9.8093710963
 20
7.4867324192
 30
0.0
 10
9.8126850501
 20
7.4865025957
 30
0.0
 10
9.8193149651
 20
7.4857992293
 30
0.0
 10
9.8291794404
 20
7.4840274962
 30
0.0
 10
9.8389382819
 20
7.4815457462
 30
0.0
 10
9.8485387234
 20
7.4783674477
 30
0.0
 10
9.8579298086
 20
7.474509552
 30
0.0
 10
9.867061428
 20
7.4699927397
 30
0.0
 10
9.8758849385
 20
7.4648411296
 30
0.0
 10
9.8843533235
 20
7.4590822356
 30
0.0
 10
9.8924214629
 20
7.4527467841
 30
0.0
 10
9.9000463662
 20
7.4458685657
 30
0.0
 10
9.9071873999
 20
7.438484251
 30
0.0
 10
9.9138065013
 20
7.4306331992
 30
0.0
 10
9.9198683795
 20
7.4223572493
 30
0.0
 10
9.9253407022
 20
7.4137005
 30
0.0
 10
9.930194266
 20
7.404709077
 30
0.0
 10
9.9344031529
 20
7.3954308911
 30
0.0
 10
9.9379448672
 20
7.385915385
 30
0.0
 10
9.9408004556
 20
7.3762132732
 30
0.0
 10
9.9429546083
 20
7.3663762753
 30
0.0
 10
9.9443957427
 20
7.3564568442
 30
0.0
 10
9.9451160671
 20
7.3465078892
 30
0.0
 10
9.945111627
 20
7.3365825006
 30
0.0
 10
9.944382326
 20
7.3267336585
 30
0.0
 10
9.9429319495
 20
7.3170139916
 30
0.0
 10
9.9407680833
 20
7.3074753527
 30
0.0
 10
9.9379023304
 20
7.2981690755
 30
0.0
 10
9.9349386962
 20
7.2906408368
 30
0.0
 10
9.9322341802
 20
7.2847864931
 30
0.0
 10
9.9293155633
 20
7.2790594095
 30
0.0
 10
9.9252631626
 20
7.272132241
 30
0.0
 10
9.9206896041
 20
7.2655485736
 30
0.0
 10
9.9167373403
 20
7.2605162168
 30
0.0
 10
9.9125965956
 20
7.2556480767
 30
0.0
 10
9.9092790944
 20
7.252182417
 30
0.0
 10
9.906982259
 20
7.2499638626
 30
0.0
  0
SPLINE
  5
37E
100
AcDbEntity
  8
0
100
AcDbSpline
 62
7
  6
CONTINUOUS
 70
0
 71
3
 72
41
 73
37
 74
0
 42
0.0000001
 43
0.0000001
 44
0.0000000001
 40
0.0
 40
0.0
 40
0.0
 40
0.0
 40
0.0311443777
 40
0.0624425595
 40
0.0938872477
 40
0.1254696093
 40
0.1571771289
 40
0.1889951561
 40
0.2209067114
 40
0.2528930218
 40
0.2849338418
 40
0.3170078727
 40
0.349093173
 40
0.3811675842
 40
0.4132091572
 40
0.4451965775
 40
0.4771095803
 40
0.5089293526
 40
0.5406389143
 40
0.5722234721
 40
0.6036707398
 40
0.6349712184
 40
0.6661184287
 40
0.6971090895
 40
0.7279432343
 40
0.7586242609
 40
0.7891589086
 40
0.8195571576
 40
0.8498320512
 40
0.8649308888
 40
0.8800050477
 40
0.9100832517
 40
0.9400926686
 40
0.9550812681
 40
0.9700610312
 40
1.0
 40
1.0
 40
1.0
 40
1.0
 10
11.5596286883
 20
7.365351643
 30
0.0
 10
11.5629426421
 20
7.3651218195
 30
0.0
 10
11.5695725571
 20
7.364418453
 30
0.0
 10
11.5794370324
 20
7.3626467199
 30
0.0
 10
11.5891958739
 20
7.36016497
 30
0.0
 10
11.5987963155
 20
7.3569866714
 30
0.0
 10
11.6081874006
 20
7.3531287757
 30
0.0
 10
11.61731902
 20
7.3486119635
 30
0.0
 10
11.6261425305
 20
7.3434603533
 30
0.0
 10
11.6346109155
 20
7.3377014593
 30
0.0
 10
11.6426790549
 20
7.3313660078
 30
0.0
 10
11.6503039582
 20
7.3244877894
 30
0.0
 10
11.6574449919
 20
7.3171034748
 30
0.0
 10
11.6640640933
 20
7.309252423
 30
0.0
 10
11.6701259715
 20
7.300976473
 30
0.0
 10
11.6755982942
 20
7.2923197237
 30
0.0
 10
11.6804518581
 20
7.2833283007
 30
0.0
 10
11.6846607449
 20
7.2740501148
 30
0.0
 10
11.6882024593
 20
7.2645346087
 30
0.0
 10
11.6910580476
 20
7.254832497
 30
0.0
 10
11.6932122004
 20
7.2449954991
 30
0.0
 10
11.6946533347
 20
7.2350760679
 30
0.0
 10
11.6953736591
 20
7.2251271129
 30
0.0
 10
11.6953692191
 20
7.2152017243
 30
0.0
 10
11.694639918
 20
7.2053528823
 30
0.0
 10
11.6931895415
 20
7.1956332154
 30
0.0
 10
11.6910256753
 20
7.1860945764
 30
0.0
 10
11.6881599224
 20
7.1767882993
 30
0.0
 10
11.6851962882
 20
7.1692600606
 30
0.0
 10
11.6824917722
 20
7.1634057169
 30
0.0
 10
11.6795731553
 20
7.1576786332
 30
0.0
 10
11.6755207546
 20
7.1507514648
 30
0.0
 10
11.6709471961
 20
7.1441677974
 30
0.0
 10
11.6669949323
 20
7.1391354406
 30
0.0
 10
11.6628541876
 20
7.1342673004
 30
0.0
 10
11.6595366864
 20
7.1308016407
 30
0.0
 10
11.657239851
 20
7.1285830864
 30
0.0
  0
SPLINE
  5
37F
100
AcDbEntity
  8
0
100
AcDbSpline
 62
7
  6
CONTINUOUS
 70
0
 71
3
 72
34
 73
30
 74
0
 42
0.0000001
 43
0.0000001
 44
0.0000000001
 40
0.0
 40
0.0
 40
0.0
 40
0.0
 40
0.0324863023
 40
0.0649541014
 40
0.097386296
 40
0.1297702484
 40
0.1620921035
 40
0.1943400046
 40
0.2265032341
 40
0.2585726601
 40
0.2905407624
 40
0.3224016371
 40
0.3541509812
 40
0.3857860774
 40
0.4173057852
 40
0.4487103654
 40
0.4800013332
 40
0.5111813741
 40
0.5422543328
 40
0.5732249611
 40
0.6040987593
 40
0.6348819868
 40
0.6655815723
 40
0.6962048755
 40
0.7572357181
 40
0.8180597997
 40
0.8787470535
 40
0.9393695033
 40
1.0
 40
1.0
 40
1.0
 40
1.0
 10
10.1692925436
 20
9.1049258633
 30
0.0
 10
10.1667606152
 20
9.1076333815
 30
0.0
 10
10.161849806
 20
9.1131909789
 30
0.0
 10
10.1549692416
 20
9.1219242478
 30
0.0
 10
10.1485978341
 20
9.1310217888
 30
0.0
 10
10.1427563489
 20
9.1404485817
 30
0.0
 10
10.1374620168
 20
9.1501692225
 30
0.0
 10
10.1327288924
 20
9.1601471894
 30
0.0
 10
10.1285677865
 20
9.1703457442
 30
0.0
 10
10.1249863262
 20
9.1807281475
 30
0.0
 10
10.1219891482
 20
9.1912580799
 30
0.0
 10
10.1195780945
 20
9.2018999268
 30
0.0
 10
10.117752446
 20
9.2126190293
 30
0.0
 10
10.1165091535
 20
9.2233818874
 30
0.0
 10
10.115843068
 20
9.2341563075
 30
0.0
 10
10.1157472658
 20
9.2449115028
 30
0.0
 10
10.1162132933
 20
9.2556181311
 30
0.0
 10
10.1172313931
 20
9.2662483183
 30
0.0
 10
10.118790674
 20
9.2767756527
 30
0.0
 10
10.120879379
 20
9.2871751214
 30
0.0
 10
10.1234850713
 20
9.2974230678
 30
0.0
 10
10.1265946649
 20
9.3074970085
 30
0.0
 10
10.1301948297
 20
9.3173760148
 30
0.0
 10
10.1356232445
 20
9.3302440445
 30
0.0
 10
10.143568124
 20
9.3457575916
 30
0.0
 10
10.1548474669
 20
9.3633069201
 30
0.0
 10
10.1677479964
 20
9.37964342
 30
0.0
 10
10.182148279
 20
9.3946405237
 30
0.0
 10
10.1926675136
 20
9.4036671893
 30
0.0
 10
10.1981289567
 20
9.4079141592
 30
0.0
  0
SPLINE
  5
380
100
AcDbEntity
  8
0
100
AcDbSpline
 62
7
  6
CONTINUOUS
 70
0
 71
3
 72
23
 73
19
 74
0
 42
0.0000001
 43
0.0000001
 44
0.0000000001
 40
0.0
 40
0.0
 40
0.0
 40
0.0
 40
0.0639093797
 40
0.1275503806
 40
0.1909256508
 40
0.254048088
 40
0.3169309857
 40
0.3795928235
 40
0.442055125
 40
0.5043426703
 40
0.5664829645
 40
0.6285057938
 40
0.6904427245
 40
0.7523265668
 40
0.8141908258
 40
0.8760691456
 40
0.9379947667
 40
1.0
 40
1.0
 40
1.0
 40
1.0
 10
10.9423972627
 20
8.6904233354
 30
0.0
 10
10.9423972627
 20
8.6864610866
 30
0.0
 10
10.9421550387
 20
8.6785510228
 30
0.0
 10
10.9410611348
 20
8.6667573955
 30
0.0
 10
10.9392415467
 20
8.6551025718
 30
0.0
 10
10.9367036125
 20
8.6436309903
 30
0.0
 10
10.9334571988
 20
8.6323853569
 30
0.0
 10
10.9295151374
 20
8.621407717
 30
0.0
 10
10.9248928606
 20
8.6107388509
 30
0.0
 10
10.9196084434
 20
8.6004182276
 30
0.0
 10
10.9136824629
 20
8.5904838041
 30
0.0
 10
10.9071378768
 20
8.5809718922
 30
0.0
 10
10.8999998996
 20
8.5719170281
 30
0.0
 10
10.8922958512
 20
8.5633518453
 30
0.0
 10
10.8840550787
 20
8.5553070075
 30
0.0
 10
10.8753085798
 20
8.5478109852
 30
0.0
 10
10.8660897205
 20
8.5408904799
 30
0.0
 10
10.8596556989
 20
8.536679202
 30
0.0
 10
10.8563735254
 20
8.534677908
 30
0.0
  0
SPLINE
  5
381
100
AcDbEntity
  8
0
100
AcDbSpline
 62
7
  6
CONTINUOUS
 70
0
 71
3
 72
24
 73
20
 74
0
 42
0.0000001
 43
0.0000001
 44
0.0000000001
 40
0.0
 40
0.0
 40
0.0
 40
0.0
 40
0.0639211483
 40
0.1275610973
 40
0.1909251558
 40
0.254026558
 40
0.3168811242
 40
0.3795097285
 40
0.4419368169
 40
0.5041903399
 40
0.566301104
 40
0.628302225
 40
0.6902284967
 40
0.7211791137
 40
0.7521245071
 40
0.8140089496
 40
0.8759265377
 40
0.937912348
 40
1.0
 40
1.0
 40
1.0
 40
1.0
 10
11.5329483257
 20
8.2573026691
 30
0.0
 10
11.5329483257
 20
8.2528621781
 30
0.0
 10
11.5326647862
 20
8.24399803
 30
0.0
 10
11.5313841339
 20
8.2307878406
 30
0.0
 10
11.5292546076
 20
8.217744697
 30
0.0
 10
11.5262857271
 20
8.2049226923
 30
0.0
 10
11.5224905153
 20
8.1923737679
 30
0.0
 10
11.5178857198
 20
8.1801487736
 30
0.0
 10
11.5124914734
 20
8.1682968012
 30
0.0
 10
11.5063312679
 20
8.1568650964
 30
0.0
 10
11.4994316251
 20
8.1458987041
 30
0.0
 10
11.4918223233
 20
8.1354407217
 30
0.0
 10
11.4849145141
 20
8.1271804969
 30
0.0
 10
11.4790690739
 20
8.1208682485
 30
0.0
 10
11.4730166927
 20
8.114758221
 30
0.0
 10
11.4650695466
 20
8.1075060214
 30
0.0
 10
11.4549674011
 20
8.0994582578
 30
0.0
 10
11.4443400138
 20
8.0920939114
 30
0.0
 10
11.436939297
 20
8.0876613871
 30
0.0
 10
11.4331681482
 20
8.0855681956
 30
0.0
  0
SPLINE
  5
382
100
AcDbEntity
  8
0
100
AcDbSpline
 62
7
  6
CONTINUOUS
 70
0
 71
3
 72
31
 73
27
 74
0
 42
0.0000001
 43
0.0000001
 44
0.0000000001
 40
0.0
 40
0.0
 40
0.0
 40
0.0
 40
0.0323316697
 40
0.0646503942
 40
0.0969413451
 40
0.1291961561
 40
0.1935370969
 40
0.2576197215
 40
0.2895543843
 40
0.321403858
 40
0.3531633541
 40
0.3848291384
 40
0.4478532341
 40
0.5104834984
 40
0.5727243452
 40
0.6345924633
 40
0.6654021068
 40
0.6961292285
 40
0.7267783478
 40
0.7573544888
 40
0.8182956353
 40
0.8790127827
 40
0.9093092032
 40
0.9395683553
 40
0.969796772
 40
1.0
 40
1.0
 40
1.0
 40
1.0
 10
10.4025186244
 20
9.3331072814
 30
0.0
 10
10.4046960264
 20
9.3307788867
 30
0.0
 10
10.4089376999
 20
9.3260165566
 30
0.0
 10
10.4149437239
 20
9.3185763753
 30
0.0
 10
10.4205779763
 20
9.310859697
 30
0.0
 10
10.4275690005
 20
9.300242455
 30
0.0
 10
10.4353152197
 20
9.2863926649
 30
0.0
 10
10.441686169
 20
9.2718939519
 30
0.0
 10
10.445923573
 20
9.260015674
 30
0.0
 10
10.4486672417
 20
9.2509997988
 30
0.0
 10
10.4509777022
 20
9.2418907025
 30
0.0
 10
10.4534762251
 20
9.2296720464
 30
0.0
 10
10.4555240409
 20
9.2142720039
 30
0.0
 10
10.45627684
 20
9.1957359523
 30
0.0
 10
10.4553608479
 20
9.1773221397
 30
0.0
 10
10.453244783
 20
9.1621727465
 30
0.0
 10
10.4507699808
 20
9.1502562501
 30
0.0
 10
10.4485345821
 20
9.1414429149
 30
0.0
 10
10.4459257026
 20
9.1327569357
 30
0.0
 10
10.4419657381
 20
9.1213776853
 30
0.0
 10
10.4361250522
 20
9.1075293998
 30
0.0
 10
10.4291438643
 20
9.0942512438
 30
0.0
 10
10.4229208432
 20
9.0840374206
 30
0.0
 10
10.4179456005
 20
9.0765929219
 30
0.0
 10
10.4126691247
 20
9.0693705905
 30
0.0
 10
10.408955367
 20
9.0647083989
 30
0.0
 10
10.4070518237
 20
9.0624181933
 30
0.0
  0
SPLINE
  5
383
100
AcDbEntity
  8
0
100
AcDbSpline
 62
7
  6
CONTINUOUS
 70
0
 71
3
 72
29
 73
25
 74
0
 42
0.0000001
 43
0.0000001
 44
0.0000000001
 40
0.0
 40
0.0
 40
0.0
 40
0.0
 40
0.0320432684
 40
0.0637909209
 40
0.0952658972
 40
0.1264944101
 40
0.1575040153
 40
0.1883233859
 40
0.2189819512
 40
0.2495080609
 40
0.2799303616
 40
0.3102755258
 40
0.3708222334
 40
0.431354025
 40
0.4920378101
 40
0.5530213315
 40
0.6144382779
 40
0.6764151239
 40
0.7390806527
 40
0.8025779025
 40
0.8670768907
 40
0.9327921341
 40
0.9661904555
 40
1.0
 40
1.0
 40
1.0
 40
1.0
 10
10.9400102965
 20
8.6608832912
 30
0.0
 10
10.9378496257
 20
8.6617839396
 30
0.0
 10
10.9335961905
 20
8.6636946743
 30
0.0
 10
10.9274102393
 20
8.666890646
 30
0.0
 10
10.9214581009
 20
8.6703875955
 30
0.0
 10
10.9157473291
 20
8.6741691133
 30
0.0
 10
10.9102831598
 20
8.678218846
 30
0.0
 10
10.9050688853
 20
8.6825202609
 30
0.0
 10
10.9001060541
 20
8.6870571098
 30
0.0
 10
10.8953947977
 20
8.6918136833
 30
0.0
 10
10.8909337934
 20
8.6967749174
 30
0.0
 10
10.8853215641
 20
8.7036373141
 30
0.0
 10
10.8789080313
 20
8.7126696114
 30
0.0
 10
10.8721591776
 20
8.7241216501
 30
0.0
 10
10.8663213229
 20
8.736097759
 30
0.0
 10
10.8613522961
 20
8.7485272544
 30
0.0
 10
10.8572081382
 20
8.7613532866
 30
0.0
 10
10.8538448277
 20
8.7745312998
 30
0.0
 10
10.8512179987
 20
8.7880292855
 30
0.0
 10
10.8492821877
 20
8.8018285448
 30
0.0
 10
10.8479885336
 20
8.8159253533
 30
0.0
 10
10.8474023381
 20
8.8278666789
 30
0.0
 10
10.8471860291
 20
8.837575058
 30
0.0
 10
10.8471551397
 20
8.842484954
 30
0.0
 10
10.8471562876
 20
8.8449548547
 30
0.0
  0
SPLINE
  5
384
100
AcDbEntity
  8
0
100
AcDbSpline
 62
7
  6
CONTINUOUS
 70
0
 71
3
 72
31
 73
27
 74
0
 42
0.0000001
 43
0.0000001
 44
0.0000000001
 40
0.0
 40
0.0
 40
0.0
 40
0.0
 40
0.0845018864
 40
0.1673015137
 40
0.2480803514
 40
0.3265309791
 40
0.4023585407
 40
0.4752830689
 40
0.5450416236
 40
0.6113908386
 40
0.6432179316
 40
0.6741119642
 40
0.7040492763
 40
0.7330084091
 40
0.7609696608
 40
0.7879158976
 40
0.8138321693
 40
0.8387065946
 40
0.8625300827
 40
0.8852973281
 40
0.9070067049
 40
0.9276614334
 40
0.9472697474
 40
0.9658463297
 40
0.9834128909
 40
1.0
 40
1.0
 40
1.0
 40
1.0
 10
12.0876674879
 20
11.3950541563
 30
0.0
 10
12.0947885053
 20
11.3945603121
 30
0.0
 10
12.1088787859
 20
11.3934575863
 30
0.0
 10
12.1297382794
 20
11.391435556
 30
0.0
 10
12.1500471024
 20
11.389068824
 30
0.0
 10
12.1697199202
 20
11.3863674568
 30
0.0
 10
12.1886742215
 20
11.3833429333
 30
0.0
 10
12.2068305907
 20
11.3800081345
 30
0.0
 10
12.2241128506
 20
11.3763772207
 30
0.0
 10
12.2379111041
 20
11.3730735089
 30
0.0
 10
12.248451771
 20
11.3702846697
 30
0.0
 10
12.2559848144
 20
11.3681578713
 30
0.0
 10
12.2632474348
 20
11.3659690937
 30
0.0
 10
12.2702320428
 20
11.363720682
 30
0.0
 10
12.2769313211
 20
11.3614149459
 30
0.0
 10
12.2833382798
 20
11.3590543774
 30
0.0
 10
12.2894462228
 20
11.3566413903
 30
0.0
 10
12.2952488036
 20
11.3541785834
 30
0.0
 10
12.3007399788
 20
11.3516684628
 30
0.0
 10
12.3059140806
 20
11.3491137108
 30
0.0
 10
12.310765748
 20
11.346516901
 30
0.0
 10
12.3152900273
 20
11.3438807618
 30
0.0
 10
12.3194822512
 20
11.3412079051
 30
0.0
 10
12.3233382419
 20
11.3385010087
 30
0.0
 10
12.3268538776
 20
11.3357628018
 30
0.0
 10
12.329029457
 20
11.3338648959
 30
0.0
 10
12.3300551745
 20
11.3329103505
 30
0.0
  0
SPLINE
  5
385
100
AcDbEntity
  8
0
100
AcDbSpline
 62
7
  6
CONTINUOUS
 70
0
 71
3
 72
38
 73
34
 74
0
 42
0.0000001
 43
0.0000001
 44
0.0000000001
 40
0.0
 40
0.0
 40
0.0
 40
0.0
 40
0.0761046641
 40
0.1533640483
 40
0.2310948216
 40
0.3086067003
 40
0.3852122514
 40
0.4229638358
 40
0.4602362653
 40
0.4969478561
 40
0.5330186181
 40
0.5683704813
 40
0.6029275452
 40
0.6366163848
 40
0.6693663861
 40
0.7011100002
 40
0.7317830596
 40
0.7613251954
 40
0.7896802916
 40
0.8167968902
 40
0.8426287416
 40
0.8671355573
 40
0.8902838957
 40
0.9120481469
 40
0.93241198
 40
0.9420674557
 40
0.9513720099
 40
0.9603271661
 40
0.9689354415
 40
0.977200892
 40
0.9851288747
 40
0.9927259556
 40
1.0
 40
1.0
 40
1.0
 40
1.0
 10
11.4819620728
 20
6.0392454099
 30
0.0
 10
11.4928852427
 20
6.0384878855
 30
0.0
 10
11.5149190396
 20
6.0372601386
 30
0.0
 10
11.5481559042
 20
6.0362672399
 30
0.0
 10
11.5816099322
 20
6.0361134135
 30
0.0
 10
11.6149630002
 20
6.0368001764
 30
0.0
 10
11.6425418107
 20
6.0380734049
 30
0.0
 10
11.6643101873
 20
6.0395132977
 30
0.0
 10
11.6803355451
 20
6.0407916083
 30
0.0
 10
11.6961007755
 20
6.042270389
 30
0.0
 10
11.7115684195
 20
6.0439461146
 30
0.0
 10
11.7267016915
 20
6.0458147651
 30
0.0
 10
11.741464612
 20
6.0478718743
 30
0.0
 10
11.7558220901
 20
6.0501125205
 30
0.0
 10
11.769740017
 20
6.0525313241
 30
0.0
 10
11.7831853399
 20
6.0551224863
 30
0.0
 10
11.7961261389
 20
6.0578798037
 30
0.0
 10
11.8085317192
 20
6.0607966701
 30
0.0
 10
11.8203726964
 20
6.0638660796
 30
0.0
 10
11.8316210584
 20
6.0670806732
 30
0.0
 10
11.8422502463
 20
6.070432762
 30
0.0
 10
11.8522352183
 20
6.0739143319
 30
0.0
 10
11.8615526379
 20
6.0775170826
 30
0.0
 10
11.8701805738
 20
6.0812324487
 30
0.0
 10
11.8768937984
 20
6.0844701693
 30
0.0
 10
11.8818944066
 20
6.0871176409
 30
0.0
 10
11.8853932283
 20
6.0890906086
 30
0.0
 10
11.8887052263
 20
6.0910850314
 30
0.0
 10
11.8918284513
 20
6.093099845
 30
0.0
 10
11.8947611325
 20
6.0951338637
 30
0.0
 10
11.8975015921
 20
6.0971859973
 30
0.0
 10
11.9000480707
 20
6.0992549826
 30
0.0
 10
11.9016496054
 20
6.1006750124
 30
0.0
 10
11.9024157453
 20
6.1013879447
 30
0.0
  0
SPLINE
  5
386
100
AcDbEntity
  8
0
100
AcDbSpline
 62
7
  6
CONTINUOUS
 70
0
 71
3
 72
17
 73
13
 74
0
 42
0.0000001
 43
0.0000001
 44
0.0000000001
 40
0.0
 40
0.0
 40
0.0
 40
0.0
 40
0.1480462993
 40
0.2876827587
 40
0.4195864073
 40
0.482921265
 40
0.5446654422
 40
0.6639005876
 40
0.7785650347
 40
0.8900650858
 40
0.9451345438
 40
1.0
 40
1.0
 40
1.0
 40
1.0
 10
12.3618219421
 20
6.5440685339
 30
0.0
 10
12.3628497984
 20
6.5450613669
 30
0.0
 10
12.3647868765
 20
6.5470547721
 30
0.0
 10
12.3673913749
 20
6.5501613876
 30
0.0
 10
12.3692594989
 20
6.552805006
 30
0.0
 10
12.3705460516
 20
6.5549269241
 30
0.0
 10
12.3716696463
 20
6.5570012163
 30
0.0
 10
12.3728372728
 20
6.5596116375
 30
0.0
 10
12.3738528178
 20
6.5627947793
 30
0.0
 10
12.37436386
 20
6.5654686146
 30
0.0
 10
12.3745660957
 20
6.5675976098
 30
0.0
 10
12.3745997363
 20
6.5686591253
 30
0.0
 10
12.3745997358
 20
6.5691887293
 30
0.0
  0
SPLINE
  5
387
100
AcDbEntity
  8
0
100
AcDbSpline
 62
7
  6
CONTINUOUS
 70
0
 71
3
 72
15
 73
11
 74
0
 42
0.0000001
 43
0.0000001
 44
0.0000000001
 40
0.0
 40
0.0
 40
0.0
 40
0.0
 40
0.1233171152
 40
0.2468171801
 40
0.3706749982
 40
0.4950495769
 40
0.6200773723
 40
0.7458670578
 40
0.8724927841
 40
1.0
 40
1.0
 40
1.0
 40
1.0
 10
11.4620175256
 20
9.3823216729
 30
0.0
 10
11.4651703567
 20
9.3853670488
 30
0.0
 10
11.4718144144
 20
9.3911273262
 30
0.0
 10
11.4826581119
 20
9.3986544658
 30
0.0
 10
11.4942774911
 20
9.4049997264
 30
0.0
 10
11.5065535925
 20
9.4100979476
 30
0.0
 10
11.5193626122
 20
9.413898451
 30
0.0
 10
11.5325755201
 20
9.4163632518
 30
0.0
 10
11.546057436
 20
9.4174683774
 30
0.0
 10
11.5551071534
 20
9.4172918591
 30
0.0
 10
11.5596286883
 20
9.4169782896
 30
0.0
  0
SPLINE
  5
388
100
AcDbEntity
  8
0
100
AcDbSpline
 62
7
  6
CONTINUOUS
 70
0
 71
3
 72
15
 73
11
 74
0
 42
0.0000001
 43
0.0000001
 44
0.0000000001
 40
0.0
 40
0.0
 40
0.0
 40
0.0
 40
0.1233171152
 40
0.2468171801
 40
0.3706749982
 40
0.4950495769
 40
0.6200773723
 40
0.7458670578
 40
0.8724927841
 40
1.0
 40
1.0
 40
1.0
 40
1.0
 10
9.7117599335
 20
9.5037024491
 30
0.0
 10
9.7149127647
 20
9.5067478251
 30
0.0
 10
9.7215568224
 20
9.5125081025
 30
0.0
 10
9.7324005198
 20
9.5200352421
 30
0.0
 10
9.7440198991
 20
9.5263805027
 30
0.0
 10
9.7562960005
 20
9.5314787239
 30
0.0
 10
9.7691050202
 20
9.5352792273
 30
0.0
 10
9.7823179281
 20
9.5377440281
 30
0.0
 10
9.795799844
 20
9.5388491537
 30
0.0
 10
9.8048495614
 20
9.5386726353
 30
0.0
 10
9.8093710963
 20
9.5383590658
 30
0.0
  0
SPLINE
  5
389
100
AcDbEntity
  8
0
100
AcDbSpline
 62
7
  6
CONTINUOUS
 70
0
 71
3
 72
15
 73
11
 74
0
 42
0.0000001
 43
0.0000001
 44
0.0000000001
 40
0.0
 40
0.0
 40
0.0
 40
0.0
 40
0.1233171152
 40
0.2468171801
 40
0.3706749982
 40
0.4950495769
 40
0.6200773723
 40
0.7458670578
 40
0.8724927841
 40
1.0
 40
1.0
 40
1.0
 40
1.0
 10
9.7117599335
 20
7.4520758025
 30
0.0
 10
9.7149127647
 20
7.4551211784
 30
0.0
 10
9.7215568224
 20
7.4608814559
 30
0.0
 10
9.7324005198
 20
7.4684085954
 30
0.0
 10
9.7440198991
 20
7.4747538561
 30
0.0
 10
9.7562960005
 20
7.4798520772
 30
0.0
 10
9.7691050202
 20
7.4836525806
 30
0.0
 10
9.7823179281
 20
7.4861173815
 30
0.0
 10
9.795799844
 20
7.4872225071
 30
0.0
 10
9.8048495614
 20
7.4870459887
 30
0.0
 10
9.8093710963
 20
7.4867324192
 30
0.0
  0
SPLINE
  5
38A
100
AcDbEntity
  8
0
100
AcDbSpline
 62
7
  6
CONTINUOUS
 70
0
 71
3
 72
15
 73
11
 74
0
 42
0.0000001
 43
0.0000001
 44
0.0000000001
 40
0.0
 40
0.0
 40
0.0
 40
0.0
 40
0.1233171152
 40
0.2468171801
 40
0.3706749982
 40
0.4950495769
 40
0.6200773723
 40
0.7458670578
 40
0.8724927841
 40
1.0
 40
1.0
 40
1.0
 40
1.0
 10
11.4620175256
 20
7.3306950263
 30
0.0
 10
11.4651703567
 20
7.3337404022
 30
0.0
 10
11.4718144144
 20
7.3395006796
 30
0.0
 10
11.4826581119
 20
7.3470278192
 30
0.0
 10
11.4942774911
 20
7.3533730798
 30
0.0
 10
11.5065535925
 20
7.358471301
 30
0.0
 10
11.5193626122
 20
7.3622718044
 30
0.0
 10
11.5325755201
 20
7.3647366052
 30
0.0
 10
11.546057436
 20
7.3658417308
 30
0.0
 10
11.5551071534
 20
7.3656652125
 30
0.0
 10
11.5596286883
 20
7.365351643
 30
0.0
  0
SPLINE
  5
38B
100
AcDbEntity
  8
0
100
AcDbSpline
 62
7
  6
CONTINUOUS
 70
0
 71
3
 72
31
 73
27
 74
0
 42
0.0000001
 43
0.0000001
 44
0.0000000001
 40
0.0
 40
0.0
 40
0.0
 40
0.0
 40
0.0301841157
 40
0.0603929884
 40
0.0906335668
 40
0.1209126011
 40
0.1815984624
 40
0.2425155732
 40
0.2730831516
 40
0.3037260216
 40
0.3344492741
 40
0.3652575182
 40
0.4271296825
 40
0.489384246
 40
0.5520368041
 40
0.6150898878
 40
0.6467721784
 40
0.6785486885
 40
0.710415101
 40
0.7423660372
 40
0.8064755525
 40
0.8708318296
 40
0.9030884914
 40
0.9353759017
 40
0.9676849566
 40
1.0
 40
1.0
 40
1.0
 40
1.0
 10
10.4464263289
 20
9.0866886604
 30
0.0
 10
10.4440061217
 20
9.08480664
 30
0.0
 10
10.4390825541
 20
9.0811441042
 30
0.0
 10
10.4314658024
 20
9.0759691433
 30
0.0
 10
10.4236257464
 20
9.0711201496
 30
0.0
 10
10.4128842857
 20
9.0650985413
 30
0.0
 10
10.3989497236
 20
9.0584315709
 30
0.0
 10
10.3844614924
 20
9.052988066
 30
0.0
 10
10.3725850218
 20
9.0493952172
 30
0.0
 10
10.3635338161
 20
9.0470866813
 30
0.0
 10
10.3543652477
 20
9.0451762772
 30
0.0
 10
10.3419894394
 20
9.0431679608
 30
0.0
 10
10.3262980661
 20
9.0416964052
 30
0.0
 10
10.3073005907
 20
9.0416475876
 30
0.0
 10
10.2882589987
 20
9.0433589182
 30
0.0
 10
10.2725150688
 20
9.0462764177
 30
0.0
 10
10.2600744459
 20
9.049510072
 30
0.0
 10
10.2508268695
 20
9.0523917411
 30
0.0
 10
10.2417029041
 20
9.0557242151
 30
0.0
 10
10.2297238085
 20
9.0607688863
 30
0.0
 10
10.2151846911
 20
9.0681853539
 30
0.0
 10
10.2014180655
 20
9.0770118872
 30
0.0
 10
10.190947865
 20
9.0848800764
 30
0.0
 10
10.1833835688
 20
9.0911763168
 30
0.0
 10
10.1761383994
 20
9.0978453819
 30
0.0
 10
10.1715344304
 20
9.1025285011
 30
0.0
 10
10.1692925436
 20
9.1049258633
 30
0.0
  0
SPLINE
  5
38C
100
AcDbEntity
  8
0
100
AcDbSpline
 62
7
  6
CONTINUOUS
 70
0
 71
3
 72
28
 73
24
 74
0
 42
0.0000001
 43
0.0000001
 44
0.0000000001
 40
0.0
 40
0.0
 40
0.0
 40
0.0
 40
0.0604214348
 40
0.0907133446
 40
0.1210616914
 40
0.1819327302
 40
0.2430740793
 40
0.2737596283
 40
0.304521935
 40
0.366274252
 40
0.4283560402
 40
0.4907740056
 40
0.5535264032
 40
0.6166021466
 40
0.6482615387
 40
0.6799931469
 40
0.7117925947
 40
0.7436549493
 40
0.8075319032
 40
0.871586388
 40
0.903668731
 40
0.9357727248
 40
1.0
 40
1.0
 40
1.0
 40
1.0
 10
10.164813051
 20
9.3756767106
 30
0.0
 10
10.1695095868
 20
9.3779146085
 30
0.0
 10
10.1766870106
 20
9.3810185965
 30
0.0
 10
10.186468984
 20
9.3846245602
 30
0.0
 10
10.1964143468
 20
9.3878801121
 30
0.0
 10
10.209101749
 20
9.3912661921
 30
0.0
 10
10.2220354171
 20
9.3937012872
 30
0.0
 10
10.232504439
 20
9.3950653721
 30
0.0
 10
10.2430700121
 20
9.3960362388
 30
0.0
 10
10.2563875804
 20
9.3964934475
 30
0.0
 10
10.2724254054
 20
9.3958046125
 30
0.0
 10
10.2884470082
 20
9.3938548441
 30
0.0
 10
10.3043480485
 20
9.3906276283
 30
0.0
 10
10.3173942263
 20
9.3868713057
 30
0.0
 10
10.3276586486
 20
9.3832286142
 30
0.0
 10
10.3352670429
 20
9.3801743802
 30
0.0
 10
10.3427600335
 20
9.3768041663
 30
0.0
 10
10.3525837849
 20
9.3718905731
 30
0.0
 10
10.3644985879
 20
9.3649765902
 30
0.0
 10
10.3758126743
 20
9.3570846187
 30
0.0
 10
10.384457374
 20
9.3502101307
 30
0.0
 10
10.3928170012
 20
9.3429699542
 30
0.0
 10
10.3987413874
 20
9.337146481
 30
0.0
 10
10.4025186244
 20
9.3331072814
 30
0.0
  0
SPLINE
  5
38D
100
AcDbEntity
  8
0
100
AcDbSpline
 62
7
  6
CONTINUOUS
 70
0
 71
3
 72
40
 73
36
 74
0
 42
0.0000001
 43
0.0000001
 44
0.0000000001
 40
0.0
 40
0.0
 40
0.0
 40
0.0
 40
0.0299503828
 40
0.059978175
 40
0.0900993204
 40
0.1203278748
 40
0.1354885488
 40
0.1506803595
 40
0.1811572624
 40
0.2117703887
 40
0.2425244577
 40
0.2734216446
 40
0.304461585
 40
0.335641417
 40
0.3669558607
 40
0.3983973291
 40
0.4299560702
 40
0.4616203361
 40
0.4933765774
 40
0.5252096619
 40
0.5571031135
 40
0.5890393727
 40
0.621000074
 40
0.6529663397
 40
0.6849190875
 40
0.7168393483
 40
0.7487085915
 40
0.7805090537
 40
0.8122240617
 40
0.8438383596
 40
0.8753383862
 40
0.9067126357
 40
0.9379516972
 40
0.9690489999
 40
1.0
 40
1.0
 40
1.0
 40
1.0
 10
10.6324010523
 20
8.8736328394
 30
0.0
 10
10.6360961891
 20
8.8758859364
 30
0.0
 10
10.6436614342
 20
8.8801327414
 30
0.0
 10
10.6554505479
 20
8.8856823703
 30
0.0
 10
10.6676414025
 20
8.890396219
 30
0.0
 10
10.6780794311
 20
8.8936081297
 30
0.0
 10
10.686570942
 20
8.8957421688
 30
0.0
 10
10.6951665512
 20
8.8975875332
 30
0.0
 10
10.7060587359
 20
8.8993403219
 30
0.0
 10
10.7192853648
 20
8.9005478634
 30
0.0
 10
10.7326243014
 20
8.9008575191
 30
0.0
 10
10.7460153183
 20
8.9002682427
 30
0.0
 10
10.7593985293
 20
8.8987829001
 30
0.0
 10
10.7727139595
 20
8.8964080933
 30
0.0
 10
10.7859019197
 20
8.8931541842
 30
0.0
 10
10.798903165
 20
8.8890352608
 30
0.0
 10
10.8116591153
 20
8.8840691118
 30
0.0
 10
10.8241120656
 20
8.8782771941
 30
0.0
 10
10.8362054054
 20
8.8716845924
 30
0.0
 10
10.8478838456
 20
8.8643199703
 30
0.0
 10
10.8590936517
 20
8.8562155092
 30
0.0
 10
10.8697828849
 20
8.8474068332
 30
0.0
 10
10.8799016491
 20
8.8379329174
 30
0.0
 10
10.8894023438
 20
8.8278359765
 30
0.0
 10
10.8982399196
 20
8.8171613326
 30
0.0
 10
10.9063721348
 20
8.8059572588
 30
0.0
 10
10.9137598096
 20
8.7942747984
 30
0.0
 10
10.9203670738
 20
8.7821675578
 30
0.0
 10
10.9261616088
 20
8.7696914715
 30
0.0
 10
10.9311148641
 20
8.7569045495
 30
0.0
 10
10.9352022845
 20
8.7438665637
 30
0.0
 10
10.9384034514
 20
8.7306388512
 30
0.0
 10
10.9407023254
 20
8.7172835812
 30
0.0
 10
10.9420872412
 20
8.7038648458
 30
0.0
 10
10.9423972627
 20
8.6948957988
 30
0.0
 10
10.9423972627
 20
8.6904233354
 30
0.0
  0
SPLINE
  5
38E
100
AcDbEntity
  8
0
100
AcDbSpline
 62
7
  6
CONTINUOUS
 70
0
 71
3
 72
40
 73
36
 74
0
 42
0.0000001
 43
0.0000001
 44
0.0000000001
 40
0.0
 40
0.0
 40
0.0
 40
0.0
 40
0.029970057
 40
0.0600246656
 40
0.0901780769
 40
0.1204426314
 40
0.135622057
 40
0.1508329279
 40
0.1813483462
 40
0.2119989884
 40
0.2427882809
 40
0.2737173013
 40
0.304784799
 40
0.3359872462
 40
0.3673189159
 40
0.3987719846
 40
0.4303366594
 40
0.4620013257
 40
0.4937527177
 40
0.5255761088
 40
0.5574555226
 40
0.5893739636
 40
0.6213136673
 40
0.6532563685
 40
0.685183586
 40
0.717076922
 40
0.7489183729
 40
0.7806906469
 40
0.8123774827
 40
0.8439639705
 40
0.8754368398
 40
0.9067847946
 40
0.9379986363
 40
0.9690718179
 40
1.0
 40
1.0
 40
1.0
 40
1.0
 10
11.2031263442
 20
8.4588301534
 30
0.0
 10
11.2071599773
 20
8.4610690379
 30
0.0
 10
11.215399428
 20
8.4652700293
 30
0.0
 10
11.2281855532
 20
8.4707014445
 30
0.0
 10
11.2413596909
 20
8.475250678
 30
0.0
 10
11.2526030218
 20
8.4782887824
 30
0.0
 10
11.2617301503
 20
8.4802630271
 30
0.0
 10
11.2709567678
 20
8.481934749
 30
0.0
 10
11.2826257435
 20
8.4834454272
 30
0.0
 10
11.2967633148
 20
8.4843251371
 30
0.0
 10
11.3109919587
 20
8.4842711037
 30
0.0
 10
11.3252505148
 20
8.4832839571
 30
0.0
 10
11.3394782695
 20
8.4813680334
 30
0.0
 10
11.3536144716
 20
8.4785312323
 30
0.0
 10
11.3675986686
 20
8.4747850418
 30
0.0
 10
11.381370826
 20
8.4701445228
 30
0.0
 10
11.3948715142
 20
8.4646283083
 30
0.0
 10
11.4080420885
 20
8.4582585995
 30
0.0
 10
11.4208248859
 20
8.4510611593
 30
0.0
 10
11.4331634345
 20
8.4430653013
 30
0.0
 10
11.4450026776
 20
8.4343038686
 30
0.0
 10
11.4562892134
 20
8.4248131992
 30
0.0
 10
11.4669715496
 20
8.414633075
 30
0.0
 10
11.4770003709
 20
8.4038066491
 30
0.0
 10
11.4863288187
 20
8.3923803481
 30
0.0
 10
11.4949127781
 20
8.3804037454
 30
0.0
 10
11.5027111708
 20
8.3679294032
 30
0.0
 10
11.5096862451
 20
8.3550126806
 30
0.0
 10
11.515803864
 20
8.3417115044
 30
0.0
 10
11.5210337733
 20
8.3280861128
 30
0.0
 10
11.52534987
 20
8.3141987282
 30
0.0
 10
11.5287304043
 20
8.3001133378
 30
0.0
 10
11.5311582357
 20
8.2858949235
 30
0.0
 10
11.5326209076
 20
8.2716105534
 30
0.0
 10
11.5329483257
 20
8.2620634829
 30
0.0
 10
11.5329483257
 20
8.2573026691
 30
0.0
  0
SPLINE
  5
38F
100
AcDbEntity
  8
0
100
AcDbSpline
 62
7
  6
CONTINUOUS
 70
0
 71
3
 72
18
 73
14
 74
0
 42
0.0000001
 43
0.0000001
 44
0.0000000001
 40
0.0
 40
0.0
 40
0.0
 40
0.0
 40
0.0548627003
 40
0.1099292984
 40
0.1654013502
 40
0.22147558
 40
0.3361333207
 40
0.4553633897
 40
0.5171049197
 40
0.5804365965
 40
0.7123310206
 40
0.851957275
 40
1.0
 40
1.0
 40
1.0
 40
1.0
 10
11.8085992823
 20
11.2508953302
 30
0.0
 10
11.8085992853
 20
11.2501326934
 30
0.0
 10
11.8085508917
 20
11.2486041451
 30
0.0
 10
11.8083332905
 20
11.2463138197
 30
0.0
 10
11.8079706356
 20
11.2440247678
 30
0.0
 10
11.8072891624
 20
11.2409533734
 30
0.0
 10
11.8060614764
 20
11.2371038499
 30
0.0
 10
11.8043800083
 20
11.2333452106
 30
0.0
 10
11.8027620464
 20
11.2303581134
 30
0.0
 10
11.800909412
 20
11.2273025591
 30
0.0
 10
11.7982193395
 20
11.2234957705
 30
0.0
 10
11.7944688852
 20
11.2190221899
 30
0.0
 10
11.7916794365
 20
11.2161516743
 30
0.0
 10
11.790199271
 20
11.2147219442
 30
0.0
  0
SPLINE
  5
390
100
AcDbEntity
  8
0
100
AcDbSpline
 62
7
  6
CONTINUOUS
 70
0
 71
3
 72
31
 73
27
 74
0
 42
0.0000001
 43
0.0000001
 44
0.0000000001
 40
0.0
 40
0.0
 40
0.0
 40
0.0
 40
0.0165871091
 40
0.0341536703
 40
0.0527302526
 40
0.0723385666
 40
0.0929932951
 40
0.1147026719
 40
0.1374699173
 40
0.1612934054
 40
0.1861678307
 40
0.2120841024
 40
0.2390303392
 40
0.2669915909
 40
0.2959507237
 40
0.3258880358
 40
0.3567820684
 40
0.3886091614
 40
0.4549583764
 40
0.5247169311
 40
0.5976414593
 40
0.6734690209
 40
0.7519196486
 40
0.8326984863
 40
0.9154981136
 40
1.0
 40
1.0
 40
1.0
 40
1.0
 10
9.6699448255
 20
6.2102433954
 30
0.0
 10
9.670970543
 20
6.20928885
 30
0.0
 10
9.6731461224
 20
6.2073909441
 30
0.0
 10
9.6766617581
 20
6.2046527372
 30
0.0
 10
9.6805177488
 20
6.2019458408
 30
0.0
 10
9.6847099727
 20
6.1992729841
 30
0.0
 10
9.689234252
 20
6.1966368449
 30
0.0
 10
9.6940859194
 20
6.1940400351
 30
0.0
 10
9.6992600212
 20
6.1914852832
 30
0.0
 10
9.7047511964
 20
6.1889751626
 30
0.0
 10
9.7105537772
 20
6.1865123556
 30
0.0
 10
9.7166617202
 20
6.1840993685
 30
0.0
 10
9.7230686789
 20
6.1817388
 30
0.0
 10
9.7297679572
 20
6.179433064
 30
0.0
 10
9.7367525652
 20
6.1771846523
 30
0.0
 10
9.7440151856
 20
6.1749958746
 30
0.0
 10
9.751548229
 20
6.1728690763
 30
0.0
 10
9.7620888959
 20
6.170080237
 30
0.0
 10
9.7758871494
 20
6.1667765252
 30
0.0
 10
9.7931694093
 20
6.1631456114
 30
0.0
 10
9.8113257785
 20
6.1598108126
 30
0.0
 10
9.8302800798
 20
6.1567862891
 30
0.0
 10
9.8499528976
 20
6.154084922
 30
0.0
 10
9.8702617206
 20
6.1517181899
 30
0.0
 10
9.8911212141
 20
6.1496961596
 30
0.0
 10
9.9052114947
 20
6.1485934339
 30
0.0
 10
9.9123325121
 20
6.1480995896
 30
0.0
  0
SPLINE
  5
391
100
AcDbEntity
  8
0
100
AcDbSpline
 62
7
  6
CONTINUOUS
 70
0
 71
3
 72
17
 73
13
 74
0
 42
0.0000001
 43
0.0000001
 44
0.0000000001
 40
0.0
 40
0.0
 40
0.0
 40
0.0
 40
0.0544313482
 40
0.1090799532
 40
0.2198254431
 40
0.3339327209
 40
0.4528856996
 40
0.514611354
 40
0.5780150295
 40
0.7103287903
 40
0.8507543788
 40
1.0
 40
1.0
 40
1.0
 40
1.0
 10
9.6263661901
 20
6.2640432261
 30
0.0
 10
9.6263661906
 20
6.2634944577
 30
0.0
 10
9.6264023224
 20
6.2623943549
 30
0.0
 10
9.6266195566
 20
6.2601875295
 30
0.0
 10
9.6271688932
 20
6.2574151661
 30
0.0
 10
9.628259901
 20
6.2541168433
 30
0.0
 10
9.6295130581
 20
6.2514149006
 30
0.0
 10
9.6307183979
 20
6.2492685874
 30
0.0
 10
9.6321003062
 20
6.2470704142
 30
0.0
 10
9.6341067019
 20
6.2443331042
 30
0.0
 10
9.6369014458
 20
6.2411200928
 30
0.0
 10
9.6389772783
 20
6.2390619412
 30
0.0
 10
9.6400787781
 20
6.2380368881
 30
0.0
  0
SPLINE
  5
392
100
AcDbEntity
  8
0
100
AcDbSpline
 62
7
  6
CONTINUOUS
 70
0
 71
3
 72
17
 73
13
 74
0
 42
0.0000001
 43
0.0000001
 44
0.0000000001
 40
0.0
 40
0.0
 40
0.0
 40
0.0
 40
0.0548654562
 40
0.1099349142
 40
0.2214349653
 40
0.3360994124
 40
0.4553345578
 40
0.517078735
 40
0.5804135927
 40
0.7123172413
 40
0.8519537007
 40
1.0
 40
1.0
 40
1.0
 40
1.0
 10
9.6254002642
 20
10.9739650167
 30
0.0
 10
9.6254002637
 20
10.9744946206
 30
0.0
 10
9.6254339043
 20
10.9755561361
 30
0.0
 10
9.62563614
 20
10.9776851313
 30
0.0
 10
9.6261471822
 20
10.9803589666
 30
0.0
 10
9.6271627272
 20
10.9835421084
 30
0.0
 10
9.6283303537
 20
10.9861525296
 30
0.0
 10
9.6294539484
 20
10.9882268219
 30
0.0
 10
9.6307405011
 20
10.9903487399
 30
0.0
 10
9.6326086251
 20
10.9929923583
 30
0.0
 10
9.6352131235
 20
10.9960989738
 30
0.0
 10
9.6371502016
 20
10.998092379
 30
0.0
 10
9.6381780579
 20
10.999085212
 30
0.0
  0
SPLINE
  5
393
100
AcDbEntity
  8
0
100
AcDbSpline
 62
7
  6
CONTINUOUS
 70
0
 71
3
 72
38
 73
34
 74
0
 42
0.0000001
 43
0.0000001
 44
0.0000000001
 40
0.0
 40
0.0
 40
0.0
 40
0.0
 40
0.0072740444
 40
0.0148711253
 40
0.022799108
 40
0.0310645585
 40
0.0396728339
 40
0.0486279901
 40
0.0579325443
 40
0.06758802
 40
0.0879518531
 40
0.1097161043
 40
0.1328644427
 40
0.1573712584
 40
0.1832031098
 40
0.2103197084
 40
0.2386748046
 40
0.2682169404
 40
0.2988899998
 40
0.3306336139
 40
0.3633836152
 40
0.3970724548
 40
0.4316295187
 40
0.4669813819
 40
0.5030521439
 40
0.5397637347
 40
0.5770361642
 40
0.6147877486
 40
0.6913932997
 40
0.7689051784
 40
0.8466359517
 40
0.9238953359
 40
1.0
 40
1.0
 40
1.0
 40
1.0
 10
10.0975842547
 20
11.4417658012
 30
0.0
 10
10.0983503946
 20
11.4424787335
 30
0.0
 10
10.0999519293
 20
11.4438987633
 30
0.0
 10
10.1024984079
 20
11.4459677487
 30
0.0
 10
10.1052388675
 20
11.4480198822
 30
0.0
 10
10.1081715487
 20
11.450053901
 30
0.0
 10
10.1112947737
 20
11.4520687146
 30
0.0
 10
10.1146067717
 20
11.4540631374
 30
0.0
 10
10.1181055934
 20
11.456036105
 30
0.0
 10
10.1231062016
 20
11.4586835767
 30
0.0
 10
10.1298194262
 20
11.4619212972
 30
0.0
 10
10.1384473621
 20
11.4656366633
 30
0.0
 10
10.1477647817
 20
11.469239414
 30
0.0
 10
10.1577497537
 20
11.472720984
 30
0.0
 10
10.1683789416
 20
11.4760730727
 30
0.0
 10
10.1796273036
 20
11.4792876663
 30
0.0
 10
10.1914682808
 20
11.4823570759
 30
0.0
 10
10.2038738611
 20
11.4852739422
 30
0.0
 10
10.2168146601
 20
11.4880312596
 30
0.0
 10
10.230259983
 20
11.4906224219
 30
0.0
 10
10.2441779099
 20
11.4930412254
 30
0.0
 10
10.258535388
 20
11.4952818716
 30
0.0
 10
10.2732983085
 20
11.4973389808
 30
0.0
 10
10.2884315805
 20
11.4992076313
 30
0.0
 10
10.3038992245
 20
11.5008833569
 30
0.0
 10
10.3196644549
 20
11.5023621376
 30
0.0
 10
10.3356898127
 20
11.5036404482
 30
0.0
 10
10.3574581893
 20
11.505080341
 30
0.0
 10
10.3850369998
 20
11.5063535695
 30
0.0
 10
10.4183900678
 20
11.5070403324
 30
0.0
 10
10.4518440958
 20
11.506886506
 30
0.0
 10
10.4850809604
 20
11.5058936073
 30
0.0
 10
10.5071147573
 20
11.5046658605
 30
0.0
 10
10.5180379272
 20
11.5039083361
 30
0.0
  0
SPLINE
  5
394
100
AcDbEntity
  8
0
100
AcDbSpline
 62
7
  6
CONTINUOUS
 70
0
 71
3
 72
17
 73
13
 74
0
 42
0.0000001
 43
0.0000001
 44
0.0000000001
 40
0.0
 40
0.0
 40
0.0
 40
0.0
 40
0.1492456212
 40
0.2896712097
 40
0.4219849705
 40
0.485388646
 40
0.5471143004
 40
0.6660672791
 40
0.7801745569
 40
0.8909200468
 40
0.9455686518
 40
1.0
 40
1.0
 40
1.0
 40
1.0
 10
12.3599212219
 20
11.3051168578
 30
0.0
 10
12.3610227217
 20
11.3040918047
 30
0.0
 10
12.3630985542
 20
11.3020336531
 30
0.0
 10
12.3658932981
 20
11.2988206417
 30
0.0
 10
12.3678996938
 20
11.2960833317
 30
0.0
 10
12.3692816021
 20
11.2938851585
 30
0.0
 10
12.3704869419
 20
11.2917388454
 30
0.0
 10
12.371740099
 20
11.2890369026
 30
0.0
 10
12.3728311068
 20
11.2857385798
 30
0.0
 10
12.3733804434
 20
11.2829662164
 30
0.0
 10
12.3735976776
 20
11.280759391
 30
0.0
 10
12.3736338094
 20
11.2796592882
 30
0.0
 10
12.3736338099
 20
11.2791105198
 30
0.0
  0
SPLINE
  5
395
100
AcDbEntity
  8
0
100
AcDbSpline
 62
7
  6
CONTINUOUS
 70
0
 71
3
 72
39
 73
35
 74
0
 42
0.0000001
 43
0.0000001
 44
0.0000000001
 40
0.0
 40
0.0
 40
0.0
 40
0.0
 40
0.0761048505
 40
0.1533644273
 40
0.2310953879
 40
0.3086074378
 40
0.385213133
 40
0.4229647759
 40
0.4602372533
 40
0.4969488802
 40
0.5330196652
 40
0.5683715375
 40
0.6029285954
 40
0.6366174131
 40
0.6693673757
 40
0.7011109337
 40
0.731783919
 40
0.7613259621
 40
0.7896809469
 40
0.8167974154
 40
0.8426291179
 40
0.8671357663
 40
0.8902839198
 40
0.9120479695
 40
0.9224060488
 40
0.9324129352
 40
0.9420682978
 40
0.951372736
 40
0.9603277737
 40
0.9689359288
 40
0.9772012578
 40
0.9851291183
 40
0.992726077
 40
1.0
 40
1.0
 40
1.0
 40
1.0
 10
11.473938689
 20
6.0614391182
 30
0.0
 10
11.4858462968
 20
6.0606133228
 30
0.0
 10
11.5098658645
 20
6.0592749289
 30
0.0
 10
11.5460981628
 20
6.058192556
 30
0.0
 10
11.582567193
 20
6.0580248819
 30
0.0
 10
11.6189261564
 20
6.0587735603
 30
0.0
 10
11.6489904587
 20
6.0601615603
 30
0.0
 10
11.6727206643
 20
6.0617312433
 30
0.0
 10
11.6901902666
 20
6.0631247774
 30
0.0
 10
11.7073762926
 20
6.0647368499
 30
0.0
 10
11.7242379067
 20
6.0665636179
 30
0.0
 10
11.7407350076
 20
6.0686006988
 30
0.0
 10
11.7568283728
 20
6.0708432239
 30
0.0
 10
11.7724797486
 20
6.0732858279
 30
0.0
 10
11.7876519515
 20
6.0759226459
 30
0.0
 10
11.8023089496
 20
6.0787473568
 30
0.0
 10
11.816415946
 20
6.0817531977
 30
0.0
 10
11.8299394797
 20
6.0849329668
 30
0.0
 10
11.842847516
 20
6.0882790269
 30
0.0
 10
11.8551095244
 20
6.0917833556
 30
0.0
 10
11.8666965302
 20
6.0954375698
 30
0.0
 10
11.8775813113
 20
6.099232937
 30
0.0
 10
11.887738164
 20
6.1031603956
 30
0.0
 10
11.8957023344
 20
6.106589825
 30
0.0
 10
11.9016829062
 20
6.1094001417
 30
0.0
 10
11.9058974747
 20
6.1115002201
 30
0.0
 10
11.9099129693
 20
6.1136262684
 30
0.0
 10
11.9137270356
 20
6.1157770367
 30
0.0
 10
11.9173374418
 20
6.1179512186
 30
0.0
 10
11.920742059
 20
6.1201476223
 30
0.0
 10
11.923938958
 20
6.1223649632
 30
0.0
 10
11.9269263092
 20
6.1246020507
 30
0.0
 10
11.929702195
 20
6.1268575083
 30
0.0
 10
11.931448003
 20
6.1284055218
 30
0.0
 10
11.9322831584
 20
6.1291827087
 30
0.0
  0
SPLINE
  5
396
100
AcDbEntity
  8
0
100
AcDbSpline
 62
7
  6
CONTINUOUS
 70
0
 71
3
 72
23
 73
19
 74
0
 42
0.0000001
 43
0.0000001
 44
0.0000000001
 40
0.0
 40
0.0
 40
0.0
 40
0.0
 40
0.0639093759
 40
0.1275503751
 40
0.1909256433
 40
0.2540480797
 40
0.3169309764
 40
0.3795928138
 40
0.4420551152
 40
0.5043426608
 40
0.5664829555
 40
0.6285057856
 40
0.6904427174
 40
0.752326561
 40
0.8141908214
 40
0.8760691427
 40
0.9379947652
 40
1.0
 40
1.0
 40
1.0
 40
1.0
 10
10.5463773092
 20
8.7178875748
 30
0.0
 10
10.5463773092
 20
8.72184982
 30
0.0
 10
10.5466195499
 20
8.7297598763
 30
0.0
 10
10.5477134615
 20
8.7415534916
 30
0.0
 10
10.5495330546
 20
8.7532083039
 30
0.0
 10
10.5520709954
 20
8.7646798732
 30
0.0
 10
10.5553174126
 20
8.7759254946
 30
0.0
 10
10.559259477
 20
8.7869031225
 30
0.0
 10
10.5638817553
 20
8.7975719769
 30
0.0
 10
10.5691661726
 20
8.8078925887
 30
0.0
 10
10.5750921521
 20
8.8178270012
 30
0.0
 10
10.5816367361
 20
8.8273389025
 30
0.0
 10
10.5887747099
 20
8.8363937567
 30
0.0
 10
10.5964787538
 20
8.8449589303
 30
0.0
 10
10.6047195208
 20
8.8530037597
 30
0.0
 10
10.6134660133
 20
8.8604997744
 30
0.0
 10
10.6226848653
 20
8.867420273
 30
0.0
 10
10.6291188815
 20
8.8716315472
 30
0.0
 10
10.6324010523
 20
8.8736328394
 30
0.0
  0
SPLINE
  5
397
100
AcDbEntity
  8
0
100
AcDbSpline
 62
7
  6
CONTINUOUS
 70
0
 71
3
 72
39
 73
35
 74
0
 42
0.0000001
 43
0.0000001
 44
0.0000000001
 40
0.0
 40
0.0
 40
0.0
 40
0.0
 40
0.0958316688
 40
0.1891006705
 40
0.2792405767
 40
0.3229673483
 40
0.3657111495
 40
0.4074093993
 40
0.4480020282
 40
0.4874317158
 40
0.5256439104
 40
0.562587298
 40
0.5982141002
 40
0.6324801996
 40
0.6653458035
 40
0.696775823
 40
0.726740271
 40
0.7552152757
 40
0.7821837636
 40
0.8076364714
 40
0.8315736871
 40
0.8540068174
 40
0.874960774
 40
0.8944773415
 40
0.9126188285
 40
0.9294730659
 40
0.9451592976
 40
0.9598338074
 40
0.9668558258
 40
0.9737028593
 40
0.9804062749
 40
0.9869996857
 40
0.9935186317
 40
1.0
 40
1.0
 40
1.0
 40
1.0
 10
9.9033432024
 20
9.8234921719
 30
0.0
 10
9.8935758989
 20
9.8241695367
 30
0.0
 10
9.8743165415
 20
9.8257209676
 30
0.0
 10
9.8459391153
 20
9.8286824853
 30
0.0
 10
9.8229235649
 20
9.8316692904
 30
0.0
 10
9.8050808706
 20
9.8343579406
 30
0.0
 10
9.7921609936
 20
9.8364923908
 30
0.0
 10
9.7795893279
 20
9.8387615572
 30
0.0
 10
9.7673868553
 20
9.8411616587
 30
0.0
 10
9.7555739509
 20
9.843688627
 30
0.0
 10
9.7441703322
 20
9.8463382368
 30
0.0
 10
9.7331950194
 20
9.8491060308
 30
0.0
 10
9.7226662987
 20
9.8519873312
 30
0.0
 10
9.7126017044
 20
9.8549773236
 30
0.0
 10
9.7030179658
 20
9.8580709748
 30
0.0
 10
9.6939309792
 20
9.8612630743
 30
0.0
 10
9.6853557948
 20
9.8645483128
 30
0.0
 10
9.67730655
 20
9.8679211874
 30
0.0
 10
9.669796454
 20
9.871376088
 30
0.0
 10
9.6628377788
 20
9.8749073722
 30
0.0
 10
9.6564417758
 20
9.8785092794
 30
0.0
 10
9.6506186932
 20
9.8821760918
 30
0.0
 10
9.6453777974
 20
9.8859022197
 30
0.0
 10
9.6407273116
 20
9.8896822089
 30
0.0
 10
9.6366746353
 20
9.8935109033
 30
0.0
 10
9.6332264651
 20
9.8973838586
 30
0.0
 10
9.6303894624
 20
9.9012961133
 30
0.0
 10
9.6285129413
 20
9.9046349829
 30
0.0
 10
9.627343206
 20
9.9073084396
 30
0.0
 10
9.6266349972
 20
9.9092892527
 30
0.0
 10
9.626083617
 20
9.9112739618
 30
0.0
 10
9.6256894848
 20
9.9132617687
 30
0.0
 10
9.6254529062
 20
9.9152515085
 30
0.0
 10
9.6254002649
 20
9.9165802945
 30
0.0
 10
9.6254002695
 20
9.9172424717
 30
0.0
  0
SPLINE
  5
398
100
AcDbEntity
  8
0
100
AcDbSpline
 62
7
  6
CONTINUOUS
 70
0
 71
3
 72
39
 73
35
 74
0
 42
0.0000001
 43
0.0000001
 44
0.0000000001
 40
0.0
 40
0.0
 40
0.0
 40
0.0
 40
0.0071758079
 40
0.0146741357
 40
0.022503624
 40
0.030671441
 40
0.0391835297
 40
0.0480445027
 40
0.0572573755
 40
0.0668240442
 40
0.0767454363
 40
0.0870215068
 40
0.1086328144
 40
0.1316444976
 40
0.1560319006
 40
0.1817621503
 40
0.2087952904
 40
0.2370851496
 40
0.2665801077
 40
0.2972237102
 40
0.3289551658
 40
0.3617097536
 40
0.3954191975
 40
0.4300120549
 40
0.4654140374
 40
0.501548304
 40
0.5383357251
 40
0.5756951818
 40
0.6135438486
 40
0.6903688691
 40
0.7681254643
 40
0.846115686
 40
0.9236386402
 40
1.0
 40
1.0
 40
1.0
 40
1.0
 10
11.9322520313
 20
9.783267725
 30
0.0
 10
11.9314403334
 20
9.782483685
 30
0.0
 10
11.9297400878
 20
9.7809217414
 30
0.0
 10
11.9270283707
 20
9.7786459953
 30
0.0
 10
11.9241019642
 20
9.7763882919
 30
0.0
 10
11.9209627713
 20
9.7741501145
 30
0.0
 10
11.9176126499
 20
9.7719326647
 30
0.0
 10
11.9140535143
 20
9.7697372533
 30
0.0
 10
11.9102874787
 20
9.7675650993
 30
0.0
 10
11.9063167737
 20
9.7654175229
 30
0.0
 10
11.9021437528
 20
9.7632958019
 30
0.0
 10
11.8962132733
 20
9.7604551511
 30
0.0
 10
11.888303125
 20
9.7569880164
 30
0.0
 10
11.8782000424
 20
9.7530171791
 30
0.0
 10
11.8673564512
 20
9.7491786182
 30
0.0
 10
11.8557982585
 20
9.7454815942
 30
0.0
 10
11.8435529205
 20
9.7419350587
 30
0.0
 10
11.8306497078
 20
9.7385476018
 30
0.0
 10
11.8171195087
 20
9.7353274393
 30
0.0
 10
11.8029947629
 20
9.732282387
 30
0.0
 10
11.7883093676
 20
9.7294198405
 30
0.0
 10
11.7730986001
 20
9.7267467496
 30
0.0
 10
11.757399027
 20
9.7242695918
 30
0.0
 10
11.7412484048
 20
9.7219943743
 30
0.0
 10
11.7246855834
 20
9.7199266151
 30
0.0
 10
11.707750412
 20
9.7180713318
 30
0.0
 10
11.6904836591
 20
9.7164330239
 30
0.0
 10
11.6729268558
 20
9.7150156283
 30
0.0
 10
11.6490697556
 20
9.7134171429
 30
0.0
 10
11.6188359832
 20
9.7120000076
 30
0.0
 10
11.5822641623
 20
9.7112273356
 30
0.0
 10
11.5455745501
 20
9.7113820359
 30
0.0
 10
11.5091203037
 20
9.7124625332
 30
0.0
 10
11.4849532032
 20
9.7138071458
 30
0.0
 10
11.4729727631
 20
9.7146379922
 30
0.0
  0
SPLINE
  5
399
100
AcDbEntity
  8
0
100
AcDbSpline
 62
7
  6
CONTINUOUS
 70
0
 71
3
 72
53
 73
49
 74
0
 42
0.0000001
 43
0.0000001
 44
0.0000000001
 40
0.0
 40
0.0
 40
0.0
 40
0.0
 40
0.0527848368
 40
0.1048063877
 40
0.1559447945
 40
0.2060908895
 40
0.2551345126
 40
0.3029700154
 40
0.3494956547
 40
0.3946138133
 40
0.4382317231
 40
0.4802619925
 40
0.5206231304
 40
0.5592401772
 40
0.5960455137
 40
0.6309799343
 40
0.6639937277
 40
0.6950481335
 40
0.7241173308
 40
0.7379047206
 40
0.7511934666
 40
0.7639854289
 40
0.7762837289
 40
0.7880933188
 40
0.799421028
 40
0.8102756762
 40
0.8206687401
 40
0.830614312
 40
0.8401296363
 40
0.8492356466
 40
0.8579570837
 40
0.8663232307
 40
0.8743681403
 40
0.8821308159
 40
0.8896555052
 40
0.8969912663
 40
0.9041915074
 40
0.9113130476
 40
0.918414751
 40
0.9255560501
 40
0.9327952996
 40
0.9401883408
 40
0.94778714
 40
0.9637757048
 40
0.9722567975
 40
0.9811039228
 40
0.9903442134
 40
1.0
 40
1.0
 40
1.0
 40
1.0
 10
9.9113665862
 20
10.9179087849
 30
0.0
 10
9.9059650536
 20
10.9182833825
 30
0.0
 10
9.8952449468
 20
10.9190993304
 30
0.0
 10
9.8793126567
 20
10.9205350095
 30
0.0
 10
9.8636717591
 20
10.9221710389
 30
0.0
 10
9.8483602177
 20
10.924003359
 30
0.0
 10
9.8334146482
 20
10.9260275983
 30
0.0
 10
9.8188710846
 20
10.9282388218
 30
0.0
 10
9.8047644902
 20
10.9306316624
 30
0.0
 10
9.7911287777
 20
10.9332003224
 30
0.0
 10
9.7779967193
 20
10.935938578
 30
0.0
 10
9.7653998396
 20
10.9388397734
 30
0.0
 10
9.7533683474
 20
10.9418968635
 30
0.0
 10
9.7419310665
 20
10.9451024316
 30
0.0
 10
9.7311153395
 20
10.9484487182
 30
0.0
 10
9.7209469626
 20
10.9519276066
 30
0.0
 10
9.7114500121
 20
10.9555307027
 30
0.0
 10
9.7026471318
 20
10.9592493303
 30
0.0
 10
9.6957907501
 20
10.9624918679
 30
0.0
 10
9.6906782246
 20
10.9651445882
 30
0.0
 10
9.6870981131
 20
10.9671223033
 30
0.0
 10
9.6837064317
 20
10.9691221188
 30
0.0
 10
9.6805052099
 20
10.9711429394
 30
0.0
 10
9.6774963326
 20
10.9731835563
 30
0.0
 10
9.6746815567
 20
10.9752427638
 30
0.0
 10
9.672062582
 20
10.9773194443
 30
0.0
 10
9.6696409155
 20
10.9794123683
 30
0.0
 10
9.6674180055
 20
10.9815203984
 30
0.0
 10
9.6653952163
 20
10.9836424156
 30
0.0
 10
9.6635737324
 20
10.9857772296
 30
0.0
 10
9.6619547748
 20
10.9879237775
 30
0.0
 10
9.6605394216
 20
10.9900809156
 30
0.0
 10
9.6593286776
 20
10.9922474873
 30
0.0
 10
9.6583236323
 20
10.9944223582
 30
0.0
 10
9.6575251442
 20
10.9966042123
 30
0.0
 10
9.6569341081
 20
10.9987916824
 30
0.0
 10
9.6565513015
 20
11.0009832319
 30
0.0
 10
9.6563771397
 20
11.0031771626
 30
0.0
 10
9.6564119797
 20
11.0053717015
 30
0.0
 10
9.6566557317
 20
11.0075650359
 30
0.0
 10
9.65710799
 20
11.0097553947
 30
0.0
 10
9.6577683401
 20
11.0119412317
 30
0.0
 10
9.6589444676
 20
11.0148968514
 30
0.0
 10
9.6605323432
 20
11.0177945632
 30
0.0
 10
9.6624717323
 20
11.0206102172
 30
0.0
 10
9.664158535
 20
11.0227532596
 30
0.0
 10
9.6660471911
 20
11.024883833
 30
0.0
 10
9.6674093667
 20
11.0262641922
 30
0.0
 10
9.6681217603
 20
11.0269523116
 30
0.0
  0
SPLINE
  5
39A
100
AcDbEntity
  8
0
100
AcDbSpline
 62
7
  6
CONTINUOUS
 70
0
 71
3
 72
39
 73
35
 74
0
 42
0.0000001
 43
0.0000001
 44
0.0000000001
 40
0.0
 40
0.0
 40
0.0
 40
0.0
 40
0.0958315389
 40
0.189100319
 40
0.2792401463
 40
0.322966852
 40
0.3657106176
 40
0.4074087938
 40
0.4480014133
 40
0.4874310649
 40
0.5256432078
 40
0.562586629
 40
0.5982133843
 40
0.6324794799
 40
0.6653451443
 40
0.6967751132
 40
0.7267396176
 40
0.755214681
 40
0.7821831415
 40
0.8076359589
 40
0.8315732145
 40
0.854006362
 40
0.8749604508
 40
0.8944770435
 40
0.9126185912
 40
0.9294729355
 40
0.9451591913
 40
0.9598337656
 40
0.9668557926
 40
0.9737028587
 40
0.9804062836
 40
0.9869996927
 40
0.9935186416
 40
1.0
 40
1.0
 40
1.0
 40
1.0
 10
9.9033432024
 20
10.8802150885
 30
0.0
 10
9.893575924
 20
10.8808924515
 30
0.0
 10
9.8743166257
 20
10.8824438758
 30
0.0
 10
9.8459392779
 20
10.8854053858
 30
0.0
 10
9.8229237921
 20
10.8883921783
 30
0.0
 10
9.8050811369
 20
10.8910808167
 30
0.0
 10
9.7921612914
 20
10.8932152507
 30
0.0
 10
9.7795896545
 20
10.8954844205
 30
0.0
 10
9.7673872054
 20
10.8978844997
 30
0.0
 10
9.7555743241
 20
10.9004114585
 30
0.0
 10
9.7441707257
 20
10.903061068
 30
0.0
 10
9.733195426
 20
10.9058288308
 30
0.0
 10
9.7226667211
 20
10.9087101324
 30
0.0
 10
9.7126021362
 20
10.9117001142
 30
0.0
 10
9.7030183987
 20
10.9147937315
 30
0.0
 10
9.6939314213
 20
10.9179858423
 30
0.0
 10
9.6853562323
 20
10.9212710548
 30
0.0
 10
9.6773069779
 20
10.9246439035
 30
0.0
 10
9.6697968839
 20
10.928098818
 30
0.0
 10
9.6628381849
 20
10.9316300612
 30
0.0
 10
9.6564421662
 20
10.9352319587
 30
0.0
 10
9.6506190759
 20
10.9388987776
 30
0.0
 10
9.6453781336
 20
10.9426248574
 30
0.0
 10
9.6407276329
 20
10.9464048539
 30
0.0
 10
9.6366749318
 20
10.9502335374
 30
0.0
 10
9.6332266952
 20
10.954106454
 30
0.0
 10
9.6303896896
 20
10.958018722
 30
0.0
 10
9.6285130997
 20
10.9613575595
 30
0.0
 10
9.6273433592
 20
10.9640310217
 30
0.0
 10
9.626635098
 20
10.9660118181
 30
0.0
 10
9.6260836956
 20
10.9679965241
 30
0.0
 10
9.6256895603
 20
10.9699843282
 30
0.0
 10
9.6254529314
 20
10.9719740579
 30
0.0
 10
9.6254002648
 20
10.9733028413
 30
0.0
 10
9.6254002642
 20
10.9739650167
 30
0.0
  0
SPLINE
  5
39B
100
AcDbEntity
  8
0
100
AcDbSpline
 62
7
  6
CONTINUOUS
 70
0
 71
3
 72
15
 73
11
 74
0
 42
0.0000001
 43
0.0000001
 44
0.0000000001
 40
0.0
 40
0.0
 40
0.0
 40
0.0
 40
0.1233171152
 40
0.2468171801
 40
0.3706749982
 40
0.4950495769
 40
0.6200773723
 40
0.7458670578
 40
0.8724927841
 40
1.0
 40
1.0
 40
1.0
 40
1.0
 10
11.657239851
 20
9.180209733
 30
0.0
 10
11.6540870198
 20
9.1771643571
 30
0.0
 10
11.6474429622
 20
9.1714040796
 30
0.0
 10
11.6365992647
 20
9.1638769401
 30
0.0
 10
11.6249798855
 20
9.1575316795
 30
0.0
 10
11.612703784
 20
9.1524334583
 30
0.0
 10
11.5998947643
 20
9.1486329549
 30
0.0
 10
11.5866818564
 20
9.146168154
 30
0.0
 10
11.5731999406
 20
9.1450630285
 30
0.0
 10
11.5641502232
 20
9.1452395468
 30
0.0
 10
11.5596286883
 20
9.1455531163
 30
0.0
  0
SPLINE
  5
39C
100
AcDbEntity
  8
0
100
AcDbSpline
 62
7
  6
CONTINUOUS
 70
0
 71
3
 72
41
 73
37
 74
0
 42
0.0000001
 43
0.0000001
 44
0.0000000001
 40
0.0
 40
0.0
 40
0.0
 40
0.0
 40
0.0311443777
 40
0.0624425595
 40
0.0938872477
 40
0.1254696093
 40
0.1571771289
 40
0.1889951561
 40
0.2209067114
 40
0.2528930218
 40
0.2849338418
 40
0.3170078727
 40
0.349093173
 40
0.3811675842
 40
0.4132091572
 40
0.4451965775
 40
0.4771095803
 40
0.5089293526
 40
0.5406389143
 40
0.5722234721
 40
0.6036707398
 40
0.6349712184
 40
0.6661184287
 40
0.6971090895
 40
0.7279432343
 40
0.7586242609
 40
0.7891589086
 40
0.8195571576
 40
0.8498320512
 40
0.8649308888
 40
0.8800050477
 40
0.9100832517
 40
0.9400926686
 40
0.9550812681
 40
0.9700610312
 40
1.0
 40
1.0
 40
1.0
 40
1.0
 10
9.8093710963
 20
7.215307246
 30
0.0
 10
9.8060571424
 20
7.2155370694
 30
0.0
 10
9.7994272274
 20
7.2162404359
 30
0.0
 10
9.7895627521
 20
7.218012169
 30
0.0
 10
9.7798039107
 20
7.2204939189
 30
0.0
 10
9.7702034691
 20
7.2236722175
 30
0.0
 10
9.7608123839
 20
7.2275301132
 30
0.0
 10
9.7516807646
 20
7.2320469254
 30
0.0
 10
9.742857254
 20
7.2371985356
 30
0.0
 10
9.734388869
 20
7.2429574296
 30
0.0
 10
9.7263207297
 20
7.2492928811
 30
0.0
 10
9.7186958263
 20
7.2561710995
 30
0.0
 10
9.7115547926
 20
7.2635554141
 30
0.0
 10
9.7049356912
 20
7.2714064659
 30
0.0
 10
9.698873813
 20
7.2796824159
 30
0.0
 10
9.6934014903
 20
7.2883391652
 30
0.0
 10
9.6885479265
 20
7.2973305882
 30
0.0
 10
9.6843390397
 20
7.3066087741
 30
0.0
 10
9.6807973253
 20
7.3161242802
 30
0.0
 10
9.6779417369
 20
7.325826392
 30
0.0
 10
9.6757875842
 20
7.3356633898
 30
0.0
 10
9.6743464498
 20
7.345582821
 30
0.0
 10
9.6736261254
 20
7.355531776
 30
0.0
 10
9.6736305655
 20
7.3654571646
 30
0.0
 10
9.6743598665
 20
7.3753060066
 30
0.0
 10
9.6758102431
 20
7.3850256735
 30
0.0
 10
9.6779741092
 20
7.3945643125
 30
0.0
 10
9.6808398621
 20
7.4038705896
 30
0.0
 10
9.6838034963
 20
7.4113988283
 30
0.0
 10
9.6865080124
 20
7.4172531721
 30
0.0
 10
9.6894266292
 20
7.4229802557
 30
0.0
 10
9.69347903
 20
7.4299074241
 30
0.0
 10
9.6980525884
 20
7.4364910915
 30
0.0
 10
9.7020048523
 20
7.4415234483
 30
0.0
 10
9.7061455969
 20
7.4463915885
 30
0.0
 10
9.7094630982
 20
7.4498572482
 30
0.0
 10
9.7117599335
 20
7.4520758025
 30
0.0
  0
SPLINE
  5
39D
100
AcDbEntity
  8
0
100
AcDbSpline
 62
7
  6
CONTINUOUS
 70
0
 71
3
 72
83
 73
79
 74
0
 42
0.0000001
 43
0.0000001
 44
0.0000000001
 40
0.0
 40
0.0
 40
0.0
 40
0.0
 40
0.003980149
 40
0.0081240919
 40
0.0124359835
 40
0.0169193603
 40
0.0215772246
 40
0.0264119606
 40
0.0314252324
 40
0.0366182158
 40
0.0419916195
 40
0.0475457334
 40
0.0532805161
 40
0.0591955185
 40
0.0715625327
 40
0.0846382143
 40
0.0984095328
 40
0.1128601134
 40
0.1279706583
 40
0.1437192718
 40
0.1600817502
 40
0.1770318183
 40
0.1945413264
 40
0.2125804203
 40
0.2311176863
 40
0.2501203005
 40
0.269554164
 40
0.2893840224
 40
0.3095735802
 40
0.3300856048
 40
0.3508820422
 40
0.3719241252
 40
0.4145864312
 40
0.4577527569
 40
0.5010975799
 40
0.5442936399
 40
0.5870151259
 40
0.6080976714
 40
0.6289416876
 40
0.6495082871
 40
0.6697592834
 40
0.6896572915
 40
0.7091658343
 40
0.7282494515
 40
0.7468738239
 40
0.7650058946
 40
0.78261399
 40
0.7996679565
 40
0.8161393115
 40
0.8320014232
 40
0.8472297058
 40
0.8618018332
 40
0.8756980061
 40
0.8889012771
 40
0.9013979681
 40
0.9131781873
 40
0.9187980573
 40
0.924237173
 40
0.9294957148
 40
0.9345742409
 40
0.9394737433
 40
0.9441957547
 40
0.948742307
 40
0.9531161074
 40
0.9573205402
 40
0.9613597705
 40
0.9652388909
 40
0.9689639409
 40
0.9725421207
 40
0.975981843
 40
0.9792928682
 40
0.9824864417
 40
0.9855753029
 40
0.9885737828
 40
0.9914977139
 40
0.9943643205
 40
0.9971920042
 40
1.0
 40
1.0
 40
1.0
 40
1.0
 10
10.7469993168
 20
11.2870681067
 30
0.0
 10
10.7480688107
 20
11.2881011586
 30
0.0
 10
10.7503003822
 20
11.2901599652
 30
0.0
 10
10.7538434439
 20
11.2931670228
 30
0.0
 10
10.7576466943
 20
11.2961525372
 30
0.0
 10
10.7617080453
 20
11.2991148734
 30
0.0
 10
10.7660254858
 20
11.3020526758
 30
0.0
 10
10.7705969292
 20
11.3049644891
 30
0.0
 10
10.7754200846
 20
11.3078489479
 30
0.0
 10
10.7804925562
 20
11.3107045663
 30
0.0
 10
10.7858117975
 20
11.3135299206
 30
0.0
 10
10.7913751336
 20
11.3163236229
 30
0.0
 10
10.7971798047
 20
11.3190842495
 30
0.0
 10
10.8053590273
 20
11.3227740237
 30
0.0
 10
10.8161745099
 20
11.3272829913
 30
0.0
 10
10.8298807115
 20
11.3324629362
 30
0.0
 10
10.8444732501
 20
11.3374788983
 30
0.0
 10
10.8599227563
 20
11.342320697
 30
0.0
 10
10.8761982997
 20
11.346978488
 30
0.0
 10
10.8932671403
 20
11.3514427958
 30
0.0
 10
10.9110949065
 20
11.3557045309
 30
0.0
 10
10.9296456538
 20
11.3597550117
 30
0.0
 10
10.9488819523
 20
11.3635859856
 30
0.0
 10
10.9687649614
 20
11.367189644
 30
0.0
 10
10.9892545092
 20
11.3705586521
 30
0.0
 10
11.0103091813
 20
11.3736861528
 30
0.0
 10
11.0318864121
 20
11.3765657803
 30
0.0
 10
11.0539425715
 20
11.3791916723
 30
0.0
 10
11.0764330556
 20
11.3815584828
 30
0.0
 10
11.0993123597
 20
11.3836613925
 30
0.0
 10
11.1225342353
 20
11.3854961564
 30
0.0
 10
11.1540341796
 20
11.3875893949
 30
0.0
 10
11.1939184144
 20
11.3895037784
 30
0.0
 10
11.2421664395
 20
11.3906777076
 30
0.0
 10
11.2906282792
 20
11.3907288448
 30
0.0
 10
11.3389118925
 20
11.389656741
 30
0.0
 10
11.3788484593
 20
11.3878268743
 30
0.0
 10
11.4104078991
 20
11.3858007202
 30
0.0
 10
11.4336870414
 20
11.3840151441
 30
0.0
 10
11.4566321047
 20
11.3819606984
 30
0.0
 10
11.4791967112
 20
11.3796415366
 30
0.0
 10
11.5013352081
 20
11.3770623846
 30
0.0
 10
11.5230028204
 20
11.3742284872
 30
0.0
 10
11.544155728
 20
11.3711456073
 30
0.0
 10
11.5647511648
 20
11.3678200207
 30
0.0
 10
11.5847475065
 20
11.3642585025
 30
0.0
 10
11.6041043538
 20
11.3604683058
 30
0.0
 10
11.6227826139
 20
11.3564571503
 30
0.0
 10
11.6407445858
 20
11.3522332022
 30
0.0
 10
11.6579540492
 20
11.3478050662
 30
0.0
 10
11.6743763437
 20
11.343181766
 30
0.0
 10
11.6899784514
 20
11.3383727125
 30
0.0
 10
11.7047290402
 20
11.3333876855
 30
0.0
 10
11.7185986544
 20
11.3282367858
 30
0.0
 10
11.7315594276
 20
11.3229304504
 30
0.0
 10
11.7417353794
 20
11.3183182382
 30
0.0
 10
11.749391311
 20
11.3145498497
 30
0.0
 10
11.7547996543
 20
11.3117358151
 30
0.0
 10
11.759962178
 20
11.3088910466
 30
0.0
 10
11.7648763105
 20
11.3060169318
 30
0.0
 10
11.7695395788
 20
11.3031148731
 30
0.0
 10
11.7739496882
 20
11.3001863603
 30
0.0
 10
11.7781044122
 20
11.29723277
 30
0.0
 10
11.782001707
 20
11.2942555807
 30
0.0
 10
11.7856396352
 20
11.2912562213
 30
0.0
 10
11.789016356
 20
11.288236085
 30
0.0
 10
11.7921302244
 20
11.2851966494
 30
0.0
 10
11.7949796072
 20
11.2821392552
 30
0.0
 10
11.7975630681
 20
11.2790653416
 30
0.0
 10
11.799879224
 20
11.2759762848
 30
0.0
 10
11.801926733
 20
11.2728734438
 30
0.0
 10
11.8037044419
 20
11.269758274
 30
0.0
 10
11.8052110983
 20
11.2666321679
 30
0.0
 10
11.8064456708
 20
11.2634966777
 30
0.0
 10
11.8074071428
 20
11.2603534399
 30
0.0
 10
11.808094586
 20
11.2572041181
 30
0.0
 10
11.8085074085
 20
11.2540509457
 30
0.0
 10
11.8085992781
 20
11.251944372
 30
0.0
 10
11.8085992823
 20
11.2508953302
 30
0.0
  0
SPLINE
  5
39E
100
AcDbEntity
  8
0
100
AcDbSpline
 62
7
  6
CONTINUOUS
 70
0
 71
3
 72
41
 73
37
 74
0
 42
0.0000001
 43
0.0000001
 44
0.0000000001
 40
0.0
 40
0.0
 40
0.0
 40
0.0
 40
0.0311443777
 40
0.0624425595
 40
0.0938872477
 40
0.1254696093
 40
0.1571771289
 40
0.1889951561
 40
0.2209067114
 40
0.2528930218
 40
0.2849338418
 40
0.3170078727
 40
0.349093173
 40
0.3811675842
 40
0.4132091572
 40
0.4451965775
 40
0.4771095803
 40
0.5089293526
 40
0.5406389143
 40
0.5722234721
 40
0.6036707398
 40
0.6349712184
 40
0.6661184287
 40
0.6971090895
 40
0.7279432343
 40
0.7586242609
 40
0.7891589086
 40
0.8195571576
 40
0.8498320512
 40
0.8649308888
 40
0.8800050477
 40
0.9100832517
 40
0.9400926686
 40
0.9550812681
 40
0.9700610312
 40
1.0
 40
1.0
 40
1.0
 40
1.0
 10
11.5596286883
 20
7.0939264697
 30
0.0
 10
11.5563147344
 20
7.0941562932
 30
0.0
 10
11.5496848195
 20
7.0948596596
 30
0.0
 10
11.5398203441
 20
7.0966313927
 30
0.0
 10
11.5300615027
 20
7.0991131427
 30
0.0
 10
11.5204610611
 20
7.1022914412
 30
0.0
 10
11.5110699759
 20
7.1061493369
 30
0.0
 10
11.5019383566
 20
7.1106661492
 30
0.0
 10
11.493114846
 20
7.1158177593
 30
0.0
 10
11.484646461
 20
7.1215766533
 30
0.0
 10
11.4765783217
 20
7.1279121048
 30
0.0
 10
11.4689534183
 20
7.1347903232
 30
0.0
 10
11.4618123846
 20
7.1421746379
 30
0.0
 10
11.4551932833
 20
7.1500256897
 30
0.0
 10
11.449131405
 20
7.1583016396
 30
0.0
 10
11.4436590823
 20
7.166958389
 30
0.0
 10
11.4388055185
 20
7.1759498119
 30
0.0
 10
11.4345966317
 20
7.1852279978
 30
0.0
 10
11.4310549173
 20
7.1947435039
 30
0.0
 10
11.4281993289
 20
7.2044456157
 30
0.0
 10
11.4260451762
 20
7.2142826136
 30
0.0
 10
11.4246040418
 20
7.2242020447
 30
0.0
 10
11.4238837174
 20
7.2341509997
 30
0.0
 10
11.4238881575
 20
7.2440763883
 30
0.0
 10
11.4246174585
 20
7.2539252304
 30
0.0
 10
11.4260678351
 20
7.2636448973
 30
0.0
 10
11.4282317012
 20
7.2731835362
 30
0.0
 10
11.4310974541
 20
7.2824898134
 30
0.0
 10
11.4340610883
 20
7.2900180521
 30
0.0
 10
11.4367656044
 20
7.2958723958
 30
0.0
 10
11.4396842212
 20
7.3015994795
 30
0.0
 10
11.443736622
 20
7.3085266479
 30
0.0
 10
11.4483101804
 20
7.3151103153
 30
0.0
 10
11.4522624443
 20
7.3201426721
 30
0.0
 10
11.4564031889
 20
7.3250108122
 30
0.0
 10
11.4597206902
 20
7.328476472
 30
0.0
 10
11.4620175256
 20
7.3306950263
 30
0.0
  0
SPLINE
  5
39F
100
AcDbEntity
  8
0
100
AcDbSpline
 62
7
  6
CONTINUOUS
 70
0
 71
3
 72
24
 73
20
 74
0
 42
0.0000001
 43
0.0000001
 44
0.0000000001
 40
0.0
 40
0.0
 40
0.0
 40
0.0
 40
0.0639211478
 40
0.1275610965
 40
0.1909251548
 40
0.2540265568
 40
0.316881123
 40
0.3795097272
 40
0.4419368155
 40
0.5041903386
 40
0.5663011027
 40
0.628302224
 40
0.6902284958
 40
0.7211791128
 40
0.7521245064
 40
0.814008949
 40
0.8759265373
 40
0.9379123478
 40
1.0
 40
1.0
 40
1.0
 40
1.0
 10
11.1033461658
 20
8.2870957035
 30
0.0
 10
11.1033461658
 20
8.2915361939
 30
0.0
 10
11.103629708
 20
8.3004003409
 30
0.0
 10
11.1049103611
 20
8.3136105286
 30
0.0
 10
11.1070398883
 20
8.3266536704
 30
0.0
 10
11.1100087698
 20
8.3394756734
 30
0.0
 10
11.1138039821
 20
8.3520245961
 30
0.0
 10
11.1184087781
 20
8.3642495886
 30
0.0
 10
11.1238030247
 20
8.3761015593
 30
0.0
 10
11.1299632302
 20
8.3875332624
 30
0.0
 10
11.1368628729
 20
8.3984996532
 30
0.0
 10
11.1444721743
 20
8.408957634
 30
0.0
 10
11.151379983
 20
8.4172178576
 30
0.0
 10
11.1572254228
 20
8.4235301051
 30
0.0
 10
11.1632778036
 20
8.4296401318
 30
0.0
 10
11.171224949
 20
8.4368923303
 30
0.0
 10
11.1813270935
 20
8.4449400929
 30
0.0
 10
11.1919544798
 20
8.4523044384
 30
0.0
 10
11.1993551958
 20
8.4567369622
 30
0.0
 10
11.2031263442
 20
8.4588301534
 30
0.0
  0
SPLINE
  5
3A0
100
AcDbEntity
  8
0
100
AcDbSpline
 62
7
  6
CONTINUOUS
 70
0
 71
3
 72
15
 73
11
 74
0
 42
0.0000001
 43
0.0000001
 44
0.0000000001
 40
0.0
 40
0.0
 40
0.0
 40
0.0
 40
0.1233171152
 40
0.2468171801
 40
0.3706749982
 40
0.4950495769
 40
0.6200773723
 40
0.7458670578
 40
0.8724927841
 40
1.0
 40
1.0
 40
1.0
 40
1.0
 10
9.906982259
 20
9.3015905093
 30
0.0
 10
9.9038294278
 20
9.2985451333
 30
0.0
 10
9.8971853701
 20
9.2927848559
 30
0.0
 10
9.8863416727
 20
9.2852577163
 30
0.0
 10
9.8747222934
 20
9.2789124557
 30
0.0
 10
9.862446192
 20
9.2738142345
 30
0.0
 10
9.8496371723
 20
9.2700137311
 30
0.0
 10
9.8364242644
 20
9.2675489303
 30
0.0
 10
9.8229423486
 20
9.2664438047
 30
0.0
 10
9.8138926312
 20
9.2666203231
 30
0.0
 10
9.8093710963
 20
9.2669338926
 30
0.0
  0
SPLINE
  5
3A1
100
AcDbEntity
  8
0
100
AcDbSpline
 62
7
  6
CONTINUOUS
 70
0
 71
3
 72
34
 73
30
 74
0
 42
0.0000001
 43
0.0000001
 44
0.0000000001
 40
0.0
 40
0.0
 40
0.0
 40
0.0
 40
0.0324863023
 40
0.0649541013
 40
0.097386296
 40
0.1297702484
 40
0.1620921035
 40
0.1943400046
 40
0.2265032342
 40
0.2585726603
 40
0.2905407626
 40
0.3224016374
 40
0.3541509816
 40
0.3857860779
 40
0.4173057857
 40
0.448710366
 40
0.4800013339
 40
0.5111813747
 40
0.5422543335
 40
0.5732249618
 40
0.60409876
 40
0.6348819875
 40
0.6655815729
 40
0.6962048762
 40
0.7572357187
 40
0.8180598001
 40
0.8787470538
 40
0.9393695035
 40
1.0
 40
1.0
 40
1.0
 40
1.0
 10
10.4752627259
 20
9.3896769724
 30
0.0
 10
10.4777946544
 20
9.386969454
 30
0.0
 10
10.4827054655
 20
9.3814118577
 30
0.0
 10
10.4895860314
 20
9.372678589
 30
0.0
 10
10.4959574401
 20
9.363581048
 30
0.0
 10
10.5017989267
 20
9.354154255
 30
0.0
 10
10.5070932601
 20
9.3444336141
 30
0.0
 10
10.5118263858
 20
9.3344556469
 30
0.0
 10
10.5159874929
 20
9.3242570918
 30
0.0
 10
10.5195689543
 20
9.3138746881
 30
0.0
 10
10.5225661334
 20
9.3033447552
 30
0.0
 10
10.5249771881
 20
9.2927029079
 30
0.0
 10
10.5268028375
 20
9.2819838047
 30
0.0
 10
10.5280461308
 20
9.271220946
 30
0.0
 10
10.5287122171
 20
9.2604465252
 30
0.0
 10
10.5288080199
 20
9.2496913292
 30
0.0
 10
10.528341993
 20
9.2389847001
 30
0.0
 10
10.5273238938
 20
9.2283545121
 30
0.0
 10
10.5257646133
 20
9.2178271769
 30
0.0
 10
10.5236759087
 20
9.2074277075
 30
0.0
 10
10.5210702166
 20
9.1971797603
 30
0.0
 10
10.5179606232
 20
9.1871058187
 30
0.0
 10
10.5143604585
 20
9.1772268117
 30
0.0
 10
10.5089320438
 20
9.164358781
 30
0.0
 10
10.5009871642
 20
9.1488452326
 30
0.0
 10
10.4897078209
 20
9.1312959028
 30
0.0
 10
10.4768072909
 20
9.1149594016
 30
0.0
 10
10.4624070075
 20
9.0999622969
 30
0.0
 10
10.4518877723
 20
9.0909356306
 30
0.0
 10
10.4464263289
 20
9.0866886604
 30
0.0
  0
SPLINE
  5
3A2
100
AcDbEntity
  8
0
100
AcDbSpline
 62
7
  6
CONTINUOUS
 70
0
 71
3
 72
39
 73
35
 74
0
 42
0.0000001
 43
0.0000001
 44
0.0000000001
 40
0.0
 40
0.0
 40
0.0
 40
0.0
 40
0.007175745
 40
0.0146740737
 40
0.0225036116
 40
0.030671472
 40
0.0391835578
 40
0.0480444976
 40
0.0572573741
 40
0.0668240337
 40
0.0767454382
 40
0.0870215229
 40
0.1086328224
 40
0.1316444885
 40
0.1560318876
 40
0.1817621643
 40
0.2087953062
 40
0.2370851424
 40
0.2665800902
 40
0.2972237176
 40
0.3289551842
 40
0.3617097517
 40
0.3954191818
 40
0.4300120556
 40
0.4654140508
 40
0.5015483063
 40
0.5383357156
 40
0.5756951801
 40
0.6135438541
 40
0.6903688654
 40
0.7681254679
 40
0.8461157008
 40
0.9236385661
 40
1.0
 40
1.0
 40
1.0
 40
1.0
 10
11.9023083289
 20
10.8720109468
 30
0.0
 10
11.9015637379
 20
10.8712917271
 30
0.0
 10
11.9000040509
 20
10.8698589118
 30
0.0
 10
11.8975165023
 20
10.8677712972
 30
0.0
 10
11.894832007
 20
10.865700215
 30
0.0
 10
11.8919523085
 20
10.863647055
 30
0.0
 10
11.8888791296
 20
10.8616129139
 30
0.0
 10
11.8856142216
 20
10.8595989893
 30
0.0
 10
11.8821595105
 20
10.8576064132
 30
0.0
 10
11.8785170551
 20
10.8556363591
 30
0.0
 10
11.8746890002
 20
10.8536900353
 30
0.0
 10
11.8692487691
 20
10.8510842151
 30
0.0
 10
11.8619925284
 20
10.8479036965
 30
0.0
 10
11.8527246403
 20
10.8442611107
 30
0.0
 10
11.8427774526
 20
10.840739868
 30
0.0
 10
11.8321747304
 20
10.8373484739
 30
0.0
 10
11.820941673
 20
10.8340951182
 30
0.0
 10
11.8091051321
 20
10.8309876856
 30
0.0
 10
11.7966934317
 20
10.828033719
 30
0.0
 10
11.783736326
 20
10.825240399
 30
0.0
 10
11.7702649205
 20
10.8226144933
 30
0.0
 10
11.7563115809
 20
10.8201623718
 30
0.0
 10
11.7419098426
 20
10.8178899868
 30
0.0
 10
11.7270943354
 20
10.8158028598
 30
0.0
 10
11.711900704
 20
10.8139060411
 30
0.0
 10
11.6963655088
 20
10.8122041239
 30
0.0
 10
11.6805261436
 20
10.8107012426
 30
0.0
 10
11.6644207019
 20
10.8094010221
 30
0.0
 10
11.6425357874
 20
10.8079346859
 30
0.0
 10
11.61480134
 20
10.8066346874
 30
0.0
 10
11.581252788
 20
10.8059259008
 30
0.0
 10
11.5475961941
 20
10.8060678062
 30
0.0
 10
11.5141554993
 20
10.8070589842
 30
0.0
 10
11.4919862146
 20
10.8082924414
 30
0.0
 10
11.4809961469
 20
10.8090546052
 30
0.0
  0
SPLINE
  5
3A3
100
AcDbEntity
  8
0
100
AcDbSpline
 62
7
  6
CONTINUOUS
 70
0
 71
3
 72
39
 73
35
 74
0
 42
0.0000001
 43
0.0000001
 44
0.0000000001
 40
0.0
 40
0.0
 40
0.0
 40
0.0
 40
0.007175745
 40
0.0146740737
 40
0.0225036116
 40
0.030671472
 40
0.0391835578
 40
0.0480444976
 40
0.0572573741
 40
0.0668240337
 40
0.0767454382
 40
0.0870215229
 40
0.1086328224
 40
0.1316444885
 40
0.1560318876
 40
0.1817621643
 40
0.2087953062
 40
0.2370851424
 40
0.2665800902
 40
0.2972237176
 40
0.3289551842
 40
0.3617097517
 40
0.3954191818
 40
0.4300120556
 40
0.4654140508
 40
0.5015483063
 40
0.5383357156
 40
0.5756951801
 40
0.6135438541
 40
0.6903688654
 40
0.7681254679
 40
0.8461157008
 40
0.9236385661
 40
1.0
 40
1.0
 40
1.0
 40
1.0
 10
11.9322520313
 20
10.8399906416
 30
0.0
 10
11.9314403405
 20
10.8392066085
 30
0.0
 10
11.9297401004
 20
10.8376446732
 30
0.0
 10
11.9270283832
 20
10.8353689306
 30
0.0
 10
11.9241019711
 20
10.8331112101
 30
0.0
 10
11.9209627649
 20
10.830873027
 30
0.0
 10
11.9176126425
 20
10.8286555767
 30
0.0
 10
11.9140535131
 20
10.8264601646
 30
0.0
 10
11.9102874763
 20
10.8242880251
 30
0.0
 10
11.9063167765
 20
10.8221404369
 30
0.0
 10
11.9021437515
 20
10.8200187177
 30
0.0
 10
11.8962132669
 20
10.8171780707
 30
0.0
 10
11.8883031208
 20
10.8137109356
 30
0.0
 10
11.8782000451
 20
10.8097400935
 30
0.0
 10
11.8673564539
 20
10.8059015295
 30
0.0
 10
11.8557982539
 20
10.8022045156
 30
0.0
 10
11.8435529152
 20
10.7986579796
 30
0.0
 10
11.8306497092
 20
10.7952705167
 30
0.0
 10
11.8171195125
 20
10.7920503496
 30
0.0
 10
11.8029947607
 20
10.789005306
 30
0.0
 10
11.7883093622
 20
10.7861427636
 30
0.0
 10
11.7730985996
 20
10.7834696659
 30
0.0
 10
11.7573990302
 20
10.7809925021
 30
0.0
 10
11.7412484046
 20
10.778717291
 30
0.0
 10
11.7246855798
 20
10.776649538
 30
0.0
 10
11.7077504105
 20
10.7747942503
 30
0.0
 10
11.6904836607
 20
10.773155935
 30
0.0
 10
11.6729268565
 20
10.7717385435
 30
0.0
 10
11.649069755
 20
10.7701400665
 30
0.0
 10
11.6188359824
 20
10.768722917
 30
0.0
 10
11.5822641597
 20
10.7679502572
 30
0.0
 10
11.5455745588
 20
10.7681049505
 30
0.0
 10
11.5091203129
 20
10.7691854498
 30
0.0
 10
11.4849532148
 20
10.7705300616
 30
0.0
 10
11.4729727631
 20
10.7713609087
 30
0.0
  0
SPLINE
  5
3A4
100
AcDbEntity
  8
0
100
AcDbSpline
 62
7
  6
CONTINUOUS
 70
0
 71
3
 72
15
 73
11
 74
0
 42
0.0000001
 43
0.0000001
 44
0.0000000001
 40
0.0
 40
0.0
 40
0.0
 40
0.0
 40
0.1233171152
 40
0.2468171801
 40
0.3706749982
 40
0.4950495769
 40
0.6200773723
 40
0.7458670578
 40
0.8724927841
 40
1.0
 40
1.0
 40
1.0
 40
1.0
 10
9.906982259
 20
7.2499638626
 30
0.0
 10
9.9038294278
 20
7.2469184867
 30
0.0
 10
9.8971853701
 20
7.2411582093
 30
0.0
 10
9.8863416727
 20
7.2336310697
 30
0.0
 10
9.8747222934
 20
7.2272858091
 30
0.0
 10
9.862446192
 20
7.2221875879
 30
0.0
 10
9.8496371723
 20
7.2183870845
 30
0.0
 10
9.8364242644
 20
7.2159222837
 30
0.0
 10
9.8229423486
 20
7.2148171581
 30
0.0
 10
9.8138926312
 20
7.2149936764
 30
0.0
 10
9.8093710963
 20
7.215307246
 30
0.0
  0
SPLINE
  5
3A5
100
AcDbEntity
  8
0
100
AcDbSpline
 62
7
  6
CONTINUOUS
 70
0
 71
3
 72
15
 73
11
 74
0
 42
0.0000001
 43
0.0000001
 44
0.0000000001
 40
0.0
 40
0.0
 40
0.0
 40
0.0
 40
0.1233171152
 40
0.2468171801
 40
0.3706749982
 40
0.4950495769
 40
0.6200773723
 40
0.7458670578
 40
0.8724927841
 40
1.0
 40
1.0
 40
1.0
 40
1.0
 10
11.657239851
 20
7.1285830864
 30
0.0
 10
11.6540870198
 20
7.1255377105
 30
0.0
 10
11.6474429622
 20
7.119777433
 30
0.0
 10
11.6365992647
 20
7.1122502935
 30
0.0
 10
11.6249798855
 20
7.1059050328
 30
0.0
 10
11.612703784
 20
7.1008068117
 30
0.0
 10
11.5998947643
 20
7.0970063083
 30
0.0
 10
11.5866818564
 20
7.0945415074
 30
0.0
 10
11.5731999406
 20
7.0934363818
 30
0.0
 10
11.5641502232
 20
7.0936129002
 30
0.0
 10
11.5596286883
 20
7.0939264697
 30
0.0
  0
SPLINE
  5
3A6
100
AcDbEntity
  8
0
100
AcDbSpline
 62
7
  6
CONTINUOUS
 70
0
 71
3
 72
41
 73
37
 74
0
 42
0.0000001
 43
0.0000001
 44
0.0000000001
 40
0.0
 40
0.0
 40
0.0
 40
0.0
 40
0.0311443777
 40
0.0624425595
 40
0.0938872477
 40
0.1254696093
 40
0.1571771289
 40
0.1889951561
 40
0.2209067114
 40
0.2528930218
 40
0.2849338418
 40
0.3170078727
 40
0.349093173
 40
0.3811675842
 40
0.4132091572
 40
0.4451965775
 40
0.4771095803
 40
0.5089293526
 40
0.5406389143
 40
0.5722234721
 40
0.6036707398
 40
0.6349712184
 40
0.6661184287
 40
0.6971090895
 40
0.7279432343
 40
0.7586242609
 40
0.7891589086
 40
0.8195571576
 40
0.8498320512
 40
0.8649308888
 40
0.8800050477
 40
0.9100832517
 40
0.9400926686
 40
0.9550812681
 40
0.9700610312
 40
1.0
 40
1.0
 40
1.0
 40
1.0
 10
11.5596286883
 20
9.1455531163
 30
0.0
 10
11.5563147344
 20
9.1457829398
 30
0.0
 10
11.5496848195
 20
9.1464863062
 30
0.0
 10
11.5398203441
 20
9.1482580394
 30
0.0
 10
11.5300615027
 20
9.1507397893
 30
0.0
 10
11.5204610611
 20
9.1539180879
 30
0.0
 10
11.5110699759
 20
9.1577759836
 30
0.0
 10
11.5019383566
 20
9.1622927958
 30
0.0
 10
11.493114846
 20
9.167444406
 30
0.0
 10
11.484646461
 20
9.1732033
 30
0.0
 10
11.4765783217
 20
9.1795387514
 30
0.0
 10
11.4689534183
 20
9.1864169699
 30
0.0
 10
11.4618123846
 20
9.1938012845
 30
0.0
 10
11.4551932833
 20
9.2016523363
 30
0.0
 10
11.449131405
 20
9.2099282862
 30
0.0
 10
11.4436590823
 20
9.2185850356
 30
0.0
 10
11.4388055185
 20
9.2275764585
 30
0.0
 10
11.4345966317
 20
9.2368546445
 30
0.0
 10
11.4310549173
 20
9.2463701505
 30
0.0
 10
11.4281993289
 20
9.2560722623
 30
0.0
 10
11.4260451762
 20
9.2659092602
 30
0.0
 10
11.4246040418
 20
9.2758286913
 30
0.0
 10
11.4238837174
 20
9.2857776463
 30
0.0
 10
11.4238881575
 20
9.295703035
 30
0.0
 10
11.4246174585
 20
9.305551877
 30
0.0
 10
11.4260678351
 20
9.3152715439
 30
0.0
 10
11.4282317012
 20
9.3248101828
 30
0.0
 10
11.4310974541
 20
9.33411646
 30
0.0
 10
11.4340610883
 20
9.3416446987
 30
0.0
 10
11.4367656044
 20
9.3474990424
 30
0.0
 10
11.4396842212
 20
9.3532261261
 30
0.0
 10
11.443736622
 20
9.3601532945
 30
0.0
 10
11.4483101804
 20
9.3667369619
 30
0.0
 10
11.4522624443
 20
9.3717693187
 30
0.0
 10
11.4564031889
 20
9.3766374588
 30
0.0
 10
11.4597206902
 20
9.3801031186
 30
0.0
 10
11.4620175256
 20
9.3823216729
 30
0.0
  0
SPLINE
  5
3A7
100
AcDbEntity
  8
0
100
AcDbSpline
 62
7
  6
CONTINUOUS
 70
0
 71
3
 72
31
 73
27
 74
0
 42
0.0000001
 43
0.0000001
 44
0.0000000001
 40
0.0
 40
0.0
 40
0.0
 40
0.0
 40
0.0301841158
 40
0.0603929886
 40
0.090633567
 40
0.1209126014
 40
0.1815984627
 40
0.2425155737
 40
0.2730831521
 40
0.3037260221
 40
0.3344492746
 40
0.3652575187
 40
0.427129683
 40
0.4893842465
 40
0.5520368044
 40
0.6150898881
 40
0.6467721786
 40
0.6785486887
 40
0.710415101
 40
0.7423660372
 40
0.8064755525
 40
0.8708318295
 40
0.9030884912
 40
0.9353759016
 40
0.9676849565
 40
1.0
 40
1.0
 40
1.0
 40
1.0
 10
10.1981289567
 20
9.4079141592
 30
0.0
 10
10.2005491637
 20
9.4097961795
 30
0.0
 10
10.2054727309
 20
9.4134587151
 30
0.0
 10
10.213089482
 20
9.4186336756
 30
0.0
 10
10.2209295374
 20
9.4234826691
 30
0.0
 10
10.2316709973
 20
9.429504277
 30
0.0
 10
10.2456055583
 20
9.4361712471
 30
0.0
 10
10.2600937883
 20
9.441614752
 30
0.0
 10
10.2719702579
 20
9.4452076008
 30
0.0
 10
10.2810214628
 20
9.4475161368
 30
0.0
 10
10.2901900306
 20
9.4494265411
 30
0.0
 10
10.3025658378
 20
9.4514348578
 30
0.0
 10
10.3182572099
 20
9.452906414
 30
0.0
 10
10.3372546839
 20
9.4529552325
 30
0.0
 10
10.3562962744
 20
9.4512439031
 30
0.0
 10
10.3720402033
 20
9.4483264049
 30
0.0
 10
10.3844808255
 20
9.4450927516
 30
0.0
 10
10.3937284015
 20
9.4422110835
 30
0.0
 10
10.4028523664
 20
9.4388786104
 30
0.0
 10
10.4148314615
 20
9.4338339406
 30
0.0
 10
10.4293705785
 20
9.4264174749
 30
0.0
 10
10.4431372038
 20
9.4175909436
 30
0.0
 10
10.4536074044
 20
9.4097227559
 30
0.0
 10
10.4611717007
 20
9.4034265169
 30
0.0
 10
10.4684168703
 20
9.396757453
 30
0.0
 10
10.4730208392
 20
9.3920743345
 30
0.0
 10
10.4752627259
 20
9.3896769724
 30
0.0
  0
SPLINE
  5
3A8
100
AcDbEntity
  8
0
100
AcDbSpline
 62
7
  6
CONTINUOUS
 70
0
 71
3
 72
40
 73
36
 74
0
 42
0.0000001
 43
0.0000001
 44
0.0000000001
 40
0.0
 40
0.0
 40
0.0
 40
0.0
 40
0.0299503829
 40
0.0599781753
 40
0.0900993209
 40
0.1203278755
 40
0.1354885497
 40
0.1506803605
 40
0.1811572638
 40
0.2117703906
 40
0.2425244601
 40
0.2734216476
 40
0.3044615885
 40
0.3356414212
 40
0.3669558656
 40
0.3983973347
 40
0.4299560765
 40
0.461620343
 40
0.493376585
 40
0.5252096699
 40
0.557103122
 40
0.5890393816
 40
0.6210000831
 40
0.6529663489
 40
0.6849190966
 40
0.7168393571
 40
0.7487085999
 40
0.7805090615
 40
0.8122240687
 40
0.8438383657
 40
0.8753383911
 40
0.9067126393
 40
0.9379516993
 40
0.9690490005
 40
1.0
 40
1.0
 40
1.0
 40
1.0
 10
10.8563735254
 20
8.534677908
 30
0.0
 10
10.8526783871
 20
8.5324248102
 30
0.0
 10
10.8451131391
 20
8.5281780037
 30
0.0
 10
10.8333240207
 20
8.5226283732
 30
0.0
 10
10.8211331611
 20
8.5179145235
 30
0.0
 10
10.8106951282
 20
8.5147026125
 30
0.0
 10
10.8022036138
 20
8.5125685736
 30
0.0
 10
10.793608001
 20
8.5107232096
 30
0.0
 10
10.7827158119
 20
8.5089704217
 30
0.0
 10
10.7694891776
 20
8.507762882
 30
0.0
 10
10.7561502357
 20
8.5074532288
 30
0.0
 10
10.7427592136
 20
8.5080425083
 30
0.0
 10
10.7293759977
 20
8.5095278547
 30
0.0
 10
10.7160605628
 20
8.5119026659
 30
0.0
 10
10.7028725983
 20
8.51515658
 30
0.0
 10
10.6898713491
 20
8.5192755091
 30
0.0
 10
10.6771153953
 20
8.5242416642
 30
0.0
 10
10.6646624422
 20
8.5300335886
 30
0.0
 10
10.6525691
 20
8.5366261974
 30
0.0
 10
10.6408906582
 20
8.5439908271
 30
0.0
 10
10.6296808511
 20
8.5520952961
 30
0.0
 10
10.6189916177
 20
8.5609039802
 30
0.0
 10
10.6088728541
 20
8.5703779044
 30
0.0
 10
10.5993721607
 20
8.5804748537
 30
0.0
 10
10.5905345871
 20
8.5911495062
 30
0.0
 10
10.5824023751
 20
8.6023535886
 30
0.0
 10
10.5750147043
 20
8.6140360574
 30
0.0
 10
10.568407445
 20
8.6261433063
 30
0.0
 10
10.5626129158
 20
8.6386194007
 30
0.0
 10
10.5576596672
 20
8.6514063303
 30
0.0
 10
10.5535722544
 20
8.6644443234
 30
0.0
 10
10.550371096
 20
8.6776720426
 30
0.0
 10
10.5480722311
 20
8.6910273187
 30
0.0
 10
10.5466873264
 20
8.7044460598
 30
0.0
 10
10.5463773092
 20
8.7134151099
 30
0.0
 10
10.5463773092
 20
8.7178875748
 30
0.0
  0
SPLINE
  5
3A9
100
AcDbEntity
  8
0
100
AcDbSpline
 62
7
  6
CONTINUOUS
 70
0
 71
3
 72
40
 73
36
 74
0
 42
0.0000001
 43
0.0000001
 44
0.0000000001
 40
0.0
 40
0.0
 40
0.0
 40
0.0
 40
0.029970057
 40
0.0600246656
 40
0.090178077
 40
0.1204426315
 40
0.1356220571
 40
0.1508329281
 40
0.1813483464
 40
0.2119989886
 40
0.2427882812
 40
0.2737173017
 40
0.3047847995
 40
0.3359872468
 40
0.3673189165
 40
0.3987719854
 40
0.4303366602
 40
0.4620013266
 40
0.4937527187
 40
0.5255761099
 40
0.5574555238
 40
0.5893739648
 40
0.6213136686
 40
0.6532563697
 40
0.6851835872
 40
0.7170769232
 40
0.748918374
 40
0.7806906479
 40
0.8123774836
 40
0.8439639713
 40
0.8754368405
 40
0.9067847951
 40
0.9379986366
 40
0.9690718179
 40
1.0
 40
1.0
 40
1.0
 40
1.0
 10
11.4331681482
 20
8.0855681956
 30
0.0
 10
11.4291345148
 20
8.083329311
 30
0.0
 10
11.4208950637
 20
8.0791283194
 30
0.0
 10
11.4081089379
 20
8.073696904
 30
0.0
 10
11.3949347994
 20
8.0691476703
 30
0.0
 10
11.3836914679
 20
8.066109566
 30
0.0
 10
11.3745643389
 20
8.0641353213
 30
0.0
 10
11.3653377209
 20
8.0624635994
 30
0.0
 10
11.3536687445
 20
8.0609529214
 30
0.0
 10
11.3395311724
 20
8.0600732117
 30
0.0
 10
11.3253025278
 20
8.0601272456
 30
0.0
 10
11.3110439709
 20
8.0611143925
 30
0.0
 10
11.2968162155
 20
8.0630303168
 30
0.0
 10
11.2826800128
 20
8.0658671186
 30
0.0
 10
11.2686958152
 20
8.0696133098
 30
0.0
 10
11.2549236572
 20
8.0742538296
 30
0.0
 10
11.2414229686
 20
8.079770045
 30
0.0
 10
11.2282523938
 20
8.0861397548
 30
0.0
 10
11.2154695961
 20
8.093337196
 30
0.0
 10
11.2031310472
 20
8.101333055
 30
0.0
 10
11.191291804
 20
8.1100944889
 30
0.0
 10
11.1800052682
 20
8.1195851595
 30
0.0
 10
11.1693229321
 20
8.1297652849
 30
0.0
 10
11.1592941109
 20
8.1405917119
 30
0.0
 10
11.1499656635
 20
8.1520180142
 30
0.0
 10
11.1413817045
 20
8.1639946181
 30
0.0
 10
11.1335833124
 20
8.1764689615
 30
0.0
 10
11.1266082388
 20
8.1893856852
 30
0.0
 10
11.1204906207
 20
8.2026868627
 30
0.0
 10
11.1152607124
 20
8.2163122554
 30
0.0
 10
11.1109446168
 20
8.230199641
 30
0.0
 10
11.1075640837
 20
8.2442850323
 30
0.0
 10
11.1051362536
 20
8.2585034475
 30
0.0
 10
11.1036735833
 20
8.2727878185
 30
0.0
 10
11.1033461658
 20
8.2823348894
 30
0.0
 10
11.1033461658
 20
8.2870957035
 30
0.0
  0
SPLINE
  5
3AA
100
AcDbEntity
  8
0
100
AcDbSpline
 62
7
  6
CONTINUOUS
 70
0
 71
3
 72
18
 73
14
 74
0
 42
0.0000001
 43
0.0000001
 44
0.0000000001
 40
0.0
 40
0.0
 40
0.0
 40
0.0
 40
0.0548627003
 40
0.1099292984
 40
0.1654013502
 40
0.22147558
 40
0.3361333207
 40
0.4553633897
 40
0.5171049197
 40
0.5804365965
 40
0.7123310206
 40
0.851957275
 40
1.0
 40
1.0
 40
1.0
 40
1.0
 10
10.7285993055
 20
11.2508947207
 30
0.0
 10
10.7285993025
 20
11.2516573575
 30
0.0
 10
10.7286476961
 20
11.2531859058
 30
0.0
 10
10.7288652973
 20
11.2554762312
 30
0.0
 10
10.7292279523
 20
11.2577652831
 30
0.0
 10
10.7299094254
 20
11.2608366775
 30
0.0
 10
10.7311371114
 20
11.264686201
 30
0.0
 10
10.7328185796
 20
11.2684448403
 30
0.0
 10
10.7344365414
 20
11.2714319375
 30
0.0
 10
10.7362891758
 20
11.2744874918
 30
0.0
 10
10.7389792484
 20
11.2782942804
 30
0.0
 10
10.7427297026
 20
11.2827678611
 30
0.0
 10
10.7455191514
 20
11.2856383766
 30
0.0
 10
10.7469993168
 20
11.2870681067
 30
0.0
  0
SPLINE
  5
3AB
100
AcDbEntity
  8
0
100
AcDbSpline
 62
7
  6
CONTINUOUS
 70
0
 71
3
 72
11
 73
7
 74
0
 42
0.0000001
 43
0.0000001
 44
0.0000000001
 40
0.0
 40
0.0
 40
0.0
 40
0.0
 40
0.2267943571
 40
0.4675040028
 40
0.7246032856
 40
1.0
 40
1.0
 40
1.0
 40
1.0
 10
10.7317200814
 20
11.2359554391
 30
0.0
 10
10.7324849163
 20
11.2377886752
 30
0.0
 10
10.7343123146
 20
11.2414664873
 30
0.0
 10
10.7377769437
 20
11.2467975757
 30
0.0
 10
10.7420279676
 20
11.2520820617
 30
0.0
 10
10.7452644239
 20
11.2554486269
 30
0.0
 10
10.7469993168
 20
11.2571244048
 30
0.0
  0
SPLINE
  5
3AC
100
AcDbEntity
  8
0
100
AcDbSpline
 62
7
  6
CONTINUOUS
 70
0
 71
3
 72
17
 73
13
 74
0
 42
0.0000001
 43
0.0000001
 44
0.0000000001
 40
0.0
 40
0.0
 40
0.0
 40
0.0
 40
0.0549451117
 40
0.110051919
 40
0.1655290668
 40
0.2215806282
 40
0.3361374369
 40
0.4552424818
 40
0.5801808735
 40
0.7120477433
 40
0.8517509089
 40
1.0
 40
1.0
 40
1.0
 40
1.0
 10
10.7416032112
 20
11.2204262706
 30
0.0
 10
10.741591987
 20
11.2211811539
 30
0.0
 10
10.7416180627
 20
11.2226943151
 30
0.0
 10
10.7418029566
 20
11.2249626811
 30
0.0
 10
10.742133648
 20
11.2272299141
 30
0.0
 10
10.7427730638
 20
11.2302716248
 30
0.0
 10
10.7439500778
 20
11.2340851474
 30
0.0
 10
10.7459342496
 20
11.2386056709
 30
0.0
 10
10.7484957629
 20
11.2431007366
 30
0.0
 10
10.7516301165
 20
11.2475658124
 30
0.0
 10
10.7553324874
 20
11.251996927
 30
0.0
 10
10.7580912325
 20
11.2548383733
 30
0.0
 10
10.7595563533
 20
11.2562535714
 30
0.0
  0
SPLINE
  5
3AD
100
AcDbEntity
  8
0
100
AcDbSpline
 62
7
  6
CONTINUOUS
 70
0
 71
3
 72
15
 73
11
 74
0
 42
0.0000001
 43
0.0000001
 44
0.0000000001
 40
0.0
 40
0.0
 40
0.0
 40
0.0
 40
0.1095695356
 40
0.2219574595
 40
0.3380813355
 40
0.4587616882
 40
0.5847201178
 40
0.7165803158
 40
0.8548670813
 40
1.0
 40
1.0
 40
1.0
 40
1.0
 10
10.7526481095
 20
11.2095453441
 30
0.0
 10
10.7528640894
 20
11.2107569454
 30
0.0
 10
10.7534276674
 20
11.2131904788
 30
0.0
 10
10.7546414
 20
11.2167943061
 30
0.0
 10
10.7562302107
 20
11.2203859572
 30
0.0
 10
10.7581919232
 20
11.2239623994
 30
0.0
 10
10.7605245752
 20
11.2275214271
 30
0.0
 10
10.7632260123
 20
11.2310609132
 30
0.0
 10
10.7662938418
 20
11.2345784175
 30
0.0
 10
10.7685260793
 20
11.2368508185
 30
0.0
 10
10.7696985751
 20
11.2379833625
 30
0.0
  0
SPLINE
  5
3AE
100
AcDbEntity
  8
0
100
AcDbSpline
 62
7
  6
CONTINUOUS
 70
0
 71
3
 72
78
 73
74
 74
0
 42
0.0000001
 43
0.0000001
 44
0.0000000001
 40
0.0
 40
0.0
 40
0.0
 40
0.0
 40
0.002990361
 40
0.0060754443
 40
0.0092672267
 40
0.0125763257
 40
0.0160120973
 40
0.019582636
 40
0.0232949402
 40
0.0271549958
 40
0.0311678269
 40
0.0353376831
 40
0.0396680412
 40
0.0441617175
 40
0.0488209817
 40
0.0536475196
 40
0.0586425891
 40
0.0638070224
 40
0.0746447308
 40
0.0861609516
 40
0.0983506539
 40
0.111204918
 40
0.124711517
 40
0.1388553657
 40
0.1536188633
 40
0.1689821477
 40
0.1849233413
 40
0.2014187623
 40
0.2184430876
 40
0.2359694796
 40
0.2539697237
 40
0.272414365
 40
0.2912728155
 40
0.3105134428
 40
0.3301036699
 40
0.3500100849
 40
0.3701985299
 40
0.3906341803
 40
0.432104291
 40
0.4741326227
 40
0.5164255371
 40
0.5586870085
 40
0.6006212906
 40
0.6419356045
 40
0.662270623
 40
0.6823435858
 40
0.7021199379
 40
0.7215658167
 40
0.7406481576
 40
0.7593347838
 40
0.7775944908
 40
0.7953971446
 40
0.8127138056
 40
0.8295168439
 40
0.8457800463
 40
0.8614787502
 40
0.8765900171
 40
0.8910928187
 40
0.9049682227
 40
0.9181996396
 40
0.9307731449
 40
0.9426778796
 40
0.9539064966
 40
0.959266389
 40
0.9644564712
 40
0.9694771012
 40
0.9743290519
 40
0.9790134716
 40
0.9835319984
 40
0.9878868983
 40
0.9920809499
 40
0.9961173855
 40
1.0
 40
1.0
 40
1.0
 40
1.0
 10
11.8055178412
 20
11.2358608554
 30
0.0
 10
11.8050958792
 20
11.2368787623
 30
0.0
 10
11.8041624876
 20
11.2389160189
 30
0.0
 10
11.8025308522
 20
11.2419184746
 30
0.0
 10
11.8006485966
 20
11.244910157
 30
0.0
 10
11.7985169108
 20
11.247889601
 30
0.0
 10
11.7961368247
 20
11.2508555602
 30
0.0
 10
11.7935096032
 20
11.2538068202
 30
0.0
 10
11.7906364953
 20
11.2567421194
 30
0.0
 10
11.7875188421
 20
11.2596601692
 30
0.0
 10
11.7841581463
 20
11.2625597588
 30
0.0
 10
11.7805559235
 20
11.2654395576
 30
0.0
 10
11.7767138587
 20
11.2682983068
 30
0.0
 10
11.7726337348
 20
11.2711347406
 30
0.0
 10
11.7683174044
 20
11.2739475207
 30
0.0
 10
11.7637668961
 20
11.2767354099
 30
0.0
 10
11.7589842916
 20
11.2794971299
 30
0.0
 10
11.7521913701
 20
11.2832024608
 30
0.0
 10
11.7431237607
 20
11.2877488688
 30
0.0
 10
11.7315234856
 20
11.292995637
 30
0.0
 10
11.7190566007
 20
11.2981080938
 30
0.0
 10
11.7057462917
 20
11.3030766821
 30
0.0
 10
11.6916171118
 20
11.3078921091
 30
0.0
 10
11.6766953049
 20
11.3125453156
 30
0.0
 10
11.6610086318
 20
11.3170275246
 30
0.0
 10
11.6445863526
 20
11.3213302866
 30
0.0
 10
11.6274591452
 20
11.3254454867
 30
0.0
 10
11.6096590313
 20
11.3293653552
 30
0.0
 10
11.5912193136
 20
11.3330824829
 30
0.0
 10
11.5721745198
 20
11.3365898548
 30
0.0
 10
11.5525603314
 20
11.3398808585
 30
0.0
 10
11.5324135045
 20
11.3429492833
 30
0.0
 10
11.5117717994
 20
11.3457893333
 30
0.0
 10
11.4906739177
 20
11.3483956494
 30
0.0
 10
11.4691594238
 20
11.3507633264
 30
0.0
 10
11.4472686769
 20
11.3528878933
 30
0.0
 10
11.4250426997
 20
11.3547653658
 30
0.0
 10
11.3948702754
 20
11.3569449319
 30
0.0
 10
11.3566246525
 20
11.3590206068
 30
0.0
 10
11.3102913451
 20
11.3604710326
 30
0.0
 10
11.2636454794
 20
11.3608818162
 30
0.0
 10
11.2170367348
 20
11.3602498854
 30
0.0
 10
11.1708145128
 20
11.3585799898
 30
0.0
 10
11.1327085145
 20
11.3563225048
 30
0.0
 10
11.1026842784
 20
11.3539989372
 30
0.0
 10
11.0805955119
 20
11.3520161255
 30
0.0
 10
11.0588594825
 20
11.349787868
 30
0.0
 10
11.0375169269
 20
11.3473183298
 30
0.0
 10
11.0166078786
 20
11.3446121787
 30
0.0
 10
10.9961715378
 20
11.3416745227
 30
0.0
 10
10.9762462182
 20
11.3385109038
 30
0.0
 10
10.95686927
 20
11.3351272826
 30
0.0
 10
10.9380769997
 20
11.3315300457
 30
0.0
 10
10.9199045988
 20
11.3277259907
 30
0.0
 10
10.9023860848
 20
11.3237222993
 30
0.0
 10
10.885554235
 20
11.3195265227
 30
0.0
 10
10.8694405083
 20
11.3151465787
 30
0.0
 10
10.8540749781
 20
11.3105907421
 30
0.0
 10
10.8394862713
 20
11.3058676035
 30
0.0
 10
10.8257015386
 20
11.3009860515
 30
0.0
 10
10.8127462723
 20
11.29595524
 30
0.0
 10
10.8006445957
 20
11.290784609
 30
0.0
 10
10.7911476267
 20
11.2863003809
 30
0.0
 10
10.7840042268
 20
11.2826421417
 30
0.0
 10
10.7789571964
 20
11.2799121668
 30
0.0
 10
10.7741397108
 20
11.2771545242
 30
0.0
 10
10.7695539842
 20
11.274370516
 30
0.0
 10
10.7652021481
 20
11.2715614322
 30
0.0
 10
10.7610862117
 20
11.2687285045
 30
0.0
 10
10.7572080103
 20
11.2658730333
 30
0.0
 10
10.7535693521
 20
11.2629962247
 30
0.0
 10
10.7501720911
 20
11.2600995817
 30
0.0
 10
10.7480283419
 20
11.2581183668
 30
0.0
 10
10.7469993168
 20
11.2571244048
 30
0.0
  0
SPLINE
  5
3AF
100
AcDbEntity
  8
0
100
AcDbSpline
 62
7
  6
CONTINUOUS
 70
0
 71
3
 72
83
 73
79
 74
0
 42
0.0000001
 43
0.0000001
 44
0.0000000001
 40
0.0
 40
0.0
 40
0.0
 40
0.0
 40
0.00280919
 40
0.0056343149
 40
0.0084948101
 40
0.0114093331
 40
0.0143954331
 40
0.0174692717
 40
0.0206455294
 40
0.0239372984
 40
0.0273561234
 40
0.0309120935
 40
0.0346138709
 40
0.0384689
 40
0.0424834551
 40
0.0466627809
 40
0.051011249
 40
0.0555323611
 40
0.0602289501
 40
0.0651031852
 40
0.0701566497
 40
0.0753904666
 40
0.0808052389
 40
0.0864012071
 40
0.0981352048
 40
0.1105880847
 40
0.1237502219
 40
0.1376081515
 40
0.1521451
 40
0.1673413987
 40
0.1831748041
 40
0.1996207692
 40
0.2166526889
 40
0.2342420961
 40
0.252358831
 40
0.2709711813
 40
0.2900460302
 40
0.309548995
 40
0.3294445469
 40
0.3496961231
 40
0.3702662311
 40
0.3911165668
 40
0.4122081232
 40
0.454955189
 40
0.4981859409
 40
0.5415733302
 40
0.5847887724
 40
0.6275053713
 40
0.6485761
 40
0.6694019398
 40
0.689943947
 40
0.7101638933
 40
0.7300243696
 40
0.7494888956
 40
0.7685220441
 40
0.7870895502
 40
0.805158429
 40
0.8226971036
 40
0.8396755534
 40
0.8560654812
 40
0.8718404728
 40
0.886976192
 40
0.9014506127
 40
0.9152443121
 40
0.9283408127
 40
0.940726994
 40
0.9466509388
 40
0.9523942176
 40
0.9579563799
 40
0.9633373826
 40
0.9685375022
 40
0.9735574522
 40
0.9783984015
 40
0.9830620227
 40
0.9875507131
 40
0.9918674766
 40
0.9960158501
 40
1.0
 40
1.0
 40
1.0
 40
1.0
 10
11.7955941993
 20
11.2203524846
 30
0.0
 10
11.7956115809
 20
11.2213771204
 30
0.0
 10
11.7955567603
 20
11.2234348467
 30
0.0
 10
11.7952051231
 20
11.2265173899
 30
0.0
 10
11.7945845153
 20
11.2295965215
 30
0.0
 10
11.7936955697
 20
11.2326700562
 30
0.0
 10
11.79253905
 20
11.2357362984
 30
0.0
 10
11.7911160235
 20
11.2387936501
 30
0.0
 10
11.7894274605
 20
11.2418405695
 30
0.0
 10
11.7874745399
 20
11.2448756472
 30
0.0
 10
11.7852584652
 20
11.2478975171
 30
0.0
 10
11.7827804431
 20
11.2509047692
 30
0.0
 10
11.7800418828
 20
11.2538961106
 30
0.0
 10
11.777044158
 20
11.2568701244
 30
0.0
 10
11.7737888205
 20
11.2598254541
 30
0.0
 10
11.7702775234
 20
11.2627607362
 30
0.0
 10
11.7665119844
 20
11.2656745162
 30
0.0
 10
11.7624941256
 20
11.268565455
 30
0.0
 10
11.758225921
 20
11.2714320981
 30
0.0
 10
11.7537095086
 20
11.2742730448
 30
0.0
 10
11.7489471578
 20
11.2770869215
 30
0.0
 10
11.7439412286
 20
11.2798722613
 30
0.0
 10
11.7386942497
 20
11.2826277614
 30
0.0
 10
11.7312624352
 20
11.2863185036
 30
0.0
 10
11.7213780091
 20
11.2908361793
 30
0.0
 10
11.7087808009
 20
11.2960341182
 30
0.0
 10
11.6952919077
 20
11.3010807111
 30
0.0
 10
11.680938512
 20
11.305965706
 30
0.0
 10
11.6657493453
 20
11.3106791716
 30
0.0
 10
11.6497549888
 20
11.3152114885
 30
0.0
 10
11.6329876962
 20
11.3195534025
 30
0.0
 10
11.6154813468
 20
11.32369605
 30
0.0
 10
11.5972713489
 20
11.3276309663
 30
0.0
 10
11.5783945607
 20
11.3313501101
 30
0.0
 10
11.5588892143
 20
11.3348458765
 30
0.0
 10
11.5387948396
 20
11.3381111271
 30
0.0
 10
11.5181521785
 20
11.3411391981
 30
0.0
 10
11.4970030925
 20
11.3439239069
 30
0.0
 10
11.4753904769
 20
11.3464595669
 30
0.0
 10
11.4533581727
 20
11.3487409987
 30
0.0
 10
11.4309508947
 20
11.350763545
 30
0.0
 10
11.4082140762
 20
11.3525231104
 30
0.0
 10
11.3773839298
 20
11.3545224934
 30
0.0
 10
11.3383632721
 20
11.3563338783
 30
0.0
 10
11.2911793058
 20
11.3574076253
 30
0.0
 10
11.2438121091
 20
11.3573819678
 30
0.0
 10
11.1966460339
 20
11.3562570928
 30
0.0
 10
11.1576516831
 20
11.3544032916
 30
0.0
 10
11.1268514442
 20
11.3523702437
 30
0.0
 10
11.1041434152
 20
11.3505859879
 30
0.0
 10
11.0817691976
 20
11.3485391137
 30
0.0
 10
11.0597741539
 20
11.3462337684
 30
0.0
 10
11.038202923
 20
11.3436746619
 30
0.0
 10
11.0170992658
 20
11.3408670091
 30
0.0
 10
10.9965059863
 20
11.3378165472
 30
0.0
 10
10.9764648407
 20
11.3345295073
 30
0.0
 10
10.9570164574
 20
11.3310126024
 30
0.0
 10
10.9382002521
 20
11.3272730133
 30
0.0
 10
10.9200543388
 20
11.3233183758
 30
0.0
 10
10.9026154424
 20
11.3191567777
 30
0.0
 10
10.8859188264
 20
11.3147967237
 30
0.0
 10
10.8699982132
 20
11.3102471207
 30
0.0
 10
10.8548857295
 20
11.3055172515
 30
0.0
 10
10.8406117286
 20
11.3006167559
 30
0.0
 10
10.8272050242
 20
11.295555617
 30
0.0
 10
10.8166260882
 20
11.2911496797
 30
0.0
 10
10.8086259888
 20
11.2875440211
 30
0.0
 10
10.8029486614
 20
11.2848462774
 30
0.0
 10
10.7975075351
 20
11.2821161346
 30
0.0
 10
10.7923053137
 20
11.2793549942
 30
0.0
 10
10.7873446293
 20
11.2765642013
 30
0.0
 10
10.7826279724
 20
11.2737451716
 30
0.0
 10
10.7781576974
 20
11.2708993488
 30
0.0
 10
10.7739360488
 20
11.2680280714
 30
0.0
 10
10.7699650679
 20
11.2651327683
 30
0.0
 10
10.7662467352
 20
11.2622147635
 30
0.0
 10
10.7627830982
 20
11.2592756725
 30
0.0
 10
10.7606017213
 20
11.2572633194
 30
0.0
 10
10.7595563533
 20
11.2562535714
 30
0.0
  0
SPLINE
  5
3B0
100
AcDbEntity
  8
0
100
AcDbSpline
 62
7
  6
CONTINUOUS
 70
0
 71
3
 72
79
 73
75
 74
0
 42
0.0000001
 43
0.0000001
 44
0.0000000001
 40
0.0
 40
0.0
 40
0.0
 40
0.0
 40
0.002840086
 40
0.0057370529
 40
0.0087073361
 40
0.0117660373
 40
0.0149268543
 40
0.0182019827
 40
0.0216021935
 40
0.0251368926
 40
0.028814171
 40
0.0326409979
 40
0.0366232459
 40
0.0407658459
 40
0.0450729115
 40
0.0495477463
 40
0.0541930345
 40
0.0590108363
 40
0.0640026637
 40
0.0691695995
 40
0.0800301408
 40
0.0915938085
 40
0.1038559925
 40
0.1168077826
 40
0.1304366315
 40
0.1447268525
 40
0.1596600048
 40
0.1752151874
 40
0.1913693167
 40
0.2080973504
 40
0.2253724703
 40
0.2431662296
 40
0.261448698
 40
0.2801886094
 40
0.2993534813
 40
0.3189097229
 40
0.3388227328
 40
0.3590570178
 40
0.3795762949
 40
0.421320544
 40
0.4637537855
 40
0.5065669439
 40
0.5494473419
 40
0.5920816744
 40
0.6341589509
 40
0.6548932689
 40
0.67537428
 40
0.6955650916
 40
0.7154295294
 40
0.7349322275
 40
0.7540387247
 40
0.772715569
 40
0.790930442
 40
0.8086522681
 40
0.8258513279
 40
0.842499388
 40
0.8585698605
 40
0.8740379778
 40
0.8888809635
 40
0.9030782505
 40
0.9166117489
 40
0.9294661941
 40
0.9416295371
 40
0.9530934402
 40
0.9585619938
 40
0.9638546516
 40
0.9689717278
 40
0.9739139666
 40
0.9786825285
 40
0.9832790704
 40
0.9877059309
 40
0.9919660098
 40
0.9960627018
 40
1.0
 40
1.0
 40
1.0
 40
1.0
 10
11.7845347074
 20
11.20963315
 30
0.0
 10
11.7843552033
 20
11.2106259621
 30
0.0
 10
11.78390839
 20
11.2126171709
 30
0.0
 10
11.7829900271
 20
11.2155740416
 30
0.0
 10
11.7818188613
 20
11.2185239013
 30
0.0
 10
11.7803959123
 20
11.2214650285
 30
0.0
 10
11.7787220658
 20
11.2243960697
 30
0.0
 10
11.7767984524
 20
11.2273157228
 30
0.0
 10
11.7746261599
 20
11.2302227007
 30
0.0
 10
11.7722063393
 20
11.2331157046
 30
0.0
 10
11.7695402996
 20
11.2359935242
 30
0.0
 10
11.7666293198
 20
11.2388548284
 30
0.0
 10
11.7634748636
 20
11.2416983665
 30
0.0
 10
11.7600784657
 20
11.2445228551
 30
0.0
 10
11.7564417342
 20
11.2473269455
 30
0.0
 10
11.7525664613
 20
11.2501093911
 30
0.0
 10
11.7484544828
 20
11.2528688378
 30
0.0
 10
11.7441077902
 20
11.255603977
 30
0.0
 10
11.7395284854
 20
11.2583135639
 30
0.0
 10
11.7330067166
 20
11.2619509926
 30
0.0
 10
11.724275965
 20
11.2664134935
 30
0.0
 10
11.7130770843
 20
11.2715603026
 30
0.0
 10
11.7010098286
 20
11.2765744807
 30
0.0
 10
11.6880975984
 20
11.2814462508
 30
0.0
 10
11.6743652188
 20
11.2861661055
 30
0.0
 10
11.6598392926
 20
11.2907247771
 30
0.0
 10
11.644548015
 20
11.2951132921
 30
0.0
 10
11.6285211487
 20
11.2993230152
 30
0.0
 10
11.6117899357
 20
11.303345654
 30
0.0
 10
11.5943870227
 20
11.307173279
 30
0.0
 10
11.5763463925
 20
11.3107983393
 30
0.0
 10
11.5577033021
 20
11.3142136894
 30
0.0
 10
11.5384942085
 20
11.3174126061
 30
0.0
 10
11.5187566859
 20
11.3203887871
 30
0.0
 10
11.4985293492
 20
11.3231363672
 30
0.0
 10
11.4778517794
 20
11.3256499309
 30
0.0
 10
11.4567644614
 20
11.3279245284
 30
0.0
 10
11.4353086446
 20
11.3299557135
 30
0.0
 10
11.4060993283
 20
11.3323475569
 30
0.0
 10
11.3689769841
 20
11.3346928425
 30
0.0
 10
11.3238960408
 20
11.3364709799
 30
0.0
 10
11.2783824658
 20
11.3372143439
 30
0.0
 10
11.2327923751
 20
11.3369170935
 30
0.0
 10
11.1874824819
 20
11.3355815354
 30
0.0
 10
11.1500723936
 20
11.3336027922
 30
0.0
 10
11.1205577256
 20
11.3315011246
 30
0.0
 10
11.0988192592
 20
11.3296819834
 30
0.0
 10
11.077413301
 20
11.3276159608
 30
0.0
 10
11.0563817231
 20
11.325307103
 30
0.0
 10
11.0357657037
 20
11.3227599638
 30
0.0
 10
11.0156055946
 20
11.3199795555
 30
0.0
 10
10.9959408523
 20
11.3169713467
 30
0.0
 10
10.9768099498
 20
11.3137412672
 30
0.0
 10
10.9582503012
 20
11.3102956852
 30
0.0
 10
10.940298193
 20
11.3066413909
 30
0.0
 10
10.9229887112
 20
11.3027855818
 30
0.0
 10
10.90635566
 20
11.2987358546
 30
0.0
 10
10.8904314859
 20
11.2945001994
 30
0.0
 10
10.8752472177
 20
11.2900869631
 30
0.0
 10
10.8608323949
 20
11.2855048342
 30
0.0
 10
10.847215023
 20
11.2807628149
 30
0.0
 10
10.8344213847
 20
11.2758702074
 30
0.0
 10
10.8224763449
 20
11.270836591
 30
0.0
 10
10.8131062678
 20
11.2664664923
 30
0.0
 10
10.806062383
 20
11.2628989624
 30
0.0
 10
10.8010891766
 20
11.2602363644
 30
0.0
 10
10.7963447342
 20
11.2575459287
 30
0.0
 10
10.7918313402
 20
11.2548289622
 30
0.0
 10
10.7875511762
 20
11.2520867991
 30
0.0
 10
10.7835063117
 20
11.2493206863
 30
0.0
 10
10.7796986309
 20
11.2465319519
 30
0.0
 10
10.7761299756
 20
11.2437218254
 30
0.0
 10
10.7728022429
 20
11.2408918219
 30
0.0
 10
10.7707045833
 20
11.2389550919
 30
0.0
 10
10.7696985751
 20
11.2379833625
 30
0.0
  0
SPLINE
  5
3B1
100
AcDbEntity
  8
0
100
AcDbSpline
 62
7
  6
CONTINUOUS
 70
0
 71
3
 72
39
 73
35
 74
0
 42
0.0000001
 43
0.0000001
 44
0.0000000001
 40
0.0
 40
0.0
 40
0.0
 40
0.0
 40
0.0243162265
 40
0.0498983265
 40
0.0766883682
 40
0.104622415
 40
0.1336312102
 40
0.163640763
 40
0.1945728644
 40
0.2263455535
 40
0.2588735494
 40
0.2920686576
 40
0.325840159
 40
0.3600951863
 40
0.3947390924
 40
0.4296758119
 40
0.4648082191
 40
0.5000384828
 40
0.5352684204
 40
0.5703998503
 40
0.6053349449
 40
0.639976584
 40
0.6742287104
 40
0.7079966874
 40
0.7411876609
 40
0.7737109273
 40
0.80547831
 40
0.8364045487
 40
0.8664077062
 40
0.8954095999
 40
0.9233362688
 40
0.9501184895
 40
0.9756923629
 40
1.0
 40
1.0
 40
1.0
 40
1.0
 10
11.6648512959
 20
11.1560123551
 30
0.0
 10
11.6586489473
 20
11.1579323918
 30
0.0
 10
11.6458574878
 20
11.1616682091
 30
0.0
 10
11.6260461501
 20
11.1668548706
 30
0.0
 10
11.6051685585
 20
11.1717550403
 30
0.0
 10
11.5832870053
 20
11.1763538813
 30
0.0
 10
11.5604665019
 20
11.1806375462
 30
0.0
 10
11.5367750256
 20
11.1845931186
 30
0.0
 10
11.5122831709
 20
11.1882086819
 30
0.0
 10
11.4870639648
 20
11.1914733466
 30
0.0
 10
11.4611926302
 20
11.1943772843
 30
0.0
 10
11.4347463584
 20
11.1969117556
 30
0.0
 10
11.4078040731
 20
11.1990691356
 30
0.0
 10
11.380446191
 20
11.2008429355
 30
0.0
 10
11.3527543791
 20
11.2022278215
 30
0.0
 10
11.3248113084
 20
11.2032196299
 30
0.0
 10
11.2967004047
 20
11.2038153793
 30
0.0
 10
11.2685055984
 20
11.2040132788
 30
0.0
 10
11.2403110716
 20
11.2038127337
 30
0.0
 10
11.212201006
 20
11.2032143467
 30
0.0
 10
11.1842593293
 20
11.2022199162
 30
0.0
 10
11.1565694634
 20
11.2008324318
 30
0.0
 10
11.1292140735
 20
11.1990560649
 30
0.0
 10
11.102274819
 20
11.1968961572
 30
0.0
 10
11.0758321078
 20
11.1943592049
 30
0.0
 10
11.0499648527
 20
11.1914528406
 30
0.0
 10
11.0247502328
 20
11.1881858109
 30
0.0
 10
11.0002634572
 20
11.1845679514
 30
0.0
 10
10.9765775375
 20
11.1806101587
 30
0.0
 10
10.9537630512
 20
11.1763243559
 30
0.0
 10
10.9318879574
 20
11.1717234663
 30
0.0
 10
10.9110172476
 20
11.1668213427
 30
0.0
 10
10.8912131925
 20
11.1616328306
 30
0.0
 10
10.8784267759
 20
11.157895755
 30
0.0
 10
10.8722270177
 20
11.1559751062
 30
0.0
  0
SPLINE
  5
3B2
100
AcDbEntity
  8
0
100
AcDbSpline
 62
7
  6
CONTINUOUS
 70
0
 71
3
 72
33
 73
29
 74
0
 42
0.0000001
 43
0.0000001
 44
0.0000000001
 40
0.0
 40
0.0
 40
0.0
 40
0.0
 40
0.0267359696
 40
0.0543154964
 40
0.0826926931
 40
0.1118194563
 40
0.1416456403
 40
0.1721192242
 40
0.2031865291
 40
0.2347923842
 40
0.2668802669
 40
0.2993924517
 40
0.3654526822
 40
0.4324946813
 40
0.5000294038
 40
0.5675631579
 40
0.6346022641
 40
0.700657702
 40
0.7331667961
 40
0.7652511249
 40
0.7968529788
 40
0.8279158533
 40
0.858384581
 40
0.888205484
 40
0.9173265681
 40
0.9456977118
 40
0.9732708167
 40
1.0
 40
1.0
 40
1.0
 40
1.0
 10
11.5733879956
 20
11.1355869963
 30
0.0
 10
11.5680491163
 20
11.1367706786
 30
0.0
 10
11.5571795734
 20
11.1390711912
 30
0.0
 10
11.5405721106
 20
11.1422798106
 30
0.0
 10
11.5234317835
 20
11.1452954376
 30
0.0
 10
11.5057922116
 20
11.1481121068
 30
0.0
 10
11.487687901
 20
11.1507242624
 30
0.0
 10
11.4691543129
 20
11.1531267656
 30
0.0
 10
11.4502277431
 20
11.1553148856
 30
0.0
 10
11.4309452705
 20
11.157284299
 30
0.0
 10
11.4113446383
 20
11.1590311466
 30
0.0
 10
11.3846969157
 20
11.1610695813
 30
0.0
 10
11.3508757158
 20
11.1630307719
 30
0.0
 10
11.3098585292
 20
11.1644423026
 30
0.0
 10
11.2685182949
 20
11.1649128235
 30
0.0
 10
11.2271786944
 20
11.1644386078
 30
0.0
 10
11.1861634047
 20
11.1630234118
 30
0.0
 10
11.1523445882
 20
11.1610591836
 30
0.0
 10
11.1256993952
 20
11.1590183504
 30
0.0
 10
11.1061011058
 20
11.157269743
 30
0.0
 10
11.086821274
 20
11.1552986001
 30
0.0
 10
11.0678976357
 20
11.1531087877
 30
0.0
 10
11.0493672667
 20
11.1507046275
 30
0.0
 10
11.0312664589
 20
11.1480908464
 30
0.0
 10
11.0136306631
 20
11.1452725965
 30
0.0
 10
10.9964943754
 20
11.1422554372
 30
0.0
 10
10.9798912106
 20
11.1390453381
 30
0.0
 10
10.9690246419
 20
11.1367438178
 30
0.0
 10
10.9636872923
 20
11.135559649
 30
0.0
  0
SPLINE
  5
3B3
100
AcDbEntity
  8
0
100
AcDbSpline
 62
7
  6
CONTINUOUS
 70
0
 71
3
 72
31
 73
27
 74
0
 42
0.0000001
 43
0.0000001
 44
0.0000000001
 40
0.0
 40
0.0
 40
0.0
 40
0.0
 40
0.0165871972
 40
0.034153845
 40
0.052730511
 40
0.0723389048
 40
0.0929937081
 40
0.1147031542
 40
0.1374704627
 40
0.1612940074
 40
0.1861684824
 40
0.2120847967
 40
0.2390310689
 40
0.2669923487
 40
0.2959515022
 40
0.3258888278
 40
0.3567828667
 40
0.3886099588
 40
0.4549591512
 40
0.5247176568
 40
0.5976421114
 40
0.6734695769
 40
0.7519200885
 40
0.8326987929
 40
0.9154982726
 40
1.0
 40
1.0
 40
1.0
 40
1.0
 10
9.6400787781
 20
6.2380368881
 30
0.0
 10
9.6411969414
 20
6.236996328
 30
0.0
 10
9.6435685984
 20
6.234927401
 30
0.0
 10
9.6474010799
 20
6.2319424529
 30
0.0
 10
9.6516045844
 20
6.2289916369
 30
0.0
 10
9.6561746189
 20
6.2260779281
 30
0.0
 10
9.661106629
 20
6.2232042458
 30
0.0
 10
9.6663955268
 20
6.220373437
 30
0.0
 10
9.6720359123
 20
6.217588476
 30
0.0
 10
9.6780219412
 20
6.2148521684
 30
0.0
 10
9.6843474353
 20
6.212167438
 30
0.0
 10
9.6910058064
 20
6.2095370167
 30
0.0
 10
9.6979901361
 20
6.2069637377
 30
0.0
 10
9.7052931251
 20
6.2044502322
 30
0.0
 10
9.7129071536
 20
6.2019992166
 30
0.0
 10
9.7208242449
 20
6.1996132088
 30
0.0
 10
9.7290361257
 20
6.1972947652
 30
0.0
 10
9.7405266566
 20
6.1942546248
 30
0.0
 10
9.7555683232
 20
6.1906532167
 30
0.0
 10
9.7744079472
 20
6.186695122
 30
0.0
 10
9.7942004425
 20
6.1830598251
 30
0.0
 10
9.814862768
 20
6.1797627619
 30
0.0
 10
9.8363083525
 20
6.1768179741
 30
0.0
 10
9.8584472501
 20
6.1742379748
 30
0.0
 10
9.881186437
 20
6.1720337376
 30
0.0
 10
9.8965464218
 20
6.1708316435
 30
0.0
 10
9.9043091283
 20
6.170293298
 30
0.0
  0
SPLINE
  5
3B4
100
AcDbEntity
  8
0
100
AcDbSpline
 62
7
  6
CONTINUOUS
 70
0
 71
3
 72
17
 73
13
 74
0
 42
0.0000001
 43
0.0000001
 44
0.0000000001
 40
0.0
 40
0.0
 40
0.0
 40
0.0
 40
0.0548653882
 40
0.109934811
 40
0.2214348207
 40
0.3360992423
 40
0.4553349631
 40
0.5170793242
 40
0.5804142098
 40
0.7123170268
 40
0.8519526575
 40
1.0
 40
1.0
 40
1.0
 40
1.0
 10
12.3736338046
 20
10.2223872316
 30
0.0
 10
12.3736338009
 20
10.2218576351
 30
0.0
 10
12.373600159
 20
10.2207961341
 30
0.0
 10
12.3733978867
 20
10.2186671707
 30
0.0
 10
12.3728868139
 20
10.2159933794
 30
0.0
 10
12.3718712692
 20
10.2128102765
 30
0.0
 10
12.3707036164
 20
10.2101998994
 30
0.0
 10
12.3695800306
 20
10.2081256283
 30
0.0
 10
12.3682934834
 20
10.2060037507
 30
0.0
 10
12.3664253879
 20
10.203360183
 30
0.0
 10
12.3638209269
 20
10.2002536111
 30
0.0
 10
12.3618838666
 20
10.1982602352
 30
0.0
 10
12.3608560162
 20
10.1972674079
 30
0.0
  0
SPLINE
  5
3B5
100
AcDbEntity
  8
0
100
AcDbSpline
 62
7
  6
CONTINUOUS
 70
0
 71
3
 72
17
 73
13
 74
0
 42
0.0000001
 43
0.0000001
 44
0.0000000001
 40
0.0
 40
0.0
 40
0.0
 40
0.0
 40
0.0548654562
 40
0.1099349142
 40
0.2214349653
 40
0.3360994124
 40
0.4553345578
 40
0.517078735
 40
0.5804135927
 40
0.7123172413
 40
0.8519537007
 40
1.0
 40
1.0
 40
1.0
 40
1.0
 10
12.3736338099
 20
11.2791105198
 30
0.0
 10
12.3736338104
 20
11.2785809159
 30
0.0
 10
12.3736001698
 20
11.2775194004
 30
0.0
 10
12.3733979341
 20
11.2753904052
 30
0.0
 10
12.372886892
 20
11.2727165699
 30
0.0
 10
12.3718713469
 20
11.2695334281
 30
0.0
 10
12.3707037204
 20
11.2669230068
 30
0.0
 10
12.3695801257
 20
11.2648487146
 30
0.0
 10
12.368293573
 20
11.2627267966
 30
0.0
 10
12.366425449
 20
11.2600831781
 30
0.0
 10
12.3638209506
 20
11.2569765626
 30
0.0
 10
12.3618838725
 20
11.2549831574
 30
0.0
 10
12.3608560162
 20
11.2539903245
 30
0.0
  0
SPLINE
  5
3B6
100
AcDbEntity
  8
0
100
AcDbSpline
 62
7
  6
CONTINUOUS
 70
0
 71
3
 72
23
 73
19
 74
0
 42
0.0000001
 43
0.0000001
 44
0.0000000001
 40
0.0
 40
0.0
 40
0.0
 40
0.0
 40
0.0749618611
 40
0.1455678041
 40
0.2121589218
 40
0.2751620139
 40
0.3350968437
 40
0.3925819213
 40
0.4483281136
 40
0.5031224735
 40
0.5577971527
 40
0.6131904492
 40
0.6701060365
 40
0.7292779135
 40
0.7913516063
 40
0.8568774527
 40
0.9263095509
 40
1.0
 40
1.0
 40
1.0
 40
1.0
 10
12.3300551745
 20
11.3329103505
 30
0.0
 10
12.3310484989
 20
11.3319859505
 30
0.0
 10
12.3329223223
 20
11.3301300398
 30
0.0
 10
12.3354507553
 20
11.3272346337
 30
0.0
 10
12.3376067715
 20
11.3243162298
 30
0.0
 10
12.3393873033
 20
11.3213774832
 30
0.0
 10
12.3407892242
 20
11.3184208879
 30
0.0
 10
12.3418095535
 20
11.3154495554
 30
0.0
 10
12.3424452437
 20
11.3124672434
 30
0.0
 10
12.3426942184
 20
11.3094787195
 30
0.0
 10
12.3425553256
 20
11.3064893979
 30
0.0
 10
12.342029286
 20
11.3035047946
 30
0.0
 10
12.3411178586
 20
11.3005299266
 30
0.0
 10
12.3398240177
 20
11.2975688146
 30
0.0
 10
12.338150685
 20
11.2946247301
 30
0.0
 10
12.3361009387
 20
11.2917002207
 30
0.0
 10
12.3336779219
 20
11.2887981042
 30
0.0
 10
12.3318717255
 20
11.2869373502
 30
0.0
 10
12.3309123138
 20
11.2860106297
 30
0.0
  0
SPLINE
  5
3B7
100
AcDbEntity
  8
0
100
AcDbSpline
 62
7
  6
CONTINUOUS
 70
0
 71
3
 72
41
 73
37
 74
0
 42
0.0000001
 43
0.0000001
 44
0.0000000001
 40
0.0
 40
0.0
 40
0.0
 40
0.0
 40
0.0311443777
 40
0.0624425595
 40
0.0938872477
 40
0.1254696093
 40
0.1571771289
 40
0.1889951561
 40
0.2209067114
 40
0.2528930218
 40
0.2849338418
 40
0.3170078727
 40
0.349093173
 40
0.3811675842
 40
0.4132091572
 40
0.4451965775
 40
0.4771095803
 40
0.5089293526
 40
0.5406389143
 40
0.5722234721
 40
0.6036707398
 40
0.6349712184
 40
0.6661184287
 40
0.6971090895
 40
0.7279432343
 40
0.7586242609
 40
0.7891589086
 40
0.8195571576
 40
0.8498320512
 40
0.8649308888
 40
0.8800050477
 40
0.9100832517
 40
0.9400926686
 40
0.9550812681
 40
0.9700610312
 40
1.0
 40
1.0
 40
1.0
 40
1.0
 10
9.8093710963
 20
9.2669338926
 30
0.0
 10
9.8060571424
 20
9.267163716
 30
0.0
 10
9.7994272274
 20
9.2678670825
 30
0.0
 10
9.7895627521
 20
9.2696388156
 30
0.0
 10
9.7798039107
 20
9.2721205656
 30
0.0
 10
9.7702034691
 20
9.2752988641
 30
0.0
 10
9.7608123839
 20
9.2791567598
 30
0.0
 10
9.7516807646
 20
9.2836735721
 30
0.0
 10
9.742857254
 20
9.2888251822
 30
0.0
 10
9.734388869
 20
9.2945840762
 30
0.0
 10
9.7263207297
 20
9.3009195277
 30
0.0
 10
9.7186958263
 20
9.3077977461
 30
0.0
 10
9.7115547926
 20
9.3151820607
 30
0.0
 10
9.7049356912
 20
9.3230331126
 30
0.0
 10
9.698873813
 20
9.3313090625
 30
0.0
 10
9.6934014903
 20
9.3399658118
 30
0.0
 10
9.6885479265
 20
9.3489572348
 30
0.0
 10
9.6843390397
 20
9.3582354207
 30
0.0
 10
9.6807973253
 20
9.3677509268
 30
0.0
 10
9.6779417369
 20
9.3774530386
 30
0.0
 10
9.6757875842
 20
9.3872900364
 30
0.0
 10
9.6743464498
 20
9.3972094676
 30
0.0
 10
9.6736261254
 20
9.4071584226
 30
0.0
 10
9.6736305655
 20
9.4170838112
 30
0.0
 10
9.6743598665
 20
9.4269326533
 30
0.0
 10
9.6758102431
 20
9.4366523201
 30
0.0
 10
9.6779741092
 20
9.4461909591
 30
0.0
 10
9.6808398621
 20
9.4554972363
 30
0.0
 10
9.6838034963
 20
9.4630254749
 30
0.0
 10
9.6865080124
 20
9.4688798187
 30
0.0
 10
9.6894266292
 20
9.4746069023
 30
0.0
 10
9.69347903
 20
9.4815340708
 30
0.0
 10
9.6980525884
 20
9.4881177382
 30
0.0
 10
9.7020048523
 20
9.4931500949
 30
0.0
 10
9.7061455969
 20
9.4980182351
 30
0.0
 10
9.7094630982
 20
9.5014838948
 30
0.0
 10
9.7117599335
 20
9.5037024491
 30
0.0
  0
LINE
  5
3B8
100
AcDbEntity
  8
0
100
AcDbLine
 62
7
  6
CONTINUOUS
 10
10.8471562876
 20
8.8449548547
 11
10.8474430844
 21
8.8642827956
  0
SPLINE
  5
3B9
100
AcDbEntity
  8
0
100
AcDbSpline
 62
4
  6
CONTINUOUS
 70
0
 71
3
 72
289
 73
285
 74
0
 42
0.0000001
 43
0.0000001
 44
0.0000000001
 40
0.0
 40
0.0
 40
0.0
 40
0.0
 40
0.015625
 40
0.0234375
 40
0.03125
 40
0.0390625
 40
0.046875
 40
0.05078125
 40
0.0546875
 40
0.056640625
 40
0.05859375
 40
0.060546875
 40
0.0615234375
 40
0.0620117188
 40
0.0625
 40
0.0629882812
 40
0.0634765625
 40
0.064453125
 40
0.06640625
 40
0.068359375
 40
0.0703125
 40
0.07421875
 40
0.078125
 40
0.0859375
 40
0.09375
 40
0.1015625
 40
0.109375
 40
0.11328125
 40
0.1171875
 40
0.119140625
 40
0.12109375
 40
0.123046875
 40
0.1240234375
 40
0.1245117188
 40
0.125
 40
0.1254882812
 40
0.1259765625
 40
0.126953125
 40
0.12890625
 40
0.130859375
 40
0.1328125
 40
0.13671875
 40
0.140625
 40
0.1484375
 40
0.15625
 40
0.1640625
 40
0.171875
 40
0.17578125
 40
0.1796875
 40
0.181640625
 40
0.18359375
 40
0.185546875
 40
0.1865234375
 40
0.1870117188
 40
0.1875
 40
0.1879882812
 40
0.1884765625
 40
0.189453125
 40
0.19140625
 40
0.193359375
 40
0.1953125
 40
0.19921875
 40
0.203125
 40
0.2109375
 40
0.21875
 40
0.2265625
 40
0.234375
 40
0.23828125
 40
0.2421875
 40
0.24609375
 40
0.248046875
 40
0.2490234375
 40
0.25
 40
0.2509765625
 40
0.251953125
 40
0.25390625
 40
0.2578125
 40
0.26171875
 40
0.265625
 40
0.2734375
 40
0.28125
 40
0.2890625
 40
0.296875
 40
0.30078125
 40
0.3046875
 40
0.30859375
 40
0.310546875
 40
0.3115234375
 40
0.3125
 40
0.3134765625
 40
0.314453125
 40
0.31640625
 40
0.3203125
 40
0.32421875
 40
0.328125
 40
0.3359375
 40
0.34375
 40
0.3515625
 40
0.359375
 40
0.36328125
 40
0.3671875
 40
0.37109375
 40
0.373046875
 40
0.3740234375
 40
0.375
 40
0.3759765625
 40
0.376953125
 40
0.37890625
 40
0.3828125
 40
0.38671875
 40
0.390625
 40
0.3984375
 40
0.40625
 40
0.4140625
 40
0.421875
 40
0.4296875
 40
0.43359375
 40
0.435546875
 40
0.4375
 40
0.439453125
 40
0.44140625
 40
0.4453125
 40
0.453125
 40
0.4609375
 40
0.46875
 40
0.4765625
 40
0.484375
 40
0.48828125
 40
0.4921875
 40
0.49609375
 40
0.498046875
 40
0.4990234375
 40
0.5
 40
0.5009765625
 40
0.501953125
 40
0.50390625
 40
0.5078125
 40
0.51171875
 40
0.515625
 40
0.5234375
 40
0.53125
 40
0.5390625
 40
0.546875
 40
0.55078125
 40
0.5546875
 40
0.55859375
 40
0.560546875
 40
0.5615234375
 40
0.5625
 40
0.5634765625
 40
0.564453125
 40
0.56640625
 40
0.5703125
 40
0.57421875
 40
0.578125
 40
0.5859375
 40
0.59375
 40
0.6015625
 40
0.609375
 40
0.61328125
 40
0.6171875
 40
0.619140625
 40
0.62109375
 40
0.623046875
 40
0.6240234375
 40
0.6245117188
 40
0.625
 40
0.6254882812
 40
0.6259765625
 40
0.626953125
 40
0.62890625
 40
0.630859375
 40
0.6328125
 40
0.63671875
 40
0.640625
 40
0.6484375
 40
0.65625
 40
0.6640625
 40
0.671875
 40
0.67578125
 40
0.6796875
 40
0.681640625
 40
0.68359375
 40
0.685546875
 40
0.6865234375
 40
0.6870117188
 40
0.6875
 40
0.6879882812
 40
0.6884765625
 40
0.689453125
 40
0.69140625
 40
0.693359375
 40
0.6953125
 40
0.69921875
 40
0.703125
 40
0.7109375
 40
0.71875
 40
0.7265625
 40
0.734375
 40
0.73828125
 40
0.7421875
 40
0.744140625
 40
0.74609375
 40
0.748046875
 40
0.7490234375
 40
0.7495117188
 40
0.75
 40
0.7504882812
 40
0.7509765625
 40
0.751953125
 40
0.75390625
 40
0.755859375
 40
0.7578125
 40
0.76171875
 40
0.765625
 40
0.7734375
 40
0.78125
 40
0.7890625
 40
0.796875
 40
0.80078125
 40
0.8046875
 40
0.806640625
 40
0.80859375
 40
0.810546875
 40
0.8115234375
 40
0.8120117188
 40
0.8125
 40
0.8129882812
 40
0.8134765625
 40
0.814453125
 40
0.81640625
 40
0.818359375
 40
0.8203125
 40
0.82421875
 40
0.828125
 40
0.8359375
 40
0.84375
 40
0.8515625
 40
0.85546875
 40
0.859375
 40
0.86328125
 40
0.8671875
 40
0.869140625
 40
0.87109375
 40
0.873046875
 40
0.8740234375
 40
0.8745117188
 40
0.875
 40
0.8754882812
 40
0.8759765625
 40
0.876953125
 40
0.87890625
 40
0.880859375
 40
0.8828125
 40
0.88671875
 40
0.890625
 40
0.89453125
 40
0.8984375
 40
0.90625
 40
0.9140625
 40
0.91796875
 40
0.921875
 40
0.92578125
 40
0.9296875
 40
0.931640625
 40
0.93359375
 40
0.935546875
 40
0.9365234375
 40
0.9370117188
 40
0.9375
 40
0.9379882812
 40
0.9384765625
 40
0.939453125
 40
0.94140625
 40
0.943359375
 40
0.9453125
 40
0.94921875
 40
0.953125
 40
0.95703125
 40
0.9609375
 40
0.96875
 40
0.9765625
 40
0.984375
 40
1.0
 40
1.0
 40
1.0
 40
1.0
 10
12.2154307429
 20
8.3130863401
 30
0.0
 10
12.2145912087
 20
8.3119682006
 30
0.0
 10
12.2133319075
 20
8.3102909917
 30
0.0
 10
12.2116528392
 20
8.3080547122
 30
0.0
 10
12.2103935378
 20
8.3063775049
 30
0.0
 10
12.209134237
 20
8.3047002888
 30
0.0
 10
12.208084818
 20
8.3033026362
 30
0.0
 10
12.2072452864
 20
8.3021844524
 30
0.0
 10
12.2067205712
 20
8.3014857281
 30
0.0
 10
12.2063008171
 20
8.3009264268
 30
0.0
 10
12.2059859522
 20
8.3005078321
 30
0.0
 10
12.2057237216
 20
8.3001561994
 30
0.0
 10
12.2055398524
 20
8.299915559
 30
0.0
 10
12.2054352648
 20
8.2997694586
 30
0.0
 10
12.2053554707
 20
8.2996840861
 30
0.0
 10
12.2052808501
 20
8.299506198
 30
0.0
 10
12.2051795514
 20
8.2993012844
 30
0.0
 10
12.2050031194
 20
8.2989276502
 30
0.0
 10
12.2047506341
 20
8.2984017477
 30
0.0
 10
12.20444784
 20
8.2977673001
 30
0.0
 10
12.2040440488
 20
8.2969225451
 30
0.0
 10
12.2035393322
 20
8.295866199
 30
0.0
 10
12.2027317732
 20
8.2941762702
 30
0.0
 10
12.2017223287
 20
8.2920637816
 30
0.0
 10
12.2005109933
 20
8.2895288305
 30
0.0
 10
12.1992996593
 20
8.2869938626
 30
0.0
 10
12.1982902112
 20
8.2848814159
 30
0.0
 10
12.1974826595
 20
8.2831914033
 30
0.0
 10
12.1969779243
 20
8.2821352702
 30
0.0
 10
12.1965741714
 20
8.2812900781
 30
0.0
 10
12.19627126
 20
8.2806569661
 30
0.0
 10
12.1960191415
 20
8.2801268846
 30
0.0
 10
12.1958420549
 20
8.2797607106
 30
0.0
 10
12.1957418051
 20
8.2795438439
 30
0.0
 10
12.1956639624
 20
8.2794026721
 30
0.0
 10
12.1955962699
 20
8.2791793992
 30
0.0
 10
12.1955024726
 20
8.2789103398
 30
0.0
 10
12.195339977
 20
8.2784261429
 30
0.0
 10
12.1951069781
 20
8.277741409
 30
0.0
 10
12.1948277484
 20
8.2769167423
 30
0.0
 10
12.1944553133
 20
8.2758182297
 30
0.0
 10
12.1939898136
 20
8.2744447318
 30
0.0
 10
12.1932449893
 20
8.2722473348
 30
0.0
 10
12.1923139675
 20
8.2695005197
 30
0.0
 10
12.1911967374
 20
8.2662043729
 30
0.0
 10
12.1900795095
 20
8.2629082109
 30
0.0
 10
12.1891484822
 20
8.2601614338
 30
0.0
 10
12.188403669
 20
8.2579639607
 30
0.0
 10
12.187938141
 20
8.2565906564
 30
0.0
 10
12.1875657639
 20
8.2554917463
 30
0.0
 10
12.1872863571
 20
8.2546682941
 30
0.0
 10
12.1870539124
 20
8.2539797605
 30
0.0
 10
12.1868904273
 20
8.2535023465
 30
0.0
 10
12.1867982155
 20
8.2532224193
 30
0.0
 10
12.1867256529
 20
8.2530325288
 30
0.0
 10
12.1866661013
 20
8.2527659782
 30
0.0
 10
12.1865821607
 20
8.2524373173
 30
0.0
 10
12.1864373792
 20
8.251849702
 30
0.0
 10
12.186229443
 20
8.2510167652
 30
0.0
 10
12.1859803927
 20
8.250014453
 30
0.0
 10
12.1856481605
 20
8.2486790105
 30
0.0
 10
12.1852329267
 20
8.2470093739
 30
0.0
 10
12.1845685209
 20
8.2443381421
 30
0.0
 10
12.1837380258
 20
8.2409990357
 30
0.0
 10
12.1827414213
 20
8.2369921479
 30
0.0
 10
12.1817448389
 20
8.2329852074
 30
0.0
 10
12.1809142883
 20
8.2296462325
 30
0.0
 10
12.1802499934
 20
8.2269747378
 30
0.0
 10
12.1797513747
 20
8.2249719758
 30
0.0
 10
12.1793371237
 20
8.223300275
 30
0.0
 10
12.1790446661
 20
8.222135447
 30
0.0
 10
12.1788814229
 20
8.2214614577
 30
0.0
 10
12.1787480735
 20
8.2209795534
 30
0.0
 10
12.1786564542
 20
8.2204074851
 30
0.0
 10
12.1785197393
 20
8.2196761777
 30
0.0
 10
12.1782872701
 20
8.2183817364
 30
0.0
 10
12.1779516255
 20
8.2165401954
 30
0.0
 10
12.1775503697
 20
8.2143270671
 30
0.0
 10
12.1770148317
 20
8.2113773751
 30
0.0
 10
12.1763455924
 20
8.2076898649
 30
0.0
 10
12.1755424212
 20
8.2032650306
 30
0.0
 10
12.1747392931
 20
8.1988401171
 30
0.0
 10
12.1740699459
 20
8.1951528051
 30
0.0
 10
12.1735346236
 20
8.1922027167
 30
0.0
 10
12.1731327099
 20
8.1899907971
 30
0.0
 10
12.1727991235
 20
8.1881454748
 30
0.0
 10
12.1725629801
 20
8.1868577839
 30
0.0
 10
12.1724321521
 20
8.1861156605
 30
0.0
 10
12.1723224502
 20
8.1855768152
 30
0.0
 10
12.1722570161
 20
8.1849701311
 30
0.0
 10
12.1721543296
 20
8.1841848818
 30
0.0
 10
12.1719818224
 20
8.1827996706
 30
0.0
 10
12.1717316224
 20
8.1808265614
 30
0.0
 10
12.1714329923
 20
8.1784563632
 30
0.0
 10
12.1710342563
 20
8.1752969609
 30
0.0
 10
12.1705360307
 20
8.1713474113
 30
0.0
 10
12.1699380705
 20
8.1666080827
 30
0.0
 10
12.1693401571
 20
8.1618687055
 30
0.0
 10
12.1688418143
 20
8.1579192773
 30
0.0
 10
12.1684433127
 20
8.1547596323
 30
0.0
 10
12.1681439677
 20
8.1523901741
 30
0.0
 10
12.1678960041
 20
8.1504147498
 30
0.0
 10
12.1677195045
 20
8.1490336715
 30
0.0
 10
12.1676232149
 20
8.1482418003
 30
0.0
 10
12.1675381315
 20
8.1476554567
 30
0.0
 10
12.167502229
 20
8.1470402155
 30
0.0
 10
12.1674372041
 20
8.1462299738
 30
0.0
 10
12.1673314033
 20
8.1448073544
 30
0.0
 10
12.1671760805
 20
8.1427774963
 30
0.0
 10
12.1669914822
 20
8.1403406156
 30
0.0
 10
12.1667447241
 20
8.1370918088
 30
0.0
 10
12.1664365071
 20
8.133030672
 30
0.0
 10
12.1660664799
 20
8.1281573721
 30
0.0
 10
12.165696751
 20
8.1232840205
 30
0.0
 10
12.1653259959
 20
8.1184108112
 30
0.0
 10
12.1650202053
 20
8.1143493724
 30
0.0
 10
12.1647999397
 20
8.1115072082
 30
0.0
 10
12.1646837714
 20
8.1098817986
 30
0.0
 10
12.164569327
 20
8.1086664477
 30
0.0
 10
12.1645593065
 20
8.1074369298
 30
0.0
 10
12.1645095215
 20
8.1058025142
 30
0.0
 10
12.1644393689
 20
8.1029399845
 30
0.0
 10
12.1643302764
 20
8.0988518597
 30
0.0
 10
12.1642031718
 20
8.0939455964
 30
0.0
 10
12.1640750404
 20
8.089039462
 30
0.0
 10
12.1639472099
 20
8.0841333257
 30
0.0
 10
12.1638405375
 20
8.0800447778
 30
0.0
 10
12.1637554017
 20
8.0767741827
 30
0.0
 10
12.1636910315
 20
8.0743205673
 30
0.0
 10
12.1636390335
 20
8.0722780167
 30
0.0
 10
12.1635994096
 20
8.0708440533
 30
0.0
 10
12.1635818034
 20
8.0700311692
 30
0.0
 10
12.1635544122
 20
8.069403129
 30
0.0
 10
12.1635812491
 20
8.0688453357
 30
0.0
 10
12.1635981162
 20
8.0680771083
 30
0.0
 10
12.1636364467
 20
8.0667441268
 30
0.0
 10
12.1636865971
 20
8.0648338989
 30
0.0
 10
12.1637487497
 20
8.0625441803
 30
0.0
 10
12.1638309307
 20
8.0594903292
 30
0.0
 10
12.163933895
 20
8.0556733244
 30
0.0
 10
12.1640573436
 20
8.051092775
 30
0.0
 10
12.1641808455
 20
8.0465123056
 30
0.0
 10
12.1642836763
 20
8.0426951009
 30
0.0
 10
12.1643661244
 20
8.0396416495
 30
0.0
 10
12.1644274624
 20
8.0373507119
 30
0.0
 10
12.1644801612
 20
8.0354442974
 30
0.0
 10
12.1645139423
 20
8.0341045083
 30
0.0
 10
12.1645380988
 20
8.0333471884
 30
0.0
 10
12.1645425452
 20
8.0327558911
 30
0.0
 10
12.1645992486
 20
8.0322536862
 30
0.0
 10
12.1646566254
 20
8.0315530032
 30
0.0
 10
12.1647655274
 20
8.0303412872
 30
0.0
 10
12.1649166615
 20
8.0286026944
 30
0.0
 10
12.165099923
 20
8.0265196232
 30
0.0
 10
12.1653436078
 20
8.0237410631
 30
0.0
 10
12.1656484418
 20
8.0202682518
 30
0.0
 10
12.1660141442
 20
8.0161007099
 30
0.0
 10
12.1663798752
 20
8.0119332187
 30
0.0
 10
12.1666846377
 20
8.0084602808
 30
0.0
 10
12.1669284653
 20
8.0056819738
 30
0.0
 10
12.1670808201
 20
8.0039454379
 30
0.0
 10
12.1672027896
 20
8.0025564239
 30
0.0
 10
12.1672940321
 20
8.0015140758
 30
0.0
 10
12.1673708139
 20
8.0006473214
 30
0.0
 10
12.1674230965
 20
8.0000369256
 30
0.0
 10
12.1674552592
 20
7.9996938548
 30
0.0
 10
12.1674729388
 20
7.999420419
 30
0.0
 10
12.1675152445
 20
7.9992086508
 30
0.0
 10
12.1675630622
 20
7.9989047828
 30
0.0
 10
12.1676507453
 20
7.9983830358
 30
0.0
 10
12.1677739145
 20
7.9976324434
 30
0.0
 10
12.1679226132
 20
7.9967339752
 30
0.0
 10
12.1681205653
 20
7.9955352342
 30
0.0
 10
12.1683681125
 20
7.9940370763
 30
0.0
 10
12.1687641282
 20
7.9916398736
 30
0.0
 10
12.1692591685
 20
7.9886434221
 30
0.0
 10
12.1698532074
 20
7.9850476564
 30
0.0
 10
12.1704472509
 20
7.9814519035
 30
0.0
 10
12.1709422795
 20
7.97845542
 30
0.0
 10
12.1713383185
 20
7.9760582813
 30
0.0
 10
12.1715858065
 20
7.9745599608
 30
0.0
 10
12.1717838801
 20
7.9733615536
 30
0.0
 10
12.1719322076
 20
7.9724620657
 30
0.0
 10
12.1720565383
 20
7.9717146639
 30
0.0
 10
12.1721421479
 20
7.9711872211
 30
0.0
 10
12.172193288
 20
7.9708924792
 30
0.0
 10
12.1722253884
 20
7.9706526783
 30
0.0
 10
12.1722813972
 20
7.9704845287
 30
0.0
 10
12.1723477362
 20
7.9702353364
 30
0.0
 10
12.1724677149
 20
7.9698108946
 30
0.0
 10
12.1726370816
 20
7.9691984612
 30
0.0
 10
12.1728411913
 20
7.9684661469
 30
0.0
 10
12.1731130337
 20
7.9674888177
 30
0.0
 10
12.1734529408
 20
7.9662674679
 30
0.0
 10
12.1739967339
 20
7.9643131339
 30
0.0
 10
12.1746764954
 20
7.9618702767
 30
0.0
 10
12.1754922001
 20
7.9589388199
 30
0.0
 10
12.1763079089
 20
7.9560073792
 30
0.0
 10
12.1769876604
 20
7.9535644821
 30
0.0
 10
12.1775314734
 20
7.9516102279
 30
0.0
 10
12.17787133
 20
7.9503886751
 30
0.0
 10
12.1781432761
 20
7.9494117625
 30
0.0
 10
12.1783470691
 20
7.9486781754
 30
0.0
 10
12.1785174264
 20
7.9480697245
 30
0.0
 10
12.1786356368
 20
7.9476381732
 30
0.0
 10
12.178704809
 20
7.947400372
 30
0.0
 10
12.1787521152
 20
7.9471972327
 30
0.0
 10
12.1788169013
 20
7.9470888474
 30
0.0
 10
12.1788971857
 20
7.9469112823
 30
0.0
 10
12.1790405241
 20
7.9466159427
 30
0.0
 10
12.179243808
 20
7.9461859781
 30
0.0
 10
12.1794883844
 20
7.9456734666
 30
0.0
 10
12.1798142643
 20
7.9449889143
 30
0.0
 10
12.1802216901
 20
7.944133636
 30
0.0
 10
12.1808735289
 20
7.9427649604
 30
0.0
 10
12.1816883422
 20
7.9410541954
 30
0.0
 10
12.1826661114
 20
7.9390012411
 30
0.0
 10
12.1836438838
 20
7.9369483051
 30
0.0
 10
12.1844586892
 20
7.9352374942
 30
0.0
 10
12.1851105436
 20
7.9338689106
 30
0.0
 10
12.18551793
 20
7.9330133985
 30
0.0
 10
12.1858438908
 20
7.9323293261
 30
0.0
 10
12.1860882201
 20
7.9318153484
 30
0.0
 10
12.186292277
 20
7.931389971
 30
0.0
 10
12.1864342355
 20
7.9310864425
 30
0.0
 10
12.1865167307
 20
7.9309219981
 30
0.0
 10
12.1865747258
 20
7.9307733104
 30
0.0
 10
12.1866475382
 20
7.93072154
 30
0.0
 10
12.186739453
 20
7.930618707
 30
0.0
 10
12.1869027119
 20
7.9304545
 30
0.0
 10
12.1871346799
 20
7.9302116838
 30
0.0
 10
12.1874135804
 20
7.9299238291
 30
0.0
 10
12.1877852595
 20
7.9295387918
 30
0.0
 10
12.1882499229
 20
7.9290579167
 30
0.0
 10
12.1889933483
 20
7.9282882808
 30
0.0
 10
12.1899226423
 20
7.9273263168
 30
0.0
 10
12.1910377899
 20
7.9261719259
 30
0.0
 10
12.1919670806
 20
7.9252099393
 30
0.0
 10
12.1927105134
 20
7.9244403532
 30
0.0
 10
12.1932680867
 20
7.9238631505
 30
0.0
 10
12.193825665
 20
7.9232859986
 30
0.0
 10
12.1942902978
 20
7.9228048804
 30
0.0
 10
12.1946620396
 20
7.9224203403
 30
0.0
 10
12.1949407485
 20
7.9221309667
 30
0.0
 10
12.1951733161
 20
7.921892903
 30
0.0
 10
12.1953355047
 20
7.9217202121
 30
0.0
 10
12.1954291344
 20
7.9216309724
 30
0.0
 10
12.1954966789
 20
7.9215374476
 30
0.0
 10
12.1955744594
 20
7.9215455826
 30
0.0
 10
12.1956745963
 20
7.9215209692
 30
0.0
 10
12.1958514993
 20
7.9214944173
 30
0.0
 10
12.1961033483
 20
7.9214478483
 30
0.0
 10
12.1964059393
 20
7.9213956627
 30
0.0
 10
12.1968092639
 20
7.9213247905
 30
0.0
 10
12.1973134644
 20
7.9212366434
 30
0.0
 10
12.1979184858
 20
7.9211306769
 30
0.0
 10
12.1985235123
 20
7.9210247612
 30
0.0
 10
12.1993302125
 20
7.9208835225
 30
0.0
 10
12.2003385884
 20
7.9207069808
 30
0.0
 10
12.2013469639
 20
7.9205304345
 30
0.0
 10
12.2021536648
 20
7.920389203
 30
0.0
 10
12.2027586894
 20
7.9202832656
 30
0.0
 10
12.2033637179
 20
7.9201773806
 30
0.0
 10
12.2038678963
 20
7.9200889798
 30
0.0
 10
12.2042712658
 20
7.9200186249
 30
0.0
 10
12.2045737196
 20
7.9199648595
 30
0.0
 10
12.204825998
 20
7.9199232334
 30
0.0
 10
12.2050021345
 20
7.9198878577
 30
0.0
 10
12.2051034996
 20
7.9198773822
 30
0.0
 10
12.2051775074
 20
7.9198420901
 30
0.0
 10
12.2052592211
 20
7.9199116702
 30
0.0
 10
12.2053654848
 20
7.9199678631
 30
0.0
 10
12.2055526987
 20
7.9200832442
 30
0.0
 10
12.2058194923
 20
7.9202391638
 30
0.0
 10
12.2061399248
 20
7.9204300813
 30
0.0
 10
12.2065670703
 20
7.9206833057
 30
0.0
 10
12.2071010358
 20
7.9210002934
 30
0.0
 10
12.20774178
 20
7.9213804826
 30
0.0
 10
12.2083825281
 20
7.9217607243
 30
0.0
 10
12.2092368574
 20
7.9222676949
 30
0.0
 10
12.2103047696
 20
7.9229014144
 30
0.0
 10
12.211586264
 20
7.9236618751
 30
0.0
 10
12.2132949233
 20
7.9246758236
 30
0.0
 10
12.2145764178
 20
7.9254362848
 30
0.0
 10
12.2154307474
 20
7.925943259
 30
0.0
  0
SPLINE
  5
3BA
100
AcDbEntity
  8
0
100
AcDbSpline
 62
4
  6
CONTINUOUS
 70
0
 71
3
 72
289
 73
285
 74
0
 42
0.0000001
 43
0.0000001
 44
0.0000000001
 40
0.0
 40
0.0
 40
0.0
 40
0.0
 40
0.015625
 40
0.0234375
 40
0.03125
 40
0.0390625
 40
0.046875
 40
0.05078125
 40
0.0546875
 40
0.056640625
 40
0.05859375
 40
0.060546875
 40
0.0615234375
 40
0.0620117188
 40
0.0625
 40
0.0629882812
 40
0.0634765625
 40
0.064453125
 40
0.06640625
 40
0.068359375
 40
0.0703125
 40
0.07421875
 40
0.078125
 40
0.0859375
 40
0.09375
 40
0.1015625
 40
0.109375
 40
0.11328125
 40
0.1171875
 40
0.119140625
 40
0.12109375
 40
0.123046875
 40
0.1240234375
 40
0.1245117188
 40
0.125
 40
0.1254882812
 40
0.1259765625
 40
0.126953125
 40
0.12890625
 40
0.130859375
 40
0.1328125
 40
0.13671875
 40
0.140625
 40
0.1484375
 40
0.15625
 40
0.1640625
 40
0.171875
 40
0.17578125
 40
0.1796875
 40
0.181640625
 40
0.18359375
 40
0.185546875
 40
0.1865234375
 40
0.1870117188
 40
0.1875
 40
0.1879882812
 40
0.1884765625
 40
0.189453125
 40
0.19140625
 40
0.193359375
 40
0.1953125
 40
0.19921875
 40
0.203125
 40
0.2109375
 40
0.21875
 40
0.2265625
 40
0.234375
 40
0.23828125
 40
0.2421875
 40
0.24609375
 40
0.248046875
 40
0.2490234375
 40
0.25
 40
0.2509765625
 40
0.251953125
 40
0.25390625
 40
0.2578125
 40
0.26171875
 40
0.265625
 40
0.2734375
 40
0.28125
 40
0.2890625
 40
0.296875
 40
0.30078125
 40
0.3046875
 40
0.30859375
 40
0.310546875
 40
0.3115234375
 40
0.3125
 40
0.3134765625
 40
0.314453125
 40
0.31640625
 40
0.3203125
 40
0.32421875
 40
0.328125
 40
0.3359375
 40
0.34375
 40
0.3515625
 40
0.359375
 40
0.36328125
 40
0.3671875
 40
0.37109375
 40
0.373046875
 40
0.3740234375
 40
0.375
 40
0.3759765625
 40
0.376953125
 40
0.37890625
 40
0.3828125
 40
0.38671875
 40
0.390625
 40
0.3984375
 40
0.40625
 40
0.4140625
 40
0.421875
 40
0.4296875
 40
0.43359375
 40
0.435546875
 40
0.4375
 40
0.439453125
 40
0.44140625
 40
0.4453125
 40
0.453125
 40
0.4609375
 40
0.46875
 40
0.4765625
 40
0.484375
 40
0.48828125
 40
0.4921875
 40
0.49609375
 40
0.498046875
 40
0.4990234375
 40
0.5
 40
0.5009765625
 40
0.501953125
 40
0.50390625
 40
0.5078125
 40
0.51171875
 40
0.515625
 40
0.5234375
 40
0.53125
 40
0.5390625
 40
0.546875
 40
0.55078125
 40
0.5546875
 40
0.55859375
 40
0.560546875
 40
0.5615234375
 40
0.5625
 40
0.5634765625
 40
0.564453125
 40
0.56640625
 40
0.5703125
 40
0.57421875
 40
0.578125
 40
0.5859375
 40
0.59375
 40
0.6015625
 40
0.609375
 40
0.61328125
 40
0.6171875
 40
0.619140625
 40
0.62109375
 40
0.623046875
 40
0.6240234375
 40
0.6245117188
 40
0.625
 40
0.6254882812
 40
0.6259765625
 40
0.626953125
 40
0.62890625
 40
0.630859375
 40
0.6328125
 40
0.63671875
 40
0.640625
 40
0.6484375
 40
0.65625
 40
0.6640625
 40
0.671875
 40
0.67578125
 40
0.6796875
 40
0.681640625
 40
0.68359375
 40
0.685546875
 40
0.6865234375
 40
0.6870117188
 40
0.6875
 40
0.6879882812
 40
0.6884765625
 40
0.689453125
 40
0.69140625
 40
0.693359375
 40
0.6953125
 40
0.69921875
 40
0.703125
 40
0.7109375
 40
0.71875
 40
0.7265625
 40
0.734375
 40
0.73828125
 40
0.7421875
 40
0.744140625
 40
0.74609375
 40
0.748046875
 40
0.7490234375
 40
0.7495117188
 40
0.75
 40
0.7504882812
 40
0.7509765625
 40
0.751953125
 40
0.75390625
 40
0.755859375
 40
0.7578125
 40
0.76171875
 40
0.765625
 40
0.7734375
 40
0.78125
 40
0.7890625
 40
0.796875
 40
0.80078125
 40
0.8046875
 40
0.806640625
 40
0.80859375
 40
0.810546875
 40
0.8115234375
 40
0.8120117188
 40
0.8125
 40
0.8129882812
 40
0.8134765625
 40
0.814453125
 40
0.81640625
 40
0.818359375
 40
0.8203125
 40
0.82421875
 40
0.828125
 40
0.8359375
 40
0.84375
 40
0.8515625
 40
0.85546875
 40
0.859375
 40
0.86328125
 40
0.8671875
 40
0.869140625
 40
0.87109375
 40
0.873046875
 40
0.8740234375
 40
0.8745117188
 40
0.875
 40
0.8754882812
 40
0.8759765625
 40
0.876953125
 40
0.87890625
 40
0.880859375
 40
0.8828125
 40
0.88671875
 40
0.890625
 40
0.89453125
 40
0.8984375
 40
0.90625
 40
0.9140625
 40
0.91796875
 40
0.921875
 40
0.92578125
 40
0.9296875
 40
0.931640625
 40
0.93359375
 40
0.935546875
 40
0.9365234375
 40
0.9370117188
 40
0.9375
 40
0.9379882812
 40
0.9384765625
 40
0.939453125
 40
0.94140625
 40
0.943359375
 40
0.9453125
 40
0.94921875
 40
0.953125
 40
0.95703125
 40
0.9609375
 40
0.96875
 40
0.9765625
 40
0.984375
 40
1.0
 40
1.0
 40
1.0
 40
1.0
 10
12.2154307429
 20
7.9259432546
 30
0.0
 10
12.216270277
 20
7.9270613941
 30
0.0
 10
12.2175295783
 20
7.928738603
 30
0.0
 10
12.2192086466
 20
7.9309748825
 30
0.0
 10
12.2204679479
 20
7.9326520898
 30
0.0
 10
12.2217272488
 20
7.9343293059
 30
0.0
 10
12.2227766677
 20
7.9357269585
 30
0.0
 10
12.2236161994
 20
7.9368451423
 30
0.0
 10
12.2241409145
 20
7.9375438666
 30
0.0
 10
12.2245606687
 20
7.9381031679
 30
0.0
 10
12.2248755335
 20
7.9385217626
 30
0.0
 10
12.2251377642
 20
7.9388733953
 30
0.0
 10
12.2253216333
 20
7.9391140357
 30
0.0
 10
12.2254262209
 20
7.9392601361
 30
0.0
 10
12.2255060151
 20
7.9393455086
 30
0.0
 10
12.2255806357
 20
7.9395233967
 30
0.0
 10
12.2256819344
 20
7.9397283103
 30
0.0
 10
12.2258583664
 20
7.9401019445
 30
0.0
 10
12.2261108516
 20
7.940627847
 30
0.0
 10
12.2264136457
 20
7.9412622946
 30
0.0
 10
12.226817437
 20
7.9421070496
 30
0.0
 10
12.2273221535
 20
7.9431633957
 30
0.0
 10
12.2281297126
 20
7.9448533245
 30
0.0
 10
12.229139157
 20
7.9469658131
 30
0.0
 10
12.2303504925
 20
7.9495007642
 30
0.0
 10
12.2315618264
 20
7.9520357321
 30
0.0
 10
12.2325712746
 20
7.9541481788
 30
0.0
 10
12.2333788262
 20
7.9558381914
 30
0.0
 10
12.2338835615
 20
7.9568943245
 30
0.0
 10
12.2342873144
 20
7.9577395166
 30
0.0
 10
12.2345902257
 20
7.9583726286
 30
0.0
 10
12.2348423442
 20
7.9589027101
 30
0.0
 10
12.2350194309
 20
7.9592688841
 30
0.0
 10
12.2351196806
 20
7.9594857508
 30
0.0
 10
12.2351975233
 20
7.9596269226
 30
0.0
 10
12.2352652159
 20
7.9598501955
 30
0.0
 10
12.2353590131
 20
7.9601192549
 30
0.0
 10
12.2355215087
 20
7.9606034518
 30
0.0
 10
12.2357545077
 20
7.9612881857
 30
0.0
 10
12.2360337373
 20
7.9621128524
 30
0.0
 10
12.2364061724
 20
7.963211365
 30
0.0
 10
12.2368716722
 20
7.9645848629
 30
0.0
 10
12.2376164964
 20
7.9667822599
 30
0.0
 10
12.2385475182
 20
7.969529075
 30
0.0
 10
12.2396647483
 20
7.9728252218
 30
0.0
 10
12.2407819762
 20
7.9761213838
 30
0.0
 10
12.2417130036
 20
7.9788681609
 30
0.0
 10
12.2424578167
 20
7.981065634
 30
0.0
 10
12.2429233447
 20
7.9824389383
 30
0.0
 10
12.2432957218
 20
7.9835378484
 30
0.0
 10
12.2435751286
 20
7.9843613006
 30
0.0
 10
12.2438075733
 20
7.9850498342
 30
0.0
 10
12.2439710584
 20
7.9855272482
 30
0.0
 10
12.2440632702
 20
7.9858071754
 30
0.0
 10
12.2441358328
 20
7.9859970659
 30
0.0
 10
12.2441953845
 20
7.9862636165
 30
0.0
 10
12.244279325
 20
7.9865922774
 30
0.0
 10
12.2444241065
 20
7.9871798927
 30
0.0
 10
12.2446320427
 20
7.9880128295
 30
0.0
 10
12.244881093
 20
7.9890151417
 30
0.0
 10
12.2452133253
 20
7.9903505842
 30
0.0
 10
12.245628559
 20
7.9920202208
 30
0.0
 10
12.2462929648
 20
7.9946914526
 30
0.0
 10
12.2471234599
 20
7.998030559
 30
0.0
 10
12.2481200645
 20
8.0020374468
 30
0.0
 10
12.2491166468
 20
8.0060443873
 30
0.0
 10
12.2499471974
 20
8.0093833622
 30
0.0
 10
12.2506114923
 20
8.0120548569
 30
0.0
 10
12.2511101111
 20
8.0140576189
 30
0.0
 10
12.251524362
 20
8.0157293197
 30
0.0
 10
12.2518168196
 20
8.0168941477
 30
0.0
 10
12.2519800629
 20
8.017568137
 30
0.0
 10
12.2521134123
 20
8.0180500413
 30
0.0
 10
12.2522050315
 20
8.0186221096
 30
0.0
 10
12.2523417464
 20
8.019353417
 30
0.0
 10
12.2525742157
 20
8.0206478583
 30
0.0
 10
12.2529098602
 20
8.0224893993
 30
0.0
 10
12.253311116
 20
8.0247025276
 30
0.0
 10
12.253846654
 20
8.0276522196
 30
0.0
 10
12.2545158933
 20
8.0313397298
 30
0.0
 10
12.2553190646
 20
8.0357645641
 30
0.0
 10
12.2561221927
 20
8.0401894776
 30
0.0
 10
12.2567915398
 20
8.0438767896
 30
0.0
 10
12.2573268622
 20
8.046826878
 30
0.0
 10
12.2577287758
 20
8.0490387976
 30
0.0
 10
12.2580623622
 20
8.0508841199
 30
0.0
 10
12.2582985056
 20
8.0521718108
 30
0.0
 10
12.2584293337
 20
8.0529139342
 30
0.0
 10
12.2585390355
 20
8.0534527795
 30
0.0
 10
12.2586044696
 20
8.0540594636
 30
0.0
 10
12.2587071561
 20
8.0548447129
 30
0.0
 10
12.2588796633
 20
8.0562299241
 30
0.0
 10
12.2591298634
 20
8.0582030333
 30
0.0
 10
12.2594284934
 20
8.0605732315
 30
0.0
 10
12.2598272295
 20
8.0637326338
 30
0.0
 10
12.2603254551
 20
8.0676821834
 30
0.0
 10
12.2609234153
 20
8.072421512
 30
0.0
 10
12.2615213286
 20
8.0771608892
 30
0.0
 10
12.2620196714
 20
8.0811103174
 30
0.0
 10
12.2624181731
 20
8.0842699624
 30
0.0
 10
12.262717518
 20
8.0866394206
 30
0.0
 10
12.2629654816
 20
8.0886148449
 30
0.0
 10
12.2631419812
 20
8.0899959232
 30
0.0
 10
12.2632382709
 20
8.0907877944
 30
0.0
 10
12.2633233542
 20
8.091374138
 30
0.0
 10
12.2633592568
 20
8.0919893792
 30
0.0
 10
12.2634242816
 20
8.0927996209
 30
0.0
 10
12.2635300825
 20
8.0942222403
 30
0.0
 10
12.2636854053
 20
8.0962520984
 30
0.0
 10
12.2638700035
 20
8.0986889791
 30
0.0
 10
12.2641167617
 20
8.1019377859
 30
0.0
 10
12.2644249786
 20
8.1059989227
 30
0.0
 10
12.2647950058
 20
8.1108722226
 30
0.0
 10
12.2651647347
 20
8.1157455742
 30
0.0
 10
12.2655354898
 20
8.1206187835
 30
0.0
 10
12.2658412805
 20
8.1246802223
 30
0.0
 10
12.266061546
 20
8.1275223865
 30
0.0
 10
12.2661777143
 20
8.1291477961
 30
0.0
 10
12.2662921588
 20
8.130363147
 30
0.0
 10
12.2663021793
 20
8.1315926649
 30
0.0
 10
12.2663519642
 20
8.1332270805
 30
0.0
 10
12.2664221169
 20
8.1360896102
 30
0.0
 10
12.2665312094
 20
8.140177735
 30
0.0
 10
12.2666583139
 20
8.1450839983
 30
0.0
 10
12.2667864453
 20
8.1499901327
 30
0.0
 10
12.2669142759
 20
8.154896269
 30
0.0
 10
12.2670209483
 20
8.1589848169
 30
0.0
 10
12.267106084
 20
8.162255412
 30
0.0
 10
12.2671704542
 20
8.1647090274
 30
0.0
 10
12.2672224522
 20
8.166751578
 30
0.0
 10
12.2672620761
 20
8.1681855414
 30
0.0
 10
12.2672796824
 20
8.1689984255
 30
0.0
 10
12.2673070736
 20
8.1696264657
 30
0.0
 10
12.2672802367
 20
8.170184259
 30
0.0
 10
12.2672633695
 20
8.1709524864
 30
0.0
 10
12.267225039
 20
8.1722854679
 30
0.0
 10
12.2671748887
 20
8.1741956958
 30
0.0
 10
12.2671127361
 20
8.1764854144
 30
0.0
 10
12.267030555
 20
8.1795392655
 30
0.0
 10
12.2669275908
 20
8.1833562703
 30
0.0
 10
12.2668041422
 20
8.1879368197
 30
0.0
 10
12.2666806402
 20
8.1925172891
 30
0.0
 10
12.2665778095
 20
8.1963344938
 30
0.0
 10
12.2664953613
 20
8.1993879452
 30
0.0
 10
12.2664340233
 20
8.2016788828
 30
0.0
 10
12.2663813245
 20
8.2035852973
 30
0.0
 10
12.2663475434
 20
8.2049250864
 30
0.0
 10
12.266323387
 20
8.2056824063
 30
0.0
 10
12.2663189405
 20
8.2062737036
 30
0.0
 10
12.2662622371
 20
8.2067759085
 30
0.0
 10
12.2662048604
 20
8.2074765915
 30
0.0
 10
12.2660959584
 20
8.2086883075
 30
0.0
 10
12.2659448242
 20
8.2104269003
 30
0.0
 10
12.2657615627
 20
8.2125099715
 30
0.0
 10
12.2655178779
 20
8.2152885316
 30
0.0
 10
12.265213044
 20
8.2187613429
 30
0.0
 10
12.2648473416
 20
8.2229288848
 30
0.0
 10
12.2644816106
 20
8.227096376
 30
0.0
 10
12.2641768481
 20
8.2305693139
 30
0.0
 10
12.2639330204
 20
8.2333476209
 30
0.0
 10
12.2637806657
 20
8.2350841568
 30
0.0
 10
12.2636586961
 20
8.2364731708
 30
0.0
 10
12.2635674536
 20
8.2375155189
 30
0.0
 10
12.2634906719
 20
8.2383822733
 30
0.0
 10
12.2634383893
 20
8.2389926691
 30
0.0
 10
12.2634062266
 20
8.2393357399
 30
0.0
 10
12.2633885469
 20
8.2396091757
 30
0.0
 10
12.2633462413
 20
8.2398209439
 30
0.0
 10
12.2632984236
 20
8.2401248119
 30
0.0
 10
12.2632107405
 20
8.2406465589
 30
0.0
 10
12.2630875712
 20
8.2413971513
 30
0.0
 10
12.2629388726
 20
8.2422956195
 30
0.0
 10
12.2627409205
 20
8.2434943605
 30
0.0
 10
12.2624933732
 20
8.2449925184
 30
0.0
 10
12.2620973576
 20
8.2473897211
 30
0.0
 10
12.2616023173
 20
8.2503861726
 30
0.0
 10
12.2610082784
 20
8.2539819383
 30
0.0
 10
12.2604142348
 20
8.2575776912
 30
0.0
 10
12.2599192062
 20
8.2605741747
 30
0.0
 10
12.2595231672
 20
8.2629713134
 30
0.0
 10
12.2592756792
 20
8.2644696339
 30
0.0
 10
12.2590776056
 20
8.2656680411
 30
0.0
 10
12.2589292782
 20
8.266567529
 30
0.0
 10
12.2588049474
 20
8.2673149308
 30
0.0
 10
12.2587193378
 20
8.2678423736
 30
0.0
 10
12.2586681978
 20
8.2681371155
 30
0.0
 10
12.2586360974
 20
8.2683769164
 30
0.0
 10
12.2585800885
 20
8.268545066
 30
0.0
 10
12.2585137496
 20
8.2687942583
 30
0.0
 10
12.2583937708
 20
8.2692187001
 30
0.0
 10
12.2582244041
 20
8.2698311335
 30
0.0
 10
12.2580202945
 20
8.2705634478
 30
0.0
 10
12.257748452
 20
8.271540777
 30
0.0
 10
12.257408545
 20
8.2727621268
 30
0.0
 10
12.2568647518
 20
8.2747164608
 30
0.0
 10
12.2561849904
 20
8.277159318
 30
0.0
 10
12.2553692856
 20
8.2800907748
 30
0.0
 10
12.2545535769
 20
8.2830222155
 30
0.0
 10
12.2538738253
 20
8.2854651126
 30
0.0
 10
12.2533300123
 20
8.2874193668
 30
0.0
 10
12.2529901558
 20
8.2886409196
 30
0.0
 10
12.2527182097
 20
8.2896178322
 30
0.0
 10
12.2525144167
 20
8.2903514193
 30
0.0
 10
12.2523440594
 20
8.2909598702
 30
0.0
 10
12.2522258489
 20
8.2913914215
 30
0.0
 10
12.2521566768
 20
8.2916292227
 30
0.0
 10
12.2521093706
 20
8.291832362
 30
0.0
 10
12.2520445844
 20
8.2919407473
 30
0.0
 10
12.2519643001
 20
8.2921183124
 30
0.0
 10
12.2518209617
 20
8.292413652
 30
0.0
 10
12.2516176778
 20
8.2928436166
 30
0.0
 10
12.2513731013
 20
8.2933561281
 30
0.0
 10
12.2510472215
 20
8.2940406804
 30
0.0
 10
12.2506397956
 20
8.2948959587
 30
0.0
 10
12.2499879568
 20
8.2962646343
 30
0.0
 10
12.2491731436
 20
8.2979753993
 30
0.0
 10
12.2481953743
 20
8.3000283536
 30
0.0
 10
12.247217602
 20
8.3020812896
 30
0.0
 10
12.2464027965
 20
8.3037921005
 30
0.0
 10
12.2457509422
 20
8.3051606841
 30
0.0
 10
12.2453435557
 20
8.3060161962
 30
0.0
 10
12.245017595
 20
8.3067002686
 30
0.0
 10
12.2447732656
 20
8.3072142463
 30
0.0
 10
12.2445692087
 20
8.3076396237
 30
0.0
 10
12.2444272502
 20
8.3079431522
 30
0.0
 10
12.244344755
 20
8.3081075966
 30
0.0
 10
12.2442867599
 20
8.3082562843
 30
0.0
 10
12.2442139475
 20
8.3083080547
 30
0.0
 10
12.2441220328
 20
8.3084108877
 30
0.0
 10
12.2439587739
 20
8.3085750947
 30
0.0
 10
12.2437268058
 20
8.3088179109
 30
0.0
 10
12.2434479053
 20
8.3091057656
 30
0.0
 10
12.2430762262
 20
8.3094908029
 30
0.0
 10
12.2426115628
 20
8.309971678
 30
0.0
 10
12.2418681375
 20
8.3107413139
 30
0.0
 10
12.2409388434
 20
8.3117032779
 30
0.0
 10
12.2398236958
 20
8.3128576688
 30
0.0
 10
12.2388944051
 20
8.3138196554
 30
0.0
 10
12.2381509724
 20
8.3145892415
 30
0.0
 10
12.2375933991
 20
8.3151664442
 30
0.0
 10
12.2370358207
 20
8.3157435961
 30
0.0
 10
12.236571188
 20
8.3162247143
 30
0.0
 10
12.2361994461
 20
8.3166092544
 30
0.0
 10
12.2359207372
 20
8.316898628
 30
0.0
 10
12.2356881696
 20
8.3171366917
 30
0.0
 10
12.2355259811
 20
8.3173093826
 30
0.0
 10
12.2354323513
 20
8.3173986223
 30
0.0
 10
12.2353648068
 20
8.3174921471
 30
0.0
 10
12.2352870264
 20
8.3174840121
 30
0.0
 10
12.2351868895
 20
8.3175086255
 30
0.0
 10
12.2350099864
 20
8.3175351774
 30
0.0
 10
12.2347581375
 20
8.3175817464
 30
0.0
 10
12.2344555464
 20
8.317633932
 30
0.0
 10
12.2340522218
 20
8.3177048042
 30
0.0
 10
12.2335480214
 20
8.3177929513
 30
0.0
 10
12.232943
 20
8.3178989178
 30
0.0
 10
12.2323379735
 20
8.3180048335
 30
0.0
 10
12.2315312733
 20
8.3181460722
 30
0.0
 10
12.2305228973
 20
8.3183226139
 30
0.0
 10
12.2295145218
 20
8.3184991602
 30
0.0
 10
12.228707821
 20
8.3186403917
 30
0.0
 10
12.2281027963
 20
8.3187463291
 30
0.0
 10
12.2274977679
 20
8.3188522141
 30
0.0
 10
12.2269935895
 20
8.3189406149
 30
0.0
 10
12.2265902199
 20
8.3190109698
 30
0.0
 10
12.2262877661
 20
8.3190647352
 30
0.0
 10
12.2260354878
 20
8.3191063613
 30
0.0
 10
12.2258593512
 20
8.319141737
 30
0.0
 10
12.2257579862
 20
8.3191522125
 30
0.0
 10
12.2256839783
 20
8.3191875046
 30
0.0
 10
12.2256022646
 20
8.3191179245
 30
0.0
 10
12.2254960009
 20
8.3190617316
 30
0.0
 10
12.2253087871
 20
8.3189463505
 30
0.0
 10
12.2250419935
 20
8.3187904309
 30
0.0
 10
12.2247215609
 20
8.3185995134
 30
0.0
 10
12.2242944154
 20
8.318346289
 30
0.0
 10
12.2237604499
 20
8.3180293013
 30
0.0
 10
12.2231197057
 20
8.3176491121
 30
0.0
 10
12.2224789577
 20
8.3172688704
 30
0.0
 10
12.2216246283
 20
8.3167618998
 30
0.0
 10
12.2205567161
 20
8.3161281803
 30
0.0
 10
12.2192752217
 20
8.3153677196
 30
0.0
 10
12.2175665624
 20
8.3143537711
 30
0.0
 10
12.216285068
 20
8.3135933099
 30
0.0
 10
12.2154307383
 20
8.3130863357
 30
0.0
  0
ELLIPSE
  5
3BB
100
AcDbEntity
  8
0
100
AcDbEllipse
 62
7
  6
CONTINUOUS
 10
10.3222776428
 20
7.4352245223
 30
0.0
 11
-0.1539707482
 21
0.1626695654
 31
0.0
 40
0.8456173891
 41
0.0
 42
6.2831853072
  0
ELLIPSE
  5
3BC
100
AcDbEntity
  8
0
100
AcDbEllipse
 62
7
  6
CONTINUOUS
 10
10.7443872889
 20
7.9198237516
 30
0.0
 11
0.1855501703
 21
-0.1328421676
 31
0.0
 40
0.7689335103
 41
0.0
 42
6.2831853072
  0
ENDSEC
  0
SECTION
  2
OBJECTS
  0
DICTIONARY
  5
C
100
AcDbDictionary
280
0
281
1
  3
ACAD_GROUP
350
D
  3
ACAD_MLINESTYLE
350
17
  3
ACAD_LAYOUT
350
1A
  3
ACAD_PLOTSETTINGS
350
19
  3
ACAD_PLOTSTYLENAME
350
E
  3
ACAD_IMAGE_DICT
350
       3BE
  3
ACAD_IMAGE_VARS
350
       3BF
  3
ACAD_TABLESTYLE
350
       3C0
  0
IMAGEDEF_REACTOR
  5
3BD
100
AcDbRasterImageDefReactor
 90
2
330
26F
  0
DICTIONARY
  5
D
102
{ACAD_REACTORS
330
C
102
}
100
AcDbDictionary
280
0
281
1
  0
ACDBDICTIONARYWDFLT
  5
E
102
{ACAD_REACTORS
330
C
102
}
100
AcDbDictionary
281
1
  3
Normal
350
F
100
AcDbDictionaryWithDefault
340
F
  0
DICTIONARY
  5
3BE
330
C
100
AcDbDictionary
281
1
  3
CB4_assy_2_img_1
350
       3C3
  0
RASTERVARIABLES
  5
3BF
330
C
100
AcDbRasterVariables
 90
0
 70
0
 71
1
 72
5
  0
DICTIONARY
  5
17
102
{ACAD_REACTORS
330
C
102
}
100
AcDbDictionary
280
0
281
1
  3
Standard
350
18
  0
DICTIONARY
  5
3C0
330
C
100
AcDbDictionary
281
1
  3
Standard
350
       3C4
  3
Standard1
350
       3C5
  0
DICTIONARY
  5
19
102
{ACAD_REACTORS
330
C
102
}
100
AcDbDictionary
281
1
  0
DICTIONARY
  5
1A
102
{ACAD_REACTORS
330
C
102
}
100
AcDbDictionary
281
1
  3
Model
350
3C1
  3
Layout1
350
3C2
  0
ACDBPLACEHOLDER
  5
F
102
{ACAD_REACTORS
330
E
102
}
  0
MLINESTYLE
  5
18
102
{ACAD_REACTORS
330
17
102
}
100
AcDbMlineStyle
  2
STANDARD
 70
0
  3

 62
256
 51
90.0
 52
90.0
 71
2
 49
0.5
 62
256
  6
BYLAYER
 49
-0.5
 62
256
  6
BYLAYER
  0
LAYOUT
  5
3C1
102
{ACAD_REACTORS
330
1A
102
}
100
AcDbPlotSettings
  1

  2
none_device
  4
ANSI_C_(22.00_x_17.00_Inches)
  6

 40
0.0
 41
0.0
 42
0.0
 43
0.0
 44
558.8
 45
431.8
 46
0.0
 47
0.0
 48
0.0
 49
0.0
140
0.0
141
0.0
142
1.0
143
1.0
 70
1024
 72
0
 73
0
 74
0
  7

 75
0
147
1.0
148
0.0
149
0.0
100
AcDbLayout
  1
Model
 70
0
 71
0
 10
0.0
 20
0.0
 11
22.0
 21
17.0
 12
0.0
 22
0.0
 32
0.0
 14
0.0
 24
0.0
 34
0.0
 15
0.0
 25
0.0
 35
0.0
146
0.0
 13
0.0
 23
0.0
 33
0.0
 16
1.0
 26
0.0
 36
0.0
 17
0.0
 27
1.0
 37
0.0
 76
0
330
20C
345
0
346
0
  0
LAYOUT
  5
3C2
102
{ACAD_REACTORS
330
1A
102
}
100
AcDbPlotSettings
  1

  2
none_device
  4
ANSI_C_(22.00_x_17.00_Inches)
  6

 40
0.0
 41
0.0
 42
0.0
 43
0.0
 44
558.8
 45
431.8
 46
0.0
 47
0.0
 48
0.0
 49
0.0
140
0.0
141
0.0
142
1.0
143
1.0
 70
0
 72
0
 73
0
 74
0
  7

 75
0
147
1.0
148
0.0
149
0.0
100
AcDbLayout
  1
Layout1
 70
0
 71
1
 10
0.0
 20
0.0
 11
22.0
 21
17.0
 12
0.0
 22
0.0
 32
0.0
 14
0.0
 24
0.0
 34
0.0
 15
0.0
 25
0.0
 35
0.0
146
0.0
 13
0.0
 23
0.0
 33
0.0
 16
1.0
 26
0.0
 36
0.0
 17
0.0
 27
1.0
 37
0.0
 76
0
330
20D
345
0
346
0
  0
IMAGEDEF
  5
3C3
102
{ACAD_REACTORS
330
3BE
330
3BD
102
}
100
AcDbRasterImageDef
 90
0
  1
CB4_assy_2_img_1.png
 10
369.0
 20
92.0
 11
0.0066666667
 21
0.0066666667
280
1
281
0
  0
TABLESTYLE
  5
3C4
102
{ACAD_REACTORS
330
3C0
330
272
102
}
330
3C0
100
AcDbTableStyle
  3
Standard
 70
0
 71
0
 40
0.06
 41
0.06
280
1
281
1
  7
Standard
140
0.18
170
1
 62
0
 63
7
283
0
  7
Standard
140
0.18
170
1
 62
0
 63
7
283
0
  7
Standard
140
0.18
170
1
 62
0
 63
7
283
0
  0
TABLESTYLE
  5
3C5
102
{ACAD_REACTORS
330
3C0
330
271
102
}
330
3C0
100
AcDbTableStyle
  3
Standard1
 70
1
 71
0
 40
0.06
 41
0.06
280
1
281
1
  7
Standard
140
0.18
170
1
 62
0
 63
7
283
0
  7
Standard
140
0.18
170
1
 62
0
 63
7
283
0
  7
Standard
140
0.18
170
1
 62
0
 63
7
283
0
  0
ENDSEC
  0
EOF
